  0
SECTION
  2
HEADER
  9
$ACADVER
  1
AC1015
  9
$DWGCODEPAGE
  3
ANSI_1252
  9
$EXTMAX
 10
297.0
 20
210.0
 30
0.0
  9
$EXTMIN
 10
0.0
 20
0.0
 30
0.0
  9
$LIMMIN
 10
0.0
 20
0.0
  9
$LIMMAX
 10
297.0
 20
210.0
  9
$VIEWCTR
 10
148.5
 20
105.0
  9
$VIEWSIZE
 40
210.0
  9
$CLAYER
  8
0
  9
$LTSCALE
 40
16.335
  9
$CELTYPE
  6
BYLAYER
  9
$DIMSCALE
 40
1.0
  9
$DIMASZ
 40
3.0
  9
$DIMEXO
 40
0.5
  9
$DIMDLI
 40
11.286
  9
$DIMEXE
 40
1.5
  9
$DIMCEN
 40
2.673
  9
$DIMLFAC
 40
1.0
  9
$DIMBLK
  1
_FILLED
  9
$DIMTXT
 40
3.0
  9
$DIMTOL
 70
1
  9
$DIMLIM
 70
0
  9
$DIMTFAC
 40
1.0
  9
$DIMTP
 40
0.01
  9
$DIMTM
 40
0.01
  9
$DIMGAP
 40
0.625
  9
$DIMDSEP
 70
44
  9
$PDMODE
 70
3
  9
$PDSIZE
 40
3.0
  9
$HANDSEED
  5
57D
  9
$TILEMODE
 70
1
  9
$MEASUREMENT
 70
1
  9
$INSUNITS
 70
4
  0
ENDSEC
  0
SECTION
  2
CLASSES
  0
CLASS
  1
ACDBDICTIONARYWDFLT
  2
AcDbDictionaryWithDefault
  3
AutoCAD 2000
 90
0
280
0
281
0
  0
CLASS
  1
ACDBPLACEHOLDER
  2
AcDbPlaceHolder
  3
AutoCAD 2000
 90
0
280
0
281
0
  0
CLASS
  1
LAYOUT
  2
AcDbLayout
  3
AutoCAD 2000
 90
0
280
0
281
0
  0
ENDSEC
  0
SECTION
  2
TABLES
  0
TABLE
  2
VPORT
  5
8
100
AcDbSymbolTable
 70
2
  0
VPORT
  5
1F4
100
AcDbSymbolTableRecord
100
AcDbViewportTableRecord
  2
*ACTIVE
 70
0
 10
0.0
 20
0.0
 11
1.0
 21
1.0
 12
148.5
 22
105.0
 13
0.0
 23
0.0
 14
1.0
 24
1.0
 15
0.0
 25
0.0
 16
0.0
 26
0.0
 36
1.0
 17
0.0
 27
0.0
 37
0.0
 40
210.0
 41
1.4142857143
 42
50.0
 43
0.0
 44
0.0
 50
0.0
 51
0.0
 71
0
 72
100
 73
1
 74
1
 75
0
 76
0
 77
0
 78
0
  0
ENDTAB
  0
TABLE
  2
LTYPE
  5
5
100
AcDbSymbolTable
 70
6
  0
LTYPE
  5
14
100
AcDbSymbolTableRecord
100
AcDbLinetypeTableRecord
  2
BYBLOCK
 70
0
  3

 72
65
 73
0
 40
0.0
  0
LTYPE
  5
15
100
AcDbSymbolTableRecord
100
AcDbLinetypeTableRecord
  2
BYLAYER
 70
0
  3

 72
65
 73
0
 40
0.0
  0
LTYPE
  5
16
100
AcDbSymbolTableRecord
100
AcDbLinetypeTableRecord
  2
CONTINUOUS
 70
64
  3
Solid line
 72
65
 73
0
 40
0.0
  0
LTYPE
  5
1F5
100
AcDbSymbolTableRecord
100
AcDbLinetypeTableRecord
  2
CENTER
 70
64
  3
____ _ ____ _ ____ _ ____ _ ____ _ ____ _ ____
 72
65
 73
4
 40
0.6
 49
0.375
 74
0
 49
-0.075
 74
0
 49
0.075
 74
0
 49
-0.075
 74
0
  0
LTYPE
  5
1F6
100
AcDbSymbolTableRecord
100
AcDbLinetypeTableRecord
  2
HIDDEN
 70
64
  3
- - - - - - - - - - - - - - - - - - - -
 72
65
 73
2
 40
0.2
 49
0.1
 74
0
 49
-0.1
 74
0
  0
LTYPE
  5
1F7
100
AcDbSymbolTableRecord
100
AcDbLinetypeTableRecord
  2
PHANTOM
 70
64
  3
_____ _ _ _____ _ _ _____ _ _ _____
 72
65
 73
6
 40
0.8
 49
0.45
 74
0
 49
-0.05
 74
0
 49
0.1
 74
0
 49
-0.05
 74
0
 49
0.1
 74
0
 49
-0.05
 74
0
  0
LTYPE
  5
1F8
100
AcDbSymbolTableRecord
100
AcDbLinetypeTableRecord
  2
DOT
 70
64
  3
. . . . . . . . . . . . . . . . . . . .
 72
65
 73
2
 40
0.2
 49
0.1
 74
0
 49
-0.1
 74
0
  0
LTYPE
  5
1F9
100
AcDbSymbolTableRecord
100
AcDbLinetypeTableRecord
  2
DASHED
 70
64
  3
- - - - - - - - - - - - - - - - - - - -
 72
65
 73
2
 40
0.2
 49
0.1
 74
0
 49
-0.1
 74
0
  0
ENDTAB
  0
TABLE
  2
LAYER
  5
2
100
AcDbSymbolTable
 70
36
  0
LAYER
  5
10
100
AcDbSymbolTableRecord
100
AcDbLayerTableRecord
  2
0
 70
0
 62
7
  6
CONTINUOUS
370
-3
390
F
  0
LAYER
  5
1FA
100
AcDbSymbolTableRecord
100
AcDbLayerTableRecord
  2
DEFAULT_1
 70
0
 62
7
  6
CENTER
370
-3
390
F
  0
LAYER
  5
1FB
100
AcDbSymbolTableRecord
100
AcDbLayerTableRecord
  2
DEFAULT_2
 70
0
 62
7
  6
HIDDEN
370
-3
390
F
  0
LAYER
  5
1FC
100
AcDbSymbolTableRecord
100
AcDbLayerTableRecord
  2
DEFAULT_3
 70
0
 62
7
  6
PHANTOM
370
-3
390
F
  0
LAYER
  5
1FD
100
AcDbSymbolTableRecord
100
AcDbLayerTableRecord
  2
ASSI
 70
0
 62
7
  6
CONTINUOUS
370
-3
390
F
  0
LAYER
  5
1FE
100
AcDbSymbolTableRecord
100
AcDbLayerTableRecord
  2
COORDINATE
 70
0
 62
7
  6
CONTINUOUS
370
-3
390
F
  0
LAYER
  5
1FF
100
AcDbSymbolTableRecord
100
AcDbLayerTableRecord
  2
COPY_PUBLISH
 70
0
 62
7
  6
CONTINUOUS
370
-3
390
F
  0
LAYER
  5
200
100
AcDbSymbolTableRecord
100
AcDbLayerTableRecord
  2
COSMETICI
 70
0
 62
7
  6
CONTINUOUS
370
-3
390
F
  0
LAYER
  5
201
100
AcDbSymbolTableRecord
100
AcDbLayerTableRecord
  2
CURVE
 70
0
 62
7
  6
CONTINUOUS
370
-3
390
F
  0
LAYER
  5
202
100
AcDbSymbolTableRecord
100
AcDbLayerTableRecord
  2
DRAFT
 70
0
 62
7
  6
CONTINUOUS
370
-3
390
F
  0
LAYER
  5
203
100
AcDbSymbolTableRecord
100
AcDbLayerTableRecord
  2
IMPORT_IGES
 70
0
 62
7
  6
CONTINUOUS
370
-3
390
F
  0
LAYER
  5
204
100
AcDbSymbolTableRecord
100
AcDbLayerTableRecord
  2
INTF_1
 70
0
 62
7
  6
CONTINUOUS
370
-3
390
F
  0
LAYER
  5
205
100
AcDbSymbolTableRecord
100
AcDbLayerTableRecord
  2
INTF_2
 70
0
 62
7
  6
CONTINUOUS
370
-3
390
F
  0
LAYER
  5
206
100
AcDbSymbolTableRecord
100
AcDbLayerTableRecord
  2
NOTE
 70
0
 62
7
  6
CONTINUOUS
370
-3
390
F
  0
LAYER
  5
207
100
AcDbSymbolTableRecord
100
AcDbLayerTableRecord
  2
PIANI
 70
0
 62
7
  6
CONTINUOUS
370
-3
390
F
  0
LAYER
  5
208
100
AcDbSymbolTableRecord
100
AcDbLayerTableRecord
  2
PUNTI
 70
0
 62
7
  6
CONTINUOUS
370
-3
390
F
  0
LAYER
  5
209
100
AcDbSymbolTableRecord
100
AcDbLayerTableRecord
  2
RACCORDO
 70
0
 62
7
  6
CONTINUOUS
370
-3
390
F
  0
LAYER
  5
20A
100
AcDbSymbolTableRecord
100
AcDbLayerTableRecord
  2
SIMBOLI
 70
0
 62
7
  6
CONTINUOUS
370
-3
390
F
  0
LAYER
  5
20B
100
AcDbSymbolTableRecord
100
AcDbLayerTableRecord
  2
SMUSSO
 70
0
 62
7
  6
CONTINUOUS
370
-3
390
F
  0
LAYER
  5
20C
100
AcDbSymbolTableRecord
100
AcDbLayerTableRecord
  2
SNAPLINE
 70
0
 62
7
  6
CONTINUOUS
370
-3
390
F
  0
LAYER
  5
20D
100
AcDbSymbolTableRecord
100
AcDbLayerTableRecord
  2
SUPERFICI
 70
0
 62
7
  6
CONTINUOUS
370
-3
390
F
  0
LAYER
  5
20E
100
AcDbSymbolTableRecord
100
AcDbLayerTableRecord
  2
TRASH
 70
0
 62
7
  6
CONTINUOUS
370
-3
390
F
  0
LAYER
  5
20F
100
AcDbSymbolTableRecord
100
AcDbLayerTableRecord
  2
XSEC_DATUMS
 70
0
 62
7
  6
CONTINUOUS
370
-3
390
F
  0
ENDTAB
  0
TABLE
  2
STYLE
  5
3
100
AcDbSymbolTable
 70
1
  0
STYLE
  5
11
100
AcDbSymbolTableRecord
100
AcDbTextStyleTableRecord
  2
STANDARD
 70
0
 40
0.0
 41
0.8
 50
0.0
 71
0
 42
0.2
  3
txt
  4

  0
STYLE
  5
210
100
AcDbSymbolTableRecord
100
AcDbTextStyleTableRecord
  2
TEXTSTYLE_1
 70
0
 40
0.0
 41
0.8
 50
0.0
 71
0
 42
0.2
  3
gdt
  4

  0
ENDTAB
  0
TABLE
  2
VIEW
  5
6
100
AcDbSymbolTable
 70
0
  0
ENDTAB
  0
TABLE
  2
UCS
  5
7
100
AcDbSymbolTable
 70
0
  0
ENDTAB
  0
TABLE
  2
APPID
  5
9
100
AcDbSymbolTable
 70
1
  0
APPID
  5
211
100
AcDbSymbolTableRecord
100
AcDbRegAppTableRecord
  2
ACAD
 70
0
  0
ENDTAB
  0
TABLE
  2
BLOCK_RECORD
  5
1
100
AcDbSymbolTable
 70
0
  0
BLOCK_RECORD
  5
212
100
AcDbSymbolTableRecord
100
AcDbBlockTableRecord
  2
*Model_Space
  0
BLOCK_RECORD
  5
213
100
AcDbSymbolTableRecord
100
AcDbBlockTableRecord
  2
*Paper_Space
  0
ENDTAB
  0
TABLE
  2
DIMSTYLE
  5
A
100
AcDbSymbolTable
 70
1
100
AcDbDimStyleTable
 71
0
  0
DIMSTYLE
105
214
100
AcDbSymbolTableRecord
100
AcDbDimStyleTableRecord
  2
STANDARD
 70
0
  3

  4

 40
1.0
 41
3.0
 42
0.5
 43
0.38
 44
1.5
 45
0.0
 46
0.0
 47
0.01
 48
0.01
140
3.0
141
0.09
142
0.0
143
25.4
144
1.0
145
0.0
146
1.0
147
0.625
 71
1.0
 72
0.0
 73
0
 74
0
 75
0
 76
0
 77
1
 78
8
170
0
171
2
172
0
173
0
174
0
175
0
176
0
177
0
178
0
270
2
271
2
272
2
273
2
274
2
275
0
280
0
281
0
282
0
283
1
284
8
285
0
286
0
287
3
288
0
340
11
278
44
  0
ENDTAB
  0
ENDSEC
  0
SECTION
  2
BLOCKS
  0
BLOCK
  5
20
100
AcDbEntity
  8
0
100
AcDbBlockBegin
  2
*Model_Space
 70
0
 10
0.0
 20
0.0
 30
0.0
  3
*Model_Space
  1

  0
ENDBLK
  5
21
100
AcDbEntity
  8
0
100
AcDbBlockEnd
  0
BLOCK
  5
1C
100
AcDbEntity
  8
0
100
AcDbBlockBegin
  2
*Paper_Space
 70
0
 10
0.0
 20
0.0
 30
0.0
  3
*Paper_Space
  1

  0
ENDBLK
  5
1D
100
AcDbEntity
  8
0
100
AcDbBlockEnd
  0
ENDSEC
  0
SECTION
  2
ENTITIES
  0
LWPOLYLINE
  5
215
100
AcDbEntity
  8
RACCORDO
100
AcDbPolyline
 62
7
  6
CONTINUOUS
 90
13
 70
0
 10
160.9711093826
 20
71.0727385431
 10
161.0037370412
 20
71.0748763733
 10
161.035806014
 20
71.0812540938
 10
161.0667679158
 20
71.0917628203
 10
161.0960934869
 20
71.1062231217
 10
161.1232807442
 20
71.1243878556
 10
161.1478637717
 20
71.1459460778
 10
161.1694219939
 20
71.1705291053
 10
161.1875867279
 20
71.1977163626
 10
161.2020470292
 20
71.2270419337
 10
161.2125557557
 20
71.2580038355
 10
161.2189334762
 20
71.2900728083
 10
161.2210713064
 20
71.3227004669
  0
LWPOLYLINE
  5
216
100
AcDbEntity
  8
RACCORDO
100
AcDbPolyline
 62
7
  6
CONTINUOUS
 90
13
 70
0
 10
141.1710332302
 20
71.0727385431
 10
141.1384055717
 20
71.0748763733
 10
141.1063365988
 20
71.0812540938
 10
141.0753746971
 20
71.0917628203
 10
141.046049126
 20
71.1062231217
 10
141.0188618686
 20
71.1243878556
 10
140.9942788411
 20
71.1459460778
 10
140.972720619
 20
71.1705291053
 10
140.954555885
 20
71.1977163626
 10
140.9400955836
 20
71.2270419337
 10
140.9295868571
 20
71.2580038355
 10
140.9232091367
 20
71.2900728083
 10
140.9210713064
 20
71.3227004669
  0
LWPOLYLINE
  5
217
100
AcDbEntity
  8
RACCORDO
100
AcDbPolyline
 62
253
  6
CONTINUOUS
 90
16
 70
0
 10
158.5842006871
 20
71.9449073267
 10
158.5584078677
 20
71.9435567497
 10
158.5328445972
 20
71.9399006653
 10
158.5077869965
 20
71.9339658721
 10
158.4835008978
 20
71.9258012247
 10
158.4602615247
 20
71.9154846363
 10
158.4383467481
 20
71.9031289615
 10
158.4179962711
 20
71.8888615942
 10
158.3994382702
 20
71.8728341413
 10
158.3828990398
 20
71.8552394873
 10
158.3685644806
 20
71.8362827868
 10
158.3565771805
 20
71.8161611198
 10
158.347059756
 20
71.7950811968
 10
158.3401163206
 20
71.7732669987
 10
158.3358264491
 20
71.7509594474
 10
158.3342387633
 20
71.7284009758
  0
LWPOLYLINE
  5
218
100
AcDbEntity
  8
RACCORDO
100
AcDbPolyline
 62
253
  6
CONTINUOUS
 90
16
 70
0
 10
143.5579419257
 20
71.085906
 10
143.5835082852
 20
71.0872247012
 10
143.6089373783
 20
71.0911786803
 10
143.633953371
 20
71.0977666881
 10
143.6582933534
 20
71.1069649724
 10
143.6816623409
 20
71.1187093283
 10
143.7037445007
 20
71.1328789015
 10
143.7243005583
 20
71.1493555454
 10
143.7430649737
 20
71.1679647205
 10
143.7597369787
 20
71.188417613
 10
143.7741121473
 20
71.2104291729
 10
143.786080293
 20
71.2337911757
 10
143.7955354384
 20
71.2582853413
 10
143.8023745026
 20
71.2836577282
 10
143.8065132963
 20
71.3096141311
 10
143.8079038495
 20
71.3358679238
  0
LINE
  5
219
100
AcDbEntity
  8
RACCORDO
100
AcDbLine
 62
7
  6
CONTINUOUS
 10
141.1710332302
 20
71.0727385431
 11
143.5711093826
 21
71.0727385431
  0
LINE
  5
21A
100
AcDbEntity
  8
RACCORDO
100
AcDbLine
 62
7
  6
CONTINUOUS
 10
158.5710332302
 20
71.0727385431
 11
160.9711093826
 21
71.0727385431
  0
LINE
  5
21B
100
AcDbEntity
  8
RACCORDO
100
AcDbLine
 62
253
  6
CONTINUOUS
 10
160.9579419257
 20
71.085906
 11
158.5842006871
 21
71.085906
  0
LINE
  5
21C
100
AcDbEntity
  8
RACCORDO
100
AcDbLine
 62
253
  6
CONTINUOUS
 10
143.5579419257
 20
71.085906
 11
141.1842006871
 21
71.085906
  0
LINE
  5
21D
100
AcDbEntity
  8
RACCORDO
100
AcDbLine
 62
253
  6
CONTINUOUS
 10
161.2079038495
 20
71.3358679238
 11
158.3342387633
 21
71.3358679238
  0
LINE
  5
21E
100
AcDbEntity
  8
RACCORDO
100
AcDbLine
 62
253
  6
CONTINUOUS
 10
140.9342387633
 20
71.3358679238
 11
143.8079038495
 21
71.3358679238
  0
LINE
  5
21F
100
AcDbEntity
  8
RACCORDO
100
AcDbLine
 62
7
  6
CONTINUOUS
 10
146.6210713064
 20
71.5727385431
 11
149.821071305
 21
71.5727385431
  0
LINE
  5
220
100
AcDbEntity
  8
RACCORDO
100
AcDbLine
 62
7
  6
CONTINUOUS
 10
152.3210713079
 20
71.5727385431
 11
155.5210713064
 21
71.5727385431
  0
LINE
  5
221
100
AcDbEntity
  8
RACCORDO
100
AcDbLine
 62
7
  6
CONTINUOUS
 10
147.5710713064
 20
71.5814654109
 11
149.8036162401
 21
71.5814654109
  0
LINE
  5
222
100
AcDbEntity
  8
RACCORDO
100
AcDbLine
 62
7
  6
CONTINUOUS
 10
152.3385263728
 20
71.5814654109
 11
154.5710713064
 21
71.5814654109
  0
LINE
  5
223
100
AcDbEntity
  8
ASSI
100
AcDbLine
 62
7
  6
CONTINUOUS
 10
146.6865608925
 20
71.6382281292
 11
147.5710713064
 21
71.6382281292
  0
LINE
  5
224
100
AcDbEntity
  8
ASSI
100
AcDbLine
 62
7
  6
CONTINUOUS
 10
154.5710713064
 20
71.6382281292
 11
155.4555817203
 21
71.6382281292
  0
LINE
  5
225
100
AcDbEntity
  8
RACCORDO
100
AcDbLine
 62
253
  6
CONTINUOUS
 10
161.2079038495
 20
71.7284009758
 11
158.3342387633
 21
71.7284009758
  0
LINE
  5
226
100
AcDbEntity
  8
RACCORDO
100
AcDbLine
 62
253
  6
CONTINUOUS
 10
140.9342387633
 20
71.7284009758
 11
143.8079038495
 21
71.7284009758
  0
LINE
  5
227
100
AcDbEntity
  8
RACCORDO
100
AcDbLine
 62
253
  6
CONTINUOUS
 10
160.9579419257
 20
71.9449073267
 11
158.5842006871
 21
71.9449073267
  0
LINE
  5
228
100
AcDbEntity
  8
RACCORDO
100
AcDbLine
 62
253
  6
CONTINUOUS
 10
143.5579419257
 20
71.9449073267
 11
141.1842006871
 21
71.9449073267
  0
LINE
  5
229
100
AcDbEntity
  8
RACCORDO
100
AcDbLine
 62
7
  6
CONTINUOUS
 10
141.1689275053
 20
72.4500888123
 11
143.5732151075
 21
72.4500888123
  0
LINE
  5
22A
100
AcDbEntity
  8
RACCORDO
100
AcDbLine
 62
7
  6
CONTINUOUS
 10
158.5689275053
 20
72.4500888123
 11
160.9732151075
 21
72.4500888123
  0
LWPOLYLINE
  5
22B
100
AcDbEntity
  8
RACCORDO
100
AcDbPolyline
 62
253
  6
CONTINUOUS
 90
16
 70
0
 10
158.5842006871
 20
71.085906
 10
158.5586343271
 20
71.0872247012
 10
158.5332052335
 20
71.0911786805
 10
158.5081892403
 20
71.0977666886
 10
158.4838492576
 20
71.1069649732
 10
158.4604802698
 20
71.1187093296
 10
158.43839811
 20
71.132878903
 10
158.4178420527
 20
71.149355547
 10
158.3990776378
 20
71.167964722
 10
158.3824056333
 20
71.1884176142
 10
158.3680304649
 20
71.210429174
 10
158.3560623194
 20
71.2337911765
 10
158.3466071742
 20
71.258285342
 10
158.3397681102
 20
71.2836577287
 10
158.3356293165
 20
71.3096141313
 10
158.3342387633
 20
71.3358679238
  0
LWPOLYLINE
  5
22C
100
AcDbEntity
  8
RACCORDO
100
AcDbPolyline
 62
253
  6
CONTINUOUS
 90
16
 70
0
 10
143.5579419257
 20
71.9449073267
 10
143.5837347456
 20
71.9435567496
 10
143.6092980166
 20
71.9399006651
 10
143.6343556176
 20
71.9339658718
 10
143.6586417165
 20
71.9258012242
 10
143.6818810898
 20
71.9154846355
 10
143.7037958664
 20
71.9031289604
 10
143.7241463431
 20
71.8888615931
 10
143.7427043437
 20
71.8728341403
 10
143.7592435737
 20
71.8552394865
 10
143.7735781327
 20
71.8362827861
 10
143.7855654327
 20
71.8161611191
 10
143.7950828571
 20
71.7950811961
 10
143.8020262924
 20
71.7732669983
 10
143.8063161638
 20
71.7509594472
 10
143.8079038495
 20
71.7284009758
  0
LINE
  5
22D
100
AcDbEntity
  8
RACCORDO
100
AcDbLine
 62
253
  6
CONTINUOUS
 10
143.5579419257
 20
120.0595710862
 11
143.5711093826
 21
120.0727385431
  0
LINE
  5
22E
100
AcDbEntity
  8
RACCORDO
100
AcDbLine
 62
253
  6
CONTINUOUS
 10
143.8079038495
 20
119.8096091624
 11
143.8210713064
 21
119.8227766193
  0
LINE
  5
22F
100
AcDbEntity
  8
RACCORDO
100
AcDbLine
 62
253
  6
CONTINUOUS
 10
149.821071305
 20
119.5727385431
 11
149.8036162401
 21
119.5640116753
  0
LINE
  5
230
100
AcDbEntity
  8
RACCORDO
100
AcDbLine
 62
253
  6
CONTINUOUS
 10
150.0710713064
 20
119.3227670997
 11
150.0536162415
 21
119.3140402319
  0
LINE
  5
231
100
AcDbEntity
  8
RACCORDO
100
AcDbLine
 62
7
  6
CONTINUOUS
 10
140.420995154
 20
73.1727385431
 11
146.6210713064
 21
73.1727385431
  0
LINE
  5
232
100
AcDbEntity
  8
DRAFT
100
AcDbLine
 62
7
  6
CONTINUOUS
 10
150.0710713064
 20
73.1727385431
 11
152.0710713064
 21
73.1727385431
  0
LINE
  5
233
100
AcDbEntity
  8
RACCORDO
100
AcDbLine
 62
7
  6
CONTINUOUS
 10
155.5210713064
 20
73.1727385431
 11
161.7211474589
 21
73.1727385431
  0
LINE
  5
234
100
AcDbEntity
  8
RACCORDO
100
AcDbLine
 62
7
  6
CONTINUOUS
 10
140.4384502189
 20
73.190193608
 11
143.8036162415
 21
73.190193608
  0
LINE
  5
235
100
AcDbEntity
  8
DRAFT
100
AcDbLine
 62
7
  6
CONTINUOUS
 10
147.5710713064
 20
73.190193608
 11
148.0710713064
 21
73.190193608
  0
LINE
  5
236
100
AcDbEntity
  8
DRAFT
100
AcDbLine
 62
7
  6
CONTINUOUS
 10
150.0536162415
 20
73.190193608
 11
152.0885263714
 21
73.190193608
  0
LINE
  5
237
100
AcDbEntity
  8
DRAFT
100
AcDbLine
 62
7
  6
CONTINUOUS
 10
154.0710713064
 20
73.190193608
 11
154.5710713064
 21
73.190193608
  0
LINE
  5
238
100
AcDbEntity
  8
RACCORDO
100
AcDbLine
 62
7
  6
CONTINUOUS
 10
158.3385263714
 20
73.190193608
 11
161.7036923939
 21
73.190193608
  0
LINE
  5
239
100
AcDbEntity
  8
RACCORDO
100
AcDbLine
 62
253
  6
CONTINUOUS
 10
143.6287609593
 20
73.3650488902
 11
147.8962160243
 21
73.3650488902
  0
LINE
  5
23A
100
AcDbEntity
  8
RACCORDO
100
AcDbLine
 62
253
  6
CONTINUOUS
 10
154.2459265886
 20
73.3650488902
 11
158.5133816535
 21
73.3650488902
  0
LINE
  5
23B
100
AcDbEntity
  8
DRAFT
100
AcDbLine
 62
7
  6
CONTINUOUS
 10
147.9227032545
 20
73.8727385431
 11
154.2194393583
 21
73.8727385431
  0
LWPOLYLINE
  5
23C
100
AcDbEntity
  8
RACCORDO
100
AcDbPolyline
 62
7
  6
CONTINUOUS
 90
16
 70
0
 10
140.420995154
 20
73.1727385431
 10
140.3691093402
 20
73.1754373675
 10
140.3175752719
 20
73.1835499093
 10
140.2669641373
 20
73.1970539144
 10
140.2176693302
 20
73.2159457228
 10
140.1704564143
 20
73.2400374784
 10
140.1263621245
 20
73.2687722558
 10
140.0861412836
 20
73.3014350731
 10
140.0497678365
 20
73.3378085203
 10
140.0171050191
 20
73.3780293612
 10
139.9883702417
 20
73.4221236509
 10
139.9642784861
 20
73.4693365668
 10
139.9453866777
 20
73.518631374
 10
139.9318826726
 20
73.5692425086
 10
139.9237701309
 20
73.6207765768
 10
139.9210713064
 20
73.6726623907
  0
LINE
  5
23D
100
AcDbEntity
  8
RACCORDO
100
AcDbLine
 62
253
  6
CONTINUOUS
 10
149.8036162401
 20
71.5814654109
 11
149.821071305
 21
71.5727385431
  0
LINE
  5
23E
100
AcDbEntity
  8
RACCORDO
100
AcDbLine
 62
253
  6
CONTINUOUS
 10
150.0536162415
 20
71.8314368543
 11
150.0710713064
 21
71.8227099865
  0
LINE
  5
23F
100
AcDbEntity
  8
RACCORDO
100
AcDbLine
 62
253
  6
CONTINUOUS
 10
143.5711093826
 20
71.0727385431
 11
143.5579419257
 21
71.085906
  0
LINE
  5
240
100
AcDbEntity
  8
RACCORDO
100
AcDbLine
 62
253
  6
CONTINUOUS
 10
143.8210713064
 20
71.3227004669
 11
143.8079038495
 21
71.3358679238
  0
LINE
  5
241
100
AcDbEntity
  8
RACCORDO
100
AcDbLine
 62
7
  6
CONTINUOUS
 10
142.8210713064
 20
116.9727385431
 11
143.8036162415
 21
117.9552834782
  0
LINE
  5
242
100
AcDbEntity
  8
RACCORDO
100
AcDbLine
 62
7
  6
CONTINUOUS
 10
142.9127414959
 20
116.5644087326
 11
142.8210713064
 21
116.4727385431
  0
LINE
  5
243
100
AcDbEntity
  8
DRAFT
100
AcDbLine
 62
7
  6
CONTINUOUS
 10
143.9170668521
 20
116.5687340888
 11
143.8123444386
 21
116.4640116753
  0
LINE
  5
244
100
AcDbEntity
  8
SMUSSO
100
AcDbLine
 62
7
  6
CONTINUOUS
 10
141.2210713064
 20
115.7727118963
 11
141.9211779279
 21
116.4727385431
  0
LINE
  5
245
100
AcDbEntity
  8
SMUSSO
100
AcDbLine
 62
7
  6
CONTINUOUS
 10
141.9386329929
 20
116.4640116753
 11
141.2385263714
 21
115.7639850285
  0
LINE
  5
246
100
AcDbEntity
  8
RACCORDO
100
AcDbLine
 62
253
  6
CONTINUOUS
 10
142.9127414959
 20
74.3648965853
 11
147.8790655922
 21
74.3648965853
  0
LINE
  5
247
100
AcDbEntity
  8
RACCORDO
100
AcDbLine
 62
253
  6
CONTINUOUS
 10
154.2630770206
 20
74.3648965853
 11
159.229401117
 21
74.3648965853
  0
LINE
  5
248
100
AcDbEntity
  8
RACCORDO
100
AcDbLine
 62
7
  6
CONTINUOUS
 10
158.7294201554
 20
74.5767429974
 11
158.2250757607
 21
74.5767429974
  0
LINE
  5
249
100
AcDbEntity
  8
RACCORDO
100
AcDbLine
 62
7
  6
CONTINUOUS
 10
143.4127224574
 20
74.5767429974
 11
143.9170668521
 21
74.5767429974
  0
LINE
  5
24A
100
AcDbEntity
  8
SMUSSO
100
AcDbLine
 62
7
  6
CONTINUOUS
 10
160.2209646849
 20
74.6727385431
 11
159.3210713064
 21
74.6727385431
  0
LINE
  5
24B
100
AcDbEntity
  8
SMUSSO
100
AcDbLine
 62
7
  6
CONTINUOUS
 10
142.8210713064
 20
74.6727385431
 11
141.9211779279
 21
74.6727385431
  0
LINE
  5
24C
100
AcDbEntity
  8
SMUSSO
100
AcDbLine
 62
7
  6
CONTINUOUS
 10
160.20350962
 20
74.6814654109
 11
158.3297981742
 21
74.6814654109
  0
LINE
  5
24D
100
AcDbEntity
  8
SMUSSO
100
AcDbLine
 62
7
  6
CONTINUOUS
 10
141.9386329929
 20
74.6814654109
 11
143.8123444386
 21
74.6814654109
  0
LINE
  5
24E
100
AcDbEntity
  8
DRAFT
100
AcDbLine
 62
7
  6
CONTINUOUS
 10
147.8790655922
 20
74.7826641288
 11
154.2630770206
 21
74.7826641288
  0
LINE
  5
24F
100
AcDbEntity
  8
DRAFT
100
AcDbLine
 62
7
  6
CONTINUOUS
 10
157.6670668521
 20
75.4267429974
 11
144.4750757607
 21
75.4267429974
  0
LINE
  5
250
100
AcDbEntity
  8
RACCORDO
100
AcDbLine
 62
7
  6
CONTINUOUS
 10
144.7946414651
 20
75.5480464597
 11
157.3475011477
 21
75.5480464597
  0
LINE
  5
251
100
AcDbEntity
  8
SMUSSO
100
AcDbLine
 62
7
  6
CONTINUOUS
 10
141.9211779279
 20
74.6727385431
 11
141.2210713064
 21
75.3727651898
  0
LINE
  5
252
100
AcDbEntity
  8
SMUSSO
100
AcDbLine
 62
7
  6
CONTINUOUS
 10
141.2385263714
 20
75.3814920576
 11
141.9386329929
 21
74.6814654109
  0
LINE
  5
253
100
AcDbEntity
  8
RACCORDO
100
AcDbLine
 62
7
  6
CONTINUOUS
 10
142.8210713064
 20
74.1727385431
 11
143.8036162415
 21
73.190193608
  0
LINE
  5
254
100
AcDbEntity
  8
RACCORDO
100
AcDbLine
 62
7
  6
CONTINUOUS
 10
142.9127414959
 20
74.5810683536
 11
142.8210713064
 21
74.6727385431
  0
LINE
  5
255
100
AcDbEntity
  8
DRAFT
100
AcDbLine
 62
7
  6
CONTINUOUS
 10
143.8123444386
 20
74.6814654109
 11
143.9170668521
 21
74.5767429974
  0
LINE
  5
256
100
AcDbEntity
  8
ASSI
100
AcDbLine
 62
7
  6
CONTINUOUS
 10
147.4524445366
 20
119.3549671527
 11
147.3962296865
 21
119.2932152066
  0
LINE
  5
257
100
AcDbEntity
  8
ASSI
100
AcDbLine
 62
7
  6
CONTINUOUS
 10
147.3962296865
 20
119.2932152066
 11
147.2943653704
 21
119.183355319
  0
LINE
  5
258
100
AcDbEntity
  8
ASSI
100
AcDbLine
 62
7
  6
CONTINUOUS
 10
147.172907521
 20
119.054389137
 11
147.1290584995
 21
119.0072679955
  0
LINE
  5
259
100
AcDbEntity
  8
ASSI
100
AcDbLine
 62
7
  6
CONTINUOUS
 10
147.2943653704
 20
119.183355319
 11
147.172907521
 21
119.054389137
  0
LINE
  5
25A
100
AcDbEntity
  8
RACCORDO
100
AcDbLine
 62
7
  6
CONTINUOUS
 10
147.8962160243
 20
117.780428196
 11
148.0710713064
 21
117.9552834782
  0
LINE
  5
25B
100
AcDbEntity
  8
RACCORDO
100
AcDbLine
 62
7
  6
CONTINUOUS
 10
147.8962160243
 20
73.3650488902
 11
148.0710713064
 21
73.190193608
  0
LINE
  5
25C
100
AcDbEntity
  8
ASSI
100
AcDbLine
 62
7
  6
CONTINUOUS
 10
147.1729093302
 20
72.0910791796
 11
147.2945987165
 21
71.9618766866
  0
LINE
  5
25D
100
AcDbEntity
  8
ASSI
100
AcDbLine
 62
7
  6
CONTINUOUS
 10
147.1290584995
 20
72.1382090907
 11
147.1729093302
 21
72.0910791796
  0
LINE
  5
25E
100
AcDbEntity
  8
ASSI
100
AcDbLine
 62
7
  6
CONTINUOUS
 10
147.2945987165
 20
71.9618766866
 11
147.3967754314
 21
71.851668015
  0
LWPOLYLINE
  5
25F
100
AcDbEntity
  8
ASSI
100
AcDbPolyline
 62
7
  6
CONTINUOUS
 90
11
 70
0
 10
147.3967754314
 20
71.851668015
 10
147.4530272325
 20
71.7898635996
 10
147.4774266171
 20
71.7626779799
 10
147.4991373909
 20
71.737975849
 10
147.518098139
 20
71.7159763084
 10
147.5342229421
 20
71.6967371579
 10
147.5474563288
 20
71.6802005977
 10
147.5577832421
 20
71.6664123304
 10
147.5651726558
 20
71.6553875902
 10
147.5696001119
 20
71.6471111429
 10
147.5710713064
 20
71.6415829885
  0
LINE
  5
260
100
AcDbEntity
  8
DRAFT
100
AcDbLine
 62
7
  6
CONTINUOUS
 10
150.0536162415
 20
117.9552834782
 11
150.0710713064
 21
117.9727385431
  0
LINE
  5
261
100
AcDbEntity
  8
ASSI
100
AcDbLine
 62
7
  6
CONTINUOUS
 10
150.5281263064
 20
77.9977385431
 11
151.9886273064
 21
77.9977385431
  0
LINE
  5
262
100
AcDbEntity
  8
ASSI
100
AcDbLine
 62
7
  6
CONTINUOUS
 10
151.9886273064
 20
78.7477385431
 11
150.5281232753
 21
78.7477385431
  0
LINE
  5
263
100
AcDbEntity
  8
DRAFT
100
AcDbLine
 62
7
  6
CONTINUOUS
 10
150.0536162415
 20
73.190193608
 11
150.0710713064
 21
73.1727385431
  0
LWPOLYLINE
  5
264
100
AcDbEntity
  8
RACCORDO
100
AcDbPolyline
 62
7
  6
CONTINUOUS
 90
13
 70
0
 10
144.3815359321
 20
109.9058098725
 10
144.4058685849
 20
109.9207353483
 10
144.4300774982
 20
109.9373391214
 10
144.4537792509
 20
109.9556211917
 10
144.4765583769
 20
109.9755977494
 10
144.4980416583
 20
109.9972526043
 10
144.517888915
 20
110.0205371861
 10
144.5356755806
 20
110.0455260016
 10
144.5510395495
 20
110.072144544
 10
144.5636859483
 20
110.1001207233
 10
144.5732327708
 20
110.1293638427
 10
144.5792851405
 20
110.159964599
 10
144.5815283167
 20
110.1919229922
  0
LINE
  5
265
100
AcDbEntity
  8
SMUSSO
100
AcDbLine
 62
7
  6
CONTINUOUS
 10
160.20350962
 20
116.4640116753
 11
160.2209646849
 21
116.4727385431
  0
LWPOLYLINE
  5
266
100
AcDbEntity
  8
RACCORDO
100
AcDbPolyline
 62
7
  6
CONTINUOUS
 90
28
 70
0
 10
144.3815359321
 20
109.9058098725
 10
144.3444397126
 20
109.8875832343
 10
144.3078548118
 20
109.8733463273
 10
144.2717812299
 20
109.8630991515
 10
144.2359416888
 20
109.8571749605
 10
144.2006134665
 20
109.8552405006
 10
144.166628397
 20
109.8562960115
 10
144.134210868
 20
109.8602788585
 10
144.1031364919
 20
109.8672516761
 10
144.0735639395
 20
109.8764026078
 10
144.0454822418
 20
109.8876928566
 10
144.0189023679
 20
109.9011612195
 10
143.9940158961
 20
109.9161122302
 10
143.9709329453
 20
109.9324344272
 10
143.9495433966
 20
109.9502392721
 10
143.9297084708
 20
109.9691656834
 10
143.9114069673
 20
109.9891395179
 10
143.8946600867
 20
110.0102349189
 10
143.8793926518
 20
110.0323132338
 10
143.8655363909
 20
110.0554451034
 10
143.8531595757
 20
110.079559887
 10
143.8423918435
 20
110.1043070104
 10
143.8332575561
 20
110.1296852339
 10
143.8257323517
 20
110.1556957972
 10
143.8198727826
 20
110.1819918455
 10
143.8156976994
 20
110.2084577605
 10
143.8131882514
 20
110.2352091604
 10
143.8123444386
 20
110.2622460454
  0
LINE
  5
267
100
AcDbEntity
  8
SMUSSO
100
AcDbLine
 62
7
  6
CONTINUOUS
 10
160.2209646849
 20
74.6727385431
 11
160.20350962
 21
74.6814654109
  0
LINE
  5
268
100
AcDbEntity
  8
ASSI
100
AcDbLine
 62
7
  6
CONTINUOUS
 10
155.335262481
 20
119.3536281606
 11
155.2791334919
 21
119.2919966603
  0
LINE
  5
269
100
AcDbEntity
  8
ASSI
100
AcDbLine
 62
7
  6
CONTINUOUS
 10
155.2791334919
 20
119.2919966603
 11
155.1775894573
 21
119.182498007
  0
LINE
  5
26A
100
AcDbEntity
  8
ASSI
100
AcDbLine
 62
7
  6
CONTINUOUS
 10
155.056697138
 20
119.0541319456
 11
155.0130841134
 21
119.0072679955
  0
LINE
  5
26B
100
AcDbEntity
  8
ASSI
100
AcDbLine
 62
7
  6
CONTINUOUS
 10
155.1775894573
 20
119.182498007
 11
155.056697138
 21
119.0541319456
  0
LINE
  5
26C
100
AcDbEntity
  8
ASSI
100
AcDbLine
 62
7
  6
CONTINUOUS
 10
155.4555817203
 20
119.507248957
 11
155.5210713064
 21
119.5727385431
  0
LINE
  5
26D
100
AcDbEntity
  8
SMUSSO
100
AcDbLine
 62
7
  6
CONTINUOUS
 10
160.9036162415
 20
115.7639850285
 11
160.9210713064
 21
115.7727118963
  0
LINE
  5
26E
100
AcDbEntity
  8
ASSI
100
AcDbLine
 62
7
  6
CONTINUOUS
 10
147.2826413064
 20
82.3666215431
 11
148.4648873064
 21
82.3666215431
  0
LINE
  5
26F
100
AcDbEntity
  8
ASSI
100
AcDbLine
 62
7
  6
CONTINUOUS
 10
148.4648873064
 20
82.7832865431
 11
148.0957753064
 21
82.7832865431
  0
LINE
  5
270
100
AcDbEntity
  8
ASSI
100
AcDbLine
 62
7
  6
CONTINUOUS
 10
147.6518963064
 20
82.7832865431
 11
147.2826413064
 21
82.7832865431
  0
LINE
  5
271
100
AcDbEntity
  8
SMUSSO
100
AcDbLine
 62
7
  6
CONTINUOUS
 10
160.9210713064
 20
75.3727651898
 11
160.9036162415
 21
75.3814920576
  0
LINE
  5
272
100
AcDbEntity
  8
ASSI
100
AcDbLine
 62
7
  6
CONTINUOUS
 10
155.4555817203
 20
71.6382281292
 11
155.5210713064
 21
71.5727385431
  0
LINE
  5
273
100
AcDbEntity
  8
ASSI
100
AcDbLine
 62
7
  6
CONTINUOUS
 10
155.0566967118
 20
72.0913401158
 11
155.1777735122
 21
71.9627858816
  0
LINE
  5
274
100
AcDbEntity
  8
ASSI
100
AcDbLine
 62
7
  6
CONTINUOUS
 10
155.0130841134
 20
72.1382090907
 11
155.0566967118
 21
72.0913401158
  0
LINE
  5
275
100
AcDbEntity
  8
ASSI
100
AcDbLine
 62
7
  6
CONTINUOUS
 10
155.1777735122
 20
71.9627858816
 11
155.2795719728
 21
71.8530040386
  0
LWPOLYLINE
  5
276
100
AcDbEntity
  8
ASSI
100
AcDbPolyline
 62
7
  6
CONTINUOUS
 90
11
 70
0
 10
155.2795719728
 20
71.8530040386
 10
155.3357287789
 20
71.7913320128
 10
155.3601340116
 20
71.7641604801
 10
155.3818862186
 20
71.7394390521
 10
155.4009213494
 20
71.7173889437
 10
155.4171550425
 20
71.6980683328
 10
155.430532161
 20
71.6814190415
 10
155.4410363381
 20
71.667487751
 10
155.4486386361
 20
71.6562900219
 10
155.4533174598
 20
71.6478102936
 10
155.4550800898
 20
71.6420485662
  0
LWPOLYLINE
  5
277
100
AcDbEntity
  8
RACCORDO
100
AcDbPolyline
 62
253
  6
CONTINUOUS
 90
16
 70
0
 10
140.9342387633
 20
71.3358679238
 10
140.9356293166
 20
71.3096141309
 10
140.9397681104
 20
71.2836577278
 10
140.9466071746
 20
71.2582853407
 10
140.9560623202
 20
71.2337911748
 10
140.9680304661
 20
71.2104291719
 10
140.982405635
 20
71.1884176118
 10
140.9990776404
 20
71.1679647192
 10
141.0178420562
 20
71.1493555438
 10
141.0383981142
 20
71.1328789
 10
141.060480274
 20
71.1187093272
 10
141.0838492612
 20
71.1069649716
 10
141.1081892432
 20
71.0977666876
 10
141.1332052356
 20
71.0911786801
 10
141.1586343282
 20
71.0872247011
 10
141.1842006871
 20
71.085906
  0
LINE
  5
278
100
AcDbEntity
  8
RACCORDO
100
AcDbLine
 62
253
  6
CONTINUOUS
 10
140.9342387633
 20
71.7284009758
 11
140.9210713064
 21
72.1639327156
  0
LINE
  5
279
100
AcDbEntity
  8
RACCORDO
100
AcDbLine
 62
253
  6
CONTINUOUS
 10
141.1842006871
 20
71.9449073267
 11
141.1689275053
 21
72.4500888123
  0
LINE
  5
27A
100
AcDbEntity
  8
ASSI
100
AcDbLine
 62
7
  6
CONTINUOUS
 10
139.8710713064
 20
113.0727385431
 11
139.8710713064
 21
112.0727385431
  0
LINE
  5
27B
100
AcDbEntity
  8
ASSI
100
AcDbLine
 62
7
  6
CONTINUOUS
 10
139.8710713064
 20
79.0727385431
 11
139.8710713064
 21
78.0727385431
  0
LINE
  5
27C
100
AcDbEntity
  8
RACCORDO
100
AcDbLine
 62
7
  6
CONTINUOUS
 10
139.9210713064
 20
117.4728146955
 11
139.9210713064
 21
113.2906834903
  0
LINE
  5
27D
100
AcDbEntity
  8
ASSI
100
AcDbLine
 62
7
  6
CONTINUOUS
 10
139.9210713064
 20
111.8547935959
 11
139.9210713064
 21
79.2906834903
  0
LINE
  5
27E
100
AcDbEntity
  8
RACCORDO
100
AcDbLine
 62
7
  6
CONTINUOUS
 10
139.9210713064
 20
77.8547935959
 11
139.9210713064
 21
73.6726623907
  0
LINE
  5
27F
100
AcDbEntity
  8
RACCORDO
100
AcDbLine
 62
7
  6
CONTINUOUS
 10
139.9385263714
 20
117.4553596306
 11
139.9385263714
 21
113.3235469942
  0
LINE
  5
280
100
AcDbEntity
  8
ASSI
100
AcDbLine
 62
7
  6
CONTINUOUS
 10
139.9385263714
 20
111.821930092
 11
139.9385263714
 21
79.3235469942
  0
LINE
  5
281
100
AcDbEntity
  8
RACCORDO
100
AcDbLine
 62
7
  6
CONTINUOUS
 10
139.9385263714
 20
77.821930092
 11
139.9385263714
 21
73.6901174556
  0
LINE
  5
282
100
AcDbEntity
  8
RACCORDO
100
AcDbLine
 62
253
  6
CONTINUOUS
 10
140.9210713064
 20
118.9815443706
 11
140.9342387633
 21
119.4170761104
  0
LINE
  5
283
100
AcDbEntity
  8
RACCORDO
100
AcDbLine
 62
253
  6
CONTINUOUS
 10
141.1689275053
 20
118.6953882739
 11
141.1842006871
 21
119.2005697594
  0
LWPOLYLINE
  5
284
100
AcDbEntity
  8
RACCORDO
100
AcDbPolyline
 62
253
  6
CONTINUOUS
 90
16
 70
0
 10
140.9342387633
 20
119.8096091624
 10
140.9356293165
 20
119.8358629549
 10
140.9397681102
 20
119.8618193575
 10
140.9466071742
 20
119.8871917442
 10
140.9560623194
 20
119.9116859097
 10
140.9680304649
 20
119.9350479122
 10
140.9824056333
 20
119.957059472
 10
140.9990776378
 20
119.9775123642
 10
141.0178420527
 20
119.9961215392
 10
141.03839811
 20
120.0125981832
 10
141.0604802698
 20
120.0267677566
 10
141.0838492576
 20
120.0385121129
 10
141.1081892403
 20
120.0477103976
 10
141.1332052335
 20
120.0542984057
 10
141.1586343271
 20
120.0582523849
 10
141.1842006871
 20
120.0595710862
  0
LINE
  5
285
100
AcDbEntity
  8
RACCORDO
100
AcDbLine
 62
253
  6
CONTINUOUS
 10
144.5815283167
 20
105.0831498611
 11
144.5946490805
 21
105.0962706249
  0
LINE
  5
286
100
AcDbEntity
  8
0
100
AcDbLine
 62
7
  6
CONTINUOUS
 10
148.0044046497
 20
106.7323130518
 11
148.1294046497
 21
106.8174194246
  0
LINE
  5
287
100
AcDbEntity
  8
0
100
AcDbLine
 62
7
  6
CONTINUOUS
 10
148.0877379632
 20
107.0301853567
 11
147.9210713064
 21
106.9450789838
  0
LINE
  5
288
100
AcDbEntity
  8
ASSI
100
AcDbLine
 62
7
  6
CONTINUOUS
 10
146.5315353064
 20
85.1089055431
 11
147.6518963064
 21
84.1647695431
  0
LINE
  5
289
100
AcDbEntity
  8
RACCORDO
100
AcDbLine
 62
253
  6
CONTINUOUS
 10
144.5815283167
 20
86.0623272251
 11
144.5946490805
 21
86.0492064613
  0
LINE
  5
28A
100
AcDbEntity
  8
RACCORDO
100
AcDbLine
 62
7
  6
CONTINUOUS
 10
140.9210713064
 20
71.3227004669
 11
140.9210713064
 21
72.9727690041
  0
LINE
  5
28B
100
AcDbEntity
  8
RACCORDO
100
AcDbLine
 62
7
  6
CONTINUOUS
 10
140.9210713064
 20
118.1727080821
 11
140.9210713064
 21
119.8227766193
  0
LINE
  5
28C
100
AcDbEntity
  8
RACCORDO
100
AcDbLine
 62
253
  6
CONTINUOUS
 10
140.9342387633
 20
71.3358679238
 11
140.9342387633
 21
71.7284009758
  0
LINE
  5
28D
100
AcDbEntity
  8
RACCORDO
100
AcDbLine
 62
253
  6
CONTINUOUS
 10
140.9342387633
 20
119.4170761104
 11
140.9342387633
 21
119.8096091624
  0
LINE
  5
28E
100
AcDbEntity
  8
RACCORDO
100
AcDbLine
 62
253
  6
CONTINUOUS
 10
141.1842006871
 20
71.085906
 11
141.1842006871
 21
71.9449073267
  0
LINE
  5
28F
100
AcDbEntity
  8
RACCORDO
100
AcDbLine
 62
253
  6
CONTINUOUS
 10
141.1842006871
 20
119.2005697594
 11
141.1842006871
 21
120.0595710862
  0
LINE
  5
290
100
AcDbEntity
  8
SMUSSO
100
AcDbLine
 62
7
  6
CONTINUOUS
 10
141.2210713064
 20
115.7727118963
 11
141.2210713064
 21
75.3727651898
  0
LINE
  5
291
100
AcDbEntity
  8
SMUSSO
100
AcDbLine
 62
7
  6
CONTINUOUS
 10
141.2385263714
 20
115.7639850285
 11
141.2385263714
 21
75.3814920576
  0
LWPOLYLINE
  5
292
100
AcDbEntity
  8
ASSI
100
AcDbPolyline
 62
7
  6
CONTINUOUS
 90
10
 70
0
 10
147.5710713064
 20
119.5038940977
 10
147.5695768957
 20
119.498293859
 10
147.5650873994
 20
119.4899362111
 10
147.5576088774
 20
119.4788211541
 10
147.5471771863
 20
119.464921209
 10
147.5338356673
 20
119.4482638548
 10
147.5176138974
 20
119.4289315283
 10
147.4985881096
 20
119.4068805377
 10
147.4768498403
 20
119.3821545749
 10
147.4524445366
 20
119.3549671527
  0
LINE
  5
293
100
AcDbEntity
  8
0
100
AcDbLine
 62
7
  6
CONTINUOUS
 10
147.9210713064
 20
106.9450789838
 11
147.7544046422
 21
106.7748662382
  0
LINE
  5
294
100
AcDbEntity
  8
RACCORDO
100
AcDbLine
 62
253
  6
CONTINUOUS
 10
160.9711093826
 20
120.0727385431
 11
160.9579419257
 21
120.0595710862
  0
LINE
  5
295
100
AcDbEntity
  8
RACCORDO
100
AcDbLine
 62
253
  6
CONTINUOUS
 10
161.2210713064
 20
119.8227766193
 11
161.2079038495
 21
119.8096091624
  0
LINE
  5
296
100
AcDbEntity
  8
RACCORDO
100
AcDbLine
 62
253
  6
CONTINUOUS
 10
145.7814826244
 20
103.8831955534
 11
145.7946033882
 21
103.8963163172
  0
LINE
  5
297
100
AcDbEntity
  8
RACCORDO
100
AcDbLine
 62
7
  6
CONTINUOUS
 10
157.6670668521
 20
115.7187340888
 11
157.5474935323
 21
115.599160769
  0
LINE
  5
298
100
AcDbEntity
  8
0
100
AcDbLine
 62
7
  6
CONTINUOUS
 10
148.8377379334
 20
106.3493342548
 11
147.6710713064
 21
105.285504505
  0
LINE
  5
299
100
AcDbEntity
  8
0
100
AcDbLine
 62
7
  6
CONTINUOUS
 10
148.0044046497
 20
105.285504505
 11
149.0460713064
 21
106.2216746955
  0
LINE
  5
29A
100
AcDbEntity
  8
0
100
AcDbLine
 62
7
  6
CONTINUOUS
 10
150.7544045603
 20
106.7323130518
 11
150.8794045603
 21
106.8174194246
  0
LINE
  5
29B
100
AcDbEntity
  8
0
100
AcDbLine
 62
7
  6
CONTINUOUS
 10
150.8377380526
 20
107.0301853567
 11
150.6294045603
 21
106.9025257974
  0
LINE
  5
29C
100
AcDbEntity
  8
ASSI
100
AcDbLine
 62
7
  6
CONTINUOUS
 10
147.2962483064
 20
85.7434845431
 11
147.6518963064
 21
85.7434845431
  0
LINE
  5
29D
100
AcDbEntity
  8
ASSI
100
AcDbLine
 62
7
  6
CONTINUOUS
 10
148.0957753064
 20
85.7434845431
 11
148.4512803064
 21
85.7434845431
  0
LINE
  5
29E
100
AcDbEntity
  8
RACCORDO
100
AcDbLine
 62
253
  6
CONTINUOUS
 10
144.7946414651
 20
86.0492064613
 11
144.5946490805
 21
86.0492064613
  0
LINE
  5
29F
100
AcDbEntity
  8
RACCORDO
100
AcDbLine
 62
253
  6
CONTINUOUS
 10
157.3475011477
 20
86.0492064613
 11
157.5474935323
 21
86.0492064578
  0
LINE
  5
2A0
100
AcDbEntity
  8
RACCORDO
100
AcDbLine
 62
253
  6
CONTINUOUS
 10
157.7606066808
 20
86.0623272251
 11
157.5606142961
 21
86.0623272251
  0
LINE
  5
2A1
100
AcDbEntity
  8
RACCORDO
100
AcDbLine
 62
253
  6
CONTINUOUS
 10
144.3815359321
 20
86.0623272251
 11
144.5815283167
 21
86.0623272211
  0
LINE
  5
2A2
100
AcDbEntity
  8
ASSI
100
AcDbLine
 62
7
  6
CONTINUOUS
 10
148.4512803064
 20
86.1624415431
 11
147.2962483064
 21
86.1624415431
  0
LINE
  5
2A3
100
AcDbEntity
  8
ASSI
100
AcDbLine
 62
7
  6
CONTINUOUS
 10
147.6518963064
 20
84.6811255431
 11
146.4798223064
 21
85.6688385431
  0
LINE
  5
2A4
100
AcDbEntity
  8
RACCORDO
100
AcDbLine
 62
253
  6
CONTINUOUS
 10
160.9579419257
 20
71.085906
 11
160.9711093826
 21
71.0727385431
  0
LINE
  5
2A5
100
AcDbEntity
  8
RACCORDO
100
AcDbLine
 62
253
  6
CONTINUOUS
 10
161.2079038495
 20
71.3358679238
 11
161.2210713064
 21
71.3227004669
  0
LINE
  5
2A6
100
AcDbEntity
  8
RACCORDO
100
AcDbLine
 62
253
  6
CONTINUOUS
 10
145.7814826244
 20
87.2622815328
 11
145.7946033882
 21
87.249160769
  0
LINE
  5
2A7
100
AcDbEntity
  8
RACCORDO
100
AcDbLine
 62
7
  6
CONTINUOUS
 10
157.5474935323
 20
75.5463163172
 11
157.6670668521
 21
75.4267429974
  0
LWPOLYLINE
  5
2A8
100
AcDbEntity
  8
RACCORDO
100
AcDbPolyline
 62
7
  6
CONTINUOUS
 90
13
 70
0
 10
144.5815283167
 20
80.953554094
 10
144.5792450842
 20
80.985799895
 10
144.5731066408
 20
81.016586382
 10
144.5634696043
 20
81.0459135552
 10
144.5507837979
 20
81.0738351826
 10
144.5354542214
 20
81.1002974961
 10
144.5177331986
 20
81.1251391915
 10
144.4979657841
 20
81.1483126698
 10
144.4765816619
 20
81.16986553
 10
144.453872794
 20
81.1897792652
 10
144.4301869344
 20
81.2080477064
 10
144.4059473685
 20
81.2246770225
 10
144.3815359321
 20
81.2396672137
  0
LWPOLYLINE
  5
2A9
100
AcDbEntity
  8
RACCORDO
100
AcDbPolyline
 62
253
  6
CONTINUOUS
 90
16
 70
0
 10
140.9342387633
 20
119.4170761104
 10
140.935826449
 20
119.3945176388
 10
140.9401163206
 20
119.3722100876
 10
140.9470597559
 20
119.3503958896
 10
140.9565771804
 20
119.3293159665
 10
140.9685644805
 20
119.3091942996
 10
140.9828990396
 20
119.2902375991
 10
140.9994382699
 20
119.2726429452
 10
141.0179962708
 20
119.2566154923
 10
141.0383467477
 20
119.242348125
 10
141.0602615242
 20
119.2299924501
 10
141.0835008974
 20
119.2196758616
 10
141.1077869961
 20
119.2115112142
 10
141.1328445969
 20
119.2055764209
 10
141.1584078676
 20
119.2019203365
 10
141.1842006871
 20
119.2005697594
  0
LWPOLYLINE
  5
2AA
100
AcDbEntity
  8
RACCORDO
100
AcDbPolyline
 62
7
  6
CONTINUOUS
 90
28
 70
0
 10
144.4750757607
 20
76.626703106
 10
144.4729959377
 20
76.661931265
 10
144.4673362115
 20
76.6958297441
 10
144.4580965822
 20
76.7283985433
 10
144.4449928989
 20
76.7601026103
 10
144.4283093126
 20
76.7904769974
 10
144.4088982754
 20
76.8181268611
 10
144.38679354
 20
76.8427951696
 10
144.3619613539
 20
76.8647389546
 10
144.3351529112
 20
76.8833344678
 10
144.3060760485
 20
76.8985537921
 10
144.2750229294
 20
76.9104248446
 10
144.2436212385
 20
76.9184076276
 10
144.2121917774
 20
76.9223276319
 10
144.1804137446
 20
76.9223593668
 10
144.1489524209
 20
76.918486362
 10
144.1174562868
 20
76.9105027297
 10
144.0862768618
 20
76.8986143578
 10
144.0571339851
 20
76.8834224392
 10
144.0303796729
 20
76.8649241517
 10
144.0056619091
 20
76.8431223175
 10
143.9836444838
 20
76.8186265961
 10
143.9642711703
 20
76.7912549055
 10
143.9475981953
 20
76.7611893277
 10
143.934458029
 20
76.7295857683
 10
143.9251281614
 20
76.6968295292
 10
143.9193311024
 20
76.6625353084
 10
143.9170668521
 20
76.626703106
  0
LINE
  5
2AB
100
AcDbEntity
  8
RACCORDO
100
AcDbLine
 62
253
  6
CONTINUOUS
 10
143.8123444386
 20
80.8832310408
 11
143.9170668521
 21
76.626703106
  0
LINE
  5
2AC
100
AcDbEntity
  8
RACCORDO
100
AcDbLine
 62
253
  6
CONTINUOUS
 10
142.9126984097
 20
116.8496591611
 11
142.9119749302
 21
117.0636421669
  0
LINE
  5
2AD
100
AcDbEntity
  8
RACCORDO
100
AcDbLine
 62
253
  6
CONTINUOUS
 10
143.4126702965
 20
116.9319175195
 11
143.4110776734
 21
117.5627620057
  0
LINE
  5
2AE
100
AcDbEntity
  8
RACCORDO
100
AcDbLine
 62
253
  6
CONTINUOUS
 10
142.9127414959
 20
116.7805805008
 11
142.9126984097
 21
116.8496591611
  0
LINE
  5
2AF
100
AcDbEntity
  8
DRAFT
100
AcDbLine
 62
7
  6
CONTINUOUS
 10
142.8210713064
 20
116.9727385431
 11
142.8210713064
 21
116.4727385431
  0
LINE
  5
2B0
100
AcDbEntity
  8
DRAFT
100
AcDbLine
 62
7
  6
CONTINUOUS
 10
142.8210713064
 20
74.6727385431
 11
142.8210713064
 21
74.1727385431
  0
LINE
  5
2B1
100
AcDbEntity
  8
RACCORDO
100
AcDbLine
 62
7
  6
CONTINUOUS
 10
142.9127414959
 20
74.5810683536
 11
142.9127414959
 21
74.3648965853
  0
LINE
  5
2B2
100
AcDbEntity
  8
RACCORDO
100
AcDbLine
 62
7
  6
CONTINUOUS
 10
142.9127414959
 20
116.5644087326
 11
142.9127414959
 21
116.7805805008
  0
LINE
  5
2B3
100
AcDbEntity
  8
RACCORDO
100
AcDbLine
 62
253
  6
CONTINUOUS
 10
143.4127224574
 20
116.5687340888
 11
143.4126702965
 21
116.9319175195
  0
LINE
  5
2B4
100
AcDbEntity
  8
RACCORDO
100
AcDbLine
 62
253
  6
CONTINUOUS
 10
143.5579419257
 20
71.085906
 11
143.5579419257
 21
71.9449073267
  0
LINE
  5
2B5
100
AcDbEntity
  8
RACCORDO
100
AcDbLine
 62
253
  6
CONTINUOUS
 10
143.5579419257
 20
119.2005697594
 11
143.5579419257
 21
120.0595710862
  0
LINE
  5
2B6
100
AcDbEntity
  8
0
100
AcDbLine
 62
7
  6
CONTINUOUS
 10
143.5710713064
 20
102.6720815431
 11
143.5710713064
 21
100.5727385431
  0
LINE
  5
2B7
100
AcDbEntity
  8
RACCORDO
100
AcDbLine
 62
253
  6
CONTINUOUS
 10
143.8079038495
 20
71.3358679238
 11
143.8079038495
 21
71.7284009758
  0
LINE
  5
2B8
100
AcDbEntity
  8
RACCORDO
100
AcDbLine
 62
253
  6
CONTINUOUS
 10
143.8079038495
 20
119.4170761104
 11
143.8079038495
 21
119.8096091624
  0
LINE
  5
2B9
100
AcDbEntity
  8
RACCORDO
100
AcDbLine
 62
7
  6
CONTINUOUS
 10
143.8123444386
 20
116.4640116753
 11
143.8123444386
 21
110.2622460454
  0
LINE
  5
2BA
100
AcDbEntity
  8
RACCORDO
100
AcDbLine
 62
7
  6
CONTINUOUS
 10
143.8123444386
 20
80.8832310408
 11
143.8123444386
 21
74.6814654109
  0
LINE
  5
2BB
100
AcDbEntity
  8
RACCORDO
100
AcDbLine
 62
7
  6
CONTINUOUS
 10
143.8210713064
 20
119.8227766193
 11
143.8210713064
 21
118.1727080821
  0
LINE
  5
2BC
100
AcDbEntity
  8
RACCORDO
100
AcDbLine
 62
7
  6
CONTINUOUS
 10
143.8210713064
 20
72.9727690041
 11
143.8210713064
 21
71.3227004669
  0
LINE
  5
2BD
100
AcDbEntity
  8
RACCORDO
100
AcDbLine
 62
7
  6
CONTINUOUS
 10
143.9170668521
 20
74.5767429974
 11
143.9170668521
 21
76.626703106
  0
LINE
  5
2BE
100
AcDbEntity
  8
RACCORDO
100
AcDbLine
 62
7
  6
CONTINUOUS
 10
143.9170668521
 20
114.5187739802
 11
143.9170668521
 21
116.5687340888
  0
LINE
  5
2BF
100
AcDbEntity
  8
0
100
AcDbLine
 62
7
  6
CONTINUOUS
 10
143.9459853064
 20
100.9059155431
 11
143.9459853064
 21
101.4836745431
  0
LINE
  5
2C0
100
AcDbEntity
  8
0
100
AcDbLine
 62
7
  6
CONTINUOUS
 10
143.9459853064
 20
101.8168855431
 11
143.9459853064
 21
102.3388955431
  0
LINE
  5
2C1
100
AcDbEntity
  8
0
100
AcDbLine
 62
7
  6
CONTINUOUS
 10
144.1127563064
 20
89.9727385431
 11
144.1127563064
 21
88.5727385431
  0
LINE
  5
2C2
100
AcDbEntity
  8
RACCORDO
100
AcDbLine
 62
253
  6
CONTINUOUS
 10
142.9127414959
 20
74.3648965853
 11
142.91226978
 21
74.138789404
  0
LWPOLYLINE
  5
2C3
100
AcDbEntity
  8
RACCORDO
100
AcDbPolyline
 62
253
  6
CONTINUOUS
 90
3
 70
0
 10
143.4127224574
 20
74.5767429974
 10
143.4113349675
 20
73.6334009981
 10
143.4110778071
 20
73.5827422612
  0
LINE
  5
2C4
100
AcDbEntity
  8
RACCORDO
100
AcDbLine
 62
253
  6
CONTINUOUS
 10
142.91226978
 20
74.138789404
 11
142.9119749302
 21
74.0818349193
  0
LINE
  5
2C5
100
AcDbEntity
  8
RACCORDO
100
AcDbLine
 62
253
  6
CONTINUOUS
 10
143.9170668521
 20
114.5187739802
 11
143.8123444386
 21
110.2622460454
  0
LWPOLYLINE
  5
2C6
100
AcDbEntity
  8
RACCORDO
100
AcDbPolyline
 62
253
  6
CONTINUOUS
 90
16
 70
0
 10
140.9342387633
 20
71.7284009758
 10
140.935826449
 20
71.7509594472
 10
140.9401163205
 20
71.7732669983
 10
140.9470597557
 20
71.7950811961
 10
140.9565771801
 20
71.8161611191
 10
140.9685644801
 20
71.8362827861
 10
140.9828990391
 20
71.8552394865
 10
140.9994382692
 20
71.8728341403
 10
141.0179962698
 20
71.8888615931
 10
141.0383467465
 20
71.9031289604
 10
141.060261523
 20
71.9154846355
 10
141.0835008963
 20
71.9258012242
 10
141.1077869953
 20
71.9339658718
 10
141.1328445963
 20
71.9399006651
 10
141.1584078672
 20
71.9435567496
 10
141.1842006871
 20
71.9449073267
  0
LINE
  5
2C7
100
AcDbEntity
  8
0
100
AcDbLine
 62
7
  6
CONTINUOUS
 10
148.0411813064
 20
111.0045355431
 11
147.5894083064
 21
109.4215185431
  0
LINE
  5
2C8
100
AcDbEntity
  8
0
100
AcDbLine
 62
7
  6
CONTINUOUS
 10
147.7816653064
 20
108.7047455431
 11
148.5209093064
 21
111.0045355431
  0
LINE
  5
2C9
100
AcDbEntity
  8
0
100
AcDbLine
 62
7
  6
CONTINUOUS
 10
147.9210713064
 20
106.6046534925
 11
148.0044046497
 21
106.7323130518
  0
LINE
  5
2CA
100
AcDbEntity
  8
0
100
AcDbLine
 62
7
  6
CONTINUOUS
 10
149.0460713064
 20
106.2216746955
 11
149.1294046795
 21
106.3493342548
  0
LINE
  5
2CB
100
AcDbEntity
  8
0
100
AcDbLine
 62
7
  6
CONTINUOUS
 10
149.7544045603
 20
107.0727385431
 11
149.5044046795
 21
106.7748662382
  0
LINE
  5
2CC
100
AcDbEntity
  8
0
100
AcDbLine
 62
7
  6
CONTINUOUS
 10
149.5044046795
 20
106.4344406276
 11
149.7544045603
 21
106.7323130518
  0
LINE
  5
2CD
100
AcDbEntity
  8
0
100
AcDbLine
 62
7
  6
CONTINUOUS
 10
150.6294045603
 20
106.9025257974
 11
150.5044045603
 21
106.7748662382
  0
LINE
  5
2CE
100
AcDbEntity
  8
RACCORDO
100
AcDbLine
 62
253
  6
CONTINUOUS
 10
161.7211474589
 20
117.9727385431
 11
161.7036923939
 21
117.9552834782
  0
LINE
  5
2CF
100
AcDbEntity
  8
RACCORDO
100
AcDbLine
 62
253
  6
CONTINUOUS
 10
162.2210713064
 20
117.4728146955
 11
162.2036162415
 21
117.4553596306
  0
LINE
  5
2D0
100
AcDbEntity
  8
0
100
AcDbLine
 62
7
  6
CONTINUOUS
 10
147.6405403064
 20
102.6720815431
 11
146.7098343064
 21
101.7567645431
  0
LINE
  5
2D1
100
AcDbEntity
  8
0
100
AcDbLine
 62
7
  6
CONTINUOUS
 10
147.2403713064
 20
101.8082215431
 11
148.1432473064
 21
102.6720815431
  0
LINE
  5
2D2
100
AcDbEntity
  8
0
100
AcDbLine
 62
7
  6
CONTINUOUS
 10
146.7098343064
 20
101.3003035431
 11
146.9779423064
 21
101.5503455431
  0
LINE
  5
2D3
100
AcDbEntity
  8
0
100
AcDbLine
 62
7
  6
CONTINUOUS
 10
151.4210713064
 20
105.4131640642
 11
151.2960713064
 21
105.3280576914
  0
LINE
  5
2D4
100
AcDbEntity
  8
0
100
AcDbLine
 62
7
  6
CONTINUOUS
 10
151.3377380526
 20
105.1152917332
 11
151.5460713064
 21
105.2429513037
  0
LINE
  5
2D5
100
AcDbEntity
  8
RACCORDO
100
AcDbLine
 62
253
  6
CONTINUOUS
 10
145.7049292834
 20
87.2458044528
 11
145.7946033882
 21
87.249160769
  0
LINE
  5
2D6
100
AcDbEntity
  8
RACCORDO
100
AcDbLine
 62
253
  6
CONTINUOUS
 10
145.7946033882
 20
87.0491683844
 11
156.3475392247
 21
87.0491683844
  0
LINE
  5
2D7
100
AcDbEntity
  8
RACCORDO
100
AcDbLine
 62
7
  6
CONTINUOUS
 10
145.7946033882
 20
87.249160769
 11
156.3475392247
 21
87.249160769
  0
LINE
  5
2D8
100
AcDbEntity
  8
RACCORDO
100
AcDbLine
 62
7
  6
CONTINUOUS
 10
145.7814826244
 20
87.2622815328
 11
156.3606599885
 21
87.2622815328
  0
LINE
  5
2D9
100
AcDbEntity
  8
RACCORDO
100
AcDbLine
 62
253
  6
CONTINUOUS
 10
145.7814826244
 20
87.4622739174
 11
156.3606599885
 21
87.4622739174
  0
LINE
  5
2DA
100
AcDbEntity
  8
0
100
AcDbLine
 62
7
  6
CONTINUOUS
 10
144.1127563064
 20
88.5727385431
 11
144.2960353064
 21
88.5727385431
  0
LINE
  5
2DB
100
AcDbEntity
  8
0
100
AcDbLine
 62
7
  6
CONTINUOUS
 10
144.6899403064
 20
88.5727385431
 11
144.8771353064
 21
88.5727385431
  0
LINE
  5
2DC
100
AcDbEntity
  8
0
100
AcDbLine
 62
7
  6
CONTINUOUS
 10
145.2709653064
 20
88.5727385431
 11
145.4543183064
 21
88.5727385431
  0
LINE
  5
2DD
100
AcDbEntity
  8
0
100
AcDbLine
 62
7
  6
CONTINUOUS
 10
145.6220123064
 20
88.5727385431
 11
145.8169823064
 21
88.5727385431
  0
LINE
  5
2DE
100
AcDbEntity
  8
0
100
AcDbLine
 62
7
  6
CONTINUOUS
 10
146.6632093064
 20
88.5727385431
 11
146.8699203064
 21
88.5727385431
  0
LINE
  5
2DF
100
AcDbEntity
  8
0
100
AcDbLine
 62
7
  6
CONTINUOUS
 10
147.0531943064
 20
88.5727385431
 11
147.6206327217
 21
88.5727385431
  0
LINE
  5
2E0
100
AcDbEntity
  8
0
100
AcDbLine
 62
7
  6
CONTINUOUS
 10
148.4708003064
 20
88.5727385431
 11
149.5042983064
 21
88.5727385431
  0
LINE
  5
2E1
100
AcDbEntity
  8
0
100
AcDbLine
 62
7
  6
CONTINUOUS
 10
150.3232833064
 20
88.5727385431
 11
150.5124113064
 21
88.5727385431
  0
LINE
  5
2E2
100
AcDbEntity
  8
0
100
AcDbLine
 62
7
  6
CONTINUOUS
 10
150.8360473064
 20
88.5727385431
 11
151.0194113064
 21
88.5727385431
  0
LINE
  5
2E3
100
AcDbEntity
  8
0
100
AcDbLine
 62
7
  6
CONTINUOUS
 10
151.7350363064
 20
88.5727385431
 11
151.9475673064
 21
88.5727385431
  0
LINE
  5
2E4
100
AcDbEntity
  8
0
100
AcDbLine
 62
7
  6
CONTINUOUS
 10
152.8152383064
 20
88.5727385431
 11
153.0044223064
 21
88.5727385431
  0
LINE
  5
2E5
100
AcDbEntity
  8
0
100
AcDbLine
 62
7
  6
CONTINUOUS
 10
153.6810533064
 20
88.5727385431
 11
153.8701693064
 21
88.5727385431
  0
LINE
  5
2E6
100
AcDbEntity
  8
0
100
AcDbLine
 62
7
  6
CONTINUOUS
 10
154.3986033064
 20
88.5727385431
 11
154.5935613064
 21
88.5727385431
  0
LINE
  5
2E7
100
AcDbEntity
  8
0
100
AcDbLine
 62
7
  6
CONTINUOUS
 10
155.4398673064
 20
88.5727385431
 11
155.6466123064
 21
88.5727385431
  0
LINE
  5
2E8
100
AcDbEntity
  8
0
100
AcDbLine
 62
7
  6
CONTINUOUS
 10
155.8200703064
 20
88.5727385431
 11
156.7190593064
 21
88.5727385431
  0
LINE
  5
2E9
100
AcDbEntity
  8
0
100
AcDbLine
 62
7
  6
CONTINUOUS
 10
157.3117803064
 20
88.5727385431
 11
157.5008623064
 21
88.5727385431
  0
LWPOLYLINE
  5
2EA
100
AcDbEntity
  8
RACCORDO
100
AcDbPolyline
 62
253
  6
CONTINUOUS
 90
22
 70
0
 10
156.3606599885
 20
87.2622815328
 10
156.4502904723
 20
87.2589308586
 10
156.5394470373
 20
87.2488909507
 10
156.6276306757
 20
87.2322117947
 10
156.7143655729
 20
87.2089749301
 10
156.7991453599
 20
87.1793073416
 10
156.8814406432
 20
87.1433945159
 10
156.9607697412
 20
87.1014574173
 10
157.0367177335
 20
87.0537265816
 10
157.1088825335
 20
87.000459517
 10
157.1768648754
 20
86.9419521249
 10
157.2402824677
 20
86.8785347205
 10
157.2987891813
 20
86.8105536555
 10
157.3520548585
 20
86.7383915487
 10
157.3997839954
 20
86.662447687
 10
157.4417196089
 20
86.583123801
 10
157.4776305286
 20
86.5008369903
 10
157.5072971878
 20
86.416066867
 10
157.5305359955
 20
86.3293354346
 10
157.5472189094
 20
86.241146161
 10
157.5572621714
 20
86.1519770727
 10
157.5606142961
 20
86.0623272251
  0
LWPOLYLINE
  5
2EB
100
AcDbEntity
  8
RACCORDO
100
AcDbPolyline
 62
253
  6
CONTINUOUS
 90
21
 70
0
 10
156.3475392247
 20
87.249160769
 10
156.4372160664
 20
87.2458042477
 10
156.5263883471
 20
87.2357559851
 10
156.6145575173
 20
87.2190727809
 10
156.7012275283
 20
87.1958495277
 10
156.7859172855
 20
87.1662161336
 10
156.8681625277
 20
87.1303344247
 10
156.9475106114
 20
87.0883989654
 10
157.0235084776
 20
87.0406462006
 10
157.0957165578
 20
86.9873526194
 10
157.1637233699
 20
86.9288263468
 10
157.2271602255
 20
86.8653894045
 10
157.2856861042
 20
86.7973828896
 10
157.3389787345
 20
86.72517605
 10
157.3867305016
 20
86.6491799723
 10
157.4286658054
 20
86.5698326336
 10
157.464548484
 20
86.4875855723
 10
157.4941829516
 20
86.4028926219
 10
157.5174065016
 20
86.3162205583
 10
157.5340893712
 20
86.2280514513
 10
157.5441372161
 20
86.1388805661
  0
LWPOLYLINE
  5
2EC
100
AcDbEntity
  8
RACCORDO
100
AcDbPolyline
 62
253
  6
CONTINUOUS
 90
22
 70
0
 10
156.3606599885
 20
87.4622739174
 10
156.4656441055
 20
87.4583029032
 10
156.5690995584
 20
87.4466920707
 10
156.6710263471
 20
87.42744142
 10
156.7720523752
 20
87.4003530265
 10
156.8715497391
 20
87.3656248148
 10
156.9676347281
 20
87.3238505579
 10
157.0601707182
 20
87.2749160391
 10
157.1492943334
 20
87.2189354751
 10
157.2335317359
 20
87.1568452901
 10
157.3128029657
 20
87.0885432879
 10
157.3871879827
 20
87.0141316645
 10
157.4554528289
 20
86.9348534319
 10
157.5174918894
 20
86.8506371161
 10
157.5734107791
 20
86.7615541911
 10
157.6222923851
 20
86.66906209
 10
157.6640294535
 20
86.5730208619
 10
157.6987292384
 20
86.4735704577
 10
157.7257963886
 20
86.3725881634
 10
157.7450324539
 20
86.2706997408
 10
157.7566358846
 20
86.167279428
 10
157.7606066808
 20
86.0623272251
  0
LWPOLYLINE
  5
2ED
100
AcDbEntity
  8
RACCORDO
100
AcDbPolyline
 62
253
  6
CONTINUOUS
 90
22
 70
0
 10
156.3475392247
 20
87.0491683844
 10
156.4225676218
 20
87.0463195267
 10
156.4964801343
 20
87.0380225115
 10
156.5692767622
 20
87.0242773388
 10
156.6413882818
 20
87.0049495029
 10
156.7123839167
 20
86.9801735096
 10
156.7809713385
 20
86.9503528755
 10
156.8470819826
 20
86.9153958251
 10
156.9107844136
 20
86.8753941341
 10
156.9709919964
 20
86.8310266464
 10
157.0276352487
 20
86.7822248775
 10
157.0807836529
 20
86.729057312
 10
157.1295590214
 20
86.6724082481
 10
157.1738903713
 20
86.6122145707
 10
157.2138486854
 20
86.5485393948
 10
157.2487687246
 20
86.4824563634
 10
157.2785640594
 20
86.4138912847
 10
157.3033211192
 20
86.3429183505
 10
157.322633953
 20
86.2708337792
 10
157.3363672439
 20
86.1980696437
 10
157.3446563088
 20
86.124193871
 10
157.3475011477
 20
86.0492064613
  0
LINE
  5
2EE
100
AcDbEntity
  8
RACCORDO
100
AcDbLine
 62
253
  6
CONTINUOUS
 10
161.7036923939
 20
73.190193608
 11
161.7211474589
 21
73.1727385431
  0
LINE
  5
2EF
100
AcDbEntity
  8
RACCORDO
100
AcDbLine
 62
253
  6
CONTINUOUS
 10
162.2036162415
 20
73.6901174556
 11
162.2210713064
 21
73.6726623907
  0
LINE
  5
2F0
100
AcDbEntity
  8
ASSI
100
AcDbLine
 62
7
  6
CONTINUOUS
 10
148.6439503064
 20
82.8957165431
 11
148.8357473064
 21
82.5539975431
  0
LINE
  5
2F1
100
AcDbEntity
  8
0
100
AcDbLine
 62
7
  6
CONTINUOUS
 10
144.7854623064
 20
88.7834125431
 11
144.3837983064
 21
89.9727385431
  0
LINE
  5
2F2
100
AcDbEntity
  8
0
100
AcDbLine
 62
7
  6
CONTINUOUS
 10
144.2960353064
 20
89.7466325431
 11
144.6899403064
 21
88.5727385431
  0
LWPOLYLINE
  5
2F3
100
AcDbEntity
  8
RACCORDO
100
AcDbPolyline
 62
7
  6
CONTINUOUS
 90
13
 70
0
 10
143.8210713064
 20
119.8227766193
 10
143.8189334762
 20
119.8554042779
 10
143.8125557557
 20
119.8874732507
 10
143.8020470292
 20
119.9184351525
 10
143.7875867279
 20
119.9477607236
 10
143.7694219939
 20
119.9749479809
 10
143.7478637717
 20
119.9995310084
 10
143.7232807442
 20
120.0210892306
 10
143.6960934869
 20
120.0392539645
 10
143.6667679158
 20
120.0537142659
 10
143.635806014
 20
120.0642229924
 10
143.6037370412
 20
120.0706007129
 10
143.5711093826
 20
120.0727385431
  0
LWPOLYLINE
  5
2F4
100
AcDbEntity
  8
RACCORDO
100
AcDbPolyline
 62
7
  6
CONTINUOUS
 90
28
 70
0
 10
143.9170668521
 20
114.5187739802
 10
143.9191395413
 20
114.483569458
 10
143.9247939186
 20
114.4496864986
 10
143.934029984
 20
114.4171251021
 10
143.9471325333
 20
114.3854169844
 10
143.9638167706
 20
114.3550304296
 10
143.983228309
 20
114.3273702896
 10
144.0053280921
 20
114.302698322
 10
144.0301551761
 20
114.2807527693
 10
144.0569723431
 20
114.2621532103
 10
144.0860838178
 20
114.2469225496
 10
144.1171853754
 20
114.2350378826
 10
144.148627124
 20
114.2270500742
 10
144.1800789506
 20
114.2231389035
 10
144.2118709681
 20
114.2231245914
 10
144.243343624
 20
114.2270186653
 10
144.2748499946
 20
114.2350249269
 10
144.3060370036
 20
114.2469395744
 10
144.3351858692
 20
114.2621627303
 10
144.3619491452
 20
114.2807053476
 10
144.3866742778
 20
114.3025564732
 10
144.4086848241
 20
114.3270833708
 10
144.4280261602
 20
114.3544601845
 10
144.4446529099
 20
114.3845127702
 10
144.457752502
 20
114.4160859595
 10
144.4670540792
 20
114.4487946962
 10
144.4728284988
 20
114.4830240364
 10
144.4750757607
 20
114.5187739802
  0
LINE
  5
2F5
100
AcDbEntity
  8
RACCORDO
100
AcDbLine
 62
253
  6
CONTINUOUS
 10
144.5980053967
 20
105.0065965201
 11
144.5946490805
 21
105.0962706249
  0
LINE
  5
2F6
100
AcDbEntity
  8
RACCORDO
100
AcDbLine
 62
253
  6
CONTINUOUS
 10
143.5732151075
 20
118.6953882739
 11
143.5579419257
 21
119.2005697594
  0
LINE
  5
2F7
100
AcDbEntity
  8
RACCORDO
100
AcDbLine
 62
253
  6
CONTINUOUS
 10
143.8210713064
 20
118.9815443706
 11
143.8079038495
 21
119.4170761104
  0
LINE
  5
2F8
100
AcDbEntity
  8
RACCORDO
100
AcDbLine
 62
253
  6
CONTINUOUS
 10
144.4750757607
 20
114.5187739802
 11
144.5815283167
 21
110.1919229922
  0
LINE
  5
2F9
100
AcDbEntity
  8
0
100
AcDbLine
 62
7
  6
CONTINUOUS
 10
144.2960353064
 20
88.5727385431
 11
144.2960353064
 21
89.7466325431
  0
LINE
  5
2FA
100
AcDbEntity
  8
RACCORDO
100
AcDbLine
 62
253
  6
CONTINUOUS
 10
144.3815359321
 20
81.2396672137
 11
144.3815359321
 21
86.0623272251
  0
LINE
  5
2FB
100
AcDbEntity
  8
RACCORDO
100
AcDbLine
 62
253
  6
CONTINUOUS
 10
144.3815359321
 20
105.0831498611
 11
144.3815359321
 21
109.9058098725
  0
LINE
  5
2FC
100
AcDbEntity
  8
RACCORDO
100
AcDbLine
 62
7
  6
CONTINUOUS
 10
144.4750757607
 20
75.4267429974
 11
144.4750757607
 21
76.626703106
  0
LINE
  5
2FD
100
AcDbEntity
  8
RACCORDO
100
AcDbLine
 62
7
  6
CONTINUOUS
 10
144.4750757607
 20
114.5187739802
 11
144.4750757607
 21
115.7187340888
  0
LINE
  5
2FE
100
AcDbEntity
  8
RACCORDO
100
AcDbLine
 62
7
  6
CONTINUOUS
 10
144.5815283167
 20
80.953554094
 11
144.5815283167
 21
86.0623272251
  0
LINE
  5
2FF
100
AcDbEntity
  8
RACCORDO
100
AcDbLine
 62
7
  6
CONTINUOUS
 10
144.5815283167
 20
105.0831498611
 11
144.5815283167
 21
110.1919229922
  0
LINE
  5
300
100
AcDbEntity
  8
RACCORDO
100
AcDbLine
 62
7
  6
CONTINUOUS
 10
144.5946490805
 20
75.5463163172
 11
144.5946490805
 21
86.0492064613
  0
LINE
  5
301
100
AcDbEntity
  8
RACCORDO
100
AcDbLine
 62
7
  6
CONTINUOUS
 10
144.5946490805
 20
105.0962706249
 11
144.5946490805
 21
115.599160769
  0
LINE
  5
302
100
AcDbEntity
  8
RACCORDO
100
AcDbLine
 62
253
  6
CONTINUOUS
 10
144.7946414651
 20
75.5480464597
 11
144.7946414651
 21
86.0492064613
  0
LINE
  5
303
100
AcDbEntity
  8
RACCORDO
100
AcDbLine
 62
253
  6
CONTINUOUS
 10
144.7946414651
 20
105.0962706249
 11
144.7946414651
 21
115.5974306265
  0
LINE
  5
304
100
AcDbEntity
  8
0
100
AcDbLine
 62
7
  6
CONTINUOUS
 10
144.9795433064
 20
101.4836815431
 11
144.9795433064
 21
101.8168785431
  0
LINE
  5
305
100
AcDbEntity
  8
0
100
AcDbLine
 62
7
  6
CONTINUOUS
 10
145.0547723064
 20
102.3388915431
 11
145.0547723064
 21
102.6720815431
  0
LINE
  5
306
100
AcDbEntity
  8
0
100
AcDbLine
 62
7
  6
CONTINUOUS
 10
145.0632103064
 20
100.5727385431
 11
145.0632103064
 21
100.9059285431
  0
LINE
  5
307
100
AcDbEntity
  8
0
100
AcDbLine
 62
7
  6
CONTINUOUS
 10
145.2709653064
 20
89.7485575431
 11
145.2709653064
 21
88.5727385431
  0
LINE
  5
308
100
AcDbEntity
  8
0
100
AcDbLine
 62
7
  6
CONTINUOUS
 10
145.4543183064
 20
88.5727385431
 11
145.4543183064
 21
89.9727385431
  0
LINE
  5
309
100
AcDbEntity
  8
0
100
AcDbLine
 62
7
  6
CONTINUOUS
 10
145.5141113064
 20
102.6720815431
 11
145.5141113064
 21
100.5727385431
  0
LINE
  5
30A
100
AcDbEntity
  8
RACCORDO
100
AcDbLine
 62
253
  6
CONTINUOUS
 10
145.7814826244
 20
103.6832031688
 11
145.7814826284
 21
103.8831955534
  0
LINE
  5
30B
100
AcDbEntity
  8
RACCORDO
100
AcDbLine
 62
253
  6
CONTINUOUS
 10
145.7814826244
 20
87.4622739174
 11
145.7814826244
 21
87.2622815328
  0
LINE
  5
30C
100
AcDbEntity
  8
RACCORDO
100
AcDbLine
 62
253
  6
CONTINUOUS
 10
145.7946033882
 20
104.0963087018
 11
145.7946033882
 21
103.8963163172
  0
LINE
  5
30D
100
AcDbEntity
  8
RACCORDO
100
AcDbLine
 62
253
  6
CONTINUOUS
 10
145.7946033882
 20
87.0491683844
 11
145.7946033882
 21
87.249160769
  0
LINE
  5
30E
100
AcDbEntity
  8
0
100
AcDbLine
 62
7
  6
CONTINUOUS
 10
145.8890463064
 20
100.5727385431
 11
145.8890463064
 21
102.6720815431
  0
LINE
  5
30F
100
AcDbEntity
  8
RACCORDO
100
AcDbLine
 62
253
  6
CONTINUOUS
 10
144.5815283167
 20
80.953554094
 11
144.4750757607
 21
76.626703106
  0
LINE
  5
310
100
AcDbEntity
  8
RACCORDO
100
AcDbLine
 62
253
  6
CONTINUOUS
 10
143.5579419257
 20
71.9449073267
 11
143.5732151075
 21
72.4500888123
  0
LINE
  5
311
100
AcDbEntity
  8
RACCORDO
100
AcDbLine
 62
253
  6
CONTINUOUS
 10
143.8079038495
 20
71.7284009758
 11
143.8210713064
 21
72.1639327156
  0
LWPOLYLINE
  5
312
100
AcDbEntity
  8
RACCORDO
100
AcDbPolyline
 62
253
  6
CONTINUOUS
 90
22
 70
0
 10
144.5815283167
 20
86.0623272251
 10
144.5848789909
 20
86.1519577089
 10
144.5949188988
 20
86.2411142739
 10
144.6115980548
 20
86.3292979124
 10
144.6348349194
 20
86.4160328096
 10
144.6645025079
 20
86.5008125966
 10
144.7004153337
 20
86.5831078799
 10
144.7423524322
 20
86.6624369778
 10
144.790083268
 20
86.7383849701
 10
144.8433503326
 20
86.8105497701
 10
144.9018577247
 20
86.8785321121
 10
144.965275129
 20
86.9419497044
 10
145.033256194
 20
87.000456418
 10
145.1054183008
 20
87.0537220951
 10
145.1813621626
 20
87.1014512321
 10
145.2606860485
 20
87.1433868456
 10
145.3429728593
 20
87.1792977653
 10
145.4277429825
 20
87.2089644245
 10
145.5144744149
 20
87.2322032321
 10
145.6026636886
 20
87.248886146
 10
145.6918327768
 20
87.258929408
 10
145.7814826244
 20
87.2622815328
  0
LWPOLYLINE
  5
313
100
AcDbEntity
  8
RACCORDO
100
AcDbPolyline
 62
253
  6
CONTINUOUS
 90
21
 70
0
 10
144.5946490805
 20
86.0492064613
 10
144.5980056018
 20
86.1388833031
 10
144.6080538644
 20
86.2280555838
 10
144.6247370686
 20
86.3162247539
 10
144.6479603218
 20
86.402894765
 10
144.6775937159
 20
86.4875845221
 10
144.7134754248
 20
86.5698297644
 10
144.7554108841
 20
86.6491778481
 10
144.8031636489
 20
86.7251757142
 10
144.8564572301
 20
86.7973837945
 10
144.9149835027
 20
86.8653906065
 10
144.9784204451
 20
86.9288274622
 10
145.0464269599
 20
86.9873533409
 10
145.1186337995
 20
87.0406459712
 10
145.1946298772
 20
87.0883977383
 10
145.2739772159
 20
87.1303330421
 10
145.3562242772
 20
87.1662157206
 10
145.4409172277
 20
87.1958501882
 10
145.5275892912
 20
87.2190737383
 10
145.6157583983
 20
87.2357566079
 10
145.7049292834
 20
87.2458044528
  0
LWPOLYLINE
  5
314
100
AcDbEntity
  8
RACCORDO
100
AcDbPolyline
 62
253
  6
CONTINUOUS
 90
22
 70
0
 10
144.3815359321
 20
86.0623272251
 10
144.3855069463
 20
86.1673113422
 10
144.3971177788
 20
86.2707667951
 10
144.4163684296
 20
86.3726935838
 10
144.443456823
 20
86.4737196118
 10
144.4781850348
 20
86.5732169757
 10
144.5199592916
 20
86.6693019648
 10
144.5688938104
 20
86.7618379548
 10
144.6248743744
 20
86.8509615701
 10
144.6869645595
 20
86.9351989726
 10
144.7552665617
 20
87.0144702023
 10
144.829678185
 20
87.0888552193
 10
144.9089564176
 20
87.1571200656
 10
144.9931727334
 20
87.219159126
 10
145.0822556584
 20
87.2750780157
 10
145.1747477595
 20
87.3239596218
 10
145.2707889876
 20
87.3656966902
 10
145.3702393918
 20
87.400396475
 10
145.4712216862
 20
87.4274636252
 10
145.5731101087
 20
87.4466996906
 10
145.6765304215
 20
87.4583031213
 10
145.7814826244
 20
87.4622739174
  0
LWPOLYLINE
  5
315
100
AcDbEntity
  8
RACCORDO
100
AcDbPolyline
 62
253
  6
CONTINUOUS
 90
22
 70
0
 10
144.7946414651
 20
86.0492064613
 10
144.7974903228
 20
86.1242348584
 10
144.805787338
 20
86.198147371
 10
144.8195325107
 20
86.2709439989
 10
144.8388603466
 20
86.3430555184
 10
144.86363634
 20
86.4140511534
 10
144.893456974
 20
86.4826385752
 10
144.9284140244
 20
86.5487492193
 10
144.9684157155
 20
86.6124516502
 10
145.0127832031
 20
86.6726592331
 10
145.061584972
 20
86.7293024854
 10
145.1147525375
 20
86.7824508896
 10
145.1714016015
 20
86.831226258
 10
145.2315952789
 20
86.8755576079
 10
145.2952704548
 20
86.9155159221
 10
145.3613534861
 20
86.9504359613
 10
145.4299185648
 20
86.9802312961
 10
145.500891499
 20
87.0049883558
 10
145.5729760703
 20
87.0243011897
 10
145.6457402058
 20
87.0380344805
 10
145.7196159785
 20
87.0463235454
 10
145.7946033882
 20
87.0491683844
  0
LWPOLYLINE
  5
316
100
AcDbEntity
  8
RACCORDO
100
AcDbPolyline
 62
7
  6
CONTINUOUS
 90
22
 70
0
 10
143.8123444386
 20
80.8832310408
 10
143.8146910565
 20
80.9275507128
 10
143.8212640393
 20
80.9704971338
 10
143.8320633869
 20
81.0120703038
 10
143.8473778351
 20
81.0528095381
 10
143.8669186481
 20
81.0921755213
 10
143.889819619
 20
81.1285503084
 10
143.9160846454
 20
81.1616464085
 10
143.9457098296
 20
81.1917513124
 10
143.9778172719
 20
81.2181095465
 10
144.0129534269
 20
81.2406801278
 10
144.0505718399
 20
81.2595040393
 10
144.0881552467
 20
81.2739487565
 10
144.1252767221
 20
81.2834802307
 10
144.1623631913
 20
81.2886325105
 10
144.1981781649
 20
81.2903752173
 10
144.2323968016
 20
81.2887168341
 10
144.2653439426
 20
81.2836488779
 10
144.2967576228
 20
81.2761155205
 10
144.3265505202
 20
81.266431486
 10
144.3548099566
 20
81.2542820504
 10
144.3815359321
 20
81.2396672137
  0
LWPOLYLINE
  5
317
100
AcDbEntity
  8
RACCORDO
100
AcDbPolyline
 62
7
  6
CONTINUOUS
 90
13
 70
0
 10
143.8210713064
 20
71.3227004669
 10
143.8189334762
 20
71.2900728083
 10
143.8125557557
 20
71.2580038355
 10
143.8020470292
 20
71.2270419337
 10
143.7875867279
 20
71.1977163626
 10
143.7694219939
 20
71.1705291053
 10
143.7478637717
 20
71.1459460778
 10
143.7232807442
 20
71.1243878556
 10
143.6960934869
 20
71.1062231217
 10
143.6667679158
 20
71.0917628203
 10
143.635806014
 20
71.0812540938
 10
143.6037370412
 20
71.0748763733
 10
143.5711093826
 20
71.0727385431
  0
LINE
  5
318
100
AcDbEntity
  8
0
100
AcDbLine
 62
7
  6
CONTINUOUS
 10
147.7544046422
 20
106.7748662382
 11
147.7127379743
 21
106.6046534925
  0
LINE
  5
319
100
AcDbEntity
  8
0
100
AcDbLine
 62
7
  6
CONTINUOUS
 10
151.0799043064
 20
111.0045355431
 11
150.5998483064
 21
109.7276845431
  0
LWPOLYLINE
  5
31A
100
AcDbEntity
  8
ASSI
100
AcDbPolyline
 62
7
  6
CONTINUOUS
 90
7
 70
0
 10
155.4555817203
 20
119.507248957
 10
155.4554978872
 20
119.5070715073
 10
155.4554141454
 20
119.5067111231
 10
155.4553304947
 20
119.5061678043
 10
155.4552469352
 20
119.5054415511
 10
155.4551634669
 20
119.5045323633
 10
155.4550800898
 20
119.503440241
  0
LINE
  5
31B
100
AcDbEntity
  8
0
100
AcDbLine
 62
7
  6
CONTINUOUS
 10
148.9210713064
 20
106.5195470005
 11
148.8377379334
 21
106.3493342548
  0
LINE
  5
31C
100
AcDbEntity
  8
0
100
AcDbLine
 62
7
  6
CONTINUOUS
 10
150.5044045603
 20
106.7748662382
 11
150.4210713064
 21
106.6046534925
  0
LINE
  5
31D
100
AcDbEntity
  8
RACCORDO
100
AcDbLine
 62
7
  6
CONTINUOUS
 10
155.5210713064
 20
117.9727385431
 11
155.4550800898
 21
117.8407460575
  0
LINE
  5
31E
100
AcDbEntity
  8
0
100
AcDbLine
 62
7
  6
CONTINUOUS
 10
150.5877380526
 20
106.476993814
 11
150.7544045603
 21
106.7323130518
  0
LWPOLYLINE
  5
31F
100
AcDbEntity
  8
0
100
AcDbPolyline
 62
7
  6
CONTINUOUS
 90
10
 70
0
 10
148.4137623919
 20
102.3958881582
 10
148.3649931755
 20
102.3344132243
 10
148.320589577
 20
102.2662018485
 10
148.2805515964
 20
102.1912540307
 10
148.2441603671
 20
102.108735723
 10
148.2121347557
 20
102.0194809733
 10
148.1866313617
 20
101.9259919259
 10
148.1683690516
 20
101.8291026289
 10
148.1566289589
 20
101.7279790341
 10
148.1514110835
 20
101.6226211416
  0
LINE
  5
320
100
AcDbEntity
  8
0
100
AcDbLine
 62
7
  6
CONTINUOUS
 10
153.1710713064
 20
107.0727385431
 11
152.1710713064
 21
105.9238023906
  0
LINE
  5
321
100
AcDbEntity
  8
0
100
AcDbLine
 62
7
  6
CONTINUOUS
 10
152.4627378142
 20
105.9238023906
 11
153.1710713064
 21
106.7323130518
  0
LINE
  5
322
100
AcDbEntity
  8
0
100
AcDbLine
 62
7
  6
CONTINUOUS
 10
151.5460713064
 20
105.2429513037
 11
151.6710713064
 21
105.3706108778
  0
LWPOLYLINE
  5
323
100
AcDbEntity
  8
0
100
AcDbPolyline
 62
7
  6
CONTINUOUS
 90
10
 70
0
 10
148.7254976502
 20
102.2068904624
 10
148.7579689605
 20
102.239555159
 10
148.7950749255
 20
102.2695030662
 10
148.8368155453
 20
102.296734184
 10
148.884025991
 20
102.3218701812
 10
148.9358710914
 20
102.3442893891
 10
148.9898453334
 20
102.362126801
 10
149.045113546
 20
102.374760748
 10
149.1025109002
 20
102.382812899
 10
149.162037396
 20
102.3862832541
  0
LWPOLYLINE
  5
324
100
AcDbEntity
  8
0
100
AcDbPolyline
 62
7
  6
CONTINUOUS
 90
19
 70
0
 10
147.6206327217
 20
88.5727385431
 10
147.6799167439
 20
88.5755957197
 10
147.7361612551
 20
88.5828915735
 10
147.7893662553
 20
88.5946261045
 10
147.8394224005
 20
88.6107902095
 10
147.8864390347
 20
88.6313929917
 10
147.9307441899
 20
88.6564617611
 10
147.9726219817
 20
88.6862428794
 10
148.0117882945
 20
88.7204899848
 10
148.0477188126
 20
88.7584913022
 10
148.080312756
 20
88.7998707894
 10
148.1096709047
 20
88.8450044885
 10
148.1355712825
 20
88.8943087509
 10
148.1582759156
 20
88.9481375572
 10
148.1775227777
 20
89.0061369267
 10
148.1923038139
 20
89.0676612691
 10
148.2022830056
 20
89.1324953876
 10
148.2077963713
 20
89.2008544789
 10
148.208843911
 20
89.2727385431
  0
LINE
  5
325
100
AcDbEntity
  8
0
100
AcDbLine
 62
7
  6
CONTINUOUS
 10
147.6158172412
 20
88.7345335431
 11
147.2423893064
 21
88.7345335431
  0
LINE
  5
326
100
AcDbEntity
  8
0
100
AcDbLine
 62
7
  6
CONTINUOUS
 10
156.7190593064
 20
88.7404215431
 11
156.0092653064
 21
88.7404215431
  0
LINE
  5
327
100
AcDbEntity
  8
0
100
AcDbLine
 62
7
  6
CONTINUOUS
 10
149.5042983064
 20
88.7404215431
 11
148.6599843064
 21
88.7404215431
  0
LINE
  5
328
100
AcDbEntity
  8
0
100
AcDbLine
 62
7
  6
CONTINUOUS
 10
145.9632433064
 20
88.9802275431
 11
146.5247833064
 21
88.9802275431
  0
LINE
  5
329
100
AcDbEntity
  8
0
100
AcDbLine
 62
7
  6
CONTINUOUS
 10
154.7398333064
 20
88.9802275431
 11
155.3014303064
 21
88.9802275431
  0
LINE
  5
32A
100
AcDbEntity
  8
0
100
AcDbLine
 62
7
  6
CONTINUOUS
 10
155.2331683064
 20
89.1479105431
 11
154.7983363064
 21
89.1479105431
  0
LINE
  5
32B
100
AcDbEntity
  8
0
100
AcDbLine
 62
7
  6
CONTINUOUS
 10
146.4565893064
 20
89.1479105431
 11
146.0217573064
 21
89.1479105431
  0
LINE
  5
32C
100
AcDbEntity
  8
0
100
AcDbLine
 62
7
  6
CONTINUOUS
 10
148.6599843064
 20
89.2083715431
 11
149.4262873064
 21
89.2083715431
  0
LINE
  5
32D
100
AcDbEntity
  8
0
100
AcDbLine
 62
7
  6
CONTINUOUS
 10
149.4262873064
 20
89.3760545431
 11
148.6599843064
 21
89.3760545431
  0
LINE
  5
32E
100
AcDbEntity
  8
0
100
AcDbLine
 62
7
  6
CONTINUOUS
 10
148.6599843064
 20
89.8050555431
 11
149.4906323064
 21
89.8050555431
  0
LINE
  5
32F
100
AcDbEntity
  8
0
100
AcDbLine
 62
7
  6
CONTINUOUS
 10
153.2072163064
 20
89.8050555431
 11
153.6810533064
 21
89.8050555431
  0
LINE
  5
330
100
AcDbEntity
  8
0
100
AcDbLine
 62
7
  6
CONTINUOUS
 10
153.8701693064
 20
89.8050555431
 11
154.3440063064
 21
89.8050555431
  0
LINE
  5
331
100
AcDbEntity
  8
0
100
AcDbLine
 62
7
  6
CONTINUOUS
 10
147.2423893064
 20
89.8109435431
 11
147.6158172412
 21
89.8109435431
  0
LINE
  5
332
100
AcDbEntity
  8
0
100
AcDbLine
 62
7
  6
CONTINUOUS
 10
158.0293863064
 20
89.9727385431
 11
157.8070173064
 21
89.9727385431
  0
LINE
  5
333
100
AcDbEntity
  8
0
100
AcDbLine
 62
7
  6
CONTINUOUS
 10
157.0037013064
 20
89.9727385431
 11
156.7833693064
 21
89.9727385431
  0
LINE
  5
334
100
AcDbEntity
  8
0
100
AcDbLine
 62
7
  6
CONTINUOUS
 10
156.0092653064
 20
89.9727385431
 11
155.8200703064
 21
89.9727385431
  0
LINE
  5
335
100
AcDbEntity
  8
0
100
AcDbLine
 62
7
  6
CONTINUOUS
 10
155.1395673064
 20
89.9727385431
 11
154.9251113064
 21
89.9727385431
  0
LINE
  5
336
100
AcDbEntity
  8
0
100
AcDbLine
 62
7
  6
CONTINUOUS
 10
154.3440063064
 20
89.9727385431
 11
153.2072163064
 21
89.9727385431
  0
LINE
  5
337
100
AcDbEntity
  8
0
100
AcDbLine
 62
7
  6
CONTINUOUS
 10
153.0044223064
 20
89.9727385431
 11
152.8152383064
 21
89.9727385431
  0
LINE
  5
338
100
AcDbEntity
  8
0
100
AcDbLine
 62
7
  6
CONTINUOUS
 10
151.9475673064
 20
89.9727385431
 11
151.7642933064
 21
89.9727385431
  0
LINE
  5
339
100
AcDbEntity
  8
0
100
AcDbLine
 62
7
  6
CONTINUOUS
 10
151.0603303064
 20
89.9727385431
 11
150.8360473064
 21
89.9727385431
  0
LINE
  5
33A
100
AcDbEntity
  8
0
100
AcDbLine
 62
7
  6
CONTINUOUS
 10
150.5124113064
 20
89.9727385431
 11
150.3232833064
 21
89.9727385431
  0
LINE
  5
33B
100
AcDbEntity
  8
0
100
AcDbLine
 62
7
  6
CONTINUOUS
 10
149.4906323064
 20
89.9727385431
 11
148.4708003064
 21
89.9727385431
  0
LINE
  5
33C
100
AcDbEntity
  8
0
100
AcDbLine
 62
7
  6
CONTINUOUS
 10
147.6265852049
 20
89.9727385431
 11
147.0531943064
 21
89.9727385431
  0
LINE
  5
33D
100
AcDbEntity
  8
0
100
AcDbLine
 62
7
  6
CONTINUOUS
 10
146.3629763064
 20
89.9727385431
 11
146.1484533064
 21
89.9727385431
  0
LINE
  5
33E
100
AcDbEntity
  8
0
100
AcDbLine
 62
7
  6
CONTINUOUS
 10
145.4543183064
 20
89.9727385431
 11
145.1851993064
 21
89.9727385431
  0
LINE
  5
33F
100
AcDbEntity
  8
0
100
AcDbLine
 62
7
  6
CONTINUOUS
 10
144.3837983064
 20
89.9727385431
 11
144.1127563064
 21
89.9727385431
  0
LWPOLYLINE
  5
340
100
AcDbEntity
  8
0
100
AcDbPolyline
 62
7
  6
CONTINUOUS
 90
19
 70
0
 10
147.6158172412
 20
89.8109435431
 10
147.6568858985
 20
89.8076626761
 10
147.6961087035
 20
89.8009153156
 10
147.7334856564
 20
89.7907014616
 10
147.769176649
 20
89.7768981297
 10
147.8030217894
 20
89.7596283044
 10
147.8345414022
 20
89.7392609381
 10
147.8636571315
 20
89.7159155124
 10
147.890447333
 20
89.6894725459
 10
147.9146673987
 20
89.659942546
 10
147.9362926495
 20
89.6271709751
 10
147.9553477643
 20
89.591312371
 10
147.9716621723
 20
89.5528408541
 10
147.9850833739
 20
89.5117422532
 10
147.9957638686
 20
89.4680307396
 10
148.0039905834
 20
89.4222229483
 10
148.0098591606
 20
89.3744910909
 10
148.013273958
 20
89.3246629559
 10
148.0142349754
 20
89.2727385431
  0
LINE
  5
341
100
AcDbEntity
  8
RACCORDO
100
AcDbLine
 62
7
  6
CONTINUOUS
 10
155.4550800898
 20
73.3047310287
 11
155.5210713064
 21
73.1727385431
  0
LINE
  5
342
100
AcDbEntity
  8
0
100
AcDbLine
 62
7
  6
CONTINUOUS
 10
146.8699203064
 20
88.5727385431
 11
146.3629763064
 21
89.9727385431
  0
LINE
  5
343
100
AcDbEntity
  8
0
100
AcDbLine
 62
7
  6
CONTINUOUS
 10
146.5247833064
 20
88.9802275431
 11
146.6632093064
 21
88.5727385431
  0
LINE
  5
344
100
AcDbEntity
  8
0
100
AcDbLine
 62
7
  6
CONTINUOUS
 10
146.2480103064
 20
89.7696705431
 11
146.4565893064
 21
89.1479105431
  0
LINE
  5
345
100
AcDbEntity
  8
DRAFT
100
AcDbLine
 62
7
  6
CONTINUOUS
 10
147.9227032545
 20
73.8727385431
 11
147.8790655922
 21
74.7826641288
  0
LINE
  5
346
100
AcDbEntity
  8
0
100
AcDbLine
 62
7
  6
CONTINUOUS
 10
146.3349223064
 20
102.6720815431
 11
146.3349223064
 21
100.5727385431
  0
LINE
  5
347
100
AcDbEntity
  8
DRAFT
100
AcDbLine
 62
7
  6
CONTINUOUS
 10
146.6210713064
 20
119.5727385431
 11
146.6210713064
 21
119.0227385431
  0
LINE
  5
348
100
AcDbEntity
  8
DRAFT
100
AcDbLine
 62
7
  6
CONTINUOUS
 10
146.6210713064
 20
118.4227385431
 11
146.6210713064
 21
117.9727385431
  0
LINE
  5
349
100
AcDbEntity
  8
DRAFT
100
AcDbLine
 62
7
  6
CONTINUOUS
 10
146.6210713064
 20
73.1727385431
 11
146.6210713064
 21
72.7227385431
  0
LINE
  5
34A
100
AcDbEntity
  8
DRAFT
100
AcDbLine
 62
7
  6
CONTINUOUS
 10
146.6210713064
 20
72.1227385431
 11
146.6210713064
 21
71.5727385431
  0
LINE
  5
34B
100
AcDbEntity
  8
ASSI
100
AcDbLine
 62
7
  6
CONTINUOUS
 10
146.6870625231
 20
119.503440241
 11
146.6870625231
 21
117.8407460575
  0
LINE
  5
34C
100
AcDbEntity
  8
ASSI
100
AcDbLine
 62
7
  6
CONTINUOUS
 10
146.6870625231
 20
71.6420368451
 11
146.6870625231
 21
73.3047310287
  0
LINE
  5
34D
100
AcDbEntity
  8
0
100
AcDbLine
 62
7
  6
CONTINUOUS
 10
146.7098343064
 20
101.7567645431
 11
146.7098413064
 21
102.6720815431
  0
LINE
  5
34E
100
AcDbEntity
  8
0
100
AcDbLine
 62
7
  6
CONTINUOUS
 10
146.7098413064
 20
100.5727385431
 11
146.7098343064
 21
101.3003035431
  0
LINE
  5
34F
100
AcDbEntity
  8
0
100
AcDbLine
 62
7
  6
CONTINUOUS
 10
147.0531943064
 20
89.9727385431
 11
147.0531943064
 21
88.5727385431
  0
LINE
  5
350
100
AcDbEntity
  8
0
100
AcDbLine
 62
7
  6
CONTINUOUS
 10
147.2423893064
 20
88.7345335431
 11
147.2423893064
 21
89.8109435431
  0
LINE
  5
351
100
AcDbEntity
  8
ASSI
100
AcDbLine
 62
7
  6
CONTINUOUS
 10
147.2826413064
 20
82.7832865431
 11
147.2826413064
 21
82.3666215431
  0
LINE
  5
352
100
AcDbEntity
  8
ASSI
100
AcDbLine
 62
7
  6
CONTINUOUS
 10
147.2962483064
 20
86.1624415431
 11
147.2962483064
 21
85.7434845431
  0
LINE
  5
353
100
AcDbEntity
  8
ASSI
100
AcDbLine
 62
7
  6
CONTINUOUS
 10
147.5710713064
 20
119.5039030303
 11
147.5710713064
 21
117.8408133859
  0
LINE
  5
354
100
AcDbEntity
  8
ASSI
100
AcDbLine
 62
7
  6
CONTINUOUS
 10
147.5710713064
 20
71.5814654109
 11
147.5710713064
 21
71.6382281292
  0
LINE
  5
355
100
AcDbEntity
  8
ASSI
100
AcDbLine
 62
7
  6
CONTINUOUS
 10
147.5710713064
 20
71.6415740559
 11
147.5710713064
 21
73.3046637003
  0
LINE
  5
356
100
AcDbEntity
  8
ASSI
100
AcDbLine
 62
7
  6
CONTINUOUS
 10
147.5710713064
 20
119.507248957
 11
147.5710713064
 21
119.5640116753
  0
LINE
  5
357
100
AcDbEntity
  8
ASSI
100
AcDbLine
 62
7
  6
CONTINUOUS
 10
147.6518963064
 20
85.7434845431
 11
147.6518963064
 21
84.6811255431
  0
LINE
  5
358
100
AcDbEntity
  8
ASSI
100
AcDbLine
 62
7
  6
CONTINUOUS
 10
147.6518963064
 20
84.1647695431
 11
147.6518963064
 21
82.7832865431
  0
LINE
  5
359
100
AcDbEntity
  8
0
100
AcDbLine
 62
7
  6
CONTINUOUS
 10
147.6710713064
 20
105.285504505
 11
147.6710713064
 21
105.0727385431
  0
LINE
  5
35A
100
AcDbEntity
  8
DRAFT
100
AcDbLine
 62
7
  6
CONTINUOUS
 10
147.8790655922
 20
116.3628129574
 11
147.9227032545
 21
117.2727385431
  0
LINE
  5
35B
100
AcDbEntity
  8
0
100
AcDbLine
 62
7
  6
CONTINUOUS
 10
149.1294046795
 20
106.3493342548
 11
149.1710713064
 21
106.5195470005
  0
LINE
  5
35C
100
AcDbEntity
  8
0
100
AcDbLine
 62
7
  6
CONTINUOUS
 10
150.4210713064
 20
106.6046534925
 11
150.3794045603
 21
106.476993814
  0
LINE
  5
35D
100
AcDbEntity
  8
0
100
AcDbLine
 62
7
  6
CONTINUOUS
 10
144.8771353064
 20
88.5727385431
 11
145.2709653064
 21
89.7485575431
  0
LINE
  5
35E
100
AcDbEntity
  8
0
100
AcDbLine
 62
7
  6
CONTINUOUS
 10
145.1851993064
 20
89.9727385431
 11
144.7854623064
 21
88.7834125431
  0
LINE
  5
35F
100
AcDbEntity
  8
0
100
AcDbLine
 62
7
  6
CONTINUOUS
 10
150.6308913064
 20
108.7047455431
 11
151.2016773064
 21
110.2002045431
  0
LINE
  5
360
100
AcDbEntity
  8
0
100
AcDbLine
 62
7
  6
CONTINUOUS
 10
151.6710713064
 20
105.3706108778
 11
151.7544047987
 21
105.5408236533
  0
LINE
  5
361
100
AcDbEntity
  8
0
100
AcDbLine
 62
7
  6
CONTINUOUS
 10
151.5877380526
 20
105.6684832125
 11
151.4210713064
 21
105.4131640642
  0
LWPOLYLINE
  5
362
100
AcDbEntity
  8
0
100
AcDbPolyline
 62
7
  6
CONTINUOUS
 90
10
 70
0
 10
149.9082454752
 20
100.8493578291
 10
149.9570126441
 20
100.9108354294
 10
150.0014144536
 20
100.9790487899
 10
150.0414509035
 20
101.0539979105
 10
150.0778409341
 20
101.1365169564
 10
150.1098656052
 20
101.2257717625
 10
150.1353680965
 20
101.3192598335
 10
150.1536294679
 20
101.4161470045
 10
150.1653686594
 20
101.5172674405
 10
150.170585671
 20
101.6226211416
  0
LINE
  5
363
100
AcDbEntity
  8
0
100
AcDbLine
 62
7
  6
CONTINUOUS
 10
154.4210713064
 20
107.0727385431
 11
154.1710713064
 21
106.7748662382
  0
LINE
  5
364
100
AcDbEntity
  8
0
100
AcDbLine
 62
7
  6
CONTINUOUS
 10
154.1710713064
 20
106.4344406276
 11
154.4210713064
 21
106.7323130518
  0
LWPOLYLINE
  5
365
100
AcDbEntity
  8
0
100
AcDbPolyline
 62
7
  6
CONTINUOUS
 90
10
 70
0
 10
149.5965028085
 20
101.0379554749
 10
149.5639631584
 20
101.0052253047
 10
149.5268247992
 20
100.9752243198
 10
149.4850877308
 20
100.9479525203
 10
149.4378651028
 20
100.9227829407
 10
149.3860437656
 20
100.9003425464
 10
149.3322842711
 20
100.8825122339
 10
149.27747347
 20
100.8699189686
 10
149.2207245117
 20
100.861935785
 10
149.162037396
 20
100.8585626832
  0
LINE
  5
366
100
AcDbEntity
  8
RACCORDO
100
AcDbLine
 62
253
  6
CONTINUOUS
 10
153.9210713064
 20
91.8164247854
 11
148.2210713064
 21
91.8164247854
  0
LINE
  5
367
100
AcDbEntity
  8
RACCORDO
100
AcDbLine
 62
253
  6
CONTINUOUS
 10
153.9210713064
 20
92.0163029508
 11
148.2210713064
 21
92.0163029508
  0
LWPOLYLINE
  5
368
100
AcDbEntity
  8
RACCORDO
100
AcDbPolyline
 62
253
  6
CONTINUOUS
 90
52
 70
0
 10
148.2210713064
 20
91.8164247854
 10
147.9897689247
 20
91.8235538935
 10
147.7606457406
 20
91.8446952305
 10
147.533701754
 20
91.8798487965
 10
147.3079313271
 20
91.9292661088
 10
147.0843400977
 20
91.9926956501
 10
146.8659449798
 20
92.0693828686
 10
146.652981965
 20
92.1594678269
 10
146.4452150618
 20
92.2628104625
 10
146.2449532097
 20
92.3782360361
 10
146.0522796554
 20
92.5058720398
 10
145.8671111523
 20
92.6455909816
 10
145.6915069004
 20
92.7958356468
 10
145.5255586395
 20
92.9567359098
 10
145.3691746298
 20
93.1281618962
 10
145.2241388521
 20
93.3081667687
 10
145.0905835203
 20
93.4968486632
 10
144.9683764206
 20
93.6941094437
 10
144.8589048921
 20
93.8977078651
 10
144.7623165438
 20
94.1077093088
 10
144.6784637668
 20
94.3240483934
 10
144.608291074
 20
94.544287729
 10
144.5519515791
 20
94.7684781404
 10
144.5092921684
 20
94.9965688028
 10
144.4807980137
 20
95.2259698517
 10
144.4666307958
 20
95.4566913852
 10
144.4666288338
 20
95.6887233053
 10
144.480792258
 20
95.9194454532
 10
144.5092828127
 20
96.1488478789
 10
144.5519387534
 20
96.3769405325
 10
144.6082749768
 20
96.6011331054
 10
144.6784446062
 20
96.8213746344
 10
144.7622945182
 20
97.0377160827
 10
144.8588802386
 20
97.2477200321
 10
144.9683494234
 20
97.4513211472
 10
145.0905544167
 20
97.6485847634
 10
145.2241077763
 20
97.8372694683
 10
145.3691416343
 20
98.0172770362
 10
145.5255238587
 20
98.1887056928
 10
145.6914706111
 20
98.3496087041
 10
145.8670735752
 20
98.4998562012
 10
146.0522410673
 20
98.6395780529
 10
146.2449141973
 20
98.7672171317
 10
146.4451767804
 20
98.8826461936
 10
146.6529450014
 20
98.9859924827
 10
146.8659085249
 20
99.0760806037
 10
147.0843009069
 20
99.1527700436
 10
147.3078885913
 20
99.2162013153
 10
147.5336605739
 20
99.2656205626
 10
147.7606131866
 20
99.3007764998
 10
147.9897500974
 20
99.3219204126
 10
148.2210713064
 20
99.3290523008
  0
LWPOLYLINE
  5
369
100
AcDbEntity
  8
0
100
AcDbPolyline
 62
7
  6
CONTINUOUS
 90
10
 70
0
 10
148.1514110835
 20
101.6226211416
 10
148.1568980208
 20
101.5151280623
 10
148.1688607026
 20
101.4126295443
 10
148.1872991289
 20
101.3151255876
 10
148.2129598897
 20
101.2220839627
 10
148.2450963951
 20
101.134036899
 10
148.281468875
 20
101.052581085
 10
148.3213307394
 20
100.9782487501
 10
148.3654285784
 20
100.9105076647
 10
148.4137623919
 20
100.8493578291
  0
LWPOLYLINE
  5
36A
100
AcDbEntity
  8
0
100
AcDbPolyline
 62
7
  6
CONTINUOUS
 90
19
 70
0
 10
148.208843911
 20
89.2727385431
 10
148.2078476572
 20
89.3439385454
 10
148.2024601907
 20
89.4116756906
 10
148.1926815115
 20
89.4759499788
 10
148.1781785902
 20
89.5369600169
 10
148.1592844563
 20
89.5945071979
 10
148.136998198
 20
89.6479957013
 10
148.1116429621
 20
89.6970710825
 10
148.0828956019
 20
89.7420877861
 10
148.0507857655
 20
89.783513326
 10
148.015087511
 20
89.8218004095
 10
147.9760267803
 20
89.8564963293
 10
147.9343110473
 20
89.8867104774
 10
147.8902906309
 20
89.9121222215
 10
147.8436152122
 20
89.9330521939
 10
147.7939413086
 20
89.9495716834
 10
147.7411544257
 20
89.9617044529
 10
147.6853690578
 20
89.9694267394
 10
147.6265852049
 20
89.9727385431
  0
LINE
  5
36B
100
AcDbEntity
  8
RACCORDO
100
AcDbLine
 62
7
  6
CONTINUOUS
 10
147.8790655922
 20
116.7805805008
 11
147.8790655922
 21
116.3628129574
  0
LINE
  5
36C
100
AcDbEntity
  8
RACCORDO
100
AcDbLine
 62
7
  6
CONTINUOUS
 10
147.8790655922
 20
74.7826641288
 11
147.8790655922
 21
74.3648965853
  0
LINE
  5
36D
100
AcDbEntity
  8
ASSI
100
AcDbLine
 62
7
  6
CONTINUOUS
 10
148.0035173064
 20
75.8247015296
 11
148.0035173064
 21
76.5755185292
  0
LINE
  5
36E
100
AcDbEntity
  8
ASSI
100
AcDbLine
 62
7
  6
CONTINUOUS
 10
148.0035173064
 20
80.1699585431
 11
148.0035173064
 21
80.9207755431
  0
LINE
  5
36F
100
AcDbEntity
  8
DRAFT
100
AcDbLine
 62
7
  6
CONTINUOUS
 10
148.0710713064
 20
73.8727385431
 11
148.0710713064
 21
73.190193608
  0
LINE
  5
370
100
AcDbEntity
  8
DRAFT
100
AcDbLine
 62
7
  6
CONTINUOUS
 10
148.0710713064
 20
117.2727385431
 11
148.0710713064
 21
117.9552834782
  0
LINE
  5
371
100
AcDbEntity
  8
ASSI
100
AcDbLine
 62
7
  6
CONTINUOUS
 10
148.0957753064
 20
82.7832865431
 11
148.0957753064
 21
84.1694295431
  0
LINE
  5
372
100
AcDbEntity
  8
ASSI
100
AcDbLine
 62
7
  6
CONTINUOUS
 10
148.0957753064
 20
84.6811255431
 11
148.0957753064
 21
85.7434845431
  0
LINE
  5
373
100
AcDbEntity
  8
RACCORDO
100
AcDbLine
 62
253
  6
CONTINUOUS
 10
148.2210713064
 20
96.744792116
 11
148.2210713064
 21
99.3290523008
  0
LINE
  5
374
100
AcDbEntity
  8
ASSI
100
AcDbLine
 62
7
  6
CONTINUOUS
 10
148.4512803064
 20
85.7434845431
 11
148.4512803064
 21
86.1624415431
  0
LINE
  5
375
100
AcDbEntity
  8
ASSI
100
AcDbLine
 62
7
  6
CONTINUOUS
 10
148.4648873064
 20
82.3666215431
 11
148.4648873064
 21
82.7832865431
  0
LINE
  5
376
100
AcDbEntity
  8
0
100
AcDbLine
 62
7
  6
CONTINUOUS
 10
148.4708003064
 20
89.9727385431
 11
148.4708003064
 21
88.5727385431
  0
LINE
  5
377
100
AcDbEntity
  8
0
100
AcDbLine
 62
7
  6
CONTINUOUS
 10
148.6599843064
 20
88.7404215431
 11
148.6599843064
 21
89.2083715431
  0
LINE
  5
378
100
AcDbEntity
  8
0
100
AcDbLine
 62
7
  6
CONTINUOUS
 10
148.6599843064
 20
89.3760545431
 11
148.6599843064
 21
89.8050555431
  0
LINE
  5
379
100
AcDbEntity
  8
0
100
AcDbLine
 62
7
  6
CONTINUOUS
 10
148.6990593064
 20
111.0046735431
 11
148.6990593064
 21
108.7047455431
  0
LINE
  5
37A
100
AcDbEntity
  8
0
100
AcDbLine
 62
7
  6
CONTINUOUS
 10
148.9210713064
 20
106.6046534925
 11
148.9210713064
 21
106.5195470005
  0
LINE
  5
37B
100
AcDbEntity
  8
0
100
AcDbLine
 62
7
  6
CONTINUOUS
 10
149.1710713064
 20
105.0727385431
 11
149.1710713064
 21
105.285504505
  0
LINE
  5
37C
100
AcDbEntity
  8
0
100
AcDbLine
 62
7
  6
CONTINUOUS
 10
149.1710713064
 20
106.5195470005
 11
149.1710713064
 21
106.6046534925
  0
LINE
  5
37D
100
AcDbEntity
  8
0
100
AcDbLine
 62
7
  6
CONTINUOUS
 10
149.1791153064
 20
108.7047455431
 11
149.1791153064
 21
111.0046735431
  0
LINE
  5
37E
100
AcDbEntity
  8
0
100
AcDbLine
 62
7
  6
CONTINUOUS
 10
149.4262873064
 20
89.2083715431
 11
149.4262873064
 21
89.3760545431
  0
LINE
  5
37F
100
AcDbEntity
  8
0
100
AcDbLine
 62
7
  6
CONTINUOUS
 10
149.4906323064
 20
89.8050555431
 11
149.4906323064
 21
89.9727385431
  0
LINE
  5
380
100
AcDbEntity
  8
0
100
AcDbLine
 62
7
  6
CONTINUOUS
 10
149.5042983064
 20
88.5727385431
 11
149.5042983064
 21
88.7404215431
  0
LINE
  5
381
100
AcDbEntity
  8
0
100
AcDbLine
 62
7
  6
CONTINUOUS
 10
149.5044046795
 20
106.7748662382
 11
149.5044046795
 21
106.4344406276
  0
LINE
  5
382
100
AcDbEntity
  8
RACCORDO
100
AcDbLine
 62
253
  6
CONTINUOUS
 10
148.2210713064
 20
94.4006849702
 11
148.2210713064
 21
91.8164247854
  0
LWPOLYLINE
  5
383
100
AcDbEntity
  8
0
100
AcDbPolyline
 62
7
  6
CONTINUOUS
 90
19
 70
0
 10
148.0142349754
 20
89.2727385431
 10
148.0132731985
 20
89.2208076937
 10
148.0098576461
 20
89.1709748701
 10
148.0039883182
 20
89.1232400721
 10
147.995760801
 20
89.0774315308
 10
147.9850795083
 20
89.0337210152
 10
147.9716576815
 20
88.9926238321
 10
147.9553428884
 20
88.9541539162
 10
147.9362875612
 20
88.9182973329
 10
147.914662239
 20
88.8855275847
 10
147.8904422344
 20
88.8559989846
 10
147.8636522347
 20
88.8295572197
 10
147.8345368407
 20
88.8062128535
 10
147.803017703
 20
88.78584643
 10
147.769173171
 20
88.7685774052
 10
147.7334828938
 20
88.7547747109
 10
147.6961067547
 20
88.7445613245
 10
147.6568848705
 20
88.7378142685
 10
147.6158172412
 20
88.7345335431
  0
LWPOLYLINE
  5
384
100
AcDbEntity
  8
0
100
AcDbPolyline
 62
7
  6
CONTINUOUS
 90
10
 70
0
 10
148.5286767544
 20
101.6224174124
 10
148.5324440161
 20
101.7057394091
 10
148.5410496898
 20
101.7846575057
 10
148.5544937755
 20
101.8591717025
 10
148.5731935801
 20
101.9295369815
 10
148.5967317967
 20
101.9954983606
 10
148.6238565041
 20
102.0562908929
 10
148.6541503953
 20
102.1116595961
 10
148.6880307773
 20
102.1618594526
 10
148.7254976502
 20
102.2068904624
  0
LINE
  5
385
100
AcDbEntity
  8
0
100
AcDbLine
 62
7
  6
CONTINUOUS
 10
149.8968033064
 20
108.7047455431
 11
150.0003993064
 21
110.2064645431
  0
LINE
  5
386
100
AcDbEntity
  8
0
100
AcDbLine
 62
7
  6
CONTINUOUS
 10
149.6452023064
 20
111.0045355431
 11
149.4375453064
 21
108.7047455431
  0
LINE
  5
387
100
AcDbEntity
  8
0
100
AcDbLine
 62
7
  6
CONTINUOUS
 10
150.5460713064
 20
106.2216746955
 11
150.5877380526
 21
106.476993814
  0
LINE
  5
388
100
AcDbEntity
  8
0
100
AcDbLine
 62
7
  6
CONTINUOUS
 10
150.3794045603
 20
106.476993814
 11
150.3377380526
 21
106.264227882
  0
LINE
  5
389
100
AcDbEntity
  8
0
100
AcDbLine
 62
7
  6
CONTINUOUS
 10
152.5508223064
 20
109.5191305431
 11
152.7898503064
 21
110.3726115431
  0
LINE
  5
38A
100
AcDbEntity
  8
0
100
AcDbLine
 62
7
  6
CONTINUOUS
 10
152.3201593064
 20
108.7047455431
 11
152.4526243064
 21
109.1638655431
  0
LWPOLYLINE
  5
38B
100
AcDbEntity
  8
ASSI
100
AcDbPolyline
 62
7
  6
CONTINUOUS
 90
10
 70
0
 10
155.4550800898
 20
119.5034285199
 10
155.4533005325
 20
119.4976194042
 10
155.4485786484
 20
119.4890830702
 10
155.4409137121
 20
119.477819518
 10
155.4303328918
 20
119.4638042463
 10
155.4168725871
 20
119.4470617563
 10
155.4005611847
 20
119.4276655524
 10
155.3814683735
 20
119.4055651813
 10
155.3596827045
 20
119.3808110963
 10
155.335262481
 20
119.3536281606
  0
LINE
  5
38C
100
AcDbEntity
  8
0
100
AcDbLine
 62
7
  6
CONTINUOUS
 10
152.5666713064
 20
111.0045355431
 11
151.8453113064
 21
108.7047455431
  0
LINE
  5
38D
100
AcDbEntity
  8
0
100
AcDbLine
 62
7
  6
CONTINUOUS
 10
151.7544047987
 20
105.5408236533
 11
151.7960713064
 21
105.6684832125
  0
LINE
  5
38E
100
AcDbEntity
  8
0
100
AcDbLine
 62
7
  6
CONTINUOUS
 10
145.8169823064
 20
88.5727385431
 11
145.9632433064
 21
88.9802275431
  0
LINE
  5
38F
100
AcDbEntity
  8
0
100
AcDbLine
 62
7
  6
CONTINUOUS
 10
146.0217573064
 20
89.1479105431
 11
146.2480103064
 21
89.7696705431
  0
LINE
  5
390
100
AcDbEntity
  8
0
100
AcDbLine
 62
7
  6
CONTINUOUS
 10
146.1484533064
 20
89.9727385431
 11
145.6220123064
 21
88.5727385431
  0
LINE
  5
391
100
AcDbEntity
  8
RACCORDO
100
AcDbLine
 62
253
  6
CONTINUOUS
 10
148.2212287028
 20
92.3019642334
 11
153.9209138712
 21
92.3019642334
  0
LINE
  5
392
100
AcDbEntity
  8
0
100
AcDbLine
 62
7
  6
CONTINUOUS
 10
151.0194113064
 20
89.7097065431
 11
151.7350363064
 21
88.5727385431
  0
LINE
  5
393
100
AcDbEntity
  8
0
100
AcDbLine
 62
7
  6
CONTINUOUS
 10
151.7642933064
 20
88.8355405431
 11
151.0603303064
 21
89.9727385431
  0
LWPOLYLINE
  5
394
100
AcDbEntity
  8
RACCORDO
100
AcDbPolyline
 62
7
  6
CONTINUOUS
 90
13
 70
0
 10
152.0710713064
 20
71.8227099865
 10
152.0732101085
 20
71.790079517
 10
152.0795900866
 20
71.7580079077
 10
152.0901020676
 20
71.727043827
 10
152.104566321
 20
71.6977168739
 10
152.1227353396
 20
71.6705289597
 10
152.1442978811
 20
71.6459455964
 10
152.1688850149
 20
71.6243873152
 10
152.1960760126
 20
71.6062227772
 10
152.2254050091
 20
71.5917626618
 10
152.2563700127
 20
71.5812540577
 10
152.2884416048
 20
71.5748764149
 10
152.3210713079
 20
71.5727385431
  0
LWPOLYLINE
  5
395
100
AcDbEntity
  8
0
100
AcDbPolyline
 62
7
  6
CONTINUOUS
 90
10
 70
0
 10
150.170585671
 20
101.6226211416
 10
150.1651004327
 20
101.7301119579
 10
150.1531394665
 20
101.8326090635
 10
150.1347027724
 20
101.9301124583
 10
150.1090439375
 20
102.0231546142
 10
150.0769093746
 20
102.1112030593
 10
150.0405383231
 20
102.1926603778
 10
150.0006771958
 20
102.2669940978
 10
149.9565795799
 20
102.3347366913
 10
149.9082454752
 20
102.3958881582
  0
LINE
  5
396
100
AcDbEntity
  8
0
100
AcDbLine
 62
7
  6
CONTINUOUS
 10
149.7544045603
 20
106.7323130518
 11
149.7544045603
 21
105.0727385431
  0
LINE
  5
397
100
AcDbEntity
  8
0
100
AcDbLine
 62
7
  6
CONTINUOUS
 10
150.0044045603
 20
105.0727385431
 11
150.0044045603
 21
107.0727385431
  0
LINE
  5
398
100
AcDbEntity
  8
RACCORDO
100
AcDbLine
 62
7
  6
CONTINUOUS
 10
150.0536162415
 20
71.8314368543
 11
150.0536162415
 21
73.190193608
  0
LINE
  5
399
100
AcDbEntity
  8
RACCORDO
100
AcDbLine
 62
7
  6
CONTINUOUS
 10
150.0536162415
 20
117.9552834782
 11
150.0536162415
 21
119.3140402319
  0
LINE
  5
39A
100
AcDbEntity
  8
RACCORDO
100
AcDbLine
 62
7
  6
CONTINUOUS
 10
150.0710713064
 20
119.3227670997
 11
150.0710713064
 21
117.9727385431
  0
LINE
  5
39B
100
AcDbEntity
  8
RACCORDO
100
AcDbLine
 62
7
  6
CONTINUOUS
 10
150.0710713064
 20
73.1727385431
 11
150.0710713064
 21
71.8227099865
  0
LINE
  5
39C
100
AcDbEntity
  8
0
100
AcDbLine
 62
7
  6
CONTINUOUS
 10
150.3232833064
 20
89.9727385431
 11
150.3232833064
 21
88.5727385431
  0
LINE
  5
39D
100
AcDbEntity
  8
0
100
AcDbLine
 62
7
  6
CONTINUOUS
 10
150.3377380526
 20
106.264227882
 11
150.3377380526
 21
105.8812492042
  0
LINE
  5
39E
100
AcDbEntity
  8
0
100
AcDbLine
 62
7
  6
CONTINUOUS
 10
150.5124113064
 20
88.5727385431
 11
150.5124113064
 21
89.9727385431
  0
LINE
  5
39F
100
AcDbEntity
  8
0
100
AcDbLine
 62
7
  6
CONTINUOUS
 10
150.5395363064
 20
102.6720815431
 11
150.5395363064
 21
100.5727385431
  0
LINE
  5
3A0
100
AcDbEntity
  8
0
100
AcDbLine
 62
7
  6
CONTINUOUS
 10
150.5460713064
 20
105.9238023906
 11
150.5460713064
 21
106.2216746955
  0
LINE
  5
3A1
100
AcDbEntity
  8
0
100
AcDbLine
 62
7
  6
CONTINUOUS
 10
150.8360473064
 20
89.9727385431
 11
150.8360473064
 21
88.5727385431
  0
LINE
  5
3A2
100
AcDbEntity
  8
0
100
AcDbLine
 62
7
  6
CONTINUOUS
 10
151.0194113064
 20
88.5727385431
 11
151.0194113064
 21
89.7097065431
  0
LINE
  5
3A3
100
AcDbEntity
  8
0
100
AcDbLine
 62
7
  6
CONTINUOUS
 10
150.9004613064
 20
100.5727385431
 11
150.9055483064
 21
102.0392795431
  0
LWPOLYLINE
  5
3A4
100
AcDbEntity
  8
0
100
AcDbPolyline
 62
7
  6
CONTINUOUS
 90
10
 70
0
 10
149.7933200002
 20
101.6224174124
 10
149.7895526056
 20
101.5390964346
 10
149.7809469302
 20
101.4601794312
 10
149.767502974
 20
101.3856664022
 10
149.7488034236
 20
101.3153023928
 10
149.7252655923
 20
101.2493423577
 10
149.6981414211
 20
101.1885511619
 10
149.6678482235
 20
101.1331837603
 10
149.633968686
 20
101.082985198
 10
149.5965028085
 20
101.0379554749
  0
LWPOLYLINE
  5
3A5
100
AcDbEntity
  8
RACCORDO
100
AcDbPolyline
 62
7
  6
CONTINUOUS
 90
13
 70
0
 10
152.0710713064
 20
119.3227670997
 10
152.0732101085
 20
119.3553975691
 10
152.0795900866
 20
119.3874691785
 10
152.0901020676
 20
119.4184332592
 10
152.104566321
 20
119.4477602123
 10
152.1227353396
 20
119.4749481264
 10
152.1442978811
 20
119.4995314898
 10
152.1688850149
 20
119.521089771
 10
152.1960760126
 20
119.539254309
 10
152.2254050091
 20
119.5537144244
 10
152.2563700127
 20
119.5642230284
 10
152.2884416048
 20
119.5706006713
 10
152.3210713079
 20
119.5727385431
  0
LINE
  5
3A6
100
AcDbEntity
  8
0
100
AcDbLine
 62
7
  6
CONTINUOUS
 10
151.6294045603
 20
105.9238023906
 11
151.5877380526
 21
105.6684832125
  0
LINE
  5
3A7
100
AcDbEntity
  8
0
100
AcDbLine
 62
7
  6
CONTINUOUS
 10
151.7960713064
 20
105.6684832125
 11
151.8377378142
 21
105.8812492042
  0
LWPOLYLINE
  5
3A8
100
AcDbEntity
  8
RACCORDO
100
AcDbPolyline
 62
253
  6
CONTINUOUS
 90
49
 70
0
 10
153.9210713064
 20
94.4006849702
 10
153.9981099517
 20
94.4032583705
 10
154.0742160918
 20
94.41074254
 10
154.1493897266
 20
94.4231374786
 10
154.2239574755
 20
94.4405378016
 10
154.2975927191
 20
94.4628488939
 10
154.3693155997
 20
94.4897869091
 10
154.4390894452
 20
94.521411834
 10
154.5069509276
 20
94.557663682
 10
154.5720302054
 20
94.5980786463
 10
154.6342895166
 20
94.6427090316
 10
154.6937666232
 20
94.6915025333
 10
154.7497049703
 20
94.7438384314
 10
154.8020605546
 20
94.7997631221
 10
154.8508773795
 20
94.8592302093
 10
154.8955308991
 20
94.9214797832
 10
154.9359672466
 20
94.9865471787
 10
154.9722402888
 20
95.0543970611
 10
155.0038870812
 20
95.1241635168
 10
155.0308483409
 20
95.1958712219
 10
155.0531833507
 20
95.2694955004
 10
155.0706070146
 20
95.3440964103
 10
155.0830563204
 20
95.4196863904
 10
155.0905942803
 20
95.496253002
 10
155.093124835
 20
95.572818987
 10
155.0905838048
 20
95.6493842861
 10
155.0830353694
 20
95.7259489587
 10
155.0705760085
 20
95.8015359253
 10
155.0531428113
 20
95.8761326177
 10
155.0307986887
 20
95.9497516041
 10
155.0038288532
 20
96.0214535096
 10
154.9721740557
 20
96.0912137821
 10
154.9358935453
 20
96.1590569737
 10
154.895450282
 20
96.2241173653
 10
154.8507903852
 20
96.286359644
 10
154.8019677353
 20
96.3458191228
 10
154.7496069345
 20
96.4017360212
 10
154.6936639956
 20
96.4540639769
 10
154.6341829057
 20
96.5028493524
 10
154.5719202278
 20
96.5474714544
 10
154.5068382259
 20
96.5878778616
 10
154.438974636
 20
96.6241209953
 10
154.3691992281
 20
96.6557374264
 10
154.2974710679
 20
96.6826673556
 10
154.2238310898
 20
96.7049705821
 10
154.1492718672
 20
96.7223630746
 10
154.0741242581
 20
96.7347501558
 10
153.9980574045
 20
96.7422265029
 10
153.9210713064
 20
96.744792116
  0
LINE
  5
3A9
100
AcDbEntity
  8
RACCORDO
100
AcDbLine
 62
253
  6
CONTINUOUS
 10
148.2210713064
 20
94.4006849702
 11
153.9210713064
 21
94.4006849702
  0
LINE
  5
3AA
100
AcDbEntity
  8
0
100
AcDbLine
 62
7
  6
CONTINUOUS
 10
146.9779423064
 20
101.5503455431
 11
147.6765623064
 21
100.5727385431
  0
LINE
  5
3AB
100
AcDbEntity
  8
0
100
AcDbLine
 62
7
  6
CONTINUOUS
 10
151.7699293064
 20
108.7047455431
 11
151.5548733064
 21
111.0045355431
  0
LINE
  5
3AC
100
AcDbEntity
  8
0
100
AcDbLine
 62
7
  6
CONTINUOUS
 10
151.2016773064
 20
110.2002045431
 11
151.3003073064
 21
108.7047455431
  0
LWPOLYLINE
  5
3AD
100
AcDbEntity
  8
RACCORDO
100
AcDbPolyline
 62
7
  6
CONTINUOUS
 90
13
 70
0
 10
150.0710713064
 20
119.3227670997
 10
150.0689325044
 20
119.3553975691
 10
150.0625525263
 20
119.3874691785
 10
150.0520405453
 20
119.4184332592
 10
150.0375762918
 20
119.4477602123
 10
150.0194072732
 20
119.4749481264
 10
149.9978447318
 20
119.4995314898
 10
149.9732575979
 20
119.521089771
 10
149.9460666003
 20
119.539254309
 10
149.9167376038
 20
119.5537144244
 10
149.8857726002
 20
119.5642230284
 10
149.853701008
 20
119.5706006713
 10
149.821071305
 20
119.5727385431
  0
LINE
  5
3AE
100
AcDbEntity
  8
0
100
AcDbLine
 62
7
  6
CONTINUOUS
 10
151.6294045603
 20
106.2216746955
 11
151.6294045603
 21
105.9238023906
  0
LINE
  5
3AF
100
AcDbEntity
  8
0
100
AcDbLine
 62
7
  6
CONTINUOUS
 10
151.7642933064
 20
89.9727385431
 11
151.7642933064
 21
88.8355405431
  0
LINE
  5
3B0
100
AcDbEntity
  8
0
100
AcDbLine
 62
7
  6
CONTINUOUS
 10
151.8377378142
 20
105.8812492042
 11
151.8377378142
 21
106.264227882
  0
LINE
  5
3B1
100
AcDbEntity
  8
0
100
AcDbLine
 62
7
  6
CONTINUOUS
 10
151.8739763064
 20
102.6720815431
 11
151.8739683064
 21
101.1893555431
  0
LINE
  5
3B2
100
AcDbEntity
  8
0
100
AcDbLine
 62
7
  6
CONTINUOUS
 10
151.9475673064
 20
88.5727385431
 11
151.9475673064
 21
89.9727385431
  0
LINE
  5
3B3
100
AcDbEntity
  8
ASSI
100
AcDbLine
 62
7
  6
CONTINUOUS
 10
151.9886273064
 20
77.9977385431
 11
151.9886273064
 21
78.7477385431
  0
LINE
  5
3B4
100
AcDbEntity
  8
RACCORDO
100
AcDbLine
 62
7
  6
CONTINUOUS
 10
152.0710713064
 20
71.8227099865
 11
152.0710713064
 21
73.1727385431
  0
LINE
  5
3B5
100
AcDbEntity
  8
RACCORDO
100
AcDbLine
 62
7
  6
CONTINUOUS
 10
152.0710713064
 20
117.9727385431
 11
152.0710713064
 21
119.3227670997
  0
LINE
  5
3B6
100
AcDbEntity
  8
RACCORDO
100
AcDbLine
 62
7
  6
CONTINUOUS
 10
152.0885263714
 20
119.3140402319
 11
152.0885263714
 21
117.9552834782
  0
LINE
  5
3B7
100
AcDbEntity
  8
RACCORDO
100
AcDbLine
 62
7
  6
CONTINUOUS
 10
152.0885263714
 20
73.190193608
 11
152.0885263714
 21
71.8314368543
  0
LINE
  5
3B8
100
AcDbEntity
  8
0
100
AcDbLine
 62
7
  6
CONTINUOUS
 10
152.1710713064
 20
105.9238023906
 11
152.1710713064
 21
105.6684832125
  0
LINE
  5
3B9
100
AcDbEntity
  8
0
100
AcDbLine
 62
7
  6
CONTINUOUS
 10
152.2349063064
 20
100.5727385431
 11
152.2349063064
 21
102.6720815431
  0
LINE
  5
3BA
100
AcDbEntity
  8
ASSI
100
AcDbLine
 62
7
  6
CONTINUOUS
 10
152.3886273064
 20
75.8247014123
 11
152.3886273064
 21
76.5755219841
  0
LINE
  5
3BB
100
AcDbEntity
  8
ASSI
100
AcDbLine
 62
7
  6
CONTINUOUS
 10
152.3886273064
 20
80.1699585431
 11
152.3886273064
 21
80.9207753153
  0
LINE
  5
3BC
100
AcDbEntity
  8
0
100
AcDbLine
 62
7
  6
CONTINUOUS
 10
152.8152383064
 20
89.9727385431
 11
152.8152383064
 21
88.5727385431
  0
LINE
  5
3BD
100
AcDbEntity
  8
0
100
AcDbLine
 62
7
  6
CONTINUOUS
 10
153.0044223064
 20
88.5727385431
 11
153.0044223064
 21
89.9727385431
  0
LWPOLYLINE
  5
3BE
100
AcDbEntity
  8
RACCORDO
100
AcDbPolyline
 62
7
  6
CONTINUOUS
 90
13
 70
0
 10
150.0710713064
 20
71.8227099865
 10
150.0689325044
 20
71.790079517
 10
150.0625525263
 20
71.7580079077
 10
150.0520405453
 20
71.727043827
 10
150.0375762918
 20
71.6977168739
 10
150.0194072732
 20
71.6705289597
 10
149.9978447318
 20
71.6459455964
 10
149.9732575979
 20
71.6243873152
 10
149.9460666003
 20
71.6062227772
 10
149.9167376038
 20
71.5917626618
 10
149.8857726002
 20
71.5812540577
 10
149.853701008
 20
71.5748764149
 10
149.821071305
 20
71.5727385431
  0
LWPOLYLINE
  5
3BF
100
AcDbEntity
  8
RACCORDO
100
AcDbPolyline
 62
253
  6
CONTINUOUS
 90
49
 70
0
 10
148.2210713064
 20
96.744792116
 10
148.1440915554
 20
96.742227843
 10
148.0680282816
 20
96.7347522055
 10
147.992881485
 20
96.7223652036
 10
147.918318666
 20
96.7049717209
 10
147.8446723243
 20
96.6826668738
 10
147.7729399588
 20
96.655736011
 10
147.7031653129
 20
96.6241203289
 10
147.6353046433
 20
96.5878786311
 10
147.5702242193
 20
96.5474726769
 10
147.5079597782
 20
96.5028488268
 10
147.4484755826
 20
96.4540607204
 10
147.3925306892
 20
96.4017310359
 10
147.340170388
 20
96.3458144568
 10
147.2913493891
 20
96.2863562996
 10
147.2466908785
 20
96.2241151922
 10
147.2062482127
 20
96.1590554336
 10
147.1699680352
 20
96.0912127247
 10
147.1383134639
 20
96.0214527958
 10
147.1113437682
 20
95.9497510655
 10
147.0889996785
 20
95.8761321151
 10
147.0715665037
 20
95.8015354197
 10
147.0591071815
 20
95.72594843
 10
147.0515587743
 20
95.6493836952
 10
147.0490177778
 20
95.5728183377
 10
147.0515483836
 20
95.4962522975
 10
147.0590864002
 20
95.4196856346
 10
147.0715357492
 20
95.3440956512
 10
147.0889594698
 20
95.2694947676
 10
147.1112945229
 20
95.1958705636
 10
147.1382557126
 20
95.1241630798
 10
147.1699023343
 20
95.0543970306
 10
147.2061750926
 20
94.9865477016
 10
147.2466109063
 20
94.9214809917
 10
147.2912631282
 20
94.8592326062
 10
147.3400784056
 20
94.7997668397
 10
147.392433598
 20
94.7438424741
 10
147.448374027
 20
94.6915048596
 10
147.5078543712
 20
94.6427086461
 10
147.5701155258
 20
94.5980765648
 10
147.6351931957
 20
94.5576621668
 10
147.7030516761
 20
94.521411901
 10
147.7728247482
 20
94.4897878452
 10
147.8445520375
 20
94.4628489552
 10
147.9181939185
 20
94.4405362753
 10
147.9927652954
 20
94.4231350158
 10
148.0679378031
 20
94.4107402469
 10
148.1440398068
 20
94.4032568983
 10
148.2210713064
 20
94.4006849702
  0
LINE
  5
3C0
100
AcDbEntity
  8
RACCORDO
100
AcDbLine
 62
253
  6
CONTINUOUS
 10
153.9210713064
 20
96.744792116
 11
148.2210713064
 21
96.744792116
  0
LWPOLYLINE
  5
3C1
100
AcDbEntity
  8
0
100
AcDbPolyline
 62
7
  6
CONTINUOUS
 90
13
 70
0
 10
148.4137623919
 20
100.8493578291
 10
148.4575475153
 20
100.8017146239
 10
148.5048160272
 20
100.7574635879
 10
148.5555679275
 20
100.716604721
 10
148.6099615559
 20
100.6788792164
 10
148.6678385727
 20
100.644545881
 10
148.7287239593
 20
100.6143811351
 10
148.7922816913
 20
100.5885068142
 10
148.858847793
 20
100.5668010829
 10
148.9289553189
 20
100.5496748549
 10
149.0027819537
 20
100.5372651013
 10
149.0801500128
 20
100.5294348511
 10
149.161059496
 20
100.5261841041
  0
LWPOLYLINE
  5
3C2
100
AcDbEntity
  8
0
100
AcDbPolyline
 62
7
  6
CONTINUOUS
 90
10
 70
0
 10
148.7254976502
 20
101.0379554749
 10
148.6878424108
 20
101.0829839735
 10
148.6538330221
 20
101.1333412688
 10
148.6234694843
 20
101.1890273608
 10
148.5963508479
 20
101.250510073
 10
148.5728780624
 20
101.3173215819
 10
148.5542539755
 20
101.3880584174
 10
148.5408795365
 20
101.4622527559
 10
148.5323537961
 20
101.5403724209
 10
148.5286767544
 20
101.6224174124
  0
LINE
  5
3C3
100
AcDbEntity
  8
0
100
AcDbLine
 62
7
  6
CONTINUOUS
 10
148.1481953064
 20
100.5727385431
 11
147.2403713064
 21
101.8082215431
  0
LINE
  5
3C4
100
AcDbEntity
  8
0
100
AcDbLine
 62
7
  6
CONTINUOUS
 10
156.7833693064
 20
89.9727385431
 11
157.3117803064
 21
89.1362485431
  0
LINE
  5
3C5
100
AcDbEntity
  8
0
100
AcDbLine
 62
7
  6
CONTINUOUS
 10
155.6466123064
 20
88.5727385431
 11
155.1395673064
 21
89.9727385431
  0
LINE
  5
3C6
100
AcDbEntity
  8
0
100
AcDbLine
 62
7
  6
CONTINUOUS
 10
155.3014303064
 20
88.9802275431
 11
155.4398673064
 21
88.5727385431
  0
LINE
  5
3C7
100
AcDbEntity
  8
0
100
AcDbLine
 62
7
  6
CONTINUOUS
 10
155.0245783064
 20
89.7696705431
 11
155.2331683064
 21
89.1479105431
  0
LINE
  5
3C8
100
AcDbEntity
  8
0
100
AcDbLine
 62
7
  6
CONTINUOUS
 10
146.6295373064
 20
111.0045355431
 11
147.3586153064
 21
108.7047455431
  0
LINE
  5
3C9
100
AcDbEntity
  8
0
100
AcDbLine
 62
7
  6
CONTINUOUS
 10
147.5894083064
 20
109.4215185431
 11
147.1510263064
 21
111.0045355431
  0
LINE
  5
3CA
100
AcDbEntity
  8
0
100
AcDbLine
 62
7
  6
CONTINUOUS
 10
149.1710713064
 20
106.6046534925
 11
149.1294046795
 21
106.7748662382
  0
LINE
  5
3CB
100
AcDbEntity
  8
0
100
AcDbLine
 62
7
  6
CONTINUOUS
 10
150.3377380526
 20
105.8812492042
 11
150.3794045603
 21
105.6684832125
  0
LINE
  5
3CC
100
AcDbEntity
  8
0
100
AcDbLine
 62
7
  6
CONTINUOUS
 10
150.5877380526
 20
105.6684832125
 11
150.5460713064
 21
105.9238023906
  0
LINE
  5
3CD
100
AcDbEntity
  8
0
100
AcDbLine
 62
7
  6
CONTINUOUS
 10
153.1710713064
 20
106.7323130518
 11
153.1710713064
 21
105.9238023906
  0
LINE
  5
3CE
100
AcDbEntity
  8
0
100
AcDbLine
 62
7
  6
CONTINUOUS
 10
153.1710713064
 20
105.6684832125
 11
153.1710713064
 21
105.0727385431
  0
LINE
  5
3CF
100
AcDbEntity
  8
0
100
AcDbLine
 62
7
  6
CONTINUOUS
 10
153.2072163064
 20
89.9727385431
 11
153.2072163064
 21
89.8050555431
  0
LINE
  5
3D0
100
AcDbEntity
  8
0
100
AcDbLine
 62
7
  6
CONTINUOUS
 10
153.4210713064
 20
105.0727385431
 11
153.4210713064
 21
105.6684832125
  0
LINE
  5
3D1
100
AcDbEntity
  8
0
100
AcDbLine
 62
7
  6
CONTINUOUS
 10
153.4210713064
 20
105.9238023906
 11
153.4210713064
 21
107.0727385431
  0
LINE
  5
3D2
100
AcDbEntity
  8
0
100
AcDbLine
 62
7
  6
CONTINUOUS
 10
153.6810533064
 20
89.8050555431
 11
153.6810533064
 21
88.5727385431
  0
LINE
  5
3D3
100
AcDbEntity
  8
0
100
AcDbLine
 62
7
  6
CONTINUOUS
 10
153.8377378142
 20
105.6684832125
 11
153.8377378142
 21
105.9238023906
  0
LINE
  5
3D4
100
AcDbEntity
  8
0
100
AcDbLine
 62
7
  6
CONTINUOUS
 10
153.8701693064
 20
88.5727385431
 11
153.8701693064
 21
89.8050555431
  0
LINE
  5
3D5
100
AcDbEntity
  8
0
100
AcDbLine
 62
7
  6
CONTINUOUS
 10
153.8776688885
 20
110.9776661896
 11
153.8776688885
 21
108.7047457095
  0
LINE
  5
3D6
100
AcDbEntity
  8
RACCORDO
100
AcDbLine
 62
253
  6
CONTINUOUS
 10
153.9210713064
 20
94.4006849702
 11
153.9210713064
 21
91.8164247854
  0
LINE
  5
3D7
100
AcDbEntity
  8
RACCORDO
100
AcDbLine
 62
253
  6
CONTINUOUS
 10
153.9210713064
 20
96.744792116
 11
153.9210713064
 21
99.3290523008
  0
LINE
  5
3D8
100
AcDbEntity
  8
DRAFT
100
AcDbLine
 62
7
  6
CONTINUOUS
 10
154.0710713064
 20
73.8727385431
 11
154.0710713064
 21
73.190193608
  0
LINE
  5
3D9
100
AcDbEntity
  8
DRAFT
100
AcDbLine
 62
7
  6
CONTINUOUS
 10
154.0710713064
 20
117.2727385431
 11
154.0710713064
 21
117.9552834782
  0
LINE
  5
3DA
100
AcDbEntity
  8
0
100
AcDbLine
 62
7
  6
CONTINUOUS
 10
154.1710713064
 20
106.7748662382
 11
154.1710713064
 21
106.4344406276
  0
LINE
  5
3DB
100
AcDbEntity
  8
RACCORDO
100
AcDbLine
 62
7
  6
CONTINUOUS
 10
154.2630770206
 20
116.7805805008
 11
154.2630770206
 21
116.3628129574
  0
LINE
  5
3DC
100
AcDbEntity
  8
RACCORDO
100
AcDbLine
 62
7
  6
CONTINUOUS
 10
154.2630770206
 20
74.7826641288
 11
154.2630770206
 21
74.3648965853
  0
LINE
  5
3DD
100
AcDbEntity
  8
0
100
AcDbLine
 62
7
  6
CONTINUOUS
 10
154.3398756626
 20
109.9814063141
 11
154.3398756626
 21
110.6127434129
  0
LINE
  5
3DE
100
AcDbEntity
  8
0
100
AcDbLine
 62
7
  6
CONTINUOUS
 10
154.3440063064
 20
89.8050555431
 11
154.3440063064
 21
89.9727385431
  0
LINE
  5
3DF
100
AcDbEntity
  8
0
100
AcDbLine
 62
7
  6
CONTINUOUS
 10
154.3557936079
 20
108.7047457095
 11
154.3557936079
 21
109.6047563404
  0
LINE
  5
3E0
100
AcDbEntity
  8
0
100
AcDbLine
 62
7
  6
CONTINUOUS
 10
154.4210713064
 20
106.7323130518
 11
154.4210713064
 21
105.0727385431
  0
LINE
  5
3E1
100
AcDbEntity
  8
ASSI
100
AcDbLine
 62
7
  6
CONTINUOUS
 10
154.5710713064
 20
71.5814654109
 11
154.5710713064
 21
71.6382281292
  0
LINE
  5
3E2
100
AcDbEntity
  8
ASSI
100
AcDbLine
 62
7
  6
CONTINUOUS
 10
154.5710713064
 20
71.6415740559
 11
154.5710713064
 21
73.3046637003
  0
LINE
  5
3E3
100
AcDbEntity
  8
ASSI
100
AcDbLine
 62
7
  6
CONTINUOUS
 10
154.5710713064
 20
117.8408133859
 11
154.5710713064
 21
119.5039030303
  0
LINE
  5
3E4
100
AcDbEntity
  8
ASSI
100
AcDbLine
 62
7
  6
CONTINUOUS
 10
154.5710713064
 20
119.507248957
 11
154.5710713064
 21
119.5640116753
  0
LINE
  5
3E5
100
AcDbEntity
  8
0
100
AcDbLine
 62
7
  6
CONTINUOUS
 10
154.6710713064
 20
105.0727385431
 11
154.6710713064
 21
107.0727385431
  0
LWPOLYLINE
  5
3E6
100
AcDbEntity
  8
0
100
AcDbPolyline
 62
7
  6
CONTINUOUS
 90
16
 70
0
 10
154.9871307067
 20
110.3387926422
 10
154.9846701405
 20
110.2935377387
 10
154.9785766415
 20
110.2508902772
 10
154.9688502095
 20
110.2108502576
 10
154.9552222739
 20
110.1730200586
 10
154.9379614054
 20
110.1377973015
 10
154.9178733161
 20
110.1063748503
 10
154.8952596842
 20
110.0792965947
 10
154.8698188314
 20
110.056018645
 10
154.8414514352
 20
110.0361021959
 10
154.8099528291
 20
110.0195828712
 10
154.7755276796
 20
110.0064250471
 10
154.7386906631
 20
109.996083047
 10
154.6996133385
 20
109.9883749787
 10
154.6581241469
 20
109.9834827344
 10
154.6142230885
 20
109.9814063141
  0
LWPOLYLINE
  5
3E7
100
AcDbEntity
  8
ASSI
100
AcDbPolyline
 62
7
  6
CONTINUOUS
 90
10
 70
0
 10
146.6870625231
 20
71.6420485662
 10
146.6888340851
 20
71.6478376671
 10
146.6935345148
 20
71.6563450061
 10
146.701166067
 20
71.6675705832
 10
146.711701948
 20
71.681534186
 10
146.7251082571
 20
71.6982160269
 10
146.7413642503
 20
71.7175567435
 10
146.760405472
 20
71.7396052315
 10
146.7821472026
 20
71.7643125952
 10
146.8065408117
 20
71.7914727848
  0
LINE
  5
3E8
100
AcDbEntity
  8
ASSI
100
AcDbLine
 62
7
  6
CONTINUOUS
 10
146.9063954828
 20
82.5539978572
 11
147.0981922429
 21
82.8957164299
  0
LINE
  5
3E9
100
AcDbEntity
  8
RACCORDO
100
AcDbLine
 62
253
  6
CONTINUOUS
 10
153.9210713064
 20
98.8435128527
 11
148.2210713064
 21
98.8435128527
  0
LINE
  5
3EA
100
AcDbEntity
  8
RACCORDO
100
AcDbLine
 62
253
  6
CONTINUOUS
 10
148.2210713064
 20
99.1291741354
 11
153.9210713064
 21
99.1291741354
  0
LINE
  5
3EB
100
AcDbEntity
  8
RACCORDO
100
AcDbLine
 62
253
  6
CONTINUOUS
 10
148.2210713064
 20
99.3290523008
 11
153.9210713064
 21
99.3290523008
  0
LWPOLYLINE
  5
3EC
100
AcDbEntity
  8
RACCORDO
100
AcDbPolyline
 62
253
  6
CONTINUOUS
 90
97
 70
0
 10
153.9210713064
 20
99.3290523008
 10
153.9908911637
 20
99.3285425795
 10
154.0620782449
 20
99.3265173029
 10
154.1346325499
 20
99.322976471
 10
154.2083455788
 20
99.318050113
 10
154.2834258316
 20
99.3116081997
 10
154.3604988084
 20
99.3032606436
 10
154.4396045621
 20
99.2930741943
 10
154.5207030399
 20
99.2809821022
 10
154.6042995838
 20
99.2663940307
 10
154.6904438906
 20
99.2493838528
 10
154.7790862636
 20
99.2298776955
 10
154.8705829541
 20
99.2070636031
 10
154.9652225067
 20
99.1809232676
 10
155.062716377
 20
99.1514749971
 10
155.1625551823
 20
99.11796176
 10
155.265369827
 20
99.0800518423
 10
155.3705294068
 20
99.0380769582
 10
155.4756318273
 20
98.9922752185
 10
155.5806133641
 20
98.9423989774
 10
155.6855377415
 20
98.8886958808
 10
155.7881940388
 20
98.8321469773
 10
155.8879454276
 20
98.7729475237
 10
155.9854287361
 20
98.7109022633
 10
156.0803435283
 20
98.6464064747
 10
156.1724543993
 20
98.5796602897
 10
156.2619967538
 20
98.5104635766
 10
156.3493763702
 20
98.4386112184
 10
156.4344124854
 20
98.3644545274
 10
156.5172858625
 20
98.2876421913
 10
156.5989445689
 20
98.2069151566
 10
156.6795443897
 20
98.1224659703
 10
156.7589295397
 20
98.0341020854
 10
156.8375807313
 20
97.9399868072
 10
156.9158074436
 20
97.8402026676
 10
156.9933001975
 20
97.7346671348
 10
157.0696112679
 20
97.6212959187
 10
157.1452549183
 20
97.4997442866
 10
157.2197168851
 20
97.3703569712
 10
157.2910066531
 20
97.2320838808
 10
157.3594433638
 20
97.0844318451
 10
157.4247078755
 20
96.9278940344
 10
157.483852248
 20
96.7628998672
 10
157.5368991048
 20
96.5889301745
 10
157.5838258223
 20
96.4065041253
 10
157.6216165896
 20
96.2176086458
 10
157.6498607994
 20
96.0209108529
 10
157.6689690591
 20
95.8177436296
 10
157.6771573798
 20
95.6140925515
 10
157.6733656794
 20
95.409843466
 10
157.6586540401
 20
95.2051105257
 10
157.6344187201
 20
95.0062217641
 10
157.6001342388
 20
94.814461179
 10
157.5563260768
 20
94.6285447727
 10
157.5059669337
 20
94.4509485852
 10
157.4490495344
 20
94.2823036724
 10
157.385581154
 20
94.1219789784
 10
157.3185563175
 20
93.9705573762
 10
157.2482383022
 20
93.8285018966
 10
157.1743638308
 20
93.6953495087
 10
157.0991375959
 20
93.5702939932
 10
157.0230844073
 20
93.4537488262
 10
156.9456794552
 20
93.3453005315
 10
156.867553003
 20
93.2429024613
 10
156.7890415847
 20
93.1465052729
 10
156.7098086663
 20
93.0561583091
 10
156.6294749099
 20
92.9699629497
 10
156.5482302984
 20
92.8877466248
 10
156.4658848489
 20
92.8096819045
 10
156.3814892737
 20
92.734387878
 10
156.2948779878
 20
92.6615046959
 10
156.2062165762
 20
92.5913922076
 10
156.1150525068
 20
92.5237490514
 10
156.0211787158
 20
92.4583726173
 10
155.9248022671
 20
92.3954655151
 10
155.8260918197
 20
92.3353342129
 10
155.7245170624
 20
92.2777935346
 10
155.6206083064
 20
92.2230286562
 10
155.5161251449
 20
92.1719015731
 10
155.4108863674
 20
92.1245754981
 10
155.3050731843
 20
92.0808872184
 10
155.2009888197
 20
92.0412090919
 10
155.0991220135
 20
92.0058556057
 10
154.9989840259
 20
91.9745122727
 10
154.9014118614
 20
91.9466079889
 10
154.8067060728
 20
91.922204139
 10
154.7145661074
 20
91.9012393383
 10
154.6249273117
 20
91.8829583298
 10
154.5378473295
 20
91.8673117662
 10
154.453268517
 20
91.8543489948
 10
154.3709532907
 20
91.8434628003
 10
154.2909354474
 20
91.8346031676
 10
154.2131811901
 20
91.8278201118
 10
154.1373515448
 20
91.8226564627
 10
154.0633335201
 20
91.8189598302
 10
153.9912401073
 20
91.8168826045
 10
153.9210713064
 20
91.8164247854
  0
LWPOLYLINE
  5
3ED
100
AcDbEntity
  8
0
100
AcDbPolyline
 62
7
  6
CONTINUOUS
 90
13
 70
0
 10
149.9082454752
 20
102.3958881582
 10
149.86444453
 20
102.4435488372
 10
149.8171658566
 20
102.4878123713
 10
149.7664094551
 20
102.5286787604
 10
149.7120175565
 20
102.5664057337
 10
149.6541479297
 20
102.6007355622
 10
149.5932738815
 20
102.6308950578
 10
149.5297318421
 20
102.6567624355
 10
149.4631853813
 20
102.6784594805
 10
149.3930985147
 20
102.6955783605
 10
149.3192925809
 20
102.7079831316
 10
149.2419462413
 20
102.7158097378
 10
149.161059496
 20
102.7190581791
  0
LWPOLYLINE
  5
3EE
100
AcDbEntity
  8
0
100
AcDbPolyline
 62
7
  6
CONTINUOUS
 90
10
 70
0
 10
149.5965028085
 20
102.2068904624
 10
149.6341593071
 20
102.1618632511
 10
149.6681694278
 20
102.1115064286
 10
149.6985331705
 20
102.0558199949
 10
149.7256513388
 20
101.9943358813
 10
149.7491231291
 20
101.9275221566
 10
149.7677461314
 20
101.8567830267
 10
149.7811195424
 20
101.7825865604
 10
149.7896441653
 20
101.7044646889
 10
149.7933200002
 20
101.6224174124
  0
LINE
  5
3EF
100
AcDbEntity
  8
0
100
AcDbLine
 62
7
  6
CONTINUOUS
 10
151.8739683064
 20
101.1893555431
 11
150.9058693064
 21
102.6720815431
  0
LINE
  5
3F0
100
AcDbEntity
  8
0
100
AcDbLine
 62
7
  6
CONTINUOUS
 10
150.9055483064
 20
102.0392795431
 11
151.8602683064
 21
100.5727385431
  0
LINE
  5
3F1
100
AcDbEntity
  8
0
100
AcDbLine
 62
7
  6
CONTINUOUS
 10
157.4054153064
 20
89.2999685431
 11
157.0037013064
 21
89.9727385431
  0
LINE
  5
3F2
100
AcDbEntity
  8
0
100
AcDbLine
 62
7
  6
CONTINUOUS
 10
150.4210713064
 20
105.5408236533
 11
150.5044045603
 21
105.3706108778
  0
LINE
  5
3F3
100
AcDbEntity
  8
0
100
AcDbLine
 62
7
  6
CONTINUOUS
 10
150.3794045603
 20
105.6684832125
 11
150.4210713064
 21
105.5408236533
  0
LINE
  5
3F4
100
AcDbEntity
  8
0
100
AcDbLine
 62
7
  6
CONTINUOUS
 10
151.8377378142
 20
106.264227882
 11
151.7960713064
 21
106.476993814
  0
LINE
  5
3F5
100
AcDbEntity
  8
0
100
AcDbLine
 62
7
  6
CONTINUOUS
 10
151.5877380526
 20
106.476993814
 11
151.6294045603
 21
106.2216746955
  0
LINE
  5
3F6
100
AcDbEntity
  8
DRAFT
100
AcDbLine
 62
7
  6
CONTINUOUS
 10
154.2630770206
 20
116.3628129574
 11
154.2194393583
 21
117.2727385431
  0
LINE
  5
3F7
100
AcDbEntity
  8
0
100
AcDbLine
 62
7
  6
CONTINUOUS
 10
155.1118701416
 20
109.7782671181
 11
155.1118701416
 21
109.7918568699
  0
LINE
  5
3F8
100
AcDbEntity
  8
ASSI
100
AcDbLine
 62
7
  6
CONTINUOUS
 10
155.4550800898
 20
71.6420368451
 11
155.4550800898
 21
73.3047310287
  0
LINE
  5
3F9
100
AcDbEntity
  8
ASSI
100
AcDbLine
 62
7
  6
CONTINUOUS
 10
155.4550800898
 20
117.8407460575
 11
155.4550800898
 21
119.503440241
  0
LINE
  5
3FA
100
AcDbEntity
  8
DRAFT
100
AcDbLine
 62
7
  6
CONTINUOUS
 10
155.5210713064
 20
119.5727385431
 11
155.5210713064
 21
119.0227385431
  0
LINE
  5
3FB
100
AcDbEntity
  8
DRAFT
100
AcDbLine
 62
7
  6
CONTINUOUS
 10
155.5210713064
 20
118.4227385431
 11
155.5210713064
 21
117.9727385431
  0
LINE
  5
3FC
100
AcDbEntity
  8
DRAFT
100
AcDbLine
 62
7
  6
CONTINUOUS
 10
155.5210713064
 20
73.1727385431
 11
155.5210713064
 21
72.7227385431
  0
LINE
  5
3FD
100
AcDbEntity
  8
DRAFT
100
AcDbLine
 62
7
  6
CONTINUOUS
 10
155.5210713064
 20
72.1227385431
 11
155.5210713064
 21
71.5727385431
  0
LINE
  5
3FE
100
AcDbEntity
  8
0
100
AcDbLine
 62
7
  6
CONTINUOUS
 10
155.8200703064
 20
89.9727385431
 11
155.8200703064
 21
88.5727385431
  0
LINE
  5
3FF
100
AcDbEntity
  8
0
100
AcDbLine
 62
7
  6
CONTINUOUS
 10
156.0092653064
 20
88.7404215431
 11
156.0092653064
 21
89.9727385431
  0
LINE
  5
400
100
AcDbEntity
  8
RACCORDO
100
AcDbLine
 62
253
  6
CONTINUOUS
 10
156.3475392247
 20
104.0963087018
 11
156.3475392247
 21
103.8963163172
  0
LINE
  5
401
100
AcDbEntity
  8
RACCORDO
100
AcDbLine
 62
253
  6
CONTINUOUS
 10
156.3475392247
 20
87.0491683844
 11
156.3475392247
 21
87.249160769
  0
LINE
  5
402
100
AcDbEntity
  8
RACCORDO
100
AcDbLine
 62
253
  6
CONTINUOUS
 10
156.3606599885
 20
103.6832031688
 11
156.3606599885
 21
103.8831955534
  0
LINE
  5
403
100
AcDbEntity
  8
RACCORDO
100
AcDbLine
 62
253
  6
CONTINUOUS
 10
156.3606599885
 20
87.4622739174
 11
156.3606599845
 21
87.2622815328
  0
LINE
  5
404
100
AcDbEntity
  8
DRAFT
100
AcDbLine
 62
7
  6
CONTINUOUS
 10
154.2194393583
 20
73.8727385431
 11
154.2630770206
 21
74.7826641288
  0
LINE
  5
405
100
AcDbEntity
  8
0
100
AcDbLine
 62
7
  6
CONTINUOUS
 10
154.9251113064
 20
89.9727385431
 11
154.3986033064
 21
88.5727385431
  0
LWPOLYLINE
  5
406
100
AcDbEntity
  8
0
100
AcDbPolyline
 62
7
  6
CONTINUOUS
 90
13
 70
0
 10
149.161059496
 20
100.5261841041
 10
149.2419501199
 20
100.5294328968
 10
149.3193000425
 20
100.5372602393
 10
149.3931092638
 20
100.5496661315
 10
149.4631993912
 20
100.5667867321
 10
149.5297488174
 20
100.5884858823
 10
149.5932927202
 20
100.614355107
 10
149.654167456
 20
100.6445162932
 10
149.7120366684
 20
100.6788475537
 10
149.7664264657
 20
100.7165747513
 10
149.817178884
 20
100.7574398402
 10
149.8644518872
 20
100.8017008661
 10
149.9082454752
 20
100.8493578291
  0
LINE
  5
407
100
AcDbEntity
  8
0
100
AcDbLine
 62
7
  6
CONTINUOUS
 10
143.5710713064
 20
100.5727385431
 11
145.0632103064
 21
100.5727385431
  0
LINE
  5
408
100
AcDbEntity
  8
0
100
AcDbLine
 62
7
  6
CONTINUOUS
 10
145.5141113064
 20
100.5727385431
 11
145.8890463064
 21
100.5727385431
  0
LINE
  5
409
100
AcDbEntity
  8
0
100
AcDbLine
 62
7
  6
CONTINUOUS
 10
146.3349223064
 20
100.5727385431
 11
146.7098413064
 21
100.5727385431
  0
LINE
  5
40A
100
AcDbEntity
  8
0
100
AcDbLine
 62
7
  6
CONTINUOUS
 10
147.6765623064
 20
100.5727385431
 11
148.1481953064
 21
100.5727385431
  0
LINE
  5
40B
100
AcDbEntity
  8
0
100
AcDbLine
 62
7
  6
CONTINUOUS
 10
150.5395363064
 20
100.5727385431
 11
150.9004613064
 21
100.5727385431
  0
LINE
  5
40C
100
AcDbEntity
  8
0
100
AcDbLine
 62
7
  6
CONTINUOUS
 10
151.8602683064
 20
100.5727385431
 11
152.2349063064
 21
100.5727385431
  0
LINE
  5
40D
100
AcDbEntity
  8
0
100
AcDbLine
 62
7
  6
CONTINUOUS
 10
145.0632103064
 20
100.9059285431
 11
143.9459853064
 21
100.9059155431
  0
LWPOLYLINE
  5
40E
100
AcDbEntity
  8
0
100
AcDbPolyline
 62
7
  6
CONTINUOUS
 90
10
 70
0
 10
149.162037396
 20
100.8585626832
 10
149.1025083077
 20
100.8620334784
 10
149.0451091671
 20
100.8700859526
 10
148.9898399741
 20
100.882720106
 10
148.9358657682
 20
100.9005575981
 10
148.88402151
 20
100.9229767693
 10
148.8368120809
 20
100.9481126405
 10
148.7950724415
 20
100.975343552
 10
148.7579676313
 20
101.0052911635
 10
148.7254976502
 20
101.0379554749
  0
LINE
  5
40F
100
AcDbEntity
  8
0
100
AcDbLine
 62
7
  6
CONTINUOUS
 10
148.8377379334
 20
106.7323130518
 11
148.9210713064
 21
106.6046534925
  0
LINE
  5
410
100
AcDbEntity
  8
0
100
AcDbLine
 62
7
  6
CONTINUOUS
 10
150.7544045603
 20
105.4131640642
 11
150.5877380526
 21
105.6684832125
  0
LINE
  5
411
100
AcDbEntity
  8
0
100
AcDbLine
 62
7
  6
CONTINUOUS
 10
151.7544047987
 20
106.6046534925
 11
151.6710713064
 21
106.7748662382
  0
LINE
  5
412
100
AcDbEntity
  8
0
100
AcDbLine
 62
7
  6
CONTINUOUS
 10
150.0003993064
 20
110.2064645431
 11
150.5635633064
 21
108.7047455431
  0
LINE
  5
413
100
AcDbEntity
  8
0
100
AcDbLine
 62
7
  6
CONTINUOUS
 10
150.5998483064
 20
109.7276845431
 11
150.1248623064
 21
111.0045355431
  0
LINE
  5
414
100
AcDbEntity
  8
0
100
AcDbLine
 62
7
  6
CONTINUOUS
 10
151.7960713064
 20
106.476993814
 11
151.7544047987
 21
106.6046534925
  0
LINE
  5
415
100
AcDbEntity
  8
0
100
AcDbLine
 62
7
  6
CONTINUOUS
 10
153.1063813064
 20
109.1638655431
 11
153.2307413064
 21
108.7047455431
  0
LINE
  5
416
100
AcDbEntity
  8
0
100
AcDbLine
 62
7
  6
CONTINUOUS
 10
152.7898503064
 20
110.3726115431
 11
153.0104423064
 21
109.5191305431
  0
LWPOLYLINE
  5
417
100
AcDbEntity
  8
RACCORDO
100
AcDbPolyline
 62
7
  6
CONTINUOUS
 90
13
 70
0
 10
158.3210713064
 20
71.3227004669
 10
158.3232091367
 20
71.2900728083
 10
158.3295868571
 20
71.2580038355
 10
158.3400955836
 20
71.2270419337
 10
158.354555885
 20
71.1977163626
 10
158.372720619
 20
71.1705291053
 10
158.3942788411
 20
71.1459460778
 10
158.4188618686
 20
71.1243878556
 10
158.446049126
 20
71.1062231217
 10
158.4753746971
 20
71.0917628203
 10
158.5063365988
 20
71.0812540938
 10
158.5384055717
 20
71.0748763733
 10
158.5710332302
 20
71.0727385431
  0
LWPOLYLINE
  5
418
100
AcDbEntity
  8
RACCORDO
100
AcDbPolyline
 62
7
  6
CONTINUOUS
 90
28
 70
0
 10
158.2250757607
 20
76.626703106
 10
158.2230026317
 20
76.661909596
 10
158.2173477392
 20
76.6957940506
 10
158.2081110832
 20
76.7283564698
 10
158.1950077418
 20
76.7600650899
 10
158.1783226369
 20
76.7904516747
 10
158.1589105343
 20
76.8181115156
 10
158.1368106387
 20
76.8427827617
 10
158.1119837454
 20
76.8647272639
 10
158.085167007
 20
76.8833258669
 10
158.0560562958
 20
76.8985557666
 10
158.0249557395
 20
76.9104397671
 10
157.9935148734
 20
76.9184271247
 10
157.9620636075
 20
76.9223380968
 10
157.9302720317
 20
76.922352426
 10
157.8987999509
 20
76.9184585964
 10
157.8672945132
 20
76.9104528666
 10
157.8361085704
 20
76.898538978
 10
157.806960483
 20
76.883316638
 10
157.7801975577
 20
76.864774975
 10
157.7554724879
 20
76.8429248606
 10
157.7334617145
 20
76.8183986173
 10
157.7141197298
 20
76.7910219819
 10
157.6974920416
 20
76.7609692177
 10
157.6843916133
 20
76.7293954368
 10
157.6750894329
 20
76.6966856766
 10
157.6693145125
 20
76.6624548996
 10
157.6670668521
 20
76.626703106
  0
LINE
  5
419
100
AcDbEntity
  8
RACCORDO
100
AcDbLine
 62
253
  6
CONTINUOUS
 10
157.5441372161
 20
86.1388805661
 11
157.5474935323
 21
86.0492064613
  0
LINE
  5
41A
100
AcDbEntity
  8
RACCORDO
100
AcDbLine
 62
253
  6
CONTINUOUS
 10
158.3210713064
 20
72.1639327156
 11
158.3342387633
 21
71.7284009758
  0
LINE
  5
41B
100
AcDbEntity
  8
RACCORDO
100
AcDbLine
 62
253
  6
CONTINUOUS
 10
158.5689275053
 20
72.4500888123
 11
158.5842006871
 21
71.9449073267
  0
LINE
  5
41C
100
AcDbEntity
  8
RACCORDO
100
AcDbLine
 62
253
  6
CONTINUOUS
 10
157.6670668521
 20
76.626703106
 11
157.5606142961
 21
80.953554094
  0
LINE
  5
41D
100
AcDbEntity
  8
0
100
AcDbLine
 62
7
  6
CONTINUOUS
 10
156.7190593064
 20
88.5727385431
 11
156.7190593064
 21
88.7404215431
  0
LINE
  5
41E
100
AcDbEntity
  8
0
100
AcDbLine
 62
7
  6
CONTINUOUS
 10
157.3117803064
 20
89.1362485431
 11
157.3117803064
 21
88.5727385431
  0
LINE
  5
41F
100
AcDbEntity
  8
RACCORDO
100
AcDbLine
 62
253
  6
CONTINUOUS
 10
157.3475011477
 20
115.5974306265
 11
157.3475011477
 21
105.0962706249
  0
LINE
  5
420
100
AcDbEntity
  8
RACCORDO
100
AcDbLine
 62
253
  6
CONTINUOUS
 10
157.3475011477
 20
86.0492064613
 11
157.3475011477
 21
75.5480464597
  0
LINE
  5
421
100
AcDbEntity
  8
0
100
AcDbLine
 62
7
  6
CONTINUOUS
 10
157.5008623064
 20
88.5727385431
 11
157.5008623064
 21
89.1362485431
  0
LINE
  5
422
100
AcDbEntity
  8
RACCORDO
100
AcDbLine
 62
7
  6
CONTINUOUS
 10
157.5474935323
 20
115.599160769
 11
157.5474935323
 21
105.0962706249
  0
LINE
  5
423
100
AcDbEntity
  8
RACCORDO
100
AcDbLine
 62
7
  6
CONTINUOUS
 10
157.5474935323
 20
86.0492064613
 11
157.5474935323
 21
75.5463163172
  0
LINE
  5
424
100
AcDbEntity
  8
RACCORDO
100
AcDbLine
 62
7
  6
CONTINUOUS
 10
157.5606142961
 20
110.1919229922
 11
157.5606142961
 21
105.0831498611
  0
LINE
  5
425
100
AcDbEntity
  8
RACCORDO
100
AcDbLine
 62
7
  6
CONTINUOUS
 10
157.5606142961
 20
86.0623272251
 11
157.5606142961
 21
80.953554094
  0
LINE
  5
426
100
AcDbEntity
  8
RACCORDO
100
AcDbLine
 62
7
  6
CONTINUOUS
 10
157.6670668521
 20
115.7187340888
 11
157.6670668521
 21
114.5187739802
  0
LINE
  5
427
100
AcDbEntity
  8
RACCORDO
100
AcDbLine
 62
7
  6
CONTINUOUS
 10
157.6670668521
 20
76.626703106
 11
157.6670668521
 21
75.4267429974
  0
LINE
  5
428
100
AcDbEntity
  8
RACCORDO
100
AcDbLine
 62
253
  6
CONTINUOUS
 10
157.7606066808
 20
109.9058098725
 11
157.7606066808
 21
105.0831498611
  0
LINE
  5
429
100
AcDbEntity
  8
RACCORDO
100
AcDbLine
 62
253
  6
CONTINUOUS
 10
157.7606066808
 20
86.0623272251
 11
157.7606066808
 21
81.2396672137
  0
LINE
  5
42A
100
AcDbEntity
  8
RACCORDO
100
AcDbLine
 62
7
  6
CONTINUOUS
 10
158.2250757607
 20
74.5767429974
 11
158.2250757607
 21
76.626703106
  0
LINE
  5
42B
100
AcDbEntity
  8
RACCORDO
100
AcDbLine
 62
7
  6
CONTINUOUS
 10
158.2250757607
 20
114.5187739802
 11
158.2250757607
 21
116.5687340888
  0
LINE
  5
42C
100
AcDbEntity
  8
RACCORDO
100
AcDbLine
 62
7
  6
CONTINUOUS
 10
158.3210713064
 20
71.3227004669
 11
158.3210713064
 21
72.9727690041
  0
LINE
  5
42D
100
AcDbEntity
  8
RACCORDO
100
AcDbLine
 62
7
  6
CONTINUOUS
 10
158.3210713064
 20
118.1727080821
 11
158.3210713064
 21
119.8227766193
  0
LINE
  5
42E
100
AcDbEntity
  8
RACCORDO
100
AcDbLine
 62
7
  6
CONTINUOUS
 10
158.3297981742
 20
116.4640116753
 11
158.3297981742
 21
110.2622460454
  0
LINE
  5
42F
100
AcDbEntity
  8
RACCORDO
100
AcDbLine
 62
7
  6
CONTINUOUS
 10
158.3297981742
 20
80.8832310408
 11
158.3297981742
 21
74.6814654109
  0
LINE
  5
430
100
AcDbEntity
  8
RACCORDO
100
AcDbLine
 62
253
  6
CONTINUOUS
 10
158.3342387633
 20
119.8096091624
 11
158.3342387633
 21
119.4170761104
  0
LINE
  5
431
100
AcDbEntity
  8
RACCORDO
100
AcDbLine
 62
253
  6
CONTINUOUS
 10
158.3342387633
 20
71.7284009758
 11
158.3342387633
 21
71.3358679238
  0
LINE
  5
432
100
AcDbEntity
  8
RACCORDO
100
AcDbLine
 62
253
  6
CONTINUOUS
 10
157.5606142961
 20
110.1919229922
 11
157.6670668521
 21
114.5187739802
  0
LINE
  5
433
100
AcDbEntity
  8
RACCORDO
100
AcDbLine
 62
253
  6
CONTINUOUS
 10
158.3342387633
 20
119.4170761104
 11
158.3210713064
 21
118.9815443706
  0
LINE
  5
434
100
AcDbEntity
  8
RACCORDO
100
AcDbLine
 62
253
  6
CONTINUOUS
 10
158.5842006871
 20
119.2005697594
 11
158.5689275053
 21
118.6953882739
  0
LWPOLYLINE
  5
435
100
AcDbEntity
  8
RACCORDO
100
AcDbPolyline
 62
253
  6
CONTINUOUS
 90
22
 70
0
 10
157.5606142961
 20
105.0831498611
 10
157.5572636219
 20
104.9935193773
 10
157.5472237141
 20
104.9043628122
 10
157.5305445581
 20
104.8161791738
 10
157.5073076934
 20
104.7294442766
 10
157.4776401049
 20
104.6446644896
 10
157.4417272792
 20
104.5623692063
 10
157.3997901806
 20
104.4830401083
 10
157.3520593449
 20
104.407092116
 10
157.2987922803
 20
104.3349273161
 10
157.2402848882
 20
104.2669449741
 10
157.1768674839
 20
104.2035273818
 10
157.1088864188
 20
104.1450206682
 10
157.0367243121
 20
104.091754991
 10
156.9607804503
 20
104.0440258541
 10
156.8814565644
 20
104.0020902406
 10
156.7991697536
 20
103.9661793209
 10
156.7143996303
 20
103.9365126617
 10
156.627668198
 20
103.9132738541
 10
156.5394789243
 20
103.8965909401
 10
156.450309836
 20
103.8865476781
 10
156.3606599885
 20
103.8831955534
  0
LWPOLYLINE
  5
436
100
AcDbEntity
  8
RACCORDO
100
AcDbPolyline
 62
253
  6
CONTINUOUS
 90
21
 70
0
 10
157.5474935323
 20
105.0962706249
 10
157.544137011
 20
105.0065937831
 10
157.5340887484
 20
104.9174215024
 10
157.5174055443
 20
104.8292523323
 10
157.494182291
 20
104.7425823212
 10
157.4645488969
 20
104.6578925641
 10
157.428667188
 20
104.5756473218
 10
157.3867317287
 20
104.4962992381
 10
157.3389789639
 20
104.420301372
 10
157.2856853827
 20
104.3480932917
 10
157.2271591102
 20
104.2800864796
 10
157.1637221678
 20
104.216649624
 10
157.095715653
 20
104.1581237453
 10
157.0235088134
 20
104.104831115
 10
156.9475127356
 20
104.0570793479
 10
156.868165397
 20
104.0151440441
 10
156.7859183356
 20
103.9792613655
 10
156.7012253852
 20
103.949626898
 10
156.6145533216
 20
103.9264033479
 10
156.5263842146
 20
103.9097204783
 10
156.4372133294
 20
103.8996726334
  0
LWPOLYLINE
  5
437
100
AcDbEntity
  8
RACCORDO
100
AcDbPolyline
 62
253
  6
CONTINUOUS
 90
22
 70
0
 10
157.7606066808
 20
105.0831498611
 10
157.7566356666
 20
104.978165744
 10
157.7450248341
 20
104.8747102911
 10
157.7257741833
 20
104.7727835024
 10
157.6986857898
 20
104.6717574743
 10
157.6639575781
 20
104.5722601105
 10
157.6221833213
 20
104.4761751214
 10
157.5732488024
 20
104.3836391314
 10
157.5172682385
 20
104.2945155161
 10
157.4551780534
 20
104.2102781136
 10
157.3868760512
 20
104.1310068839
 10
157.3124644279
 20
104.0566218668
 10
157.2331861952
 20
103.9883570206
 10
157.1489698795
 20
103.9263179601
 10
157.0598869545
 20
103.8703990705
 10
156.9673948533
 20
103.8215174644
 10
156.8713536252
 20
103.779780396
 10
156.771903221
 20
103.7450806112
 10
156.6709209267
 20
103.7180134609
 10
156.5690325041
 20
103.6987773956
 10
156.4656121914
 20
103.6871739649
 10
156.3606599885
 20
103.6832031688
  0
LWPOLYLINE
  5
438
100
AcDbEntity
  8
RACCORDO
100
AcDbPolyline
 62
253
  6
CONTINUOUS
 90
22
 70
0
 10
157.3475011477
 20
105.0962706249
 10
157.34465229
 20
105.0212422277
 10
157.3363552749
 20
104.9473297152
 10
157.3226101021
 20
104.8745330873
 10
157.3032822663
 20
104.8024215677
 10
157.2785062729
 20
104.7314259328
 10
157.2486856389
 20
104.662838511
 10
157.2137285885
 20
104.5967278669
 10
157.1737268974
 20
104.533025436
 10
157.1293594097
 20
104.4728178531
 10
157.0805576408
 20
104.4161746008
 10
157.0273900754
 20
104.3630261966
 10
156.9707410114
 20
104.3142508282
 10
156.910547334
 20
104.2699194783
 10
156.8468721581
 20
104.2299611641
 10
156.7807891267
 20
104.1950411249
 10
156.712224048
 20
104.1652457901
 10
156.6412511138
 20
104.1404887303
 10
156.5691665426
 20
104.1211758965
 10
156.496402407
 20
104.1074426056
 10
156.4225266344
 20
104.0991535407
 10
156.3475392247
 20
104.0963087018
  0
LWPOLYLINE
  5
439
100
AcDbEntity
  8
RACCORDO
100
AcDbPolyline
 62
7
  6
CONTINUOUS
 90
22
 70
0
 10
158.3297981742
 20
110.2622460454
 10
158.3274436966
 20
110.2178683592
 10
158.3208548281
 20
110.1748714429
 10
158.3100315688
 20
110.1332552964
 10
158.2946877338
 20
110.092482921
 10
158.2751095081
 20
110.0530913153
 10
158.2521554453
 20
110.0166914759
 10
158.2258047365
 20
109.9835593133
 10
158.1960781907
 20
109.9534189169
 10
158.1638967895
 20
109.9270535517
 10
158.1287302693
 20
109.9045243084
 10
158.0911088937
 20
109.8857700962
 10
158.0535444348
 20
109.8713909078
 10
158.0164695973
 20
109.8619128514
 10
157.9794516766
 20
109.8568098187
 10
157.94370433
 20
109.8551034778
 10
157.9095477748
 20
109.8567799186
 10
157.8766617938
 20
109.8618530512
 10
157.8452993933
 20
109.869386273
 10
157.8155449086
 20
109.8790673835
 10
157.7873140045
 20
109.8912085833
 10
157.7606066808
 20
109.9058098725
  0
LWPOLYLINE
  5
43A
100
AcDbEntity
  8
RACCORDO
100
AcDbPolyline
 62
7
  6
CONTINUOUS
 90
13
 70
0
 10
158.3210713064
 20
119.8227766193
 10
158.3232091367
 20
119.8554042779
 10
158.3295868571
 20
119.8874732507
 10
158.3400955836
 20
119.9184351525
 10
158.354555885
 20
119.9477607236
 10
158.372720619
 20
119.9749479809
 10
158.3942788411
 20
119.9995310084
 10
158.4188618686
 20
120.0210892306
 10
158.446049126
 20
120.0392539645
 10
158.4753746971
 20
120.0537142659
 10
158.5063365988
 20
120.0642229924
 10
158.5384055717
 20
120.0706007129
 10
158.5710332302
 20
120.0727385431
  0
LINE
  5
43B
100
AcDbEntity
  8
0
100
AcDbLine
 62
7
  6
CONTINUOUS
 10
154.5935613064
 20
88.5727385431
 11
154.7398333064
 21
88.9802275431
  0
LINE
  5
43C
100
AcDbEntity
  8
0
100
AcDbLine
 62
7
  6
CONTINUOUS
 10
154.7983363064
 20
89.1479105431
 11
155.0245783064
 21
89.7696705431
  0
LINE
  5
43D
100
AcDbEntity
  8
RACCORDO
100
AcDbLine
 62
7
  6
CONTINUOUS
 10
146.6210713064
 20
73.1727385431
 11
146.6870625231
 21
73.3047310287
  0
LINE
  5
43E
100
AcDbEntity
  8
ASSI
100
AcDbLine
 62
7
  6
CONTINUOUS
 10
149.3800033064
 20
81.0437205431
 11
149.5974313064
 21
81.3519585431
  0
LINE
  5
43F
100
AcDbEntity
  8
ASSI
100
AcDbLine
 62
7
  6
CONTINUOUS
 10
149.2648506945
 20
85.6663128701
 11
148.0957753064
 21
84.6811255431
  0
LINE
  5
440
100
AcDbEntity
  8
ASSI
100
AcDbLine
 62
7
  6
CONTINUOUS
 10
148.0957753064
 20
84.1694295431
 11
149.2106072041
 21
85.1089054569
  0
LWPOLYLINE
  5
441
100
AcDbEntity
  8
0
100
AcDbPolyline
 62
7
  6
CONTINUOUS
 90
13
 70
0
 10
149.161059496
 20
102.7190581791
 10
149.0801486499
 20
102.7158084895
 10
149.002779256
 20
102.7079792479
 10
148.9289513144
 20
102.6955704542
 10
148.8588423867
 20
102.6784452615
 10
148.7922749113
 20
102.6567405168
 10
148.728716203
 20
102.6308667604
 10
148.6678301924
 20
102.6007018726
 10
148.609952949
 20
102.5663679733
 10
148.5555599949
 20
102.5286419621
 10
148.5048098378
 20
102.4877828059
 10
148.4575439701
 20
102.4435315379
 10
148.4137623919
 20
102.3958881582
  0
LINE
  5
442
100
AcDbEntity
  8
0
100
AcDbLine
 62
7
  6
CONTINUOUS
 10
143.9459853064
 20
101.4836745431
 11
144.9795433064
 21
101.4836815431
  0
LINE
  5
443
100
AcDbEntity
  8
0
100
AcDbLine
 62
7
  6
CONTINUOUS
 10
144.9795433064
 20
101.8168785431
 11
143.9459853064
 21
101.8168855431
  0
LINE
  5
444
100
AcDbEntity
  8
0
100
AcDbLine
 62
7
  6
CONTINUOUS
 10
143.9459853064
 20
102.3388955431
 11
145.0547723064
 21
102.3388915431
  0
LINE
  5
445
100
AcDbEntity
  8
0
100
AcDbLine
 62
7
  6
CONTINUOUS
 10
152.2349063064
 20
102.6720815431
 11
151.8739763064
 21
102.6720815431
  0
LINE
  5
446
100
AcDbEntity
  8
0
100
AcDbLine
 62
7
  6
CONTINUOUS
 10
150.9058693064
 20
102.6720815431
 11
150.5395363064
 21
102.6720815431
  0
LINE
  5
447
100
AcDbEntity
  8
0
100
AcDbLine
 62
7
  6
CONTINUOUS
 10
148.1432473064
 20
102.6720815431
 11
147.6405403064
 21
102.6720815431
  0
LINE
  5
448
100
AcDbEntity
  8
0
100
AcDbLine
 62
7
  6
CONTINUOUS
 10
146.7098413064
 20
102.6720815431
 11
146.3349223064
 21
102.6720815431
  0
LINE
  5
449
100
AcDbEntity
  8
0
100
AcDbLine
 62
7
  6
CONTINUOUS
 10
145.8890463064
 20
102.6720815431
 11
145.5141113064
 21
102.6720815431
  0
LINE
  5
44A
100
AcDbEntity
  8
0
100
AcDbLine
 62
7
  6
CONTINUOUS
 10
145.0547723064
 20
102.6720815431
 11
143.5710713064
 21
102.6720815431
  0
LWPOLYLINE
  5
44B
100
AcDbEntity
  8
0
100
AcDbPolyline
 62
7
  6
CONTINUOUS
 90
10
 70
0
 10
149.162037396
 20
102.3862832541
 10
149.220727298
 20
102.3829096761
 10
149.2774781793
 20
102.3749261411
 10
149.33229004
 20
102.3623326491
 10
149.3860495084
 20
102.3445022421
 10
149.437869956
 20
102.322061878
 10
149.4850914984
 20
102.2968924307
 10
149.5268275071
 20
102.2696208579
 10
149.5639646105
 20
102.2396202018
 10
149.5965028085
 20
102.2068904624
  0
LINE
  5
44C
100
AcDbEntity
  8
0
100
AcDbLine
 62
7
  6
CONTINUOUS
 10
150.5044045603
 20
105.3706108778
 11
150.6294045603
 21
105.2429513037
  0
LINE
  5
44D
100
AcDbEntity
  8
0
100
AcDbLine
 62
7
  6
CONTINUOUS
 10
149.1294046795
 20
106.7748662382
 11
148.9627379334
 21
106.9450789838
  0
LINE
  5
44E
100
AcDbEntity
  8
0
100
AcDbLine
 62
7
  6
CONTINUOUS
 10
151.4210713064
 20
106.7323130518
 11
151.5877380526
 21
106.476993814
  0
LINE
  5
44F
100
AcDbEntity
  8
RACCORDO
100
AcDbLine
 62
7
  6
CONTINUOUS
 10
146.6870625231
 20
117.8407460575
 11
146.6210713064
 21
117.9727385431
  0
LWPOLYLINE
  5
450
100
AcDbEntity
  8
ASSI
100
AcDbPolyline
 62
7
  6
CONTINUOUS
 90
7
 70
0
 10
146.6865608925
 20
119.507248957
 10
146.6866447256
 20
119.5070715073
 10
146.6867284675
 20
119.5067111231
 10
146.6868121182
 20
119.5061678043
 10
146.6868956777
 20
119.5054415511
 10
146.686979146
 20
119.5045323633
 10
146.6870625231
 20
119.503440241
  0
LINE
  5
451
100
AcDbEntity
  8
0
100
AcDbLine
 62
7
  6
CONTINUOUS
 10
153.7367013064
 20
108.7047455431
 11
153.0310683064
 21
111.0045355431
  0
LWPOLYLINE
  5
452
100
AcDbEntity
  8
RACCORDO
100
AcDbPolyline
 62
7
  6
CONTINUOUS
 90
13
 70
0
 10
157.5606142961
 20
110.1919229922
 10
157.5628612729
 20
110.1599428879
 10
157.5689143223
 20
110.1293524641
 10
157.5784446693
 20
110.1001517206
 10
157.5910363015
 20
110.0722691288
 10
157.6063029409
 20
110.0457762175
 10
157.6239804719
 20
110.0208875725
 10
157.6437105447
 20
109.9976697075
 10
157.6650814154
 20
109.976056109
 10
157.6878261306
 20
109.9560618217
 10
157.7116084598
 20
109.9376918607
 10
157.7359974042
 20
109.920941211
 10
157.7606066808
 20
109.9058098725
  0
LWPOLYLINE
  5
453
100
AcDbEntity
  8
RACCORDO
100
AcDbPolyline
 62
253
  6
CONTINUOUS
 90
16
 70
0
 10
161.2079038495
 20
71.7284009758
 10
161.2063161638
 20
71.7509594474
 10
161.2020262922
 20
71.7732669988
 10
161.1950828569
 20
71.7950811968
 10
161.1855654323
 20
71.8161611199
 10
161.1735781322
 20
71.8362827869
 10
161.159243573
 20
71.8552394874
 10
161.1427043426
 20
71.8728341414
 10
161.1241463415
 20
71.8888615943
 10
161.1037958645
 20
71.9031289616
 10
161.081881088
 20
71.9154846364
 10
161.0586417149
 20
71.9258012248
 10
161.0343556163
 20
71.9339658722
 10
161.0092980156
 20
71.9399006653
 10
160.9837347451
 20
71.9435567497
 10
160.9579419257
 20
71.9449073267
  0
LWPOLYLINE
  5
454
100
AcDbEntity
  8
RACCORDO
100
AcDbPolyline
 62
7
  6
CONTINUOUS
 90
28
 70
0
 10
157.6670668521
 20
114.5187739802
 10
157.6691510911
 20
114.4835191346
 10
157.6748185195
 20
114.4495983221
 10
157.6840691371
 20
114.4170115425
 10
157.6971906333
 20
114.3852921688
 10
157.7138953189
 20
114.3549068281
 10
157.7333201261
 20
114.3272554019
 10
157.75542263
 20
114.3026012465
 10
157.7802452556
 20
114.2806810056
 10
157.8070522097
 20
114.2621044915
 10
157.8361453335
 20
114.2468923337
 10
157.8672227858
 20
114.2350239025
 10
157.8986432492
 20
114.2270471223
 10
157.9300814809
 20
114.2231408878
 10
157.9618627237
 20
114.2231263042
 10
157.9933213891
 20
114.2270146104
 10
158.0248051474
 20
114.2350081354
 10
158.0559663284
 20
114.2469045503
 10
158.0850963325
 20
114.2621081072
 10
158.1118511497
 20
114.2806279478
 10
158.1365747901
 20
114.3024549304
 10
158.1585906853
 20
114.3269658825
 10
158.1779471832
 20
114.3543373253
 10
158.1945959359
 20
114.3843927375
 10
158.2077153312
 20
114.4159793827
 10
158.2170314985
 20
114.4487130155
 10
158.2228183083
 20
114.4829778813
 10
158.2250757607
 20
114.5187739802
  0
LINE
  5
455
100
AcDbEntity
  8
RACCORDO
100
AcDbLine
 62
253
  6
CONTINUOUS
 10
158.2250757607
 20
114.5187739802
 11
158.3297981742
 21
110.2622460454
  0
LINE
  5
456
100
AcDbEntity
  8
RACCORDO
100
AcDbLine
 62
253
  6
CONTINUOUS
 10
159.2294442031
 20
74.2958179251
 11
159.2301676826
 21
74.0818349193
  0
LINE
  5
457
100
AcDbEntity
  8
RACCORDO
100
AcDbLine
 62
253
  6
CONTINUOUS
 10
158.7294723164
 20
74.2135595667
 11
158.7310649395
 21
73.5827150805
  0
LINE
  5
458
100
AcDbEntity
  8
RACCORDO
100
AcDbLine
 62
253
  6
CONTINUOUS
 10
159.229401117
 20
74.3648965853
 11
159.2294442031
 21
74.2958179251
  0
LINE
  5
459
100
AcDbEntity
  8
RACCORDO
100
AcDbLine
 62
253
  6
CONTINUOUS
 10
158.5842006871
 20
120.0595710862
 11
158.5842006871
 21
119.2005697594
  0
LINE
  5
45A
100
AcDbEntity
  8
RACCORDO
100
AcDbLine
 62
253
  6
CONTINUOUS
 10
158.5842006871
 20
71.9449073267
 11
158.5842006871
 21
71.085906
  0
LINE
  5
45B
100
AcDbEntity
  8
RACCORDO
100
AcDbLine
 62
253
  6
CONTINUOUS
 10
158.7294201554
 20
74.5767429974
 11
158.7294723164
 21
74.2135595667
  0
LINE
  5
45C
100
AcDbEntity
  8
RACCORDO
100
AcDbLine
 62
7
  6
CONTINUOUS
 10
159.229401117
 20
74.5810683536
 11
159.229401117
 21
74.3648965853
  0
LINE
  5
45D
100
AcDbEntity
  8
RACCORDO
100
AcDbLine
 62
7
  6
CONTINUOUS
 10
159.229401117
 20
116.5644087326
 11
159.229401117
 21
116.7805805008
  0
LINE
  5
45E
100
AcDbEntity
  8
DRAFT
100
AcDbLine
 62
7
  6
CONTINUOUS
 10
159.3210713064
 20
74.1727385431
 11
159.3210713064
 21
74.6727385431
  0
LINE
  5
45F
100
AcDbEntity
  8
DRAFT
100
AcDbLine
 62
7
  6
CONTINUOUS
 10
159.3210713064
 20
116.4727385431
 11
159.3210713064
 21
116.9727385431
  0
LINE
  5
460
100
AcDbEntity
  8
RACCORDO
100
AcDbLine
 62
253
  6
CONTINUOUS
 10
159.229401117
 20
116.7805805008
 11
159.2298728328
 21
117.0066876822
  0
LWPOLYLINE
  5
461
100
AcDbEntity
  8
RACCORDO
100
AcDbPolyline
 62
253
  6
CONTINUOUS
 90
3
 70
0
 10
158.7294201554
 20
116.5687340888
 10
158.7308076454
 20
117.5120760881
 10
158.7310648058
 20
117.562734825
  0
LINE
  5
462
100
AcDbEntity
  8
RACCORDO
100
AcDbLine
 62
253
  6
CONTINUOUS
 10
159.2298728328
 20
117.0066876822
 11
159.2301676826
 21
117.0636421669
  0
LINE
  5
463
100
AcDbEntity
  8
RACCORDO
100
AcDbLine
 62
253
  6
CONTINUOUS
 10
158.2250757607
 20
76.626703106
 11
158.3297981742
 21
80.8832310408
  0
LWPOLYLINE
  5
464
100
AcDbEntity
  8
RACCORDO
100
AcDbPolyline
 62
253
  6
CONTINUOUS
 90
16
 70
0
 10
161.2079038495
 20
119.4170761104
 10
161.2063161638
 20
119.394517639
 10
161.2020262924
 20
119.3722100879
 10
161.1950828571
 20
119.35039589
 10
161.1855654327
 20
119.3293159671
 10
161.1735781327
 20
119.3091943001
 10
161.1592435737
 20
119.2902375997
 10
161.1427043437
 20
119.2726429458
 10
161.1241463431
 20
119.2566154931
 10
161.1037958664
 20
119.2423481257
 10
161.0818810898
 20
119.2299924507
 10
161.0586417165
 20
119.219675862
 10
161.0343556176
 20
119.2115112144
 10
161.0092980166
 20
119.2055764211
 10
160.9837347456
 20
119.2019203365
 10
160.9579419257
 20
119.2005697594
  0
LINE
  5
465
100
AcDbEntity
  8
0
100
AcDbLine
 62
7
  6
CONTINUOUS
 10
157.8070173064
 20
89.9727385431
 11
157.4054153064
 21
89.2999685431
  0
LINE
  5
466
100
AcDbEntity
  8
0
100
AcDbLine
 62
7
  6
CONTINUOUS
 10
157.5008623064
 20
89.1362485431
 11
158.0293863064
 21
89.9727385431
  0
LINE
  5
467
100
AcDbEntity
  8
RACCORDO
100
AcDbLine
 62
253
  6
CONTINUOUS
 10
139.9210713064
 20
73.6726623907
 11
139.9385263714
 21
73.6901174556
  0
LINE
  5
468
100
AcDbEntity
  8
RACCORDO
100
AcDbLine
 62
253
  6
CONTINUOUS
 10
140.420995154
 20
73.1727385431
 11
140.4384502189
 21
73.190193608
  0
LINE
  5
469
100
AcDbEntity
  8
RACCORDO
100
AcDbLine
 62
253
  6
CONTINUOUS
 10
156.4372133294
 20
103.8996726334
 11
156.3475392247
 21
103.8963163172
  0
LINE
  5
46A
100
AcDbEntity
  8
RACCORDO
100
AcDbLine
 62
253
  6
CONTINUOUS
 10
156.3606599885
 20
103.6832031688
 11
145.7814826244
 21
103.6832031688
  0
LINE
  5
46B
100
AcDbEntity
  8
RACCORDO
100
AcDbLine
 62
7
  6
CONTINUOUS
 10
156.3606599885
 20
103.8831955534
 11
145.7814826244
 21
103.8831955534
  0
LINE
  5
46C
100
AcDbEntity
  8
RACCORDO
100
AcDbLine
 62
7
  6
CONTINUOUS
 10
156.3475392247
 20
103.8963163172
 11
145.7946033882
 21
103.8963163172
  0
LINE
  5
46D
100
AcDbEntity
  8
RACCORDO
100
AcDbLine
 62
253
  6
CONTINUOUS
 10
156.3475392247
 20
104.0963087018
 11
145.7946033882
 21
104.0963087018
  0
LWPOLYLINE
  5
46E
100
AcDbEntity
  8
RACCORDO
100
AcDbPolyline
 62
253
  6
CONTINUOUS
 90
22
 70
0
 10
145.7814826244
 20
103.8831955534
 10
145.6918521406
 20
103.8865462276
 10
145.6026955756
 20
103.8965861354
 10
145.5145119372
 20
103.9132652915
 10
145.42777704
 20
103.9365021561
 10
145.3429972529
 20
103.9661697446
 10
145.2607019697
 20
104.0020825703
 10
145.1813728717
 20
104.0440196689
 10
145.1054248794
 20
104.0917505046
 10
145.0332600794
 20
104.1450175692
 10
144.9652777375
 20
104.2035249613
 10
144.9018601451
 20
104.2669423656
 10
144.8433534316
 20
104.3349234307
 10
144.7900877544
 20
104.4070855375
 10
144.7423586175
 20
104.4830293992
 10
144.700423004
 20
104.5623532852
 10
144.6645120842
 20
104.6446400959
 10
144.634845425
 20
104.7294102192
 10
144.6116066174
 20
104.8161416515
 10
144.5949237035
 20
104.9043309252
 10
144.5848804415
 20
104.9935000135
 10
144.5815283167
 20
105.0831498611
  0
LWPOLYLINE
  5
46F
100
AcDbEntity
  8
RACCORDO
100
AcDbPolyline
 62
253
  6
CONTINUOUS
 90
21
 70
0
 10
145.7946033882
 20
103.8963163172
 10
145.7049265464
 20
103.8996728385
 10
145.6157542658
 20
103.9097211011
 10
145.5275850956
 20
103.9264043052
 10
145.4409150845
 20
103.9496275585
 10
145.3562253274
 20
103.9792609526
 10
145.2739800852
 20
104.0151426615
 10
145.1946320014
 20
104.0570781208
 10
145.1186341353
 20
104.1048308856
 10
145.046426055
 20
104.1581244668
 10
144.978419243
 20
104.2166507393
 10
144.9149823874
 20
104.2800876817
 10
144.8564565087
 20
104.3480941966
 10
144.8031638783
 20
104.4203010361
 10
144.7554121112
 20
104.4962971139
 10
144.7134768074
 20
104.5756444525
 10
144.6775941289
 20
104.6578915139
 10
144.6479596613
 20
104.7425844643
 10
144.6247361112
 20
104.8292565279
 10
144.6080532416
 20
104.9174256349
 10
144.5980053967
 20
105.0065965201
  0
LWPOLYLINE
  5
470
100
AcDbEntity
  8
RACCORDO
100
AcDbPolyline
 62
253
  6
CONTINUOUS
 90
22
 70
0
 10
145.7814826244
 20
103.6832031688
 10
145.6764985073
 20
103.687174183
 10
145.5730430544
 20
103.6987850155
 10
145.4711162657
 20
103.7180356662
 10
145.3700902377
 20
103.7451240597
 10
145.2705928738
 20
103.7798522714
 10
145.1745078847
 20
103.8216265283
 10
145.0819718947
 20
103.8705610471
 10
144.9928482795
 20
103.926541611
 10
144.908610877
 20
103.9886317961
 10
144.8293396472
 20
104.0569337983
 10
144.7549546302
 20
104.1313454217
 10
144.6866897839
 20
104.2106236543
 10
144.6246507235
 20
104.29483997
 10
144.5687318338
 20
104.3839228951
 10
144.5198502278
 20
104.4764149962
 10
144.4781131593
 20
104.5724562243
 10
144.4434133745
 20
104.6719066285
 10
144.4163462243
 20
104.7728889228
 10
144.397110159
 20
104.8747773454
 10
144.3855067282
 20
104.9781976581
 10
144.3815359321
 20
105.0831498611
  0
LWPOLYLINE
  5
471
100
AcDbEntity
  8
RACCORDO
100
AcDbPolyline
 62
253
  6
CONTINUOUS
 90
22
 70
0
 10
145.7946033882
 20
104.0963087018
 10
145.7195749911
 20
104.0991575595
 10
145.6456624786
 20
104.1074545747
 10
145.5728658506
 20
104.1211997474
 10
145.5007543311
 20
104.1405275832
 10
145.4297586961
 20
104.1653035766
 10
145.3611712743
 20
104.1951242106
 10
145.2950606302
 20
104.2300812611
 10
145.2313581993
 20
104.2700829521
 10
145.1711506165
 20
104.3144504398
 10
145.1145073641
 20
104.3632522087
 10
145.0613589599
 20
104.4164197742
 10
145.0125835915
 20
104.4730688381
 10
144.9682522416
 20
104.5332625155
 10
144.9282939274
 20
104.5969376914
 10
144.8933738882
 20
104.6630207228
 10
144.8635785535
 20
104.7315858015
 10
144.8388214937
 20
104.8025587357
 10
144.8195086598
 20
104.8746433069
 10
144.805775369
 20
104.9474074425
 10
144.7974863041
 20
105.0212832151
 10
144.7946414651
 20
105.0962706249
  0
LINE
  5
472
100
AcDbEntity
  8
0
100
AcDbLine
 62
7
  6
CONTINUOUS
 10
148.9627379334
 20
106.9450789838
 11
148.7960713064
 21
107.0301853567
  0
LINE
  5
473
100
AcDbEntity
  8
0
100
AcDbLine
 62
7
  6
CONTINUOUS
 10
150.6294045603
 20
105.2429513037
 11
150.8377380526
 21
105.1152917332
  0
LINE
  5
474
100
AcDbEntity
  8
0
100
AcDbLine
 62
7
  6
CONTINUOUS
 10
150.8794045603
 20
105.3280576914
 11
150.7544045603
 21
105.4131640642
  0
LINE
  5
475
100
AcDbEntity
  8
0
100
AcDbLine
 62
7
  6
CONTINUOUS
 10
148.7127379334
 20
106.8174194246
 11
148.8377379334
 21
106.7323130518
  0
LINE
  5
476
100
AcDbEntity
  8
RACCORDO
100
AcDbLine
 62
253
  6
CONTINUOUS
 10
139.9385263714
 20
117.4553596306
 11
139.9210713064
 21
117.4728146955
  0
LINE
  5
477
100
AcDbEntity
  8
RACCORDO
100
AcDbLine
 62
253
  6
CONTINUOUS
 10
140.4384502189
 20
117.9552834782
 11
140.420995154
 21
117.9727385431
  0
LINE
  5
478
100
AcDbEntity
  8
0
100
AcDbLine
 62
7
  6
CONTINUOUS
 10
151.6710713064
 20
106.7748662382
 11
151.5460713064
 21
106.9025257974
  0
LWPOLYLINE
  5
479
100
AcDbEntity
  8
0
100
AcDbPolyline
 62
7
  6
CONTINUOUS
 90
8
 70
0
 10
154.8810168198
 20
109.4021172748
 10
154.9055618106
 20
109.3301891607
 10
154.929540916
 20
109.2567769652
 10
154.9529541361
 20
109.1818806882
 10
154.9754539235
 20
109.1053740931
 10
154.9973878257
 20
109.0273834166
 10
155.0197984847
 20
108.9482873689
 10
155.0909336459
 20
108.7047457095
  0
LINE
  5
47A
100
AcDbEntity
  8
0
100
AcDbLine
 62
7
  6
CONTINUOUS
 10
155.4448448827
 20
109.1163128016
 11
155.3885802528
 21
109.3272011812
  0
LINE
  5
47B
100
AcDbEntity
  8
0
100
AcDbLine
 62
7
  6
CONTINUOUS
 10
155.5526920271
 20
108.7047457095
 11
155.4448448827
 21
109.1163128016
  0
LWPOLYLINE
  5
47C
100
AcDbEntity
  8
0
100
AcDbPolyline
 62
7
  6
CONTINUOUS
 90
16
 70
0
 10
155.3885802528
 20
109.3272011812
 10
155.3780408265
 20
109.3690693482
 10
155.3663821652
 20
109.4100824392
 10
155.3536042687
 20
109.4502404543
 10
155.3397749873
 20
109.4899239065
 10
155.3248264707
 20
109.5287522828
 10
155.3085551687
 20
109.5655840438
 10
155.2908060065
 20
109.6003285492
 10
155.2717340588
 20
109.6330764394
 10
155.2516009994
 20
109.6629580963
 10
155.2303893309
 20
109.6897596022
 10
155.2081165507
 20
109.7136948747
 10
155.1850968251
 20
109.7345360491
 10
155.161434876
 20
109.7522071703
 10
155.1370259816
 20
109.7667841933
 10
155.1118701416
 20
109.7782671181
  0
LINE
  5
47D
100
AcDbEntity
  8
RACCORDO
100
AcDbLine
 62
253
  6
CONTINUOUS
 10
160.9579419257
 20
119.2005697594
 11
160.9732151075
 21
118.6953882739
  0
LINE
  5
47E
100
AcDbEntity
  8
RACCORDO
100
AcDbLine
 62
253
  6
CONTINUOUS
 10
161.2079038495
 20
119.4170761104
 11
161.2210713064
 21
118.9815443706
  0
LINE
  5
47F
100
AcDbEntity
  8
SMUSSO
100
AcDbLine
 62
7
  6
CONTINUOUS
 10
160.9036162415
 20
75.3814920576
 11
160.9036162415
 21
115.7639850285
  0
LINE
  5
480
100
AcDbEntity
  8
SMUSSO
100
AcDbLine
 62
7
  6
CONTINUOUS
 10
160.9210713064
 20
75.3727651898
 11
160.9210713064
 21
115.7727118963
  0
LINE
  5
481
100
AcDbEntity
  8
RACCORDO
100
AcDbLine
 62
253
  6
CONTINUOUS
 10
160.9579419257
 20
120.0595710862
 11
160.9579419257
 21
119.2005697594
  0
LINE
  5
482
100
AcDbEntity
  8
RACCORDO
100
AcDbLine
 62
253
  6
CONTINUOUS
 10
160.9579419257
 20
71.9449073267
 11
160.9579419257
 21
71.085906
  0
LINE
  5
483
100
AcDbEntity
  8
RACCORDO
100
AcDbLine
 62
253
  6
CONTINUOUS
 10
161.2079038495
 20
119.8096091624
 11
161.2079038495
 21
119.4170761104
  0
LINE
  5
484
100
AcDbEntity
  8
RACCORDO
100
AcDbLine
 62
253
  6
CONTINUOUS
 10
161.2079038495
 20
71.7284009758
 11
161.2079038495
 21
71.3358679238
  0
LINE
  5
485
100
AcDbEntity
  8
RACCORDO
100
AcDbLine
 62
7
  6
CONTINUOUS
 10
161.2210713064
 20
119.8227766193
 11
161.2210713064
 21
118.1727080821
  0
LINE
  5
486
100
AcDbEntity
  8
RACCORDO
100
AcDbLine
 62
7
  6
CONTINUOUS
 10
161.2210713064
 20
72.9727690041
 11
161.2210713064
 21
71.3227004669
  0
LINE
  5
487
100
AcDbEntity
  8
RACCORDO
100
AcDbLine
 62
253
  6
CONTINUOUS
 10
160.9732151075
 20
72.4500888123
 11
160.9579419257
 21
71.9449073267
  0
LINE
  5
488
100
AcDbEntity
  8
RACCORDO
100
AcDbLine
 62
253
  6
CONTINUOUS
 10
161.2210713064
 20
72.1639327156
 11
161.2079038495
 21
71.7284009758
  0
LWPOLYLINE
  5
489
100
AcDbEntity
  8
ASSI
100
AcDbPolyline
 62
7
  6
CONTINUOUS
 90
10
 70
0
 10
154.5710713064
 20
71.6415829885
 10
154.5725500621
 20
71.6471359939
 10
154.5769971226
 20
71.6554376499
 10
154.5844134622
 20
71.6664879563
 10
154.5947697534
 20
71.6803061594
 10
154.6080302943
 20
71.6968730129
 10
154.6241758369
 20
71.7161307781
 10
154.6431421773
 20
71.7381286215
 10
154.6648429592
 20
71.7628173765
 10
154.6892309492
 20
71.7899918044
  0
LINE
  5
48A
100
AcDbEntity
  8
RACCORDO
100
AcDbLine
 62
7
  6
CONTINUOUS
 10
144.4750757607
 20
75.4267429974
 11
144.5946490805
 21
75.5463163172
  0
LINE
  5
48B
100
AcDbEntity
  8
RACCORDO
100
AcDbLine
 62
253
  6
CONTINUOUS
 10
156.3606599885
 20
87.2622815328
 11
156.3475392247
 21
87.249160769
  0
LINE
  5
48C
100
AcDbEntity
  8
RACCORDO
100
AcDbLine
 62
253
  6
CONTINUOUS
 10
140.9210713064
 20
71.3227004669
 11
140.9342387633
 21
71.3358679238
  0
LINE
  5
48D
100
AcDbEntity
  8
RACCORDO
100
AcDbLine
 62
253
  6
CONTINUOUS
 10
141.1710332302
 20
71.0727385431
 11
141.1842006871
 21
71.085906
  0
LINE
  5
48E
100
AcDbEntity
  8
0
100
AcDbLine
 62
7
  6
CONTINUOUS
 10
151.2960713064
 20
105.3280576914
 11
151.0877380526
 21
105.285504505
  0
LINE
  5
48F
100
AcDbEntity
  8
0
100
AcDbLine
 62
7
  6
CONTINUOUS
 10
151.0877380526
 20
105.0727385431
 11
151.3377380526
 21
105.1152917332
  0
LINE
  5
490
100
AcDbEntity
  8
0
100
AcDbLine
 62
7
  6
CONTINUOUS
 10
147.6710713064
 20
105.0727385431
 11
149.1710713064
 21
105.0727385431
  0
LINE
  5
491
100
AcDbEntity
  8
0
100
AcDbLine
 62
7
  6
CONTINUOUS
 10
149.7544045603
 20
105.0727385431
 11
150.0044045603
 21
105.0727385431
  0
LINE
  5
492
100
AcDbEntity
  8
0
100
AcDbLine
 62
7
  6
CONTINUOUS
 10
153.1710713064
 20
105.0727385431
 11
153.4210713064
 21
105.0727385431
  0
LINE
  5
493
100
AcDbEntity
  8
0
100
AcDbLine
 62
7
  6
CONTINUOUS
 10
154.4210713064
 20
105.0727385431
 11
154.6710713064
 21
105.0727385431
  0
LINE
  5
494
100
AcDbEntity
  8
RACCORDO
100
AcDbLine
 62
253
  6
CONTINUOUS
 10
157.7606066808
 20
105.0831498611
 11
157.5606142961
 21
105.0831498651
  0
LINE
  5
495
100
AcDbEntity
  8
RACCORDO
100
AcDbLine
 62
253
  6
CONTINUOUS
 10
144.3815359321
 20
105.0831498611
 11
144.5815283167
 21
105.0831498611
  0
LINE
  5
496
100
AcDbEntity
  8
RACCORDO
100
AcDbLine
 62
253
  6
CONTINUOUS
 10
144.7946414651
 20
105.0962706249
 11
144.5946490805
 21
105.0962706284
  0
LINE
  5
497
100
AcDbEntity
  8
RACCORDO
100
AcDbLine
 62
253
  6
CONTINUOUS
 10
157.3475011477
 20
105.0962706249
 11
157.5474935323
 21
105.0962706249
  0
LINE
  5
498
100
AcDbEntity
  8
0
100
AcDbLine
 62
7
  6
CONTINUOUS
 10
149.1710713064
 20
105.285504505
 11
148.0044046497
 21
105.285504505
  0
LINE
  5
499
100
AcDbEntity
  8
0
100
AcDbLine
 62
7
  6
CONTINUOUS
 10
152.1710713064
 20
105.6684832125
 11
153.1710713064
 21
105.6684832125
  0
LINE
  5
49A
100
AcDbEntity
  8
0
100
AcDbLine
 62
7
  6
CONTINUOUS
 10
153.4210713064
 20
105.6684832125
 11
153.8377378142
 21
105.6684832125
  0
LINE
  5
49B
100
AcDbEntity
  8
0
100
AcDbLine
 62
7
  6
CONTINUOUS
 10
153.8377378142
 20
105.9238023906
 11
153.4210713064
 21
105.9238023906
  0
LINE
  5
49C
100
AcDbEntity
  8
0
100
AcDbLine
 62
7
  6
CONTINUOUS
 10
153.1710713064
 20
105.9238023906
 11
152.4627378142
 21
105.9238023906
  0
LINE
  5
49D
100
AcDbEntity
  8
0
100
AcDbLine
 62
7
  6
CONTINUOUS
 10
150.8377380526
 20
105.1152917332
 11
151.0877380526
 21
105.0727385431
  0
LINE
  5
49E
100
AcDbEntity
  8
0
100
AcDbLine
 62
7
  6
CONTINUOUS
 10
148.7960713064
 20
107.0301853567
 11
148.5460713064
 21
107.0727385431
  0
LINE
  5
49F
100
AcDbEntity
  8
0
100
AcDbLine
 62
7
  6
CONTINUOUS
 10
151.0877380526
 20
105.285504505
 11
150.8794045603
 21
105.3280576914
  0
LINE
  5
4A0
100
AcDbEntity
  8
0
100
AcDbLine
 62
7
  6
CONTINUOUS
 10
148.5044046199
 20
106.859972611
 11
148.7127379334
 21
106.8174194246
  0
LINE
  5
4A1
100
AcDbEntity
  8
0
100
AcDbLine
 62
7
  6
CONTINUOUS
 10
151.5460713064
 20
106.9025257974
 11
151.3377380526
 21
107.0301853567
  0
LINE
  5
4A2
100
AcDbEntity
  8
0
100
AcDbLine
 62
7
  6
CONTINUOUS
 10
151.2960713064
 20
106.8174194246
 11
151.4210713064
 21
106.7323130518
  0
LINE
  5
4A3
100
AcDbEntity
  8
RACCORDO
100
AcDbLine
 62
7
  6
CONTINUOUS
 10
144.5946490805
 20
115.599160769
 11
144.4750757607
 21
115.7187340888
  0
LINE
  5
4A4
100
AcDbEntity
  8
RACCORDO
100
AcDbLine
 62
253
  6
CONTINUOUS
 10
156.3606599885
 20
103.8831955534
 11
156.3475392247
 21
103.8963163172
  0
LINE
  5
4A5
100
AcDbEntity
  8
RACCORDO
100
AcDbLine
 62
253
  6
CONTINUOUS
 10
140.9342387633
 20
119.8096091624
 11
140.9210713064
 21
119.8227766193
  0
LINE
  5
4A6
100
AcDbEntity
  8
RACCORDO
100
AcDbLine
 62
253
  6
CONTINUOUS
 10
141.1842006871
 20
120.0595710862
 11
141.1710332302
 21
120.0727385431
  0
LWPOLYLINE
  5
4A7
100
AcDbEntity
  8
RACCORDO
100
AcDbPolyline
 62
253
  6
CONTINUOUS
 90
16
 70
0
 10
161.2079038495
 20
119.8096091624
 10
161.2065132963
 20
119.8358629553
 10
161.2023745025
 20
119.8618193584
 10
161.1955354382
 20
119.8871917455
 10
161.1860802927
 20
119.9116859113
 10
161.1741121468
 20
119.9350479143
 10
161.1597369778
 20
119.9570594744
 10
161.1430649725
 20
119.977512367
 10
161.1243005566
 20
119.9961215424
 10
161.1037444987
 20
120.0125981862
 10
161.0816623389
 20
120.026767759
 10
161.0582933516
 20
120.0385121146
 10
161.0339533696
 20
120.0477103986
 10
161.0089373772
 20
120.0542984061
 10
160.9835082846
 20
120.0582523851
 10
160.9579419257
 20
120.0595710862
  0
LWPOLYLINE
  5
4A8
100
AcDbEntity
  8
RACCORDO
100
AcDbPolyline
 62
7
  6
CONTINUOUS
 90
16
 70
0
 10
162.2210713064
 20
117.4728146955
 10
162.218372482
 20
117.5247005094
 10
162.2102599402
 20
117.5762345776
 10
162.1967559352
 20
117.6268457122
 10
162.1778641267
 20
117.6761405194
 10
162.1537723711
 20
117.7233534352
 10
162.1250375937
 20
117.767447725
 10
162.0923747764
 20
117.8076685659
 10
162.0560013292
 20
117.8440420131
 10
162.0157804883
 20
117.8767048304
 10
161.9716861986
 20
117.9054396078
 10
161.9244732827
 20
117.9295313634
 10
161.8751784755
 20
117.9484231718
 10
161.8245673409
 20
117.9619271769
 10
161.7730332727
 20
117.9700397186
 10
161.7211474589
 20
117.9727385431
  0
LINE
  5
4A9
100
AcDbEntity
  8
RACCORDO
100
AcDbLine
 62
7
  6
CONTINUOUS
 10
162.2036162415
 20
117.4553596306
 11
162.2036162415
 21
113.3235469942
  0
LINE
  5
4AA
100
AcDbEntity
  8
ASSI
100
AcDbLine
 62
7
  6
CONTINUOUS
 10
162.2036162415
 20
111.821930092
 11
162.2036162415
 21
79.3235469942
  0
LINE
  5
4AB
100
AcDbEntity
  8
RACCORDO
100
AcDbLine
 62
7
  6
CONTINUOUS
 10
162.2036162415
 20
77.821930092
 11
162.2036162415
 21
73.6901174556
  0
LINE
  5
4AC
100
AcDbEntity
  8
RACCORDO
100
AcDbLine
 62
7
  6
CONTINUOUS
 10
162.2210713064
 20
117.4728146955
 11
162.2210713064
 21
113.2906834903
  0
LINE
  5
4AD
100
AcDbEntity
  8
ASSI
100
AcDbLine
 62
7
  6
CONTINUOUS
 10
162.2210713064
 20
111.8547935959
 11
162.2210713064
 21
79.2906834903
  0
LINE
  5
4AE
100
AcDbEntity
  8
RACCORDO
100
AcDbLine
 62
7
  6
CONTINUOUS
 10
162.2210713064
 20
77.8547935959
 11
162.2210713064
 21
73.6726623907
  0
LINE
  5
4AF
100
AcDbEntity
  8
ASSI
100
AcDbLine
 62
7
  6
CONTINUOUS
 10
162.2710713064
 20
78.0727385431
 11
162.2710713064
 21
79.0727385431
  0
LINE
  5
4B0
100
AcDbEntity
  8
ASSI
100
AcDbLine
 62
7
  6
CONTINUOUS
 10
162.2710713064
 20
112.0727385431
 11
162.2710713064
 21
113.0727385431
  0
LWPOLYLINE
  5
4B1
100
AcDbEntity
  8
RACCORDO
100
AcDbPolyline
 62
7
  6
CONTINUOUS
 90
16
 70
0
 10
162.2210713064
 20
73.6726623907
 10
162.218372482
 20
73.6207765768
 10
162.2102599402
 20
73.5692425086
 10
162.1967559352
 20
73.518631374
 10
162.1778641267
 20
73.4693365668
 10
162.1537723711
 20
73.4221236509
 10
162.1250375937
 20
73.3780293612
 10
162.0923747764
 20
73.3378085203
 10
162.0560013292
 20
73.3014350731
 10
162.0157804883
 20
73.2687722558
 10
161.9716861986
 20
73.2400374784
 10
161.9244732827
 20
73.2159457228
 10
161.8751784755
 20
73.1970539144
 10
161.8245673409
 20
73.1835499093
 10
161.7730332727
 20
73.1754373675
 10
161.7211474589
 20
73.1727385431
  0
LWPOLYLINE
  5
4B2
100
AcDbEntity
  8
RACCORDO
100
AcDbPolyline
 62
253
  6
CONTINUOUS
 90
16
 70
0
 10
161.2079038495
 20
71.3358679238
 10
161.2065132964
 20
71.3096141313
 10
161.2023745027
 20
71.2836577287
 10
161.1955354387
 20
71.258285342
 10
161.1860802934
 20
71.2337911765
 10
161.1741121479
 20
71.210429174
 10
161.1597369796
 20
71.1884176142
 10
161.143064975
 20
71.167964722
 10
161.1243005602
 20
71.149355547
 10
161.1037445029
 20
71.132878903
 10
161.0816623431
 20
71.1187093296
 10
161.0582933553
 20
71.1069649732
 10
161.0339533726
 20
71.0977666886
 10
161.0089373793
 20
71.0911786805
 10
160.9835082857
 20
71.0872247012
 10
160.9579419257
 20
71.085906
  0
LINE
  5
4B3
100
AcDbEntity
  8
RACCORDO
100
AcDbLine
 62
253
  6
CONTINUOUS
 10
157.5606142961
 20
86.0623272251
 11
157.5474935323
 21
86.0492064613
  0
LWPOLYLINE
  5
4B4
100
AcDbEntity
  8
0
100
AcDbPolyline
 62
7
  6
CONTINUOUS
 90
49
 70
0
 10
155.1118701416
 20
109.7918568699
 10
155.12423521
 20
109.7950120719
 10
155.1365540211
 20
109.7996588333
 10
155.1488265751
 20
109.805797154
 10
155.1610100522
 20
109.8137550061
 10
155.173147272
 20
109.8232044175
 10
155.1853666935
 20
109.8331614721
 10
155.1977114776
 20
109.8433139564
 10
155.2101384633
 20
109.8539740839
 10
155.2226466265
 20
109.8650945788
 10
155.2352604981
 20
109.8765769984
 10
155.2479555471
 20
109.8885197854
 10
155.2606571569
 20
109.9011709924
 10
155.2733813019
 20
109.9145134012
 10
155.2861120077
 20
109.9285642299
 10
155.2987267338
 20
109.943623185
 10
155.3112398211
 20
109.9597453403
 10
155.3236369287
 20
109.9768756221
 10
155.3357524937
 20
109.9951485152
 10
155.3476063435
 20
110.0145926521
 10
155.3591786506
 20
110.0351794004
 10
155.3702443702
 20
110.0569573486
 10
155.3808269219
 20
110.0799404536
 10
155.390902886
 20
110.1041147585
 10
155.4001769593
 20
110.1294869809
 10
155.408652141
 20
110.1560335784
 10
155.4163254318
 20
110.1837780934
 10
155.4228925306
 20
110.2127978718
 10
155.4283655842
 20
110.2431072024
 10
155.4327324458
 20
110.2746917964
 10
155.4356523735
 20
110.3075861324
 10
155.4371774711
 20
110.3418324295
 10
155.4372556347
 20
110.3773884688
 10
155.435389811
 20
110.4141620718
 10
155.431761434
 20
110.4522049385
 10
155.4261890697
 20
110.4914653689
 10
155.4176313627
 20
110.5316960853
 10
155.4061486206
 20
110.5730677638
 10
155.3916805359
 20
110.6154097282
 10
155.3730048304
 20
110.6579626723
 10
155.3493766769
 20
110.7014595705
 10
155.3215409027
 20
110.7451674483
 10
155.2905097109
 20
110.7861280765
 10
155.2557637886
 20
110.8239046438
 10
155.2178224487
 20
110.8589339615
 10
155.1792558329
 20
110.8895682332
 10
155.1409206552
 20
110.9152581937
 10
155.1019602016
 20
110.9365531083
 10
155.062374472
 20
110.953452977
  0
LINE
  5
4B5
100
AcDbEntity
  8
0
100
AcDbLine
 62
7
  6
CONTINUOUS
 10
150.8794045603
 20
106.8174194246
 11
151.0877380526
 21
106.859972611
  0
LINE
  5
4B6
100
AcDbEntity
  8
0
100
AcDbLine
 62
7
  6
CONTINUOUS
 10
148.1294046497
 20
106.8174194246
 11
148.337737993
 21
106.859972611
  0
LINE
  5
4B7
100
AcDbEntity
  8
0
100
AcDbLine
 62
7
  6
CONTINUOUS
 10
151.0877380526
 20
107.0727385431
 11
150.8377380526
 21
107.0301853567
  0
LINE
  5
4B8
100
AcDbEntity
  8
0
100
AcDbLine
 62
7
  6
CONTINUOUS
 10
148.3794046199
 20
107.0727385431
 11
148.0877379632
 21
107.0301853567
  0
LINE
  5
4B9
100
AcDbEntity
  8
0
100
AcDbLine
 62
7
  6
CONTINUOUS
 10
147.7127379743
 20
106.6046534925
 11
147.9210713064
 21
106.6046534925
  0
LINE
  5
4BA
100
AcDbEntity
  8
0
100
AcDbLine
 62
7
  6
CONTINUOUS
 10
148.337737993
 20
106.859972611
 11
148.5044046199
 21
106.859972611
  0
LINE
  5
4BB
100
AcDbEntity
  8
0
100
AcDbLine
 62
7
  6
CONTINUOUS
 10
154.6710713064
 20
107.0727385431
 11
154.4210713064
 21
107.0727385431
  0
LINE
  5
4BC
100
AcDbEntity
  8
0
100
AcDbLine
 62
7
  6
CONTINUOUS
 10
153.4210713064
 20
107.0727385431
 11
153.1710713064
 21
107.0727385431
  0
LINE
  5
4BD
100
AcDbEntity
  8
0
100
AcDbLine
 62
7
  6
CONTINUOUS
 10
150.0044045603
 20
107.0727385431
 11
149.7544045603
 21
107.0727385431
  0
LINE
  5
4BE
100
AcDbEntity
  8
0
100
AcDbLine
 62
7
  6
CONTINUOUS
 10
148.5460713064
 20
107.0727385431
 11
148.3794046199
 21
107.0727385431
  0
LINE
  5
4BF
100
AcDbEntity
  8
0
100
AcDbLine
 62
7
  6
CONTINUOUS
 10
151.3377380526
 20
107.0301853567
 11
151.0877380526
 21
107.0727385431
  0
LINE
  5
4C0
100
AcDbEntity
  8
0
100
AcDbLine
 62
7
  6
CONTINUOUS
 10
151.0877380526
 20
106.859972611
 11
151.2960713064
 21
106.8174194246
  0
LINE
  5
4C1
100
AcDbEntity
  8
RACCORDO
100
AcDbLine
 62
253
  6
CONTINUOUS
 10
157.5606142961
 20
105.0831498611
 11
157.5474935323
 21
105.0962706249
  0
LINE
  5
4C2
100
AcDbEntity
  8
ASSI
100
AcDbLine
 62
7
  6
CONTINUOUS
 10
146.8065408117
 20
71.7914727848
 11
146.8626981819
 21
71.8531436184
  0
LINE
  5
4C3
100
AcDbEntity
  8
ASSI
100
AcDbLine
 62
7
  6
CONTINUOUS
 10
146.8626981819
 20
71.8531436184
 11
146.9644917605
 21
71.9629175254
  0
LINE
  5
4C4
100
AcDbEntity
  8
ASSI
100
AcDbLine
 62
7
  6
CONTINUOUS
 10
147.0854922776
 20
72.0913895987
 11
147.1290584995
 21
72.1382090907
  0
LINE
  5
4C5
100
AcDbEntity
  8
ASSI
100
AcDbLine
 62
7
  6
CONTINUOUS
 10
146.9644917605
 20
71.9629175254
 11
147.0854922776
 21
72.0913895987
  0
LINE
  5
4C6
100
AcDbEntity
  8
ASSI
100
AcDbLine
 62
7
  6
CONTINUOUS
 10
146.6210713064
 20
71.5727385431
 11
146.6865608925
 21
71.6382281292
  0
LINE
  5
4C7
100
AcDbEntity
  8
SMUSSO
100
AcDbLine
 62
7
  6
CONTINUOUS
 10
141.2385263714
 20
75.3814920576
 11
141.2210713064
 21
75.3727651898
  0
LINE
  5
4C8
100
AcDbEntity
  8
SMUSSO
100
AcDbLine
 62
7
  6
CONTINUOUS
 10
141.9386329929
 20
74.6814654109
 11
141.9211779279
 21
74.6727385431
  0
LWPOLYLINE
  5
4C9
100
AcDbEntity
  8
0
100
AcDbPolyline
 62
7
  6
CONTINUOUS
 90
10
 70
0
 10
154.3398756626
 20
110.6127434129
 10
154.3821560109
 20
110.6197817094
 10
154.4243001239
 20
110.6254437179
 10
154.4663080018
 20
110.6297294384
 10
154.5081625261
 20
110.6326485112
 10
154.5498808153
 20
110.634191296
 10
154.591514224
 20
110.6343288721
 10
154.6330798705
 20
110.6330515992
 10
154.6745606366
 20
110.6303691175
 10
154.7159565223
 20
110.626281427
  0
LINE
  5
4CA
100
AcDbEntity
  8
0
100
AcDbLine
 62
7
  6
CONTINUOUS
 10
147.3586153064
 20
108.7047455431
 11
147.7816653064
 21
108.7047455431
  0
LINE
  5
4CB
100
AcDbEntity
  8
0
100
AcDbLine
 62
7
  6
CONTINUOUS
 10
148.6990593064
 20
108.7047455431
 11
149.1791153064
 21
108.7047455431
  0
LINE
  5
4CC
100
AcDbEntity
  8
0
100
AcDbLine
 62
7
  6
CONTINUOUS
 10
149.4375453064
 20
108.7047455431
 11
149.8968033064
 21
108.7047455431
  0
LINE
  5
4CD
100
AcDbEntity
  8
0
100
AcDbLine
 62
7
  6
CONTINUOUS
 10
150.5635633064
 20
108.7047455431
 11
150.6308913064
 21
108.7047455431
  0
LINE
  5
4CE
100
AcDbEntity
  8
0
100
AcDbLine
 62
7
  6
CONTINUOUS
 10
151.3003073064
 20
108.7047455431
 11
151.7699293064
 21
108.7047455431
  0
LINE
  5
4CF
100
AcDbEntity
  8
0
100
AcDbLine
 62
7
  6
CONTINUOUS
 10
151.8453113064
 20
108.7047455431
 11
152.3201593064
 21
108.7047455431
  0
LINE
  5
4D0
100
AcDbEntity
  8
0
100
AcDbLine
 62
7
  6
CONTINUOUS
 10
153.2307413064
 20
108.7047455431
 11
153.7367013064
 21
108.7047455431
  0
LINE
  5
4D1
100
AcDbEntity
  8
0
100
AcDbLine
 62
7
  6
CONTINUOUS
 10
153.8776688885
 20
108.7047457095
 11
154.3557936079
 21
108.7047457095
  0
LINE
  5
4D2
100
AcDbEntity
  8
0
100
AcDbLine
 62
7
  6
CONTINUOUS
 10
155.0909336459
 20
108.7047457095
 11
155.5526920271
 21
108.7047457095
  0
LINE
  5
4D3
100
AcDbEntity
  8
0
100
AcDbLine
 62
7
  6
CONTINUOUS
 10
152.4526243064
 20
109.1638655431
 11
153.1063813064
 21
109.1638655431
  0
LINE
  5
4D4
100
AcDbEntity
  8
0
100
AcDbLine
 62
7
  6
CONTINUOUS
 10
153.0104423064
 20
109.5191305431
 11
152.5508223064
 21
109.5191305431
  0
LINE
  5
4D5
100
AcDbEntity
  8
0
100
AcDbLine
 62
7
  6
CONTINUOUS
 10
154.3557936079
 20
109.6047563404
 11
154.6131883358
 21
109.6047563404
  0
LINE
  5
4D6
100
AcDbEntity
  8
0
100
AcDbLine
 62
7
  6
CONTINUOUS
 10
154.6142230885
 20
109.9814063141
 11
154.3398756626
 21
109.9814063141
  0
LWPOLYLINE
  5
4D7
100
AcDbEntity
  8
0
100
AcDbPolyline
 62
7
  6
CONTINUOUS
 90
13
 70
0
 10
154.6131883358
 20
109.6047563404
 10
154.6424851442
 20
109.6032863122
 10
154.6705705439
 20
109.5990396397
 10
154.697444535
 20
109.592016323
 10
154.7230987725
 20
109.5822672014
 10
154.7475416014
 20
109.5697414356
 10
154.7707980565
 20
109.5542865069
 10
154.793041527
 20
109.5357635093
 10
154.8140986237
 20
109.5143113487
 10
154.8334742145
 20
109.490194225
 10
154.8510032555
 20
109.4635002048
 10
154.8668507906
 20
109.4341412214
 10
154.8810168198
 20
109.4021172748
  0
LINE
  5
4D8
100
AcDbEntity
  8
SMUSSO
100
AcDbLine
 62
7
  6
CONTINUOUS
 10
141.2210713064
 20
115.7727118963
 11
141.2385263714
 21
115.7639850285
  0
LINE
  5
4D9
100
AcDbEntity
  8
SMUSSO
100
AcDbLine
 62
7
  6
CONTINUOUS
 10
141.9211779279
 20
116.4727385431
 11
141.9386329929
 21
116.4640116753
  0
LINE
  5
4DA
100
AcDbEntity
  8
ASSI
100
AcDbLine
 62
7
  6
CONTINUOUS
 10
146.6210713064
 20
119.5727385431
 11
146.6865608925
 21
119.507248957
  0
LINE
  5
4DB
100
AcDbEntity
  8
ASSI
100
AcDbLine
 62
7
  6
CONTINUOUS
 10
147.0854886689
 20
119.0540860751
 11
146.9646612639
 21
119.182382074
  0
LINE
  5
4DC
100
AcDbEntity
  8
ASSI
100
AcDbLine
 62
7
  6
CONTINUOUS
 10
147.1290584995
 20
119.0072679955
 11
147.0854886689
 21
119.0540860751
  0
LINE
  5
4DD
100
AcDbEntity
  8
ASSI
100
AcDbLine
 62
7
  6
CONTINUOUS
 10
146.9646612639
 20
119.182382074
 11
146.8631050097
 21
119.2918912259
  0
LWPOLYLINE
  5
4DE
100
AcDbEntity
  8
ASSI
100
AcDbPolyline
 62
7
  6
CONTINUOUS
 90
11
 70
0
 10
146.8631050097
 20
119.2918912259
 10
146.8069600165
 20
119.3535396161
 10
146.7825455271
 20
119.3807178923
 10
146.7607665836
 20
119.4054631317
 10
146.7416686291
 20
119.4275632747
 10
146.7253388442
 20
119.4469759482
 10
146.7118566182
 20
119.4637435252
 10
146.7012566917
 20
119.477781065
 10
146.6935773395
 20
119.4890602539
 10
146.6888458004
 20
119.4976094056
 10
146.6870625231
 20
119.5034285199
  0
LWPOLYLINE
  5
4DF
100
AcDbEntity
  8
RACCORDO
100
AcDbPolyline
 62
7
  6
CONTINUOUS
 90
13
 70
0
 10
157.7606066808
 20
81.2396672137
 10
157.7362740274
 20
81.2247417375
 10
157.7120651137
 20
81.2081379641
 10
157.6883633609
 20
81.1898558936
 10
157.6655842347
 20
81.1698793357
 10
157.6441009533
 20
81.1482244806
 10
157.6242536971
 20
81.1249398991
 10
157.6064670325
 20
81.099951085
 10
157.5911030645
 20
81.0733325445
 10
157.5784566659
 20
81.0453563662
 10
157.5689098429
 20
81.0161132465
 10
157.5628574726
 20
80.9855124891
 10
157.5606142961
 20
80.953554094
  0
LWPOLYLINE
  5
4E0
100
AcDbEntity
  8
RACCORDO
100
AcDbPolyline
 62
7
  6
CONTINUOUS
 90
28
 70
0
 10
157.7606066808
 20
81.2396672137
 10
157.7977088268
 20
81.2578956806
 10
157.8342984283
 20
81.2721335913
 10
157.8703754852
 20
81.2823809458
 10
157.9062170681
 20
81.2883041963
 10
157.9415461063
 20
81.2902368906
 10
157.9755313887
 20
81.289179672
 10
158.0079487253
 20
81.2851953259
 10
158.0390223061
 20
81.2782210668
 10
158.0685934892
 20
81.2690691821
 10
158.0966730241
 20
81.2577786466
 10
158.1232501614
 20
81.2443104854
 10
158.1481340109
 20
81.2293600623
 10
158.1712145337
 20
81.2130390132
 10
158.1926017687
 20
81.195235702
 10
158.2124349426
 20
81.1763105838
 10
158.2307354995
 20
81.1563376557
 10
158.2474819952
 20
81.1352429206
 10
158.2627493231
 20
81.1131648415
 10
158.2766058106
 20
81.0900324428
 10
158.2889831303
 20
81.0659167002
 10
158.2997511943
 20
81.0411690044
 10
158.3088854125
 20
81.0157910619
 10
158.316410375
 20
80.9897811663
 10
158.3222697642
 20
80.9634855892
 10
158.3264448075
 20
80.9370197545
 10
158.3289542775
 20
80.9102682384
 10
158.3297981742
 20
80.8832310408
  0
LINE
  5
4E1
100
AcDbEntity
  8
0
100
AcDbLine
 62
7
  6
CONTINUOUS
 10
153.0310683064
 20
111.0045355431
 11
152.5666713064
 21
111.0045355431
  0
LINE
  5
4E2
100
AcDbEntity
  8
0
100
AcDbLine
 62
7
  6
CONTINUOUS
 10
151.5548733064
 20
111.0045355431
 11
151.0799043064
 21
111.0045355431
  0
LINE
  5
4E3
100
AcDbEntity
  8
0
100
AcDbLine
 62
7
  6
CONTINUOUS
 10
150.1248623064
 20
111.0045355431
 11
149.6452023064
 21
111.0045355431
  0
LINE
  5
4E4
100
AcDbEntity
  8
0
100
AcDbLine
 62
7
  6
CONTINUOUS
 10
148.5209093064
 20
111.0045355431
 11
148.0411813064
 21
111.0045355431
  0
LINE
  5
4E5
100
AcDbEntity
  8
0
100
AcDbLine
 62
7
  6
CONTINUOUS
 10
147.1510263064
 20
111.0045355431
 11
146.6295373064
 21
111.0045355431
  0
LINE
  5
4E6
100
AcDbEntity
  8
0
100
AcDbLine
 62
7
  6
CONTINUOUS
 10
149.1791153064
 20
111.0046735431
 11
148.6990593064
 21
111.0046735431
  0
LWPOLYLINE
  5
4E7
100
AcDbEntity
  8
0
100
AcDbPolyline
 62
7
  6
CONTINUOUS
 90
13
 70
0
 10
154.7159565223
 20
110.626281427
 10
154.755672537
 20
110.6187857457
 10
154.7925448457
 20
110.6078974338
 10
154.8265734484
 20
110.5936164913
 10
154.8579242312
 20
110.5757728196
 10
154.8864313081
 20
110.5545365174
 10
154.9115970202
 20
110.5304178802
 10
154.9334146149
 20
110.5031205242
 10
154.9518908448
 20
110.4729408334
 10
154.9665483091
 20
110.441278255
 10
154.977227874
 20
110.4085992716
 10
154.9840886732
 20
110.3744374006
 10
154.9871307067
 20
110.3387926422
  0
LWPOLYLINE
  5
4E8
100
AcDbEntity
  8
0
100
AcDbPolyline
 62
7
  6
CONTINUOUS
 90
13
 70
0
 10
155.062374472
 20
110.953452977
 10
154.9841455769
 20
110.9772146265
 10
154.9018827515
 20
110.9966654144
 10
154.8155859957
 20
111.0118053407
 10
154.7250249624
 20
111.0223915917
 10
154.6304299989
 20
111.028666981
 10
154.5324921462
 20
111.0313599505
 10
154.431381661
 20
111.0305680413
 10
154.3269282868
 20
111.0261937122
 10
154.2193122952
 20
111.0186727807
 10
154.1085937769
 20
111.0081505194
 10
153.9947126414
 20
110.9944816557
 10
153.8776688885
 20
110.9776661896
  0
LINE
  5
4E9
100
AcDbEntity
  8
DRAFT
100
AcDbLine
 62
7
  6
CONTINUOUS
 10
152.0885263714
 20
73.190193608
 11
152.0710713064
 21
73.1727385431
  0
LINE
  5
4EA
100
AcDbEntity
  8
RACCORDO
100
AcDbLine
 62
7
  6
CONTINUOUS
 10
154.2459265886
 20
73.3650488902
 11
154.0710713064
 21
73.190193608
  0
LINE
  5
4EB
100
AcDbEntity
  8
DRAFT
100
AcDbLine
 62
7
  6
CONTINUOUS
 10
152.0885263714
 20
117.9552834782
 11
152.0710713064
 21
117.9727385431
  0
LINE
  5
4EC
100
AcDbEntity
  8
RACCORDO
100
AcDbLine
 62
7
  6
CONTINUOUS
 10
154.2459265886
 20
117.780428196
 11
154.0710713064
 21
117.9552834782
  0
LINE
  5
4ED
100
AcDbEntity
  8
ASSI
100
AcDbLine
 62
7
  6
CONTINUOUS
 10
154.6892309492
 20
71.7899918044
 11
154.7454806336
 21
71.8517921711
  0
LINE
  5
4EE
100
AcDbEntity
  8
ASSI
100
AcDbLine
 62
7
  6
CONTINUOUS
 10
154.7454806336
 20
71.8517921711
 11
154.8476499442
 21
71.9619905178
  0
LINE
  5
4EF
100
AcDbEntity
  8
ASSI
100
AcDbLine
 62
7
  6
CONTINUOUS
 10
154.969272819
 20
72.0911214169
 11
155.0130841134
 21
72.1382090907
  0
LINE
  5
4F0
100
AcDbEntity
  8
ASSI
100
AcDbLine
 62
7
  6
CONTINUOUS
 10
154.8476499442
 20
71.9619905178
 11
154.969272819
 21
72.0911214169
  0
LINE
  5
4F1
100
AcDbEntity
  8
DRAFT
100
AcDbLine
 62
7
  6
CONTINUOUS
 10
158.2250757607
 20
74.5767429974
 11
158.3297981742
 21
74.6814654109
  0
LINE
  5
4F2
100
AcDbEntity
  8
DRAFT
100
AcDbLine
 62
7
  6
CONTINUOUS
 10
158.3297981742
 20
116.4640116753
 11
158.2250757607
 21
116.5687340888
  0
LINE
  5
4F3
100
AcDbEntity
  8
ASSI
100
AcDbLine
 62
7
  6
CONTINUOUS
 10
154.9692961638
 20
119.0543242465
 11
154.8479308079
 21
119.1831905417
  0
LINE
  5
4F4
100
AcDbEntity
  8
ASSI
100
AcDbLine
 62
7
  6
CONTINUOUS
 10
155.0130841134
 20
119.0072679955
 11
154.9692961638
 21
119.0543242465
  0
LINE
  5
4F5
100
AcDbEntity
  8
ASSI
100
AcDbLine
 62
7
  6
CONTINUOUS
 10
154.8479308079
 20
119.1831905417
 11
154.7460540814
 21
119.2930603323
  0
LWPOLYLINE
  5
4F6
100
AcDbEntity
  8
ASSI
100
AcDbPolyline
 62
7
  6
CONTINUOUS
 90
11
 70
0
 10
154.7460540814
 20
119.2930603323
 10
154.689822176
 20
119.354829523
 10
154.6654240386
 20
119.382010791
 10
154.6436933073
 20
119.4067261783
 10
154.6246592786
 20
119.4287781244
 10
154.6084127348
 20
119.4481329356
 10
154.595041129
 20
119.4648243057
 10
154.5845806099
 20
119.4787557549
 10
154.5770781216
 20
119.4898951234
 10
154.5725719531
 20
119.498274571
 10
154.5710713064
 20
119.5038940977
  0
LINE
  5
4F7
100
AcDbEntity
  8
RACCORDO
100
AcDbLine
 62
7
  6
CONTINUOUS
 10
159.229401117
 20
74.5810683536
 11
159.3210713064
 21
74.6727385431
  0
LINE
  5
4F8
100
AcDbEntity
  8
RACCORDO
100
AcDbLine
 62
7
  6
CONTINUOUS
 10
158.3385263714
 20
73.190193608
 11
159.3210713064
 21
74.1727385431
  0
LINE
  5
4F9
100
AcDbEntity
  8
SMUSSO
100
AcDbLine
 62
7
  6
CONTINUOUS
 10
160.20350962
 20
74.6814654109
 11
160.9036162415
 21
75.3814920576
  0
LINE
  5
4FA
100
AcDbEntity
  8
SMUSSO
100
AcDbLine
 62
7
  6
CONTINUOUS
 10
160.9210713064
 20
75.3727651898
 11
160.2209646849
 21
74.6727385431
  0
LINE
  5
4FB
100
AcDbEntity
  8
RACCORDO
100
AcDbLine
 62
253
  6
CONTINUOUS
 10
152.0710713064
 20
71.8227099865
 11
152.0885263714
 21
71.8314368543
  0
LINE
  5
4FC
100
AcDbEntity
  8
RACCORDO
100
AcDbLine
 62
7
  6
CONTINUOUS
 10
157.3475011477
 20
115.5974306265
 11
144.7946414651
 21
115.5974306265
  0
LINE
  5
4FD
100
AcDbEntity
  8
DRAFT
100
AcDbLine
 62
7
  6
CONTINUOUS
 10
144.4750757607
 20
115.7187340888
 11
157.6670668521
 21
115.7187340888
  0
LINE
  5
4FE
100
AcDbEntity
  8
DRAFT
100
AcDbLine
 62
7
  6
CONTINUOUS
 10
154.2630770206
 20
116.3628129574
 11
147.8790655922
 21
116.3628129574
  0
LINE
  5
4FF
100
AcDbEntity
  8
SMUSSO
100
AcDbLine
 62
7
  6
CONTINUOUS
 10
160.20350962
 20
116.4640116753
 11
158.3297981742
 21
116.4640116753
  0
LINE
  5
500
100
AcDbEntity
  8
SMUSSO
100
AcDbLine
 62
7
  6
CONTINUOUS
 10
141.9386329929
 20
116.4640116753
 11
143.8123444386
 21
116.4640116753
  0
LINE
  5
501
100
AcDbEntity
  8
SMUSSO
100
AcDbLine
 62
7
  6
CONTINUOUS
 10
141.9211779279
 20
116.4727385431
 11
142.8210713064
 21
116.4727385431
  0
LINE
  5
502
100
AcDbEntity
  8
SMUSSO
100
AcDbLine
 62
7
  6
CONTINUOUS
 10
159.3210713064
 20
116.4727385431
 11
160.2209646849
 21
116.4727385431
  0
LINE
  5
503
100
AcDbEntity
  8
RACCORDO
100
AcDbLine
 62
7
  6
CONTINUOUS
 10
158.7294201554
 20
116.5687340888
 11
158.2250757607
 21
116.5687340888
  0
LINE
  5
504
100
AcDbEntity
  8
RACCORDO
100
AcDbLine
 62
7
  6
CONTINUOUS
 10
143.4127224574
 20
116.5687340888
 11
143.9170668521
 21
116.5687340888
  0
LINE
  5
505
100
AcDbEntity
  8
RACCORDO
100
AcDbLine
 62
253
  6
CONTINUOUS
 10
142.9127414959
 20
116.7805805008
 11
147.8790655922
 21
116.7805805008
  0
LINE
  5
506
100
AcDbEntity
  8
RACCORDO
100
AcDbLine
 62
253
  6
CONTINUOUS
 10
154.2630770206
 20
116.7805805008
 11
159.229401117
 21
116.7805805008
  0
LINE
  5
507
100
AcDbEntity
  8
DRAFT
100
AcDbLine
 62
7
  6
CONTINUOUS
 10
154.2194393583
 20
117.2727385431
 11
147.9227032545
 21
117.2727385431
  0
LINE
  5
508
100
AcDbEntity
  8
RACCORDO
100
AcDbLine
 62
253
  6
CONTINUOUS
 10
152.0885263714
 20
119.3140402319
 11
152.0710713064
 21
119.3227670997
  0
LINE
  5
509
100
AcDbEntity
  8
RACCORDO
100
AcDbLine
 62
7
  6
CONTINUOUS
 10
159.229401117
 20
116.5644087326
 11
159.3210713064
 21
116.4727385431
  0
LINE
  5
50A
100
AcDbEntity
  8
RACCORDO
100
AcDbLine
 62
7
  6
CONTINUOUS
 10
158.3385263714
 20
117.9552834782
 11
159.3210713064
 21
116.9727385431
  0
LINE
  5
50B
100
AcDbEntity
  8
SMUSSO
100
AcDbLine
 62
7
  6
CONTINUOUS
 10
160.9036162415
 20
115.7639850285
 11
160.20350962
 21
116.4640116753
  0
LINE
  5
50C
100
AcDbEntity
  8
SMUSSO
100
AcDbLine
 62
7
  6
CONTINUOUS
 10
160.2209646849
 20
116.4727385431
 11
160.9210713064
 21
115.7727118963
  0
LINE
  5
50D
100
AcDbEntity
  8
RACCORDO
100
AcDbLine
 62
253
  6
CONTINUOUS
 10
158.3342387633
 20
71.3358679238
 11
158.3210713064
 21
71.3227004669
  0
LINE
  5
50E
100
AcDbEntity
  8
RACCORDO
100
AcDbLine
 62
253
  6
CONTINUOUS
 10
158.5842006871
 20
71.085906
 11
158.5710332302
 21
71.0727385431
  0
LINE
  5
50F
100
AcDbEntity
  8
RACCORDO
100
AcDbLine
 62
253
  6
CONTINUOUS
 10
152.3210713079
 20
71.5727385431
 11
152.3385263728
 21
71.5814654109
  0
LWPOLYLINE
  5
510
100
AcDbEntity
  8
RACCORDO
100
AcDbPolyline
 62
7
  6
CONTINUOUS
 90
16
 70
0
 10
140.420995154
 20
117.9727385431
 10
140.3691093402
 20
117.9700397186
 10
140.3175752719
 20
117.9619271769
 10
140.2669641373
 20
117.9484231718
 10
140.2176693302
 20
117.9295313634
 10
140.1704564143
 20
117.9054396078
 10
140.1263621245
 20
117.8767048304
 10
140.0861412836
 20
117.8440420131
 10
140.0497678365
 20
117.8076685659
 10
140.0171050191
 20
117.767447725
 10
139.9883702417
 20
117.7233534352
 10
139.9642784861
 20
117.6761405194
 10
139.9453866777
 20
117.6268457122
 10
139.9318826726
 20
117.5762345776
 10
139.9237701309
 20
117.5247005094
 10
139.9210713064
 20
117.4728146955
  0
LINE
  5
511
100
AcDbEntity
  8
RACCORDO
100
AcDbLine
 62
253
  6
CONTINUOUS
 10
158.5133816535
 20
117.780428196
 11
154.2459265886
 21
117.780428196
  0
LINE
  5
512
100
AcDbEntity
  8
RACCORDO
100
AcDbLine
 62
253
  6
CONTINUOUS
 10
147.8962160243
 20
117.780428196
 11
143.6287609593
 21
117.780428196
  0
LINE
  5
513
100
AcDbEntity
  8
RACCORDO
100
AcDbLine
 62
7
  6
CONTINUOUS
 10
140.4384502189
 20
117.9552834782
 11
143.8036162415
 21
117.9552834782
  0
LINE
  5
514
100
AcDbEntity
  8
DRAFT
100
AcDbLine
 62
7
  6
CONTINUOUS
 10
147.5710713064
 20
117.9552834782
 11
148.0710713064
 21
117.9552834782
  0
LINE
  5
515
100
AcDbEntity
  8
DRAFT
100
AcDbLine
 62
7
  6
CONTINUOUS
 10
150.0536162415
 20
117.9552834782
 11
152.0885263714
 21
117.9552834782
  0
LINE
  5
516
100
AcDbEntity
  8
DRAFT
100
AcDbLine
 62
7
  6
CONTINUOUS
 10
154.0710713064
 20
117.9552834782
 11
154.5710713064
 21
117.9552834782
  0
LINE
  5
517
100
AcDbEntity
  8
RACCORDO
100
AcDbLine
 62
7
  6
CONTINUOUS
 10
158.3385263714
 20
117.9552834782
 11
161.7036923939
 21
117.9552834782
  0
LINE
  5
518
100
AcDbEntity
  8
RACCORDO
100
AcDbLine
 62
7
  6
CONTINUOUS
 10
140.420995154
 20
117.9727385431
 11
146.6210713064
 21
117.9727385431
  0
LINE
  5
519
100
AcDbEntity
  8
DRAFT
100
AcDbLine
 62
7
  6
CONTINUOUS
 10
150.0710713064
 20
117.9727385431
 11
152.0710713064
 21
117.9727385431
  0
LINE
  5
51A
100
AcDbEntity
  8
RACCORDO
100
AcDbLine
 62
7
  6
CONTINUOUS
 10
155.5210713064
 20
117.9727385431
 11
161.7211474589
 21
117.9727385431
  0
LINE
  5
51B
100
AcDbEntity
  8
RACCORDO
100
AcDbLine
 62
7
  6
CONTINUOUS
 10
141.1689275053
 20
118.6953882739
 11
143.5732151075
 21
118.6953882739
  0
LINE
  5
51C
100
AcDbEntity
  8
RACCORDO
100
AcDbLine
 62
7
  6
CONTINUOUS
 10
158.5689275053
 20
118.6953882739
 11
160.9732151075
 21
118.6953882739
  0
LINE
  5
51D
100
AcDbEntity
  8
RACCORDO
100
AcDbLine
 62
253
  6
CONTINUOUS
 10
152.3385263728
 20
119.5640116753
 11
152.3210713079
 21
119.5727385431
  0
LINE
  5
51E
100
AcDbEntity
  8
RACCORDO
100
AcDbLine
 62
253
  6
CONTINUOUS
 10
158.3210713064
 20
119.8227766193
 11
158.3342387633
 21
119.8096091624
  0
LINE
  5
51F
100
AcDbEntity
  8
RACCORDO
100
AcDbLine
 62
253
  6
CONTINUOUS
 10
158.5710332302
 20
120.0727385431
 11
158.5842006871
 21
120.0595710862
  0
LWPOLYLINE
  5
520
100
AcDbEntity
  8
RACCORDO
100
AcDbPolyline
 62
7
  6
CONTINUOUS
 90
13
 70
0
 10
141.1710332302
 20
120.0727385431
 10
141.1384055717
 20
120.0706007129
 10
141.1063365988
 20
120.0642229924
 10
141.0753746971
 20
120.0537142659
 10
141.046049126
 20
120.0392539645
 10
141.0188618686
 20
120.0210892306
 10
140.9942788411
 20
119.9995310084
 10
140.972720619
 20
119.9749479809
 10
140.954555885
 20
119.9477607236
 10
140.9400955836
 20
119.9184351525
 10
140.9295868571
 20
119.8874732507
 10
140.9232091367
 20
119.8554042779
 10
140.9210713064
 20
119.8227766193
  0
LWPOLYLINE
  5
521
100
AcDbEntity
  8
RACCORDO
100
AcDbPolyline
 62
253
  6
CONTINUOUS
 90
16
 70
0
 10
143.5579419257
 20
119.2005697594
 10
143.5837347452
 20
119.2019203365
 10
143.6092980158
 20
119.2055764209
 10
143.6343556166
 20
119.2115112141
 10
143.6586417152
 20
119.2196758615
 10
143.6818810884
 20
119.22999245
 10
143.703795865
 20
119.2423481248
 10
143.7241463419
 20
119.2566154922
 10
143.7427043428
 20
119.272642945
 10
143.7592435732
 20
119.290237599
 10
143.7735781323
 20
119.3091942995
 10
143.7855654324
 20
119.3293159665
 10
143.7950828569
 20
119.3503958895
 10
143.8020262923
 20
119.3722100875
 10
143.8063161638
 20
119.3945176388
 10
143.8079038495
 20
119.4170761104
  0
LWPOLYLINE
  5
522
100
AcDbEntity
  8
RACCORDO
100
AcDbPolyline
 62
253
  6
CONTINUOUS
 90
16
 70
0
 10
158.5842006871
 20
120.0595710862
 10
158.558634328
 20
120.058252385
 10
158.5332052351
 20
120.054298406
 10
158.5081892426
 20
120.0477103984
 10
158.4838492604
 20
120.0385121142
 10
158.460480273
 20
120.0267677585
 10
158.4383981132
 20
120.0125981855
 10
158.4178420554
 20
119.9961215416
 10
158.3990776398
 20
119.9775123664
 10
158.3824056346
 20
119.9570594738
 10
158.3680304658
 20
119.9350479138
 10
158.35606232
 20
119.911685911
 10
158.3466071745
 20
119.8871917452
 10
158.3397681103
 20
119.8618193582
 10
158.3356293165
 20
119.8358629552
 10
158.3342387633
 20
119.8096091624
  0
LINE
  5
523
100
AcDbEntity
  8
RACCORDO
100
AcDbLine
 62
253
  6
CONTINUOUS
 10
160.9579419257
 20
119.2005697594
 11
158.5842006871
 21
119.2005697594
  0
LINE
  5
524
100
AcDbEntity
  8
RACCORDO
100
AcDbLine
 62
253
  6
CONTINUOUS
 10
143.5579419257
 20
119.2005697594
 11
141.1842006871
 21
119.2005697594
  0
LINE
  5
525
100
AcDbEntity
  8
RACCORDO
100
AcDbLine
 62
253
  6
CONTINUOUS
 10
161.2079038495
 20
119.4170761104
 11
158.3342387633
 21
119.4170761104
  0
LINE
  5
526
100
AcDbEntity
  8
RACCORDO
100
AcDbLine
 62
253
  6
CONTINUOUS
 10
140.9342387633
 20
119.4170761104
 11
143.8079038495
 21
119.4170761104
  0
LINE
  5
527
100
AcDbEntity
  8
ASSI
100
AcDbLine
 62
7
  6
CONTINUOUS
 10
146.6865608925
 20
119.507248957
 11
147.5710713064
 21
119.507248957
  0
LINE
  5
528
100
AcDbEntity
  8
ASSI
100
AcDbLine
 62
7
  6
CONTINUOUS
 10
154.5710713064
 20
119.507248957
 11
155.4555817203
 21
119.507248957
  0
LINE
  5
529
100
AcDbEntity
  8
RACCORDO
100
AcDbLine
 62
7
  6
CONTINUOUS
 10
147.5710713064
 20
119.5640116753
 11
149.8036162401
 21
119.5640116753
  0
LINE
  5
52A
100
AcDbEntity
  8
RACCORDO
100
AcDbLine
 62
7
  6
CONTINUOUS
 10
152.3385263728
 20
119.5640116753
 11
154.5710713064
 21
119.5640116753
  0
LINE
  5
52B
100
AcDbEntity
  8
RACCORDO
100
AcDbLine
 62
7
  6
CONTINUOUS
 10
146.6210713064
 20
119.5727385431
 11
149.821071305
 21
119.5727385431
  0
LINE
  5
52C
100
AcDbEntity
  8
RACCORDO
100
AcDbLine
 62
7
  6
CONTINUOUS
 10
152.3210713079
 20
119.5727385431
 11
155.5210713064
 21
119.5727385431
  0
LINE
  5
52D
100
AcDbEntity
  8
RACCORDO
100
AcDbLine
 62
253
  6
CONTINUOUS
 10
161.2079038495
 20
119.8096091624
 11
158.3342387633
 21
119.8096091624
  0
LINE
  5
52E
100
AcDbEntity
  8
RACCORDO
100
AcDbLine
 62
253
  6
CONTINUOUS
 10
140.9342387633
 20
119.8096091624
 11
143.8079038495
 21
119.8096091624
  0
LINE
  5
52F
100
AcDbEntity
  8
RACCORDO
100
AcDbLine
 62
253
  6
CONTINUOUS
 10
160.9579419257
 20
120.0595710862
 11
158.5842006871
 21
120.0595710862
  0
LINE
  5
530
100
AcDbEntity
  8
RACCORDO
100
AcDbLine
 62
253
  6
CONTINUOUS
 10
143.5579419257
 20
120.0595710862
 11
141.1842006871
 21
120.0595710862
  0
LINE
  5
531
100
AcDbEntity
  8
RACCORDO
100
AcDbLine
 62
7
  6
CONTINUOUS
 10
141.1710332302
 20
120.0727385431
 11
143.5711093826
 21
120.0727385431
  0
LINE
  5
532
100
AcDbEntity
  8
RACCORDO
100
AcDbLine
 62
7
  6
CONTINUOUS
 10
158.5710332302
 20
120.0727385431
 11
160.9711093826
 21
120.0727385431
  0
LWPOLYLINE
  5
533
100
AcDbEntity
  8
RACCORDO
100
AcDbPolyline
 62
253
  6
CONTINUOUS
 90
16
 70
0
 10
143.5579419257
 20
120.0595710862
 10
143.5835082857
 20
120.0582523849
 10
143.6089373793
 20
120.0542984056
 10
143.6339533726
 20
120.0477103976
 10
143.6582933553
 20
120.0385121129
 10
143.6816623431
 20
120.0267677566
 10
143.7037445029
 20
120.0125981832
 10
143.7243005602
 20
119.9961215392
 10
143.743064975
 20
119.9775123642
 10
143.7597369796
 20
119.957059472
 10
143.7741121479
 20
119.9350479122
 10
143.7860802934
 20
119.9116859097
 10
143.7955354387
 20
119.8871917442
 10
143.8023745027
 20
119.8618193575
 10
143.8065132964
 20
119.8358629549
 10
143.8079038495
 20
119.8096091624
  0
LWPOLYLINE
  5
534
100
AcDbEntity
  8
RACCORDO
100
AcDbPolyline
 62
253
  6
CONTINUOUS
 90
16
 70
0
 10
158.5842006871
 20
119.2005697594
 10
158.5584078672
 20
119.2019203365
 10
158.5328445963
 20
119.2055764211
 10
158.5077869953
 20
119.2115112144
 10
158.4835008963
 20
119.219675862
 10
158.460261523
 20
119.2299924507
 10
158.4383467465
 20
119.2423481257
 10
158.4179962698
 20
119.2566154931
 10
158.3994382692
 20
119.2726429458
 10
158.3828990391
 20
119.2902375997
 10
158.3685644801
 20
119.3091943001
 10
158.3565771801
 20
119.3293159671
 10
158.3470597557
 20
119.35039589
 10
158.3401163205
 20
119.3722100879
 10
158.335826449
 20
119.394517639
 10
158.3342387633
 20
119.4170761104
  0
LWPOLYLINE
  5
535
100
AcDbEntity
  8
RACCORDO
100
AcDbPolyline
 62
7
  6
CONTINUOUS
 90
13
 70
0
 10
160.9711093826
 20
120.0727385431
 10
161.0037370412
 20
120.0706007129
 10
161.035806014
 20
120.0642229924
 10
161.0667679158
 20
120.0537142659
 10
161.0960934869
 20
120.0392539645
 10
161.1232807442
 20
120.0210892306
 10
161.1478637717
 20
119.9995310084
 10
161.1694219939
 20
119.9749479809
 10
161.1875867279
 20
119.9477607236
 10
161.2020470292
 20
119.9184351525
 10
161.2125557557
 20
119.8874732507
 10
161.2189334762
 20
119.8554042779
 10
161.2210713064
 20
119.8227766193
  0
ARC
  5
536
100
AcDbEntity
  8
RACCORDO
100
AcDbCircle
 62
253
  6
CONTINUOUS
 10
148.2210713064
 20
95.5727385431
 40
3.5564355919
100
AcDbArc
 50
90.0
 51
270.0
  0
ARC
  5
537
100
AcDbEntity
  8
RACCORDO
100
AcDbCircle
 62
253
  6
CONTINUOUS
 10
153.9210713064
 20
95.5727385431
 40
3.5564355919
100
AcDbArc
 50
270.0
 51
90.0
  0
ARC
  5
538
100
AcDbEntity
  8
RACCORDO
100
AcDbCircle
 62
253
  6
CONTINUOUS
 10
148.2210713064
 20
95.5727385431
 40
3.2707743083
100
AcDbArc
 50
90.0000000001
 51
270.0027571908
  0
ARC
  5
539
100
AcDbEntity
  8
RACCORDO
100
AcDbCircle
 62
253
  6
CONTINUOUS
 10
153.9210713064
 20
95.5727385431
 40
3.2707743083
100
AcDbArc
 50
269.9972421289
 51
90.0
  0
ARC
  5
53A
100
AcDbEntity
  8
ASSI
100
AcDbCircle
 62
7
  6
CONTINUOUS
 10
147.8710713064
 20
84.2727385431
 40
2.6237424326
100
AcDbArc
 50
292.0885383736
 51
273.4297245586
  0
ARC
  5
53B
100
AcDbEntity
  8
ASSI
100
AcDbCircle
 62
7
  6
CONTINUOUS
 10
152.2886273064
 20
78.3727385431
 40
2.5499986575
100
AcDbArc
 50
87.7525288936
 51
272.2474707905
  0
ARC
  5
53C
100
AcDbEntity
  8
ASSI
100
AcDbCircle
 62
7
  6
CONTINUOUS
 10
147.9035173064
 20
78.3727385431
 40
2.5499985399
100
AcDbArc
 50
87.7525290943
 51
272.2474708938
  0
ARC
  5
53D
100
AcDbEntity
  8
ASSI
100
AcDbCircle
 62
7
  6
CONTINUOUS
 10
147.7917143064
 20
79.3266455431
 40
2.3390187052
100
AcDbArc
 50
47.2312712626
 51
84.201287189
  0
ARC
  5
53E
100
AcDbEntity
  8
ASSI
100
AcDbCircle
 62
7
  6
CONTINUOUS
 10
147.9757933064
 20
79.7055145431
 40
2.3109495123
100
AcDbArc
 50
45.4348886633
 51
67.5658626497
  0
CIRCLE
  5
53F
100
AcDbEntity
  8
ASSI
100
AcDbCircle
 62
7
  6
CONTINUOUS
 10
147.8710713064
 20
84.2727385431
 40
2.20376
  0
ARC
  5
540
100
AcDbEntity
  8
ASSI
100
AcDbCircle
 62
7
  6
CONTINUOUS
 10
147.8710713064
 20
84.2727385431
 40
1.9709567246
100
AcDbArc
 50
299.3041457634
 51
44.9957848435
  0
ARC
  5
541
100
AcDbEntity
  8
ASSI
100
AcDbCircle
 62
7
  6
CONTINUOUS
 10
147.8710713064
 20
84.2727385431
 40
1.9709563643
100
AcDbArc
 50
134.9002846268
 51
240.6958542366
  0
ARC
  5
542
100
AcDbEntity
  8
ASSI
100
AcDbCircle
 62
7
  6
CONTINUOUS
 10
152.2886273064
 20
78.3727385431
 40
1.7999999246
100
AcDbArc
 50
86.8152613297
 51
167.9752997714
  0
ARC
  5
543
100
AcDbEntity
  8
ASSI
100
AcDbCircle
 62
7
  6
CONTINUOUS
 10
147.9035173064
 20
78.3727385431
 40
1.7999999246
100
AcDbArc
 50
86.8152613297
 51
273.1847386458
  0
ARC
  5
544
100
AcDbEntity
  8
ASSI
100
AcDbCircle
 62
7
  6
CONTINUOUS
 10
152.2886273064
 20
78.3727385431
 40
1.7999968808
100
AcDbArc
 50
192.0247203293
 51
273.1847447554
  0
ARC
  5
545
100
AcDbEntity
  8
ASSI
100
AcDbCircle
 62
7
  6
CONTINUOUS
 10
147.8710713064
 20
84.2727385431
 40
1.5790921275
100
AcDbArc
 50
148.0267086216
 51
240.6958772397
  0
ARC
  5
546
100
AcDbEntity
  8
ASSI
100
AcDbCircle
 62
7
  6
CONTINUOUS
 10
147.8710713064
 20
84.2727385431
 40
1.5790919977
100
AcDbArc
 50
299.3041227603
 51
31.9732906905
  0
ARC
  5
547
100
AcDbEntity
  8
ASSI
100
AcDbCircle
 62
7
  6
CONTINUOUS
 10
161.7710713064
 20
113.0727385431
 40
0.5
100
AcDbArc
 50
0.0
 51
30.1070311683
  0
ARC
  5
548
100
AcDbEntity
  8
ASSI
100
AcDbCircle
 62
7
  6
CONTINUOUS
 10
161.7710713064
 20
112.0727385431
 40
0.5
100
AcDbArc
 50
329.8929688317
 51
360.0
  0
ARC
  5
549
100
AcDbEntity
  8
ASSI
100
AcDbCircle
 62
7
  6
CONTINUOUS
 10
161.7710713064
 20
79.0727385431
 40
0.5
100
AcDbArc
 50
0.0
 51
30.1070311683
  0
ARC
  5
54A
100
AcDbEntity
  8
ASSI
100
AcDbCircle
 62
7
  6
CONTINUOUS
 10
161.7710713064
 20
78.0727385431
 40
0.5
100
AcDbArc
 50
329.8929688317
 51
360.0
  0
ARC
  5
54B
100
AcDbEntity
  8
ASSI
100
AcDbCircle
 62
7
  6
CONTINUOUS
 10
140.3710713064
 20
78.0727385431
 40
0.5
100
AcDbArc
 50
180.0
 51
210.1070311683
  0
ARC
  5
54C
100
AcDbEntity
  8
ASSI
100
AcDbCircle
 62
7
  6
CONTINUOUS
 10
140.3710713064
 20
79.0727385431
 40
0.5
100
AcDbArc
 50
149.8929688317
 51
180.0
  0
ARC
  5
54D
100
AcDbEntity
  8
ASSI
100
AcDbCircle
 62
7
  6
CONTINUOUS
 10
140.3710713064
 20
112.0727385431
 40
0.5
100
AcDbArc
 50
180.0
 51
210.1070311683
  0
ARC
  5
54E
100
AcDbEntity
  8
ASSI
100
AcDbCircle
 62
7
  6
CONTINUOUS
 10
140.3710713064
 20
113.0727385431
 40
0.5
100
AcDbArc
 50
149.8929688317
 51
180.0
  0
ARC
  5
54F
100
AcDbEntity
  8
DRAFT
100
AcDbCircle
 62
7
  6
CONTINUOUS
 10
147.0210713064
 20
72.4227385431
 40
0.5
100
AcDbArc
 50
131.9974077336
 51
228.0025922664
  0
ARC
  5
550
100
AcDbEntity
  8
DRAFT
100
AcDbCircle
 62
7
  6
CONTINUOUS
 10
147.0210713064
 20
118.7227385431
 40
0.5
100
AcDbArc
 50
131.9974077336
 51
228.0025922664
  0
ARC
  5
551
100
AcDbEntity
  8
DRAFT
100
AcDbCircle
 62
7
  6
CONTINUOUS
 10
155.1210713064
 20
72.4227385431
 40
0.5
100
AcDbArc
 50
311.9974077336
 51
48.0025922664
  0
ARC
  5
552
100
AcDbEntity
  8
DRAFT
100
AcDbCircle
 62
7
  6
CONTINUOUS
 10
155.1210713064
 20
118.7227385431
 40
0.5
100
AcDbArc
 50
311.9974077336
 51
48.0025922664
  0
ELLIPSE
  5
553
100
AcDbEntity
  8
RACCORDO
100
AcDbEllipse
 62
7
  6
CONTINUOUS
 10
158.1210408408
 20
118.1727690087
 30
0.0
 11
0.1414644378
 21
-0.1414644378
 31
0.0
 40
0.9996954599
 41
-0.7852458623
 42
0.7852458701
  0
ELLIPSE
  5
554
100
AcDbEntity
  8
RACCORDO
100
AcDbEllipse
 62
7
  6
CONTINUOUS
 10
161.421101772
 20
118.1727690087
 30
0.0
 11
0.1414644378
 21
0.1414644378
 31
0.0
 40
0.9996954599
 41
-3.9268385237
 42
-2.3563467912
  0
ELLIPSE
  5
555
100
AcDbEntity
  8
RACCORDO
100
AcDbEllipse
 62
7
  6
CONTINUOUS
 10
144.021101772
 20
118.1727690087
 30
0.0
 11
0.1414644378
 21
0.1414644378
 31
0.0
 40
0.9996954599
 41
-3.9268385237
 42
-2.3563467912
  0
ELLIPSE
  5
556
100
AcDbEntity
  8
RACCORDO
100
AcDbEllipse
 62
7
  6
CONTINUOUS
 10
140.7210408408
 20
118.1727690087
 30
0.0
 11
0.1414644378
 21
-0.1414644378
 31
0.0
 40
0.9996954599
 41
-0.7852458623
 42
0.7852458701
  0
ELLIPSE
  5
557
100
AcDbEntity
  8
RACCORDO
100
AcDbEllipse
 62
7
  6
CONTINUOUS
 10
158.1210408408
 20
72.9727080775
 30
0.0
 11
0.1414644378
 21
0.1414644378
 31
0.0
 40
0.9996954599
 41
-0.7852458701
 42
0.7852458623
  0
ELLIPSE
  5
558
100
AcDbEntity
  8
RACCORDO
100
AcDbEllipse
 62
7
  6
CONTINUOUS
 10
161.421101772
 20
72.9727080775
 30
0.0
 11
-0.1414644378
 21
0.1414644378
 31
0.0
 40
0.9996954599
 41
-0.7852458623
 42
0.7852458701
  0
ELLIPSE
  5
559
100
AcDbEntity
  8
RACCORDO
100
AcDbEllipse
 62
7
  6
CONTINUOUS
 10
144.021101772
 20
72.9727080775
 30
0.0
 11
-0.1414644378
 21
0.1414644378
 31
0.0
 40
0.9996954599
 41
-0.7852458623
 42
0.7852458701
  0
ELLIPSE
  5
55A
100
AcDbEntity
  8
RACCORDO
100
AcDbEllipse
 62
7
  6
CONTINUOUS
 10
140.7210408408
 20
72.9727080775
 30
0.0
 11
0.1414644378
 21
0.1414644378
 31
0.0
 40
0.9996954599
 41
-0.7852458701
 42
0.7852458623
  0
ELLIPSE
  5
55B
100
AcDbEntity
  8
RACCORDO
100
AcDbEllipse
 62
7
  6
CONTINUOUS
 10
152.3385644534
 20
71.8314749305
 30
0.0
 11
0.2236527791
 21
0.1118178731
 31
0.0
 40
0.9998096356
 41
2.6780516535
 42
4.2486956813
  0
ELLIPSE
  5
55C
100
AcDbEntity
  8
RACCORDO
100
AcDbEllipse
 62
7
  6
CONTINUOUS
 10
149.8035781595
 20
71.8314749305
 30
0.0
 11
0.2236527791
 21
-0.1118178731
 31
0.0
 40
0.9998096356
 41
-1.1071030277
 42
0.4635410001
  0
ELLIPSE
  5
55D
100
AcDbEntity
  8
RACCORDO
100
AcDbEllipse
 62
7
  6
CONTINUOUS
 10
140.4386025354
 20
73.690269772
 30
0.0
 11
0.3536610946
 21
0.3536610946
 31
0.0
 40
0.9996954599
 41
2.3563467834
 42
3.9268385237
  0
ELLIPSE
  5
55E
100
AcDbEntity
  8
RACCORDO
100
AcDbEllipse
 62
7
  6
CONTINUOUS
 10
161.7035400775
 20
117.4552073141
 30
0.0
 11
-0.3536610946
 21
-0.3536610946
 31
0.0
 40
0.9996954599
 41
2.3563467834
 42
3.9268385237
  0
ELLIPSE
  5
55F
100
AcDbEntity
  8
RACCORDO
100
AcDbEllipse
 62
7
  6
CONTINUOUS
 10
161.7035400775
 20
73.690269772
 30
0.0
 11
0.3536610946
 21
-0.3536610946
 31
0.0
 40
0.9996954599
 41
-0.7852458701
 42
0.7852458701
  0
ELLIPSE
  5
560
100
AcDbEntity
  8
RACCORDO
100
AcDbEllipse
 62
7
  6
CONTINUOUS
 10
149.8035781595
 20
119.3140021557
 30
0.0
 11
-0.2236527791
 21
-0.1118178731
 31
0.0
 40
0.9998096356
 41
2.6780516535
 42
4.2486956813
  0
ELLIPSE
  5
561
100
AcDbEntity
  8
RACCORDO
100
AcDbEllipse
 62
7
  6
CONTINUOUS
 10
157.3475011477
 20
75.5463010861
 30
0.0
 11
0.2
 21
-0.0
 31
0.0
 40
0.0087268678
 41
0.0087266463
 42
1.5707963268
  0
ELLIPSE
  5
562
100
AcDbEntity
  8
RACCORDO
100
AcDbEllipse
 62
7
  6
CONTINUOUS
 10
144.7946414651
 20
75.5463010861
 30
0.0
 11
0.2
 21
0.0
 31
0.0
 40
0.0087268678
 41
1.5707963268
 42
3.1328660073
  0
ELLIPSE
  5
563
100
AcDbEntity
  8
RACCORDO
100
AcDbEllipse
 62
7
  6
CONTINUOUS
 10
152.3385644534
 20
119.3140021557
 30
0.0
 11
-0.2236527791
 21
0.1118178731
 31
0.0
 40
0.9998096356
 41
-1.1071030277
 42
0.4635410001
  0
ELLIPSE
  5
564
100
AcDbEntity
  8
RACCORDO
100
AcDbEllipse
 62
7
  6
CONTINUOUS
 10
144.7946414651
 20
115.5991760001
 30
0.0
 11
0.2
 21
0.0
 31
0.0
 40
0.0087268678
 41
-3.1328660073
 42
-1.5707963268
  0
ELLIPSE
  5
565
100
AcDbEntity
  8
RACCORDO
100
AcDbEllipse
 62
7
  6
CONTINUOUS
 10
157.3475011477
 20
115.5991760001
 30
0.0
 11
0.2
 21
-0.0
 31
0.0
 40
0.0087268678
 41
-1.5707963268
 42
-0.0087266463
  0
ELLIPSE
  5
566
100
AcDbEntity
  8
RACCORDO
100
AcDbEllipse
 62
7
  6
CONTINUOUS
 10
140.4386025354
 20
117.4552073141
 30
0.0
 11
-0.3536610946
 21
0.3536610946
 31
0.0
 40
0.9996954599
 41
-0.7852458701
 42
0.7852458701
  0
ELLIPSE
  5
567
100
AcDbEntity
  8
RACCORDO
100
AcDbEllipse
 62
7
  6
CONTINUOUS
 10
155.0130841134
 20
117.8408133859
 30
0.0
 11
0.4420128069
 21
0.0
 31
0.0
 40
0.0174550649
 41
-3.1415926536
 42
-0.0087266463
  0
ELLIPSE
  5
568
100
AcDbEntity
  8
RACCORDO
100
AcDbEllipse
 62
7
  6
CONTINUOUS
 10
147.1290584995
 20
117.8408133859
 30
0.0
 11
0.4420128069
 21
0.0
 31
0.0
 40
0.0174550649
 41
-3.1328660073
 42
0.0
  0
ELLIPSE
  5
569
100
AcDbEntity
  8
RACCORDO
100
AcDbEllipse
 62
7
  6
CONTINUOUS
 10
147.1290584995
 20
73.3046637003
 30
0.0
 11
0.4420128069
 21
0.0
 31
0.0
 40
0.0174550649
 41
0.0
 42
3.1328660073
  0
ELLIPSE
  5
56A
100
AcDbEntity
  8
RACCORDO
100
AcDbEllipse
 62
7
  6
CONTINUOUS
 10
155.0130841134
 20
73.3046637003
 30
0.0
 11
0.4420128069
 21
-0.0
 31
0.0
 40
0.0174550649
 41
0.0087266463
 42
3.1415926536
  0
ELLIPSE
  5
56B
100
AcDbEntity
  8
RACCORDO
100
AcDbEllipse
 62
7
  6
CONTINUOUS
 10
143.5710332244
 20
72.1614136777
 30
0.0
 11
0.0087245432
 21
0.2885762605
 31
0.0
 40
0.8659264732
 41
-1.5358963784
 42
0.026173628
  0
ELLIPSE
  5
56C
100
AcDbEntity
  8
RACCORDO
100
AcDbEllipse
 62
7
  6
CONTINUOUS
 10
141.1711093884
 20
72.1614136777
 30
0.0
 11
-0.0087245432
 21
0.2885762605
 31
0.0
 40
0.8659264732
 41
-0.026173628
 42
1.5358963784
  0
ELLIPSE
  5
56D
100
AcDbEntity
  8
RACCORDO
100
AcDbEllipse
 62
7
  6
CONTINUOUS
 10
158.5711093884
 20
72.1614136777
 30
0.0
 11
-0.0087245432
 21
0.2885762605
 31
0.0
 40
0.8659264732
 41
-0.026173628
 42
1.5358963784
  0
ELLIPSE
  5
56E
100
AcDbEntity
  8
RACCORDO
100
AcDbEllipse
 62
7
  6
CONTINUOUS
 10
160.9710332244
 20
72.1614136777
 30
0.0
 11
0.0087245432
 21
0.2885762605
 31
0.0
 40
0.8659264732
 41
-1.5358963784
 42
0.026173628
  0
ELLIPSE
  5
56F
100
AcDbEntity
  8
RACCORDO
100
AcDbEllipse
 62
7
  6
CONTINUOUS
 10
141.1711093884
 20
118.9840634085
 30
0.0
 11
0.0087245432
 21
0.2885762605
 31
0.0
 40
0.8659264732
 41
-4.677489032
 42
-3.1154190256
  0
ELLIPSE
  5
570
100
AcDbEntity
  8
RACCORDO
100
AcDbEllipse
 62
7
  6
CONTINUOUS
 10
143.5710332244
 20
118.9840634085
 30
0.0
 11
-0.0087245432
 21
0.2885762605
 31
0.0
 40
0.8659264732
 41
-3.1677662815
 42
-1.6056962752
  0
ELLIPSE
  5
571
100
AcDbEntity
  8
RACCORDO
100
AcDbEllipse
 62
7
  6
CONTINUOUS
 10
158.5711093884
 20
118.9840634085
 30
0.0
 11
0.0087245432
 21
0.2885762605
 31
0.0
 40
0.8659264732
 41
-4.677489032
 42
-3.1154190256
  0
ELLIPSE
  5
572
100
AcDbEntity
  8
RACCORDO
100
AcDbEllipse
 62
7
  6
CONTINUOUS
 10
160.9710332244
 20
118.9840634085
 30
0.0
 11
-0.0087245432
 21
0.2885762605
 31
0.0
 40
0.8659264732
 41
-3.1677662815
 42
-1.6056962752
  0
ELLIPSE
  5
573
100
AcDbEntity
  8
RACCORDO
100
AcDbEllipse
 62
7
  6
CONTINUOUS
 10
154.2456219557
 20
116.7805805008
 30
0.0
 11
-0.0
 21
1.0
 31
0.0
 40
0.0174550649
 41
-1.5707963268
 42
-0.0174532925
  0
ELLIPSE
  5
574
100
AcDbEntity
  8
RACCORDO
100
AcDbEllipse
 62
7
  6
CONTINUOUS
 10
154.2456219557
 20
74.3648965853
 30
0.0
 11
-0.0
 21
1.0
 31
0.0
 40
0.0174550649
 41
-3.1241393611
 42
-1.5707963268
  0
ELLIPSE
  5
575
100
AcDbEntity
  8
RACCORDO
100
AcDbEllipse
 62
7
  6
CONTINUOUS
 10
147.8965206571
 20
116.7805805008
 30
0.0
 11
-0.0
 21
1.0
 31
0.0
 40
0.0174550649
 41
0.0174532925
 42
1.5707963268
  0
ELLIPSE
  5
576
100
AcDbEntity
  8
RACCORDO
100
AcDbEllipse
 62
7
  6
CONTINUOUS
 10
147.8965206571
 20
74.3648965853
 30
0.0
 11
-0.0
 21
1.0
 31
0.0
 40
0.0174550649
 41
-4.7123889804
 42
-3.1590459461
  0
ELLIPSE
  5
577
100
AcDbEntity
  8
RACCORDO
100
AcDbEllipse
 62
7
  6
CONTINUOUS
 10
143.4127224574
 20
74.5811064313
 30
0.0
 11
0.5
 21
-0.0
 31
0.0
 40
0.0087268678
 41
-3.1328660073
 42
-1.5707963268
  0
ELLIPSE
  5
578
100
AcDbEntity
  8
RACCORDO
100
AcDbEllipse
 62
7
  6
CONTINUOUS
 10
143.4127224574
 20
116.5643706549
 30
0.0
 11
0.5
 21
-0.0
 31
0.0
 40
0.0087268678
 41
1.5707963268
 42
3.1328660073
  0
ELLIPSE
  5
579
100
AcDbEntity
  8
RACCORDO
100
AcDbEllipse
 62
7
  6
CONTINUOUS
 10
158.7294201554
 20
74.5811064313
 30
0.0
 11
0.5
 21
-0.0
 31
0.0
 40
0.0087268678
 41
-1.5707963268
 42
-0.0087266463
  0
ELLIPSE
  5
57A
100
AcDbEntity
  8
RACCORDO
100
AcDbEllipse
 62
7
  6
CONTINUOUS
 10
158.7294201554
 20
116.5643706549
 30
0.0
 11
0.5
 21
0.0
 31
0.0
 40
0.0087268678
 41
0.0087266463
 42
1.5707963268
  0
ENDSEC
  0
SECTION
  2
OBJECTS
  0
DICTIONARY
  5
C
100
AcDbDictionary
280
0
281
1
  3
ACAD_GROUP
350
D
  3
ACAD_MLINESTYLE
350
17
  3
ACAD_LAYOUT
350
1A
  3
ACAD_PLOTSETTINGS
350
19
  3
ACAD_PLOTSTYLENAME
350
E
  0
DICTIONARY
  5
D
102
{ACAD_REACTORS
330
C
102
}
100
AcDbDictionary
280
0
281
1
  0
ACDBDICTIONARYWDFLT
  5
E
102
{ACAD_REACTORS
330
C
102
}
100
AcDbDictionary
281
1
  3
Normal
350
F
100
AcDbDictionaryWithDefault
340
F
  0
DICTIONARY
  5
17
102
{ACAD_REACTORS
330
C
102
}
100
AcDbDictionary
280
0
281
1
  3
Standard
350
18
  0
DICTIONARY
  5
19
102
{ACAD_REACTORS
330
C
102
}
100
AcDbDictionary
281
1
  0
DICTIONARY
  5
1A
102
{ACAD_REACTORS
330
C
102
}
100
AcDbDictionary
281
1
  3
Model
350
57B
  3
Layout1
350
57C
  0
ACDBPLACEHOLDER
  5
F
102
{ACAD_REACTORS
330
E
102
}
  0
MLINESTYLE
  5
18
102
{ACAD_REACTORS
330
17
102
}
100
AcDbMlineStyle
  2
STANDARD
 70
0
  3

 62
256
 51
90.0
 52
90.0
 71
2
 49
0.5
 62
256
  6
BYLAYER
 49
-0.5
 62
256
  6
BYLAYER
  0
LAYOUT
  5
57B
102
{ACAD_REACTORS
330
1A
102
}
100
AcDbPlotSettings
  1

  2
none_device
  4
ISO_A4_(297.00_x_210.00_MM)
  6

 40
0.0
 41
0.0
 42
0.0
 43
0.0
 44
297.0
 45
210.0
 46
0.0
 47
0.0
 48
0.0
 49
0.0
140
0.0
141
0.0
142
1.0
143
1.0
 70
1024
 72
1
 73
0
 74
0
  7

 75
0
147
1.0
148
0.0
149
0.0
100
AcDbLayout
  1
Model
 70
0
 71
0
 10
0.0
 20
0.0
 11
297.0
 21
210.0
 12
0.0
 22
0.0
 32
0.0
 14
0.0
 24
0.0
 34
0.0
 15
0.0
 25
0.0
 35
0.0
146
0.0
 13
0.0
 23
0.0
 33
0.0
 16
1.0
 26
0.0
 36
0.0
 17
0.0
 27
1.0
 37
0.0
 76
0
330
212
345
0
346
0
  0
LAYOUT
  5
57C
102
{ACAD_REACTORS
330
1A
102
}
100
AcDbPlotSettings
  1

  2
none_device
  4
ISO_A4_(297.00_x_210.00_MM)
  6

 40
0.0
 41
0.0
 42
0.0
 43
0.0
 44
297.0
 45
210.0
 46
0.0
 47
0.0
 48
0.0
 49
0.0
140
0.0
141
0.0
142
1.0
143
1.0
 70
0
 72
1
 73
0
 74
0
  7

 75
0
147
1.0
148
0.0
149
0.0
100
AcDbLayout
  1
Layout1
 70
0
 71
1
 10
0.0
 20
0.0
 11
297.0
 21
210.0
 12
0.0
 22
0.0
 32
0.0
 14
0.0
 24
0.0
 34
0.0
 15
0.0
 25
0.0
 35
0.0
146
0.0
 13
0.0
 23
0.0
 33
0.0
 16
1.0
 26
0.0
 36
0.0
 17
0.0
 27
1.0
 37
0.0
 76
0
330
213
345
0
346
0
  0
ENDSEC
  0
EOF
