  0
SECTION
  2
HEADER
  9
$ACADVER
  1
AC1024
  9
$DWGCODEPAGE
  3
ANSI_1252
  9
$EXTMAX
 10
297.0
 20
210.0
 30
0.0
  9
$EXTMIN
 10
0.0
 20
0.0
 30
0.0
  9
$LIMMIN
 10
0.0
 20
0.0
  9
$LIMMAX
 10
297.0
 20
210.0
  9
$VIEWCTR
 10
148.5
 20
105.0
  9
$VIEWSIZE
 40
210.0
  9
$CLAYER
  8
0
  9
$LTSCALE
 40
16.335
  9
$CELTYPE
  6
BYLAYER
  9
$DIMSCALE
 40
1.0
  9
$DIMASZ
 40
3.0
  9
$DIMEXO
 40
0.5
  9
$DIMDLI
 40
11.286
  9
$DIMEXE
 40
1.5
  9
$DIMCEN
 40
2.673
  9
$DIMLFAC
 40
1.0
  9
$DIMBLK
  1
_FILLED
  9
$DIMALT
 70
0
  9
$DIMALTF
 40
0.0393700787
  9
$DIMTXT
 40
3.0
  9
$DIMTOL
 70
1
  9
$DIMLIM
 70
0
  9
$DIMTFAC
 40
1.0
  9
$DIMTP
 40
0.01
  9
$DIMTM
 40
0.01
  9
$DIMGAP
 40
0.625
  9
$DIMDSEP
 70
44
  9
$AUNITS
 70
0
  9
$PDMODE
 70
3
  9
$PDSIZE
 40
3.0
  9
$HANDSEED
  5
85D
  9
$TILEMODE
 70
1
  9
$MEASUREMENT
 70
1
  9
$INSUNITS
 70
4
  0
ENDSEC
  0
SECTION
  2
CLASSES
  0
CLASS
  1
ACDBDICTIONARYWDFLT
  2
AcDbDictionaryWithDefault
  3
AutoCAD 2000
 90
0
 91
1
280
0
281
0
  0
CLASS
  1
ACDBPLACEHOLDER
  2
AcDbPlaceHolder
  3
AutoCAD 2000
 90
0
 91
1
280
0
281
0
  0
CLASS
  1
LAYOUT
  2
AcDbLayout
  3
AutoCAD 2000
 90
0
 91
0
280
0
281
0
  0
ENDSEC
  0
SECTION
  2
TABLES
  0
TABLE
  2
VPORT
  5
8
100
AcDbSymbolTable
 70
2
  0
VPORT
  5
1F4
100
AcDbSymbolTableRecord
100
AcDbViewportTableRecord
  2
*ACTIVE
 70
0
 10
0.0
 20
0.0
 11
1.0
 21
1.0
 12
148.5
 22
105.0
 13
0.0
 23
0.0
 14
1.0
 24
1.0
 15
0.0
 25
0.0
 16
0.0
 26
0.0
 36
1.0
 17
0.0
 27
0.0
 37
0.0
 40
210.0
 41
1.4142857143
 42
50.0
 43
0.0
 44
0.0
 50
0.0
 51
0.0
 71
0
 72
100
 73
1
 74
1
 75
0
 76
0
 77
0
 78
0
  0
ENDTAB
  0
TABLE
  2
LTYPE
  5
5
100
AcDbSymbolTable
 70
6
  0
LTYPE
  5
14
100
AcDbSymbolTableRecord
100
AcDbLinetypeTableRecord
  2
BYBLOCK
 70
0
  3

 72
65
 73
0
 40
0.0
  0
LTYPE
  5
15
100
AcDbSymbolTableRecord
100
AcDbLinetypeTableRecord
  2
BYLAYER
 70
0
  3

 72
65
 73
0
 40
0.0
  0
LTYPE
  5
16
100
AcDbSymbolTableRecord
100
AcDbLinetypeTableRecord
  2
CONTINUOUS
 70
64
  3
Solid line
 72
65
 73
0
 40
0.0
  0
LTYPE
  5
1F5
100
AcDbSymbolTableRecord
100
AcDbLinetypeTableRecord
  2
CENTER
 70
64
  3
____ _ ____ _ ____ _ ____ _ ____ _ ____ _ ____
 72
65
 73
4
 40
0.6
 49
0.375
 74
0
 49
-0.075
 74
0
 49
0.075
 74
0
 49
-0.075
 74
0
  0
LTYPE
  5
1F6
100
AcDbSymbolTableRecord
100
AcDbLinetypeTableRecord
  2
HIDDEN
 70
64
  3
- - - - - - - - - - - - - - - - - - - -
 72
65
 73
2
 40
0.2
 49
0.1
 74
0
 49
-0.1
 74
0
  0
LTYPE
  5
1F7
100
AcDbSymbolTableRecord
100
AcDbLinetypeTableRecord
  2
PHANTOM
 70
64
  3
_____ _ _ _____ _ _ _____ _ _ _____
 72
65
 73
6
 40
0.8
 49
0.45
 74
0
 49
-0.05
 74
0
 49
0.1
 74
0
 49
-0.05
 74
0
 49
0.1
 74
0
 49
-0.05
 74
0
  0
LTYPE
  5
1F8
100
AcDbSymbolTableRecord
100
AcDbLinetypeTableRecord
  2
DOT
 70
64
  3
. . . . . . . . . . . . . . . . . . . .
 72
65
 73
2
 40
0.2
 49
0.1
 74
0
 49
-0.1
 74
0
  0
LTYPE
  5
1F9
100
AcDbSymbolTableRecord
100
AcDbLinetypeTableRecord
  2
DASHED
 70
64
  3
- - - - - - - - - - - - - - - - - - - -
 72
65
 73
2
 40
0.2
 49
0.1
 74
0
 49
-0.1
 74
0
  0
ENDTAB
  0
TABLE
  2
LAYER
  5
2
100
AcDbSymbolTable
 70
36
  0
LAYER
  5
10
100
AcDbSymbolTableRecord
100
AcDbLayerTableRecord
  2
0
 70
0
 62
7
  6
CONTINUOUS
370
-3
390
F
  0
LAYER
  5
1FA
100
AcDbSymbolTableRecord
100
AcDbLayerTableRecord
  2
DEFAULT_1
 70
0
 62
7
  6
CENTER
370
-3
390
F
  0
LAYER
  5
1FB
100
AcDbSymbolTableRecord
100
AcDbLayerTableRecord
  2
DEFAULT_2
 70
0
 62
7
  6
HIDDEN
370
-3
390
F
  0
LAYER
  5
1FC
100
AcDbSymbolTableRecord
100
AcDbLayerTableRecord
  2
DEFAULT_3
 70
0
 62
7
  6
PHANTOM
370
-3
390
F
  0
LAYER
  5
1FD
100
AcDbSymbolTableRecord
100
AcDbLayerTableRecord
  2
ASSI
 70
0
 62
7
  6
CONTINUOUS
370
-3
390
F
  0
LAYER
  5
1FE
100
AcDbSymbolTableRecord
100
AcDbLayerTableRecord
  2
COLOR6
 70
0
 62
7
  6
CONTINUOUS
370
-3
390
F
  0
LAYER
  5
1FF
100
AcDbSymbolTableRecord
100
AcDbLayerTableRecord
  2
COORDINATE
 70
0
 62
7
  6
CONTINUOUS
370
-3
390
F
  0
LAYER
  5
200
100
AcDbSymbolTableRecord
100
AcDbLayerTableRecord
  2
COORD_ORIGINE
 70
0
 62
7
  6
CONTINUOUS
370
-3
390
F
  0
LAYER
  5
201
100
AcDbSymbolTableRecord
100
AcDbLayerTableRecord
  2
COPY_PUBLISH
 70
0
 62
7
  6
CONTINUOUS
370
-3
390
F
  0
LAYER
  5
202
100
AcDbSymbolTableRecord
100
AcDbLayerTableRecord
  2
COSMETIC
 70
0
 62
7
  6
CONTINUOUS
370
-3
390
F
  0
LAYER
  5
203
100
AcDbSymbolTableRecord
100
AcDbLayerTableRecord
  2
COSMETICI
 70
0
 62
7
  6
CONTINUOUS
370
-3
390
F
  0
LAYER
  5
204
100
AcDbSymbolTableRecord
100
AcDbLayerTableRecord
  2
CURVE
 70
0
 62
7
  6
CONTINUOUS
370
-3
390
F
  0
LAYER
  5
205
100
AcDbSymbolTableRecord
100
AcDbLayerTableRecord
  2
DRAFT
 70
0
 62
7
  6
CONTINUOUS
370
-3
390
F
  0
LAYER
  5
206
100
AcDbSymbolTableRecord
100
AcDbLayerTableRecord
  2
IMPORT_IGES
 70
0
 62
7
  6
CONTINUOUS
370
-3
390
F
  0
LAYER
  5
207
100
AcDbSymbolTableRecord
100
AcDbLayerTableRecord
  2
INTFCLR_2
 70
0
 62
7
  6
CONTINUOUS
370
-3
390
F
  0
LAYER
  5
208
100
AcDbSymbolTableRecord
100
AcDbLayerTableRecord
  2
INTF_14
 70
0
 62
7
  6
CONTINUOUS
370
-3
390
F
  0
LAYER
  5
209
100
AcDbSymbolTableRecord
100
AcDbLayerTableRecord
  2
LINEA_CHIUSURA
 70
0
 62
7
  6
CONTINUOUS
370
-3
390
F
  0
LAYER
  5
20A
100
AcDbSymbolTableRecord
100
AcDbLayerTableRecord
  2
NOTE
 70
0
 62
7
  6
CONTINUOUS
370
-3
390
F
  0
LAYER
  5
20B
100
AcDbSymbolTableRecord
100
AcDbLayerTableRecord
  2
PIANI
 70
0
 62
7
  6
CONTINUOUS
370
-3
390
F
  0
LAYER
  5
20C
100
AcDbSymbolTableRecord
100
AcDbLayerTableRecord
  2
PIANI_ORIGINE
 70
0
 62
7
  6
CONTINUOUS
370
-3
390
F
  0
LAYER
  5
20D
100
AcDbSymbolTableRecord
100
AcDbLayerTableRecord
  2
PUNTI
 70
0
 62
7
  6
CONTINUOUS
370
-3
390
F
  0
LAYER
  5
20E
100
AcDbSymbolTableRecord
100
AcDbLayerTableRecord
  2
RACCORDO
 70
0
 62
7
  6
CONTINUOUS
370
-3
390
F
  0
LAYER
  5
20F
100
AcDbSymbolTableRecord
100
AcDbLayerTableRecord
  2
SIMBOLI
 70
0
 62
7
  6
CONTINUOUS
370
-3
390
F
  0
LAYER
  5
210
100
AcDbSymbolTableRecord
100
AcDbLayerTableRecord
  2
SMUSSO
 70
0
 62
7
  6
CONTINUOUS
370
-3
390
F
  0
LAYER
  5
211
100
AcDbSymbolTableRecord
100
AcDbLayerTableRecord
  2
SNAPLINE
 70
0
 62
7
  6
CONTINUOUS
370
-3
390
F
  0
LAYER
  5
212
100
AcDbSymbolTableRecord
100
AcDbLayerTableRecord
  2
SUPERFICI
 70
0
 62
7
  6
CONTINUOUS
370
-3
390
F
  0
LAYER
  5
213
100
AcDbSymbolTableRecord
100
AcDbLayerTableRecord
  2
TRASH
 70
0
 62
7
  6
CONTINUOUS
370
-3
390
F
  0
LAYER
  5
214
100
AcDbSymbolTableRecord
100
AcDbLayerTableRecord
  2
XSEC_DATUMS
 70
0
 62
7
  6
CONTINUOUS
370
-3
390
F
  0
LAYER
  5
215
100
AcDbSymbolTableRecord
100
AcDbLayerTableRecord
  2
___SHELL
 70
0
 62
7
  6
CONTINUOUS
370
-3
390
F
  0
ENDTAB
  0
TABLE
  2
STYLE
  5
3
100
AcDbSymbolTable
 70
1
  0
STYLE
  5
11
100
AcDbSymbolTableRecord
100
AcDbTextStyleTableRecord
  2
STANDARD
 70
0
 40
0.0
 41
0.8
 50
0.0
 71
0
 42
0.2
  3
txt
  4

  0
STYLE
  5
216
100
AcDbSymbolTableRecord
100
AcDbTextStyleTableRecord
  2
TEXTSTYLE_1
 70
0
 40
0.0
 41
0.8
 50
0.0
 71
0
 42
0.2
  3
gdt
  4

  0
ENDTAB
  0
TABLE
  2
VIEW
  5
6
100
AcDbSymbolTable
 70
0
  0
ENDTAB
  0
TABLE
  2
UCS
  5
7
100
AcDbSymbolTable
 70
0
  0
ENDTAB
  0
TABLE
  2
APPID
  5
9
100
AcDbSymbolTable
 70
1
  0
APPID
  5
217
100
AcDbSymbolTableRecord
100
AcDbRegAppTableRecord
  2
ACAD
 70
0
  0
ENDTAB
  0
TABLE
  2
BLOCK_RECORD
  5
1
100
AcDbSymbolTable
 70
0
  0
BLOCK_RECORD
  5
218
100
AcDbSymbolTableRecord
100
AcDbBlockTableRecord
  2
*Model_Space
  0
BLOCK_RECORD
  5
219
100
AcDbSymbolTableRecord
100
AcDbBlockTableRecord
  2
*Paper_Space
  0
BLOCK_RECORD
  5
21A
100
AcDbSymbolTableRecord
100
AcDbBlockTableRecord
  2
_FILLED
  0
ENDTAB
  0
TABLE
  2
DIMSTYLE
  5
A
100
AcDbSymbolTable
 70
1
100
AcDbDimStyleTable
 71
0
  0
DIMSTYLE
105
21B
100
AcDbSymbolTableRecord
100
AcDbDimStyleTableRecord
  2
STANDARD
 70
0
  3

  4

 40
1.0
 41
3.0
 42
0.5
 43
0.38
 44
1.5
 45
0.0
 46
0.0
 47
0.01
 48
0.01
140
3.0
141
0.09
142
0.0
143
25.4
144
1.0
145
0.0
146
1.0
147
0.625
 71
1.0
 72
0.0
 73
0
 74
0
 75
0
 76
0
 77
1
 78
8
 79
2
170
0
171
1
172
0
173
0
174
0
175
0
176
0
177
0
178
0
270
2
179
2
271
2
272
2
273
2
274
2
275
0
280
0
281
0
282
0
283
1
284
8
285
0
286
0
287
3
288
0
340
11
278
44
341
21A
342
21A
343
21A
344
21A
  0
ENDTAB
  0
ENDSEC
  0
SECTION
  2
BLOCKS
  0
BLOCK
  5
20
100
AcDbEntity
  8
0
100
AcDbBlockBegin
  2
*Model_Space
 70
0
 10
0.0
 20
0.0
 30
0.0
  3
*Model_Space
  1

  0
ENDBLK
  5
21
100
AcDbEntity
  8
0
100
AcDbBlockEnd
  0
BLOCK
  5
1C
100
AcDbEntity
  8
0
100
AcDbBlockBegin
  2
*Paper_Space
 70
0
 10
0.0
 20
0.0
 30
0.0
  3
*Paper_Space
  1

  0
ENDBLK
  5
1D
100
AcDbEntity
  8
0
100
AcDbBlockEnd
  0
BLOCK
  5
21C
100
AcDbEntity
  8
0
100
AcDbBlockBegin
  2
_FILLED
 70
64
 10
0.0
 20
0.0
  3
_FILLED
  1

  0
SOLID
  5
21D
100
AcDbEntity
  8
0
  6
BYBLOCK
 62
0
100
AcDbTrace
 10
0.0
 20
0.0
 11
-1.0
 21
0.3166666667
 12
-1.0
 22
-0.3166666667
 13
-1.0
 23
-0.3166666667
  0
ENDBLK
  5
21E
100
AcDbEntity
  8
0
  6
BYBLOCK
 62
0
100
AcDbBlockEnd
  0
ENDSEC
  0
SECTION
  2
ENTITIES
  0
LINE
  5
21F
100
AcDbEntity
  8
0
100
AcDbLine
 62
7
  6
CONTINUOUS
 10
-35.8304482034
 20
41.5066188281
 11
-35.9002684632
 21
41.4367985684
  0
LINE
  5
220
100
AcDbEntity
  8
0
100
AcDbLine
 62
7
  6
CONTINUOUS
 10
-41.8700887229
 20
35.4669783087
 11
-41.8002684632
 21
35.5367985684
  0
LINE
  5
221
100
AcDbEntity
  8
0
100
AcDbLine
 62
7
  6
CONTINUOUS
 10
-41.8700887229
 20
-35.3933811719
 11
-41.8002684632
 21
-35.4632014316
  0
LINE
  5
222
100
AcDbEntity
  8
0
100
AcDbLine
 62
7
  6
CONTINUOUS
 10
-35.8304482034
 20
-41.4330216913
 11
-35.9002684632
 21
-41.3632014316
  0
LINE
  5
223
100
AcDbEntity
  8
0
100
AcDbLine
 62
7
  6
CONTINUOUS
 10
-37.9450677502
 20
34.5448929942
 11
-37.9222553929
 21
34.5724132978
  0
LWPOLYLINE
  5
224
100
AcDbEntity
  8
0
100
AcDbPolyline
 62
7
  6
CONTINUOUS
 90
3
 70
0
 10
-37.9222553929
 20
34.5724132978
 10
-37.899351185
 20
34.5997950485
 10
-37.8936105795
 20
34.6066188281
  0
LINE
  5
225
100
AcDbEntity
  8
0
100
AcDbLine
 62
7
  6
CONTINUOUS
 10
-34.9427416254
 20
37.5530681859
 11
-34.9700887229
 21
37.5301406848
  0
LWPOLYLINE
  5
226
100
AcDbEntity
  8
0
100
AcDbPolyline
 62
7
  6
CONTINUOUS
 90
3
 70
0
 10
-34.908362889
 20
37.5815978555
 10
-34.915255951
 20
37.5759033075
 10
-34.9427416254
 20
37.5530681859
  0
LINE
  5
227
100
AcDbEntity
  8
0
100
AcDbLine
 62
7
  6
CONTINUOUS
 10
-34.908362889
 20
-37.5080007187
 11
-34.9358831925
 21
-37.4851883614
  0
LWPOLYLINE
  5
228
100
AcDbEntity
  8
0
100
AcDbPolyline
 62
7
  6
CONTINUOUS
 90
3
 70
0
 10
-34.9358831925
 20
-37.4851883614
 10
-34.9632649432
 20
-37.4622841534
 10
-34.9700887229
 20
-37.4565435479
  0
LINE
  5
229
100
AcDbEntity
  8
0
100
AcDbLine
 62
7
  6
CONTINUOUS
 10
-37.9165380806
 20
-34.5056745938
 11
-37.8936105795
 21
-34.5330216913
  0
LWPOLYLINE
  5
22A
100
AcDbEntity
  8
0
100
AcDbPolyline
 62
7
  6
CONTINUOUS
 90
3
 70
0
 10
-37.9450677502
 20
-34.4712958574
 10
-37.9393732023
 20
-34.4781889195
 10
-37.9165380806
 20
-34.5056745938
  0
LINE
  5
22B
100
AcDbEntity
  8
0
100
AcDbLine
 62
7
  6
CONTINUOUS
 10
-47.8002684632
 20
45.9367985684
 11
-47.8002684632
 21
-45.8632014316
  0
LINE
  5
22C
100
AcDbEntity
  8
0
100
AcDbLine
 62
7
  6
CONTINUOUS
 10
-32.8554691761
 20
35.5287041426
 11
-32.8782815334
 21
35.5011838391
  0
LWPOLYLINE
  5
22D
100
AcDbEntity
  8
0
100
AcDbPolyline
 62
7
  6
CONTINUOUS
 90
3
 70
0
 10
-32.8782815334
 20
35.5011838391
 10
-32.9011857413
 20
35.4738020884
 10
-32.9069263468
 20
35.4669783087
  0
LINE
  5
22E
100
AcDbEntity
  8
0
100
AcDbLine
 62
7
  6
CONTINUOUS
 10
-23.8304482034
 20
41.5066188281
 11
-23.9002684632
 21
41.4367985684
  0
LINE
  5
22F
100
AcDbEntity
  8
0
100
AcDbLine
 62
7
  6
CONTINUOUS
 10
-41.8700887229
 20
23.4669783087
 11
-41.8002684632
 21
23.5367985684
  0
LINE
  5
230
100
AcDbEntity
  8
0
100
AcDbLine
 62
7
  6
CONTINUOUS
 10
-35.857795301
 20
32.520528951
 11
-35.8304482034
 21
32.5434564521
  0
LWPOLYLINE
  5
231
100
AcDbEntity
  8
0
100
AcDbPolyline
 62
7
  6
CONTINUOUS
 90
3
 70
0
 10
-35.8921740373
 20
32.4919992813
 10
-35.8852809753
 20
32.4976938293
 10
-35.857795301
 20
32.520528951
  0
LINE
  5
232
100
AcDbEntity
  8
0
100
AcDbLine
 62
7
  6
CONTINUOUS
 10
-46.3002684632
 20
-47.3632014316
 11
45.4997315368
 21
-47.3632014316
  0
LINE
  5
233
100
AcDbEntity
  8
0
100
AcDbLine
 62
7
  6
CONTINUOUS
 10
-35.8921740373
 20
-32.4184021445
 11
-35.8646537338
 21
-32.4412145018
  0
LWPOLYLINE
  5
234
100
AcDbEntity
  8
0
100
AcDbPolyline
 62
7
  6
CONTINUOUS
 90
3
 70
0
 10
-35.8646537338
 20
-32.4412145018
 10
-35.8372719831
 20
-32.4641187097
 10
-35.8304482034
 20
-32.4698593152
  0
LINE
  5
235
100
AcDbEntity
  8
0
100
AcDbLine
 62
7
  6
CONTINUOUS
 10
-41.8700887229
 20
-23.3933811719
 11
-41.8002684632
 21
-23.4632014316
  0
LINE
  5
236
100
AcDbEntity
  8
0
100
AcDbLine
 62
7
  6
CONTINUOUS
 10
-23.8304482034
 20
-41.4330216913
 11
-23.9002684632
 21
-41.3632014316
  0
LINE
  5
237
100
AcDbEntity
  8
0
100
AcDbLine
 62
7
  6
CONTINUOUS
 10
-32.8839988457
 20
-35.4207282694
 11
-32.9069263468
 21
-35.3933811719
  0
LWPOLYLINE
  5
238
100
AcDbEntity
  8
0
100
AcDbPolyline
 62
7
  6
CONTINUOUS
 90
3
 70
0
 10
-32.8554691761
 20
-35.4551070058
 10
-32.861163724
 20
-35.4482139437
 10
-32.8839988457
 20
-35.4207282694
  0
LINE
  5
239
100
AcDbEntity
  8
0
100
AcDbLine
 62
7
  6
CONTINUOUS
 10
-41.8700887229
 20
-36.3632014316
 11
-41.8700887229
 21
-35.3933811719
  0
LINE
  5
23A
100
AcDbEntity
  8
0
100
AcDbLine
 62
7
  6
CONTINUOUS
 10
-41.8700887229
 20
-34.5330216913
 11
-41.8700887229
 21
-23.3933811719
  0
LINE
  5
23B
100
AcDbEntity
  8
0
100
AcDbLine
 62
7
  6
CONTINUOUS
 10
-41.8700887229
 20
-22.5330216913
 11
-41.8700887229
 21
-12.3933811719
  0
LINE
  5
23C
100
AcDbEntity
  8
0
100
AcDbLine
 62
7
  6
CONTINUOUS
 10
-41.8700887229
 20
-11.5330216913
 11
-41.8700887229
 21
-0.3933811719
  0
LINE
  5
23D
100
AcDbEntity
  8
0
100
AcDbLine
 62
7
  6
CONTINUOUS
 10
-41.8700887229
 20
0.4669783087
 11
-41.8700887229
 21
11.6066188281
  0
LINE
  5
23E
100
AcDbEntity
  8
0
100
AcDbLine
 62
7
  6
CONTINUOUS
 10
-41.8700887229
 20
12.4669783087
 11
-41.8700887229
 21
22.6066188281
  0
LINE
  5
23F
100
AcDbEntity
  8
0
100
AcDbLine
 62
7
  6
CONTINUOUS
 10
-41.8700887229
 20
23.4669783087
 11
-41.8700887229
 21
34.6066188281
  0
LINE
  5
240
100
AcDbEntity
  8
0
100
AcDbLine
 62
7
  6
CONTINUOUS
 10
-41.8700887229
 20
35.4669783087
 11
-41.8700887229
 21
36.4367985684
  0
LINE
  5
241
100
AcDbEntity
  8
0
100
AcDbLine
 62
7
  6
CONTINUOUS
 10
-41.8037594761
 20
22.5402895814
 11
-41.8037594761
 21
12.5333075554
  0
LINE
  5
242
100
AcDbEntity
  8
0
100
AcDbLine
 62
7
  6
CONTINUOUS
 10
-41.8037594761
 20
11.5402895814
 11
-41.8037594761
 21
0.5333075554
  0
LINE
  5
243
100
AcDbEntity
  8
0
100
AcDbLine
 62
7
  6
CONTINUOUS
 10
-41.8037594761
 20
-0.4597104186
 11
-41.8037594761
 21
-11.4666924446
  0
LINE
  5
244
100
AcDbEntity
  8
0
100
AcDbLine
 62
7
  6
CONTINUOUS
 10
-41.8037594761
 20
-12.4597104186
 11
-41.8037594761
 21
-22.4666924446
  0
LINE
  5
245
100
AcDbEntity
  8
0
100
AcDbLine
 62
7
  6
CONTINUOUS
 10
-41.8002684632
 20
-36.3632014316
 11
-41.8002684632
 21
-35.4632014316
  0
LINE
  5
246
100
AcDbEntity
  8
0
100
AcDbLine
 62
7
  6
CONTINUOUS
 10
-41.8002684632
 20
-34.4632014316
 11
-41.8002684632
 21
-23.4632014316
  0
LINE
  5
247
100
AcDbEntity
  8
0
100
AcDbLine
 62
7
  6
CONTINUOUS
 10
-41.8002684632
 20
23.5367985684
 11
-41.8002684632
 21
34.5367985684
  0
LINE
  5
248
100
AcDbEntity
  8
0
100
AcDbLine
 62
7
  6
CONTINUOUS
 10
-41.8002684632
 20
35.5367985684
 11
-41.8002684632
 21
36.4367985684
  0
LINE
  5
249
100
AcDbEntity
  8
0
100
AcDbLine
 62
7
  6
CONTINUOUS
 10
-22.9002684632
 20
35.5367985684
 11
-22.9700887229
 21
35.4669783087
  0
LINE
  5
24A
100
AcDbEntity
  8
0
100
AcDbLine
 62
7
  6
CONTINUOUS
 10
-34.9002684632
 20
23.5367985684
 11
-34.9700887229
 21
23.4669783087
  0
LINE
  5
24B
100
AcDbEntity
  8
0
100
AcDbLine
 62
7
  6
CONTINUOUS
 10
-35.8967774502
 20
22.5402895814
 11
-35.8304482034
 21
22.6066188281
  0
LINE
  5
24C
100
AcDbEntity
  8
0
100
AcDbLine
 62
7
  6
CONTINUOUS
 10
-23.9002684632
 20
34.5367985684
 11
-23.8304482034
 21
34.6066188281
  0
LINE
  5
24D
100
AcDbEntity
  8
0
100
AcDbLine
 62
7
  6
CONTINUOUS
 10
35.9997315368
 20
-41.4330216913
 11
35.0299112771
 21
-41.4330216913
  0
LINE
  5
24E
100
AcDbEntity
  8
0
100
AcDbLine
 62
7
  6
CONTINUOUS
 10
34.1695517966
 20
-41.4330216913
 11
23.0299112771
 21
-41.4330216913
  0
LINE
  5
24F
100
AcDbEntity
  8
0
100
AcDbLine
 62
7
  6
CONTINUOUS
 10
22.1695517966
 20
-41.4330216913
 11
12.0299112771
 21
-41.4330216913
  0
LINE
  5
250
100
AcDbEntity
  8
0
100
AcDbLine
 62
7
  6
CONTINUOUS
 10
11.1695517966
 20
-41.4330216913
 11
0.0299112771
 21
-41.4330216913
  0
LINE
  5
251
100
AcDbEntity
  8
0
100
AcDbLine
 62
7
  6
CONTINUOUS
 10
-0.8304482034
 20
-41.4330216913
 11
-11.9700887229
 21
-41.4330216913
  0
LINE
  5
252
100
AcDbEntity
  8
0
100
AcDbLine
 62
7
  6
CONTINUOUS
 10
-12.8304482034
 20
-41.4330216913
 11
-22.9700887229
 21
-41.4330216913
  0
LINE
  5
253
100
AcDbEntity
  8
0
100
AcDbLine
 62
7
  6
CONTINUOUS
 10
-23.8304482034
 20
-41.4330216913
 11
-34.9700887229
 21
-41.4330216913
  0
LINE
  5
254
100
AcDbEntity
  8
0
100
AcDbLine
 62
7
  6
CONTINUOUS
 10
-35.8304482034
 20
-41.4330216913
 11
-36.8002684632
 21
-41.4330216913
  0
LINE
  5
255
100
AcDbEntity
  8
0
100
AcDbLine
 62
7
  6
CONTINUOUS
 10
35.9997315368
 20
-41.3632014316
 11
35.0997315368
 21
-41.3632014316
  0
LINE
  5
256
100
AcDbEntity
  8
0
100
AcDbLine
 62
7
  6
CONTINUOUS
 10
34.0997315368
 20
-41.3632014316
 11
23.0997315368
 21
-41.3632014316
  0
LINE
  5
257
100
AcDbEntity
  8
0
100
AcDbLine
 62
7
  6
CONTINUOUS
 10
22.0997315368
 20
-41.3632014316
 11
12.0997315368
 21
-41.3632014316
  0
LINE
  5
258
100
AcDbEntity
  8
0
100
AcDbLine
 62
7
  6
CONTINUOUS
 10
11.0997315368
 20
-41.3632014316
 11
0.0997315368
 21
-41.3632014316
  0
LINE
  5
259
100
AcDbEntity
  8
0
100
AcDbLine
 62
7
  6
CONTINUOUS
 10
-0.9002684632
 20
-41.3632014316
 11
-11.9002684632
 21
-41.3632014316
  0
LINE
  5
25A
100
AcDbEntity
  8
0
100
AcDbLine
 62
7
  6
CONTINUOUS
 10
-12.9002684632
 20
-41.3632014316
 11
-22.9002684632
 21
-41.3632014316
  0
LINE
  5
25B
100
AcDbEntity
  8
0
100
AcDbLine
 62
7
  6
CONTINUOUS
 10
-23.9002684632
 20
-41.3632014316
 11
-34.9002684632
 21
-41.3632014316
  0
LINE
  5
25C
100
AcDbEntity
  8
0
100
AcDbLine
 62
7
  6
CONTINUOUS
 10
-35.9002684632
 20
-41.3632014316
 11
-36.8002684632
 21
-41.3632014316
  0
LINE
  5
25D
100
AcDbEntity
  8
0
100
AcDbLine
 62
7
  6
CONTINUOUS
 10
-35.8967774502
 20
-22.4666924446
 11
-35.8304482034
 21
-22.5330216913
  0
LINE
  5
25E
100
AcDbEntity
  8
0
100
AcDbLine
 62
7
  6
CONTINUOUS
 10
-23.9002684632
 20
-34.4632014316
 11
-23.8304482034
 21
-34.5330216913
  0
LINE
  5
25F
100
AcDbEntity
  8
0
100
AcDbLine
 62
7
  6
CONTINUOUS
 10
-22.9002684632
 20
-35.4632014316
 11
-22.9700887229
 21
-35.3933811719
  0
LINE
  5
260
100
AcDbEntity
  8
0
100
AcDbLine
 62
7
  6
CONTINUOUS
 10
-34.9002684632
 20
-23.4632014316
 11
-34.9700887229
 21
-23.3933811719
  0
LINE
  5
261
100
AcDbEntity
  8
0
100
AcDbLine
 62
7
  6
CONTINUOUS
 10
-35.8921740373
 20
-32.4184021445
 11
-35.9002684632
 21
-31.9487521028
  0
LINE
  5
262
100
AcDbEntity
  8
0
100
AcDbLine
 62
250
  6
CONTINUOUS
 10
-36.8002684632
 20
41.5066188281
 11
-36.8002684632
 21
41.4367985684
  0
LINE
  5
263
100
AcDbEntity
  8
0
100
AcDbLine
 62
250
  6
CONTINUOUS
 10
-36.8002684632
 20
-41.3632014316
 11
-36.8002684632
 21
-41.4330216913
  0
LINE
  5
264
100
AcDbEntity
  8
0
100
AcDbLine
 62
7
  6
CONTINUOUS
 10
-35.9002684632
 20
41.4367985684
 11
-35.9002684632
 21
38.0512478972
  0
LINE
  5
265
100
AcDbEntity
  8
0
100
AcDbLine
 62
7
  6
CONTINUOUS
 10
-35.9002684632
 20
32.0223492396
 11
-35.9002684632
 21
23.5367985684
  0
LINE
  5
266
100
AcDbEntity
  8
0
100
AcDbLine
 62
7
  6
CONTINUOUS
 10
-35.9002684632
 20
-41.3632014316
 11
-35.9002684632
 21
-37.9776507604
  0
LINE
  5
267
100
AcDbEntity
  8
0
100
AcDbLine
 62
7
  6
CONTINUOUS
 10
-35.9002684632
 20
-23.4632014316
 11
-35.9002684632
 21
-31.9487521028
  0
LINE
  5
268
100
AcDbEntity
  8
0
100
AcDbLine
 62
7
  6
CONTINUOUS
 10
-35.8967774502
 20
-12.4597104186
 11
-35.8967774502
 21
-22.4666924446
  0
LINE
  5
269
100
AcDbEntity
  8
0
100
AcDbLine
 62
7
  6
CONTINUOUS
 10
-35.8967774502
 20
12.5333075554
 11
-35.8967774502
 21
22.5402895814
  0
LINE
  5
26A
100
AcDbEntity
  8
0
100
AcDbLine
 62
7
  6
CONTINUOUS
 10
-35.8304482034
 20
41.5066188281
 11
-35.8304482034
 21
37.5301406848
  0
LINE
  5
26B
100
AcDbEntity
  8
0
100
AcDbLine
 62
7
  6
CONTINUOUS
 10
-35.8304482034
 20
32.5434564521
 11
-35.8304482034
 21
23.4669783087
  0
LINE
  5
26C
100
AcDbEntity
  8
0
100
AcDbLine
 62
7
  6
CONTINUOUS
 10
-35.8304482034
 20
22.6066188281
 11
-35.8304482034
 21
12.4669783087
  0
LINE
  5
26D
100
AcDbEntity
  8
0
100
AcDbLine
 62
7
  6
CONTINUOUS
 10
-35.8304482034
 20
-12.3933811719
 11
-35.8304482034
 21
-22.5330216913
  0
LINE
  5
26E
100
AcDbEntity
  8
0
100
AcDbLine
 62
7
  6
CONTINUOUS
 10
-35.8304482034
 20
-23.3933811719
 11
-35.8304482034
 21
-32.4698593152
  0
LINE
  5
26F
100
AcDbEntity
  8
0
100
AcDbLine
 62
7
  6
CONTINUOUS
 10
-35.8304482034
 20
-37.4565435479
 11
-35.8304482034
 21
-41.4330216913
  0
LINE
  5
270
100
AcDbEntity
  8
0
100
AcDbLine
 62
7
  6
CONTINUOUS
 10
-35.9002684632
 20
32.0223492396
 11
-35.8921740373
 21
32.4919992813
  0
LINE
  5
271
100
AcDbEntity
  8
0
100
AcDbLine
 62
7
  6
CONTINUOUS
 10
-35.9133569767
 20
11.5402895814
 11
-38.8626689216
 21
0.5333075554
  0
LINE
  5
272
100
AcDbEntity
  8
0
100
AcDbLine
 62
7
  6
CONTINUOUS
 10
-35.8269150194
 20
11.6066188281
 11
-38.8117727005
 21
0.4669783087
  0
LINE
  5
273
100
AcDbEntity
  8
0
100
AcDbLine
 62
7
  6
CONTINUOUS
 10
-37.9210630237
 20
0.4669783087
 11
-34.9362053425
 21
11.6066188281
  0
LINE
  5
274
100
AcDbEntity
  8
0
100
AcDbLine
 62
7
  6
CONTINUOUS
 10
-37.8346210664
 20
0.5333075554
 11
-34.8853091214
 21
11.5402895814
  0
LINE
  5
275
100
AcDbEntity
  8
0
100
AcDbLine
 62
7
  6
CONTINUOUS
 10
-12.8304482034
 20
41.5066188281
 11
-12.9002684632
 21
41.4367985684
  0
LINE
  5
276
100
AcDbEntity
  8
0
100
AcDbLine
 62
7
  6
CONTINUOUS
 10
-41.8700887229
 20
12.4669783087
 11
-41.8037594761
 21
12.5333075554
  0
LINE
  5
277
100
AcDbEntity
  8
0
100
AcDbLine
 62
7
  6
CONTINUOUS
 10
0.0997315368
 20
-38.4282806385
 11
11.0997315368
 21
-35.4808395218
  0
LINE
  5
278
100
AcDbEntity
  8
0
100
AcDbLine
 62
7
  6
CONTINUOUS
 10
0.0299112771
 20
-38.3747056689
 11
11.1695517966
 21
-35.3898479878
  0
LINE
  5
279
100
AcDbEntity
  8
0
100
AcDbLine
 62
7
  6
CONTINUOUS
 10
11.1695517966
 20
-34.499138311
 11
0.0299112771
 21
-37.4839959921
  0
LINE
  5
27A
100
AcDbEntity
  8
0
100
AcDbLine
 62
7
  6
CONTINUOUS
 10
11.0997315368
 20
-34.4455633414
 11
0.0997315368
 21
-37.3930044581
  0
LINE
  5
27B
100
AcDbEntity
  8
0
100
AcDbLine
 62
7
  6
CONTINUOUS
 10
32.0549322498
 20
-35.4551070058
 11
31.5852822081
 21
-35.4632014316
  0
LINE
  5
27C
100
AcDbEntity
  8
0
100
AcDbLine
 62
250
  6
CONTINUOUS
 10
40.9997315368
 20
-36.3632014316
 11
41.0695517966
 21
-36.3632014316
  0
LINE
  5
27D
100
AcDbEntity
  8
0
100
AcDbLine
 62
250
  6
CONTINUOUS
 10
-41.8002684632
 20
-36.3632014316
 11
-41.8700887229
 21
-36.3632014316
  0
LINE
  5
27E
100
AcDbEntity
  8
0
100
AcDbLine
 62
7
  6
CONTINUOUS
 10
-41.8002684632
 20
-35.4632014316
 11
-38.4147177919
 21
-35.4632014316
  0
LINE
  5
27F
100
AcDbEntity
  8
0
100
AcDbLine
 62
7
  6
CONTINUOUS
 10
40.9997315368
 20
-35.4632014316
 11
37.6141808656
 21
-35.4632014316
  0
LINE
  5
280
100
AcDbEntity
  8
0
100
AcDbLine
 62
7
  6
CONTINUOUS
 10
-32.3858191344
 20
-35.4632014316
 11
-23.9002684632
 21
-35.4632014316
  0
LINE
  5
281
100
AcDbEntity
  8
0
100
AcDbLine
 62
7
  6
CONTINUOUS
 10
-22.9002684632
 20
-35.4632014316
 11
-12.9002684632
 21
-35.4632014316
  0
LINE
  5
282
100
AcDbEntity
  8
0
100
AcDbLine
 62
7
  6
CONTINUOUS
 10
12.0997315368
 20
-35.4632014316
 11
22.0997315368
 21
-35.4632014316
  0
LINE
  5
283
100
AcDbEntity
  8
0
100
AcDbLine
 62
7
  6
CONTINUOUS
 10
23.0997315368
 20
-35.4632014316
 11
31.5852822081
 21
-35.4632014316
  0
LINE
  5
284
100
AcDbEntity
  8
0
100
AcDbLine
 62
7
  6
CONTINUOUS
 10
-41.8700887229
 20
-35.3933811719
 11
-37.8936105795
 21
-35.3933811719
  0
LINE
  5
285
100
AcDbEntity
  8
0
100
AcDbLine
 62
7
  6
CONTINUOUS
 10
-32.9069263468
 20
-35.3933811719
 11
-23.8304482034
 21
-35.3933811719
  0
LINE
  5
286
100
AcDbEntity
  8
0
100
AcDbLine
 62
7
  6
CONTINUOUS
 10
-22.9700887229
 20
-35.3933811719
 11
-12.8304482034
 21
-35.3933811719
  0
LINE
  5
287
100
AcDbEntity
  8
0
100
AcDbLine
 62
7
  6
CONTINUOUS
 10
12.0299112771
 20
-35.3933811719
 11
22.1695517966
 21
-35.3933811719
  0
LINE
  5
288
100
AcDbEntity
  8
0
100
AcDbLine
 62
7
  6
CONTINUOUS
 10
23.0299112771
 20
-35.3933811719
 11
32.1063894205
 21
-35.3933811719
  0
LINE
  5
289
100
AcDbEntity
  8
0
100
AcDbLine
 62
7
  6
CONTINUOUS
 10
37.0930736532
 20
-35.3933811719
 11
41.0695517966
 21
-35.3933811719
  0
LINE
  5
28A
100
AcDbEntity
  8
0
100
AcDbLine
 62
7
  6
CONTINUOUS
 10
-32.3858191344
 20
-35.4632014316
 11
-32.8554691761
 21
-35.4551070058
  0
LINE
  5
28B
100
AcDbEntity
  8
0
100
AcDbLine
 62
7
  6
CONTINUOUS
 10
-11.9002684632
 20
-35.4808395218
 11
-0.9002684632
 21
-38.4282806385
  0
LINE
  5
28C
100
AcDbEntity
  8
0
100
AcDbLine
 62
7
  6
CONTINUOUS
 10
-11.9700887229
 20
-35.3898479878
 11
-0.8304482034
 21
-38.3747056689
  0
LINE
  5
28D
100
AcDbEntity
  8
0
100
AcDbLine
 62
7
  6
CONTINUOUS
 10
-0.8304482034
 20
-37.4839959921
 11
-11.9700887229
 21
-34.499138311
  0
LINE
  5
28E
100
AcDbEntity
  8
0
100
AcDbLine
 62
7
  6
CONTINUOUS
 10
-0.9002684632
 20
-37.3930044581
 11
-11.9002684632
 21
-34.4455633414
  0
LINE
  5
28F
100
AcDbEntity
  8
0
100
AcDbLine
 62
7
  6
CONTINUOUS
 10
-41.8700887229
 20
-12.3933811719
 11
-41.8037594761
 21
-12.4597104186
  0
LINE
  5
290
100
AcDbEntity
  8
0
100
AcDbLine
 62
7
  6
CONTINUOUS
 10
-12.8304482034
 20
-41.4330216913
 11
-12.9002684632
 21
-41.3632014316
  0
LINE
  5
291
100
AcDbEntity
  8
0
100
AcDbLine
 62
7
  6
CONTINUOUS
 10
-38.8626689216
 20
-0.4597104186
 11
-35.9133569767
 21
-11.4666924446
  0
LINE
  5
292
100
AcDbEntity
  8
0
100
AcDbLine
 62
7
  6
CONTINUOUS
 10
-38.8117727005
 20
-0.3933811719
 11
-35.8269150194
 21
-11.5330216913
  0
LINE
  5
293
100
AcDbEntity
  8
0
100
AcDbLine
 62
7
  6
CONTINUOUS
 10
-34.9362053425
 20
-11.5330216913
 11
-37.9210630237
 21
-0.3933811719
  0
LINE
  5
294
100
AcDbEntity
  8
0
100
AcDbLine
 62
7
  6
CONTINUOUS
 10
-34.8853091214
 20
-11.4666924446
 11
-37.8346210664
 21
-0.4597104186
  0
LINE
  5
295
100
AcDbEntity
  8
0
100
AcDbLine
 62
7
  6
CONTINUOUS
 10
-34.908362889
 20
-37.5080007187
 11
-34.9002684632
 21
-37.9776507604
  0
LINE
  5
296
100
AcDbEntity
  8
0
100
AcDbLine
 62
7
  6
CONTINUOUS
 10
-35.8921740373
 20
37.5815978555
 11
-35.9002684632
 21
38.0512478972
  0
LINE
  5
297
100
AcDbEntity
  8
0
100
AcDbLine
 62
7
  6
CONTINUOUS
 10
-34.908362889
 20
32.4919992813
 11
-34.9002684632
 21
32.0223492396
  0
LINE
  5
298
100
AcDbEntity
  8
0
100
AcDbLine
 62
7
  6
CONTINUOUS
 10
-34.9700887229
 20
-41.4330216913
 11
-34.9700887229
 21
-37.4565435479
  0
LINE
  5
299
100
AcDbEntity
  8
0
100
AcDbLine
 62
7
  6
CONTINUOUS
 10
-34.9700887229
 20
-32.4698593152
 11
-34.9700887229
 21
-23.3933811719
  0
LINE
  5
29A
100
AcDbEntity
  8
0
100
AcDbLine
 62
7
  6
CONTINUOUS
 10
-34.9700887229
 20
-22.5330216913
 11
-34.9700887229
 21
-12.3933811719
  0
LINE
  5
29B
100
AcDbEntity
  8
0
100
AcDbLine
 62
7
  6
CONTINUOUS
 10
-34.9700887229
 20
12.4669783087
 11
-34.9700887229
 21
22.6066188281
  0
LINE
  5
29C
100
AcDbEntity
  8
0
100
AcDbLine
 62
7
  6
CONTINUOUS
 10
-34.9700887229
 20
23.4669783087
 11
-34.9700887229
 21
32.5434564521
  0
LINE
  5
29D
100
AcDbEntity
  8
0
100
AcDbLine
 62
7
  6
CONTINUOUS
 10
-34.9700887229
 20
37.5301406848
 11
-34.9700887229
 21
41.5066188281
  0
LINE
  5
29E
100
AcDbEntity
  8
0
100
AcDbLine
 62
7
  6
CONTINUOUS
 10
-34.9037594761
 20
-12.4597104186
 11
-34.9037594761
 21
-22.4666924446
  0
LINE
  5
29F
100
AcDbEntity
  8
0
100
AcDbLine
 62
7
  6
CONTINUOUS
 10
-34.9037594761
 20
12.5333075554
 11
-34.9037594761
 21
22.5402895814
  0
LINE
  5
2A0
100
AcDbEntity
  8
0
100
AcDbLine
 62
7
  6
CONTINUOUS
 10
-34.9002684632
 20
41.4367985684
 11
-34.9002684632
 21
38.0512478972
  0
LINE
  5
2A1
100
AcDbEntity
  8
0
100
AcDbLine
 62
7
  6
CONTINUOUS
 10
-34.9002684632
 20
-41.3632014316
 11
-34.9002684632
 21
-37.9776507604
  0
LINE
  5
2A2
100
AcDbEntity
  8
0
100
AcDbLine
 62
7
  6
CONTINUOUS
 10
-34.9002684632
 20
-31.9487521028
 11
-34.9002684632
 21
-23.4632014316
  0
LINE
  5
2A3
100
AcDbEntity
  8
0
100
AcDbLine
 62
7
  6
CONTINUOUS
 10
-34.9002684632
 20
23.5367985684
 11
-34.9002684632
 21
32.0223492396
  0
LINE
  5
2A4
100
AcDbEntity
  8
0
100
AcDbLine
 62
7
  6
CONTINUOUS
 10
-34.9002684632
 20
38.0512478972
 11
-34.908362889
 21
37.5815978555
  0
LINE
  5
2A5
100
AcDbEntity
  8
0
100
AcDbLine
 62
7
  6
CONTINUOUS
 10
-35.9002684632
 20
-37.9776507604
 11
-35.8921740373
 21
-37.5080007187
  0
LINE
  5
2A6
100
AcDbEntity
  8
0
100
AcDbLine
 62
7
  6
CONTINUOUS
 10
-34.9002684632
 20
-31.9487521028
 11
-34.908362889
 21
-32.4184021445
  0
LINE
  5
2A7
100
AcDbEntity
  8
0
100
AcDbLine
 62
7
  6
CONTINUOUS
 10
-11.9002684632
 20
35.5544366586
 11
-11.9700887229
 21
35.4634451246
  0
LINE
  5
2A8
100
AcDbEntity
  8
0
100
AcDbLine
 62
7
  6
CONTINUOUS
 10
-34.9037594761
 20
12.5333075554
 11
-34.9700887229
 21
12.4669783087
  0
LINE
  5
2A9
100
AcDbEntity
  8
0
100
AcDbLine
 62
7
  6
CONTINUOUS
 10
-12.9002684632
 20
34.5367985684
 11
-12.8304482034
 21
34.6066188281
  0
LINE
  5
2AA
100
AcDbEntity
  8
0
100
AcDbLine
 62
7
  6
CONTINUOUS
 10
-23.9304482034
 20
22.6066188281
 11
-23.9967774502
 21
22.5402895814
  0
LINE
  5
2AB
100
AcDbEntity
  8
0
100
AcDbLine
 62
7
  6
CONTINUOUS
 10
-22.9700887229
 20
23.5669783087
 11
-22.9002684632
 21
23.6367985684
  0
LINE
  5
2AC
100
AcDbEntity
  8
0
100
AcDbLine
 62
7
  6
CONTINUOUS
 10
-35.9133569767
 20
11.5402895814
 11
-35.8269150194
 21
11.6066188281
  0
LINE
  5
2AD
100
AcDbEntity
  8
0
100
AcDbLine
 62
7
  6
CONTINUOUS
 10
37.1445308239
 20
-34.4712958574
 11
37.6141808656
 21
-34.4632014316
  0
LINE
  5
2AE
100
AcDbEntity
  8
0
100
AcDbLine
 62
7
  6
CONTINUOUS
 10
-37.9450677502
 20
-35.4551070058
 11
-38.4147177919
 21
-35.4632014316
  0
LINE
  5
2AF
100
AcDbEntity
  8
0
100
AcDbLine
 62
7
  6
CONTINUOUS
 10
-32.8554691761
 20
-34.4712958574
 11
-32.3858191344
 21
-34.4632014316
  0
LINE
  5
2B0
100
AcDbEntity
  8
0
100
AcDbLine
 62
7
  6
CONTINUOUS
 10
41.0695517966
 20
-34.5330216913
 11
37.0930736532
 21
-34.5330216913
  0
LINE
  5
2B1
100
AcDbEntity
  8
0
100
AcDbLine
 62
7
  6
CONTINUOUS
 10
32.1063894205
 20
-34.5330216913
 11
23.0299112771
 21
-34.5330216913
  0
LINE
  5
2B2
100
AcDbEntity
  8
0
100
AcDbLine
 62
7
  6
CONTINUOUS
 10
22.1695517966
 20
-34.5330216913
 11
12.0299112771
 21
-34.5330216913
  0
LINE
  5
2B3
100
AcDbEntity
  8
0
100
AcDbLine
 62
7
  6
CONTINUOUS
 10
-12.8304482034
 20
-34.5330216913
 11
-22.9700887229
 21
-34.5330216913
  0
LINE
  5
2B4
100
AcDbEntity
  8
0
100
AcDbLine
 62
7
  6
CONTINUOUS
 10
-23.8304482034
 20
-34.5330216913
 11
-32.9069263468
 21
-34.5330216913
  0
LINE
  5
2B5
100
AcDbEntity
  8
0
100
AcDbLine
 62
7
  6
CONTINUOUS
 10
-37.8936105795
 20
-34.5330216913
 11
-41.8700887229
 21
-34.5330216913
  0
LINE
  5
2B6
100
AcDbEntity
  8
0
100
AcDbLine
 62
7
  6
CONTINUOUS
 10
-41.8002684632
 20
-34.4632014316
 11
-38.4147177919
 21
-34.4632014316
  0
LINE
  5
2B7
100
AcDbEntity
  8
0
100
AcDbLine
 62
7
  6
CONTINUOUS
 10
40.9997315368
 20
-34.4632014316
 11
37.6141808656
 21
-34.4632014316
  0
LINE
  5
2B8
100
AcDbEntity
  8
0
100
AcDbLine
 62
7
  6
CONTINUOUS
 10
31.5852822081
 20
-34.4632014316
 11
23.0997315368
 21
-34.4632014316
  0
LINE
  5
2B9
100
AcDbEntity
  8
0
100
AcDbLine
 62
7
  6
CONTINUOUS
 10
22.0997315368
 20
-34.4632014316
 11
12.0997315368
 21
-34.4632014316
  0
LINE
  5
2BA
100
AcDbEntity
  8
0
100
AcDbLine
 62
7
  6
CONTINUOUS
 10
-12.9002684632
 20
-34.4632014316
 11
-22.9002684632
 21
-34.4632014316
  0
LINE
  5
2BB
100
AcDbEntity
  8
0
100
AcDbLine
 62
7
  6
CONTINUOUS
 10
-23.9002684632
 20
-34.4632014316
 11
-32.3858191344
 21
-34.4632014316
  0
LINE
  5
2BC
100
AcDbEntity
  8
0
100
AcDbLine
 62
7
  6
CONTINUOUS
 10
-38.4147177919
 20
-34.4632014316
 11
-37.9450677502
 21
-34.4712958574
  0
LINE
  5
2BD
100
AcDbEntity
  8
0
100
AcDbLine
 62
7
  6
CONTINUOUS
 10
37.6141808656
 20
-35.4632014316
 11
37.1445308239
 21
-35.4551070058
  0
LINE
  5
2BE
100
AcDbEntity
  8
0
100
AcDbLine
 62
7
  6
CONTINUOUS
 10
31.5852822081
 20
-34.4632014316
 11
32.0549322498
 21
-34.4712958574
  0
LINE
  5
2BF
100
AcDbEntity
  8
0
100
AcDbLine
 62
7
  6
CONTINUOUS
 10
-35.9133569767
 20
-11.4666924446
 11
-35.8269150194
 21
-11.5330216913
  0
LINE
  5
2C0
100
AcDbEntity
  8
0
100
AcDbLine
 62
7
  6
CONTINUOUS
 10
-12.9002684632
 20
-34.4632014316
 11
-12.8304482034
 21
-34.5330216913
  0
LINE
  5
2C1
100
AcDbEntity
  8
0
100
AcDbLine
 62
7
  6
CONTINUOUS
 10
-34.9037594761
 20
-12.4597104186
 11
-34.9700887229
 21
-12.3933811719
  0
LINE
  5
2C2
100
AcDbEntity
  8
0
100
AcDbLine
 62
7
  6
CONTINUOUS
 10
-22.9700887229
 20
-23.4933811719
 11
-22.9002684632
 21
-23.5632014316
  0
LINE
  5
2C3
100
AcDbEntity
  8
0
100
AcDbLine
 62
7
  6
CONTINUOUS
 10
-23.9304482034
 20
-22.5330216913
 11
-23.9967774502
 21
-22.4666924446
  0
LINE
  5
2C4
100
AcDbEntity
  8
0
100
AcDbLine
 62
7
  6
CONTINUOUS
 10
-11.9002684632
 20
-35.4808395218
 11
-11.9700887229
 21
-35.3898479878
  0
LINE
  5
2C5
100
AcDbEntity
  8
0
100
AcDbLine
 62
7
  6
CONTINUOUS
 10
-28.7467774502
 20
14.0409874621
 11
-28.7467774502
 21
12.5333075554
  0
LINE
  5
2C6
100
AcDbEntity
  8
0
100
AcDbLine
 62
7
  6
CONTINUOUS
 10
-28.7467774502
 20
11.5402895814
 11
-28.7467774502
 21
8.8894155373
  0
LINE
  5
2C7
100
AcDbEntity
  8
0
100
AcDbLine
 62
7
  6
CONTINUOUS
 10
-28.7467774502
 20
-8.8158184004
 11
-28.7467774502
 21
-11.4666924446
  0
LINE
  5
2C8
100
AcDbEntity
  8
0
100
AcDbLine
 62
7
  6
CONTINUOUS
 10
-28.7467774502
 20
-12.4597104186
 11
-28.7467774502
 21
-13.9673903253
  0
LINE
  5
2C9
100
AcDbEntity
  8
0
100
AcDbLine
 62
7
  6
CONTINUOUS
 10
-28.7048852943
 20
-8.75884089
 11
-28.7048852943
 21
-8.476364837
  0
LINE
  5
2CA
100
AcDbEntity
  8
0
100
AcDbLine
 62
7
  6
CONTINUOUS
 10
-28.6804482034
 20
-13.9399158517
 11
-28.6804482034
 21
-12.3933811719
  0
LINE
  5
2CB
100
AcDbEntity
  8
0
100
AcDbLine
 62
7
  6
CONTINUOUS
 10
-28.6804482034
 20
-11.5330216913
 11
-28.6804482034
 21
-8.4864870115
  0
LINE
  5
2CC
100
AcDbEntity
  8
0
100
AcDbLine
 62
7
  6
CONTINUOUS
 10
-28.6804482034
 20
8.7988409481
 11
-28.6804482034
 21
11.6066188281
  0
LINE
  5
2CD
100
AcDbEntity
  8
0
100
AcDbLine
 62
7
  6
CONTINUOUS
 10
-28.6804482034
 20
12.4669783087
 11
-28.6804482034
 21
14.0135129885
  0
LINE
  5
2CE
100
AcDbEntity
  8
0
100
AcDbLine
 62
7
  6
CONTINUOUS
 10
-27.6502684632
 20
-13.3889373629
 11
-27.6502684632
 21
-9.0374655003
  0
LINE
  5
2CF
100
AcDbEntity
  8
0
100
AcDbLine
 62
7
  6
CONTINUOUS
 10
-27.6502684632
 20
9.1110626371
 11
-27.6502684632
 21
13.4625344997
  0
LINE
  5
2D0
100
AcDbEntity
  8
0
100
AcDbLine
 62
7
  6
CONTINUOUS
 10
-38.8626689216
 20
-0.4597104186
 11
-38.8117727005
 21
-0.3933811719
  0
LINE
  5
2D1
100
AcDbEntity
  8
0
100
AcDbLine
 62
7
  6
CONTINUOUS
 10
-17.2502684632
 20
25.892433487
 11
-14.8559033818
 21
28.2867985684
  0
LINE
  5
2D2
100
AcDbEntity
  8
0
100
AcDbLine
 62
7
  6
CONTINUOUS
 10
-17.1804482034
 20
25.8635129885
 11
-14.8269828833
 21
28.2169783087
  0
LINE
  5
2D3
100
AcDbEntity
  8
0
100
AcDbLine
 62
7
  6
CONTINUOUS
 10
-26.9044573568
 20
15.8833075554
 11
-28.7467774502
 21
14.0409874621
  0
LINE
  5
2D4
100
AcDbEntity
  8
0
100
AcDbLine
 62
7
  6
CONTINUOUS
 10
-28.6804482034
 20
14.0135129885
 11
-26.8769828833
 21
15.8169783087
  0
LINE
  5
2D5
100
AcDbEntity
  8
0
100
AcDbLine
 62
7
  6
CONTINUOUS
 10
-18.7915409307
 20
23.6367985684
 11
-18.7985450541
 21
23.629794445
  0
LINE
  5
2D6
100
AcDbEntity
  8
0
100
AcDbLine
 62
7
  6
CONTINUOUS
 10
-0.8304482034
 20
41.5066188281
 11
-0.9002684632
 21
41.4367985684
  0
LINE
  5
2D7
100
AcDbEntity
  8
0
100
AcDbLine
 62
7
  6
CONTINUOUS
 10
-41.8700887229
 20
0.4669783087
 11
-41.8037594761
 21
0.5333075554
  0
LINE
  5
2D8
100
AcDbEntity
  8
DRAFT
100
AcDbLine
 62
7
  6
CONTINUOUS
 10
-22.9543791644
 20
18.7592119548
 11
-19.1226818495
 21
22.5909092697
  0
LINE
  5
2D9
100
AcDbEntity
  8
DRAFT
100
AcDbLine
 62
7
  6
CONTINUOUS
 10
-14.4371420987
 20
27.2758193996
 11
-16.0635483825
 21
25.6494131158
  0
LINE
  5
2DA
100
AcDbEntity
  8
DRAFT
100
AcDbLine
 62
7
  6
CONTINUOUS
 10
-22.928196567
 20
18.7483667678
 11
-19.1118366626
 21
22.5647266723
  0
LINE
  5
2DB
100
AcDbEntity
  8
DRAFT
100
AcDbLine
 62
7
  6
CONTINUOUS
 10
-15.9776902298
 20
25.6093768018
 11
-14.4002684632
 21
27.1867985684
  0
LINE
  5
2DC
100
AcDbEntity
  8
0
100
AcDbLine
 62
7
  6
CONTINUOUS
 10
-27.5624004975
 20
13.6746665341
 11
-26.5381364288
 21
14.6989306028
  0
LINE
  5
2DD
100
AcDbEntity
  8
0
100
AcDbLine
 62
7
  6
CONTINUOUS
 10
-28.6804482034
 20
11.6066188281
 11
-28.7467774502
 21
11.5402895814
  0
LINE
  5
2DE
100
AcDbEntity
  8
0
100
AcDbLine
 62
7
  6
CONTINUOUS
 10
-11.9700887229
 20
28.2169783087
 11
-11.9002684632
 21
28.2867985684
  0
LINE
  5
2DF
100
AcDbEntity
  8
DRAFT
100
AcDbLine
 62
7
  6
CONTINUOUS
 10
-14.1223403593
 20
24.0647266723
 11
-14.1502684632
 21
24.0367985684
  0
LINE
  5
2E0
100
AcDbEntity
  8
DRAFT
100
AcDbLine
 62
7
  6
CONTINUOUS
 10
-16.124933524
 20
24.9477777373
 11
-16.0582625114
 21
25.0088704645
  0
LINE
  5
2E1
100
AcDbEntity
  8
0
100
AcDbLine
 62
7
  6
CONTINUOUS
 10
0.0997315368
 20
38.5018777754
 11
0.0299112771
 21
38.4483028058
  0
LINE
  5
2E2
100
AcDbEntity
  8
0
100
AcDbLine
 62
7
  6
CONTINUOUS
 10
14.0553664555
 20
-28.2132014316
 11
12.0997315368
 21
-28.2132014316
  0
LINE
  5
2E3
100
AcDbEntity
  8
0
100
AcDbLine
 62
7
  6
CONTINUOUS
 10
11.0997315368
 20
-28.2132014316
 11
8.4253459688
 21
-28.2132014316
  0
LINE
  5
2E4
100
AcDbEntity
  8
0
100
AcDbLine
 62
7
  6
CONTINUOUS
 10
-9.2258828951
 20
-28.2132014316
 11
-11.9002684632
 21
-28.2132014316
  0
LINE
  5
2E5
100
AcDbEntity
  8
0
100
AcDbLine
 62
7
  6
CONTINUOUS
 10
-12.9002684632
 20
-28.2132014316
 11
-14.8559033818
 21
-28.2132014316
  0
LINE
  5
2E6
100
AcDbEntity
  8
0
100
AcDbLine
 62
7
  6
CONTINUOUS
 10
8.3620946505
 20
-28.1678182628
 11
7.6628949423
 21
-28.1678182628
  0
LINE
  5
2E7
100
AcDbEntity
  8
0
100
AcDbLine
 62
7
  6
CONTINUOUS
 10
-8.4634318686
 20
-28.1678182628
 11
-9.1626315769
 21
-28.1678182628
  0
LINE
  5
2E8
100
AcDbEntity
  8
0
100
AcDbLine
 62
7
  6
CONTINUOUS
 10
14.026445957
 20
-28.1433811719
 11
12.0299112771
 21
-28.1433811719
  0
LINE
  5
2E9
100
AcDbEntity
  8
0
100
AcDbLine
 62
7
  6
CONTINUOUS
 10
11.1695517966
 20
-28.1433811719
 11
7.6730171167
 21
-28.1433811719
  0
LINE
  5
2EA
100
AcDbEntity
  8
0
100
AcDbLine
 62
7
  6
CONTINUOUS
 10
-8.473554043
 20
-28.1433811719
 11
-11.9700887229
 21
-28.1433811719
  0
LINE
  5
2EB
100
AcDbEntity
  8
0
100
AcDbLine
 62
7
  6
CONTINUOUS
 10
-12.8304482034
 20
-28.1433811719
 11
-14.8269828833
 21
-28.1433811719
  0
LINE
  5
2EC
100
AcDbEntity
  8
DRAFT
100
AcDbLine
 62
7
  6
CONTINUOUS
 10
-14.4371420987
 20
-27.2022222627
 11
-12.4819603769
 21
-27.2022222627
  0
LINE
  5
2ED
100
AcDbEntity
  8
DRAFT
100
AcDbLine
 62
7
  6
CONTINUOUS
 10
-10.8185765494
 20
-27.2022222627
 11
-8.8633948276
 21
-27.2022222627
  0
LINE
  5
2EE
100
AcDbEntity
  8
DRAFT
100
AcDbLine
 62
7
  6
CONTINUOUS
 10
8.0628579013
 20
-27.2022222627
 11
10.0180396231
 21
-27.2022222627
  0
LINE
  5
2EF
100
AcDbEntity
  8
DRAFT
100
AcDbLine
 62
7
  6
CONTINUOUS
 10
11.6814234506
 20
-27.2022222627
 11
13.6366051724
 21
-27.2022222627
  0
LINE
  5
2F0
100
AcDbEntity
  8
DRAFT
100
AcDbLine
 62
7
  6
CONTINUOUS
 10
13.5997315368
 20
-27.1132014316
 11
11.7497315368
 21
-27.1132014316
  0
LINE
  5
2F1
100
AcDbEntity
  8
DRAFT
100
AcDbLine
 62
7
  6
CONTINUOUS
 10
9.9497315368
 20
-27.1132014316
 11
8.0997315368
 21
-27.1132014316
  0
LINE
  5
2F2
100
AcDbEntity
  8
DRAFT
100
AcDbLine
 62
7
  6
CONTINUOUS
 10
-8.9002684632
 20
-27.1132014316
 11
-10.7502684632
 21
-27.1132014316
  0
LINE
  5
2F3
100
AcDbEntity
  8
DRAFT
100
AcDbLine
 62
7
  6
CONTINUOUS
 10
-12.5502684632
 20
-27.1132014316
 11
-14.4002684632
 21
-27.1132014316
  0
LINE
  5
2F4
100
AcDbEntity
  8
DRAFT
100
AcDbLine
 62
7
  6
CONTINUOUS
 10
-12.2542035634
 20
-26.3522222627
 11
-11.0463333629
 21
-26.3522222627
  0
LINE
  5
2F5
100
AcDbEntity
  8
DRAFT
100
AcDbLine
 62
7
  6
CONTINUOUS
 10
10.2457964366
 20
-26.3522222627
 11
11.4536666371
 21
-26.3522222627
  0
LINE
  5
2F6
100
AcDbEntity
  8
DRAFT
100
AcDbLine
 62
7
  6
CONTINUOUS
 10
-12.3225116496
 20
-26.2632014316
 11
-10.9780252767
 21
-26.2632014316
  0
LINE
  5
2F7
100
AcDbEntity
  8
DRAFT
100
AcDbLine
 62
7
  6
CONTINUOUS
 10
10.1774883504
 20
-26.2632014316
 11
11.5219747233
 21
-26.2632014316
  0
LINE
  5
2F8
100
AcDbEntity
  8
0
100
AcDbLine
 62
7
  6
CONTINUOUS
 10
0.0997315368
 20
-38.4282806385
 11
0.0299112771
 21
-38.3747056689
  0
LINE
  5
2F9
100
AcDbEntity
  8
DRAFT
100
AcDbLine
 62
7
  6
CONTINUOUS
 10
-16.124933524
 20
-24.8741806004
 11
-16.0582625114
 21
-24.9352733277
  0
LINE
  5
2FA
100
AcDbEntity
  8
0
100
AcDbLine
 62
7
  6
CONTINUOUS
 10
-14.8559033818
 20
-28.2132014316
 11
-17.2502684632
 21
-25.8188363502
  0
LINE
  5
2FB
100
AcDbEntity
  8
0
100
AcDbLine
 62
7
  6
CONTINUOUS
 10
-14.8269828833
 20
-28.1433811719
 11
-17.1804482034
 21
-25.7899158517
  0
LINE
  5
2FC
100
AcDbEntity
  8
0
100
AcDbLine
 62
7
  6
CONTINUOUS
 10
-28.7467774502
 20
-13.9673903253
 11
-26.9044573568
 21
-15.8097104186
  0
LINE
  5
2FD
100
AcDbEntity
  8
0
100
AcDbLine
 62
7
  6
CONTINUOUS
 10
-26.8769828833
 20
-15.7433811719
 11
-28.6804482034
 21
-13.9399158517
  0
LINE
  5
2FE
100
AcDbEntity
  8
0
100
AcDbLine
 62
7
  6
CONTINUOUS
 10
-18.7915409307
 20
-23.5632014316
 11
-18.7985450541
 21
-23.5561973082
  0
LINE
  5
2FF
100
AcDbEntity
  8
0
100
AcDbLine
 62
7
  6
CONTINUOUS
 10
-41.8700887229
 20
-0.3933811719
 11
-41.8037594761
 21
-0.4597104186
  0
LINE
  5
300
100
AcDbEntity
  8
0
100
AcDbLine
 62
7
  6
CONTINUOUS
 10
-0.8304482034
 20
-41.4330216913
 11
-0.9002684632
 21
-41.3632014316
  0
LINE
  5
301
100
AcDbEntity
  8
DRAFT
100
AcDbLine
 62
7
  6
CONTINUOUS
 10
-19.1226818495
 20
-22.5173121329
 11
-22.9543791644
 21
-18.6856148179
  0
LINE
  5
302
100
AcDbEntity
  8
DRAFT
100
AcDbLine
 62
7
  6
CONTINUOUS
 10
-16.0635483825
 20
-25.575815979
 11
-14.4371420987
 21
-27.2022222627
  0
LINE
  5
303
100
AcDbEntity
  8
DRAFT
100
AcDbLine
 62
7
  6
CONTINUOUS
 10
-19.1118366626
 20
-22.4911295355
 11
-22.928196567
 21
-18.674769631
  0
LINE
  5
304
100
AcDbEntity
  8
DRAFT
100
AcDbLine
 62
7
  6
CONTINUOUS
 10
-14.4002684632
 20
-27.1132014316
 11
-15.9776902298
 21
-25.5357796649
  0
LINE
  5
305
100
AcDbEntity
  8
0
100
AcDbLine
 62
7
  6
CONTINUOUS
 10
-26.5381364288
 20
-14.6253334659
 11
-27.5624004975
 21
-13.6010693972
  0
LINE
  5
306
100
AcDbEntity
  8
0
100
AcDbLine
 62
7
  6
CONTINUOUS
 10
-28.6804482034
 20
-11.5330216913
 11
-28.7467774502
 21
-11.4666924446
  0
LINE
  5
307
100
AcDbEntity
  8
0
100
AcDbLine
 62
7
  6
CONTINUOUS
 10
-11.9700887229
 20
-28.1433811719
 11
-11.9002684632
 21
-28.2132014316
  0
LINE
  5
308
100
AcDbEntity
  8
DRAFT
100
AcDbLine
 62
7
  6
CONTINUOUS
 10
-14.1502684632
 20
-23.9632014316
 11
-14.1223403593
 21
-23.9911295355
  0
LINE
  5
309
100
AcDbEntity
  8
0
100
AcDbLine
 62
7
  6
CONTINUOUS
 10
-38.8626689216
 20
0.5333075554
 11
-38.8117727005
 21
0.4669783087
  0
LINE
  5
30A
100
AcDbEntity
  8
0
100
AcDbLine
 62
7
  6
CONTINUOUS
 10
-26.8871050577
 20
-6.6585846004
 11
-26.8769828833
 21
-6.6830216913
  0
LINE
  5
30B
100
AcDbEntity
  8
0
100
AcDbLine
 62
7
  6
CONTINUOUS
 10
-24.9502684632
 20
14.4867985684
 11
-24.9502684632
 21
8.0867985684
  0
LINE
  5
30C
100
AcDbEntity
  8
0
100
AcDbLine
 62
7
  6
CONTINUOUS
 10
-24.9502684632
 20
-8.0132014316
 11
-24.9502684632
 21
-14.4132014316
  0
LINE
  5
30D
100
AcDbEntity
  8
0
100
AcDbLine
 62
7
  6
CONTINUOUS
 10
-24.0002684632
 20
23.6367985684
 11
-24.0002684632
 21
23.5367985684
  0
LINE
  5
30E
100
AcDbEntity
  8
0
100
AcDbLine
 62
7
  6
CONTINUOUS
 10
-24.0002684632
 20
-23.4632014316
 11
-24.0002684632
 21
-23.5632014316
  0
LINE
  5
30F
100
AcDbEntity
  8
0
100
AcDbLine
 62
7
  6
CONTINUOUS
 10
-23.9967774502
 20
22.5402895814
 11
-23.9967774502
 21
15.8833075554
  0
LINE
  5
310
100
AcDbEntity
  8
0
100
AcDbLine
 62
7
  6
CONTINUOUS
 10
-23.9967774502
 20
6.6902895814
 11
-23.9967774502
 21
0.5367985684
  0
LINE
  5
311
100
AcDbEntity
  8
0
100
AcDbLine
 62
7
  6
CONTINUOUS
 10
-23.9967774502
 20
-0.4597104186
 11
-23.9967774502
 21
-6.6166924446
  0
LINE
  5
312
100
AcDbEntity
  8
0
100
AcDbLine
 62
7
  6
CONTINUOUS
 10
-23.9967774502
 20
-15.8097104186
 11
-23.9967774502
 21
-22.4666924446
  0
LINE
  5
313
100
AcDbEntity
  8
0
100
AcDbLine
 62
7
  6
CONTINUOUS
 10
-23.9304482034
 20
-23.4933811719
 11
-23.9304482034
 21
-23.3933811719
  0
LINE
  5
314
100
AcDbEntity
  8
0
100
AcDbLine
 62
7
  6
CONTINUOUS
 10
-23.9304482034
 20
-22.5330216913
 11
-23.9304482034
 21
-15.7433811719
  0
LINE
  5
315
100
AcDbEntity
  8
0
100
AcDbLine
 62
7
  6
CONTINUOUS
 10
-23.9304482034
 20
-6.6830216913
 11
-23.9304482034
 21
-0.3933811719
  0
LINE
  5
316
100
AcDbEntity
  8
0
100
AcDbLine
 62
7
  6
CONTINUOUS
 10
-23.9304482034
 20
0.5367985684
 11
-23.9304482034
 21
6.7566188281
  0
LINE
  5
317
100
AcDbEntity
  8
0
100
AcDbLine
 62
7
  6
CONTINUOUS
 10
-23.9304482034
 20
15.8169783087
 11
-23.9304482034
 21
22.6066188281
  0
LINE
  5
318
100
AcDbEntity
  8
0
100
AcDbLine
 62
7
  6
CONTINUOUS
 10
-23.9304482034
 20
23.4669783087
 11
-23.9304482034
 21
23.5669783087
  0
LINE
  5
319
100
AcDbEntity
  8
0
100
AcDbLine
 62
7
  6
CONTINUOUS
 10
-23.9002684632
 20
41.4367985684
 11
-23.9002684632
 21
35.5367985684
  0
LINE
  5
31A
100
AcDbEntity
  8
0
100
AcDbLine
 62
7
  6
CONTINUOUS
 10
-23.9002684632
 20
34.5367985684
 11
-23.9002684632
 21
23.6367985684
  0
LINE
  5
31B
100
AcDbEntity
  8
0
100
AcDbLine
 62
7
  6
CONTINUOUS
 10
-23.9002684632
 20
-41.3632014316
 11
-23.9002684632
 21
-35.4632014316
  0
LINE
  5
31C
100
AcDbEntity
  8
0
100
AcDbLine
 62
7
  6
CONTINUOUS
 10
-23.9002684632
 20
-34.4632014316
 11
-23.9002684632
 21
-23.5632014316
  0
LINE
  5
31D
100
AcDbEntity
  8
0
100
AcDbLine
 62
7
  6
CONTINUOUS
 10
-23.8304482034
 20
41.5066188281
 11
-23.8304482034
 21
35.4669783087
  0
LINE
  5
31E
100
AcDbEntity
  8
0
100
AcDbLine
 62
7
  6
CONTINUOUS
 10
-23.8304482034
 20
34.6066188281
 11
-23.8304482034
 21
23.5669783087
  0
LINE
  5
31F
100
AcDbEntity
  8
0
100
AcDbLine
 62
7
  6
CONTINUOUS
 10
-23.8304482034
 20
-23.4933811719
 11
-23.8304482034
 21
-34.5330216913
  0
LINE
  5
320
100
AcDbEntity
  8
0
100
AcDbLine
 62
7
  6
CONTINUOUS
 10
-23.8304482034
 20
-35.3933811719
 11
-23.8304482034
 21
-41.4330216913
  0
LINE
  5
321
100
AcDbEntity
  8
DRAFT
100
AcDbLine
 62
7
  6
CONTINUOUS
 10
-22.9892892943
 20
22.6258193996
 11
-22.9892892943
 21
-22.5522222627
  0
LINE
  5
322
100
AcDbEntity
  8
0
100
AcDbLine
 62
7
  6
CONTINUOUS
 10
-22.9700887229
 20
-41.4330216913
 11
-22.9700887229
 21
-35.3933811719
  0
LINE
  5
323
100
AcDbEntity
  8
0
100
AcDbLine
 62
7
  6
CONTINUOUS
 10
-22.9700887229
 20
-34.5330216913
 11
-22.9700887229
 21
-23.4933811719
  0
LINE
  5
324
100
AcDbEntity
  8
0
100
AcDbLine
 62
7
  6
CONTINUOUS
 10
-22.9700887229
 20
23.5669783087
 11
-22.9700887229
 21
34.6066188281
  0
LINE
  5
325
100
AcDbEntity
  8
0
100
AcDbLine
 62
7
  6
CONTINUOUS
 10
-22.9700887229
 20
35.4669783087
 11
-22.9700887229
 21
41.5066188281
  0
LINE
  5
326
100
AcDbEntity
  8
DRAFT
100
AcDbLine
 62
7
  6
CONTINUOUS
 10
-22.9543791644
 20
-22.5173121329
 11
-22.9543791644
 21
-18.6856148179
  0
LINE
  5
327
100
AcDbEntity
  8
DRAFT
100
AcDbLine
 62
7
  6
CONTINUOUS
 10
-22.9543791644
 20
18.7592119548
 11
-22.9543791644
 21
22.5909092697
  0
LINE
  5
328
100
AcDbEntity
  8
0
100
AcDbLine
 62
7
  6
CONTINUOUS
 10
-22.9002684632
 20
41.4367985684
 11
-22.9002684632
 21
35.5367985684
  0
LINE
  5
329
100
AcDbEntity
  8
0
100
AcDbLine
 62
7
  6
CONTINUOUS
 10
-22.9002684632
 20
34.5367985684
 11
-22.9002684632
 21
23.6367985684
  0
LINE
  5
32A
100
AcDbEntity
  8
0
100
AcDbLine
 62
7
  6
CONTINUOUS
 10
-22.9002684632
 20
-41.3632014316
 11
-22.9002684632
 21
-35.4632014316
  0
LINE
  5
32B
100
AcDbEntity
  8
0
100
AcDbLine
 62
7
  6
CONTINUOUS
 10
-22.9002684632
 20
-34.4632014316
 11
-22.9002684632
 21
-23.5632014316
  0
LINE
  5
32C
100
AcDbEntity
  8
DRAFT
100
AcDbLine
 62
7
  6
CONTINUOUS
 10
-22.9002684632
 20
18.7762948717
 11
-22.9002684632
 21
-18.7026977349
  0
LINE
  5
32D
100
AcDbEntity
  8
DRAFT
100
AcDbLine
 62
7
  6
CONTINUOUS
 10
-12.4819603769
 20
27.2758193996
 11
-12.5502684632
 21
27.1867985684
  0
LINE
  5
32E
100
AcDbEntity
  8
DRAFT
100
AcDbLine
 62
7
  6
CONTINUOUS
 10
-12.3225116496
 20
26.3367985684
 11
-12.2542035634
 21
26.4258193996
  0
LINE
  5
32F
100
AcDbEntity
  8
0
100
AcDbLine
 62
7
  6
CONTINUOUS
 10
-0.9002684632
 20
37.466601595
 11
-0.8304482034
 21
37.557593129
  0
LINE
  5
330
100
AcDbEntity
  8
0
100
AcDbLine
 62
7
  6
CONTINUOUS
 10
-34.801881548
 20
-0.4178182628
 11
-34.8431989456
 21
-0.4597104186
  0
LINE
  5
331
100
AcDbEntity
  8
0
100
AcDbLine
 62
7
  6
CONTINUOUS
 10
-33.0776167835
 20
-0.3933811719
 11
-33.1017253972
 21
-0.4178182628
  0
LINE
  5
332
100
AcDbEntity
  8
DRAFT
100
AcDbLine
 62
7
  6
CONTINUOUS
 10
-12.061247632
 20
24.1258193996
 11
-12.1502684632
 21
24.0367985684
  0
LINE
  5
333
100
AcDbEntity
  8
DRAFT
100
AcDbLine
 62
7
  6
CONTINUOUS
 10
-12.061247632
 20
22.6258193996
 11
-12.1502684632
 21
22.5367985684
  0
LINE
  5
334
100
AcDbEntity
  8
DRAFT
100
AcDbLine
 62
7
  6
CONTINUOUS
 10
-9.1502684632
 20
25.0367985684
 11
-9.178196567
 21
25.0088704645
  0
LINE
  5
335
100
AcDbEntity
  8
0
100
AcDbLine
 62
7
  6
CONTINUOUS
 10
0.0299112771
 20
32.7141468888
 11
0.054348368
 21
32.7382555025
  0
LINE
  5
336
100
AcDbEntity
  8
0
100
AcDbLine
 62
7
  6
CONTINUOUS
 10
0.054348368
 20
34.4384116532
 11
0.0997315368
 21
34.4831699303
  0
LINE
  5
337
100
AcDbEntity
  8
0
100
AcDbLine
 62
7
  6
CONTINUOUS
 10
-37.8346210664
 20
0.5333075554
 11
-37.9210630237
 21
0.4669783087
  0
LINE
  5
338
100
AcDbEntity
  8
DRAFT
100
AcDbLine
 62
7
  6
CONTINUOUS
 10
-7.3228466965
 20
25.6093768018
 11
-7.2369885439
 21
25.6494131158
  0
LINE
  5
339
100
AcDbEntity
  8
0
100
AcDbLine
 62
7
  6
CONTINUOUS
 10
-6.1200887229
 20
25.8635129885
 11
-6.095651632
 21
25.873635163
  0
LINE
  5
33A
100
AcDbEntity
  8
DRAFT
100
AcDbLine
 62
7
  6
CONTINUOUS
 10
-14.1275407015
 20
-25.3132014316
 11
-9.1729962248
 21
-25.3132014316
  0
LINE
  5
33B
100
AcDbEntity
  8
DRAFT
100
AcDbLine
 62
7
  6
CONTINUOUS
 10
8.3724592985
 20
-25.3132014316
 11
13.3270037752
 21
-25.3132014316
  0
LINE
  5
33C
100
AcDbEntity
  8
DRAFT
100
AcDbLine
 62
7
  6
CONTINUOUS
 10
-14.1502684632
 20
-24.9632014316
 11
-9.1502684632
 21
-24.9632014316
  0
LINE
  5
33D
100
AcDbEntity
  8
DRAFT
100
AcDbLine
 62
7
  6
CONTINUOUS
 10
8.3497315368
 20
-24.9632014316
 11
13.3497315368
 21
-24.9632014316
  0
LINE
  5
33E
100
AcDbEntity
  8
DRAFT
100
AcDbLine
 62
7
  6
CONTINUOUS
 10
-16.0582625114
 20
-24.9352733277
 11
-14.1223403593
 21
-24.9352733277
  0
LINE
  5
33F
100
AcDbEntity
  8
DRAFT
100
AcDbLine
 62
7
  6
CONTINUOUS
 10
-9.178196567
 20
-24.9352733277
 11
-7.2422744149
 21
-24.9352733277
  0
LINE
  5
340
100
AcDbEntity
  8
DRAFT
100
AcDbLine
 62
7
  6
CONTINUOUS
 10
6.4417374886
 20
-24.9352733277
 11
8.3776596407
 21
-24.9352733277
  0
LINE
  5
341
100
AcDbEntity
  8
DRAFT
100
AcDbLine
 62
7
  6
CONTINUOUS
 10
13.321803433
 20
-24.9352733277
 11
15.2577255851
 21
-24.9352733277
  0
LINE
  5
342
100
AcDbEntity
  8
DRAFT
100
AcDbLine
 62
7
  6
CONTINUOUS
 10
-16.124933524
 20
-24.8741806004
 11
-7.1756034023
 21
-24.8741806004
  0
LINE
  5
343
100
AcDbEntity
  8
DRAFT
100
AcDbLine
 62
7
  6
CONTINUOUS
 10
6.375066476
 20
-24.8741806004
 11
15.3243965977
 21
-24.8741806004
  0
LINE
  5
344
100
AcDbEntity
  8
DRAFT
100
AcDbLine
 62
7
  6
CONTINUOUS
 10
-21.9089959956
 20
-24.621928964
 11
-18.7915409307
 21
-24.621928964
  0
LINE
  5
345
100
AcDbEntity
  8
DRAFT
100
AcDbLine
 62
7
  6
CONTINUOUS
 10
21.1084590693
 20
-24.621928964
 11
17.9910040044
 21
-24.621928964
  0
LINE
  5
346
100
AcDbEntity
  8
DRAFT
100
AcDbLine
 62
7
  6
CONTINUOUS
 10
0.5910040044
 20
-24.621928964
 11
3.7084590693
 21
-24.621928964
  0
LINE
  5
347
100
AcDbEntity
  8
DRAFT
100
AcDbLine
 62
7
  6
CONTINUOUS
 10
-1.3915409307
 20
-24.621928964
 11
-4.5089959956
 21
-24.621928964
  0
LINE
  5
348
100
AcDbEntity
  8
DRAFT
100
AcDbLine
 62
7
  6
CONTINUOUS
 10
15.3963086341
 20
-24.0522222627
 11
11.2607107057
 21
-24.0522222627
  0
LINE
  5
349
100
AcDbEntity
  8
DRAFT
100
AcDbLine
 62
7
  6
CONTINUOUS
 10
10.438752368
 20
-24.0522222627
 11
6.3031544395
 21
-24.0522222627
  0
LINE
  5
34A
100
AcDbEntity
  8
DRAFT
100
AcDbLine
 62
7
  6
CONTINUOUS
 10
-7.1036913659
 20
-24.0522222627
 11
-11.1502684632
 21
-24.0522222627
  0
LINE
  5
34B
100
AcDbEntity
  8
DRAFT
100
AcDbLine
 62
7
  6
CONTINUOUS
 10
-12.061247632
 20
-24.0522222627
 11
-16.1968455605
 21
-24.0522222627
  0
LINE
  5
34C
100
AcDbEntity
  8
DRAFT
100
AcDbLine
 62
7
  6
CONTINUOUS
 10
15.3403274637
 20
-23.9911295355
 11
13.321803433
 21
-23.9911295355
  0
LINE
  5
34D
100
AcDbEntity
  8
DRAFT
100
AcDbLine
 62
7
  6
CONTINUOUS
 10
8.3776596407
 20
-23.9911295355
 11
6.35913561
 21
-23.9911295355
  0
LINE
  5
34E
100
AcDbEntity
  8
DRAFT
100
AcDbLine
 62
7
  6
CONTINUOUS
 10
-7.1596725363
 20
-23.9911295355
 11
-9.178196567
 21
-23.9911295355
  0
LINE
  5
34F
100
AcDbEntity
  8
DRAFT
100
AcDbLine
 62
7
  6
CONTINUOUS
 10
-14.1223403593
 20
-23.9911295355
 11
-16.14086439
 21
-23.9911295355
  0
LINE
  5
350
100
AcDbEntity
  8
DRAFT
100
AcDbLine
 62
7
  6
CONTINUOUS
 10
-14.1502684632
 20
-23.9632014316
 11
-12.1502684632
 21
-23.9632014316
  0
LINE
  5
351
100
AcDbEntity
  8
DRAFT
100
AcDbLine
 62
7
  6
CONTINUOUS
 10
-11.1502684632
 20
-23.9632014316
 11
-9.1502684632
 21
-23.9632014316
  0
LINE
  5
352
100
AcDbEntity
  8
DRAFT
100
AcDbLine
 62
7
  6
CONTINUOUS
 10
8.3497315368
 20
-23.9632014316
 11
10.3497315368
 21
-23.9632014316
  0
LINE
  5
353
100
AcDbEntity
  8
DRAFT
100
AcDbLine
 62
7
  6
CONTINUOUS
 10
11.3497315368
 20
-23.9632014316
 11
13.3497315368
 21
-23.9632014316
  0
LINE
  5
354
100
AcDbEntity
  8
0
100
AcDbLine
 62
7
  6
CONTINUOUS
 10
-24.0002684632
 20
-23.5632014316
 11
-23.9002684632
 21
-23.5632014316
  0
LINE
  5
355
100
AcDbEntity
  8
0
100
AcDbLine
 62
7
  6
CONTINUOUS
 10
-22.9002684632
 20
-23.5632014316
 11
-21.9089959956
 21
-23.5632014316
  0
LINE
  5
356
100
AcDbEntity
  8
0
100
AcDbLine
 62
7
  6
CONTINUOUS
 10
-18.7915409307
 20
-23.5632014316
 11
-17.2502684632
 21
-23.5632014316
  0
LINE
  5
357
100
AcDbEntity
  8
0
100
AcDbLine
 62
7
  6
CONTINUOUS
 10
-6.0502684632
 20
-23.5632014316
 11
-4.5089959956
 21
-23.5632014316
  0
LINE
  5
358
100
AcDbEntity
  8
0
100
AcDbLine
 62
7
  6
CONTINUOUS
 10
-1.3915409307
 20
-23.5632014316
 11
-0.9002684632
 21
-23.5632014316
  0
LINE
  5
359
100
AcDbEntity
  8
0
100
AcDbLine
 62
7
  6
CONTINUOUS
 10
0.0997315368
 20
-23.5632014316
 11
0.5910040044
 21
-23.5632014316
  0
LINE
  5
35A
100
AcDbEntity
  8
0
100
AcDbLine
 62
7
  6
CONTINUOUS
 10
3.7084590693
 20
-23.5632014316
 11
5.2497315368
 21
-23.5632014316
  0
LINE
  5
35B
100
AcDbEntity
  8
0
100
AcDbLine
 62
7
  6
CONTINUOUS
 10
16.4497315368
 20
-23.5632014316
 11
17.9910040044
 21
-23.5632014316
  0
LINE
  5
35C
100
AcDbEntity
  8
0
100
AcDbLine
 62
7
  6
CONTINUOUS
 10
21.1084590693
 20
-23.5632014316
 11
22.0997315368
 21
-23.5632014316
  0
LINE
  5
35D
100
AcDbEntity
  8
0
100
AcDbLine
 62
7
  6
CONTINUOUS
 10
23.0997315368
 20
-23.5632014316
 11
23.1997315368
 21
-23.5632014316
  0
LINE
  5
35E
100
AcDbEntity
  8
0
100
AcDbLine
 62
7
  6
CONTINUOUS
 10
-21.9019918722
 20
-23.5561973082
 11
-18.7985450541
 21
-23.5561973082
  0
LINE
  5
35F
100
AcDbEntity
  8
0
100
AcDbLine
 62
7
  6
CONTINUOUS
 10
21.1014549459
 20
-23.5561973082
 11
17.9980081278
 21
-23.5561973082
  0
LINE
  5
360
100
AcDbEntity
  8
0
100
AcDbLine
 62
7
  6
CONTINUOUS
 10
0.5980081278
 20
-23.5561973082
 11
3.7014549459
 21
-23.5561973082
  0
LINE
  5
361
100
AcDbEntity
  8
0
100
AcDbLine
 62
7
  6
CONTINUOUS
 10
-1.3985450541
 20
-23.5561973082
 11
-4.5019918722
 21
-23.5561973082
  0
LINE
  5
362
100
AcDbEntity
  8
0
100
AcDbLine
 62
7
  6
CONTINUOUS
 10
23.1299112771
 20
-23.4933811719
 11
23.0299112771
 21
-23.4933811719
  0
LINE
  5
363
100
AcDbEntity
  8
0
100
AcDbLine
 62
7
  6
CONTINUOUS
 10
22.1695517966
 20
-23.4933811719
 11
16.3799112771
 21
-23.4933811719
  0
LINE
  5
364
100
AcDbEntity
  8
0
100
AcDbLine
 62
7
  6
CONTINUOUS
 10
5.3195517966
 20
-23.4933811719
 11
0.0299112771
 21
-23.4933811719
  0
LINE
  5
365
100
AcDbEntity
  8
0
100
AcDbLine
 62
7
  6
CONTINUOUS
 10
-0.8304482034
 20
-23.4933811719
 11
-6.1200887229
 21
-23.4933811719
  0
LINE
  5
366
100
AcDbEntity
  8
0
100
AcDbLine
 62
7
  6
CONTINUOUS
 10
-17.1804482034
 20
-23.4933811719
 11
-22.9700887229
 21
-23.4933811719
  0
LINE
  5
367
100
AcDbEntity
  8
0
100
AcDbLine
 62
7
  6
CONTINUOUS
 10
-23.8304482034
 20
-23.4933811719
 11
-23.9304482034
 21
-23.4933811719
  0
LINE
  5
368
100
AcDbEntity
  8
0
100
AcDbLine
 62
7
  6
CONTINUOUS
 10
-41.8002684632
 20
-23.4632014316
 11
-35.9002684632
 21
-23.4632014316
  0
LINE
  5
369
100
AcDbEntity
  8
0
100
AcDbLine
 62
7
  6
CONTINUOUS
 10
40.9997315368
 20
-23.4632014316
 11
35.0997315368
 21
-23.4632014316
  0
LINE
  5
36A
100
AcDbEntity
  8
0
100
AcDbLine
 62
7
  6
CONTINUOUS
 10
-34.9002684632
 20
-23.4632014316
 11
-24.0002684632
 21
-23.4632014316
  0
LINE
  5
36B
100
AcDbEntity
  8
0
100
AcDbLine
 62
7
  6
CONTINUOUS
 10
34.0997315368
 20
-23.4632014316
 11
23.1997315368
 21
-23.4632014316
  0
LINE
  5
36C
100
AcDbEntity
  8
0
100
AcDbLine
 62
7
  6
CONTINUOUS
 10
-41.8700887229
 20
-23.3933811719
 11
-35.8304482034
 21
-23.3933811719
  0
LINE
  5
36D
100
AcDbEntity
  8
0
100
AcDbLine
 62
7
  6
CONTINUOUS
 10
-34.9700887229
 20
-23.3933811719
 11
-23.9304482034
 21
-23.3933811719
  0
LINE
  5
36E
100
AcDbEntity
  8
0
100
AcDbLine
 62
7
  6
CONTINUOUS
 10
23.1299112771
 20
-23.3933811719
 11
34.1695517966
 21
-23.3933811719
  0
LINE
  5
36F
100
AcDbEntity
  8
0
100
AcDbLine
 62
7
  6
CONTINUOUS
 10
35.0299112771
 20
-23.3933811719
 11
41.0695517966
 21
-23.3933811719
  0
LINE
  5
370
100
AcDbEntity
  8
DRAFT
100
AcDbLine
 62
7
  6
CONTINUOUS
 10
22.188752368
 20
-22.5522222627
 11
15.5275416294
 21
-22.5522222627
  0
LINE
  5
371
100
AcDbEntity
  8
DRAFT
100
AcDbLine
 62
7
  6
CONTINUOUS
 10
11.2607107057
 20
-22.5522222627
 11
10.438752368
 21
-22.5522222627
  0
LINE
  5
372
100
AcDbEntity
  8
DRAFT
100
AcDbLine
 62
7
  6
CONTINUOUS
 10
6.1719214443
 20
-22.5522222627
 11
-6.9724583706
 21
-22.5522222627
  0
LINE
  5
373
100
AcDbEntity
  8
DRAFT
100
AcDbLine
 62
7
  6
CONTINUOUS
 10
-11.1502684632
 20
-22.5522222627
 11
-12.061247632
 21
-22.5522222627
  0
LINE
  5
374
100
AcDbEntity
  8
DRAFT
100
AcDbLine
 62
7
  6
CONTINUOUS
 10
-16.3280785557
 20
-22.5522222627
 11
-22.9892892943
 21
-22.5522222627
  0
LINE
  5
375
100
AcDbEntity
  8
0
100
AcDbLine
 62
7
  6
CONTINUOUS
 10
41.0695517966
 20
-22.5330216913
 11
35.0299112771
 21
-22.5330216913
  0
LINE
  5
376
100
AcDbEntity
  8
0
100
AcDbLine
 62
7
  6
CONTINUOUS
 10
34.1695517966
 20
-22.5330216913
 11
23.1299112771
 21
-22.5330216913
  0
LINE
  5
377
100
AcDbEntity
  8
0
100
AcDbLine
 62
7
  6
CONTINUOUS
 10
-23.9304482034
 20
-22.5330216913
 11
-34.9700887229
 21
-22.5330216913
  0
LINE
  5
378
100
AcDbEntity
  8
0
100
AcDbLine
 62
7
  6
CONTINUOUS
 10
-35.8304482034
 20
-22.5330216913
 11
-41.8700887229
 21
-22.5330216913
  0
LINE
  5
379
100
AcDbEntity
  8
DRAFT
100
AcDbLine
 62
7
  6
CONTINUOUS
 10
22.1538422381
 20
-22.5173121329
 11
18.3221449232
 21
-22.5173121329
  0
LINE
  5
37A
100
AcDbEntity
  8
DRAFT
100
AcDbLine
 62
7
  6
CONTINUOUS
 10
-19.1226818495
 20
-22.5173121329
 11
-22.9543791644
 21
-22.5173121329
  0
LINE
  5
37B
100
AcDbEntity
  8
DRAFT
100
AcDbLine
 62
7
  6
CONTINUOUS
 10
-19.1292917275
 20
-22.4736744705
 11
-18.7828133982
 21
-22.4736744705
  0
LINE
  5
37C
100
AcDbEntity
  8
DRAFT
100
AcDbLine
 62
7
  6
CONTINUOUS
 10
18.3287548012
 20
-22.4736744705
 11
17.9822764719
 21
-22.4736744705
  0
LINE
  5
37D
100
AcDbEntity
  8
DRAFT
100
AcDbLine
 62
7
  6
CONTINUOUS
 10
0.5822764719
 20
-22.4736744705
 11
3.7171866018
 21
-22.4736744705
  0
LINE
  5
37E
100
AcDbEntity
  8
DRAFT
100
AcDbLine
 62
7
  6
CONTINUOUS
 10
-1.3828133982
 20
-22.4736744705
 11
-4.5177235281
 21
-22.4736744705
  0
LINE
  5
37F
100
AcDbEntity
  8
0
100
AcDbLine
 62
7
  6
CONTINUOUS
 10
41.0032225498
 20
-22.4666924446
 11
35.0962405239
 21
-22.4666924446
  0
LINE
  5
380
100
AcDbEntity
  8
0
100
AcDbLine
 62
7
  6
CONTINUOUS
 10
34.1032225498
 20
-22.4666924446
 11
23.1962405239
 21
-22.4666924446
  0
LINE
  5
381
100
AcDbEntity
  8
0
100
AcDbLine
 62
7
  6
CONTINUOUS
 10
-23.9967774502
 20
-22.4666924446
 11
-34.9037594761
 21
-22.4666924446
  0
LINE
  5
382
100
AcDbEntity
  8
0
100
AcDbLine
 62
7
  6
CONTINUOUS
 10
-35.8967774502
 20
-22.4666924446
 11
-41.8037594761
 21
-22.4666924446
  0
LINE
  5
383
100
AcDbEntity
  8
DRAFT
100
AcDbLine
 62
7
  6
CONTINUOUS
 10
-18.7723403593
 20
-22.4632014316
 11
-16.246505993
 21
-22.4632014316
  0
LINE
  5
384
100
AcDbEntity
  8
DRAFT
100
AcDbLine
 62
7
  6
CONTINUOUS
 10
-14.1502684632
 20
-22.4632014316
 11
-9.1502684632
 21
-22.4632014316
  0
LINE
  5
385
100
AcDbEntity
  8
DRAFT
100
AcDbLine
 62
7
  6
CONTINUOUS
 10
-7.0540309333
 20
-22.4632014316
 11
-4.528196567
 21
-22.4632014316
  0
LINE
  5
386
100
AcDbEntity
  8
DRAFT
100
AcDbLine
 62
7
  6
CONTINUOUS
 10
-1.3723403593
 20
-22.4632014316
 11
0.571803433
 21
-22.4632014316
  0
LINE
  5
387
100
AcDbEntity
  8
DRAFT
100
AcDbLine
 62
7
  6
CONTINUOUS
 10
3.7276596407
 20
-22.4632014316
 11
6.253494007
 21
-22.4632014316
  0
LINE
  5
388
100
AcDbEntity
  8
DRAFT
100
AcDbLine
 62
7
  6
CONTINUOUS
 10
8.3497315368
 20
-22.4632014316
 11
13.3497315368
 21
-22.4632014316
  0
LINE
  5
389
100
AcDbEntity
  8
DRAFT
100
AcDbLine
 62
7
  6
CONTINUOUS
 10
15.4459690667
 20
-22.4632014316
 11
17.971803433
 21
-22.4632014316
  0
LINE
  5
38A
100
AcDbEntity
  8
0
100
AcDbLine
 62
7
  6
CONTINUOUS
 10
-6.1200887229
 20
-25.7899158517
 11
-6.095651632
 21
-25.8000380262
  0
LINE
  5
38B
100
AcDbEntity
  8
DRAFT
100
AcDbLine
 62
7
  6
CONTINUOUS
 10
-7.2369885439
 20
-25.575815979
 11
-7.3228466965
 21
-25.5357796649
  0
LINE
  5
38C
100
AcDbEntity
  8
0
100
AcDbLine
 62
7
  6
CONTINUOUS
 10
-37.8346210664
 20
-0.4597104186
 11
-37.9210630237
 21
-0.3933811719
  0
LINE
  5
38D
100
AcDbEntity
  8
0
100
AcDbLine
 62
7
  6
CONTINUOUS
 10
0.054348368
 20
-34.3648145164
 11
0.0997315368
 21
-34.4095727935
  0
LINE
  5
38E
100
AcDbEntity
  8
0
100
AcDbLine
 62
7
  6
CONTINUOUS
 10
0.0299112771
 20
-32.6405497519
 11
0.054348368
 21
-32.6646583657
  0
LINE
  5
38F
100
AcDbEntity
  8
DRAFT
100
AcDbLine
 62
7
  6
CONTINUOUS
 10
-12.1502684632
 20
-23.9632014316
 11
-12.061247632
 21
-24.0522222627
  0
LINE
  5
390
100
AcDbEntity
  8
DRAFT
100
AcDbLine
 62
7
  6
CONTINUOUS
 10
-12.061247632
 20
-22.5522222627
 11
-12.1502684632
 21
-22.4632014316
  0
LINE
  5
391
100
AcDbEntity
  8
DRAFT
100
AcDbLine
 62
7
  6
CONTINUOUS
 10
-9.178196567
 20
-24.9352733277
 11
-9.1502684632
 21
-24.9632014316
  0
LINE
  5
392
100
AcDbEntity
  8
0
100
AcDbLine
 62
7
  6
CONTINUOUS
 10
-33.0776167835
 20
0.4669783087
 11
-33.1017253972
 21
0.4914153996
  0
LINE
  5
393
100
AcDbEntity
  8
0
100
AcDbLine
 62
7
  6
CONTINUOUS
 10
-34.801881548
 20
0.4914153996
 11
-34.8431989456
 21
0.5333075554
  0
LINE
  5
394
100
AcDbEntity
  8
DRAFT
100
AcDbLine
 62
7
  6
CONTINUOUS
 10
-12.4819603769
 20
-27.2022222627
 11
-12.5502684632
 21
-27.1132014316
  0
LINE
  5
395
100
AcDbEntity
  8
DRAFT
100
AcDbLine
 62
7
  6
CONTINUOUS
 10
-12.3225116496
 20
-26.2632014316
 11
-12.2542035634
 21
-26.3522222627
  0
LINE
  5
396
100
AcDbEntity
  8
0
100
AcDbLine
 62
7
  6
CONTINUOUS
 10
-0.9002684632
 20
-37.3930044581
 11
-0.8304482034
 21
-37.4839959921
  0
LINE
  5
397
100
AcDbEntity
  8
DRAFT
100
AcDbLine
 62
7
  6
CONTINUOUS
 10
-16.3280785557
 20
-22.5522222627
 11
-16.1968455605
 21
-24.0522222627
  0
LINE
  5
398
100
AcDbEntity
  8
DRAFT
100
AcDbLine
 62
7
  6
CONTINUOUS
 10
-16.124933524
 20
-24.8741806004
 11
-16.0635483825
 21
-25.575815979
  0
LINE
  5
399
100
AcDbEntity
  8
DRAFT
100
AcDbLine
 62
7
  6
CONTINUOUS
 10
-16.246505993
 20
-22.4632014316
 11
-16.113042561
 21
-23.9886954408
  0
LINE
  5
39A
100
AcDbEntity
  8
DRAFT
100
AcDbLine
 62
7
  6
CONTINUOUS
 10
-16.0304406824
 20
-24.9328392331
 11
-15.9776902298
 21
-25.5357796649
  0
LINE
  5
39B
100
AcDbEntity
  8
0
100
AcDbLine
 62
7
  6
CONTINUOUS
 10
-21.9089959956
 20
-24.621928964
 11
-21.9089959956
 21
-23.5632014316
  0
LINE
  5
39C
100
AcDbEntity
  8
0
100
AcDbLine
 62
7
  6
CONTINUOUS
 10
-21.9089959956
 20
23.6367985684
 11
-21.9089959956
 21
24.6955261009
  0
LINE
  5
39D
100
AcDbEntity
  8
0
100
AcDbLine
 62
7
  6
CONTINUOUS
 10
-18.7915409307
 20
-24.621928964
 11
-18.7915409307
 21
-23.5632014316
  0
LINE
  5
39E
100
AcDbEntity
  8
0
100
AcDbLine
 62
7
  6
CONTINUOUS
 10
-18.7915409307
 20
23.6367985684
 11
-18.7915409307
 21
24.6955261009
  0
LINE
  5
39F
100
AcDbEntity
  8
DRAFT
100
AcDbLine
 62
7
  6
CONTINUOUS
 10
-16.0635483825
 20
25.6494131158
 11
-16.124933524
 21
24.9477777373
  0
LINE
  5
3A0
100
AcDbEntity
  8
DRAFT
100
AcDbLine
 62
7
  6
CONTINUOUS
 10
-16.1968455605
 20
24.1258193996
 11
-16.3280785557
 21
22.6258193996
  0
LINE
  5
3A1
100
AcDbEntity
  8
DRAFT
100
AcDbLine
 62
7
  6
CONTINUOUS
 10
-16.246505993
 20
22.5367985684
 11
-16.113042561
 21
24.0622925777
  0
LINE
  5
3A2
100
AcDbEntity
  8
DRAFT
100
AcDbLine
 62
7
  6
CONTINUOUS
 10
-16.0304406824
 20
25.0064363699
 11
-15.9776902298
 21
25.6093768018
  0
LINE
  5
3A3
100
AcDbEntity
  8
0
100
AcDbLine
 62
7
  6
CONTINUOUS
 10
-26.9044573568
 20
-15.8097104186
 11
-26.8769828833
 21
-15.7433811719
  0
LINE
  5
3A4
100
AcDbEntity
  8
0
100
AcDbLine
 62
7
  6
CONTINUOUS
 10
-8.4634318686
 20
28.2414153996
 11
-8.473554043
 21
28.2169783087
  0
LINE
  5
3A5
100
AcDbEntity
  8
DRAFT
100
AcDbLine
 62
7
  6
CONTINUOUS
 10
-8.9002684632
 20
27.1867985684
 11
-8.8633948276
 21
27.2758193996
  0
LINE
  5
3A6
100
AcDbEntity
  8
0
100
AcDbLine
 62
7
  6
CONTINUOUS
 10
-28.7048852943
 20
-8.75884089
 11
-28.7374369511
 21
-8.803180738
  0
LINE
  5
3A7
100
AcDbEntity
  8
0
100
AcDbLine
 62
7
  6
CONTINUOUS
 10
-28.7374369511
 20
-8.803180738
 11
-28.7467774502
 21
-8.8158184004
  0
LINE
  5
3A8
100
AcDbEntity
  8
0
100
AcDbLine
 62
7
  6
CONTINUOUS
 10
-34.8853091214
 20
-11.4666924446
 11
-34.9362053425
 21
-11.5330216913
  0
LINE
  5
3A9
100
AcDbEntity
  8
DRAFT
100
AcDbLine
 62
7
  6
CONTINUOUS
 10
-7.1036913659
 20
24.1258193996
 11
-7.1596725363
 21
24.0647266723
  0
LINE
  5
3AA
100
AcDbEntity
  8
DRAFT
100
AcDbLine
 62
7
  6
CONTINUOUS
 10
-6.9724583706
 20
22.6258193996
 11
-7.0540309333
 21
22.5367985684
  0
LINE
  5
3AB
100
AcDbEntity
  8
0
100
AcDbLine
 62
7
  6
CONTINUOUS
 10
-0.8548852943
 20
25.628144041
 11
-0.9002684632
 21
25.581905732
  0
LINE
  5
3AC
100
AcDbEntity
  8
0
100
AcDbLine
 62
7
  6
CONTINUOUS
 10
-0.8304482034
 20
27.3532317985
 11
-0.8548852943
 21
27.3283955512
  0
LINE
  5
3AD
100
AcDbEntity
  8
0
100
AcDbLine
 62
7
  6
CONTINUOUS
 10
-23.9304482034
 20
6.7566188281
 11
-23.9967774502
 21
6.6902895814
  0
LINE
  5
3AE
100
AcDbEntity
  8
0
100
AcDbLine
 62
7
  6
CONTINUOUS
 10
11.1695517966
 20
41.5066188281
 11
11.0997315368
 21
41.4367985684
  0
LINE
  5
3AF
100
AcDbEntity
  8
0
100
AcDbLine
 62
7
  6
CONTINUOUS
 10
-41.8700887229
 20
-11.5330216913
 11
-41.8037594761
 21
-11.4666924446
  0
LINE
  5
3B0
100
AcDbEntity
  8
0
100
AcDbLine
 62
7
  6
CONTINUOUS
 10
-6.0502684632
 20
23.6367985684
 11
-6.1200887229
 21
23.5669783087
  0
LINE
  5
3B1
100
AcDbEntity
  8
DRAFT
100
AcDbLine
 62
7
  6
CONTINUOUS
 10
-4.528196567
 20
22.5367985684
 11
-4.5177235281
 21
22.5472716074
  0
LINE
  5
3B2
100
AcDbEntity
  8
0
100
AcDbLine
 62
7
  6
CONTINUOUS
 10
-1.3915409307
 20
23.6367985684
 11
-1.3985450541
 21
23.629794445
  0
LINE
  5
3B3
100
AcDbEntity
  8
0
100
AcDbLine
 62
7
  6
CONTINUOUS
 10
11.0997315368
 20
34.5191604782
 11
11.1695517966
 21
34.5727354478
  0
LINE
  5
3B4
100
AcDbEntity
  8
0
100
AcDbLine
 62
7
  6
CONTINUOUS
 10
8.3832176363
 20
28.2564951383
 11
8.4253459688
 21
28.2867985684
  0
LINE
  5
3B5
100
AcDbEntity
  8
0
100
AcDbLine
 62
7
  6
CONTINUOUS
 10
8.3620946505
 20
28.2414153996
 11
8.3832176363
 21
28.2564951383
  0
LINE
  5
3B6
100
AcDbEntity
  8
0
100
AcDbLine
 62
7
  6
CONTINUOUS
 10
16.3799112771
 20
25.8635129885
 11
16.4497315368
 21
25.892433487
  0
LINE
  5
3B7
100
AcDbEntity
  8
0
100
AcDbLine
 62
7
  6
CONTINUOUS
 10
-28.7048852943
 20
-8.476364837
 11
-28.6804482034
 21
-8.4864870115
  0
LINE
  5
3B8
100
AcDbEntity
  8
0
100
AcDbLine
 62
7
  6
CONTINUOUS
 10
16.3799112771
 20
-25.7899158517
 11
16.4497315368
 21
-25.8188363502
  0
LINE
  5
3B9
100
AcDbEntity
  8
0
100
AcDbLine
 62
7
  6
CONTINUOUS
 10
8.3620946505
 20
-28.1678182628
 11
8.404301194
 21
-28.1980257111
  0
LINE
  5
3BA
100
AcDbEntity
  8
0
100
AcDbLine
 62
7
  6
CONTINUOUS
 10
8.404301194
 20
-28.1980257111
 11
8.4253459688
 21
-28.2132014316
  0
LINE
  5
3BB
100
AcDbEntity
  8
0
100
AcDbLine
 62
7
  6
CONTINUOUS
 10
11.0997315368
 20
-34.4455633414
 11
11.1695517966
 21
-34.499138311
  0
LINE
  5
3BC
100
AcDbEntity
  8
0
100
AcDbLine
 62
7
  6
CONTINUOUS
 10
-25.9916139357
 20
-0.4178182628
 11
-25.9489353907
 21
-0.4597104186
  0
LINE
  5
3BD
100
AcDbEntity
  8
0
100
AcDbLine
 62
7
  6
CONTINUOUS
 10
-27.7167016932
 20
-0.3933811719
 11
-27.6918654459
 21
-0.4178182628
  0
LINE
  5
3BE
100
AcDbEntity
  8
0
100
AcDbLine
 62
7
  6
CONTINUOUS
 10
-23.9304482034
 20
-6.6830216913
 11
-23.9967774502
 21
-6.6166924446
  0
LINE
  5
3BF
100
AcDbEntity
  8
0
100
AcDbLine
 62
7
  6
CONTINUOUS
 10
-41.8700887229
 20
11.6066188281
 11
-41.8037594761
 21
11.5402895814
  0
LINE
  5
3C0
100
AcDbEntity
  8
0
100
AcDbLine
 62
7
  6
CONTINUOUS
 10
11.1695517966
 20
-41.4330216913
 11
11.0997315368
 21
-41.3632014316
  0
LINE
  5
3C1
100
AcDbEntity
  8
0
100
AcDbLine
 62
7
  6
CONTINUOUS
 10
-6.0502684632
 20
-23.5632014316
 11
-6.1200887229
 21
-23.4933811719
  0
LINE
  5
3C2
100
AcDbEntity
  8
DRAFT
100
AcDbLine
 62
7
  6
CONTINUOUS
 10
-4.528196567
 20
-22.4632014316
 11
-4.5177235281
 21
-22.4736744705
  0
LINE
  5
3C3
100
AcDbEntity
  8
0
100
AcDbLine
 62
7
  6
CONTINUOUS
 10
-1.3915409307
 20
-23.5632014316
 11
-1.3985450541
 21
-23.5561973082
  0
LINE
  5
3C4
100
AcDbEntity
  8
0
100
AcDbLine
 62
7
  6
CONTINUOUS
 10
-0.8304482034
 20
-27.2796346617
 11
-0.8548852943
 21
-27.2547984143
  0
LINE
  5
3C5
100
AcDbEntity
  8
0
100
AcDbLine
 62
7
  6
CONTINUOUS
 10
-0.8548852943
 20
-25.5545469041
 11
-0.9002684632
 21
-25.5083085952
  0
LINE
  5
3C6
100
AcDbEntity
  8
DRAFT
100
AcDbLine
 62
7
  6
CONTINUOUS
 10
-7.1036913659
 20
-24.0522222627
 11
-7.1596725363
 21
-23.9911295355
  0
LINE
  5
3C7
100
AcDbEntity
  8
DRAFT
100
AcDbLine
 62
7
  6
CONTINUOUS
 10
-7.0540309333
 20
-22.4632014316
 11
-6.9724583706
 21
-22.5522222627
  0
LINE
  5
3C8
100
AcDbEntity
  8
0
100
AcDbLine
 62
7
  6
CONTINUOUS
 10
-34.8853091214
 20
11.5402895814
 11
-34.9362053425
 21
11.6066188281
  0
LINE
  5
3C9
100
AcDbEntity
  8
0
100
AcDbLine
 62
7
  6
CONTINUOUS
 10
-28.7171856481
 20
8.8492476378
 11
-28.7467774502
 21
8.8894155373
  0
LWPOLYLINE
  5
3CA
100
AcDbEntity
  8
0
100
AcDbPolyline
 62
7
  6
CONTINUOUS
 90
3
 70
0
 10
-28.6804482034
 20
8.7988409481
 10
-28.6877732836
 20
8.808940045
 10
-28.7171856481
 20
8.8492476378
  0
LINE
  5
3CB
100
AcDbEntity
  8
0
100
AcDbLine
 62
7
  6
CONTINUOUS
 10
-26.9044573568
 20
15.8833075554
 11
-26.8769828833
 21
15.8169783087
  0
LINE
  5
3CC
100
AcDbEntity
  8
0
100
AcDbLine
 62
7
  6
CONTINUOUS
 10
-8.4634318686
 20
-28.1678182628
 11
-8.473554043
 21
-28.1433811719
  0
LINE
  5
3CD
100
AcDbEntity
  8
DRAFT
100
AcDbLine
 62
7
  6
CONTINUOUS
 10
-8.9002684632
 20
-27.1132014316
 11
-8.8633948276
 21
-27.2022222627
  0
LINE
  5
3CE
100
AcDbEntity
  8
DRAFT
100
AcDbLine
 62
7
  6
CONTINUOUS
 10
-14.1310698415
 20
-24.9630079539
 11
-14.1275407015
 21
-25.3132014316
  0
LINE
  5
3CF
100
AcDbEntity
  8
0
100
AcDbLine
 62
7
  6
CONTINUOUS
 10
-17.2502684632
 20
-25.8188363502
 11
-17.2502684632
 21
-23.5632014316
  0
LINE
  5
3D0
100
AcDbEntity
  8
0
100
AcDbLine
 62
7
  6
CONTINUOUS
 10
-17.2502684632
 20
23.6367985684
 11
-17.2502684632
 21
25.892433487
  0
LINE
  5
3D1
100
AcDbEntity
  8
0
100
AcDbLine
 62
7
  6
CONTINUOUS
 10
-17.1804482034
 20
-25.7899158517
 11
-17.1804482034
 21
-23.4933811719
  0
LINE
  5
3D2
100
AcDbEntity
  8
0
100
AcDbLine
 62
7
  6
CONTINUOUS
 10
-17.1804482034
 20
23.5669783087
 11
-17.1804482034
 21
25.8635129885
  0
LINE
  5
3D3
100
AcDbEntity
  8
DRAFT
100
AcDbLine
 62
7
  6
CONTINUOUS
 10
-14.1502684632
 20
25.0367985684
 11
-14.1502684632
 21
25.0088704645
  0
LINE
  5
3D4
100
AcDbEntity
  8
DRAFT
100
AcDbLine
 62
7
  6
CONTINUOUS
 10
-14.1502684632
 20
24.0647266723
 11
-14.1502684632
 21
22.5367985684
  0
LINE
  5
3D5
100
AcDbEntity
  8
DRAFT
100
AcDbLine
 62
7
  6
CONTINUOUS
 10
-14.1502684632
 20
-22.4632014316
 11
-14.1502684632
 21
-23.9911295355
  0
LINE
  5
3D6
100
AcDbEntity
  8
DRAFT
100
AcDbLine
 62
7
  6
CONTINUOUS
 10
-14.1502684632
 20
-24.9352733277
 11
-14.1502684632
 21
-24.9632014316
  0
LINE
  5
3D7
100
AcDbEntity
  8
DRAFT
100
AcDbLine
 62
7
  6
CONTINUOUS
 10
-14.1275407015
 20
25.3867985684
 11
-14.1310698415
 21
25.0366050907
  0
LINE
  5
3D8
100
AcDbEntity
  8
DRAFT
100
AcDbLine
 62
7
  6
CONTINUOUS
 10
-10.8185765494
 20
27.2758193996
 11
-11.0463333629
 21
26.4258193996
  0
LINE
  5
3D9
100
AcDbEntity
  8
DRAFT
100
AcDbLine
 62
7
  6
CONTINUOUS
 10
-10.7502684632
 20
27.1867985684
 11
-10.9780252767
 21
26.3367985684
  0
LINE
  5
3DA
100
AcDbEntity
  8
0
100
AcDbLine
 62
7
  6
CONTINUOUS
 10
-23.9304482034
 20
-0.3933811719
 11
-23.9967774502
 21
-0.4597104186
  0
LINE
  5
3DB
100
AcDbEntity
  8
0
100
AcDbLine
 62
7
  6
CONTINUOUS
 10
0.0299112771
 20
23.5669783087
 11
0.0997315368
 21
23.6367985684
  0
LINE
  5
3DC
100
AcDbEntity
  8
0
100
AcDbLine
 62
7
  6
CONTINUOUS
 10
12.0997315368
 20
35.5367985684
 11
12.0299112771
 21
35.4669783087
  0
LINE
  5
3DD
100
AcDbEntity
  8
0
100
AcDbLine
 62
7
  6
CONTINUOUS
 10
-35.8967774502
 20
-12.4597104186
 11
-35.8304482034
 21
-12.3933811719
  0
LINE
  5
3DE
100
AcDbEntity
  8
DRAFT
100
AcDbLine
 62
7
  6
CONTINUOUS
 10
0.571803433
 20
22.5367985684
 11
0.5822764719
 21
22.5472716074
  0
LINE
  5
3DF
100
AcDbEntity
  8
0
100
AcDbLine
 62
7
  6
CONTINUOUS
 10
5.2951147057
 20
25.873635163
 11
7.6628949423
 21
28.2414153996
  0
LINE
  5
3E0
100
AcDbEntity
  8
0
100
AcDbLine
 62
7
  6
CONTINUOUS
 10
5.3195517966
 20
25.8635129885
 11
7.6730171167
 21
28.2169783087
  0
LINE
  5
3E1
100
AcDbEntity
  8
0
100
AcDbLine
 62
7
  6
CONTINUOUS
 10
-28.7048852943
 20
-8.476364837
 11
-26.8871050577
 21
-6.6585846004
  0
LINE
  5
3E2
100
AcDbEntity
  8
0
100
AcDbLine
 62
7
  6
CONTINUOUS
 10
-28.6804482034
 20
-8.4864870115
 11
-26.8769828833
 21
-6.6830216913
  0
LINE
  5
3E3
100
AcDbEntity
  8
0
100
AcDbLine
 62
7
  6
CONTINUOUS
 10
3.7084590693
 20
23.6367985684
 11
3.7014549459
 21
23.629794445
  0
LINE
  5
3E4
100
AcDbEntity
  8
0
100
AcDbLine
 62
7
  6
CONTINUOUS
 10
22.1695517966
 20
41.5066188281
 11
22.0997315368
 21
41.4367985684
  0
LINE
  5
3E5
100
AcDbEntity
  8
0
100
AcDbLine
 62
7
  6
CONTINUOUS
 10
-41.8700887229
 20
-22.5330216913
 11
-41.8037594761
 21
-22.4666924446
  0
LINE
  5
3E6
100
AcDbEntity
  8
DRAFT
100
AcDbLine
 62
7
  6
CONTINUOUS
 10
8.0628579013
 20
27.2758193996
 11
6.4364516175
 21
25.6494131158
  0
LINE
  5
3E7
100
AcDbEntity
  8
DRAFT
100
AcDbLine
 62
7
  6
CONTINUOUS
 10
6.5223097702
 20
25.6093768018
 11
8.0997315368
 21
27.1867985684
  0
LINE
  5
3E8
100
AcDbEntity
  8
0
100
AcDbLine
 62
7
  6
CONTINUOUS
 10
-27.5624004975
 20
-8.8253334659
 11
-26.5381364288
 21
-7.8010693972
  0
LINE
  5
3E9
100
AcDbEntity
  8
DRAFT
100
AcDbLine
 62
7
  6
CONTINUOUS
 10
6.375066476
 20
24.9477777373
 11
6.4417374886
 21
25.0088704645
  0
LINE
  5
3EA
100
AcDbEntity
  8
DRAFT
100
AcDbLine
 62
7
  6
CONTINUOUS
 10
15.1771533035
 20
25.6093768018
 11
15.2630114561
 21
25.6494131158
  0
LINE
  5
3EB
100
AcDbEntity
  8
0
100
AcDbLine
 62
7
  6
CONTINUOUS
 10
-33.0499043679
 20
1.449393041
 11
-33.0747992506
 21
1.4392963037
  0
LINE
  5
3EC
100
AcDbEntity
  8
0
100
AcDbLine
 62
7
  6
CONTINUOUS
 10
-26.9044573568
 20
-15.8097104186
 11
-23.9967774502
 21
-15.8097104186
  0
LINE
  5
3ED
100
AcDbEntity
  8
0
100
AcDbLine
 62
7
  6
CONTINUOUS
 10
23.1962405239
 20
-15.8097104186
 11
26.1039204305
 21
-15.8097104186
  0
LINE
  5
3EE
100
AcDbEntity
  8
0
100
AcDbLine
 62
7
  6
CONTINUOUS
 10
26.076445957
 20
-15.7433811719
 11
23.1299112771
 21
-15.7433811719
  0
LINE
  5
3EF
100
AcDbEntity
  8
0
100
AcDbLine
 62
7
  6
CONTINUOUS
 10
-23.9304482034
 20
-15.7433811719
 11
-26.8769828833
 21
-15.7433811719
  0
LINE
  5
3F0
100
AcDbEntity
  8
0
100
AcDbLine
 62
7
  6
CONTINUOUS
 10
25.5254674681
 20
-14.7132014316
 11
24.4497315368
 21
-14.7132014316
  0
LINE
  5
3F1
100
AcDbEntity
  8
0
100
AcDbLine
 62
7
  6
CONTINUOUS
 10
-25.2502684632
 20
-14.7132014316
 11
-26.3260043944
 21
-14.7132014316
  0
LINE
  5
3F2
100
AcDbEntity
  8
DRAFT
100
AcDbLine
 62
7
  6
CONTINUOUS
 10
15.2630114561
 20
-25.575815979
 11
15.1771533035
 21
-25.5357796649
  0
LINE
  5
3F3
100
AcDbEntity
  8
DRAFT
100
AcDbLine
 62
7
  6
CONTINUOUS
 10
6.375066476
 20
-24.8741806004
 11
6.4417374886
 21
-24.9352733277
  0
LINE
  5
3F4
100
AcDbEntity
  8
0
100
AcDbLine
 62
7
  6
CONTINUOUS
 10
0.0299112771
 20
-23.4933811719
 11
0.0997315368
 21
-23.5632014316
  0
LINE
  5
3F5
100
AcDbEntity
  8
0
100
AcDbLine
 62
7
  6
CONTINUOUS
 10
-35.8967774502
 20
12.5333075554
 11
-35.8304482034
 21
12.4669783087
  0
LINE
  5
3F6
100
AcDbEntity
  8
0
100
AcDbLine
 62
7
  6
CONTINUOUS
 10
12.0997315368
 20
-35.4632014316
 11
12.0299112771
 21
-35.3933811719
  0
LINE
  5
3F7
100
AcDbEntity
  8
DRAFT
100
AcDbLine
 62
7
  6
CONTINUOUS
 10
0.571803433
 20
-22.4632014316
 11
0.5822764719
 21
-22.4736744705
  0
LINE
  5
3F8
100
AcDbEntity
  8
0
100
AcDbLine
 62
7
  6
CONTINUOUS
 10
7.6628949423
 20
-28.1678182628
 11
5.2951147057
 21
-25.8000380262
  0
LINE
  5
3F9
100
AcDbEntity
  8
0
100
AcDbLine
 62
7
  6
CONTINUOUS
 10
7.6730171167
 20
-28.1433811719
 11
5.3195517966
 21
-25.7899158517
  0
LINE
  5
3FA
100
AcDbEntity
  8
0
100
AcDbLine
 62
7
  6
CONTINUOUS
 10
3.7084590693
 20
-23.5632014316
 11
3.7014549459
 21
-23.5561973082
  0
LINE
  5
3FB
100
AcDbEntity
  8
0
100
AcDbLine
 62
7
  6
CONTINUOUS
 10
-41.8700887229
 20
22.6066188281
 11
-41.8037594761
 21
22.5402895814
  0
LINE
  5
3FC
100
AcDbEntity
  8
0
100
AcDbLine
 62
7
  6
CONTINUOUS
 10
22.1695517966
 20
-41.4330216913
 11
22.0997315368
 21
-41.3632014316
  0
LINE
  5
3FD
100
AcDbEntity
  8
DRAFT
100
AcDbLine
 62
7
  6
CONTINUOUS
 10
6.4364516175
 20
-25.575815979
 11
8.0628579013
 21
-27.2022222627
  0
LINE
  5
3FE
100
AcDbEntity
  8
DRAFT
100
AcDbLine
 62
7
  6
CONTINUOUS
 10
8.0997315368
 20
-27.1132014316
 11
6.5223097702
 21
-25.5357796649
  0
LINE
  5
3FF
100
AcDbEntity
  8
0
100
AcDbLine
 62
7
  6
CONTINUOUS
 10
-26.5381364288
 20
7.8746665341
 11
-27.5624004975
 21
8.8989306028
  0
LINE
  5
400
100
AcDbEntity
  8
DRAFT
100
AcDbLine
 62
7
  6
CONTINUOUS
 10
-11.0463333629
 20
-26.3522222627
 11
-10.8185765494
 21
-27.2022222627
  0
LINE
  5
401
100
AcDbEntity
  8
DRAFT
100
AcDbLine
 62
7
  6
CONTINUOUS
 10
-10.9780252767
 20
-26.2632014316
 11
-10.7502684632
 21
-27.1132014316
  0
LINE
  5
402
100
AcDbEntity
  8
DRAFT
100
AcDbLine
 62
7
  6
CONTINUOUS
 10
-9.1729962248
 20
25.3867985684
 11
-9.1694670848
 21
25.0366050907
  0
LINE
  5
403
100
AcDbEntity
  8
0
100
AcDbLine
 62
7
  6
CONTINUOUS
 10
-12.9002684632
 20
41.4367985684
 11
-12.9002684632
 21
35.5367985684
  0
LINE
  5
404
100
AcDbEntity
  8
0
100
AcDbLine
 62
7
  6
CONTINUOUS
 10
-12.9002684632
 20
34.5367985684
 11
-12.9002684632
 21
28.2867985684
  0
LINE
  5
405
100
AcDbEntity
  8
0
100
AcDbLine
 62
7
  6
CONTINUOUS
 10
-12.9002684632
 20
-41.3632014316
 11
-12.9002684632
 21
-35.4632014316
  0
LINE
  5
406
100
AcDbEntity
  8
0
100
AcDbLine
 62
7
  6
CONTINUOUS
 10
-12.9002684632
 20
-34.4632014316
 11
-12.9002684632
 21
-28.2132014316
  0
LINE
  5
407
100
AcDbEntity
  8
0
100
AcDbLine
 62
7
  6
CONTINUOUS
 10
-12.8304482034
 20
41.5066188281
 11
-12.8304482034
 21
35.4669783087
  0
LINE
  5
408
100
AcDbEntity
  8
0
100
AcDbLine
 62
7
  6
CONTINUOUS
 10
-12.8304482034
 20
34.6066188281
 11
-12.8304482034
 21
28.2169783087
  0
LINE
  5
409
100
AcDbEntity
  8
0
100
AcDbLine
 62
7
  6
CONTINUOUS
 10
-12.8304482034
 20
-28.1433811719
 11
-12.8304482034
 21
-34.5330216913
  0
LINE
  5
40A
100
AcDbEntity
  8
0
100
AcDbLine
 62
7
  6
CONTINUOUS
 10
-12.8304482034
 20
-35.3933811719
 11
-12.8304482034
 21
-41.4330216913
  0
LINE
  5
40B
100
AcDbEntity
  8
DRAFT
100
AcDbLine
 62
7
  6
CONTINUOUS
 10
-12.1502684632
 20
24.0367985684
 11
-12.1502684632
 21
22.5367985684
  0
LINE
  5
40C
100
AcDbEntity
  8
DRAFT
100
AcDbLine
 62
7
  6
CONTINUOUS
 10
-12.1502684632
 20
-22.4632014316
 11
-12.1502684632
 21
-23.9632014316
  0
LINE
  5
40D
100
AcDbEntity
  8
DRAFT
100
AcDbLine
 62
7
  6
CONTINUOUS
 10
-12.061247632
 20
-22.5522222627
 11
-12.061247632
 21
-24.0522222627
  0
LINE
  5
40E
100
AcDbEntity
  8
DRAFT
100
AcDbLine
 62
7
  6
CONTINUOUS
 10
-12.061247632
 20
22.6258193996
 11
-12.061247632
 21
24.1258193996
  0
LINE
  5
40F
100
AcDbEntity
  8
0
100
AcDbLine
 62
7
  6
CONTINUOUS
 10
-11.9700887229
 20
-41.4330216913
 11
-11.9700887229
 21
-35.3898479878
  0
LINE
  5
410
100
AcDbEntity
  8
0
100
AcDbLine
 62
7
  6
CONTINUOUS
 10
-11.9700887229
 20
-34.499138311
 11
-11.9700887229
 21
-28.1433811719
  0
LINE
  5
411
100
AcDbEntity
  8
0
100
AcDbLine
 62
7
  6
CONTINUOUS
 10
-11.9700887229
 20
28.2169783087
 11
-11.9700887229
 21
34.5727354478
  0
LINE
  5
412
100
AcDbEntity
  8
0
100
AcDbLine
 62
7
  6
CONTINUOUS
 10
-11.9700887229
 20
35.4634451246
 11
-11.9700887229
 21
41.5066188281
  0
LINE
  5
413
100
AcDbEntity
  8
0
100
AcDbLine
 62
7
  6
CONTINUOUS
 10
-11.9002684632
 20
41.4367985684
 11
-11.9002684632
 21
35.5544366586
  0
LINE
  5
414
100
AcDbEntity
  8
0
100
AcDbLine
 62
7
  6
CONTINUOUS
 10
-11.9002684632
 20
34.5191604782
 11
-11.9002684632
 21
28.2867985684
  0
LINE
  5
415
100
AcDbEntity
  8
0
100
AcDbLine
 62
7
  6
CONTINUOUS
 10
-11.9002684632
 20
-41.3632014316
 11
-11.9002684632
 21
-35.4808395218
  0
LINE
  5
416
100
AcDbEntity
  8
0
100
AcDbLine
 62
7
  6
CONTINUOUS
 10
-11.9002684632
 20
-34.4455633414
 11
-11.9002684632
 21
-28.2132014316
  0
LINE
  5
417
100
AcDbEntity
  8
DRAFT
100
AcDbLine
 62
7
  6
CONTINUOUS
 10
-11.2392892943
 20
22.6258193996
 11
-11.2392892943
 21
24.1258193996
  0
LINE
  5
418
100
AcDbEntity
  8
DRAFT
100
AcDbLine
 62
7
  6
CONTINUOUS
 10
-11.1502684632
 20
24.0367985684
 11
-11.1502684632
 21
22.5367985684
  0
LINE
  5
419
100
AcDbEntity
  8
DRAFT
100
AcDbLine
 62
7
  6
CONTINUOUS
 10
-11.1502684632
 20
-22.4632014316
 11
-11.1502684632
 21
-24.0522222627
  0
LINE
  5
41A
100
AcDbEntity
  8
DRAFT
100
AcDbLine
 62
7
  6
CONTINUOUS
 10
-9.1502684632
 20
25.0367985684
 11
-9.1502684632
 21
25.0088704645
  0
LINE
  5
41B
100
AcDbEntity
  8
DRAFT
100
AcDbLine
 62
7
  6
CONTINUOUS
 10
-9.1502684632
 20
24.0647266723
 11
-9.1502684632
 21
22.5367985684
  0
LINE
  5
41C
100
AcDbEntity
  8
DRAFT
100
AcDbLine
 62
7
  6
CONTINUOUS
 10
-9.1502684632
 20
-22.4632014316
 11
-9.1502684632
 21
-23.9911295355
  0
LINE
  5
41D
100
AcDbEntity
  8
DRAFT
100
AcDbLine
 62
7
  6
CONTINUOUS
 10
-9.1502684632
 20
-24.9352733277
 11
-9.1502684632
 21
-24.9632014316
  0
LINE
  5
41E
100
AcDbEntity
  8
DRAFT
100
AcDbLine
 62
7
  6
CONTINUOUS
 10
-9.1694670848
 20
-24.9630079539
 11
-9.1729962248
 21
-25.3132014316
  0
LINE
  5
41F
100
AcDbEntity
  8
DRAFT
100
AcDbLine
 62
7
  6
CONTINUOUS
 10
-19.1118366626
 20
-22.4911295355
 11
-19.1226818495
 21
-22.5173121329
  0
LINE
  5
420
100
AcDbEntity
  8
0
100
AcDbLine
 62
7
  6
CONTINUOUS
 10
5.2951147057
 20
25.4157964526
 11
5.2649038228
 21
25.3770249988
  0
LINE
  5
421
100
AcDbEntity
  8
0
100
AcDbLine
 62
7
  6
CONTINUOUS
 10
5.2649038228
 20
25.3770249988
 11
5.2497315368
 21
25.3576846112
  0
LINE
  5
422
100
AcDbEntity
  8
0
100
AcDbLine
 62
7
  6
CONTINUOUS
 10
-28.6804482034
 20
-12.3933811719
 11
-28.7467774502
 21
-12.4597104186
  0
LINE
  5
423
100
AcDbEntity
  8
0
100
AcDbLine
 62
7
  6
CONTINUOUS
 10
12.0299112771
 20
28.2169783087
 11
12.0997315368
 21
28.2867985684
  0
LINE
  5
424
100
AcDbEntity
  8
DRAFT
100
AcDbLine
 62
7
  6
CONTINUOUS
 10
8.3776596407
 20
24.0647266723
 11
8.3497315368
 21
24.0367985684
  0
LINE
  5
425
100
AcDbEntity
  8
DRAFT
100
AcDbLine
 62
7
  6
CONTINUOUS
 10
10.438752368
 20
24.1258193996
 11
10.3497315368
 21
24.0367985684
  0
LINE
  5
426
100
AcDbEntity
  8
0
100
AcDbLine
 62
7
  6
CONTINUOUS
 10
23.0997315368
 20
35.5367985684
 11
23.0299112771
 21
35.4669783087
  0
LINE
  5
427
100
AcDbEntity
  8
0
100
AcDbLine
 62
7
  6
CONTINUOUS
 10
-35.9002684632
 20
-23.4632014316
 11
-35.8304482034
 21
-23.3933811719
  0
LINE
  5
428
100
AcDbEntity
  8
0
100
AcDbLine
 62
7
  6
CONTINUOUS
 10
-34.9037594761
 20
-22.4666924446
 11
-34.9700887229
 21
-22.5330216913
  0
LINE
  5
429
100
AcDbEntity
  8
0
100
AcDbLine
 62
7
  6
CONTINUOUS
 10
22.0997315368
 20
34.5367985684
 11
22.1695517966
 21
34.6066188281
  0
LINE
  5
42A
100
AcDbEntity
  8
DRAFT
100
AcDbLine
 62
7
  6
CONTINUOUS
 10
22.1276596407
 20
18.7483667678
 11
22.1538422381
 21
18.7592119548
  0
LINE
  5
42B
100
AcDbEntity
  8
0
100
AcDbLine
 62
7
  6
CONTINUOUS
 10
-41.8037594761
 20
-12.4597104186
 11
-35.8967774502
 21
-12.4597104186
  0
LINE
  5
42C
100
AcDbEntity
  8
0
100
AcDbLine
 62
7
  6
CONTINUOUS
 10
-34.9037594761
 20
-12.4597104186
 11
-28.7467774502
 21
-12.4597104186
  0
LINE
  5
42D
100
AcDbEntity
  8
0
100
AcDbLine
 62
7
  6
CONTINUOUS
 10
27.9462405239
 20
-12.4597104186
 11
34.1032225498
 21
-12.4597104186
  0
LINE
  5
42E
100
AcDbEntity
  8
0
100
AcDbLine
 62
7
  6
CONTINUOUS
 10
35.0962405239
 20
-12.4597104186
 11
41.0032225498
 21
-12.4597104186
  0
LINE
  5
42F
100
AcDbEntity
  8
0
100
AcDbLine
 62
7
  6
CONTINUOUS
 10
-41.8700887229
 20
-12.3933811719
 11
-35.8304482034
 21
-12.3933811719
  0
LINE
  5
430
100
AcDbEntity
  8
0
100
AcDbLine
 62
7
  6
CONTINUOUS
 10
-34.9700887229
 20
-12.3933811719
 11
-28.6804482034
 21
-12.3933811719
  0
LINE
  5
431
100
AcDbEntity
  8
0
100
AcDbLine
 62
7
  6
CONTINUOUS
 10
27.8799112771
 20
-12.3933811719
 11
34.1695517966
 21
-12.3933811719
  0
LINE
  5
432
100
AcDbEntity
  8
0
100
AcDbLine
 62
7
  6
CONTINUOUS
 10
35.0299112771
 20
-12.3933811719
 11
41.0695517966
 21
-12.3933811719
  0
LINE
  5
433
100
AcDbEntity
  8
0
100
AcDbLine
 62
7
  6
CONTINUOUS
 10
41.0695517966
 20
-11.5330216913
 11
35.0263780931
 21
-11.5330216913
  0
LINE
  5
434
100
AcDbEntity
  8
0
100
AcDbLine
 62
7
  6
CONTINUOUS
 10
34.1356684162
 20
-11.5330216913
 11
27.8799112771
 21
-11.5330216913
  0
LINE
  5
435
100
AcDbEntity
  8
0
100
AcDbLine
 62
7
  6
CONTINUOUS
 10
-28.6804482034
 20
-11.5330216913
 11
-34.9362053425
 21
-11.5330216913
  0
LINE
  5
436
100
AcDbEntity
  8
0
100
AcDbLine
 62
7
  6
CONTINUOUS
 10
-35.8269150194
 20
-11.5330216913
 11
-41.8700887229
 21
-11.5330216913
  0
LINE
  5
437
100
AcDbEntity
  8
0
100
AcDbLine
 62
7
  6
CONTINUOUS
 10
41.0032225498
 20
-11.4666924446
 11
35.1128200503
 21
-11.4666924446
  0
LINE
  5
438
100
AcDbEntity
  8
0
100
AcDbLine
 62
7
  6
CONTINUOUS
 10
34.0847721951
 20
-11.4666924446
 11
27.9462405239
 21
-11.4666924446
  0
LINE
  5
439
100
AcDbEntity
  8
0
100
AcDbLine
 62
7
  6
CONTINUOUS
 10
-28.7467774502
 20
-11.4666924446
 11
-34.8853091214
 21
-11.4666924446
  0
LINE
  5
43A
100
AcDbEntity
  8
0
100
AcDbLine
 62
7
  6
CONTINUOUS
 10
-35.9133569767
 20
-11.4666924446
 11
-41.8037594761
 21
-11.4666924446
  0
LINE
  5
43B
100
AcDbEntity
  8
DRAFT
100
AcDbLine
 62
7
  6
CONTINUOUS
 10
22.1276596407
 20
-18.674769631
 11
22.1538422381
 21
-18.6856148179
  0
LINE
  5
43C
100
AcDbEntity
  8
0
100
AcDbLine
 62
7
  6
CONTINUOUS
 10
-27.705347625
 20
0.9341452075
 11
-27.6813450398
 21
0.9204292318
  0
LINE
  5
43D
100
AcDbEntity
  8
0
100
AcDbLine
 62
7
  6
CONTINUOUS
 10
-28.6804482034
 20
12.4669783087
 11
-28.7467774502
 21
12.5333075554
  0
LINE
  5
43E
100
AcDbEntity
  8
0
100
AcDbLine
 62
7
  6
CONTINUOUS
 10
12.0299112771
 20
-28.1433811719
 11
12.0997315368
 21
-28.2132014316
  0
LINE
  5
43F
100
AcDbEntity
  8
DRAFT
100
AcDbLine
 62
7
  6
CONTINUOUS
 10
8.3497315368
 20
-23.9632014316
 11
8.3776596407
 21
-23.9911295355
  0
LINE
  5
440
100
AcDbEntity
  8
DRAFT
100
AcDbLine
 62
7
  6
CONTINUOUS
 10
10.3497315368
 20
-23.9632014316
 11
10.438752368
 21
-24.0522222627
  0
LINE
  5
441
100
AcDbEntity
  8
0
100
AcDbLine
 62
7
  6
CONTINUOUS
 10
-35.9002684632
 20
23.5367985684
 11
-35.8304482034
 21
23.4669783087
  0
LINE
  5
442
100
AcDbEntity
  8
0
100
AcDbLine
 62
7
  6
CONTINUOUS
 10
23.0997315368
 20
-35.4632014316
 11
23.0299112771
 21
-35.3933811719
  0
LINE
  5
443
100
AcDbEntity
  8
0
100
AcDbLine
 62
7
  6
CONTINUOUS
 10
22.0997315368
 20
-34.4632014316
 11
22.1695517966
 21
-34.5330216913
  0
LINE
  5
444
100
AcDbEntity
  8
0
100
AcDbLine
 62
7
  6
CONTINUOUS
 10
-34.9037594761
 20
22.5402895814
 11
-34.9700887229
 21
22.6066188281
  0
LINE
  5
445
100
AcDbEntity
  8
0
100
AcDbLine
 62
7
  6
CONTINUOUS
 10
5.2800315338
 20
-25.3227983237
 11
5.2497315368
 21
-25.2840874744
  0
LINE
  5
446
100
AcDbEntity
  8
0
100
AcDbLine
 62
7
  6
CONTINUOUS
 10
5.2951147057
 20
-25.3421993158
 11
5.2800315338
 21
-25.3227983237
  0
LINE
  5
447
100
AcDbEntity
  8
DRAFT
100
AcDbLine
 62
7
  6
CONTINUOUS
 10
-19.1118366626
 20
22.5647266723
 11
-19.1226818495
 21
22.5909092697
  0
LINE
  5
448
100
AcDbEntity
  8
DRAFT
100
AcDbLine
 62
7
  6
CONTINUOUS
 10
-7.0540309333
 20
22.5367985684
 11
-7.1874943654
 21
24.0622925777
  0
LINE
  5
449
100
AcDbEntity
  8
DRAFT
100
AcDbLine
 62
7
  6
CONTINUOUS
 10
-7.2700962439
 20
25.0064363699
 11
-7.3228466965
 21
25.6093768018
  0
LINE
  5
44A
100
AcDbEntity
  8
DRAFT
100
AcDbLine
 62
7
  6
CONTINUOUS
 10
-6.9724583706
 20
22.6258193996
 11
-7.1036913659
 21
24.1258193996
  0
LINE
  5
44B
100
AcDbEntity
  8
DRAFT
100
AcDbLine
 62
7
  6
CONTINUOUS
 10
-7.1756034023
 20
24.9477777373
 11
-7.2369885439
 21
25.6494131158
  0
LINE
  5
44C
100
AcDbEntity
  8
0
100
AcDbLine
 62
7
  6
CONTINUOUS
 10
-6.1200887229
 20
25.8635129885
 11
-6.1200887229
 21
23.5669783087
  0
LINE
  5
44D
100
AcDbEntity
  8
0
100
AcDbLine
 62
7
  6
CONTINUOUS
 10
-6.1200887229
 20
-23.4933811719
 11
-6.1200887229
 21
-25.7899158517
  0
LINE
  5
44E
100
AcDbEntity
  8
0
100
AcDbLine
 62
7
  6
CONTINUOUS
 10
-6.095651632
 20
25.873635163
 11
-6.095651632
 21
25.4157964526
  0
LINE
  5
44F
100
AcDbEntity
  8
0
100
AcDbLine
 62
7
  6
CONTINUOUS
 10
-6.095651632
 20
-25.3421993158
 11
-6.095651632
 21
-25.8000380262
  0
LINE
  5
450
100
AcDbEntity
  8
0
100
AcDbLine
 62
7
  6
CONTINUOUS
 10
-6.0502684632
 20
25.3576846112
 11
-6.0502684632
 21
23.6367985684
  0
LINE
  5
451
100
AcDbEntity
  8
0
100
AcDbLine
 62
7
  6
CONTINUOUS
 10
-6.0502684632
 20
-23.5632014316
 11
-6.0502684632
 21
-25.2840874744
  0
LINE
  5
452
100
AcDbEntity
  8
0
100
AcDbLine
 62
7
  6
CONTINUOUS
 10
-4.5089959956
 20
-24.621928964
 11
-4.5089959956
 21
-23.5632014316
  0
LINE
  5
453
100
AcDbEntity
  8
0
100
AcDbLine
 62
7
  6
CONTINUOUS
 10
-4.5089959956
 20
23.6367985684
 11
-4.5089959956
 21
24.6955261009
  0
LINE
  5
454
100
AcDbEntity
  8
DRAFT
100
AcDbLine
 62
7
  6
CONTINUOUS
 10
-7.0540309333
 20
-22.4632014316
 11
-7.1874943654
 21
-23.9886954408
  0
LINE
  5
455
100
AcDbEntity
  8
DRAFT
100
AcDbLine
 62
7
  6
CONTINUOUS
 10
-7.2700962439
 20
-24.9328392331
 11
-7.3228466965
 21
-25.5357796649
  0
LINE
  5
456
100
AcDbEntity
  8
DRAFT
100
AcDbLine
 62
7
  6
CONTINUOUS
 10
-7.2369885439
 20
-25.575815979
 11
-7.1756034023
 21
-24.8741806004
  0
LINE
  5
457
100
AcDbEntity
  8
DRAFT
100
AcDbLine
 62
7
  6
CONTINUOUS
 10
-7.1036913659
 20
-24.0522222627
 11
-6.9724583706
 21
-22.5522222627
  0
LINE
  5
458
100
AcDbEntity
  8
DRAFT
100
AcDbLine
 62
7
  6
CONTINUOUS
 10
-12.5502684632
 20
-27.1132014316
 11
-12.3225116496
 21
-26.2632014316
  0
LINE
  5
459
100
AcDbEntity
  8
DRAFT
100
AcDbLine
 62
7
  6
CONTINUOUS
 10
-12.4819603769
 20
-27.2022222627
 11
-12.2542035634
 21
-26.3522222627
  0
LINE
  5
45A
100
AcDbEntity
  8
DRAFT
100
AcDbLine
 62
7
  6
CONTINUOUS
 10
10.0180396231
 20
27.2758193996
 11
9.9497315368
 21
27.1867985684
  0
LINE
  5
45B
100
AcDbEntity
  8
DRAFT
100
AcDbLine
 62
7
  6
CONTINUOUS
 10
10.1774883504
 20
26.3367985684
 11
10.2457964366
 21
26.4258193996
  0
LINE
  5
45C
100
AcDbEntity
  8
0
100
AcDbLine
 62
7
  6
CONTINUOUS
 10
-37.9450677502
 20
-35.4551070058
 11
-37.9222553929
 21
-35.4275867022
  0
LWPOLYLINE
  5
45D
100
AcDbEntity
  8
0
100
AcDbPolyline
 62
7
  6
CONTINUOUS
 90
3
 70
0
 10
-37.9222553929
 20
-35.4275867022
 10
-37.899351185
 20
-35.4002049515
 10
-37.8936105795
 20
-35.3933811719
  0
LINE
  5
45E
100
AcDbEntity
  8
DRAFT
100
AcDbLine
 62
7
  6
CONTINUOUS
 10
15.3963086341
 20
24.1258193996
 11
15.3403274637
 21
24.0647266723
  0
LINE
  5
45F
100
AcDbEntity
  8
DRAFT
100
AcDbLine
 62
7
  6
CONTINUOUS
 10
10.438752368
 20
22.6258193996
 11
10.3497315368
 21
22.5367985684
  0
LINE
  5
460
100
AcDbEntity
  8
DRAFT
100
AcDbLine
 62
7
  6
CONTINUOUS
 10
13.3497315368
 20
25.0367985684
 11
13.321803433
 21
25.0088704645
  0
LINE
  5
461
100
AcDbEntity
  8
0
100
AcDbLine
 62
7
  6
CONTINUOUS
 10
-23.9304482034
 20
-15.7433811719
 11
-23.9967774502
 21
-15.8097104186
  0
LINE
  5
462
100
AcDbEntity
  8
0
100
AcDbLine
 62
7
  6
CONTINUOUS
 10
34.1695517966
 20
41.5066188281
 11
34.0997315368
 21
41.4367985684
  0
LINE
  5
463
100
AcDbEntity
  8
0
100
AcDbLine
 62
7
  6
CONTINUOUS
 10
-41.8700887229
 20
-34.5330216913
 11
-41.8002684632
 21
-34.4632014316
  0
LINE
  5
464
100
AcDbEntity
  8
0
100
AcDbLine
 62
7
  6
CONTINUOUS
 10
16.4497315368
 20
23.6367985684
 11
16.3799112771
 21
23.5669783087
  0
LINE
  5
465
100
AcDbEntity
  8
0
100
AcDbLine
 62
7
  6
CONTINUOUS
 10
35.0572583746
 20
37.5530681859
 11
35.0299112771
 21
37.5301406848
  0
LWPOLYLINE
  5
466
100
AcDbEntity
  8
0
100
AcDbPolyline
 62
7
  6
CONTINUOUS
 90
3
 70
0
 10
35.091637111
 20
37.5815978555
 10
35.084744049
 20
37.5759033075
 10
35.0572583746
 20
37.5530681859
  0
LINE
  5
467
100
AcDbEntity
  8
0
100
AcDbLine
 62
7
  6
CONTINUOUS
 10
-26.140204548
 20
-6.640019507
 11
-26.1015699862
 21
-6.6166924446
  0
LINE
  5
468
100
AcDbEntity
  8
0
100
AcDbLine
 62
7
  6
CONTINUOUS
 10
-26.1712276156
 20
-6.6585846004
 11
-26.140204548
 21
-6.640019507
  0
LINE
  5
469
100
AcDbEntity
  8
0
100
AcDbLine
 62
7
  6
CONTINUOUS
 10
-26.3260043944
 20
-7.7132014316
 11
-25.2502684632
 21
-7.7132014316
  0
LINE
  5
46A
100
AcDbEntity
  8
0
100
AcDbLine
 62
7
  6
CONTINUOUS
 10
24.4497315368
 20
-7.7132014316
 11
25.5254674681
 21
-7.7132014316
  0
LINE
  5
46B
100
AcDbEntity
  8
0
100
AcDbLine
 62
7
  6
CONTINUOUS
 10
-26.8769828833
 20
-6.6830216913
 11
-23.9304482034
 21
-6.6830216913
  0
LINE
  5
46C
100
AcDbEntity
  8
0
100
AcDbLine
 62
7
  6
CONTINUOUS
 10
23.1299112771
 20
-6.6830216913
 11
25.4119088514
 21
-6.6830216913
  0
LINE
  5
46D
100
AcDbEntity
  8
0
100
AcDbLine
 62
7
  6
CONTINUOUS
 10
-26.8871050577
 20
-6.6585846004
 11
-26.1712276156
 21
-6.6585846004
  0
LINE
  5
46E
100
AcDbEntity
  8
0
100
AcDbLine
 62
7
  6
CONTINUOUS
 10
25.3010330599
 20
-6.6166924446
 11
23.1962405239
 21
-6.6166924446
  0
LINE
  5
46F
100
AcDbEntity
  8
0
100
AcDbLine
 62
7
  6
CONTINUOUS
 10
-23.9967774502
 20
-6.6166924446
 11
-26.1015699862
 21
-6.6166924446
  0
LINE
  5
470
100
AcDbEntity
  8
0
100
AcDbLine
 62
7
  6
CONTINUOUS
 10
-26.2124457777
 20
6.7566188281
 11
-26.1630035745
 21
6.7272746895
  0
LWPOLYLINE
  5
471
100
AcDbEntity
  8
0
100
AcDbPolyline
 62
7
  6
CONTINUOUS
 90
3
 70
0
 10
-26.1630035745
 20
6.7272746895
 10
-26.1138245169
 20
6.6977137301
 10
-26.1015699862
 20
6.6902895814
  0
LINE
  5
472
100
AcDbEntity
  8
0
100
AcDbLine
 62
7
  6
CONTINUOUS
 10
35.091637111
 20
-37.5080007187
 11
35.0641168075
 21
-37.4851883614
  0
LWPOLYLINE
  5
473
100
AcDbEntity
  8
0
100
AcDbPolyline
 62
7
  6
CONTINUOUS
 90
3
 70
0
 10
35.0641168075
 20
-37.4851883614
 10
35.0367350568
 20
-37.4622841534
 10
35.0299112771
 20
-37.4565435479
  0
LINE
  5
474
100
AcDbEntity
  8
DRAFT
100
AcDbLine
 62
7
  6
CONTINUOUS
 10
10.438752368
 20
-22.5522222627
 11
10.3497315368
 21
-22.4632014316
  0
LINE
  5
475
100
AcDbEntity
  8
DRAFT
100
AcDbLine
 62
7
  6
CONTINUOUS
 10
13.321803433
 20
-24.9352733277
 11
13.3497315368
 21
-24.9632014316
  0
LINE
  5
476
100
AcDbEntity
  8
0
100
AcDbLine
 62
7
  6
CONTINUOUS
 10
-23.9304482034
 20
15.8169783087
 11
-23.9967774502
 21
15.8833075554
  0
LINE
  5
477
100
AcDbEntity
  8
0
100
AcDbLine
 62
7
  6
CONTINUOUS
 10
-41.8700887229
 20
34.6066188281
 11
-41.8002684632
 21
34.5367985684
  0
LINE
  5
478
100
AcDbEntity
  8
0
100
AcDbLine
 62
7
  6
CONTINUOUS
 10
34.1695517966
 20
-41.4330216913
 11
34.0997315368
 21
-41.3632014316
  0
LINE
  5
479
100
AcDbEntity
  8
0
100
AcDbLine
 62
7
  6
CONTINUOUS
 10
16.4497315368
 20
-23.5632014316
 11
16.3799112771
 21
-23.4933811719
  0
LINE
  5
47A
100
AcDbEntity
  8
DRAFT
100
AcDbLine
 62
7
  6
CONTINUOUS
 10
15.3963086341
 20
-24.0522222627
 11
15.3403274637
 21
-23.9911295355
  0
LINE
  5
47B
100
AcDbEntity
  8
0
100
AcDbLine
 62
7
  6
CONTINUOUS
 10
-37.9165380806
 20
35.4943254062
 11
-37.8936105795
 21
35.4669783087
  0
LWPOLYLINE
  5
47C
100
AcDbEntity
  8
0
100
AcDbPolyline
 62
7
  6
CONTINUOUS
 90
3
 70
0
 10
-37.9450677502
 20
35.5287041426
 10
-37.9393732023
 20
35.5218110805
 10
-37.9165380806
 20
35.4943254062
  0
LINE
  5
47D
100
AcDbEntity
  8
DRAFT
100
AcDbLine
 62
7
  6
CONTINUOUS
 10
10.0180396231
 20
-27.2022222627
 11
9.9497315368
 21
-27.1132014316
  0
LINE
  5
47E
100
AcDbEntity
  8
DRAFT
100
AcDbLine
 62
7
  6
CONTINUOUS
 10
10.1774883504
 20
-26.2632014316
 11
10.2457964366
 21
-26.3522222627
  0
LINE
  5
47F
100
AcDbEntity
  8
DRAFT
100
AcDbLine
 62
7
  6
CONTINUOUS
 10
-12.3225116496
 20
26.3367985684
 11
-12.5502684632
 21
27.1867985684
  0
LINE
  5
480
100
AcDbEntity
  8
DRAFT
100
AcDbLine
 62
7
  6
CONTINUOUS
 10
-12.2542035634
 20
26.4258193996
 11
-12.4819603769
 21
27.2758193996
  0
LINE
  5
481
100
AcDbEntity
  8
0
100
AcDbLine
 62
7
  6
CONTINUOUS
 10
-1.3915409307
 20
-24.621928964
 11
-1.3915409307
 21
-23.5632014316
  0
LINE
  5
482
100
AcDbEntity
  8
0
100
AcDbLine
 62
7
  6
CONTINUOUS
 10
-1.3915409307
 20
23.6367985684
 11
-1.3915409307
 21
24.6955261009
  0
LINE
  5
483
100
AcDbEntity
  8
0
100
AcDbLine
 62
7
  6
CONTINUOUS
 10
-0.9002684632
 20
41.4367985684
 11
-0.9002684632
 21
38.5018777754
  0
LINE
  5
484
100
AcDbEntity
  8
0
100
AcDbLine
 62
7
  6
CONTINUOUS
 10
-0.9002684632
 20
37.466601595
 11
-0.9002684632
 21
34.4831699303
  0
LINE
  5
485
100
AcDbEntity
  8
0
100
AcDbLine
 62
7
  6
CONTINUOUS
 10
-0.9002684632
 20
25.581905732
 11
-0.9002684632
 21
23.6367985684
  0
LINE
  5
486
100
AcDbEntity
  8
0
100
AcDbLine
 62
7
  6
CONTINUOUS
 10
-0.9002684632
 20
-41.3632014316
 11
-0.9002684632
 21
-38.4282806385
  0
LINE
  5
487
100
AcDbEntity
  8
0
100
AcDbLine
 62
7
  6
CONTINUOUS
 10
-0.9002684632
 20
-37.3930044581
 11
-0.9002684632
 21
-34.4095727935
  0
LINE
  5
488
100
AcDbEntity
  8
0
100
AcDbLine
 62
7
  6
CONTINUOUS
 10
-0.9002684632
 20
-23.5632014316
 11
-0.9002684632
 21
-25.5083085952
  0
LINE
  5
489
100
AcDbEntity
  8
0
100
AcDbLine
 62
7
  6
CONTINUOUS
 10
-0.8548852943
 20
34.4384116532
 11
-0.8548852943
 21
32.7382555025
  0
LINE
  5
48A
100
AcDbEntity
  8
0
100
AcDbLine
 62
7
  6
CONTINUOUS
 10
-0.8548852943
 20
27.3283955512
 11
-0.8548852943
 21
25.628144041
  0
LINE
  5
48B
100
AcDbEntity
  8
0
100
AcDbLine
 62
7
  6
CONTINUOUS
 10
-0.8548852943
 20
-34.3648145164
 11
-0.8548852943
 21
-32.6646583657
  0
LINE
  5
48C
100
AcDbEntity
  8
0
100
AcDbLine
 62
7
  6
CONTINUOUS
 10
-0.8548852943
 20
-25.5545469041
 11
-0.8548852943
 21
-27.2547984143
  0
LINE
  5
48D
100
AcDbEntity
  8
0
100
AcDbLine
 62
7
  6
CONTINUOUS
 10
-0.8304482034
 20
41.5066188281
 11
-0.8304482034
 21
38.4483028058
  0
LINE
  5
48E
100
AcDbEntity
  8
0
100
AcDbLine
 62
7
  6
CONTINUOUS
 10
-0.8304482034
 20
37.557593129
 11
-0.8304482034
 21
32.7141468888
  0
LINE
  5
48F
100
AcDbEntity
  8
0
100
AcDbLine
 62
7
  6
CONTINUOUS
 10
-0.8304482034
 20
27.3532317985
 11
-0.8304482034
 21
23.5669783087
  0
LINE
  5
490
100
AcDbEntity
  8
0
100
AcDbLine
 62
7
  6
CONTINUOUS
 10
-0.8304482034
 20
-23.4933811719
 11
-0.8304482034
 21
-27.2796346617
  0
LINE
  5
491
100
AcDbEntity
  8
0
100
AcDbLine
 62
7
  6
CONTINUOUS
 10
-0.8304482034
 20
-32.6405497519
 11
-0.8304482034
 21
-37.4839959921
  0
LINE
  5
492
100
AcDbEntity
  8
0
100
AcDbLine
 62
7
  6
CONTINUOUS
 10
-0.8304482034
 20
-38.3747056689
 11
-0.8304482034
 21
-41.4330216913
  0
LINE
  5
493
100
AcDbEntity
  8
0
100
AcDbLine
 62
7
  6
CONTINUOUS
 10
0.0299112771
 20
-41.4330216913
 11
0.0299112771
 21
-38.3747056689
  0
LINE
  5
494
100
AcDbEntity
  8
0
100
AcDbLine
 62
7
  6
CONTINUOUS
 10
0.0299112771
 20
-37.4839959921
 11
0.0299112771
 21
-32.6405497519
  0
LINE
  5
495
100
AcDbEntity
  8
0
100
AcDbLine
 62
7
  6
CONTINUOUS
 10
0.0299112771
 20
-27.2796346617
 11
0.0299112771
 21
-23.4933811719
  0
LINE
  5
496
100
AcDbEntity
  8
0
100
AcDbLine
 62
7
  6
CONTINUOUS
 10
0.0299112771
 20
23.5669783087
 11
0.0299112771
 21
27.3532317985
  0
LINE
  5
497
100
AcDbEntity
  8
0
100
AcDbLine
 62
7
  6
CONTINUOUS
 10
0.0299112771
 20
32.7141468888
 11
0.0299112771
 21
37.557593129
  0
LINE
  5
498
100
AcDbEntity
  8
0
100
AcDbLine
 62
7
  6
CONTINUOUS
 10
0.0299112771
 20
38.4483028058
 11
0.0299112771
 21
41.5066188281
  0
LINE
  5
499
100
AcDbEntity
  8
0
100
AcDbLine
 62
7
  6
CONTINUOUS
 10
0.054348368
 20
34.4384116532
 11
0.054348368
 21
32.7382555025
  0
LINE
  5
49A
100
AcDbEntity
  8
0
100
AcDbLine
 62
7
  6
CONTINUOUS
 10
0.054348368
 20
-34.3648145164
 11
0.054348368
 21
-32.6646583657
  0
LINE
  5
49B
100
AcDbEntity
  8
0
100
AcDbLine
 62
7
  6
CONTINUOUS
 10
0.054348368
 20
-27.2547984143
 11
0.054348368
 21
-25.5545469041
  0
LINE
  5
49C
100
AcDbEntity
  8
0
100
AcDbLine
 62
7
  6
CONTINUOUS
 10
0.054348368
 20
25.628144041
 11
0.054348368
 21
27.3283955512
  0
LINE
  5
49D
100
AcDbEntity
  8
0
100
AcDbLine
 62
7
  6
CONTINUOUS
 10
0.0997315368
 20
41.4367985684
 11
0.0997315368
 21
38.5018777754
  0
LINE
  5
49E
100
AcDbEntity
  8
0
100
AcDbLine
 62
7
  6
CONTINUOUS
 10
0.0997315368
 20
37.466601595
 11
0.0997315368
 21
34.4831699303
  0
LINE
  5
49F
100
AcDbEntity
  8
0
100
AcDbLine
 62
7
  6
CONTINUOUS
 10
0.0997315368
 20
-41.3632014316
 11
0.0997315368
 21
-38.4282806385
  0
LINE
  5
4A0
100
AcDbEntity
  8
0
100
AcDbLine
 62
7
  6
CONTINUOUS
 10
0.0997315368
 20
-37.3930044581
 11
0.0997315368
 21
-34.4095727935
  0
LINE
  5
4A1
100
AcDbEntity
  8
0
100
AcDbLine
 62
7
  6
CONTINUOUS
 10
0.0997315368
 20
-25.5083085952
 11
0.0997315368
 21
-23.5632014316
  0
LINE
  5
4A2
100
AcDbEntity
  8
0
100
AcDbLine
 62
7
  6
CONTINUOUS
 10
0.0997315368
 20
23.6367985684
 11
0.0997315368
 21
25.581905732
  0
LINE
  5
4A3
100
AcDbEntity
  8
0
100
AcDbLine
 62
250
  6
CONTINUOUS
 10
4.8820648702
 20
34.0794109029
 11
4.8751061176
 21
34.0345644117
  0
LINE
  5
4A4
100
AcDbEntity
  8
0
100
AcDbLine
 62
250
  6
CONTINUOUS
 10
3.7887706433
 20
27.0335489356
 11
3.7850236227
 21
27.0094008249
  0
LINE
  5
4A5
100
AcDbEntity
  8
0
100
AcDbLine
 62
250
  6
CONTINUOUS
 10
-5.6826017965
 20
-34.0058137661
 11
-5.6756430439
 21
-33.9609672748
  0
LINE
  5
4A6
100
AcDbEntity
  8
0
100
AcDbLine
 62
250
  6
CONTINUOUS
 10
-4.5893075696
 20
-26.9599517987
 11
-4.585560549
 21
-26.9358036881
  0
LINE
  5
4A7
100
AcDbEntity
  8
0
100
AcDbLine
 62
250
  6
CONTINUOUS
 10
-4.3179351298
 20
-25.2110605069
 11
-4.3248938824
 21
-25.2559069981
  0
LINE
  5
4A8
100
AcDbEntity
  8
0
100
AcDbLine
 62
250
  6
CONTINUOUS
 10
-5.4112293567
 20
-32.2569224742
 11
-5.4149763773
 21
-32.2810705849
  0
LINE
  5
4A9
100
AcDbEntity
  8
0
100
AcDbLine
 62
250
  6
CONTINUOUS
 10
3.5173982035
 20
25.2846576438
 11
3.5243569561
 21
25.329504135
  0
LINE
  5
4AA
100
AcDbEntity
  8
0
100
AcDbLine
 62
250
  6
CONTINUOUS
 10
4.6106924304
 20
32.3305196111
 11
4.614439451
 21
32.3546677217
  0
LINE
  5
4AB
100
AcDbEntity
  8
0
100
AcDbLine
 62
7
  6
CONTINUOUS
 10
-14.8559033818
 20
-28.2132014316
 11
-14.8269828833
 21
-28.1433811719
  0
LINE
  5
4AC
100
AcDbEntity
  8
DRAFT
100
AcDbLine
 62
7
  6
CONTINUOUS
 10
-14.4002684632
 20
-27.1132014316
 11
-14.4371420987
 21
-27.2022222627
  0
LINE
  5
4AD
100
AcDbEntity
  8
0
100
AcDbLine
 62
7
  6
CONTINUOUS
 10
-32.8554691761
 20
-34.4712958574
 11
-32.8782815334
 21
-34.4988161609
  0
LWPOLYLINE
  5
4AE
100
AcDbEntity
  8
0
100
AcDbPolyline
 62
7
  6
CONTINUOUS
 90
3
 70
0
 10
-32.8782815334
 20
-34.4988161609
 10
-32.9011857413
 20
-34.5261979116
 10
-32.9069263468
 20
-34.5330216913
  0
LINE
  5
4AF
100
AcDbEntity
  8
DRAFT
100
AcDbLine
 62
7
  6
CONTINUOUS
 10
15.5275416294
 20
22.6258193996
 11
15.4459690667
 21
22.5367985684
  0
LINE
  5
4B0
100
AcDbEntity
  8
DRAFT
100
AcDbLine
 62
7
  6
CONTINUOUS
 10
17.971803433
 20
22.5367985684
 11
17.9822764719
 21
22.5472716074
  0
LINE
  5
4B1
100
AcDbEntity
  8
0
100
AcDbLine
 62
7
  6
CONTINUOUS
 10
21.1084590693
 20
23.6367985684
 11
21.1014549459
 21
23.629794445
  0
LINE
  5
4B2
100
AcDbEntity
  8
0
100
AcDbLine
 62
7
  6
CONTINUOUS
 10
-23.9304482034
 20
-23.3933811719
 11
-24.0002684632
 21
-23.4632014316
  0
LINE
  5
4B3
100
AcDbEntity
  8
0
100
AcDbLine
 62
7
  6
CONTINUOUS
 10
23.0299112771
 20
23.5669783087
 11
23.0997315368
 21
23.6367985684
  0
LINE
  5
4B4
100
AcDbEntity
  8
0
100
AcDbLine
 62
7
  6
CONTINUOUS
 10
23.1997315368
 20
23.6367985684
 11
23.1299112771
 21
23.5669783087
  0
LINE
  5
4B5
100
AcDbEntity
  8
0
100
AcDbLine
 62
7
  6
CONTINUOUS
 10
-24.0002684632
 20
-23.5632014316
 11
-23.9304482034
 21
-23.4933811719
  0
LINE
  5
4B6
100
AcDbEntity
  8
DRAFT
100
AcDbLine
 62
7
  6
CONTINUOUS
 10
-22.9543791644
 20
-22.5173121329
 11
-22.9892892943
 21
-22.5522222627
  0
LINE
  5
4B7
100
AcDbEntity
  8
DRAFT
100
AcDbLine
 62
7
  6
CONTINUOUS
 10
22.1538422381
 20
22.5909092697
 11
22.188752368
 21
22.6258193996
  0
LINE
  5
4B8
100
AcDbEntity
  8
0
100
AcDbLine
 62
7
  6
CONTINUOUS
 10
-23.8304482034
 20
-23.4933811719
 11
-23.9002684632
 21
-23.5632014316
  0
LINE
  5
4B9
100
AcDbEntity
  8
0
100
AcDbLine
 62
7
  6
CONTINUOUS
 10
23.1299112771
 20
23.4669783087
 11
23.1997315368
 21
23.5367985684
  0
LINE
  5
4BA
100
AcDbEntity
  8
0
100
AcDbLine
 62
7
  6
CONTINUOUS
 10
34.142204699
 20
32.520528951
 11
34.1695517966
 21
32.5434564521
  0
LWPOLYLINE
  5
4BB
100
AcDbEntity
  8
0
100
AcDbPolyline
 62
7
  6
CONTINUOUS
 90
3
 70
0
 10
34.1078259627
 20
32.4919992813
 10
34.1147190247
 20
32.4976938293
 10
34.142204699
 20
32.520528951
  0
LINE
  5
4BC
100
AcDbEntity
  8
0
100
AcDbLine
 62
7
  6
CONTINUOUS
 10
27.9462405239
 20
14.0409874621
 11
27.8799112771
 21
14.0135129885
  0
LINE
  5
4BD
100
AcDbEntity
  8
0
100
AcDbLine
 62
250
  6
CONTINUOUS
 10
33.6388941412
 20
5.3185966131
 11
33.5974973801
 21
5.3121731492
  0
LINE
  5
4BE
100
AcDbEntity
  8
0
100
AcDbLine
 62
250
  6
CONTINUOUS
 10
-34.4394310675
 20
-5.2449994763
 11
-34.3980343064
 21
-5.2385760124
  0
LINE
  5
4BF
100
AcDbEntity
  8
0
100
AcDbLine
 62
250
  6
CONTINUOUS
 10
26.596481904
 20
4.2258376749
 11
26.5723337934
 21
4.2220906543
  0
LINE
  5
4C0
100
AcDbEntity
  8
0
100
AcDbLine
 62
250
  6
CONTINUOUS
 10
-27.3970188303
 20
-4.1522405381
 11
-27.3728707197
 21
-4.1484935175
  0
LINE
  5
4C1
100
AcDbEntity
  8
0
100
AcDbLine
 62
250
  6
CONTINUOUS
 10
-25.6515772686
 20
-3.8814033869
 11
-25.6929740297
 21
-3.8878268508
  0
LINE
  5
4C2
100
AcDbEntity
  8
0
100
AcDbLine
 62
250
  6
CONTINUOUS
 10
24.8510403423
 20
3.9550005237
 11
24.8924371034
 21
3.9614239876
  0
LINE
  5
4C3
100
AcDbEntity
  8
0
100
AcDbLine
 62
250
  6
CONTINUOUS
 10
-32.6939895058
 20
-4.9741623251
 11
-32.7181376165
 21
-4.9779093457
  0
LINE
  5
4C4
100
AcDbEntity
  8
0
100
AcDbLine
 62
250
  6
CONTINUOUS
 10
31.8934525795
 20
5.0477594619
 11
31.9176006902
 21
5.0515064825
  0
LINE
  5
4C5
100
AcDbEntity
  8
0
100
AcDbLine
 62
7
  6
CONTINUOUS
 10
-41.8037594761
 20
-0.4597104186
 11
-38.8626689216
 21
-0.4597104186
  0
LINE
  5
4C6
100
AcDbEntity
  8
0
100
AcDbLine
 62
7
  6
CONTINUOUS
 10
-37.8346210664
 20
-0.4597104186
 11
-34.8431989456
 21
-0.4597104186
  0
LINE
  5
4C7
100
AcDbEntity
  8
0
100
AcDbLine
 62
7
  6
CONTINUOUS
 10
-25.9489353907
 20
-0.4597104186
 11
-23.9967774502
 21
-0.4597104186
  0
LINE
  5
4C8
100
AcDbEntity
  8
0
100
AcDbLine
 62
7
  6
CONTINUOUS
 10
23.1962405239
 20
-0.4597104186
 11
25.1483984644
 21
-0.4597104186
  0
LINE
  5
4C9
100
AcDbEntity
  8
0
100
AcDbLine
 62
7
  6
CONTINUOUS
 10
34.0426620193
 20
-0.4597104186
 11
37.0340841401
 21
-0.4597104186
  0
LINE
  5
4CA
100
AcDbEntity
  8
0
100
AcDbLine
 62
7
  6
CONTINUOUS
 10
38.0621319953
 20
-0.4597104186
 11
41.0032225498
 21
-0.4597104186
  0
LINE
  5
4CB
100
AcDbEntity
  8
0
100
AcDbLine
 62
7
  6
CONTINUOUS
 10
-34.801881548
 20
-0.4178182628
 11
-33.1017253972
 21
-0.4178182628
  0
LINE
  5
4CC
100
AcDbEntity
  8
0
100
AcDbLine
 62
7
  6
CONTINUOUS
 10
-27.6918654459
 20
-0.4178182628
 11
-25.9916139357
 21
-0.4178182628
  0
LINE
  5
4CD
100
AcDbEntity
  8
0
100
AcDbLine
 62
7
  6
CONTINUOUS
 10
25.1910770094
 20
-0.4178182628
 11
26.8913285196
 21
-0.4178182628
  0
LINE
  5
4CE
100
AcDbEntity
  8
0
100
AcDbLine
 62
7
  6
CONTINUOUS
 10
32.3011884709
 20
-0.4178182628
 11
34.0013446217
 21
-0.4178182628
  0
LINE
  5
4CF
100
AcDbEntity
  8
0
100
AcDbLine
 62
7
  6
CONTINUOUS
 10
-41.8700887229
 20
-0.3933811719
 11
-38.8117727005
 21
-0.3933811719
  0
LINE
  5
4D0
100
AcDbEntity
  8
0
100
AcDbLine
 62
7
  6
CONTINUOUS
 10
-37.9210630237
 20
-0.3933811719
 11
-33.0776167835
 21
-0.3933811719
  0
LINE
  5
4D1
100
AcDbEntity
  8
0
100
AcDbLine
 62
7
  6
CONTINUOUS
 10
-27.7167016932
 20
-0.3933811719
 11
-23.9304482034
 21
-0.3933811719
  0
LINE
  5
4D2
100
AcDbEntity
  8
0
100
AcDbLine
 62
7
  6
CONTINUOUS
 10
23.1299112771
 20
-0.3933811719
 11
26.9161647669
 21
-0.3933811719
  0
LINE
  5
4D3
100
AcDbEntity
  8
0
100
AcDbLine
 62
7
  6
CONTINUOUS
 10
32.2770798572
 20
-0.3933811719
 11
37.1205260974
 21
-0.3933811719
  0
LINE
  5
4D4
100
AcDbEntity
  8
0
100
AcDbLine
 62
7
  6
CONTINUOUS
 10
38.0112357742
 20
-0.3933811719
 11
41.0695517966
 21
-0.3933811719
  0
LINE
  5
4D5
100
AcDbEntity
  8
0
100
AcDbLine
 62
7
  6
CONTINUOUS
 10
41.0695517966
 20
0.4669783087
 11
38.0112357742
 21
0.4669783087
  0
LINE
  5
4D6
100
AcDbEntity
  8
0
100
AcDbLine
 62
7
  6
CONTINUOUS
 10
37.1205260974
 20
0.4669783087
 11
32.2770798572
 21
0.4669783087
  0
LINE
  5
4D7
100
AcDbEntity
  8
0
100
AcDbLine
 62
7
  6
CONTINUOUS
 10
26.9161647669
 20
0.4669783087
 11
23.1299112771
 21
0.4669783087
  0
LINE
  5
4D8
100
AcDbEntity
  8
0
100
AcDbLine
 62
7
  6
CONTINUOUS
 10
-33.0776167835
 20
0.4669783087
 11
-37.9210630237
 21
0.4669783087
  0
LINE
  5
4D9
100
AcDbEntity
  8
0
100
AcDbLine
 62
7
  6
CONTINUOUS
 10
-38.8117727005
 20
0.4669783087
 11
-41.8700887229
 21
0.4669783087
  0
LINE
  5
4DA
100
AcDbEntity
  8
0
100
AcDbLine
 62
7
  6
CONTINUOUS
 10
34.0013446217
 20
0.4914153996
 11
32.3011884709
 21
0.4914153996
  0
LINE
  5
4DB
100
AcDbEntity
  8
0
100
AcDbLine
 62
7
  6
CONTINUOUS
 10
26.8913285196
 20
0.4914153996
 11
25.1910770094
 21
0.4914153996
  0
LINE
  5
4DC
100
AcDbEntity
  8
0
100
AcDbLine
 62
7
  6
CONTINUOUS
 10
-33.1017253972
 20
0.4914153996
 11
-34.801881548
 21
0.4914153996
  0
LINE
  5
4DD
100
AcDbEntity
  8
0
100
AcDbLine
 62
7
  6
CONTINUOUS
 10
41.0032225498
 20
0.5333075554
 11
38.0621319953
 21
0.5333075554
  0
LINE
  5
4DE
100
AcDbEntity
  8
0
100
AcDbLine
 62
7
  6
CONTINUOUS
 10
37.0340841401
 20
0.5333075554
 11
34.0426620193
 21
0.5333075554
  0
LINE
  5
4DF
100
AcDbEntity
  8
0
100
AcDbLine
 62
7
  6
CONTINUOUS
 10
25.1483984644
 20
0.5333075554
 11
23.1962405239
 21
0.5333075554
  0
LINE
  5
4E0
100
AcDbEntity
  8
0
100
AcDbLine
 62
7
  6
CONTINUOUS
 10
-34.8431989456
 20
0.5333075554
 11
-37.8346210664
 21
0.5333075554
  0
LINE
  5
4E1
100
AcDbEntity
  8
0
100
AcDbLine
 62
7
  6
CONTINUOUS
 10
-38.8626689216
 20
0.5333075554
 11
-41.8037594761
 21
0.5333075554
  0
LINE
  5
4E2
100
AcDbEntity
  8
0
100
AcDbLine
 62
7
  6
CONTINUOUS
 10
-23.9304482034
 20
0.5367985684
 11
-27.7155129069
 21
0.5367985684
  0
LINE
  5
4E3
100
AcDbEntity
  8
0
100
AcDbLine
 62
250
  6
CONTINUOUS
 10
-25.6929740297
 20
3.9614239876
 11
-25.6515772686
 21
3.9550005237
  0
LINE
  5
4E4
100
AcDbEntity
  8
0
100
AcDbLine
 62
250
  6
CONTINUOUS
 10
24.8924371034
 20
-3.8878268508
 11
24.8510403423
 21
-3.8814033869
  0
LINE
  5
4E5
100
AcDbEntity
  8
0
100
AcDbLine
 62
250
  6
CONTINUOUS
 10
33.5974973801
 20
-5.2385760124
 11
33.6388941412
 21
-5.2449994763
  0
LINE
  5
4E6
100
AcDbEntity
  8
0
100
AcDbLine
 62
250
  6
CONTINUOUS
 10
-34.3980343064
 20
5.3121731492
 11
-34.4394310675
 21
5.3185966131
  0
LINE
  5
4E7
100
AcDbEntity
  8
0
100
AcDbLine
 62
7
  6
CONTINUOUS
 10
27.9462405239
 20
-13.9673903253
 11
27.8799112771
 21
-13.9399158517
  0
LINE
  5
4E8
100
AcDbEntity
  8
0
100
AcDbLine
 62
7
  6
CONTINUOUS
 10
34.1078259627
 20
-32.4184021445
 11
34.1353462662
 21
-32.4412145018
  0
LWPOLYLINE
  5
4E9
100
AcDbEntity
  8
0
100
AcDbPolyline
 62
7
  6
CONTINUOUS
 90
3
 70
0
 10
34.1353462662
 20
-32.4412145018
 10
34.1627280169
 20
-32.4641187097
 10
34.1695517966
 20
-32.4698593152
  0
LINE
  5
4EA
100
AcDbEntity
  8
DRAFT
100
AcDbLine
 62
7
  6
CONTINUOUS
 10
17.971803433
 20
-22.4632014316
 11
17.9822764719
 21
-22.4736744705
  0
LINE
  5
4EB
100
AcDbEntity
  8
0
100
AcDbLine
 62
7
  6
CONTINUOUS
 10
21.1084590693
 20
-23.5632014316
 11
21.1014549459
 21
-23.5561973082
  0
LINE
  5
4EC
100
AcDbEntity
  8
0
100
AcDbLine
 62
7
  6
CONTINUOUS
 10
23.0299112771
 20
-23.4933811719
 11
23.0997315368
 21
-23.5632014316
  0
LINE
  5
4ED
100
AcDbEntity
  8
0
100
AcDbLine
 62
7
  6
CONTINUOUS
 10
-23.9304482034
 20
23.4669783087
 11
-24.0002684632
 21
23.5367985684
  0
LINE
  5
4EE
100
AcDbEntity
  8
0
100
AcDbLine
 62
7
  6
CONTINUOUS
 10
-24.0002684632
 20
23.6367985684
 11
-23.9304482034
 21
23.5669783087
  0
LINE
  5
4EF
100
AcDbEntity
  8
0
100
AcDbLine
 62
7
  6
CONTINUOUS
 10
23.1997315368
 20
-23.5632014316
 11
23.1299112771
 21
-23.4933811719
  0
LINE
  5
4F0
100
AcDbEntity
  8
DRAFT
100
AcDbLine
 62
7
  6
CONTINUOUS
 10
22.1538422381
 20
-22.5173121329
 11
22.188752368
 21
-22.5522222627
  0
LINE
  5
4F1
100
AcDbEntity
  8
DRAFT
100
AcDbLine
 62
7
  6
CONTINUOUS
 10
-22.9543791644
 20
22.5909092697
 11
-22.9892892943
 21
22.6258193996
  0
LINE
  5
4F2
100
AcDbEntity
  8
0
100
AcDbLine
 62
7
  6
CONTINUOUS
 10
23.1299112771
 20
-23.3933811719
 11
23.1997315368
 21
-23.4632014316
  0
LINE
  5
4F3
100
AcDbEntity
  8
0
100
AcDbLine
 62
7
  6
CONTINUOUS
 10
-23.8304482034
 20
23.5669783087
 11
-23.9002684632
 21
23.6367985684
  0
LINE
  5
4F4
100
AcDbEntity
  8
DRAFT
100
AcDbLine
 62
7
  6
CONTINUOUS
 10
15.4459690667
 20
-22.4632014316
 11
15.5275416294
 21
-22.5522222627
  0
LINE
  5
4F5
100
AcDbEntity
  8
0
100
AcDbLine
 62
7
  6
CONTINUOUS
 10
-32.8839988457
 20
34.5792717306
 11
-32.9069263468
 21
34.6066188281
  0
LWPOLYLINE
  5
4F6
100
AcDbEntity
  8
0
100
AcDbPolyline
 62
7
  6
CONTINUOUS
 90
3
 70
0
 10
-32.8554691761
 20
34.5448929942
 10
-32.861163724
 20
34.5517860563
 10
-32.8839988457
 20
34.5792717306
  0
LINE
  5
4F7
100
AcDbEntity
  8
0
100
AcDbLine
 62
7
  6
CONTINUOUS
 10
-14.8559033818
 20
28.2867985684
 11
-14.8269828833
 21
28.2169783087
  0
LINE
  5
4F8
100
AcDbEntity
  8
DRAFT
100
AcDbLine
 62
7
  6
CONTINUOUS
 10
-14.4002684632
 20
27.1867985684
 11
-14.4371420987
 21
27.2758193996
  0
LINE
  5
4F9
100
AcDbEntity
  8
0
100
AcDbLine
 62
250
  6
CONTINUOUS
 10
-5.6826017965
 20
34.0794109029
 11
-5.6756430439
 21
34.0345644117
  0
LINE
  5
4FA
100
AcDbEntity
  8
0
100
AcDbLine
 62
250
  6
CONTINUOUS
 10
-4.5893075696
 20
27.0335489356
 11
-4.585560549
 21
27.0094008249
  0
LINE
  5
4FB
100
AcDbEntity
  8
0
100
AcDbLine
 62
250
  6
CONTINUOUS
 10
4.8820648702
 20
-34.0058137661
 11
4.8751061176
 21
-33.9609672748
  0
LINE
  5
4FC
100
AcDbEntity
  8
0
100
AcDbLine
 62
250
  6
CONTINUOUS
 10
3.7887706433
 20
-26.9599517987
 11
3.7850236227
 21
-26.9358036881
  0
LINE
  5
4FD
100
AcDbEntity
  8
0
100
AcDbLine
 62
250
  6
CONTINUOUS
 10
3.5173982035
 20
-25.2110605069
 11
3.5243569561
 21
-25.2559069981
  0
LINE
  5
4FE
100
AcDbEntity
  8
0
100
AcDbLine
 62
250
  6
CONTINUOUS
 10
4.6106924304
 20
-32.2569224742
 11
4.614439451
 21
-32.2810705849
  0
LINE
  5
4FF
100
AcDbEntity
  8
0
100
AcDbLine
 62
250
  6
CONTINUOUS
 10
-4.3179351298
 20
25.2846576438
 11
-4.3248938824
 21
25.329504135
  0
LINE
  5
500
100
AcDbEntity
  8
0
100
AcDbLine
 62
250
  6
CONTINUOUS
 10
-5.4112293567
 20
32.3305196111
 11
-5.4149763773
 21
32.3546677217
  0
LINE
  5
501
100
AcDbEntity
  8
DRAFT
100
AcDbLine
 62
7
  6
CONTINUOUS
 10
6.1719214443
 20
-22.5522222627
 11
6.3031544395
 21
-24.0522222627
  0
LINE
  5
502
100
AcDbEntity
  8
DRAFT
100
AcDbLine
 62
7
  6
CONTINUOUS
 10
6.375066476
 20
-24.8741806004
 11
6.4364516175
 21
-25.575815979
  0
LINE
  5
503
100
AcDbEntity
  8
DRAFT
100
AcDbLine
 62
7
  6
CONTINUOUS
 10
6.253494007
 20
-22.4632014316
 11
6.386957439
 21
-23.9886954408
  0
LINE
  5
504
100
AcDbEntity
  8
DRAFT
100
AcDbLine
 62
7
  6
CONTINUOUS
 10
6.4695593176
 20
-24.9328392331
 11
6.5223097702
 21
-25.5357796649
  0
LINE
  5
505
100
AcDbEntity
  8
0
100
AcDbLine
 62
7
  6
CONTINUOUS
 10
0.5910040044
 20
-24.621928964
 11
0.5910040044
 21
-23.5632014316
  0
LINE
  5
506
100
AcDbEntity
  8
0
100
AcDbLine
 62
7
  6
CONTINUOUS
 10
0.5910040044
 20
23.6367985684
 11
0.5910040044
 21
24.6955261009
  0
LINE
  5
507
100
AcDbEntity
  8
0
100
AcDbLine
 62
7
  6
CONTINUOUS
 10
3.7084590693
 20
-24.621928964
 11
3.7084590693
 21
-23.5632014316
  0
LINE
  5
508
100
AcDbEntity
  8
0
100
AcDbLine
 62
7
  6
CONTINUOUS
 10
3.7084590693
 20
23.6367985684
 11
3.7084590693
 21
24.6955261009
  0
LINE
  5
509
100
AcDbEntity
  8
DRAFT
100
AcDbLine
 62
7
  6
CONTINUOUS
 10
6.4364516175
 20
25.6494131158
 11
6.375066476
 21
24.9477777373
  0
LINE
  5
50A
100
AcDbEntity
  8
DRAFT
100
AcDbLine
 62
7
  6
CONTINUOUS
 10
6.3031544395
 20
24.1258193996
 11
6.1719214443
 21
22.6258193996
  0
LINE
  5
50B
100
AcDbEntity
  8
DRAFT
100
AcDbLine
 62
7
  6
CONTINUOUS
 10
6.253494007
 20
22.5367985684
 11
6.386957439
 21
24.0622925777
  0
LINE
  5
50C
100
AcDbEntity
  8
DRAFT
100
AcDbLine
 62
7
  6
CONTINUOUS
 10
6.4695593176
 20
25.0064363699
 11
6.5223097702
 21
25.6093768018
  0
LINE
  5
50D
100
AcDbEntity
  8
DRAFT
100
AcDbLine
 62
7
  6
CONTINUOUS
 10
11.6814234506
 20
27.2758193996
 11
11.4536666371
 21
26.4258193996
  0
LINE
  5
50E
100
AcDbEntity
  8
DRAFT
100
AcDbLine
 62
7
  6
CONTINUOUS
 10
11.7497315368
 20
27.1867985684
 11
11.5219747233
 21
26.3367985684
  0
LINE
  5
50F
100
AcDbEntity
  8
0
100
AcDbLine
 62
7
  6
CONTINUOUS
 10
14.0553664555
 20
28.2867985684
 11
14.026445957
 21
28.2169783087
  0
LINE
  5
510
100
AcDbEntity
  8
DRAFT
100
AcDbLine
 62
7
  6
CONTINUOUS
 10
13.5997315368
 20
27.1867985684
 11
13.6366051724
 21
27.2758193996
  0
LINE
  5
511
100
AcDbEntity
  8
0
100
AcDbLine
 62
7
  6
CONTINUOUS
 10
32.0549322498
 20
34.5448929942
 11
32.0777446071
 21
34.5724132978
  0
LWPOLYLINE
  5
512
100
AcDbEntity
  8
0
100
AcDbPolyline
 62
7
  6
CONTINUOUS
 90
3
 70
0
 10
32.0777446071
 20
34.5724132978
 10
32.100648815
 20
34.5997950485
 10
32.1063894205
 20
34.6066188281
  0
LINE
  5
513
100
AcDbEntity
  8
DRAFT
100
AcDbLine
 62
7
  6
CONTINUOUS
 10
-16.3280785557
 20
-22.5522222627
 11
-16.246505993
 21
-22.4632014316
  0
LINE
  5
514
100
AcDbEntity
  8
DRAFT
100
AcDbLine
 62
7
  6
CONTINUOUS
 10
-16.1968455605
 20
-24.0522222627
 11
-16.14086439
 21
-23.9911295355
  0
LINE
  5
515
100
AcDbEntity
  8
0
100
AcDbLine
 62
7
  6
CONTINUOUS
 10
-21.9089959956
 20
-23.5632014316
 11
-21.9019918722
 21
-23.5561973082
  0
LINE
  5
516
100
AcDbEntity
  8
DRAFT
100
AcDbLine
 62
7
  6
CONTINUOUS
 10
-18.7723403593
 20
-22.4632014316
 11
-18.7828133982
 21
-22.4736744705
  0
LINE
  5
517
100
AcDbEntity
  8
0
100
AcDbLine
 62
7
  6
CONTINUOUS
 10
-17.2502684632
 20
-23.5632014316
 11
-17.1804482034
 21
-23.4933811719
  0
LINE
  5
518
100
AcDbEntity
  8
0
100
AcDbLine
 62
7
  6
CONTINUOUS
 10
41.0695517966
 20
34.6066188281
 11
40.9997315368
 21
34.5367985684
  0
LINE
  5
519
100
AcDbEntity
  8
0
100
AcDbLine
 62
7
  6
CONTINUOUS
 10
-34.9700887229
 20
-41.4330216913
 11
-34.9002684632
 21
-41.3632014316
  0
LINE
  5
51A
100
AcDbEntity
  8
0
100
AcDbLine
 62
7
  6
CONTINUOUS
 10
-34.9427416254
 20
-32.4469318141
 11
-34.9700887229
 21
-32.4698593152
  0
LWPOLYLINE
  5
51B
100
AcDbEntity
  8
0
100
AcDbPolyline
 62
7
  6
CONTINUOUS
 90
3
 70
0
 10
-34.908362889
 20
-32.4184021445
 10
-34.915255951
 20
-32.4240966925
 10
-34.9427416254
 20
-32.4469318141
  0
LINE
  5
51C
100
AcDbEntity
  8
0
100
AcDbLine
 62
7
  6
CONTINUOUS
 10
-28.7467774502
 20
-13.9673903253
 11
-28.6804482034
 21
-13.9399158517
  0
LINE
  5
51D
100
AcDbEntity
  8
0
100
AcDbLine
 62
7
  6
CONTINUOUS
 10
-28.7467774502
 20
14.0409874621
 11
-28.6804482034
 21
14.0135129885
  0
LINE
  5
51E
100
AcDbEntity
  8
0
100
AcDbLine
 62
7
  6
CONTINUOUS
 10
-34.908362889
 20
32.4919992813
 11
-34.9358831925
 21
32.5148116386
  0
LWPOLYLINE
  5
51F
100
AcDbEntity
  8
0
100
AcDbPolyline
 62
7
  6
CONTINUOUS
 90
3
 70
0
 10
-34.9358831925
 20
32.5148116386
 10
-34.9632649432
 20
32.5377158466
 10
-34.9700887229
 20
32.5434564521
  0
LINE
  5
520
100
AcDbEntity
  8
0
100
AcDbLine
 62
7
  6
CONTINUOUS
 10
-21.9089959956
 20
23.6367985684
 11
-21.9019918722
 21
23.629794445
  0
LINE
  5
521
100
AcDbEntity
  8
DRAFT
100
AcDbLine
 62
7
  6
CONTINUOUS
 10
-18.7723403593
 20
22.5367985684
 11
-18.7828133982
 21
22.5472716074
  0
LINE
  5
522
100
AcDbEntity
  8
0
100
AcDbLine
 62
7
  6
CONTINUOUS
 10
-17.2502684632
 20
23.6367985684
 11
-17.1804482034
 21
23.5669783087
  0
LINE
  5
523
100
AcDbEntity
  8
0
100
AcDbLine
 62
7
  6
CONTINUOUS
 10
-34.9700887229
 20
41.5066188281
 11
-34.9002684632
 21
41.4367985684
  0
LINE
  5
524
100
AcDbEntity
  8
0
100
AcDbLine
 62
7
  6
CONTINUOUS
 10
41.0695517966
 20
-34.5330216913
 11
40.9997315368
 21
-34.4632014316
  0
LINE
  5
525
100
AcDbEntity
  8
DRAFT
100
AcDbLine
 62
7
  6
CONTINUOUS
 10
-16.246505993
 20
22.5367985684
 11
-16.3280785557
 21
22.6258193996
  0
LINE
  5
526
100
AcDbEntity
  8
DRAFT
100
AcDbLine
 62
7
  6
CONTINUOUS
 10
-16.1968455605
 20
24.1258193996
 11
-16.14086439
 21
24.0647266723
  0
LINE
  5
527
100
AcDbEntity
  8
0
100
AcDbLine
 62
7
  6
CONTINUOUS
 10
32.0834619194
 20
-34.5056745938
 11
32.1063894205
 21
-34.5330216913
  0
LWPOLYLINE
  5
528
100
AcDbEntity
  8
0
100
AcDbPolyline
 62
7
  6
CONTINUOUS
 90
3
 70
0
 10
32.0549322498
 20
-34.4712958574
 10
32.0606267977
 20
-34.4781889195
 10
32.0834619194
 20
-34.5056745938
  0
LINE
  5
529
100
AcDbEntity
  8
0
100
AcDbLine
 62
7
  6
CONTINUOUS
 10
14.0553664555
 20
-28.2132014316
 11
14.026445957
 21
-28.1433811719
  0
LINE
  5
52A
100
AcDbEntity
  8
DRAFT
100
AcDbLine
 62
7
  6
CONTINUOUS
 10
13.5997315368
 20
-27.1132014316
 11
13.6366051724
 21
-27.2022222627
  0
LINE
  5
52B
100
AcDbEntity
  8
DRAFT
100
AcDbLine
 62
7
  6
CONTINUOUS
 10
11.4536666371
 20
-26.3522222627
 11
11.6814234506
 21
-27.2022222627
  0
LINE
  5
52C
100
AcDbEntity
  8
DRAFT
100
AcDbLine
 62
7
  6
CONTINUOUS
 10
11.5219747233
 20
-26.2632014316
 11
11.7497315368
 21
-27.1132014316
  0
LINE
  5
52D
100
AcDbEntity
  8
DRAFT
100
AcDbLine
 62
7
  6
CONTINUOUS
 10
8.3689301585
 20
-24.9630079539
 11
8.3724592985
 21
-25.3132014316
  0
LINE
  5
52E
100
AcDbEntity
  8
0
100
AcDbLine
 62
7
  6
CONTINUOUS
 10
5.2497315368
 20
-25.2840874744
 11
5.2497315368
 21
-23.5632014316
  0
LINE
  5
52F
100
AcDbEntity
  8
0
100
AcDbLine
 62
7
  6
CONTINUOUS
 10
5.2497315368
 20
23.6367985684
 11
5.2497315368
 21
25.3576846112
  0
LINE
  5
530
100
AcDbEntity
  8
0
100
AcDbLine
 62
7
  6
CONTINUOUS
 10
5.2951147057
 20
-25.8000380262
 11
5.2951147057
 21
-25.3421993158
  0
LINE
  5
531
100
AcDbEntity
  8
0
100
AcDbLine
 62
7
  6
CONTINUOUS
 10
5.2951147057
 20
25.4157964526
 11
5.2951147057
 21
25.873635163
  0
LINE
  5
532
100
AcDbEntity
  8
0
100
AcDbLine
 62
7
  6
CONTINUOUS
 10
5.3195517966
 20
-25.7899158517
 11
5.3195517966
 21
-23.4933811719
  0
LINE
  5
533
100
AcDbEntity
  8
0
100
AcDbLine
 62
7
  6
CONTINUOUS
 10
5.3195517966
 20
23.5669783087
 11
5.3195517966
 21
25.8635129885
  0
LINE
  5
534
100
AcDbEntity
  8
DRAFT
100
AcDbLine
 62
7
  6
CONTINUOUS
 10
8.3497315368
 20
25.0367985684
 11
8.3497315368
 21
25.0088704645
  0
LINE
  5
535
100
AcDbEntity
  8
DRAFT
100
AcDbLine
 62
7
  6
CONTINUOUS
 10
8.3497315368
 20
24.0647266723
 11
8.3497315368
 21
22.5367985684
  0
LINE
  5
536
100
AcDbEntity
  8
DRAFT
100
AcDbLine
 62
7
  6
CONTINUOUS
 10
8.3497315368
 20
-22.4632014316
 11
8.3497315368
 21
-23.9911295355
  0
LINE
  5
537
100
AcDbEntity
  8
DRAFT
100
AcDbLine
 62
7
  6
CONTINUOUS
 10
8.3497315368
 20
-24.9352733277
 11
8.3497315368
 21
-24.9632014316
  0
LINE
  5
538
100
AcDbEntity
  8
DRAFT
100
AcDbLine
 62
7
  6
CONTINUOUS
 10
8.3724592985
 20
25.3867985684
 11
8.3689301585
 21
25.0366050907
  0
LINE
  5
539
100
AcDbEntity
  8
DRAFT
100
AcDbLine
 62
7
  6
CONTINUOUS
 10
18.3112997362
 20
22.5647266723
 11
18.3221449232
 21
22.5909092697
  0
LINE
  5
53A
100
AcDbEntity
  8
DRAFT
100
AcDbLine
 62
7
  6
CONTINUOUS
 10
-10.9780252767
 20
-26.2632014316
 11
-11.0463333629
 21
-26.3522222627
  0
LINE
  5
53B
100
AcDbEntity
  8
DRAFT
100
AcDbLine
 62
7
  6
CONTINUOUS
 10
-10.8185765494
 20
-27.2022222627
 11
-10.7502684632
 21
-27.1132014316
  0
LINE
  5
53C
100
AcDbEntity
  8
0
100
AcDbLine
 62
7
  6
CONTINUOUS
 10
37.1445308239
 20
35.5287041426
 11
37.1217184666
 21
35.5011838391
  0
LWPOLYLINE
  5
53D
100
AcDbEntity
  8
0
100
AcDbPolyline
 62
7
  6
CONTINUOUS
 90
3
 70
0
 10
37.1217184666
 20
35.5011838391
 10
37.0988142587
 20
35.4738020884
 10
37.0930736532
 20
35.4669783087
  0
LINE
  5
53E
100
AcDbEntity
  8
0
100
AcDbLine
 62
7
  6
CONTINUOUS
 10
23.1299112771
 20
15.8169783087
 11
23.1962405239
 21
15.8833075554
  0
LINE
  5
53F
100
AcDbEntity
  8
DRAFT
100
AcDbLine
 62
7
  6
CONTINUOUS
 10
-14.1223403593
 20
-24.9352733277
 11
-14.1502684632
 21
-24.9632014316
  0
LINE
  5
540
100
AcDbEntity
  8
0
100
AcDbLine
 62
7
  6
CONTINUOUS
 10
35.0997315368
 20
23.5367985684
 11
35.0299112771
 21
23.4669783087
  0
LINE
  5
541
100
AcDbEntity
  8
0
100
AcDbLine
 62
7
  6
CONTINUOUS
 10
-23.9002684632
 20
-35.4632014316
 11
-23.8304482034
 21
-35.3933811719
  0
LINE
  5
542
100
AcDbEntity
  8
0
100
AcDbLine
 62
7
  6
CONTINUOUS
 10
-22.9002684632
 20
-34.4632014316
 11
-22.9700887229
 21
-34.5330216913
  0
LINE
  5
543
100
AcDbEntity
  8
0
100
AcDbLine
 62
7
  6
CONTINUOUS
 10
34.1032225498
 20
22.5402895814
 11
34.1695517966
 21
22.6066188281
  0
LINE
  5
544
100
AcDbEntity
  8
0
100
AcDbLine
 62
7
  6
CONTINUOUS
 10
-35.857795301
 20
-37.479471049
 11
-35.8304482034
 21
-37.4565435479
  0
LWPOLYLINE
  5
545
100
AcDbEntity
  8
0
100
AcDbPolyline
 62
7
  6
CONTINUOUS
 90
3
 70
0
 10
-35.8921740373
 20
-37.5080007187
 10
-35.8852809753
 20
-37.5023061707
 10
-35.857795301
 20
-37.479471049
  0
LINE
  5
546
100
AcDbEntity
  8
0
100
AcDbLine
 62
7
  6
CONTINUOUS
 10
25.3396676217
 20
6.7136166439
 11
25.3010330599
 21
6.6902895814
  0
LINE
  5
547
100
AcDbEntity
  8
0
100
AcDbLine
 62
7
  6
CONTINUOUS
 10
25.3706906892
 20
6.7321817372
 11
25.3396676217
 21
6.7136166439
  0
LINE
  5
548
100
AcDbEntity
  8
DRAFT
100
AcDbLine
 62
7
  6
CONTINUOUS
 10
-22.928196567
 20
-18.674769631
 11
-22.9543791644
 21
-18.6856148179
  0
LINE
  5
549
100
AcDbEntity
  8
0
100
AcDbLine
 62
7
  6
CONTINUOUS
 10
-26.1015699862
 20
6.6902895814
 11
-23.9967774502
 21
6.6902895814
  0
LINE
  5
54A
100
AcDbEntity
  8
0
100
AcDbLine
 62
7
  6
CONTINUOUS
 10
23.1962405239
 20
6.6902895814
 11
25.3010330599
 21
6.6902895814
  0
LINE
  5
54B
100
AcDbEntity
  8
0
100
AcDbLine
 62
7
  6
CONTINUOUS
 10
26.0865681314
 20
6.7321817372
 11
25.3706906892
 21
6.7321817372
  0
LINE
  5
54C
100
AcDbEntity
  8
0
100
AcDbLine
 62
7
  6
CONTINUOUS
 10
26.076445957
 20
6.7566188281
 11
23.1299112771
 21
6.7566188281
  0
LINE
  5
54D
100
AcDbEntity
  8
0
100
AcDbLine
 62
7
  6
CONTINUOUS
 10
-23.9304482034
 20
6.7566188281
 11
-26.2124457777
 21
6.7566188281
  0
LINE
  5
54E
100
AcDbEntity
  8
0
100
AcDbLine
 62
7
  6
CONTINUOUS
 10
25.5254674681
 20
7.7867985684
 11
24.4497315368
 21
7.7867985684
  0
LINE
  5
54F
100
AcDbEntity
  8
0
100
AcDbLine
 62
7
  6
CONTINUOUS
 10
-25.2502684632
 20
7.7867985684
 11
-26.3260043944
 21
7.7867985684
  0
LINE
  5
550
100
AcDbEntity
  8
DRAFT
100
AcDbLine
 62
7
  6
CONTINUOUS
 10
-22.928196567
 20
18.7483667678
 11
-22.9543791644
 21
18.7592119548
  0
LINE
  5
551
100
AcDbEntity
  8
0
100
AcDbLine
 62
7
  6
CONTINUOUS
 10
25.4119088514
 20
-6.6830216913
 11
25.3624666482
 21
-6.6536775526
  0
LWPOLYLINE
  5
552
100
AcDbEntity
  8
0
100
AcDbPolyline
 62
7
  6
CONTINUOUS
 90
3
 70
0
 10
25.3624666482
 20
-6.6536775526
 10
25.3132875906
 20
-6.6241165933
 10
25.3010330599
 20
-6.6166924446
  0
LINE
  5
553
100
AcDbEntity
  8
0
100
AcDbLine
 62
7
  6
CONTINUOUS
 10
-35.8921740373
 20
37.5815978555
 11
-35.8646537338
 21
37.5587854982
  0
LWPOLYLINE
  5
554
100
AcDbEntity
  8
0
100
AcDbPolyline
 62
7
  6
CONTINUOUS
 90
3
 70
0
 10
-35.8646537338
 20
37.5587854982
 10
-35.8372719831
 20
37.5358812903
 10
-35.8304482034
 20
37.5301406848
  0
LINE
  5
555
100
AcDbEntity
  8
0
100
AcDbLine
 62
7
  6
CONTINUOUS
 10
23.1299112771
 20
-15.7433811719
 11
23.1962405239
 21
-15.8097104186
  0
LINE
  5
556
100
AcDbEntity
  8
DRAFT
100
AcDbLine
 62
7
  6
CONTINUOUS
 10
-14.1502684632
 20
25.0367985684
 11
-14.1223403593
 21
25.0088704645
  0
LINE
  5
557
100
AcDbEntity
  8
DRAFT
100
AcDbLine
 62
7
  6
CONTINUOUS
 10
-11.1502684632
 20
22.5367985684
 11
-11.2392892943
 21
22.6258193996
  0
LINE
  5
558
100
AcDbEntity
  8
0
100
AcDbLine
 62
7
  6
CONTINUOUS
 10
-23.9002684632
 20
35.5367985684
 11
-23.8304482034
 21
35.4669783087
  0
LINE
  5
559
100
AcDbEntity
  8
0
100
AcDbLine
 62
7
  6
CONTINUOUS
 10
35.0997315368
 20
-23.4632014316
 11
35.0299112771
 21
-23.3933811719
  0
LINE
  5
55A
100
AcDbEntity
  8
0
100
AcDbLine
 62
7
  6
CONTINUOUS
 10
34.1032225498
 20
-22.4666924446
 11
34.1695517966
 21
-22.5330216913
  0
LINE
  5
55B
100
AcDbEntity
  8
0
100
AcDbLine
 62
7
  6
CONTINUOUS
 10
-22.9002684632
 20
34.5367985684
 11
-22.9700887229
 21
34.6066188281
  0
LINE
  5
55C
100
AcDbEntity
  8
DRAFT
100
AcDbLine
 62
7
  6
CONTINUOUS
 10
-11.2392892943
 20
24.1258193996
 11
-11.1502684632
 21
24.0367985684
  0
LINE
  5
55D
100
AcDbEntity
  8
0
100
AcDbLine
 62
7
  6
CONTINUOUS
 10
37.1160011543
 20
-35.4207282694
 11
37.0930736532
 21
-35.3933811719
  0
LWPOLYLINE
  5
55E
100
AcDbEntity
  8
0
100
AcDbPolyline
 62
7
  6
CONTINUOUS
 90
3
 70
0
 10
37.1445308239
 20
-35.4551070058
 10
37.138836276
 20
-35.4482139437
 10
37.1160011543
 20
-35.4207282694
  0
LINE
  5
55F
100
AcDbEntity
  8
DRAFT
100
AcDbLine
 62
7
  6
CONTINUOUS
 10
-10.9780252767
 20
26.3367985684
 11
-11.0463333629
 21
26.4258193996
  0
LINE
  5
560
100
AcDbEntity
  8
DRAFT
100
AcDbLine
 62
7
  6
CONTINUOUS
 10
-10.8185765494
 20
27.2758193996
 11
-10.7502684632
 21
27.1867985684
  0
LINE
  5
561
100
AcDbEntity
  8
DRAFT
100
AcDbLine
 62
7
  6
CONTINUOUS
 10
18.3112997362
 20
-22.4911295355
 11
18.3221449232
 21
-22.5173121329
  0
LINE
  5
562
100
AcDbEntity
  8
DRAFT
100
AcDbLine
 62
7
  6
CONTINUOUS
 10
13.3270037752
 20
25.3867985684
 11
13.3305329152
 21
25.0366050907
  0
LINE
  5
563
100
AcDbEntity
  8
DRAFT
100
AcDbLine
 62
7
  6
CONTINUOUS
 10
10.3497315368
 20
24.0367985684
 11
10.3497315368
 21
22.5367985684
  0
LINE
  5
564
100
AcDbEntity
  8
DRAFT
100
AcDbLine
 62
7
  6
CONTINUOUS
 10
10.3497315368
 20
-22.4632014316
 11
10.3497315368
 21
-23.9632014316
  0
LINE
  5
565
100
AcDbEntity
  8
DRAFT
100
AcDbLine
 62
7
  6
CONTINUOUS
 10
10.438752368
 20
-22.5522222627
 11
10.438752368
 21
-24.0522222627
  0
LINE
  5
566
100
AcDbEntity
  8
DRAFT
100
AcDbLine
 62
7
  6
CONTINUOUS
 10
10.438752368
 20
22.6258193996
 11
10.438752368
 21
24.1258193996
  0
LINE
  5
567
100
AcDbEntity
  8
0
100
AcDbLine
 62
7
  6
CONTINUOUS
 10
11.0997315368
 20
41.4367985684
 11
11.0997315368
 21
35.5544366586
  0
LINE
  5
568
100
AcDbEntity
  8
0
100
AcDbLine
 62
7
  6
CONTINUOUS
 10
11.0997315368
 20
34.5191604782
 11
11.0997315368
 21
28.2867985684
  0
LINE
  5
569
100
AcDbEntity
  8
0
100
AcDbLine
 62
7
  6
CONTINUOUS
 10
11.0997315368
 20
-41.3632014316
 11
11.0997315368
 21
-35.4808395218
  0
LINE
  5
56A
100
AcDbEntity
  8
0
100
AcDbLine
 62
7
  6
CONTINUOUS
 10
11.0997315368
 20
-34.4455633414
 11
11.0997315368
 21
-28.2132014316
  0
LINE
  5
56B
100
AcDbEntity
  8
0
100
AcDbLine
 62
7
  6
CONTINUOUS
 10
11.1695517966
 20
41.5066188281
 11
11.1695517966
 21
35.4634451246
  0
LINE
  5
56C
100
AcDbEntity
  8
0
100
AcDbLine
 62
7
  6
CONTINUOUS
 10
11.1695517966
 20
34.5727354478
 11
11.1695517966
 21
28.2169783087
  0
LINE
  5
56D
100
AcDbEntity
  8
0
100
AcDbLine
 62
7
  6
CONTINUOUS
 10
11.1695517966
 20
-28.1433811719
 11
11.1695517966
 21
-34.499138311
  0
LINE
  5
56E
100
AcDbEntity
  8
0
100
AcDbLine
 62
7
  6
CONTINUOUS
 10
11.1695517966
 20
-35.3898479878
 11
11.1695517966
 21
-41.4330216913
  0
LINE
  5
56F
100
AcDbEntity
  8
DRAFT
100
AcDbLine
 62
7
  6
CONTINUOUS
 10
11.2607107057
 20
-22.5522222627
 11
11.2607107057
 21
-24.0522222627
  0
LINE
  5
570
100
AcDbEntity
  8
DRAFT
100
AcDbLine
 62
7
  6
CONTINUOUS
 10
11.2607107057
 20
22.6258193996
 11
11.2607107057
 21
24.1258193996
  0
LINE
  5
571
100
AcDbEntity
  8
DRAFT
100
AcDbLine
 62
7
  6
CONTINUOUS
 10
11.3497315368
 20
24.0367985684
 11
11.3497315368
 21
22.5367985684
  0
LINE
  5
572
100
AcDbEntity
  8
DRAFT
100
AcDbLine
 62
7
  6
CONTINUOUS
 10
11.3497315368
 20
-22.4632014316
 11
11.3497315368
 21
-23.9632014316
  0
LINE
  5
573
100
AcDbEntity
  8
0
100
AcDbLine
 62
7
  6
CONTINUOUS
 10
12.0299112771
 20
-41.4330216913
 11
12.0299112771
 21
-35.3933811719
  0
LINE
  5
574
100
AcDbEntity
  8
0
100
AcDbLine
 62
7
  6
CONTINUOUS
 10
12.0299112771
 20
-34.5330216913
 11
12.0299112771
 21
-28.1433811719
  0
LINE
  5
575
100
AcDbEntity
  8
0
100
AcDbLine
 62
7
  6
CONTINUOUS
 10
12.0299112771
 20
28.2169783087
 11
12.0299112771
 21
34.6066188281
  0
LINE
  5
576
100
AcDbEntity
  8
0
100
AcDbLine
 62
7
  6
CONTINUOUS
 10
12.0299112771
 20
35.4669783087
 11
12.0299112771
 21
41.5066188281
  0
LINE
  5
577
100
AcDbEntity
  8
0
100
AcDbLine
 62
7
  6
CONTINUOUS
 10
12.0997315368
 20
41.4367985684
 11
12.0997315368
 21
35.5367985684
  0
LINE
  5
578
100
AcDbEntity
  8
0
100
AcDbLine
 62
7
  6
CONTINUOUS
 10
12.0997315368
 20
34.5367985684
 11
12.0997315368
 21
28.2867985684
  0
LINE
  5
579
100
AcDbEntity
  8
0
100
AcDbLine
 62
7
  6
CONTINUOUS
 10
12.0997315368
 20
-41.3632014316
 11
12.0997315368
 21
-35.4632014316
  0
LINE
  5
57A
100
AcDbEntity
  8
0
100
AcDbLine
 62
7
  6
CONTINUOUS
 10
12.0997315368
 20
-34.4632014316
 11
12.0997315368
 21
-28.2132014316
  0
LINE
  5
57B
100
AcDbEntity
  8
DRAFT
100
AcDbLine
 62
7
  6
CONTINUOUS
 10
13.3497315368
 20
25.0367985684
 11
13.3497315368
 21
25.0088704645
  0
LINE
  5
57C
100
AcDbEntity
  8
DRAFT
100
AcDbLine
 62
7
  6
CONTINUOUS
 10
13.3497315368
 20
24.0647266723
 11
13.3497315368
 21
22.5367985684
  0
LINE
  5
57D
100
AcDbEntity
  8
DRAFT
100
AcDbLine
 62
7
  6
CONTINUOUS
 10
13.3497315368
 20
-22.4632014316
 11
13.3497315368
 21
-23.9911295355
  0
LINE
  5
57E
100
AcDbEntity
  8
DRAFT
100
AcDbLine
 62
7
  6
CONTINUOUS
 10
13.3497315368
 20
-24.9352733277
 11
13.3497315368
 21
-24.9632014316
  0
LINE
  5
57F
100
AcDbEntity
  8
DRAFT
100
AcDbLine
 62
7
  6
CONTINUOUS
 10
13.3305329152
 20
-24.9630079539
 11
13.3270037752
 21
-25.3132014316
  0
LINE
  5
580
100
AcDbEntity
  8
0
100
AcDbLine
 62
7
  6
CONTINUOUS
 10
-6.095651632
 20
-25.3421993158
 11
-6.0654407491
 21
-25.3034278619
  0
LINE
  5
581
100
AcDbEntity
  8
0
100
AcDbLine
 62
7
  6
CONTINUOUS
 10
-6.0654407491
 20
-25.3034278619
 11
-6.0502684632
 21
-25.2840874744
  0
LINE
  5
582
100
AcDbEntity
  8
DRAFT
100
AcDbLine
 62
7
  6
CONTINUOUS
 10
-9.1502684632
 20
-23.9632014316
 11
-9.178196567
 21
-23.9911295355
  0
LINE
  5
583
100
AcDbEntity
  8
0
100
AcDbLine
 62
7
  6
CONTINUOUS
 10
-12.8304482034
 20
-28.1433811719
 11
-12.9002684632
 21
-28.2132014316
  0
LINE
  5
584
100
AcDbEntity
  8
0
100
AcDbLine
 62
7
  6
CONTINUOUS
 10
27.8799112771
 20
12.4669783087
 11
27.9462405239
 21
12.5333075554
  0
LINE
  5
585
100
AcDbEntity
  8
0
100
AcDbLine
 62
7
  6
CONTINUOUS
 10
26.7618635712
 20
8.8989306028
 11
25.7375995025
 21
7.8746665341
  0
LINE
  5
586
100
AcDbEntity
  8
DRAFT
100
AcDbLine
 62
7
  6
CONTINUOUS
 10
-7.3228466965
 20
-25.5357796649
 11
-8.9002684632
 21
-27.1132014316
  0
LINE
  5
587
100
AcDbEntity
  8
DRAFT
100
AcDbLine
 62
7
  6
CONTINUOUS
 10
-8.8633948276
 20
-27.2022222627
 11
-7.2369885439
 21
-25.575815979
  0
LINE
  5
588
100
AcDbEntity
  8
0
100
AcDbLine
 62
7
  6
CONTINUOUS
 10
41.0695517966
 20
22.6066188281
 11
41.0032225498
 21
22.5402895814
  0
LINE
  5
589
100
AcDbEntity
  8
0
100
AcDbLine
 62
7
  6
CONTINUOUS
 10
-22.9700887229
 20
-41.4330216913
 11
-22.9002684632
 21
-41.3632014316
  0
LINE
  5
58A
100
AcDbEntity
  8
0
100
AcDbLine
 62
7
  6
CONTINUOUS
 10
-4.5089959956
 20
-23.5632014316
 11
-4.5019918722
 21
-23.5561973082
  0
LINE
  5
58B
100
AcDbEntity
  8
0
100
AcDbLine
 62
7
  6
CONTINUOUS
 10
27.8799112771
 20
8.5600841483
 11
26.076445957
 21
6.7566188281
  0
LINE
  5
58C
100
AcDbEntity
  8
0
100
AcDbLine
 62
7
  6
CONTINUOUS
 10
27.904348368
 20
8.5499619738
 11
26.0865681314
 21
6.7321817372
  0
LINE
  5
58D
100
AcDbEntity
  8
DRAFT
100
AcDbLine
 62
7
  6
CONTINUOUS
 10
-7.1756034023
 20
-24.8741806004
 11
-7.2422744149
 21
-24.9352733277
  0
LINE
  5
58E
100
AcDbEntity
  8
0
100
AcDbLine
 62
7
  6
CONTINUOUS
 10
32.2493674416
 20
-1.3757959041
 11
32.2742623242
 21
-1.3656991669
  0
LINE
  5
58F
100
AcDbEntity
  8
0
100
AcDbLine
 62
7
  6
CONTINUOUS
 10
-41.8037594761
 20
11.5402895814
 11
-35.9133569767
 21
11.5402895814
  0
LINE
  5
590
100
AcDbEntity
  8
0
100
AcDbLine
 62
7
  6
CONTINUOUS
 10
-34.8853091214
 20
11.5402895814
 11
-28.7467774502
 21
11.5402895814
  0
LINE
  5
591
100
AcDbEntity
  8
0
100
AcDbLine
 62
7
  6
CONTINUOUS
 10
27.9462405239
 20
11.5402895814
 11
34.0847721951
 21
11.5402895814
  0
LINE
  5
592
100
AcDbEntity
  8
0
100
AcDbLine
 62
7
  6
CONTINUOUS
 10
35.1128200503
 20
11.5402895814
 11
41.0032225498
 21
11.5402895814
  0
LINE
  5
593
100
AcDbEntity
  8
0
100
AcDbLine
 62
7
  6
CONTINUOUS
 10
-41.8700887229
 20
11.6066188281
 11
-35.8269150194
 21
11.6066188281
  0
LINE
  5
594
100
AcDbEntity
  8
0
100
AcDbLine
 62
7
  6
CONTINUOUS
 10
-34.9362053425
 20
11.6066188281
 11
-28.6804482034
 21
11.6066188281
  0
LINE
  5
595
100
AcDbEntity
  8
0
100
AcDbLine
 62
7
  6
CONTINUOUS
 10
27.8799112771
 20
11.6066188281
 11
34.1356684162
 21
11.6066188281
  0
LINE
  5
596
100
AcDbEntity
  8
0
100
AcDbLine
 62
7
  6
CONTINUOUS
 10
35.0263780931
 20
11.6066188281
 11
41.0695517966
 21
11.6066188281
  0
LINE
  5
597
100
AcDbEntity
  8
0
100
AcDbLine
 62
7
  6
CONTINUOUS
 10
41.0695517966
 20
12.4669783087
 11
35.0299112771
 21
12.4669783087
  0
LINE
  5
598
100
AcDbEntity
  8
0
100
AcDbLine
 62
7
  6
CONTINUOUS
 10
34.1695517966
 20
12.4669783087
 11
27.8799112771
 21
12.4669783087
  0
LINE
  5
599
100
AcDbEntity
  8
0
100
AcDbLine
 62
7
  6
CONTINUOUS
 10
-28.6804482034
 20
12.4669783087
 11
-34.9700887229
 21
12.4669783087
  0
LINE
  5
59A
100
AcDbEntity
  8
0
100
AcDbLine
 62
7
  6
CONTINUOUS
 10
-35.8304482034
 20
12.4669783087
 11
-41.8700887229
 21
12.4669783087
  0
LINE
  5
59B
100
AcDbEntity
  8
0
100
AcDbLine
 62
7
  6
CONTINUOUS
 10
41.0032225498
 20
12.5333075554
 11
35.0962405239
 21
12.5333075554
  0
LINE
  5
59C
100
AcDbEntity
  8
0
100
AcDbLine
 62
7
  6
CONTINUOUS
 10
34.1032225498
 20
12.5333075554
 11
27.9462405239
 21
12.5333075554
  0
LINE
  5
59D
100
AcDbEntity
  8
0
100
AcDbLine
 62
7
  6
CONTINUOUS
 10
-28.7467774502
 20
12.5333075554
 11
-34.9037594761
 21
12.5333075554
  0
LINE
  5
59E
100
AcDbEntity
  8
0
100
AcDbLine
 62
7
  6
CONTINUOUS
 10
-35.8967774502
 20
12.5333075554
 11
-41.8037594761
 21
12.5333075554
  0
LINE
  5
59F
100
AcDbEntity
  8
0
100
AcDbLine
 62
7
  6
CONTINUOUS
 10
26.9048106986
 20
-0.8605480707
 11
26.8808081135
 21
-0.846832095
  0
LINE
  5
5A0
100
AcDbEntity
  8
DRAFT
100
AcDbLine
 62
7
  6
CONTINUOUS
 10
-7.1756034023
 20
24.9477777373
 11
-7.2422744149
 21
25.0088704645
  0
LINE
  5
5A1
100
AcDbEntity
  8
DRAFT
100
AcDbLine
 62
7
  6
CONTINUOUS
 10
-9.178196567
 20
24.0647266723
 11
-9.1502684632
 21
24.0367985684
  0
LINE
  5
5A2
100
AcDbEntity
  8
0
100
AcDbLine
 62
7
  6
CONTINUOUS
 10
-12.8304482034
 20
28.2169783087
 11
-12.9002684632
 21
28.2867985684
  0
LINE
  5
5A3
100
AcDbEntity
  8
0
100
AcDbLine
 62
7
  6
CONTINUOUS
 10
27.8799112771
 20
-12.3933811719
 11
27.9462405239
 21
-12.4597104186
  0
LINE
  5
5A4
100
AcDbEntity
  8
0
100
AcDbLine
 62
7
  6
CONTINUOUS
 10
25.7375995025
 20
-7.8010693972
 11
26.7618635712
 21
-8.8253334659
  0
LINE
  5
5A5
100
AcDbEntity
  8
DRAFT
100
AcDbLine
 62
7
  6
CONTINUOUS
 10
-8.9002684632
 20
27.1867985684
 11
-7.3228466965
 21
25.6093768018
  0
LINE
  5
5A6
100
AcDbEntity
  8
DRAFT
100
AcDbLine
 62
7
  6
CONTINUOUS
 10
-7.2369885439
 20
25.6494131158
 11
-8.8633948276
 21
27.2758193996
  0
LINE
  5
5A7
100
AcDbEntity
  8
0
100
AcDbLine
 62
7
  6
CONTINUOUS
 10
-22.9700887229
 20
41.5066188281
 11
-22.9002684632
 21
41.4367985684
  0
LINE
  5
5A8
100
AcDbEntity
  8
0
100
AcDbLine
 62
7
  6
CONTINUOUS
 10
41.0695517966
 20
-22.5330216913
 11
41.0032225498
 21
-22.4666924446
  0
LINE
  5
5A9
100
AcDbEntity
  8
0
100
AcDbLine
 62
7
  6
CONTINUOUS
 10
-4.5089959956
 20
23.6367985684
 11
-4.5019918722
 21
23.629794445
  0
LINE
  5
5AA
100
AcDbEntity
  8
0
100
AcDbLine
 62
7
  6
CONTINUOUS
 10
-6.0805684601
 20
25.3963954605
 11
-6.0502684632
 21
25.3576846112
  0
LINE
  5
5AB
100
AcDbEntity
  8
0
100
AcDbLine
 62
7
  6
CONTINUOUS
 10
-6.095651632
 20
25.4157964526
 11
-6.0805684601
 21
25.3963954605
  0
LINE
  5
5AC
100
AcDbEntity
  8
DRAFT
100
AcDbLine
 62
7
  6
CONTINUOUS
 10
15.4459690667
 20
22.5367985684
 11
15.3125056346
 21
24.0622925777
  0
LINE
  5
5AD
100
AcDbEntity
  8
DRAFT
100
AcDbLine
 62
7
  6
CONTINUOUS
 10
15.2299037561
 20
25.0064363699
 11
15.1771533035
 21
25.6093768018
  0
LINE
  5
5AE
100
AcDbEntity
  8
DRAFT
100
AcDbLine
 62
7
  6
CONTINUOUS
 10
15.5275416294
 20
22.6258193996
 11
15.3963086341
 21
24.1258193996
  0
LINE
  5
5AF
100
AcDbEntity
  8
DRAFT
100
AcDbLine
 62
7
  6
CONTINUOUS
 10
15.3243965977
 20
24.9477777373
 11
15.2630114561
 21
25.6494131158
  0
LINE
  5
5B0
100
AcDbEntity
  8
0
100
AcDbLine
 62
7
  6
CONTINUOUS
 10
16.3799112771
 20
25.8635129885
 11
16.3799112771
 21
23.5669783087
  0
LINE
  5
5B1
100
AcDbEntity
  8
0
100
AcDbLine
 62
7
  6
CONTINUOUS
 10
16.3799112771
 20
-23.4933811719
 11
16.3799112771
 21
-25.7899158517
  0
LINE
  5
5B2
100
AcDbEntity
  8
0
100
AcDbLine
 62
7
  6
CONTINUOUS
 10
16.4497315368
 20
25.892433487
 11
16.4497315368
 21
23.6367985684
  0
LINE
  5
5B3
100
AcDbEntity
  8
0
100
AcDbLine
 62
7
  6
CONTINUOUS
 10
16.4497315368
 20
-23.5632014316
 11
16.4497315368
 21
-25.8188363502
  0
LINE
  5
5B4
100
AcDbEntity
  8
0
100
AcDbLine
 62
7
  6
CONTINUOUS
 10
17.9910040044
 20
-24.621928964
 11
17.9910040044
 21
-23.5632014316
  0
LINE
  5
5B5
100
AcDbEntity
  8
0
100
AcDbLine
 62
7
  6
CONTINUOUS
 10
17.9910040044
 20
23.6367985684
 11
17.9910040044
 21
24.6955261009
  0
LINE
  5
5B6
100
AcDbEntity
  8
DRAFT
100
AcDbLine
 62
7
  6
CONTINUOUS
 10
15.4459690667
 20
-22.4632014316
 11
15.3125056346
 21
-23.9886954408
  0
LINE
  5
5B7
100
AcDbEntity
  8
DRAFT
100
AcDbLine
 62
7
  6
CONTINUOUS
 10
15.2299037561
 20
-24.9328392331
 11
15.1771533035
 21
-25.5357796649
  0
LINE
  5
5B8
100
AcDbEntity
  8
DRAFT
100
AcDbLine
 62
7
  6
CONTINUOUS
 10
15.2630114561
 20
-25.575815979
 11
15.3243965977
 21
-24.8741806004
  0
LINE
  5
5B9
100
AcDbEntity
  8
DRAFT
100
AcDbLine
 62
7
  6
CONTINUOUS
 10
15.3963086341
 20
-24.0522222627
 11
15.5275416294
 21
-22.5522222627
  0
LINE
  5
5BA
100
AcDbEntity
  8
DRAFT
100
AcDbLine
 62
7
  6
CONTINUOUS
 10
9.9497315368
 20
-27.1132014316
 11
10.1774883504
 21
-26.2632014316
  0
LINE
  5
5BB
100
AcDbEntity
  8
DRAFT
100
AcDbLine
 62
7
  6
CONTINUOUS
 10
10.0180396231
 20
-27.2022222627
 11
10.2457964366
 21
-26.3522222627
  0
LINE
  5
5BC
100
AcDbEntity
  8
0
100
AcDbLine
 62
7
  6
CONTINUOUS
 10
7.6628949423
 20
-28.1678182628
 11
7.6730171167
 21
-28.1433811719
  0
LINE
  5
5BD
100
AcDbEntity
  8
DRAFT
100
AcDbLine
 62
7
  6
CONTINUOUS
 10
8.0997315368
 20
-27.1132014316
 11
8.0628579013
 21
-27.2022222627
  0
LINE
  5
5BE
100
AcDbEntity
  8
0
100
AcDbLine
 62
7
  6
CONTINUOUS
 10
26.1039204305
 20
15.8833075554
 11
26.076445957
 21
15.8169783087
  0
LINE
  5
5BF
100
AcDbEntity
  8
0
100
AcDbLine
 62
7
  6
CONTINUOUS
 10
27.904348368
 20
8.8324380268
 11
27.9369000248
 21
8.8767778748
  0
LINE
  5
5C0
100
AcDbEntity
  8
0
100
AcDbLine
 62
7
  6
CONTINUOUS
 10
27.9369000248
 20
8.8767778748
 11
27.9462405239
 21
8.8894155373
  0
LINE
  5
5C1
100
AcDbEntity
  8
0
100
AcDbLine
 62
7
  6
CONTINUOUS
 10
0.054348368
 20
-25.5545469041
 11
0.0997315368
 21
-25.5083085952
  0
LINE
  5
5C2
100
AcDbEntity
  8
0
100
AcDbLine
 62
7
  6
CONTINUOUS
 10
-6.1200887229
 20
-25.7899158517
 11
-8.473554043
 21
-28.1433811719
  0
LINE
  5
5C3
100
AcDbEntity
  8
0
100
AcDbLine
 62
7
  6
CONTINUOUS
 10
-6.095651632
 20
-25.8000380262
 11
-8.4634318686
 21
-28.1678182628
  0
LINE
  5
5C4
100
AcDbEntity
  8
DRAFT
100
AcDbLine
 62
7
  6
CONTINUOUS
 10
-1.3723403593
 20
-22.4632014316
 11
-1.3828133982
 21
-22.4736744705
  0
LINE
  5
5C5
100
AcDbEntity
  8
0
100
AcDbLine
 62
7
  6
CONTINUOUS
 10
35.0962405239
 20
12.5333075554
 11
35.0299112771
 21
12.4669783087
  0
LINE
  5
5C6
100
AcDbEntity
  8
0
100
AcDbLine
 62
7
  6
CONTINUOUS
 10
-12.9002684632
 20
-35.4632014316
 11
-12.8304482034
 21
-35.3933811719
  0
LINE
  5
5C7
100
AcDbEntity
  8
0
100
AcDbLine
 62
7
  6
CONTINUOUS
 10
-0.8304482034
 20
-23.4933811719
 11
-0.9002684632
 21
-23.5632014316
  0
LINE
  5
5C8
100
AcDbEntity
  8
0
100
AcDbLine
 62
7
  6
CONTINUOUS
 10
23.1299112771
 20
0.4669783087
 11
23.1962405239
 21
0.5333075554
  0
LINE
  5
5C9
100
AcDbEntity
  8
0
100
AcDbLine
 62
7
  6
CONTINUOUS
 10
0.5910040044
 20
-23.5632014316
 11
0.5980081278
 21
-23.5561973082
  0
LINE
  5
5CA
100
AcDbEntity
  8
0
100
AcDbLine
 62
7
  6
CONTINUOUS
 10
25.1910770094
 20
-0.4178182628
 11
25.1483984644
 21
-0.4597104186
  0
LINE
  5
5CB
100
AcDbEntity
  8
0
100
AcDbLine
 62
7
  6
CONTINUOUS
 10
-9.1837545626
 20
-28.1828980014
 11
-9.2258828951
 21
-28.2132014316
  0
LINE
  5
5CC
100
AcDbEntity
  8
0
100
AcDbLine
 62
7
  6
CONTINUOUS
 10
-9.1626315769
 20
-28.1678182628
 11
-9.1837545626
 21
-28.1828980014
  0
LINE
  5
5CD
100
AcDbEntity
  8
DRAFT
100
AcDbLine
 62
7
  6
CONTINUOUS
 10
-15.9776902298
 20
-25.5357796649
 11
-16.0635483825
 21
-25.575815979
  0
LINE
  5
5CE
100
AcDbEntity
  8
0
100
AcDbLine
 62
7
  6
CONTINUOUS
 10
-17.1804482034
 20
-25.7899158517
 11
-17.2502684632
 21
-25.8188363502
  0
LINE
  5
5CF
100
AcDbEntity
  8
0
100
AcDbLine
 62
7
  6
CONTINUOUS
 10
-26.3260043944
 20
14.7867985684
 11
-25.2502684632
 21
14.7867985684
  0
LINE
  5
5D0
100
AcDbEntity
  8
0
100
AcDbLine
 62
7
  6
CONTINUOUS
 10
24.4497315368
 20
14.7867985684
 11
25.5254674681
 21
14.7867985684
  0
LINE
  5
5D1
100
AcDbEntity
  8
0
100
AcDbLine
 62
7
  6
CONTINUOUS
 10
-26.8769828833
 20
15.8169783087
 11
-23.9304482034
 21
15.8169783087
  0
LINE
  5
5D2
100
AcDbEntity
  8
0
100
AcDbLine
 62
7
  6
CONTINUOUS
 10
23.1299112771
 20
15.8169783087
 11
26.076445957
 21
15.8169783087
  0
LINE
  5
5D3
100
AcDbEntity
  8
0
100
AcDbLine
 62
7
  6
CONTINUOUS
 10
26.1039204305
 20
15.8833075554
 11
23.1962405239
 21
15.8833075554
  0
LINE
  5
5D4
100
AcDbEntity
  8
0
100
AcDbLine
 62
7
  6
CONTINUOUS
 10
-23.9967774502
 20
15.8833075554
 11
-26.9044573568
 21
15.8833075554
  0
LINE
  5
5D5
100
AcDbEntity
  8
0
100
AcDbLine
 62
7
  6
CONTINUOUS
 10
-17.1804482034
 20
25.8635129885
 11
-17.2502684632
 21
25.892433487
  0
LINE
  5
5D6
100
AcDbEntity
  8
DRAFT
100
AcDbLine
 62
7
  6
CONTINUOUS
 10
-16.0635483825
 20
25.6494131158
 11
-15.9776902298
 21
25.6093768018
  0
LINE
  5
5D7
100
AcDbEntity
  8
0
100
AcDbLine
 62
7
  6
CONTINUOUS
 10
-9.1626315769
 20
28.2414153996
 11
-9.2048381203
 21
28.271622848
  0
LINE
  5
5D8
100
AcDbEntity
  8
0
100
AcDbLine
 62
7
  6
CONTINUOUS
 10
-9.2048381203
 20
28.271622848
 11
-9.2258828951
 21
28.2867985684
  0
LINE
  5
5D9
100
AcDbEntity
  8
0
100
AcDbLine
 62
7
  6
CONTINUOUS
 10
25.1910770094
 20
0.4914153996
 11
25.1483984644
 21
0.5333075554
  0
LINE
  5
5DA
100
AcDbEntity
  8
0
100
AcDbLine
 62
7
  6
CONTINUOUS
 10
-8.473554043
 20
28.2169783087
 11
-6.1200887229
 21
25.8635129885
  0
LINE
  5
5DB
100
AcDbEntity
  8
0
100
AcDbLine
 62
7
  6
CONTINUOUS
 10
-8.4634318686
 20
28.2414153996
 11
-6.095651632
 21
25.873635163
  0
LINE
  5
5DC
100
AcDbEntity
  8
DRAFT
100
AcDbLine
 62
7
  6
CONTINUOUS
 10
-1.3723403593
 20
22.5367985684
 11
-1.3828133982
 21
22.5472716074
  0
LINE
  5
5DD
100
AcDbEntity
  8
0
100
AcDbLine
 62
7
  6
CONTINUOUS
 10
-12.9002684632
 20
35.5367985684
 11
-12.8304482034
 21
35.4669783087
  0
LINE
  5
5DE
100
AcDbEntity
  8
0
100
AcDbLine
 62
7
  6
CONTINUOUS
 10
35.0962405239
 20
-12.4597104186
 11
35.0299112771
 21
-12.3933811719
  0
LINE
  5
5DF
100
AcDbEntity
  8
0
100
AcDbLine
 62
7
  6
CONTINUOUS
 10
23.1299112771
 20
-0.3933811719
 11
23.1962405239
 21
-0.4597104186
  0
LINE
  5
5E0
100
AcDbEntity
  8
0
100
AcDbLine
 62
7
  6
CONTINUOUS
 10
-0.8304482034
 20
23.5669783087
 11
-0.9002684632
 21
23.6367985684
  0
LINE
  5
5E1
100
AcDbEntity
  8
0
100
AcDbLine
 62
7
  6
CONTINUOUS
 10
0.5910040044
 20
23.6367985684
 11
0.5980081278
 21
23.629794445
  0
LINE
  5
5E2
100
AcDbEntity
  8
0
100
AcDbLine
 62
7
  6
CONTINUOUS
 10
0.054348368
 20
25.628144041
 11
0.0997315368
 21
25.581905732
  0
LINE
  5
5E3
100
AcDbEntity
  8
0
100
AcDbLine
 62
7
  6
CONTINUOUS
 10
27.9166487218
 20
-8.7756505009
 11
27.9462405239
 21
-8.8158184004
  0
LWPOLYLINE
  5
5E4
100
AcDbEntity
  8
0
100
AcDbPolyline
 62
7
  6
CONTINUOUS
 90
3
 70
0
 10
27.8799112771
 20
-8.7252438113
 10
27.8872363573
 20
-8.7353429082
 10
27.9166487218
 20
-8.7756505009
  0
LINE
  5
5E5
100
AcDbEntity
  8
0
100
AcDbLine
 62
7
  6
CONTINUOUS
 10
7.6628949423
 20
28.2414153996
 11
7.6730171167
 21
28.2169783087
  0
LINE
  5
5E6
100
AcDbEntity
  8
DRAFT
100
AcDbLine
 62
7
  6
CONTINUOUS
 10
8.0997315368
 20
27.1867985684
 11
8.0628579013
 21
27.2758193996
  0
LINE
  5
5E7
100
AcDbEntity
  8
0
100
AcDbLine
 62
7
  6
CONTINUOUS
 10
26.1039204305
 20
-15.8097104186
 11
26.076445957
 21
-15.7433811719
  0
LINE
  5
5E8
100
AcDbEntity
  8
DRAFT
100
AcDbLine
 62
7
  6
CONTINUOUS
 10
10.1774883504
 20
26.3367985684
 11
9.9497315368
 21
27.1867985684
  0
LINE
  5
5E9
100
AcDbEntity
  8
DRAFT
100
AcDbLine
 62
7
  6
CONTINUOUS
 10
10.2457964366
 20
26.4258193996
 11
10.0180396231
 21
27.2758193996
  0
LINE
  5
5EA
100
AcDbEntity
  8
0
100
AcDbLine
 62
7
  6
CONTINUOUS
 10
21.1084590693
 20
-24.621928964
 11
21.1084590693
 21
-23.5632014316
  0
LINE
  5
5EB
100
AcDbEntity
  8
0
100
AcDbLine
 62
7
  6
CONTINUOUS
 10
21.1084590693
 20
23.6367985684
 11
21.1084590693
 21
24.6955261009
  0
LINE
  5
5EC
100
AcDbEntity
  8
0
100
AcDbLine
 62
7
  6
CONTINUOUS
 10
22.0997315368
 20
41.4367985684
 11
22.0997315368
 21
35.5367985684
  0
LINE
  5
5ED
100
AcDbEntity
  8
0
100
AcDbLine
 62
7
  6
CONTINUOUS
 10
22.0997315368
 20
34.5367985684
 11
22.0997315368
 21
23.6367985684
  0
LINE
  5
5EE
100
AcDbEntity
  8
0
100
AcDbLine
 62
7
  6
CONTINUOUS
 10
22.0997315368
 20
-41.3632014316
 11
22.0997315368
 21
-35.4632014316
  0
LINE
  5
5EF
100
AcDbEntity
  8
0
100
AcDbLine
 62
7
  6
CONTINUOUS
 10
22.0997315368
 20
-34.4632014316
 11
22.0997315368
 21
-23.5632014316
  0
LINE
  5
5F0
100
AcDbEntity
  8
DRAFT
100
AcDbLine
 62
7
  6
CONTINUOUS
 10
22.0997315368
 20
-18.7026977349
 11
22.0997315368
 21
18.7762948717
  0
LINE
  5
5F1
100
AcDbEntity
  8
DRAFT
100
AcDbLine
 62
7
  6
CONTINUOUS
 10
22.1538422381
 20
22.5909092697
 11
22.1538422381
 21
18.7592119548
  0
LINE
  5
5F2
100
AcDbEntity
  8
DRAFT
100
AcDbLine
 62
7
  6
CONTINUOUS
 10
22.1538422381
 20
-18.6856148179
 11
22.1538422381
 21
-22.5173121329
  0
LINE
  5
5F3
100
AcDbEntity
  8
0
100
AcDbLine
 62
7
  6
CONTINUOUS
 10
22.1695517966
 20
41.5066188281
 11
22.1695517966
 21
35.4669783087
  0
LINE
  5
5F4
100
AcDbEntity
  8
0
100
AcDbLine
 62
7
  6
CONTINUOUS
 10
22.1695517966
 20
34.6066188281
 11
22.1695517966
 21
23.5669783087
  0
LINE
  5
5F5
100
AcDbEntity
  8
0
100
AcDbLine
 62
7
  6
CONTINUOUS
 10
22.1695517966
 20
-23.4933811719
 11
22.1695517966
 21
-34.5330216913
  0
LINE
  5
5F6
100
AcDbEntity
  8
0
100
AcDbLine
 62
7
  6
CONTINUOUS
 10
22.1695517966
 20
-35.3933811719
 11
22.1695517966
 21
-41.4330216913
  0
LINE
  5
5F7
100
AcDbEntity
  8
DRAFT
100
AcDbLine
 62
7
  6
CONTINUOUS
 10
22.188752368
 20
-22.5522222627
 11
22.188752368
 21
22.6258193996
  0
LINE
  5
5F8
100
AcDbEntity
  8
0
100
AcDbLine
 62
7
  6
CONTINUOUS
 10
34.0847721951
 20
11.5402895814
 11
34.1356684162
 21
11.6066188281
  0
LINE
  5
5F9
100
AcDbEntity
  8
DRAFT
100
AcDbLine
 62
7
  6
CONTINUOUS
 10
6.1719214443
 20
-22.5522222627
 11
6.253494007
 21
-22.4632014316
  0
LINE
  5
5FA
100
AcDbEntity
  8
DRAFT
100
AcDbLine
 62
7
  6
CONTINUOUS
 10
6.3031544395
 20
-24.0522222627
 11
6.35913561
 21
-23.9911295355
  0
LINE
  5
5FB
100
AcDbEntity
  8
0
100
AcDbLine
 62
7
  6
CONTINUOUS
 10
0.0299112771
 20
-27.2796346617
 11
0.054348368
 21
-27.2547984143
  0
LINE
  5
5FC
100
AcDbEntity
  8
DRAFT
100
AcDbLine
 62
7
  6
CONTINUOUS
 10
3.7276596407
 20
-22.4632014316
 11
3.7171866018
 21
-22.4736744705
  0
LINE
  5
5FD
100
AcDbEntity
  8
0
100
AcDbLine
 62
7
  6
CONTINUOUS
 10
5.2497315368
 20
-23.5632014316
 11
5.3195517966
 21
-23.4933811719
  0
LINE
  5
5FE
100
AcDbEntity
  8
0
100
AcDbLine
 62
7
  6
CONTINUOUS
 10
41.0695517966
 20
11.6066188281
 11
41.0032225498
 21
11.5402895814
  0
LINE
  5
5FF
100
AcDbEntity
  8
0
100
AcDbLine
 62
7
  6
CONTINUOUS
 10
-11.9700887229
 20
-41.4330216913
 11
-11.9002684632
 21
-41.3632014316
  0
LINE
  5
600
100
AcDbEntity
  8
0
100
AcDbLine
 62
7
  6
CONTINUOUS
 10
23.1299112771
 20
-6.6830216913
 11
23.1962405239
 21
-6.6166924446
  0
LINE
  5
601
100
AcDbEntity
  8
0
100
AcDbLine
 62
7
  6
CONTINUOUS
 10
26.9161647669
 20
-0.3933811719
 11
26.8913285196
 21
-0.4178182628
  0
LINE
  5
602
100
AcDbEntity
  8
0
100
AcDbLine
 62
7
  6
CONTINUOUS
 10
-11.9002684632
 20
-34.4455633414
 11
-11.9700887229
 21
-34.499138311
  0
LINE
  5
603
100
AcDbEntity
  8
DRAFT
100
AcDbLine
 62
7
  6
CONTINUOUS
 10
17.971803433
 20
22.5367985684
 11
15.4459690667
 21
22.5367985684
  0
LINE
  5
604
100
AcDbEntity
  8
DRAFT
100
AcDbLine
 62
7
  6
CONTINUOUS
 10
-14.1502684632
 20
22.5367985684
 11
-9.1502684632
 21
22.5367985684
  0
LINE
  5
605
100
AcDbEntity
  8
DRAFT
100
AcDbLine
 62
7
  6
CONTINUOUS
 10
6.253494007
 20
22.5367985684
 11
3.7276596407
 21
22.5367985684
  0
LINE
  5
606
100
AcDbEntity
  8
DRAFT
100
AcDbLine
 62
7
  6
CONTINUOUS
 10
0.571803433
 20
22.5367985684
 11
-1.3723403593
 21
22.5367985684
  0
LINE
  5
607
100
AcDbEntity
  8
DRAFT
100
AcDbLine
 62
7
  6
CONTINUOUS
 10
-4.528196567
 20
22.5367985684
 11
-7.0540309333
 21
22.5367985684
  0
LINE
  5
608
100
AcDbEntity
  8
DRAFT
100
AcDbLine
 62
7
  6
CONTINUOUS
 10
8.3497315368
 20
22.5367985684
 11
13.3497315368
 21
22.5367985684
  0
LINE
  5
609
100
AcDbEntity
  8
DRAFT
100
AcDbLine
 62
7
  6
CONTINUOUS
 10
-16.246505993
 20
22.5367985684
 11
-18.7723403593
 21
22.5367985684
  0
LINE
  5
60A
100
AcDbEntity
  8
0
100
AcDbLine
 62
7
  6
CONTINUOUS
 10
-41.8037594761
 20
22.5402895814
 11
-35.8967774502
 21
22.5402895814
  0
LINE
  5
60B
100
AcDbEntity
  8
0
100
AcDbLine
 62
7
  6
CONTINUOUS
 10
-34.9037594761
 20
22.5402895814
 11
-23.9967774502
 21
22.5402895814
  0
LINE
  5
60C
100
AcDbEntity
  8
0
100
AcDbLine
 62
7
  6
CONTINUOUS
 10
23.1962405239
 20
22.5402895814
 11
34.1032225498
 21
22.5402895814
  0
LINE
  5
60D
100
AcDbEntity
  8
0
100
AcDbLine
 62
7
  6
CONTINUOUS
 10
35.0962405239
 20
22.5402895814
 11
41.0032225498
 21
22.5402895814
  0
LINE
  5
60E
100
AcDbEntity
  8
DRAFT
100
AcDbLine
 62
7
  6
CONTINUOUS
 10
-19.1292917275
 20
22.5472716074
 11
-18.7828133982
 21
22.5472716074
  0
LINE
  5
60F
100
AcDbEntity
  8
DRAFT
100
AcDbLine
 62
7
  6
CONTINUOUS
 10
18.3287548012
 20
22.5472716074
 11
17.9822764719
 21
22.5472716074
  0
LINE
  5
610
100
AcDbEntity
  8
DRAFT
100
AcDbLine
 62
7
  6
CONTINUOUS
 10
0.5822764719
 20
22.5472716074
 11
3.7171866018
 21
22.5472716074
  0
LINE
  5
611
100
AcDbEntity
  8
DRAFT
100
AcDbLine
 62
7
  6
CONTINUOUS
 10
-1.3828133982
 20
22.5472716074
 11
-4.5177235281
 21
22.5472716074
  0
LINE
  5
612
100
AcDbEntity
  8
DRAFT
100
AcDbLine
 62
7
  6
CONTINUOUS
 10
-22.9543791644
 20
22.5909092697
 11
-19.1226818495
 21
22.5909092697
  0
LINE
  5
613
100
AcDbEntity
  8
DRAFT
100
AcDbLine
 62
7
  6
CONTINUOUS
 10
18.3221449232
 20
22.5909092697
 11
22.1538422381
 21
22.5909092697
  0
LINE
  5
614
100
AcDbEntity
  8
0
100
AcDbLine
 62
7
  6
CONTINUOUS
 10
-41.8700887229
 20
22.6066188281
 11
-35.8304482034
 21
22.6066188281
  0
LINE
  5
615
100
AcDbEntity
  8
0
100
AcDbLine
 62
7
  6
CONTINUOUS
 10
-34.9700887229
 20
22.6066188281
 11
-23.9304482034
 21
22.6066188281
  0
LINE
  5
616
100
AcDbEntity
  8
0
100
AcDbLine
 62
7
  6
CONTINUOUS
 10
23.1299112771
 20
22.6066188281
 11
34.1695517966
 21
22.6066188281
  0
LINE
  5
617
100
AcDbEntity
  8
0
100
AcDbLine
 62
7
  6
CONTINUOUS
 10
35.0299112771
 20
22.6066188281
 11
41.0695517966
 21
22.6066188281
  0
LINE
  5
618
100
AcDbEntity
  8
DRAFT
100
AcDbLine
 62
7
  6
CONTINUOUS
 10
-22.9892892943
 20
22.6258193996
 11
-16.3280785557
 21
22.6258193996
  0
LINE
  5
619
100
AcDbEntity
  8
DRAFT
100
AcDbLine
 62
7
  6
CONTINUOUS
 10
11.2607107057
 20
22.6258193996
 11
10.438752368
 21
22.6258193996
  0
LINE
  5
61A
100
AcDbEntity
  8
DRAFT
100
AcDbLine
 62
7
  6
CONTINUOUS
 10
-6.9724583706
 20
22.6258193996
 11
6.1719214443
 21
22.6258193996
  0
LINE
  5
61B
100
AcDbEntity
  8
DRAFT
100
AcDbLine
 62
7
  6
CONTINUOUS
 10
-11.2392892943
 20
22.6258193996
 11
-12.061247632
 21
22.6258193996
  0
LINE
  5
61C
100
AcDbEntity
  8
DRAFT
100
AcDbLine
 62
7
  6
CONTINUOUS
 10
15.5275416294
 20
22.6258193996
 11
22.188752368
 21
22.6258193996
  0
LINE
  5
61D
100
AcDbEntity
  8
0
100
AcDbLine
 62
7
  6
CONTINUOUS
 10
27.904348368
 20
8.5499619738
 11
27.8799112771
 21
8.5600841483
  0
LINE
  5
61E
100
AcDbEntity
  8
0
100
AcDbLine
 62
7
  6
CONTINUOUS
 10
-11.9002684632
 20
34.5191604782
 11
-11.9700887229
 21
34.5727354478
  0
LINE
  5
61F
100
AcDbEntity
  8
0
100
AcDbLine
 62
7
  6
CONTINUOUS
 10
26.9161647669
 20
0.4669783087
 11
26.8913285196
 21
0.4914153996
  0
LINE
  5
620
100
AcDbEntity
  8
DRAFT
100
AcDbLine
 62
7
  6
CONTINUOUS
 10
3.7276596407
 20
22.5367985684
 11
3.7171866018
 21
22.5472716074
  0
LINE
  5
621
100
AcDbEntity
  8
0
100
AcDbLine
 62
7
  6
CONTINUOUS
 10
5.2497315368
 20
23.6367985684
 11
5.3195517966
 21
23.5669783087
  0
LINE
  5
622
100
AcDbEntity
  8
0
100
AcDbLine
 62
7
  6
CONTINUOUS
 10
-11.9700887229
 20
41.5066188281
 11
-11.9002684632
 21
41.4367985684
  0
LINE
  5
623
100
AcDbEntity
  8
0
100
AcDbLine
 62
7
  6
CONTINUOUS
 10
41.0695517966
 20
-11.5330216913
 11
41.0032225498
 21
-11.4666924446
  0
LINE
  5
624
100
AcDbEntity
  8
0
100
AcDbLine
 62
7
  6
CONTINUOUS
 10
23.1299112771
 20
6.7566188281
 11
23.1962405239
 21
6.6902895814
  0
LINE
  5
625
100
AcDbEntity
  8
0
100
AcDbLine
 62
7
  6
CONTINUOUS
 10
0.0299112771
 20
27.3532317985
 11
0.054348368
 21
27.3283955512
  0
LINE
  5
626
100
AcDbEntity
  8
DRAFT
100
AcDbLine
 62
7
  6
CONTINUOUS
 10
6.253494007
 20
22.5367985684
 11
6.1719214443
 21
22.6258193996
  0
LINE
  5
627
100
AcDbEntity
  8
DRAFT
100
AcDbLine
 62
7
  6
CONTINUOUS
 10
6.3031544395
 20
24.1258193996
 11
6.35913561
 21
24.0647266723
  0
LINE
  5
628
100
AcDbEntity
  8
0
100
AcDbLine
 62
7
  6
CONTINUOUS
 10
34.0847721951
 20
-11.4666924446
 11
34.1356684162
 21
-11.5330216913
  0
LINE
  5
629
100
AcDbEntity
  8
0
100
AcDbLine
 62
7
  6
CONTINUOUS
 10
23.0299112771
 20
-41.4330216913
 11
23.0299112771
 21
-35.3933811719
  0
LINE
  5
62A
100
AcDbEntity
  8
0
100
AcDbLine
 62
7
  6
CONTINUOUS
 10
23.0299112771
 20
-34.5330216913
 11
23.0299112771
 21
-23.4933811719
  0
LINE
  5
62B
100
AcDbEntity
  8
0
100
AcDbLine
 62
7
  6
CONTINUOUS
 10
23.0299112771
 20
23.5669783087
 11
23.0299112771
 21
34.6066188281
  0
LINE
  5
62C
100
AcDbEntity
  8
0
100
AcDbLine
 62
7
  6
CONTINUOUS
 10
23.0299112771
 20
35.4669783087
 11
23.0299112771
 21
41.5066188281
  0
LINE
  5
62D
100
AcDbEntity
  8
0
100
AcDbLine
 62
7
  6
CONTINUOUS
 10
23.0997315368
 20
41.4367985684
 11
23.0997315368
 21
35.5367985684
  0
LINE
  5
62E
100
AcDbEntity
  8
0
100
AcDbLine
 62
7
  6
CONTINUOUS
 10
23.0997315368
 20
34.5367985684
 11
23.0997315368
 21
23.6367985684
  0
LINE
  5
62F
100
AcDbEntity
  8
0
100
AcDbLine
 62
7
  6
CONTINUOUS
 10
23.0997315368
 20
-41.3632014316
 11
23.0997315368
 21
-35.4632014316
  0
LINE
  5
630
100
AcDbEntity
  8
0
100
AcDbLine
 62
7
  6
CONTINUOUS
 10
23.0997315368
 20
-34.4632014316
 11
23.0997315368
 21
-23.5632014316
  0
LINE
  5
631
100
AcDbEntity
  8
0
100
AcDbLine
 62
7
  6
CONTINUOUS
 10
23.1299112771
 20
23.5669783087
 11
23.1299112771
 21
23.4669783087
  0
LINE
  5
632
100
AcDbEntity
  8
0
100
AcDbLine
 62
7
  6
CONTINUOUS
 10
23.1299112771
 20
22.6066188281
 11
23.1299112771
 21
15.8169783087
  0
LINE
  5
633
100
AcDbEntity
  8
0
100
AcDbLine
 62
7
  6
CONTINUOUS
 10
23.1299112771
 20
6.7566188281
 11
23.1299112771
 21
0.4669783087
  0
LINE
  5
634
100
AcDbEntity
  8
0
100
AcDbLine
 62
7
  6
CONTINUOUS
 10
23.1299112771
 20
-0.3933811719
 11
23.1299112771
 21
-6.6830216913
  0
LINE
  5
635
100
AcDbEntity
  8
0
100
AcDbLine
 62
7
  6
CONTINUOUS
 10
23.1299112771
 20
-15.7433811719
 11
23.1299112771
 21
-22.5330216913
  0
LINE
  5
636
100
AcDbEntity
  8
0
100
AcDbLine
 62
7
  6
CONTINUOUS
 10
23.1299112771
 20
-23.3933811719
 11
23.1299112771
 21
-23.4933811719
  0
LINE
  5
637
100
AcDbEntity
  8
0
100
AcDbLine
 62
7
  6
CONTINUOUS
 10
23.1962405239
 20
22.5402895814
 11
23.1962405239
 21
15.8833075554
  0
LINE
  5
638
100
AcDbEntity
  8
0
100
AcDbLine
 62
7
  6
CONTINUOUS
 10
23.1962405239
 20
6.6902895814
 11
23.1962405239
 21
0.5333075554
  0
LINE
  5
639
100
AcDbEntity
  8
0
100
AcDbLine
 62
7
  6
CONTINUOUS
 10
23.1962405239
 20
-0.4597104186
 11
23.1962405239
 21
-6.6166924446
  0
LINE
  5
63A
100
AcDbEntity
  8
0
100
AcDbLine
 62
7
  6
CONTINUOUS
 10
23.1962405239
 20
-15.8097104186
 11
23.1962405239
 21
-22.4666924446
  0
LINE
  5
63B
100
AcDbEntity
  8
0
100
AcDbLine
 62
7
  6
CONTINUOUS
 10
23.1997315368
 20
-23.5632014316
 11
23.1997315368
 21
-23.4632014316
  0
LINE
  5
63C
100
AcDbEntity
  8
0
100
AcDbLine
 62
7
  6
CONTINUOUS
 10
23.1997315368
 20
23.5367985684
 11
23.1997315368
 21
23.6367985684
  0
LINE
  5
63D
100
AcDbEntity
  8
0
100
AcDbLine
 62
7
  6
CONTINUOUS
 10
24.1497315368
 20
-14.4132014316
 11
24.1497315368
 21
-8.0132014316
  0
LINE
  5
63E
100
AcDbEntity
  8
0
100
AcDbLine
 62
7
  6
CONTINUOUS
 10
24.1497315368
 20
8.0867985684
 11
24.1497315368
 21
14.4867985684
  0
LINE
  5
63F
100
AcDbEntity
  8
0
100
AcDbLine
 62
7
  6
CONTINUOUS
 10
26.8497315368
 20
13.4625344997
 11
26.8497315368
 21
9.1110626371
  0
LINE
  5
640
100
AcDbEntity
  8
0
100
AcDbLine
 62
7
  6
CONTINUOUS
 10
26.8497315368
 20
-9.0374655003
 11
26.8497315368
 21
-13.3889373629
  0
LINE
  5
641
100
AcDbEntity
  8
0
100
AcDbLine
 62
7
  6
CONTINUOUS
 10
0.0997315368
 20
-37.3930044581
 11
0.0299112771
 21
-37.4839959921
  0
LINE
  5
642
100
AcDbEntity
  8
DRAFT
100
AcDbLine
 62
7
  6
CONTINUOUS
 10
11.5219747233
 20
-26.2632014316
 11
11.4536666371
 21
-26.3522222627
  0
LINE
  5
643
100
AcDbEntity
  8
DRAFT
100
AcDbLine
 62
7
  6
CONTINUOUS
 10
11.6814234506
 20
-27.2022222627
 11
11.7497315368
 21
-27.1132014316
  0
LINE
  5
644
100
AcDbEntity
  8
0
100
AcDbLine
 62
7
  6
CONTINUOUS
 10
32.2770798572
 20
0.4669783087
 11
32.3011884709
 21
0.4914153996
  0
LINE
  5
645
100
AcDbEntity
  8
0
100
AcDbLine
 62
7
  6
CONTINUOUS
 10
34.0013446217
 20
0.4914153996
 11
34.0426620193
 21
0.5333075554
  0
LINE
  5
646
100
AcDbEntity
  8
DRAFT
100
AcDbLine
 62
7
  6
CONTINUOUS
 10
8.3776596407
 20
-24.9352733277
 11
8.3497315368
 21
-24.9632014316
  0
LINE
  5
647
100
AcDbEntity
  8
DRAFT
100
AcDbLine
 62
7
  6
CONTINUOUS
 10
11.3497315368
 20
-22.4632014316
 11
11.2607107057
 21
-22.5522222627
  0
LINE
  5
648
100
AcDbEntity
  8
DRAFT
100
AcDbLine
 62
7
  6
CONTINUOUS
 10
11.3497315368
 20
-23.9632014316
 11
11.2607107057
 21
-24.0522222627
  0
LINE
  5
649
100
AcDbEntity
  8
DRAFT
100
AcDbLine
 62
7
  6
CONTINUOUS
 10
13.3497315368
 20
-23.9632014316
 11
13.321803433
 21
-23.9911295355
  0
LINE
  5
64A
100
AcDbEntity
  8
0
100
AcDbLine
 62
7
  6
CONTINUOUS
 10
-0.8304482034
 20
-32.6405497519
 11
-0.8548852943
 21
-32.6646583657
  0
LINE
  5
64B
100
AcDbEntity
  8
0
100
AcDbLine
 62
7
  6
CONTINUOUS
 10
-0.8548852943
 20
-34.3648145164
 11
-0.9002684632
 21
-34.4095727935
  0
LINE
  5
64C
100
AcDbEntity
  8
0
100
AcDbLine
 62
7
  6
CONTINUOUS
 10
37.0340841401
 20
-0.4597104186
 11
37.1205260974
 21
-0.3933811719
  0
LINE
  5
64D
100
AcDbEntity
  8
DRAFT
100
AcDbLine
 62
7
  6
CONTINUOUS
 10
6.5223097702
 20
-25.5357796649
 11
6.4364516175
 21
-25.575815979
  0
LINE
  5
64E
100
AcDbEntity
  8
0
100
AcDbLine
 62
7
  6
CONTINUOUS
 10
5.3195517966
 20
-25.7899158517
 11
5.2951147057
 21
-25.8000380262
  0
LINE
  5
64F
100
AcDbEntity
  8
0
100
AcDbLine
 62
7
  6
CONTINUOUS
 10
41.0695517966
 20
23.4669783087
 11
35.0299112771
 21
23.4669783087
  0
LINE
  5
650
100
AcDbEntity
  8
0
100
AcDbLine
 62
7
  6
CONTINUOUS
 10
34.1695517966
 20
23.4669783087
 11
23.1299112771
 21
23.4669783087
  0
LINE
  5
651
100
AcDbEntity
  8
0
100
AcDbLine
 62
7
  6
CONTINUOUS
 10
-23.9304482034
 20
23.4669783087
 11
-34.9700887229
 21
23.4669783087
  0
LINE
  5
652
100
AcDbEntity
  8
0
100
AcDbLine
 62
7
  6
CONTINUOUS
 10
-35.8304482034
 20
23.4669783087
 11
-41.8700887229
 21
23.4669783087
  0
LINE
  5
653
100
AcDbEntity
  8
0
100
AcDbLine
 62
7
  6
CONTINUOUS
 10
-41.8002684632
 20
23.5367985684
 11
-35.9002684632
 21
23.5367985684
  0
LINE
  5
654
100
AcDbEntity
  8
0
100
AcDbLine
 62
7
  6
CONTINUOUS
 10
40.9997315368
 20
23.5367985684
 11
35.0997315368
 21
23.5367985684
  0
LINE
  5
655
100
AcDbEntity
  8
0
100
AcDbLine
 62
7
  6
CONTINUOUS
 10
-34.9002684632
 20
23.5367985684
 11
-24.0002684632
 21
23.5367985684
  0
LINE
  5
656
100
AcDbEntity
  8
0
100
AcDbLine
 62
7
  6
CONTINUOUS
 10
34.0997315368
 20
23.5367985684
 11
23.1997315368
 21
23.5367985684
  0
LINE
  5
657
100
AcDbEntity
  8
0
100
AcDbLine
 62
7
  6
CONTINUOUS
 10
-23.9304482034
 20
23.5669783087
 11
-23.8304482034
 21
23.5669783087
  0
LINE
  5
658
100
AcDbEntity
  8
0
100
AcDbLine
 62
7
  6
CONTINUOUS
 10
-22.9700887229
 20
23.5669783087
 11
-17.1804482034
 21
23.5669783087
  0
LINE
  5
659
100
AcDbEntity
  8
0
100
AcDbLine
 62
7
  6
CONTINUOUS
 10
-6.1200887229
 20
23.5669783087
 11
-0.8304482034
 21
23.5669783087
  0
LINE
  5
65A
100
AcDbEntity
  8
0
100
AcDbLine
 62
7
  6
CONTINUOUS
 10
0.0299112771
 20
23.5669783087
 11
5.3195517966
 21
23.5669783087
  0
LINE
  5
65B
100
AcDbEntity
  8
0
100
AcDbLine
 62
7
  6
CONTINUOUS
 10
16.3799112771
 20
23.5669783087
 11
22.1695517966
 21
23.5669783087
  0
LINE
  5
65C
100
AcDbEntity
  8
0
100
AcDbLine
 62
7
  6
CONTINUOUS
 10
23.0299112771
 20
23.5669783087
 11
23.1299112771
 21
23.5669783087
  0
LINE
  5
65D
100
AcDbEntity
  8
0
100
AcDbLine
 62
7
  6
CONTINUOUS
 10
-21.9019918722
 20
23.629794445
 11
-18.7985450541
 21
23.629794445
  0
LINE
  5
65E
100
AcDbEntity
  8
0
100
AcDbLine
 62
7
  6
CONTINUOUS
 10
21.1014549459
 20
23.629794445
 11
17.9980081278
 21
23.629794445
  0
LINE
  5
65F
100
AcDbEntity
  8
0
100
AcDbLine
 62
7
  6
CONTINUOUS
 10
0.5980081278
 20
23.629794445
 11
3.7014549459
 21
23.629794445
  0
LINE
  5
660
100
AcDbEntity
  8
0
100
AcDbLine
 62
7
  6
CONTINUOUS
 10
-1.3985450541
 20
23.629794445
 11
-4.5019918722
 21
23.629794445
  0
LINE
  5
661
100
AcDbEntity
  8
0
100
AcDbLine
 62
7
  6
CONTINUOUS
 10
23.1997315368
 20
23.6367985684
 11
23.0997315368
 21
23.6367985684
  0
LINE
  5
662
100
AcDbEntity
  8
0
100
AcDbLine
 62
7
  6
CONTINUOUS
 10
22.0997315368
 20
23.6367985684
 11
21.1084590693
 21
23.6367985684
  0
LINE
  5
663
100
AcDbEntity
  8
0
100
AcDbLine
 62
7
  6
CONTINUOUS
 10
17.9910040044
 20
23.6367985684
 11
16.4497315368
 21
23.6367985684
  0
LINE
  5
664
100
AcDbEntity
  8
0
100
AcDbLine
 62
7
  6
CONTINUOUS
 10
5.2497315368
 20
23.6367985684
 11
3.7084590693
 21
23.6367985684
  0
LINE
  5
665
100
AcDbEntity
  8
0
100
AcDbLine
 62
7
  6
CONTINUOUS
 10
0.5910040044
 20
23.6367985684
 11
0.0997315368
 21
23.6367985684
  0
LINE
  5
666
100
AcDbEntity
  8
0
100
AcDbLine
 62
7
  6
CONTINUOUS
 10
-0.9002684632
 20
23.6367985684
 11
-1.3915409307
 21
23.6367985684
  0
LINE
  5
667
100
AcDbEntity
  8
0
100
AcDbLine
 62
7
  6
CONTINUOUS
 10
-4.5089959956
 20
23.6367985684
 11
-6.0502684632
 21
23.6367985684
  0
LINE
  5
668
100
AcDbEntity
  8
0
100
AcDbLine
 62
7
  6
CONTINUOUS
 10
-17.2502684632
 20
23.6367985684
 11
-18.7915409307
 21
23.6367985684
  0
LINE
  5
669
100
AcDbEntity
  8
0
100
AcDbLine
 62
7
  6
CONTINUOUS
 10
-21.9089959956
 20
23.6367985684
 11
-22.9002684632
 21
23.6367985684
  0
LINE
  5
66A
100
AcDbEntity
  8
0
100
AcDbLine
 62
7
  6
CONTINUOUS
 10
-23.9002684632
 20
23.6367985684
 11
-24.0002684632
 21
23.6367985684
  0
LINE
  5
66B
100
AcDbEntity
  8
DRAFT
100
AcDbLine
 62
7
  6
CONTINUOUS
 10
-14.1502684632
 20
24.0367985684
 11
-12.1502684632
 21
24.0367985684
  0
LINE
  5
66C
100
AcDbEntity
  8
DRAFT
100
AcDbLine
 62
7
  6
CONTINUOUS
 10
-11.1502684632
 20
24.0367985684
 11
-9.1502684632
 21
24.0367985684
  0
LINE
  5
66D
100
AcDbEntity
  8
DRAFT
100
AcDbLine
 62
7
  6
CONTINUOUS
 10
8.3497315368
 20
24.0367985684
 11
10.3497315368
 21
24.0367985684
  0
LINE
  5
66E
100
AcDbEntity
  8
DRAFT
100
AcDbLine
 62
7
  6
CONTINUOUS
 10
11.3497315368
 20
24.0367985684
 11
13.3497315368
 21
24.0367985684
  0
LINE
  5
66F
100
AcDbEntity
  8
DRAFT
100
AcDbLine
 62
7
  6
CONTINUOUS
 10
-16.14086439
 20
24.0647266723
 11
-14.1223403593
 21
24.0647266723
  0
LINE
  5
670
100
AcDbEntity
  8
DRAFT
100
AcDbLine
 62
7
  6
CONTINUOUS
 10
-9.178196567
 20
24.0647266723
 11
-7.1596725363
 21
24.0647266723
  0
LINE
  5
671
100
AcDbEntity
  8
DRAFT
100
AcDbLine
 62
7
  6
CONTINUOUS
 10
6.35913561
 20
24.0647266723
 11
8.3776596407
 21
24.0647266723
  0
LINE
  5
672
100
AcDbEntity
  8
DRAFT
100
AcDbLine
 62
7
  6
CONTINUOUS
 10
13.321803433
 20
24.0647266723
 11
15.3403274637
 21
24.0647266723
  0
LINE
  5
673
100
AcDbEntity
  8
DRAFT
100
AcDbLine
 62
7
  6
CONTINUOUS
 10
-16.1968455605
 20
24.1258193996
 11
-12.061247632
 21
24.1258193996
  0
LINE
  5
674
100
AcDbEntity
  8
DRAFT
100
AcDbLine
 62
7
  6
CONTINUOUS
 10
-11.2392892943
 20
24.1258193996
 11
-7.1036913659
 21
24.1258193996
  0
LINE
  5
675
100
AcDbEntity
  8
DRAFT
100
AcDbLine
 62
7
  6
CONTINUOUS
 10
6.3031544395
 20
24.1258193996
 11
10.438752368
 21
24.1258193996
  0
LINE
  5
676
100
AcDbEntity
  8
DRAFT
100
AcDbLine
 62
7
  6
CONTINUOUS
 10
11.2607107057
 20
24.1258193996
 11
15.3963086341
 21
24.1258193996
  0
LINE
  5
677
100
AcDbEntity
  8
DRAFT
100
AcDbLine
 62
7
  6
CONTINUOUS
 10
-21.9089959956
 20
24.6955261009
 11
-18.7915409307
 21
24.6955261009
  0
LINE
  5
678
100
AcDbEntity
  8
DRAFT
100
AcDbLine
 62
7
  6
CONTINUOUS
 10
21.1084590693
 20
24.6955261009
 11
17.9910040044
 21
24.6955261009
  0
LINE
  5
679
100
AcDbEntity
  8
DRAFT
100
AcDbLine
 62
7
  6
CONTINUOUS
 10
0.5910040044
 20
24.6955261009
 11
3.7084590693
 21
24.6955261009
  0
LINE
  5
67A
100
AcDbEntity
  8
DRAFT
100
AcDbLine
 62
7
  6
CONTINUOUS
 10
-1.3915409307
 20
24.6955261009
 11
-4.5089959956
 21
24.6955261009
  0
LINE
  5
67B
100
AcDbEntity
  8
DRAFT
100
AcDbLine
 62
7
  6
CONTINUOUS
 10
15.3243965977
 20
24.9477777373
 11
6.375066476
 21
24.9477777373
  0
LINE
  5
67C
100
AcDbEntity
  8
DRAFT
100
AcDbLine
 62
7
  6
CONTINUOUS
 10
-7.1756034023
 20
24.9477777373
 11
-16.124933524
 21
24.9477777373
  0
LINE
  5
67D
100
AcDbEntity
  8
DRAFT
100
AcDbLine
 62
7
  6
CONTINUOUS
 10
15.2577255851
 20
25.0088704645
 11
13.321803433
 21
25.0088704645
  0
LINE
  5
67E
100
AcDbEntity
  8
DRAFT
100
AcDbLine
 62
7
  6
CONTINUOUS
 10
8.3776596407
 20
25.0088704645
 11
6.4417374886
 21
25.0088704645
  0
LINE
  5
67F
100
AcDbEntity
  8
DRAFT
100
AcDbLine
 62
7
  6
CONTINUOUS
 10
-7.2422744149
 20
25.0088704645
 11
-9.178196567
 21
25.0088704645
  0
LINE
  5
680
100
AcDbEntity
  8
DRAFT
100
AcDbLine
 62
7
  6
CONTINUOUS
 10
-14.1223403593
 20
25.0088704645
 11
-16.0582625114
 21
25.0088704645
  0
LINE
  5
681
100
AcDbEntity
  8
DRAFT
100
AcDbLine
 62
7
  6
CONTINUOUS
 10
-14.1502684632
 20
25.0367985684
 11
-9.1502684632
 21
25.0367985684
  0
LINE
  5
682
100
AcDbEntity
  8
DRAFT
100
AcDbLine
 62
7
  6
CONTINUOUS
 10
8.3497315368
 20
25.0367985684
 11
13.3497315368
 21
25.0367985684
  0
LINE
  5
683
100
AcDbEntity
  8
DRAFT
100
AcDbLine
 62
7
  6
CONTINUOUS
 10
-14.1275407015
 20
25.3867985684
 11
-9.1729962248
 21
25.3867985684
  0
LINE
  5
684
100
AcDbEntity
  8
DRAFT
100
AcDbLine
 62
7
  6
CONTINUOUS
 10
8.3724592985
 20
25.3867985684
 11
13.3270037752
 21
25.3867985684
  0
LINE
  5
685
100
AcDbEntity
  8
DRAFT
100
AcDbLine
 62
7
  6
CONTINUOUS
 10
11.5219747233
 20
26.3367985684
 11
10.1774883504
 21
26.3367985684
  0
LINE
  5
686
100
AcDbEntity
  8
DRAFT
100
AcDbLine
 62
7
  6
CONTINUOUS
 10
-10.9780252767
 20
26.3367985684
 11
-12.3225116496
 21
26.3367985684
  0
LINE
  5
687
100
AcDbEntity
  8
DRAFT
100
AcDbLine
 62
7
  6
CONTINUOUS
 10
11.4536666371
 20
26.4258193996
 11
10.2457964366
 21
26.4258193996
  0
LINE
  5
688
100
AcDbEntity
  8
DRAFT
100
AcDbLine
 62
7
  6
CONTINUOUS
 10
-11.0463333629
 20
26.4258193996
 11
-12.2542035634
 21
26.4258193996
  0
LINE
  5
689
100
AcDbEntity
  8
DRAFT
100
AcDbLine
 62
7
  6
CONTINUOUS
 10
-14.4002684632
 20
27.1867985684
 11
-12.5502684632
 21
27.1867985684
  0
LINE
  5
68A
100
AcDbEntity
  8
DRAFT
100
AcDbLine
 62
7
  6
CONTINUOUS
 10
-10.7502684632
 20
27.1867985684
 11
-8.9002684632
 21
27.1867985684
  0
LINE
  5
68B
100
AcDbEntity
  8
DRAFT
100
AcDbLine
 62
7
  6
CONTINUOUS
 10
8.0997315368
 20
27.1867985684
 11
9.9497315368
 21
27.1867985684
  0
LINE
  5
68C
100
AcDbEntity
  8
DRAFT
100
AcDbLine
 62
7
  6
CONTINUOUS
 10
11.7497315368
 20
27.1867985684
 11
13.5997315368
 21
27.1867985684
  0
LINE
  5
68D
100
AcDbEntity
  8
DRAFT
100
AcDbLine
 62
7
  6
CONTINUOUS
 10
13.6366051724
 20
27.2758193996
 11
11.6814234506
 21
27.2758193996
  0
LINE
  5
68E
100
AcDbEntity
  8
DRAFT
100
AcDbLine
 62
7
  6
CONTINUOUS
 10
10.0180396231
 20
27.2758193996
 11
8.0628579013
 21
27.2758193996
  0
LINE
  5
68F
100
AcDbEntity
  8
DRAFT
100
AcDbLine
 62
7
  6
CONTINUOUS
 10
-8.8633948276
 20
27.2758193996
 11
-10.8185765494
 21
27.2758193996
  0
LINE
  5
690
100
AcDbEntity
  8
DRAFT
100
AcDbLine
 62
7
  6
CONTINUOUS
 10
-12.4819603769
 20
27.2758193996
 11
-14.4371420987
 21
27.2758193996
  0
LINE
  5
691
100
AcDbEntity
  8
0
100
AcDbLine
 62
7
  6
CONTINUOUS
 10
5.3195517966
 20
25.8635129885
 11
5.2951147057
 21
25.873635163
  0
LINE
  5
692
100
AcDbEntity
  8
DRAFT
100
AcDbLine
 62
7
  6
CONTINUOUS
 10
6.4364516175
 20
25.6494131158
 11
6.5223097702
 21
25.6093768018
  0
LINE
  5
693
100
AcDbEntity
  8
0
100
AcDbLine
 62
7
  6
CONTINUOUS
 10
37.0340841401
 20
0.5333075554
 11
37.1205260974
 21
0.4669783087
  0
LINE
  5
694
100
AcDbEntity
  8
0
100
AcDbLine
 62
7
  6
CONTINUOUS
 10
-0.8304482034
 20
32.7141468888
 11
-0.8548852943
 21
32.7382555025
  0
LINE
  5
695
100
AcDbEntity
  8
0
100
AcDbLine
 62
7
  6
CONTINUOUS
 10
-0.8548852943
 20
34.4384116532
 11
-0.9002684632
 21
34.4831699303
  0
LINE
  5
696
100
AcDbEntity
  8
DRAFT
100
AcDbLine
 62
7
  6
CONTINUOUS
 10
8.3497315368
 20
25.0367985684
 11
8.3776596407
 21
25.0088704645
  0
LINE
  5
697
100
AcDbEntity
  8
DRAFT
100
AcDbLine
 62
7
  6
CONTINUOUS
 10
11.3497315368
 20
22.5367985684
 11
11.2607107057
 21
22.6258193996
  0
LINE
  5
698
100
AcDbEntity
  8
DRAFT
100
AcDbLine
 62
7
  6
CONTINUOUS
 10
11.2607107057
 20
24.1258193996
 11
11.3497315368
 21
24.0367985684
  0
LINE
  5
699
100
AcDbEntity
  8
DRAFT
100
AcDbLine
 62
7
  6
CONTINUOUS
 10
13.321803433
 20
24.0647266723
 11
13.3497315368
 21
24.0367985684
  0
LINE
  5
69A
100
AcDbEntity
  8
0
100
AcDbLine
 62
7
  6
CONTINUOUS
 10
32.2770798572
 20
-0.3933811719
 11
32.3011884709
 21
-0.4178182628
  0
LINE
  5
69B
100
AcDbEntity
  8
0
100
AcDbLine
 62
7
  6
CONTINUOUS
 10
34.0013446217
 20
-0.4178182628
 11
34.0426620193
 21
-0.4597104186
  0
LINE
  5
69C
100
AcDbEntity
  8
0
100
AcDbLine
 62
7
  6
CONTINUOUS
 10
0.0997315368
 20
37.466601595
 11
0.0299112771
 21
37.557593129
  0
LINE
  5
69D
100
AcDbEntity
  8
DRAFT
100
AcDbLine
 62
7
  6
CONTINUOUS
 10
11.5219747233
 20
26.3367985684
 11
11.4536666371
 21
26.4258193996
  0
LINE
  5
69E
100
AcDbEntity
  8
DRAFT
100
AcDbLine
 62
7
  6
CONTINUOUS
 10
11.6814234506
 20
27.2758193996
 11
11.7497315368
 21
27.1867985684
  0
LINE
  5
69F
100
AcDbEntity
  8
0
100
AcDbLine
 62
7
  6
CONTINUOUS
 10
26.0865681314
 20
6.7321817372
 11
26.076445957
 21
6.7566188281
  0
LINE
  5
6A0
100
AcDbEntity
  8
0
100
AcDbLine
 62
7
  6
CONTINUOUS
 10
27.8799112771
 20
14.0135129885
 11
27.8799112771
 21
12.4669783087
  0
LINE
  5
6A1
100
AcDbEntity
  8
0
100
AcDbLine
 62
7
  6
CONTINUOUS
 10
27.8799112771
 20
11.6066188281
 11
27.8799112771
 21
8.5600841483
  0
LINE
  5
6A2
100
AcDbEntity
  8
0
100
AcDbLine
 62
7
  6
CONTINUOUS
 10
27.8799112771
 20
-8.7252438113
 11
27.8799112771
 21
-11.5330216913
  0
LINE
  5
6A3
100
AcDbEntity
  8
0
100
AcDbLine
 62
7
  6
CONTINUOUS
 10
27.8799112771
 20
-12.3933811719
 11
27.8799112771
 21
-13.9399158517
  0
LINE
  5
6A4
100
AcDbEntity
  8
0
100
AcDbLine
 62
7
  6
CONTINUOUS
 10
27.904348368
 20
8.8324380268
 11
27.904348368
 21
8.5499619738
  0
LINE
  5
6A5
100
AcDbEntity
  8
0
100
AcDbLine
 62
7
  6
CONTINUOUS
 10
27.9462405239
 20
-13.9673903253
 11
27.9462405239
 21
-12.4597104186
  0
LINE
  5
6A6
100
AcDbEntity
  8
0
100
AcDbLine
 62
7
  6
CONTINUOUS
 10
27.9462405239
 20
-11.4666924446
 11
27.9462405239
 21
-8.8158184004
  0
LINE
  5
6A7
100
AcDbEntity
  8
0
100
AcDbLine
 62
7
  6
CONTINUOUS
 10
27.9462405239
 20
8.8894155373
 11
27.9462405239
 21
11.5402895814
  0
LINE
  5
6A8
100
AcDbEntity
  8
0
100
AcDbLine
 62
7
  6
CONTINUOUS
 10
27.9462405239
 20
12.5333075554
 11
27.9462405239
 21
14.0409874621
  0
LINE
  5
6A9
100
AcDbEntity
  8
0
100
AcDbLine
 62
7
  6
CONTINUOUS
 10
38.0621319953
 20
0.5333075554
 11
38.0112357742
 21
0.4669783087
  0
LINE
  5
6AA
100
AcDbEntity
  8
0
100
AcDbLine
 62
7
  6
CONTINUOUS
 10
11.0997315368
 20
-35.4808395218
 11
11.1695517966
 21
-35.3898479878
  0
LINE
  5
6AB
100
AcDbEntity
  8
0
100
AcDbLine
 62
7
  6
CONTINUOUS
 10
11.1695517966
 20
-28.1433811719
 11
11.0997315368
 21
-28.2132014316
  0
LINE
  5
6AC
100
AcDbEntity
  8
0
100
AcDbLine
 62
7
  6
CONTINUOUS
 10
27.8799112771
 20
-11.5330216913
 11
27.9462405239
 21
-11.4666924446
  0
LINE
  5
6AD
100
AcDbEntity
  8
0
100
AcDbLine
 62
7
  6
CONTINUOUS
 10
26.7618635712
 20
-13.6010693972
 11
25.7375995025
 21
-14.6253334659
  0
LINE
  5
6AE
100
AcDbEntity
  8
DRAFT
100
AcDbLine
 62
7
  6
CONTINUOUS
 10
15.1771533035
 20
-25.5357796649
 11
13.5997315368
 21
-27.1132014316
  0
LINE
  5
6AF
100
AcDbEntity
  8
DRAFT
100
AcDbLine
 62
7
  6
CONTINUOUS
 10
22.1276596407
 20
-18.674769631
 11
18.3112997362
 21
-22.4911295355
  0
LINE
  5
6B0
100
AcDbEntity
  8
DRAFT
100
AcDbLine
 62
7
  6
CONTINUOUS
 10
13.6366051724
 20
-27.2022222627
 11
15.2630114561
 21
-25.575815979
  0
LINE
  5
6B1
100
AcDbEntity
  8
DRAFT
100
AcDbLine
 62
7
  6
CONTINUOUS
 10
22.1538422381
 20
-18.6856148179
 11
18.3221449232
 21
-22.5173121329
  0
LINE
  5
6B2
100
AcDbEntity
  8
0
100
AcDbLine
 62
7
  6
CONTINUOUS
 10
41.0695517966
 20
-0.3933811719
 11
41.0032225498
 21
-0.4597104186
  0
LINE
  5
6B3
100
AcDbEntity
  8
0
100
AcDbLine
 62
7
  6
CONTINUOUS
 10
0.0299112771
 20
-41.4330216913
 11
0.0997315368
 21
-41.3632014316
  0
LINE
  5
6B4
100
AcDbEntity
  8
0
100
AcDbLine
 62
7
  6
CONTINUOUS
 10
17.9910040044
 20
-23.5632014316
 11
17.9980081278
 21
-23.5561973082
  0
LINE
  5
6B5
100
AcDbEntity
  8
0
100
AcDbLine
 62
7
  6
CONTINUOUS
 10
27.8799112771
 20
-13.9399158517
 11
26.076445957
 21
-15.7433811719
  0
LINE
  5
6B6
100
AcDbEntity
  8
0
100
AcDbLine
 62
7
  6
CONTINUOUS
 10
26.1039204305
 20
-15.8097104186
 11
27.9462405239
 21
-13.9673903253
  0
LINE
  5
6B7
100
AcDbEntity
  8
0
100
AcDbLine
 62
7
  6
CONTINUOUS
 10
16.3799112771
 20
-25.7899158517
 11
14.026445957
 21
-28.1433811719
  0
LINE
  5
6B8
100
AcDbEntity
  8
0
100
AcDbLine
 62
7
  6
CONTINUOUS
 10
16.4497315368
 20
-25.8188363502
 11
14.0553664555
 21
-28.2132014316
  0
LINE
  5
6B9
100
AcDbEntity
  8
DRAFT
100
AcDbLine
 62
7
  6
CONTINUOUS
 10
15.3243965977
 20
-24.8741806004
 11
15.2577255851
 21
-24.9352733277
  0
LINE
  5
6BA
100
AcDbEntity
  8
0
100
AcDbLine
 62
7
  6
CONTINUOUS
 10
-0.9002684632
 20
-38.4282806385
 11
-0.8304482034
 21
-38.3747056689
  0
LINE
  5
6BB
100
AcDbEntity
  8
0
100
AcDbLine
 62
7
  6
CONTINUOUS
 10
35.1128200503
 20
-11.4666924446
 11
35.0263780931
 21
-11.5330216913
  0
LINE
  5
6BC
100
AcDbEntity
  8
0
100
AcDbLine
 62
7
  6
CONTINUOUS
 10
-14.8269828833
 20
28.2169783087
 11
-12.8304482034
 21
28.2169783087
  0
LINE
  5
6BD
100
AcDbEntity
  8
0
100
AcDbLine
 62
7
  6
CONTINUOUS
 10
-11.9700887229
 20
28.2169783087
 11
-8.473554043
 21
28.2169783087
  0
LINE
  5
6BE
100
AcDbEntity
  8
0
100
AcDbLine
 62
7
  6
CONTINUOUS
 10
7.6730171167
 20
28.2169783087
 11
11.1695517966
 21
28.2169783087
  0
LINE
  5
6BF
100
AcDbEntity
  8
0
100
AcDbLine
 62
7
  6
CONTINUOUS
 10
12.0299112771
 20
28.2169783087
 11
14.026445957
 21
28.2169783087
  0
LINE
  5
6C0
100
AcDbEntity
  8
0
100
AcDbLine
 62
7
  6
CONTINUOUS
 10
-9.1626315769
 20
28.2414153996
 11
-8.4634318686
 21
28.2414153996
  0
LINE
  5
6C1
100
AcDbEntity
  8
0
100
AcDbLine
 62
7
  6
CONTINUOUS
 10
7.6628949423
 20
28.2414153996
 11
8.3620946505
 21
28.2414153996
  0
LINE
  5
6C2
100
AcDbEntity
  8
0
100
AcDbLine
 62
7
  6
CONTINUOUS
 10
-14.8559033818
 20
28.2867985684
 11
-12.9002684632
 21
28.2867985684
  0
LINE
  5
6C3
100
AcDbEntity
  8
0
100
AcDbLine
 62
7
  6
CONTINUOUS
 10
-11.9002684632
 20
28.2867985684
 11
-9.2258828951
 21
28.2867985684
  0
LINE
  5
6C4
100
AcDbEntity
  8
0
100
AcDbLine
 62
7
  6
CONTINUOUS
 10
8.4253459688
 20
28.2867985684
 11
11.0997315368
 21
28.2867985684
  0
LINE
  5
6C5
100
AcDbEntity
  8
0
100
AcDbLine
 62
7
  6
CONTINUOUS
 10
12.0997315368
 20
28.2867985684
 11
14.0553664555
 21
28.2867985684
  0
LINE
  5
6C6
100
AcDbEntity
  8
0
100
AcDbLine
 62
7
  6
CONTINUOUS
 10
-0.9002684632
 20
38.5018777754
 11
-0.8304482034
 21
38.4483028058
  0
LINE
  5
6C7
100
AcDbEntity
  8
0
100
AcDbLine
 62
7
  6
CONTINUOUS
 10
35.1128200503
 20
11.5402895814
 11
35.0263780931
 21
11.6066188281
  0
LINE
  5
6C8
100
AcDbEntity
  8
DRAFT
100
AcDbLine
 62
7
  6
CONTINUOUS
 10
15.3243965977
 20
24.9477777373
 11
15.2577255851
 21
25.0088704645
  0
LINE
  5
6C9
100
AcDbEntity
  8
0
100
AcDbLine
 62
7
  6
CONTINUOUS
 10
11.1695517966
 20
28.2169783087
 11
11.0997315368
 21
28.2867985684
  0
LINE
  5
6CA
100
AcDbEntity
  8
0
100
AcDbLine
 62
7
  6
CONTINUOUS
 10
27.8799112771
 20
11.6066188281
 11
27.9462405239
 21
11.5402895814
  0
LINE
  5
6CB
100
AcDbEntity
  8
0
100
AcDbLine
 62
7
  6
CONTINUOUS
 10
25.7375995025
 20
14.6989306028
 11
26.7618635712
 21
13.6746665341
  0
LINE
  5
6CC
100
AcDbEntity
  8
DRAFT
100
AcDbLine
 62
7
  6
CONTINUOUS
 10
13.5997315368
 20
27.1867985684
 11
15.1771533035
 21
25.6093768018
  0
LINE
  5
6CD
100
AcDbEntity
  8
DRAFT
100
AcDbLine
 62
7
  6
CONTINUOUS
 10
18.3112997362
 20
22.5647266723
 11
22.1276596407
 21
18.7483667678
  0
LINE
  5
6CE
100
AcDbEntity
  8
DRAFT
100
AcDbLine
 62
7
  6
CONTINUOUS
 10
15.2630114561
 20
25.6494131158
 11
13.6366051724
 21
27.2758193996
  0
LINE
  5
6CF
100
AcDbEntity
  8
DRAFT
100
AcDbLine
 62
7
  6
CONTINUOUS
 10
18.3221449232
 20
22.5909092697
 11
22.1538422381
 21
18.7592119548
  0
LINE
  5
6D0
100
AcDbEntity
  8
0
100
AcDbLine
 62
7
  6
CONTINUOUS
 10
0.0299112771
 20
41.5066188281
 11
0.0997315368
 21
41.4367985684
  0
LINE
  5
6D1
100
AcDbEntity
  8
0
100
AcDbLine
 62
7
  6
CONTINUOUS
 10
41.0695517966
 20
0.4669783087
 11
41.0032225498
 21
0.5333075554
  0
LINE
  5
6D2
100
AcDbEntity
  8
0
100
AcDbLine
 62
7
  6
CONTINUOUS
 10
17.9910040044
 20
23.6367985684
 11
17.9980081278
 21
23.629794445
  0
LINE
  5
6D3
100
AcDbEntity
  8
0
100
AcDbLine
 62
7
  6
CONTINUOUS
 10
26.076445957
 20
15.8169783087
 11
27.8799112771
 21
14.0135129885
  0
LINE
  5
6D4
100
AcDbEntity
  8
0
100
AcDbLine
 62
7
  6
CONTINUOUS
 10
27.9462405239
 20
14.0409874621
 11
26.1039204305
 21
15.8833075554
  0
LINE
  5
6D5
100
AcDbEntity
  8
0
100
AcDbLine
 62
7
  6
CONTINUOUS
 10
14.026445957
 20
28.2169783087
 11
16.3799112771
 21
25.8635129885
  0
LINE
  5
6D6
100
AcDbEntity
  8
0
100
AcDbLine
 62
7
  6
CONTINUOUS
 10
14.0553664555
 20
28.2867985684
 11
16.4497315368
 21
25.892433487
  0
LINE
  5
6D7
100
AcDbEntity
  8
0
100
AcDbLine
 62
7
  6
CONTINUOUS
 10
38.0621319953
 20
-0.4597104186
 11
38.0112357742
 21
-0.3933811719
  0
LINE
  5
6D8
100
AcDbEntity
  8
0
100
AcDbLine
 62
7
  6
CONTINUOUS
 10
11.0997315368
 20
35.5544366586
 11
11.1695517966
 21
35.4634451246
  0
LINE
  5
6D9
100
AcDbEntity
  8
0
100
AcDbLine
 62
7
  6
CONTINUOUS
 10
34.1078259627
 20
-32.4184021445
 11
34.0997315368
 21
-31.9487521028
  0
LINE
  5
6DA
100
AcDbEntity
  8
0
100
AcDbLine
 62
7
  6
CONTINUOUS
 10
35.091637111
 20
-37.5080007187
 11
35.0997315368
 21
-37.9776507604
  0
LINE
  5
6DB
100
AcDbEntity
  8
0
100
AcDbLine
 62
7
  6
CONTINUOUS
 10
34.1078259627
 20
37.5815978555
 11
34.0997315368
 21
38.0512478972
  0
LINE
  5
6DC
100
AcDbEntity
  8
0
100
AcDbLine
 62
7
  6
CONTINUOUS
 10
35.091637111
 20
32.4919992813
 11
35.0997315368
 21
32.0223492396
  0
LINE
  5
6DD
100
AcDbEntity
  8
0
100
AcDbLine
 62
7
  6
CONTINUOUS
 10
34.0997315368
 20
41.4367985684
 11
34.0997315368
 21
38.0512478972
  0
LINE
  5
6DE
100
AcDbEntity
  8
0
100
AcDbLine
 62
7
  6
CONTINUOUS
 10
34.0997315368
 20
32.0223492396
 11
34.0997315368
 21
23.5367985684
  0
LINE
  5
6DF
100
AcDbEntity
  8
0
100
AcDbLine
 62
7
  6
CONTINUOUS
 10
34.0997315368
 20
-41.3632014316
 11
34.0997315368
 21
-37.9776507604
  0
LINE
  5
6E0
100
AcDbEntity
  8
0
100
AcDbLine
 62
7
  6
CONTINUOUS
 10
34.0997315368
 20
-23.4632014316
 11
34.0997315368
 21
-31.9487521028
  0
LINE
  5
6E1
100
AcDbEntity
  8
0
100
AcDbLine
 62
7
  6
CONTINUOUS
 10
34.1032225498
 20
-12.4597104186
 11
34.1032225498
 21
-22.4666924446
  0
LINE
  5
6E2
100
AcDbEntity
  8
0
100
AcDbLine
 62
7
  6
CONTINUOUS
 10
34.1032225498
 20
12.5333075554
 11
34.1032225498
 21
22.5402895814
  0
LINE
  5
6E3
100
AcDbEntity
  8
0
100
AcDbLine
 62
7
  6
CONTINUOUS
 10
34.1695517966
 20
41.5066188281
 11
34.1695517966
 21
37.5301406848
  0
LINE
  5
6E4
100
AcDbEntity
  8
0
100
AcDbLine
 62
7
  6
CONTINUOUS
 10
34.1695517966
 20
32.5434564521
 11
34.1695517966
 21
23.4669783087
  0
LINE
  5
6E5
100
AcDbEntity
  8
0
100
AcDbLine
 62
7
  6
CONTINUOUS
 10
34.1695517966
 20
22.6066188281
 11
34.1695517966
 21
12.4669783087
  0
LINE
  5
6E6
100
AcDbEntity
  8
0
100
AcDbLine
 62
7
  6
CONTINUOUS
 10
34.1695517966
 20
-12.3933811719
 11
34.1695517966
 21
-22.5330216913
  0
LINE
  5
6E7
100
AcDbEntity
  8
0
100
AcDbLine
 62
7
  6
CONTINUOUS
 10
34.1695517966
 20
-23.3933811719
 11
34.1695517966
 21
-32.4698593152
  0
LINE
  5
6E8
100
AcDbEntity
  8
0
100
AcDbLine
 62
7
  6
CONTINUOUS
 10
34.1695517966
 20
-37.4565435479
 11
34.1695517966
 21
-41.4330216913
  0
LINE
  5
6E9
100
AcDbEntity
  8
0
100
AcDbLine
 62
7
  6
CONTINUOUS
 10
35.0299112771
 20
-41.4330216913
 11
35.0299112771
 21
-37.4565435479
  0
LINE
  5
6EA
100
AcDbEntity
  8
0
100
AcDbLine
 62
7
  6
CONTINUOUS
 10
35.0299112771
 20
-32.4698593152
 11
35.0299112771
 21
-23.3933811719
  0
LINE
  5
6EB
100
AcDbEntity
  8
0
100
AcDbLine
 62
7
  6
CONTINUOUS
 10
35.0299112771
 20
-22.5330216913
 11
35.0299112771
 21
-12.3933811719
  0
LINE
  5
6EC
100
AcDbEntity
  8
0
100
AcDbLine
 62
7
  6
CONTINUOUS
 10
35.0299112771
 20
12.4669783087
 11
35.0299112771
 21
22.6066188281
  0
LINE
  5
6ED
100
AcDbEntity
  8
0
100
AcDbLine
 62
7
  6
CONTINUOUS
 10
35.0299112771
 20
23.4669783087
 11
35.0299112771
 21
32.5434564521
  0
LINE
  5
6EE
100
AcDbEntity
  8
0
100
AcDbLine
 62
7
  6
CONTINUOUS
 10
35.0299112771
 20
37.5301406848
 11
35.0299112771
 21
41.5066188281
  0
LINE
  5
6EF
100
AcDbEntity
  8
0
100
AcDbLine
 62
7
  6
CONTINUOUS
 10
35.0962405239
 20
-12.4597104186
 11
35.0962405239
 21
-22.4666924446
  0
LINE
  5
6F0
100
AcDbEntity
  8
0
100
AcDbLine
 62
7
  6
CONTINUOUS
 10
35.0962405239
 20
12.5333075554
 11
35.0962405239
 21
22.5402895814
  0
LINE
  5
6F1
100
AcDbEntity
  8
0
100
AcDbLine
 62
7
  6
CONTINUOUS
 10
35.0997315368
 20
41.4367985684
 11
35.0997315368
 21
38.0512478972
  0
LINE
  5
6F2
100
AcDbEntity
  8
0
100
AcDbLine
 62
7
  6
CONTINUOUS
 10
35.0997315368
 20
-41.3632014316
 11
35.0997315368
 21
-37.9776507604
  0
LINE
  5
6F3
100
AcDbEntity
  8
0
100
AcDbLine
 62
7
  6
CONTINUOUS
 10
35.0997315368
 20
-31.9487521028
 11
35.0997315368
 21
-23.4632014316
  0
LINE
  5
6F4
100
AcDbEntity
  8
0
100
AcDbLine
 62
7
  6
CONTINUOUS
 10
35.0997315368
 20
23.5367985684
 11
35.0997315368
 21
32.0223492396
  0
LINE
  5
6F5
100
AcDbEntity
  8
0
100
AcDbLine
 62
7
  6
CONTINUOUS
 10
34.0997315368
 20
32.0223492396
 11
34.1078259627
 21
32.4919992813
  0
LINE
  5
6F6
100
AcDbEntity
  8
0
100
AcDbLine
 62
7
  6
CONTINUOUS
 10
35.0997315368
 20
38.0512478972
 11
35.091637111
 21
37.5815978555
  0
LINE
  5
6F7
100
AcDbEntity
  8
0
100
AcDbLine
 62
7
  6
CONTINUOUS
 10
34.0997315368
 20
-37.9776507604
 11
34.1078259627
 21
-37.5080007187
  0
LINE
  5
6F8
100
AcDbEntity
  8
0
100
AcDbLine
 62
7
  6
CONTINUOUS
 10
35.0997315368
 20
-31.9487521028
 11
35.091637111
 21
-32.4184021445
  0
LINE
  5
6F9
100
AcDbEntity
  8
0
100
AcDbLine
 62
7
  6
CONTINUOUS
 10
37.0340841401
 20
-0.4597104186
 11
34.0847721951
 21
-11.4666924446
  0
LINE
  5
6FA
100
AcDbEntity
  8
0
100
AcDbLine
 62
7
  6
CONTINUOUS
 10
22.1695517966
 20
-23.4933811719
 11
22.0997315368
 21
-23.5632014316
  0
LINE
  5
6FB
100
AcDbEntity
  8
0
100
AcDbLine
 62
7
  6
CONTINUOUS
 10
23.1299112771
 20
-22.5330216913
 11
23.1962405239
 21
-22.4666924446
  0
LINE
  5
6FC
100
AcDbEntity
  8
0
100
AcDbLine
 62
7
  6
CONTINUOUS
 10
12.0997315368
 20
-34.4632014316
 11
12.0299112771
 21
-34.5330216913
  0
LINE
  5
6FD
100
AcDbEntity
  8
0
100
AcDbLine
 62
7
  6
CONTINUOUS
 10
34.1032225498
 20
-12.4597104186
 11
34.1695517966
 21
-12.3933811719
  0
LINE
  5
6FE
100
AcDbEntity
  8
0
100
AcDbLine
 62
7
  6
CONTINUOUS
 10
-11.9002684632
 20
34.5191604782
 11
-0.9002684632
 21
37.466601595
  0
LINE
  5
6FF
100
AcDbEntity
  8
0
100
AcDbLine
 62
7
  6
CONTINUOUS
 10
32.0549322498
 20
34.5448929942
 11
31.5852822081
 21
34.5367985684
  0
LINE
  5
700
100
AcDbEntity
  8
0
100
AcDbLine
 62
7
  6
CONTINUOUS
 10
37.1445308239
 20
35.5287041426
 11
37.6141808656
 21
35.5367985684
  0
LINE
  5
701
100
AcDbEntity
  8
0
100
AcDbLine
 62
7
  6
CONTINUOUS
 10
-37.9450677502
 20
34.5448929942
 11
-38.4147177919
 21
34.5367985684
  0
LINE
  5
702
100
AcDbEntity
  8
0
100
AcDbLine
 62
7
  6
CONTINUOUS
 10
-32.8554691761
 20
35.5287041426
 11
-32.3858191344
 21
35.5367985684
  0
LINE
  5
703
100
AcDbEntity
  8
0
100
AcDbLine
 62
7
  6
CONTINUOUS
 10
-41.8002684632
 20
34.5367985684
 11
-38.4147177919
 21
34.5367985684
  0
LINE
  5
704
100
AcDbEntity
  8
0
100
AcDbLine
 62
7
  6
CONTINUOUS
 10
40.9997315368
 20
34.5367985684
 11
37.6141808656
 21
34.5367985684
  0
LINE
  5
705
100
AcDbEntity
  8
0
100
AcDbLine
 62
7
  6
CONTINUOUS
 10
-32.3858191344
 20
34.5367985684
 11
-23.9002684632
 21
34.5367985684
  0
LINE
  5
706
100
AcDbEntity
  8
0
100
AcDbLine
 62
7
  6
CONTINUOUS
 10
-22.9002684632
 20
34.5367985684
 11
-12.9002684632
 21
34.5367985684
  0
LINE
  5
707
100
AcDbEntity
  8
0
100
AcDbLine
 62
7
  6
CONTINUOUS
 10
12.0997315368
 20
34.5367985684
 11
22.0997315368
 21
34.5367985684
  0
LINE
  5
708
100
AcDbEntity
  8
0
100
AcDbLine
 62
7
  6
CONTINUOUS
 10
23.0997315368
 20
34.5367985684
 11
31.5852822081
 21
34.5367985684
  0
LINE
  5
709
100
AcDbEntity
  8
0
100
AcDbLine
 62
7
  6
CONTINUOUS
 10
-41.8700887229
 20
34.6066188281
 11
-37.8936105795
 21
34.6066188281
  0
LINE
  5
70A
100
AcDbEntity
  8
0
100
AcDbLine
 62
7
  6
CONTINUOUS
 10
-32.9069263468
 20
34.6066188281
 11
-23.8304482034
 21
34.6066188281
  0
LINE
  5
70B
100
AcDbEntity
  8
0
100
AcDbLine
 62
7
  6
CONTINUOUS
 10
-22.9700887229
 20
34.6066188281
 11
-12.8304482034
 21
34.6066188281
  0
LINE
  5
70C
100
AcDbEntity
  8
0
100
AcDbLine
 62
7
  6
CONTINUOUS
 10
12.0299112771
 20
34.6066188281
 11
22.1695517966
 21
34.6066188281
  0
LINE
  5
70D
100
AcDbEntity
  8
0
100
AcDbLine
 62
7
  6
CONTINUOUS
 10
23.0299112771
 20
34.6066188281
 11
32.1063894205
 21
34.6066188281
  0
LINE
  5
70E
100
AcDbEntity
  8
0
100
AcDbLine
 62
7
  6
CONTINUOUS
 10
37.0930736532
 20
34.6066188281
 11
41.0695517966
 21
34.6066188281
  0
LINE
  5
70F
100
AcDbEntity
  8
0
100
AcDbLine
 62
7
  6
CONTINUOUS
 10
41.0695517966
 20
35.4669783087
 11
37.0930736532
 21
35.4669783087
  0
LINE
  5
710
100
AcDbEntity
  8
0
100
AcDbLine
 62
7
  6
CONTINUOUS
 10
32.1063894205
 20
35.4669783087
 11
23.0299112771
 21
35.4669783087
  0
LINE
  5
711
100
AcDbEntity
  8
0
100
AcDbLine
 62
7
  6
CONTINUOUS
 10
22.1695517966
 20
35.4669783087
 11
12.0299112771
 21
35.4669783087
  0
LINE
  5
712
100
AcDbEntity
  8
0
100
AcDbLine
 62
7
  6
CONTINUOUS
 10
-12.8304482034
 20
35.4669783087
 11
-22.9700887229
 21
35.4669783087
  0
LINE
  5
713
100
AcDbEntity
  8
0
100
AcDbLine
 62
7
  6
CONTINUOUS
 10
-23.8304482034
 20
35.4669783087
 11
-32.9069263468
 21
35.4669783087
  0
LINE
  5
714
100
AcDbEntity
  8
0
100
AcDbLine
 62
7
  6
CONTINUOUS
 10
-37.8936105795
 20
35.4669783087
 11
-41.8700887229
 21
35.4669783087
  0
LINE
  5
715
100
AcDbEntity
  8
0
100
AcDbLine
 62
7
  6
CONTINUOUS
 10
-41.8002684632
 20
35.5367985684
 11
-38.4147177919
 21
35.5367985684
  0
LINE
  5
716
100
AcDbEntity
  8
0
100
AcDbLine
 62
7
  6
CONTINUOUS
 10
40.9997315368
 20
35.5367985684
 11
37.6141808656
 21
35.5367985684
  0
LINE
  5
717
100
AcDbEntity
  8
0
100
AcDbLine
 62
7
  6
CONTINUOUS
 10
31.5852822081
 20
35.5367985684
 11
23.0997315368
 21
35.5367985684
  0
LINE
  5
718
100
AcDbEntity
  8
0
100
AcDbLine
 62
7
  6
CONTINUOUS
 10
22.0997315368
 20
35.5367985684
 11
12.0997315368
 21
35.5367985684
  0
LINE
  5
719
100
AcDbEntity
  8
0
100
AcDbLine
 62
7
  6
CONTINUOUS
 10
-12.9002684632
 20
35.5367985684
 11
-22.9002684632
 21
35.5367985684
  0
LINE
  5
71A
100
AcDbEntity
  8
0
100
AcDbLine
 62
7
  6
CONTINUOUS
 10
-23.9002684632
 20
35.5367985684
 11
-32.3858191344
 21
35.5367985684
  0
LINE
  5
71B
100
AcDbEntity
  8
0
100
AcDbLine
 62
7
  6
CONTINUOUS
 10
-32.3858191344
 20
34.5367985684
 11
-32.8554691761
 21
34.5448929942
  0
LINE
  5
71C
100
AcDbEntity
  8
0
100
AcDbLine
 62
7
  6
CONTINUOUS
 10
-38.4147177919
 20
35.5367985684
 11
-37.9450677502
 21
35.5287041426
  0
LINE
  5
71D
100
AcDbEntity
  8
0
100
AcDbLine
 62
7
  6
CONTINUOUS
 10
37.6141808656
 20
34.5367985684
 11
37.1445308239
 21
34.5448929942
  0
LINE
  5
71E
100
AcDbEntity
  8
0
100
AcDbLine
 62
7
  6
CONTINUOUS
 10
31.5852822081
 20
35.5367985684
 11
32.0549322498
 21
35.5287041426
  0
LINE
  5
71F
100
AcDbEntity
  8
0
100
AcDbLine
 62
7
  6
CONTINUOUS
 10
0.0997315368
 20
37.466601595
 11
11.0997315368
 21
34.5191604782
  0
LINE
  5
720
100
AcDbEntity
  8
0
100
AcDbLine
 62
7
  6
CONTINUOUS
 10
23.1299112771
 20
22.6066188281
 11
23.1962405239
 21
22.5402895814
  0
LINE
  5
721
100
AcDbEntity
  8
0
100
AcDbLine
 62
7
  6
CONTINUOUS
 10
22.1695517966
 20
23.5669783087
 11
22.0997315368
 21
23.6367985684
  0
LINE
  5
722
100
AcDbEntity
  8
0
100
AcDbLine
 62
7
  6
CONTINUOUS
 10
34.1032225498
 20
12.5333075554
 11
34.1695517966
 21
12.4669783087
  0
LINE
  5
723
100
AcDbEntity
  8
0
100
AcDbLine
 62
7
  6
CONTINUOUS
 10
12.0997315368
 20
34.5367985684
 11
12.0299112771
 21
34.6066188281
  0
LINE
  5
724
100
AcDbEntity
  8
0
100
AcDbLine
 62
7
  6
CONTINUOUS
 10
34.0847721951
 20
11.5402895814
 11
37.0340841401
 21
0.5333075554
  0
LINE
  5
725
100
AcDbEntity
  8
0
100
AcDbLine
 62
250
  6
CONTINUOUS
 10
35.9997315368
 20
-41.3632014316
 11
35.9997315368
 21
-41.4330216913
  0
LINE
  5
726
100
AcDbEntity
  8
0
100
AcDbLine
 62
250
  6
CONTINUOUS
 10
35.9997315368
 20
41.4367985684
 11
35.9997315368
 21
41.5066188281
  0
LINE
  5
727
100
AcDbEntity
  8
0
100
AcDbLine
 62
7
  6
CONTINUOUS
 10
37.1205260974
 20
-0.3933811719
 11
34.1356684162
 21
-11.5330216913
  0
LINE
  5
728
100
AcDbEntity
  8
0
100
AcDbLine
 62
7
  6
CONTINUOUS
 10
35.0263780931
 20
-11.5330216913
 11
38.0112357742
 21
-0.3933811719
  0
LINE
  5
729
100
AcDbEntity
  8
0
100
AcDbLine
 62
7
  6
CONTINUOUS
 10
35.1128200503
 20
-11.4666924446
 11
38.0621319953
 21
-0.4597104186
  0
LINE
  5
72A
100
AcDbEntity
  8
0
100
AcDbLine
 62
7
  6
CONTINUOUS
 10
41.0695517966
 20
-12.3933811719
 11
41.0032225498
 21
-12.4597104186
  0
LINE
  5
72B
100
AcDbEntity
  8
0
100
AcDbLine
 62
7
  6
CONTINUOUS
 10
12.0299112771
 20
-41.4330216913
 11
12.0997315368
 21
-41.3632014316
  0
LINE
  5
72C
100
AcDbEntity
  8
0
100
AcDbLine
 62
7
  6
CONTINUOUS
 10
-11.9700887229
 20
34.5727354478
 11
-0.8304482034
 21
37.557593129
  0
LINE
  5
72D
100
AcDbEntity
  8
0
100
AcDbLine
 62
7
  6
CONTINUOUS
 10
-0.8304482034
 20
38.4483028058
 11
-11.9700887229
 21
35.4634451246
  0
LINE
  5
72E
100
AcDbEntity
  8
0
100
AcDbLine
 62
7
  6
CONTINUOUS
 10
-0.9002684632
 20
38.5018777754
 11
-11.9002684632
 21
35.5544366586
  0
LINE
  5
72F
100
AcDbEntity
  8
0
100
AcDbLine
 62
250
  6
CONTINUOUS
 10
40.9997315368
 20
36.4367985684
 11
41.0695517966
 21
36.4367985684
  0
LINE
  5
730
100
AcDbEntity
  8
0
100
AcDbLine
 62
250
  6
CONTINUOUS
 10
-41.8002684632
 20
36.4367985684
 11
-41.8700887229
 21
36.4367985684
  0
LINE
  5
731
100
AcDbEntity
  8
0
100
AcDbLine
 62
7
  6
CONTINUOUS
 10
0.0299112771
 20
37.557593129
 11
11.1695517966
 21
34.5727354478
  0
LINE
  5
732
100
AcDbEntity
  8
0
100
AcDbLine
 62
7
  6
CONTINUOUS
 10
11.1695517966
 20
35.4634451246
 11
0.0299112771
 21
38.4483028058
  0
LINE
  5
733
100
AcDbEntity
  8
0
100
AcDbLine
 62
7
  6
CONTINUOUS
 10
11.0997315368
 20
35.5544366586
 11
0.0997315368
 21
38.5018777754
  0
LINE
  5
734
100
AcDbEntity
  8
0
100
AcDbLine
 62
7
  6
CONTINUOUS
 10
12.0299112771
 20
41.5066188281
 11
12.0997315368
 21
41.4367985684
  0
LINE
  5
735
100
AcDbEntity
  8
0
100
AcDbLine
 62
7
  6
CONTINUOUS
 10
41.0695517966
 20
12.4669783087
 11
41.0032225498
 21
12.5333075554
  0
LINE
  5
736
100
AcDbEntity
  8
0
100
AcDbLine
 62
7
  6
CONTINUOUS
 10
34.1356684162
 20
11.6066188281
 11
37.1205260974
 21
0.4669783087
  0
LINE
  5
737
100
AcDbEntity
  8
0
100
AcDbLine
 62
7
  6
CONTINUOUS
 10
38.0112357742
 20
0.4669783087
 11
35.0263780931
 21
11.6066188281
  0
LINE
  5
738
100
AcDbEntity
  8
0
100
AcDbLine
 62
7
  6
CONTINUOUS
 10
38.0621319953
 20
0.5333075554
 11
35.1128200503
 21
11.5402895814
  0
LINE
  5
739
100
AcDbEntity
  8
0
100
AcDbLine
 62
7
  6
CONTINUOUS
 10
40.9997315368
 20
36.4367985684
 11
40.9997315368
 21
35.5367985684
  0
LINE
  5
73A
100
AcDbEntity
  8
0
100
AcDbLine
 62
7
  6
CONTINUOUS
 10
40.9997315368
 20
34.5367985684
 11
40.9997315368
 21
23.5367985684
  0
LINE
  5
73B
100
AcDbEntity
  8
0
100
AcDbLine
 62
7
  6
CONTINUOUS
 10
40.9997315368
 20
-23.4632014316
 11
40.9997315368
 21
-34.4632014316
  0
LINE
  5
73C
100
AcDbEntity
  8
0
100
AcDbLine
 62
7
  6
CONTINUOUS
 10
40.9997315368
 20
-35.4632014316
 11
40.9997315368
 21
-36.3632014316
  0
LINE
  5
73D
100
AcDbEntity
  8
0
100
AcDbLine
 62
7
  6
CONTINUOUS
 10
41.0032225498
 20
22.5402895814
 11
41.0032225498
 21
12.5333075554
  0
LINE
  5
73E
100
AcDbEntity
  8
0
100
AcDbLine
 62
7
  6
CONTINUOUS
 10
41.0032225498
 20
11.5402895814
 11
41.0032225498
 21
0.5333075554
  0
LINE
  5
73F
100
AcDbEntity
  8
0
100
AcDbLine
 62
7
  6
CONTINUOUS
 10
41.0032225498
 20
-0.4597104186
 11
41.0032225498
 21
-11.4666924446
  0
LINE
  5
740
100
AcDbEntity
  8
0
100
AcDbLine
 62
7
  6
CONTINUOUS
 10
41.0032225498
 20
-12.4597104186
 11
41.0032225498
 21
-22.4666924446
  0
LINE
  5
741
100
AcDbEntity
  8
0
100
AcDbLine
 62
7
  6
CONTINUOUS
 10
41.0695517966
 20
36.4367985684
 11
41.0695517966
 21
35.4669783087
  0
LINE
  5
742
100
AcDbEntity
  8
0
100
AcDbLine
 62
7
  6
CONTINUOUS
 10
41.0695517966
 20
34.6066188281
 11
41.0695517966
 21
23.4669783087
  0
LINE
  5
743
100
AcDbEntity
  8
0
100
AcDbLine
 62
7
  6
CONTINUOUS
 10
41.0695517966
 20
22.6066188281
 11
41.0695517966
 21
12.4669783087
  0
LINE
  5
744
100
AcDbEntity
  8
0
100
AcDbLine
 62
7
  6
CONTINUOUS
 10
41.0695517966
 20
11.6066188281
 11
41.0695517966
 21
0.4669783087
  0
LINE
  5
745
100
AcDbEntity
  8
0
100
AcDbLine
 62
7
  6
CONTINUOUS
 10
41.0695517966
 20
-0.3933811719
 11
41.0695517966
 21
-11.5330216913
  0
LINE
  5
746
100
AcDbEntity
  8
0
100
AcDbLine
 62
7
  6
CONTINUOUS
 10
41.0695517966
 20
-12.3933811719
 11
41.0695517966
 21
-22.5330216913
  0
LINE
  5
747
100
AcDbEntity
  8
0
100
AcDbLine
 62
7
  6
CONTINUOUS
 10
41.0695517966
 20
-23.3933811719
 11
41.0695517966
 21
-34.5330216913
  0
LINE
  5
748
100
AcDbEntity
  8
0
100
AcDbLine
 62
7
  6
CONTINUOUS
 10
41.0695517966
 20
-35.3933811719
 11
41.0695517966
 21
-36.3632014316
  0
LINE
  5
749
100
AcDbEntity
  8
0
100
AcDbLine
 62
7
  6
CONTINUOUS
 10
35.0962405239
 20
-22.4666924446
 11
35.0299112771
 21
-22.5330216913
  0
LINE
  5
74A
100
AcDbEntity
  8
0
100
AcDbLine
 62
7
  6
CONTINUOUS
 10
23.0997315368
 20
-34.4632014316
 11
23.0299112771
 21
-34.5330216913
  0
LINE
  5
74B
100
AcDbEntity
  8
0
100
AcDbLine
 62
7
  6
CONTINUOUS
 10
22.0997315368
 20
-35.4632014316
 11
22.1695517966
 21
-35.3933811719
  0
LINE
  5
74C
100
AcDbEntity
  8
0
100
AcDbLine
 62
7
  6
CONTINUOUS
 10
34.0997315368
 20
-23.4632014316
 11
34.1695517966
 21
-23.3933811719
  0
LINE
  5
74D
100
AcDbEntity
  8
0
100
AcDbLine
 62
7
  6
CONTINUOUS
 10
-36.8002684632
 20
41.4367985684
 11
-35.9002684632
 21
41.4367985684
  0
LINE
  5
74E
100
AcDbEntity
  8
0
100
AcDbLine
 62
7
  6
CONTINUOUS
 10
-34.9002684632
 20
41.4367985684
 11
-23.9002684632
 21
41.4367985684
  0
LINE
  5
74F
100
AcDbEntity
  8
0
100
AcDbLine
 62
7
  6
CONTINUOUS
 10
-22.9002684632
 20
41.4367985684
 11
-12.9002684632
 21
41.4367985684
  0
LINE
  5
750
100
AcDbEntity
  8
0
100
AcDbLine
 62
7
  6
CONTINUOUS
 10
-11.9002684632
 20
41.4367985684
 11
-0.9002684632
 21
41.4367985684
  0
LINE
  5
751
100
AcDbEntity
  8
0
100
AcDbLine
 62
7
  6
CONTINUOUS
 10
0.0997315368
 20
41.4367985684
 11
11.0997315368
 21
41.4367985684
  0
LINE
  5
752
100
AcDbEntity
  8
0
100
AcDbLine
 62
7
  6
CONTINUOUS
 10
12.0997315368
 20
41.4367985684
 11
22.0997315368
 21
41.4367985684
  0
LINE
  5
753
100
AcDbEntity
  8
0
100
AcDbLine
 62
7
  6
CONTINUOUS
 10
23.0997315368
 20
41.4367985684
 11
34.0997315368
 21
41.4367985684
  0
LINE
  5
754
100
AcDbEntity
  8
0
100
AcDbLine
 62
7
  6
CONTINUOUS
 10
35.0997315368
 20
41.4367985684
 11
35.9997315368
 21
41.4367985684
  0
LINE
  5
755
100
AcDbEntity
  8
0
100
AcDbLine
 62
7
  6
CONTINUOUS
 10
-36.8002684632
 20
41.5066188281
 11
-35.8304482034
 21
41.5066188281
  0
LINE
  5
756
100
AcDbEntity
  8
0
100
AcDbLine
 62
7
  6
CONTINUOUS
 10
-34.9700887229
 20
41.5066188281
 11
-23.8304482034
 21
41.5066188281
  0
LINE
  5
757
100
AcDbEntity
  8
0
100
AcDbLine
 62
7
  6
CONTINUOUS
 10
-22.9700887229
 20
41.5066188281
 11
-12.8304482034
 21
41.5066188281
  0
LINE
  5
758
100
AcDbEntity
  8
0
100
AcDbLine
 62
7
  6
CONTINUOUS
 10
-11.9700887229
 20
41.5066188281
 11
-0.8304482034
 21
41.5066188281
  0
LINE
  5
759
100
AcDbEntity
  8
0
100
AcDbLine
 62
7
  6
CONTINUOUS
 10
0.0299112771
 20
41.5066188281
 11
11.1695517966
 21
41.5066188281
  0
LINE
  5
75A
100
AcDbEntity
  8
0
100
AcDbLine
 62
7
  6
CONTINUOUS
 10
12.0299112771
 20
41.5066188281
 11
22.1695517966
 21
41.5066188281
  0
LINE
  5
75B
100
AcDbEntity
  8
0
100
AcDbLine
 62
7
  6
CONTINUOUS
 10
23.0299112771
 20
41.5066188281
 11
34.1695517966
 21
41.5066188281
  0
LINE
  5
75C
100
AcDbEntity
  8
0
100
AcDbLine
 62
7
  6
CONTINUOUS
 10
35.0299112771
 20
41.5066188281
 11
35.9997315368
 21
41.5066188281
  0
LINE
  5
75D
100
AcDbEntity
  8
0
100
AcDbLine
 62
7
  6
CONTINUOUS
 10
22.0997315368
 20
35.5367985684
 11
22.1695517966
 21
35.4669783087
  0
LINE
  5
75E
100
AcDbEntity
  8
0
100
AcDbLine
 62
7
  6
CONTINUOUS
 10
34.0997315368
 20
23.5367985684
 11
34.1695517966
 21
23.4669783087
  0
LINE
  5
75F
100
AcDbEntity
  8
0
100
AcDbLine
 62
7
  6
CONTINUOUS
 10
35.0962405239
 20
22.5402895814
 11
35.0299112771
 21
22.6066188281
  0
LINE
  5
760
100
AcDbEntity
  8
0
100
AcDbLine
 62
7
  6
CONTINUOUS
 10
23.0997315368
 20
34.5367985684
 11
23.0299112771
 21
34.6066188281
  0
LINE
  5
761
100
AcDbEntity
  8
0
100
AcDbLine
 62
7
  6
CONTINUOUS
 10
46.9997315368
 20
-45.8632014316
 11
46.9997315368
 21
45.9367985684
  0
LINE
  5
762
100
AcDbEntity
  8
0
100
AcDbLine
 62
7
  6
CONTINUOUS
 10
32.0549322498
 20
-35.4551070058
 11
32.0777446071
 21
-35.4275867022
  0
LWPOLYLINE
  5
763
100
AcDbEntity
  8
0
100
AcDbPolyline
 62
7
  6
CONTINUOUS
 90
3
 70
0
 10
32.0777446071
 20
-35.4275867022
 10
32.100648815
 20
-35.4002049515
 10
32.1063894205
 20
-35.3933811719
  0
LINE
  5
764
100
AcDbEntity
  8
0
100
AcDbLine
 62
7
  6
CONTINUOUS
 10
41.0695517966
 20
-23.3933811719
 11
40.9997315368
 21
-23.4632014316
  0
LINE
  5
765
100
AcDbEntity
  8
0
100
AcDbLine
 62
7
  6
CONTINUOUS
 10
23.0299112771
 20
-41.4330216913
 11
23.0997315368
 21
-41.3632014316
  0
LINE
  5
766
100
AcDbEntity
  8
0
100
AcDbLine
 62
7
  6
CONTINUOUS
 10
35.0572583746
 20
-32.4469318141
 11
35.0299112771
 21
-32.4698593152
  0
LWPOLYLINE
  5
767
100
AcDbEntity
  8
0
100
AcDbPolyline
 62
7
  6
CONTINUOUS
 90
3
 70
0
 10
35.091637111
 20
-32.4184021445
 10
35.084744049
 20
-32.4240966925
 10
35.0572583746
 20
-32.4469318141
  0
LINE
  5
768
100
AcDbEntity
  8
0
100
AcDbLine
 62
7
  6
CONTINUOUS
 10
45.4997315368
 20
47.4367985684
 11
-46.3002684632
 21
47.4367985684
  0
LINE
  5
769
100
AcDbEntity
  8
0
100
AcDbLine
 62
7
  6
CONTINUOUS
 10
35.091637111
 20
32.4919992813
 11
35.0641168075
 21
32.5148116386
  0
LWPOLYLINE
  5
76A
100
AcDbEntity
  8
0
100
AcDbPolyline
 62
7
  6
CONTINUOUS
 90
3
 70
0
 10
35.0641168075
 20
32.5148116386
 10
35.0367350568
 20
32.5377158466
 10
35.0299112771
 20
32.5434564521
  0
LINE
  5
76B
100
AcDbEntity
  8
0
100
AcDbLine
 62
7
  6
CONTINUOUS
 10
23.0299112771
 20
41.5066188281
 11
23.0997315368
 21
41.4367985684
  0
LINE
  5
76C
100
AcDbEntity
  8
0
100
AcDbLine
 62
7
  6
CONTINUOUS
 10
41.0695517966
 20
23.4669783087
 11
40.9997315368
 21
23.5367985684
  0
LINE
  5
76D
100
AcDbEntity
  8
0
100
AcDbLine
 62
7
  6
CONTINUOUS
 10
32.0834619194
 20
35.4943254062
 11
32.1063894205
 21
35.4669783087
  0
LWPOLYLINE
  5
76E
100
AcDbEntity
  8
0
100
AcDbPolyline
 62
7
  6
CONTINUOUS
 90
3
 70
0
 10
32.0549322498
 20
35.5287041426
 10
32.0606267977
 20
35.5218110805
 10
32.0834619194
 20
35.4943254062
  0
LINE
  5
76F
100
AcDbEntity
  8
0
100
AcDbLine
 62
7
  6
CONTINUOUS
 10
37.1445308239
 20
-34.4712958574
 11
37.1217184666
 21
-34.4988161609
  0
LWPOLYLINE
  5
770
100
AcDbEntity
  8
0
100
AcDbPolyline
 62
7
  6
CONTINUOUS
 90
3
 70
0
 10
37.1217184666
 20
-34.4988161609
 10
37.0988142587
 20
-34.5261979116
 10
37.0930736532
 20
-34.5330216913
  0
LINE
  5
771
100
AcDbEntity
  8
0
100
AcDbLine
 62
7
  6
CONTINUOUS
 10
34.142204699
 20
-37.479471049
 11
34.1695517966
 21
-37.4565435479
  0
LWPOLYLINE
  5
772
100
AcDbEntity
  8
0
100
AcDbPolyline
 62
7
  6
CONTINUOUS
 90
3
 70
0
 10
34.1078259627
 20
-37.5080007187
 10
34.1147190247
 20
-37.5023061707
 10
34.142204699
 20
-37.479471049
  0
LINE
  5
773
100
AcDbEntity
  8
0
100
AcDbLine
 62
7
  6
CONTINUOUS
 10
34.1078259627
 20
37.5815978555
 11
34.1353462662
 21
37.5587854982
  0
LWPOLYLINE
  5
774
100
AcDbEntity
  8
0
100
AcDbPolyline
 62
7
  6
CONTINUOUS
 90
3
 70
0
 10
34.1353462662
 20
37.5587854982
 10
34.1627280169
 20
37.5358812903
 10
34.1695517966
 20
37.5301406848
  0
LINE
  5
775
100
AcDbEntity
  8
0
100
AcDbLine
 62
7
  6
CONTINUOUS
 10
37.1160011543
 20
34.5792717306
 11
37.0930736532
 21
34.6066188281
  0
LWPOLYLINE
  5
776
100
AcDbEntity
  8
0
100
AcDbPolyline
 62
7
  6
CONTINUOUS
 90
3
 70
0
 10
37.1445308239
 20
34.5448929942
 10
37.138836276
 20
34.5517860563
 10
37.1160011543
 20
34.5792717306
  0
LINE
  5
777
100
AcDbEntity
  8
0
100
AcDbLine
 62
7
  6
CONTINUOUS
 10
41.0695517966
 20
-35.3933811719
 11
40.9997315368
 21
-35.4632014316
  0
LINE
  5
778
100
AcDbEntity
  8
0
100
AcDbLine
 62
7
  6
CONTINUOUS
 10
35.0299112771
 20
-41.4330216913
 11
35.0997315368
 21
-41.3632014316
  0
LINE
  5
779
100
AcDbEntity
  8
0
100
AcDbLine
 62
7
  6
CONTINUOUS
 10
35.0299112771
 20
41.5066188281
 11
35.0997315368
 21
41.4367985684
  0
LINE
  5
77A
100
AcDbEntity
  8
0
100
AcDbLine
 62
7
  6
CONTINUOUS
 10
41.0695517966
 20
35.4669783087
 11
40.9997315368
 21
35.5367985684
  0
ARC
  5
77B
100
AcDbEntity
  8
0
100
AcDbCircle
 62
7
  6
CONTINUOUS
 10
-36.8002684632
 20
-36.3632014316
 40
5.0698202597
100
AcDbArc
 50
180.0
 51
270.0
  0
ARC
  5
77C
100
AcDbEntity
  8
0
100
AcDbCircle
 62
7
  6
CONTINUOUS
 10
-36.8002684632
 20
-36.3632014316
 40
5.0
100
AcDbArc
 50
180.0
 51
270.0
  0
ARC
  5
77D
100
AcDbEntity
  8
0
100
AcDbCircle
 62
7
  6
CONTINUOUS
 10
-5.0002684632
 20
-29.6084371365
 40
4.45
100
AcDbArc
 50
81.1798521708
 51
103.6479267441
  0
ARC
  5
77E
100
AcDbEntity
  8
0
100
AcDbCircle
 62
7
  6
CONTINUOUS
 10
-5.0002684632
 20
-29.6084371365
 40
4.45
100
AcDbArc
 50
161.7275370982
 51
261.1798521708
  0
ARC
  5
77F
100
AcDbEntity
  8
0
100
AcDbCircle
 62
7
  6
CONTINUOUS
 10
-30.0455041681
 20
-4.5632014316
 40
4.446508987
100
AcDbArc
 50
332.4953272411
 51
8.8201478292
  0
ARC
  5
780
100
AcDbEntity
  8
0
100
AcDbCircle
 62
7
  6
CONTINUOUS
 10
-30.0455041681
 20
-4.5632014316
 40
4.446508987
100
AcDbArc
 50
188.8201478292
 51
286.9823939927
  0
ARC
  5
781
100
AcDbEntity
  8
0
100
AcDbCircle
 62
7
  6
CONTINUOUS
 10
-5.0002684632
 20
-29.6084371365
 40
4.4046168312
100
AcDbArc
 50
160.9089557684
 51
261.1798521708
  0
ARC
  5
782
100
AcDbEntity
  8
0
100
AcDbCircle
 62
7
  6
CONTINUOUS
 10
-5.0002684632
 20
-29.6084371365
 40
4.4046168312
100
AcDbArc
 50
81.1798521708
 51
104.3999933664
  0
ARC
  5
783
100
AcDbEntity
  8
0
100
AcDbCircle
 62
7
  6
CONTINUOUS
 10
-30.0455041681
 20
-4.5632014316
 40
4.4046168312
100
AcDbArc
 50
331.5934817221
 51
8.8201478292
  0
ARC
  5
784
100
AcDbEntity
  8
0
100
AcDbCircle
 62
7
  6
CONTINUOUS
 10
-30.0455041681
 20
-4.5632014316
 40
4.4046168312
100
AcDbArc
 50
188.8201478292
 51
287.7200696412
  0
ARC
  5
785
100
AcDbEntity
  8
0
100
AcDbCircle
 62
7
  6
CONTINUOUS
 10
-35.4002684632
 20
-34.9632014316
 40
3.0556349186
100
AcDbArc
 50
189.4177803814
 51
260.5822196186
  0
ARC
  5
786
100
AcDbEntity
  8
0
100
AcDbCircle
 62
7
  6
CONTINUOUS
 10
-35.4002684632
 20
-34.9632014316
 40
3.0556349186
100
AcDbArc
 50
99.4177803814
 51
170.5822196186
  0
ARC
  5
787
100
AcDbEntity
  8
0
100
AcDbCircle
 62
7
  6
CONTINUOUS
 10
-35.4002684632
 20
-34.9632014316
 40
3.0556349186
100
AcDbArc
 50
279.4177803814
 51
350.5822196186
  0
ARC
  5
788
100
AcDbEntity
  8
0
100
AcDbCircle
 62
7
  6
CONTINUOUS
 10
-35.4002684632
 20
-34.9632014316
 40
3.0556349186
100
AcDbArc
 50
9.4177803814
 51
80.5822196186
  0
ARC
  5
789
100
AcDbEntity
  8
0
100
AcDbCircle
 62
7
  6
CONTINUOUS
 10
-30.0455041681
 20
-4.5632014316
 40
2.7046168312
100
AcDbArc
 50
188.8201478292
 51
8.8201478292
  0
ARC
  5
78A
100
AcDbEntity
  8
0
100
AcDbCircle
 62
7
  6
CONTINUOUS
 10
-5.0002684632
 20
-29.6084371365
 40
2.7046168312
100
AcDbArc
 50
81.1798521708
 51
261.1798521708
  0
ARC
  5
78B
100
AcDbEntity
  8
0
100
AcDbCircle
 62
7
  6
CONTINUOUS
 10
-30.0455041681
 20
-4.5632014316
 40
2.6801797403
100
AcDbArc
 50
188.8201478292
 51
8.8201478292
  0
ARC
  5
78C
100
AcDbEntity
  8
0
100
AcDbCircle
 62
7
  6
CONTINUOUS
 10
-5.0002684632
 20
-29.6084371365
 40
2.6801797403
100
AcDbArc
 50
81.1798521708
 51
261.1798521708
  0
ARC
  5
78D
100
AcDbEntity
  8
0
100
AcDbCircle
 62
7
  6
CONTINUOUS
 10
-35.4002684632
 20
-34.9632014316
 40
2.5919055742
100
AcDbArc
 50
10.9402547585
 51
79.0597452415
  0
ARC
  5
78E
100
AcDbEntity
  8
0
100
AcDbCircle
 62
7
  6
CONTINUOUS
 10
-35.4002684632
 20
-34.9632014316
 40
2.5919055742
100
AcDbArc
 50
100.9402547585
 51
169.0597452415
  0
ARC
  5
78F
100
AcDbEntity
  8
0
100
AcDbCircle
 62
7
  6
CONTINUOUS
 10
-35.4002684632
 20
-34.9632014316
 40
2.5919055742
100
AcDbArc
 50
280.9402547585
 51
349.0597452415
  0
ARC
  5
790
100
AcDbEntity
  8
0
100
AcDbCircle
 62
7
  6
CONTINUOUS
 10
-35.4002684632
 20
-34.9632014316
 40
2.5919055742
100
AcDbArc
 50
190.9402547585
 51
259.0597452415
  0
ARC
  5
791
100
AcDbEntity
  8
0
100
AcDbCircle
 62
7
  6
CONTINUOUS
 10
-35.4002684632
 20
-34.9632014316
 40
2.5301797403
100
AcDbArc
 50
9.7889492891
 51
80.2110507109
  0
ARC
  5
792
100
AcDbEntity
  8
0
100
AcDbCircle
 62
7
  6
CONTINUOUS
 10
-35.4002684632
 20
-34.9632014316
 40
2.5301797403
100
AcDbArc
 50
189.7889492891
 51
260.2110507109
  0
ARC
  5
793
100
AcDbEntity
  8
0
100
AcDbCircle
 62
7
  6
CONTINUOUS
 10
-35.4002684632
 20
-34.9632014316
 40
2.5301797403
100
AcDbArc
 50
99.7889492891
 51
170.2110507109
  0
ARC
  5
794
100
AcDbEntity
  8
0
100
AcDbCircle
 62
7
  6
CONTINUOUS
 10
-35.4002684632
 20
-34.9632014316
 40
2.5301797403
100
AcDbArc
 50
279.7889492891
 51
350.2110507109
  0
ARC
  5
795
100
AcDbEntity
  8
0
100
AcDbCircle
 62
7
  6
CONTINUOUS
 10
-5.0002684632
 20
-29.6084371365
 40
1.6063623377
100
AcDbArc
 50
81.1798521708
 51
261.1798521708
  0
ARC
  5
796
100
AcDbEntity
  8
0
100
AcDbCircle
 62
7
  6
CONTINUOUS
 10
-30.0455041681
 20
-4.5632014316
 40
1.6063623377
100
AcDbArc
 50
188.8201478292
 51
8.8201478292
  0
ARC
  5
797
100
AcDbEntity
  8
0
100
AcDbCircle
 62
7
  6
CONTINUOUS
 10
-46.3002684632
 20
-45.8632014316
 40
1.5
100
AcDbArc
 50
180.0
 51
270.0
  0
CIRCLE
  5
798
100
AcDbEntity
  8
0
100
AcDbCircle
 62
7
  6
CONTINUOUS
 10
-35.4002684632
 20
-34.9632014316
 40
1.4563623377
  0
CIRCLE
  5
799
100
AcDbEntity
  8
0
100
AcDbCircle
 62
7
  6
CONTINUOUS
 10
-43.4002684632
 20
-42.9632014316
 40
1.0
  0
ARC
  5
79A
100
AcDbEntity
  8
0
100
AcDbCircle
 62
7
  6
CONTINUOUS
 10
-25.2502684632
 20
-8.0132014316
 40
0.3
100
AcDbArc
 50
0.0
 51
90.0
  0
ARC
  5
79B
100
AcDbEntity
  8
0
100
AcDbCircle
 62
7
  6
CONTINUOUS
 10
-26.3260043944
 20
-8.0132014316
 40
0.3
100
AcDbArc
 50
90.0
 51
135.0
  0
ARC
  5
79C
100
AcDbEntity
  8
0
100
AcDbCircle
 62
7
  6
CONTINUOUS
 10
-27.3502684632
 20
-9.0374655003
 40
0.3
100
AcDbArc
 50
135.0
 51
180.0
  0
ARC
  5
79D
100
AcDbEntity
  8
0
100
AcDbCircle
 62
7
  6
CONTINUOUS
 10
-27.3502684632
 20
-13.3889373629
 40
0.3
100
AcDbArc
 50
180.0
 51
225.0
  0
ARC
  5
79E
100
AcDbEntity
  8
0
100
AcDbCircle
 62
7
  6
CONTINUOUS
 10
-26.3260043944
 20
-14.4132014316
 40
0.3
100
AcDbArc
 50
225.0
 51
270.0
  0
ARC
  5
79F
100
AcDbEntity
  8
0
100
AcDbCircle
 62
7
  6
CONTINUOUS
 10
-25.2502684632
 20
-14.4132014316
 40
0.3
100
AcDbArc
 50
270.0
 51
360.0
  0
ARC
  5
7A0
100
AcDbEntity
  8
0
100
AcDbCircle
 62
7
  6
CONTINUOUS
 10
-30.0455041681
 20
4.6367985684
 40
4.446508987
100
AcDbArc
 50
73.0176060073
 51
171.1798521708
  0
ARC
  5
7A1
100
AcDbEntity
  8
0
100
AcDbCircle
 62
7
  6
CONTINUOUS
 10
-30.0455041681
 20
4.6367985684
 40
4.446508987
100
AcDbArc
 50
351.1798521708
 51
27.5046727589
  0
ARC
  5
7A2
100
AcDbEntity
  8
0
100
AcDbCircle
 62
7
  6
CONTINUOUS
 10
-30.0455041681
 20
4.6367985684
 40
4.4046168312
100
AcDbArc
 50
171.1798521708
 51
226.547379472
  0
ARC
  5
7A3
100
AcDbEntity
  8
0
100
AcDbCircle
 62
7
  6
CONTINUOUS
 10
-30.0455041681
 20
4.6367985684
 40
4.4046168312
100
AcDbArc
 50
302.4623778672
 51
351.1798521708
  0
ARC
  5
7A4
100
AcDbEntity
  8
0
100
AcDbCircle
 62
7
  6
CONTINUOUS
 10
-30.0455041681
 20
4.6367985684
 40
4.3801797403
100
AcDbArc
 50
302.2937668842
 51
28.9441845781
  0
ARC
  5
7A5
100
AcDbEntity
  8
0
100
AcDbCircle
 62
7
  6
CONTINUOUS
 10
-30.0455041681
 20
4.6367985684
 40
4.3801797403
100
AcDbArc
 50
71.8416770794
 51
226.6929441494
  0
ARC
  5
7A6
100
AcDbEntity
  8
0
100
AcDbCircle
 62
7
  6
CONTINUOUS
 10
-30.0455041681
 20
4.6367985684
 40
3.3063623377
100
AcDbArc
 50
293.0461299817
 51
234.8370368861
  0
CIRCLE
  5
7A7
100
AcDbEntity
  8
0
100
AcDbCircle
 62
7
  6
CONTINUOUS
 10
-43.9002684632
 20
0.0367985684
 40
1.0
  0
ARC
  5
7A8
100
AcDbEntity
  8
0
100
AcDbCircle
 62
7
  6
CONTINUOUS
 10
-26.3260043944
 20
14.4867985684
 40
0.3
100
AcDbArc
 50
90.0
 51
135.0
  0
ARC
  5
7A9
100
AcDbEntity
  8
0
100
AcDbCircle
 62
7
  6
CONTINUOUS
 10
-27.3502684632
 20
13.4625344997
 40
0.3
100
AcDbArc
 50
135.0
 51
180.0
  0
ARC
  5
7AA
100
AcDbEntity
  8
0
100
AcDbCircle
 62
7
  6
CONTINUOUS
 10
-27.3502684632
 20
9.1110626371
 40
0.3
100
AcDbArc
 50
180.0
 51
225.0
  0
ARC
  5
7AB
100
AcDbEntity
  8
0
100
AcDbCircle
 62
7
  6
CONTINUOUS
 10
-26.3260043944
 20
8.0867985684
 40
0.3
100
AcDbArc
 50
225.0
 51
270.0
  0
ARC
  5
7AC
100
AcDbEntity
  8
0
100
AcDbCircle
 62
7
  6
CONTINUOUS
 10
-36.8002684632
 20
36.4367985684
 40
5.0698202597
100
AcDbArc
 50
90.0
 51
180.0
  0
ARC
  5
7AD
100
AcDbEntity
  8
0
100
AcDbCircle
 62
7
  6
CONTINUOUS
 10
-36.8002684632
 20
36.4367985684
 40
5.0
100
AcDbArc
 50
90.0
 51
180.0
  0
ARC
  5
7AE
100
AcDbEntity
  8
0
100
AcDbCircle
 62
7
  6
CONTINUOUS
 10
-35.4002684632
 20
35.0367985684
 40
3.0556349186
100
AcDbArc
 50
189.4177803814
 51
260.5822196186
  0
ARC
  5
7AF
100
AcDbEntity
  8
0
100
AcDbCircle
 62
7
  6
CONTINUOUS
 10
-35.4002684632
 20
35.0367985684
 40
3.0556349186
100
AcDbArc
 50
99.4177803814
 51
170.5822196186
  0
ARC
  5
7B0
100
AcDbEntity
  8
0
100
AcDbCircle
 62
7
  6
CONTINUOUS
 10
-35.4002684632
 20
35.0367985684
 40
3.0556349186
100
AcDbArc
 50
279.4177803814
 51
350.5822196186
  0
ARC
  5
7B1
100
AcDbEntity
  8
0
100
AcDbCircle
 62
7
  6
CONTINUOUS
 10
-35.4002684632
 20
35.0367985684
 40
3.0556349186
100
AcDbArc
 50
9.4177803814
 51
80.5822196186
  0
ARC
  5
7B2
100
AcDbEntity
  8
0
100
AcDbCircle
 62
7
  6
CONTINUOUS
 10
-35.4002684632
 20
35.0367985684
 40
2.5919055742
100
AcDbArc
 50
10.9402547585
 51
79.0597452415
  0
ARC
  5
7B3
100
AcDbEntity
  8
0
100
AcDbCircle
 62
7
  6
CONTINUOUS
 10
-35.4002684632
 20
35.0367985684
 40
2.5919055742
100
AcDbArc
 50
100.9402547585
 51
169.0597452415
  0
ARC
  5
7B4
100
AcDbEntity
  8
0
100
AcDbCircle
 62
7
  6
CONTINUOUS
 10
-35.4002684632
 20
35.0367985684
 40
2.5919055742
100
AcDbArc
 50
280.9402547585
 51
349.0597452415
  0
ARC
  5
7B5
100
AcDbEntity
  8
0
100
AcDbCircle
 62
7
  6
CONTINUOUS
 10
-35.4002684632
 20
35.0367985684
 40
2.5919055742
100
AcDbArc
 50
190.9402547585
 51
259.0597452415
  0
ARC
  5
7B6
100
AcDbEntity
  8
0
100
AcDbCircle
 62
7
  6
CONTINUOUS
 10
-35.4002684632
 20
35.0367985684
 40
2.5301797403
100
AcDbArc
 50
279.7889492891
 51
350.2110507109
  0
ARC
  5
7B7
100
AcDbEntity
  8
0
100
AcDbCircle
 62
7
  6
CONTINUOUS
 10
-35.4002684632
 20
35.0367985684
 40
2.5301797403
100
AcDbArc
 50
9.7889492891
 51
80.2110507109
  0
ARC
  5
7B8
100
AcDbEntity
  8
0
100
AcDbCircle
 62
7
  6
CONTINUOUS
 10
-35.4002684632
 20
35.0367985684
 40
2.5301797403
100
AcDbArc
 50
189.7889492891
 51
260.2110507109
  0
ARC
  5
7B9
100
AcDbEntity
  8
0
100
AcDbCircle
 62
7
  6
CONTINUOUS
 10
-35.4002684632
 20
35.0367985684
 40
2.5301797403
100
AcDbArc
 50
99.7889492891
 51
170.2110507109
  0
ARC
  5
7BA
100
AcDbEntity
  8
0
100
AcDbCircle
 62
7
  6
CONTINUOUS
 10
-46.3002684632
 20
45.9367985684
 40
1.5
100
AcDbArc
 50
90.0
 51
180.0
  0
CIRCLE
  5
7BB
100
AcDbEntity
  8
0
100
AcDbCircle
 62
7
  6
CONTINUOUS
 10
-35.4002684632
 20
35.0367985684
 40
1.4563623377
  0
CIRCLE
  5
7BC
100
AcDbEntity
  8
0
100
AcDbCircle
 62
7
  6
CONTINUOUS
 10
-43.4002684632
 20
43.0367985684
 40
1.0
  0
ARC
  5
7BD
100
AcDbEntity
  8
0
100
AcDbCircle
 62
7
  6
CONTINUOUS
 10
-25.2502684632
 20
14.4867985684
 40
0.3
100
AcDbArc
 50
0.0
 51
90.0
  0
ARC
  5
7BE
100
AcDbEntity
  8
0
100
AcDbCircle
 62
7
  6
CONTINUOUS
 10
-25.2502684632
 20
8.0867985684
 40
0.3
100
AcDbArc
 50
270.0
 51
360.0
  0
ARC
  5
7BF
100
AcDbEntity
  8
0
100
AcDbCircle
 62
7
  6
CONTINUOUS
 10
-5.0002684632
 20
29.6820342733
 40
4.45
100
AcDbArc
 50
256.3520732559
 51
278.8201478292
  0
ARC
  5
7C0
100
AcDbEntity
  8
0
100
AcDbCircle
 62
7
  6
CONTINUOUS
 10
-5.0002684632
 20
29.6820342733
 40
4.45
100
AcDbArc
 50
98.8201478292
 51
198.2724629018
  0
ARC
  5
7C1
100
AcDbEntity
  8
0
100
AcDbCircle
 62
7
  6
CONTINUOUS
 10
-5.0002684632
 20
29.6820342733
 40
4.4046168312
100
AcDbArc
 50
255.6000066336
 51
278.8201478292
  0
ARC
  5
7C2
100
AcDbEntity
  8
0
100
AcDbCircle
 62
7
  6
CONTINUOUS
 10
-5.0002684632
 20
29.6820342733
 40
4.4046168312
100
AcDbArc
 50
98.8201478292
 51
199.0910442316
  0
ARC
  5
7C3
100
AcDbEntity
  8
0
100
AcDbCircle
 62
7
  6
CONTINUOUS
 10
-5.0002684632
 20
29.6820342733
 40
2.7046168312
100
AcDbArc
 50
98.8201478292
 51
278.8201478292
  0
ARC
  5
7C4
100
AcDbEntity
  8
0
100
AcDbCircle
 62
7
  6
CONTINUOUS
 10
-5.0002684632
 20
29.6820342733
 40
2.6801797403
100
AcDbArc
 50
98.8201478292
 51
278.8201478292
  0
ARC
  5
7C5
100
AcDbEntity
  8
0
100
AcDbCircle
 62
7
  6
CONTINUOUS
 10
-5.0002684632
 20
29.6820342733
 40
1.6063623377
100
AcDbArc
 50
98.8201478292
 51
278.8201478292
  0
ARC
  5
7C6
100
AcDbEntity
  8
0
100
AcDbCircle
 62
7
  6
CONTINUOUS
 10
4.1997315368
 20
-29.6084371365
 40
4.45
100
AcDbArc
 50
76.3520732559
 51
98.8201478292
  0
ARC
  5
7C7
100
AcDbEntity
  8
0
100
AcDbCircle
 62
7
  6
CONTINUOUS
 10
4.1997315368
 20
-29.6084371365
 40
4.45
100
AcDbArc
 50
278.8201478292
 51
18.2724629018
  0
ARC
  5
7C8
100
AcDbEntity
  8
0
100
AcDbCircle
 62
7
  6
CONTINUOUS
 10
4.1997315368
 20
-29.6084371365
 40
4.4046168312
100
AcDbArc
 50
75.6000066336
 51
98.8201478292
  0
ARC
  5
7C9
100
AcDbEntity
  8
0
100
AcDbCircle
 62
7
  6
CONTINUOUS
 10
4.1997315368
 20
-29.6084371365
 40
4.4046168312
100
AcDbArc
 50
278.8201478292
 51
19.0910442316
  0
ARC
  5
7CA
100
AcDbEntity
  8
0
100
AcDbCircle
 62
7
  6
CONTINUOUS
 10
4.1997315368
 20
-29.6084371365
 40
2.7046168312
100
AcDbArc
 50
278.8201478292
 51
98.8201478292
  0
ARC
  5
7CB
100
AcDbEntity
  8
0
100
AcDbCircle
 62
7
  6
CONTINUOUS
 10
4.1997315368
 20
-29.6084371365
 40
2.6801797403
100
AcDbArc
 50
278.8201478292
 51
98.8201478292
  0
ARC
  5
7CC
100
AcDbEntity
  8
0
100
AcDbCircle
 62
7
  6
CONTINUOUS
 10
4.1997315368
 20
-29.6084371365
 40
1.6063623377
100
AcDbArc
 50
278.8201478292
 51
98.8201478292
  0
CIRCLE
  5
7CD
100
AcDbEntity
  8
0
100
AcDbCircle
 62
7
  6
CONTINUOUS
 10
-0.4002684632
 20
-43.4632014316
 40
1.0
  0
ARC
  5
7CE
100
AcDbEntity
  8
0
100
AcDbCircle
 62
7
  6
CONTINUOUS
 10
35.9997315368
 20
-36.3632014316
 40
5.0698202597
100
AcDbArc
 50
270.0
 51
360.0
  0
ARC
  5
7CF
100
AcDbEntity
  8
0
100
AcDbCircle
 62
7
  6
CONTINUOUS
 10
35.9997315368
 20
-36.3632014316
 40
5.0
100
AcDbArc
 50
270.0
 51
360.0
  0
ARC
  5
7D0
100
AcDbEntity
  8
0
100
AcDbCircle
 62
7
  6
CONTINUOUS
 10
34.5997315368
 20
-34.9632014316
 40
3.0556349186
100
AcDbArc
 50
9.4177803814
 51
80.5822196186
  0
ARC
  5
7D1
100
AcDbEntity
  8
0
100
AcDbCircle
 62
7
  6
CONTINUOUS
 10
34.5997315368
 20
-34.9632014316
 40
3.0556349186
100
AcDbArc
 50
279.4177803814
 51
350.5822196186
  0
ARC
  5
7D2
100
AcDbEntity
  8
0
100
AcDbCircle
 62
7
  6
CONTINUOUS
 10
34.5997315368
 20
-34.9632014316
 40
3.0556349186
100
AcDbArc
 50
99.4177803814
 51
170.5822196186
  0
ARC
  5
7D3
100
AcDbEntity
  8
0
100
AcDbCircle
 62
7
  6
CONTINUOUS
 10
34.5997315368
 20
-34.9632014316
 40
3.0556349186
100
AcDbArc
 50
189.4177803814
 51
260.5822196186
  0
ARC
  5
7D4
100
AcDbEntity
  8
0
100
AcDbCircle
 62
7
  6
CONTINUOUS
 10
34.5997315368
 20
-34.9632014316
 40
2.5919055742
100
AcDbArc
 50
100.9402547585
 51
169.0597452415
  0
ARC
  5
7D5
100
AcDbEntity
  8
0
100
AcDbCircle
 62
7
  6
CONTINUOUS
 10
34.5997315368
 20
-34.9632014316
 40
2.5919055742
100
AcDbArc
 50
10.9402547585
 51
79.0597452415
  0
ARC
  5
7D6
100
AcDbEntity
  8
0
100
AcDbCircle
 62
7
  6
CONTINUOUS
 10
34.5997315368
 20
-34.9632014316
 40
2.5919055742
100
AcDbArc
 50
190.9402547585
 51
259.0597452415
  0
ARC
  5
7D7
100
AcDbEntity
  8
0
100
AcDbCircle
 62
7
  6
CONTINUOUS
 10
34.5997315368
 20
-34.9632014316
 40
2.5919055742
100
AcDbArc
 50
280.9402547585
 51
349.0597452415
  0
ARC
  5
7D8
100
AcDbEntity
  8
0
100
AcDbCircle
 62
7
  6
CONTINUOUS
 10
34.5997315368
 20
-34.9632014316
 40
2.5301797403
100
AcDbArc
 50
9.7889492891
 51
80.2110507109
  0
ARC
  5
7D9
100
AcDbEntity
  8
0
100
AcDbCircle
 62
7
  6
CONTINUOUS
 10
34.5997315368
 20
-34.9632014316
 40
2.5301797403
100
AcDbArc
 50
279.7889492891
 51
350.2110507109
  0
ARC
  5
7DA
100
AcDbEntity
  8
0
100
AcDbCircle
 62
7
  6
CONTINUOUS
 10
34.5997315368
 20
-34.9632014316
 40
2.5301797403
100
AcDbArc
 50
99.7889492891
 51
170.2110507109
  0
ARC
  5
7DB
100
AcDbEntity
  8
0
100
AcDbCircle
 62
7
  6
CONTINUOUS
 10
34.5997315368
 20
-34.9632014316
 40
2.5301797403
100
AcDbArc
 50
189.7889492891
 51
260.2110507109
  0
ARC
  5
7DC
100
AcDbEntity
  8
0
100
AcDbCircle
 62
7
  6
CONTINUOUS
 10
45.4997315368
 20
-45.8632014316
 40
1.5
100
AcDbArc
 50
270.0
 51
360.0
  0
CIRCLE
  5
7DD
100
AcDbEntity
  8
0
100
AcDbCircle
 62
7
  6
CONTINUOUS
 10
34.5997315368
 20
-34.9632014316
 40
1.4563623377
  0
CIRCLE
  5
7DE
100
AcDbEntity
  8
0
100
AcDbCircle
 62
7
  6
CONTINUOUS
 10
42.5997315368
 20
-42.9632014316
 40
1.0
  0
ARC
  5
7DF
100
AcDbEntity
  8
0
100
AcDbCircle
 62
7
  6
CONTINUOUS
 10
29.2449672418
 20
-4.5632014316
 40
4.446508987
100
AcDbArc
 50
253.0176060073
 51
351.1798521708
  0
ARC
  5
7E0
100
AcDbEntity
  8
0
100
AcDbCircle
 62
7
  6
CONTINUOUS
 10
29.2449672418
 20
-4.5632014316
 40
4.446508987
100
AcDbArc
 50
171.1798521708
 51
207.5046727589
  0
ARC
  5
7E1
100
AcDbEntity
  8
0
100
AcDbCircle
 62
7
  6
CONTINUOUS
 10
29.2449672418
 20
-4.5632014316
 40
4.4046168312
100
AcDbArc
 50
351.1798521708
 51
46.547379472
  0
ARC
  5
7E2
100
AcDbEntity
  8
0
100
AcDbCircle
 62
7
  6
CONTINUOUS
 10
29.2449672418
 20
-4.5632014316
 40
4.4046168312
100
AcDbArc
 50
122.4623778672
 51
171.1798521708
  0
ARC
  5
7E3
100
AcDbEntity
  8
0
100
AcDbCircle
 62
7
  6
CONTINUOUS
 10
29.2449672418
 20
-4.5632014316
 40
4.3801797403
100
AcDbArc
 50
122.2937668842
 51
208.9441845781
  0
ARC
  5
7E4
100
AcDbEntity
  8
0
100
AcDbCircle
 62
7
  6
CONTINUOUS
 10
29.2449672418
 20
-4.5632014316
 40
4.3801797403
100
AcDbArc
 50
251.8416770794
 51
46.6929441494
  0
ARC
  5
7E5
100
AcDbEntity
  8
0
100
AcDbCircle
 62
7
  6
CONTINUOUS
 10
29.2449672418
 20
-4.5632014316
 40
3.3063623377
100
AcDbArc
 50
113.0461299817
 51
54.8370368861
  0
ARC
  5
7E6
100
AcDbEntity
  8
0
100
AcDbCircle
 62
7
  6
CONTINUOUS
 10
24.4497315368
 20
-8.0132014316
 40
0.3
100
AcDbArc
 50
90.0
 51
180.0
  0
ARC
  5
7E7
100
AcDbEntity
  8
0
100
AcDbCircle
 62
7
  6
CONTINUOUS
 10
25.5254674681
 20
-8.0132014316
 40
0.3
100
AcDbArc
 50
45.0
 51
90.0
  0
ARC
  5
7E8
100
AcDbEntity
  8
0
100
AcDbCircle
 62
7
  6
CONTINUOUS
 10
26.5497315368
 20
-9.0374655003
 40
0.3
100
AcDbArc
 50
0.0
 51
45.0
  0
ARC
  5
7E9
100
AcDbEntity
  8
0
100
AcDbCircle
 62
7
  6
CONTINUOUS
 10
26.5497315368
 20
-13.3889373629
 40
0.3
100
AcDbArc
 50
315.0
 51
360.0
  0
ARC
  5
7EA
100
AcDbEntity
  8
0
100
AcDbCircle
 62
7
  6
CONTINUOUS
 10
25.5254674681
 20
-14.4132014316
 40
0.3
100
AcDbArc
 50
270.0
 51
315.0
  0
ARC
  5
7EB
100
AcDbEntity
  8
0
100
AcDbCircle
 62
7
  6
CONTINUOUS
 10
24.4497315368
 20
-14.4132014316
 40
0.3
100
AcDbArc
 50
180.0
 51
270.0
  0
ARC
  5
7EC
100
AcDbEntity
  8
0
100
AcDbCircle
 62
7
  6
CONTINUOUS
 10
-0.4002684632
 20
0.0367985684
 40
34.45
100
AcDbArc
 50
81.1798521708
 51
89.1683919991
  0
ARC
  5
7ED
100
AcDbEntity
  8
0
100
AcDbCircle
 62
7
  6
CONTINUOUS
 10
-0.4002684632
 20
0.0367985684
 40
34.45
100
AcDbArc
 50
90.8316080009
 51
98.8201478292
  0
ARC
  5
7EE
100
AcDbEntity
  8
0
100
AcDbCircle
 62
7
  6
CONTINUOUS
 10
-0.4002684632
 20
0.0367985684
 40
34.45
100
AcDbArc
 50
270.8316080009
 51
278.8201478292
  0
ARC
  5
7EF
100
AcDbEntity
  8
0
100
AcDbCircle
 62
7
  6
CONTINUOUS
 10
-0.4002684632
 20
0.0367985684
 40
34.45
100
AcDbArc
 50
261.1798521708
 51
269.1683919991
  0
ARC
  5
7F0
100
AcDbEntity
  8
0
100
AcDbCircle
 62
7
  6
CONTINUOUS
 10
-0.4002684632
 20
0.0367985684
 40
34.446508987
100
AcDbArc
 50
0.8258849861
 51
8.8201478292
  0
ARC
  5
7F1
100
AcDbEntity
  8
0
100
AcDbCircle
 62
7
  6
CONTINUOUS
 10
-0.4002684632
 20
0.0367985684
 40
34.446508987
100
AcDbArc
 50
351.1798521708
 51
359.1741150139
  0
ARC
  5
7F2
100
AcDbEntity
  8
0
100
AcDbCircle
 62
7
  6
CONTINUOUS
 10
-0.4002684632
 20
0.0367985684
 40
34.446508987
100
AcDbArc
 50
180.8258849861
 51
188.8201478292
  0
ARC
  5
7F3
100
AcDbEntity
  8
0
100
AcDbCircle
 62
7
  6
CONTINUOUS
 10
-0.4002684632
 20
0.0367985684
 40
34.446508987
100
AcDbArc
 50
171.1798521708
 51
179.1741150139
  0
ARC
  5
7F4
100
AcDbEntity
  8
0
100
AcDbCircle
 62
7
  6
CONTINUOUS
 10
-0.4002684632
 20
0.0367985684
 40
34.4046168312
100
AcDbArc
 50
261.1798521708
 51
269.242881154
  0
ARC
  5
7F5
100
AcDbEntity
  8
0
100
AcDbCircle
 62
7
  6
CONTINUOUS
 10
-0.4002684632
 20
0.0367985684
 40
34.4046168312
100
AcDbArc
 50
270.757118846
 51
278.8201478292
  0
ARC
  5
7F6
100
AcDbEntity
  8
0
100
AcDbCircle
 62
7
  6
CONTINUOUS
 10
-0.4002684632
 20
0.0367985684
 40
34.4046168312
100
AcDbArc
 50
0.757118846
 51
8.8201478292
  0
ARC
  5
7F7
100
AcDbEntity
  8
0
100
AcDbCircle
 62
7
  6
CONTINUOUS
 10
-0.4002684632
 20
0.0367985684
 40
34.4046168312
100
AcDbArc
 50
351.1798521708
 51
359.242881154
  0
ARC
  5
7F8
100
AcDbEntity
  8
0
100
AcDbCircle
 62
7
  6
CONTINUOUS
 10
-0.4002684632
 20
0.0367985684
 40
34.4046168312
100
AcDbArc
 50
180.757118846
 51
188.8201478292
  0
ARC
  5
7F9
100
AcDbEntity
  8
0
100
AcDbCircle
 62
7
  6
CONTINUOUS
 10
-0.4002684632
 20
0.0367985684
 40
34.4046168312
100
AcDbArc
 50
171.1798521708
 51
179.242881154
  0
ARC
  5
7FA
100
AcDbEntity
  8
0
100
AcDbCircle
 62
7
  6
CONTINUOUS
 10
-0.4002684632
 20
0.0367985684
 40
34.4046168312
100
AcDbArc
 50
81.1798521708
 51
89.242881154
  0
ARC
  5
7FB
100
AcDbEntity
  8
0
100
AcDbCircle
 62
7
  6
CONTINUOUS
 10
-0.4002684632
 20
0.0367985684
 40
34.4046168312
100
AcDbArc
 50
90.757118846
 51
98.8201478292
  0
ARC
  5
7FC
100
AcDbEntity
  8
0
100
AcDbCircle
 62
7
  6
CONTINUOUS
 10
-0.4002684632
 20
0.0367985684
 40
32.7046168312
100
AcDbArc
 50
180.7964766807
 51
188.8201478292
  0
ARC
  5
7FD
100
AcDbEntity
  8
0
100
AcDbCircle
 62
7
  6
CONTINUOUS
 10
-0.4002684632
 20
0.0367985684
 40
32.7046168312
100
AcDbArc
 50
177.5421864269
 51
179.2035233193
  0
ARC
  5
7FE
100
AcDbEntity
  8
0
100
AcDbCircle
 62
7
  6
CONTINUOUS
 10
-0.4002684632
 20
0.0367985684
 40
32.7046168312
100
AcDbArc
 50
0.7964766807
 51
8.8201478292
  0
ARC
  5
7FF
100
AcDbEntity
  8
0
100
AcDbCircle
 62
7
  6
CONTINUOUS
 10
-0.4002684632
 20
0.0367985684
 40
32.7046168312
100
AcDbArc
 50
357.5421864269
 51
359.2035233193
  0
ARC
  5
800
100
AcDbEntity
  8
0
100
AcDbCircle
 62
7
  6
CONTINUOUS
 10
-0.4002684632
 20
0.0367985684
 40
32.7046168312
100
AcDbArc
 50
81.1798521708
 51
89.2035233193
  0
ARC
  5
801
100
AcDbEntity
  8
0
100
AcDbCircle
 62
7
  6
CONTINUOUS
 10
-0.4002684632
 20
0.0367985684
 40
32.7046168312
100
AcDbArc
 50
90.7964766807
 51
98.8201478292
  0
ARC
  5
802
100
AcDbEntity
  8
0
100
AcDbCircle
 62
7
  6
CONTINUOUS
 10
-0.4002684632
 20
0.0367985684
 40
32.7046168312
100
AcDbArc
 50
261.1798521708
 51
269.2035233193
  0
ARC
  5
803
100
AcDbEntity
  8
0
100
AcDbCircle
 62
7
  6
CONTINUOUS
 10
-0.4002684632
 20
0.0367985684
 40
32.7046168312
100
AcDbArc
 50
270.7964766807
 51
278.8201478292
  0
ARC
  5
804
100
AcDbEntity
  8
0
100
AcDbCircle
 62
7
  6
CONTINUOUS
 10
-0.4002684632
 20
0.0367985684
 40
32.6801797403
100
AcDbArc
 50
270.7542245971
 51
278.8201478292
  0
ARC
  5
805
100
AcDbEntity
  8
0
100
AcDbCircle
 62
7
  6
CONTINUOUS
 10
-0.4002684632
 20
0.0367985684
 40
32.6801797403
100
AcDbArc
 50
180.7542245971
 51
188.8201478292
  0
ARC
  5
806
100
AcDbEntity
  8
0
100
AcDbCircle
 62
7
  6
CONTINUOUS
 10
-0.4002684632
 20
0.0367985684
 40
32.6801797403
100
AcDbArc
 50
261.1798521708
 51
269.2457754029
  0
ARC
  5
807
100
AcDbEntity
  8
0
100
AcDbCircle
 62
7
  6
CONTINUOUS
 10
-0.4002684632
 20
0.0367985684
 40
32.6801797403
100
AcDbArc
 50
357.5226291147
 51
359.2457754029
  0
ARC
  5
808
100
AcDbEntity
  8
0
100
AcDbCircle
 62
7
  6
CONTINUOUS
 10
-0.4002684632
 20
0.0367985684
 40
32.6801797403
100
AcDbArc
 50
177.5226291147
 51
179.2457754029
  0
ARC
  5
809
100
AcDbEntity
  8
0
100
AcDbCircle
 62
7
  6
CONTINUOUS
 10
-0.4002684632
 20
0.0367985684
 40
32.6801797403
100
AcDbArc
 50
0.7542245971
 51
8.8201478292
  0
ARC
  5
80A
100
AcDbEntity
  8
0
100
AcDbCircle
 62
7
  6
CONTINUOUS
 10
-0.4002684632
 20
0.0367985684
 40
32.6801797403
100
AcDbArc
 50
81.1798521708
 51
89.2457754029
  0
ARC
  5
80B
100
AcDbEntity
  8
0
100
AcDbCircle
 62
7
  6
CONTINUOUS
 10
-0.4002684632
 20
0.0367985684
 40
32.6801797403
100
AcDbArc
 50
90.7542245971
 51
98.8201478292
  0
ARC
  5
80C
100
AcDbEntity
  8
0
100
AcDbCircle
 62
7
  6
CONTINUOUS
 10
-0.4002684632
 20
0.0367985684
 40
31.6063623377
100
AcDbArc
 50
81.1798521708
 51
98.8201478292
  0
ARC
  5
80D
100
AcDbEntity
  8
0
100
AcDbCircle
 62
7
  6
CONTINUOUS
 10
-0.4002684632
 20
0.0367985684
 40
31.6063623377
100
AcDbArc
 50
261.1798521708
 51
278.8201478292
  0
ARC
  5
80E
100
AcDbEntity
  8
0
100
AcDbCircle
 62
7
  6
CONTINUOUS
 10
-0.4002684632
 20
0.0367985684
 40
31.6063623377
100
AcDbArc
 50
356.5590799622
 51
8.8201478292
  0
ARC
  5
80F
100
AcDbEntity
  8
0
100
AcDbCircle
 62
7
  6
CONTINUOUS
 10
-0.4002684632
 20
0.0367985684
 40
31.6063623377
100
AcDbArc
 50
176.5590799622
 51
188.8201478292
  0
ARC
  5
810
100
AcDbEntity
  8
0
100
AcDbCircle
 62
7
  6
CONTINUOUS
 10
-0.4002684632
 20
0.0367985684
 40
28.3936376623
100
AcDbArc
 50
81.1798521708
 51
98.8201478292
  0
ARC
  5
811
100
AcDbEntity
  8
0
100
AcDbCircle
 62
7
  6
CONTINUOUS
 10
-0.4002684632
 20
0.0367985684
 40
28.3936376623
100
AcDbArc
 50
261.1798521708
 51
278.8201478292
  0
ARC
  5
812
100
AcDbEntity
  8
0
100
AcDbCircle
 62
7
  6
CONTINUOUS
 10
-0.4002684632
 20
0.0367985684
 40
28.3936376623
100
AcDbArc
 50
356.8554908542
 51
8.8201478292
  0
ARC
  5
813
100
AcDbEntity
  8
0
100
AcDbCircle
 62
7
  6
CONTINUOUS
 10
-0.4002684632
 20
0.0367985684
 40
28.3936376623
100
AcDbArc
 50
176.8554908542
 51
188.8201478292
  0
ARC
  5
814
100
AcDbEntity
  8
0
100
AcDbCircle
 62
7
  6
CONTINUOUS
 10
-0.4002684632
 20
0.0367985684
 40
27.3198202597
100
AcDbArc
 50
270.9022205103
 51
278.8201478292
  0
ARC
  5
815
100
AcDbEntity
  8
0
100
AcDbCircle
 62
7
  6
CONTINUOUS
 10
-0.4002684632
 20
0.0367985684
 40
27.3198202597
100
AcDbArc
 50
180.9022205103
 51
188.8201478292
  0
ARC
  5
816
100
AcDbEntity
  8
0
100
AcDbCircle
 62
7
  6
CONTINUOUS
 10
-0.4002684632
 20
0.0367985684
 40
27.3198202597
100
AcDbArc
 50
178.1177246424
 51
178.9513295106
  0
ARC
  5
817
100
AcDbEntity
  8
0
100
AcDbCircle
 62
7
  6
CONTINUOUS
 10
-0.4002684632
 20
0.0367985684
 40
27.3198202597
100
AcDbArc
 50
358.1177246424
 51
359.0977794897
  0
ARC
  5
818
100
AcDbEntity
  8
0
100
AcDbCircle
 62
7
  6
CONTINUOUS
 10
-0.4002684632
 20
0.0367985684
 40
27.3198202597
100
AcDbArc
 50
261.1798521708
 51
269.0977794897
  0
ARC
  5
819
100
AcDbEntity
  8
0
100
AcDbCircle
 62
7
  6
CONTINUOUS
 10
-0.4002684632
 20
0.0367985684
 40
27.3198202597
100
AcDbArc
 50
0.9022205103
 51
8.8201478292
  0
ARC
  5
81A
100
AcDbEntity
  8
0
100
AcDbCircle
 62
7
  6
CONTINUOUS
 10
-0.4002684632
 20
0.0367985684
 40
27.3198202597
100
AcDbArc
 50
81.1798521708
 51
89.0977794897
  0
ARC
  5
81B
100
AcDbEntity
  8
0
100
AcDbCircle
 62
7
  6
CONTINUOUS
 10
-0.4002684632
 20
0.0367985684
 40
27.3198202597
100
AcDbArc
 50
90.9022205103
 51
98.8201478292
  0
ARC
  5
81C
100
AcDbEntity
  8
0
100
AcDbCircle
 62
7
  6
CONTINUOUS
 10
-0.4002684632
 20
0.0367985684
 40
27.2953831688
100
AcDbArc
 50
180.9543309943
 51
188.8201478292
  0
ARC
  5
81D
100
AcDbEntity
  8
0
100
AcDbCircle
 62
7
  6
CONTINUOUS
 10
-0.4002684632
 20
0.0367985684
 40
27.2953831688
100
AcDbArc
 50
178.1448454254
 51
178.9503905488
  0
ARC
  5
81E
100
AcDbEntity
  8
0
100
AcDbCircle
 62
7
  6
CONTINUOUS
 10
-0.4002684632
 20
0.0367985684
 40
27.2953831688
100
AcDbArc
 50
0.9543309943
 51
8.8201478292
  0
ARC
  5
81F
100
AcDbEntity
  8
0
100
AcDbCircle
 62
7
  6
CONTINUOUS
 10
-0.4002684632
 20
0.0367985684
 40
27.2953831688
100
AcDbArc
 50
358.1448454254
 51
359.0456690057
  0
ARC
  5
820
100
AcDbEntity
  8
0
100
AcDbCircle
 62
7
  6
CONTINUOUS
 10
-0.4002684632
 20
0.0367985684
 40
27.2953831688
100
AcDbArc
 50
81.1798521708
 51
89.0456690057
  0
ARC
  5
821
100
AcDbEntity
  8
0
100
AcDbCircle
 62
7
  6
CONTINUOUS
 10
-0.4002684632
 20
0.0367985684
 40
27.2953831688
100
AcDbArc
 50
90.9543309943
 51
98.8201478292
  0
ARC
  5
822
100
AcDbEntity
  8
0
100
AcDbCircle
 62
7
  6
CONTINUOUS
 10
-0.4002684632
 20
0.0367985684
 40
27.2953831688
100
AcDbArc
 50
261.1798521708
 51
269.0456690057
  0
ARC
  5
823
100
AcDbEntity
  8
0
100
AcDbCircle
 62
7
  6
CONTINUOUS
 10
-0.4002684632
 20
0.0367985684
 40
27.2953831688
100
AcDbArc
 50
270.9543309943
 51
278.8201478292
  0
ARC
  5
824
100
AcDbEntity
  8
0
100
AcDbCircle
 62
7
  6
CONTINUOUS
 10
-0.4002684632
 20
0.0367985684
 40
25.5953831688
100
AcDbArc
 50
261.1798521708
 51
268.9822775726
  0
ARC
  5
825
100
AcDbEntity
  8
0
100
AcDbCircle
 62
7
  6
CONTINUOUS
 10
-0.4002684632
 20
0.0367985684
 40
25.5953831688
100
AcDbArc
 50
271.0177224274
 51
278.8201478292
  0
ARC
  5
826
100
AcDbEntity
  8
0
100
AcDbCircle
 62
7
  6
CONTINUOUS
 10
-0.4002684632
 20
0.0367985684
 40
25.5953831688
100
AcDbArc
 50
1.0177224274
 51
8.8201478292
  0
ARC
  5
827
100
AcDbEntity
  8
0
100
AcDbCircle
 62
7
  6
CONTINUOUS
 10
-0.4002684632
 20
0.0367985684
 40
25.5953831688
100
AcDbArc
 50
351.1798521708
 51
358.9822775726
  0
ARC
  5
828
100
AcDbEntity
  8
0
100
AcDbCircle
 62
7
  6
CONTINUOUS
 10
-0.4002684632
 20
0.0367985684
 40
25.5953831688
100
AcDbArc
 50
181.0177224274
 51
188.8201478292
  0
ARC
  5
829
100
AcDbEntity
  8
0
100
AcDbCircle
 62
7
  6
CONTINUOUS
 10
-0.4002684632
 20
0.0367985684
 40
25.5953831688
100
AcDbArc
 50
171.1798521708
 51
178.8806687549
  0
ARC
  5
82A
100
AcDbEntity
  8
0
100
AcDbCircle
 62
7
  6
CONTINUOUS
 10
-0.4002684632
 20
0.0367985684
 40
25.5953831688
100
AcDbArc
 50
81.1798521708
 51
88.9822775726
  0
ARC
  5
82B
100
AcDbEntity
  8
0
100
AcDbCircle
 62
7
  6
CONTINUOUS
 10
-0.4002684632
 20
0.0367985684
 40
25.5953831688
100
AcDbArc
 50
91.0177224274
 51
98.8201478292
  0
ARC
  5
82C
100
AcDbEntity
  8
0
100
AcDbCircle
 62
7
  6
CONTINUOUS
 10
-0.4002684632
 20
0.0367985684
 40
25.553491013
100
AcDbArc
 50
1.1133374979
 51
8.8201478292
  0
ARC
  5
82D
100
AcDbEntity
  8
0
100
AcDbCircle
 62
7
  6
CONTINUOUS
 10
-0.4002684632
 20
0.0367985684
 40
25.553491013
100
AcDbArc
 50
351.1798521708
 51
358.8866625021
  0
ARC
  5
82E
100
AcDbEntity
  8
0
100
AcDbCircle
 62
7
  6
CONTINUOUS
 10
-0.4002684632
 20
0.0367985684
 40
25.553491013
100
AcDbArc
 50
181.1133374979
 51
188.8201478292
  0
ARC
  5
82F
100
AcDbEntity
  8
0
100
AcDbCircle
 62
7
  6
CONTINUOUS
 10
-0.4002684632
 20
0.0367985684
 40
25.553491013
100
AcDbArc
 50
171.1798521708
 51
178.8788334996
  0
ARC
  5
830
100
AcDbEntity
  8
0
100
AcDbCircle
 62
7
  6
CONTINUOUS
 10
-0.4002684632
 20
0.0367985684
 40
25.55
100
AcDbArc
 50
91.12131971
 51
98.8201478292
  0
ARC
  5
831
100
AcDbEntity
  8
0
100
AcDbCircle
 62
7
  6
CONTINUOUS
 10
-0.4002684632
 20
0.0367985684
 40
25.55
100
AcDbArc
 50
81.1798521708
 51
88.87868029
  0
ARC
  5
832
100
AcDbEntity
  8
0
100
AcDbCircle
 62
7
  6
CONTINUOUS
 10
-0.4002684632
 20
0.0367985684
 40
25.55
100
AcDbArc
 50
271.12131971
 51
278.8201478292
  0
ARC
  5
833
100
AcDbEntity
  8
0
100
AcDbCircle
 62
7
  6
CONTINUOUS
 10
-0.4002684632
 20
0.0367985684
 40
25.55
100
AcDbArc
 50
261.1798521708
 51
268.87868029
  0
ARC
  5
834
100
AcDbEntity
  8
0
100
AcDbCircle
 62
7
  6
CONTINUOUS
 10
4.1997315368
 20
29.6820342733
 40
4.45
100
AcDbArc
 50
261.1798521708
 51
283.6479267441
  0
ARC
  5
835
100
AcDbEntity
  8
0
100
AcDbCircle
 62
7
  6
CONTINUOUS
 10
4.1997315368
 20
29.6820342733
 40
4.45
100
AcDbArc
 50
341.7275370982
 51
81.1798521708
  0
ARC
  5
836
100
AcDbEntity
  8
0
100
AcDbCircle
 62
7
  6
CONTINUOUS
 10
4.1997315368
 20
29.6820342733
 40
4.4046168312
100
AcDbArc
 50
340.9089557684
 51
81.1798521708
  0
ARC
  5
837
100
AcDbEntity
  8
0
100
AcDbCircle
 62
7
  6
CONTINUOUS
 10
4.1997315368
 20
29.6820342733
 40
4.4046168312
100
AcDbArc
 50
261.1798521708
 51
284.3999933664
  0
ARC
  5
838
100
AcDbEntity
  8
0
100
AcDbCircle
 62
7
  6
CONTINUOUS
 10
4.1997315368
 20
29.6820342733
 40
2.7046168312
100
AcDbArc
 50
261.1798521708
 51
81.1798521708
  0
ARC
  5
839
100
AcDbEntity
  8
0
100
AcDbCircle
 62
7
  6
CONTINUOUS
 10
4.1997315368
 20
29.6820342733
 40
2.6801797403
100
AcDbArc
 50
261.1798521708
 51
81.1798521708
  0
ARC
  5
83A
100
AcDbEntity
  8
0
100
AcDbCircle
 62
7
  6
CONTINUOUS
 10
4.1997315368
 20
29.6820342733
 40
1.6063623377
100
AcDbArc
 50
261.1798521708
 51
81.1798521708
  0
CIRCLE
  5
83B
100
AcDbEntity
  8
0
100
AcDbCircle
 62
7
  6
CONTINUOUS
 10
-0.4002684632
 20
43.5367985684
 40
1.0
  0
ARC
  5
83C
100
AcDbEntity
  8
0
100
AcDbCircle
 62
7
  6
CONTINUOUS
 10
29.2449672418
 20
4.6367985684
 40
4.446508987
100
AcDbArc
 50
152.4953272411
 51
188.8201478292
  0
ARC
  5
83D
100
AcDbEntity
  8
0
100
AcDbCircle
 62
7
  6
CONTINUOUS
 10
29.2449672418
 20
4.6367985684
 40
4.446508987
100
AcDbArc
 50
8.8201478292
 51
106.9823939927
  0
ARC
  5
83E
100
AcDbEntity
  8
0
100
AcDbCircle
 62
7
  6
CONTINUOUS
 10
29.2449672418
 20
4.6367985684
 40
4.4046168312
100
AcDbArc
 50
151.5934817221
 51
188.8201478292
  0
ARC
  5
83F
100
AcDbEntity
  8
0
100
AcDbCircle
 62
7
  6
CONTINUOUS
 10
29.2449672418
 20
4.6367985684
 40
4.4046168312
100
AcDbArc
 50
8.8201478292
 51
107.7200696412
  0
ARC
  5
840
100
AcDbEntity
  8
0
100
AcDbCircle
 62
7
  6
CONTINUOUS
 10
29.2449672418
 20
4.6367985684
 40
2.7046168312
100
AcDbArc
 50
8.8201478292
 51
188.8201478292
  0
ARC
  5
841
100
AcDbEntity
  8
0
100
AcDbCircle
 62
7
  6
CONTINUOUS
 10
29.2449672418
 20
4.6367985684
 40
2.6801797403
100
AcDbArc
 50
8.8201478292
 51
188.8201478292
  0
ARC
  5
842
100
AcDbEntity
  8
0
100
AcDbCircle
 62
7
  6
CONTINUOUS
 10
29.2449672418
 20
4.6367985684
 40
1.6063623377
100
AcDbArc
 50
8.8201478292
 51
188.8201478292
  0
CIRCLE
  5
843
100
AcDbEntity
  8
0
100
AcDbCircle
 62
7
  6
CONTINUOUS
 10
43.0997315368
 20
0.0367985684
 40
1.0
  0
ARC
  5
844
100
AcDbEntity
  8
0
100
AcDbCircle
 62
7
  6
CONTINUOUS
 10
24.4497315368
 20
14.4867985684
 40
0.3
100
AcDbArc
 50
90.0
 51
180.0
  0
ARC
  5
845
100
AcDbEntity
  8
0
100
AcDbCircle
 62
7
  6
CONTINUOUS
 10
25.5254674681
 20
14.4867985684
 40
0.3
100
AcDbArc
 50
45.0
 51
90.0
  0
ARC
  5
846
100
AcDbEntity
  8
0
100
AcDbCircle
 62
7
  6
CONTINUOUS
 10
26.5497315368
 20
13.4625344997
 40
0.3
100
AcDbArc
 50
0.0
 51
45.0
  0
ARC
  5
847
100
AcDbEntity
  8
0
100
AcDbCircle
 62
7
  6
CONTINUOUS
 10
26.5497315368
 20
9.1110626371
 40
0.3
100
AcDbArc
 50
315.0
 51
360.0
  0
ARC
  5
848
100
AcDbEntity
  8
0
100
AcDbCircle
 62
7
  6
CONTINUOUS
 10
25.5254674681
 20
8.0867985684
 40
0.3
100
AcDbArc
 50
270.0
 51
315.0
  0
ARC
  5
849
100
AcDbEntity
  8
0
100
AcDbCircle
 62
7
  6
CONTINUOUS
 10
24.4497315368
 20
8.0867985684
 40
0.3
100
AcDbArc
 50
180.0
 51
270.0
  0
ARC
  5
84A
100
AcDbEntity
  8
0
100
AcDbCircle
 62
7
  6
CONTINUOUS
 10
35.9997315368
 20
36.4367985684
 40
5.0698202597
100
AcDbArc
 50
0.0
 51
90.0
  0
ARC
  5
84B
100
AcDbEntity
  8
0
100
AcDbCircle
 62
7
  6
CONTINUOUS
 10
35.9997315368
 20
36.4367985684
 40
5.0
100
AcDbArc
 50
0.0
 51
90.0
  0
ARC
  5
84C
100
AcDbEntity
  8
0
100
AcDbCircle
 62
7
  6
CONTINUOUS
 10
34.5997315368
 20
35.0367985684
 40
3.0556349186
100
AcDbArc
 50
9.4177803814
 51
80.5822196186
  0
ARC
  5
84D
100
AcDbEntity
  8
0
100
AcDbCircle
 62
7
  6
CONTINUOUS
 10
34.5997315368
 20
35.0367985684
 40
3.0556349186
100
AcDbArc
 50
279.4177803814
 51
350.5822196186
  0
ARC
  5
84E
100
AcDbEntity
  8
0
100
AcDbCircle
 62
7
  6
CONTINUOUS
 10
34.5997315368
 20
35.0367985684
 40
3.0556349186
100
AcDbArc
 50
99.4177803814
 51
170.5822196186
  0
ARC
  5
84F
100
AcDbEntity
  8
0
100
AcDbCircle
 62
7
  6
CONTINUOUS
 10
34.5997315368
 20
35.0367985684
 40
3.0556349186
100
AcDbArc
 50
189.4177803814
 51
260.5822196186
  0
ARC
  5
850
100
AcDbEntity
  8
0
100
AcDbCircle
 62
7
  6
CONTINUOUS
 10
34.5997315368
 20
35.0367985684
 40
2.5919055742
100
AcDbArc
 50
100.9402547585
 51
169.0597452415
  0
ARC
  5
851
100
AcDbEntity
  8
0
100
AcDbCircle
 62
7
  6
CONTINUOUS
 10
34.5997315368
 20
35.0367985684
 40
2.5919055742
100
AcDbArc
 50
10.9402547585
 51
79.0597452415
  0
ARC
  5
852
100
AcDbEntity
  8
0
100
AcDbCircle
 62
7
  6
CONTINUOUS
 10
34.5997315368
 20
35.0367985684
 40
2.5919055742
100
AcDbArc
 50
190.9402547585
 51
259.0597452415
  0
ARC
  5
853
100
AcDbEntity
  8
0
100
AcDbCircle
 62
7
  6
CONTINUOUS
 10
34.5997315368
 20
35.0367985684
 40
2.5919055742
100
AcDbArc
 50
280.9402547585
 51
349.0597452415
  0
ARC
  5
854
100
AcDbEntity
  8
0
100
AcDbCircle
 62
7
  6
CONTINUOUS
 10
34.5997315368
 20
35.0367985684
 40
2.5301797403
100
AcDbArc
 50
99.7889492891
 51
170.2110507109
  0
ARC
  5
855
100
AcDbEntity
  8
0
100
AcDbCircle
 62
7
  6
CONTINUOUS
 10
34.5997315368
 20
35.0367985684
 40
2.5301797403
100
AcDbArc
 50
189.7889492891
 51
260.2110507109
  0
ARC
  5
856
100
AcDbEntity
  8
0
100
AcDbCircle
 62
7
  6
CONTINUOUS
 10
34.5997315368
 20
35.0367985684
 40
2.5301797403
100
AcDbArc
 50
9.7889492891
 51
80.2110507109
  0
ARC
  5
857
100
AcDbEntity
  8
0
100
AcDbCircle
 62
7
  6
CONTINUOUS
 10
34.5997315368
 20
35.0367985684
 40
2.5301797403
100
AcDbArc
 50
279.7889492891
 51
350.2110507109
  0
ARC
  5
858
100
AcDbEntity
  8
0
100
AcDbCircle
 62
7
  6
CONTINUOUS
 10
45.4997315368
 20
45.9367985684
 40
1.5
100
AcDbArc
 50
0.0
 51
90.0
  0
CIRCLE
  5
859
100
AcDbEntity
  8
0
100
AcDbCircle
 62
7
  6
CONTINUOUS
 10
34.5997315368
 20
35.0367985684
 40
1.4563623377
  0
CIRCLE
  5
85A
100
AcDbEntity
  8
0
100
AcDbCircle
 62
7
  6
CONTINUOUS
 10
42.5997315368
 20
43.0367985684
 40
1.0
  0
ENDSEC
  0
SECTION
  2
OBJECTS
  0
DICTIONARY
  5
C
100
AcDbDictionary
280
0
281
1
  3
ACAD_GROUP
350
D
  3
ACAD_MLINESTYLE
350
17
  3
ACAD_LAYOUT
350
1A
  3
ACAD_PLOTSETTINGS
350
19
  3
ACAD_PLOTSTYLENAME
350
E
  0
DICTIONARY
  5
D
102
{ACAD_REACTORS
330
C
102
}
100
AcDbDictionary
280
0
281
1
  0
ACDBDICTIONARYWDFLT
  5
E
102
{ACAD_REACTORS
330
C
102
}
100
AcDbDictionary
281
1
  3
Normal
350
F
100
AcDbDictionaryWithDefault
340
F
  0
DICTIONARY
  5
17
102
{ACAD_REACTORS
330
C
102
}
100
AcDbDictionary
280
0
281
1
  3
Standard
350
18
  0
DICTIONARY
  5
19
102
{ACAD_REACTORS
330
C
102
}
100
AcDbDictionary
281
1
  0
DICTIONARY
  5
1A
102
{ACAD_REACTORS
330
C
102
}
100
AcDbDictionary
281
1
  3
Model
350
85B
  3
Layout1
350
85C
  0
ACDBPLACEHOLDER
  5
F
102
{ACAD_REACTORS
330
E
102
}
  0
MLINESTYLE
  5
18
102
{ACAD_REACTORS
330
17
102
}
100
AcDbMlineStyle
  2
STANDARD
 70
0
  3

 62
256
 51
90.0
 52
90.0
 71
2
 49
0.5
 62
256
  6
BYLAYER
 49
-0.5
 62
256
  6
BYLAYER
  0
LAYOUT
  5
85B
102
{ACAD_REACTORS
330
1A
102
}
100
AcDbPlotSettings
  1

  2
none_device
  4
ISO_A4_(297.00_x_210.00_MM)
  6

 40
0.0
 41
0.0
 42
0.0
 43
0.0
 44
297.0
 45
210.0
 46
0.0
 47
0.0
 48
0.0
 49
0.0
140
0.0
141
0.0
142
1.0
143
1.0
 70
1024
 72
1
 73
0
 74
0
  7

 75
0
147
1.0
148
0.0
149
0.0
100
AcDbLayout
  1
Model
 70
0
 71
0
 10
0.0
 20
0.0
 11
297.0
 21
210.0
 12
0.0
 22
0.0
 32
0.0
 14
0.0
 24
0.0
 34
0.0
 15
0.0
 25
0.0
 35
0.0
146
0.0
 13
0.0
 23
0.0
 33
0.0
 16
1.0
 26
0.0
 36
0.0
 17
0.0
 27
1.0
 37
0.0
 76
0
330
218
345
0
346
0
  0
LAYOUT
  5
85C
102
{ACAD_REACTORS
330
1A
102
}
100
AcDbPlotSettings
  1

  2
none_device
  4
ISO_A4_(297.00_x_210.00_MM)
  6

 40
0.0
 41
0.0
 42
0.0
 43
0.0
 44
297.0
 45
210.0
 46
0.0
 47
0.0
 48
0.0
 49
0.0
140
0.0
141
0.0
142
1.0
143
1.0
 70
0
 72
1
 73
0
 74
0
  7

 75
0
147
1.0
148
0.0
149
0.0
100
AcDbLayout
  1
Layout1
 70
0
 71
1
 10
0.0
 20
0.0
 11
297.0
 21
210.0
 12
0.0
 22
0.0
 32
0.0
 14
0.0
 24
0.0
 34
0.0
 15
0.0
 25
0.0
 35
0.0
146
0.0
 13
0.0
 23
0.0
 33
0.0
 16
1.0
 26
0.0
 36
0.0
 17
0.0
 27
1.0
 37
0.0
 76
0
330
219
345
0
346
0
  0
ENDSEC
  0
EOF
