  0
SECTION
  2
HEADER
  9
$ACADVER
  1
AC1015
  9
$DWGCODEPAGE
  3
ANSI_1252
  9
$EXTMAX
 10
297.0
 20
210.0
 30
0.0
  9
$EXTMIN
 10
0.0
 20
0.0
 30
0.0
  9
$LIMMIN
 10
0.0
 20
0.0
  9
$LIMMAX
 10
297.0
 20
210.0
  9
$VIEWCTR
 10
148.5
 20
105.0
  9
$VIEWSIZE
 40
210.0
  9
$CLAYER
  8
0
  9
$LTSCALE
 40
16.335
  9
$CELTYPE
  6
BYLAYER
  9
$DIMSCALE
 40
1.0
  9
$DIMASZ
 40
3.0
  9
$DIMEXO
 40
1.85625
  9
$DIMDLI
 40
11.286
  9
$DIMEXE
 40
5.346
  9
$DIMCEN
 40
2.673
  9
$DIMLFAC
 40
1.0
  9
$DIMBLK
  1
_FILLED
  9
$DIMTXT
 40
3.0
  9
$DIMTOL
 70
1
  9
$DIMLIM
 70
0
  9
$DIMTFAC
 40
1.0
  9
$DIMTP
 40
0.01
  9
$DIMTM
 40
0.01
  9
$PDMODE
 70
3
  9
$PDSIZE
 40
3.0
  9
$HANDSEED
  5
86B
  9
$TILEMODE
 70
1
  9
$MEASUREMENT
 70
1
  9
$INSUNITS
 70
4
  0
ENDSEC
  0
SECTION
  2
CLASSES
  0
CLASS
  1
ACDBDICTIONARYWDFLT
  2
AcDbDictionaryWithDefault
  3
AutoCAD 2000
 90
0
280
0
281
0
  0
CLASS
  1
ACDBPLACEHOLDER
  2
AcDbPlaceHolder
  3
AutoCAD 2000
 90
0
280
0
281
0
  0
CLASS
  1
LAYOUT
  2
AcDbLayout
  3
AutoCAD 2000
 90
0
280
0
281
0
  0
ENDSEC
  0
SECTION
  2
TABLES
  0
TABLE
  2
VPORT
  5
8
100
AcDbSymbolTable
 70
2
  0
VPORT
  5
1F4
100
AcDbSymbolTableRecord
100
AcDbViewportTableRecord
  2
*ACTIVE
 70
0
 10
0.0
 20
0.0
 11
1.0
 21
1.0
 12
148.5
 22
105.0
 13
0.0
 23
0.0
 14
1.0
 24
1.0
 15
0.0
 25
0.0
 16
0.0
 26
0.0
 36
1.0
 17
0.0
 27
0.0
 37
0.0
 40
210.0
 41
1.4142857143
 42
50.0
 43
0.0
 44
0.0
 50
0.0
 51
0.0
 71
0
 72
100
 73
1
 74
1
 75
0
 76
0
 77
0
 78
0
  0
ENDTAB
  0
TABLE
  2
LTYPE
  5
5
100
AcDbSymbolTable
 70
6
  0
LTYPE
  5
14
100
AcDbSymbolTableRecord
100
AcDbLinetypeTableRecord
  2
BYBLOCK
 70
0
  3

 72
65
 73
0
 40
0.0
  0
LTYPE
  5
15
100
AcDbSymbolTableRecord
100
AcDbLinetypeTableRecord
  2
BYLAYER
 70
0
  3

 72
65
 73
0
 40
0.0
  0
LTYPE
  5
16
100
AcDbSymbolTableRecord
100
AcDbLinetypeTableRecord
  2
CONTINUOUS
 70
64
  3
Solid line
 72
65
 73
0
 40
0.0
  0
LTYPE
  5
1F5
100
AcDbSymbolTableRecord
100
AcDbLinetypeTableRecord
  2
CENTER
 70
64
  3
____ _ ____ _ ____ _ ____ _ ____ _ ____ _ ____
 72
65
 73
4
 40
0.6
 49
0.375
 74
0
 49
-0.075
 74
0
 49
0.075
 74
0
 49
-0.075
 74
0
  0
LTYPE
  5
1F6
100
AcDbSymbolTableRecord
100
AcDbLinetypeTableRecord
  2
HIDDEN
 70
64
  3
- - - - - - - - - - - - - - - - - - - -
 72
65
 73
2
 40
0.2
 49
0.1
 74
0
 49
-0.1
 74
0
  0
LTYPE
  5
1F7
100
AcDbSymbolTableRecord
100
AcDbLinetypeTableRecord
  2
PHANTOM
 70
64
  3
_____ _ _ _____ _ _ _____ _ _ _____
 72
65
 73
6
 40
0.8
 49
0.45
 74
0
 49
-0.05
 74
0
 49
0.1
 74
0
 49
-0.05
 74
0
 49
0.1
 74
0
 49
-0.05
 74
0
  0
LTYPE
  5
1F8
100
AcDbSymbolTableRecord
100
AcDbLinetypeTableRecord
  2
DOT
 70
64
  3
. . . . . . . . . . . . . . . . . . . .
 72
65
 73
2
 40
0.2
 49
0.1
 74
0
 49
-0.1
 74
0
  0
LTYPE
  5
1F9
100
AcDbSymbolTableRecord
100
AcDbLinetypeTableRecord
  2
DASHED
 70
64
  3
- - - - - - - - - - - - - - - - - - - -
 72
65
 73
2
 40
0.2
 49
0.1
 74
0
 49
-0.1
 74
0
  0
ENDTAB
  0
TABLE
  2
LAYER
  5
2
100
AcDbSymbolTable
 70
36
  0
LAYER
  5
10
100
AcDbSymbolTableRecord
100
AcDbLayerTableRecord
  2
0
 70
0
 62
7
  6
CONTINUOUS
370
-3
390
F
  0
LAYER
  5
1FA
100
AcDbSymbolTableRecord
100
AcDbLayerTableRecord
  2
DEFAULT_1
 70
0
 62
7
  6
CENTER
370
-3
390
F
  0
LAYER
  5
1FB
100
AcDbSymbolTableRecord
100
AcDbLayerTableRecord
  2
DEFAULT_2
 70
0
 62
7
  6
HIDDEN
370
-3
390
F
  0
LAYER
  5
1FC
100
AcDbSymbolTableRecord
100
AcDbLayerTableRecord
  2
DEFAULT_3
 70
0
 62
7
  6
PHANTOM
370
-3
390
F
  0
LAYER
  5
1FD
100
AcDbSymbolTableRecord
100
AcDbLayerTableRecord
  2
ASSI
 70
0
 62
7
  6
CONTINUOUS
370
-3
390
F
  0
LAYER
  5
1FE
100
AcDbSymbolTableRecord
100
AcDbLayerTableRecord
  2
COLOR6
 70
0
 62
7
  6
CONTINUOUS
370
-3
390
F
  0
LAYER
  5
1FF
100
AcDbSymbolTableRecord
100
AcDbLayerTableRecord
  2
COORDINATE
 70
0
 62
7
  6
CONTINUOUS
370
-3
390
F
  0
LAYER
  5
200
100
AcDbSymbolTableRecord
100
AcDbLayerTableRecord
  2
COORD_ORIGINE
 70
0
 62
7
  6
CONTINUOUS
370
-3
390
F
  0
LAYER
  5
201
100
AcDbSymbolTableRecord
100
AcDbLayerTableRecord
  2
COPY_PUBLISH
 70
0
 62
7
  6
CONTINUOUS
370
-3
390
F
  0
LAYER
  5
202
100
AcDbSymbolTableRecord
100
AcDbLayerTableRecord
  2
COSMETIC
 70
0
 62
7
  6
CONTINUOUS
370
-3
390
F
  0
LAYER
  5
203
100
AcDbSymbolTableRecord
100
AcDbLayerTableRecord
  2
CURVE
 70
0
 62
7
  6
CONTINUOUS
370
-3
390
F
  0
LAYER
  5
204
100
AcDbSymbolTableRecord
100
AcDbLayerTableRecord
  2
DRAFT
 70
0
 62
7
  6
CONTINUOUS
370
-3
390
F
  0
LAYER
  5
205
100
AcDbSymbolTableRecord
100
AcDbLayerTableRecord
  2
IMPORT_IGES
 70
0
 62
7
  6
CONTINUOUS
370
-3
390
F
  0
LAYER
  5
206
100
AcDbSymbolTableRecord
100
AcDbLayerTableRecord
  2
INTF_11
 70
0
 62
7
  6
CONTINUOUS
370
-3
390
F
  0
LAYER
  5
207
100
AcDbSymbolTableRecord
100
AcDbLayerTableRecord
  2
LINEA_CHIUSURA
 70
0
 62
7
  6
CONTINUOUS
370
-3
390
F
  0
LAYER
  5
208
100
AcDbSymbolTableRecord
100
AcDbLayerTableRecord
  2
NOTE
 70
0
 62
7
  6
CONTINUOUS
370
-3
390
F
  0
LAYER
  5
209
100
AcDbSymbolTableRecord
100
AcDbLayerTableRecord
  2
PIANI
 70
0
 62
7
  6
CONTINUOUS
370
-3
390
F
  0
LAYER
  5
20A
100
AcDbSymbolTableRecord
100
AcDbLayerTableRecord
  2
PIANI_ORIGINE
 70
0
 62
7
  6
CONTINUOUS
370
-3
390
F
  0
LAYER
  5
20B
100
AcDbSymbolTableRecord
100
AcDbLayerTableRecord
  2
PUNTI
 70
0
 62
7
  6
CONTINUOUS
370
-3
390
F
  0
LAYER
  5
20C
100
AcDbSymbolTableRecord
100
AcDbLayerTableRecord
  2
RACCORDO
 70
0
 62
7
  6
CONTINUOUS
370
-3
390
F
  0
LAYER
  5
20D
100
AcDbSymbolTableRecord
100
AcDbLayerTableRecord
  2
SMUSSO
 70
0
 62
7
  6
CONTINUOUS
370
-3
390
F
  0
LAYER
  5
20E
100
AcDbSymbolTableRecord
100
AcDbLayerTableRecord
  2
SNAPLINE
 70
0
 62
7
  6
CONTINUOUS
370
-3
390
F
  0
LAYER
  5
20F
100
AcDbSymbolTableRecord
100
AcDbLayerTableRecord
  2
SUPERFICI
 70
0
 62
7
  6
CONTINUOUS
370
-3
390
F
  0
LAYER
  5
210
100
AcDbSymbolTableRecord
100
AcDbLayerTableRecord
  2
TRASH
 70
0
 62
7
  6
CONTINUOUS
370
-3
390
F
  0
LAYER
  5
211
100
AcDbSymbolTableRecord
100
AcDbLayerTableRecord
  2
XSEC_DATUMS
 70
0
 62
7
  6
CONTINUOUS
370
-3
390
F
  0
LAYER
  5
212
100
AcDbSymbolTableRecord
100
AcDbLayerTableRecord
  2
___SHELL
 70
0
 62
7
  6
CONTINUOUS
370
-3
390
F
  0
ENDTAB
  0
TABLE
  2
STYLE
  5
3
100
AcDbSymbolTable
 70
1
  0
STYLE
  5
11
100
AcDbSymbolTableRecord
100
AcDbTextStyleTableRecord
  2
STANDARD
 70
0
 40
0.0
 41
0.8
 50
0.0
 71
0
 42
0.2
  3
txt
  4

  0
STYLE
  5
213
100
AcDbSymbolTableRecord
100
AcDbTextStyleTableRecord
  2
TEXTSTYLE_1
 70
0
 40
0.0
 41
0.8
 50
0.0
 71
0
 42
0.2
  3
gdt
  4

  0
ENDTAB
  0
TABLE
  2
VIEW
  5
6
100
AcDbSymbolTable
 70
0
  0
ENDTAB
  0
TABLE
  2
UCS
  5
7
100
AcDbSymbolTable
 70
0
  0
ENDTAB
  0
TABLE
  2
APPID
  5
9
100
AcDbSymbolTable
 70
1
  0
APPID
  5
214
100
AcDbSymbolTableRecord
100
AcDbRegAppTableRecord
  2
ACAD
 70
0
  0
ENDTAB
  0
TABLE
  2
BLOCK_RECORD
  5
1
100
AcDbSymbolTable
 70
0
  0
BLOCK_RECORD
  5
215
100
AcDbSymbolTableRecord
100
AcDbBlockTableRecord
  2
*Model_Space
  0
BLOCK_RECORD
  5
216
100
AcDbSymbolTableRecord
100
AcDbBlockTableRecord
  2
*Paper_Space
  0
ENDTAB
  0
TABLE
  2
DIMSTYLE
  5
A
100
AcDbSymbolTable
 70
1
100
AcDbDimStyleTable
 71
0
  0
DIMSTYLE
105
217
100
AcDbSymbolTableRecord
100
AcDbDimStyleTableRecord
  2
STANDARD
 70
0
  3

  4

 40
1.0
 41
3.0
 42
0.0625
 43
0.38
 44
0.18
 45
0.0
 46
0.0
 47
0.01
 48
0.01
140
3.0
141
0.09
142
0.0
143
25.4
144
1.0
145
0.0
146
1.0
147
0.09
 71
1.0
 72
0.0
 73
0
 74
0
 75
0
 76
0
 77
1
 78
8
170
0
171
2
172
0
173
0
174
0
175
0
176
0
177
0
178
0
270
2
271
2
272
2
273
2
274
2
275
0
280
0
281
0
282
0
283
1
284
8
285
0
286
0
287
3
288
0
340
11
  0
ENDTAB
  0
ENDSEC
  0
SECTION
  2
BLOCKS
  0
BLOCK
  5
20
100
AcDbEntity
  8
0
100
AcDbBlockBegin
  2
*Model_Space
 70
0
 10
0.0
 20
0.0
 30
0.0
  3
*Model_Space
  1

  0
ENDBLK
  5
21
100
AcDbEntity
  8
0
100
AcDbBlockEnd
  0
BLOCK
  5
1C
100
AcDbEntity
  8
0
100
AcDbBlockBegin
  2
*Paper_Space
 70
0
 10
0.0
 20
0.0
 30
0.0
  3
*Paper_Space
  1

  0
ENDBLK
  5
1D
100
AcDbEntity
  8
0
100
AcDbBlockEnd
  0
ENDSEC
  0
SECTION
  2
ENTITIES
  0
LINE
  5
218
100
AcDbEntity
  8
RACCORDO
100
AcDbLine
 62
7
  6
CONTINUOUS
 10
-37.1
 20
-15.9000456915
 11
-37.1
 21
-13.0999543085
  0
LINE
  5
219
100
AcDbEntity
  8
RACCORDO
100
AcDbLine
 62
7
  6
CONTINUOUS
 10
-37.1
 20
15.2999543085
 11
-37.1
 21
18.1000456915
  0
LINE
  5
21A
100
AcDbEntity
  8
RACCORDO
100
AcDbLine
 62
7
  6
CONTINUOUS
 10
-35.6
 20
15.9000761524
 11
-35.6
 21
15.2999543085
  0
LINE
  5
21B
100
AcDbEntity
  8
RACCORDO
100
AcDbLine
 62
7
  6
CONTINUOUS
 10
-35.6
 20
-15.2999238476
 11
-35.6
 21
-15.9000456915
  0
LINE
  5
21C
100
AcDbEntity
  8
RACCORDO
100
AcDbLine
 62
7
  6
CONTINUOUS
 10
-35.25
 20
28.85
 11
-35.25
 21
18.8999238476
  0
LINE
  5
21D
100
AcDbEntity
  8
RACCORDO
100
AcDbLine
 62
7
  6
CONTINUOUS
 10
-35.25
 20
12.400030461
 11
-35.25
 21
-12.3000761524
  0
LINE
  5
21E
100
AcDbEntity
  8
DRAFT
100
AcDbLine
 62
7
  6
CONTINUOUS
 10
-35.25
 20
-18.6
 11
-35.25
 21
-28.85
  0
LINE
  5
21F
100
AcDbEntity
  8
RACCORDO
100
AcDbLine
 62
7
  6
CONTINUOUS
 10
15.9000456915
 20
-37.1
 11
13.0999543085
 21
-37.1
  0
LINE
  5
220
100
AcDbEntity
  8
RACCORDO
100
AcDbLine
 62
7
  6
CONTINUOUS
 10
-15.2999543085
 20
-37.1
 11
-18.1000456915
 21
-37.1
  0
LINE
  5
221
100
AcDbEntity
  8
RACCORDO
100
AcDbLine
 62
7
  6
CONTINUOUS
 10
-15.9000761524
 20
-35.6
 11
-15.2999543085
 21
-35.6
  0
LINE
  5
222
100
AcDbEntity
  8
RACCORDO
100
AcDbLine
 62
7
  6
CONTINUOUS
 10
15.2999238476
 20
-35.6
 11
15.9000456915
 21
-35.6
  0
LINE
  5
223
100
AcDbEntity
  8
RACCORDO
100
AcDbLine
 62
7
  6
CONTINUOUS
 10
-28.85
 20
-35.25
 11
-18.8999238476
 21
-35.25
  0
LINE
  5
224
100
AcDbEntity
  8
RACCORDO
100
AcDbLine
 62
7
  6
CONTINUOUS
 10
-12.3000456915
 20
-35.25
 11
12.3000761524
 21
-35.25
  0
LINE
  5
225
100
AcDbEntity
  8
RACCORDO
100
AcDbLine
 62
7
  6
CONTINUOUS
 10
18.8999543085
 20
-35.25
 11
28.85
 21
-35.25
  0
LINE
  5
226
100
AcDbEntity
  8
0
100
AcDbLine
 62
7
  6
CONTINUOUS
 10
-34.25
 20
8.2947330149
 11
-34.25
 21
-8.2947330149
  0
LINE
  5
227
100
AcDbEntity
  8
ASSI
100
AcDbLine
 62
7
  6
CONTINUOUS
 10
-34.25
 20
8.2947330149
 11
-34.25
 21
-8.2947330149
  0
LINE
  5
228
100
AcDbEntity
  8
RACCORDO
100
AcDbLine
 62
7
  6
CONTINUOUS
 10
-33.7
 20
15.9000761524
 11
-33.7
 21
15.25
  0
LINE
  5
229
100
AcDbEntity
  8
RACCORDO
100
AcDbLine
 62
7
  6
CONTINUOUS
 10
-33.7
 20
14.85
 11
-33.7
 21
12.8499619238
  0
LINE
  5
22A
100
AcDbEntity
  8
RACCORDO
100
AcDbLine
 62
7
  6
CONTINUOUS
 10
-33.7
 20
-15.2999238476
 11
-33.7
 21
-16.55
  0
LINE
  5
22B
100
AcDbEntity
  8
RACCORDO
100
AcDbLine
 62
7
  6
CONTINUOUS
 10
-33.7
 20
-16.95
 11
-33.7
 21
-18.3500380762
  0
LINE
  5
22C
100
AcDbEntity
  8
0
100
AcDbLine
 62
253
  6
CONTINUOUS
 10
-31.3947330149
 20
-28.3951899294
 11
-31.3947330149
 21
-10.4943979443
  0
LINE
  5
22D
100
AcDbEntity
  8
ASSI
100
AcDbLine
 62
7
  6
CONTINUOUS
 10
-31.3947330149
 20
-28.395350521
 11
-31.3947330149
 21
-10.4942865255
  0
LINE
  5
22E
100
AcDbEntity
  8
0
100
AcDbLine
 62
253
  6
CONTINUOUS
 10
-31.3947330149
 20
10.4943979443
 11
-31.3947330149
 21
28.3951899294
  0
LINE
  5
22F
100
AcDbEntity
  8
ASSI
100
AcDbLine
 62
7
  6
CONTINUOUS
 10
-31.3947330149
 20
10.4942915205
 11
-31.3947330149
 21
28.3953688437
  0
LINE
  5
230
100
AcDbEntity
  8
0
100
AcDbLine
 62
7
  6
CONTINUOUS
 10
-8.2947330149
 20
-34.25
 11
8.2947330149
 21
-34.25
  0
LINE
  5
231
100
AcDbEntity
  8
ASSI
100
AcDbLine
 62
7
  6
CONTINUOUS
 10
-8.2947330149
 20
-34.25
 11
8.2947330149
 21
-34.25
  0
LINE
  5
232
100
AcDbEntity
  8
RACCORDO
100
AcDbLine
 62
7
  6
CONTINUOUS
 10
-15.9000761524
 20
-33.7
 11
-15.25
 21
-33.7
  0
LINE
  5
233
100
AcDbEntity
  8
RACCORDO
100
AcDbLine
 62
7
  6
CONTINUOUS
 10
-14.85
 20
-33.7
 11
-12.8499619238
 21
-33.7
  0
LINE
  5
234
100
AcDbEntity
  8
RACCORDO
100
AcDbLine
 62
7
  6
CONTINUOUS
 10
15.2999238476
 20
-33.7
 11
16.55
 21
-33.7
  0
LINE
  5
235
100
AcDbEntity
  8
RACCORDO
100
AcDbLine
 62
7
  6
CONTINUOUS
 10
16.95
 20
-33.7
 11
18.3500380762
 21
-33.7
  0
LINE
  5
236
100
AcDbEntity
  8
0
100
AcDbLine
 62
253
  6
CONTINUOUS
 10
28.3951899294
 20
-31.3947330149
 11
10.4943979443
 21
-31.3947330149
  0
LINE
  5
237
100
AcDbEntity
  8
ASSI
100
AcDbLine
 62
7
  6
CONTINUOUS
 10
28.395350521
 20
-31.3947330149
 11
10.4942865255
 21
-31.3947330149
  0
LINE
  5
238
100
AcDbEntity
  8
0
100
AcDbLine
 62
253
  6
CONTINUOUS
 10
-10.4943979443
 20
-31.3947330149
 11
-28.3951899294
 21
-31.3947330149
  0
LINE
  5
239
100
AcDbEntity
  8
ASSI
100
AcDbLine
 62
7
  6
CONTINUOUS
 10
-10.4942915205
 20
-31.3947330149
 11
-28.3953688437
 21
-31.3947330149
  0
LINE
  5
23A
100
AcDbEntity
  8
DRAFT
100
AcDbLine
 62
7
  6
CONTINUOUS
 10
-14.0209673614
 20
27.2006196883
 11
-15.7047857445
 21
25.5168013052
  0
LINE
  5
23B
100
AcDbEntity
  8
DRAFT
100
AcDbLine
 62
7
  6
CONTINUOUS
 10
-14.0065071122
 20
27.1657095584
 11
-15.7095192183
 21
25.4626974523
  0
LINE
  5
23C
100
AcDbEntity
  8
0
100
AcDbLine
 62
7
  6
CONTINUOUS
 10
-25.95
 20
14.75
 11
-27.25
 21
13.45
  0
LINE
  5
23D
100
AcDbEntity
  8
DRAFT
100
AcDbLine
 62
7
  6
CONTINUOUS
 10
-12.15
 20
27.1657095584
 11
-12.1657095584
 21
27.15
  0
LINE
  5
23E
100
AcDbEntity
  8
RACCORDO
100
AcDbLine
 62
7
  6
CONTINUOUS
 10
-14.1311629851
 20
25.05
 11
-14.5119807973
 21
24.9158971781
  0
LINE
  5
23F
100
AcDbEntity
  8
0
100
AcDbLine
 62
7
  6
CONTINUOUS
 10
-17.5
 20
-27.9
 11
-8.4
 21
-27.9
  0
LINE
  5
240
100
AcDbEntity
  8
ASSI
100
AcDbLine
 62
7
  6
CONTINUOUS
 10
-17.5
 20
-27.9
 11
-8.4
 21
-27.9
  0
LINE
  5
241
100
AcDbEntity
  8
0
100
AcDbLine
 62
7
  6
CONTINUOUS
 10
8.4
 20
-27.9
 11
17.5
 21
-27.9
  0
LINE
  5
242
100
AcDbEntity
  8
ASSI
100
AcDbLine
 62
7
  6
CONTINUOUS
 10
8.4
 20
-27.9
 11
17.5
 21
-27.9
  0
LINE
  5
243
100
AcDbEntity
  8
RACCORDO
100
AcDbLine
 62
7
  6
CONTINUOUS
 10
-14.1311629851
 20
-25.05
 11
-14.5119807973
 21
-24.9158971781
  0
LINE
  5
244
100
AcDbEntity
  8
DRAFT
100
AcDbLine
 62
7
  6
CONTINUOUS
 10
-15.7047857445
 20
-25.5168013052
 11
-14.0209673614
 21
-27.2006196883
  0
LINE
  5
245
100
AcDbEntity
  8
DRAFT
100
AcDbLine
 62
7
  6
CONTINUOUS
 10
-15.7095192183
 20
-25.4626974523
 11
-14.0065071122
 21
-27.1657095584
  0
LINE
  5
246
100
AcDbEntity
  8
0
100
AcDbLine
 62
7
  6
CONTINUOUS
 10
-27.25
 20
-13.45
 11
-25.95
 21
-14.75
  0
LINE
  5
247
100
AcDbEntity
  8
DRAFT
100
AcDbLine
 62
7
  6
CONTINUOUS
 10
-12.15
 20
-27.1657095584
 11
-12.1657095584
 21
-27.15
  0
LINE
  5
248
100
AcDbEntity
  8
0
100
AcDbLine
 62
7
  6
CONTINUOUS
 10
-27.25
 20
13.45
 11
-27.25
 21
9.05
  0
LINE
  5
249
100
AcDbEntity
  8
0
100
AcDbLine
 62
7
  6
CONTINUOUS
 10
-27.25
 20
-9.05
 11
-27.25
 21
-13.45
  0
LINE
  5
24A
100
AcDbEntity
  8
DRAFT
100
AcDbLine
 62
7
  6
CONTINUOUS
 10
-27.0
 20
-12.0830127019
 11
-27.0
 21
-10.4169872981
  0
LINE
  5
24B
100
AcDbEntity
  8
DRAFT
100
AcDbLine
 62
7
  6
CONTINUOUS
 10
-27.0
 20
10.4169872981
 11
-27.0
 21
12.0830127019
  0
LINE
  5
24C
100
AcDbEntity
  8
ASSI
100
AcDbLine
 62
7
  6
CONTINUOUS
 10
-25.55
 20
6.4500456915
 11
-25.55
 21
-6.4500456915
  0
LINE
  5
24D
100
AcDbEntity
  8
RACCORDO
100
AcDbLine
 62
253
  6
CONTINUOUS
 10
-25.4992889218
 20
6.3993346133
 11
-25.4992889218
 21
-6.3993346133
  0
LINE
  5
24E
100
AcDbEntity
  8
RACCORDO
100
AcDbLine
 62
253
  6
CONTINUOUS
 10
-25.1993346133
 20
-6.6992889218
 11
-25.1993346133
 21
6.6992889218
  0
LINE
  5
24F
100
AcDbEntity
  8
RACCORDO
100
AcDbLine
 62
7
  6
CONTINUOUS
 10
-24.7
 20
7.75
 11
-24.7
 21
6.75
  0
LINE
  5
250
100
AcDbEntity
  8
ASSI
100
AcDbLine
 62
7
  6
CONTINUOUS
 10
-24.7
 20
7.75
 11
-24.7
 21
6.75
  0
LINE
  5
251
100
AcDbEntity
  8
RACCORDO
100
AcDbLine
 62
7
  6
CONTINUOUS
 10
-24.7
 20
-6.75
 11
-24.7
 21
-7.75
  0
LINE
  5
252
100
AcDbEntity
  8
ASSI
100
AcDbLine
 62
7
  6
CONTINUOUS
 10
-24.7
 20
-6.75
 11
-24.7
 21
-7.75
  0
LINE
  5
253
100
AcDbEntity
  8
0
100
AcDbLine
 62
7
  6
CONTINUOUS
 10
-24.5814191169
 20
-14.75
 11
-24.5814191169
 21
-7.75
  0
LINE
  5
254
100
AcDbEntity
  8
0
100
AcDbLine
 62
7
  6
CONTINUOUS
 10
-24.5814191169
 20
7.75
 11
-24.5814191169
 21
14.75
  0
LINE
  5
255
100
AcDbEntity
  8
ASSI
100
AcDbLine
 62
7
  6
CONTINUOUS
 10
-24.55
 20
-16.7148885728
 11
-24.55
 21
-14.75
  0
LINE
  5
256
100
AcDbEntity
  8
DRAFT
100
AcDbLine
 62
7
  6
CONTINUOUS
 10
-24.55
 20
-7.75
 11
-24.55
 21
-6.75
  0
LINE
  5
257
100
AcDbEntity
  8
DRAFT
100
AcDbLine
 62
7
  6
CONTINUOUS
 10
-24.55
 20
6.75
 11
-24.55
 21
7.75
  0
LINE
  5
258
100
AcDbEntity
  8
ASSI
100
AcDbLine
 62
7
  6
CONTINUOUS
 10
-24.55
 20
14.75
 11
-24.55
 21
16.7148885728
  0
LINE
  5
259
100
AcDbEntity
  8
RACCORDO
100
AcDbLine
 62
7
  6
CONTINUOUS
 10
-24.4941437922
 20
-6.3993346133
 11
-24.4941437922
 21
6.3993346133
  0
LINE
  5
25A
100
AcDbEntity
  8
RACCORDO
100
AcDbLine
 62
253
  6
CONTINUOUS
 10
-24.3614243722
 20
-16.6566854756
 11
-24.3614243722
 21
16.6566854756
  0
LINE
  5
25B
100
AcDbEntity
  8
RACCORDO
100
AcDbLine
 62
253
  6
CONTINUOUS
 10
-24.1614548332
 20
16.594742685
 11
-24.1614548332
 21
12.752454773
  0
LINE
  5
25C
100
AcDbEntity
  8
RACCORDO
100
AcDbLine
 62
253
  6
CONTINUOUS
 10
-24.1614548332
 20
12.247545227
 11
-24.1614548332
 21
-12.247545227
  0
LINE
  5
25D
100
AcDbEntity
  8
RACCORDO
100
AcDbLine
 62
253
  6
CONTINUOUS
 10
-24.1614548332
 20
-12.752454773
 11
-24.1614548332
 21
-16.594742685
  0
LINE
  5
25E
100
AcDbEntity
  8
DRAFT
100
AcDbLine
 62
7
  6
CONTINUOUS
 10
-12.1111581471
 20
27.2006196883
 11
-12.1379456318
 21
27.1657095584
  0
LINE
  5
25F
100
AcDbEntity
  8
DRAFT
100
AcDbLine
 62
7
  6
CONTINUOUS
 10
-11.9101888183
 20
26.3157095584
 11
-11.8834013335
 21
26.3506196883
  0
LINE
  5
260
100
AcDbEntity
  8
DRAFT
100
AcDbLine
 62
7
  6
CONTINUOUS
 10
-8.5
 20
27.1657095584
 11
-8.5157095584
 21
27.15
  0
LINE
  5
261
100
AcDbEntity
  8
RACCORDO
100
AcDbLine
 62
253
  6
CONTINUOUS
 10
-3.8348804397
 20
24.0006653867
 11
-4.121839318
 21
23.9132139806
  0
LINE
  5
262
100
AcDbEntity
  8
RACCORDO
100
AcDbLine
 62
253
  6
CONTINUOUS
 10
5.9094770665
 20
-24.6114548332
 11
5.7102684719
 21
-24.6288833269
  0
LINE
  5
263
100
AcDbEntity
  8
RACCORDO
100
AcDbLine
 62
253
  6
CONTINUOUS
 10
5.8619784041
 20
-24.068542638
 11
5.6627698096
 21
-24.0859711317
  0
LINE
  5
264
100
AcDbEntity
  8
RACCORDO
100
AcDbLine
 62
253
  6
CONTINUOUS
 10
13.8105560285
 20
-24.8363612032
 11
14.4855460317
 21
-24.8142024947
  0
LINE
  5
265
100
AcDbEntity
  8
RACCORDO
100
AcDbLine
 62
253
  6
CONTINUOUS
 10
13.6339527087
 20
-24.6363921173
 11
14.3089619125
 21
-24.6142327784
  0
LINE
  5
266
100
AcDbEntity
  8
RACCORDO
100
AcDbLine
 62
253
  6
CONTINUOUS
 10
-8.6894439715
 20
-24.8363612032
 11
-8.0144539683
 21
-24.8142024947
  0
LINE
  5
267
100
AcDbEntity
  8
RACCORDO
100
AcDbLine
 62
253
  6
CONTINUOUS
 10
-8.8660472913
 20
-24.6363921173
 11
-8.1910380875
 21
-24.6142327784
  0
LINE
  5
268
100
AcDbEntity
  8
DRAFT
100
AcDbLine
 62
7
  6
CONTINUOUS
 10
-14.0209673614
 20
-27.2006196883
 11
-12.1111581471
 21
-27.2006196883
  0
LINE
  5
269
100
AcDbEntity
  8
DRAFT
100
AcDbLine
 62
7
  6
CONTINUOUS
 10
-10.3888418529
 20
-27.2006196883
 11
-8.4790326386
 21
-27.2006196883
  0
LINE
  5
26A
100
AcDbEntity
  8
DRAFT
100
AcDbLine
 62
7
  6
CONTINUOUS
 10
8.4790326386
 20
-27.2006196883
 11
10.3888418529
 21
-27.2006196883
  0
LINE
  5
26B
100
AcDbEntity
  8
DRAFT
100
AcDbLine
 62
7
  6
CONTINUOUS
 10
12.1111581471
 20
-27.2006196883
 11
14.0209673614
 21
-27.2006196883
  0
LINE
  5
26C
100
AcDbEntity
  8
DRAFT
100
AcDbLine
 62
7
  6
CONTINUOUS
 10
-14.0065071122
 20
-27.1657095584
 11
-14.0
 21
-27.1657095584
  0
LINE
  5
26D
100
AcDbEntity
  8
DRAFT
100
AcDbLine
 62
7
  6
CONTINUOUS
 10
-12.15
 20
-27.1657095584
 11
-12.1379456318
 21
-27.1657095584
  0
LINE
  5
26E
100
AcDbEntity
  8
DRAFT
100
AcDbLine
 62
7
  6
CONTINUOUS
 10
-10.3620543682
 20
-27.1657095584
 11
-10.35
 21
-27.1657095584
  0
LINE
  5
26F
100
AcDbEntity
  8
DRAFT
100
AcDbLine
 62
7
  6
CONTINUOUS
 10
-8.5
 20
-27.1657095584
 11
-8.4934928878
 21
-27.1657095584
  0
LINE
  5
270
100
AcDbEntity
  8
DRAFT
100
AcDbLine
 62
7
  6
CONTINUOUS
 10
8.4934928878
 20
-27.1657095584
 11
8.5
 21
-27.1657095584
  0
LINE
  5
271
100
AcDbEntity
  8
DRAFT
100
AcDbLine
 62
7
  6
CONTINUOUS
 10
10.35
 20
-27.1657095584
 11
10.3620543682
 21
-27.1657095584
  0
LINE
  5
272
100
AcDbEntity
  8
DRAFT
100
AcDbLine
 62
7
  6
CONTINUOUS
 10
12.1379456318
 20
-27.1657095584
 11
12.15
 21
-27.1657095584
  0
LINE
  5
273
100
AcDbEntity
  8
DRAFT
100
AcDbLine
 62
7
  6
CONTINUOUS
 10
14.0
 20
-27.1657095584
 11
14.0065071122
 21
-27.1657095584
  0
LINE
  5
274
100
AcDbEntity
  8
DRAFT
100
AcDbLine
 62
7
  6
CONTINUOUS
 10
13.9842904416
 20
-27.15
 11
12.1657095584
 21
-27.15
  0
LINE
  5
275
100
AcDbEntity
  8
DRAFT
100
AcDbLine
 62
7
  6
CONTINUOUS
 10
10.3342904416
 20
-27.15
 11
8.5157095584
 21
-27.15
  0
LINE
  5
276
100
AcDbEntity
  8
DRAFT
100
AcDbLine
 62
7
  6
CONTINUOUS
 10
-8.5157095584
 20
-27.15
 11
-10.3342904416
 21
-27.15
  0
LINE
  5
277
100
AcDbEntity
  8
DRAFT
100
AcDbLine
 62
7
  6
CONTINUOUS
 10
-12.1657095584
 20
-27.15
 11
-13.9842904416
 21
-27.15
  0
LINE
  5
278
100
AcDbEntity
  8
RACCORDO
100
AcDbLine
 62
7
  6
CONTINUOUS
 10
-22.0
 20
-26.65
 11
-18.7990381057
 21
-26.65
  0
LINE
  5
279
100
AcDbEntity
  8
ASSI
100
AcDbLine
 62
7
  6
CONTINUOUS
 10
-22.0
 20
-26.65
 11
-18.7990381057
 21
-26.65
  0
LINE
  5
27A
100
AcDbEntity
  8
RACCORDO
100
AcDbLine
 62
7
  6
CONTINUOUS
 10
18.7990381057
 20
-26.65
 11
22.0
 21
-26.65
  0
LINE
  5
27B
100
AcDbEntity
  8
ASSI
100
AcDbLine
 62
7
  6
CONTINUOUS
 10
18.7990381057
 20
-26.65
 11
22.0
 21
-26.65
  0
LINE
  5
27C
100
AcDbEntity
  8
RACCORDO
100
AcDbLine
 62
7
  6
CONTINUOUS
 10
4.7001028025
 20
-26.6
 11
-4.7001028025
 21
-26.6
  0
LINE
  5
27D
100
AcDbEntity
  8
RACCORDO
100
AcDbLine
 62
253
  6
CONTINUOUS
 10
4.6709677904
 20
-26.5708649879
 11
-4.6709677904
 21
-26.5708649879
  0
LINE
  5
27E
100
AcDbEntity
  8
RACCORDO
100
AcDbLine
 62
253
  6
CONTINUOUS
 10
4.6709677904
 20
-26.4830998247
 11
-4.6709677904
 21
-26.4830998247
  0
LINE
  5
27F
100
AcDbEntity
  8
DRAFT
100
AcDbLine
 62
7
  6
CONTINUOUS
 10
-11.8834013335
 20
-26.3506196883
 11
-10.6165986665
 21
-26.3506196883
  0
LINE
  5
280
100
AcDbEntity
  8
DRAFT
100
AcDbLine
 62
7
  6
CONTINUOUS
 10
10.6165986665
 20
-26.3506196883
 11
11.8834013335
 21
-26.3506196883
  0
LINE
  5
281
100
AcDbEntity
  8
DRAFT
100
AcDbLine
 62
7
  6
CONTINUOUS
 10
-11.9101888183
 20
-26.3157095584
 11
-10.5898111817
 21
-26.3157095584
  0
LINE
  5
282
100
AcDbEntity
  8
DRAFT
100
AcDbLine
 62
7
  6
CONTINUOUS
 10
10.5898111817
 20
-26.3157095584
 11
11.9101888183
 21
-26.3157095584
  0
LINE
  5
283
100
AcDbEntity
  8
0
100
AcDbLine
 62
7
  6
CONTINUOUS
 10
-6.4
 20
-25.9
 11
-5.0
 21
-25.9
  0
LINE
  5
284
100
AcDbEntity
  8
ASSI
100
AcDbLine
 62
7
  6
CONTINUOUS
 10
-6.4
 20
-25.9
 11
-5.0
 21
-25.9
  0
LINE
  5
285
100
AcDbEntity
  8
0
100
AcDbLine
 62
7
  6
CONTINUOUS
 10
5.0
 20
-25.9
 11
6.4
 21
-25.9
  0
LINE
  5
286
100
AcDbEntity
  8
ASSI
100
AcDbLine
 62
7
  6
CONTINUOUS
 10
5.0
 20
-25.9
 11
6.4
 21
-25.9
  0
LINE
  5
287
100
AcDbEntity
  8
ASSI
100
AcDbLine
 62
7
  6
CONTINUOUS
 10
14.1264863489
 20
-25.35
 11
12.25
 21
-25.35
  0
LINE
  5
288
100
AcDbEntity
  8
ASSI
100
AcDbLine
 62
7
  6
CONTINUOUS
 10
10.25
 20
-25.35
 11
8.3735136511
 21
-25.35
  0
LINE
  5
289
100
AcDbEntity
  8
ASSI
100
AcDbLine
 62
7
  6
CONTINUOUS
 10
-8.3735136511
 20
-25.35
 11
-10.25
 21
-25.35
  0
LINE
  5
28A
100
AcDbEntity
  8
ASSI
100
AcDbLine
 62
7
  6
CONTINUOUS
 10
-12.25
 20
-25.35
 11
-14.1264863489
 21
-25.35
  0
LINE
  5
28B
100
AcDbEntity
  8
DRAFT
100
AcDbLine
 62
7
  6
CONTINUOUS
 10
-14.1311629851
 20
-25.05
 11
-8.3688370149
 21
-25.05
  0
LINE
  5
28C
100
AcDbEntity
  8
DRAFT
100
AcDbLine
 62
7
  6
CONTINUOUS
 10
8.3688370149
 20
-25.05
 11
14.1311629851
 21
-25.05
  0
LINE
  5
28D
100
AcDbEntity
  8
DRAFT
100
AcDbLine
 62
7
  6
CONTINUOUS
 10
-16.0340263191
 20
-25.0
 11
-15.75
 21
-25.0
  0
LINE
  5
28E
100
AcDbEntity
  8
DRAFT
100
AcDbLine
 62
7
  6
CONTINUOUS
 10
6.75
 20
-25.0
 11
5.0
 21
-25.0
  0
LINE
  5
28F
100
AcDbEntity
  8
DRAFT
100
AcDbLine
 62
7
  6
CONTINUOUS
 10
-5.0
 20
-25.0
 11
-6.75
 21
-25.0
  0
LINE
  5
290
100
AcDbEntity
  8
DRAFT
100
AcDbLine
 62
7
  6
CONTINUOUS
 10
15.75
 20
-25.0
 11
16.0340263191
 21
-25.0
  0
LINE
  5
291
100
AcDbEntity
  8
RACCORDO
100
AcDbLine
 62
253
  6
CONTINUOUS
 10
5.409079964
 20
-24.9516678067
 11
4.8066589694
 21
-24.9516678067
  0
LINE
  5
292
100
AcDbEntity
  8
RACCORDO
100
AcDbLine
 62
253
  6
CONTINUOUS
 10
-4.8066589694
 20
-24.9516678067
 11
-5.409079964
 21
-24.9516678067
  0
LINE
  5
293
100
AcDbEntity
  8
RACCORDO
100
AcDbLine
 62
7
  6
CONTINUOUS
 10
15.1605011644
 20
-24.9060680219
 11
15.1092903884
 21
-24.9060680219
  0
LINE
  5
294
100
AcDbEntity
  8
RACCORDO
100
AcDbLine
 62
7
  6
CONTINUOUS
 10
7.3907096116
 20
-24.9060680219
 11
7.3394988356
 21
-24.9060680219
  0
LINE
  5
295
100
AcDbEntity
  8
RACCORDO
100
AcDbLine
 62
7
  6
CONTINUOUS
 10
-7.3394988356
 20
-24.9060680219
 11
-7.3907096116
 21
-24.9060680219
  0
LINE
  5
296
100
AcDbEntity
  8
RACCORDO
100
AcDbLine
 62
7
  6
CONTINUOUS
 10
-15.1092903884
 20
-24.9060680219
 11
-15.1605011644
 21
-24.9060680219
  0
LINE
  5
297
100
AcDbEntity
  8
RACCORDO
100
AcDbLine
 62
253
  6
CONTINUOUS
 10
5.409079964
 20
-24.8931196239
 11
4.6293326935
 21
-24.8931196239
  0
LINE
  5
298
100
AcDbEntity
  8
RACCORDO
100
AcDbLine
 62
253
  6
CONTINUOUS
 10
-4.6293326935
 20
-24.8931196239
 11
-5.409079964
 21
-24.8931196239
  0
LINE
  5
299
100
AcDbEntity
  8
RACCORDO
100
AcDbLine
 62
253
  6
CONTINUOUS
 10
-13.1924927135
 20
-24.8428434891
 11
-9.3075072865
 21
-24.8428434891
  0
LINE
  5
29A
100
AcDbEntity
  8
RACCORDO
100
AcDbLine
 62
253
  6
CONTINUOUS
 10
9.3075072865
 20
-24.8428434891
 11
13.1924927135
 21
-24.8428434891
  0
LINE
  5
29B
100
AcDbEntity
  8
RACCORDO
100
AcDbLine
 62
253
  6
CONTINUOUS
 10
-15.9786541704
 20
-24.8114243722
 11
-14.7504303095
 21
-24.8114243722
  0
LINE
  5
29C
100
AcDbEntity
  8
RACCORDO
100
AcDbLine
 62
253
  6
CONTINUOUS
 10
-7.7495696905
 20
-24.8114243722
 11
-5.9094770665
 21
-24.8114243722
  0
LINE
  5
29D
100
AcDbEntity
  8
RACCORDO
100
AcDbLine
 62
253
  6
CONTINUOUS
 10
5.9094770665
 20
-24.8114243722
 11
7.7495696905
 21
-24.8114243722
  0
LINE
  5
29E
100
AcDbEntity
  8
RACCORDO
100
AcDbLine
 62
253
  6
CONTINUOUS
 10
14.7504303095
 20
-24.8114243722
 11
15.9786541704
 21
-24.8114243722
  0
LINE
  5
29F
100
AcDbEntity
  8
RACCORDO
100
AcDbLine
 62
7
  6
CONTINUOUS
 10
3.922480805
 20
-24.6876799659
 11
1.2622743426
 21
-24.6876799659
  0
LINE
  5
2A0
100
AcDbEntity
  8
RACCORDO
100
AcDbLine
 62
7
  6
CONTINUOUS
 10
-1.2622743426
 20
-24.6876799659
 11
-3.922480805
 21
-24.6876799659
  0
LINE
  5
2A1
100
AcDbEntity
  8
DRAFT
100
AcDbLine
 62
7
  6
CONTINUOUS
 10
-21.5
 20
-24.65
 11
-18.4
 21
-24.65
  0
LINE
  5
2A2
100
AcDbEntity
  8
DRAFT
100
AcDbLine
 62
7
  6
CONTINUOUS
 10
21.5
 20
-24.65
 11
18.4
 21
-24.65
  0
LINE
  5
2A3
100
AcDbEntity
  8
RACCORDO
100
AcDbLine
 62
253
  6
CONTINUOUS
 10
-13.1925345342
 20
-24.64287395
 11
-9.3074652985
 21
-24.64287395
  0
LINE
  5
2A4
100
AcDbEntity
  8
RACCORDO
100
AcDbLine
 62
253
  6
CONTINUOUS
 10
9.3074654658
 20
-24.64287395
 11
13.1925347015
 21
-24.64287395
  0
LINE
  5
2A5
100
AcDbEntity
  8
RACCORDO
100
AcDbLine
 62
253
  6
CONTINUOUS
 10
-15.9197259848
 20
-24.6114548332
 11
-14.7504303095
 21
-24.6114548332
  0
LINE
  5
2A6
100
AcDbEntity
  8
RACCORDO
100
AcDbLine
 62
253
  6
CONTINUOUS
 10
-7.7495696905
 20
-24.6114548332
 11
-5.9094770665
 21
-24.6114548332
  0
LINE
  5
2A7
100
AcDbEntity
  8
RACCORDO
100
AcDbLine
 62
253
  6
CONTINUOUS
 10
5.9094770665
 20
-24.6114548332
 11
7.7495696905
 21
-24.6114548332
  0
LINE
  5
2A8
100
AcDbEntity
  8
RACCORDO
100
AcDbLine
 62
253
  6
CONTINUOUS
 10
14.7504303095
 20
-24.6114548332
 11
15.9197259848
 21
-24.6114548332
  0
LINE
  5
2A9
100
AcDbEntity
  8
RACCORDO
100
AcDbLine
 62
253
  6
CONTINUOUS
 10
-3.8348804623
 20
-24.4992889218
 11
-1.4253193401
 21
-24.4992889218
  0
LINE
  5
2AA
100
AcDbEntity
  8
RACCORDO
100
AcDbLine
 62
253
  6
CONTINUOUS
 10
1.4253193401
 20
-24.4992889218
 11
3.8348804648
 21
-24.4992889218
  0
LINE
  5
2AB
100
AcDbEntity
  8
RACCORDO
100
AcDbLine
 62
253
  6
CONTINUOUS
 10
-3.8348804513
 20
-24.1993346133
 11
-1.1253307632
 21
-24.1993346133
  0
LINE
  5
2AC
100
AcDbEntity
  8
RACCORDO
100
AcDbLine
 62
253
  6
CONTINUOUS
 10
1.1253307632
 20
-24.1993346134
 11
3.8348804526
 21
-24.1993346133
  0
LINE
  5
2AD
100
AcDbEntity
  8
RACCORDO
100
AcDbLine
 62
7
  6
CONTINUOUS
 10
-5.3484195506
 20
-24.026132614
 11
-4.297681292
 21
-24.026132614
  0
LINE
  5
2AE
100
AcDbEntity
  8
DRAFT
100
AcDbLine
 62
7
  6
CONTINUOUS
 10
-0.973867386
 20
-24.026132614
 11
0.973867386
 21
-24.026132614
  0
LINE
  5
2AF
100
AcDbEntity
  8
RACCORDO
100
AcDbLine
 62
7
  6
CONTINUOUS
 10
4.297681292
 20
-24.026132614
 11
5.3484195506
 21
-24.026132614
  0
LINE
  5
2B0
100
AcDbEntity
  8
RACCORDO
100
AcDbLine
 62
253
  6
CONTINUOUS
 10
-14.4855460317
 20
-24.8142024947
 11
-13.8105560285
 21
-24.8363612032
  0
LINE
  5
2B1
100
AcDbEntity
  8
RACCORDO
100
AcDbLine
 62
253
  6
CONTINUOUS
 10
-14.3089619429
 20
-24.6142327774
 11
-13.6339529697
 21
-24.6363921087
  0
LINE
  5
2B2
100
AcDbEntity
  8
RACCORDO
100
AcDbLine
 62
253
  6
CONTINUOUS
 10
8.0144539683
 20
-24.8142024947
 11
8.6894439715
 21
-24.8363612032
  0
LINE
  5
2B3
100
AcDbEntity
  8
RACCORDO
100
AcDbLine
 62
253
  6
CONTINUOUS
 10
8.1910380571
 20
-24.6142327774
 11
8.8660470303
 21
-24.6363921087
  0
LINE
  5
2B4
100
AcDbEntity
  8
RACCORDO
100
AcDbLine
 62
253
  6
CONTINUOUS
 10
-5.9094770665
 20
-24.6114548332
 11
-5.7102684719
 21
-24.6288833269
  0
LINE
  5
2B5
100
AcDbEntity
  8
RACCORDO
100
AcDbLine
 62
253
  6
CONTINUOUS
 10
-5.8619784041
 20
-24.068542638
 11
-5.6627698096
 21
-24.0859711318
  0
LINE
  5
2B6
100
AcDbEntity
  8
RACCORDO
100
AcDbLine
 62
253
  6
CONTINUOUS
 10
-3.8348804396
 20
-24.0006653867
 11
-4.1218393179
 21
-23.9132139804
  0
LINE
  5
2B7
100
AcDbEntity
  8
DRAFT
100
AcDbLine
 62
7
  6
CONTINUOUS
 10
-8.5
 20
-27.1657095584
 11
-8.5157095584
 21
-27.15
  0
LINE
  5
2B8
100
AcDbEntity
  8
DRAFT
100
AcDbLine
 62
7
  6
CONTINUOUS
 10
-12.1111581471
 20
-27.2006196883
 11
-12.1379456318
 21
-27.1657095584
  0
LINE
  5
2B9
100
AcDbEntity
  8
DRAFT
100
AcDbLine
 62
7
  6
CONTINUOUS
 10
-11.9101888183
 20
-26.3157095584
 11
-11.8834013335
 21
-26.3506196883
  0
LINE
  5
2BA
100
AcDbEntity
  8
RACCORDO
100
AcDbLine
 62
7
  6
CONTINUOUS
 10
-23.5
 20
25.15
 11
-23.5
 21
23.1084271247
  0
LINE
  5
2BB
100
AcDbEntity
  8
0
100
AcDbLine
 62
7
  6
CONTINUOUS
 10
-23.5
 20
23.1084271247
 11
-23.5
 21
18.1614977356
  0
LINE
  5
2BC
100
AcDbEntity
  8
ASSI
100
AcDbLine
 62
7
  6
CONTINUOUS
 10
-23.5
 20
25.15
 11
-23.5
 21
18.1614977356
  0
LINE
  5
2BD
100
AcDbEntity
  8
0
100
AcDbLine
 62
7
  6
CONTINUOUS
 10
-23.5
 20
-18.1614977356
 11
-23.5
 21
-23.1084271247
  0
LINE
  5
2BE
100
AcDbEntity
  8
RACCORDO
100
AcDbLine
 62
7
  6
CONTINUOUS
 10
-23.5
 20
-23.1084271247
 11
-23.5
 21
-25.15
  0
LINE
  5
2BF
100
AcDbEntity
  8
ASSI
100
AcDbLine
 62
7
  6
CONTINUOUS
 10
-23.5
 20
-18.1614977356
 11
-23.5
 21
-25.15
  0
LINE
  5
2C0
100
AcDbEntity
  8
RACCORDO
100
AcDbLine
 62
253
  6
CONTINUOUS
 10
-22.9060002318
 20
-18.2886997337
 11
-22.9060002318
 21
-12.8852534024
  0
LINE
  5
2C1
100
AcDbEntity
  8
RACCORDO
100
AcDbLine
 62
253
  6
CONTINUOUS
 10
-22.9060002318
 20
-12.1147465976
 11
-22.9060002318
 21
12.1147465976
  0
LINE
  5
2C2
100
AcDbEntity
  8
RACCORDO
100
AcDbLine
 62
253
  6
CONTINUOUS
 10
-22.9060002318
 20
12.8852534024
 11
-22.9060002318
 21
18.2886997324
  0
LINE
  5
2C3
100
AcDbEntity
  8
RACCORDO
100
AcDbLine
 62
253
  6
CONTINUOUS
 10
-22.7060306927
 20
18.2886997347
 11
-22.7060306927
 21
-18.2886997375
  0
LINE
  5
2C4
100
AcDbEntity
  8
RACCORDO
100
AcDbLine
 62
7
  6
CONTINUOUS
 10
-22.5174550649
 20
22.5174550649
 11
-22.5174550649
 21
18.8194159546
  0
LINE
  5
2C5
100
AcDbEntity
  8
RACCORDO
100
AcDbLine
 62
7
  6
CONTINUOUS
 10
-22.5174550649
 20
-18.8194159496
 11
-22.5174550649
 21
-22.5174550649
  0
LINE
  5
2C6
100
AcDbEntity
  8
SMUSSO
100
AcDbLine
 62
7
  6
CONTINUOUS
 10
-22.4999973431
 20
22.4999973431
 11
-22.4999973431
 21
-22.4999973431
  0
LINE
  5
2C7
100
AcDbEntity
  8
DRAFT
100
AcDbLine
 62
7
  6
CONTINUOUS
 10
-21.5
 20
24.65
 11
-21.5
 21
23.65
  0
LINE
  5
2C8
100
AcDbEntity
  8
DRAFT
100
AcDbLine
 62
7
  6
CONTINUOUS
 10
-21.5
 20
-23.65
 11
-21.5
 21
-24.65
  0
LINE
  5
2C9
100
AcDbEntity
  8
RACCORDO
100
AcDbLine
 62
253
  6
CONTINUOUS
 10
-5.9094770665
 20
24.8114243722
 11
-5.7894952266
 21
24.9423615741
  0
LINE
  5
2CA
100
AcDbEntity
  8
RACCORDO
100
AcDbLine
 62
253
  6
CONTINUOUS
 10
-5.7102684719
 20
24.6288833269
 11
-5.5902871146
 21
24.7598200021
  0
LINE
  5
2CB
100
AcDbEntity
  8
RACCORDO
100
AcDbLine
 62
7
  6
CONTINUOUS
 10
-4.0
 20
23.65
 11
-3.9824192776
 21
23.6568896896
  0
LINE
  5
2CC
100
AcDbEntity
  8
RACCORDO
100
AcDbLine
 62
7
  6
CONTINUOUS
 10
8.3688370149
 20
25.05
 11
7.9880192027
 21
24.9158971781
  0
LINE
  5
2CD
100
AcDbEntity
  8
RACCORDO
100
AcDbLine
 62
253
  6
CONTINUOUS
 10
3.8348804612
 20
24.1993346134
 11
4.1218393412
 21
24.2867860139
  0
LINE
  5
2CE
100
AcDbEntity
  8
RACCORDO
100
AcDbLine
 62
253
  6
CONTINUOUS
 10
8.8660472913
 20
-22.8810629476
 11
8.1910380875
 21
-22.9032222865
  0
LINE
  5
2CF
100
AcDbEntity
  8
RACCORDO
100
AcDbLine
 62
253
  6
CONTINUOUS
 10
8.6894439715
 20
-22.6810938617
 11
8.0144539683
 21
-22.7032525702
  0
LINE
  5
2D0
100
AcDbEntity
  8
RACCORDO
100
AcDbLine
 62
253
  6
CONTINUOUS
 10
-13.6339527087
 20
-22.8810629476
 11
-14.3089619125
 21
-22.9032222865
  0
LINE
  5
2D1
100
AcDbEntity
  8
RACCORDO
100
AcDbLine
 62
253
  6
CONTINUOUS
 10
-13.8105560285
 20
-22.6810938617
 11
-14.4855460317
 21
-22.7032525702
  0
LINE
  5
2D2
100
AcDbEntity
  8
RACCORDO
100
AcDbLine
 62
253
  6
CONTINUOUS
 10
3.8348804397
 20
-24.0006653867
 11
1.1253307632
 21
-24.0006653867
  0
LINE
  5
2D3
100
AcDbEntity
  8
RACCORDO
100
AcDbLine
 62
253
  6
CONTINUOUS
 10
-1.1253307632
 20
-24.0006653838
 11
-3.8348804396
 21
-24.0006653867
  0
LINE
  5
2D4
100
AcDbEntity
  8
RACCORDO
100
AcDbLine
 62
253
  6
CONTINUOUS
 10
-5.4635563297
 20
-23.9034300864
 11
-4.1489227492
 21
-23.9034300864
  0
LINE
  5
2D5
100
AcDbEntity
  8
RACCORDO
100
AcDbLine
 62
253
  6
CONTINUOUS
 10
-1.0965699136
 20
-23.9034300864
 11
1.0965699136
 21
-23.9034300864
  0
LINE
  5
2D6
100
AcDbEntity
  8
RACCORDO
100
AcDbLine
 62
253
  6
CONTINUOUS
 10
4.1489227492
 20
-23.9034300864
 11
5.4635489457
 21
-23.9034300864
  0
LINE
  5
2D7
100
AcDbEntity
  8
RACCORDO
100
AcDbLine
 62
253
  6
CONTINUOUS
 10
-5.463561215
 20
-23.7034605474
 11
-4.0440992082
 21
-23.7034605474
  0
LINE
  5
2D8
100
AcDbEntity
  8
RACCORDO
100
AcDbLine
 62
253
  6
CONTINUOUS
 10
-1.1
 20
-23.7034605474
 11
1.1
 21
-23.7034605474
  0
LINE
  5
2D9
100
AcDbEntity
  8
RACCORDO
100
AcDbLine
 62
253
  6
CONTINUOUS
 10
4.0440992082
 20
-23.7034605474
 11
5.463561215
 21
-23.7034605474
  0
LINE
  5
2DA
100
AcDbEntity
  8
RACCORDO
100
AcDbLine
 62
253
  6
CONTINUOUS
 10
3.8348804397
 20
-23.7007110782
 11
1.4253193401
 21
-23.7007110782
  0
LINE
  5
2DB
100
AcDbEntity
  8
RACCORDO
100
AcDbLine
 62
253
  6
CONTINUOUS
 10
-1.4253193401
 20
-23.7007110782
 11
-3.8348804397
 21
-23.7007110782
  0
LINE
  5
2DC
100
AcDbEntity
  8
RACCORDO
100
AcDbLine
 62
7
  6
CONTINUOUS
 10
3.8215859914
 20
-23.696798016
 11
1.423362958
 21
-23.696798016
  0
LINE
  5
2DD
100
AcDbEntity
  8
RACCORDO
100
AcDbLine
 62
7
  6
CONTINUOUS
 10
-1.423362958
 20
-23.696798016
 11
-3.8215859914
 21
-23.696798016
  0
LINE
  5
2DE
100
AcDbEntity
  8
DRAFT
100
AcDbLine
 62
7
  6
CONTINUOUS
 10
-21.5
 20
-23.65
 11
-18.4
 21
-23.65
  0
LINE
  5
2DF
100
AcDbEntity
  8
DRAFT
100
AcDbLine
 62
7
  6
CONTINUOUS
 10
21.5
 20
-23.65
 11
18.4
 21
-23.65
  0
LINE
  5
2E0
100
AcDbEntity
  8
RACCORDO
100
AcDbLine
 62
7
  6
CONTINUOUS
 10
3.6859890075
 20
-23.0780926603
 11
1.4140109925
 21
-23.0780926603
  0
LINE
  5
2E1
100
AcDbEntity
  8
RACCORDO
100
AcDbLine
 62
7
  6
CONTINUOUS
 10
-1.4140109925
 20
-23.0780926603
 11
-3.6859890075
 21
-23.0780926603
  0
LINE
  5
2E2
100
AcDbEntity
  8
RACCORDO
100
AcDbLine
 62
7
  6
CONTINUOUS
 10
3.7000342679
 20
-23.05
 11
1.3999657321
 21
-23.05
  0
LINE
  5
2E3
100
AcDbEntity
  8
RACCORDO
100
AcDbLine
 62
7
  6
CONTINUOUS
 10
-1.3999657321
 20
-23.05
 11
-3.7000342679
 21
-23.05
  0
LINE
  5
2E4
100
AcDbEntity
  8
RACCORDO
100
AcDbLine
 62
253
  6
CONTINUOUS
 10
18.2886997324
 20
-22.9060002318
 11
14.7504303095
 21
-22.9060002318
  0
LINE
  5
2E5
100
AcDbEntity
  8
RACCORDO
100
AcDbLine
 62
253
  6
CONTINUOUS
 10
7.7495696905
 20
-22.9060002318
 11
-7.7495696905
 21
-22.9060002318
  0
LINE
  5
2E6
100
AcDbEntity
  8
RACCORDO
100
AcDbLine
 62
253
  6
CONTINUOUS
 10
-14.7504303095
 20
-22.9060002318
 11
-18.2886997338
 21
-22.9060002318
  0
LINE
  5
2E7
100
AcDbEntity
  8
RACCORDO
100
AcDbLine
 62
253
  6
CONTINUOUS
 10
13.1925345342
 20
-22.8745811149
 11
9.3074652985
 21
-22.8745811149
  0
LINE
  5
2E8
100
AcDbEntity
  8
RACCORDO
100
AcDbLine
 62
253
  6
CONTINUOUS
 10
-9.3074654658
 20
-22.8745811149
 11
-13.1925347015
 21
-22.8745811149
  0
LINE
  5
2E9
100
AcDbEntity
  8
RACCORDO
100
AcDbLine
 62
253
  6
CONTINUOUS
 10
18.2886997347
 20
-22.7060306927
 11
14.7504303095
 21
-22.7060306927
  0
LINE
  5
2EA
100
AcDbEntity
  8
RACCORDO
100
AcDbLine
 62
253
  6
CONTINUOUS
 10
7.7495696905
 20
-22.7060306927
 11
-7.7495696905
 21
-22.7060306927
  0
LINE
  5
2EB
100
AcDbEntity
  8
RACCORDO
100
AcDbLine
 62
253
  6
CONTINUOUS
 10
-14.7504303095
 20
-22.7060306927
 11
-18.2886997375
 21
-22.7060306927
  0
LINE
  5
2EC
100
AcDbEntity
  8
RACCORDO
100
AcDbLine
 62
253
  6
CONTINUOUS
 10
13.1924927135
 20
-22.6746115759
 11
9.3075072865
 21
-22.6746115759
  0
LINE
  5
2ED
100
AcDbEntity
  8
RACCORDO
100
AcDbLine
 62
253
  6
CONTINUOUS
 10
-9.3075072865
 20
-22.6746115759
 11
-13.1924927135
 21
-22.6746115759
  0
LINE
  5
2EE
100
AcDbEntity
  8
RACCORDO
100
AcDbLine
 62
7
  6
CONTINUOUS
 10
15.3586664338
 20
-22.6410286281
 11
14.7983518036
 21
-22.6410286281
  0
LINE
  5
2EF
100
AcDbEntity
  8
RACCORDO
100
AcDbLine
 62
7
  6
CONTINUOUS
 10
12.7875967103
 20
-22.6410286281
 11
12.2748965036
 21
-22.6410286281
  0
LINE
  5
2F0
100
AcDbEntity
  8
RACCORDO
100
AcDbLine
 62
7
  6
CONTINUOUS
 10
10.2251034964
 20
-22.6410286281
 11
9.7124032897
 21
-22.6410286281
  0
LINE
  5
2F1
100
AcDbEntity
  8
RACCORDO
100
AcDbLine
 62
7
  6
CONTINUOUS
 10
7.7016481964
 20
-22.6410286281
 11
7.1413335662
 21
-22.6410286281
  0
LINE
  5
2F2
100
AcDbEntity
  8
RACCORDO
100
AcDbLine
 62
7
  6
CONTINUOUS
 10
-7.1413335662
 20
-22.6410286281
 11
-7.7016481964
 21
-22.6410286281
  0
LINE
  5
2F3
100
AcDbEntity
  8
RACCORDO
100
AcDbLine
 62
7
  6
CONTINUOUS
 10
-9.7124032897
 20
-22.6410286281
 11
-10.2251034964
 21
-22.6410286281
  0
LINE
  5
2F4
100
AcDbEntity
  8
RACCORDO
100
AcDbLine
 62
7
  6
CONTINUOUS
 10
-12.2748965036
 20
-22.6410286281
 11
-12.7875967103
 21
-22.6410286281
  0
LINE
  5
2F5
100
AcDbEntity
  8
RACCORDO
100
AcDbLine
 62
7
  6
CONTINUOUS
 10
-14.7983518036
 20
-22.6410286281
 11
-15.3586664338
 21
-22.6410286281
  0
LINE
  5
2F6
100
AcDbEntity
  8
RACCORDO
100
AcDbLine
 62
7
  6
CONTINUOUS
 10
-14.2244053277
 20
-22.6396405194
 11
-13.2939300876
 21
-22.6396405194
  0
LINE
  5
2F7
100
AcDbEntity
  8
RACCORDO
100
AcDbLine
 62
7
  6
CONTINUOUS
 10
-11.7746223912
 20
-22.6396405194
 11
-10.7253776088
 21
-22.6396405194
  0
LINE
  5
2F8
100
AcDbEntity
  8
RACCORDO
100
AcDbLine
 62
7
  6
CONTINUOUS
 10
-9.2060699124
 20
-22.6396405194
 11
-8.2755946723
 21
-22.6396405194
  0
LINE
  5
2F9
100
AcDbEntity
  8
RACCORDO
100
AcDbLine
 62
7
  6
CONTINUOUS
 10
8.2755946723
 20
-22.6396405194
 11
9.2060699124
 21
-22.6396405194
  0
LINE
  5
2FA
100
AcDbEntity
  8
RACCORDO
100
AcDbLine
 62
7
  6
CONTINUOUS
 10
10.7253776088
 20
-22.6396405194
 11
11.7746223912
 21
-22.6396405194
  0
LINE
  5
2FB
100
AcDbEntity
  8
RACCORDO
100
AcDbLine
 62
7
  6
CONTINUOUS
 10
13.2939300876
 20
-22.6396405194
 11
14.2244053277
 21
-22.6396405194
  0
LINE
  5
2FC
100
AcDbEntity
  8
RACCORDO
100
AcDbLine
 62
7
  6
CONTINUOUS
 10
-22.5174550649
 20
-22.5174550649
 11
-18.8194159496
 21
-22.5174550649
  0
LINE
  5
2FD
100
AcDbEntity
  8
RACCORDO
100
AcDbLine
 62
7
  6
CONTINUOUS
 10
18.8194159546
 20
-22.5174550649
 11
22.5174550649
 21
-22.5174550649
  0
LINE
  5
2FE
100
AcDbEntity
  8
ASSI
100
AcDbLine
 62
7
  6
CONTINUOUS
 10
-8.300250854
 20
-22.5
 11
-14.199749146
 21
-22.5
  0
LINE
  5
2FF
100
AcDbEntity
  8
ASSI
100
AcDbLine
 62
7
  6
CONTINUOUS
 10
8.300250854
 20
-22.5
 11
14.199749146
 21
-22.5
  0
LINE
  5
300
100
AcDbEntity
  8
SMUSSO
100
AcDbLine
 62
7
  6
CONTINUOUS
 10
6.5312781087
 20
-22.4999973431
 11
-6.5312781087
 21
-22.4999973431
  0
LINE
  5
301
100
AcDbEntity
  8
SMUSSO
100
AcDbLine
 62
7
  6
CONTINUOUS
 10
-22.4999973431
 20
-22.4999973431
 11
-15.9687218913
 21
-22.4999973431
  0
LINE
  5
302
100
AcDbEntity
  8
SMUSSO
100
AcDbLine
 62
7
  6
CONTINUOUS
 10
15.9687218913
 20
-22.4999973431
 11
22.4999973431
 21
-22.4999973431
  0
LINE
  5
303
100
AcDbEntity
  8
RACCORDO
100
AcDbLine
 62
253
  6
CONTINUOUS
 10
-8.1910380571
 20
-22.9032222875
 11
-8.8660470303
 21
-22.8810629562
  0
LINE
  5
304
100
AcDbEntity
  8
RACCORDO
100
AcDbLine
 62
253
  6
CONTINUOUS
 10
-8.0144539683
 20
-22.7032525702
 11
-8.6894439715
 21
-22.6810938617
  0
LINE
  5
305
100
AcDbEntity
  8
RACCORDO
100
AcDbLine
 62
253
  6
CONTINUOUS
 10
14.3089619429
 20
-22.9032222875
 11
13.6339529697
 21
-22.8810629562
  0
LINE
  5
306
100
AcDbEntity
  8
RACCORDO
100
AcDbLine
 62
253
  6
CONTINUOUS
 10
14.4855460317
 20
-22.7032525702
 11
13.8105560285
 21
-22.6810938617
  0
LINE
  5
307
100
AcDbEntity
  8
RACCORDO
100
AcDbLine
 62
253
  6
CONTINUOUS
 10
3.8348804533
 20
-24.1993346097
 11
4.1218393221
 21
-24.2867860058
  0
LINE
  5
308
100
AcDbEntity
  8
RACCORDO
100
AcDbLine
 62
7
  6
CONTINUOUS
 10
8.3688370149
 20
-25.05
 11
7.9880192027
 21
-24.9158971781
  0
LINE
  5
309
100
AcDbEntity
  8
RACCORDO
100
AcDbLine
 62
7
  6
CONTINUOUS
 10
-4.0
 20
-23.65
 11
-3.9824192776
 21
-23.6568896896
  0
LINE
  5
30A
100
AcDbEntity
  8
RACCORDO
100
AcDbLine
 62
253
  6
CONTINUOUS
 10
-5.7894952266
 20
-24.9423615741
 11
-5.9094770665
 21
-24.8114243722
  0
LINE
  5
30B
100
AcDbEntity
  8
RACCORDO
100
AcDbLine
 62
253
  6
CONTINUOUS
 10
-5.590287119
 20
-24.7598199973
 11
-5.7102684719
 21
-24.6288833269
  0
LINE
  5
30C
100
AcDbEntity
  8
DRAFT
100
AcDbLine
 62
7
  6
CONTINUOUS
 10
-15.7047857445
 20
-25.5168013052
 11
-15.75
 21
-25.0
  0
LINE
  5
30D
100
AcDbEntity
  8
RACCORDO
100
AcDbLine
 62
7
  6
CONTINUOUS
 10
-15.75
 20
-25.0
 11
-15.7573038017
 21
-24.9165171649
  0
LINE
  5
30E
100
AcDbEntity
  8
RACCORDO
100
AcDbLine
 62
7
  6
CONTINUOUS
 10
-15.9572946463
 20
-22.6306113506
 11
-15.9600679734
 21
-22.5989120768
  0
LINE
  5
30F
100
AcDbEntity
  8
DRAFT
100
AcDbLine
 62
7
  6
CONTINUOUS
 10
-15.9611894519
 20
-22.5860935189
 11
-15.9647954389
 21
-22.5448768991
  0
LINE
  5
310
100
AcDbEntity
  8
SMUSSO
100
AcDbLine
 62
7
  6
CONTINUOUS
 10
-15.9659301102
 20
-22.5319075465
 11
-15.9687218783
 21
-22.4999974916
  0
LINE
  5
311
100
AcDbEntity
  8
RACCORDO
100
AcDbLine
 62
7
  6
CONTINUOUS
 10
-18.6
 20
34.9500456915
 11
-18.6
 21
33.9499619238
  0
LINE
  5
312
100
AcDbEntity
  8
DRAFT
100
AcDbLine
 62
7
  6
CONTINUOUS
 10
-18.4
 20
24.65
 11
-18.4
 21
23.65
  0
LINE
  5
313
100
AcDbEntity
  8
RACCORDO
100
AcDbLine
 62
7
  6
CONTINUOUS
 10
-18.4
 20
-36.8000456915
 11
-18.4
 21
-36.55
  0
LINE
  5
314
100
AcDbEntity
  8
RACCORDO
100
AcDbLine
 62
7
  6
CONTINUOUS
 10
-18.4
 20
-36.15
 11
-18.4
 21
-35.7499238476
  0
LINE
  5
315
100
AcDbEntity
  8
DRAFT
100
AcDbLine
 62
7
  6
CONTINUOUS
 10
-18.4
 20
-23.65
 11
-18.4
 21
-24.65
  0
LINE
  5
316
100
AcDbEntity
  8
RACCORDO
100
AcDbLine
 62
253
  6
CONTINUOUS
 10
-18.2886997347
 20
22.9060002318
 11
-18.2886997347
 21
22.7060306927
  0
LINE
  5
317
100
AcDbEntity
  8
RACCORDO
100
AcDbLine
 62
253
  6
CONTINUOUS
 10
-18.2886997375
 20
-22.9060002318
 11
-18.2886997375
 21
-22.7060306927
  0
LINE
  5
318
100
AcDbEntity
  8
RACCORDO
100
AcDbLine
 62
7
  6
CONTINUOUS
 10
-15.75
 20
25.0
 11
-15.7573038017
 21
24.9165171649
  0
LINE
  5
319
100
AcDbEntity
  8
DRAFT
100
AcDbLine
 62
7
  6
CONTINUOUS
 10
-15.9611894519
 20
22.5860935189
 11
-15.9647954389
 21
22.5448768991
  0
LINE
  5
31A
100
AcDbEntity
  8
SMUSSO
100
AcDbLine
 62
7
  6
CONTINUOUS
 10
-15.9659301102
 20
22.5319075465
 11
-15.9687218783
 21
22.4999974916
  0
LINE
  5
31B
100
AcDbEntity
  8
RACCORDO
100
AcDbLine
 62
7
  6
CONTINUOUS
 10
-15.9600679734
 20
22.5989120768
 11
-15.9572946463
 21
22.6306113506
  0
LINE
  5
31C
100
AcDbEntity
  8
DRAFT
100
AcDbLine
 62
7
  6
CONTINUOUS
 10
-15.75
 20
25.0
 11
-15.7047857445
 21
25.5168013052
  0
LINE
  5
31D
100
AcDbEntity
  8
RACCORDO
100
AcDbLine
 62
7
  6
CONTINUOUS
 10
-13.2939300876
 20
22.6396405194
 11
-13.3313466521
 21
22.5
  0
LINE
  5
31E
100
AcDbEntity
  8
ASSI
100
AcDbLine
 62
253
  6
CONTINUOUS
 10
-12.8106002045
 20
22.64101007
 11
-12.8483837389
 21
22.5
  0
LINE
  5
31F
100
AcDbEntity
  8
DRAFT
100
AcDbLine
 62
7
  6
CONTINUOUS
 10
-10.3888418529
 20
27.2006196883
 11
-10.6165986665
 21
26.3506196883
  0
LINE
  5
320
100
AcDbEntity
  8
DRAFT
100
AcDbLine
 62
7
  6
CONTINUOUS
 10
-10.3620543682
 20
27.1657095584
 11
-10.5898111817
 21
26.3157095584
  0
LINE
  5
321
100
AcDbEntity
  8
DRAFT
100
AcDbLine
 62
7
  6
CONTINUOUS
 10
-8.4934928878
 20
27.1657095584
 11
-8.4790326386
 21
27.2006196883
  0
LINE
  5
322
100
AcDbEntity
  8
RACCORDO
100
AcDbLine
 62
253
  6
CONTINUOUS
 10
-5.4635558323
 20
23.9034300864
 11
-5.3511250639
 21
24.026132614
  0
LINE
  5
323
100
AcDbEntity
  8
RACCORDO
100
AcDbLine
 62
253
  6
CONTINUOUS
 10
-5.6627709347
 20
24.0859839918
 11
-5.5516259108
 21
24.2072634133
  0
LINE
  5
324
100
AcDbEntity
  8
RACCORDO
100
AcDbLine
 62
253
  6
CONTINUOUS
 10
-1.3999771538
 20
24.5499771547
 11
-1.2622743426
 21
24.6876799659
  0
LINE
  5
325
100
AcDbEntity
  8
RACCORDO
100
AcDbLine
 62
253
  6
CONTINUOUS
 10
-1.1
 20
24.2500456915
 11
-0.9676487694
 21
24.382396922
  0
LINE
  5
326
100
AcDbEntity
  8
RACCORDO
100
AcDbLine
 62
7
  6
CONTINUOUS
 10
-0.973867386
 20
24.026132614
 11
-1.0965699136
 21
23.9034300864
  0
LINE
  5
327
100
AcDbEntity
  8
RACCORDO
100
AcDbLine
 62
7
  6
CONTINUOUS
 10
5.0
 20
25.0
 11
4.9364746865
 21
24.9576551672
  0
LINE
  5
328
100
AcDbEntity
  8
ASSI
100
AcDbLine
 62
7
  6
CONTINUOUS
 10
27.0
 20
-10.4169872981
 11
27.25
 21
-10.35
  0
LINE
  5
329
100
AcDbEntity
  8
RACCORDO
100
AcDbLine
 62
7
  6
CONTINUOUS
 10
-35.25
 20
-18.6
 11
-33.9499619238
 21
-18.6
  0
LINE
  5
32A
100
AcDbEntity
  8
RACCORDO
100
AcDbLine
 62
7
  6
CONTINUOUS
 10
36.8000456915
 20
-18.4
 11
36.55
 21
-18.4
  0
LINE
  5
32B
100
AcDbEntity
  8
RACCORDO
100
AcDbLine
 62
7
  6
CONTINUOUS
 10
36.15
 20
-18.4
 11
35.7499238476
 21
-18.4
  0
LINE
  5
32C
100
AcDbEntity
  8
RACCORDO
100
AcDbLine
 62
253
  6
CONTINUOUS
 10
-22.9060002318
 20
-18.2886997375
 11
-22.7060306927
 21
-18.2886997375
  0
LINE
  5
32D
100
AcDbEntity
  8
RACCORDO
100
AcDbLine
 62
253
  6
CONTINUOUS
 10
22.9060002318
 20
-18.2886997347
 11
22.7060306927
 21
-18.2886997349
  0
LINE
  5
32E
100
AcDbEntity
  8
ASSI
100
AcDbLine
 62
7
  6
CONTINUOUS
 10
-27.25
 20
-10.35
 11
-27.0
 21
-10.4169872981
  0
LINE
  5
32F
100
AcDbEntity
  8
RACCORDO
100
AcDbLine
 62
7
  6
CONTINUOUS
 10
5.0
 20
-25.0
 11
4.9364746865
 21
-24.9576551672
  0
LINE
  5
330
100
AcDbEntity
  8
RACCORDO
100
AcDbLine
 62
253
  6
CONTINUOUS
 10
-1.2622743426
 20
-24.6876799659
 11
-1.3999771538
 21
-24.5499771547
  0
LINE
  5
331
100
AcDbEntity
  8
RACCORDO
100
AcDbLine
 62
253
  6
CONTINUOUS
 10
-0.9676487694
 20
-24.382396922
 11
-1.1
 21
-24.2500456915
  0
LINE
  5
332
100
AcDbEntity
  8
RACCORDO
100
AcDbLine
 62
7
  6
CONTINUOUS
 10
-0.973867386
 20
-24.026132614
 11
-1.0965699136
 21
-23.9034300864
  0
LINE
  5
333
100
AcDbEntity
  8
RACCORDO
100
AcDbLine
 62
253
  6
CONTINUOUS
 10
-5.5516259108
 20
-24.2072634133
 11
-5.6627708796
 21
-24.085983362
  0
LINE
  5
334
100
AcDbEntity
  8
RACCORDO
100
AcDbLine
 62
253
  6
CONTINUOUS
 10
-5.3511250639
 20
-24.026132614
 11
-5.4635563297
 21
-23.9034300864
  0
LINE
  5
335
100
AcDbEntity
  8
DRAFT
100
AcDbLine
 62
7
  6
CONTINUOUS
 10
-8.4934928878
 20
-27.1657095584
 11
-8.4790326386
 21
-27.2006196883
  0
LINE
  5
336
100
AcDbEntity
  8
RACCORDO
100
AcDbLine
 62
7
  6
CONTINUOUS
 10
-13.2939300876
 20
-22.6396405194
 11
-13.3313466521
 21
-22.5
  0
LINE
  5
337
100
AcDbEntity
  8
ASSI
100
AcDbLine
 62
253
  6
CONTINUOUS
 10
-12.8483837389
 20
-22.5
 11
-12.8106002045
 21
-22.64101007
  0
LINE
  5
338
100
AcDbEntity
  8
DRAFT
100
AcDbLine
 62
7
  6
CONTINUOUS
 10
-10.6165986665
 20
-26.3506196883
 11
-10.3888418529
 21
-27.2006196883
  0
LINE
  5
339
100
AcDbEntity
  8
DRAFT
100
AcDbLine
 62
7
  6
CONTINUOUS
 10
-10.5898111817
 20
-26.3157095584
 11
-10.3620543682
 21
-27.1657095584
  0
LINE
  5
33A
100
AcDbEntity
  8
DRAFT
100
AcDbLine
 62
7
  6
CONTINUOUS
 10
-14.1311629851
 20
-25.05
 11
-14.1264863489
 21
-25.35
  0
LINE
  5
33B
100
AcDbEntity
  8
RACCORDO
100
AcDbLine
 62
7
  6
CONTINUOUS
 10
-16.4
 20
-34.7
 11
-16.4
 21
-34.1999238476
  0
LINE
  5
33C
100
AcDbEntity
  8
RACCORDO
100
AcDbLine
 62
7
  6
CONTINUOUS
 10
-16.2
 20
35.8999543085
 11
-16.2
 21
36.35
  0
LINE
  5
33D
100
AcDbEntity
  8
RACCORDO
100
AcDbLine
 62
7
  6
CONTINUOUS
 10
-16.2
 20
36.75
 11
-16.2
 21
36.8000456915
  0
LINE
  5
33E
100
AcDbEntity
  8
ASSI
100
AcDbLine
 62
7
  6
CONTINUOUS
 10
-15.8
 20
-22.6376371519
 11
-15.8
 21
-22.538400979
  0
LINE
  5
33F
100
AcDbEntity
  8
ASSI
100
AcDbLine
 62
7
  6
CONTINUOUS
 10
-15.8
 20
22.538400979
 11
-15.8
 21
22.6376371519
  0
LINE
  5
340
100
AcDbEntity
  8
RACCORDO
100
AcDbLine
 62
7
  6
CONTINUOUS
 10
-15.0
 20
-35.8999543085
 11
-15.0
 21
-36.35
  0
LINE
  5
341
100
AcDbEntity
  8
RACCORDO
100
AcDbLine
 62
7
  6
CONTINUOUS
 10
-15.0
 20
-36.75
 11
-15.0
 21
-36.8000456915
  0
LINE
  5
342
100
AcDbEntity
  8
RACCORDO
100
AcDbLine
 62
7
  6
CONTINUOUS
 10
-14.8
 20
34.7
 11
-14.8
 21
34.1999238476
  0
LINE
  5
343
100
AcDbEntity
  8
RACCORDO
100
AcDbLine
 62
253
  6
CONTINUOUS
 10
-14.7504303095
 20
-22.7060306927
 11
-14.7504303095
 21
-24.8114243722
  0
LINE
  5
344
100
AcDbEntity
  8
RACCORDO
100
AcDbLine
 62
253
  6
CONTINUOUS
 10
-14.7504303095
 20
22.7060306927
 11
-14.7504303095
 21
24.8114243722
  0
LINE
  5
345
100
AcDbEntity
  8
RACCORDO
100
AcDbLine
 62
253
  6
CONTINUOUS
 10
-14.3089619429
 20
22.9032222875
 11
-14.3089619125
 21
24.6142327784
  0
LINE
  5
346
100
AcDbEntity
  8
RACCORDO
100
AcDbLine
 62
253
  6
CONTINUOUS
 10
-14.3089619429
 20
-24.6142327774
 11
-14.3089619125
 21
-22.9032222865
  0
LINE
  5
347
100
AcDbEntity
  8
RACCORDO
100
AcDbLine
 62
253
  6
CONTINUOUS
 10
-13.6339529697
 20
22.8810629562
 11
-13.6339527087
 21
24.6363921173
  0
LINE
  5
348
100
AcDbEntity
  8
RACCORDO
100
AcDbLine
 62
253
  6
CONTINUOUS
 10
-13.6339529697
 20
-24.6363921087
 11
-13.6339527087
 21
-22.8810629476
  0
LINE
  5
349
100
AcDbEntity
  8
DRAFT
100
AcDbLine
 62
7
  6
CONTINUOUS
 10
-14.1264863489
 20
25.35
 11
-14.1311629851
 21
25.05
  0
LINE
  5
34A
100
AcDbEntity
  8
RACCORDO
100
AcDbLine
 62
7
  6
CONTINUOUS
 10
-10.75
 20
22.5
 11
-10.7253776088
 21
22.6396405194
  0
LINE
  5
34B
100
AcDbEntity
  8
ASSI
100
AcDbLine
 62
253
  6
CONTINUOUS
 10
-10.2651050844
 20
22.5
 11
-10.2397815732
 21
22.643616769
  0
LINE
  5
34C
100
AcDbEntity
  8
DRAFT
100
AcDbLine
 62
7
  6
CONTINUOUS
 10
-10.25
 20
25.35
 11
-10.3303847577
 21
25.05
  0
LINE
  5
34D
100
AcDbEntity
  8
RACCORDO
100
AcDbLine
 62
253
  6
CONTINUOUS
 10
-3.9866545578
 20
23.3766929191
 11
-4.0
 21
23.3500000017
  0
LINE
  5
34E
100
AcDbEntity
  8
RACCORDO
100
AcDbLine
 62
253
  6
CONTINUOUS
 10
-3.6859890075
 20
23.0780926603
 11
-3.7000342679
 21
23.05
  0
LINE
  5
34F
100
AcDbEntity
  8
RACCORDO
100
AcDbLine
 62
253
  6
CONTINUOUS
 10
4.6709677904
 20
26.5708649879
 11
4.7001028025
 21
26.6
  0
LINE
  5
350
100
AcDbEntity
  8
RACCORDO
100
AcDbLine
 62
253
  6
CONTINUOUS
 10
4.9708649879
 20
26.2709677904
 11
5.0
 21
26.3001028025
  0
LINE
  5
351
100
AcDbEntity
  8
0
100
AcDbLine
 62
7
  6
CONTINUOUS
 10
8.4
 20
27.9
 11
6.4
 21
25.9
  0
LINE
  5
352
100
AcDbEntity
  8
ASSI
100
AcDbLine
 62
7
  6
CONTINUOUS
 10
8.4
 20
27.9
 11
6.4
 21
25.9
  0
LINE
  5
353
100
AcDbEntity
  8
RACCORDO
100
AcDbLine
 62
7
  6
CONTINUOUS
 10
34.7
 20
-16.4
 11
34.1999238476
 21
-16.4
  0
LINE
  5
354
100
AcDbEntity
  8
RACCORDO
100
AcDbLine
 62
7
  6
CONTINUOUS
 10
-35.8999543085
 20
-16.2
 11
-36.35
 21
-16.2
  0
LINE
  5
355
100
AcDbEntity
  8
RACCORDO
100
AcDbLine
 62
7
  6
CONTINUOUS
 10
-36.75
 20
-16.2
 11
-36.8000456915
 21
-16.2
  0
LINE
  5
356
100
AcDbEntity
  8
RACCORDO
100
AcDbLine
 62
7
  6
CONTINUOUS
 10
35.8999543085
 20
-15.0
 11
36.35
 21
-15.0
  0
LINE
  5
357
100
AcDbEntity
  8
RACCORDO
100
AcDbLine
 62
7
  6
CONTINUOUS
 10
36.75
 20
-15.0
 11
36.8000456915
 21
-15.0
  0
LINE
  5
358
100
AcDbEntity
  8
RACCORDO
100
AcDbLine
 62
7
  6
CONTINUOUS
 10
-34.7
 20
-14.8
 11
-34.1999238476
 21
-14.8
  0
LINE
  5
359
100
AcDbEntity
  8
0
100
AcDbLine
 62
7
  6
CONTINUOUS
 10
-25.95
 20
-14.75
 11
-24.55
 21
-14.75
  0
LINE
  5
35A
100
AcDbEntity
  8
0
100
AcDbLine
 62
7
  6
CONTINUOUS
 10
24.55
 20
-14.75
 11
25.95
 21
-14.75
  0
LINE
  5
35B
100
AcDbEntity
  8
RACCORDO
100
AcDbLine
 62
253
  6
CONTINUOUS
 10
4.7001028025
 20
-26.6
 11
4.6709677904
 21
-26.5708649879
  0
LINE
  5
35C
100
AcDbEntity
  8
RACCORDO
100
AcDbLine
 62
253
  6
CONTINUOUS
 10
5.0
 20
-26.3001028025
 11
4.9708649879
 21
-26.2709677904
  0
LINE
  5
35D
100
AcDbEntity
  8
0
100
AcDbLine
 62
7
  6
CONTINUOUS
 10
6.4
 20
-25.9
 11
8.4
 21
-27.9
  0
LINE
  5
35E
100
AcDbEntity
  8
ASSI
100
AcDbLine
 62
7
  6
CONTINUOUS
 10
6.4
 20
-25.9
 11
8.4
 21
-27.9
  0
LINE
  5
35F
100
AcDbEntity
  8
RACCORDO
100
AcDbLine
 62
253
  6
CONTINUOUS
 10
-3.9866545578
 20
-23.3766929191
 11
-4.0
 21
-23.3500000017
  0
LINE
  5
360
100
AcDbEntity
  8
RACCORDO
100
AcDbLine
 62
253
  6
CONTINUOUS
 10
-3.6859890075
 20
-23.0780926603
 11
-3.7000342679
 21
-23.05
  0
LINE
  5
361
100
AcDbEntity
  8
DRAFT
100
AcDbLine
 62
7
  6
CONTINUOUS
 10
-10.25
 20
-25.35
 11
-10.3303847577
 21
-25.05
  0
LINE
  5
362
100
AcDbEntity
  8
RACCORDO
100
AcDbLine
 62
7
  6
CONTINUOUS
 10
-10.7253776088
 20
-22.6396405194
 11
-10.75
 21
-22.5
  0
LINE
  5
363
100
AcDbEntity
  8
ASSI
100
AcDbLine
 62
253
  6
CONTINUOUS
 10
-10.2397815732
 20
-22.643616769
 11
-10.2651050844
 21
-22.5
  0
LINE
  5
364
100
AcDbEntity
  8
RACCORDO
100
AcDbLine
 62
253
  6
CONTINUOUS
 10
-13.1924927139
 20
-22.6746115759
 11
-13.1924927135
 21
-24.8428434891
  0
LINE
  5
365
100
AcDbEntity
  8
RACCORDO
100
AcDbLine
 62
253
  6
CONTINUOUS
 10
-13.1924927135
 20
22.6746115759
 11
-13.1924927139
 21
24.8428434891
  0
LINE
  5
366
100
AcDbEntity
  8
RACCORDO
100
AcDbLine
 62
7
  6
CONTINUOUS
 10
-12.8
 20
36.8000456915
 11
-12.8
 21
36.55
  0
LINE
  5
367
100
AcDbEntity
  8
RACCORDO
100
AcDbLine
 62
7
  6
CONTINUOUS
 10
-12.8
 20
36.15
 11
-12.8
 21
35.7499238476
  0
LINE
  5
368
100
AcDbEntity
  8
RACCORDO
100
AcDbLine
 62
7
  6
CONTINUOUS
 10
-12.6
 20
-34.9500456915
 11
-12.6
 21
-33.9499619238
  0
LINE
  5
369
100
AcDbEntity
  8
RACCORDO
100
AcDbLine
 62
7
  6
CONTINUOUS
 10
-8.300250854
 20
22.5
 11
-8.2755946723
 21
22.6396405194
  0
LINE
  5
36A
100
AcDbEntity
  8
RACCORDO
100
AcDbLine
 62
7
  6
CONTINUOUS
 10
-14.199749146
 20
-22.5
 11
-14.2244053277
 21
-22.6396405194
  0
LINE
  5
36B
100
AcDbEntity
  8
RACCORDO
100
AcDbLine
 62
253
  6
CONTINUOUS
 10
-1.4253193401
 20
24.4992889218
 11
-1.3999771538
 21
24.5499771547
  0
LINE
  5
36C
100
AcDbEntity
  8
RACCORDO
100
AcDbLine
 62
253
  6
CONTINUOUS
 10
-1.1253307632
 20
24.1993346133
 11
-1.1
 21
24.2499999983
  0
LINE
  5
36D
100
AcDbEntity
  8
ASSI
100
AcDbLine
 62
253
  6
CONTINUOUS
 10
-25.55
 20
-6.4500456915
 11
-25.4992889218
 21
-6.3993346133
  0
LINE
  5
36E
100
AcDbEntity
  8
DRAFT
100
AcDbLine
 62
7
  6
CONTINUOUS
 10
8.4790326386
 20
27.2006196883
 11
6.7952142555
 21
25.5168013052
  0
LINE
  5
36F
100
AcDbEntity
  8
DRAFT
100
AcDbLine
 62
7
  6
CONTINUOUS
 10
8.4934928878
 20
27.1657095584
 11
6.7904807817
 21
25.4626974523
  0
LINE
  5
370
100
AcDbEntity
  8
ASSI
100
AcDbLine
 62
253
  6
CONTINUOUS
 10
-25.2500456915
 20
-6.75
 11
-25.1993346133
 21
-6.6992889218
  0
LINE
  5
371
100
AcDbEntity
  8
0
100
AcDbLine
 62
7
  6
CONTINUOUS
 10
-25.95
 20
-7.75
 11
-27.25
 21
-9.05
  0
LINE
  5
372
100
AcDbEntity
  8
RACCORDO
100
AcDbLine
 62
7
  6
CONTINUOUS
 10
-24.55
 20
-6.75
 11
-24.4992889218
 21
-6.6992889218
  0
LINE
  5
373
100
AcDbEntity
  8
DRAFT
100
AcDbLine
 62
7
  6
CONTINUOUS
 10
10.35
 20
27.1657095584
 11
10.3342904416
 21
27.15
  0
LINE
  5
374
100
AcDbEntity
  8
RACCORDO
100
AcDbLine
 62
7
  6
CONTINUOUS
 10
-36.8000456915
 20
-12.8
 11
-36.55
 21
-12.8
  0
LINE
  5
375
100
AcDbEntity
  8
RACCORDO
100
AcDbLine
 62
7
  6
CONTINUOUS
 10
-36.15
 20
-12.8
 11
-35.7499238476
 21
-12.8
  0
LINE
  5
376
100
AcDbEntity
  8
RACCORDO
100
AcDbLine
 62
7
  6
CONTINUOUS
 10
35.050030461
 20
-12.6
 11
33.9499619238
 21
-12.6
  0
LINE
  5
377
100
AcDbEntity
  8
ASSI
100
AcDbLine
 62
253
  6
CONTINUOUS
 10
-25.4992889218
 20
6.3993346133
 11
-25.55
 21
6.4500456915
  0
LINE
  5
378
100
AcDbEntity
  8
DRAFT
100
AcDbLine
 62
7
  6
CONTINUOUS
 10
6.7952142555
 20
-25.5168013052
 11
8.4790326386
 21
-27.2006196883
  0
LINE
  5
379
100
AcDbEntity
  8
DRAFT
100
AcDbLine
 62
7
  6
CONTINUOUS
 10
6.7904807817
 20
-25.4626974523
 11
8.4934928878
 21
-27.1657095584
  0
LINE
  5
37A
100
AcDbEntity
  8
ASSI
100
AcDbLine
 62
253
  6
CONTINUOUS
 10
-25.1993346133
 20
6.6992889218
 11
-25.2500456915
 21
6.75
  0
LINE
  5
37B
100
AcDbEntity
  8
0
100
AcDbLine
 62
7
  6
CONTINUOUS
 10
-27.25
 20
9.05
 11
-25.95
 21
7.75
  0
LINE
  5
37C
100
AcDbEntity
  8
RACCORDO
100
AcDbLine
 62
7
  6
CONTINUOUS
 10
-24.55
 20
6.75
 11
-24.4992889218
 21
6.6992889218
  0
LINE
  5
37D
100
AcDbEntity
  8
DRAFT
100
AcDbLine
 62
7
  6
CONTINUOUS
 10
10.35
 20
-27.1657095584
 11
10.3342904416
 21
-27.15
  0
LINE
  5
37E
100
AcDbEntity
  8
RACCORDO
100
AcDbLine
 62
253
  6
CONTINUOUS
 10
-1.3999771538
 20
-24.5499771547
 11
-1.4253193401
 21
-24.4992889218
  0
LINE
  5
37F
100
AcDbEntity
  8
RACCORDO
100
AcDbLine
 62
253
  6
CONTINUOUS
 10
-1.1
 20
-24.2499999983
 11
-1.1253307632
 21
-24.1993346133
  0
LINE
  5
380
100
AcDbEntity
  8
RACCORDO
100
AcDbLine
 62
7
  6
CONTINUOUS
 10
-8.300250854
 20
-22.5
 11
-8.2755946723
 21
-22.6396405194
  0
LINE
  5
381
100
AcDbEntity
  8
RACCORDO
100
AcDbLine
 62
7
  6
CONTINUOUS
 10
-14.199749146
 20
22.5
 11
-14.2244053277
 21
22.6396405194
  0
LINE
  5
382
100
AcDbEntity
  8
DRAFT
100
AcDbLine
 62
7
  6
CONTINUOUS
 10
-8.3688370149
 20
25.05
 11
-8.3735136511
 21
25.35
  0
LINE
  5
383
100
AcDbEntity
  8
RACCORDO
100
AcDbLine
 62
253
  6
CONTINUOUS
 10
-9.3075072865
 20
-22.6746115759
 11
-9.3075072861
 21
-24.8428434891
  0
LINE
  5
384
100
AcDbEntity
  8
RACCORDO
100
AcDbLine
 62
253
  6
CONTINUOUS
 10
-9.3075072865
 20
24.8428434891
 11
-9.3075072861
 21
22.6746115759
  0
LINE
  5
385
100
AcDbEntity
  8
RACCORDO
100
AcDbLine
 62
253
  6
CONTINUOUS
 10
-8.8660470303
 20
24.6363921087
 11
-8.8660472913
 21
22.8810629476
  0
LINE
  5
386
100
AcDbEntity
  8
RACCORDO
100
AcDbLine
 62
253
  6
CONTINUOUS
 10
-8.8660470303
 20
-22.8810629562
 11
-8.8660472913
 21
-24.6363921173
  0
LINE
  5
387
100
AcDbEntity
  8
0
100
AcDbLine
 62
253
  6
CONTINUOUS
 10
-8.2947330149
 20
-34.25
 11
-8.2947330149
 21
-33.5943979443
  0
LINE
  5
388
100
AcDbEntity
  8
ASSI
100
AcDbLine
 62
7
  6
CONTINUOUS
 10
-8.2947330149
 20
-34.25
 11
-8.2947330149
 21
-33.5942865255
  0
LINE
  5
389
100
AcDbEntity
  8
0
100
AcDbLine
 62
253
  6
CONTINUOUS
 10
-8.2947330149
 20
33.5943979443
 11
-8.2947330149
 21
34.25
  0
LINE
  5
38A
100
AcDbEntity
  8
ASSI
100
AcDbLine
 62
7
  6
CONTINUOUS
 10
-8.2947330149
 20
33.5942915205
 11
-8.2947330149
 21
34.25
  0
LINE
  5
38B
100
AcDbEntity
  8
RACCORDO
100
AcDbLine
 62
253
  6
CONTINUOUS
 10
-8.1910380571
 20
24.6142327774
 11
-8.1910380875
 21
22.9032222865
  0
LINE
  5
38C
100
AcDbEntity
  8
RACCORDO
100
AcDbLine
 62
253
  6
CONTINUOUS
 10
-8.1910380571
 20
-22.9032222875
 11
-8.1910380875
 21
-24.6142327784
  0
LINE
  5
38D
100
AcDbEntity
  8
RACCORDO
100
AcDbLine
 62
253
  6
CONTINUOUS
 10
-7.7495696905
 20
-22.7060306927
 11
-7.7495696905
 21
-24.8114243722
  0
LINE
  5
38E
100
AcDbEntity
  8
RACCORDO
100
AcDbLine
 62
253
  6
CONTINUOUS
 10
-7.7495696905
 20
22.7060306927
 11
-7.7495696905
 21
24.8114243722
  0
LINE
  5
38F
100
AcDbEntity
  8
ASSI
100
AcDbLine
 62
7
  6
CONTINUOUS
 10
-6.7
 20
-22.6376371519
 11
-6.7
 21
-22.538400979
  0
LINE
  5
390
100
AcDbEntity
  8
ASSI
100
AcDbLine
 62
7
  6
CONTINUOUS
 10
-6.7
 20
22.538400979
 11
-6.7
 21
22.6376371519
  0
LINE
  5
391
100
AcDbEntity
  8
DRAFT
100
AcDbLine
 62
7
  6
CONTINUOUS
 10
-8.3735136511
 20
-25.35
 11
-8.3688370149
 21
-25.05
  0
LINE
  5
392
100
AcDbEntity
  8
ASSI
100
AcDbLine
 62
253
  6
CONTINUOUS
 10
-12.2348949156
 20
-22.5
 11
-12.2602184268
 21
-22.643616769
  0
LINE
  5
393
100
AcDbEntity
  8
RACCORDO
100
AcDbLine
 62
7
  6
CONTINUOUS
 10
-11.75
 20
-22.5
 11
-11.7746223912
 21
-22.6396405194
  0
LINE
  5
394
100
AcDbEntity
  8
RACCORDO
100
AcDbLine
 62
7
  6
CONTINUOUS
 10
-16.0340263191
 20
-25.0
 11
-15.9786541704
 21
-24.8114243722
  0
LINE
  5
395
100
AcDbEntity
  8
RACCORDO
100
AcDbLine
 62
253
  6
CONTINUOUS
 10
1.1226974078
 20
23.9953982748
 11
1.1253307632
 21
24.0006653867
  0
LINE
  5
396
100
AcDbEntity
  8
RACCORDO
100
AcDbLine
 62
253
  6
CONTINUOUS
 10
1.1133454422
 20
23.3766929191
 11
1.1
 21
23.3500000017
  0
LINE
  5
397
100
AcDbEntity
  8
RACCORDO
100
AcDbLine
 62
253
  6
CONTINUOUS
 10
1.423362958
 20
23.696798016
 11
1.4253193401
 21
23.7007110782
  0
LINE
  5
398
100
AcDbEntity
  8
RACCORDO
100
AcDbLine
 62
253
  6
CONTINUOUS
 10
1.4140109925
 20
23.0780926603
 11
1.3999657321
 21
23.05
  0
LINE
  5
399
100
AcDbEntity
  8
DRAFT
100
AcDbLine
 62
7
  6
CONTINUOUS
 10
10.3888418529
 20
27.2006196883
 11
10.3620543682
 21
27.1657095584
  0
LINE
  5
39A
100
AcDbEntity
  8
DRAFT
100
AcDbLine
 62
7
  6
CONTINUOUS
 10
10.5898111817
 20
26.3157095584
 11
10.6165986665
 21
26.3506196883
  0
LINE
  5
39B
100
AcDbEntity
  8
DRAFT
100
AcDbLine
 62
7
  6
CONTINUOUS
 10
14.0
 20
27.1657095584
 11
13.9842904416
 21
27.15
  0
LINE
  5
39C
100
AcDbEntity
  8
ASSI
100
AcDbLine
 62
7
  6
CONTINUOUS
 10
24.55
 20
16.7148885728
 11
24.3614243722
 21
16.6566854756
  0
LINE
  5
39D
100
AcDbEntity
  8
0
100
AcDbLine
 62
253
  6
CONTINUOUS
 10
34.25
 20
-8.2947330149
 11
33.5943979443
 21
-8.2947330149
  0
LINE
  5
39E
100
AcDbEntity
  8
ASSI
100
AcDbLine
 62
7
  6
CONTINUOUS
 10
34.25
 20
-8.2947330149
 11
33.5942865255
 21
-8.2947330149
  0
LINE
  5
39F
100
AcDbEntity
  8
0
100
AcDbLine
 62
253
  6
CONTINUOUS
 10
-33.5943979443
 20
-8.2947330149
 11
-34.25
 21
-8.2947330149
  0
LINE
  5
3A0
100
AcDbEntity
  8
ASSI
100
AcDbLine
 62
7
  6
CONTINUOUS
 10
-33.5942915205
 20
-8.2947330149
 11
-34.25
 21
-8.2947330149
  0
LINE
  5
3A1
100
AcDbEntity
  8
0
100
AcDbLine
 62
7
  6
CONTINUOUS
 10
25.95
 20
-7.75
 11
24.7
 21
-7.75
  0
LINE
  5
3A2
100
AcDbEntity
  8
ASSI
100
AcDbLine
 62
7
  6
CONTINUOUS
 10
24.7
 20
-7.75
 11
24.55
 21
-7.75
  0
LINE
  5
3A3
100
AcDbEntity
  8
ASSI
100
AcDbLine
 62
7
  6
CONTINUOUS
 10
-24.55
 20
-7.75
 11
-24.7
 21
-7.75
  0
LINE
  5
3A4
100
AcDbEntity
  8
0
100
AcDbLine
 62
7
  6
CONTINUOUS
 10
-24.7
 20
-7.75
 11
-25.95
 21
-7.75
  0
LINE
  5
3A5
100
AcDbEntity
  8
ASSI
100
AcDbLine
 62
7
  6
CONTINUOUS
 10
-25.2500456915
 20
-6.75
 11
-24.55
 21
-6.75
  0
LINE
  5
3A6
100
AcDbEntity
  8
ASSI
100
AcDbLine
 62
7
  6
CONTINUOUS
 10
24.55
 20
-6.75
 11
25.2500456915
 21
-6.75
  0
LINE
  5
3A7
100
AcDbEntity
  8
RACCORDO
100
AcDbLine
 62
253
  6
CONTINUOUS
 10
-25.1993346133
 20
-6.6992889218
 11
-24.4992889218
 21
-6.6992889218
  0
LINE
  5
3A8
100
AcDbEntity
  8
RACCORDO
100
AcDbLine
 62
253
  6
CONTINUOUS
 10
24.4992889218
 20
-6.6992889218
 11
25.1993346133
 21
-6.6992889218
  0
LINE
  5
3A9
100
AcDbEntity
  8
ASSI
100
AcDbLine
 62
7
  6
CONTINUOUS
 10
24.55
 20
-16.7148885728
 11
24.3614243722
 21
-16.6566854756
  0
LINE
  5
3AA
100
AcDbEntity
  8
DRAFT
100
AcDbLine
 62
7
  6
CONTINUOUS
 10
14.0
 20
-27.1657095584
 11
13.9842904416
 21
-27.15
  0
LINE
  5
3AB
100
AcDbEntity
  8
DRAFT
100
AcDbLine
 62
7
  6
CONTINUOUS
 10
10.3888418529
 20
-27.2006196883
 11
10.3620543682
 21
-27.1657095584
  0
LINE
  5
3AC
100
AcDbEntity
  8
DRAFT
100
AcDbLine
 62
7
  6
CONTINUOUS
 10
10.5898111817
 20
-26.3157095584
 11
10.6165986665
 21
-26.3506196883
  0
LINE
  5
3AD
100
AcDbEntity
  8
RACCORDO
100
AcDbLine
 62
253
  6
CONTINUOUS
 10
1.1253307632
 20
-24.0006653867
 11
1.1226974078
 21
-23.9953982748
  0
LINE
  5
3AE
100
AcDbEntity
  8
RACCORDO
100
AcDbLine
 62
253
  6
CONTINUOUS
 10
1.1133454422
 20
-23.3766929191
 11
1.1
 21
-23.3500000017
  0
LINE
  5
3AF
100
AcDbEntity
  8
RACCORDO
100
AcDbLine
 62
253
  6
CONTINUOUS
 10
1.4253193401
 20
-23.7007110782
 11
1.423362958
 21
-23.696798016
  0
LINE
  5
3B0
100
AcDbEntity
  8
RACCORDO
100
AcDbLine
 62
253
  6
CONTINUOUS
 10
1.4140109925
 20
-23.0780926603
 11
1.3999657321
 21
-23.05
  0
LINE
  5
3B1
100
AcDbEntity
  8
RACCORDO
100
AcDbLine
 62
7
  6
CONTINUOUS
 10
-16.0340263191
 20
25.0
 11
-15.9786541704
 21
24.8114243722
  0
LINE
  5
3B2
100
AcDbEntity
  8
ASSI
100
AcDbLine
 62
253
  6
CONTINUOUS
 10
-12.2602184268
 20
22.643616769
 11
-12.2348949156
 21
22.5
  0
LINE
  5
3B3
100
AcDbEntity
  8
RACCORDO
100
AcDbLine
 62
7
  6
CONTINUOUS
 10
-11.7746223912
 20
22.6396405194
 11
-11.75
 21
22.5
  0
LINE
  5
3B4
100
AcDbEntity
  8
DRAFT
100
AcDbLine
 62
7
  6
CONTINUOUS
 10
-6.7952142555
 20
25.5168013052
 11
-6.75
 21
25.0
  0
LINE
  5
3B5
100
AcDbEntity
  8
RACCORDO
100
AcDbLine
 62
7
  6
CONTINUOUS
 10
-6.75
 20
25.0
 11
-6.7426961983
 21
24.9165171649
  0
LINE
  5
3B6
100
AcDbEntity
  8
RACCORDO
100
AcDbLine
 62
7
  6
CONTINUOUS
 10
-6.5427053537
 20
22.6306113506
 11
-6.5399320266
 21
22.5989120768
  0
LINE
  5
3B7
100
AcDbEntity
  8
DRAFT
100
AcDbLine
 62
7
  6
CONTINUOUS
 10
-6.5388105481
 20
22.5860935189
 11
-6.5352045611
 21
22.5448768991
  0
LINE
  5
3B8
100
AcDbEntity
  8
SMUSSO
100
AcDbLine
 62
7
  6
CONTINUOUS
 10
-6.5340698898
 20
22.5319075465
 11
-6.5312781217
 21
22.4999974916
  0
LINE
  5
3B9
100
AcDbEntity
  8
RACCORDO
100
AcDbLine
 62
253
  6
CONTINUOUS
 10
-5.8619784041
 20
24.068542638
 11
-5.9094770665
 21
24.6114548332
  0
LINE
  5
3BA
100
AcDbEntity
  8
RACCORDO
100
AcDbLine
 62
253
  6
CONTINUOUS
 10
-5.6627709347
 20
24.0859839918
 11
-5.7102684719
 21
24.6288833269
  0
LINE
  5
3BB
100
AcDbEntity
  8
RACCORDO
100
AcDbLine
 62
253
  6
CONTINUOUS
 10
-5.5516259108
 20
24.2072634133
 11
-5.5902871146
 21
24.7598200021
  0
LINE
  5
3BC
100
AcDbEntity
  8
RACCORDO
100
AcDbLine
 62
253
  6
CONTINUOUS
 10
-5.3484195506
 20
24.026132614
 11
-5.409079964
 21
24.8931196239
  0
LINE
  5
3BD
100
AcDbEntity
  8
RACCORDO
100
AcDbLine
 62
253
  6
CONTINUOUS
 10
-4.9708649879
 20
26.2709677904
 11
-4.9364746865
 21
24.9576551672
  0
LINE
  5
3BE
100
AcDbEntity
  8
RACCORDO
100
AcDbLine
 62
253
  6
CONTINUOUS
 10
-4.6709677904
 20
26.4830998247
 11
-4.6293326935
 21
24.8931196239
  0
LINE
  5
3BF
100
AcDbEntity
  8
RACCORDO
100
AcDbLine
 62
253
  6
CONTINUOUS
 10
-3.9824192776
 20
-23.6568896896
 11
-3.9866545578
 21
-23.3766929191
  0
LINE
  5
3C0
100
AcDbEntity
  8
RACCORDO
100
AcDbLine
 62
253
  6
CONTINUOUS
 10
-3.680282597
 20
-23.5391958524
 11
-3.6872523462
 21
-23.0780926603
  0
LINE
  5
3C1
100
AcDbEntity
  8
RACCORDO
100
AcDbLine
 62
253
  6
CONTINUOUS
 10
-4.1217257855
 20
23.9040160591
 11
-4.121839318
 21
23.9132139806
  0
LINE
  5
3C2
100
AcDbEntity
  8
RACCORDO
100
AcDbLine
 62
253
  6
CONTINUOUS
 10
-5.9094770665
 20
-24.6114548332
 11
-5.9094770665
 21
-24.8114243722
  0
LINE
  5
3C3
100
AcDbEntity
  8
RACCORDO
100
AcDbLine
 62
253
  6
CONTINUOUS
 10
-5.9094770665
 20
24.6114548332
 11
-5.9094770665
 21
24.8114243722
  0
LINE
  5
3C4
100
AcDbEntity
  8
RACCORDO
100
AcDbLine
 62
253
  6
CONTINUOUS
 10
-5.463561215
 20
-23.7034605474
 11
-5.463561215
 21
-23.9034300864
  0
LINE
  5
3C5
100
AcDbEntity
  8
RACCORDO
100
AcDbLine
 62
253
  6
CONTINUOUS
 10
-5.463561215
 20
23.7034605474
 11
-5.463561215
 21
23.9034300864
  0
LINE
  5
3C6
100
AcDbEntity
  8
RACCORDO
100
AcDbLine
 62
253
  6
CONTINUOUS
 10
-5.409079964
 20
24.9516678067
 11
-5.409079964
 21
24.8931196239
  0
LINE
  5
3C7
100
AcDbEntity
  8
RACCORDO
100
AcDbLine
 62
253
  6
CONTINUOUS
 10
-5.409079964
 20
-24.9516678067
 11
-5.4090799641
 21
-24.8931196239
  0
LINE
  5
3C8
100
AcDbEntity
  8
ASSI
100
AcDbLine
 62
7
  6
CONTINUOUS
 10
-5.0
 20
26.3001028025
 11
-5.0
 21
25.0
  0
LINE
  5
3C9
100
AcDbEntity
  8
ASSI
100
AcDbLine
 62
7
  6
CONTINUOUS
 10
-5.0
 20
-25.0
 11
-5.0
 21
-26.3001028025
  0
LINE
  5
3CA
100
AcDbEntity
  8
RACCORDO
100
AcDbLine
 62
253
  6
CONTINUOUS
 10
-4.6709677904
 20
26.5708649879
 11
-4.6709677904
 21
26.4830998247
  0
LINE
  5
3CB
100
AcDbEntity
  8
RACCORDO
100
AcDbLine
 62
253
  6
CONTINUOUS
 10
-4.6709677904
 20
-26.4830998247
 11
-4.6709677904
 21
-26.5708649879
  0
LINE
  5
3CC
100
AcDbEntity
  8
RACCORDO
100
AcDbLine
 62
7
  6
CONTINUOUS
 10
-4.0
 20
23.65
 11
-4.0
 21
23.3500000017
  0
LINE
  5
3CD
100
AcDbEntity
  8
RACCORDO
100
AcDbLine
 62
7
  6
CONTINUOUS
 10
-4.0
 20
-23.3500000017
 11
-4.0
 21
-23.65
  0
LINE
  5
3CE
100
AcDbEntity
  8
RACCORDO
100
AcDbLine
 62
253
  6
CONTINUOUS
 10
-3.8348804397
 20
24.0006653867
 11
-3.8348804397
 21
23.7007110782
  0
LINE
  5
3CF
100
AcDbEntity
  8
RACCORDO
100
AcDbLine
 62
253
  6
CONTINUOUS
 10
-3.8348804397
 20
-24.0006653867
 11
-3.8348804397
 21
-23.7007110782
  0
LINE
  5
3D0
100
AcDbEntity
  8
RACCORDO
100
AcDbLine
 62
253
  6
CONTINUOUS
 10
-3.8348804623
 20
-24.1993346133
 11
-3.8348804623
 21
-24.4992889218
  0
LINE
  5
3D1
100
AcDbEntity
  8
RACCORDO
100
AcDbLine
 62
253
  6
CONTINUOUS
 10
-3.8348804648
 20
24.1993346133
 11
-3.8348804648
 21
24.4992889218
  0
LINE
  5
3D2
100
AcDbEntity
  8
RACCORDO
100
AcDbLine
 62
253
  6
CONTINUOUS
 10
-4.121839318
 20
-23.9132139806
 11
-4.1217257855
 21
-23.9040160591
  0
LINE
  5
3D3
100
AcDbEntity
  8
RACCORDO
100
AcDbLine
 62
253
  6
CONTINUOUS
 10
-3.9866545578
 20
23.3766929191
 11
-3.9824192776
 21
23.6568896896
  0
LINE
  5
3D4
100
AcDbEntity
  8
RACCORDO
100
AcDbLine
 62
253
  6
CONTINUOUS
 10
-3.6872523462
 20
23.0780926603
 11
-3.680282597
 21
23.5391958524
  0
LINE
  5
3D5
100
AcDbEntity
  8
RACCORDO
100
AcDbLine
 62
253
  6
CONTINUOUS
 10
-4.9364746865
 20
-24.9576551672
 11
-4.9708649879
 21
-26.2709677904
  0
LINE
  5
3D6
100
AcDbEntity
  8
RACCORDO
100
AcDbLine
 62
253
  6
CONTINUOUS
 10
-4.6293326935
 20
-24.8931196239
 11
-4.6709677904
 21
-26.4830998247
  0
LINE
  5
3D7
100
AcDbEntity
  8
RACCORDO
100
AcDbLine
 62
253
  6
CONTINUOUS
 10
-5.590287119
 20
-24.7598199973
 11
-5.5516259108
 21
-24.2072634133
  0
LINE
  5
3D8
100
AcDbEntity
  8
RACCORDO
100
AcDbLine
 62
253
  6
CONTINUOUS
 10
-5.409079964
 20
-24.8931196239
 11
-5.3484195506
 21
-24.026132614
  0
LINE
  5
3D9
100
AcDbEntity
  8
RACCORDO
100
AcDbLine
 62
7
  6
CONTINUOUS
 10
-6.75
 20
-25.0
 11
-6.7426961983
 21
-24.9165171649
  0
LINE
  5
3DA
100
AcDbEntity
  8
SMUSSO
100
AcDbLine
 62
7
  6
CONTINUOUS
 10
-6.5340698898
 20
-22.5319075465
 11
-6.5312781217
 21
-22.4999974916
  0
LINE
  5
3DB
100
AcDbEntity
  8
DRAFT
100
AcDbLine
 62
7
  6
CONTINUOUS
 10
-6.5388105481
 20
-22.5860935189
 11
-6.5352045611
 21
-22.5448768991
  0
LINE
  5
3DC
100
AcDbEntity
  8
RACCORDO
100
AcDbLine
 62
7
  6
CONTINUOUS
 10
-6.5399320266
 20
-22.5989120768
 11
-6.5427053537
 21
-22.6306113506
  0
LINE
  5
3DD
100
AcDbEntity
  8
DRAFT
100
AcDbLine
 62
7
  6
CONTINUOUS
 10
-6.75
 20
-25.0
 11
-6.7952142555
 21
-25.5168013052
  0
LINE
  5
3DE
100
AcDbEntity
  8
RACCORDO
100
AcDbLine
 62
253
  6
CONTINUOUS
 10
-5.9094770665
 20
-24.6114548332
 11
-5.8619784041
 21
-24.068542638
  0
LINE
  5
3DF
100
AcDbEntity
  8
RACCORDO
100
AcDbLine
 62
253
  6
CONTINUOUS
 10
-5.7102684719
 20
-24.6288833269
 11
-5.6627708796
 21
-24.085983362
  0
LINE
  5
3E0
100
AcDbEntity
  8
DRAFT
100
AcDbLine
 62
7
  6
CONTINUOUS
 10
-12.25
 20
-25.35
 11
-12.1696152423
 21
-25.05
  0
LINE
  5
3E1
100
AcDbEntity
  8
DRAFT
100
AcDbLine
 62
7
  6
CONTINUOUS
 10
-12.1379456318
 20
-27.1657095584
 11
-11.9101888183
 21
-26.3157095584
  0
LINE
  5
3E2
100
AcDbEntity
  8
DRAFT
100
AcDbLine
 62
7
  6
CONTINUOUS
 10
-12.1111581471
 20
-27.2006196883
 11
-11.8834013335
 21
-26.3506196883
  0
LINE
  5
3E3
100
AcDbEntity
  8
ASSI
100
AcDbLine
 62
253
  6
CONTINUOUS
 10
-9.6893997955
 20
-22.64101007
 11
-9.6516162611
 21
-22.5
  0
LINE
  5
3E4
100
AcDbEntity
  8
RACCORDO
100
AcDbLine
 62
7
  6
CONTINUOUS
 10
-9.2060699124
 20
-22.6396405194
 11
-9.1686533479
 21
-22.5
  0
LINE
  5
3E5
100
AcDbEntity
  8
ASSI
100
AcDbLine
 62
7
  6
CONTINUOUS
 10
-27.0
 20
-12.0830127019
 11
-27.25
 21
-12.15
  0
LINE
  5
3E6
100
AcDbEntity
  8
RACCORDO
100
AcDbLine
 62
253
  6
CONTINUOUS
 10
-25.4992889218
 20
-6.3993346133
 11
-24.4941437922
 21
-6.3993346133
  0
LINE
  5
3E7
100
AcDbEntity
  8
RACCORDO
100
AcDbLine
 62
253
  6
CONTINUOUS
 10
24.4941437922
 20
-6.3993346133
 11
25.4992889218
 21
-6.3993346133
  0
LINE
  5
3E8
100
AcDbEntity
  8
ASSI
100
AcDbLine
 62
7
  6
CONTINUOUS
 10
27.25
 20
-12.15
 11
27.0
 21
-12.0830127019
  0
LINE
  5
3E9
100
AcDbEntity
  8
DRAFT
100
AcDbLine
 62
7
  6
CONTINUOUS
 10
-12.25
 20
25.35
 11
-12.1696152423
 21
25.05
  0
LINE
  5
3EA
100
AcDbEntity
  8
DRAFT
100
AcDbLine
 62
7
  6
CONTINUOUS
 10
-11.9101888183
 20
26.3157095584
 11
-12.1379456318
 21
27.1657095584
  0
LINE
  5
3EB
100
AcDbEntity
  8
DRAFT
100
AcDbLine
 62
7
  6
CONTINUOUS
 10
-11.8834013335
 20
26.3506196883
 11
-12.1111581471
 21
27.2006196883
  0
LINE
  5
3EC
100
AcDbEntity
  8
ASSI
100
AcDbLine
 62
253
  6
CONTINUOUS
 10
-9.6516162611
 20
22.5
 11
-9.6893997955
 21
22.64101007
  0
LINE
  5
3ED
100
AcDbEntity
  8
RACCORDO
100
AcDbLine
 62
7
  6
CONTINUOUS
 10
-9.2060699124
 20
22.6396405194
 11
-9.1686533479
 21
22.5
  0
LINE
  5
3EE
100
AcDbEntity
  8
RACCORDO
100
AcDbLine
 62
7
  6
CONTINUOUS
 10
-0.973867386
 20
-24.026132614
 11
-0.9676487694
 21
-24.382396922
  0
LINE
  5
3EF
100
AcDbEntity
  8
RACCORDO
100
AcDbLine
 62
253
  6
CONTINUOUS
 10
-1.4127476538
 20
23.0780926603
 11
-1.4220996193
 21
23.696798016
  0
LINE
  5
3F0
100
AcDbEntity
  8
RACCORDO
100
AcDbLine
 62
253
  6
CONTINUOUS
 10
-1.1133454422
 20
23.3766929191
 11
-1.1226974078
 21
23.9953982748
  0
LINE
  5
3F1
100
AcDbEntity
  8
RACCORDO
100
AcDbLine
 62
253
  6
CONTINUOUS
 10
-1.4253193372
 20
-24.4992889218
 11
-1.4253193401
 21
-23.7007110782
  0
LINE
  5
3F2
100
AcDbEntity
  8
RACCORDO
100
AcDbLine
 62
253
  6
CONTINUOUS
 10
-1.4253193401
 20
23.7007110782
 11
-1.4253193401
 21
24.4992889218
  0
LINE
  5
3F3
100
AcDbEntity
  8
RACCORDO
100
AcDbLine
 62
7
  6
CONTINUOUS
 10
-1.1253307632
 20
-24.1993346133
 11
-1.1253307632
 21
-24.0006653867
  0
LINE
  5
3F4
100
AcDbEntity
  8
RACCORDO
100
AcDbLine
 62
7
  6
CONTINUOUS
 10
-1.1253307632
 20
24.0006653867
 11
-1.1253307632
 21
24.1993346133
  0
LINE
  5
3F5
100
AcDbEntity
  8
RACCORDO
100
AcDbLine
 62
7
  6
CONTINUOUS
 10
-1.1
 20
-23.3500000017
 11
-1.1
 21
-24.2500456915
  0
LINE
  5
3F6
100
AcDbEntity
  8
RACCORDO
100
AcDbLine
 62
7
  6
CONTINUOUS
 10
-1.1
 20
23.3500000017
 11
-1.1
 21
24.2500456915
  0
LINE
  5
3F7
100
AcDbEntity
  8
RACCORDO
100
AcDbLine
 62
253
  6
CONTINUOUS
 10
-1.4220996193
 20
-23.696798016
 11
-1.4127476538
 21
-23.0780926603
  0
LINE
  5
3F8
100
AcDbEntity
  8
RACCORDO
100
AcDbLine
 62
253
  6
CONTINUOUS
 10
-1.1226974078
 20
-23.9953982748
 11
-1.1133454422
 21
-23.3766929191
  0
LINE
  5
3F9
100
AcDbEntity
  8
RACCORDO
100
AcDbLine
 62
7
  6
CONTINUOUS
 10
-0.973867386
 20
24.026132614
 11
-0.9676487694
 21
24.382396922
  0
LINE
  5
3FA
100
AcDbEntity
  8
DRAFT
100
AcDbLine
 62
7
  6
CONTINUOUS
 10
-14.0065071122
 20
-27.1657095584
 11
-14.0209673614
 21
-27.2006196883
  0
LINE
  5
3FB
100
AcDbEntity
  8
RACCORDO
100
AcDbLine
 62
253
  6
CONTINUOUS
 10
-18.2886997361
 20
-22.90600023
 11
-18.4134694834
 21
-23.0622702712
  0
LINE
  5
3FC
100
AcDbEntity
  8
RACCORDO
100
AcDbLine
 62
253
  6
CONTINUOUS
 10
18.2886997361
 20
22.90600023
 11
18.4134694834
 21
23.0622702712
  0
LINE
  5
3FD
100
AcDbEntity
  8
SMUSSO
100
AcDbLine
 62
7
  6
CONTINUOUS
 10
-22.4999973431
 20
-22.4999973431
 11
-22.5174550649
 21
-22.5174550649
  0
LINE
  5
3FE
100
AcDbEntity
  8
SMUSSO
100
AcDbLine
 62
7
  6
CONTINUOUS
 10
22.4999973431
 20
22.4999973431
 11
22.5174550649
 21
22.5174550649
  0
LINE
  5
3FF
100
AcDbEntity
  8
RACCORDO
100
AcDbLine
 62
253
  6
CONTINUOUS
 10
22.9060002316
 20
18.2886997374
 11
23.0622702747
 21
18.4134694862
  0
LINE
  5
400
100
AcDbEntity
  8
RACCORDO
100
AcDbLine
 62
253
  6
CONTINUOUS
 10
-22.9060002316
 20
-18.2886997374
 11
-23.0622702747
 21
-18.4134694862
  0
LINE
  5
401
100
AcDbEntity
  8
RACCORDO
100
AcDbLine
 62
253
  6
CONTINUOUS
 10
22.9060002306
 20
-18.2886997338
 11
23.0622702725
 21
-18.4134694817
  0
LINE
  5
402
100
AcDbEntity
  8
RACCORDO
100
AcDbLine
 62
253
  6
CONTINUOUS
 10
-22.9060002306
 20
18.2886997338
 11
-23.0622702725
 21
18.4134694817
  0
LINE
  5
403
100
AcDbEntity
  8
SMUSSO
100
AcDbLine
 62
7
  6
CONTINUOUS
 10
22.4999973431
 20
-22.4999973431
 11
22.5174550649
 21
-22.5174550649
  0
LINE
  5
404
100
AcDbEntity
  8
SMUSSO
100
AcDbLine
 62
7
  6
CONTINUOUS
 10
-22.4999973431
 20
22.4999973431
 11
-22.5174550649
 21
22.5174550649
  0
LINE
  5
405
100
AcDbEntity
  8
RACCORDO
100
AcDbLine
 62
253
  6
CONTINUOUS
 10
18.2886997347
 20
-22.9060002317
 11
18.4134694835
 21
-23.0622702747
  0
LINE
  5
406
100
AcDbEntity
  8
RACCORDO
100
AcDbLine
 62
253
  6
CONTINUOUS
 10
-18.2886997347
 20
22.9060002317
 11
-18.4134694835
 21
23.0622702747
  0
LINE
  5
407
100
AcDbEntity
  8
DRAFT
100
AcDbLine
 62
7
  6
CONTINUOUS
 10
-14.0065071122
 20
27.1657095584
 11
-14.0209673614
 21
27.2006196883
  0
LINE
  5
408
100
AcDbEntity
  8
RACCORDO
100
AcDbLine
 62
253
  6
CONTINUOUS
 10
5.6627702384
 20
-24.0859760333
 11
5.7102684719
 21
-24.6288833269
  0
LINE
  5
409
100
AcDbEntity
  8
RACCORDO
100
AcDbLine
 62
253
  6
CONTINUOUS
 10
5.8619784041
 20
-24.068542638
 11
5.9094770665
 21
-24.6114548332
  0
LINE
  5
40A
100
AcDbEntity
  8
RACCORDO
100
AcDbLine
 62
253
  6
CONTINUOUS
 10
5.3484195506
 20
-24.026132614
 11
5.409079964
 21
-24.8931196239
  0
LINE
  5
40B
100
AcDbEntity
  8
RACCORDO
100
AcDbLine
 62
253
  6
CONTINUOUS
 10
5.5516259108
 20
-24.2072634133
 11
5.5902871146
 21
-24.7598200021
  0
LINE
  5
40C
100
AcDbEntity
  8
RACCORDO
100
AcDbLine
 62
7
  6
CONTINUOUS
 10
0.973867386
 20
24.026132614
 11
0.9676487694
 21
24.382396922
  0
LINE
  5
40D
100
AcDbEntity
  8
RACCORDO
100
AcDbLine
 62
253
  6
CONTINUOUS
 10
1.1133454422
 20
-23.3766929191
 11
1.1226974078
 21
-23.9953982748
  0
LINE
  5
40E
100
AcDbEntity
  8
RACCORDO
100
AcDbLine
 62
253
  6
CONTINUOUS
 10
1.4127476538
 20
-23.0780926603
 11
1.4220996193
 21
-23.696798016
  0
LINE
  5
40F
100
AcDbEntity
  8
RACCORDO
100
AcDbLine
 62
253
  6
CONTINUOUS
 10
4.1217257855
 20
-23.9040160591
 11
4.121839318
 21
-23.9132139806
  0
LINE
  5
410
100
AcDbEntity
  8
RACCORDO
100
AcDbLine
 62
7
  6
CONTINUOUS
 10
1.1
 20
-23.3500000017
 11
1.1
 21
-24.2500456915
  0
LINE
  5
411
100
AcDbEntity
  8
RACCORDO
100
AcDbLine
 62
7
  6
CONTINUOUS
 10
1.1
 20
23.3500000017
 11
1.1
 21
24.2500456915
  0
LINE
  5
412
100
AcDbEntity
  8
RACCORDO
100
AcDbLine
 62
7
  6
CONTINUOUS
 10
1.1253307632
 20
24.1993346133
 11
1.1253307632
 21
24.0006653867
  0
LINE
  5
413
100
AcDbEntity
  8
RACCORDO
100
AcDbLine
 62
7
  6
CONTINUOUS
 10
1.1253307632
 20
-24.0006653867
 11
1.1253307632
 21
-24.1993346133
  0
LINE
  5
414
100
AcDbEntity
  8
RACCORDO
100
AcDbLine
 62
253
  6
CONTINUOUS
 10
1.4253193401
 20
-23.7007110782
 11
1.4253193401
 21
-24.4992889218
  0
LINE
  5
415
100
AcDbEntity
  8
RACCORDO
100
AcDbLine
 62
253
  6
CONTINUOUS
 10
1.4253193401
 20
23.7007110782
 11
1.4253193372
 21
24.4992889218
  0
LINE
  5
416
100
AcDbEntity
  8
RACCORDO
100
AcDbLine
 62
253
  6
CONTINUOUS
 10
3.8348804396
 20
24.0006653867
 11
3.8348804396
 21
23.7007110782
  0
LINE
  5
417
100
AcDbEntity
  8
RACCORDO
100
AcDbLine
 62
253
  6
CONTINUOUS
 10
3.8348804397
 20
-24.0006653867
 11
3.8348804397
 21
-23.7007110782
  0
LINE
  5
418
100
AcDbEntity
  8
RACCORDO
100
AcDbLine
 62
253
  6
CONTINUOUS
 10
3.8348804648
 20
-24.1993346133
 11
3.8348804648
 21
-24.4992889218
  0
LINE
  5
419
100
AcDbEntity
  8
RACCORDO
100
AcDbLine
 62
253
  6
CONTINUOUS
 10
3.8348804612
 20
24.1993346133
 11
3.8348804612
 21
24.4992889218
  0
LINE
  5
41A
100
AcDbEntity
  8
RACCORDO
100
AcDbLine
 62
253
  6
CONTINUOUS
 10
4.121839318
 20
23.9132139806
 11
4.1217257855
 21
23.9040160591
  0
LINE
  5
41B
100
AcDbEntity
  8
RACCORDO
100
AcDbLine
 62
253
  6
CONTINUOUS
 10
1.1226974078
 20
23.9953982748
 11
1.1133454422
 21
23.3766929191
  0
LINE
  5
41C
100
AcDbEntity
  8
RACCORDO
100
AcDbLine
 62
253
  6
CONTINUOUS
 10
1.4220996193
 20
23.696798016
 11
1.4127476538
 21
23.0780926603
  0
LINE
  5
41D
100
AcDbEntity
  8
RACCORDO
100
AcDbLine
 62
7
  6
CONTINUOUS
 10
0.973867386
 20
-24.026132614
 11
0.9676487694
 21
-24.382396922
  0
LINE
  5
41E
100
AcDbEntity
  8
RACCORDO
100
AcDbLine
 62
253
  6
CONTINUOUS
 10
5.409079964
 20
24.8931196239
 11
5.3484195506
 21
24.026132614
  0
LINE
  5
41F
100
AcDbEntity
  8
RACCORDO
100
AcDbLine
 62
253
  6
CONTINUOUS
 10
5.590287119
 20
24.7598199973
 11
5.5516259108
 21
24.2072634133
  0
LINE
  5
420
100
AcDbEntity
  8
RACCORDO
100
AcDbLine
 62
253
  6
CONTINUOUS
 10
5.7102684719
 20
24.6288833269
 11
5.6627702794
 21
24.0859765024
  0
LINE
  5
421
100
AcDbEntity
  8
RACCORDO
100
AcDbLine
 62
253
  6
CONTINUOUS
 10
5.9094770665
 20
24.6114548332
 11
5.8619784041
 21
24.068542638
  0
LINE
  5
422
100
AcDbEntity
  8
RACCORDO
100
AcDbLine
 62
7
  6
CONTINUOUS
 10
9.2060699124
 20
22.6396405194
 11
9.1686533479
 21
22.5
  0
LINE
  5
423
100
AcDbEntity
  8
ASSI
100
AcDbLine
 62
253
  6
CONTINUOUS
 10
9.6893997955
 20
22.64101007
 11
9.6516162611
 21
22.5
  0
LINE
  5
424
100
AcDbEntity
  8
DRAFT
100
AcDbLine
 62
7
  6
CONTINUOUS
 10
14.0065071122
 20
27.1657095584
 11
14.0209673614
 21
27.2006196883
  0
LINE
  5
425
100
AcDbEntity
  8
DRAFT
100
AcDbLine
 62
7
  6
CONTINUOUS
 10
14.0065071122
 20
-27.1657095584
 11
14.0209673614
 21
-27.2006196883
  0
LINE
  5
426
100
AcDbEntity
  8
RACCORDO
100
AcDbLine
 62
7
  6
CONTINUOUS
 10
9.2060699124
 20
-22.6396405194
 11
9.1686533479
 21
-22.5
  0
LINE
  5
427
100
AcDbEntity
  8
ASSI
100
AcDbLine
 62
253
  6
CONTINUOUS
 10
9.6516162611
 20
-22.5
 11
9.6893997955
 21
-22.64101007
  0
LINE
  5
428
100
AcDbEntity
  8
DRAFT
100
AcDbLine
 62
7
  6
CONTINUOUS
 10
6.7952142555
 20
-25.5168013052
 11
6.75
 21
-25.0
  0
LINE
  5
429
100
AcDbEntity
  8
RACCORDO
100
AcDbLine
 62
7
  6
CONTINUOUS
 10
6.75
 20
-25.0
 11
6.7426961983
 21
-24.9165171649
  0
LINE
  5
42A
100
AcDbEntity
  8
RACCORDO
100
AcDbLine
 62
7
  6
CONTINUOUS
 10
6.5427053537
 20
-22.6306113506
 11
6.5399320266
 21
-22.5989120768
  0
LINE
  5
42B
100
AcDbEntity
  8
DRAFT
100
AcDbLine
 62
7
  6
CONTINUOUS
 10
6.5388105481
 20
-22.5860935189
 11
6.5352045611
 21
-22.5448768991
  0
LINE
  5
42C
100
AcDbEntity
  8
SMUSSO
100
AcDbLine
 62
7
  6
CONTINUOUS
 10
6.5340698898
 20
-22.5319075465
 11
6.5312781217
 21
-22.4999974916
  0
LINE
  5
42D
100
AcDbEntity
  8
RACCORDO
100
AcDbLine
 62
253
  6
CONTINUOUS
 10
4.6709677904
 20
-26.4830998247
 11
4.6293326935
 21
-24.8931196239
  0
LINE
  5
42E
100
AcDbEntity
  8
RACCORDO
100
AcDbLine
 62
253
  6
CONTINUOUS
 10
4.9708649879
 20
-26.2709677904
 11
4.9364746865
 21
-24.9576551672
  0
LINE
  5
42F
100
AcDbEntity
  8
RACCORDO
100
AcDbLine
 62
253
  6
CONTINUOUS
 10
3.680282597
 20
23.5391958524
 11
3.6872523462
 21
23.0780926603
  0
LINE
  5
430
100
AcDbEntity
  8
RACCORDO
100
AcDbLine
 62
253
  6
CONTINUOUS
 10
3.9824192776
 20
23.6568896896
 11
3.9866545578
 21
23.3766929191
  0
LINE
  5
431
100
AcDbEntity
  8
RACCORDO
100
AcDbLine
 62
7
  6
CONTINUOUS
 10
4.0
 20
-23.65
 11
4.0
 21
-23.3500000017
  0
LINE
  5
432
100
AcDbEntity
  8
RACCORDO
100
AcDbLine
 62
7
  6
CONTINUOUS
 10
4.0
 20
23.3500000017
 11
4.0
 21
23.65
  0
LINE
  5
433
100
AcDbEntity
  8
RACCORDO
100
AcDbLine
 62
253
  6
CONTINUOUS
 10
4.6709677904
 20
-26.5708649879
 11
4.6709677904
 21
-26.4830998247
  0
LINE
  5
434
100
AcDbEntity
  8
RACCORDO
100
AcDbLine
 62
253
  6
CONTINUOUS
 10
4.6709677904
 20
26.4830998247
 11
4.6709677904
 21
26.5708649879
  0
LINE
  5
435
100
AcDbEntity
  8
ASSI
100
AcDbLine
 62
7
  6
CONTINUOUS
 10
5.0
 20
-26.3001028025
 11
5.0
 21
-25.0
  0
LINE
  5
436
100
AcDbEntity
  8
ASSI
100
AcDbLine
 62
7
  6
CONTINUOUS
 10
5.0
 20
25.0
 11
5.0
 21
26.3001028025
  0
LINE
  5
437
100
AcDbEntity
  8
RACCORDO
100
AcDbLine
 62
253
  6
CONTINUOUS
 10
5.409079964
 20
24.9516678067
 11
5.4090799641
 21
24.8931196239
  0
LINE
  5
438
100
AcDbEntity
  8
RACCORDO
100
AcDbLine
 62
253
  6
CONTINUOUS
 10
5.409079964
 20
-24.9516678067
 11
5.409079964
 21
-24.8931196239
  0
LINE
  5
439
100
AcDbEntity
  8
RACCORDO
100
AcDbLine
 62
253
  6
CONTINUOUS
 10
5.463561215
 20
-23.7034605474
 11
5.463561215
 21
-23.9034300864
  0
LINE
  5
43A
100
AcDbEntity
  8
RACCORDO
100
AcDbLine
 62
253
  6
CONTINUOUS
 10
5.463561215
 20
23.7034605474
 11
5.463561215
 21
23.9034300864
  0
LINE
  5
43B
100
AcDbEntity
  8
RACCORDO
100
AcDbLine
 62
253
  6
CONTINUOUS
 10
5.9094770665
 20
-24.6114548332
 11
5.9094770665
 21
-24.8114243722
  0
LINE
  5
43C
100
AcDbEntity
  8
RACCORDO
100
AcDbLine
 62
253
  6
CONTINUOUS
 10
5.9094770665
 20
24.6114548332
 11
5.9094770665
 21
24.8114243722
  0
LINE
  5
43D
100
AcDbEntity
  8
ASSI
100
AcDbLine
 62
7
  6
CONTINUOUS
 10
6.7
 20
-22.6376371519
 11
6.7
 21
-22.538400979
  0
LINE
  5
43E
100
AcDbEntity
  8
ASSI
100
AcDbLine
 62
7
  6
CONTINUOUS
 10
6.7
 20
22.538400979
 11
6.7
 21
22.6376371519
  0
LINE
  5
43F
100
AcDbEntity
  8
RACCORDO
100
AcDbLine
 62
253
  6
CONTINUOUS
 10
3.6872523462
 20
-23.0780926603
 11
3.680282597
 21
-23.5391958524
  0
LINE
  5
440
100
AcDbEntity
  8
RACCORDO
100
AcDbLine
 62
253
  6
CONTINUOUS
 10
3.9866545578
 20
-23.3766929191
 11
3.9824192776
 21
-23.6568896896
  0
LINE
  5
441
100
AcDbEntity
  8
RACCORDO
100
AcDbLine
 62
253
  6
CONTINUOUS
 10
4.6293326935
 20
24.8931196239
 11
4.6709677904
 21
26.4830998247
  0
LINE
  5
442
100
AcDbEntity
  8
RACCORDO
100
AcDbLine
 62
253
  6
CONTINUOUS
 10
4.9364746865
 20
24.9576551672
 11
4.9708649879
 21
26.2709677904
  0
LINE
  5
443
100
AcDbEntity
  8
RACCORDO
100
AcDbLine
 62
7
  6
CONTINUOUS
 10
6.75
 20
25.0
 11
6.7426961983
 21
24.9165171649
  0
LINE
  5
444
100
AcDbEntity
  8
SMUSSO
100
AcDbLine
 62
7
  6
CONTINUOUS
 10
6.5340698898
 20
22.5319075465
 11
6.5312781217
 21
22.4999974916
  0
LINE
  5
445
100
AcDbEntity
  8
DRAFT
100
AcDbLine
 62
7
  6
CONTINUOUS
 10
6.5388105481
 20
22.5860935189
 11
6.5352045611
 21
22.5448768991
  0
LINE
  5
446
100
AcDbEntity
  8
RACCORDO
100
AcDbLine
 62
7
  6
CONTINUOUS
 10
6.5399320266
 20
22.5989120768
 11
6.5427053537
 21
22.6306113506
  0
LINE
  5
447
100
AcDbEntity
  8
DRAFT
100
AcDbLine
 62
7
  6
CONTINUOUS
 10
6.75
 20
25.0
 11
6.7952142555
 21
25.5168013052
  0
LINE
  5
448
100
AcDbEntity
  8
DRAFT
100
AcDbLine
 62
7
  6
CONTINUOUS
 10
12.1111581471
 20
27.2006196883
 11
11.8834013335
 21
26.3506196883
  0
LINE
  5
449
100
AcDbEntity
  8
DRAFT
100
AcDbLine
 62
7
  6
CONTINUOUS
 10
12.1379456318
 20
27.1657095584
 11
11.9101888183
 21
26.3157095584
  0
LINE
  5
44A
100
AcDbEntity
  8
DRAFT
100
AcDbLine
 62
7
  6
CONTINUOUS
 10
12.25
 20
25.35
 11
12.1696152423
 21
25.05
  0
LINE
  5
44B
100
AcDbEntity
  8
ASSI
100
AcDbLine
 62
7
  6
CONTINUOUS
 10
27.0
 20
12.0830127019
 11
27.25
 21
12.15
  0
LINE
  5
44C
100
AcDbEntity
  8
RACCORDO
100
AcDbLine
 62
253
  6
CONTINUOUS
 10
25.4992889218
 20
6.3993346133
 11
24.4941437922
 21
6.3993346133
  0
LINE
  5
44D
100
AcDbEntity
  8
RACCORDO
100
AcDbLine
 62
253
  6
CONTINUOUS
 10
-24.4941437922
 20
6.3993346133
 11
-25.4992889218
 21
6.3993346133
  0
LINE
  5
44E
100
AcDbEntity
  8
RACCORDO
100
AcDbLine
 62
253
  6
CONTINUOUS
 10
25.1993346133
 20
6.6992889218
 11
24.4992889218
 21
6.6992889218
  0
LINE
  5
44F
100
AcDbEntity
  8
RACCORDO
100
AcDbLine
 62
253
  6
CONTINUOUS
 10
-24.4992889218
 20
6.6992889218
 11
-25.1993346133
 21
6.6992889218
  0
LINE
  5
450
100
AcDbEntity
  8
ASSI
100
AcDbLine
 62
7
  6
CONTINUOUS
 10
25.2500456915
 20
6.75
 11
24.55
 21
6.75
  0
LINE
  5
451
100
AcDbEntity
  8
ASSI
100
AcDbLine
 62
7
  6
CONTINUOUS
 10
-24.55
 20
6.75
 11
-25.2500456915
 21
6.75
  0
LINE
  5
452
100
AcDbEntity
  8
ASSI
100
AcDbLine
 62
7
  6
CONTINUOUS
 10
-27.25
 20
12.15
 11
-27.0
 21
12.0830127019
  0
LINE
  5
453
100
AcDbEntity
  8
DRAFT
100
AcDbLine
 62
7
  6
CONTINUOUS
 10
11.8834013335
 20
-26.3506196883
 11
12.1111581471
 21
-27.2006196883
  0
LINE
  5
454
100
AcDbEntity
  8
DRAFT
100
AcDbLine
 62
7
  6
CONTINUOUS
 10
11.9101888183
 20
-26.3157095584
 11
12.1379456318
 21
-27.1657095584
  0
LINE
  5
455
100
AcDbEntity
  8
DRAFT
100
AcDbLine
 62
7
  6
CONTINUOUS
 10
12.25
 20
-25.35
 11
12.1696152423
 21
-25.05
  0
LINE
  5
456
100
AcDbEntity
  8
DRAFT
100
AcDbLine
 62
7
  6
CONTINUOUS
 10
8.3688370149
 20
-25.05
 11
8.3735136511
 21
-25.35
  0
LINE
  5
457
100
AcDbEntity
  8
RACCORDO
100
AcDbLine
 62
253
  6
CONTINUOUS
 10
7.7495696905
 20
-22.7060306927
 11
7.7495696905
 21
-24.8114243722
  0
LINE
  5
458
100
AcDbEntity
  8
RACCORDO
100
AcDbLine
 62
253
  6
CONTINUOUS
 10
7.7495696905
 20
22.7060306927
 11
7.7495696905
 21
24.8114243722
  0
LINE
  5
459
100
AcDbEntity
  8
RACCORDO
100
AcDbLine
 62
253
  6
CONTINUOUS
 10
8.1910380571
 20
22.9032222875
 11
8.1910380875
 21
24.6142327784
  0
LINE
  5
45A
100
AcDbEntity
  8
RACCORDO
100
AcDbLine
 62
253
  6
CONTINUOUS
 10
8.1910380571
 20
-24.6142327774
 11
8.1910380875
 21
-22.9032222865
  0
LINE
  5
45B
100
AcDbEntity
  8
0
100
AcDbLine
 62
253
  6
CONTINUOUS
 10
8.2947330149
 20
34.25
 11
8.2947330149
 21
33.5943979443
  0
LINE
  5
45C
100
AcDbEntity
  8
ASSI
100
AcDbLine
 62
7
  6
CONTINUOUS
 10
8.2947330149
 20
34.25
 11
8.2947330149
 21
33.5942865255
  0
LINE
  5
45D
100
AcDbEntity
  8
0
100
AcDbLine
 62
253
  6
CONTINUOUS
 10
8.2947330149
 20
-33.5943979443
 11
8.2947330149
 21
-34.25
  0
LINE
  5
45E
100
AcDbEntity
  8
ASSI
100
AcDbLine
 62
7
  6
CONTINUOUS
 10
8.2947330149
 20
-33.5942915205
 11
8.2947330149
 21
-34.25
  0
LINE
  5
45F
100
AcDbEntity
  8
RACCORDO
100
AcDbLine
 62
253
  6
CONTINUOUS
 10
8.8660470303
 20
22.8810629562
 11
8.8660472913
 21
24.6363921173
  0
LINE
  5
460
100
AcDbEntity
  8
RACCORDO
100
AcDbLine
 62
253
  6
CONTINUOUS
 10
8.8660470303
 20
-24.6363921087
 11
8.8660472913
 21
-22.8810629476
  0
LINE
  5
461
100
AcDbEntity
  8
RACCORDO
100
AcDbLine
 62
253
  6
CONTINUOUS
 10
9.3075072861
 20
-22.6746115759
 11
9.3075072865
 21
-24.8428434891
  0
LINE
  5
462
100
AcDbEntity
  8
RACCORDO
100
AcDbLine
 62
253
  6
CONTINUOUS
 10
9.3075072865
 20
22.6746115759
 11
9.3075072861
 21
24.8428434891
  0
LINE
  5
463
100
AcDbEntity
  8
DRAFT
100
AcDbLine
 62
7
  6
CONTINUOUS
 10
8.3735136511
 20
25.35
 11
8.3688370149
 21
25.05
  0
LINE
  5
464
100
AcDbEntity
  8
RACCORDO
100
AcDbLine
 62
7
  6
CONTINUOUS
 10
11.75
 20
22.5
 11
11.7746223912
 21
22.6396405194
  0
LINE
  5
465
100
AcDbEntity
  8
ASSI
100
AcDbLine
 62
253
  6
CONTINUOUS
 10
12.2348949156
 20
22.5
 11
12.2602184268
 21
22.643616769
  0
LINE
  5
466
100
AcDbEntity
  8
RACCORDO
100
AcDbLine
 62
7
  6
CONTINUOUS
 10
14.199749146
 20
22.5
 11
14.2244053277
 21
22.6396405194
  0
LINE
  5
467
100
AcDbEntity
  8
RACCORDO
100
AcDbLine
 62
7
  6
CONTINUOUS
 10
16.0340263191
 20
25.0
 11
15.9786541704
 21
24.8114243722
  0
LINE
  5
468
100
AcDbEntity
  8
RACCORDO
100
AcDbLine
 62
253
  6
CONTINUOUS
 10
-1.4140109925
 20
-23.0780926603
 11
-1.3999657321
 21
-23.05
  0
LINE
  5
469
100
AcDbEntity
  8
RACCORDO
100
AcDbLine
 62
253
  6
CONTINUOUS
 10
-1.423362958
 20
-23.696798016
 11
-1.4253193401
 21
-23.7007110782
  0
LINE
  5
46A
100
AcDbEntity
  8
RACCORDO
100
AcDbLine
 62
253
  6
CONTINUOUS
 10
-1.1133454422
 20
-23.3766929191
 11
-1.1
 21
-23.3500000017
  0
LINE
  5
46B
100
AcDbEntity
  8
RACCORDO
100
AcDbLine
 62
253
  6
CONTINUOUS
 10
-1.1226974078
 20
-23.9953982748
 11
-1.1253307632
 21
-24.0006653867
  0
LINE
  5
46C
100
AcDbEntity
  8
DRAFT
100
AcDbLine
 62
7
  6
CONTINUOUS
 10
-10.5898111817
 20
-26.3157095584
 11
-10.6165986665
 21
-26.3506196883
  0
LINE
  5
46D
100
AcDbEntity
  8
DRAFT
100
AcDbLine
 62
7
  6
CONTINUOUS
 10
-10.3888418529
 20
-27.2006196883
 11
-10.3620543682
 21
-27.1657095584
  0
LINE
  5
46E
100
AcDbEntity
  8
DRAFT
100
AcDbLine
 62
7
  6
CONTINUOUS
 10
-14.0
 20
-27.1657095584
 11
-13.9842904416
 21
-27.15
  0
LINE
  5
46F
100
AcDbEntity
  8
ASSI
100
AcDbLine
 62
7
  6
CONTINUOUS
 10
-24.55
 20
-16.7148885728
 11
-24.3614243722
 21
-16.6566854756
  0
LINE
  5
470
100
AcDbEntity
  8
0
100
AcDbLine
 62
7
  6
CONTINUOUS
 10
-25.95
 20
7.75
 11
-24.7
 21
7.75
  0
LINE
  5
471
100
AcDbEntity
  8
ASSI
100
AcDbLine
 62
7
  6
CONTINUOUS
 10
-24.7
 20
7.75
 11
-24.55
 21
7.75
  0
LINE
  5
472
100
AcDbEntity
  8
ASSI
100
AcDbLine
 62
7
  6
CONTINUOUS
 10
24.55
 20
7.75
 11
24.7
 21
7.75
  0
LINE
  5
473
100
AcDbEntity
  8
0
100
AcDbLine
 62
7
  6
CONTINUOUS
 10
24.7
 20
7.75
 11
25.95
 21
7.75
  0
LINE
  5
474
100
AcDbEntity
  8
0
100
AcDbLine
 62
253
  6
CONTINUOUS
 10
-34.25
 20
8.2947330149
 11
-33.5943979443
 21
8.2947330149
  0
LINE
  5
475
100
AcDbEntity
  8
ASSI
100
AcDbLine
 62
7
  6
CONTINUOUS
 10
-34.25
 20
8.2947330149
 11
-33.5942865255
 21
8.2947330149
  0
LINE
  5
476
100
AcDbEntity
  8
0
100
AcDbLine
 62
253
  6
CONTINUOUS
 10
33.5943979443
 20
8.2947330149
 11
34.25
 21
8.2947330149
  0
LINE
  5
477
100
AcDbEntity
  8
ASSI
100
AcDbLine
 62
7
  6
CONTINUOUS
 10
33.5942915205
 20
8.2947330149
 11
34.25
 21
8.2947330149
  0
LINE
  5
478
100
AcDbEntity
  8
ASSI
100
AcDbLine
 62
7
  6
CONTINUOUS
 10
-24.55
 20
16.7148885728
 11
-24.3614243722
 21
16.6566854756
  0
LINE
  5
479
100
AcDbEntity
  8
DRAFT
100
AcDbLine
 62
7
  6
CONTINUOUS
 10
-14.0
 20
27.1657095584
 11
-13.9842904416
 21
27.15
  0
LINE
  5
47A
100
AcDbEntity
  8
DRAFT
100
AcDbLine
 62
7
  6
CONTINUOUS
 10
-10.5898111817
 20
26.3157095584
 11
-10.6165986665
 21
26.3506196883
  0
LINE
  5
47B
100
AcDbEntity
  8
DRAFT
100
AcDbLine
 62
7
  6
CONTINUOUS
 10
-10.3888418529
 20
27.2006196883
 11
-10.3620543682
 21
27.1657095584
  0
LINE
  5
47C
100
AcDbEntity
  8
RACCORDO
100
AcDbLine
 62
253
  6
CONTINUOUS
 10
-1.4140109925
 20
23.0780926603
 11
-1.3999657321
 21
23.05
  0
LINE
  5
47D
100
AcDbEntity
  8
RACCORDO
100
AcDbLine
 62
253
  6
CONTINUOUS
 10
-1.4253193401
 20
23.7007110782
 11
-1.423362958
 21
23.696798016
  0
LINE
  5
47E
100
AcDbEntity
  8
RACCORDO
100
AcDbLine
 62
253
  6
CONTINUOUS
 10
-1.1133454422
 20
23.3766929191
 11
-1.1
 21
23.3500000017
  0
LINE
  5
47F
100
AcDbEntity
  8
RACCORDO
100
AcDbLine
 62
253
  6
CONTINUOUS
 10
-1.1253307632
 20
24.0006653867
 11
-1.1226974078
 21
23.9953982748
  0
LINE
  5
480
100
AcDbEntity
  8
RACCORDO
100
AcDbLine
 62
7
  6
CONTINUOUS
 10
16.0340263191
 20
-25.0
 11
15.9786541704
 21
-24.8114243722
  0
LINE
  5
481
100
AcDbEntity
  8
RACCORDO
100
AcDbLine
 62
7
  6
CONTINUOUS
 10
14.199749146
 20
-22.5
 11
14.2244053277
 21
-22.6396405194
  0
LINE
  5
482
100
AcDbEntity
  8
RACCORDO
100
AcDbLine
 62
7
  6
CONTINUOUS
 10
11.7746223912
 20
-22.6396405194
 11
11.75
 21
-22.5
  0
LINE
  5
483
100
AcDbEntity
  8
ASSI
100
AcDbLine
 62
253
  6
CONTINUOUS
 10
12.2602184268
 20
-22.643616769
 11
12.2348949156
 21
-22.5
  0
LINE
  5
484
100
AcDbEntity
  8
RACCORDO
100
AcDbLine
 62
7
  6
CONTINUOUS
 10
12.6
 20
34.9500456915
 11
12.6
 21
33.9499619238
  0
LINE
  5
485
100
AcDbEntity
  8
RACCORDO
100
AcDbLine
 62
7
  6
CONTINUOUS
 10
12.8
 20
-36.8000456915
 11
12.8
 21
-36.55
  0
LINE
  5
486
100
AcDbEntity
  8
RACCORDO
100
AcDbLine
 62
7
  6
CONTINUOUS
 10
12.8
 20
-36.15
 11
12.8
 21
-35.7499238476
  0
LINE
  5
487
100
AcDbEntity
  8
RACCORDO
100
AcDbLine
 62
253
  6
CONTINUOUS
 10
13.1924927135
 20
-22.6746115759
 11
13.1924927139
 21
-24.8428434891
  0
LINE
  5
488
100
AcDbEntity
  8
RACCORDO
100
AcDbLine
 62
253
  6
CONTINUOUS
 10
13.1924927135
 20
24.8428434891
 11
13.1924927139
 21
22.6746115759
  0
LINE
  5
489
100
AcDbEntity
  8
RACCORDO
100
AcDbLine
 62
253
  6
CONTINUOUS
 10
13.6339529697
 20
24.6363921087
 11
13.6339527087
 21
22.8810629476
  0
LINE
  5
48A
100
AcDbEntity
  8
RACCORDO
100
AcDbLine
 62
253
  6
CONTINUOUS
 10
13.6339529697
 20
-22.8810629562
 11
13.6339527087
 21
-24.6363921173
  0
LINE
  5
48B
100
AcDbEntity
  8
RACCORDO
100
AcDbLine
 62
253
  6
CONTINUOUS
 10
14.3089619429
 20
24.6142327774
 11
14.3089619125
 21
22.9032222865
  0
LINE
  5
48C
100
AcDbEntity
  8
RACCORDO
100
AcDbLine
 62
253
  6
CONTINUOUS
 10
14.3089619429
 20
-22.9032222875
 11
14.3089619125
 21
-24.6142327784
  0
LINE
  5
48D
100
AcDbEntity
  8
ASSI
100
AcDbLine
 62
253
  6
CONTINUOUS
 10
10.2651050844
 20
-22.5
 11
10.2397815732
 21
-22.643616769
  0
LINE
  5
48E
100
AcDbEntity
  8
RACCORDO
100
AcDbLine
 62
7
  6
CONTINUOUS
 10
8.300250854
 20
-22.5
 11
8.2755946723
 21
-22.6396405194
  0
LINE
  5
48F
100
AcDbEntity
  8
RACCORDO
100
AcDbLine
 62
253
  6
CONTINUOUS
 10
1.1253307632
 20
-24.1993346133
 11
1.1
 21
-24.2499999983
  0
LINE
  5
490
100
AcDbEntity
  8
RACCORDO
100
AcDbLine
 62
253
  6
CONTINUOUS
 10
1.4253193401
 20
-24.4992889218
 11
1.3999771538
 21
-24.5499771547
  0
LINE
  5
491
100
AcDbEntity
  8
RACCORDO
100
AcDbLine
 62
253
  6
CONTINUOUS
 10
3.6859890075
 20
-23.0780926603
 11
3.7000342679
 21
-23.05
  0
LINE
  5
492
100
AcDbEntity
  8
RACCORDO
100
AcDbLine
 62
253
  6
CONTINUOUS
 10
3.9866545578
 20
-23.3766929191
 11
4.0
 21
-23.3500000017
  0
LINE
  5
493
100
AcDbEntity
  8
DRAFT
100
AcDbLine
 62
7
  6
CONTINUOUS
 10
-10.35
 20
-27.1657095584
 11
-10.3342904416
 21
-27.15
  0
LINE
  5
494
100
AcDbEntity
  8
RACCORDO
100
AcDbLine
 62
7
  6
CONTINUOUS
 10
24.55
 20
6.75
 11
24.4992889218
 21
6.6992889218
  0
LINE
  5
495
100
AcDbEntity
  8
0
100
AcDbLine
 62
7
  6
CONTINUOUS
 10
25.95
 20
7.75
 11
27.25
 21
9.05
  0
LINE
  5
496
100
AcDbEntity
  8
ASSI
100
AcDbLine
 62
253
  6
CONTINUOUS
 10
25.2500456915
 20
6.75
 11
25.1993346133
 21
6.6992889218
  0
LINE
  5
497
100
AcDbEntity
  8
DRAFT
100
AcDbLine
 62
7
  6
CONTINUOUS
 10
-8.4934928878
 20
-27.1657095584
 11
-6.7904807817
 21
-25.4626974523
  0
LINE
  5
498
100
AcDbEntity
  8
DRAFT
100
AcDbLine
 62
7
  6
CONTINUOUS
 10
-8.4790326386
 20
-27.2006196883
 11
-6.7952142555
 21
-25.5168013052
  0
LINE
  5
499
100
AcDbEntity
  8
ASSI
100
AcDbLine
 62
253
  6
CONTINUOUS
 10
25.55
 20
6.4500456915
 11
25.4992889218
 21
6.3993346133
  0
LINE
  5
49A
100
AcDbEntity
  8
0
100
AcDbLine
 62
7
  6
CONTINUOUS
 10
-8.4
 20
-27.9
 11
-6.4
 21
-25.9
  0
LINE
  5
49B
100
AcDbEntity
  8
ASSI
100
AcDbLine
 62
7
  6
CONTINUOUS
 10
-8.4
 20
-27.9
 11
-6.4
 21
-25.9
  0
LINE
  5
49C
100
AcDbEntity
  8
RACCORDO
100
AcDbLine
 62
7
  6
CONTINUOUS
 10
-35.050030461
 20
12.6
 11
-33.9499619238
 21
12.6
  0
LINE
  5
49D
100
AcDbEntity
  8
RACCORDO
100
AcDbLine
 62
7
  6
CONTINUOUS
 10
36.8000456915
 20
12.8
 11
36.55
 21
12.8
  0
LINE
  5
49E
100
AcDbEntity
  8
RACCORDO
100
AcDbLine
 62
7
  6
CONTINUOUS
 10
36.15
 20
12.8
 11
35.7499238476
 21
12.8
  0
LINE
  5
49F
100
AcDbEntity
  8
DRAFT
100
AcDbLine
 62
7
  6
CONTINUOUS
 10
-10.35
 20
27.1657095584
 11
-10.3342904416
 21
27.15
  0
LINE
  5
4A0
100
AcDbEntity
  8
RACCORDO
100
AcDbLine
 62
7
  6
CONTINUOUS
 10
24.55
 20
-6.75
 11
24.4992889218
 21
-6.6992889218
  0
LINE
  5
4A1
100
AcDbEntity
  8
0
100
AcDbLine
 62
7
  6
CONTINUOUS
 10
27.25
 20
-9.05
 11
25.95
 21
-7.75
  0
LINE
  5
4A2
100
AcDbEntity
  8
ASSI
100
AcDbLine
 62
253
  6
CONTINUOUS
 10
25.1993346133
 20
-6.6992889218
 11
25.2500456915
 21
-6.75
  0
LINE
  5
4A3
100
AcDbEntity
  8
DRAFT
100
AcDbLine
 62
7
  6
CONTINUOUS
 10
-6.7904807817
 20
25.4626974523
 11
-8.4934928878
 21
27.1657095584
  0
LINE
  5
4A4
100
AcDbEntity
  8
DRAFT
100
AcDbLine
 62
7
  6
CONTINUOUS
 10
-6.7952142555
 20
25.5168013052
 11
-8.4790326386
 21
27.2006196883
  0
LINE
  5
4A5
100
AcDbEntity
  8
ASSI
100
AcDbLine
 62
253
  6
CONTINUOUS
 10
25.4992889218
 20
-6.3993346133
 11
25.55
 21
-6.4500456915
  0
LINE
  5
4A6
100
AcDbEntity
  8
0
100
AcDbLine
 62
7
  6
CONTINUOUS
 10
-6.4
 20
25.9
 11
-8.4
 21
27.9
  0
LINE
  5
4A7
100
AcDbEntity
  8
ASSI
100
AcDbLine
 62
7
  6
CONTINUOUS
 10
-6.4
 20
25.9
 11
-8.4
 21
27.9
  0
LINE
  5
4A8
100
AcDbEntity
  8
RACCORDO
100
AcDbLine
 62
253
  6
CONTINUOUS
 10
1.1
 20
24.2499999983
 11
1.1253307632
 21
24.1993346133
  0
LINE
  5
4A9
100
AcDbEntity
  8
RACCORDO
100
AcDbLine
 62
253
  6
CONTINUOUS
 10
1.3999771538
 20
24.5499771547
 11
1.4253193401
 21
24.4992889218
  0
LINE
  5
4AA
100
AcDbEntity
  8
RACCORDO
100
AcDbLine
 62
253
  6
CONTINUOUS
 10
3.6859890075
 20
23.0780926603
 11
3.7000342679
 21
23.05
  0
LINE
  5
4AB
100
AcDbEntity
  8
RACCORDO
100
AcDbLine
 62
253
  6
CONTINUOUS
 10
3.9866545578
 20
23.3766929191
 11
4.0
 21
23.3500000017
  0
LINE
  5
4AC
100
AcDbEntity
  8
RACCORDO
100
AcDbLine
 62
7
  6
CONTINUOUS
 10
8.300250854
 20
22.5
 11
8.2755946723
 21
22.6396405194
  0
LINE
  5
4AD
100
AcDbEntity
  8
ASSI
100
AcDbLine
 62
253
  6
CONTINUOUS
 10
10.2397815732
 20
22.643616769
 11
10.2651050844
 21
22.5
  0
LINE
  5
4AE
100
AcDbEntity
  8
DRAFT
100
AcDbLine
 62
7
  6
CONTINUOUS
 10
15.7047857445
 20
25.5168013052
 11
15.75
 21
25.0
  0
LINE
  5
4AF
100
AcDbEntity
  8
RACCORDO
100
AcDbLine
 62
7
  6
CONTINUOUS
 10
15.75
 20
25.0
 11
15.7573038017
 21
24.9165171649
  0
LINE
  5
4B0
100
AcDbEntity
  8
RACCORDO
100
AcDbLine
 62
7
  6
CONTINUOUS
 10
15.9572946463
 20
22.6306113506
 11
15.9600679734
 21
22.5989120768
  0
LINE
  5
4B1
100
AcDbEntity
  8
DRAFT
100
AcDbLine
 62
7
  6
CONTINUOUS
 10
15.9611894519
 20
22.5860935189
 11
15.9647954389
 21
22.5448768991
  0
LINE
  5
4B2
100
AcDbEntity
  8
SMUSSO
100
AcDbLine
 62
7
  6
CONTINUOUS
 10
15.9659301102
 20
22.5319075465
 11
15.9687218783
 21
22.4999974916
  0
LINE
  5
4B3
100
AcDbEntity
  8
DRAFT
100
AcDbLine
 62
7
  6
CONTINUOUS
 10
14.1311629851
 20
25.05
 11
14.1264863489
 21
25.35
  0
LINE
  5
4B4
100
AcDbEntity
  8
RACCORDO
100
AcDbLine
 62
253
  6
CONTINUOUS
 10
14.7504303095
 20
-22.7060306927
 11
14.7504303095
 21
-24.8114243722
  0
LINE
  5
4B5
100
AcDbEntity
  8
RACCORDO
100
AcDbLine
 62
253
  6
CONTINUOUS
 10
14.7504303095
 20
22.7060306927
 11
14.7504303095
 21
24.8114243722
  0
LINE
  5
4B6
100
AcDbEntity
  8
RACCORDO
100
AcDbLine
 62
7
  6
CONTINUOUS
 10
14.8
 20
-34.7
 11
14.8
 21
-34.1999238476
  0
LINE
  5
4B7
100
AcDbEntity
  8
RACCORDO
100
AcDbLine
 62
7
  6
CONTINUOUS
 10
15.0
 20
35.8999543085
 11
15.0
 21
36.35
  0
LINE
  5
4B8
100
AcDbEntity
  8
RACCORDO
100
AcDbLine
 62
7
  6
CONTINUOUS
 10
15.0
 20
36.75
 11
15.0
 21
36.8000456915
  0
LINE
  5
4B9
100
AcDbEntity
  8
ASSI
100
AcDbLine
 62
7
  6
CONTINUOUS
 10
15.8
 20
-22.6376371519
 11
15.8
 21
-22.538400979
  0
LINE
  5
4BA
100
AcDbEntity
  8
ASSI
100
AcDbLine
 62
7
  6
CONTINUOUS
 10
15.8
 20
22.538400979
 11
15.8
 21
22.6376371519
  0
LINE
  5
4BB
100
AcDbEntity
  8
RACCORDO
100
AcDbLine
 62
7
  6
CONTINUOUS
 10
16.2
 20
-35.8999543085
 11
16.2
 21
-36.35
  0
LINE
  5
4BC
100
AcDbEntity
  8
RACCORDO
100
AcDbLine
 62
7
  6
CONTINUOUS
 10
16.2
 20
-36.75
 11
16.2
 21
-36.8000456915
  0
LINE
  5
4BD
100
AcDbEntity
  8
RACCORDO
100
AcDbLine
 62
7
  6
CONTINUOUS
 10
16.4
 20
34.7
 11
16.4
 21
34.1999238476
  0
LINE
  5
4BE
100
AcDbEntity
  8
DRAFT
100
AcDbLine
 62
7
  6
CONTINUOUS
 10
14.1264863489
 20
-25.35
 11
14.1311629851
 21
-25.05
  0
LINE
  5
4BF
100
AcDbEntity
  8
RACCORDO
100
AcDbLine
 62
7
  6
CONTINUOUS
 10
15.75
 20
-25.0
 11
15.7573038017
 21
-24.9165171649
  0
LINE
  5
4C0
100
AcDbEntity
  8
SMUSSO
100
AcDbLine
 62
7
  6
CONTINUOUS
 10
15.9659301102
 20
-22.5319075465
 11
15.9687218783
 21
-22.4999974916
  0
LINE
  5
4C1
100
AcDbEntity
  8
DRAFT
100
AcDbLine
 62
7
  6
CONTINUOUS
 10
15.9611894519
 20
-22.5860935189
 11
15.9647954389
 21
-22.5448768991
  0
LINE
  5
4C2
100
AcDbEntity
  8
RACCORDO
100
AcDbLine
 62
7
  6
CONTINUOUS
 10
15.9600679734
 20
-22.5989120768
 11
15.9572946463
 21
-22.6306113506
  0
LINE
  5
4C3
100
AcDbEntity
  8
DRAFT
100
AcDbLine
 62
7
  6
CONTINUOUS
 10
15.75
 20
-25.0
 11
15.7047857445
 21
-25.5168013052
  0
LINE
  5
4C4
100
AcDbEntity
  8
RACCORDO
100
AcDbLine
 62
7
  6
CONTINUOUS
 10
10.75
 20
-22.5
 11
10.7253776088
 21
-22.6396405194
  0
LINE
  5
4C5
100
AcDbEntity
  8
DRAFT
100
AcDbLine
 62
7
  6
CONTINUOUS
 10
10.25
 20
-25.35
 11
10.3303847577
 21
-25.05
  0
LINE
  5
4C6
100
AcDbEntity
  8
DRAFT
100
AcDbLine
 62
7
  6
CONTINUOUS
 10
10.3620543682
 20
-27.1657095584
 11
10.5898111817
 21
-26.3157095584
  0
LINE
  5
4C7
100
AcDbEntity
  8
DRAFT
100
AcDbLine
 62
7
  6
CONTINUOUS
 10
10.3888418529
 20
-27.2006196883
 11
10.6165986665
 21
-26.3506196883
  0
LINE
  5
4C8
100
AcDbEntity
  8
RACCORDO
100
AcDbLine
 62
253
  6
CONTINUOUS
 10
-4.9708649879
 20
-26.2709677904
 11
-5.0
 21
-26.3001028025
  0
LINE
  5
4C9
100
AcDbEntity
  8
RACCORDO
100
AcDbLine
 62
253
  6
CONTINUOUS
 10
-4.6709677904
 20
-26.5708649879
 11
-4.7001028025
 21
-26.6
  0
LINE
  5
4CA
100
AcDbEntity
  8
RACCORDO
100
AcDbLine
 62
7
  6
CONTINUOUS
 10
0.973867386
 20
-24.026132614
 11
1.0965699136
 21
-23.9034300864
  0
LINE
  5
4CB
100
AcDbEntity
  8
RACCORDO
100
AcDbLine
 62
253
  6
CONTINUOUS
 10
1.1
 20
-24.2500456915
 11
0.9676487694
 21
-24.382396922
  0
LINE
  5
4CC
100
AcDbEntity
  8
ASSI
100
AcDbLine
 62
7
  6
CONTINUOUS
 10
-27.0
 20
10.4169872981
 11
-27.25
 21
10.35
  0
LINE
  5
4CD
100
AcDbEntity
  8
0
100
AcDbLine
 62
7
  6
CONTINUOUS
 10
25.95
 20
14.75
 11
24.55
 21
14.75
  0
LINE
  5
4CE
100
AcDbEntity
  8
0
100
AcDbLine
 62
7
  6
CONTINUOUS
 10
-24.55
 20
14.75
 11
-25.95
 21
14.75
  0
LINE
  5
4CF
100
AcDbEntity
  8
RACCORDO
100
AcDbLine
 62
7
  6
CONTINUOUS
 10
34.7
 20
14.8
 11
34.1999238476
 21
14.8
  0
LINE
  5
4D0
100
AcDbEntity
  8
RACCORDO
100
AcDbLine
 62
7
  6
CONTINUOUS
 10
-35.8999543085
 20
15.0
 11
-36.35
 21
15.0
  0
LINE
  5
4D1
100
AcDbEntity
  8
RACCORDO
100
AcDbLine
 62
7
  6
CONTINUOUS
 10
-36.75
 20
15.0
 11
-36.8000456915
 21
15.0
  0
LINE
  5
4D2
100
AcDbEntity
  8
RACCORDO
100
AcDbLine
 62
7
  6
CONTINUOUS
 10
35.8999543085
 20
16.2
 11
36.35
 21
16.2
  0
LINE
  5
4D3
100
AcDbEntity
  8
RACCORDO
100
AcDbLine
 62
7
  6
CONTINUOUS
 10
36.75
 20
16.2
 11
36.8000456915
 21
16.2
  0
LINE
  5
4D4
100
AcDbEntity
  8
RACCORDO
100
AcDbLine
 62
7
  6
CONTINUOUS
 10
-34.7
 20
16.4
 11
-34.1999238476
 21
16.4
  0
LINE
  5
4D5
100
AcDbEntity
  8
ASSI
100
AcDbLine
 62
7
  6
CONTINUOUS
 10
27.25
 20
10.35
 11
27.0
 21
10.4169872981
  0
LINE
  5
4D6
100
AcDbEntity
  8
RACCORDO
100
AcDbLine
 62
253
  6
CONTINUOUS
 10
-5.0
 20
26.3001028025
 11
-4.9708649879
 21
26.2709677904
  0
LINE
  5
4D7
100
AcDbEntity
  8
RACCORDO
100
AcDbLine
 62
253
  6
CONTINUOUS
 10
-4.7001028025
 20
26.6
 11
-4.6709677904
 21
26.5708649879
  0
LINE
  5
4D8
100
AcDbEntity
  8
RACCORDO
100
AcDbLine
 62
7
  6
CONTINUOUS
 10
0.973867386
 20
24.026132614
 11
1.0965699136
 21
23.9034300864
  0
LINE
  5
4D9
100
AcDbEntity
  8
RACCORDO
100
AcDbLine
 62
253
  6
CONTINUOUS
 10
0.9676487694
 20
24.382396922
 11
1.1
 21
24.2500456915
  0
LINE
  5
4DA
100
AcDbEntity
  8
DRAFT
100
AcDbLine
 62
7
  6
CONTINUOUS
 10
10.25
 20
25.35
 11
10.3303847577
 21
25.05
  0
LINE
  5
4DB
100
AcDbEntity
  8
DRAFT
100
AcDbLine
 62
7
  6
CONTINUOUS
 10
10.5898111817
 20
26.3157095584
 11
10.3620543682
 21
27.1657095584
  0
LINE
  5
4DC
100
AcDbEntity
  8
DRAFT
100
AcDbLine
 62
7
  6
CONTINUOUS
 10
10.6165986665
 20
26.3506196883
 11
10.3888418529
 21
27.2006196883
  0
LINE
  5
4DD
100
AcDbEntity
  8
RACCORDO
100
AcDbLine
 62
7
  6
CONTINUOUS
 10
10.7253776088
 20
22.6396405194
 11
10.75
 21
22.5
  0
LINE
  5
4DE
100
AcDbEntity
  8
RACCORDO
100
AcDbLine
 62
253
  6
CONTINUOUS
 10
18.2886997375
 20
22.9060002318
 11
18.2886997375
 21
22.7060306927
  0
LINE
  5
4DF
100
AcDbEntity
  8
RACCORDO
100
AcDbLine
 62
253
  6
CONTINUOUS
 10
18.2886997347
 20
-22.9060002318
 11
18.2886997347
 21
-22.7060306927
  0
LINE
  5
4E0
100
AcDbEntity
  8
RACCORDO
100
AcDbLine
 62
7
  6
CONTINUOUS
 10
18.4
 20
36.8000456915
 11
18.4
 21
36.55
  0
LINE
  5
4E1
100
AcDbEntity
  8
RACCORDO
100
AcDbLine
 62
7
  6
CONTINUOUS
 10
18.4
 20
36.15
 11
18.4
 21
35.7499238476
  0
LINE
  5
4E2
100
AcDbEntity
  8
DRAFT
100
AcDbLine
 62
7
  6
CONTINUOUS
 10
18.4
 20
24.65
 11
18.4
 21
23.65
  0
LINE
  5
4E3
100
AcDbEntity
  8
DRAFT
100
AcDbLine
 62
7
  6
CONTINUOUS
 10
18.4
 20
-23.65
 11
18.4
 21
-24.65
  0
LINE
  5
4E4
100
AcDbEntity
  8
RACCORDO
100
AcDbLine
 62
7
  6
CONTINUOUS
 10
18.6
 20
-34.9500456915
 11
18.6
 21
-33.9499619238
  0
LINE
  5
4E5
100
AcDbEntity
  8
ASSI
100
AcDbLine
 62
253
  6
CONTINUOUS
 10
12.8106002045
 20
-22.64101007
 11
12.8483837389
 21
-22.5
  0
LINE
  5
4E6
100
AcDbEntity
  8
RACCORDO
100
AcDbLine
 62
7
  6
CONTINUOUS
 10
13.2939300876
 20
-22.6396405194
 11
13.3313466521
 21
-22.5
  0
LINE
  5
4E7
100
AcDbEntity
  8
DRAFT
100
AcDbLine
 62
7
  6
CONTINUOUS
 10
8.4934928878
 20
-27.1657095584
 11
8.4790326386
 21
-27.2006196883
  0
LINE
  5
4E8
100
AcDbEntity
  8
RACCORDO
100
AcDbLine
 62
253
  6
CONTINUOUS
 10
5.3511250639
 20
-24.026132614
 11
5.4635489457
 21
-23.9034300864
  0
LINE
  5
4E9
100
AcDbEntity
  8
RACCORDO
100
AcDbLine
 62
253
  6
CONTINUOUS
 10
5.5516259108
 20
-24.2072634133
 11
5.6627702384
 21
-24.0859760333
  0
LINE
  5
4EA
100
AcDbEntity
  8
RACCORDO
100
AcDbLine
 62
253
  6
CONTINUOUS
 10
5.7102684719
 20
-24.6288833269
 11
5.5902871146
 21
-24.7598200021
  0
LINE
  5
4EB
100
AcDbEntity
  8
RACCORDO
100
AcDbLine
 62
253
  6
CONTINUOUS
 10
5.9094770665
 20
-24.8114243722
 11
5.7894952266
 21
-24.9423615741
  0
LINE
  5
4EC
100
AcDbEntity
  8
RACCORDO
100
AcDbLine
 62
253
  6
CONTINUOUS
 10
1.3999771538
 20
-24.5499771547
 11
1.2622743426
 21
-24.6876799659
  0
LINE
  5
4ED
100
AcDbEntity
  8
RACCORDO
100
AcDbLine
 62
7
  6
CONTINUOUS
 10
-5.0
 20
-25.0
 11
-4.9364746865
 21
-24.9576551672
  0
LINE
  5
4EE
100
AcDbEntity
  8
RACCORDO
100
AcDbLine
 62
7
  6
CONTINUOUS
 10
-8.3688370149
 20
-25.05
 11
-7.9880192027
 21
-24.9158971781
  0
LINE
  5
4EF
100
AcDbEntity
  8
RACCORDO
100
AcDbLine
 62
253
  6
CONTINUOUS
 10
-22.9060002318
 20
18.2886997347
 11
-22.7060306927
 21
18.2886997349
  0
LINE
  5
4F0
100
AcDbEntity
  8
RACCORDO
100
AcDbLine
 62
253
  6
CONTINUOUS
 10
22.9060002318
 20
18.2886997375
 11
22.7060306927
 21
18.2886997375
  0
LINE
  5
4F1
100
AcDbEntity
  8
RACCORDO
100
AcDbLine
 62
7
  6
CONTINUOUS
 10
-36.8000456915
 20
18.4
 11
-36.55
 21
18.4
  0
LINE
  5
4F2
100
AcDbEntity
  8
RACCORDO
100
AcDbLine
 62
7
  6
CONTINUOUS
 10
-36.15
 20
18.4
 11
-35.7499238476
 21
18.4
  0
LINE
  5
4F3
100
AcDbEntity
  8
RACCORDO
100
AcDbLine
 62
7
  6
CONTINUOUS
 10
35.050030461
 20
18.6
 11
33.9499619238
 21
18.6
  0
LINE
  5
4F4
100
AcDbEntity
  8
RACCORDO
100
AcDbLine
 62
7
  6
CONTINUOUS
 10
-8.3688370149
 20
25.05
 11
-7.9880192027
 21
24.9158971781
  0
LINE
  5
4F5
100
AcDbEntity
  8
RACCORDO
100
AcDbLine
 62
7
  6
CONTINUOUS
 10
-5.0
 20
25.0
 11
-4.9364746865
 21
24.9576551672
  0
LINE
  5
4F6
100
AcDbEntity
  8
RACCORDO
100
AcDbLine
 62
253
  6
CONTINUOUS
 10
1.2622743426
 20
24.6876799659
 11
1.3999771538
 21
24.5499771547
  0
LINE
  5
4F7
100
AcDbEntity
  8
RACCORDO
100
AcDbLine
 62
253
  6
CONTINUOUS
 10
5.6627702794
 20
24.0859765024
 11
5.5516259108
 21
24.2072634133
  0
LINE
  5
4F8
100
AcDbEntity
  8
RACCORDO
100
AcDbLine
 62
253
  6
CONTINUOUS
 10
5.590287119
 20
24.7598199973
 11
5.7102684719
 21
24.6288833269
  0
LINE
  5
4F9
100
AcDbEntity
  8
RACCORDO
100
AcDbLine
 62
253
  6
CONTINUOUS
 10
5.7894952266
 20
24.9423615741
 11
5.9094770665
 21
24.8114243722
  0
LINE
  5
4FA
100
AcDbEntity
  8
RACCORDO
100
AcDbLine
 62
253
  6
CONTINUOUS
 10
5.4635483314
 20
23.9034300864
 11
5.3511250639
 21
24.026132614
  0
LINE
  5
4FB
100
AcDbEntity
  8
DRAFT
100
AcDbLine
 62
7
  6
CONTINUOUS
 10
8.4934928878
 20
27.1657095584
 11
8.4790326386
 21
27.2006196883
  0
LINE
  5
4FC
100
AcDbEntity
  8
ASSI
100
AcDbLine
 62
253
  6
CONTINUOUS
 10
12.8483837389
 20
22.5
 11
12.8106002045
 21
22.64101007
  0
LINE
  5
4FD
100
AcDbEntity
  8
RACCORDO
100
AcDbLine
 62
7
  6
CONTINUOUS
 10
13.2939300876
 20
22.6396405194
 11
13.3313466521
 21
22.5
  0
LINE
  5
4FE
100
AcDbEntity
  8
DRAFT
100
AcDbLine
 62
7
  6
CONTINUOUS
 10
21.5
 20
24.65
 11
21.5
 21
23.65
  0
LINE
  5
4FF
100
AcDbEntity
  8
DRAFT
100
AcDbLine
 62
7
  6
CONTINUOUS
 10
21.5
 20
-23.65
 11
21.5
 21
-24.65
  0
LINE
  5
500
100
AcDbEntity
  8
SMUSSO
100
AcDbLine
 62
7
  6
CONTINUOUS
 10
22.4999973431
 20
-22.4999973431
 11
22.4999973431
 21
22.4999973431
  0
LINE
  5
501
100
AcDbEntity
  8
RACCORDO
100
AcDbLine
 62
7
  6
CONTINUOUS
 10
22.5174550649
 20
-22.5174550649
 11
22.5174550649
 21
-18.8194159546
  0
LINE
  5
502
100
AcDbEntity
  8
RACCORDO
100
AcDbLine
 62
7
  6
CONTINUOUS
 10
22.5174550649
 20
18.8194159496
 11
22.5174550649
 21
22.5174550649
  0
LINE
  5
503
100
AcDbEntity
  8
RACCORDO
100
AcDbLine
 62
253
  6
CONTINUOUS
 10
22.7060306927
 20
-18.2886997347
 11
22.7060306927
 21
18.2886997375
  0
LINE
  5
504
100
AcDbEntity
  8
RACCORDO
100
AcDbLine
 62
253
  6
CONTINUOUS
 10
22.9060002318
 20
18.2886997337
 11
22.9060002318
 21
12.8852534024
  0
LINE
  5
505
100
AcDbEntity
  8
RACCORDO
100
AcDbLine
 62
253
  6
CONTINUOUS
 10
22.9060002318
 20
12.1147465976
 11
22.9060002318
 21
-12.1147465976
  0
LINE
  5
506
100
AcDbEntity
  8
RACCORDO
100
AcDbLine
 62
253
  6
CONTINUOUS
 10
22.9060002318
 20
-12.8852534024
 11
22.9060002318
 21
-18.2886997324
  0
LINE
  5
507
100
AcDbEntity
  8
RACCORDO
100
AcDbLine
 62
7
  6
CONTINUOUS
 10
23.5
 20
-25.15
 11
23.5
 21
-23.1084271247
  0
LINE
  5
508
100
AcDbEntity
  8
0
100
AcDbLine
 62
7
  6
CONTINUOUS
 10
23.5
 20
-23.1084271247
 11
23.5
 21
-18.1614977356
  0
LINE
  5
509
100
AcDbEntity
  8
ASSI
100
AcDbLine
 62
7
  6
CONTINUOUS
 10
23.5
 20
-25.15
 11
23.5
 21
-18.1614977356
  0
LINE
  5
50A
100
AcDbEntity
  8
0
100
AcDbLine
 62
7
  6
CONTINUOUS
 10
23.5
 20
18.1614977356
 11
23.5
 21
23.1084271247
  0
LINE
  5
50B
100
AcDbEntity
  8
RACCORDO
100
AcDbLine
 62
7
  6
CONTINUOUS
 10
23.5
 20
23.1084271247
 11
23.5
 21
25.15
  0
LINE
  5
50C
100
AcDbEntity
  8
ASSI
100
AcDbLine
 62
7
  6
CONTINUOUS
 10
23.5
 20
18.1614977356
 11
23.5
 21
25.15
  0
LINE
  5
50D
100
AcDbEntity
  8
RACCORDO
100
AcDbLine
 62
253
  6
CONTINUOUS
 10
24.1614548332
 20
-16.594742685
 11
24.1614548332
 21
-12.752454773
  0
LINE
  5
50E
100
AcDbEntity
  8
RACCORDO
100
AcDbLine
 62
253
  6
CONTINUOUS
 10
24.1614548332
 20
-12.247545227
 11
24.1614548332
 21
12.247545227
  0
LINE
  5
50F
100
AcDbEntity
  8
RACCORDO
100
AcDbLine
 62
253
  6
CONTINUOUS
 10
24.1614548332
 20
12.752454773
 11
24.1614548332
 21
16.594742685
  0
LINE
  5
510
100
AcDbEntity
  8
RACCORDO
100
AcDbLine
 62
253
  6
CONTINUOUS
 10
24.3614243722
 20
16.6566854756
 11
24.3614243722
 21
-16.6566854756
  0
LINE
  5
511
100
AcDbEntity
  8
RACCORDO
100
AcDbLine
 62
7
  6
CONTINUOUS
 10
24.4941437922
 20
-6.3993346133
 11
24.4941437922
 21
6.3993346133
  0
LINE
  5
512
100
AcDbEntity
  8
ASSI
100
AcDbLine
 62
7
  6
CONTINUOUS
 10
24.55
 20
16.7148885728
 11
24.55
 21
14.75
  0
LINE
  5
513
100
AcDbEntity
  8
ASSI
100
AcDbLine
 62
7
  6
CONTINUOUS
 10
24.55
 20
-14.75
 11
24.55
 21
-16.7148885728
  0
LINE
  5
514
100
AcDbEntity
  8
DRAFT
100
AcDbLine
 62
7
  6
CONTINUOUS
 10
24.55
 20
-7.75
 11
24.55
 21
-6.75
  0
LINE
  5
515
100
AcDbEntity
  8
DRAFT
100
AcDbLine
 62
7
  6
CONTINUOUS
 10
24.55
 20
6.75
 11
24.55
 21
7.75
  0
LINE
  5
516
100
AcDbEntity
  8
0
100
AcDbLine
 62
7
  6
CONTINUOUS
 10
24.5814191169
 20
14.75
 11
24.5814191169
 21
7.75
  0
LINE
  5
517
100
AcDbEntity
  8
0
100
AcDbLine
 62
7
  6
CONTINUOUS
 10
24.5814191169
 20
-7.75
 11
24.5814191169
 21
-14.75
  0
LINE
  5
518
100
AcDbEntity
  8
RACCORDO
100
AcDbLine
 62
7
  6
CONTINUOUS
 10
24.7
 20
-7.75
 11
24.7
 21
-6.75
  0
LINE
  5
519
100
AcDbEntity
  8
ASSI
100
AcDbLine
 62
7
  6
CONTINUOUS
 10
24.7
 20
-7.75
 11
24.7
 21
-6.75
  0
LINE
  5
51A
100
AcDbEntity
  8
RACCORDO
100
AcDbLine
 62
7
  6
CONTINUOUS
 10
24.7
 20
6.75
 11
24.7
 21
7.75
  0
LINE
  5
51B
100
AcDbEntity
  8
ASSI
100
AcDbLine
 62
7
  6
CONTINUOUS
 10
24.7
 20
6.75
 11
24.7
 21
7.75
  0
LINE
  5
51C
100
AcDbEntity
  8
RACCORDO
100
AcDbLine
 62
7
  6
CONTINUOUS
 10
4.0
 20
-23.65
 11
3.9824192776
 21
-23.6568896896
  0
LINE
  5
51D
100
AcDbEntity
  8
RACCORDO
100
AcDbLine
 62
253
  6
CONTINUOUS
 10
-3.8348804623
 20
-24.1993346134
 11
-4.1218393423
 21
-24.2867860137
  0
LINE
  5
51E
100
AcDbEntity
  8
RACCORDO
100
AcDbLine
 62
253
  6
CONTINUOUS
 10
3.8348804397
 20
-24.0006653867
 11
4.121839318
 21
-23.9132139806
  0
LINE
  5
51F
100
AcDbEntity
  8
RACCORDO
100
AcDbLine
 62
253
  6
CONTINUOUS
 10
-5.8619784041
 20
24.068542638
 11
-5.6627698096
 21
24.0859711317
  0
LINE
  5
520
100
AcDbEntity
  8
RACCORDO
100
AcDbLine
 62
253
  6
CONTINUOUS
 10
13.8105560285
 20
22.6810938617
 11
14.4855460317
 21
22.7032525702
  0
LINE
  5
521
100
AcDbEntity
  8
RACCORDO
100
AcDbLine
 62
253
  6
CONTINUOUS
 10
13.6339527087
 20
22.8810629476
 11
14.3089619125
 21
22.9032222865
  0
LINE
  5
522
100
AcDbEntity
  8
RACCORDO
100
AcDbLine
 62
253
  6
CONTINUOUS
 10
-8.6894439715
 20
22.6810938617
 11
-8.0144539683
 21
22.7032525702
  0
LINE
  5
523
100
AcDbEntity
  8
RACCORDO
100
AcDbLine
 62
253
  6
CONTINUOUS
 10
-8.8660472913
 20
22.8810629476
 11
-8.1910380875
 21
22.9032222865
  0
LINE
  5
524
100
AcDbEntity
  8
RACCORDO
100
AcDbLine
 62
253
  6
CONTINUOUS
 10
8.8660472913
 20
24.6363921173
 11
8.1910380875
 21
24.6142327784
  0
LINE
  5
525
100
AcDbEntity
  8
RACCORDO
100
AcDbLine
 62
253
  6
CONTINUOUS
 10
8.6894439715
 20
24.8363612032
 11
8.0144539683
 21
24.8142024947
  0
LINE
  5
526
100
AcDbEntity
  8
SMUSSO
100
AcDbLine
 62
7
  6
CONTINUOUS
 10
6.5312781087
 20
22.4999973431
 11
-6.5312781087
 21
22.4999973431
  0
LINE
  5
527
100
AcDbEntity
  8
ASSI
100
AcDbLine
 62
7
  6
CONTINUOUS
 10
8.300250854
 20
22.5
 11
14.199749146
 21
22.5
  0
LINE
  5
528
100
AcDbEntity
  8
ASSI
100
AcDbLine
 62
7
  6
CONTINUOUS
 10
-8.300250854
 20
22.5
 11
-14.199749146
 21
22.5
  0
LINE
  5
529
100
AcDbEntity
  8
SMUSSO
100
AcDbLine
 62
7
  6
CONTINUOUS
 10
22.4999973431
 20
22.4999973431
 11
15.9687218913
 21
22.4999973431
  0
LINE
  5
52A
100
AcDbEntity
  8
SMUSSO
100
AcDbLine
 62
7
  6
CONTINUOUS
 10
-15.9687218913
 20
22.4999973431
 11
-22.4999973431
 21
22.4999973431
  0
LINE
  5
52B
100
AcDbEntity
  8
RACCORDO
100
AcDbLine
 62
7
  6
CONTINUOUS
 10
22.5174550649
 20
22.5174550649
 11
18.8194159496
 21
22.5174550649
  0
LINE
  5
52C
100
AcDbEntity
  8
RACCORDO
100
AcDbLine
 62
7
  6
CONTINUOUS
 10
-18.8194159546
 20
22.5174550649
 11
-22.5174550649
 21
22.5174550649
  0
LINE
  5
52D
100
AcDbEntity
  8
RACCORDO
100
AcDbLine
 62
7
  6
CONTINUOUS
 10
14.2244053277
 20
22.6396405194
 11
13.2939300876
 21
22.6396405194
  0
LINE
  5
52E
100
AcDbEntity
  8
RACCORDO
100
AcDbLine
 62
7
  6
CONTINUOUS
 10
11.7746223912
 20
22.6396405194
 11
10.7253776088
 21
22.6396405194
  0
LINE
  5
52F
100
AcDbEntity
  8
RACCORDO
100
AcDbLine
 62
7
  6
CONTINUOUS
 10
9.2060699124
 20
22.6396405194
 11
8.2755946723
 21
22.6396405194
  0
LINE
  5
530
100
AcDbEntity
  8
RACCORDO
100
AcDbLine
 62
7
  6
CONTINUOUS
 10
-8.2755946723
 20
22.6396405194
 11
-9.2060699124
 21
22.6396405194
  0
LINE
  5
531
100
AcDbEntity
  8
RACCORDO
100
AcDbLine
 62
7
  6
CONTINUOUS
 10
-10.7253776088
 20
22.6396405194
 11
-11.7746223912
 21
22.6396405194
  0
LINE
  5
532
100
AcDbEntity
  8
RACCORDO
100
AcDbLine
 62
7
  6
CONTINUOUS
 10
-13.2939300876
 20
22.6396405194
 11
-14.2244053277
 21
22.6396405194
  0
LINE
  5
533
100
AcDbEntity
  8
RACCORDO
100
AcDbLine
 62
7
  6
CONTINUOUS
 10
-15.3586664338
 20
22.6410286281
 11
-14.7983518036
 21
22.6410286281
  0
LINE
  5
534
100
AcDbEntity
  8
RACCORDO
100
AcDbLine
 62
7
  6
CONTINUOUS
 10
-12.7875967103
 20
22.6410286281
 11
-12.2748965036
 21
22.6410286281
  0
LINE
  5
535
100
AcDbEntity
  8
RACCORDO
100
AcDbLine
 62
7
  6
CONTINUOUS
 10
-10.2251034964
 20
22.6410286281
 11
-9.7124032897
 21
22.6410286281
  0
LINE
  5
536
100
AcDbEntity
  8
RACCORDO
100
AcDbLine
 62
7
  6
CONTINUOUS
 10
-7.7016481964
 20
22.6410286281
 11
-7.1413335662
 21
22.6410286281
  0
LINE
  5
537
100
AcDbEntity
  8
RACCORDO
100
AcDbLine
 62
7
  6
CONTINUOUS
 10
7.1413335662
 20
22.6410286281
 11
7.7016481964
 21
22.6410286281
  0
LINE
  5
538
100
AcDbEntity
  8
RACCORDO
100
AcDbLine
 62
7
  6
CONTINUOUS
 10
9.7124032897
 20
22.6410286281
 11
10.2251034964
 21
22.6410286281
  0
LINE
  5
539
100
AcDbEntity
  8
RACCORDO
100
AcDbLine
 62
7
  6
CONTINUOUS
 10
12.2748965036
 20
22.6410286281
 11
12.7875967103
 21
22.6410286281
  0
LINE
  5
53A
100
AcDbEntity
  8
RACCORDO
100
AcDbLine
 62
7
  6
CONTINUOUS
 10
14.7983518036
 20
22.6410286281
 11
15.3586664338
 21
22.6410286281
  0
LINE
  5
53B
100
AcDbEntity
  8
RACCORDO
100
AcDbLine
 62
253
  6
CONTINUOUS
 10
-13.1924927135
 20
22.6746115759
 11
-9.3075072865
 21
22.6746115759
  0
LINE
  5
53C
100
AcDbEntity
  8
RACCORDO
100
AcDbLine
 62
253
  6
CONTINUOUS
 10
9.3075072865
 20
22.6746115759
 11
13.1924927135
 21
22.6746115759
  0
LINE
  5
53D
100
AcDbEntity
  8
RACCORDO
100
AcDbLine
 62
253
  6
CONTINUOUS
 10
-18.2886997347
 20
22.7060306927
 11
-14.7504303095
 21
22.7060306927
  0
LINE
  5
53E
100
AcDbEntity
  8
RACCORDO
100
AcDbLine
 62
253
  6
CONTINUOUS
 10
-7.7495696905
 20
22.7060306927
 11
7.7495696905
 21
22.7060306927
  0
LINE
  5
53F
100
AcDbEntity
  8
RACCORDO
100
AcDbLine
 62
253
  6
CONTINUOUS
 10
14.7504303095
 20
22.7060306927
 11
18.2886997375
 21
22.7060306927
  0
LINE
  5
540
100
AcDbEntity
  8
RACCORDO
100
AcDbLine
 62
253
  6
CONTINUOUS
 10
-13.1925345342
 20
22.8745811149
 11
-9.3074652985
 21
22.8745811149
  0
LINE
  5
541
100
AcDbEntity
  8
RACCORDO
100
AcDbLine
 62
253
  6
CONTINUOUS
 10
9.3074654658
 20
22.8745811149
 11
13.1925347015
 21
22.8745811149
  0
LINE
  5
542
100
AcDbEntity
  8
RACCORDO
100
AcDbLine
 62
253
  6
CONTINUOUS
 10
-18.2886997324
 20
22.9060002318
 11
-14.7504303095
 21
22.9060002318
  0
LINE
  5
543
100
AcDbEntity
  8
RACCORDO
100
AcDbLine
 62
253
  6
CONTINUOUS
 10
-7.7495696905
 20
22.9060002318
 11
7.7495696905
 21
22.9060002318
  0
LINE
  5
544
100
AcDbEntity
  8
RACCORDO
100
AcDbLine
 62
253
  6
CONTINUOUS
 10
14.7504303095
 20
22.9060002318
 11
18.2886997338
 21
22.9060002318
  0
LINE
  5
545
100
AcDbEntity
  8
RACCORDO
100
AcDbLine
 62
7
  6
CONTINUOUS
 10
-3.7000342679
 20
23.05
 11
-1.3999657321
 21
23.05
  0
LINE
  5
546
100
AcDbEntity
  8
RACCORDO
100
AcDbLine
 62
7
  6
CONTINUOUS
 10
1.3999657321
 20
23.05
 11
3.7000342679
 21
23.05
  0
LINE
  5
547
100
AcDbEntity
  8
RACCORDO
100
AcDbLine
 62
7
  6
CONTINUOUS
 10
-3.6859890075
 20
23.0780926603
 11
-1.4140109925
 21
23.0780926603
  0
LINE
  5
548
100
AcDbEntity
  8
RACCORDO
100
AcDbLine
 62
7
  6
CONTINUOUS
 10
1.4140109925
 20
23.0780926603
 11
3.6859890075
 21
23.0780926603
  0
LINE
  5
549
100
AcDbEntity
  8
DRAFT
100
AcDbLine
 62
7
  6
CONTINUOUS
 10
-21.5
 20
23.65
 11
-18.4
 21
23.65
  0
LINE
  5
54A
100
AcDbEntity
  8
DRAFT
100
AcDbLine
 62
7
  6
CONTINUOUS
 10
21.5
 20
23.65
 11
18.4
 21
23.65
  0
LINE
  5
54B
100
AcDbEntity
  8
RACCORDO
100
AcDbLine
 62
7
  6
CONTINUOUS
 10
-3.8215859914
 20
23.696798016
 11
-1.423362958
 21
23.696798016
  0
LINE
  5
54C
100
AcDbEntity
  8
RACCORDO
100
AcDbLine
 62
7
  6
CONTINUOUS
 10
1.423362958
 20
23.696798016
 11
3.8215859914
 21
23.696798016
  0
LINE
  5
54D
100
AcDbEntity
  8
RACCORDO
100
AcDbLine
 62
253
  6
CONTINUOUS
 10
-3.8348804397
 20
23.7007110782
 11
-1.4253193401
 21
23.7007110782
  0
LINE
  5
54E
100
AcDbEntity
  8
RACCORDO
100
AcDbLine
 62
253
  6
CONTINUOUS
 10
1.4253193401
 20
23.7007110782
 11
3.8348804396
 21
23.7007110782
  0
LINE
  5
54F
100
AcDbEntity
  8
RACCORDO
100
AcDbLine
 62
253
  6
CONTINUOUS
 10
5.463561215
 20
23.7034605474
 11
4.0440992082
 21
23.7034605474
  0
LINE
  5
550
100
AcDbEntity
  8
RACCORDO
100
AcDbLine
 62
253
  6
CONTINUOUS
 10
1.1
 20
23.7034605474
 11
-1.1
 21
23.7034605474
  0
LINE
  5
551
100
AcDbEntity
  8
RACCORDO
100
AcDbLine
 62
253
  6
CONTINUOUS
 10
-4.0440992082
 20
23.7034605474
 11
-5.463561215
 21
23.7034605474
  0
LINE
  5
552
100
AcDbEntity
  8
RACCORDO
100
AcDbLine
 62
253
  6
CONTINUOUS
 10
5.4635483314
 20
23.9034300864
 11
4.1489227492
 21
23.9034300864
  0
LINE
  5
553
100
AcDbEntity
  8
RACCORDO
100
AcDbLine
 62
253
  6
CONTINUOUS
 10
1.0965699136
 20
23.9034300864
 11
-1.0965699136
 21
23.9034300864
  0
LINE
  5
554
100
AcDbEntity
  8
RACCORDO
100
AcDbLine
 62
253
  6
CONTINUOUS
 10
-4.1489227492
 20
23.9034300864
 11
-5.4635558323
 21
23.9034300864
  0
LINE
  5
555
100
AcDbEntity
  8
RACCORDO
100
AcDbLine
 62
253
  6
CONTINUOUS
 10
-3.8348804397
 20
24.0006653867
 11
-1.1253307632
 21
24.0006653867
  0
LINE
  5
556
100
AcDbEntity
  8
RACCORDO
100
AcDbLine
 62
253
  6
CONTINUOUS
 10
1.1253307632
 20
24.0006653838
 11
3.8348804396
 21
24.0006653867
  0
LINE
  5
557
100
AcDbEntity
  8
RACCORDO
100
AcDbLine
 62
7
  6
CONTINUOUS
 10
-5.3484195506
 20
24.026132614
 11
-4.297681292
 21
24.026132614
  0
LINE
  5
558
100
AcDbEntity
  8
DRAFT
100
AcDbLine
 62
7
  6
CONTINUOUS
 10
-0.973867386
 20
24.026132614
 11
0.973867386
 21
24.026132614
  0
LINE
  5
559
100
AcDbEntity
  8
RACCORDO
100
AcDbLine
 62
7
  6
CONTINUOUS
 10
4.297681292
 20
24.026132614
 11
5.3484195506
 21
24.026132614
  0
LINE
  5
55A
100
AcDbEntity
  8
RACCORDO
100
AcDbLine
 62
253
  6
CONTINUOUS
 10
3.8348804507
 20
24.1993346133
 11
1.1253307632
 21
24.1993346133
  0
LINE
  5
55B
100
AcDbEntity
  8
RACCORDO
100
AcDbLine
 62
253
  6
CONTINUOUS
 10
-1.1253307632
 20
24.1993346134
 11
-3.8348804526
 21
24.1993346133
  0
LINE
  5
55C
100
AcDbEntity
  8
RACCORDO
100
AcDbLine
 62
253
  6
CONTINUOUS
 10
3.8348804612
 20
24.4992889218
 11
1.4253193401
 21
24.4992889218
  0
LINE
  5
55D
100
AcDbEntity
  8
RACCORDO
100
AcDbLine
 62
253
  6
CONTINUOUS
 10
-1.4253193401
 20
24.4992889218
 11
-3.8348804648
 21
24.4992889218
  0
LINE
  5
55E
100
AcDbEntity
  8
RACCORDO
100
AcDbLine
 62
253
  6
CONTINUOUS
 10
15.9197259848
 20
24.6114548332
 11
14.7504303095
 21
24.6114548332
  0
LINE
  5
55F
100
AcDbEntity
  8
RACCORDO
100
AcDbLine
 62
253
  6
CONTINUOUS
 10
7.7495696905
 20
24.6114548332
 11
5.9094770665
 21
24.6114548332
  0
LINE
  5
560
100
AcDbEntity
  8
RACCORDO
100
AcDbLine
 62
253
  6
CONTINUOUS
 10
-5.9094770665
 20
24.6114548332
 11
-7.7495696905
 21
24.6114548332
  0
LINE
  5
561
100
AcDbEntity
  8
RACCORDO
100
AcDbLine
 62
253
  6
CONTINUOUS
 10
-14.7504303095
 20
24.6114548332
 11
-15.9197259848
 21
24.6114548332
  0
LINE
  5
562
100
AcDbEntity
  8
RACCORDO
100
AcDbLine
 62
253
  6
CONTINUOUS
 10
13.1925345342
 20
24.64287395
 11
9.3074652985
 21
24.64287395
  0
LINE
  5
563
100
AcDbEntity
  8
RACCORDO
100
AcDbLine
 62
253
  6
CONTINUOUS
 10
-9.3074654658
 20
24.64287395
 11
-13.1925347015
 21
24.64287395
  0
LINE
  5
564
100
AcDbEntity
  8
DRAFT
100
AcDbLine
 62
7
  6
CONTINUOUS
 10
-21.5
 20
24.65
 11
-18.4
 21
24.65
  0
LINE
  5
565
100
AcDbEntity
  8
DRAFT
100
AcDbLine
 62
7
  6
CONTINUOUS
 10
21.5
 20
24.65
 11
18.4
 21
24.65
  0
LINE
  5
566
100
AcDbEntity
  8
RACCORDO
100
AcDbLine
 62
7
  6
CONTINUOUS
 10
-3.922480805
 20
24.6876799659
 11
-1.2622743426
 21
24.6876799659
  0
LINE
  5
567
100
AcDbEntity
  8
RACCORDO
100
AcDbLine
 62
7
  6
CONTINUOUS
 10
1.2622743426
 20
24.6876799659
 11
3.922480805
 21
24.6876799659
  0
LINE
  5
568
100
AcDbEntity
  8
RACCORDO
100
AcDbLine
 62
253
  6
CONTINUOUS
 10
15.9786541704
 20
24.8114243722
 11
14.7504303095
 21
24.8114243722
  0
LINE
  5
569
100
AcDbEntity
  8
RACCORDO
100
AcDbLine
 62
253
  6
CONTINUOUS
 10
7.7495696905
 20
24.8114243722
 11
5.9094770665
 21
24.8114243722
  0
LINE
  5
56A
100
AcDbEntity
  8
RACCORDO
100
AcDbLine
 62
253
  6
CONTINUOUS
 10
-5.9094770665
 20
24.8114243722
 11
-7.7495696905
 21
24.8114243722
  0
LINE
  5
56B
100
AcDbEntity
  8
RACCORDO
100
AcDbLine
 62
253
  6
CONTINUOUS
 10
-14.7504303095
 20
24.8114243722
 11
-15.9786541704
 21
24.8114243722
  0
LINE
  5
56C
100
AcDbEntity
  8
RACCORDO
100
AcDbLine
 62
253
  6
CONTINUOUS
 10
13.1924927135
 20
24.8428434891
 11
9.3075072865
 21
24.8428434891
  0
LINE
  5
56D
100
AcDbEntity
  8
RACCORDO
100
AcDbLine
 62
253
  6
CONTINUOUS
 10
-9.3075072865
 20
24.8428434891
 11
-13.1924927135
 21
24.8428434891
  0
LINE
  5
56E
100
AcDbEntity
  8
RACCORDO
100
AcDbLine
 62
253
  6
CONTINUOUS
 10
-5.409079964
 20
24.8931196239
 11
-4.6293326935
 21
24.8931196239
  0
LINE
  5
56F
100
AcDbEntity
  8
RACCORDO
100
AcDbLine
 62
253
  6
CONTINUOUS
 10
4.6293326935
 20
24.8931196239
 11
5.409079964
 21
24.8931196239
  0
LINE
  5
570
100
AcDbEntity
  8
RACCORDO
100
AcDbLine
 62
7
  6
CONTINUOUS
 10
15.1605011644
 20
24.9060680219
 11
15.1092903884
 21
24.9060680219
  0
LINE
  5
571
100
AcDbEntity
  8
RACCORDO
100
AcDbLine
 62
7
  6
CONTINUOUS
 10
7.3907096116
 20
24.9060680219
 11
7.3394988356
 21
24.9060680219
  0
LINE
  5
572
100
AcDbEntity
  8
RACCORDO
100
AcDbLine
 62
7
  6
CONTINUOUS
 10
-7.3394988356
 20
24.9060680219
 11
-7.3907096116
 21
24.9060680219
  0
LINE
  5
573
100
AcDbEntity
  8
RACCORDO
100
AcDbLine
 62
7
  6
CONTINUOUS
 10
-15.1092903884
 20
24.9060680219
 11
-15.1605011644
 21
24.9060680219
  0
LINE
  5
574
100
AcDbEntity
  8
RACCORDO
100
AcDbLine
 62
253
  6
CONTINUOUS
 10
-5.409079964
 20
24.9516678067
 11
-4.8066589694
 21
24.9516678067
  0
LINE
  5
575
100
AcDbEntity
  8
RACCORDO
100
AcDbLine
 62
253
  6
CONTINUOUS
 10
4.8066589694
 20
24.9516678067
 11
5.409079964
 21
24.9516678067
  0
LINE
  5
576
100
AcDbEntity
  8
RACCORDO
100
AcDbLine
 62
253
  6
CONTINUOUS
 10
-14.4855460317
 20
22.7032525702
 11
-13.8105560285
 21
22.6810938617
  0
LINE
  5
577
100
AcDbEntity
  8
RACCORDO
100
AcDbLine
 62
253
  6
CONTINUOUS
 10
-14.3089619429
 20
22.9032222875
 11
-13.6339529697
 21
22.8810629562
  0
LINE
  5
578
100
AcDbEntity
  8
RACCORDO
100
AcDbLine
 62
253
  6
CONTINUOUS
 10
8.0144539683
 20
22.7032525702
 11
8.6894439715
 21
22.6810938617
  0
LINE
  5
579
100
AcDbEntity
  8
RACCORDO
100
AcDbLine
 62
253
  6
CONTINUOUS
 10
8.1910380571
 20
22.9032222875
 11
8.8660470303
 21
22.8810629562
  0
LINE
  5
57A
100
AcDbEntity
  8
RACCORDO
100
AcDbLine
 62
253
  6
CONTINUOUS
 10
-8.1910380571
 20
24.6142327774
 11
-8.8660470303
 21
24.6363921087
  0
LINE
  5
57B
100
AcDbEntity
  8
RACCORDO
100
AcDbLine
 62
253
  6
CONTINUOUS
 10
-8.0144539683
 20
24.8142024947
 11
-8.6894439715
 21
24.8363612032
  0
LINE
  5
57C
100
AcDbEntity
  8
RACCORDO
100
AcDbLine
 62
253
  6
CONTINUOUS
 10
5.8619784041
 20
24.068542638
 11
5.6627698096
 21
24.0859711318
  0
LINE
  5
57D
100
AcDbEntity
  8
RACCORDO
100
AcDbLine
 62
253
  6
CONTINUOUS
 10
-3.8348804533
 20
24.1993346097
 11
-4.1218393221
 21
24.2867860058
  0
LINE
  5
57E
100
AcDbEntity
  8
RACCORDO
100
AcDbLine
 62
253
  6
CONTINUOUS
 10
3.8348804396
 20
24.0006653867
 11
4.1218393179
 21
23.9132139804
  0
LINE
  5
57F
100
AcDbEntity
  8
RACCORDO
100
AcDbLine
 62
7
  6
CONTINUOUS
 10
4.0
 20
23.65
 11
3.9824192776
 21
23.6568896896
  0
LINE
  5
580
100
AcDbEntity
  8
RACCORDO
100
AcDbLine
 62
253
  6
CONTINUOUS
 10
25.1993346133
 20
-6.6992889218
 11
25.1993346133
 21
6.6992889218
  0
LINE
  5
581
100
AcDbEntity
  8
RACCORDO
100
AcDbLine
 62
253
  6
CONTINUOUS
 10
25.4992889218
 20
-6.3993346133
 11
25.4992889218
 21
6.3993346133
  0
LINE
  5
582
100
AcDbEntity
  8
ASSI
100
AcDbLine
 62
7
  6
CONTINUOUS
 10
25.55
 20
-6.4500456915
 11
25.55
 21
6.4500456915
  0
LINE
  5
583
100
AcDbEntity
  8
DRAFT
100
AcDbLine
 62
7
  6
CONTINUOUS
 10
27.0
 20
12.0830127019
 11
27.0
 21
10.4169872981
  0
LINE
  5
584
100
AcDbEntity
  8
DRAFT
100
AcDbLine
 62
7
  6
CONTINUOUS
 10
27.0
 20
-10.4169872981
 11
27.0
 21
-12.0830127019
  0
LINE
  5
585
100
AcDbEntity
  8
0
100
AcDbLine
 62
7
  6
CONTINUOUS
 10
27.25
 20
-13.45
 11
27.25
 21
-9.05
  0
LINE
  5
586
100
AcDbEntity
  8
0
100
AcDbLine
 62
7
  6
CONTINUOUS
 10
27.25
 20
9.05
 11
27.25
 21
13.45
  0
LINE
  5
587
100
AcDbEntity
  8
DRAFT
100
AcDbLine
 62
7
  6
CONTINUOUS
 10
11.9101888183
 20
-26.3157095584
 11
11.8834013335
 21
-26.3506196883
  0
LINE
  5
588
100
AcDbEntity
  8
DRAFT
100
AcDbLine
 62
7
  6
CONTINUOUS
 10
12.1111581471
 20
-27.2006196883
 11
12.1379456318
 21
-27.1657095584
  0
LINE
  5
589
100
AcDbEntity
  8
DRAFT
100
AcDbLine
 62
7
  6
CONTINUOUS
 10
8.5
 20
-27.1657095584
 11
8.5157095584
 21
-27.15
  0
LINE
  5
58A
100
AcDbEntity
  8
DRAFT
100
AcDbLine
 62
7
  6
CONTINUOUS
 10
12.15
 20
-27.1657095584
 11
12.1657095584
 21
-27.15
  0
LINE
  5
58B
100
AcDbEntity
  8
RACCORDO
100
AcDbLine
 62
7
  6
CONTINUOUS
 10
14.1311629851
 20
-25.05
 11
14.5119807973
 21
-24.9158971781
  0
LINE
  5
58C
100
AcDbEntity
  8
RACCORDO
100
AcDbLine
 62
253
  6
CONTINUOUS
 10
-5.9094770665
 20
24.6114548332
 11
-5.7102684719
 21
24.6288833269
  0
LINE
  5
58D
100
AcDbEntity
  8
RACCORDO
100
AcDbLine
 62
253
  6
CONTINUOUS
 10
-13.6339527087
 20
24.6363921173
 11
-14.3089619125
 21
24.6142327784
  0
LINE
  5
58E
100
AcDbEntity
  8
RACCORDO
100
AcDbLine
 62
253
  6
CONTINUOUS
 10
-13.8105560285
 20
24.8363612032
 11
-14.4855460317
 21
24.8142024947
  0
LINE
  5
58F
100
AcDbEntity
  8
DRAFT
100
AcDbLine
 62
7
  6
CONTINUOUS
 10
16.0340263191
 20
25.0
 11
15.75
 21
25.0
  0
LINE
  5
590
100
AcDbEntity
  8
DRAFT
100
AcDbLine
 62
7
  6
CONTINUOUS
 10
-6.75
 20
25.0
 11
-5.0
 21
25.0
  0
LINE
  5
591
100
AcDbEntity
  8
DRAFT
100
AcDbLine
 62
7
  6
CONTINUOUS
 10
5.0
 20
25.0
 11
6.75
 21
25.0
  0
LINE
  5
592
100
AcDbEntity
  8
DRAFT
100
AcDbLine
 62
7
  6
CONTINUOUS
 10
-15.75
 20
25.0
 11
-16.0340263191
 21
25.0
  0
LINE
  5
593
100
AcDbEntity
  8
DRAFT
100
AcDbLine
 62
7
  6
CONTINUOUS
 10
14.1311629851
 20
25.05
 11
8.3688370149
 21
25.05
  0
LINE
  5
594
100
AcDbEntity
  8
DRAFT
100
AcDbLine
 62
7
  6
CONTINUOUS
 10
-8.3688370149
 20
25.05
 11
-14.1311629851
 21
25.05
  0
LINE
  5
595
100
AcDbEntity
  8
ASSI
100
AcDbLine
 62
7
  6
CONTINUOUS
 10
-14.1264863489
 20
25.35
 11
-12.25
 21
25.35
  0
LINE
  5
596
100
AcDbEntity
  8
ASSI
100
AcDbLine
 62
7
  6
CONTINUOUS
 10
-10.25
 20
25.35
 11
-8.3735136511
 21
25.35
  0
LINE
  5
597
100
AcDbEntity
  8
ASSI
100
AcDbLine
 62
7
  6
CONTINUOUS
 10
8.3735136511
 20
25.35
 11
10.25
 21
25.35
  0
LINE
  5
598
100
AcDbEntity
  8
ASSI
100
AcDbLine
 62
7
  6
CONTINUOUS
 10
12.25
 20
25.35
 11
14.1264863489
 21
25.35
  0
LINE
  5
599
100
AcDbEntity
  8
0
100
AcDbLine
 62
7
  6
CONTINUOUS
 10
6.4
 20
25.9
 11
5.0
 21
25.9
  0
LINE
  5
59A
100
AcDbEntity
  8
ASSI
100
AcDbLine
 62
7
  6
CONTINUOUS
 10
6.4
 20
25.9
 11
5.0
 21
25.9
  0
LINE
  5
59B
100
AcDbEntity
  8
0
100
AcDbLine
 62
7
  6
CONTINUOUS
 10
-5.0
 20
25.9
 11
-6.4
 21
25.9
  0
LINE
  5
59C
100
AcDbEntity
  8
ASSI
100
AcDbLine
 62
7
  6
CONTINUOUS
 10
-5.0
 20
25.9
 11
-6.4
 21
25.9
  0
LINE
  5
59D
100
AcDbEntity
  8
DRAFT
100
AcDbLine
 62
7
  6
CONTINUOUS
 10
11.9101888183
 20
26.3157095584
 11
10.5898111817
 21
26.3157095584
  0
LINE
  5
59E
100
AcDbEntity
  8
DRAFT
100
AcDbLine
 62
7
  6
CONTINUOUS
 10
-10.5898111817
 20
26.3157095584
 11
-11.9101888183
 21
26.3157095584
  0
LINE
  5
59F
100
AcDbEntity
  8
DRAFT
100
AcDbLine
 62
7
  6
CONTINUOUS
 10
11.8834013335
 20
26.3506196883
 11
10.6165986665
 21
26.3506196883
  0
LINE
  5
5A0
100
AcDbEntity
  8
DRAFT
100
AcDbLine
 62
7
  6
CONTINUOUS
 10
-10.6165986665
 20
26.3506196883
 11
-11.8834013335
 21
26.3506196883
  0
LINE
  5
5A1
100
AcDbEntity
  8
RACCORDO
100
AcDbLine
 62
253
  6
CONTINUOUS
 10
4.6709677904
 20
26.4830998247
 11
-4.6709677904
 21
26.4830998247
  0
LINE
  5
5A2
100
AcDbEntity
  8
RACCORDO
100
AcDbLine
 62
253
  6
CONTINUOUS
 10
4.6709677904
 20
26.5708649879
 11
-4.6709677904
 21
26.5708649879
  0
LINE
  5
5A3
100
AcDbEntity
  8
RACCORDO
100
AcDbLine
 62
7
  6
CONTINUOUS
 10
4.7001028025
 20
26.6
 11
-4.7001028025
 21
26.6
  0
LINE
  5
5A4
100
AcDbEntity
  8
RACCORDO
100
AcDbLine
 62
7
  6
CONTINUOUS
 10
22.0
 20
26.65
 11
18.7990381057
 21
26.65
  0
LINE
  5
5A5
100
AcDbEntity
  8
ASSI
100
AcDbLine
 62
7
  6
CONTINUOUS
 10
22.0
 20
26.65
 11
18.7990381057
 21
26.65
  0
LINE
  5
5A6
100
AcDbEntity
  8
RACCORDO
100
AcDbLine
 62
7
  6
CONTINUOUS
 10
-18.7990381057
 20
26.65
 11
-22.0
 21
26.65
  0
LINE
  5
5A7
100
AcDbEntity
  8
ASSI
100
AcDbLine
 62
7
  6
CONTINUOUS
 10
-18.7990381057
 20
26.65
 11
-22.0
 21
26.65
  0
LINE
  5
5A8
100
AcDbEntity
  8
DRAFT
100
AcDbLine
 62
7
  6
CONTINUOUS
 10
-13.9842904416
 20
27.15
 11
-12.1657095584
 21
27.15
  0
LINE
  5
5A9
100
AcDbEntity
  8
DRAFT
100
AcDbLine
 62
7
  6
CONTINUOUS
 10
-10.3342904416
 20
27.15
 11
-8.5157095584
 21
27.15
  0
LINE
  5
5AA
100
AcDbEntity
  8
DRAFT
100
AcDbLine
 62
7
  6
CONTINUOUS
 10
8.5157095584
 20
27.15
 11
10.3342904416
 21
27.15
  0
LINE
  5
5AB
100
AcDbEntity
  8
DRAFT
100
AcDbLine
 62
7
  6
CONTINUOUS
 10
12.1657095584
 20
27.15
 11
13.9842904416
 21
27.15
  0
LINE
  5
5AC
100
AcDbEntity
  8
DRAFT
100
AcDbLine
 62
7
  6
CONTINUOUS
 10
14.0065071122
 20
27.1657095584
 11
14.0
 21
27.1657095584
  0
LINE
  5
5AD
100
AcDbEntity
  8
DRAFT
100
AcDbLine
 62
7
  6
CONTINUOUS
 10
12.15
 20
27.1657095584
 11
12.1379456318
 21
27.1657095584
  0
LINE
  5
5AE
100
AcDbEntity
  8
DRAFT
100
AcDbLine
 62
7
  6
CONTINUOUS
 10
10.3620543682
 20
27.1657095584
 11
10.35
 21
27.1657095584
  0
LINE
  5
5AF
100
AcDbEntity
  8
DRAFT
100
AcDbLine
 62
7
  6
CONTINUOUS
 10
8.5
 20
27.1657095584
 11
8.4934928878
 21
27.1657095584
  0
LINE
  5
5B0
100
AcDbEntity
  8
DRAFT
100
AcDbLine
 62
7
  6
CONTINUOUS
 10
-8.4934928878
 20
27.1657095584
 11
-8.5
 21
27.1657095584
  0
LINE
  5
5B1
100
AcDbEntity
  8
DRAFT
100
AcDbLine
 62
7
  6
CONTINUOUS
 10
-10.35
 20
27.1657095584
 11
-10.3620543682
 21
27.1657095584
  0
LINE
  5
5B2
100
AcDbEntity
  8
DRAFT
100
AcDbLine
 62
7
  6
CONTINUOUS
 10
-12.1379456318
 20
27.1657095584
 11
-12.15
 21
27.1657095584
  0
LINE
  5
5B3
100
AcDbEntity
  8
DRAFT
100
AcDbLine
 62
7
  6
CONTINUOUS
 10
-14.0
 20
27.1657095584
 11
-14.0065071122
 21
27.1657095584
  0
LINE
  5
5B4
100
AcDbEntity
  8
DRAFT
100
AcDbLine
 62
7
  6
CONTINUOUS
 10
14.0209673614
 20
27.2006196883
 11
12.1111581471
 21
27.2006196883
  0
LINE
  5
5B5
100
AcDbEntity
  8
DRAFT
100
AcDbLine
 62
7
  6
CONTINUOUS
 10
10.3888418529
 20
27.2006196883
 11
8.4790326386
 21
27.2006196883
  0
LINE
  5
5B6
100
AcDbEntity
  8
DRAFT
100
AcDbLine
 62
7
  6
CONTINUOUS
 10
-8.4790326386
 20
27.2006196883
 11
-10.3888418529
 21
27.2006196883
  0
LINE
  5
5B7
100
AcDbEntity
  8
DRAFT
100
AcDbLine
 62
7
  6
CONTINUOUS
 10
-12.1111581471
 20
27.2006196883
 11
-14.0209673614
 21
27.2006196883
  0
LINE
  5
5B8
100
AcDbEntity
  8
0
100
AcDbLine
 62
7
  6
CONTINUOUS
 10
17.5
 20
27.9
 11
8.4
 21
27.9
  0
LINE
  5
5B9
100
AcDbEntity
  8
ASSI
100
AcDbLine
 62
7
  6
CONTINUOUS
 10
17.5
 20
27.9
 11
8.4
 21
27.9
  0
LINE
  5
5BA
100
AcDbEntity
  8
0
100
AcDbLine
 62
7
  6
CONTINUOUS
 10
-8.4
 20
27.9
 11
-17.5
 21
27.9
  0
LINE
  5
5BB
100
AcDbEntity
  8
ASSI
100
AcDbLine
 62
7
  6
CONTINUOUS
 10
-8.4
 20
27.9
 11
-17.5
 21
27.9
  0
LINE
  5
5BC
100
AcDbEntity
  8
RACCORDO
100
AcDbLine
 62
253
  6
CONTINUOUS
 10
14.3089619429
 20
24.6142327774
 11
13.6339529697
 21
24.6363921087
  0
LINE
  5
5BD
100
AcDbEntity
  8
RACCORDO
100
AcDbLine
 62
253
  6
CONTINUOUS
 10
14.4855460317
 20
24.8142024947
 11
13.8105560285
 21
24.8363612032
  0
LINE
  5
5BE
100
AcDbEntity
  8
RACCORDO
100
AcDbLine
 62
253
  6
CONTINUOUS
 10
5.9094770665
 20
24.6114548332
 11
5.7102684719
 21
24.6288833269
  0
LINE
  5
5BF
100
AcDbEntity
  8
RACCORDO
100
AcDbLine
 62
7
  6
CONTINUOUS
 10
14.1311629851
 20
25.05
 11
14.5119807973
 21
24.9158971781
  0
LINE
  5
5C0
100
AcDbEntity
  8
DRAFT
100
AcDbLine
 62
7
  6
CONTINUOUS
 10
8.5
 20
27.1657095584
 11
8.5157095584
 21
27.15
  0
LINE
  5
5C1
100
AcDbEntity
  8
DRAFT
100
AcDbLine
 62
7
  6
CONTINUOUS
 10
12.15
 20
27.1657095584
 11
12.1657095584
 21
27.15
  0
LINE
  5
5C2
100
AcDbEntity
  8
DRAFT
100
AcDbLine
 62
7
  6
CONTINUOUS
 10
11.9101888183
 20
26.3157095584
 11
11.8834013335
 21
26.3506196883
  0
LINE
  5
5C3
100
AcDbEntity
  8
DRAFT
100
AcDbLine
 62
7
  6
CONTINUOUS
 10
12.1111581471
 20
27.2006196883
 11
12.1379456318
 21
27.1657095584
  0
LINE
  5
5C4
100
AcDbEntity
  8
0
100
AcDbLine
 62
253
  6
CONTINUOUS
 10
31.3947330149
 20
28.3951899294
 11
31.3947330149
 21
10.4943979443
  0
LINE
  5
5C5
100
AcDbEntity
  8
ASSI
100
AcDbLine
 62
7
  6
CONTINUOUS
 10
31.3947330149
 20
28.395350521
 11
31.3947330149
 21
10.4942865255
  0
LINE
  5
5C6
100
AcDbEntity
  8
0
100
AcDbLine
 62
253
  6
CONTINUOUS
 10
31.3947330149
 20
-10.4943979443
 11
31.3947330149
 21
-28.3951899294
  0
LINE
  5
5C7
100
AcDbEntity
  8
ASSI
100
AcDbLine
 62
7
  6
CONTINUOUS
 10
31.3947330149
 20
-10.4942915205
 11
31.3947330149
 21
-28.3953688437
  0
LINE
  5
5C8
100
AcDbEntity
  8
0
100
AcDbLine
 62
7
  6
CONTINUOUS
 10
25.95
 20
-14.75
 11
27.25
 21
-13.45
  0
LINE
  5
5C9
100
AcDbEntity
  8
DRAFT
100
AcDbLine
 62
7
  6
CONTINUOUS
 10
14.0065071122
 20
-27.1657095584
 11
15.7095192183
 21
-25.4626974523
  0
LINE
  5
5CA
100
AcDbEntity
  8
DRAFT
100
AcDbLine
 62
7
  6
CONTINUOUS
 10
14.0209673614
 20
-27.2006196883
 11
15.7047857445
 21
-25.5168013052
  0
LINE
  5
5CB
100
AcDbEntity
  8
0
100
AcDbLine
 62
253
  6
CONTINUOUS
 10
-28.3951899294
 20
31.3947330149
 11
-10.4943979443
 21
31.3947330149
  0
LINE
  5
5CC
100
AcDbEntity
  8
ASSI
100
AcDbLine
 62
7
  6
CONTINUOUS
 10
-28.395350521
 20
31.3947330149
 11
-10.4942865255
 21
31.3947330149
  0
LINE
  5
5CD
100
AcDbEntity
  8
0
100
AcDbLine
 62
253
  6
CONTINUOUS
 10
10.4943979443
 20
31.3947330149
 11
28.3951899294
 21
31.3947330149
  0
LINE
  5
5CE
100
AcDbEntity
  8
ASSI
100
AcDbLine
 62
7
  6
CONTINUOUS
 10
10.4942915205
 20
31.3947330149
 11
28.3953688437
 21
31.3947330149
  0
LINE
  5
5CF
100
AcDbEntity
  8
0
100
AcDbLine
 62
7
  6
CONTINUOUS
 10
27.25
 20
13.45
 11
25.95
 21
14.75
  0
LINE
  5
5D0
100
AcDbEntity
  8
DRAFT
100
AcDbLine
 62
7
  6
CONTINUOUS
 10
15.7095192183
 20
25.4626974523
 11
14.0065071122
 21
27.1657095584
  0
LINE
  5
5D1
100
AcDbEntity
  8
DRAFT
100
AcDbLine
 62
7
  6
CONTINUOUS
 10
15.7047857445
 20
25.5168013052
 11
14.0209673614
 21
27.2006196883
  0
LINE
  5
5D2
100
AcDbEntity
  8
RACCORDO
100
AcDbLine
 62
7
  6
CONTINUOUS
 10
33.7
 20
-15.9000761524
 11
33.7
 21
-15.25
  0
LINE
  5
5D3
100
AcDbEntity
  8
RACCORDO
100
AcDbLine
 62
7
  6
CONTINUOUS
 10
33.7
 20
-14.85
 11
33.7
 21
-12.8499619238
  0
LINE
  5
5D4
100
AcDbEntity
  8
RACCORDO
100
AcDbLine
 62
7
  6
CONTINUOUS
 10
33.7
 20
15.2999238476
 11
33.7
 21
16.55
  0
LINE
  5
5D5
100
AcDbEntity
  8
RACCORDO
100
AcDbLine
 62
7
  6
CONTINUOUS
 10
33.7
 20
16.95
 11
33.7
 21
18.3500380762
  0
LINE
  5
5D6
100
AcDbEntity
  8
0
100
AcDbLine
 62
7
  6
CONTINUOUS
 10
34.25
 20
-8.2947330149
 11
34.25
 21
8.2947330149
  0
LINE
  5
5D7
100
AcDbEntity
  8
ASSI
100
AcDbLine
 62
7
  6
CONTINUOUS
 10
34.25
 20
-8.2947330149
 11
34.25
 21
8.2947330149
  0
LINE
  5
5D8
100
AcDbEntity
  8
RACCORDO
100
AcDbLine
 62
7
  6
CONTINUOUS
 10
35.25
 20
-28.85
 11
35.25
 21
-18.8999238476
  0
LINE
  5
5D9
100
AcDbEntity
  8
RACCORDO
100
AcDbLine
 62
7
  6
CONTINUOUS
 10
35.25
 20
-12.400030461
 11
35.25
 21
12.3000761524
  0
LINE
  5
5DA
100
AcDbEntity
  8
RACCORDO
100
AcDbLine
 62
7
  6
CONTINUOUS
 10
35.25
 20
18.799969539
 11
35.25
 21
28.85
  0
LINE
  5
5DB
100
AcDbEntity
  8
RACCORDO
100
AcDbLine
 62
7
  6
CONTINUOUS
 10
15.9000761524
 20
33.7
 11
15.25
 21
33.7
  0
LINE
  5
5DC
100
AcDbEntity
  8
RACCORDO
100
AcDbLine
 62
7
  6
CONTINUOUS
 10
14.85
 20
33.7
 11
12.8499619238
 21
33.7
  0
LINE
  5
5DD
100
AcDbEntity
  8
RACCORDO
100
AcDbLine
 62
7
  6
CONTINUOUS
 10
-15.2999238476
 20
33.7
 11
-16.55
 21
33.7
  0
LINE
  5
5DE
100
AcDbEntity
  8
RACCORDO
100
AcDbLine
 62
7
  6
CONTINUOUS
 10
-16.95
 20
33.7
 11
-18.3500380762
 21
33.7
  0
LINE
  5
5DF
100
AcDbEntity
  8
0
100
AcDbLine
 62
7
  6
CONTINUOUS
 10
8.2947330149
 20
34.25
 11
-8.2947330149
 21
34.25
  0
LINE
  5
5E0
100
AcDbEntity
  8
ASSI
100
AcDbLine
 62
7
  6
CONTINUOUS
 10
8.2947330149
 20
34.25
 11
-8.2947330149
 21
34.25
  0
LINE
  5
5E1
100
AcDbEntity
  8
RACCORDO
100
AcDbLine
 62
7
  6
CONTINUOUS
 10
28.85
 20
35.25
 11
18.8999238476
 21
35.25
  0
LINE
  5
5E2
100
AcDbEntity
  8
RACCORDO
100
AcDbLine
 62
7
  6
CONTINUOUS
 10
12.3000456915
 20
35.25
 11
-12.3000761524
 21
35.25
  0
LINE
  5
5E3
100
AcDbEntity
  8
RACCORDO
100
AcDbLine
 62
7
  6
CONTINUOUS
 10
-18.8999543085
 20
35.25
 11
-28.85
 21
35.25
  0
LINE
  5
5E4
100
AcDbEntity
  8
RACCORDO
100
AcDbLine
 62
7
  6
CONTINUOUS
 10
35.6
 20
-15.9000761524
 11
35.6
 21
-15.2999543085
  0
LINE
  5
5E5
100
AcDbEntity
  8
RACCORDO
100
AcDbLine
 62
7
  6
CONTINUOUS
 10
35.6
 20
15.2999238476
 11
35.6
 21
15.9000456915
  0
LINE
  5
5E6
100
AcDbEntity
  8
RACCORDO
100
AcDbLine
 62
7
  6
CONTINUOUS
 10
37.1
 20
15.9000456915
 11
37.1
 21
13.0999543085
  0
LINE
  5
5E7
100
AcDbEntity
  8
RACCORDO
100
AcDbLine
 62
7
  6
CONTINUOUS
 10
37.1
 20
-15.2999543085
 11
37.1
 21
-18.1000456915
  0
LINE
  5
5E8
100
AcDbEntity
  8
RACCORDO
100
AcDbLine
 62
7
  6
CONTINUOUS
 10
15.9000761524
 20
35.6
 11
15.2999543085
 21
35.6
  0
LINE
  5
5E9
100
AcDbEntity
  8
RACCORDO
100
AcDbLine
 62
7
  6
CONTINUOUS
 10
-15.2999238476
 20
35.6
 11
-15.9000456915
 21
35.6
  0
LINE
  5
5EA
100
AcDbEntity
  8
RACCORDO
100
AcDbLine
 62
7
  6
CONTINUOUS
 10
-15.9000456915
 20
37.1
 11
-13.0999543085
 21
37.1
  0
LINE
  5
5EB
100
AcDbEntity
  8
RACCORDO
100
AcDbLine
 62
7
  6
CONTINUOUS
 10
15.2999543085
 20
37.1
 11
18.1000456915
 21
37.1
  0
ARC
  5
5EC
100
AcDbEntity
  8
DRAFT
100
AcDbCircle
 62
7
  6
CONTINUOUS
 10
-28.85
 20
-28.85
 40
6.4
100
AcDbArc
 50
180.0
 51
270.0
  0
CIRCLE
  5
5ED
100
AcDbEntity
  8
ASSI
100
AcDbCircle
 62
7
  6
CONTINUOUS
 10
-27.5
 20
-27.5
 40
3.0
  0
ARC
  5
5EE
100
AcDbEntity
  8
ASSI
100
AcDbCircle
 62
7
  6
CONTINUOUS
 10
-28.3953520404
 20
-28.3953520405
 40
2.9993743527
100
AcDbArc
 50
179.9999709732
 51
269.9996790145
  0
ARC
  5
5EF
100
AcDbEntity
  8
0
100
AcDbCircle
 62
253
  6
CONTINUOUS
 10
-28.3953542907
 20
-28.3953541859
 40
2.9993710943
100
AcDbArc
 50
180.151784542
 51
269.8317445386
  0
ARC
  5
5F0
100
AcDbEntity
  8
0
100
AcDbCircle
 62
253
  6
CONTINUOUS
 10
-28.3950326905
 20
-28.4050833307
 40
2.9896496883
100
AcDbArc
 50
269.8250336413
 51
269.9969865611
  0
ARC
  5
5F1
100
AcDbEntity
  8
RACCORDO
100
AcDbCircle
 62
7
  6
CONTINUOUS
 10
-22.0
 20
-25.15
 40
1.5
100
AcDbArc
 50
180.0
 51
270.0
  0
CIRCLE
  5
5F2
100
AcDbEntity
  8
0
100
AcDbCircle
 62
7
  6
CONTINUOUS
 10
-27.5
 20
-27.5
 40
1.5
  0
ARC
  5
5F3
100
AcDbEntity
  8
ASSI
100
AcDbCircle
 62
7
  6
CONTINUOUS
 10
-22.0
 20
-25.15
 40
1.5
100
AcDbArc
 50
180.0
 51
270.0
  0
ARC
  5
5F4
100
AcDbEntity
  8
RACCORDO
100
AcDbCircle
 62
7
  6
CONTINUOUS
 10
-35.1000903337
 20
-15.2999022567
 40
0.4999093351
100
AcDbArc
 50
89.9898443616
 51
180.0024745751
  0
ARC
  5
5F5
100
AcDbEntity
  8
DRAFT
100
AcDbCircle
 62
7
  6
CONTINUOUS
 10
-33.7
 20
-16.75
 40
0.2
100
AcDbArc
 50
90.0
 51
270.0
  0
ARC
  5
5F6
100
AcDbEntity
  8
RACCORDO
100
AcDbCircle
 62
7
  6
CONTINUOUS
 10
-34.9
 20
-14.8
 40
0.2
100
AcDbArc
 50
179.997193174
 51
360.0
  0
ARC
  5
5F7
100
AcDbEntity
  8
DRAFT
100
AcDbCircle
 62
7
  6
CONTINUOUS
 10
-36.55
 20
-16.2
 40
0.2
100
AcDbArc
 50
180.0
 51
360.0
  0
ARC
  5
5F8
100
AcDbEntity
  8
DRAFT
100
AcDbCircle
 62
7
  6
CONTINUOUS
 10
-36.35
 20
-12.8
 40
0.2
100
AcDbArc
 50
0.0
 51
180.0
  0
ARC
  5
5F9
100
AcDbEntity
  8
RACCORDO
100
AcDbCircle
 62
253
  6
CONTINUOUS
 10
-35.9808805355
 20
-2.4069329804
 40
62.6065716666
100
AcDbArc
 50
19.4241930762
 51
19.9427544933
  0
ARC
  5
5FA
100
AcDbEntity
  8
RACCORDO
100
AcDbCircle
 62
253
  6
CONTINUOUS
 10
-36.2457922886
 20
-2.3593727095
 40
62.4632718371
100
AcDbArc
 50
19.3029760431
 51
19.819606462
  0
ARC
  5
5FB
100
AcDbEntity
  8
0
100
AcDbCircle
 62
253
  6
CONTINUOUS
 10
-33.5942848984
 20
-10.4942848985
 40
2.1995455125
100
AcDbArc
 50
359.9970552877
 51
90.0029447124
  0
ARC
  5
5FC
100
AcDbEntity
  8
ASSI
100
AcDbCircle
 62
7
  6
CONTINUOUS
 10
-33.5942790994
 20
-10.4942790993
 40
2.1995405739
100
AcDbArc
 50
359.9998065573
 51
90.0003235562
  0
ARC
  5
5FD
100
AcDbEntity
  8
ASSI
100
AcDbCircle
 62
7
  6
CONTINUOUS
 10
-29.6452357049
 20
-4.6
 40
1.75
100
AcDbArc
 50
188.8201478292
 51
8.8201478292
  0
CIRCLE
  5
5FE
100
AcDbEntity
  8
ASSI
100
AcDbCircle
 62
7
  6
CONTINUOUS
 10
-29.0
 20
-17.5
 40
2.0
  0
ARC
  5
5FF
100
AcDbEntity
  8
RACCORDO
100
AcDbCircle
 62
253
  6
CONTINUOUS
 10
-22.9061174375
 20
-18.2883650944
 40
0.2000976948
100
AcDbArc
 50
218.700531696
 51
359.904173426
  0
ARC
  5
600
100
AcDbEntity
  8
RACCORDO
100
AcDbCircle
 62
7
  6
CONTINUOUS
 10
-22.7173704096
 20
-18.8195663172
 40
0.1999054819
100
AcDbArc
 50
219.5957051511
 51
0.0430953868
  0
ARC
  5
601
100
AcDbEntity
  8
RACCORDO
100
AcDbCircle
 62
7
  6
CONTINUOUS
 10
-23.5014324635
 20
-12.5
 40
0.7066563183
100
AcDbArc
 50
32.9664338851
 51
327.0335661149
  0
CIRCLE
  5
602
100
AcDbEntity
  8
RACCORDO
100
AcDbCircle
 62
253
  6
CONTINUOUS
 10
-23.5
 20
-12.5
 40
0.6939693073
  0
CIRCLE
  5
603
100
AcDbEntity
  8
RACCORDO
100
AcDbCircle
 62
253
  6
CONTINUOUS
 10
-23.5
 20
-12.5
 40
0.4939997682
  0
ARC
  5
604
100
AcDbEntity
  8
RACCORDO
100
AcDbCircle
 62
253
  6
CONTINUOUS
 10
-25.199209452
 20
-6.3992096686
 40
0.3000810213
100
AcDbArc
 50
180.0238563608
 51
269.9761022595
  0
ARC
  5
605
100
AcDbEntity
  8
0
100
AcDbCircle
 62
253
  6
CONTINUOUS
 10
-10.4942848984
 20
-33.5942848985
 40
2.1995455125
100
AcDbArc
 50
359.9970552877
 51
90.0029447124
  0
ARC
  5
606
100
AcDbEntity
  8
ASSI
100
AcDbCircle
 62
7
  6
CONTINUOUS
 10
-10.4942790994
 20
-33.5942790993
 40
2.1995405739
100
AcDbArc
 50
359.9998065573
 51
90.0003235562
  0
ARC
  5
607
100
AcDbEntity
  8
RACCORDO
100
AcDbCircle
 62
7
  6
CONTINUOUS
 10
-15.9000979691
 20
-35.1000905595
 40
0.4999090573
100
AcDbArc
 50
179.9898184774
 51
270.0025004599
  0
ARC
  5
608
100
AcDbEntity
  8
DRAFT
100
AcDbCircle
 62
7
  6
CONTINUOUS
 10
-15.05
 20
-33.7
 40
0.2
100
AcDbArc
 50
180.0
 51
360.0
  0
ARC
  5
609
100
AcDbEntity
  8
RACCORDO
100
AcDbCircle
 62
7
  6
CONTINUOUS
 10
-16.4
 20
-34.9
 40
0.2
100
AcDbArc
 50
269.9971931741
 51
89.9999999999
  0
ARC
  5
60A
100
AcDbEntity
  8
DRAFT
100
AcDbCircle
 62
7
  6
CONTINUOUS
 10
-15.0
 20
-36.55
 40
0.2
100
AcDbArc
 50
270.0
 51
90.0
  0
ARC
  5
60B
100
AcDbEntity
  8
DRAFT
100
AcDbCircle
 62
7
  6
CONTINUOUS
 10
-18.4
 20
-36.35
 40
0.2
100
AcDbArc
 50
90.0
 51
270.0
  0
ARC
  5
60C
100
AcDbEntity
  8
RACCORDO
100
AcDbCircle
 62
7
  6
CONTINUOUS
 10
-17.5
 20
-26.9
 40
1.0
100
AcDbArc
 50
182.204227504
 51
270.0
  0
ARC
  5
60D
100
AcDbEntity
  8
ASSI
100
AcDbCircle
 62
7
  6
CONTINUOUS
 10
-17.5
 20
-26.9
 40
1.0
100
AcDbArc
 50
182.204227504
 51
270.0
  0
ARC
  5
60E
100
AcDbEntity
  8
RACCORDO
100
AcDbCircle
 62
7
  6
CONTINUOUS
 10
-18.7990381057
 20
-26.95
 40
0.3
100
AcDbArc
 50
2.204227504
 51
90.0
  0
ARC
  5
60F
100
AcDbEntity
  8
ASSI
100
AcDbCircle
 62
7
  6
CONTINUOUS
 10
-18.7990381057
 20
-26.95
 40
0.3
100
AcDbArc
 50
2.204227504
 51
90.0
  0
ARC
  5
610
100
AcDbEntity
  8
RACCORDO
100
AcDbCircle
 62
253
  6
CONTINUOUS
 10
-18.2883650944
 20
-22.9061174375
 40
0.2000976948
100
AcDbArc
 50
90.0958265456
 51
231.2994682694
  0
ARC
  5
611
100
AcDbEntity
  8
RACCORDO
100
AcDbCircle
 62
7
  6
CONTINUOUS
 10
-18.8195663219
 20
-22.7173704079
 40
0.1999054809
100
AcDbArc
 50
89.9569032603
 51
230.4042961792
  0
ARC
  5
612
100
AcDbEntity
  8
RACCORDO
100
AcDbCircle
 62
253
  6
CONTINUOUS
 10
-2.4069328551
 20
-35.980880188
 40
62.6065712973
100
AcDbArc
 50
70.0572455059
 51
70.5758069261
  0
ARC
  5
613
100
AcDbEntity
  8
RACCORDO
100
AcDbCircle
 62
253
  6
CONTINUOUS
 10
-2.3593726272
 20
-36.245792053
 40
62.4632715876
100
AcDbArc
 50
70.1803935357
 51
70.6970239566
  0
ARC
  5
614
100
AcDbEntity
  8
ASSI
100
AcDbCircle
 62
7
  6
CONTINUOUS
 10
-4.6
 20
-29.6452357049
 40
1.75
100
AcDbArc
 50
81.1798521708
 51
261.1798521708
  0
ARC
  5
615
100
AcDbEntity
  8
RACCORDO
100
AcDbCircle
 62
7
  6
CONTINUOUS
 10
-3.508719834
 20
-24.1138576299
 40
0.7938235702
100
AcDbArc
 50
173.6553153368
 51
213.8600113548
  0
ARC
  5
616
100
AcDbEntity
  8
RACCORDO
100
AcDbCircle
 62
253
  6
CONTINUOUS
 10
-3.3398052852
 20
-24.2817154641
 40
0.7820504718
100
AcDbArc
 50
180.3714891664
 51
186.6970812272
  0
ARC
  5
617
100
AcDbEntity
  8
RACCORDO
100
AcDbCircle
 62
7
  6
CONTINUOUS
 10
-3.4797424561
 20
-24.1211095354
 40
0.7020894064
100
AcDbArc
 50
143.496932949
 51
153.2849178946
  0
ARC
  5
618
100
AcDbEntity
  8
RACCORDO
100
AcDbCircle
 62
7
  6
CONTINUOUS
 10
-3.5070279158
 20
-24.1011179388
 40
0.6682641512
100
AcDbArc
 50
143.4833958981
 51
204.1497085298
  0
ARC
  5
619
100
AcDbEntity
  8
RACCORDO
100
AcDbCircle
 62
7
  6
CONTINUOUS
 10
-3.5089285714
 20
-24.1
 40
0.6660714286
100
AcDbArc
 50
137.4989889857
 51
143.4630739941
  0
ARC
  5
61A
100
AcDbEntity
  8
RACCORDO
100
AcDbCircle
 62
7
  6
CONTINUOUS
 10
-3.5090002048
 20
-24.0947191154
 40
0.6417166765
100
AcDbArc
 50
127.0495036622
 51
162.7119097448
  0
ARC
  5
61B
100
AcDbEntity
  8
RACCORDO
100
AcDbCircle
 62
7
  6
CONTINUOUS
 10
-3.5089285714
 20
-24.1
 40
0.6407406654
100
AcDbArc
 50
163.0512742016
 51
196.9487255053
  0
ARC
  5
61C
100
AcDbEntity
  8
RACCORDO
100
AcDbCircle
 62
253
  6
CONTINUOUS
 10
-3.4023370503
 20
-24.5934619024
 40
0.442676353
100
AcDbArc
 50
167.7172914183
 51
174.362638859
  0
ARC
  5
61D
100
AcDbEntity
  8
RACCORDO
100
AcDbCircle
 62
253
  6
CONTINUOUS
 10
-3.4063698385
 20
-23.6073296496
 40
0.4385674708
100
AcDbArc
 50
191.7694929575
 51
192.2937464583
  0
ARC
  5
61E
100
AcDbEntity
  8
RACCORDO
100
AcDbCircle
 62
253
  6
CONTINUOUS
 10
-5.4635746018
 20
-24.1033874637
 40
0.3999248814
100
AcDbArc
 50
89.998082135
 51
175.0015685878
  0
ARC
  5
61F
100
AcDbEntity
  8
RACCORDO
100
AcDbCircle
 62
253
  6
CONTINUOUS
 10
-3.5089018453
 20
-23.8349990729
 40
0.3418638725
100
AcDbArc
 50
120.0868954257
 51
156.1553892458
  0
ARC
  5
620
100
AcDbEntity
  8
RACCORDO
100
AcDbCircle
 62
253
  6
CONTINUOUS
 10
-3.5089285714
 20
-24.1
 40
0.3407520885
100
AcDbArc
 50
163.0512742016
 51
196.9487252275
  0
ARC
  5
621
100
AcDbEntity
  8
RACCORDO
100
AcDbCircle
 62
253
  6
CONTINUOUS
 10
-4.6707075772
 20
-26.2707075773
 40
0.3001594205
100
AcDbArc
 50
180.0496709678
 51
269.9503290312
  0
ARC
  5
622
100
AcDbEntity
  8
RACCORDO
100
AcDbCircle
 62
253
  6
CONTINUOUS
 10
-3.8428219418
 20
-24.2499455733
 40
0.3000544337
100
AcDbArc
 50
204.2065111461
 51
269.987633078
  0
ARC
  5
623
100
AcDbEntity
  8
RACCORDO
100
AcDbCircle
 62
253
  6
CONTINUOUS
 10
-1.4253717673
 20
-24.0007544695
 40
0.3000437957
100
AcDbArc
 50
0.0170112332
 51
89.9899885897
  0
ARC
  5
624
100
AcDbEntity
  8
RACCORDO
100
AcDbCircle
 62
253
  6
CONTINUOUS
 10
-1.4253717674
 20
-24.1992455304
 40
0.3000437957
100
AcDbArc
 50
270.0100114191
 51
359.9829887554
  0
ARC
  5
625
100
AcDbEntity
  8
RACCORDO
100
AcDbCircle
 62
7
  6
CONTINUOUS
 10
-1.4000410033
 20
-24.2499109164
 40
0.3000437948
100
AcDbArc
 50
270.0100112443
 51
359.9829889388
  0
ARC
  5
626
100
AcDbEntity
  8
RACCORDO
100
AcDbCircle
 62
253
  6
CONTINUOUS
 10
-3.8348618155
 20
-24.0007408165
 40
0.3000297495
100
AcDbArc
 50
90.0035565966
 51
163.0385319699
  0
ARC
  5
627
100
AcDbEntity
  8
RACCORDO
100
AcDbCircle
 62
253
  6
CONTINUOUS
 10
-3.834861838
 20
-24.1992591834
 40
0.3000297496
100
AcDbArc
 50
196.9614668701
 51
269.9964433892
  0
ARC
  5
628
100
AcDbEntity
  8
RACCORDO
100
AcDbCircle
 62
7
  6
CONTINUOUS
 10
-3.8366352402
 20
-23.9966297761
 40
0.2998241547
100
AcDbArc
 50
89.8245151051
 51
156.0561490254
  0
ARC
  5
629
100
AcDbEntity
  8
RACCORDO
100
AcDbCircle
 62
7
  6
CONTINUOUS
 10
-3.8392263591
 20
-23.995164598
 40
0.2968404389
100
AcDbArc
 50
156.1116433588
 51
162.1176863066
  0
ARC
  5
62A
100
AcDbEntity
  8
RACCORDO
100
AcDbCircle
 62
7
  6
CONTINUOUS
 10
-1.419205486
 20
-23.9961718684
 40
0.2965090873
100
AcDbArc
 50
0.1494851227
 51
6.0555201442
  0
ARC
  5
62B
100
AcDbEntity
  8
RACCORDO
100
AcDbCircle
 62
253
  6
CONTINUOUS
 10
-5.9095511348
 20
-24.6113740018
 40
0.20005127
100
AcDbArc
 50
270.0212136546
 51
354.9787863454
  0
ARC
  5
62C
100
AcDbEntity
  8
RACCORDO
100
AcDbCircle
 62
253
  6
CONTINUOUS
 10
-5.7895607612
 20
-24.7423205165
 40
0.2000413265
100
AcDbArc
 50
270.0187704438
 51
354.9812295562
  0
ARC
  5
62D
100
AcDbEntity
  8
RACCORDO
100
AcDbCircle
 62
253
  6
CONTINUOUS
 10
-5.4636435534
 20
-24.1033097706
 40
0.1998794357
100
AcDbArc
 50
89.9749969571
 51
175.0271217647
  0
ARC
  5
62E
100
AcDbEntity
  8
RACCORDO
100
AcDbCircle
 62
253
  6
CONTINUOUS
 10
-35.8853683053
 20
2.3727658402
 40
62.5051331709
100
AcDbArc
 50
340.0568246254
 51
340.5762276151
  0
ARC
  5
62F
100
AcDbEntity
  8
RACCORDO
100
AcDbCircle
 62
253
  6
CONTINUOUS
 10
-36.1516075248
 20
2.3259063974
 40
62.3633190468
100
AcDbArc
 50
340.1799797828
 51
340.6974382433
  0
ARC
  5
630
100
AcDbEntity
  8
0
100
AcDbCircle
 62
7
  6
CONTINUOUS
 10
-29.6452357049
 20
4.6
 40
3.4
100
AcDbArc
 50
294.984311831
 51
232.9472950566
  0
ARC
  5
631
100
AcDbEntity
  8
0
100
AcDbCircle
 62
253
  6
CONTINUOUS
 10
-33.5942848985
 20
10.4942848984
 40
2.1995455125
100
AcDbArc
 50
269.9970552877
 51
0.0029447124
  0
ARC
  5
632
100
AcDbEntity
  8
ASSI
100
AcDbCircle
 62
7
  6
CONTINUOUS
 10
-33.5942790993
 20
10.4942790994
 40
2.1995405739
100
AcDbArc
 50
269.9998065573
 51
0.0003235562
  0
CIRCLE
  5
633
100
AcDbEntity
  8
ASSI
100
AcDbCircle
 62
7
  6
CONTINUOUS
 10
-29.0
 20
17.5
 40
2.0
  0
CIRCLE
  5
634
100
AcDbEntity
  8
DRAFT
100
AcDbCircle
 62
7
  6
CONTINUOUS
 10
-29.0
 20
17.5
 40
1.0
  0
ARC
  5
635
100
AcDbEntity
  8
RACCORDO
100
AcDbCircle
 62
7
  6
CONTINUOUS
 10
-23.5014324851
 20
12.5
 40
0.7066562982
100
AcDbArc
 50
32.9664338851
 51
327.0335661149
  0
CIRCLE
  5
636
100
AcDbEntity
  8
RACCORDO
100
AcDbCircle
 62
253
  6
CONTINUOUS
 10
-23.5
 20
12.5
 40
0.6939693073
  0
ARC
  5
637
100
AcDbEntity
  8
ASSI
100
AcDbCircle
 62
7
  6
CONTINUOUS
 10
-25.06
 20
-0.0
 40
0.6
100
AcDbArc
 50
144.7524930079
 51
215.2475069921
  0
ARC
  5
638
100
AcDbEntity
  8
RACCORDO
100
AcDbCircle
 62
7
  6
CONTINUOUS
 10
-35.1000903337
 20
15.9000977433
 40
0.4999093351
100
AcDbArc
 50
89.9898443621
 51
180.0024745746
  0
CIRCLE
  5
639
100
AcDbEntity
  8
RACCORDO
100
AcDbCircle
 62
253
  6
CONTINUOUS
 10
-23.5
 20
12.5
 40
0.4939997682
  0
ARC
  5
63A
100
AcDbEntity
  8
RACCORDO
100
AcDbCircle
 62
253
  6
CONTINUOUS
 10
-25.1992094519
 20
6.3992096686
 40
0.3000810213
100
AcDbArc
 50
90.0238977427
 51
179.9761436376
  0
ARC
  5
63B
100
AcDbEntity
  8
DRAFT
100
AcDbCircle
 62
7
  6
CONTINUOUS
 10
-33.7
 20
15.05
 40
0.2
100
AcDbArc
 50
90.0
 51
270.0
  0
ARC
  5
63C
100
AcDbEntity
  8
RACCORDO
100
AcDbCircle
 62
7
  6
CONTINUOUS
 10
-34.9
 20
16.4
 40
0.2
100
AcDbArc
 50
179.9971931741
 51
359.9999999999
  0
ARC
  5
63D
100
AcDbEntity
  8
DRAFT
100
AcDbCircle
 62
7
  6
CONTINUOUS
 10
-36.55
 20
15.0
 40
0.2
100
AcDbArc
 50
180.0
 51
360.0
  0
ARC
  5
63E
100
AcDbEntity
  8
DRAFT
100
AcDbCircle
 62
7
  6
CONTINUOUS
 10
-28.85
 20
28.85
 40
6.4
100
AcDbArc
 50
90.0
 51
180.0
  0
CIRCLE
  5
63F
100
AcDbEntity
  8
ASSI
100
AcDbCircle
 62
7
  6
CONTINUOUS
 10
-27.5
 20
27.5
 40
3.0
  0
ARC
  5
640
100
AcDbEntity
  8
ASSI
100
AcDbCircle
 62
7
  6
CONTINUOUS
 10
-28.3953517559
 20
28.3953517558
 40
2.9993743527
100
AcDbArc
 50
89.9999764098
 51
179.9996735778
  0
ARC
  5
641
100
AcDbEntity
  8
0
100
AcDbCircle
 62
253
  6
CONTINUOUS
 10
-28.3953539068
 20
28.3953540115
 40
2.9993710943
100
AcDbArc
 50
90.1517898584
 51
179.8317392216
  0
ARC
  5
642
100
AcDbEntity
  8
0
100
AcDbCircle
 62
253
  6
CONTINUOUS
 10
-28.4050833289
 20
28.3950326905
 40
2.9896496902
100
AcDbArc
 50
179.8250336417
 51
179.996986561
  0
ARC
  5
643
100
AcDbEntity
  8
RACCORDO
100
AcDbCircle
 62
7
  6
CONTINUOUS
 10
-22.0
 20
25.15
 40
1.5
100
AcDbArc
 50
90.0
 51
180.0
  0
CIRCLE
  5
644
100
AcDbEntity
  8
0
100
AcDbCircle
 62
7
  6
CONTINUOUS
 10
-27.5
 20
27.5
 40
1.5
  0
ARC
  5
645
100
AcDbEntity
  8
ASSI
100
AcDbCircle
 62
7
  6
CONTINUOUS
 10
-22.0
 20
25.15
 40
1.5
100
AcDbArc
 50
90.0
 51
180.0
  0
ARC
  5
646
100
AcDbEntity
  8
RACCORDO
100
AcDbCircle
 62
253
  6
CONTINUOUS
 10
-22.9061174375
 20
18.2883650917
 40
0.2000976947
100
AcDbArc
 50
0.0958265422
 51
141.2994683285
  0
ARC
  5
647
100
AcDbEntity
  8
DRAFT
100
AcDbCircle
 62
7
  6
CONTINUOUS
 10
-36.35
 20
18.4
 40
0.2
100
AcDbArc
 50
0.0
 51
180.0
  0
ARC
  5
648
100
AcDbEntity
  8
RACCORDO
100
AcDbCircle
 62
7
  6
CONTINUOUS
 10
-22.7173704055
 20
18.8195663285
 40
0.1999054772
100
AcDbArc
 50
359.9569028132
 51
140.4042979955
  0
ARC
  5
649
100
AcDbEntity
  8
RACCORDO
100
AcDbCircle
 62
7
  6
CONTINUOUS
 10
-17.5
 20
26.9
 40
1.0
100
AcDbArc
 50
90.0
 51
177.795772496
  0
ARC
  5
64A
100
AcDbEntity
  8
ASSI
100
AcDbCircle
 62
7
  6
CONTINUOUS
 10
-17.5
 20
26.9
 40
1.0
100
AcDbArc
 50
90.0
 51
177.795772496
  0
ARC
  5
64B
100
AcDbEntity
  8
RACCORDO
100
AcDbCircle
 62
7
  6
CONTINUOUS
 10
-18.7990381057
 20
26.95
 40
0.3
100
AcDbArc
 50
270.0
 51
357.795772496
  0
ARC
  5
64C
100
AcDbEntity
  8
ASSI
100
AcDbCircle
 62
7
  6
CONTINUOUS
 10
-18.7990381057
 20
26.95
 40
0.3
100
AcDbArc
 50
270.0
 51
357.795772496
  0
ARC
  5
64D
100
AcDbEntity
  8
RACCORDO
100
AcDbCircle
 62
253
  6
CONTINUOUS
 10
-18.2883650917
 20
22.9061174375
 40
0.2000976947
100
AcDbArc
 50
128.7005316952
 51
269.9041734896
  0
ARC
  5
64E
100
AcDbEntity
  8
RACCORDO
100
AcDbCircle
 62
7
  6
CONTINUOUS
 10
-18.8195663289
 20
22.7173704053
 40
0.1999054787
100
AcDbArc
 50
129.5957019374
 51
270.0430973005
  0
ARC
  5
64F
100
AcDbEntity
  8
0
100
AcDbCircle
 62
253
  6
CONTINUOUS
 10
-10.4942848985
 20
33.5942848984
 40
2.1995455125
100
AcDbArc
 50
269.9970552877
 51
0.0029447124
  0
ARC
  5
650
100
AcDbEntity
  8
ASSI
100
AcDbCircle
 62
7
  6
CONTINUOUS
 10
-10.4942790993
 20
33.5942790994
 40
2.1995405739
100
AcDbArc
 50
269.9998065573
 51
0.0003235562
  0
ARC
  5
651
100
AcDbEntity
  8
RACCORDO
100
AcDbCircle
 62
7
  6
CONTINUOUS
 10
-15.2999022591
 20
35.1000903361
 40
0.4999093351
100
AcDbArc
 50
359.9898440907
 51
90.0024743031
  0
ARC
  5
652
100
AcDbEntity
  8
DRAFT
100
AcDbCircle
 62
7
  6
CONTINUOUS
 10
-16.75
 20
33.7
 40
0.2
100
AcDbArc
 50
0.0
 51
180.0
  0
ARC
  5
653
100
AcDbEntity
  8
RACCORDO
100
AcDbCircle
 62
7
  6
CONTINUOUS
 10
-14.8
 20
34.9
 40
0.2
100
AcDbArc
 50
89.997193174
 51
270.0
  0
ARC
  5
654
100
AcDbEntity
  8
DRAFT
100
AcDbCircle
 62
7
  6
CONTINUOUS
 10
-16.2
 20
36.55
 40
0.2
100
AcDbArc
 50
90.0
 51
270.0
  0
ARC
  5
655
100
AcDbEntity
  8
DRAFT
100
AcDbCircle
 62
7
  6
CONTINUOUS
 10
-12.8
 20
36.35
 40
0.2
100
AcDbArc
 50
270.0
 51
90.0
  0
ARC
  5
656
100
AcDbEntity
  8
RACCORDO
100
AcDbCircle
 62
253
  6
CONTINUOUS
 10
-3.3388450007
 20
24.2816561529
 40
0.7830111225
100
AcDbArc
 50
173.3068025302
 51
179.6246265243
  0
ARC
  5
657
100
AcDbEntity
  8
RACCORDO
100
AcDbCircle
 62
7
  6
CONTINUOUS
 10
-3.4785465079
 20
24.1218469306
 40
0.7034894028
100
AcDbArc
 50
206.6566617677
 51
216.493400047
  0
ARC
  5
658
100
AcDbEntity
  8
RACCORDO
100
AcDbCircle
 62
7
  6
CONTINUOUS
 10
-3.5070279359
 20
24.101117927
 40
0.668264128
100
AcDbArc
 50
155.8502921883
 51
216.5166039928
  0
ARC
  5
659
100
AcDbEntity
  8
RACCORDO
100
AcDbCircle
 62
7
  6
CONTINUOUS
 10
-3.5089285714
 20
24.1
 40
0.6660714286
100
AcDbArc
 50
216.5369260059
 51
222.5010110143
  0
ARC
  5
65A
100
AcDbEntity
  8
RACCORDO
100
AcDbCircle
 62
7
  6
CONTINUOUS
 10
-3.509014358
 20
24.0947092167
 40
0.641700221
100
AcDbArc
 50
197.2876219052
 51
232.9511341732
  0
ARC
  5
65B
100
AcDbEntity
  8
RACCORDO
100
AcDbCircle
 62
7
  6
CONTINUOUS
 10
-3.5089285714
 20
24.1
 40
0.6407406654
100
AcDbArc
 50
163.0512745234
 51
196.9487257981
  0
ARC
  5
65C
100
AcDbEntity
  8
RACCORDO
100
AcDbCircle
 62
253
  6
CONTINUOUS
 10
-3.4019502506
 20
24.5935227598
 40
0.4430672483
100
AcDbArc
 50
185.6401980503
 51
192.2797572982
  0
ARC
  5
65D
100
AcDbEntity
  8
RACCORDO
100
AcDbCircle
 62
253
  6
CONTINUOUS
 10
-3.4063691587
 20
23.6073299997
 40
0.4385680605
100
AcDbArc
 50
167.7063171402
 51
168.2305697837
  0
ARC
  5
65E
100
AcDbEntity
  8
RACCORDO
100
AcDbCircle
 62
253
  6
CONTINUOUS
 10
-5.4635751777
 20
24.1033868653
 40
0.3999242614
100
AcDbArc
 50
184.998353196
 51
270.0020003709
  0
ARC
  5
65F
100
AcDbEntity
  8
RACCORDO
100
AcDbCircle
 62
253
  6
CONTINUOUS
 10
-3.5089004257
 20
23.8350003457
 40
0.3418656855
100
AcDbArc
 50
203.844709684
 51
239.9130056444
  0
ARC
  5
660
100
AcDbEntity
  8
RACCORDO
100
AcDbCircle
 62
253
  6
CONTINUOUS
 10
-3.5089285714
 20
24.1
 40
0.3407520885
100
AcDbArc
 50
163.0512748361
 51
196.9487257975
  0
ARC
  5
661
100
AcDbEntity
  8
RACCORDO
100
AcDbCircle
 62
253
  6
CONTINUOUS
 10
-4.6707075773
 20
26.2707075773
 40
0.3001594205
100
AcDbArc
 50
90.0496709685
 51
179.9503290325
  0
ARC
  5
662
100
AcDbEntity
  8
RACCORDO
100
AcDbCircle
 62
7
  6
CONTINUOUS
 10
-1.4000791901
 20
24.2499208099
 40
0.3000808947
100
AcDbArc
 50
0.0238443237
 51
89.9761556762
  0
ARC
  5
663
100
AcDbEntity
  8
RACCORDO
100
AcDbCircle
 62
253
  6
CONTINUOUS
 10
-1.4253717673
 20
24.0007544695
 40
0.3000437957
100
AcDbArc
 50
270.0100114073
 51
359.9829887676
  0
ARC
  5
664
100
AcDbEntity
  8
RACCORDO
100
AcDbCircle
 62
253
  6
CONTINUOUS
 10
-1.4253717673
 20
24.1992455305
 40
0.3000437957
100
AcDbArc
 50
0.0170112338
 51
89.9899885851
  0
ARC
  5
665
100
AcDbEntity
  8
RACCORDO
100
AcDbCircle
 62
253
  6
CONTINUOUS
 10
-3.8348618401
 20
24.1992591828
 40
0.3000297501
100
AcDbArc
 50
90.0035567004
 51
163.0385332356
  0
ARC
  5
666
100
AcDbEntity
  8
RACCORDO
100
AcDbCircle
 62
253
  6
CONTINUOUS
 10
-3.8348618155
 20
24.0007408166
 40
0.3000297495
100
AcDbArc
 50
196.9614680104
 51
269.9964433973
  0
ARC
  5
667
100
AcDbEntity
  8
RACCORDO
100
AcDbCircle
 62
253
  6
CONTINUOUS
 10
-3.8428693814
 20
24.2499414919
 40
0.3000128149
100
AcDbArc
 50
90.0000543978
 51
155.8011191168
  0
ARC
  5
668
100
AcDbEntity
  8
RACCORDO
100
AcDbCircle
 62
7
  6
CONTINUOUS
 10
-3.8366356098
 20
23.9966287148
 40
0.2998230435
100
AcDbArc
 50
203.9450332074
 51
270.1755561392
  0
ARC
  5
669
100
AcDbEntity
  8
RACCORDO
100
AcDbCircle
 62
7
  6
CONTINUOUS
 10
-3.8392048026
 20
23.9951726637
 40
0.2968629858
100
AcDbArc
 50
197.8825178863
 51
203.8894472961
  0
ARC
  5
66A
100
AcDbEntity
  8
RACCORDO
100
AcDbCircle
 62
7
  6
CONTINUOUS
 10
-1.4192049394
 20
23.9961726426
 40
0.2965085428
100
AcDbArc
 50
353.9195850956
 51
359.8503650008
  0
ARC
  5
66B
100
AcDbEntity
  8
RACCORDO
100
AcDbCircle
 62
253
  6
CONTINUOUS
 10
-5.9095511351
 20
24.6113740015
 40
0.2000512703
100
AcDbArc
 50
5.0212137428
 51
89.9787862572
  0
ARC
  5
66C
100
AcDbEntity
  8
RACCORDO
100
AcDbCircle
 62
253
  6
CONTINUOUS
 10
-5.7895607462
 20
24.7423205329
 40
0.2000413259
100
AcDbArc
 50
5.0187661504
 51
89.9812338504
  0
ARC
  5
66D
100
AcDbEntity
  8
RACCORDO
100
AcDbCircle
 62
253
  6
CONTINUOUS
 10
-5.4636460562
 20
24.1033070394
 40
0.1998761727
100
AcDbArc
 50
184.9719792082
 51
270.0258634249
  0
ARC
  5
66E
100
AcDbEntity
  8
RACCORDO
100
AcDbCircle
 62
253
  6
CONTINUOUS
 10
-2.3727634471
 20
35.8853616107
 40
62.5051260615
100
AcDbArc
 50
289.4237723568
 51
289.9431754056
  0
ARC
  5
66F
100
AcDbEntity
  8
RACCORDO
100
AcDbCircle
 62
253
  6
CONTINUOUS
 10
-2.3259099291
 20
36.151617469
 40
62.3633295994
100
AcDbArc
 50
289.3025617991
 51
289.820020172
  0
ARC
  5
670
100
AcDbEntity
  8
ASSI
100
AcDbCircle
 62
7
  6
CONTINUOUS
 10
-4.6
 20
29.6452357049
 40
1.75
100
AcDbArc
 50
98.8201478292
 51
278.8201478292
  0
ARC
  5
671
100
AcDbEntity
  8
RACCORDO
100
AcDbCircle
 62
253
  6
CONTINUOUS
 10
2.3727634475
 20
-35.8853616119
 40
62.5051260627
100
AcDbArc
 50
109.4237723568
 51
109.9431754056
  0
ARC
  5
672
100
AcDbEntity
  8
RACCORDO
100
AcDbCircle
 62
253
  6
CONTINUOUS
 10
2.3259099293
 20
-36.1516174695
 40
62.3633295999
100
AcDbArc
 50
109.3025617991
 51
109.820020172
  0
ARC
  5
673
100
AcDbEntity
  8
ASSI
100
AcDbCircle
 62
7
  6
CONTINUOUS
 10
4.6
 20
-29.6452357049
 40
1.75
100
AcDbArc
 50
278.8201478292
 51
98.8201478292
  0
ARC
  5
674
100
AcDbEntity
  8
RACCORDO
100
AcDbCircle
 62
253
  6
CONTINUOUS
 10
3.3388450007
 20
-24.2816561529
 40
0.7830111225
100
AcDbArc
 50
353.3068025323
 51
359.6246265244
  0
ARC
  5
675
100
AcDbEntity
  8
RACCORDO
100
AcDbCircle
 62
7
  6
CONTINUOUS
 10
3.4785465831
 20
-24.1218468906
 40
0.7034893177
100
AcDbArc
 50
26.6566621715
 51
36.493401121
  0
ARC
  5
676
100
AcDbEntity
  8
RACCORDO
100
AcDbCircle
 62
7
  6
CONTINUOUS
 10
3.5070278612
 20
-24.101117971
 40
0.6682642143
100
AcDbArc
 50
335.850292189
 51
36.516604462
  0
ARC
  5
677
100
AcDbEntity
  8
RACCORDO
100
AcDbCircle
 62
7
  6
CONTINUOUS
 10
3.5089285714
 20
-24.1
 40
0.6660714286
100
AcDbArc
 50
36.5369260059
 51
42.5010110143
  0
ARC
  5
678
100
AcDbEntity
  8
RACCORDO
100
AcDbCircle
 62
7
  6
CONTINUOUS
 10
3.509014358
 20
-24.0947092167
 40
0.641700221
100
AcDbArc
 50
17.2876219052
 51
52.9511341732
  0
ARC
  5
679
100
AcDbEntity
  8
RACCORDO
100
AcDbCircle
 62
7
  6
CONTINUOUS
 10
3.5089285714
 20
-24.1
 40
0.6407406654
100
AcDbArc
 50
343.0512745234
 51
16.9487257981
  0
ARC
  5
67A
100
AcDbEntity
  8
ASSI
100
AcDbCircle
 62
7
  6
CONTINUOUS
 10
0.0
 20
-26.5
 40
0.6
100
AcDbArc
 50
189.6072844718
 51
350.3927155282
  0
ARC
  5
67B
100
AcDbEntity
  8
RACCORDO
100
AcDbCircle
 62
253
  6
CONTINUOUS
 10
3.40195025
 20
-24.5935227599
 40
0.443067249
100
AcDbArc
 50
5.6401980471
 51
12.279757295
  0
ARC
  5
67C
100
AcDbEntity
  8
RACCORDO
100
AcDbCircle
 62
253
  6
CONTINUOUS
 10
3.4063691587
 20
-23.6073299997
 40
0.4385680606
100
AcDbArc
 50
347.7063171402
 51
348.2305697837
  0
ARC
  5
67D
100
AcDbEntity
  8
RACCORDO
100
AcDbCircle
 62
253
  6
CONTINUOUS
 10
5.463572164
 20
-24.1033852293
 40
0.399924881
100
AcDbArc
 50
4.9980820899
 51
90.0015686299
  0
ARC
  5
67E
100
AcDbEntity
  8
RACCORDO
100
AcDbCircle
 62
253
  6
CONTINUOUS
 10
3.5089004257
 20
-23.8350003457
 40
0.3418656855
100
AcDbArc
 50
23.844709684
 51
59.9130056444
  0
ARC
  5
67F
100
AcDbEntity
  8
RACCORDO
100
AcDbCircle
 62
253
  6
CONTINUOUS
 10
3.5089285714
 20
-24.1
 40
0.3407520885
100
AcDbArc
 50
343.0512748361
 51
16.9487257975
  0
ARC
  5
680
100
AcDbEntity
  8
RACCORDO
100
AcDbCircle
 62
253
  6
CONTINUOUS
 10
4.6707075772
 20
-26.2707075773
 40
0.3001594205
100
AcDbArc
 50
270.0496709688
 51
359.9503290322
  0
ARC
  5
681
100
AcDbEntity
  8
RACCORDO
100
AcDbCircle
 62
7
  6
CONTINUOUS
 10
1.4000791901
 20
-24.2499208099
 40
0.3000808947
100
AcDbArc
 50
180.0238443283
 51
269.9761556717
  0
ARC
  5
682
100
AcDbEntity
  8
RACCORDO
100
AcDbCircle
 62
253
  6
CONTINUOUS
 10
1.4253717674
 20
-24.0007544695
 40
0.3000437957
100
AcDbArc
 50
90.0100114177
 51
179.9829887556
  0
ARC
  5
683
100
AcDbEntity
  8
RACCORDO
100
AcDbCircle
 62
253
  6
CONTINUOUS
 10
1.4253717674
 20
-24.1992455305
 40
0.3000437957
100
AcDbArc
 50
180.0170112382
 51
269.989988582
  0
ARC
  5
684
100
AcDbEntity
  8
RACCORDO
100
AcDbCircle
 62
253
  6
CONTINUOUS
 10
3.8348618407
 20
-24.1992591826
 40
0.30002975
100
AcDbArc
 50
270.0035565876
 51
343.0385331553
  0
ARC
  5
685
100
AcDbEntity
  8
RACCORDO
100
AcDbCircle
 62
253
  6
CONTINUOUS
 10
3.834861816
 20
-24.000740817
 40
0.3000297495
100
AcDbArc
 50
16.9614681121
 51
89.9964434933
  0
ARC
  5
686
100
AcDbEntity
  8
RACCORDO
100
AcDbCircle
 62
253
  6
CONTINUOUS
 10
3.8428693814
 20
-24.2499414919
 40
0.3000128149
100
AcDbArc
 50
270.0000543978
 51
335.8011191168
  0
ARC
  5
687
100
AcDbEntity
  8
RACCORDO
100
AcDbCircle
 62
7
  6
CONTINUOUS
 10
3.8392048026
 20
-23.9951726637
 40
0.2968629858
100
AcDbArc
 50
17.8825178863
 51
23.8894472961
  0
ARC
  5
688
100
AcDbEntity
  8
RACCORDO
100
AcDbCircle
 62
7
  6
CONTINUOUS
 10
1.4192049394
 20
-23.9961726426
 40
0.2965085428
100
AcDbArc
 50
173.9195850956
 51
179.8503650008
  0
ARC
  5
689
100
AcDbEntity
  8
RACCORDO
100
AcDbCircle
 62
253
  6
CONTINUOUS
 10
5.9095511351
 20
-24.6113740014
 40
0.2000512704
100
AcDbArc
 50
185.0212137535
 51
269.9787862464
  0
ARC
  5
68A
100
AcDbEntity
  8
RACCORDO
100
AcDbCircle
 62
253
  6
CONTINUOUS
 10
5.7895607607
 20
-24.7423205171
 40
0.2000413259
100
AcDbArc
 50
185.0187703021
 51
269.9812296987
  0
ARC
  5
68B
100
AcDbEntity
  8
RACCORDO
100
AcDbCircle
 62
253
  6
CONTINUOUS
 10
5.4636435517
 20
-24.103309769
 40
0.1998794356
100
AcDbArc
 50
4.974986935
 51
90.0271195702
  0
ARC
  5
68C
100
AcDbEntity
  8
0
100
AcDbCircle
 62
253
  6
CONTINUOUS
 10
10.494284685
 20
-33.594284685
 40
2.1995455125
100
AcDbArc
 50
89.9970497269
 51
180.0029502732
  0
ARC
  5
68D
100
AcDbEntity
  8
ASSI
100
AcDbCircle
 62
7
  6
CONTINUOUS
 10
10.494278889
 20
-33.5942788891
 40
2.1995405739
100
AcDbArc
 50
89.999801079
 51
180.0003290346
  0
ARC
  5
68E
100
AcDbEntity
  8
RACCORDO
100
AcDbCircle
 62
7
  6
CONTINUOUS
 10
15.2999020309
 20
-35.1000905595
 40
0.4999090573
100
AcDbArc
 50
179.9898184774
 51
270.0025004599
  0
ARC
  5
68F
100
AcDbEntity
  8
DRAFT
100
AcDbCircle
 62
7
  6
CONTINUOUS
 10
16.75
 20
-33.7
 40
0.2
100
AcDbArc
 50
180.0
 51
360.0
  0
ARC
  5
690
100
AcDbEntity
  8
RACCORDO
100
AcDbCircle
 62
7
  6
CONTINUOUS
 10
14.8
 20
-34.9
 40
0.2
100
AcDbArc
 50
269.997193174
 51
90.0
  0
ARC
  5
691
100
AcDbEntity
  8
DRAFT
100
AcDbCircle
 62
7
  6
CONTINUOUS
 10
16.2
 20
-36.55
 40
0.2
100
AcDbArc
 50
270.0
 51
90.0
  0
ARC
  5
692
100
AcDbEntity
  8
DRAFT
100
AcDbCircle
 62
7
  6
CONTINUOUS
 10
12.8
 20
-36.35
 40
0.2
100
AcDbArc
 50
90.0
 51
270.0
  0
ARC
  5
693
100
AcDbEntity
  8
RACCORDO
100
AcDbCircle
 62
7
  6
CONTINUOUS
 10
17.5
 20
-26.9
 40
1.0
100
AcDbArc
 50
270.0
 51
357.795772496
  0
ARC
  5
694
100
AcDbEntity
  8
ASSI
100
AcDbCircle
 62
7
  6
CONTINUOUS
 10
17.5
 20
-26.9
 40
1.0
100
AcDbArc
 50
270.0
 51
357.795772496
  0
ARC
  5
695
100
AcDbEntity
  8
DRAFT
100
AcDbCircle
 62
7
  6
CONTINUOUS
 10
28.85
 20
-28.85
 40
6.4
100
AcDbArc
 50
270.0
 51
360.0
  0
CIRCLE
  5
696
100
AcDbEntity
  8
ASSI
100
AcDbCircle
 62
7
  6
CONTINUOUS
 10
27.5
 20
-27.5
 40
3.0
  0
ARC
  5
697
100
AcDbEntity
  8
ASSI
100
AcDbCircle
 62
7
  6
CONTINUOUS
 10
28.3953520405
 20
-28.3953520404
 40
2.9993743527
100
AcDbArc
 50
269.9999709732
 51
359.9996790145
  0
ARC
  5
698
100
AcDbEntity
  8
0
100
AcDbCircle
 62
253
  6
CONTINUOUS
 10
28.3953541859
 20
-28.3953542907
 40
2.9993710943
100
AcDbArc
 50
270.1517845426
 51
359.8317445392
  0
ARC
  5
699
100
AcDbEntity
  8
0
100
AcDbCircle
 62
253
  6
CONTINUOUS
 10
28.4050833314
 20
-28.3950326905
 40
2.9896496876
100
AcDbArc
 50
359.8250336419
 51
359.9969865611
  0
ARC
  5
69A
100
AcDbEntity
  8
RACCORDO
100
AcDbCircle
 62
7
  6
CONTINUOUS
 10
22.0
 20
-25.15
 40
1.5
100
AcDbArc
 50
270.0
 51
360.0
  0
CIRCLE
  5
69B
100
AcDbEntity
  8
0
100
AcDbCircle
 62
7
  6
CONTINUOUS
 10
27.5
 20
-27.5
 40
1.5
  0
ARC
  5
69C
100
AcDbEntity
  8
ASSI
100
AcDbCircle
 62
7
  6
CONTINUOUS
 10
22.0
 20
-25.15
 40
1.5
100
AcDbArc
 50
270.0
 51
360.0
  0
ARC
  5
69D
100
AcDbEntity
  8
RACCORDO
100
AcDbCircle
 62
7
  6
CONTINUOUS
 10
18.7990381057
 20
-26.95
 40
0.3
100
AcDbArc
 50
90.0
 51
177.795772496
  0
ARC
  5
69E
100
AcDbEntity
  8
ASSI
100
AcDbCircle
 62
7
  6
CONTINUOUS
 10
18.7990381057
 20
-26.95
 40
0.3
100
AcDbArc
 50
90.0
 51
177.795772496
  0
ARC
  5
69F
100
AcDbEntity
  8
RACCORDO
100
AcDbCircle
 62
253
  6
CONTINUOUS
 10
18.2883650916
 20
-22.9061174375
 40
0.2000976947
100
AcDbArc
 50
308.7005317085
 51
89.9041734764
  0
ARC
  5
6A0
100
AcDbEntity
  8
RACCORDO
100
AcDbCircle
 62
7
  6
CONTINUOUS
 10
18.8195663291
 20
-22.7173704053
 40
0.1999054786
100
AcDbArc
 50
309.5957018786
 51
90.0430973599
  0
ARC
  5
6A1
100
AcDbEntity
  8
RACCORDO
100
AcDbCircle
 62
253
  6
CONTINUOUS
 10
35.8853683055
 20
-2.3727658403
 40
62.5051331711
100
AcDbArc
 50
160.0568246254
 51
160.5762276151
  0
ARC
  5
6A2
100
AcDbEntity
  8
RACCORDO
100
AcDbCircle
 62
253
  6
CONTINUOUS
 10
36.151607526
 20
-2.3259063978
 40
62.363319048
100
AcDbArc
 50
160.1799797828
 51
160.6974382433
  0
ARC
  5
6A3
100
AcDbEntity
  8
0
100
AcDbCircle
 62
7
  6
CONTINUOUS
 10
29.6452357049
 20
-4.6
 40
3.4
100
AcDbArc
 50
114.984311831
 51
52.9472950566
  0
ARC
  5
6A4
100
AcDbEntity
  8
0
100
AcDbCircle
 62
253
  6
CONTINUOUS
 10
33.594284685
 20
-10.494284685
 40
2.1995455125
100
AcDbArc
 50
89.9970497269
 51
180.0029502732
  0
ARC
  5
6A5
100
AcDbEntity
  8
ASSI
100
AcDbCircle
 62
7
  6
CONTINUOUS
 10
33.594278889
 20
-10.4942788891
 40
2.1995405739
100
AcDbArc
 50
89.999801079
 51
180.0003290346
  0
CIRCLE
  5
6A6
100
AcDbEntity
  8
ASSI
100
AcDbCircle
 62
7
  6
CONTINUOUS
 10
29.0
 20
-17.5
 40
2.0
  0
CIRCLE
  5
6A7
100
AcDbEntity
  8
DRAFT
100
AcDbCircle
 62
7
  6
CONTINUOUS
 10
29.0
 20
-17.5
 40
1.0
  0
ARC
  5
6A8
100
AcDbEntity
  8
RACCORDO
100
AcDbCircle
 62
7
  6
CONTINUOUS
 10
23.5014324842
 20
-12.5
 40
0.7066562989
100
AcDbArc
 50
212.9664338851
 51
147.0335661149
  0
CIRCLE
  5
6A9
100
AcDbEntity
  8
RACCORDO
100
AcDbCircle
 62
253
  6
CONTINUOUS
 10
23.5
 20
-12.5
 40
0.6939693073
  0
ARC
  5
6AA
100
AcDbEntity
  8
RACCORDO
100
AcDbCircle
 62
7
  6
CONTINUOUS
 10
35.1000905619
 20
-15.9000979667
 40
0.4999090573
100
AcDbArc
 50
269.9898182057
 51
0.0025001882
  0
CIRCLE
  5
6AB
100
AcDbEntity
  8
RACCORDO
100
AcDbCircle
 62
253
  6
CONTINUOUS
 10
23.5
 20
-12.5
 40
0.4939997682
  0
ARC
  5
6AC
100
AcDbEntity
  8
RACCORDO
100
AcDbCircle
 62
253
  6
CONTINUOUS
 10
25.1992094349
 20
-6.3992097804
 40
0.3000809785
100
AcDbArc
 50
270.0239010042
 51
359.9761649876
  0
ARC
  5
6AD
100
AcDbEntity
  8
RACCORDO
100
AcDbCircle
 62
253
  6
CONTINUOUS
 10
22.9061174375
 20
-18.2883650917
 40
0.2000976948
100
AcDbArc
 50
180.095826553
 51
321.2994683177
  0
ARC
  5
6AE
100
AcDbEntity
  8
DRAFT
100
AcDbCircle
 62
7
  6
CONTINUOUS
 10
33.7
 20
-15.05
 40
0.2
100
AcDbArc
 50
270.0
 51
90.0
  0
ARC
  5
6AF
100
AcDbEntity
  8
RACCORDO
100
AcDbCircle
 62
7
  6
CONTINUOUS
 10
34.9
 20
-16.4
 40
0.2
100
AcDbArc
 50
359.9971931741
 51
179.9999999999
  0
ARC
  5
6B0
100
AcDbEntity
  8
DRAFT
100
AcDbCircle
 62
7
  6
CONTINUOUS
 10
36.55
 20
-15.0
 40
0.2
100
AcDbArc
 50
0.0
 51
180.0
  0
ARC
  5
6B1
100
AcDbEntity
  8
DRAFT
100
AcDbCircle
 62
7
  6
CONTINUOUS
 10
36.35
 20
-18.4
 40
0.2
100
AcDbArc
 50
180.0
 51
360.0
  0
ARC
  5
6B2
100
AcDbEntity
  8
RACCORDO
100
AcDbCircle
 62
7
  6
CONTINUOUS
 10
22.7173704055
 20
-18.8195663285
 40
0.1999054772
100
AcDbArc
 50
179.9569028201
 51
320.4042979886
  0
ARC
  5
6B3
100
AcDbEntity
  8
ASSI
100
AcDbCircle
 62
7
  6
CONTINUOUS
 10
0.0
 20
0.0
 40
31.75
100
AcDbArc
 50
81.1798521708
 51
98.8201478292
  0
ARC
  5
6B4
100
AcDbEntity
  8
ASSI
100
AcDbCircle
 62
7
  6
CONTINUOUS
 10
0.0
 20
0.0
 40
31.75
100
AcDbArc
 50
261.1798521708
 51
278.8201478292
  0
ARC
  5
6B5
100
AcDbEntity
  8
0
100
AcDbCircle
 62
7
  6
CONTINUOUS
 10
0.0
 20
0.0
 40
31.75
100
AcDbArc
 50
356.5935909254
 51
8.8201478292
  0
ARC
  5
6B6
100
AcDbEntity
  8
0
100
AcDbCircle
 62
7
  6
CONTINUOUS
 10
0.0
 20
0.0
 40
31.75
100
AcDbArc
 50
176.5935909254
 51
188.8201478292
  0
ARC
  5
6B7
100
AcDbEntity
  8
RACCORDO
100
AcDbCircle
 62
7
  6
CONTINUOUS
 10
0.0
 20
0.0
 40
29.7
100
AcDbArc
 50
122.6745313761
 51
129.6388014044
  0
ARC
  5
6B8
100
AcDbEntity
  8
ASSI
100
AcDbCircle
 62
7
  6
CONTINUOUS
 10
0.0
 20
0.0
 40
29.7
100
AcDbArc
 50
140.3611985959
 51
145.7509750369
  0
ARC
  5
6B9
100
AcDbEntity
  8
ASSI
100
AcDbCircle
 62
7
  6
CONTINUOUS
 10
0.0
 20
0.0
 40
29.7
100
AcDbArc
 50
34.2490249631
 51
39.6388014035
  0
ARC
  5
6BA
100
AcDbEntity
  8
RACCORDO
100
AcDbCircle
 62
7
  6
CONTINUOUS
 10
0.0
 20
0.0
 40
29.7
100
AcDbArc
 50
50.3611985964
 51
57.3254686239
  0
ARC
  5
6BB
100
AcDbEntity
  8
RACCORDO
100
AcDbCircle
 62
7
  6
CONTINUOUS
 10
0.0
 20
0.0
 40
29.7
100
AcDbArc
 50
302.6745313761
 51
309.6388014044
  0
ARC
  5
6BC
100
AcDbEntity
  8
ASSI
100
AcDbCircle
 62
7
  6
CONTINUOUS
 10
0.0
 20
0.0
 40
29.7
100
AcDbArc
 50
320.3611985959
 51
325.7509750369
  0
ARC
  5
6BD
100
AcDbEntity
  8
ASSI
100
AcDbCircle
 62
7
  6
CONTINUOUS
 10
0.0
 20
0.0
 40
29.7
100
AcDbArc
 50
214.2490249631
 51
219.6388014035
  0
ARC
  5
6BE
100
AcDbEntity
  8
RACCORDO
100
AcDbCircle
 62
7
  6
CONTINUOUS
 10
0.0
 20
0.0
 40
29.7
100
AcDbArc
 50
230.3611985964
 51
237.3254686239
  0
ARC
  5
6BF
100
AcDbEntity
  8
RACCORDO
100
AcDbCircle
 62
253
  6
CONTINUOUS
 10
0.0
 20
0.0
 40
29.5114243722
100
AcDbArc
 50
214.3616657011
 51
218.6047051629
  0
ARC
  5
6C0
100
AcDbEntity
  8
RACCORDO
100
AcDbCircle
 62
253
  6
CONTINUOUS
 10
0.0
 20
0.0
 40
29.5114243722
100
AcDbArc
 50
231.3952948371
 51
237.2183066361
  0
ARC
  5
6C1
100
AcDbEntity
  8
RACCORDO
100
AcDbCircle
 62
253
  6
CONTINUOUS
 10
0.0
 20
0.0
 40
29.5114243722
100
AcDbArc
 50
141.3952948427
 51
145.6383342989
  0
ARC
  5
6C2
100
AcDbEntity
  8
RACCORDO
100
AcDbCircle
 62
253
  6
CONTINUOUS
 10
0.0
 20
0.0
 40
29.5114243722
100
AcDbArc
 50
122.7816933639
 51
128.6047051572
  0
ARC
  5
6C3
100
AcDbEntity
  8
RACCORDO
100
AcDbCircle
 62
253
  6
CONTINUOUS
 10
0.0
 20
0.0
 40
29.5114243722
100
AcDbArc
 50
302.7816933639
 51
308.6047051572
  0
ARC
  5
6C4
100
AcDbEntity
  8
RACCORDO
100
AcDbCircle
 62
253
  6
CONTINUOUS
 10
0.0
 20
0.0
 40
29.5114243722
100
AcDbArc
 50
321.3952948427
 51
325.6383342989
  0
ARC
  5
6C5
100
AcDbEntity
  8
RACCORDO
100
AcDbCircle
 62
253
  6
CONTINUOUS
 10
0.0
 20
0.0
 40
29.5114243722
100
AcDbArc
 50
34.3616657011
 51
38.6047051629
  0
ARC
  5
6C6
100
AcDbEntity
  8
RACCORDO
100
AcDbCircle
 62
253
  6
CONTINUOUS
 10
0.0
 20
0.0
 40
29.5114243722
100
AcDbArc
 50
51.3952948371
 51
57.2183066361
  0
ARC
  5
6C7
100
AcDbEntity
  8
RACCORDO
100
AcDbCircle
 62
253
  6
CONTINUOUS
 10
0.0
 20
0.0
 40
29.3114548332
100
AcDbArc
 50
34.4823358106
 51
38.6047051536
  0
ARC
  5
6C8
100
AcDbEntity
  8
RACCORDO
100
AcDbCircle
 62
253
  6
CONTINUOUS
 10
0.0
 20
0.0
 40
29.3114548332
100
AcDbArc
 50
231.3952948464
 51
237.1035092494
  0
ARC
  5
6C9
100
AcDbEntity
  8
RACCORDO
100
AcDbCircle
 62
253
  6
CONTINUOUS
 10
0.0
 20
0.0
 40
29.3114548332
100
AcDbArc
 50
302.8964907506
 51
308.6047051515
  0
ARC
  5
6CA
100
AcDbEntity
  8
RACCORDO
100
AcDbCircle
 62
253
  6
CONTINUOUS
 10
0.0
 20
0.0
 40
29.3114548332
100
AcDbArc
 50
122.8964907506
 51
128.6047051515
  0
ARC
  5
6CB
100
AcDbEntity
  8
RACCORDO
100
AcDbCircle
 62
253
  6
CONTINUOUS
 10
0.0
 20
0.0
 40
29.3114548332
100
AcDbArc
 50
51.3952948464
 51
57.1035092494
  0
ARC
  5
6CC
100
AcDbEntity
  8
RACCORDO
100
AcDbCircle
 62
253
  6
CONTINUOUS
 10
0.0
 20
0.0
 40
29.3114548332
100
AcDbArc
 50
214.4823358106
 51
218.6047051536
  0
ARC
  5
6CD
100
AcDbEntity
  8
RACCORDO
100
AcDbCircle
 62
253
  6
CONTINUOUS
 10
0.0
 20
0.0
 40
29.3114548332
100
AcDbArc
 50
141.3952948485
 51
145.5176641894
  0
ARC
  5
6CE
100
AcDbEntity
  8
RACCORDO
100
AcDbCircle
 62
253
  6
CONTINUOUS
 10
0.0
 20
0.0
 40
29.3114548332
100
AcDbArc
 50
321.3952948485
 51
325.5176641894
  0
ARC
  5
6CF
100
AcDbEntity
  8
ASSI
100
AcDbCircle
 62
7
  6
CONTINUOUS
 10
0.0
 20
0.0
 40
28.25
100
AcDbArc
 50
261.1798521708
 51
278.8201478292
  0
ARC
  5
6D0
100
AcDbEntity
  8
ASSI
100
AcDbCircle
 62
7
  6
CONTINUOUS
 10
0.0
 20
0.0
 40
28.25
100
AcDbArc
 50
81.1798521708
 51
98.8201478292
  0
ARC
  5
6D1
100
AcDbEntity
  8
0
100
AcDbCircle
 62
7
  6
CONTINUOUS
 10
0.0
 20
0.0
 40
28.25
100
AcDbArc
 50
356.9194302604
 51
8.8201478292
  0
ARC
  5
6D2
100
AcDbEntity
  8
0
100
AcDbCircle
 62
7
  6
CONTINUOUS
 10
0.0
 20
0.0
 40
28.25
100
AcDbArc
 50
176.9194302604
 51
188.8201478292
  0
ARC
  5
6D3
100
AcDbEntity
  8
ASSI
100
AcDbCircle
 62
7
  6
CONTINUOUS
 10
4.6
 20
29.6452357049
 40
1.75
100
AcDbArc
 50
261.1798521708
 51
81.1798521708
  0
ARC
  5
6D4
100
AcDbEntity
  8
RACCORDO
100
AcDbCircle
 62
7
  6
CONTINUOUS
 10
3.508719834
 20
24.1138576299
 40
0.7938235702
100
AcDbArc
 50
353.6553153368
 51
33.8600113548
  0
ARC
  5
6D5
100
AcDbEntity
  8
RACCORDO
100
AcDbCircle
 62
253
  6
CONTINUOUS
 10
3.3398070816
 20
24.2817155754
 40
0.7820486747
100
AcDbArc
 50
0.3714818718
 51
6.6970884734
  0
ARC
  5
6D6
100
AcDbEntity
  8
RACCORDO
100
AcDbCircle
 62
7
  6
CONTINUOUS
 10
3.4797424433
 20
24.1211095424
 40
0.7020894209
100
AcDbArc
 50
323.4969331162
 51
333.2849179315
  0
ARC
  5
6D7
100
AcDbEntity
  8
RACCORDO
100
AcDbCircle
 62
7
  6
CONTINUOUS
 10
3.5070279262
 20
24.1011179327
 40
0.6682641393
100
AcDbArc
 50
323.4833959629
 51
24.1497085283
  0
ARC
  5
6D8
100
AcDbEntity
  8
RACCORDO
100
AcDbCircle
 62
7
  6
CONTINUOUS
 10
3.5089285714
 20
24.1
 40
0.6660714286
100
AcDbArc
 50
317.4989889857
 51
323.4630739941
  0
ARC
  5
6D9
100
AcDbEntity
  8
RACCORDO
100
AcDbCircle
 62
7
  6
CONTINUOUS
 10
3.5089999153
 20
24.0947193123
 40
0.6417170114
100
AcDbArc
 50
307.0495257009
 51
342.7119006328
  0
ARC
  5
6DA
100
AcDbEntity
  8
RACCORDO
100
AcDbCircle
 62
7
  6
CONTINUOUS
 10
3.5089285714
 20
24.1
 40
0.6407406654
100
AcDbArc
 50
343.0512742013
 51
16.9487255194
  0
ARC
  5
6DB
100
AcDbEntity
  8
ASSI
100
AcDbCircle
 62
7
  6
CONTINUOUS
 10
0.0
 20
26.5
 40
0.6
100
AcDbArc
 50
9.6072844718
 51
170.3927155282
  0
ARC
  5
6DC
100
AcDbEntity
  8
RACCORDO
100
AcDbCircle
 62
253
  6
CONTINUOUS
 10
3.4023374473
 20
24.5934618252
 40
0.4426759477
100
AcDbArc
 50
347.717290215
 51
354.3626430355
  0
ARC
  5
6DD
100
AcDbEntity
  8
RACCORDO
100
AcDbCircle
 62
253
  6
CONTINUOUS
 10
3.4063710741
 20
23.6073299082
 40
0.4385662086
100
AcDbArc
 50
11.7694928002
 51
12.293747822
  0
ARC
  5
6DE
100
AcDbEntity
  8
RACCORDO
100
AcDbCircle
 62
253
  6
CONTINUOUS
 10
5.4635726981
 20
24.103384616
 40
0.399924273
100
AcDbArc
 50
269.9983548622
 51
355.0019987682
  0
ARC
  5
6DF
100
AcDbEntity
  8
RACCORDO
100
AcDbCircle
 62
253
  6
CONTINUOUS
 10
3.5089016646
 20
23.8349992349
 40
0.3418641033
100
AcDbArc
 50
300.08690802
 51
336.1553766515
  0
ARC
  5
6E0
100
AcDbEntity
  8
RACCORDO
100
AcDbCircle
 62
253
  6
CONTINUOUS
 10
3.5089285714
 20
24.1
 40
0.3407520885
100
AcDbArc
 50
343.0512742014
 51
16.9487252544
  0
ARC
  5
6E1
100
AcDbEntity
  8
RACCORDO
100
AcDbCircle
 62
253
  6
CONTINUOUS
 10
4.6707075773
 20
26.2707075773
 40
0.3001594205
100
AcDbArc
 50
0.0496709667
 51
89.9503290323
  0
ARC
  5
6E2
100
AcDbEntity
  8
RACCORDO
100
AcDbCircle
 62
253
  6
CONTINUOUS
 10
3.8428219418
 20
24.2499455733
 40
0.3000544337
100
AcDbArc
 50
24.2065111461
 51
89.987633078
  0
ARC
  5
6E3
100
AcDbEntity
  8
RACCORDO
100
AcDbCircle
 62
253
  6
CONTINUOUS
 10
1.4253717673
 20
24.0007544695
 40
0.3000437956
100
AcDbArc
 50
180.0170112328
 51
269.9899885936
  0
ARC
  5
6E4
100
AcDbEntity
  8
RACCORDO
100
AcDbCircle
 62
253
  6
CONTINUOUS
 10
1.4253717672
 20
24.1992455305
 40
0.3000437956
100
AcDbArc
 50
90.0100113981
 51
179.9829887701
  0
ARC
  5
6E5
100
AcDbEntity
  8
RACCORDO
100
AcDbCircle
 62
7
  6
CONTINUOUS
 10
1.4000410032
 20
24.2499109164
 40
0.3000437947
100
AcDbArc
 50
90.0100112423
 51
179.9829889407
  0
ARC
  5
6E6
100
AcDbEntity
  8
RACCORDO
100
AcDbCircle
 62
253
  6
CONTINUOUS
 10
3.8348618375
 20
24.199259183
 40
0.3000297496
100
AcDbArc
 50
16.9614670222
 51
89.996443485
  0
ARC
  5
6E7
100
AcDbEntity
  8
RACCORDO
100
AcDbCircle
 62
253
  6
CONTINUOUS
 10
3.834861816
 20
24.0007408169
 40
0.3000297495
100
AcDbArc
 50
270.0035565006
 51
343.0385318721
  0
ARC
  5
6E8
100
AcDbEntity
  8
RACCORDO
100
AcDbCircle
 62
7
  6
CONTINUOUS
 10
3.836635284
 20
23.9966296202
 40
0.2998239822
100
AcDbArc
 50
269.8245066467
 51
336.0561705309
  0
ARC
  5
6E9
100
AcDbEntity
  8
RACCORDO
100
AcDbCircle
 62
7
  6
CONTINUOUS
 10
3.8392229085
 20
23.9951660042
 40
0.2968440861
100
AcDbArc
 50
336.1116625723
 51
342.117632488
  0
ARC
  5
6EA
100
AcDbEntity
  8
RACCORDO
100
AcDbCircle
 62
7
  6
CONTINUOUS
 10
1.419205486
 20
23.9961718684
 40
0.2965090873
100
AcDbArc
 50
180.1494851227
 51
186.0555201442
  0
ARC
  5
6EB
100
AcDbEntity
  8
RACCORDO
100
AcDbCircle
 62
253
  6
CONTINUOUS
 10
5.9095511348
 20
24.6113740018
 40
0.20005127
100
AcDbArc
 50
90.0212136604
 51
174.9787863396
  0
ARC
  5
6EC
100
AcDbEntity
  8
RACCORDO
100
AcDbCircle
 62
253
  6
CONTINUOUS
 10
5.7895607467
 20
24.7423205324
 40
0.2000413265
100
AcDbArc
 50
90.0187662923
 51
174.9812337077
  0
ARC
  5
6ED
100
AcDbEntity
  8
RACCORDO
100
AcDbCircle
 62
253
  6
CONTINUOUS
 10
5.4636460542
 20
24.1033070379
 40
0.1998761727
100
AcDbArc
 50
269.971986591
 51
355.0258657976
  0
ARC
  5
6EE
100
AcDbEntity
  8
RACCORDO
100
AcDbCircle
 62
253
  6
CONTINUOUS
 10
2.4069328551
 20
35.9808801879
 40
62.6065712972
100
AcDbArc
 50
250.0572455059
 51
250.5758069261
  0
ARC
  5
6EF
100
AcDbEntity
  8
RACCORDO
100
AcDbCircle
 62
253
  6
CONTINUOUS
 10
2.3593726266
 20
36.2457920516
 40
62.463271586
100
AcDbArc
 50
250.1803935357
 51
250.6970239566
  0
ARC
  5
6F0
100
AcDbEntity
  8
RACCORDO
100
AcDbCircle
 62
7
  6
CONTINUOUS
 10
17.5
 20
26.9
 40
1.0
100
AcDbArc
 50
2.204227504
 51
90.0
  0
ARC
  5
6F1
100
AcDbEntity
  8
ASSI
100
AcDbCircle
 62
7
  6
CONTINUOUS
 10
17.5
 20
26.9
 40
1.0
100
AcDbArc
 50
2.204227504
 51
90.0
  0
ARC
  5
6F2
100
AcDbEntity
  8
0
100
AcDbCircle
 62
253
  6
CONTINUOUS
 10
10.494284685
 20
33.594284685
 40
2.1995455125
100
AcDbArc
 50
179.9970497269
 51
270.0029502732
  0
ARC
  5
6F3
100
AcDbEntity
  8
ASSI
100
AcDbCircle
 62
7
  6
CONTINUOUS
 10
10.4942788891
 20
33.594278889
 40
2.1995405739
100
AcDbArc
 50
179.999801079
 51
270.0003290346
  0
ARC
  5
6F4
100
AcDbEntity
  8
RACCORDO
100
AcDbCircle
 62
7
  6
CONTINUOUS
 10
15.9000977409
 20
35.1000903361
 40
0.4999093351
100
AcDbArc
 50
359.9898440909
 51
90.0024743029
  0
ARC
  5
6F5
100
AcDbEntity
  8
DRAFT
100
AcDbCircle
 62
7
  6
CONTINUOUS
 10
15.05
 20
33.7
 40
0.2
100
AcDbArc
 50
0.0
 51
180.0
  0
ARC
  5
6F6
100
AcDbEntity
  8
RACCORDO
100
AcDbCircle
 62
7
  6
CONTINUOUS
 10
16.4
 20
34.9
 40
0.2
100
AcDbArc
 50
89.9971931741
 51
269.9999999999
  0
ARC
  5
6F7
100
AcDbEntity
  8
DRAFT
100
AcDbCircle
 62
7
  6
CONTINUOUS
 10
15.0
 20
36.55
 40
0.2
100
AcDbArc
 50
90.0
 51
270.0
  0
ARC
  5
6F8
100
AcDbEntity
  8
ASSI
100
AcDbCircle
 62
7
  6
CONTINUOUS
 10
29.6452357049
 20
4.6
 40
1.75
100
AcDbArc
 50
8.8201478292
 51
188.8201478292
  0
ARC
  5
6F9
100
AcDbEntity
  8
ASSI
100
AcDbCircle
 62
7
  6
CONTINUOUS
 10
25.06
 20
0.0
 40
0.6
100
AcDbArc
 50
324.7524930079
 51
35.2475069921
  0
ARC
  5
6FA
100
AcDbEntity
  8
RACCORDO
100
AcDbCircle
 62
253
  6
CONTINUOUS
 10
25.1992094326
 20
6.3992097863
 40
0.3000809786
100
AcDbArc
 50
0.0238338784
 51
89.9760985479
  0
CIRCLE
  5
6FB
100
AcDbEntity
  8
ASSI
100
AcDbCircle
 62
7
  6
CONTINUOUS
 10
29.0
 20
17.5
 40
2.0
  0
ARC
  5
6FC
100
AcDbEntity
  8
RACCORDO
100
AcDbCircle
 62
7
  6
CONTINUOUS
 10
23.5014324842
 20
12.5
 40
0.7066562989
100
AcDbArc
 50
212.9664338851
 51
147.0335661149
  0
CIRCLE
  5
6FD
100
AcDbEntity
  8
RACCORDO
100
AcDbCircle
 62
253
  6
CONTINUOUS
 10
23.5
 20
12.5
 40
0.6939693073
  0
CIRCLE
  5
6FE
100
AcDbEntity
  8
RACCORDO
100
AcDbCircle
 62
253
  6
CONTINUOUS
 10
23.5
 20
12.5
 40
0.4939997682
  0
ARC
  5
6FF
100
AcDbEntity
  8
RACCORDO
100
AcDbCircle
 62
253
  6
CONTINUOUS
 10
35.9808805366
 20
2.4069329808
 40
62.6065716678
100
AcDbArc
 50
199.4241930762
 51
199.9427544933
  0
ARC
  5
700
100
AcDbEntity
  8
RACCORDO
100
AcDbCircle
 62
253
  6
CONTINUOUS
 10
36.2457922893
 20
2.3593727097
 40
62.4632718379
100
AcDbArc
 50
199.3029760432
 51
199.819606462
  0
ARC
  5
701
100
AcDbEntity
  8
0
100
AcDbCircle
 62
253
  6
CONTINUOUS
 10
33.594284685
 20
10.494284685
 40
2.1995455125
100
AcDbArc
 50
179.9970497269
 51
270.0029502732
  0
ARC
  5
702
100
AcDbEntity
  8
ASSI
100
AcDbCircle
 62
7
  6
CONTINUOUS
 10
33.5942788891
 20
10.494278889
 40
2.1995405739
100
AcDbArc
 50
179.999801079
 51
270.0003290346
  0
ARC
  5
703
100
AcDbEntity
  8
RACCORDO
100
AcDbCircle
 62
7
  6
CONTINUOUS
 10
35.1000905619
 20
15.2999020333
 40
0.4999090573
100
AcDbArc
 50
269.9898182057
 51
0.0025001882
  0
ARC
  5
704
100
AcDbEntity
  8
DRAFT
100
AcDbCircle
 62
7
  6
CONTINUOUS
 10
33.7
 20
16.75
 40
0.2
100
AcDbArc
 50
270.0
 51
90.0
  0
ARC
  5
705
100
AcDbEntity
  8
RACCORDO
100
AcDbCircle
 62
7
  6
CONTINUOUS
 10
34.9
 20
14.8
 40
0.2
100
AcDbArc
 50
359.997193174
 51
180.0
  0
ARC
  5
706
100
AcDbEntity
  8
DRAFT
100
AcDbCircle
 62
7
  6
CONTINUOUS
 10
36.55
 20
16.2
 40
0.2
100
AcDbArc
 50
0.0
 51
180.0
  0
ARC
  5
707
100
AcDbEntity
  8
DRAFT
100
AcDbCircle
 62
7
  6
CONTINUOUS
 10
36.35
 20
12.8
 40
0.2
100
AcDbArc
 50
180.0
 51
360.0
  0
ARC
  5
708
100
AcDbEntity
  8
DRAFT
100
AcDbCircle
 62
7
  6
CONTINUOUS
 10
28.85
 20
28.85
 40
6.4
100
AcDbArc
 50
0.0
 51
90.0
  0
CIRCLE
  5
709
100
AcDbEntity
  8
ASSI
100
AcDbCircle
 62
7
  6
CONTINUOUS
 10
27.5
 20
27.5
 40
3.0
  0
ARC
  5
70A
100
AcDbEntity
  8
ASSI
100
AcDbCircle
 62
7
  6
CONTINUOUS
 10
28.3953517558
 20
28.3953517559
 40
2.9993743527
100
AcDbArc
 50
359.9999764098
 51
89.9996735778
  0
ARC
  5
70B
100
AcDbEntity
  8
0
100
AcDbCircle
 62
253
  6
CONTINUOUS
 10
28.3953540115
 20
28.3953539068
 40
2.9993710943
100
AcDbArc
 50
0.1517898589
 51
89.8317392224
  0
ARC
  5
70C
100
AcDbEntity
  8
0
100
AcDbCircle
 62
253
  6
CONTINUOUS
 10
28.3950326905
 20
28.4050833267
 40
2.9896496924
100
AcDbArc
 50
89.8250336425
 51
89.9969865609
  0
ARC
  5
70D
100
AcDbEntity
  8
RACCORDO
100
AcDbCircle
 62
7
  6
CONTINUOUS
 10
22.0
 20
25.15
 40
1.5
100
AcDbArc
 50
0.0
 51
90.0
  0
CIRCLE
  5
70E
100
AcDbEntity
  8
0
100
AcDbCircle
 62
7
  6
CONTINUOUS
 10
27.5
 20
27.5
 40
1.5
  0
ARC
  5
70F
100
AcDbEntity
  8
ASSI
100
AcDbCircle
 62
7
  6
CONTINUOUS
 10
22.0
 20
25.15
 40
1.5
100
AcDbArc
 50
0.0
 51
90.0
  0
ARC
  5
710
100
AcDbEntity
  8
RACCORDO
100
AcDbCircle
 62
7
  6
CONTINUOUS
 10
18.7990381057
 20
26.95
 40
0.3
100
AcDbArc
 50
182.204227504
 51
270.0
  0
ARC
  5
711
100
AcDbEntity
  8
ASSI
100
AcDbCircle
 62
7
  6
CONTINUOUS
 10
18.7990381057
 20
26.95
 40
0.3
100
AcDbArc
 50
182.204227504
 51
270.0
  0
ARC
  5
712
100
AcDbEntity
  8
RACCORDO
100
AcDbCircle
 62
253
  6
CONTINUOUS
 10
18.2883650944
 20
22.9061174375
 40
0.2000976948
100
AcDbArc
 50
270.0958265603
 51
51.2994682546
  0
ARC
  5
713
100
AcDbEntity
  8
RACCORDO
100
AcDbCircle
 62
253
  6
CONTINUOUS
 10
22.9061174375
 20
18.2883650944
 40
0.2000976947
100
AcDbArc
 50
38.7005317009
 51
179.9041734211
  0
ARC
  5
714
100
AcDbEntity
  8
DRAFT
100
AcDbCircle
 62
7
  6
CONTINUOUS
 10
18.4
 20
36.35
 40
0.2
100
AcDbArc
 50
270.0
 51
90.0
  0
ARC
  5
715
100
AcDbEntity
  8
RACCORDO
100
AcDbCircle
 62
7
  6
CONTINUOUS
 10
22.7173704096
 20
18.8195663172
 40
0.1999054819
100
AcDbArc
 50
39.5957051576
 51
180.0430953803
  0
ARC
  5
716
100
AcDbEntity
  8
RACCORDO
100
AcDbCircle
 62
7
  6
CONTINUOUS
 10
18.8195663219
 20
22.7173704079
 40
0.1999054809
100
AcDbArc
 50
269.9569032609
 51
50.4042961785
  0
LINE
  5
717
100
AcDbEntity
  8
0
100
AcDbLine
 62
253
  6
CONTINUOUS
 10
-28.4032999484
 20
31.3947215922
 11
-28.3951899294
 21
31.3947330149
  0
LINE
  5
718
100
AcDbEntity
  8
0
100
AcDbLine
 62
253
  6
CONTINUOUS
 10
-31.3947215922
 20
-28.4032999484
 11
-31.3947330149
 21
-28.3951899294
  0
LINE
  5
719
100
AcDbEntity
  8
0
100
AcDbLine
 62
253
  6
CONTINUOUS
 10
28.4032999485
 20
-31.3947215922
 11
28.3951899294
 21
-31.3947330149
  0
LINE
  5
71A
100
AcDbEntity
  8
0
100
AcDbLine
 62
253
  6
CONTINUOUS
 10
31.3947215922
 20
28.4032999484
 11
31.3947330149
 21
28.3951899294
  0
SPLINE
  5
71B
100
AcDbEntity
  8
RACCORDO
100
AcDbSpline
 62
253
  6
CONTINUOUS
 70
0
 71
3
 72
9
 73
5
 74
3
 42
0.0000001
 43
0.0000001
 44
0.0000000001
 12
0.441480652
 22
0.0000007949
 32
0.0
 13
0.4413947691
 23
-0.0087076953
 33
0.0
 40
0.0
 40
0.0
 40
0.0
 40
0.0
 40
0.5833052031
 40
1.0
 40
1.0
 40
1.0
 40
1.0
 10
-14.7504303095
 20
22.9060002318
 30
0.0
 10
-14.664590989
 20
22.9060003863
 30
0.0
 10
-14.5174327582
 20
22.9055588627
 30
0.0
 10
-14.3702709109
 20
22.904431691
 30
0.0
 10
-14.308961943
 20
22.9032222073
 30
0.0
 11
-14.7504303095
 21
22.9060002318
 31
0.0
 11
-14.4929134351
 21
22.905252012
 31
0.0
 11
-14.308961943
 21
22.9032222073
 31
0.0
  0
SPLINE
  5
71C
100
AcDbEntity
  8
RACCORDO
100
AcDbSpline
 62
253
  6
CONTINUOUS
 70
0
 71
3
 72
9
 73
5
 74
3
 42
0.0000001
 43
0.0000001
 44
0.0000000001
 12
-0.4413947994
 22
-0.0087076967
 32
0.0
 13
-0.4414806824
 23
0.0000007949
 33
0.0
 40
0.0
 40
0.0
 40
0.0
 40
0.0
 40
0.4166947746
 40
1.0
 40
1.0
 40
1.0
 40
1.0
 10
-14.3089619126
 20
24.6142328582
 30
0.0
 10
-14.3702708815
 20
24.6130233743
 30
0.0
 10
-14.5174327389
 20
24.6118962022
 30
0.0
 10
-14.6645909799
 20
24.6114546786
 30
0.0
 10
-14.7504303095
 20
24.6114548332
 30
0.0
 11
-14.3089619126
 21
24.6142328582
 31
0.0
 11
-14.4929134075
 21
24.6122030531
 31
0.0
 11
-14.7504303095
 21
24.6114548332
 31
0.0
  0
SPLINE
  5
71D
100
AcDbEntity
  8
RACCORDO
100
AcDbSpline
 62
253
  6
CONTINUOUS
 70
0
 71
3
 72
9
 73
5
 74
3
 42
0.0000001
 43
0.0000001
 44
0.0000000001
 12
0.4413947994
 22
0.0087076967
 32
0.0
 13
0.4414806824
 23
-0.0000007949
 33
0.0
 40
0.0
 40
0.0
 40
0.0
 40
0.0
 40
0.4166947746
 40
1.0
 40
1.0
 40
1.0
 40
1.0
 10
-8.1910380874
 20
22.9032222067
 30
0.0
 10
-8.1297291185
 20
22.9044316906
 30
0.0
 10
-7.9825672611
 20
22.9055588628
 30
0.0
 10
-7.8354090201
 20
22.9060003863
 30
0.0
 10
-7.7495696905
 20
22.9060002318
 30
0.0
 11
-8.1910380874
 21
22.9032222067
 31
0.0
 11
-8.0070865925
 21
22.9052520118
 31
0.0
 11
-7.7495696905
 21
22.9060002318
 31
0.0
  0
SPLINE
  5
71E
100
AcDbEntity
  8
RACCORDO
100
AcDbSpline
 62
253
  6
CONTINUOUS
 70
0
 71
3
 72
9
 73
5
 74
3
 42
0.0000001
 43
0.0000001
 44
0.0000000001
 12
-0.441480652
 22
-0.0000007949
 32
0.0
 13
-0.4413947691
 23
0.0087076953
 33
0.0
 40
0.0
 40
0.0
 40
0.0
 40
0.0
 40
0.5833052031
 40
1.0
 40
1.0
 40
1.0
 40
1.0
 10
-7.7495696905
 20
24.6114548332
 30
0.0
 10
-7.835409011
 20
24.6114546786
 30
0.0
 10
-7.9825672418
 20
24.6118962022
 30
0.0
 10
-8.1297290891
 20
24.6130233739
 30
0.0
 10
-8.191038057
 20
24.6142328577
 30
0.0
 11
-7.7495696905
 21
24.6114548332
 31
0.0
 11
-8.0070865649
 21
24.6122030529
 31
0.0
 11
-8.191038057
 21
24.6142328577
 31
0.0
  0
SPLINE
  5
71F
100
AcDbEntity
  8
RACCORDO
100
AcDbSpline
 62
253
  6
CONTINUOUS
 70
0
 71
3
 72
9
 73
5
 74
3
 42
0.0000001
 43
0.0000001
 44
0.0000000001
 12
0.441480652
 22
0.0000007949
 32
0.0
 13
0.4413947691
 23
-0.0087076953
 33
0.0
 40
0.0
 40
0.0
 40
0.0
 40
0.0
 40
0.5833052031
 40
1.0
 40
1.0
 40
1.0
 40
1.0
 10
7.7495696905
 20
22.9060002318
 30
0.0
 10
7.835409011
 20
22.9060003863
 30
0.0
 10
7.9825672418
 20
22.9055588627
 30
0.0
 10
8.1297290891
 20
22.904431691
 30
0.0
 10
8.191038057
 20
22.9032222073
 30
0.0
 11
7.7495696905
 21
22.9060002318
 31
0.0
 11
8.0070865649
 21
22.905252012
 31
0.0
 11
8.191038057
 21
22.9032222073
 31
0.0
  0
SPLINE
  5
720
100
AcDbEntity
  8
RACCORDO
100
AcDbSpline
 62
253
  6
CONTINUOUS
 70
0
 71
3
 72
9
 73
5
 74
3
 42
0.0000001
 43
0.0000001
 44
0.0000000001
 12
-0.4413947994
 22
-0.0087076967
 32
0.0
 13
-0.4414806824
 23
0.0000007949
 33
0.0
 40
0.0
 40
0.0
 40
0.0
 40
0.0
 40
0.4166947746
 40
1.0
 40
1.0
 40
1.0
 40
1.0
 10
8.1910380874
 20
24.6142328582
 30
0.0
 10
8.1297291185
 20
24.6130233743
 30
0.0
 10
7.9825672611
 20
24.6118962022
 30
0.0
 10
7.8354090201
 20
24.6114546786
 30
0.0
 10
7.7495696905
 20
24.6114548332
 30
0.0
 11
8.1910380874
 21
24.6142328582
 31
0.0
 11
8.0070865925
 21
24.6122030531
 31
0.0
 11
7.7495696905
 21
24.6114548332
 31
0.0
  0
SPLINE
  5
721
100
AcDbEntity
  8
RACCORDO
100
AcDbSpline
 62
253
  6
CONTINUOUS
 70
0
 71
3
 72
9
 73
5
 74
3
 42
0.0000001
 43
0.0000001
 44
0.0000000001
 12
0.4413947994
 22
0.0087076967
 32
0.0
 13
0.4414806824
 23
-0.0000007949
 33
0.0
 40
0.0
 40
0.0
 40
0.0
 40
0.0
 40
0.4166947746
 40
1.0
 40
1.0
 40
1.0
 40
1.0
 10
14.3089619126
 20
22.9032222067
 30
0.0
 10
14.3702708815
 20
22.9044316906
 30
0.0
 10
14.5174327389
 20
22.9055588628
 30
0.0
 10
14.6645909799
 20
22.9060003863
 30
0.0
 10
14.7504303095
 20
22.9060002318
 30
0.0
 11
14.3089619126
 21
22.9032222067
 31
0.0
 11
14.4929134075
 21
22.9052520118
 31
0.0
 11
14.7504303095
 21
22.9060002318
 31
0.0
  0
SPLINE
  5
722
100
AcDbEntity
  8
RACCORDO
100
AcDbSpline
 62
253
  6
CONTINUOUS
 70
0
 71
3
 72
9
 73
5
 74
3
 42
0.0000001
 43
0.0000001
 44
0.0000000001
 12
-0.441480652
 22
-0.0000007949
 32
0.0
 13
-0.4413947691
 23
0.0087076953
 33
0.0
 40
0.0
 40
0.0
 40
0.0
 40
0.0
 40
0.5833052031
 40
1.0
 40
1.0
 40
1.0
 40
1.0
 10
14.7504303095
 20
24.6114548332
 30
0.0
 10
14.664590989
 20
24.6114546786
 30
0.0
 10
14.5174327582
 20
24.6118962022
 30
0.0
 10
14.3702709109
 20
24.6130233739
 30
0.0
 10
14.308961943
 20
24.6142328577
 30
0.0
 11
14.7504303095
 21
24.6114548332
 31
0.0
 11
14.4929134351
 21
24.6122030529
 31
0.0
 11
14.308961943
 21
24.6142328577
 31
0.0
  0
SPLINE
  5
723
100
AcDbEntity
  8
RACCORDO
100
AcDbSpline
 62
253
  6
CONTINUOUS
 70
0
 71
3
 72
9
 73
5
 74
3
 42
0.0000001
 43
0.0000001
 44
0.0000000001
 12
-0.441480652
 22
-0.0000007949
 32
0.0
 13
-0.4413947691
 23
0.0087076953
 33
0.0
 40
0.0
 40
0.0
 40
0.0
 40
0.0
 40
0.5833052031
 40
1.0
 40
1.0
 40
1.0
 40
1.0
 10
14.7504303095
 20
-22.9060002318
 30
0.0
 10
14.664590989
 20
-22.9060003863
 30
0.0
 10
14.5174327582
 20
-22.9055588627
 30
0.0
 10
14.3702709109
 20
-22.904431691
 30
0.0
 10
14.308961943
 20
-22.9032222073
 30
0.0
 11
14.7504303095
 21
-22.9060002318
 31
0.0
 11
14.4929134351
 21
-22.905252012
 31
0.0
 11
14.308961943
 21
-22.9032222073
 31
0.0
  0
SPLINE
  5
724
100
AcDbEntity
  8
RACCORDO
100
AcDbSpline
 62
253
  6
CONTINUOUS
 70
0
 71
3
 72
9
 73
5
 74
3
 42
0.0000001
 43
0.0000001
 44
0.0000000001
 12
0.4413947994
 22
0.0087076967
 32
0.0
 13
0.4414806824
 23
-0.0000007949
 33
0.0
 40
0.0
 40
0.0
 40
0.0
 40
0.0
 40
0.4166947746
 40
1.0
 40
1.0
 40
1.0
 40
1.0
 10
14.3089619126
 20
-24.6142328582
 30
0.0
 10
14.3702708815
 20
-24.6130233743
 30
0.0
 10
14.5174327389
 20
-24.6118962022
 30
0.0
 10
14.6645909799
 20
-24.6114546786
 30
0.0
 10
14.7504303095
 20
-24.6114548332
 30
0.0
 11
14.3089619126
 21
-24.6142328582
 31
0.0
 11
14.4929134075
 21
-24.6122030531
 31
0.0
 11
14.7504303095
 21
-24.6114548332
 31
0.0
  0
SPLINE
  5
725
100
AcDbEntity
  8
RACCORDO
100
AcDbSpline
 62
253
  6
CONTINUOUS
 70
0
 71
3
 72
9
 73
5
 74
3
 42
0.0000001
 43
0.0000001
 44
0.0000000001
 12
-0.4413947994
 22
-0.0087076967
 32
0.0
 13
-0.4414806824
 23
0.0000007949
 33
0.0
 40
0.0
 40
0.0
 40
0.0
 40
0.0
 40
0.4166947746
 40
1.0
 40
1.0
 40
1.0
 40
1.0
 10
8.1910380874
 20
-22.9032222067
 30
0.0
 10
8.1297291185
 20
-22.9044316906
 30
0.0
 10
7.9825672611
 20
-22.9055588628
 30
0.0
 10
7.8354090201
 20
-22.9060003863
 30
0.0
 10
7.7495696905
 20
-22.9060002318
 30
0.0
 11
8.1910380874
 21
-22.9032222067
 31
0.0
 11
8.0070865925
 21
-22.9052520118
 31
0.0
 11
7.7495696905
 21
-22.9060002318
 31
0.0
  0
SPLINE
  5
726
100
AcDbEntity
  8
RACCORDO
100
AcDbSpline
 62
253
  6
CONTINUOUS
 70
0
 71
3
 72
9
 73
5
 74
3
 42
0.0000001
 43
0.0000001
 44
0.0000000001
 12
0.441480652
 22
0.0000007949
 32
0.0
 13
0.4413947691
 23
-0.0087076953
 33
0.0
 40
0.0
 40
0.0
 40
0.0
 40
0.0
 40
0.5833052031
 40
1.0
 40
1.0
 40
1.0
 40
1.0
 10
7.7495696905
 20
-24.6114548332
 30
0.0
 10
7.835409011
 20
-24.6114546786
 30
0.0
 10
7.9825672418
 20
-24.6118962022
 30
0.0
 10
8.1297290891
 20
-24.6130233739
 30
0.0
 10
8.191038057
 20
-24.6142328577
 30
0.0
 11
7.7495696905
 21
-24.6114548332
 31
0.0
 11
8.0070865649
 21
-24.6122030529
 31
0.0
 11
8.191038057
 21
-24.6142328577
 31
0.0
  0
SPLINE
  5
727
100
AcDbEntity
  8
RACCORDO
100
AcDbSpline
 62
253
  6
CONTINUOUS
 70
0
 71
3
 72
9
 73
5
 74
3
 42
0.0000001
 43
0.0000001
 44
0.0000000001
 12
-0.4413947994
 22
-0.0087076967
 32
0.0
 13
-0.4414806824
 23
0.0000007949
 33
0.0
 40
0.0
 40
0.0
 40
0.0
 40
0.0
 40
0.4166947746
 40
1.0
 40
1.0
 40
1.0
 40
1.0
 10
-14.3089619126
 20
-22.9032222067
 30
0.0
 10
-14.3702708815
 20
-22.9044316906
 30
0.0
 10
-14.5174327389
 20
-22.9055588628
 30
0.0
 10
-14.6645909799
 20
-22.9060003863
 30
0.0
 10
-14.7504303095
 20
-22.9060002318
 30
0.0
 11
-14.3089619126
 21
-22.9032222067
 31
0.0
 11
-14.4929134075
 21
-22.9052520118
 31
0.0
 11
-14.7504303095
 21
-22.9060002318
 31
0.0
  0
SPLINE
  5
728
100
AcDbEntity
  8
RACCORDO
100
AcDbSpline
 62
253
  6
CONTINUOUS
 70
0
 71
3
 72
9
 73
5
 74
3
 42
0.0000001
 43
0.0000001
 44
0.0000000001
 12
0.441480652
 22
0.0000007949
 32
0.0
 13
0.4413947691
 23
-0.0087076953
 33
0.0
 40
0.0
 40
0.0
 40
0.0
 40
0.0
 40
0.5833052031
 40
1.0
 40
1.0
 40
1.0
 40
1.0
 10
-14.7504303095
 20
-24.6114548332
 30
0.0
 10
-14.664590989
 20
-24.6114546786
 30
0.0
 10
-14.5174327582
 20
-24.6118962022
 30
0.0
 10
-14.3702709109
 20
-24.6130233739
 30
0.0
 10
-14.308961943
 20
-24.6142328577
 30
0.0
 11
-14.7504303095
 21
-24.6114548332
 31
0.0
 11
-14.4929134351
 21
-24.6122030529
 31
0.0
 11
-14.308961943
 21
-24.6142328577
 31
0.0
  0
SPLINE
  5
729
100
AcDbEntity
  8
RACCORDO
100
AcDbSpline
 62
253
  6
CONTINUOUS
 70
0
 71
3
 72
9
 73
5
 74
3
 42
0.0000001
 43
0.0000001
 44
0.0000000001
 12
-0.441480652
 22
-0.0000007949
 32
0.0
 13
-0.4413947691
 23
0.0087076953
 33
0.0
 40
0.0
 40
0.0
 40
0.0
 40
0.0
 40
0.5833052031
 40
1.0
 40
1.0
 40
1.0
 40
1.0
 10
-7.7495696905
 20
-22.9060002318
 30
0.0
 10
-7.835409011
 20
-22.9060003863
 30
0.0
 10
-7.9825672418
 20
-22.9055588627
 30
0.0
 10
-8.1297290891
 20
-22.904431691
 30
0.0
 10
-8.191038057
 20
-22.9032222073
 30
0.0
 11
-7.7495696905
 21
-22.9060002318
 31
0.0
 11
-8.0070865649
 21
-22.905252012
 31
0.0
 11
-8.191038057
 21
-22.9032222073
 31
0.0
  0
SPLINE
  5
72A
100
AcDbEntity
  8
RACCORDO
100
AcDbSpline
 62
253
  6
CONTINUOUS
 70
0
 71
3
 72
9
 73
5
 74
3
 42
0.0000001
 43
0.0000001
 44
0.0000000001
 12
0.4413947994
 22
0.0087076967
 32
0.0
 13
0.4414806824
 23
-0.0000007949
 33
0.0
 40
0.0
 40
0.0
 40
0.0
 40
0.0
 40
0.4166947746
 40
1.0
 40
1.0
 40
1.0
 40
1.0
 10
-8.1910380874
 20
-24.6142328582
 30
0.0
 10
-8.1297291185
 20
-24.6130233743
 30
0.0
 10
-7.9825672611
 20
-24.6118962022
 30
0.0
 10
-7.8354090201
 20
-24.6114546786
 30
0.0
 10
-7.7495696905
 20
-24.6114548332
 30
0.0
 11
-8.1910380874
 21
-24.6142328582
 31
0.0
 11
-8.0070865925
 21
-24.6122030531
 31
0.0
 11
-7.7495696905
 21
-24.6114548332
 31
0.0
  0
SPLINE
  5
72B
100
AcDbEntity
  8
RACCORDO
100
AcDbSpline
 62
253
  6
CONTINUOUS
 70
0
 71
3
 72
9
 73
5
 74
3
 42
0.0000001
 43
0.0000001
 44
0.0000000001
 12
0.4410192791
 22
-0.0202800484
 32
0.0
 13
0.4414853168
 23
0.0000019302
 33
0.0
 40
0.0
 40
0.0
 40
0.0
 40
0.0
 40
0.4167397113
 40
1.0
 40
1.0
 40
1.0
 40
1.0
 10
-13.633952969
 20
22.881062819
 30
0.0
 10
-13.5726895533
 20
22.8782456518
 30
0.0
 10
-13.4255192529
 20
22.8756078148
 30
0.0
 10
-13.278368152
 20
22.8745808497
 30
0.0
 10
-13.1925345342
 20
22.874581225
 30
0.0
 11
-13.633952969
 21
22.881062819
 31
0.0
 11
-13.4500294707
 21
22.8763268323
 31
0.0
 11
-13.1925345342
 21
22.874581225
 31
0.0
  0
SPLINE
  5
72C
100
AcDbEntity
  8
RACCORDO
100
AcDbSpline
 62
7
  6
CONTINUOUS
 70
0
 71
3
 72
9
 73
5
 74
3
 42
0.0000001
 43
0.0000001
 44
0.0000000001
 12
0.2870010227
 22
0.0000000737
 32
0.0
 13
0.1599093251
 23
-0.2383245576
 33
0.0
 40
0.0
 40
0.0
 40
0.0
 40
0.0
 40
0.5369381504
 40
1.0
 40
1.0
 40
1.0
 40
1.0
 10
3.922480805
 20
24.6876799659
 30
0.0
 10
3.9738480711
 20
24.6876799791
 30
0.0
 10
4.0714147992
 20
24.6614083631
 30
0.0
 10
4.143229364
 20
24.5929352158
 30
0.0
 10
4.1679119999
 20
24.556148879
 30
0.0
 11
3.922480805
 21
24.6876799659
 31
0.0
 11
4.0711982531
 21
24.6473007031
 31
0.0
 11
4.1679119999
 21
24.556148879
 31
0.0
  0
SPLINE
  5
72D
100
AcDbEntity
  8
RACCORDO
100
AcDbSpline
 62
7
  6
CONTINUOUS
 70
0
 71
3
 72
11
 73
7
 74
5
 42
0.0000001
 43
0.0000001
 44
0.0000000001
 12
-0.0011311947
 22
-0.4674354771
 32
0.0
 13
-0.4674368458
 23
0.0
 33
0.0
 40
0.0
 40
0.0
 40
0.0
 40
0.0
 40
0.2457813455
 40
0.4940308841
 40
0.7457583596
 40
1.0
 40
1.0
 40
1.0
 40
1.0
 10
3.9866545578
 20
23.3766929191
 30
0.0
 10
3.9865618822
 20
23.3383972789
 30
0.0
 10
3.9711324921
 20
23.260637663
 30
0.0
 10
3.9051382425
 20
23.1615147536
 30
0.0
 10
3.8053232416
 20
23.0940464027
 30
0.0
 10
3.7256029777
 20
23.0780926603
 30
0.0
 10
3.6859890075
 20
23.0780926603
 30
0.0
 11
3.9866545578
 21
23.3766929191
 31
0.0
 11
3.9642078699
 21
23.2640198167
 31
0.0
 11
3.9000410727
 21
23.167334081
 31
0.0
 11
3.8024978014
 21
23.101525557
 31
0.0
 11
3.6859890075
 21
23.0780926603
 31
0.0
  0
SPLINE
  5
72E
100
AcDbEntity
  8
RACCORDO
100
AcDbSpline
 62
253
  6
CONTINUOUS
 70
0
 71
3
 72
9
 73
5
 74
3
 42
0.0000001
 43
0.0000001
 44
0.0000000001
 12
-0.4414848882
 22
0.0000019377
 32
0.0
 13
-0.4410188675
 23
-0.0202796694
 33
0.0
 40
0.0
 40
0.0
 40
0.0
 40
0.0
 40
0.5832613592
 40
1.0
 40
1.0
 40
1.0
 40
1.0
 10
-13.1925347015
 20
24.6428738394
 30
0.0
 10
-13.2783683935
 20
24.6428742161
 30
0.0
 10
-13.4255193531
 20
24.6418472821
 30
0.0
 10
-13.5726895068
 20
24.6392093646
 30
0.0
 10
-13.6339527079
 20
24.6363922573
 30
0.0
 11
-13.1925347015
 21
24.6428738394
 31
0.0
 11
-13.4500298606
 21
24.6411282276
 31
0.0
 11
-13.6339527079
 21
24.6363922573
 31
0.0
  0
SPLINE
  5
72F
100
AcDbEntity
  8
RACCORDO
100
AcDbSpline
 62
253
  6
CONTINUOUS
 70
0
 71
3
 72
9
 73
5
 74
3
 42
0.0000001
 43
0.0000001
 44
0.0000000001
 12
0.4414848882
 22
-0.0000019377
 32
0.0
 13
0.4410188675
 23
0.0202796694
 33
0.0
 40
0.0
 40
0.0
 40
0.0
 40
0.0
 40
0.5832613592
 40
1.0
 40
1.0
 40
1.0
 40
1.0
 10
-9.3074652985
 20
22.8745812256
 30
0.0
 10
-9.2216316065
 20
22.8745808488
 30
0.0
 10
-9.0744806469
 20
22.8756077829
 30
0.0
 10
-8.9273104932
 20
22.8782457004
 30
0.0
 10
-8.8660472921
 20
22.8810628077
 30
0.0
 11
-9.3074652985
 21
22.8745812256
 31
0.0
 11
-9.0499701394
 21
22.8763268373
 31
0.0
 11
-8.8660472921
 21
22.8810628077
 31
0.0
  0
SPLINE
  5
730
100
AcDbEntity
  8
RACCORDO
100
AcDbSpline
 62
253
  6
CONTINUOUS
 70
0
 71
3
 72
9
 73
5
 74
3
 42
0.0000001
 43
0.0000001
 44
0.0000000001
 12
-0.4410192791
 22
0.0202800484
 32
0.0
 13
-0.4414853168
 23
-0.0000019302
 33
0.0
 40
0.0
 40
0.0
 40
0.0
 40
0.0
 40
0.4167397113
 40
1.0
 40
1.0
 40
1.0
 40
1.0
 10
-8.866047031
 20
24.636392246
 30
0.0
 10
-8.9273104467
 20
24.6392094132
 30
0.0
 10
-9.0744807471
 20
24.6418472501
 30
0.0
 10
-9.221631848
 20
24.6428742152
 30
0.0
 10
-9.3074654658
 20
24.6428738399
 30
0.0
 11
-8.866047031
 21
24.636392246
 31
0.0
 11
-9.0499705293
 21
24.6411282326
 31
0.0
 11
-9.3074654658
 21
24.6428738399
 31
0.0
  0
SPLINE
  5
731
100
AcDbEntity
  8
RACCORDO
100
AcDbSpline
 62
253
  6
CONTINUOUS
 70
0
 71
3
 72
9
 73
5
 74
3
 42
0.0000001
 43
0.0000001
 44
0.0000000001
 12
0.4410192791
 22
-0.0202800484
 32
0.0
 13
0.4414853168
 23
0.0000019302
 33
0.0
 40
0.0
 40
0.0
 40
0.0
 40
0.0
 40
0.4167397113
 40
1.0
 40
1.0
 40
1.0
 40
1.0
 10
8.866047031
 20
22.881062819
 30
0.0
 10
8.9273104467
 20
22.8782456518
 30
0.0
 10
9.0744807471
 20
22.8756078148
 30
0.0
 10
9.221631848
 20
22.8745808497
 30
0.0
 10
9.3074654658
 20
22.874581225
 30
0.0
 11
8.866047031
 21
22.881062819
 31
0.0
 11
9.0499705293
 21
22.8763268323
 31
0.0
 11
9.3074654658
 21
22.874581225
 31
0.0
  0
SPLINE
  5
732
100
AcDbEntity
  8
RACCORDO
100
AcDbSpline
 62
253
  6
CONTINUOUS
 70
0
 71
3
 72
9
 73
5
 74
3
 42
0.0000001
 43
0.0000001
 44
0.0000000001
 12
-0.4414848882
 22
0.0000019377
 32
0.0
 13
-0.4410188675
 23
-0.0202796694
 33
0.0
 40
0.0
 40
0.0
 40
0.0
 40
0.0
 40
0.5832613592
 40
1.0
 40
1.0
 40
1.0
 40
1.0
 10
9.3074652985
 20
24.6428738394
 30
0.0
 10
9.2216316065
 20
24.6428742161
 30
0.0
 10
9.0744806469
 20
24.6418472821
 30
0.0
 10
8.9273104932
 20
24.6392093646
 30
0.0
 10
8.8660472921
 20
24.6363922573
 30
0.0
 11
9.3074652985
 21
24.6428738394
 31
0.0
 11
9.0499701394
 21
24.6411282276
 31
0.0
 11
8.8660472921
 21
24.6363922573
 31
0.0
  0
SPLINE
  5
733
100
AcDbEntity
  8
RACCORDO
100
AcDbSpline
 62
253
  6
CONTINUOUS
 70
0
 71
3
 72
9
 73
5
 74
3
 42
0.0000001
 43
0.0000001
 44
0.0000000001
 12
0.4414848882
 22
-0.0000019377
 32
0.0
 13
0.4410188675
 23
0.0202796694
 33
0.0
 40
0.0
 40
0.0
 40
0.0
 40
0.0
 40
0.5832613592
 40
1.0
 40
1.0
 40
1.0
 40
1.0
 10
13.1925347015
 20
22.8745812256
 30
0.0
 10
13.2783683935
 20
22.8745808488
 30
0.0
 10
13.4255193531
 20
22.8756077829
 30
0.0
 10
13.5726895068
 20
22.8782457004
 30
0.0
 10
13.6339527079
 20
22.8810628077
 30
0.0
 11
13.1925347015
 21
22.8745812256
 31
0.0
 11
13.4500298606
 21
22.8763268373
 31
0.0
 11
13.6339527079
 21
22.8810628077
 31
0.0
  0
SPLINE
  5
734
100
AcDbEntity
  8
RACCORDO
100
AcDbSpline
 62
253
  6
CONTINUOUS
 70
0
 71
3
 72
9
 73
5
 74
3
 42
0.0000001
 43
0.0000001
 44
0.0000000001
 12
-0.4410192791
 22
0.0202800484
 32
0.0
 13
-0.4414853168
 23
-0.0000019302
 33
0.0
 40
0.0
 40
0.0
 40
0.0
 40
0.0
 40
0.4167397113
 40
1.0
 40
1.0
 40
1.0
 40
1.0
 10
13.633952969
 20
24.636392246
 30
0.0
 10
13.5726895533
 20
24.6392094132
 30
0.0
 10
13.4255192529
 20
24.6418472501
 30
0.0
 10
13.278368152
 20
24.6428742152
 30
0.0
 10
13.1925345342
 20
24.6428738399
 30
0.0
 11
13.633952969
 21
24.636392246
 31
0.0
 11
13.4500294707
 21
24.6411282326
 31
0.0
 11
13.1925345342
 21
24.6428738399
 31
0.0
  0
SPLINE
  5
735
100
AcDbEntity
  8
RACCORDO
100
AcDbSpline
 62
253
  6
CONTINUOUS
 70
0
 71
3
 72
9
 73
5
 74
3
 42
0.0000001
 43
0.0000001
 44
0.0000000001
 12
-0.4410192791
 22
0.0202800484
 32
0.0
 13
-0.4414853168
 23
-0.0000019302
 33
0.0
 40
0.0
 40
0.0
 40
0.0
 40
0.0
 40
0.4167397113
 40
1.0
 40
1.0
 40
1.0
 40
1.0
 10
13.633952969
 20
-22.881062819
 30
0.0
 10
13.5726895533
 20
-22.8782456518
 30
0.0
 10
13.4255192529
 20
-22.8756078148
 30
0.0
 10
13.278368152
 20
-22.8745808497
 30
0.0
 10
13.1925345342
 20
-22.874581225
 30
0.0
 11
13.633952969
 21
-22.881062819
 31
0.0
 11
13.4500294707
 21
-22.8763268323
 31
0.0
 11
13.1925345342
 21
-22.874581225
 31
0.0
  0
SPLINE
  5
736
100
AcDbEntity
  8
RACCORDO
100
AcDbSpline
 62
7
  6
CONTINUOUS
 70
0
 71
3
 72
15
 73
11
 74
9
 42
0.0000001
 43
0.0000001
 44
0.0000000001
 12
0.0919748343
 22
0.0679682145
 32
0.0
 13
0.1063687431
 23
-0.0420087946
 33
0.0
 40
0.0
 40
0.0
 40
0.0
 40
0.0
 40
0.278409926
 40
0.5074655787
 40
0.6832526838
 40
0.8119791545
 40
0.9009416664
 40
0.9578659177
 40
0.9892929376
 40
1.0
 40
1.0
 40
1.0
 40
1.0
 10
3.8956379914
 20
23.5825549501
 30
0.0
 10
3.9041735603
 20
23.5888626253
 30
0.0
 10
3.9194539144
 20
23.6007349041
 30
0.0
 10
3.9393722584
 20
23.617543451
 30
0.0
 10
3.9544986364
 20
23.6311018521
 30
0.0
 10
3.9654390286
 20
23.6414682321
 30
0.0
 10
3.9729973237
 20
23.6484840094
 30
0.0
 10
3.9779516533
 20
23.6535288843
 30
0.0
 10
3.9806801599
 20
23.6554287479
 30
0.0
 10
3.9820396453
 20
23.6570396199
 30
0.0
 10
3.9824192776
 20
23.6568896896
 30
0.0
 11
3.8956379914
 21
23.5825549501
 31
0.0
 11
3.9207935642
 21
23.6020736972
 31
0.0
 11
3.9408211128
 21
23.6189588706
 31
0.0
 11
3.9557774778
 21
23.6323925674
 31
0.0
 11
3.966523251
 21
23.642455111
 31
0.0
 11
3.9739017814
 21
23.6494600503
 31
0.0
 11
3.978649527
 21
23.6539142475
 31
0.0
 11
3.9813615496
 21
23.6562727543
 31
0.0
 11
3.9824192776
 21
23.6568896896
 31
0.0
  0
SPLINE
  5
737
100
AcDbEntity
  8
RACCORDO
100
AcDbSpline
 62
7
  6
CONTINUOUS
 70
0
 71
3
 72
9
 73
5
 74
3
 42
0.0000001
 43
0.0000001
 44
0.0000000001
 12
-0.180389902
 22
-0.1333058075
 32
0.0
 13
-0.2206067077
 23
0.0405417755
 33
0.0
 40
0.0
 40
0.0
 40
0.0
 40
0.0
 40
0.4845759051
 40
1.0
 40
1.0
 40
1.0
 40
1.0
 10
3.8956379914
 20
23.5825549501
 30
0.0
 10
3.866500458
 20
23.5610226893
 30
0.0
 10
3.7948698359
 20
23.5312192057
 30
0.0
 10
3.7181846012
 20
23.5322304497
 30
0.0
 10
3.680282597
 20
23.5391958524
 30
0.0
 11
3.8956379914
 21
23.5825549501
 31
0.0
 11
3.7958926181
 21
23.5393743127
 31
0.0
 11
3.680282597
 21
23.5391958524
 31
0.0
  0
SPLINE
  5
738
100
AcDbEntity
  8
RACCORDO
100
AcDbSpline
 62
253
  6
CONTINUOUS
 70
0
 71
3
 72
9
 73
5
 74
3
 42
0.0000001
 43
0.0000001
 44
0.0000000001
 12
0.4414848882
 22
-0.0000019377
 32
0.0
 13
0.4410188675
 23
0.0202796694
 33
0.0
 40
0.0
 40
0.0
 40
0.0
 40
0.0
 40
0.5832613592
 40
1.0
 40
1.0
 40
1.0
 40
1.0
 10
13.1925347015
 20
-24.6428738394
 30
0.0
 10
13.2783683935
 20
-24.6428742161
 30
0.0
 10
13.4255193531
 20
-24.6418472821
 30
0.0
 10
13.5726895068
 20
-24.6392093646
 30
0.0
 10
13.6339527079
 20
-24.6363922573
 30
0.0
 11
13.1925347015
 21
-24.6428738394
 31
0.0
 11
13.4500298606
 21
-24.6411282276
 31
0.0
 11
13.6339527079
 21
-24.6363922573
 31
0.0
  0
SPLINE
  5
739
100
AcDbEntity
  8
RACCORDO
100
AcDbSpline
 62
253
  6
CONTINUOUS
 70
0
 71
3
 72
9
 73
5
 74
3
 42
0.0000001
 43
0.0000001
 44
0.0000000001
 12
-0.4414848882
 22
0.0000019377
 32
0.0
 13
-0.4410188675
 23
-0.0202796694
 33
0.0
 40
0.0
 40
0.0
 40
0.0
 40
0.0
 40
0.5832613592
 40
1.0
 40
1.0
 40
1.0
 40
1.0
 10
9.3074652985
 20
-22.8745812256
 30
0.0
 10
9.2216316065
 20
-22.8745808488
 30
0.0
 10
9.0744806469
 20
-22.8756077829
 30
0.0
 10
8.9273104932
 20
-22.8782457004
 30
0.0
 10
8.8660472921
 20
-22.8810628077
 30
0.0
 11
9.3074652985
 21
-22.8745812256
 31
0.0
 11
9.0499701394
 21
-22.8763268373
 31
0.0
 11
8.8660472921
 21
-22.8810628077
 31
0.0
  0
SPLINE
  5
73A
100
AcDbEntity
  8
RACCORDO
100
AcDbSpline
 62
253
  6
CONTINUOUS
 70
0
 71
3
 72
9
 73
5
 74
3
 42
0.0000001
 43
0.0000001
 44
0.0000000001
 12
0.4410192791
 22
-0.0202800484
 32
0.0
 13
0.4414853168
 23
0.0000019302
 33
0.0
 40
0.0
 40
0.0
 40
0.0
 40
0.0
 40
0.4167397113
 40
1.0
 40
1.0
 40
1.0
 40
1.0
 10
8.866047031
 20
-24.636392246
 30
0.0
 10
8.9273104467
 20
-24.6392094132
 30
0.0
 10
9.0744807471
 20
-24.6418472501
 30
0.0
 10
9.221631848
 20
-24.6428742152
 30
0.0
 10
9.3074654658
 20
-24.6428738399
 30
0.0
 11
8.866047031
 21
-24.636392246
 31
0.0
 11
9.0499705293
 21
-24.6411282326
 31
0.0
 11
9.3074654658
 21
-24.6428738399
 31
0.0
  0
SPLINE
  5
73B
100
AcDbEntity
  8
RACCORDO
100
AcDbSpline
 62
253
  6
CONTINUOUS
 70
0
 71
3
 72
9
 73
5
 74
3
 42
0.0000001
 43
0.0000001
 44
0.0000000001
 12
-0.4414848882
 22
0.0000019377
 32
0.0
 13
-0.4410188675
 23
-0.0202796694
 33
0.0
 40
0.0
 40
0.0
 40
0.0
 40
0.0
 40
0.5832613592
 40
1.0
 40
1.0
 40
1.0
 40
1.0
 10
-13.1925347015
 20
-22.8745812256
 30
0.0
 10
-13.2783683935
 20
-22.8745808488
 30
0.0
 10
-13.4255193531
 20
-22.8756077829
 30
0.0
 10
-13.5726895068
 20
-22.8782457004
 30
0.0
 10
-13.6339527079
 20
-22.8810628077
 30
0.0
 11
-13.1925347015
 21
-22.8745812256
 31
0.0
 11
-13.4500298606
 21
-22.8763268373
 31
0.0
 11
-13.6339527079
 21
-22.8810628077
 31
0.0
  0
SPLINE
  5
73C
100
AcDbEntity
  8
RACCORDO
100
AcDbSpline
 62
253
  6
CONTINUOUS
 70
0
 71
3
 72
9
 73
5
 74
3
 42
0.0000001
 43
0.0000001
 44
0.0000000001
 12
0.4410192791
 22
-0.0202800484
 32
0.0
 13
0.4414853168
 23
0.0000019302
 33
0.0
 40
0.0
 40
0.0
 40
0.0
 40
0.0
 40
0.4167397113
 40
1.0
 40
1.0
 40
1.0
 40
1.0
 10
-13.633952969
 20
-24.636392246
 30
0.0
 10
-13.5726895533
 20
-24.6392094132
 30
0.0
 10
-13.4255192529
 20
-24.6418472501
 30
0.0
 10
-13.278368152
 20
-24.6428742152
 30
0.0
 10
-13.1925345342
 20
-24.6428738399
 30
0.0
 11
-13.633952969
 21
-24.636392246
 31
0.0
 11
-13.4500294707
 21
-24.6411282326
 31
0.0
 11
-13.1925345342
 21
-24.6428738399
 31
0.0
  0
SPLINE
  5
73D
100
AcDbEntity
  8
RACCORDO
100
AcDbSpline
 62
253
  6
CONTINUOUS
 70
0
 71
3
 72
9
 73
5
 74
3
 42
0.0000001
 43
0.0000001
 44
0.0000000001
 12
-0.4410192791
 22
0.0202800484
 32
0.0
 13
-0.4414853168
 23
-0.0000019302
 33
0.0
 40
0.0
 40
0.0
 40
0.0
 40
0.0
 40
0.4167397113
 40
1.0
 40
1.0
 40
1.0
 40
1.0
 10
-8.866047031
 20
-22.881062819
 30
0.0
 10
-8.9273104467
 20
-22.8782456518
 30
0.0
 10
-9.0744807471
 20
-22.8756078148
 30
0.0
 10
-9.221631848
 20
-22.8745808497
 30
0.0
 10
-9.3074654658
 20
-22.874581225
 30
0.0
 11
-8.866047031
 21
-22.881062819
 31
0.0
 11
-9.0499705293
 21
-22.8763268323
 31
0.0
 11
-9.3074654658
 21
-22.874581225
 31
0.0
  0
SPLINE
  5
73E
100
AcDbEntity
  8
RACCORDO
100
AcDbSpline
 62
7
  6
CONTINUOUS
 70
0
 71
3
 72
11
 73
7
 74
5
 42
0.0000001
 43
0.0000001
 44
0.0000000001
 12
0.0011281851
 22
-0.466191847
 32
0.0
 13
0.4661932121
 23
0.0
 33
0.0
 40
0.0
 40
0.0
 40
0.0
 40
0.0
 40
0.2458013698
 40
0.4940625392
 40
0.745761305
 40
1.0
 40
1.0
 40
1.0
 40
1.0
 10
1.1133454422
 20
23.3766929191
 30
0.0
 10
1.1134378787
 20
23.3384960542
 30
0.0
 10
1.1287886995
 20
23.2609512016
 30
0.0
 10
1.1944362988
 20
23.1619638657
 30
0.0
 10
1.2938186127
 20
23.0945659091
 30
0.0
 10
1.3732395358
 20
23.0780926603
 30
0.0
 10
1.4127476538
 20
23.0780926603
 30
0.0
 11
1.1133454422
 21
23.3766929191
 31
0.0
 11
1.1356774783
 21
23.2642991406
 31
0.0
 11
1.1995263828
 21
23.1677666274
 31
0.0
 11
1.2966401153
 21
23.1019057234
 31
0.0
 11
1.4127476538
 21
23.0780926603
 31
0.0
  0
SPLINE
  5
73F
100
AcDbEntity
  8
RACCORDO
100
AcDbSpline
 62
253
  6
CONTINUOUS
 70
0
 71
3
 72
9
 73
5
 74
3
 42
0.0000001
 43
0.0000001
 44
0.0000000001
 12
0.4414848882
 22
-0.0000019377
 32
0.0
 13
0.4410188675
 23
0.0202796694
 33
0.0
 40
0.0
 40
0.0
 40
0.0
 40
0.0
 40
0.5832613592
 40
1.0
 40
1.0
 40
1.0
 40
1.0
 10
-9.3074652985
 20
-24.6428738394
 30
0.0
 10
-9.2216316065
 20
-24.6428742161
 30
0.0
 10
-9.0744806469
 20
-24.6418472821
 30
0.0
 10
-8.9273104932
 20
-24.6392093646
 30
0.0
 10
-8.8660472921
 20
-24.6363922573
 30
0.0
 11
-9.3074652985
 21
-24.6428738394
 31
0.0
 11
-9.0499701394
 21
-24.6411282276
 31
0.0
 11
-8.8660472921
 21
-24.6363922573
 31
0.0
  0
SPLINE
  5
740
100
AcDbEntity
  8
RACCORDO
100
AcDbSpline
 62
7
  6
CONTINUOUS
 70
0
 71
3
 72
11
 73
7
 74
5
 42
0.0000001
 43
0.0000001
 44
0.0000000001
 12
0.0460923045
 22
-0.4349880512
 32
0.0
 13
0.4374232564
 23
0.0
 33
0.0
 40
0.0
 40
0.0
 40
0.0
 40
0.0
 40
0.245941343
 40
0.4943823675
 40
0.7460742448
 40
1.0
 40
1.0
 40
1.0
 40
1.0
 10
1.124350878
 20
23.9648924976
 30
0.0
 10
1.1281295458
 20
23.9292319825
 30
0.0
 10
1.1489749484
 20
23.8582702635
 30
0.0
 10
1.2164084557
 20
23.7699201571
 30
0.0
 10
1.3118932819
 20
23.7106961216
 30
0.0
 10
1.3863386145
 20
23.696798016
 30
0.0
 10
1.423362958
 20
23.696798016
 30
0.0
 11
1.124350878
 21
23.9648924976
 31
0.0
 11
1.1547692041
 21
23.861701987
 31
0.0
 11
1.2205875393
 21
23.7752267919
 31
0.0
 11
1.3141924578
 21
23.7172679949
 31
0.0
 11
1.423362958
 21
23.696798016
 31
0.0
  0
SPLINE
  5
741
100
AcDbEntity
  8
RACCORDO
100
AcDbSpline
 62
7
  6
CONTINUOUS
 70
0
 71
3
 72
11
 73
7
 74
5
 42
0.0000001
 43
0.0000001
 44
0.0000000001
 12
-0.0011311947
 22
-0.4674354771
 32
0.0
 13
-0.4674368458
 23
0.0
 33
0.0
 40
0.0
 40
0.0
 40
0.0
 40
0.0
 40
0.2457813455
 40
0.4940308841
 40
0.7457583596
 40
1.0
 40
1.0
 40
1.0
 40
1.0
 10
-1.1133454422
 20
23.3766929191
 30
0.0
 10
-1.1134381178
 20
23.3383972789
 30
0.0
 10
-1.1288675079
 20
23.260637663
 30
0.0
 10
-1.1948617575
 20
23.1615147536
 30
0.0
 10
-1.2946767584
 20
23.0940464027
 30
0.0
 10
-1.3743970223
 20
23.0780926603
 30
0.0
 10
-1.4140109925
 20
23.0780926603
 30
0.0
 11
-1.1133454422
 21
23.3766929191
 31
0.0
 11
-1.1357921301
 21
23.2640198167
 31
0.0
 11
-1.1999589273
 21
23.167334081
 31
0.0
 11
-1.2975021986
 21
23.101525557
 31
0.0
 11
-1.4140109925
 21
23.0780926603
 31
0.0
  0
SPLINE
  5
742
100
AcDbEntity
  8
RACCORDO
100
AcDbSpline
 62
7
  6
CONTINUOUS
 70
0
 71
3
 72
11
 73
7
 74
5
 42
0.0000001
 43
0.0000001
 44
0.0000000001
 12
-0.0461354669
 22
-0.4336045994
 32
0.0
 13
-0.4360520955
 23
0.0
 33
0.0
 40
0.0
 40
0.0
 40
0.0
 40
0.0
 40
0.2459595111
 40
0.4944129986
 40
0.7460799116
 40
1.0
 40
1.0
 40
1.0
 40
1.0
 10
-1.1243644915
 20
23.9647652194
 30
0.0
 10
-1.1281469771
 20
23.9292154943
 30
0.0
 10
-1.1489187799
 20
23.8584887446
 30
0.0
 10
-1.2160102237
 20
23.7703039332
 30
0.0
 10
-1.3110561287
 20
23.7111705424
 30
0.0
 10
-1.3851921571
 20
23.696798016
 30
0.0
 10
-1.4220996193
 20
23.696798016
 30
0.0
 11
-1.1243644915
 21
23.9647652194
 31
0.0
 11
-1.154676511
 21
23.861886685
 31
0.0
 11
-1.2201799304
 21
23.7755931851
 31
0.0
 11
-1.3133508271
 21
23.7176102021
 31
0.0
 11
-1.4220996193
 21
23.696798016
 31
0.0
  0
SPLINE
  5
743
100
AcDbEntity
  8
RACCORDO
100
AcDbSpline
 62
7
  6
CONTINUOUS
 70
0
 71
3
 72
9
 73
5
 74
3
 42
0.0000001
 43
0.0000001
 44
0.0000000001
 12
0.1599091192
 22
0.2383245002
 32
0.0
 13
0.2870008602
 23
-0.0000000087
 33
0.0
 40
0.0
 40
0.0
 40
0.0
 40
0.0
 40
0.4630619
 40
1.0
 40
1.0
 40
1.0
 40
1.0
 10
-4.1679119071
 20
24.5561489909
 30
0.0
 10
-4.1432293002
 20
24.5929353229
 30
0.0
 10
-4.0714146636
 20
24.6614083244
 30
0.0
 10
-3.9738480372
 20
24.6876799675
 30
0.0
 10
-3.922480805
 20
24.6876799659
 30
0.0
 11
-4.1679119071
 21
24.5561489909
 31
0.0
 11
-4.0711981515
 21
24.6473007171
 31
0.0
 11
-3.922480805
 21
24.6876799659
 31
0.0
  0
SPLINE
  5
744
100
AcDbEntity
  8
RACCORDO
100
AcDbSpline
 62
7
  6
CONTINUOUS
 70
0
 71
3
 72
9
 73
5
 74
3
 42
0.0000001
 43
0.0000001
 44
0.0000000001
 12
0.1803888034
 22
-0.1333042076
 32
0.0
 13
0.2206047692
 23
0.0405421754
 33
0.0
 40
0.0
 40
0.0
 40
0.0
 40
0.0
 40
0.4845782736
 40
1.0
 40
1.0
 40
1.0
 40
1.0
 10
-3.8956361267
 20
23.5825541941
 30
0.0
 10
-3.8664986284
 20
23.5610220865
 30
0.0
 10
-3.7948687959
 20
23.5312181738
 30
0.0
 10
-3.718184094
 20
23.532230413
 30
0.0
 10
-3.680282597
 20
23.5391958524
 30
0.0
 11
-3.8956361267
 21
23.5825541941
 31
0.0
 11
-3.7958911425
 21
23.5393735581
 31
0.0
 11
-3.680282597
 21
23.5391958524
 31
0.0
  0
SPLINE
  5
745
100
AcDbEntity
  8
RACCORDO
100
AcDbSpline
 62
7
  6
CONTINUOUS
 70
0
 71
3
 72
11
 73
7
 74
5
 42
0.0000001
 43
0.0000001
 44
0.0000000001
 12
0.0011281851
 22
-0.466191847
 32
0.0
 13
0.4661932121
 23
0.0
 33
0.0
 40
0.0
 40
0.0
 40
0.0
 40
0.0
 40
0.2458013698
 40
0.4940625392
 40
0.745761305
 40
1.0
 40
1.0
 40
1.0
 40
1.0
 10
-3.9866545578
 20
23.3766929191
 30
0.0
 10
-3.9865621213
 20
23.3384960542
 30
0.0
 10
-3.9712113005
 20
23.2609512016
 30
0.0
 10
-3.9055637012
 20
23.1619638657
 30
0.0
 10
-3.8061813873
 20
23.0945659091
 30
0.0
 10
-3.7267604642
 20
23.0780926603
 30
0.0
 10
-3.6872523462
 20
23.0780926603
 30
0.0
 11
-3.9866545578
 21
23.3766929191
 31
0.0
 11
-3.9643225217
 21
23.2642991406
 31
0.0
 11
-3.9004736172
 21
23.1677666274
 31
0.0
 11
-3.8033598847
 21
23.1019057234
 31
0.0
 11
-3.6872523462
 21
23.0780926603
 31
0.0
  0
SPLINE
  5
746
100
AcDbEntity
  8
RACCORDO
100
AcDbSpline
 62
7
  6
CONTINUOUS
 70
0
 71
3
 72
11
 73
7
 74
5
 42
0.0000001
 43
0.0000001
 44
0.0000000001
 12
-0.0011281851
 22
0.466191847
 32
0.0
 13
-0.4661932121
 23
-0.0
 33
0.0
 40
0.0
 40
0.0
 40
0.0
 40
0.0
 40
0.2458013698
 40
0.4940625392
 40
0.745761305
 40
1.0
 40
1.0
 40
1.0
 40
1.0
 10
3.9866545578
 20
-23.3766929191
 30
0.0
 10
3.9865621213
 20
-23.3384960542
 30
0.0
 10
3.9712113005
 20
-23.2609512016
 30
0.0
 10
3.9055637012
 20
-23.1619638657
 30
0.0
 10
3.8061813873
 20
-23.0945659091
 30
0.0
 10
3.7267604642
 20
-23.0780926603
 30
0.0
 10
3.6872523462
 20
-23.0780926603
 30
0.0
 11
3.9866545578
 21
-23.3766929191
 31
0.0
 11
3.9643225217
 21
-23.2642991406
 31
0.0
 11
3.9004736172
 21
-23.1677666274
 31
0.0
 11
3.8033598847
 21
-23.1019057234
 31
0.0
 11
3.6872523462
 21
-23.0780926603
 31
0.0
  0
SPLINE
  5
747
100
AcDbEntity
  8
RACCORDO
100
AcDbSpline
 62
7
  6
CONTINUOUS
 70
0
 71
3
 72
9
 73
5
 74
3
 42
0.0000001
 43
0.0000001
 44
0.0000000001
 12
-0.1803888034
 22
0.1333042076
 32
0.0
 13
-0.2206047692
 23
-0.0405421754
 33
0.0
 40
0.0
 40
0.0
 40
0.0
 40
0.0
 40
0.4845782736
 40
1.0
 40
1.0
 40
1.0
 40
1.0
 10
3.8956361267
 20
-23.5825541941
 30
0.0
 10
3.8664986284
 20
-23.5610220865
 30
0.0
 10
3.7948687959
 20
-23.5312181738
 30
0.0
 10
3.718184094
 20
-23.532230413
 30
0.0
 10
3.680282597
 20
-23.5391958524
 30
0.0
 11
3.8956361267
 21
-23.5825541941
 31
0.0
 11
3.7958911425
 21
-23.5393735581
 31
0.0
 11
3.680282597
 21
-23.5391958524
 31
0.0
  0
SPLINE
  5
748
100
AcDbEntity
  8
RACCORDO
100
AcDbSpline
 62
7
  6
CONTINUOUS
 70
0
 71
3
 72
11
 73
7
 74
5
 42
0.0000001
 43
0.0000001
 44
0.0000000001
 12
-0.1398273588
 22
0.3158014848
 32
0.0
 13
-0.3453721728
 23
-0.0005747199
 33
0.0
 40
0.0
 40
0.0
 40
0.0
 40
0.0
 40
0.2472452428
 40
0.4957674076
 40
0.7466980674
 40
1.0
 40
1.0
 40
1.0
 40
1.0
 10
4.1106351084
 20
-23.8749511124
 30
0.0
 10
4.0991112254
 20
-23.8489243075
 30
0.0
 10
4.0683285881
 20
-23.7997644046
 30
0.0
 10
4.0029626187
 20
-23.7421664736
 30
0.0
 10
3.9232943132
 20
-23.7051839021
 30
0.0
 10
3.8648780264
 20
-23.6967378478
 30
0.0
 10
3.8357168802
 20
-23.6967863737
 30
0.0
 11
4.1106351084
 21
-23.8749511124
 31
0.0
 11
4.0652698869
 21
-23.8026064735
 31
0.0
 11
4.0009109849
 21
-23.7458156799
 31
0.0
 11
3.9222945032
 21
-23.7093437801
 31
0.0
 11
3.8357168802
 21
-23.6967863737
 31
0.0
  0
SPLINE
  5
749
100
AcDbEntity
  8
RACCORDO
100
AcDbSpline
 62
7
  6
CONTINUOUS
 70
0
 71
3
 72
9
 73
5
 74
3
 42
0.0000001
 43
0.0000001
 44
0.0000000001
 12
-0.1599091189
 22
-0.2383244996
 32
0.0
 13
-0.2870008596
 23
0.0000000075
 33
0.0
 40
0.0
 40
0.0
 40
0.0
 40
0.0
 40
0.4630619009
 40
1.0
 40
1.0
 40
1.0
 40
1.0
 10
4.1679119068
 20
-24.5561489912
 30
0.0
 10
4.1432293
 20
-24.5929353231
 30
0.0
 10
4.0714146626
 20
-24.6614083235
 30
0.0
 10
3.973848037
 20
-24.6876799673
 30
0.0
 10
3.922480805
 20
-24.6876799659
 30
0.0
 11
4.1679119068
 21
-24.5561489912
 31
0.0
 11
4.0711981508
 21
-24.6473007168
 31
0.0
 11
3.922480805
 21
-24.6876799659
 31
0.0
  0
SPLINE
  5
74A
100
AcDbEntity
  8
RACCORDO
100
AcDbSpline
 62
7
  6
CONTINUOUS
 70
0
 71
3
 72
11
 73
7
 74
5
 42
0.0000001
 43
0.0000001
 44
0.0000000001
 12
0.0011311947
 22
0.4674354771
 32
0.0
 13
0.4674368458
 23
0.0
 33
0.0
 40
0.0
 40
0.0
 40
0.0
 40
0.0
 40
0.2457813455
 40
0.4940308841
 40
0.7457583596
 40
1.0
 40
1.0
 40
1.0
 40
1.0
 10
1.1133454422
 20
-23.3766929191
 30
0.0
 10
1.1134381178
 20
-23.3383972789
 30
0.0
 10
1.1288675079
 20
-23.260637663
 30
0.0
 10
1.1948617575
 20
-23.1615147536
 30
0.0
 10
1.2946767584
 20
-23.0940464027
 30
0.0
 10
1.3743970223
 20
-23.0780926603
 30
0.0
 10
1.4140109925
 20
-23.0780926603
 30
0.0
 11
1.1133454422
 21
-23.3766929191
 31
0.0
 11
1.1357921301
 21
-23.2640198167
 31
0.0
 11
1.1999589273
 21
-23.167334081
 31
0.0
 11
1.2975021986
 21
-23.101525557
 31
0.0
 11
1.4140109925
 21
-23.0780926603
 31
0.0
  0
SPLINE
  5
74B
100
AcDbEntity
  8
RACCORDO
100
AcDbSpline
 62
7
  6
CONTINUOUS
 70
0
 71
3
 72
11
 73
7
 74
5
 42
0.0000001
 43
0.0000001
 44
0.0000000001
 12
0.0461354669
 22
0.4336045994
 32
0.0
 13
0.4360520955
 23
0.0
 33
0.0
 40
0.0
 40
0.0
 40
0.0
 40
0.0
 40
0.2459595111
 40
0.4944129986
 40
0.7460799116
 40
1.0
 40
1.0
 40
1.0
 40
1.0
 10
1.1243644915
 20
-23.9647652194
 30
0.0
 10
1.1281469771
 20
-23.9292154943
 30
0.0
 10
1.1489187799
 20
-23.8584887446
 30
0.0
 10
1.2160102237
 20
-23.7703039332
 30
0.0
 10
1.3110561287
 20
-23.7111705424
 30
0.0
 10
1.3851921571
 20
-23.696798016
 30
0.0
 10
1.4220996193
 20
-23.696798016
 30
0.0
 11
1.1243644915
 21
-23.9647652194
 31
0.0
 11
1.154676511
 21
-23.861886685
 31
0.0
 11
1.2201799304
 21
-23.7755931851
 31
0.0
 11
1.3133508271
 21
-23.7176102021
 31
0.0
 11
1.4220996193
 21
-23.696798016
 31
0.0
  0
SPLINE
  5
74C
100
AcDbEntity
  8
RACCORDO
100
AcDbSpline
 62
253
  6
CONTINUOUS
 70
0
 71
3
 72
9
 73
5
 74
3
 42
0.0000001
 43
0.0000001
 44
0.0000000001
 12
-0.2649047558
 22
-0.0000005304
 32
0.0
 13
-0.2647621058
 23
0.0086923505
 33
0.0
 40
0.0
 40
0.0
 40
0.0
 40
0.0
 40
0.5832812844
 40
1.0
 40
1.0
 40
1.0
 40
1.0
 10
14.7504303095
 20
-22.7060306927
 30
0.0
 10
14.6989256475
 20
-22.7060307959
 30
0.0
 10
14.6106273238
 20
-22.7055909916
 30
0.0
 10
14.5223231399
 20
-22.7044599919
 30
0.0
 10
14.4855460317
 20
-22.7032525702
 30
0.0
 11
14.7504303095
 21
-22.7060306927
 31
0.0
 11
14.5959181344
 21
-22.7052825802
 31
0.0
 11
14.4855460317
 21
-22.7032525702
 31
0.0
  0
SPLINE
  5
74D
100
AcDbEntity
  8
RACCORDO
100
AcDbSpline
 62
253
  6
CONTINUOUS
 70
0
 71
3
 72
9
 73
5
 74
3
 42
0.0000001
 43
0.0000001
 44
0.0000000001
 12
-0.6177768112
 22
0.0203259176
 32
0.0
 13
-0.6181110989
 23
-0.0000278157
 33
0.0
 40
0.0
 40
0.0
 40
0.0
 40
0.0
 40
0.4167164624
 40
1.0
 40
1.0
 40
1.0
 40
1.0
 10
13.8105560285
 20
-22.6810938617
 30
0.0
 10
13.7247434394
 20
-22.6782704802
 30
0.0
 10
13.5187000102
 20
-22.675643225
 30
0.0
 10
13.312670723
 20
-22.6746061677
 30
0.0
 10
13.1924927135
 20
-22.6746115759
 30
0.0
 11
13.8105560285
 21
-22.6810938617
 31
0.0
 11
13.5530225173
 21
-22.6763569812
 31
0.0
 11
13.1924927135
 21
-22.6746115759
 31
0.0
  0
SPLINE
  5
74E
100
AcDbEntity
  8
RACCORDO
100
AcDbSpline
 62
253
  6
CONTINUOUS
 70
0
 71
3
 72
9
 73
5
 74
3
 42
0.0000001
 43
0.0000001
 44
0.0000000001
 12
-0.618111099
 22
0.0000279388
 32
0.0
 13
-0.6177767873
 23
-0.0203266472
 33
0.0
 40
0.0
 40
0.0
 40
0.0
 40
0.0
 40
0.5832847887
 40
1.0
 40
1.0
 40
1.0
 40
1.0
 10
9.3075072865
 20
-22.6746115759
 30
0.0
 10
9.1873290192
 20
-22.6746061438
 30
0.0
 10
8.9812997342
 20
-22.6756433022
 30
0.0
 10
8.7752562996
 20
-22.6782703873
 30
0.0
 10
8.6894439715
 20
-22.6810938617
 30
0.0
 11
9.3075072865
 21
-22.6746115759
 31
0.0
 11
8.9469767093
 21
-22.6763569879
 31
0.0
 11
8.6894439715
 21
-22.6810938617
 31
0.0
  0
SPLINE
  5
74F
100
AcDbEntity
  8
RACCORDO
100
AcDbSpline
 62
253
  6
CONTINUOUS
 70
0
 71
3
 72
9
 73
5
 74
3
 42
0.0000001
 43
0.0000001
 44
0.0000000001
 12
-0.2647621058
 22
-0.0086923505
 32
0.0
 13
-0.2649047558
 23
0.0000005304
 33
0.0
 40
0.0
 40
0.0
 40
0.0
 40
0.0
 40
0.4167187156
 40
1.0
 40
1.0
 40
1.0
 40
1.0
 10
8.0144539683
 20
-22.7032525702
 30
0.0
 10
7.9776768601
 20
-22.704459992
 30
0.0
 10
7.8893726762
 20
-22.7055909916
 30
0.0
 10
7.8010743525
 20
-22.7060307959
 30
0.0
 10
7.7495696905
 20
-22.7060306927
 30
0.0
 11
8.0144539683
 21
-22.7032525702
 31
0.0
 11
7.9040818656
 21
-22.7052825802
 31
0.0
 11
7.7495696905
 21
-22.7060306927
 31
0.0
  0
SPLINE
  5
750
100
AcDbEntity
  8
RACCORDO
100
AcDbSpline
 62
253
  6
CONTINUOUS
 70
0
 71
3
 72
9
 73
5
 74
3
 42
0.0000001
 43
0.0000001
 44
0.0000000001
 12
-0.2649047558
 22
-0.0000005304
 32
0.0
 13
-0.2647621058
 23
0.0086923505
 33
0.0
 40
0.0
 40
0.0
 40
0.0
 40
0.0
 40
0.5832812844
 40
1.0
 40
1.0
 40
1.0
 40
1.0
 10
-7.7495696905
 20
-22.7060306927
 30
0.0
 10
-7.8010743525
 20
-22.7060307959
 30
0.0
 10
-7.8893726762
 20
-22.7055909916
 30
0.0
 10
-7.9776768601
 20
-22.7044599919
 30
0.0
 10
-8.0144539683
 20
-22.7032525702
 30
0.0
 11
-7.7495696905
 21
-22.7060306927
 31
0.0
 11
-7.9040818656
 21
-22.7052825802
 31
0.0
 11
-8.0144539683
 21
-22.7032525702
 31
0.0
  0
SPLINE
  5
751
100
AcDbEntity
  8
RACCORDO
100
AcDbSpline
 62
253
  6
CONTINUOUS
 70
0
 71
3
 72
9
 73
5
 74
3
 42
0.0000001
 43
0.0000001
 44
0.0000000001
 12
-0.6177768112
 22
0.0203259176
 32
0.0
 13
-0.6181110989
 23
-0.0000278157
 33
0.0
 40
0.0
 40
0.0
 40
0.0
 40
0.0
 40
0.4167164624
 40
1.0
 40
1.0
 40
1.0
 40
1.0
 10
-8.6894439715
 20
-22.6810938617
 30
0.0
 10
-8.7752565606
 20
-22.6782704802
 30
0.0
 10
-8.9812999898
 20
-22.675643225
 30
0.0
 10
-9.187329277
 20
-22.6746061677
 30
0.0
 10
-9.3075072865
 20
-22.6746115759
 30
0.0
 11
-8.6894439715
 21
-22.6810938617
 31
0.0
 11
-8.9469774827
 21
-22.6763569812
 31
0.0
 11
-9.3075072865
 21
-22.6746115759
 31
0.0
  0
SPLINE
  5
752
100
AcDbEntity
  8
RACCORDO
100
AcDbSpline
 62
253
  6
CONTINUOUS
 70
0
 71
3
 72
9
 73
5
 74
3
 42
0.0000001
 43
0.0000001
 44
0.0000000001
 12
-0.618111099
 22
0.0000279388
 32
0.0
 13
-0.6177767873
 23
-0.0203266472
 33
0.0
 40
0.0
 40
0.0
 40
0.0
 40
0.0
 40
0.5832847887
 40
1.0
 40
1.0
 40
1.0
 40
1.0
 10
-13.1924927135
 20
-22.6746115759
 30
0.0
 10
-13.3126709808
 20
-22.6746061438
 30
0.0
 10
-13.5187002658
 20
-22.6756433022
 30
0.0
 10
-13.7247437004
 20
-22.6782703873
 30
0.0
 10
-13.8105560285
 20
-22.6810938617
 30
0.0
 11
-13.1924927135
 21
-22.6746115759
 31
0.0
 11
-13.5530232907
 21
-22.6763569879
 31
0.0
 11
-13.8105560285
 21
-22.6810938617
 31
0.0
  0
SPLINE
  5
753
100
AcDbEntity
  8
RACCORDO
100
AcDbSpline
 62
253
  6
CONTINUOUS
 70
0
 71
3
 72
9
 73
5
 74
3
 42
0.0000001
 43
0.0000001
 44
0.0000000001
 12
-0.2647621058
 22
-0.0086923505
 32
0.0
 13
-0.2649047558
 23
0.0000005304
 33
0.0
 40
0.0
 40
0.0
 40
0.0
 40
0.0
 40
0.4167187156
 40
1.0
 40
1.0
 40
1.0
 40
1.0
 10
-14.4855460317
 20
-22.7032525702
 30
0.0
 10
-14.5223231399
 20
-22.704459992
 30
0.0
 10
-14.6106273238
 20
-22.7055909916
 30
0.0
 10
-14.6989256475
 20
-22.7060307959
 30
0.0
 10
-14.7504303095
 20
-22.7060306927
 30
0.0
 11
-14.4855460317
 21
-22.7032525702
 31
0.0
 11
-14.5959181344
 21
-22.7052825802
 31
0.0
 11
-14.7504303095
 21
-22.7060306927
 31
0.0
  0
SPLINE
  5
754
100
AcDbEntity
  8
RACCORDO
100
AcDbSpline
 62
253
  6
CONTINUOUS
 70
0
 71
3
 72
9
 73
5
 74
3
 42
0.0000001
 43
0.0000001
 44
0.0000000001
 12
0.2649047558
 22
0.0000005304
 32
0.0
 13
0.2647621058
 23
-0.0086923505
 33
0.0
 40
0.0
 40
0.0
 40
0.0
 40
0.0
 40
0.5832812844
 40
1.0
 40
1.0
 40
1.0
 40
1.0
 10
-14.7504303095
 20
22.7060306927
 30
0.0
 10
-14.6989256475
 20
22.7060307959
 30
0.0
 10
-14.6106273238
 20
22.7055909916
 30
0.0
 10
-14.5223231399
 20
22.7044599919
 30
0.0
 10
-14.4855460317
 20
22.7032525702
 30
0.0
 11
-14.7504303095
 21
22.7060306927
 31
0.0
 11
-14.5959181344
 21
22.7052825802
 31
0.0
 11
-14.4855460317
 21
22.7032525702
 31
0.0
  0
SPLINE
  5
755
100
AcDbEntity
  8
RACCORDO
100
AcDbSpline
 62
253
  6
CONTINUOUS
 70
0
 71
3
 72
9
 73
5
 74
3
 42
0.0000001
 43
0.0000001
 44
0.0000000001
 12
0.6177768112
 22
-0.0203259176
 32
0.0
 13
0.6181110989
 23
0.0000278157
 33
0.0
 40
0.0
 40
0.0
 40
0.0
 40
0.0
 40
0.4167164624
 40
1.0
 40
1.0
 40
1.0
 40
1.0
 10
-13.8105560285
 20
22.6810938617
 30
0.0
 10
-13.7247434394
 20
22.6782704802
 30
0.0
 10
-13.5187000102
 20
22.675643225
 30
0.0
 10
-13.312670723
 20
22.6746061677
 30
0.0
 10
-13.1924927135
 20
22.6746115759
 30
0.0
 11
-13.8105560285
 21
22.6810938617
 31
0.0
 11
-13.5530225173
 21
22.6763569812
 31
0.0
 11
-13.1924927135
 21
22.6746115759
 31
0.0
  0
SPLINE
  5
756
100
AcDbEntity
  8
RACCORDO
100
AcDbSpline
 62
253
  6
CONTINUOUS
 70
0
 71
3
 72
9
 73
5
 74
3
 42
0.0000001
 43
0.0000001
 44
0.0000000001
 12
0.618111099
 22
-0.0000279388
 32
0.0
 13
0.6177767873
 23
0.0203266472
 33
0.0
 40
0.0
 40
0.0
 40
0.0
 40
0.0
 40
0.5832847887
 40
1.0
 40
1.0
 40
1.0
 40
1.0
 10
-9.3075072865
 20
22.6746115759
 30
0.0
 10
-9.1873290192
 20
22.6746061438
 30
0.0
 10
-8.9812997342
 20
22.6756433022
 30
0.0
 10
-8.7752562996
 20
22.6782703873
 30
0.0
 10
-8.6894439715
 20
22.6810938617
 30
0.0
 11
-9.3075072865
 21
22.6746115759
 31
0.0
 11
-8.9469767093
 21
22.6763569879
 31
0.0
 11
-8.6894439715
 21
22.6810938617
 31
0.0
  0
SPLINE
  5
757
100
AcDbEntity
  8
RACCORDO
100
AcDbSpline
 62
253
  6
CONTINUOUS
 70
0
 71
3
 72
9
 73
5
 74
3
 42
0.0000001
 43
0.0000001
 44
0.0000000001
 12
0.2647621058
 22
0.0086923505
 32
0.0
 13
0.2649047558
 23
-0.0000005304
 33
0.0
 40
0.0
 40
0.0
 40
0.0
 40
0.0
 40
0.4167187156
 40
1.0
 40
1.0
 40
1.0
 40
1.0
 10
-8.0144539683
 20
22.7032525702
 30
0.0
 10
-7.9776768601
 20
22.704459992
 30
0.0
 10
-7.8893726762
 20
22.7055909916
 30
0.0
 10
-7.8010743525
 20
22.7060307959
 30
0.0
 10
-7.7495696905
 20
22.7060306927
 30
0.0
 11
-8.0144539683
 21
22.7032525702
 31
0.0
 11
-7.9040818656
 21
22.7052825802
 31
0.0
 11
-7.7495696905
 21
22.7060306927
 31
0.0
  0
SPLINE
  5
758
100
AcDbEntity
  8
RACCORDO
100
AcDbSpline
 62
253
  6
CONTINUOUS
 70
0
 71
3
 72
9
 73
5
 74
3
 42
0.0000001
 43
0.0000001
 44
0.0000000001
 12
0.2649047558
 22
0.0000005304
 32
0.0
 13
0.2647621058
 23
-0.0086923505
 33
0.0
 40
0.0
 40
0.0
 40
0.0
 40
0.0
 40
0.5832812844
 40
1.0
 40
1.0
 40
1.0
 40
1.0
 10
7.7495696905
 20
22.7060306927
 30
0.0
 10
7.8010743525
 20
22.7060307959
 30
0.0
 10
7.8893726762
 20
22.7055909916
 30
0.0
 10
7.9776768601
 20
22.7044599919
 30
0.0
 10
8.0144539683
 20
22.7032525702
 30
0.0
 11
7.7495696905
 21
22.7060306927
 31
0.0
 11
7.9040818656
 21
22.7052825802
 31
0.0
 11
8.0144539683
 21
22.7032525702
 31
0.0
  0
SPLINE
  5
759
100
AcDbEntity
  8
RACCORDO
100
AcDbSpline
 62
253
  6
CONTINUOUS
 70
0
 71
3
 72
9
 73
5
 74
3
 42
0.0000001
 43
0.0000001
 44
0.0000000001
 12
0.6177768112
 22
-0.0203259176
 32
0.0
 13
0.6181110989
 23
0.0000278157
 33
0.0
 40
0.0
 40
0.0
 40
0.0
 40
0.0
 40
0.4167164624
 40
1.0
 40
1.0
 40
1.0
 40
1.0
 10
8.6894439715
 20
22.6810938617
 30
0.0
 10
8.7752565606
 20
22.6782704802
 30
0.0
 10
8.9812999898
 20
22.675643225
 30
0.0
 10
9.187329277
 20
22.6746061677
 30
0.0
 10
9.3075072865
 20
22.6746115759
 30
0.0
 11
8.6894439715
 21
22.6810938617
 31
0.0
 11
8.9469774827
 21
22.6763569812
 31
0.0
 11
9.3075072865
 21
22.6746115759
 31
0.0
  0
SPLINE
  5
75A
100
AcDbEntity
  8
RACCORDO
100
AcDbSpline
 62
253
  6
CONTINUOUS
 70
0
 71
3
 72
9
 73
5
 74
3
 42
0.0000001
 43
0.0000001
 44
0.0000000001
 12
0.618111099
 22
-0.0000279388
 32
0.0
 13
0.6177767873
 23
0.0203266472
 33
0.0
 40
0.0
 40
0.0
 40
0.0
 40
0.0
 40
0.5832847887
 40
1.0
 40
1.0
 40
1.0
 40
1.0
 10
13.1924927135
 20
22.6746115759
 30
0.0
 10
13.3126709808
 20
22.6746061438
 30
0.0
 10
13.5187002658
 20
22.6756433022
 30
0.0
 10
13.7247437004
 20
22.6782703873
 30
0.0
 10
13.8105560285
 20
22.6810938617
 30
0.0
 11
13.1924927135
 21
22.6746115759
 31
0.0
 11
13.5530232907
 21
22.6763569879
 31
0.0
 11
13.8105560285
 21
22.6810938617
 31
0.0
  0
SPLINE
  5
75B
100
AcDbEntity
  8
RACCORDO
100
AcDbSpline
 62
253
  6
CONTINUOUS
 70
0
 71
3
 72
9
 73
5
 74
3
 42
0.0000001
 43
0.0000001
 44
0.0000000001
 12
0.2647621058
 22
0.0086923505
 32
0.0
 13
0.2649047558
 23
-0.0000005304
 33
0.0
 40
0.0
 40
0.0
 40
0.0
 40
0.0
 40
0.4167187156
 40
1.0
 40
1.0
 40
1.0
 40
1.0
 10
14.4855460317
 20
22.7032525702
 30
0.0
 10
14.5223231399
 20
22.704459992
 30
0.0
 10
14.6106273238
 20
22.7055909916
 30
0.0
 10
14.6989256475
 20
22.7060307959
 30
0.0
 10
14.7504303095
 20
22.7060306927
 30
0.0
 11
14.4855460317
 21
22.7032525702
 31
0.0
 11
14.5959181344
 21
22.7052825802
 31
0.0
 11
14.7504303095
 21
22.7060306927
 31
0.0
  0
SPLINE
  5
75C
100
AcDbEntity
  8
RACCORDO
100
AcDbSpline
 62
7
  6
CONTINUOUS
 70
0
 71
3
 72
11
 73
7
 74
5
 42
0.0000001
 43
0.0000001
 44
0.0000000001
 12
0.0011311947
 22
0.4674354771
 32
0.0
 13
0.4674368458
 23
0.0
 33
0.0
 40
0.0
 40
0.0
 40
0.0
 40
0.0
 40
0.2457813455
 40
0.4940308841
 40
0.7457583596
 40
1.0
 40
1.0
 40
1.0
 40
1.0
 10
-3.9866545578
 20
-23.3766929191
 30
0.0
 10
-3.9865618822
 20
-23.3383972789
 30
0.0
 10
-3.9711324921
 20
-23.260637663
 30
0.0
 10
-3.9051382425
 20
-23.1615147536
 30
0.0
 10
-3.8053232416
 20
-23.0940464027
 30
0.0
 10
-3.7256029777
 20
-23.0780926603
 30
0.0
 10
-3.6859890075
 20
-23.0780926603
 30
0.0
 11
-3.9866545578
 21
-23.3766929191
 31
0.0
 11
-3.9642078699
 21
-23.2640198167
 31
0.0
 11
-3.9000410727
 21
-23.167334081
 31
0.0
 11
-3.8024978014
 21
-23.101525557
 31
0.0
 11
-3.6859890075
 21
-23.0780926603
 31
0.0
  0
SPLINE
  5
75D
100
AcDbEntity
  8
RACCORDO
100
AcDbSpline
 62
7
  6
CONTINUOUS
 70
0
 71
3
 72
15
 73
11
 74
9
 42
0.0000001
 43
0.0000001
 44
0.0000000001
 12
-0.0919749531
 22
-0.0679682751
 32
0.0
 13
-0.1063688654
 23
0.042008843
 33
0.0
 40
0.0
 40
0.0
 40
0.0
 40
0.0
 40
0.2784096008
 40
0.5074648552
 40
0.6832522142
 40
0.8119790172
 40
0.9009416184
 40
0.9578658759
 40
0.9892929221
 40
1.0
 40
1.0
 40
1.0
 40
1.0
 10
-3.8956378316
 20
-23.5825549392
 30
0.0
 10
-3.9041734016
 20
-23.5888626127
 30
0.0
 10
-3.9194537777
 20
-23.6007348528
 30
0.0
 10
-3.9393721769
 20
-23.6175433541
 30
0.0
 10
-3.9544985747
 20
-23.6311017795
 30
0.0
 10
-3.9654389878
 20
-23.6414682005
 30
0.0
 10
-3.9729973044
 20
-23.6484839954
 30
0.0
 10
-3.9779516456
 20
-23.6535288772
 30
0.0
 10
-3.9806801575
 20
-23.6554287423
 30
0.0
 10
-3.9820396443
 20
-23.6570396203
 30
0.0
 10
-3.9824192776
 20
-23.6568896896
 30
0.0
 11
-3.8956378316
 21
-23.5825549392
 31
0.0
 11
-3.9207934363
 21
-23.6020736443
 31
0.0
 11
-3.9408210085
 21
-23.6189587658
 31
0.0
 11
-3.9557774129
 21
-23.6323924968
 31
0.0
 11
-3.9665232194
 21
-23.6424550853
 31
0.0
 11
-3.9739017662
 21
-23.6494600391
 31
0.0
 11
-3.9786495197
 21
-23.6539142399
 31
0.0
 11
-3.9813615475
 21
-23.6562727516
 31
0.0
 11
-3.9824192776
 21
-23.6568896896
 31
0.0
  0
SPLINE
  5
75E
100
AcDbEntity
  8
RACCORDO
100
AcDbSpline
 62
7
  6
CONTINUOUS
 70
0
 71
3
 72
9
 73
5
 74
3
 42
0.0000001
 43
0.0000001
 44
0.0000000001
 12
0.1803897982
 22
0.1333056775
 32
0.0
 13
0.2206065287
 23
-0.0405418608
 33
0.0
 40
0.0
 40
0.0
 40
0.0
 40
0.0
 40
0.4845759943
 40
1.0
 40
1.0
 40
1.0
 40
1.0
 10
-3.8956378316
 20
-23.5825549392
 30
0.0
 10
-3.8665003097
 20
-23.5610226955
 30
0.0
 10
-3.7948697529
 20
-23.5312192208
 30
0.0
 10
-3.7181845639
 20
-23.5322304363
 30
0.0
 10
-3.680282597
 20
-23.5391958524
 30
0.0
 11
-3.8956378316
 21
-23.5825549392
 31
0.0
 11
-3.7958925152
 21
-23.5393743161
 31
0.0
 11
-3.680282597
 21
-23.5391958524
 31
0.0
  0
SPLINE
  5
75F
100
AcDbEntity
  8
RACCORDO
100
AcDbSpline
 62
7
  6
CONTINUOUS
 70
0
 71
3
 72
9
 73
5
 74
3
 42
0.0000001
 43
0.0000001
 44
0.0000000001
 12
-0.2870010227
 22
-0.0000000737
 32
0.0
 13
-0.1599093251
 23
0.2383245576
 33
0.0
 40
0.0
 40
0.0
 40
0.0
 40
0.0
 40
0.5369381504
 40
1.0
 40
1.0
 40
1.0
 40
1.0
 10
-3.922480805
 20
-24.6876799659
 30
0.0
 10
-3.9738480711
 20
-24.6876799791
 30
0.0
 10
-4.0714147992
 20
-24.6614083631
 30
0.0
 10
-4.143229364
 20
-24.5929352158
 30
0.0
 10
-4.1679119999
 20
-24.556148879
 30
0.0
 11
-3.922480805
 21
-24.6876799659
 31
0.0
 11
-4.0711982531
 21
-24.6473007031
 31
0.0
 11
-4.1679119999
 21
-24.556148879
 31
0.0
  0
SPLINE
  5
760
100
AcDbEntity
  8
RACCORDO
100
AcDbSpline
 62
7
  6
CONTINUOUS
 70
0
 71
3
 72
11
 73
7
 74
5
 42
0.0000001
 43
0.0000001
 44
0.0000000001
 12
-0.0460923045
 22
0.4349880512
 32
0.0
 13
-0.4374232564
 23
0.0
 33
0.0
 40
0.0
 40
0.0
 40
0.0
 40
0.0
 40
0.245941343
 40
0.4943823675
 40
0.7460742448
 40
1.0
 40
1.0
 40
1.0
 40
1.0
 10
-1.124350878
 20
-23.9648924976
 30
0.0
 10
-1.1281295458
 20
-23.9292319825
 30
0.0
 10
-1.1489749484
 20
-23.8582702635
 30
0.0
 10
-1.2164084557
 20
-23.7699201571
 30
0.0
 10
-1.3118932819
 20
-23.7106961216
 30
0.0
 10
-1.3863386145
 20
-23.696798016
 30
0.0
 10
-1.423362958
 20
-23.696798016
 30
0.0
 11
-1.124350878
 21
-23.9648924976
 31
0.0
 11
-1.1547692041
 21
-23.861701987
 31
0.0
 11
-1.2205875393
 21
-23.7752267919
 31
0.0
 11
-1.3141924578
 21
-23.7172679949
 31
0.0
 11
-1.423362958
 21
-23.696798016
 31
0.0
  0
SPLINE
  5
761
100
AcDbEntity
  8
RACCORDO
100
AcDbSpline
 62
7
  6
CONTINUOUS
 70
0
 71
3
 72
11
 73
7
 74
5
 42
0.0000001
 43
0.0000001
 44
0.0000000001
 12
-0.0011281851
 22
0.466191847
 32
0.0
 13
-0.4661932121
 23
0.0
 33
0.0
 40
0.0
 40
0.0
 40
0.0
 40
0.0
 40
0.2458013698
 40
0.4940625392
 40
0.745761305
 40
1.0
 40
1.0
 40
1.0
 40
1.0
 10
-1.1133454422
 20
-23.3766929191
 30
0.0
 10
-1.1134378787
 20
-23.3384960542
 30
0.0
 10
-1.1287886995
 20
-23.2609512016
 30
0.0
 10
-1.1944362988
 20
-23.1619638657
 30
0.0
 10
-1.2938186127
 20
-23.0945659091
 30
0.0
 10
-1.3732395358
 20
-23.0780926603
 30
0.0
 10
-1.4127476538
 20
-23.0780926603
 30
0.0
 11
-1.1133454422
 21
-23.3766929191
 31
0.0
 11
-1.1356774783
 21
-23.2642991406
 31
0.0
 11
-1.1995263828
 21
-23.1677666274
 31
0.0
 11
-1.2966401153
 21
-23.1019057234
 31
0.0
 11
-1.4127476538
 21
-23.0780926603
 31
0.0
  0
SPLINE
  5
762
100
AcDbEntity
  8
RACCORDO
100
AcDbSpline
 62
7
  6
CONTINUOUS
 70
0
 71
3
 72
9
 73
5
 74
3
 42
0.0000001
 43
0.0000001
 44
0.0000000001
 12
-0.1634834367
 22
-0.0929657725
 32
0.0
 13
-0.1880380933
 23
-0.0033383224
 33
0.0
 40
0.0
 40
0.0
 40
0.0
 40
0.0
 40
0.5314092582
 40
1.0
 40
1.0
 40
1.0
 40
1.0
 10
-4.6293326935
 20
-24.8931196239
 30
0.0
 10
-4.6582915641
 20
-24.909587248
 30
0.0
 10
-4.715038607
 20
-24.93669166
 30
0.0
 10
-4.7772879995
 20
-24.951146371
 30
0.0
 10
-4.8066589694
 20
-24.9516678067
 30
0.0
 11
-4.6293326935
 21
-24.8931196239
 31
0.0
 11
-4.7201572125
 21
-24.9348220965
 31
0.0
 11
-4.8066589694
 21
-24.9516678067
 31
0.0
  0
SPLINE
  5
763
100
AcDbEntity
  8
RACCORDO
100
AcDbSpline
 62
7
  6
CONTINUOUS
 70
0
 71
3
 72
9
 73
5
 74
3
 42
0.0000001
 43
0.0000001
 44
0.0000000001
 12
-0.1880380933
 22
0.0033383224
 32
0.0
 13
-0.1634834367
 23
0.0929657725
 33
0.0
 40
0.0
 40
0.0
 40
0.0
 40
0.0
 40
0.4685907418
 40
1.0
 40
1.0
 40
1.0
 40
1.0
 10
4.8066589694
 20
-24.9516678067
 30
0.0
 10
4.7772879995
 20
-24.951146371
 30
0.0
 10
4.715038607
 20
-24.93669166
 30
0.0
 10
4.6582915641
 20
-24.909587248
 30
0.0
 10
4.6293326935
 20
-24.8931196239
 30
0.0
 11
4.8066589694
 21
-24.9516678067
 31
0.0
 11
4.7201572125
 21
-24.9348220965
 31
0.0
 11
4.6293326935
 21
-24.8931196239
 31
0.0
  0
SPLINE
  5
764
100
AcDbEntity
  8
RACCORDO
100
AcDbSpline
 62
7
  6
CONTINUOUS
 70
0
 71
3
 72
9
 73
5
 74
3
 42
0.0000001
 43
0.0000001
 44
0.0000000001
 12
0.1880380933
 22
-0.0033383224
 32
0.0
 13
0.1634834367
 23
-0.0929657725
 33
0.0
 40
0.0
 40
0.0
 40
0.0
 40
0.0
 40
0.4685907418
 40
1.0
 40
1.0
 40
1.0
 40
1.0
 10
-4.8066589694
 20
24.9516678067
 30
0.0
 10
-4.7772879995
 20
24.951146371
 30
0.0
 10
-4.715038607
 20
24.93669166
 30
0.0
 10
-4.6582915641
 20
24.909587248
 30
0.0
 10
-4.6293326935
 20
24.8931196239
 30
0.0
 11
-4.8066589694
 21
24.9516678067
 31
0.0
 11
-4.7201572125
 21
24.9348220965
 31
0.0
 11
-4.6293326935
 21
24.8931196239
 31
0.0
  0
SPLINE
  5
765
100
AcDbEntity
  8
RACCORDO
100
AcDbSpline
 62
7
  6
CONTINUOUS
 70
0
 71
3
 72
9
 73
5
 74
3
 42
0.0000001
 43
0.0000001
 44
0.0000000001
 12
0.1634834367
 22
0.0929657725
 32
0.0
 13
0.1880380933
 23
0.0033383224
 33
0.0
 40
0.0
 40
0.0
 40
0.0
 40
0.0
 40
0.5314092582
 40
1.0
 40
1.0
 40
1.0
 40
1.0
 10
4.6293326935
 20
24.8931196239
 30
0.0
 10
4.6582915641
 20
24.909587248
 30
0.0
 10
4.715038607
 20
24.93669166
 30
0.0
 10
4.7772879995
 20
24.951146371
 30
0.0
 10
4.8066589694
 20
24.9516678067
 30
0.0
 11
4.6293326935
 21
24.8931196239
 31
0.0
 11
4.7201572125
 21
24.9348220965
 31
0.0
 11
4.8066589694
 21
24.9516678067
 31
0.0
  0
SPLINE
  5
766
100
AcDbEntity
  8
RACCORDO
100
AcDbSpline
 62
7
  6
CONTINUOUS
 70
0
 71
3
 72
11
 73
7
 74
5
 42
0.0000001
 43
0.0000001
 44
0.0000000001
 12
-0.0281049906
 22
0.2959846211
 32
0.0
 13
-0.2973159707
 23
0.0
 33
0.0
 40
0.0
 40
0.0
 40
0.0
 40
0.0
 40
0.2410585634
 40
0.4870447389
 40
0.7404994285
 40
1.0
 40
1.0
 40
1.0
 40
1.0
 10
5.5516259108
 20
-24.2072634133
 30
0.0
 10
5.5493675946
 20
-24.1834802041
 30
0.0
 10
5.5358598683
 20
-24.1358129127
 30
0.0
 10
5.4908447449
 20
-24.0758907494
 30
0.0
 10
5.4256498857
 20
-24.0348354891
 30
0.0
 10
5.3741374387
 20
-24.026132614
 30
0.0
 10
5.3484195506
 20
-24.026132614
 30
0.0
 11
5.5516259108
 21
-24.2072634133
 31
0.0
 11
5.5320526053
 21
-24.1383173838
 31
0.0
 11
5.4882563246
 21
-24.0797451677
 31
0.0
 11
5.4243507821
 21
-24.03981238
 31
0.0
 11
5.3484195506
 21
-24.026132614
 31
0.0
  0
SPLINE
  5
767
100
AcDbEntity
  8
RACCORDO
100
AcDbSpline
 62
253
  6
CONTINUOUS
 70
0
 71
3
 72
11
 73
7
 74
5
 42
0.0000001
 43
0.0000001
 44
0.0000000001
 12
0.0092977764
 22
-0.2506900125
 32
0.0
 13
-0.2507150762
 23
0.0085954408
 33
0.0
 40
0.0
 40
0.0
 40
0.0
 40
0.0
 40
0.1621944516
 40
0.3446643782
 40
0.5912283958
 40
1.0
 40
1.0
 40
1.0
 40
1.0
 10
5.5902860878
 20
-24.7598053432
 30
0.0
 10
5.5907887704
 20
-24.7733588529
 30
0.0
 10
5.5864813386
 20
-24.8026942881
 30
0.0
 10
5.5596048558
 20
-24.8458144963
 30
0.0
 10
5.4997948677
 20
-24.8859002993
 30
0.0
 10
5.4432416987
 20
-24.8942908146
 30
0.0
 10
5.409079964
 20
-24.8931196239
 30
0.0
 11
5.5902860878
 21
-24.7598053432
 31
0.0
 11
5.5842189127
 21
-24.8000389389
 31
0.0
 11
5.5605061756
 21
-24.8391930191
 31
0.0
 11
5.5099917404
 21
-24.8748884529
 31
0.0
 11
5.409079964
 21
-24.8931196239
 31
0.0
  0
SPLINE
  5
768
100
AcDbEntity
  8
RACCORDO
100
AcDbSpline
 62
7
  6
CONTINUOUS
 70
0
 71
3
 72
11
 73
7
 74
5
 42
0.0000001
 43
0.0000001
 44
0.0000000001
 12
0.0278524693
 22
0.2933252208
 32
0.0
 13
0.2946446083
 23
0.0
 33
0.0
 40
0.0
 40
0.0
 40
0.0
 40
0.0
 40
0.2411683406
 40
0.4872033749
 40
0.7405510906
 40
1.0
 40
1.0
 40
1.0
 40
1.0
 10
-5.5516259108
 20
-24.2072634133
 30
0.0
 10
-5.5493868662
 20
-24.1836831611
 30
0.0
 10
-5.5360704456
 20
-24.1364450351
 30
0.0
 10
-5.4917765764
 20
-24.0767934964
 30
0.0
 10
-5.427496271
 20
-24.0358666786
 30
0.0
 10
-5.3766068046
 20
-24.026132614
 30
0.0
 10
-5.3511250639
 20
-24.026132614
 30
0.0
 11
-5.5516259108
 21
-24.2072634133
 31
0.0
 11
-5.532326052
 21
-24.138875622
 31
0.0
 11
-5.4891959802
 21
-24.0806088483
 31
0.0
 11
-5.4261944896
 21
-24.0405705268
 31
0.0
 11
-5.3511250639
 21
-24.026132614
 31
0.0
  0
SPLINE
  5
769
100
AcDbEntity
  8
RACCORDO
100
AcDbSpline
 62
253
  6
CONTINUOUS
 70
0
 71
3
 72
11
 73
7
 74
5
 42
0.0000001
 43
0.0000001
 44
0.0000000001
 12
-0.2507141425
 22
-0.0086295329
 32
0.0
 13
0.0092975238
 23
0.2506902593
 33
0.0
 40
0.0
 40
0.0
 40
0.0
 40
0.0
 40
0.4087684477
 40
0.6553342463
 40
0.8378048517
 40
1.0
 40
1.0
 40
1.0
 40
1.0
 10
-5.409079964
 20
-24.8931196239
 30
0.0
 10
-5.4432413077
 20
-24.8942954508
 30
0.0
 10
-5.499794733
 20
-24.8858995193
 30
0.0
 10
-5.5596045161
 20
-24.8458149256
 30
0.0
 10
-5.5864813817
 20
-24.8026943539
 30
0.0
 10
-5.590788754
 20
-24.7733587875
 30
0.0
 10
-5.590286083
 20
-24.7598052063
 30
0.0
 11
-5.409079964
 21
-24.8931196239
 31
0.0
 11
-5.50999113
 21
-24.8748889824
 31
0.0
 11
-5.5605059544
 21
-24.8391932238
 31
0.0
 11
-5.5842188916
 21
-24.8000390152
 31
0.0
 11
-5.590286083
 21
-24.7598052063
 31
0.0
  0
SPLINE
  5
76A
100
AcDbEntity
  8
RACCORDO
100
AcDbSpline
 62
7
  6
CONTINUOUS
 70
0
 71
3
 72
11
 73
7
 74
5
 42
0.0000001
 43
0.0000001
 44
0.0000000001
 12
-0.2946446083
 22
0.0
 32
0.0
 13
-0.0278524693
 23
0.2933252208
 33
0.0
 40
0.0
 40
0.0
 40
0.0
 40
0.0
 40
0.2594489094
 40
0.5127966251
 40
0.7588316594
 40
1.0
 40
1.0
 40
1.0
 40
1.0
 10
-5.3511250639
 20
24.026132614
 30
0.0
 10
-5.3766068046
 20
24.026132614
 30
0.0
 10
-5.427496271
 20
24.0358666786
 30
0.0
 10
-5.4917765764
 20
24.0767934964
 30
0.0
 10
-5.5360704456
 20
24.1364450351
 30
0.0
 10
-5.5493868662
 20
24.1836831611
 30
0.0
 10
-5.5516259108
 20
24.2072634133
 30
0.0
 11
-5.3511250639
 21
24.026132614
 31
0.0
 11
-5.4261944896
 21
24.0405705268
 31
0.0
 11
-5.4891959802
 21
24.0806088483
 31
0.0
 11
-5.532326052
 21
24.138875622
 31
0.0
 11
-5.5516259108
 21
24.2072634133
 31
0.0
  0
SPLINE
  5
76B
100
AcDbEntity
  8
RACCORDO
100
AcDbSpline
 62
253
  6
CONTINUOUS
 70
0
 71
3
 72
11
 73
7
 74
5
 42
0.0000001
 43
0.0000001
 44
0.0000000001
 12
-0.0092977764
 22
0.2506900125
 32
0.0
 13
0.2507150762
 23
-0.0085954408
 33
0.0
 40
0.0
 40
0.0
 40
0.0
 40
0.0
 40
0.1621944516
 40
0.3446643782
 40
0.5912283958
 40
1.0
 40
1.0
 40
1.0
 40
1.0
 10
-5.5902860878
 20
24.7598053432
 30
0.0
 10
-5.5907887704
 20
24.7733588529
 30
0.0
 10
-5.5864813386
 20
24.8026942881
 30
0.0
 10
-5.5596048558
 20
24.8458144963
 30
0.0
 10
-5.4997948677
 20
24.8859002993
 30
0.0
 10
-5.4432416987
 20
24.8942908146
 30
0.0
 10
-5.409079964
 20
24.8931196239
 30
0.0
 11
-5.5902860878
 21
24.7598053432
 31
0.0
 11
-5.5842189127
 21
24.8000389389
 31
0.0
 11
-5.5605061756
 21
24.8391930191
 31
0.0
 11
-5.5099917404
 21
24.8748884529
 31
0.0
 11
-5.409079964
 21
24.8931196239
 31
0.0
  0
SPLINE
  5
76C
100
AcDbEntity
  8
RACCORDO
100
AcDbSpline
 62
7
  6
CONTINUOUS
 70
0
 71
3
 72
11
 73
7
 74
5
 42
0.0000001
 43
0.0000001
 44
0.0000000001
 12
-0.0278524693
 22
-0.2933252208
 32
0.0
 13
-0.2946446083
 23
0.0
 33
0.0
 40
0.0
 40
0.0
 40
0.0
 40
0.0
 40
0.2411683406
 40
0.4872033749
 40
0.7405510906
 40
1.0
 40
1.0
 40
1.0
 40
1.0
 10
5.5516259108
 20
24.2072634133
 30
0.0
 10
5.5493868662
 20
24.1836831611
 30
0.0
 10
5.5360704456
 20
24.1364450351
 30
0.0
 10
5.4917765764
 20
24.0767934964
 30
0.0
 10
5.427496271
 20
24.0358666786
 30
0.0
 10
5.3766068046
 20
24.026132614
 30
0.0
 10
5.3511250639
 20
24.026132614
 30
0.0
 11
5.5516259108
 21
24.2072634133
 31
0.0
 11
5.532326052
 21
24.138875622
 31
0.0
 11
5.4891959802
 21
24.0806088483
 31
0.0
 11
5.4261944896
 21
24.0405705268
 31
0.0
 11
5.3511250639
 21
24.026132614
 31
0.0
  0
SPLINE
  5
76D
100
AcDbEntity
  8
RACCORDO
100
AcDbSpline
 62
253
  6
CONTINUOUS
 70
0
 71
3
 72
11
 73
7
 74
5
 42
0.0000001
 43
0.0000001
 44
0.0000000001
 12
0.2507141425
 22
0.0086295329
 32
0.0
 13
-0.0092975238
 23
-0.2506902593
 33
0.0
 40
0.0
 40
0.0
 40
0.0
 40
0.0
 40
0.4087684477
 40
0.6553342463
 40
0.8378048517
 40
1.0
 40
1.0
 40
1.0
 40
1.0
 10
5.409079964
 20
24.8931196239
 30
0.0
 10
5.4432413077
 20
24.8942954508
 30
0.0
 10
5.499794733
 20
24.8858995193
 30
0.0
 10
5.5596045161
 20
24.8458149256
 30
0.0
 10
5.5864813817
 20
24.8026943539
 30
0.0
 10
5.590788754
 20
24.7733587875
 30
0.0
 10
5.590286083
 20
24.7598052063
 30
0.0
 11
5.409079964
 21
24.8931196239
 31
0.0
 11
5.50999113
 21
24.8748889824
 31
0.0
 11
5.5605059544
 21
24.8391932238
 31
0.0
 11
5.5842188916
 21
24.8000390152
 31
0.0
 11
5.590286083
 21
24.7598052063
 31
0.0
  0
SPLINE
  5
76E
100
AcDbEntity
  8
RACCORDO
100
AcDbSpline
 62
253
  6
CONTINUOUS
 70
0
 71
3
 72
11
 73
7
 74
5
 42
0.0000001
 43
0.0000001
 44
0.0000000001
 12
0.4003743589
 22
0.0052420858
 32
0.0
 13
0.0104742998
 23
0.4002716524
 33
0.0
 40
0.0
 40
0.0
 40
0.0
 40
0.0
 40
0.2867543365
 40
0.5542289435
 40
0.7904107651
 40
1.0
 40
1.0
 40
1.0
 40
1.0
 10
4.6709677904
 20
-26.4830998247
 30
0.0
 10
4.7092374849
 20
-26.4825987611
 30
0.0
 10
4.7835224379
 20
-26.4717012768
 30
0.0
 10
4.8808069948
 20
-26.4269409022
 30
0.0
 10
4.9506343713
 20
-26.3585485817
 30
0.0
 10
4.970133221
 20
-26.2989320002
 30
0.0
 10
4.9708649879
 20
-26.2709677904
 30
0.0
 11
4.6709677904
 21
-26.4830998247
 31
0.0
 11
4.7844816722
 21
-26.4658376148
 31
0.0
 11
4.8810817909
 21
-26.4195921219
 31
0.0
 11
4.9464605832
 21
-26.3512623583
 31
0.0
 11
4.9708649879
 21
-26.2709677904
 31
0.0
  0
SPLINE
  5
76F
100
AcDbEntity
  8
RACCORDO
100
AcDbSpline
 62
253
  6
CONTINUOUS
 70
0
 71
3
 72
11
 73
7
 74
5
 42
0.0000001
 43
0.0000001
 44
0.0000000001
 12
-0.4003743589
 22
0.0052420858
 32
0.0
 13
-0.0104742998
 23
0.4002716524
 33
0.0
 40
0.0
 40
0.0
 40
0.0
 40
0.0
 40
0.2867543365
 40
0.5542289435
 40
0.7904107651
 40
1.0
 40
1.0
 40
1.0
 40
1.0
 10
-4.6709677904
 20
-26.4830998247
 30
0.0
 10
-4.7092374849
 20
-26.4825987611
 30
0.0
 10
-4.7835224379
 20
-26.4717012768
 30
0.0
 10
-4.8808069948
 20
-26.4269409022
 30
0.0
 10
-4.9506343713
 20
-26.3585485817
 30
0.0
 10
-4.970133221
 20
-26.2989320002
 30
0.0
 10
-4.9708649879
 20
-26.2709677904
 30
0.0
 11
-4.6709677904
 21
-26.4830998247
 31
0.0
 11
-4.7844816722
 21
-26.4658376148
 31
0.0
 11
-4.8810817909
 21
-26.4195921219
 31
0.0
 11
-4.9464605832
 21
-26.3512623583
 31
0.0
 11
-4.9708649879
 21
-26.2709677904
 31
0.0
  0
SPLINE
  5
770
100
AcDbEntity
  8
RACCORDO
100
AcDbSpline
 62
253
  6
CONTINUOUS
 70
0
 71
3
 72
11
 73
7
 74
5
 42
0.0000001
 43
0.0000001
 44
0.0000000001
 12
0.4003743589
 22
-0.0052420858
 32
0.0
 13
0.0104742998
 23
-0.4002716524
 33
0.0
 40
0.0
 40
0.0
 40
0.0
 40
0.0
 40
0.2867543365
 40
0.5542289435
 40
0.7904107651
 40
1.0
 40
1.0
 40
1.0
 40
1.0
 10
4.6709677904
 20
26.4830998247
 30
0.0
 10
4.7092374849
 20
26.4825987611
 30
0.0
 10
4.7835224379
 20
26.4717012768
 30
0.0
 10
4.8808069948
 20
26.4269409022
 30
0.0
 10
4.9506343713
 20
26.3585485817
 30
0.0
 10
4.970133221
 20
26.2989320002
 30
0.0
 10
4.9708649879
 20
26.2709677904
 30
0.0
 11
4.6709677904
 21
26.4830998247
 31
0.0
 11
4.7844816722
 21
26.4658376148
 31
0.0
 11
4.8810817909
 21
26.4195921219
 31
0.0
 11
4.9464605832
 21
26.3512623583
 31
0.0
 11
4.9708649879
 21
26.2709677904
 31
0.0
  0
SPLINE
  5
771
100
AcDbEntity
  8
RACCORDO
100
AcDbSpline
 62
253
  6
CONTINUOUS
 70
0
 71
3
 72
11
 73
7
 74
5
 42
0.0000001
 43
0.0000001
 44
0.0000000001
 12
-0.4003743589
 22
-0.0052420858
 32
0.0
 13
-0.0104742998
 23
-0.4002716524
 33
0.0
 40
0.0
 40
0.0
 40
0.0
 40
0.0
 40
0.2867543365
 40
0.5542289435
 40
0.7904107651
 40
1.0
 40
1.0
 40
1.0
 40
1.0
 10
-4.6709677904
 20
26.4830998247
 30
0.0
 10
-4.7092374849
 20
26.4825987611
 30
0.0
 10
-4.7835224379
 20
26.4717012768
 30
0.0
 10
-4.8808069948
 20
26.4269409022
 30
0.0
 10
-4.9506343713
 20
26.3585485817
 30
0.0
 10
-4.970133221
 20
26.2989320002
 30
0.0
 10
-4.9708649879
 20
26.2709677904
 30
0.0
 11
-4.6709677904
 21
26.4830998247
 31
0.0
 11
-4.7844816722
 21
26.4658376148
 31
0.0
 11
-4.8810817909
 21
26.4195921219
 31
0.0
 11
-4.9464605832
 21
26.3512623583
 31
0.0
 11
-4.9708649879
 21
26.2709677904
 31
0.0
  0
SPLINE
  5
772
100
AcDbEntity
  8
RACCORDO
100
AcDbSpline
 62
253
  6
CONTINUOUS
 70
0
 71
3
 72
9
 73
5
 74
3
 42
0.0000001
 43
0.0000001
 44
0.0000000001
 12
0.0529397275
 22
0.1827402183
 32
0.0
 13
0.0504111521
 23
0.1834538576
 33
0.0
 40
0.0
 40
0.0
 40
0.0
 40
0.0
 40
0.2669583199
 40
1.0
 40
1.0
 40
1.0
 40
1.0
 10
4.1164936351
 20
24.372975887
 30
0.0
 10
4.1212045353
 20
24.3892372276
 30
0.0
 10
4.1386463273
 20
24.4502099613
 30
0.0
 10
4.1555940838
 20
24.5113225484
 30
0.0
 10
4.167911909
 20
24.5561489897
 30
0.0
 11
4.1164936351
 21
24.372975887
 31
0.0
 11
4.13048179
 21
24.4218015516
 31
0.0
 11
4.167911909
 21
24.5561489897
 31
0.0
  0
SPLINE
  5
773
100
AcDbEntity
  8
RACCORDO
100
AcDbSpline
 62
253
  6
CONTINUOUS
 70
0
 71
3
 72
9
 73
5
 74
3
 42
0.0000001
 43
0.0000001
 44
0.0000000001
 12
0.0504139808
 22
-0.1834526691
 32
0.0
 13
0.052938311
 23
-0.1827402159
 33
0.0
 40
0.0
 40
0.0
 40
0.0
 40
0.0
 40
0.2355485641
 40
1.0
 40
1.0
 40
1.0
 40
1.0
 10
-4.1679119088
 20
24.5561489888
 30
0.0
 10
-4.1639535952
 20
24.5417449846
 30
0.0
 10
-4.1470910128
 20
24.4806102536
 30
0.0
 10
-4.1299832261
 20
24.4195412321
 30
0.0
 10
-4.1164936368
 20
24.372975892
 30
0.0
 11
-4.1679119088
 21
24.5561489888
 31
0.0
 11
-4.1559960764
 21
24.5129482341
 31
0.0
 11
-4.1164936368
 21
24.372975892
 31
0.0
  0
SPLINE
  5
774
100
AcDbEntity
  8
RACCORDO
100
AcDbSpline
 62
7
  6
CONTINUOUS
 70
0
 71
3
 72
15
 73
11
 74
9
 42
0.0000001
 43
0.0000001
 44
0.0000000001
 12
0.1063705374
 22
0.0420095033
 32
0.0
 13
0.0919765778
 23
-0.0679691012
 33
0.0
 40
0.0
 40
0.0
 40
0.0
 40
0.0
 40
0.0107071269
 40
0.042134259
 40
0.0990585049
 40
0.1880215293
 40
0.3167500047
 40
0.4925387156
 40
0.7215921481
 40
1.0
 40
1.0
 40
1.0
 40
1.0
 10
-3.9824192776
 20
23.6568896896
 30
0.0
 10
-3.9820396366
 20
23.6570396233
 30
0.0
 10
-3.9806801326
 20
23.6554286999
 30
0.0
 10
-3.9779515709
 20
23.6535288116
 30
0.0
 10
-3.9729971272
 20
23.6484838454
 30
0.0
 10
-3.9654386289
 20
23.6414678944
 30
0.0
 10
-3.9544979955
 20
23.6311011681
 30
0.0
 10
-3.9393713321
 20
23.6175424895
 30
0.0
 10
-3.9194524459
 20
23.600734056
 30
0.0
 10
-3.9041717938
 20
23.5888619046
 30
0.0
 10
-3.8956361267
 20
23.5825541941
 30
0.0
 11
-3.9824192776
 21
23.6568896896
 31
0.0
 11
-3.9813615297
 21
23.6562727328
 31
0.0
 11
-3.9786494539
 21
23.6539141752
 31
0.0
 11
-3.9739016182
 21
23.6494599145
 31
0.0
 11
-3.9665229178
 21
23.6424548198
 31
0.0
 11
-3.9557768328
 21
23.6323919104
 31
0.0
 11
-3.9408200673
 21
23.6189578772
 31
0.0
 11
-3.9207921527
 21
23.6020728462
 31
0.0
 11
-3.8956361267
 21
23.5825541941
 31
0.0
  0
SPLINE
  5
775
100
AcDbEntity
  8
RACCORDO
100
AcDbSpline
 62
253
  6
CONTINUOUS
 70
0
 71
3
 72
9
 73
5
 74
3
 42
0.0000001
 43
0.0000001
 44
0.0000000001
 12
-0.0529397275
 22
-0.1827402183
 32
0.0
 13
-0.0504111521
 23
-0.1834538576
 33
0.0
 40
0.0
 40
0.0
 40
0.0
 40
0.0
 40
0.2669583199
 40
1.0
 40
1.0
 40
1.0
 40
1.0
 10
-4.1164936351
 20
-24.372975887
 30
0.0
 10
-4.1212045353
 20
-24.3892372276
 30
0.0
 10
-4.1386463273
 20
-24.4502099613
 30
0.0
 10
-4.1555940838
 20
-24.5113225484
 30
0.0
 10
-4.167911909
 20
-24.5561489897
 30
0.0
 11
-4.1164936351
 21
-24.372975887
 31
0.0
 11
-4.13048179
 21
-24.4218015516
 31
0.0
 11
-4.167911909
 21
-24.5561489897
 31
0.0
  0
SPLINE
  5
776
100
AcDbEntity
  8
RACCORDO
100
AcDbSpline
 62
253
  6
CONTINUOUS
 70
0
 71
3
 72
9
 73
5
 74
3
 42
0.0000001
 43
0.0000001
 44
0.0000000001
 12
-0.0504139538
 22
0.1834526766
 32
0.0
 13
-0.0529383152
 23
0.1827402147
 33
0.0
 40
0.0
 40
0.0
 40
0.0
 40
0.0
 40
0.2355485597
 40
1.0
 40
1.0
 40
1.0
 40
1.0
 10
4.1679119088
 20
-24.5561489888
 30
0.0
 10
4.1639535974
 20
-24.5417449843
 30
0.0
 10
4.1470910058
 20
-24.4806102558
 30
0.0
 10
4.1299832273
 20
-24.4195412321
 30
0.0
 10
4.1164936368
 20
-24.372975892
 30
0.0
 11
4.1679119088
 21
-24.5561489888
 31
0.0
 11
4.1559960753
 21
-24.5129482353
 31
0.0
 11
4.1164936368
 21
-24.372975892
 31
0.0
  0
SPLINE
  5
777
100
AcDbEntity
  8
RACCORDO
100
AcDbSpline
 62
7
  6
CONTINUOUS
 70
0
 71
3
 72
15
 73
11
 74
9
 42
0.0000001
 43
0.0000001
 44
0.0000000001
 12
-0.1063705374
 22
-0.0420095033
 32
0.0
 13
-0.0919765778
 23
0.0679691012
 33
0.0
 40
0.0
 40
0.0
 40
0.0
 40
0.0
 40
0.0107071269
 40
0.042134259
 40
0.0990585049
 40
0.1880215293
 40
0.3167500047
 40
0.4925387156
 40
0.7215921481
 40
1.0
 40
1.0
 40
1.0
 40
1.0
 10
3.9824192776
 20
-23.6568896896
 30
0.0
 10
3.9820396366
 20
-23.6570396233
 30
0.0
 10
3.9806801326
 20
-23.6554286999
 30
0.0
 10
3.9779515709
 20
-23.6535288116
 30
0.0
 10
3.9729971272
 20
-23.6484838454
 30
0.0
 10
3.9654386289
 20
-23.6414678944
 30
0.0
 10
3.9544979955
 20
-23.6311011681
 30
0.0
 10
3.9393713321
 20
-23.6175424895
 30
0.0
 10
3.9194524459
 20
-23.600734056
 30
0.0
 10
3.9041717938
 20
-23.5888619046
 30
0.0
 10
3.8956361267
 20
-23.5825541941
 30
0.0
 11
3.9824192776
 21
-23.6568896896
 31
0.0
 11
3.9813615297
 21
-23.6562727328
 31
0.0
 11
3.9786494539
 21
-23.6539141752
 31
0.0
 11
3.9739016182
 21
-23.6494599145
 31
0.0
 11
3.9665229178
 21
-23.6424548198
 31
0.0
 11
3.9557768328
 21
-23.6323919104
 31
0.0
 11
3.9408200673
 21
-23.6189578772
 31
0.0
 11
3.9207921527
 21
-23.6020728462
 31
0.0
 11
3.8956361267
 21
-23.5825541941
 31
0.0
  0
LINE
  5
778
100
AcDbEntity
  8
RACCORDO
100
AcDbLine
 62
7
  6
CONTINUOUS
 10
3.8215859914
 20
23.696798016
 11
3.8357169255
 21
23.6967863733
  0
LINE
  5
779
100
AcDbEntity
  8
RACCORDO
100
AcDbLine
 62
7
  6
CONTINUOUS
 10
-3.8357169209
 20
23.6967863736
 11
-3.8215859914
 21
23.696798016
  0
LINE
  5
77A
100
AcDbEntity
  8
RACCORDO
100
AcDbLine
 62
7
  6
CONTINUOUS
 10
-3.8215859914
 20
-23.696798016
 11
-3.8357169254
 21
-23.6967863734
  0
LINE
  5
77B
100
AcDbEntity
  8
RACCORDO
100
AcDbLine
 62
7
  6
CONTINUOUS
 10
3.8357169209
 20
-23.6967863736
 11
3.8215859914
 21
-23.696798016
  0
SPLINE
  5
77C
100
AcDbEntity
  8
RACCORDO
100
AcDbSpline
 62
7
  6
CONTINUOUS
 70
0
 71
3
 72
9
 73
5
 74
3
 42
0.0000001
 43
0.0000001
 44
0.0000000001
 12
-0.1426021214
 22
0.1298712872
 32
0.0
 13
-0.1551203341
 23
0.1146280865
 33
0.0
 40
0.0
 40
0.0
 40
0.0
 40
0.0
 40
0.2391029569
 40
1.0
 40
1.0
 40
1.0
 40
1.0
 10
4.297681292
 20
-24.026132614
 30
0.0
 10
4.2863157624
 20
-24.0157817444
 30
0.0
 10
4.2383194424
 20
-23.9730056943
 30
0.0
 10
4.1882662837
 20
-23.9325034771
 30
0.0
 10
4.1489227492
 20
-23.9034300864
 30
0.0
 11
4.297681292
 21
-24.026132614
 31
0.0
 11
4.2632460484
 21
-23.9954559798
 31
0.0
 11
4.1489227492
 21
-23.9034300864
 31
0.0
  0
LINE
  5
77D
100
AcDbEntity
  8
RACCORDO
100
AcDbLine
 62
7
  6
CONTINUOUS
 10
-4.1489227492
 20
-23.9034300864
 11
-4.1666301113
 21
-23.9166955287
  0
LINE
  5
77E
100
AcDbEntity
  8
RACCORDO
100
AcDbLine
 62
7
  6
CONTINUOUS
 10
-4.1666301113
 20
-23.9166955287
 11
-4.1839911162
 21
-23.9300535555
  0
SPLINE
  5
77F
100
AcDbEntity
  8
RACCORDO
100
AcDbSpline
 62
7
  6
CONTINUOUS
 70
0
 71
3
 72
9
 73
5
 74
3
 42
0.0000001
 43
0.0000001
 44
0.0000000001
 12
-0.1174155867
 22
-0.0915240188
 32
0.0
 13
-0.1100672842
 23
-0.1002410044
 33
0.0
 40
0.0
 40
0.0
 40
0.0
 40
0.0
 40
0.2588888839
 40
1.0
 40
1.0
 40
1.0
 40
1.0
 10
-4.1839911162
 20
-23.9300535555
 30
0.0
 10
-4.1941236462
 20
-23.9379517392
 30
0.0
 10
-4.2329291335
 20
-23.9688861412
 30
0.0
 10
-4.2704905961
 20
-24.0013693731
 30
0.0
 10
-4.297681292
 20
-24.026132614
 30
0.0
 11
-4.1839911162
 21
-23.9300535555
 31
0.0
 11
-4.214132886
 21
-23.9540726927
 31
0.0
 11
-4.297681292
 21
-24.026132614
 31
0.0
  0
LINE
  5
780
100
AcDbEntity
  8
RACCORDO
100
AcDbLine
 62
7
  6
CONTINUOUS
 10
4.1489227492
 20
23.9034300864
 11
4.1666301113
 21
23.9166955287
  0
LINE
  5
781
100
AcDbEntity
  8
RACCORDO
100
AcDbLine
 62
7
  6
CONTINUOUS
 10
4.1666301113
 20
23.9166955287
 11
4.1839911162
 21
23.9300535555
  0
SPLINE
  5
782
100
AcDbEntity
  8
RACCORDO
100
AcDbSpline
 62
7
  6
CONTINUOUS
 70
0
 71
3
 72
9
 73
5
 74
3
 42
0.0000001
 43
0.0000001
 44
0.0000000001
 12
0.1174155867
 22
0.0915240188
 32
0.0
 13
0.1100672842
 23
0.1002410044
 33
0.0
 40
0.0
 40
0.0
 40
0.0
 40
0.0
 40
0.2588888839
 40
1.0
 40
1.0
 40
1.0
 40
1.0
 10
4.1839911162
 20
23.9300535555
 30
0.0
 10
4.1941236462
 20
23.9379517392
 30
0.0
 10
4.2329291335
 20
23.9688861412
 30
0.0
 10
4.2704905961
 20
24.0013693731
 30
0.0
 10
4.297681292
 20
24.026132614
 30
0.0
 11
4.1839911162
 21
23.9300535555
 31
0.0
 11
4.214132886
 21
23.9540726927
 31
0.0
 11
4.297681292
 21
24.026132614
 31
0.0
  0
SPLINE
  5
783
100
AcDbEntity
  8
RACCORDO
100
AcDbSpline
 62
7
  6
CONTINUOUS
 70
0
 71
3
 72
9
 73
5
 74
3
 42
0.0000001
 43
0.0000001
 44
0.0000000001
 12
0.1426021214
 22
-0.1298712872
 32
0.0
 13
0.1551203341
 23
-0.1146280865
 33
0.0
 40
0.0
 40
0.0
 40
0.0
 40
0.0
 40
0.2391029569
 40
1.0
 40
1.0
 40
1.0
 40
1.0
 10
-4.297681292
 20
24.026132614
 30
0.0
 10
-4.2863157624
 20
24.0157817444
 30
0.0
 10
-4.2383194424
 20
23.9730056943
 30
0.0
 10
-4.1882662837
 20
23.9325034771
 30
0.0
 10
-4.1489227492
 20
23.9034300864
 30
0.0
 11
-4.297681292
 21
24.026132614
 31
0.0
 11
-4.2632460484
 21
23.9954559798
 31
0.0
 11
-4.1489227492
 21
23.9034300864
 31
0.0
  0
SPLINE
  5
784
100
AcDbEntity
  8
RACCORDO
100
AcDbSpline
 62
253
  6
CONTINUOUS
 70
0
 71
3
 72
9
 73
5
 74
3
 42
0.0000001
 43
0.0000001
 44
0.0000000001
 12
-0.0736701808
 22
0.1410011172
 32
0.0
 13
-0.0864244409
 23
0.1335643164
 33
0.0
 40
0.0
 40
0.0
 40
0.0
 40
0.0
 40
0.245354211
 40
1.0
 40
1.0
 40
1.0
 40
1.0
 10
3.922480805
 20
-24.6876799659
 30
0.0
 10
3.9164557087
 20
-24.6761482267
 30
0.0
 10
3.8914771854
 20
-24.629373076
 30
0.0
 10
3.8646124207
 20
-24.5835755327
 30
0.0
 10
3.8428724739
 20
-24.5499776164
 30
0.0
 11
3.922480805
 21
-24.6876799659
 31
0.0
 11
3.9040849876
 21
-24.653254117
 31
0.0
 11
3.8428724739
 21
-24.5499776164
 31
0.0
  0
SPLINE
  5
785
100
AcDbEntity
  8
RACCORDO
100
AcDbSpline
 62
7
  6
CONTINUOUS
 70
0
 71
3
 72
11
 73
7
 74
5
 42
0.0000001
 43
0.0000001
 44
0.0000000001
 12
-0.4420036668
 22
-0.6814996936
 32
0.0
 13
0.4420036668
 23
-0.6814996936
 33
0.0
 40
0.0
 40
0.0
 40
0.0
 40
0.0
 40
0.2498862544
 40
0.5000003915
 40
0.7501139413
 40
1.0
 40
1.0
 40
1.0
 40
1.0
 10
22.9060002318
 20
12.8852481164
 30
0.0
 10
22.8691833515
 20
12.8284823145
 30
0.0
 10
22.8112409346
 20
12.7037273423
 30
0.0
 10
22.7814385211
 20
12.5000010082
 30
0.0
 10
22.8112397546
 20
12.2962742532
 30
0.0
 10
22.8691833803
 20
12.1715200607
 30
0.0
 10
22.9060002318
 20
12.1147543032
 30
0.0
 11
22.9060002318
 21
12.8852481164
 31
0.0
 11
22.8207779535
 21
12.7010262021
 31
0.0
 11
22.7913754776
 21
12.5000007696
 31
0.0
 11
22.8207772484
 21
12.2989757163
 31
0.0
 11
22.9060002318
 21
12.1147543032
 31
0.0
  0
SPLINE
  5
786
100
AcDbEntity
  8
RACCORDO
100
AcDbSpline
 62
253
  6
CONTINUOUS
 70
0
 71
3
 72
9
 73
5
 74
3
 42
0.0000001
 43
0.0000001
 44
0.0000000001
 12
0.0864237693
 22
0.1335724574
 32
0.0
 13
0.0736709059
 23
0.1410080384
 33
0.0
 40
0.0
 40
0.0
 40
0.0
 40
0.0
 40
0.2553761973
 40
1.0
 40
1.0
 40
1.0
 40
1.0
 10
3.8428724211
 20
24.5499769837
 30
0.0
 10
3.850229279
 20
24.5613473924
 30
0.0
 10
3.8783657943
 20
24.6063059185
 30
0.0
 10
3.9041951016
 20
24.652680652
 30
0.0
 10
3.922480805
 20
24.6876799659
 30
0.0
 11
3.8428724211
 21
24.5499769837
 31
0.0
 11
3.8644496024
 21
24.5844024281
 31
0.0
 11
3.922480805
 21
24.6876799659
 31
0.0
  0
SPLINE
  5
787
100
AcDbEntity
  8
RACCORDO
100
AcDbSpline
 62
253
  6
CONTINUOUS
 70
0
 71
3
 72
9
 73
5
 74
3
 42
0.0000001
 43
0.0000001
 44
0.0000000001
 12
-0.086423766
 22
-0.1335724522
 32
0.0
 13
-0.0736709031
 23
-0.1410080329
 33
0.0
 40
0.0
 40
0.0
 40
0.0
 40
0.0
 40
0.2553761973
 40
1.0
 40
1.0
 40
1.0
 40
1.0
 10
-3.8428724244
 20
-24.5499769889
 30
0.0
 10
-3.8502292819
 20
-24.5613473972
 30
0.0
 10
-3.8783657961
 20
-24.6063059216
 30
0.0
 10
-3.9041951023
 20
-24.6526806534
 30
0.0
 10
-3.922480805
 20
-24.6876799659
 30
0.0
 11
-3.8428724244
 21
-24.5499769889
 31
0.0
 11
-3.8644496047
 21
-24.584402432
 31
0.0
 11
-3.922480805
 21
-24.6876799659
 31
0.0
  0
SPLINE
  5
788
100
AcDbEntity
  8
RACCORDO
100
AcDbSpline
 62
253
  6
CONTINUOUS
 70
0
 71
3
 72
9
 73
5
 74
3
 42
0.0000001
 43
0.0000001
 44
0.0000000001
 12
0.0736701662
 22
-0.141001125
 32
0.0
 13
0.0864244372
 23
-0.1335643189
 33
0.0
 40
0.0
 40
0.0
 40
0.0
 40
0.0
 40
0.245354207
 40
1.0
 40
1.0
 40
1.0
 40
1.0
 10
-3.922480805
 20
24.6876799659
 30
0.0
 10
-3.9164557099
 20
24.6761482262
 30
0.0
 10
-3.8914771865
 20
24.6293730755
 30
0.0
 10
-3.8646124199
 20
24.5835755334
 30
0.0
 10
-3.8428724739
 20
24.5499776163
 30
0.0
 11
-3.922480805
 21
24.6876799659
 31
0.0
 11
-3.904084989
 21
24.6532541169
 31
0.0
 11
-3.8428724739
 21
24.5499776163
 31
0.0
  0
SPLINE
  5
789
100
AcDbEntity
  8
RACCORDO
100
AcDbSpline
 62
7
  6
CONTINUOUS
 70
0
 71
3
 72
11
 73
7
 74
5
 42
0.0000001
 43
0.0000001
 44
0.0000000001
 12
-0.4420036669
 22
-0.6814996936
 32
0.0
 13
0.4420036669
 23
-0.6814996936
 33
0.0
 40
0.0
 40
0.0
 40
0.0
 40
0.0
 40
0.2498861818
 40
0.4999996526
 40
0.7501138662
 40
1.0
 40
1.0
 40
1.0
 40
1.0
 10
22.9060002318
 20
-12.1147518836
 30
0.0
 10
22.8691833622
 20
-12.171517669
 30
0.0
 10
22.8112410873
 20
-12.2962724824
 30
0.0
 10
22.7814385214
 20
-12.4999987385
 30
0.0
 10
22.8112396013
 20
-12.7037255708
 30
0.0
 10
22.8691833693
 20
-12.8284799223
 30
0.0
 10
22.9060002318
 20
-12.8852456968
 30
0.0
 11
22.9060002318
 21
-12.1147518836
 31
0.0
 11
22.8207780059
 21
-12.2989737573
 31
0.0
 11
22.7913754776
 21
-12.499998635
 31
0.0
 11
22.8207771953
 21
-12.7010242411
 31
0.0
 11
22.9060002318
 21
-12.8852456968
 31
0.0
  0
LINE
  5
78A
100
AcDbEntity
  8
RACCORDO
100
AcDbLine
 62
7
  6
CONTINUOUS
 10
24.3614243722
 20
16.6566854756
 11
24.1614548332
 21
16.594742685
  0
LINE
  5
78B
100
AcDbEntity
  8
RACCORDO
100
AcDbLine
 62
7
  6
CONTINUOUS
 10
24.3614243722
 20
-16.6566854756
 11
24.1614548332
 21
-16.594742685
  0
LINE
  5
78C
100
AcDbEntity
  8
RACCORDO
100
AcDbLine
 62
7
  6
CONTINUOUS
 10
-24.3614243722
 20
-16.6566854756
 11
-24.1614548332
 21
-16.594742685
  0
LINE
  5
78D
100
AcDbEntity
  8
RACCORDO
100
AcDbLine
 62
7
  6
CONTINUOUS
 10
-24.3614243722
 20
16.6566854756
 11
-24.1614548332
 21
16.594742685
  0
SPLINE
  5
78E
100
AcDbEntity
  8
RACCORDO
100
AcDbSpline
 62
7
  6
CONTINUOUS
 70
0
 71
3
 72
11
 73
7
 74
5
 42
0.0000001
 43
0.0000001
 44
0.0000000001
 12
0.4420036669
 22
0.6814996936
 32
0.0
 13
-0.4420036669
 23
0.6814996936
 33
0.0
 40
0.0
 40
0.0
 40
0.0
 40
0.0
 40
0.2498861818
 40
0.4999996526
 40
0.7501138662
 40
1.0
 40
1.0
 40
1.0
 40
1.0
 10
-22.9060002318
 20
12.1147518836
 30
0.0
 10
-22.8691833622
 20
12.171517669
 30
0.0
 10
-22.8112410873
 20
12.2962724824
 30
0.0
 10
-22.7814385214
 20
12.4999987385
 30
0.0
 10
-22.8112396013
 20
12.7037255708
 30
0.0
 10
-22.8691833693
 20
12.8284799223
 30
0.0
 10
-22.9060002318
 20
12.8852456968
 30
0.0
 11
-22.9060002318
 21
12.1147518836
 31
0.0
 11
-22.8207780059
 21
12.2989737573
 31
0.0
 11
-22.7913754776
 21
12.499998635
 31
0.0
 11
-22.8207771953
 21
12.7010242411
 31
0.0
 11
-22.9060002318
 21
12.8852456968
 31
0.0
  0
SPLINE
  5
78F
100
AcDbEntity
  8
RACCORDO
100
AcDbSpline
 62
7
  6
CONTINUOUS
 70
0
 71
3
 72
11
 73
7
 74
5
 42
0.0000001
 43
0.0000001
 44
0.0000000001
 12
0.4420036668
 22
0.6814996936
 32
0.0
 13
-0.4420036668
 23
0.6814996936
 33
0.0
 40
0.0
 40
0.0
 40
0.0
 40
0.0
 40
0.2498862543
 40
0.5000003913
 40
0.7501139414
 40
1.0
 40
1.0
 40
1.0
 40
1.0
 10
-22.9060002318
 20
-12.8852481164
 30
0.0
 10
-22.8691833515
 20
-12.8284823145
 30
0.0
 10
-22.8112409347
 20
-12.7037273424
 30
0.0
 10
-22.7814385211
 20
-12.5000010083
 30
0.0
 10
-22.8112397545
 20
-12.2962742532
 30
0.0
 10
-22.8691833804
 20
-12.1715200606
 30
0.0
 10
-22.9060002318
 20
-12.1147543032
 30
0.0
 11
-22.9060002318
 21
-12.8852481164
 31
0.0
 11
-22.8207779535
 21
-12.7010262021
 31
0.0
 11
-22.7913754776
 21
-12.5000007698
 31
0.0
 11
-22.8207772485
 21
-12.2989757162
 31
0.0
 11
-22.9060002318
 21
-12.1147543032
 31
0.0
  0
SPLINE
  5
790
100
AcDbEntity
  8
RACCORDO
100
AcDbSpline
 62
253
  6
CONTINUOUS
 70
0
 71
3
 72
11
 73
7
 74
5
 42
0.0000001
 43
0.0000001
 44
0.0000000001
 12
0.0021229736
 22
0.2934127002
 32
0.0
 13
0.2934077517
 23
0.0027222946
 33
0.0
 40
0.0
 40
0.0
 40
0.0
 40
0.0
 40
0.2637824775
 40
0.520081226
 40
0.7646658935
 40
1.0
 40
1.0
 40
1.0
 40
1.0
 10
14.3089565131
 20
24.6142329557
 30
0.0
 10
14.3091431808
 20
24.6400319987
 30
0.0
 10
14.3182937923
 20
24.691283392
 30
0.0
 10
14.3568158477
 20
24.7572701547
 30
0.0
 10
14.4151292397
 20
24.8027034572
 30
0.0
 10
14.462529748
 20
24.8139889451
 30
0.0
 10
14.4855460317
 20
24.8142024947
 30
0.0
 11
14.3089565131
 21
24.6142329557
 31
0.0
 11
14.3228114797
 21
24.6903819483
 31
0.0
 11
14.3611868092
 21
24.755057035
 31
0.0
 11
14.41830022
 21
24.7985131644
 31
0.0
 11
14.4855460317
 21
24.8142024947
 31
0.0
  0
SPLINE
  5
791
100
AcDbEntity
  8
RACCORDO
100
AcDbSpline
 62
253
  6
CONTINUOUS
 70
0
 71
3
 72
11
 73
7
 74
5
 42
0.0000001
 43
0.0000001
 44
0.0000000001
 12
0.0021229715
 22
0.2934126997
 32
0.0
 13
0.2934077512
 23
0.0027222951
 33
0.0
 40
0.0
 40
0.0
 40
0.0
 40
0.0
 40
0.2637824102
 40
0.5200811094
 40
0.7646658167
 40
1.0
 40
1.0
 40
1.0
 40
1.0
 10
13.6339665099
 20
24.6363916642
 30
0.0
 10
13.6341531774
 20
24.6621907006
 30
0.0
 10
13.6433037829
 20
24.7134420825
 30
0.0
 10
13.6818258267
 20
24.7794288424
 30
0.0
 10
13.7401392174
 20
24.824862157
 30
0.0
 10
13.7875397369
 20
24.8361476536
 30
0.0
 10
13.8105560281
 20
24.8363612032
 30
0.0
 11
13.6339665099
 21
24.6363916642
 31
0.0
 11
13.6478214684
 21
24.7125406381
 31
0.0
 11
13.6861967824
 21
24.7772157171
 31
0.0
 11
13.743310196
 21
24.8206718618
 31
0.0
 11
13.8105560281
 21
24.8363612032
 31
0.0
  0
SPLINE
  5
792
100
AcDbEntity
  8
RACCORDO
100
AcDbSpline
 62
253
  6
CONTINUOUS
 70
0
 71
3
 72
11
 73
7
 74
5
 42
0.0000001
 43
0.0000001
 44
0.0000000001
 12
-0.0021229736
 22
0.2934127002
 32
0.0
 13
-0.2934077517
 23
0.0027222946
 33
0.0
 40
0.0
 40
0.0
 40
0.0
 40
0.0
 40
0.2637824775
 40
0.520081226
 40
0.7646658935
 40
1.0
 40
1.0
 40
1.0
 40
1.0
 10
8.8660334901
 20
24.6363916642
 30
0.0
 10
8.8658468223
 20
24.6621907072
 30
0.0
 10
8.8566962108
 20
24.7134421006
 30
0.0
 10
8.8181741554
 20
24.7794288632
 30
0.0
 10
8.7598607635
 20
24.8248621657
 30
0.0
 10
8.7124602552
 20
24.8361476537
 30
0.0
 10
8.6894439715
 20
24.8363612032
 30
0.0
 11
8.8660334901
 21
24.6363916642
 31
0.0
 11
8.8521785234
 21
24.7125406568
 31
0.0
 11
8.8138031939
 21
24.7772157436
 31
0.0
 11
8.7566897831
 21
24.8206718729
 31
0.0
 11
8.6894439715
 21
24.8363612032
 31
0.0
  0
SPLINE
  5
793
100
AcDbEntity
  8
RACCORDO
100
AcDbSpline
 62
253
  6
CONTINUOUS
 70
0
 71
3
 72
11
 73
7
 74
5
 42
0.0000001
 43
0.0000001
 44
0.0000000001
 12
-0.0021229618
 22
0.2934127029
 32
0.0
 13
-0.2934077543
 23
0.002722294
 33
0.0
 40
0.0
 40
0.0
 40
0.0
 40
0.0
 40
0.263782559
 40
0.5200813626
 40
0.7646659797
 40
1.0
 40
1.0
 40
1.0
 40
1.0
 10
8.1910434869
 20
24.6142329557
 30
0.0
 10
8.1908568201
 20
24.6400320069
 30
0.0
 10
8.1817062031
 20
24.6912834146
 30
0.0
 10
8.143184134
 20
24.7572701807
 30
0.0
 10
8.0848707394
 20
24.8027034682
 30
0.0
 10
8.0374702438
 20
24.8139889452
 30
0.0
 10
8.0144539683
 20
24.8142024947
 30
0.0
 11
8.1910434869
 21
24.6142329557
 31
0.0
 11
8.1771885128
 21
24.6903819719
 31
0.0
 11
8.1388131654
 21
24.7550570677
 31
0.0
 11
8.0816997578
 21
24.7985131778
 31
0.0
 11
8.0144539683
 21
24.8142024947
 31
0.0
  0
SPLINE
  5
794
100
AcDbEntity
  8
RACCORDO
100
AcDbSpline
 62
7
  6
CONTINUOUS
 70
0
 71
3
 72
11
 73
7
 74
5
 42
0.0000001
 43
0.0000001
 44
0.0000000001
 12
0.0472993331
 22
0.0937752068
 32
0.0
 13
0.0438671313
 23
0.0954289846
 33
0.0
 40
0.0
 40
0.0
 40
0.0
 40
0.0
 40
0.3702933589
 40
0.6727081602
 40
0.8872887589
 40
1.0
 40
1.0
 40
1.0
 40
1.0
 10
4.1068859827
 20
23.8054823318
 30
0.0
 10
4.1127241923
 20
23.8170571105
 30
0.0
 10
4.1227732081
 20
23.838371404
 30
0.0
 10
4.1346448457
 20
23.8670885565
 30
0.0
 10
4.1425830883
 20
23.8876454616
 30
0.0
 10
4.1464738752
 20
23.8984407321
 30
0.0
 10
4.1481219815
 20
23.9020260386
 30
0.0
 11
4.1068859827
 21
23.8054823318
 31
0.0
 11
4.1234695268
 21
23.8406608454
 31
0.0
 11
4.1356832232
 21
23.8699808733
 31
0.0
 11
4.143766207
 21
23.8910186175
 31
0.0
 11
4.1481219815
 21
23.9020260386
 31
0.0
  0
LINE
  5
795
100
AcDbEntity
  8
RACCORDO
100
AcDbLine
 62
7
  6
CONTINUOUS
 10
15.9786541704
 20
24.8114243722
 11
15.9197259848
 21
24.6114548332
  0
SPLINE
  5
796
100
AcDbEntity
  8
RACCORDO
100
AcDbSpline
 62
253
  6
CONTINUOUS
 70
0
 71
3
 72
11
 73
7
 74
5
 42
0.0000001
 43
0.0000001
 44
0.0000000001
 12
0.0021229618
 22
-0.2934127029
 32
0.0
 13
0.2934077543
 23
-0.002722294
 33
0.0
 40
0.0
 40
0.0
 40
0.0
 40
0.0
 40
0.263782559
 40
0.5200813626
 40
0.7646659797
 40
1.0
 40
1.0
 40
1.0
 40
1.0
 10
14.3089565131
 20
22.9032221093
 30
0.0
 10
14.3091431799
 20
22.8774230581
 30
0.0
 10
14.3182937969
 20
22.8261716504
 30
0.0
 10
14.356815866
 20
22.7601848842
 30
0.0
 10
14.4151292606
 20
22.7147515967
 30
0.0
 10
14.4625297562
 20
22.7034661197
 30
0.0
 10
14.4855460317
 20
22.7032525702
 30
0.0
 11
14.3089565131
 21
22.9032221093
 31
0.0
 11
14.3228114872
 21
22.827073093
 31
0.0
 11
14.3611868346
 21
22.7623979972
 31
0.0
 11
14.4183002422
 21
22.7189418872
 31
0.0
 11
14.4855460317
 21
22.7032525702
 31
0.0
  0
SPLINE
  5
797
100
AcDbEntity
  8
RACCORDO
100
AcDbSpline
 62
253
  6
CONTINUOUS
 70
0
 71
3
 72
11
 73
7
 74
5
 42
0.0000001
 43
0.0000001
 44
0.0000000001
 12
0.0021229736
 22
-0.2934127002
 32
0.0
 13
0.2934077517
 23
-0.0027222946
 33
0.0
 40
0.0
 40
0.0
 40
0.0
 40
0.0
 40
0.2637824775
 40
0.520081226
 40
0.7646658935
 40
1.0
 40
1.0
 40
1.0
 40
1.0
 10
13.6339665099
 20
22.8810634007
 30
0.0
 10
13.6341531777
 20
22.8552643577
 30
0.0
 10
13.6433037892
 20
22.8040129643
 30
0.0
 10
13.6818258446
 20
22.7380262017
 30
0.0
 10
13.7401392365
 20
22.6925928992
 30
0.0
 10
13.7875397448
 20
22.6813074113
 30
0.0
 10
13.8105560285
 20
22.6810938617
 30
0.0
 11
13.6339665099
 21
22.8810634007
 31
0.0
 11
13.6478214766
 21
22.8049144081
 31
0.0
 11
13.6861968061
 21
22.7402393213
 31
0.0
 11
13.7433102169
 21
22.696783192
 31
0.0
 11
13.8105560285
 21
22.6810938617
 31
0.0
  0
SPLINE
  5
798
100
AcDbEntity
  8
RACCORDO
100
AcDbSpline
 62
253
  6
CONTINUOUS
 70
0
 71
3
 72
11
 73
7
 74
5
 42
0.0000001
 43
0.0000001
 44
0.0000000001
 12
-0.0021229715
 22
-0.2934126997
 32
0.0
 13
-0.2934077512
 23
-0.0027222951
 33
0.0
 40
0.0
 40
0.0
 40
0.0
 40
0.0
 40
0.2637824102
 40
0.5200811094
 40
0.7646658167
 40
1.0
 40
1.0
 40
1.0
 40
1.0
 10
8.8660334901
 20
22.8810634007
 30
0.0
 10
8.8658468226
 20
22.8552643643
 30
0.0
 10
8.8566962171
 20
22.8040129824
 30
0.0
 10
8.8181741733
 20
22.7380262225
 30
0.0
 10
8.7598607826
 20
22.6925929079
 30
0.0
 10
8.7124602631
 20
22.6813074114
 30
0.0
 10
8.6894439719
 20
22.6810938617
 30
0.0
 11
8.8660334901
 21
22.8810634007
 31
0.0
 11
8.8521785316
 21
22.8049144268
 31
0.0
 11
8.8138032176
 21
22.7402393478
 31
0.0
 11
8.756689804
 21
22.6967832031
 31
0.0
 11
8.6894439719
 21
22.6810938617
 31
0.0
  0
SPLINE
  5
799
100
AcDbEntity
  8
RACCORDO
100
AcDbSpline
 62
253
  6
CONTINUOUS
 70
0
 71
3
 72
11
 73
7
 74
5
 42
0.0000001
 43
0.0000001
 44
0.0000000001
 12
-0.0021229736
 22
-0.2934127002
 32
0.0
 13
-0.2934077517
 23
-0.0027222946
 33
0.0
 40
0.0
 40
0.0
 40
0.0
 40
0.0
 40
0.2637824775
 40
0.520081226
 40
0.7646658935
 40
1.0
 40
1.0
 40
1.0
 40
1.0
 10
8.1910434869
 20
22.9032221093
 30
0.0
 10
8.1908568192
 20
22.8774230663
 30
0.0
 10
8.1817062077
 20
22.8261716729
 30
0.0
 10
8.1431841523
 20
22.7601849103
 30
0.0
 10
8.0848707603
 20
22.7147516077
 30
0.0
 10
8.037470252
 20
22.7034661198
 30
0.0
 10
8.0144539683
 20
22.7032525702
 30
0.0
 11
8.1910434869
 21
22.9032221093
 31
0.0
 11
8.1771885203
 21
22.8270731166
 31
0.0
 11
8.1388131908
 21
22.7623980299
 31
0.0
 11
8.08169978
 21
22.7189419006
 31
0.0
 11
8.0144539683
 21
22.7032525702
 31
0.0
  0
SPLINE
  5
79A
100
AcDbEntity
  8
RACCORDO
100
AcDbSpline
 62
253
  6
CONTINUOUS
 70
0
 71
3
 72
11
 73
7
 74
5
 42
0.0000001
 43
0.0000001
 44
0.0000000001
 12
0.0021229618
 22
-0.2934127029
 32
0.0
 13
0.2934077543
 23
-0.002722294
 33
0.0
 40
0.0
 40
0.0
 40
0.0
 40
0.0
 40
0.263782559
 40
0.5200813626
 40
0.7646659797
 40
1.0
 40
1.0
 40
1.0
 40
1.0
 10
-8.1910434869
 20
22.9032221093
 30
0.0
 10
-8.1908568201
 20
22.8774230581
 30
0.0
 10
-8.1817062031
 20
22.8261716504
 30
0.0
 10
-8.143184134
 20
22.7601848842
 30
0.0
 10
-8.0848707394
 20
22.7147515967
 30
0.0
 10
-8.0374702438
 20
22.7034661197
 30
0.0
 10
-8.0144539683
 20
22.7032525702
 30
0.0
 11
-8.1910434869
 21
22.9032221093
 31
0.0
 11
-8.1771885128
 21
22.827073093
 31
0.0
 11
-8.1388131654
 21
22.7623979972
 31
0.0
 11
-8.0816997578
 21
22.7189418872
 31
0.0
 11
-8.0144539683
 21
22.7032525702
 31
0.0
  0
SPLINE
  5
79B
100
AcDbEntity
  8
RACCORDO
100
AcDbSpline
 62
253
  6
CONTINUOUS
 70
0
 71
3
 72
11
 73
7
 74
5
 42
0.0000001
 43
0.0000001
 44
0.0000000001
 12
0.0021229736
 22
-0.2934127002
 32
0.0
 13
0.2934077517
 23
-0.0027222946
 33
0.0
 40
0.0
 40
0.0
 40
0.0
 40
0.0
 40
0.2637824775
 40
0.520081226
 40
0.7646658935
 40
1.0
 40
1.0
 40
1.0
 40
1.0
 10
-8.8660334901
 20
22.8810634007
 30
0.0
 10
-8.8658468223
 20
22.8552643577
 30
0.0
 10
-8.8566962108
 20
22.8040129643
 30
0.0
 10
-8.8181741554
 20
22.7380262017
 30
0.0
 10
-8.7598607635
 20
22.6925928992
 30
0.0
 10
-8.7124602552
 20
22.6813074113
 30
0.0
 10
-8.6894439715
 20
22.6810938617
 30
0.0
 11
-8.8660334901
 21
22.8810634007
 31
0.0
 11
-8.8521785234
 21
22.8049144081
 31
0.0
 11
-8.8138031939
 21
22.7402393213
 31
0.0
 11
-8.7566897831
 21
22.696783192
 31
0.0
 11
-8.6894439715
 21
22.6810938617
 31
0.0
  0
SPLINE
  5
79C
100
AcDbEntity
  8
RACCORDO
100
AcDbSpline
 62
253
  6
CONTINUOUS
 70
0
 71
3
 72
11
 73
7
 74
5
 42
0.0000001
 43
0.0000001
 44
0.0000000001
 12
-0.0021229715
 22
-0.2934126997
 32
0.0
 13
-0.2934077512
 23
-0.0027222951
 33
0.0
 40
0.0
 40
0.0
 40
0.0
 40
0.0
 40
0.2637824102
 40
0.5200811094
 40
0.7646658167
 40
1.0
 40
1.0
 40
1.0
 40
1.0
 10
-13.6339665099
 20
22.8810634007
 30
0.0
 10
-13.6341531774
 20
22.8552643643
 30
0.0
 10
-13.6433037829
 20
22.8040129824
 30
0.0
 10
-13.6818258267
 20
22.7380262225
 30
0.0
 10
-13.7401392174
 20
22.6925929079
 30
0.0
 10
-13.7875397369
 20
22.6813074114
 30
0.0
 10
-13.8105560281
 20
22.6810938617
 30
0.0
 11
-13.6339665099
 21
22.8810634007
 31
0.0
 11
-13.6478214684
 21
22.8049144268
 31
0.0
 11
-13.6861967824
 21
22.7402393478
 31
0.0
 11
-13.743310196
 21
22.6967832031
 31
0.0
 11
-13.8105560281
 21
22.6810938617
 31
0.0
  0
SPLINE
  5
79D
100
AcDbEntity
  8
RACCORDO
100
AcDbSpline
 62
253
  6
CONTINUOUS
 70
0
 71
3
 72
11
 73
7
 74
5
 42
0.0000001
 43
0.0000001
 44
0.0000000001
 12
-0.0021229736
 22
-0.2934127002
 32
0.0
 13
-0.2934077517
 23
-0.0027222946
 33
0.0
 40
0.0
 40
0.0
 40
0.0
 40
0.0
 40
0.2637824775
 40
0.520081226
 40
0.7646658935
 40
1.0
 40
1.0
 40
1.0
 40
1.0
 10
-14.3089565131
 20
22.9032221093
 30
0.0
 10
-14.3091431808
 20
22.8774230663
 30
0.0
 10
-14.3182937923
 20
22.8261716729
 30
0.0
 10
-14.3568158477
 20
22.7601849103
 30
0.0
 10
-14.4151292397
 20
22.7147516077
 30
0.0
 10
-14.462529748
 20
22.7034661198
 30
0.0
 10
-14.4855460317
 20
22.7032525702
 30
0.0
 11
-14.3089565131
 21
22.9032221093
 31
0.0
 11
-14.3228114797
 21
22.8270731166
 31
0.0
 11
-14.3611868092
 21
22.7623980299
 31
0.0
 11
-14.41830022
 21
22.7189419006
 31
0.0
 11
-14.4855460317
 21
22.7032525702
 31
0.0
  0
LINE
  5
79E
100
AcDbEntity
  8
RACCORDO
100
AcDbLine
 62
7
  6
CONTINUOUS
 10
-15.9786541704
 20
24.8114243722
 11
-15.9197259848
 21
24.6114548332
  0
SPLINE
  5
79F
100
AcDbEntity
  8
RACCORDO
100
AcDbSpline
 62
253
  6
CONTINUOUS
 70
0
 71
3
 72
11
 73
7
 74
5
 42
0.0000001
 43
0.0000001
 44
0.0000000001
 12
-0.0021229618
 22
0.2934127029
 32
0.0
 13
-0.2934077543
 23
0.002722294
 33
0.0
 40
0.0
 40
0.0
 40
0.0
 40
0.0
 40
0.263782559
 40
0.5200813626
 40
0.7646659797
 40
1.0
 40
1.0
 40
1.0
 40
1.0
 10
-14.3089565131
 20
24.6142329557
 30
0.0
 10
-14.3091431799
 20
24.6400320069
 30
0.0
 10
-14.3182937969
 20
24.6912834146
 30
0.0
 10
-14.356815866
 20
24.7572701807
 30
0.0
 10
-14.4151292606
 20
24.8027034682
 30
0.0
 10
-14.4625297562
 20
24.8139889452
 30
0.0
 10
-14.4855460317
 20
24.8142024947
 30
0.0
 11
-14.3089565131
 21
24.6142329557
 31
0.0
 11
-14.3228114872
 21
24.6903819719
 31
0.0
 11
-14.3611868346
 21
24.7550570677
 31
0.0
 11
-14.4183002422
 21
24.7985131778
 31
0.0
 11
-14.4855460317
 21
24.8142024947
 31
0.0
  0
SPLINE
  5
7A0
100
AcDbEntity
  8
RACCORDO
100
AcDbSpline
 62
253
  6
CONTINUOUS
 70
0
 71
3
 72
11
 73
7
 74
5
 42
0.0000001
 43
0.0000001
 44
0.0000000001
 12
-0.0021229736
 22
0.2934127002
 32
0.0
 13
-0.2934077517
 23
0.0027222946
 33
0.0
 40
0.0
 40
0.0
 40
0.0
 40
0.0
 40
0.2637824775
 40
0.520081226
 40
0.7646658935
 40
1.0
 40
1.0
 40
1.0
 40
1.0
 10
-13.6339665099
 20
24.6363916642
 30
0.0
 10
-13.6341531777
 20
24.6621907072
 30
0.0
 10
-13.6433037892
 20
24.7134421006
 30
0.0
 10
-13.6818258446
 20
24.7794288632
 30
0.0
 10
-13.7401392365
 20
24.8248621657
 30
0.0
 10
-13.7875397448
 20
24.8361476537
 30
0.0
 10
-13.8105560285
 20
24.8363612032
 30
0.0
 11
-13.6339665099
 21
24.6363916642
 31
0.0
 11
-13.6478214766
 21
24.7125406568
 31
0.0
 11
-13.6861968061
 21
24.7772157436
 31
0.0
 11
-13.7433102169
 21
24.8206718729
 31
0.0
 11
-13.8105560285
 21
24.8363612032
 31
0.0
  0
SPLINE
  5
7A1
100
AcDbEntity
  8
RACCORDO
100
AcDbSpline
 62
253
  6
CONTINUOUS
 70
0
 71
3
 72
11
 73
7
 74
5
 42
0.0000001
 43
0.0000001
 44
0.0000000001
 12
0.0021229715
 22
0.2934126997
 32
0.0
 13
0.2934077512
 23
0.0027222951
 33
0.0
 40
0.0
 40
0.0
 40
0.0
 40
0.0
 40
0.2637824102
 40
0.5200811094
 40
0.7646658167
 40
1.0
 40
1.0
 40
1.0
 40
1.0
 10
-8.8660334901
 20
24.6363916642
 30
0.0
 10
-8.8658468226
 20
24.6621907006
 30
0.0
 10
-8.8566962171
 20
24.7134420825
 30
0.0
 10
-8.8181741733
 20
24.7794288424
 30
0.0
 10
-8.7598607826
 20
24.824862157
 30
0.0
 10
-8.7124602631
 20
24.8361476536
 30
0.0
 10
-8.6894439719
 20
24.8363612032
 30
0.0
 11
-8.8660334901
 21
24.6363916642
 31
0.0
 11
-8.8521785316
 21
24.7125406381
 31
0.0
 11
-8.8138032176
 21
24.7772157171
 31
0.0
 11
-8.756689804
 21
24.8206718618
 31
0.0
 11
-8.6894439719
 21
24.8363612032
 31
0.0
  0
SPLINE
  5
7A2
100
AcDbEntity
  8
RACCORDO
100
AcDbSpline
 62
253
  6
CONTINUOUS
 70
0
 71
3
 72
11
 73
7
 74
5
 42
0.0000001
 43
0.0000001
 44
0.0000000001
 12
0.0021229736
 22
0.2934127002
 32
0.0
 13
0.2934077517
 23
0.0027222946
 33
0.0
 40
0.0
 40
0.0
 40
0.0
 40
0.0
 40
0.2637824775
 40
0.520081226
 40
0.7646658935
 40
1.0
 40
1.0
 40
1.0
 40
1.0
 10
-8.1910434869
 20
24.6142329557
 30
0.0
 10
-8.1908568192
 20
24.6400319987
 30
0.0
 10
-8.1817062077
 20
24.691283392
 30
0.0
 10
-8.1431841523
 20
24.7572701547
 30
0.0
 10
-8.0848707603
 20
24.8027034572
 30
0.0
 10
-8.037470252
 20
24.8139889451
 30
0.0
 10
-8.0144539683
 20
24.8142024947
 30
0.0
 11
-8.1910434869
 21
24.6142329557
 31
0.0
 11
-8.1771885203
 21
24.6903819483
 31
0.0
 11
-8.1388131908
 21
24.755057035
 31
0.0
 11
-8.08169978
 21
24.7985131644
 31
0.0
 11
-8.0144539683
 21
24.8142024947
 31
0.0
  0
SPLINE
  5
7A3
100
AcDbEntity
  8
RACCORDO
100
AcDbSpline
 62
7
  6
CONTINUOUS
 70
0
 71
3
 72
13
 73
9
 74
7
 42
0.0000001
 43
0.0000001
 44
0.0000000001
 12
0.0326876015
 22
-0.0241549068
 32
0.0
 13
0.0151283441
 23
-0.0377236268
 33
0.0
 40
0.0
 40
0.0
 40
0.0
 40
0.0
 40
0.0248994742
 40
0.0793492825
 40
0.1632151417
 40
0.2760887473
 40
0.5859645038
 40
1.0
 40
1.0
 40
1.0
 40
1.0
 10
-4.1489227492
 20
23.9034300864
 30
0.0
 10
-4.1486514479
 20
23.9032296049
 30
0.0
 10
-4.1482290897
 20
23.9021664054
 30
0.0
 10
-4.1472943831
 20
23.9002203885
 30
0.0
 10
-4.1460665448
 20
23.8970150417
 30
0.0
 10
-4.1435944834
 20
23.890629833
 30
0.0
 10
-4.1396226528
 20
23.879998502
 30
0.0
 10
-4.1360513653
 20
23.8708680689
 30
0.0
 10
-4.1339634748
 20
23.8656617621
 30
0.0
 11
-4.1489227492
 21
23.9034300864
 31
0.0
 11
-4.1483832223
 21
23.902573882
 31
0.0
 11
-4.1474808223
 21
23.9005531613
 31
0.0
 11
-4.1462086427
 21
23.8973908138
 31
0.0
 11
-4.144559777
 21
23.893109729
 31
0.0
 11
-4.1400922749
 21
23.8813340965
 31
0.0
 11
-4.1339634748
 21
23.8656617621
 31
0.0
  0
SPLINE
  5
7A4
100
AcDbEntity
  8
RACCORDO
100
AcDbSpline
 62
7
  6
CONTINUOUS
 70
0
 71
3
 72
9
 73
5
 74
3
 42
0.0000001
 43
0.0000001
 44
0.0000000001
 12
0.0242545461
 22
-0.0604804757
 32
0.0
 13
0.0292785518
 23
-0.0582145802
 33
0.0
 40
0.0
 40
0.0
 40
0.0
 40
0.0
 40
0.2153738612
 40
1.0
 40
1.0
 40
1.0
 40
1.0
 10
-4.1339634748
 20
23.8656617621
 30
0.0
 10
-4.1322222097
 20
23.8613197909
 30
0.0
 10
-4.123983031
 20
23.8412225231
 30
0.0
 10
-4.1149202947
 20
23.8214568044
 30
0.0
 10
-4.1072627223
 20
23.806231244
 30
0.0
 11
-4.1339634748
 21
23.8656617621
 31
0.0
 11
-4.1286350008
 21
23.8526783177
 31
0.0
 11
-4.1072627223
 21
23.806231244
 31
0.0
  0
LINE
  5
7A5
100
AcDbEntity
  8
RACCORDO
100
AcDbLine
 62
7
  6
CONTINUOUS
 10
15.9786541704
 20
-24.8114243722
 11
15.9197259848
 21
-24.6114548332
  0
SPLINE
  5
7A6
100
AcDbEntity
  8
RACCORDO
100
AcDbSpline
 62
253
  6
CONTINUOUS
 70
0
 71
3
 72
11
 73
7
 74
5
 42
0.0000001
 43
0.0000001
 44
0.0000000001
 12
0.0021229618
 22
-0.2934127029
 32
0.0
 13
0.2934077543
 23
-0.002722294
 33
0.0
 40
0.0
 40
0.0
 40
0.0
 40
0.0
 40
0.263782559
 40
0.5200813626
 40
0.7646659797
 40
1.0
 40
1.0
 40
1.0
 40
1.0
 10
14.3089565131
 20
-24.6142329557
 30
0.0
 10
14.3091431799
 20
-24.6400320069
 30
0.0
 10
14.3182937969
 20
-24.6912834146
 30
0.0
 10
14.356815866
 20
-24.7572701807
 30
0.0
 10
14.4151292606
 20
-24.8027034682
 30
0.0
 10
14.4625297562
 20
-24.8139889452
 30
0.0
 10
14.4855460317
 20
-24.8142024947
 30
0.0
 11
14.3089565131
 21
-24.6142329557
 31
0.0
 11
14.3228114872
 21
-24.6903819719
 31
0.0
 11
14.3611868346
 21
-24.7550570677
 31
0.0
 11
14.4183002422
 21
-24.7985131778
 31
0.0
 11
14.4855460317
 21
-24.8142024947
 31
0.0
  0
SPLINE
  5
7A7
100
AcDbEntity
  8
RACCORDO
100
AcDbSpline
 62
253
  6
CONTINUOUS
 70
0
 71
3
 72
11
 73
7
 74
5
 42
0.0000001
 43
0.0000001
 44
0.0000000001
 12
0.0021229736
 22
-0.2934127002
 32
0.0
 13
0.2934077517
 23
-0.0027222946
 33
0.0
 40
0.0
 40
0.0
 40
0.0
 40
0.0
 40
0.2637824775
 40
0.520081226
 40
0.7646658935
 40
1.0
 40
1.0
 40
1.0
 40
1.0
 10
13.6339665099
 20
-24.6363916642
 30
0.0
 10
13.6341531777
 20
-24.6621907072
 30
0.0
 10
13.6433037892
 20
-24.7134421006
 30
0.0
 10
13.6818258446
 20
-24.7794288632
 30
0.0
 10
13.7401392365
 20
-24.8248621657
 30
0.0
 10
13.7875397448
 20
-24.8361476537
 30
0.0
 10
13.8105560285
 20
-24.8363612032
 30
0.0
 11
13.6339665099
 21
-24.6363916642
 31
0.0
 11
13.6478214766
 21
-24.7125406568
 31
0.0
 11
13.6861968061
 21
-24.7772157436
 31
0.0
 11
13.7433102169
 21
-24.8206718729
 31
0.0
 11
13.8105560285
 21
-24.8363612032
 31
0.0
  0
SPLINE
  5
7A8
100
AcDbEntity
  8
RACCORDO
100
AcDbSpline
 62
253
  6
CONTINUOUS
 70
0
 71
3
 72
11
 73
7
 74
5
 42
0.0000001
 43
0.0000001
 44
0.0000000001
 12
-0.0021229715
 22
-0.2934126997
 32
0.0
 13
-0.2934077512
 23
-0.0027222951
 33
0.0
 40
0.0
 40
0.0
 40
0.0
 40
0.0
 40
0.2637824102
 40
0.5200811094
 40
0.7646658167
 40
1.0
 40
1.0
 40
1.0
 40
1.0
 10
8.8660334901
 20
-24.6363916642
 30
0.0
 10
8.8658468226
 20
-24.6621907006
 30
0.0
 10
8.8566962171
 20
-24.7134420825
 30
0.0
 10
8.8181741733
 20
-24.7794288424
 30
0.0
 10
8.7598607826
 20
-24.824862157
 30
0.0
 10
8.7124602631
 20
-24.8361476536
 30
0.0
 10
8.6894439719
 20
-24.8363612032
 30
0.0
 11
8.8660334901
 21
-24.6363916642
 31
0.0
 11
8.8521785316
 21
-24.7125406381
 31
0.0
 11
8.8138032176
 21
-24.7772157171
 31
0.0
 11
8.756689804
 21
-24.8206718618
 31
0.0
 11
8.6894439719
 21
-24.8363612032
 31
0.0
  0
SPLINE
  5
7A9
100
AcDbEntity
  8
RACCORDO
100
AcDbSpline
 62
253
  6
CONTINUOUS
 70
0
 71
3
 72
11
 73
7
 74
5
 42
0.0000001
 43
0.0000001
 44
0.0000000001
 12
-0.0021229736
 22
-0.2934127002
 32
0.0
 13
-0.2934077517
 23
-0.0027222946
 33
0.0
 40
0.0
 40
0.0
 40
0.0
 40
0.0
 40
0.2637824775
 40
0.520081226
 40
0.7646658935
 40
1.0
 40
1.0
 40
1.0
 40
1.0
 10
8.1910434869
 20
-24.6142329557
 30
0.0
 10
8.1908568192
 20
-24.6400319987
 30
0.0
 10
8.1817062077
 20
-24.691283392
 30
0.0
 10
8.1431841523
 20
-24.7572701547
 30
0.0
 10
8.0848707603
 20
-24.8027034572
 30
0.0
 10
8.037470252
 20
-24.8139889451
 30
0.0
 10
8.0144539683
 20
-24.8142024947
 30
0.0
 11
8.1910434869
 21
-24.6142329557
 31
0.0
 11
8.1771885203
 21
-24.6903819483
 31
0.0
 11
8.1388131908
 21
-24.755057035
 31
0.0
 11
8.08169978
 21
-24.7985131644
 31
0.0
 11
8.0144539683
 21
-24.8142024947
 31
0.0
  0
SPLINE
  5
7AA
100
AcDbEntity
  8
RACCORDO
100
AcDbSpline
 62
7
  6
CONTINUOUS
 70
0
 71
3
 72
13
 73
9
 74
7
 42
0.0000001
 43
0.0000001
 44
0.0000000001
 12
-0.0326876035
 22
0.0241549083
 32
0.0
 13
-0.0151283451
 23
0.0377236291
 33
0.0
 40
0.0
 40
0.0
 40
0.0
 40
0.0
 40
0.024899474
 40
0.0793492822
 40
0.1632151415
 40
0.2760887472
 40
0.585964504
 40
1.0
 40
1.0
 40
1.0
 40
1.0
 10
4.1489227492
 20
-23.9034300864
 30
0.0
 10
4.1486514479
 20
-23.9032296049
 30
0.0
 10
4.1482290897
 20
-23.9021664053
 30
0.0
 10
4.147294383
 20
-23.9002203883
 30
0.0
 10
4.1460665446
 20
-23.8970150413
 30
0.0
 10
4.1435944831
 20
-23.8906298322
 30
0.0
 10
4.1396226523
 20
-23.8799985006
 30
0.0
 10
4.1360513645
 20
-23.8708680669
 30
0.0
 10
4.1339634739
 20
-23.8656617598
 30
0.0
 11
4.1489227492
 21
-23.9034300864
 31
0.0
 11
4.1483832223
 21
-23.9025738819
 31
0.0
 11
4.1474808222
 21
-23.9005531611
 31
0.0
 11
4.1462086426
 21
-23.8973908135
 31
0.0
 11
4.1445597768
 21
-23.8931097284
 31
0.0
 11
4.1400922744
 21
-23.8813340952
 31
0.0
 11
4.1339634739
 21
-23.8656617598
 31
0.0
  0
SPLINE
  5
7AB
100
AcDbEntity
  8
RACCORDO
100
AcDbSpline
 62
7
  6
CONTINUOUS
 70
0
 71
3
 72
9
 73
5
 74
3
 42
0.0000001
 43
0.0000001
 44
0.0000000001
 12
-0.024254548
 22
0.0604804799
 32
0.0
 13
-0.0292785544
 23
0.0582145841
 33
0.0
 40
0.0
 40
0.0
 40
0.0
 40
0.0
 40
0.2153738617
 40
1.0
 40
1.0
 40
1.0
 40
1.0
 10
4.1339634739
 20
-23.8656617598
 30
0.0
 10
4.1322222086
 20
-23.8613197883
 30
0.0
 10
4.1239830293
 20
-23.8412225191
 30
0.0
 10
4.1149202922
 20
-23.8214567991
 30
0.0
 10
4.1072627192
 20
-23.8062312377
 30
0.0
 11
4.1339634739
 21
-23.8656617598
 31
0.0
 11
4.1286349994
 21
-23.8526783145
 31
0.0
 11
4.1072627192
 21
-23.8062312377
 31
0.0
  0
LINE
  5
7AC
100
AcDbEntity
  8
RACCORDO
100
AcDbLine
 62
7
  6
CONTINUOUS
 10
-15.9786541704
 20
-24.8114243722
 11
-15.9197259848
 21
-24.6114548332
  0
SPLINE
  5
7AD
100
AcDbEntity
  8
RACCORDO
100
AcDbSpline
 62
253
  6
CONTINUOUS
 70
0
 71
3
 72
11
 73
7
 74
5
 42
0.0000001
 43
0.0000001
 44
0.0000000001
 12
-0.0021229618
 22
0.2934127029
 32
0.0
 13
-0.2934077543
 23
0.002722294
 33
0.0
 40
0.0
 40
0.0
 40
0.0
 40
0.0
 40
0.263782559
 40
0.5200813626
 40
0.7646659797
 40
1.0
 40
1.0
 40
1.0
 40
1.0
 10
-14.3089565131
 20
-22.9032221093
 30
0.0
 10
-14.3091431799
 20
-22.8774230581
 30
0.0
 10
-14.3182937969
 20
-22.8261716504
 30
0.0
 10
-14.356815866
 20
-22.7601848842
 30
0.0
 10
-14.4151292606
 20
-22.7147515967
 30
0.0
 10
-14.4625297562
 20
-22.7034661197
 30
0.0
 10
-14.4855460317
 20
-22.7032525702
 30
0.0
 11
-14.3089565131
 21
-22.9032221093
 31
0.0
 11
-14.3228114872
 21
-22.827073093
 31
0.0
 11
-14.3611868346
 21
-22.7623979972
 31
0.0
 11
-14.4183002422
 21
-22.7189418872
 31
0.0
 11
-14.4855460317
 21
-22.7032525702
 31
0.0
  0
SPLINE
  5
7AE
100
AcDbEntity
  8
RACCORDO
100
AcDbSpline
 62
253
  6
CONTINUOUS
 70
0
 71
3
 72
18
 73
14
 74
12
 42
0.0000001
 43
0.0000001
 44
0.0000000001
 12
-0.2590460603
 22
-0.2791120212
 32
0.0
 13
-0.3807996608
 23
0.0000060799
 33
0.0
 40
0.0
 40
0.0
 40
0.0
 40
0.0
 40
0.005560637
 40
0.0175228779
 40
0.0362003688
 40
0.0618292691
 40
0.0946929818
 40
0.13508621
 40
0.2399352626
 40
0.3794558962
 40
0.5558966532
 40
0.7668418516
 40
1.0
 40
1.0
 40
1.0
 40
1.0
 10
5.7894952266
 20
-24.9423615741
 30
0.0
 10
5.7890150729
 20
-24.942878921
 30
0.0
 10
5.7866293726
 20
-24.9433036321
 30
0.0
 10
5.7822667711
 20
-24.9441371486
 30
0.0
 10
5.7750673904
 20
-24.9448067438
 30
0.0
 10
5.7653397699
 20
-24.9455804873
 30
0.0
 10
5.7527938538
 20
-24.9463096776
 30
0.0
 10
5.7302186291
 20
-24.9473827442
 30
0.0
 10
5.6940866807
 20
-24.9485914328
 30
0.0
 10
5.640687941
 20
-24.9498282151
 30
0.0
 10
5.5738120818
 20
-24.9508372325
 30
0.0
 10
5.4950471829
 20
-24.9515122332
 30
0.0
 10
5.4386754787
 20
-24.9516682792
 30
0.0
 10
5.409079964
 20
-24.9516678067
 30
0.0
 11
5.7894952266
 21
-24.9423615741
 31
0.0
 11
5.7875285261
 21
-24.9431463336
 31
0.0
 11
5.7830413249
 21
-24.9439305723
 31
0.0
 11
5.7759716991
 21
-24.944709271
 31
0.0
 11
5.7662425579
 21
-24.9454781626
 31
0.0
 11
5.7537509292
 21
-24.9462342635
 31
0.0
 11
5.7383870192
 21
-24.946974406
 31
0.0
 11
5.6984854803
 21
-24.9483855382
 31
0.0
 11
5.6453712772
 21
-24.9496566136
 31
0.0
 11
5.5781908716
 21
-24.9507046789
 31
0.0
 11
5.4978661459
 21
-24.9514142875
 31
0.0
 11
5.409079964
 21
-24.9516678067
 31
0.0
  0
SPLINE
  5
7AF
100
AcDbEntity
  8
RACCORDO
100
AcDbSpline
 62
253
  6
CONTINUOUS
 70
0
 71
3
 72
11
 73
7
 74
5
 42
0.0000001
 43
0.0000001
 44
0.0000000001
 12
-0.0021229736
 22
0.2934127002
 32
0.0
 13
-0.2934077517
 23
0.0027222946
 33
0.0
 40
0.0
 40
0.0
 40
0.0
 40
0.0
 40
0.2637824775
 40
0.520081226
 40
0.7646658935
 40
1.0
 40
1.0
 40
1.0
 40
1.0
 10
-13.6339665099
 20
-22.8810634007
 30
0.0
 10
-13.6341531777
 20
-22.8552643577
 30
0.0
 10
-13.6433037892
 20
-22.8040129643
 30
0.0
 10
-13.6818258446
 20
-22.7380262017
 30
0.0
 10
-13.7401392365
 20
-22.6925928992
 30
0.0
 10
-13.7875397448
 20
-22.6813074113
 30
0.0
 10
-13.8105560285
 20
-22.6810938617
 30
0.0
 11
-13.6339665099
 21
-22.8810634007
 31
0.0
 11
-13.6478214766
 21
-22.8049144081
 31
0.0
 11
-13.6861968061
 21
-22.7402393213
 31
0.0
 11
-13.7433102169
 21
-22.696783192
 31
0.0
 11
-13.8105560285
 21
-22.6810938617
 31
0.0
  0
SPLINE
  5
7B0
100
AcDbEntity
  8
RACCORDO
100
AcDbSpline
 62
253
  6
CONTINUOUS
 70
0
 71
3
 72
9
 73
5
 74
3
 42
0.0000001
 43
0.0000001
 44
0.0000000001
 12
0.2647621058
 22
0.0086923505
 32
0.0
 13
0.2649047558
 23
-0.0000005304
 33
0.0
 40
0.0
 40
0.0
 40
0.0
 40
0.0
 40
0.4167187156
 40
1.0
 40
1.0
 40
1.0
 40
1.0
 10
14.4855460317
 20
-24.8142024947
 30
0.0
 10
14.5223231399
 20
-24.812995073
 30
0.0
 10
14.6106273238
 20
-24.8118640733
 30
0.0
 10
14.6989256475
 20
-24.8114242691
 30
0.0
 10
14.7504303095
 20
-24.8114243722
 30
0.0
 11
14.4855460317
 21
-24.8142024947
 31
0.0
 11
14.5959181344
 21
-24.8121724847
 31
0.0
 11
14.7504303095
 21
-24.8114243722
 31
0.0
  0
SPLINE
  5
7B1
100
AcDbEntity
  8
RACCORDO
100
AcDbSpline
 62
253
  6
CONTINUOUS
 70
0
 71
3
 72
9
 73
5
 74
3
 42
0.0000001
 43
0.0000001
 44
0.0000000001
 12
0.618111099
 22
-0.0000279388
 32
0.0
 13
0.6177767873
 23
0.0203266472
 33
0.0
 40
0.0
 40
0.0
 40
0.0
 40
0.0
 40
0.5832847887
 40
1.0
 40
1.0
 40
1.0
 40
1.0
 10
13.1924927135
 20
-24.8428434891
 30
0.0
 10
13.3126709808
 20
-24.8428489212
 30
0.0
 10
13.5187002658
 20
-24.8418117628
 30
0.0
 10
13.7247437004
 20
-24.8391846776
 30
0.0
 10
13.8105560285
 20
-24.8363612032
 30
0.0
 11
13.1924927135
 21
-24.8428434891
 31
0.0
 11
13.5530232907
 21
-24.841098077
 31
0.0
 11
13.8105560285
 21
-24.8363612032
 31
0.0
  0
SPLINE
  5
7B2
100
AcDbEntity
  8
RACCORDO
100
AcDbSpline
 62
253
  6
CONTINUOUS
 70
0
 71
3
 72
9
 73
5
 74
3
 42
0.0000001
 43
0.0000001
 44
0.0000000001
 12
0.6177768112
 22
-0.0203259176
 32
0.0
 13
0.6181110989
 23
0.0000278157
 33
0.0
 40
0.0
 40
0.0
 40
0.0
 40
0.0
 40
0.4167164624
 40
1.0
 40
1.0
 40
1.0
 40
1.0
 10
8.6894439715
 20
-24.8363612032
 30
0.0
 10
8.7752565606
 20
-24.8391845847
 30
0.0
 10
8.9812999898
 20
-24.8418118399
 30
0.0
 10
9.187329277
 20
-24.8428488972
 30
0.0
 10
9.3075072865
 20
-24.8428434891
 30
0.0
 11
8.6894439715
 21
-24.8363612032
 31
0.0
 11
8.9469774827
 21
-24.8410980837
 31
0.0
 11
9.3075072865
 21
-24.8428434891
 31
0.0
  0
SPLINE
  5
7B3
100
AcDbEntity
  8
RACCORDO
100
AcDbSpline
 62
253
  6
CONTINUOUS
 70
0
 71
3
 72
9
 73
5
 74
3
 42
0.0000001
 43
0.0000001
 44
0.0000000001
 12
0.2649047558
 22
0.0000005304
 32
0.0
 13
0.2647621058
 23
-0.0086923505
 33
0.0
 40
0.0
 40
0.0
 40
0.0
 40
0.0
 40
0.5832812844
 40
1.0
 40
1.0
 40
1.0
 40
1.0
 10
7.7495696905
 20
-24.8114243722
 30
0.0
 10
7.8010743525
 20
-24.8114242691
 30
0.0
 10
7.8893726762
 20
-24.8118640733
 30
0.0
 10
7.9776768601
 20
-24.812995073
 30
0.0
 10
8.0144539683
 20
-24.8142024947
 30
0.0
 11
7.7495696905
 21
-24.8114243722
 31
0.0
 11
7.9040818656
 21
-24.8121724847
 31
0.0
 11
8.0144539683
 21
-24.8142024947
 31
0.0
  0
SPLINE
  5
7B4
100
AcDbEntity
  8
RACCORDO
100
AcDbSpline
 62
253
  6
CONTINUOUS
 70
0
 71
3
 72
9
 73
5
 74
3
 42
0.0000001
 43
0.0000001
 44
0.0000000001
 12
0.2647621058
 22
0.0086923505
 32
0.0
 13
0.2649047558
 23
-0.0000005304
 33
0.0
 40
0.0
 40
0.0
 40
0.0
 40
0.0
 40
0.4167187156
 40
1.0
 40
1.0
 40
1.0
 40
1.0
 10
-8.0144539683
 20
-24.8142024947
 30
0.0
 10
-7.9776768601
 20
-24.812995073
 30
0.0
 10
-7.8893726762
 20
-24.8118640733
 30
0.0
 10
-7.8010743525
 20
-24.8114242691
 30
0.0
 10
-7.7495696905
 20
-24.8114243722
 30
0.0
 11
-8.0144539683
 21
-24.8142024947
 31
0.0
 11
-7.9040818656
 21
-24.8121724847
 31
0.0
 11
-7.7495696905
 21
-24.8114243722
 31
0.0
  0
SPLINE
  5
7B5
100
AcDbEntity
  8
RACCORDO
100
AcDbSpline
 62
253
  6
CONTINUOUS
 70
0
 71
3
 72
9
 73
5
 74
3
 42
0.0000001
 43
0.0000001
 44
0.0000000001
 12
0.618111099
 22
-0.0000279388
 32
0.0
 13
0.6177767873
 23
0.0203266472
 33
0.0
 40
0.0
 40
0.0
 40
0.0
 40
0.0
 40
0.5832847887
 40
1.0
 40
1.0
 40
1.0
 40
1.0
 10
-9.3075072865
 20
-24.8428434891
 30
0.0
 10
-9.1873290192
 20
-24.8428489212
 30
0.0
 10
-8.9812997342
 20
-24.8418117628
 30
0.0
 10
-8.7752562996
 20
-24.8391846776
 30
0.0
 10
-8.6894439715
 20
-24.8363612032
 30
0.0
 11
-9.3075072865
 21
-24.8428434891
 31
0.0
 11
-8.9469767093
 21
-24.841098077
 31
0.0
 11
-8.6894439715
 21
-24.8363612032
 31
0.0
  0
SPLINE
  5
7B6
100
AcDbEntity
  8
RACCORDO
100
AcDbSpline
 62
253
  6
CONTINUOUS
 70
0
 71
3
 72
9
 73
5
 74
3
 42
0.0000001
 43
0.0000001
 44
0.0000000001
 12
0.6177768112
 22
-0.0203259176
 32
0.0
 13
0.6181110989
 23
0.0000278157
 33
0.0
 40
0.0
 40
0.0
 40
0.0
 40
0.0
 40
0.4167164624
 40
1.0
 40
1.0
 40
1.0
 40
1.0
 10
-13.8105560285
 20
-24.8363612032
 30
0.0
 10
-13.7247434394
 20
-24.8391845847
 30
0.0
 10
-13.5187000102
 20
-24.8418118399
 30
0.0
 10
-13.312670723
 20
-24.8428488972
 30
0.0
 10
-13.1924927135
 20
-24.8428434891
 30
0.0
 11
-13.8105560285
 21
-24.8363612032
 31
0.0
 11
-13.5530225173
 21
-24.8410980837
 31
0.0
 11
-13.1924927135
 21
-24.8428434891
 31
0.0
  0
SPLINE
  5
7B7
100
AcDbEntity
  8
RACCORDO
100
AcDbSpline
 62
253
  6
CONTINUOUS
 70
0
 71
3
 72
9
 73
5
 74
3
 42
0.0000001
 43
0.0000001
 44
0.0000000001
 12
0.2649047558
 22
0.0000005304
 32
0.0
 13
0.2647621058
 23
-0.0086923505
 33
0.0
 40
0.0
 40
0.0
 40
0.0
 40
0.0
 40
0.5832812844
 40
1.0
 40
1.0
 40
1.0
 40
1.0
 10
-14.7504303095
 20
-24.8114243722
 30
0.0
 10
-14.6989256475
 20
-24.8114242691
 30
0.0
 10
-14.6106273238
 20
-24.8118640733
 30
0.0
 10
-14.5223231399
 20
-24.812995073
 30
0.0
 10
-14.4855460317
 20
-24.8142024947
 30
0.0
 11
-14.7504303095
 21
-24.8114243722
 31
0.0
 11
-14.5959181344
 21
-24.8121724847
 31
0.0
 11
-14.4855460317
 21
-24.8142024947
 31
0.0
  0
SPLINE
  5
7B8
100
AcDbEntity
  8
RACCORDO
100
AcDbSpline
 62
253
  6
CONTINUOUS
 70
0
 71
3
 72
18
 73
14
 74
12
 42
0.0000001
 43
0.0000001
 44
0.0000000001
 12
-0.3807996547
 22
-0.0000297651
 32
0.0
 13
-0.2590592933
 23
0.2790997321
 33
0.0
 40
0.0
 40
0.0
 40
0.0
 40
0.0
 40
0.2331556434
 40
0.4441008784
 40
0.6205419501
 40
0.7600628339
 40
0.8649127139
 40
0.9053063178
 40
0.9381703013
 40
0.963799355
 40
0.982477005
 40
0.9944392953
 40
1.0
 40
1.0
 40
1.0
 40
1.0
 10
-5.409079964
 20
-24.9516678067
 30
0.0
 10
-5.4386751602
 20
-24.95167012
 30
0.0
 10
-5.4950465484
 20
-24.9515110183
 30
0.0
 10
-5.5738111782
 20
-24.9508376029
 30
0.0
 10
-5.6406871098
 20
-24.9498281435
 30
0.0
 10
-5.6940860271
 20
-24.9485914668
 30
0.0
 10
-5.7302181582
 20
-24.9473827503
 30
0.0
 10
-5.7527935713
 20
-24.9463096924
 30
0.0
 10
-5.7653395869
 20
-24.9455805035
 30
0.0
 10
-5.7750672868
 20
-24.9448067522
 30
0.0
 10
-5.7822666986
 20
-24.9441371434
 30
0.0
 10
-5.7866293622
 20
-24.943303631
 30
0.0
 10
-5.7890150425
 20
-24.9428789045
 30
0.0
 10
-5.7894952266
 20
-24.9423615741
 30
0.0
 11
-5.409079964
 21
-24.9516678067
 31
0.0
 11
-5.4978651903
 21
-24.9514140768
 31
0.0
 11
-5.5781899313
 21
-24.9507047486
 31
0.0
 11
-5.6453704548
 21
-24.949656619
 31
0.0
 11
-5.6984847529
 21
-24.9483855561
 31
0.0
 11
-5.7383866063
 21
-24.9469744175
 31
0.0
 11
-5.7537506595
 21
-24.9462342776
 31
0.0
 11
-5.7662423913
 21
-24.9454781762
 31
0.0
 11
-5.7759715904
 21
-24.9447092771
 31
0.0
 11
-5.783041276
 21
-24.9439305686
 31
0.0
 11
-5.7875284955
 21
-24.9431463266
 31
0.0
 11
-5.7894952266
 21
-24.9423615741
 31
0.0
  0
SPLINE
  5
7B9
100
AcDbEntity
  8
RACCORDO
100
AcDbSpline
 62
253
  6
CONTINUOUS
 70
0
 71
3
 72
9
 73
5
 74
3
 42
0.0000001
 43
0.0000001
 44
0.0000000001
 12
-0.2647621058
 22
-0.0086923505
 32
0.0
 13
-0.2649047558
 23
0.0000005304
 33
0.0
 40
0.0
 40
0.0
 40
0.0
 40
0.0
 40
0.4167187156
 40
1.0
 40
1.0
 40
1.0
 40
1.0
 10
8.0144539683
 20
24.8142024947
 30
0.0
 10
7.9776768601
 20
24.812995073
 30
0.0
 10
7.8893726762
 20
24.8118640733
 30
0.0
 10
7.8010743525
 20
24.8114242691
 30
0.0
 10
7.7495696905
 20
24.8114243722
 30
0.0
 11
8.0144539683
 21
24.8142024947
 31
0.0
 11
7.9040818656
 21
24.8121724847
 31
0.0
 11
7.7495696905
 21
24.8114243722
 31
0.0
  0
SPLINE
  5
7BA
100
AcDbEntity
  8
RACCORDO
100
AcDbSpline
 62
253
  6
CONTINUOUS
 70
0
 71
3
 72
9
 73
5
 74
3
 42
0.0000001
 43
0.0000001
 44
0.0000000001
 12
-0.618111099
 22
0.0000279388
 32
0.0
 13
-0.6177767873
 23
-0.0203266472
 33
0.0
 40
0.0
 40
0.0
 40
0.0
 40
0.0
 40
0.5832847887
 40
1.0
 40
1.0
 40
1.0
 40
1.0
 10
9.3075072865
 20
24.8428434891
 30
0.0
 10
9.1873290192
 20
24.8428489212
 30
0.0
 10
8.9812997342
 20
24.8418117628
 30
0.0
 10
8.7752562996
 20
24.8391846776
 30
0.0
 10
8.6894439715
 20
24.8363612032
 30
0.0
 11
9.3075072865
 21
24.8428434891
 31
0.0
 11
8.9469767093
 21
24.841098077
 31
0.0
 11
8.6894439715
 21
24.8363612032
 31
0.0
  0
SPLINE
  5
7BB
100
AcDbEntity
  8
RACCORDO
100
AcDbSpline
 62
253
  6
CONTINUOUS
 70
0
 71
3
 72
9
 73
5
 74
3
 42
0.0000001
 43
0.0000001
 44
0.0000000001
 12
-0.6177768112
 22
0.0203259176
 32
0.0
 13
-0.6181110989
 23
-0.0000278157
 33
0.0
 40
0.0
 40
0.0
 40
0.0
 40
0.0
 40
0.4167164624
 40
1.0
 40
1.0
 40
1.0
 40
1.0
 10
13.8105560285
 20
24.8363612032
 30
0.0
 10
13.7247434394
 20
24.8391845847
 30
0.0
 10
13.5187000102
 20
24.8418118399
 30
0.0
 10
13.312670723
 20
24.8428488972
 30
0.0
 10
13.1924927135
 20
24.8428434891
 30
0.0
 11
13.8105560285
 21
24.8363612032
 31
0.0
 11
13.5530225173
 21
24.8410980837
 31
0.0
 11
13.1924927135
 21
24.8428434891
 31
0.0
  0
SPLINE
  5
7BC
100
AcDbEntity
  8
RACCORDO
100
AcDbSpline
 62
253
  6
CONTINUOUS
 70
0
 71
3
 72
9
 73
5
 74
3
 42
0.0000001
 43
0.0000001
 44
0.0000000001
 12
-0.2649047558
 22
-0.0000005304
 32
0.0
 13
-0.2647621058
 23
0.0086923505
 33
0.0
 40
0.0
 40
0.0
 40
0.0
 40
0.0
 40
0.5832812844
 40
1.0
 40
1.0
 40
1.0
 40
1.0
 10
14.7504303095
 20
24.8114243722
 30
0.0
 10
14.6989256475
 20
24.8114242691
 30
0.0
 10
14.6106273238
 20
24.8118640733
 30
0.0
 10
14.5223231399
 20
24.812995073
 30
0.0
 10
14.4855460317
 20
24.8142024947
 30
0.0
 11
14.7504303095
 21
24.8114243722
 31
0.0
 11
14.5959181344
 21
24.8121724847
 31
0.0
 11
14.4855460317
 21
24.8142024947
 31
0.0
  0
SPLINE
  5
7BD
100
AcDbEntity
  8
RACCORDO
100
AcDbSpline
 62
253
  6
CONTINUOUS
 70
0
 71
3
 72
11
 73
7
 74
5
 42
0.0000001
 43
0.0000001
 44
0.0000000001
 12
0.0021229715
 22
0.2934126997
 32
0.0
 13
0.2934077512
 23
0.0027222951
 33
0.0
 40
0.0
 40
0.0
 40
0.0
 40
0.0
 40
0.2637824102
 40
0.5200811094
 40
0.7646658167
 40
1.0
 40
1.0
 40
1.0
 40
1.0
 10
-8.8660334901
 20
-22.8810634007
 30
0.0
 10
-8.8658468226
 20
-22.8552643643
 30
0.0
 10
-8.8566962171
 20
-22.8040129824
 30
0.0
 10
-8.8181741733
 20
-22.7380262225
 30
0.0
 10
-8.7598607826
 20
-22.6925929079
 30
0.0
 10
-8.7124602631
 20
-22.6813074114
 30
0.0
 10
-8.6894439719
 20
-22.6810938617
 30
0.0
 11
-8.8660334901
 21
-22.8810634007
 31
0.0
 11
-8.8521785316
 21
-22.8049144268
 31
0.0
 11
-8.8138032176
 21
-22.7402393478
 31
0.0
 11
-8.756689804
 21
-22.6967832031
 31
0.0
 11
-8.6894439719
 21
-22.6810938617
 31
0.0
  0
SPLINE
  5
7BE
100
AcDbEntity
  8
RACCORDO
100
AcDbSpline
 62
253
  6
CONTINUOUS
 70
0
 71
3
 72
11
 73
7
 74
5
 42
0.0000001
 43
0.0000001
 44
0.0000000001
 12
0.0021229736
 22
0.2934127002
 32
0.0
 13
0.2934077517
 23
0.0027222946
 33
0.0
 40
0.0
 40
0.0
 40
0.0
 40
0.0
 40
0.2637824775
 40
0.520081226
 40
0.7646658935
 40
1.0
 40
1.0
 40
1.0
 40
1.0
 10
-8.1910434869
 20
-22.9032221093
 30
0.0
 10
-8.1908568192
 20
-22.8774230663
 30
0.0
 10
-8.1817062077
 20
-22.8261716729
 30
0.0
 10
-8.1431841523
 20
-22.7601849103
 30
0.0
 10
-8.0848707603
 20
-22.7147516077
 30
0.0
 10
-8.037470252
 20
-22.7034661198
 30
0.0
 10
-8.0144539683
 20
-22.7032525702
 30
0.0
 11
-8.1910434869
 21
-22.9032221093
 31
0.0
 11
-8.1771885203
 21
-22.8270731166
 31
0.0
 11
-8.1388131908
 21
-22.7623980299
 31
0.0
 11
-8.08169978
 21
-22.7189419006
 31
0.0
 11
-8.0144539683
 21
-22.7032525702
 31
0.0
  0
SPLINE
  5
7BF
100
AcDbEntity
  8
RACCORDO
100
AcDbSpline
 62
253
  6
CONTINUOUS
 70
0
 71
3
 72
18
 73
14
 74
12
 42
0.0000001
 43
0.0000001
 44
0.0000000001
 12
0.3807996547
 22
0.0000297651
 32
0.0
 13
0.2590592933
 23
-0.2790997321
 33
0.0
 40
0.0
 40
0.0
 40
0.0
 40
0.0
 40
0.2331556434
 40
0.4441008784
 40
0.6205419501
 40
0.7600628339
 40
0.8649127139
 40
0.9053063178
 40
0.9381703013
 40
0.963799355
 40
0.982477005
 40
0.9944392953
 40
1.0
 40
1.0
 40
1.0
 40
1.0
 10
5.409079964
 20
24.9516678067
 30
0.0
 10
5.4386751602
 20
24.95167012
 30
0.0
 10
5.4950465484
 20
24.9515110183
 30
0.0
 10
5.5738111782
 20
24.9508376029
 30
0.0
 10
5.6406871098
 20
24.9498281435
 30
0.0
 10
5.6940860271
 20
24.9485914668
 30
0.0
 10
5.7302181582
 20
24.9473827503
 30
0.0
 10
5.7527935713
 20
24.9463096924
 30
0.0
 10
5.7653395869
 20
24.9455805035
 30
0.0
 10
5.7750672868
 20
24.9448067522
 30
0.0
 10
5.7822666986
 20
24.9441371434
 30
0.0
 10
5.7866293622
 20
24.943303631
 30
0.0
 10
5.7890150425
 20
24.9428789045
 30
0.0
 10
5.7894952266
 20
24.9423615741
 30
0.0
 11
5.409079964
 21
24.9516678067
 31
0.0
 11
5.4978651903
 21
24.9514140768
 31
0.0
 11
5.5781899313
 21
24.9507047486
 31
0.0
 11
5.6453704548
 21
24.949656619
 31
0.0
 11
5.6984847529
 21
24.9483855561
 31
0.0
 11
5.7383866063
 21
24.9469744175
 31
0.0
 11
5.7537506595
 21
24.9462342776
 31
0.0
 11
5.7662423913
 21
24.9454781762
 31
0.0
 11
5.7759715904
 21
24.9447092771
 31
0.0
 11
5.783041276
 21
24.9439305686
 31
0.0
 11
5.7875284955
 21
24.9431463266
 31
0.0
 11
5.7894952266
 21
24.9423615741
 31
0.0
  0
SPLINE
  5
7C0
100
AcDbEntity
  8
RACCORDO
100
AcDbSpline
 62
253
  6
CONTINUOUS
 70
0
 71
3
 72
18
 73
14
 74
12
 42
0.0000001
 43
0.0000001
 44
0.0000000001
 12
0.2590460603
 22
0.2791120212
 32
0.0
 13
0.3807996608
 23
-0.0000060799
 33
0.0
 40
0.0
 40
0.0
 40
0.0
 40
0.0
 40
0.005560637
 40
0.0175228779
 40
0.0362003688
 40
0.0618292691
 40
0.0946929818
 40
0.13508621
 40
0.2399352626
 40
0.3794558962
 40
0.5558966532
 40
0.7668418516
 40
1.0
 40
1.0
 40
1.0
 40
1.0
 10
-5.7894952266
 20
24.9423615741
 30
0.0
 10
-5.7890150729
 20
24.942878921
 30
0.0
 10
-5.7866293726
 20
24.9433036321
 30
0.0
 10
-5.7822667711
 20
24.9441371486
 30
0.0
 10
-5.7750673904
 20
24.9448067438
 30
0.0
 10
-5.7653397699
 20
24.9455804873
 30
0.0
 10
-5.7527938538
 20
24.9463096776
 30
0.0
 10
-5.7302186291
 20
24.9473827442
 30
0.0
 10
-5.6940866807
 20
24.9485914328
 30
0.0
 10
-5.640687941
 20
24.9498282151
 30
0.0
 10
-5.5738120818
 20
24.9508372325
 30
0.0
 10
-5.4950471829
 20
24.9515122332
 30
0.0
 10
-5.4386754787
 20
24.9516682792
 30
0.0
 10
-5.409079964
 20
24.9516678067
 30
0.0
 11
-5.7894952266
 21
24.9423615741
 31
0.0
 11
-5.7875285261
 21
24.9431463336
 31
0.0
 11
-5.7830413249
 21
24.9439305723
 31
0.0
 11
-5.7759716991
 21
24.944709271
 31
0.0
 11
-5.7662425579
 21
24.9454781626
 31
0.0
 11
-5.7537509292
 21
24.9462342635
 31
0.0
 11
-5.7383870192
 21
24.946974406
 31
0.0
 11
-5.6984854803
 21
24.9483855382
 31
0.0
 11
-5.6453712772
 21
24.9496566136
 31
0.0
 11
-5.5781908716
 21
24.9507046789
 31
0.0
 11
-5.4978661459
 21
24.9514142875
 31
0.0
 11
-5.409079964
 21
24.9516678067
 31
0.0
  0
SPLINE
  5
7C1
100
AcDbEntity
  8
RACCORDO
100
AcDbSpline
 62
253
  6
CONTINUOUS
 70
0
 71
3
 72
9
 73
5
 74
3
 42
0.0000001
 43
0.0000001
 44
0.0000000001
 12
-0.2647621058
 22
-0.0086923505
 32
0.0
 13
-0.2649047558
 23
0.0000005304
 33
0.0
 40
0.0
 40
0.0
 40
0.0
 40
0.0
 40
0.4167187156
 40
1.0
 40
1.0
 40
1.0
 40
1.0
 10
-14.4855460317
 20
24.8142024947
 30
0.0
 10
-14.5223231399
 20
24.812995073
 30
0.0
 10
-14.6106273238
 20
24.8118640733
 30
0.0
 10
-14.6989256475
 20
24.8114242691
 30
0.0
 10
-14.7504303095
 20
24.8114243722
 30
0.0
 11
-14.4855460317
 21
24.8142024947
 31
0.0
 11
-14.5959181344
 21
24.8121724847
 31
0.0
 11
-14.7504303095
 21
24.8114243722
 31
0.0
  0
SPLINE
  5
7C2
100
AcDbEntity
  8
RACCORDO
100
AcDbSpline
 62
253
  6
CONTINUOUS
 70
0
 71
3
 72
9
 73
5
 74
3
 42
0.0000001
 43
0.0000001
 44
0.0000000001
 12
-0.618111099
 22
0.0000279388
 32
0.0
 13
-0.6177767873
 23
-0.0203266472
 33
0.0
 40
0.0
 40
0.0
 40
0.0
 40
0.0
 40
0.5832847887
 40
1.0
 40
1.0
 40
1.0
 40
1.0
 10
-13.1924927135
 20
24.8428434891
 30
0.0
 10
-13.3126709808
 20
24.8428489212
 30
0.0
 10
-13.5187002658
 20
24.8418117628
 30
0.0
 10
-13.7247437004
 20
24.8391846776
 30
0.0
 10
-13.8105560285
 20
24.8363612032
 30
0.0
 11
-13.1924927135
 21
24.8428434891
 31
0.0
 11
-13.5530232907
 21
24.841098077
 31
0.0
 11
-13.8105560285
 21
24.8363612032
 31
0.0
  0
SPLINE
  5
7C3
100
AcDbEntity
  8
RACCORDO
100
AcDbSpline
 62
253
  6
CONTINUOUS
 70
0
 71
3
 72
9
 73
5
 74
3
 42
0.0000001
 43
0.0000001
 44
0.0000000001
 12
-0.6177768112
 22
0.0203259176
 32
0.0
 13
-0.6181110989
 23
-0.0000278157
 33
0.0
 40
0.0
 40
0.0
 40
0.0
 40
0.0
 40
0.4167164624
 40
1.0
 40
1.0
 40
1.0
 40
1.0
 10
-8.6894439715
 20
24.8363612032
 30
0.0
 10
-8.7752565606
 20
24.8391845847
 30
0.0
 10
-8.9812999898
 20
24.8418118399
 30
0.0
 10
-9.187329277
 20
24.8428488972
 30
0.0
 10
-9.3075072865
 20
24.8428434891
 30
0.0
 11
-8.6894439715
 21
24.8363612032
 31
0.0
 11
-8.9469774827
 21
24.8410980837
 31
0.0
 11
-9.3075072865
 21
24.8428434891
 31
0.0
  0
SPLINE
  5
7C4
100
AcDbEntity
  8
RACCORDO
100
AcDbSpline
 62
253
  6
CONTINUOUS
 70
0
 71
3
 72
9
 73
5
 74
3
 42
0.0000001
 43
0.0000001
 44
0.0000000001
 12
-0.2649047558
 22
-0.0000005304
 32
0.0
 13
-0.2647621058
 23
0.0086923505
 33
0.0
 40
0.0
 40
0.0
 40
0.0
 40
0.0
 40
0.5832812844
 40
1.0
 40
1.0
 40
1.0
 40
1.0
 10
-7.7495696905
 20
24.8114243722
 30
0.0
 10
-7.8010743525
 20
24.8114242691
 30
0.0
 10
-7.8893726762
 20
24.8118640733
 30
0.0
 10
-7.9776768601
 20
24.812995073
 30
0.0
 10
-8.0144539683
 20
24.8142024947
 30
0.0
 11
-7.7495696905
 21
24.8114243722
 31
0.0
 11
-7.9040818656
 21
24.8121724847
 31
0.0
 11
-8.0144539683
 21
24.8142024947
 31
0.0
  0
SPLINE
  5
7C5
100
AcDbEntity
  8
RACCORDO
100
AcDbSpline
 62
253
  6
CONTINUOUS
 70
0
 71
3
 72
11
 73
7
 74
5
 42
0.0000001
 43
0.0000001
 44
0.0000000001
 12
-0.0021229618
 22
0.2934127029
 32
0.0
 13
-0.2934077543
 23
0.002722294
 33
0.0
 40
0.0
 40
0.0
 40
0.0
 40
0.0
 40
0.263782559
 40
0.5200813626
 40
0.7646659797
 40
1.0
 40
1.0
 40
1.0
 40
1.0
 10
8.1910434869
 20
-22.9032221093
 30
0.0
 10
8.1908568201
 20
-22.8774230581
 30
0.0
 10
8.1817062031
 20
-22.8261716504
 30
0.0
 10
8.143184134
 20
-22.7601848842
 30
0.0
 10
8.0848707394
 20
-22.7147515967
 30
0.0
 10
8.0374702438
 20
-22.7034661197
 30
0.0
 10
8.0144539683
 20
-22.7032525702
 30
0.0
 11
8.1910434869
 21
-22.9032221093
 31
0.0
 11
8.1771885128
 21
-22.827073093
 31
0.0
 11
8.1388131654
 21
-22.7623979972
 31
0.0
 11
8.0816997578
 21
-22.7189418872
 31
0.0
 11
8.0144539683
 21
-22.7032525702
 31
0.0
  0
SPLINE
  5
7C6
100
AcDbEntity
  8
RACCORDO
100
AcDbSpline
 62
253
  6
CONTINUOUS
 70
0
 71
3
 72
11
 73
7
 74
5
 42
0.0000001
 43
0.0000001
 44
0.0000000001
 12
-0.0021229736
 22
0.2934127002
 32
0.0
 13
-0.2934077517
 23
0.0027222946
 33
0.0
 40
0.0
 40
0.0
 40
0.0
 40
0.0
 40
0.2637824775
 40
0.520081226
 40
0.7646658935
 40
1.0
 40
1.0
 40
1.0
 40
1.0
 10
8.8660334901
 20
-22.8810634007
 30
0.0
 10
8.8658468223
 20
-22.8552643577
 30
0.0
 10
8.8566962108
 20
-22.8040129643
 30
0.0
 10
8.8181741554
 20
-22.7380262017
 30
0.0
 10
8.7598607635
 20
-22.6925928992
 30
0.0
 10
8.7124602552
 20
-22.6813074113
 30
0.0
 10
8.6894439715
 20
-22.6810938617
 30
0.0
 11
8.8660334901
 21
-22.8810634007
 31
0.0
 11
8.8521785234
 21
-22.8049144081
 31
0.0
 11
8.8138031939
 21
-22.7402393213
 31
0.0
 11
8.7566897831
 21
-22.696783192
 31
0.0
 11
8.6894439715
 21
-22.6810938617
 31
0.0
  0
SPLINE
  5
7C7
100
AcDbEntity
  8
RACCORDO
100
AcDbSpline
 62
253
  6
CONTINUOUS
 70
0
 71
3
 72
11
 73
7
 74
5
 42
0.0000001
 43
0.0000001
 44
0.0000000001
 12
0.0021229715
 22
0.2934126997
 32
0.0
 13
0.2934077512
 23
0.0027222951
 33
0.0
 40
0.0
 40
0.0
 40
0.0
 40
0.0
 40
0.2637824102
 40
0.5200811094
 40
0.7646658167
 40
1.0
 40
1.0
 40
1.0
 40
1.0
 10
13.6339665099
 20
-22.8810634007
 30
0.0
 10
13.6341531774
 20
-22.8552643643
 30
0.0
 10
13.6433037829
 20
-22.8040129824
 30
0.0
 10
13.6818258267
 20
-22.7380262225
 30
0.0
 10
13.7401392174
 20
-22.6925929079
 30
0.0
 10
13.7875397369
 20
-22.6813074114
 30
0.0
 10
13.8105560281
 20
-22.6810938617
 30
0.0
 11
13.6339665099
 21
-22.8810634007
 31
0.0
 11
13.6478214684
 21
-22.8049144268
 31
0.0
 11
13.6861967824
 21
-22.7402393478
 31
0.0
 11
13.743310196
 21
-22.6967832031
 31
0.0
 11
13.8105560281
 21
-22.6810938617
 31
0.0
  0
SPLINE
  5
7C8
100
AcDbEntity
  8
RACCORDO
100
AcDbSpline
 62
253
  6
CONTINUOUS
 70
0
 71
3
 72
11
 73
7
 74
5
 42
0.0000001
 43
0.0000001
 44
0.0000000001
 12
0.0021229736
 22
0.2934127002
 32
0.0
 13
0.2934077517
 23
0.0027222946
 33
0.0
 40
0.0
 40
0.0
 40
0.0
 40
0.0
 40
0.2637824775
 40
0.520081226
 40
0.7646658935
 40
1.0
 40
1.0
 40
1.0
 40
1.0
 10
14.3089565131
 20
-22.9032221093
 30
0.0
 10
14.3091431808
 20
-22.8774230663
 30
0.0
 10
14.3182937923
 20
-22.8261716729
 30
0.0
 10
14.3568158477
 20
-22.7601849103
 30
0.0
 10
14.4151292397
 20
-22.7147516077
 30
0.0
 10
14.462529748
 20
-22.7034661198
 30
0.0
 10
14.4855460317
 20
-22.7032525702
 30
0.0
 11
14.3089565131
 21
-22.9032221093
 31
0.0
 11
14.3228114797
 21
-22.8270731166
 31
0.0
 11
14.3611868092
 21
-22.7623980299
 31
0.0
 11
14.41830022
 21
-22.7189419006
 31
0.0
 11
14.4855460317
 21
-22.7032525702
 31
0.0
  0
SPLINE
  5
7C9
100
AcDbEntity
  8
RACCORDO
100
AcDbSpline
 62
253
  6
CONTINUOUS
 70
0
 71
3
 72
11
 73
7
 74
5
 42
0.0000001
 43
0.0000001
 44
0.0000000001
 12
-0.0021229736
 22
-0.2934127002
 32
0.0
 13
-0.2934077517
 23
-0.0027222946
 33
0.0
 40
0.0
 40
0.0
 40
0.0
 40
0.0
 40
0.2637824775
 40
0.520081226
 40
0.7646658935
 40
1.0
 40
1.0
 40
1.0
 40
1.0
 10
-14.3089565131
 20
-24.6142329557
 30
0.0
 10
-14.3091431808
 20
-24.6400319987
 30
0.0
 10
-14.3182937923
 20
-24.691283392
 30
0.0
 10
-14.3568158477
 20
-24.7572701547
 30
0.0
 10
-14.4151292397
 20
-24.8027034572
 30
0.0
 10
-14.462529748
 20
-24.8139889451
 30
0.0
 10
-14.4855460317
 20
-24.8142024947
 30
0.0
 11
-14.3089565131
 21
-24.6142329557
 31
0.0
 11
-14.3228114797
 21
-24.6903819483
 31
0.0
 11
-14.3611868092
 21
-24.755057035
 31
0.0
 11
-14.41830022
 21
-24.7985131644
 31
0.0
 11
-14.4855460317
 21
-24.8142024947
 31
0.0
  0
SPLINE
  5
7CA
100
AcDbEntity
  8
RACCORDO
100
AcDbSpline
 62
253
  6
CONTINUOUS
 70
0
 71
3
 72
11
 73
7
 74
5
 42
0.0000001
 43
0.0000001
 44
0.0000000001
 12
-0.0021229715
 22
-0.2934126997
 32
0.0
 13
-0.2934077512
 23
-0.0027222951
 33
0.0
 40
0.0
 40
0.0
 40
0.0
 40
0.0
 40
0.2637824102
 40
0.5200811094
 40
0.7646658167
 40
1.0
 40
1.0
 40
1.0
 40
1.0
 10
-13.6339665099
 20
-24.6363916642
 30
0.0
 10
-13.6341531774
 20
-24.6621907006
 30
0.0
 10
-13.6433037829
 20
-24.7134420825
 30
0.0
 10
-13.6818258267
 20
-24.7794288424
 30
0.0
 10
-13.7401392174
 20
-24.824862157
 30
0.0
 10
-13.7875397369
 20
-24.8361476536
 30
0.0
 10
-13.8105560281
 20
-24.8363612032
 30
0.0
 11
-13.6339665099
 21
-24.6363916642
 31
0.0
 11
-13.6478214684
 21
-24.7125406381
 31
0.0
 11
-13.6861967824
 21
-24.7772157171
 31
0.0
 11
-13.743310196
 21
-24.8206718618
 31
0.0
 11
-13.8105560281
 21
-24.8363612032
 31
0.0
  0
SPLINE
  5
7CB
100
AcDbEntity
  8
RACCORDO
100
AcDbSpline
 62
253
  6
CONTINUOUS
 70
0
 71
3
 72
11
 73
7
 74
5
 42
0.0000001
 43
0.0000001
 44
0.0000000001
 12
0.0021229736
 22
-0.2934127002
 32
0.0
 13
0.2934077517
 23
-0.0027222946
 33
0.0
 40
0.0
 40
0.0
 40
0.0
 40
0.0
 40
0.2637824775
 40
0.520081226
 40
0.7646658935
 40
1.0
 40
1.0
 40
1.0
 40
1.0
 10
-8.8660334901
 20
-24.6363916642
 30
0.0
 10
-8.8658468223
 20
-24.6621907072
 30
0.0
 10
-8.8566962108
 20
-24.7134421006
 30
0.0
 10
-8.8181741554
 20
-24.7794288632
 30
0.0
 10
-8.7598607635
 20
-24.8248621657
 30
0.0
 10
-8.7124602552
 20
-24.8361476537
 30
0.0
 10
-8.6894439715
 20
-24.8363612032
 30
0.0
 11
-8.8660334901
 21
-24.6363916642
 31
0.0
 11
-8.8521785234
 21
-24.7125406568
 31
0.0
 11
-8.8138031939
 21
-24.7772157436
 31
0.0
 11
-8.7566897831
 21
-24.8206718729
 31
0.0
 11
-8.6894439715
 21
-24.8363612032
 31
0.0
  0
SPLINE
  5
7CC
100
AcDbEntity
  8
RACCORDO
100
AcDbSpline
 62
253
  6
CONTINUOUS
 70
0
 71
3
 72
11
 73
7
 74
5
 42
0.0000001
 43
0.0000001
 44
0.0000000001
 12
0.0021229618
 22
-0.2934127029
 32
0.0
 13
0.2934077543
 23
-0.002722294
 33
0.0
 40
0.0
 40
0.0
 40
0.0
 40
0.0
 40
0.263782559
 40
0.5200813626
 40
0.7646659797
 40
1.0
 40
1.0
 40
1.0
 40
1.0
 10
-8.1910434869
 20
-24.6142329557
 30
0.0
 10
-8.1908568201
 20
-24.6400320069
 30
0.0
 10
-8.1817062031
 20
-24.6912834146
 30
0.0
 10
-8.143184134
 20
-24.7572701807
 30
0.0
 10
-8.0848707394
 20
-24.8027034682
 30
0.0
 10
-8.0374702438
 20
-24.8139889452
 30
0.0
 10
-8.0144539683
 20
-24.8142024947
 30
0.0
 11
-8.1910434869
 21
-24.6142329557
 31
0.0
 11
-8.1771885128
 21
-24.6903819719
 31
0.0
 11
-8.1388131654
 21
-24.7550570677
 31
0.0
 11
-8.0816997578
 21
-24.7985131778
 31
0.0
 11
-8.0144539683
 21
-24.8142024947
 31
0.0
  0
SPLINE
  5
7CD
100
AcDbEntity
  8
RACCORDO
100
AcDbSpline
 62
7
  6
CONTINUOUS
 70
0
 71
3
 72
11
 73
7
 74
5
 42
0.0000001
 43
0.0000001
 44
0.0000000001
 12
-0.0472993336
 22
-0.0937752076
 32
0.0
 13
-0.0438671317
 23
-0.0954289855
 33
0.0
 40
0.0
 40
0.0
 40
0.0
 40
0.0
 40
0.3702933587
 40
0.67270816
 40
0.8872887588
 40
1.0
 40
1.0
 40
1.0
 40
1.0
 10
-4.1068859822
 20
-23.8054823309
 30
0.0
 10
-4.1127241919
 20
-23.8170571098
 30
0.0
 10
-4.1227732078
 20
-23.8383714034
 30
0.0
 10
-4.1346448456
 20
-23.8670885562
 30
0.0
 10
-4.1425830883
 20
-23.8876454614
 30
0.0
 10
-4.1464738752
 20
-23.8984407321
 30
0.0
 10
-4.1481219815
 20
-23.9020260385
 30
0.0
 11
-4.1068859822
 21
-23.8054823309
 31
0.0
 11
-4.1234695266
 21
-23.8406608448
 31
0.0
 11
-4.1356832231
 21
-23.869980873
 31
0.0
 11
-4.143766207
 21
-23.8910186174
 31
0.0
 11
-4.1481219815
 21
-23.9020260385
 31
0.0
  0
SPLINE
  5
7CE
100
AcDbEntity
  8
RACCORDO
100
AcDbSpline
 62
7
  6
CONTINUOUS
 70
0
 71
3
 72
9
 73
5
 74
3
 42
0.0000001
 43
0.0000001
 44
0.0000000001
 12
0.0868875119
 22
-0.0682475073
 32
0.0
 13
0.0
 23
-0.1104860262
 33
0.0
 40
0.0
 40
0.0
 40
0.0
 40
0.0
 40
0.5259990091
 40
1.0
 40
1.0
 40
1.0
 40
1.0
 10
3.948674893
 20
-23.671962462
 30
0.0
 10
3.9639091413
 20
-23.6839285024
 30
0.0
 10
3.9896467845
 20
-23.7118627032
 30
0.0
 10
4.0
 20
-23.7490907935
 30
0.0
 10
4.0
 20
-23.7665476221
 30
0.0
 11
3.948674893
 21
-23.671962462
 31
0.0
 11
3.9867286051
 21
-23.7158866127
 31
0.0
 11
4.0
 21
-23.7665476221
 31
0.0
  0
SPLINE
  5
7CF
100
AcDbEntity
  8
RACCORDO
100
AcDbSpline
 62
7
  6
CONTINUOUS
 70
0
 71
3
 72
9
 73
5
 74
3
 42
0.0000001
 43
0.0000001
 44
0.0000000001
 12
-0.0868875119
 22
0.0682475073
 32
0.0
 13
-0.0
 23
0.1104860262
 33
0.0
 40
0.0
 40
0.0
 40
0.0
 40
0.0
 40
0.5259990091
 40
1.0
 40
1.0
 40
1.0
 40
1.0
 10
-3.948674893
 20
23.671962462
 30
0.0
 10
-3.9639091413
 20
23.6839285024
 30
0.0
 10
-3.9896467845
 20
23.7118627032
 30
0.0
 10
-4.0
 20
23.7490907935
 30
0.0
 10
-4.0
 20
23.7665476221
 30
0.0
 11
-3.948674893
 21
23.671962462
 31
0.0
 11
-3.9867286051
 21
23.7158866127
 31
0.0
 11
-4.0
 21
23.7665476221
 31
0.0
  0
ELLIPSE
  5
7D0
100
AcDbEntity
  8
RACCORDO
100
AcDbEllipse
 62
7
  6
CONTINUOUS
 10
15.3550097198
 20
-22.630531614
 30
0.0
 11
0.6022856266
 21
-0.0000637509
 31
0.0
 40
0.0174283098
 41
-1.5647230497
 42
-0.0015229195
  0
ELLIPSE
  5
7D1
100
AcDbEntity
  8
RACCORDO
100
AcDbEllipse
 62
7
  6
CONTINUOUS
 10
7.3449950982
 20
-24.9165971454
 30
0.0
 11
0.6022996043
 21
-0.0000961125
 31
0.0
 40
0.0174808098
 41
1.5799247057
 42
3.143124836
  0
ELLIPSE
  5
7D2
100
AcDbEntity
  8
RACCORDO
100
AcDbEllipse
 62
7
  6
CONTINUOUS
 10
-15.1550049018
 20
-24.9165971454
 30
0.0
 11
0.6022996043
 21
-0.0000961125
 31
0.0
 40
0.0174808098
 41
1.5799247057
 42
3.143124836
  0
ELLIPSE
  5
7D3
100
AcDbEntity
  8
RACCORDO
100
AcDbEllipse
 62
7
  6
CONTINUOUS
 10
-7.3449950982
 20
24.9165971454
 30
0.0
 11
0.6022996043
 21
-0.0000961125
 31
0.0
 40
0.0174808098
 41
-1.5616679479
 42
0.0015321824
  0
ELLIPSE
  5
7D4
100
AcDbEntity
  8
RACCORDO
100
AcDbEllipse
 62
7
  6
CONTINUOUS
 10
15.1550049018
 20
24.9165971454
 30
0.0
 11
0.6022996043
 21
-0.0000961125
 31
0.0
 40
0.0174808098
 41
-1.5616679479
 42
0.0015321824
  0
ELLIPSE
  5
7D5
100
AcDbEntity
  8
RACCORDO
100
AcDbEllipse
 62
7
  6
CONTINUOUS
 10
-4.6998971623
 20
26.2998971623
 30
0.0
 11
-0.212277444
 21
0.212277444
 31
0.0
 40
0.999315002
 41
-0.7850555471
 42
0.7850555471
  0
ELLIPSE
  5
7D6
100
AcDbEntity
  8
RACCORDO
100
AcDbEllipse
 62
7
  6
CONTINUOUS
 10
4.6998971623
 20
26.2998971623
 30
0.0
 11
0.212277444
 21
0.212277444
 31
0.0
 40
0.999315002
 41
-0.7850555471
 42
0.7850555471
  0
ELLIPSE
  5
7D7
100
AcDbEntity
  8
RACCORDO
100
AcDbEllipse
 62
7
  6
CONTINUOUS
 10
4.6998971623
 20
-26.2998971623
 30
0.0
 11
0.212277444
 21
-0.212277444
 31
0.0
 40
0.999315002
 41
-0.7850555471
 42
0.7850555471
  0
ELLIPSE
  5
7D8
100
AcDbEntity
  8
RACCORDO
100
AcDbEllipse
 62
7
  6
CONTINUOUS
 10
-4.6998971623
 20
-26.2998971623
 30
0.0
 11
0.212277444
 21
0.212277444
 31
0.0
 40
0.999315002
 41
-3.9266482006
 42
-2.3565371065
  0
ELLIPSE
  5
7D9
100
AcDbEntity
  8
RACCORDO
100
AcDbEllipse
 62
7
  6
CONTINUOUS
 10
12.2810380358
 20
-22.6322811163
 30
0.0
 11
0.5076923047
 21
0.0001058497
 31
0.0
 40
0.0172286859
 41
-3.0514542842
 42
-1.5828971712
  0
ELLIPSE
  5
7DA
100
AcDbEntity
  8
RACCORDO
100
AcDbEllipse
 62
7
  6
CONTINUOUS
 10
12.7782639435
 20
-22.6322811163
 30
0.0
 11
0.5175905222
 21
-0.000157773
 31
0.0
 40
0.0168976989
 41
-1.552759021
 42
-0.0045221738
  0
ELLIPSE
  5
7DB
100
AcDbEntity
  8
RACCORDO
100
AcDbEllipse
 62
7
  6
CONTINUOUS
 10
9.7217360565
 20
-22.6322811163
 30
0.0
 11
0.5175905222
 21
0.000157773
 31
0.0
 40
0.0168976989
 41
-3.0512900224
 42
-1.5888336326
  0
ELLIPSE
  5
7DC
100
AcDbEntity
  8
RACCORDO
100
AcDbEllipse
 62
7
  6
CONTINUOUS
 10
10.2189619642
 20
-22.6322811163
 30
0.0
 11
0.5076923047
 21
-0.0001058497
 31
0.0
 40
0.0172286859
 41
-1.5586954824
 42
-0.0030341693
  0
ELLIPSE
  5
7DD
100
AcDbEntity
  8
RACCORDO
100
AcDbEllipse
 62
7
  6
CONTINUOUS
 10
-12.7782639435
 20
-22.6322811163
 30
0.0
 11
0.5175905222
 21
0.000157773
 31
0.0
 40
0.0168976989
 41
-3.0512900224
 42
-1.5888336326
  0
ELLIPSE
  5
7DE
100
AcDbEntity
  8
RACCORDO
100
AcDbEllipse
 62
7
  6
CONTINUOUS
 10
-12.2810380358
 20
-22.6322811163
 30
0.0
 11
0.5076923047
 21
-0.0001058497
 31
0.0
 40
0.0172286859
 41
-1.5586954824
 42
-0.0030341693
  0
ELLIPSE
  5
7DF
100
AcDbEntity
  8
RACCORDO
100
AcDbEllipse
 62
7
  6
CONTINUOUS
 10
-10.2189619642
 20
-22.6322811163
 30
0.0
 11
0.5076923047
 21
0.0001058497
 31
0.0
 40
0.0172286859
 41
-3.0514542842
 42
-1.5828971712
  0
ELLIPSE
  5
7E0
100
AcDbEntity
  8
RACCORDO
100
AcDbEllipse
 62
7
  6
CONTINUOUS
 10
-9.7217360565
 20
-22.6322811163
 30
0.0
 11
0.5175905222
 21
-0.000157773
 31
0.0
 40
0.0168976989
 41
-1.552759021
 42
-0.0045221738
  0
ELLIPSE
  5
7E1
100
AcDbEntity
  8
RACCORDO
100
AcDbEllipse
 62
7
  6
CONTINUOUS
 10
12.7782639435
 20
22.6322811163
 30
0.0
 11
0.5175905222
 21
0.000157773
 31
0.0
 40
0.0168976989
 41
0.0903026312
 42
1.552759021
  0
ELLIPSE
  5
7E2
100
AcDbEntity
  8
RACCORDO
100
AcDbEllipse
 62
7
  6
CONTINUOUS
 10
12.2810380358
 20
22.6322811163
 30
0.0
 11
0.5076923047
 21
-0.0001058497
 31
0.0
 40
0.0172286859
 41
1.5828971712
 42
3.1385584843
  0
ELLIPSE
  5
7E3
100
AcDbEntity
  8
RACCORDO
100
AcDbEllipse
 62
7
  6
CONTINUOUS
 10
10.2189619642
 20
22.6322811163
 30
0.0
 11
0.5076923047
 21
0.0001058497
 31
0.0
 40
0.0172286859
 41
0.0901383694
 42
1.5586954824
  0
ELLIPSE
  5
7E4
100
AcDbEntity
  8
RACCORDO
100
AcDbEllipse
 62
7
  6
CONTINUOUS
 10
9.7217360565
 20
22.6322811163
 30
0.0
 11
0.5175905222
 21
-0.000157773
 31
0.0
 40
0.0168976989
 41
1.5888336326
 42
3.1370704798
  0
ELLIPSE
  5
7E5
100
AcDbEntity
  8
RACCORDO
100
AcDbEllipse
 62
7
  6
CONTINUOUS
 10
-9.7217360565
 20
22.6322811163
 30
0.0
 11
0.5175905222
 21
0.000157773
 31
0.0
 40
0.0168976989
 41
0.0903026312
 42
1.552759021
  0
ELLIPSE
  5
7E6
100
AcDbEntity
  8
RACCORDO
100
AcDbEllipse
 62
7
  6
CONTINUOUS
 10
-10.2189619642
 20
22.6322811163
 30
0.0
 11
0.5076923047
 21
-0.0001058497
 31
0.0
 40
0.0172286859
 41
1.5828971712
 42
3.1385584843
  0
ELLIPSE
  5
7E7
100
AcDbEntity
  8
RACCORDO
100
AcDbEllipse
 62
7
  6
CONTINUOUS
 10
-12.2810380358
 20
22.6322811163
 30
0.0
 11
0.5076923047
 21
0.0001058497
 31
0.0
 40
0.0172286859
 41
0.0901383694
 42
1.5586954824
  0
ELLIPSE
  5
7E8
100
AcDbEntity
  8
RACCORDO
100
AcDbEllipse
 62
7
  6
CONTINUOUS
 10
-12.7782639435
 20
22.6322811163
 30
0.0
 11
0.5175905222
 21
-0.000157773
 31
0.0
 40
0.0168976989
 41
1.5888336326
 42
3.1370704798
  0
ELLIPSE
  5
7E9
100
AcDbEntity
  8
RACCORDO
100
AcDbEllipse
 62
7
  6
CONTINUOUS
 10
-18.900076164
 20
-35.750076164
 30
0.0
 11
0.3536610946
 21
0.3536610946
 31
0.0
 40
0.9996954599
 41
-0.7852458701
 42
0.7852458702
  0
ELLIPSE
  5
7EA
100
AcDbEntity
  8
RACCORDO
100
AcDbEllipse
 62
7
  6
CONTINUOUS
 10
-35.0499695344
 20
12.3999695344
 30
0.0
 11
-0.1414644378
 21
0.1414644378
 31
0.0
 40
0.9996954599
 41
-0.7852458701
 42
0.7852458701
  0
ELLIPSE
  5
7EB
100
AcDbEntity
  8
RACCORDO
100
AcDbEllipse
 62
7
  6
CONTINUOUS
 10
-35.9000456984
 20
15.3000456984
 30
0.0
 11
-0.2121966568
 21
0.2121966568
 31
0.0
 40
0.9996954599
 41
2.3563467834
 42
3.9268385237
  0
ELLIPSE
  5
7EC
100
AcDbEntity
  8
RACCORDO
100
AcDbEllipse
 62
7
  6
CONTINUOUS
 10
-36.7999543016
 20
15.3000456984
 30
0.0
 11
0.2121966568
 21
0.2121966568
 31
0.0
 40
0.9996954599
 41
2.3563467834
 42
3.9268385237
  0
ELLIPSE
  5
7ED
100
AcDbEntity
  8
RACCORDO
100
AcDbEllipse
 62
7
  6
CONTINUOUS
 10
-36.7999543016
 20
18.0999543016
 30
0.0
 11
0.2121966568
 21
-0.2121966568
 31
0.0
 40
0.9996954599
 41
2.3563467834
 42
3.9268385237
  0
ELLIPSE
  5
7EE
100
AcDbEntity
  8
RACCORDO
100
AcDbEllipse
 62
7
  6
CONTINUOUS
 10
-18.9000456984
 20
34.9499543016
 30
0.0
 11
0.2121966568
 21
0.2121966568
 31
0.0
 40
0.9996954599
 41
-0.7852458701
 42
0.7852458701
  0
ELLIPSE
  5
7EF
100
AcDbEntity
  8
RACCORDO
100
AcDbEllipse
 62
7
  6
CONTINUOUS
 10
-15.8999543016
 20
35.9000456984
 30
0.0
 11
0.2121966568
 21
0.2121966568
 31
0.0
 40
0.9996954599
 41
2.3563467834
 42
3.9268385237
  0
ELLIPSE
  5
7F0
100
AcDbEntity
  8
RACCORDO
100
AcDbEllipse
 62
7
  6
CONTINUOUS
 10
-15.8999543016
 20
36.7999543016
 30
0.0
 11
0.2121966568
 21
-0.2121966568
 31
0.0
 40
0.9996954599
 41
2.3563467834
 42
3.9268385237
  0
ELLIPSE
  5
7F1
100
AcDbEntity
  8
RACCORDO
100
AcDbEllipse
 62
7
  6
CONTINUOUS
 10
-13.1000456984
 20
36.7999543016
 30
0.0
 11
-0.2121966568
 21
-0.2121966568
 31
0.0
 40
0.9996954599
 41
2.3563467834
 42
3.9268385237
  0
ELLIPSE
  5
7F2
100
AcDbEntity
  8
RACCORDO
100
AcDbEllipse
 62
7
  6
CONTINUOUS
 10
12.2999543016
 20
34.9499543016
 30
0.0
 11
0.2121966568
 21
0.2121966568
 31
0.0
 40
0.9996954599
 41
-0.7852458701
 42
0.7852458701
  0
ELLIPSE
  5
7F3
100
AcDbEntity
  8
RACCORDO
100
AcDbEllipse
 62
7
  6
CONTINUOUS
 10
15.3000456984
 20
35.9000456984
 30
0.0
 11
0.2121966568
 21
0.2121966568
 31
0.0
 40
0.9996954599
 41
2.3563467834
 42
3.9268385237
  0
ELLIPSE
  5
7F4
100
AcDbEntity
  8
RACCORDO
100
AcDbEllipse
 62
7
  6
CONTINUOUS
 10
15.3000456984
 20
36.7999543016
 30
0.0
 11
0.2121966568
 21
-0.2121966568
 31
0.0
 40
0.9996954599
 41
2.3563467834
 42
3.9268385237
  0
ELLIPSE
  5
7F5
100
AcDbEntity
  8
RACCORDO
100
AcDbEllipse
 62
7
  6
CONTINUOUS
 10
18.0999543016
 20
36.7999543016
 30
0.0
 11
-0.2121966568
 21
-0.2121966568
 31
0.0
 40
0.9996954599
 41
2.3563467834
 42
3.9268385237
  0
ELLIPSE
  5
7F6
100
AcDbEntity
  8
RACCORDO
100
AcDbEllipse
 62
7
  6
CONTINUOUS
 10
35.0499695344
 20
18.8000304656
 30
0.0
 11
0.1414644378
 21
-0.1414644378
 31
0.0
 40
0.9996954599
 41
-0.7852458701
 42
0.7852458701
  0
ELLIPSE
  5
7F7
100
AcDbEntity
  8
RACCORDO
100
AcDbEllipse
 62
7
  6
CONTINUOUS
 10
35.9000456984
 20
15.8999543016
 30
0.0
 11
0.2121966568
 21
-0.2121966568
 31
0.0
 40
0.9996954599
 41
2.3563467834
 42
3.9268385237
  0
ELLIPSE
  5
7F8
100
AcDbEntity
  8
RACCORDO
100
AcDbEllipse
 62
7
  6
CONTINUOUS
 10
36.7999543016
 20
15.8999543016
 30
0.0
 11
-0.2121966568
 21
-0.2121966568
 31
0.0
 40
0.9996954599
 41
2.3563467834
 42
3.9268385237
  0
ELLIPSE
  5
7F9
100
AcDbEntity
  8
RACCORDO
100
AcDbEllipse
 62
7
  6
CONTINUOUS
 10
36.7999543016
 20
13.1000456984
 30
0.0
 11
-0.2121966568
 21
0.2121966568
 31
0.0
 40
0.9996954599
 41
2.3563467834
 42
3.9268385237
  0
ELLIPSE
  5
7FA
100
AcDbEntity
  8
RACCORDO
100
AcDbEllipse
 62
7
  6
CONTINUOUS
 10
35.0499695344
 20
-12.3999695344
 30
0.0
 11
0.1414644378
 21
-0.1414644378
 31
0.0
 40
0.9996954599
 41
-0.7852458701
 42
0.7852458701
  0
ELLIPSE
  5
7FB
100
AcDbEntity
  8
RACCORDO
100
AcDbEllipse
 62
7
  6
CONTINUOUS
 10
35.9000456984
 20
-15.3000456984
 30
0.0
 11
0.2121966568
 21
-0.2121966568
 31
0.0
 40
0.9996954599
 41
2.3563467834
 42
3.9268385237
  0
ELLIPSE
  5
7FC
100
AcDbEntity
  8
RACCORDO
100
AcDbEllipse
 62
7
  6
CONTINUOUS
 10
36.7999543016
 20
-15.3000456984
 30
0.0
 11
-0.2121966568
 21
-0.2121966568
 31
0.0
 40
0.9996954599
 41
2.3563467834
 42
3.9268385237
  0
ELLIPSE
  5
7FD
100
AcDbEntity
  8
RACCORDO
100
AcDbEllipse
 62
7
  6
CONTINUOUS
 10
36.7999543016
 20
-18.0999543016
 30
0.0
 11
-0.2121966568
 21
0.2121966568
 31
0.0
 40
0.9996954599
 41
2.3563467834
 42
3.9268385237
  0
ELLIPSE
  5
7FE
100
AcDbEntity
  8
RACCORDO
100
AcDbEllipse
 62
7
  6
CONTINUOUS
 10
18.9000456984
 20
-34.9499543016
 30
0.0
 11
-0.2121966568
 21
-0.2121966568
 31
0.0
 40
0.9996954599
 41
-0.7852458701
 42
0.7852458701
  0
ELLIPSE
  5
7FF
100
AcDbEntity
  8
RACCORDO
100
AcDbEllipse
 62
7
  6
CONTINUOUS
 10
15.8999543016
 20
-35.9000456984
 30
0.0
 11
-0.2121966568
 21
-0.2121966568
 31
0.0
 40
0.9996954599
 41
2.3563467834
 42
3.9268385237
  0
ELLIPSE
  5
800
100
AcDbEntity
  8
RACCORDO
100
AcDbEllipse
 62
7
  6
CONTINUOUS
 10
15.8999543016
 20
-36.7999543016
 30
0.0
 11
-0.2121966568
 21
0.2121966568
 31
0.0
 40
0.9996954599
 41
2.3563467834
 42
3.9268385237
  0
ELLIPSE
  5
801
100
AcDbEntity
  8
RACCORDO
100
AcDbEllipse
 62
7
  6
CONTINUOUS
 10
13.1000456984
 20
-36.7999543016
 30
0.0
 11
0.2121966568
 21
0.2121966568
 31
0.0
 40
0.9996954599
 41
2.3563467834
 42
3.9268385237
  0
ELLIPSE
  5
802
100
AcDbEntity
  8
RACCORDO
100
AcDbEllipse
 62
7
  6
CONTINUOUS
 10
-12.2999543016
 20
-34.9499543016
 30
0.0
 11
-0.2121966568
 21
-0.2121966568
 31
0.0
 40
0.9996954599
 41
-0.7852458701
 42
0.7852458701
  0
ELLIPSE
  5
803
100
AcDbEntity
  8
RACCORDO
100
AcDbEllipse
 62
7
  6
CONTINUOUS
 10
-15.3000456984
 20
-35.9000456984
 30
0.0
 11
-0.2121966568
 21
-0.2121966568
 31
0.0
 40
0.9996954599
 41
2.3563467834
 42
3.9268385237
  0
ELLIPSE
  5
804
100
AcDbEntity
  8
RACCORDO
100
AcDbEllipse
 62
7
  6
CONTINUOUS
 10
-15.3000456984
 20
-36.7999543016
 30
0.0
 11
-0.2121966568
 21
0.2121966568
 31
0.0
 40
0.9996954599
 41
2.3563467834
 42
3.9268385237
  0
ELLIPSE
  5
805
100
AcDbEntity
  8
RACCORDO
100
AcDbEllipse
 62
7
  6
CONTINUOUS
 10
-18.0999543016
 20
-36.7999543016
 30
0.0
 11
0.2121966568
 21
0.2121966568
 31
0.0
 40
0.9996954599
 41
2.3563467834
 42
3.9268385237
  0
ELLIPSE
  5
806
100
AcDbEntity
  8
RACCORDO
100
AcDbEllipse
 62
7
  6
CONTINUOUS
 10
-35.9000456984
 20
-15.8999543016
 30
0.0
 11
-0.2121966568
 21
0.2121966568
 31
0.0
 40
0.9996954599
 41
2.3563467834
 42
3.9268385237
  0
ELLIPSE
  5
807
100
AcDbEntity
  8
RACCORDO
100
AcDbEllipse
 62
7
  6
CONTINUOUS
 10
-36.7999543016
 20
-15.8999543016
 30
0.0
 11
0.2121966568
 21
0.2121966568
 31
0.0
 40
0.9996954599
 41
2.3563467834
 42
3.9268385237
  0
ELLIPSE
  5
808
100
AcDbEntity
  8
RACCORDO
100
AcDbEllipse
 62
7
  6
CONTINUOUS
 10
-36.7999543016
 20
-13.1000456984
 30
0.0
 11
0.2121966568
 21
-0.2121966568
 31
0.0
 40
0.9996954599
 41
2.3563467834
 42
3.9268385237
  0
ELLIPSE
  5
809
100
AcDbEntity
  8
RACCORDO
100
AcDbEllipse
 62
7
  6
CONTINUOUS
 10
12.299923836
 20
-35.750076164
 30
0.0
 11
0.3536610946
 21
0.3536610946
 31
0.0
 40
0.9996954599
 41
-0.7852458702
 42
0.7852458701
  0
ELLIPSE
  5
80A
100
AcDbEntity
  8
RACCORDO
100
AcDbEllipse
 62
7
  6
CONTINUOUS
 10
18.900076164
 20
35.750076164
 30
0.0
 11
0.3536610946
 21
0.3536610946
 31
0.0
 40
0.9996954599
 41
-3.9268385237
 42
-2.3563467834
  0
ELLIPSE
  5
80B
100
AcDbEntity
  8
RACCORDO
100
AcDbEllipse
 62
7
  6
CONTINUOUS
 10
-12.299923836
 20
35.750076164
 30
0.0
 11
0.3536610946
 21
0.3536610946
 31
0.0
 40
0.9996954599
 41
-3.9268385237
 42
-2.3563467834
  0
ELLIPSE
  5
80C
100
AcDbEntity
  8
RACCORDO
100
AcDbEllipse
 62
7
  6
CONTINUOUS
 10
35.750076164
 20
-18.900076164
 30
0.0
 11
0.3536610946
 21
-0.3536610946
 31
0.0
 40
0.9996954599
 41
2.3563467834
 42
3.9268385237
  0
ELLIPSE
  5
80D
100
AcDbEntity
  8
RACCORDO
100
AcDbEllipse
 62
7
  6
CONTINUOUS
 10
35.750076164
 20
12.299923836
 30
0.0
 11
-0.3536610946
 21
0.3536610946
 31
0.0
 40
0.9996954599
 41
-0.7852458701
 42
0.7852458702
  0
ELLIPSE
  5
80E
100
AcDbEntity
  8
RACCORDO
100
AcDbEllipse
 62
7
  6
CONTINUOUS
 10
-35.750076164
 20
-12.299923836
 30
0.0
 11
0.3536610946
 21
-0.3536610946
 31
0.0
 40
0.9996954599
 41
-0.7852458702
 42
0.7852458701
  0
ELLIPSE
  5
80F
100
AcDbEntity
  8
RACCORDO
100
AcDbEllipse
 62
7
  6
CONTINUOUS
 10
-35.750076164
 20
18.900076164
 30
0.0
 11
0.3536610946
 21
-0.3536610946
 31
0.0
 40
0.9996954599
 41
-0.7852458701
 42
0.7852458702
  0
ELLIPSE
  5
810
100
AcDbEntity
  8
RACCORDO
100
AcDbEllipse
 62
7
  6
CONTINUOUS
 10
-18.349961918
 20
33.950038082
 30
0.0
 11
0.1768305473
 21
0.1768305473
 31
0.0
 40
0.9996954599
 41
-3.9268385237
 42
-2.3563467834
  0
ELLIPSE
  5
811
100
AcDbEntity
  8
RACCORDO
100
AcDbEllipse
 62
7
  6
CONTINUOUS
 10
12.850038082
 20
33.950038082
 30
0.0
 11
0.1768305473
 21
0.1768305473
 31
0.0
 40
0.9996954599
 41
-3.9268385238
 42
-2.3563467835
  0
ELLIPSE
  5
812
100
AcDbEntity
  8
RACCORDO
100
AcDbEllipse
 62
7
  6
CONTINUOUS
 10
18.349961918
 20
-33.950038082
 30
0.0
 11
0.1768305473
 21
0.1768305473
 31
0.0
 40
0.9996954599
 41
-0.7852458702
 42
0.7852458701
  0
ELLIPSE
  5
813
100
AcDbEntity
  8
RACCORDO
100
AcDbEllipse
 62
7
  6
CONTINUOUS
 10
-12.850038082
 20
-33.950038082
 30
0.0
 11
0.1768305473
 21
0.1768305473
 31
0.0
 40
0.9996954599
 41
-0.7852458701
 42
0.7852458702
  0
ELLIPSE
  5
814
100
AcDbEntity
  8
RACCORDO
100
AcDbEllipse
 62
7
  6
CONTINUOUS
 10
33.950038082
 20
18.349961918
 30
0.0
 11
0.1768305473
 21
-0.1768305473
 31
0.0
 40
0.9996954599
 41
2.3563467835
 42
3.9268385238
  0
ELLIPSE
  5
815
100
AcDbEntity
  8
RACCORDO
100
AcDbEllipse
 62
7
  6
CONTINUOUS
 10
33.950038082
 20
-12.850038082
 30
0.0
 11
-0.1768305473
 21
0.1768305473
 31
0.0
 40
0.9996954599
 41
-0.7852458702
 42
0.7852458701
  0
ELLIPSE
  5
816
100
AcDbEntity
  8
RACCORDO
100
AcDbEllipse
 62
7
  6
CONTINUOUS
 10
-33.950038082
 20
-18.349961918
 30
0.0
 11
0.1768305473
 21
-0.1768305473
 31
0.0
 40
0.9996954599
 41
-0.7852458702
 42
0.7852458701
  0
ELLIPSE
  5
817
100
AcDbEntity
  8
RACCORDO
100
AcDbEllipse
 62
7
  6
CONTINUOUS
 10
-33.950038082
 20
12.850038082
 30
0.0
 11
-0.1768305473
 21
0.1768305473
 31
0.0
 40
0.9996954599
 41
-3.9268385237
 42
-2.3563467834
  0
ELLIPSE
  5
818
100
AcDbEntity
  8
RACCORDO
100
AcDbEllipse
 62
7
  6
CONTINUOUS
 10
-34.200076164
 20
-15.300076164
 30
0.0
 11
0.3536610946
 21
0.3536610946
 31
0.0
 40
0.9996954599
 41
-0.7852458702
 42
0.7852458701
  0
ELLIPSE
  5
819
100
AcDbEntity
  8
RACCORDO
100
AcDbEllipse
 62
7
  6
CONTINUOUS
 10
-34.200076164
 20
15.899923836
 30
0.0
 11
0.3536610946
 21
0.3536610946
 31
0.0
 40
0.9996954599
 41
-0.7852458701
 42
0.7852458702
  0
ELLIPSE
  5
81A
100
AcDbEntity
  8
RACCORDO
100
AcDbEllipse
 62
7
  6
CONTINUOUS
 10
34.200076164
 20
15.300076164
 30
0.0
 11
0.3536610946
 21
0.3536610946
 31
0.0
 40
0.9996954599
 41
2.3563467834
 42
3.9268385237
  0
ELLIPSE
  5
81B
100
AcDbEntity
  8
RACCORDO
100
AcDbEllipse
 62
7
  6
CONTINUOUS
 10
34.200076164
 20
-15.899923836
 30
0.0
 11
0.3536610946
 21
0.3536610946
 31
0.0
 40
0.9996954599
 41
-3.9268385237
 42
-2.3563467834
  0
ELLIPSE
  5
81C
100
AcDbEntity
  8
RACCORDO
100
AcDbEllipse
 62
7
  6
CONTINUOUS
 10
-15.300076164
 20
34.200076164
 30
0.0
 11
0.3536610946
 21
-0.3536610946
 31
0.0
 40
0.9996954599
 41
-0.7852458701
 42
0.7852458702
  0
ELLIPSE
  5
81D
100
AcDbEntity
  8
RACCORDO
100
AcDbEllipse
 62
7
  6
CONTINUOUS
 10
15.899923836
 20
34.200076164
 30
0.0
 11
0.3536610946
 21
-0.3536610946
 31
0.0
 40
0.9996954599
 41
-0.7852458702
 42
0.7852458701
  0
ELLIPSE
  5
81E
100
AcDbEntity
  8
RACCORDO
100
AcDbEllipse
 62
7
  6
CONTINUOUS
 10
15.300076164
 20
-34.200076164
 30
0.0
 11
0.3536610946
 21
-0.3536610946
 31
0.0
 40
0.9996954599
 41
2.3563467834
 42
3.9268385237
  0
ELLIPSE
  5
81F
100
AcDbEntity
  8
RACCORDO
100
AcDbEllipse
 62
7
  6
CONTINUOUS
 10
-15.899923836
 20
-34.200076164
 30
0.0
 11
0.3536610946
 21
-0.3536610946
 31
0.0
 40
0.9996954599
 41
2.3563467835
 42
3.9268385238
  0
ELLIPSE
  5
820
100
AcDbEntity
  8
ASSI
100
AcDbEllipse
 62
7
  6
CONTINUOUS
 10
-25.2499543016
 20
6.4499543016
 30
0.0
 11
0.2121966567
 21
-0.2121966568
 31
0.0
 40
0.9996954599
 41
2.3563467835
 42
3.9268385238
  0
ELLIPSE
  5
821
100
AcDbEntity
  8
ASSI
100
AcDbEllipse
 62
7
  6
CONTINUOUS
 10
-25.2499543016
 20
-6.4499543016
 30
0.0
 11
0.2121966568
 21
0.2121966568
 31
0.0
 40
0.9996954599
 41
2.3563467834
 42
3.9268385237
  0
ELLIPSE
  5
822
100
AcDbEntity
  8
ASSI
100
AcDbEllipse
 62
7
  6
CONTINUOUS
 10
25.2499543016
 20
-6.4499543016
 30
0.0
 11
-0.2121966567
 21
0.2121966568
 31
0.0
 40
0.9996954599
 41
-3.9268385237
 42
-2.3563467834
  0
ELLIPSE
  5
823
100
AcDbEntity
  8
ASSI
100
AcDbEllipse
 62
7
  6
CONTINUOUS
 10
25.2499543016
 20
6.4499543016
 30
0.0
 11
-0.2121966568
 21
-0.2121966568
 31
0.0
 40
0.9996954599
 41
2.3563467834
 42
3.9268385237
  0
ELLIPSE
  5
824
100
AcDbEntity
  8
RACCORDO
100
AcDbEllipse
 62
7
  6
CONTINUOUS
 10
15.1550049018
 20
-24.9165971454
 30
0.0
 11
0.6022996043
 21
0.0000961125
 31
0.0
 40
0.0174808098
 41
-0.0015321824
 42
1.5616679479
  0
ELLIPSE
  5
825
100
AcDbEntity
  8
RACCORDO
100
AcDbEllipse
 62
7
  6
CONTINUOUS
 10
14.8055401159
 20
-22.630531614
 30
0.0
 11
0.6087848797
 21
0.0001239818
 31
0.0
 40
0.0172413642
 41
-2.8459386583
 42
-1.5826077518
  0
ELLIPSE
  5
826
100
AcDbEntity
  8
RACCORDO
100
AcDbEllipse
 62
7
  6
CONTINUOUS
 10
15.1200948573
 20
-24.9165971454
 30
0.0
 11
0.6088383155
 21
-0.0001869061
 31
0.0
 40
0.0172910676
 41
1.5885486062
 42
3.0928167053
  0
ELLIPSE
  5
827
100
AcDbEntity
  8
RACCORDO
100
AcDbEllipse
 62
7
  6
CONTINUOUS
 10
7.6944598841
 20
-22.630531614
 30
0.0
 11
0.6087848797
 21
-0.0001239818
 31
0.0
 40
0.0172413642
 41
-1.5589849018
 42
-0.2956539953
  0
ELLIPSE
  5
828
100
AcDbEntity
  8
RACCORDO
100
AcDbEllipse
 62
7
  6
CONTINUOUS
 10
7.3799051427
 20
-24.9165971454
 30
0.0
 11
0.6088383155
 21
0.0001869061
 31
0.0
 40
0.0172910676
 41
0.0487759483
 42
1.5530440474
  0
ELLIPSE
  5
829
100
AcDbEntity
  8
RACCORDO
100
AcDbEllipse
 62
7
  6
CONTINUOUS
 10
7.1449902802
 20
-22.630531614
 30
0.0
 11
0.6022856266
 21
0.0000637509
 31
0.0
 40
0.0174283098
 41
-3.1400697341
 42
-1.5768696038
  0
ELLIPSE
  5
82A
100
AcDbEntity
  8
RACCORDO
100
AcDbEllipse
 62
7
  6
CONTINUOUS
 10
-7.1449902802
 20
-22.630531614
 30
0.0
 11
0.6022856266
 21
-0.0000637509
 31
0.0
 40
0.0174283098
 41
-1.5647230497
 42
-0.0015229195
  0
ELLIPSE
  5
82B
100
AcDbEntity
  8
RACCORDO
100
AcDbEllipse
 62
7
  6
CONTINUOUS
 10
-7.3449950982
 20
-24.9165971454
 30
0.0
 11
0.6022996043
 21
0.0000961125
 31
0.0
 40
0.0174808098
 41
-0.0015321824
 42
1.5616679479
  0
ELLIPSE
  5
82C
100
AcDbEntity
  8
RACCORDO
100
AcDbEllipse
 62
7
  6
CONTINUOUS
 10
-7.6944598841
 20
-22.630531614
 30
0.0
 11
0.6087848797
 21
0.0001239818
 31
0.0
 40
0.0172413642
 41
-2.8459386583
 42
-1.5826077518
  0
ELLIPSE
  5
82D
100
AcDbEntity
  8
RACCORDO
100
AcDbEllipse
 62
7
  6
CONTINUOUS
 10
-7.3799051427
 20
-24.9165971454
 30
0.0
 11
0.6088383155
 21
-0.0001869061
 31
0.0
 40
0.0172910676
 41
1.5885486062
 42
3.0928167053
  0
ELLIPSE
  5
82E
100
AcDbEntity
  8
RACCORDO
100
AcDbEllipse
 62
7
  6
CONTINUOUS
 10
-15.1200948573
 20
-24.9165971454
 30
0.0
 11
0.6088383155
 21
0.0001869061
 31
0.0
 40
0.0172910676
 41
0.0487759483
 42
1.5530440474
  0
ELLIPSE
  5
82F
100
AcDbEntity
  8
RACCORDO
100
AcDbEllipse
 62
7
  6
CONTINUOUS
 10
-14.8055401159
 20
-22.630531614
 30
0.0
 11
0.6087848797
 21
-0.0001239818
 31
0.0
 40
0.0172413642
 41
-1.5589849018
 42
-0.2956539953
  0
ELLIPSE
  5
830
100
AcDbEntity
  8
RACCORDO
100
AcDbEllipse
 62
7
  6
CONTINUOUS
 10
-15.3550097198
 20
-22.630531614
 30
0.0
 11
0.6022856266
 21
0.0000637509
 31
0.0
 40
0.0174283098
 41
-3.1400697341
 42
-1.5768696038
  0
ELLIPSE
  5
831
100
AcDbEntity
  8
RACCORDO
100
AcDbEllipse
 62
7
  6
CONTINUOUS
 10
-15.1550049018
 20
24.9165971454
 30
0.0
 11
0.6022996043
 21
0.0000961125
 31
0.0
 40
0.0174808098
 41
3.1400604712
 42
4.7032606014
  0
ELLIPSE
  5
832
100
AcDbEntity
  8
RACCORDO
100
AcDbEllipse
 62
7
  6
CONTINUOUS
 10
-15.3550097198
 20
22.630531614
 30
0.0
 11
0.6022856266
 21
-0.0000637509
 31
0.0
 40
0.0174283098
 41
1.5768696038
 42
3.1400697341
  0
ELLIPSE
  5
833
100
AcDbEntity
  8
RACCORDO
100
AcDbEllipse
 62
7
  6
CONTINUOUS
 10
-14.8055401159
 20
22.630531614
 30
0.0
 11
0.6087848797
 21
0.0001239818
 31
0.0
 40
0.0172413642
 41
0.2956539953
 42
1.5589849018
  0
ELLIPSE
  5
834
100
AcDbEntity
  8
RACCORDO
100
AcDbEllipse
 62
7
  6
CONTINUOUS
 10
-15.1200948573
 20
24.9165971454
 30
0.0
 11
0.6088383155
 21
-0.0001869061
 31
0.0
 40
0.0172910676
 41
-1.5530440474
 42
-0.0487759483
  0
ELLIPSE
  5
835
100
AcDbEntity
  8
RACCORDO
100
AcDbEllipse
 62
7
  6
CONTINUOUS
 10
-7.3799051427
 20
24.9165971454
 30
0.0
 11
0.6088383155
 21
0.0001869061
 31
0.0
 40
0.0172910676
 41
-3.0928167053
 42
-1.5885486062
  0
ELLIPSE
  5
836
100
AcDbEntity
  8
RACCORDO
100
AcDbEllipse
 62
7
  6
CONTINUOUS
 10
-7.6944598841
 20
22.630531614
 30
0.0
 11
0.6087848797
 21
-0.0001239818
 31
0.0
 40
0.0172413642
 41
1.5826077518
 42
2.8459386583
  0
ELLIPSE
  5
837
100
AcDbEntity
  8
RACCORDO
100
AcDbEllipse
 62
7
  6
CONTINUOUS
 10
-7.1449902802
 20
22.630531614
 30
0.0
 11
0.6022856266
 21
0.0000637509
 31
0.0
 40
0.0174283098
 41
0.0015229195
 42
1.5647230497
  0
ELLIPSE
  5
838
100
AcDbEntity
  8
RACCORDO
100
AcDbEllipse
 62
7
  6
CONTINUOUS
 10
7.1449902802
 20
22.630531614
 30
0.0
 11
0.6022856266
 21
-0.0000637509
 31
0.0
 40
0.0174283098
 41
1.5768696038
 42
3.1400697341
  0
ELLIPSE
  5
839
100
AcDbEntity
  8
RACCORDO
100
AcDbEllipse
 62
7
  6
CONTINUOUS
 10
7.3449950982
 20
24.9165971454
 30
0.0
 11
0.6022996043
 21
0.0000961125
 31
0.0
 40
0.0174808098
 41
3.1400604712
 42
4.7032606014
  0
ELLIPSE
  5
83A
100
AcDbEntity
  8
RACCORDO
100
AcDbEllipse
 62
7
  6
CONTINUOUS
 10
7.6944598841
 20
22.630531614
 30
0.0
 11
0.6087848797
 21
0.0001239818
 31
0.0
 40
0.0172413642
 41
0.2956539953
 42
1.5589849018
  0
ELLIPSE
  5
83B
100
AcDbEntity
  8
RACCORDO
100
AcDbEllipse
 62
7
  6
CONTINUOUS
 10
7.3799051427
 20
24.9165971454
 30
0.0
 11
0.6088383155
 21
-0.0001869061
 31
0.0
 40
0.0172910676
 41
-1.5530440474
 42
-0.0487759483
  0
ELLIPSE
  5
83C
100
AcDbEntity
  8
RACCORDO
100
AcDbEllipse
 62
7
  6
CONTINUOUS
 10
14.8055401159
 20
22.630531614
 30
0.0
 11
0.6087848797
 21
-0.0001239818
 31
0.0
 40
0.0172413642
 41
1.5826077518
 42
2.8459386583
  0
ELLIPSE
  5
83D
100
AcDbEntity
  8
RACCORDO
100
AcDbEllipse
 62
7
  6
CONTINUOUS
 10
15.1200948573
 20
24.9165971454
 30
0.0
 11
0.6088383155
 21
0.0001869061
 31
0.0
 40
0.0172910676
 41
-3.0928167053
 42
-1.5885486062
  0
ELLIPSE
  5
83E
100
AcDbEntity
  8
RACCORDO
100
AcDbEllipse
 62
7
  6
CONTINUOUS
 10
15.3550097198
 20
22.630531614
 30
0.0
 11
0.6022856266
 21
0.0000637509
 31
0.0
 40
0.0174283098
 41
0.0015229195
 42
1.5647230497
  0
ELLIPSE
  5
83F
100
AcDbEntity
  8
RACCORDO
100
AcDbEllipse
 62
7
  6
CONTINUOUS
 10
3.6999885765
 20
23.3500456984
 30
0.0
 11
-0.1341814477
 21
0.2683833349
 31
0.0
 40
0.9998096356
 41
-3.6051336537
 42
-2.0344896259
  0
ELLIPSE
  5
840
100
AcDbEntity
  8
RACCORDO
100
AcDbEllipse
 62
7
  6
CONTINUOUS
 10
1.4000114235
 20
23.3500456984
 30
0.0
 11
0.1341814477
 21
0.2683833349
 31
0.0
 40
0.9998096356
 41
-4.2486956813
 42
-2.6780516535
  0
ELLIPSE
  5
841
100
AcDbEntity
  8
RACCORDO
100
AcDbEllipse
 62
7
  6
CONTINUOUS
 10
-1.4000114235
 20
23.3500456984
 30
0.0
 11
-0.1341814477
 21
0.2683833349
 31
0.0
 40
0.9998096356
 41
-3.6051336537
 42
-2.0344896259
  0
ELLIPSE
  5
842
100
AcDbEntity
  8
DRAFT
100
AcDbEllipse
 62
7
  6
CONTINUOUS
 10
16.3
 20
22.5925118441
 30
0.0
 11
0.5
 21
0.0
 31
0.0
 40
0.0174550649
 41
2.3183735647
 42
3.9678659807
  0
ELLIPSE
  5
843
100
AcDbEntity
  8
RACCORDO
100
AcDbEllipse
 62
7
  6
CONTINUOUS
 10
-1.2676960914
 20
24.3823039086
 30
0.0
 11
0.1197687011
 21
0.2821573777
 31
0.0
 40
0.9751955544
 41
-1.1780210985
 42
0.3924706418
  0
ELLIPSE
  5
844
100
AcDbEntity
  8
DRAFT
100
AcDbEllipse
 62
7
  6
CONTINUOUS
 10
16.3
 20
-22.5925118441
 30
0.0
 11
0.5
 21
0.0
 31
0.0
 40
0.0174550649
 41
2.3153193265
 42
3.9648117425
  0
ELLIPSE
  5
845
100
AcDbEntity
  8
DRAFT
100
AcDbEllipse
 62
7
  6
CONTINUOUS
 10
16.3
 20
22.5384011428
 30
0.0
 11
0.5
 21
0.0
 31
0.0
 40
0.0174550649
 41
2.3055563608
 42
3.9806831846
  0
ELLIPSE
  5
846
100
AcDbEntity
  8
DRAFT
100
AcDbEllipse
 62
7
  6
CONTINUOUS
 10
16.3
 20
-22.5384011428
 30
0.0
 11
0.5
 21
-0.0
 31
0.0
 40
0.0174550649
 41
8.5856874298
 42
10.2608142535
  0
ELLIPSE
  5
847
100
AcDbEntity
  8
RACCORDO
100
AcDbEllipse
 62
7
  6
CONTINUOUS
 10
-3.6999885765
 20
23.3500456984
 30
0.0
 11
0.1341814477
 21
0.2683833349
 31
0.0
 40
0.9998096356
 41
-4.2486956813
 42
-2.6780516535
  0
ELLIPSE
  5
848
100
AcDbEntity
  8
RACCORDO
100
AcDbEllipse
 62
7
  6
CONTINUOUS
 10
3.6999885765
 20
-23.3500456984
 30
0.0
 11
0.1341814477
 21
0.2683833349
 31
0.0
 40
0.9998096356
 41
-1.1071030277
 42
0.4635410001
  0
ELLIPSE
  5
849
100
AcDbEntity
  8
DRAFT
100
AcDbEllipse
 62
7
  6
CONTINUOUS
 10
6.2
 20
-22.5384011428
 30
0.0
 11
0.5
 21
-0.0
 31
0.0
 40
0.0174550649
 41
-0.8360362927
 42
0.839090531
  0
ELLIPSE
  5
84A
100
AcDbEntity
  8
DRAFT
100
AcDbEllipse
 62
7
  6
CONTINUOUS
 10
6.2
 20
22.5384011428
 30
0.0
 11
0.5
 21
-0.0
 31
0.0
 40
0.0174550649
 41
5.4440947762
 42
7.1192215999
  0
ELLIPSE
  5
84B
100
AcDbEntity
  8
DRAFT
100
AcDbEllipse
 62
7
  6
CONTINUOUS
 10
6.2
 20
-22.5925118441
 30
0.0
 11
0.5
 21
-0.0
 31
0.0
 40
0.0174550649
 41
5.4599662183
 42
7.1094586343
  0
ELLIPSE
  5
84C
100
AcDbEntity
  8
DRAFT
100
AcDbEllipse
 62
7
  6
CONTINUOUS
 10
6.2
 20
22.5925118441
 30
0.0
 11
0.5
 21
-0.0
 31
0.0
 40
0.0174550649
 41
5.4569119801
 42
7.1064043961
  0
ELLIPSE
  5
84D
100
AcDbEntity
  8
DRAFT
100
AcDbEllipse
 62
7
  6
CONTINUOUS
 10
-16.3
 20
-22.5925118441
 30
0.0
 11
0.5
 21
-0.0
 31
0.0
 40
0.0174550649
 41
5.4599662183
 42
7.1094586343
  0
ELLIPSE
  5
84E
100
AcDbEntity
  8
DRAFT
100
AcDbEllipse
 62
7
  6
CONTINUOUS
 10
-16.3
 20
22.5925118441
 30
0.0
 11
0.5
 21
0.0
 31
0.0
 40
0.0174550649
 41
5.4569119801
 42
7.1064043961
  0
ELLIPSE
  5
84F
100
AcDbEntity
  8
DRAFT
100
AcDbEllipse
 62
7
  6
CONTINUOUS
 10
-16.3
 20
-22.5384011428
 30
0.0
 11
0.5
 21
0.0
 31
0.0
 40
0.0174550649
 41
-0.8360362927
 42
0.839090531
  0
ELLIPSE
  5
850
100
AcDbEntity
  8
RACCORDO
100
AcDbEllipse
 62
7
  6
CONTINUOUS
 10
1.4000114235
 20
-23.3500456984
 30
0.0
 11
-0.1341814477
 21
0.2683833349
 31
0.0
 40
0.9998096356
 41
-0.4635410001
 42
1.1071030277
  0
ELLIPSE
  5
851
100
AcDbEntity
  8
DRAFT
100
AcDbEllipse
 62
7
  6
CONTINUOUS
 10
-16.3
 20
22.5384011428
 30
0.0
 11
0.5
 21
-0.0
 31
0.0
 40
0.0174550649
 41
5.4440947762
 42
7.1192215999
  0
ELLIPSE
  5
852
100
AcDbEntity
  8
RACCORDO
100
AcDbEllipse
 62
7
  6
CONTINUOUS
 10
1.2676960914
 20
-24.3823039086
 30
0.0
 11
0.1197687011
 21
0.2821573777
 31
0.0
 40
0.9751955544
 41
-4.3196137521
 42
-2.7491220118
  0
ELLIPSE
  5
853
100
AcDbEntity
  8
RACCORDO
100
AcDbEllipse
 62
7
  6
CONTINUOUS
 10
-3.6999885765
 20
-23.3500456984
 30
0.0
 11
-0.1341814477
 21
0.2683833349
 31
0.0
 40
0.9998096356
 41
-0.4635410001
 42
1.1071030277
  0
ELLIPSE
  5
854
100
AcDbEntity
  8
RACCORDO
100
AcDbEllipse
 62
7
  6
CONTINUOUS
 10
-1.4000114235
 20
-23.3500456984
 30
0.0
 11
0.1341814477
 21
0.2683833349
 31
0.0
 40
0.9998096356
 41
-1.1071030277
 42
0.4635410001
  0
ELLIPSE
  5
855
100
AcDbEntity
  8
RACCORDO
100
AcDbEllipse
 62
7
  6
CONTINUOUS
 10
-1.2676960914
 20
-24.3823039086
 30
0.0
 11
-0.1197687011
 21
0.2821573777
 31
0.0
 40
0.9751955544
 41
-3.5340632954
 42
-1.9635715551
  0
ELLIPSE
  5
856
100
AcDbEntity
  8
RACCORDO
100
AcDbEllipse
 62
7
  6
CONTINUOUS
 10
4.6365811422
 20
-24.9577946784
 30
0.0
 11
0.3001065558
 21
-0.0001445575
 31
0.0
 40
0.0251101857
 41
0.0376915465
 42
0.9682832352
  0
ELLIPSE
  5
857
100
AcDbEntity
  8
RACCORDO
100
AcDbEllipse
 62
7
  6
CONTINUOUS
 10
-4.6365811422
 20
-24.9577946784
 30
0.0
 11
0.3001065558
 21
0.0001445575
 31
0.0
 40
0.0251101857
 41
2.1733094184
 42
3.1039011071
  0
ELLIPSE
  5
858
100
AcDbEntity
  8
RACCORDO
100
AcDbEllipse
 62
7
  6
CONTINUOUS
 10
4.6365811422
 20
24.9577946784
 30
0.0
 11
0.3001065558
 21
0.0001445575
 31
0.0
 40
0.0251101857
 41
-0.9682832352
 42
-0.0376915465
  0
ELLIPSE
  5
859
100
AcDbEntity
  8
RACCORDO
100
AcDbEllipse
 62
7
  6
CONTINUOUS
 10
-4.6365811422
 20
24.9577946784
 30
0.0
 11
0.3001065558
 21
-0.0001445575
 31
0.0
 40
0.0251101857
 41
-3.1039011071
 42
-2.1733094184
  0
ELLIPSE
  5
85A
100
AcDbEntity
  8
RACCORDO
100
AcDbEllipse
 62
7
  6
CONTINUOUS
 10
-24.4993803117
 20
6.3993346133
 30
0.0
 11
-0.0
 21
0.3
 31
0.0
 40
0.0174550649
 41
-1.5707963268
 42
-0.0174532925
  0
ELLIPSE
  5
85B
100
AcDbEntity
  8
RACCORDO
100
AcDbEllipse
 62
7
  6
CONTINUOUS
 10
-24.4993803117
 20
-6.3993346133
 30
0.0
 11
0.0
 21
0.3
 31
0.0
 40
0.0174550649
 41
-3.1241393611
 42
-1.5707963268
  0
ELLIPSE
  5
85C
100
AcDbEntity
  8
RACCORDO
100
AcDbEllipse
 62
7
  6
CONTINUOUS
 10
24.4993803117
 20
-6.3993346133
 30
0.0
 11
-0.0
 21
0.3
 31
0.0
 40
0.0174550649
 41
-4.7123889804
 42
-3.1590459461
  0
ELLIPSE
  5
85D
100
AcDbEntity
  8
RACCORDO
100
AcDbEllipse
 62
7
  6
CONTINUOUS
 10
24.4993803117
 20
6.3993346133
 30
0.0
 11
0.0
 21
0.3
 31
0.0
 40
0.0174550649
 41
0.0174532925
 42
1.5707963268
  0
ELLIPSE
  5
85E
100
AcDbEntity
  8
DRAFT
100
AcDbEllipse
 62
7
  6
CONTINUOUS
 10
-6.2
 20
22.5384011428
 30
0.0
 11
0.5
 21
-0.0
 31
0.0
 40
0.0174550649
 41
2.3055563608
 42
3.9806831846
  0
ELLIPSE
  5
85F
100
AcDbEntity
  8
DRAFT
100
AcDbEllipse
 62
7
  6
CONTINUOUS
 10
-6.2
 20
-22.5384011428
 30
0.0
 11
0.5
 21
-0.0
 31
0.0
 40
0.0174550649
 41
8.5856874298
 42
10.2608142535
  0
ELLIPSE
  5
860
100
AcDbEntity
  8
DRAFT
100
AcDbEllipse
 62
7
  6
CONTINUOUS
 10
-6.2
 20
22.5925118441
 30
0.0
 11
0.5
 21
0.0
 31
0.0
 40
0.0174550649
 41
2.3183735647
 42
3.9678659807
  0
ELLIPSE
  5
861
100
AcDbEntity
  8
DRAFT
100
AcDbEllipse
 62
7
  6
CONTINUOUS
 10
-6.2
 20
-22.5925118441
 30
0.0
 11
0.5
 21
0.0
 31
0.0
 40
0.0174550649
 41
2.3153193265
 42
3.9648117425
  0
ELLIPSE
  5
862
100
AcDbEntity
  8
RACCORDO
100
AcDbEllipse
 62
7
  6
CONTINUOUS
 10
-1.096508987
 20
23.7034605474
 30
0.0
 11
0.0
 21
0.2
 31
0.0
 40
0.0174550649
 41
0.0174532925
 42
1.5707823741
  0
ELLIPSE
  5
863
100
AcDbEntity
  8
RACCORDO
100
AcDbEllipse
 62
7
  6
CONTINUOUS
 10
1.096508987
 20
23.7034605474
 30
0.0
 11
-0.0
 21
0.2
 31
0.0
 40
0.0174550649
 41
-1.5707823711
 42
-0.0174532925
  0
ELLIPSE
  5
864
100
AcDbEntity
  8
RACCORDO
100
AcDbEllipse
 62
7
  6
CONTINUOUS
 10
3.5089285714
 20
-24.1138547001
 30
0.0
 11
-0.0
 21
0.7937352372
 31
0.0
 40
0.9998476487
 41
-2.1618442967
 42
-1.4600520292
  0
ELLIPSE
  5
865
100
AcDbEntity
  8
RACCORDO
100
AcDbEllipse
 62
7
  6
CONTINUOUS
 10
-3.5089285714
 20
24.1138547001
 30
0.0
 11
-0.0
 21
0.7937352372
 31
0.0
 40
0.9998476487
 41
0.9797483573
 42
1.6815406244
  0
ELLIPSE
  5
866
100
AcDbEntity
  8
RACCORDO
100
AcDbEllipse
 62
7
  6
CONTINUOUS
 10
1.096508987
 20
-23.7034605474
 30
0.0
 11
-0.0
 21
0.2
 31
0.0
 40
0.0174550649
 41
-3.1241393611
 42
-1.5708102795
  0
ELLIPSE
  5
867
100
AcDbEntity
  8
RACCORDO
100
AcDbEllipse
 62
7
  6
CONTINUOUS
 10
-1.096508987
 20
-23.7034605474
 30
0.0
 11
-0.0
 21
0.2
 31
0.0
 40
0.0174550649
 41
-4.7123750245
 42
-3.1590459461
  0
ELLIPSE
  5
868
100
AcDbEntity
  8
RACCORDO
100
AcDbEllipse
 62
7
  6
CONTINUOUS
 10
1.2676960914
 20
24.3823039086
 30
0.0
 11
-0.1197687011
 21
0.2821573777
 31
0.0
 40
0.9751955544
 41
-0.3924706418
 42
1.1780210985
  0
ENDSEC
  0
SECTION
  2
OBJECTS
  0
DICTIONARY
  5
C
100
AcDbDictionary
280
0
281
1
  3
ACAD_GROUP
350
D
  3
ACAD_MLINESTYLE
350
17
  3
ACAD_LAYOUT
350
1A
  3
ACAD_PLOTSETTINGS
350
19
  3
ACAD_PLOTSTYLENAME
350
E
  0
DICTIONARY
  5
D
102
{ACAD_REACTORS
330
C
102
}
100
AcDbDictionary
280
0
281
1
  0
ACDBDICTIONARYWDFLT
  5
E
102
{ACAD_REACTORS
330
C
102
}
100
AcDbDictionary
281
1
  3
Normal
350
F
100
AcDbDictionaryWithDefault
340
F
  0
DICTIONARY
  5
17
102
{ACAD_REACTORS
330
C
102
}
100
AcDbDictionary
280
0
281
1
  3
Standard
350
18
  0
DICTIONARY
  5
19
102
{ACAD_REACTORS
330
C
102
}
100
AcDbDictionary
281
1
  0
DICTIONARY
  5
1A
102
{ACAD_REACTORS
330
C
102
}
100
AcDbDictionary
281
1
  3
Model
350
869
  3
Layout1
350
86A
  0
ACDBPLACEHOLDER
  5
F
102
{ACAD_REACTORS
330
E
102
}
  0
MLINESTYLE
  5
18
102
{ACAD_REACTORS
330
17
102
}
100
AcDbMlineStyle
  2
STANDARD
 70
0
  3

 62
256
 51
90.0
 52
90.0
 71
2
 49
0.5
 62
256
  6
BYLAYER
 49
-0.5
 62
256
  6
BYLAYER
  0
LAYOUT
  5
869
102
{ACAD_REACTORS
330
1A
102
}
100
AcDbPlotSettings
  1

  2
none_device
  4
ISO_A4_(297.00_x_210.00_MM)
  6

 40
0.0
 41
0.0
 42
0.0
 43
0.0
 44
297.0
 45
210.0
 46
0.0
 47
0.0
 48
0.0
 49
0.0
140
0.0
141
0.0
142
1.0
143
1.0
 70
1024
 72
1
 73
0
 74
0
  7

 75
0
147
1.0
148
0.0
149
0.0
100
AcDbLayout
  1
Model
 70
0
 71
0
 10
0.0
 20
0.0
 11
297.0
 21
210.0
 12
0.0
 22
0.0
 32
0.0
 14
0.0
 24
0.0
 34
0.0
 15
0.0
 25
0.0
 35
0.0
146
0.0
 13
0.0
 23
0.0
 33
0.0
 16
1.0
 26
0.0
 36
0.0
 17
0.0
 27
1.0
 37
0.0
 76
0
330
215
345
0
346
0
  0
LAYOUT
  5
86A
102
{ACAD_REACTORS
330
1A
102
}
100
AcDbPlotSettings
  1

  2
none_device
  4
ISO_A4_(297.00_x_210.00_MM)
  6

 40
0.0
 41
0.0
 42
0.0
 43
0.0
 44
297.0
 45
210.0
 46
0.0
 47
0.0
 48
0.0
 49
0.0
140
0.0
141
0.0
142
1.0
143
1.0
 70
0
 72
1
 73
0
 74
0
  7

 75
0
147
1.0
148
0.0
149
0.0
100
AcDbLayout
  1
Layout1
 70
0
 71
1
 10
0.0
 20
0.0
 11
297.0
 21
210.0
 12
0.0
 22
0.0
 32
0.0
 14
0.0
 24
0.0
 34
0.0
 15
0.0
 25
0.0
 35
0.0
146
0.0
 13
0.0
 23
0.0
 33
0.0
 16
1.0
 26
0.0
 36
0.0
 17
0.0
 27
1.0
 37
0.0
 76
0
330
216
345
0
346
0
  0
ENDSEC
  0
EOF
