  0
SECTION
  2
HEADER
  9
$ACADVER
  1
AC1015
  9
$DWGCODEPAGE
  3
ANSI_1252
  9
$EXTMAX
 10
297.0
 20
210.0
 30
0.0
  9
$EXTMIN
 10
0.0
 20
0.0
 30
0.0
  9
$LIMMIN
 10
0.0
 20
0.0
  9
$LIMMAX
 10
297.0
 20
210.0
  9
$VIEWCTR
 10
148.5
 20
105.0
  9
$VIEWSIZE
 40
210.0
  9
$CLAYER
  8
0
  9
$LTSCALE
 40
16.335
  9
$CELTYPE
  6
BYLAYER
  9
$DIMSCALE
 40
1.0
  9
$DIMASZ
 40
3.0
  9
$DIMEXO
 40
1.85625
  9
$DIMDLI
 40
11.286
  9
$DIMEXE
 40
5.346
  9
$DIMCEN
 40
2.673
  9
$DIMLFAC
 40
1.0
  9
$DIMBLK
  1
_FILLED
  9
$DIMTXT
 40
3.0
  9
$DIMTOL
 70
1
  9
$DIMLIM
 70
0
  9
$DIMTFAC
 40
1.0
  9
$DIMTP
 40
0.01
  9
$DIMTM
 40
0.01
  9
$PDMODE
 70
3
  9
$PDSIZE
 40
3.0
  9
$HANDSEED
  5
937
  9
$TILEMODE
 70
1
  9
$MEASUREMENT
 70
1
  9
$INSUNITS
 70
4
  0
ENDSEC
  0
SECTION
  2
CLASSES
  0
CLASS
  1
ACDBDICTIONARYWDFLT
  2
AcDbDictionaryWithDefault
  3
AutoCAD 2000
 90
0
280
0
281
0
  0
CLASS
  1
ACDBPLACEHOLDER
  2
AcDbPlaceHolder
  3
AutoCAD 2000
 90
0
280
0
281
0
  0
CLASS
  1
LAYOUT
  2
AcDbLayout
  3
AutoCAD 2000
 90
0
280
0
281
0
  0
ENDSEC
  0
SECTION
  2
TABLES
  0
TABLE
  2
VPORT
  5
8
100
AcDbSymbolTable
 70
2
  0
VPORT
  5
1F4
100
AcDbSymbolTableRecord
100
AcDbViewportTableRecord
  2
*ACTIVE
 70
0
 10
0.0
 20
0.0
 11
1.0
 21
1.0
 12
148.5
 22
105.0
 13
0.0
 23
0.0
 14
1.0
 24
1.0
 15
0.0
 25
0.0
 16
0.0
 26
0.0
 36
1.0
 17
0.0
 27
0.0
 37
0.0
 40
210.0
 41
1.4142857143
 42
50.0
 43
0.0
 44
0.0
 50
0.0
 51
0.0
 71
0
 72
100
 73
1
 74
1
 75
0
 76
0
 77
0
 78
0
  0
ENDTAB
  0
TABLE
  2
LTYPE
  5
5
100
AcDbSymbolTable
 70
6
  0
LTYPE
  5
14
100
AcDbSymbolTableRecord
100
AcDbLinetypeTableRecord
  2
BYBLOCK
 70
0
  3

 72
65
 73
0
 40
0.0
  0
LTYPE
  5
15
100
AcDbSymbolTableRecord
100
AcDbLinetypeTableRecord
  2
BYLAYER
 70
0
  3

 72
65
 73
0
 40
0.0
  0
LTYPE
  5
16
100
AcDbSymbolTableRecord
100
AcDbLinetypeTableRecord
  2
CONTINUOUS
 70
64
  3
Solid line
 72
65
 73
0
 40
0.0
  0
LTYPE
  5
1F5
100
AcDbSymbolTableRecord
100
AcDbLinetypeTableRecord
  2
CENTER
 70
64
  3
____ _ ____ _ ____ _ ____ _ ____ _ ____ _ ____
 72
65
 73
4
 40
0.6
 49
0.375
 74
0
 49
-0.075
 74
0
 49
0.075
 74
0
 49
-0.075
 74
0
  0
LTYPE
  5
1F6
100
AcDbSymbolTableRecord
100
AcDbLinetypeTableRecord
  2
HIDDEN
 70
64
  3
- - - - - - - - - - - - - - - - - - - -
 72
65
 73
2
 40
0.2
 49
0.1
 74
0
 49
-0.1
 74
0
  0
LTYPE
  5
1F7
100
AcDbSymbolTableRecord
100
AcDbLinetypeTableRecord
  2
PHANTOM
 70
64
  3
_____ _ _ _____ _ _ _____ _ _ _____
 72
65
 73
6
 40
0.8
 49
0.45
 74
0
 49
-0.05
 74
0
 49
0.1
 74
0
 49
-0.05
 74
0
 49
0.1
 74
0
 49
-0.05
 74
0
  0
LTYPE
  5
1F8
100
AcDbSymbolTableRecord
100
AcDbLinetypeTableRecord
  2
DOT
 70
64
  3
. . . . . . . . . . . . . . . . . . . .
 72
65
 73
2
 40
0.2
 49
0.1
 74
0
 49
-0.1
 74
0
  0
LTYPE
  5
1F9
100
AcDbSymbolTableRecord
100
AcDbLinetypeTableRecord
  2
DASHED
 70
64
  3
- - - - - - - - - - - - - - - - - - - -
 72
65
 73
2
 40
0.2
 49
0.1
 74
0
 49
-0.1
 74
0
  0
ENDTAB
  0
TABLE
  2
LAYER
  5
2
100
AcDbSymbolTable
 70
36
  0
LAYER
  5
10
100
AcDbSymbolTableRecord
100
AcDbLayerTableRecord
  2
0
 70
0
 62
7
  6
CONTINUOUS
370
-3
390
F
  0
LAYER
  5
1FA
100
AcDbSymbolTableRecord
100
AcDbLayerTableRecord
  2
DEFAULT_1
 70
0
 62
7
  6
CENTER
370
-3
390
F
  0
LAYER
  5
1FB
100
AcDbSymbolTableRecord
100
AcDbLayerTableRecord
  2
DEFAULT_2
 70
0
 62
7
  6
HIDDEN
370
-3
390
F
  0
LAYER
  5
1FC
100
AcDbSymbolTableRecord
100
AcDbLayerTableRecord
  2
DEFAULT_3
 70
0
 62
7
  6
PHANTOM
370
-3
390
F
  0
LAYER
  5
1FD
100
AcDbSymbolTableRecord
100
AcDbLayerTableRecord
  2
ASSI
 70
0
 62
7
  6
CONTINUOUS
370
-3
390
F
  0
LAYER
  5
1FE
100
AcDbSymbolTableRecord
100
AcDbLayerTableRecord
  2
COORDINATE
 70
0
 62
7
  6
CONTINUOUS
370
-3
390
F
  0
LAYER
  5
1FF
100
AcDbSymbolTableRecord
100
AcDbLayerTableRecord
  2
COORD_ORIGINE
 70
0
 62
7
  6
CONTINUOUS
370
-3
390
F
  0
LAYER
  5
200
100
AcDbSymbolTableRecord
100
AcDbLayerTableRecord
  2
COPY_PUBLISH
 70
0
 62
7
  6
CONTINUOUS
370
-3
390
F
  0
LAYER
  5
201
100
AcDbSymbolTableRecord
100
AcDbLayerTableRecord
  2
COSMETIC
 70
0
 62
7
  6
CONTINUOUS
370
-3
390
F
  0
LAYER
  5
202
100
AcDbSymbolTableRecord
100
AcDbLayerTableRecord
  2
CURVE
 70
0
 62
7
  6
CONTINUOUS
370
-3
390
F
  0
LAYER
  5
203
100
AcDbSymbolTableRecord
100
AcDbLayerTableRecord
  2
DRAFT
 70
0
 62
7
  6
CONTINUOUS
370
-3
390
F
  0
LAYER
  5
204
100
AcDbSymbolTableRecord
100
AcDbLayerTableRecord
  2
IMPORT_IGES
 70
0
 62
7
  6
CONTINUOUS
370
-3
390
F
  0
LAYER
  5
205
100
AcDbSymbolTableRecord
100
AcDbLayerTableRecord
  2
INTFCLR_2
 70
0
 62
7
  6
CONTINUOUS
370
-3
390
F
  0
LAYER
  5
206
100
AcDbSymbolTableRecord
100
AcDbLayerTableRecord
  2
PIANI
 70
0
 62
7
  6
CONTINUOUS
370
-3
390
F
  0
LAYER
  5
207
100
AcDbSymbolTableRecord
100
AcDbLayerTableRecord
  2
PIANI_ORIGINE
 70
0
 62
7
  6
CONTINUOUS
370
-3
390
F
  0
LAYER
  5
208
100
AcDbSymbolTableRecord
100
AcDbLayerTableRecord
  2
PIANI_RIFERIMENTO
 70
0
 62
7
  6
CONTINUOUS
370
-3
390
F
  0
LAYER
  5
209
100
AcDbSymbolTableRecord
100
AcDbLayerTableRecord
  2
PUNTI
 70
0
 62
7
  6
CONTINUOUS
370
-3
390
F
  0
LAYER
  5
20A
100
AcDbSymbolTableRecord
100
AcDbLayerTableRecord
  2
RACCORDO
 70
0
 62
7
  6
CONTINUOUS
370
-3
390
F
  0
LAYER
  5
20B
100
AcDbSymbolTableRecord
100
AcDbLayerTableRecord
  2
SMUSSO
 70
0
 62
7
  6
CONTINUOUS
370
-3
390
F
  0
LAYER
  5
20C
100
AcDbSymbolTableRecord
100
AcDbLayerTableRecord
  2
SNAPLINE
 70
0
 62
7
  6
CONTINUOUS
370
-3
390
F
  0
LAYER
  5
20D
100
AcDbSymbolTableRecord
100
AcDbLayerTableRecord
  2
SUPERFICI
 70
0
 62
7
  6
CONTINUOUS
370
-3
390
F
  0
LAYER
  5
20E
100
AcDbSymbolTableRecord
100
AcDbLayerTableRecord
  2
TRASH
 70
0
 62
7
  6
CONTINUOUS
370
-3
390
F
  0
LAYER
  5
20F
100
AcDbSymbolTableRecord
100
AcDbLayerTableRecord
  2
XSEC_DATUMS
 70
0
 62
7
  6
CONTINUOUS
370
-3
390
F
  0
ENDTAB
  0
TABLE
  2
STYLE
  5
3
100
AcDbSymbolTable
 70
1
  0
STYLE
  5
11
100
AcDbSymbolTableRecord
100
AcDbTextStyleTableRecord
  2
STANDARD
 70
0
 40
0.0
 41
0.8
 50
0.0
 71
0
 42
0.2
  3
txt
  4

  0
STYLE
  5
210
100
AcDbSymbolTableRecord
100
AcDbTextStyleTableRecord
  2
TEXTSTYLE_1
 70
0
 40
0.0
 41
0.8
 50
0.0
 71
0
 42
0.2
  3
gdt
  4

  0
ENDTAB
  0
TABLE
  2
VIEW
  5
6
100
AcDbSymbolTable
 70
0
  0
ENDTAB
  0
TABLE
  2
UCS
  5
7
100
AcDbSymbolTable
 70
0
  0
ENDTAB
  0
TABLE
  2
APPID
  5
9
100
AcDbSymbolTable
 70
1
  0
APPID
  5
211
100
AcDbSymbolTableRecord
100
AcDbRegAppTableRecord
  2
ACAD
 70
0
  0
ENDTAB
  0
TABLE
  2
BLOCK_RECORD
  5
1
100
AcDbSymbolTable
 70
0
  0
BLOCK_RECORD
  5
212
100
AcDbSymbolTableRecord
100
AcDbBlockTableRecord
  2
*Model_Space
  0
BLOCK_RECORD
  5
213
100
AcDbSymbolTableRecord
100
AcDbBlockTableRecord
  2
*Paper_Space
  0
ENDTAB
  0
TABLE
  2
DIMSTYLE
  5
A
100
AcDbSymbolTable
 70
1
100
AcDbDimStyleTable
 71
0
  0
DIMSTYLE
105
214
100
AcDbSymbolTableRecord
100
AcDbDimStyleTableRecord
  2
STANDARD
 70
0
  3

  4

 40
1.0
 41
3.0
 42
0.0625
 43
0.38
 44
0.18
 45
0.0
 46
0.0
 47
0.01
 48
0.01
140
3.0
141
0.09
142
0.0
143
25.4
144
1.0
145
0.0
146
1.0
147
0.09
 71
1.0
 72
0.0
 73
0
 74
0
 75
0
 76
0
 77
1
 78
8
170
0
171
2
172
0
173
0
174
0
175
0
176
0
177
0
178
0
270
2
271
2
272
2
273
2
274
2
275
0
280
0
281
0
282
0
283
1
284
8
285
0
286
0
287
3
288
0
340
11
  0
ENDTAB
  0
ENDSEC
  0
SECTION
  2
BLOCKS
  0
BLOCK
  5
20
100
AcDbEntity
  8
0
100
AcDbBlockBegin
  2
*Model_Space
 70
0
 10
0.0
 20
0.0
 30
0.0
  3
*Model_Space
  1

  0
ENDBLK
  5
21
100
AcDbEntity
  8
0
100
AcDbBlockEnd
  0
BLOCK
  5
1C
100
AcDbEntity
  8
0
100
AcDbBlockBegin
  2
*Paper_Space
 70
0
 10
0.0
 20
0.0
 30
0.0
  3
*Paper_Space
  1

  0
ENDBLK
  5
1D
100
AcDbEntity
  8
0
100
AcDbBlockEnd
  0
ENDSEC
  0
SECTION
  2
ENTITIES
  0
LINE
  5
215
100
AcDbEntity
  8
SMUSSO
100
AcDbLine
 62
7
  6
CONTINUOUS
 10
-46.35
 20
47.35
 11
-47.35
 21
46.35
  0
LINE
  5
216
100
AcDbEntity
  8
SMUSSO
100
AcDbLine
 62
7
  6
CONTINUOUS
 10
-46.1428932188
 20
46.85
 11
-46.85
 21
46.1428932188
  0
LINE
  5
217
100
AcDbEntity
  8
SMUSSO
100
AcDbLine
 62
7
  6
CONTINUOUS
 10
-47.35
 20
-46.35
 11
-46.35
 21
-47.35
  0
LINE
  5
218
100
AcDbEntity
  8
SMUSSO
100
AcDbLine
 62
7
  6
CONTINUOUS
 10
-46.85
 20
-46.1428932188
 11
-46.1428932188
 21
-46.85
  0
LINE
  5
219
100
AcDbEntity
  8
SMUSSO
100
AcDbLine
 62
7
  6
CONTINUOUS
 10
-47.35
 20
46.35
 11
-47.35
 21
-46.35
  0
LINE
  5
21A
100
AcDbEntity
  8
SMUSSO
100
AcDbLine
 62
7
  6
CONTINUOUS
 10
-46.85
 20
46.1428932188
 11
-46.85
 21
-46.1428932188
  0
LINE
  5
21B
100
AcDbEntity
  8
0
100
AcDbLine
 62
7
  6
CONTINUOUS
 10
-45.5
 20
45.5
 11
-45.5
 21
-45.5
  0
LINE
  5
21C
100
AcDbEntity
  8
RACCORDO
100
AcDbLine
 62
7
  6
CONTINUOUS
 10
-45.35
 20
-43.3503046097
 11
-45.35
 21
-29.0
  0
LINE
  5
21D
100
AcDbEntity
  8
DRAFT
100
AcDbLine
 62
7
  6
CONTINUOUS
 10
-45.35
 20
-29.0
 11
-45.35
 21
29.0
  0
LINE
  5
21E
100
AcDbEntity
  8
RACCORDO
100
AcDbLine
 62
7
  6
CONTINUOUS
 10
-45.35
 20
29.0
 11
-45.35
 21
43.3503046097
  0
LINE
  5
21F
100
AcDbEntity
  8
RACCORDO
100
AcDbLine
 62
7
  6
CONTINUOUS
 10
-45.3098533507
 20
-43.3101579604
 11
-45.3098533507
 21
43.3101579604
  0
LINE
  5
220
100
AcDbEntity
  8
DRAFT
100
AcDbLine
 62
7
  6
CONTINUOUS
 10
-44.3098533507
 20
-17.6098533507
 11
-44.3098533507
 21
-12.3901466493
  0
LINE
  5
221
100
AcDbEntity
  8
DRAFT
100
AcDbLine
 62
7
  6
CONTINUOUS
 10
-44.3098533507
 20
12.3901466493
 11
-44.3098533507
 21
17.6098533507
  0
LINE
  5
222
100
AcDbEntity
  8
RACCORDO
100
AcDbLine
 62
7
  6
CONTINUOUS
 10
-44.0726915844
 20
43.3727981978
 11
-44.0726915844
 21
17.6098533507
  0
LINE
  5
223
100
AcDbEntity
  8
DRAFT
100
AcDbLine
 62
7
  6
CONTINUOUS
 10
-44.0726915844
 20
12.3901466493
 11
-44.0726915844
 21
-12.3901466493
  0
LINE
  5
224
100
AcDbEntity
  8
RACCORDO
100
AcDbLine
 62
7
  6
CONTINUOUS
 10
-44.0726915844
 20
-17.6098533507
 11
-44.0726915844
 21
-43.3727981978
  0
LINE
  5
225
100
AcDbEntity
  8
RACCORDO
100
AcDbLine
 62
7
  6
CONTINUOUS
 10
-44.05
 20
43.3501066134
 11
-44.05
 21
17.6325449351
  0
LINE
  5
226
100
AcDbEntity
  8
DRAFT
100
AcDbLine
 62
7
  6
CONTINUOUS
 10
-44.05
 20
12.3674550649
 11
-44.05
 21
-12.3674550649
  0
LINE
  5
227
100
AcDbEntity
  8
RACCORDO
100
AcDbLine
 62
7
  6
CONTINUOUS
 10
-44.05
 20
-17.6325449351
 11
-44.05
 21
-43.3501066134
  0
LINE
  5
228
100
AcDbEntity
  8
0
100
AcDbLine
 62
7
  6
CONTINUOUS
 10
-37.42338
 20
32.112109
 11
-38.209048
 21
29.359121
  0
LINE
  5
229
100
AcDbEntity
  8
0
100
AcDbLine
 62
7
  6
CONTINUOUS
 10
-37.874698
 20
28.112597
 11
-36.589095
 21
32.112109
  0
LINE
  5
22A
100
AcDbEntity
  8
SMUSSO
100
AcDbLine
 62
7
  6
CONTINUOUS
 10
-22.6326915844
 20
45.3273084156
 11
-22.46
 21
45.5
  0
LINE
  5
22B
100
AcDbEntity
  8
SMUSSO
100
AcDbLine
 62
7
  6
CONTINUOUS
 10
-46.35
 20
-47.35
 11
46.35
 21
-47.35
  0
LINE
  5
22C
100
AcDbEntity
  8
SMUSSO
100
AcDbLine
 62
7
  6
CONTINUOUS
 10
-46.1428932188
 20
-46.85
 11
46.1428932188
 21
-46.85
  0
LINE
  5
22D
100
AcDbEntity
  8
SMUSSO
100
AcDbLine
 62
7
  6
CONTINUOUS
 10
45.5
 20
-45.5
 11
-45.5
 21
-45.5
  0
LINE
  5
22E
100
AcDbEntity
  8
RACCORDO
100
AcDbLine
 62
7
  6
CONTINUOUS
 10
43.3503046097
 20
-45.35
 11
29.0
 21
-45.35
  0
LINE
  5
22F
100
AcDbEntity
  8
DRAFT
100
AcDbLine
 62
7
  6
CONTINUOUS
 10
29.0
 20
-45.35
 11
27.39
 21
-45.35
  0
LINE
  5
230
100
AcDbEntity
  8
DRAFT
100
AcDbLine
 62
7
  6
CONTINUOUS
 10
22.61
 20
-45.35
 11
-22.61
 21
-45.35
  0
LINE
  5
231
100
AcDbEntity
  8
DRAFT
100
AcDbLine
 62
7
  6
CONTINUOUS
 10
-27.39
 20
-45.35
 11
-29.0
 21
-45.35
  0
LINE
  5
232
100
AcDbEntity
  8
RACCORDO
100
AcDbLine
 62
7
  6
CONTINUOUS
 10
-29.0
 20
-45.35
 11
-43.3503046097
 21
-45.35
  0
LINE
  5
233
100
AcDbEntity
  8
DRAFT
100
AcDbLine
 62
7
  6
CONTINUOUS
 10
28.0
 20
-45.3447634805
 11
27.3847634805
 21
-45.3447634805
  0
LINE
  5
234
100
AcDbEntity
  8
DRAFT
100
AcDbLine
 62
7
  6
CONTINUOUS
 10
22.6152365195
 20
-45.3447634805
 11
22.0
 21
-45.3447634805
  0
LINE
  5
235
100
AcDbEntity
  8
DRAFT
100
AcDbLine
 62
7
  6
CONTINUOUS
 10
-22.0
 20
-45.3447634805
 11
-22.6152365195
 21
-45.3447634805
  0
LINE
  5
236
100
AcDbEntity
  8
DRAFT
100
AcDbLine
 62
7
  6
CONTINUOUS
 10
-27.3847634805
 20
-45.3447634805
 11
-28.0
 21
-45.3447634805
  0
LINE
  5
237
100
AcDbEntity
  8
DRAFT
100
AcDbLine
 62
7
  6
CONTINUOUS
 10
-28.0
 20
-45.3273084156
 11
-22.0
 21
-45.3273084156
  0
LINE
  5
238
100
AcDbEntity
  8
DRAFT
100
AcDbLine
 62
7
  6
CONTINUOUS
 10
22.0
 20
-45.3273084156
 11
28.0
 21
-45.3273084156
  0
LINE
  5
239
100
AcDbEntity
  8
RACCORDO
100
AcDbLine
 62
7
  6
CONTINUOUS
 10
-43.3101579604
 20
-45.3098533507
 11
43.3101579604
 21
-45.3098533507
  0
LINE
  5
23A
100
AcDbEntity
  8
DRAFT
100
AcDbLine
 62
7
  6
CONTINUOUS
 10
17.6098533507
 20
-44.3098533507
 11
12.3901466493
 21
-44.3098533507
  0
LINE
  5
23B
100
AcDbEntity
  8
DRAFT
100
AcDbLine
 62
7
  6
CONTINUOUS
 10
-12.3901466493
 20
-44.3098533507
 11
-17.6098533507
 21
-44.3098533507
  0
LINE
  5
23C
100
AcDbEntity
  8
RACCORDO
100
AcDbLine
 62
7
  6
CONTINUOUS
 10
-43.3727981978
 20
-44.0726915844
 11
-17.6098533507
 21
-44.0726915844
  0
LINE
  5
23D
100
AcDbEntity
  8
DRAFT
100
AcDbLine
 62
7
  6
CONTINUOUS
 10
-12.3901466493
 20
-44.0726915844
 11
12.3901466493
 21
-44.0726915844
  0
LINE
  5
23E
100
AcDbEntity
  8
RACCORDO
100
AcDbLine
 62
7
  6
CONTINUOUS
 10
17.6098533507
 20
-44.0726915844
 11
43.3727981978
 21
-44.0726915844
  0
LINE
  5
23F
100
AcDbEntity
  8
RACCORDO
100
AcDbLine
 62
7
  6
CONTINUOUS
 10
-43.3501066134
 20
-44.05
 11
-17.6325449351
 21
-44.05
  0
LINE
  5
240
100
AcDbEntity
  8
DRAFT
100
AcDbLine
 62
7
  6
CONTINUOUS
 10
-12.3674550649
 20
-44.05
 11
12.3674550649
 21
-44.05
  0
LINE
  5
241
100
AcDbEntity
  8
RACCORDO
100
AcDbLine
 62
7
  6
CONTINUOUS
 10
17.6325449351
 20
-44.05
 11
43.3501066134
 21
-44.05
  0
LINE
  5
242
100
AcDbEntity
  8
0
100
AcDbLine
 62
7
  6
CONTINUOUS
 10
-32.7083333731
 20
-34.1276595592
 11
-32.875
 21
-34.0425531864
  0
LINE
  5
243
100
AcDbEntity
  8
0
100
AcDbLine
 62
7
  6
CONTINUOUS
 10
-31.0833332539
 20
-35.8297872394
 11
-30.875
 21
-35.9574468099
  0
LINE
  5
244
100
AcDbEntity
  8
0
100
AcDbLine
 62
7
  6
CONTINUOUS
 10
-30.0416667461
 20
-34.893617034
 11
-30.25
 21
-34.7659574747
  0
LINE
  5
245
100
AcDbEntity
  8
0
100
AcDbLine
 62
7
  6
CONTINUOUS
 10
-30.0833332539
 20
-34.1702127457
 11
-30.2916667461
 21
-34.0425531864
  0
LINE
  5
246
100
AcDbEntity
  8
0
100
AcDbLine
 62
7
  6
CONTINUOUS
 10
-30.8333332539
 20
-35.7446808517
 11
-30.9583332539
 21
-35.6595744789
  0
LINE
  5
247
100
AcDbEntity
  8
0
100
AcDbLine
 62
7
  6
CONTINUOUS
 10
-32.9583333731
 20
-34.2553191185
 11
-32.8333333731
 21
-34.3404254913
  0
LINE
  5
248
100
AcDbEntity
  8
0
100
AcDbLine
 62
7
  6
CONTINUOUS
 10
-30.2916667461
 20
-34.9787234068
 11
-30.1666667461
 21
-35.0638297796
  0
LINE
  5
249
100
AcDbEntity
  8
0
100
AcDbLine
 62
7
  6
CONTINUOUS
 10
-30.3333332539
 20
-34.2553191185
 11
-30.2083332539
 21
-34.3404254913
  0
LINE
  5
24A
100
AcDbEntity
  8
SMUSSO
100
AcDbLine
 62
7
  6
CONTINUOUS
 10
-22.46
 20
-45.5
 11
-22.6326915844
 21
-45.3273084156
  0
LINE
  5
24B
100
AcDbEntity
  8
0
100
AcDbLine
 62
7
  6
CONTINUOUS
 10
-32.5416666269
 20
-34.2978723049
 11
-32.7083333731
 21
-34.1276595592
  0
LINE
  5
24C
100
AcDbEntity
  8
0
100
AcDbLine
 62
7
  6
CONTINUOUS
 10
-30.1666667461
 20
-35.0638297796
 11
-30.0833332539
 21
-35.1489361525
  0
LINE
  5
24D
100
AcDbEntity
  8
0
100
AcDbLine
 62
7
  6
CONTINUOUS
 10
-29.9166665077
 20
-35.0212765932
 11
-30.0416667461
 21
-34.893617034
  0
LINE
  5
24E
100
AcDbEntity
  8
0
100
AcDbLine
 62
7
  6
CONTINUOUS
 10
-31.2083332539
 20
-35.6595744789
 11
-31.0833332539
 21
-35.8297872394
  0
LINE
  5
24F
100
AcDbEntity
  8
0
100
AcDbLine
 62
7
  6
CONTINUOUS
 10
-29.9583334923
 20
-34.3404254913
 11
-30.0833332539
 21
-34.1702127457
  0
LINE
  5
250
100
AcDbEntity
  8
0
100
AcDbLine
 62
7
  6
CONTINUOUS
 10
-32.8333333731
 20
-34.3404254913
 11
-32.75
 21
-34.4680850506
  0
LINE
  5
251
100
AcDbEntity
  8
0
100
AcDbLine
 62
7
  6
CONTINUOUS
 10
-30.9583332539
 20
-35.6595744789
 11
-31.0416667461
 21
-35.5319148898
  0
LINE
  5
252
100
AcDbEntity
  8
0
100
AcDbLine
 62
7
  6
CONTINUOUS
 10
-30.2083332539
 20
-34.3404254913
 11
-30.125
 21
-34.4680850506
  0
LINE
  5
253
100
AcDbEntity
  8
DRAFT
100
AcDbLine
 62
7
  6
CONTINUOUS
 10
-43.2473817403
 20
17.6325449351
 11
-43.2473817403
 21
12.3674550649
  0
LINE
  5
254
100
AcDbEntity
  8
DRAFT
100
AcDbLine
 62
7
  6
CONTINUOUS
 10
-43.2473817403
 20
-12.3674550649
 11
-43.2473817403
 21
-17.6325449351
  0
LINE
  5
255
100
AcDbEntity
  8
DRAFT
100
AcDbLine
 62
7
  6
CONTINUOUS
 10
-43.05
 20
-43.05
 11
-43.05
 21
-17.6325449351
  0
LINE
  5
256
100
AcDbEntity
  8
DRAFT
100
AcDbLine
 62
7
  6
CONTINUOUS
 10
-43.05
 20
-12.3674550649
 11
-43.05
 21
12.3674550649
  0
LINE
  5
257
100
AcDbEntity
  8
DRAFT
100
AcDbLine
 62
7
  6
CONTINUOUS
 10
-43.05
 20
17.6325449351
 11
-43.05
 21
43.05
  0
LINE
  5
258
100
AcDbEntity
  8
DRAFT
100
AcDbLine
 62
7
  6
CONTINUOUS
 10
-43.0325449351
 20
-43.0325449351
 11
-43.0325449351
 21
-17.65
  0
LINE
  5
259
100
AcDbEntity
  8
DRAFT
100
AcDbLine
 62
7
  6
CONTINUOUS
 10
-43.0325449351
 20
-12.35
 11
-43.0325449351
 21
12.35
  0
LINE
  5
25A
100
AcDbEntity
  8
DRAFT
100
AcDbLine
 62
7
  6
CONTINUOUS
 10
-43.0325449351
 20
17.65
 11
-43.0325449351
 21
43.0325449351
  0
LINE
  5
25B
100
AcDbEntity
  8
DRAFT
100
AcDbLine
 62
7
  6
CONTINUOUS
 10
-42.05
 20
-17.65
 11
-42.05
 21
-12.35
  0
LINE
  5
25C
100
AcDbEntity
  8
DRAFT
100
AcDbLine
 62
7
  6
CONTINUOUS
 10
-42.05
 20
12.35
 11
-42.05
 21
17.65
  0
LINE
  5
25D
100
AcDbEntity
  8
0
100
AcDbLine
 62
7
  6
CONTINUOUS
 10
-32.138804
 20
32.112109
 11
-32.973659
 21
29.891567
  0
LINE
  5
25E
100
AcDbEntity
  8
0
100
AcDbLine
 62
7
  6
CONTINUOUS
 10
-32.919674
 20
28.112597
 11
-31.927031
 21
30.713316
  0
LINE
  5
25F
100
AcDbEntity
  8
DRAFT
100
AcDbLine
 62
7
  6
CONTINUOUS
 10
-44.05
 20
17.6325449351
 11
-44.0726915844
 21
17.6098533507
  0
LINE
  5
260
100
AcDbEntity
  8
DRAFT
100
AcDbLine
 62
7
  6
CONTINUOUS
 10
-17.6325449351
 20
44.05
 11
-17.6098533507
 21
44.0726915844
  0
LINE
  5
261
100
AcDbEntity
  8
DRAFT
100
AcDbLine
 62
7
  6
CONTINUOUS
 10
-43.0325449351
 20
17.65
 11
-43.05
 21
17.6325449351
  0
LINE
  5
262
100
AcDbEntity
  8
DRAFT
100
AcDbLine
 62
7
  6
CONTINUOUS
 10
-17.65
 20
43.0325449351
 11
-17.6325449351
 21
43.05
  0
LINE
  5
263
100
AcDbEntity
  8
DRAFT
100
AcDbLine
 62
7
  6
CONTINUOUS
 10
-17.6325449351
 20
-43.2473817403
 11
-12.3674550649
 21
-43.2473817403
  0
LINE
  5
264
100
AcDbEntity
  8
DRAFT
100
AcDbLine
 62
7
  6
CONTINUOUS
 10
12.3674550649
 20
-43.2473817403
 11
17.6325449351
 21
-43.2473817403
  0
LINE
  5
265
100
AcDbEntity
  8
DRAFT
100
AcDbLine
 62
7
  6
CONTINUOUS
 10
43.05
 20
-43.05
 11
17.6325449351
 21
-43.05
  0
LINE
  5
266
100
AcDbEntity
  8
DRAFT
100
AcDbLine
 62
7
  6
CONTINUOUS
 10
12.3674550649
 20
-43.05
 11
-12.3674550649
 21
-43.05
  0
LINE
  5
267
100
AcDbEntity
  8
DRAFT
100
AcDbLine
 62
7
  6
CONTINUOUS
 10
-17.6325449351
 20
-43.05
 11
-43.05
 21
-43.05
  0
LINE
  5
268
100
AcDbEntity
  8
DRAFT
100
AcDbLine
 62
7
  6
CONTINUOUS
 10
43.0325449351
 20
-43.0325449351
 11
17.65
 21
-43.0325449351
  0
LINE
  5
269
100
AcDbEntity
  8
DRAFT
100
AcDbLine
 62
7
  6
CONTINUOUS
 10
12.35
 20
-43.0325449351
 11
-12.35
 21
-43.0325449351
  0
LINE
  5
26A
100
AcDbEntity
  8
DRAFT
100
AcDbLine
 62
7
  6
CONTINUOUS
 10
-17.65
 20
-43.0325449351
 11
-43.0325449351
 21
-43.0325449351
  0
LINE
  5
26B
100
AcDbEntity
  8
DRAFT
100
AcDbLine
 62
7
  6
CONTINUOUS
 10
17.65
 20
-42.05
 11
12.35
 21
-42.05
  0
LINE
  5
26C
100
AcDbEntity
  8
DRAFT
100
AcDbLine
 62
7
  6
CONTINUOUS
 10
-12.35
 20
-42.05
 11
-17.65
 21
-42.05
  0
LINE
  5
26D
100
AcDbEntity
  8
0
100
AcDbLine
 62
7
  6
CONTINUOUS
 10
-30.875
 20
-35.9574468099
 11
-30.6666667461
 21
-36.0
  0
LINE
  5
26E
100
AcDbEntity
  8
0
100
AcDbLine
 62
7
  6
CONTINUOUS
 10
-33.1666666865
 20
-34.2127659321
 11
-32.9583333731
 21
-34.2553191185
  0
LINE
  5
26F
100
AcDbEntity
  8
0
100
AcDbLine
 62
7
  6
CONTINUOUS
 10
-30.25
 20
-34.7659574747
 11
-30.4583332539
 21
-34.7234042883
  0
LINE
  5
270
100
AcDbEntity
  8
0
100
AcDbLine
 62
7
  6
CONTINUOUS
 10
-30.7083332539
 20
-35.7872340381
 11
-30.8333332539
 21
-35.7446808517
  0
LINE
  5
271
100
AcDbEntity
  8
0
100
AcDbLine
 62
7
  6
CONTINUOUS
 10
-30.4166667461
 20
-34.9361702204
 11
-30.2916667461
 21
-34.9787234068
  0
LINE
  5
272
100
AcDbEntity
  8
0
100
AcDbLine
 62
7
  6
CONTINUOUS
 10
-30.4583332539
 20
-34.2127659321
 11
-30.3333332539
 21
-34.2553191185
  0
LINE
  5
273
100
AcDbEntity
  8
0
100
AcDbLine
 62
7
  6
CONTINUOUS
 10
-26.2083334923
 20
-34.1276595592
 11
-26.375
 21
-34.0425531864
  0
LINE
  5
274
100
AcDbEntity
  8
0
100
AcDbLine
 62
7
  6
CONTINUOUS
 10
-26.4583334923
 20
-34.2553191185
 11
-26.3333334923
 21
-34.3404254913
  0
LINE
  5
275
100
AcDbEntity
  8
DRAFT
100
AcDbLine
 62
7
  6
CONTINUOUS
 10
-17.6325449351
 20
-44.05
 11
-17.6098533507
 21
-44.0726915844
  0
LINE
  5
276
100
AcDbEntity
  8
DRAFT
100
AcDbLine
 62
7
  6
CONTINUOUS
 10
-44.05
 20
-17.6325449351
 11
-44.0726915844
 21
-17.6098533507
  0
LINE
  5
277
100
AcDbEntity
  8
DRAFT
100
AcDbLine
 62
7
  6
CONTINUOUS
 10
-17.65
 20
-43.0325449351
 11
-17.6325449351
 21
-43.05
  0
LINE
  5
278
100
AcDbEntity
  8
DRAFT
100
AcDbLine
 62
7
  6
CONTINUOUS
 10
-43.0325449351
 20
-17.65
 11
-43.05
 21
-17.6325449351
  0
LINE
  5
279
100
AcDbEntity
  8
0
100
AcDbLine
 62
7
  6
CONTINUOUS
 10
-26.0416665077
 20
-34.2978723049
 11
-26.2083334923
 21
-34.1276595592
  0
LINE
  5
27A
100
AcDbEntity
  8
0
100
AcDbLine
 62
7
  6
CONTINUOUS
 10
-26.3333334923
 20
-34.3404254913
 11
-26.25
 21
-34.4680850506
  0
LINE
  5
27B
100
AcDbEntity
  8
0
100
AcDbLine
 62
7
  6
CONTINUOUS
 10
-31.2916667461
 20
-35.446808517
 11
-31.2083332539
 21
-35.6595744789
  0
LINE
  5
27C
100
AcDbEntity
  8
0
100
AcDbLine
 62
7
  6
CONTINUOUS
 10
-29.8333334923
 20
-35.2340425253
 11
-29.9166665077
 21
-35.0212765932
  0
LINE
  5
27D
100
AcDbEntity
  8
0
100
AcDbLine
 62
7
  6
CONTINUOUS
 10
-31.0416667461
 20
-35.5319148898
 11
-31.0833332539
 21
-35.4042553306
  0
LINE
  5
27E
100
AcDbEntity
  8
0
100
AcDbLine
 62
7
  6
CONTINUOUS
 10
-32.5
 20
-34.4680850506
 11
-32.5416666269
 21
-34.2978723049
  0
LINE
  5
27F
100
AcDbEntity
  8
0
100
AcDbLine
 62
7
  6
CONTINUOUS
 10
-36.279278
 20
32.112349
 11
-36.279278
 21
28.112597
  0
LINE
  5
280
100
AcDbEntity
  8
0
100
AcDbLine
 62
7
  6
CONTINUOUS
 10
-35.444423
 20
28.112597
 11
-35.444423
 21
32.112349
  0
LINE
  5
281
100
AcDbEntity
  8
0
100
AcDbLine
 62
7
  6
CONTINUOUS
 10
-34.19631
 20
28.112597
 11
-34.016148
 21
30.724203
  0
LINE
  5
282
100
AcDbEntity
  8
0
100
AcDbLine
 62
7
  6
CONTINUOUS
 10
-34.633862
 20
32.112109
 11
-34.994994
 21
28.112597
  0
LINE
  5
283
100
AcDbEntity
  8
0
100
AcDbLine
 62
7
  6
CONTINUOUS
 10
-29.580763
 20
29.528875
 11
-29.165075
 21
31.013145
  0
LINE
  5
284
100
AcDbEntity
  8
0
100
AcDbLine
 62
7
  6
CONTINUOUS
 10
-29.981905
 20
28.112597
 11
-29.751537
 21
28.911042
  0
LINE
  5
285
100
AcDbEntity
  8
0
100
AcDbLine
 62
7
  6
CONTINUOUS
 10
-29.553201
 20
32.112109
 11
-30.807703
 21
28.112597
  0
LINE
  5
286
100
AcDbEntity
  8
0
100
AcDbLine
 62
7
  6
CONTINUOUS
 10
-18.52542
 20
-38.972865
 11
-18.248348
 21
-38.972865
  0
LINE
  5
287
100
AcDbEntity
  8
0
100
AcDbLine
 62
7
  6
CONTINUOUS
 10
-17.257287
 20
-38.972865
 11
-16.98038
 21
-38.972865
  0
LINE
  5
288
100
AcDbEntity
  8
0
100
AcDbLine
 62
7
  6
CONTINUOUS
 10
-16.206534
 20
-38.972865
 11
-15.921005
 21
-38.972865
  0
LINE
  5
289
100
AcDbEntity
  8
0
100
AcDbLine
 62
7
  6
CONTINUOUS
 10
-14.681557
 20
-38.972865
 11
-14.37895
 21
-38.972865
  0
LINE
  5
28A
100
AcDbEntity
  8
0
100
AcDbLine
 62
7
  6
CONTINUOUS
 10
-14.124759
 20
-38.972865
 11
-12.808375
 21
-38.972865
  0
LINE
  5
28B
100
AcDbEntity
  8
0
100
AcDbLine
 62
7
  6
CONTINUOUS
 10
-12.368474
 20
-38.972865
 11
-12.091568
 21
-38.972865
  0
LINE
  5
28C
100
AcDbEntity
  8
0
100
AcDbLine
 62
7
  6
CONTINUOUS
 10
-12.808375
 20
-38.727463
 11
-13.847853
 21
-38.727463
  0
LINE
  5
28D
100
AcDbEntity
  8
0
100
AcDbLine
 62
7
  6
CONTINUOUS
 10
-15.706775
 20
-38.37594
 11
-14.884346
 21
-38.37594
  0
LINE
  5
28E
100
AcDbEntity
  8
0
100
AcDbLine
 62
7
  6
CONTINUOUS
 10
-14.984331
 20
-38.130538
 11
-15.621216
 21
-38.130538
  0
LINE
  5
28F
100
AcDbEntity
  8
0
100
AcDbLine
 62
7
  6
CONTINUOUS
 10
-17.951212
 20
-37.167168
 11
-17.257287
 21
-37.167168
  0
LINE
  5
290
100
AcDbEntity
  8
0
100
AcDbLine
 62
7
  6
CONTINUOUS
 10
-16.98038
 20
-37.167168
 11
-16.286455
 21
-37.167168
  0
LINE
  5
291
100
AcDbEntity
  8
0
100
AcDbLine
 62
7
  6
CONTINUOUS
 10
-11.317721
 20
-36.921766
 11
-11.643211
 21
-36.921766
  0
LINE
  5
292
100
AcDbEntity
  8
0
100
AcDbLine
 62
7
  6
CONTINUOUS
 10
-12.819816
 20
-36.921766
 11
-13.142487
 21
-36.921766
  0
LINE
  5
293
100
AcDbEntity
  8
0
100
AcDbLine
 62
7
  6
CONTINUOUS
 10
-13.847853
 20
-36.921766
 11
-14.124759
 21
-36.921766
  0
LINE
  5
294
100
AcDbEntity
  8
0
100
AcDbLine
 62
7
  6
CONTINUOUS
 10
-15.121458
 20
-36.921766
 11
-15.435506
 21
-36.921766
  0
LINE
  5
295
100
AcDbEntity
  8
0
100
AcDbLine
 62
7
  6
CONTINUOUS
 10
-16.286455
 20
-36.921766
 11
-17.951212
 21
-36.921766
  0
LINE
  5
296
100
AcDbEntity
  8
0
100
AcDbLine
 62
7
  6
CONTINUOUS
 10
-18.248348
 20
-36.921766
 11
-18.52542
 21
-36.921766
  0
LINE
  5
297
100
AcDbEntity
  8
ASSI
100
AcDbLine
 62
7
  6
CONTINUOUS
 10
26.41157
 20
-36.906117
 11
27.593816
 21
-36.906117
  0
LINE
  5
298
100
AcDbEntity
  8
ASSI
100
AcDbLine
 62
7
  6
CONTINUOUS
 10
27.593816
 20
-36.489452
 11
27.224704
 21
-36.489452
  0
LINE
  5
299
100
AcDbEntity
  8
ASSI
100
AcDbLine
 62
7
  6
CONTINUOUS
 10
26.780825
 20
-36.489452
 11
26.41157
 21
-36.489452
  0
LINE
  5
29A
100
AcDbEntity
  8
0
100
AcDbLine
 62
7
  6
CONTINUOUS
 10
-16.199404
 20
-36.024721
 11
-15.922331
 21
-36.024721
  0
LINE
  5
29B
100
AcDbEntity
  8
0
100
AcDbLine
 62
7
  6
CONTINUOUS
 10
-15.44844
 20
-36.024721
 11
-15.179824
 21
-36.024721
  0
LINE
  5
29C
100
AcDbEntity
  8
0
100
AcDbLine
 62
7
  6
CONTINUOUS
 10
-14.131889
 20
-36.024721
 11
-13.820659
 21
-36.024721
  0
LINE
  5
29D
100
AcDbEntity
  8
0
100
AcDbLine
 62
7
  6
CONTINUOUS
 10
-34.0
 20
-36.0
 11
-32.5
 21
-36.0
  0
LINE
  5
29E
100
AcDbEntity
  8
0
100
AcDbLine
 62
7
  6
CONTINUOUS
 10
-31.9166667461
 20
-36.0
 11
-31.6666667461
 21
-36.0
  0
LINE
  5
29F
100
AcDbEntity
  8
0
100
AcDbLine
 62
7
  6
CONTINUOUS
 10
-30.6666667461
 20
-36.0
 11
-30.4583332539
 21
-36.0
  0
LINE
  5
2A0
100
AcDbEntity
  8
0
100
AcDbLine
 62
7
  6
CONTINUOUS
 10
-28.5
 20
-36.0
 11
-28.25
 21
-36.0
  0
LINE
  5
2A1
100
AcDbEntity
  8
0
100
AcDbLine
 62
7
  6
CONTINUOUS
 10
-27.5
 20
-36.0
 11
-26.0
 21
-36.0
  0
LINE
  5
2A2
100
AcDbEntity
  8
0
100
AcDbLine
 62
7
  6
CONTINUOUS
 10
-26.0
 20
-35.7872340381
 11
-27.1666665077
 21
-35.7872340381
  0
LINE
  5
2A3
100
AcDbEntity
  8
0
100
AcDbLine
 62
7
  6
CONTINUOUS
 10
-30.4166667461
 20
-35.7872340381
 11
-30.7083332539
 21
-35.7872340381
  0
LINE
  5
2A4
100
AcDbEntity
  8
0
100
AcDbLine
 62
7
  6
CONTINUOUS
 10
-32.5
 20
-35.7872340381
 11
-33.6666666567
 21
-35.7872340381
  0
LINE
  5
2A5
100
AcDbEntity
  8
0
100
AcDbLine
 62
7
  6
CONTINUOUS
 10
-29.5
 20
-35.4042553306
 11
-28.5
 21
-35.4042553306
  0
LINE
  5
2A6
100
AcDbEntity
  8
0
100
AcDbLine
 62
7
  6
CONTINUOUS
 10
-28.25
 20
-35.4042553306
 11
-27.8333334923
 21
-35.4042553306
  0
LINE
  5
2A7
100
AcDbEntity
  8
ASSI
100
AcDbLine
 62
7
  6
CONTINUOUS
 10
38.657055
 20
-35.375
 11
40.117556
 21
-35.375
  0
LINE
  5
2A8
100
AcDbEntity
  8
0
100
AcDbLine
 62
7
  6
CONTINUOUS
 10
-27.8333334923
 20
-35.1489361525
 11
-28.25
 21
-35.1489361525
  0
LINE
  5
2A9
100
AcDbEntity
  8
0
100
AcDbLine
 62
7
  6
CONTINUOUS
 10
-28.5
 20
-35.1489361525
 11
-29.2083334923
 21
-35.1489361525
  0
LINE
  5
2AA
100
AcDbEntity
  8
0
100
AcDbLine
 62
7
  6
CONTINUOUS
 10
-32.875
 20
-34.0425531864
 11
-33.125
 21
-34.0
  0
LINE
  5
2AB
100
AcDbEntity
  8
0
100
AcDbLine
 62
7
  6
CONTINUOUS
 10
-26.375
 20
-34.0425531864
 11
-26.625
 21
-34.0
  0
LINE
  5
2AC
100
AcDbEntity
  8
0
100
AcDbLine
 62
7
  6
CONTINUOUS
 10
-30.2916667461
 20
-34.0425531864
 11
-30.5
 21
-34.0
  0
LINE
  5
2AD
100
AcDbEntity
  8
0
100
AcDbLine
 62
7
  6
CONTINUOUS
 10
-26.6666665077
 20
-34.2127659321
 11
-26.4583334923
 21
-34.2553191185
  0
LINE
  5
2AE
100
AcDbEntity
  8
0
100
AcDbLine
 62
7
  6
CONTINUOUS
 10
-30.0833332539
 20
-35.1489361525
 11
-30.0416667461
 21
-35.2765957713
  0
LINE
  5
2AF
100
AcDbEntity
  8
0
100
AcDbLine
 62
7
  6
CONTINUOUS
 10
-29.9166665077
 20
-34.4680850506
 11
-29.9583334923
 21
-34.3404254913
  0
LINE
  5
2B0
100
AcDbEntity
  8
0
100
AcDbLine
 62
7
  6
CONTINUOUS
 10
-31.3333332539
 20
-35.1489361525
 11
-31.2916667461
 21
-35.446808517
  0
LINE
  5
2B1
100
AcDbEntity
  8
0
100
AcDbLine
 62
7
  6
CONTINUOUS
 10
-34.0
 20
-35.7872340381
 11
-34.0
 21
-36.0
  0
LINE
  5
2B2
100
AcDbEntity
  8
0
100
AcDbLine
 62
7
  6
CONTINUOUS
 10
-32.75
 20
-34.4680850506
 11
-32.75
 21
-34.5531915426
  0
LINE
  5
2B3
100
AcDbEntity
  8
0
100
AcDbLine
 62
7
  6
CONTINUOUS
 10
-32.5
 20
-36.0
 11
-32.5
 21
-35.7872340381
  0
LINE
  5
2B4
100
AcDbEntity
  8
0
100
AcDbLine
 62
7
  6
CONTINUOUS
 10
-32.5
 20
-34.5531915426
 11
-32.5
 21
-34.4680850506
  0
LINE
  5
2B5
100
AcDbEntity
  8
0
100
AcDbLine
 62
7
  6
CONTINUOUS
 10
-32.1666666269
 20
-34.2978723049
 11
-32.1666666269
 21
-34.6382979155
  0
LINE
  5
2B6
100
AcDbEntity
  8
0
100
AcDbLine
 62
7
  6
CONTINUOUS
 10
-31.9166667461
 20
-34.3404254913
 11
-31.9166667461
 21
-36.0
  0
LINE
  5
2B7
100
AcDbEntity
  8
0
100
AcDbLine
 62
7
  6
CONTINUOUS
 10
-31.6666667461
 20
-36.0
 11
-31.6666667461
 21
-34.0
  0
LINE
  5
2B8
100
AcDbEntity
  8
0
100
AcDbLine
 62
7
  6
CONTINUOUS
 10
-31.3333332539
 20
-34.8510638475
 11
-31.3333332539
 21
-35.1489361525
  0
LINE
  5
2B9
100
AcDbEntity
  8
0
100
AcDbLine
 62
7
  6
CONTINUOUS
 10
-31.125
 20
-34.9361702204
 11
-31.125
 21
-34.8510638475
  0
LINE
  5
2BA
100
AcDbEntity
  8
0
100
AcDbLine
 62
7
  6
CONTINUOUS
 10
-31.0833332539
 20
-35.4042553306
 11
-31.0833332539
 21
-35.2765957713
  0
LINE
  5
2BB
100
AcDbEntity
  8
0
100
AcDbLine
 62
7
  6
CONTINUOUS
 10
-30.7083332539
 20
-34.9361702204
 11
-30.4166667461
 21
-34.9361702204
  0
LINE
  5
2BC
100
AcDbEntity
  8
0
100
AcDbLine
 62
7
  6
CONTINUOUS
 10
-30.4583332539
 20
-34.7234042883
 11
-30.6666667461
 21
-34.7234042883
  0
LINE
  5
2BD
100
AcDbEntity
  8
ASSI
100
AcDbLine
 62
7
  6
CONTINUOUS
 10
40.117556
 20
-34.625
 11
38.6570519451
 21
-34.625
  0
LINE
  5
2BE
100
AcDbEntity
  8
0
100
AcDbLine
 62
7
  6
CONTINUOUS
 10
-33.9583333321
 20
-34.4680850506
 11
-33.75
 21
-34.4680850506
  0
LINE
  5
2BF
100
AcDbEntity
  8
0
100
AcDbLine
 62
7
  6
CONTINUOUS
 10
-30.125
 20
-34.4680850506
 11
-29.9166665077
 21
-34.4680850506
  0
LINE
  5
2C0
100
AcDbEntity
  8
0
100
AcDbLine
 62
7
  6
CONTINUOUS
 10
-27.4583334923
 20
-34.4680850506
 11
-27.25
 21
-34.4680850506
  0
LINE
  5
2C1
100
AcDbEntity
  8
0
100
AcDbLine
 62
7
  6
CONTINUOUS
 10
-33.3333333135
 20
-34.2127659321
 11
-33.1666666865
 21
-34.2127659321
  0
LINE
  5
2C2
100
AcDbEntity
  8
0
100
AcDbLine
 62
7
  6
CONTINUOUS
 10
-30.7083332539
 20
-34.2127659321
 11
-30.4583332539
 21
-34.2127659321
  0
LINE
  5
2C3
100
AcDbEntity
  8
0
100
AcDbLine
 62
7
  6
CONTINUOUS
 10
-26.8333334923
 20
-34.2127659321
 11
-26.6666665077
 21
-34.2127659321
  0
LINE
  5
2C4
100
AcDbEntity
  8
0
100
AcDbLine
 62
7
  6
CONTINUOUS
 10
-26.625
 20
-34.0
 11
-26.7916665077
 21
-34.0
  0
LINE
  5
2C5
100
AcDbEntity
  8
0
100
AcDbLine
 62
7
  6
CONTINUOUS
 10
-28.25
 20
-34.0
 11
-28.5
 21
-34.0
  0
LINE
  5
2C6
100
AcDbEntity
  8
0
100
AcDbLine
 62
7
  6
CONTINUOUS
 10
-30.5
 20
-34.0
 11
-30.6666667461
 21
-34.0
  0
LINE
  5
2C7
100
AcDbEntity
  8
0
100
AcDbLine
 62
7
  6
CONTINUOUS
 10
-31.6666667461
 20
-34.0
 11
-31.9166667461
 21
-34.0
  0
LINE
  5
2C8
100
AcDbEntity
  8
0
100
AcDbLine
 62
7
  6
CONTINUOUS
 10
-33.125
 20
-34.0
 11
-33.2916666865
 21
-34.0
  0
LINE
  5
2C9
100
AcDbEntity
  8
0
100
AcDbLine
 62
7
  6
CONTINUOUS
 10
-13.820659
 20
-33.975279
 11
-14.088944
 21
-33.975279
  0
LINE
  5
2CA
100
AcDbEntity
  8
0
100
AcDbLine
 62
7
  6
CONTINUOUS
 10
-15.119965
 20
-33.975279
 11
-15.44844
 21
-33.975279
  0
LINE
  5
2CB
100
AcDbEntity
  8
0
100
AcDbLine
 62
7
  6
CONTINUOUS
 10
-15.922331
 20
-33.975279
 11
-16.199404
 21
-33.975279
  0
LINE
  5
2CC
100
AcDbEntity
  8
ASSI
100
AcDbLine
 62
7
  6
CONTINUOUS
 10
26.425177
 20
-33.529254
 11
26.780825
 21
-33.529254
  0
LINE
  5
2CD
100
AcDbEntity
  8
ASSI
100
AcDbLine
 62
7
  6
CONTINUOUS
 10
27.224704
 20
-33.529254
 11
27.580209
 21
-33.529254
  0
LINE
  5
2CE
100
AcDbEntity
  8
ASSI
100
AcDbLine
 62
7
  6
CONTINUOUS
 10
27.580209
 20
-33.110297
 11
26.425177
 21
-33.110297
  0
LINE
  5
2CF
100
AcDbEntity
  8
0
100
AcDbLine
 62
7
  6
CONTINUOUS
 10
-18.94791
 20
-33.076576
 11
-18.67946
 21
-33.076576
  0
LINE
  5
2D0
100
AcDbEntity
  8
0
100
AcDbLine
 62
7
  6
CONTINUOUS
 10
-18.102599
 20
-33.076576
 11
-17.828511
 21
-33.076576
  0
LINE
  5
2D1
100
AcDbEntity
  8
0
100
AcDbLine
 62
7
  6
CONTINUOUS
 10
-17.251649
 20
-33.076576
 11
-16.983199
 21
-33.076576
  0
LINE
  5
2D2
100
AcDbEntity
  8
0
100
AcDbLine
 62
7
  6
CONTINUOUS
 10
-16.737631
 20
-33.076576
 11
-16.452102
 21
-33.076576
  0
LINE
  5
2D3
100
AcDbEntity
  8
0
100
AcDbLine
 62
7
  6
CONTINUOUS
 10
-15.212654
 20
-33.076576
 11
-14.910047
 21
-33.076576
  0
LINE
  5
2D4
100
AcDbEntity
  8
0
100
AcDbLine
 62
7
  6
CONTINUOUS
 10
-14.641597
 20
-33.076576
 11
-13.8107082758
 21
-33.076576
  0
LINE
  5
2D5
100
AcDbEntity
  8
0
100
AcDbLine
 62
7
  6
CONTINUOUS
 10
-12.565625
 20
-33.076576
 11
-11.05209
 21
-33.076576
  0
LINE
  5
2D6
100
AcDbEntity
  8
0
100
AcDbLine
 62
7
  6
CONTINUOUS
 10
-13.8478571043
 20
-32.839465
 11
-14.36469
 21
-32.839465
  0
LINE
  5
2D7
100
AcDbEntity
  8
0
100
AcDbLine
 62
7
  6
CONTINUOUS
 10
-11.05209
 20
-32.831174
 11
-12.288553
 21
-32.831174
  0
LINE
  5
2D8
100
AcDbEntity
  8
0
100
AcDbLine
 62
7
  6
CONTINUOUS
 10
-16.237872
 20
-32.479652
 11
-15.415443
 21
-32.479652
  0
LINE
  5
2D9
100
AcDbEntity
  8
0
100
AcDbLine
 62
7
  6
CONTINUOUS
 10
-15.515428
 20
-32.234249
 11
-16.152147
 21
-32.234249
  0
LINE
  5
2DA
100
AcDbEntity
  8
0
100
AcDbLine
 62
7
  6
CONTINUOUS
 10
-12.288553
 20
-32.146369
 11
-11.166335
 21
-32.146369
  0
LINE
  5
2DB
100
AcDbEntity
  8
0
100
AcDbLine
 62
7
  6
CONTINUOUS
 10
-11.166335
 20
-31.900966
 11
-12.288553
 21
-31.900966
  0
LINE
  5
2DC
100
AcDbEntity
  8
0
100
AcDbLine
 62
7
  6
CONTINUOUS
 10
-12.288553
 20
-31.272537
 11
-11.072153
 21
-31.272537
  0
LINE
  5
2DD
100
AcDbEntity
  8
0
100
AcDbLine
 62
7
  6
CONTINUOUS
 10
-14.36469
 20
-31.264247
 11
-13.8478504594
 21
-31.264247
  0
LINE
  5
2DE
100
AcDbEntity
  8
0
100
AcDbLine
 62
7
  6
CONTINUOUS
 10
-11.072153
 20
-31.027135
 11
-12.565625
 21
-31.027135
  0
LINE
  5
2DF
100
AcDbEntity
  8
0
100
AcDbLine
 62
7
  6
CONTINUOUS
 10
-13.8107110758
 20
-31.027135
 11
-14.641597
 21
-31.027135
  0
LINE
  5
2E0
100
AcDbEntity
  8
0
100
AcDbLine
 62
7
  6
CONTINUOUS
 10
-15.652555
 20
-31.027135
 11
-15.966603
 21
-31.027135
  0
LINE
  5
2E1
100
AcDbEntity
  8
0
100
AcDbLine
 62
7
  6
CONTINUOUS
 10
-16.983199
 20
-31.027135
 11
-17.377335
 21
-31.027135
  0
LINE
  5
2E2
100
AcDbEntity
  8
0
100
AcDbLine
 62
7
  6
CONTINUOUS
 10
-18.550955
 20
-31.027135
 11
-18.94791
 21
-31.027135
  0
LINE
  5
2E3
100
AcDbEntity
  8
ASSI
100
AcDbLine
 62
7
  6
CONTINUOUS
 10
36.0095942122
 20
-33.2002393942
 11
36.132446
 21
-33.20278
  0
LINE
  5
2E4
100
AcDbEntity
  8
0
100
AcDbLine
 62
7
  6
CONTINUOUS
 10
-13.142487
 20
-36.921766
 11
-12.368474
 21
-38.147119
  0
LINE
  5
2E5
100
AcDbEntity
  8
0
100
AcDbLine
 62
7
  6
CONTINUOUS
 10
-15.179824
 20
-34.359295
 11
-14.131889
 21
-36.024721
  0
LINE
  5
2E6
100
AcDbEntity
  8
0
100
AcDbLine
 62
7
  6
CONTINUOUS
 10
-14.088944
 20
-35.639454
 11
-15.119965
 21
-33.975279
  0
LINE
  5
2E7
100
AcDbEntity
  8
0
100
AcDbLine
 62
7
  6
CONTINUOUS
 10
-26.0
 20
-34.4680850506
 11
-26.0416665077
 21
-34.2978723049
  0
LINE
  5
2E8
100
AcDbEntity
  8
0
100
AcDbLine
 62
7
  6
CONTINUOUS
 10
-30.938797
 20
28.112597
 11
-31.312797
 21
32.112109
  0
LINE
  5
2E9
100
AcDbEntity
  8
0
100
AcDbLine
 62
7
  6
CONTINUOUS
 10
-31.927031
 20
30.713316
 11
-31.755507
 21
28.112597
  0
LINE
  5
2EA
100
AcDbEntity
  8
0
100
AcDbLine
 62
7
  6
CONTINUOUS
 10
-30.0416667461
 20
-35.2765957713
 11
-30.0416667461
 21
-35.4042553306
  0
LINE
  5
2EB
100
AcDbEntity
  8
0
100
AcDbLine
 62
7
  6
CONTINUOUS
 10
-29.8333334923
 20
-35.446808517
 11
-29.8333334923
 21
-35.2340425253
  0
LINE
  5
2EC
100
AcDbEntity
  8
0
100
AcDbLine
 62
7
  6
CONTINUOUS
 10
-29.5
 20
-35.1489361525
 11
-29.5
 21
-35.4042553306
  0
LINE
  5
2ED
100
AcDbEntity
  8
0
100
AcDbLine
 62
7
  6
CONTINUOUS
 10
-28.5
 20
-34.3404254913
 11
-28.5
 21
-35.1489361525
  0
LINE
  5
2EE
100
AcDbEntity
  8
0
100
AcDbLine
 62
7
  6
CONTINUOUS
 10
-28.5
 20
-35.4042553306
 11
-28.5
 21
-36.0
  0
LINE
  5
2EF
100
AcDbEntity
  8
0
100
AcDbLine
 62
7
  6
CONTINUOUS
 10
-28.25
 20
-36.0
 11
-28.25
 21
-35.4042553306
  0
LINE
  5
2F0
100
AcDbEntity
  8
0
100
AcDbLine
 62
7
  6
CONTINUOUS
 10
-28.25
 20
-35.1489361525
 11
-28.25
 21
-34.0
  0
LINE
  5
2F1
100
AcDbEntity
  8
DRAFT
100
AcDbLine
 62
7
  6
CONTINUOUS
 10
-28.0
 20
45.3447634805
 11
-28.0
 21
45.3273084156
  0
LINE
  5
2F2
100
AcDbEntity
  8
DRAFT
100
AcDbLine
 62
7
  6
CONTINUOUS
 10
-28.0
 20
-45.3447634805
 11
-28.0
 21
-45.3273084156
  0
LINE
  5
2F3
100
AcDbEntity
  8
0
100
AcDbLine
 62
7
  6
CONTINUOUS
 10
-27.8333334923
 20
-35.4042553306
 11
-27.8333334923
 21
-35.1489361525
  0
LINE
  5
2F4
100
AcDbEntity
  8
0
100
AcDbLine
 62
7
  6
CONTINUOUS
 10
-27.5
 20
-35.7872340381
 11
-27.5
 21
-36.0
  0
LINE
  5
2F5
100
AcDbEntity
  8
0
100
AcDbLine
 62
7
  6
CONTINUOUS
 10
-27.2732753198
 20
32.0653816085
 11
-27.2732753198
 21
28.1125968881
  0
LINE
  5
2F6
100
AcDbEntity
  8
0
100
AcDbLine
 62
7
  6
CONTINUOUS
 10
-26.4694619483
 20
30.3328085387
 11
-26.4694619483
 21
31.4307526417
  0
LINE
  5
2F7
100
AcDbEntity
  8
0
100
AcDbLine
 62
7
  6
CONTINUOUS
 10
-26.4417794088
 20
28.1125968881
 11
-26.4417794088
 21
29.6777850682
  0
LINE
  5
2F8
100
AcDbEntity
  8
0
100
AcDbLine
 62
7
  6
CONTINUOUS
 10
-26.25
 20
-34.4680850506
 11
-26.25
 21
-34.5531915426
  0
LINE
  5
2F9
100
AcDbEntity
  8
0
100
AcDbLine
 62
7
  6
CONTINUOUS
 10
-31.2916667461
 20
-34.5531915426
 11
-31.3333332539
 21
-34.8510638475
  0
LINE
  5
2FA
100
AcDbEntity
  8
RACCORDO
100
AcDbLine
 62
253
  6
CONTINUOUS
 10
-29.0976479577
 20
7.7213182393
 11
-28.9611931911
 21
8.4951916764
  0
LINE
  5
2FB
100
AcDbEntity
  8
ASSI
100
AcDbLine
 62
7
  6
CONTINUOUS
 10
-14.4596311171
 20
25.6232794982
 11
-13.709639296
 21
26.3732713192
  0
LINE
  5
2FC
100
AcDbEntity
  8
ASSI
100
AcDbLine
 62
7
  6
CONTINUOUS
 10
-14.0602070867
 20
25.9897929133
 11
-13.7
 21
26.35
  0
LINE
  5
2FD
100
AcDbEntity
  8
RACCORDO
100
AcDbLine
 62
7
  6
CONTINUOUS
 10
-24.4754410559
 20
15.2745589441
 11
-24.4931702905
 21
15.2568297095
  0
LINE
  5
2FE
100
AcDbEntity
  8
RACCORDO
100
AcDbLine
 62
253
  6
CONTINUOUS
 10
-24.949969539
 20
12.9
 11
-24.9849405955
 21
12.8650289436
  0
LINE
  5
2FF
100
AcDbEntity
  8
RACCORDO
100
AcDbLine
 62
253
  6
CONTINUOUS
 10
-24.7497544191
 20
12.7002760419
 11
-24.7849710564
 21
12.6650594045
  0
LINE
  5
300
100
AcDbEntity
  8
ASSI
100
AcDbLine
 62
7
  6
CONTINUOUS
 10
-14.2599329936
 20
25.7916264167
 11
-14.4596311171
 21
25.6232794982
  0
LINE
  5
301
100
AcDbEntity
  8
ASSI
100
AcDbLine
 62
7
  6
CONTINUOUS
 10
-10.4562355312
 20
26.1232713192
 11
-10.0232228293
 21
26.3732713192
  0
LINE
  5
302
100
AcDbEntity
  8
ASSI
100
AcDbLine
 62
7
  6
CONTINUOUS
 10
-10.45
 20
26.1
 11
-10.0169872981
 21
26.35
  0
LINE
  5
303
100
AcDbEntity
  8
DRAFT
100
AcDbLine
 62
253
  6
CONTINUOUS
 10
12.6672468462
 20
-26.8948219304
 11
12.6741375
 21
-26.8929755853
  0
LINE
  5
304
100
AcDbEntity
  8
DRAFT
100
AcDbLine
 62
253
  6
CONTINUOUS
 10
9.1672468462
 20
-26.8948219304
 11
9.1741375
 21
-26.8929755853
  0
LINE
  5
305
100
AcDbEntity
  8
0
100
AcDbLine
 62
7
  6
CONTINUOUS
 10
-30.4583332539
 20
-36.0
 11
-30.25
 21
-35.9574468099
  0
LINE
  5
306
100
AcDbEntity
  8
0
100
AcDbLine
 62
7
  6
CONTINUOUS
 10
-27.0416665077
 20
-34.2553191185
 11
-26.8333334923
 21
-34.2127659321
  0
LINE
  5
307
100
AcDbEntity
  8
0
100
AcDbLine
 62
7
  6
CONTINUOUS
 10
-30.6666667461
 20
-34.7234042883
 11
-30.875
 21
-34.7659574747
  0
LINE
  5
308
100
AcDbEntity
  8
0
100
AcDbLine
 62
7
  6
CONTINUOUS
 10
-30.6666667461
 20
-34.0
 11
-30.875
 21
-34.0425531864
  0
LINE
  5
309
100
AcDbEntity
  8
0
100
AcDbLine
 62
7
  6
CONTINUOUS
 10
-33.5416666567
 20
-34.2553191185
 11
-33.3333333135
 21
-34.2127659321
  0
LINE
  5
30A
100
AcDbEntity
  8
0
100
AcDbLine
 62
7
  6
CONTINUOUS
 10
-26.7916665077
 20
-34.0
 11
-27.0833334923
 21
-34.0425531864
  0
LINE
  5
30B
100
AcDbEntity
  8
0
100
AcDbLine
 62
7
  6
CONTINUOUS
 10
-33.2916666865
 20
-34.0
 11
-33.5833333433
 21
-34.0425531864
  0
LINE
  5
30C
100
AcDbEntity
  8
0
100
AcDbLine
 62
7
  6
CONTINUOUS
 10
-14.2
 20
-28.7575
 11
-11.85
 21
-28.7575
  0
LINE
  5
30D
100
AcDbEntity
  8
RACCORDO
100
AcDbLine
 62
7
  6
CONTINUOUS
 10
8.3
 20
-28.7575
 11
10.65
 21
-28.7575
  0
LINE
  5
30E
100
AcDbEntity
  8
RACCORDO
100
AcDbLine
 62
7
  6
CONTINUOUS
 10
-8.3
 20
-28.7575
 11
-10.65
 21
-28.7575
  0
LINE
  5
30F
100
AcDbEntity
  8
0
100
AcDbLine
 62
7
  6
CONTINUOUS
 10
11.85
 20
-28.7575
 11
14.2
 21
-28.7575
  0
LINE
  5
310
100
AcDbEntity
  8
SMUSSO
100
AcDbLine
 62
7
  6
CONTINUOUS
 10
14.2
 20
-27.1575
 11
11.85
 21
-27.1575
  0
LINE
  5
311
100
AcDbEntity
  8
SMUSSO
100
AcDbLine
 62
7
  6
CONTINUOUS
 10
10.65
 20
-27.1575
 11
8.3
 21
-27.1575
  0
LINE
  5
312
100
AcDbEntity
  8
SMUSSO
100
AcDbLine
 62
7
  6
CONTINUOUS
 10
-8.3
 20
-27.1575
 11
-10.65
 21
-27.1575
  0
LINE
  5
313
100
AcDbEntity
  8
SMUSSO
100
AcDbLine
 62
7
  6
CONTINUOUS
 10
-11.85
 20
-27.1575
 11
-14.2
 21
-27.1575
  0
LINE
  5
314
100
AcDbEntity
  8
DRAFT
100
AcDbLine
 62
7
  6
CONTINUOUS
 10
-14.2
 20
-26.8075
 11
-13.3559932126
 21
-26.8075
  0
LINE
  5
315
100
AcDbEntity
  8
DRAFT
100
AcDbLine
 62
7
  6
CONTINUOUS
 10
-12.6440067874
 20
-26.8075
 11
-11.85
 21
-26.8075
  0
LINE
  5
316
100
AcDbEntity
  8
DRAFT
100
AcDbLine
 62
7
  6
CONTINUOUS
 10
-10.65
 20
-26.8075
 11
-9.8559932126
 21
-26.8075
  0
LINE
  5
317
100
AcDbEntity
  8
DRAFT
100
AcDbLine
 62
7
  6
CONTINUOUS
 10
-9.1440067874
 20
-26.8075
 11
-8.3
 21
-26.8075
  0
LINE
  5
318
100
AcDbEntity
  8
DRAFT
100
AcDbLine
 62
7
  6
CONTINUOUS
 10
8.3
 20
-26.8075
 11
9.1440067874
 21
-26.8075
  0
LINE
  5
319
100
AcDbEntity
  8
DRAFT
100
AcDbLine
 62
7
  6
CONTINUOUS
 10
9.8559932126
 20
-26.8075
 11
10.65
 21
-26.8075
  0
LINE
  5
31A
100
AcDbEntity
  8
DRAFT
100
AcDbLine
 62
7
  6
CONTINUOUS
 10
11.85
 20
-26.8075
 11
12.6440067874
 21
-26.8075
  0
LINE
  5
31B
100
AcDbEntity
  8
DRAFT
100
AcDbLine
 62
7
  6
CONTINUOUS
 10
13.3559932126
 20
-26.8075
 11
14.2
 21
-26.8075
  0
LINE
  5
31C
100
AcDbEntity
  8
DRAFT
100
AcDbLine
 62
7
  6
CONTINUOUS
 10
13.709639296
 20
-26.3732713192
 11
13.4723444369
 21
-26.3732713192
  0
LINE
  5
31D
100
AcDbEntity
  8
DRAFT
100
AcDbLine
 62
7
  6
CONTINUOUS
 10
12.5276555631
 20
-26.3732713192
 11
12.4767771707
 21
-26.3732713192
  0
LINE
  5
31E
100
AcDbEntity
  8
DRAFT
100
AcDbLine
 62
7
  6
CONTINUOUS
 10
10.0232228293
 20
-26.3732713192
 11
9.9723444369
 21
-26.3732713192
  0
LINE
  5
31F
100
AcDbEntity
  8
DRAFT
100
AcDbLine
 62
7
  6
CONTINUOUS
 10
9.0276555631
 20
-26.3732713192
 11
8.790360704
 21
-26.3732713192
  0
LINE
  5
320
100
AcDbEntity
  8
DRAFT
100
AcDbLine
 62
7
  6
CONTINUOUS
 10
-8.790360704
 20
-26.3732713192
 11
-9.0276555631
 21
-26.3732713192
  0
LINE
  5
321
100
AcDbEntity
  8
DRAFT
100
AcDbLine
 62
7
  6
CONTINUOUS
 10
-9.9723444369
 20
-26.3732713192
 11
-10.0232228293
 21
-26.3732713192
  0
LINE
  5
322
100
AcDbEntity
  8
DRAFT
100
AcDbLine
 62
7
  6
CONTINUOUS
 10
-12.4767771707
 20
-26.3732713192
 11
-12.5276555631
 21
-26.3732713192
  0
LINE
  5
323
100
AcDbEntity
  8
DRAFT
100
AcDbLine
 62
7
  6
CONTINUOUS
 10
-13.4723444369
 20
-26.3732713192
 11
-13.709639296
 21
-26.3732713192
  0
LINE
  5
324
100
AcDbEntity
  8
DRAFT
100
AcDbLine
 62
7
  6
CONTINUOUS
 10
13.7
 20
-26.35
 11
13.4713523696
 21
-26.35
  0
LINE
  5
325
100
AcDbEntity
  8
DRAFT
100
AcDbLine
 62
7
  6
CONTINUOUS
 10
12.5286476304
 20
-26.35
 11
12.4830127019
 21
-26.35
  0
LINE
  5
326
100
AcDbEntity
  8
DRAFT
100
AcDbLine
 62
7
  6
CONTINUOUS
 10
10.0169872981
 20
-26.35
 11
9.9713523696
 21
-26.35
  0
LINE
  5
327
100
AcDbEntity
  8
DRAFT
100
AcDbLine
 62
7
  6
CONTINUOUS
 10
9.0286476304
 20
-26.35
 11
8.8
 21
-26.35
  0
LINE
  5
328
100
AcDbEntity
  8
DRAFT
100
AcDbLine
 62
7
  6
CONTINUOUS
 10
-8.8
 20
-26.35
 11
-9.0286476304
 21
-26.35
  0
LINE
  5
329
100
AcDbEntity
  8
DRAFT
100
AcDbLine
 62
7
  6
CONTINUOUS
 10
-9.9713523696
 20
-26.35
 11
-10.0169872981
 21
-26.35
  0
LINE
  5
32A
100
AcDbEntity
  8
DRAFT
100
AcDbLine
 62
7
  6
CONTINUOUS
 10
-12.4830127019
 20
-26.35
 11
-12.5286476304
 21
-26.35
  0
LINE
  5
32B
100
AcDbEntity
  8
DRAFT
100
AcDbLine
 62
7
  6
CONTINUOUS
 10
-13.4713523696
 20
-26.35
 11
-13.7
 21
-26.35
  0
LINE
  5
32C
100
AcDbEntity
  8
DRAFT
100
AcDbLine
 62
253
  6
CONTINUOUS
 10
-12.6741375
 20
-26.8929755853
 11
-12.6673940588
 21
-26.8947824849
  0
LINE
  5
32D
100
AcDbEntity
  8
DRAFT
100
AcDbLine
 62
253
  6
CONTINUOUS
 10
-9.1741375
 20
-26.8929755853
 11
-9.1673940588
 21
-26.8947824849
  0
LINE
  5
32E
100
AcDbEntity
  8
ASSI
100
AcDbLine
 62
7
  6
CONTINUOUS
 10
-10.0232228293
 20
-26.3732713192
 11
-10.4562355312
 21
-26.1232713192
  0
LINE
  5
32F
100
AcDbEntity
  8
ASSI
100
AcDbLine
 62
7
  6
CONTINUOUS
 10
-10.0169872981
 20
-26.35
 11
-10.45
 21
-26.1
  0
LINE
  5
330
100
AcDbEntity
  8
ASSI
100
AcDbLine
 62
7
  6
CONTINUOUS
 10
-14.2599329936
 20
-25.7916264167
 11
-14.4596311171
 21
-25.6232794982
  0
LINE
  5
331
100
AcDbEntity
  8
ASSI
100
AcDbLine
 62
7
  6
CONTINUOUS
 10
-13.709639296
 20
-26.3732713192
 11
-14.4596311171
 21
-25.6232794982
  0
LINE
  5
332
100
AcDbEntity
  8
ASSI
100
AcDbLine
 62
7
  6
CONTINUOUS
 10
-13.7
 20
-26.35
 11
-14.0602070867
 21
-25.9897929133
  0
LINE
  5
333
100
AcDbEntity
  8
RACCORDO
100
AcDbLine
 62
7
  6
CONTINUOUS
 10
-24.4754410559
 20
-15.2745589441
 11
-24.4931702905
 21
-15.2568297095
  0
LINE
  5
334
100
AcDbEntity
  8
RACCORDO
100
AcDbLine
 62
253
  6
CONTINUOUS
 10
-24.949969539
 20
-12.9
 11
-24.9849405955
 21
-12.8650289436
  0
LINE
  5
335
100
AcDbEntity
  8
RACCORDO
100
AcDbLine
 62
253
  6
CONTINUOUS
 10
-24.7497544191
 20
-12.7002760419
 11
-24.7849710564
 21
-12.6650594045
  0
LINE
  5
336
100
AcDbEntity
  8
0
100
AcDbLine
 62
7
  6
CONTINUOUS
 10
-12.231513
 20
-37.906691
 11
-12.819816
 21
-36.921766
  0
LINE
  5
337
100
AcDbEntity
  8
0
100
AcDbLine
 62
7
  6
CONTINUOUS
 10
-14.37895
 20
-38.972865
 11
-15.121458
 21
-36.921766
  0
LINE
  5
338
100
AcDbEntity
  8
0
100
AcDbLine
 62
7
  6
CONTINUOUS
 10
-14.884346
 20
-38.37594
 11
-14.681557
 21
-38.972865
  0
LINE
  5
339
100
AcDbEntity
  8
0
100
AcDbLine
 62
7
  6
CONTINUOUS
 10
-17.962729
 20
-32.768485
 11
-18.550955
 21
-31.027135
  0
LINE
  5
33A
100
AcDbEntity
  8
0
100
AcDbLine
 62
7
  6
CONTINUOUS
 10
-18.67946
 20
-31.35876
 11
-18.102599
 21
-33.076576
  0
LINE
  5
33B
100
AcDbEntity
  8
0
100
AcDbLine
 62
7
  6
CONTINUOUS
 10
-15.289808
 20
-37.220463
 11
-14.984331
 21
-38.130538
  0
LINE
  5
33C
100
AcDbEntity
  8
0
100
AcDbLine
 62
7
  6
CONTINUOUS
 10
-39.878338
 20
32.112109
 11
-38.610415
 21
28.112597
  0
LINE
  5
33D
100
AcDbEntity
  8
0
100
AcDbLine
 62
7
  6
CONTINUOUS
 10
-38.209048
 20
29.359121
 11
-38.971428
 21
32.112109
  0
LINE
  5
33E
100
AcDbEntity
  8
RACCORDO
100
AcDbLine
 62
253
  6
CONTINUOUS
 10
-28.9611931911
 20
-8.4951916764
 11
-29.0976479577
 21
-7.7213182393
  0
LINE
  5
33F
100
AcDbEntity
  8
0
100
AcDbLine
 62
7
  6
CONTINUOUS
 10
-26.0
 20
-36.0
 11
-26.0
 21
-35.7872340381
  0
LINE
  5
340
100
AcDbEntity
  8
0
100
AcDbLine
 62
7
  6
CONTINUOUS
 10
-26.0
 20
-34.5531915426
 11
-26.0
 21
-34.4680850506
  0
LINE
  5
341
100
AcDbEntity
  8
RACCORDO
100
AcDbLine
 62
7
  6
CONTINUOUS
 10
-25.75
 20
12.700030461
 11
-25.75
 21
8.449969539
  0
LINE
  5
342
100
AcDbEntity
  8
RACCORDO
100
AcDbLine
 62
7
  6
CONTINUOUS
 10
-25.75
 20
-8.449969539
 11
-25.75
 21
-12.700030461
  0
LINE
  5
343
100
AcDbEntity
  8
RACCORDO
100
AcDbLine
 62
253
  6
CONTINUOUS
 10
-25.7150289436
 20
12.6650594045
 11
-25.7150289436
 21
8.4849405955
  0
LINE
  5
344
100
AcDbEntity
  8
RACCORDO
100
AcDbLine
 62
253
  6
CONTINUOUS
 10
-25.7150289436
 20
-8.4849405955
 11
-25.7150289436
 21
-12.6650594045
  0
LINE
  5
345
100
AcDbEntity
  8
RACCORDO
100
AcDbLine
 62
253
  6
CONTINUOUS
 10
-25.5150594045
 20
-12.8650289436
 11
-25.5150594045
 21
-8.2849710564
  0
LINE
  5
346
100
AcDbEntity
  8
RACCORDO
100
AcDbLine
 62
253
  6
CONTINUOUS
 10
-25.5150594045
 20
8.2849710564
 11
-25.5150594045
 21
12.8650289436
  0
LINE
  5
347
100
AcDbEntity
  8
RACCORDO
100
AcDbLine
 62
7
  6
CONTINUOUS
 10
-25.45
 20
-22.0
 11
-25.45
 21
-21.0
  0
LINE
  5
348
100
AcDbEntity
  8
RACCORDO
100
AcDbLine
 62
7
  6
CONTINUOUS
 10
-25.45
 20
-14.0
 11
-25.45
 21
-13.0
  0
LINE
  5
349
100
AcDbEntity
  8
RACCORDO
100
AcDbLine
 62
7
  6
CONTINUOUS
 10
-25.45
 20
13.0
 11
-25.45
 21
14.0
  0
LINE
  5
34A
100
AcDbEntity
  8
RACCORDO
100
AcDbLine
 62
7
  6
CONTINUOUS
 10
-25.45
 20
21.0
 11
-25.45
 21
22.0
  0
LINE
  5
34B
100
AcDbEntity
  8
RACCORDO
100
AcDbLine
 62
253
  6
CONTINUOUS
 10
-25.25
 20
-20.0
 11
-25.25
 21
-15.0
  0
LINE
  5
34C
100
AcDbEntity
  8
RACCORDO
100
AcDbLine
 62
253
  6
CONTINUOUS
 10
-25.25
 20
15.0
 11
-25.25
 21
20.0
  0
LINE
  5
34D
100
AcDbEntity
  8
RACCORDO
100
AcDbLine
 62
7
  6
CONTINUOUS
 10
-25.15
 20
-22.0
 11
-25.15
 21
-21.25
  0
LINE
  5
34E
100
AcDbEntity
  8
0
100
AcDbLine
 62
7
  6
CONTINUOUS
 10
-25.15
 20
-21.25
 11
-25.15
 21
-21.0
  0
LINE
  5
34F
100
AcDbEntity
  8
0
100
AcDbLine
 62
7
  6
CONTINUOUS
 10
-25.15
 20
-14.0
 11
-25.15
 21
-13.0
  0
LINE
  5
350
100
AcDbEntity
  8
0
100
AcDbLine
 62
7
  6
CONTINUOUS
 10
-25.15
 20
13.0
 11
-25.15
 21
14.0
  0
LINE
  5
351
100
AcDbEntity
  8
0
100
AcDbLine
 62
7
  6
CONTINUOUS
 10
-25.15
 20
21.0
 11
-25.15
 21
21.25
  0
LINE
  5
352
100
AcDbEntity
  8
RACCORDO
100
AcDbLine
 62
7
  6
CONTINUOUS
 10
-25.15
 20
21.25
 11
-25.15
 21
22.0
  0
LINE
  5
353
100
AcDbEntity
  8
0
100
AcDbLine
 62
7
  6
CONTINUOUS
 10
-25.1269037691
 20
29.9795337467
 11
-25.1269037691
 21
30.0031673774
  0
LINE
  5
354
100
AcDbEntity
  8
RACCORDO
100
AcDbLine
 62
253
  6
CONTINUOUS
 10
-24.9849405955
 20
-12.8650289436
 11
-24.9849405955
 21
-8.2849710564
  0
LINE
  5
355
100
AcDbEntity
  8
RACCORDO
100
AcDbLine
 62
253
  6
CONTINUOUS
 10
-24.9849405955
 20
8.2849710564
 11
-24.9849405955
 21
12.8650289436
  0
LINE
  5
356
100
AcDbEntity
  8
RACCORDO
100
AcDbLine
 62
253
  6
CONTINUOUS
 10
-24.867531229
 20
25.2
 11
-24.867531229
 21
22.0
  0
LINE
  5
357
100
AcDbEntity
  8
RACCORDO
100
AcDbLine
 62
253
  6
CONTINUOUS
 10
-24.867531229
 20
-21.0
 11
-24.867531229
 21
-20.0
  0
LINE
  5
358
100
AcDbEntity
  8
RACCORDO
100
AcDbLine
 62
253
  6
CONTINUOUS
 10
-24.867531229
 20
-22.0
 11
-24.867531229
 21
-25.2
  0
LINE
  5
359
100
AcDbEntity
  8
RACCORDO
100
AcDbLine
 62
253
  6
CONTINUOUS
 10
-24.867531229
 20
-15.0
 11
-24.867531229
 21
-14.0
  0
LINE
  5
35A
100
AcDbEntity
  8
RACCORDO
100
AcDbLine
 62
253
  6
CONTINUOUS
 10
-24.867531229
 20
-13.0
 11
-24.867531229
 21
-12.8822199628
  0
LINE
  5
35B
100
AcDbEntity
  8
RACCORDO
100
AcDbLine
 62
253
  6
CONTINUOUS
 10
-24.867531229
 20
-8.2677800372
 11
-24.867531229
 21
-7.7733686226
  0
LINE
  5
35C
100
AcDbEntity
  8
RACCORDO
100
AcDbLine
 62
253
  6
CONTINUOUS
 10
-24.867531229
 20
7.7733686226
 11
-24.867531229
 21
8.2677800372
  0
LINE
  5
35D
100
AcDbEntity
  8
RACCORDO
100
AcDbLine
 62
253
  6
CONTINUOUS
 10
-24.867531229
 20
12.8822199628
 11
-24.867531229
 21
13.0
  0
LINE
  5
35E
100
AcDbEntity
  8
RACCORDO
100
AcDbLine
 62
253
  6
CONTINUOUS
 10
-24.867531229
 20
14.0
 11
-24.867531229
 21
15.0
  0
LINE
  5
35F
100
AcDbEntity
  8
RACCORDO
100
AcDbLine
 62
253
  6
CONTINUOUS
 10
-24.867531229
 20
20.0
 11
-24.867531229
 21
21.0
  0
LINE
  5
360
100
AcDbEntity
  8
RACCORDO
100
AcDbLine
 62
253
  6
CONTINUOUS
 10
-24.7849710564
 20
-12.6650594045
 11
-24.7849710564
 21
-8.4849405955
  0
LINE
  5
361
100
AcDbEntity
  8
RACCORDO
100
AcDbLine
 62
253
  6
CONTINUOUS
 10
-24.7849710564
 20
8.4849405955
 11
-24.7849710564
 21
12.6650594045
  0
LINE
  5
362
100
AcDbEntity
  8
RACCORDO
100
AcDbLine
 62
7
  6
CONTINUOUS
 10
-24.75
 20
-20.0
 11
-24.75
 21
-15.0
  0
LINE
  5
363
100
AcDbEntity
  8
RACCORDO
100
AcDbLine
 62
7
  6
CONTINUOUS
 10
-24.75
 20
15.0
 11
-24.75
 21
20.0
  0
LINE
  5
364
100
AcDbEntity
  8
RACCORDO
100
AcDbLine
 62
7
  6
CONTINUOUS
 10
-24.7497544191
 20
-12.7002760419
 11
-24.7497544191
 21
-8.4497239581
  0
LINE
  5
365
100
AcDbEntity
  8
RACCORDO
100
AcDbLine
 62
7
  6
CONTINUOUS
 10
-24.7497544191
 20
8.4497239581
 11
-24.7497544191
 21
12.7002760419
  0
LINE
  5
366
100
AcDbEntity
  8
0
100
AcDbLine
 62
7
  6
CONTINUOUS
 10
-24.7
 20
-0.6
 11
-24.7
 21
0.6
  0
LINE
  5
367
100
AcDbEntity
  8
RACCORDO
100
AcDbLine
 62
253
  6
CONTINUOUS
 10
-24.6596459841
 20
6.9388120306
 11
-24.6596459841
 21
0.6
  0
LINE
  5
368
100
AcDbEntity
  8
RACCORDO
100
AcDbLine
 62
253
  6
CONTINUOUS
 10
-24.6596459841
 20
-0.6
 11
-24.6596459841
 21
-6.9388119964
  0
LINE
  5
369
100
AcDbEntity
  8
RACCORDO
100
AcDbLine
 62
253
  6
CONTINUOUS
 10
-24.4931702905
 20
19.7431702905
 11
-24.4931702905
 21
15.2568297095
  0
LINE
  5
36A
100
AcDbEntity
  8
RACCORDO
100
AcDbLine
 62
253
  6
CONTINUOUS
 10
-24.4931702905
 20
-15.2568297095
 11
-24.4931702905
 21
-19.7431702905
  0
LINE
  5
36B
100
AcDbEntity
  8
RACCORDO
100
AcDbLine
 62
253
  6
CONTINUOUS
 10
-24.4754410559
 20
-19.7254410559
 11
-24.4754410559
 21
-15.2745589441
  0
LINE
  5
36C
100
AcDbEntity
  8
RACCORDO
100
AcDbLine
 62
253
  6
CONTINUOUS
 10
-24.4754410559
 20
15.2745589441
 11
-24.4754410559
 21
19.7254410559
  0
LINE
  5
36D
100
AcDbEntity
  8
RACCORDO
100
AcDbLine
 62
253
  6
CONTINUOUS
 10
-24.3676073814
 20
24.7000761524
 11
-24.3674550649
 21
23.5
  0
LINE
  5
36E
100
AcDbEntity
  8
RACCORDO
100
AcDbLine
 62
253
  6
CONTINUOUS
 10
-24.3674550649
 20
23.2088036965
 11
-24.3676073814
 21
22.0
  0
LINE
  5
36F
100
AcDbEntity
  8
RACCORDO
100
AcDbLine
 62
253
  6
CONTINUOUS
 10
-24.3676071183
 20
-7.6723509466
 11
-24.3676073814
 21
-13.0
  0
LINE
  5
370
100
AcDbEntity
  8
RACCORDO
100
AcDbLine
 62
253
  6
CONTINUOUS
 10
-24.3676073814
 20
-21.0
 11
-24.3676073814
 21
-20.0
  0
LINE
  5
371
100
AcDbEntity
  8
RACCORDO
100
AcDbLine
 62
253
  6
CONTINUOUS
 10
-24.3676073814
 20
-22.0
 11
-24.3674550649
 21
-23.2088036965
  0
LINE
  5
372
100
AcDbEntity
  8
RACCORDO
100
AcDbLine
 62
253
  6
CONTINUOUS
 10
-24.3674550649
 20
-23.5
 11
-24.3676073814
 21
-24.7000761524
  0
LINE
  5
373
100
AcDbEntity
  8
RACCORDO
100
AcDbLine
 62
253
  6
CONTINUOUS
 10
-24.3676073814
 20
-15.0
 11
-24.3676073814
 21
-14.0
  0
LINE
  5
374
100
AcDbEntity
  8
RACCORDO
100
AcDbLine
 62
253
  6
CONTINUOUS
 10
-24.3676071176
 20
7.672350921
 11
-24.3676073814
 21
13.0
  0
LINE
  5
375
100
AcDbEntity
  8
RACCORDO
100
AcDbLine
 62
253
  6
CONTINUOUS
 10
-24.3676073814
 20
14.0
 11
-24.3676073814
 21
15.0
  0
LINE
  5
376
100
AcDbEntity
  8
RACCORDO
100
AcDbLine
 62
253
  6
CONTINUOUS
 10
-24.3676073814
 20
20.0
 11
-24.3676073814
 21
21.0
  0
LINE
  5
377
100
AcDbEntity
  8
RACCORDO
100
AcDbLine
 62
7
  6
CONTINUOUS
 10
-24.3674550649
 20
23.5
 11
-24.3674550649
 21
23.2088036965
  0
LINE
  5
378
100
AcDbEntity
  8
RACCORDO
100
AcDbLine
 62
7
  6
CONTINUOUS
 10
-24.3674550649
 20
-23.2088036965
 11
-24.3674550649
 21
-23.5
  0
LINE
  5
379
100
AcDbEntity
  8
DRAFT
100
AcDbLine
 62
7
  6
CONTINUOUS
 10
-24.3625994658
 20
21.0
 11
-24.3625994658
 21
20.0
  0
LINE
  5
37A
100
AcDbEntity
  8
DRAFT
100
AcDbLine
 62
7
  6
CONTINUOUS
 10
-24.3625994658
 20
15.0
 11
-24.3625994658
 21
14.0
  0
LINE
  5
37B
100
AcDbEntity
  8
DRAFT
100
AcDbLine
 62
7
  6
CONTINUOUS
 10
-24.3625994658
 20
-14.0
 11
-24.3625994658
 21
-15.0
  0
LINE
  5
37C
100
AcDbEntity
  8
DRAFT
100
AcDbLine
 62
7
  6
CONTINUOUS
 10
-24.3625994658
 20
-20.0
 11
-24.3625994658
 21
-21.0
  0
LINE
  5
37D
100
AcDbEntity
  8
RACCORDO
100
AcDbLine
 62
253
  6
CONTINUOUS
 10
-24.3596916756
 20
6.9387787509
 11
-24.3596916756
 21
0.6
  0
LINE
  5
37E
100
AcDbEntity
  8
RACCORDO
100
AcDbLine
 62
253
  6
CONTINUOUS
 10
-24.3596916756
 20
-0.6
 11
-24.3596916756
 21
-6.9387787509
  0
LINE
  5
37F
100
AcDbEntity
  8
DRAFT
100
AcDbLine
 62
7
  6
CONTINUOUS
 10
-24.35
 20
24.7
 11
-24.35
 21
23.5
  0
LINE
  5
380
100
AcDbEntity
  8
DRAFT
100
AcDbLine
 62
7
  6
CONTINUOUS
 10
-24.35
 20
22.7
 11
-24.35
 21
22.0
  0
LINE
  5
381
100
AcDbEntity
  8
DRAFT
100
AcDbLine
 62
7
  6
CONTINUOUS
 10
-24.35
 20
13.0
 11
-24.35
 21
0.6
  0
LINE
  5
382
100
AcDbEntity
  8
DRAFT
100
AcDbLine
 62
7
  6
CONTINUOUS
 10
-24.35
 20
-0.6
 11
-24.35
 21
-13.0
  0
LINE
  5
383
100
AcDbEntity
  8
DRAFT
100
AcDbLine
 62
7
  6
CONTINUOUS
 10
-24.35
 20
-22.0
 11
-24.35
 21
-22.7
  0
LINE
  5
384
100
AcDbEntity
  8
DRAFT
100
AcDbLine
 62
7
  6
CONTINUOUS
 10
-24.35
 20
-23.5
 11
-24.35
 21
-24.7
  0
LINE
  5
385
100
AcDbEntity
  8
DRAFT
100
AcDbLine
 62
7
  6
CONTINUOUS
 10
-24.2
 20
-13.0
 11
-24.2
 21
-7.0
  0
LINE
  5
386
100
AcDbEntity
  8
DRAFT
100
AcDbLine
 62
7
  6
CONTINUOUS
 10
-24.2
 20
7.0
 11
-24.2
 21
13.0
  0
LINE
  5
387
100
AcDbEntity
  8
RACCORDO
100
AcDbLine
 62
253
  6
CONTINUOUS
 10
-24.0755019779
 20
-19.7185808831
 11
-24.0755019779
 21
-15.2814191169
  0
LINE
  5
388
100
AcDbEntity
  8
RACCORDO
100
AcDbLine
 62
253
  6
CONTINUOUS
 10
-24.0755019779
 20
15.2814191169
 11
-24.0755019779
 21
19.7185808831
  0
LINE
  5
389
100
AcDbEntity
  8
SMUSSO
100
AcDbLine
 62
7
  6
CONTINUOUS
 10
-23.8881197846
 20
21.0
 11
-23.8881197846
 21
20.0
  0
LINE
  5
38A
100
AcDbEntity
  8
SMUSSO
100
AcDbLine
 62
7
  6
CONTINUOUS
 10
-23.8881197846
 20
15.0
 11
-23.8881197846
 21
14.0
  0
LINE
  5
38B
100
AcDbEntity
  8
SMUSSO
100
AcDbLine
 62
7
  6
CONTINUOUS
 10
-23.8881197846
 20
-14.0
 11
-23.8881197846
 21
-15.0
  0
LINE
  5
38C
100
AcDbEntity
  8
SMUSSO
100
AcDbLine
 62
7
  6
CONTINUOUS
 10
-23.8881197846
 20
-20.0
 11
-23.8881197846
 21
-21.0
  0
LINE
  5
38D
100
AcDbEntity
  8
RACCORDO
100
AcDbLine
 62
7
  6
CONTINUOUS
 10
-23.85
 20
22.0
 11
-23.85
 21
21.25
  0
LINE
  5
38E
100
AcDbEntity
  8
DRAFT
100
AcDbLine
 62
7
  6
CONTINUOUS
 10
-23.85
 20
13.75
 11
-23.85
 21
7.0
  0
LINE
  5
38F
100
AcDbEntity
  8
DRAFT
100
AcDbLine
 62
7
  6
CONTINUOUS
 10
-23.85
 20
0.6
 11
-23.85
 21
-0.6
  0
LINE
  5
390
100
AcDbEntity
  8
DRAFT
100
AcDbLine
 62
7
  6
CONTINUOUS
 10
-23.85
 20
-7.0
 11
-23.85
 21
-13.75
  0
LINE
  5
391
100
AcDbEntity
  8
RACCORDO
100
AcDbLine
 62
7
  6
CONTINUOUS
 10
-23.85
 20
-21.25
 11
-23.85
 21
-22.0
  0
LINE
  5
392
100
AcDbEntity
  8
DRAFT
100
AcDbLine
 62
7
  6
CONTINUOUS
 10
-23.8377814546
 20
23.53174001
 11
-23.8377814546
 21
23.5
  0
LINE
  5
393
100
AcDbEntity
  8
DRAFT
100
AcDbLine
 62
7
  6
CONTINUOUS
 10
-23.8377814546
 20
22.0
 11
-23.8377814546
 21
21.25
  0
LINE
  5
394
100
AcDbEntity
  8
DRAFT
100
AcDbLine
 62
7
  6
CONTINUOUS
 10
-23.8377814546
 20
13.75
 11
-23.8377814546
 21
7.0
  0
LINE
  5
395
100
AcDbEntity
  8
DRAFT
100
AcDbLine
 62
7
  6
CONTINUOUS
 10
-23.8377814546
 20
0.6
 11
-23.8377814546
 21
-0.6
  0
LINE
  5
396
100
AcDbEntity
  8
DRAFT
100
AcDbLine
 62
7
  6
CONTINUOUS
 10
-23.8377814546
 20
-7.0
 11
-23.8377814546
 21
-13.75
  0
LINE
  5
397
100
AcDbEntity
  8
DRAFT
100
AcDbLine
 62
7
  6
CONTINUOUS
 10
-23.8377814546
 20
-21.25
 11
-23.8377814546
 21
-22.0
  0
LINE
  5
398
100
AcDbEntity
  8
DRAFT
100
AcDbLine
 62
7
  6
CONTINUOUS
 10
-23.8377814546
 20
-23.5
 11
-23.8377814546
 21
-23.53174001
  0
LINE
  5
399
100
AcDbEntity
  8
RACCORDO
100
AcDbLine
 62
7
  6
CONTINUOUS
 10
-23.7
 20
19.7482544935
 11
-23.7
 21
19.7307994286
  0
LINE
  5
39A
100
AcDbEntity
  8
RACCORDO
100
AcDbLine
 62
7
  6
CONTINUOUS
 10
-23.7
 20
-15.2517455065
 11
-23.7
 21
-15.2692005714
  0
LINE
  5
39B
100
AcDbEntity
  8
RACCORDO
100
AcDbLine
 62
7
  6
CONTINUOUS
 10
-23.7
 20
-19.7482544935
 11
-23.7
 21
-19.7307994286
  0
LINE
  5
39C
100
AcDbEntity
  8
RACCORDO
100
AcDbLine
 62
7
  6
CONTINUOUS
 10
-23.7
 20
15.2517455065
 11
-23.7
 21
15.2692005714
  0
LINE
  5
39D
100
AcDbEntity
  8
SMUSSO
100
AcDbLine
 62
7
  6
CONTINUOUS
 10
-23.5309401077
 20
-19.7185808831
 11
-23.5309401077
 21
-15.2814191169
  0
LINE
  5
39E
100
AcDbEntity
  8
SMUSSO
100
AcDbLine
 62
7
  6
CONTINUOUS
 10
-23.5309401077
 20
15.2814191169
 11
-23.5309401077
 21
19.7185808831
  0
LINE
  5
39F
100
AcDbEntity
  8
0
100
AcDbLine
 62
7
  6
CONTINUOUS
 10
-23.5
 20
0.6
 11
-23.5
 21
-0.6
  0
LINE
  5
3A0
100
AcDbEntity
  8
SMUSSO
100
AcDbLine
 62
7
  6
CONTINUOUS
 10
-23.3
 20
-19.7255629091
 11
-23.3
 21
-15.2744370909
  0
LINE
  5
3A1
100
AcDbEntity
  8
SMUSSO
100
AcDbLine
 62
7
  6
CONTINUOUS
 10
-23.3
 20
15.2744370909
 11
-23.3
 21
19.7255629091
  0
LINE
  5
3A2
100
AcDbEntity
  8
0
100
AcDbLine
 62
7
  6
CONTINUOUS
 10
-23.2
 20
20.0
 11
-23.2
 21
15.0
  0
LINE
  5
3A3
100
AcDbEntity
  8
0
100
AcDbLine
 62
7
  6
CONTINUOUS
 10
-23.2
 20
-15.0
 11
-23.2
 21
-20.0
  0
LINE
  5
3A4
100
AcDbEntity
  8
RACCORDO
100
AcDbLine
 62
7
  6
CONTINUOUS
 10
-23.15
 20
25.1675656165
 11
-23.15
 21
24.6676073814
  0
LINE
  5
3A5
100
AcDbEntity
  8
DRAFT
100
AcDbLine
 62
7
  6
CONTINUOUS
 10
-23.15
 20
24.6674550649
 11
-23.15
 21
23.5
  0
LINE
  5
3A6
100
AcDbEntity
  8
DRAFT
100
AcDbLine
 62
7
  6
CONTINUOUS
 10
-23.15
 20
-24.6674550649
 11
-23.15
 21
-23.5
  0
LINE
  5
3A7
100
AcDbEntity
  8
RACCORDO
100
AcDbLine
 62
7
  6
CONTINUOUS
 10
-23.15
 20
-24.6676073814
 11
-23.15
 21
-25.1675656165
  0
LINE
  5
3A8
100
AcDbEntity
  8
RACCORDO
100
AcDbLine
 62
253
  6
CONTINUOUS
 10
-22.9088036965
 20
-24.6674550649
 11
-22.9088036965
 21
-23.2088036965
  0
LINE
  5
3A9
100
AcDbEntity
  8
RACCORDO
100
AcDbLine
 62
253
  6
CONTINUOUS
 10
-22.9088036965
 20
23.2088036965
 11
-22.9088036965
 21
24.6674550649
  0
LINE
  5
3AA
100
AcDbEntity
  8
RACCORDO
100
AcDbLine
 62
7
  6
CONTINUOUS
 10
-22.7364728358
 20
-22.1571707387
 11
-22.7364728358
 21
-21.25
  0
LINE
  5
3AB
100
AcDbEntity
  8
DRAFT
100
AcDbLine
 62
7
  6
CONTINUOUS
 10
-22.7364728358
 20
-13.75
 11
-22.7364728358
 21
-6.8428862378
  0
LINE
  5
3AC
100
AcDbEntity
  8
DRAFT
100
AcDbLine
 62
7
  6
CONTINUOUS
 10
-22.7364728358
 20
6.8428862378
 11
-22.7364728358
 21
13.75
  0
LINE
  5
3AD
100
AcDbEntity
  8
RACCORDO
100
AcDbLine
 62
7
  6
CONTINUOUS
 10
-22.7364728358
 20
21.25
 11
-22.7364728358
 21
22.1571707384
  0
LINE
  5
3AE
100
AcDbEntity
  8
RACCORDO
100
AcDbLine
 62
7
  6
CONTINUOUS
 10
-22.7017455065
 20
20.7
 11
-22.7017455065
 21
14.3
  0
LINE
  5
3AF
100
AcDbEntity
  8
RACCORDO
100
AcDbLine
 62
7
  6
CONTINUOUS
 10
-22.7017455065
 20
-14.3
 11
-22.7017455065
 21
-20.7
  0
LINE
  5
3B0
100
AcDbEntity
  8
RACCORDO
100
AcDbLine
 62
7
  6
CONTINUOUS
 10
-22.7
 20
22.7
 11
-22.7
 21
22.3
  0
LINE
  5
3B1
100
AcDbEntity
  8
RACCORDO
100
AcDbLine
 62
7
  6
CONTINUOUS
 10
-22.7
 20
6.7000456915
 11
-22.7
 21
-6.7000456915
  0
LINE
  5
3B2
100
AcDbEntity
  8
RACCORDO
100
AcDbLine
 62
7
  6
CONTINUOUS
 10
-22.7
 20
-22.3
 11
-22.7
 21
-22.7
  0
LINE
  5
3B3
100
AcDbEntity
  8
DRAFT
100
AcDbLine
 62
7
  6
CONTINUOUS
 10
-22.6945466124
 20
-21.25
 11
-22.6945466124
 21
-13.75
  0
LINE
  5
3B4
100
AcDbEntity
  8
DRAFT
100
AcDbLine
 62
7
  6
CONTINUOUS
 10
-22.6945466124
 20
13.75
 11
-22.6945466124
 21
21.25
  0
LINE
  5
3B5
100
AcDbEntity
  8
RACCORDO
100
AcDbLine
 62
7
  6
CONTINUOUS
 10
-22.6735835007
 20
-22.3239946403
 11
-22.6735835007
 21
22.3239946403
  0
LINE
  5
3B6
100
AcDbEntity
  8
RACCORDO
100
AcDbLine
 62
7
  6
CONTINUOUS
 10
-22.6421452208
 20
22.2921909122
 11
-22.6421452208
 21
-22.2921909122
  0
LINE
  5
3B7
100
AcDbEntity
  8
RACCORDO
100
AcDbLine
 62
253
  6
CONTINUOUS
 10
-22.4088798489
 20
-24.6588798489
 11
-22.4088798489
 21
-23.0088341575
  0
LINE
  5
3B8
100
AcDbEntity
  8
RACCORDO
100
AcDbLine
 62
253
  6
CONTINUOUS
 10
-22.4088798489
 20
23.0088341575
 11
-22.4088798489
 21
24.6588798489
  0
LINE
  5
3B9
100
AcDbEntity
  8
RACCORDO
100
AcDbLine
 62
7
  6
CONTINUOUS
 10
-22.4
 20
24.65
 11
-22.4
 21
22.9999543085
  0
LINE
  5
3BA
100
AcDbEntity
  8
RACCORDO
100
AcDbLine
 62
7
  6
CONTINUOUS
 10
-22.4
 20
-24.65
 11
-22.4
 21
-22.9999543085
  0
LINE
  5
3BB
100
AcDbEntity
  8
DRAFT
100
AcDbLine
 62
7
  6
CONTINUOUS
 10
-22.0
 20
45.3447634805
 11
-22.0
 21
45.3273084156
  0
LINE
  5
3BC
100
AcDbEntity
  8
DRAFT
100
AcDbLine
 62
7
  6
CONTINUOUS
 10
-22.0
 20
-45.3447634805
 11
-22.0
 21
-45.3273084156
  0
LINE
  5
3BD
100
AcDbEntity
  8
0
100
AcDbLine
 62
7
  6
CONTINUOUS
 10
-31.125
 20
-34.8510638475
 11
-31.0833332539
 21
-34.595744729
  0
LINE
  5
3BE
100
AcDbEntity
  8
RACCORDO
100
AcDbLine
 62
253
  6
CONTINUOUS
 10
-24.867531229
 20
7.7733686226
 11
-24.9187017664
 21
7.4831660837
  0
LINE
  5
3BF
100
AcDbEntity
  8
0
100
AcDbLine
 62
7
  6
CONTINUOUS
 10
-33.9166666642
 20
-34.2978723049
 11
-33.9583333321
 21
-34.4680850506
  0
LINE
  5
3C0
100
AcDbEntity
  8
0
100
AcDbLine
 62
7
  6
CONTINUOUS
 10
-32.5416666269
 20
-34.7234042883
 11
-32.5
 21
-34.5531915426
  0
LINE
  5
3C1
100
AcDbEntity
  8
SMUSSO
100
AcDbLine
 62
7
  6
CONTINUOUS
 10
-46.35
 20
-47.35
 11
-46.1428932188
 21
-46.85
  0
LINE
  5
3C2
100
AcDbEntity
  8
RACCORDO
100
AcDbLine
 62
253
  6
CONTINUOUS
 10
-25.7150289436
 20
8.4849405955
 11
-25.75
 21
8.449969539
  0
LINE
  5
3C3
100
AcDbEntity
  8
RACCORDO
100
AcDbLine
 62
253
  6
CONTINUOUS
 10
-25.5150594045
 20
8.2849710564
 11
-25.550030461
 21
8.25
  0
LINE
  5
3C4
100
AcDbEntity
  8
DRAFT
100
AcDbLine
 62
7
  6
CONTINUOUS
 10
-44.05
 20
-12.3674550649
 11
-44.0726915844
 21
-12.3901466493
  0
LINE
  5
3C5
100
AcDbEntity
  8
DRAFT
100
AcDbLine
 62
7
  6
CONTINUOUS
 10
12.3674550649
 20
44.05
 11
12.3901466493
 21
44.0726915844
  0
LINE
  5
3C6
100
AcDbEntity
  8
SMUSSO
100
AcDbLine
 62
7
  6
CONTINUOUS
 10
47.35
 20
46.35
 11
46.85
 21
46.1428932188
  0
LINE
  5
3C7
100
AcDbEntity
  8
DRAFT
100
AcDbLine
 62
253
  6
CONTINUOUS
 10
-9.8327531538
 20
-26.8948219304
 11
-9.8258625
 21
-26.8929755853
  0
LINE
  5
3C8
100
AcDbEntity
  8
DRAFT
100
AcDbLine
 62
253
  6
CONTINUOUS
 10
-13.3327531538
 20
-26.8948219304
 11
-13.3258625
 21
-26.8929755853
  0
LINE
  5
3C9
100
AcDbEntity
  8
ASSI
100
AcDbLine
 62
7
  6
CONTINUOUS
 10
12.0437644688
 20
-26.1232713192
 11
10.4562355312
 21
-26.1232713192
  0
LINE
  5
3CA
100
AcDbEntity
  8
ASSI
100
AcDbLine
 62
7
  6
CONTINUOUS
 10
-10.4562355312
 20
-26.1232713192
 11
-12.0437644688
 21
-26.1232713192
  0
LINE
  5
3CB
100
AcDbEntity
  8
ASSI
100
AcDbLine
 62
7
  6
CONTINUOUS
 10
12.05
 20
-26.1
 11
10.45
 21
-26.1
  0
LINE
  5
3CC
100
AcDbEntity
  8
ASSI
100
AcDbLine
 62
7
  6
CONTINUOUS
 10
-10.45
 20
-26.1
 11
-12.05
 21
-26.1
  0
LINE
  5
3CD
100
AcDbEntity
  8
ASSI
100
AcDbLine
 62
253
  6
CONTINUOUS
 10
14.0602070867
 20
-25.4
 11
8.4397929133
 21
-25.4
  0
LINE
  5
3CE
100
AcDbEntity
  8
ASSI
100
AcDbLine
 62
253
  6
CONTINUOUS
 10
-8.4397929133
 20
-25.4
 11
-14.0602070867
 21
-25.4
  0
LINE
  5
3CF
100
AcDbEntity
  8
RACCORDO
100
AcDbLine
 62
253
  6
CONTINUOUS
 10
24.867531229
 20
-25.2
 11
23.15
 21
-25.2
  0
LINE
  5
3D0
100
AcDbEntity
  8
RACCORDO
100
AcDbLine
 62
253
  6
CONTINUOUS
 10
0.6
 20
-25.2
 11
-0.6
 21
-25.2
  0
LINE
  5
3D1
100
AcDbEntity
  8
ASSI
100
AcDbLine
 62
7
  6
CONTINUOUS
 10
-8.0
 20
-25.2
 11
-14.5
 21
-25.2
  0
LINE
  5
3D2
100
AcDbEntity
  8
ASSI
100
AcDbLine
 62
7
  6
CONTINUOUS
 10
8.0
 20
-25.2
 11
14.5
 21
-25.2
  0
LINE
  5
3D3
100
AcDbEntity
  8
RACCORDO
100
AcDbLine
 62
253
  6
CONTINUOUS
 10
-23.15
 20
-25.2
 11
-24.867531229
 21
-25.2
  0
LINE
  5
3D4
100
AcDbEntity
  8
RACCORDO
100
AcDbLine
 62
253
  6
CONTINUOUS
 10
23.15
 20
-25.167531229
 11
14.5
 21
-25.167531229
  0
LINE
  5
3D5
100
AcDbEntity
  8
RACCORDO
100
AcDbLine
 62
253
  6
CONTINUOUS
 10
8.0
 20
-25.167531229
 11
0.6
 21
-25.167531229
  0
LINE
  5
3D6
100
AcDbEntity
  8
RACCORDO
100
AcDbLine
 62
253
  6
CONTINUOUS
 10
-0.6
 20
-25.167531229
 11
-8.0
 21
-25.167531229
  0
LINE
  5
3D7
100
AcDbEntity
  8
RACCORDO
100
AcDbLine
 62
253
  6
CONTINUOUS
 10
-14.5
 20
-25.167531229
 11
-23.15
 21
-25.167531229
  0
LINE
  5
3D8
100
AcDbEntity
  8
ASSI
100
AcDbLine
 62
7
  6
CONTINUOUS
 10
-14.0
 20
-25.05
 11
-8.5
 21
-25.05
  0
LINE
  5
3D9
100
AcDbEntity
  8
ASSI
100
AcDbLine
 62
7
  6
CONTINUOUS
 10
8.5
 20
-25.05
 11
14.0
 21
-25.05
  0
LINE
  5
3DA
100
AcDbEntity
  8
RACCORDO
100
AcDbLine
 62
7
  6
CONTINUOUS
 10
24.3674550649
 20
-24.7
 11
23.15
 21
-24.7
  0
LINE
  5
3DB
100
AcDbEntity
  8
RACCORDO
100
AcDbLine
 62
7
  6
CONTINUOUS
 10
0.6
 20
-24.7
 11
-0.6
 21
-24.7
  0
LINE
  5
3DC
100
AcDbEntity
  8
RACCORDO
100
AcDbLine
 62
7
  6
CONTINUOUS
 10
8.5
 20
-24.7
 11
14.0
 21
-24.7
  0
LINE
  5
3DD
100
AcDbEntity
  8
RACCORDO
100
AcDbLine
 62
7
  6
CONTINUOUS
 10
-8.5
 20
-24.7
 11
-14.0
 21
-24.7
  0
LINE
  5
3DE
100
AcDbEntity
  8
RACCORDO
100
AcDbLine
 62
7
  6
CONTINUOUS
 10
-23.15
 20
-24.7
 11
-24.3674550649
 21
-24.7
  0
LINE
  5
3DF
100
AcDbEntity
  8
RACCORDO
100
AcDbLine
 62
253
  6
CONTINUOUS
 10
22.9088036965
 20
-24.6674550649
 11
14.5
 21
-24.6676073814
  0
LINE
  5
3E0
100
AcDbEntity
  8
RACCORDO
100
AcDbLine
 62
253
  6
CONTINUOUS
 10
8.0
 20
-24.6676073814
 11
0.6
 21
-24.6676073814
  0
LINE
  5
3E1
100
AcDbEntity
  8
RACCORDO
100
AcDbLine
 62
253
  6
CONTINUOUS
 10
-0.6
 20
-24.6676073814
 11
-8.0
 21
-24.6676073814
  0
LINE
  5
3E2
100
AcDbEntity
  8
RACCORDO
100
AcDbLine
 62
253
  6
CONTINUOUS
 10
-14.5
 20
-24.6676073814
 11
-22.9088036965
 21
-24.6674550649
  0
LINE
  5
3E3
100
AcDbEntity
  8
RACCORDO
100
AcDbLine
 62
7
  6
CONTINUOUS
 10
-23.15
 20
-24.6674550649
 11
-22.9088036965
 21
-24.6674550649
  0
LINE
  5
3E4
100
AcDbEntity
  8
RACCORDO
100
AcDbLine
 62
7
  6
CONTINUOUS
 10
22.9088036965
 20
-24.6674550649
 11
23.15
 21
-24.6674550649
  0
LINE
  5
3E5
100
AcDbEntity
  8
RACCORDO
100
AcDbLine
 62
7
  6
CONTINUOUS
 10
-22.4
 20
-24.65
 11
-14.4315522835
 21
-24.65
  0
LINE
  5
3E6
100
AcDbEntity
  8
RACCORDO
100
AcDbLine
 62
7
  6
CONTINUOUS
 10
-8.0684477165
 20
-24.65
 11
-0.6
 21
-24.65
  0
LINE
  5
3E7
100
AcDbEntity
  8
RACCORDO
100
AcDbLine
 62
7
  6
CONTINUOUS
 10
0.6
 20
-24.65
 11
8.0684477165
 21
-24.65
  0
LINE
  5
3E8
100
AcDbEntity
  8
RACCORDO
100
AcDbLine
 62
7
  6
CONTINUOUS
 10
14.4315522835
 20
-24.65
 11
22.4
 21
-24.65
  0
LINE
  5
3E9
100
AcDbEntity
  8
RACCORDO
100
AcDbLine
 62
7
  6
CONTINUOUS
 10
-14.5
 20
-23.7
 11
-8.0
 21
-23.7
  0
LINE
  5
3EA
100
AcDbEntity
  8
RACCORDO
100
AcDbLine
 62
7
  6
CONTINUOUS
 10
-0.6
 20
-23.7
 11
0.6
 21
-23.7
  0
LINE
  5
3EB
100
AcDbEntity
  8
RACCORDO
100
AcDbLine
 62
7
  6
CONTINUOUS
 10
8.0
 20
-23.7
 11
14.5
 21
-23.7
  0
LINE
  5
3EC
100
AcDbEntity
  8
DRAFT
100
AcDbLine
 62
7
  6
CONTINUOUS
 10
-23.3491248688
 20
-23.6877814546
 11
-23.15
 21
-23.6877814546
  0
LINE
  5
3ED
100
AcDbEntity
  8
DRAFT
100
AcDbLine
 62
7
  6
CONTINUOUS
 10
-14.5
 20
-23.6877814546
 11
-8.0
 21
-23.6877814546
  0
LINE
  5
3EE
100
AcDbEntity
  8
DRAFT
100
AcDbLine
 62
7
  6
CONTINUOUS
 10
-0.6
 20
-23.6877814546
 11
0.6
 21
-23.6877814546
  0
LINE
  5
3EF
100
AcDbEntity
  8
DRAFT
100
AcDbLine
 62
7
  6
CONTINUOUS
 10
8.0
 20
-23.6877814546
 11
14.5
 21
-23.6877814546
  0
LINE
  5
3F0
100
AcDbEntity
  8
DRAFT
100
AcDbLine
 62
7
  6
CONTINUOUS
 10
23.15
 20
-23.6877814546
 11
23.3491248688
 21
-23.6877814546
  0
LINE
  5
3F1
100
AcDbEntity
  8
DRAFT
100
AcDbLine
 62
7
  6
CONTINUOUS
 10
-24.3674550649
 20
-23.5
 11
-23.15
 21
-23.5
  0
LINE
  5
3F2
100
AcDbEntity
  8
DRAFT
100
AcDbLine
 62
7
  6
CONTINUOUS
 10
24.3674550649
 20
-23.5
 11
23.15
 21
-23.5
  0
LINE
  5
3F3
100
AcDbEntity
  8
0
100
AcDbLine
 62
7
  6
CONTINUOUS
 10
-0.6
 20
-23.5
 11
0.6
 21
-23.5
  0
LINE
  5
3F4
100
AcDbEntity
  8
RACCORDO
100
AcDbLine
 62
253
  6
CONTINUOUS
 10
24.3674550649
 20
-23.2088036965
 11
22.9088036965
 21
-23.2088036965
  0
LINE
  5
3F5
100
AcDbEntity
  8
RACCORDO
100
AcDbLine
 62
253
  6
CONTINUOUS
 10
-22.9088036965
 20
-23.2088036965
 11
-24.3674550649
 21
-23.2088036965
  0
LINE
  5
3F6
100
AcDbEntity
  8
RACCORDO
100
AcDbLine
 62
253
  6
CONTINUOUS
 10
24.3588798489
 20
-22.7088798489
 11
22.7088341575
 21
-22.7088798489
  0
LINE
  5
3F7
100
AcDbEntity
  8
RACCORDO
100
AcDbLine
 62
253
  6
CONTINUOUS
 10
-22.7088341575
 20
-22.7088798489
 11
-24.3588798489
 21
-22.7088798489
  0
LINE
  5
3F8
100
AcDbEntity
  8
RACCORDO
100
AcDbLine
 62
7
  6
CONTINUOUS
 10
-24.35
 20
-22.7
 11
-14.8
 21
-22.7
  0
LINE
  5
3F9
100
AcDbEntity
  8
RACCORDO
100
AcDbLine
 62
7
  6
CONTINUOUS
 10
-7.7
 20
-22.7
 11
7.7
 21
-22.7
  0
LINE
  5
3FA
100
AcDbEntity
  8
RACCORDO
100
AcDbLine
 62
7
  6
CONTINUOUS
 10
14.8
 20
-22.7
 11
24.35
 21
-22.7
  0
LINE
  5
3FB
100
AcDbEntity
  8
RACCORDO
100
AcDbLine
 62
7
  6
CONTINUOUS
 10
22.4368839754
 20
-22.6864728358
 11
-22.4368839754
 21
-22.6864728358
  0
LINE
  5
3FC
100
AcDbEntity
  8
RACCORDO
100
AcDbLine
 62
7
  6
CONTINUOUS
 10
22.3739946403
 20
-22.6235835007
 11
-22.3739946403
 21
-22.6235835007
  0
LINE
  5
3FD
100
AcDbEntity
  8
RACCORDO
100
AcDbLine
 62
7
  6
CONTINUOUS
 10
-22.3421909122
 20
-22.5921452208
 11
22.3421909122
 21
-22.5921452208
  0
LINE
  5
3FE
100
AcDbEntity
  8
RACCORDO
100
AcDbLine
 62
7
  6
CONTINUOUS
 10
23.0000456984
 20
-22.0
 11
32.0
 21
-22.0
  0
LINE
  5
3FF
100
AcDbEntity
  8
RACCORDO
100
AcDbLine
 62
7
  6
CONTINUOUS
 10
-23.0000456984
 20
-22.0
 11
-32.0
 21
-22.0
  0
LINE
  5
400
100
AcDbEntity
  8
DRAFT
100
AcDbLine
 62
253
  6
CONTINUOUS
 10
9.8258625
 20
-26.8929755853
 11
9.8326059412
 21
-26.8947824849
  0
LINE
  5
401
100
AcDbEntity
  8
DRAFT
100
AcDbLine
 62
253
  6
CONTINUOUS
 10
13.3258625
 20
-26.8929755853
 11
13.3326059412
 21
-26.8947824849
  0
LINE
  5
402
100
AcDbEntity
  8
SMUSSO
100
AcDbLine
 62
7
  6
CONTINUOUS
 10
47.35
 20
-46.35
 11
46.85
 21
-46.1428932188
  0
LINE
  5
403
100
AcDbEntity
  8
RACCORDO
100
AcDbLine
 62
253
  6
CONTINUOUS
 10
-25.7150289436
 20
-8.4849405955
 11
-25.75
 21
-8.449969539
  0
LINE
  5
404
100
AcDbEntity
  8
RACCORDO
100
AcDbLine
 62
253
  6
CONTINUOUS
 10
-25.5150594045
 20
-8.2849710564
 11
-25.550030461
 21
-8.25
  0
LINE
  5
405
100
AcDbEntity
  8
DRAFT
100
AcDbLine
 62
7
  6
CONTINUOUS
 10
12.3674550649
 20
-44.05
 11
12.3901466493
 21
-44.0726915844
  0
LINE
  5
406
100
AcDbEntity
  8
DRAFT
100
AcDbLine
 62
7
  6
CONTINUOUS
 10
-44.05
 20
12.3674550649
 11
-44.0726915844
 21
12.3901466493
  0
LINE
  5
407
100
AcDbEntity
  8
SMUSSO
100
AcDbLine
 62
7
  6
CONTINUOUS
 10
-46.35
 20
47.35
 11
-46.1428932188
 21
46.85
  0
LINE
  5
408
100
AcDbEntity
  8
0
100
AcDbLine
 62
7
  6
CONTINUOUS
 10
-14.910047
 20
-33.076576
 11
-15.652555
 21
-31.027135
  0
LINE
  5
409
100
AcDbEntity
  8
0
100
AcDbLine
 62
7
  6
CONTINUOUS
 10
-15.415443
 20
-32.479652
 11
-15.212654
 21
-33.076576
  0
LINE
  5
40A
100
AcDbEntity
  8
0
100
AcDbLine
 62
7
  6
CONTINUOUS
 10
-15.820906
 20
-31.324172
 11
-15.515428
 21
-32.234249
  0
LINE
  5
40B
100
AcDbEntity
  8
RACCORDO
100
AcDbLine
 62
253
  6
CONTINUOUS
 10
-24.867531229
 20
-7.7733686226
 11
-24.9187017664
 21
-7.4831660837
  0
LINE
  5
40C
100
AcDbEntity
  8
0
100
AcDbLine
 62
7
  6
CONTINUOUS
 10
-18.94791
 20
-31.027135
 11
-18.94791
 21
-33.076576
  0
LINE
  5
40D
100
AcDbEntity
  8
0
100
AcDbLine
 62
7
  6
CONTINUOUS
 10
-18.67946
 20
-33.076576
 11
-18.67946
 21
-31.35876
  0
LINE
  5
40E
100
AcDbEntity
  8
0
100
AcDbLine
 62
7
  6
CONTINUOUS
 10
-18.52542
 20
-36.921766
 11
-18.52542
 21
-38.972865
  0
LINE
  5
40F
100
AcDbEntity
  8
0
100
AcDbLine
 62
7
  6
CONTINUOUS
 10
-18.248348
 20
-38.972865
 11
-18.248348
 21
-36.921766
  0
LINE
  5
410
100
AcDbEntity
  8
0
100
AcDbLine
 62
7
  6
CONTINUOUS
 10
-17.951212
 20
-36.921766
 11
-17.951212
 21
-37.167168
  0
LINE
  5
411
100
AcDbEntity
  8
DRAFT
100
AcDbLine
 62
7
  6
CONTINUOUS
 10
-17.65
 20
43.0325449351
 11
-17.65
 21
42.05
  0
LINE
  5
412
100
AcDbEntity
  8
DRAFT
100
AcDbLine
 62
7
  6
CONTINUOUS
 10
-17.65
 20
-43.0325449351
 11
-17.65
 21
-42.05
  0
LINE
  5
413
100
AcDbEntity
  8
DRAFT
100
AcDbLine
 62
7
  6
CONTINUOUS
 10
-17.6325449351
 20
-44.05
 11
-17.6325449351
 21
-43.05
  0
LINE
  5
414
100
AcDbEntity
  8
DRAFT
100
AcDbLine
 62
7
  6
CONTINUOUS
 10
-17.6325449351
 20
43.05
 11
-17.6325449351
 21
44.05
  0
LINE
  5
415
100
AcDbEntity
  8
DRAFT
100
AcDbLine
 62
7
  6
CONTINUOUS
 10
-17.6098533507
 20
-44.3098533507
 11
-17.6098533507
 21
-44.0726915844
  0
LINE
  5
416
100
AcDbEntity
  8
DRAFT
100
AcDbLine
 62
7
  6
CONTINUOUS
 10
-17.6098533507
 20
44.0726915844
 11
-17.6098533507
 21
44.3098533507
  0
LINE
  5
417
100
AcDbEntity
  8
0
100
AcDbLine
 62
7
  6
CONTINUOUS
 10
-27.4166665077
 20
-34.2978723049
 11
-27.4583334923
 21
-34.4680850506
  0
LINE
  5
418
100
AcDbEntity
  8
DRAFT
100
AcDbLine
 62
7
  6
CONTINUOUS
 10
-13.4723444369
 20
26.3732713192
 11
-13.3327531538
 21
26.8948219304
  0
LINE
  5
419
100
AcDbEntity
  8
DRAFT
100
AcDbLine
 62
7
  6
CONTINUOUS
 10
-13.4713523696
 20
26.35
 11
-13.3258625
 21
26.8929755853
  0
LINE
  5
41A
100
AcDbEntity
  8
ASSI
100
AcDbLine
 62
7
  6
CONTINUOUS
 10
-12.4830127019
 20
26.35
 11
-12.4767771707
 21
26.3732713192
  0
LINE
  5
41B
100
AcDbEntity
  8
ASSI
100
AcDbLine
 62
7
  6
CONTINUOUS
 10
-12.05
 20
26.1
 11
-12.0437644688
 21
26.1232713192
  0
LINE
  5
41C
100
AcDbEntity
  8
0
100
AcDbLine
 62
7
  6
CONTINUOUS
 10
-31.0833332539
 20
-34.595744729
 11
-31.0416667461
 21
-34.4680850506
  0
LINE
  5
41D
100
AcDbEntity
  8
0
100
AcDbLine
 62
7
  6
CONTINUOUS
 10
-31.0833332539
 20
-35.2765957713
 11
-31.0416667461
 21
-35.1489361525
  0
LINE
  5
41E
100
AcDbEntity
  8
0
100
AcDbLine
 62
7
  6
CONTINUOUS
 10
-30.0416667461
 20
-35.4042553306
 11
-30.0833332539
 21
-35.5319148898
  0
LINE
  5
41F
100
AcDbEntity
  8
ASSI
100
AcDbLine
 62
7
  6
CONTINUOUS
 10
-8.8
 20
26.35
 11
-8.790360704
 21
26.3732713192
  0
LINE
  5
420
100
AcDbEntity
  8
DRAFT
100
AcDbLine
 62
7
  6
CONTINUOUS
 10
-43.0325449351
 20
-12.35
 11
-43.05
 21
-12.3674550649
  0
LINE
  5
421
100
AcDbEntity
  8
DRAFT
100
AcDbLine
 62
7
  6
CONTINUOUS
 10
12.35
 20
43.0325449351
 11
12.3674550649
 21
43.05
  0
LINE
  5
422
100
AcDbEntity
  8
SMUSSO
100
AcDbLine
 62
7
  6
CONTINUOUS
 10
23.5309401077
 20
-19.7185808831
 11
23.3
 21
-19.7255629091
  0
LINE
  5
423
100
AcDbEntity
  8
DRAFT
100
AcDbLine
 62
7
  6
CONTINUOUS
 10
-22.6945466124
 20
-21.25
 11
-25.15
 21
-21.25
  0
LINE
  5
424
100
AcDbEntity
  8
DRAFT
100
AcDbLine
 62
7
  6
CONTINUOUS
 10
22.6945466124
 20
-21.25
 11
25.15
 21
-21.25
  0
LINE
  5
425
100
AcDbEntity
  8
RACCORDO
100
AcDbLine
 62
7
  6
CONTINUOUS
 10
32.0
 20
-21.0
 11
24.3625994658
 21
-21.0
  0
LINE
  5
426
100
AcDbEntity
  8
DRAFT
100
AcDbLine
 62
7
  6
CONTINUOUS
 10
24.3625994658
 20
-21.0
 11
23.8881197846
 21
-21.0
  0
LINE
  5
427
100
AcDbEntity
  8
RACCORDO
100
AcDbLine
 62
7
  6
CONTINUOUS
 10
23.8881197846
 20
-21.0
 11
23.0017912049
 21
-21.0
  0
LINE
  5
428
100
AcDbEntity
  8
RACCORDO
100
AcDbLine
 62
7
  6
CONTINUOUS
 10
-23.0017912049
 20
-21.0
 11
-23.8881197846
 21
-21.0
  0
LINE
  5
429
100
AcDbEntity
  8
DRAFT
100
AcDbLine
 62
7
  6
CONTINUOUS
 10
-23.8881197846
 20
-21.0
 11
-24.3625994658
 21
-21.0
  0
LINE
  5
42A
100
AcDbEntity
  8
RACCORDO
100
AcDbLine
 62
7
  6
CONTINUOUS
 10
-24.3625994658
 20
-21.0
 11
-32.0
 21
-21.0
  0
LINE
  5
42B
100
AcDbEntity
  8
DRAFT
100
AcDbLine
 62
7
  6
CONTINUOUS
 10
-24.3625994658
 20
-20.0
 11
-23.8881197846
 21
-20.0
  0
LINE
  5
42C
100
AcDbEntity
  8
RACCORDO
100
AcDbLine
 62
7
  6
CONTINUOUS
 10
25.25
 20
-20.0
 11
24.3625994658
 21
-20.0
  0
LINE
  5
42D
100
AcDbEntity
  8
SMUSSO
100
AcDbLine
 62
7
  6
CONTINUOUS
 10
-23.8881197846
 20
-20.0
 11
-23.2
 21
-20.0
  0
LINE
  5
42E
100
AcDbEntity
  8
SMUSSO
100
AcDbLine
 62
7
  6
CONTINUOUS
 10
23.2
 20
-20.0
 11
23.8881197846
 21
-20.0
  0
LINE
  5
42F
100
AcDbEntity
  8
DRAFT
100
AcDbLine
 62
7
  6
CONTINUOUS
 10
23.8881197846
 20
-20.0
 11
24.3625994658
 21
-20.0
  0
LINE
  5
430
100
AcDbEntity
  8
RACCORDO
100
AcDbLine
 62
7
  6
CONTINUOUS
 10
-24.3625994658
 20
-20.0
 11
-25.25
 21
-20.0
  0
LINE
  5
431
100
AcDbEntity
  8
RACCORDO
100
AcDbLine
 62
7
  6
CONTINUOUS
 10
24.75
 20
-19.7517455065
 11
23.7
 21
-19.7517455065
  0
LINE
  5
432
100
AcDbEntity
  8
RACCORDO
100
AcDbLine
 62
7
  6
CONTINUOUS
 10
-23.7
 20
-19.7517455065
 11
-24.75
 21
-19.7517455065
  0
LINE
  5
433
100
AcDbEntity
  8
DRAFT
100
AcDbLine
 62
7
  6
CONTINUOUS
 10
-23.7
 20
-19.7307994286
 11
-23.6
 21
-19.7307994286
  0
LINE
  5
434
100
AcDbEntity
  8
DRAFT
100
AcDbLine
 62
7
  6
CONTINUOUS
 10
23.6
 20
-19.7307994286
 11
23.7
 21
-19.7307994286
  0
LINE
  5
435
100
AcDbEntity
  8
RACCORDO
100
AcDbLine
 62
7
  6
CONTINUOUS
 10
24.0755019779
 20
-19.7185808831
 11
23.5309401077
 21
-19.7185808831
  0
LINE
  5
436
100
AcDbEntity
  8
RACCORDO
100
AcDbLine
 62
7
  6
CONTINUOUS
 10
-23.5309401077
 20
-19.7185808831
 11
-24.0755019779
 21
-19.7185808831
  0
LINE
  5
437
100
AcDbEntity
  8
DRAFT
100
AcDbLine
 62
7
  6
CONTINUOUS
 10
-43.0325449351
 20
-17.65
 11
-42.05
 21
-17.65
  0
LINE
  5
438
100
AcDbEntity
  8
DRAFT
100
AcDbLine
 62
7
  6
CONTINUOUS
 10
43.0325449351
 20
-17.65
 11
42.05
 21
-17.65
  0
LINE
  5
439
100
AcDbEntity
  8
DRAFT
100
AcDbLine
 62
7
  6
CONTINUOUS
 10
44.05
 20
-17.6325449351
 11
43.05
 21
-17.6325449351
  0
LINE
  5
43A
100
AcDbEntity
  8
DRAFT
100
AcDbLine
 62
7
  6
CONTINUOUS
 10
-43.05
 20
-17.6325449351
 11
-44.05
 21
-17.6325449351
  0
LINE
  5
43B
100
AcDbEntity
  8
DRAFT
100
AcDbLine
 62
7
  6
CONTINUOUS
 10
44.3098533507
 20
-17.6098533507
 11
44.0726915844
 21
-17.6098533507
  0
LINE
  5
43C
100
AcDbEntity
  8
DRAFT
100
AcDbLine
 62
7
  6
CONTINUOUS
 10
-44.0726915844
 20
-17.6098533507
 11
-44.3098533507
 21
-17.6098533507
  0
LINE
  5
43D
100
AcDbEntity
  8
SMUSSO
100
AcDbLine
 62
7
  6
CONTINUOUS
 10
-23.3
 20
-19.7255629091
 11
-23.5309401077
 21
-19.7185808831
  0
LINE
  5
43E
100
AcDbEntity
  8
DRAFT
100
AcDbLine
 62
7
  6
CONTINUOUS
 10
12.35
 20
-43.0325449351
 11
12.3674550649
 21
-43.05
  0
LINE
  5
43F
100
AcDbEntity
  8
DRAFT
100
AcDbLine
 62
7
  6
CONTINUOUS
 10
-43.0325449351
 20
12.35
 11
-43.05
 21
12.3674550649
  0
LINE
  5
440
100
AcDbEntity
  8
ASSI
100
AcDbLine
 62
7
  6
CONTINUOUS
 10
-8.8
 20
-26.35
 11
-8.790360704
 21
-26.3732713192
  0
LINE
  5
441
100
AcDbEntity
  8
0
100
AcDbLine
 62
7
  6
CONTINUOUS
 10
-34.016148
 20
30.724203
 11
-33.036762
 21
28.112597
  0
LINE
  5
442
100
AcDbEntity
  8
0
100
AcDbLine
 62
7
  6
CONTINUOUS
 10
-32.973659
 20
29.891567
 11
-33.799696
 21
32.112109
  0
LINE
  5
443
100
AcDbEntity
  8
0
100
AcDbLine
 62
7
  6
CONTINUOUS
 10
-27.518429
 20
28.112597
 11
-28.745579
 21
32.112109
  0
LINE
  5
444
100
AcDbEntity
  8
0
100
AcDbLine
 62
7
  6
CONTINUOUS
 10
-28.614604
 20
28.911042
 11
-28.398332
 21
28.112597
  0
LINE
  5
445
100
AcDbEntity
  8
DRAFT
100
AcDbLine
 62
7
  6
CONTINUOUS
 10
-13.3258625
 20
-26.8929755853
 11
-13.4713523696
 21
-26.35
  0
LINE
  5
446
100
AcDbEntity
  8
ASSI
100
AcDbLine
 62
7
  6
CONTINUOUS
 10
-12.4830127019
 20
-26.35
 11
-12.4767771707
 21
-26.3732713192
  0
LINE
  5
447
100
AcDbEntity
  8
ASSI
100
AcDbLine
 62
7
  6
CONTINUOUS
 10
-12.05
 20
-26.1
 11
-12.0437644688
 21
-26.1232713192
  0
LINE
  5
448
100
AcDbEntity
  8
DRAFT
100
AcDbLine
 62
7
  6
CONTINUOUS
 10
-13.3327531538
 20
-26.8948219304
 11
-13.4723444369
 21
-26.3732713192
  0
LINE
  5
449
100
AcDbEntity
  8
0
100
AcDbLine
 62
7
  6
CONTINUOUS
 10
-29.165075
 20
31.013145
 11
-28.781449
 21
29.528875
  0
LINE
  5
44A
100
AcDbEntity
  8
DRAFT
100
AcDbLine
 62
7
  6
CONTINUOUS
 10
-12.5286476304
 20
-26.35
 11
-12.5276555631
 21
-26.3732713192
  0
LINE
  5
44B
100
AcDbEntity
  8
0
100
AcDbLine
 62
7
  6
CONTINUOUS
 10
-17.257287
 20
-37.167168
 11
-17.257287
 21
-38.972865
  0
LINE
  5
44C
100
AcDbEntity
  8
0
100
AcDbLine
 62
7
  6
CONTINUOUS
 10
-17.251649
 20
-31.355444
 11
-17.251649
 21
-33.076576
  0
LINE
  5
44D
100
AcDbEntity
  8
0
100
AcDbLine
 62
7
  6
CONTINUOUS
 10
-16.983199
 20
-33.076576
 11
-16.983199
 21
-31.027135
  0
LINE
  5
44E
100
AcDbEntity
  8
0
100
AcDbLine
 62
7
  6
CONTINUOUS
 10
-16.98038
 20
-38.972865
 11
-16.98038
 21
-37.167168
  0
LINE
  5
44F
100
AcDbEntity
  8
0
100
AcDbLine
 62
7
  6
CONTINUOUS
 10
-16.286455
 20
-37.167168
 11
-16.286455
 21
-36.921766
  0
LINE
  5
450
100
AcDbEntity
  8
0
100
AcDbLine
 62
7
  6
CONTINUOUS
 10
-16.199404
 20
-33.975279
 11
-16.199404
 21
-36.024721
  0
LINE
  5
451
100
AcDbEntity
  8
0
100
AcDbLine
 62
7
  6
CONTINUOUS
 10
-15.922331
 20
-36.024721
 11
-15.922331
 21
-33.975279
  0
LINE
  5
452
100
AcDbEntity
  8
0
100
AcDbLine
 62
7
  6
CONTINUOUS
 10
-15.44844
 20
-33.975279
 11
-15.44844
 21
-36.024721
  0
LINE
  5
453
100
AcDbEntity
  8
0
100
AcDbLine
 62
7
  6
CONTINUOUS
 10
-15.179824
 20
-36.024721
 11
-15.179824
 21
-34.359295
  0
LINE
  5
454
100
AcDbEntity
  8
0
100
AcDbLine
 62
7
  6
CONTINUOUS
 10
-14.641597
 20
-31.027135
 11
-14.641597
 21
-33.076576
  0
LINE
  5
455
100
AcDbEntity
  8
RACCORDO
100
AcDbLine
 62
7
  6
CONTINUOUS
 10
-14.5
 20
25.2
 11
-14.5
 21
24.656344058
  0
LINE
  5
456
100
AcDbEntity
  8
RACCORDO
100
AcDbLine
 62
7
  6
CONTINUOUS
 10
-14.5
 20
24.2928932188
 11
-14.5
 21
23.0000456984
  0
LINE
  5
457
100
AcDbEntity
  8
RACCORDO
100
AcDbLine
 62
7
  6
CONTINUOUS
 10
-14.5
 20
-23.0000456984
 11
-14.5
 21
-24.2928932188
  0
LINE
  5
458
100
AcDbEntity
  8
RACCORDO
100
AcDbLine
 62
7
  6
CONTINUOUS
 10
-14.5
 20
-24.656344058
 11
-14.5
 21
-25.2
  0
LINE
  5
459
100
AcDbEntity
  8
ASSI
100
AcDbLine
 62
7
  6
CONTINUOUS
 10
-14.4596311171
 20
-25.2
 11
-14.4596311171
 21
-25.6232794982
  0
LINE
  5
45A
100
AcDbEntity
  8
ASSI
100
AcDbLine
 62
7
  6
CONTINUOUS
 10
-14.4596311171
 20
25.2
 11
-14.4596311171
 21
25.6232794982
  0
LINE
  5
45B
100
AcDbEntity
  8
0
100
AcDbLine
 62
7
  6
CONTINUOUS
 10
-14.36469
 20
-32.839465
 11
-14.36469
 21
-31.264247
  0
LINE
  5
45C
100
AcDbEntity
  8
ASSI
100
AcDbLine
 62
253
  6
CONTINUOUS
 10
-14.2599329936
 20
25.7916264167
 11
-14.2599329936
 21
25.200274093
  0
LINE
  5
45D
100
AcDbEntity
  8
ASSI
100
AcDbLine
 62
253
  6
CONTINUOUS
 10
-14.2599329936
 20
-25.200274093
 11
-14.2599329936
 21
-25.7916264167
  0
LINE
  5
45E
100
AcDbEntity
  8
SMUSSO
100
AcDbLine
 62
7
  6
CONTINUOUS
 10
-14.2
 20
-28.7575
 11
-14.2
 21
-26.8075
  0
LINE
  5
45F
100
AcDbEntity
  8
SMUSSO
100
AcDbLine
 62
7
  6
CONTINUOUS
 10
-14.2
 20
26.8075
 11
-14.2
 21
28.7575
  0
LINE
  5
460
100
AcDbEntity
  8
0
100
AcDbLine
 62
7
  6
CONTINUOUS
 10
-14.124759
 20
-36.921766
 11
-14.124759
 21
-38.972865
  0
LINE
  5
461
100
AcDbEntity
  8
0
100
AcDbLine
 62
7
  6
CONTINUOUS
 10
-14.088944
 20
-33.975279
 11
-14.088944
 21
-35.639454
  0
LINE
  5
462
100
AcDbEntity
  8
ASSI
100
AcDbLine
 62
253
  6
CONTINUOUS
 10
-14.0602070867
 20
25.9897929133
 11
-14.0602070867
 21
25.4
  0
LINE
  5
463
100
AcDbEntity
  8
ASSI
100
AcDbLine
 62
253
  6
CONTINUOUS
 10
-14.0602070867
 20
-25.4
 11
-14.0602070867
 21
-25.9897929133
  0
LINE
  5
464
100
AcDbEntity
  8
RACCORDO
100
AcDbLine
 62
253
  6
CONTINUOUS
 10
-14.0
 20
25.05
 11
-14.0
 21
24.7
  0
LINE
  5
465
100
AcDbEntity
  8
RACCORDO
100
AcDbLine
 62
253
  6
CONTINUOUS
 10
-14.0
 20
-24.7
 11
-14.0
 21
-25.05
  0
LINE
  5
466
100
AcDbEntity
  8
ASSI
100
AcDbLine
 62
7
  6
CONTINUOUS
 10
-14.0
 20
-25.05
 11
-14.0
 21
-25.2
  0
LINE
  5
467
100
AcDbEntity
  8
ASSI
100
AcDbLine
 62
7
  6
CONTINUOUS
 10
-14.0
 20
25.05
 11
-14.0
 21
25.2
  0
LINE
  5
468
100
AcDbEntity
  8
0
100
AcDbLine
 62
7
  6
CONTINUOUS
 10
-13.847853
 20
-38.727463
 11
-13.847853
 21
-36.921766
  0
LINE
  5
469
100
AcDbEntity
  8
0
100
AcDbLine
 62
7
  6
CONTINUOUS
 10
-13.820659
 20
-36.024721
 11
-13.820659
 21
-33.975279
  0
LINE
  5
46A
100
AcDbEntity
  8
0
100
AcDbLine
 62
7
  6
CONTINUOUS
 10
-12.808375
 20
-38.972865
 11
-12.808375
 21
-38.727463
  0
LINE
  5
46B
100
AcDbEntity
  8
DRAFT
100
AcDbLine
 62
7
  6
CONTINUOUS
 10
-12.5286476304
 20
26.35
 11
-12.5276555631
 21
26.3732713192
  0
LINE
  5
46C
100
AcDbEntity
  8
0
100
AcDbLine
 62
7
  6
CONTINUOUS
 10
-26.0416665077
 20
-34.7234042883
 11
-26.0
 21
-34.5531915426
  0
LINE
  5
46D
100
AcDbEntity
  8
DRAFT
100
AcDbLine
 62
7
  6
CONTINUOUS
 10
-9.9723444369
 20
26.3732713192
 11
-9.8327531538
 21
26.8948219304
  0
LINE
  5
46E
100
AcDbEntity
  8
DRAFT
100
AcDbLine
 62
7
  6
CONTINUOUS
 10
-9.9713523696
 20
26.35
 11
-9.8258625
 21
26.8929755853
  0
LINE
  5
46F
100
AcDbEntity
  8
0
100
AcDbLine
 62
7
  6
CONTINUOUS
 10
-31.2083332539
 20
-34.3404254913
 11
-31.2916667461
 21
-34.5531915426
  0
LINE
  5
470
100
AcDbEntity
  8
0
100
AcDbLine
 62
7
  6
CONTINUOUS
 10
-29.9166665077
 20
-35.6595744789
 11
-29.8333334923
 21
-35.446808517
  0
LINE
  5
471
100
AcDbEntity
  8
0
100
AcDbLine
 62
7
  6
CONTINUOUS
 10
-32.75
 20
-34.5531915426
 11
-32.8333333731
 21
-34.7234042883
  0
LINE
  5
472
100
AcDbEntity
  8
ASSI
100
AcDbLine
 62
7
  6
CONTINUOUS
 10
8.2400670064
 20
25.7916264167
 11
8.0403688829
 21
25.6232794982
  0
LINE
  5
473
100
AcDbEntity
  8
ASSI
100
AcDbLine
 62
7
  6
CONTINUOUS
 10
12.0437644688
 20
26.1232713192
 11
12.4767771707
 21
26.3732713192
  0
LINE
  5
474
100
AcDbEntity
  8
ASSI
100
AcDbLine
 62
7
  6
CONTINUOUS
 10
12.05
 20
26.1
 11
12.4830127019
 21
26.35
  0
LINE
  5
475
100
AcDbEntity
  8
SMUSSO
100
AcDbLine
 62
7
  6
CONTINUOUS
 10
-23.5309401077
 20
-15.2814191169
 11
-23.3
 21
-15.2744370909
  0
LINE
  5
476
100
AcDbEntity
  8
RACCORDO
100
AcDbLine
 62
7
  6
CONTINUOUS
 10
24.0755019779
 20
-15.2814191169
 11
23.5309401077
 21
-15.2814191169
  0
LINE
  5
477
100
AcDbEntity
  8
RACCORDO
100
AcDbLine
 62
7
  6
CONTINUOUS
 10
-23.5309401077
 20
-15.2814191169
 11
-24.0755019779
 21
-15.2814191169
  0
LINE
  5
478
100
AcDbEntity
  8
DRAFT
100
AcDbLine
 62
7
  6
CONTINUOUS
 10
-23.7
 20
-15.2692005714
 11
-23.6
 21
-15.2692005714
  0
LINE
  5
479
100
AcDbEntity
  8
DRAFT
100
AcDbLine
 62
7
  6
CONTINUOUS
 10
23.6
 20
-15.2692005714
 11
23.7
 21
-15.2692005714
  0
LINE
  5
47A
100
AcDbEntity
  8
RACCORDO
100
AcDbLine
 62
7
  6
CONTINUOUS
 10
-24.75
 20
-15.2482544935
 11
-23.7
 21
-15.2482544935
  0
LINE
  5
47B
100
AcDbEntity
  8
RACCORDO
100
AcDbLine
 62
7
  6
CONTINUOUS
 10
23.7
 20
-15.2482544935
 11
24.75
 21
-15.2482544935
  0
LINE
  5
47C
100
AcDbEntity
  8
RACCORDO
100
AcDbLine
 62
7
  6
CONTINUOUS
 10
-25.25
 20
-15.0
 11
-24.3625994658
 21
-15.0
  0
LINE
  5
47D
100
AcDbEntity
  8
DRAFT
100
AcDbLine
 62
7
  6
CONTINUOUS
 10
24.3625994658
 20
-15.0
 11
23.8881197846
 21
-15.0
  0
LINE
  5
47E
100
AcDbEntity
  8
SMUSSO
100
AcDbLine
 62
7
  6
CONTINUOUS
 10
23.8881197846
 20
-15.0
 11
23.2
 21
-15.0
  0
LINE
  5
47F
100
AcDbEntity
  8
SMUSSO
100
AcDbLine
 62
7
  6
CONTINUOUS
 10
-23.2
 20
-15.0
 11
-23.8881197846
 21
-15.0
  0
LINE
  5
480
100
AcDbEntity
  8
DRAFT
100
AcDbLine
 62
7
  6
CONTINUOUS
 10
-23.8881197846
 20
-15.0
 11
-24.3625994658
 21
-15.0
  0
LINE
  5
481
100
AcDbEntity
  8
RACCORDO
100
AcDbLine
 62
7
  6
CONTINUOUS
 10
24.3625994658
 20
-15.0
 11
25.25
 21
-15.0
  0
LINE
  5
482
100
AcDbEntity
  8
DRAFT
100
AcDbLine
 62
7
  6
CONTINUOUS
 10
-24.3625994658
 20
-14.0
 11
-23.8881197846
 21
-14.0
  0
LINE
  5
483
100
AcDbEntity
  8
RACCORDO
100
AcDbLine
 62
7
  6
CONTINUOUS
 10
-23.8881197846
 20
-14.0
 11
-23.0017912049
 21
-14.0
  0
LINE
  5
484
100
AcDbEntity
  8
RACCORDO
100
AcDbLine
 62
7
  6
CONTINUOUS
 10
23.0017912049
 20
-14.0
 11
23.8881197846
 21
-14.0
  0
LINE
  5
485
100
AcDbEntity
  8
DRAFT
100
AcDbLine
 62
7
  6
CONTINUOUS
 10
23.8881197846
 20
-14.0
 11
24.3625994658
 21
-14.0
  0
LINE
  5
486
100
AcDbEntity
  8
RACCORDO
100
AcDbLine
 62
7
  6
CONTINUOUS
 10
24.3625994658
 20
-14.0
 11
32.0
 21
-14.0
  0
LINE
  5
487
100
AcDbEntity
  8
RACCORDO
100
AcDbLine
 62
7
  6
CONTINUOUS
 10
-24.3625994658
 20
-14.0
 11
-32.0
 21
-14.0
  0
LINE
  5
488
100
AcDbEntity
  8
DRAFT
100
AcDbLine
 62
7
  6
CONTINUOUS
 10
22.6945466124
 20
-13.75
 11
25.15
 21
-13.75
  0
LINE
  5
489
100
AcDbEntity
  8
DRAFT
100
AcDbLine
 62
7
  6
CONTINUOUS
 10
-22.6945466124
 20
-13.75
 11
-25.15
 21
-13.75
  0
LINE
  5
48A
100
AcDbEntity
  8
DRAFT
100
AcDbLine
 62
7
  6
CONTINUOUS
 10
24.35
 20
-13.0
 11
24.2
 21
-13.0
  0
LINE
  5
48B
100
AcDbEntity
  8
RACCORDO
100
AcDbLine
 62
7
  6
CONTINUOUS
 10
24.35
 20
-13.0
 11
32.0
 21
-13.0
  0
LINE
  5
48C
100
AcDbEntity
  8
DRAFT
100
AcDbLine
 62
7
  6
CONTINUOUS
 10
-24.2
 20
-13.0
 11
-24.35
 21
-13.0
  0
LINE
  5
48D
100
AcDbEntity
  8
RACCORDO
100
AcDbLine
 62
7
  6
CONTINUOUS
 10
-24.35
 20
-13.0
 11
-32.0
 21
-13.0
  0
LINE
  5
48E
100
AcDbEntity
  8
RACCORDO
100
AcDbLine
 62
7
  6
CONTINUOUS
 10
-25.550030461
 20
-12.9
 11
-24.949969539
 21
-12.9
  0
LINE
  5
48F
100
AcDbEntity
  8
RACCORDO
100
AcDbLine
 62
7
  6
CONTINUOUS
 10
24.949969539
 20
-12.9
 11
25.550030461
 21
-12.9
  0
LINE
  5
490
100
AcDbEntity
  8
RACCORDO
100
AcDbLine
 62
253
  6
CONTINUOUS
 10
-25.5150594045
 20
-12.8650289436
 11
-24.9849405955
 21
-12.8650289436
  0
LINE
  5
491
100
AcDbEntity
  8
RACCORDO
100
AcDbLine
 62
253
  6
CONTINUOUS
 10
24.9849405955
 20
-12.8650289436
 11
25.5150594045
 21
-12.8650289436
  0
LINE
  5
492
100
AcDbEntity
  8
SMUSSO
100
AcDbLine
 62
7
  6
CONTINUOUS
 10
23.3
 20
-15.2744370909
 11
23.5309401077
 21
-15.2814191169
  0
LINE
  5
493
100
AcDbEntity
  8
ASSI
100
AcDbLine
 62
7
  6
CONTINUOUS
 10
12.4767771707
 20
-26.3732713192
 11
12.0437644688
 21
-26.1232713192
  0
LINE
  5
494
100
AcDbEntity
  8
ASSI
100
AcDbLine
 62
7
  6
CONTINUOUS
 10
12.4830127019
 20
-26.35
 11
12.05
 21
-26.1
  0
LINE
  5
495
100
AcDbEntity
  8
ASSI
100
AcDbLine
 62
7
  6
CONTINUOUS
 10
8.2400670064
 20
-25.7916264167
 11
8.0403688829
 21
-25.6232794982
  0
LINE
  5
496
100
AcDbEntity
  8
DRAFT
100
AcDbLine
 62
7
  6
CONTINUOUS
 10
-9.8258625
 20
-26.8929755853
 11
-9.9713523696
 21
-26.35
  0
LINE
  5
497
100
AcDbEntity
  8
DRAFT
100
AcDbLine
 62
7
  6
CONTINUOUS
 10
-9.8327531538
 20
-26.8948219304
 11
-9.9723444369
 21
-26.3732713192
  0
LINE
  5
498
100
AcDbEntity
  8
DRAFT
100
AcDbLine
 62
7
  6
CONTINUOUS
 10
-13.4713523696
 20
26.35
 11
-13.4723444369
 21
26.3732713192
  0
LINE
  5
499
100
AcDbEntity
  8
DRAFT
100
AcDbLine
 62
7
  6
CONTINUOUS
 10
-9.0286476304
 20
-26.35
 11
-9.0276555631
 21
-26.3732713192
  0
LINE
  5
49A
100
AcDbEntity
  8
DRAFT
100
AcDbLine
 62
7
  6
CONTINUOUS
 10
-9.9713523696
 20
26.35
 11
-9.9723444369
 21
26.3732713192
  0
LINE
  5
49B
100
AcDbEntity
  8
0
100
AcDbLine
 62
7
  6
CONTINUOUS
 10
-12.565625
 20
-31.027135
 11
-12.565625
 21
-33.076576
  0
LINE
  5
49C
100
AcDbEntity
  8
DRAFT
100
AcDbLine
 62
7
  6
CONTINUOUS
 10
-12.3901466493
 20
44.3098533507
 11
-12.3901466493
 21
44.0726915844
  0
LINE
  5
49D
100
AcDbEntity
  8
DRAFT
100
AcDbLine
 62
7
  6
CONTINUOUS
 10
-12.3901466493
 20
-44.0726915844
 11
-12.3901466493
 21
-44.3098533507
  0
LINE
  5
49E
100
AcDbEntity
  8
0
100
AcDbLine
 62
7
  6
CONTINUOUS
 10
-12.368474
 20
-38.147119
 11
-12.368474
 21
-38.972865
  0
LINE
  5
49F
100
AcDbEntity
  8
DRAFT
100
AcDbLine
 62
7
  6
CONTINUOUS
 10
-12.3674550649
 20
44.05
 11
-12.3674550649
 21
43.05
  0
LINE
  5
4A0
100
AcDbEntity
  8
DRAFT
100
AcDbLine
 62
7
  6
CONTINUOUS
 10
-12.3674550649
 20
-43.05
 11
-12.3674550649
 21
-44.05
  0
LINE
  5
4A1
100
AcDbEntity
  8
DRAFT
100
AcDbLine
 62
7
  6
CONTINUOUS
 10
-12.35
 20
43.0325449351
 11
-12.35
 21
42.05
  0
LINE
  5
4A2
100
AcDbEntity
  8
DRAFT
100
AcDbLine
 62
7
  6
CONTINUOUS
 10
-12.35
 20
-43.0325449351
 11
-12.35
 21
-42.05
  0
LINE
  5
4A3
100
AcDbEntity
  8
0
100
AcDbLine
 62
7
  6
CONTINUOUS
 10
-12.288553
 20
-32.831174
 11
-12.288553
 21
-32.146369
  0
LINE
  5
4A4
100
AcDbEntity
  8
0
100
AcDbLine
 62
7
  6
CONTINUOUS
 10
-12.288553
 20
-31.900966
 11
-12.288553
 21
-31.272537
  0
LINE
  5
4A5
100
AcDbEntity
  8
0
100
AcDbLine
 62
7
  6
CONTINUOUS
 10
-12.091568
 20
-38.972865
 11
-12.091568
 21
-38.147119
  0
LINE
  5
4A6
100
AcDbEntity
  8
SMUSSO
100
AcDbLine
 62
7
  6
CONTINUOUS
 10
-11.85
 20
28.7575
 11
-11.85
 21
26.8075
  0
LINE
  5
4A7
100
AcDbEntity
  8
SMUSSO
100
AcDbLine
 62
7
  6
CONTINUOUS
 10
-11.85
 20
-26.8075
 11
-11.85
 21
-28.7575
  0
LINE
  5
4A8
100
AcDbEntity
  8
0
100
AcDbLine
 62
7
  6
CONTINUOUS
 10
-11.166335
 20
-32.146369
 11
-11.166335
 21
-31.900966
  0
LINE
  5
4A9
100
AcDbEntity
  8
0
100
AcDbLine
 62
7
  6
CONTINUOUS
 10
-11.072153
 20
-31.272537
 11
-11.072153
 21
-31.027135
  0
LINE
  5
4AA
100
AcDbEntity
  8
0
100
AcDbLine
 62
7
  6
CONTINUOUS
 10
-11.05209
 20
-33.076576
 11
-11.05209
 21
-32.831174
  0
LINE
  5
4AB
100
AcDbEntity
  8
SMUSSO
100
AcDbLine
 62
7
  6
CONTINUOUS
 10
-10.65
 20
-28.7575
 11
-10.65
 21
-26.8075
  0
LINE
  5
4AC
100
AcDbEntity
  8
SMUSSO
100
AcDbLine
 62
7
  6
CONTINUOUS
 10
-10.65
 20
26.8075
 11
-10.65
 21
28.7575
  0
LINE
  5
4AD
100
AcDbEntity
  8
RACCORDO
100
AcDbLine
 62
253
  6
CONTINUOUS
 10
-8.5
 20
-25.05
 11
-8.5
 21
-24.7
  0
LINE
  5
4AE
100
AcDbEntity
  8
ASSI
100
AcDbLine
 62
7
  6
CONTINUOUS
 10
-8.5
 20
-25.05
 11
-8.5
 21
-25.2
  0
LINE
  5
4AF
100
AcDbEntity
  8
RACCORDO
100
AcDbLine
 62
253
  6
CONTINUOUS
 10
-8.5
 20
24.7
 11
-8.5
 21
25.05
  0
LINE
  5
4B0
100
AcDbEntity
  8
ASSI
100
AcDbLine
 62
7
  6
CONTINUOUS
 10
-8.5
 20
25.05
 11
-8.5
 21
25.2
  0
LINE
  5
4B1
100
AcDbEntity
  8
ASSI
100
AcDbLine
 62
253
  6
CONTINUOUS
 10
-8.4397929133
 20
-25.9897929133
 11
-8.4397929133
 21
-25.4
  0
LINE
  5
4B2
100
AcDbEntity
  8
ASSI
100
AcDbLine
 62
253
  6
CONTINUOUS
 10
-8.4397929133
 20
25.4
 11
-8.4397929133
 21
25.9897929133
  0
LINE
  5
4B3
100
AcDbEntity
  8
DRAFT
100
AcDbLine
 62
7
  6
CONTINUOUS
 10
-13.4713523696
 20
-26.35
 11
-13.4723444369
 21
-26.3732713192
  0
LINE
  5
4B4
100
AcDbEntity
  8
DRAFT
100
AcDbLine
 62
7
  6
CONTINUOUS
 10
-9.0286476304
 20
26.35
 11
-9.0276555631
 21
26.3732713192
  0
LINE
  5
4B5
100
AcDbEntity
  8
DRAFT
100
AcDbLine
 62
7
  6
CONTINUOUS
 10
-9.9713523696
 20
-26.35
 11
-9.9723444369
 21
-26.3732713192
  0
LINE
  5
4B6
100
AcDbEntity
  8
0
100
AcDbLine
 62
7
  6
CONTINUOUS
 10
-26.25
 20
-34.5531915426
 11
-26.3333334923
 21
-34.7234042883
  0
LINE
  5
4B7
100
AcDbEntity
  8
0
100
AcDbLine
 62
7
  6
CONTINUOUS
 10
-33.75
 20
-34.4680850506
 11
-33.6666666567
 21
-34.3404254913
  0
LINE
  5
4B8
100
AcDbEntity
  8
SMUSSO
100
AcDbLine
 62
7
  6
CONTINUOUS
 10
27.3673084156
 20
45.3273084156
 11
27.54
 21
45.5
  0
LINE
  5
4B9
100
AcDbEntity
  8
ASSI
100
AcDbLine
 62
7
  6
CONTINUOUS
 10
8.0403688829
 20
25.6232794982
 11
8.790360704
 21
26.3732713192
  0
LINE
  5
4BA
100
AcDbEntity
  8
ASSI
100
AcDbLine
 62
7
  6
CONTINUOUS
 10
8.4397929133
 20
25.9897929133
 11
8.8
 21
26.35
  0
LINE
  5
4BB
100
AcDbEntity
  8
RACCORDO
100
AcDbLine
 62
253
  6
CONTINUOUS
 10
-24.949969539
 20
-8.25
 11
-24.9849405955
 21
-8.2849710564
  0
LINE
  5
4BC
100
AcDbEntity
  8
RACCORDO
100
AcDbLine
 62
253
  6
CONTINUOUS
 10
-24.7497544191
 20
-8.4497239581
 11
-24.7849710564
 21
-8.4849405955
  0
LINE
  5
4BD
100
AcDbEntity
  8
RACCORDO
100
AcDbLine
 62
253
  6
CONTINUOUS
 10
-25.7150289436
 20
-12.6650594045
 11
-25.75
 21
-12.700030461
  0
LINE
  5
4BE
100
AcDbEntity
  8
RACCORDO
100
AcDbLine
 62
253
  6
CONTINUOUS
 10
-25.5150594045
 20
-12.8650289436
 11
-25.550030461
 21
-12.9
  0
LINE
  5
4BF
100
AcDbEntity
  8
RACCORDO
100
AcDbLine
 62
253
  6
CONTINUOUS
 10
24.7849710564
 20
-12.6650594045
 11
25.7150289436
 21
-12.6650594045
  0
LINE
  5
4C0
100
AcDbEntity
  8
RACCORDO
100
AcDbLine
 62
253
  6
CONTINUOUS
 10
-24.7849710564
 20
-12.6650594045
 11
-25.7150289436
 21
-12.6650594045
  0
LINE
  5
4C1
100
AcDbEntity
  8
DRAFT
100
AcDbLine
 62
7
  6
CONTINUOUS
 10
-44.3098533507
 20
-12.3901466493
 11
-44.0726915844
 21
-12.3901466493
  0
LINE
  5
4C2
100
AcDbEntity
  8
DRAFT
100
AcDbLine
 62
7
  6
CONTINUOUS
 10
44.0726915844
 20
-12.3901466493
 11
44.3098533507
 21
-12.3901466493
  0
LINE
  5
4C3
100
AcDbEntity
  8
DRAFT
100
AcDbLine
 62
7
  6
CONTINUOUS
 10
-44.05
 20
-12.3674550649
 11
-43.05
 21
-12.3674550649
  0
LINE
  5
4C4
100
AcDbEntity
  8
DRAFT
100
AcDbLine
 62
7
  6
CONTINUOUS
 10
43.05
 20
-12.3674550649
 11
44.05
 21
-12.3674550649
  0
LINE
  5
4C5
100
AcDbEntity
  8
DRAFT
100
AcDbLine
 62
7
  6
CONTINUOUS
 10
-43.0325449351
 20
-12.35
 11
-42.05
 21
-12.35
  0
LINE
  5
4C6
100
AcDbEntity
  8
DRAFT
100
AcDbLine
 62
7
  6
CONTINUOUS
 10
43.0325449351
 20
-12.35
 11
42.05
 21
-12.35
  0
LINE
  5
4C7
100
AcDbEntity
  8
RACCORDO
100
AcDbLine
 62
253
  6
CONTINUOUS
 10
24.7849710564
 20
-8.4849405955
 11
25.7150289436
 21
-8.4849405955
  0
LINE
  5
4C8
100
AcDbEntity
  8
RACCORDO
100
AcDbLine
 62
253
  6
CONTINUOUS
 10
-24.7849710564
 20
-8.4849405955
 11
-25.7150289436
 21
-8.4849405955
  0
LINE
  5
4C9
100
AcDbEntity
  8
ASSI
100
AcDbLine
 62
7
  6
CONTINUOUS
 10
25.660464
 20
-34.163833
 11
26.780825
 21
-35.107969
  0
LINE
  5
4CA
100
AcDbEntity
  8
ASSI
100
AcDbLine
 62
7
  6
CONTINUOUS
 10
26.780825
 20
-34.591613
 11
25.608751
 21
-33.6039
  0
LINE
  5
4CB
100
AcDbEntity
  8
SMUSSO
100
AcDbLine
 62
7
  6
CONTINUOUS
 10
27.54
 20
-45.5
 11
27.3673084156
 21
-45.3273084156
  0
LINE
  5
4CC
100
AcDbEntity
  8
ASSI
100
AcDbLine
 62
7
  6
CONTINUOUS
 10
8.790360704
 20
-26.3732713192
 11
8.0403688829
 21
-25.6232794982
  0
LINE
  5
4CD
100
AcDbEntity
  8
ASSI
100
AcDbLine
 62
7
  6
CONTINUOUS
 10
8.8
 20
-26.35
 11
8.4397929133
 21
-25.9897929133
  0
LINE
  5
4CE
100
AcDbEntity
  8
RACCORDO
100
AcDbLine
 62
253
  6
CONTINUOUS
 10
-24.949969539
 20
8.25
 11
-24.9849405955
 21
8.2849710564
  0
LINE
  5
4CF
100
AcDbEntity
  8
RACCORDO
100
AcDbLine
 62
253
  6
CONTINUOUS
 10
-24.7497544191
 20
8.4497239581
 11
-24.7849710564
 21
8.4849405955
  0
LINE
  5
4D0
100
AcDbEntity
  8
RACCORDO
100
AcDbLine
 62
253
  6
CONTINUOUS
 10
-25.7150289436
 20
12.6650594045
 11
-25.75
 21
12.700030461
  0
LINE
  5
4D1
100
AcDbEntity
  8
RACCORDO
100
AcDbLine
 62
253
  6
CONTINUOUS
 10
-25.5150594045
 20
12.8650289436
 11
-25.550030461
 21
12.9
  0
LINE
  5
4D2
100
AcDbEntity
  8
RACCORDO
100
AcDbLine
 62
7
  6
CONTINUOUS
 10
-8.3
 20
-26.8075
 11
-8.3
 21
-28.7575
  0
LINE
  5
4D3
100
AcDbEntity
  8
RACCORDO
100
AcDbLine
 62
7
  6
CONTINUOUS
 10
-8.3
 20
26.8075
 11
-8.3
 21
28.7575
  0
LINE
  5
4D4
100
AcDbEntity
  8
ASSI
100
AcDbLine
 62
253
  6
CONTINUOUS
 10
-8.2400670064
 20
-25.7916264167
 11
-8.2400670064
 21
-25.200274093
  0
LINE
  5
4D5
100
AcDbEntity
  8
ASSI
100
AcDbLine
 62
253
  6
CONTINUOUS
 10
-8.2400670064
 20
25.200274093
 11
-8.2400670064
 21
25.7916264167
  0
LINE
  5
4D6
100
AcDbEntity
  8
ASSI
100
AcDbLine
 62
7
  6
CONTINUOUS
 10
-8.0403688829
 20
25.6232794982
 11
-8.0403688829
 21
25.2
  0
LINE
  5
4D7
100
AcDbEntity
  8
ASSI
100
AcDbLine
 62
7
  6
CONTINUOUS
 10
-8.0403688829
 20
-25.6232794982
 11
-8.0403688829
 21
-25.2
  0
LINE
  5
4D8
100
AcDbEntity
  8
RACCORDO
100
AcDbLine
 62
7
  6
CONTINUOUS
 10
-8.0
 20
24.2928932188
 11
-8.0
 21
23.0000456984
  0
LINE
  5
4D9
100
AcDbEntity
  8
RACCORDO
100
AcDbLine
 62
7
  6
CONTINUOUS
 10
-8.0
 20
-23.0000456984
 11
-8.0
 21
-24.2928932188
  0
LINE
  5
4DA
100
AcDbEntity
  8
RACCORDO
100
AcDbLine
 62
7
  6
CONTINUOUS
 10
-8.0
 20
-24.656344058
 11
-8.0
 21
-25.2
  0
LINE
  5
4DB
100
AcDbEntity
  8
RACCORDO
100
AcDbLine
 62
7
  6
CONTINUOUS
 10
-8.0
 20
24.656344058
 11
-8.0
 21
25.2
  0
LINE
  5
4DC
100
AcDbEntity
  8
DRAFT
100
AcDbLine
 62
7
  6
CONTINUOUS
 10
-12.5286476304
 20
-26.35
 11
-12.6741375
 21
-26.8929755853
  0
LINE
  5
4DD
100
AcDbEntity
  8
DRAFT
100
AcDbLine
 62
7
  6
CONTINUOUS
 10
-12.5276555631
 20
-26.3732713192
 11
-12.6672468462
 21
-26.8948219304
  0
LINE
  5
4DE
100
AcDbEntity
  8
0
100
AcDbLine
 62
7
  6
CONTINUOUS
 10
-17.828511
 20
-33.076576
 11
-17.251649
 21
-31.355444
  0
LINE
  5
4DF
100
AcDbEntity
  8
0
100
AcDbLine
 62
7
  6
CONTINUOUS
 10
-17.377335
 20
-31.027135
 11
-17.962729
 21
-32.768485
  0
LINE
  5
4E0
100
AcDbEntity
  8
0
100
AcDbLine
 62
7
  6
CONTINUOUS
 10
-16.452102
 20
-33.076576
 11
-16.237872
 21
-32.479652
  0
LINE
  5
4E1
100
AcDbEntity
  8
0
100
AcDbLine
 62
7
  6
CONTINUOUS
 10
-16.152147
 20
-32.234249
 11
-15.820906
 21
-31.324172
  0
LINE
  5
4E2
100
AcDbEntity
  8
0
100
AcDbLine
 62
7
  6
CONTINUOUS
 10
-15.966603
 20
-31.027135
 11
-16.737631
 21
-33.076576
  0
LINE
  5
4E3
100
AcDbEntity
  8
0
100
AcDbLine
 62
7
  6
CONTINUOUS
 10
-32.625
 20
-34.8510638475
 11
-32.5416666269
 21
-34.7234042883
  0
LINE
  5
4E4
100
AcDbEntity
  8
0
100
AcDbLine
 62
7
  6
CONTINUOUS
 10
-31.0416667461
 20
-34.4680850506
 11
-30.9583332539
 21
-34.3404254913
  0
LINE
  5
4E5
100
AcDbEntity
  8
0
100
AcDbLine
 62
7
  6
CONTINUOUS
 10
-30.0833332539
 20
-35.5319148898
 11
-30.1666667461
 21
-35.6595744789
  0
LINE
  5
4E6
100
AcDbEntity
  8
0
100
AcDbLine
 62
7
  6
CONTINUOUS
 10
-27.25
 20
-34.4680850506
 11
-27.1666665077
 21
-34.3404254913
  0
LINE
  5
4E7
100
AcDbEntity
  8
0
100
AcDbLine
 62
7
  6
CONTINUOUS
 10
-31.0833332539
 20
-34.1702127457
 11
-31.2083332539
 21
-34.3404254913
  0
LINE
  5
4E8
100
AcDbEntity
  8
0
100
AcDbLine
 62
7
  6
CONTINUOUS
 10
22.3880774906
 20
31.7533762561
 11
20.1828764162
 21
29.7347752009
  0
LINE
  5
4E9
100
AcDbEntity
  8
0
100
AcDbLine
 62
7
  6
CONTINUOUS
 10
20.1828764162
 20
29.4843938192
 11
20.9097731012
 21
30.147377362
  0
LINE
  5
4EA
100
AcDbEntity
  8
0
100
AcDbLine
 62
7
  6
CONTINUOUS
 10
21.0669203631
 20
30.2947070382
 11
22.6680434092
 21
31.7533762561
  0
LINE
  5
4EB
100
AcDbEntity
  8
RACCORDO
100
AcDbLine
 62
253
  6
CONTINUOUS
 10
25.5150594045
 20
-8.2849710564
 11
24.9849405955
 21
-8.2849710564
  0
LINE
  5
4EC
100
AcDbEntity
  8
RACCORDO
100
AcDbLine
 62
253
  6
CONTINUOUS
 10
-24.9849405955
 20
-8.2849710564
 11
-25.5150594045
 21
-8.2849710564
  0
LINE
  5
4ED
100
AcDbEntity
  8
RACCORDO
100
AcDbLine
 62
7
  6
CONTINUOUS
 10
25.550030461
 20
-8.25
 11
24.949969539
 21
-8.25
  0
LINE
  5
4EE
100
AcDbEntity
  8
RACCORDO
100
AcDbLine
 62
7
  6
CONTINUOUS
 10
-24.949969539
 20
-8.25
 11
-25.550030461
 21
-8.25
  0
LINE
  5
4EF
100
AcDbEntity
  8
RACCORDO
100
AcDbLine
 62
7
  6
CONTINUOUS
 10
-24.2
 20
-7.0
 11
-22.9999543085
 21
-7.0
  0
LINE
  5
4F0
100
AcDbEntity
  8
RACCORDO
100
AcDbLine
 62
7
  6
CONTINUOUS
 10
22.9999543085
 20
-7.0
 11
24.2
 21
-7.0
  0
LINE
  5
4F1
100
AcDbEntity
  8
RACCORDO
100
AcDbLine
 62
253
  6
CONTINUOUS
 10
24.3596916756
 20
-6.9387787509
 11
24.6596459841
 21
-6.9387787509
  0
LINE
  5
4F2
100
AcDbEntity
  8
RACCORDO
100
AcDbLine
 62
253
  6
CONTINUOUS
 10
-24.3596916756
 20
-6.9387787509
 11
-24.6596459841
 21
-6.9387787518
  0
LINE
  5
4F3
100
AcDbEntity
  8
DRAFT
100
AcDbLine
 62
7
  6
CONTINUOUS
 10
-12.6741375
 20
26.8929755853
 11
-12.5286476304
 21
26.35
  0
LINE
  5
4F4
100
AcDbEntity
  8
DRAFT
100
AcDbLine
 62
7
  6
CONTINUOUS
 10
-12.6672468462
 20
26.8948219304
 11
-12.5276555631
 21
26.3732713192
  0
LINE
  5
4F5
100
AcDbEntity
  8
DRAFT
100
AcDbLine
 62
7
  6
CONTINUOUS
 10
-0.6
 20
24.65
 11
-0.6
 21
23.5
  0
LINE
  5
4F6
100
AcDbEntity
  8
DRAFT
100
AcDbLine
 62
7
  6
CONTINUOUS
 10
-0.6
 20
-24.65
 11
-0.6
 21
-23.5
  0
LINE
  5
4F7
100
AcDbEntity
  8
RACCORDO
100
AcDbLine
 62
7
  6
CONTINUOUS
 10
-0.6
 20
-24.65
 11
-0.6
 21
-25.1675656165
  0
LINE
  5
4F8
100
AcDbEntity
  8
RACCORDO
100
AcDbLine
 62
7
  6
CONTINUOUS
 10
-0.6
 20
24.65
 11
-0.6
 21
25.1675656165
  0
LINE
  5
4F9
100
AcDbEntity
  8
RACCORDO
100
AcDbLine
 62
253
  6
CONTINUOUS
 10
5.3521364884
 20
33.3765671235
 11
5.2277163053
 21
32.6006678916
  0
LINE
  5
4FA
100
AcDbEntity
  8
RACCORDO
100
AcDbLine
 62
253
  6
CONTINUOUS
 10
4.1478635116
 20
25.8665759397
 11
4.2722836947
 21
26.6424751716
  0
LINE
  5
4FB
100
AcDbEntity
  8
RACCORDO
100
AcDbLine
 62
253
  6
CONTINUOUS
 10
-4.1478635116
 20
-25.8665759397
 11
-4.2722836947
 21
-26.6424751716
  0
LINE
  5
4FC
100
AcDbEntity
  8
RACCORDO
100
AcDbLine
 62
253
  6
CONTINUOUS
 10
-5.3521364884
 20
-33.3765671235
 11
-5.2277163053
 21
-32.6006678916
  0
LINE
  5
4FD
100
AcDbEntity
  8
ASSI
100
AcDbLine
 62
7
  6
CONTINUOUS
 10
-10.45
 20
-26.1
 11
-10.4562355312
 21
-26.1232713192
  0
LINE
  5
4FE
100
AcDbEntity
  8
ASSI
100
AcDbLine
 62
7
  6
CONTINUOUS
 10
-10.0169872981
 20
-26.35
 11
-10.0232228293
 21
-26.3732713192
  0
LINE
  5
4FF
100
AcDbEntity
  8
DRAFT
100
AcDbLine
 62
7
  6
CONTINUOUS
 10
-9.0286476304
 20
-26.35
 11
-9.1741375
 21
-26.8929755853
  0
LINE
  5
500
100
AcDbEntity
  8
DRAFT
100
AcDbLine
 62
7
  6
CONTINUOUS
 10
-9.0276555631
 20
-26.3732713192
 11
-9.1672468462
 21
-26.8948219304
  0
LINE
  5
501
100
AcDbEntity
  8
0
100
AcDbLine
 62
7
  6
CONTINUOUS
 10
-15.921005
 20
-38.972865
 11
-15.706775
 21
-38.37594
  0
LINE
  5
502
100
AcDbEntity
  8
0
100
AcDbLine
 62
7
  6
CONTINUOUS
 10
-15.621216
 20
-38.130538
 11
-15.289808
 21
-37.220463
  0
LINE
  5
503
100
AcDbEntity
  8
0
100
AcDbLine
 62
7
  6
CONTINUOUS
 10
-15.435506
 20
-36.921766
 11
-16.206534
 21
-38.972865
  0
LINE
  5
504
100
AcDbEntity
  8
ASSI
100
AcDbLine
 62
7
  6
CONTINUOUS
 10
-13.7
 20
-26.35
 11
-13.709639296
 21
-26.3732713192
  0
LINE
  5
505
100
AcDbEntity
  8
0
100
AcDbLine
 62
7
  6
CONTINUOUS
 10
-26.125
 20
-34.8510638475
 11
-26.0416665077
 21
-34.7234042883
  0
LINE
  5
506
100
AcDbEntity
  8
0
100
AcDbLine
 62
7
  6
CONTINUOUS
 10
-30.0416667461
 20
-35.8297872394
 11
-29.9166665077
 21
-35.6595744789
  0
LINE
  5
507
100
AcDbEntity
  8
0
100
AcDbLine
 62
7
  6
CONTINUOUS
 10
-31.9166667461
 20
-34.0
 11
-32.1666666269
 21
-34.2978723049
  0
LINE
  5
508
100
AcDbEntity
  8
0
100
AcDbLine
 62
7
  6
CONTINUOUS
 10
-32.1666666269
 20
-34.6382979155
 11
-31.9166667461
 21
-34.3404254913
  0
LINE
  5
509
100
AcDbEntity
  8
0
100
AcDbLine
 62
7
  6
CONTINUOUS
 10
-33.75
 20
-34.1276595592
 11
-33.9166666642
 21
-34.2978723049
  0
LINE
  5
50A
100
AcDbEntity
  8
RACCORDO
100
AcDbLine
 62
7
  6
CONTINUOUS
 10
-24.4754410559
 20
-19.7254410559
 11
-24.4931702905
 21
-19.7431702905
  0
LINE
  5
50B
100
AcDbEntity
  8
RACCORDO
100
AcDbLine
 62
7
  6
CONTINUOUS
 10
22.4088798489
 20
24.6588798489
 11
22.4
 21
24.65
  0
LINE
  5
50C
100
AcDbEntity
  8
RACCORDO
100
AcDbLine
 62
253
  6
CONTINUOUS
 10
43.3503046097
 20
45.35
 11
43.3101579604
 21
45.3098533507
  0
LINE
  5
50D
100
AcDbEntity
  8
RACCORDO
100
AcDbLine
 62
253
  6
CONTINUOUS
 10
-45.35
 20
-43.3503046097
 11
-45.3098533507
 21
-43.3101579604
  0
LINE
  5
50E
100
AcDbEntity
  8
RACCORDO
100
AcDbLine
 62
7
  6
CONTINUOUS
 10
-24.3588798489
 20
-22.7088798489
 11
-24.35
 21
-22.7
  0
LINE
  5
50F
100
AcDbEntity
  8
RACCORDO
100
AcDbLine
 62
253
  6
CONTINUOUS
 10
43.3727981978
 20
44.0726915844
 11
43.3501066134
 21
44.05
  0
LINE
  5
510
100
AcDbEntity
  8
RACCORDO
100
AcDbLine
 62
253
  6
CONTINUOUS
 10
-44.0726915844
 20
-43.3727981978
 11
-44.05
 21
-43.3501066134
  0
LINE
  5
511
100
AcDbEntity
  8
RACCORDO
100
AcDbLine
 62
253
  6
CONTINUOUS
 10
22.4088798489
 20
23.0088341575
 11
22.4
 21
22.9999543085
  0
LINE
  5
512
100
AcDbEntity
  8
RACCORDO
100
AcDbLine
 62
253
  6
CONTINUOUS
 10
-22.6735835007
 20
-22.3239946403
 11
-22.7
 21
-22.3504111396
  0
LINE
  5
513
100
AcDbEntity
  8
RACCORDO
100
AcDbLine
 62
253
  6
CONTINUOUS
 10
22.4368839754
 20
22.6864728358
 11
22.3739946403
 21
22.6235835007
  0
LINE
  5
514
100
AcDbEntity
  8
RACCORDO
100
AcDbLine
 62
253
  6
CONTINUOUS
 10
22.7088341575
 20
22.7088798489
 11
22.6999543085
 21
22.7
  0
LINE
  5
515
100
AcDbEntity
  8
DRAFT
100
AcDbLine
 62
7
  6
CONTINUOUS
 10
-43.0325449351
 20
-43.0325449351
 11
-43.05
 21
-43.05
  0
LINE
  5
516
100
AcDbEntity
  8
DRAFT
100
AcDbLine
 62
7
  6
CONTINUOUS
 10
43.0325449351
 20
43.0325449351
 11
43.05
 21
43.05
  0
LINE
  5
517
100
AcDbEntity
  8
RACCORDO
100
AcDbLine
 62
253
  6
CONTINUOUS
 10
-22.7088341575
 20
-22.7088798489
 11
-22.6999543085
 21
-22.7
  0
LINE
  5
518
100
AcDbEntity
  8
RACCORDO
100
AcDbLine
 62
253
  6
CONTINUOUS
 10
-22.3739946403
 20
-22.6235835007
 11
-22.4368839754
 21
-22.6864728358
  0
LINE
  5
519
100
AcDbEntity
  8
RACCORDO
100
AcDbLine
 62
253
  6
CONTINUOUS
 10
22.7
 20
22.3504111396
 11
22.6735835007
 21
22.3239946403
  0
LINE
  5
51A
100
AcDbEntity
  8
RACCORDO
100
AcDbLine
 62
253
  6
CONTINUOUS
 10
-22.4088798489
 20
-23.0088341575
 11
-22.4
 21
-22.9999543085
  0
LINE
  5
51B
100
AcDbEntity
  8
RACCORDO
100
AcDbLine
 62
253
  6
CONTINUOUS
 10
44.0726915844
 20
43.3727981978
 11
44.05
 21
43.3501066134
  0
LINE
  5
51C
100
AcDbEntity
  8
RACCORDO
100
AcDbLine
 62
253
  6
CONTINUOUS
 10
-43.3727981978
 20
-44.0726915844
 11
-43.3501066134
 21
-44.05
  0
LINE
  5
51D
100
AcDbEntity
  8
RACCORDO
100
AcDbLine
 62
253
  6
CONTINUOUS
 10
-24.867531229
 20
-7.7733686226
 11
-28.9611931911
 21
-8.4951916764
  0
LINE
  5
51E
100
AcDbEntity
  8
RACCORDO
100
AcDbLine
 62
253
  6
CONTINUOUS
 10
-24.9187017664
 20
-7.4831660837
 11
-29.0123637286
 21
-8.2049891375
  0
LINE
  5
51F
100
AcDbEntity
  8
RACCORDO
100
AcDbLine
 62
253
  6
CONTINUOUS
 10
-24.6596459841
 20
-6.9388119964
 11
-29.0976479577
 21
-7.7213182393
  0
LINE
  5
520
100
AcDbEntity
  8
RACCORDO
100
AcDbLine
 62
253
  6
CONTINUOUS
 10
-32.6006678916
 20
-5.2277163053
 11
-33.3765671235
 21
-5.3521364884
  0
LINE
  5
521
100
AcDbEntity
  8
RACCORDO
100
AcDbLine
 62
253
  6
CONTINUOUS
 10
32.6006678916
 20
5.2277163053
 11
33.3765671235
 21
5.3521364884
  0
LINE
  5
522
100
AcDbEntity
  8
DRAFT
100
AcDbLine
 62
7
  6
CONTINUOUS
 10
-24.35
 20
-0.6
 11
-23.5
 21
-0.6
  0
LINE
  5
523
100
AcDbEntity
  8
DRAFT
100
AcDbLine
 62
7
  6
CONTINUOUS
 10
24.35
 20
-0.6
 11
23.5
 21
-0.6
  0
LINE
  5
524
100
AcDbEntity
  8
RACCORDO
100
AcDbLine
 62
7
  6
CONTINUOUS
 10
24.35
 20
-0.6
 11
24.7
 21
-0.6
  0
LINE
  5
525
100
AcDbEntity
  8
RACCORDO
100
AcDbLine
 62
7
  6
CONTINUOUS
 10
-24.35
 20
-0.6
 11
-24.7
 21
-0.6
  0
LINE
  5
526
100
AcDbEntity
  8
RACCORDO
100
AcDbLine
 62
253
  6
CONTINUOUS
 10
-32.6006678916
 20
5.2277163053
 11
-33.3765671235
 21
5.3521364884
  0
LINE
  5
527
100
AcDbEntity
  8
RACCORDO
100
AcDbLine
 62
253
  6
CONTINUOUS
 10
33.3765671235
 20
-5.3521364884
 11
32.6006678916
 21
-5.2277163053
  0
LINE
  5
528
100
AcDbEntity
  8
RACCORDO
100
AcDbLine
 62
253
  6
CONTINUOUS
 10
28.9611931911
 20
-8.4951916764
 11
24.867531229
 21
-7.7733686226
  0
LINE
  5
529
100
AcDbEntity
  8
RACCORDO
100
AcDbLine
 62
253
  6
CONTINUOUS
 10
29.0123637286
 20
-8.2049891375
 11
24.9187017664
 21
-7.4831660837
  0
LINE
  5
52A
100
AcDbEntity
  8
RACCORDO
100
AcDbLine
 62
253
  6
CONTINUOUS
 10
29.0976479577
 20
-7.7213182393
 11
24.6596459841
 21
-6.9388120306
  0
LINE
  5
52B
100
AcDbEntity
  8
RACCORDO
100
AcDbLine
 62
7
  6
CONTINUOUS
 10
-24.4754410559
 20
19.7254410559
 11
-24.4931702905
 21
19.7431702905
  0
LINE
  5
52C
100
AcDbEntity
  8
RACCORDO
100
AcDbLine
 62
7
  6
CONTINUOUS
 10
22.4088798489
 20
-24.6588798489
 11
22.4
 21
-24.65
  0
LINE
  5
52D
100
AcDbEntity
  8
RACCORDO
100
AcDbLine
 62
253
  6
CONTINUOUS
 10
-45.35
 20
43.3503046097
 11
-45.3098533507
 21
43.3101579604
  0
LINE
  5
52E
100
AcDbEntity
  8
RACCORDO
100
AcDbLine
 62
253
  6
CONTINUOUS
 10
43.3503046097
 20
-45.35
 11
43.3101579604
 21
-45.3098533507
  0
LINE
  5
52F
100
AcDbEntity
  8
RACCORDO
100
AcDbLine
 62
7
  6
CONTINUOUS
 10
-24.3588798489
 20
22.7088798489
 11
-24.35
 21
22.7
  0
LINE
  5
530
100
AcDbEntity
  8
RACCORDO
100
AcDbLine
 62
253
  6
CONTINUOUS
 10
-44.0726915844
 20
43.3727981978
 11
-44.05
 21
43.3501066134
  0
LINE
  5
531
100
AcDbEntity
  8
RACCORDO
100
AcDbLine
 62
253
  6
CONTINUOUS
 10
43.3501066134
 20
-44.05
 11
43.3727981978
 21
-44.0726915844
  0
LINE
  5
532
100
AcDbEntity
  8
RACCORDO
100
AcDbLine
 62
253
  6
CONTINUOUS
 10
22.4088798489
 20
-23.0088341575
 11
22.4
 21
-22.9999543085
  0
LINE
  5
533
100
AcDbEntity
  8
RACCORDO
100
AcDbLine
 62
253
  6
CONTINUOUS
 10
-22.6735835007
 20
22.3239946403
 11
-22.7
 21
22.3504111396
  0
LINE
  5
534
100
AcDbEntity
  8
RACCORDO
100
AcDbLine
 62
253
  6
CONTINUOUS
 10
22.3739946403
 20
-22.6235835007
 11
22.4368839754
 21
-22.6864728358
  0
LINE
  5
535
100
AcDbEntity
  8
RACCORDO
100
AcDbLine
 62
253
  6
CONTINUOUS
 10
22.7088341575
 20
-22.7088798489
 11
22.6999543085
 21
-22.7
  0
LINE
  5
536
100
AcDbEntity
  8
DRAFT
100
AcDbLine
 62
7
  6
CONTINUOUS
 10
43.0325449351
 20
-43.0325449351
 11
43.05
 21
-43.05
  0
LINE
  5
537
100
AcDbEntity
  8
DRAFT
100
AcDbLine
 62
7
  6
CONTINUOUS
 10
-43.0325449351
 20
43.0325449351
 11
-43.05
 21
43.05
  0
LINE
  5
538
100
AcDbEntity
  8
RACCORDO
100
AcDbLine
 62
253
  6
CONTINUOUS
 10
-22.7088341575
 20
22.7088798489
 11
-22.6999543085
 21
22.7
  0
LINE
  5
539
100
AcDbEntity
  8
RACCORDO
100
AcDbLine
 62
253
  6
CONTINUOUS
 10
-22.3739946403
 20
22.6235835007
 11
-22.4368839754
 21
22.6864728358
  0
LINE
  5
53A
100
AcDbEntity
  8
RACCORDO
100
AcDbLine
 62
253
  6
CONTINUOUS
 10
22.6735835007
 20
-22.3239946403
 11
22.7
 21
-22.3504111396
  0
LINE
  5
53B
100
AcDbEntity
  8
RACCORDO
100
AcDbLine
 62
253
  6
CONTINUOUS
 10
-22.4088798489
 20
23.0088341575
 11
-22.4
 21
22.9999543085
  0
LINE
  5
53C
100
AcDbEntity
  8
RACCORDO
100
AcDbLine
 62
253
  6
CONTINUOUS
 10
-43.3727981978
 20
44.0726915844
 11
-43.3501066134
 21
44.05
  0
LINE
  5
53D
100
AcDbEntity
  8
RACCORDO
100
AcDbLine
 62
253
  6
CONTINUOUS
 10
44.05
 20
-43.3501066134
 11
44.0726915844
 21
-43.3727981978
  0
LINE
  5
53E
100
AcDbEntity
  8
ASSI
100
AcDbLine
 62
7
  6
CONTINUOUS
 10
-13.7
 20
26.35
 11
-13.709639296
 21
26.3732713192
  0
LINE
  5
53F
100
AcDbEntity
  8
ASSI
100
AcDbLine
 62
7
  6
CONTINUOUS
 10
-10.45
 20
26.1
 11
-10.4562355312
 21
26.1232713192
  0
LINE
  5
540
100
AcDbEntity
  8
ASSI
100
AcDbLine
 62
7
  6
CONTINUOUS
 10
-10.0169872981
 20
26.35
 11
-10.0232228293
 21
26.3732713192
  0
LINE
  5
541
100
AcDbEntity
  8
DRAFT
100
AcDbLine
 62
7
  6
CONTINUOUS
 10
-9.1741375
 20
26.8929755853
 11
-9.0286476304
 21
26.35
  0
LINE
  5
542
100
AcDbEntity
  8
DRAFT
100
AcDbLine
 62
7
  6
CONTINUOUS
 10
-9.1672468462
 20
26.8948219304
 11
-9.0276555631
 21
26.3732713192
  0
LINE
  5
543
100
AcDbEntity
  8
RACCORDO
100
AcDbLine
 62
253
  6
CONTINUOUS
 10
-5.3521364884
 20
33.3765671235
 11
-5.2277163053
 21
32.6006678916
  0
LINE
  5
544
100
AcDbEntity
  8
RACCORDO
100
AcDbLine
 62
253
  6
CONTINUOUS
 10
5.3521364884
 20
-33.3765671235
 11
5.2277163053
 21
-32.6006678916
  0
LINE
  5
545
100
AcDbEntity
  8
RACCORDO
100
AcDbLine
 62
253
  6
CONTINUOUS
 10
-4.1478635116
 20
25.8665759397
 11
-4.2722836947
 21
26.6424751716
  0
LINE
  5
546
100
AcDbEntity
  8
RACCORDO
100
AcDbLine
 62
253
  6
CONTINUOUS
 10
4.1478635116
 20
-25.8665759397
 11
4.2722836947
 21
-26.6424751716
  0
LINE
  5
547
100
AcDbEntity
  8
DRAFT
100
AcDbLine
 62
7
  6
CONTINUOUS
 10
0.6
 20
24.65
 11
0.6
 21
23.5
  0
LINE
  5
548
100
AcDbEntity
  8
DRAFT
100
AcDbLine
 62
7
  6
CONTINUOUS
 10
0.6
 20
-24.65
 11
0.6
 21
-23.5
  0
LINE
  5
549
100
AcDbEntity
  8
RACCORDO
100
AcDbLine
 62
7
  6
CONTINUOUS
 10
0.6
 20
-24.65
 11
0.6
 21
-25.1675656165
  0
LINE
  5
54A
100
AcDbEntity
  8
RACCORDO
100
AcDbLine
 62
7
  6
CONTINUOUS
 10
0.6
 20
24.65
 11
0.6
 21
25.1675656165
  0
LINE
  5
54B
100
AcDbEntity
  8
DRAFT
100
AcDbLine
 62
7
  6
CONTINUOUS
 10
9.0276555631
 20
26.3732713192
 11
9.1672468462
 21
26.8948219304
  0
LINE
  5
54C
100
AcDbEntity
  8
DRAFT
100
AcDbLine
 62
7
  6
CONTINUOUS
 10
9.0286476304
 20
26.35
 11
9.1741375
 21
26.8929755853
  0
LINE
  5
54D
100
AcDbEntity
  8
ASSI
100
AcDbLine
 62
7
  6
CONTINUOUS
 10
10.0169872981
 20
26.35
 11
10.0232228293
 21
26.3732713192
  0
LINE
  5
54E
100
AcDbEntity
  8
ASSI
100
AcDbLine
 62
7
  6
CONTINUOUS
 10
10.45
 20
26.1
 11
10.4562355312
 21
26.1232713192
  0
LINE
  5
54F
100
AcDbEntity
  8
ASSI
100
AcDbLine
 62
7
  6
CONTINUOUS
 10
13.7
 20
26.35
 11
13.709639296
 21
26.3732713192
  0
LINE
  5
550
100
AcDbEntity
  8
0
100
AcDbLine
 62
7
  6
CONTINUOUS
 10
-28.5
 20
-34.0
 11
-29.5
 21
-35.1489361525
  0
LINE
  5
551
100
AcDbEntity
  8
0
100
AcDbLine
 62
7
  6
CONTINUOUS
 10
-29.2083334923
 20
-35.1489361525
 11
-28.5
 21
-34.3404254913
  0
LINE
  5
552
100
AcDbEntity
  8
0
100
AcDbLine
 62
7
  6
CONTINUOUS
 10
-31.0416667461
 20
-35.1489361525
 11
-30.9583332539
 21
-35.0638297796
  0
LINE
  5
553
100
AcDbEntity
  8
0
100
AcDbLine
 62
7
  6
CONTINUOUS
 10
-27.25
 20
-34.1276595592
 11
-27.4166665077
 21
-34.2978723049
  0
LINE
  5
554
100
AcDbEntity
  8
RACCORDO
100
AcDbLine
 62
7
  6
CONTINUOUS
 10
24.35
 20
22.7
 11
24.3588798489
 21
22.7088798489
  0
LINE
  5
555
100
AcDbEntity
  8
RACCORDO
100
AcDbLine
 62
253
  6
CONTINUOUS
 10
45.35
 20
43.3503046097
 11
45.3098533507
 21
43.3101579604
  0
LINE
  5
556
100
AcDbEntity
  8
RACCORDO
100
AcDbLine
 62
253
  6
CONTINUOUS
 10
-43.3503046097
 20
-45.35
 11
-43.3101579604
 21
-45.3098533507
  0
LINE
  5
557
100
AcDbEntity
  8
RACCORDO
100
AcDbLine
 62
7
  6
CONTINUOUS
 10
-22.4088798489
 20
-24.6588798489
 11
-22.4
 21
-24.65
  0
LINE
  5
558
100
AcDbEntity
  8
RACCORDO
100
AcDbLine
 62
7
  6
CONTINUOUS
 10
24.4931702905
 20
19.7431702905
 11
24.4754410559
 21
19.7254410559
  0
LINE
  5
559
100
AcDbEntity
  8
0
100
AcDbLine
 62
7
  6
CONTINUOUS
 10
-32.8333333731
 20
-34.7234042883
 11
-34.0
 21
-35.7872340381
  0
LINE
  5
55A
100
AcDbEntity
  8
0
100
AcDbLine
 62
7
  6
CONTINUOUS
 10
-33.6666666567
 20
-35.7872340381
 11
-32.625
 21
-34.8510638475
  0
LINE
  5
55B
100
AcDbEntity
  8
RACCORDO
100
AcDbLine
 62
253
  6
CONTINUOUS
 10
24.6596459841
 20
6.9388119964
 11
29.0976479577
 21
7.7213182393
  0
LINE
  5
55C
100
AcDbEntity
  8
RACCORDO
100
AcDbLine
 62
253
  6
CONTINUOUS
 10
24.9187017664
 20
7.4831660837
 11
29.0123637286
 21
8.2049891375
  0
LINE
  5
55D
100
AcDbEntity
  8
RACCORDO
100
AcDbLine
 62
253
  6
CONTINUOUS
 10
24.867531229
 20
7.7733686226
 11
28.9611931911
 21
8.4951916764
  0
LINE
  5
55E
100
AcDbEntity
  8
DRAFT
100
AcDbLine
 62
7
  6
CONTINUOUS
 10
-24.35
 20
0.6
 11
-23.5
 21
0.6
  0
LINE
  5
55F
100
AcDbEntity
  8
DRAFT
100
AcDbLine
 62
7
  6
CONTINUOUS
 10
24.35
 20
0.6
 11
23.5
 21
0.6
  0
LINE
  5
560
100
AcDbEntity
  8
RACCORDO
100
AcDbLine
 62
7
  6
CONTINUOUS
 10
-24.35
 20
0.6
 11
-24.7
 21
0.6
  0
LINE
  5
561
100
AcDbEntity
  8
RACCORDO
100
AcDbLine
 62
7
  6
CONTINUOUS
 10
24.35
 20
0.6
 11
24.7
 21
0.6
  0
LINE
  5
562
100
AcDbEntity
  8
RACCORDO
100
AcDbLine
 62
253
  6
CONTINUOUS
 10
-29.0976479577
 20
7.7213182393
 11
-24.6596459841
 21
6.9388120306
  0
LINE
  5
563
100
AcDbEntity
  8
RACCORDO
100
AcDbLine
 62
253
  6
CONTINUOUS
 10
-29.0123637286
 20
8.2049891375
 11
-24.9187017664
 21
7.4831660837
  0
LINE
  5
564
100
AcDbEntity
  8
RACCORDO
100
AcDbLine
 62
253
  6
CONTINUOUS
 10
-28.9611931911
 20
8.4951916764
 11
-24.867531229
 21
7.7733686226
  0
LINE
  5
565
100
AcDbEntity
  8
RACCORDO
100
AcDbLine
 62
7
  6
CONTINUOUS
 10
24.3588798489
 20
-22.7088798489
 11
24.35
 21
-22.7
  0
LINE
  5
566
100
AcDbEntity
  8
RACCORDO
100
AcDbLine
 62
253
  6
CONTINUOUS
 10
-43.3503046097
 20
45.35
 11
-43.3101579604
 21
45.3098533507
  0
LINE
  5
567
100
AcDbEntity
  8
RACCORDO
100
AcDbLine
 62
253
  6
CONTINUOUS
 10
45.35
 20
-43.3503046097
 11
45.3098533507
 21
-43.3101579604
  0
LINE
  5
568
100
AcDbEntity
  8
RACCORDO
100
AcDbLine
 62
7
  6
CONTINUOUS
 10
-22.4088798489
 20
24.6588798489
 11
-22.4
 21
24.65
  0
LINE
  5
569
100
AcDbEntity
  8
RACCORDO
100
AcDbLine
 62
7
  6
CONTINUOUS
 10
24.4931702905
 20
-19.7431702905
 11
24.4754410559
 21
-19.7254410559
  0
LINE
  5
56A
100
AcDbEntity
  8
ASSI
100
AcDbLine
 62
7
  6
CONTINUOUS
 10
13.7
 20
-26.35
 11
13.709639296
 21
-26.3732713192
  0
LINE
  5
56B
100
AcDbEntity
  8
DRAFT
100
AcDbLine
 62
7
  6
CONTINUOUS
 10
9.1741375
 20
-26.8929755853
 11
9.0286476304
 21
-26.35
  0
LINE
  5
56C
100
AcDbEntity
  8
ASSI
100
AcDbLine
 62
7
  6
CONTINUOUS
 10
10.0169872981
 20
-26.35
 11
10.0232228293
 21
-26.3732713192
  0
LINE
  5
56D
100
AcDbEntity
  8
ASSI
100
AcDbLine
 62
7
  6
CONTINUOUS
 10
10.45
 20
-26.1
 11
10.4562355312
 21
-26.1232713192
  0
LINE
  5
56E
100
AcDbEntity
  8
DRAFT
100
AcDbLine
 62
7
  6
CONTINUOUS
 10
9.1672468462
 20
-26.8948219304
 11
9.0276555631
 21
-26.3732713192
  0
LINE
  5
56F
100
AcDbEntity
  8
DRAFT
100
AcDbLine
 62
7
  6
CONTINUOUS
 10
9.9713523696
 20
-26.35
 11
9.9723444369
 21
-26.3732713192
  0
LINE
  5
570
100
AcDbEntity
  8
RACCORDO
100
AcDbLine
 62
7
  6
CONTINUOUS
 10
8.0
 20
25.2
 11
8.0
 21
24.656344058
  0
LINE
  5
571
100
AcDbEntity
  8
RACCORDO
100
AcDbLine
 62
7
  6
CONTINUOUS
 10
8.0
 20
24.2928932188
 11
8.0
 21
23.0000456984
  0
LINE
  5
572
100
AcDbEntity
  8
RACCORDO
100
AcDbLine
 62
7
  6
CONTINUOUS
 10
8.0
 20
-23.0000456984
 11
8.0
 21
-24.2928932188
  0
LINE
  5
573
100
AcDbEntity
  8
RACCORDO
100
AcDbLine
 62
7
  6
CONTINUOUS
 10
8.0
 20
-24.656344058
 11
8.0
 21
-25.2
  0
LINE
  5
574
100
AcDbEntity
  8
ASSI
100
AcDbLine
 62
7
  6
CONTINUOUS
 10
8.0403688829
 20
25.6232794982
 11
8.0403688829
 21
25.2
  0
LINE
  5
575
100
AcDbEntity
  8
ASSI
100
AcDbLine
 62
7
  6
CONTINUOUS
 10
8.0403688829
 20
-25.2
 11
8.0403688829
 21
-25.6232794982
  0
LINE
  5
576
100
AcDbEntity
  8
ASSI
100
AcDbLine
 62
253
  6
CONTINUOUS
 10
8.2400670064
 20
25.7916264167
 11
8.2400670064
 21
25.200274093
  0
LINE
  5
577
100
AcDbEntity
  8
ASSI
100
AcDbLine
 62
253
  6
CONTINUOUS
 10
8.2400670064
 20
-25.200274093
 11
8.2400670064
 21
-25.7916264167
  0
LINE
  5
578
100
AcDbEntity
  8
RACCORDO
100
AcDbLine
 62
7
  6
CONTINUOUS
 10
8.3
 20
-26.8075
 11
8.3
 21
-28.7575
  0
LINE
  5
579
100
AcDbEntity
  8
RACCORDO
100
AcDbLine
 62
7
  6
CONTINUOUS
 10
8.3
 20
26.8075
 11
8.3
 21
28.7575
  0
LINE
  5
57A
100
AcDbEntity
  8
ASSI
100
AcDbLine
 62
253
  6
CONTINUOUS
 10
8.4397929133
 20
25.9897929133
 11
8.4397929133
 21
25.4
  0
LINE
  5
57B
100
AcDbEntity
  8
ASSI
100
AcDbLine
 62
253
  6
CONTINUOUS
 10
8.4397929133
 20
-25.4
 11
8.4397929133
 21
-25.9897929133
  0
LINE
  5
57C
100
AcDbEntity
  8
RACCORDO
100
AcDbLine
 62
253
  6
CONTINUOUS
 10
8.5
 20
25.05
 11
8.5
 21
24.7
  0
LINE
  5
57D
100
AcDbEntity
  8
RACCORDO
100
AcDbLine
 62
253
  6
CONTINUOUS
 10
8.5
 20
-24.7
 11
8.5
 21
-25.05
  0
LINE
  5
57E
100
AcDbEntity
  8
ASSI
100
AcDbLine
 62
7
  6
CONTINUOUS
 10
8.5
 20
-25.05
 11
8.5
 21
-25.2
  0
LINE
  5
57F
100
AcDbEntity
  8
ASSI
100
AcDbLine
 62
7
  6
CONTINUOUS
 10
8.5
 20
25.05
 11
8.5
 21
25.2
  0
LINE
  5
580
100
AcDbEntity
  8
DRAFT
100
AcDbLine
 62
7
  6
CONTINUOUS
 10
9.9713523696
 20
26.35
 11
9.9723444369
 21
26.3732713192
  0
LINE
  5
581
100
AcDbEntity
  8
DRAFT
100
AcDbLine
 62
7
  6
CONTINUOUS
 10
12.5276555631
 20
26.3732713192
 11
12.6672468462
 21
26.8948219304
  0
LINE
  5
582
100
AcDbEntity
  8
DRAFT
100
AcDbLine
 62
7
  6
CONTINUOUS
 10
12.5286476304
 20
26.35
 11
12.6741375
 21
26.8929755853
  0
LINE
  5
583
100
AcDbEntity
  8
0
100
AcDbLine
 62
7
  6
CONTINUOUS
 10
-11.643211
 20
-36.921766
 11
-12.231513
 21
-37.906691
  0
LINE
  5
584
100
AcDbEntity
  8
RACCORDO
100
AcDbLine
 62
253
  6
CONTINUOUS
 10
25.5150594045
 20
12.8650289436
 11
25.550030461
 21
12.9
  0
LINE
  5
585
100
AcDbEntity
  8
RACCORDO
100
AcDbLine
 62
253
  6
CONTINUOUS
 10
25.7150289436
 20
12.6650594045
 11
25.75
 21
12.700030461
  0
LINE
  5
586
100
AcDbEntity
  8
0
100
AcDbLine
 62
7
  6
CONTINUOUS
 10
-26.3333334923
 20
-34.7234042883
 11
-27.5
 21
-35.7872340381
  0
LINE
  5
587
100
AcDbEntity
  8
0
100
AcDbLine
 62
7
  6
CONTINUOUS
 10
-27.1666665077
 20
-35.7872340381
 11
-26.125
 21
-34.8510638475
  0
LINE
  5
588
100
AcDbEntity
  8
0
100
AcDbLine
 62
7
  6
CONTINUOUS
 10
-33.6666666567
 20
-34.3404254913
 11
-33.5416666567
 21
-34.2553191185
  0
LINE
  5
589
100
AcDbEntity
  8
RACCORDO
100
AcDbLine
 62
253
  6
CONTINUOUS
 10
24.3596916756
 20
6.9387787509
 11
24.6596459841
 21
6.9387787518
  0
LINE
  5
58A
100
AcDbEntity
  8
RACCORDO
100
AcDbLine
 62
253
  6
CONTINUOUS
 10
-24.3596916756
 20
6.9387787509
 11
-24.6596459841
 21
6.9387787509
  0
LINE
  5
58B
100
AcDbEntity
  8
RACCORDO
100
AcDbLine
 62
7
  6
CONTINUOUS
 10
24.2
 20
7.0
 11
22.9999543085
 21
7.0
  0
LINE
  5
58C
100
AcDbEntity
  8
RACCORDO
100
AcDbLine
 62
7
  6
CONTINUOUS
 10
-22.9999543085
 20
7.0
 11
-24.2
 21
7.0
  0
LINE
  5
58D
100
AcDbEntity
  8
RACCORDO
100
AcDbLine
 62
7
  6
CONTINUOUS
 10
-25.550030461
 20
8.25
 11
-24.949969539
 21
8.25
  0
LINE
  5
58E
100
AcDbEntity
  8
RACCORDO
100
AcDbLine
 62
7
  6
CONTINUOUS
 10
24.949969539
 20
8.25
 11
25.550030461
 21
8.25
  0
LINE
  5
58F
100
AcDbEntity
  8
RACCORDO
100
AcDbLine
 62
253
  6
CONTINUOUS
 10
-25.5150594045
 20
8.2849710564
 11
-24.9849405955
 21
8.2849710564
  0
LINE
  5
590
100
AcDbEntity
  8
RACCORDO
100
AcDbLine
 62
253
  6
CONTINUOUS
 10
24.9849405955
 20
8.2849710564
 11
25.5150594045
 21
8.2849710564
  0
LINE
  5
591
100
AcDbEntity
  8
RACCORDO
100
AcDbLine
 62
253
  6
CONTINUOUS
 10
24.7849710564
 20
8.4849405955
 11
25.7150289436
 21
8.4849405955
  0
LINE
  5
592
100
AcDbEntity
  8
RACCORDO
100
AcDbLine
 62
253
  6
CONTINUOUS
 10
-24.7849710564
 20
8.4849405955
 11
-25.7150289436
 21
8.4849405955
  0
LINE
  5
593
100
AcDbEntity
  8
RACCORDO
100
AcDbLine
 62
253
  6
CONTINUOUS
 10
25.5150594045
 20
-12.8650289436
 11
25.550030461
 21
-12.9
  0
LINE
  5
594
100
AcDbEntity
  8
RACCORDO
100
AcDbLine
 62
253
  6
CONTINUOUS
 10
25.7150289436
 20
-12.6650594045
 11
25.75
 21
-12.700030461
  0
LINE
  5
595
100
AcDbEntity
  8
ASSI
100
AcDbLine
 62
7
  6
CONTINUOUS
 10
27.772879
 20
-36.377022
 11
27.964676
 21
-36.718741
  0
LINE
  5
596
100
AcDbEntity
  8
DRAFT
100
AcDbLine
 62
7
  6
CONTINUOUS
 10
12.6741375
 20
-26.8929755853
 11
12.5286476304
 21
-26.35
  0
LINE
  5
597
100
AcDbEntity
  8
DRAFT
100
AcDbLine
 62
7
  6
CONTINUOUS
 10
12.6672468462
 20
-26.8948219304
 11
12.5276555631
 21
-26.3732713192
  0
LINE
  5
598
100
AcDbEntity
  8
DRAFT
100
AcDbLine
 62
7
  6
CONTINUOUS
 10
9.0286476304
 20
26.35
 11
9.0276555631
 21
26.3732713192
  0
LINE
  5
599
100
AcDbEntity
  8
DRAFT
100
AcDbLine
 62
7
  6
CONTINUOUS
 10
13.4713523696
 20
-26.35
 11
13.4723444369
 21
-26.3732713192
  0
LINE
  5
59A
100
AcDbEntity
  8
DRAFT
100
AcDbLine
 62
7
  6
CONTINUOUS
 10
12.5286476304
 20
26.35
 11
12.5276555631
 21
26.3732713192
  0
LINE
  5
59B
100
AcDbEntity
  8
SMUSSO
100
AcDbLine
 62
7
  6
CONTINUOUS
 10
10.65
 20
28.7575
 11
10.65
 21
26.8075
  0
LINE
  5
59C
100
AcDbEntity
  8
SMUSSO
100
AcDbLine
 62
7
  6
CONTINUOUS
 10
10.65
 20
-26.8075
 11
10.65
 21
-28.7575
  0
LINE
  5
59D
100
AcDbEntity
  8
SMUSSO
100
AcDbLine
 62
7
  6
CONTINUOUS
 10
11.85
 20
-28.7575
 11
11.85
 21
-26.8075
  0
LINE
  5
59E
100
AcDbEntity
  8
SMUSSO
100
AcDbLine
 62
7
  6
CONTINUOUS
 10
11.85
 20
26.8075
 11
11.85
 21
28.7575
  0
LINE
  5
59F
100
AcDbEntity
  8
DRAFT
100
AcDbLine
 62
7
  6
CONTINUOUS
 10
12.35
 20
43.0325449351
 11
12.35
 21
42.05
  0
LINE
  5
5A0
100
AcDbEntity
  8
DRAFT
100
AcDbLine
 62
7
  6
CONTINUOUS
 10
12.35
 20
-43.0325449351
 11
12.35
 21
-42.05
  0
LINE
  5
5A1
100
AcDbEntity
  8
DRAFT
100
AcDbLine
 62
7
  6
CONTINUOUS
 10
12.3674550649
 20
-44.05
 11
12.3674550649
 21
-43.05
  0
LINE
  5
5A2
100
AcDbEntity
  8
DRAFT
100
AcDbLine
 62
7
  6
CONTINUOUS
 10
12.3674550649
 20
43.05
 11
12.3674550649
 21
44.05
  0
LINE
  5
5A3
100
AcDbEntity
  8
DRAFT
100
AcDbLine
 62
7
  6
CONTINUOUS
 10
12.3901466493
 20
-44.3098533507
 11
12.3901466493
 21
-44.0726915844
  0
LINE
  5
5A4
100
AcDbEntity
  8
DRAFT
100
AcDbLine
 62
7
  6
CONTINUOUS
 10
12.3901466493
 20
44.0726915844
 11
12.3901466493
 21
44.3098533507
  0
LINE
  5
5A5
100
AcDbEntity
  8
DRAFT
100
AcDbLine
 62
7
  6
CONTINUOUS
 10
9.0286476304
 20
-26.35
 11
9.0276555631
 21
-26.3732713192
  0
LINE
  5
5A6
100
AcDbEntity
  8
DRAFT
100
AcDbLine
 62
7
  6
CONTINUOUS
 10
13.4713523696
 20
26.35
 11
13.4723444369
 21
26.3732713192
  0
LINE
  5
5A7
100
AcDbEntity
  8
DRAFT
100
AcDbLine
 62
7
  6
CONTINUOUS
 10
12.5286476304
 20
-26.35
 11
12.5276555631
 21
-26.3732713192
  0
LINE
  5
5A8
100
AcDbEntity
  8
0
100
AcDbLine
 62
7
  6
CONTINUOUS
 10
-12.091568
 20
-38.147119
 11
-11.317721
 21
-36.921766
  0
LINE
  5
5A9
100
AcDbEntity
  8
RACCORDO
100
AcDbLine
 62
253
  6
CONTINUOUS
 10
24.7497544191
 20
8.4497239581
 11
24.7849710564
 21
8.4849405955
  0
LINE
  5
5AA
100
AcDbEntity
  8
RACCORDO
100
AcDbLine
 62
253
  6
CONTINUOUS
 10
24.949969539
 20
8.25
 11
24.9849405955
 21
8.2849710564
  0
LINE
  5
5AB
100
AcDbEntity
  8
ASSI
100
AcDbLine
 62
7
  6
CONTINUOUS
 10
-8.4397929133
 20
-25.9897929133
 11
-8.8
 21
-26.35
  0
LINE
  5
5AC
100
AcDbEntity
  8
ASSI
100
AcDbLine
 62
7
  6
CONTINUOUS
 10
-8.0403688829
 20
-25.6232794982
 11
-8.790360704
 21
-26.3732713192
  0
LINE
  5
5AD
100
AcDbEntity
  8
SMUSSO
100
AcDbLine
 62
7
  6
CONTINUOUS
 10
-27.3673084156
 20
-45.3273084156
 11
-27.54
 21
-45.5
  0
LINE
  5
5AE
100
AcDbEntity
  8
0
100
AcDbLine
 62
7
  6
CONTINUOUS
 10
-30.9583332539
 20
-34.3404254913
 11
-30.8333332539
 21
-34.2553191185
  0
LINE
  5
5AF
100
AcDbEntity
  8
0
100
AcDbLine
 62
7
  6
CONTINUOUS
 10
-30.875
 20
-34.7659574747
 11
-31.125
 21
-34.9361702204
  0
LINE
  5
5B0
100
AcDbEntity
  8
0
100
AcDbLine
 62
7
  6
CONTINUOUS
 10
-30.9583332539
 20
-35.0638297796
 11
-30.8333332539
 21
-34.9787234068
  0
LINE
  5
5B1
100
AcDbEntity
  8
0
100
AcDbLine
 62
7
  6
CONTINUOUS
 10
-30.1666667461
 20
-35.6595744789
 11
-30.2916667461
 21
-35.7446808517
  0
LINE
  5
5B2
100
AcDbEntity
  8
0
100
AcDbLine
 62
7
  6
CONTINUOUS
 10
-27.1666665077
 20
-34.3404254913
 11
-27.0416665077
 21
-34.2553191185
  0
LINE
  5
5B3
100
AcDbEntity
  8
0
100
AcDbLine
 62
7
  6
CONTINUOUS
 10
-30.875
 20
-34.0425531864
 11
-31.0833332539
 21
-34.1702127457
  0
LINE
  5
5B4
100
AcDbEntity
  8
DRAFT
100
AcDbLine
 62
7
  6
CONTINUOUS
 10
-43.0325449351
 20
12.35
 11
-42.05
 21
12.35
  0
LINE
  5
5B5
100
AcDbEntity
  8
DRAFT
100
AcDbLine
 62
7
  6
CONTINUOUS
 10
43.0325449351
 20
12.35
 11
42.05
 21
12.35
  0
LINE
  5
5B6
100
AcDbEntity
  8
DRAFT
100
AcDbLine
 62
7
  6
CONTINUOUS
 10
44.05
 20
12.3674550649
 11
43.05
 21
12.3674550649
  0
LINE
  5
5B7
100
AcDbEntity
  8
DRAFT
100
AcDbLine
 62
7
  6
CONTINUOUS
 10
-43.05
 20
12.3674550649
 11
-44.05
 21
12.3674550649
  0
LINE
  5
5B8
100
AcDbEntity
  8
DRAFT
100
AcDbLine
 62
7
  6
CONTINUOUS
 10
44.3098533507
 20
12.3901466493
 11
44.0726915844
 21
12.3901466493
  0
LINE
  5
5B9
100
AcDbEntity
  8
DRAFT
100
AcDbLine
 62
7
  6
CONTINUOUS
 10
-44.0726915844
 20
12.3901466493
 11
-44.3098533507
 21
12.3901466493
  0
LINE
  5
5BA
100
AcDbEntity
  8
RACCORDO
100
AcDbLine
 62
253
  6
CONTINUOUS
 10
24.7849710564
 20
12.6650594045
 11
25.7150289436
 21
12.6650594045
  0
LINE
  5
5BB
100
AcDbEntity
  8
RACCORDO
100
AcDbLine
 62
253
  6
CONTINUOUS
 10
-24.7849710564
 20
12.6650594045
 11
-25.7150289436
 21
12.6650594045
  0
LINE
  5
5BC
100
AcDbEntity
  8
RACCORDO
100
AcDbLine
 62
253
  6
CONTINUOUS
 10
25.5150594045
 20
12.8650289436
 11
24.9849405955
 21
12.8650289436
  0
LINE
  5
5BD
100
AcDbEntity
  8
RACCORDO
100
AcDbLine
 62
253
  6
CONTINUOUS
 10
-24.9849405955
 20
12.8650289436
 11
-25.5150594045
 21
12.8650289436
  0
LINE
  5
5BE
100
AcDbEntity
  8
RACCORDO
100
AcDbLine
 62
7
  6
CONTINUOUS
 10
25.550030461
 20
12.9
 11
24.949969539
 21
12.9
  0
LINE
  5
5BF
100
AcDbEntity
  8
RACCORDO
100
AcDbLine
 62
7
  6
CONTINUOUS
 10
-24.949969539
 20
12.9
 11
-25.550030461
 21
12.9
  0
LINE
  5
5C0
100
AcDbEntity
  8
DRAFT
100
AcDbLine
 62
7
  6
CONTINUOUS
 10
-24.35
 20
13.0
 11
-24.2
 21
13.0
  0
LINE
  5
5C1
100
AcDbEntity
  8
DRAFT
100
AcDbLine
 62
7
  6
CONTINUOUS
 10
24.2
 20
13.0
 11
24.35
 21
13.0
  0
LINE
  5
5C2
100
AcDbEntity
  8
RACCORDO
100
AcDbLine
 62
7
  6
CONTINUOUS
 10
24.35
 20
13.0
 11
32.0
 21
13.0
  0
LINE
  5
5C3
100
AcDbEntity
  8
RACCORDO
100
AcDbLine
 62
7
  6
CONTINUOUS
 10
-24.35
 20
13.0
 11
-32.0
 21
13.0
  0
LINE
  5
5C4
100
AcDbEntity
  8
DRAFT
100
AcDbLine
 62
7
  6
CONTINUOUS
 10
-22.6945466124
 20
13.75
 11
-25.15
 21
13.75
  0
LINE
  5
5C5
100
AcDbEntity
  8
DRAFT
100
AcDbLine
 62
7
  6
CONTINUOUS
 10
22.6945466124
 20
13.75
 11
25.15
 21
13.75
  0
LINE
  5
5C6
100
AcDbEntity
  8
RACCORDO
100
AcDbLine
 62
253
  6
CONTINUOUS
 10
24.7497544191
 20
-8.4497239581
 11
24.7849710564
 21
-8.4849405955
  0
LINE
  5
5C7
100
AcDbEntity
  8
RACCORDO
100
AcDbLine
 62
253
  6
CONTINUOUS
 10
24.949969539
 20
-8.25
 11
24.9849405955
 21
-8.2849710564
  0
LINE
  5
5C8
100
AcDbEntity
  8
ASSI
100
AcDbLine
 62
7
  6
CONTINUOUS
 10
-8.8
 20
26.35
 11
-8.4397929133
 21
25.9897929133
  0
LINE
  5
5C9
100
AcDbEntity
  8
ASSI
100
AcDbLine
 62
7
  6
CONTINUOUS
 10
-8.790360704
 20
26.3732713192
 11
-8.0403688829
 21
25.6232794982
  0
LINE
  5
5CA
100
AcDbEntity
  8
SMUSSO
100
AcDbLine
 62
7
  6
CONTINUOUS
 10
-27.54
 20
45.5
 11
-27.3673084156
 21
45.3273084156
  0
LINE
  5
5CB
100
AcDbEntity
  8
RACCORDO
100
AcDbLine
 62
253
  6
CONTINUOUS
 10
14.0
 20
-25.05
 11
14.0
 21
-24.7
  0
LINE
  5
5CC
100
AcDbEntity
  8
ASSI
100
AcDbLine
 62
7
  6
CONTINUOUS
 10
14.0
 20
-25.05
 11
14.0
 21
-25.2
  0
LINE
  5
5CD
100
AcDbEntity
  8
RACCORDO
100
AcDbLine
 62
253
  6
CONTINUOUS
 10
14.0
 20
24.7
 11
14.0
 21
25.05
  0
LINE
  5
5CE
100
AcDbEntity
  8
ASSI
100
AcDbLine
 62
7
  6
CONTINUOUS
 10
14.0
 20
25.05
 11
14.0
 21
25.2
  0
LINE
  5
5CF
100
AcDbEntity
  8
ASSI
100
AcDbLine
 62
253
  6
CONTINUOUS
 10
14.0602070867
 20
-25.9897929133
 11
14.0602070867
 21
-25.4
  0
LINE
  5
5D0
100
AcDbEntity
  8
ASSI
100
AcDbLine
 62
253
  6
CONTINUOUS
 10
14.0602070867
 20
25.4
 11
14.0602070867
 21
25.9897929133
  0
LINE
  5
5D1
100
AcDbEntity
  8
SMUSSO
100
AcDbLine
 62
7
  6
CONTINUOUS
 10
14.2
 20
28.7575
 11
14.2
 21
26.8075
  0
LINE
  5
5D2
100
AcDbEntity
  8
SMUSSO
100
AcDbLine
 62
7
  6
CONTINUOUS
 10
14.2
 20
-26.8075
 11
14.2
 21
-28.7575
  0
LINE
  5
5D3
100
AcDbEntity
  8
ASSI
100
AcDbLine
 62
253
  6
CONTINUOUS
 10
14.2599329936
 20
-25.7916264167
 11
14.2599329936
 21
-25.200274093
  0
LINE
  5
5D4
100
AcDbEntity
  8
ASSI
100
AcDbLine
 62
253
  6
CONTINUOUS
 10
14.2599329936
 20
25.200274093
 11
14.2599329936
 21
25.7916264167
  0
LINE
  5
5D5
100
AcDbEntity
  8
ASSI
100
AcDbLine
 62
7
  6
CONTINUOUS
 10
14.4596311171
 20
-25.6232794982
 11
14.4596311171
 21
-25.2
  0
LINE
  5
5D6
100
AcDbEntity
  8
ASSI
100
AcDbLine
 62
7
  6
CONTINUOUS
 10
14.4596311171
 20
25.2
 11
14.4596311171
 21
25.6232794982
  0
LINE
  5
5D7
100
AcDbEntity
  8
RACCORDO
100
AcDbLine
 62
7
  6
CONTINUOUS
 10
14.5
 20
24.2928932188
 11
14.5
 21
23.0000456984
  0
LINE
  5
5D8
100
AcDbEntity
  8
RACCORDO
100
AcDbLine
 62
7
  6
CONTINUOUS
 10
14.5
 20
-23.0000456984
 11
14.5
 21
-24.2928932188
  0
LINE
  5
5D9
100
AcDbEntity
  8
RACCORDO
100
AcDbLine
 62
7
  6
CONTINUOUS
 10
14.5
 20
-24.656344058
 11
14.5
 21
-25.2
  0
LINE
  5
5DA
100
AcDbEntity
  8
RACCORDO
100
AcDbLine
 62
7
  6
CONTINUOUS
 10
14.5
 20
24.656344058
 11
14.5
 21
25.2
  0
LINE
  5
5DB
100
AcDbEntity
  8
0
100
AcDbLine
 62
7
  6
CONTINUOUS
 10
15.3017902149
 20
31.7533762561
 11
15.3017902149
 21
28.2467191156
  0
LINE
  5
5DC
100
AcDbEntity
  8
0
100
AcDbLine
 62
7
  6
CONTINUOUS
 10
15.5178759363
 20
28.4333850247
 11
15.5178759363
 21
29.9754707765
  0
LINE
  5
5DD
100
AcDbEntity
  8
0
100
AcDbLine
 62
7
  6
CONTINUOUS
 10
15.5178759363
 20
30.1621366856
 11
15.5178759363
 21
31.566710347
  0
LINE
  5
5DE
100
AcDbEntity
  8
0
100
AcDbLine
 62
7
  6
CONTINUOUS
 10
17.5315352536
 20
29.9754707765
 11
17.5315352536
 21
30.1621366856
  0
LINE
  5
5DF
100
AcDbEntity
  8
DRAFT
100
AcDbLine
 62
7
  6
CONTINUOUS
 10
17.6098533507
 20
44.3098533507
 11
17.6098533507
 21
44.0726915844
  0
LINE
  5
5E0
100
AcDbEntity
  8
DRAFT
100
AcDbLine
 62
7
  6
CONTINUOUS
 10
17.6098533507
 20
-44.0726915844
 11
17.6098533507
 21
-44.3098533507
  0
LINE
  5
5E1
100
AcDbEntity
  8
DRAFT
100
AcDbLine
 62
7
  6
CONTINUOUS
 10
17.6325449351
 20
44.05
 11
17.6325449351
 21
43.05
  0
LINE
  5
5E2
100
AcDbEntity
  8
DRAFT
100
AcDbLine
 62
7
  6
CONTINUOUS
 10
17.6325449351
 20
-43.05
 11
17.6325449351
 21
-44.05
  0
LINE
  5
5E3
100
AcDbEntity
  8
DRAFT
100
AcDbLine
 62
7
  6
CONTINUOUS
 10
17.65
 20
43.0325449351
 11
17.65
 21
42.05
  0
LINE
  5
5E4
100
AcDbEntity
  8
DRAFT
100
AcDbLine
 62
7
  6
CONTINUOUS
 10
17.65
 20
-43.0325449351
 11
17.65
 21
-42.05
  0
LINE
  5
5E5
100
AcDbEntity
  8
0
100
AcDbLine
 62
7
  6
CONTINUOUS
 10
17.6592297583
 20
31.566710347
 11
17.6592297583
 21
31.7533762561
  0
LINE
  5
5E6
100
AcDbEntity
  8
0
100
AcDbLine
 62
7
  6
CONTINUOUS
 10
17.6837737227
 20
28.2467191156
 11
17.6837737227
 21
28.4333850247
  0
LINE
  5
5E7
100
AcDbEntity
  8
DRAFT
100
AcDbLine
 62
7
  6
CONTINUOUS
 10
9.9713523696
 20
-26.35
 11
9.8258625
 21
-26.8929755853
  0
LINE
  5
5E8
100
AcDbEntity
  8
DRAFT
100
AcDbLine
 62
7
  6
CONTINUOUS
 10
9.9723444369
 20
-26.3732713192
 11
9.8327531538
 21
-26.8948219304
  0
LINE
  5
5E9
100
AcDbEntity
  8
ASSI
100
AcDbLine
 62
7
  6
CONTINUOUS
 10
12.05
 20
-26.1
 11
12.0437644688
 21
-26.1232713192
  0
LINE
  5
5EA
100
AcDbEntity
  8
ASSI
100
AcDbLine
 62
7
  6
CONTINUOUS
 10
8.8
 20
-26.35
 11
8.790360704
 21
-26.3732713192
  0
LINE
  5
5EB
100
AcDbEntity
  8
ASSI
100
AcDbLine
 62
7
  6
CONTINUOUS
 10
-8.2400670064
 20
-25.7916264167
 11
-8.0403688829
 21
-25.6232794982
  0
LINE
  5
5EC
100
AcDbEntity
  8
0
100
AcDbLine
 62
7
  6
CONTINUOUS
 10
-30.25
 20
-35.9574468099
 11
-30.0416667461
 21
-35.8297872394
  0
LINE
  5
5ED
100
AcDbEntity
  8
ASSI
100
AcDbLine
 62
7
  6
CONTINUOUS
 10
-12.05
 20
-26.1
 11
-12.4830127019
 21
-26.35
  0
LINE
  5
5EE
100
AcDbEntity
  8
ASSI
100
AcDbLine
 62
7
  6
CONTINUOUS
 10
-12.0437644688
 20
-26.1232713192
 11
-12.4767771707
 21
-26.3732713192
  0
LINE
  5
5EF
100
AcDbEntity
  8
0
100
AcDbLine
 62
7
  6
CONTINUOUS
 10
-33.5833333433
 20
-34.0425531864
 11
-33.75
 21
-34.1276595592
  0
LINE
  5
5F0
100
AcDbEntity
  8
0
100
AcDbLine
 62
7
  6
CONTINUOUS
 10
-27.0833334923
 20
-34.0425531864
 11
-27.25
 21
-34.1276595592
  0
LINE
  5
5F1
100
AcDbEntity
  8
SMUSSO
100
AcDbLine
 62
7
  6
CONTINUOUS
 10
23.5309401077
 20
15.2814191169
 11
23.3
 21
15.2744370909
  0
LINE
  5
5F2
100
AcDbEntity
  8
RACCORDO
100
AcDbLine
 62
7
  6
CONTINUOUS
 10
32.0
 20
14.0
 11
24.3625994658
 21
14.0
  0
LINE
  5
5F3
100
AcDbEntity
  8
DRAFT
100
AcDbLine
 62
7
  6
CONTINUOUS
 10
24.3625994658
 20
14.0
 11
23.8881197846
 21
14.0
  0
LINE
  5
5F4
100
AcDbEntity
  8
RACCORDO
100
AcDbLine
 62
7
  6
CONTINUOUS
 10
23.8881197846
 20
14.0
 11
23.0017912049
 21
14.0
  0
LINE
  5
5F5
100
AcDbEntity
  8
RACCORDO
100
AcDbLine
 62
7
  6
CONTINUOUS
 10
-23.0017912049
 20
14.0
 11
-23.8881197846
 21
14.0
  0
LINE
  5
5F6
100
AcDbEntity
  8
DRAFT
100
AcDbLine
 62
7
  6
CONTINUOUS
 10
-23.8881197846
 20
14.0
 11
-24.3625994658
 21
14.0
  0
LINE
  5
5F7
100
AcDbEntity
  8
RACCORDO
100
AcDbLine
 62
7
  6
CONTINUOUS
 10
-24.3625994658
 20
14.0
 11
-32.0
 21
14.0
  0
LINE
  5
5F8
100
AcDbEntity
  8
DRAFT
100
AcDbLine
 62
7
  6
CONTINUOUS
 10
-24.3625994658
 20
15.0
 11
-23.8881197846
 21
15.0
  0
LINE
  5
5F9
100
AcDbEntity
  8
RACCORDO
100
AcDbLine
 62
7
  6
CONTINUOUS
 10
25.25
 20
15.0
 11
24.3625994658
 21
15.0
  0
LINE
  5
5FA
100
AcDbEntity
  8
SMUSSO
100
AcDbLine
 62
7
  6
CONTINUOUS
 10
-23.8881197846
 20
15.0
 11
-23.2
 21
15.0
  0
LINE
  5
5FB
100
AcDbEntity
  8
SMUSSO
100
AcDbLine
 62
7
  6
CONTINUOUS
 10
23.2
 20
15.0
 11
23.8881197846
 21
15.0
  0
LINE
  5
5FC
100
AcDbEntity
  8
DRAFT
100
AcDbLine
 62
7
  6
CONTINUOUS
 10
23.8881197846
 20
15.0
 11
24.3625994658
 21
15.0
  0
LINE
  5
5FD
100
AcDbEntity
  8
RACCORDO
100
AcDbLine
 62
7
  6
CONTINUOUS
 10
-24.3625994658
 20
15.0
 11
-25.25
 21
15.0
  0
LINE
  5
5FE
100
AcDbEntity
  8
RACCORDO
100
AcDbLine
 62
7
  6
CONTINUOUS
 10
24.75
 20
15.2482544935
 11
23.7
 21
15.2482544935
  0
LINE
  5
5FF
100
AcDbEntity
  8
RACCORDO
100
AcDbLine
 62
7
  6
CONTINUOUS
 10
-23.6
 20
15.2482544935
 11
-24.75
 21
15.2482544935
  0
LINE
  5
600
100
AcDbEntity
  8
DRAFT
100
AcDbLine
 62
7
  6
CONTINUOUS
 10
-23.7
 20
15.2692005714
 11
-23.6
 21
15.2692005714
  0
LINE
  5
601
100
AcDbEntity
  8
DRAFT
100
AcDbLine
 62
7
  6
CONTINUOUS
 10
23.6
 20
15.2692005714
 11
23.7
 21
15.2692005714
  0
LINE
  5
602
100
AcDbEntity
  8
RACCORDO
100
AcDbLine
 62
7
  6
CONTINUOUS
 10
24.0755019779
 20
15.2814191169
 11
23.5309401077
 21
15.2814191169
  0
LINE
  5
603
100
AcDbEntity
  8
RACCORDO
100
AcDbLine
 62
7
  6
CONTINUOUS
 10
-23.5309401077
 20
15.2814191169
 11
-24.0755019779
 21
15.2814191169
  0
LINE
  5
604
100
AcDbEntity
  8
DRAFT
100
AcDbLine
 62
7
  6
CONTINUOUS
 10
-44.3098533507
 20
17.6098533507
 11
-44.0726915844
 21
17.6098533507
  0
LINE
  5
605
100
AcDbEntity
  8
DRAFT
100
AcDbLine
 62
7
  6
CONTINUOUS
 10
44.0726915844
 20
17.6098533507
 11
44.3098533507
 21
17.6098533507
  0
LINE
  5
606
100
AcDbEntity
  8
DRAFT
100
AcDbLine
 62
7
  6
CONTINUOUS
 10
-44.05
 20
17.6325449351
 11
-43.05
 21
17.6325449351
  0
LINE
  5
607
100
AcDbEntity
  8
DRAFT
100
AcDbLine
 62
7
  6
CONTINUOUS
 10
43.05
 20
17.6325449351
 11
44.05
 21
17.6325449351
  0
LINE
  5
608
100
AcDbEntity
  8
DRAFT
100
AcDbLine
 62
7
  6
CONTINUOUS
 10
-43.0325449351
 20
17.65
 11
-42.05
 21
17.65
  0
LINE
  5
609
100
AcDbEntity
  8
DRAFT
100
AcDbLine
 62
7
  6
CONTINUOUS
 10
43.0325449351
 20
17.65
 11
42.05
 21
17.65
  0
LINE
  5
60A
100
AcDbEntity
  8
SMUSSO
100
AcDbLine
 62
7
  6
CONTINUOUS
 10
-23.3
 20
15.2744370909
 11
-23.5309401077
 21
15.2814191169
  0
LINE
  5
60B
100
AcDbEntity
  8
ASSI
100
AcDbLine
 62
7
  6
CONTINUOUS
 10
-12.4830127019
 20
26.35
 11
-12.05
 21
26.1
  0
LINE
  5
60C
100
AcDbEntity
  8
ASSI
100
AcDbLine
 62
7
  6
CONTINUOUS
 10
-12.4767771707
 20
26.3732713192
 11
-12.0437644688
 21
26.1232713192
  0
LINE
  5
60D
100
AcDbEntity
  8
ASSI
100
AcDbLine
 62
7
  6
CONTINUOUS
 10
-8.2400670064
 20
25.7916264167
 11
-8.0403688829
 21
25.6232794982
  0
LINE
  5
60E
100
AcDbEntity
  8
ASSI
100
AcDbLine
 62
7
  6
CONTINUOUS
 10
8.8
 20
26.35
 11
8.790360704
 21
26.3732713192
  0
LINE
  5
60F
100
AcDbEntity
  8
DRAFT
100
AcDbLine
 62
7
  6
CONTINUOUS
 10
9.8258625
 20
26.8929755853
 11
9.9713523696
 21
26.35
  0
LINE
  5
610
100
AcDbEntity
  8
ASSI
100
AcDbLine
 62
7
  6
CONTINUOUS
 10
12.05
 20
26.1
 11
12.0437644688
 21
26.1232713192
  0
LINE
  5
611
100
AcDbEntity
  8
DRAFT
100
AcDbLine
 62
7
  6
CONTINUOUS
 10
9.9723444369
 20
26.3732713192
 11
9.8327531538
 21
26.8948219304
  0
LINE
  5
612
100
AcDbEntity
  8
0
100
AcDbLine
 62
7
  6
CONTINUOUS
 10
18.7270075164
 20
31.7533762561
 11
18.7270075164
 21
28.2467191156
  0
LINE
  5
613
100
AcDbEntity
  8
0
100
AcDbLine
 62
7
  6
CONTINUOUS
 10
18.9431261827
 20
28.2467191156
 11
18.9431261827
 21
31.7533762561
  0
LINE
  5
614
100
AcDbEntity
  8
0
100
AcDbLine
 62
7
  6
CONTINUOUS
 10
19.9667906948
 20
31.7533762561
 11
19.9667906948
 21
28.2467191156
  0
LINE
  5
615
100
AcDbEntity
  8
0
100
AcDbLine
 62
7
  6
CONTINUOUS
 10
20.1828764162
 20
28.2467191156
 11
20.1828764162
 21
29.4843938192
  0
LINE
  5
616
100
AcDbEntity
  8
0
100
AcDbLine
 62
7
  6
CONTINUOUS
 10
20.1828764162
 20
29.7347752009
 11
20.1828764162
 21
31.7533762561
  0
LINE
  5
617
100
AcDbEntity
  8
DRAFT
100
AcDbLine
 62
7
  6
CONTINUOUS
 10
22.0
 20
45.3447634805
 11
22.0
 21
45.3273084156
  0
LINE
  5
618
100
AcDbEntity
  8
DRAFT
100
AcDbLine
 62
7
  6
CONTINUOUS
 10
22.0
 20
-45.3447634805
 11
22.0
 21
-45.3273084156
  0
LINE
  5
619
100
AcDbEntity
  8
RACCORDO
100
AcDbLine
 62
7
  6
CONTINUOUS
 10
22.4
 20
24.65
 11
22.4
 21
22.9999543085
  0
LINE
  5
61A
100
AcDbEntity
  8
RACCORDO
100
AcDbLine
 62
7
  6
CONTINUOUS
 10
22.4
 20
-24.65
 11
22.4
 21
-22.9999543085
  0
LINE
  5
61B
100
AcDbEntity
  8
RACCORDO
100
AcDbLine
 62
253
  6
CONTINUOUS
 10
22.4088798489
 20
24.6588798489
 11
22.4088798489
 21
23.0088341575
  0
LINE
  5
61C
100
AcDbEntity
  8
RACCORDO
100
AcDbLine
 62
253
  6
CONTINUOUS
 10
22.4088798489
 20
-23.0088341575
 11
22.4088798489
 21
-24.6588798489
  0
LINE
  5
61D
100
AcDbEntity
  8
RACCORDO
100
AcDbLine
 62
7
  6
CONTINUOUS
 10
22.6421452208
 20
-22.2921909122
 11
22.6421452208
 21
22.2921909122
  0
LINE
  5
61E
100
AcDbEntity
  8
RACCORDO
100
AcDbLine
 62
7
  6
CONTINUOUS
 10
22.6735835007
 20
22.3239946403
 11
22.6735835007
 21
-22.3239946403
  0
LINE
  5
61F
100
AcDbEntity
  8
DRAFT
100
AcDbLine
 62
7
  6
CONTINUOUS
 10
22.6945466124
 20
-21.25
 11
22.6945466124
 21
-13.75
  0
LINE
  5
620
100
AcDbEntity
  8
DRAFT
100
AcDbLine
 62
7
  6
CONTINUOUS
 10
22.6945466124
 20
13.75
 11
22.6945466124
 21
21.25
  0
LINE
  5
621
100
AcDbEntity
  8
RACCORDO
100
AcDbLine
 62
7
  6
CONTINUOUS
 10
22.7
 20
-22.7
 11
22.7
 21
-22.3
  0
LINE
  5
622
100
AcDbEntity
  8
RACCORDO
100
AcDbLine
 62
7
  6
CONTINUOUS
 10
22.7
 20
-6.7000456915
 11
22.7
 21
6.7000456915
  0
LINE
  5
623
100
AcDbEntity
  8
RACCORDO
100
AcDbLine
 62
7
  6
CONTINUOUS
 10
22.7
 20
22.3
 11
22.7
 21
22.7
  0
LINE
  5
624
100
AcDbEntity
  8
RACCORDO
100
AcDbLine
 62
7
  6
CONTINUOUS
 10
22.7017455065
 20
-20.7
 11
22.7017455065
 21
-14.3
  0
LINE
  5
625
100
AcDbEntity
  8
RACCORDO
100
AcDbLine
 62
7
  6
CONTINUOUS
 10
22.7017455065
 20
14.3
 11
22.7017455065
 21
20.7
  0
LINE
  5
626
100
AcDbEntity
  8
RACCORDO
100
AcDbLine
 62
7
  6
CONTINUOUS
 10
22.7364728358
 20
22.1571707387
 11
22.7364728358
 21
21.25
  0
LINE
  5
627
100
AcDbEntity
  8
DRAFT
100
AcDbLine
 62
7
  6
CONTINUOUS
 10
22.7364728358
 20
13.75
 11
22.7364728358
 21
6.8428862378
  0
LINE
  5
628
100
AcDbEntity
  8
DRAFT
100
AcDbLine
 62
7
  6
CONTINUOUS
 10
22.7364728358
 20
-6.8428862378
 11
22.7364728358
 21
-13.75
  0
LINE
  5
629
100
AcDbEntity
  8
RACCORDO
100
AcDbLine
 62
7
  6
CONTINUOUS
 10
22.7364728358
 20
-21.25
 11
22.7364728358
 21
-22.1571707384
  0
LINE
  5
62A
100
AcDbEntity
  8
RACCORDO
100
AcDbLine
 62
253
  6
CONTINUOUS
 10
22.9088036965
 20
24.6674550649
 11
22.9088036965
 21
23.2088036965
  0
LINE
  5
62B
100
AcDbEntity
  8
RACCORDO
100
AcDbLine
 62
253
  6
CONTINUOUS
 10
22.9088036965
 20
-23.2088036965
 11
22.9088036965
 21
-24.6674550649
  0
LINE
  5
62C
100
AcDbEntity
  8
ASSI
100
AcDbLine
 62
7
  6
CONTINUOUS
 10
12.4830127019
 20
-26.35
 11
12.4767771707
 21
-26.3732713192
  0
LINE
  5
62D
100
AcDbEntity
  8
DRAFT
100
AcDbLine
 62
7
  6
CONTINUOUS
 10
13.4713523696
 20
-26.35
 11
13.3258625
 21
-26.8929755853
  0
LINE
  5
62E
100
AcDbEntity
  8
DRAFT
100
AcDbLine
 62
7
  6
CONTINUOUS
 10
13.4723444369
 20
-26.3732713192
 11
13.3327531538
 21
-26.8948219304
  0
LINE
  5
62F
100
AcDbEntity
  8
DRAFT
100
AcDbLine
 62
7
  6
CONTINUOUS
 10
-12.35
 20
-43.0325449351
 11
-12.3674550649
 21
-43.05
  0
LINE
  5
630
100
AcDbEntity
  8
DRAFT
100
AcDbLine
 62
7
  6
CONTINUOUS
 10
43.0325449351
 20
12.35
 11
43.05
 21
12.3674550649
  0
LINE
  5
631
100
AcDbEntity
  8
DRAFT
100
AcDbLine
 62
7
  6
CONTINUOUS
 10
-12.3674550649
 20
-44.05
 11
-12.3901466493
 21
-44.0726915844
  0
LINE
  5
632
100
AcDbEntity
  8
DRAFT
100
AcDbLine
 62
7
  6
CONTINUOUS
 10
44.05
 20
12.3674550649
 11
44.0726915844
 21
12.3901466493
  0
LINE
  5
633
100
AcDbEntity
  8
0
100
AcDbLine
 62
7
  6
CONTINUOUS
 10
-30.8333332539
 20
-34.2553191185
 11
-30.7083332539
 21
-34.2127659321
  0
LINE
  5
634
100
AcDbEntity
  8
DRAFT
100
AcDbLine
 62
253
  6
CONTINUOUS
 10
13.3327531538
 20
26.8948219304
 11
13.3258625
 21
26.8929755853
  0
LINE
  5
635
100
AcDbEntity
  8
SMUSSO
100
AcDbLine
 62
7
  6
CONTINUOUS
 10
-23.5309401077
 20
19.7185808831
 11
-23.3
 21
19.7255629091
  0
LINE
  5
636
100
AcDbEntity
  8
RACCORDO
100
AcDbLine
 62
7
  6
CONTINUOUS
 10
24.0755019779
 20
19.7185808831
 11
23.5309401077
 21
19.7185808831
  0
LINE
  5
637
100
AcDbEntity
  8
RACCORDO
100
AcDbLine
 62
7
  6
CONTINUOUS
 10
-23.5309401077
 20
19.7185808831
 11
-24.0755019779
 21
19.7185808831
  0
LINE
  5
638
100
AcDbEntity
  8
DRAFT
100
AcDbLine
 62
7
  6
CONTINUOUS
 10
-23.7
 20
19.7307994286
 11
-23.6
 21
19.7307994286
  0
LINE
  5
639
100
AcDbEntity
  8
DRAFT
100
AcDbLine
 62
7
  6
CONTINUOUS
 10
23.6
 20
19.7307994286
 11
23.7
 21
19.7307994286
  0
LINE
  5
63A
100
AcDbEntity
  8
RACCORDO
100
AcDbLine
 62
7
  6
CONTINUOUS
 10
-24.75
 20
19.7517455065
 11
-23.6
 21
19.7517455065
  0
LINE
  5
63B
100
AcDbEntity
  8
RACCORDO
100
AcDbLine
 62
7
  6
CONTINUOUS
 10
23.7
 20
19.7517455065
 11
24.75
 21
19.7517455065
  0
LINE
  5
63C
100
AcDbEntity
  8
RACCORDO
100
AcDbLine
 62
7
  6
CONTINUOUS
 10
-25.25
 20
20.0
 11
-24.3625994658
 21
20.0
  0
LINE
  5
63D
100
AcDbEntity
  8
DRAFT
100
AcDbLine
 62
7
  6
CONTINUOUS
 10
24.3625994658
 20
20.0
 11
23.8881197846
 21
20.0
  0
LINE
  5
63E
100
AcDbEntity
  8
SMUSSO
100
AcDbLine
 62
7
  6
CONTINUOUS
 10
23.8881197846
 20
20.0
 11
23.2
 21
20.0
  0
LINE
  5
63F
100
AcDbEntity
  8
SMUSSO
100
AcDbLine
 62
7
  6
CONTINUOUS
 10
-23.2
 20
20.0
 11
-23.8881197846
 21
20.0
  0
LINE
  5
640
100
AcDbEntity
  8
DRAFT
100
AcDbLine
 62
7
  6
CONTINUOUS
 10
-23.8881197846
 20
20.0
 11
-24.3625994658
 21
20.0
  0
LINE
  5
641
100
AcDbEntity
  8
RACCORDO
100
AcDbLine
 62
7
  6
CONTINUOUS
 10
24.3625994658
 20
20.0
 11
25.25
 21
20.0
  0
LINE
  5
642
100
AcDbEntity
  8
DRAFT
100
AcDbLine
 62
7
  6
CONTINUOUS
 10
-24.3625994658
 20
21.0
 11
-23.8881197846
 21
21.0
  0
LINE
  5
643
100
AcDbEntity
  8
RACCORDO
100
AcDbLine
 62
7
  6
CONTINUOUS
 10
-23.8881197846
 20
21.0
 11
-23.0017912049
 21
21.0
  0
LINE
  5
644
100
AcDbEntity
  8
RACCORDO
100
AcDbLine
 62
7
  6
CONTINUOUS
 10
23.0017912049
 20
21.0
 11
23.8881197846
 21
21.0
  0
LINE
  5
645
100
AcDbEntity
  8
DRAFT
100
AcDbLine
 62
7
  6
CONTINUOUS
 10
23.8881197846
 20
21.0
 11
24.3625994658
 21
21.0
  0
LINE
  5
646
100
AcDbEntity
  8
RACCORDO
100
AcDbLine
 62
7
  6
CONTINUOUS
 10
24.3625994658
 20
21.0
 11
32.0
 21
21.0
  0
LINE
  5
647
100
AcDbEntity
  8
RACCORDO
100
AcDbLine
 62
7
  6
CONTINUOUS
 10
-24.3625994658
 20
21.0
 11
-32.0
 21
21.0
  0
LINE
  5
648
100
AcDbEntity
  8
DRAFT
100
AcDbLine
 62
7
  6
CONTINUOUS
 10
22.6945466124
 20
21.25
 11
25.15
 21
21.25
  0
LINE
  5
649
100
AcDbEntity
  8
DRAFT
100
AcDbLine
 62
7
  6
CONTINUOUS
 10
-22.6945466124
 20
21.25
 11
-25.15
 21
21.25
  0
LINE
  5
64A
100
AcDbEntity
  8
RACCORDO
100
AcDbLine
 62
7
  6
CONTINUOUS
 10
23.0000456984
 20
22.0
 11
32.0
 21
22.0
  0
LINE
  5
64B
100
AcDbEntity
  8
RACCORDO
100
AcDbLine
 62
7
  6
CONTINUOUS
 10
-23.0000456984
 20
22.0
 11
-32.0
 21
22.0
  0
LINE
  5
64C
100
AcDbEntity
  8
RACCORDO
100
AcDbLine
 62
7
  6
CONTINUOUS
 10
22.3421909122
 20
22.5921452208
 11
-22.3421909122
 21
22.5921452208
  0
LINE
  5
64D
100
AcDbEntity
  8
RACCORDO
100
AcDbLine
 62
7
  6
CONTINUOUS
 10
-22.3739946403
 20
22.6235835007
 11
22.3739946403
 21
22.6235835007
  0
LINE
  5
64E
100
AcDbEntity
  8
RACCORDO
100
AcDbLine
 62
7
  6
CONTINUOUS
 10
-22.4368839754
 20
22.6864728358
 11
22.4368839754
 21
22.6864728358
  0
LINE
  5
64F
100
AcDbEntity
  8
RACCORDO
100
AcDbLine
 62
7
  6
CONTINUOUS
 10
24.35
 20
22.7
 11
14.8
 21
22.7
  0
LINE
  5
650
100
AcDbEntity
  8
RACCORDO
100
AcDbLine
 62
7
  6
CONTINUOUS
 10
7.7
 20
22.7
 11
-7.7
 21
22.7
  0
LINE
  5
651
100
AcDbEntity
  8
RACCORDO
100
AcDbLine
 62
7
  6
CONTINUOUS
 10
-14.8
 20
22.7
 11
-24.35
 21
22.7
  0
LINE
  5
652
100
AcDbEntity
  8
RACCORDO
100
AcDbLine
 62
253
  6
CONTINUOUS
 10
-24.3588798489
 20
22.7088798489
 11
-22.7088341575
 21
22.7088798489
  0
LINE
  5
653
100
AcDbEntity
  8
RACCORDO
100
AcDbLine
 62
253
  6
CONTINUOUS
 10
22.7088341575
 20
22.7088798489
 11
24.3588798489
 21
22.7088798489
  0
LINE
  5
654
100
AcDbEntity
  8
SMUSSO
100
AcDbLine
 62
7
  6
CONTINUOUS
 10
23.3
 20
19.7255629091
 11
23.5309401077
 21
19.7185808831
  0
LINE
  5
655
100
AcDbEntity
  8
DRAFT
100
AcDbLine
 62
253
  6
CONTINUOUS
 10
-13.3258625
 20
26.8929755853
 11
-13.3326059412
 21
26.8947824849
  0
LINE
  5
656
100
AcDbEntity
  8
DRAFT
100
AcDbLine
 62
7
  6
CONTINUOUS
 10
43.0325449351
 20
-12.35
 11
43.05
 21
-12.3674550649
  0
LINE
  5
657
100
AcDbEntity
  8
DRAFT
100
AcDbLine
 62
7
  6
CONTINUOUS
 10
-12.35
 20
43.0325449351
 11
-12.3674550649
 21
43.05
  0
LINE
  5
658
100
AcDbEntity
  8
DRAFT
100
AcDbLine
 62
7
  6
CONTINUOUS
 10
44.05
 20
-12.3674550649
 11
44.0726915844
 21
-12.3901466493
  0
LINE
  5
659
100
AcDbEntity
  8
DRAFT
100
AcDbLine
 62
7
  6
CONTINUOUS
 10
-12.3674550649
 20
44.05
 11
-12.3901466493
 21
44.0726915844
  0
LINE
  5
65A
100
AcDbEntity
  8
ASSI
100
AcDbLine
 62
7
  6
CONTINUOUS
 10
12.4830127019
 20
26.35
 11
12.4767771707
 21
26.3732713192
  0
LINE
  5
65B
100
AcDbEntity
  8
DRAFT
100
AcDbLine
 62
7
  6
CONTINUOUS
 10
13.3258625
 20
26.8929755853
 11
13.4713523696
 21
26.35
  0
LINE
  5
65C
100
AcDbEntity
  8
DRAFT
100
AcDbLine
 62
7
  6
CONTINUOUS
 10
13.4723444369
 20
26.3732713192
 11
13.3327531538
 21
26.8948219304
  0
LINE
  5
65D
100
AcDbEntity
  8
DRAFT
100
AcDbLine
 62
7
  6
CONTINUOUS
 10
23.15
 20
24.6674550649
 11
23.15
 21
23.5
  0
LINE
  5
65E
100
AcDbEntity
  8
RACCORDO
100
AcDbLine
 62
7
  6
CONTINUOUS
 10
23.15
 20
-25.1675656165
 11
23.15
 21
-24.6676073814
  0
LINE
  5
65F
100
AcDbEntity
  8
DRAFT
100
AcDbLine
 62
7
  6
CONTINUOUS
 10
23.15
 20
-24.6674550649
 11
23.15
 21
-23.5
  0
LINE
  5
660
100
AcDbEntity
  8
RACCORDO
100
AcDbLine
 62
7
  6
CONTINUOUS
 10
23.15
 20
24.6676073814
 11
23.15
 21
25.1675656165
  0
LINE
  5
661
100
AcDbEntity
  8
0
100
AcDbLine
 62
7
  6
CONTINUOUS
 10
23.2
 20
-20.0
 11
23.2
 21
-15.0
  0
LINE
  5
662
100
AcDbEntity
  8
0
100
AcDbLine
 62
7
  6
CONTINUOUS
 10
23.2
 20
15.0
 11
23.2
 21
20.0
  0
LINE
  5
663
100
AcDbEntity
  8
SMUSSO
100
AcDbLine
 62
7
  6
CONTINUOUS
 10
23.3
 20
-19.7255629091
 11
23.3
 21
-15.2744370909
  0
LINE
  5
664
100
AcDbEntity
  8
SMUSSO
100
AcDbLine
 62
7
  6
CONTINUOUS
 10
23.3
 20
15.2744370909
 11
23.3
 21
19.7255629091
  0
LINE
  5
665
100
AcDbEntity
  8
0
100
AcDbLine
 62
7
  6
CONTINUOUS
 10
23.5
 20
-0.6
 11
23.5
 21
0.6
  0
LINE
  5
666
100
AcDbEntity
  8
SMUSSO
100
AcDbLine
 62
7
  6
CONTINUOUS
 10
23.5309401077
 20
-19.7185808831
 11
23.5309401077
 21
-15.2814191169
  0
LINE
  5
667
100
AcDbEntity
  8
SMUSSO
100
AcDbLine
 62
7
  6
CONTINUOUS
 10
23.5309401077
 20
15.2814191169
 11
23.5309401077
 21
19.7185808831
  0
LINE
  5
668
100
AcDbEntity
  8
RACCORDO
100
AcDbLine
 62
7
  6
CONTINUOUS
 10
23.7
 20
15.2692005714
 11
23.7
 21
15.2517455065
  0
LINE
  5
669
100
AcDbEntity
  8
RACCORDO
100
AcDbLine
 62
7
  6
CONTINUOUS
 10
23.7
 20
-19.7307994286
 11
23.7
 21
-19.7482544935
  0
LINE
  5
66A
100
AcDbEntity
  8
RACCORDO
100
AcDbLine
 62
7
  6
CONTINUOUS
 10
23.7
 20
-15.2692005714
 11
23.7
 21
-15.2517455065
  0
LINE
  5
66B
100
AcDbEntity
  8
RACCORDO
100
AcDbLine
 62
7
  6
CONTINUOUS
 10
23.7
 20
19.7307994286
 11
23.7
 21
19.7482544935
  0
LINE
  5
66C
100
AcDbEntity
  8
DRAFT
100
AcDbLine
 62
7
  6
CONTINUOUS
 10
23.8377814546
 20
-23.53174001
 11
23.8377814546
 21
-23.5
  0
LINE
  5
66D
100
AcDbEntity
  8
DRAFT
100
AcDbLine
 62
7
  6
CONTINUOUS
 10
23.8377814546
 20
-22.0
 11
23.8377814546
 21
-21.25
  0
LINE
  5
66E
100
AcDbEntity
  8
DRAFT
100
AcDbLine
 62
7
  6
CONTINUOUS
 10
23.8377814546
 20
-13.75
 11
23.8377814546
 21
-7.0
  0
LINE
  5
66F
100
AcDbEntity
  8
DRAFT
100
AcDbLine
 62
7
  6
CONTINUOUS
 10
23.8377814546
 20
-0.6
 11
23.8377814546
 21
0.6
  0
LINE
  5
670
100
AcDbEntity
  8
DRAFT
100
AcDbLine
 62
7
  6
CONTINUOUS
 10
23.8377814546
 20
7.0
 11
23.8377814546
 21
13.75
  0
LINE
  5
671
100
AcDbEntity
  8
DRAFT
100
AcDbLine
 62
7
  6
CONTINUOUS
 10
23.8377814546
 20
21.25
 11
23.8377814546
 21
22.0
  0
LINE
  5
672
100
AcDbEntity
  8
DRAFT
100
AcDbLine
 62
7
  6
CONTINUOUS
 10
23.8377814546
 20
23.5
 11
23.8377814546
 21
23.53174001
  0
LINE
  5
673
100
AcDbEntity
  8
RACCORDO
100
AcDbLine
 62
7
  6
CONTINUOUS
 10
23.85
 20
-22.0
 11
23.85
 21
-21.25
  0
LINE
  5
674
100
AcDbEntity
  8
DRAFT
100
AcDbLine
 62
7
  6
CONTINUOUS
 10
23.85
 20
-13.75
 11
23.85
 21
-7.0
  0
LINE
  5
675
100
AcDbEntity
  8
DRAFT
100
AcDbLine
 62
7
  6
CONTINUOUS
 10
23.85
 20
-0.6
 11
23.85
 21
0.6
  0
LINE
  5
676
100
AcDbEntity
  8
DRAFT
100
AcDbLine
 62
7
  6
CONTINUOUS
 10
23.85
 20
7.0
 11
23.85
 21
13.75
  0
LINE
  5
677
100
AcDbEntity
  8
RACCORDO
100
AcDbLine
 62
7
  6
CONTINUOUS
 10
23.85
 20
21.25
 11
23.85
 21
22.0
  0
LINE
  5
678
100
AcDbEntity
  8
SMUSSO
100
AcDbLine
 62
7
  6
CONTINUOUS
 10
23.8881197846
 20
-21.0
 11
23.8881197846
 21
-20.0
  0
LINE
  5
679
100
AcDbEntity
  8
SMUSSO
100
AcDbLine
 62
7
  6
CONTINUOUS
 10
23.8881197846
 20
-15.0
 11
23.8881197846
 21
-14.0
  0
LINE
  5
67A
100
AcDbEntity
  8
SMUSSO
100
AcDbLine
 62
7
  6
CONTINUOUS
 10
23.8881197846
 20
14.0
 11
23.8881197846
 21
15.0
  0
LINE
  5
67B
100
AcDbEntity
  8
SMUSSO
100
AcDbLine
 62
7
  6
CONTINUOUS
 10
23.8881197846
 20
20.0
 11
23.8881197846
 21
21.0
  0
LINE
  5
67C
100
AcDbEntity
  8
RACCORDO
100
AcDbLine
 62
253
  6
CONTINUOUS
 10
24.0755019779
 20
-19.7185808831
 11
24.0755019779
 21
-15.2814191169
  0
LINE
  5
67D
100
AcDbEntity
  8
RACCORDO
100
AcDbLine
 62
253
  6
CONTINUOUS
 10
24.0755019779
 20
15.2814191169
 11
24.0755019779
 21
19.7185808831
  0
LINE
  5
67E
100
AcDbEntity
  8
DRAFT
100
AcDbLine
 62
7
  6
CONTINUOUS
 10
24.2
 20
13.0
 11
24.2
 21
7.0
  0
LINE
  5
67F
100
AcDbEntity
  8
DRAFT
100
AcDbLine
 62
7
  6
CONTINUOUS
 10
24.2
 20
-7.0
 11
24.2
 21
-13.0
  0
LINE
  5
680
100
AcDbEntity
  8
DRAFT
100
AcDbLine
 62
7
  6
CONTINUOUS
 10
24.35
 20
-24.7
 11
24.35
 21
-23.5
  0
LINE
  5
681
100
AcDbEntity
  8
DRAFT
100
AcDbLine
 62
7
  6
CONTINUOUS
 10
24.35
 20
-22.7
 11
24.35
 21
-22.0
  0
LINE
  5
682
100
AcDbEntity
  8
DRAFT
100
AcDbLine
 62
7
  6
CONTINUOUS
 10
24.35
 20
-13.0
 11
24.35
 21
-0.6
  0
LINE
  5
683
100
AcDbEntity
  8
DRAFT
100
AcDbLine
 62
7
  6
CONTINUOUS
 10
24.35
 20
0.6
 11
24.35
 21
13.0
  0
LINE
  5
684
100
AcDbEntity
  8
DRAFT
100
AcDbLine
 62
7
  6
CONTINUOUS
 10
24.35
 20
22.0
 11
24.35
 21
22.7
  0
LINE
  5
685
100
AcDbEntity
  8
DRAFT
100
AcDbLine
 62
7
  6
CONTINUOUS
 10
24.35
 20
23.5
 11
24.35
 21
24.7
  0
LINE
  5
686
100
AcDbEntity
  8
RACCORDO
100
AcDbLine
 62
253
  6
CONTINUOUS
 10
24.3596916756
 20
-6.9387787509
 11
24.3596916756
 21
-0.6
  0
LINE
  5
687
100
AcDbEntity
  8
RACCORDO
100
AcDbLine
 62
253
  6
CONTINUOUS
 10
24.3596916756
 20
0.6
 11
24.3596916756
 21
6.9387787509
  0
LINE
  5
688
100
AcDbEntity
  8
DRAFT
100
AcDbLine
 62
7
  6
CONTINUOUS
 10
24.3625994658
 20
-21.0
 11
24.3625994658
 21
-20.0
  0
LINE
  5
689
100
AcDbEntity
  8
DRAFT
100
AcDbLine
 62
7
  6
CONTINUOUS
 10
24.3625994658
 20
-15.0
 11
24.3625994658
 21
-14.0
  0
LINE
  5
68A
100
AcDbEntity
  8
DRAFT
100
AcDbLine
 62
7
  6
CONTINUOUS
 10
24.3625994658
 20
14.0
 11
24.3625994658
 21
15.0
  0
LINE
  5
68B
100
AcDbEntity
  8
DRAFT
100
AcDbLine
 62
7
  6
CONTINUOUS
 10
24.3625994658
 20
20.0
 11
24.3625994658
 21
21.0
  0
LINE
  5
68C
100
AcDbEntity
  8
RACCORDO
100
AcDbLine
 62
7
  6
CONTINUOUS
 10
24.3674550649
 20
-23.5
 11
24.3674550649
 21
-23.2088036965
  0
LINE
  5
68D
100
AcDbEntity
  8
RACCORDO
100
AcDbLine
 62
7
  6
CONTINUOUS
 10
24.3674550649
 20
23.2088036965
 11
24.3674550649
 21
23.5
  0
LINE
  5
68E
100
AcDbEntity
  8
RACCORDO
100
AcDbLine
 62
253
  6
CONTINUOUS
 10
24.3676073814
 20
21.0
 11
24.3676073814
 21
20.0
  0
LINE
  5
68F
100
AcDbEntity
  8
RACCORDO
100
AcDbLine
 62
253
  6
CONTINUOUS
 10
24.3676073814
 20
15.0
 11
24.3676073814
 21
14.0
  0
LINE
  5
690
100
AcDbEntity
  8
RACCORDO
100
AcDbLine
 62
253
  6
CONTINUOUS
 10
24.3676071176
 20
-7.672350921
 11
24.3676073814
 21
-13.0
  0
LINE
  5
691
100
AcDbEntity
  8
RACCORDO
100
AcDbLine
 62
253
  6
CONTINUOUS
 10
24.3676073814
 20
-14.0
 11
24.3676073814
 21
-15.0
  0
LINE
  5
692
100
AcDbEntity
  8
RACCORDO
100
AcDbLine
 62
253
  6
CONTINUOUS
 10
24.3676073814
 20
-24.7000761524
 11
24.3676073814
 21
-23.5
  0
LINE
  5
693
100
AcDbEntity
  8
RACCORDO
100
AcDbLine
 62
253
  6
CONTINUOUS
 10
24.3674550649
 20
-23.2088036965
 11
24.3676073814
 21
-22.0
  0
LINE
  5
694
100
AcDbEntity
  8
RACCORDO
100
AcDbLine
 62
253
  6
CONTINUOUS
 10
24.3676073814
 20
-20.0
 11
24.3676073814
 21
-21.0
  0
LINE
  5
695
100
AcDbEntity
  8
RACCORDO
100
AcDbLine
 62
253
  6
CONTINUOUS
 10
24.3676071183
 20
7.6723509466
 11
24.3676073814
 21
13.0
  0
LINE
  5
696
100
AcDbEntity
  8
RACCORDO
100
AcDbLine
 62
253
  6
CONTINUOUS
 10
24.3676073814
 20
22.0
 11
24.3674550649
 21
23.2088036965
  0
LINE
  5
697
100
AcDbEntity
  8
RACCORDO
100
AcDbLine
 62
253
  6
CONTINUOUS
 10
24.3676073814
 20
23.5
 11
24.3676073814
 21
24.7000761524
  0
LINE
  5
698
100
AcDbEntity
  8
RACCORDO
100
AcDbLine
 62
253
  6
CONTINUOUS
 10
24.4754410559
 20
-19.7254410559
 11
24.4754410559
 21
-15.2745589441
  0
LINE
  5
699
100
AcDbEntity
  8
RACCORDO
100
AcDbLine
 62
253
  6
CONTINUOUS
 10
24.4754410559
 20
15.2745589441
 11
24.4754410559
 21
19.7254410559
  0
LINE
  5
69A
100
AcDbEntity
  8
RACCORDO
100
AcDbLine
 62
253
  6
CONTINUOUS
 10
24.4931702905
 20
-19.7431702905
 11
24.4931702905
 21
-15.2568297095
  0
LINE
  5
69B
100
AcDbEntity
  8
RACCORDO
100
AcDbLine
 62
253
  6
CONTINUOUS
 10
24.4931702905
 20
15.2568297095
 11
24.4931702905
 21
19.7431702905
  0
LINE
  5
69C
100
AcDbEntity
  8
RACCORDO
100
AcDbLine
 62
253
  6
CONTINUOUS
 10
24.6596459841
 20
-6.9388120306
 11
24.6596459841
 21
-0.6
  0
LINE
  5
69D
100
AcDbEntity
  8
RACCORDO
100
AcDbLine
 62
253
  6
CONTINUOUS
 10
24.6596459841
 20
0.6
 11
24.6596459841
 21
6.9388119964
  0
LINE
  5
69E
100
AcDbEntity
  8
0
100
AcDbLine
 62
7
  6
CONTINUOUS
 10
24.7
 20
0.6
 11
24.7
 21
-0.6
  0
LINE
  5
69F
100
AcDbEntity
  8
RACCORDO
100
AcDbLine
 62
7
  6
CONTINUOUS
 10
24.7497544191
 20
12.7002760419
 11
24.7497544191
 21
8.4497239581
  0
LINE
  5
6A0
100
AcDbEntity
  8
RACCORDO
100
AcDbLine
 62
7
  6
CONTINUOUS
 10
24.7497544191
 20
-8.4497239581
 11
24.7497544191
 21
-12.7002760419
  0
LINE
  5
6A1
100
AcDbEntity
  8
RACCORDO
100
AcDbLine
 62
7
  6
CONTINUOUS
 10
24.75
 20
20.0
 11
24.75
 21
15.0
  0
LINE
  5
6A2
100
AcDbEntity
  8
RACCORDO
100
AcDbLine
 62
7
  6
CONTINUOUS
 10
24.75
 20
-15.0
 11
24.75
 21
-20.0
  0
LINE
  5
6A3
100
AcDbEntity
  8
RACCORDO
100
AcDbLine
 62
253
  6
CONTINUOUS
 10
24.7849710564
 20
12.6650594045
 11
24.7849710564
 21
8.4849405955
  0
LINE
  5
6A4
100
AcDbEntity
  8
RACCORDO
100
AcDbLine
 62
253
  6
CONTINUOUS
 10
24.7849710564
 20
-8.4849405955
 11
24.7849710564
 21
-12.6650594045
  0
LINE
  5
6A5
100
AcDbEntity
  8
RACCORDO
100
AcDbLine
 62
253
  6
CONTINUOUS
 10
24.867531229
 20
21.0
 11
24.867531229
 21
20.0
  0
LINE
  5
6A6
100
AcDbEntity
  8
RACCORDO
100
AcDbLine
 62
253
  6
CONTINUOUS
 10
24.867531229
 20
15.0
 11
24.867531229
 21
14.0
  0
LINE
  5
6A7
100
AcDbEntity
  8
RACCORDO
100
AcDbLine
 62
253
  6
CONTINUOUS
 10
24.867531229
 20
13.0
 11
24.867531229
 21
12.8822199628
  0
LINE
  5
6A8
100
AcDbEntity
  8
RACCORDO
100
AcDbLine
 62
253
  6
CONTINUOUS
 10
24.867531229
 20
8.2677800372
 11
24.867531229
 21
7.7733686226
  0
LINE
  5
6A9
100
AcDbEntity
  8
RACCORDO
100
AcDbLine
 62
253
  6
CONTINUOUS
 10
24.867531229
 20
-7.7733686226
 11
24.867531229
 21
-8.2677800372
  0
LINE
  5
6AA
100
AcDbEntity
  8
RACCORDO
100
AcDbLine
 62
253
  6
CONTINUOUS
 10
24.867531229
 20
-12.8822199628
 11
24.867531229
 21
-13.0
  0
LINE
  5
6AB
100
AcDbEntity
  8
RACCORDO
100
AcDbLine
 62
253
  6
CONTINUOUS
 10
24.867531229
 20
-14.0
 11
24.867531229
 21
-15.0
  0
LINE
  5
6AC
100
AcDbEntity
  8
RACCORDO
100
AcDbLine
 62
253
  6
CONTINUOUS
 10
24.867531229
 20
-25.2
 11
24.867531229
 21
-22.0
  0
LINE
  5
6AD
100
AcDbEntity
  8
RACCORDO
100
AcDbLine
 62
253
  6
CONTINUOUS
 10
24.867531229
 20
-20.0
 11
24.867531229
 21
-21.0
  0
LINE
  5
6AE
100
AcDbEntity
  8
RACCORDO
100
AcDbLine
 62
253
  6
CONTINUOUS
 10
24.867531229
 20
22.0
 11
24.867531229
 21
25.2
  0
LINE
  5
6AF
100
AcDbEntity
  8
RACCORDO
100
AcDbLine
 62
253
  6
CONTINUOUS
 10
24.9849405955
 20
-12.8650289436
 11
24.9849405955
 21
-8.2849710564
  0
LINE
  5
6B0
100
AcDbEntity
  8
RACCORDO
100
AcDbLine
 62
253
  6
CONTINUOUS
 10
24.9849405955
 20
8.2849710564
 11
24.9849405955
 21
12.8650289436
  0
LINE
  5
6B1
100
AcDbEntity
  8
RACCORDO
100
AcDbLine
 62
7
  6
CONTINUOUS
 10
25.15
 20
22.0
 11
25.15
 21
21.25
  0
LINE
  5
6B2
100
AcDbEntity
  8
0
100
AcDbLine
 62
7
  6
CONTINUOUS
 10
25.15
 20
-21.25
 11
25.15
 21
-21.0
  0
LINE
  5
6B3
100
AcDbEntity
  8
RACCORDO
100
AcDbLine
 62
7
  6
CONTINUOUS
 10
25.15
 20
-21.25
 11
25.15
 21
-22.0
  0
LINE
  5
6B4
100
AcDbEntity
  8
0
100
AcDbLine
 62
7
  6
CONTINUOUS
 10
25.15
 20
-14.0
 11
25.15
 21
-13.0
  0
LINE
  5
6B5
100
AcDbEntity
  8
0
100
AcDbLine
 62
7
  6
CONTINUOUS
 10
25.15
 20
13.0
 11
25.15
 21
14.0
  0
LINE
  5
6B6
100
AcDbEntity
  8
0
100
AcDbLine
 62
7
  6
CONTINUOUS
 10
25.15
 20
21.0
 11
25.15
 21
21.25
  0
LINE
  5
6B7
100
AcDbEntity
  8
RACCORDO
100
AcDbLine
 62
253
  6
CONTINUOUS
 10
25.25
 20
20.0
 11
25.25
 21
15.0
  0
LINE
  5
6B8
100
AcDbEntity
  8
RACCORDO
100
AcDbLine
 62
253
  6
CONTINUOUS
 10
25.25
 20
-15.0
 11
25.25
 21
-20.0
  0
LINE
  5
6B9
100
AcDbEntity
  8
RACCORDO
100
AcDbLine
 62
7
  6
CONTINUOUS
 10
25.45
 20
22.0
 11
25.45
 21
21.0
  0
LINE
  5
6BA
100
AcDbEntity
  8
RACCORDO
100
AcDbLine
 62
7
  6
CONTINUOUS
 10
25.45
 20
14.0
 11
25.45
 21
13.0
  0
LINE
  5
6BB
100
AcDbEntity
  8
RACCORDO
100
AcDbLine
 62
7
  6
CONTINUOUS
 10
25.45
 20
-13.0
 11
25.45
 21
-14.0
  0
LINE
  5
6BC
100
AcDbEntity
  8
RACCORDO
100
AcDbLine
 62
7
  6
CONTINUOUS
 10
25.45
 20
-21.0
 11
25.45
 21
-22.0
  0
LINE
  5
6BD
100
AcDbEntity
  8
RACCORDO
100
AcDbLine
 62
253
  6
CONTINUOUS
 10
25.5150594045
 20
-12.8650289436
 11
25.5150594045
 21
-8.2849710564
  0
LINE
  5
6BE
100
AcDbEntity
  8
RACCORDO
100
AcDbLine
 62
253
  6
CONTINUOUS
 10
25.5150594045
 20
8.2849710564
 11
25.5150594045
 21
12.8650289436
  0
LINE
  5
6BF
100
AcDbEntity
  8
RACCORDO
100
AcDbLine
 62
253
  6
CONTINUOUS
 10
25.7150289436
 20
-12.6650594045
 11
25.7150289436
 21
-8.4849405955
  0
LINE
  5
6C0
100
AcDbEntity
  8
RACCORDO
100
AcDbLine
 62
253
  6
CONTINUOUS
 10
25.7150289436
 20
8.4849405955
 11
25.7150289436
 21
12.6650594045
  0
LINE
  5
6C1
100
AcDbEntity
  8
RACCORDO
100
AcDbLine
 62
7
  6
CONTINUOUS
 10
25.75
 20
-12.700030461
 11
25.75
 21
-8.449969539
  0
LINE
  5
6C2
100
AcDbEntity
  8
RACCORDO
100
AcDbLine
 62
7
  6
CONTINUOUS
 10
25.75
 20
8.449969539
 11
25.75
 21
12.700030461
  0
LINE
  5
6C3
100
AcDbEntity
  8
ASSI
100
AcDbLine
 62
7
  6
CONTINUOUS
 10
26.41157
 20
-36.489452
 11
26.41157
 21
-36.906117
  0
LINE
  5
6C4
100
AcDbEntity
  8
ASSI
100
AcDbLine
 62
7
  6
CONTINUOUS
 10
26.425177
 20
-33.110297
 11
26.425177
 21
-33.529254
  0
LINE
  5
6C5
100
AcDbEntity
  8
ASSI
100
AcDbLine
 62
7
  6
CONTINUOUS
 10
26.780825
 20
-33.529254
 11
26.780825
 21
-34.591613
  0
LINE
  5
6C6
100
AcDbEntity
  8
ASSI
100
AcDbLine
 62
7
  6
CONTINUOUS
 10
26.780825
 20
-35.107969
 11
26.780825
 21
-36.489452
  0
LINE
  5
6C7
100
AcDbEntity
  8
0
100
AcDbLine
 62
7
  6
CONTINUOUS
 10
27.0893832709
 20
31.7533762561
 11
27.0893832709
 21
28.2467191156
  0
LINE
  5
6C8
100
AcDbEntity
  8
ASSI
100
AcDbLine
 62
7
  6
CONTINUOUS
 10
27.224704
 20
-36.489452
 11
27.224704
 21
-35.103309
  0
LINE
  5
6C9
100
AcDbEntity
  8
ASSI
100
AcDbLine
 62
7
  6
CONTINUOUS
 10
27.224704
 20
-34.591613
 11
27.224704
 21
-33.529254
  0
LINE
  5
6CA
100
AcDbEntity
  8
0
100
AcDbLine
 62
7
  6
CONTINUOUS
 10
27.3054689922
 20
28.2467191156
 11
27.3054689922
 21
31.5024896875
  0
LINE
  5
6CB
100
AcDbEntity
  8
RACCORDO
100
AcDbLine
 62
253
  6
CONTINUOUS
 10
24.867531229
 20
-7.7733686226
 11
24.9187017664
 21
-7.4831660837
  0
LINE
  5
6CC
100
AcDbEntity
  8
0
100
AcDbLine
 62
7
  6
CONTINUOUS
 10
37.5406645368
 20
31.7533762561
 11
36.5239599291
 21
28.6982964382
  0
LINE
  5
6CD
100
AcDbEntity
  8
0
100
AcDbLine
 62
7
  6
CONTINUOUS
 10
36.7793733568
 20
28.2467191156
 11
38.0268656462
 21
31.7533762561
  0
LINE
  5
6CE
100
AcDbEntity
  8
SMUSSO
100
AcDbLine
 62
7
  6
CONTINUOUS
 10
46.35
 20
47.35
 11
46.1428932188
 21
46.85
  0
LINE
  5
6CF
100
AcDbEntity
  8
RACCORDO
100
AcDbLine
 62
253
  6
CONTINUOUS
 10
25.5150594045
 20
-8.2849710564
 11
25.550030461
 21
-8.25
  0
LINE
  5
6D0
100
AcDbEntity
  8
RACCORDO
100
AcDbLine
 62
253
  6
CONTINUOUS
 10
25.7150289436
 20
-8.4849405955
 11
25.75
 21
-8.449969539
  0
LINE
  5
6D1
100
AcDbEntity
  8
RACCORDO
100
AcDbLine
 62
253
  6
CONTINUOUS
 10
24.7497544191
 20
-12.7002760419
 11
24.7849710564
 21
-12.6650594045
  0
LINE
  5
6D2
100
AcDbEntity
  8
RACCORDO
100
AcDbLine
 62
253
  6
CONTINUOUS
 10
24.949969539
 20
-12.9
 11
24.9849405955
 21
-12.8650289436
  0
LINE
  5
6D3
100
AcDbEntity
  8
SMUSSO
100
AcDbLine
 62
7
  6
CONTINUOUS
 10
-47.35
 20
-46.35
 11
-46.85
 21
-46.1428932188
  0
LINE
  5
6D4
100
AcDbEntity
  8
0
100
AcDbLine
 62
7
  6
CONTINUOUS
 10
-30.8333332539
 20
-34.9787234068
 11
-30.7083332539
 21
-34.9361702204
  0
LINE
  5
6D5
100
AcDbEntity
  8
0
100
AcDbLine
 62
7
  6
CONTINUOUS
 10
-30.2916667461
 20
-35.7446808517
 11
-30.4166667461
 21
-35.7872340381
  0
LINE
  5
6D6
100
AcDbEntity
  8
DRAFT
100
AcDbLine
 62
253
  6
CONTINUOUS
 10
9.8327531538
 20
26.8948219304
 11
9.8258625
 21
26.8929755853
  0
LINE
  5
6D7
100
AcDbEntity
  8
RACCORDO
100
AcDbLine
 62
253
  6
CONTINUOUS
 10
-24.3674550649
 20
23.2088036965
 11
-22.9088036965
 21
23.2088036965
  0
LINE
  5
6D8
100
AcDbEntity
  8
RACCORDO
100
AcDbLine
 62
253
  6
CONTINUOUS
 10
22.9088036965
 20
23.2088036965
 11
24.3674550649
 21
23.2088036965
  0
LINE
  5
6D9
100
AcDbEntity
  8
DRAFT
100
AcDbLine
 62
7
  6
CONTINUOUS
 10
-24.3674550649
 20
23.5
 11
-23.15
 21
23.5
  0
LINE
  5
6DA
100
AcDbEntity
  8
DRAFT
100
AcDbLine
 62
7
  6
CONTINUOUS
 10
24.3674550649
 20
23.5
 11
23.15
 21
23.5
  0
LINE
  5
6DB
100
AcDbEntity
  8
0
100
AcDbLine
 62
7
  6
CONTINUOUS
 10
0.6
 20
23.5
 11
-0.6
 21
23.5
  0
LINE
  5
6DC
100
AcDbEntity
  8
DRAFT
100
AcDbLine
 62
7
  6
CONTINUOUS
 10
23.3491248688
 20
23.6877814546
 11
23.15
 21
23.6877814546
  0
LINE
  5
6DD
100
AcDbEntity
  8
DRAFT
100
AcDbLine
 62
7
  6
CONTINUOUS
 10
14.5
 20
23.6877814546
 11
8.0
 21
23.6877814546
  0
LINE
  5
6DE
100
AcDbEntity
  8
DRAFT
100
AcDbLine
 62
7
  6
CONTINUOUS
 10
0.6
 20
23.6877814546
 11
-0.6
 21
23.6877814546
  0
LINE
  5
6DF
100
AcDbEntity
  8
DRAFT
100
AcDbLine
 62
7
  6
CONTINUOUS
 10
-8.0
 20
23.6877814546
 11
-14.5
 21
23.6877814546
  0
LINE
  5
6E0
100
AcDbEntity
  8
DRAFT
100
AcDbLine
 62
7
  6
CONTINUOUS
 10
-23.15
 20
23.6877814546
 11
-23.3491248688
 21
23.6877814546
  0
LINE
  5
6E1
100
AcDbEntity
  8
RACCORDO
100
AcDbLine
 62
7
  6
CONTINUOUS
 10
14.5
 20
23.7
 11
8.0
 21
23.7
  0
LINE
  5
6E2
100
AcDbEntity
  8
RACCORDO
100
AcDbLine
 62
7
  6
CONTINUOUS
 10
0.6
 20
23.7
 11
-0.6
 21
23.7
  0
LINE
  5
6E3
100
AcDbEntity
  8
RACCORDO
100
AcDbLine
 62
7
  6
CONTINUOUS
 10
-8.0
 20
23.7
 11
-14.5
 21
23.7
  0
LINE
  5
6E4
100
AcDbEntity
  8
RACCORDO
100
AcDbLine
 62
7
  6
CONTINUOUS
 10
-22.4
 20
24.65
 11
-14.5
 21
24.65
  0
LINE
  5
6E5
100
AcDbEntity
  8
RACCORDO
100
AcDbLine
 62
7
  6
CONTINUOUS
 10
-8.0
 20
24.65
 11
-0.6
 21
24.65
  0
LINE
  5
6E6
100
AcDbEntity
  8
RACCORDO
100
AcDbLine
 62
7
  6
CONTINUOUS
 10
0.6
 20
24.65
 11
8.0
 21
24.65
  0
LINE
  5
6E7
100
AcDbEntity
  8
RACCORDO
100
AcDbLine
 62
7
  6
CONTINUOUS
 10
14.4315522835
 20
24.65
 11
22.4
 21
24.65
  0
LINE
  5
6E8
100
AcDbEntity
  8
RACCORDO
100
AcDbLine
 62
7
  6
CONTINUOUS
 10
23.15
 20
24.6674550649
 11
22.9088036965
 21
24.6674550649
  0
LINE
  5
6E9
100
AcDbEntity
  8
RACCORDO
100
AcDbLine
 62
7
  6
CONTINUOUS
 10
-22.9088036965
 20
24.6674550649
 11
-23.15
 21
24.6674550649
  0
LINE
  5
6EA
100
AcDbEntity
  8
RACCORDO
100
AcDbLine
 62
253
  6
CONTINUOUS
 10
-22.9088036965
 20
24.6674550649
 11
-14.5
 21
24.6676073814
  0
LINE
  5
6EB
100
AcDbEntity
  8
RACCORDO
100
AcDbLine
 62
253
  6
CONTINUOUS
 10
-8.0
 20
24.6676073814
 11
-0.6
 21
24.6676073814
  0
LINE
  5
6EC
100
AcDbEntity
  8
RACCORDO
100
AcDbLine
 62
253
  6
CONTINUOUS
 10
0.6
 20
24.6676073814
 11
8.0
 21
24.6676073814
  0
LINE
  5
6ED
100
AcDbEntity
  8
RACCORDO
100
AcDbLine
 62
253
  6
CONTINUOUS
 10
14.5
 20
24.6676073814
 11
22.9088036965
 21
24.6674550649
  0
LINE
  5
6EE
100
AcDbEntity
  8
RACCORDO
100
AcDbLine
 62
7
  6
CONTINUOUS
 10
-24.3674550649
 20
24.7
 11
-23.15
 21
24.7
  0
LINE
  5
6EF
100
AcDbEntity
  8
RACCORDO
100
AcDbLine
 62
7
  6
CONTINUOUS
 10
-0.6
 20
24.7
 11
0.6
 21
24.7
  0
LINE
  5
6F0
100
AcDbEntity
  8
RACCORDO
100
AcDbLine
 62
7
  6
CONTINUOUS
 10
8.5
 20
24.7
 11
14.0
 21
24.7
  0
LINE
  5
6F1
100
AcDbEntity
  8
RACCORDO
100
AcDbLine
 62
7
  6
CONTINUOUS
 10
-8.5
 20
24.7
 11
-14.0
 21
24.7
  0
LINE
  5
6F2
100
AcDbEntity
  8
RACCORDO
100
AcDbLine
 62
7
  6
CONTINUOUS
 10
23.15
 20
24.7
 11
24.3674550649
 21
24.7
  0
LINE
  5
6F3
100
AcDbEntity
  8
ASSI
100
AcDbLine
 62
7
  6
CONTINUOUS
 10
14.0
 20
25.05
 11
8.5
 21
25.05
  0
LINE
  5
6F4
100
AcDbEntity
  8
ASSI
100
AcDbLine
 62
7
  6
CONTINUOUS
 10
-8.5
 20
25.05
 11
-14.0
 21
25.05
  0
LINE
  5
6F5
100
AcDbEntity
  8
RACCORDO
100
AcDbLine
 62
253
  6
CONTINUOUS
 10
-23.15
 20
25.167531229
 11
-14.5
 21
25.167531229
  0
LINE
  5
6F6
100
AcDbEntity
  8
RACCORDO
100
AcDbLine
 62
253
  6
CONTINUOUS
 10
-8.0
 20
25.167531229
 11
-0.6
 21
25.167531229
  0
LINE
  5
6F7
100
AcDbEntity
  8
RACCORDO
100
AcDbLine
 62
253
  6
CONTINUOUS
 10
0.6
 20
25.167531229
 11
8.0
 21
25.167531229
  0
LINE
  5
6F8
100
AcDbEntity
  8
RACCORDO
100
AcDbLine
 62
253
  6
CONTINUOUS
 10
14.5
 20
25.167531229
 11
23.15
 21
25.167531229
  0
LINE
  5
6F9
100
AcDbEntity
  8
RACCORDO
100
AcDbLine
 62
253
  6
CONTINUOUS
 10
-24.867531229
 20
25.2
 11
-23.15
 21
25.2
  0
LINE
  5
6FA
100
AcDbEntity
  8
RACCORDO
100
AcDbLine
 62
253
  6
CONTINUOUS
 10
-0.6
 20
25.2
 11
0.6
 21
25.2
  0
LINE
  5
6FB
100
AcDbEntity
  8
ASSI
100
AcDbLine
 62
7
  6
CONTINUOUS
 10
8.0
 20
25.2
 11
14.5
 21
25.2
  0
LINE
  5
6FC
100
AcDbEntity
  8
ASSI
100
AcDbLine
 62
7
  6
CONTINUOUS
 10
-8.0
 20
25.2
 11
-14.5
 21
25.2
  0
LINE
  5
6FD
100
AcDbEntity
  8
RACCORDO
100
AcDbLine
 62
253
  6
CONTINUOUS
 10
23.15
 20
25.2
 11
24.867531229
 21
25.2
  0
LINE
  5
6FE
100
AcDbEntity
  8
ASSI
100
AcDbLine
 62
253
  6
CONTINUOUS
 10
-14.0602070867
 20
25.4
 11
-8.4397929133
 21
25.4
  0
LINE
  5
6FF
100
AcDbEntity
  8
ASSI
100
AcDbLine
 62
253
  6
CONTINUOUS
 10
8.4397929133
 20
25.4
 11
14.0602070867
 21
25.4
  0
LINE
  5
700
100
AcDbEntity
  8
ASSI
100
AcDbLine
 62
7
  6
CONTINUOUS
 10
-12.05
 20
26.1
 11
-10.45
 21
26.1
  0
LINE
  5
701
100
AcDbEntity
  8
ASSI
100
AcDbLine
 62
7
  6
CONTINUOUS
 10
10.45
 20
26.1
 11
12.05
 21
26.1
  0
LINE
  5
702
100
AcDbEntity
  8
ASSI
100
AcDbLine
 62
7
  6
CONTINUOUS
 10
-12.0437644688
 20
26.1232713192
 11
-10.4562355312
 21
26.1232713192
  0
LINE
  5
703
100
AcDbEntity
  8
ASSI
100
AcDbLine
 62
7
  6
CONTINUOUS
 10
10.4562355312
 20
26.1232713192
 11
12.0437644688
 21
26.1232713192
  0
LINE
  5
704
100
AcDbEntity
  8
DRAFT
100
AcDbLine
 62
7
  6
CONTINUOUS
 10
-13.7
 20
26.35
 11
-13.4713523696
 21
26.35
  0
LINE
  5
705
100
AcDbEntity
  8
DRAFT
100
AcDbLine
 62
7
  6
CONTINUOUS
 10
-12.5286476304
 20
26.35
 11
-12.4830127019
 21
26.35
  0
LINE
  5
706
100
AcDbEntity
  8
DRAFT
100
AcDbLine
 62
7
  6
CONTINUOUS
 10
-10.0169872981
 20
26.35
 11
-9.9713523696
 21
26.35
  0
LINE
  5
707
100
AcDbEntity
  8
DRAFT
100
AcDbLine
 62
7
  6
CONTINUOUS
 10
-9.0286476304
 20
26.35
 11
-8.8
 21
26.35
  0
LINE
  5
708
100
AcDbEntity
  8
DRAFT
100
AcDbLine
 62
7
  6
CONTINUOUS
 10
8.8
 20
26.35
 11
9.0286476304
 21
26.35
  0
LINE
  5
709
100
AcDbEntity
  8
DRAFT
100
AcDbLine
 62
7
  6
CONTINUOUS
 10
9.9713523696
 20
26.35
 11
10.0169872981
 21
26.35
  0
LINE
  5
70A
100
AcDbEntity
  8
DRAFT
100
AcDbLine
 62
7
  6
CONTINUOUS
 10
12.4830127019
 20
26.35
 11
12.5286476304
 21
26.35
  0
LINE
  5
70B
100
AcDbEntity
  8
DRAFT
100
AcDbLine
 62
7
  6
CONTINUOUS
 10
13.4713523696
 20
26.35
 11
13.7
 21
26.35
  0
LINE
  5
70C
100
AcDbEntity
  8
DRAFT
100
AcDbLine
 62
7
  6
CONTINUOUS
 10
-13.709639296
 20
26.3732713192
 11
-13.4723444369
 21
26.3732713192
  0
LINE
  5
70D
100
AcDbEntity
  8
DRAFT
100
AcDbLine
 62
7
  6
CONTINUOUS
 10
-12.5276555631
 20
26.3732713192
 11
-12.4767771707
 21
26.3732713192
  0
LINE
  5
70E
100
AcDbEntity
  8
DRAFT
100
AcDbLine
 62
7
  6
CONTINUOUS
 10
-10.0232228293
 20
26.3732713192
 11
-9.9723444369
 21
26.3732713192
  0
LINE
  5
70F
100
AcDbEntity
  8
DRAFT
100
AcDbLine
 62
7
  6
CONTINUOUS
 10
-9.0276555631
 20
26.3732713192
 11
-8.790360704
 21
26.3732713192
  0
LINE
  5
710
100
AcDbEntity
  8
DRAFT
100
AcDbLine
 62
7
  6
CONTINUOUS
 10
8.790360704
 20
26.3732713192
 11
9.0276555631
 21
26.3732713192
  0
LINE
  5
711
100
AcDbEntity
  8
DRAFT
100
AcDbLine
 62
7
  6
CONTINUOUS
 10
9.9723444369
 20
26.3732713192
 11
10.0232228293
 21
26.3732713192
  0
LINE
  5
712
100
AcDbEntity
  8
DRAFT
100
AcDbLine
 62
7
  6
CONTINUOUS
 10
12.4767771707
 20
26.3732713192
 11
12.5276555631
 21
26.3732713192
  0
LINE
  5
713
100
AcDbEntity
  8
DRAFT
100
AcDbLine
 62
7
  6
CONTINUOUS
 10
13.4723444369
 20
26.3732713192
 11
13.709639296
 21
26.3732713192
  0
LINE
  5
714
100
AcDbEntity
  8
DRAFT
100
AcDbLine
 62
7
  6
CONTINUOUS
 10
14.2
 20
26.8075
 11
13.3559932126
 21
26.8075
  0
LINE
  5
715
100
AcDbEntity
  8
DRAFT
100
AcDbLine
 62
7
  6
CONTINUOUS
 10
12.6440067874
 20
26.8075
 11
11.85
 21
26.8075
  0
LINE
  5
716
100
AcDbEntity
  8
DRAFT
100
AcDbLine
 62
7
  6
CONTINUOUS
 10
10.65
 20
26.8075
 11
9.8559932126
 21
26.8075
  0
LINE
  5
717
100
AcDbEntity
  8
DRAFT
100
AcDbLine
 62
7
  6
CONTINUOUS
 10
9.1440067874
 20
26.8075
 11
8.3
 21
26.8075
  0
LINE
  5
718
100
AcDbEntity
  8
DRAFT
100
AcDbLine
 62
7
  6
CONTINUOUS
 10
-8.3
 20
26.8075
 11
-9.1440067874
 21
26.8075
  0
LINE
  5
719
100
AcDbEntity
  8
DRAFT
100
AcDbLine
 62
7
  6
CONTINUOUS
 10
-9.8559932126
 20
26.8075
 11
-10.65
 21
26.8075
  0
LINE
  5
71A
100
AcDbEntity
  8
DRAFT
100
AcDbLine
 62
7
  6
CONTINUOUS
 10
-11.85
 20
26.8075
 11
-12.6440067874
 21
26.8075
  0
LINE
  5
71B
100
AcDbEntity
  8
DRAFT
100
AcDbLine
 62
7
  6
CONTINUOUS
 10
-13.3559932126
 20
26.8075
 11
-14.2
 21
26.8075
  0
LINE
  5
71C
100
AcDbEntity
  8
SMUSSO
100
AcDbLine
 62
7
  6
CONTINUOUS
 10
-14.2
 20
27.1575
 11
-11.85
 21
27.1575
  0
LINE
  5
71D
100
AcDbEntity
  8
SMUSSO
100
AcDbLine
 62
7
  6
CONTINUOUS
 10
-10.65
 20
27.1575
 11
-8.3
 21
27.1575
  0
LINE
  5
71E
100
AcDbEntity
  8
SMUSSO
100
AcDbLine
 62
7
  6
CONTINUOUS
 10
8.3
 20
27.1575
 11
10.65
 21
27.1575
  0
LINE
  5
71F
100
AcDbEntity
  8
SMUSSO
100
AcDbLine
 62
7
  6
CONTINUOUS
 10
11.85
 20
27.1575
 11
14.2
 21
27.1575
  0
LINE
  5
720
100
AcDbEntity
  8
DRAFT
100
AcDbLine
 62
253
  6
CONTINUOUS
 10
-9.8258625
 20
26.8929755853
 11
-9.8326059412
 21
26.8947824849
  0
LINE
  5
721
100
AcDbEntity
  8
SMUSSO
100
AcDbLine
 62
7
  6
CONTINUOUS
 10
-47.35
 20
46.35
 11
-46.85
 21
46.1428932188
  0
LINE
  5
722
100
AcDbEntity
  8
RACCORDO
100
AcDbLine
 62
253
  6
CONTINUOUS
 10
25.5150594045
 20
8.2849710564
 11
25.550030461
 21
8.25
  0
LINE
  5
723
100
AcDbEntity
  8
RACCORDO
100
AcDbLine
 62
253
  6
CONTINUOUS
 10
25.7150289436
 20
8.4849405955
 11
25.75
 21
8.449969539
  0
LINE
  5
724
100
AcDbEntity
  8
RACCORDO
100
AcDbLine
 62
253
  6
CONTINUOUS
 10
24.7497544191
 20
12.7002760419
 11
24.7849710564
 21
12.6650594045
  0
LINE
  5
725
100
AcDbEntity
  8
RACCORDO
100
AcDbLine
 62
253
  6
CONTINUOUS
 10
24.949969539
 20
12.9
 11
24.9849405955
 21
12.8650289436
  0
LINE
  5
726
100
AcDbEntity
  8
SMUSSO
100
AcDbLine
 62
7
  6
CONTINUOUS
 10
46.35
 20
-47.35
 11
46.1428932188
 21
-46.85
  0
LINE
  5
727
100
AcDbEntity
  8
RACCORDO
100
AcDbLine
 62
253
  6
CONTINUOUS
 10
24.867531229
 20
7.7733686226
 11
24.9187017664
 21
7.4831660837
  0
LINE
  5
728
100
AcDbEntity
  8
ASSI
100
AcDbLine
 62
7
  6
CONTINUOUS
 10
27.580209
 20
-33.529254
 11
27.580209
 21
-33.110297
  0
LINE
  5
729
100
AcDbEntity
  8
ASSI
100
AcDbLine
 62
7
  6
CONTINUOUS
 10
27.593816
 20
-36.906117
 11
27.593816
 21
-36.489452
  0
LINE
  5
72A
100
AcDbEntity
  8
DRAFT
100
AcDbLine
 62
7
  6
CONTINUOUS
 10
28.0
 20
45.3447634805
 11
28.0
 21
45.3273084156
  0
LINE
  5
72B
100
AcDbEntity
  8
DRAFT
100
AcDbLine
 62
7
  6
CONTINUOUS
 10
28.0
 20
-45.3447634805
 11
28.0
 21
-45.3273084156
  0
LINE
  5
72C
100
AcDbEntity
  8
0
100
AcDbLine
 62
7
  6
CONTINUOUS
 10
29.5843349047
 20
31.7533762561
 11
29.5843349047
 21
28.522244319
  0
LINE
  5
72D
100
AcDbEntity
  8
0
100
AcDbLine
 62
7
  6
CONTINUOUS
 10
29.800453571
 20
28.2467191156
 11
29.800453571
 21
31.7533762561
  0
LINE
  5
72E
100
AcDbEntity
  8
RACCORDO
100
AcDbLine
 62
253
  6
CONTINUOUS
 10
28.9611931911
 20
-8.4951916764
 11
29.0976479577
 21
-7.7213182393
  0
LINE
  5
72F
100
AcDbEntity
  8
RACCORDO
100
AcDbLine
 62
7
  6
CONTINUOUS
 10
24.4931702905
 20
-15.2568297095
 11
24.4754410559
 21
-15.2745589441
  0
LINE
  5
730
100
AcDbEntity
  8
ASSI
100
AcDbLine
 62
7
  6
CONTINUOUS
 10
14.0602070867
 20
-25.9897929133
 11
13.7
 21
-26.35
  0
LINE
  5
731
100
AcDbEntity
  8
ASSI
100
AcDbLine
 62
7
  6
CONTINUOUS
 10
14.4596311171
 20
-25.6232794982
 11
13.709639296
 21
-26.3732713192
  0
LINE
  5
732
100
AcDbEntity
  8
ASSI
100
AcDbLine
 62
7
  6
CONTINUOUS
 10
14.2599329936
 20
-25.7916264167
 11
14.4596311171
 21
-25.6232794982
  0
LINE
  5
733
100
AcDbEntity
  8
ASSI
100
AcDbLine
 62
7
  6
CONTINUOUS
 10
10.45
 20
-26.1
 11
10.0169872981
 21
-26.35
  0
LINE
  5
734
100
AcDbEntity
  8
ASSI
100
AcDbLine
 62
7
  6
CONTINUOUS
 10
10.4562355312
 20
-26.1232713192
 11
10.0232228293
 21
-26.3732713192
  0
LINE
  5
735
100
AcDbEntity
  8
DRAFT
100
AcDbLine
 62
253
  6
CONTINUOUS
 10
-9.1672468462
 20
26.8948219304
 11
-9.1741375
 21
26.8929755853
  0
LINE
  5
736
100
AcDbEntity
  8
DRAFT
100
AcDbLine
 62
253
  6
CONTINUOUS
 10
-12.6672468462
 20
26.8948219304
 11
-12.6741375
 21
26.8929755853
  0
LINE
  5
737
100
AcDbEntity
  8
0
100
AcDbLine
 62
7
  6
CONTINUOUS
 10
-27.2732753198
 20
28.1125968881
 11
-26.4417794088
 21
28.1125968881
  0
LINE
  5
738
100
AcDbEntity
  8
0
100
AcDbLine
 62
7
  6
CONTINUOUS
 10
-25.1633139566
 20
28.1125968881
 11
-24.3602803749
 21
28.1125968881
  0
LINE
  5
739
100
AcDbEntity
  8
0
100
AcDbLine
 62
7
  6
CONTINUOUS
 10
-38.610415
 20
28.112597
 11
-37.874698
 21
28.112597
  0
LINE
  5
73A
100
AcDbEntity
  8
0
100
AcDbLine
 62
7
  6
CONTINUOUS
 10
-36.279278
 20
28.112597
 11
-35.444423
 21
28.112597
  0
LINE
  5
73B
100
AcDbEntity
  8
0
100
AcDbLine
 62
7
  6
CONTINUOUS
 10
-34.994994
 20
28.112597
 11
-34.19631
 21
28.112597
  0
LINE
  5
73C
100
AcDbEntity
  8
0
100
AcDbLine
 62
7
  6
CONTINUOUS
 10
-33.036762
 20
28.112597
 11
-32.919674
 21
28.112597
  0
LINE
  5
73D
100
AcDbEntity
  8
0
100
AcDbLine
 62
7
  6
CONTINUOUS
 10
-31.755507
 20
28.112597
 11
-30.938797
 21
28.112597
  0
LINE
  5
73E
100
AcDbEntity
  8
0
100
AcDbLine
 62
7
  6
CONTINUOUS
 10
-30.807703
 20
28.112597
 11
-29.981905
 21
28.112597
  0
LINE
  5
73F
100
AcDbEntity
  8
0
100
AcDbLine
 62
7
  6
CONTINUOUS
 10
-28.398332
 20
28.112597
 11
-27.518429
 21
28.112597
  0
LINE
  5
740
100
AcDbEntity
  8
0
100
AcDbLine
 62
7
  6
CONTINUOUS
 10
15.3017902149
 20
28.2467191156
 11
17.6837737227
 21
28.2467191156
  0
LINE
  5
741
100
AcDbEntity
  8
0
100
AcDbLine
 62
7
  6
CONTINUOUS
 10
18.7270075164
 20
28.2467191156
 11
18.9431261827
 21
28.2467191156
  0
LINE
  5
742
100
AcDbEntity
  8
0
100
AcDbLine
 62
7
  6
CONTINUOUS
 10
19.9667906948
 20
28.2467191156
 11
20.1828764162
 21
28.2467191156
  0
LINE
  5
743
100
AcDbEntity
  8
0
100
AcDbLine
 62
7
  6
CONTINUOUS
 10
22.4961368237
 20
28.2467191156
 11
22.7662522117
 21
28.2467191156
  0
LINE
  5
744
100
AcDbEntity
  8
0
100
AcDbLine
 62
7
  6
CONTINUOUS
 10
27.0893832709
 20
28.2467191156
 11
27.3054689922
 21
28.2467191156
  0
LINE
  5
745
100
AcDbEntity
  8
0
100
AcDbLine
 62
7
  6
CONTINUOUS
 10
29.5450645616
 20
28.2467191156
 11
29.800453571
 21
28.2467191156
  0
LINE
  5
746
100
AcDbEntity
  8
0
100
AcDbLine
 62
7
  6
CONTINUOUS
 10
31.925993832
 20
28.2467191156
 11
34.3620728962
 21
28.2467191156
  0
LINE
  5
747
100
AcDbEntity
  8
0
100
AcDbLine
 62
7
  6
CONTINUOUS
 10
36.2489601666
 20
28.2467191156
 11
36.7793733568
 21
28.2467191156
  0
LINE
  5
748
100
AcDbEntity
  8
0
100
AcDbLine
 62
7
  6
CONTINUOUS
 10
17.6837737227
 20
28.4333850247
 11
15.5178759363
 21
28.4333850247
  0
LINE
  5
749
100
AcDbEntity
  8
0
100
AcDbLine
 62
7
  6
CONTINUOUS
 10
34.3620728962
 20
28.6396202154
 11
32.3926256597
 21
28.6396202154
  0
LINE
  5
74A
100
AcDbEntity
  8
0
100
AcDbLine
 62
7
  6
CONTINUOUS
 10
14.2
 20
28.7575
 11
11.85
 21
28.7575
  0
LINE
  5
74B
100
AcDbEntity
  8
RACCORDO
100
AcDbLine
 62
7
  6
CONTINUOUS
 10
8.3
 20
28.7575
 11
10.65
 21
28.7575
  0
LINE
  5
74C
100
AcDbEntity
  8
RACCORDO
100
AcDbLine
 62
7
  6
CONTINUOUS
 10
-8.3
 20
28.7575
 11
-10.65
 21
28.7575
  0
LINE
  5
74D
100
AcDbEntity
  8
0
100
AcDbLine
 62
7
  6
CONTINUOUS
 10
-11.85
 20
28.7575
 11
-14.2
 21
28.7575
  0
LINE
  5
74E
100
AcDbEntity
  8
0
100
AcDbLine
 62
7
  6
CONTINUOUS
 10
-29.751537
 20
28.911042
 11
-28.614604
 21
28.911042
  0
LINE
  5
74F
100
AcDbEntity
  8
0
100
AcDbLine
 62
7
  6
CONTINUOUS
 10
-28.781449
 20
29.528875
 11
-29.580763
 21
29.528875
  0
LINE
  5
750
100
AcDbEntity
  8
0
100
AcDbLine
 62
7
  6
CONTINUOUS
 10
-26.4417794088
 20
29.6777850682
 11
-25.9941500454
 21
29.6777850682
  0
LINE
  5
751
100
AcDbEntity
  8
0
100
AcDbLine
 62
7
  6
CONTINUOUS
 10
32.3926256597
 20
29.8527180097
 11
34.2147432201
 21
29.8527180097
  0
LINE
  5
752
100
AcDbEntity
  8
0
100
AcDbLine
 62
7
  6
CONTINUOUS
 10
15.5178759363
 20
29.9754707765
 11
17.5315352536
 21
29.9754707765
  0
LINE
  5
753
100
AcDbEntity
  8
0
100
AcDbLine
 62
7
  6
CONTINUOUS
 10
17.5315352536
 20
30.1621366856
 11
15.5178759363
 21
30.1621366856
  0
LINE
  5
754
100
AcDbEntity
  8
0
100
AcDbLine
 62
7
  6
CONTINUOUS
 10
34.2147432201
 20
30.2455532196
 11
32.3926256597
 21
30.2455532196
  0
LINE
  5
755
100
AcDbEntity
  8
0
100
AcDbLine
 62
7
  6
CONTINUOUS
 10
-25.9923505303
 20
30.3328085387
 11
-26.4694619483
 21
30.3328085387
  0
LINE
  5
756
100
AcDbEntity
  8
0
100
AcDbLine
 62
7
  6
CONTINUOUS
 10
32.3926256597
 20
31.3604751563
 11
34.3473135727
 21
31.3604751563
  0
LINE
  5
757
100
AcDbEntity
  8
0
100
AcDbLine
 62
7
  6
CONTINUOUS
 10
15.5178759363
 20
31.566710347
 11
17.6592297583
 21
31.566710347
  0
LINE
  5
758
100
AcDbEntity
  8
0
100
AcDbLine
 62
7
  6
CONTINUOUS
 10
38.0268656462
 20
31.7533762561
 11
37.5406645368
 21
31.7533762561
  0
LINE
  5
759
100
AcDbEntity
  8
0
100
AcDbLine
 62
7
  6
CONTINUOUS
 10
35.5172535236
 20
31.7533762561
 11
35.0113513529
 21
31.7533762561
  0
LINE
  5
75A
100
AcDbEntity
  8
0
100
AcDbLine
 62
7
  6
CONTINUOUS
 10
34.3473135727
 20
31.7533762561
 11
31.925993832
 21
31.7533762561
  0
LINE
  5
75B
100
AcDbEntity
  8
0
100
AcDbLine
 62
7
  6
CONTINUOUS
 10
29.800453571
 20
31.7533762561
 11
29.5843349047
 21
31.7533762561
  0
LINE
  5
75C
100
AcDbEntity
  8
0
100
AcDbLine
 62
7
  6
CONTINUOUS
 10
27.3595316037
 20
31.7533762561
 11
27.0893832709
 21
31.7533762561
  0
LINE
  5
75D
100
AcDbEntity
  8
0
100
AcDbLine
 62
7
  6
CONTINUOUS
 10
22.6680434092
 20
31.7533762561
 11
22.3880774906
 21
31.7533762561
  0
LINE
  5
75E
100
AcDbEntity
  8
0
100
AcDbLine
 62
7
  6
CONTINUOUS
 10
20.1828764162
 20
31.7533762561
 11
19.9667906948
 21
31.7533762561
  0
LINE
  5
75F
100
AcDbEntity
  8
0
100
AcDbLine
 62
7
  6
CONTINUOUS
 10
18.9431261827
 20
31.7533762561
 11
18.7270075164
 21
31.7533762561
  0
LINE
  5
760
100
AcDbEntity
  8
0
100
AcDbLine
 62
7
  6
CONTINUOUS
 10
17.6592297583
 20
31.7533762561
 11
15.3017902149
 21
31.7533762561
  0
LINE
  5
761
100
AcDbEntity
  8
DRAFT
100
AcDbLine
 62
253
  6
CONTINUOUS
 10
9.1741375
 20
26.8929755853
 11
9.1673940588
 21
26.8947824849
  0
LINE
  5
762
100
AcDbEntity
  8
DRAFT
100
AcDbLine
 62
253
  6
CONTINUOUS
 10
12.6741375
 20
26.8929755853
 11
12.6673940588
 21
26.8947824849
  0
LINE
  5
763
100
AcDbEntity
  8
ASSI
100
AcDbLine
 62
7
  6
CONTINUOUS
 10
10.0169872981
 20
26.35
 11
10.45
 21
26.1
  0
LINE
  5
764
100
AcDbEntity
  8
ASSI
100
AcDbLine
 62
7
  6
CONTINUOUS
 10
10.0232228293
 20
26.3732713192
 11
10.4562355312
 21
26.1232713192
  0
LINE
  5
765
100
AcDbEntity
  8
ASSI
100
AcDbLine
 62
7
  6
CONTINUOUS
 10
14.2599329936
 20
25.7916264167
 11
14.4596311171
 21
25.6232794982
  0
LINE
  5
766
100
AcDbEntity
  8
RACCORDO
100
AcDbLine
 62
7
  6
CONTINUOUS
 10
24.4931702905
 20
15.2568297095
 11
24.4754410559
 21
15.2745589441
  0
LINE
  5
767
100
AcDbEntity
  8
ASSI
100
AcDbLine
 62
7
  6
CONTINUOUS
 10
13.7
 20
26.35
 11
14.0602070867
 21
25.9897929133
  0
LINE
  5
768
100
AcDbEntity
  8
ASSI
100
AcDbLine
 62
7
  6
CONTINUOUS
 10
13.709639296
 20
26.3732713192
 11
14.4596311171
 21
25.6232794982
  0
LINE
  5
769
100
AcDbEntity
  8
RACCORDO
100
AcDbLine
 62
253
  6
CONTINUOUS
 10
29.0976479577
 20
7.7213182393
 11
28.9611931911
 21
8.4951916764
  0
LINE
  5
76A
100
AcDbEntity
  8
0
100
AcDbLine
 62
7
  6
CONTINUOUS
 10
31.925993832
 20
31.7533762561
 11
31.925993832
 21
28.2467191156
  0
LINE
  5
76B
100
AcDbEntity
  8
0
100
AcDbLine
 62
7
  6
CONTINUOUS
 10
32.3926256597
 20
28.6396202154
 11
32.3926256597
 21
29.8527180097
  0
LINE
  5
76C
100
AcDbEntity
  8
0
100
AcDbLine
 62
7
  6
CONTINUOUS
 10
32.3926256597
 20
30.2455532196
 11
32.3926256597
 21
31.3604751563
  0
LINE
  5
76D
100
AcDbEntity
  8
0
100
AcDbLine
 62
7
  6
CONTINUOUS
 10
34.2147432201
 20
29.8527180097
 11
34.2147432201
 21
30.2455532196
  0
LINE
  5
76E
100
AcDbEntity
  8
0
100
AcDbLine
 62
7
  6
CONTINUOUS
 10
34.3473135727
 20
31.3604751563
 11
34.3473135727
 21
31.7533762561
  0
LINE
  5
76F
100
AcDbEntity
  8
0
100
AcDbLine
 62
7
  6
CONTINUOUS
 10
34.3620728962
 20
28.2467191156
 11
34.3620728962
 21
28.6396202154
  0
LINE
  5
770
100
AcDbEntity
  8
ASSI
100
AcDbLine
 62
7
  6
CONTINUOUS
 10
36.132446
 20
-37.5480370105
 11
36.132446
 21
-36.7972200113
  0
LINE
  5
771
100
AcDbEntity
  8
ASSI
100
AcDbLine
 62
7
  6
CONTINUOUS
 10
36.132446
 20
-33.20278
 11
36.132446
 21
-32.451963
  0
LINE
  5
772
100
AcDbEntity
  8
0
100
AcDbLine
 62
7
  6
CONTINUOUS
 10
-28.745579
 20
32.112109
 11
-29.553201
 21
32.112109
  0
LINE
  5
773
100
AcDbEntity
  8
0
100
AcDbLine
 62
7
  6
CONTINUOUS
 10
-31.312797
 20
32.112109
 11
-32.138804
 21
32.112109
  0
LINE
  5
774
100
AcDbEntity
  8
0
100
AcDbLine
 62
7
  6
CONTINUOUS
 10
-33.799696
 20
32.112109
 11
-34.633862
 21
32.112109
  0
LINE
  5
775
100
AcDbEntity
  8
0
100
AcDbLine
 62
7
  6
CONTINUOUS
 10
-36.589095
 20
32.112109
 11
-37.42338
 21
32.112109
  0
LINE
  5
776
100
AcDbEntity
  8
0
100
AcDbLine
 62
7
  6
CONTINUOUS
 10
-38.971428
 20
32.112109
 11
-39.878338
 21
32.112109
  0
LINE
  5
777
100
AcDbEntity
  8
0
100
AcDbLine
 62
7
  6
CONTINUOUS
 10
-35.444423
 20
32.112349
 11
-36.279278
 21
32.112349
  0
LINE
  5
778
100
AcDbEntity
  8
0
100
AcDbLine
 62
7
  6
CONTINUOUS
 10
20.9097731012
 20
30.147377362
 11
22.4961368237
 21
28.2467191156
  0
LINE
  5
779
100
AcDbEntity
  8
0
100
AcDbLine
 62
7
  6
CONTINUOUS
 10
22.7662522117
 20
28.2467191156
 11
21.0669203631
 21
30.2947070382
  0
LINE
  5
77A
100
AcDbEntity
  8
ASSI
100
AcDbLine
 62
7
  6
CONTINUOUS
 10
40.117556
 20
-35.375
 11
40.117556
 21
-34.625
  0
LINE
  5
77B
100
AcDbEntity
  8
ASSI
100
AcDbLine
 62
7
  6
CONTINUOUS
 10
40.517556
 20
-37.5480371278
 11
40.517556
 21
-36.7972166714
  0
LINE
  5
77C
100
AcDbEntity
  8
ASSI
100
AcDbLine
 62
7
  6
CONTINUOUS
 10
40.517556
 20
-33.20278
 11
40.517556
 21
-32.4519631508
  0
LINE
  5
77D
100
AcDbEntity
  8
ASSI
100
AcDbLine
 62
7
  6
CONTINUOUS
 10
26.0353241763
 20
-36.7187406859
 11
26.2271209365
 21
-36.3770221132
  0
LINE
  5
77E
100
AcDbEntity
  8
0
100
AcDbLine
 62
7
  6
CONTINUOUS
 10
29.5843349047
 20
28.522244319
 11
27.3595316037
 21
31.7533762561
  0
LINE
  5
77F
100
AcDbEntity
  8
0
100
AcDbLine
 62
7
  6
CONTINUOUS
 10
27.3054689922
 20
31.5024896875
 11
29.5450645616
 21
28.2467191156
  0
LINE
  5
780
100
AcDbEntity
  8
DRAFT
100
AcDbLine
 62
7
  6
CONTINUOUS
 10
42.05
 20
17.65
 11
42.05
 21
12.35
  0
LINE
  5
781
100
AcDbEntity
  8
DRAFT
100
AcDbLine
 62
7
  6
CONTINUOUS
 10
42.05
 20
-12.35
 11
42.05
 21
-17.65
  0
LINE
  5
782
100
AcDbEntity
  8
DRAFT
100
AcDbLine
 62
7
  6
CONTINUOUS
 10
43.0325449351
 20
43.0325449351
 11
43.0325449351
 21
17.65
  0
LINE
  5
783
100
AcDbEntity
  8
DRAFT
100
AcDbLine
 62
7
  6
CONTINUOUS
 10
43.0325449351
 20
12.35
 11
43.0325449351
 21
-12.35
  0
LINE
  5
784
100
AcDbEntity
  8
DRAFT
100
AcDbLine
 62
7
  6
CONTINUOUS
 10
43.0325449351
 20
-17.65
 11
43.0325449351
 21
-43.0325449351
  0
LINE
  5
785
100
AcDbEntity
  8
DRAFT
100
AcDbLine
 62
7
  6
CONTINUOUS
 10
43.05
 20
43.05
 11
43.05
 21
17.6325449351
  0
LINE
  5
786
100
AcDbEntity
  8
DRAFT
100
AcDbLine
 62
7
  6
CONTINUOUS
 10
43.05
 20
12.3674550649
 11
43.05
 21
-12.3674550649
  0
LINE
  5
787
100
AcDbEntity
  8
DRAFT
100
AcDbLine
 62
7
  6
CONTINUOUS
 10
43.05
 20
-17.6325449351
 11
43.05
 21
-43.05
  0
LINE
  5
788
100
AcDbEntity
  8
DRAFT
100
AcDbLine
 62
7
  6
CONTINUOUS
 10
43.2473817403
 20
-17.6325449351
 11
43.2473817403
 21
-12.3674550649
  0
LINE
  5
789
100
AcDbEntity
  8
DRAFT
100
AcDbLine
 62
7
  6
CONTINUOUS
 10
43.2473817403
 20
12.3674550649
 11
43.2473817403
 21
17.6325449351
  0
LINE
  5
78A
100
AcDbEntity
  8
RACCORDO
100
AcDbLine
 62
7
  6
CONTINUOUS
 10
44.05
 20
-43.3501066134
 11
44.05
 21
-17.6325449351
  0
LINE
  5
78B
100
AcDbEntity
  8
DRAFT
100
AcDbLine
 62
7
  6
CONTINUOUS
 10
44.05
 20
-12.3674550649
 11
44.05
 21
12.3674550649
  0
LINE
  5
78C
100
AcDbEntity
  8
RACCORDO
100
AcDbLine
 62
7
  6
CONTINUOUS
 10
44.05
 20
17.6325449351
 11
44.05
 21
43.3501066134
  0
LINE
  5
78D
100
AcDbEntity
  8
RACCORDO
100
AcDbLine
 62
7
  6
CONTINUOUS
 10
44.0726915844
 20
-43.3727981978
 11
44.0726915844
 21
-17.6098533507
  0
LINE
  5
78E
100
AcDbEntity
  8
DRAFT
100
AcDbLine
 62
7
  6
CONTINUOUS
 10
44.0726915844
 20
-12.3901466493
 11
44.0726915844
 21
12.3901466493
  0
LINE
  5
78F
100
AcDbEntity
  8
RACCORDO
100
AcDbLine
 62
7
  6
CONTINUOUS
 10
44.0726915844
 20
17.6098533507
 11
44.0726915844
 21
43.3727981978
  0
LINE
  5
790
100
AcDbEntity
  8
DRAFT
100
AcDbLine
 62
7
  6
CONTINUOUS
 10
44.3098533507
 20
17.6098533507
 11
44.3098533507
 21
12.3901466493
  0
LINE
  5
791
100
AcDbEntity
  8
DRAFT
100
AcDbLine
 62
7
  6
CONTINUOUS
 10
44.3098533507
 20
-12.3901466493
 11
44.3098533507
 21
-17.6098533507
  0
LINE
  5
792
100
AcDbEntity
  8
DRAFT
100
AcDbLine
 62
7
  6
CONTINUOUS
 10
17.65
 20
-43.0325449351
 11
17.6325449351
 21
-43.05
  0
LINE
  5
793
100
AcDbEntity
  8
DRAFT
100
AcDbLine
 62
7
  6
CONTINUOUS
 10
43.0325449351
 20
-17.65
 11
43.05
 21
-17.6325449351
  0
LINE
  5
794
100
AcDbEntity
  8
DRAFT
100
AcDbLine
 62
7
  6
CONTINUOUS
 10
17.6325449351
 20
-44.05
 11
17.6098533507
 21
-44.0726915844
  0
LINE
  5
795
100
AcDbEntity
  8
DRAFT
100
AcDbLine
 62
7
  6
CONTINUOUS
 10
44.05
 20
-17.6325449351
 11
44.0726915844
 21
-17.6098533507
  0
LINE
  5
796
100
AcDbEntity
  8
ASSI
100
AcDbLine
 62
7
  6
CONTINUOUS
 10
28.393779389
 20
-33.6064256722
 11
27.224704
 21
-34.591613
  0
LINE
  5
797
100
AcDbEntity
  8
ASSI
100
AcDbLine
 62
7
  6
CONTINUOUS
 10
27.224704
 20
-35.103309
 11
28.3395358982
 21
-34.1638330858
  0
LINE
  5
798
100
AcDbEntity
  8
DRAFT
100
AcDbLine
 62
7
  6
CONTINUOUS
 10
-17.65
 20
42.05
 11
-12.35
 21
42.05
  0
LINE
  5
799
100
AcDbEntity
  8
DRAFT
100
AcDbLine
 62
7
  6
CONTINUOUS
 10
12.35
 20
42.05
 11
17.65
 21
42.05
  0
LINE
  5
79A
100
AcDbEntity
  8
DRAFT
100
AcDbLine
 62
7
  6
CONTINUOUS
 10
-43.0325449351
 20
43.0325449351
 11
-17.65
 21
43.0325449351
  0
LINE
  5
79B
100
AcDbEntity
  8
DRAFT
100
AcDbLine
 62
7
  6
CONTINUOUS
 10
-12.35
 20
43.0325449351
 11
12.35
 21
43.0325449351
  0
LINE
  5
79C
100
AcDbEntity
  8
DRAFT
100
AcDbLine
 62
7
  6
CONTINUOUS
 10
17.65
 20
43.0325449351
 11
43.0325449351
 21
43.0325449351
  0
LINE
  5
79D
100
AcDbEntity
  8
DRAFT
100
AcDbLine
 62
7
  6
CONTINUOUS
 10
-43.05
 20
43.05
 11
-17.6325449351
 21
43.05
  0
LINE
  5
79E
100
AcDbEntity
  8
DRAFT
100
AcDbLine
 62
7
  6
CONTINUOUS
 10
-12.3674550649
 20
43.05
 11
12.3674550649
 21
43.05
  0
LINE
  5
79F
100
AcDbEntity
  8
DRAFT
100
AcDbLine
 62
7
  6
CONTINUOUS
 10
17.6325449351
 20
43.05
 11
43.05
 21
43.05
  0
LINE
  5
7A0
100
AcDbEntity
  8
DRAFT
100
AcDbLine
 62
7
  6
CONTINUOUS
 10
17.6325449351
 20
43.2473817403
 11
12.3674550649
 21
43.2473817403
  0
LINE
  5
7A1
100
AcDbEntity
  8
DRAFT
100
AcDbLine
 62
7
  6
CONTINUOUS
 10
-12.3674550649
 20
43.2473817403
 11
-17.6325449351
 21
43.2473817403
  0
LINE
  5
7A2
100
AcDbEntity
  8
RACCORDO
100
AcDbLine
 62
7
  6
CONTINUOUS
 10
43.3501066134
 20
44.05
 11
17.6325449351
 21
44.05
  0
LINE
  5
7A3
100
AcDbEntity
  8
DRAFT
100
AcDbLine
 62
7
  6
CONTINUOUS
 10
12.3674550649
 20
44.05
 11
-12.3674550649
 21
44.05
  0
LINE
  5
7A4
100
AcDbEntity
  8
RACCORDO
100
AcDbLine
 62
7
  6
CONTINUOUS
 10
-17.6325449351
 20
44.05
 11
-43.3501066134
 21
44.05
  0
LINE
  5
7A5
100
AcDbEntity
  8
RACCORDO
100
AcDbLine
 62
7
  6
CONTINUOUS
 10
43.3727981978
 20
44.0726915844
 11
17.6098533507
 21
44.0726915844
  0
LINE
  5
7A6
100
AcDbEntity
  8
DRAFT
100
AcDbLine
 62
7
  6
CONTINUOUS
 10
12.3901466493
 20
44.0726915844
 11
-12.3901466493
 21
44.0726915844
  0
LINE
  5
7A7
100
AcDbEntity
  8
RACCORDO
100
AcDbLine
 62
7
  6
CONTINUOUS
 10
-17.6098533507
 20
44.0726915844
 11
-43.3727981978
 21
44.0726915844
  0
LINE
  5
7A8
100
AcDbEntity
  8
DRAFT
100
AcDbLine
 62
7
  6
CONTINUOUS
 10
-17.6098533507
 20
44.3098533507
 11
-12.3901466493
 21
44.3098533507
  0
LINE
  5
7A9
100
AcDbEntity
  8
DRAFT
100
AcDbLine
 62
7
  6
CONTINUOUS
 10
12.3901466493
 20
44.3098533507
 11
17.6098533507
 21
44.3098533507
  0
LINE
  5
7AA
100
AcDbEntity
  8
DRAFT
100
AcDbLine
 62
7
  6
CONTINUOUS
 10
43.0325449351
 20
17.65
 11
43.05
 21
17.6325449351
  0
LINE
  5
7AB
100
AcDbEntity
  8
DRAFT
100
AcDbLine
 62
7
  6
CONTINUOUS
 10
17.65
 20
43.0325449351
 11
17.6325449351
 21
43.05
  0
LINE
  5
7AC
100
AcDbEntity
  8
DRAFT
100
AcDbLine
 62
7
  6
CONTINUOUS
 10
44.05
 20
17.6325449351
 11
44.0726915844
 21
17.6098533507
  0
LINE
  5
7AD
100
AcDbEntity
  8
DRAFT
100
AcDbLine
 62
7
  6
CONTINUOUS
 10
17.6325449351
 20
44.05
 11
17.6098533507
 21
44.0726915844
  0
LINE
  5
7AE
100
AcDbEntity
  8
0
100
AcDbLine
 62
7
  6
CONTINUOUS
 10
35.0113513529
 20
31.7533762561
 11
36.2489601666
 21
28.2467191156
  0
LINE
  5
7AF
100
AcDbEntity
  8
0
100
AcDbLine
 62
7
  6
CONTINUOUS
 10
36.5239599291
 20
28.6982964382
 11
35.5172535236
 21
31.7533762561
  0
LINE
  5
7B0
100
AcDbEntity
  8
RACCORDO
100
AcDbLine
 62
7
  6
CONTINUOUS
 10
45.3098533507
 20
43.3101579604
 11
45.3098533507
 21
-43.3101579604
  0
LINE
  5
7B1
100
AcDbEntity
  8
RACCORDO
100
AcDbLine
 62
7
  6
CONTINUOUS
 10
45.35
 20
43.3503046097
 11
45.35
 21
29.0
  0
LINE
  5
7B2
100
AcDbEntity
  8
DRAFT
100
AcDbLine
 62
7
  6
CONTINUOUS
 10
45.35
 20
29.0
 11
45.35
 21
-29.0
  0
LINE
  5
7B3
100
AcDbEntity
  8
RACCORDO
100
AcDbLine
 62
7
  6
CONTINUOUS
 10
45.35
 20
-29.0
 11
45.35
 21
-43.3503046097
  0
LINE
  5
7B4
100
AcDbEntity
  8
0
100
AcDbLine
 62
7
  6
CONTINUOUS
 10
45.5
 20
-45.5
 11
45.5
 21
45.5
  0
LINE
  5
7B5
100
AcDbEntity
  8
SMUSSO
100
AcDbLine
 62
7
  6
CONTINUOUS
 10
46.85
 20
-46.1428932188
 11
46.85
 21
46.1428932188
  0
LINE
  5
7B6
100
AcDbEntity
  8
SMUSSO
100
AcDbLine
 62
7
  6
CONTINUOUS
 10
47.35
 20
-46.35
 11
47.35
 21
46.35
  0
LINE
  5
7B7
100
AcDbEntity
  8
ASSI
100
AcDbLine
 62
7
  6
CONTINUOUS
 10
28.508932
 20
-38.229018
 11
28.72636
 21
-37.92078
  0
LINE
  5
7B8
100
AcDbEntity
  8
SMUSSO
100
AcDbLine
 62
7
  6
CONTINUOUS
 10
22.6326915844
 20
-45.3273084156
 11
22.46
 21
-45.5
  0
LINE
  5
7B9
100
AcDbEntity
  8
RACCORDO
100
AcDbLine
 62
7
  6
CONTINUOUS
 10
43.3101579604
 20
45.3098533507
 11
-43.3101579604
 21
45.3098533507
  0
LINE
  5
7BA
100
AcDbEntity
  8
DRAFT
100
AcDbLine
 62
7
  6
CONTINUOUS
 10
28.0
 20
45.3273084156
 11
22.0
 21
45.3273084156
  0
LINE
  5
7BB
100
AcDbEntity
  8
DRAFT
100
AcDbLine
 62
7
  6
CONTINUOUS
 10
-22.0
 20
45.3273084156
 11
-28.0
 21
45.3273084156
  0
LINE
  5
7BC
100
AcDbEntity
  8
DRAFT
100
AcDbLine
 62
7
  6
CONTINUOUS
 10
28.0
 20
45.3447634805
 11
27.3847634805
 21
45.3447634805
  0
LINE
  5
7BD
100
AcDbEntity
  8
DRAFT
100
AcDbLine
 62
7
  6
CONTINUOUS
 10
22.6152365195
 20
45.3447634805
 11
22.0
 21
45.3447634805
  0
LINE
  5
7BE
100
AcDbEntity
  8
DRAFT
100
AcDbLine
 62
7
  6
CONTINUOUS
 10
-22.0
 20
45.3447634805
 11
-22.6152365195
 21
45.3447634805
  0
LINE
  5
7BF
100
AcDbEntity
  8
DRAFT
100
AcDbLine
 62
7
  6
CONTINUOUS
 10
-27.3847634805
 20
45.3447634805
 11
-28.0
 21
45.3447634805
  0
LINE
  5
7C0
100
AcDbEntity
  8
RACCORDO
100
AcDbLine
 62
7
  6
CONTINUOUS
 10
-43.3503046097
 20
45.35
 11
-29.0
 21
45.35
  0
LINE
  5
7C1
100
AcDbEntity
  8
DRAFT
100
AcDbLine
 62
7
  6
CONTINUOUS
 10
-29.0
 20
45.35
 11
-27.39
 21
45.35
  0
LINE
  5
7C2
100
AcDbEntity
  8
DRAFT
100
AcDbLine
 62
7
  6
CONTINUOUS
 10
-22.61
 20
45.35
 11
22.61
 21
45.35
  0
LINE
  5
7C3
100
AcDbEntity
  8
DRAFT
100
AcDbLine
 62
7
  6
CONTINUOUS
 10
27.39
 20
45.35
 11
29.0
 21
45.35
  0
LINE
  5
7C4
100
AcDbEntity
  8
RACCORDO
100
AcDbLine
 62
7
  6
CONTINUOUS
 10
29.0
 20
45.35
 11
43.3503046097
 21
45.35
  0
LINE
  5
7C5
100
AcDbEntity
  8
SMUSSO
100
AcDbLine
 62
7
  6
CONTINUOUS
 10
45.5
 20
45.5
 11
-45.5
 21
45.5
  0
LINE
  5
7C6
100
AcDbEntity
  8
SMUSSO
100
AcDbLine
 62
7
  6
CONTINUOUS
 10
46.1428932188
 20
46.85
 11
-46.1428932188
 21
46.85
  0
LINE
  5
7C7
100
AcDbEntity
  8
SMUSSO
100
AcDbLine
 62
7
  6
CONTINUOUS
 10
46.35
 20
47.35
 11
-46.35
 21
47.35
  0
LINE
  5
7C8
100
AcDbEntity
  8
SMUSSO
100
AcDbLine
 62
7
  6
CONTINUOUS
 10
22.46
 20
45.5
 11
22.6326915844
 21
45.3273084156
  0
LINE
  5
7C9
100
AcDbEntity
  8
SMUSSO
100
AcDbLine
 62
7
  6
CONTINUOUS
 10
46.1428932188
 20
-46.85
 11
46.85
 21
-46.1428932188
  0
LINE
  5
7CA
100
AcDbEntity
  8
SMUSSO
100
AcDbLine
 62
7
  6
CONTINUOUS
 10
46.35
 20
-47.35
 11
47.35
 21
-46.35
  0
LINE
  5
7CB
100
AcDbEntity
  8
SMUSSO
100
AcDbLine
 62
7
  6
CONTINUOUS
 10
46.85
 20
46.1428932188
 11
46.1428932188
 21
46.85
  0
LINE
  5
7CC
100
AcDbEntity
  8
SMUSSO
100
AcDbLine
 62
7
  6
CONTINUOUS
 10
47.35
 20
46.35
 11
46.35
 21
47.35
  0
ARC
  5
7CD
100
AcDbEntity
  8
RACCORDO
100
AcDbCircle
 62
253
  6
CONTINUOUS
 10
-4.75
 20
-29.6215715316
 40
3.8029672949
100
AcDbArc
 50
80.8898298471
 51
158.9837997328
  0
ARC
  5
7CE
100
AcDbEntity
  8
RACCORDO
100
AcDbCircle
 62
253
  6
CONTINUOUS
 10
-29.6215715316
 20
-4.75
 40
3.8029672949
100
AcDbArc
 50
189.1101701529
 51
280.0
  0
ARC
  5
7CF
100
AcDbEntity
  8
RACCORDO
100
AcDbCircle
 62
253
  6
CONTINUOUS
 10
-4.75
 20
-29.6215715316
 40
3.8029672949
100
AcDbArc
 50
166.8671697695
 51
260.8898298471
  0
ARC
  5
7D0
100
AcDbEntity
  8
RACCORDO
100
AcDbCircle
 62
253
  6
CONTINUOUS
 10
-4.75
 20
-29.6215715316
 40
3.508287914
100
AcDbArc
 50
80.8898298424
 51
260.8898298484
  0
ARC
  5
7D1
100
AcDbEntity
  8
RACCORDO
100
AcDbCircle
 62
253
  6
CONTINUOUS
 10
-29.6215715316
 20
-4.75
 40
3.508287914
100
AcDbArc
 50
189.1101701529
 51
280.0
  0
ARC
  5
7D2
100
AcDbEntity
  8
RACCORDO
100
AcDbCircle
 62
253
  6
CONTINUOUS
 10
-29.6215715316
 20
-4.75
 40
3.0171556126
100
AcDbArc
 50
189.1101701529
 51
280.0
  0
ARC
  5
7D3
100
AcDbEntity
  8
RACCORDO
100
AcDbCircle
 62
253
  6
CONTINUOUS
 10
-4.75
 20
-29.6215715316
 40
3.0171556126
100
AcDbArc
 50
80.8898298471
 51
260.8898298471
  0
ARC
  5
7D4
100
AcDbEntity
  8
CURVE
100
AcDbCircle
 62
7
  6
CONTINUOUS
 10
-5.0
 20
-23.6
 40
1.0
100
AcDbArc
 50
64.1779395619
 51
115.8220604381
  0
ARC
  5
7D5
100
AcDbEntity
  8
RACCORDO
100
AcDbCircle
 62
253
  6
CONTINUOUS
 10
-23.75
 20
-24.1
 40
0.5785135937
100
AcDbArc
 50
99.4324154644
 51
44.459091242
  0
ARC
  5
7D6
100
AcDbEntity
  8
DRAFT
100
AcDbCircle
 62
7
  6
CONTINUOUS
 10
-23.75
 20
-24.1
 40
0.575
100
AcDbArc
 50
45.7992776508
 51
98.781306126
  0
CIRCLE
  5
7D7
100
AcDbEntity
  8
RACCORDO
100
AcDbCircle
 62
7
  6
CONTINUOUS
 10
-23.75
 20
-24.1
 40
0.5553417009
  0
ARC
  5
7D8
100
AcDbEntity
  8
RACCORDO
100
AcDbCircle
 62
7
  6
CONTINUOUS
 10
-8.5
 20
-24.2
 40
0.5
100
AcDbArc
 50
270.0
 51
360.0
  0
ARC
  5
7D9
100
AcDbEntity
  8
RACCORDO
100
AcDbCircle
 62
7
  6
CONTINUOUS
 10
-14.0
 20
-24.2
 40
0.5
100
AcDbArc
 50
184.7738378569
 51
270.0
  0
ARC
  5
7DA
100
AcDbEntity
  8
RACCORDO
100
AcDbCircle
 62
7
  6
CONTINUOUS
 10
-32.0
 20
-13.5
 40
0.5
100
AcDbArc
 50
90.0
 51
270.0
  0
ARC
  5
7DB
100
AcDbEntity
  8
RACCORDO
100
AcDbCircle
 62
7
  6
CONTINUOUS
 10
-32.0
 20
-21.5
 40
0.5
100
AcDbArc
 50
90.0
 51
270.0
  0
ARC
  5
7DC
100
AcDbEntity
  8
DRAFT
100
AcDbCircle
 62
7
  6
CONTINUOUS
 10
-13.0
 20
-26.8056609916
 40
0.3373576843
100
AcDbArc
 50
195.0
 51
345.0
  0
ARC
  5
7DD
100
AcDbEntity
  8
DRAFT
100
AcDbCircle
 62
7
  6
CONTINUOUS
 10
-9.5
 20
-26.8056609916
 40
0.3373576843
100
AcDbArc
 50
195.0
 51
345.0
  0
ARC
  5
7DE
100
AcDbEntity
  8
RACCORDO
100
AcDbCircle
 62
253
  6
CONTINUOUS
 10
-22.7089447493
 20
-23.0089435149
 40
0.3000647124
100
AcDbArc
 50
0.0208812008
 51
89.9788832408
  0
CIRCLE
  5
7DF
100
AcDbEntity
  8
RACCORDO
100
AcDbCircle
 62
253
  6
CONTINUOUS
 10
-23.75
 20
-24.1
 40
0.255353124
  0
ARC
  5
7E0
100
AcDbEntity
  8
RACCORDO
100
AcDbCircle
 62
253
  6
CONTINUOUS
 10
-25.5149761508
 20
-12.6649761508
 40
0.2000539292
100
AcDbArc
 50
180.0238441458
 51
269.9761558542
  0
ARC
  5
7E1
100
AcDbEntity
  8
RACCORDO
100
AcDbCircle
 62
253
  6
CONTINUOUS
 10
-25.5149761508
 20
-8.4850238492
 40
0.2000539292
100
AcDbArc
 50
90.0238441461
 51
179.9761558538
  0
ARC
  5
7E2
100
AcDbEntity
  8
RACCORDO
100
AcDbCircle
 62
253
  6
CONTINUOUS
 10
-24.9850238489
 20
-12.6649761511
 40
0.2000539288
100
AcDbArc
 50
270.0238440525
 51
359.9761559475
  0
ARC
  5
7E3
100
AcDbEntity
  8
RACCORDO
100
AcDbCircle
 62
253
  6
CONTINUOUS
 10
-24.9850238489
 20
-8.4850238489
 40
0.2000539288
100
AcDbArc
 50
0.0238440593
 51
89.9761559407
  0
ARC
  5
7E4
100
AcDbEntity
  8
RACCORDO
100
AcDbCircle
 62
253
  6
CONTINUOUS
 10
-29.6215715316
 20
4.75
 40
3.8029672949
100
AcDbArc
 50
80.0
 51
170.8898298471
  0
ARC
  5
7E5
100
AcDbEntity
  8
RACCORDO
100
AcDbCircle
 62
253
  6
CONTINUOUS
 10
-29.6215715316
 20
4.75
 40
3.508287914
100
AcDbArc
 50
80.0
 51
170.8898298471
  0
ARC
  5
7E6
100
AcDbEntity
  8
RACCORDO
100
AcDbCircle
 62
253
  6
CONTINUOUS
 10
-29.6215715316
 20
4.75
 40
3.0171556126
100
AcDbArc
 50
80.0
 51
170.8898298471
  0
ARC
  5
7E7
100
AcDbEntity
  8
CURVE
100
AcDbCircle
 62
7
  6
CONTINUOUS
 10
-23.65
 20
5.0
 40
1.0
100
AcDbArc
 50
341.8427705085
 51
18.1572294915
  0
ARC
  5
7E8
100
AcDbEntity
  8
RACCORDO
100
AcDbCircle
 62
7
  6
CONTINUOUS
 10
-32.0
 20
13.5
 40
0.5
100
AcDbArc
 50
90.0
 51
270.0
  0
ARC
  5
7E9
100
AcDbEntity
  8
RACCORDO
100
AcDbCircle
 62
253
  6
CONTINUOUS
 10
-25.5149761508
 20
12.6649761508
 40
0.2000539291
100
AcDbArc
 50
90.0238441409
 51
179.9761558591
  0
ARC
  5
7EA
100
AcDbEntity
  8
RACCORDO
100
AcDbCircle
 62
253
  6
CONTINUOUS
 10
-25.5149761508
 20
8.4850238492
 40
0.2000539292
100
AcDbArc
 50
180.0238441458
 51
269.9761558542
  0
ARC
  5
7EB
100
AcDbEntity
  8
RACCORDO
100
AcDbCircle
 62
253
  6
CONTINUOUS
 10
-24.9850238489
 20
12.6649761511
 40
0.2000539288
100
AcDbArc
 50
0.0238440524
 51
89.9761559476
  0
ARC
  5
7EC
100
AcDbEntity
  8
RACCORDO
100
AcDbCircle
 62
253
  6
CONTINUOUS
 10
-24.9850238489
 20
8.4850238489
 40
0.2000539288
100
AcDbArc
 50
270.0238440581
 51
359.9761559419
  0
ARC
  5
7ED
100
AcDbEntity
  8
RACCORDO
100
AcDbCircle
 62
253
  6
CONTINUOUS
 10
-23.75
 20
24.1
 40
0.5785135937
100
AcDbArc
 50
315.540908758
 51
260.5675845356
  0
ARC
  5
7EE
100
AcDbEntity
  8
DRAFT
100
AcDbCircle
 62
7
  6
CONTINUOUS
 10
-23.75
 20
24.1
 40
0.575
100
AcDbArc
 50
261.218693874
 51
314.2007223492
  0
CIRCLE
  5
7EF
100
AcDbEntity
  8
RACCORDO
100
AcDbCircle
 62
7
  6
CONTINUOUS
 10
-23.75
 20
24.1
 40
0.5553417009
  0
ARC
  5
7F0
100
AcDbEntity
  8
RACCORDO
100
AcDbCircle
 62
7
  6
CONTINUOUS
 10
-32.0
 20
21.5
 40
0.5
100
AcDbArc
 50
90.0
 51
270.0
  0
ARC
  5
7F1
100
AcDbEntity
  8
RACCORDO
100
AcDbCircle
 62
253
  6
CONTINUOUS
 10
-22.7089435105
 20
23.0089447449
 40
0.3000647124
100
AcDbArc
 50
270.0208803645
 51
359.978884077
  0
CIRCLE
  5
7F2
100
AcDbEntity
  8
RACCORDO
100
AcDbCircle
 62
253
  6
CONTINUOUS
 10
-23.75
 20
24.1
 40
0.255353124
  0
ARC
  5
7F3
100
AcDbEntity
  8
RACCORDO
100
AcDbCircle
 62
253
  6
CONTINUOUS
 10
0.0
 20
0.0
 40
33.8029672949
100
AcDbArc
 50
170.8898298471
 51
189.1101701529
  0
ARC
  5
7F4
100
AcDbEntity
  8
RACCORDO
100
AcDbCircle
 62
253
  6
CONTINUOUS
 10
0.0
 20
0.0
 40
33.8029672949
100
AcDbArc
 50
260.8898298471
 51
279.1101701529
  0
ARC
  5
7F5
100
AcDbEntity
  8
RACCORDO
100
AcDbCircle
 62
253
  6
CONTINUOUS
 10
0.0
 20
0.0
 40
33.8029672949
100
AcDbArc
 50
350.8898298471
 51
9.1101701529
  0
ARC
  5
7F6
100
AcDbEntity
  8
RACCORDO
100
AcDbCircle
 62
253
  6
CONTINUOUS
 10
0.0
 20
0.0
 40
33.8029672949
100
AcDbArc
 50
80.8898298471
 51
99.1101701529
  0
ARC
  5
7F7
100
AcDbEntity
  8
RACCORDO
100
AcDbCircle
 62
253
  6
CONTINUOUS
 10
0.0
 20
0.0
 40
33.508287914
100
AcDbArc
 50
350.8898298471
 51
9.1101701529
  0
ARC
  5
7F8
100
AcDbEntity
  8
RACCORDO
100
AcDbCircle
 62
253
  6
CONTINUOUS
 10
0.0
 20
0.0
 40
33.508287914
100
AcDbArc
 50
170.8898298471
 51
189.1101701529
  0
ARC
  5
7F9
100
AcDbEntity
  8
RACCORDO
100
AcDbCircle
 62
253
  6
CONTINUOUS
 10
0.0
 20
0.0
 40
33.508287914
100
AcDbArc
 50
260.8898298471
 51
279.1101701529
  0
ARC
  5
7FA
100
AcDbEntity
  8
RACCORDO
100
AcDbCircle
 62
253
  6
CONTINUOUS
 10
0.0
 20
0.0
 40
33.508287914
100
AcDbArc
 50
80.8898298471
 51
99.1101701529
  0
ARC
  5
7FB
100
AcDbEntity
  8
RACCORDO
100
AcDbCircle
 62
253
  6
CONTINUOUS
 10
0.0
 20
0.0
 40
33.0171556126
100
AcDbArc
 50
80.8898298471
 51
99.1101701529
  0
ARC
  5
7FC
100
AcDbEntity
  8
RACCORDO
100
AcDbCircle
 62
253
  6
CONTINUOUS
 10
0.0
 20
0.0
 40
33.0171556126
100
AcDbArc
 50
170.8898298471
 51
189.1101701529
  0
ARC
  5
7FD
100
AcDbEntity
  8
RACCORDO
100
AcDbCircle
 62
253
  6
CONTINUOUS
 10
0.0
 20
0.0
 40
33.0171556126
100
AcDbArc
 50
350.8898298471
 51
9.1101701529
  0
ARC
  5
7FE
100
AcDbEntity
  8
RACCORDO
100
AcDbCircle
 62
253
  6
CONTINUOUS
 10
0.0
 20
0.0
 40
33.0171556126
100
AcDbArc
 50
260.8898298471
 51
279.1101701529
  0
ARC
  5
7FF
100
AcDbEntity
  8
RACCORDO
100
AcDbCircle
 62
253
  6
CONTINUOUS
 10
0.0
 20
0.0
 40
26.9828443874
100
AcDbArc
 50
80.8898298471
 51
99.1101701529
  0
ARC
  5
800
100
AcDbEntity
  8
RACCORDO
100
AcDbCircle
 62
253
  6
CONTINUOUS
 10
0.0
 20
0.0
 40
26.9828443874
100
AcDbArc
 50
260.8898298471
 51
279.1101701529
  0
ARC
  5
801
100
AcDbEntity
  8
RACCORDO
100
AcDbCircle
 62
253
  6
CONTINUOUS
 10
0.0
 20
0.0
 40
26.491712086
100
AcDbArc
 50
260.8898298471
 51
279.1101701529
  0
ARC
  5
802
100
AcDbEntity
  8
RACCORDO
100
AcDbCircle
 62
253
  6
CONTINUOUS
 10
0.0
 20
0.0
 40
26.491712086
100
AcDbArc
 50
80.8898298471
 51
99.1101701529
  0
ARC
  5
803
100
AcDbEntity
  8
RACCORDO
100
AcDbCircle
 62
253
  6
CONTINUOUS
 10
0.0
 20
0.0
 40
26.1970327051
100
AcDbArc
 50
260.8898298471
 51
279.1101701529
  0
ARC
  5
804
100
AcDbEntity
  8
RACCORDO
100
AcDbCircle
 62
253
  6
CONTINUOUS
 10
0.0
 20
0.0
 40
26.1970327051
100
AcDbArc
 50
80.8898298471
 51
99.1101701529
  0
ARC
  5
805
100
AcDbEntity
  8
RACCORDO
100
AcDbCircle
 62
253
  6
CONTINUOUS
 10
-4.75
 20
29.6215715316
 40
3.8029672949
100
AcDbArc
 50
99.1101701529
 51
193.1328292565
  0
ARC
  5
806
100
AcDbEntity
  8
RACCORDO
100
AcDbCircle
 62
253
  6
CONTINUOUS
 10
-4.75
 20
29.6215715316
 40
3.8029672949
100
AcDbArc
 50
201.0160323675
 51
279.1101701529
  0
ARC
  5
807
100
AcDbEntity
  8
RACCORDO
100
AcDbCircle
 62
253
  6
CONTINUOUS
 10
-4.75
 20
29.6215715316
 40
3.508287914
100
AcDbArc
 50
99.1101701491
 51
279.1101701543
  0
ARC
  5
808
100
AcDbEntity
  8
RACCORDO
100
AcDbCircle
 62
253
  6
CONTINUOUS
 10
-4.75
 20
29.6215715316
 40
3.0171556126
100
AcDbArc
 50
99.1101701529
 51
279.1101701529
  0
ARC
  5
809
100
AcDbEntity
  8
RACCORDO
100
AcDbCircle
 62
7
  6
CONTINUOUS
 10
-8.5
 20
24.2
 40
0.5
100
AcDbArc
 50
4.7738378569
 51
90.0
  0
ARC
  5
80A
100
AcDbEntity
  8
RACCORDO
100
AcDbCircle
 62
7
  6
CONTINUOUS
 10
-14.0
 20
24.2
 40
0.5
100
AcDbArc
 50
90.0
 51
175.2428308406
  0
ARC
  5
80B
100
AcDbEntity
  8
DRAFT
100
AcDbCircle
 62
7
  6
CONTINUOUS
 10
-13.0
 20
26.8056609916
 40
0.3373576843
100
AcDbArc
 50
15.0
 51
165.0
  0
ARC
  5
80C
100
AcDbEntity
  8
DRAFT
100
AcDbCircle
 62
7
  6
CONTINUOUS
 10
-9.5
 20
26.8056609916
 40
0.3373576843
100
AcDbArc
 50
15.0
 51
165.0
  0
ARC
  5
80D
100
AcDbEntity
  8
RACCORDO
100
AcDbCircle
 62
253
  6
CONTINUOUS
 10
4.75
 20
-29.6215715316
 40
3.8029672949
100
AcDbArc
 50
21.0160323675
 51
99.1101701529
  0
ARC
  5
80E
100
AcDbEntity
  8
RACCORDO
100
AcDbCircle
 62
253
  6
CONTINUOUS
 10
4.75
 20
-29.6215715316
 40
3.8029672949
100
AcDbArc
 50
279.1101701529
 51
13.1328292565
  0
ARC
  5
80F
100
AcDbEntity
  8
RACCORDO
100
AcDbCircle
 62
253
  6
CONTINUOUS
 10
4.75
 20
-29.6215715316
 40
3.508287914
100
AcDbArc
 50
279.1101701491
 51
99.1101701543
  0
ARC
  5
810
100
AcDbEntity
  8
RACCORDO
100
AcDbCircle
 62
253
  6
CONTINUOUS
 10
4.75
 20
-29.6215715316
 40
3.0171556126
100
AcDbArc
 50
279.1101701529
 51
99.1101701529
  0
ARC
  5
811
100
AcDbEntity
  8
RACCORDO
100
AcDbCircle
 62
7
  6
CONTINUOUS
 10
14.0
 20
-24.2
 40
0.5
100
AcDbArc
 50
270.0
 51
355.2428308406
  0
ARC
  5
812
100
AcDbEntity
  8
RACCORDO
100
AcDbCircle
 62
7
  6
CONTINUOUS
 10
8.5
 20
-24.2
 40
0.5
100
AcDbArc
 50
184.7738378569
 51
270.0
  0
ARC
  5
813
100
AcDbEntity
  8
DRAFT
100
AcDbCircle
 62
7
  6
CONTINUOUS
 10
13.0
 20
-26.8056609916
 40
0.3373576843
100
AcDbArc
 50
195.0
 51
345.0
  0
ARC
  5
814
100
AcDbEntity
  8
DRAFT
100
AcDbCircle
 62
7
  6
CONTINUOUS
 10
9.5
 20
-26.8056609916
 40
0.3373576843
100
AcDbArc
 50
195.0
 51
345.0
  0
ARC
  5
815
100
AcDbEntity
  8
ASSI
100
AcDbCircle
 62
7
  6
CONTINUOUS
 10
27.0
 20
-35.0
 40
2.6237424326
100
AcDbArc
 50
292.0885384701
 51
273.4297403372
  0
ARC
  5
816
100
AcDbEntity
  8
ASSI
100
AcDbCircle
 62
7
  6
CONTINUOUS
 10
40.417556
 20
-35.0
 40
2.5499986575
100
AcDbArc
 50
87.7525289614
 51
272.247470793
  0
ARC
  5
817
100
AcDbEntity
  8
ASSI
100
AcDbCircle
 62
7
  6
CONTINUOUS
 10
36.032446
 20
-35.0
 40
2.5499985399
100
AcDbArc
 50
87.7525290943
 51
272.2474708964
  0
ARC
  5
818
100
AcDbEntity
  8
ASSI
100
AcDbCircle
 62
7
  6
CONTINUOUS
 10
26.920643
 20
-39.946093
 40
2.3390187052
100
AcDbArc
 50
47.2312712626
 51
84.2012689375
  0
ARC
  5
819
100
AcDbEntity
  8
ASSI
100
AcDbCircle
 62
7
  6
CONTINUOUS
 10
27.104722
 20
-39.567224
 40
2.3109495123
100
AcDbArc
 50
45.4348886633
 51
67.5658624856
  0
CIRCLE
  5
81A
100
AcDbEntity
  8
ASSI
100
AcDbCircle
 62
7
  6
CONTINUOUS
 10
27.0
 20
-35.0
 40
2.20376
  0
ARC
  5
81B
100
AcDbEntity
  8
ASSI
100
AcDbCircle
 62
7
  6
CONTINUOUS
 10
27.0
 20
-35.0
 40
1.9709567246
100
AcDbArc
 50
299.3041457634
 51
44.9957848404
  0
ARC
  5
81C
100
AcDbEntity
  8
ASSI
100
AcDbCircle
 62
7
  6
CONTINUOUS
 10
27.0
 20
-35.0
 40
1.9709563643
100
AcDbArc
 50
134.9002846268
 51
240.6958542366
  0
ARC
  5
81D
100
AcDbEntity
  8
ASSI
100
AcDbCircle
 62
7
  6
CONTINUOUS
 10
40.417556
 20
-35.0
 40
1.7999999246
100
AcDbArc
 50
86.8152613297
 51
167.9752999293
  0
ARC
  5
81E
100
AcDbEntity
  8
ASSI
100
AcDbCircle
 62
7
  6
CONTINUOUS
 10
36.032446
 20
-35.0
 40
1.7999999246
100
AcDbArc
 50
90.7274526594
 51
273.1847386504
  0
ARC
  5
81F
100
AcDbEntity
  8
ASSI
100
AcDbCircle
 62
7
  6
CONTINUOUS
 10
40.417556
 20
-35.0
 40
1.7999968808
100
AcDbArc
 50
192.0247203293
 51
273.1847445565
  0
ARC
  5
820
100
AcDbEntity
  8
ASSI
100
AcDbCircle
 62
7
  6
CONTINUOUS
 10
27.0
 20
-35.0
 40
1.5790921275
100
AcDbArc
 50
148.0267086216
 51
240.6958772397
  0
ARC
  5
821
100
AcDbEntity
  8
ASSI
100
AcDbCircle
 62
7
  6
CONTINUOUS
 10
27.0
 20
-35.0
 40
1.5790919977
100
AcDbArc
 50
299.3041227603
 51
31.9732906939
  0
ARC
  5
822
100
AcDbEntity
  8
RACCORDO
100
AcDbCircle
 62
253
  6
CONTINUOUS
 10
23.75
 20
-24.1
 40
0.5785135937
100
AcDbArc
 50
135.540908758
 51
80.5675845356
  0
ARC
  5
823
100
AcDbEntity
  8
DRAFT
100
AcDbCircle
 62
7
  6
CONTINUOUS
 10
23.75
 20
-24.1
 40
0.575
100
AcDbArc
 50
81.218693874
 51
134.2007223492
  0
CIRCLE
  5
824
100
AcDbEntity
  8
RACCORDO
100
AcDbCircle
 62
7
  6
CONTINUOUS
 10
23.75
 20
-24.1
 40
0.5553417009
  0
ARC
  5
825
100
AcDbEntity
  8
RACCORDO
100
AcDbCircle
 62
253
  6
CONTINUOUS
 10
22.7089435163
 20
-23.0089447478
 40
0.3000647124
100
AcDbArc
 50
90.0208814725
 51
179.9788835125
  0
CIRCLE
  5
826
100
AcDbEntity
  8
RACCORDO
100
AcDbCircle
 62
253
  6
CONTINUOUS
 10
23.75
 20
-24.1
 40
0.255353124
  0
ARC
  5
827
100
AcDbEntity
  8
RACCORDO
100
AcDbCircle
 62
253
  6
CONTINUOUS
 10
29.6215715316
 20
-4.75
 40
3.8029672949
100
AcDbArc
 50
260.0
 51
350.8898298471
  0
ARC
  5
828
100
AcDbEntity
  8
RACCORDO
100
AcDbCircle
 62
253
  6
CONTINUOUS
 10
29.6215715316
 20
-4.75
 40
3.508287914
100
AcDbArc
 50
260.0
 51
350.8898298471
  0
ARC
  5
829
100
AcDbEntity
  8
RACCORDO
100
AcDbCircle
 62
253
  6
CONTINUOUS
 10
29.6215715316
 20
-4.75
 40
3.0171556126
100
AcDbArc
 50
260.0
 51
350.8898298471
  0
ARC
  5
82A
100
AcDbEntity
  8
CURVE
100
AcDbCircle
 62
7
  6
CONTINUOUS
 10
23.65
 20
-5.0
 40
1.0
100
AcDbArc
 50
161.8427705085
 51
198.1572294915
  0
ARC
  5
82B
100
AcDbEntity
  8
RACCORDO
100
AcDbCircle
 62
7
  6
CONTINUOUS
 10
32.0
 20
-13.5
 40
0.5
100
AcDbArc
 50
270.0
 51
90.0
  0
ARC
  5
82C
100
AcDbEntity
  8
RACCORDO
100
AcDbCircle
 62
7
  6
CONTINUOUS
 10
32.0
 20
-21.5
 40
0.5
100
AcDbArc
 50
270.0
 51
90.0
  0
ARC
  5
82D
100
AcDbEntity
  8
RACCORDO
100
AcDbCircle
 62
253
  6
CONTINUOUS
 10
25.5149761508
 20
-8.4850238492
 40
0.2000539291
100
AcDbArc
 50
0.0238441412
 51
89.9761558587
  0
ARC
  5
82E
100
AcDbEntity
  8
RACCORDO
100
AcDbCircle
 62
253
  6
CONTINUOUS
 10
25.5149761508
 20
-12.6649761508
 40
0.2000539292
100
AcDbArc
 50
270.0238441458
 51
359.9761558542
  0
ARC
  5
82F
100
AcDbEntity
  8
RACCORDO
100
AcDbCircle
 62
253
  6
CONTINUOUS
 10
24.9850238489
 20
-8.4850238489
 40
0.2000539288
100
AcDbArc
 50
90.0238440583
 51
179.9761559417
  0
ARC
  5
830
100
AcDbEntity
  8
RACCORDO
100
AcDbCircle
 62
253
  6
CONTINUOUS
 10
24.9850238489
 20
-12.6649761511
 40
0.2000539288
100
AcDbArc
 50
180.0238440586
 51
269.9761559414
  0
ARC
  5
831
100
AcDbEntity
  8
RACCORDO
100
AcDbCircle
 62
253
  6
CONTINUOUS
 10
29.6215715316
 20
4.75
 40
3.8029672949
100
AcDbArc
 50
9.1101701529
 51
100.0
  0
ARC
  5
832
100
AcDbEntity
  8
RACCORDO
100
AcDbCircle
 62
253
  6
CONTINUOUS
 10
4.75
 20
29.6215715316
 40
3.8029672949
100
AcDbArc
 50
346.8671697695
 51
80.8898298471
  0
ARC
  5
833
100
AcDbEntity
  8
RACCORDO
100
AcDbCircle
 62
253
  6
CONTINUOUS
 10
4.75
 20
29.6215715316
 40
3.8029672949
100
AcDbArc
 50
260.8898298471
 51
338.9837997328
  0
ARC
  5
834
100
AcDbEntity
  8
RACCORDO
100
AcDbCircle
 62
253
  6
CONTINUOUS
 10
4.75
 20
29.6215715316
 40
3.508287914
100
AcDbArc
 50
260.8898298424
 51
80.8898298484
  0
ARC
  5
835
100
AcDbEntity
  8
RACCORDO
100
AcDbCircle
 62
253
  6
CONTINUOUS
 10
29.6215715316
 20
4.75
 40
3.508287914
100
AcDbArc
 50
9.1101701529
 51
100.0
  0
ARC
  5
836
100
AcDbEntity
  8
RACCORDO
100
AcDbCircle
 62
253
  6
CONTINUOUS
 10
4.75
 20
29.6215715316
 40
3.0171556126
100
AcDbArc
 50
260.8898298471
 51
80.8898298471
  0
ARC
  5
837
100
AcDbEntity
  8
RACCORDO
100
AcDbCircle
 62
253
  6
CONTINUOUS
 10
29.6215715316
 20
4.75
 40
3.0171556126
100
AcDbArc
 50
9.1101701529
 51
100.0
  0
CIRCLE
  5
838
100
AcDbEntity
  8
0
100
AcDbCircle
 62
7
  6
CONTINUOUS
 10
38.5
 20
36.0
 40
3.0
  0
ARC
  5
839
100
AcDbEntity
  8
CURVE
100
AcDbCircle
 62
7
  6
CONTINUOUS
 10
5.0
 20
23.6
 40
1.0
100
AcDbArc
 50
244.177939562
 51
295.822060438
  0
ARC
  5
83A
100
AcDbEntity
  8
RACCORDO
100
AcDbCircle
 62
253
  6
CONTINUOUS
 10
23.75
 20
24.1
 40
0.5785135937
100
AcDbArc
 50
279.4324154644
 51
224.459091242
  0
ARC
  5
83B
100
AcDbEntity
  8
DRAFT
100
AcDbCircle
 62
7
  6
CONTINUOUS
 10
23.75
 20
24.1
 40
0.575
100
AcDbArc
 50
225.7992776508
 51
278.781306126
  0
CIRCLE
  5
83C
100
AcDbEntity
  8
RACCORDO
100
AcDbCircle
 62
7
  6
CONTINUOUS
 10
23.75
 20
24.1
 40
0.5553417009
  0
ARC
  5
83D
100
AcDbEntity
  8
RACCORDO
100
AcDbCircle
 62
7
  6
CONTINUOUS
 10
8.5
 20
24.2
 40
0.5
100
AcDbArc
 50
90.0
 51
175.2428308406
  0
ARC
  5
83E
100
AcDbEntity
  8
RACCORDO
100
AcDbCircle
 62
7
  6
CONTINUOUS
 10
14.0
 20
24.2
 40
0.5
100
AcDbArc
 50
4.7738378569
 51
90.0
  0
ARC
  5
83F
100
AcDbEntity
  8
RACCORDO
100
AcDbCircle
 62
7
  6
CONTINUOUS
 10
32.0
 20
13.5
 40
0.5
100
AcDbArc
 50
270.0
 51
90.0
  0
ARC
  5
840
100
AcDbEntity
  8
RACCORDO
100
AcDbCircle
 62
7
  6
CONTINUOUS
 10
32.0
 20
21.5
 40
0.5
100
AcDbArc
 50
270.0
 51
90.0
  0
ARC
  5
841
100
AcDbEntity
  8
DRAFT
100
AcDbCircle
 62
7
  6
CONTINUOUS
 10
13.0
 20
26.8056609916
 40
0.3373576843
100
AcDbArc
 50
15.0
 51
165.0
  0
ARC
  5
842
100
AcDbEntity
  8
DRAFT
100
AcDbCircle
 62
7
  6
CONTINUOUS
 10
9.5
 20
26.8056609916
 40
0.3373576843
100
AcDbArc
 50
15.0
 51
165.0
  0
ARC
  5
843
100
AcDbEntity
  8
RACCORDO
100
AcDbCircle
 62
253
  6
CONTINUOUS
 10
22.7089447435
 20
23.0089435119
 40
0.3000647124
100
AcDbArc
 50
180.0208806363
 51
269.9788843488
  0
CIRCLE
  5
844
100
AcDbEntity
  8
RACCORDO
100
AcDbCircle
 62
253
  6
CONTINUOUS
 10
23.75
 20
24.1
 40
0.255353124
  0
ARC
  5
845
100
AcDbEntity
  8
RACCORDO
100
AcDbCircle
 62
253
  6
CONTINUOUS
 10
25.5149761508
 20
12.6649761508
 40
0.2000539292
100
AcDbArc
 50
0.0238441458
 51
89.9761558542
  0
ARC
  5
846
100
AcDbEntity
  8
RACCORDO
100
AcDbCircle
 62
253
  6
CONTINUOUS
 10
25.5149761508
 20
8.4850238492
 40
0.2000539291
100
AcDbArc
 50
270.0238441412
 51
359.9761558587
  0
ARC
  5
847
100
AcDbEntity
  8
RACCORDO
100
AcDbCircle
 62
253
  6
CONTINUOUS
 10
24.9850238489
 20
12.6649761511
 40
0.2000539288
100
AcDbArc
 50
90.023844055
 51
179.976155945
  0
ARC
  5
848
100
AcDbEntity
  8
RACCORDO
100
AcDbCircle
 62
253
  6
CONTINUOUS
 10
24.9850238489
 20
8.4850238489
 40
0.2000539288
100
AcDbArc
 50
180.0238440551
 51
269.9761559449
  0
SPLINE
  5
849
100
AcDbEntity
  8
RACCORDO
100
AcDbSpline
 62
7
  6
CONTINUOUS
 70
0
 71
3
 72
16
 73
12
 74
10
 42
0.0000001
 43
0.0000001
 44
0.0000000001
 12
0.160820623
 22
-0.0956260344
 32
0.0
 13
0.1870958577
 23
-0.0016587005
 33
0.0
 40
0.0
 40
0.0
 40
0.0
 40
0.0
 40
0.0087697403
 40
0.0276834778
 40
0.0561997217
 40
0.0937058591
 40
0.1927141192
 40
0.3183922882
 40
0.4654831222
 40
0.6301019259
 40
1.0
 40
1.0
 40
1.0
 40
1.0
 10
-23.337085511
 20
-23.6948091772
 30
0.0
 10
-23.3366153926
 20
-23.6950887157
 30
0.0
 10
-23.3348106834
 20
-23.6951952149
 30
0.0
 10
-23.3313934422
 20
-23.6956307603
 30
0.0
 10
-23.3260693414
 20
-23.6958988797
 30
0.0
 10
-23.3158075813
 20
-23.696411516
 30
0.0
 10
-23.2994497658
 20
-23.6969184939
 30
0.0
 10
-23.2762755437
 20
-23.6974948143
 30
0.0
 10
-23.2489994887
 20
-23.6980104917
 30
0.0
 10
-23.2064948859
 20
-23.6986613577
 30
0.0
 10
-23.1731596849
 20
-23.6990207516
 30
0.0
 10
-23.1500908858
 20
-23.6992252683
 30
0.0
 11
-23.337085511
 21
-23.6948091772
 31
0.0
 11
-23.3354841627
 21
-23.6951670335
 31
0.0
 11
-23.331963159
 21
-23.6955216979
 31
0.0
 11
-23.3266390512
 21
-23.6958698803
 31
0.0
 11
-23.3196297016
 21
-23.6962083873
 31
0.0
 11
-23.3011160597
 21
-23.6968501963
 31
0.0
 11
-23.277608672
 21
-23.6974401271
 31
0.0
 11
-23.2500926887
 21
-23.6979742719
 31
0.0
 11
-23.2192956719
 21
-23.6984510131
 31
0.0
 11
-23.1500908858
 21
-23.6992252683
 31
0.0
  0
SPLINE
  5
84A
100
AcDbEntity
  8
RACCORDO
100
AcDbSpline
 62
7
  6
CONTINUOUS
 70
0
 71
3
 72
16
 73
12
 74
10
 42
0.0000001
 43
0.0000001
 44
0.0000000001
 12
0.1870957905
 22
0.0016587009
 32
0.0
 13
0.1608205653
 23
0.0956260001
 33
0.0
 40
0.0
 40
0.0
 40
0.0
 40
0.0
 40
0.3698981194
 40
0.5345168885
 40
0.6816077135
 40
0.8072858748
 40
0.9062941391
 40
0.9438002792
 40
0.9723165234
 40
0.9912302599
 40
1.0
 40
1.0
 40
1.0
 40
1.0
 10
23.1500909529
 20
-23.6992252677
 30
0.0
 10
23.1731597466
 20
-23.6990207509
 30
0.0
 10
23.2064949363
 20
-23.6986613572
 30
0.0
 10
23.2489995239
 20
-23.698010491
 30
0.0
 10
23.276275566
 20
-23.6974948138
 30
0.0
 10
23.2994497789
 20
-23.6969184935
 30
0.0
 10
23.3158075885
 20
-23.6964115157
 30
0.0
 10
23.3260693454
 20
-23.6958988795
 30
0.0
 10
23.3313934444
 20
-23.6956307601
 30
0.0
 10
23.3348106843
 20
-23.6951952149
 30
0.0
 10
23.3366153928
 20
-23.6950887156
 30
0.0
 10
23.337085511
 20
-23.6948091772
 30
0.0
 11
23.1500909529
 21
-23.6992252677
 31
0.0
 11
23.2192957227
 21
-23.6984510125
 31
0.0
 11
23.250092722
 21
-23.6979742713
 31
0.0
 11
23.2776086937
 21
-23.6974401266
 31
0.0
 11
23.3011160715
 21
-23.696850196
 31
0.0
 11
23.3196297075
 21
-23.696208387
 31
0.0
 11
23.3266390551
 21
-23.6958698801
 31
0.0
 11
23.3319631611
 21
-23.6955216977
 31
0.0
 11
23.3354841634
 21
-23.6951670334
 31
0.0
 11
23.337085511
 21
-23.6948091772
 31
0.0
  0
SPLINE
  5
84B
100
AcDbEntity
  8
RACCORDO
100
AcDbSpline
 62
7
  6
CONTINUOUS
 70
0
 71
3
 72
16
 73
12
 74
10
 42
0.0000001
 43
0.0000001
 44
0.0000000001
 12
-0.160820623
 22
0.0956260344
 32
0.0
 13
-0.1870958577
 23
0.0016587005
 33
0.0
 40
0.0
 40
0.0
 40
0.0
 40
0.0
 40
0.0087697403
 40
0.0276834778
 40
0.0561997217
 40
0.0937058591
 40
0.1927141192
 40
0.3183922882
 40
0.4654831222
 40
0.6301019259
 40
1.0
 40
1.0
 40
1.0
 40
1.0
 10
23.337085511
 20
23.6948091772
 30
0.0
 10
23.3366153926
 20
23.6950887157
 30
0.0
 10
23.3348106834
 20
23.6951952149
 30
0.0
 10
23.3313934422
 20
23.6956307603
 30
0.0
 10
23.3260693414
 20
23.6958988797
 30
0.0
 10
23.3158075813
 20
23.696411516
 30
0.0
 10
23.2994497658
 20
23.6969184939
 30
0.0
 10
23.2762755437
 20
23.6974948143
 30
0.0
 10
23.2489994887
 20
23.6980104917
 30
0.0
 10
23.2064948859
 20
23.6986613577
 30
0.0
 10
23.1731596849
 20
23.6990207516
 30
0.0
 10
23.1500908858
 20
23.6992252683
 30
0.0
 11
23.337085511
 21
23.6948091772
 31
0.0
 11
23.3354841627
 21
23.6951670335
 31
0.0
 11
23.331963159
 21
23.6955216979
 31
0.0
 11
23.3266390512
 21
23.6958698803
 31
0.0
 11
23.3196297016
 21
23.6962083873
 31
0.0
 11
23.3011160597
 21
23.6968501963
 31
0.0
 11
23.277608672
 21
23.6974401271
 31
0.0
 11
23.2500926887
 21
23.6979742719
 31
0.0
 11
23.2192956719
 21
23.6984510131
 31
0.0
 11
23.1500908858
 21
23.6992252683
 31
0.0
  0
SPLINE
  5
84C
100
AcDbEntity
  8
RACCORDO
100
AcDbSpline
 62
7
  6
CONTINUOUS
 70
0
 71
3
 72
16
 73
12
 74
10
 42
0.0000001
 43
0.0000001
 44
0.0000000001
 12
-0.1870957905
 22
-0.0016587009
 32
0.0
 13
-0.1608205653
 23
-0.0956260001
 33
0.0
 40
0.0
 40
0.0
 40
0.0
 40
0.0
 40
0.3698981194
 40
0.5345168885
 40
0.6816077135
 40
0.8072858748
 40
0.9062941391
 40
0.9438002792
 40
0.9723165234
 40
0.9912302599
 40
1.0
 40
1.0
 40
1.0
 40
1.0
 10
-23.1500909529
 20
23.6992252677
 30
0.0
 10
-23.1731597466
 20
23.6990207509
 30
0.0
 10
-23.2064949363
 20
23.6986613572
 30
0.0
 10
-23.2489995239
 20
23.698010491
 30
0.0
 10
-23.276275566
 20
23.6974948138
 30
0.0
 10
-23.2994497789
 20
23.6969184935
 30
0.0
 10
-23.3158075885
 20
23.6964115157
 30
0.0
 10
-23.3260693454
 20
23.6958988795
 30
0.0
 10
-23.3313934444
 20
23.6956307601
 30
0.0
 10
-23.3348106843
 20
23.6951952149
 30
0.0
 10
-23.3366153928
 20
23.6950887156
 30
0.0
 10
-23.337085511
 20
23.6948091772
 30
0.0
 11
-23.1500909529
 21
23.6992252677
 31
0.0
 11
-23.2192957227
 21
23.6984510125
 31
0.0
 11
-23.250092722
 21
23.6979742713
 31
0.0
 11
-23.2776086937
 21
23.6974401266
 31
0.0
 11
-23.3011160715
 21
23.696850196
 31
0.0
 11
-23.3196297075
 21
23.696208387
 31
0.0
 11
-23.3266390551
 21
23.6958698801
 31
0.0
 11
-23.3319631611
 21
23.6955216977
 31
0.0
 11
-23.3354841634
 21
23.6951670334
 31
0.0
 11
-23.337085511
 21
23.6948091772
 31
0.0
  0
SPLINE
  5
84D
100
AcDbEntity
  8
RACCORDO
100
AcDbSpline
 62
7
  6
CONTINUOUS
 70
0
 71
3
 72
13
 73
9
 74
7
 42
0.0000001
 43
0.0000001
 44
0.0000000001
 12
-0.0276004484
 22
-0.0094030314
 32
0.0
 13
-0.0010635633
 23
-0.0291388158
 33
0.0
 40
0.0
 40
0.0
 40
0.0
 40
0.0
 40
0.0211622176
 40
0.0716818702
 40
0.152327627
 40
0.2630012259
 40
0.5734892626
 40
1.0
 40
1.0
 40
1.0
 40
1.0
 10
-23.8448091772
 20
23.5293081409
 30
0.0
 10
-23.8450038728
 20
23.5292418112
 30
0.0
 10
-23.8451559284
 20
23.5283911347
 30
0.0
 10
-23.845453141
 20
23.5270831014
 30
0.0
 10
-23.8456918478
 20
23.5246660277
 30
0.0
 10
-23.8461132099
 20
23.5198528777
 30
0.0
 10
-23.8465611769
 20
23.5115902846
 30
0.0
 10
-23.8468580907
 20
23.5044456607
 30
0.0
 10
-23.8470092977
 20
23.5003029881
 30
0.0
 11
-23.8448091772
 21
23.5293081409
 31
0.0
 11
-23.8450925909
 21
23.5287600255
 31
0.0
 11
-23.8453756013
 21
23.5273144045
 31
0.0
 11
-23.8456571995
 21
23.5249798399
 31
0.0
 11
-23.8459363767
 21
23.5217648935
 31
0.0
 11
-23.8464834339
 21
23.5127281587
 31
0.0
 11
-23.8470092977
 21
23.5003029881
 31
0.0
  0
SPLINE
  5
84E
100
AcDbEntity
  8
RACCORDO
100
AcDbSpline
 62
7
  6
CONTINUOUS
 70
0
 71
3
 72
13
 73
9
 74
7
 42
0.0000001
 43
0.0000001
 44
0.0000000001
 12
0.0010635633
 22
-0.0291388158
 32
0.0
 13
0.0276004484
 23
-0.0094030314
 33
0.0
 40
0.0
 40
0.0
 40
0.0
 40
0.0
 40
0.4265107374
 40
0.7369987741
 40
0.847672373
 40
0.9283181298
 40
0.9788377824
 40
1.0
 40
1.0
 40
1.0
 40
1.0
 10
-23.8470092977
 20
-23.5003029881
 30
0.0
 10
-23.8468580907
 20
-23.5044456607
 30
0.0
 10
-23.8465611769
 20
-23.5115902846
 30
0.0
 10
-23.8461132099
 20
-23.5198528777
 30
0.0
 10
-23.8456918478
 20
-23.5246660277
 30
0.0
 10
-23.845453141
 20
-23.5270831014
 30
0.0
 10
-23.8451559284
 20
-23.5283911347
 30
0.0
 10
-23.8450038728
 20
-23.5292418112
 30
0.0
 10
-23.8448091772
 20
-23.5293081409
 30
0.0
 11
-23.8470092977
 21
-23.5003029881
 31
0.0
 11
-23.8464834339
 21
-23.5127281587
 31
0.0
 11
-23.8459363767
 21
-23.5217648935
 31
0.0
 11
-23.8456571995
 21
-23.5249798399
 31
0.0
 11
-23.8453756013
 21
-23.5273144045
 31
0.0
 11
-23.8450925909
 21
-23.5287600255
 31
0.0
 11
-23.8448091772
 21
-23.5293081409
 31
0.0
  0
SPLINE
  5
84F
100
AcDbEntity
  8
RACCORDO
100
AcDbSpline
 62
7
  6
CONTINUOUS
 70
0
 71
3
 72
13
 73
9
 74
7
 42
0.0000001
 43
0.0000001
 44
0.0000000001
 12
-0.0010635633
 22
0.0291388158
 32
0.0
 13
-0.0276004484
 23
0.0094030314
 33
0.0
 40
0.0
 40
0.0
 40
0.0
 40
0.0
 40
0.4265107374
 40
0.7369987741
 40
0.847672373
 40
0.9283181298
 40
0.9788377824
 40
1.0
 40
1.0
 40
1.0
 40
1.0
 10
23.8470092977
 20
23.5003029881
 30
0.0
 10
23.8468580907
 20
23.5044456607
 30
0.0
 10
23.8465611769
 20
23.5115902846
 30
0.0
 10
23.8461132099
 20
23.5198528777
 30
0.0
 10
23.8456918478
 20
23.5246660277
 30
0.0
 10
23.845453141
 20
23.5270831014
 30
0.0
 10
23.8451559284
 20
23.5283911347
 30
0.0
 10
23.8450038728
 20
23.5292418112
 30
0.0
 10
23.8448091772
 20
23.5293081409
 30
0.0
 11
23.8470092977
 21
23.5003029881
 31
0.0
 11
23.8464834339
 21
23.5127281587
 31
0.0
 11
23.8459363767
 21
23.5217648935
 31
0.0
 11
23.8456571995
 21
23.5249798399
 31
0.0
 11
23.8453756013
 21
23.5273144045
 31
0.0
 11
23.845092591
 21
23.5287600255
 31
0.0
 11
23.8448091772
 21
23.5293081409
 31
0.0
  0
SPLINE
  5
850
100
AcDbEntity
  8
RACCORDO
100
AcDbSpline
 62
7
  6
CONTINUOUS
 70
0
 71
3
 72
13
 73
9
 74
7
 42
0.0000001
 43
0.0000001
 44
0.0000000001
 12
0.0276004484
 22
0.0094030314
 32
0.0
 13
0.0010635633
 23
0.0291388158
 33
0.0
 40
0.0
 40
0.0
 40
0.0
 40
0.0
 40
0.0211622176
 40
0.0716818702
 40
0.152327627
 40
0.2630012259
 40
0.5734892626
 40
1.0
 40
1.0
 40
1.0
 40
1.0
 10
23.8448091772
 20
-23.5293081409
 30
0.0
 10
23.8450038728
 20
-23.5292418112
 30
0.0
 10
23.8451559284
 20
-23.5283911347
 30
0.0
 10
23.845453141
 20
-23.5270831014
 30
0.0
 10
23.8456918478
 20
-23.5246660277
 30
0.0
 10
23.8461132099
 20
-23.5198528777
 30
0.0
 10
23.8465611769
 20
-23.5115902846
 30
0.0
 10
23.8468580907
 20
-23.5044456607
 30
0.0
 10
23.8470092977
 20
-23.5003029881
 30
0.0
 11
23.8448091772
 21
-23.5293081409
 31
0.0
 11
23.845092591
 21
-23.5287600255
 31
0.0
 11
23.8453756013
 21
-23.5273144045
 31
0.0
 11
23.8456571995
 21
-23.5249798399
 31
0.0
 11
23.8459363767
 21
-23.5217648935
 31
0.0
 11
23.8464834339
 21
-23.5127281587
 31
0.0
 11
23.8470092977
 21
-23.5003029881
 31
0.0
  0
SPLINE
  5
851
100
AcDbEntity
  8
0
100
AcDbSpline
 62
7
  6
CONTINUOUS
 70
0
 71
3
 72
13
 73
9
 74
7
 42
0.0000001
 43
0.0000001
 44
0.0000000001
 12
1.1298428972
 22
-0.0000029429
 32
0.0
 13
0.0
 23
-1.129842738
 33
0.0
 40
0.0
 40
0.0
 40
0.0
 40
0.0
 40
0.1573088156
 40
0.3022011433
 40
0.4829354367
 40
0.6858836381
 40
0.8294044042
 40
1.0
 40
1.0
 40
1.0
 40
1.0
 10
-13.8478504594
 20
-31.26424677
 30
0.0
 10
-13.7886057101
 20
-31.2642469243
 30
0.0
 10
-13.674121222
 20
-31.2766562016
 30
0.0
 10
-13.503027057
 20
-31.3474209757
 30
0.0
 10
-13.3593079528
 20
-31.4929225283
 30
0.0
 10
-13.2749446907
 20
-31.6768130756
 30
0.0
 10
-13.2416123704
 20
-31.8693099886
 30
0.0
 10
-13.2334004896
 20
-31.9876069084
 30
0.0
 10
-13.2334004896
 20
-32.05185564
 30
0.0
 11
-13.8478504594
 21
-31.26424677
 31
0.0
 11
-13.6714281955
 21
-31.2858023811
 31
0.0
 11
-13.5210363544
 21
-31.3504692147
 31
0.0
 11
-13.3748727294
 21
-31.4930678733
 31
0.0
 11
-13.2767946985
 21
-31.7003333654
 31
0.0
 11
-13.2458706871
 21
-31.8595132633
 31
0.0
 11
-13.2334004896
 21
-32.05185564
 31
0.0
  0
SPLINE
  5
852
100
AcDbEntity
  8
0
100
AcDbSpline
 62
7
  6
CONTINUOUS
 70
0
 71
3
 72
13
 73
9
 74
7
 42
0.0000001
 43
0.0000001
 44
0.0000000001
 12
0.0
 22
-1.129849383
 32
0.0
 13
-1.1298490439
 23
0.0000062682
 33
0.0
 40
0.0
 40
0.0
 40
0.0
 40
0.0
 40
0.1705945925
 40
0.3141145145
 40
0.5170615223
 40
0.6977947528
 40
0.8426862283
 40
1.0
 40
1.0
 40
1.0
 40
1.0
 10
-13.2334004896
 20
-32.05185564
 30
0.0
 10
-13.2334004896
 20
-32.1161043717
 30
0.0
 10
-13.2416123704
 20
-32.2344012915
 30
0.0
 10
-13.2749446907
 20
-32.4268982045
 30
0.0
 10
-13.3593079528
 20
-32.6107887518
 30
0.0
 10
-13.503027057
 20
-32.7562903044
 30
0.0
 10
-13.6741233056
 20
-32.8270559403
 30
0.0
 10
-13.7886101661
 20
-32.8394648388
 30
0.0
 10
-13.8478571043
 20
-32.8394645101
 30
0.0
 11
-13.2334004896
 21
-32.05185564
 31
0.0
 11
-13.2458706871
 21
-32.2441980167
 31
0.0
 11
-13.2767946985
 21
-32.4033779147
 31
0.0
 11
-13.3748727294
 21
-32.6106434068
 31
0.0
 11
-13.5210363544
 21
-32.7532420654
 31
0.0
 11
-13.6714281955
 21
-32.8179088989
 31
0.0
 11
-13.8478571043
 21
-32.8394645101
 31
0.0
  0
SPLINE
  5
853
100
AcDbEntity
  8
0
100
AcDbSpline
 62
7
  6
CONTINUOUS
 70
0
 71
3
 72
13
 73
9
 74
7
 42
0.0000001
 43
0.0000001
 44
0.0000000001
 12
1.505457138
 22
0.0000035754
 32
0.0
 13
0.0
 23
1.5054567332
 33
0.0
 40
0.0
 40
0.0
 40
0.0
 40
0.0
 40
0.2440838579
 40
0.3951667354
 40
0.586594392
 40
0.7510174985
 40
0.8853894242
 40
1.0
 40
1.0
 40
1.0
 40
1.0
 10
-13.8107082758
 20
-33.0765762331
 30
0.0
 10
-13.6882223471
 20
-33.0765759422
 30
0.0
 10
-13.4857160735
 20
-33.0394444755
 30
0.0
 10
-13.2337817173
 20
-32.8789354922
 30
0.0
 10
-13.0764842942
 20
-32.6713275628
 30
0.0
 10
-12.9891692035
 20
-32.4395555315
 30
0.0
 10
-12.9503288365
 20
-32.2346336033
 30
0.0
 10
-12.9491867747
 20
-32.1093693944
 30
0.0
 10
-12.9491867747
 20
-32.05185564
 30
0.0
 11
-13.8107082758
 21
-33.0765762331
 31
0.0
 11
-13.4505660871
 21
-33.0036187799
 31
0.0
 11
-13.2590527724
 21
-32.8809176085
 31
0.0
 11
-13.0817164173
 21
-32.6537546292
 31
0.0
 11
-12.9914315689
 21
-32.4232754019
 31
0.0
 11
-12.9549528423
 21
-32.2243005295
 31
0.0
 11
-12.9491867747
 21
-32.05185564
 31
0.0
  0
SPLINE
  5
854
100
AcDbEntity
  8
0
100
AcDbSpline
 62
7
  6
CONTINUOUS
 70
0
 71
3
 72
13
 73
9
 74
7
 42
0.0000001
 43
0.0000001
 44
0.0000000001
 12
0.0
 22
1.5054595332
 32
0.0
 13
-1.5054594516
 23
-0.0000007205
 33
0.0
 40
0.0
 40
0.0
 40
0.0
 40
0.0
 40
0.1146103626
 40
0.2489820384
 40
0.4134048391
 40
0.6048321396
 40
0.7559147362
 40
1.0
 40
1.0
 40
1.0
 40
1.0
 10
-12.9491867747
 20
-32.05185564
 30
0.0
 10
-12.9491867747
 20
-31.9943418857
 30
0.0
 10
-12.9503288365
 20
-31.8690776768
 30
0.0
 10
-12.9891692035
 20
-31.6641557485
 30
0.0
 10
-13.0764842942
 20
-31.4323837172
 30
0.0
 10
-13.2337817173
 20
-31.2247757879
 30
0.0
 10
-13.4857168722
 20
-31.0642662957
 30
0.0
 10
-13.6882242533
 20
-31.0271349883
 30
0.0
 10
-13.8107110758
 20
-31.027135047
 30
0.0
 11
-12.9491867747
 21
-32.05185564
 31
0.0
 11
-12.9549528423
 21
-31.8794107506
 31
0.0
 11
-12.9914315689
 21
-31.6804358781
 31
0.0
 11
-13.0817164173
 21
-31.4499566509
 31
0.0
 11
-13.2590527724
 21
-31.2227936715
 31
0.0
 11
-13.4505660871
 21
-31.1000925002
 31
0.0
 11
-13.8107110758
 21
-31.027135047
 31
0.0
  0
SPLINE
  5
855
100
AcDbEntity
  8
0
100
AcDbSpline
 62
7
  6
CONTINUOUS
 70
0
 71
3
 72
23
 73
19
 74
17
 42
0.0000001
 43
0.0000001
 44
0.0000000001
 12
5.5804375338
 22
0.0001801932
 32
0.0
 13
-5.5804375122
 23
-0.0000185355
 33
0.0
 40
0.0
 40
0.0
 40
0.0
 40
0.0
 40
0.0363595496
 40
0.0707847015
 40
0.1351277673
 40
0.1958286692
 40
0.2551280101
 40
0.3746265876
 40
0.4366072476
 40
0.4999849419
 40
0.5633636487
 40
0.6253469141
 40
0.7448526424
 40
0.8041568771
 40
0.864858365
 40
0.9292021069
 40
0.9636274262
 40
1.0
 40
1.0
 40
1.0
 40
1.0
 10
40.0184585289
 20
28.1633025826
 30
0.0
 10
40.0860925941
 20
28.1633047665
 30
0.0
 10
40.2177621929
 20
28.1696563312
 30
0.0
 10
40.4663925081
 20
28.20806507
 30
0.0
 10
40.750796373
 20
28.3010482908
 30
0.0
 10
41.0456507825
 20
28.4816919534
 30
0.0
 10
41.3657506661
 20
28.7957645338
 30
0.0
 10
41.5780439325
 20
29.2041527253
 30
0.0
 10
41.6809323017
 20
29.6487028985
 30
0.0
 10
41.7068031772
 20
30.0000496659
 30
0.0
 10
41.680931369
 20
30.3514007159
 30
0.0
 10
41.5780434335
 20
30.7959727141
 30
0.0
 10
41.3657426956
 20
31.2043810039
 30
0.0
 10
41.0456628323
 20
31.5185094775
 30
0.0
 10
40.7507945543
 20
31.6991556105
 30
0.0
 10
40.4663935614
 20
31.7921516575
 30
0.0
 10
40.2177386688
 20
31.8305725656
 30
0.0
 10
40.08604427
 20
31.8369247944
 30
0.0
 10
40.0183859782
 20
31.8369245697
 30
0.0
 11
40.0184585289
 21
28.1633025826
 31
0.0
 11
40.2209836027
 21
28.1734626787
 31
0.0
 11
40.4106664008
 21
28.2031468869
 31
0.0
 11
40.7512014237
 21
28.3163111381
 31
0.0
 11
41.0398188581
 21
28.4932423385
 31
0.0
 11
41.2763465154
 21
28.724387491
 31
0.0
 11
41.592443744
 21
29.3111076653
 31
0.0
 11
41.671668938
 21
29.6475766932
 31
0.0
 11
41.6981156001
 21
30.0000476858
 31
0.0
 11
41.671668938
 21
30.3525243408
 31
0.0
 11
41.592443744
 21
30.6890082969
 31
0.0
 11
41.2763465154
 21
31.2757737705
 31
0.0
 11
41.03981886
 21
31.5069579741
 31
0.0
 11
40.7512014237
 21
31.6838954226
 31
0.0
 11
40.4106664004
 21
31.7970716306
 31
0.0
 11
40.2209836025
 21
31.8267618784
 31
0.0
 11
40.0183859782
 21
31.8369245697
 31
0.0
  0
SPLINE
  5
856
100
AcDbEntity
  8
0
100
AcDbSpline
 62
7
  6
CONTINUOUS
 70
0
 71
3
 72
23
 73
19
 74
17
 42
0.0000001
 43
0.0000001
 44
0.0000000001
 12
-5.5804375122
 22
-0.0000185355
 32
0.0
 13
5.5804375338
 23
0.0001801932
 33
0.0
 40
0.0
 40
0.0
 40
0.0
 40
0.0
 40
0.0363685523
 40
0.0707906457
 40
0.1351300958
 40
0.1958296164
 40
0.2551333891
 40
0.3746398178
 40
0.4366233159
 40
0.5000020572
 40
0.5633797861
 40
0.6253606787
 40
0.7448599567
 40
0.8041588355
 40
0.8648577702
 40
0.929196544
 40
0.9636184701
 40
1.0
 40
1.0
 40
1.0
 40
1.0
 10
40.0183859782
 20
31.8369245697
 30
0.0
 10
39.9507351671
 20
31.836924345
 30
0.0
 10
39.8190542348
 20
31.830572594
 30
0.0
 10
39.5704210847
 20
31.792150827
 30
0.0
 10
39.2860392945
 20
31.6991530075
 30
0.0
 10
38.9911861203
 20
31.5185067945
 30
0.0
 10
38.6711117452
 20
31.2043782045
 30
0.0
 10
38.4588049033
 20
30.7959734235
 30
0.0
 10
38.3559085292
 20
30.3514013005
 30
0.0
 10
38.3300336452
 20
30.0000496659
 30
0.0
 10
38.3559075965
 20
29.6487023138
 30
0.0
 10
38.4588044044
 20
29.2041520156
 30
0.0
 10
38.6711037742
 20
28.7957673347
 30
0.0
 10
38.9911981698
 20
28.4816946333
 30
0.0
 10
39.2860374757
 20
28.3010509046
 30
0.0
 10
39.5704221379
 20
28.2080658657
 30
0.0
 10
39.8190785531
 20
28.1696489775
 30
0.0
 10
39.9507835773
 20
28.1633003974
 30
0.0
 10
40.0184585289
 20
28.1633025826
 30
0.0
 11
40.0183859782
 21
31.8369245697
 31
0.0
 11
39.8158108104
 21
31.8267618784
 31
0.0
 11
39.6261462223
 21
31.7970716306
 31
0.0
 11
39.2856364225
 21
31.6838954226
 31
0.0
 11
38.9970318553
 21
31.5069579741
 31
0.0
 11
38.7605078032
 21
31.2757737705
 31
0.0
 11
38.4444023383
 21
30.6890082969
 31
0.0
 11
38.365171482
 21
30.3525243408
 31
0.0
 11
38.338722246
 21
30.0000476858
 31
0.0
 11
38.365171482
 21
29.6475766932
 31
0.0
 11
38.4444023383
 21
29.3111076653
 31
0.0
 11
38.7605078032
 21
28.724387491
 31
0.0
 11
38.9970318572
 21
28.4932423385
 31
0.0
 11
39.2856364225
 21
28.3163111381
 31
0.0
 11
39.6261462219
 21
28.2031468869
 31
0.0
 11
39.8158108103
 21
28.1734626787
 31
0.0
 11
40.0184585289
 21
28.1633025826
 31
0.0
  0
SPLINE
  5
857
100
AcDbEntity
  8
0
100
AcDbSpline
 62
7
  6
CONTINUOUS
 70
0
 71
3
 72
22
 73
18
 74
16
 42
0.0000001
 43
0.0000001
 44
0.0000000001
 12
4.2327854282
 22
-0.0001956236
 32
0.0
 13
-4.2327835928
 23
0.0000198473
 33
0.0
 40
0.0
 40
0.0
 40
0.0
 40
0.0
 40
0.0365574952
 40
0.0708720171
 40
0.1345234088
 40
0.1946217439
 40
0.2538852479
 40
0.3747890966
 40
0.4997540649
 40
0.6247190331
 40
0.686033101
 40
0.7460890665
 40
0.8053668542
 40
0.8654639787
 40
0.9291116847
 40
0.9634254414
 40
1.0
 40
1.0
 40
1.0
 40
1.0
 10
40.01845863
 20
31.4439575788
 30
0.0
 10
40.0700386409
 20
31.4439551949
 30
0.0
 10
40.1700336651
 20
31.4387332473
 30
0.0
 10
40.3573761762
 20
31.4070206871
 30
0.0
 10
40.5692655631
 20
31.3301323887
 30
0.0
 10
40.7837023442
 20
31.1818611404
 30
0.0
 10
41.0107500746
 20
30.9268256334
 30
0.0
 10
41.188954263
 20
30.5242108524
 30
0.0
 10
41.2533156609
 20
30.000381613
 30
0.0
 10
41.198911768
 20
29.5590638088
 30
0.0
 10
41.0806098121
 20
29.2310809965
 30
0.0
 10
40.9532650602
 20
29.0087298562
 30
0.0
 10
40.7837233093
 20
28.8181399598
 30
0.0
 10
40.5692708406
 20
28.6698917009
 30
0.0
 10
40.3573718997
 20
28.5930413073
 30
0.0
 10
40.1700083321
 20
28.5613526331
 30
0.0
 10
40.0699900421
 20
28.5561375495
 30
0.0
 10
40.0183859782
 20
28.5561377915
 30
0.0
 11
40.01845863
 21
31.4439575788
 31
0.0
 11
40.1728535217
 21
31.4355120023
 31
0.0
 11
40.3158941652
 21
31.4109233499
 31
0.0
 11
40.5685012592
 21
31.3178053095
 31
0.0
 11
40.7778202745
 21
31.1735804346
 31
0.0
 11
40.945464225
 21
30.9872257006
 31
0.0
 11
41.1621789885
 21
30.5240345578
 31
0.0
 11
41.2315496623
 21
30.0000476858
 31
0.0
 11
41.1621789885
 21
29.4760608139
 31
0.0
 11
41.0730460171
 21
29.2325218401
 31
0.0
 11
40.945464225
 21
29.0128696711
 31
0.0
 11
40.7778203352
 21
28.8264336269
 31
0.0
 11
40.5685013132
 21
28.6822177864
 31
0.0
 11
40.3158941854
 21
28.5891449184
 31
0.0
 11
40.1728535276
 21
28.5645754642
 31
0.0
 11
40.0183859782
 21
28.5561377915
 31
0.0
  0
SPLINE
  5
858
100
AcDbEntity
  8
0
100
AcDbSpline
 62
7
  6
CONTINUOUS
 70
0
 71
3
 72
22
 73
18
 74
16
 42
0.0000001
 43
0.0000001
 44
0.0000000001
 12
-4.2327835928
 22
0.0000198473
 32
0.0
 13
4.2327854282
 23
-0.0001956236
 33
0.0
 40
0.0
 40
0.0
 40
0.0
 40
0.0
 40
0.0365692572
 40
0.0708787708
 40
0.1345208811
 40
0.1946155001
 40
0.2538927182
 40
0.3139489893
 40
0.3752635173
 40
0.5002287412
 40
0.625193965
 40
0.7460986389
 40
0.8053615732
 40
0.8654574028
 40
0.9291031991
 40
0.9634134781
 40
1.0
 40
1.0
 40
1.0
 40
1.0
 10
40.0183859782
 20
28.5561377915
 30
0.0
 10
39.9667893942
 20
28.5561380334
 30
0.0
 10
39.8667845523
 20
28.5613525968
 30
0.0
 10
39.6794426732
 20
28.5930422062
 30
0.0
 10
39.4675630546
 20
28.6698946036
 30
0.0
 10
39.2531259481
 20
28.8181428177
 30
0.0
 10
39.0835893157
 20
29.008731387
 30
0.0
 10
38.9562423232
 20
29.2310812676
 30
0.0
 10
38.837932535
 20
29.5590625392
 30
0.0
 10
38.7835178352
 20
30.000381576
 30
0.0
 10
38.8478923451
 20
30.5242127544
 30
0.0
 10
39.0261047405
 20
30.9268229689
 30
0.0
 10
39.2531468973
 20
31.1818582942
 30
0.0
 10
39.4675683376
 20
31.3301294699
 30
0.0
 10
39.679438396
 20
31.4070198311
 30
0.0
 10
39.8668070258
 20
31.4387412928
 30
0.0
 10
39.9668376644
 20
31.4439599645
 30
0.0
 10
40.01845863
 20
31.4439575788
 30
0.0
 11
40.0183859782
 21
28.5561377915
 31
0.0
 11
39.8639408854
 21
28.5645754642
 31
0.0
 11
39.7209184374
 21
28.5891449184
 31
0.0
 11
39.468336533
 21
28.6822177864
 31
0.0
 11
39.2590303801
 21
28.8264336269
 31
0.0
 11
39.0913900936
 21
29.0128696711
 31
0.0
 11
38.9638057277
 21
29.23252184
 31
0.0
 11
38.874667094
 21
29.4760608139
 31
0.0
 11
38.8052881839
 21
30.0000476858
 31
0.0
 11
38.874667094
 21
30.5240345578
 31
0.0
 11
39.0913900936
 21
30.9872257006
 31
0.0
 11
39.2590304408
 21
31.1735804346
 31
0.0
 11
39.468336587
 21
31.3178053095
 31
0.0
 11
39.7209184576
 21
31.4109233499
 31
0.0
 11
39.8639408913
 21
31.4355120023
 31
0.0
 11
40.01845863
 21
31.4439575788
 31
0.0
  0
SPLINE
  5
859
100
AcDbEntity
  8
0
100
AcDbSpline
 62
7
  6
CONTINUOUS
 70
0
 71
3
 72
24
 73
20
 74
18
 42
0.0000001
 43
0.0000001
 44
0.0000000001
 12
-5.5654122849
 22
-0.0110421862
 32
0.0
 13
5.5654231913
 23
0.0007209967
 33
0.0
 40
0.0
 40
0.0
 40
0.0
 40
0.0
 40
0.0337812188
 40
0.0667932212
 40
0.1292362869
 40
0.1888450584
 40
0.2475861604
 40
0.3070557214
 40
0.3684351738
 40
0.4325380441
 40
0.4999058795
 40
0.5672727
 40
0.6313729628
 40
0.7516481781
 40
0.8103920332
 40
0.8699946391
 40
0.9324363762
 40
0.9654484228
 40
1.0
 40
1.0
 40
1.0
 40
1.0
 10
24.6884190583
 20
31.8369205957
 30
0.0
 10
24.6257502548
 20
31.8367962562
 30
0.0
 10
24.5018540716
 20
31.8308023607
 30
0.0
 10
24.264545622
 20
31.7952940737
 30
0.0
 10
23.987984621
 20
31.70808078
 30
0.0
 10
23.6963773247
 20
31.5371720858
 30
0.0
 10
23.4538966842
 20
31.3099329126
 30
0.0
 10
23.2627507177
 20
31.0344976317
 30
0.0
 10
23.1245075765
 20
30.7185372766
 30
0.0
 10
23.0407389379
 20
30.3691452231
 30
0.0
 10
23.0136196206
 20
30.0000868227
 30
0.0
 10
23.0408532917
 20
29.6308133607
 30
0.0
 10
23.1494991705
 20
29.1755331042
 30
0.0
 10
23.3710203438
 20
28.7675269871
 30
0.0
 10
23.6963465756
 20
28.4630368262
 30
0.0
 10
23.9880041453
 20
28.2921119053
 30
0.0
 10
24.2645477832
 20
28.204941502
 30
0.0
 10
24.5032685941
 20
28.1692144579
 30
0.0
 10
24.6286082798
 20
28.1632942777
 30
0.0
 10
24.6927063294
 20
28.1633025816
 30
0.0
 11
24.6884190583
 21
31.8369205957
 31
0.0
 11
24.5007464631
 21
31.8275722987
 31
0.0
 11
24.3191897753
 21
31.8000960114
 31
0.0
 11
23.9883794875
 21
31.6942545405
 31
0.0
 11
23.7024625712
 21
31.5263664629
 31
0.0
 11
23.4636261314
 21
31.3033980847
 31
0.0
 11
23.2740572732
 21
31.0323157119
 31
0.0
 11
23.1359431015
 21
30.7200856505
 31
0.0
 11
23.0514707215
 21
30.3736742065
 31
0.0
 11
23.0228272381
 21
30.0000476858
 31
0.0
 11
23.0514707215
 21
29.6264268276
 31
0.0
 11
23.1359431015
 21
29.2800303117
 31
0.0
 11
23.4636261314
 21
28.6967631767
 31
0.0
 11
23.7024625717
 21
28.4737723592
 31
0.0
 11
23.9883794875
 21
28.3059520203
 31
0.0
 11
24.3191897752
 21
28.2001348042
 31
0.0
 11
24.5007464631
 21
28.1726568701
 31
0.0
 11
24.6927063294
 21
28.1633025816
 31
0.0
  0
SPLINE
  5
85A
100
AcDbEntity
  8
0
100
AcDbSpline
 62
7
  6
CONTINUOUS
 70
0
 71
3
 72
25
 73
21
 74
19
 42
0.0000001
 43
0.0000001
 44
0.0000000001
 12
5.5654231913
 22
0.0007209967
 32
0.0
 13
-5.565412285
 23
-0.0110421862
 33
0.0
 40
0.0
 40
0.0
 40
0.0
 40
0.0
 40
0.0343953111
 40
0.0672718546
 40
0.129503094
 40
0.1889687571
 40
0.2476344945
 40
0.3678611488
 40
0.4319583762
 40
0.4993250446
 40
0.5666927279
 40
0.6307925628
 40
0.6921583022
 40
0.7515904709
 40
0.8102534516
 40
0.8697252944
 40
0.9319578669
 40
0.964834366
 40
0.9992296593
 40
1.0
 40
1.0
 40
1.0
 40
1.0
 10
24.6927063294
 20
28.1633025816
 30
0.0
 10
24.7565144834
 20
28.1633108479
 30
0.0
 10
24.8813136274
 20
28.1692110647
 30
0.0
 10
25.1190923477
 20
28.2049634501
 30
0.0
 10
25.3946829313
 20
28.2921867577
 30
0.0
 10
25.6854060053
 20
28.4631354021
 30
0.0
 10
26.0099619856
 20
28.7677146069
 30
0.0
 10
26.2310347168
 20
29.1756222779
 30
0.0
 10
26.339586959
 20
29.6308203731
 30
0.0
 10
26.3668176827
 20
30.0000868485
 30
0.0
 10
26.339700179
 20
30.3691381134
 30
0.0
 10
26.2559988538
 20
30.7185087144
 30
0.0
 10
26.1179558404
 20
31.0344374152
 30
0.0
 10
25.9272073542
 20
31.3098429162
 30
0.0
 10
25.6853747736
 20
31.5370725537
 30
0.0
 10
25.394702586
 20
31.7080061761
 30
0.0
 10
25.1190945057
 20
31.7952720803
 30
0.0
 10
24.8813136242
 20
31.831017417
 30
0.0
 10
24.7550854031
 20
31.8369838559
 30
0.0
 10
24.6898481461
 20
31.8369234311
 30
0.0
 10
24.6884190583
 20
31.8369205957
 30
0.0
 11
24.6927063294
 21
28.1633025816
 31
0.0
 11
24.8837959544
 21
28.1726568701
 31
0.0
 11
25.0645903085
 21
28.2001348042
 31
0.0
 11
25.3941710814
 21
28.3059520203
 31
0.0
 11
25.6792044043
 21
28.4737723592
 31
0.0
 11
25.9174460343
 21
28.6967631768
 31
0.0
 11
26.2445772368
 21
29.2800303117
 31
0.0
 11
26.328978322
 21
29.6264268276
 31
0.0
 11
26.3576107379
 21
30.0000476858
 31
0.0
 11
26.328978322
 21
30.3736742065
 31
0.0
 11
26.2445772368
 21
30.7200856505
 31
0.0
 11
26.1066517263
 21
31.0323157119
 31
0.0
 11
25.9174460343
 21
31.3033980847
 31
0.0
 11
25.6792044047
 21
31.5263664629
 31
0.0
 11
25.3941710814
 21
31.6942545405
 31
0.0
 11
25.0645903084
 21
31.8000960114
 31
0.0
 11
24.8837959544
 21
31.8275722987
 31
0.0
 11
24.6927063294
 21
31.8369245697
 31
0.0
 11
24.6884190583
 21
31.8369205957
 31
0.0
  0
SPLINE
  5
85B
100
AcDbEntity
  8
0
100
AcDbSpline
 62
7
  6
CONTINUOUS
 70
0
 71
3
 72
24
 73
20
 74
18
 42
0.0000001
 43
0.0000001
 44
0.0000000001
 12
4.9178844586
 22
0.011700509
 32
0.0
 13
-4.9179018383
 23
-0.0007799691
 33
0.0
 40
0.0
 40
0.0
 40
0.0
 40
0.0
 40
0.0008608547
 40
0.0348452499
 40
0.0673470039
 40
0.1290564712
 40
0.1884361909
 40
0.2474296705
 40
0.3688924669
 40
0.4333145827
 40
0.5004360728
 40
0.5675531502
 40
0.6319720306
 40
0.7534313261
 40
0.8124286623
 40
0.8718047086
 40
0.933513701
 40
0.9660155799
 40
1.0
 40
1.0
 40
1.0
 40
1.0
 10
24.6884727348
 20
31.650253962
 30
0.0
 10
24.6898839294
 20
31.6502573194
 30
0.0
 10
24.7470057833
 20
31.6503206668
 30
0.0
 10
24.8574082111
 20
31.6447787736
 30
0.0
 10
25.0651449103
 20
31.6116755256
 30
0.0
 10
25.3059449349
 20
31.5308997716
 30
0.0
 10
25.5588126751
 20
31.3739633132
 30
0.0
 10
25.8407608617
 20
31.0963849624
 30
0.0
 10
26.0313985158
 20
30.730685145
 30
0.0
 10
26.1257116823
 20
30.3259893463
 30
0.0
 10
26.1495940607
 20
30.0000547519
 30
0.0
 10
26.1257110678
 20
29.6741264924
 30
0.0
 10
26.0313996881
 20
29.2694456955
 30
0.0
 10
25.8407379721
 20
28.9037755415
 30
0.0
 10
25.5588322774
 20
28.6261575207
 30
0.0
 10
25.3059338393
 20
28.4692661584
 30
0.0
 10
25.0651440539
 20
28.3884938163
 30
0.0
 10
24.8574084409
 20
28.3553845243
 30
0.0
 10
24.7484170102
 20
28.3499114364
 30
0.0
 10
24.6927063294
 20
28.3499026008
 30
0.0
 11
24.6884727348
 21
31.650253962
 31
0.0
 11
24.6927063294
 21
31.6502586607
 31
0.0
 11
24.8595114312
 21
31.6416005656
 31
0.0
 11
25.0172242664
 21
31.6162161358
 31
0.0
 11
25.3044517727
 21
31.5188074058
 31
0.0
 11
25.5525461207
 21
31.365110738
 31
0.0
 11
25.7596645827
 21
31.1622043997
 31
0.0
 11
26.0436029379
 21
30.6370757804
 31
0.0
 11
26.1167373756
 21
30.3290100339
 31
0.0
 11
26.1415250166
 21
30.0000476858
 31
0.0
 11
26.1167373756
 21
29.6711070865
 31
0.0
 11
26.0436029379
 21
29.3630576838
 31
0.0
 11
25.7596645827
 21
28.8379486256
 31
0.0
 11
25.5525461305
 21
28.6350151917
 31
0.0
 11
25.3044517727
 21
28.4813528262
 31
0.0
 11
25.0172242644
 21
28.3839513685
 31
0.0
 11
24.8595114305
 21
28.3585630691
 31
0.0
 11
24.6927063294
 21
28.3499026008
 31
0.0
  0
SPLINE
  5
85C
100
AcDbEntity
  8
0
100
AcDbSpline
 62
7
  6
CONTINUOUS
 70
0
 71
3
 72
23
 73
19
 74
17
 42
0.0000001
 43
0.0000001
 44
0.0000000001
 12
-4.9179018383
 22
-0.0007799691
 32
0.0
 13
4.9178844586
 23
0.011700509
 33
0.0
 40
0.0
 40
0.0
 40
0.0
 40
0.0
 40
0.0341622733
 40
0.0668178964
 40
0.1287639873
 40
0.188292133
 40
0.2473747851
 40
0.3688856781
 40
0.4333075808
 40
0.5004247852
 40
0.5675464021
 40
0.6319715401
 40
0.7534859326
 40
0.8125647336
 40
0.8720965434
 40
0.9340431073
 40
0.9666986061
 40
1.0
 40
1.0
 40
1.0
 40
1.0
 10
24.6927063294
 20
28.3499026008
 30
0.0
 10
24.6367040938
 20
28.349893719
 30
0.0
 10
24.5271698794
 20
28.3553880544
 30
0.0
 10
24.3184902961
 20
28.3884694517
 30
0.0
 10
24.0767456153
 20
28.4691840522
 30
0.0
 10
23.8229122818
 20
28.6260537665
 30
0.0
 10
23.5402419054
 20
28.9035889507
 30
0.0
 10
23.3491544851
 20
29.2693619573
 30
0.0
 10
23.2547602171
 20
29.6741202771
 30
0.0
 10
23.2308768522
 20
30.0000547519
 30
0.0
 10
23.2547596041
 20
30.3259955614
 30
0.0
 10
23.3491556464
 20
30.7307688801
 30
0.0
 10
23.5402190376
 20
31.096571588
 30
0.0
 10
23.8229318687
 20
31.37406701
 30
0.0
 10
24.0767345199
 20
31.5309819335
 30
0.0
 10
24.3184894486
 20
31.6116998841
 30
0.0
 10
24.5257749713
 20
31.64455412
 30
0.0
 10
24.6338819323
 20
31.6501240809
 30
0.0
 10
24.6884727348
 20
31.650253962
 30
0.0
 11
24.6927063294
 21
28.3499026008
 31
0.0
 11
24.5250259278
 21
28.3585630691
 31
0.0
 11
24.366547776
 21
28.3839513685
 31
0.0
 11
24.0780900453
 21
28.4813528262
 31
0.0
 11
23.8291167917
 21
28.6350151917
 31
0.0
 11
23.6214117012
 21
28.8379486256
 31
0.0
 11
23.3369405649
 21
29.3630576838
 31
0.0
 11
23.2637418459
 21
29.6711070865
 31
0.0
 11
23.2389459044
 21
30.0000476858
 31
0.0
 11
23.2637418459
 21
30.3290100339
 31
0.0
 11
23.3369405649
 21
30.6370757804
 31
0.0
 11
23.6214117012
 21
31.1622043997
 31
0.0
 11
23.8291168015
 21
31.365110738
 31
0.0
 11
24.0780900453
 21
31.5188074058
 31
0.0
 11
24.3665477741
 21
31.6162161358
 31
0.0
 11
24.5250259271
 21
31.6416005656
 31
0.0
 11
24.6884727348
 21
31.650253962
 31
0.0
  0
SPLINE
  5
85D
100
AcDbEntity
  8
0
100
AcDbSpline
 62
7
  6
CONTINUOUS
 70
0
 71
3
 72
9
 73
5
 74
3
 42
0.0000001
 43
0.0000001
 44
0.0000000001
 12
0.6132231327
 22
0.0
 32
0.0
 13
0.2154619047
 23
-0.5741243577
 33
0.0
 40
0.0
 40
0.0
 40
0.0
 40
0.0
 40
0.3559141631
 40
1.0
 40
1.0
 40
1.0
 40
1.0
 10
-25.9941500454
 20
29.6777850682
 30
0.0
 10
-25.921398446
 20
29.6777850682
 30
0.0
 10
-25.7121116043
 20
29.6337316668
 30
0.0
 10
-25.5746342258
 20
29.4486418309
 30
0.0
 10
-25.5283755721
 20
29.3253800418
 30
0.0
 11
-25.9941500454
 21
29.6777850682
 31
0.0
 11
-25.7815185998
 21
29.6285608342
 31
0.0
 11
-25.5283755721
 21
29.3253800418
 31
0.0
  0
SPLINE
  5
85E
100
AcDbEntity
  8
0
100
AcDbSpline
 62
7
  6
CONTINUOUS
 70
0
 71
3
 72
11
 73
7
 74
5
 42
0.0000001
 43
0.0000001
 44
0.0000000001
 12
0.445451322
 22
-1.1857006826
 32
0.0
 13
0.3499795817
 23
-1.2173032824
 33
0.0
 40
0.0
 40
0.0
 40
0.0
 40
0.0
 40
0.2222334256
 40
0.5586346745
 40
0.8657346811
 40
1.0
 40
1.0
 40
1.0
 40
1.0
 10
-25.5283755721
 20
29.3253800418
 30
0.0
 10
-25.4953775143
 20
29.2375459336
 30
0.0
 10
-25.4284452995
 20
29.011104462
 30
0.0
 10
-25.3224399108
 20
28.6614420463
 30
0.0
 10
-25.2308366747
 20
28.3460584265
 30
0.0
 10
-25.1789773299
 20
28.1670774259
 30
0.0
 10
-25.1633139566
 20
28.1125968881
 30
0.0
 11
-25.5283755721
 21
29.3253800418
 31
0.0
 11
-25.4418915359
 21
29.0575109827
 31
0.0
 11
-25.3196730676
 21
28.6493247393
 31
0.0
 11
-25.2105404477
 21
28.2759703587
 31
0.0
 11
-25.1633139566
 21
28.1125968881
 31
0.0
  0
SPLINE
  5
85F
100
AcDbEntity
  8
0
100
AcDbSpline
 62
7
  6
CONTINUOUS
 70
0
 71
3
 72
9
 73
5
 74
3
 42
0.0000001
 43
0.0000001
 44
0.0000000001
 12
-0.2934207764
 22
1.0803528586
 32
0.0
 13
-0.2942732444
 23
1.0801209695
 33
0.0
 40
0.0
 40
0.0
 40
0.0
 40
0.0
 40
0.1980141723
 40
1.0
 40
1.0
 40
1.0
 40
1.0
 10
-24.3602803749
 20
28.1125968881
 30
0.0
 10
-24.3796475323
 20
28.1839052804
 30
0.0
 10
-24.4744410897
 20
28.5448323494
 30
0.0
 10
-24.5670158014
 20
28.9063479171
 30
0.0
 10
-24.6456834585
 20
29.1950951537
 30
0.0
 11
-24.3602803749
 21
28.1125968881
 31
0.0
 11
-24.4171014678
 21
28.3268657049
 31
0.0
 11
-24.6456834585
 21
29.1950951537
 31
0.0
  0
SPLINE
  5
860
100
AcDbEntity
  8
0
100
AcDbSpline
 62
7
  6
CONTINUOUS
 70
0
 71
3
 72
10
 73
6
 74
4
 42
0.0000001
 43
0.0000001
 44
0.0000000001
 12
-0.2502398322
 22
0.9185468727
 32
0.0
 13
-0.8843120826
 23
0.352619443
 33
0.0
 40
0.0
 40
0.0
 40
0.0
 40
0.0
 40
0.4939032387
 40
0.7479365287
 40
1.0
 40
1.0
 40
1.0
 40
1.0
 10
-24.6456834585
 20
29.1950951537
 30
0.0
 10
-24.6868815464
 20
29.3463195788
 30
0.0
 10
-24.7485009183
 20
29.5780085884
 30
0.0
 10
-24.9174915386
 20
29.8514253835
 30
0.0
 10
-25.0526028447
 20
29.949906253
 30
0.0
 10
-25.1269037691
 20
29.9795337467
 30
0.0
 11
-24.6456834585
 21
29.1950951537
 31
0.0
 11
-24.7965090609
 21
29.6404563784
 31
0.0
 11
-24.9303175306
 21
29.8419125545
 31
0.0
 11
-25.1269037691
 21
29.9795337467
 31
0.0
  0
SPLINE
  5
861
100
AcDbEntity
  8
0
100
AcDbSpline
 62
7
  6
CONTINUOUS
 70
0
 71
3
 72
22
 73
18
 74
16
 42
0.0000001
 43
0.0000001
 44
0.0000000001
 12
2.4746764896
 22
0.3193130954
 32
0.0
 13
-2.3471308373
 23
0.8467357401
 33
0.0
 40
0.0
 40
0.0
 40
0.0
 40
0.0
 40
0.0193978565
 40
0.056106175
 40
0.1687262153
 40
0.2404571126
 40
0.321336434
 40
0.4124791122
 40
0.4627695054
 40
0.5167962471
 40
0.5603807671
 40
0.6015359883
 40
0.6776397736
 40
0.747003664
 40
0.8106044552
 40
0.9201510205
 40
1.0
 40
1.0
 40
1.0
 40
1.0
 10
-25.1269037691
 20
30.0031673774
 30
0.0
 10
-25.1109026293
 20
30.0052320406
 30
0.0
 10
-25.0686373113
 20
30.028266796
 30
0.0
 10
-24.9507722811
 20
30.1021450392
 30
0.0
 10
-24.8179779856
 20
30.235087391
 30
0.0
 10
-24.6951609658
 20
30.4187418202
 30
0.0
 10
-24.6131320446
 20
30.6055696101
 30
0.0
 10
-24.5721189028
 20
30.7871343607
 30
0.0
 10
-24.5594331384
 20
30.9494170276
 30
0.0
 10
-24.5616653662
 20
31.0726148335
 30
0.0
 10
-24.5737948944
 20
31.1875255699
 30
0.0
 10
-24.5992848137
 20
31.3189913437
 30
0.0
 10
-24.6480330107
 20
31.4672263873
 30
0.0
 10
-24.7298439562
 20
31.6215484594
 30
0.0
 10
-24.8514982643
 20
31.7833391254
 30
0.0
 10
-25.0110202497
 20
31.923860613
 30
0.0
 10
-25.1505085706
 20
32.0007359619
 30
0.0
 10
-25.2129805714
 20
32.0232729568
 30
0.0
 11
-25.1269037691
 21
30.0031673774
 31
0.0
 11
-25.0820446406
 21
30.0213429757
 31
0.0
 11
-25.004683895
 21
30.0703820754
 31
0.0
 11
-24.8028860922
 21
30.2659415595
 31
0.0
 11
-24.7036633407
 21
30.4149030939
 31
0.0
 11
-24.6223675547
 21
30.5996138219
 31
0.0
 11
-24.5716058834
 21
30.8212947428
 31
0.0
 11
-24.561615075
 21
30.9463805877
 31
0.0
 11
-24.5639854762
 21
31.0811668554
 31
0.0
 11
-24.575600344
 21
31.1892965913
 31
0.0
 11
-24.5952302588
 21
31.2900931277
 31
0.0
 11
-24.6549734548
 21
31.4703438468
 31
0.0
 11
-24.7360915153
 21
31.6232335023
 31
0.0
 11
-24.8314608913
 21
31.7500765835
 31
0.0
 11
-25.036459394
 21
31.9308809816
 31
0.0
 11
-25.2129805714
 21
32.0232729568
 31
0.0
  0
SPLINE
  5
862
100
AcDbEntity
  8
0
100
AcDbSpline
 62
7
  6
CONTINUOUS
 70
0
 71
3
 72
9
 73
5
 74
3
 42
0.0000001
 43
0.0000001
 44
0.0000000001
 12
-1.9509268773
 22
0.7048252654
 32
0.0
 13
-2.0522519151
 23
-0.3019212024
 33
0.0
 40
0.0
 40
0.0
 40
0.0
 40
0.0
 40
0.2957417834
 40
1.0
 40
1.0
 40
1.0
 40
1.0
 10
-25.2129805714
 20
32.0232729568
 30
0.0
 10
-25.4053041027
 20
32.0927550505
 30
0.0
 10
-26.096590772
 20
32.2060150045
 30
0.0
 10
-26.7915035619
 20
32.1362584377
 30
0.0
 10
-27.2732753198
 20
32.0653816085
 30
0.0
 11
-25.2129805714
 21
32.0232729568
 31
0.0
 11
-25.8145059596
 21
32.143739241
 31
0.0
 11
-27.2732753198
 21
32.0653816085
 31
0.0
  0
SPLINE
  5
863
100
AcDbEntity
  8
0
100
AcDbSpline
 62
7
  6
CONTINUOUS
 70
0
 71
3
 72
9
 73
5
 74
3
 42
0.0000001
 43
0.0000001
 44
0.0000000001
 12
0.7321671361
 22
-0.0850044385
 32
0.0
 13
0.0115269619
 23
-0.7369949788
 33
0.0
 40
0.0
 40
0.0
 40
0.0
 40
0.0
 40
0.5013510385
 40
1.0
 40
1.0
 40
1.0
 40
1.0
 10
-25.8154282111
 20
31.4542962966
 30
0.0
 10
-25.6930706264
 20
31.4400906088
 30
0.0
 10
-25.4455881181
 20
31.3323369769
 30
0.0
 10
-25.3457512751
 20
31.0768316314
 30
0.0
 10
-25.3438353059
 20
30.9543310378
 30
0.0
 11
-25.8154282111
 21
31.4542962966
 31
0.0
 11
-25.4820305621
 21
31.2949080019
 31
0.0
 11
-25.3438353059
 21
30.9543310378
 31
0.0
  0
SPLINE
  5
864
100
AcDbEntity
  8
0
100
AcDbSpline
 62
7
  6
CONTINUOUS
 70
0
 71
3
 72
10
 73
6
 74
4
 42
0.0000001
 43
0.0000001
 44
0.0000000001
 12
0.0156004009
 22
-1.0110234712
 32
0.0
 13
-1.0108916957
 23
-0.0225790025
 33
0.0
 40
0.0
 40
0.0
 40
0.0
 40
0.0
 40
0.2929210355
 40
0.5275938042
 40
1.0
 40
1.0
 40
1.0
 40
1.0
 10
-25.3438353059
 20
30.9543310378
 30
0.0
 10
-25.3423120773
 20
30.8556143571
 30
0.0
 10
-25.3636046574
 20
30.6721741457
 30
0.0
 10
-25.5728652539
 20
30.3884600777
 30
0.0
 10
-25.8331666969
 20
30.3363640256
 30
0.0
 10
-25.9923505303
 20
30.3328085387
 30
0.0
 11
-25.3438353059
 21
30.9543310378
 31
0.0
 11
-25.3934241291
 21
30.6623264521
 31
0.0
 11
-25.5354911544
 21
30.4722672045
 31
0.0
 11
-25.9923505303
 21
30.3328085387
 31
0.0
  0
SPLINE
  5
865
100
AcDbEntity
  8
0
100
AcDbSpline
 62
7
  6
CONTINUOUS
 70
0
 71
3
 72
9
 73
5
 74
3
 42
0.0000001
 43
0.0000001
 44
0.0000000001
 12
0.6464898369
 22
0.110313432
 32
0.0
 13
0.6514601131
 23
-0.0756166883
 33
0.0
 40
0.0
 40
0.0
 40
0.0
 40
0.0
 40
0.2703953699
 40
1.0
 40
1.0
 40
1.0
 40
1.0
 10
-26.4694619483
 20
31.4307526417
 30
0.0
 10
-26.4111926621
 20
31.4406953887
 30
0.0
 10
-26.1950218233
 20
31.4733962915
 30
0.0
 10
-25.973864316
 20
31.4726863919
 30
0.0
 10
-25.8154282111
 20
31.4542962966
 30
0.0
 11
-26.4694619483
 21
31.4307526417
 31
0.0
 11
-26.2939248808
 21
31.4559369482
 31
0.0
 11
-25.8154282111
 21
31.4542962966
 31
0.0
  0
SPLINE
  5
866
100
AcDbEntity
  8
RACCORDO
100
AcDbSpline
 62
253
  6
CONTINUOUS
 70
0
 71
3
 72
15
 73
11
 74
9
 42
0.0000001
 43
0.0000001
 44
0.0000000001
 12
-0.045781779
 22
-0.5185862583
 32
0.0
 13
-0.5193067137
 23
-0.0367180563
 33
0.0
 40
0.0
 40
0.0
 40
0.0
 40
0.0
 40
0.0407168823
 40
0.069453246
 40
0.1052209432
 40
0.1986846534
 40
0.3203896203
 40
0.4668631268
 40
0.6330435296
 40
1.0
 40
1.0
 40
1.0
 40
1.0
 10
-24.3676071185
 20
-7.6723577696
 30
0.0
 10
-24.3682284823
 20
-7.6793961748
 30
0.0
 10
-24.3764828563
 20
-7.690162705
 30
0.0
 10
-24.3916606981
 20
-7.6999255807
 30
0.0
 10
-24.4166431089
 20
-7.7116271408
 30
0.0
 10
-24.4585281925
 20
-7.7239025429
 30
0.0
 10
-24.5200529865
 20
-7.7364538114
 30
0.0
 10
-24.5946314464
 20
-7.7475590296
 30
0.0
 10
-24.7117850559
 20
-7.7611990964
 30
0.0
 10
-24.8040102427
 20
-7.7688773132
 30
0.0
 10
-24.867531229
 20
-7.7733686226
 30
0.0
 11
-24.3676071185
 21
-7.6723577696
 31
0.0
 11
-24.378513006
 21
-7.6905343696
 31
0.0
 11
-24.3908244126
 21
-7.6990336709
 31
0.0
 11
-24.4076053375
 21
-7.7071042287
 31
0.0
 11
-24.4539446597
 21
-7.7219440416
 31
0.0
 11
-24.5159260152
 21
-7.7350893971
 31
0.0
 11
-24.5912948689
 21
-7.7466780122
 31
0.0
 11
-24.6772057832
 21
-7.7568758159
 31
0.0
 11
-24.867531229
 21
-7.7733686226
 31
0.0
  0
SPLINE
  5
867
100
AcDbEntity
  8
RACCORDO
100
AcDbSpline
 62
253
  6
CONTINUOUS
 70
0
 71
3
 72
15
 73
11
 74
9
 42
0.0000001
 43
0.0000001
 44
0.0000000001
 12
0.045781779
 22
0.5185862583
 32
0.0
 13
0.5193067137
 23
0.0367180563
 33
0.0
 40
0.0
 40
0.0
 40
0.0
 40
0.0
 40
0.0407168823
 40
0.069453246
 40
0.1052209432
 40
0.1986846534
 40
0.3203896203
 40
0.4668631268
 40
0.6330435296
 40
1.0
 40
1.0
 40
1.0
 40
1.0
 10
24.3676071185
 20
7.6723577696
 30
0.0
 10
24.3682284823
 20
7.6793961748
 30
0.0
 10
24.3764828563
 20
7.690162705
 30
0.0
 10
24.3916606981
 20
7.6999255807
 30
0.0
 10
24.4166431089
 20
7.7116271408
 30
0.0
 10
24.4585281925
 20
7.7239025429
 30
0.0
 10
24.5200529865
 20
7.7364538114
 30
0.0
 10
24.5946314464
 20
7.7475590296
 30
0.0
 10
24.7117850559
 20
7.7611990964
 30
0.0
 10
24.8040102427
 20
7.7688773132
 30
0.0
 10
24.867531229
 20
7.7733686226
 30
0.0
 11
24.3676071185
 21
7.6723577696
 31
0.0
 11
24.378513006
 21
7.6905343696
 31
0.0
 11
24.3908244126
 21
7.6990336709
 31
0.0
 11
24.4076053375
 21
7.7071042287
 31
0.0
 11
24.4539446597
 21
7.7219440416
 31
0.0
 11
24.5159260152
 21
7.7350893971
 31
0.0
 11
24.5912948689
 21
7.7466780122
 31
0.0
 11
24.6772057832
 21
7.7568758159
 31
0.0
 11
24.867531229
 21
7.7733686226
 31
0.0
  0
SPLINE
  5
868
100
AcDbEntity
  8
RACCORDO
100
AcDbSpline
 62
253
  6
CONTINUOUS
 70
0
 71
3
 72
15
 73
11
 74
9
 42
0.0000001
 43
0.0000001
 44
0.0000000001
 12
-0.5193067171
 22
0.0367181114
 32
0.0
 13
-0.045781787
 23
0.5185862648
 33
0.0
 40
0.0
 40
0.0
 40
0.0
 40
0.0
 40
0.3669564833
 40
0.5331368905
 40
0.6796103982
 40
0.8013153628
 40
0.8947790722
 40
0.9305467653
 40
0.9592831158
 40
1.0
 40
1.0
 40
1.0
 40
1.0
 10
24.867531229
 20
-7.7733686226
 30
0.0
 10
24.8040102401
 20
-7.7688773063
 30
0.0
 10
24.711785048
 20
-7.7611991014
 30
0.0
 10
24.5946314347
 20
-7.7475590252
 30
0.0
 10
24.5200529729
 20
-7.7364538093
 30
0.0
 10
24.458528178
 20
-7.7239025426
 30
0.0
 10
24.416643096
 20
-7.7116271345
 30
0.0
 10
24.3916606905
 20
-7.6999255718
 30
0.0
 10
24.3764828459
 20
-7.6901627023
 30
0.0
 10
24.3682284817
 20
-7.6793961678
 30
0.0
 10
24.3676071178
 20
-7.6723577621
 30
0.0
 11
24.867531229
 21
-7.7733686226
 31
0.0
 11
24.6772057738
 21
-7.7568758161
 31
0.0
 11
24.5912948564
 21
-7.7466780091
 31
0.0
 11
24.5159260008
 21
-7.735089395
 31
0.0
 11
24.4539446457
 21
-7.7219440395
 31
0.0
 11
24.407605325
 21
-7.7071042207
 31
0.0
 11
24.3908244025
 21
-7.6990336625
 31
0.0
 11
24.3785130001
 21
-7.6905343667
 31
0.0
 11
24.3676071178
 21
-7.6723577621
 31
0.0
  0
SPLINE
  5
869
100
AcDbEntity
  8
RACCORDO
100
AcDbSpline
 62
253
  6
CONTINUOUS
 70
0
 71
3
 72
15
 73
11
 74
9
 42
0.0000001
 43
0.0000001
 44
0.0000000001
 12
0.4930428639
 22
-0.2163803997
 32
0.0
 13
0.4984262325
 23
-0.2036738417
 33
0.0
 40
0.0
 40
0.0
 40
0.0
 40
0.0
 40
0.0237295951
 40
0.0864412296
 40
0.1843520767
 40
0.3121163014
 40
0.4636837307
 40
0.6328381818
 40
0.813605491
 40
1.0
 40
1.0
 40
1.0
 40
1.0
 10
22.4088798489
 20
-23.0088341575
 30
0.0
 10
22.4127797514
 20
-23.0105456972
 30
0.0
 10
22.4273135139
 20
-23.0159989989
 30
0.0
 10
22.4579292456
 20
-23.0285371351
 30
0.0
 10
22.5060281636
 20
-23.047662029
 30
0.0
 10
22.568853035
 20
-23.0729033678
 30
0.0
 10
22.643629676
 20
-23.1026978556
 30
0.0
 10
22.7271727668
 20
-23.1361897588
 30
0.0
 10
22.8165563028
 20
-23.171909598
 30
0.0
 10
22.8778357255
 20
-23.1961491346
 30
0.0
 10
22.9088036965
 20
-23.2088036965
 30
0.0
 11
22.4088798489
 21
-23.0088341575
 31
0.0
 11
22.4207458482
 21
-23.0135718292
 31
0.0
 11
22.4521011239
 21
-23.0261016667
 31
0.0
 11
22.5010384517
 21
-23.0457074495
 31
0.0
 11
22.5649002633
 21
-23.0712828383
 31
0.0
 11
22.6406872549
 21
-23.1015546607
 31
0.0
 11
22.725244066
 21
-23.1353992555
 31
0.0
 11
22.815639673
 21
-23.171482882
 31
0.0
 11
22.9088036965
 21
-23.2088036965
 31
0.0
  0
SPLINE
  5
86A
100
AcDbEntity
  8
RACCORDO
100
AcDbSpline
 62
253
  6
CONTINUOUS
 70
0
 71
3
 72
11
 73
7
 74
5
 42
0.0000001
 43
0.0000001
 44
0.0000000001
 12
-0.2036738302
 22
0.4984262044
 32
0.0
 13
-0.2013593799
 23
0.4993657082
 33
0.0
 40
0.0
 40
0.0
 40
0.0
 40
0.0
 40
0.1863949734
 40
0.3671627645
 40
0.8156536842
 40
1.0
 40
1.0
 40
1.0
 40
1.0
 10
22.9088036965
 20
-23.2088036965
 30
0.0
 10
22.8961491038
 20
-23.1778356501
 30
0.0
 10
22.871910522
 20
-23.1165556804
 30
0.0
 10
22.8175709759
 20
-22.9806232276
 30
0.0
 10
22.7631777698
 20
-22.8451072838
 30
0.0
 10
22.7212074441
 20
-22.7395652584
 30
0.0
 10
22.7088341575
 20
-22.7088798489
 30
0.0
 11
22.9088036965
 21
-23.2088036965
 31
0.0
 11
22.8714817944
 21
-23.1156398454
 31
0.0
 11
22.8353947836
 21
-23.025245316
 31
0.0
 11
22.7456881243
 21
-22.8010428476
 31
0.0
 11
22.7088341575
 21
-22.7088798489
 31
0.0
  0
SPLINE
  5
86B
100
AcDbEntity
  8
RACCORDO
100
AcDbSpline
 62
253
  6
CONTINUOUS
 70
0
 71
3
 72
15
 73
11
 74
9
 42
0.0000001
 43
0.0000001
 44
0.0000000001
 12
0.2163803997
 22
0.4930428639
 32
0.0
 13
0.2036738417
 23
0.4984262325
 33
0.0
 40
0.0
 40
0.0
 40
0.0
 40
0.0
 40
0.0237295951
 40
0.0864412296
 40
0.1843520767
 40
0.3121163014
 40
0.4636837307
 40
0.6328381818
 40
0.813605491
 40
1.0
 40
1.0
 40
1.0
 40
1.0
 10
22.7088341575
 20
22.7088798489
 30
0.0
 10
22.7105456972
 20
22.7127797514
 30
0.0
 10
22.7159989989
 20
22.7273135139
 30
0.0
 10
22.7285371351
 20
22.7579292456
 30
0.0
 10
22.747662029
 20
22.8060281636
 30
0.0
 10
22.7729033678
 20
22.868853035
 30
0.0
 10
22.8026978556
 20
22.943629676
 30
0.0
 10
22.8361897588
 20
23.0271727668
 30
0.0
 10
22.871909598
 20
23.1165563028
 30
0.0
 10
22.8961491346
 20
23.1778357255
 30
0.0
 10
22.9088036965
 20
23.2088036965
 30
0.0
 11
22.7088341575
 21
22.7088798489
 31
0.0
 11
22.7135718292
 21
22.7207458482
 31
0.0
 11
22.7261016667
 21
22.7521011239
 31
0.0
 11
22.7457074495
 21
22.8010384517
 31
0.0
 11
22.7712828383
 21
22.8649002633
 31
0.0
 11
22.8015546607
 21
22.9406872549
 31
0.0
 11
22.8353992555
 21
23.025244066
 31
0.0
 11
22.871482882
 21
23.115639673
 31
0.0
 11
22.9088036965
 21
23.2088036965
 31
0.0
  0
SPLINE
  5
86C
100
AcDbEntity
  8
RACCORDO
100
AcDbSpline
 62
253
  6
CONTINUOUS
 70
0
 71
3
 72
11
 73
7
 74
5
 42
0.0000001
 43
0.0000001
 44
0.0000000001
 12
-0.4984262044
 22
-0.2036738302
 32
0.0
 13
-0.4993657082
 23
-0.2013593799
 33
0.0
 40
0.0
 40
0.0
 40
0.0
 40
0.0
 40
0.1863949734
 40
0.3671627645
 40
0.8156536842
 40
1.0
 40
1.0
 40
1.0
 40
1.0
 10
22.9088036965
 20
23.2088036965
 30
0.0
 10
22.8778356501
 20
23.1961491038
 30
0.0
 10
22.8165556804
 20
23.171910522
 30
0.0
 10
22.6806232276
 20
23.1175709759
 30
0.0
 10
22.5451072838
 20
23.0631777698
 30
0.0
 10
22.4395652584
 20
23.0212074441
 30
0.0
 10
22.4088798489
 20
23.0088341575
 30
0.0
 11
22.9088036965
 21
23.2088036965
 31
0.0
 11
22.8156398454
 21
23.1714817944
 31
0.0
 11
22.725245316
 21
23.1353947836
 31
0.0
 11
22.5010428476
 21
23.0456881243
 31
0.0
 11
22.4088798489
 21
23.0088341575
 31
0.0
  0
SPLINE
  5
86D
100
AcDbEntity
  8
RACCORDO
100
AcDbSpline
 62
253
  6
CONTINUOUS
 70
0
 71
3
 72
11
 73
7
 74
5
 42
0.0000001
 43
0.0000001
 44
0.0000000001
 12
0.2036738302
 22
-0.4984262044
 32
0.0
 13
0.2013593799
 23
-0.4993657082
 33
0.0
 40
0.0
 40
0.0
 40
0.0
 40
0.0
 40
0.1863949734
 40
0.3671627645
 40
0.8156536842
 40
1.0
 40
1.0
 40
1.0
 40
1.0
 10
-22.9088036965
 20
23.2088036965
 30
0.0
 10
-22.8961491038
 20
23.1778356501
 30
0.0
 10
-22.871910522
 20
23.1165556804
 30
0.0
 10
-22.8175709759
 20
22.9806232276
 30
0.0
 10
-22.7631777698
 20
22.8451072838
 30
0.0
 10
-22.7212074441
 20
22.7395652584
 30
0.0
 10
-22.7088341575
 20
22.7088798489
 30
0.0
 11
-22.9088036965
 21
23.2088036965
 31
0.0
 11
-22.8714817944
 21
23.1156398454
 31
0.0
 11
-22.8353947836
 21
23.025245316
 31
0.0
 11
-22.7456881243
 21
22.8010428476
 31
0.0
 11
-22.7088341575
 21
22.7088798489
 31
0.0
  0
SPLINE
  5
86E
100
AcDbEntity
  8
RACCORDO
100
AcDbSpline
 62
253
  6
CONTINUOUS
 70
0
 71
3
 72
15
 73
11
 74
9
 42
0.0000001
 43
0.0000001
 44
0.0000000001
 12
-0.4930428639
 22
0.2163803997
 32
0.0
 13
-0.4984262325
 23
0.2036738417
 33
0.0
 40
0.0
 40
0.0
 40
0.0
 40
0.0
 40
0.0237295951
 40
0.0864412296
 40
0.1843520767
 40
0.3121163014
 40
0.4636837307
 40
0.6328381818
 40
0.813605491
 40
1.0
 40
1.0
 40
1.0
 40
1.0
 10
-22.4088798489
 20
23.0088341575
 30
0.0
 10
-22.4127797514
 20
23.0105456972
 30
0.0
 10
-22.4273135139
 20
23.0159989989
 30
0.0
 10
-22.4579292456
 20
23.0285371351
 30
0.0
 10
-22.5060281636
 20
23.047662029
 30
0.0
 10
-22.568853035
 20
23.0729033678
 30
0.0
 10
-22.643629676
 20
23.1026978556
 30
0.0
 10
-22.7271727668
 20
23.1361897588
 30
0.0
 10
-22.8165563028
 20
23.171909598
 30
0.0
 10
-22.8778357255
 20
23.1961491346
 30
0.0
 10
-22.9088036965
 20
23.2088036965
 30
0.0
 11
-22.4088798489
 21
23.0088341575
 31
0.0
 11
-22.4207458482
 21
23.0135718292
 31
0.0
 11
-22.4521011239
 21
23.0261016667
 31
0.0
 11
-22.5010384517
 21
23.0457074495
 31
0.0
 11
-22.5649002633
 21
23.0712828383
 31
0.0
 11
-22.6406872549
 21
23.1015546607
 31
0.0
 11
-22.725244066
 21
23.1353992555
 31
0.0
 11
-22.815639673
 21
23.171482882
 31
0.0
 11
-22.9088036965
 21
23.2088036965
 31
0.0
  0
SPLINE
  5
86F
100
AcDbEntity
  8
RACCORDO
100
AcDbSpline
 62
253
  6
CONTINUOUS
 70
0
 71
3
 72
15
 73
11
 74
9
 42
0.0000001
 43
0.0000001
 44
0.0000000001
 12
-0.2163803997
 22
-0.4930428639
 32
0.0
 13
-0.2036738417
 23
-0.4984262325
 33
0.0
 40
0.0
 40
0.0
 40
0.0
 40
0.0
 40
0.0237295951
 40
0.0864412296
 40
0.1843520767
 40
0.3121163014
 40
0.4636837307
 40
0.6328381818
 40
0.813605491
 40
1.0
 40
1.0
 40
1.0
 40
1.0
 10
-22.7088341575
 20
-22.7088798489
 30
0.0
 10
-22.7105456972
 20
-22.7127797514
 30
0.0
 10
-22.7159989989
 20
-22.7273135139
 30
0.0
 10
-22.7285371351
 20
-22.7579292456
 30
0.0
 10
-22.747662029
 20
-22.8060281636
 30
0.0
 10
-22.7729033678
 20
-22.868853035
 30
0.0
 10
-22.8026978556
 20
-22.943629676
 30
0.0
 10
-22.8361897588
 20
-23.0271727668
 30
0.0
 10
-22.871909598
 20
-23.1165563028
 30
0.0
 10
-22.8961491346
 20
-23.1778357255
 30
0.0
 10
-22.9088036965
 20
-23.2088036965
 30
0.0
 11
-22.7088341575
 21
-22.7088798489
 31
0.0
 11
-22.7135718292
 21
-22.7207458482
 31
0.0
 11
-22.7261016667
 21
-22.7521011239
 31
0.0
 11
-22.7457074495
 21
-22.8010384517
 31
0.0
 11
-22.7712828383
 21
-22.8649002633
 31
0.0
 11
-22.8015546607
 21
-22.9406872549
 31
0.0
 11
-22.8353992555
 21
-23.025244066
 31
0.0
 11
-22.871482882
 21
-23.115639673
 31
0.0
 11
-22.9088036965
 21
-23.2088036965
 31
0.0
  0
SPLINE
  5
870
100
AcDbEntity
  8
RACCORDO
100
AcDbSpline
 62
253
  6
CONTINUOUS
 70
0
 71
3
 72
11
 73
7
 74
5
 42
0.0000001
 43
0.0000001
 44
0.0000000001
 12
0.4984262044
 22
0.2036738302
 32
0.0
 13
0.4993657082
 23
0.2013593799
 33
0.0
 40
0.0
 40
0.0
 40
0.0
 40
0.0
 40
0.1863949734
 40
0.3671627645
 40
0.8156536842
 40
1.0
 40
1.0
 40
1.0
 40
1.0
 10
-22.9088036965
 20
-23.2088036965
 30
0.0
 10
-22.8778356501
 20
-23.1961491038
 30
0.0
 10
-22.8165556804
 20
-23.171910522
 30
0.0
 10
-22.6806232276
 20
-23.1175709759
 30
0.0
 10
-22.5451072838
 20
-23.0631777698
 30
0.0
 10
-22.4395652584
 20
-23.0212074441
 30
0.0
 10
-22.4088798489
 20
-23.0088341575
 30
0.0
 11
-22.9088036965
 21
-23.2088036965
 31
0.0
 11
-22.8156398454
 21
-23.1714817944
 31
0.0
 11
-22.725245316
 21
-23.1353947836
 31
0.0
 11
-22.5010428476
 21
-23.0456881243
 31
0.0
 11
-22.4088798489
 21
-23.0088341575
 31
0.0
  0
LINE
  5
871
100
AcDbEntity
  8
RACCORDO
100
AcDbLine
 62
7
  6
CONTINUOUS
 10
-23.15
 20
-25.167531229
 11
-23.15
 21
-25.2
  0
LINE
  5
872
100
AcDbEntity
  8
RACCORDO
100
AcDbLine
 62
7
  6
CONTINUOUS
 10
-24.3676073814
 20
-24.7000761524
 11
-24.867531229
 21
-25.2
  0
LINE
  5
873
100
AcDbEntity
  8
RACCORDO
100
AcDbLine
 62
7
  6
CONTINUOUS
 10
-0.6
 20
-25.2
 11
-0.6
 21
-25.167531229
  0
LINE
  5
874
100
AcDbEntity
  8
RACCORDO
100
AcDbLine
 62
7
  6
CONTINUOUS
 10
0.6
 20
-25.167531229
 11
0.6
 21
-25.2
  0
LINE
  5
875
100
AcDbEntity
  8
RACCORDO
100
AcDbLine
 62
7
  6
CONTINUOUS
 10
23.15
 20
-25.2
 11
23.15
 21
-25.167531229
  0
LINE
  5
876
100
AcDbEntity
  8
RACCORDO
100
AcDbLine
 62
7
  6
CONTINUOUS
 10
24.3676073814
 20
-24.7000761524
 11
24.867531229
 21
-25.2
  0
LINE
  5
877
100
AcDbEntity
  8
RACCORDO
100
AcDbLine
 62
7
  6
CONTINUOUS
 10
23.15
 20
25.167531229
 11
23.15
 21
25.2
  0
LINE
  5
878
100
AcDbEntity
  8
RACCORDO
100
AcDbLine
 62
7
  6
CONTINUOUS
 10
24.3676073814
 20
24.7000761524
 11
24.867531229
 21
25.2
  0
LINE
  5
879
100
AcDbEntity
  8
RACCORDO
100
AcDbLine
 62
7
  6
CONTINUOUS
 10
0.6
 20
25.2
 11
0.6
 21
25.167531229
  0
LINE
  5
87A
100
AcDbEntity
  8
RACCORDO
100
AcDbLine
 62
7
  6
CONTINUOUS
 10
-0.6
 20
25.167531229
 11
-0.6
 21
25.2
  0
SPLINE
  5
87B
100
AcDbEntity
  8
RACCORDO
100
AcDbSpline
 62
253
  6
CONTINUOUS
 70
0
 71
3
 72
10
 73
6
 74
4
 42
0.0000001
 43
0.0000001
 44
0.0000000001
 12
0.0260138913
 22
-0.7331760745
 32
0.0
 13
-0.0000290579
 23
-0.7336374295
 33
0.0
 40
0.0
 40
0.0
 40
0.0
 40
0.0
 40
0.1738614998
 40
0.4116350072
 40
1.0
 40
1.0
 40
1.0
 40
1.0
 10
-24.3676071176
 20
7.672350921
 30
0.0
 10
-24.3660995129
 20
7.629860557
 30
0.0
 10
-24.3638293352
 20
7.5292169718
 30
0.0
 10
-24.3604893485
 20
7.2846946517
 30
0.0
 10
-24.3596859767
 20
7.0826609446
 30
0.0
 10
-24.3596916756
 20
6.9387787509
 30
0.0
 11
-24.3676071176
 21
7.672350921
 31
0.0
 11
-24.3643415324
 21
7.5448414269
 31
0.0
 11
-24.3618223407
 21
7.3704200735
 31
0.0
 11
-24.3596916756
 21
6.9387787509
 31
0.0
  0
SPLINE
  5
87C
100
AcDbEntity
  8
RACCORDO
100
AcDbSpline
 62
253
  6
CONTINUOUS
 70
0
 71
3
 72
10
 73
6
 74
4
 42
0.0000001
 43
0.0000001
 44
0.0000000001
 12
0.0000290464
 22
-0.7336374552
 32
0.0
 13
-0.0260140266
 23
-0.7331760954
 33
0.0
 40
0.0
 40
0.0
 40
0.0
 40
0.0
 40
0.5883650021
 40
0.8261384957
 40
1.0
 40
1.0
 40
1.0
 40
1.0
 10
-24.3596916756
 20
-6.9387787509
 30
0.0
 10
-24.3596859789
 20
-7.0826609519
 30
0.0
 10
-24.3604893425
 20
-7.2846946651
 30
0.0
 10
-24.3638293419
 20
-7.5292169935
 30
0.0
 10
-24.3660995057
 20
-7.6298605803
 30
0.0
 10
-24.3676071183
 20
-7.6723509466
 30
0.0
 11
-24.3596916756
 21
-6.9387787509
 31
0.0
 11
-24.3618223408
 21
-7.3704200955
 31
0.0
 11
-24.3643415335
 21
-7.5448414448
 31
0.0
 11
-24.3676071183
 21
-7.6723509466
 31
0.0
  0
SPLINE
  5
87D
100
AcDbEntity
  8
RACCORDO
100
AcDbSpline
 62
253
  6
CONTINUOUS
 70
0
 71
3
 72
10
 73
6
 74
4
 42
0.0000001
 43
0.0000001
 44
0.0000000001
 12
-0.0260138913
 22
0.7331760745
 32
0.0
 13
0.0000290579
 23
0.7336374295
 33
0.0
 40
0.0
 40
0.0
 40
0.0
 40
0.0
 40
0.1738614998
 40
0.4116350072
 40
1.0
 40
1.0
 40
1.0
 40
1.0
 10
24.3676071176
 20
-7.672350921
 30
0.0
 10
24.3660995129
 20
-7.629860557
 30
0.0
 10
24.3638293352
 20
-7.5292169718
 30
0.0
 10
24.3604893485
 20
-7.2846946517
 30
0.0
 10
24.3596859767
 20
-7.0826609446
 30
0.0
 10
24.3596916756
 20
-6.9387787509
 30
0.0
 11
24.3676071176
 21
-7.672350921
 31
0.0
 11
24.3643415324
 21
-7.5448414269
 31
0.0
 11
24.3618223407
 21
-7.3704200735
 31
0.0
 11
24.3596916756
 21
-6.9387787509
 31
0.0
  0
SPLINE
  5
87E
100
AcDbEntity
  8
RACCORDO
100
AcDbSpline
 62
253
  6
CONTINUOUS
 70
0
 71
3
 72
10
 73
6
 74
4
 42
0.0000001
 43
0.0000001
 44
0.0000000001
 12
-0.0000290464
 22
0.7336374552
 32
0.0
 13
0.0260140266
 23
0.7331760954
 33
0.0
 40
0.0
 40
0.0
 40
0.0
 40
0.0
 40
0.5883650021
 40
0.8261384957
 40
1.0
 40
1.0
 40
1.0
 40
1.0
 10
24.3596916756
 20
6.9387787509
 30
0.0
 10
24.3596859789
 20
7.0826609519
 30
0.0
 10
24.3604893425
 20
7.2846946651
 30
0.0
 10
24.3638293419
 20
7.5292169935
 30
0.0
 10
24.3660995057
 20
7.6298605803
 30
0.0
 10
24.3676071183
 20
7.6723509466
 30
0.0
 11
24.3596916756
 21
6.9387787509
 31
0.0
 11
24.3618223408
 21
7.3704200955
 31
0.0
 11
24.3643415335
 21
7.5448414448
 31
0.0
 11
24.3676071183
 21
7.6723509466
 31
0.0
  0
SPLINE
  5
87F
100
AcDbEntity
  8
RACCORDO
100
AcDbSpline
 62
253
  6
CONTINUOUS
 70
0
 71
3
 72
12
 73
8
 74
6
 42
0.0000001
 43
0.0000001
 44
0.0000000001
 12
-0.0041975828
 22
0.490417573
 32
0.0
 13
-0.4860044879
 23
-0.0657773016
 33
0.0
 40
0.0
 40
0.0
 40
0.0
 40
0.0
 40
0.2360988952
 40
0.3580591893
 40
0.4828908447
 40
0.7389463051
 40
1.0
 40
1.0
 40
1.0
 40
1.0
 10
-24.3676173174
 20
-7.6723605723
 30
0.0
 10
-24.3679476657
 20
-7.6337648899
 30
0.0
 10
-24.3832915469
 20
-7.5743514496
 30
0.0
 10
-24.427915228
 20
-7.5086904045
 30
0.0
 10
-24.4880098931
 20
-7.4517093855
 30
0.0
 10
-24.5854242977
 20
-7.4052810814
 30
0.0
 10
-24.672225211
 20
-7.4003439422
 30
0.0
 10
-24.7145163001
 20
-7.4060677447
 30
0.0
 11
-24.3676173174
 21
-7.6723605723
 31
0.0
 11
-24.3958976858
 21
-7.5600759196
 31
0.0
 11
-24.4292831793
 21
-7.5104464624
 31
0.0
 11
-24.4736465546
 21
-7.4682563036
 31
0.0
 11
-24.5867081774
 21
-7.4136021305
 31
0.0
 11
-24.7145163001
 21
-7.4060677447
 31
0.0
  0
SPLINE
  5
880
100
AcDbEntity
  8
RACCORDO
100
AcDbSpline
 62
253
  6
CONTINUOUS
 70
0
 71
3
 72
12
 73
8
 74
6
 42
0.0000001
 43
0.0000001
 44
0.0000000001
 12
-0.0041799589
 22
-0.4904280458
 32
0.0
 13
-0.4860124095
 23
0.0657957292
 33
0.0
 40
0.0
 40
0.0
 40
0.0
 40
0.0
 40
0.2361004956
 40
0.358060921
 40
0.4828923706
 40
0.7389469052
 40
1.0
 40
1.0
 40
1.0
 40
1.0
 10
-24.3676164666
 20
7.6723605719
 30
0.0
 10
-24.36794543
 20
7.6337638037
 30
0.0
 10
-24.3832877135
 20
7.5743481843
 30
0.0
 10
-24.4279110042
 20
7.5086844918
 30
0.0
 10
-24.4880060504
 20
7.4517015097
 30
0.0
 10
-24.5854226191
 20
7.4052723724
 30
0.0
 10
-24.6722255108
 20
7.4003372943
 30
0.0
 10
-24.714517192
 20
7.4060626872
 30
0.0
 11
-24.3676164666
 21
7.6723605719
 31
0.0
 11
-24.3958940053
 21
7.5600718841
 31
0.0
 11
-24.4292791201
 21
7.5104405774
 31
0.0
 11
-24.4736427808
 21
7.4682489954
 31
0.0
 11
-24.5867064903
 21
7.4135941096
 31
0.0
 11
-24.714517192
 21
7.4060626872
 31
0.0
  0
SPLINE
  5
881
100
AcDbEntity
  8
RACCORDO
100
AcDbSpline
 62
253
  6
CONTINUOUS
 70
0
 71
3
 72
12
 73
8
 74
6
 42
0.0000001
 43
0.0000001
 44
0.0000000001
 12
0.0041975828
 22
-0.490417573
 32
0.0
 13
0.4860044879
 23
0.0657773016
 33
0.0
 40
0.0
 40
0.0
 40
0.0
 40
0.0
 40
0.2360988952
 40
0.3580591893
 40
0.4828908447
 40
0.7389463051
 40
1.0
 40
1.0
 40
1.0
 40
1.0
 10
24.3676173174
 20
7.6723605723
 30
0.0
 10
24.3679476657
 20
7.6337648899
 30
0.0
 10
24.3832915469
 20
7.5743514496
 30
0.0
 10
24.427915228
 20
7.5086904045
 30
0.0
 10
24.4880098931
 20
7.4517093855
 30
0.0
 10
24.5854242977
 20
7.4052810814
 30
0.0
 10
24.672225211
 20
7.4003439422
 30
0.0
 10
24.7145163001
 20
7.4060677447
 30
0.0
 11
24.3676173174
 21
7.6723605723
 31
0.0
 11
24.3958976858
 21
7.5600759196
 31
0.0
 11
24.4292831793
 21
7.5104464624
 31
0.0
 11
24.4736465546
 21
7.4682563036
 31
0.0
 11
24.5867081774
 21
7.4136021305
 31
0.0
 11
24.7145163001
 21
7.4060677447
 31
0.0
  0
SPLINE
  5
882
100
AcDbEntity
  8
RACCORDO
100
AcDbSpline
 62
253
  6
CONTINUOUS
 70
0
 71
3
 72
12
 73
8
 74
6
 42
0.0000001
 43
0.0000001
 44
0.0000000001
 12
0.0041799589
 22
0.4904280458
 32
0.0
 13
0.4860124095
 23
-0.0657957292
 33
0.0
 40
0.0
 40
0.0
 40
0.0
 40
0.0
 40
0.2361004956
 40
0.358060921
 40
0.4828923706
 40
0.7389469052
 40
1.0
 40
1.0
 40
1.0
 40
1.0
 10
24.3676164666
 20
-7.6723605719
 30
0.0
 10
24.36794543
 20
-7.6337638037
 30
0.0
 10
24.3832877135
 20
-7.5743481843
 30
0.0
 10
24.4279110042
 20
-7.5086844918
 30
0.0
 10
24.4880060504
 20
-7.4517015097
 30
0.0
 10
24.5854226191
 20
-7.4052723724
 30
0.0
 10
24.6722255108
 20
-7.4003372943
 30
0.0
 10
24.714517192
 20
-7.4060626872
 30
0.0
 11
24.3676164666
 21
-7.6723605719
 31
0.0
 11
24.3958940053
 21
-7.5600718841
 31
0.0
 11
24.4292791201
 21
-7.5104405774
 31
0.0
 11
24.4736427808
 21
-7.4682489954
 31
0.0
 11
24.5867064903
 21
-7.4135941096
 31
0.0
 11
24.714517192
 21
-7.4060626872
 31
0.0
  0
SPLINE
  5
883
100
AcDbEntity
  8
RACCORDO
100
AcDbSpline
 62
253
  6
CONTINUOUS
 70
0
 71
3
 72
12
 73
8
 74
6
 42
0.0000001
 43
0.0000001
 44
0.0000000001
 12
0.0345041701
 22
0.2210277226
 32
0.0
 13
0.2203057399
 23
0.0388480746
 33
0.0
 40
0.0
 40
0.0
 40
0.0
 40
0.0
 40
0.1662262312
 40
0.2826831148
 40
0.4135062716
 40
0.6995365745
 40
1.0
 40
1.0
 40
1.0
 40
1.0
 10
24.7145158869
 20
7.4060700881
 30
0.0
 10
24.7164277197
 20
7.4183169566
 30
0.0
 10
24.7365070252
 20
7.4332445359
 30
0.0
 10
24.7637875761
 20
7.4453332196
 30
0.0
 10
24.8018244835
 20
7.4582075984
 30
0.0
 10
24.8536644739
 20
7.4708473436
 30
0.0
 10
24.8966371607
 20
7.4792752752
 30
0.0
 10
24.9187017664
 20
7.4831660837
 30
0.0
 11
24.7145158869
 21
7.4060700881
 31
0.0
 11
24.7395478565
 21
7.4335686066
 31
0.0
 11
24.7631331234
 21
7.4446338399
 31
0.0
 11
24.7907936385
 21
7.4541931444
 31
0.0
 11
24.8527610646
 21
7.4701395416
 31
0.0
 11
24.9187017664
 21
7.4831660837
 31
0.0
  0
SPLINE
  5
884
100
AcDbEntity
  8
ASSI
100
AcDbSpline
 62
7
  6
CONTINUOUS
 70
0
 71
3
 72
13
 73
9
 74
7
 42
0.0000001
 43
0.0000001
 44
0.0000000001
 12
-0.2151429795
 22
0.1830147018
 32
0.0
 13
-0.1981579101
 23
0.2012817065
 33
0.0
 40
0.0
 40
0.0
 40
0.0
 40
0.0
 40
0.0379976089
 40
0.1203582723
 40
0.2344388138
 40
0.3693454693
 40
0.674332703
 40
1.0
 40
1.0
 40
1.0
 40
1.0
 10
-8.2400670064
 20
25.200274093
 30
0.0
 10
-8.2427919793
 20
25.2025921334
 30
0.0
 10
-8.2503950204
 20
25.2110481039
 30
0.0
 10
-8.2663273159
 20
25.2263063623
 30
0.0
 10
-8.2882345693
 20
25.2485294823
 30
0.0
 10
-8.325199228
 20
25.2853219081
 30
0.0
 10
-8.3760085472
 20
25.3364497751
 30
0.0
 10
-8.4182817297
 20
25.3781497102
 30
0.0
 10
-8.4397929133
 20
25.4
 30
0.0
 11
-8.2400670064
 21
25.200274093
 31
0.0
 11
-8.2476500544
 21
25.2078692547
 31
0.0
 11
-8.2641079904
 21
25.2243104322
 31
0.0
 11
-8.2868895606
 21
25.2470985427
 31
0.0
 11
-8.3138355883
 21
25.2740412255
 31
0.0
 11
-8.3747336671
 21
25.3349708515
 31
0.0
 11
-8.4397929133
 21
25.4
 31
0.0
  0
SPLINE
  5
885
100
AcDbEntity
  8
ASSI
100
AcDbSpline
 62
7
  6
CONTINUOUS
 70
0
 71
3
 72
13
 73
9
 74
7
 42
0.0000001
 43
0.0000001
 44
0.0000000001
 12
-0.1981579101
 22
-0.2012817065
 32
0.0
 13
-0.2151429795
 23
-0.1830147018
 33
0.0
 40
0.0
 40
0.0
 40
0.0
 40
0.0
 40
0.325667297
 40
0.6306545307
 40
0.7655611862
 40
0.8796417277
 40
0.9620023911
 40
1.0
 40
1.0
 40
1.0
 40
1.0
 10
-14.0602070867
 20
25.4
 30
0.0
 10
-14.0817182703
 20
25.3781497102
 30
0.0
 10
-14.1239914528
 20
25.3364497751
 30
0.0
 10
-14.174800772
 20
25.2853219081
 30
0.0
 10
-14.2117654307
 20
25.2485294823
 30
0.0
 10
-14.2336726841
 20
25.2263063623
 30
0.0
 10
-14.2496049796
 20
25.2110481039
 30
0.0
 10
-14.2572080207
 20
25.2025921334
 30
0.0
 10
-14.2599329936
 20
25.200274093
 30
0.0
 11
-14.0602070867
 21
25.4
 31
0.0
 11
-14.1252663329
 21
25.3349708515
 31
0.0
 11
-14.1861644117
 21
25.2740412255
 31
0.0
 11
-14.2131104394
 21
25.2470985427
 31
0.0
 11
-14.2358920096
 21
25.2243104322
 31
0.0
 11
-14.2523499456
 21
25.2078692547
 31
0.0
 11
-14.2599329936
 21
25.200274093
 31
0.0
  0
SPLINE
  5
886
100
AcDbEntity
  8
RACCORDO
100
AcDbSpline
 62
253
  6
CONTINUOUS
 70
0
 71
3
 72
10
 73
6
 74
4
 42
0.0000001
 43
0.0000001
 44
0.0000000001
 12
0.0472536272
 22
0.4681221181
 32
0.0
 13
0.0724138544
 23
0.4648951026
 33
0.0
 40
0.0
 40
0.0
 40
0.0
 40
0.0
 40
0.5850244775
 40
0.8238018096
 40
1.0
 40
1.0
 40
1.0
 40
1.0
 10
24.6596494211
 20
6.9388126024
 30
0.0
 10
24.668864264
 20
7.0301002349
 30
0.0
 10
24.6825732298
 20
7.1585806037
 30
0.0
 10
24.7015471773
 20
7.3142609469
 30
0.0
 10
24.7102628236
 20
7.3787655295
 30
0.0
 10
24.7145158869
 20
7.4060700881
 30
0.0
 11
24.6596494211
 21
6.9388126024
 31
0.0
 11
24.6893043595
 21
7.2124651032
 31
0.0
 11
24.7030132997
 21
7.3239705284
 31
0.0
 11
24.7145158869
 21
7.4060700881
 31
0.0
  0
SPLINE
  5
887
100
AcDbEntity
  8
RACCORDO
100
AcDbSpline
 62
253
  6
CONTINUOUS
 70
0
 71
3
 72
12
 73
8
 74
6
 42
0.0000001
 43
0.0000001
 44
0.0000000001
 12
-0.2203057393
 22
0.0388480772
 32
0.0
 13
-0.0345044104
 23
0.221027685
 33
0.0
 40
0.0
 40
0.0
 40
0.0
 40
0.0
 40
0.3004634255
 40
0.5864937316
 40
0.7173168829
 40
0.8337737703
 40
1.0
 40
1.0
 40
1.0
 40
1.0
 10
24.9187017664
 20
-7.4831660837
 30
0.0
 10
24.8966371607
 20
-7.4792752749
 30
0.0
 10
24.853664474
 20
-7.4708473435
 30
0.0
 10
24.8018244825
 20
-7.4582075992
 30
0.0
 10
24.7637875772
 20
-7.4453332189
 30
0.0
 10
24.7365070211
 20
-7.4332445367
 30
0.0
 10
24.716427733
 20
-7.4183169544
 30
0.0
 10
24.7145158869
 20
-7.4060700881
 30
0.0
 11
24.9187017664
 21
-7.4831660837
 31
0.0
 11
24.8527610646
 21
-7.4701395417
 31
0.0
 11
24.7907936378
 21
-7.4541931444
 31
0.0
 11
24.763133124
 21
-7.4446338398
 31
0.0
 11
24.7395478563
 21
-7.4335686063
 31
0.0
 11
24.7145158869
 21
-7.4060700881
 31
0.0
  0
SPLINE
  5
888
100
AcDbEntity
  8
RACCORDO
100
AcDbSpline
 62
253
  6
CONTINUOUS
 70
0
 71
3
 72
10
 73
6
 74
4
 42
0.0000001
 43
0.0000001
 44
0.0000000001
 12
-0.072413867
 22
0.4648950652
 32
0.0
 13
-0.047253589
 23
0.4681220867
 33
0.0
 40
0.0
 40
0.0
 40
0.0
 40
0.0
 40
0.1761981894
 40
0.4149755219
 40
1.0
 40
1.0
 40
1.0
 40
1.0
 10
24.7145158869
 20
-7.4060700881
 30
0.0
 10
24.7102628229
 20
-7.3787655319
 30
0.0
 10
24.7015471794
 20
-7.3142609538
 30
0.0
 10
24.6825732311
 20
-7.1585806225
 30
0.0
 10
24.6688642601
 20
-7.0301002637
 30
0.0
 10
24.6596494247
 20
-6.9388126372
 30
0.0
 11
24.7145158869
 21
-7.4060700881
 31
0.0
 11
24.7030133008
 21
-7.323970535
 31
0.0
 11
24.6893043608
 21
-7.212465118
 31
0.0
 11
24.6596494247
 21
-6.9388126372
 31
0.0
  0
SPLINE
  5
889
100
AcDbEntity
  8
RACCORDO
100
AcDbSpline
 62
253
  6
CONTINUOUS
 70
0
 71
3
 72
12
 73
8
 74
6
 42
0.0000001
 43
0.0000001
 44
0.0000000001
 12
-0.0345041701
 22
-0.2210277226
 32
0.0
 13
-0.2203057399
 23
-0.0388480746
 33
0.0
 40
0.0
 40
0.0
 40
0.0
 40
0.0
 40
0.1662262312
 40
0.2826831148
 40
0.4135062716
 40
0.6995365745
 40
1.0
 40
1.0
 40
1.0
 40
1.0
 10
-24.7145158869
 20
-7.4060700881
 30
0.0
 10
-24.7164277197
 20
-7.4183169566
 30
0.0
 10
-24.7365070252
 20
-7.4332445359
 30
0.0
 10
-24.7637875761
 20
-7.4453332196
 30
0.0
 10
-24.8018244835
 20
-7.4582075984
 30
0.0
 10
-24.8536644739
 20
-7.4708473436
 30
0.0
 10
-24.8966371607
 20
-7.4792752752
 30
0.0
 10
-24.9187017664
 20
-7.4831660837
 30
0.0
 11
-24.7145158869
 21
-7.4060700881
 31
0.0
 11
-24.7395478565
 21
-7.4335686066
 31
0.0
 11
-24.7631331234
 21
-7.4446338399
 31
0.0
 11
-24.7907936385
 21
-7.4541931444
 31
0.0
 11
-24.8527610646
 21
-7.4701395416
 31
0.0
 11
-24.9187017664
 21
-7.4831660837
 31
0.0
  0
SPLINE
  5
88A
100
AcDbEntity
  8
RACCORDO
100
AcDbSpline
 62
253
  6
CONTINUOUS
 70
0
 71
3
 72
10
 73
6
 74
4
 42
0.0000001
 43
0.0000001
 44
0.0000000001
 12
-0.0472536272
 22
-0.4681221181
 32
0.0
 13
-0.0724138544
 23
-0.4648951026
 33
0.0
 40
0.0
 40
0.0
 40
0.0
 40
0.0
 40
0.5850244775
 40
0.8238018096
 40
1.0
 40
1.0
 40
1.0
 40
1.0
 10
-24.6596494211
 20
-6.9388126024
 30
0.0
 10
-24.668864264
 20
-7.0301002349
 30
0.0
 10
-24.6825732298
 20
-7.1585806037
 30
0.0
 10
-24.7015471773
 20
-7.3142609469
 30
0.0
 10
-24.7102628236
 20
-7.3787655295
 30
0.0
 10
-24.7145158869
 20
-7.4060700881
 30
0.0
 11
-24.6596494211
 21
-6.9388126024
 31
0.0
 11
-24.6893043595
 21
-7.2124651032
 31
0.0
 11
-24.7030132997
 21
-7.3239705284
 31
0.0
 11
-24.7145158869
 21
-7.4060700881
 31
0.0
  0
SPLINE
  5
88B
100
AcDbEntity
  8
RACCORDO
100
AcDbSpline
 62
253
  6
CONTINUOUS
 70
0
 71
3
 72
12
 73
8
 74
6
 42
0.0000001
 43
0.0000001
 44
0.0000000001
 12
0.2203057393
 22
-0.0388480772
 32
0.0
 13
0.0345044104
 23
-0.221027685
 33
0.0
 40
0.0
 40
0.0
 40
0.0
 40
0.0
 40
0.3004634255
 40
0.5864937316
 40
0.7173168829
 40
0.8337737703
 40
1.0
 40
1.0
 40
1.0
 40
1.0
 10
-24.9187017664
 20
7.4831660837
 30
0.0
 10
-24.8966371607
 20
7.4792752749
 30
0.0
 10
-24.853664474
 20
7.4708473435
 30
0.0
 10
-24.8018244825
 20
7.4582075992
 30
0.0
 10
-24.7637875772
 20
7.4453332189
 30
0.0
 10
-24.7365070211
 20
7.4332445367
 30
0.0
 10
-24.716427733
 20
7.4183169544
 30
0.0
 10
-24.7145158869
 20
7.4060700881
 30
0.0
 11
-24.9187017664
 21
7.4831660837
 31
0.0
 11
-24.8527610646
 21
7.4701395417
 31
0.0
 11
-24.7907936378
 21
7.4541931444
 31
0.0
 11
-24.763133124
 21
7.4446338398
 31
0.0
 11
-24.7395478563
 21
7.4335686063
 31
0.0
 11
-24.7145158869
 21
7.4060700881
 31
0.0
  0
SPLINE
  5
88C
100
AcDbEntity
  8
RACCORDO
100
AcDbSpline
 62
253
  6
CONTINUOUS
 70
0
 71
3
 72
10
 73
6
 74
4
 42
0.0000001
 43
0.0000001
 44
0.0000000001
 12
0.072413867
 22
-0.4648950652
 32
0.0
 13
0.047253589
 23
-0.4681220867
 33
0.0
 40
0.0
 40
0.0
 40
0.0
 40
0.0
 40
0.1761981894
 40
0.4149755219
 40
1.0
 40
1.0
 40
1.0
 40
1.0
 10
-24.7145158869
 20
7.4060700881
 30
0.0
 10
-24.7102628229
 20
7.3787655319
 30
0.0
 10
-24.7015471794
 20
7.3142609538
 30
0.0
 10
-24.6825732311
 20
7.1585806225
 30
0.0
 10
-24.6688642601
 20
7.0301002637
 30
0.0
 10
-24.6596494247
 20
6.9388126372
 30
0.0
 11
-24.7145158869
 21
7.4060700881
 31
0.0
 11
-24.7030133008
 21
7.323970535
 31
0.0
 11
-24.6893043608
 21
7.212465118
 31
0.0
 11
-24.6596494247
 21
6.9388126372
 31
0.0
  0
SPLINE
  5
88D
100
AcDbEntity
  8
ASSI
100
AcDbSpline
 62
7
  6
CONTINUOUS
 70
0
 71
3
 72
13
 73
9
 74
7
 42
0.0000001
 43
0.0000001
 44
0.0000000001
 12
-0.2151429795
 22
0.1830147018
 32
0.0
 13
-0.1981579101
 23
0.2012817065
 33
0.0
 40
0.0
 40
0.0
 40
0.0
 40
0.0
 40
0.0379976089
 40
0.1203582723
 40
0.2344388138
 40
0.3693454693
 40
0.674332703
 40
1.0
 40
1.0
 40
1.0
 40
1.0
 10
14.2599329936
 20
25.200274093
 30
0.0
 10
14.2572080207
 20
25.2025921334
 30
0.0
 10
14.2496049796
 20
25.2110481039
 30
0.0
 10
14.2336726841
 20
25.2263063623
 30
0.0
 10
14.2117654307
 20
25.2485294823
 30
0.0
 10
14.174800772
 20
25.2853219081
 30
0.0
 10
14.1239914528
 20
25.3364497751
 30
0.0
 10
14.0817182703
 20
25.3781497102
 30
0.0
 10
14.0602070867
 20
25.4
 30
0.0
 11
14.2599329936
 21
25.200274093
 31
0.0
 11
14.2523499456
 21
25.2078692547
 31
0.0
 11
14.2358920096
 21
25.2243104322
 31
0.0
 11
14.2131104394
 21
25.2470985427
 31
0.0
 11
14.1861644117
 21
25.2740412255
 31
0.0
 11
14.1252663329
 21
25.3349708515
 31
0.0
 11
14.0602070867
 21
25.4
 31
0.0
  0
SPLINE
  5
88E
100
AcDbEntity
  8
ASSI
100
AcDbSpline
 62
7
  6
CONTINUOUS
 70
0
 71
3
 72
13
 73
9
 74
7
 42
0.0000001
 43
0.0000001
 44
0.0000000001
 12
-0.1981579101
 22
-0.2012817065
 32
0.0
 13
-0.2151429795
 23
-0.1830147018
 33
0.0
 40
0.0
 40
0.0
 40
0.0
 40
0.0
 40
0.325667297
 40
0.6306545307
 40
0.7655611862
 40
0.8796417277
 40
0.9620023911
 40
1.0
 40
1.0
 40
1.0
 40
1.0
 10
8.4397929133
 20
25.4
 30
0.0
 10
8.4182817297
 20
25.3781497102
 30
0.0
 10
8.3760085472
 20
25.3364497751
 30
0.0
 10
8.325199228
 20
25.2853219081
 30
0.0
 10
8.2882345693
 20
25.2485294823
 30
0.0
 10
8.2663273159
 20
25.2263063623
 30
0.0
 10
8.2503950204
 20
25.2110481039
 30
0.0
 10
8.2427919793
 20
25.2025921334
 30
0.0
 10
8.2400670064
 20
25.200274093
 30
0.0
 11
8.4397929133
 21
25.4
 31
0.0
 11
8.3747336671
 21
25.3349708515
 31
0.0
 11
8.3138355883
 21
25.2740412255
 31
0.0
 11
8.2868895606
 21
25.2470985427
 31
0.0
 11
8.2641079904
 21
25.2243104322
 31
0.0
 11
8.2476500544
 21
25.2078692547
 31
0.0
 11
8.2400670064
 21
25.200274093
 31
0.0
  0
SPLINE
  5
88F
100
AcDbEntity
  8
RACCORDO
100
AcDbSpline
 62
7
  6
CONTINUOUS
 70
0
 71
3
 72
9
 73
5
 74
3
 42
0.0000001
 43
0.0000001
 44
0.0000000001
 12
0.0
 22
0.2259575329
 32
0.0
 13
0.2058681046
 23
0.093140379
 33
0.0
 40
0.0
 40
0.0
 40
0.0
 40
0.0
 40
0.5000811872
 40
1.0
 40
1.0
 40
1.0
 40
1.0
 10
24.7497544191
 20
-8.4497239581
 30
0.0
 10
24.7497544191
 20
-8.4120582543
 30
0.0
 10
24.7721699248
 20
-8.3350952244
 30
0.0
 10
24.8332254495
 20
-8.2833009131
 30
0.0
 10
24.867531229
 20
-8.2677800372
 30
0.0
 11
24.7497544191
 21
-8.4497239581
 31
0.0
 11
24.7818367066
 21
-8.3413769508
 31
0.0
 11
24.867531229
 21
-8.2677800372
 31
0.0
  0
SPLINE
  5
890
100
AcDbEntity
  8
RACCORDO
100
AcDbSpline
 62
7
  6
CONTINUOUS
 70
0
 71
3
 72
9
 73
5
 74
3
 42
0.0000001
 43
0.0000001
 44
0.0000000001
 12
-0.205868111
 22
0.093140382
 32
0.0
 13
0.0
 23
0.22595754
 33
0.0
 40
0.0
 40
0.0
 40
0.0
 40
0.0
 40
0.4999212536
 40
1.0
 40
1.0
 40
1.0
 40
1.0
 10
24.867531229
 20
-12.8822199628
 30
0.0
 10
24.8332252809
 20
-12.8666990106
 30
0.0
 10
24.7721697706
 20
-12.8149045819
 30
0.0
 10
24.7497544191
 20
-12.737941563
 30
0.0
 10
24.7497544191
 20
-12.7002760419
 30
0.0
 11
24.867531229
 21
-12.8822199628
 31
0.0
 11
24.7818363835
 21
-12.8086225734
 31
0.0
 11
24.7497544191
 21
-12.7002760419
 31
0.0
  0
SPLINE
  5
891
100
AcDbEntity
  8
ASSI
100
AcDbSpline
 62
7
  6
CONTINUOUS
 70
0
 71
3
 72
13
 73
9
 74
7
 42
0.0000001
 43
0.0000001
 44
0.0000000001
 12
0.2151429795
 22
-0.1830147018
 32
0.0
 13
0.1981579101
 23
-0.2012817065
 33
0.0
 40
0.0
 40
0.0
 40
0.0
 40
0.0
 40
0.0379976089
 40
0.1203582723
 40
0.2344388138
 40
0.3693454693
 40
0.674332703
 40
1.0
 40
1.0
 40
1.0
 40
1.0
 10
-14.2599329936
 20
-25.200274093
 30
0.0
 10
-14.2572080207
 20
-25.2025921334
 30
0.0
 10
-14.2496049796
 20
-25.2110481039
 30
0.0
 10
-14.2336726841
 20
-25.2263063623
 30
0.0
 10
-14.2117654307
 20
-25.2485294823
 30
0.0
 10
-14.174800772
 20
-25.2853219081
 30
0.0
 10
-14.1239914528
 20
-25.3364497751
 30
0.0
 10
-14.0817182703
 20
-25.3781497102
 30
0.0
 10
-14.0602070867
 20
-25.4
 30
0.0
 11
-14.2599329936
 21
-25.200274093
 31
0.0
 11
-14.2523499456
 21
-25.2078692547
 31
0.0
 11
-14.2358920096
 21
-25.2243104322
 31
0.0
 11
-14.2131104394
 21
-25.2470985427
 31
0.0
 11
-14.1861644117
 21
-25.2740412255
 31
0.0
 11
-14.1252663329
 21
-25.3349708515
 31
0.0
 11
-14.0602070867
 21
-25.4
 31
0.0
  0
SPLINE
  5
892
100
AcDbEntity
  8
ASSI
100
AcDbSpline
 62
7
  6
CONTINUOUS
 70
0
 71
3
 72
13
 73
9
 74
7
 42
0.0000001
 43
0.0000001
 44
0.0000000001
 12
0.1981579101
 22
0.2012817065
 32
0.0
 13
0.2151429795
 23
0.1830147018
 33
0.0
 40
0.0
 40
0.0
 40
0.0
 40
0.0
 40
0.325667297
 40
0.6306545307
 40
0.7655611862
 40
0.8796417277
 40
0.9620023911
 40
1.0
 40
1.0
 40
1.0
 40
1.0
 10
-8.4397929133
 20
-25.4
 30
0.0
 10
-8.4182817297
 20
-25.3781497102
 30
0.0
 10
-8.3760085472
 20
-25.3364497751
 30
0.0
 10
-8.325199228
 20
-25.2853219081
 30
0.0
 10
-8.2882345693
 20
-25.2485294823
 30
0.0
 10
-8.2663273159
 20
-25.2263063623
 30
0.0
 10
-8.2503950204
 20
-25.2110481039
 30
0.0
 10
-8.2427919793
 20
-25.2025921334
 30
0.0
 10
-8.2400670064
 20
-25.200274093
 30
0.0
 11
-8.4397929133
 21
-25.4
 31
0.0
 11
-8.3747336671
 21
-25.3349708515
 31
0.0
 11
-8.3138355883
 21
-25.2740412255
 31
0.0
 11
-8.2868895606
 21
-25.2470985427
 31
0.0
 11
-8.2641079904
 21
-25.2243104322
 31
0.0
 11
-8.2476500544
 21
-25.2078692547
 31
0.0
 11
-8.2400670064
 21
-25.200274093
 31
0.0
  0
SPLINE
  5
893
100
AcDbEntity
  8
RACCORDO
100
AcDbSpline
 62
7
  6
CONTINUOUS
 70
0
 71
3
 72
9
 73
5
 74
3
 42
0.0000001
 43
0.0000001
 44
0.0000000001
 12
0.0
 22
0.2259575329
 32
0.0
 13
0.2058681046
 23
0.093140379
 33
0.0
 40
0.0
 40
0.0
 40
0.0
 40
0.0
 40
0.5000811872
 40
1.0
 40
1.0
 40
1.0
 40
1.0
 10
24.7497544191
 20
12.7002760419
 30
0.0
 10
24.7497544191
 20
12.7379417457
 30
0.0
 10
24.7721699248
 20
12.8149047756
 30
0.0
 10
24.8332254495
 20
12.8666990869
 30
0.0
 10
24.867531229
 20
12.8822199628
 30
0.0
 11
24.7497544191
 21
12.7002760419
 31
0.0
 11
24.7818367066
 21
12.8086230492
 31
0.0
 11
24.867531229
 21
12.8822199628
 31
0.0
  0
SPLINE
  5
894
100
AcDbEntity
  8
RACCORDO
100
AcDbSpline
 62
7
  6
CONTINUOUS
 70
0
 71
3
 72
9
 73
5
 74
3
 42
0.0000001
 43
0.0000001
 44
0.0000000001
 12
-0.205868111
 22
0.093140382
 32
0.0
 13
0.0
 23
0.22595754
 33
0.0
 40
0.0
 40
0.0
 40
0.0
 40
0.0
 40
0.4999212536
 40
1.0
 40
1.0
 40
1.0
 40
1.0
 10
24.867531229
 20
8.2677800372
 30
0.0
 10
24.8332252809
 20
8.2833009894
 30
0.0
 10
24.7721697706
 20
8.3350954181
 30
0.0
 10
24.7497544191
 20
8.412058437
 30
0.0
 10
24.7497544191
 20
8.4497239581
 30
0.0
 11
24.867531229
 21
8.2677800372
 31
0.0
 11
24.7818363835
 21
8.3413774266
 31
0.0
 11
24.7497544191
 21
8.4497239581
 31
0.0
  0
SPLINE
  5
895
100
AcDbEntity
  8
RACCORDO
100
AcDbSpline
 62
7
  6
CONTINUOUS
 70
0
 71
3
 72
9
 73
5
 74
3
 42
0.0000001
 43
0.0000001
 44
0.0000000001
 12
0.0
 22
-0.2259575329
 32
0.0
 13
-0.2058681046
 23
-0.093140379
 33
0.0
 40
0.0
 40
0.0
 40
0.0
 40
0.0
 40
0.5000811872
 40
1.0
 40
1.0
 40
1.0
 40
1.0
 10
-24.7497544191
 20
-12.7002760419
 30
0.0
 10
-24.7497544191
 20
-12.7379417457
 30
0.0
 10
-24.7721699248
 20
-12.8149047756
 30
0.0
 10
-24.8332254495
 20
-12.8666990869
 30
0.0
 10
-24.867531229
 20
-12.8822199628
 30
0.0
 11
-24.7497544191
 21
-12.7002760419
 31
0.0
 11
-24.7818367066
 21
-12.8086230492
 31
0.0
 11
-24.867531229
 21
-12.8822199628
 31
0.0
  0
SPLINE
  5
896
100
AcDbEntity
  8
RACCORDO
100
AcDbSpline
 62
7
  6
CONTINUOUS
 70
0
 71
3
 72
9
 73
5
 74
3
 42
0.0000001
 43
0.0000001
 44
0.0000000001
 12
0.205868111
 22
-0.093140382
 32
0.0
 13
0.0
 23
-0.22595754
 33
0.0
 40
0.0
 40
0.0
 40
0.0
 40
0.0
 40
0.4999212536
 40
1.0
 40
1.0
 40
1.0
 40
1.0
 10
-24.867531229
 20
-8.2677800372
 30
0.0
 10
-24.8332252809
 20
-8.2833009894
 30
0.0
 10
-24.7721697706
 20
-8.3350954181
 30
0.0
 10
-24.7497544191
 20
-8.412058437
 30
0.0
 10
-24.7497544191
 20
-8.4497239581
 30
0.0
 11
-24.867531229
 21
-8.2677800372
 31
0.0
 11
-24.7818363835
 21
-8.3413774266
 31
0.0
 11
-24.7497544191
 21
-8.4497239581
 31
0.0
  0
SPLINE
  5
897
100
AcDbEntity
  8
RACCORDO
100
AcDbSpline
 62
7
  6
CONTINUOUS
 70
0
 71
3
 72
9
 73
5
 74
3
 42
0.0000001
 43
0.0000001
 44
0.0000000001
 12
0.205868111
 22
-0.093140382
 32
0.0
 13
0.0
 23
-0.22595754
 33
0.0
 40
0.0
 40
0.0
 40
0.0
 40
0.0
 40
0.4999212536
 40
1.0
 40
1.0
 40
1.0
 40
1.0
 10
-24.867531229
 20
12.8822199628
 30
0.0
 10
-24.8332252809
 20
12.8666990106
 30
0.0
 10
-24.7721697706
 20
12.8149045819
 30
0.0
 10
-24.7497544191
 20
12.737941563
 30
0.0
 10
-24.7497544191
 20
12.7002760419
 30
0.0
 11
-24.867531229
 21
12.8822199628
 31
0.0
 11
-24.7818363835
 21
12.8086225734
 31
0.0
 11
-24.7497544191
 21
12.7002760419
 31
0.0
  0
SPLINE
  5
898
100
AcDbEntity
  8
RACCORDO
100
AcDbSpline
 62
7
  6
CONTINUOUS
 70
0
 71
3
 72
9
 73
5
 74
3
 42
0.0000001
 43
0.0000001
 44
0.0000000001
 12
0.0
 22
-0.2259575329
 32
0.0
 13
-0.2058681046
 23
-0.093140379
 33
0.0
 40
0.0
 40
0.0
 40
0.0
 40
0.0
 40
0.5000811872
 40
1.0
 40
1.0
 40
1.0
 40
1.0
 10
-24.7497544191
 20
8.4497239581
 30
0.0
 10
-24.7497544191
 20
8.4120582543
 30
0.0
 10
-24.7721699248
 20
8.3350952244
 30
0.0
 10
-24.8332254495
 20
8.2833009131
 30
0.0
 10
-24.867531229
 20
8.2677800372
 30
0.0
 11
-24.7497544191
 21
8.4497239581
 31
0.0
 11
-24.7818367066
 21
8.3413769508
 31
0.0
 11
-24.867531229
 21
8.2677800372
 31
0.0
  0
LINE
  5
899
100
AcDbEntity
  8
RACCORDO
100
AcDbLine
 62
7
  6
CONTINUOUS
 10
-23.15
 20
25.2
 11
-23.15
 21
25.167531229
  0
LINE
  5
89A
100
AcDbEntity
  8
RACCORDO
100
AcDbLine
 62
7
  6
CONTINUOUS
 10
-24.3676073814
 20
24.7000761524
 11
-24.867531229
 21
25.2
  0
SPLINE
  5
89B
100
AcDbEntity
  8
ASSI
100
AcDbSpline
 62
7
  6
CONTINUOUS
 70
0
 71
3
 72
13
 73
9
 74
7
 42
0.0000001
 43
0.0000001
 44
0.0000000001
 12
0.2151429795
 22
-0.1830147018
 32
0.0
 13
0.1981579101
 23
-0.2012817065
 33
0.0
 40
0.0
 40
0.0
 40
0.0
 40
0.0
 40
0.0379976089
 40
0.1203582723
 40
0.2344388138
 40
0.3693454693
 40
0.674332703
 40
1.0
 40
1.0
 40
1.0
 40
1.0
 10
8.2400670064
 20
-25.200274093
 30
0.0
 10
8.2427919793
 20
-25.2025921334
 30
0.0
 10
8.2503950204
 20
-25.2110481039
 30
0.0
 10
8.2663273159
 20
-25.2263063623
 30
0.0
 10
8.2882345693
 20
-25.2485294823
 30
0.0
 10
8.325199228
 20
-25.2853219081
 30
0.0
 10
8.3760085472
 20
-25.3364497751
 30
0.0
 10
8.4182817297
 20
-25.3781497102
 30
0.0
 10
8.4397929133
 20
-25.4
 30
0.0
 11
8.2400670064
 21
-25.200274093
 31
0.0
 11
8.2476500544
 21
-25.2078692547
 31
0.0
 11
8.2641079904
 21
-25.2243104322
 31
0.0
 11
8.2868895606
 21
-25.2470985427
 31
0.0
 11
8.3138355883
 21
-25.2740412255
 31
0.0
 11
8.3747336671
 21
-25.3349708515
 31
0.0
 11
8.4397929133
 21
-25.4
 31
0.0
  0
SPLINE
  5
89C
100
AcDbEntity
  8
ASSI
100
AcDbSpline
 62
7
  6
CONTINUOUS
 70
0
 71
3
 72
13
 73
9
 74
7
 42
0.0000001
 43
0.0000001
 44
0.0000000001
 12
0.1981579101
 22
0.2012817065
 32
0.0
 13
0.2151429795
 23
0.1830147018
 33
0.0
 40
0.0
 40
0.0
 40
0.0
 40
0.0
 40
0.325667297
 40
0.6306545307
 40
0.7655611862
 40
0.8796417277
 40
0.9620023911
 40
1.0
 40
1.0
 40
1.0
 40
1.0
 10
14.0602070867
 20
-25.4
 30
0.0
 10
14.0817182703
 20
-25.3781497102
 30
0.0
 10
14.1239914528
 20
-25.3364497751
 30
0.0
 10
14.174800772
 20
-25.2853219081
 30
0.0
 10
14.2117654307
 20
-25.2485294823
 30
0.0
 10
14.2336726841
 20
-25.2263063623
 30
0.0
 10
14.2496049796
 20
-25.2110481039
 30
0.0
 10
14.2572080207
 20
-25.2025921334
 30
0.0
 10
14.2599329936
 20
-25.200274093
 30
0.0
 11
14.0602070867
 21
-25.4
 31
0.0
 11
14.1252663329
 21
-25.3349708515
 31
0.0
 11
14.1861644117
 21
-25.2740412255
 31
0.0
 11
14.2131104394
 21
-25.2470985427
 31
0.0
 11
14.2358920096
 21
-25.2243104322
 31
0.0
 11
14.2523499456
 21
-25.2078692547
 31
0.0
 11
14.2599329936
 21
-25.200274093
 31
0.0
  0
SPLINE
  5
89D
100
AcDbEntity
  8
RACCORDO
100
AcDbSpline
 62
253
  6
CONTINUOUS
 70
0
 71
3
 72
15
 73
11
 74
9
 42
0.0000001
 43
0.0000001
 44
0.0000000001
 12
0.5193067171
 22
-0.0367181114
 32
0.0
 13
0.045781787
 23
-0.5185862648
 33
0.0
 40
0.0
 40
0.0
 40
0.0
 40
0.0
 40
0.3669564833
 40
0.5331368905
 40
0.6796103982
 40
0.8013153628
 40
0.8947790722
 40
0.9305467653
 40
0.9592831158
 40
1.0
 40
1.0
 40
1.0
 40
1.0
 10
-24.867531229
 20
7.7733686226
 30
0.0
 10
-24.8040102401
 20
7.7688773063
 30
0.0
 10
-24.711785048
 20
7.7611991014
 30
0.0
 10
-24.5946314347
 20
7.7475590252
 30
0.0
 10
-24.5200529729
 20
7.7364538093
 30
0.0
 10
-24.458528178
 20
7.7239025426
 30
0.0
 10
-24.416643096
 20
7.7116271345
 30
0.0
 10
-24.3916606905
 20
7.6999255718
 30
0.0
 10
-24.3764828459
 20
7.6901627023
 30
0.0
 10
-24.3682284817
 20
7.6793961678
 30
0.0
 10
-24.3676071178
 20
7.6723577621
 30
0.0
 11
-24.867531229
 21
7.7733686226
 31
0.0
 11
-24.6772057738
 21
7.7568758161
 31
0.0
 11
-24.5912948564
 21
7.7466780091
 31
0.0
 11
-24.5159260008
 21
7.735089395
 31
0.0
 11
-24.4539446457
 21
7.7219440395
 31
0.0
 11
-24.407605325
 21
7.7071042207
 31
0.0
 11
-24.3908244025
 21
7.6990336625
 31
0.0
 11
-24.3785130001
 21
7.6905343667
 31
0.0
 11
-24.3676071178
 21
7.6723577621
 31
0.0
  0
ELLIPSE
  5
89E
100
AcDbEntity
  8
RACCORDO
100
AcDbEllipse
 62
7
  6
CONTINUOUS
 10
-22.3420995224
 20
22.2920995224
 30
0.0
 11
0.2121966568
 21
-0.2121966567
 31
0.0
 40
0.9996954599
 41
2.3563467834
 42
3.9268385237
  0
ELLIPSE
  5
89F
100
AcDbEntity
  8
RACCORDO
100
AcDbEllipse
 62
7
  6
CONTINUOUS
 10
-22.3420995224
 20
-22.2920995224
 30
0.0
 11
0.2121966568
 21
0.2121966568
 31
0.0
 40
0.9996954599
 41
-3.9268385237
 42
-2.3563467834
  0
ELLIPSE
  5
8A0
100
AcDbEntity
  8
RACCORDO
100
AcDbEllipse
 62
7
  6
CONTINUOUS
 10
22.3420995224
 20
22.2920995224
 30
0.0
 11
0.2121966568
 21
0.2121966568
 31
0.0
 40
0.9996954599
 41
-0.7852458702
 42
0.7852458701
  0
ELLIPSE
  5
8A1
100
AcDbEntity
  8
RACCORDO
100
AcDbEllipse
 62
7
  6
CONTINUOUS
 10
22.3420995224
 20
-22.2920995224
 30
0.0
 11
0.2121966568
 21
-0.2121966567
 31
0.0
 40
0.9996954599
 41
-0.6852174095
 42
0.7852458702
  0
ELLIPSE
  5
8A2
100
AcDbEntity
  8
RACCORDO
100
AcDbEllipse
 62
7
  6
CONTINUOUS
 10
22.3420995224
 20
-22.2920995224
 30
0.0
 11
-0.2121966568
 21
0.2121966568
 31
0.0
 40
0.9996954599
 41
-3.9268385237
 42
-3.8268100631
  0
ELLIPSE
  5
8A3
100
AcDbEntity
  8
RACCORDO
100
AcDbEllipse
 62
7
  6
CONTINUOUS
 10
-22.436061132
 20
22.386061132
 30
0.0
 11
0.212713873
 21
-0.212713873
 31
0.0
 40
0.9972646886
 41
2.3575640181
 42
3.4300301943
  0
ELLIPSE
  5
8A4
100
AcDbEntity
  8
RACCORDO
100
AcDbEllipse
 62
7
  6
CONTINUOUS
 10
-24.9930941381
 20
-19.743017974
 30
0.0
 11
0.5
 21
-0.0
 31
0.0
 40
0.0174550649
 41
-1.0628603544
 42
-0.0174532925
  0
ELLIPSE
  5
8A5
100
AcDbEntity
  8
RACCORDO
100
AcDbEllipse
 62
7
  6
CONTINUOUS
 10
-24.9930941381
 20
-15.256982026
 30
0.0
 11
0.5
 21
-0.0
 31
0.0
 40
0.0174550649
 41
0.0174532925
 42
1.0628603544
  0
ELLIPSE
  5
8A6
100
AcDbEntity
  8
RACCORDO
100
AcDbEllipse
 62
7
  6
CONTINUOUS
 10
-22.436061132
 20
-22.386061132
 30
0.0
 11
0.212713873
 21
0.212713873
 31
0.0
 40
0.9972646886
 41
2.853154838
 42
3.9256212891
  0
ELLIPSE
  5
8A7
100
AcDbEntity
  8
RACCORDO
100
AcDbEllipse
 62
7
  6
CONTINUOUS
 10
-24.9930941381
 20
15.256982026
 30
0.0
 11
0.5
 21
0.0
 31
0.0
 40
0.0174550649
 41
-1.0628603544
 42
-0.0174532925
  0
ELLIPSE
  5
8A8
100
AcDbEntity
  8
RACCORDO
100
AcDbEllipse
 62
7
  6
CONTINUOUS
 10
-24.9930941381
 20
19.743017974
 30
0.0
 11
0.5
 21
-0.0
 31
0.0
 40
0.0174550649
 41
0.0174532925
 42
1.0628603544
  0
ELLIPSE
  5
8A9
100
AcDbEntity
  8
RACCORDO
100
AcDbEllipse
 62
7
  6
CONTINUOUS
 10
22.436061132
 20
22.386061132
 30
0.0
 11
0.212713873
 21
0.212713873
 31
0.0
 40
0.9972646886
 41
-0.2884375407
 42
0.7840286355
  0
ELLIPSE
  5
8AA
100
AcDbEntity
  8
RACCORDO
100
AcDbEllipse
 62
7
  6
CONTINUOUS
 10
22.436061132
 20
-22.386061132
 30
0.0
 11
0.212713873
 21
-0.212713873
 31
0.0
 40
0.9972646886
 41
-0.7840286355
 42
0.2884375407
  0
ELLIPSE
  5
8AB
100
AcDbEntity
  8
RACCORDO
100
AcDbEllipse
 62
7
  6
CONTINUOUS
 10
24.9930941381
 20
19.743017974
 30
0.0
 11
0.5
 21
0.0
 31
0.0
 40
0.0174550649
 41
2.0787322992
 42
3.1241393611
  0
ELLIPSE
  5
8AC
100
AcDbEntity
  8
RACCORDO
100
AcDbEllipse
 62
7
  6
CONTINUOUS
 10
24.9930941381
 20
15.256982026
 30
0.0
 11
0.5
 21
-0.0
 31
0.0
 40
0.0174550649
 41
-3.1241393611
 42
-2.0787322992
  0
ELLIPSE
  5
8AD
100
AcDbEntity
  8
RACCORDO
100
AcDbEllipse
 62
7
  6
CONTINUOUS
 10
-23.5
 20
19.7482544935
 30
0.0
 11
0.2
 21
-0.0
 31
0.0
 40
0.0174550649
 41
2.0945053725
 42
3.1415926536
  0
ELLIPSE
  5
8AE
100
AcDbEntity
  8
RACCORDO
100
AcDbEllipse
 62
7
  6
CONTINUOUS
 10
24.0755019779
 20
-15.2744370909
 30
0.0
 11
0.4
 21
-0.0
 31
0.0
 40
0.0174550649
 41
-1.5707963268
 42
-0.0174532925
  0
ELLIPSE
  5
8AF
100
AcDbEntity
  8
RACCORDO
100
AcDbEllipse
 62
7
  6
CONTINUOUS
 10
-24.0755019779
 20
-15.2744370909
 30
0.0
 11
0.4
 21
0.0
 31
0.0
 40
0.0174550649
 41
-3.1241393611
 42
-1.5707963268
  0
ELLIPSE
  5
8B0
100
AcDbEntity
  8
RACCORDO
100
AcDbEllipse
 62
7
  6
CONTINUOUS
 10
-23.5
 20
-15.2517455065
 30
0.0
 11
0.2
 21
-0.0
 31
0.0
 40
0.0174550649
 41
2.0945053725
 42
3.1415926536
  0
ELLIPSE
  5
8B1
100
AcDbEntity
  8
RACCORDO
100
AcDbEllipse
 62
7
  6
CONTINUOUS
 10
24.0755019779
 20
-19.7255629091
 30
0.0
 11
0.4
 21
-0.0
 31
0.0
 40
0.0174550649
 41
0.0174532925
 42
1.5707963268
  0
ELLIPSE
  5
8B2
100
AcDbEntity
  8
RACCORDO
100
AcDbEllipse
 62
7
  6
CONTINUOUS
 10
-23.5
 20
-19.7482544935
 30
0.0
 11
0.2
 21
0.0
 31
0.0
 40
0.0174550649
 41
3.1415926536
 42
4.1886799347
  0
ELLIPSE
  5
8B3
100
AcDbEntity
  8
RACCORDO
100
AcDbEllipse
 62
7
  6
CONTINUOUS
 10
-24.0755019779
 20
-19.7255629091
 30
0.0
 11
0.4
 21
-0.0
 31
0.0
 40
0.0174550649
 41
1.5707963268
 42
3.1241393611
  0
ELLIPSE
  5
8B4
100
AcDbEntity
  8
RACCORDO
100
AcDbEllipse
 62
7
  6
CONTINUOUS
 10
-23.5
 20
15.2517455065
 30
0.0
 11
0.2
 21
0.0
 31
0.0
 40
0.0174550649
 41
3.1415926536
 42
4.1886799347
  0
ELLIPSE
  5
8B5
100
AcDbEntity
  8
RACCORDO
100
AcDbEllipse
 62
7
  6
CONTINUOUS
 10
24.9930941381
 20
-15.256982026
 30
0.0
 11
0.5
 21
0.0
 31
0.0
 40
0.0174550649
 41
2.0787322992
 42
3.1241393611
  0
ELLIPSE
  5
8B6
100
AcDbEntity
  8
RACCORDO
100
AcDbEllipse
 62
7
  6
CONTINUOUS
 10
23.5
 20
15.2517455065
 30
0.0
 11
0.2
 21
-0.0
 31
0.0
 40
0.0174550649
 41
-1.0470872811
 42
-0.0
  0
ELLIPSE
  5
8B7
100
AcDbEntity
  8
RACCORDO
100
AcDbEllipse
 62
7
  6
CONTINUOUS
 10
24.0755019779
 20
19.7255629091
 30
0.0
 11
0.4
 21
-0.0
 31
0.0
 40
0.0174550649
 41
-1.5707963268
 42
-0.0174532925
  0
ELLIPSE
  5
8B8
100
AcDbEntity
  8
RACCORDO
100
AcDbEllipse
 62
7
  6
CONTINUOUS
 10
23.5
 20
19.7482544935
 30
0.0
 11
0.2
 21
-0.0
 31
0.0
 40
0.0174550649
 41
0.0
 42
1.0470872811
  0
ELLIPSE
  5
8B9
100
AcDbEntity
  8
RACCORDO
100
AcDbEllipse
 62
7
  6
CONTINUOUS
 10
23.5
 20
-19.7482544935
 30
0.0
 11
0.2
 21
-0.0
 31
0.0
 40
0.0174550649
 41
-1.0470872811
 42
-0.0
  0
ELLIPSE
  5
8BA
100
AcDbEntity
  8
RACCORDO
100
AcDbEllipse
 62
7
  6
CONTINUOUS
 10
23.5
 20
-15.2517455065
 30
0.0
 11
0.2
 21
-0.0
 31
0.0
 40
0.0174550649
 41
-0.0
 42
1.0470872811
  0
ELLIPSE
  5
8BB
100
AcDbEntity
  8
RACCORDO
100
AcDbEllipse
 62
7
  6
CONTINUOUS
 10
22.3731717969
 20
22.3231717969
 30
0.0
 11
0.212713873
 21
0.212713873
 31
0.0
 40
0.9972646886
 41
-0.7840286355
 42
0.7840286355
  0
ELLIPSE
  5
8BC
100
AcDbEntity
  8
RACCORDO
100
AcDbEllipse
 62
7
  6
CONTINUOUS
 10
-24.0755019779
 20
19.7255629091
 30
0.0
 11
0.4
 21
0.0
 31
0.0
 40
0.0174550649
 41
-3.1241393611
 42
-1.5707963268
  0
ELLIPSE
  5
8BD
100
AcDbEntity
  8
RACCORDO
100
AcDbEllipse
 62
7
  6
CONTINUOUS
 10
22.3731717969
 20
-22.3231717969
 30
0.0
 11
0.212713873
 21
-0.212713873
 31
0.0
 40
0.9972646886
 41
0.5732999345
 42
0.7840286355
  0
ELLIPSE
  5
8BE
100
AcDbEntity
  8
RACCORDO
100
AcDbEllipse
 62
7
  6
CONTINUOUS
 10
22.3731717969
 20
-22.3231717969
 30
0.0
 11
-0.212713873
 21
0.212713873
 31
0.0
 40
0.9972646886
 41
-3.9256212891
 42
-2.5682927191
  0
ELLIPSE
  5
8BF
100
AcDbEntity
  8
RACCORDO
100
AcDbEllipse
 62
7
  6
CONTINUOUS
 10
24.0755019779
 20
15.2744370909
 30
0.0
 11
0.4
 21
0.0
 31
0.0
 40
0.0174550649
 41
0.0174532925
 42
1.5707963268
  0
ELLIPSE
  5
8C0
100
AcDbEntity
  8
RACCORDO
100
AcDbEllipse
 62
7
  6
CONTINUOUS
 10
-22.3731717969
 20
-22.3231717969
 30
0.0
 11
0.212713873
 21
0.212713873
 31
0.0
 40
0.9972646886
 41
-3.9256212891
 42
-2.3575640181
  0
ELLIPSE
  5
8C1
100
AcDbEntity
  8
RACCORDO
100
AcDbEllipse
 62
7
  6
CONTINUOUS
 10
-24.0755019779
 20
15.2744370909
 30
0.0
 11
0.4
 21
0.0
 31
0.0
 40
0.0174550649
 41
1.5707963268
 42
3.1241393611
  0
ELLIPSE
  5
8C2
100
AcDbEntity
  8
RACCORDO
100
AcDbEllipse
 62
7
  6
CONTINUOUS
 10
-22.3731717969
 20
22.3231717969
 30
0.0
 11
-0.212713873
 21
0.212713873
 31
0.0
 40
0.9972646886
 41
0.5732999345
 42
0.7840286355
  0
ELLIPSE
  5
8C3
100
AcDbEntity
  8
RACCORDO
100
AcDbEllipse
 62
7
  6
CONTINUOUS
 10
-22.3731717969
 20
22.3231717969
 30
0.0
 11
0.212713873
 21
-0.212713873
 31
0.0
 40
0.9972646886
 41
2.3575640181
 42
3.714892588
  0
ELLIPSE
  5
8C4
100
AcDbEntity
  8
RACCORDO
100
AcDbEllipse
 62
7
  6
CONTINUOUS
 10
24.9930941381
 20
-19.743017974
 30
0.0
 11
0.5
 21
-0.0
 31
0.0
 40
0.0174550649
 41
-3.1241393611
 42
-2.0787322992
  0
ELLIPSE
  5
8C5
100
AcDbEntity
  8
RACCORDO
100
AcDbEllipse
 62
7
  6
CONTINUOUS
 10
-23.0017912049
 20
14.3
 30
0.0
 11
0.3000456984
 21
-0.0
 31
0.0
 40
0.9998476952
 41
-1.5707963268
 42
0.0
  0
ELLIPSE
  5
8C6
100
AcDbEntity
  8
RACCORDO
100
AcDbEllipse
 62
7
  6
CONTINUOUS
 10
23.0017912049
 20
20.7
 30
0.0
 11
0.3000456984
 21
-0.0
 31
0.0
 40
0.9998476952
 41
1.5707963268
 42
3.1415926536
  0
ELLIPSE
  5
8C7
100
AcDbEntity
  8
RACCORDO
100
AcDbEllipse
 62
7
  6
CONTINUOUS
 10
23.0017912049
 20
-14.3
 30
0.0
 11
-0.3000456984
 21
0.0
 31
0.0
 40
0.9998476952
 41
-1.5707963268
 42
0.0
  0
ELLIPSE
  5
8C8
100
AcDbEntity
  8
RACCORDO
100
AcDbEllipse
 62
7
  6
CONTINUOUS
 10
-23.0000456984
 20
22.3
 30
0.0
 11
-0.3000456984
 21
-0.0
 31
0.0
 40
0.9998476952
 41
1.5707963268
 42
3.1415926536
  0
ELLIPSE
  5
8C9
100
AcDbEntity
  8
RACCORDO
100
AcDbEllipse
 62
7
  6
CONTINUOUS
 10
23.0000456984
 20
-22.3
 30
0.0
 11
0.3000456984
 21
0.0
 31
0.0
 40
0.9998476952
 41
1.5707963268
 42
3.1415926536
  0
ELLIPSE
  5
8CA
100
AcDbEntity
  8
RACCORDO
100
AcDbEllipse
 62
7
  6
CONTINUOUS
 10
-7.7
 20
23.0000456984
 30
0.0
 11
-0.0
 21
-0.3000456984
 31
0.0
 40
0.9998476952
 41
-1.5707963268
 42
0.0
  0
ELLIPSE
  5
8CB
100
AcDbEntity
  8
RACCORDO
100
AcDbEllipse
 62
7
  6
CONTINUOUS
 10
-14.8
 20
-23.0000456984
 30
0.0
 11
0.0
 21
0.3000456984
 31
0.0
 40
0.9998476952
 41
-1.5707963268
 42
-0.0
  0
ELLIPSE
  5
8CC
100
AcDbEntity
  8
RACCORDO
100
AcDbEllipse
 62
7
  6
CONTINUOUS
 10
7.7
 20
-23.0000456984
 30
0.0
 11
0.0
 21
0.3000456984
 31
0.0
 40
0.9998476952
 41
-1.5707963268
 42
0.0
  0
ELLIPSE
  5
8CD
100
AcDbEntity
  8
RACCORDO
100
AcDbEllipse
 62
7
  6
CONTINUOUS
 10
-43.3496953439
 20
43.3496953439
 30
0.0
 11
1.4146443783
 21
-1.4146443783
 31
0.0
 40
0.9996954599
 41
2.3563467834
 42
3.9268385237
  0
ELLIPSE
  5
8CE
100
AcDbEntity
  8
RACCORDO
100
AcDbEllipse
 62
7
  6
CONTINUOUS
 10
43.3496953439
 20
43.3496953439
 30
0.0
 11
1.4146443783
 21
1.4146443783
 31
0.0
 40
0.9996954599
 41
-0.7852458701
 42
0.7852458702
  0
ELLIPSE
  5
8CF
100
AcDbEntity
  8
RACCORDO
100
AcDbEllipse
 62
7
  6
CONTINUOUS
 10
43.3496953439
 20
-43.3496953439
 30
0.0
 11
1.4146443783
 21
-1.4146443783
 31
0.0
 40
0.9996954599
 41
-0.7852458702
 42
0.7852458701
  0
ELLIPSE
  5
8D0
100
AcDbEntity
  8
RACCORDO
100
AcDbEllipse
 62
7
  6
CONTINUOUS
 10
-43.3496953439
 20
-43.3496953439
 30
0.0
 11
1.4146443783
 21
1.4146443783
 31
0.0
 40
0.9996954599
 41
-3.9268385237
 42
-2.3563467834
  0
ELLIPSE
  5
8D1
100
AcDbEntity
  8
RACCORDO
100
AcDbEllipse
 62
7
  6
CONTINUOUS
 10
23.0000456984
 20
22.3
 30
0.0
 11
0.3000456984
 21
-0.0
 31
0.0
 40
0.9998476952
 41
-3.1415926536
 42
-1.5707963268
  0
ELLIPSE
  5
8D2
100
AcDbEntity
  8
RACCORDO
100
AcDbEllipse
 62
7
  6
CONTINUOUS
 10
-23.0000456984
 20
-22.3
 30
0.0
 11
-0.3000456984
 21
0.0
 31
0.0
 40
0.9998476952
 41
-3.1415926536
 42
-1.5707963268
  0
ELLIPSE
  5
8D3
100
AcDbEntity
  8
RACCORDO
100
AcDbEllipse
 62
7
  6
CONTINUOUS
 10
23.0000456984
 20
-6.6999543016
 30
0.0
 11
0.2121966568
 21
0.2121966568
 31
0.0
 40
0.9996954599
 41
2.3563467834
 42
3.9268385237
  0
ELLIPSE
  5
8D4
100
AcDbEntity
  8
RACCORDO
100
AcDbEllipse
 62
7
  6
CONTINUOUS
 10
23.0000456984
 20
6.6999543016
 30
0.0
 11
-0.2121966568
 21
0.2121966568
 31
0.0
 40
0.9996954599
 41
-0.7852458701
 42
0.7852458701
  0
ELLIPSE
  5
8D5
100
AcDbEntity
  8
RACCORDO
100
AcDbEllipse
 62
7
  6
CONTINUOUS
 10
-23.0000456984
 20
6.6999543016
 30
0.0
 11
-0.2121966568
 21
-0.2121966568
 31
0.0
 40
0.9996954599
 41
2.3563467834
 42
3.9268385237
  0
ELLIPSE
  5
8D6
100
AcDbEntity
  8
RACCORDO
100
AcDbEllipse
 62
7
  6
CONTINUOUS
 10
-23.0000456984
 20
-6.6999543016
 30
0.0
 11
0.2121966568
 21
-0.2121966568
 31
0.0
 40
0.9996954599
 41
-0.7852458701
 42
0.7852458701
  0
ELLIPSE
  5
8D7
100
AcDbEntity
  8
RACCORDO
100
AcDbEllipse
 62
7
  6
CONTINUOUS
 10
-7.7
 20
-23.0000456984
 30
0.0
 11
-0.0
 21
-0.3000456984
 31
0.0
 40
0.9998476952
 41
3.1415926536
 42
4.7123889804
  0
ELLIPSE
  5
8D8
100
AcDbEntity
  8
RACCORDO
100
AcDbEllipse
 62
7
  6
CONTINUOUS
 10
14.8
 20
-23.0000456984
 30
0.0
 11
-0.0
 21
-0.3000456984
 31
0.0
 40
0.9998476952
 41
3.1415926536
 42
4.7123889804
  0
ELLIPSE
  5
8D9
100
AcDbEntity
  8
RACCORDO
100
AcDbEllipse
 62
7
  6
CONTINUOUS
 10
14.8
 20
23.0000456984
 30
0.0
 11
-0.0
 21
-0.3000456984
 31
0.0
 40
0.9998476952
 41
-1.5707963268
 42
0.0
  0
ELLIPSE
  5
8DA
100
AcDbEntity
  8
RACCORDO
100
AcDbEllipse
 62
7
  6
CONTINUOUS
 10
7.7
 20
23.0000456984
 30
0.0
 11
0.0
 21
0.3000456984
 31
0.0
 40
0.9998476952
 41
3.1415926536
 42
4.7123889804
  0
ELLIPSE
  5
8DB
100
AcDbEntity
  8
RACCORDO
100
AcDbEllipse
 62
7
  6
CONTINUOUS
 10
-14.8
 20
23.0000456984
 30
0.0
 11
0.0
 21
0.3000456984
 31
0.0
 40
0.9998476952
 41
3.1415926536
 42
4.7123889804
  0
ELLIPSE
  5
8DC
100
AcDbEntity
  8
RACCORDO
100
AcDbEllipse
 62
7
  6
CONTINUOUS
 10
23.0017912049
 20
14.3
 30
0.0
 11
-0.3000456984
 21
0.0
 31
0.0
 40
0.9998476952
 41
0.0
 42
1.5707963268
  0
ELLIPSE
  5
8DD
100
AcDbEntity
  8
RACCORDO
100
AcDbEllipse
 62
7
  6
CONTINUOUS
 10
23.0017912049
 20
-20.7
 30
0.0
 11
0.3000456984
 21
-0.0
 31
0.0
 40
0.9998476952
 41
3.1415926536
 42
4.7123889804
  0
ELLIPSE
  5
8DE
100
AcDbEntity
  8
RACCORDO
100
AcDbEllipse
 62
7
  6
CONTINUOUS
 10
-23.0017912049
 20
-14.3
 30
0.0
 11
-0.3000456984
 21
0.0
 31
0.0
 40
0.9998476952
 41
3.1415926536
 42
4.7123889804
  0
ELLIPSE
  5
8DF
100
AcDbEntity
  8
RACCORDO
100
AcDbEllipse
 62
7
  6
CONTINUOUS
 10
-23.0017912049
 20
-20.7
 30
0.0
 11
0.3000456984
 21
-0.0
 31
0.0
 40
0.9998476952
 41
-1.5707963268
 42
0.0
  0
ELLIPSE
  5
8E0
100
AcDbEntity
  8
RACCORDO
100
AcDbEllipse
 62
7
  6
CONTINUOUS
 10
-23.0017912049
 20
20.7
 30
0.0
 11
-0.3000456984
 21
0.0
 31
0.0
 40
0.9998476952
 41
3.1415926536
 42
4.7123889804
  0
ELLIPSE
  5
8E1
100
AcDbEntity
  8
RACCORDO
100
AcDbEllipse
 62
7
  6
CONTINUOUS
 10
24.3587275325
 20
-23.2088036965
 30
0.0
 11
-0.0
 21
0.5
 31
0.0
 40
0.0174550649
 41
-1.5707963268
 42
-0.0174532925
  0
ELLIPSE
  5
8E2
100
AcDbEntity
  8
RACCORDO
100
AcDbEllipse
 62
7
  6
CONTINUOUS
 10
22.9088036965
 20
-24.6587275325
 30
0.0
 11
0.5
 21
0.0
 31
0.0
 40
0.0174550649
 41
-3.1241393611
 42
-1.5707963268
  0
ELLIPSE
  5
8E3
100
AcDbEntity
  8
RACCORDO
100
AcDbEllipse
 62
7
  6
CONTINUOUS
 10
22.9088036965
 20
24.6587275325
 30
0.0
 11
0.5
 21
-0.0
 31
0.0
 40
0.0174550649
 41
1.5707963268
 42
3.1241393611
  0
ELLIPSE
  5
8E4
100
AcDbEntity
  8
RACCORDO
100
AcDbEllipse
 62
7
  6
CONTINUOUS
 10
24.3587275325
 20
23.2088036965
 30
0.0
 11
0.0
 21
0.5
 31
0.0
 40
0.0174550649
 41
-3.1241393611
 42
-1.5707963268
  0
ELLIPSE
  5
8E5
100
AcDbEntity
  8
RACCORDO
100
AcDbEllipse
 62
7
  6
CONTINUOUS
 10
-24.3587275325
 20
23.2088036965
 30
0.0
 11
-0.0
 21
0.5
 31
0.0
 40
0.0174550649
 41
-4.7123889804
 42
-3.1590459461
  0
ELLIPSE
  5
8E6
100
AcDbEntity
  8
RACCORDO
100
AcDbEllipse
 62
7
  6
CONTINUOUS
 10
-22.9088036965
 20
24.6587275325
 30
0.0
 11
0.5
 21
-0.0
 31
0.0
 40
0.0174550649
 41
0.0174532925
 42
1.5707963268
  0
ELLIPSE
  5
8E7
100
AcDbEntity
  8
RACCORDO
100
AcDbEllipse
 62
7
  6
CONTINUOUS
 10
-22.9088036965
 20
-24.6587275325
 30
0.0
 11
0.5
 21
-0.0
 31
0.0
 40
0.0174550649
 41
-1.5707963268
 42
-0.0174532925
  0
ELLIPSE
  5
8E8
100
AcDbEntity
  8
RACCORDO
100
AcDbEllipse
 62
7
  6
CONTINUOUS
 10
-24.3587275325
 20
-23.2088036965
 30
0.0
 11
-0.0
 21
0.5
 31
0.0
 40
0.0174550649
 41
0.0174532925
 42
1.5707963268
  0
ELLIPSE
  5
8E9
100
AcDbEntity
  8
RACCORDO
100
AcDbEllipse
 62
7
  6
CONTINUOUS
 10
-22.7000456984
 20
-23.0000456984
 30
0.0
 11
0.2121966567
 21
0.2121966568
 31
0.0
 40
0.9996954599
 41
-0.7852458702
 42
0.7852458621
  0
ELLIPSE
  5
8EA
100
AcDbEntity
  8
RACCORDO
100
AcDbEllipse
 62
7
  6
CONTINUOUS
 10
-22.7000456984
 20
23.0000456984
 30
0.0
 11
-0.2121966567
 21
0.2121966568
 31
0.0
 40
0.9996954599
 41
-3.9268385237
 42
-2.3563467834
  0
ELLIPSE
  5
8EB
100
AcDbEntity
  8
RACCORDO
100
AcDbEllipse
 62
7
  6
CONTINUOUS
 10
22.7000456984
 20
23.0000456984
 30
0.0
 11
0.2121966568
 21
0.2121966568
 31
0.0
 40
0.9996954599
 41
2.3563467834
 42
3.9268385157
  0
ELLIPSE
  5
8EC
100
AcDbEntity
  8
RACCORDO
100
AcDbEllipse
 62
7
  6
CONTINUOUS
 10
22.7000456984
 20
-23.0000456984
 30
0.0
 11
0.2121966567
 21
-0.2121966568
 31
0.0
 40
0.9996954599
 41
2.3563467835
 42
3.9268385238
  0
ELLIPSE
  5
8ED
100
AcDbEntity
  8
RACCORDO
100
AcDbEllipse
 62
7
  6
CONTINUOUS
 10
-43.3725849548
 20
-43.3725849548
 30
0.0
 11
0.4951255324
 21
0.4951255324
 31
0.0
 40
0.9996954599
 41
-3.9268385238
 42
-2.3563467835
  0
ELLIPSE
  5
8EE
100
AcDbEntity
  8
RACCORDO
100
AcDbEllipse
 62
7
  6
CONTINUOUS
 10
43.3725849548
 20
-43.3725849548
 30
0.0
 11
0.4951255324
 21
-0.4951255324
 31
0.0
 40
0.9996954599
 41
-0.7852458701
 42
0.7852458701
  0
ELLIPSE
  5
8EF
100
AcDbEntity
  8
RACCORDO
100
AcDbEllipse
 62
7
  6
CONTINUOUS
 10
43.3725849548
 20
43.3725849548
 30
0.0
 11
0.4951255324
 21
0.4951255324
 31
0.0
 40
0.9996954599
 41
-0.7852458702
 42
0.7852458701
  0
ELLIPSE
  5
8F0
100
AcDbEntity
  8
RACCORDO
100
AcDbEllipse
 62
7
  6
CONTINUOUS
 10
-43.3725849548
 20
43.3725849548
 30
0.0
 11
-0.4951255324
 21
0.4951255324
 31
0.0
 40
0.9996954599
 41
-0.7852458701
 42
0.7852458702
  0
ELLIPSE
  5
8F1
100
AcDbEntity
  8
DRAFT
100
AcDbEllipse
 62
7
  6
CONTINUOUS
 10
-13.0
 20
-26.8062619734
 30
0.0
 11
-0.0000000005
 21
0.3443368477
 31
0.0
 40
0.9999984769
 41
-4.452275836
 42
-1.8309094739
  0
ELLIPSE
  5
8F2
100
AcDbEntity
  8
DRAFT
100
AcDbEllipse
 62
7
  6
CONTINUOUS
 10
-9.5
 20
-26.8062619734
 30
0.0
 11
0.0
 21
0.3443368477
 31
0.0
 40
0.9999984769
 41
-4.4522758346
 42
-1.8309094725
  0
ELLIPSE
  5
8F3
100
AcDbEntity
  8
DRAFT
100
AcDbEllipse
 62
7
  6
CONTINUOUS
 10
9.5
 20
-26.8062619734
 30
0.0
 11
0.0000000002
 21
0.3443368477
 31
0.0
 40
0.9999984769
 41
-4.452275834
 42
-1.8309094719
  0
ELLIPSE
  5
8F4
100
AcDbEntity
  8
DRAFT
100
AcDbEllipse
 62
7
  6
CONTINUOUS
 10
13.0
 20
-26.8062619734
 30
0.0
 11
0.0
 21
0.3443368477
 31
0.0
 40
0.9999984769
 41
-4.4522758346
 42
-1.8309094725
  0
ELLIPSE
  5
8F5
100
AcDbEntity
  8
DRAFT
100
AcDbEllipse
 62
7
  6
CONTINUOUS
 10
-13.0
 20
26.8062619734
 30
0.0
 11
-0.0
 21
0.3443368477
 31
0.0
 40
0.9999984769
 41
-1.3106831811
 42
1.310683181
  0
ELLIPSE
  5
8F6
100
AcDbEntity
  8
DRAFT
100
AcDbEllipse
 62
7
  6
CONTINUOUS
 10
-9.5
 20
26.8062619734
 30
0.0
 11
0.0000000002
 21
0.3443368477
 31
0.0
 40
0.9999984769
 41
-1.3106831806
 42
1.3106831815
  0
ELLIPSE
  5
8F7
100
AcDbEntity
  8
DRAFT
100
AcDbEllipse
 62
7
  6
CONTINUOUS
 10
9.5
 20
26.8062619734
 30
0.0
 11
-0.0
 21
0.3443368477
 31
0.0
 40
0.9999984769
 41
-1.3106831811
 42
1.3106831811
  0
ELLIPSE
  5
8F8
100
AcDbEntity
  8
DRAFT
100
AcDbEllipse
 62
7
  6
CONTINUOUS
 10
13.0
 20
26.8062619734
 30
0.0
 11
0.0
 21
0.3443368477
 31
0.0
 40
0.9999984769
 41
-1.310683181
 42
1.3106831811
  0
ELLIPSE
  5
8F9
100
AcDbEntity
  8
RACCORDO
100
AcDbEllipse
 62
7
  6
CONTINUOUS
 10
-14.0
 20
-24.2928932188
 30
0.0
 11
0.0
 21
0.7071067812
 31
0.0
 40
0.7071067812
 41
1.5707963268
 42
2.1002075504
  0
ELLIPSE
  5
8FA
100
AcDbEntity
  8
RACCORDO
100
AcDbEllipse
 62
7
  6
CONTINUOUS
 10
-24.3674550649
 20
25.2
 30
0.0
 11
-0.0
 21
0.5
 31
0.0
 40
0.0174550649
 41
-3.1590459461
 42
-3.1415926536
  0
ELLIPSE
  5
8FB
100
AcDbEntity
  8
RACCORDO
100
AcDbEllipse
 62
7
  6
CONTINUOUS
 10
43.3095486946
 20
-43.3095486946
 30
0.0
 11
1.4146443783
 21
-1.4146443783
 31
0.0
 40
0.9996954599
 41
-0.7852458701
 42
0.7852458701
  0
ELLIPSE
  5
8FC
100
AcDbEntity
  8
RACCORDO
100
AcDbEllipse
 62
7
  6
CONTINUOUS
 10
-43.3095486946
 20
-43.3095486946
 30
0.0
 11
-1.4146443783
 21
-1.4146443783
 31
0.0
 40
0.9996954599
 41
-0.7852458701
 42
0.7852458701
  0
ELLIPSE
  5
8FD
100
AcDbEntity
  8
RACCORDO
100
AcDbEllipse
 62
7
  6
CONTINUOUS
 10
24.3674550649
 20
-25.2
 30
0.0
 11
-0.0
 21
0.5
 31
0.0
 40
0.0174550649
 41
-0.0174532925
 42
0.0
  0
ELLIPSE
  5
8FE
100
AcDbEntity
  8
RACCORDO
100
AcDbEllipse
 62
7
  6
CONTINUOUS
 10
14.0
 20
24.2928932188
 30
0.0
 11
-0.0
 21
-0.7071067812
 31
0.0
 40
0.7071067812
 41
1.5707963268
 42
2.1002075504
  0
ELLIPSE
  5
8FF
100
AcDbEntity
  8
RACCORDO
100
AcDbEllipse
 62
7
  6
CONTINUOUS
 10
8.5
 20
-24.2928932188
 30
0.0
 11
0.0
 21
0.7071067812
 31
0.0
 40
0.7071067812
 41
1.5707963268
 42
2.1002075504
  0
ELLIPSE
  5
900
100
AcDbEntity
  8
RACCORDO
100
AcDbEllipse
 62
7
  6
CONTINUOUS
 10
24.3674550649
 20
25.2
 30
0.0
 11
-0.0
 21
0.5
 31
0.0
 40
0.0174550649
 41
-3.1415926536
 42
-3.1241393611
  0
ELLIPSE
  5
901
100
AcDbEntity
  8
RACCORDO
100
AcDbEllipse
 62
7
  6
CONTINUOUS
 10
-43.3095486946
 20
43.3095486946
 30
0.0
 11
-1.4146443783
 21
1.4146443783
 31
0.0
 40
0.9996954599
 41
-0.7852458701
 42
0.7852458701
  0
ELLIPSE
  5
902
100
AcDbEntity
  8
RACCORDO
100
AcDbEllipse
 62
7
  6
CONTINUOUS
 10
43.3095486946
 20
43.3095486946
 30
0.0
 11
1.4146443783
 21
1.4146443783
 31
0.0
 40
0.9996954599
 41
-0.7852458701
 42
0.7852458701
  0
ELLIPSE
  5
903
100
AcDbEntity
  8
RACCORDO
100
AcDbEllipse
 62
7
  6
CONTINUOUS
 10
-24.3674550649
 20
-25.2
 30
0.0
 11
0.0
 21
0.5
 31
0.0
 40
0.0174550649
 41
0.0
 42
0.0174532925
  0
ELLIPSE
  5
904
100
AcDbEntity
  8
RACCORDO
100
AcDbEllipse
 62
7
  6
CONTINUOUS
 10
-8.5
 20
24.2928932188
 30
0.0
 11
-0.0
 21
-0.7071067812
 31
0.0
 40
0.7071067812
 41
1.5707963268
 42
2.1002075504
  0
ELLIPSE
  5
905
100
AcDbEntity
  8
RACCORDO
100
AcDbEllipse
 62
7
  6
CONTINUOUS
 10
-8.5
 20
24.656344058
 30
0.0
 11
0.5
 21
-0.0
 31
0.0
 40
0.0251237258
 41
-0.5294112236
 42
-0.0
  0
ELLIPSE
  5
906
100
AcDbEntity
  8
RACCORDO
100
AcDbEllipse
 62
7
  6
CONTINUOUS
 10
-14.0
 20
24.656344058
 30
0.0
 11
0.5
 21
0.0
 31
0.0
 40
0.0251237258
 41
3.1415926536
 42
3.6710038772
  0
ELLIPSE
  5
907
100
AcDbEntity
  8
RACCORDO
100
AcDbEllipse
 62
7
  6
CONTINUOUS
 10
-14.0
 20
24.2928932188
 30
0.0
 11
0.0
 21
0.7071067812
 31
0.0
 40
0.7071067812
 41
1.0413851032
 42
1.5707963268
  0
ELLIPSE
  5
908
100
AcDbEntity
  8
RACCORDO
100
AcDbEllipse
 62
7
  6
CONTINUOUS
 10
8.5
 20
24.656344058
 30
0.0
 11
0.5
 21
-0.0
 31
0.0
 40
0.0251237258
 41
3.1415926536
 42
3.6710038772
  0
ELLIPSE
  5
909
100
AcDbEntity
  8
RACCORDO
100
AcDbEllipse
 62
7
  6
CONTINUOUS
 10
8.5
 20
24.2928932188
 30
0.0
 11
0.0
 21
0.7071067812
 31
0.0
 40
0.7071067812
 41
1.0413851032
 42
1.5707963268
  0
ELLIPSE
  5
90A
100
AcDbEntity
  8
RACCORDO
100
AcDbEllipse
 62
7
  6
CONTINUOUS
 10
14.0
 20
24.656344058
 30
0.0
 11
0.5
 21
-0.0
 31
0.0
 40
0.0251237258
 41
-0.5294112236
 42
-0.0
  0
ELLIPSE
  5
90B
100
AcDbEntity
  8
RACCORDO
100
AcDbEllipse
 62
7
  6
CONTINUOUS
 10
14.0
 20
-24.656344058
 30
0.0
 11
0.5
 21
0.0
 31
0.0
 40
0.0251237258
 41
6.2831853072
 42
6.8125965308
  0
ELLIPSE
  5
90C
100
AcDbEntity
  8
RACCORDO
100
AcDbEllipse
 62
7
  6
CONTINUOUS
 10
14.0
 20
-24.2928932188
 30
0.0
 11
-0.0
 21
-0.7071067812
 31
0.0
 40
0.7071067812
 41
1.0413851032
 42
1.5707963268
  0
ELLIPSE
  5
90D
100
AcDbEntity
  8
RACCORDO
100
AcDbEllipse
 62
7
  6
CONTINUOUS
 10
-43.3498933704
 20
43.3498933704
 30
0.0
 11
0.4951255324
 21
-0.4951255324
 31
0.0
 40
0.9996954599
 41
2.3563467834
 42
3.9268385237
  0
ELLIPSE
  5
90E
100
AcDbEntity
  8
RACCORDO
100
AcDbEllipse
 62
7
  6
CONTINUOUS
 10
43.3498933704
 20
43.3498933704
 30
0.0
 11
-0.4951255324
 21
-0.4951255324
 31
0.0
 40
0.9996954599
 41
2.3563467834
 42
3.9268385237
  0
ELLIPSE
  5
90F
100
AcDbEntity
  8
RACCORDO
100
AcDbEllipse
 62
7
  6
CONTINUOUS
 10
43.3498933704
 20
-43.3498933704
 30
0.0
 11
0.4951255324
 21
-0.4951255324
 31
0.0
 40
0.9996954599
 41
-0.7852458701
 42
0.7852458701
  0
ELLIPSE
  5
910
100
AcDbEntity
  8
RACCORDO
100
AcDbEllipse
 62
7
  6
CONTINUOUS
 10
-43.3498933704
 20
-43.3498933704
 30
0.0
 11
0.4951255324
 21
0.4951255324
 31
0.0
 40
0.9996954599
 41
2.3563467834
 42
3.9268385237
  0
ELLIPSE
  5
911
100
AcDbEntity
  8
RACCORDO
100
AcDbEllipse
 62
7
  6
CONTINUOUS
 10
8.5
 20
-24.656344058
 30
0.0
 11
0.5
 21
0.0
 31
0.0
 40
0.0251237258
 41
2.61218143
 42
3.1415926536
  0
ELLIPSE
  5
912
100
AcDbEntity
  8
RACCORDO
100
AcDbEllipse
 62
7
  6
CONTINUOUS
 10
-14.0
 20
-24.656344058
 30
0.0
 11
0.5
 21
-0.0
 31
0.0
 40
0.0251237258
 41
2.61218143
 42
3.1415926536
  0
ELLIPSE
  5
913
100
AcDbEntity
  8
RACCORDO
100
AcDbEllipse
 62
7
  6
CONTINUOUS
 10
-8.5
 20
-24.656344058
 30
0.0
 11
0.5
 21
-0.0
 31
0.0
 40
0.0251237258
 41
6.2831853072
 42
6.8125965308
  0
ELLIPSE
  5
914
100
AcDbEntity
  8
RACCORDO
100
AcDbEllipse
 62
7
  6
CONTINUOUS
 10
-8.5
 20
-24.2928932188
 30
0.0
 11
-0.0
 21
-0.7071067812
 31
0.0
 40
0.7071067812
 41
1.0413851032
 42
1.5707963268
  0
ELLIPSE
  5
915
100
AcDbEntity
  8
ASSI
100
AcDbEllipse
 62
7
  6
CONTINUOUS
 10
-8.2395184441
 20
25.4
 30
0.0
 11
0.0
 21
0.2
 31
0.0
 40
0.0524077793
 41
-3.1939525311
 42
-3.1415926536
  0
ELLIPSE
  5
916
100
AcDbEntity
  8
ASSI
100
AcDbEllipse
 62
7
  6
CONTINUOUS
 10
-14.2604815559
 20
25.4
 30
0.0
 11
-0.0
 21
0.2
 31
0.0
 40
0.0524077793
 41
-3.1415926536
 42
-3.089232776
  0
ELLIPSE
  5
917
100
AcDbEntity
  8
ASSI
100
AcDbEllipse
 62
7
  6
CONTINUOUS
 10
-8.4397929133
 20
25.9914384441
 30
0.0
 11
-0.1999983076
 21
0.2000050771
 31
0.0
 40
0.0041137573
 41
-4.7082751071
 42
-3.1898386578
  0
ELLIPSE
  5
918
100
AcDbEntity
  8
ASSI
100
AcDbEllipse
 62
7
  6
CONTINUOUS
 10
-14.0602070867
 20
25.9914384441
 30
0.0
 11
0.1999983076
 21
0.2000050771
 31
0.0
 40
0.0041137573
 41
-3.0933466494
 42
-1.5749102001
  0
ELLIPSE
  5
919
100
AcDbEntity
  8
ASSI
100
AcDbEllipse
 62
7
  6
CONTINUOUS
 10
14.2604815559
 20
25.4
 30
0.0
 11
0.0
 21
0.2
 31
0.0
 40
0.0524077793
 41
-3.1939525311
 42
-3.1415926536
  0
ELLIPSE
  5
91A
100
AcDbEntity
  8
ASSI
100
AcDbEllipse
 62
7
  6
CONTINUOUS
 10
8.2395184441
 20
25.4
 30
0.0
 11
0.0
 21
0.2
 31
0.0
 40
0.0524077793
 41
-3.1415926536
 42
-3.089232776
  0
ELLIPSE
  5
91B
100
AcDbEntity
  8
ASSI
100
AcDbEllipse
 62
7
  6
CONTINUOUS
 10
14.0602070867
 20
25.9914384441
 30
0.0
 11
-0.1999983076
 21
0.2000050771
 31
0.0
 40
0.0041137573
 41
-4.7082751071
 42
-3.1898386578
  0
ELLIPSE
  5
91C
100
AcDbEntity
  8
ASSI
100
AcDbEllipse
 62
7
  6
CONTINUOUS
 10
8.4397929133
 20
25.9914384441
 30
0.0
 11
0.1999983076
 21
0.2000050771
 31
0.0
 40
0.0041137573
 41
-3.0933466494
 42
-1.5749102001
  0
ELLIPSE
  5
91D
100
AcDbEntity
  8
RACCORDO
100
AcDbEllipse
 62
7
  6
CONTINUOUS
 10
25.5499695344
 20
-8.4500304656
 30
0.0
 11
0.1414644378
 21
0.1414644378
 31
0.0
 40
0.9996954599
 41
-0.7852458702
 42
0.7852458701
  0
ELLIPSE
  5
91E
100
AcDbEntity
  8
RACCORDO
100
AcDbEllipse
 62
7
  6
CONTINUOUS
 10
24.9500304656
 20
-8.4500304656
 30
0.0
 11
-0.1414644378
 21
0.1414644378
 31
0.0
 40
0.9996954599
 41
-0.7852458701
 42
-0.3604268839
  0
ELLIPSE
  5
91F
100
AcDbEntity
  8
ASSI
100
AcDbEllipse
 62
7
  6
CONTINUOUS
 10
-14.2604815559
 20
-25.4
 30
0.0
 11
-0.0
 21
0.2
 31
0.0
 40
0.0524077793
 41
-0.0523598776
 42
0.0
  0
ELLIPSE
  5
920
100
AcDbEntity
  8
RACCORDO
100
AcDbEllipse
 62
7
  6
CONTINUOUS
 10
24.9500304656
 20
-12.6999695344
 30
0.0
 11
0.1414644378
 21
0.1414644378
 31
0.0
 40
0.9996954599
 41
-2.7811657696
 42
-2.3563467834
  0
ELLIPSE
  5
921
100
AcDbEntity
  8
ASSI
100
AcDbEllipse
 62
7
  6
CONTINUOUS
 10
-8.2395184441
 20
-25.4
 30
0.0
 11
0.0
 21
0.2
 31
0.0
 40
0.0524077793
 41
-0.0
 42
0.0523598776
  0
ELLIPSE
  5
922
100
AcDbEntity
  8
ASSI
100
AcDbEllipse
 62
7
  6
CONTINUOUS
 10
-14.0602070867
 20
-25.9914384441
 30
0.0
 11
-0.1999983076
 21
0.2000050771
 31
0.0
 40
0.0041137573
 41
-1.5666824535
 42
-0.0482460042
  0
ELLIPSE
  5
923
100
AcDbEntity
  8
ASSI
100
AcDbEllipse
 62
7
  6
CONTINUOUS
 10
-8.4397929133
 20
-25.9914384441
 30
0.0
 11
0.1999983076
 21
0.2000050771
 31
0.0
 40
0.0041137573
 41
0.0482460042
 42
1.5666824535
  0
ELLIPSE
  5
924
100
AcDbEntity
  8
RACCORDO
100
AcDbEllipse
 62
7
  6
CONTINUOUS
 10
25.5499695344
 20
-12.6999695344
 30
0.0
 11
-0.1414644378
 21
0.1414644378
 31
0.0
 40
0.9996954599
 41
-3.9268385237
 42
-2.3563467834
  0
ELLIPSE
  5
925
100
AcDbEntity
  8
RACCORDO
100
AcDbEllipse
 62
7
  6
CONTINUOUS
 10
25.5499695344
 20
12.6999695344
 30
0.0
 11
0.1414644378
 21
0.1414644378
 31
0.0
 40
0.9996954599
 41
-0.7852458702
 42
0.7852458701
  0
ELLIPSE
  5
926
100
AcDbEntity
  8
RACCORDO
100
AcDbEllipse
 62
7
  6
CONTINUOUS
 10
24.9500304656
 20
12.6999695344
 30
0.0
 11
-0.1414644378
 21
0.1414644378
 31
0.0
 40
0.9996954599
 41
-0.7852458701
 42
-0.3604268839
  0
ELLIPSE
  5
927
100
AcDbEntity
  8
RACCORDO
100
AcDbEllipse
 62
7
  6
CONTINUOUS
 10
25.5499695344
 20
8.4500304656
 30
0.0
 11
-0.1414644378
 21
0.1414644378
 31
0.0
 40
0.9996954599
 41
-3.9268385237
 42
-2.3563467834
  0
ELLIPSE
  5
928
100
AcDbEntity
  8
RACCORDO
100
AcDbEllipse
 62
7
  6
CONTINUOUS
 10
24.9500304656
 20
8.4500304656
 30
0.0
 11
0.1414644378
 21
0.1414644378
 31
0.0
 40
0.9996954599
 41
-2.7811657697
 42
-2.3563467834
  0
ELLIPSE
  5
929
100
AcDbEntity
  8
RACCORDO
100
AcDbEllipse
 62
7
  6
CONTINUOUS
 10
-25.5499695344
 20
-12.6999695344
 30
0.0
 11
0.1414644378
 21
0.1414644378
 31
0.0
 40
0.9996954599
 41
2.3563467835
 42
3.9268385238
  0
ELLIPSE
  5
92A
100
AcDbEntity
  8
RACCORDO
100
AcDbEllipse
 62
7
  6
CONTINUOUS
 10
-24.9500304656
 20
-12.6999695344
 30
0.0
 11
-0.1414644378
 21
0.1414644378
 31
0.0
 40
0.9996954599
 41
-3.9268385237
 42
-3.5020195375
  0
ELLIPSE
  5
92B
100
AcDbEntity
  8
RACCORDO
100
AcDbEllipse
 62
7
  6
CONTINUOUS
 10
-25.5499695344
 20
-8.4500304656
 30
0.0
 11
-0.1414644378
 21
0.1414644378
 31
0.0
 40
0.9996954599
 41
-0.7852458701
 42
0.7852458702
  0
ELLIPSE
  5
92C
100
AcDbEntity
  8
RACCORDO
100
AcDbEllipse
 62
7
  6
CONTINUOUS
 10
-24.9500304656
 20
-8.4500304656
 30
0.0
 11
0.1414644378
 21
0.1414644378
 31
0.0
 40
0.9996954599
 41
0.3604268839
 42
0.7852458701
  0
ELLIPSE
  5
92D
100
AcDbEntity
  8
RACCORDO
100
AcDbEllipse
 62
7
  6
CONTINUOUS
 10
-24.9500304656
 20
12.6999695344
 30
0.0
 11
0.1414644378
 21
0.1414644378
 31
0.0
 40
0.9996954599
 41
0.3604268839
 42
0.7852458701
  0
ELLIPSE
  5
92E
100
AcDbEntity
  8
RACCORDO
100
AcDbEllipse
 62
7
  6
CONTINUOUS
 10
-25.5499695344
 20
12.6999695344
 30
0.0
 11
0.1414644378
 21
-0.1414644378
 31
0.0
 40
0.9996954599
 41
2.3563467834
 42
3.9268385237
  0
ELLIPSE
  5
92F
100
AcDbEntity
  8
RACCORDO
100
AcDbEllipse
 62
7
  6
CONTINUOUS
 10
-25.5499695344
 20
8.4500304656
 30
0.0
 11
0.1414644378
 21
0.1414644378
 31
0.0
 40
0.9996954599
 41
-3.9268385238
 42
-2.3563467835
  0
ELLIPSE
  5
930
100
AcDbEntity
  8
RACCORDO
100
AcDbEllipse
 62
7
  6
CONTINUOUS
 10
-24.9500304656
 20
8.4500304656
 30
0.0
 11
-0.1414644378
 21
0.1414644378
 31
0.0
 40
0.9996954599
 41
-3.9268385237
 42
-3.5020195375
  0
ELLIPSE
  5
931
100
AcDbEntity
  8
ASSI
100
AcDbEllipse
 62
7
  6
CONTINUOUS
 10
8.2395184441
 20
-25.4
 30
0.0
 11
0.0
 21
0.2
 31
0.0
 40
0.0524077793
 41
-0.0523598776
 42
-0.0
  0
ELLIPSE
  5
932
100
AcDbEntity
  8
ASSI
100
AcDbEllipse
 62
7
  6
CONTINUOUS
 10
14.2604815559
 20
-25.4
 30
0.0
 11
-0.0
 21
0.2
 31
0.0
 40
0.0524077793
 41
0.0
 42
0.0523598776
  0
ELLIPSE
  5
933
100
AcDbEntity
  8
ASSI
100
AcDbEllipse
 62
7
  6
CONTINUOUS
 10
8.4397929133
 20
-25.9914384441
 30
0.0
 11
-0.1999983076
 21
0.2000050771
 31
0.0
 40
0.0041137573
 41
-1.5666824535
 42
-0.0482460042
  0
ELLIPSE
  5
934
100
AcDbEntity
  8
ASSI
100
AcDbEllipse
 62
7
  6
CONTINUOUS
 10
14.0602070867
 20
-25.9914384441
 30
0.0
 11
0.1999983076
 21
0.2000050771
 31
0.0
 40
0.0041137573
 41
0.0482460042
 42
1.5666824535
  0
ENDSEC
  0
SECTION
  2
OBJECTS
  0
DICTIONARY
  5
C
100
AcDbDictionary
280
0
281
1
  3
ACAD_GROUP
350
D
  3
ACAD_MLINESTYLE
350
17
  3
ACAD_LAYOUT
350
1A
  3
ACAD_PLOTSETTINGS
350
19
  3
ACAD_PLOTSTYLENAME
350
E
  0
DICTIONARY
  5
D
102
{ACAD_REACTORS
330
C
102
}
100
AcDbDictionary
280
0
281
1
  0
ACDBDICTIONARYWDFLT
  5
E
102
{ACAD_REACTORS
330
C
102
}
100
AcDbDictionary
281
1
  3
Normal
350
F
100
AcDbDictionaryWithDefault
340
F
  0
DICTIONARY
  5
17
102
{ACAD_REACTORS
330
C
102
}
100
AcDbDictionary
280
0
281
1
  3
Standard
350
18
  0
DICTIONARY
  5
19
102
{ACAD_REACTORS
330
C
102
}
100
AcDbDictionary
281
1
  0
DICTIONARY
  5
1A
102
{ACAD_REACTORS
330
C
102
}
100
AcDbDictionary
281
1
  3
Model
350
935
  3
Layout1
350
936
  0
ACDBPLACEHOLDER
  5
F
102
{ACAD_REACTORS
330
E
102
}
  0
MLINESTYLE
  5
18
102
{ACAD_REACTORS
330
17
102
}
100
AcDbMlineStyle
  2
STANDARD
 70
0
  3

 62
256
 51
90.0
 52
90.0
 71
2
 49
0.5
 62
256
  6
BYLAYER
 49
-0.5
 62
256
  6
BYLAYER
  0
LAYOUT
  5
935
102
{ACAD_REACTORS
330
1A
102
}
100
AcDbPlotSettings
  1

  2
none_device
  4
ISO_A4_(297.00_x_210.00_MM)
  6

 40
0.0
 41
0.0
 42
0.0
 43
0.0
 44
297.0
 45
210.0
 46
0.0
 47
0.0
 48
0.0
 49
0.0
140
0.0
141
0.0
142
1.0
143
1.0
 70
1024
 72
1
 73
0
 74
0
  7

 75
0
147
1.0
148
0.0
149
0.0
100
AcDbLayout
  1
Model
 70
0
 71
0
 10
0.0
 20
0.0
 11
297.0
 21
210.0
 12
0.0
 22
0.0
 32
0.0
 14
0.0
 24
0.0
 34
0.0
 15
0.0
 25
0.0
 35
0.0
146
0.0
 13
0.0
 23
0.0
 33
0.0
 16
1.0
 26
0.0
 36
0.0
 17
0.0
 27
1.0
 37
0.0
 76
0
330
212
345
0
346
0
  0
LAYOUT
  5
936
102
{ACAD_REACTORS
330
1A
102
}
100
AcDbPlotSettings
  1

  2
none_device
  4
ISO_A4_(297.00_x_210.00_MM)
  6

 40
0.0
 41
0.0
 42
0.0
 43
0.0
 44
297.0
 45
210.0
 46
0.0
 47
0.0
 48
0.0
 49
0.0
140
0.0
141
0.0
142
1.0
143
1.0
 70
0
 72
1
 73
0
 74
0
  7

 75
0
147
1.0
148
0.0
149
0.0
100
AcDbLayout
  1
Layout1
 70
0
 71
1
 10
0.0
 20
0.0
 11
297.0
 21
210.0
 12
0.0
 22
0.0
 32
0.0
 14
0.0
 24
0.0
 34
0.0
 15
0.0
 25
0.0
 35
0.0
146
0.0
 13
0.0
 23
0.0
 33
0.0
 16
1.0
 26
0.0
 36
0.0
 17
0.0
 27
1.0
 37
0.0
 76
0
330
213
345
0
346
0
  0
ENDSEC
  0
EOF
