  0
SECTION
  2
HEADER
  9
$ACADVER
  1
AC1015
  9
$DWGCODEPAGE
  3
ANSI_1252
  9
$EXTMAX
 10
297.0
 20
210.0
 30
0.0
  9
$EXTMIN
 10
0.0
 20
0.0
 30
0.0
  9
$LIMMIN
 10
0.0
 20
0.0
  9
$LIMMAX
 10
297.0
 20
210.0
  9
$VIEWCTR
 10
148.5
 20
105.0
  9
$VIEWSIZE
 40
210.0
  9
$CLAYER
  8
0
  9
$LTSCALE
 40
16.335
  9
$CELTYPE
  6
BYLAYER
  9
$DIMSCALE
 40
1.0
  9
$DIMASZ
 40
3.0
  9
$DIMEXO
 40
1.85625
  9
$DIMDLI
 40
11.286
  9
$DIMEXE
 40
5.346
  9
$DIMCEN
 40
2.673
  9
$DIMLFAC
 40
1.0
  9
$DIMBLK
  1
_FILLED
  9
$DIMTXT
 40
3.0
  9
$DIMTOL
 70
1
  9
$DIMLIM
 70
0
  9
$DIMTFAC
 40
1.0
  9
$DIMTP
 40
0.01
  9
$DIMTM
 40
0.01
  9
$PDMODE
 70
3
  9
$PDSIZE
 40
3.0
  9
$HANDSEED
  5
A41
  9
$TILEMODE
 70
1
  9
$MEASUREMENT
 70
1
  9
$INSUNITS
 70
4
  0
ENDSEC
  0
SECTION
  2
CLASSES
  0
CLASS
  1
ACDBDICTIONARYWDFLT
  2
AcDbDictionaryWithDefault
  3
AutoCAD 2000
 90
0
280
0
281
0
  0
CLASS
  1
ACDBPLACEHOLDER
  2
AcDbPlaceHolder
  3
AutoCAD 2000
 90
0
280
0
281
0
  0
CLASS
  1
LAYOUT
  2
AcDbLayout
  3
AutoCAD 2000
 90
0
280
0
281
0
  0
ENDSEC
  0
SECTION
  2
TABLES
  0
TABLE
  2
VPORT
  5
8
100
AcDbSymbolTable
 70
2
  0
VPORT
  5
1F4
100
AcDbSymbolTableRecord
100
AcDbViewportTableRecord
  2
*ACTIVE
 70
0
 10
0.0
 20
0.0
 11
1.0
 21
1.0
 12
148.5
 22
105.0
 13
0.0
 23
0.0
 14
1.0
 24
1.0
 15
0.0
 25
0.0
 16
0.0
 26
0.0
 36
1.0
 17
0.0
 27
0.0
 37
0.0
 40
210.0
 41
1.4142857143
 42
50.0
 43
0.0
 44
0.0
 50
0.0
 51
0.0
 71
0
 72
100
 73
1
 74
1
 75
0
 76
0
 77
0
 78
0
  0
ENDTAB
  0
TABLE
  2
LTYPE
  5
5
100
AcDbSymbolTable
 70
6
  0
LTYPE
  5
14
100
AcDbSymbolTableRecord
100
AcDbLinetypeTableRecord
  2
BYBLOCK
 70
0
  3

 72
65
 73
0
 40
0.0
  0
LTYPE
  5
15
100
AcDbSymbolTableRecord
100
AcDbLinetypeTableRecord
  2
BYLAYER
 70
0
  3

 72
65
 73
0
 40
0.0
  0
LTYPE
  5
16
100
AcDbSymbolTableRecord
100
AcDbLinetypeTableRecord
  2
CONTINUOUS
 70
64
  3
Solid line
 72
65
 73
0
 40
0.0
  0
LTYPE
  5
1F5
100
AcDbSymbolTableRecord
100
AcDbLinetypeTableRecord
  2
CENTER
 70
64
  3
____ _ ____ _ ____ _ ____ _ ____ _ ____ _ ____
 72
65
 73
4
 40
0.6
 49
0.375
 74
0
 49
-0.075
 74
0
 49
0.075
 74
0
 49
-0.075
 74
0
  0
LTYPE
  5
1F6
100
AcDbSymbolTableRecord
100
AcDbLinetypeTableRecord
  2
HIDDEN
 70
64
  3
- - - - - - - - - - - - - - - - - - - -
 72
65
 73
2
 40
0.2
 49
0.1
 74
0
 49
-0.1
 74
0
  0
LTYPE
  5
1F7
100
AcDbSymbolTableRecord
100
AcDbLinetypeTableRecord
  2
PHANTOM
 70
64
  3
_____ _ _ _____ _ _ _____ _ _ _____
 72
65
 73
6
 40
0.8
 49
0.45
 74
0
 49
-0.05
 74
0
 49
0.1
 74
0
 49
-0.05
 74
0
 49
0.1
 74
0
 49
-0.05
 74
0
  0
LTYPE
  5
1F8
100
AcDbSymbolTableRecord
100
AcDbLinetypeTableRecord
  2
DOT
 70
64
  3
. . . . . . . . . . . . . . . . . . . .
 72
65
 73
2
 40
0.2
 49
0.1
 74
0
 49
-0.1
 74
0
  0
LTYPE
  5
1F9
100
AcDbSymbolTableRecord
100
AcDbLinetypeTableRecord
  2
DASHED
 70
64
  3
- - - - - - - - - - - - - - - - - - - -
 72
65
 73
2
 40
0.2
 49
0.1
 74
0
 49
-0.1
 74
0
  0
ENDTAB
  0
TABLE
  2
LAYER
  5
2
100
AcDbSymbolTable
 70
36
  0
LAYER
  5
10
100
AcDbSymbolTableRecord
100
AcDbLayerTableRecord
  2
0
 70
0
 62
7
  6
CONTINUOUS
370
-3
390
F
  0
LAYER
  5
1FA
100
AcDbSymbolTableRecord
100
AcDbLayerTableRecord
  2
DEFAULT_1
 70
0
 62
7
  6
CENTER
370
-3
390
F
  0
LAYER
  5
1FB
100
AcDbSymbolTableRecord
100
AcDbLayerTableRecord
  2
DEFAULT_2
 70
0
 62
7
  6
HIDDEN
370
-3
390
F
  0
LAYER
  5
1FC
100
AcDbSymbolTableRecord
100
AcDbLayerTableRecord
  2
DEFAULT_3
 70
0
 62
7
  6
PHANTOM
370
-3
390
F
  0
LAYER
  5
1FD
100
AcDbSymbolTableRecord
100
AcDbLayerTableRecord
  2
ASSI
 70
0
 62
7
  6
CONTINUOUS
370
-3
390
F
  0
LAYER
  5
1FE
100
AcDbSymbolTableRecord
100
AcDbLayerTableRecord
  2
COORDINATE
 70
0
 62
7
  6
CONTINUOUS
370
-3
390
F
  0
LAYER
  5
1FF
100
AcDbSymbolTableRecord
100
AcDbLayerTableRecord
  2
COORD_ORIGINE
 70
0
 62
7
  6
CONTINUOUS
370
-3
390
F
  0
LAYER
  5
200
100
AcDbSymbolTableRecord
100
AcDbLayerTableRecord
  2
COPY_PUBLISH
 70
0
 62
7
  6
CONTINUOUS
370
-3
390
F
  0
LAYER
  5
201
100
AcDbSymbolTableRecord
100
AcDbLayerTableRecord
  2
COSMETIC
 70
0
 62
7
  6
CONTINUOUS
370
-3
390
F
  0
LAYER
  5
202
100
AcDbSymbolTableRecord
100
AcDbLayerTableRecord
  2
CURVE
 70
0
 62
7
  6
CONTINUOUS
370
-3
390
F
  0
LAYER
  5
203
100
AcDbSymbolTableRecord
100
AcDbLayerTableRecord
  2
DRAFT
 70
0
 62
7
  6
CONTINUOUS
370
-3
390
F
  0
LAYER
  5
204
100
AcDbSymbolTableRecord
100
AcDbLayerTableRecord
  2
IMPORT_IGES
 70
0
 62
7
  6
CONTINUOUS
370
-3
390
F
  0
LAYER
  5
205
100
AcDbSymbolTableRecord
100
AcDbLayerTableRecord
  2
INTFCLR_2
 70
0
 62
7
  6
CONTINUOUS
370
-3
390
F
  0
LAYER
  5
206
100
AcDbSymbolTableRecord
100
AcDbLayerTableRecord
  2
PIANI
 70
0
 62
7
  6
CONTINUOUS
370
-3
390
F
  0
LAYER
  5
207
100
AcDbSymbolTableRecord
100
AcDbLayerTableRecord
  2
PIANI_ORIGINE
 70
0
 62
7
  6
CONTINUOUS
370
-3
390
F
  0
LAYER
  5
208
100
AcDbSymbolTableRecord
100
AcDbLayerTableRecord
  2
PIANI_RIFERIMENTO
 70
0
 62
7
  6
CONTINUOUS
370
-3
390
F
  0
LAYER
  5
209
100
AcDbSymbolTableRecord
100
AcDbLayerTableRecord
  2
PUNTI
 70
0
 62
7
  6
CONTINUOUS
370
-3
390
F
  0
LAYER
  5
20A
100
AcDbSymbolTableRecord
100
AcDbLayerTableRecord
  2
RACCORDO
 70
0
 62
7
  6
CONTINUOUS
370
-3
390
F
  0
LAYER
  5
20B
100
AcDbSymbolTableRecord
100
AcDbLayerTableRecord
  2
SMUSSO
 70
0
 62
7
  6
CONTINUOUS
370
-3
390
F
  0
LAYER
  5
20C
100
AcDbSymbolTableRecord
100
AcDbLayerTableRecord
  2
SNAPLINE
 70
0
 62
7
  6
CONTINUOUS
370
-3
390
F
  0
LAYER
  5
20D
100
AcDbSymbolTableRecord
100
AcDbLayerTableRecord
  2
SUPERFICI
 70
0
 62
7
  6
CONTINUOUS
370
-3
390
F
  0
LAYER
  5
20E
100
AcDbSymbolTableRecord
100
AcDbLayerTableRecord
  2
TRASH
 70
0
 62
7
  6
CONTINUOUS
370
-3
390
F
  0
LAYER
  5
20F
100
AcDbSymbolTableRecord
100
AcDbLayerTableRecord
  2
XSEC_DATUMS
 70
0
 62
7
  6
CONTINUOUS
370
-3
390
F
  0
ENDTAB
  0
TABLE
  2
STYLE
  5
3
100
AcDbSymbolTable
 70
1
  0
STYLE
  5
11
100
AcDbSymbolTableRecord
100
AcDbTextStyleTableRecord
  2
STANDARD
 70
0
 40
0.0
 41
0.8
 50
0.0
 71
0
 42
0.2
  3
txt
  4

  0
STYLE
  5
210
100
AcDbSymbolTableRecord
100
AcDbTextStyleTableRecord
  2
TEXTSTYLE_1
 70
0
 40
0.0
 41
0.8
 50
0.0
 71
0
 42
0.2
  3
gdt
  4

  0
ENDTAB
  0
TABLE
  2
VIEW
  5
6
100
AcDbSymbolTable
 70
0
  0
ENDTAB
  0
TABLE
  2
UCS
  5
7
100
AcDbSymbolTable
 70
0
  0
ENDTAB
  0
TABLE
  2
APPID
  5
9
100
AcDbSymbolTable
 70
1
  0
APPID
  5
211
100
AcDbSymbolTableRecord
100
AcDbRegAppTableRecord
  2
ACAD
 70
0
  0
ENDTAB
  0
TABLE
  2
BLOCK_RECORD
  5
1
100
AcDbSymbolTable
 70
0
  0
BLOCK_RECORD
  5
212
100
AcDbSymbolTableRecord
100
AcDbBlockTableRecord
  2
*Model_Space
  0
BLOCK_RECORD
  5
213
100
AcDbSymbolTableRecord
100
AcDbBlockTableRecord
  2
*Paper_Space
  0
ENDTAB
  0
TABLE
  2
DIMSTYLE
  5
A
100
AcDbSymbolTable
 70
1
100
AcDbDimStyleTable
 71
0
  0
DIMSTYLE
105
214
100
AcDbSymbolTableRecord
100
AcDbDimStyleTableRecord
  2
STANDARD
 70
0
  3

  4

 40
1.0
 41
3.0
 42
0.0625
 43
0.38
 44
0.18
 45
0.0
 46
0.0
 47
0.01
 48
0.01
140
3.0
141
0.09
142
0.0
143
25.4
144
1.0
145
0.0
146
1.0
147
0.09
 71
1.0
 72
0.0
 73
0
 74
0
 75
0
 76
0
 77
1
 78
8
170
0
171
2
172
0
173
0
174
0
175
0
176
0
177
0
178
0
270
2
271
2
272
2
273
2
274
2
275
0
280
0
281
0
282
0
283
1
284
8
285
0
286
0
287
3
288
0
340
11
  0
ENDTAB
  0
ENDSEC
  0
SECTION
  2
BLOCKS
  0
BLOCK
  5
20
100
AcDbEntity
  8
0
100
AcDbBlockBegin
  2
*Model_Space
 70
0
 10
0.0
 20
0.0
 30
0.0
  3
*Model_Space
  1

  0
ENDBLK
  5
21
100
AcDbEntity
  8
0
100
AcDbBlockEnd
  0
BLOCK
  5
1C
100
AcDbEntity
  8
0
100
AcDbBlockBegin
  2
*Paper_Space
 70
0
 10
0.0
 20
0.0
 30
0.0
  3
*Paper_Space
  1

  0
ENDBLK
  5
1D
100
AcDbEntity
  8
0
100
AcDbBlockEnd
  0
ENDSEC
  0
SECTION
  2
ENTITIES
  0
LINE
  5
215
100
AcDbEntity
  8
SMUSSO
100
AcDbLine
 62
7
  6
CONTINUOUS
 10
-47.7000000004
 20
46.7
 11
-47.7000000004
 21
-46.7
  0
LINE
  5
216
100
AcDbEntity
  8
DRAFT
100
AcDbLine
 62
7
  6
CONTINUOUS
 10
-47.6500000004
 20
46.150000001
 11
-47.6500000004
 21
-46.15
  0
LINE
  5
217
100
AcDbEntity
  8
SMUSSO
100
AcDbLine
 62
253
  6
CONTINUOUS
 10
-46.7000000004
 20
-47.5448617257
 11
-46.7000000004
 21
-47.7
  0
LINE
  5
218
100
AcDbEntity
  8
SMUSSO
100
AcDbLine
 62
253
  6
CONTINUOUS
 10
-46.7000000004
 20
47.5448617253
 11
-46.7000000004
 21
47.7
  0
LINE
  5
219
100
AcDbEntity
  8
SMUSSO
100
AcDbLine
 62
7
  6
CONTINUOUS
 10
-46.6500000004
 20
46.15
 11
-46.6500000004
 21
-46.15
  0
LINE
  5
21A
100
AcDbEntity
  8
DRAFT
100
AcDbLine
 62
253
  6
CONTINUOUS
 10
-46.1500000004
 20
-46.65
 11
-46.1500000014
 21
-47.65
  0
LINE
  5
21B
100
AcDbEntity
  8
DRAFT
100
AcDbLine
 62
253
  6
CONTINUOUS
 10
-46.1500000004
 20
46.65
 11
-46.1500000004
 21
47.65
  0
LINE
  5
21C
100
AcDbEntity
  8
DRAFT
100
AcDbLine
 62
7
  6
CONTINUOUS
 10
-45.5320638088
 20
-43.35
 11
-45.5320638088
 21
43.35
  0
LINE
  5
21D
100
AcDbEntity
  8
DRAFT
100
AcDbLine
 62
7
  6
CONTINUOUS
 10
-45.4500000004
 20
-43.35
 11
-45.4500000004
 21
43.35
  0
LINE
  5
21E
100
AcDbEntity
  8
RACCORDO
100
AcDbLine
 62
7
  6
CONTINUOUS
 10
-45.3500000004
 20
-43.3503046097
 11
-45.3500000004
 21
-29.0
  0
LINE
  5
21F
100
AcDbEntity
  8
DRAFT
100
AcDbLine
 62
7
  6
CONTINUOUS
 10
-45.3500000004
 20
-29.0
 11
-45.3500000004
 21
29.0
  0
LINE
  5
220
100
AcDbEntity
  8
RACCORDO
100
AcDbLine
 62
7
  6
CONTINUOUS
 10
-45.3500000004
 20
29.0
 11
-45.3500000004
 21
43.3503046097
  0
LINE
  5
221
100
AcDbEntity
  8
RACCORDO
100
AcDbLine
 62
7
  6
CONTINUOUS
 10
-45.3098533511
 20
-43.3101579604
 11
-45.3098533511
 21
43.3101579604
  0
LINE
  5
222
100
AcDbEntity
  8
0
100
AcDbLine
 62
7
  6
CONTINUOUS
 10
-37.4233800004
 20
32.112109
 11
-38.2090480004
 21
29.359121
  0
LINE
  5
223
100
AcDbEntity
  8
0
100
AcDbLine
 62
7
  6
CONTINUOUS
 10
-37.8746980004
 20
28.112597
 11
-36.5890950004
 21
32.112109
  0
LINE
  5
224
100
AcDbEntity
  8
DRAFT
100
AcDbLine
 62
7
  6
CONTINUOUS
 10
-43.0088825789
 20
17.4298482745
 11
-43.0000000004
 21
17.4476188458
  0
LINE
  5
225
100
AcDbEntity
  8
RACCORDO
100
AcDbLine
 62
7
  6
CONTINUOUS
 10
-44.1000000004
 20
12.5523811542
 11
-44.0894051083
 21
12.5735773965
  0
LINE
  5
226
100
AcDbEntity
  8
DRAFT
100
AcDbLine
 62
7
  6
CONTINUOUS
 10
-17.429848275
 20
43.0088825784
 11
-17.4476188462
 21
43.0
  0
LINE
  5
227
100
AcDbEntity
  8
RACCORDO
100
AcDbLine
 62
7
  6
CONTINUOUS
 10
-12.5523811547
 20
44.1
 11
-12.573577397
 21
44.0894051079
  0
LINE
  5
228
100
AcDbEntity
  8
SMUSSO
100
AcDbLine
 62
7
  6
CONTINUOUS
 10
-46.7000000004
 20
-47.7
 11
46.6999999996
 21
-47.7
  0
LINE
  5
229
100
AcDbEntity
  8
DRAFT
100
AcDbLine
 62
7
  6
CONTINUOUS
 10
-46.1500000014
 20
-47.65
 11
46.1499999996
 21
-47.65
  0
LINE
  5
22A
100
AcDbEntity
  8
SMUSSO
100
AcDbLine
 62
253
  6
CONTINUOUS
 10
47.5448617253
 20
-46.7
 11
47.6999999996
 21
-46.7
  0
LINE
  5
22B
100
AcDbEntity
  8
SMUSSO
100
AcDbLine
 62
253
  6
CONTINUOUS
 10
-47.5448617257
 20
-46.7
 11
-47.7000000004
 21
-46.7
  0
LINE
  5
22C
100
AcDbEntity
  8
SMUSSO
100
AcDbLine
 62
7
  6
CONTINUOUS
 10
-46.1500000004
 20
-46.65
 11
46.1499999996
 21
-46.65
  0
LINE
  5
22D
100
AcDbEntity
  8
DRAFT
100
AcDbLine
 62
253
  6
CONTINUOUS
 10
46.6499999996
 20
-46.15
 11
47.6499999996
 21
-46.150000001
  0
LINE
  5
22E
100
AcDbEntity
  8
DRAFT
100
AcDbLine
 62
253
  6
CONTINUOUS
 10
-46.6500000004
 20
-46.15
 11
-47.6500000004
 21
-46.15
  0
LINE
  5
22F
100
AcDbEntity
  8
DRAFT
100
AcDbLine
 62
7
  6
CONTINUOUS
 10
43.3499999996
 20
-45.5320638083
 11
-43.3500000004
 21
-45.5320638083
  0
LINE
  5
230
100
AcDbEntity
  8
DRAFT
100
AcDbLine
 62
7
  6
CONTINUOUS
 10
43.3499999996
 20
-45.45
 11
-43.3500000004
 21
-45.45
  0
LINE
  5
231
100
AcDbEntity
  8
RACCORDO
100
AcDbLine
 62
7
  6
CONTINUOUS
 10
43.3503046092
 20
-45.35
 11
28.9999999996
 21
-45.35
  0
LINE
  5
232
100
AcDbEntity
  8
DRAFT
100
AcDbLine
 62
7
  6
CONTINUOUS
 10
28.9999999996
 20
-45.35
 11
-29.0000000004
 21
-45.35
  0
LINE
  5
233
100
AcDbEntity
  8
RACCORDO
100
AcDbLine
 62
7
  6
CONTINUOUS
 10
-29.0000000004
 20
-45.35
 11
-43.3503046101
 21
-45.35
  0
LINE
  5
234
100
AcDbEntity
  8
DRAFT
100
AcDbLine
 62
7
  6
CONTINUOUS
 10
27.9999999996
 20
-45.3447634805
 11
21.9999999996
 21
-45.3447634805
  0
LINE
  5
235
100
AcDbEntity
  8
DRAFT
100
AcDbLine
 62
7
  6
CONTINUOUS
 10
-22.0000000004
 20
-45.3447634805
 11
-28.0000000004
 21
-45.3447634805
  0
LINE
  5
236
100
AcDbEntity
  8
DRAFT
100
AcDbLine
 62
7
  6
CONTINUOUS
 10
-28.0000000004
 20
-45.3273084156
 11
-22.0000000004
 21
-45.3273084156
  0
LINE
  5
237
100
AcDbEntity
  8
DRAFT
100
AcDbLine
 62
7
  6
CONTINUOUS
 10
21.9999999996
 20
-45.3273084156
 11
27.9999999996
 21
-45.3273084156
  0
LINE
  5
238
100
AcDbEntity
  8
RACCORDO
100
AcDbLine
 62
7
  6
CONTINUOUS
 10
-43.3101579608
 20
-45.3098533507
 11
43.3101579599
 21
-45.3098533507
  0
LINE
  5
239
100
AcDbEntity
  8
DRAFT
100
AcDbLine
 62
7
  6
CONTINUOUS
 10
-17.429848275
 20
-43.0088825784
 11
-17.4476188462
 21
-43.0
  0
LINE
  5
23A
100
AcDbEntity
  8
RACCORDO
100
AcDbLine
 62
7
  6
CONTINUOUS
 10
-12.5523811547
 20
-44.1
 11
-12.573577397
 21
-44.0894051079
  0
LINE
  5
23B
100
AcDbEntity
  8
0
100
AcDbLine
 62
7
  6
CONTINUOUS
 10
-32.7083333735
 20
-34.1276595592
 11
-32.8750000004
 21
-34.0425531864
  0
LINE
  5
23C
100
AcDbEntity
  8
0
100
AcDbLine
 62
7
  6
CONTINUOUS
 10
-31.0833332543
 20
-35.8297872394
 11
-30.8750000004
 21
-35.9574468099
  0
LINE
  5
23D
100
AcDbEntity
  8
0
100
AcDbLine
 62
7
  6
CONTINUOUS
 10
-30.0416667466
 20
-34.893617034
 11
-30.2500000004
 21
-34.7659574747
  0
LINE
  5
23E
100
AcDbEntity
  8
0
100
AcDbLine
 62
7
  6
CONTINUOUS
 10
-30.0833332543
 20
-34.1702127457
 11
-30.2916667466
 21
-34.0425531864
  0
LINE
  5
23F
100
AcDbEntity
  8
0
100
AcDbLine
 62
7
  6
CONTINUOUS
 10
-30.8333332543
 20
-35.7446808517
 11
-30.9583332543
 21
-35.6595744789
  0
LINE
  5
240
100
AcDbEntity
  8
0
100
AcDbLine
 62
7
  6
CONTINUOUS
 10
-32.9583333735
 20
-34.2553191185
 11
-32.8333333735
 21
-34.3404254913
  0
LINE
  5
241
100
AcDbEntity
  8
0
100
AcDbLine
 62
7
  6
CONTINUOUS
 10
-30.2916667466
 20
-34.9787234068
 11
-30.1666667466
 21
-35.0638297796
  0
LINE
  5
242
100
AcDbEntity
  8
0
100
AcDbLine
 62
7
  6
CONTINUOUS
 10
-30.3333332543
 20
-34.2553191185
 11
-30.2083332543
 21
-34.3404254913
  0
LINE
  5
243
100
AcDbEntity
  8
0
100
AcDbLine
 62
7
  6
CONTINUOUS
 10
-32.5416666274
 20
-34.2978723049
 11
-32.7083333735
 21
-34.1276595592
  0
LINE
  5
244
100
AcDbEntity
  8
0
100
AcDbLine
 62
7
  6
CONTINUOUS
 10
-30.1666667466
 20
-35.0638297796
 11
-30.0833332543
 21
-35.1489361525
  0
LINE
  5
245
100
AcDbEntity
  8
0
100
AcDbLine
 62
7
  6
CONTINUOUS
 10
-29.9166665082
 20
-35.0212765932
 11
-30.0416667466
 21
-34.893617034
  0
LINE
  5
246
100
AcDbEntity
  8
0
100
AcDbLine
 62
7
  6
CONTINUOUS
 10
-31.2083332543
 20
-35.6595744789
 11
-31.0833332543
 21
-35.8297872394
  0
LINE
  5
247
100
AcDbEntity
  8
0
100
AcDbLine
 62
7
  6
CONTINUOUS
 10
-29.9583334927
 20
-34.3404254913
 11
-30.0833332543
 21
-34.1702127457
  0
LINE
  5
248
100
AcDbEntity
  8
0
100
AcDbLine
 62
7
  6
CONTINUOUS
 10
-32.8333333735
 20
-34.3404254913
 11
-32.7500000004
 21
-34.4680850506
  0
LINE
  5
249
100
AcDbEntity
  8
0
100
AcDbLine
 62
7
  6
CONTINUOUS
 10
-30.9583332543
 20
-35.6595744789
 11
-31.0416667466
 21
-35.5319148898
  0
LINE
  5
24A
100
AcDbEntity
  8
DRAFT
100
AcDbLine
 62
7
  6
CONTINUOUS
 10
-43.0088825789
 20
-17.4298482745
 11
-43.0000000004
 21
-17.4476188458
  0
LINE
  5
24B
100
AcDbEntity
  8
RACCORDO
100
AcDbLine
 62
7
  6
CONTINUOUS
 10
-44.1000000004
 20
-12.5523811542
 11
-44.0894051083
 21
-12.5735773965
  0
LINE
  5
24C
100
AcDbEntity
  8
DRAFT
100
AcDbLine
 62
7
  6
CONTINUOUS
 10
-44.3098533511
 20
-17.6098533507
 11
-44.3098533511
 21
-12.3901466493
  0
LINE
  5
24D
100
AcDbEntity
  8
DRAFT
100
AcDbLine
 62
7
  6
CONTINUOUS
 10
-44.3098533511
 20
12.3901466493
 11
-44.3098533511
 21
17.6098533507
  0
LINE
  5
24E
100
AcDbEntity
  8
DRAFT
100
AcDbLine
 62
7
  6
CONTINUOUS
 10
-44.1000000004
 20
-17.4476188458
 11
-44.1000000004
 21
-12.5523811542
  0
LINE
  5
24F
100
AcDbEntity
  8
DRAFT
100
AcDbLine
 62
7
  6
CONTINUOUS
 10
-44.1000000004
 20
12.5523811542
 11
-44.1000000004
 21
17.4476188458
  0
LINE
  5
250
100
AcDbEntity
  8
RACCORDO
100
AcDbLine
 62
253
  6
CONTINUOUS
 10
-44.0894051083
 20
17.4264226035
 11
-44.0894051083
 21
12.5735773965
  0
LINE
  5
251
100
AcDbEntity
  8
RACCORDO
100
AcDbLine
 62
253
  6
CONTINUOUS
 10
-44.0894051083
 20
-12.5735773965
 11
-44.0894051083
 21
-17.4264226035
  0
LINE
  5
252
100
AcDbEntity
  8
RACCORDO
100
AcDbLine
 62
7
  6
CONTINUOUS
 10
-44.0726915849
 20
43.3727981978
 11
-44.0726915849
 21
17.6098533507
  0
LINE
  5
253
100
AcDbEntity
  8
DRAFT
100
AcDbLine
 62
7
  6
CONTINUOUS
 10
-44.0726915849
 20
12.3901466493
 11
-44.0726915849
 21
-12.3901466493
  0
LINE
  5
254
100
AcDbEntity
  8
RACCORDO
100
AcDbLine
 62
7
  6
CONTINUOUS
 10
-44.0726915849
 20
-17.6098533507
 11
-44.0726915849
 21
-43.3727981978
  0
LINE
  5
255
100
AcDbEntity
  8
RACCORDO
100
AcDbLine
 62
7
  6
CONTINUOUS
 10
-44.0500000004
 20
43.3501066134
 11
-44.0500000004
 21
17.6325449351
  0
LINE
  5
256
100
AcDbEntity
  8
DRAFT
100
AcDbLine
 62
7
  6
CONTINUOUS
 10
-44.0500000004
 20
12.3674550649
 11
-44.0500000004
 21
-12.3674550649
  0
LINE
  5
257
100
AcDbEntity
  8
RACCORDO
100
AcDbLine
 62
7
  6
CONTINUOUS
 10
-44.0500000004
 20
-17.6325449351
 11
-44.0500000004
 21
-43.3501066134
  0
LINE
  5
258
100
AcDbEntity
  8
RACCORDO
100
AcDbLine
 62
253
  6
CONTINUOUS
 10
-43.6894660303
 20
17.4126980763
 11
-43.6894660303
 21
12.5873019237
  0
LINE
  5
259
100
AcDbEntity
  8
RACCORDO
100
AcDbLine
 62
253
  6
CONTINUOUS
 10
-43.6894660303
 20
-12.5873019237
 11
-43.6894660303
 21
-17.4126980763
  0
LINE
  5
25A
100
AcDbEntity
  8
DRAFT
100
AcDbLine
 62
7
  6
CONTINUOUS
 10
-43.5000000004
 20
-17.4126980763
 11
-43.5000000004
 21
-12.5873019237
  0
LINE
  5
25B
100
AcDbEntity
  8
DRAFT
100
AcDbLine
 62
7
  6
CONTINUOUS
 10
-43.5000000004
 20
12.5873019237
 11
-43.5000000004
 21
17.4126980763
  0
LINE
  5
25C
100
AcDbEntity
  8
DRAFT
100
AcDbLine
 62
253
  6
CONTINUOUS
 10
-43.3500000004
 20
45.5320638083
 11
-43.3500000004
 21
45.45
  0
LINE
  5
25D
100
AcDbEntity
  8
DRAFT
100
AcDbLine
 62
253
  6
CONTINUOUS
 10
-43.3500000004
 20
-45.5320638083
 11
-43.3500000004
 21
-45.45
  0
LINE
  5
25E
100
AcDbEntity
  8
DRAFT
100
AcDbLine
 62
7
  6
CONTINUOUS
 10
-43.2473817407
 20
17.6325449351
 11
-43.2473817407
 21
17.4476188458
  0
LINE
  5
25F
100
AcDbEntity
  8
DRAFT
100
AcDbLine
 62
7
  6
CONTINUOUS
 10
-43.2473817407
 20
12.5523811542
 11
-43.2473817407
 21
12.3674550649
  0
LINE
  5
260
100
AcDbEntity
  8
DRAFT
100
AcDbLine
 62
7
  6
CONTINUOUS
 10
-43.2473817407
 20
-12.3674550649
 11
-43.2473817407
 21
-12.5523811542
  0
LINE
  5
261
100
AcDbEntity
  8
DRAFT
100
AcDbLine
 62
7
  6
CONTINUOUS
 10
-43.2473817407
 20
-17.4476188458
 11
-43.2473817407
 21
-17.6325449351
  0
LINE
  5
262
100
AcDbEntity
  8
DRAFT
100
AcDbLine
 62
7
  6
CONTINUOUS
 10
-43.0500000004
 20
-43.05
 11
-43.0500000004
 21
-17.6325449351
  0
LINE
  5
263
100
AcDbEntity
  8
DRAFT
100
AcDbLine
 62
7
  6
CONTINUOUS
 10
-43.0500000004
 20
-12.3674550649
 11
-43.0500000004
 21
12.3674550649
  0
LINE
  5
264
100
AcDbEntity
  8
DRAFT
100
AcDbLine
 62
7
  6
CONTINUOUS
 10
-43.0500000004
 20
17.6325449351
 11
-43.0500000004
 21
43.05
  0
LINE
  5
265
100
AcDbEntity
  8
DRAFT
100
AcDbLine
 62
7
  6
CONTINUOUS
 10
-43.0325449355
 20
-43.0325449351
 11
-43.0325449355
 21
-17.65
  0
LINE
  5
266
100
AcDbEntity
  8
DRAFT
100
AcDbLine
 62
7
  6
CONTINUOUS
 10
-43.0325449355
 20
-12.35
 11
-43.0325449355
 21
12.35
  0
LINE
  5
267
100
AcDbEntity
  8
DRAFT
100
AcDbLine
 62
7
  6
CONTINUOUS
 10
-43.0325449355
 20
17.65
 11
-43.0325449355
 21
43.0325449351
  0
LINE
  5
268
100
AcDbEntity
  8
DRAFT
100
AcDbLine
 62
7
  6
CONTINUOUS
 10
-43.0088825789
 20
-17.4298482745
 11
-43.0088825789
 21
-12.5701517255
  0
LINE
  5
269
100
AcDbEntity
  8
DRAFT
100
AcDbLine
 62
7
  6
CONTINUOUS
 10
-43.0088825789
 20
12.5701517255
 11
-43.0088825789
 21
17.4298482745
  0
LINE
  5
26A
100
AcDbEntity
  8
DRAFT
100
AcDbLine
 62
7
  6
CONTINUOUS
 10
-43.0000000004
 20
-17.4476188458
 11
-43.0000000004
 21
-12.5523811542
  0
LINE
  5
26B
100
AcDbEntity
  8
DRAFT
100
AcDbLine
 62
7
  6
CONTINUOUS
 10
-43.0000000004
 20
12.5523811542
 11
-43.0000000004
 21
17.4476188458
  0
LINE
  5
26C
100
AcDbEntity
  8
DRAFT
100
AcDbLine
 62
7
  6
CONTINUOUS
 10
-42.0500000004
 20
-17.65
 11
-42.0500000004
 21
-12.35
  0
LINE
  5
26D
100
AcDbEntity
  8
DRAFT
100
AcDbLine
 62
7
  6
CONTINUOUS
 10
-42.0500000004
 20
12.35
 11
-42.0500000004
 21
17.65
  0
LINE
  5
26E
100
AcDbEntity
  8
0
100
AcDbLine
 62
7
  6
CONTINUOUS
 10
-32.1388040004
 20
32.112109
 11
-32.9736590004
 21
29.891567
  0
LINE
  5
26F
100
AcDbEntity
  8
0
100
AcDbLine
 62
7
  6
CONTINUOUS
 10
-32.9196740004
 20
28.112597
 11
-31.9270310004
 21
30.713316
  0
LINE
  5
270
100
AcDbEntity
  8
RACCORDO
100
AcDbLine
 62
7
  6
CONTINUOUS
 10
-43.3238174031
 20
12.5523811542
 11
-43.346569914
 21
12.5068622636
  0
LINE
  5
271
100
AcDbEntity
  8
DRAFT
100
AcDbLine
 62
7
  6
CONTINUOUS
 10
-44.0500000004
 20
17.6325449351
 11
-44.0726915849
 21
17.6098533507
  0
LINE
  5
272
100
AcDbEntity
  8
DRAFT
100
AcDbLine
 62
7
  6
CONTINUOUS
 10
-17.6325449355
 20
44.05
 11
-17.6098533511
 21
44.0726915844
  0
LINE
  5
273
100
AcDbEntity
  8
DRAFT
100
AcDbLine
 62
7
  6
CONTINUOUS
 10
-43.0325449355
 20
17.65
 11
-43.0500000004
 21
17.6325449351
  0
LINE
  5
274
100
AcDbEntity
  8
DRAFT
100
AcDbLine
 62
7
  6
CONTINUOUS
 10
-17.6500000004
 20
43.0325449351
 11
-17.6325449355
 21
43.05
  0
LINE
  5
275
100
AcDbEntity
  8
RACCORDO
100
AcDbLine
 62
7
  6
CONTINUOUS
 10
-12.5523811547
 20
43.3238174026
 11
-12.5068622641
 21
43.3465699136
  0
LINE
  5
276
100
AcDbEntity
  8
DRAFT
100
AcDbLine
 62
7
  6
CONTINUOUS
 10
17.6098533502
 20
-44.3098533507
 11
12.3901466489
 21
-44.3098533507
  0
LINE
  5
277
100
AcDbEntity
  8
DRAFT
100
AcDbLine
 62
7
  6
CONTINUOUS
 10
-12.3901466498
 20
-44.3098533507
 11
-17.6098533511
 21
-44.3098533507
  0
LINE
  5
278
100
AcDbEntity
  8
DRAFT
100
AcDbLine
 62
7
  6
CONTINUOUS
 10
17.4476188453
 20
-44.1
 11
12.5523811538
 21
-44.1
  0
LINE
  5
279
100
AcDbEntity
  8
DRAFT
100
AcDbLine
 62
7
  6
CONTINUOUS
 10
-12.5523811547
 20
-44.1
 11
-17.4476188462
 21
-44.1
  0
LINE
  5
27A
100
AcDbEntity
  8
RACCORDO
100
AcDbLine
 62
253
  6
CONTINUOUS
 10
-17.4264226039
 20
-44.0894051079
 11
-12.573577397
 21
-44.0894051079
  0
LINE
  5
27B
100
AcDbEntity
  8
RACCORDO
100
AcDbLine
 62
253
  6
CONTINUOUS
 10
12.5735773961
 20
-44.0894051079
 11
17.426422603
 21
-44.0894051079
  0
LINE
  5
27C
100
AcDbEntity
  8
RACCORDO
100
AcDbLine
 62
7
  6
CONTINUOUS
 10
-43.3727981982
 20
-44.0726915844
 11
-17.6098533511
 21
-44.0726915844
  0
LINE
  5
27D
100
AcDbEntity
  8
DRAFT
100
AcDbLine
 62
7
  6
CONTINUOUS
 10
-12.3901466498
 20
-44.0726915844
 11
12.3901466489
 21
-44.0726915844
  0
LINE
  5
27E
100
AcDbEntity
  8
RACCORDO
100
AcDbLine
 62
7
  6
CONTINUOUS
 10
17.6098533502
 20
-44.0726915844
 11
43.3727981973
 21
-44.0726915844
  0
LINE
  5
27F
100
AcDbEntity
  8
RACCORDO
100
AcDbLine
 62
7
  6
CONTINUOUS
 10
-43.3501066138
 20
-44.05
 11
-17.6325449355
 21
-44.05
  0
LINE
  5
280
100
AcDbEntity
  8
DRAFT
100
AcDbLine
 62
7
  6
CONTINUOUS
 10
-12.3674550654
 20
-44.05
 11
12.3674550645
 21
-44.05
  0
LINE
  5
281
100
AcDbEntity
  8
RACCORDO
100
AcDbLine
 62
7
  6
CONTINUOUS
 10
17.6325449346
 20
-44.05
 11
43.3501066129
 21
-44.05
  0
LINE
  5
282
100
AcDbEntity
  8
RACCORDO
100
AcDbLine
 62
253
  6
CONTINUOUS
 10
-17.4126980767
 20
-43.6894660298
 11
-12.5873019242
 21
-43.6894660298
  0
LINE
  5
283
100
AcDbEntity
  8
RACCORDO
100
AcDbLine
 62
253
  6
CONTINUOUS
 10
12.5873019233
 20
-43.6894660298
 11
17.4126980758
 21
-43.6894660298
  0
LINE
  5
284
100
AcDbEntity
  8
DRAFT
100
AcDbLine
 62
7
  6
CONTINUOUS
 10
17.4126980758
 20
-43.5
 11
12.5873019233
 21
-43.5
  0
LINE
  5
285
100
AcDbEntity
  8
DRAFT
100
AcDbLine
 62
7
  6
CONTINUOUS
 10
-12.5873019242
 20
-43.5
 11
-17.4126980767
 21
-43.5
  0
LINE
  5
286
100
AcDbEntity
  8
DRAFT
100
AcDbLine
 62
253
  6
CONTINUOUS
 10
45.5320638079
 20
-43.35
 11
45.4499999996
 21
-43.35
  0
LINE
  5
287
100
AcDbEntity
  8
DRAFT
100
AcDbLine
 62
253
  6
CONTINUOUS
 10
-45.5320638088
 20
-43.35
 11
-45.4500000004
 21
-43.35
  0
LINE
  5
288
100
AcDbEntity
  8
DRAFT
100
AcDbLine
 62
7
  6
CONTINUOUS
 10
-17.6325449355
 20
-43.2473817403
 11
-17.4476188462
 21
-43.2473817403
  0
LINE
  5
289
100
AcDbEntity
  8
DRAFT
100
AcDbLine
 62
7
  6
CONTINUOUS
 10
-12.5523811547
 20
-43.2473817403
 11
-12.3674550654
 21
-43.2473817403
  0
LINE
  5
28A
100
AcDbEntity
  8
DRAFT
100
AcDbLine
 62
7
  6
CONTINUOUS
 10
12.3674550645
 20
-43.2473817403
 11
12.5523811538
 21
-43.2473817403
  0
LINE
  5
28B
100
AcDbEntity
  8
DRAFT
100
AcDbLine
 62
7
  6
CONTINUOUS
 10
17.4476188453
 20
-43.2473817403
 11
17.6325449346
 21
-43.2473817403
  0
LINE
  5
28C
100
AcDbEntity
  8
DRAFT
100
AcDbLine
 62
7
  6
CONTINUOUS
 10
43.0499999996
 20
-43.05
 11
17.6325449346
 21
-43.05
  0
LINE
  5
28D
100
AcDbEntity
  8
DRAFT
100
AcDbLine
 62
7
  6
CONTINUOUS
 10
12.3674550645
 20
-43.05
 11
-12.3674550654
 21
-43.05
  0
LINE
  5
28E
100
AcDbEntity
  8
DRAFT
100
AcDbLine
 62
7
  6
CONTINUOUS
 10
-17.6325449355
 20
-43.05
 11
-43.0500000004
 21
-43.05
  0
LINE
  5
28F
100
AcDbEntity
  8
DRAFT
100
AcDbLine
 62
7
  6
CONTINUOUS
 10
43.0325449346
 20
-43.0325449351
 11
17.6499999996
 21
-43.0325449351
  0
LINE
  5
290
100
AcDbEntity
  8
DRAFT
100
AcDbLine
 62
7
  6
CONTINUOUS
 10
12.3499999996
 20
-43.0325449351
 11
-12.3500000004
 21
-43.0325449351
  0
LINE
  5
291
100
AcDbEntity
  8
DRAFT
100
AcDbLine
 62
7
  6
CONTINUOUS
 10
-17.6500000004
 20
-43.0325449351
 11
-43.0325449355
 21
-43.0325449351
  0
LINE
  5
292
100
AcDbEntity
  8
DRAFT
100
AcDbLine
 62
7
  6
CONTINUOUS
 10
17.4298482741
 20
-43.0088825784
 11
12.570151725
 21
-43.0088825784
  0
LINE
  5
293
100
AcDbEntity
  8
DRAFT
100
AcDbLine
 62
7
  6
CONTINUOUS
 10
-12.5701517259
 20
-43.0088825784
 11
-17.429848275
 21
-43.0088825784
  0
LINE
  5
294
100
AcDbEntity
  8
DRAFT
100
AcDbLine
 62
7
  6
CONTINUOUS
 10
17.4476188453
 20
-43.0
 11
12.5523811538
 21
-43.0
  0
LINE
  5
295
100
AcDbEntity
  8
DRAFT
100
AcDbLine
 62
7
  6
CONTINUOUS
 10
-12.5523811547
 20
-43.0
 11
-17.4476188462
 21
-43.0
  0
LINE
  5
296
100
AcDbEntity
  8
DRAFT
100
AcDbLine
 62
7
  6
CONTINUOUS
 10
17.6499999996
 20
-42.05
 11
12.3499999996
 21
-42.05
  0
LINE
  5
297
100
AcDbEntity
  8
DRAFT
100
AcDbLine
 62
7
  6
CONTINUOUS
 10
-12.3500000004
 20
-42.05
 11
-17.6500000004
 21
-42.05
  0
LINE
  5
298
100
AcDbEntity
  8
0
100
AcDbLine
 62
7
  6
CONTINUOUS
 10
-30.8750000004
 20
-35.9574468099
 11
-30.6666667466
 21
-36.0
  0
LINE
  5
299
100
AcDbEntity
  8
0
100
AcDbLine
 62
7
  6
CONTINUOUS
 10
-33.166666687
 20
-34.2127659321
 11
-32.9583333735
 21
-34.2553191185
  0
LINE
  5
29A
100
AcDbEntity
  8
0
100
AcDbLine
 62
7
  6
CONTINUOUS
 10
-30.2500000004
 20
-34.7659574747
 11
-30.4583332543
 21
-34.7234042883
  0
LINE
  5
29B
100
AcDbEntity
  8
0
100
AcDbLine
 62
7
  6
CONTINUOUS
 10
-30.7083332543
 20
-35.7872340381
 11
-30.8333332543
 21
-35.7446808517
  0
LINE
  5
29C
100
AcDbEntity
  8
0
100
AcDbLine
 62
7
  6
CONTINUOUS
 10
-30.4166667466
 20
-34.9361702204
 11
-30.2916667466
 21
-34.9787234068
  0
LINE
  5
29D
100
AcDbEntity
  8
0
100
AcDbLine
 62
7
  6
CONTINUOUS
 10
-30.4583332543
 20
-34.2127659321
 11
-30.3333332543
 21
-34.2553191185
  0
LINE
  5
29E
100
AcDbEntity
  8
RACCORDO
100
AcDbLine
 62
7
  6
CONTINUOUS
 10
-12.5523811547
 20
-43.3238174026
 11
-12.5068622641
 21
-43.3465699136
  0
LINE
  5
29F
100
AcDbEntity
  8
0
100
AcDbLine
 62
7
  6
CONTINUOUS
 10
-26.2083334927
 20
-34.1276595592
 11
-26.3750000004
 21
-34.0425531864
  0
LINE
  5
2A0
100
AcDbEntity
  8
0
100
AcDbLine
 62
7
  6
CONTINUOUS
 10
-26.4583334927
 20
-34.2553191185
 11
-26.3333334927
 21
-34.3404254913
  0
LINE
  5
2A1
100
AcDbEntity
  8
DRAFT
100
AcDbLine
 62
7
  6
CONTINUOUS
 10
-17.6325449355
 20
-44.05
 11
-17.6098533511
 21
-44.0726915844
  0
LINE
  5
2A2
100
AcDbEntity
  8
DRAFT
100
AcDbLine
 62
7
  6
CONTINUOUS
 10
-44.0500000004
 20
-17.6325449351
 11
-44.0726915849
 21
-17.6098533507
  0
LINE
  5
2A3
100
AcDbEntity
  8
DRAFT
100
AcDbLine
 62
7
  6
CONTINUOUS
 10
-17.6500000004
 20
-43.0325449351
 11
-17.6325449355
 21
-43.05
  0
LINE
  5
2A4
100
AcDbEntity
  8
DRAFT
100
AcDbLine
 62
7
  6
CONTINUOUS
 10
-43.0325449355
 20
-17.65
 11
-43.0500000004
 21
-17.6325449351
  0
LINE
  5
2A5
100
AcDbEntity
  8
0
100
AcDbLine
 62
7
  6
CONTINUOUS
 10
-26.0416665082
 20
-34.2978723049
 11
-26.2083334927
 21
-34.1276595592
  0
LINE
  5
2A6
100
AcDbEntity
  8
0
100
AcDbLine
 62
7
  6
CONTINUOUS
 10
-30.2083332543
 20
-34.3404254913
 11
-30.1250000004
 21
-34.4680850506
  0
LINE
  5
2A7
100
AcDbEntity
  8
0
100
AcDbLine
 62
7
  6
CONTINUOUS
 10
-26.3333334927
 20
-34.3404254913
 11
-26.2500000004
 21
-34.4680850506
  0
LINE
  5
2A8
100
AcDbEntity
  8
RACCORDO
100
AcDbLine
 62
7
  6
CONTINUOUS
 10
-43.3238174031
 20
-12.5523811542
 11
-43.346569914
 21
-12.5068622636
  0
LINE
  5
2A9
100
AcDbEntity
  8
0
100
AcDbLine
 62
7
  6
CONTINUOUS
 10
-31.2916667466
 20
-35.446808517
 11
-31.2083332543
 21
-35.6595744789
  0
LINE
  5
2AA
100
AcDbEntity
  8
0
100
AcDbLine
 62
7
  6
CONTINUOUS
 10
-29.8333334927
 20
-35.2340425253
 11
-29.9166665082
 21
-35.0212765932
  0
LINE
  5
2AB
100
AcDbEntity
  8
0
100
AcDbLine
 62
7
  6
CONTINUOUS
 10
-31.0416667466
 20
-35.5319148898
 11
-31.0833332543
 21
-35.4042553306
  0
LINE
  5
2AC
100
AcDbEntity
  8
0
100
AcDbLine
 62
7
  6
CONTINUOUS
 10
-36.2792780004
 20
32.112349
 11
-36.2792780004
 21
28.112597
  0
LINE
  5
2AD
100
AcDbEntity
  8
0
100
AcDbLine
 62
7
  6
CONTINUOUS
 10
-35.4444230004
 20
28.112597
 11
-35.4444230004
 21
32.112349
  0
LINE
  5
2AE
100
AcDbEntity
  8
0
100
AcDbLine
 62
7
  6
CONTINUOUS
 10
-34.1963100004
 20
28.112597
 11
-34.0161480004
 21
30.724203
  0
LINE
  5
2AF
100
AcDbEntity
  8
0
100
AcDbLine
 62
7
  6
CONTINUOUS
 10
-34.6338620004
 20
32.112109
 11
-34.9949940004
 21
28.112597
  0
LINE
  5
2B0
100
AcDbEntity
  8
0
100
AcDbLine
 62
7
  6
CONTINUOUS
 10
-29.5807630004
 20
29.528875
 11
-29.1650750004
 21
31.013145
  0
LINE
  5
2B1
100
AcDbEntity
  8
0
100
AcDbLine
 62
7
  6
CONTINUOUS
 10
-29.9819050004
 20
28.112597
 11
-29.7515370004
 21
28.911042
  0
LINE
  5
2B2
100
AcDbEntity
  8
0
100
AcDbLine
 62
7
  6
CONTINUOUS
 10
-29.5532010004
 20
32.112109
 11
-30.8077030004
 21
28.112597
  0
LINE
  5
2B3
100
AcDbEntity
  8
0
100
AcDbLine
 62
7
  6
CONTINUOUS
 10
-18.5254200004
 20
-38.972865
 11
-18.2483480004
 21
-38.972865
  0
LINE
  5
2B4
100
AcDbEntity
  8
0
100
AcDbLine
 62
7
  6
CONTINUOUS
 10
-17.2572870004
 20
-38.972865
 11
-16.9803800004
 21
-38.972865
  0
LINE
  5
2B5
100
AcDbEntity
  8
0
100
AcDbLine
 62
7
  6
CONTINUOUS
 10
-16.2065340004
 20
-38.972865
 11
-15.9210050004
 21
-38.972865
  0
LINE
  5
2B6
100
AcDbEntity
  8
0
100
AcDbLine
 62
7
  6
CONTINUOUS
 10
-14.6815570004
 20
-38.972865
 11
-14.3789500004
 21
-38.972865
  0
LINE
  5
2B7
100
AcDbEntity
  8
0
100
AcDbLine
 62
7
  6
CONTINUOUS
 10
-14.1247590004
 20
-38.972865
 11
-12.8083750004
 21
-38.972865
  0
LINE
  5
2B8
100
AcDbEntity
  8
0
100
AcDbLine
 62
7
  6
CONTINUOUS
 10
-12.3684740004
 20
-38.972865
 11
-12.0915680004
 21
-38.972865
  0
LINE
  5
2B9
100
AcDbEntity
  8
0
100
AcDbLine
 62
7
  6
CONTINUOUS
 10
-12.8083750004
 20
-38.727463
 11
-13.8478530004
 21
-38.727463
  0
LINE
  5
2BA
100
AcDbEntity
  8
0
100
AcDbLine
 62
7
  6
CONTINUOUS
 10
-15.7067750004
 20
-38.37594
 11
-14.8843460004
 21
-38.37594
  0
LINE
  5
2BB
100
AcDbEntity
  8
0
100
AcDbLine
 62
7
  6
CONTINUOUS
 10
-14.9843310004
 20
-38.130538
 11
-15.6212160004
 21
-38.130538
  0
LINE
  5
2BC
100
AcDbEntity
  8
0
100
AcDbLine
 62
7
  6
CONTINUOUS
 10
-17.9512120004
 20
-37.167168
 11
-17.2572870004
 21
-37.167168
  0
LINE
  5
2BD
100
AcDbEntity
  8
0
100
AcDbLine
 62
7
  6
CONTINUOUS
 10
-16.9803800004
 20
-37.167168
 11
-16.2864550004
 21
-37.167168
  0
LINE
  5
2BE
100
AcDbEntity
  8
0
100
AcDbLine
 62
7
  6
CONTINUOUS
 10
-11.3177210004
 20
-36.921766
 11
-11.6432110004
 21
-36.921766
  0
LINE
  5
2BF
100
AcDbEntity
  8
0
100
AcDbLine
 62
7
  6
CONTINUOUS
 10
-12.8198160004
 20
-36.921766
 11
-13.1424870004
 21
-36.921766
  0
LINE
  5
2C0
100
AcDbEntity
  8
0
100
AcDbLine
 62
7
  6
CONTINUOUS
 10
-13.8478530004
 20
-36.921766
 11
-14.1247590004
 21
-36.921766
  0
LINE
  5
2C1
100
AcDbEntity
  8
0
100
AcDbLine
 62
7
  6
CONTINUOUS
 10
-15.1214580004
 20
-36.921766
 11
-15.4355060004
 21
-36.921766
  0
LINE
  5
2C2
100
AcDbEntity
  8
0
100
AcDbLine
 62
7
  6
CONTINUOUS
 10
-16.2864550004
 20
-36.921766
 11
-17.9512120004
 21
-36.921766
  0
LINE
  5
2C3
100
AcDbEntity
  8
0
100
AcDbLine
 62
7
  6
CONTINUOUS
 10
-18.2483480004
 20
-36.921766
 11
-18.5254200004
 21
-36.921766
  0
LINE
  5
2C4
100
AcDbEntity
  8
ASSI
100
AcDbLine
 62
7
  6
CONTINUOUS
 10
26.4115699996
 20
-36.906117
 11
27.5938159996
 21
-36.906117
  0
LINE
  5
2C5
100
AcDbEntity
  8
ASSI
100
AcDbLine
 62
7
  6
CONTINUOUS
 10
27.5938159996
 20
-36.489452
 11
27.2247039996
 21
-36.489452
  0
LINE
  5
2C6
100
AcDbEntity
  8
ASSI
100
AcDbLine
 62
7
  6
CONTINUOUS
 10
26.7808249996
 20
-36.489452
 11
26.4115699996
 21
-36.489452
  0
LINE
  5
2C7
100
AcDbEntity
  8
0
100
AcDbLine
 62
7
  6
CONTINUOUS
 10
-16.1994040004
 20
-36.024721
 11
-15.9223310004
 21
-36.024721
  0
LINE
  5
2C8
100
AcDbEntity
  8
0
100
AcDbLine
 62
7
  6
CONTINUOUS
 10
-15.4484400004
 20
-36.024721
 11
-15.1798240004
 21
-36.024721
  0
LINE
  5
2C9
100
AcDbEntity
  8
0
100
AcDbLine
 62
7
  6
CONTINUOUS
 10
-14.1318890004
 20
-36.024721
 11
-13.8206590004
 21
-36.024721
  0
LINE
  5
2CA
100
AcDbEntity
  8
0
100
AcDbLine
 62
7
  6
CONTINUOUS
 10
-34.0000000004
 20
-36.0
 11
-32.5000000004
 21
-36.0
  0
LINE
  5
2CB
100
AcDbEntity
  8
0
100
AcDbLine
 62
7
  6
CONTINUOUS
 10
-31.9166667466
 20
-36.0
 11
-31.6666667466
 21
-36.0
  0
LINE
  5
2CC
100
AcDbEntity
  8
0
100
AcDbLine
 62
7
  6
CONTINUOUS
 10
-30.6666667466
 20
-36.0
 11
-30.4583332543
 21
-36.0
  0
LINE
  5
2CD
100
AcDbEntity
  8
0
100
AcDbLine
 62
7
  6
CONTINUOUS
 10
-28.5000000004
 20
-36.0
 11
-28.2500000004
 21
-36.0
  0
LINE
  5
2CE
100
AcDbEntity
  8
0
100
AcDbLine
 62
7
  6
CONTINUOUS
 10
-27.5000000004
 20
-36.0
 11
-26.0000000004
 21
-36.0
  0
LINE
  5
2CF
100
AcDbEntity
  8
0
100
AcDbLine
 62
7
  6
CONTINUOUS
 10
-26.0000000004
 20
-35.7872340381
 11
-27.1666665082
 21
-35.7872340381
  0
LINE
  5
2D0
100
AcDbEntity
  8
0
100
AcDbLine
 62
7
  6
CONTINUOUS
 10
-30.4166667466
 20
-35.7872340381
 11
-30.7083332543
 21
-35.7872340381
  0
LINE
  5
2D1
100
AcDbEntity
  8
0
100
AcDbLine
 62
7
  6
CONTINUOUS
 10
-32.5000000004
 20
-35.7872340381
 11
-33.6666666572
 21
-35.7872340381
  0
LINE
  5
2D2
100
AcDbEntity
  8
0
100
AcDbLine
 62
7
  6
CONTINUOUS
 10
-29.5000000004
 20
-35.4042553306
 11
-28.5000000004
 21
-35.4042553306
  0
LINE
  5
2D3
100
AcDbEntity
  8
0
100
AcDbLine
 62
7
  6
CONTINUOUS
 10
-28.2500000004
 20
-35.4042553306
 11
-27.8333334927
 21
-35.4042553306
  0
LINE
  5
2D4
100
AcDbEntity
  8
ASSI
100
AcDbLine
 62
7
  6
CONTINUOUS
 10
38.6570549996
 20
-35.375
 11
40.1175559996
 21
-35.375
  0
LINE
  5
2D5
100
AcDbEntity
  8
0
100
AcDbLine
 62
7
  6
CONTINUOUS
 10
-32.8750000004
 20
-34.0425531864
 11
-33.1250000004
 21
-34.0
  0
LINE
  5
2D6
100
AcDbEntity
  8
0
100
AcDbLine
 62
7
  6
CONTINUOUS
 10
-26.3750000004
 20
-34.0425531864
 11
-26.6250000004
 21
-34.0
  0
LINE
  5
2D7
100
AcDbEntity
  8
0
100
AcDbLine
 62
7
  6
CONTINUOUS
 10
-30.2916667466
 20
-34.0425531864
 11
-30.5000000004
 21
-34.0
  0
LINE
  5
2D8
100
AcDbEntity
  8
0
100
AcDbLine
 62
7
  6
CONTINUOUS
 10
-26.6666665082
 20
-34.2127659321
 11
-26.4583334927
 21
-34.2553191185
  0
LINE
  5
2D9
100
AcDbEntity
  8
0
100
AcDbLine
 62
7
  6
CONTINUOUS
 10
-30.0833332543
 20
-35.1489361525
 11
-30.0416667466
 21
-35.2765957713
  0
LINE
  5
2DA
100
AcDbEntity
  8
0
100
AcDbLine
 62
7
  6
CONTINUOUS
 10
-29.9166665082
 20
-34.4680850506
 11
-29.9583334927
 21
-34.3404254913
  0
LINE
  5
2DB
100
AcDbEntity
  8
0
100
AcDbLine
 62
7
  6
CONTINUOUS
 10
-32.5000000004
 20
-34.4680850506
 11
-32.5416666274
 21
-34.2978723049
  0
LINE
  5
2DC
100
AcDbEntity
  8
0
100
AcDbLine
 62
7
  6
CONTINUOUS
 10
-31.3333332543
 20
-35.1489361525
 11
-31.2916667466
 21
-35.446808517
  0
LINE
  5
2DD
100
AcDbEntity
  8
0
100
AcDbLine
 62
7
  6
CONTINUOUS
 10
-34.0000000004
 20
-35.7872340381
 11
-34.0000000004
 21
-36.0
  0
LINE
  5
2DE
100
AcDbEntity
  8
0
100
AcDbLine
 62
7
  6
CONTINUOUS
 10
-32.7500000004
 20
-34.4680850506
 11
-32.7500000004
 21
-34.5531915426
  0
LINE
  5
2DF
100
AcDbEntity
  8
0
100
AcDbLine
 62
7
  6
CONTINUOUS
 10
-32.5000000004
 20
-36.0
 11
-32.5000000004
 21
-35.7872340381
  0
LINE
  5
2E0
100
AcDbEntity
  8
0
100
AcDbLine
 62
7
  6
CONTINUOUS
 10
-32.5000000004
 20
-34.5531915426
 11
-32.5000000004
 21
-34.4680850506
  0
LINE
  5
2E1
100
AcDbEntity
  8
0
100
AcDbLine
 62
7
  6
CONTINUOUS
 10
-32.1666666274
 20
-34.2978723049
 11
-32.1666666274
 21
-34.6382979155
  0
LINE
  5
2E2
100
AcDbEntity
  8
0
100
AcDbLine
 62
7
  6
CONTINUOUS
 10
-31.9166667466
 20
-34.3404254913
 11
-31.9166667466
 21
-36.0
  0
LINE
  5
2E3
100
AcDbEntity
  8
0
100
AcDbLine
 62
7
  6
CONTINUOUS
 10
-31.6666667466
 20
-36.0
 11
-31.6666667466
 21
-34.0
  0
LINE
  5
2E4
100
AcDbEntity
  8
0
100
AcDbLine
 62
7
  6
CONTINUOUS
 10
-31.3333332543
 20
-34.8510638475
 11
-31.3333332543
 21
-35.1489361525
  0
LINE
  5
2E5
100
AcDbEntity
  8
0
100
AcDbLine
 62
7
  6
CONTINUOUS
 10
-31.1250000004
 20
-34.9361702204
 11
-31.1250000004
 21
-34.8510638475
  0
LINE
  5
2E6
100
AcDbEntity
  8
0
100
AcDbLine
 62
7
  6
CONTINUOUS
 10
-31.0833332543
 20
-35.4042553306
 11
-31.0833332543
 21
-35.2765957713
  0
LINE
  5
2E7
100
AcDbEntity
  8
DRAFT
100
AcDbLine
 62
7
  6
CONTINUOUS
 10
-43.0088825789
 20
-12.5701517255
 11
-43.0000000004
 21
-12.5523811542
  0
LINE
  5
2E8
100
AcDbEntity
  8
RACCORDO
100
AcDbLine
 62
7
  6
CONTINUOUS
 10
-44.1000000004
 20
-17.4476188458
 11
-44.0894051083
 21
-17.4264226035
  0
LINE
  5
2E9
100
AcDbEntity
  8
RACCORDO
100
AcDbLine
 62
7
  6
CONTINUOUS
 10
-43.3238174031
 20
-17.4476188458
 11
-43.346569914
 21
-17.4931377364
  0
LINE
  5
2EA
100
AcDbEntity
  8
DRAFT
100
AcDbLine
 62
7
  6
CONTINUOUS
 10
12.570151725
 20
43.0088825784
 11
12.5523811538
 21
43.0
  0
LINE
  5
2EB
100
AcDbEntity
  8
RACCORDO
100
AcDbLine
 62
7
  6
CONTINUOUS
 10
17.4476188453
 20
44.1
 11
17.426422603
 21
44.0894051079
  0
LINE
  5
2EC
100
AcDbEntity
  8
RACCORDO
100
AcDbLine
 62
7
  6
CONTINUOUS
 10
17.4476188453
 20
43.3238174026
 11
17.4931377359
 21
43.3465699136
  0
LINE
  5
2ED
100
AcDbEntity
  8
0
100
AcDbLine
 62
7
  6
CONTINUOUS
 10
-27.8333334927
 20
-35.1489361525
 11
-28.2500000004
 21
-35.1489361525
  0
LINE
  5
2EE
100
AcDbEntity
  8
0
100
AcDbLine
 62
7
  6
CONTINUOUS
 10
-28.5000000004
 20
-35.1489361525
 11
-29.2083334927
 21
-35.1489361525
  0
LINE
  5
2EF
100
AcDbEntity
  8
0
100
AcDbLine
 62
7
  6
CONTINUOUS
 10
-30.7083332543
 20
-34.9361702204
 11
-30.4166667466
 21
-34.9361702204
  0
LINE
  5
2F0
100
AcDbEntity
  8
0
100
AcDbLine
 62
7
  6
CONTINUOUS
 10
-30.4583332543
 20
-34.7234042883
 11
-30.6666667466
 21
-34.7234042883
  0
LINE
  5
2F1
100
AcDbEntity
  8
ASSI
100
AcDbLine
 62
7
  6
CONTINUOUS
 10
40.1175559996
 20
-34.625
 11
38.6570519446
 21
-34.625
  0
LINE
  5
2F2
100
AcDbEntity
  8
0
100
AcDbLine
 62
7
  6
CONTINUOUS
 10
-33.9583333325
 20
-34.4680850506
 11
-33.7500000004
 21
-34.4680850506
  0
LINE
  5
2F3
100
AcDbEntity
  8
0
100
AcDbLine
 62
7
  6
CONTINUOUS
 10
-30.1250000004
 20
-34.4680850506
 11
-29.9166665082
 21
-34.4680850506
  0
LINE
  5
2F4
100
AcDbEntity
  8
0
100
AcDbLine
 62
7
  6
CONTINUOUS
 10
-27.4583334927
 20
-34.4680850506
 11
-27.2500000004
 21
-34.4680850506
  0
LINE
  5
2F5
100
AcDbEntity
  8
0
100
AcDbLine
 62
7
  6
CONTINUOUS
 10
-33.3333333139
 20
-34.2127659321
 11
-33.166666687
 21
-34.2127659321
  0
LINE
  5
2F6
100
AcDbEntity
  8
0
100
AcDbLine
 62
7
  6
CONTINUOUS
 10
-30.7083332543
 20
-34.2127659321
 11
-30.4583332543
 21
-34.2127659321
  0
LINE
  5
2F7
100
AcDbEntity
  8
0
100
AcDbLine
 62
7
  6
CONTINUOUS
 10
-26.8333334927
 20
-34.2127659321
 11
-26.6666665082
 21
-34.2127659321
  0
LINE
  5
2F8
100
AcDbEntity
  8
0
100
AcDbLine
 62
7
  6
CONTINUOUS
 10
-26.6250000004
 20
-34.0
 11
-26.7916665082
 21
-34.0
  0
LINE
  5
2F9
100
AcDbEntity
  8
0
100
AcDbLine
 62
7
  6
CONTINUOUS
 10
-28.2500000004
 20
-34.0
 11
-28.5000000004
 21
-34.0
  0
LINE
  5
2FA
100
AcDbEntity
  8
0
100
AcDbLine
 62
7
  6
CONTINUOUS
 10
-30.5000000004
 20
-34.0
 11
-30.6666667466
 21
-34.0
  0
LINE
  5
2FB
100
AcDbEntity
  8
0
100
AcDbLine
 62
7
  6
CONTINUOUS
 10
-31.6666667466
 20
-34.0
 11
-31.9166667466
 21
-34.0
  0
LINE
  5
2FC
100
AcDbEntity
  8
0
100
AcDbLine
 62
7
  6
CONTINUOUS
 10
-33.1250000004
 20
-34.0
 11
-33.291666687
 21
-34.0
  0
LINE
  5
2FD
100
AcDbEntity
  8
0
100
AcDbLine
 62
7
  6
CONTINUOUS
 10
-13.8206590004
 20
-33.975279
 11
-14.0889440004
 21
-33.975279
  0
LINE
  5
2FE
100
AcDbEntity
  8
0
100
AcDbLine
 62
7
  6
CONTINUOUS
 10
-15.1199650004
 20
-33.975279
 11
-15.4484400004
 21
-33.975279
  0
LINE
  5
2FF
100
AcDbEntity
  8
0
100
AcDbLine
 62
7
  6
CONTINUOUS
 10
-15.9223310004
 20
-33.975279
 11
-16.1994040004
 21
-33.975279
  0
LINE
  5
300
100
AcDbEntity
  8
ASSI
100
AcDbLine
 62
7
  6
CONTINUOUS
 10
26.4251769996
 20
-33.529254
 11
26.7808249996
 21
-33.529254
  0
LINE
  5
301
100
AcDbEntity
  8
ASSI
100
AcDbLine
 62
7
  6
CONTINUOUS
 10
27.2247039996
 20
-33.529254
 11
27.5802089996
 21
-33.529254
  0
LINE
  5
302
100
AcDbEntity
  8
ASSI
100
AcDbLine
 62
7
  6
CONTINUOUS
 10
27.5802089996
 20
-33.110297
 11
26.4251769996
 21
-33.110297
  0
LINE
  5
303
100
AcDbEntity
  8
0
100
AcDbLine
 62
7
  6
CONTINUOUS
 10
-18.9479100004
 20
-33.076576
 11
-18.6794600004
 21
-33.076576
  0
LINE
  5
304
100
AcDbEntity
  8
0
100
AcDbLine
 62
7
  6
CONTINUOUS
 10
-18.1025990004
 20
-33.076576
 11
-17.8285110004
 21
-33.076576
  0
LINE
  5
305
100
AcDbEntity
  8
0
100
AcDbLine
 62
7
  6
CONTINUOUS
 10
-17.2516490004
 20
-33.076576
 11
-16.9831990004
 21
-33.076576
  0
LINE
  5
306
100
AcDbEntity
  8
0
100
AcDbLine
 62
7
  6
CONTINUOUS
 10
-16.7376310004
 20
-33.076576
 11
-16.4521020004
 21
-33.076576
  0
LINE
  5
307
100
AcDbEntity
  8
0
100
AcDbLine
 62
7
  6
CONTINUOUS
 10
-15.2126540004
 20
-33.076576
 11
-14.9100470004
 21
-33.076576
  0
LINE
  5
308
100
AcDbEntity
  8
0
100
AcDbLine
 62
7
  6
CONTINUOUS
 10
-14.6415970004
 20
-33.076576
 11
-13.8107082763
 21
-33.076576
  0
LINE
  5
309
100
AcDbEntity
  8
0
100
AcDbLine
 62
7
  6
CONTINUOUS
 10
-12.5656250004
 20
-33.076576
 11
-11.0520900004
 21
-33.076576
  0
LINE
  5
30A
100
AcDbEntity
  8
0
100
AcDbLine
 62
7
  6
CONTINUOUS
 10
-13.8478571047
 20
-32.839465
 11
-14.3646900004
 21
-32.839465
  0
LINE
  5
30B
100
AcDbEntity
  8
0
100
AcDbLine
 62
7
  6
CONTINUOUS
 10
-11.0520900004
 20
-32.831174
 11
-12.2885530004
 21
-32.831174
  0
LINE
  5
30C
100
AcDbEntity
  8
0
100
AcDbLine
 62
7
  6
CONTINUOUS
 10
-16.2378720004
 20
-32.479652
 11
-15.4154430004
 21
-32.479652
  0
LINE
  5
30D
100
AcDbEntity
  8
0
100
AcDbLine
 62
7
  6
CONTINUOUS
 10
-15.5154280004
 20
-32.234249
 11
-16.1521470004
 21
-32.234249
  0
LINE
  5
30E
100
AcDbEntity
  8
0
100
AcDbLine
 62
7
  6
CONTINUOUS
 10
-12.2885530004
 20
-32.146369
 11
-11.1663350004
 21
-32.146369
  0
LINE
  5
30F
100
AcDbEntity
  8
0
100
AcDbLine
 62
7
  6
CONTINUOUS
 10
-11.1663350004
 20
-31.900966
 11
-12.2885530004
 21
-31.900966
  0
LINE
  5
310
100
AcDbEntity
  8
0
100
AcDbLine
 62
7
  6
CONTINUOUS
 10
-12.2885530004
 20
-31.272537
 11
-11.0721530004
 21
-31.272537
  0
LINE
  5
311
100
AcDbEntity
  8
0
100
AcDbLine
 62
7
  6
CONTINUOUS
 10
-14.3646900004
 20
-31.264247
 11
-13.8478504598
 21
-31.264247
  0
LINE
  5
312
100
AcDbEntity
  8
0
100
AcDbLine
 62
7
  6
CONTINUOUS
 10
-11.0721530004
 20
-31.027135
 11
-12.5656250004
 21
-31.027135
  0
LINE
  5
313
100
AcDbEntity
  8
0
100
AcDbLine
 62
7
  6
CONTINUOUS
 10
-13.8107110762
 20
-31.027135
 11
-14.6415970004
 21
-31.027135
  0
LINE
  5
314
100
AcDbEntity
  8
0
100
AcDbLine
 62
7
  6
CONTINUOUS
 10
-15.6525550004
 20
-31.027135
 11
-15.9666030004
 21
-31.027135
  0
LINE
  5
315
100
AcDbEntity
  8
0
100
AcDbLine
 62
7
  6
CONTINUOUS
 10
-16.9831990004
 20
-31.027135
 11
-17.3773350004
 21
-31.027135
  0
LINE
  5
316
100
AcDbEntity
  8
0
100
AcDbLine
 62
7
  6
CONTINUOUS
 10
-18.5509550004
 20
-31.027135
 11
-18.9479100004
 21
-31.027135
  0
LINE
  5
317
100
AcDbEntity
  8
ASSI
100
AcDbLine
 62
7
  6
CONTINUOUS
 10
36.0095942118
 20
-33.2002393942
 11
36.1324459996
 21
-33.20278
  0
LINE
  5
318
100
AcDbEntity
  8
DRAFT
100
AcDbLine
 62
7
  6
CONTINUOUS
 10
12.570151725
 20
-43.0088825784
 11
12.5523811538
 21
-43.0
  0
LINE
  5
319
100
AcDbEntity
  8
RACCORDO
100
AcDbLine
 62
7
  6
CONTINUOUS
 10
17.4476188453
 20
-44.1
 11
17.426422603
 21
-44.0894051079
  0
LINE
  5
31A
100
AcDbEntity
  8
RACCORDO
100
AcDbLine
 62
7
  6
CONTINUOUS
 10
17.4476188453
 20
-43.3238174026
 11
17.4931377359
 21
-43.3465699136
  0
LINE
  5
31B
100
AcDbEntity
  8
0
100
AcDbLine
 62
7
  6
CONTINUOUS
 10
-15.1798240004
 20
-34.359295
 11
-14.1318890004
 21
-36.024721
  0
LINE
  5
31C
100
AcDbEntity
  8
DRAFT
100
AcDbLine
 62
7
  6
CONTINUOUS
 10
-43.0088825789
 20
12.5701517255
 11
-43.0000000004
 21
12.5523811542
  0
LINE
  5
31D
100
AcDbEntity
  8
RACCORDO
100
AcDbLine
 62
7
  6
CONTINUOUS
 10
-44.1000000004
 20
17.4476188458
 11
-44.0894051083
 21
17.4264226035
  0
LINE
  5
31E
100
AcDbEntity
  8
RACCORDO
100
AcDbLine
 62
7
  6
CONTINUOUS
 10
-43.3238174031
 20
17.4476188458
 11
-43.346569914
 21
17.4931377364
  0
LINE
  5
31F
100
AcDbEntity
  8
0
100
AcDbLine
 62
7
  6
CONTINUOUS
 10
-26.0000000004
 20
-34.4680850506
 11
-26.0416665082
 21
-34.2978723049
  0
LINE
  5
320
100
AcDbEntity
  8
0
100
AcDbLine
 62
7
  6
CONTINUOUS
 10
-30.9387970004
 20
28.112597
 11
-31.3127970004
 21
32.112109
  0
LINE
  5
321
100
AcDbEntity
  8
0
100
AcDbLine
 62
7
  6
CONTINUOUS
 10
-31.9270310004
 20
30.713316
 11
-31.7555070004
 21
28.112597
  0
LINE
  5
322
100
AcDbEntity
  8
0
100
AcDbLine
 62
7
  6
CONTINUOUS
 10
-30.0416667466
 20
-35.2765957713
 11
-30.0416667466
 21
-35.4042553306
  0
LINE
  5
323
100
AcDbEntity
  8
0
100
AcDbLine
 62
7
  6
CONTINUOUS
 10
-29.8333334927
 20
-35.446808517
 11
-29.8333334927
 21
-35.2340425253
  0
LINE
  5
324
100
AcDbEntity
  8
0
100
AcDbLine
 62
7
  6
CONTINUOUS
 10
-29.5000000004
 20
-35.1489361525
 11
-29.5000000004
 21
-35.4042553306
  0
LINE
  5
325
100
AcDbEntity
  8
RACCORDO
100
AcDbLine
 62
7
  6
CONTINUOUS
 10
-29.2500000004
 20
45.45
 11
-29.2500000004
 21
45.35
  0
LINE
  5
326
100
AcDbEntity
  8
RACCORDO
100
AcDbLine
 62
7
  6
CONTINUOUS
 10
-29.2500000004
 20
-45.45
 11
-29.2500000004
 21
-45.35
  0
LINE
  5
327
100
AcDbEntity
  8
0
100
AcDbLine
 62
7
  6
CONTINUOUS
 10
-28.5000000004
 20
-34.3404254913
 11
-28.5000000004
 21
-35.1489361525
  0
LINE
  5
328
100
AcDbEntity
  8
0
100
AcDbLine
 62
7
  6
CONTINUOUS
 10
-28.5000000004
 20
-35.4042553306
 11
-28.5000000004
 21
-36.0
  0
LINE
  5
329
100
AcDbEntity
  8
0
100
AcDbLine
 62
7
  6
CONTINUOUS
 10
-28.2500000004
 20
-36.0
 11
-28.2500000004
 21
-35.4042553306
  0
LINE
  5
32A
100
AcDbEntity
  8
0
100
AcDbLine
 62
7
  6
CONTINUOUS
 10
-28.2500000004
 20
-35.1489361525
 11
-28.2500000004
 21
-34.0
  0
LINE
  5
32B
100
AcDbEntity
  8
DRAFT
100
AcDbLine
 62
7
  6
CONTINUOUS
 10
-28.0000000004
 20
45.3447634805
 11
-28.0000000004
 21
45.3273084156
  0
LINE
  5
32C
100
AcDbEntity
  8
DRAFT
100
AcDbLine
 62
7
  6
CONTINUOUS
 10
-28.0000000004
 20
-45.3447634805
 11
-28.0000000004
 21
-45.3273084156
  0
LINE
  5
32D
100
AcDbEntity
  8
0
100
AcDbLine
 62
7
  6
CONTINUOUS
 10
-27.8333334927
 20
-35.4042553306
 11
-27.8333334927
 21
-35.1489361525
  0
LINE
  5
32E
100
AcDbEntity
  8
0
100
AcDbLine
 62
7
  6
CONTINUOUS
 10
-27.5000000004
 20
-35.7872340381
 11
-27.5000000004
 21
-36.0
  0
LINE
  5
32F
100
AcDbEntity
  8
0
100
AcDbLine
 62
7
  6
CONTINUOUS
 10
-27.2732753202
 20
32.0653816085
 11
-27.2732753202
 21
28.1125968881
  0
LINE
  5
330
100
AcDbEntity
  8
0
100
AcDbLine
 62
7
  6
CONTINUOUS
 10
-26.4694619488
 20
30.3328085387
 11
-26.4694619488
 21
31.4307526417
  0
LINE
  5
331
100
AcDbEntity
  8
0
100
AcDbLine
 62
7
  6
CONTINUOUS
 10
-26.4417794093
 20
28.1125968881
 11
-26.4417794093
 21
29.6777850682
  0
LINE
  5
332
100
AcDbEntity
  8
RACCORDO
100
AcDbLine
 62
253
  6
CONTINUOUS
 10
-29.0976479582
 20
7.7213182393
 11
-28.9611931915
 21
8.4951916764
  0
LINE
  5
333
100
AcDbEntity
  8
ASSI
100
AcDbLine
 62
7
  6
CONTINUOUS
 10
-14.4596311176
 20
25.6232794982
 11
-13.7096392965
 21
26.3732713192
  0
LINE
  5
334
100
AcDbEntity
  8
ASSI
100
AcDbLine
 62
7
  6
CONTINUOUS
 10
-14.0602070871
 20
25.9897929133
 11
-13.7000000004
 21
26.35
  0
LINE
  5
335
100
AcDbEntity
  8
RACCORDO
100
AcDbLine
 62
7
  6
CONTINUOUS
 10
-24.4754410564
 20
15.2745589441
 11
-24.4931702909
 21
15.2568297095
  0
LINE
  5
336
100
AcDbEntity
  8
RACCORDO
100
AcDbLine
 62
253
  6
CONTINUOUS
 10
-24.9499695395
 20
12.9
 11
-24.9849405959
 21
12.8650289436
  0
LINE
  5
337
100
AcDbEntity
  8
RACCORDO
100
AcDbLine
 62
253
  6
CONTINUOUS
 10
-24.7497544195
 20
12.7002760419
 11
-24.7849710569
 21
12.6650594045
  0
LINE
  5
338
100
AcDbEntity
  8
ASSI
100
AcDbLine
 62
7
  6
CONTINUOUS
 10
-14.2599329941
 20
25.7916264167
 11
-14.4596311176
 21
25.6232794982
  0
LINE
  5
339
100
AcDbEntity
  8
ASSI
100
AcDbLine
 62
7
  6
CONTINUOUS
 10
-10.4562355316
 20
26.1232713192
 11
-10.0232228298
 21
26.3732713192
  0
LINE
  5
33A
100
AcDbEntity
  8
ASSI
100
AcDbLine
 62
7
  6
CONTINUOUS
 10
-10.4500000004
 20
26.1
 11
-10.0169872986
 21
26.35
  0
LINE
  5
33B
100
AcDbEntity
  8
DRAFT
100
AcDbLine
 62
253
  6
CONTINUOUS
 10
12.6672468457
 20
-26.8948219304
 11
12.6741374996
 21
-26.8929755853
  0
LINE
  5
33C
100
AcDbEntity
  8
DRAFT
100
AcDbLine
 62
253
  6
CONTINUOUS
 10
9.1672468457
 20
-26.8948219304
 11
9.1741374996
 21
-26.8929755853
  0
LINE
  5
33D
100
AcDbEntity
  8
0
100
AcDbLine
 62
7
  6
CONTINUOUS
 10
-30.4583332543
 20
-36.0
 11
-30.2500000004
 21
-35.9574468099
  0
LINE
  5
33E
100
AcDbEntity
  8
0
100
AcDbLine
 62
7
  6
CONTINUOUS
 10
-27.0416665082
 20
-34.2553191185
 11
-26.8333334927
 21
-34.2127659321
  0
LINE
  5
33F
100
AcDbEntity
  8
0
100
AcDbLine
 62
7
  6
CONTINUOUS
 10
-30.6666667466
 20
-34.7234042883
 11
-30.8750000004
 21
-34.7659574747
  0
LINE
  5
340
100
AcDbEntity
  8
0
100
AcDbLine
 62
7
  6
CONTINUOUS
 10
-30.6666667466
 20
-34.0
 11
-30.8750000004
 21
-34.0425531864
  0
LINE
  5
341
100
AcDbEntity
  8
0
100
AcDbLine
 62
7
  6
CONTINUOUS
 10
-33.5416666572
 20
-34.2553191185
 11
-33.3333333139
 21
-34.2127659321
  0
LINE
  5
342
100
AcDbEntity
  8
0
100
AcDbLine
 62
7
  6
CONTINUOUS
 10
-26.7916665082
 20
-34.0
 11
-27.0833334927
 21
-34.0425531864
  0
LINE
  5
343
100
AcDbEntity
  8
0
100
AcDbLine
 62
7
  6
CONTINUOUS
 10
-33.291666687
 20
-34.0
 11
-33.5833333437
 21
-34.0425531864
  0
LINE
  5
344
100
AcDbEntity
  8
RACCORDO
100
AcDbLine
 62
7
  6
CONTINUOUS
 10
-45.4500000004
 20
-29.25
 11
-45.3500000004
 21
-29.25
  0
LINE
  5
345
100
AcDbEntity
  8
RACCORDO
100
AcDbLine
 62
7
  6
CONTINUOUS
 10
45.4499999996
 20
-29.25
 11
45.3499999996
 21
-29.25
  0
LINE
  5
346
100
AcDbEntity
  8
0
100
AcDbLine
 62
7
  6
CONTINUOUS
 10
-14.2000000004
 20
-28.7575
 11
-11.8500000004
 21
-28.7575
  0
LINE
  5
347
100
AcDbEntity
  8
RACCORDO
100
AcDbLine
 62
7
  6
CONTINUOUS
 10
8.2999999996
 20
-28.7575
 11
10.6499999996
 21
-28.7575
  0
LINE
  5
348
100
AcDbEntity
  8
RACCORDO
100
AcDbLine
 62
7
  6
CONTINUOUS
 10
-8.3000000004
 20
-28.7575
 11
-10.6500000004
 21
-28.7575
  0
LINE
  5
349
100
AcDbEntity
  8
0
100
AcDbLine
 62
7
  6
CONTINUOUS
 10
11.8499999996
 20
-28.7575
 11
14.1999999996
 21
-28.7575
  0
LINE
  5
34A
100
AcDbEntity
  8
SMUSSO
100
AcDbLine
 62
7
  6
CONTINUOUS
 10
14.1999999996
 20
-27.1575
 11
11.8499999996
 21
-27.1575
  0
LINE
  5
34B
100
AcDbEntity
  8
SMUSSO
100
AcDbLine
 62
7
  6
CONTINUOUS
 10
10.6499999996
 20
-27.1575
 11
8.2999999996
 21
-27.1575
  0
LINE
  5
34C
100
AcDbEntity
  8
SMUSSO
100
AcDbLine
 62
7
  6
CONTINUOUS
 10
-8.3000000004
 20
-27.1575
 11
-10.6500000004
 21
-27.1575
  0
LINE
  5
34D
100
AcDbEntity
  8
SMUSSO
100
AcDbLine
 62
7
  6
CONTINUOUS
 10
-11.8500000004
 20
-27.1575
 11
-14.2000000004
 21
-27.1575
  0
LINE
  5
34E
100
AcDbEntity
  8
DRAFT
100
AcDbLine
 62
7
  6
CONTINUOUS
 10
-14.2000000004
 20
-26.8075
 11
-13.355993213
 21
-26.8075
  0
LINE
  5
34F
100
AcDbEntity
  8
DRAFT
100
AcDbLine
 62
7
  6
CONTINUOUS
 10
-12.6440067879
 20
-26.8075
 11
-11.8500000004
 21
-26.8075
  0
LINE
  5
350
100
AcDbEntity
  8
DRAFT
100
AcDbLine
 62
7
  6
CONTINUOUS
 10
-10.6500000004
 20
-26.8075
 11
-9.855993213
 21
-26.8075
  0
LINE
  5
351
100
AcDbEntity
  8
DRAFT
100
AcDbLine
 62
7
  6
CONTINUOUS
 10
-9.1440067879
 20
-26.8075
 11
-8.3000000004
 21
-26.8075
  0
LINE
  5
352
100
AcDbEntity
  8
DRAFT
100
AcDbLine
 62
7
  6
CONTINUOUS
 10
8.2999999996
 20
-26.8075
 11
9.144006787
 21
-26.8075
  0
LINE
  5
353
100
AcDbEntity
  8
DRAFT
100
AcDbLine
 62
7
  6
CONTINUOUS
 10
9.8559932121
 20
-26.8075
 11
10.6499999996
 21
-26.8075
  0
LINE
  5
354
100
AcDbEntity
  8
DRAFT
100
AcDbLine
 62
7
  6
CONTINUOUS
 10
11.8499999996
 20
-26.8075
 11
12.644006787
 21
-26.8075
  0
LINE
  5
355
100
AcDbEntity
  8
DRAFT
100
AcDbLine
 62
7
  6
CONTINUOUS
 10
13.3559932121
 20
-26.8075
 11
14.1999999996
 21
-26.8075
  0
LINE
  5
356
100
AcDbEntity
  8
DRAFT
100
AcDbLine
 62
253
  6
CONTINUOUS
 10
-12.6741375005
 20
-26.8929755853
 11
-12.6673940592
 21
-26.8947824849
  0
LINE
  5
357
100
AcDbEntity
  8
DRAFT
100
AcDbLine
 62
253
  6
CONTINUOUS
 10
-9.1741375005
 20
-26.8929755853
 11
-9.1673940592
 21
-26.8947824849
  0
LINE
  5
358
100
AcDbEntity
  8
ASSI
100
AcDbLine
 62
7
  6
CONTINUOUS
 10
-10.0232228298
 20
-26.3732713192
 11
-10.4562355316
 21
-26.1232713192
  0
LINE
  5
359
100
AcDbEntity
  8
ASSI
100
AcDbLine
 62
7
  6
CONTINUOUS
 10
-10.0169872986
 20
-26.35
 11
-10.4500000004
 21
-26.1
  0
LINE
  5
35A
100
AcDbEntity
  8
ASSI
100
AcDbLine
 62
7
  6
CONTINUOUS
 10
-14.2599329941
 20
-25.7916264167
 11
-14.4596311176
 21
-25.6232794982
  0
LINE
  5
35B
100
AcDbEntity
  8
ASSI
100
AcDbLine
 62
7
  6
CONTINUOUS
 10
-13.7096392965
 20
-26.3732713192
 11
-14.4596311176
 21
-25.6232794982
  0
LINE
  5
35C
100
AcDbEntity
  8
ASSI
100
AcDbLine
 62
7
  6
CONTINUOUS
 10
-13.7000000004
 20
-26.35
 11
-14.0602070871
 21
-25.9897929133
  0
LINE
  5
35D
100
AcDbEntity
  8
RACCORDO
100
AcDbLine
 62
7
  6
CONTINUOUS
 10
-24.4754410564
 20
-15.2745589441
 11
-24.4931702909
 21
-15.2568297095
  0
LINE
  5
35E
100
AcDbEntity
  8
RACCORDO
100
AcDbLine
 62
253
  6
CONTINUOUS
 10
-24.9499695395
 20
-12.9
 11
-24.9849405959
 21
-12.8650289436
  0
LINE
  5
35F
100
AcDbEntity
  8
RACCORDO
100
AcDbLine
 62
253
  6
CONTINUOUS
 10
-24.7497544195
 20
-12.7002760419
 11
-24.7849710569
 21
-12.6650594045
  0
LINE
  5
360
100
AcDbEntity
  8
0
100
AcDbLine
 62
7
  6
CONTINUOUS
 10
-13.1424870004
 20
-36.921766
 11
-12.3684740004
 21
-38.147119
  0
LINE
  5
361
100
AcDbEntity
  8
0
100
AcDbLine
 62
7
  6
CONTINUOUS
 10
-14.0889440004
 20
-35.639454
 11
-15.1199650004
 21
-33.975279
  0
LINE
  5
362
100
AcDbEntity
  8
0
100
AcDbLine
 62
7
  6
CONTINUOUS
 10
-12.2315130004
 20
-37.906691
 11
-12.8198160004
 21
-36.921766
  0
LINE
  5
363
100
AcDbEntity
  8
0
100
AcDbLine
 62
7
  6
CONTINUOUS
 10
-14.3789500004
 20
-38.972865
 11
-15.1214580004
 21
-36.921766
  0
LINE
  5
364
100
AcDbEntity
  8
0
100
AcDbLine
 62
7
  6
CONTINUOUS
 10
-14.8843460004
 20
-38.37594
 11
-14.6815570004
 21
-38.972865
  0
LINE
  5
365
100
AcDbEntity
  8
0
100
AcDbLine
 62
7
  6
CONTINUOUS
 10
-17.9627290004
 20
-32.768485
 11
-18.5509550004
 21
-31.027135
  0
LINE
  5
366
100
AcDbEntity
  8
0
100
AcDbLine
 62
7
  6
CONTINUOUS
 10
-18.6794600004
 20
-31.35876
 11
-18.1025990004
 21
-33.076576
  0
LINE
  5
367
100
AcDbEntity
  8
0
100
AcDbLine
 62
7
  6
CONTINUOUS
 10
-39.8783380004
 20
32.112109
 11
-38.6104150004
 21
28.112597
  0
LINE
  5
368
100
AcDbEntity
  8
0
100
AcDbLine
 62
7
  6
CONTINUOUS
 10
-38.2090480004
 20
29.359121
 11
-38.9714280004
 21
32.112109
  0
LINE
  5
369
100
AcDbEntity
  8
RACCORDO
100
AcDbLine
 62
253
  6
CONTINUOUS
 10
-28.9611931915
 20
-8.4951916764
 11
-29.0976479582
 21
-7.7213182393
  0
LINE
  5
36A
100
AcDbEntity
  8
0
100
AcDbLine
 62
7
  6
CONTINUOUS
 10
-26.2500000004
 20
-34.4680850506
 11
-26.2500000004
 21
-34.5531915426
  0
LINE
  5
36B
100
AcDbEntity
  8
0
100
AcDbLine
 62
7
  6
CONTINUOUS
 10
-26.0000000004
 20
-36.0
 11
-26.0000000004
 21
-35.7872340381
  0
LINE
  5
36C
100
AcDbEntity
  8
0
100
AcDbLine
 62
7
  6
CONTINUOUS
 10
-26.0000000004
 20
-34.5531915426
 11
-26.0000000004
 21
-34.4680850506
  0
LINE
  5
36D
100
AcDbEntity
  8
RACCORDO
100
AcDbLine
 62
7
  6
CONTINUOUS
 10
-25.7500000004
 20
12.700030461
 11
-25.7500000004
 21
8.449969539
  0
LINE
  5
36E
100
AcDbEntity
  8
RACCORDO
100
AcDbLine
 62
7
  6
CONTINUOUS
 10
-25.7500000004
 20
-8.449969539
 11
-25.7500000004
 21
-12.700030461
  0
LINE
  5
36F
100
AcDbEntity
  8
RACCORDO
100
AcDbLine
 62
253
  6
CONTINUOUS
 10
-25.715028944
 20
12.6650594045
 11
-25.715028944
 21
8.4849405955
  0
LINE
  5
370
100
AcDbEntity
  8
RACCORDO
100
AcDbLine
 62
253
  6
CONTINUOUS
 10
-25.715028944
 20
-8.4849405955
 11
-25.715028944
 21
-12.6650594045
  0
LINE
  5
371
100
AcDbEntity
  8
RACCORDO
100
AcDbLine
 62
253
  6
CONTINUOUS
 10
-25.515059405
 20
-12.8650289436
 11
-25.515059405
 21
-8.2849710564
  0
LINE
  5
372
100
AcDbEntity
  8
RACCORDO
100
AcDbLine
 62
253
  6
CONTINUOUS
 10
-25.515059405
 20
8.2849710564
 11
-25.515059405
 21
12.8650289436
  0
LINE
  5
373
100
AcDbEntity
  8
RACCORDO
100
AcDbLine
 62
7
  6
CONTINUOUS
 10
-25.4500000004
 20
-22.0
 11
-25.4500000004
 21
-21.0
  0
LINE
  5
374
100
AcDbEntity
  8
RACCORDO
100
AcDbLine
 62
7
  6
CONTINUOUS
 10
-25.4500000004
 20
-14.0
 11
-25.4500000004
 21
-13.0
  0
LINE
  5
375
100
AcDbEntity
  8
RACCORDO
100
AcDbLine
 62
7
  6
CONTINUOUS
 10
-25.4500000004
 20
13.0
 11
-25.4500000004
 21
14.0
  0
LINE
  5
376
100
AcDbEntity
  8
RACCORDO
100
AcDbLine
 62
7
  6
CONTINUOUS
 10
-25.4500000004
 20
21.0
 11
-25.4500000004
 21
22.0
  0
LINE
  5
377
100
AcDbEntity
  8
RACCORDO
100
AcDbLine
 62
7
  6
CONTINUOUS
 10
-25.2500000004
 20
-22.0
 11
-25.2500000004
 21
-21.0
  0
LINE
  5
378
100
AcDbEntity
  8
RACCORDO
100
AcDbLine
 62
253
  6
CONTINUOUS
 10
-25.2500000004
 20
-20.0
 11
-25.2500000004
 21
-15.0
  0
LINE
  5
379
100
AcDbEntity
  8
RACCORDO
100
AcDbLine
 62
7
  6
CONTINUOUS
 10
-25.2500000004
 20
-14.0
 11
-25.2500000004
 21
-13.0
  0
LINE
  5
37A
100
AcDbEntity
  8
RACCORDO
100
AcDbLine
 62
7
  6
CONTINUOUS
 10
-25.2500000004
 20
13.0
 11
-25.2500000004
 21
14.0
  0
LINE
  5
37B
100
AcDbEntity
  8
RACCORDO
100
AcDbLine
 62
253
  6
CONTINUOUS
 10
-25.2500000004
 20
15.0
 11
-25.2500000004
 21
20.0
  0
LINE
  5
37C
100
AcDbEntity
  8
RACCORDO
100
AcDbLine
 62
7
  6
CONTINUOUS
 10
-25.2500000004
 20
21.0
 11
-25.2500000004
 21
22.0
  0
LINE
  5
37D
100
AcDbEntity
  8
DRAFT
100
AcDbLine
 62
7
  6
CONTINUOUS
 10
-25.2107261044
 20
-21.25
 11
-25.2107261044
 21
-21.0
  0
LINE
  5
37E
100
AcDbEntity
  8
DRAFT
100
AcDbLine
 62
7
  6
CONTINUOUS
 10
-25.2107261044
 20
-14.0
 11
-25.2107261044
 21
-13.75
  0
LINE
  5
37F
100
AcDbEntity
  8
DRAFT
100
AcDbLine
 62
7
  6
CONTINUOUS
 10
-25.2107261044
 20
13.75
 11
-25.2107261044
 21
14.0
  0
LINE
  5
380
100
AcDbEntity
  8
DRAFT
100
AcDbLine
 62
7
  6
CONTINUOUS
 10
-25.2107261044
 20
21.0
 11
-25.2107261044
 21
21.25
  0
LINE
  5
381
100
AcDbEntity
  8
RACCORDO
100
AcDbLine
 62
7
  6
CONTINUOUS
 10
-25.2089805979
 20
-22.0
 11
-25.2089805979
 21
-21.25
  0
LINE
  5
382
100
AcDbEntity
  8
DRAFT
100
AcDbLine
 62
7
  6
CONTINUOUS
 10
-25.2089805979
 20
-13.75
 11
-25.2089805979
 21
-13.0
  0
LINE
  5
383
100
AcDbEntity
  8
DRAFT
100
AcDbLine
 62
7
  6
CONTINUOUS
 10
-25.2089805979
 20
13.0
 11
-25.2089805979
 21
13.75
  0
LINE
  5
384
100
AcDbEntity
  8
RACCORDO
100
AcDbLine
 62
7
  6
CONTINUOUS
 10
-25.2089805979
 20
21.25
 11
-25.2089805979
 21
22.0
  0
LINE
  5
385
100
AcDbEntity
  8
0
100
AcDbLine
 62
7
  6
CONTINUOUS
 10
-25.1269037696
 20
29.9795337467
 11
-25.1269037696
 21
30.0031673774
  0
LINE
  5
386
100
AcDbEntity
  8
RACCORDO
100
AcDbLine
 62
253
  6
CONTINUOUS
 10
-24.9849405959
 20
-12.8650289436
 11
-24.9849405959
 21
-8.2849710564
  0
LINE
  5
387
100
AcDbEntity
  8
RACCORDO
100
AcDbLine
 62
253
  6
CONTINUOUS
 10
-24.9849405959
 20
8.2849710564
 11
-24.9849405959
 21
12.8650289436
  0
LINE
  5
388
100
AcDbEntity
  8
RACCORDO
100
AcDbLine
 62
253
  6
CONTINUOUS
 10
-24.8675312294
 20
25.2
 11
-24.8675312294
 21
22.0
  0
LINE
  5
389
100
AcDbEntity
  8
RACCORDO
100
AcDbLine
 62
253
  6
CONTINUOUS
 10
-24.8675312294
 20
-21.0
 11
-24.8675312294
 21
-20.0
  0
LINE
  5
38A
100
AcDbEntity
  8
RACCORDO
100
AcDbLine
 62
253
  6
CONTINUOUS
 10
-24.8675312294
 20
-22.0
 11
-24.8675312294
 21
-25.2
  0
LINE
  5
38B
100
AcDbEntity
  8
RACCORDO
100
AcDbLine
 62
253
  6
CONTINUOUS
 10
-24.8675312294
 20
-15.0
 11
-24.8675312294
 21
-14.0
  0
LINE
  5
38C
100
AcDbEntity
  8
RACCORDO
100
AcDbLine
 62
253
  6
CONTINUOUS
 10
-24.8675312294
 20
-13.0
 11
-24.8675312294
 21
-12.8822199628
  0
LINE
  5
38D
100
AcDbEntity
  8
RACCORDO
100
AcDbLine
 62
253
  6
CONTINUOUS
 10
-24.8675312294
 20
-8.2677800372
 11
-24.8675312294
 21
-7.7733686226
  0
LINE
  5
38E
100
AcDbEntity
  8
RACCORDO
100
AcDbLine
 62
253
  6
CONTINUOUS
 10
-24.8675312294
 20
7.7733686226
 11
-24.8675312294
 21
8.2677800372
  0
LINE
  5
38F
100
AcDbEntity
  8
RACCORDO
100
AcDbLine
 62
253
  6
CONTINUOUS
 10
-24.8675312294
 20
12.8822199628
 11
-24.8675312294
 21
13.0
  0
LINE
  5
390
100
AcDbEntity
  8
RACCORDO
100
AcDbLine
 62
253
  6
CONTINUOUS
 10
-24.8675312294
 20
14.0
 11
-24.8675312294
 21
15.0
  0
LINE
  5
391
100
AcDbEntity
  8
RACCORDO
100
AcDbLine
 62
253
  6
CONTINUOUS
 10
-24.8675312294
 20
20.0
 11
-24.8675312294
 21
21.0
  0
LINE
  5
392
100
AcDbEntity
  8
RACCORDO
100
AcDbLine
 62
253
  6
CONTINUOUS
 10
-24.7849710569
 20
-12.6650594045
 11
-24.7849710569
 21
-8.4849405955
  0
LINE
  5
393
100
AcDbEntity
  8
RACCORDO
100
AcDbLine
 62
253
  6
CONTINUOUS
 10
-24.7849710569
 20
8.4849405955
 11
-24.7849710569
 21
12.6650594045
  0
LINE
  5
394
100
AcDbEntity
  8
RACCORDO
100
AcDbLine
 62
7
  6
CONTINUOUS
 10
-24.7500000004
 20
-20.0
 11
-24.7500000004
 21
-15.0
  0
LINE
  5
395
100
AcDbEntity
  8
RACCORDO
100
AcDbLine
 62
7
  6
CONTINUOUS
 10
-24.7500000004
 20
15.0
 11
-24.7500000004
 21
20.0
  0
LINE
  5
396
100
AcDbEntity
  8
RACCORDO
100
AcDbLine
 62
7
  6
CONTINUOUS
 10
-24.7497544195
 20
-12.7002760419
 11
-24.7497544195
 21
-8.4497239581
  0
LINE
  5
397
100
AcDbEntity
  8
RACCORDO
100
AcDbLine
 62
7
  6
CONTINUOUS
 10
-24.7497544195
 20
8.4497239581
 11
-24.7497544195
 21
12.7002760419
  0
LINE
  5
398
100
AcDbEntity
  8
0
100
AcDbLine
 62
7
  6
CONTINUOUS
 10
-24.7000000004
 20
-0.6
 11
-24.7000000004
 21
0.6
  0
LINE
  5
399
100
AcDbEntity
  8
RACCORDO
100
AcDbLine
 62
253
  6
CONTINUOUS
 10
-24.6596459846
 20
6.9388120306
 11
-24.6596459846
 21
0.6
  0
LINE
  5
39A
100
AcDbEntity
  8
RACCORDO
100
AcDbLine
 62
253
  6
CONTINUOUS
 10
-24.6596459846
 20
-0.6
 11
-24.6596459846
 21
-6.9388119964
  0
LINE
  5
39B
100
AcDbEntity
  8
RACCORDO
100
AcDbLine
 62
253
  6
CONTINUOUS
 10
-24.4931702909
 20
19.7431702905
 11
-24.4931702909
 21
15.2568297095
  0
LINE
  5
39C
100
AcDbEntity
  8
RACCORDO
100
AcDbLine
 62
253
  6
CONTINUOUS
 10
-24.4931702909
 20
-15.2568297095
 11
-24.4931702909
 21
-19.7431702905
  0
LINE
  5
39D
100
AcDbEntity
  8
RACCORDO
100
AcDbLine
 62
253
  6
CONTINUOUS
 10
-24.4754410564
 20
-19.7254410559
 11
-24.4754410564
 21
-15.2745589441
  0
LINE
  5
39E
100
AcDbEntity
  8
RACCORDO
100
AcDbLine
 62
253
  6
CONTINUOUS
 10
-24.4754410564
 20
15.2745589441
 11
-24.4754410564
 21
19.7254410559
  0
LINE
  5
39F
100
AcDbEntity
  8
RACCORDO
100
AcDbLine
 62
253
  6
CONTINUOUS
 10
-24.3676073818
 20
24.7000761524
 11
-24.3674550654
 21
23.5
  0
LINE
  5
3A0
100
AcDbEntity
  8
RACCORDO
100
AcDbLine
 62
253
  6
CONTINUOUS
 10
-24.3674550654
 20
23.2088036965
 11
-24.3676073818
 21
22.0
  0
LINE
  5
3A1
100
AcDbEntity
  8
RACCORDO
100
AcDbLine
 62
253
  6
CONTINUOUS
 10
-24.3676071187
 20
-7.6723509466
 11
-24.3676073818
 21
-13.0
  0
LINE
  5
3A2
100
AcDbEntity
  8
RACCORDO
100
AcDbLine
 62
253
  6
CONTINUOUS
 10
-24.3676073818
 20
-21.0
 11
-24.3676073818
 21
-20.0
  0
LINE
  5
3A3
100
AcDbEntity
  8
RACCORDO
100
AcDbLine
 62
253
  6
CONTINUOUS
 10
-24.3676073818
 20
-22.0
 11
-24.3674550654
 21
-23.2088036965
  0
LINE
  5
3A4
100
AcDbEntity
  8
RACCORDO
100
AcDbLine
 62
253
  6
CONTINUOUS
 10
-24.3674550654
 20
-23.5
 11
-24.3676073818
 21
-24.7000761524
  0
LINE
  5
3A5
100
AcDbEntity
  8
RACCORDO
100
AcDbLine
 62
253
  6
CONTINUOUS
 10
-24.3676073818
 20
-15.0
 11
-24.3676073818
 21
-14.0
  0
LINE
  5
3A6
100
AcDbEntity
  8
RACCORDO
100
AcDbLine
 62
253
  6
CONTINUOUS
 10
-24.367607118
 20
7.672350921
 11
-24.3676073818
 21
13.0
  0
LINE
  5
3A7
100
AcDbEntity
  8
RACCORDO
100
AcDbLine
 62
253
  6
CONTINUOUS
 10
-24.3676073818
 20
14.0
 11
-24.3676073818
 21
15.0
  0
LINE
  5
3A8
100
AcDbEntity
  8
RACCORDO
100
AcDbLine
 62
253
  6
CONTINUOUS
 10
-24.3676073818
 20
20.0
 11
-24.3676073818
 21
21.0
  0
LINE
  5
3A9
100
AcDbEntity
  8
RACCORDO
100
AcDbLine
 62
7
  6
CONTINUOUS
 10
-24.3674550654
 20
23.5
 11
-24.3674550654
 21
23.2088036965
  0
LINE
  5
3AA
100
AcDbEntity
  8
RACCORDO
100
AcDbLine
 62
7
  6
CONTINUOUS
 10
-24.3674550654
 20
-23.2088036965
 11
-24.3674550654
 21
-23.5
  0
LINE
  5
3AB
100
AcDbEntity
  8
DRAFT
100
AcDbLine
 62
7
  6
CONTINUOUS
 10
-24.3625994663
 20
21.0
 11
-24.3625994663
 21
20.0
  0
LINE
  5
3AC
100
AcDbEntity
  8
DRAFT
100
AcDbLine
 62
7
  6
CONTINUOUS
 10
-24.3625994663
 20
15.0
 11
-24.3625994663
 21
14.0
  0
LINE
  5
3AD
100
AcDbEntity
  8
DRAFT
100
AcDbLine
 62
7
  6
CONTINUOUS
 10
-24.3625994663
 20
-14.0
 11
-24.3625994663
 21
-15.0
  0
LINE
  5
3AE
100
AcDbEntity
  8
DRAFT
100
AcDbLine
 62
7
  6
CONTINUOUS
 10
-24.3625994663
 20
-20.0
 11
-24.3625994663
 21
-21.0
  0
LINE
  5
3AF
100
AcDbEntity
  8
RACCORDO
100
AcDbLine
 62
253
  6
CONTINUOUS
 10
-24.359691676
 20
6.9387787509
 11
-24.359691676
 21
0.6
  0
LINE
  5
3B0
100
AcDbEntity
  8
RACCORDO
100
AcDbLine
 62
253
  6
CONTINUOUS
 10
-24.359691676
 20
-0.6
 11
-24.359691676
 21
-6.9387787509
  0
LINE
  5
3B1
100
AcDbEntity
  8
DRAFT
100
AcDbLine
 62
7
  6
CONTINUOUS
 10
-24.3500000004
 20
24.7
 11
-24.3500000004
 21
23.5
  0
LINE
  5
3B2
100
AcDbEntity
  8
DRAFT
100
AcDbLine
 62
7
  6
CONTINUOUS
 10
-24.3500000004
 20
22.7
 11
-24.3500000004
 21
22.0
  0
LINE
  5
3B3
100
AcDbEntity
  8
DRAFT
100
AcDbLine
 62
7
  6
CONTINUOUS
 10
-24.3500000004
 20
13.0
 11
-24.3500000004
 21
0.6
  0
LINE
  5
3B4
100
AcDbEntity
  8
DRAFT
100
AcDbLine
 62
7
  6
CONTINUOUS
 10
-24.3500000004
 20
-0.6
 11
-24.3500000004
 21
-13.0
  0
LINE
  5
3B5
100
AcDbEntity
  8
DRAFT
100
AcDbLine
 62
7
  6
CONTINUOUS
 10
-24.3500000004
 20
-22.0
 11
-24.3500000004
 21
-22.7
  0
LINE
  5
3B6
100
AcDbEntity
  8
DRAFT
100
AcDbLine
 62
7
  6
CONTINUOUS
 10
-24.3500000004
 20
-23.5
 11
-24.3500000004
 21
-24.7
  0
LINE
  5
3B7
100
AcDbEntity
  8
DRAFT
100
AcDbLine
 62
7
  6
CONTINUOUS
 10
-24.2000000004
 20
-13.0
 11
-24.2000000004
 21
-7.0
  0
LINE
  5
3B8
100
AcDbEntity
  8
DRAFT
100
AcDbLine
 62
7
  6
CONTINUOUS
 10
-24.2000000004
 20
7.0
 11
-24.2000000004
 21
13.0
  0
LINE
  5
3B9
100
AcDbEntity
  8
RACCORDO
100
AcDbLine
 62
253
  6
CONTINUOUS
 10
-24.0755019783
 20
-19.7185808831
 11
-24.0755019783
 21
-15.2814191169
  0
LINE
  5
3BA
100
AcDbEntity
  8
RACCORDO
100
AcDbLine
 62
253
  6
CONTINUOUS
 10
-24.0755019783
 20
15.2814191169
 11
-24.0755019783
 21
19.7185808831
  0
LINE
  5
3BB
100
AcDbEntity
  8
SMUSSO
100
AcDbLine
 62
7
  6
CONTINUOUS
 10
-23.8881197851
 20
21.0
 11
-23.8881197851
 21
20.0
  0
LINE
  5
3BC
100
AcDbEntity
  8
SMUSSO
100
AcDbLine
 62
7
  6
CONTINUOUS
 10
-23.8881197851
 20
15.0
 11
-23.8881197851
 21
14.0
  0
LINE
  5
3BD
100
AcDbEntity
  8
SMUSSO
100
AcDbLine
 62
7
  6
CONTINUOUS
 10
-23.8881197851
 20
-14.0
 11
-23.8881197851
 21
-15.0
  0
LINE
  5
3BE
100
AcDbEntity
  8
SMUSSO
100
AcDbLine
 62
7
  6
CONTINUOUS
 10
-23.8881197851
 20
-20.0
 11
-23.8881197851
 21
-21.0
  0
LINE
  5
3BF
100
AcDbEntity
  8
RACCORDO
100
AcDbLine
 62
7
  6
CONTINUOUS
 10
-23.8500000004
 20
22.0
 11
-23.8500000004
 21
21.25
  0
LINE
  5
3C0
100
AcDbEntity
  8
DRAFT
100
AcDbLine
 62
7
  6
CONTINUOUS
 10
-23.8500000004
 20
13.75
 11
-23.8500000004
 21
7.0
  0
LINE
  5
3C1
100
AcDbEntity
  8
DRAFT
100
AcDbLine
 62
7
  6
CONTINUOUS
 10
-23.8500000004
 20
0.6
 11
-23.8500000004
 21
-0.6
  0
LINE
  5
3C2
100
AcDbEntity
  8
DRAFT
100
AcDbLine
 62
7
  6
CONTINUOUS
 10
-23.8500000004
 20
-7.0
 11
-23.8500000004
 21
-13.75
  0
LINE
  5
3C3
100
AcDbEntity
  8
RACCORDO
100
AcDbLine
 62
7
  6
CONTINUOUS
 10
-23.8500000004
 20
-21.25
 11
-23.8500000004
 21
-22.0
  0
LINE
  5
3C4
100
AcDbEntity
  8
DRAFT
100
AcDbLine
 62
7
  6
CONTINUOUS
 10
-23.837781455
 20
23.53174001
 11
-23.837781455
 21
23.5
  0
LINE
  5
3C5
100
AcDbEntity
  8
DRAFT
100
AcDbLine
 62
7
  6
CONTINUOUS
 10
-23.837781455
 20
22.0
 11
-23.837781455
 21
21.25
  0
LINE
  5
3C6
100
AcDbEntity
  8
DRAFT
100
AcDbLine
 62
7
  6
CONTINUOUS
 10
-23.837781455
 20
13.75
 11
-23.837781455
 21
7.0
  0
LINE
  5
3C7
100
AcDbEntity
  8
DRAFT
100
AcDbLine
 62
7
  6
CONTINUOUS
 10
-23.837781455
 20
0.6
 11
-23.837781455
 21
-0.6
  0
LINE
  5
3C8
100
AcDbEntity
  8
DRAFT
100
AcDbLine
 62
7
  6
CONTINUOUS
 10
-23.837781455
 20
-7.0
 11
-23.837781455
 21
-13.75
  0
LINE
  5
3C9
100
AcDbEntity
  8
DRAFT
100
AcDbLine
 62
7
  6
CONTINUOUS
 10
-23.837781455
 20
-21.25
 11
-23.837781455
 21
-22.0
  0
LINE
  5
3CA
100
AcDbEntity
  8
DRAFT
100
AcDbLine
 62
7
  6
CONTINUOUS
 10
-23.837781455
 20
-23.5
 11
-23.837781455
 21
-23.53174001
  0
LINE
  5
3CB
100
AcDbEntity
  8
RACCORDO
100
AcDbLine
 62
7
  6
CONTINUOUS
 10
-23.7000000004
 20
19.7482544935
 11
-23.7000000004
 21
19.7307994286
  0
LINE
  5
3CC
100
AcDbEntity
  8
RACCORDO
100
AcDbLine
 62
7
  6
CONTINUOUS
 10
-23.7000000004
 20
-15.2517455065
 11
-23.7000000004
 21
-15.2692005714
  0
LINE
  5
3CD
100
AcDbEntity
  8
RACCORDO
100
AcDbLine
 62
7
  6
CONTINUOUS
 10
-23.7000000004
 20
-19.7482544935
 11
-23.7000000004
 21
-19.7307994286
  0
LINE
  5
3CE
100
AcDbEntity
  8
RACCORDO
100
AcDbLine
 62
7
  6
CONTINUOUS
 10
-23.7000000004
 20
15.2517455065
 11
-23.7000000004
 21
15.2692005714
  0
LINE
  5
3CF
100
AcDbEntity
  8
SMUSSO
100
AcDbLine
 62
7
  6
CONTINUOUS
 10
-23.5309401081
 20
-19.7185808831
 11
-23.5309401081
 21
-15.2814191169
  0
LINE
  5
3D0
100
AcDbEntity
  8
SMUSSO
100
AcDbLine
 62
7
  6
CONTINUOUS
 10
-23.5309401081
 20
15.2814191169
 11
-23.5309401081
 21
19.7185808831
  0
LINE
  5
3D1
100
AcDbEntity
  8
0
100
AcDbLine
 62
7
  6
CONTINUOUS
 10
-23.5000000004
 20
0.6
 11
-23.5000000004
 21
-0.6
  0
LINE
  5
3D2
100
AcDbEntity
  8
SMUSSO
100
AcDbLine
 62
7
  6
CONTINUOUS
 10
-23.3000000004
 20
-19.7255629091
 11
-23.3000000004
 21
-15.2744370909
  0
LINE
  5
3D3
100
AcDbEntity
  8
SMUSSO
100
AcDbLine
 62
7
  6
CONTINUOUS
 10
-23.3000000004
 20
15.2744370909
 11
-23.3000000004
 21
19.7255629091
  0
LINE
  5
3D4
100
AcDbEntity
  8
0
100
AcDbLine
 62
7
  6
CONTINUOUS
 10
-23.2000000004
 20
20.0
 11
-23.2000000004
 21
15.0
  0
LINE
  5
3D5
100
AcDbEntity
  8
0
100
AcDbLine
 62
7
  6
CONTINUOUS
 10
-23.2000000004
 20
-15.0
 11
-23.2000000004
 21
-20.0
  0
LINE
  5
3D6
100
AcDbEntity
  8
RACCORDO
100
AcDbLine
 62
7
  6
CONTINUOUS
 10
-23.1500000004
 20
25.1675656165
 11
-23.1500000004
 21
24.6676073814
  0
LINE
  5
3D7
100
AcDbEntity
  8
DRAFT
100
AcDbLine
 62
7
  6
CONTINUOUS
 10
-23.1500000004
 20
24.6674550649
 11
-23.1500000004
 21
23.5
  0
LINE
  5
3D8
100
AcDbEntity
  8
DRAFT
100
AcDbLine
 62
7
  6
CONTINUOUS
 10
-23.1500000004
 20
-24.6674550649
 11
-23.1500000004
 21
-23.5
  0
LINE
  5
3D9
100
AcDbEntity
  8
RACCORDO
100
AcDbLine
 62
7
  6
CONTINUOUS
 10
-23.1500000004
 20
-24.6676073814
 11
-23.1500000004
 21
-25.1675656165
  0
LINE
  5
3DA
100
AcDbEntity
  8
RACCORDO
100
AcDbLine
 62
253
  6
CONTINUOUS
 10
-22.9088036969
 20
-24.6674550649
 11
-22.9088036969
 21
-23.2088036965
  0
LINE
  5
3DB
100
AcDbEntity
  8
RACCORDO
100
AcDbLine
 62
253
  6
CONTINUOUS
 10
-22.9088036969
 20
23.2088036965
 11
-22.9088036969
 21
24.6674550649
  0
LINE
  5
3DC
100
AcDbEntity
  8
RACCORDO
100
AcDbLine
 62
7
  6
CONTINUOUS
 10
-22.757435948
 20
-22.1238400923
 11
-22.757435948
 21
-21.25
  0
LINE
  5
3DD
100
AcDbEntity
  8
DRAFT
100
AcDbLine
 62
7
  6
CONTINUOUS
 10
-22.757435948
 20
-13.75
 11
-22.757435948
 21
-6.8762143754
  0
LINE
  5
3DE
100
AcDbEntity
  8
DRAFT
100
AcDbLine
 62
7
  6
CONTINUOUS
 10
-22.757435948
 20
6.8762143754
 11
-22.757435948
 21
13.75
  0
LINE
  5
3DF
100
AcDbEntity
  8
RACCORDO
100
AcDbLine
 62
7
  6
CONTINUOUS
 10
-22.757435948
 20
21.25
 11
-22.757435948
 21
22.123840093
  0
LINE
  5
3E0
100
AcDbEntity
  8
DRAFT
100
AcDbLine
 62
7
  6
CONTINUOUS
 10
-22.7155097246
 20
-21.25
 11
-22.7155097246
 21
-20.7888383608
  0
LINE
  5
3E1
100
AcDbEntity
  8
DRAFT
100
AcDbLine
 62
7
  6
CONTINUOUS
 10
-22.7155097246
 20
-14.2111616392
 11
-22.7155097246
 21
-13.75
  0
LINE
  5
3E2
100
AcDbEntity
  8
DRAFT
100
AcDbLine
 62
7
  6
CONTINUOUS
 10
-22.7155097246
 20
13.75
 11
-22.7155097246
 21
14.2111616392
  0
LINE
  5
3E3
100
AcDbEntity
  8
DRAFT
100
AcDbLine
 62
7
  6
CONTINUOUS
 10
-22.7155097246
 20
20.7888383608
 11
-22.7155097246
 21
21.25
  0
LINE
  5
3E4
100
AcDbEntity
  8
RACCORDO
100
AcDbLine
 62
7
  6
CONTINUOUS
 10
-22.7017455069
 20
20.7
 11
-22.7017455069
 21
14.3
  0
LINE
  5
3E5
100
AcDbEntity
  8
RACCORDO
100
AcDbLine
 62
7
  6
CONTINUOUS
 10
-22.7017455069
 20
-14.3
 11
-22.7017455069
 21
-20.7
  0
LINE
  5
3E6
100
AcDbEntity
  8
RACCORDO
100
AcDbLine
 62
7
  6
CONTINUOUS
 10
-22.7000000004
 20
22.7
 11
-22.7000000004
 21
22.3
  0
LINE
  5
3E7
100
AcDbEntity
  8
RACCORDO
100
AcDbLine
 62
7
  6
CONTINUOUS
 10
-22.7000000004
 20
6.7000456915
 11
-22.7000000004
 21
-6.7000456915
  0
LINE
  5
3E8
100
AcDbEntity
  8
RACCORDO
100
AcDbLine
 62
7
  6
CONTINUOUS
 10
-22.7000000004
 20
-22.3
 11
-22.7000000004
 21
-22.7
  0
LINE
  5
3E9
100
AcDbEntity
  8
RACCORDO
100
AcDbLine
 62
7
  6
CONTINUOUS
 10
-22.6762038901
 20
-22.3266150292
 11
-22.6762038901
 21
22.3266150292
  0
LINE
  5
3EA
100
AcDbEntity
  8
RACCORDO
100
AcDbLine
 62
7
  6
CONTINUOUS
 10
-22.641272468
 20
22.291318159
 11
-22.641272468
 21
-22.291318159
  0
LINE
  5
3EB
100
AcDbEntity
  8
RACCORDO
100
AcDbLine
 62
253
  6
CONTINUOUS
 10
-22.4088798494
 20
-24.6588798489
 11
-22.4088798494
 21
-23.0088341575
  0
LINE
  5
3EC
100
AcDbEntity
  8
RACCORDO
100
AcDbLine
 62
253
  6
CONTINUOUS
 10
-22.4088798494
 20
23.0088341575
 11
-22.4088798494
 21
24.6588798489
  0
LINE
  5
3ED
100
AcDbEntity
  8
RACCORDO
100
AcDbLine
 62
7
  6
CONTINUOUS
 10
-22.4000000004
 20
24.65
 11
-22.4000000004
 21
22.9999543085
  0
LINE
  5
3EE
100
AcDbEntity
  8
RACCORDO
100
AcDbLine
 62
7
  6
CONTINUOUS
 10
-22.4000000004
 20
-24.65
 11
-22.4000000004
 21
-22.9999543085
  0
LINE
  5
3EF
100
AcDbEntity
  8
DRAFT
100
AcDbLine
 62
7
  6
CONTINUOUS
 10
-22.0000000004
 20
45.3447634805
 11
-22.0000000004
 21
45.3273084156
  0
LINE
  5
3F0
100
AcDbEntity
  8
DRAFT
100
AcDbLine
 62
7
  6
CONTINUOUS
 10
-22.0000000004
 20
-45.3447634805
 11
-22.0000000004
 21
-45.3273084156
  0
LINE
  5
3F1
100
AcDbEntity
  8
0
100
AcDbLine
 62
7
  6
CONTINUOUS
 10
-31.2916667466
 20
-34.5531915426
 11
-31.3333332543
 21
-34.8510638475
  0
LINE
  5
3F2
100
AcDbEntity
  8
0
100
AcDbLine
 62
7
  6
CONTINUOUS
 10
-31.1250000004
 20
-34.8510638475
 11
-31.0833332543
 21
-34.595744729
  0
LINE
  5
3F3
100
AcDbEntity
  8
RACCORDO
100
AcDbLine
 62
253
  6
CONTINUOUS
 10
-24.8675312294
 20
7.7733686226
 11
-24.9187017668
 21
7.4831660837
  0
LINE
  5
3F4
100
AcDbEntity
  8
0
100
AcDbLine
 62
7
  6
CONTINUOUS
 10
-33.9166666646
 20
-34.2978723049
 11
-33.9583333325
 21
-34.4680850506
  0
LINE
  5
3F5
100
AcDbEntity
  8
0
100
AcDbLine
 62
7
  6
CONTINUOUS
 10
-32.5416666274
 20
-34.7234042883
 11
-32.5000000004
 21
-34.5531915426
  0
LINE
  5
3F6
100
AcDbEntity
  8
RACCORDO
100
AcDbLine
 62
253
  6
CONTINUOUS
 10
-25.715028944
 20
8.4849405955
 11
-25.7500000004
 21
8.449969539
  0
LINE
  5
3F7
100
AcDbEntity
  8
RACCORDO
100
AcDbLine
 62
253
  6
CONTINUOUS
 10
-25.515059405
 20
8.2849710564
 11
-25.5500304614
 21
8.25
  0
LINE
  5
3F8
100
AcDbEntity
  8
DRAFT
100
AcDbLine
 62
7
  6
CONTINUOUS
 10
-44.0500000004
 20
-12.3674550649
 11
-44.0726915849
 21
-12.3901466493
  0
LINE
  5
3F9
100
AcDbEntity
  8
DRAFT
100
AcDbLine
 62
7
  6
CONTINUOUS
 10
12.3674550645
 20
44.05
 11
12.3901466489
 21
44.0726915844
  0
LINE
  5
3FA
100
AcDbEntity
  8
DRAFT
100
AcDbLine
 62
253
  6
CONTINUOUS
 10
-9.8327531543
 20
-26.8948219304
 11
-9.8258625004
 21
-26.8929755853
  0
LINE
  5
3FB
100
AcDbEntity
  8
DRAFT
100
AcDbLine
 62
253
  6
CONTINUOUS
 10
-13.3327531543
 20
-26.8948219304
 11
-13.3258625004
 21
-26.8929755853
  0
LINE
  5
3FC
100
AcDbEntity
  8
DRAFT
100
AcDbLine
 62
7
  6
CONTINUOUS
 10
13.7096392956
 20
-26.3732713192
 11
13.4723444365
 21
-26.3732713192
  0
LINE
  5
3FD
100
AcDbEntity
  8
DRAFT
100
AcDbLine
 62
7
  6
CONTINUOUS
 10
12.5276555626
 20
-26.3732713192
 11
12.4767771702
 21
-26.3732713192
  0
LINE
  5
3FE
100
AcDbEntity
  8
DRAFT
100
AcDbLine
 62
7
  6
CONTINUOUS
 10
10.0232228289
 20
-26.3732713192
 11
9.9723444365
 21
-26.3732713192
  0
LINE
  5
3FF
100
AcDbEntity
  8
DRAFT
100
AcDbLine
 62
7
  6
CONTINUOUS
 10
9.0276555626
 20
-26.3732713192
 11
8.7903607035
 21
-26.3732713192
  0
LINE
  5
400
100
AcDbEntity
  8
DRAFT
100
AcDbLine
 62
7
  6
CONTINUOUS
 10
-8.7903607044
 20
-26.3732713192
 11
-9.0276555635
 21
-26.3732713192
  0
LINE
  5
401
100
AcDbEntity
  8
DRAFT
100
AcDbLine
 62
7
  6
CONTINUOUS
 10
-9.9723444374
 20
-26.3732713192
 11
-10.0232228298
 21
-26.3732713192
  0
LINE
  5
402
100
AcDbEntity
  8
DRAFT
100
AcDbLine
 62
7
  6
CONTINUOUS
 10
-12.4767771711
 20
-26.3732713192
 11
-12.5276555635
 21
-26.3732713192
  0
LINE
  5
403
100
AcDbEntity
  8
DRAFT
100
AcDbLine
 62
7
  6
CONTINUOUS
 10
-13.4723444374
 20
-26.3732713192
 11
-13.7096392965
 21
-26.3732713192
  0
LINE
  5
404
100
AcDbEntity
  8
DRAFT
100
AcDbLine
 62
7
  6
CONTINUOUS
 10
13.6999999996
 20
-26.35
 11
13.4713523691
 21
-26.35
  0
LINE
  5
405
100
AcDbEntity
  8
DRAFT
100
AcDbLine
 62
7
  6
CONTINUOUS
 10
12.52864763
 20
-26.35
 11
12.4830127014
 21
-26.35
  0
LINE
  5
406
100
AcDbEntity
  8
DRAFT
100
AcDbLine
 62
7
  6
CONTINUOUS
 10
10.0169872977
 20
-26.35
 11
9.9713523691
 21
-26.35
  0
LINE
  5
407
100
AcDbEntity
  8
DRAFT
100
AcDbLine
 62
7
  6
CONTINUOUS
 10
9.02864763
 20
-26.35
 11
8.7999999996
 21
-26.35
  0
LINE
  5
408
100
AcDbEntity
  8
DRAFT
100
AcDbLine
 62
7
  6
CONTINUOUS
 10
-8.8000000004
 20
-26.35
 11
-9.0286476309
 21
-26.35
  0
LINE
  5
409
100
AcDbEntity
  8
DRAFT
100
AcDbLine
 62
7
  6
CONTINUOUS
 10
-9.97135237
 20
-26.35
 11
-10.0169872986
 21
-26.35
  0
LINE
  5
40A
100
AcDbEntity
  8
DRAFT
100
AcDbLine
 62
7
  6
CONTINUOUS
 10
-12.4830127023
 20
-26.35
 11
-12.5286476309
 21
-26.35
  0
LINE
  5
40B
100
AcDbEntity
  8
DRAFT
100
AcDbLine
 62
7
  6
CONTINUOUS
 10
-13.47135237
 20
-26.35
 11
-13.7000000004
 21
-26.35
  0
LINE
  5
40C
100
AcDbEntity
  8
ASSI
100
AcDbLine
 62
7
  6
CONTINUOUS
 10
12.0437644684
 20
-26.1232713192
 11
10.4562355308
 21
-26.1232713192
  0
LINE
  5
40D
100
AcDbEntity
  8
ASSI
100
AcDbLine
 62
7
  6
CONTINUOUS
 10
-10.4562355316
 20
-26.1232713192
 11
-12.0437644692
 21
-26.1232713192
  0
LINE
  5
40E
100
AcDbEntity
  8
ASSI
100
AcDbLine
 62
7
  6
CONTINUOUS
 10
12.0499999996
 20
-26.1
 11
10.4499999996
 21
-26.1
  0
LINE
  5
40F
100
AcDbEntity
  8
ASSI
100
AcDbLine
 62
7
  6
CONTINUOUS
 10
-10.4500000004
 20
-26.1
 11
-12.0500000004
 21
-26.1
  0
LINE
  5
410
100
AcDbEntity
  8
ASSI
100
AcDbLine
 62
253
  6
CONTINUOUS
 10
14.0602070862
 20
-25.4
 11
8.4397929129
 21
-25.4
  0
LINE
  5
411
100
AcDbEntity
  8
ASSI
100
AcDbLine
 62
253
  6
CONTINUOUS
 10
-8.4397929138
 20
-25.4
 11
-14.0602070871
 21
-25.4
  0
LINE
  5
412
100
AcDbEntity
  8
RACCORDO
100
AcDbLine
 62
253
  6
CONTINUOUS
 10
24.8675312285
 20
-25.2
 11
23.1499999996
 21
-25.2
  0
LINE
  5
413
100
AcDbEntity
  8
RACCORDO
100
AcDbLine
 62
253
  6
CONTINUOUS
 10
0.5999999996
 20
-25.2
 11
-0.6000000004
 21
-25.2
  0
LINE
  5
414
100
AcDbEntity
  8
ASSI
100
AcDbLine
 62
7
  6
CONTINUOUS
 10
-8.0000000004
 20
-25.2
 11
-14.5000000004
 21
-25.2
  0
LINE
  5
415
100
AcDbEntity
  8
ASSI
100
AcDbLine
 62
7
  6
CONTINUOUS
 10
7.9999999996
 20
-25.2
 11
14.4999999996
 21
-25.2
  0
LINE
  5
416
100
AcDbEntity
  8
RACCORDO
100
AcDbLine
 62
253
  6
CONTINUOUS
 10
-23.1500000004
 20
-25.2
 11
-24.8675312294
 21
-25.2
  0
LINE
  5
417
100
AcDbEntity
  8
RACCORDO
100
AcDbLine
 62
253
  6
CONTINUOUS
 10
23.1499999996
 20
-25.167531229
 11
14.4999999996
 21
-25.167531229
  0
LINE
  5
418
100
AcDbEntity
  8
RACCORDO
100
AcDbLine
 62
253
  6
CONTINUOUS
 10
7.9999999996
 20
-25.167531229
 11
0.5999999996
 21
-25.167531229
  0
LINE
  5
419
100
AcDbEntity
  8
RACCORDO
100
AcDbLine
 62
253
  6
CONTINUOUS
 10
-0.6000000004
 20
-25.167531229
 11
-8.0000000004
 21
-25.167531229
  0
LINE
  5
41A
100
AcDbEntity
  8
RACCORDO
100
AcDbLine
 62
253
  6
CONTINUOUS
 10
-14.5000000004
 20
-25.167531229
 11
-23.1500000004
 21
-25.167531229
  0
LINE
  5
41B
100
AcDbEntity
  8
ASSI
100
AcDbLine
 62
7
  6
CONTINUOUS
 10
-14.0000000004
 20
-25.05
 11
-8.5000000004
 21
-25.05
  0
LINE
  5
41C
100
AcDbEntity
  8
ASSI
100
AcDbLine
 62
7
  6
CONTINUOUS
 10
8.4999999996
 20
-25.05
 11
13.9999999996
 21
-25.05
  0
LINE
  5
41D
100
AcDbEntity
  8
RACCORDO
100
AcDbLine
 62
7
  6
CONTINUOUS
 10
24.3674550645
 20
-24.7
 11
23.1499999996
 21
-24.7
  0
LINE
  5
41E
100
AcDbEntity
  8
RACCORDO
100
AcDbLine
 62
7
  6
CONTINUOUS
 10
0.5999999996
 20
-24.7
 11
-0.6000000004
 21
-24.7
  0
LINE
  5
41F
100
AcDbEntity
  8
RACCORDO
100
AcDbLine
 62
7
  6
CONTINUOUS
 10
8.4999999996
 20
-24.7
 11
13.9999999996
 21
-24.7
  0
LINE
  5
420
100
AcDbEntity
  8
RACCORDO
100
AcDbLine
 62
7
  6
CONTINUOUS
 10
-8.5000000004
 20
-24.7
 11
-14.0000000004
 21
-24.7
  0
LINE
  5
421
100
AcDbEntity
  8
RACCORDO
100
AcDbLine
 62
7
  6
CONTINUOUS
 10
-23.1500000004
 20
-24.7
 11
-24.3674550654
 21
-24.7
  0
LINE
  5
422
100
AcDbEntity
  8
RACCORDO
100
AcDbLine
 62
253
  6
CONTINUOUS
 10
22.908803696
 20
-24.6674550649
 11
14.4999999996
 21
-24.6676073814
  0
LINE
  5
423
100
AcDbEntity
  8
RACCORDO
100
AcDbLine
 62
253
  6
CONTINUOUS
 10
7.9999999996
 20
-24.6676073814
 11
0.5999999996
 21
-24.6676073814
  0
LINE
  5
424
100
AcDbEntity
  8
RACCORDO
100
AcDbLine
 62
253
  6
CONTINUOUS
 10
-0.6000000004
 20
-24.6676073814
 11
-8.0000000004
 21
-24.6676073814
  0
LINE
  5
425
100
AcDbEntity
  8
RACCORDO
100
AcDbLine
 62
253
  6
CONTINUOUS
 10
-14.5000000004
 20
-24.6676073814
 11
-22.9088036969
 21
-24.6674550649
  0
LINE
  5
426
100
AcDbEntity
  8
RACCORDO
100
AcDbLine
 62
7
  6
CONTINUOUS
 10
-23.1500000004
 20
-24.6674550649
 11
-22.9088036969
 21
-24.6674550649
  0
LINE
  5
427
100
AcDbEntity
  8
RACCORDO
100
AcDbLine
 62
7
  6
CONTINUOUS
 10
22.908803696
 20
-24.6674550649
 11
23.1499999996
 21
-24.6674550649
  0
LINE
  5
428
100
AcDbEntity
  8
RACCORDO
100
AcDbLine
 62
7
  6
CONTINUOUS
 10
-22.4000000004
 20
-24.65
 11
-14.431552284
 21
-24.65
  0
LINE
  5
429
100
AcDbEntity
  8
RACCORDO
100
AcDbLine
 62
7
  6
CONTINUOUS
 10
-8.0684477169
 20
-24.65
 11
-0.6000000004
 21
-24.65
  0
LINE
  5
42A
100
AcDbEntity
  8
RACCORDO
100
AcDbLine
 62
7
  6
CONTINUOUS
 10
0.5999999996
 20
-24.65
 11
8.068447716
 21
-24.65
  0
LINE
  5
42B
100
AcDbEntity
  8
RACCORDO
100
AcDbLine
 62
7
  6
CONTINUOUS
 10
14.4315522831
 20
-24.65
 11
22.3999999996
 21
-24.65
  0
LINE
  5
42C
100
AcDbEntity
  8
RACCORDO
100
AcDbLine
 62
7
  6
CONTINUOUS
 10
-14.5000000004
 20
-23.7
 11
-8.0000000004
 21
-23.7
  0
LINE
  5
42D
100
AcDbEntity
  8
RACCORDO
100
AcDbLine
 62
7
  6
CONTINUOUS
 10
-0.6000000004
 20
-23.7
 11
0.5999999996
 21
-23.7
  0
LINE
  5
42E
100
AcDbEntity
  8
RACCORDO
100
AcDbLine
 62
7
  6
CONTINUOUS
 10
7.9999999996
 20
-23.7
 11
14.4999999996
 21
-23.7
  0
LINE
  5
42F
100
AcDbEntity
  8
DRAFT
100
AcDbLine
 62
7
  6
CONTINUOUS
 10
-23.3491248693
 20
-23.6877814546
 11
-23.1500000004
 21
-23.6877814546
  0
LINE
  5
430
100
AcDbEntity
  8
DRAFT
100
AcDbLine
 62
7
  6
CONTINUOUS
 10
-14.5000000004
 20
-23.6877814546
 11
-8.0000000004
 21
-23.6877814546
  0
LINE
  5
431
100
AcDbEntity
  8
DRAFT
100
AcDbLine
 62
7
  6
CONTINUOUS
 10
-0.6000000004
 20
-23.6877814546
 11
0.5999999996
 21
-23.6877814546
  0
LINE
  5
432
100
AcDbEntity
  8
DRAFT
100
AcDbLine
 62
7
  6
CONTINUOUS
 10
7.9999999996
 20
-23.6877814546
 11
14.4999999996
 21
-23.6877814546
  0
LINE
  5
433
100
AcDbEntity
  8
DRAFT
100
AcDbLine
 62
7
  6
CONTINUOUS
 10
23.1499999996
 20
-23.6877814546
 11
23.3491248684
 21
-23.6877814546
  0
LINE
  5
434
100
AcDbEntity
  8
DRAFT
100
AcDbLine
 62
7
  6
CONTINUOUS
 10
-24.3674550654
 20
-23.5
 11
-23.1500000004
 21
-23.5
  0
LINE
  5
435
100
AcDbEntity
  8
DRAFT
100
AcDbLine
 62
7
  6
CONTINUOUS
 10
24.3674550645
 20
-23.5
 11
23.1499999996
 21
-23.5
  0
LINE
  5
436
100
AcDbEntity
  8
0
100
AcDbLine
 62
7
  6
CONTINUOUS
 10
-0.6000000004
 20
-23.5
 11
0.5999999996
 21
-23.5
  0
LINE
  5
437
100
AcDbEntity
  8
RACCORDO
100
AcDbLine
 62
253
  6
CONTINUOUS
 10
24.3674550645
 20
-23.2088036965
 11
22.908803696
 21
-23.2088036965
  0
LINE
  5
438
100
AcDbEntity
  8
RACCORDO
100
AcDbLine
 62
253
  6
CONTINUOUS
 10
-22.9088036969
 20
-23.2088036965
 11
-24.3674550654
 21
-23.2088036965
  0
LINE
  5
439
100
AcDbEntity
  8
RACCORDO
100
AcDbLine
 62
253
  6
CONTINUOUS
 10
24.3588798485
 20
-22.7088798489
 11
22.708834157
 21
-22.7088798489
  0
LINE
  5
43A
100
AcDbEntity
  8
RACCORDO
100
AcDbLine
 62
253
  6
CONTINUOUS
 10
-22.7088341579
 20
-22.7088798489
 11
-24.3588798494
 21
-22.7088798489
  0
LINE
  5
43B
100
AcDbEntity
  8
RACCORDO
100
AcDbLine
 62
7
  6
CONTINUOUS
 10
14.734940476
 20
-22.7074359475
 11
7.7650595231
 21
-22.7074359475
  0
LINE
  5
43C
100
AcDbEntity
  8
RACCORDO
100
AcDbLine
 62
7
  6
CONTINUOUS
 10
-7.765059524
 20
-22.7074359475
 11
-14.7349404769
 21
-22.7074359475
  0
LINE
  5
43D
100
AcDbEntity
  8
RACCORDO
100
AcDbLine
 62
7
  6
CONTINUOUS
 10
-24.3500000004
 20
-22.7
 11
-14.8000000004
 21
-22.7
  0
LINE
  5
43E
100
AcDbEntity
  8
RACCORDO
100
AcDbLine
 62
7
  6
CONTINUOUS
 10
-7.7000000004
 20
-22.7
 11
7.6999999996
 21
-22.7
  0
LINE
  5
43F
100
AcDbEntity
  8
RACCORDO
100
AcDbLine
 62
7
  6
CONTINUOUS
 10
14.7999999996
 20
-22.7
 11
24.3499999996
 21
-22.7
  0
LINE
  5
440
100
AcDbEntity
  8
RACCORDO
100
AcDbLine
 62
7
  6
CONTINUOUS
 10
22.3766150288
 20
-22.6262038896
 11
-22.3766150297
 21
-22.6262038896
  0
LINE
  5
441
100
AcDbEntity
  8
RACCORDO
100
AcDbLine
 62
7
  6
CONTINUOUS
 10
-22.3413181594
 20
-22.5912724675
 11
22.3413181585
 21
-22.5912724675
  0
LINE
  5
442
100
AcDbEntity
  8
RACCORDO
100
AcDbLine
 62
7
  6
CONTINUOUS
 10
23.000045698
 20
-22.0
 11
31.9999999996
 21
-22.0
  0
LINE
  5
443
100
AcDbEntity
  8
RACCORDO
100
AcDbLine
 62
7
  6
CONTINUOUS
 10
-23.0000456989
 20
-22.0
 11
-32.0000000004
 21
-22.0
  0
LINE
  5
444
100
AcDbEntity
  8
DRAFT
100
AcDbLine
 62
253
  6
CONTINUOUS
 10
9.8258624995
 20
-26.8929755853
 11
9.8326059408
 21
-26.8947824849
  0
LINE
  5
445
100
AcDbEntity
  8
DRAFT
100
AcDbLine
 62
253
  6
CONTINUOUS
 10
13.3258624995
 20
-26.8929755853
 11
13.3326059408
 21
-26.8947824849
  0
LINE
  5
446
100
AcDbEntity
  8
RACCORDO
100
AcDbLine
 62
253
  6
CONTINUOUS
 10
-25.715028944
 20
-8.4849405955
 11
-25.7500000004
 21
-8.449969539
  0
LINE
  5
447
100
AcDbEntity
  8
RACCORDO
100
AcDbLine
 62
253
  6
CONTINUOUS
 10
-25.515059405
 20
-8.2849710564
 11
-25.5500304614
 21
-8.25
  0
LINE
  5
448
100
AcDbEntity
  8
DRAFT
100
AcDbLine
 62
7
  6
CONTINUOUS
 10
12.3674550645
 20
-44.05
 11
12.3901466489
 21
-44.0726915844
  0
LINE
  5
449
100
AcDbEntity
  8
DRAFT
100
AcDbLine
 62
7
  6
CONTINUOUS
 10
-44.0500000004
 20
12.3674550649
 11
-44.0726915849
 21
12.3901466493
  0
LINE
  5
44A
100
AcDbEntity
  8
0
100
AcDbLine
 62
7
  6
CONTINUOUS
 10
-14.9100470004
 20
-33.076576
 11
-15.6525550004
 21
-31.027135
  0
LINE
  5
44B
100
AcDbEntity
  8
0
100
AcDbLine
 62
7
  6
CONTINUOUS
 10
-15.4154430004
 20
-32.479652
 11
-15.2126540004
 21
-33.076576
  0
LINE
  5
44C
100
AcDbEntity
  8
0
100
AcDbLine
 62
7
  6
CONTINUOUS
 10
-15.2898080004
 20
-37.220463
 11
-14.9843310004
 21
-38.130538
  0
LINE
  5
44D
100
AcDbEntity
  8
0
100
AcDbLine
 62
7
  6
CONTINUOUS
 10
-15.8209060004
 20
-31.324172
 11
-15.5154280004
 21
-32.234249
  0
LINE
  5
44E
100
AcDbEntity
  8
RACCORDO
100
AcDbLine
 62
253
  6
CONTINUOUS
 10
-24.8675312294
 20
-7.7733686226
 11
-24.9187017669
 21
-7.4831660837
  0
LINE
  5
44F
100
AcDbEntity
  8
DRAFT
100
AcDbLine
 62
7
  6
CONTINUOUS
 10
-17.4126980767
 20
-43.5
 11
-17.429848275
 21
-43.0088825784
  0
LINE
  5
450
100
AcDbEntity
  8
RACCORDO
100
AcDbLine
 62
7
  6
CONTINUOUS
 10
-20.7500000004
 20
45.45
 11
-20.7500000004
 21
45.35
  0
LINE
  5
451
100
AcDbEntity
  8
RACCORDO
100
AcDbLine
 62
7
  6
CONTINUOUS
 10
-20.7500000004
 20
-45.45
 11
-20.7500000004
 21
-45.35
  0
LINE
  5
452
100
AcDbEntity
  8
0
100
AcDbLine
 62
7
  6
CONTINUOUS
 10
-18.9479100004
 20
-31.027135
 11
-18.9479100004
 21
-33.076576
  0
LINE
  5
453
100
AcDbEntity
  8
0
100
AcDbLine
 62
7
  6
CONTINUOUS
 10
-18.6794600004
 20
-33.076576
 11
-18.6794600004
 21
-31.35876
  0
LINE
  5
454
100
AcDbEntity
  8
0
100
AcDbLine
 62
7
  6
CONTINUOUS
 10
-18.5254200004
 20
-36.921766
 11
-18.5254200004
 21
-38.972865
  0
LINE
  5
455
100
AcDbEntity
  8
0
100
AcDbLine
 62
7
  6
CONTINUOUS
 10
-18.2483480004
 20
-38.972865
 11
-18.2483480004
 21
-36.921766
  0
LINE
  5
456
100
AcDbEntity
  8
0
100
AcDbLine
 62
7
  6
CONTINUOUS
 10
-17.9512120004
 20
-36.921766
 11
-17.9512120004
 21
-37.167168
  0
LINE
  5
457
100
AcDbEntity
  8
DRAFT
100
AcDbLine
 62
7
  6
CONTINUOUS
 10
-17.6500000004
 20
43.0325449351
 11
-17.6500000004
 21
42.05
  0
LINE
  5
458
100
AcDbEntity
  8
DRAFT
100
AcDbLine
 62
7
  6
CONTINUOUS
 10
-17.6500000004
 20
-43.0325449351
 11
-17.6500000004
 21
-42.05
  0
LINE
  5
459
100
AcDbEntity
  8
DRAFT
100
AcDbLine
 62
7
  6
CONTINUOUS
 10
-17.6325449355
 20
-44.05
 11
-17.6325449355
 21
-43.05
  0
LINE
  5
45A
100
AcDbEntity
  8
DRAFT
100
AcDbLine
 62
7
  6
CONTINUOUS
 10
-17.6325449355
 20
43.05
 11
-17.6325449355
 21
44.05
  0
LINE
  5
45B
100
AcDbEntity
  8
DRAFT
100
AcDbLine
 62
7
  6
CONTINUOUS
 10
-17.6098533511
 20
-44.3098533507
 11
-17.6098533511
 21
-44.0726915844
  0
LINE
  5
45C
100
AcDbEntity
  8
DRAFT
100
AcDbLine
 62
7
  6
CONTINUOUS
 10
-17.6098533511
 20
44.0726915844
 11
-17.6098533511
 21
44.3098533507
  0
LINE
  5
45D
100
AcDbEntity
  8
RACCORDO
100
AcDbLine
 62
7
  6
CONTINUOUS
 10
-17.5000000004
 20
-44.3098533507
 11
-17.5000000004
 21
-43.5465394526
  0
LINE
  5
45E
100
AcDbEntity
  8
RACCORDO
100
AcDbLine
 62
7
  6
CONTINUOUS
 10
-17.5000000004
 20
43.5465394526
 11
-17.5000000004
 21
44.3098533507
  0
LINE
  5
45F
100
AcDbEntity
  8
DRAFT
100
AcDbLine
 62
7
  6
CONTINUOUS
 10
-17.4476188462
 20
43.3238174026
 11
-17.4476188462
 21
43.0
  0
LINE
  5
460
100
AcDbEntity
  8
DRAFT
100
AcDbLine
 62
7
  6
CONTINUOUS
 10
-17.4476188462
 20
-44.3098533507
 11
-17.4476188462
 21
-44.1
  0
LINE
  5
461
100
AcDbEntity
  8
DRAFT
100
AcDbLine
 62
7
  6
CONTINUOUS
 10
-17.4476188462
 20
-43.0
 11
-17.4476188462
 21
-43.3238174026
  0
LINE
  5
462
100
AcDbEntity
  8
DRAFT
100
AcDbLine
 62
7
  6
CONTINUOUS
 10
-17.4476188462
 20
44.1
 11
-17.4476188462
 21
44.3098533507
  0
LINE
  5
463
100
AcDbEntity
  8
RACCORDO
100
AcDbLine
 62
7
  6
CONTINUOUS
 10
-17.4126980767
 20
-43.6894660298
 11
-17.4126980767
 21
-43.5
  0
LINE
  5
464
100
AcDbEntity
  8
RACCORDO
100
AcDbLine
 62
7
  6
CONTINUOUS
 10
-17.4126980767
 20
43.5
 11
-17.4126980767
 21
43.6894660298
  0
LINE
  5
465
100
AcDbEntity
  8
DRAFT
100
AcDbLine
 62
7
  6
CONTINUOUS
 10
-17.429848275
 20
43.0088825784
 11
-17.4126980767
 21
43.5
  0
LINE
  5
466
100
AcDbEntity
  8
0
100
AcDbLine
 62
7
  6
CONTINUOUS
 10
-27.4166665082
 20
-34.2978723049
 11
-27.4583334927
 21
-34.4680850506
  0
LINE
  5
467
100
AcDbEntity
  8
DRAFT
100
AcDbLine
 62
7
  6
CONTINUOUS
 10
-13.4723444374
 20
26.3732713192
 11
-13.3327531543
 21
26.8948219304
  0
LINE
  5
468
100
AcDbEntity
  8
DRAFT
100
AcDbLine
 62
7
  6
CONTINUOUS
 10
-13.47135237
 20
26.35
 11
-13.3258625004
 21
26.8929755853
  0
LINE
  5
469
100
AcDbEntity
  8
ASSI
100
AcDbLine
 62
7
  6
CONTINUOUS
 10
-12.4830127023
 20
26.35
 11
-12.4767771711
 21
26.3732713192
  0
LINE
  5
46A
100
AcDbEntity
  8
ASSI
100
AcDbLine
 62
7
  6
CONTINUOUS
 10
-12.0500000004
 20
26.1
 11
-12.0437644692
 21
26.1232713192
  0
LINE
  5
46B
100
AcDbEntity
  8
0
100
AcDbLine
 62
7
  6
CONTINUOUS
 10
-31.0833332543
 20
-34.595744729
 11
-31.0416667466
 21
-34.4680850506
  0
LINE
  5
46C
100
AcDbEntity
  8
0
100
AcDbLine
 62
7
  6
CONTINUOUS
 10
-31.0833332543
 20
-35.2765957713
 11
-31.0416667466
 21
-35.1489361525
  0
LINE
  5
46D
100
AcDbEntity
  8
0
100
AcDbLine
 62
7
  6
CONTINUOUS
 10
-30.0416667466
 20
-35.4042553306
 11
-30.0833332543
 21
-35.5319148898
  0
LINE
  5
46E
100
AcDbEntity
  8
ASSI
100
AcDbLine
 62
7
  6
CONTINUOUS
 10
-8.8000000004
 20
26.35
 11
-8.7903607044
 21
26.3732713192
  0
LINE
  5
46F
100
AcDbEntity
  8
DRAFT
100
AcDbLine
 62
7
  6
CONTINUOUS
 10
-43.0325449355
 20
-12.35
 11
-43.0500000004
 21
-12.3674550649
  0
LINE
  5
470
100
AcDbEntity
  8
DRAFT
100
AcDbLine
 62
7
  6
CONTINUOUS
 10
12.3499999996
 20
43.0325449351
 11
12.3674550645
 21
43.05
  0
LINE
  5
471
100
AcDbEntity
  8
DRAFT
100
AcDbLine
 62
7
  6
CONTINUOUS
 10
43.008882578
 20
-17.4298482745
 11
43.4999999996
 21
-17.4126980763
  0
LINE
  5
472
100
AcDbEntity
  8
SMUSSO
100
AcDbLine
 62
7
  6
CONTINUOUS
 10
23.5309401072
 20
-19.7185808831
 11
23.2999999996
 21
-19.7255629091
  0
LINE
  5
473
100
AcDbEntity
  8
DRAFT
100
AcDbLine
 62
7
  6
CONTINUOUS
 10
-22.7155097246
 20
-21.25
 11
-25.2089805979
 21
-21.25
  0
LINE
  5
474
100
AcDbEntity
  8
DRAFT
100
AcDbLine
 62
7
  6
CONTINUOUS
 10
22.7155097237
 20
-21.25
 11
25.208980597
 21
-21.25
  0
LINE
  5
475
100
AcDbEntity
  8
RACCORDO
100
AcDbLine
 62
7
  6
CONTINUOUS
 10
31.9999999996
 20
-21.0
 11
24.3625994654
 21
-21.0
  0
LINE
  5
476
100
AcDbEntity
  8
DRAFT
100
AcDbLine
 62
7
  6
CONTINUOUS
 10
24.3625994654
 20
-21.0
 11
23.8881197842
 21
-21.0
  0
LINE
  5
477
100
AcDbEntity
  8
RACCORDO
100
AcDbLine
 62
7
  6
CONTINUOUS
 10
23.8881197842
 20
-21.0
 11
23.0017912045
 21
-21.0
  0
LINE
  5
478
100
AcDbEntity
  8
RACCORDO
100
AcDbLine
 62
7
  6
CONTINUOUS
 10
-23.0017912054
 20
-21.0
 11
-23.8881197851
 21
-21.0
  0
LINE
  5
479
100
AcDbEntity
  8
DRAFT
100
AcDbLine
 62
7
  6
CONTINUOUS
 10
-23.8881197851
 20
-21.0
 11
-24.3625994663
 21
-21.0
  0
LINE
  5
47A
100
AcDbEntity
  8
RACCORDO
100
AcDbLine
 62
7
  6
CONTINUOUS
 10
-24.3625994663
 20
-21.0
 11
-32.0000000004
 21
-21.0
  0
LINE
  5
47B
100
AcDbEntity
  8
RACCORDO
100
AcDbLine
 62
7
  6
CONTINUOUS
 10
-45.4500000004
 20
-20.75
 11
-45.3500000004
 21
-20.75
  0
LINE
  5
47C
100
AcDbEntity
  8
RACCORDO
100
AcDbLine
 62
7
  6
CONTINUOUS
 10
45.4499999996
 20
-20.75
 11
45.3499999996
 21
-20.75
  0
LINE
  5
47D
100
AcDbEntity
  8
DRAFT
100
AcDbLine
 62
7
  6
CONTINUOUS
 10
-24.3625994663
 20
-20.0
 11
-23.8881197851
 21
-20.0
  0
LINE
  5
47E
100
AcDbEntity
  8
RACCORDO
100
AcDbLine
 62
7
  6
CONTINUOUS
 10
25.2499999996
 20
-20.0
 11
24.3625994654
 21
-20.0
  0
LINE
  5
47F
100
AcDbEntity
  8
SMUSSO
100
AcDbLine
 62
7
  6
CONTINUOUS
 10
-23.8881197851
 20
-20.0
 11
-23.2000000004
 21
-20.0
  0
LINE
  5
480
100
AcDbEntity
  8
SMUSSO
100
AcDbLine
 62
7
  6
CONTINUOUS
 10
23.1999999996
 20
-20.0
 11
23.8881197842
 21
-20.0
  0
LINE
  5
481
100
AcDbEntity
  8
DRAFT
100
AcDbLine
 62
7
  6
CONTINUOUS
 10
23.8881197842
 20
-20.0
 11
24.3625994654
 21
-20.0
  0
LINE
  5
482
100
AcDbEntity
  8
RACCORDO
100
AcDbLine
 62
7
  6
CONTINUOUS
 10
-24.3625994663
 20
-20.0
 11
-25.2500000004
 21
-20.0
  0
LINE
  5
483
100
AcDbEntity
  8
RACCORDO
100
AcDbLine
 62
7
  6
CONTINUOUS
 10
24.7499999996
 20
-19.7517455065
 11
23.6999999996
 21
-19.7517455065
  0
LINE
  5
484
100
AcDbEntity
  8
RACCORDO
100
AcDbLine
 62
7
  6
CONTINUOUS
 10
-23.7000000004
 20
-19.7517455065
 11
-24.7500000004
 21
-19.7517455065
  0
LINE
  5
485
100
AcDbEntity
  8
DRAFT
100
AcDbLine
 62
7
  6
CONTINUOUS
 10
-23.7000000004
 20
-19.7307994286
 11
-23.6000000004
 21
-19.7307994286
  0
LINE
  5
486
100
AcDbEntity
  8
DRAFT
100
AcDbLine
 62
7
  6
CONTINUOUS
 10
23.5999999996
 20
-19.7307994286
 11
23.6999999996
 21
-19.7307994286
  0
LINE
  5
487
100
AcDbEntity
  8
RACCORDO
100
AcDbLine
 62
7
  6
CONTINUOUS
 10
24.0755019774
 20
-19.7185808831
 11
23.5309401072
 21
-19.7185808831
  0
LINE
  5
488
100
AcDbEntity
  8
RACCORDO
100
AcDbLine
 62
7
  6
CONTINUOUS
 10
-23.5309401081
 20
-19.7185808831
 11
-24.0755019783
 21
-19.7185808831
  0
LINE
  5
489
100
AcDbEntity
  8
DRAFT
100
AcDbLine
 62
7
  6
CONTINUOUS
 10
-43.0325449355
 20
-17.65
 11
-42.0500000004
 21
-17.65
  0
LINE
  5
48A
100
AcDbEntity
  8
DRAFT
100
AcDbLine
 62
7
  6
CONTINUOUS
 10
43.0325449346
 20
-17.65
 11
42.0499999996
 21
-17.65
  0
LINE
  5
48B
100
AcDbEntity
  8
DRAFT
100
AcDbLine
 62
7
  6
CONTINUOUS
 10
44.0499999996
 20
-17.6325449351
 11
43.0499999996
 21
-17.6325449351
  0
LINE
  5
48C
100
AcDbEntity
  8
DRAFT
100
AcDbLine
 62
7
  6
CONTINUOUS
 10
-43.0500000004
 20
-17.6325449351
 11
-44.0500000004
 21
-17.6325449351
  0
LINE
  5
48D
100
AcDbEntity
  8
DRAFT
100
AcDbLine
 62
7
  6
CONTINUOUS
 10
44.3098533502
 20
-17.6098533507
 11
44.072691584
 21
-17.6098533507
  0
LINE
  5
48E
100
AcDbEntity
  8
DRAFT
100
AcDbLine
 62
7
  6
CONTINUOUS
 10
-44.0726915849
 20
-17.6098533507
 11
-44.3098533511
 21
-17.6098533507
  0
LINE
  5
48F
100
AcDbEntity
  8
RACCORDO
100
AcDbLine
 62
7
  6
CONTINUOUS
 10
-44.3098533511
 20
-17.5
 11
-43.5465394531
 21
-17.5
  0
LINE
  5
490
100
AcDbEntity
  8
RACCORDO
100
AcDbLine
 62
7
  6
CONTINUOUS
 10
43.5465394522
 20
-17.5
 11
44.3098533502
 21
-17.5
  0
LINE
  5
491
100
AcDbEntity
  8
DRAFT
100
AcDbLine
 62
7
  6
CONTINUOUS
 10
-44.3098533511
 20
-17.4476188458
 11
-44.1000000004
 21
-17.4476188458
  0
LINE
  5
492
100
AcDbEntity
  8
DRAFT
100
AcDbLine
 62
7
  6
CONTINUOUS
 10
43.3238174022
 20
-17.4476188458
 11
42.9999999996
 21
-17.4476188458
  0
LINE
  5
493
100
AcDbEntity
  8
DRAFT
100
AcDbLine
 62
7
  6
CONTINUOUS
 10
-43.0000000004
 20
-17.4476188458
 11
-43.3238174031
 21
-17.4476188458
  0
LINE
  5
494
100
AcDbEntity
  8
DRAFT
100
AcDbLine
 62
7
  6
CONTINUOUS
 10
44.0999999996
 20
-17.4476188458
 11
44.3098533502
 21
-17.4476188458
  0
LINE
  5
495
100
AcDbEntity
  8
RACCORDO
100
AcDbLine
 62
7
  6
CONTINUOUS
 10
-43.6894660303
 20
-17.4126980763
 11
-43.5000000004
 21
-17.4126980763
  0
LINE
  5
496
100
AcDbEntity
  8
RACCORDO
100
AcDbLine
 62
7
  6
CONTINUOUS
 10
43.4999999996
 20
-17.4126980763
 11
43.6894660294
 21
-17.4126980763
  0
LINE
  5
497
100
AcDbEntity
  8
SMUSSO
100
AcDbLine
 62
7
  6
CONTINUOUS
 10
-23.3000000004
 20
-19.7255629091
 11
-23.5309401081
 21
-19.7185808831
  0
LINE
  5
498
100
AcDbEntity
  8
DRAFT
100
AcDbLine
 62
7
  6
CONTINUOUS
 10
-43.5000000004
 20
-17.4126980763
 11
-43.0088825789
 21
-17.4298482745
  0
LINE
  5
499
100
AcDbEntity
  8
DRAFT
100
AcDbLine
 62
7
  6
CONTINUOUS
 10
12.3499999996
 20
-43.0325449351
 11
12.3674550645
 21
-43.05
  0
LINE
  5
49A
100
AcDbEntity
  8
DRAFT
100
AcDbLine
 62
7
  6
CONTINUOUS
 10
-43.0325449355
 20
12.35
 11
-43.0500000004
 21
12.3674550649
  0
LINE
  5
49B
100
AcDbEntity
  8
ASSI
100
AcDbLine
 62
7
  6
CONTINUOUS
 10
-8.8000000004
 20
-26.35
 11
-8.7903607044
 21
-26.3732713192
  0
LINE
  5
49C
100
AcDbEntity
  8
0
100
AcDbLine
 62
7
  6
CONTINUOUS
 10
-34.0161480004
 20
30.724203
 11
-33.0367620004
 21
28.112597
  0
LINE
  5
49D
100
AcDbEntity
  8
0
100
AcDbLine
 62
7
  6
CONTINUOUS
 10
-32.9736590004
 20
29.891567
 11
-33.7996960004
 21
32.112109
  0
LINE
  5
49E
100
AcDbEntity
  8
0
100
AcDbLine
 62
7
  6
CONTINUOUS
 10
-27.5184290004
 20
28.112597
 11
-28.7455790004
 21
32.112109
  0
LINE
  5
49F
100
AcDbEntity
  8
0
100
AcDbLine
 62
7
  6
CONTINUOUS
 10
-28.6146040004
 20
28.911042
 11
-28.3983320004
 21
28.112597
  0
LINE
  5
4A0
100
AcDbEntity
  8
DRAFT
100
AcDbLine
 62
7
  6
CONTINUOUS
 10
-13.3258625004
 20
-26.8929755853
 11
-13.47135237
 21
-26.35
  0
LINE
  5
4A1
100
AcDbEntity
  8
ASSI
100
AcDbLine
 62
7
  6
CONTINUOUS
 10
-12.4830127023
 20
-26.35
 11
-12.4767771711
 21
-26.3732713192
  0
LINE
  5
4A2
100
AcDbEntity
  8
ASSI
100
AcDbLine
 62
7
  6
CONTINUOUS
 10
-12.0500000004
 20
-26.1
 11
-12.0437644692
 21
-26.1232713192
  0
LINE
  5
4A3
100
AcDbEntity
  8
DRAFT
100
AcDbLine
 62
7
  6
CONTINUOUS
 10
-13.3327531543
 20
-26.8948219304
 11
-13.4723444374
 21
-26.3732713192
  0
LINE
  5
4A4
100
AcDbEntity
  8
0
100
AcDbLine
 62
7
  6
CONTINUOUS
 10
-29.1650750004
 20
31.013145
 11
-28.7814490004
 21
29.528875
  0
LINE
  5
4A5
100
AcDbEntity
  8
DRAFT
100
AcDbLine
 62
7
  6
CONTINUOUS
 10
-12.5286476309
 20
-26.35
 11
-12.5276555635
 21
-26.3732713192
  0
LINE
  5
4A6
100
AcDbEntity
  8
0
100
AcDbLine
 62
7
  6
CONTINUOUS
 10
-17.2572870004
 20
-37.167168
 11
-17.2572870004
 21
-38.972865
  0
LINE
  5
4A7
100
AcDbEntity
  8
0
100
AcDbLine
 62
7
  6
CONTINUOUS
 10
-17.2516490004
 20
-31.355444
 11
-17.2516490004
 21
-33.076576
  0
LINE
  5
4A8
100
AcDbEntity
  8
0
100
AcDbLine
 62
7
  6
CONTINUOUS
 10
-16.9831990004
 20
-33.076576
 11
-16.9831990004
 21
-31.027135
  0
LINE
  5
4A9
100
AcDbEntity
  8
0
100
AcDbLine
 62
7
  6
CONTINUOUS
 10
-16.9803800004
 20
-38.972865
 11
-16.9803800004
 21
-37.167168
  0
LINE
  5
4AA
100
AcDbEntity
  8
0
100
AcDbLine
 62
7
  6
CONTINUOUS
 10
-16.2864550004
 20
-37.167168
 11
-16.2864550004
 21
-36.921766
  0
LINE
  5
4AB
100
AcDbEntity
  8
0
100
AcDbLine
 62
7
  6
CONTINUOUS
 10
-16.1994040004
 20
-33.975279
 11
-16.1994040004
 21
-36.024721
  0
LINE
  5
4AC
100
AcDbEntity
  8
0
100
AcDbLine
 62
7
  6
CONTINUOUS
 10
-15.9223310004
 20
-36.024721
 11
-15.9223310004
 21
-33.975279
  0
LINE
  5
4AD
100
AcDbEntity
  8
0
100
AcDbLine
 62
7
  6
CONTINUOUS
 10
-15.4484400004
 20
-33.975279
 11
-15.4484400004
 21
-36.024721
  0
LINE
  5
4AE
100
AcDbEntity
  8
0
100
AcDbLine
 62
7
  6
CONTINUOUS
 10
-15.1798240004
 20
-36.024721
 11
-15.1798240004
 21
-34.359295
  0
LINE
  5
4AF
100
AcDbEntity
  8
0
100
AcDbLine
 62
7
  6
CONTINUOUS
 10
-14.6415970004
 20
-31.027135
 11
-14.6415970004
 21
-33.076576
  0
LINE
  5
4B0
100
AcDbEntity
  8
RACCORDO
100
AcDbLine
 62
7
  6
CONTINUOUS
 10
-14.5000000004
 20
25.2
 11
-14.5000000004
 21
24.656344058
  0
LINE
  5
4B1
100
AcDbEntity
  8
RACCORDO
100
AcDbLine
 62
7
  6
CONTINUOUS
 10
-14.5000000004
 20
24.2928932188
 11
-14.5000000004
 21
23.0000456984
  0
LINE
  5
4B2
100
AcDbEntity
  8
RACCORDO
100
AcDbLine
 62
7
  6
CONTINUOUS
 10
-14.5000000004
 20
-23.0000456984
 11
-14.5000000004
 21
-24.2928932188
  0
LINE
  5
4B3
100
AcDbEntity
  8
RACCORDO
100
AcDbLine
 62
7
  6
CONTINUOUS
 10
-14.5000000004
 20
-24.656344058
 11
-14.5000000004
 21
-25.2
  0
LINE
  5
4B4
100
AcDbEntity
  8
ASSI
100
AcDbLine
 62
7
  6
CONTINUOUS
 10
-14.4596311176
 20
-25.2
 11
-14.4596311176
 21
-25.6232794982
  0
LINE
  5
4B5
100
AcDbEntity
  8
ASSI
100
AcDbLine
 62
7
  6
CONTINUOUS
 10
-14.4596311176
 20
25.2
 11
-14.4596311176
 21
25.6232794982
  0
LINE
  5
4B6
100
AcDbEntity
  8
0
100
AcDbLine
 62
7
  6
CONTINUOUS
 10
-14.3646900004
 20
-32.839465
 11
-14.3646900004
 21
-31.264247
  0
LINE
  5
4B7
100
AcDbEntity
  8
ASSI
100
AcDbLine
 62
253
  6
CONTINUOUS
 10
-14.2599329941
 20
25.7916264167
 11
-14.2599329941
 21
25.200274093
  0
LINE
  5
4B8
100
AcDbEntity
  8
ASSI
100
AcDbLine
 62
253
  6
CONTINUOUS
 10
-14.2599329941
 20
-25.200274093
 11
-14.2599329941
 21
-25.7916264167
  0
LINE
  5
4B9
100
AcDbEntity
  8
SMUSSO
100
AcDbLine
 62
7
  6
CONTINUOUS
 10
-14.2000000004
 20
-28.7575
 11
-14.2000000004
 21
-26.8075
  0
LINE
  5
4BA
100
AcDbEntity
  8
SMUSSO
100
AcDbLine
 62
7
  6
CONTINUOUS
 10
-14.2000000004
 20
26.8075
 11
-14.2000000004
 21
28.7575
  0
LINE
  5
4BB
100
AcDbEntity
  8
0
100
AcDbLine
 62
7
  6
CONTINUOUS
 10
-14.1247590004
 20
-36.921766
 11
-14.1247590004
 21
-38.972865
  0
LINE
  5
4BC
100
AcDbEntity
  8
0
100
AcDbLine
 62
7
  6
CONTINUOUS
 10
-14.0889440004
 20
-33.975279
 11
-14.0889440004
 21
-35.639454
  0
LINE
  5
4BD
100
AcDbEntity
  8
ASSI
100
AcDbLine
 62
253
  6
CONTINUOUS
 10
-14.0602070871
 20
25.9897929133
 11
-14.0602070871
 21
25.4
  0
LINE
  5
4BE
100
AcDbEntity
  8
ASSI
100
AcDbLine
 62
253
  6
CONTINUOUS
 10
-14.0602070871
 20
-25.4
 11
-14.0602070871
 21
-25.9897929133
  0
LINE
  5
4BF
100
AcDbEntity
  8
RACCORDO
100
AcDbLine
 62
253
  6
CONTINUOUS
 10
-14.0000000004
 20
25.05
 11
-14.0000000004
 21
24.7
  0
LINE
  5
4C0
100
AcDbEntity
  8
RACCORDO
100
AcDbLine
 62
253
  6
CONTINUOUS
 10
-14.0000000004
 20
-24.7
 11
-14.0000000004
 21
-25.05
  0
LINE
  5
4C1
100
AcDbEntity
  8
ASSI
100
AcDbLine
 62
7
  6
CONTINUOUS
 10
-14.0000000004
 20
-25.05
 11
-14.0000000004
 21
-25.2
  0
LINE
  5
4C2
100
AcDbEntity
  8
ASSI
100
AcDbLine
 62
7
  6
CONTINUOUS
 10
-14.0000000004
 20
25.05
 11
-14.0000000004
 21
25.2
  0
LINE
  5
4C3
100
AcDbEntity
  8
0
100
AcDbLine
 62
7
  6
CONTINUOUS
 10
-13.8478530004
 20
-38.727463
 11
-13.8478530004
 21
-36.921766
  0
LINE
  5
4C4
100
AcDbEntity
  8
0
100
AcDbLine
 62
7
  6
CONTINUOUS
 10
-13.8206590004
 20
-36.024721
 11
-13.8206590004
 21
-33.975279
  0
LINE
  5
4C5
100
AcDbEntity
  8
DRAFT
100
AcDbLine
 62
7
  6
CONTINUOUS
 10
-12.5286476309
 20
26.35
 11
-12.5276555635
 21
26.3732713192
  0
LINE
  5
4C6
100
AcDbEntity
  8
0
100
AcDbLine
 62
7
  6
CONTINUOUS
 10
-26.0416665082
 20
-34.7234042883
 11
-26.0000000004
 21
-34.5531915426
  0
LINE
  5
4C7
100
AcDbEntity
  8
DRAFT
100
AcDbLine
 62
7
  6
CONTINUOUS
 10
-9.9723444374
 20
26.3732713192
 11
-9.8327531543
 21
26.8948219304
  0
LINE
  5
4C8
100
AcDbEntity
  8
DRAFT
100
AcDbLine
 62
7
  6
CONTINUOUS
 10
-9.97135237
 20
26.35
 11
-9.8258625004
 21
26.8929755853
  0
LINE
  5
4C9
100
AcDbEntity
  8
0
100
AcDbLine
 62
7
  6
CONTINUOUS
 10
-31.2083332543
 20
-34.3404254913
 11
-31.2916667466
 21
-34.5531915426
  0
LINE
  5
4CA
100
AcDbEntity
  8
0
100
AcDbLine
 62
7
  6
CONTINUOUS
 10
-29.9166665082
 20
-35.6595744789
 11
-29.8333334927
 21
-35.446808517
  0
LINE
  5
4CB
100
AcDbEntity
  8
0
100
AcDbLine
 62
7
  6
CONTINUOUS
 10
-32.7500000004
 20
-34.5531915426
 11
-32.8333333735
 21
-34.7234042883
  0
LINE
  5
4CC
100
AcDbEntity
  8
ASSI
100
AcDbLine
 62
7
  6
CONTINUOUS
 10
8.2400670059
 20
25.7916264167
 11
8.0403688824
 21
25.6232794982
  0
LINE
  5
4CD
100
AcDbEntity
  8
ASSI
100
AcDbLine
 62
7
  6
CONTINUOUS
 10
12.0437644684
 20
26.1232713192
 11
12.4767771702
 21
26.3732713192
  0
LINE
  5
4CE
100
AcDbEntity
  8
ASSI
100
AcDbLine
 62
7
  6
CONTINUOUS
 10
12.0499999996
 20
26.1
 11
12.4830127014
 21
26.35
  0
LINE
  5
4CF
100
AcDbEntity
  8
SMUSSO
100
AcDbLine
 62
7
  6
CONTINUOUS
 10
-23.5309401081
 20
-15.2814191169
 11
-23.3000000004
 21
-15.2744370909
  0
LINE
  5
4D0
100
AcDbEntity
  8
RACCORDO
100
AcDbLine
 62
7
  6
CONTINUOUS
 10
24.0755019774
 20
-15.2814191169
 11
23.5309401072
 21
-15.2814191169
  0
LINE
  5
4D1
100
AcDbEntity
  8
RACCORDO
100
AcDbLine
 62
7
  6
CONTINUOUS
 10
-23.5309401081
 20
-15.2814191169
 11
-24.0755019783
 21
-15.2814191169
  0
LINE
  5
4D2
100
AcDbEntity
  8
DRAFT
100
AcDbLine
 62
7
  6
CONTINUOUS
 10
-23.7000000004
 20
-15.2692005714
 11
-23.6000000004
 21
-15.2692005714
  0
LINE
  5
4D3
100
AcDbEntity
  8
DRAFT
100
AcDbLine
 62
7
  6
CONTINUOUS
 10
23.5999999996
 20
-15.2692005714
 11
23.6999999996
 21
-15.2692005714
  0
LINE
  5
4D4
100
AcDbEntity
  8
RACCORDO
100
AcDbLine
 62
7
  6
CONTINUOUS
 10
-24.7500000004
 20
-15.2482544935
 11
-23.7000000004
 21
-15.2482544935
  0
LINE
  5
4D5
100
AcDbEntity
  8
RACCORDO
100
AcDbLine
 62
7
  6
CONTINUOUS
 10
23.6999999996
 20
-15.2482544935
 11
24.7499999996
 21
-15.2482544935
  0
LINE
  5
4D6
100
AcDbEntity
  8
RACCORDO
100
AcDbLine
 62
7
  6
CONTINUOUS
 10
-25.2500000004
 20
-15.0
 11
-24.3625994663
 21
-15.0
  0
LINE
  5
4D7
100
AcDbEntity
  8
DRAFT
100
AcDbLine
 62
7
  6
CONTINUOUS
 10
24.3625994654
 20
-15.0
 11
23.8881197842
 21
-15.0
  0
LINE
  5
4D8
100
AcDbEntity
  8
SMUSSO
100
AcDbLine
 62
7
  6
CONTINUOUS
 10
23.8881197842
 20
-15.0
 11
23.1999999996
 21
-15.0
  0
LINE
  5
4D9
100
AcDbEntity
  8
SMUSSO
100
AcDbLine
 62
7
  6
CONTINUOUS
 10
-23.2000000004
 20
-15.0
 11
-23.8881197851
 21
-15.0
  0
LINE
  5
4DA
100
AcDbEntity
  8
DRAFT
100
AcDbLine
 62
7
  6
CONTINUOUS
 10
-23.8881197851
 20
-15.0
 11
-24.3625994663
 21
-15.0
  0
LINE
  5
4DB
100
AcDbEntity
  8
RACCORDO
100
AcDbLine
 62
7
  6
CONTINUOUS
 10
24.3625994654
 20
-15.0
 11
25.2499999996
 21
-15.0
  0
LINE
  5
4DC
100
AcDbEntity
  8
DRAFT
100
AcDbLine
 62
7
  6
CONTINUOUS
 10
-24.3625994663
 20
-14.0
 11
-23.8881197851
 21
-14.0
  0
LINE
  5
4DD
100
AcDbEntity
  8
RACCORDO
100
AcDbLine
 62
7
  6
CONTINUOUS
 10
-23.8881197851
 20
-14.0
 11
-23.0017912054
 21
-14.0
  0
LINE
  5
4DE
100
AcDbEntity
  8
RACCORDO
100
AcDbLine
 62
7
  6
CONTINUOUS
 10
23.0017912045
 20
-14.0
 11
23.8881197842
 21
-14.0
  0
LINE
  5
4DF
100
AcDbEntity
  8
DRAFT
100
AcDbLine
 62
7
  6
CONTINUOUS
 10
23.8881197842
 20
-14.0
 11
24.3625994654
 21
-14.0
  0
LINE
  5
4E0
100
AcDbEntity
  8
RACCORDO
100
AcDbLine
 62
7
  6
CONTINUOUS
 10
24.3625994654
 20
-14.0
 11
31.9999999996
 21
-14.0
  0
LINE
  5
4E1
100
AcDbEntity
  8
RACCORDO
100
AcDbLine
 62
7
  6
CONTINUOUS
 10
-24.3625994663
 20
-14.0
 11
-32.0000000004
 21
-14.0
  0
LINE
  5
4E2
100
AcDbEntity
  8
DRAFT
100
AcDbLine
 62
7
  6
CONTINUOUS
 10
22.7155097237
 20
-13.75
 11
25.208980597
 21
-13.75
  0
LINE
  5
4E3
100
AcDbEntity
  8
DRAFT
100
AcDbLine
 62
7
  6
CONTINUOUS
 10
-22.7155097246
 20
-13.75
 11
-25.2089805979
 21
-13.75
  0
LINE
  5
4E4
100
AcDbEntity
  8
DRAFT
100
AcDbLine
 62
7
  6
CONTINUOUS
 10
24.3499999996
 20
-13.0
 11
24.1999999996
 21
-13.0
  0
LINE
  5
4E5
100
AcDbEntity
  8
RACCORDO
100
AcDbLine
 62
7
  6
CONTINUOUS
 10
24.3499999996
 20
-13.0
 11
31.9999999996
 21
-13.0
  0
LINE
  5
4E6
100
AcDbEntity
  8
DRAFT
100
AcDbLine
 62
7
  6
CONTINUOUS
 10
-24.2000000004
 20
-13.0
 11
-24.3500000004
 21
-13.0
  0
LINE
  5
4E7
100
AcDbEntity
  8
RACCORDO
100
AcDbLine
 62
7
  6
CONTINUOUS
 10
-24.3500000004
 20
-13.0
 11
-32.0000000004
 21
-13.0
  0
LINE
  5
4E8
100
AcDbEntity
  8
RACCORDO
100
AcDbLine
 62
7
  6
CONTINUOUS
 10
-25.5500304614
 20
-12.9
 11
-24.9499695395
 21
-12.9
  0
LINE
  5
4E9
100
AcDbEntity
  8
RACCORDO
100
AcDbLine
 62
7
  6
CONTINUOUS
 10
24.9499695386
 20
-12.9
 11
25.5500304605
 21
-12.9
  0
LINE
  5
4EA
100
AcDbEntity
  8
SMUSSO
100
AcDbLine
 62
7
  6
CONTINUOUS
 10
23.2999999996
 20
-15.2744370909
 11
23.5309401072
 21
-15.2814191169
  0
LINE
  5
4EB
100
AcDbEntity
  8
ASSI
100
AcDbLine
 62
7
  6
CONTINUOUS
 10
12.4767771702
 20
-26.3732713192
 11
12.0437644684
 21
-26.1232713192
  0
LINE
  5
4EC
100
AcDbEntity
  8
ASSI
100
AcDbLine
 62
7
  6
CONTINUOUS
 10
12.4830127014
 20
-26.35
 11
12.0499999996
 21
-26.1
  0
LINE
  5
4ED
100
AcDbEntity
  8
ASSI
100
AcDbLine
 62
7
  6
CONTINUOUS
 10
8.2400670059
 20
-25.7916264167
 11
8.0403688824
 21
-25.6232794982
  0
LINE
  5
4EE
100
AcDbEntity
  8
DRAFT
100
AcDbLine
 62
7
  6
CONTINUOUS
 10
-9.8258625004
 20
-26.8929755853
 11
-9.97135237
 21
-26.35
  0
LINE
  5
4EF
100
AcDbEntity
  8
DRAFT
100
AcDbLine
 62
7
  6
CONTINUOUS
 10
-9.8327531543
 20
-26.8948219304
 11
-9.9723444374
 21
-26.3732713192
  0
LINE
  5
4F0
100
AcDbEntity
  8
DRAFT
100
AcDbLine
 62
7
  6
CONTINUOUS
 10
-13.47135237
 20
26.35
 11
-13.4723444374
 21
26.3732713192
  0
LINE
  5
4F1
100
AcDbEntity
  8
DRAFT
100
AcDbLine
 62
7
  6
CONTINUOUS
 10
-9.0286476309
 20
-26.35
 11
-9.0276555635
 21
-26.3732713192
  0
LINE
  5
4F2
100
AcDbEntity
  8
DRAFT
100
AcDbLine
 62
7
  6
CONTINUOUS
 10
-9.97135237
 20
26.35
 11
-9.9723444374
 21
26.3732713192
  0
LINE
  5
4F3
100
AcDbEntity
  8
DRAFT
100
AcDbLine
 62
7
  6
CONTINUOUS
 10
-12.5701517259
 20
43.0088825784
 11
-12.5873019242
 21
43.5
  0
LINE
  5
4F4
100
AcDbEntity
  8
0
100
AcDbLine
 62
7
  6
CONTINUOUS
 10
-12.8083750004
 20
-38.972865
 11
-12.8083750004
 21
-38.727463
  0
LINE
  5
4F5
100
AcDbEntity
  8
RACCORDO
100
AcDbLine
 62
7
  6
CONTINUOUS
 10
-12.5873019242
 20
-43.6894660298
 11
-12.5873019242
 21
-43.5
  0
LINE
  5
4F6
100
AcDbEntity
  8
RACCORDO
100
AcDbLine
 62
7
  6
CONTINUOUS
 10
-12.5873019242
 20
43.5
 11
-12.5873019242
 21
43.6894660298
  0
LINE
  5
4F7
100
AcDbEntity
  8
0
100
AcDbLine
 62
7
  6
CONTINUOUS
 10
-12.5656250004
 20
-31.027135
 11
-12.5656250004
 21
-33.076576
  0
LINE
  5
4F8
100
AcDbEntity
  8
DRAFT
100
AcDbLine
 62
7
  6
CONTINUOUS
 10
-12.5523811547
 20
43.3238174026
 11
-12.5523811547
 21
43.0
  0
LINE
  5
4F9
100
AcDbEntity
  8
DRAFT
100
AcDbLine
 62
7
  6
CONTINUOUS
 10
-12.5523811547
 20
-44.3098533507
 11
-12.5523811547
 21
-44.1
  0
LINE
  5
4FA
100
AcDbEntity
  8
DRAFT
100
AcDbLine
 62
7
  6
CONTINUOUS
 10
-12.5523811547
 20
-43.0
 11
-12.5523811547
 21
-43.3238174026
  0
LINE
  5
4FB
100
AcDbEntity
  8
DRAFT
100
AcDbLine
 62
7
  6
CONTINUOUS
 10
-12.5523811547
 20
44.1
 11
-12.5523811547
 21
44.3098533507
  0
LINE
  5
4FC
100
AcDbEntity
  8
RACCORDO
100
AcDbLine
 62
7
  6
CONTINUOUS
 10
-12.5000000004
 20
-44.3098533507
 11
-12.5000000004
 21
-43.5465394526
  0
LINE
  5
4FD
100
AcDbEntity
  8
RACCORDO
100
AcDbLine
 62
7
  6
CONTINUOUS
 10
-12.5000000004
 20
43.5465394526
 11
-12.5000000004
 21
44.3098533507
  0
LINE
  5
4FE
100
AcDbEntity
  8
DRAFT
100
AcDbLine
 62
7
  6
CONTINUOUS
 10
-12.3901466498
 20
44.3098533507
 11
-12.3901466498
 21
44.0726915844
  0
LINE
  5
4FF
100
AcDbEntity
  8
DRAFT
100
AcDbLine
 62
7
  6
CONTINUOUS
 10
-12.3901466498
 20
-44.0726915844
 11
-12.3901466498
 21
-44.3098533507
  0
LINE
  5
500
100
AcDbEntity
  8
0
100
AcDbLine
 62
7
  6
CONTINUOUS
 10
-12.3684740004
 20
-38.147119
 11
-12.3684740004
 21
-38.972865
  0
LINE
  5
501
100
AcDbEntity
  8
DRAFT
100
AcDbLine
 62
7
  6
CONTINUOUS
 10
-12.3674550654
 20
44.05
 11
-12.3674550654
 21
43.05
  0
LINE
  5
502
100
AcDbEntity
  8
DRAFT
100
AcDbLine
 62
7
  6
CONTINUOUS
 10
-12.3674550654
 20
-43.05
 11
-12.3674550654
 21
-44.05
  0
LINE
  5
503
100
AcDbEntity
  8
DRAFT
100
AcDbLine
 62
7
  6
CONTINUOUS
 10
-12.3500000004
 20
43.0325449351
 11
-12.3500000004
 21
42.05
  0
LINE
  5
504
100
AcDbEntity
  8
DRAFT
100
AcDbLine
 62
7
  6
CONTINUOUS
 10
-12.3500000004
 20
-43.0325449351
 11
-12.3500000004
 21
-42.05
  0
LINE
  5
505
100
AcDbEntity
  8
0
100
AcDbLine
 62
7
  6
CONTINUOUS
 10
-12.2885530004
 20
-32.831174
 11
-12.2885530004
 21
-32.146369
  0
LINE
  5
506
100
AcDbEntity
  8
0
100
AcDbLine
 62
7
  6
CONTINUOUS
 10
-12.2885530004
 20
-31.900966
 11
-12.2885530004
 21
-31.272537
  0
LINE
  5
507
100
AcDbEntity
  8
0
100
AcDbLine
 62
7
  6
CONTINUOUS
 10
-12.0915680004
 20
-38.972865
 11
-12.0915680004
 21
-38.147119
  0
LINE
  5
508
100
AcDbEntity
  8
SMUSSO
100
AcDbLine
 62
7
  6
CONTINUOUS
 10
-11.8500000004
 20
28.7575
 11
-11.8500000004
 21
26.8075
  0
LINE
  5
509
100
AcDbEntity
  8
SMUSSO
100
AcDbLine
 62
7
  6
CONTINUOUS
 10
-11.8500000004
 20
-26.8075
 11
-11.8500000004
 21
-28.7575
  0
LINE
  5
50A
100
AcDbEntity
  8
0
100
AcDbLine
 62
7
  6
CONTINUOUS
 10
-11.1663350004
 20
-32.146369
 11
-11.1663350004
 21
-31.900966
  0
LINE
  5
50B
100
AcDbEntity
  8
0
100
AcDbLine
 62
7
  6
CONTINUOUS
 10
-11.0721530004
 20
-31.272537
 11
-11.0721530004
 21
-31.027135
  0
LINE
  5
50C
100
AcDbEntity
  8
0
100
AcDbLine
 62
7
  6
CONTINUOUS
 10
-11.0520900004
 20
-33.076576
 11
-11.0520900004
 21
-32.831174
  0
LINE
  5
50D
100
AcDbEntity
  8
SMUSSO
100
AcDbLine
 62
7
  6
CONTINUOUS
 10
-10.6500000004
 20
-28.7575
 11
-10.6500000004
 21
-26.8075
  0
LINE
  5
50E
100
AcDbEntity
  8
SMUSSO
100
AcDbLine
 62
7
  6
CONTINUOUS
 10
-10.6500000004
 20
26.8075
 11
-10.6500000004
 21
28.7575
  0
LINE
  5
50F
100
AcDbEntity
  8
RACCORDO
100
AcDbLine
 62
253
  6
CONTINUOUS
 10
-8.5000000004
 20
-25.05
 11
-8.5000000004
 21
-24.7
  0
LINE
  5
510
100
AcDbEntity
  8
ASSI
100
AcDbLine
 62
7
  6
CONTINUOUS
 10
-8.5000000004
 20
-25.05
 11
-8.5000000004
 21
-25.2
  0
LINE
  5
511
100
AcDbEntity
  8
RACCORDO
100
AcDbLine
 62
253
  6
CONTINUOUS
 10
-8.5000000004
 20
24.7
 11
-8.5000000004
 21
25.05
  0
LINE
  5
512
100
AcDbEntity
  8
ASSI
100
AcDbLine
 62
7
  6
CONTINUOUS
 10
-8.5000000004
 20
25.05
 11
-8.5000000004
 21
25.2
  0
LINE
  5
513
100
AcDbEntity
  8
ASSI
100
AcDbLine
 62
253
  6
CONTINUOUS
 10
-8.4397929138
 20
-25.9897929133
 11
-8.4397929138
 21
-25.4
  0
LINE
  5
514
100
AcDbEntity
  8
ASSI
100
AcDbLine
 62
253
  6
CONTINUOUS
 10
-8.4397929138
 20
25.4
 11
-8.4397929138
 21
25.9897929133
  0
LINE
  5
515
100
AcDbEntity
  8
DRAFT
100
AcDbLine
 62
7
  6
CONTINUOUS
 10
-12.5873019242
 20
-43.5
 11
-12.5701517259
 21
-43.0088825784
  0
LINE
  5
516
100
AcDbEntity
  8
DRAFT
100
AcDbLine
 62
7
  6
CONTINUOUS
 10
-13.47135237
 20
-26.35
 11
-13.4723444374
 21
-26.3732713192
  0
LINE
  5
517
100
AcDbEntity
  8
DRAFT
100
AcDbLine
 62
7
  6
CONTINUOUS
 10
-9.0286476309
 20
26.35
 11
-9.0276555635
 21
26.3732713192
  0
LINE
  5
518
100
AcDbEntity
  8
DRAFT
100
AcDbLine
 62
7
  6
CONTINUOUS
 10
-9.97135237
 20
-26.35
 11
-9.9723444374
 21
-26.3732713192
  0
LINE
  5
519
100
AcDbEntity
  8
0
100
AcDbLine
 62
7
  6
CONTINUOUS
 10
-33.7500000004
 20
-34.4680850506
 11
-33.6666666572
 21
-34.3404254913
  0
LINE
  5
51A
100
AcDbEntity
  8
ASSI
100
AcDbLine
 62
7
  6
CONTINUOUS
 10
8.0403688824
 20
25.6232794982
 11
8.7903607035
 21
26.3732713192
  0
LINE
  5
51B
100
AcDbEntity
  8
ASSI
100
AcDbLine
 62
7
  6
CONTINUOUS
 10
8.4397929129
 20
25.9897929133
 11
8.7999999996
 21
26.35
  0
LINE
  5
51C
100
AcDbEntity
  8
RACCORDO
100
AcDbLine
 62
253
  6
CONTINUOUS
 10
-24.9499695395
 20
-8.25
 11
-24.9849405959
 21
-8.2849710564
  0
LINE
  5
51D
100
AcDbEntity
  8
RACCORDO
100
AcDbLine
 62
253
  6
CONTINUOUS
 10
-24.7497544195
 20
-8.4497239581
 11
-24.7849710569
 21
-8.4849405955
  0
LINE
  5
51E
100
AcDbEntity
  8
RACCORDO
100
AcDbLine
 62
253
  6
CONTINUOUS
 10
-25.715028944
 20
-12.6650594045
 11
-25.7500000004
 21
-12.700030461
  0
LINE
  5
51F
100
AcDbEntity
  8
RACCORDO
100
AcDbLine
 62
253
  6
CONTINUOUS
 10
-25.515059405
 20
-12.8650289436
 11
-25.5500304614
 21
-12.9
  0
LINE
  5
520
100
AcDbEntity
  8
DRAFT
100
AcDbLine
 62
7
  6
CONTINUOUS
 10
-43.5000000004
 20
-12.5873019237
 11
-43.0088825789
 21
-12.5701517255
  0
LINE
  5
521
100
AcDbEntity
  8
RACCORDO
100
AcDbLine
 62
253
  6
CONTINUOUS
 10
-25.515059405
 20
-12.8650289436
 11
-24.9849405959
 21
-12.8650289436
  0
LINE
  5
522
100
AcDbEntity
  8
RACCORDO
100
AcDbLine
 62
253
  6
CONTINUOUS
 10
24.984940595
 20
-12.8650289436
 11
25.5150594041
 21
-12.8650289436
  0
LINE
  5
523
100
AcDbEntity
  8
RACCORDO
100
AcDbLine
 62
253
  6
CONTINUOUS
 10
24.784971056
 20
-12.6650594045
 11
25.7150289431
 21
-12.6650594045
  0
LINE
  5
524
100
AcDbEntity
  8
RACCORDO
100
AcDbLine
 62
253
  6
CONTINUOUS
 10
-24.7849710569
 20
-12.6650594045
 11
-25.715028944
 21
-12.6650594045
  0
LINE
  5
525
100
AcDbEntity
  8
RACCORDO
100
AcDbLine
 62
7
  6
CONTINUOUS
 10
-43.6894660303
 20
-12.5873019237
 11
-43.5000000004
 21
-12.5873019237
  0
LINE
  5
526
100
AcDbEntity
  8
RACCORDO
100
AcDbLine
 62
7
  6
CONTINUOUS
 10
43.4999999996
 20
-12.5873019237
 11
43.6894660294
 21
-12.5873019237
  0
LINE
  5
527
100
AcDbEntity
  8
DRAFT
100
AcDbLine
 62
7
  6
CONTINUOUS
 10
-44.3098533511
 20
-12.5523811542
 11
-44.1000000004
 21
-12.5523811542
  0
LINE
  5
528
100
AcDbEntity
  8
DRAFT
100
AcDbLine
 62
7
  6
CONTINUOUS
 10
43.3238174022
 20
-12.5523811542
 11
42.9999999996
 21
-12.5523811542
  0
LINE
  5
529
100
AcDbEntity
  8
DRAFT
100
AcDbLine
 62
7
  6
CONTINUOUS
 10
-43.0000000004
 20
-12.5523811542
 11
-43.3238174031
 21
-12.5523811542
  0
LINE
  5
52A
100
AcDbEntity
  8
DRAFT
100
AcDbLine
 62
7
  6
CONTINUOUS
 10
44.0999999996
 20
-12.5523811542
 11
44.3098533502
 21
-12.5523811542
  0
LINE
  5
52B
100
AcDbEntity
  8
RACCORDO
100
AcDbLine
 62
7
  6
CONTINUOUS
 10
-44.3098533511
 20
-12.5
 11
-43.5465394531
 21
-12.5
  0
LINE
  5
52C
100
AcDbEntity
  8
RACCORDO
100
AcDbLine
 62
7
  6
CONTINUOUS
 10
43.5465394522
 20
-12.5
 11
44.3098533502
 21
-12.5
  0
LINE
  5
52D
100
AcDbEntity
  8
DRAFT
100
AcDbLine
 62
7
  6
CONTINUOUS
 10
-44.3098533511
 20
-12.3901466493
 11
-44.0726915849
 21
-12.3901466493
  0
LINE
  5
52E
100
AcDbEntity
  8
DRAFT
100
AcDbLine
 62
7
  6
CONTINUOUS
 10
44.072691584
 20
-12.3901466493
 11
44.3098533502
 21
-12.3901466493
  0
LINE
  5
52F
100
AcDbEntity
  8
DRAFT
100
AcDbLine
 62
7
  6
CONTINUOUS
 10
-44.0500000004
 20
-12.3674550649
 11
-43.0500000004
 21
-12.3674550649
  0
LINE
  5
530
100
AcDbEntity
  8
DRAFT
100
AcDbLine
 62
7
  6
CONTINUOUS
 10
43.0499999996
 20
-12.3674550649
 11
44.0499999996
 21
-12.3674550649
  0
LINE
  5
531
100
AcDbEntity
  8
DRAFT
100
AcDbLine
 62
7
  6
CONTINUOUS
 10
-43.0325449355
 20
-12.35
 11
-42.0500000004
 21
-12.35
  0
LINE
  5
532
100
AcDbEntity
  8
DRAFT
100
AcDbLine
 62
7
  6
CONTINUOUS
 10
43.0325449346
 20
-12.35
 11
42.0499999996
 21
-12.35
  0
LINE
  5
533
100
AcDbEntity
  8
RACCORDO
100
AcDbLine
 62
253
  6
CONTINUOUS
 10
24.784971056
 20
-8.4849405955
 11
25.7150289431
 21
-8.4849405955
  0
LINE
  5
534
100
AcDbEntity
  8
RACCORDO
100
AcDbLine
 62
253
  6
CONTINUOUS
 10
-24.7849710569
 20
-8.4849405955
 11
-25.715028944
 21
-8.4849405955
  0
LINE
  5
535
100
AcDbEntity
  8
DRAFT
100
AcDbLine
 62
7
  6
CONTINUOUS
 10
43.008882578
 20
-12.5701517255
 11
43.4999999996
 21
-12.5873019237
  0
LINE
  5
536
100
AcDbEntity
  8
ASSI
100
AcDbLine
 62
7
  6
CONTINUOUS
 10
25.6604639996
 20
-34.163833
 11
26.7808249996
 21
-35.107969
  0
LINE
  5
537
100
AcDbEntity
  8
ASSI
100
AcDbLine
 62
7
  6
CONTINUOUS
 10
26.7808249996
 20
-34.591613
 11
25.6087509996
 21
-33.6039
  0
LINE
  5
538
100
AcDbEntity
  8
ASSI
100
AcDbLine
 62
7
  6
CONTINUOUS
 10
8.7903607035
 20
-26.3732713192
 11
8.0403688824
 21
-25.6232794982
  0
LINE
  5
539
100
AcDbEntity
  8
ASSI
100
AcDbLine
 62
7
  6
CONTINUOUS
 10
8.7999999996
 20
-26.35
 11
8.4397929129
 21
-25.9897929133
  0
LINE
  5
53A
100
AcDbEntity
  8
RACCORDO
100
AcDbLine
 62
253
  6
CONTINUOUS
 10
-24.9499695395
 20
8.25
 11
-24.9849405959
 21
8.2849710564
  0
LINE
  5
53B
100
AcDbEntity
  8
RACCORDO
100
AcDbLine
 62
253
  6
CONTINUOUS
 10
-24.7497544195
 20
8.4497239581
 11
-24.7849710569
 21
8.4849405955
  0
LINE
  5
53C
100
AcDbEntity
  8
RACCORDO
100
AcDbLine
 62
253
  6
CONTINUOUS
 10
-25.715028944
 20
12.6650594045
 11
-25.7500000004
 21
12.700030461
  0
LINE
  5
53D
100
AcDbEntity
  8
RACCORDO
100
AcDbLine
 62
253
  6
CONTINUOUS
 10
-25.515059405
 20
12.8650289436
 11
-25.5500304614
 21
12.9
  0
LINE
  5
53E
100
AcDbEntity
  8
RACCORDO
100
AcDbLine
 62
7
  6
CONTINUOUS
 10
-8.3000000004
 20
-26.8075
 11
-8.3000000004
 21
-28.7575
  0
LINE
  5
53F
100
AcDbEntity
  8
RACCORDO
100
AcDbLine
 62
7
  6
CONTINUOUS
 10
-8.3000000004
 20
26.8075
 11
-8.3000000004
 21
28.7575
  0
LINE
  5
540
100
AcDbEntity
  8
ASSI
100
AcDbLine
 62
253
  6
CONTINUOUS
 10
-8.2400670068
 20
-25.7916264167
 11
-8.2400670068
 21
-25.200274093
  0
LINE
  5
541
100
AcDbEntity
  8
ASSI
100
AcDbLine
 62
253
  6
CONTINUOUS
 10
-8.2400670068
 20
25.200274093
 11
-8.2400670068
 21
25.7916264167
  0
LINE
  5
542
100
AcDbEntity
  8
ASSI
100
AcDbLine
 62
7
  6
CONTINUOUS
 10
-8.0403688833
 20
25.6232794982
 11
-8.0403688833
 21
25.2
  0
LINE
  5
543
100
AcDbEntity
  8
ASSI
100
AcDbLine
 62
7
  6
CONTINUOUS
 10
-8.0403688833
 20
-25.6232794982
 11
-8.0403688833
 21
-25.2
  0
LINE
  5
544
100
AcDbEntity
  8
RACCORDO
100
AcDbLine
 62
7
  6
CONTINUOUS
 10
-8.0000000004
 20
24.2928932188
 11
-8.0000000004
 21
23.0000456984
  0
LINE
  5
545
100
AcDbEntity
  8
RACCORDO
100
AcDbLine
 62
7
  6
CONTINUOUS
 10
-8.0000000004
 20
-23.0000456984
 11
-8.0000000004
 21
-24.2928932188
  0
LINE
  5
546
100
AcDbEntity
  8
RACCORDO
100
AcDbLine
 62
7
  6
CONTINUOUS
 10
-8.0000000004
 20
-24.656344058
 11
-8.0000000004
 21
-25.2
  0
LINE
  5
547
100
AcDbEntity
  8
RACCORDO
100
AcDbLine
 62
7
  6
CONTINUOUS
 10
-8.0000000004
 20
24.656344058
 11
-8.0000000004
 21
25.2
  0
LINE
  5
548
100
AcDbEntity
  8
DRAFT
100
AcDbLine
 62
7
  6
CONTINUOUS
 10
-12.5286476309
 20
-26.35
 11
-12.6741375005
 21
-26.8929755853
  0
LINE
  5
549
100
AcDbEntity
  8
DRAFT
100
AcDbLine
 62
7
  6
CONTINUOUS
 10
-12.5276555635
 20
-26.3732713192
 11
-12.6672468466
 21
-26.8948219304
  0
LINE
  5
54A
100
AcDbEntity
  8
0
100
AcDbLine
 62
7
  6
CONTINUOUS
 10
-17.8285110004
 20
-33.076576
 11
-17.2516490004
 21
-31.355444
  0
LINE
  5
54B
100
AcDbEntity
  8
0
100
AcDbLine
 62
7
  6
CONTINUOUS
 10
-17.3773350004
 20
-31.027135
 11
-17.9627290004
 21
-32.768485
  0
LINE
  5
54C
100
AcDbEntity
  8
0
100
AcDbLine
 62
7
  6
CONTINUOUS
 10
-16.4521020004
 20
-33.076576
 11
-16.2378720004
 21
-32.479652
  0
LINE
  5
54D
100
AcDbEntity
  8
0
100
AcDbLine
 62
7
  6
CONTINUOUS
 10
-16.1521470004
 20
-32.234249
 11
-15.8209060004
 21
-31.324172
  0
LINE
  5
54E
100
AcDbEntity
  8
0
100
AcDbLine
 62
7
  6
CONTINUOUS
 10
-15.9666030004
 20
-31.027135
 11
-16.7376310004
 21
-33.076576
  0
LINE
  5
54F
100
AcDbEntity
  8
0
100
AcDbLine
 62
7
  6
CONTINUOUS
 10
-26.2500000004
 20
-34.5531915426
 11
-26.3333334927
 21
-34.7234042883
  0
LINE
  5
550
100
AcDbEntity
  8
0
100
AcDbLine
 62
7
  6
CONTINUOUS
 10
-32.6250000004
 20
-34.8510638475
 11
-32.5416666274
 21
-34.7234042883
  0
LINE
  5
551
100
AcDbEntity
  8
0
100
AcDbLine
 62
7
  6
CONTINUOUS
 10
-31.0416667466
 20
-34.4680850506
 11
-30.9583332543
 21
-34.3404254913
  0
LINE
  5
552
100
AcDbEntity
  8
0
100
AcDbLine
 62
7
  6
CONTINUOUS
 10
-30.0833332543
 20
-35.5319148898
 11
-30.1666667466
 21
-35.6595744789
  0
LINE
  5
553
100
AcDbEntity
  8
0
100
AcDbLine
 62
7
  6
CONTINUOUS
 10
-27.2500000004
 20
-34.4680850506
 11
-27.1666665082
 21
-34.3404254913
  0
LINE
  5
554
100
AcDbEntity
  8
0
100
AcDbLine
 62
7
  6
CONTINUOUS
 10
-31.0833332543
 20
-34.1702127457
 11
-31.2083332543
 21
-34.3404254913
  0
LINE
  5
555
100
AcDbEntity
  8
0
100
AcDbLine
 62
7
  6
CONTINUOUS
 10
22.3880774902
 20
31.7533762561
 11
20.1828764158
 21
29.7347752009
  0
LINE
  5
556
100
AcDbEntity
  8
0
100
AcDbLine
 62
7
  6
CONTINUOUS
 10
20.1828764158
 20
29.4843938192
 11
20.9097731008
 21
30.147377362
  0
LINE
  5
557
100
AcDbEntity
  8
0
100
AcDbLine
 62
7
  6
CONTINUOUS
 10
21.0669203627
 20
30.2947070382
 11
22.6680434088
 21
31.7533762561
  0
LINE
  5
558
100
AcDbEntity
  8
RACCORDO
100
AcDbLine
 62
253
  6
CONTINUOUS
 10
25.5150594041
 20
-8.2849710564
 11
24.984940595
 21
-8.2849710564
  0
LINE
  5
559
100
AcDbEntity
  8
RACCORDO
100
AcDbLine
 62
253
  6
CONTINUOUS
 10
-24.9849405959
 20
-8.2849710564
 11
-25.515059405
 21
-8.2849710564
  0
LINE
  5
55A
100
AcDbEntity
  8
RACCORDO
100
AcDbLine
 62
7
  6
CONTINUOUS
 10
25.5500304605
 20
-8.25
 11
24.9499695386
 21
-8.25
  0
LINE
  5
55B
100
AcDbEntity
  8
RACCORDO
100
AcDbLine
 62
7
  6
CONTINUOUS
 10
-24.9499695395
 20
-8.25
 11
-25.5500304614
 21
-8.25
  0
LINE
  5
55C
100
AcDbEntity
  8
RACCORDO
100
AcDbLine
 62
7
  6
CONTINUOUS
 10
-24.2000000004
 20
-7.0
 11
-22.999954309
 21
-7.0
  0
LINE
  5
55D
100
AcDbEntity
  8
RACCORDO
100
AcDbLine
 62
7
  6
CONTINUOUS
 10
22.9999543081
 20
-7.0
 11
24.1999999996
 21
-7.0
  0
LINE
  5
55E
100
AcDbEntity
  8
RACCORDO
100
AcDbLine
 62
253
  6
CONTINUOUS
 10
24.3596916751
 20
-6.9387787509
 11
24.6596459837
 21
-6.9387787509
  0
LINE
  5
55F
100
AcDbEntity
  8
RACCORDO
100
AcDbLine
 62
253
  6
CONTINUOUS
 10
-24.359691676
 20
-6.9387787509
 11
-24.6596459846
 21
-6.9387787518
  0
LINE
  5
560
100
AcDbEntity
  8
DRAFT
100
AcDbLine
 62
7
  6
CONTINUOUS
 10
-12.6741375005
 20
26.8929755853
 11
-12.5286476309
 21
26.35
  0
LINE
  5
561
100
AcDbEntity
  8
DRAFT
100
AcDbLine
 62
7
  6
CONTINUOUS
 10
-12.6672468466
 20
26.8948219304
 11
-12.5276555635
 21
26.3732713192
  0
LINE
  5
562
100
AcDbEntity
  8
DRAFT
100
AcDbLine
 62
7
  6
CONTINUOUS
 10
-0.6000000004
 20
24.65
 11
-0.6000000004
 21
23.5
  0
LINE
  5
563
100
AcDbEntity
  8
DRAFT
100
AcDbLine
 62
7
  6
CONTINUOUS
 10
-0.6000000004
 20
-24.65
 11
-0.6000000004
 21
-23.5
  0
LINE
  5
564
100
AcDbEntity
  8
RACCORDO
100
AcDbLine
 62
7
  6
CONTINUOUS
 10
-0.6000000004
 20
-24.65
 11
-0.6000000004
 21
-25.1675656165
  0
LINE
  5
565
100
AcDbEntity
  8
RACCORDO
100
AcDbLine
 62
7
  6
CONTINUOUS
 10
-0.6000000004
 20
24.65
 11
-0.6000000004
 21
25.1675656165
  0
LINE
  5
566
100
AcDbEntity
  8
DRAFT
100
AcDbLine
 62
7
  6
CONTINUOUS
 10
0.5999999996
 20
24.65
 11
0.5999999996
 21
23.5
  0
LINE
  5
567
100
AcDbEntity
  8
DRAFT
100
AcDbLine
 62
7
  6
CONTINUOUS
 10
0.5999999996
 20
-24.65
 11
0.5999999996
 21
-23.5
  0
LINE
  5
568
100
AcDbEntity
  8
RACCORDO
100
AcDbLine
 62
7
  6
CONTINUOUS
 10
0.5999999996
 20
-24.65
 11
0.5999999996
 21
-25.1675656165
  0
LINE
  5
569
100
AcDbEntity
  8
RACCORDO
100
AcDbLine
 62
7
  6
CONTINUOUS
 10
0.5999999996
 20
24.65
 11
0.5999999996
 21
25.1675656165
  0
LINE
  5
56A
100
AcDbEntity
  8
RACCORDO
100
AcDbLine
 62
253
  6
CONTINUOUS
 10
5.3521364879
 20
33.3765671235
 11
5.2277163049
 21
32.6006678916
  0
LINE
  5
56B
100
AcDbEntity
  8
RACCORDO
100
AcDbLine
 62
253
  6
CONTINUOUS
 10
4.1478635112
 20
25.8665759397
 11
4.2722836942
 21
26.6424751716
  0
LINE
  5
56C
100
AcDbEntity
  8
RACCORDO
100
AcDbLine
 62
253
  6
CONTINUOUS
 10
-4.1478635121
 20
-25.8665759397
 11
-4.2722836951
 21
-26.6424751716
  0
LINE
  5
56D
100
AcDbEntity
  8
RACCORDO
100
AcDbLine
 62
253
  6
CONTINUOUS
 10
-5.3521364888
 20
-33.3765671235
 11
-5.2277163058
 21
-32.6006678916
  0
LINE
  5
56E
100
AcDbEntity
  8
ASSI
100
AcDbLine
 62
7
  6
CONTINUOUS
 10
-10.4500000004
 20
-26.1
 11
-10.4562355316
 21
-26.1232713192
  0
LINE
  5
56F
100
AcDbEntity
  8
ASSI
100
AcDbLine
 62
7
  6
CONTINUOUS
 10
-10.0169872986
 20
-26.35
 11
-10.0232228298
 21
-26.3732713192
  0
LINE
  5
570
100
AcDbEntity
  8
DRAFT
100
AcDbLine
 62
7
  6
CONTINUOUS
 10
-9.0286476309
 20
-26.35
 11
-9.1741375005
 21
-26.8929755853
  0
LINE
  5
571
100
AcDbEntity
  8
DRAFT
100
AcDbLine
 62
7
  6
CONTINUOUS
 10
-9.0276555635
 20
-26.3732713192
 11
-9.1672468466
 21
-26.8948219304
  0
LINE
  5
572
100
AcDbEntity
  8
0
100
AcDbLine
 62
7
  6
CONTINUOUS
 10
-15.9210050004
 20
-38.972865
 11
-15.7067750004
 21
-38.37594
  0
LINE
  5
573
100
AcDbEntity
  8
0
100
AcDbLine
 62
7
  6
CONTINUOUS
 10
-15.6212160004
 20
-38.130538
 11
-15.2898080004
 21
-37.220463
  0
LINE
  5
574
100
AcDbEntity
  8
0
100
AcDbLine
 62
7
  6
CONTINUOUS
 10
-15.4355060004
 20
-36.921766
 11
-16.2065340004
 21
-38.972865
  0
LINE
  5
575
100
AcDbEntity
  8
ASSI
100
AcDbLine
 62
7
  6
CONTINUOUS
 10
-13.7000000004
 20
-26.35
 11
-13.7096392965
 21
-26.3732713192
  0
LINE
  5
576
100
AcDbEntity
  8
0
100
AcDbLine
 62
7
  6
CONTINUOUS
 10
-26.1250000004
 20
-34.8510638475
 11
-26.0416665082
 21
-34.7234042883
  0
LINE
  5
577
100
AcDbEntity
  8
0
100
AcDbLine
 62
7
  6
CONTINUOUS
 10
-30.0416667466
 20
-35.8297872394
 11
-29.9166665082
 21
-35.6595744789
  0
LINE
  5
578
100
AcDbEntity
  8
0
100
AcDbLine
 62
7
  6
CONTINUOUS
 10
-31.9166667466
 20
-34.0
 11
-32.1666666274
 21
-34.2978723049
  0
LINE
  5
579
100
AcDbEntity
  8
0
100
AcDbLine
 62
7
  6
CONTINUOUS
 10
-32.1666666274
 20
-34.6382979155
 11
-31.9166667466
 21
-34.3404254913
  0
LINE
  5
57A
100
AcDbEntity
  8
0
100
AcDbLine
 62
7
  6
CONTINUOUS
 10
-33.7500000004
 20
-34.1276595592
 11
-33.9166666646
 21
-34.2978723049
  0
LINE
  5
57B
100
AcDbEntity
  8
RACCORDO
100
AcDbLine
 62
7
  6
CONTINUOUS
 10
-24.4754410564
 20
-19.7254410559
 11
-24.4931702909
 21
-19.7431702905
  0
LINE
  5
57C
100
AcDbEntity
  8
RACCORDO
100
AcDbLine
 62
7
  6
CONTINUOUS
 10
22.4088798485
 20
24.6588798489
 11
22.3999999996
 21
24.65
  0
LINE
  5
57D
100
AcDbEntity
  8
RACCORDO
100
AcDbLine
 62
253
  6
CONTINUOUS
 10
43.3503046092
 20
45.35
 11
43.3101579599
 21
45.3098533507
  0
LINE
  5
57E
100
AcDbEntity
  8
RACCORDO
100
AcDbLine
 62
253
  6
CONTINUOUS
 10
-45.3500000004
 20
-43.3503046097
 11
-45.3098533511
 21
-43.3101579604
  0
LINE
  5
57F
100
AcDbEntity
  8
RACCORDO
100
AcDbLine
 62
7
  6
CONTINUOUS
 10
-24.3588798494
 20
-22.7088798489
 11
-24.3500000004
 21
-22.7
  0
LINE
  5
580
100
AcDbEntity
  8
RACCORDO
100
AcDbLine
 62
253
  6
CONTINUOUS
 10
43.3727981973
 20
44.0726915844
 11
43.3501066129
 21
44.05
  0
LINE
  5
581
100
AcDbEntity
  8
RACCORDO
100
AcDbLine
 62
253
  6
CONTINUOUS
 10
-44.0726915849
 20
-43.3727981978
 11
-44.0500000004
 21
-43.3501066134
  0
LINE
  5
582
100
AcDbEntity
  8
RACCORDO
100
AcDbLine
 62
253
  6
CONTINUOUS
 10
22.4088798485
 20
23.0088341575
 11
22.3999999996
 21
22.9999543085
  0
LINE
  5
583
100
AcDbEntity
  8
RACCORDO
100
AcDbLine
 62
253
  6
CONTINUOUS
 10
-22.6762038901
 20
-22.3266150292
 11
-22.7000000004
 21
-22.3504111396
  0
LINE
  5
584
100
AcDbEntity
  8
RACCORDO
100
AcDbLine
 62
253
  6
CONTINUOUS
 10
22.4504111391
 20
22.7
 11
22.3766150288
 21
22.6262038896
  0
LINE
  5
585
100
AcDbEntity
  8
RACCORDO
100
AcDbLine
 62
253
  6
CONTINUOUS
 10
22.708834157
 20
22.7088798489
 11
22.6999543081
 21
22.7
  0
LINE
  5
586
100
AcDbEntity
  8
DRAFT
100
AcDbLine
 62
7
  6
CONTINUOUS
 10
-43.0325449355
 20
-43.0325449351
 11
-43.0500000004
 21
-43.05
  0
LINE
  5
587
100
AcDbEntity
  8
DRAFT
100
AcDbLine
 62
7
  6
CONTINUOUS
 10
43.0325449346
 20
43.0325449351
 11
43.0499999996
 21
43.05
  0
LINE
  5
588
100
AcDbEntity
  8
RACCORDO
100
AcDbLine
 62
253
  6
CONTINUOUS
 10
-22.7088341579
 20
-22.7088798489
 11
-22.699954309
 21
-22.7
  0
LINE
  5
589
100
AcDbEntity
  8
RACCORDO
100
AcDbLine
 62
253
  6
CONTINUOUS
 10
-22.3766150297
 20
-22.6262038896
 11
-22.45041114
 21
-22.7
  0
LINE
  5
58A
100
AcDbEntity
  8
RACCORDO
100
AcDbLine
 62
253
  6
CONTINUOUS
 10
22.6999999996
 20
22.3504111396
 11
22.6762038892
 21
22.3266150292
  0
LINE
  5
58B
100
AcDbEntity
  8
RACCORDO
100
AcDbLine
 62
253
  6
CONTINUOUS
 10
-22.4088798494
 20
-23.0088341575
 11
-22.4000000004
 21
-22.9999543085
  0
LINE
  5
58C
100
AcDbEntity
  8
RACCORDO
100
AcDbLine
 62
253
  6
CONTINUOUS
 10
44.072691584
 20
43.3727981978
 11
44.0499999996
 21
43.3501066134
  0
LINE
  5
58D
100
AcDbEntity
  8
RACCORDO
100
AcDbLine
 62
253
  6
CONTINUOUS
 10
-43.3727981982
 20
-44.0726915844
 11
-43.3501066138
 21
-44.05
  0
LINE
  5
58E
100
AcDbEntity
  8
RACCORDO
100
AcDbLine
 62
253
  6
CONTINUOUS
 10
-24.8675312294
 20
-7.7733686226
 11
-28.9611931915
 21
-8.4951916764
  0
LINE
  5
58F
100
AcDbEntity
  8
RACCORDO
100
AcDbLine
 62
253
  6
CONTINUOUS
 10
-24.9187017669
 20
-7.4831660837
 11
-29.012363729
 21
-8.2049891375
  0
LINE
  5
590
100
AcDbEntity
  8
RACCORDO
100
AcDbLine
 62
253
  6
CONTINUOUS
 10
-24.6596459846
 20
-6.9388119964
 11
-29.0976479582
 21
-7.7213182393
  0
LINE
  5
591
100
AcDbEntity
  8
RACCORDO
100
AcDbLine
 62
253
  6
CONTINUOUS
 10
-32.600667892
 20
-5.2277163053
 11
-33.3765671239
 21
-5.3521364884
  0
LINE
  5
592
100
AcDbEntity
  8
RACCORDO
100
AcDbLine
 62
253
  6
CONTINUOUS
 10
32.6006678911
 20
5.2277163053
 11
33.376567123
 21
5.3521364884
  0
LINE
  5
593
100
AcDbEntity
  8
DRAFT
100
AcDbLine
 62
7
  6
CONTINUOUS
 10
-24.3500000004
 20
-0.6
 11
-23.5000000004
 21
-0.6
  0
LINE
  5
594
100
AcDbEntity
  8
DRAFT
100
AcDbLine
 62
7
  6
CONTINUOUS
 10
24.3499999996
 20
-0.6
 11
23.4999999996
 21
-0.6
  0
LINE
  5
595
100
AcDbEntity
  8
RACCORDO
100
AcDbLine
 62
7
  6
CONTINUOUS
 10
24.3499999996
 20
-0.6
 11
24.6999999996
 21
-0.6
  0
LINE
  5
596
100
AcDbEntity
  8
RACCORDO
100
AcDbLine
 62
7
  6
CONTINUOUS
 10
-24.3500000004
 20
-0.6
 11
-24.7000000004
 21
-0.6
  0
LINE
  5
597
100
AcDbEntity
  8
DRAFT
100
AcDbLine
 62
7
  6
CONTINUOUS
 10
-24.3500000004
 20
0.6
 11
-23.5000000004
 21
0.6
  0
LINE
  5
598
100
AcDbEntity
  8
DRAFT
100
AcDbLine
 62
7
  6
CONTINUOUS
 10
24.3499999996
 20
0.6
 11
23.4999999996
 21
0.6
  0
LINE
  5
599
100
AcDbEntity
  8
RACCORDO
100
AcDbLine
 62
7
  6
CONTINUOUS
 10
-24.3500000004
 20
0.6
 11
-24.7000000004
 21
0.6
  0
LINE
  5
59A
100
AcDbEntity
  8
RACCORDO
100
AcDbLine
 62
7
  6
CONTINUOUS
 10
24.3499999996
 20
0.6
 11
24.6999999996
 21
0.6
  0
LINE
  5
59B
100
AcDbEntity
  8
RACCORDO
100
AcDbLine
 62
253
  6
CONTINUOUS
 10
-32.600667892
 20
5.2277163053
 11
-33.3765671239
 21
5.3521364884
  0
LINE
  5
59C
100
AcDbEntity
  8
RACCORDO
100
AcDbLine
 62
253
  6
CONTINUOUS
 10
33.376567123
 20
-5.3521364884
 11
32.6006678911
 21
-5.2277163053
  0
LINE
  5
59D
100
AcDbEntity
  8
RACCORDO
100
AcDbLine
 62
253
  6
CONTINUOUS
 10
28.9611931906
 20
-8.4951916764
 11
24.8675312285
 21
-7.7733686226
  0
LINE
  5
59E
100
AcDbEntity
  8
RACCORDO
100
AcDbLine
 62
253
  6
CONTINUOUS
 10
29.0123637281
 20
-8.2049891375
 11
24.918701766
 21
-7.4831660837
  0
LINE
  5
59F
100
AcDbEntity
  8
RACCORDO
100
AcDbLine
 62
253
  6
CONTINUOUS
 10
29.0976479573
 20
-7.7213182393
 11
24.6596459837
 21
-6.9388120306
  0
LINE
  5
5A0
100
AcDbEntity
  8
RACCORDO
100
AcDbLine
 62
7
  6
CONTINUOUS
 10
-24.4754410564
 20
19.7254410559
 11
-24.4931702909
 21
19.7431702905
  0
LINE
  5
5A1
100
AcDbEntity
  8
RACCORDO
100
AcDbLine
 62
7
  6
CONTINUOUS
 10
22.4088798485
 20
-24.6588798489
 11
22.3999999996
 21
-24.65
  0
LINE
  5
5A2
100
AcDbEntity
  8
RACCORDO
100
AcDbLine
 62
253
  6
CONTINUOUS
 10
-45.3500000004
 20
43.3503046097
 11
-45.3098533511
 21
43.3101579604
  0
LINE
  5
5A3
100
AcDbEntity
  8
RACCORDO
100
AcDbLine
 62
253
  6
CONTINUOUS
 10
43.3503046092
 20
-45.35
 11
43.3101579599
 21
-45.3098533507
  0
LINE
  5
5A4
100
AcDbEntity
  8
RACCORDO
100
AcDbLine
 62
7
  6
CONTINUOUS
 10
-24.3588798494
 20
22.7088798489
 11
-24.3500000004
 21
22.7
  0
LINE
  5
5A5
100
AcDbEntity
  8
RACCORDO
100
AcDbLine
 62
253
  6
CONTINUOUS
 10
-44.0726915849
 20
43.3727981978
 11
-44.0500000004
 21
43.3501066134
  0
LINE
  5
5A6
100
AcDbEntity
  8
RACCORDO
100
AcDbLine
 62
253
  6
CONTINUOUS
 10
43.3501066129
 20
-44.05
 11
43.3727981973
 21
-44.0726915844
  0
LINE
  5
5A7
100
AcDbEntity
  8
RACCORDO
100
AcDbLine
 62
253
  6
CONTINUOUS
 10
22.4088798485
 20
-23.0088341575
 11
22.3999999996
 21
-22.9999543085
  0
LINE
  5
5A8
100
AcDbEntity
  8
RACCORDO
100
AcDbLine
 62
253
  6
CONTINUOUS
 10
-22.6762038901
 20
22.3266150292
 11
-22.7000000004
 21
22.3504111396
  0
LINE
  5
5A9
100
AcDbEntity
  8
RACCORDO
100
AcDbLine
 62
253
  6
CONTINUOUS
 10
22.3766150288
 20
-22.6262038896
 11
22.4504111391
 21
-22.7
  0
LINE
  5
5AA
100
AcDbEntity
  8
RACCORDO
100
AcDbLine
 62
253
  6
CONTINUOUS
 10
22.708834157
 20
-22.7088798489
 11
22.6999543081
 21
-22.7
  0
LINE
  5
5AB
100
AcDbEntity
  8
DRAFT
100
AcDbLine
 62
7
  6
CONTINUOUS
 10
43.0325449346
 20
-43.0325449351
 11
43.0499999996
 21
-43.05
  0
LINE
  5
5AC
100
AcDbEntity
  8
DRAFT
100
AcDbLine
 62
7
  6
CONTINUOUS
 10
-43.0325449355
 20
43.0325449351
 11
-43.0500000004
 21
43.05
  0
LINE
  5
5AD
100
AcDbEntity
  8
RACCORDO
100
AcDbLine
 62
253
  6
CONTINUOUS
 10
-22.7088341579
 20
22.7088798489
 11
-22.699954309
 21
22.7
  0
LINE
  5
5AE
100
AcDbEntity
  8
RACCORDO
100
AcDbLine
 62
253
  6
CONTINUOUS
 10
-22.3766150297
 20
22.6262038896
 11
-22.45041114
 21
22.7
  0
LINE
  5
5AF
100
AcDbEntity
  8
RACCORDO
100
AcDbLine
 62
253
  6
CONTINUOUS
 10
22.6762038892
 20
-22.3266150292
 11
22.6999999996
 21
-22.3504111396
  0
LINE
  5
5B0
100
AcDbEntity
  8
RACCORDO
100
AcDbLine
 62
253
  6
CONTINUOUS
 10
-22.4088798494
 20
23.0088341575
 11
-22.4000000004
 21
22.9999543085
  0
LINE
  5
5B1
100
AcDbEntity
  8
RACCORDO
100
AcDbLine
 62
253
  6
CONTINUOUS
 10
-43.3727981982
 20
44.0726915844
 11
-43.3501066138
 21
44.05
  0
LINE
  5
5B2
100
AcDbEntity
  8
RACCORDO
100
AcDbLine
 62
253
  6
CONTINUOUS
 10
44.0499999996
 20
-43.3501066134
 11
44.072691584
 21
-43.3727981978
  0
LINE
  5
5B3
100
AcDbEntity
  8
ASSI
100
AcDbLine
 62
7
  6
CONTINUOUS
 10
-13.7000000004
 20
26.35
 11
-13.7096392965
 21
26.3732713192
  0
LINE
  5
5B4
100
AcDbEntity
  8
ASSI
100
AcDbLine
 62
7
  6
CONTINUOUS
 10
-10.4500000004
 20
26.1
 11
-10.4562355316
 21
26.1232713192
  0
LINE
  5
5B5
100
AcDbEntity
  8
ASSI
100
AcDbLine
 62
7
  6
CONTINUOUS
 10
-10.0169872986
 20
26.35
 11
-10.0232228298
 21
26.3732713192
  0
LINE
  5
5B6
100
AcDbEntity
  8
DRAFT
100
AcDbLine
 62
7
  6
CONTINUOUS
 10
-9.1741375005
 20
26.8929755853
 11
-9.0286476309
 21
26.35
  0
LINE
  5
5B7
100
AcDbEntity
  8
DRAFT
100
AcDbLine
 62
7
  6
CONTINUOUS
 10
-9.1672468466
 20
26.8948219304
 11
-9.0276555635
 21
26.3732713192
  0
LINE
  5
5B8
100
AcDbEntity
  8
RACCORDO
100
AcDbLine
 62
253
  6
CONTINUOUS
 10
-5.3521364888
 20
33.3765671235
 11
-5.2277163058
 21
32.6006678916
  0
LINE
  5
5B9
100
AcDbEntity
  8
RACCORDO
100
AcDbLine
 62
253
  6
CONTINUOUS
 10
5.3521364879
 20
-33.3765671235
 11
5.2277163049
 21
-32.6006678916
  0
LINE
  5
5BA
100
AcDbEntity
  8
RACCORDO
100
AcDbLine
 62
253
  6
CONTINUOUS
 10
-4.1478635121
 20
25.8665759397
 11
-4.2722836951
 21
26.6424751716
  0
LINE
  5
5BB
100
AcDbEntity
  8
RACCORDO
100
AcDbLine
 62
253
  6
CONTINUOUS
 10
4.1478635112
 20
-25.8665759397
 11
4.2722836942
 21
-26.6424751716
  0
LINE
  5
5BC
100
AcDbEntity
  8
DRAFT
100
AcDbLine
 62
7
  6
CONTINUOUS
 10
9.0276555626
 20
26.3732713192
 11
9.1672468457
 21
26.8948219304
  0
LINE
  5
5BD
100
AcDbEntity
  8
DRAFT
100
AcDbLine
 62
7
  6
CONTINUOUS
 10
9.02864763
 20
26.35
 11
9.1741374996
 21
26.8929755853
  0
LINE
  5
5BE
100
AcDbEntity
  8
ASSI
100
AcDbLine
 62
7
  6
CONTINUOUS
 10
10.0169872977
 20
26.35
 11
10.0232228289
 21
26.3732713192
  0
LINE
  5
5BF
100
AcDbEntity
  8
ASSI
100
AcDbLine
 62
7
  6
CONTINUOUS
 10
10.4499999996
 20
26.1
 11
10.4562355308
 21
26.1232713192
  0
LINE
  5
5C0
100
AcDbEntity
  8
ASSI
100
AcDbLine
 62
7
  6
CONTINUOUS
 10
13.6999999996
 20
26.35
 11
13.7096392956
 21
26.3732713192
  0
LINE
  5
5C1
100
AcDbEntity
  8
0
100
AcDbLine
 62
7
  6
CONTINUOUS
 10
-28.5000000004
 20
-34.0
 11
-29.5000000004
 21
-35.1489361525
  0
LINE
  5
5C2
100
AcDbEntity
  8
0
100
AcDbLine
 62
7
  6
CONTINUOUS
 10
-29.2083334927
 20
-35.1489361525
 11
-28.5000000004
 21
-34.3404254913
  0
LINE
  5
5C3
100
AcDbEntity
  8
0
100
AcDbLine
 62
7
  6
CONTINUOUS
 10
-31.0416667466
 20
-35.1489361525
 11
-30.9583332543
 21
-35.0638297796
  0
LINE
  5
5C4
100
AcDbEntity
  8
0
100
AcDbLine
 62
7
  6
CONTINUOUS
 10
-27.2500000004
 20
-34.1276595592
 11
-27.4166665082
 21
-34.2978723049
  0
LINE
  5
5C5
100
AcDbEntity
  8
RACCORDO
100
AcDbLine
 62
7
  6
CONTINUOUS
 10
24.3499999996
 20
22.7
 11
24.3588798485
 21
22.7088798489
  0
LINE
  5
5C6
100
AcDbEntity
  8
RACCORDO
100
AcDbLine
 62
253
  6
CONTINUOUS
 10
45.3499999996
 20
43.3503046097
 11
45.3098533502
 21
43.3101579604
  0
LINE
  5
5C7
100
AcDbEntity
  8
RACCORDO
100
AcDbLine
 62
253
  6
CONTINUOUS
 10
-43.3503046101
 20
-45.35
 11
-43.3101579608
 21
-45.3098533507
  0
LINE
  5
5C8
100
AcDbEntity
  8
RACCORDO
100
AcDbLine
 62
7
  6
CONTINUOUS
 10
-22.4088798494
 20
-24.6588798489
 11
-22.4000000004
 21
-24.65
  0
LINE
  5
5C9
100
AcDbEntity
  8
RACCORDO
100
AcDbLine
 62
7
  6
CONTINUOUS
 10
24.49317029
 20
19.7431702905
 11
24.4754410555
 21
19.7254410559
  0
LINE
  5
5CA
100
AcDbEntity
  8
0
100
AcDbLine
 62
7
  6
CONTINUOUS
 10
-32.8333333735
 20
-34.7234042883
 11
-34.0000000004
 21
-35.7872340381
  0
LINE
  5
5CB
100
AcDbEntity
  8
0
100
AcDbLine
 62
7
  6
CONTINUOUS
 10
-33.6666666572
 20
-35.7872340381
 11
-32.6250000004
 21
-34.8510638475
  0
LINE
  5
5CC
100
AcDbEntity
  8
RACCORDO
100
AcDbLine
 62
253
  6
CONTINUOUS
 10
24.6596459837
 20
6.9388119964
 11
29.0976479573
 21
7.7213182393
  0
LINE
  5
5CD
100
AcDbEntity
  8
RACCORDO
100
AcDbLine
 62
253
  6
CONTINUOUS
 10
24.918701766
 20
7.4831660837
 11
29.0123637281
 21
8.2049891375
  0
LINE
  5
5CE
100
AcDbEntity
  8
RACCORDO
100
AcDbLine
 62
253
  6
CONTINUOUS
 10
24.8675312285
 20
7.7733686226
 11
28.9611931906
 21
8.4951916764
  0
LINE
  5
5CF
100
AcDbEntity
  8
RACCORDO
100
AcDbLine
 62
253
  6
CONTINUOUS
 10
-29.0976479582
 20
7.7213182393
 11
-24.6596459846
 21
6.9388120306
  0
LINE
  5
5D0
100
AcDbEntity
  8
RACCORDO
100
AcDbLine
 62
253
  6
CONTINUOUS
 10
-29.012363729
 20
8.2049891375
 11
-24.9187017669
 21
7.4831660837
  0
LINE
  5
5D1
100
AcDbEntity
  8
RACCORDO
100
AcDbLine
 62
253
  6
CONTINUOUS
 10
-28.9611931915
 20
8.4951916764
 11
-24.8675312294
 21
7.7733686226
  0
LINE
  5
5D2
100
AcDbEntity
  8
RACCORDO
100
AcDbLine
 62
7
  6
CONTINUOUS
 10
24.3588798485
 20
-22.7088798489
 11
24.3499999996
 21
-22.7
  0
LINE
  5
5D3
100
AcDbEntity
  8
RACCORDO
100
AcDbLine
 62
253
  6
CONTINUOUS
 10
-43.3503046101
 20
45.35
 11
-43.3101579608
 21
45.3098533507
  0
LINE
  5
5D4
100
AcDbEntity
  8
RACCORDO
100
AcDbLine
 62
253
  6
CONTINUOUS
 10
45.3499999996
 20
-43.3503046097
 11
45.3098533502
 21
-43.3101579604
  0
LINE
  5
5D5
100
AcDbEntity
  8
RACCORDO
100
AcDbLine
 62
7
  6
CONTINUOUS
 10
-22.4088798494
 20
24.6588798489
 11
-22.4000000004
 21
24.65
  0
LINE
  5
5D6
100
AcDbEntity
  8
RACCORDO
100
AcDbLine
 62
7
  6
CONTINUOUS
 10
24.49317029
 20
-19.7431702905
 11
24.4754410555
 21
-19.7254410559
  0
LINE
  5
5D7
100
AcDbEntity
  8
ASSI
100
AcDbLine
 62
7
  6
CONTINUOUS
 10
13.6999999996
 20
-26.35
 11
13.7096392956
 21
-26.3732713192
  0
LINE
  5
5D8
100
AcDbEntity
  8
DRAFT
100
AcDbLine
 62
7
  6
CONTINUOUS
 10
9.1741374996
 20
-26.8929755853
 11
9.02864763
 21
-26.35
  0
LINE
  5
5D9
100
AcDbEntity
  8
ASSI
100
AcDbLine
 62
7
  6
CONTINUOUS
 10
10.0169872977
 20
-26.35
 11
10.0232228289
 21
-26.3732713192
  0
LINE
  5
5DA
100
AcDbEntity
  8
ASSI
100
AcDbLine
 62
7
  6
CONTINUOUS
 10
10.4499999996
 20
-26.1
 11
10.4562355308
 21
-26.1232713192
  0
LINE
  5
5DB
100
AcDbEntity
  8
DRAFT
100
AcDbLine
 62
7
  6
CONTINUOUS
 10
9.1672468457
 20
-26.8948219304
 11
9.0276555626
 21
-26.3732713192
  0
LINE
  5
5DC
100
AcDbEntity
  8
DRAFT
100
AcDbLine
 62
7
  6
CONTINUOUS
 10
9.9713523691
 20
-26.35
 11
9.9723444365
 21
-26.3732713192
  0
LINE
  5
5DD
100
AcDbEntity
  8
RACCORDO
100
AcDbLine
 62
7
  6
CONTINUOUS
 10
7.9999999996
 20
25.2
 11
7.9999999996
 21
24.656344058
  0
LINE
  5
5DE
100
AcDbEntity
  8
RACCORDO
100
AcDbLine
 62
7
  6
CONTINUOUS
 10
7.9999999996
 20
24.2928932188
 11
7.9999999996
 21
23.0000456984
  0
LINE
  5
5DF
100
AcDbEntity
  8
RACCORDO
100
AcDbLine
 62
7
  6
CONTINUOUS
 10
7.9999999996
 20
-23.0000456984
 11
7.9999999996
 21
-24.2928932188
  0
LINE
  5
5E0
100
AcDbEntity
  8
RACCORDO
100
AcDbLine
 62
7
  6
CONTINUOUS
 10
7.9999999996
 20
-24.656344058
 11
7.9999999996
 21
-25.2
  0
LINE
  5
5E1
100
AcDbEntity
  8
ASSI
100
AcDbLine
 62
7
  6
CONTINUOUS
 10
8.0403688824
 20
25.6232794982
 11
8.0403688824
 21
25.2
  0
LINE
  5
5E2
100
AcDbEntity
  8
ASSI
100
AcDbLine
 62
7
  6
CONTINUOUS
 10
8.0403688824
 20
-25.2
 11
8.0403688824
 21
-25.6232794982
  0
LINE
  5
5E3
100
AcDbEntity
  8
ASSI
100
AcDbLine
 62
253
  6
CONTINUOUS
 10
8.2400670059
 20
25.7916264167
 11
8.2400670059
 21
25.200274093
  0
LINE
  5
5E4
100
AcDbEntity
  8
ASSI
100
AcDbLine
 62
253
  6
CONTINUOUS
 10
8.2400670059
 20
-25.200274093
 11
8.2400670059
 21
-25.7916264167
  0
LINE
  5
5E5
100
AcDbEntity
  8
RACCORDO
100
AcDbLine
 62
7
  6
CONTINUOUS
 10
8.2999999996
 20
-26.8075
 11
8.2999999996
 21
-28.7575
  0
LINE
  5
5E6
100
AcDbEntity
  8
RACCORDO
100
AcDbLine
 62
7
  6
CONTINUOUS
 10
8.2999999996
 20
26.8075
 11
8.2999999996
 21
28.7575
  0
LINE
  5
5E7
100
AcDbEntity
  8
ASSI
100
AcDbLine
 62
253
  6
CONTINUOUS
 10
8.4397929129
 20
25.9897929133
 11
8.4397929129
 21
25.4
  0
LINE
  5
5E8
100
AcDbEntity
  8
ASSI
100
AcDbLine
 62
253
  6
CONTINUOUS
 10
8.4397929129
 20
-25.4
 11
8.4397929129
 21
-25.9897929133
  0
LINE
  5
5E9
100
AcDbEntity
  8
RACCORDO
100
AcDbLine
 62
253
  6
CONTINUOUS
 10
8.4999999996
 20
25.05
 11
8.4999999996
 21
24.7
  0
LINE
  5
5EA
100
AcDbEntity
  8
RACCORDO
100
AcDbLine
 62
253
  6
CONTINUOUS
 10
8.4999999996
 20
-24.7
 11
8.4999999996
 21
-25.05
  0
LINE
  5
5EB
100
AcDbEntity
  8
ASSI
100
AcDbLine
 62
7
  6
CONTINUOUS
 10
8.4999999996
 20
-25.05
 11
8.4999999996
 21
-25.2
  0
LINE
  5
5EC
100
AcDbEntity
  8
ASSI
100
AcDbLine
 62
7
  6
CONTINUOUS
 10
8.4999999996
 20
25.05
 11
8.4999999996
 21
25.2
  0
LINE
  5
5ED
100
AcDbEntity
  8
DRAFT
100
AcDbLine
 62
7
  6
CONTINUOUS
 10
9.9713523691
 20
26.35
 11
9.9723444365
 21
26.3732713192
  0
LINE
  5
5EE
100
AcDbEntity
  8
DRAFT
100
AcDbLine
 62
7
  6
CONTINUOUS
 10
12.5276555626
 20
26.3732713192
 11
12.6672468457
 21
26.8948219304
  0
LINE
  5
5EF
100
AcDbEntity
  8
DRAFT
100
AcDbLine
 62
7
  6
CONTINUOUS
 10
12.52864763
 20
26.35
 11
12.6741374996
 21
26.8929755853
  0
LINE
  5
5F0
100
AcDbEntity
  8
0
100
AcDbLine
 62
7
  6
CONTINUOUS
 10
-11.6432110004
 20
-36.921766
 11
-12.2315130004
 21
-37.906691
  0
LINE
  5
5F1
100
AcDbEntity
  8
RACCORDO
100
AcDbLine
 62
253
  6
CONTINUOUS
 10
25.5150594041
 20
12.8650289436
 11
25.5500304605
 21
12.9
  0
LINE
  5
5F2
100
AcDbEntity
  8
RACCORDO
100
AcDbLine
 62
253
  6
CONTINUOUS
 10
25.7150289431
 20
12.6650594045
 11
25.7499999996
 21
12.700030461
  0
LINE
  5
5F3
100
AcDbEntity
  8
0
100
AcDbLine
 62
7
  6
CONTINUOUS
 10
-26.3333334927
 20
-34.7234042883
 11
-27.5000000004
 21
-35.7872340381
  0
LINE
  5
5F4
100
AcDbEntity
  8
0
100
AcDbLine
 62
7
  6
CONTINUOUS
 10
-27.1666665082
 20
-35.7872340381
 11
-26.1250000004
 21
-34.8510638475
  0
LINE
  5
5F5
100
AcDbEntity
  8
0
100
AcDbLine
 62
7
  6
CONTINUOUS
 10
-33.6666666572
 20
-34.3404254913
 11
-33.5416666572
 21
-34.2553191185
  0
LINE
  5
5F6
100
AcDbEntity
  8
RACCORDO
100
AcDbLine
 62
253
  6
CONTINUOUS
 10
24.3596916751
 20
6.9387787509
 11
24.6596459837
 21
6.9387787518
  0
LINE
  5
5F7
100
AcDbEntity
  8
RACCORDO
100
AcDbLine
 62
253
  6
CONTINUOUS
 10
-24.359691676
 20
6.9387787509
 11
-24.6596459846
 21
6.9387787509
  0
LINE
  5
5F8
100
AcDbEntity
  8
RACCORDO
100
AcDbLine
 62
7
  6
CONTINUOUS
 10
24.1999999996
 20
7.0
 11
22.9999543081
 21
7.0
  0
LINE
  5
5F9
100
AcDbEntity
  8
RACCORDO
100
AcDbLine
 62
7
  6
CONTINUOUS
 10
-22.999954309
 20
7.0
 11
-24.2000000004
 21
7.0
  0
LINE
  5
5FA
100
AcDbEntity
  8
RACCORDO
100
AcDbLine
 62
7
  6
CONTINUOUS
 10
-25.5500304614
 20
8.25
 11
-24.9499695395
 21
8.25
  0
LINE
  5
5FB
100
AcDbEntity
  8
RACCORDO
100
AcDbLine
 62
7
  6
CONTINUOUS
 10
24.9499695386
 20
8.25
 11
25.5500304605
 21
8.25
  0
LINE
  5
5FC
100
AcDbEntity
  8
RACCORDO
100
AcDbLine
 62
253
  6
CONTINUOUS
 10
-25.515059405
 20
8.2849710564
 11
-24.9849405959
 21
8.2849710564
  0
LINE
  5
5FD
100
AcDbEntity
  8
RACCORDO
100
AcDbLine
 62
253
  6
CONTINUOUS
 10
24.984940595
 20
8.2849710564
 11
25.5150594041
 21
8.2849710564
  0
LINE
  5
5FE
100
AcDbEntity
  8
RACCORDO
100
AcDbLine
 62
253
  6
CONTINUOUS
 10
24.784971056
 20
8.4849405955
 11
25.7150289431
 21
8.4849405955
  0
LINE
  5
5FF
100
AcDbEntity
  8
RACCORDO
100
AcDbLine
 62
253
  6
CONTINUOUS
 10
-24.7849710569
 20
8.4849405955
 11
-25.715028944
 21
8.4849405955
  0
LINE
  5
600
100
AcDbEntity
  8
RACCORDO
100
AcDbLine
 62
253
  6
CONTINUOUS
 10
25.5150594041
 20
-12.8650289436
 11
25.5500304605
 21
-12.9
  0
LINE
  5
601
100
AcDbEntity
  8
RACCORDO
100
AcDbLine
 62
253
  6
CONTINUOUS
 10
25.7150289431
 20
-12.6650594045
 11
25.7499999996
 21
-12.700030461
  0
LINE
  5
602
100
AcDbEntity
  8
ASSI
100
AcDbLine
 62
7
  6
CONTINUOUS
 10
27.7728789996
 20
-36.377022
 11
27.9646759996
 21
-36.718741
  0
LINE
  5
603
100
AcDbEntity
  8
DRAFT
100
AcDbLine
 62
7
  6
CONTINUOUS
 10
12.6741374996
 20
-26.8929755853
 11
12.52864763
 21
-26.35
  0
LINE
  5
604
100
AcDbEntity
  8
DRAFT
100
AcDbLine
 62
7
  6
CONTINUOUS
 10
12.6672468457
 20
-26.8948219304
 11
12.5276555626
 21
-26.3732713192
  0
LINE
  5
605
100
AcDbEntity
  8
DRAFT
100
AcDbLine
 62
7
  6
CONTINUOUS
 10
9.02864763
 20
26.35
 11
9.0276555626
 21
26.3732713192
  0
LINE
  5
606
100
AcDbEntity
  8
DRAFT
100
AcDbLine
 62
7
  6
CONTINUOUS
 10
13.4713523691
 20
-26.35
 11
13.4723444365
 21
-26.3732713192
  0
LINE
  5
607
100
AcDbEntity
  8
DRAFT
100
AcDbLine
 62
7
  6
CONTINUOUS
 10
12.52864763
 20
26.35
 11
12.5276555626
 21
26.3732713192
  0
LINE
  5
608
100
AcDbEntity
  8
DRAFT
100
AcDbLine
 62
7
  6
CONTINUOUS
 10
12.5873019233
 20
-43.5
 11
12.570151725
 21
-43.0088825784
  0
LINE
  5
609
100
AcDbEntity
  8
SMUSSO
100
AcDbLine
 62
7
  6
CONTINUOUS
 10
10.6499999996
 20
28.7575
 11
10.6499999996
 21
26.8075
  0
LINE
  5
60A
100
AcDbEntity
  8
SMUSSO
100
AcDbLine
 62
7
  6
CONTINUOUS
 10
10.6499999996
 20
-26.8075
 11
10.6499999996
 21
-28.7575
  0
LINE
  5
60B
100
AcDbEntity
  8
SMUSSO
100
AcDbLine
 62
7
  6
CONTINUOUS
 10
11.8499999996
 20
-28.7575
 11
11.8499999996
 21
-26.8075
  0
LINE
  5
60C
100
AcDbEntity
  8
SMUSSO
100
AcDbLine
 62
7
  6
CONTINUOUS
 10
11.8499999996
 20
26.8075
 11
11.8499999996
 21
28.7575
  0
LINE
  5
60D
100
AcDbEntity
  8
DRAFT
100
AcDbLine
 62
7
  6
CONTINUOUS
 10
12.3499999996
 20
43.0325449351
 11
12.3499999996
 21
42.05
  0
LINE
  5
60E
100
AcDbEntity
  8
DRAFT
100
AcDbLine
 62
7
  6
CONTINUOUS
 10
12.3499999996
 20
-43.0325449351
 11
12.3499999996
 21
-42.05
  0
LINE
  5
60F
100
AcDbEntity
  8
DRAFT
100
AcDbLine
 62
7
  6
CONTINUOUS
 10
12.3674550645
 20
-44.05
 11
12.3674550645
 21
-43.05
  0
LINE
  5
610
100
AcDbEntity
  8
DRAFT
100
AcDbLine
 62
7
  6
CONTINUOUS
 10
12.3674550645
 20
43.05
 11
12.3674550645
 21
44.05
  0
LINE
  5
611
100
AcDbEntity
  8
DRAFT
100
AcDbLine
 62
7
  6
CONTINUOUS
 10
12.3901466489
 20
-44.3098533507
 11
12.3901466489
 21
-44.0726915844
  0
LINE
  5
612
100
AcDbEntity
  8
DRAFT
100
AcDbLine
 62
7
  6
CONTINUOUS
 10
12.3901466489
 20
44.0726915844
 11
12.3901466489
 21
44.3098533507
  0
LINE
  5
613
100
AcDbEntity
  8
RACCORDO
100
AcDbLine
 62
7
  6
CONTINUOUS
 10
12.4999999996
 20
-44.3098533507
 11
12.4999999996
 21
-43.5465394526
  0
LINE
  5
614
100
AcDbEntity
  8
RACCORDO
100
AcDbLine
 62
7
  6
CONTINUOUS
 10
12.4999999996
 20
43.5465394526
 11
12.4999999996
 21
44.3098533507
  0
LINE
  5
615
100
AcDbEntity
  8
DRAFT
100
AcDbLine
 62
7
  6
CONTINUOUS
 10
12.5523811538
 20
43.3238174026
 11
12.5523811538
 21
43.0
  0
LINE
  5
616
100
AcDbEntity
  8
DRAFT
100
AcDbLine
 62
7
  6
CONTINUOUS
 10
12.5523811538
 20
-44.3098533507
 11
12.5523811538
 21
-44.1
  0
LINE
  5
617
100
AcDbEntity
  8
DRAFT
100
AcDbLine
 62
7
  6
CONTINUOUS
 10
12.5523811538
 20
-43.0
 11
12.5523811538
 21
-43.3238174026
  0
LINE
  5
618
100
AcDbEntity
  8
DRAFT
100
AcDbLine
 62
7
  6
CONTINUOUS
 10
12.5523811538
 20
44.1
 11
12.5523811538
 21
44.3098533507
  0
LINE
  5
619
100
AcDbEntity
  8
RACCORDO
100
AcDbLine
 62
7
  6
CONTINUOUS
 10
12.5873019233
 20
-43.6894660298
 11
12.5873019233
 21
-43.5
  0
LINE
  5
61A
100
AcDbEntity
  8
RACCORDO
100
AcDbLine
 62
7
  6
CONTINUOUS
 10
12.5873019233
 20
43.5
 11
12.5873019233
 21
43.6894660298
  0
LINE
  5
61B
100
AcDbEntity
  8
RACCORDO
100
AcDbLine
 62
253
  6
CONTINUOUS
 10
13.9999999996
 20
-25.05
 11
13.9999999996
 21
-24.7
  0
LINE
  5
61C
100
AcDbEntity
  8
ASSI
100
AcDbLine
 62
7
  6
CONTINUOUS
 10
13.9999999996
 20
-25.05
 11
13.9999999996
 21
-25.2
  0
LINE
  5
61D
100
AcDbEntity
  8
RACCORDO
100
AcDbLine
 62
253
  6
CONTINUOUS
 10
13.9999999996
 20
24.7
 11
13.9999999996
 21
25.05
  0
LINE
  5
61E
100
AcDbEntity
  8
ASSI
100
AcDbLine
 62
7
  6
CONTINUOUS
 10
13.9999999996
 20
25.05
 11
13.9999999996
 21
25.2
  0
LINE
  5
61F
100
AcDbEntity
  8
ASSI
100
AcDbLine
 62
253
  6
CONTINUOUS
 10
14.0602070862
 20
-25.9897929133
 11
14.0602070862
 21
-25.4
  0
LINE
  5
620
100
AcDbEntity
  8
ASSI
100
AcDbLine
 62
253
  6
CONTINUOUS
 10
14.0602070862
 20
25.4
 11
14.0602070862
 21
25.9897929133
  0
LINE
  5
621
100
AcDbEntity
  8
DRAFT
100
AcDbLine
 62
7
  6
CONTINUOUS
 10
12.570151725
 20
43.0088825784
 11
12.5873019233
 21
43.5
  0
LINE
  5
622
100
AcDbEntity
  8
DRAFT
100
AcDbLine
 62
7
  6
CONTINUOUS
 10
9.02864763
 20
-26.35
 11
9.0276555626
 21
-26.3732713192
  0
LINE
  5
623
100
AcDbEntity
  8
DRAFT
100
AcDbLine
 62
7
  6
CONTINUOUS
 10
13.4713523691
 20
26.35
 11
13.4723444365
 21
26.3732713192
  0
LINE
  5
624
100
AcDbEntity
  8
DRAFT
100
AcDbLine
 62
7
  6
CONTINUOUS
 10
12.52864763
 20
-26.35
 11
12.5276555626
 21
-26.3732713192
  0
LINE
  5
625
100
AcDbEntity
  8
0
100
AcDbLine
 62
7
  6
CONTINUOUS
 10
-12.0915680004
 20
-38.147119
 11
-11.3177210004
 21
-36.921766
  0
LINE
  5
626
100
AcDbEntity
  8
RACCORDO
100
AcDbLine
 62
253
  6
CONTINUOUS
 10
24.7497544186
 20
8.4497239581
 11
24.784971056
 21
8.4849405955
  0
LINE
  5
627
100
AcDbEntity
  8
RACCORDO
100
AcDbLine
 62
253
  6
CONTINUOUS
 10
24.9499695386
 20
8.25
 11
24.984940595
 21
8.2849710564
  0
LINE
  5
628
100
AcDbEntity
  8
ASSI
100
AcDbLine
 62
7
  6
CONTINUOUS
 10
-8.4397929138
 20
-25.9897929133
 11
-8.8000000004
 21
-26.35
  0
LINE
  5
629
100
AcDbEntity
  8
ASSI
100
AcDbLine
 62
7
  6
CONTINUOUS
 10
-8.0403688833
 20
-25.6232794982
 11
-8.7903607044
 21
-26.3732713192
  0
LINE
  5
62A
100
AcDbEntity
  8
0
100
AcDbLine
 62
7
  6
CONTINUOUS
 10
-30.9583332543
 20
-34.3404254913
 11
-30.8333332543
 21
-34.2553191185
  0
LINE
  5
62B
100
AcDbEntity
  8
0
100
AcDbLine
 62
7
  6
CONTINUOUS
 10
-30.8750000004
 20
-34.7659574747
 11
-31.1250000004
 21
-34.9361702204
  0
LINE
  5
62C
100
AcDbEntity
  8
0
100
AcDbLine
 62
7
  6
CONTINUOUS
 10
-30.9583332543
 20
-35.0638297796
 11
-30.8333332543
 21
-34.9787234068
  0
LINE
  5
62D
100
AcDbEntity
  8
0
100
AcDbLine
 62
7
  6
CONTINUOUS
 10
-30.1666667466
 20
-35.6595744789
 11
-30.2916667466
 21
-35.7446808517
  0
LINE
  5
62E
100
AcDbEntity
  8
0
100
AcDbLine
 62
7
  6
CONTINUOUS
 10
-27.1666665082
 20
-34.3404254913
 11
-27.0416665082
 21
-34.2553191185
  0
LINE
  5
62F
100
AcDbEntity
  8
0
100
AcDbLine
 62
7
  6
CONTINUOUS
 10
-30.8750000004
 20
-34.0425531864
 11
-31.0833332543
 21
-34.1702127457
  0
LINE
  5
630
100
AcDbEntity
  8
DRAFT
100
AcDbLine
 62
7
  6
CONTINUOUS
 10
43.008882578
 20
12.5701517255
 11
43.4999999996
 21
12.5873019237
  0
LINE
  5
631
100
AcDbEntity
  8
DRAFT
100
AcDbLine
 62
7
  6
CONTINUOUS
 10
-43.0325449355
 20
12.35
 11
-42.0500000004
 21
12.35
  0
LINE
  5
632
100
AcDbEntity
  8
DRAFT
100
AcDbLine
 62
7
  6
CONTINUOUS
 10
43.0325449346
 20
12.35
 11
42.0499999996
 21
12.35
  0
LINE
  5
633
100
AcDbEntity
  8
DRAFT
100
AcDbLine
 62
7
  6
CONTINUOUS
 10
44.0499999996
 20
12.3674550649
 11
43.0499999996
 21
12.3674550649
  0
LINE
  5
634
100
AcDbEntity
  8
DRAFT
100
AcDbLine
 62
7
  6
CONTINUOUS
 10
-43.0500000004
 20
12.3674550649
 11
-44.0500000004
 21
12.3674550649
  0
LINE
  5
635
100
AcDbEntity
  8
DRAFT
100
AcDbLine
 62
7
  6
CONTINUOUS
 10
44.3098533502
 20
12.3901466493
 11
44.072691584
 21
12.3901466493
  0
LINE
  5
636
100
AcDbEntity
  8
DRAFT
100
AcDbLine
 62
7
  6
CONTINUOUS
 10
-44.0726915849
 20
12.3901466493
 11
-44.3098533511
 21
12.3901466493
  0
LINE
  5
637
100
AcDbEntity
  8
RACCORDO
100
AcDbLine
 62
7
  6
CONTINUOUS
 10
-44.3098533511
 20
12.5
 11
-43.5465394531
 21
12.5
  0
LINE
  5
638
100
AcDbEntity
  8
RACCORDO
100
AcDbLine
 62
7
  6
CONTINUOUS
 10
43.5465394522
 20
12.5
 11
44.3098533502
 21
12.5
  0
LINE
  5
639
100
AcDbEntity
  8
DRAFT
100
AcDbLine
 62
7
  6
CONTINUOUS
 10
-44.3098533511
 20
12.5523811542
 11
-44.1000000004
 21
12.5523811542
  0
LINE
  5
63A
100
AcDbEntity
  8
DRAFT
100
AcDbLine
 62
7
  6
CONTINUOUS
 10
43.3238174022
 20
12.5523811542
 11
42.9999999996
 21
12.5523811542
  0
LINE
  5
63B
100
AcDbEntity
  8
DRAFT
100
AcDbLine
 62
7
  6
CONTINUOUS
 10
-43.0000000004
 20
12.5523811542
 11
-43.3238174031
 21
12.5523811542
  0
LINE
  5
63C
100
AcDbEntity
  8
DRAFT
100
AcDbLine
 62
7
  6
CONTINUOUS
 10
44.0999999996
 20
12.5523811542
 11
44.3098533502
 21
12.5523811542
  0
LINE
  5
63D
100
AcDbEntity
  8
RACCORDO
100
AcDbLine
 62
7
  6
CONTINUOUS
 10
-43.6894660303
 20
12.5873019237
 11
-43.5000000004
 21
12.5873019237
  0
LINE
  5
63E
100
AcDbEntity
  8
RACCORDO
100
AcDbLine
 62
7
  6
CONTINUOUS
 10
43.4999999996
 20
12.5873019237
 11
43.6894660294
 21
12.5873019237
  0
LINE
  5
63F
100
AcDbEntity
  8
RACCORDO
100
AcDbLine
 62
253
  6
CONTINUOUS
 10
24.784971056
 20
12.6650594045
 11
25.7150289431
 21
12.6650594045
  0
LINE
  5
640
100
AcDbEntity
  8
RACCORDO
100
AcDbLine
 62
253
  6
CONTINUOUS
 10
-24.7849710569
 20
12.6650594045
 11
-25.715028944
 21
12.6650594045
  0
LINE
  5
641
100
AcDbEntity
  8
RACCORDO
100
AcDbLine
 62
253
  6
CONTINUOUS
 10
25.5150594041
 20
12.8650289436
 11
24.984940595
 21
12.8650289436
  0
LINE
  5
642
100
AcDbEntity
  8
RACCORDO
100
AcDbLine
 62
253
  6
CONTINUOUS
 10
-24.9849405959
 20
12.8650289436
 11
-25.515059405
 21
12.8650289436
  0
LINE
  5
643
100
AcDbEntity
  8
RACCORDO
100
AcDbLine
 62
7
  6
CONTINUOUS
 10
25.5500304605
 20
12.9
 11
24.9499695386
 21
12.9
  0
LINE
  5
644
100
AcDbEntity
  8
RACCORDO
100
AcDbLine
 62
7
  6
CONTINUOUS
 10
-24.9499695395
 20
12.9
 11
-25.5500304614
 21
12.9
  0
LINE
  5
645
100
AcDbEntity
  8
DRAFT
100
AcDbLine
 62
7
  6
CONTINUOUS
 10
-24.3500000004
 20
13.0
 11
-24.2000000004
 21
13.0
  0
LINE
  5
646
100
AcDbEntity
  8
DRAFT
100
AcDbLine
 62
7
  6
CONTINUOUS
 10
24.1999999996
 20
13.0
 11
24.3499999996
 21
13.0
  0
LINE
  5
647
100
AcDbEntity
  8
RACCORDO
100
AcDbLine
 62
7
  6
CONTINUOUS
 10
24.3499999996
 20
13.0
 11
31.9999999996
 21
13.0
  0
LINE
  5
648
100
AcDbEntity
  8
RACCORDO
100
AcDbLine
 62
7
  6
CONTINUOUS
 10
-24.3500000004
 20
13.0
 11
-32.0000000004
 21
13.0
  0
LINE
  5
649
100
AcDbEntity
  8
DRAFT
100
AcDbLine
 62
7
  6
CONTINUOUS
 10
-22.7155097246
 20
13.75
 11
-25.2089805979
 21
13.75
  0
LINE
  5
64A
100
AcDbEntity
  8
DRAFT
100
AcDbLine
 62
7
  6
CONTINUOUS
 10
22.7155097237
 20
13.75
 11
25.208980597
 21
13.75
  0
LINE
  5
64B
100
AcDbEntity
  8
RACCORDO
100
AcDbLine
 62
7
  6
CONTINUOUS
 10
31.9999999996
 20
14.0
 11
24.3625994654
 21
14.0
  0
LINE
  5
64C
100
AcDbEntity
  8
DRAFT
100
AcDbLine
 62
7
  6
CONTINUOUS
 10
24.3625994654
 20
14.0
 11
23.8881197842
 21
14.0
  0
LINE
  5
64D
100
AcDbEntity
  8
RACCORDO
100
AcDbLine
 62
7
  6
CONTINUOUS
 10
23.8881197842
 20
14.0
 11
23.0017912045
 21
14.0
  0
LINE
  5
64E
100
AcDbEntity
  8
RACCORDO
100
AcDbLine
 62
7
  6
CONTINUOUS
 10
-23.0017912054
 20
14.0
 11
-23.8881197851
 21
14.0
  0
LINE
  5
64F
100
AcDbEntity
  8
DRAFT
100
AcDbLine
 62
7
  6
CONTINUOUS
 10
-23.8881197851
 20
14.0
 11
-24.3625994663
 21
14.0
  0
LINE
  5
650
100
AcDbEntity
  8
RACCORDO
100
AcDbLine
 62
7
  6
CONTINUOUS
 10
-24.3625994663
 20
14.0
 11
-32.0000000004
 21
14.0
  0
LINE
  5
651
100
AcDbEntity
  8
DRAFT
100
AcDbLine
 62
7
  6
CONTINUOUS
 10
-43.5000000004
 20
12.5873019237
 11
-43.0088825789
 21
12.5701517255
  0
LINE
  5
652
100
AcDbEntity
  8
RACCORDO
100
AcDbLine
 62
253
  6
CONTINUOUS
 10
24.7497544186
 20
-8.4497239581
 11
24.784971056
 21
-8.4849405955
  0
LINE
  5
653
100
AcDbEntity
  8
RACCORDO
100
AcDbLine
 62
253
  6
CONTINUOUS
 10
24.9499695386
 20
-8.25
 11
24.984940595
 21
-8.2849710564
  0
LINE
  5
654
100
AcDbEntity
  8
ASSI
100
AcDbLine
 62
7
  6
CONTINUOUS
 10
-8.8000000004
 20
26.35
 11
-8.4397929138
 21
25.9897929133
  0
LINE
  5
655
100
AcDbEntity
  8
ASSI
100
AcDbLine
 62
7
  6
CONTINUOUS
 10
-8.7903607044
 20
26.3732713192
 11
-8.0403688833
 21
25.6232794982
  0
LINE
  5
656
100
AcDbEntity
  8
SMUSSO
100
AcDbLine
 62
7
  6
CONTINUOUS
 10
14.1999999996
 20
28.7575
 11
14.1999999996
 21
26.8075
  0
LINE
  5
657
100
AcDbEntity
  8
SMUSSO
100
AcDbLine
 62
7
  6
CONTINUOUS
 10
14.1999999996
 20
-26.8075
 11
14.1999999996
 21
-28.7575
  0
LINE
  5
658
100
AcDbEntity
  8
ASSI
100
AcDbLine
 62
253
  6
CONTINUOUS
 10
14.2599329932
 20
-25.7916264167
 11
14.2599329932
 21
-25.200274093
  0
LINE
  5
659
100
AcDbEntity
  8
ASSI
100
AcDbLine
 62
253
  6
CONTINUOUS
 10
14.2599329932
 20
25.200274093
 11
14.2599329932
 21
25.7916264167
  0
LINE
  5
65A
100
AcDbEntity
  8
ASSI
100
AcDbLine
 62
7
  6
CONTINUOUS
 10
14.4596311167
 20
-25.6232794982
 11
14.4596311167
 21
-25.2
  0
LINE
  5
65B
100
AcDbEntity
  8
ASSI
100
AcDbLine
 62
7
  6
CONTINUOUS
 10
14.4596311167
 20
25.2
 11
14.4596311167
 21
25.6232794982
  0
LINE
  5
65C
100
AcDbEntity
  8
RACCORDO
100
AcDbLine
 62
7
  6
CONTINUOUS
 10
14.4999999996
 20
24.2928932188
 11
14.4999999996
 21
23.0000456984
  0
LINE
  5
65D
100
AcDbEntity
  8
RACCORDO
100
AcDbLine
 62
7
  6
CONTINUOUS
 10
14.4999999996
 20
-23.0000456984
 11
14.4999999996
 21
-24.2928932188
  0
LINE
  5
65E
100
AcDbEntity
  8
RACCORDO
100
AcDbLine
 62
7
  6
CONTINUOUS
 10
14.4999999996
 20
-24.656344058
 11
14.4999999996
 21
-25.2
  0
LINE
  5
65F
100
AcDbEntity
  8
RACCORDO
100
AcDbLine
 62
7
  6
CONTINUOUS
 10
14.4999999996
 20
24.656344058
 11
14.4999999996
 21
25.2
  0
LINE
  5
660
100
AcDbEntity
  8
0
100
AcDbLine
 62
7
  6
CONTINUOUS
 10
15.3017902145
 20
31.7533762561
 11
15.3017902145
 21
28.2467191156
  0
LINE
  5
661
100
AcDbEntity
  8
0
100
AcDbLine
 62
7
  6
CONTINUOUS
 10
15.5178759359
 20
28.4333850247
 11
15.5178759359
 21
29.9754707765
  0
LINE
  5
662
100
AcDbEntity
  8
0
100
AcDbLine
 62
7
  6
CONTINUOUS
 10
15.5178759359
 20
30.1621366856
 11
15.5178759359
 21
31.566710347
  0
LINE
  5
663
100
AcDbEntity
  8
RACCORDO
100
AcDbLine
 62
7
  6
CONTINUOUS
 10
17.4126980758
 20
-43.6894660298
 11
17.4126980758
 21
-43.5
  0
LINE
  5
664
100
AcDbEntity
  8
RACCORDO
100
AcDbLine
 62
7
  6
CONTINUOUS
 10
17.4126980758
 20
43.5
 11
17.4126980758
 21
43.6894660298
  0
LINE
  5
665
100
AcDbEntity
  8
DRAFT
100
AcDbLine
 62
7
  6
CONTINUOUS
 10
17.4476188453
 20
43.3238174026
 11
17.4476188453
 21
43.0
  0
LINE
  5
666
100
AcDbEntity
  8
DRAFT
100
AcDbLine
 62
7
  6
CONTINUOUS
 10
17.4476188453
 20
-44.3098533507
 11
17.4476188453
 21
-44.1
  0
LINE
  5
667
100
AcDbEntity
  8
DRAFT
100
AcDbLine
 62
7
  6
CONTINUOUS
 10
17.4476188453
 20
-43.0
 11
17.4476188453
 21
-43.3238174026
  0
LINE
  5
668
100
AcDbEntity
  8
DRAFT
100
AcDbLine
 62
7
  6
CONTINUOUS
 10
17.4476188453
 20
44.1
 11
17.4476188453
 21
44.3098533507
  0
LINE
  5
669
100
AcDbEntity
  8
RACCORDO
100
AcDbLine
 62
7
  6
CONTINUOUS
 10
17.4999999996
 20
-44.3098533507
 11
17.4999999996
 21
-43.5465394526
  0
LINE
  5
66A
100
AcDbEntity
  8
RACCORDO
100
AcDbLine
 62
7
  6
CONTINUOUS
 10
17.4999999996
 20
43.5465394526
 11
17.4999999996
 21
44.3098533507
  0
LINE
  5
66B
100
AcDbEntity
  8
0
100
AcDbLine
 62
7
  6
CONTINUOUS
 10
17.5315352532
 20
29.9754707765
 11
17.5315352532
 21
30.1621366856
  0
LINE
  5
66C
100
AcDbEntity
  8
DRAFT
100
AcDbLine
 62
7
  6
CONTINUOUS
 10
17.6098533502
 20
44.3098533507
 11
17.6098533502
 21
44.0726915844
  0
LINE
  5
66D
100
AcDbEntity
  8
DRAFT
100
AcDbLine
 62
7
  6
CONTINUOUS
 10
17.6098533502
 20
-44.0726915844
 11
17.6098533502
 21
-44.3098533507
  0
LINE
  5
66E
100
AcDbEntity
  8
DRAFT
100
AcDbLine
 62
7
  6
CONTINUOUS
 10
17.6325449346
 20
44.05
 11
17.6325449346
 21
43.05
  0
LINE
  5
66F
100
AcDbEntity
  8
DRAFT
100
AcDbLine
 62
7
  6
CONTINUOUS
 10
17.6325449346
 20
-43.05
 11
17.6325449346
 21
-44.05
  0
LINE
  5
670
100
AcDbEntity
  8
DRAFT
100
AcDbLine
 62
7
  6
CONTINUOUS
 10
17.6499999996
 20
43.0325449351
 11
17.6499999996
 21
42.05
  0
LINE
  5
671
100
AcDbEntity
  8
DRAFT
100
AcDbLine
 62
7
  6
CONTINUOUS
 10
17.6499999996
 20
-43.0325449351
 11
17.6499999996
 21
-42.05
  0
LINE
  5
672
100
AcDbEntity
  8
0
100
AcDbLine
 62
7
  6
CONTINUOUS
 10
17.6592297579
 20
31.566710347
 11
17.6592297579
 21
31.7533762561
  0
LINE
  5
673
100
AcDbEntity
  8
0
100
AcDbLine
 62
7
  6
CONTINUOUS
 10
17.6837737223
 20
28.2467191156
 11
17.6837737223
 21
28.4333850247
  0
LINE
  5
674
100
AcDbEntity
  8
DRAFT
100
AcDbLine
 62
7
  6
CONTINUOUS
 10
9.9713523691
 20
-26.35
 11
9.8258624995
 21
-26.8929755853
  0
LINE
  5
675
100
AcDbEntity
  8
DRAFT
100
AcDbLine
 62
7
  6
CONTINUOUS
 10
9.9723444365
 20
-26.3732713192
 11
9.8327531534
 21
-26.8948219304
  0
LINE
  5
676
100
AcDbEntity
  8
ASSI
100
AcDbLine
 62
7
  6
CONTINUOUS
 10
12.0499999996
 20
-26.1
 11
12.0437644684
 21
-26.1232713192
  0
LINE
  5
677
100
AcDbEntity
  8
ASSI
100
AcDbLine
 62
7
  6
CONTINUOUS
 10
8.7999999996
 20
-26.35
 11
8.7903607035
 21
-26.3732713192
  0
LINE
  5
678
100
AcDbEntity
  8
ASSI
100
AcDbLine
 62
7
  6
CONTINUOUS
 10
-8.2400670068
 20
-25.7916264167
 11
-8.0403688833
 21
-25.6232794982
  0
LINE
  5
679
100
AcDbEntity
  8
0
100
AcDbLine
 62
7
  6
CONTINUOUS
 10
-30.2500000004
 20
-35.9574468099
 11
-30.0416667466
 21
-35.8297872394
  0
LINE
  5
67A
100
AcDbEntity
  8
ASSI
100
AcDbLine
 62
7
  6
CONTINUOUS
 10
-12.0500000004
 20
-26.1
 11
-12.4830127023
 21
-26.35
  0
LINE
  5
67B
100
AcDbEntity
  8
ASSI
100
AcDbLine
 62
7
  6
CONTINUOUS
 10
-12.0437644692
 20
-26.1232713192
 11
-12.4767771711
 21
-26.3732713192
  0
LINE
  5
67C
100
AcDbEntity
  8
0
100
AcDbLine
 62
7
  6
CONTINUOUS
 10
-33.5833333437
 20
-34.0425531864
 11
-33.7500000004
 21
-34.1276595592
  0
LINE
  5
67D
100
AcDbEntity
  8
0
100
AcDbLine
 62
7
  6
CONTINUOUS
 10
-27.0833334927
 20
-34.0425531864
 11
-27.2500000004
 21
-34.1276595592
  0
LINE
  5
67E
100
AcDbEntity
  8
SMUSSO
100
AcDbLine
 62
7
  6
CONTINUOUS
 10
23.5309401072
 20
15.2814191169
 11
23.2999999996
 21
15.2744370909
  0
LINE
  5
67F
100
AcDbEntity
  8
DRAFT
100
AcDbLine
 62
7
  6
CONTINUOUS
 10
-24.3625994663
 20
15.0
 11
-23.8881197851
 21
15.0
  0
LINE
  5
680
100
AcDbEntity
  8
RACCORDO
100
AcDbLine
 62
7
  6
CONTINUOUS
 10
25.2499999996
 20
15.0
 11
24.3625994654
 21
15.0
  0
LINE
  5
681
100
AcDbEntity
  8
SMUSSO
100
AcDbLine
 62
7
  6
CONTINUOUS
 10
-23.8881197851
 20
15.0
 11
-23.2000000004
 21
15.0
  0
LINE
  5
682
100
AcDbEntity
  8
SMUSSO
100
AcDbLine
 62
7
  6
CONTINUOUS
 10
23.1999999996
 20
15.0
 11
23.8881197842
 21
15.0
  0
LINE
  5
683
100
AcDbEntity
  8
DRAFT
100
AcDbLine
 62
7
  6
CONTINUOUS
 10
23.8881197842
 20
15.0
 11
24.3625994654
 21
15.0
  0
LINE
  5
684
100
AcDbEntity
  8
RACCORDO
100
AcDbLine
 62
7
  6
CONTINUOUS
 10
-24.3625994663
 20
15.0
 11
-25.2500000004
 21
15.0
  0
LINE
  5
685
100
AcDbEntity
  8
RACCORDO
100
AcDbLine
 62
7
  6
CONTINUOUS
 10
24.7499999996
 20
15.2482544935
 11
23.6999999996
 21
15.2482544935
  0
LINE
  5
686
100
AcDbEntity
  8
RACCORDO
100
AcDbLine
 62
7
  6
CONTINUOUS
 10
-23.7000000004
 20
15.2482544935
 11
-24.7500000004
 21
15.2482544935
  0
LINE
  5
687
100
AcDbEntity
  8
DRAFT
100
AcDbLine
 62
7
  6
CONTINUOUS
 10
-23.7000000004
 20
15.2692005714
 11
-23.6000000004
 21
15.2692005714
  0
LINE
  5
688
100
AcDbEntity
  8
DRAFT
100
AcDbLine
 62
7
  6
CONTINUOUS
 10
23.5999999996
 20
15.2692005714
 11
23.6999999996
 21
15.2692005714
  0
LINE
  5
689
100
AcDbEntity
  8
RACCORDO
100
AcDbLine
 62
7
  6
CONTINUOUS
 10
24.0755019774
 20
15.2814191169
 11
23.5309401072
 21
15.2814191169
  0
LINE
  5
68A
100
AcDbEntity
  8
RACCORDO
100
AcDbLine
 62
7
  6
CONTINUOUS
 10
-23.5309401081
 20
15.2814191169
 11
-24.0755019783
 21
15.2814191169
  0
LINE
  5
68B
100
AcDbEntity
  8
RACCORDO
100
AcDbLine
 62
7
  6
CONTINUOUS
 10
-43.6894660303
 20
17.4126980763
 11
-43.5000000004
 21
17.4126980763
  0
LINE
  5
68C
100
AcDbEntity
  8
RACCORDO
100
AcDbLine
 62
7
  6
CONTINUOUS
 10
43.4999999996
 20
17.4126980763
 11
43.6894660294
 21
17.4126980763
  0
LINE
  5
68D
100
AcDbEntity
  8
DRAFT
100
AcDbLine
 62
7
  6
CONTINUOUS
 10
-44.3098533511
 20
17.4476188458
 11
-44.1000000004
 21
17.4476188458
  0
LINE
  5
68E
100
AcDbEntity
  8
DRAFT
100
AcDbLine
 62
7
  6
CONTINUOUS
 10
43.3238174022
 20
17.4476188458
 11
42.9999999996
 21
17.4476188458
  0
LINE
  5
68F
100
AcDbEntity
  8
DRAFT
100
AcDbLine
 62
7
  6
CONTINUOUS
 10
-43.0000000004
 20
17.4476188458
 11
-43.3238174031
 21
17.4476188458
  0
LINE
  5
690
100
AcDbEntity
  8
DRAFT
100
AcDbLine
 62
7
  6
CONTINUOUS
 10
44.0999999996
 20
17.4476188458
 11
44.3098533502
 21
17.4476188458
  0
LINE
  5
691
100
AcDbEntity
  8
RACCORDO
100
AcDbLine
 62
7
  6
CONTINUOUS
 10
-44.3098533511
 20
17.5
 11
-43.5465394531
 21
17.5
  0
LINE
  5
692
100
AcDbEntity
  8
RACCORDO
100
AcDbLine
 62
7
  6
CONTINUOUS
 10
43.5465394522
 20
17.5
 11
44.3098533502
 21
17.5
  0
LINE
  5
693
100
AcDbEntity
  8
DRAFT
100
AcDbLine
 62
7
  6
CONTINUOUS
 10
-44.3098533511
 20
17.6098533507
 11
-44.0726915849
 21
17.6098533507
  0
LINE
  5
694
100
AcDbEntity
  8
DRAFT
100
AcDbLine
 62
7
  6
CONTINUOUS
 10
44.072691584
 20
17.6098533507
 11
44.3098533502
 21
17.6098533507
  0
LINE
  5
695
100
AcDbEntity
  8
DRAFT
100
AcDbLine
 62
7
  6
CONTINUOUS
 10
-44.0500000004
 20
17.6325449351
 11
-43.0500000004
 21
17.6325449351
  0
LINE
  5
696
100
AcDbEntity
  8
DRAFT
100
AcDbLine
 62
7
  6
CONTINUOUS
 10
43.0499999996
 20
17.6325449351
 11
44.0499999996
 21
17.6325449351
  0
LINE
  5
697
100
AcDbEntity
  8
DRAFT
100
AcDbLine
 62
7
  6
CONTINUOUS
 10
-43.0325449355
 20
17.65
 11
-42.0500000004
 21
17.65
  0
LINE
  5
698
100
AcDbEntity
  8
DRAFT
100
AcDbLine
 62
7
  6
CONTINUOUS
 10
43.0325449346
 20
17.65
 11
42.0499999996
 21
17.65
  0
LINE
  5
699
100
AcDbEntity
  8
SMUSSO
100
AcDbLine
 62
7
  6
CONTINUOUS
 10
-23.3000000004
 20
15.2744370909
 11
-23.5309401081
 21
15.2814191169
  0
LINE
  5
69A
100
AcDbEntity
  8
ASSI
100
AcDbLine
 62
7
  6
CONTINUOUS
 10
-12.4830127023
 20
26.35
 11
-12.0500000004
 21
26.1
  0
LINE
  5
69B
100
AcDbEntity
  8
ASSI
100
AcDbLine
 62
7
  6
CONTINUOUS
 10
-12.4767771711
 20
26.3732713192
 11
-12.0437644692
 21
26.1232713192
  0
LINE
  5
69C
100
AcDbEntity
  8
ASSI
100
AcDbLine
 62
7
  6
CONTINUOUS
 10
-8.2400670068
 20
25.7916264167
 11
-8.0403688833
 21
25.6232794982
  0
LINE
  5
69D
100
AcDbEntity
  8
ASSI
100
AcDbLine
 62
7
  6
CONTINUOUS
 10
8.7999999996
 20
26.35
 11
8.7903607035
 21
26.3732713192
  0
LINE
  5
69E
100
AcDbEntity
  8
DRAFT
100
AcDbLine
 62
7
  6
CONTINUOUS
 10
9.8258624995
 20
26.8929755853
 11
9.9713523691
 21
26.35
  0
LINE
  5
69F
100
AcDbEntity
  8
ASSI
100
AcDbLine
 62
7
  6
CONTINUOUS
 10
12.0499999996
 20
26.1
 11
12.0437644684
 21
26.1232713192
  0
LINE
  5
6A0
100
AcDbEntity
  8
DRAFT
100
AcDbLine
 62
7
  6
CONTINUOUS
 10
9.9723444365
 20
26.3732713192
 11
9.8327531534
 21
26.8948219304
  0
LINE
  5
6A1
100
AcDbEntity
  8
DRAFT
100
AcDbLine
 62
7
  6
CONTINUOUS
 10
17.4298482741
 20
43.0088825784
 11
17.4126980758
 21
43.5
  0
LINE
  5
6A2
100
AcDbEntity
  8
0
100
AcDbLine
 62
7
  6
CONTINUOUS
 10
18.727007516
 20
31.7533762561
 11
18.727007516
 21
28.2467191156
  0
LINE
  5
6A3
100
AcDbEntity
  8
0
100
AcDbLine
 62
7
  6
CONTINUOUS
 10
18.9431261823
 20
28.2467191156
 11
18.9431261823
 21
31.7533762561
  0
LINE
  5
6A4
100
AcDbEntity
  8
0
100
AcDbLine
 62
7
  6
CONTINUOUS
 10
19.9667906944
 20
31.7533762561
 11
19.9667906944
 21
28.2467191156
  0
LINE
  5
6A5
100
AcDbEntity
  8
0
100
AcDbLine
 62
7
  6
CONTINUOUS
 10
20.1828764158
 20
28.2467191156
 11
20.1828764158
 21
29.4843938192
  0
LINE
  5
6A6
100
AcDbEntity
  8
0
100
AcDbLine
 62
7
  6
CONTINUOUS
 10
20.1828764158
 20
29.7347752009
 11
20.1828764158
 21
31.7533762561
  0
LINE
  5
6A7
100
AcDbEntity
  8
RACCORDO
100
AcDbLine
 62
7
  6
CONTINUOUS
 10
20.7499999996
 20
45.45
 11
20.7499999996
 21
45.35
  0
LINE
  5
6A8
100
AcDbEntity
  8
RACCORDO
100
AcDbLine
 62
7
  6
CONTINUOUS
 10
20.7499999996
 20
-45.45
 11
20.7499999996
 21
-45.35
  0
LINE
  5
6A9
100
AcDbEntity
  8
DRAFT
100
AcDbLine
 62
7
  6
CONTINUOUS
 10
21.9999999996
 20
45.3447634805
 11
21.9999999996
 21
45.3273084156
  0
LINE
  5
6AA
100
AcDbEntity
  8
DRAFT
100
AcDbLine
 62
7
  6
CONTINUOUS
 10
21.9999999996
 20
-45.3447634805
 11
21.9999999996
 21
-45.3273084156
  0
LINE
  5
6AB
100
AcDbEntity
  8
RACCORDO
100
AcDbLine
 62
7
  6
CONTINUOUS
 10
22.3999999996
 20
24.65
 11
22.3999999996
 21
22.9999543085
  0
LINE
  5
6AC
100
AcDbEntity
  8
RACCORDO
100
AcDbLine
 62
7
  6
CONTINUOUS
 10
22.3999999996
 20
-24.65
 11
22.3999999996
 21
-22.9999543085
  0
LINE
  5
6AD
100
AcDbEntity
  8
RACCORDO
100
AcDbLine
 62
253
  6
CONTINUOUS
 10
22.4088798485
 20
24.6588798489
 11
22.4088798485
 21
23.0088341575
  0
LINE
  5
6AE
100
AcDbEntity
  8
RACCORDO
100
AcDbLine
 62
253
  6
CONTINUOUS
 10
22.4088798485
 20
-23.0088341575
 11
22.4088798485
 21
-24.6588798489
  0
LINE
  5
6AF
100
AcDbEntity
  8
RACCORDO
100
AcDbLine
 62
7
  6
CONTINUOUS
 10
22.6412724671
 20
-22.291318159
 11
22.6412724671
 21
22.291318159
  0
LINE
  5
6B0
100
AcDbEntity
  8
RACCORDO
100
AcDbLine
 62
7
  6
CONTINUOUS
 10
22.6762038892
 20
22.3266150292
 11
22.6762038892
 21
-22.3266150292
  0
LINE
  5
6B1
100
AcDbEntity
  8
RACCORDO
100
AcDbLine
 62
7
  6
CONTINUOUS
 10
22.6999999996
 20
-22.7
 11
22.6999999996
 21
-22.3
  0
LINE
  5
6B2
100
AcDbEntity
  8
RACCORDO
100
AcDbLine
 62
7
  6
CONTINUOUS
 10
22.6999999996
 20
-6.7000456915
 11
22.6999999996
 21
6.7000456915
  0
LINE
  5
6B3
100
AcDbEntity
  8
RACCORDO
100
AcDbLine
 62
7
  6
CONTINUOUS
 10
22.6999999996
 20
22.3
 11
22.6999999996
 21
22.7
  0
LINE
  5
6B4
100
AcDbEntity
  8
RACCORDO
100
AcDbLine
 62
7
  6
CONTINUOUS
 10
22.701745506
 20
-20.7
 11
22.701745506
 21
-14.3
  0
LINE
  5
6B5
100
AcDbEntity
  8
RACCORDO
100
AcDbLine
 62
7
  6
CONTINUOUS
 10
22.701745506
 20
14.3
 11
22.701745506
 21
20.7
  0
LINE
  5
6B6
100
AcDbEntity
  8
DRAFT
100
AcDbLine
 62
7
  6
CONTINUOUS
 10
22.7155097237
 20
-21.25
 11
22.7155097237
 21
-20.7888383608
  0
LINE
  5
6B7
100
AcDbEntity
  8
DRAFT
100
AcDbLine
 62
7
  6
CONTINUOUS
 10
22.7155097237
 20
-14.2111616392
 11
22.7155097237
 21
-13.75
  0
LINE
  5
6B8
100
AcDbEntity
  8
DRAFT
100
AcDbLine
 62
7
  6
CONTINUOUS
 10
22.7155097237
 20
13.75
 11
22.7155097237
 21
14.2111616397
  0
LINE
  5
6B9
100
AcDbEntity
  8
DRAFT
100
AcDbLine
 62
7
  6
CONTINUOUS
 10
22.7155097237
 20
20.7888383603
 11
22.7155097237
 21
21.25
  0
LINE
  5
6BA
100
AcDbEntity
  8
RACCORDO
100
AcDbLine
 62
7
  6
CONTINUOUS
 10
22.7574359471
 20
22.1238400923
 11
22.7574359471
 21
21.25
  0
LINE
  5
6BB
100
AcDbEntity
  8
DRAFT
100
AcDbLine
 62
7
  6
CONTINUOUS
 10
22.7574359471
 20
13.75
 11
22.7574359471
 21
6.8762143754
  0
LINE
  5
6BC
100
AcDbEntity
  8
DRAFT
100
AcDbLine
 62
7
  6
CONTINUOUS
 10
22.7574359471
 20
-6.8762143754
 11
22.7574359471
 21
-13.75
  0
LINE
  5
6BD
100
AcDbEntity
  8
RACCORDO
100
AcDbLine
 62
7
  6
CONTINUOUS
 10
22.7574359471
 20
-21.25
 11
22.7574359471
 21
-22.123840093
  0
LINE
  5
6BE
100
AcDbEntity
  8
RACCORDO
100
AcDbLine
 62
253
  6
CONTINUOUS
 10
22.908803696
 20
24.6674550649
 11
22.908803696
 21
23.2088036965
  0
LINE
  5
6BF
100
AcDbEntity
  8
RACCORDO
100
AcDbLine
 62
253
  6
CONTINUOUS
 10
22.908803696
 20
-23.2088036965
 11
22.908803696
 21
-24.6674550649
  0
LINE
  5
6C0
100
AcDbEntity
  8
DRAFT
100
AcDbLine
 62
7
  6
CONTINUOUS
 10
17.4126980758
 20
-43.5
 11
17.4298482741
 21
-43.0088825784
  0
LINE
  5
6C1
100
AcDbEntity
  8
ASSI
100
AcDbLine
 62
7
  6
CONTINUOUS
 10
12.4830127014
 20
-26.35
 11
12.4767771702
 21
-26.3732713192
  0
LINE
  5
6C2
100
AcDbEntity
  8
DRAFT
100
AcDbLine
 62
7
  6
CONTINUOUS
 10
13.4713523691
 20
-26.35
 11
13.3258624995
 21
-26.8929755853
  0
LINE
  5
6C3
100
AcDbEntity
  8
DRAFT
100
AcDbLine
 62
7
  6
CONTINUOUS
 10
13.4723444365
 20
-26.3732713192
 11
13.3327531534
 21
-26.8948219304
  0
LINE
  5
6C4
100
AcDbEntity
  8
DRAFT
100
AcDbLine
 62
7
  6
CONTINUOUS
 10
-12.3500000004
 20
-43.0325449351
 11
-12.3674550654
 21
-43.05
  0
LINE
  5
6C5
100
AcDbEntity
  8
DRAFT
100
AcDbLine
 62
7
  6
CONTINUOUS
 10
43.0325449346
 20
12.35
 11
43.0499999996
 21
12.3674550649
  0
LINE
  5
6C6
100
AcDbEntity
  8
DRAFT
100
AcDbLine
 62
7
  6
CONTINUOUS
 10
-12.3674550654
 20
-44.05
 11
-12.3901466498
 21
-44.0726915844
  0
LINE
  5
6C7
100
AcDbEntity
  8
DRAFT
100
AcDbLine
 62
7
  6
CONTINUOUS
 10
44.0499999996
 20
12.3674550649
 11
44.072691584
 21
12.3901466493
  0
LINE
  5
6C8
100
AcDbEntity
  8
0
100
AcDbLine
 62
7
  6
CONTINUOUS
 10
-30.8333332543
 20
-34.2553191185
 11
-30.7083332543
 21
-34.2127659321
  0
LINE
  5
6C9
100
AcDbEntity
  8
DRAFT
100
AcDbLine
 62
253
  6
CONTINUOUS
 10
13.3327531534
 20
26.8948219304
 11
13.3258624995
 21
26.8929755853
  0
LINE
  5
6CA
100
AcDbEntity
  8
DRAFT
100
AcDbLine
 62
7
  6
CONTINUOUS
 10
-43.5000000004
 20
17.4126980763
 11
-43.0088825789
 21
17.4298482745
  0
LINE
  5
6CB
100
AcDbEntity
  8
SMUSSO
100
AcDbLine
 62
7
  6
CONTINUOUS
 10
-23.5309401081
 20
19.7185808831
 11
-23.3000000004
 21
19.7255629091
  0
LINE
  5
6CC
100
AcDbEntity
  8
RACCORDO
100
AcDbLine
 62
7
  6
CONTINUOUS
 10
24.0755019774
 20
19.7185808831
 11
23.5309401072
 21
19.7185808831
  0
LINE
  5
6CD
100
AcDbEntity
  8
RACCORDO
100
AcDbLine
 62
7
  6
CONTINUOUS
 10
-23.5309401081
 20
19.7185808831
 11
-24.0755019783
 21
19.7185808831
  0
LINE
  5
6CE
100
AcDbEntity
  8
DRAFT
100
AcDbLine
 62
7
  6
CONTINUOUS
 10
-23.7000000004
 20
19.7307994286
 11
-23.6000000004
 21
19.7307994286
  0
LINE
  5
6CF
100
AcDbEntity
  8
DRAFT
100
AcDbLine
 62
7
  6
CONTINUOUS
 10
23.5999999996
 20
19.7307994286
 11
23.6999999996
 21
19.7307994286
  0
LINE
  5
6D0
100
AcDbEntity
  8
RACCORDO
100
AcDbLine
 62
7
  6
CONTINUOUS
 10
-24.7500000004
 20
19.7517455065
 11
-23.7000000004
 21
19.7517455065
  0
LINE
  5
6D1
100
AcDbEntity
  8
RACCORDO
100
AcDbLine
 62
7
  6
CONTINUOUS
 10
23.6999999996
 20
19.7517455065
 11
24.7499999996
 21
19.7517455065
  0
LINE
  5
6D2
100
AcDbEntity
  8
RACCORDO
100
AcDbLine
 62
7
  6
CONTINUOUS
 10
-25.2500000004
 20
20.0
 11
-24.3625994663
 21
20.0
  0
LINE
  5
6D3
100
AcDbEntity
  8
DRAFT
100
AcDbLine
 62
7
  6
CONTINUOUS
 10
24.3625994654
 20
20.0
 11
23.8881197842
 21
20.0
  0
LINE
  5
6D4
100
AcDbEntity
  8
SMUSSO
100
AcDbLine
 62
7
  6
CONTINUOUS
 10
23.8881197842
 20
20.0
 11
23.1999999996
 21
20.0
  0
LINE
  5
6D5
100
AcDbEntity
  8
SMUSSO
100
AcDbLine
 62
7
  6
CONTINUOUS
 10
-23.2000000004
 20
20.0
 11
-23.8881197851
 21
20.0
  0
LINE
  5
6D6
100
AcDbEntity
  8
DRAFT
100
AcDbLine
 62
7
  6
CONTINUOUS
 10
-23.8881197851
 20
20.0
 11
-24.3625994663
 21
20.0
  0
LINE
  5
6D7
100
AcDbEntity
  8
RACCORDO
100
AcDbLine
 62
7
  6
CONTINUOUS
 10
24.3625994654
 20
20.0
 11
25.2499999996
 21
20.0
  0
LINE
  5
6D8
100
AcDbEntity
  8
RACCORDO
100
AcDbLine
 62
7
  6
CONTINUOUS
 10
-45.4500000004
 20
20.75
 11
-45.3500000004
 21
20.75
  0
LINE
  5
6D9
100
AcDbEntity
  8
RACCORDO
100
AcDbLine
 62
7
  6
CONTINUOUS
 10
45.4499999996
 20
20.75
 11
45.3499999996
 21
20.75
  0
LINE
  5
6DA
100
AcDbEntity
  8
DRAFT
100
AcDbLine
 62
7
  6
CONTINUOUS
 10
-24.3625994663
 20
21.0
 11
-23.8881197851
 21
21.0
  0
LINE
  5
6DB
100
AcDbEntity
  8
RACCORDO
100
AcDbLine
 62
7
  6
CONTINUOUS
 10
-23.8881197851
 20
21.0
 11
-23.0017912054
 21
21.0
  0
LINE
  5
6DC
100
AcDbEntity
  8
RACCORDO
100
AcDbLine
 62
7
  6
CONTINUOUS
 10
23.0017912045
 20
21.0
 11
23.8881197842
 21
21.0
  0
LINE
  5
6DD
100
AcDbEntity
  8
DRAFT
100
AcDbLine
 62
7
  6
CONTINUOUS
 10
23.8881197842
 20
21.0
 11
24.3625994654
 21
21.0
  0
LINE
  5
6DE
100
AcDbEntity
  8
RACCORDO
100
AcDbLine
 62
7
  6
CONTINUOUS
 10
24.3625994654
 20
21.0
 11
31.9999999996
 21
21.0
  0
LINE
  5
6DF
100
AcDbEntity
  8
RACCORDO
100
AcDbLine
 62
7
  6
CONTINUOUS
 10
-24.3625994663
 20
21.0
 11
-32.0000000004
 21
21.0
  0
LINE
  5
6E0
100
AcDbEntity
  8
DRAFT
100
AcDbLine
 62
7
  6
CONTINUOUS
 10
22.7155097237
 20
21.25
 11
25.208980597
 21
21.25
  0
LINE
  5
6E1
100
AcDbEntity
  8
DRAFT
100
AcDbLine
 62
7
  6
CONTINUOUS
 10
-22.7155097246
 20
21.25
 11
-25.2089805979
 21
21.25
  0
LINE
  5
6E2
100
AcDbEntity
  8
RACCORDO
100
AcDbLine
 62
7
  6
CONTINUOUS
 10
23.000045698
 20
22.0
 11
31.9999999996
 21
22.0
  0
LINE
  5
6E3
100
AcDbEntity
  8
RACCORDO
100
AcDbLine
 62
7
  6
CONTINUOUS
 10
-23.0000456989
 20
22.0
 11
-32.0000000004
 21
22.0
  0
LINE
  5
6E4
100
AcDbEntity
  8
RACCORDO
100
AcDbLine
 62
7
  6
CONTINUOUS
 10
22.3413181585
 20
22.5912724675
 11
-22.3413181594
 21
22.5912724675
  0
LINE
  5
6E5
100
AcDbEntity
  8
RACCORDO
100
AcDbLine
 62
7
  6
CONTINUOUS
 10
-22.3766150297
 20
22.6262038896
 11
22.3766150288
 21
22.6262038896
  0
LINE
  5
6E6
100
AcDbEntity
  8
RACCORDO
100
AcDbLine
 62
7
  6
CONTINUOUS
 10
24.3499999996
 20
22.7
 11
14.7999999996
 21
22.7
  0
LINE
  5
6E7
100
AcDbEntity
  8
RACCORDO
100
AcDbLine
 62
7
  6
CONTINUOUS
 10
7.6999999996
 20
22.7
 11
-7.7000000004
 21
22.7
  0
LINE
  5
6E8
100
AcDbEntity
  8
RACCORDO
100
AcDbLine
 62
7
  6
CONTINUOUS
 10
-14.8000000004
 20
22.7
 11
-24.3500000004
 21
22.7
  0
LINE
  5
6E9
100
AcDbEntity
  8
RACCORDO
100
AcDbLine
 62
7
  6
CONTINUOUS
 10
-14.7349404769
 20
22.7074359475
 11
-7.765059524
 21
22.7074359475
  0
LINE
  5
6EA
100
AcDbEntity
  8
RACCORDO
100
AcDbLine
 62
7
  6
CONTINUOUS
 10
7.7650595231
 20
22.7074359475
 11
14.734940476
 21
22.7074359475
  0
LINE
  5
6EB
100
AcDbEntity
  8
RACCORDO
100
AcDbLine
 62
253
  6
CONTINUOUS
 10
-24.3588798494
 20
22.7088798489
 11
-22.7088341579
 21
22.7088798489
  0
LINE
  5
6EC
100
AcDbEntity
  8
RACCORDO
100
AcDbLine
 62
253
  6
CONTINUOUS
 10
22.708834157
 20
22.7088798489
 11
24.3588798485
 21
22.7088798489
  0
LINE
  5
6ED
100
AcDbEntity
  8
SMUSSO
100
AcDbLine
 62
7
  6
CONTINUOUS
 10
23.2999999996
 20
19.7255629091
 11
23.5309401072
 21
19.7185808831
  0
LINE
  5
6EE
100
AcDbEntity
  8
DRAFT
100
AcDbLine
 62
7
  6
CONTINUOUS
 10
43.008882578
 20
17.4298482745
 11
43.4999999996
 21
17.4126980763
  0
LINE
  5
6EF
100
AcDbEntity
  8
DRAFT
100
AcDbLine
 62
253
  6
CONTINUOUS
 10
-13.3258625004
 20
26.8929755853
 11
-13.3326059417
 21
26.8947824849
  0
LINE
  5
6F0
100
AcDbEntity
  8
DRAFT
100
AcDbLine
 62
7
  6
CONTINUOUS
 10
43.0325449346
 20
-12.35
 11
43.0499999996
 21
-12.3674550649
  0
LINE
  5
6F1
100
AcDbEntity
  8
DRAFT
100
AcDbLine
 62
7
  6
CONTINUOUS
 10
-12.3500000004
 20
43.0325449351
 11
-12.3674550654
 21
43.05
  0
LINE
  5
6F2
100
AcDbEntity
  8
DRAFT
100
AcDbLine
 62
7
  6
CONTINUOUS
 10
44.0499999996
 20
-12.3674550649
 11
44.072691584
 21
-12.3901466493
  0
LINE
  5
6F3
100
AcDbEntity
  8
DRAFT
100
AcDbLine
 62
7
  6
CONTINUOUS
 10
-12.3674550654
 20
44.05
 11
-12.3901466498
 21
44.0726915844
  0
LINE
  5
6F4
100
AcDbEntity
  8
ASSI
100
AcDbLine
 62
7
  6
CONTINUOUS
 10
12.4830127014
 20
26.35
 11
12.4767771702
 21
26.3732713192
  0
LINE
  5
6F5
100
AcDbEntity
  8
DRAFT
100
AcDbLine
 62
7
  6
CONTINUOUS
 10
13.3258624995
 20
26.8929755853
 11
13.4713523691
 21
26.35
  0
LINE
  5
6F6
100
AcDbEntity
  8
DRAFT
100
AcDbLine
 62
7
  6
CONTINUOUS
 10
13.4723444365
 20
26.3732713192
 11
13.3327531534
 21
26.8948219304
  0
LINE
  5
6F7
100
AcDbEntity
  8
DRAFT
100
AcDbLine
 62
7
  6
CONTINUOUS
 10
23.1499999996
 20
24.6674550649
 11
23.1499999996
 21
23.5
  0
LINE
  5
6F8
100
AcDbEntity
  8
RACCORDO
100
AcDbLine
 62
7
  6
CONTINUOUS
 10
23.1499999996
 20
-25.1675656165
 11
23.1499999996
 21
-24.6676073814
  0
LINE
  5
6F9
100
AcDbEntity
  8
DRAFT
100
AcDbLine
 62
7
  6
CONTINUOUS
 10
23.1499999996
 20
-24.6674550649
 11
23.1499999996
 21
-23.5
  0
LINE
  5
6FA
100
AcDbEntity
  8
RACCORDO
100
AcDbLine
 62
7
  6
CONTINUOUS
 10
23.1499999996
 20
24.6676073814
 11
23.1499999996
 21
25.1675656165
  0
LINE
  5
6FB
100
AcDbEntity
  8
0
100
AcDbLine
 62
7
  6
CONTINUOUS
 10
23.1999999996
 20
-20.0
 11
23.1999999996
 21
-15.0
  0
LINE
  5
6FC
100
AcDbEntity
  8
0
100
AcDbLine
 62
7
  6
CONTINUOUS
 10
23.1999999996
 20
15.0
 11
23.1999999996
 21
20.0
  0
LINE
  5
6FD
100
AcDbEntity
  8
SMUSSO
100
AcDbLine
 62
7
  6
CONTINUOUS
 10
23.2999999996
 20
-19.7255629091
 11
23.2999999996
 21
-15.2744370909
  0
LINE
  5
6FE
100
AcDbEntity
  8
SMUSSO
100
AcDbLine
 62
7
  6
CONTINUOUS
 10
23.2999999996
 20
15.2744370909
 11
23.2999999996
 21
19.7255629091
  0
LINE
  5
6FF
100
AcDbEntity
  8
0
100
AcDbLine
 62
7
  6
CONTINUOUS
 10
23.4999999996
 20
-0.6
 11
23.4999999996
 21
0.6
  0
LINE
  5
700
100
AcDbEntity
  8
SMUSSO
100
AcDbLine
 62
7
  6
CONTINUOUS
 10
23.5309401072
 20
-19.7185808831
 11
23.5309401072
 21
-15.2814191169
  0
LINE
  5
701
100
AcDbEntity
  8
SMUSSO
100
AcDbLine
 62
7
  6
CONTINUOUS
 10
23.5309401072
 20
15.2814191169
 11
23.5309401072
 21
19.7185808831
  0
LINE
  5
702
100
AcDbEntity
  8
RACCORDO
100
AcDbLine
 62
7
  6
CONTINUOUS
 10
23.6999999996
 20
15.2692005714
 11
23.6999999996
 21
15.2517455065
  0
LINE
  5
703
100
AcDbEntity
  8
RACCORDO
100
AcDbLine
 62
7
  6
CONTINUOUS
 10
23.6999999996
 20
-19.7307994286
 11
23.6999999996
 21
-19.7482544935
  0
LINE
  5
704
100
AcDbEntity
  8
RACCORDO
100
AcDbLine
 62
7
  6
CONTINUOUS
 10
23.6999999996
 20
-15.2692005714
 11
23.6999999996
 21
-15.2517455065
  0
LINE
  5
705
100
AcDbEntity
  8
RACCORDO
100
AcDbLine
 62
7
  6
CONTINUOUS
 10
23.6999999996
 20
19.7307994286
 11
23.6999999996
 21
19.7482544935
  0
LINE
  5
706
100
AcDbEntity
  8
DRAFT
100
AcDbLine
 62
7
  6
CONTINUOUS
 10
23.8377814541
 20
-23.53174001
 11
23.8377814541
 21
-23.5
  0
LINE
  5
707
100
AcDbEntity
  8
DRAFT
100
AcDbLine
 62
7
  6
CONTINUOUS
 10
23.8377814541
 20
-22.0
 11
23.8377814541
 21
-21.25
  0
LINE
  5
708
100
AcDbEntity
  8
DRAFT
100
AcDbLine
 62
7
  6
CONTINUOUS
 10
23.8377814541
 20
-13.75
 11
23.8377814541
 21
-7.0
  0
LINE
  5
709
100
AcDbEntity
  8
DRAFT
100
AcDbLine
 62
7
  6
CONTINUOUS
 10
23.8377814541
 20
-0.6
 11
23.8377814541
 21
0.6
  0
LINE
  5
70A
100
AcDbEntity
  8
DRAFT
100
AcDbLine
 62
7
  6
CONTINUOUS
 10
23.8377814541
 20
7.0
 11
23.8377814541
 21
13.75
  0
LINE
  5
70B
100
AcDbEntity
  8
DRAFT
100
AcDbLine
 62
7
  6
CONTINUOUS
 10
23.8377814541
 20
21.25
 11
23.8377814541
 21
22.0
  0
LINE
  5
70C
100
AcDbEntity
  8
DRAFT
100
AcDbLine
 62
7
  6
CONTINUOUS
 10
23.8377814541
 20
23.5
 11
23.8377814541
 21
23.53174001
  0
LINE
  5
70D
100
AcDbEntity
  8
RACCORDO
100
AcDbLine
 62
7
  6
CONTINUOUS
 10
23.8499999996
 20
-22.0
 11
23.8499999996
 21
-21.25
  0
LINE
  5
70E
100
AcDbEntity
  8
DRAFT
100
AcDbLine
 62
7
  6
CONTINUOUS
 10
23.8499999996
 20
-13.75
 11
23.8499999996
 21
-7.0
  0
LINE
  5
70F
100
AcDbEntity
  8
DRAFT
100
AcDbLine
 62
7
  6
CONTINUOUS
 10
23.8499999996
 20
-0.6
 11
23.8499999996
 21
0.6
  0
LINE
  5
710
100
AcDbEntity
  8
DRAFT
100
AcDbLine
 62
7
  6
CONTINUOUS
 10
23.8499999996
 20
7.0
 11
23.8499999996
 21
13.75
  0
LINE
  5
711
100
AcDbEntity
  8
RACCORDO
100
AcDbLine
 62
7
  6
CONTINUOUS
 10
23.8499999996
 20
21.25
 11
23.8499999996
 21
22.0
  0
LINE
  5
712
100
AcDbEntity
  8
SMUSSO
100
AcDbLine
 62
7
  6
CONTINUOUS
 10
23.8881197842
 20
-21.0
 11
23.8881197842
 21
-20.0
  0
LINE
  5
713
100
AcDbEntity
  8
SMUSSO
100
AcDbLine
 62
7
  6
CONTINUOUS
 10
23.8881197842
 20
-15.0
 11
23.8881197842
 21
-14.0
  0
LINE
  5
714
100
AcDbEntity
  8
SMUSSO
100
AcDbLine
 62
7
  6
CONTINUOUS
 10
23.8881197842
 20
14.0
 11
23.8881197842
 21
15.0
  0
LINE
  5
715
100
AcDbEntity
  8
SMUSSO
100
AcDbLine
 62
7
  6
CONTINUOUS
 10
23.8881197842
 20
20.0
 11
23.8881197842
 21
21.0
  0
LINE
  5
716
100
AcDbEntity
  8
RACCORDO
100
AcDbLine
 62
253
  6
CONTINUOUS
 10
24.0755019774
 20
-19.7185808831
 11
24.0755019774
 21
-15.2814191169
  0
LINE
  5
717
100
AcDbEntity
  8
RACCORDO
100
AcDbLine
 62
253
  6
CONTINUOUS
 10
24.0755019774
 20
15.2814191169
 11
24.0755019774
 21
19.7185808831
  0
LINE
  5
718
100
AcDbEntity
  8
DRAFT
100
AcDbLine
 62
7
  6
CONTINUOUS
 10
24.1999999996
 20
13.0
 11
24.1999999996
 21
7.0
  0
LINE
  5
719
100
AcDbEntity
  8
DRAFT
100
AcDbLine
 62
7
  6
CONTINUOUS
 10
24.1999999996
 20
-7.0
 11
24.1999999996
 21
-13.0
  0
LINE
  5
71A
100
AcDbEntity
  8
DRAFT
100
AcDbLine
 62
7
  6
CONTINUOUS
 10
24.3499999996
 20
-24.7
 11
24.3499999996
 21
-23.5
  0
LINE
  5
71B
100
AcDbEntity
  8
DRAFT
100
AcDbLine
 62
7
  6
CONTINUOUS
 10
24.3499999996
 20
-22.7
 11
24.3499999996
 21
-22.0
  0
LINE
  5
71C
100
AcDbEntity
  8
DRAFT
100
AcDbLine
 62
7
  6
CONTINUOUS
 10
24.3499999996
 20
-13.0
 11
24.3499999996
 21
-0.6
  0
LINE
  5
71D
100
AcDbEntity
  8
DRAFT
100
AcDbLine
 62
7
  6
CONTINUOUS
 10
24.3499999996
 20
0.6
 11
24.3499999996
 21
13.0
  0
LINE
  5
71E
100
AcDbEntity
  8
DRAFT
100
AcDbLine
 62
7
  6
CONTINUOUS
 10
24.3499999996
 20
22.0
 11
24.3499999996
 21
22.7
  0
LINE
  5
71F
100
AcDbEntity
  8
DRAFT
100
AcDbLine
 62
7
  6
CONTINUOUS
 10
24.3499999996
 20
23.5
 11
24.3499999996
 21
24.7
  0
LINE
  5
720
100
AcDbEntity
  8
RACCORDO
100
AcDbLine
 62
253
  6
CONTINUOUS
 10
24.3596916751
 20
-6.9387787509
 11
24.3596916751
 21
-0.6
  0
LINE
  5
721
100
AcDbEntity
  8
RACCORDO
100
AcDbLine
 62
253
  6
CONTINUOUS
 10
24.3596916751
 20
0.6
 11
24.3596916751
 21
6.9387787509
  0
LINE
  5
722
100
AcDbEntity
  8
DRAFT
100
AcDbLine
 62
7
  6
CONTINUOUS
 10
24.3625994654
 20
-21.0
 11
24.3625994654
 21
-20.0
  0
LINE
  5
723
100
AcDbEntity
  8
DRAFT
100
AcDbLine
 62
7
  6
CONTINUOUS
 10
24.3625994654
 20
-15.0
 11
24.3625994654
 21
-14.0
  0
LINE
  5
724
100
AcDbEntity
  8
DRAFT
100
AcDbLine
 62
7
  6
CONTINUOUS
 10
24.3625994654
 20
14.0
 11
24.3625994654
 21
15.0
  0
LINE
  5
725
100
AcDbEntity
  8
DRAFT
100
AcDbLine
 62
7
  6
CONTINUOUS
 10
24.3625994654
 20
20.0
 11
24.3625994654
 21
21.0
  0
LINE
  5
726
100
AcDbEntity
  8
RACCORDO
100
AcDbLine
 62
7
  6
CONTINUOUS
 10
24.3674550645
 20
-23.5
 11
24.3674550645
 21
-23.2088036965
  0
LINE
  5
727
100
AcDbEntity
  8
RACCORDO
100
AcDbLine
 62
7
  6
CONTINUOUS
 10
24.3674550645
 20
23.2088036965
 11
24.3674550645
 21
23.5
  0
LINE
  5
728
100
AcDbEntity
  8
RACCORDO
100
AcDbLine
 62
253
  6
CONTINUOUS
 10
24.3676073809
 20
21.0
 11
24.3676073809
 21
20.0
  0
LINE
  5
729
100
AcDbEntity
  8
RACCORDO
100
AcDbLine
 62
253
  6
CONTINUOUS
 10
24.3676073809
 20
15.0
 11
24.3676073809
 21
14.0
  0
LINE
  5
72A
100
AcDbEntity
  8
RACCORDO
100
AcDbLine
 62
253
  6
CONTINUOUS
 10
24.3676071171
 20
-7.672350921
 11
24.3676073809
 21
-13.0
  0
LINE
  5
72B
100
AcDbEntity
  8
RACCORDO
100
AcDbLine
 62
253
  6
CONTINUOUS
 10
24.3676073809
 20
-14.0
 11
24.3676073809
 21
-15.0
  0
LINE
  5
72C
100
AcDbEntity
  8
RACCORDO
100
AcDbLine
 62
253
  6
CONTINUOUS
 10
24.3676073809
 20
-24.7000761524
 11
24.3676073809
 21
-23.5
  0
LINE
  5
72D
100
AcDbEntity
  8
RACCORDO
100
AcDbLine
 62
253
  6
CONTINUOUS
 10
24.3674550645
 20
-23.2088036965
 11
24.3676073809
 21
-22.0
  0
LINE
  5
72E
100
AcDbEntity
  8
RACCORDO
100
AcDbLine
 62
253
  6
CONTINUOUS
 10
24.3676073809
 20
-20.0
 11
24.3676073809
 21
-21.0
  0
LINE
  5
72F
100
AcDbEntity
  8
RACCORDO
100
AcDbLine
 62
253
  6
CONTINUOUS
 10
24.3676071178
 20
7.6723509466
 11
24.3676073809
 21
13.0
  0
LINE
  5
730
100
AcDbEntity
  8
RACCORDO
100
AcDbLine
 62
253
  6
CONTINUOUS
 10
24.3676073809
 20
22.0
 11
24.3674550645
 21
23.2088036965
  0
LINE
  5
731
100
AcDbEntity
  8
RACCORDO
100
AcDbLine
 62
253
  6
CONTINUOUS
 10
24.3676073809
 20
23.5
 11
24.3676073809
 21
24.7000761524
  0
LINE
  5
732
100
AcDbEntity
  8
RACCORDO
100
AcDbLine
 62
253
  6
CONTINUOUS
 10
24.4754410555
 20
-19.7254410559
 11
24.4754410555
 21
-15.2745589441
  0
LINE
  5
733
100
AcDbEntity
  8
RACCORDO
100
AcDbLine
 62
253
  6
CONTINUOUS
 10
24.4754410555
 20
15.2745589441
 11
24.4754410555
 21
19.7254410559
  0
LINE
  5
734
100
AcDbEntity
  8
RACCORDO
100
AcDbLine
 62
253
  6
CONTINUOUS
 10
24.49317029
 20
-19.7431702905
 11
24.49317029
 21
-15.2568297095
  0
LINE
  5
735
100
AcDbEntity
  8
RACCORDO
100
AcDbLine
 62
253
  6
CONTINUOUS
 10
24.49317029
 20
15.2568297095
 11
24.49317029
 21
19.7431702905
  0
LINE
  5
736
100
AcDbEntity
  8
RACCORDO
100
AcDbLine
 62
253
  6
CONTINUOUS
 10
24.6596459837
 20
-6.9388120306
 11
24.6596459837
 21
-0.6
  0
LINE
  5
737
100
AcDbEntity
  8
RACCORDO
100
AcDbLine
 62
253
  6
CONTINUOUS
 10
24.6596459837
 20
0.6
 11
24.6596459837
 21
6.9388119964
  0
LINE
  5
738
100
AcDbEntity
  8
0
100
AcDbLine
 62
7
  6
CONTINUOUS
 10
24.6999999996
 20
0.6
 11
24.6999999996
 21
-0.6
  0
LINE
  5
739
100
AcDbEntity
  8
RACCORDO
100
AcDbLine
 62
7
  6
CONTINUOUS
 10
24.7497544186
 20
12.7002760419
 11
24.7497544186
 21
8.4497239581
  0
LINE
  5
73A
100
AcDbEntity
  8
RACCORDO
100
AcDbLine
 62
7
  6
CONTINUOUS
 10
24.7497544186
 20
-8.4497239581
 11
24.7497544186
 21
-12.7002760419
  0
LINE
  5
73B
100
AcDbEntity
  8
RACCORDO
100
AcDbLine
 62
7
  6
CONTINUOUS
 10
24.7499999996
 20
20.0
 11
24.7499999996
 21
15.0
  0
LINE
  5
73C
100
AcDbEntity
  8
RACCORDO
100
AcDbLine
 62
7
  6
CONTINUOUS
 10
24.7499999996
 20
-15.0
 11
24.7499999996
 21
-20.0
  0
LINE
  5
73D
100
AcDbEntity
  8
RACCORDO
100
AcDbLine
 62
253
  6
CONTINUOUS
 10
24.784971056
 20
12.6650594045
 11
24.784971056
 21
8.4849405955
  0
LINE
  5
73E
100
AcDbEntity
  8
RACCORDO
100
AcDbLine
 62
253
  6
CONTINUOUS
 10
24.784971056
 20
-8.4849405955
 11
24.784971056
 21
-12.6650594045
  0
LINE
  5
73F
100
AcDbEntity
  8
RACCORDO
100
AcDbLine
 62
253
  6
CONTINUOUS
 10
24.8675312285
 20
21.0
 11
24.8675312285
 21
20.0
  0
LINE
  5
740
100
AcDbEntity
  8
RACCORDO
100
AcDbLine
 62
253
  6
CONTINUOUS
 10
24.8675312285
 20
15.0
 11
24.8675312285
 21
14.0
  0
LINE
  5
741
100
AcDbEntity
  8
RACCORDO
100
AcDbLine
 62
253
  6
CONTINUOUS
 10
24.8675312285
 20
13.0
 11
24.8675312285
 21
12.8822199628
  0
LINE
  5
742
100
AcDbEntity
  8
RACCORDO
100
AcDbLine
 62
253
  6
CONTINUOUS
 10
24.8675312285
 20
8.2677800372
 11
24.8675312285
 21
7.7733686226
  0
LINE
  5
743
100
AcDbEntity
  8
RACCORDO
100
AcDbLine
 62
253
  6
CONTINUOUS
 10
24.8675312285
 20
-7.7733686226
 11
24.8675312285
 21
-8.2677800372
  0
LINE
  5
744
100
AcDbEntity
  8
RACCORDO
100
AcDbLine
 62
253
  6
CONTINUOUS
 10
24.8675312285
 20
-12.8822199628
 11
24.8675312285
 21
-13.0
  0
LINE
  5
745
100
AcDbEntity
  8
RACCORDO
100
AcDbLine
 62
253
  6
CONTINUOUS
 10
24.8675312285
 20
-14.0
 11
24.8675312285
 21
-15.0
  0
LINE
  5
746
100
AcDbEntity
  8
RACCORDO
100
AcDbLine
 62
253
  6
CONTINUOUS
 10
24.8675312285
 20
-25.2
 11
24.8675312285
 21
-22.0
  0
LINE
  5
747
100
AcDbEntity
  8
RACCORDO
100
AcDbLine
 62
253
  6
CONTINUOUS
 10
24.8675312285
 20
-20.0
 11
24.8675312285
 21
-21.0
  0
LINE
  5
748
100
AcDbEntity
  8
RACCORDO
100
AcDbLine
 62
253
  6
CONTINUOUS
 10
24.8675312285
 20
22.0
 11
24.8675312285
 21
25.2
  0
LINE
  5
749
100
AcDbEntity
  8
RACCORDO
100
AcDbLine
 62
253
  6
CONTINUOUS
 10
24.984940595
 20
-12.8650289436
 11
24.984940595
 21
-8.2849710564
  0
LINE
  5
74A
100
AcDbEntity
  8
RACCORDO
100
AcDbLine
 62
253
  6
CONTINUOUS
 10
24.984940595
 20
8.2849710564
 11
24.984940595
 21
12.8650289436
  0
LINE
  5
74B
100
AcDbEntity
  8
RACCORDO
100
AcDbLine
 62
7
  6
CONTINUOUS
 10
25.208980597
 20
22.0
 11
25.208980597
 21
21.25
  0
LINE
  5
74C
100
AcDbEntity
  8
DRAFT
100
AcDbLine
 62
7
  6
CONTINUOUS
 10
25.208980597
 20
13.75
 11
25.208980597
 21
13.0
  0
LINE
  5
74D
100
AcDbEntity
  8
DRAFT
100
AcDbLine
 62
7
  6
CONTINUOUS
 10
25.208980597
 20
-13.0
 11
25.208980597
 21
-13.75
  0
LINE
  5
74E
100
AcDbEntity
  8
RACCORDO
100
AcDbLine
 62
7
  6
CONTINUOUS
 10
25.208980597
 20
-21.25
 11
25.208980597
 21
-22.0
  0
LINE
  5
74F
100
AcDbEntity
  8
DRAFT
100
AcDbLine
 62
7
  6
CONTINUOUS
 10
25.2107261035
 20
-21.25
 11
25.2107261035
 21
-21.0
  0
LINE
  5
750
100
AcDbEntity
  8
DRAFT
100
AcDbLine
 62
7
  6
CONTINUOUS
 10
25.2107261035
 20
-14.0
 11
25.2107261035
 21
-13.75
  0
LINE
  5
751
100
AcDbEntity
  8
DRAFT
100
AcDbLine
 62
7
  6
CONTINUOUS
 10
25.2107261035
 20
13.75
 11
25.2107261035
 21
14.0
  0
LINE
  5
752
100
AcDbEntity
  8
DRAFT
100
AcDbLine
 62
7
  6
CONTINUOUS
 10
25.2107261035
 20
21.0
 11
25.2107261035
 21
21.25
  0
LINE
  5
753
100
AcDbEntity
  8
RACCORDO
100
AcDbLine
 62
7
  6
CONTINUOUS
 10
25.2499999996
 20
22.0
 11
25.2499999996
 21
21.0
  0
LINE
  5
754
100
AcDbEntity
  8
RACCORDO
100
AcDbLine
 62
253
  6
CONTINUOUS
 10
25.2499999996
 20
20.0
 11
25.2499999996
 21
15.0
  0
LINE
  5
755
100
AcDbEntity
  8
RACCORDO
100
AcDbLine
 62
7
  6
CONTINUOUS
 10
25.2499999996
 20
14.0
 11
25.2499999996
 21
13.0
  0
LINE
  5
756
100
AcDbEntity
  8
RACCORDO
100
AcDbLine
 62
7
  6
CONTINUOUS
 10
25.2499999996
 20
-13.0
 11
25.2499999996
 21
-14.0
  0
LINE
  5
757
100
AcDbEntity
  8
RACCORDO
100
AcDbLine
 62
253
  6
CONTINUOUS
 10
25.2499999996
 20
-15.0
 11
25.2499999996
 21
-20.0
  0
LINE
  5
758
100
AcDbEntity
  8
RACCORDO
100
AcDbLine
 62
7
  6
CONTINUOUS
 10
25.2499999996
 20
-21.0
 11
25.2499999996
 21
-22.0
  0
LINE
  5
759
100
AcDbEntity
  8
RACCORDO
100
AcDbLine
 62
7
  6
CONTINUOUS
 10
25.4499999996
 20
22.0
 11
25.4499999996
 21
21.0
  0
LINE
  5
75A
100
AcDbEntity
  8
RACCORDO
100
AcDbLine
 62
7
  6
CONTINUOUS
 10
25.4499999996
 20
14.0
 11
25.4499999996
 21
13.0
  0
LINE
  5
75B
100
AcDbEntity
  8
RACCORDO
100
AcDbLine
 62
7
  6
CONTINUOUS
 10
25.4499999996
 20
-13.0
 11
25.4499999996
 21
-14.0
  0
LINE
  5
75C
100
AcDbEntity
  8
RACCORDO
100
AcDbLine
 62
7
  6
CONTINUOUS
 10
25.4499999996
 20
-21.0
 11
25.4499999996
 21
-22.0
  0
LINE
  5
75D
100
AcDbEntity
  8
RACCORDO
100
AcDbLine
 62
253
  6
CONTINUOUS
 10
25.5150594041
 20
-12.8650289436
 11
25.5150594041
 21
-8.2849710564
  0
LINE
  5
75E
100
AcDbEntity
  8
RACCORDO
100
AcDbLine
 62
253
  6
CONTINUOUS
 10
25.5150594041
 20
8.2849710564
 11
25.5150594041
 21
12.8650289436
  0
LINE
  5
75F
100
AcDbEntity
  8
RACCORDO
100
AcDbLine
 62
253
  6
CONTINUOUS
 10
25.7150289431
 20
-12.6650594045
 11
25.7150289431
 21
-8.4849405955
  0
LINE
  5
760
100
AcDbEntity
  8
RACCORDO
100
AcDbLine
 62
253
  6
CONTINUOUS
 10
25.7150289431
 20
8.4849405955
 11
25.7150289431
 21
12.6650594045
  0
LINE
  5
761
100
AcDbEntity
  8
RACCORDO
100
AcDbLine
 62
7
  6
CONTINUOUS
 10
25.7499999996
 20
-12.700030461
 11
25.7499999996
 21
-8.449969539
  0
LINE
  5
762
100
AcDbEntity
  8
RACCORDO
100
AcDbLine
 62
7
  6
CONTINUOUS
 10
25.7499999996
 20
8.449969539
 11
25.7499999996
 21
12.700030461
  0
LINE
  5
763
100
AcDbEntity
  8
ASSI
100
AcDbLine
 62
7
  6
CONTINUOUS
 10
26.4115699996
 20
-36.489452
 11
26.4115699996
 21
-36.906117
  0
LINE
  5
764
100
AcDbEntity
  8
ASSI
100
AcDbLine
 62
7
  6
CONTINUOUS
 10
26.4251769996
 20
-33.110297
 11
26.4251769996
 21
-33.529254
  0
LINE
  5
765
100
AcDbEntity
  8
ASSI
100
AcDbLine
 62
7
  6
CONTINUOUS
 10
26.7808249996
 20
-33.529254
 11
26.7808249996
 21
-34.591613
  0
LINE
  5
766
100
AcDbEntity
  8
ASSI
100
AcDbLine
 62
7
  6
CONTINUOUS
 10
26.7808249996
 20
-35.107969
 11
26.7808249996
 21
-36.489452
  0
LINE
  5
767
100
AcDbEntity
  8
0
100
AcDbLine
 62
7
  6
CONTINUOUS
 10
27.0893832705
 20
31.7533762561
 11
27.0893832705
 21
28.2467191156
  0
LINE
  5
768
100
AcDbEntity
  8
ASSI
100
AcDbLine
 62
7
  6
CONTINUOUS
 10
27.2247039996
 20
-36.489452
 11
27.2247039996
 21
-35.103309
  0
LINE
  5
769
100
AcDbEntity
  8
ASSI
100
AcDbLine
 62
7
  6
CONTINUOUS
 10
27.2247039996
 20
-34.591613
 11
27.2247039996
 21
-33.529254
  0
LINE
  5
76A
100
AcDbEntity
  8
0
100
AcDbLine
 62
7
  6
CONTINUOUS
 10
27.3054689918
 20
28.2467191156
 11
27.3054689918
 21
31.5024896875
  0
LINE
  5
76B
100
AcDbEntity
  8
ASSI
100
AcDbLine
 62
7
  6
CONTINUOUS
 10
27.5802089996
 20
-33.529254
 11
27.5802089996
 21
-33.110297
  0
LINE
  5
76C
100
AcDbEntity
  8
RACCORDO
100
AcDbLine
 62
253
  6
CONTINUOUS
 10
24.8675312285
 20
-7.7733686226
 11
24.9187017659
 21
-7.4831660837
  0
LINE
  5
76D
100
AcDbEntity
  8
0
100
AcDbLine
 62
7
  6
CONTINUOUS
 10
37.5406645364
 20
31.7533762561
 11
36.5239599286
 21
28.6982964382
  0
LINE
  5
76E
100
AcDbEntity
  8
0
100
AcDbLine
 62
7
  6
CONTINUOUS
 10
36.7793733564
 20
28.2467191156
 11
38.0268656458
 21
31.7533762561
  0
LINE
  5
76F
100
AcDbEntity
  8
RACCORDO
100
AcDbLine
 62
253
  6
CONTINUOUS
 10
25.5150594041
 20
-8.2849710564
 11
25.5500304605
 21
-8.25
  0
LINE
  5
770
100
AcDbEntity
  8
RACCORDO
100
AcDbLine
 62
253
  6
CONTINUOUS
 10
25.7150289431
 20
-8.4849405955
 11
25.7499999996
 21
-8.449969539
  0
LINE
  5
771
100
AcDbEntity
  8
RACCORDO
100
AcDbLine
 62
253
  6
CONTINUOUS
 10
24.7497544186
 20
-12.7002760419
 11
24.784971056
 21
-12.6650594045
  0
LINE
  5
772
100
AcDbEntity
  8
RACCORDO
100
AcDbLine
 62
253
  6
CONTINUOUS
 10
24.9499695386
 20
-12.9
 11
24.984940595
 21
-12.8650289436
  0
LINE
  5
773
100
AcDbEntity
  8
0
100
AcDbLine
 62
7
  6
CONTINUOUS
 10
-30.8333332543
 20
-34.9787234068
 11
-30.7083332543
 21
-34.9361702204
  0
LINE
  5
774
100
AcDbEntity
  8
0
100
AcDbLine
 62
7
  6
CONTINUOUS
 10
-30.2916667466
 20
-35.7446808517
 11
-30.4166667466
 21
-35.7872340381
  0
LINE
  5
775
100
AcDbEntity
  8
DRAFT
100
AcDbLine
 62
253
  6
CONTINUOUS
 10
9.8327531534
 20
26.8948219304
 11
9.8258624995
 21
26.8929755853
  0
LINE
  5
776
100
AcDbEntity
  8
RACCORDO
100
AcDbLine
 62
253
  6
CONTINUOUS
 10
-24.3674550654
 20
23.2088036965
 11
-22.9088036969
 21
23.2088036965
  0
LINE
  5
777
100
AcDbEntity
  8
RACCORDO
100
AcDbLine
 62
253
  6
CONTINUOUS
 10
22.908803696
 20
23.2088036965
 11
24.3674550645
 21
23.2088036965
  0
LINE
  5
778
100
AcDbEntity
  8
DRAFT
100
AcDbLine
 62
7
  6
CONTINUOUS
 10
-24.3674550654
 20
23.5
 11
-23.1500000004
 21
23.5
  0
LINE
  5
779
100
AcDbEntity
  8
DRAFT
100
AcDbLine
 62
7
  6
CONTINUOUS
 10
24.3674550645
 20
23.5
 11
23.1499999996
 21
23.5
  0
LINE
  5
77A
100
AcDbEntity
  8
0
100
AcDbLine
 62
7
  6
CONTINUOUS
 10
0.5999999996
 20
23.5
 11
-0.6000000004
 21
23.5
  0
LINE
  5
77B
100
AcDbEntity
  8
DRAFT
100
AcDbLine
 62
7
  6
CONTINUOUS
 10
23.3491248684
 20
23.6877814546
 11
23.1499999996
 21
23.6877814546
  0
LINE
  5
77C
100
AcDbEntity
  8
DRAFT
100
AcDbLine
 62
7
  6
CONTINUOUS
 10
14.4999999996
 20
23.6877814546
 11
7.9999999996
 21
23.6877814546
  0
LINE
  5
77D
100
AcDbEntity
  8
DRAFT
100
AcDbLine
 62
7
  6
CONTINUOUS
 10
0.5999999996
 20
23.6877814546
 11
-0.6000000004
 21
23.6877814546
  0
LINE
  5
77E
100
AcDbEntity
  8
DRAFT
100
AcDbLine
 62
7
  6
CONTINUOUS
 10
-8.0000000004
 20
23.6877814546
 11
-14.5000000004
 21
23.6877814546
  0
LINE
  5
77F
100
AcDbEntity
  8
DRAFT
100
AcDbLine
 62
7
  6
CONTINUOUS
 10
-23.1500000004
 20
23.6877814546
 11
-23.3491248693
 21
23.6877814546
  0
LINE
  5
780
100
AcDbEntity
  8
RACCORDO
100
AcDbLine
 62
7
  6
CONTINUOUS
 10
14.4999999996
 20
23.7
 11
7.9999999996
 21
23.7
  0
LINE
  5
781
100
AcDbEntity
  8
RACCORDO
100
AcDbLine
 62
7
  6
CONTINUOUS
 10
0.5999999996
 20
23.7
 11
-0.6000000004
 21
23.7
  0
LINE
  5
782
100
AcDbEntity
  8
RACCORDO
100
AcDbLine
 62
7
  6
CONTINUOUS
 10
-8.0000000004
 20
23.7
 11
-14.5000000004
 21
23.7
  0
LINE
  5
783
100
AcDbEntity
  8
RACCORDO
100
AcDbLine
 62
7
  6
CONTINUOUS
 10
-22.4000000004
 20
24.65
 11
-14.5000000004
 21
24.65
  0
LINE
  5
784
100
AcDbEntity
  8
RACCORDO
100
AcDbLine
 62
7
  6
CONTINUOUS
 10
-8.0000000004
 20
24.65
 11
-0.6000000004
 21
24.65
  0
LINE
  5
785
100
AcDbEntity
  8
RACCORDO
100
AcDbLine
 62
7
  6
CONTINUOUS
 10
0.5999999996
 20
24.65
 11
7.9999999996
 21
24.65
  0
LINE
  5
786
100
AcDbEntity
  8
RACCORDO
100
AcDbLine
 62
7
  6
CONTINUOUS
 10
14.4999999996
 20
24.65
 11
22.3999999996
 21
24.65
  0
LINE
  5
787
100
AcDbEntity
  8
RACCORDO
100
AcDbLine
 62
7
  6
CONTINUOUS
 10
23.1499999996
 20
24.6674550649
 11
22.908803696
 21
24.6674550649
  0
LINE
  5
788
100
AcDbEntity
  8
RACCORDO
100
AcDbLine
 62
7
  6
CONTINUOUS
 10
-22.9088036969
 20
24.6674550649
 11
-23.1500000004
 21
24.6674550649
  0
LINE
  5
789
100
AcDbEntity
  8
RACCORDO
100
AcDbLine
 62
253
  6
CONTINUOUS
 10
-22.9088036969
 20
24.6674550649
 11
-14.5000000004
 21
24.6676073814
  0
LINE
  5
78A
100
AcDbEntity
  8
RACCORDO
100
AcDbLine
 62
253
  6
CONTINUOUS
 10
-8.0000000004
 20
24.6676073814
 11
-0.6000000004
 21
24.6676073814
  0
LINE
  5
78B
100
AcDbEntity
  8
RACCORDO
100
AcDbLine
 62
253
  6
CONTINUOUS
 10
0.5999999996
 20
24.6676073814
 11
7.9999999996
 21
24.6676073814
  0
LINE
  5
78C
100
AcDbEntity
  8
RACCORDO
100
AcDbLine
 62
253
  6
CONTINUOUS
 10
14.4999999996
 20
24.6676073814
 11
22.908803696
 21
24.6674550649
  0
LINE
  5
78D
100
AcDbEntity
  8
RACCORDO
100
AcDbLine
 62
7
  6
CONTINUOUS
 10
-24.3674550654
 20
24.7
 11
-23.1500000004
 21
24.7
  0
LINE
  5
78E
100
AcDbEntity
  8
RACCORDO
100
AcDbLine
 62
7
  6
CONTINUOUS
 10
-0.6000000004
 20
24.7
 11
0.5999999996
 21
24.7
  0
LINE
  5
78F
100
AcDbEntity
  8
RACCORDO
100
AcDbLine
 62
7
  6
CONTINUOUS
 10
8.4999999996
 20
24.7
 11
13.9999999996
 21
24.7
  0
LINE
  5
790
100
AcDbEntity
  8
RACCORDO
100
AcDbLine
 62
7
  6
CONTINUOUS
 10
-8.5000000004
 20
24.7
 11
-14.0000000004
 21
24.7
  0
LINE
  5
791
100
AcDbEntity
  8
RACCORDO
100
AcDbLine
 62
7
  6
CONTINUOUS
 10
23.1499999996
 20
24.7
 11
24.3674550645
 21
24.7
  0
LINE
  5
792
100
AcDbEntity
  8
ASSI
100
AcDbLine
 62
7
  6
CONTINUOUS
 10
13.9999999996
 20
25.05
 11
8.4999999996
 21
25.05
  0
LINE
  5
793
100
AcDbEntity
  8
ASSI
100
AcDbLine
 62
7
  6
CONTINUOUS
 10
-8.5000000004
 20
25.05
 11
-14.0000000004
 21
25.05
  0
LINE
  5
794
100
AcDbEntity
  8
RACCORDO
100
AcDbLine
 62
253
  6
CONTINUOUS
 10
-23.1500000004
 20
25.167531229
 11
-14.5000000004
 21
25.167531229
  0
LINE
  5
795
100
AcDbEntity
  8
RACCORDO
100
AcDbLine
 62
253
  6
CONTINUOUS
 10
-8.0000000004
 20
25.167531229
 11
-0.6000000004
 21
25.167531229
  0
LINE
  5
796
100
AcDbEntity
  8
RACCORDO
100
AcDbLine
 62
253
  6
CONTINUOUS
 10
0.5999999996
 20
25.167531229
 11
7.9999999996
 21
25.167531229
  0
LINE
  5
797
100
AcDbEntity
  8
RACCORDO
100
AcDbLine
 62
253
  6
CONTINUOUS
 10
14.4999999996
 20
25.167531229
 11
23.1499999996
 21
25.167531229
  0
LINE
  5
798
100
AcDbEntity
  8
RACCORDO
100
AcDbLine
 62
253
  6
CONTINUOUS
 10
-24.8675312294
 20
25.2
 11
-23.1500000004
 21
25.2
  0
LINE
  5
799
100
AcDbEntity
  8
RACCORDO
100
AcDbLine
 62
253
  6
CONTINUOUS
 10
-0.6000000004
 20
25.2
 11
0.5999999996
 21
25.2
  0
LINE
  5
79A
100
AcDbEntity
  8
ASSI
100
AcDbLine
 62
7
  6
CONTINUOUS
 10
7.9999999996
 20
25.2
 11
14.4999999996
 21
25.2
  0
LINE
  5
79B
100
AcDbEntity
  8
ASSI
100
AcDbLine
 62
7
  6
CONTINUOUS
 10
-8.0000000004
 20
25.2
 11
-14.5000000004
 21
25.2
  0
LINE
  5
79C
100
AcDbEntity
  8
RACCORDO
100
AcDbLine
 62
253
  6
CONTINUOUS
 10
23.1499999996
 20
25.2
 11
24.8675312285
 21
25.2
  0
LINE
  5
79D
100
AcDbEntity
  8
ASSI
100
AcDbLine
 62
253
  6
CONTINUOUS
 10
-14.0602070871
 20
25.4
 11
-8.4397929138
 21
25.4
  0
LINE
  5
79E
100
AcDbEntity
  8
ASSI
100
AcDbLine
 62
253
  6
CONTINUOUS
 10
8.4397929129
 20
25.4
 11
14.0602070862
 21
25.4
  0
LINE
  5
79F
100
AcDbEntity
  8
ASSI
100
AcDbLine
 62
7
  6
CONTINUOUS
 10
-12.0500000004
 20
26.1
 11
-10.4500000004
 21
26.1
  0
LINE
  5
7A0
100
AcDbEntity
  8
ASSI
100
AcDbLine
 62
7
  6
CONTINUOUS
 10
10.4499999996
 20
26.1
 11
12.0499999996
 21
26.1
  0
LINE
  5
7A1
100
AcDbEntity
  8
ASSI
100
AcDbLine
 62
7
  6
CONTINUOUS
 10
-12.0437644692
 20
26.1232713192
 11
-10.4562355316
 21
26.1232713192
  0
LINE
  5
7A2
100
AcDbEntity
  8
ASSI
100
AcDbLine
 62
7
  6
CONTINUOUS
 10
10.4562355308
 20
26.1232713192
 11
12.0437644684
 21
26.1232713192
  0
LINE
  5
7A3
100
AcDbEntity
  8
DRAFT
100
AcDbLine
 62
7
  6
CONTINUOUS
 10
-13.7000000004
 20
26.35
 11
-13.47135237
 21
26.35
  0
LINE
  5
7A4
100
AcDbEntity
  8
DRAFT
100
AcDbLine
 62
7
  6
CONTINUOUS
 10
-12.5286476309
 20
26.35
 11
-12.4830127023
 21
26.35
  0
LINE
  5
7A5
100
AcDbEntity
  8
DRAFT
100
AcDbLine
 62
7
  6
CONTINUOUS
 10
-10.0169872986
 20
26.35
 11
-9.97135237
 21
26.35
  0
LINE
  5
7A6
100
AcDbEntity
  8
DRAFT
100
AcDbLine
 62
7
  6
CONTINUOUS
 10
-9.0286476309
 20
26.35
 11
-8.8000000004
 21
26.35
  0
LINE
  5
7A7
100
AcDbEntity
  8
DRAFT
100
AcDbLine
 62
7
  6
CONTINUOUS
 10
8.7999999996
 20
26.35
 11
9.02864763
 21
26.35
  0
LINE
  5
7A8
100
AcDbEntity
  8
DRAFT
100
AcDbLine
 62
7
  6
CONTINUOUS
 10
9.9713523691
 20
26.35
 11
10.0169872977
 21
26.35
  0
LINE
  5
7A9
100
AcDbEntity
  8
DRAFT
100
AcDbLine
 62
7
  6
CONTINUOUS
 10
12.4830127014
 20
26.35
 11
12.52864763
 21
26.35
  0
LINE
  5
7AA
100
AcDbEntity
  8
DRAFT
100
AcDbLine
 62
7
  6
CONTINUOUS
 10
13.4713523691
 20
26.35
 11
13.6999999996
 21
26.35
  0
LINE
  5
7AB
100
AcDbEntity
  8
DRAFT
100
AcDbLine
 62
7
  6
CONTINUOUS
 10
-13.7096392965
 20
26.3732713192
 11
-13.4723444374
 21
26.3732713192
  0
LINE
  5
7AC
100
AcDbEntity
  8
DRAFT
100
AcDbLine
 62
7
  6
CONTINUOUS
 10
-12.5276555635
 20
26.3732713192
 11
-12.4767771711
 21
26.3732713192
  0
LINE
  5
7AD
100
AcDbEntity
  8
DRAFT
100
AcDbLine
 62
7
  6
CONTINUOUS
 10
-10.0232228298
 20
26.3732713192
 11
-9.9723444374
 21
26.3732713192
  0
LINE
  5
7AE
100
AcDbEntity
  8
DRAFT
100
AcDbLine
 62
7
  6
CONTINUOUS
 10
-9.0276555635
 20
26.3732713192
 11
-8.7903607044
 21
26.3732713192
  0
LINE
  5
7AF
100
AcDbEntity
  8
DRAFT
100
AcDbLine
 62
7
  6
CONTINUOUS
 10
8.7903607035
 20
26.3732713192
 11
9.0276555626
 21
26.3732713192
  0
LINE
  5
7B0
100
AcDbEntity
  8
DRAFT
100
AcDbLine
 62
7
  6
CONTINUOUS
 10
9.9723444365
 20
26.3732713192
 11
10.0232228289
 21
26.3732713192
  0
LINE
  5
7B1
100
AcDbEntity
  8
DRAFT
100
AcDbLine
 62
7
  6
CONTINUOUS
 10
12.4767771702
 20
26.3732713192
 11
12.5276555626
 21
26.3732713192
  0
LINE
  5
7B2
100
AcDbEntity
  8
DRAFT
100
AcDbLine
 62
7
  6
CONTINUOUS
 10
13.4723444365
 20
26.3732713192
 11
13.7096392956
 21
26.3732713192
  0
LINE
  5
7B3
100
AcDbEntity
  8
DRAFT
100
AcDbLine
 62
7
  6
CONTINUOUS
 10
14.1999999996
 20
26.8075
 11
13.3559932121
 21
26.8075
  0
LINE
  5
7B4
100
AcDbEntity
  8
DRAFT
100
AcDbLine
 62
7
  6
CONTINUOUS
 10
12.644006787
 20
26.8075
 11
11.8499999996
 21
26.8075
  0
LINE
  5
7B5
100
AcDbEntity
  8
DRAFT
100
AcDbLine
 62
7
  6
CONTINUOUS
 10
10.6499999996
 20
26.8075
 11
9.8559932121
 21
26.8075
  0
LINE
  5
7B6
100
AcDbEntity
  8
DRAFT
100
AcDbLine
 62
7
  6
CONTINUOUS
 10
9.144006787
 20
26.8075
 11
8.2999999996
 21
26.8075
  0
LINE
  5
7B7
100
AcDbEntity
  8
DRAFT
100
AcDbLine
 62
7
  6
CONTINUOUS
 10
-8.3000000004
 20
26.8075
 11
-9.1440067879
 21
26.8075
  0
LINE
  5
7B8
100
AcDbEntity
  8
DRAFT
100
AcDbLine
 62
7
  6
CONTINUOUS
 10
-9.855993213
 20
26.8075
 11
-10.6500000004
 21
26.8075
  0
LINE
  5
7B9
100
AcDbEntity
  8
DRAFT
100
AcDbLine
 62
7
  6
CONTINUOUS
 10
-11.8500000004
 20
26.8075
 11
-12.6440067879
 21
26.8075
  0
LINE
  5
7BA
100
AcDbEntity
  8
DRAFT
100
AcDbLine
 62
7
  6
CONTINUOUS
 10
-13.355993213
 20
26.8075
 11
-14.2000000004
 21
26.8075
  0
LINE
  5
7BB
100
AcDbEntity
  8
SMUSSO
100
AcDbLine
 62
7
  6
CONTINUOUS
 10
-14.2000000004
 20
27.1575
 11
-11.8500000004
 21
27.1575
  0
LINE
  5
7BC
100
AcDbEntity
  8
SMUSSO
100
AcDbLine
 62
7
  6
CONTINUOUS
 10
-10.6500000004
 20
27.1575
 11
-8.3000000004
 21
27.1575
  0
LINE
  5
7BD
100
AcDbEntity
  8
SMUSSO
100
AcDbLine
 62
7
  6
CONTINUOUS
 10
8.2999999996
 20
27.1575
 11
10.6499999996
 21
27.1575
  0
LINE
  5
7BE
100
AcDbEntity
  8
SMUSSO
100
AcDbLine
 62
7
  6
CONTINUOUS
 10
11.8499999996
 20
27.1575
 11
14.1999999996
 21
27.1575
  0
LINE
  5
7BF
100
AcDbEntity
  8
DRAFT
100
AcDbLine
 62
253
  6
CONTINUOUS
 10
-9.8258625004
 20
26.8929755853
 11
-9.8326059417
 21
26.8947824849
  0
LINE
  5
7C0
100
AcDbEntity
  8
RACCORDO
100
AcDbLine
 62
253
  6
CONTINUOUS
 10
25.5150594041
 20
8.2849710564
 11
25.5500304605
 21
8.25
  0
LINE
  5
7C1
100
AcDbEntity
  8
RACCORDO
100
AcDbLine
 62
253
  6
CONTINUOUS
 10
25.7150289431
 20
8.4849405955
 11
25.7499999996
 21
8.449969539
  0
LINE
  5
7C2
100
AcDbEntity
  8
RACCORDO
100
AcDbLine
 62
253
  6
CONTINUOUS
 10
24.7497544186
 20
12.7002760419
 11
24.784971056
 21
12.6650594045
  0
LINE
  5
7C3
100
AcDbEntity
  8
RACCORDO
100
AcDbLine
 62
253
  6
CONTINUOUS
 10
24.9499695386
 20
12.9
 11
24.984940595
 21
12.8650289436
  0
LINE
  5
7C4
100
AcDbEntity
  8
RACCORDO
100
AcDbLine
 62
253
  6
CONTINUOUS
 10
24.8675312285
 20
7.7733686226
 11
24.918701766
 21
7.4831660837
  0
LINE
  5
7C5
100
AcDbEntity
  8
ASSI
100
AcDbLine
 62
7
  6
CONTINUOUS
 10
27.5938159996
 20
-36.906117
 11
27.5938159996
 21
-36.489452
  0
LINE
  5
7C6
100
AcDbEntity
  8
DRAFT
100
AcDbLine
 62
7
  6
CONTINUOUS
 10
27.9999999996
 20
45.3447634805
 11
27.9999999996
 21
45.3273084156
  0
LINE
  5
7C7
100
AcDbEntity
  8
DRAFT
100
AcDbLine
 62
7
  6
CONTINUOUS
 10
27.9999999996
 20
-45.3447634805
 11
27.9999999996
 21
-45.3273084156
  0
LINE
  5
7C8
100
AcDbEntity
  8
RACCORDO
100
AcDbLine
 62
7
  6
CONTINUOUS
 10
29.2499999996
 20
45.45
 11
29.2499999996
 21
45.35
  0
LINE
  5
7C9
100
AcDbEntity
  8
RACCORDO
100
AcDbLine
 62
7
  6
CONTINUOUS
 10
29.2499999996
 20
-45.45
 11
29.2499999996
 21
-45.35
  0
LINE
  5
7CA
100
AcDbEntity
  8
0
100
AcDbLine
 62
7
  6
CONTINUOUS
 10
29.5843349043
 20
31.7533762561
 11
29.5843349043
 21
28.522244319
  0
LINE
  5
7CB
100
AcDbEntity
  8
0
100
AcDbLine
 62
7
  6
CONTINUOUS
 10
29.8004535706
 20
28.2467191156
 11
29.8004535706
 21
31.7533762561
  0
LINE
  5
7CC
100
AcDbEntity
  8
0
100
AcDbLine
 62
7
  6
CONTINUOUS
 10
31.9259938316
 20
31.7533762561
 11
31.9259938316
 21
28.2467191156
  0
LINE
  5
7CD
100
AcDbEntity
  8
RACCORDO
100
AcDbLine
 62
253
  6
CONTINUOUS
 10
28.9611931906
 20
-8.4951916764
 11
29.0976479573
 21
-7.7213182393
  0
LINE
  5
7CE
100
AcDbEntity
  8
RACCORDO
100
AcDbLine
 62
7
  6
CONTINUOUS
 10
43.3238174022
 20
17.4476188458
 11
43.3465699131
 21
17.4931377364
  0
LINE
  5
7CF
100
AcDbEntity
  8
RACCORDO
100
AcDbLine
 62
7
  6
CONTINUOUS
 10
44.0999999996
 20
17.4476188458
 11
44.0894051074
 21
17.4264226035
  0
LINE
  5
7D0
100
AcDbEntity
  8
RACCORDO
100
AcDbLine
 62
7
  6
CONTINUOUS
 10
24.49317029
 20
-15.2568297095
 11
24.4754410555
 21
-15.2745589441
  0
LINE
  5
7D1
100
AcDbEntity
  8
ASSI
100
AcDbLine
 62
7
  6
CONTINUOUS
 10
14.0602070862
 20
-25.9897929133
 11
13.6999999996
 21
-26.35
  0
LINE
  5
7D2
100
AcDbEntity
  8
ASSI
100
AcDbLine
 62
7
  6
CONTINUOUS
 10
14.4596311167
 20
-25.6232794982
 11
13.7096392956
 21
-26.3732713192
  0
LINE
  5
7D3
100
AcDbEntity
  8
ASSI
100
AcDbLine
 62
7
  6
CONTINUOUS
 10
14.2599329932
 20
-25.7916264167
 11
14.4596311167
 21
-25.6232794982
  0
LINE
  5
7D4
100
AcDbEntity
  8
ASSI
100
AcDbLine
 62
7
  6
CONTINUOUS
 10
10.4499999996
 20
-26.1
 11
10.0169872977
 21
-26.35
  0
LINE
  5
7D5
100
AcDbEntity
  8
ASSI
100
AcDbLine
 62
7
  6
CONTINUOUS
 10
10.4562355308
 20
-26.1232713192
 11
10.0232228289
 21
-26.3732713192
  0
LINE
  5
7D6
100
AcDbEntity
  8
RACCORDO
100
AcDbLine
 62
7
  6
CONTINUOUS
 10
-17.4476188462
 20
-43.3238174026
 11
-17.4931377368
 21
-43.3465699136
  0
LINE
  5
7D7
100
AcDbEntity
  8
RACCORDO
100
AcDbLine
 62
7
  6
CONTINUOUS
 10
-17.4476188462
 20
-44.1
 11
-17.4264226039
 21
-44.0894051079
  0
LINE
  5
7D8
100
AcDbEntity
  8
DRAFT
100
AcDbLine
 62
253
  6
CONTINUOUS
 10
-9.1672468466
 20
26.8948219304
 11
-9.1741375005
 21
26.8929755853
  0
LINE
  5
7D9
100
AcDbEntity
  8
DRAFT
100
AcDbLine
 62
253
  6
CONTINUOUS
 10
-12.6672468466
 20
26.8948219304
 11
-12.6741375005
 21
26.8929755853
  0
LINE
  5
7DA
100
AcDbEntity
  8
0
100
AcDbLine
 62
7
  6
CONTINUOUS
 10
-27.2732753202
 20
28.1125968881
 11
-26.4417794093
 21
28.1125968881
  0
LINE
  5
7DB
100
AcDbEntity
  8
0
100
AcDbLine
 62
7
  6
CONTINUOUS
 10
-25.163313957
 20
28.1125968881
 11
-24.3602803754
 21
28.1125968881
  0
LINE
  5
7DC
100
AcDbEntity
  8
0
100
AcDbLine
 62
7
  6
CONTINUOUS
 10
-38.6104150004
 20
28.112597
 11
-37.8746980004
 21
28.112597
  0
LINE
  5
7DD
100
AcDbEntity
  8
0
100
AcDbLine
 62
7
  6
CONTINUOUS
 10
-36.2792780004
 20
28.112597
 11
-35.4444230004
 21
28.112597
  0
LINE
  5
7DE
100
AcDbEntity
  8
0
100
AcDbLine
 62
7
  6
CONTINUOUS
 10
-34.9949940004
 20
28.112597
 11
-34.1963100004
 21
28.112597
  0
LINE
  5
7DF
100
AcDbEntity
  8
0
100
AcDbLine
 62
7
  6
CONTINUOUS
 10
-33.0367620004
 20
28.112597
 11
-32.9196740004
 21
28.112597
  0
LINE
  5
7E0
100
AcDbEntity
  8
0
100
AcDbLine
 62
7
  6
CONTINUOUS
 10
-31.7555070004
 20
28.112597
 11
-30.9387970004
 21
28.112597
  0
LINE
  5
7E1
100
AcDbEntity
  8
0
100
AcDbLine
 62
7
  6
CONTINUOUS
 10
-30.8077030004
 20
28.112597
 11
-29.9819050004
 21
28.112597
  0
LINE
  5
7E2
100
AcDbEntity
  8
0
100
AcDbLine
 62
7
  6
CONTINUOUS
 10
-28.3983320004
 20
28.112597
 11
-27.5184290004
 21
28.112597
  0
LINE
  5
7E3
100
AcDbEntity
  8
0
100
AcDbLine
 62
7
  6
CONTINUOUS
 10
15.3017902145
 20
28.2467191156
 11
17.6837737223
 21
28.2467191156
  0
LINE
  5
7E4
100
AcDbEntity
  8
0
100
AcDbLine
 62
7
  6
CONTINUOUS
 10
18.727007516
 20
28.2467191156
 11
18.9431261823
 21
28.2467191156
  0
LINE
  5
7E5
100
AcDbEntity
  8
0
100
AcDbLine
 62
7
  6
CONTINUOUS
 10
19.9667906944
 20
28.2467191156
 11
20.1828764158
 21
28.2467191156
  0
LINE
  5
7E6
100
AcDbEntity
  8
0
100
AcDbLine
 62
7
  6
CONTINUOUS
 10
22.4961368233
 20
28.2467191156
 11
22.7662522113
 21
28.2467191156
  0
LINE
  5
7E7
100
AcDbEntity
  8
0
100
AcDbLine
 62
7
  6
CONTINUOUS
 10
27.0893832705
 20
28.2467191156
 11
27.3054689918
 21
28.2467191156
  0
LINE
  5
7E8
100
AcDbEntity
  8
0
100
AcDbLine
 62
7
  6
CONTINUOUS
 10
29.5450645612
 20
28.2467191156
 11
29.8004535706
 21
28.2467191156
  0
LINE
  5
7E9
100
AcDbEntity
  8
0
100
AcDbLine
 62
7
  6
CONTINUOUS
 10
31.9259938316
 20
28.2467191156
 11
34.3620728958
 21
28.2467191156
  0
LINE
  5
7EA
100
AcDbEntity
  8
0
100
AcDbLine
 62
7
  6
CONTINUOUS
 10
36.2489601662
 20
28.2467191156
 11
36.7793733564
 21
28.2467191156
  0
LINE
  5
7EB
100
AcDbEntity
  8
0
100
AcDbLine
 62
7
  6
CONTINUOUS
 10
17.6837737223
 20
28.4333850247
 11
15.5178759359
 21
28.4333850247
  0
LINE
  5
7EC
100
AcDbEntity
  8
0
100
AcDbLine
 62
7
  6
CONTINUOUS
 10
34.3620728958
 20
28.6396202154
 11
32.3926256593
 21
28.6396202154
  0
LINE
  5
7ED
100
AcDbEntity
  8
0
100
AcDbLine
 62
7
  6
CONTINUOUS
 10
14.1999999996
 20
28.7575
 11
11.8499999996
 21
28.7575
  0
LINE
  5
7EE
100
AcDbEntity
  8
RACCORDO
100
AcDbLine
 62
7
  6
CONTINUOUS
 10
8.2999999996
 20
28.7575
 11
10.6499999996
 21
28.7575
  0
LINE
  5
7EF
100
AcDbEntity
  8
RACCORDO
100
AcDbLine
 62
7
  6
CONTINUOUS
 10
-8.3000000004
 20
28.7575
 11
-10.6500000004
 21
28.7575
  0
LINE
  5
7F0
100
AcDbEntity
  8
0
100
AcDbLine
 62
7
  6
CONTINUOUS
 10
-11.8500000004
 20
28.7575
 11
-14.2000000004
 21
28.7575
  0
LINE
  5
7F1
100
AcDbEntity
  8
0
100
AcDbLine
 62
7
  6
CONTINUOUS
 10
-29.7515370004
 20
28.911042
 11
-28.6146040004
 21
28.911042
  0
LINE
  5
7F2
100
AcDbEntity
  8
RACCORDO
100
AcDbLine
 62
7
  6
CONTINUOUS
 10
-45.4500000004
 20
29.25
 11
-45.3500000004
 21
29.25
  0
LINE
  5
7F3
100
AcDbEntity
  8
RACCORDO
100
AcDbLine
 62
7
  6
CONTINUOUS
 10
45.4499999996
 20
29.25
 11
45.3499999996
 21
29.25
  0
LINE
  5
7F4
100
AcDbEntity
  8
0
100
AcDbLine
 62
7
  6
CONTINUOUS
 10
-28.7814490004
 20
29.528875
 11
-29.5807630004
 21
29.528875
  0
LINE
  5
7F5
100
AcDbEntity
  8
0
100
AcDbLine
 62
7
  6
CONTINUOUS
 10
-26.4417794093
 20
29.6777850682
 11
-25.9941500458
 21
29.6777850682
  0
LINE
  5
7F6
100
AcDbEntity
  8
0
100
AcDbLine
 62
7
  6
CONTINUOUS
 10
32.3926256593
 20
29.8527180097
 11
34.2147432197
 21
29.8527180097
  0
LINE
  5
7F7
100
AcDbEntity
  8
0
100
AcDbLine
 62
7
  6
CONTINUOUS
 10
15.5178759359
 20
29.9754707765
 11
17.5315352532
 21
29.9754707765
  0
LINE
  5
7F8
100
AcDbEntity
  8
0
100
AcDbLine
 62
7
  6
CONTINUOUS
 10
17.5315352532
 20
30.1621366856
 11
15.5178759359
 21
30.1621366856
  0
LINE
  5
7F9
100
AcDbEntity
  8
0
100
AcDbLine
 62
7
  6
CONTINUOUS
 10
34.2147432197
 20
30.2455532196
 11
32.3926256593
 21
30.2455532196
  0
LINE
  5
7FA
100
AcDbEntity
  8
0
100
AcDbLine
 62
7
  6
CONTINUOUS
 10
-25.9923505308
 20
30.3328085387
 11
-26.4694619488
 21
30.3328085387
  0
LINE
  5
7FB
100
AcDbEntity
  8
0
100
AcDbLine
 62
7
  6
CONTINUOUS
 10
32.3926256593
 20
31.3604751563
 11
34.3473135723
 21
31.3604751563
  0
LINE
  5
7FC
100
AcDbEntity
  8
0
100
AcDbLine
 62
7
  6
CONTINUOUS
 10
15.5178759359
 20
31.566710347
 11
17.6592297579
 21
31.566710347
  0
LINE
  5
7FD
100
AcDbEntity
  8
0
100
AcDbLine
 62
7
  6
CONTINUOUS
 10
38.0268656458
 20
31.7533762561
 11
37.5406645364
 21
31.7533762561
  0
LINE
  5
7FE
100
AcDbEntity
  8
0
100
AcDbLine
 62
7
  6
CONTINUOUS
 10
35.5172535232
 20
31.7533762561
 11
35.0113513525
 21
31.7533762561
  0
LINE
  5
7FF
100
AcDbEntity
  8
0
100
AcDbLine
 62
7
  6
CONTINUOUS
 10
34.3473135723
 20
31.7533762561
 11
31.9259938316
 21
31.7533762561
  0
LINE
  5
800
100
AcDbEntity
  8
0
100
AcDbLine
 62
7
  6
CONTINUOUS
 10
29.8004535706
 20
31.7533762561
 11
29.5843349043
 21
31.7533762561
  0
LINE
  5
801
100
AcDbEntity
  8
0
100
AcDbLine
 62
7
  6
CONTINUOUS
 10
27.3595316033
 20
31.7533762561
 11
27.0893832705
 21
31.7533762561
  0
LINE
  5
802
100
AcDbEntity
  8
0
100
AcDbLine
 62
7
  6
CONTINUOUS
 10
22.6680434088
 20
31.7533762561
 11
22.3880774902
 21
31.7533762561
  0
LINE
  5
803
100
AcDbEntity
  8
0
100
AcDbLine
 62
7
  6
CONTINUOUS
 10
20.1828764158
 20
31.7533762561
 11
19.9667906944
 21
31.7533762561
  0
LINE
  5
804
100
AcDbEntity
  8
0
100
AcDbLine
 62
7
  6
CONTINUOUS
 10
18.9431261823
 20
31.7533762561
 11
18.727007516
 21
31.7533762561
  0
LINE
  5
805
100
AcDbEntity
  8
0
100
AcDbLine
 62
7
  6
CONTINUOUS
 10
17.6592297579
 20
31.7533762561
 11
15.3017902145
 21
31.7533762561
  0
LINE
  5
806
100
AcDbEntity
  8
DRAFT
100
AcDbLine
 62
253
  6
CONTINUOUS
 10
9.1741374996
 20
26.8929755853
 11
9.1673940583
 21
26.8947824849
  0
LINE
  5
807
100
AcDbEntity
  8
DRAFT
100
AcDbLine
 62
253
  6
CONTINUOUS
 10
12.6741374996
 20
26.8929755853
 11
12.6673940583
 21
26.8947824849
  0
LINE
  5
808
100
AcDbEntity
  8
RACCORDO
100
AcDbLine
 62
7
  6
CONTINUOUS
 10
-17.4476188462
 20
43.3238174026
 11
-17.4931377368
 21
43.3465699136
  0
LINE
  5
809
100
AcDbEntity
  8
RACCORDO
100
AcDbLine
 62
7
  6
CONTINUOUS
 10
-17.4476188462
 20
44.1
 11
-17.4264226039
 21
44.0894051079
  0
LINE
  5
80A
100
AcDbEntity
  8
ASSI
100
AcDbLine
 62
7
  6
CONTINUOUS
 10
10.0169872977
 20
26.35
 11
10.4499999996
 21
26.1
  0
LINE
  5
80B
100
AcDbEntity
  8
ASSI
100
AcDbLine
 62
7
  6
CONTINUOUS
 10
10.0232228289
 20
26.3732713192
 11
10.4562355308
 21
26.1232713192
  0
LINE
  5
80C
100
AcDbEntity
  8
ASSI
100
AcDbLine
 62
7
  6
CONTINUOUS
 10
14.2599329932
 20
25.7916264167
 11
14.4596311167
 21
25.6232794982
  0
LINE
  5
80D
100
AcDbEntity
  8
RACCORDO
100
AcDbLine
 62
7
  6
CONTINUOUS
 10
24.49317029
 20
15.2568297095
 11
24.4754410555
 21
15.2745589441
  0
LINE
  5
80E
100
AcDbEntity
  8
ASSI
100
AcDbLine
 62
7
  6
CONTINUOUS
 10
13.6999999996
 20
26.35
 11
14.0602070862
 21
25.9897929133
  0
LINE
  5
80F
100
AcDbEntity
  8
ASSI
100
AcDbLine
 62
7
  6
CONTINUOUS
 10
13.7096392956
 20
26.3732713192
 11
14.4596311167
 21
25.6232794982
  0
LINE
  5
810
100
AcDbEntity
  8
RACCORDO
100
AcDbLine
 62
7
  6
CONTINUOUS
 10
43.3238174022
 20
-17.4476188458
 11
43.3465699131
 21
-17.4931377364
  0
LINE
  5
811
100
AcDbEntity
  8
RACCORDO
100
AcDbLine
 62
7
  6
CONTINUOUS
 10
44.0999999996
 20
-17.4476188458
 11
44.0894051074
 21
-17.4264226035
  0
LINE
  5
812
100
AcDbEntity
  8
RACCORDO
100
AcDbLine
 62
253
  6
CONTINUOUS
 10
29.0976479573
 20
7.7213182393
 11
28.9611931906
 21
8.4951916764
  0
LINE
  5
813
100
AcDbEntity
  8
0
100
AcDbLine
 62
7
  6
CONTINUOUS
 10
32.3926256593
 20
28.6396202154
 11
32.3926256593
 21
29.8527180097
  0
LINE
  5
814
100
AcDbEntity
  8
0
100
AcDbLine
 62
7
  6
CONTINUOUS
 10
32.3926256593
 20
30.2455532196
 11
32.3926256593
 21
31.3604751563
  0
LINE
  5
815
100
AcDbEntity
  8
0
100
AcDbLine
 62
7
  6
CONTINUOUS
 10
34.2147432197
 20
29.8527180097
 11
34.2147432197
 21
30.2455532196
  0
LINE
  5
816
100
AcDbEntity
  8
0
100
AcDbLine
 62
7
  6
CONTINUOUS
 10
34.3473135723
 20
31.3604751563
 11
34.3473135723
 21
31.7533762561
  0
LINE
  5
817
100
AcDbEntity
  8
0
100
AcDbLine
 62
7
  6
CONTINUOUS
 10
34.3620728958
 20
28.2467191156
 11
34.3620728958
 21
28.6396202154
  0
LINE
  5
818
100
AcDbEntity
  8
ASSI
100
AcDbLine
 62
7
  6
CONTINUOUS
 10
36.1324459996
 20
-37.5480370105
 11
36.1324459996
 21
-36.7972200113
  0
LINE
  5
819
100
AcDbEntity
  8
ASSI
100
AcDbLine
 62
7
  6
CONTINUOUS
 10
36.1324459996
 20
-33.20278
 11
36.1324459996
 21
-32.451963
  0
LINE
  5
81A
100
AcDbEntity
  8
DRAFT
100
AcDbLine
 62
7
  6
CONTINUOUS
 10
43.008882578
 20
12.5701517255
 11
42.9999999996
 21
12.5523811542
  0
LINE
  5
81B
100
AcDbEntity
  8
DRAFT
100
AcDbLine
 62
7
  6
CONTINUOUS
 10
-12.5701517259
 20
-43.0088825784
 11
-12.5523811547
 21
-43.0
  0
LINE
  5
81C
100
AcDbEntity
  8
0
100
AcDbLine
 62
7
  6
CONTINUOUS
 10
-28.7455790004
 20
32.112109
 11
-29.5532010004
 21
32.112109
  0
LINE
  5
81D
100
AcDbEntity
  8
0
100
AcDbLine
 62
7
  6
CONTINUOUS
 10
-31.3127970004
 20
32.112109
 11
-32.1388040004
 21
32.112109
  0
LINE
  5
81E
100
AcDbEntity
  8
0
100
AcDbLine
 62
7
  6
CONTINUOUS
 10
-33.7996960004
 20
32.112109
 11
-34.6338620004
 21
32.112109
  0
LINE
  5
81F
100
AcDbEntity
  8
0
100
AcDbLine
 62
7
  6
CONTINUOUS
 10
-36.5890950004
 20
32.112109
 11
-37.4233800004
 21
32.112109
  0
LINE
  5
820
100
AcDbEntity
  8
0
100
AcDbLine
 62
7
  6
CONTINUOUS
 10
-38.9714280004
 20
32.112109
 11
-39.8783380004
 21
32.112109
  0
LINE
  5
821
100
AcDbEntity
  8
0
100
AcDbLine
 62
7
  6
CONTINUOUS
 10
-35.4444230004
 20
32.112349
 11
-36.2792780004
 21
32.112349
  0
LINE
  5
822
100
AcDbEntity
  8
DRAFT
100
AcDbLine
 62
7
  6
CONTINUOUS
 10
-12.5701517259
 20
43.0088825784
 11
-12.5523811547
 21
43.0
  0
LINE
  5
823
100
AcDbEntity
  8
0
100
AcDbLine
 62
7
  6
CONTINUOUS
 10
20.9097731008
 20
30.147377362
 11
22.4961368233
 21
28.2467191156
  0
LINE
  5
824
100
AcDbEntity
  8
0
100
AcDbLine
 62
7
  6
CONTINUOUS
 10
22.7662522113
 20
28.2467191156
 11
21.0669203627
 21
30.2947070382
  0
LINE
  5
825
100
AcDbEntity
  8
DRAFT
100
AcDbLine
 62
7
  6
CONTINUOUS
 10
43.008882578
 20
-12.5701517255
 11
42.9999999996
 21
-12.5523811542
  0
LINE
  5
826
100
AcDbEntity
  8
ASSI
100
AcDbLine
 62
7
  6
CONTINUOUS
 10
40.1175559996
 20
-35.375
 11
40.1175559996
 21
-34.625
  0
LINE
  5
827
100
AcDbEntity
  8
ASSI
100
AcDbLine
 62
7
  6
CONTINUOUS
 10
40.5175559996
 20
-37.5480371278
 11
40.5175559996
 21
-36.7972166714
  0
LINE
  5
828
100
AcDbEntity
  8
ASSI
100
AcDbLine
 62
7
  6
CONTINUOUS
 10
40.5175559996
 20
-33.20278
 11
40.5175559996
 21
-32.4519631508
  0
LINE
  5
829
100
AcDbEntity
  8
ASSI
100
AcDbLine
 62
7
  6
CONTINUOUS
 10
26.0353241759
 20
-36.7187406859
 11
26.227120936
 21
-36.3770221132
  0
LINE
  5
82A
100
AcDbEntity
  8
0
100
AcDbLine
 62
7
  6
CONTINUOUS
 10
29.5843349043
 20
28.522244319
 11
27.3595316033
 21
31.7533762561
  0
LINE
  5
82B
100
AcDbEntity
  8
0
100
AcDbLine
 62
7
  6
CONTINUOUS
 10
27.3054689918
 20
31.5024896875
 11
29.5450645612
 21
28.2467191156
  0
LINE
  5
82C
100
AcDbEntity
  8
DRAFT
100
AcDbLine
 62
7
  6
CONTINUOUS
 10
42.0499999996
 20
17.65
 11
42.0499999996
 21
12.35
  0
LINE
  5
82D
100
AcDbEntity
  8
DRAFT
100
AcDbLine
 62
7
  6
CONTINUOUS
 10
42.0499999996
 20
-12.35
 11
42.0499999996
 21
-17.65
  0
LINE
  5
82E
100
AcDbEntity
  8
DRAFT
100
AcDbLine
 62
7
  6
CONTINUOUS
 10
42.9999999996
 20
-17.4476188458
 11
42.9999999996
 21
-12.5523811542
  0
LINE
  5
82F
100
AcDbEntity
  8
DRAFT
100
AcDbLine
 62
7
  6
CONTINUOUS
 10
42.9999999996
 20
12.5523811542
 11
42.9999999996
 21
17.4476188458
  0
LINE
  5
830
100
AcDbEntity
  8
DRAFT
100
AcDbLine
 62
7
  6
CONTINUOUS
 10
43.008882578
 20
-17.4298482745
 11
43.008882578
 21
-12.5701517255
  0
LINE
  5
831
100
AcDbEntity
  8
DRAFT
100
AcDbLine
 62
7
  6
CONTINUOUS
 10
43.008882578
 20
12.5701517255
 11
43.008882578
 21
17.4298482745
  0
LINE
  5
832
100
AcDbEntity
  8
DRAFT
100
AcDbLine
 62
7
  6
CONTINUOUS
 10
43.0325449346
 20
43.0325449351
 11
43.0325449346
 21
17.65
  0
LINE
  5
833
100
AcDbEntity
  8
DRAFT
100
AcDbLine
 62
7
  6
CONTINUOUS
 10
43.0325449346
 20
12.35
 11
43.0325449346
 21
-12.35
  0
LINE
  5
834
100
AcDbEntity
  8
DRAFT
100
AcDbLine
 62
7
  6
CONTINUOUS
 10
43.0325449346
 20
-17.65
 11
43.0325449346
 21
-43.0325449351
  0
LINE
  5
835
100
AcDbEntity
  8
DRAFT
100
AcDbLine
 62
7
  6
CONTINUOUS
 10
43.0499999996
 20
43.05
 11
43.0499999996
 21
17.6325449351
  0
LINE
  5
836
100
AcDbEntity
  8
DRAFT
100
AcDbLine
 62
7
  6
CONTINUOUS
 10
43.0499999996
 20
12.3674550649
 11
43.0499999996
 21
-12.3674550649
  0
LINE
  5
837
100
AcDbEntity
  8
DRAFT
100
AcDbLine
 62
7
  6
CONTINUOUS
 10
43.0499999996
 20
-17.6325449351
 11
43.0499999996
 21
-43.05
  0
LINE
  5
838
100
AcDbEntity
  8
DRAFT
100
AcDbLine
 62
7
  6
CONTINUOUS
 10
43.2473817398
 20
-17.6325449351
 11
43.2473817398
 21
-17.4476188458
  0
LINE
  5
839
100
AcDbEntity
  8
DRAFT
100
AcDbLine
 62
7
  6
CONTINUOUS
 10
43.2473817398
 20
-12.5523811542
 11
43.2473817398
 21
-12.3674550649
  0
LINE
  5
83A
100
AcDbEntity
  8
DRAFT
100
AcDbLine
 62
7
  6
CONTINUOUS
 10
43.2473817398
 20
12.3674550649
 11
43.2473817398
 21
12.5523811542
  0
LINE
  5
83B
100
AcDbEntity
  8
DRAFT
100
AcDbLine
 62
7
  6
CONTINUOUS
 10
43.2473817398
 20
17.4476188458
 11
43.2473817398
 21
17.6325449351
  0
LINE
  5
83C
100
AcDbEntity
  8
DRAFT
100
AcDbLine
 62
253
  6
CONTINUOUS
 10
43.3499999996
 20
45.5320638083
 11
43.3499999996
 21
45.45
  0
LINE
  5
83D
100
AcDbEntity
  8
DRAFT
100
AcDbLine
 62
253
  6
CONTINUOUS
 10
43.3499999996
 20
-45.5320638083
 11
43.3499999996
 21
-45.45
  0
LINE
  5
83E
100
AcDbEntity
  8
DRAFT
100
AcDbLine
 62
7
  6
CONTINUOUS
 10
43.4999999996
 20
-17.4126980763
 11
43.4999999996
 21
-12.5873019237
  0
LINE
  5
83F
100
AcDbEntity
  8
DRAFT
100
AcDbLine
 62
7
  6
CONTINUOUS
 10
43.4999999996
 20
12.5873019237
 11
43.4999999996
 21
17.4126980763
  0
LINE
  5
840
100
AcDbEntity
  8
RACCORDO
100
AcDbLine
 62
253
  6
CONTINUOUS
 10
43.6894660294
 20
17.4126980763
 11
43.6894660294
 21
12.5873019237
  0
LINE
  5
841
100
AcDbEntity
  8
RACCORDO
100
AcDbLine
 62
253
  6
CONTINUOUS
 10
43.6894660294
 20
-12.5873019237
 11
43.6894660294
 21
-17.4126980763
  0
LINE
  5
842
100
AcDbEntity
  8
RACCORDO
100
AcDbLine
 62
7
  6
CONTINUOUS
 10
44.0499999996
 20
-43.3501066134
 11
44.0499999996
 21
-17.6325449351
  0
LINE
  5
843
100
AcDbEntity
  8
DRAFT
100
AcDbLine
 62
7
  6
CONTINUOUS
 10
44.0499999996
 20
-12.3674550649
 11
44.0499999996
 21
12.3674550649
  0
LINE
  5
844
100
AcDbEntity
  8
RACCORDO
100
AcDbLine
 62
7
  6
CONTINUOUS
 10
44.0499999996
 20
17.6325449351
 11
44.0499999996
 21
43.3501066134
  0
LINE
  5
845
100
AcDbEntity
  8
RACCORDO
100
AcDbLine
 62
7
  6
CONTINUOUS
 10
44.072691584
 20
-43.3727981978
 11
44.072691584
 21
-17.6098533507
  0
LINE
  5
846
100
AcDbEntity
  8
DRAFT
100
AcDbLine
 62
7
  6
CONTINUOUS
 10
44.072691584
 20
-12.3901466493
 11
44.072691584
 21
12.3901466493
  0
LINE
  5
847
100
AcDbEntity
  8
RACCORDO
100
AcDbLine
 62
7
  6
CONTINUOUS
 10
44.072691584
 20
17.6098533507
 11
44.072691584
 21
43.3727981978
  0
LINE
  5
848
100
AcDbEntity
  8
RACCORDO
100
AcDbLine
 62
253
  6
CONTINUOUS
 10
44.0894051074
 20
17.4264226035
 11
44.0894051074
 21
12.5735773965
  0
LINE
  5
849
100
AcDbEntity
  8
RACCORDO
100
AcDbLine
 62
253
  6
CONTINUOUS
 10
44.0894051074
 20
-12.5735773965
 11
44.0894051074
 21
-17.4264226035
  0
LINE
  5
84A
100
AcDbEntity
  8
DRAFT
100
AcDbLine
 62
7
  6
CONTINUOUS
 10
44.0999999996
 20
-17.4476188458
 11
44.0999999996
 21
-12.5523811542
  0
LINE
  5
84B
100
AcDbEntity
  8
DRAFT
100
AcDbLine
 62
7
  6
CONTINUOUS
 10
44.0999999996
 20
12.5523811542
 11
44.0999999996
 21
17.4476188458
  0
LINE
  5
84C
100
AcDbEntity
  8
DRAFT
100
AcDbLine
 62
7
  6
CONTINUOUS
 10
44.3098533502
 20
17.6098533507
 11
44.3098533502
 21
12.3901466493
  0
LINE
  5
84D
100
AcDbEntity
  8
DRAFT
100
AcDbLine
 62
7
  6
CONTINUOUS
 10
44.3098533502
 20
-12.3901466493
 11
44.3098533502
 21
-17.6098533507
  0
LINE
  5
84E
100
AcDbEntity
  8
RACCORDO
100
AcDbLine
 62
7
  6
CONTINUOUS
 10
45.3098533502
 20
43.3101579604
 11
45.3098533502
 21
-43.3101579604
  0
LINE
  5
84F
100
AcDbEntity
  8
RACCORDO
100
AcDbLine
 62
7
  6
CONTINUOUS
 10
45.3499999996
 20
43.3503046097
 11
45.3499999996
 21
29.0
  0
LINE
  5
850
100
AcDbEntity
  8
DRAFT
100
AcDbLine
 62
7
  6
CONTINUOUS
 10
45.3499999996
 20
29.0
 11
45.3499999996
 21
-29.0
  0
LINE
  5
851
100
AcDbEntity
  8
RACCORDO
100
AcDbLine
 62
7
  6
CONTINUOUS
 10
45.3499999996
 20
-29.0
 11
45.3499999996
 21
-43.3503046097
  0
LINE
  5
852
100
AcDbEntity
  8
DRAFT
100
AcDbLine
 62
7
  6
CONTINUOUS
 10
45.4499999996
 20
-43.35
 11
45.4499999996
 21
43.35
  0
LINE
  5
853
100
AcDbEntity
  8
DRAFT
100
AcDbLine
 62
7
  6
CONTINUOUS
 10
45.5320638079
 20
43.35
 11
45.5320638079
 21
-43.35
  0
LINE
  5
854
100
AcDbEntity
  8
RACCORDO
100
AcDbLine
 62
7
  6
CONTINUOUS
 10
43.3238174022
 20
-12.5523811542
 11
43.3465699131
 21
-12.5068622636
  0
LINE
  5
855
100
AcDbEntity
  8
RACCORDO
100
AcDbLine
 62
7
  6
CONTINUOUS
 10
44.0999999996
 20
-12.5523811542
 11
44.0894051074
 21
-12.5735773965
  0
LINE
  5
856
100
AcDbEntity
  8
ASSI
100
AcDbLine
 62
7
  6
CONTINUOUS
 10
28.5089319996
 20
-38.229018
 11
28.7263599996
 21
-37.92078
  0
LINE
  5
857
100
AcDbEntity
  8
DRAFT
100
AcDbLine
 62
7
  6
CONTINUOUS
 10
17.6499999996
 20
-43.0325449351
 11
17.6325449346
 21
-43.05
  0
LINE
  5
858
100
AcDbEntity
  8
DRAFT
100
AcDbLine
 62
7
  6
CONTINUOUS
 10
43.0325449346
 20
-17.65
 11
43.0499999996
 21
-17.6325449351
  0
LINE
  5
859
100
AcDbEntity
  8
DRAFT
100
AcDbLine
 62
7
  6
CONTINUOUS
 10
17.6325449346
 20
-44.05
 11
17.6098533502
 21
-44.0726915844
  0
LINE
  5
85A
100
AcDbEntity
  8
DRAFT
100
AcDbLine
 62
7
  6
CONTINUOUS
 10
44.0499999996
 20
-17.6325449351
 11
44.072691584
 21
-17.6098533507
  0
LINE
  5
85B
100
AcDbEntity
  8
ASSI
100
AcDbLine
 62
7
  6
CONTINUOUS
 10
28.3937793886
 20
-33.6064256722
 11
27.2247039996
 21
-34.591613
  0
LINE
  5
85C
100
AcDbEntity
  8
ASSI
100
AcDbLine
 62
7
  6
CONTINUOUS
 10
27.2247039996
 20
-35.103309
 11
28.3395358978
 21
-34.1638330858
  0
LINE
  5
85D
100
AcDbEntity
  8
RACCORDO
100
AcDbLine
 62
7
  6
CONTINUOUS
 10
12.5523811538
 20
-43.3238174026
 11
12.5068622632
 21
-43.3465699136
  0
LINE
  5
85E
100
AcDbEntity
  8
RACCORDO
100
AcDbLine
 62
7
  6
CONTINUOUS
 10
12.5523811538
 20
-44.1
 11
12.5735773961
 21
-44.0894051079
  0
LINE
  5
85F
100
AcDbEntity
  8
DRAFT
100
AcDbLine
 62
7
  6
CONTINUOUS
 10
-17.6500000004
 20
42.05
 11
-12.3500000004
 21
42.05
  0
LINE
  5
860
100
AcDbEntity
  8
DRAFT
100
AcDbLine
 62
7
  6
CONTINUOUS
 10
12.3499999996
 20
42.05
 11
17.6499999996
 21
42.05
  0
LINE
  5
861
100
AcDbEntity
  8
DRAFT
100
AcDbLine
 62
7
  6
CONTINUOUS
 10
17.4476188453
 20
43.0
 11
12.5523811538
 21
43.0
  0
LINE
  5
862
100
AcDbEntity
  8
DRAFT
100
AcDbLine
 62
7
  6
CONTINUOUS
 10
-12.5523811547
 20
43.0
 11
-17.4476188462
 21
43.0
  0
LINE
  5
863
100
AcDbEntity
  8
DRAFT
100
AcDbLine
 62
7
  6
CONTINUOUS
 10
17.4298482741
 20
43.0088825784
 11
12.570151725
 21
43.0088825784
  0
LINE
  5
864
100
AcDbEntity
  8
DRAFT
100
AcDbLine
 62
7
  6
CONTINUOUS
 10
-12.5701517259
 20
43.0088825784
 11
-17.429848275
 21
43.0088825784
  0
LINE
  5
865
100
AcDbEntity
  8
DRAFT
100
AcDbLine
 62
7
  6
CONTINUOUS
 10
-43.0325449355
 20
43.0325449351
 11
-17.6500000004
 21
43.0325449351
  0
LINE
  5
866
100
AcDbEntity
  8
DRAFT
100
AcDbLine
 62
7
  6
CONTINUOUS
 10
-12.3500000004
 20
43.0325449351
 11
12.3499999996
 21
43.0325449351
  0
LINE
  5
867
100
AcDbEntity
  8
DRAFT
100
AcDbLine
 62
7
  6
CONTINUOUS
 10
17.6499999996
 20
43.0325449351
 11
43.0325449346
 21
43.0325449351
  0
LINE
  5
868
100
AcDbEntity
  8
DRAFT
100
AcDbLine
 62
7
  6
CONTINUOUS
 10
-43.0500000004
 20
43.05
 11
-17.6325449355
 21
43.05
  0
LINE
  5
869
100
AcDbEntity
  8
DRAFT
100
AcDbLine
 62
7
  6
CONTINUOUS
 10
-12.3674550654
 20
43.05
 11
12.3674550645
 21
43.05
  0
LINE
  5
86A
100
AcDbEntity
  8
DRAFT
100
AcDbLine
 62
7
  6
CONTINUOUS
 10
17.6325449346
 20
43.05
 11
43.0499999996
 21
43.05
  0
LINE
  5
86B
100
AcDbEntity
  8
DRAFT
100
AcDbLine
 62
7
  6
CONTINUOUS
 10
17.6325449346
 20
43.2473817403
 11
17.4476188453
 21
43.2473817403
  0
LINE
  5
86C
100
AcDbEntity
  8
DRAFT
100
AcDbLine
 62
7
  6
CONTINUOUS
 10
12.5523811538
 20
43.2473817403
 11
12.3674550645
 21
43.2473817403
  0
LINE
  5
86D
100
AcDbEntity
  8
DRAFT
100
AcDbLine
 62
7
  6
CONTINUOUS
 10
-12.3674550654
 20
43.2473817403
 11
-12.5523811547
 21
43.2473817403
  0
LINE
  5
86E
100
AcDbEntity
  8
DRAFT
100
AcDbLine
 62
7
  6
CONTINUOUS
 10
-17.4476188462
 20
43.2473817403
 11
-17.6325449355
 21
43.2473817403
  0
LINE
  5
86F
100
AcDbEntity
  8
DRAFT
100
AcDbLine
 62
253
  6
CONTINUOUS
 10
45.5320638079
 20
43.35
 11
45.4499999996
 21
43.35
  0
LINE
  5
870
100
AcDbEntity
  8
DRAFT
100
AcDbLine
 62
253
  6
CONTINUOUS
 10
-45.5320638088
 20
43.35
 11
-45.4500000004
 21
43.35
  0
LINE
  5
871
100
AcDbEntity
  8
DRAFT
100
AcDbLine
 62
7
  6
CONTINUOUS
 10
17.4126980758
 20
43.5
 11
12.5873019233
 21
43.5
  0
LINE
  5
872
100
AcDbEntity
  8
DRAFT
100
AcDbLine
 62
7
  6
CONTINUOUS
 10
-12.5873019242
 20
43.5
 11
-17.4126980767
 21
43.5
  0
LINE
  5
873
100
AcDbEntity
  8
RACCORDO
100
AcDbLine
 62
253
  6
CONTINUOUS
 10
-17.4126980767
 20
43.6894660298
 11
-12.5873019242
 21
43.6894660298
  0
LINE
  5
874
100
AcDbEntity
  8
RACCORDO
100
AcDbLine
 62
253
  6
CONTINUOUS
 10
12.5873019233
 20
43.6894660298
 11
17.4126980758
 21
43.6894660298
  0
LINE
  5
875
100
AcDbEntity
  8
RACCORDO
100
AcDbLine
 62
7
  6
CONTINUOUS
 10
43.3501066129
 20
44.05
 11
17.6325449346
 21
44.05
  0
LINE
  5
876
100
AcDbEntity
  8
DRAFT
100
AcDbLine
 62
7
  6
CONTINUOUS
 10
12.3674550645
 20
44.05
 11
-12.3674550654
 21
44.05
  0
LINE
  5
877
100
AcDbEntity
  8
RACCORDO
100
AcDbLine
 62
7
  6
CONTINUOUS
 10
-17.6325449355
 20
44.05
 11
-43.3501066138
 21
44.05
  0
LINE
  5
878
100
AcDbEntity
  8
RACCORDO
100
AcDbLine
 62
7
  6
CONTINUOUS
 10
43.3727981973
 20
44.0726915844
 11
17.6098533502
 21
44.0726915844
  0
LINE
  5
879
100
AcDbEntity
  8
DRAFT
100
AcDbLine
 62
7
  6
CONTINUOUS
 10
12.3901466489
 20
44.0726915844
 11
-12.3901466498
 21
44.0726915844
  0
LINE
  5
87A
100
AcDbEntity
  8
RACCORDO
100
AcDbLine
 62
7
  6
CONTINUOUS
 10
-17.6098533511
 20
44.0726915844
 11
-43.3727981982
 21
44.0726915844
  0
LINE
  5
87B
100
AcDbEntity
  8
RACCORDO
100
AcDbLine
 62
253
  6
CONTINUOUS
 10
-17.4264226039
 20
44.0894051079
 11
-12.573577397
 21
44.0894051079
  0
LINE
  5
87C
100
AcDbEntity
  8
RACCORDO
100
AcDbLine
 62
253
  6
CONTINUOUS
 10
12.5735773961
 20
44.0894051079
 11
17.426422603
 21
44.0894051079
  0
LINE
  5
87D
100
AcDbEntity
  8
DRAFT
100
AcDbLine
 62
7
  6
CONTINUOUS
 10
17.4476188453
 20
44.1
 11
12.5523811538
 21
44.1
  0
LINE
  5
87E
100
AcDbEntity
  8
DRAFT
100
AcDbLine
 62
7
  6
CONTINUOUS
 10
-12.5523811547
 20
44.1
 11
-17.4476188462
 21
44.1
  0
LINE
  5
87F
100
AcDbEntity
  8
DRAFT
100
AcDbLine
 62
7
  6
CONTINUOUS
 10
-17.6098533511
 20
44.3098533507
 11
-12.3901466498
 21
44.3098533507
  0
LINE
  5
880
100
AcDbEntity
  8
DRAFT
100
AcDbLine
 62
7
  6
CONTINUOUS
 10
12.3901466489
 20
44.3098533507
 11
17.6098533502
 21
44.3098533507
  0
LINE
  5
881
100
AcDbEntity
  8
RACCORDO
100
AcDbLine
 62
7
  6
CONTINUOUS
 10
43.3101579599
 20
45.3098533507
 11
-43.3101579608
 21
45.3098533507
  0
LINE
  5
882
100
AcDbEntity
  8
DRAFT
100
AcDbLine
 62
7
  6
CONTINUOUS
 10
27.9999999996
 20
45.3273084156
 11
21.9999999996
 21
45.3273084156
  0
LINE
  5
883
100
AcDbEntity
  8
DRAFT
100
AcDbLine
 62
7
  6
CONTINUOUS
 10
-22.0000000004
 20
45.3273084156
 11
-28.0000000004
 21
45.3273084156
  0
LINE
  5
884
100
AcDbEntity
  8
DRAFT
100
AcDbLine
 62
7
  6
CONTINUOUS
 10
27.9999999996
 20
45.3447634805
 11
21.9999999996
 21
45.3447634805
  0
LINE
  5
885
100
AcDbEntity
  8
DRAFT
100
AcDbLine
 62
7
  6
CONTINUOUS
 10
-22.0000000004
 20
45.3447634805
 11
-28.0000000004
 21
45.3447634805
  0
LINE
  5
886
100
AcDbEntity
  8
RACCORDO
100
AcDbLine
 62
7
  6
CONTINUOUS
 10
-43.3503046101
 20
45.35
 11
-29.0000000004
 21
45.35
  0
LINE
  5
887
100
AcDbEntity
  8
DRAFT
100
AcDbLine
 62
7
  6
CONTINUOUS
 10
-29.0000000004
 20
45.35
 11
28.9999999996
 21
45.35
  0
LINE
  5
888
100
AcDbEntity
  8
RACCORDO
100
AcDbLine
 62
7
  6
CONTINUOUS
 10
28.9999999996
 20
45.35
 11
43.3503046092
 21
45.35
  0
LINE
  5
889
100
AcDbEntity
  8
DRAFT
100
AcDbLine
 62
7
  6
CONTINUOUS
 10
-43.3500000004
 20
45.45
 11
43.3499999996
 21
45.45
  0
LINE
  5
88A
100
AcDbEntity
  8
DRAFT
100
AcDbLine
 62
7
  6
CONTINUOUS
 10
-43.3500000004
 20
45.5320638083
 11
43.3499999996
 21
45.5320638083
  0
LINE
  5
88B
100
AcDbEntity
  8
RACCORDO
100
AcDbLine
 62
7
  6
CONTINUOUS
 10
12.5523811538
 20
43.3238174026
 11
12.5068622632
 21
43.3465699136
  0
LINE
  5
88C
100
AcDbEntity
  8
RACCORDO
100
AcDbLine
 62
7
  6
CONTINUOUS
 10
12.5523811538
 20
44.1
 11
12.5735773961
 21
44.0894051079
  0
LINE
  5
88D
100
AcDbEntity
  8
DRAFT
100
AcDbLine
 62
7
  6
CONTINUOUS
 10
43.0325449346
 20
17.65
 11
43.0499999996
 21
17.6325449351
  0
LINE
  5
88E
100
AcDbEntity
  8
DRAFT
100
AcDbLine
 62
7
  6
CONTINUOUS
 10
17.6499999996
 20
43.0325449351
 11
17.6325449346
 21
43.05
  0
LINE
  5
88F
100
AcDbEntity
  8
DRAFT
100
AcDbLine
 62
7
  6
CONTINUOUS
 10
44.0499999996
 20
17.6325449351
 11
44.072691584
 21
17.6098533507
  0
LINE
  5
890
100
AcDbEntity
  8
DRAFT
100
AcDbLine
 62
7
  6
CONTINUOUS
 10
17.6325449346
 20
44.05
 11
17.6098533502
 21
44.0726915844
  0
LINE
  5
891
100
AcDbEntity
  8
RACCORDO
100
AcDbLine
 62
7
  6
CONTINUOUS
 10
43.3238174022
 20
12.5523811542
 11
43.3465699131
 21
12.5068622636
  0
LINE
  5
892
100
AcDbEntity
  8
RACCORDO
100
AcDbLine
 62
7
  6
CONTINUOUS
 10
44.0999999996
 20
12.5523811542
 11
44.0894051074
 21
12.5735773965
  0
LINE
  5
893
100
AcDbEntity
  8
0
100
AcDbLine
 62
7
  6
CONTINUOUS
 10
35.0113513525
 20
31.7533762561
 11
36.2489601662
 21
28.2467191156
  0
LINE
  5
894
100
AcDbEntity
  8
0
100
AcDbLine
 62
7
  6
CONTINUOUS
 10
36.5239599286
 20
28.6982964382
 11
35.5172535232
 21
31.7533762561
  0
LINE
  5
895
100
AcDbEntity
  8
DRAFT
100
AcDbLine
 62
253
  6
CONTINUOUS
 10
46.1499999996
 20
-46.65
 11
46.1499999996
 21
-47.65
  0
LINE
  5
896
100
AcDbEntity
  8
DRAFT
100
AcDbLine
 62
253
  6
CONTINUOUS
 10
46.1499999996
 20
46.65
 11
46.1500000005
 21
47.65
  0
LINE
  5
897
100
AcDbEntity
  8
SMUSSO
100
AcDbLine
 62
7
  6
CONTINUOUS
 10
46.6499999996
 20
-46.15
 11
46.6499999996
 21
46.15
  0
LINE
  5
898
100
AcDbEntity
  8
SMUSSO
100
AcDbLine
 62
253
  6
CONTINUOUS
 10
46.6999999996
 20
-47.5448617253
 11
46.6999999996
 21
-47.7
  0
LINE
  5
899
100
AcDbEntity
  8
SMUSSO
100
AcDbLine
 62
253
  6
CONTINUOUS
 10
46.6999999996
 20
47.5448617257
 11
46.6999999996
 21
47.7
  0
LINE
  5
89A
100
AcDbEntity
  8
DRAFT
100
AcDbLine
 62
7
  6
CONTINUOUS
 10
47.6499999996
 20
-46.150000001
 11
47.6499999996
 21
46.15
  0
LINE
  5
89B
100
AcDbEntity
  8
SMUSSO
100
AcDbLine
 62
7
  6
CONTINUOUS
 10
47.6999999996
 20
-46.7
 11
47.6999999996
 21
46.7
  0
LINE
  5
89C
100
AcDbEntity
  8
DRAFT
100
AcDbLine
 62
7
  6
CONTINUOUS
 10
43.008882578
 20
-17.4298482745
 11
42.9999999996
 21
-17.4476188458
  0
LINE
  5
89D
100
AcDbEntity
  8
DRAFT
100
AcDbLine
 62
7
  6
CONTINUOUS
 10
17.4298482741
 20
-43.0088825784
 11
17.4476188453
 21
-43.0
  0
LINE
  5
89E
100
AcDbEntity
  8
DRAFT
100
AcDbLine
 62
253
  6
CONTINUOUS
 10
46.6499999996
 20
46.15
 11
47.6499999996
 21
46.15
  0
LINE
  5
89F
100
AcDbEntity
  8
DRAFT
100
AcDbLine
 62
253
  6
CONTINUOUS
 10
-46.6500000004
 20
46.15
 11
-47.6500000004
 21
46.150000001
  0
LINE
  5
8A0
100
AcDbEntity
  8
SMUSSO
100
AcDbLine
 62
7
  6
CONTINUOUS
 10
46.1499999996
 20
46.65
 11
-46.1500000004
 21
46.65
  0
LINE
  5
8A1
100
AcDbEntity
  8
SMUSSO
100
AcDbLine
 62
253
  6
CONTINUOUS
 10
47.5448617248
 20
46.7
 11
47.6999999996
 21
46.7
  0
LINE
  5
8A2
100
AcDbEntity
  8
SMUSSO
100
AcDbLine
 62
253
  6
CONTINUOUS
 10
-47.5448617261
 20
46.7
 11
-47.7000000004
 21
46.7
  0
LINE
  5
8A3
100
AcDbEntity
  8
DRAFT
100
AcDbLine
 62
7
  6
CONTINUOUS
 10
46.1500000005
 20
47.65
 11
-46.1500000004
 21
47.65
  0
LINE
  5
8A4
100
AcDbEntity
  8
SMUSSO
100
AcDbLine
 62
7
  6
CONTINUOUS
 10
46.6999999996
 20
47.7
 11
-46.7000000004
 21
47.7
  0
LINE
  5
8A5
100
AcDbEntity
  8
DRAFT
100
AcDbLine
 62
7
  6
CONTINUOUS
 10
17.4298482741
 20
43.0088825784
 11
17.4476188453
 21
43.0
  0
LINE
  5
8A6
100
AcDbEntity
  8
DRAFT
100
AcDbLine
 62
7
  6
CONTINUOUS
 10
43.008882578
 20
17.4298482745
 11
42.9999999996
 21
17.4476188458
  0
ARC
  5
8A7
100
AcDbEntity
  8
DRAFT
100
AcDbCircle
 62
7
  6
CONTINUOUS
 10
-43.3500000004
 20
-43.35
 40
2.1820638083
100
AcDbArc
 50
180.0
 51
270.0
  0
ARC
  5
8A8
100
AcDbEntity
  8
DRAFT
100
AcDbCircle
 62
7
  6
CONTINUOUS
 10
-43.3500000004
 20
-43.35
 40
2.1
100
AcDbArc
 50
180.0
 51
270.0
  0
ARC
  5
8A9
100
AcDbEntity
  8
DRAFT
100
AcDbCircle
 62
7
  6
CONTINUOUS
 10
-46.1500000004
 20
-46.15
 40
1.5
100
AcDbArc
 50
180.0
 51
269.9999999622
  0
ARC
  5
8AA
100
AcDbEntity
  8
SMUSSO
100
AcDbCircle
 62
7
  6
CONTINUOUS
 10
-46.7000000004
 20
-46.7
 40
1.0
100
AcDbArc
 50
180.0
 51
270.0
  0
ARC
  5
8AB
100
AcDbEntity
  8
SMUSSO
100
AcDbCircle
 62
7
  6
CONTINUOUS
 10
-46.1500000004
 20
-46.15
 40
0.4999993081
100
AcDbArc
 50
180.0
 51
270.0
  0
ARC
  5
8AC
100
AcDbEntity
  8
RACCORDO
100
AcDbCircle
 62
253
  6
CONTINUOUS
 10
-29.621571532
 20
-4.75
 40
3.8029672949
100
AcDbArc
 50
189.1101701529
 51
280.0
  0
ARC
  5
8AD
100
AcDbEntity
  8
RACCORDO
100
AcDbCircle
 62
253
  6
CONTINUOUS
 10
-29.621571532
 20
-4.75
 40
3.508287914
100
AcDbArc
 50
189.1101701529
 51
280.0
  0
ARC
  5
8AE
100
AcDbEntity
  8
RACCORDO
100
AcDbCircle
 62
253
  6
CONTINUOUS
 10
-29.621571532
 20
-4.75
 40
3.0171556126
100
AcDbArc
 50
189.1101701529
 51
280.0
  0
ARC
  5
8AF
100
AcDbEntity
  8
RACCORDO
100
AcDbCircle
 62
7
  6
CONTINUOUS
 10
-32.0000000004
 20
-13.5
 40
0.5
100
AcDbArc
 50
90.0
 51
270.0
  0
ARC
  5
8B0
100
AcDbEntity
  8
RACCORDO
100
AcDbCircle
 62
7
  6
CONTINUOUS
 10
-32.0000000004
 20
-21.5
 40
0.5
100
AcDbArc
 50
90.0
 51
270.0
  0
ARC
  5
8B1
100
AcDbEntity
  8
RACCORDO
100
AcDbCircle
 62
253
  6
CONTINUOUS
 10
-4.7500000004
 20
-29.6215715316
 40
3.8029672949
100
AcDbArc
 50
80.8898298471
 51
158.9837997328
  0
ARC
  5
8B2
100
AcDbEntity
  8
RACCORDO
100
AcDbCircle
 62
253
  6
CONTINUOUS
 10
-4.7500000004
 20
-29.6215715316
 40
3.8029672949
100
AcDbArc
 50
166.8671697695
 51
260.8898298471
  0
ARC
  5
8B3
100
AcDbEntity
  8
RACCORDO
100
AcDbCircle
 62
253
  6
CONTINUOUS
 10
-4.7500000004
 20
-29.6215715316
 40
3.508287914
100
AcDbArc
 50
80.8898298424
 51
260.8898298484
  0
ARC
  5
8B4
100
AcDbEntity
  8
RACCORDO
100
AcDbCircle
 62
253
  6
CONTINUOUS
 10
-4.7500000004
 20
-29.6215715316
 40
3.0171556126
100
AcDbArc
 50
80.8898298471
 51
260.8898298471
  0
ARC
  5
8B5
100
AcDbEntity
  8
DRAFT
100
AcDbCircle
 62
7
  6
CONTINUOUS
 10
-13.0000000004
 20
-26.8056609916
 40
0.3373576843
100
AcDbArc
 50
195.0
 51
345.0
  0
ARC
  5
8B6
100
AcDbEntity
  8
DRAFT
100
AcDbCircle
 62
7
  6
CONTINUOUS
 10
-9.5000000004
 20
-26.8056609916
 40
0.3373576843
100
AcDbArc
 50
195.0
 51
345.0
  0
ARC
  5
8B7
100
AcDbEntity
  8
RACCORDO
100
AcDbCircle
 62
253
  6
CONTINUOUS
 10
-23.7500000004
 20
-24.1
 40
0.5785135937
100
AcDbArc
 50
99.4324154644
 51
44.459091242
  0
ARC
  5
8B8
100
AcDbEntity
  8
DRAFT
100
AcDbCircle
 62
7
  6
CONTINUOUS
 10
-23.7500000004
 20
-24.1
 40
0.575
100
AcDbArc
 50
45.7992776508
 51
98.781306126
  0
CIRCLE
  5
8B9
100
AcDbEntity
  8
RACCORDO
100
AcDbCircle
 62
7
  6
CONTINUOUS
 10
-23.7500000004
 20
-24.1
 40
0.5553417009
  0
ARC
  5
8BA
100
AcDbEntity
  8
RACCORDO
100
AcDbCircle
 62
7
  6
CONTINUOUS
 10
-8.5000000004
 20
-24.2
 40
0.5
100
AcDbArc
 50
270.0
 51
360.0
  0
ARC
  5
8BB
100
AcDbEntity
  8
RACCORDO
100
AcDbCircle
 62
7
  6
CONTINUOUS
 10
-14.0000000004
 20
-24.2
 40
0.5
100
AcDbArc
 50
184.7738378569
 51
270.0
  0
ARC
  5
8BC
100
AcDbEntity
  8
RACCORDO
100
AcDbCircle
 62
253
  6
CONTINUOUS
 10
-22.7089447497
 20
-23.0089435149
 40
0.3000647124
100
AcDbArc
 50
0.0208812008
 51
89.9788832408
  0
CIRCLE
  5
8BD
100
AcDbEntity
  8
RACCORDO
100
AcDbCircle
 62
253
  6
CONTINUOUS
 10
-23.7500000004
 20
-24.1
 40
0.255353124
  0
ARC
  5
8BE
100
AcDbEntity
  8
RACCORDO
100
AcDbCircle
 62
253
  6
CONTINUOUS
 10
-25.5149761512
 20
-12.6649761508
 40
0.2000539291
100
AcDbArc
 50
180.0238441428
 51
269.9761558572
  0
ARC
  5
8BF
100
AcDbEntity
  8
RACCORDO
100
AcDbCircle
 62
253
  6
CONTINUOUS
 10
-25.5149761512
 20
-8.4850238492
 40
0.2000539292
100
AcDbArc
 50
90.0238441458
 51
179.9761558542
  0
ARC
  5
8C0
100
AcDbEntity
  8
RACCORDO
100
AcDbCircle
 62
253
  6
CONTINUOUS
 10
-24.9850238494
 20
-12.6649761511
 40
0.2000539288
100
AcDbArc
 50
270.0238440581
 51
359.9761559419
  0
ARC
  5
8C1
100
AcDbEntity
  8
RACCORDO
100
AcDbCircle
 62
253
  6
CONTINUOUS
 10
-24.9850238494
 20
-8.4850238489
 40
0.2000539288
100
AcDbArc
 50
0.0238440637
 51
89.9761559363
  0
ARC
  5
8C2
100
AcDbEntity
  8
RACCORDO
100
AcDbCircle
 62
253
  6
CONTINUOUS
 10
-29.621571532
 20
4.75
 40
3.8029672949
100
AcDbArc
 50
80.0
 51
170.8898298471
  0
ARC
  5
8C3
100
AcDbEntity
  8
RACCORDO
100
AcDbCircle
 62
253
  6
CONTINUOUS
 10
-4.7500000004
 20
29.6215715316
 40
3.8029672949
100
AcDbArc
 50
99.1101701529
 51
193.1328292565
  0
ARC
  5
8C4
100
AcDbEntity
  8
RACCORDO
100
AcDbCircle
 62
253
  6
CONTINUOUS
 10
-4.7500000004
 20
29.6215715316
 40
3.8029672949
100
AcDbArc
 50
201.0160323675
 51
279.1101701529
  0
ARC
  5
8C5
100
AcDbEntity
  8
RACCORDO
100
AcDbCircle
 62
253
  6
CONTINUOUS
 10
-4.7500000004
 20
29.6215715316
 40
3.508287914
100
AcDbArc
 50
99.1101701491
 51
279.1101701543
  0
ARC
  5
8C6
100
AcDbEntity
  8
RACCORDO
100
AcDbCircle
 62
253
  6
CONTINUOUS
 10
-29.621571532
 20
4.75
 40
3.508287914
100
AcDbArc
 50
80.0
 51
170.8898298471
  0
ARC
  5
8C7
100
AcDbEntity
  8
RACCORDO
100
AcDbCircle
 62
253
  6
CONTINUOUS
 10
-4.7500000004
 20
29.6215715316
 40
3.0171556126
100
AcDbArc
 50
99.1101701529
 51
279.1101701529
  0
ARC
  5
8C8
100
AcDbEntity
  8
RACCORDO
100
AcDbCircle
 62
253
  6
CONTINUOUS
 10
-29.621571532
 20
4.75
 40
3.0171556126
100
AcDbArc
 50
80.0
 51
170.8898298471
  0
ARC
  5
8C9
100
AcDbEntity
  8
DRAFT
100
AcDbCircle
 62
7
  6
CONTINUOUS
 10
-43.3500000004
 20
43.35
 40
2.1820638083
100
AcDbArc
 50
90.0
 51
180.0
  0
ARC
  5
8CA
100
AcDbEntity
  8
DRAFT
100
AcDbCircle
 62
7
  6
CONTINUOUS
 10
-43.3500000004
 20
43.35
 40
2.1
100
AcDbArc
 50
90.0
 51
180.0
  0
ARC
  5
8CB
100
AcDbEntity
  8
DRAFT
100
AcDbCircle
 62
7
  6
CONTINUOUS
 10
-46.1500000004
 20
46.15
 40
1.5
100
AcDbArc
 50
90.0
 51
179.9999999622
  0
ARC
  5
8CC
100
AcDbEntity
  8
SMUSSO
100
AcDbCircle
 62
7
  6
CONTINUOUS
 10
-46.7000000004
 20
46.7
 40
1.0
100
AcDbArc
 50
90.0
 51
180.0
  0
ARC
  5
8CD
100
AcDbEntity
  8
RACCORDO
100
AcDbCircle
 62
253
  6
CONTINUOUS
 10
-23.7500000004
 20
24.1
 40
0.5785135937
100
AcDbArc
 50
315.540908758
 51
260.5675845356
  0
ARC
  5
8CE
100
AcDbEntity
  8
DRAFT
100
AcDbCircle
 62
7
  6
CONTINUOUS
 10
-23.7500000004
 20
24.1
 40
0.575
100
AcDbArc
 50
261.218693874
 51
314.2007223492
  0
CIRCLE
  5
8CF
100
AcDbEntity
  8
RACCORDO
100
AcDbCircle
 62
7
  6
CONTINUOUS
 10
-23.7500000004
 20
24.1
 40
0.5553417009
  0
ARC
  5
8D0
100
AcDbEntity
  8
RACCORDO
100
AcDbCircle
 62
7
  6
CONTINUOUS
 10
-8.5000000004
 20
24.2
 40
0.5
100
AcDbArc
 50
4.7738378569
 51
90.0
  0
ARC
  5
8D1
100
AcDbEntity
  8
RACCORDO
100
AcDbCircle
 62
7
  6
CONTINUOUS
 10
-14.0000000004
 20
24.2
 40
0.5
100
AcDbArc
 50
90.0
 51
175.2428308406
  0
ARC
  5
8D2
100
AcDbEntity
  8
RACCORDO
100
AcDbCircle
 62
7
  6
CONTINUOUS
 10
-32.0000000004
 20
13.5
 40
0.5
100
AcDbArc
 50
90.0
 51
270.0
  0
ARC
  5
8D3
100
AcDbEntity
  8
RACCORDO
100
AcDbCircle
 62
7
  6
CONTINUOUS
 10
-32.0000000004
 20
21.5
 40
0.5
100
AcDbArc
 50
90.0
 51
270.0
  0
ARC
  5
8D4
100
AcDbEntity
  8
SMUSSO
100
AcDbCircle
 62
7
  6
CONTINUOUS
 10
-46.1500000004
 20
46.15
 40
0.4999993081
100
AcDbArc
 50
90.0
 51
180.0
  0
ARC
  5
8D5
100
AcDbEntity
  8
DRAFT
100
AcDbCircle
 62
7
  6
CONTINUOUS
 10
-13.0000000004
 20
26.8056609916
 40
0.3373576843
100
AcDbArc
 50
15.0
 51
165.0
  0
ARC
  5
8D6
100
AcDbEntity
  8
DRAFT
100
AcDbCircle
 62
7
  6
CONTINUOUS
 10
-9.5000000004
 20
26.8056609916
 40
0.3373576843
100
AcDbArc
 50
15.0
 51
165.0
  0
ARC
  5
8D7
100
AcDbEntity
  8
RACCORDO
100
AcDbCircle
 62
253
  6
CONTINUOUS
 10
-22.7089435109
 20
23.0089447449
 40
0.3000647124
100
AcDbArc
 50
270.0208803645
 51
359.978884077
  0
CIRCLE
  5
8D8
100
AcDbEntity
  8
RACCORDO
100
AcDbCircle
 62
253
  6
CONTINUOUS
 10
-23.7500000004
 20
24.1
 40
0.255353124
  0
ARC
  5
8D9
100
AcDbEntity
  8
RACCORDO
100
AcDbCircle
 62
253
  6
CONTINUOUS
 10
-25.5149761512
 20
12.6649761508
 40
0.2000539292
100
AcDbArc
 50
90.0238441458
 51
179.9761558542
  0
ARC
  5
8DA
100
AcDbEntity
  8
RACCORDO
100
AcDbCircle
 62
253
  6
CONTINUOUS
 10
-25.5149761512
 20
8.4850238492
 40
0.2000539292
100
AcDbArc
 50
180.0238441458
 51
269.9761558542
  0
ARC
  5
8DB
100
AcDbEntity
  8
RACCORDO
100
AcDbCircle
 62
253
  6
CONTINUOUS
 10
-24.9850238494
 20
12.6649761511
 40
0.2000539288
100
AcDbArc
 50
0.0238440592
 51
89.9761559408
  0
ARC
  5
8DC
100
AcDbEntity
  8
RACCORDO
100
AcDbCircle
 62
253
  6
CONTINUOUS
 10
-24.9850238494
 20
8.4850238489
 40
0.2000539288
100
AcDbArc
 50
270.0238440638
 51
359.9761559362
  0
ARC
  5
8DD
100
AcDbEntity
  8
RACCORDO
100
AcDbCircle
 62
253
  6
CONTINUOUS
 10
4.7499999996
 20
-29.6215715316
 40
3.8029672949
100
AcDbArc
 50
21.0160323675
 51
99.1101701529
  0
ARC
  5
8DE
100
AcDbEntity
  8
RACCORDO
100
AcDbCircle
 62
253
  6
CONTINUOUS
 10
4.7499999996
 20
-29.6215715316
 40
3.8029672949
100
AcDbArc
 50
279.1101701529
 51
13.1328292565
  0
ARC
  5
8DF
100
AcDbEntity
  8
RACCORDO
100
AcDbCircle
 62
253
  6
CONTINUOUS
 10
4.7499999996
 20
-29.6215715316
 40
3.508287914
100
AcDbArc
 50
279.1101701491
 51
99.1101701543
  0
ARC
  5
8E0
100
AcDbEntity
  8
RACCORDO
100
AcDbCircle
 62
253
  6
CONTINUOUS
 10
4.7499999996
 20
-29.6215715316
 40
3.0171556126
100
AcDbArc
 50
279.1101701529
 51
99.1101701529
  0
ARC
  5
8E1
100
AcDbEntity
  8
DRAFT
100
AcDbCircle
 62
7
  6
CONTINUOUS
 10
12.9999999996
 20
-26.8056609916
 40
0.3373576843
100
AcDbArc
 50
195.0
 51
345.0
  0
ARC
  5
8E2
100
AcDbEntity
  8
DRAFT
100
AcDbCircle
 62
7
  6
CONTINUOUS
 10
9.4999999996
 20
-26.8056609916
 40
0.3373576843
100
AcDbArc
 50
195.0
 51
345.0
  0
ARC
  5
8E3
100
AcDbEntity
  8
RACCORDO
100
AcDbCircle
 62
253
  6
CONTINUOUS
 10
23.7499999996
 20
-24.1
 40
0.5785135937
100
AcDbArc
 50
135.540908758
 51
80.5675845356
  0
ARC
  5
8E4
100
AcDbEntity
  8
DRAFT
100
AcDbCircle
 62
7
  6
CONTINUOUS
 10
23.7499999996
 20
-24.1
 40
0.575
100
AcDbArc
 50
81.218693874
 51
134.2007223492
  0
CIRCLE
  5
8E5
100
AcDbEntity
  8
RACCORDO
100
AcDbCircle
 62
7
  6
CONTINUOUS
 10
23.7499999996
 20
-24.1
 40
0.5553417009
  0
ARC
  5
8E6
100
AcDbEntity
  8
RACCORDO
100
AcDbCircle
 62
7
  6
CONTINUOUS
 10
13.9999999996
 20
-24.2
 40
0.5
100
AcDbArc
 50
270.0
 51
355.2428308406
  0
ARC
  5
8E7
100
AcDbEntity
  8
RACCORDO
100
AcDbCircle
 62
7
  6
CONTINUOUS
 10
8.4999999996
 20
-24.2
 40
0.5
100
AcDbArc
 50
184.7738378569
 51
270.0
  0
ARC
  5
8E8
100
AcDbEntity
  8
RACCORDO
100
AcDbCircle
 62
253
  6
CONTINUOUS
 10
22.7089435158
 20
-23.0089447478
 40
0.3000647124
100
AcDbArc
 50
90.0208814725
 51
179.9788835125
  0
CIRCLE
  5
8E9
100
AcDbEntity
  8
RACCORDO
100
AcDbCircle
 62
253
  6
CONTINUOUS
 10
23.7499999996
 20
-24.1
 40
0.255353124
  0
ARC
  5
8EA
100
AcDbEntity
  8
RACCORDO
100
AcDbCircle
 62
253
  6
CONTINUOUS
 10
25.5149761504
 20
-8.4850238492
 40
0.2000539291
100
AcDbArc
 50
0.0238441402
 51
89.9761558598
  0
ARC
  5
8EB
100
AcDbEntity
  8
RACCORDO
100
AcDbCircle
 62
253
  6
CONTINUOUS
 10
25.5149761503
 20
-12.6649761508
 40
0.2000539292
100
AcDbArc
 50
270.023844147
 51
359.976155853
  0
ARC
  5
8EC
100
AcDbEntity
  8
RACCORDO
100
AcDbCircle
 62
253
  6
CONTINUOUS
 10
24.9850238485
 20
-8.4850238489
 40
0.2000539288
100
AcDbArc
 50
90.0238440589
 51
179.9761559411
  0
ARC
  5
8ED
100
AcDbEntity
  8
RACCORDO
100
AcDbCircle
 62
253
  6
CONTINUOUS
 10
24.9850238485
 20
-12.6649761511
 40
0.2000539288
100
AcDbArc
 50
180.0238440583
 51
269.9761559417
  0
ARC
  5
8EE
100
AcDbEntity
  8
ASSI
100
AcDbCircle
 62
7
  6
CONTINUOUS
 10
26.9999999996
 20
-35.0
 40
2.6237424326
100
AcDbArc
 50
292.0885384701
 51
273.4297403372
  0
ARC
  5
8EF
100
AcDbEntity
  8
ASSI
100
AcDbCircle
 62
7
  6
CONTINUOUS
 10
40.4175559996
 20
-35.0
 40
2.5499986575
100
AcDbArc
 50
87.7525289614
 51
272.247470793
  0
ARC
  5
8F0
100
AcDbEntity
  8
ASSI
100
AcDbCircle
 62
7
  6
CONTINUOUS
 10
36.0324459996
 20
-35.0
 40
2.5499985399
100
AcDbArc
 50
87.7525290943
 51
272.2474708964
  0
ARC
  5
8F1
100
AcDbEntity
  8
ASSI
100
AcDbCircle
 62
7
  6
CONTINUOUS
 10
26.9206429996
 20
-39.946093
 40
2.3390187052
100
AcDbArc
 50
47.2312712626
 51
84.2012689375
  0
ARC
  5
8F2
100
AcDbEntity
  8
ASSI
100
AcDbCircle
 62
7
  6
CONTINUOUS
 10
27.1047219996
 20
-39.567224
 40
2.3109495123
100
AcDbArc
 50
45.4348886633
 51
67.5658624856
  0
CIRCLE
  5
8F3
100
AcDbEntity
  8
ASSI
100
AcDbCircle
 62
7
  6
CONTINUOUS
 10
26.9999999996
 20
-35.0
 40
2.20376
  0
ARC
  5
8F4
100
AcDbEntity
  8
DRAFT
100
AcDbCircle
 62
7
  6
CONTINUOUS
 10
43.3499999996
 20
-43.35
 40
2.1820638083
100
AcDbArc
 50
270.0
 51
360.0
  0
ARC
  5
8F5
100
AcDbEntity
  8
DRAFT
100
AcDbCircle
 62
7
  6
CONTINUOUS
 10
43.3499999996
 20
-43.35
 40
2.1
100
AcDbArc
 50
270.0
 51
360.0
  0
ARC
  5
8F6
100
AcDbEntity
  8
ASSI
100
AcDbCircle
 62
7
  6
CONTINUOUS
 10
26.9999999996
 20
-35.0
 40
1.9709567246
100
AcDbArc
 50
299.3041457634
 51
44.9957848404
  0
ARC
  5
8F7
100
AcDbEntity
  8
ASSI
100
AcDbCircle
 62
7
  6
CONTINUOUS
 10
26.9999999996
 20
-35.0
 40
1.9709563643
100
AcDbArc
 50
134.9002846268
 51
240.6958542366
  0
ARC
  5
8F8
100
AcDbEntity
  8
ASSI
100
AcDbCircle
 62
7
  6
CONTINUOUS
 10
40.4175559996
 20
-35.0
 40
1.7999999246
100
AcDbArc
 50
86.8152613297
 51
167.9752999293
  0
ARC
  5
8F9
100
AcDbEntity
  8
ASSI
100
AcDbCircle
 62
7
  6
CONTINUOUS
 10
36.0324459996
 20
-35.0
 40
1.7999999246
100
AcDbArc
 50
90.7274526594
 51
273.1847386504
  0
ARC
  5
8FA
100
AcDbEntity
  8
ASSI
100
AcDbCircle
 62
7
  6
CONTINUOUS
 10
40.4175559996
 20
-35.0
 40
1.7999968808
100
AcDbArc
 50
192.0247203293
 51
273.1847445565
  0
ARC
  5
8FB
100
AcDbEntity
  8
ASSI
100
AcDbCircle
 62
7
  6
CONTINUOUS
 10
26.9999999996
 20
-35.0
 40
1.5790921275
100
AcDbArc
 50
148.0267086216
 51
240.6958772397
  0
ARC
  5
8FC
100
AcDbEntity
  8
ASSI
100
AcDbCircle
 62
7
  6
CONTINUOUS
 10
26.9999999996
 20
-35.0
 40
1.5790919977
100
AcDbArc
 50
299.3041227603
 51
31.9732906939
  0
ARC
  5
8FD
100
AcDbEntity
  8
DRAFT
100
AcDbCircle
 62
7
  6
CONTINUOUS
 10
46.1499999996
 20
-46.15
 40
1.5
100
AcDbArc
 50
270.0
 51
359.9999999622
  0
ARC
  5
8FE
100
AcDbEntity
  8
SMUSSO
100
AcDbCircle
 62
7
  6
CONTINUOUS
 10
46.6999999996
 20
-46.7
 40
1.0
100
AcDbArc
 50
270.0
 51
360.0
  0
ARC
  5
8FF
100
AcDbEntity
  8
SMUSSO
100
AcDbCircle
 62
7
  6
CONTINUOUS
 10
46.1499999996
 20
-46.15
 40
0.4999993081
100
AcDbArc
 50
270.0
 51
360.0
  0
ARC
  5
900
100
AcDbEntity
  8
RACCORDO
100
AcDbCircle
 62
253
  6
CONTINUOUS
 10
29.6215715311
 20
-4.75
 40
3.8029672949
100
AcDbArc
 50
260.0
 51
350.8898298471
  0
ARC
  5
901
100
AcDbEntity
  8
RACCORDO
100
AcDbCircle
 62
253
  6
CONTINUOUS
 10
29.6215715311
 20
-4.75
 40
3.508287914
100
AcDbArc
 50
260.0
 51
350.8898298471
  0
ARC
  5
902
100
AcDbEntity
  8
RACCORDO
100
AcDbCircle
 62
253
  6
CONTINUOUS
 10
29.6215715311
 20
-4.75
 40
3.0171556126
100
AcDbArc
 50
260.0
 51
350.8898298471
  0
ARC
  5
903
100
AcDbEntity
  8
RACCORDO
100
AcDbCircle
 62
7
  6
CONTINUOUS
 10
31.9999999996
 20
-13.5
 40
0.5
100
AcDbArc
 50
270.0
 51
90.0
  0
ARC
  5
904
100
AcDbEntity
  8
RACCORDO
100
AcDbCircle
 62
7
  6
CONTINUOUS
 10
31.9999999996
 20
-21.5
 40
0.5
100
AcDbArc
 50
270.0
 51
90.0
  0
ARC
  5
905
100
AcDbEntity
  8
RACCORDO
100
AcDbCircle
 62
253
  6
CONTINUOUS
 10
-0.0000000004
 20
0.0
 40
33.8029672949
100
AcDbArc
 50
170.8898298471
 51
189.1101701529
  0
ARC
  5
906
100
AcDbEntity
  8
RACCORDO
100
AcDbCircle
 62
253
  6
CONTINUOUS
 10
-0.0000000004
 20
0.0
 40
33.8029672949
100
AcDbArc
 50
260.8898298471
 51
279.1101701529
  0
ARC
  5
907
100
AcDbEntity
  8
RACCORDO
100
AcDbCircle
 62
253
  6
CONTINUOUS
 10
-0.0000000004
 20
0.0
 40
33.8029672949
100
AcDbArc
 50
350.8898298471
 51
9.1101701529
  0
ARC
  5
908
100
AcDbEntity
  8
RACCORDO
100
AcDbCircle
 62
253
  6
CONTINUOUS
 10
-0.0000000004
 20
0.0
 40
33.8029672949
100
AcDbArc
 50
80.8898298471
 51
99.1101701529
  0
ARC
  5
909
100
AcDbEntity
  8
RACCORDO
100
AcDbCircle
 62
253
  6
CONTINUOUS
 10
-0.0000000004
 20
0.0
 40
33.508287914
100
AcDbArc
 50
350.8898298471
 51
9.1101701529
  0
ARC
  5
90A
100
AcDbEntity
  8
RACCORDO
100
AcDbCircle
 62
253
  6
CONTINUOUS
 10
-0.0000000004
 20
0.0
 40
33.508287914
100
AcDbArc
 50
170.8898298471
 51
189.1101701529
  0
ARC
  5
90B
100
AcDbEntity
  8
RACCORDO
100
AcDbCircle
 62
253
  6
CONTINUOUS
 10
-0.0000000004
 20
0.0
 40
33.508287914
100
AcDbArc
 50
260.8898298471
 51
279.1101701529
  0
ARC
  5
90C
100
AcDbEntity
  8
RACCORDO
100
AcDbCircle
 62
253
  6
CONTINUOUS
 10
-0.0000000004
 20
0.0
 40
33.508287914
100
AcDbArc
 50
80.8898298471
 51
99.1101701529
  0
ARC
  5
90D
100
AcDbEntity
  8
RACCORDO
100
AcDbCircle
 62
253
  6
CONTINUOUS
 10
-0.0000000004
 20
0.0
 40
33.0171556126
100
AcDbArc
 50
80.8898298471
 51
99.1101701529
  0
ARC
  5
90E
100
AcDbEntity
  8
RACCORDO
100
AcDbCircle
 62
253
  6
CONTINUOUS
 10
-0.0000000004
 20
0.0
 40
33.0171556126
100
AcDbArc
 50
170.8898298471
 51
189.1101701529
  0
ARC
  5
90F
100
AcDbEntity
  8
RACCORDO
100
AcDbCircle
 62
253
  6
CONTINUOUS
 10
-0.0000000004
 20
0.0
 40
33.0171556126
100
AcDbArc
 50
350.8898298471
 51
9.1101701529
  0
ARC
  5
910
100
AcDbEntity
  8
RACCORDO
100
AcDbCircle
 62
253
  6
CONTINUOUS
 10
-0.0000000004
 20
0.0
 40
33.0171556126
100
AcDbArc
 50
260.8898298471
 51
279.1101701529
  0
ARC
  5
911
100
AcDbEntity
  8
RACCORDO
100
AcDbCircle
 62
253
  6
CONTINUOUS
 10
-0.0000000004
 20
0.0
 40
26.9828443874
100
AcDbArc
 50
80.8898298471
 51
99.1101701529
  0
ARC
  5
912
100
AcDbEntity
  8
RACCORDO
100
AcDbCircle
 62
253
  6
CONTINUOUS
 10
-0.0000000004
 20
0.0
 40
26.9828443874
100
AcDbArc
 50
260.8898298471
 51
279.1101701529
  0
ARC
  5
913
100
AcDbEntity
  8
RACCORDO
100
AcDbCircle
 62
253
  6
CONTINUOUS
 10
-0.0000000004
 20
0.0
 40
26.491712086
100
AcDbArc
 50
260.8898298471
 51
279.1101701529
  0
ARC
  5
914
100
AcDbEntity
  8
RACCORDO
100
AcDbCircle
 62
253
  6
CONTINUOUS
 10
-0.0000000004
 20
0.0
 40
26.491712086
100
AcDbArc
 50
80.8898298471
 51
99.1101701529
  0
ARC
  5
915
100
AcDbEntity
  8
RACCORDO
100
AcDbCircle
 62
253
  6
CONTINUOUS
 10
-0.0000000004
 20
0.0
 40
26.1970327051
100
AcDbArc
 50
260.8898298471
 51
279.1101701529
  0
ARC
  5
916
100
AcDbEntity
  8
RACCORDO
100
AcDbCircle
 62
253
  6
CONTINUOUS
 10
-0.0000000004
 20
0.0
 40
26.1970327051
100
AcDbArc
 50
80.8898298471
 51
99.1101701529
  0
ARC
  5
917
100
AcDbEntity
  8
RACCORDO
100
AcDbCircle
 62
253
  6
CONTINUOUS
 10
22.708944743
 20
23.0089435119
 40
0.3000647124
100
AcDbArc
 50
180.0208806363
 51
269.9788843488
  0
ARC
  5
918
100
AcDbEntity
  8
RACCORDO
100
AcDbCircle
 62
253
  6
CONTINUOUS
 10
4.7499999996
 20
29.6215715316
 40
3.8029672949
100
AcDbArc
 50
346.8671697695
 51
80.8898298471
  0
ARC
  5
919
100
AcDbEntity
  8
RACCORDO
100
AcDbCircle
 62
253
  6
CONTINUOUS
 10
4.7499999996
 20
29.6215715316
 40
3.8029672949
100
AcDbArc
 50
260.8898298471
 51
338.9837997328
  0
ARC
  5
91A
100
AcDbEntity
  8
RACCORDO
100
AcDbCircle
 62
253
  6
CONTINUOUS
 10
4.7499999996
 20
29.6215715316
 40
3.508287914
100
AcDbArc
 50
260.8898298424
 51
80.8898298484
  0
ARC
  5
91B
100
AcDbEntity
  8
RACCORDO
100
AcDbCircle
 62
253
  6
CONTINUOUS
 10
4.7499999996
 20
29.6215715316
 40
3.0171556126
100
AcDbArc
 50
260.8898298471
 51
80.8898298471
  0
ARC
  5
91C
100
AcDbEntity
  8
RACCORDO
100
AcDbCircle
 62
7
  6
CONTINUOUS
 10
8.4999999996
 20
24.2
 40
0.5
100
AcDbArc
 50
90.0
 51
175.2428308406
  0
ARC
  5
91D
100
AcDbEntity
  8
RACCORDO
100
AcDbCircle
 62
7
  6
CONTINUOUS
 10
13.9999999996
 20
24.2
 40
0.5
100
AcDbArc
 50
4.7738378569
 51
90.0
  0
ARC
  5
91E
100
AcDbEntity
  8
DRAFT
100
AcDbCircle
 62
7
  6
CONTINUOUS
 10
12.9999999996
 20
26.8056609916
 40
0.3373576843
100
AcDbArc
 50
15.0
 51
165.0
  0
ARC
  5
91F
100
AcDbEntity
  8
DRAFT
100
AcDbCircle
 62
7
  6
CONTINUOUS
 10
9.4999999996
 20
26.8056609916
 40
0.3373576843
100
AcDbArc
 50
15.0
 51
165.0
  0
ARC
  5
920
100
AcDbEntity
  8
RACCORDO
100
AcDbCircle
 62
253
  6
CONTINUOUS
 10
29.6215715311
 20
4.75
 40
3.8029672949
100
AcDbArc
 50
9.1101701529
 51
100.0
  0
ARC
  5
921
100
AcDbEntity
  8
RACCORDO
100
AcDbCircle
 62
253
  6
CONTINUOUS
 10
29.6215715311
 20
4.75
 40
3.508287914
100
AcDbArc
 50
9.1101701529
 51
100.0
  0
ARC
  5
922
100
AcDbEntity
  8
RACCORDO
100
AcDbCircle
 62
253
  6
CONTINUOUS
 10
29.6215715311
 20
4.75
 40
3.0171556126
100
AcDbArc
 50
9.1101701529
 51
100.0
  0
ARC
  5
923
100
AcDbEntity
  8
RACCORDO
100
AcDbCircle
 62
7
  6
CONTINUOUS
 10
31.9999999996
 20
13.5
 40
0.5
100
AcDbArc
 50
270.0
 51
90.0
  0
ARC
  5
924
100
AcDbEntity
  8
RACCORDO
100
AcDbCircle
 62
7
  6
CONTINUOUS
 10
31.9999999996
 20
21.5
 40
0.5
100
AcDbArc
 50
270.0
 51
90.0
  0
ARC
  5
925
100
AcDbEntity
  8
RACCORDO
100
AcDbCircle
 62
253
  6
CONTINUOUS
 10
25.5149761504
 20
12.6649761508
 40
0.2000539291
100
AcDbArc
 50
0.0238441398
 51
89.9761558602
  0
ARC
  5
926
100
AcDbEntity
  8
RACCORDO
100
AcDbCircle
 62
253
  6
CONTINUOUS
 10
25.5149761503
 20
8.4850238492
 40
0.2000539292
100
AcDbArc
 50
270.0238441526
 51
359.9761558474
  0
ARC
  5
927
100
AcDbEntity
  8
RACCORDO
100
AcDbCircle
 62
253
  6
CONTINUOUS
 10
24.9850238484
 20
12.6649761511
 40
0.2000539288
100
AcDbArc
 50
90.0238440511
 51
179.9761559489
  0
ARC
  5
928
100
AcDbEntity
  8
RACCORDO
100
AcDbCircle
 62
253
  6
CONTINUOUS
 10
24.9850238484
 20
8.4850238489
 40
0.2000539288
100
AcDbArc
 50
180.0238440516
 51
269.9761559484
  0
ARC
  5
929
100
AcDbEntity
  8
DRAFT
100
AcDbCircle
 62
7
  6
CONTINUOUS
 10
43.3499999996
 20
43.35
 40
2.1820638083
100
AcDbArc
 50
0.0
 51
90.0
  0
ARC
  5
92A
100
AcDbEntity
  8
DRAFT
100
AcDbCircle
 62
7
  6
CONTINUOUS
 10
43.3499999996
 20
43.35
 40
2.1
100
AcDbArc
 50
0.0
 51
90.0
  0
ARC
  5
92B
100
AcDbEntity
  8
DRAFT
100
AcDbCircle
 62
7
  6
CONTINUOUS
 10
46.1499999996
 20
46.15
 40
1.5
100
AcDbArc
 50
0.0
 51
89.9999999622
  0
ARC
  5
92C
100
AcDbEntity
  8
SMUSSO
100
AcDbCircle
 62
7
  6
CONTINUOUS
 10
46.6999999996
 20
46.7
 40
1.0
100
AcDbArc
 50
0.0
 51
90.0
  0
ARC
  5
92D
100
AcDbEntity
  8
RACCORDO
100
AcDbCircle
 62
253
  6
CONTINUOUS
 10
23.7499999996
 20
24.1
 40
0.5785135937
100
AcDbArc
 50
279.4324154644
 51
224.459091242
  0
ARC
  5
92E
100
AcDbEntity
  8
DRAFT
100
AcDbCircle
 62
7
  6
CONTINUOUS
 10
23.7499999996
 20
24.1
 40
0.575
100
AcDbArc
 50
225.7992776508
 51
278.781306126
  0
CIRCLE
  5
92F
100
AcDbEntity
  8
RACCORDO
100
AcDbCircle
 62
7
  6
CONTINUOUS
 10
23.7499999996
 20
24.1
 40
0.5553417009
  0
ARC
  5
930
100
AcDbEntity
  8
SMUSSO
100
AcDbCircle
 62
7
  6
CONTINUOUS
 10
46.1499999996
 20
46.15
 40
0.4999993081
100
AcDbArc
 50
0.0
 51
90.0
  0
CIRCLE
  5
931
100
AcDbEntity
  8
RACCORDO
100
AcDbCircle
 62
253
  6
CONTINUOUS
 10
23.7499999996
 20
24.1
 40
0.255353124
  0
SPLINE
  5
932
100
AcDbEntity
  8
RACCORDO
100
AcDbSpline
 62
7
  6
CONTINUOUS
 70
0
 71
3
 72
13
 73
9
 74
7
 42
0.0000001
 43
0.0000001
 44
0.0000000001
 12
-0.0276004484
 22
-0.0094030314
 32
0.0
 13
-0.0010635633
 23
-0.0291388158
 33
0.0
 40
0.0
 40
0.0
 40
0.0
 40
0.0
 40
0.0211622176
 40
0.0716818702
 40
0.152327627
 40
0.2630012259
 40
0.5734892626
 40
1.0
 40
1.0
 40
1.0
 40
1.0
 10
-23.8448091776
 20
23.5293081409
 30
0.0
 10
-23.8450038732
 20
23.5292418112
 30
0.0
 10
-23.8451559289
 20
23.5283911347
 30
0.0
 10
-23.8454531415
 20
23.5270831014
 30
0.0
 10
-23.8456918482
 20
23.5246660277
 30
0.0
 10
-23.8461132104
 20
23.5198528777
 30
0.0
 10
-23.8465611773
 20
23.5115902846
 30
0.0
 10
-23.8468580911
 20
23.5044456607
 30
0.0
 10
-23.8470092982
 20
23.5003029881
 30
0.0
 11
-23.8448091776
 21
23.5293081409
 31
0.0
 11
-23.8450925914
 21
23.5287600255
 31
0.0
 11
-23.8453756018
 21
23.5273144045
 31
0.0
 11
-23.8456571999
 21
23.5249798399
 31
0.0
 11
-23.8459363771
 21
23.5217648935
 31
0.0
 11
-23.8464834343
 21
23.5127281587
 31
0.0
 11
-23.8470092982
 21
23.5003029881
 31
0.0
  0
SPLINE
  5
933
100
AcDbEntity
  8
RACCORDO
100
AcDbSpline
 62
7
  6
CONTINUOUS
 70
0
 71
3
 72
13
 73
9
 74
7
 42
0.0000001
 43
0.0000001
 44
0.0000000001
 12
0.0010635633
 22
-0.0291388158
 32
0.0
 13
0.0276004484
 23
-0.0094030314
 33
0.0
 40
0.0
 40
0.0
 40
0.0
 40
0.0
 40
0.4265107374
 40
0.7369987741
 40
0.847672373
 40
0.9283181298
 40
0.9788377824
 40
1.0
 40
1.0
 40
1.0
 40
1.0
 10
-23.8470092982
 20
-23.5003029881
 30
0.0
 10
-23.8468580911
 20
-23.5044456607
 30
0.0
 10
-23.8465611773
 20
-23.5115902846
 30
0.0
 10
-23.8461132104
 20
-23.5198528777
 30
0.0
 10
-23.8456918482
 20
-23.5246660277
 30
0.0
 10
-23.8454531415
 20
-23.5270831014
 30
0.0
 10
-23.8451559289
 20
-23.5283911347
 30
0.0
 10
-23.8450038732
 20
-23.5292418112
 30
0.0
 10
-23.8448091776
 20
-23.5293081409
 30
0.0
 11
-23.8470092982
 21
-23.5003029881
 31
0.0
 11
-23.8464834343
 21
-23.5127281587
 31
0.0
 11
-23.8459363771
 21
-23.5217648935
 31
0.0
 11
-23.8456571999
 21
-23.5249798399
 31
0.0
 11
-23.8453756018
 21
-23.5273144045
 31
0.0
 11
-23.8450925914
 21
-23.5287600255
 31
0.0
 11
-23.8448091776
 21
-23.5293081409
 31
0.0
  0
SPLINE
  5
934
100
AcDbEntity
  8
RACCORDO
100
AcDbSpline
 62
7
  6
CONTINUOUS
 70
0
 71
3
 72
13
 73
9
 74
7
 42
0.0000001
 43
0.0000001
 44
0.0000000001
 12
-0.0010635633
 22
0.0291388158
 32
0.0
 13
-0.0276004484
 23
0.0094030314
 33
0.0
 40
0.0
 40
0.0
 40
0.0
 40
0.0
 40
0.4265107374
 40
0.7369987741
 40
0.847672373
 40
0.9283181298
 40
0.9788377824
 40
1.0
 40
1.0
 40
1.0
 40
1.0
 10
23.8470092973
 20
23.5003029881
 30
0.0
 10
23.8468580902
 20
23.5044456607
 30
0.0
 10
23.8465611764
 20
23.5115902846
 30
0.0
 10
23.8461132095
 20
23.5198528777
 30
0.0
 10
23.8456918473
 20
23.5246660277
 30
0.0
 10
23.8454531406
 20
23.5270831014
 30
0.0
 10
23.845155928
 20
23.5283911347
 30
0.0
 10
23.8450038723
 20
23.5292418112
 30
0.0
 10
23.8448091767
 20
23.5293081409
 30
0.0
 11
23.8470092973
 21
23.5003029881
 31
0.0
 11
23.8464834334
 21
23.5127281587
 31
0.0
 11
23.8459363762
 21
23.5217648935
 31
0.0
 11
23.845657199
 21
23.5249798399
 31
0.0
 11
23.8453756009
 21
23.5273144045
 31
0.0
 11
23.8450925905
 21
23.5287600255
 31
0.0
 11
23.8448091767
 21
23.5293081409
 31
0.0
  0
SPLINE
  5
935
100
AcDbEntity
  8
RACCORDO
100
AcDbSpline
 62
7
  6
CONTINUOUS
 70
0
 71
3
 72
13
 73
9
 74
7
 42
0.0000001
 43
0.0000001
 44
0.0000000001
 12
0.0276004484
 22
0.0094030314
 32
0.0
 13
0.0010635633
 23
0.0291388158
 33
0.0
 40
0.0
 40
0.0
 40
0.0
 40
0.0
 40
0.0211622176
 40
0.0716818702
 40
0.152327627
 40
0.2630012259
 40
0.5734892626
 40
1.0
 40
1.0
 40
1.0
 40
1.0
 10
23.8448091767
 20
-23.5293081409
 30
0.0
 10
23.8450038723
 20
-23.5292418112
 30
0.0
 10
23.845155928
 20
-23.5283911347
 30
0.0
 10
23.8454531406
 20
-23.5270831014
 30
0.0
 10
23.8456918473
 20
-23.5246660277
 30
0.0
 10
23.8461132095
 20
-23.5198528777
 30
0.0
 10
23.8465611764
 20
-23.5115902846
 30
0.0
 10
23.8468580902
 20
-23.5044456607
 30
0.0
 10
23.8470092973
 20
-23.5003029881
 30
0.0
 11
23.8448091767
 21
-23.5293081409
 31
0.0
 11
23.8450925905
 21
-23.5287600255
 31
0.0
 11
23.8453756009
 21
-23.5273144045
 31
0.0
 11
23.845657199
 21
-23.5249798399
 31
0.0
 11
23.8459363762
 21
-23.5217648935
 31
0.0
 11
23.8464834334
 21
-23.5127281587
 31
0.0
 11
23.8470092973
 21
-23.5003029881
 31
0.0
  0
SPLINE
  5
936
100
AcDbEntity
  8
RACCORDO
100
AcDbSpline
 62
7
  6
CONTINUOUS
 70
0
 71
3
 72
16
 73
12
 74
10
 42
0.0000001
 43
0.0000001
 44
0.0000000001
 12
-0.1870957841
 22
-0.001658701
 32
0.0
 13
-0.1608205598
 23
-0.0956259968
 33
0.0
 40
0.0
 40
0.0
 40
0.0
 40
0.0
 40
0.3698980917
 40
0.5345168436
 40
0.6816076546
 40
0.8072858431
 40
0.9062941101
 40
0.9438002496
 40
0.9723165035
 40
0.9912302533
 40
1.0
 40
1.0
 40
1.0
 40
1.0
 10
-23.1500909597
 20
23.6992252677
 30
0.0
 10
-23.1731597509
 20
23.6990207509
 30
0.0
 10
-23.2064949367
 20
23.6986613571
 30
0.0
 10
-23.2489995191
 20
23.6980104911
 30
0.0
 10
-23.27627556
 20
23.6974948138
 30
0.0
 10
-23.2994497732
 20
23.6969184938
 30
0.0
 10
-23.315807584
 20
23.6964115161
 30
0.0
 10
-23.3260693413
 20
23.6958988795
 30
0.0
 10
-23.3313934415
 20
23.6956307602
 30
0.0
 10
-23.3348106831
 20
23.6951952147
 30
0.0
 10
-23.3366153929
 20
23.6950887158
 30
0.0
 10
-23.3370855114
 20
23.6948091772
 30
0.0
 11
-23.1500909597
 21
23.6992252677
 31
0.0
 11
-23.2192957219
 21
23.6984510125
 31
0.0
 11
-23.250092717
 21
23.6979742714
 31
0.0
 11
-23.2776086851
 21
23.6974401268
 31
0.0
 11
-23.3011160672
 21
23.6968501962
 31
0.0
 11
-23.3196297031
 21
23.6962083873
 31
0.0
 11
-23.3266390503
 21
23.6958698802
 31
0.0
 11
-23.3319631579
 21
23.6955216978
 31
0.0
 11
-23.3354841626
 21
23.6951670334
 31
0.0
 11
-23.3370855114
 21
23.6948091772
 31
0.0
  0
SPLINE
  5
937
100
AcDbEntity
  8
RACCORDO
100
AcDbSpline
 62
7
  6
CONTINUOUS
 70
0
 71
3
 72
16
 73
12
 74
10
 42
0.0000001
 43
0.0000001
 44
0.0000000001
 12
-0.1608206175
 22
0.0956260311
 32
0.0
 13
-0.1870958513
 23
0.0016587006
 33
0.0
 40
0.0
 40
0.0
 40
0.0
 40
0.0
 40
0.0087697469
 40
0.0276834977
 40
0.0561997514
 40
0.0937058881
 40
0.1927141509
 40
0.318392347
 40
0.4654831671
 40
0.6301019536
 40
1.0
 40
1.0
 40
1.0
 40
1.0
 10
23.3370855106
 20
23.6948091772
 30
0.0
 10
23.3366153918
 20
23.6950887159
 30
0.0
 10
23.3348106812
 20
23.6951952147
 30
0.0
 10
23.3313934384
 20
23.6956307603
 30
0.0
 10
23.3260693364
 20
23.6958988797
 30
0.0
 10
23.3158075759
 20
23.6964115164
 30
0.0
 10
23.2994497591
 20
23.6969184941
 30
0.0
 10
23.2762755369
 20
23.6974948143
 30
0.0
 10
23.248999483
 20
23.6980104918
 30
0.0
 10
23.2064948854
 20
23.6986613577
 30
0.0
 10
23.1731596883
 20
23.6990207515
 30
0.0
 10
23.1500908917
 20
23.6992252682
 30
0.0
 11
23.3370855106
 21
23.6948091772
 31
0.0
 11
23.3354841611
 21
23.6951670335
 31
0.0
 11
23.3319631549
 21
23.6955216979
 31
0.0
 11
23.3266390455
 21
23.6958698804
 31
0.0
 11
23.3196296963
 21
23.6962083875
 31
0.0
 11
23.3011160545
 21
23.6968501965
 31
0.0
 11
23.2776086625
 21
23.6974401273
 31
0.0
 11
23.2500926828
 21
23.697974272
 31
0.0
 11
23.2192956702
 21
23.6984510132
 31
0.0
 11
23.1500908917
 21
23.6992252682
 31
0.0
  0
SPLINE
  5
938
100
AcDbEntity
  8
RACCORDO
100
AcDbSpline
 62
7
  6
CONTINUOUS
 70
0
 71
3
 72
16
 73
12
 74
10
 42
0.0000001
 43
0.0000001
 44
0.0000000001
 12
0.1870957841
 22
0.001658701
 32
0.0
 13
0.1608205598
 23
0.0956259968
 33
0.0
 40
0.0
 40
0.0
 40
0.0
 40
0.0
 40
0.3698980917
 40
0.5345168436
 40
0.6816076546
 40
0.8072858431
 40
0.9062941101
 40
0.9438002496
 40
0.9723165035
 40
0.9912302533
 40
1.0
 40
1.0
 40
1.0
 40
1.0
 10
23.1500909589
 20
-23.6992252677
 30
0.0
 10
23.17315975
 20
-23.6990207509
 30
0.0
 10
23.2064949358
 20
-23.6986613571
 30
0.0
 10
23.2489995182
 20
-23.6980104911
 30
0.0
 10
23.2762755591
 20
-23.6974948138
 30
0.0
 10
23.2994497723
 20
-23.6969184938
 30
0.0
 10
23.3158075831
 20
-23.6964115161
 30
0.0
 10
23.3260693404
 20
-23.6958988795
 30
0.0
 10
23.3313934406
 20
-23.6956307602
 30
0.0
 10
23.3348106822
 20
-23.6951952147
 30
0.0
 10
23.336615392
 20
-23.6950887158
 30
0.0
 10
23.3370855106
 20
-23.6948091772
 30
0.0
 11
23.1500909589
 21
-23.6992252677
 31
0.0
 11
23.219295721
 21
-23.6984510125
 31
0.0
 11
23.2500927161
 21
-23.6979742714
 31
0.0
 11
23.2776086842
 21
-23.6974401268
 31
0.0
 11
23.3011160663
 21
-23.6968501962
 31
0.0
 11
23.3196297022
 21
-23.6962083873
 31
0.0
 11
23.3266390494
 21
-23.6958698802
 31
0.0
 11
23.331963157
 21
-23.6955216978
 31
0.0
 11
23.3354841617
 21
-23.6951670334
 31
0.0
 11
23.3370855106
 21
-23.6948091772
 31
0.0
  0
SPLINE
  5
939
100
AcDbEntity
  8
RACCORDO
100
AcDbSpline
 62
7
  6
CONTINUOUS
 70
0
 71
3
 72
16
 73
12
 74
10
 42
0.0000001
 43
0.0000001
 44
0.0000000001
 12
0.1608206175
 22
-0.0956260311
 32
0.0
 13
0.1870958513
 23
-0.0016587006
 33
0.0
 40
0.0
 40
0.0
 40
0.0
 40
0.0
 40
0.0087697469
 40
0.0276834977
 40
0.0561997514
 40
0.0937058881
 40
0.1927141509
 40
0.318392347
 40
0.4654831671
 40
0.6301019536
 40
1.0
 40
1.0
 40
1.0
 40
1.0
 10
-23.3370855114
 20
-23.6948091772
 30
0.0
 10
-23.3366153927
 20
-23.6950887159
 30
0.0
 10
-23.3348106821
 20
-23.6951952147
 30
0.0
 10
-23.3313934393
 20
-23.6956307603
 30
0.0
 10
-23.3260693373
 20
-23.6958988797
 30
0.0
 10
-23.3158075768
 20
-23.6964115164
 30
0.0
 10
-23.29944976
 20
-23.6969184941
 30
0.0
 10
-23.2762755378
 20
-23.6974948143
 30
0.0
 10
-23.2489994839
 20
-23.6980104918
 30
0.0
 10
-23.2064948863
 20
-23.6986613577
 30
0.0
 10
-23.1731596892
 20
-23.6990207515
 30
0.0
 10
-23.1500908926
 20
-23.6992252682
 30
0.0
 11
-23.3370855114
 21
-23.6948091772
 31
0.0
 11
-23.335484162
 21
-23.6951670335
 31
0.0
 11
-23.3319631558
 21
-23.6955216979
 31
0.0
 11
-23.3266390464
 21
-23.6958698804
 31
0.0
 11
-23.3196296971
 21
-23.6962083875
 31
0.0
 11
-23.3011160554
 21
-23.6968501965
 31
0.0
 11
-23.2776086634
 21
-23.6974401273
 31
0.0
 11
-23.2500926837
 21
-23.697974272
 31
0.0
 11
-23.2192956711
 21
-23.6984510132
 31
0.0
 11
-23.1500908926
 21
-23.6992252682
 31
0.0
  0
SPLINE
  5
93A
100
AcDbEntity
  8
0
100
AcDbSpline
 62
7
  6
CONTINUOUS
 70
0
 71
3
 72
13
 73
9
 74
7
 42
0.0000001
 43
0.0000001
 44
0.0000000001
 12
1.1298428972
 22
-0.0000029429
 32
0.0
 13
0.0
 23
-1.129842738
 33
0.0
 40
0.0
 40
0.0
 40
0.0
 40
0.0
 40
0.1573088156
 40
0.3022011433
 40
0.4829354367
 40
0.6858836381
 40
0.8294044042
 40
1.0
 40
1.0
 40
1.0
 40
1.0
 10
-13.8478504598
 20
-31.26424677
 30
0.0
 10
-13.7886057105
 20
-31.2642469243
 30
0.0
 10
-13.6741212224
 20
-31.2766562016
 30
0.0
 10
-13.5030270574
 20
-31.3474209757
 30
0.0
 10
-13.3593079533
 20
-31.4929225283
 30
0.0
 10
-13.2749446911
 20
-31.6768130756
 30
0.0
 10
-13.2416123708
 20
-31.8693099886
 30
0.0
 10
-13.2334004901
 20
-31.9876069084
 30
0.0
 10
-13.2334004901
 20
-32.05185564
 30
0.0
 11
-13.8478504598
 21
-31.26424677
 31
0.0
 11
-13.6714281959
 21
-31.2858023811
 31
0.0
 11
-13.5210363548
 21
-31.3504692147
 31
0.0
 11
-13.3748727298
 21
-31.4930678733
 31
0.0
 11
-13.2767946989
 21
-31.7003333654
 31
0.0
 11
-13.2458706875
 21
-31.8595132633
 31
0.0
 11
-13.2334004901
 21
-32.05185564
 31
0.0
  0
SPLINE
  5
93B
100
AcDbEntity
  8
0
100
AcDbSpline
 62
7
  6
CONTINUOUS
 70
0
 71
3
 72
13
 73
9
 74
7
 42
0.0000001
 43
0.0000001
 44
0.0000000001
 12
0.0
 22
-1.129849383
 32
0.0
 13
-1.1298490439
 23
0.0000062682
 33
0.0
 40
0.0
 40
0.0
 40
0.0
 40
0.0
 40
0.1705945925
 40
0.3141145145
 40
0.5170615223
 40
0.6977947528
 40
0.8426862283
 40
1.0
 40
1.0
 40
1.0
 40
1.0
 10
-13.2334004901
 20
-32.05185564
 30
0.0
 10
-13.2334004901
 20
-32.1161043717
 30
0.0
 10
-13.2416123708
 20
-32.2344012915
 30
0.0
 10
-13.2749446911
 20
-32.4268982045
 30
0.0
 10
-13.3593079533
 20
-32.6107887518
 30
0.0
 10
-13.5030270574
 20
-32.7562903044
 30
0.0
 10
-13.674123306
 20
-32.8270559403
 30
0.0
 10
-13.7886101666
 20
-32.8394648388
 30
0.0
 10
-13.8478571047
 20
-32.8394645101
 30
0.0
 11
-13.2334004901
 21
-32.05185564
 31
0.0
 11
-13.2458706875
 21
-32.2441980167
 31
0.0
 11
-13.2767946989
 21
-32.4033779147
 31
0.0
 11
-13.3748727298
 21
-32.6106434068
 31
0.0
 11
-13.5210363548
 21
-32.7532420654
 31
0.0
 11
-13.6714281959
 21
-32.8179088989
 31
0.0
 11
-13.8478571047
 21
-32.8394645101
 31
0.0
  0
SPLINE
  5
93C
100
AcDbEntity
  8
0
100
AcDbSpline
 62
7
  6
CONTINUOUS
 70
0
 71
3
 72
13
 73
9
 74
7
 42
0.0000001
 43
0.0000001
 44
0.0000000001
 12
1.505457138
 22
0.0000035754
 32
0.0
 13
0.0
 23
1.5054567332
 33
0.0
 40
0.0
 40
0.0
 40
0.0
 40
0.0
 40
0.2440838579
 40
0.3951667354
 40
0.586594392
 40
0.7510174985
 40
0.8853894242
 40
1.0
 40
1.0
 40
1.0
 40
1.0
 10
-13.8107082763
 20
-33.0765762331
 30
0.0
 10
-13.6882223476
 20
-33.0765759422
 30
0.0
 10
-13.4857160739
 20
-33.0394444755
 30
0.0
 10
-13.2337817178
 20
-32.8789354922
 30
0.0
 10
-13.0764842947
 20
-32.6713275628
 30
0.0
 10
-12.9891692039
 20
-32.4395555315
 30
0.0
 10
-12.9503288369
 20
-32.2346336033
 30
0.0
 10
-12.9491867752
 20
-32.1093693944
 30
0.0
 10
-12.9491867752
 20
-32.05185564
 30
0.0
 11
-13.8107082763
 21
-33.0765762331
 31
0.0
 11
-13.4505660875
 21
-33.0036187799
 31
0.0
 11
-13.2590527728
 21
-32.8809176085
 31
0.0
 11
-13.0817164177
 21
-32.6537546292
 31
0.0
 11
-12.9914315694
 21
-32.4232754019
 31
0.0
 11
-12.9549528428
 21
-32.2243005295
 31
0.0
 11
-12.9491867752
 21
-32.05185564
 31
0.0
  0
SPLINE
  5
93D
100
AcDbEntity
  8
0
100
AcDbSpline
 62
7
  6
CONTINUOUS
 70
0
 71
3
 72
13
 73
9
 74
7
 42
0.0000001
 43
0.0000001
 44
0.0000000001
 12
0.0
 22
1.5054595332
 32
0.0
 13
-1.5054594516
 23
-0.0000007205
 33
0.0
 40
0.0
 40
0.0
 40
0.0
 40
0.0
 40
0.1146103626
 40
0.2489820384
 40
0.4134048391
 40
0.6048321396
 40
0.7559147362
 40
1.0
 40
1.0
 40
1.0
 40
1.0
 10
-12.9491867752
 20
-32.05185564
 30
0.0
 10
-12.9491867752
 20
-31.9943418857
 30
0.0
 10
-12.9503288369
 20
-31.8690776768
 30
0.0
 10
-12.9891692039
 20
-31.6641557485
 30
0.0
 10
-13.0764842947
 20
-31.4323837172
 30
0.0
 10
-13.2337817178
 20
-31.2247757879
 30
0.0
 10
-13.4857168727
 20
-31.0642662957
 30
0.0
 10
-13.6882242538
 20
-31.0271349883
 30
0.0
 10
-13.8107110762
 20
-31.027135047
 30
0.0
 11
-12.9491867752
 21
-32.05185564
 31
0.0
 11
-12.9549528428
 21
-31.8794107506
 31
0.0
 11
-12.9914315694
 21
-31.6804358781
 31
0.0
 11
-13.0817164177
 21
-31.4499566509
 31
0.0
 11
-13.2590527728
 21
-31.2227936715
 31
0.0
 11
-13.4505660875
 21
-31.1000925002
 31
0.0
 11
-13.8107110762
 21
-31.027135047
 31
0.0
  0
SPLINE
  5
93E
100
AcDbEntity
  8
0
100
AcDbSpline
 62
7
  6
CONTINUOUS
 70
0
 71
3
 72
23
 73
19
 74
17
 42
0.0000001
 43
0.0000001
 44
0.0000000001
 12
5.5804375338
 22
0.0001801932
 32
0.0
 13
-5.5804375122
 23
-0.0000185355
 33
0.0
 40
0.0
 40
0.0
 40
0.0
 40
0.0
 40
0.0363595496
 40
0.0707847015
 40
0.1351277673
 40
0.1958286692
 40
0.2551280101
 40
0.3746265876
 40
0.4366072476
 40
0.4999849419
 40
0.5633636487
 40
0.6253469141
 40
0.7448526424
 40
0.8041568771
 40
0.864858365
 40
0.9292021069
 40
0.9636274262
 40
1.0
 40
1.0
 40
1.0
 40
1.0
 10
40.0184585285
 20
28.1633025826
 30
0.0
 10
40.0860925936
 20
28.1633047665
 30
0.0
 10
40.2177621925
 20
28.1696563312
 30
0.0
 10
40.4663925077
 20
28.20806507
 30
0.0
 10
40.7507963726
 20
28.3010482908
 30
0.0
 10
41.0456507821
 20
28.4816919534
 30
0.0
 10
41.3657506656
 20
28.7957645338
 30
0.0
 10
41.578043932
 20
29.2041527253
 30
0.0
 10
41.6809323012
 20
29.6487028985
 30
0.0
 10
41.7068031768
 20
30.0000496659
 30
0.0
 10
41.6809313686
 20
30.3514007159
 30
0.0
 10
41.578043433
 20
30.7959727141
 30
0.0
 10
41.3657426952
 20
31.2043810039
 30
0.0
 10
41.0456628318
 20
31.5185094775
 30
0.0
 10
40.7507945538
 20
31.6991556105
 30
0.0
 10
40.4663935609
 20
31.7921516575
 30
0.0
 10
40.2177386684
 20
31.8305725656
 30
0.0
 10
40.0860442695
 20
31.8369247944
 30
0.0
 10
40.0183859778
 20
31.8369245697
 30
0.0
 11
40.0184585285
 21
28.1633025826
 31
0.0
 11
40.2209836022
 21
28.1734626787
 31
0.0
 11
40.4106664004
 21
28.2031468869
 31
0.0
 11
40.7512014232
 21
28.3163111381
 31
0.0
 11
41.0398188576
 21
28.4932423385
 31
0.0
 11
41.276346515
 21
28.724387491
 31
0.0
 11
41.5924437436
 21
29.3111076653
 31
0.0
 11
41.6716689375
 21
29.6475766932
 31
0.0
 11
41.6981155997
 21
30.0000476858
 31
0.0
 11
41.6716689375
 21
30.3525243408
 31
0.0
 11
41.5924437436
 21
30.6890082969
 31
0.0
 11
41.276346515
 21
31.2757737705
 31
0.0
 11
41.0398188595
 21
31.5069579741
 31
0.0
 11
40.7512014232
 21
31.6838954226
 31
0.0
 11
40.4106664
 21
31.7970716306
 31
0.0
 11
40.2209836021
 21
31.8267618784
 31
0.0
 11
40.0183859778
 21
31.8369245697
 31
0.0
  0
SPLINE
  5
93F
100
AcDbEntity
  8
0
100
AcDbSpline
 62
7
  6
CONTINUOUS
 70
0
 71
3
 72
23
 73
19
 74
17
 42
0.0000001
 43
0.0000001
 44
0.0000000001
 12
-5.5804375122
 22
-0.0000185355
 32
0.0
 13
5.5804375338
 23
0.0001801932
 33
0.0
 40
0.0
 40
0.0
 40
0.0
 40
0.0
 40
0.0363685523
 40
0.0707906457
 40
0.1351300958
 40
0.1958296164
 40
0.2551333891
 40
0.3746398178
 40
0.4366233159
 40
0.5000020572
 40
0.5633797861
 40
0.6253606787
 40
0.7448599567
 40
0.8041588355
 40
0.8648577702
 40
0.929196544
 40
0.9636184701
 40
1.0
 40
1.0
 40
1.0
 40
1.0
 10
40.0183859778
 20
31.8369245697
 30
0.0
 10
39.9507351666
 20
31.836924345
 30
0.0
 10
39.8190542343
 20
31.830572594
 30
0.0
 10
39.5704210843
 20
31.792150827
 30
0.0
 10
39.286039294
 20
31.6991530075
 30
0.0
 10
38.9911861198
 20
31.5185067945
 30
0.0
 10
38.6711117447
 20
31.2043782045
 30
0.0
 10
38.4588049029
 20
30.7959734235
 30
0.0
 10
38.3559085288
 20
30.3514013005
 30
0.0
 10
38.3300336447
 20
30.0000496659
 30
0.0
 10
38.355907596
 20
29.6487023138
 30
0.0
 10
38.4588044039
 20
29.2041520156
 30
0.0
 10
38.6711037738
 20
28.7957673347
 30
0.0
 10
38.9911981693
 20
28.4816946333
 30
0.0
 10
39.2860374752
 20
28.3010509046
 30
0.0
 10
39.5704221375
 20
28.2080658657
 30
0.0
 10
39.8190785526
 20
28.1696489775
 30
0.0
 10
39.9507835768
 20
28.1633003974
 30
0.0
 10
40.0184585285
 20
28.1633025826
 30
0.0
 11
40.0183859778
 21
31.8369245697
 31
0.0
 11
39.81581081
 21
31.8267618784
 31
0.0
 11
39.6261462219
 21
31.7970716306
 31
0.0
 11
39.2856364221
 21
31.6838954226
 31
0.0
 11
38.9970318548
 21
31.5069579741
 31
0.0
 11
38.7605078027
 21
31.2757737705
 31
0.0
 11
38.4444023379
 21
30.6890082969
 31
0.0
 11
38.3651714815
 21
30.3525243408
 31
0.0
 11
38.3387222456
 21
30.0000476858
 31
0.0
 11
38.3651714815
 21
29.6475766932
 31
0.0
 11
38.4444023379
 21
29.3111076653
 31
0.0
 11
38.7605078027
 21
28.724387491
 31
0.0
 11
38.9970318567
 21
28.4932423385
 31
0.0
 11
39.2856364221
 21
28.3163111381
 31
0.0
 11
39.6261462215
 21
28.2031468869
 31
0.0
 11
39.8158108099
 21
28.1734626787
 31
0.0
 11
40.0184585285
 21
28.1633025826
 31
0.0
  0
SPLINE
  5
940
100
AcDbEntity
  8
0
100
AcDbSpline
 62
7
  6
CONTINUOUS
 70
0
 71
3
 72
22
 73
18
 74
16
 42
0.0000001
 43
0.0000001
 44
0.0000000001
 12
4.2327854282
 22
-0.0001956236
 32
0.0
 13
-4.2327835928
 23
0.0000198473
 33
0.0
 40
0.0
 40
0.0
 40
0.0
 40
0.0
 40
0.0365574952
 40
0.0708720171
 40
0.1345234088
 40
0.1946217439
 40
0.2538852479
 40
0.3747890966
 40
0.4997540649
 40
0.6247190331
 40
0.686033101
 40
0.7460890665
 40
0.8053668542
 40
0.8654639787
 40
0.9291116847
 40
0.9634254414
 40
1.0
 40
1.0
 40
1.0
 40
1.0
 10
40.0184586296
 20
31.4439575788
 30
0.0
 10
40.0700386405
 20
31.4439551949
 30
0.0
 10
40.1700336646
 20
31.4387332473
 30
0.0
 10
40.3573761758
 20
31.4070206871
 30
0.0
 10
40.5692655627
 20
31.3301323887
 30
0.0
 10
40.7837023438
 20
31.1818611404
 30
0.0
 10
41.0107500742
 20
30.9268256334
 30
0.0
 10
41.1889542625
 20
30.5242108524
 30
0.0
 10
41.2533156605
 20
30.000381613
 30
0.0
 10
41.1989117676
 20
29.5590638088
 30
0.0
 10
41.0806098116
 20
29.2310809965
 30
0.0
 10
40.9532650597
 20
29.0087298562
 30
0.0
 10
40.7837233089
 20
28.8181399598
 30
0.0
 10
40.5692708402
 20
28.6698917009
 30
0.0
 10
40.3573718992
 20
28.5930413073
 30
0.0
 10
40.1700083316
 20
28.5613526331
 30
0.0
 10
40.0699900416
 20
28.5561375495
 30
0.0
 10
40.0183859778
 20
28.5561377915
 30
0.0
 11
40.0184586296
 21
31.4439575788
 31
0.0
 11
40.1728535212
 21
31.4355120023
 31
0.0
 11
40.3158941647
 21
31.4109233499
 31
0.0
 11
40.5685012588
 21
31.3178053095
 31
0.0
 11
40.777820274
 21
31.1735804346
 31
0.0
 11
40.9454642246
 21
30.9872257006
 31
0.0
 11
41.162178988
 21
30.5240345578
 31
0.0
 11
41.2315496619
 21
30.0000476858
 31
0.0
 11
41.162178988
 21
29.4760608139
 31
0.0
 11
41.0730460166
 21
29.2325218401
 31
0.0
 11
40.9454642246
 21
29.0128696711
 31
0.0
 11
40.7778203347
 21
28.8264336269
 31
0.0
 11
40.5685013127
 21
28.6822177864
 31
0.0
 11
40.3158941849
 21
28.5891449184
 31
0.0
 11
40.1728535271
 21
28.5645754642
 31
0.0
 11
40.0183859778
 21
28.5561377915
 31
0.0
  0
SPLINE
  5
941
100
AcDbEntity
  8
0
100
AcDbSpline
 62
7
  6
CONTINUOUS
 70
0
 71
3
 72
22
 73
18
 74
16
 42
0.0000001
 43
0.0000001
 44
0.0000000001
 12
-4.2327835928
 22
0.0000198473
 32
0.0
 13
4.2327854282
 23
-0.0001956236
 33
0.0
 40
0.0
 40
0.0
 40
0.0
 40
0.0
 40
0.0365692572
 40
0.0708787708
 40
0.1345208811
 40
0.1946155001
 40
0.2538927182
 40
0.3139489893
 40
0.3752635173
 40
0.5002287412
 40
0.625193965
 40
0.7460986389
 40
0.8053615732
 40
0.8654574028
 40
0.9291031991
 40
0.9634134781
 40
1.0
 40
1.0
 40
1.0
 40
1.0
 10
40.0183859778
 20
28.5561377915
 30
0.0
 10
39.9667893938
 20
28.5561380334
 30
0.0
 10
39.8667845518
 20
28.5613525968
 30
0.0
 10
39.6794426728
 20
28.5930422062
 30
0.0
 10
39.4675630541
 20
28.6698946036
 30
0.0
 10
39.2531259477
 20
28.8181428177
 30
0.0
 10
39.0835893152
 20
29.008731387
 30
0.0
 10
38.9562423227
 20
29.2310812676
 30
0.0
 10
38.8379325346
 20
29.5590625392
 30
0.0
 10
38.7835178347
 20
30.000381576
 30
0.0
 10
38.8478923446
 20
30.5242127544
 30
0.0
 10
39.02610474
 20
30.9268229689
 30
0.0
 10
39.2531468968
 20
31.1818582942
 30
0.0
 10
39.4675683371
 20
31.3301294699
 30
0.0
 10
39.6794383955
 20
31.4070198311
 30
0.0
 10
39.8668070254
 20
31.4387412928
 30
0.0
 10
39.966837664
 20
31.4439599645
 30
0.0
 10
40.0184586296
 20
31.4439575788
 30
0.0
 11
40.0183859778
 21
28.5561377915
 31
0.0
 11
39.863940885
 21
28.5645754642
 31
0.0
 11
39.7209184369
 21
28.5891449184
 31
0.0
 11
39.4683365326
 21
28.6822177864
 31
0.0
 11
39.2590303797
 21
28.8264336269
 31
0.0
 11
39.0913900932
 21
29.0128696711
 31
0.0
 11
38.9638057273
 21
29.23252184
 31
0.0
 11
38.8746670935
 21
29.4760608139
 31
0.0
 11
38.8052881835
 21
30.0000476858
 31
0.0
 11
38.8746670935
 21
30.5240345578
 31
0.0
 11
39.0913900932
 21
30.9872257006
 31
0.0
 11
39.2590304404
 21
31.1735804346
 31
0.0
 11
39.4683365865
 21
31.3178053095
 31
0.0
 11
39.7209184572
 21
31.4109233499
 31
0.0
 11
39.8639408909
 21
31.4355120023
 31
0.0
 11
40.0184586296
 21
31.4439575788
 31
0.0
  0
SPLINE
  5
942
100
AcDbEntity
  8
0
100
AcDbSpline
 62
7
  6
CONTINUOUS
 70
0
 71
3
 72
24
 73
20
 74
18
 42
0.0000001
 43
0.0000001
 44
0.0000000001
 12
-5.5654122849
 22
-0.0110421862
 32
0.0
 13
5.5654231913
 23
0.0007209967
 33
0.0
 40
0.0
 40
0.0
 40
0.0
 40
0.0
 40
0.0337812188
 40
0.0667932212
 40
0.1292362869
 40
0.1888450584
 40
0.2475861604
 40
0.3070557214
 40
0.3684351738
 40
0.4325380441
 40
0.4999058795
 40
0.5672727
 40
0.6313729628
 40
0.7516481781
 40
0.8103920332
 40
0.8699946391
 40
0.9324363762
 40
0.9654484228
 40
1.0
 40
1.0
 40
1.0
 40
1.0
 10
24.6884190578
 20
31.8369205957
 30
0.0
 10
24.6257502544
 20
31.8367962562
 30
0.0
 10
24.5018540712
 20
31.8308023607
 30
0.0
 10
24.2645456216
 20
31.7952940737
 30
0.0
 10
23.9879846206
 20
31.70808078
 30
0.0
 10
23.6963773242
 20
31.5371720858
 30
0.0
 10
23.4538966838
 20
31.3099329126
 30
0.0
 10
23.2627507173
 20
31.0344976317
 30
0.0
 10
23.124507576
 20
30.7185372766
 30
0.0
 10
23.0407389374
 20
30.3691452231
 30
0.0
 10
23.0136196202
 20
30.0000868227
 30
0.0
 10
23.0408532912
 20
29.6308133607
 30
0.0
 10
23.14949917
 20
29.1755331042
 30
0.0
 10
23.3710203434
 20
28.7675269871
 30
0.0
 10
23.6963465752
 20
28.4630368262
 30
0.0
 10
23.9880041449
 20
28.2921119053
 30
0.0
 10
24.2645477827
 20
28.204941502
 30
0.0
 10
24.5032685936
 20
28.1692144579
 30
0.0
 10
24.6286082793
 20
28.1632942777
 30
0.0
 10
24.692706329
 20
28.1633025816
 30
0.0
 11
24.6884190578
 21
31.8369205957
 31
0.0
 11
24.5007464627
 21
31.8275722987
 31
0.0
 11
24.3191897748
 21
31.8000960114
 31
0.0
 11
23.9883794871
 21
31.6942545405
 31
0.0
 11
23.7024625708
 21
31.5263664629
 31
0.0
 11
23.463626131
 21
31.3033980847
 31
0.0
 11
23.2740572727
 21
31.0323157119
 31
0.0
 11
23.1359431011
 21
30.7200856505
 31
0.0
 11
23.051470721
 21
30.3736742065
 31
0.0
 11
23.0228272377
 21
30.0000476858
 31
0.0
 11
23.051470721
 21
29.6264268276
 31
0.0
 11
23.1359431011
 21
29.2800303117
 31
0.0
 11
23.463626131
 21
28.6967631768
 31
0.0
 11
23.7024625712
 21
28.4737723592
 31
0.0
 11
23.9883794871
 21
28.3059520203
 31
0.0
 11
24.3191897747
 21
28.2001348042
 31
0.0
 11
24.5007464626
 21
28.1726568701
 31
0.0
 11
24.692706329
 21
28.1633025816
 31
0.0
  0
SPLINE
  5
943
100
AcDbEntity
  8
0
100
AcDbSpline
 62
7
  6
CONTINUOUS
 70
0
 71
3
 72
25
 73
21
 74
19
 42
0.0000001
 43
0.0000001
 44
0.0000000001
 12
5.5654231913
 22
0.0007209967
 32
0.0
 13
-5.5654122849
 23
-0.0110421862
 33
0.0
 40
0.0
 40
0.0
 40
0.0
 40
0.0
 40
0.0343953111
 40
0.0672718546
 40
0.129503094
 40
0.1889687571
 40
0.2476344945
 40
0.3678611488
 40
0.4319583762
 40
0.4993250446
 40
0.5666927279
 40
0.6307925628
 40
0.6921583022
 40
0.7515904709
 40
0.8102534516
 40
0.8697252944
 40
0.9319578669
 40
0.964834366
 40
0.9992296593
 40
1.0
 40
1.0
 40
1.0
 40
1.0
 10
24.692706329
 20
28.1633025816
 30
0.0
 10
24.7565144829
 20
28.1633108479
 30
0.0
 10
24.881313627
 20
28.1692110647
 30
0.0
 10
25.1190923472
 20
28.2049634501
 30
0.0
 10
25.3946829309
 20
28.2921867577
 30
0.0
 10
25.6854060049
 20
28.4631354021
 30
0.0
 10
26.0099619851
 20
28.7677146069
 30
0.0
 10
26.2310347163
 20
29.1756222779
 30
0.0
 10
26.3395869586
 20
29.6308203731
 30
0.0
 10
26.3668176823
 20
30.0000868485
 30
0.0
 10
26.3397001785
 20
30.3691381134
 30
0.0
 10
26.2559988533
 20
30.7185087144
 30
0.0
 10
26.1179558399
 20
31.0344374152
 30
0.0
 10
25.9272073538
 20
31.3098429162
 30
0.0
 10
25.6853747731
 20
31.5370725537
 30
0.0
 10
25.3947025856
 20
31.7080061761
 30
0.0
 10
25.1190945052
 20
31.7952720803
 30
0.0
 10
24.8813136238
 20
31.831017417
 30
0.0
 10
24.7550854026
 20
31.8369838559
 30
0.0
 10
24.6898481456
 20
31.8369234311
 30
0.0
 10
24.6884190578
 20
31.8369205957
 30
0.0
 11
24.692706329
 21
28.1633025816
 31
0.0
 11
24.883795954
 21
28.1726568701
 31
0.0
 11
25.064590308
 21
28.2001348042
 31
0.0
 11
25.394171081
 21
28.3059520203
 31
0.0
 11
25.6792044038
 21
28.4737723592
 31
0.0
 11
25.9174460338
 21
28.6967631768
 31
0.0
 11
26.2445772364
 21
29.2800303117
 31
0.0
 11
26.3289783215
 21
29.6264268276
 31
0.0
 11
26.3576107375
 21
30.0000476858
 31
0.0
 11
26.3289783215
 21
30.3736742065
 31
0.0
 11
26.2445772364
 21
30.7200856505
 31
0.0
 11
26.1066517258
 21
31.0323157119
 31
0.0
 11
25.9174460338
 21
31.3033980847
 31
0.0
 11
25.6792044043
 21
31.5263664629
 31
0.0
 11
25.394171081
 21
31.6942545405
 31
0.0
 11
25.0645903079
 21
31.8000960114
 31
0.0
 11
24.8837959539
 21
31.8275722987
 31
0.0
 11
24.692706329
 21
31.8369245697
 31
0.0
 11
24.6884190578
 21
31.8369205957
 31
0.0
  0
SPLINE
  5
944
100
AcDbEntity
  8
0
100
AcDbSpline
 62
7
  6
CONTINUOUS
 70
0
 71
3
 72
24
 73
20
 74
18
 42
0.0000001
 43
0.0000001
 44
0.0000000001
 12
4.9178844586
 22
0.011700509
 32
0.0
 13
-4.9179018383
 23
-0.0007799691
 33
0.0
 40
0.0
 40
0.0
 40
0.0
 40
0.0
 40
0.0008608547
 40
0.0348452499
 40
0.0673470039
 40
0.1290564712
 40
0.1884361909
 40
0.2474296705
 40
0.3688924669
 40
0.4333145827
 40
0.5004360728
 40
0.5675531502
 40
0.6319720306
 40
0.7534313261
 40
0.8124286623
 40
0.8718047086
 40
0.933513701
 40
0.9660155799
 40
1.0
 40
1.0
 40
1.0
 40
1.0
 10
24.6884727344
 20
31.650253962
 30
0.0
 10
24.689883929
 20
31.6502573194
 30
0.0
 10
24.7470057829
 20
31.6503206668
 30
0.0
 10
24.8574082107
 20
31.6447787736
 30
0.0
 10
25.0651449098
 20
31.6116755256
 30
0.0
 10
25.3059449344
 20
31.5308997716
 30
0.0
 10
25.5588126747
 20
31.3739633132
 30
0.0
 10
25.8407608613
 20
31.0963849624
 30
0.0
 10
26.0313985154
 20
30.730685145
 30
0.0
 10
26.1257116819
 20
30.3259893463
 30
0.0
 10
26.1495940602
 20
30.0000547519
 30
0.0
 10
26.1257110673
 20
29.6741264924
 30
0.0
 10
26.0313996876
 20
29.2694456955
 30
0.0
 10
25.8407379717
 20
28.9037755415
 30
0.0
 10
25.558832277
 20
28.6261575207
 30
0.0
 10
25.3059338388
 20
28.4692661584
 30
0.0
 10
25.0651440534
 20
28.3884938163
 30
0.0
 10
24.8574084405
 20
28.3553845243
 30
0.0
 10
24.7484170097
 20
28.3499114364
 30
0.0
 10
24.692706329
 20
28.3499026008
 30
0.0
 11
24.6884727344
 21
31.650253962
 31
0.0
 11
24.692706329
 21
31.6502586607
 31
0.0
 11
24.8595114308
 21
31.6416005656
 31
0.0
 11
25.0172242659
 21
31.6162161358
 31
0.0
 11
25.3044517722
 21
31.5188074058
 31
0.0
 11
25.5525461203
 21
31.365110738
 31
0.0
 11
25.7596645823
 21
31.1622043997
 31
0.0
 11
26.0436029374
 21
30.6370757804
 31
0.0
 11
26.1167373752
 21
30.3290100339
 31
0.0
 11
26.1415250162
 21
30.0000476858
 31
0.0
 11
26.1167373752
 21
29.6711070865
 31
0.0
 11
26.0436029374
 21
29.3630576838
 31
0.0
 11
25.7596645823
 21
28.8379486256
 31
0.0
 11
25.55254613
 21
28.6350151917
 31
0.0
 11
25.3044517722
 21
28.4813528262
 31
0.0
 11
25.0172242639
 21
28.3839513685
 31
0.0
 11
24.85951143
 21
28.3585630691
 31
0.0
 11
24.692706329
 21
28.3499026008
 31
0.0
  0
SPLINE
  5
945
100
AcDbEntity
  8
0
100
AcDbSpline
 62
7
  6
CONTINUOUS
 70
0
 71
3
 72
23
 73
19
 74
17
 42
0.0000001
 43
0.0000001
 44
0.0000000001
 12
-4.9179018383
 22
-0.0007799691
 32
0.0
 13
4.9178844586
 23
0.011700509
 33
0.0
 40
0.0
 40
0.0
 40
0.0
 40
0.0
 40
0.0341622733
 40
0.0668178964
 40
0.1287639873
 40
0.188292133
 40
0.2473747851
 40
0.3688856781
 40
0.4333075808
 40
0.5004247852
 40
0.5675464021
 40
0.6319715401
 40
0.7534859326
 40
0.8125647336
 40
0.8720965434
 40
0.9340431073
 40
0.9666986061
 40
1.0
 40
1.0
 40
1.0
 40
1.0
 10
24.692706329
 20
28.3499026008
 30
0.0
 10
24.6367040934
 20
28.349893719
 30
0.0
 10
24.527169879
 20
28.3553880544
 30
0.0
 10
24.3184902956
 20
28.3884694517
 30
0.0
 10
24.0767456148
 20
28.4691840522
 30
0.0
 10
23.8229122813
 20
28.6260537665
 30
0.0
 10
23.5402419049
 20
28.9035889507
 30
0.0
 10
23.3491544847
 20
29.2693619573
 30
0.0
 10
23.2547602167
 20
29.6741202771
 30
0.0
 10
23.2308768517
 20
30.0000547519
 30
0.0
 10
23.2547596036
 20
30.3259955614
 30
0.0
 10
23.349155646
 20
30.7307688801
 30
0.0
 10
23.5402190372
 20
31.096571588
 30
0.0
 10
23.8229318683
 20
31.37406701
 30
0.0
 10
24.0767345195
 20
31.5309819335
 30
0.0
 10
24.3184894482
 20
31.6116998841
 30
0.0
 10
24.5257749708
 20
31.64455412
 30
0.0
 10
24.6338819319
 20
31.6501240809
 30
0.0
 10
24.6884727344
 20
31.650253962
 30
0.0
 11
24.692706329
 21
28.3499026008
 31
0.0
 11
24.5250259274
 21
28.3585630691
 31
0.0
 11
24.3665477756
 21
28.3839513685
 31
0.0
 11
24.0780900448
 21
28.4813528262
 31
0.0
 11
23.8291167912
 21
28.6350151917
 31
0.0
 11
23.6214117007
 21
28.8379486256
 31
0.0
 11
23.3369405645
 21
29.3630576838
 31
0.0
 11
23.2637418455
 21
29.6711070865
 31
0.0
 11
23.238945904
 21
30.0000476858
 31
0.0
 11
23.2637418455
 21
30.3290100339
 31
0.0
 11
23.3369405645
 21
30.6370757804
 31
0.0
 11
23.6214117007
 21
31.1622043997
 31
0.0
 11
23.829116801
 21
31.365110738
 31
0.0
 11
24.0780900448
 21
31.5188074058
 31
0.0
 11
24.3665477736
 21
31.6162161358
 31
0.0
 11
24.5250259266
 21
31.6416005656
 31
0.0
 11
24.6884727344
 21
31.650253962
 31
0.0
  0
SPLINE
  5
946
100
AcDbEntity
  8
0
100
AcDbSpline
 62
7
  6
CONTINUOUS
 70
0
 71
3
 72
9
 73
5
 74
3
 42
0.0000001
 43
0.0000001
 44
0.0000000001
 12
0.6132231327
 22
0.0
 32
0.0
 13
0.2154619047
 23
-0.5741243577
 33
0.0
 40
0.0
 40
0.0
 40
0.0
 40
0.0
 40
0.3559141631
 40
1.0
 40
1.0
 40
1.0
 40
1.0
 10
-25.9941500458
 20
29.6777850682
 30
0.0
 10
-25.9213984465
 20
29.6777850682
 30
0.0
 10
-25.7121116048
 20
29.6337316668
 30
0.0
 10
-25.5746342263
 20
29.4486418309
 30
0.0
 10
-25.5283755725
 20
29.3253800418
 30
0.0
 11
-25.9941500458
 21
29.6777850682
 31
0.0
 11
-25.7815186002
 21
29.6285608342
 31
0.0
 11
-25.5283755725
 21
29.3253800418
 31
0.0
  0
SPLINE
  5
947
100
AcDbEntity
  8
0
100
AcDbSpline
 62
7
  6
CONTINUOUS
 70
0
 71
3
 72
11
 73
7
 74
5
 42
0.0000001
 43
0.0000001
 44
0.0000000001
 12
0.445451322
 22
-1.1857006826
 32
0.0
 13
0.3499795817
 23
-1.2173032824
 33
0.0
 40
0.0
 40
0.0
 40
0.0
 40
0.0
 40
0.2222334256
 40
0.5586346745
 40
0.8657346811
 40
1.0
 40
1.0
 40
1.0
 40
1.0
 10
-25.5283755725
 20
29.3253800418
 30
0.0
 10
-25.4953775148
 20
29.2375459336
 30
0.0
 10
-25.4284453
 20
29.011104462
 30
0.0
 10
-25.3224399113
 20
28.6614420463
 30
0.0
 10
-25.2308366751
 20
28.3460584265
 30
0.0
 10
-25.1789773304
 20
28.1670774259
 30
0.0
 10
-25.163313957
 20
28.1125968881
 30
0.0
 11
-25.5283755725
 21
29.3253800418
 31
0.0
 11
-25.4418915363
 21
29.0575109827
 31
0.0
 11
-25.3196730681
 21
28.6493247393
 31
0.0
 11
-25.2105404482
 21
28.2759703587
 31
0.0
 11
-25.163313957
 21
28.1125968881
 31
0.0
  0
SPLINE
  5
948
100
AcDbEntity
  8
0
100
AcDbSpline
 62
7
  6
CONTINUOUS
 70
0
 71
3
 72
9
 73
5
 74
3
 42
0.0000001
 43
0.0000001
 44
0.0000000001
 12
-0.2934207764
 22
1.0803528586
 32
0.0
 13
-0.2942732444
 23
1.0801209695
 33
0.0
 40
0.0
 40
0.0
 40
0.0
 40
0.0
 40
0.1980141723
 40
1.0
 40
1.0
 40
1.0
 40
1.0
 10
-24.3602803754
 20
28.1125968881
 30
0.0
 10
-24.3796475328
 20
28.1839052804
 30
0.0
 10
-24.4744410901
 20
28.5448323494
 30
0.0
 10
-24.5670158018
 20
28.9063479171
 30
0.0
 10
-24.645683459
 20
29.1950951537
 30
0.0
 11
-24.3602803754
 21
28.1125968881
 31
0.0
 11
-24.4171014683
 21
28.3268657049
 31
0.0
 11
-24.645683459
 21
29.1950951537
 31
0.0
  0
SPLINE
  5
949
100
AcDbEntity
  8
0
100
AcDbSpline
 62
7
  6
CONTINUOUS
 70
0
 71
3
 72
10
 73
6
 74
4
 42
0.0000001
 43
0.0000001
 44
0.0000000001
 12
-0.2502398322
 22
0.9185468727
 32
0.0
 13
-0.8843120826
 23
0.352619443
 33
0.0
 40
0.0
 40
0.0
 40
0.0
 40
0.0
 40
0.4939032387
 40
0.7479365287
 40
1.0
 40
1.0
 40
1.0
 40
1.0
 10
-24.645683459
 20
29.1950951537
 30
0.0
 10
-24.6868815468
 20
29.3463195788
 30
0.0
 10
-24.7485009187
 20
29.5780085884
 30
0.0
 10
-24.9174915391
 20
29.8514253835
 30
0.0
 10
-25.0526028452
 20
29.949906253
 30
0.0
 10
-25.1269037696
 20
29.9795337467
 30
0.0
 11
-24.645683459
 21
29.1950951537
 31
0.0
 11
-24.7965090613
 21
29.6404563784
 31
0.0
 11
-24.930317531
 21
29.8419125545
 31
0.0
 11
-25.1269037696
 21
29.9795337467
 31
0.0
  0
SPLINE
  5
94A
100
AcDbEntity
  8
0
100
AcDbSpline
 62
7
  6
CONTINUOUS
 70
0
 71
3
 72
22
 73
18
 74
16
 42
0.0000001
 43
0.0000001
 44
0.0000000001
 12
2.4746764896
 22
0.3193130954
 32
0.0
 13
-2.3471308373
 23
0.8467357401
 33
0.0
 40
0.0
 40
0.0
 40
0.0
 40
0.0
 40
0.0193978565
 40
0.056106175
 40
0.1687262153
 40
0.2404571126
 40
0.321336434
 40
0.4124791122
 40
0.4627695054
 40
0.5167962471
 40
0.5603807671
 40
0.6015359883
 40
0.6776397736
 40
0.747003664
 40
0.8106044552
 40
0.9201510205
 40
1.0
 40
1.0
 40
1.0
 40
1.0
 10
-25.1269037696
 20
30.0031673774
 30
0.0
 10
-25.1109026298
 20
30.0052320406
 30
0.0
 10
-25.0686373118
 20
30.028266796
 30
0.0
 10
-24.9507722816
 20
30.1021450392
 30
0.0
 10
-24.8179779861
 20
30.235087391
 30
0.0
 10
-24.6951609662
 20
30.4187418202
 30
0.0
 10
-24.6131320451
 20
30.6055696101
 30
0.0
 10
-24.5721189033
 20
30.7871343607
 30
0.0
 10
-24.5594331389
 20
30.9494170276
 30
0.0
 10
-24.5616653666
 20
31.0726148335
 30
0.0
 10
-24.5737948948
 20
31.1875255699
 30
0.0
 10
-24.5992848142
 20
31.3189913437
 30
0.0
 10
-24.6480330112
 20
31.4672263873
 30
0.0
 10
-24.7298439566
 20
31.6215484594
 30
0.0
 10
-24.8514982648
 20
31.7833391254
 30
0.0
 10
-25.0110202501
 20
31.923860613
 30
0.0
 10
-25.1505085711
 20
32.0007359619
 30
0.0
 10
-25.2129805718
 20
32.0232729568
 30
0.0
 11
-25.1269037696
 21
30.0031673774
 31
0.0
 11
-25.0820446411
 21
30.0213429757
 31
0.0
 11
-25.0046838955
 21
30.0703820754
 31
0.0
 11
-24.8028860927
 21
30.2659415595
 31
0.0
 11
-24.7036633411
 21
30.4149030939
 31
0.0
 11
-24.6223675551
 21
30.5996138219
 31
0.0
 11
-24.5716058839
 21
30.8212947428
 31
0.0
 11
-24.5616150754
 21
30.9463805877
 31
0.0
 11
-24.5639854766
 21
31.0811668554
 31
0.0
 11
-24.5756003445
 21
31.1892965913
 31
0.0
 11
-24.5952302593
 21
31.2900931277
 31
0.0
 11
-24.6549734553
 21
31.4703438468
 31
0.0
 11
-24.7360915158
 21
31.6232335023
 31
0.0
 11
-24.8314608918
 21
31.7500765835
 31
0.0
 11
-25.0364593944
 21
31.9308809816
 31
0.0
 11
-25.2129805718
 21
32.0232729568
 31
0.0
  0
SPLINE
  5
94B
100
AcDbEntity
  8
0
100
AcDbSpline
 62
7
  6
CONTINUOUS
 70
0
 71
3
 72
9
 73
5
 74
3
 42
0.0000001
 43
0.0000001
 44
0.0000000001
 12
-1.9509268773
 22
0.7048252654
 32
0.0
 13
-2.0522519151
 23
-0.3019212024
 33
0.0
 40
0.0
 40
0.0
 40
0.0
 40
0.0
 40
0.2957417834
 40
1.0
 40
1.0
 40
1.0
 40
1.0
 10
-25.2129805718
 20
32.0232729568
 30
0.0
 10
-25.4053041031
 20
32.0927550505
 30
0.0
 10
-26.0965907724
 20
32.2060150045
 30
0.0
 10
-26.7915035623
 20
32.1362584377
 30
0.0
 10
-27.2732753202
 20
32.0653816085
 30
0.0
 11
-25.2129805718
 21
32.0232729568
 31
0.0
 11
-25.8145059601
 21
32.143739241
 31
0.0
 11
-27.2732753202
 21
32.0653816085
 31
0.0
  0
SPLINE
  5
94C
100
AcDbEntity
  8
0
100
AcDbSpline
 62
7
  6
CONTINUOUS
 70
0
 71
3
 72
9
 73
5
 74
3
 42
0.0000001
 43
0.0000001
 44
0.0000000001
 12
0.7321671361
 22
-0.0850044385
 32
0.0
 13
0.0115269619
 23
-0.7369949788
 33
0.0
 40
0.0
 40
0.0
 40
0.0
 40
0.0
 40
0.5013510385
 40
1.0
 40
1.0
 40
1.0
 40
1.0
 10
-25.8154282115
 20
31.4542962966
 30
0.0
 10
-25.6930706269
 20
31.4400906088
 30
0.0
 10
-25.4455881185
 20
31.3323369769
 30
0.0
 10
-25.3457512755
 20
31.0768316314
 30
0.0
 10
-25.3438353063
 20
30.9543310378
 30
0.0
 11
-25.8154282115
 21
31.4542962966
 31
0.0
 11
-25.4820305626
 21
31.2949080019
 31
0.0
 11
-25.3438353063
 21
30.9543310378
 31
0.0
  0
SPLINE
  5
94D
100
AcDbEntity
  8
0
100
AcDbSpline
 62
7
  6
CONTINUOUS
 70
0
 71
3
 72
10
 73
6
 74
4
 42
0.0000001
 43
0.0000001
 44
0.0000000001
 12
0.0156004009
 22
-1.0110234712
 32
0.0
 13
-1.0108916957
 23
-0.0225790025
 33
0.0
 40
0.0
 40
0.0
 40
0.0
 40
0.0
 40
0.2929210355
 40
0.5275938042
 40
1.0
 40
1.0
 40
1.0
 40
1.0
 10
-25.3438353063
 20
30.9543310378
 30
0.0
 10
-25.3423120778
 20
30.8556143571
 30
0.0
 10
-25.3636046579
 20
30.6721741457
 30
0.0
 10
-25.5728652544
 20
30.3884600777
 30
0.0
 10
-25.8331666974
 20
30.3363640256
 30
0.0
 10
-25.9923505308
 20
30.3328085387
 30
0.0
 11
-25.3438353063
 21
30.9543310378
 31
0.0
 11
-25.3934241296
 21
30.6623264521
 31
0.0
 11
-25.5354911549
 21
30.4722672045
 31
0.0
 11
-25.9923505308
 21
30.3328085387
 31
0.0
  0
SPLINE
  5
94E
100
AcDbEntity
  8
0
100
AcDbSpline
 62
7
  6
CONTINUOUS
 70
0
 71
3
 72
9
 73
5
 74
3
 42
0.0000001
 43
0.0000001
 44
0.0000000001
 12
0.6464898369
 22
0.110313432
 32
0.0
 13
0.6514601131
 23
-0.0756166883
 33
0.0
 40
0.0
 40
0.0
 40
0.0
 40
0.0
 40
0.2703953699
 40
1.0
 40
1.0
 40
1.0
 40
1.0
 10
-26.4694619488
 20
31.4307526417
 30
0.0
 10
-26.4111926626
 20
31.4406953887
 30
0.0
 10
-26.1950218238
 20
31.4733962915
 30
0.0
 10
-25.9738643165
 20
31.4726863919
 30
0.0
 10
-25.8154282115
 20
31.4542962966
 30
0.0
 11
-26.4694619488
 21
31.4307526417
 31
0.0
 11
-26.2939248812
 21
31.4559369482
 31
0.0
 11
-25.8154282115
 21
31.4542962966
 31
0.0
  0
SPLINE
  5
94F
100
AcDbEntity
  8
RACCORDO
100
AcDbSpline
 62
253
  6
CONTINUOUS
 70
0
 71
3
 72
15
 73
11
 74
9
 42
0.0000001
 43
0.0000001
 44
0.0000000001
 12
-0.045781779
 22
-0.5185862583
 32
0.0
 13
-0.5193067137
 23
-0.0367180563
 33
0.0
 40
0.0
 40
0.0
 40
0.0
 40
0.0
 40
0.0407168823
 40
0.069453246
 40
0.1052209432
 40
0.1986846534
 40
0.3203896203
 40
0.4668631268
 40
0.6330435296
 40
1.0
 40
1.0
 40
1.0
 40
1.0
 10
-24.3676071189
 20
-7.6723577696
 30
0.0
 10
-24.3682284827
 20
-7.6793961748
 30
0.0
 10
-24.3764828568
 20
-7.690162705
 30
0.0
 10
-24.3916606986
 20
-7.6999255807
 30
0.0
 10
-24.4166431094
 20
-7.7116271408
 30
0.0
 10
-24.458528193
 20
-7.7239025429
 30
0.0
 10
-24.520052987
 20
-7.7364538114
 30
0.0
 10
-24.5946314469
 20
-7.7475590296
 30
0.0
 10
-24.7117850564
 20
-7.7611990964
 30
0.0
 10
-24.8040102432
 20
-7.7688773132
 30
0.0
 10
-24.8675312294
 20
-7.7733686226
 30
0.0
 11
-24.3676071189
 21
-7.6723577696
 31
0.0
 11
-24.3785130064
 21
-7.6905343696
 31
0.0
 11
-24.390824413
 21
-7.6990336709
 31
0.0
 11
-24.4076053379
 21
-7.7071042287
 31
0.0
 11
-24.4539446602
 21
-7.7219440416
 31
0.0
 11
-24.5159260156
 21
-7.7350893971
 31
0.0
 11
-24.5912948694
 21
-7.7466780122
 31
0.0
 11
-24.6772057836
 21
-7.7568758159
 31
0.0
 11
-24.8675312294
 21
-7.7733686226
 31
0.0
  0
SPLINE
  5
950
100
AcDbEntity
  8
RACCORDO
100
AcDbSpline
 62
253
  6
CONTINUOUS
 70
0
 71
3
 72
15
 73
11
 74
9
 42
0.0000001
 43
0.0000001
 44
0.0000000001
 12
0.045781779
 22
0.5185862583
 32
0.0
 13
0.5193067137
 23
0.0367180563
 33
0.0
 40
0.0
 40
0.0
 40
0.0
 40
0.0
 40
0.0407168823
 40
0.069453246
 40
0.1052209432
 40
0.1986846534
 40
0.3203896203
 40
0.4668631268
 40
0.6330435296
 40
1.0
 40
1.0
 40
1.0
 40
1.0
 10
24.3676071181
 20
7.6723577696
 30
0.0
 10
24.3682284818
 20
7.6793961748
 30
0.0
 10
24.3764828559
 20
7.690162705
 30
0.0
 10
24.3916606977
 20
7.6999255807
 30
0.0
 10
24.4166431085
 20
7.7116271408
 30
0.0
 10
24.4585281921
 20
7.7239025429
 30
0.0
 10
24.5200529861
 20
7.7364538114
 30
0.0
 10
24.594631446
 20
7.7475590296
 30
0.0
 10
24.7117850555
 20
7.7611990964
 30
0.0
 10
24.8040102423
 20
7.7688773132
 30
0.0
 10
24.8675312285
 20
7.7733686226
 30
0.0
 11
24.3676071181
 21
7.6723577696
 31
0.0
 11
24.3785130055
 21
7.6905343696
 31
0.0
 11
24.3908244121
 21
7.6990336709
 31
0.0
 11
24.407605337
 21
7.7071042287
 31
0.0
 11
24.4539446593
 21
7.7219440416
 31
0.0
 11
24.5159260147
 21
7.7350893971
 31
0.0
 11
24.5912948685
 21
7.7466780122
 31
0.0
 11
24.6772057827
 21
7.7568758159
 31
0.0
 11
24.8675312285
 21
7.7733686226
 31
0.0
  0
SPLINE
  5
951
100
AcDbEntity
  8
RACCORDO
100
AcDbSpline
 62
253
  6
CONTINUOUS
 70
0
 71
3
 72
15
 73
11
 74
9
 42
0.0000001
 43
0.0000001
 44
0.0000000001
 12
-0.5193067171
 22
0.0367181114
 32
0.0
 13
-0.045781787
 23
0.5185862648
 33
0.0
 40
0.0
 40
0.0
 40
0.0
 40
0.0
 40
0.3669564833
 40
0.5331368905
 40
0.6796103982
 40
0.8013153628
 40
0.8947790722
 40
0.9305467653
 40
0.9592831158
 40
1.0
 40
1.0
 40
1.0
 40
1.0
 10
24.8675312285
 20
-7.7733686226
 30
0.0
 10
24.8040102396
 20
-7.7688773063
 30
0.0
 10
24.7117850476
 20
-7.7611991014
 30
0.0
 10
24.5946314342
 20
-7.7475590252
 30
0.0
 10
24.5200529724
 20
-7.7364538093
 30
0.0
 10
24.4585281776
 20
-7.7239025426
 30
0.0
 10
24.4166430955
 20
-7.7116271345
 30
0.0
 10
24.3916606901
 20
-7.6999255718
 30
0.0
 10
24.3764828455
 20
-7.6901627023
 30
0.0
 10
24.3682284813
 20
-7.6793961678
 30
0.0
 10
24.3676071174
 20
-7.6723577621
 30
0.0
 11
24.8675312285
 21
-7.7733686226
 31
0.0
 11
24.6772057733
 21
-7.7568758161
 31
0.0
 11
24.5912948559
 21
-7.7466780091
 31
0.0
 11
24.5159260004
 21
-7.735089395
 31
0.0
 11
24.4539446452
 21
-7.7219440395
 31
0.0
 11
24.4076053246
 21
-7.7071042207
 31
0.0
 11
24.390824402
 21
-7.6990336625
 31
0.0
 11
24.3785129997
 21
-7.6905343667
 31
0.0
 11
24.3676071174
 21
-7.6723577621
 31
0.0
  0
SPLINE
  5
952
100
AcDbEntity
  8
RACCORDO
100
AcDbSpline
 62
253
  6
CONTINUOUS
 70
0
 71
3
 72
15
 73
11
 74
9
 42
0.0000001
 43
0.0000001
 44
0.0000000001
 12
0.4930428639
 22
-0.2163803997
 32
0.0
 13
0.4984262325
 23
-0.2036738417
 33
0.0
 40
0.0
 40
0.0
 40
0.0
 40
0.0
 40
0.0237295951
 40
0.0864412296
 40
0.1843520767
 40
0.3121163014
 40
0.4636837307
 40
0.6328381818
 40
0.813605491
 40
1.0
 40
1.0
 40
1.0
 40
1.0
 10
22.4088798485
 20
-23.0088341575
 30
0.0
 10
22.412779751
 20
-23.0105456972
 30
0.0
 10
22.4273135134
 20
-23.0159989989
 30
0.0
 10
22.4579292452
 20
-23.0285371351
 30
0.0
 10
22.5060281632
 20
-23.047662029
 30
0.0
 10
22.5688530345
 20
-23.0729033678
 30
0.0
 10
22.6436296755
 20
-23.1026978556
 30
0.0
 10
22.7271727663
 20
-23.1361897588
 30
0.0
 10
22.8165563023
 20
-23.171909598
 30
0.0
 10
22.8778357251
 20
-23.1961491346
 30
0.0
 10
22.908803696
 20
-23.2088036965
 30
0.0
 11
22.4088798485
 21
-23.0088341575
 31
0.0
 11
22.4207458477
 21
-23.0135718292
 31
0.0
 11
22.4521011235
 21
-23.0261016667
 31
0.0
 11
22.5010384513
 21
-23.0457074495
 31
0.0
 11
22.5649002628
 21
-23.0712828383
 31
0.0
 11
22.6406872545
 21
-23.1015546607
 31
0.0
 11
22.7252440656
 21
-23.1353992555
 31
0.0
 11
22.8156396726
 21
-23.171482882
 31
0.0
 11
22.908803696
 21
-23.2088036965
 31
0.0
  0
SPLINE
  5
953
100
AcDbEntity
  8
RACCORDO
100
AcDbSpline
 62
253
  6
CONTINUOUS
 70
0
 71
3
 72
11
 73
7
 74
5
 42
0.0000001
 43
0.0000001
 44
0.0000000001
 12
-0.2036738302
 22
0.4984262044
 32
0.0
 13
-0.2013593799
 23
0.4993657082
 33
0.0
 40
0.0
 40
0.0
 40
0.0
 40
0.0
 40
0.1863949734
 40
0.3671627645
 40
0.8156536842
 40
1.0
 40
1.0
 40
1.0
 40
1.0
 10
22.908803696
 20
-23.2088036965
 30
0.0
 10
22.8961491033
 20
-23.1778356501
 30
0.0
 10
22.8719105216
 20
-23.1165556804
 30
0.0
 10
22.8175709755
 20
-22.9806232276
 30
0.0
 10
22.7631777694
 20
-22.8451072838
 30
0.0
 10
22.7212074436
 20
-22.7395652584
 30
0.0
 10
22.708834157
 20
-22.7088798489
 30
0.0
 11
22.908803696
 21
-23.2088036965
 31
0.0
 11
22.871481794
 21
-23.1156398454
 31
0.0
 11
22.8353947832
 21
-23.025245316
 31
0.0
 11
22.7456881239
 21
-22.8010428476
 31
0.0
 11
22.708834157
 21
-22.7088798489
 31
0.0
  0
SPLINE
  5
954
100
AcDbEntity
  8
RACCORDO
100
AcDbSpline
 62
253
  6
CONTINUOUS
 70
0
 71
3
 72
15
 73
11
 74
9
 42
0.0000001
 43
0.0000001
 44
0.0000000001
 12
0.2163803997
 22
0.4930428639
 32
0.0
 13
0.2036738417
 23
0.4984262325
 33
0.0
 40
0.0
 40
0.0
 40
0.0
 40
0.0
 40
0.0237295951
 40
0.0864412296
 40
0.1843520767
 40
0.3121163014
 40
0.4636837307
 40
0.6328381818
 40
0.813605491
 40
1.0
 40
1.0
 40
1.0
 40
1.0
 10
22.708834157
 20
22.7088798489
 30
0.0
 10
22.7105456968
 20
22.7127797514
 30
0.0
 10
22.7159989984
 20
22.7273135139
 30
0.0
 10
22.7285371347
 20
22.7579292456
 30
0.0
 10
22.7476620285
 20
22.8060281636
 30
0.0
 10
22.7729033674
 20
22.868853035
 30
0.0
 10
22.8026978552
 20
22.943629676
 30
0.0
 10
22.8361897583
 20
23.0271727668
 30
0.0
 10
22.8719095975
 20
23.1165563028
 30
0.0
 10
22.8961491341
 20
23.1778357255
 30
0.0
 10
22.908803696
 20
23.2088036965
 30
0.0
 11
22.708834157
 21
22.7088798489
 31
0.0
 11
22.7135718288
 21
22.7207458482
 31
0.0
 11
22.7261016663
 21
22.7521011239
 31
0.0
 11
22.7457074491
 21
22.8010384517
 31
0.0
 11
22.7712828379
 21
22.8649002633
 31
0.0
 11
22.8015546603
 21
22.9406872549
 31
0.0
 11
22.8353992551
 21
23.025244066
 31
0.0
 11
22.8714828815
 21
23.115639673
 31
0.0
 11
22.908803696
 21
23.2088036965
 31
0.0
  0
SPLINE
  5
955
100
AcDbEntity
  8
RACCORDO
100
AcDbSpline
 62
253
  6
CONTINUOUS
 70
0
 71
3
 72
11
 73
7
 74
5
 42
0.0000001
 43
0.0000001
 44
0.0000000001
 12
-0.4984262044
 22
-0.2036738302
 32
0.0
 13
-0.4993657082
 23
-0.2013593799
 33
0.0
 40
0.0
 40
0.0
 40
0.0
 40
0.0
 40
0.1863949734
 40
0.3671627645
 40
0.8156536842
 40
1.0
 40
1.0
 40
1.0
 40
1.0
 10
22.908803696
 20
23.2088036965
 30
0.0
 10
22.8778356497
 20
23.1961491038
 30
0.0
 10
22.8165556799
 20
23.171910522
 30
0.0
 10
22.6806232272
 20
23.1175709759
 30
0.0
 10
22.5451072833
 20
23.0631777698
 30
0.0
 10
22.439565258
 20
23.0212074441
 30
0.0
 10
22.4088798485
 20
23.0088341575
 30
0.0
 11
22.908803696
 21
23.2088036965
 31
0.0
 11
22.815639845
 21
23.1714817944
 31
0.0
 11
22.7252453155
 21
23.1353947836
 31
0.0
 11
22.5010428472
 21
23.0456881243
 31
0.0
 11
22.4088798485
 21
23.0088341575
 31
0.0
  0
SPLINE
  5
956
100
AcDbEntity
  8
RACCORDO
100
AcDbSpline
 62
253
  6
CONTINUOUS
 70
0
 71
3
 72
11
 73
7
 74
5
 42
0.0000001
 43
0.0000001
 44
0.0000000001
 12
0.2036738302
 22
-0.4984262044
 32
0.0
 13
0.2013593799
 23
-0.4993657082
 33
0.0
 40
0.0
 40
0.0
 40
0.0
 40
0.0
 40
0.1863949734
 40
0.3671627645
 40
0.8156536842
 40
1.0
 40
1.0
 40
1.0
 40
1.0
 10
-22.9088036969
 20
23.2088036965
 30
0.0
 10
-22.8961491042
 20
23.1778356501
 30
0.0
 10
-22.8719105225
 20
23.1165556804
 30
0.0
 10
-22.8175709764
 20
22.9806232276
 30
0.0
 10
-22.7631777702
 20
22.8451072838
 30
0.0
 10
-22.7212074445
 20
22.7395652584
 30
0.0
 10
-22.7088341579
 20
22.7088798489
 30
0.0
 11
-22.9088036969
 21
23.2088036965
 31
0.0
 11
-22.8714817949
 21
23.1156398454
 31
0.0
 11
-22.8353947841
 21
23.025245316
 31
0.0
 11
-22.7456881248
 21
22.8010428476
 31
0.0
 11
-22.7088341579
 21
22.7088798489
 31
0.0
  0
SPLINE
  5
957
100
AcDbEntity
  8
RACCORDO
100
AcDbSpline
 62
253
  6
CONTINUOUS
 70
0
 71
3
 72
15
 73
11
 74
9
 42
0.0000001
 43
0.0000001
 44
0.0000000001
 12
-0.4930428639
 22
0.2163803997
 32
0.0
 13
-0.4984262325
 23
0.2036738417
 33
0.0
 40
0.0
 40
0.0
 40
0.0
 40
0.0
 40
0.0237295951
 40
0.0864412296
 40
0.1843520767
 40
0.3121163014
 40
0.4636837307
 40
0.6328381818
 40
0.813605491
 40
1.0
 40
1.0
 40
1.0
 40
1.0
 10
-22.4088798494
 20
23.0088341575
 30
0.0
 10
-22.4127797519
 20
23.0105456972
 30
0.0
 10
-22.4273135143
 20
23.0159989989
 30
0.0
 10
-22.4579292461
 20
23.0285371351
 30
0.0
 10
-22.5060281641
 20
23.047662029
 30
0.0
 10
-22.5688530354
 20
23.0729033678
 30
0.0
 10
-22.6436296764
 20
23.1026978556
 30
0.0
 10
-22.7271727672
 20
23.1361897588
 30
0.0
 10
-22.8165563032
 20
23.171909598
 30
0.0
 10
-22.877835726
 20
23.1961491346
 30
0.0
 10
-22.9088036969
 20
23.2088036965
 30
0.0
 11
-22.4088798494
 21
23.0088341575
 31
0.0
 11
-22.4207458486
 21
23.0135718292
 31
0.0
 11
-22.4521011244
 21
23.0261016667
 31
0.0
 11
-22.5010384522
 21
23.0457074495
 31
0.0
 11
-22.5649002637
 21
23.0712828383
 31
0.0
 11
-22.6406872554
 21
23.1015546607
 31
0.0
 11
-22.7252440665
 21
23.1353992555
 31
0.0
 11
-22.8156396735
 21
23.171482882
 31
0.0
 11
-22.9088036969
 21
23.2088036965
 31
0.0
  0
SPLINE
  5
958
100
AcDbEntity
  8
RACCORDO
100
AcDbSpline
 62
253
  6
CONTINUOUS
 70
0
 71
3
 72
15
 73
11
 74
9
 42
0.0000001
 43
0.0000001
 44
0.0000000001
 12
-0.2163803997
 22
-0.4930428639
 32
0.0
 13
-0.2036738417
 23
-0.4984262325
 33
0.0
 40
0.0
 40
0.0
 40
0.0
 40
0.0
 40
0.0237295951
 40
0.0864412296
 40
0.1843520767
 40
0.3121163014
 40
0.4636837307
 40
0.6328381818
 40
0.813605491
 40
1.0
 40
1.0
 40
1.0
 40
1.0
 10
-22.7088341579
 20
-22.7088798489
 30
0.0
 10
-22.7105456977
 20
-22.7127797514
 30
0.0
 10
-22.7159989993
 20
-22.7273135139
 30
0.0
 10
-22.7285371356
 20
-22.7579292456
 30
0.0
 10
-22.7476620294
 20
-22.8060281636
 30
0.0
 10
-22.7729033683
 20
-22.868853035
 30
0.0
 10
-22.8026978561
 20
-22.943629676
 30
0.0
 10
-22.8361897592
 20
-23.0271727668
 30
0.0
 10
-22.8719095984
 20
-23.1165563028
 30
0.0
 10
-22.896149135
 20
-23.1778357255
 30
0.0
 10
-22.9088036969
 20
-23.2088036965
 30
0.0
 11
-22.7088341579
 21
-22.7088798489
 31
0.0
 11
-22.7135718297
 21
-22.7207458482
 31
0.0
 11
-22.7261016672
 21
-22.7521011239
 31
0.0
 11
-22.74570745
 21
-22.8010384517
 31
0.0
 11
-22.7712828388
 21
-22.8649002633
 31
0.0
 11
-22.8015546612
 21
-22.9406872549
 31
0.0
 11
-22.835399256
 21
-23.025244066
 31
0.0
 11
-22.8714828824
 21
-23.115639673
 31
0.0
 11
-22.9088036969
 21
-23.2088036965
 31
0.0
  0
SPLINE
  5
959
100
AcDbEntity
  8
RACCORDO
100
AcDbSpline
 62
253
  6
CONTINUOUS
 70
0
 71
3
 72
11
 73
7
 74
5
 42
0.0000001
 43
0.0000001
 44
0.0000000001
 12
0.4984262044
 22
0.2036738302
 32
0.0
 13
0.4993657082
 23
0.2013593799
 33
0.0
 40
0.0
 40
0.0
 40
0.0
 40
0.0
 40
0.1863949734
 40
0.3671627645
 40
0.8156536842
 40
1.0
 40
1.0
 40
1.0
 40
1.0
 10
-22.9088036969
 20
-23.2088036965
 30
0.0
 10
-22.8778356506
 20
-23.1961491038
 30
0.0
 10
-22.8165556808
 20
-23.171910522
 30
0.0
 10
-22.6806232281
 20
-23.1175709759
 30
0.0
 10
-22.5451072842
 20
-23.0631777698
 30
0.0
 10
-22.4395652589
 20
-23.0212074441
 30
0.0
 10
-22.4088798494
 20
-23.0088341575
 30
0.0
 11
-22.9088036969
 21
-23.2088036965
 31
0.0
 11
-22.8156398458
 21
-23.1714817944
 31
0.0
 11
-22.7252453164
 21
-23.1353947836
 31
0.0
 11
-22.5010428481
 21
-23.0456881243
 31
0.0
 11
-22.4088798494
 21
-23.0088341575
 31
0.0
  0
LINE
  5
95A
100
AcDbEntity
  8
RACCORDO
100
AcDbLine
 62
7
  6
CONTINUOUS
 10
-23.1500000004
 20
-25.167531229
 11
-23.1500000004
 21
-25.2
  0
LINE
  5
95B
100
AcDbEntity
  8
RACCORDO
100
AcDbLine
 62
7
  6
CONTINUOUS
 10
-24.3676073818
 20
-24.7000761524
 11
-24.8675312294
 21
-25.2
  0
LINE
  5
95C
100
AcDbEntity
  8
RACCORDO
100
AcDbLine
 62
7
  6
CONTINUOUS
 10
-0.6000000004
 20
-25.2
 11
-0.6000000004
 21
-25.167531229
  0
LINE
  5
95D
100
AcDbEntity
  8
RACCORDO
100
AcDbLine
 62
7
  6
CONTINUOUS
 10
0.5999999996
 20
-25.167531229
 11
0.5999999996
 21
-25.2
  0
LINE
  5
95E
100
AcDbEntity
  8
RACCORDO
100
AcDbLine
 62
7
  6
CONTINUOUS
 10
23.1499999996
 20
-25.2
 11
23.1499999996
 21
-25.167531229
  0
LINE
  5
95F
100
AcDbEntity
  8
RACCORDO
100
AcDbLine
 62
7
  6
CONTINUOUS
 10
24.3676073809
 20
-24.7000761524
 11
24.8675312285
 21
-25.2
  0
LINE
  5
960
100
AcDbEntity
  8
RACCORDO
100
AcDbLine
 62
7
  6
CONTINUOUS
 10
23.1499999996
 20
25.167531229
 11
23.1499999996
 21
25.2
  0
LINE
  5
961
100
AcDbEntity
  8
RACCORDO
100
AcDbLine
 62
7
  6
CONTINUOUS
 10
24.3676073809
 20
24.7000761524
 11
24.8675312285
 21
25.2
  0
LINE
  5
962
100
AcDbEntity
  8
RACCORDO
100
AcDbLine
 62
7
  6
CONTINUOUS
 10
0.5999999996
 20
25.2
 11
0.5999999996
 21
25.167531229
  0
LINE
  5
963
100
AcDbEntity
  8
RACCORDO
100
AcDbLine
 62
7
  6
CONTINUOUS
 10
-0.6000000004
 20
25.167531229
 11
-0.6000000004
 21
25.2
  0
SPLINE
  5
964
100
AcDbEntity
  8
RACCORDO
100
AcDbSpline
 62
253
  6
CONTINUOUS
 70
0
 71
3
 72
10
 73
6
 74
4
 42
0.0000001
 43
0.0000001
 44
0.0000000001
 12
0.0260138913
 22
-0.7331760745
 32
0.0
 13
-0.0000290579
 23
-0.7336374295
 33
0.0
 40
0.0
 40
0.0
 40
0.0
 40
0.0
 40
0.1738614998
 40
0.4116350072
 40
1.0
 40
1.0
 40
1.0
 40
1.0
 10
-24.367607118
 20
7.672350921
 30
0.0
 10
-24.3660995133
 20
7.629860557
 30
0.0
 10
-24.3638293356
 20
7.5292169718
 30
0.0
 10
-24.3604893489
 20
7.2846946517
 30
0.0
 10
-24.3596859771
 20
7.0826609446
 30
0.0
 10
-24.359691676
 20
6.9387787509
 30
0.0
 11
-24.367607118
 21
7.672350921
 31
0.0
 11
-24.3643415328
 21
7.5448414269
 31
0.0
 11
-24.3618223412
 21
7.3704200735
 31
0.0
 11
-24.359691676
 21
6.9387787509
 31
0.0
  0
SPLINE
  5
965
100
AcDbEntity
  8
RACCORDO
100
AcDbSpline
 62
253
  6
CONTINUOUS
 70
0
 71
3
 72
10
 73
6
 74
4
 42
0.0000001
 43
0.0000001
 44
0.0000000001
 12
0.0000290464
 22
-0.7336374552
 32
0.0
 13
-0.0260140266
 23
-0.7331760954
 33
0.0
 40
0.0
 40
0.0
 40
0.0
 40
0.0
 40
0.5883650021
 40
0.8261384957
 40
1.0
 40
1.0
 40
1.0
 40
1.0
 10
-24.359691676
 20
-6.9387787509
 30
0.0
 10
-24.3596859794
 20
-7.0826609519
 30
0.0
 10
-24.360489343
 20
-7.2846946651
 30
0.0
 10
-24.3638293423
 20
-7.5292169935
 30
0.0
 10
-24.3660995061
 20
-7.6298605803
 30
0.0
 10
-24.3676071187
 20
-7.6723509466
 30
0.0
 11
-24.359691676
 21
-6.9387787509
 31
0.0
 11
-24.3618223413
 21
-7.3704200955
 31
0.0
 11
-24.3643415339
 21
-7.5448414448
 31
0.0
 11
-24.3676071187
 21
-7.6723509466
 31
0.0
  0
SPLINE
  5
966
100
AcDbEntity
  8
RACCORDO
100
AcDbSpline
 62
253
  6
CONTINUOUS
 70
0
 71
3
 72
10
 73
6
 74
4
 42
0.0000001
 43
0.0000001
 44
0.0000000001
 12
-0.0260138913
 22
0.7331760745
 32
0.0
 13
0.0000290579
 23
0.7336374295
 33
0.0
 40
0.0
 40
0.0
 40
0.0
 40
0.0
 40
0.1738614998
 40
0.4116350072
 40
1.0
 40
1.0
 40
1.0
 40
1.0
 10
24.3676071171
 20
-7.672350921
 30
0.0
 10
24.3660995124
 20
-7.629860557
 30
0.0
 10
24.3638293347
 20
-7.5292169718
 30
0.0
 10
24.360489348
 20
-7.2846946517
 30
0.0
 10
24.3596859762
 20
-7.0826609446
 30
0.0
 10
24.3596916751
 20
-6.9387787509
 30
0.0
 11
24.3676071171
 21
-7.672350921
 31
0.0
 11
24.3643415319
 21
-7.5448414269
 31
0.0
 11
24.3618223403
 21
-7.3704200735
 31
0.0
 11
24.3596916751
 21
-6.9387787509
 31
0.0
  0
SPLINE
  5
967
100
AcDbEntity
  8
RACCORDO
100
AcDbSpline
 62
253
  6
CONTINUOUS
 70
0
 71
3
 72
10
 73
6
 74
4
 42
0.0000001
 43
0.0000001
 44
0.0000000001
 12
-0.0000290464
 22
0.7336374552
 32
0.0
 13
0.0260140266
 23
0.7331760954
 33
0.0
 40
0.0
 40
0.0
 40
0.0
 40
0.0
 40
0.5883650021
 40
0.8261384957
 40
1.0
 40
1.0
 40
1.0
 40
1.0
 10
24.3596916751
 20
6.9387787509
 30
0.0
 10
24.3596859785
 20
7.0826609519
 30
0.0
 10
24.3604893421
 20
7.2846946651
 30
0.0
 10
24.3638293414
 20
7.5292169935
 30
0.0
 10
24.3660995052
 20
7.6298605803
 30
0.0
 10
24.3676071178
 20
7.6723509466
 30
0.0
 11
24.3596916751
 21
6.9387787509
 31
0.0
 11
24.3618223404
 21
7.3704200955
 31
0.0
 11
24.364341533
 21
7.5448414448
 31
0.0
 11
24.3676071178
 21
7.6723509466
 31
0.0
  0
SPLINE
  5
968
100
AcDbEntity
  8
RACCORDO
100
AcDbSpline
 62
253
  6
CONTINUOUS
 70
0
 71
3
 72
12
 73
8
 74
6
 42
0.0000001
 43
0.0000001
 44
0.0000000001
 12
-0.0041975828
 22
0.490417573
 32
0.0
 13
-0.4860044879
 23
-0.0657773016
 33
0.0
 40
0.0
 40
0.0
 40
0.0
 40
0.0
 40
0.2360988952
 40
0.3580591893
 40
0.4828908447
 40
0.7389463051
 40
1.0
 40
1.0
 40
1.0
 40
1.0
 10
-24.3676173179
 20
-7.6723605723
 30
0.0
 10
-24.3679476661
 20
-7.6337648899
 30
0.0
 10
-24.3832915474
 20
-7.5743514496
 30
0.0
 10
-24.4279152285
 20
-7.5086904045
 30
0.0
 10
-24.4880098936
 20
-7.4517093855
 30
0.0
 10
-24.5854242982
 20
-7.4052810814
 30
0.0
 10
-24.6722252115
 20
-7.4003439422
 30
0.0
 10
-24.7145163006
 20
-7.4060677447
 30
0.0
 11
-24.3676173179
 21
-7.6723605723
 31
0.0
 11
-24.3958976862
 21
-7.5600759196
 31
0.0
 11
-24.4292831797
 21
-7.5104464624
 31
0.0
 11
-24.4736465551
 21
-7.4682563036
 31
0.0
 11
-24.5867081779
 21
-7.4136021305
 31
0.0
 11
-24.7145163006
 21
-7.4060677447
 31
0.0
  0
SPLINE
  5
969
100
AcDbEntity
  8
RACCORDO
100
AcDbSpline
 62
253
  6
CONTINUOUS
 70
0
 71
3
 72
12
 73
8
 74
6
 42
0.0000001
 43
0.0000001
 44
0.0000000001
 12
-0.0041799589
 22
-0.4904280458
 32
0.0
 13
-0.4860124095
 23
0.0657957292
 33
0.0
 40
0.0
 40
0.0
 40
0.0
 40
0.0
 40
0.2361004956
 40
0.358060921
 40
0.4828923706
 40
0.7389469052
 40
1.0
 40
1.0
 40
1.0
 40
1.0
 10
-24.367616467
 20
7.6723605719
 30
0.0
 10
-24.3679454305
 20
7.6337638037
 30
0.0
 10
-24.3832877139
 20
7.5743481843
 30
0.0
 10
-24.4279110047
 20
7.5086844918
 30
0.0
 10
-24.4880060508
 20
7.4517015097
 30
0.0
 10
-24.5854226195
 20
7.4052723724
 30
0.0
 10
-24.6722255113
 20
7.4003372943
 30
0.0
 10
-24.7145171925
 20
7.4060626872
 30
0.0
 11
-24.367616467
 21
7.6723605719
 31
0.0
 11
-24.3958940057
 21
7.5600718841
 31
0.0
 11
-24.4292791205
 21
7.5104405774
 31
0.0
 11
-24.4736427812
 21
7.4682489954
 31
0.0
 11
-24.5867064907
 21
7.4135941096
 31
0.0
 11
-24.7145171925
 21
7.4060626872
 31
0.0
  0
SPLINE
  5
96A
100
AcDbEntity
  8
RACCORDO
100
AcDbSpline
 62
253
  6
CONTINUOUS
 70
0
 71
3
 72
12
 73
8
 74
6
 42
0.0000001
 43
0.0000001
 44
0.0000000001
 12
0.0041975828
 22
-0.490417573
 32
0.0
 13
0.4860044879
 23
0.0657773016
 33
0.0
 40
0.0
 40
0.0
 40
0.0
 40
0.0
 40
0.2360988952
 40
0.3580591893
 40
0.4828908447
 40
0.7389463051
 40
1.0
 40
1.0
 40
1.0
 40
1.0
 10
24.367617317
 20
7.6723605723
 30
0.0
 10
24.3679476652
 20
7.6337648899
 30
0.0
 10
24.3832915465
 20
7.5743514496
 30
0.0
 10
24.4279152276
 20
7.5086904045
 30
0.0
 10
24.4880098927
 20
7.4517093855
 30
0.0
 10
24.5854242973
 20
7.4052810814
 30
0.0
 10
24.6722252106
 20
7.4003439422
 30
0.0
 10
24.7145162997
 20
7.4060677447
 30
0.0
 11
24.367617317
 21
7.6723605723
 31
0.0
 11
24.3958976853
 21
7.5600759196
 31
0.0
 11
24.4292831788
 21
7.5104464624
 31
0.0
 11
24.4736465542
 21
7.4682563036
 31
0.0
 11
24.586708177
 21
7.4136021305
 31
0.0
 11
24.7145162997
 21
7.4060677447
 31
0.0
  0
SPLINE
  5
96B
100
AcDbEntity
  8
RACCORDO
100
AcDbSpline
 62
253
  6
CONTINUOUS
 70
0
 71
3
 72
12
 73
8
 74
6
 42
0.0000001
 43
0.0000001
 44
0.0000000001
 12
0.0041799589
 22
0.4904280458
 32
0.0
 13
0.4860124095
 23
-0.0657957292
 33
0.0
 40
0.0
 40
0.0
 40
0.0
 40
0.0
 40
0.2361004956
 40
0.358060921
 40
0.4828923706
 40
0.7389469052
 40
1.0
 40
1.0
 40
1.0
 40
1.0
 10
24.3676164661
 20
-7.6723605719
 30
0.0
 10
24.3679454296
 20
-7.6337638037
 30
0.0
 10
24.383287713
 20
-7.5743481843
 30
0.0
 10
24.4279110038
 20
-7.5086844918
 30
0.0
 10
24.4880060499
 20
-7.4517015097
 30
0.0
 10
24.5854226186
 20
-7.4052723724
 30
0.0
 10
24.6722255104
 20
-7.4003372943
 30
0.0
 10
24.7145171916
 20
-7.4060626872
 30
0.0
 11
24.3676164661
 21
-7.6723605719
 31
0.0
 11
24.3958940048
 21
-7.5600718841
 31
0.0
 11
24.4292791196
 21
-7.5104405774
 31
0.0
 11
24.4736427803
 21
-7.4682489954
 31
0.0
 11
24.5867064898
 21
-7.4135941096
 31
0.0
 11
24.7145171916
 21
-7.4060626872
 31
0.0
  0
SPLINE
  5
96C
100
AcDbEntity
  8
RACCORDO
100
AcDbSpline
 62
253
  6
CONTINUOUS
 70
0
 71
3
 72
12
 73
8
 74
6
 42
0.0000001
 43
0.0000001
 44
0.0000000001
 12
0.0345041701
 22
0.2210277226
 32
0.0
 13
0.2203057399
 23
0.0388480746
 33
0.0
 40
0.0
 40
0.0
 40
0.0
 40
0.0
 40
0.1662262312
 40
0.2826831148
 40
0.4135062716
 40
0.6995365745
 40
1.0
 40
1.0
 40
1.0
 40
1.0
 10
24.7145158865
 20
7.4060700881
 30
0.0
 10
24.7164277192
 20
7.4183169566
 30
0.0
 10
24.7365070247
 20
7.4332445359
 30
0.0
 10
24.7637875757
 20
7.4453332196
 30
0.0
 10
24.8018244831
 20
7.4582075984
 30
0.0
 10
24.8536644734
 20
7.4708473436
 30
0.0
 10
24.8966371602
 20
7.4792752752
 30
0.0
 10
24.918701766
 20
7.4831660837
 30
0.0
 11
24.7145158865
 21
7.4060700881
 31
0.0
 11
24.739547856
 21
7.4335686066
 31
0.0
 11
24.7631331229
 21
7.4446338399
 31
0.0
 11
24.7907936381
 21
7.4541931444
 31
0.0
 11
24.8527610641
 21
7.4701395416
 31
0.0
 11
24.918701766
 21
7.4831660837
 31
0.0
  0
SPLINE
  5
96D
100
AcDbEntity
  8
RACCORDO
100
AcDbSpline
 62
253
  6
CONTINUOUS
 70
0
 71
3
 72
10
 73
6
 74
4
 42
0.0000001
 43
0.0000001
 44
0.0000000001
 12
0.0472536272
 22
0.4681221181
 32
0.0
 13
0.0724138544
 23
0.4648951026
 33
0.0
 40
0.0
 40
0.0
 40
0.0
 40
0.0
 40
0.5850244775
 40
0.8238018096
 40
1.0
 40
1.0
 40
1.0
 40
1.0
 10
24.6596494207
 20
6.9388126024
 30
0.0
 10
24.6688642635
 20
7.0301002349
 30
0.0
 10
24.6825732293
 20
7.1585806037
 30
0.0
 10
24.7015471769
 20
7.3142609469
 30
0.0
 10
24.7102628231
 20
7.3787655295
 30
0.0
 10
24.7145158865
 20
7.4060700881
 30
0.0
 11
24.6596494207
 21
6.9388126024
 31
0.0
 11
24.6893043591
 21
7.2124651032
 31
0.0
 11
24.7030132992
 21
7.3239705284
 31
0.0
 11
24.7145158865
 21
7.4060700881
 31
0.0
  0
SPLINE
  5
96E
100
AcDbEntity
  8
ASSI
100
AcDbSpline
 62
7
  6
CONTINUOUS
 70
0
 71
3
 72
13
 73
9
 74
7
 42
0.0000001
 43
0.0000001
 44
0.0000000001
 12
-0.2151429795
 22
0.1830147018
 32
0.0
 13
-0.1981579101
 23
0.2012817065
 33
0.0
 40
0.0
 40
0.0
 40
0.0
 40
0.0
 40
0.0379976089
 40
0.1203582723
 40
0.2344388138
 40
0.3693454693
 40
0.674332703
 40
1.0
 40
1.0
 40
1.0
 40
1.0
 10
-8.2400670068
 20
25.200274093
 30
0.0
 10
-8.2427919798
 20
25.2025921334
 30
0.0
 10
-8.2503950208
 20
25.2110481039
 30
0.0
 10
-8.2663273164
 20
25.2263063623
 30
0.0
 10
-8.2882345697
 20
25.2485294823
 30
0.0
 10
-8.3251992285
 20
25.2853219081
 30
0.0
 10
-8.3760085476
 20
25.3364497751
 30
0.0
 10
-8.4182817301
 20
25.3781497102
 30
0.0
 10
-8.4397929138
 20
25.4
 30
0.0
 11
-8.2400670068
 21
25.200274093
 31
0.0
 11
-8.2476500548
 21
25.2078692547
 31
0.0
 11
-8.2641079908
 21
25.2243104322
 31
0.0
 11
-8.286889561
 21
25.2470985427
 31
0.0
 11
-8.3138355888
 21
25.2740412255
 31
0.0
 11
-8.3747336676
 21
25.3349708515
 31
0.0
 11
-8.4397929138
 21
25.4
 31
0.0
  0
SPLINE
  5
96F
100
AcDbEntity
  8
ASSI
100
AcDbSpline
 62
7
  6
CONTINUOUS
 70
0
 71
3
 72
13
 73
9
 74
7
 42
0.0000001
 43
0.0000001
 44
0.0000000001
 12
-0.1981579101
 22
-0.2012817065
 32
0.0
 13
-0.2151429795
 23
-0.1830147018
 33
0.0
 40
0.0
 40
0.0
 40
0.0
 40
0.0
 40
0.325667297
 40
0.6306545307
 40
0.7655611862
 40
0.8796417277
 40
0.9620023911
 40
1.0
 40
1.0
 40
1.0
 40
1.0
 10
-14.0602070871
 20
25.4
 30
0.0
 10
-14.0817182708
 20
25.3781497102
 30
0.0
 10
-14.1239914533
 20
25.3364497751
 30
0.0
 10
-14.1748007724
 20
25.2853219081
 30
0.0
 10
-14.2117654312
 20
25.2485294823
 30
0.0
 10
-14.2336726845
 20
25.2263063623
 30
0.0
 10
-14.2496049801
 20
25.2110481039
 30
0.0
 10
-14.2572080211
 20
25.2025921334
 30
0.0
 10
-14.2599329941
 20
25.200274093
 30
0.0
 11
-14.0602070871
 21
25.4
 31
0.0
 11
-14.1252663333
 21
25.3349708515
 31
0.0
 11
-14.1861644121
 21
25.2740412255
 31
0.0
 11
-14.2131104398
 21
25.2470985427
 31
0.0
 11
-14.2358920101
 21
25.2243104322
 31
0.0
 11
-14.2523499461
 21
25.2078692547
 31
0.0
 11
-14.2599329941
 21
25.200274093
 31
0.0
  0
SPLINE
  5
970
100
AcDbEntity
  8
RACCORDO
100
AcDbSpline
 62
253
  6
CONTINUOUS
 70
0
 71
3
 72
12
 73
8
 74
6
 42
0.0000001
 43
0.0000001
 44
0.0000000001
 12
-0.2203057393
 22
0.0388480772
 32
0.0
 13
-0.0345044104
 23
0.221027685
 33
0.0
 40
0.0
 40
0.0
 40
0.0
 40
0.0
 40
0.3004634255
 40
0.5864937316
 40
0.7173168829
 40
0.8337737703
 40
1.0
 40
1.0
 40
1.0
 40
1.0
 10
24.918701766
 20
-7.4831660837
 30
0.0
 10
24.8966371603
 20
-7.4792752749
 30
0.0
 10
24.8536644735
 20
-7.4708473435
 30
0.0
 10
24.8018244821
 20
-7.4582075992
 30
0.0
 10
24.7637875768
 20
-7.4453332189
 30
0.0
 10
24.7365070206
 20
-7.4332445367
 30
0.0
 10
24.7164277325
 20
-7.4183169544
 30
0.0
 10
24.7145158865
 20
-7.4060700881
 30
0.0
 11
24.918701766
 21
-7.4831660837
 31
0.0
 11
24.8527610641
 21
-7.4701395417
 31
0.0
 11
24.7907936374
 21
-7.4541931444
 31
0.0
 11
24.7631331236
 21
-7.4446338398
 31
0.0
 11
24.7395478558
 21
-7.4335686063
 31
0.0
 11
24.7145158865
 21
-7.4060700881
 31
0.0
  0
SPLINE
  5
971
100
AcDbEntity
  8
RACCORDO
100
AcDbSpline
 62
253
  6
CONTINUOUS
 70
0
 71
3
 72
10
 73
6
 74
4
 42
0.0000001
 43
0.0000001
 44
0.0000000001
 12
-0.072413867
 22
0.4648950652
 32
0.0
 13
-0.047253589
 23
0.4681220867
 33
0.0
 40
0.0
 40
0.0
 40
0.0
 40
0.0
 40
0.1761981894
 40
0.4149755219
 40
1.0
 40
1.0
 40
1.0
 40
1.0
 10
24.7145158865
 20
-7.4060700881
 30
0.0
 10
24.7102628224
 20
-7.3787655319
 30
0.0
 10
24.701547179
 20
-7.3142609538
 30
0.0
 10
24.6825732307
 20
-7.1585806225
 30
0.0
 10
24.6688642596
 20
-7.0301002637
 30
0.0
 10
24.6596494242
 20
-6.9388126372
 30
0.0
 11
24.7145158865
 21
-7.4060700881
 31
0.0
 11
24.7030133004
 21
-7.323970535
 31
0.0
 11
24.6893043603
 21
-7.212465118
 31
0.0
 11
24.6596494242
 21
-6.9388126372
 31
0.0
  0
SPLINE
  5
972
100
AcDbEntity
  8
RACCORDO
100
AcDbSpline
 62
253
  6
CONTINUOUS
 70
0
 71
3
 72
12
 73
8
 74
6
 42
0.0000001
 43
0.0000001
 44
0.0000000001
 12
-0.0345041701
 22
-0.2210277226
 32
0.0
 13
-0.2203057399
 23
-0.0388480746
 33
0.0
 40
0.0
 40
0.0
 40
0.0
 40
0.0
 40
0.1662262312
 40
0.2826831148
 40
0.4135062716
 40
0.6995365745
 40
1.0
 40
1.0
 40
1.0
 40
1.0
 10
-24.7145158874
 20
-7.4060700881
 30
0.0
 10
-24.7164277201
 20
-7.4183169566
 30
0.0
 10
-24.7365070256
 20
-7.4332445359
 30
0.0
 10
-24.7637875766
 20
-7.4453332196
 30
0.0
 10
-24.801824484
 20
-7.4582075984
 30
0.0
 10
-24.8536644743
 20
-7.4708473436
 30
0.0
 10
-24.8966371611
 20
-7.4792752752
 30
0.0
 10
-24.9187017669
 20
-7.4831660837
 30
0.0
 11
-24.7145158874
 21
-7.4060700881
 31
0.0
 11
-24.7395478569
 21
-7.4335686066
 31
0.0
 11
-24.7631331238
 21
-7.4446338399
 31
0.0
 11
-24.790793639
 21
-7.4541931444
 31
0.0
 11
-24.852761065
 21
-7.4701395416
 31
0.0
 11
-24.9187017669
 21
-7.4831660837
 31
0.0
  0
SPLINE
  5
973
100
AcDbEntity
  8
RACCORDO
100
AcDbSpline
 62
253
  6
CONTINUOUS
 70
0
 71
3
 72
10
 73
6
 74
4
 42
0.0000001
 43
0.0000001
 44
0.0000000001
 12
-0.0472536272
 22
-0.4681221181
 32
0.0
 13
-0.0724138544
 23
-0.4648951026
 33
0.0
 40
0.0
 40
0.0
 40
0.0
 40
0.0
 40
0.5850244775
 40
0.8238018096
 40
1.0
 40
1.0
 40
1.0
 40
1.0
 10
-24.6596494216
 20
-6.9388126024
 30
0.0
 10
-24.6688642644
 20
-7.0301002349
 30
0.0
 10
-24.6825732302
 20
-7.1585806037
 30
0.0
 10
-24.7015471778
 20
-7.3142609469
 30
0.0
 10
-24.710262824
 20
-7.3787655295
 30
0.0
 10
-24.7145158874
 20
-7.4060700881
 30
0.0
 11
-24.6596494216
 21
-6.9388126024
 31
0.0
 11
-24.68930436
 21
-7.2124651032
 31
0.0
 11
-24.7030133001
 21
-7.3239705284
 31
0.0
 11
-24.7145158874
 21
-7.4060700881
 31
0.0
  0
SPLINE
  5
974
100
AcDbEntity
  8
RACCORDO
100
AcDbSpline
 62
253
  6
CONTINUOUS
 70
0
 71
3
 72
12
 73
8
 74
6
 42
0.0000001
 43
0.0000001
 44
0.0000000001
 12
0.2203057393
 22
-0.0388480772
 32
0.0
 13
0.0345044104
 23
-0.221027685
 33
0.0
 40
0.0
 40
0.0
 40
0.0
 40
0.0
 40
0.3004634255
 40
0.5864937316
 40
0.7173168829
 40
0.8337737703
 40
1.0
 40
1.0
 40
1.0
 40
1.0
 10
-24.9187017669
 20
7.4831660837
 30
0.0
 10
-24.8966371612
 20
7.4792752749
 30
0.0
 10
-24.8536644744
 20
7.4708473435
 30
0.0
 10
-24.801824483
 20
7.4582075992
 30
0.0
 10
-24.7637875777
 20
7.4453332189
 30
0.0
 10
-24.7365070215
 20
7.4332445367
 30
0.0
 10
-24.7164277334
 20
7.4183169544
 30
0.0
 10
-24.7145158874
 20
7.4060700881
 30
0.0
 11
-24.9187017669
 21
7.4831660837
 31
0.0
 11
-24.852761065
 21
7.4701395417
 31
0.0
 11
-24.7907936383
 21
7.4541931444
 31
0.0
 11
-24.7631331244
 21
7.4446338398
 31
0.0
 11
-24.7395478567
 21
7.4335686063
 31
0.0
 11
-24.7145158874
 21
7.4060700881
 31
0.0
  0
SPLINE
  5
975
100
AcDbEntity
  8
RACCORDO
100
AcDbSpline
 62
253
  6
CONTINUOUS
 70
0
 71
3
 72
10
 73
6
 74
4
 42
0.0000001
 43
0.0000001
 44
0.0000000001
 12
0.072413867
 22
-0.4648950652
 32
0.0
 13
0.047253589
 23
-0.4681220867
 33
0.0
 40
0.0
 40
0.0
 40
0.0
 40
0.0
 40
0.1761981894
 40
0.4149755219
 40
1.0
 40
1.0
 40
1.0
 40
1.0
 10
-24.7145158874
 20
7.4060700881
 30
0.0
 10
-24.7102628233
 20
7.3787655319
 30
0.0
 10
-24.7015471799
 20
7.3142609538
 30
0.0
 10
-24.6825732316
 20
7.1585806225
 30
0.0
 10
-24.6688642605
 20
7.0301002637
 30
0.0
 10
-24.6596494251
 20
6.9388126372
 30
0.0
 11
-24.7145158874
 21
7.4060700881
 31
0.0
 11
-24.7030133013
 21
7.323970535
 31
0.0
 11
-24.6893043612
 21
7.212465118
 31
0.0
 11
-24.6596494251
 21
6.9388126372
 31
0.0
  0
SPLINE
  5
976
100
AcDbEntity
  8
ASSI
100
AcDbSpline
 62
7
  6
CONTINUOUS
 70
0
 71
3
 72
13
 73
9
 74
7
 42
0.0000001
 43
0.0000001
 44
0.0000000001
 12
-0.2151429795
 22
0.1830147018
 32
0.0
 13
-0.1981579101
 23
0.2012817065
 33
0.0
 40
0.0
 40
0.0
 40
0.0
 40
0.0
 40
0.0379976089
 40
0.1203582723
 40
0.2344388138
 40
0.3693454693
 40
0.674332703
 40
1.0
 40
1.0
 40
1.0
 40
1.0
 10
14.2599329932
 20
25.200274093
 30
0.0
 10
14.2572080202
 20
25.2025921334
 30
0.0
 10
14.2496049792
 20
25.2110481039
 30
0.0
 10
14.2336726836
 20
25.2263063623
 30
0.0
 10
14.2117654303
 20
25.2485294823
 30
0.0
 10
14.1748007715
 20
25.2853219081
 30
0.0
 10
14.1239914524
 20
25.3364497751
 30
0.0
 10
14.0817182699
 20
25.3781497102
 30
0.0
 10
14.0602070862
 20
25.4
 30
0.0
 11
14.2599329932
 21
25.200274093
 31
0.0
 11
14.2523499452
 21
25.2078692547
 31
0.0
 11
14.2358920092
 21
25.2243104322
 31
0.0
 11
14.213110439
 21
25.2470985427
 31
0.0
 11
14.1861644112
 21
25.2740412255
 31
0.0
 11
14.1252663324
 21
25.3349708515
 31
0.0
 11
14.0602070862
 21
25.4
 31
0.0
  0
SPLINE
  5
977
100
AcDbEntity
  8
ASSI
100
AcDbSpline
 62
7
  6
CONTINUOUS
 70
0
 71
3
 72
13
 73
9
 74
7
 42
0.0000001
 43
0.0000001
 44
0.0000000001
 12
-0.1981579101
 22
-0.2012817065
 32
0.0
 13
-0.2151429795
 23
-0.1830147018
 33
0.0
 40
0.0
 40
0.0
 40
0.0
 40
0.0
 40
0.325667297
 40
0.6306545307
 40
0.7655611862
 40
0.8796417277
 40
0.9620023911
 40
1.0
 40
1.0
 40
1.0
 40
1.0
 10
8.4397929129
 20
25.4
 30
0.0
 10
8.4182817292
 20
25.3781497102
 30
0.0
 10
8.3760085467
 20
25.3364497751
 30
0.0
 10
8.3251992276
 20
25.2853219081
 30
0.0
 10
8.2882345688
 20
25.2485294823
 30
0.0
 10
8.2663273155
 20
25.2263063623
 30
0.0
 10
8.2503950199
 20
25.2110481039
 30
0.0
 10
8.2427919789
 20
25.2025921334
 30
0.0
 10
8.2400670059
 20
25.200274093
 30
0.0
 11
8.4397929129
 21
25.4
 31
0.0
 11
8.3747336667
 21
25.3349708515
 31
0.0
 11
8.3138355879
 21
25.2740412255
 31
0.0
 11
8.2868895602
 21
25.2470985427
 31
0.0
 11
8.2641079899
 21
25.2243104322
 31
0.0
 11
8.2476500539
 21
25.2078692547
 31
0.0
 11
8.2400670059
 21
25.200274093
 31
0.0
  0
SPLINE
  5
978
100
AcDbEntity
  8
RACCORDO
100
AcDbSpline
 62
7
  6
CONTINUOUS
 70
0
 71
3
 72
9
 73
5
 74
3
 42
0.0000001
 43
0.0000001
 44
0.0000000001
 12
0.0
 22
0.2259575329
 32
0.0
 13
0.2058681046
 23
0.093140379
 33
0.0
 40
0.0
 40
0.0
 40
0.0
 40
0.0
 40
0.5000811872
 40
1.0
 40
1.0
 40
1.0
 40
1.0
 10
24.7497544186
 20
-8.4497239581
 30
0.0
 10
24.7497544186
 20
-8.4120582543
 30
0.0
 10
24.7721699243
 20
-8.3350952244
 30
0.0
 10
24.833225449
 20
-8.2833009131
 30
0.0
 10
24.8675312285
 20
-8.2677800372
 30
0.0
 11
24.7497544186
 21
-8.4497239581
 31
0.0
 11
24.7818367061
 21
-8.3413769508
 31
0.0
 11
24.8675312285
 21
-8.2677800372
 31
0.0
  0
SPLINE
  5
979
100
AcDbEntity
  8
RACCORDO
100
AcDbSpline
 62
7
  6
CONTINUOUS
 70
0
 71
3
 72
9
 73
5
 74
3
 42
0.0000001
 43
0.0000001
 44
0.0000000001
 12
-0.205868111
 22
0.093140382
 32
0.0
 13
0.0
 23
0.22595754
 33
0.0
 40
0.0
 40
0.0
 40
0.0
 40
0.0
 40
0.4999212536
 40
1.0
 40
1.0
 40
1.0
 40
1.0
 10
24.8675312285
 20
-12.8822199628
 30
0.0
 10
24.8332252805
 20
-12.8666990106
 30
0.0
 10
24.7721697701
 20
-12.8149045819
 30
0.0
 10
24.7497544186
 20
-12.737941563
 30
0.0
 10
24.7497544186
 20
-12.7002760419
 30
0.0
 11
24.8675312285
 21
-12.8822199628
 31
0.0
 11
24.7818363831
 21
-12.8086225734
 31
0.0
 11
24.7497544186
 21
-12.7002760419
 31
0.0
  0
SPLINE
  5
97A
100
AcDbEntity
  8
ASSI
100
AcDbSpline
 62
7
  6
CONTINUOUS
 70
0
 71
3
 72
13
 73
9
 74
7
 42
0.0000001
 43
0.0000001
 44
0.0000000001
 12
0.2151429795
 22
-0.1830147018
 32
0.0
 13
0.1981579101
 23
-0.2012817065
 33
0.0
 40
0.0
 40
0.0
 40
0.0
 40
0.0
 40
0.0379976089
 40
0.1203582723
 40
0.2344388138
 40
0.3693454693
 40
0.674332703
 40
1.0
 40
1.0
 40
1.0
 40
1.0
 10
-14.2599329941
 20
-25.200274093
 30
0.0
 10
-14.2572080211
 20
-25.2025921334
 30
0.0
 10
-14.2496049801
 20
-25.2110481039
 30
0.0
 10
-14.2336726845
 20
-25.2263063623
 30
0.0
 10
-14.2117654312
 20
-25.2485294823
 30
0.0
 10
-14.1748007724
 20
-25.2853219081
 30
0.0
 10
-14.1239914533
 20
-25.3364497751
 30
0.0
 10
-14.0817182708
 20
-25.3781497102
 30
0.0
 10
-14.0602070871
 20
-25.4
 30
0.0
 11
-14.2599329941
 21
-25.200274093
 31
0.0
 11
-14.2523499461
 21
-25.2078692547
 31
0.0
 11
-14.2358920101
 21
-25.2243104322
 31
0.0
 11
-14.2131104398
 21
-25.2470985427
 31
0.0
 11
-14.1861644121
 21
-25.2740412255
 31
0.0
 11
-14.1252663333
 21
-25.3349708515
 31
0.0
 11
-14.0602070871
 21
-25.4
 31
0.0
  0
SPLINE
  5
97B
100
AcDbEntity
  8
ASSI
100
AcDbSpline
 62
7
  6
CONTINUOUS
 70
0
 71
3
 72
13
 73
9
 74
7
 42
0.0000001
 43
0.0000001
 44
0.0000000001
 12
0.1981579101
 22
0.2012817065
 32
0.0
 13
0.2151429795
 23
0.1830147018
 33
0.0
 40
0.0
 40
0.0
 40
0.0
 40
0.0
 40
0.325667297
 40
0.6306545307
 40
0.7655611862
 40
0.8796417277
 40
0.9620023911
 40
1.0
 40
1.0
 40
1.0
 40
1.0
 10
-8.4397929138
 20
-25.4
 30
0.0
 10
-8.4182817301
 20
-25.3781497102
 30
0.0
 10
-8.3760085476
 20
-25.3364497751
 30
0.0
 10
-8.3251992285
 20
-25.2853219081
 30
0.0
 10
-8.2882345697
 20
-25.2485294823
 30
0.0
 10
-8.2663273164
 20
-25.2263063623
 30
0.0
 10
-8.2503950208
 20
-25.2110481039
 30
0.0
 10
-8.2427919798
 20
-25.2025921334
 30
0.0
 10
-8.2400670068
 20
-25.200274093
 30
0.0
 11
-8.4397929138
 21
-25.4
 31
0.0
 11
-8.3747336676
 21
-25.3349708515
 31
0.0
 11
-8.3138355888
 21
-25.2740412255
 31
0.0
 11
-8.286889561
 21
-25.2470985427
 31
0.0
 11
-8.2641079908
 21
-25.2243104322
 31
0.0
 11
-8.2476500548
 21
-25.2078692547
 31
0.0
 11
-8.2400670068
 21
-25.200274093
 31
0.0
  0
SPLINE
  5
97C
100
AcDbEntity
  8
RACCORDO
100
AcDbSpline
 62
7
  6
CONTINUOUS
 70
0
 71
3
 72
9
 73
5
 74
3
 42
0.0000001
 43
0.0000001
 44
0.0000000001
 12
0.0
 22
0.2259575329
 32
0.0
 13
0.2058681046
 23
0.093140379
 33
0.0
 40
0.0
 40
0.0
 40
0.0
 40
0.0
 40
0.5000811872
 40
1.0
 40
1.0
 40
1.0
 40
1.0
 10
24.7497544186
 20
12.7002760419
 30
0.0
 10
24.7497544186
 20
12.7379417457
 30
0.0
 10
24.7721699243
 20
12.8149047756
 30
0.0
 10
24.833225449
 20
12.8666990869
 30
0.0
 10
24.8675312285
 20
12.8822199628
 30
0.0
 11
24.7497544186
 21
12.7002760419
 31
0.0
 11
24.7818367061
 21
12.8086230492
 31
0.0
 11
24.8675312285
 21
12.8822199628
 31
0.0
  0
SPLINE
  5
97D
100
AcDbEntity
  8
RACCORDO
100
AcDbSpline
 62
7
  6
CONTINUOUS
 70
0
 71
3
 72
9
 73
5
 74
3
 42
0.0000001
 43
0.0000001
 44
0.0000000001
 12
-0.205868111
 22
0.093140382
 32
0.0
 13
0.0
 23
0.22595754
 33
0.0
 40
0.0
 40
0.0
 40
0.0
 40
0.0
 40
0.4999212536
 40
1.0
 40
1.0
 40
1.0
 40
1.0
 10
24.8675312285
 20
8.2677800372
 30
0.0
 10
24.8332252805
 20
8.2833009894
 30
0.0
 10
24.7721697701
 20
8.3350954181
 30
0.0
 10
24.7497544186
 20
8.412058437
 30
0.0
 10
24.7497544186
 20
8.4497239581
 30
0.0
 11
24.8675312285
 21
8.2677800372
 31
0.0
 11
24.7818363831
 21
8.3413774266
 31
0.0
 11
24.7497544186
 21
8.4497239581
 31
0.0
  0
SPLINE
  5
97E
100
AcDbEntity
  8
RACCORDO
100
AcDbSpline
 62
7
  6
CONTINUOUS
 70
0
 71
3
 72
9
 73
5
 74
3
 42
0.0000001
 43
0.0000001
 44
0.0000000001
 12
0.0
 22
-0.2259575329
 32
0.0
 13
-0.2058681046
 23
-0.093140379
 33
0.0
 40
0.0
 40
0.0
 40
0.0
 40
0.0
 40
0.5000811872
 40
1.0
 40
1.0
 40
1.0
 40
1.0
 10
-24.7497544195
 20
-12.7002760419
 30
0.0
 10
-24.7497544195
 20
-12.7379417457
 30
0.0
 10
-24.7721699252
 20
-12.8149047756
 30
0.0
 10
-24.8332254499
 20
-12.8666990869
 30
0.0
 10
-24.8675312294
 20
-12.8822199628
 30
0.0
 11
-24.7497544195
 21
-12.7002760419
 31
0.0
 11
-24.781836707
 21
-12.8086230492
 31
0.0
 11
-24.8675312294
 21
-12.8822199628
 31
0.0
  0
SPLINE
  5
97F
100
AcDbEntity
  8
RACCORDO
100
AcDbSpline
 62
7
  6
CONTINUOUS
 70
0
 71
3
 72
9
 73
5
 74
3
 42
0.0000001
 43
0.0000001
 44
0.0000000001
 12
0.205868111
 22
-0.093140382
 32
0.0
 13
0.0
 23
-0.22595754
 33
0.0
 40
0.0
 40
0.0
 40
0.0
 40
0.0
 40
0.4999212536
 40
1.0
 40
1.0
 40
1.0
 40
1.0
 10
-24.8675312294
 20
-8.2677800372
 30
0.0
 10
-24.8332252813
 20
-8.2833009894
 30
0.0
 10
-24.772169771
 20
-8.3350954181
 30
0.0
 10
-24.7497544195
 20
-8.412058437
 30
0.0
 10
-24.7497544195
 20
-8.4497239581
 30
0.0
 11
-24.8675312294
 21
-8.2677800372
 31
0.0
 11
-24.781836384
 21
-8.3413774266
 31
0.0
 11
-24.7497544195
 21
-8.4497239581
 31
0.0
  0
SPLINE
  5
980
100
AcDbEntity
  8
RACCORDO
100
AcDbSpline
 62
7
  6
CONTINUOUS
 70
0
 71
3
 72
9
 73
5
 74
3
 42
0.0000001
 43
0.0000001
 44
0.0000000001
 12
0.205868111
 22
-0.093140382
 32
0.0
 13
0.0
 23
-0.22595754
 33
0.0
 40
0.0
 40
0.0
 40
0.0
 40
0.0
 40
0.4999212536
 40
1.0
 40
1.0
 40
1.0
 40
1.0
 10
-24.8675312294
 20
12.8822199628
 30
0.0
 10
-24.8332252813
 20
12.8666990106
 30
0.0
 10
-24.772169771
 20
12.8149045819
 30
0.0
 10
-24.7497544195
 20
12.737941563
 30
0.0
 10
-24.7497544195
 20
12.7002760419
 30
0.0
 11
-24.8675312294
 21
12.8822199628
 31
0.0
 11
-24.781836384
 21
12.8086225734
 31
0.0
 11
-24.7497544195
 21
12.7002760419
 31
0.0
  0
SPLINE
  5
981
100
AcDbEntity
  8
RACCORDO
100
AcDbSpline
 62
7
  6
CONTINUOUS
 70
0
 71
3
 72
9
 73
5
 74
3
 42
0.0000001
 43
0.0000001
 44
0.0000000001
 12
0.0
 22
-0.2259575329
 32
0.0
 13
-0.2058681046
 23
-0.093140379
 33
0.0
 40
0.0
 40
0.0
 40
0.0
 40
0.0
 40
0.5000811872
 40
1.0
 40
1.0
 40
1.0
 40
1.0
 10
-24.7497544195
 20
8.4497239581
 30
0.0
 10
-24.7497544195
 20
8.4120582543
 30
0.0
 10
-24.7721699252
 20
8.3350952244
 30
0.0
 10
-24.8332254499
 20
8.2833009131
 30
0.0
 10
-24.8675312294
 20
8.2677800372
 30
0.0
 11
-24.7497544195
 21
8.4497239581
 31
0.0
 11
-24.781836707
 21
8.3413769508
 31
0.0
 11
-24.8675312294
 21
8.2677800372
 31
0.0
  0
LINE
  5
982
100
AcDbEntity
  8
RACCORDO
100
AcDbLine
 62
7
  6
CONTINUOUS
 10
-23.1500000004
 20
25.2
 11
-23.1500000004
 21
25.167531229
  0
LINE
  5
983
100
AcDbEntity
  8
RACCORDO
100
AcDbLine
 62
7
  6
CONTINUOUS
 10
-24.3676073818
 20
24.7000761524
 11
-24.8675312294
 21
25.2
  0
SPLINE
  5
984
100
AcDbEntity
  8
RACCORDO
100
AcDbSpline
 62
253
  6
CONTINUOUS
 70
0
 71
3
 72
15
 73
11
 74
9
 42
0.0000001
 43
0.0000001
 44
0.0000000001
 12
0.5193067171
 22
-0.0367181114
 32
0.0
 13
0.045781787
 23
-0.5185862648
 33
0.0
 40
0.0
 40
0.0
 40
0.0
 40
0.0
 40
0.3669564833
 40
0.5331368905
 40
0.6796103982
 40
0.8013153628
 40
0.8947790722
 40
0.9305467653
 40
0.9592831158
 40
1.0
 40
1.0
 40
1.0
 40
1.0
 10
-24.8675312294
 20
7.7733686226
 30
0.0
 10
-24.8040102405
 20
7.7688773063
 30
0.0
 10
-24.7117850485
 20
7.7611991014
 30
0.0
 10
-24.5946314351
 20
7.7475590252
 30
0.0
 10
-24.5200529733
 20
7.7364538093
 30
0.0
 10
-24.4585281785
 20
7.7239025426
 30
0.0
 10
-24.4166430964
 20
7.7116271345
 30
0.0
 10
-24.391660691
 20
7.6999255718
 30
0.0
 10
-24.3764828464
 20
7.6901627023
 30
0.0
 10
-24.3682284822
 20
7.6793961678
 30
0.0
 10
-24.3676071182
 20
7.6723577621
 30
0.0
 11
-24.8675312294
 21
7.7733686226
 31
0.0
 11
-24.6772057742
 21
7.7568758161
 31
0.0
 11
-24.5912948568
 21
7.7466780091
 31
0.0
 11
-24.5159260013
 21
7.735089395
 31
0.0
 11
-24.4539446461
 21
7.7219440395
 31
0.0
 11
-24.4076053255
 21
7.7071042207
 31
0.0
 11
-24.3908244029
 21
7.6990336625
 31
0.0
 11
-24.3785130006
 21
7.6905343667
 31
0.0
 11
-24.3676071182
 21
7.6723577621
 31
0.0
  0
SPLINE
  5
985
100
AcDbEntity
  8
ASSI
100
AcDbSpline
 62
7
  6
CONTINUOUS
 70
0
 71
3
 72
13
 73
9
 74
7
 42
0.0000001
 43
0.0000001
 44
0.0000000001
 12
0.2151429795
 22
-0.1830147018
 32
0.0
 13
0.1981579101
 23
-0.2012817065
 33
0.0
 40
0.0
 40
0.0
 40
0.0
 40
0.0
 40
0.0379976089
 40
0.1203582723
 40
0.2344388138
 40
0.3693454693
 40
0.674332703
 40
1.0
 40
1.0
 40
1.0
 40
1.0
 10
8.2400670059
 20
-25.200274093
 30
0.0
 10
8.2427919789
 20
-25.2025921334
 30
0.0
 10
8.2503950199
 20
-25.2110481039
 30
0.0
 10
8.2663273155
 20
-25.2263063623
 30
0.0
 10
8.2882345688
 20
-25.2485294823
 30
0.0
 10
8.3251992276
 20
-25.2853219081
 30
0.0
 10
8.3760085467
 20
-25.3364497751
 30
0.0
 10
8.4182817292
 20
-25.3781497102
 30
0.0
 10
8.4397929129
 20
-25.4
 30
0.0
 11
8.2400670059
 21
-25.200274093
 31
0.0
 11
8.2476500539
 21
-25.2078692547
 31
0.0
 11
8.2641079899
 21
-25.2243104322
 31
0.0
 11
8.2868895602
 21
-25.2470985427
 31
0.0
 11
8.3138355879
 21
-25.2740412255
 31
0.0
 11
8.3747336667
 21
-25.3349708515
 31
0.0
 11
8.4397929129
 21
-25.4
 31
0.0
  0
SPLINE
  5
986
100
AcDbEntity
  8
ASSI
100
AcDbSpline
 62
7
  6
CONTINUOUS
 70
0
 71
3
 72
13
 73
9
 74
7
 42
0.0000001
 43
0.0000001
 44
0.0000000001
 12
0.1981579101
 22
0.2012817065
 32
0.0
 13
0.2151429795
 23
0.1830147018
 33
0.0
 40
0.0
 40
0.0
 40
0.0
 40
0.0
 40
0.325667297
 40
0.6306545307
 40
0.7655611862
 40
0.8796417277
 40
0.9620023911
 40
1.0
 40
1.0
 40
1.0
 40
1.0
 10
14.0602070862
 20
-25.4
 30
0.0
 10
14.0817182699
 20
-25.3781497102
 30
0.0
 10
14.1239914524
 20
-25.3364497751
 30
0.0
 10
14.1748007715
 20
-25.2853219081
 30
0.0
 10
14.2117654303
 20
-25.2485294823
 30
0.0
 10
14.2336726836
 20
-25.2263063623
 30
0.0
 10
14.2496049792
 20
-25.2110481039
 30
0.0
 10
14.2572080202
 20
-25.2025921334
 30
0.0
 10
14.2599329932
 20
-25.200274093
 30
0.0
 11
14.0602070862
 21
-25.4
 31
0.0
 11
14.1252663324
 21
-25.3349708515
 31
0.0
 11
14.1861644112
 21
-25.2740412255
 31
0.0
 11
14.213110439
 21
-25.2470985427
 31
0.0
 11
14.2358920092
 21
-25.2243104322
 31
0.0
 11
14.2523499452
 21
-25.2078692547
 31
0.0
 11
14.2599329932
 21
-25.200274093
 31
0.0
  0
ELLIPSE
  5
987
100
AcDbEntity
  8
RACCORDO
100
AcDbEllipse
 62
7
  6
CONTINUOUS
 10
-22.3412267696
 20
22.2912267691
 30
0.0
 11
0.2121966567
 21
-0.2121966568
 31
0.0
 40
0.9996954599
 41
2.4629343564
 42
3.9268385237
  0
ELLIPSE
  5
988
100
AcDbEntity
  8
RACCORDO
100
AcDbEllipse
 62
7
  6
CONTINUOUS
 10
-22.3412267696
 20
22.2912267691
 30
0.0
 11
-0.2121966568
 21
0.2121966567
 31
0.0
 40
0.9996954599
 41
-0.7852458702
 42
-0.6786582972
  0
ELLIPSE
  5
989
100
AcDbEntity
  8
RACCORDO
100
AcDbEllipse
 62
7
  6
CONTINUOUS
 10
-22.3412267696
 20
-22.2912267691
 30
0.0
 11
0.2121966568
 21
0.2121966567
 31
0.0
 40
0.9996954599
 41
2.3563467834
 42
3.9268385237
  0
ELLIPSE
  5
98A
100
AcDbEntity
  8
RACCORDO
100
AcDbEllipse
 62
7
  6
CONTINUOUS
 10
22.3412267687
 20
22.2912267691
 30
0.0
 11
0.2121966568
 21
0.2121966567
 31
0.0
 40
0.9996954599
 41
-0.7852458701
 42
0.7852458701
  0
ELLIPSE
  5
98B
100
AcDbEntity
  8
RACCORDO
100
AcDbEllipse
 62
7
  6
CONTINUOUS
 10
22.3412267687
 20
-22.2912267691
 30
0.0
 11
0.2121966567
 21
-0.2121966568
 31
0.0
 40
0.9996954599
 41
-0.7852458701
 42
0.7852458702
  0
ELLIPSE
  5
98C
100
AcDbEntity
  8
RACCORDO
100
AcDbEllipse
 62
7
  6
CONTINUOUS
 10
24.9930941376
 20
19.743017974
 30
0.0
 11
0.5
 21
-0.0
 31
0.0
 40
0.0174550649
 41
2.0787322992
 42
3.1241393611
  0
ELLIPSE
  5
98D
100
AcDbEntity
  8
RACCORDO
100
AcDbEllipse
 62
7
  6
CONTINUOUS
 10
24.9930941376
 20
15.256982026
 30
0.0
 11
0.5
 21
0.0
 31
0.0
 40
0.0174550649
 41
-3.1241393611
 42
-2.0787322992
  0
ELLIPSE
  5
98E
100
AcDbEntity
  8
RACCORDO
100
AcDbEllipse
 62
7
  6
CONTINUOUS
 10
24.9930941376
 20
-15.256982026
 30
0.0
 11
0.5
 21
0.0
 31
0.0
 40
0.0174550649
 41
2.0787322992
 42
3.1241393611
  0
ELLIPSE
  5
98F
100
AcDbEntity
  8
RACCORDO
100
AcDbEllipse
 62
7
  6
CONTINUOUS
 10
24.9930941376
 20
-19.743017974
 30
0.0
 11
0.5
 21
-0.0
 31
0.0
 40
0.0174550649
 41
-3.1241393611
 42
-2.0787322992
  0
ELLIPSE
  5
990
100
AcDbEntity
  8
RACCORDO
100
AcDbEllipse
 62
7
  6
CONTINUOUS
 10
-24.9930941385
 20
-19.743017974
 30
0.0
 11
0.5
 21
-0.0
 31
0.0
 40
0.0174550649
 41
-1.0628603544
 42
-0.0174532925
  0
ELLIPSE
  5
991
100
AcDbEntity
  8
RACCORDO
100
AcDbEllipse
 62
7
  6
CONTINUOUS
 10
-24.9930941385
 20
-15.256982026
 30
0.0
 11
0.5
 21
-0.0
 31
0.0
 40
0.0174550649
 41
0.0174532925
 42
1.0628603544
  0
ELLIPSE
  5
992
100
AcDbEntity
  8
RACCORDO
100
AcDbEllipse
 62
7
  6
CONTINUOUS
 10
-24.9930941385
 20
15.256982026
 30
0.0
 11
0.5
 21
0.0
 31
0.0
 40
0.0174550649
 41
-1.0628603544
 42
-0.0174532925
  0
ELLIPSE
  5
993
100
AcDbEntity
  8
RACCORDO
100
AcDbEllipse
 62
7
  6
CONTINUOUS
 10
-24.9930941385
 20
19.743017974
 30
0.0
 11
0.5
 21
0.0
 31
0.0
 40
0.0174550649
 41
0.0174532925
 42
1.0628603544
  0
ELLIPSE
  5
994
100
AcDbEntity
  8
RACCORDO
100
AcDbEllipse
 62
7
  6
CONTINUOUS
 10
-22.4570242442
 20
22.4070242437
 30
0.0
 11
-0.212713873
 21
0.212713873
 31
0.0
 40
0.9972646886
 41
0.0526213611
 42
0.1554496347
  0
ELLIPSE
  5
995
100
AcDbEntity
  8
RACCORDO
100
AcDbEllipse
 62
7
  6
CONTINUOUS
 10
-22.4570242442
 20
22.4070242437
 30
0.0
 11
0.212713873
 21
-0.212713873
 31
0.0
 40
0.9972646886
 41
2.5779926115
 42
3.1942140147
  0
ELLIPSE
  5
996
100
AcDbEntity
  8
RACCORDO
100
AcDbEllipse
 62
7
  6
CONTINUOUS
 10
-22.4570242442
 20
-22.4070242437
 30
0.0
 11
0.212713873
 21
0.212713873
 31
0.0
 40
0.9972646886
 41
-3.2970420744
 42
-2.5779924175
  0
ELLIPSE
  5
997
100
AcDbEntity
  8
RACCORDO
100
AcDbEllipse
 62
7
  6
CONTINUOUS
 10
22.4570242433
 20
22.4070242437
 30
0.0
 11
0.212713873
 21
0.212713873
 31
0.0
 40
0.9972646886
 41
-0.1554496347
 42
0.5636000421
  0
ELLIPSE
  5
998
100
AcDbEntity
  8
RACCORDO
100
AcDbEllipse
 62
7
  6
CONTINUOUS
 10
22.4570242433
 20
-22.4070242437
 30
0.0
 11
-0.212713873
 21
0.212713873
 31
0.0
 40
0.9972646886
 41
-3.0889712925
 42
-2.9861430189
  0
ELLIPSE
  5
999
100
AcDbEntity
  8
RACCORDO
100
AcDbEllipse
 62
7
  6
CONTINUOUS
 10
22.4570242433
 20
-22.4070242437
 30
0.0
 11
0.212713873
 21
-0.212713873
 31
0.0
 40
0.9972646886
 41
-0.2608307472
 42
0.0526213611
  0
ELLIPSE
  5
99A
100
AcDbEntity
  8
RACCORDO
100
AcDbEllipse
 62
7
  6
CONTINUOUS
 10
22.4570242433
 20
-22.4070242437
 30
0.0
 11
-0.212713873
 21
0.212713873
 31
0.0
 40
0.9972646886
 41
-3.7051926957
 42
-3.4024234008
  0
ELLIPSE
  5
99B
100
AcDbEntity
  8
RACCORDO
100
AcDbEllipse
 62
7
  6
CONTINUOUS
 10
-24.0755019783
 20
-15.2744370909
 30
0.0
 11
0.4
 21
-0.0
 31
0.0
 40
0.0174550649
 41
-3.1241393611
 42
-1.5707963268
  0
ELLIPSE
  5
99C
100
AcDbEntity
  8
RACCORDO
100
AcDbEllipse
 62
7
  6
CONTINUOUS
 10
24.0755019774
 20
-15.2744370909
 30
0.0
 11
0.4
 21
-0.0
 31
0.0
 40
0.0174550649
 41
-1.5707963268
 42
-0.0174532925
  0
ELLIPSE
  5
99D
100
AcDbEntity
  8
RACCORDO
100
AcDbEllipse
 62
7
  6
CONTINUOUS
 10
-24.0755019783
 20
-19.7255629091
 30
0.0
 11
0.4
 21
-0.0
 31
0.0
 40
0.0174550649
 41
1.5707963268
 42
3.1241393611
  0
ELLIPSE
  5
99E
100
AcDbEntity
  8
RACCORDO
100
AcDbEllipse
 62
7
  6
CONTINUOUS
 10
24.0755019774
 20
-19.7255629091
 30
0.0
 11
0.4
 21
-0.0
 31
0.0
 40
0.0174550649
 41
0.0174532925
 42
1.5707963268
  0
ELLIPSE
  5
99F
100
AcDbEntity
  8
RACCORDO
100
AcDbEllipse
 62
7
  6
CONTINUOUS
 10
-24.0755019783
 20
19.7255629091
 30
0.0
 11
0.4
 21
-0.0
 31
0.0
 40
0.0174550649
 41
-3.1241393611
 42
-1.5707963268
  0
ELLIPSE
  5
9A0
100
AcDbEntity
  8
RACCORDO
100
AcDbEllipse
 62
7
  6
CONTINUOUS
 10
24.0755019774
 20
19.7255629091
 30
0.0
 11
0.4
 21
0.0
 31
0.0
 40
0.0174550649
 41
-1.5707963268
 42
-0.0174532925
  0
ELLIPSE
  5
9A1
100
AcDbEntity
  8
RACCORDO
100
AcDbEllipse
 62
7
  6
CONTINUOUS
 10
-24.0755019783
 20
15.2744370909
 30
0.0
 11
0.4
 21
-0.0
 31
0.0
 40
0.0174550649
 41
1.5707963268
 42
3.1241393611
  0
ELLIPSE
  5
9A2
100
AcDbEntity
  8
RACCORDO
100
AcDbEllipse
 62
7
  6
CONTINUOUS
 10
24.0755019774
 20
15.2744370909
 30
0.0
 11
0.4
 21
-0.0
 31
0.0
 40
0.0174550649
 41
0.0174532925
 42
1.5707963268
  0
ELLIPSE
  5
9A3
100
AcDbEntity
  8
RACCORDO
100
AcDbEllipse
 62
7
  6
CONTINUOUS
 10
-23.5000000004
 20
19.7482544935
 30
0.0
 11
0.2
 21
-0.0
 31
0.0
 40
0.0174550649
 41
2.0945053725
 42
3.1415926536
  0
ELLIPSE
  5
9A4
100
AcDbEntity
  8
RACCORDO
100
AcDbEllipse
 62
7
  6
CONTINUOUS
 10
-23.5000000004
 20
15.2517455065
 30
0.0
 11
0.2
 21
-0.0
 31
0.0
 40
0.0174550649
 41
3.1415926536
 42
4.1886799347
  0
ELLIPSE
  5
9A5
100
AcDbEntity
  8
RACCORDO
100
AcDbEllipse
 62
7
  6
CONTINUOUS
 10
23.4999999996
 20
15.2517455065
 30
0.0
 11
0.2
 21
-0.0
 31
0.0
 40
0.0174550649
 41
-1.0470872811
 42
-0.0
  0
ELLIPSE
  5
9A6
100
AcDbEntity
  8
RACCORDO
100
AcDbEllipse
 62
7
  6
CONTINUOUS
 10
23.4999999996
 20
19.7482544935
 30
0.0
 11
0.2
 21
-0.0
 31
0.0
 40
0.0174550649
 41
0.0
 42
1.0470872811
  0
ELLIPSE
  5
9A7
100
AcDbEntity
  8
RACCORDO
100
AcDbEllipse
 62
7
  6
CONTINUOUS
 10
23.4999999996
 20
-19.7482544935
 30
0.0
 11
0.2
 21
0.0
 31
0.0
 40
0.0174550649
 41
-1.0470872811
 42
-0.0
  0
ELLIPSE
  5
9A8
100
AcDbEntity
  8
RACCORDO
100
AcDbEllipse
 62
7
  6
CONTINUOUS
 10
23.4999999996
 20
-15.2517455065
 30
0.0
 11
0.2
 21
-0.0
 31
0.0
 40
0.0174550649
 41
-0.0
 42
1.0470872811
  0
ELLIPSE
  5
9A9
100
AcDbEntity
  8
RACCORDO
100
AcDbEllipse
 62
7
  6
CONTINUOUS
 10
-23.5000000004
 20
-15.2517455065
 30
0.0
 11
0.2
 21
-0.0
 31
0.0
 40
0.0174550649
 41
2.0945053725
 42
3.1415926536
  0
ELLIPSE
  5
9AA
100
AcDbEntity
  8
RACCORDO
100
AcDbEllipse
 62
7
  6
CONTINUOUS
 10
-23.5000000004
 20
-19.7482544935
 30
0.0
 11
0.2
 21
-0.0
 31
0.0
 40
0.0174550649
 41
-3.1415926536
 42
-2.0945053725
  0
ELLIPSE
  5
9AB
100
AcDbEntity
  8
RACCORDO
100
AcDbEllipse
 62
7
  6
CONTINUOUS
 10
22.3757921854
 20
22.3257921858
 30
0.0
 11
0.212713873
 21
0.212713873
 31
0.0
 40
0.9972646886
 41
-0.7840286355
 42
0.7840286355
  0
ELLIPSE
  5
9AC
100
AcDbEntity
  8
RACCORDO
100
AcDbEllipse
 62
7
  6
CONTINUOUS
 10
22.3757921854
 20
-22.3257921858
 30
0.0
 11
0.212713873
 21
-0.212713873
 31
0.0
 40
0.9972646886
 41
-0.7840286355
 42
0.7840286355
  0
ELLIPSE
  5
9AD
100
AcDbEntity
  8
RACCORDO
100
AcDbEllipse
 62
7
  6
CONTINUOUS
 10
-22.3757921863
 20
-22.3257921858
 30
0.0
 11
0.212713873
 21
0.212713873
 31
0.0
 40
0.9972646886
 41
-3.9256212891
 42
-2.3575640181
  0
ELLIPSE
  5
9AE
100
AcDbEntity
  8
RACCORDO
100
AcDbEllipse
 62
7
  6
CONTINUOUS
 10
-22.3757921863
 20
22.3257921858
 30
0.0
 11
0.212713873
 21
-0.212713873
 31
0.0
 40
0.9972646886
 41
2.3575640181
 42
3.9256212891
  0
ELLIPSE
  5
9AF
100
AcDbEntity
  8
RACCORDO
100
AcDbEllipse
 62
7
  6
CONTINUOUS
 10
12.5069841535
 20
-43.5465394526
 30
0.0
 11
0.0
 21
0.2
 31
0.0
 40
0.0349207695
 41
0.0174532925
 42
1.5707963268
  0
ELLIPSE
  5
9B0
100
AcDbEntity
  8
RACCORDO
100
AcDbEllipse
 62
7
  6
CONTINUOUS
 10
12.5069841535
 20
43.5465394526
 30
0.0
 11
-0.0
 21
0.2
 31
0.0
 40
0.0349207695
 41
1.5707963268
 42
3.1241393611
  0
ELLIPSE
  5
9B1
100
AcDbEntity
  8
RACCORDO
100
AcDbEllipse
 62
7
  6
CONTINUOUS
 10
17.4930158457
 20
-43.5465394526
 30
0.0
 11
0.0
 21
0.2
 31
0.0
 40
0.0349207695
 41
-1.5707963268
 42
-0.0174532925
  0
ELLIPSE
  5
9B2
100
AcDbEntity
  8
RACCORDO
100
AcDbEllipse
 62
7
  6
CONTINUOUS
 10
17.4930158457
 20
43.5465394526
 30
0.0
 11
0.0
 21
0.2
 31
0.0
 40
0.0349207695
 41
-3.1241393611
 42
-1.5707963268
  0
ELLIPSE
  5
9B3
100
AcDbEntity
  8
RACCORDO
100
AcDbEllipse
 62
7
  6
CONTINUOUS
 10
-17.4930158465
 20
-43.5465394526
 30
0.0
 11
-0.0
 21
0.2
 31
0.0
 40
0.0349207695
 41
0.0174532925
 42
1.5707963268
  0
ELLIPSE
  5
9B4
100
AcDbEntity
  8
RACCORDO
100
AcDbEllipse
 62
7
  6
CONTINUOUS
 10
-17.4930158465
 20
43.5465394526
 30
0.0
 11
0.0
 21
0.2
 31
0.0
 40
0.0349207695
 41
1.5707963268
 42
3.1241393611
  0
ELLIPSE
  5
9B5
100
AcDbEntity
  8
RACCORDO
100
AcDbEllipse
 62
7
  6
CONTINUOUS
 10
-12.5069841543
 20
-43.5465394526
 30
0.0
 11
0.0
 21
0.2
 31
0.0
 40
0.0349207695
 41
-1.5707963268
 42
-0.0174532925
  0
ELLIPSE
  5
9B6
100
AcDbEntity
  8
RACCORDO
100
AcDbEllipse
 62
7
  6
CONTINUOUS
 10
-12.5069841543
 20
43.5465394526
 30
0.0
 11
0.0
 21
0.2
 31
0.0
 40
0.0349207695
 41
-3.1241393611
 42
-1.5707963268
  0
ELLIPSE
  5
9B7
100
AcDbEntity
  8
RACCORDO
100
AcDbEllipse
 62
7
  6
CONTINUOUS
 10
-43.5465394531
 20
17.4930158461
 30
0.0
 11
0.2
 21
-0.0
 31
0.0
 40
0.0349207695
 41
0.0174532925
 42
1.5707963268
  0
ELLIPSE
  5
9B8
100
AcDbEntity
  8
RACCORDO
100
AcDbEllipse
 62
7
  6
CONTINUOUS
 10
43.5465394522
 20
17.4930158461
 30
0.0
 11
0.2
 21
0.0
 31
0.0
 40
0.0349207695
 41
1.5707963268
 42
3.1241393611
  0
ELLIPSE
  5
9B9
100
AcDbEntity
  8
RACCORDO
100
AcDbEllipse
 62
7
  6
CONTINUOUS
 10
-43.5465394531
 20
12.5069841539
 30
0.0
 11
0.2
 21
-0.0
 31
0.0
 40
0.0349207695
 41
-1.5707963268
 42
-0.0174532925
  0
ELLIPSE
  5
9BA
100
AcDbEntity
  8
RACCORDO
100
AcDbEllipse
 62
7
  6
CONTINUOUS
 10
43.5465394522
 20
12.5069841539
 30
0.0
 11
0.2
 21
-0.0
 31
0.0
 40
0.0349207695
 41
-3.1241393611
 42
-1.5707963268
  0
ELLIPSE
  5
9BB
100
AcDbEntity
  8
RACCORDO
100
AcDbEllipse
 62
7
  6
CONTINUOUS
 10
-43.5465394531
 20
-12.5069841539
 30
0.0
 11
0.2
 21
-0.0
 31
0.0
 40
0.0349207695
 41
0.0174532925
 42
1.5707963268
  0
ELLIPSE
  5
9BC
100
AcDbEntity
  8
RACCORDO
100
AcDbEllipse
 62
7
  6
CONTINUOUS
 10
43.5465394522
 20
-12.5069841539
 30
0.0
 11
0.2
 21
-0.0
 31
0.0
 40
0.0349207695
 41
1.5707963268
 42
3.1241393611
  0
ELLIPSE
  5
9BD
100
AcDbEntity
  8
RACCORDO
100
AcDbEllipse
 62
7
  6
CONTINUOUS
 10
-43.5465394531
 20
-17.4930158461
 30
0.0
 11
0.2
 21
-0.0
 31
0.0
 40
0.0349207695
 41
-1.5707963268
 42
-0.0174532925
  0
ELLIPSE
  5
9BE
100
AcDbEntity
  8
RACCORDO
100
AcDbEllipse
 62
7
  6
CONTINUOUS
 10
43.5465394522
 20
-17.4930158461
 30
0.0
 11
0.2
 21
0.0
 31
0.0
 40
0.0349207695
 41
-3.1241393611
 42
-1.5707963268
  0
ELLIPSE
  5
9BF
100
AcDbEntity
  8
RACCORDO
100
AcDbEllipse
 62
7
  6
CONTINUOUS
 10
43.6894660294
 20
-12.5733336159
 30
0.0
 11
0.4
 21
-0.0
 31
0.0
 40
0.0349207695
 41
-1.5707963268
 42
-0.0174532925
  0
ELLIPSE
  5
9C0
100
AcDbEntity
  8
RACCORDO
100
AcDbEllipse
 62
7
  6
CONTINUOUS
 10
-43.6894660303
 20
-17.4266663841
 30
0.0
 11
0.4
 21
0.0
 31
0.0
 40
0.0349207695
 41
1.5707963268
 42
3.1241393611
  0
ELLIPSE
  5
9C1
100
AcDbEntity
  8
RACCORDO
100
AcDbEllipse
 62
7
  6
CONTINUOUS
 10
43.6894660294
 20
-17.4266663841
 30
0.0
 11
0.4
 21
0.0
 31
0.0
 40
0.0349207695
 41
0.0174532925
 42
1.5707963268
  0
ELLIPSE
  5
9C2
100
AcDbEntity
  8
RACCORDO
100
AcDbEllipse
 62
7
  6
CONTINUOUS
 10
12.5733336155
 20
-43.6894660298
 30
0.0
 11
-0.0
 21
0.4
 31
0.0
 40
0.0349207695
 41
-3.1241393611
 42
-1.5707963268
  0
ELLIPSE
  5
9C3
100
AcDbEntity
  8
RACCORDO
100
AcDbEllipse
 62
7
  6
CONTINUOUS
 10
12.5733336155
 20
43.6894660298
 30
0.0
 11
0.0
 21
0.4
 31
0.0
 40
0.0349207695
 41
-1.5707963268
 42
-0.0174532925
  0
ELLIPSE
  5
9C4
100
AcDbEntity
  8
RACCORDO
100
AcDbEllipse
 62
7
  6
CONTINUOUS
 10
17.4266663836
 20
-43.6894660298
 30
0.0
 11
-0.0
 21
0.4
 31
0.0
 40
0.0349207695
 41
-4.7123889804
 42
-3.1590459461
  0
ELLIPSE
  5
9C5
100
AcDbEntity
  8
RACCORDO
100
AcDbEllipse
 62
7
  6
CONTINUOUS
 10
17.4266663836
 20
43.6894660298
 30
0.0
 11
0.0
 21
0.4
 31
0.0
 40
0.0349207695
 41
0.0174532925
 42
1.5707963268
  0
ELLIPSE
  5
9C6
100
AcDbEntity
  8
RACCORDO
100
AcDbEllipse
 62
7
  6
CONTINUOUS
 10
-17.4266663845
 20
-43.6894660298
 30
0.0
 11
-0.0
 21
0.4
 31
0.0
 40
0.0349207695
 41
-3.1241393611
 42
-1.5707963268
  0
ELLIPSE
  5
9C7
100
AcDbEntity
  8
RACCORDO
100
AcDbEllipse
 62
7
  6
CONTINUOUS
 10
-17.4266663845
 20
43.6894660298
 30
0.0
 11
0.0
 21
0.4
 31
0.0
 40
0.0349207695
 41
-1.5707963268
 42
-0.0174532925
  0
ELLIPSE
  5
9C8
100
AcDbEntity
  8
RACCORDO
100
AcDbEllipse
 62
7
  6
CONTINUOUS
 10
-12.5733336164
 20
-43.6894660298
 30
0.0
 11
0.0
 21
0.4
 31
0.0
 40
0.0349207695
 41
-4.7123889804
 42
-3.1590459461
  0
ELLIPSE
  5
9C9
100
AcDbEntity
  8
RACCORDO
100
AcDbEllipse
 62
7
  6
CONTINUOUS
 10
-12.5733336164
 20
43.6894660298
 30
0.0
 11
0.0
 21
0.4
 31
0.0
 40
0.0349207695
 41
0.0174532925
 42
1.5707963268
  0
ELLIPSE
  5
9CA
100
AcDbEntity
  8
RACCORDO
100
AcDbEllipse
 62
7
  6
CONTINUOUS
 10
-43.6894660303
 20
17.4266663841
 30
0.0
 11
0.4
 21
0.0
 31
0.0
 40
0.0349207695
 41
-3.1241393611
 42
-1.5707963268
  0
ELLIPSE
  5
9CB
100
AcDbEntity
  8
RACCORDO
100
AcDbEllipse
 62
7
  6
CONTINUOUS
 10
43.6894660294
 20
17.4266663841
 30
0.0
 11
0.4
 21
0.0
 31
0.0
 40
0.0349207695
 41
-1.5707963268
 42
-0.0174532925
  0
ELLIPSE
  5
9CC
100
AcDbEntity
  8
RACCORDO
100
AcDbEllipse
 62
7
  6
CONTINUOUS
 10
-43.6894660303
 20
12.5733336159
 30
0.0
 11
0.4
 21
0.0
 31
0.0
 40
0.0349207695
 41
1.5707963268
 42
3.1241393611
  0
ELLIPSE
  5
9CD
100
AcDbEntity
  8
RACCORDO
100
AcDbEllipse
 62
7
  6
CONTINUOUS
 10
43.6894660294
 20
12.5733336159
 30
0.0
 11
0.4
 21
-0.0
 31
0.0
 40
0.0349207695
 41
0.0174532925
 42
1.5707963268
  0
ELLIPSE
  5
9CE
100
AcDbEntity
  8
RACCORDO
100
AcDbEllipse
 62
7
  6
CONTINUOUS
 10
-43.6894660303
 20
-12.5733336159
 30
0.0
 11
0.4
 21
0.0
 31
0.0
 40
0.0349207695
 41
-3.1241393611
 42
-1.5707963268
  0
ELLIPSE
  5
9CF
100
AcDbEntity
  8
RACCORDO
100
AcDbEllipse
 62
7
  6
CONTINUOUS
 10
-23.0017912054
 20
14.3
 30
0.0
 11
0.3000456984
 21
-0.0
 31
0.0
 40
0.9998476952
 41
-1.5707963268
 42
0.0
  0
ELLIPSE
  5
9D0
100
AcDbEntity
  8
RACCORDO
100
AcDbEllipse
 62
7
  6
CONTINUOUS
 10
23.0017912045
 20
20.7
 30
0.0
 11
0.3000456984
 21
-0.0
 31
0.0
 40
0.9998476952
 41
1.5707963268
 42
3.1415926536
  0
ELLIPSE
  5
9D1
100
AcDbEntity
  8
RACCORDO
100
AcDbEllipse
 62
7
  6
CONTINUOUS
 10
23.0017912045
 20
-14.3
 30
0.0
 11
-0.3000456984
 21
0.0
 31
0.0
 40
0.9998476952
 41
-1.5707963268
 42
0.0
  0
ELLIPSE
  5
9D2
100
AcDbEntity
  8
RACCORDO
100
AcDbEllipse
 62
7
  6
CONTINUOUS
 10
-23.0000456989
 20
22.3
 30
0.0
 11
-0.3000456984
 21
-0.0
 31
0.0
 40
0.9998476952
 41
1.5707963268
 42
3.1415926536
  0
ELLIPSE
  5
9D3
100
AcDbEntity
  8
RACCORDO
100
AcDbEllipse
 62
7
  6
CONTINUOUS
 10
23.000045698
 20
-22.3
 30
0.0
 11
0.3000456984
 21
0.0
 31
0.0
 40
0.9998476952
 41
1.5707963268
 42
3.1415926536
  0
ELLIPSE
  5
9D4
100
AcDbEntity
  8
RACCORDO
100
AcDbEllipse
 62
7
  6
CONTINUOUS
 10
-7.7000000004
 20
23.0000456984
 30
0.0
 11
-0.0
 21
-0.3000456984
 31
0.0
 40
0.9998476952
 41
-1.5707963268
 42
0.0
  0
ELLIPSE
  5
9D5
100
AcDbEntity
  8
RACCORDO
100
AcDbEllipse
 62
7
  6
CONTINUOUS
 10
-14.8000000004
 20
-23.0000456984
 30
0.0
 11
0.0
 21
0.3000456984
 31
0.0
 40
0.9998476952
 41
-1.5707963268
 42
-0.0
  0
ELLIPSE
  5
9D6
100
AcDbEntity
  8
RACCORDO
100
AcDbEllipse
 62
7
  6
CONTINUOUS
 10
7.6999999996
 20
-23.0000456984
 30
0.0
 11
0.0
 21
0.3000456984
 31
0.0
 40
0.9998476952
 41
-1.5707963268
 42
0.0
  0
ELLIPSE
  5
9D7
100
AcDbEntity
  8
RACCORDO
100
AcDbEllipse
 62
7
  6
CONTINUOUS
 10
-43.3496953444
 20
43.3496953439
 30
0.0
 11
1.4146443783
 21
-1.4146443783
 31
0.0
 40
0.9996954599
 41
2.3563467834
 42
3.9268385237
  0
ELLIPSE
  5
9D8
100
AcDbEntity
  8
RACCORDO
100
AcDbEllipse
 62
7
  6
CONTINUOUS
 10
43.3496953435
 20
43.3496953439
 30
0.0
 11
1.4146443783
 21
1.4146443783
 31
0.0
 40
0.9996954599
 41
-0.7852458701
 42
0.7852458702
  0
ELLIPSE
  5
9D9
100
AcDbEntity
  8
RACCORDO
100
AcDbEllipse
 62
7
  6
CONTINUOUS
 10
43.3496953435
 20
-43.3496953439
 30
0.0
 11
1.4146443783
 21
-1.4146443783
 31
0.0
 40
0.9996954599
 41
-0.7852458702
 42
0.7852458701
  0
ELLIPSE
  5
9DA
100
AcDbEntity
  8
RACCORDO
100
AcDbEllipse
 62
7
  6
CONTINUOUS
 10
-43.3496953444
 20
-43.3496953439
 30
0.0
 11
1.4146443783
 21
1.4146443783
 31
0.0
 40
0.9996954599
 41
-3.9268385237
 42
-2.3563467834
  0
ELLIPSE
  5
9DB
100
AcDbEntity
  8
RACCORDO
100
AcDbEllipse
 62
7
  6
CONTINUOUS
 10
23.000045698
 20
22.3
 30
0.0
 11
0.3000456984
 21
-0.0
 31
0.0
 40
0.9998476952
 41
-3.1415926536
 42
-1.5707963268
  0
ELLIPSE
  5
9DC
100
AcDbEntity
  8
RACCORDO
100
AcDbEllipse
 62
7
  6
CONTINUOUS
 10
-23.0000456989
 20
-22.3
 30
0.0
 11
-0.3000456984
 21
0.0
 31
0.0
 40
0.9998476952
 41
-3.1415926536
 42
-1.5707963268
  0
ELLIPSE
  5
9DD
100
AcDbEntity
  8
RACCORDO
100
AcDbEllipse
 62
7
  6
CONTINUOUS
 10
23.000045698
 20
-6.6999543016
 30
0.0
 11
0.2121966568
 21
0.2121966568
 31
0.0
 40
0.9996954599
 41
2.3563467834
 42
3.9268385237
  0
ELLIPSE
  5
9DE
100
AcDbEntity
  8
RACCORDO
100
AcDbEllipse
 62
7
  6
CONTINUOUS
 10
23.000045698
 20
6.6999543016
 30
0.0
 11
-0.2121966568
 21
0.2121966568
 31
0.0
 40
0.9996954599
 41
-0.7852458701
 42
0.7852458701
  0
ELLIPSE
  5
9DF
100
AcDbEntity
  8
RACCORDO
100
AcDbEllipse
 62
7
  6
CONTINUOUS
 10
-23.0000456989
 20
6.6999543016
 30
0.0
 11
-0.2121966568
 21
-0.2121966568
 31
0.0
 40
0.9996954599
 41
2.3563467834
 42
3.9268385237
  0
ELLIPSE
  5
9E0
100
AcDbEntity
  8
RACCORDO
100
AcDbEllipse
 62
7
  6
CONTINUOUS
 10
-23.0000456989
 20
-6.6999543016
 30
0.0
 11
0.2121966568
 21
-0.2121966568
 31
0.0
 40
0.9996954599
 41
-0.7852458701
 42
0.7852458701
  0
ELLIPSE
  5
9E1
100
AcDbEntity
  8
RACCORDO
100
AcDbEllipse
 62
7
  6
CONTINUOUS
 10
-7.7000000004
 20
-23.0000456984
 30
0.0
 11
-0.0
 21
-0.3000456984
 31
0.0
 40
0.9998476952
 41
3.1415926536
 42
4.7123889804
  0
ELLIPSE
  5
9E2
100
AcDbEntity
  8
RACCORDO
100
AcDbEllipse
 62
7
  6
CONTINUOUS
 10
14.7999999996
 20
-23.0000456984
 30
0.0
 11
-0.0
 21
-0.3000456984
 31
0.0
 40
0.9998476952
 41
3.1415926536
 42
4.7123889804
  0
ELLIPSE
  5
9E3
100
AcDbEntity
  8
RACCORDO
100
AcDbEllipse
 62
7
  6
CONTINUOUS
 10
14.7999999996
 20
23.0000456984
 30
0.0
 11
-0.0
 21
-0.3000456984
 31
0.0
 40
0.9998476952
 41
-1.5707963268
 42
0.0
  0
ELLIPSE
  5
9E4
100
AcDbEntity
  8
RACCORDO
100
AcDbEllipse
 62
7
  6
CONTINUOUS
 10
7.6999999996
 20
23.0000456984
 30
0.0
 11
0.0
 21
0.3000456984
 31
0.0
 40
0.9998476952
 41
3.1415926536
 42
4.7123889804
  0
ELLIPSE
  5
9E5
100
AcDbEntity
  8
RACCORDO
100
AcDbEllipse
 62
7
  6
CONTINUOUS
 10
-14.8000000004
 20
23.0000456984
 30
0.0
 11
0.0
 21
0.3000456984
 31
0.0
 40
0.9998476952
 41
3.1415926536
 42
4.7123889804
  0
ELLIPSE
  5
9E6
100
AcDbEntity
  8
RACCORDO
100
AcDbEllipse
 62
7
  6
CONTINUOUS
 10
23.0017912045
 20
14.3
 30
0.0
 11
-0.3000456984
 21
0.0
 31
0.0
 40
0.9998476952
 41
0.0
 42
1.5707963268
  0
ELLIPSE
  5
9E7
100
AcDbEntity
  8
RACCORDO
100
AcDbEllipse
 62
7
  6
CONTINUOUS
 10
23.0017912045
 20
-20.7
 30
0.0
 11
0.3000456984
 21
-0.0
 31
0.0
 40
0.9998476952
 41
3.1415926536
 42
4.7123889804
  0
ELLIPSE
  5
9E8
100
AcDbEntity
  8
RACCORDO
100
AcDbEllipse
 62
7
  6
CONTINUOUS
 10
-23.0017912054
 20
-14.3
 30
0.0
 11
-0.3000456984
 21
0.0
 31
0.0
 40
0.9998476952
 41
3.1415926536
 42
4.7123889804
  0
ELLIPSE
  5
9E9
100
AcDbEntity
  8
RACCORDO
100
AcDbEllipse
 62
7
  6
CONTINUOUS
 10
-23.0017912054
 20
-20.7
 30
0.0
 11
0.3000456984
 21
-0.0
 31
0.0
 40
0.9998476952
 41
-1.5707963268
 42
0.0
  0
ELLIPSE
  5
9EA
100
AcDbEntity
  8
RACCORDO
100
AcDbEllipse
 62
7
  6
CONTINUOUS
 10
-23.0017912054
 20
20.7
 30
0.0
 11
-0.3000456984
 21
0.0
 31
0.0
 40
0.9998476952
 41
3.1415926536
 42
4.7123889804
  0
ELLIPSE
  5
9EB
100
AcDbEntity
  8
RACCORDO
100
AcDbEllipse
 62
7
  6
CONTINUOUS
 10
24.358727532
 20
-23.2088036965
 30
0.0
 11
-0.0
 21
0.5
 31
0.0
 40
0.0174550649
 41
-1.5707963268
 42
-0.0174532925
  0
ELLIPSE
  5
9EC
100
AcDbEntity
  8
RACCORDO
100
AcDbEllipse
 62
7
  6
CONTINUOUS
 10
22.908803696
 20
-24.6587275325
 30
0.0
 11
0.5
 21
0.0
 31
0.0
 40
0.0174550649
 41
-3.1241393611
 42
-1.5707963268
  0
ELLIPSE
  5
9ED
100
AcDbEntity
  8
RACCORDO
100
AcDbEllipse
 62
7
  6
CONTINUOUS
 10
22.908803696
 20
24.6587275325
 30
0.0
 11
0.5
 21
0.0
 31
0.0
 40
0.0174550649
 41
1.5707963268
 42
3.1241393611
  0
ELLIPSE
  5
9EE
100
AcDbEntity
  8
RACCORDO
100
AcDbEllipse
 62
7
  6
CONTINUOUS
 10
24.358727532
 20
23.2088036965
 30
0.0
 11
0.0
 21
0.5
 31
0.0
 40
0.0174550649
 41
-3.1241393611
 42
-1.5707963268
  0
ELLIPSE
  5
9EF
100
AcDbEntity
  8
RACCORDO
100
AcDbEllipse
 62
7
  6
CONTINUOUS
 10
-24.3587275329
 20
23.2088036965
 30
0.0
 11
0.0
 21
0.5
 31
0.0
 40
0.0174550649
 41
-4.7123889804
 42
-3.1590459461
  0
ELLIPSE
  5
9F0
100
AcDbEntity
  8
RACCORDO
100
AcDbEllipse
 62
7
  6
CONTINUOUS
 10
-22.9088036969
 20
24.6587275325
 30
0.0
 11
0.5
 21
-0.0
 31
0.0
 40
0.0174550649
 41
0.0174532925
 42
1.5707963268
  0
ELLIPSE
  5
9F1
100
AcDbEntity
  8
RACCORDO
100
AcDbEllipse
 62
7
  6
CONTINUOUS
 10
-22.9088036969
 20
-24.6587275325
 30
0.0
 11
0.5
 21
-0.0
 31
0.0
 40
0.0174550649
 41
-1.5707963268
 42
-0.0174532925
  0
ELLIPSE
  5
9F2
100
AcDbEntity
  8
RACCORDO
100
AcDbEllipse
 62
7
  6
CONTINUOUS
 10
-24.3587275329
 20
-23.2088036965
 30
0.0
 11
0.0
 21
0.5
 31
0.0
 40
0.0174550649
 41
0.0174532925
 42
1.5707963268
  0
ELLIPSE
  5
9F3
100
AcDbEntity
  8
RACCORDO
100
AcDbEllipse
 62
7
  6
CONTINUOUS
 10
-22.7000456989
 20
-23.0000456984
 30
0.0
 11
0.2121966567
 21
0.2121966568
 31
0.0
 40
0.9996954599
 41
-0.7852458702
 42
0.7852458621
  0
ELLIPSE
  5
9F4
100
AcDbEntity
  8
RACCORDO
100
AcDbEllipse
 62
7
  6
CONTINUOUS
 10
-22.7000456989
 20
23.0000456984
 30
0.0
 11
0.2121966568
 21
-0.2121966567
 31
0.0
 40
0.9996954599
 41
-0.7852458702
 42
0.7852458701
  0
ELLIPSE
  5
9F5
100
AcDbEntity
  8
RACCORDO
100
AcDbEllipse
 62
7
  6
CONTINUOUS
 10
22.700045698
 20
23.0000456984
 30
0.0
 11
0.2121966568
 21
0.2121966567
 31
0.0
 40
0.9996954599
 41
-3.9268385237
 42
-2.3563467915
  0
ELLIPSE
  5
9F6
100
AcDbEntity
  8
RACCORDO
100
AcDbEllipse
 62
7
  6
CONTINUOUS
 10
22.700045698
 20
-23.0000456984
 30
0.0
 11
0.2121966567
 21
-0.2121966568
 31
0.0
 40
0.9996954599
 41
2.3563467834
 42
3.9268385237
  0
ELLIPSE
  5
9F7
100
AcDbEntity
  8
RACCORDO
100
AcDbEllipse
 62
7
  6
CONTINUOUS
 10
-43.3725849552
 20
-43.3725849548
 30
0.0
 11
0.4951255324
 21
0.4951255324
 31
0.0
 40
0.9996954599
 41
-3.9268385237
 42
-2.3563467834
  0
ELLIPSE
  5
9F8
100
AcDbEntity
  8
RACCORDO
100
AcDbEllipse
 62
7
  6
CONTINUOUS
 10
43.3725849543
 20
-43.3725849548
 30
0.0
 11
0.4951255324
 21
-0.4951255324
 31
0.0
 40
0.9996954599
 41
-0.7852458701
 42
0.7852458702
  0
ELLIPSE
  5
9F9
100
AcDbEntity
  8
RACCORDO
100
AcDbEllipse
 62
7
  6
CONTINUOUS
 10
43.3725849543
 20
43.3725849548
 30
0.0
 11
0.4951255324
 21
0.4951255324
 31
0.0
 40
0.9996954599
 41
-0.7852458701
 42
0.7852458702
  0
ELLIPSE
  5
9FA
100
AcDbEntity
  8
RACCORDO
100
AcDbEllipse
 62
7
  6
CONTINUOUS
 10
-43.3725849552
 20
43.3725849548
 30
0.0
 11
-0.4951255324
 21
0.4951255324
 31
0.0
 40
0.9996954599
 41
-0.7852458702
 42
0.7852458701
  0
ELLIPSE
  5
9FB
100
AcDbEntity
  8
DRAFT
100
AcDbEllipse
 62
7
  6
CONTINUOUS
 10
-13.0000000004
 20
-26.8062619734
 30
0.0
 11
-0.0000000004
 21
0.3443368477
 31
0.0
 40
0.9999984769
 41
-4.4522758358
 42
-1.8309094737
  0
ELLIPSE
  5
9FC
100
AcDbEntity
  8
DRAFT
100
AcDbEllipse
 62
7
  6
CONTINUOUS
 10
-9.5000000004
 20
-26.8062619734
 30
0.0
 11
-0.0
 21
0.3443368477
 31
0.0
 40
0.9999984769
 41
-4.4522758347
 42
-1.8309094726
  0
ELLIPSE
  5
9FD
100
AcDbEntity
  8
DRAFT
100
AcDbEllipse
 62
7
  6
CONTINUOUS
 10
9.4999999996
 20
-26.8062619734
 30
0.0
 11
0.0
 21
0.3443368477
 31
0.0
 40
0.9999984769
 41
-4.4522758346
 42
-1.8309094725
  0
ELLIPSE
  5
9FE
100
AcDbEntity
  8
DRAFT
100
AcDbEllipse
 62
7
  6
CONTINUOUS
 10
12.9999999996
 20
-26.8062619734
 30
0.0
 11
-0.0
 21
0.3443368477
 31
0.0
 40
0.9999984769
 41
-4.4522758347
 42
-1.8309094726
  0
ELLIPSE
  5
9FF
100
AcDbEntity
  8
DRAFT
100
AcDbEllipse
 62
7
  6
CONTINUOUS
 10
-13.0000000004
 20
26.8062619734
 30
0.0
 11
-0.0000000004
 21
0.3443368477
 31
0.0
 40
0.9999984769
 41
-1.3106831821
 42
1.31068318
  0
ELLIPSE
  5
A00
100
AcDbEntity
  8
DRAFT
100
AcDbEllipse
 62
7
  6
CONTINUOUS
 10
-9.5000000004
 20
26.8062619734
 30
0.0
 11
-0.0
 21
0.3443368477
 31
0.0
 40
0.9999984769
 41
-1.3106831811
 42
1.310683181
  0
ELLIPSE
  5
A01
100
AcDbEntity
  8
DRAFT
100
AcDbEllipse
 62
7
  6
CONTINUOUS
 10
9.4999999996
 20
26.8062619734
 30
0.0
 11
-0.0000000002
 21
0.3443368477
 31
0.0
 40
0.9999984769
 41
-1.3106831816
 42
1.3106831805
  0
ELLIPSE
  5
A02
100
AcDbEntity
  8
DRAFT
100
AcDbEllipse
 62
7
  6
CONTINUOUS
 10
12.9999999996
 20
26.8062619734
 30
0.0
 11
0.0
 21
0.3443368477
 31
0.0
 40
0.9999984769
 41
-1.310683181
 42
1.3106831811
  0
ELLIPSE
  5
A03
100
AcDbEntity
  8
RACCORDO
100
AcDbEllipse
 62
7
  6
CONTINUOUS
 10
-24.3674550654
 20
25.2
 30
0.0
 11
0.0
 21
0.5
 31
0.0
 40
0.0174550649
 41
-3.1590459461
 42
-3.1415926536
  0
ELLIPSE
  5
A04
100
AcDbEntity
  8
RACCORDO
100
AcDbEllipse
 62
7
  6
CONTINUOUS
 10
8.4999999996
 20
-24.2928932188
 30
0.0
 11
0.0
 21
0.7071067812
 31
0.0
 40
0.7071067812
 41
1.5707963268
 42
2.1002075504
  0
ELLIPSE
  5
A05
100
AcDbEntity
  8
RACCORDO
100
AcDbEllipse
 62
7
  6
CONTINUOUS
 10
43.3095486941
 20
-43.3095486946
 30
0.0
 11
1.4146443783
 21
-1.4146443783
 31
0.0
 40
0.9996954599
 41
-0.7852458701
 42
0.7852458701
  0
ELLIPSE
  5
A06
100
AcDbEntity
  8
RACCORDO
100
AcDbEllipse
 62
7
  6
CONTINUOUS
 10
-43.309548695
 20
-43.3095486946
 30
0.0
 11
-1.4146443783
 21
-1.4146443783
 31
0.0
 40
0.9996954599
 41
-0.7852458701
 42
0.7852458701
  0
ELLIPSE
  5
A07
100
AcDbEntity
  8
RACCORDO
100
AcDbEllipse
 62
7
  6
CONTINUOUS
 10
24.3674550645
 20
-25.2
 30
0.0
 11
-0.0
 21
0.5
 31
0.0
 40
0.0174550649
 41
-0.0174532925
 42
0.0
  0
ELLIPSE
  5
A08
100
AcDbEntity
  8
RACCORDO
100
AcDbEllipse
 62
7
  6
CONTINUOUS
 10
-14.0000000004
 20
-24.2928932188
 30
0.0
 11
0.0
 21
0.7071067812
 31
0.0
 40
0.7071067812
 41
1.5707963268
 42
2.1002075504
  0
ELLIPSE
  5
A09
100
AcDbEntity
  8
RACCORDO
100
AcDbEllipse
 62
7
  6
CONTINUOUS
 10
24.3674550645
 20
25.2
 30
0.0
 11
-0.0
 21
0.5
 31
0.0
 40
0.0174550649
 41
-3.1415926536
 42
-3.1241393611
  0
ELLIPSE
  5
A0A
100
AcDbEntity
  8
RACCORDO
100
AcDbEllipse
 62
7
  6
CONTINUOUS
 10
-43.309548695
 20
43.3095486946
 30
0.0
 11
-1.4146443783
 21
1.4146443783
 31
0.0
 40
0.9996954599
 41
-0.7852458701
 42
0.7852458701
  0
ELLIPSE
  5
A0B
100
AcDbEntity
  8
RACCORDO
100
AcDbEllipse
 62
7
  6
CONTINUOUS
 10
43.3095486941
 20
43.3095486946
 30
0.0
 11
1.4146443783
 21
1.4146443783
 31
0.0
 40
0.9996954599
 41
-0.7852458701
 42
0.7852458701
  0
ELLIPSE
  5
A0C
100
AcDbEntity
  8
RACCORDO
100
AcDbEllipse
 62
7
  6
CONTINUOUS
 10
13.9999999996
 20
24.2928932188
 30
0.0
 11
-0.0
 21
-0.7071067812
 31
0.0
 40
0.7071067812
 41
1.5707963268
 42
2.1002075504
  0
ELLIPSE
  5
A0D
100
AcDbEntity
  8
RACCORDO
100
AcDbEllipse
 62
7
  6
CONTINUOUS
 10
-24.3674550654
 20
-25.2
 30
0.0
 11
0.0
 21
0.5
 31
0.0
 40
0.0174550649
 41
0.0
 42
0.0174532925
  0
ELLIPSE
  5
A0E
100
AcDbEntity
  8
RACCORDO
100
AcDbEllipse
 62
7
  6
CONTINUOUS
 10
-8.5000000004
 20
24.2928932188
 30
0.0
 11
-0.0
 21
-0.7071067812
 31
0.0
 40
0.7071067812
 41
1.5707963268
 42
2.1002075504
  0
ELLIPSE
  5
A0F
100
AcDbEntity
  8
RACCORDO
100
AcDbEllipse
 62
7
  6
CONTINUOUS
 10
-8.5000000004
 20
24.656344058
 30
0.0
 11
0.5
 21
-0.0
 31
0.0
 40
0.0251237258
 41
-0.5294112236
 42
-0.0
  0
ELLIPSE
  5
A10
100
AcDbEntity
  8
RACCORDO
100
AcDbEllipse
 62
7
  6
CONTINUOUS
 10
-14.0000000004
 20
24.656344058
 30
0.0
 11
0.5
 21
0.0
 31
0.0
 40
0.0251237258
 41
3.1415926536
 42
3.6710038772
  0
ELLIPSE
  5
A11
100
AcDbEntity
  8
RACCORDO
100
AcDbEllipse
 62
7
  6
CONTINUOUS
 10
-14.0000000004
 20
24.2928932188
 30
0.0
 11
0.0
 21
0.7071067812
 31
0.0
 40
0.7071067812
 41
1.0413851032
 42
1.5707963268
  0
ELLIPSE
  5
A12
100
AcDbEntity
  8
RACCORDO
100
AcDbEllipse
 62
7
  6
CONTINUOUS
 10
8.4999999996
 20
24.656344058
 30
0.0
 11
0.5
 21
0.0
 31
0.0
 40
0.0251237258
 41
3.1415926536
 42
3.6710038772
  0
ELLIPSE
  5
A13
100
AcDbEntity
  8
RACCORDO
100
AcDbEllipse
 62
7
  6
CONTINUOUS
 10
8.4999999996
 20
24.2928932188
 30
0.0
 11
0.0
 21
0.7071067812
 31
0.0
 40
0.7071067812
 41
1.0413851032
 42
1.5707963268
  0
ELLIPSE
  5
A14
100
AcDbEntity
  8
RACCORDO
100
AcDbEllipse
 62
7
  6
CONTINUOUS
 10
13.9999999996
 20
24.656344058
 30
0.0
 11
0.5
 21
-0.0
 31
0.0
 40
0.0251237258
 41
-0.5294112236
 42
-0.0
  0
ELLIPSE
  5
A15
100
AcDbEntity
  8
RACCORDO
100
AcDbEllipse
 62
7
  6
CONTINUOUS
 10
13.9999999996
 20
-24.656344058
 30
0.0
 11
0.5
 21
0.0
 31
0.0
 40
0.0251237258
 41
6.2831853072
 42
6.8125965308
  0
ELLIPSE
  5
A16
100
AcDbEntity
  8
RACCORDO
100
AcDbEllipse
 62
7
  6
CONTINUOUS
 10
13.9999999996
 20
-24.2928932188
 30
0.0
 11
-0.0
 21
-0.7071067812
 31
0.0
 40
0.7071067812
 41
1.0413851032
 42
1.5707963268
  0
ELLIPSE
  5
A17
100
AcDbEntity
  8
RACCORDO
100
AcDbEllipse
 62
7
  6
CONTINUOUS
 10
8.4999999996
 20
-24.656344058
 30
0.0
 11
0.5
 21
0.0
 31
0.0
 40
0.0251237258
 41
2.61218143
 42
3.1415926536
  0
ELLIPSE
  5
A18
100
AcDbEntity
  8
RACCORDO
100
AcDbEllipse
 62
7
  6
CONTINUOUS
 10
-43.3498933708
 20
43.3498933704
 30
0.0
 11
0.4951255324
 21
-0.4951255324
 31
0.0
 40
0.9996954599
 41
2.3563467834
 42
3.9268385237
  0
ELLIPSE
  5
A19
100
AcDbEntity
  8
RACCORDO
100
AcDbEllipse
 62
7
  6
CONTINUOUS
 10
43.3498933699
 20
43.3498933704
 30
0.0
 11
-0.4951255324
 21
-0.4951255324
 31
0.0
 40
0.9996954599
 41
2.3563467834
 42
3.9268385237
  0
ELLIPSE
  5
A1A
100
AcDbEntity
  8
RACCORDO
100
AcDbEllipse
 62
7
  6
CONTINUOUS
 10
43.3498933699
 20
-43.3498933704
 30
0.0
 11
0.4951255324
 21
-0.4951255324
 31
0.0
 40
0.9996954599
 41
-0.7852458701
 42
0.7852458701
  0
ELLIPSE
  5
A1B
100
AcDbEntity
  8
RACCORDO
100
AcDbEllipse
 62
7
  6
CONTINUOUS
 10
-43.3498933708
 20
-43.3498933704
 30
0.0
 11
0.4951255324
 21
0.4951255324
 31
0.0
 40
0.9996954599
 41
2.3563467834
 42
3.9268385237
  0
ELLIPSE
  5
A1C
100
AcDbEntity
  8
RACCORDO
100
AcDbEllipse
 62
7
  6
CONTINUOUS
 10
-14.0000000004
 20
-24.656344058
 30
0.0
 11
0.5
 21
-0.0
 31
0.0
 40
0.0251237258
 41
2.61218143
 42
3.1415926536
  0
ELLIPSE
  5
A1D
100
AcDbEntity
  8
RACCORDO
100
AcDbEllipse
 62
7
  6
CONTINUOUS
 10
-8.5000000004
 20
-24.656344058
 30
0.0
 11
0.5
 21
-0.0
 31
0.0
 40
0.0251237258
 41
6.2831853072
 42
6.8125965308
  0
ELLIPSE
  5
A1E
100
AcDbEntity
  8
RACCORDO
100
AcDbEllipse
 62
7
  6
CONTINUOUS
 10
-8.5000000004
 20
-24.2928932188
 30
0.0
 11
-0.0
 21
-0.7071067812
 31
0.0
 40
0.7071067812
 41
1.0413851032
 42
1.5707963268
  0
ELLIPSE
  5
A1F
100
AcDbEntity
  8
ASSI
100
AcDbEllipse
 62
7
  6
CONTINUOUS
 10
-8.2395184446
 20
25.4
 30
0.0
 11
-0.0
 21
0.2
 31
0.0
 40
0.0524077793
 41
-3.1939525311
 42
-3.1415926536
  0
ELLIPSE
  5
A20
100
AcDbEntity
  8
ASSI
100
AcDbEllipse
 62
7
  6
CONTINUOUS
 10
-14.2604815563
 20
25.4
 30
0.0
 11
-0.0
 21
0.2
 31
0.0
 40
0.0524077793
 41
-3.1415926536
 42
-3.089232776
  0
ELLIPSE
  5
A21
100
AcDbEntity
  8
ASSI
100
AcDbEllipse
 62
7
  6
CONTINUOUS
 10
-8.4397929138
 20
25.9914384441
 30
0.0
 11
-0.1999983076
 21
0.2000050771
 31
0.0
 40
0.0041137573
 41
-4.7082751071
 42
-3.1898386578
  0
ELLIPSE
  5
A22
100
AcDbEntity
  8
ASSI
100
AcDbEllipse
 62
7
  6
CONTINUOUS
 10
-14.0602070871
 20
25.9914384441
 30
0.0
 11
0.1999983076
 21
0.2000050771
 31
0.0
 40
0.0041137573
 41
-3.0933466494
 42
-1.5749102001
  0
ELLIPSE
  5
A23
100
AcDbEntity
  8
ASSI
100
AcDbEllipse
 62
7
  6
CONTINUOUS
 10
14.2604815554
 20
25.4
 30
0.0
 11
0.0
 21
0.2
 31
0.0
 40
0.0524077793
 41
-3.1939525311
 42
-3.1415926536
  0
ELLIPSE
  5
A24
100
AcDbEntity
  8
ASSI
100
AcDbEllipse
 62
7
  6
CONTINUOUS
 10
8.2395184437
 20
25.4
 30
0.0
 11
-0.0
 21
0.2
 31
0.0
 40
0.0524077793
 41
-3.1415926536
 42
-3.089232776
  0
ELLIPSE
  5
A25
100
AcDbEntity
  8
ASSI
100
AcDbEllipse
 62
7
  6
CONTINUOUS
 10
14.0602070862
 20
25.9914384441
 30
0.0
 11
-0.1999983076
 21
0.2000050771
 31
0.0
 40
0.0041137573
 41
-4.7082751071
 42
-3.1898386578
  0
ELLIPSE
  5
A26
100
AcDbEntity
  8
ASSI
100
AcDbEllipse
 62
7
  6
CONTINUOUS
 10
8.4397929129
 20
25.9914384441
 30
0.0
 11
0.1999983076
 21
0.2000050771
 31
0.0
 40
0.0041137573
 41
-3.0933466494
 42
-1.5749102001
  0
ELLIPSE
  5
A27
100
AcDbEntity
  8
RACCORDO
100
AcDbEllipse
 62
7
  6
CONTINUOUS
 10
25.5499695339
 20
-8.4500304656
 30
0.0
 11
0.1414644378
 21
0.1414644378
 31
0.0
 40
0.9996954599
 41
-0.7852458701
 42
0.7852458702
  0
ELLIPSE
  5
A28
100
AcDbEntity
  8
RACCORDO
100
AcDbEllipse
 62
7
  6
CONTINUOUS
 10
24.9500304652
 20
-8.4500304656
 30
0.0
 11
-0.1414644378
 21
0.1414644378
 31
0.0
 40
0.9996954599
 41
-0.7852458702
 42
-0.3604268839
  0
ELLIPSE
  5
A29
100
AcDbEntity
  8
RACCORDO
100
AcDbEllipse
 62
7
  6
CONTINUOUS
 10
24.9500304652
 20
-12.6999695344
 30
0.0
 11
0.1414644378
 21
0.1414644378
 31
0.0
 40
0.9996954599
 41
-2.7811657697
 42
-2.3563467834
  0
ELLIPSE
  5
A2A
100
AcDbEntity
  8
ASSI
100
AcDbEllipse
 62
7
  6
CONTINUOUS
 10
-14.2604815563
 20
-25.4
 30
0.0
 11
0.0
 21
0.2
 31
0.0
 40
0.0524077793
 41
-0.0523598776
 42
0.0
  0
ELLIPSE
  5
A2B
100
AcDbEntity
  8
RACCORDO
100
AcDbEllipse
 62
7
  6
CONTINUOUS
 10
25.5499695339
 20
-12.6999695344
 30
0.0
 11
-0.1414644378
 21
0.1414644378
 31
0.0
 40
0.9996954599
 41
-3.9268385238
 42
-2.3563467835
  0
ELLIPSE
  5
A2C
100
AcDbEntity
  8
ASSI
100
AcDbEllipse
 62
7
  6
CONTINUOUS
 10
-8.2395184446
 20
-25.4
 30
0.0
 11
0.0
 21
0.2
 31
0.0
 40
0.0524077793
 41
-0.0
 42
0.0523598776
  0
ELLIPSE
  5
A2D
100
AcDbEntity
  8
ASSI
100
AcDbEllipse
 62
7
  6
CONTINUOUS
 10
-14.0602070871
 20
-25.9914384441
 30
0.0
 11
-0.1999983076
 21
0.2000050771
 31
0.0
 40
0.0041137573
 41
-1.5666824535
 42
-0.0482460042
  0
ELLIPSE
  5
A2E
100
AcDbEntity
  8
ASSI
100
AcDbEllipse
 62
7
  6
CONTINUOUS
 10
-8.4397929138
 20
-25.9914384441
 30
0.0
 11
0.1999983076
 21
0.2000050771
 31
0.0
 40
0.0041137573
 41
0.0482460042
 42
1.5666824535
  0
ELLIPSE
  5
A2F
100
AcDbEntity
  8
RACCORDO
100
AcDbEllipse
 62
7
  6
CONTINUOUS
 10
25.5499695339
 20
12.6999695344
 30
0.0
 11
0.1414644378
 21
0.1414644378
 31
0.0
 40
0.9996954599
 41
-0.7852458701
 42
0.7852458702
  0
ELLIPSE
  5
A30
100
AcDbEntity
  8
RACCORDO
100
AcDbEllipse
 62
7
  6
CONTINUOUS
 10
24.9500304652
 20
12.6999695344
 30
0.0
 11
-0.1414644378
 21
0.1414644378
 31
0.0
 40
0.9996954599
 41
-0.7852458701
 42
-0.3604268839
  0
ELLIPSE
  5
A31
100
AcDbEntity
  8
RACCORDO
100
AcDbEllipse
 62
7
  6
CONTINUOUS
 10
25.5499695339
 20
8.4500304656
 30
0.0
 11
-0.1414644378
 21
0.1414644378
 31
0.0
 40
0.9996954599
 41
-3.9268385237
 42
-2.3563467834
  0
ELLIPSE
  5
A32
100
AcDbEntity
  8
RACCORDO
100
AcDbEllipse
 62
7
  6
CONTINUOUS
 10
24.9500304652
 20
8.4500304656
 30
0.0
 11
0.1414644378
 21
0.1414644378
 31
0.0
 40
0.9996954599
 41
-2.7811657697
 42
-2.3563467835
  0
ELLIPSE
  5
A33
100
AcDbEntity
  8
RACCORDO
100
AcDbEllipse
 62
7
  6
CONTINUOUS
 10
-25.5499695348
 20
-12.6999695344
 30
0.0
 11
0.1414644378
 21
0.1414644378
 31
0.0
 40
0.9996954599
 41
-3.9268385237
 42
-2.3563467834
  0
ELLIPSE
  5
A34
100
AcDbEntity
  8
RACCORDO
100
AcDbEllipse
 62
7
  6
CONTINUOUS
 10
-24.9500304661
 20
-12.6999695344
 30
0.0
 11
-0.1414644378
 21
0.1414644378
 31
0.0
 40
0.9996954599
 41
-3.9268385237
 42
-3.5020195375
  0
ELLIPSE
  5
A35
100
AcDbEntity
  8
RACCORDO
100
AcDbEllipse
 62
7
  6
CONTINUOUS
 10
-25.5499695348
 20
-8.4500304656
 30
0.0
 11
-0.1414644378
 21
0.1414644378
 31
0.0
 40
0.9996954599
 41
-0.7852458701
 42
0.7852458702
  0
ELLIPSE
  5
A36
100
AcDbEntity
  8
RACCORDO
100
AcDbEllipse
 62
7
  6
CONTINUOUS
 10
-24.9500304661
 20
-8.4500304656
 30
0.0
 11
0.1414644378
 21
0.1414644378
 31
0.0
 40
0.9996954599
 41
0.3604268839
 42
0.7852458702
  0
ELLIPSE
  5
A37
100
AcDbEntity
  8
RACCORDO
100
AcDbEllipse
 62
7
  6
CONTINUOUS
 10
-24.9500304661
 20
12.6999695344
 30
0.0
 11
0.1414644378
 21
0.1414644378
 31
0.0
 40
0.9996954599
 41
0.3604268839
 42
0.7852458702
  0
ELLIPSE
  5
A38
100
AcDbEntity
  8
RACCORDO
100
AcDbEllipse
 62
7
  6
CONTINUOUS
 10
-25.5499695348
 20
12.6999695344
 30
0.0
 11
0.1414644378
 21
-0.1414644378
 31
0.0
 40
0.9996954599
 41
2.3563467835
 42
3.9268385238
  0
ELLIPSE
  5
A39
100
AcDbEntity
  8
RACCORDO
100
AcDbEllipse
 62
7
  6
CONTINUOUS
 10
-25.5499695348
 20
8.4500304656
 30
0.0
 11
0.1414644378
 21
0.1414644378
 31
0.0
 40
0.9996954599
 41
-3.9268385238
 42
-2.3563467835
  0
ELLIPSE
  5
A3A
100
AcDbEntity
  8
RACCORDO
100
AcDbEllipse
 62
7
  6
CONTINUOUS
 10
-24.9500304661
 20
8.4500304656
 30
0.0
 11
-0.1414644378
 21
0.1414644378
 31
0.0
 40
0.9996954599
 41
-3.9268385238
 42
-3.5020195375
  0
ELLIPSE
  5
A3B
100
AcDbEntity
  8
ASSI
100
AcDbEllipse
 62
7
  6
CONTINUOUS
 10
8.2395184437
 20
-25.4
 30
0.0
 11
-0.0
 21
0.2
 31
0.0
 40
0.0524077793
 41
-0.0523598776
 42
-0.0
  0
ELLIPSE
  5
A3C
100
AcDbEntity
  8
ASSI
100
AcDbEllipse
 62
7
  6
CONTINUOUS
 10
14.2604815554
 20
-25.4
 30
0.0
 11
-0.0
 21
0.2
 31
0.0
 40
0.0524077793
 41
0.0
 42
0.0523598776
  0
ELLIPSE
  5
A3D
100
AcDbEntity
  8
ASSI
100
AcDbEllipse
 62
7
  6
CONTINUOUS
 10
8.4397929129
 20
-25.9914384441
 30
0.0
 11
-0.1999983076
 21
0.2000050771
 31
0.0
 40
0.0041137573
 41
-1.5666824535
 42
-0.0482460042
  0
ELLIPSE
  5
A3E
100
AcDbEntity
  8
ASSI
100
AcDbEllipse
 62
7
  6
CONTINUOUS
 10
14.0602070862
 20
-25.9914384441
 30
0.0
 11
0.1999983076
 21
0.2000050771
 31
0.0
 40
0.0041137573
 41
0.0482460042
 42
1.5666824535
  0
ENDSEC
  0
SECTION
  2
OBJECTS
  0
DICTIONARY
  5
C
100
AcDbDictionary
280
0
281
1
  3
ACAD_GROUP
350
D
  3
ACAD_MLINESTYLE
350
17
  3
ACAD_LAYOUT
350
1A
  3
ACAD_PLOTSETTINGS
350
19
  3
ACAD_PLOTSTYLENAME
350
E
  0
DICTIONARY
  5
D
102
{ACAD_REACTORS
330
C
102
}
100
AcDbDictionary
280
0
281
1
  0
ACDBDICTIONARYWDFLT
  5
E
102
{ACAD_REACTORS
330
C
102
}
100
AcDbDictionary
281
1
  3
Normal
350
F
100
AcDbDictionaryWithDefault
340
F
  0
DICTIONARY
  5
17
102
{ACAD_REACTORS
330
C
102
}
100
AcDbDictionary
280
0
281
1
  3
Standard
350
18
  0
DICTIONARY
  5
19
102
{ACAD_REACTORS
330
C
102
}
100
AcDbDictionary
281
1
  0
DICTIONARY
  5
1A
102
{ACAD_REACTORS
330
C
102
}
100
AcDbDictionary
281
1
  3
Model
350
A3F
  3
Layout1
350
A40
  0
ACDBPLACEHOLDER
  5
F
102
{ACAD_REACTORS
330
E
102
}
  0
MLINESTYLE
  5
18
102
{ACAD_REACTORS
330
17
102
}
100
AcDbMlineStyle
  2
STANDARD
 70
0
  3

 62
256
 51
90.0
 52
90.0
 71
2
 49
0.5
 62
256
  6
BYLAYER
 49
-0.5
 62
256
  6
BYLAYER
  0
LAYOUT
  5
A3F
102
{ACAD_REACTORS
330
1A
102
}
100
AcDbPlotSettings
  1

  2
none_device
  4
ISO_A4_(297.00_x_210.00_MM)
  6

 40
0.0
 41
0.0
 42
0.0
 43
0.0
 44
297.0
 45
210.0
 46
0.0
 47
0.0
 48
0.0
 49
0.0
140
0.0
141
0.0
142
1.0
143
1.0
 70
1024
 72
1
 73
0
 74
0
  7

 75
0
147
1.0
148
0.0
149
0.0
100
AcDbLayout
  1
Model
 70
0
 71
0
 10
0.0
 20
0.0
 11
297.0
 21
210.0
 12
0.0
 22
0.0
 32
0.0
 14
0.0
 24
0.0
 34
0.0
 15
0.0
 25
0.0
 35
0.0
146
0.0
 13
0.0
 23
0.0
 33
0.0
 16
1.0
 26
0.0
 36
0.0
 17
0.0
 27
1.0
 37
0.0
 76
0
330
212
345
0
346
0
  0
LAYOUT
  5
A40
102
{ACAD_REACTORS
330
1A
102
}
100
AcDbPlotSettings
  1

  2
none_device
  4
ISO_A4_(297.00_x_210.00_MM)
  6

 40
0.0
 41
0.0
 42
0.0
 43
0.0
 44
297.0
 45
210.0
 46
0.0
 47
0.0
 48
0.0
 49
0.0
140
0.0
141
0.0
142
1.0
143
1.0
 70
0
 72
1
 73
0
 74
0
  7

 75
0
147
1.0
148
0.0
149
0.0
100
AcDbLayout
  1
Layout1
 70
0
 71
1
 10
0.0
 20
0.0
 11
297.0
 21
210.0
 12
0.0
 22
0.0
 32
0.0
 14
0.0
 24
0.0
 34
0.0
 15
0.0
 25
0.0
 35
0.0
146
0.0
 13
0.0
 23
0.0
 33
0.0
 16
1.0
 26
0.0
 36
0.0
 17
0.0
 27
1.0
 37
0.0
 76
0
330
213
345
0
346
0
  0
ENDSEC
  0
EOF
