  0
SECTION
  2
HEADER
  9
$ACADVER
  1
AC1024
  9
$DWGCODEPAGE
  3
ANSI_1252
  9
$EXTMAX
 10
297.0
 20
210.0
 30
0.0
  9
$EXTMIN
 10
0.0
 20
0.0
 30
0.0
  9
$LIMMIN
 10
0.0
 20
0.0
  9
$LIMMAX
 10
297.0
 20
210.0
  9
$VIEWCTR
 10
148.5
 20
105.0
  9
$VIEWSIZE
 40
210.0
  9
$CLAYER
  8
0
  9
$LTSCALE
 40
16.335
  9
$CELTYPE
  6
BYLAYER
  9
$DIMSCALE
 40
1.0
  9
$DIMASZ
 40
3.0
  9
$DIMEXO
 40
0.5
  9
$DIMDLI
 40
11.286
  9
$DIMEXE
 40
1.5
  9
$DIMCEN
 40
2.673
  9
$DIMLFAC
 40
1.0
  9
$DIMBLK
  1
_FILLED
  9
$DIMALT
 70
0
  9
$DIMALTF
 40
0.0393700787
  9
$DIMTXT
 40
3.0
  9
$DIMTOL
 70
1
  9
$DIMLIM
 70
0
  9
$DIMTFAC
 40
1.0
  9
$DIMTP
 40
0.01
  9
$DIMTM
 40
0.01
  9
$DIMGAP
 40
0.625
  9
$DIMDSEP
 70
44
  9
$AUNITS
 70
0
  9
$PDMODE
 70
3
  9
$PDSIZE
 40
3.0
  9
$HANDSEED
  5
4B1
  9
$TILEMODE
 70
1
  9
$MEASUREMENT
 70
1
  9
$INSUNITS
 70
4
  0
ENDSEC
  0
SECTION
  2
CLASSES
  0
CLASS
  1
ACDBDICTIONARYWDFLT
  2
AcDbDictionaryWithDefault
  3
AutoCAD 2000
 90
0
 91
1
280
0
281
0
  0
CLASS
  1
ACDBPLACEHOLDER
  2
AcDbPlaceHolder
  3
AutoCAD 2000
 90
0
 91
1
280
0
281
0
  0
CLASS
  1
LAYOUT
  2
AcDbLayout
  3
AutoCAD 2000
 90
0
 91
0
280
0
281
0
  0
ENDSEC
  0
SECTION
  2
TABLES
  0
TABLE
  2
VPORT
  5
8
100
AcDbSymbolTable
 70
2
  0
VPORT
  5
1F4
100
AcDbSymbolTableRecord
100
AcDbViewportTableRecord
  2
*ACTIVE
 70
0
 10
0.0
 20
0.0
 11
1.0
 21
1.0
 12
148.5
 22
105.0
 13
0.0
 23
0.0
 14
1.0
 24
1.0
 15
0.0
 25
0.0
 16
0.0
 26
0.0
 36
1.0
 17
0.0
 27
0.0
 37
0.0
 40
210.0
 41
1.4142857143
 42
50.0
 43
0.0
 44
0.0
 50
0.0
 51
0.0
 71
0
 72
100
 73
1
 74
1
 75
0
 76
0
 77
0
 78
0
  0
ENDTAB
  0
TABLE
  2
LTYPE
  5
5
100
AcDbSymbolTable
 70
6
  0
LTYPE
  5
14
100
AcDbSymbolTableRecord
100
AcDbLinetypeTableRecord
  2
BYBLOCK
 70
0
  3

 72
65
 73
0
 40
0.0
  0
LTYPE
  5
15
100
AcDbSymbolTableRecord
100
AcDbLinetypeTableRecord
  2
BYLAYER
 70
0
  3

 72
65
 73
0
 40
0.0
  0
LTYPE
  5
16
100
AcDbSymbolTableRecord
100
AcDbLinetypeTableRecord
  2
CONTINUOUS
 70
64
  3
Solid line
 72
65
 73
0
 40
0.0
  0
LTYPE
  5
1F5
100
AcDbSymbolTableRecord
100
AcDbLinetypeTableRecord
  2
CENTER
 70
64
  3
____ _ ____ _ ____ _ ____ _ ____ _ ____ _ ____
 72
65
 73
4
 40
0.6
 49
0.375
 74
0
 49
-0.075
 74
0
 49
0.075
 74
0
 49
-0.075
 74
0
  0
LTYPE
  5
1F6
100
AcDbSymbolTableRecord
100
AcDbLinetypeTableRecord
  2
HIDDEN
 70
64
  3
- - - - - - - - - - - - - - - - - - - -
 72
65
 73
2
 40
0.2
 49
0.1
 74
0
 49
-0.1
 74
0
  0
LTYPE
  5
1F7
100
AcDbSymbolTableRecord
100
AcDbLinetypeTableRecord
  2
PHANTOM
 70
64
  3
_____ _ _ _____ _ _ _____ _ _ _____
 72
65
 73
6
 40
0.8
 49
0.45
 74
0
 49
-0.05
 74
0
 49
0.1
 74
0
 49
-0.05
 74
0
 49
0.1
 74
0
 49
-0.05
 74
0
  0
LTYPE
  5
1F8
100
AcDbSymbolTableRecord
100
AcDbLinetypeTableRecord
  2
DOT
 70
64
  3
. . . . . . . . . . . . . . . . . . . .
 72
65
 73
2
 40
0.2
 49
0.1
 74
0
 49
-0.1
 74
0
  0
LTYPE
  5
1F9
100
AcDbSymbolTableRecord
100
AcDbLinetypeTableRecord
  2
DASHED
 70
64
  3
- - - - - - - - - - - - - - - - - - - -
 72
65
 73
2
 40
0.2
 49
0.1
 74
0
 49
-0.1
 74
0
  0
ENDTAB
  0
TABLE
  2
LAYER
  5
2
100
AcDbSymbolTable
 70
36
  0
LAYER
  5
10
100
AcDbSymbolTableRecord
100
AcDbLayerTableRecord
  2
0
 70
0
 62
7
  6
CONTINUOUS
370
-3
390
F
  0
LAYER
  5
1FA
100
AcDbSymbolTableRecord
100
AcDbLayerTableRecord
  2
DEFAULT_1
 70
0
 62
7
  6
CENTER
370
-3
390
F
  0
LAYER
  5
1FB
100
AcDbSymbolTableRecord
100
AcDbLayerTableRecord
  2
DEFAULT_2
 70
0
 62
7
  6
HIDDEN
370
-3
390
F
  0
LAYER
  5
1FC
100
AcDbSymbolTableRecord
100
AcDbLayerTableRecord
  2
DEFAULT_3
 70
0
 62
7
  6
PHANTOM
370
-3
390
F
  0
LAYER
  5
1FD
100
AcDbSymbolTableRecord
100
AcDbLayerTableRecord
  2
ASSI
 70
0
 62
7
  6
CONTINUOUS
370
-3
390
F
  0
LAYER
  5
1FE
100
AcDbSymbolTableRecord
100
AcDbLayerTableRecord
  2
COLOR6
 70
0
 62
7
  6
CONTINUOUS
370
-3
390
F
  0
LAYER
  5
1FF
100
AcDbSymbolTableRecord
100
AcDbLayerTableRecord
  2
COORDINATE
 70
0
 62
7
  6
CONTINUOUS
370
-3
390
F
  0
LAYER
  5
200
100
AcDbSymbolTableRecord
100
AcDbLayerTableRecord
  2
COORD_ORIGINE
 70
0
 62
7
  6
CONTINUOUS
370
-3
390
F
  0
LAYER
  5
201
100
AcDbSymbolTableRecord
100
AcDbLayerTableRecord
  2
COPY_PUBLISH
 70
0
 62
7
  6
CONTINUOUS
370
-3
390
F
  0
LAYER
  5
202
100
AcDbSymbolTableRecord
100
AcDbLayerTableRecord
  2
COSMETIC
 70
0
 62
7
  6
CONTINUOUS
370
-3
390
F
  0
LAYER
  5
203
100
AcDbSymbolTableRecord
100
AcDbLayerTableRecord
  2
COSMETICI
 70
0
 62
7
  6
CONTINUOUS
370
-3
390
F
  0
LAYER
  5
204
100
AcDbSymbolTableRecord
100
AcDbLayerTableRecord
  2
CURVE
 70
0
 62
7
  6
CONTINUOUS
370
-3
390
F
  0
LAYER
  5
205
100
AcDbSymbolTableRecord
100
AcDbLayerTableRecord
  2
DRAFT
 70
0
 62
7
  6
CONTINUOUS
370
-3
390
F
  0
LAYER
  5
206
100
AcDbSymbolTableRecord
100
AcDbLayerTableRecord
  2
IMPORT_IGES
 70
0
 62
7
  6
CONTINUOUS
370
-3
390
F
  0
LAYER
  5
207
100
AcDbSymbolTableRecord
100
AcDbLayerTableRecord
  2
INTFCLR_2
 70
0
 62
7
  6
CONTINUOUS
370
-3
390
F
  0
LAYER
  5
208
100
AcDbSymbolTableRecord
100
AcDbLayerTableRecord
  2
INTF_14
 70
0
 62
7
  6
CONTINUOUS
370
-3
390
F
  0
LAYER
  5
209
100
AcDbSymbolTableRecord
100
AcDbLayerTableRecord
  2
LINEA_CHIUSURA
 70
0
 62
7
  6
CONTINUOUS
370
-3
390
F
  0
LAYER
  5
20A
100
AcDbSymbolTableRecord
100
AcDbLayerTableRecord
  2
NOTE
 70
0
 62
7
  6
CONTINUOUS
370
-3
390
F
  0
LAYER
  5
20B
100
AcDbSymbolTableRecord
100
AcDbLayerTableRecord
  2
PIANI
 70
0
 62
7
  6
CONTINUOUS
370
-3
390
F
  0
LAYER
  5
20C
100
AcDbSymbolTableRecord
100
AcDbLayerTableRecord
  2
PIANI_ORIGINE
 70
0
 62
7
  6
CONTINUOUS
370
-3
390
F
  0
LAYER
  5
20D
100
AcDbSymbolTableRecord
100
AcDbLayerTableRecord
  2
PUNTI
 70
0
 62
7
  6
CONTINUOUS
370
-3
390
F
  0
LAYER
  5
20E
100
AcDbSymbolTableRecord
100
AcDbLayerTableRecord
  2
RACCORDO
 70
0
 62
7
  6
CONTINUOUS
370
-3
390
F
  0
LAYER
  5
20F
100
AcDbSymbolTableRecord
100
AcDbLayerTableRecord
  2
SIMBOLI
 70
0
 62
7
  6
CONTINUOUS
370
-3
390
F
  0
LAYER
  5
210
100
AcDbSymbolTableRecord
100
AcDbLayerTableRecord
  2
SMUSSO
 70
0
 62
7
  6
CONTINUOUS
370
-3
390
F
  0
LAYER
  5
211
100
AcDbSymbolTableRecord
100
AcDbLayerTableRecord
  2
SNAPLINE
 70
0
 62
7
  6
CONTINUOUS
370
-3
390
F
  0
LAYER
  5
212
100
AcDbSymbolTableRecord
100
AcDbLayerTableRecord
  2
SUPERFICI
 70
0
 62
7
  6
CONTINUOUS
370
-3
390
F
  0
LAYER
  5
213
100
AcDbSymbolTableRecord
100
AcDbLayerTableRecord
  2
TRASH
 70
0
 62
7
  6
CONTINUOUS
370
-3
390
F
  0
LAYER
  5
214
100
AcDbSymbolTableRecord
100
AcDbLayerTableRecord
  2
XSEC_DATUMS
 70
0
 62
7
  6
CONTINUOUS
370
-3
390
F
  0
LAYER
  5
215
100
AcDbSymbolTableRecord
100
AcDbLayerTableRecord
  2
___SHELL
 70
0
 62
7
  6
CONTINUOUS
370
-3
390
F
  0
ENDTAB
  0
TABLE
  2
STYLE
  5
3
100
AcDbSymbolTable
 70
1
  0
STYLE
  5
11
100
AcDbSymbolTableRecord
100
AcDbTextStyleTableRecord
  2
STANDARD
 70
0
 40
0.0
 41
0.8
 50
0.0
 71
0
 42
0.2
  3
txt
  4

  0
STYLE
  5
216
100
AcDbSymbolTableRecord
100
AcDbTextStyleTableRecord
  2
TEXTSTYLE_1
 70
0
 40
0.0
 41
0.8
 50
0.0
 71
0
 42
0.2
  3
gdt
  4

  0
ENDTAB
  0
TABLE
  2
VIEW
  5
6
100
AcDbSymbolTable
 70
0
  0
ENDTAB
  0
TABLE
  2
UCS
  5
7
100
AcDbSymbolTable
 70
0
  0
ENDTAB
  0
TABLE
  2
APPID
  5
9
100
AcDbSymbolTable
 70
1
  0
APPID
  5
217
100
AcDbSymbolTableRecord
100
AcDbRegAppTableRecord
  2
ACAD
 70
0
  0
ENDTAB
  0
TABLE
  2
BLOCK_RECORD
  5
1
100
AcDbSymbolTable
 70
0
  0
BLOCK_RECORD
  5
218
100
AcDbSymbolTableRecord
100
AcDbBlockTableRecord
  2
*Model_Space
  0
BLOCK_RECORD
  5
219
100
AcDbSymbolTableRecord
100
AcDbBlockTableRecord
  2
*Paper_Space
  0
BLOCK_RECORD
  5
21A
100
AcDbSymbolTableRecord
100
AcDbBlockTableRecord
  2
_FILLED
  0
ENDTAB
  0
TABLE
  2
DIMSTYLE
  5
A
100
AcDbSymbolTable
 70
1
100
AcDbDimStyleTable
 71
0
  0
DIMSTYLE
105
21B
100
AcDbSymbolTableRecord
100
AcDbDimStyleTableRecord
  2
STANDARD
 70
0
  3

  4

 40
1.0
 41
3.0
 42
0.5
 43
0.38
 44
1.5
 45
0.0
 46
0.0
 47
0.01
 48
0.01
140
3.0
141
0.09
142
0.0
143
25.4
144
1.0
145
0.0
146
1.0
147
0.625
 71
1.0
 72
0.0
 73
0
 74
0
 75
0
 76
0
 77
1
 78
8
 79
2
170
0
171
1
172
0
173
0
174
0
175
0
176
0
177
0
178
0
270
2
179
2
271
2
272
2
273
2
274
2
275
0
280
0
281
0
282
0
283
1
284
8
285
0
286
0
287
3
288
0
340
11
278
44
341
21A
342
21A
343
21A
344
21A
  0
ENDTAB
  0
ENDSEC
  0
SECTION
  2
BLOCKS
  0
BLOCK
  5
20
100
AcDbEntity
  8
0
100
AcDbBlockBegin
  2
*Model_Space
 70
0
 10
0.0
 20
0.0
 30
0.0
  3
*Model_Space
  1

  0
ENDBLK
  5
21
100
AcDbEntity
  8
0
100
AcDbBlockEnd
  0
BLOCK
  5
1C
100
AcDbEntity
  8
0
100
AcDbBlockBegin
  2
*Paper_Space
 70
0
 10
0.0
 20
0.0
 30
0.0
  3
*Paper_Space
  1

  0
ENDBLK
  5
1D
100
AcDbEntity
  8
0
100
AcDbBlockEnd
  0
BLOCK
  5
21C
100
AcDbEntity
  8
0
100
AcDbBlockBegin
  2
_FILLED
 70
64
 10
0.0
 20
0.0
  3
_FILLED
  1

  0
SOLID
  5
21D
100
AcDbEntity
  8
0
  6
BYBLOCK
 62
0
100
AcDbTrace
 10
0.0
 20
0.0
 11
-1.0
 21
0.3166666667
 12
-1.0
 22
-0.3166666667
 13
-1.0
 23
-0.3166666667
  0
ENDBLK
  5
21E
100
AcDbEntity
  8
0
  6
BYBLOCK
 62
0
100
AcDbBlockEnd
  0
ENDSEC
  0
SECTION
  2
ENTITIES
  0
LINE
  5
21F
100
AcDbEntity
  8
0
100
AcDbLine
 62
7
  6
CONTINUOUS
 10
-44.8807034394
 20
-43.59316633
 11
-44.8807034394
 21
43.0385573966
  0
LINE
  5
220
100
AcDbEntity
  8
0
100
AcDbLine
 62
7
  6
CONTINUOUS
 10
-44.7916826083
 20
42.9495365655
 11
-44.7916826083
 21
-43.5041454988
  0
LINE
  5
221
100
AcDbEntity
  8
0
100
AcDbLine
 62
7
  6
CONTINUOUS
 10
42.7508679823
 20
-44.5930140251
 11
-43.8808557442
 21
-44.5930140251
  0
LINE
  5
222
100
AcDbEntity
  8
0
100
AcDbLine
 62
7
  6
CONTINUOUS
 10
-43.7918349131
 20
-44.503993194
 11
42.6618471512
 21
-44.503993194
  0
LINE
  5
223
100
AcDbEntity
  8
DRAFT
100
AcDbLine
 62
7
  6
CONTINUOUS
 10
-25.4759730498
 20
15.4823560596
 11
-25.5370657771
 21
15.415685047
  0
LINE
  5
224
100
AcDbEntity
  8
DRAFT
100
AcDbLine
 62
7
  6
CONTINUOUS
 10
-23.1191045822
 20
18.4451089197
 11
-19.2874072673
 21
22.2768062346
  0
LINE
  5
225
100
AcDbEntity
  8
DRAFT
100
AcDbLine
 62
7
  6
CONTINUOUS
 10
-14.6018675165
 20
26.9617163645
 11
-16.2666245188
 21
25.2969593622
  0
LINE
  5
226
100
AcDbEntity
  8
DRAFT
100
AcDbLine
 62
7
  6
CONTINUOUS
 10
-27.8040147121
 20
13.7595691689
 11
-26.1392577099
 21
15.4243261711
  0
LINE
  5
227
100
AcDbEntity
  8
DRAFT
100
AcDbLine
 62
7
  6
CONTINUOUS
 10
-23.0929219848
 20
18.4342637327
 11
-19.2765620804
 21
22.2506236372
  0
LINE
  5
228
100
AcDbEntity
  8
DRAFT
100
AcDbLine
 62
7
  6
CONTINUOUS
 10
-27.714993881
 20
13.7226955333
 11
-26.0992213958
 21
15.3384680185
  0
LINE
  5
229
100
AcDbEntity
  8
DRAFT
100
AcDbLine
 62
7
  6
CONTINUOUS
 10
-16.1807663661
 20
25.2569230481
 11
-14.564993881
 21
26.8726955333
  0
LINE
  5
22A
100
AcDbEntity
  8
DRAFT
100
AcDbLine
 62
7
  6
CONTINUOUS
 10
-16.3246544072
 20
24.6336747022
 11
-16.2579833946
 21
24.6947674294
  0
LINE
  5
22B
100
AcDbEntity
  8
DRAFT
100
AcDbLine
 62
7
  6
CONTINUOUS
 10
-16.3246544072
 20
-25.1882836355
 11
-16.2579833946
 21
-25.2493763628
  0
LINE
  5
22C
100
AcDbEntity
  8
DRAFT
100
AcDbLine
 62
7
  6
CONTINUOUS
 10
-19.2874072673
 20
-22.831415168
 11
-23.1191045822
 21
-18.999717853
  0
LINE
  5
22D
100
AcDbEntity
  8
DRAFT
100
AcDbLine
 62
7
  6
CONTINUOUS
 10
-16.2666245188
 20
-25.8515682956
 11
-14.6018675165
 21
-27.5163252978
  0
LINE
  5
22E
100
AcDbEntity
  8
DRAFT
100
AcDbLine
 62
7
  6
CONTINUOUS
 10
-26.1392577099
 20
-15.9789351045
 11
-27.8040147121
 21
-14.3141781023
  0
LINE
  5
22F
100
AcDbEntity
  8
DRAFT
100
AcDbLine
 62
7
  6
CONTINUOUS
 10
-19.2765620804
 20
-22.8052325706
 11
-23.0929219848
 21
-18.9888726661
  0
LINE
  5
230
100
AcDbEntity
  8
DRAFT
100
AcDbLine
 62
7
  6
CONTINUOUS
 10
-14.564993881
 20
-27.4273044667
 11
-16.1807663661
 21
-25.8115319815
  0
LINE
  5
231
100
AcDbEntity
  8
DRAFT
100
AcDbLine
 62
7
  6
CONTINUOUS
 10
-26.0992213958
 20
-15.8930769519
 11
-27.714993881
 21
-14.2773044667
  0
LINE
  5
232
100
AcDbEntity
  8
DRAFT
100
AcDbLine
 62
7
  6
CONTINUOUS
 10
-25.4759730498
 20
-16.0369649929
 11
-25.5370657771
 21
-15.9702939803
  0
LINE
  5
233
100
AcDbEntity
  8
DRAFT
100
AcDbLine
 62
7
  6
CONTINUOUS
 10
-27.8040147121
 20
-14.3141781023
 11
-27.8040147121
 21
-12.9380021146
  0
LINE
  5
234
100
AcDbEntity
  8
DRAFT
100
AcDbLine
 62
7
  6
CONTINUOUS
 10
-27.8040147121
 20
-10.1166068187
 11
-27.8040147121
 21
-8.7404308311
  0
LINE
  5
235
100
AcDbEntity
  8
DRAFT
100
AcDbLine
 62
7
  6
CONTINUOUS
 10
-27.8040147121
 20
8.1858218977
 11
-27.8040147121
 21
9.5619978854
  0
LINE
  5
236
100
AcDbEntity
  8
DRAFT
100
AcDbLine
 62
7
  6
CONTINUOUS
 10
-27.8040147121
 20
12.3833931813
 11
-27.8040147121
 21
13.7595691689
  0
LINE
  5
237
100
AcDbEntity
  8
DRAFT
100
AcDbLine
 62
7
  6
CONTINUOUS
 10
-27.714993881
 20
-14.2773044667
 11
-27.714993881
 21
-12.9773044667
  0
LINE
  5
238
100
AcDbEntity
  8
DRAFT
100
AcDbLine
 62
7
  6
CONTINUOUS
 10
-27.714993881
 20
-10.0773044667
 11
-27.714993881
 21
-8.7773044667
  0
LINE
  5
239
100
AcDbEntity
  8
DRAFT
100
AcDbLine
 62
7
  6
CONTINUOUS
 10
-27.714993881
 20
8.2226955333
 11
-27.714993881
 21
9.5226955333
  0
LINE
  5
23A
100
AcDbEntity
  8
DRAFT
100
AcDbLine
 62
7
  6
CONTINUOUS
 10
-27.714993881
 20
12.4226955333
 11
-27.714993881
 21
13.7226955333
  0
LINE
  5
23B
100
AcDbEntity
  8
DRAFT
100
AcDbLine
 62
7
  6
CONTINUOUS
 10
-26.9540147121
 20
11.6083931813
 11
-26.9540147121
 21
10.3369978854
  0
LINE
  5
23C
100
AcDbEntity
  8
DRAFT
100
AcDbLine
 62
7
  6
CONTINUOUS
 10
-26.9540147121
 20
-10.8916068187
 11
-26.9540147121
 21
-12.1630021146
  0
LINE
  5
23D
100
AcDbEntity
  8
DRAFT
100
AcDbLine
 62
7
  6
CONTINUOUS
 10
-26.864993881
 20
11.6476955333
 11
-26.864993881
 21
10.2976955333
  0
LINE
  5
23E
100
AcDbEntity
  8
DRAFT
100
AcDbLine
 62
7
  6
CONTINUOUS
 10
-26.864993881
 20
-10.8523044667
 11
-26.864993881
 21
-12.2023044667
  0
LINE
  5
23F
100
AcDbEntity
  8
0
100
AcDbLine
 62
7
  6
CONTINUOUS
 10
-25.914993881
 20
13.4726955333
 11
-25.914993881
 21
8.4726955333
  0
LINE
  5
240
100
AcDbEntity
  8
0
100
AcDbLine
 62
7
  6
CONTINUOUS
 10
-25.914993881
 20
-9.0273044667
 11
-25.914993881
 21
-14.0273044667
  0
LINE
  5
241
100
AcDbEntity
  8
DRAFT
100
AcDbLine
 62
7
  6
CONTINUOUS
 10
-25.564993881
 20
13.4726955333
 11
-25.564993881
 21
8.4726955333
  0
LINE
  5
242
100
AcDbEntity
  8
DRAFT
100
AcDbLine
 62
7
  6
CONTINUOUS
 10
-25.564993881
 20
-9.0273044667
 11
-25.564993881
 21
-14.0273044667
  0
LINE
  5
243
100
AcDbEntity
  8
DRAFT
100
AcDbLine
 62
7
  6
CONTINUOUS
 10
-25.5370657771
 20
15.415685047
 11
-25.5370657771
 21
13.4726955333
  0
LINE
  5
244
100
AcDbEntity
  8
DRAFT
100
AcDbLine
 62
7
  6
CONTINUOUS
 10
-25.5370657771
 20
8.4726955333
 11
-25.5370657771
 21
6.5297060197
  0
LINE
  5
245
100
AcDbEntity
  8
DRAFT
100
AcDbLine
 62
7
  6
CONTINUOUS
 10
-25.5370657771
 20
-7.084314953
 11
-25.5370657771
 21
-9.0273044667
  0
LINE
  5
246
100
AcDbEntity
  8
DRAFT
100
AcDbLine
 62
7
  6
CONTINUOUS
 10
-25.5370657771
 20
-14.0273044667
 11
-25.5370657771
 21
-15.9702939803
  0
LINE
  5
247
100
AcDbEntity
  8
DRAFT
100
AcDbLine
 62
7
  6
CONTINUOUS
 10
-25.4759730498
 20
15.4823560596
 11
-25.4759730498
 21
6.4630350071
  0
LINE
  5
248
100
AcDbEntity
  8
DRAFT
100
AcDbLine
 62
7
  6
CONTINUOUS
 10
-25.4759730498
 20
-7.0176439404
 11
-25.4759730498
 21
-16.0369649929
  0
LINE
  5
249
100
AcDbEntity
  8
DRAFT
100
AcDbLine
 62
7
  6
CONTINUOUS
 10
-26.1392577099
 20
6.5210648955
 11
-26.0992213958
 21
6.6069230481
  0
LINE
  5
24A
100
AcDbEntity
  8
DRAFT
100
AcDbLine
 62
7
  6
CONTINUOUS
 10
-10.404296233
 20
26.9617163645
 11
-11.179296233
 21
26.1117163645
  0
LINE
  5
24B
100
AcDbEntity
  8
DRAFT
100
AcDbLine
 62
7
  6
CONTINUOUS
 10
-10.364993881
 20
26.8726955333
 11
-11.139993881
 21
26.0226955333
  0
LINE
  5
24C
100
AcDbEntity
  8
DRAFT
100
AcDbLine
 62
7
  6
CONTINUOUS
 10
-14.2870657771
 20
23.7506236372
 11
-14.314993881
 21
23.7226955333
  0
LINE
  5
24D
100
AcDbEntity
  8
DRAFT
100
AcDbLine
 62
7
  6
CONTINUOUS
 10
-12.2259730498
 20
23.8117163645
 11
-12.314993881
 21
23.7226955333
  0
LINE
  5
24E
100
AcDbEntity
  8
DRAFT
100
AcDbLine
 62
7
  6
CONTINUOUS
 10
-24.564993881
 20
11.4726955333
 11
-24.6540147121
 21
11.3836747022
  0
LINE
  5
24F
100
AcDbEntity
  8
DRAFT
100
AcDbLine
 62
7
  6
CONTINUOUS
 10
-26.9540147121
 20
10.3369978854
 11
-27.8040147121
 21
9.5619978854
  0
LINE
  5
250
100
AcDbEntity
  8
DRAFT
100
AcDbLine
 62
7
  6
CONTINUOUS
 10
-26.864993881
 20
10.2976955333
 11
-27.714993881
 21
9.5226955333
  0
LINE
  5
251
100
AcDbEntity
  8
DRAFT
100
AcDbLine
 62
7
  6
CONTINUOUS
 10
-7.4492213958
 20
25.2569230481
 11
-7.3633632431
 21
25.2969593622
  0
LINE
  5
252
100
AcDbEntity
  8
DRAFT
100
AcDbLine
 62
7
  6
CONTINUOUS
 10
-14.6018675165
 20
-27.5163252978
 11
-13.2256915289
 21
-27.5163252978
  0
LINE
  5
253
100
AcDbEntity
  8
DRAFT
100
AcDbLine
 62
7
  6
CONTINUOUS
 10
-10.404296233
 20
-27.5163252978
 11
-9.0281202454
 21
-27.5163252978
  0
LINE
  5
254
100
AcDbEntity
  8
DRAFT
100
AcDbLine
 62
7
  6
CONTINUOUS
 10
7.8981324835
 20
-27.5163252978
 11
9.2743084711
 21
-27.5163252978
  0
LINE
  5
255
100
AcDbEntity
  8
DRAFT
100
AcDbLine
 62
7
  6
CONTINUOUS
 10
12.095703767
 20
-27.5163252978
 11
13.4718797546
 21
-27.5163252978
  0
LINE
  5
256
100
AcDbEntity
  8
DRAFT
100
AcDbLine
 62
7
  6
CONTINUOUS
 10
13.435006119
 20
-27.4273044667
 11
12.135006119
 21
-27.4273044667
  0
LINE
  5
257
100
AcDbEntity
  8
DRAFT
100
AcDbLine
 62
7
  6
CONTINUOUS
 10
9.235006119
 20
-27.4273044667
 11
7.935006119
 21
-27.4273044667
  0
LINE
  5
258
100
AcDbEntity
  8
DRAFT
100
AcDbLine
 62
7
  6
CONTINUOUS
 10
-9.064993881
 20
-27.4273044667
 11
-10.364993881
 21
-27.4273044667
  0
LINE
  5
259
100
AcDbEntity
  8
DRAFT
100
AcDbLine
 62
7
  6
CONTINUOUS
 10
-13.264993881
 20
-27.4273044667
 11
-14.564993881
 21
-27.4273044667
  0
LINE
  5
25A
100
AcDbEntity
  8
DRAFT
100
AcDbLine
 62
7
  6
CONTINUOUS
 10
-12.4506915289
 20
-26.6663252978
 11
-11.179296233
 21
-26.6663252978
  0
LINE
  5
25B
100
AcDbEntity
  8
DRAFT
100
AcDbLine
 62
7
  6
CONTINUOUS
 10
10.0493084711
 20
-26.6663252978
 11
11.320703767
 21
-26.6663252978
  0
LINE
  5
25C
100
AcDbEntity
  8
DRAFT
100
AcDbLine
 62
7
  6
CONTINUOUS
 10
-12.489993881
 20
-26.5773044667
 11
-11.139993881
 21
-26.5773044667
  0
LINE
  5
25D
100
AcDbEntity
  8
DRAFT
100
AcDbLine
 62
7
  6
CONTINUOUS
 10
10.010006119
 20
-26.5773044667
 11
11.360006119
 21
-26.5773044667
  0
LINE
  5
25E
100
AcDbEntity
  8
DRAFT
100
AcDbLine
 62
7
  6
CONTINUOUS
 10
-14.2922661193
 20
-25.6273044667
 11
-9.3377216426
 21
-25.6273044667
  0
LINE
  5
25F
100
AcDbEntity
  8
DRAFT
100
AcDbLine
 62
7
  6
CONTINUOUS
 10
8.2077338807
 20
-25.6273044667
 11
13.1622783574
 21
-25.6273044667
  0
LINE
  5
260
100
AcDbEntity
  8
DRAFT
100
AcDbLine
 62
7
  6
CONTINUOUS
 10
-14.314993881
 20
-25.2773044667
 11
-9.314993881
 21
-25.2773044667
  0
LINE
  5
261
100
AcDbEntity
  8
DRAFT
100
AcDbLine
 62
7
  6
CONTINUOUS
 10
8.185006119
 20
-25.2773044667
 11
13.185006119
 21
-25.2773044667
  0
LINE
  5
262
100
AcDbEntity
  8
DRAFT
100
AcDbLine
 62
7
  6
CONTINUOUS
 10
-16.2579833946
 20
-25.2493763628
 11
-14.2870657771
 21
-25.2493763628
  0
LINE
  5
263
100
AcDbEntity
  8
DRAFT
100
AcDbLine
 62
7
  6
CONTINUOUS
 10
-9.3429219848
 20
-25.2493763628
 11
-7.3720043673
 21
-25.2493763628
  0
LINE
  5
264
100
AcDbEntity
  8
DRAFT
100
AcDbLine
 62
7
  6
CONTINUOUS
 10
6.2420166054
 20
-25.2493763628
 11
8.2129342229
 21
-25.2493763628
  0
LINE
  5
265
100
AcDbEntity
  8
DRAFT
100
AcDbLine
 62
7
  6
CONTINUOUS
 10
13.1570780152
 20
-25.2493763628
 11
15.1279956327
 21
-25.2493763628
  0
LINE
  5
266
100
AcDbEntity
  8
DRAFT
100
AcDbLine
 62
7
  6
CONTINUOUS
 10
-16.3246544072
 20
-25.1882836355
 11
-7.3053333547
 21
-25.1882836355
  0
LINE
  5
267
100
AcDbEntity
  8
DRAFT
100
AcDbLine
 62
7
  6
CONTINUOUS
 10
6.1753455928
 20
-25.1882836355
 11
15.1946666453
 21
-25.1882836355
  0
LINE
  5
268
100
AcDbEntity
  8
DRAFT
100
AcDbLine
 62
7
  6
CONTINUOUS
 10
-7.3633632431
 20
-25.8515682956
 11
-7.4492213958
 21
-25.8115319815
  0
LINE
  5
269
100
AcDbEntity
  8
DRAFT
100
AcDbLine
 62
7
  6
CONTINUOUS
 10
-27.8040147121
 20
-10.1166068187
 11
-26.9540147121
 21
-10.8916068187
  0
LINE
  5
26A
100
AcDbEntity
  8
DRAFT
100
AcDbLine
 62
7
  6
CONTINUOUS
 10
-27.714993881
 20
-10.0773044667
 11
-26.864993881
 21
-10.8523044667
  0
LINE
  5
26B
100
AcDbEntity
  8
DRAFT
100
AcDbLine
 62
7
  6
CONTINUOUS
 10
-14.314993881
 20
-24.2773044667
 11
-14.2870657771
 21
-24.3052325706
  0
LINE
  5
26C
100
AcDbEntity
  8
DRAFT
100
AcDbLine
 62
7
  6
CONTINUOUS
 10
-12.314993881
 20
-24.2773044667
 11
-12.2259730498
 21
-24.3663252978
  0
LINE
  5
26D
100
AcDbEntity
  8
DRAFT
100
AcDbLine
 62
7
  6
CONTINUOUS
 10
-24.564993881
 20
-12.0273044667
 11
-24.6540147121
 21
-11.9382836355
  0
LINE
  5
26E
100
AcDbEntity
  8
DRAFT
100
AcDbLine
 62
7
  6
CONTINUOUS
 10
-11.179296233
 20
-26.6663252978
 11
-10.404296233
 21
-27.5163252978
  0
LINE
  5
26F
100
AcDbEntity
  8
DRAFT
100
AcDbLine
 62
7
  6
CONTINUOUS
 10
-11.139993881
 20
-26.5773044667
 11
-10.364993881
 21
-27.4273044667
  0
LINE
  5
270
100
AcDbEntity
  8
DRAFT
100
AcDbLine
 62
7
  6
CONTINUOUS
 10
-26.1392577099
 20
-7.0756738289
 11
-26.0992213958
 21
-7.1615319815
  0
LINE
  5
271
100
AcDbEntity
  8
DRAFT
100
AcDbLine
 62
7
  6
CONTINUOUS
 10
-24.6540147121
 20
-16.1088770294
 11
-24.6540147121
 21
-11.9382836355
  0
LINE
  5
272
100
AcDbEntity
  8
DRAFT
100
AcDbLine
 62
7
  6
CONTINUOUS
 10
-24.6540147121
 20
-11.1163252978
 11
-24.6540147121
 21
-6.945731904
  0
LINE
  5
273
100
AcDbEntity
  8
DRAFT
100
AcDbLine
 62
7
  6
CONTINUOUS
 10
-24.6540147121
 20
6.3911229706
 11
-24.6540147121
 21
10.5617163645
  0
LINE
  5
274
100
AcDbEntity
  8
DRAFT
100
AcDbLine
 62
7
  6
CONTINUOUS
 10
-24.6540147121
 20
11.3836747022
 11
-24.6540147121
 21
15.554268096
  0
LINE
  5
275
100
AcDbEntity
  8
DRAFT
100
AcDbLine
 62
7
  6
CONTINUOUS
 10
-24.5929219848
 20
-16.0528958589
 11
-24.5929219848
 21
-14.0273044667
  0
LINE
  5
276
100
AcDbEntity
  8
DRAFT
100
AcDbLine
 62
7
  6
CONTINUOUS
 10
-24.5929219848
 20
-9.0273044667
 11
-24.5929219848
 21
-7.0017130745
  0
LINE
  5
277
100
AcDbEntity
  8
DRAFT
100
AcDbLine
 62
7
  6
CONTINUOUS
 10
-24.5929219848
 20
6.4471041411
 11
-24.5929219848
 21
8.4726955333
  0
LINE
  5
278
100
AcDbEntity
  8
DRAFT
100
AcDbLine
 62
7
  6
CONTINUOUS
 10
-24.5929219848
 20
13.4726955333
 11
-24.5929219848
 21
15.4982869255
  0
LINE
  5
279
100
AcDbEntity
  8
DRAFT
100
AcDbLine
 62
7
  6
CONTINUOUS
 10
-24.564993881
 20
13.4726955333
 11
-24.564993881
 21
11.4726955333
  0
LINE
  5
27A
100
AcDbEntity
  8
DRAFT
100
AcDbLine
 62
7
  6
CONTINUOUS
 10
-24.564993881
 20
10.4726955333
 11
-24.564993881
 21
8.4726955333
  0
LINE
  5
27B
100
AcDbEntity
  8
DRAFT
100
AcDbLine
 62
7
  6
CONTINUOUS
 10
-24.564993881
 20
-9.0273044667
 11
-24.564993881
 21
-11.0273044667
  0
LINE
  5
27C
100
AcDbEntity
  8
DRAFT
100
AcDbLine
 62
7
  6
CONTINUOUS
 10
-24.564993881
 20
-12.0273044667
 11
-24.564993881
 21
-14.0273044667
  0
LINE
  5
27D
100
AcDbEntity
  8
DRAFT
100
AcDbLine
 62
7
  6
CONTINUOUS
 10
-23.1540147121
 20
22.3117163645
 11
-23.1540147121
 21
15.6855010913
  0
LINE
  5
27E
100
AcDbEntity
  8
DRAFT
100
AcDbLine
 62
7
  6
CONTINUOUS
 10
-23.1540147121
 20
6.2598899753
 11
-23.1540147121
 21
-6.8144989087
  0
LINE
  5
27F
100
AcDbEntity
  8
DRAFT
100
AcDbLine
 62
7
  6
CONTINUOUS
 10
-23.1540147121
 20
-16.2401100247
 11
-23.1540147121
 21
-22.8663252978
  0
LINE
  5
280
100
AcDbEntity
  8
DRAFT
100
AcDbLine
 62
7
  6
CONTINUOUS
 10
-23.1540147121
 20
-11.9382836355
 11
-23.1540147121
 21
-11.1163252978
  0
LINE
  5
281
100
AcDbEntity
  8
DRAFT
100
AcDbLine
 62
7
  6
CONTINUOUS
 10
-23.1540147121
 20
10.5617163645
 11
-23.1540147121
 21
11.3836747022
  0
LINE
  5
282
100
AcDbEntity
  8
DRAFT
100
AcDbLine
 62
7
  6
CONTINUOUS
 10
-23.1191045822
 20
-22.831415168
 11
-23.1191045822
 21
-18.999717853
  0
LINE
  5
283
100
AcDbEntity
  8
DRAFT
100
AcDbLine
 62
7
  6
CONTINUOUS
 10
-23.1191045822
 20
18.4451089197
 11
-23.1191045822
 21
22.2768062346
  0
LINE
  5
284
100
AcDbEntity
  8
DRAFT
100
AcDbLine
 62
7
  6
CONTINUOUS
 10
-23.0754669199
 20
18.4517187977
 11
-23.0754669199
 21
18.1052404684
  0
LINE
  5
285
100
AcDbEntity
  8
DRAFT
100
AcDbLine
 62
7
  6
CONTINUOUS
 10
-23.0754669199
 20
-1.2598494017
 11
-23.0754669199
 21
-4.3947595316
  0
LINE
  5
286
100
AcDbEntity
  8
DRAFT
100
AcDbLine
 62
7
  6
CONTINUOUS
 10
-23.0754669199
 20
-19.006327731
 11
-23.0754669199
 21
-18.6598494017
  0
LINE
  5
287
100
AcDbEntity
  8
DRAFT
100
AcDbLine
 62
7
  6
CONTINUOUS
 10
-23.0754669199
 20
0.7052404684
 11
-23.0754669199
 21
3.8401505983
  0
LINE
  5
288
100
AcDbEntity
  8
DRAFT
100
AcDbLine
 62
7
  6
CONTINUOUS
 10
-23.064993881
 20
13.4726955333
 11
-23.064993881
 21
8.4726955333
  0
LINE
  5
289
100
AcDbEntity
  8
DRAFT
100
AcDbLine
 62
7
  6
CONTINUOUS
 10
-23.064993881
 20
-9.0273044667
 11
-23.064993881
 21
-14.0273044667
  0
LINE
  5
28A
100
AcDbEntity
  8
DRAFT
100
AcDbLine
 62
7
  6
CONTINUOUS
 10
-23.064993881
 20
-18.6493763628
 11
-23.064993881
 21
-16.158537462
  0
LINE
  5
28B
100
AcDbEntity
  8
DRAFT
100
AcDbLine
 62
7
  6
CONTINUOUS
 10
-23.064993881
 20
-6.8960714714
 11
-23.064993881
 21
-4.4052325706
  0
LINE
  5
28C
100
AcDbEntity
  8
DRAFT
100
AcDbLine
 62
7
  6
CONTINUOUS
 10
-23.064993881
 20
-1.2493763628
 11
-23.064993881
 21
0.6947674294
  0
LINE
  5
28D
100
AcDbEntity
  8
DRAFT
100
AcDbLine
 62
7
  6
CONTINUOUS
 10
-23.064993881
 20
3.8506236372
 11
-23.064993881
 21
6.341462538
  0
LINE
  5
28E
100
AcDbEntity
  8
DRAFT
100
AcDbLine
 62
7
  6
CONTINUOUS
 10
-23.064993881
 20
15.6039285286
 11
-23.064993881
 21
18.0947674294
  0
LINE
  5
28F
100
AcDbEntity
  8
DRAFT
100
AcDbLine
 62
7
  6
CONTINUOUS
 10
-13.2256915289
 20
26.9617163645
 11
-13.264993881
 21
26.8726955333
  0
LINE
  5
290
100
AcDbEntity
  8
DRAFT
100
AcDbLine
 62
7
  6
CONTINUOUS
 10
-12.489993881
 20
26.0226955333
 11
-12.4506915289
 21
26.1117163645
  0
LINE
  5
291
100
AcDbEntity
  8
DRAFT
100
AcDbLine
 62
7
  6
CONTINUOUS
 10
-7.2334213182
 20
23.8117163645
 11
-7.2894024887
 21
23.7506236372
  0
LINE
  5
292
100
AcDbEntity
  8
DRAFT
100
AcDbLine
 62
7
  6
CONTINUOUS
 10
-12.2259730498
 20
22.3117163645
 11
-12.314993881
 21
22.2226955333
  0
LINE
  5
293
100
AcDbEntity
  8
DRAFT
100
AcDbLine
 62
7
  6
CONTINUOUS
 10
-23.1540147121
 20
11.3836747022
 11
-23.064993881
 21
11.4726955333
  0
LINE
  5
294
100
AcDbEntity
  8
DRAFT
100
AcDbLine
 62
7
  6
CONTINUOUS
 10
-9.314993881
 20
24.7226955333
 11
-9.3429219848
 21
24.6947674294
  0
LINE
  5
295
100
AcDbEntity
  8
DRAFT
100
AcDbLine
 62
7
  6
CONTINUOUS
 10
-24.6540147121
 20
6.3911229706
 11
-24.5929219848
 21
6.4471041411
  0
LINE
  5
296
100
AcDbEntity
  8
DRAFT
100
AcDbLine
 62
7
  6
CONTINUOUS
 10
-27.8040147121
 20
12.3833931813
 11
-27.714993881
 21
12.4226955333
  0
LINE
  5
297
100
AcDbEntity
  8
DRAFT
100
AcDbLine
 62
7
  6
CONTINUOUS
 10
-26.864993881
 20
11.6476955333
 11
-26.9540147121
 21
11.6083931813
  0
LINE
  5
298
100
AcDbEntity
  8
DRAFT
100
AcDbLine
 62
7
  6
CONTINUOUS
 10
15.2665786818
 20
-24.3663252978
 11
11.0959852879
 21
-24.3663252978
  0
LINE
  5
299
100
AcDbEntity
  8
DRAFT
100
AcDbLine
 62
7
  6
CONTINUOUS
 10
10.2740269502
 20
-24.3663252978
 11
6.1034335563
 21
-24.3663252978
  0
LINE
  5
29A
100
AcDbEntity
  8
DRAFT
100
AcDbLine
 62
7
  6
CONTINUOUS
 10
-7.2334213182
 20
-24.3663252978
 11
-11.4040147121
 21
-24.3663252978
  0
LINE
  5
29B
100
AcDbEntity
  8
DRAFT
100
AcDbLine
 62
7
  6
CONTINUOUS
 10
-12.2259730498
 20
-24.3663252978
 11
-16.3965664437
 21
-24.3663252978
  0
LINE
  5
29C
100
AcDbEntity
  8
DRAFT
100
AcDbLine
 62
7
  6
CONTINUOUS
 10
15.2105975113
 20
-24.3052325706
 11
13.1570780152
 21
-24.3052325706
  0
LINE
  5
29D
100
AcDbEntity
  8
DRAFT
100
AcDbLine
 62
7
  6
CONTINUOUS
 10
8.2129342229
 20
-24.3052325706
 11
6.1594147268
 21
-24.3052325706
  0
LINE
  5
29E
100
AcDbEntity
  8
DRAFT
100
AcDbLine
 62
7
  6
CONTINUOUS
 10
-7.2894024887
 20
-24.3052325706
 11
-9.3429219848
 21
-24.3052325706
  0
LINE
  5
29F
100
AcDbEntity
  8
DRAFT
100
AcDbLine
 62
7
  6
CONTINUOUS
 10
-14.2870657771
 20
-24.3052325706
 11
-16.3405852732
 21
-24.3052325706
  0
LINE
  5
2A0
100
AcDbEntity
  8
DRAFT
100
AcDbLine
 62
7
  6
CONTINUOUS
 10
-14.314993881
 20
-24.2773044667
 11
-12.314993881
 21
-24.2773044667
  0
LINE
  5
2A1
100
AcDbEntity
  8
DRAFT
100
AcDbLine
 62
7
  6
CONTINUOUS
 10
-11.314993881
 20
-24.2773044667
 11
-9.314993881
 21
-24.2773044667
  0
LINE
  5
2A2
100
AcDbEntity
  8
DRAFT
100
AcDbLine
 62
7
  6
CONTINUOUS
 10
8.185006119
 20
-24.2773044667
 11
10.185006119
 21
-24.2773044667
  0
LINE
  5
2A3
100
AcDbEntity
  8
DRAFT
100
AcDbLine
 62
7
  6
CONTINUOUS
 10
11.185006119
 20
-24.2773044667
 11
13.185006119
 21
-24.2773044667
  0
LINE
  5
2A4
100
AcDbEntity
  8
DRAFT
100
AcDbLine
 62
7
  6
CONTINUOUS
 10
-23.1540147121
 20
-22.8663252978
 11
-16.5277994389
 21
-22.8663252978
  0
LINE
  5
2A5
100
AcDbEntity
  8
DRAFT
100
AcDbLine
 62
7
  6
CONTINUOUS
 10
11.0959852879
 20
-22.8663252978
 11
10.2740269502
 21
-22.8663252978
  0
LINE
  5
2A6
100
AcDbEntity
  8
DRAFT
100
AcDbLine
 62
7
  6
CONTINUOUS
 10
-7.102188323
 20
-22.8663252978
 11
5.9722005611
 21
-22.8663252978
  0
LINE
  5
2A7
100
AcDbEntity
  8
DRAFT
100
AcDbLine
 62
7
  6
CONTINUOUS
 10
-11.4040147121
 20
-22.8663252978
 11
-12.2259730498
 21
-22.8663252978
  0
LINE
  5
2A8
100
AcDbEntity
  8
DRAFT
100
AcDbLine
 62
7
  6
CONTINUOUS
 10
15.397811677
 20
-22.8663252978
 11
22.0240269502
 21
-22.8663252978
  0
LINE
  5
2A9
100
AcDbEntity
  8
DRAFT
100
AcDbLine
 62
7
  6
CONTINUOUS
 10
21.9891168203
 20
-22.831415168
 11
18.1574195054
 21
-22.831415168
  0
LINE
  5
2AA
100
AcDbEntity
  8
DRAFT
100
AcDbLine
 62
7
  6
CONTINUOUS
 10
-19.2874072673
 20
-22.831415168
 11
-23.1191045822
 21
-22.831415168
  0
LINE
  5
2AB
100
AcDbEntity
  8
DRAFT
100
AcDbLine
 62
7
  6
CONTINUOUS
 10
-19.2940171453
 20
-22.7877775056
 11
-18.947538816
 21
-22.7877775056
  0
LINE
  5
2AC
100
AcDbEntity
  8
DRAFT
100
AcDbLine
 62
7
  6
CONTINUOUS
 10
18.1640293834
 20
-22.7877775056
 11
17.8175510541
 21
-22.7877775056
  0
LINE
  5
2AD
100
AcDbEntity
  8
DRAFT
100
AcDbLine
 62
7
  6
CONTINUOUS
 10
0.4175510541
 20
-22.7877775056
 11
3.552461184
 21
-22.7877775056
  0
LINE
  5
2AE
100
AcDbEntity
  8
DRAFT
100
AcDbLine
 62
7
  6
CONTINUOUS
 10
-1.547538816
 20
-22.7877775056
 11
-4.6824489459
 21
-22.7877775056
  0
LINE
  5
2AF
100
AcDbEntity
  8
DRAFT
100
AcDbLine
 62
7
  6
CONTINUOUS
 10
17.8070780152
 20
-22.7773044667
 11
15.3162391143
 21
-22.7773044667
  0
LINE
  5
2B0
100
AcDbEntity
  8
DRAFT
100
AcDbLine
 62
7
  6
CONTINUOUS
 10
-14.314993881
 20
-22.7773044667
 11
-9.314993881
 21
-22.7773044667
  0
LINE
  5
2B1
100
AcDbEntity
  8
DRAFT
100
AcDbLine
 62
7
  6
CONTINUOUS
 10
6.0537731238
 20
-22.7773044667
 11
3.5629342229
 21
-22.7773044667
  0
LINE
  5
2B2
100
AcDbEntity
  8
DRAFT
100
AcDbLine
 62
7
  6
CONTINUOUS
 10
0.4070780152
 20
-22.7773044667
 11
-1.5370657771
 21
-22.7773044667
  0
LINE
  5
2B3
100
AcDbEntity
  8
DRAFT
100
AcDbLine
 62
7
  6
CONTINUOUS
 10
-4.6929219848
 20
-22.7773044667
 11
-7.1837608857
 21
-22.7773044667
  0
LINE
  5
2B4
100
AcDbEntity
  8
DRAFT
100
AcDbLine
 62
7
  6
CONTINUOUS
 10
8.185006119
 20
-22.7773044667
 11
13.185006119
 21
-22.7773044667
  0
LINE
  5
2B5
100
AcDbEntity
  8
DRAFT
100
AcDbLine
 62
7
  6
CONTINUOUS
 10
-16.4462268762
 20
-22.7773044667
 11
-18.9370657771
 21
-22.7773044667
  0
LINE
  5
2B6
100
AcDbEntity
  8
DRAFT
100
AcDbLine
 62
7
  6
CONTINUOUS
 10
-27.8040147121
 20
-12.9380021146
 11
-27.714993881
 21
-12.9773044667
  0
LINE
  5
2B7
100
AcDbEntity
  8
DRAFT
100
AcDbLine
 62
7
  6
CONTINUOUS
 10
-26.864993881
 20
-12.2023044667
 11
-26.9540147121
 21
-12.1630021146
  0
LINE
  5
2B8
100
AcDbEntity
  8
DRAFT
100
AcDbLine
 62
7
  6
CONTINUOUS
 10
-24.6540147121
 20
-6.945731904
 11
-24.5929219848
 21
-7.0017130745
  0
LINE
  5
2B9
100
AcDbEntity
  8
DRAFT
100
AcDbLine
 62
7
  6
CONTINUOUS
 10
-12.2259730498
 20
-22.8663252978
 11
-12.314993881
 21
-22.7773044667
  0
LINE
  5
2BA
100
AcDbEntity
  8
DRAFT
100
AcDbLine
 62
7
  6
CONTINUOUS
 10
-23.064993881
 20
-12.0273044667
 11
-23.1540147121
 21
-11.9382836355
  0
LINE
  5
2BB
100
AcDbEntity
  8
DRAFT
100
AcDbLine
 62
7
  6
CONTINUOUS
 10
-9.3429219848
 20
-25.2493763628
 11
-9.314993881
 21
-25.2773044667
  0
LINE
  5
2BC
100
AcDbEntity
  8
DRAFT
100
AcDbLine
 62
7
  6
CONTINUOUS
 10
-7.2334213182
 20
-24.3663252978
 11
-7.2894024887
 21
-24.3052325706
  0
LINE
  5
2BD
100
AcDbEntity
  8
DRAFT
100
AcDbLine
 62
7
  6
CONTINUOUS
 10
-13.2256915289
 20
-27.5163252978
 11
-13.264993881
 21
-27.4273044667
  0
LINE
  5
2BE
100
AcDbEntity
  8
DRAFT
100
AcDbLine
 62
7
  6
CONTINUOUS
 10
-12.489993881
 20
-26.5773044667
 11
-12.4506915289
 21
-26.6663252978
  0
LINE
  5
2BF
100
AcDbEntity
  8
DRAFT
100
AcDbLine
 62
7
  6
CONTINUOUS
 10
-16.5277994389
 20
-22.8663252978
 11
-16.3965664437
 21
-24.3663252978
  0
LINE
  5
2C0
100
AcDbEntity
  8
DRAFT
100
AcDbLine
 62
7
  6
CONTINUOUS
 10
-16.3246544072
 20
-25.1882836355
 11
-16.2666245188
 21
-25.8515682956
  0
LINE
  5
2C1
100
AcDbEntity
  8
DRAFT
100
AcDbLine
 62
7
  6
CONTINUOUS
 10
-16.4462268762
 20
-22.7773044667
 11
-16.3127634442
 21
-24.3027984759
  0
LINE
  5
2C2
100
AcDbEntity
  8
DRAFT
100
AcDbLine
 62
7
  6
CONTINUOUS
 10
-16.2301615656
 20
-25.2469422682
 11
-16.1807663661
 21
-25.8115319815
  0
LINE
  5
2C3
100
AcDbEntity
  8
DRAFT
100
AcDbLine
 62
7
  6
CONTINUOUS
 10
-16.2666245188
 20
25.2969593622
 11
-16.3246544072
 21
24.6336747022
  0
LINE
  5
2C4
100
AcDbEntity
  8
DRAFT
100
AcDbLine
 62
7
  6
CONTINUOUS
 10
-16.3965664437
 20
23.8117163645
 11
-16.5277994389
 21
22.3117163645
  0
LINE
  5
2C5
100
AcDbEntity
  8
DRAFT
100
AcDbLine
 62
7
  6
CONTINUOUS
 10
-16.4462268762
 20
22.2226955333
 11
-16.3127634442
 21
23.7481895426
  0
LINE
  5
2C6
100
AcDbEntity
  8
DRAFT
100
AcDbLine
 62
7
  6
CONTINUOUS
 10
-16.2301615656
 20
24.6923333348
 11
-16.1807663661
 21
25.2569230481
  0
LINE
  5
2C7
100
AcDbEntity
  8
DRAFT
100
AcDbLine
 62
7
  6
CONTINUOUS
 10
-9.064993881
 20
26.8726955333
 11
-9.0281202454
 21
26.9617163645
  0
LINE
  5
2C8
100
AcDbEntity
  8
DRAFT
100
AcDbLine
 62
7
  6
CONTINUOUS
 10
-26.1392577099
 20
-15.9789351045
 11
-26.0992213958
 21
-15.8930769519
  0
LINE
  5
2C9
100
AcDbEntity
  8
DRAFT
100
AcDbLine
 62
7
  6
CONTINUOUS
 10
-7.102188323
 20
22.3117163645
 11
-7.1837608857
 21
22.2226955333
  0
LINE
  5
2CA
100
AcDbEntity
  8
DRAFT
100
AcDbLine
 62
7
  6
CONTINUOUS
 10
-23.064993881
 20
3.8506236372
 11
-23.0754669199
 21
3.8401505983
  0
LINE
  5
2CB
100
AcDbEntity
  8
DRAFT
100
AcDbLine
 62
7
  6
CONTINUOUS
 10
-4.6929219848
 20
22.2226955333
 11
-4.6824489459
 21
22.2331685723
  0
LINE
  5
2CC
100
AcDbEntity
  8
DRAFT
100
AcDbLine
 62
7
  6
CONTINUOUS
 10
-23.1540147121
 20
6.2598899753
 11
-23.064993881
 21
6.341462538
  0
LINE
  5
2CD
100
AcDbEntity
  8
DRAFT
100
AcDbLine
 62
7
  6
CONTINUOUS
 10
15.0507786042
 20
25.2569230481
 11
15.1366367569
 21
25.2969593622
  0
LINE
  5
2CE
100
AcDbEntity
  8
DRAFT
100
AcDbLine
 62
7
  6
CONTINUOUS
 10
-27.714993881
 20
8.2226955333
 11
-27.8040147121
 21
8.1858218977
  0
LINE
  5
2CF
100
AcDbEntity
  8
DRAFT
100
AcDbLine
 62
7
  6
CONTINUOUS
 10
25.009269948
 20
-15.9789351045
 11
24.3459852879
 21
-16.0369649929
  0
LINE
  5
2D0
100
AcDbEntity
  8
DRAFT
100
AcDbLine
 62
7
  6
CONTINUOUS
 10
23.5240269502
 20
-16.1088770294
 11
22.0240269502
 21
-16.2401100247
  0
LINE
  5
2D1
100
AcDbEntity
  8
DRAFT
100
AcDbLine
 62
7
  6
CONTINUOUS
 10
21.935006119
 20
-16.158537462
 11
23.4605001283
 21
-16.0250740299
  0
LINE
  5
2D2
100
AcDbEntity
  8
DRAFT
100
AcDbLine
 62
7
  6
CONTINUOUS
 10
24.4046439205
 20
-15.9424721513
 11
24.9692336339
 21
-15.8930769519
  0
LINE
  5
2D3
100
AcDbEntity
  8
DRAFT
100
AcDbLine
 62
7
  6
CONTINUOUS
 10
-23.1540147121
 20
-16.2401100247
 11
-24.6540147121
 21
-16.1088770294
  0
LINE
  5
2D4
100
AcDbEntity
  8
DRAFT
100
AcDbLine
 62
7
  6
CONTINUOUS
 10
-25.4759730498
 20
-16.0369649929
 11
-26.1392577099
 21
-15.9789351045
  0
LINE
  5
2D5
100
AcDbEntity
  8
DRAFT
100
AcDbLine
 62
7
  6
CONTINUOUS
 10
-23.064993881
 20
-16.158537462
 11
-24.5904878902
 21
-16.0250740299
  0
LINE
  5
2D6
100
AcDbEntity
  8
DRAFT
100
AcDbLine
 62
7
  6
CONTINUOUS
 10
-25.5346316824
 20
-15.9424721513
 11
-26.0992213958
 21
-15.8930769519
  0
LINE
  5
2D7
100
AcDbEntity
  8
DRAFT
100
AcDbLine
 62
7
  6
CONTINUOUS
 10
-27.714993881
 20
-8.7773044667
 11
-27.8040147121
 21
-8.7404308311
  0
LINE
  5
2D8
100
AcDbEntity
  8
DRAFT
100
AcDbLine
 62
7
  6
CONTINUOUS
 10
15.1366367569
 20
-25.8515682956
 11
15.0507786042
 21
-25.8115319815
  0
LINE
  5
2D9
100
AcDbEntity
  8
DRAFT
100
AcDbLine
 62
7
  6
CONTINUOUS
 10
-23.1540147121
 20
-6.8144989087
 11
-23.064993881
 21
-6.8960714714
  0
LINE
  5
2DA
100
AcDbEntity
  8
DRAFT
100
AcDbLine
 62
7
  6
CONTINUOUS
 10
-4.6929219848
 20
-22.7773044667
 11
-4.6824489459
 21
-22.7877775056
  0
LINE
  5
2DB
100
AcDbEntity
  8
DRAFT
100
AcDbLine
 62
7
  6
CONTINUOUS
 10
-23.064993881
 20
-4.4052325706
 11
-23.0754669199
 21
-4.3947595316
  0
LINE
  5
2DC
100
AcDbEntity
  8
DRAFT
100
AcDbLine
 62
7
  6
CONTINUOUS
 10
-7.1837608857
 20
-22.7773044667
 11
-7.102188323
 21
-22.8663252978
  0
LINE
  5
2DD
100
AcDbEntity
  8
DRAFT
100
AcDbLine
 62
7
  6
CONTINUOUS
 10
-26.1392577099
 20
15.4243261711
 11
-26.0992213958
 21
15.3384680185
  0
LINE
  5
2DE
100
AcDbEntity
  8
DRAFT
100
AcDbLine
 62
7
  6
CONTINUOUS
 10
-9.064993881
 20
-27.4273044667
 11
-9.0281202454
 21
-27.5163252978
  0
LINE
  5
2DF
100
AcDbEntity
  8
DRAFT
100
AcDbLine
 62
7
  6
CONTINUOUS
 10
-14.2957952593
 20
-25.277110989
 11
-14.2922661193
 21
-25.6273044667
  0
LINE
  5
2E0
100
AcDbEntity
  8
DRAFT
100
AcDbLine
 62
7
  6
CONTINUOUS
 10
-14.314993881
 20
24.7226955333
 11
-14.314993881
 21
24.6947674294
  0
LINE
  5
2E1
100
AcDbEntity
  8
DRAFT
100
AcDbLine
 62
7
  6
CONTINUOUS
 10
-14.314993881
 20
23.7506236372
 11
-14.314993881
 21
22.2226955333
  0
LINE
  5
2E2
100
AcDbEntity
  8
DRAFT
100
AcDbLine
 62
7
  6
CONTINUOUS
 10
-14.314993881
 20
-22.7773044667
 11
-14.314993881
 21
-24.3052325706
  0
LINE
  5
2E3
100
AcDbEntity
  8
DRAFT
100
AcDbLine
 62
7
  6
CONTINUOUS
 10
-14.314993881
 20
-25.2493763628
 11
-14.314993881
 21
-25.2773044667
  0
LINE
  5
2E4
100
AcDbEntity
  8
DRAFT
100
AcDbLine
 62
7
  6
CONTINUOUS
 10
-14.2922661193
 20
25.0726955333
 11
-14.2957952593
 21
24.7225020556
  0
LINE
  5
2E5
100
AcDbEntity
  8
DRAFT
100
AcDbLine
 62
7
  6
CONTINUOUS
 10
-25.4759730498
 20
-7.0176439404
 11
-25.5370657771
 21
-7.084314953
  0
LINE
  5
2E6
100
AcDbEntity
  8
DRAFT
100
AcDbLine
 62
7
  6
CONTINUOUS
 10
-23.064993881
 20
-1.2493763628
 11
-23.0754669199
 21
-1.2598494017
  0
LINE
  5
2E7
100
AcDbEntity
  8
DRAFT
100
AcDbLine
 62
7
  6
CONTINUOUS
 10
0.4070780152
 20
22.2226955333
 11
0.4175510541
 21
22.2331685723
  0
LINE
  5
2E8
100
AcDbEntity
  8
DRAFT
100
AcDbLine
 62
7
  6
CONTINUOUS
 10
7.8981324835
 20
26.9617163645
 11
6.2333754812
 21
25.2969593622
  0
LINE
  5
2E9
100
AcDbEntity
  8
DRAFT
100
AcDbLine
 62
7
  6
CONTINUOUS
 10
-27.8040147121
 20
-8.7404308311
 11
-26.1392577099
 21
-7.0756738289
  0
LINE
  5
2EA
100
AcDbEntity
  8
DRAFT
100
AcDbLine
 62
7
  6
CONTINUOUS
 10
-27.714993881
 20
-8.7773044667
 11
-26.0992213958
 21
-7.1615319815
  0
LINE
  5
2EB
100
AcDbEntity
  8
DRAFT
100
AcDbLine
 62
7
  6
CONTINUOUS
 10
6.3192336339
 20
25.2569230481
 11
7.935006119
 21
26.8726955333
  0
LINE
  5
2EC
100
AcDbEntity
  8
DRAFT
100
AcDbLine
 62
7
  6
CONTINUOUS
 10
6.1753455928
 20
24.6336747022
 11
6.2420166054
 21
24.6947674294
  0
LINE
  5
2ED
100
AcDbEntity
  8
DRAFT
100
AcDbLine
 62
7
  6
CONTINUOUS
 10
24.785006119
 20
-14.0273044667
 11
24.4070780152
 21
-14.0273044667
  0
LINE
  5
2EE
100
AcDbEntity
  8
DRAFT
100
AcDbLine
 62
7
  6
CONTINUOUS
 10
23.4629342229
 20
-14.0273044667
 11
21.935006119
 21
-14.0273044667
  0
LINE
  5
2EF
100
AcDbEntity
  8
DRAFT
100
AcDbLine
 62
7
  6
CONTINUOUS
 10
-23.064993881
 20
-14.0273044667
 11
-24.5929219848
 21
-14.0273044667
  0
LINE
  5
2F0
100
AcDbEntity
  8
DRAFT
100
AcDbLine
 62
7
  6
CONTINUOUS
 10
-25.5370657771
 20
-14.0273044667
 11
-25.914993881
 21
-14.0273044667
  0
LINE
  5
2F1
100
AcDbEntity
  8
DRAFT
100
AcDbLine
 62
7
  6
CONTINUOUS
 10
6.1753455928
 20
-25.1882836355
 11
6.2420166054
 21
-25.2493763628
  0
LINE
  5
2F2
100
AcDbEntity
  8
DRAFT
100
AcDbLine
 62
7
  6
CONTINUOUS
 10
0.4070780152
 20
-22.7773044667
 11
0.4175510541
 21
-22.7877775056
  0
LINE
  5
2F3
100
AcDbEntity
  8
DRAFT
100
AcDbLine
 62
7
  6
CONTINUOUS
 10
-23.064993881
 20
0.6947674294
 11
-23.0754669199
 21
0.7052404684
  0
LINE
  5
2F4
100
AcDbEntity
  8
DRAFT
100
AcDbLine
 62
7
  6
CONTINUOUS
 10
6.2333754812
 20
-25.8515682956
 11
7.8981324835
 21
-27.5163252978
  0
LINE
  5
2F5
100
AcDbEntity
  8
DRAFT
100
AcDbLine
 62
7
  6
CONTINUOUS
 10
-26.1392577099
 20
6.5210648955
 11
-27.8040147121
 21
8.1858218977
  0
LINE
  5
2F6
100
AcDbEntity
  8
DRAFT
100
AcDbLine
 62
7
  6
CONTINUOUS
 10
7.935006119
 20
-27.4273044667
 11
6.3192336339
 21
-25.8115319815
  0
LINE
  5
2F7
100
AcDbEntity
  8
DRAFT
100
AcDbLine
 62
7
  6
CONTINUOUS
 10
-26.0992213958
 20
6.6069230481
 11
-27.714993881
 21
8.2226955333
  0
LINE
  5
2F8
100
AcDbEntity
  8
DRAFT
100
AcDbLine
 62
7
  6
CONTINUOUS
 10
-25.4759730498
 20
6.4630350071
 11
-25.5370657771
 21
6.5297060197
  0
LINE
  5
2F9
100
AcDbEntity
  8
DRAFT
100
AcDbLine
 62
7
  6
CONTINUOUS
 10
-9.3377216426
 20
25.0726955333
 11
-9.3341925026
 21
24.7225020556
  0
LINE
  5
2FA
100
AcDbEntity
  8
DRAFT
100
AcDbLine
 62
7
  6
CONTINUOUS
 10
-12.314993881
 20
23.7226955333
 11
-12.314993881
 21
22.2226955333
  0
LINE
  5
2FB
100
AcDbEntity
  8
DRAFT
100
AcDbLine
 62
7
  6
CONTINUOUS
 10
-12.314993881
 20
-22.7773044667
 11
-12.314993881
 21
-24.2773044667
  0
LINE
  5
2FC
100
AcDbEntity
  8
DRAFT
100
AcDbLine
 62
7
  6
CONTINUOUS
 10
-12.2259730498
 20
-22.8663252978
 11
-12.2259730498
 21
-24.3663252978
  0
LINE
  5
2FD
100
AcDbEntity
  8
DRAFT
100
AcDbLine
 62
7
  6
CONTINUOUS
 10
-12.2259730498
 20
22.3117163645
 11
-12.2259730498
 21
23.8117163645
  0
LINE
  5
2FE
100
AcDbEntity
  8
DRAFT
100
AcDbLine
 62
7
  6
CONTINUOUS
 10
-11.4040147121
 20
-22.8663252978
 11
-11.4040147121
 21
-24.3663252978
  0
LINE
  5
2FF
100
AcDbEntity
  8
DRAFT
100
AcDbLine
 62
7
  6
CONTINUOUS
 10
-11.4040147121
 20
22.3117163645
 11
-11.4040147121
 21
23.8117163645
  0
LINE
  5
300
100
AcDbEntity
  8
DRAFT
100
AcDbLine
 62
7
  6
CONTINUOUS
 10
-11.314993881
 20
23.7226955333
 11
-11.314993881
 21
22.2226955333
  0
LINE
  5
301
100
AcDbEntity
  8
DRAFT
100
AcDbLine
 62
7
  6
CONTINUOUS
 10
-11.314993881
 20
-22.7773044667
 11
-11.314993881
 21
-24.2773044667
  0
LINE
  5
302
100
AcDbEntity
  8
DRAFT
100
AcDbLine
 62
7
  6
CONTINUOUS
 10
-9.314993881
 20
24.7226955333
 11
-9.314993881
 21
24.6947674294
  0
LINE
  5
303
100
AcDbEntity
  8
DRAFT
100
AcDbLine
 62
7
  6
CONTINUOUS
 10
-9.314993881
 20
23.7506236372
 11
-9.314993881
 21
22.2226955333
  0
LINE
  5
304
100
AcDbEntity
  8
DRAFT
100
AcDbLine
 62
7
  6
CONTINUOUS
 10
-9.314993881
 20
-22.7773044667
 11
-9.314993881
 21
-24.3052325706
  0
LINE
  5
305
100
AcDbEntity
  8
DRAFT
100
AcDbLine
 62
7
  6
CONTINUOUS
 10
-9.314993881
 20
-25.2493763628
 11
-9.314993881
 21
-25.2773044667
  0
LINE
  5
306
100
AcDbEntity
  8
DRAFT
100
AcDbLine
 62
7
  6
CONTINUOUS
 10
-9.3341925026
 20
-25.277110989
 11
-9.3377216426
 21
-25.6273044667
  0
LINE
  5
307
100
AcDbEntity
  8
DRAFT
100
AcDbLine
 62
7
  6
CONTINUOUS
 10
-19.2765620804
 20
-22.8052325706
 11
-19.2874072673
 21
-22.831415168
  0
LINE
  5
308
100
AcDbEntity
  8
DRAFT
100
AcDbLine
 62
7
  6
CONTINUOUS
 10
12.095703767
 20
26.9617163645
 11
11.320703767
 21
26.1117163645
  0
LINE
  5
309
100
AcDbEntity
  8
DRAFT
100
AcDbLine
 62
7
  6
CONTINUOUS
 10
12.135006119
 20
26.8726955333
 11
11.360006119
 21
26.0226955333
  0
LINE
  5
30A
100
AcDbEntity
  8
DRAFT
100
AcDbLine
 62
7
  6
CONTINUOUS
 10
8.2129342229
 20
23.7506236372
 11
8.185006119
 21
23.7226955333
  0
LINE
  5
30B
100
AcDbEntity
  8
DRAFT
100
AcDbLine
 62
7
  6
CONTINUOUS
 10
10.2740269502
 20
23.8117163645
 11
10.185006119
 21
23.7226955333
  0
LINE
  5
30C
100
AcDbEntity
  8
DRAFT
100
AcDbLine
 62
7
  6
CONTINUOUS
 10
-24.564993881
 20
-11.0273044667
 11
-24.6540147121
 21
-11.1163252978
  0
LINE
  5
30D
100
AcDbEntity
  8
DRAFT
100
AcDbLine
 62
7
  6
CONTINUOUS
 10
10.2740269502
 20
22.3117163645
 11
10.185006119
 21
22.2226955333
  0
LINE
  5
30E
100
AcDbEntity
  8
DRAFT
100
AcDbLine
 62
7
  6
CONTINUOUS
 10
-23.1540147121
 20
-11.1163252978
 11
-23.064993881
 21
-11.0273044667
  0
LINE
  5
30F
100
AcDbEntity
  8
DRAFT
100
AcDbLine
 62
7
  6
CONTINUOUS
 10
13.185006119
 20
24.7226955333
 11
13.1570780152
 21
24.6947674294
  0
LINE
  5
310
100
AcDbEntity
  8
DRAFT
100
AcDbLine
 62
7
  6
CONTINUOUS
 10
-26.9540147121
 20
-12.1630021146
 11
-27.8040147121
 21
-12.9380021146
  0
LINE
  5
311
100
AcDbEntity
  8
DRAFT
100
AcDbLine
 62
7
  6
CONTINUOUS
 10
-26.864993881
 20
-12.2023044667
 11
-27.714993881
 21
-12.9773044667
  0
LINE
  5
312
100
AcDbEntity
  8
DRAFT
100
AcDbLine
 62
7
  6
CONTINUOUS
 10
21.9629342229
 20
18.4342637327
 11
21.9891168203
 21
18.4451089197
  0
LINE
  5
313
100
AcDbEntity
  8
DRAFT
100
AcDbLine
 62
7
  6
CONTINUOUS
 10
23.435006119
 20
-12.0273044667
 11
21.935006119
 21
-12.0273044667
  0
LINE
  5
314
100
AcDbEntity
  8
DRAFT
100
AcDbLine
 62
7
  6
CONTINUOUS
 10
-23.064993881
 20
-12.0273044667
 11
-24.564993881
 21
-12.0273044667
  0
LINE
  5
315
100
AcDbEntity
  8
DRAFT
100
AcDbLine
 62
7
  6
CONTINUOUS
 10
22.0240269502
 20
-11.9382836355
 11
23.5240269502
 21
-11.9382836355
  0
LINE
  5
316
100
AcDbEntity
  8
DRAFT
100
AcDbLine
 62
7
  6
CONTINUOUS
 10
-23.1540147121
 20
-11.9382836355
 11
-24.6540147121
 21
-11.9382836355
  0
LINE
  5
317
100
AcDbEntity
  8
DRAFT
100
AcDbLine
 62
7
  6
CONTINUOUS
 10
22.0240269502
 20
-11.1163252978
 11
23.5240269502
 21
-11.1163252978
  0
LINE
  5
318
100
AcDbEntity
  8
DRAFT
100
AcDbLine
 62
7
  6
CONTINUOUS
 10
-23.1540147121
 20
-11.1163252978
 11
-24.6540147121
 21
-11.1163252978
  0
LINE
  5
319
100
AcDbEntity
  8
DRAFT
100
AcDbLine
 62
7
  6
CONTINUOUS
 10
23.435006119
 20
-11.0273044667
 11
21.935006119
 21
-11.0273044667
  0
LINE
  5
31A
100
AcDbEntity
  8
DRAFT
100
AcDbLine
 62
7
  6
CONTINUOUS
 10
-23.064993881
 20
-11.0273044667
 11
-24.564993881
 21
-11.0273044667
  0
LINE
  5
31B
100
AcDbEntity
  8
DRAFT
100
AcDbLine
 62
7
  6
CONTINUOUS
 10
24.785006119
 20
-9.0273044667
 11
24.4070780152
 21
-9.0273044667
  0
LINE
  5
31C
100
AcDbEntity
  8
DRAFT
100
AcDbLine
 62
7
  6
CONTINUOUS
 10
23.4629342229
 20
-9.0273044667
 11
21.935006119
 21
-9.0273044667
  0
LINE
  5
31D
100
AcDbEntity
  8
DRAFT
100
AcDbLine
 62
7
  6
CONTINUOUS
 10
-23.064993881
 20
-9.0273044667
 11
-24.5929219848
 21
-9.0273044667
  0
LINE
  5
31E
100
AcDbEntity
  8
DRAFT
100
AcDbLine
 62
7
  6
CONTINUOUS
 10
-25.5370657771
 20
-9.0273044667
 11
-25.914993881
 21
-9.0273044667
  0
LINE
  5
31F
100
AcDbEntity
  8
DRAFT
100
AcDbLine
 62
7
  6
CONTINUOUS
 10
21.9629342229
 20
-18.9888726661
 11
21.9891168203
 21
-18.999717853
  0
LINE
  5
320
100
AcDbEntity
  8
DRAFT
100
AcDbLine
 62
7
  6
CONTINUOUS
 10
-27.8040147121
 20
12.3833931813
 11
-26.9540147121
 21
11.6083931813
  0
LINE
  5
321
100
AcDbEntity
  8
DRAFT
100
AcDbLine
 62
7
  6
CONTINUOUS
 10
-27.714993881
 20
12.4226955333
 11
-26.864993881
 21
11.6476955333
  0
LINE
  5
322
100
AcDbEntity
  8
DRAFT
100
AcDbLine
 62
7
  6
CONTINUOUS
 10
8.185006119
 20
-24.2773044667
 11
8.2129342229
 21
-24.3052325706
  0
LINE
  5
323
100
AcDbEntity
  8
DRAFT
100
AcDbLine
 62
7
  6
CONTINUOUS
 10
10.185006119
 20
-24.2773044667
 11
10.2740269502
 21
-24.3663252978
  0
LINE
  5
324
100
AcDbEntity
  8
DRAFT
100
AcDbLine
 62
7
  6
CONTINUOUS
 10
-24.564993881
 20
10.4726955333
 11
-24.6540147121
 21
10.5617163645
  0
LINE
  5
325
100
AcDbEntity
  8
DRAFT
100
AcDbLine
 62
7
  6
CONTINUOUS
 10
10.2740269502
 20
-22.8663252978
 11
10.185006119
 21
-22.7773044667
  0
LINE
  5
326
100
AcDbEntity
  8
DRAFT
100
AcDbLine
 62
7
  6
CONTINUOUS
 10
-23.064993881
 20
10.4726955333
 11
-23.1540147121
 21
10.5617163645
  0
LINE
  5
327
100
AcDbEntity
  8
DRAFT
100
AcDbLine
 62
7
  6
CONTINUOUS
 10
13.1570780152
 20
-25.2493763628
 11
13.185006119
 21
-25.2773044667
  0
LINE
  5
328
100
AcDbEntity
  8
DRAFT
100
AcDbLine
 62
7
  6
CONTINUOUS
 10
11.320703767
 20
-26.6663252978
 11
12.095703767
 21
-27.5163252978
  0
LINE
  5
329
100
AcDbEntity
  8
DRAFT
100
AcDbLine
 62
7
  6
CONTINUOUS
 10
11.360006119
 20
-26.5773044667
 11
12.135006119
 21
-27.4273044667
  0
LINE
  5
32A
100
AcDbEntity
  8
DRAFT
100
AcDbLine
 62
7
  6
CONTINUOUS
 10
-19.2765620804
 20
22.2506236372
 11
-19.2874072673
 21
22.2768062346
  0
LINE
  5
32B
100
AcDbEntity
  8
DRAFT
100
AcDbLine
 62
7
  6
CONTINUOUS
 10
-7.1837608857
 20
22.2226955333
 11
-7.3172243178
 21
23.7481895426
  0
LINE
  5
32C
100
AcDbEntity
  8
DRAFT
100
AcDbLine
 62
7
  6
CONTINUOUS
 10
-7.3998261963
 20
24.6923333348
 11
-7.4492213958
 21
25.2569230481
  0
LINE
  5
32D
100
AcDbEntity
  8
DRAFT
100
AcDbLine
 62
7
  6
CONTINUOUS
 10
-7.102188323
 20
22.3117163645
 11
-7.2334213182
 21
23.8117163645
  0
LINE
  5
32E
100
AcDbEntity
  8
DRAFT
100
AcDbLine
 62
7
  6
CONTINUOUS
 10
-7.3053333547
 20
24.6336747022
 11
-7.3633632431
 21
25.2969593622
  0
LINE
  5
32F
100
AcDbEntity
  8
DRAFT
100
AcDbLine
 62
7
  6
CONTINUOUS
 10
-7.1837608857
 20
-22.7773044667
 11
-7.3172243178
 21
-24.3027984759
  0
LINE
  5
330
100
AcDbEntity
  8
DRAFT
100
AcDbLine
 62
7
  6
CONTINUOUS
 10
-7.3998261963
 20
-25.2469422682
 11
-7.4492213958
 21
-25.8115319815
  0
LINE
  5
331
100
AcDbEntity
  8
DRAFT
100
AcDbLine
 62
7
  6
CONTINUOUS
 10
-7.3633632431
 20
-25.8515682956
 11
-7.3053333547
 21
-25.1882836355
  0
LINE
  5
332
100
AcDbEntity
  8
DRAFT
100
AcDbLine
 62
7
  6
CONTINUOUS
 10
-7.2334213182
 20
-24.3663252978
 11
-7.102188323
 21
-22.8663252978
  0
LINE
  5
333
100
AcDbEntity
  8
DRAFT
100
AcDbLine
 62
7
  6
CONTINUOUS
 10
15.2665786818
 20
23.8117163645
 11
15.2105975113
 21
23.7506236372
  0
LINE
  5
334
100
AcDbEntity
  8
DRAFT
100
AcDbLine
 62
7
  6
CONTINUOUS
 10
-24.6540147121
 20
-16.1088770294
 11
-24.5929219848
 21
-16.0528958589
  0
LINE
  5
335
100
AcDbEntity
  8
DRAFT
100
AcDbLine
 62
7
  6
CONTINUOUS
 10
-23.064993881
 20
-6.8960714714
 11
-24.5904878902
 21
-7.0295349035
  0
LINE
  5
336
100
AcDbEntity
  8
DRAFT
100
AcDbLine
 62
7
  6
CONTINUOUS
 10
-25.5346316824
 20
-7.112136782
 11
-26.0992213958
 21
-7.1615319815
  0
LINE
  5
337
100
AcDbEntity
  8
DRAFT
100
AcDbLine
 62
7
  6
CONTINUOUS
 10
-26.1392577099
 20
-7.0756738289
 11
-25.4759730498
 21
-7.0176439404
  0
LINE
  5
338
100
AcDbEntity
  8
DRAFT
100
AcDbLine
 62
7
  6
CONTINUOUS
 10
-24.6540147121
 20
-6.945731904
 11
-23.1540147121
 21
-6.8144989087
  0
LINE
  5
339
100
AcDbEntity
  8
DRAFT
100
AcDbLine
 62
7
  6
CONTINUOUS
 10
21.935006119
 20
-6.8960714714
 11
23.4605001283
 21
-7.0295349035
  0
LINE
  5
33A
100
AcDbEntity
  8
DRAFT
100
AcDbLine
 62
7
  6
CONTINUOUS
 10
24.4046439205
 20
-7.112136782
 11
24.9692336339
 21
-7.1615319815
  0
LINE
  5
33B
100
AcDbEntity
  8
DRAFT
100
AcDbLine
 62
7
  6
CONTINUOUS
 10
22.0240269502
 20
-6.8144989087
 11
23.5240269502
 21
-6.945731904
  0
LINE
  5
33C
100
AcDbEntity
  8
DRAFT
100
AcDbLine
 62
7
  6
CONTINUOUS
 10
24.3459852879
 20
-7.0176439404
 11
25.009269948
 21
-7.0756738289
  0
LINE
  5
33D
100
AcDbEntity
  8
DRAFT
100
AcDbLine
 62
7
  6
CONTINUOUS
 10
-24.6540147121
 20
15.554268096
 11
-24.5929219848
 21
15.4982869255
  0
LINE
  5
33E
100
AcDbEntity
  8
DRAFT
100
AcDbLine
 62
7
  6
CONTINUOUS
 10
15.2665786818
 20
-24.3663252978
 11
15.2105975113
 21
-24.3052325706
  0
LINE
  5
33F
100
AcDbEntity
  8
DRAFT
100
AcDbLine
 62
7
  6
CONTINUOUS
 10
-14.564993881
 20
-27.4273044667
 11
-14.6018675165
 21
-27.5163252978
  0
LINE
  5
340
100
AcDbEntity
  8
DRAFT
100
AcDbLine
 62
7
  6
CONTINUOUS
 10
9.2743084711
 20
26.9617163645
 11
9.235006119
 21
26.8726955333
  0
LINE
  5
341
100
AcDbEntity
  8
DRAFT
100
AcDbLine
 62
7
  6
CONTINUOUS
 10
10.010006119
 20
26.0226955333
 11
10.0493084711
 21
26.1117163645
  0
LINE
  5
342
100
AcDbEntity
  8
DRAFT
100
AcDbLine
 62
7
  6
CONTINUOUS
 10
15.397811677
 20
22.3117163645
 11
15.3162391143
 21
22.2226955333
  0
LINE
  5
343
100
AcDbEntity
  8
DRAFT
100
AcDbLine
 62
7
  6
CONTINUOUS
 10
-23.064993881
 20
-18.6493763628
 11
-23.0754669199
 21
-18.6598494017
  0
LINE
  5
344
100
AcDbEntity
  8
DRAFT
100
AcDbLine
 62
7
  6
CONTINUOUS
 10
17.8070780152
 20
22.2226955333
 11
17.8175510541
 21
22.2331685723
  0
LINE
  5
345
100
AcDbEntity
  8
0
100
AcDbLine
 62
250
  6
CONTINUOUS
 10
-44.8807034394
 20
-43.59316633
 11
-44.7916826083
 21
-43.5041454988
  0
LINE
  5
346
100
AcDbEntity
  8
0
100
AcDbLine
 62
250
  6
CONTINUOUS
 10
42.6618471512
 20
43.9493842606
 11
42.7508679823
 21
44.0384050918
  0
LINE
  5
347
100
AcDbEntity
  8
DRAFT
100
AcDbLine
 62
7
  6
CONTINUOUS
 10
-23.1191045822
 20
-22.831415168
 11
-23.1540147121
 21
-22.8663252978
  0
LINE
  5
348
100
AcDbEntity
  8
DRAFT
100
AcDbLine
 62
7
  6
CONTINUOUS
 10
21.9891168203
 20
22.2768062346
 11
22.0240269502
 21
22.3117163645
  0
LINE
  5
349
100
AcDbEntity
  8
DRAFT
100
AcDbLine
 62
7
  6
CONTINUOUS
 10
-23.1540147121
 20
-16.2401100247
 11
-23.064993881
 21
-16.158537462
  0
LINE
  5
34A
100
AcDbEntity
  8
DRAFT
100
AcDbLine
 62
7
  6
CONTINUOUS
 10
-27.8040147121
 20
-10.1166068187
 11
-27.714993881
 21
-10.0773044667
  0
LINE
  5
34B
100
AcDbEntity
  8
DRAFT
100
AcDbLine
 62
7
  6
CONTINUOUS
 10
-26.864993881
 20
-10.8523044667
 11
-26.9540147121
 21
-10.8916068187
  0
LINE
  5
34C
100
AcDbEntity
  8
DRAFT
100
AcDbLine
 62
7
  6
CONTINUOUS
 10
26.585006119
 20
13.7226955333
 11
26.6740269502
 21
13.7595691689
  0
LINE
  5
34D
100
AcDbEntity
  8
DRAFT
100
AcDbLine
 62
7
  6
CONTINUOUS
 10
26.585006119
 20
-14.2773044667
 11
26.6740269502
 21
-14.3141781023
  0
LINE
  5
34E
100
AcDbEntity
  8
DRAFT
100
AcDbLine
 62
7
  6
CONTINUOUS
 10
-27.8040147121
 20
9.5619978854
 11
-27.714993881
 21
9.5226955333
  0
LINE
  5
34F
100
AcDbEntity
  8
DRAFT
100
AcDbLine
 62
7
  6
CONTINUOUS
 10
-26.864993881
 20
10.2976955333
 11
-26.9540147121
 21
10.3369978854
  0
LINE
  5
350
100
AcDbEntity
  8
DRAFT
100
AcDbLine
 62
7
  6
CONTINUOUS
 10
-23.1540147121
 20
15.6855010913
 11
-23.064993881
 21
15.6039285286
  0
LINE
  5
351
100
AcDbEntity
  8
DRAFT
100
AcDbLine
 62
7
  6
CONTINUOUS
 10
17.8070780152
 20
-22.7773044667
 11
17.8175510541
 21
-22.7877775056
  0
LINE
  5
352
100
AcDbEntity
  8
DRAFT
100
AcDbLine
 62
7
  6
CONTINUOUS
 10
-23.064993881
 20
18.0947674294
 11
-23.0754669199
 21
18.1052404684
  0
LINE
  5
353
100
AcDbEntity
  8
0
100
AcDbLine
 62
250
  6
CONTINUOUS
 10
-44.8807034394
 20
43.0385573966
 11
-44.7916826083
 21
42.9495365655
  0
LINE
  5
354
100
AcDbEntity
  8
0
100
AcDbLine
 62
250
  6
CONTINUOUS
 10
42.7508679823
 20
-44.5930140251
 11
42.6618471512
 21
-44.503993194
  0
LINE
  5
355
100
AcDbEntity
  8
DRAFT
100
AcDbLine
 62
7
  6
CONTINUOUS
 10
21.9891168203
 20
-22.831415168
 11
22.0240269502
 21
-22.8663252978
  0
LINE
  5
356
100
AcDbEntity
  8
DRAFT
100
AcDbLine
 62
7
  6
CONTINUOUS
 10
-23.1191045822
 20
22.2768062346
 11
-23.1540147121
 21
22.3117163645
  0
LINE
  5
357
100
AcDbEntity
  8
DRAFT
100
AcDbLine
 62
7
  6
CONTINUOUS
 10
15.3162391143
 20
-22.7773044667
 11
15.397811677
 21
-22.8663252978
  0
LINE
  5
358
100
AcDbEntity
  8
DRAFT
100
AcDbLine
 62
7
  6
CONTINUOUS
 10
9.2743084711
 20
-27.5163252978
 11
9.235006119
 21
-27.4273044667
  0
LINE
  5
359
100
AcDbEntity
  8
DRAFT
100
AcDbLine
 62
7
  6
CONTINUOUS
 10
10.010006119
 20
-26.5773044667
 11
10.0493084711
 21
-26.6663252978
  0
LINE
  5
35A
100
AcDbEntity
  8
DRAFT
100
AcDbLine
 62
7
  6
CONTINUOUS
 10
-14.564993881
 20
26.8726955333
 11
-14.6018675165
 21
26.9617163645
  0
LINE
  5
35B
100
AcDbEntity
  8
DRAFT
100
AcDbLine
 62
7
  6
CONTINUOUS
 10
5.9722005611
 20
-22.8663252978
 11
6.1034335563
 21
-24.3663252978
  0
LINE
  5
35C
100
AcDbEntity
  8
DRAFT
100
AcDbLine
 62
7
  6
CONTINUOUS
 10
6.1753455928
 20
-25.1882836355
 11
6.2333754812
 21
-25.8515682956
  0
LINE
  5
35D
100
AcDbEntity
  8
DRAFT
100
AcDbLine
 62
7
  6
CONTINUOUS
 10
6.0537731238
 20
-22.7773044667
 11
6.1872365558
 21
-24.3027984759
  0
LINE
  5
35E
100
AcDbEntity
  8
DRAFT
100
AcDbLine
 62
7
  6
CONTINUOUS
 10
6.2698384344
 20
-25.2469422682
 11
6.3192336339
 21
-25.8115319815
  0
LINE
  5
35F
100
AcDbEntity
  8
DRAFT
100
AcDbLine
 62
7
  6
CONTINUOUS
 10
6.2333754812
 20
25.2969593622
 11
6.1753455928
 21
24.6336747022
  0
LINE
  5
360
100
AcDbEntity
  8
DRAFT
100
AcDbLine
 62
7
  6
CONTINUOUS
 10
6.1034335563
 20
23.8117163645
 11
5.9722005611
 21
22.3117163645
  0
LINE
  5
361
100
AcDbEntity
  8
DRAFT
100
AcDbLine
 62
7
  6
CONTINUOUS
 10
6.0537731238
 20
22.2226955333
 11
6.1872365558
 21
23.7481895426
  0
LINE
  5
362
100
AcDbEntity
  8
DRAFT
100
AcDbLine
 62
7
  6
CONTINUOUS
 10
6.2698384344
 20
24.6923333348
 11
6.3192336339
 21
25.2569230481
  0
LINE
  5
363
100
AcDbEntity
  8
DRAFT
100
AcDbLine
 62
7
  6
CONTINUOUS
 10
13.435006119
 20
26.8726955333
 11
13.4718797546
 21
26.9617163645
  0
LINE
  5
364
100
AcDbEntity
  8
DRAFT
100
AcDbLine
 62
7
  6
CONTINUOUS
 10
-11.139993881
 20
-26.5773044667
 11
-11.179296233
 21
-26.6663252978
  0
LINE
  5
365
100
AcDbEntity
  8
DRAFT
100
AcDbLine
 62
7
  6
CONTINUOUS
 10
-10.404296233
 20
-27.5163252978
 11
-10.364993881
 21
-27.4273044667
  0
LINE
  5
366
100
AcDbEntity
  8
DRAFT
100
AcDbLine
 62
7
  6
CONTINUOUS
 10
-16.5277994389
 20
-22.8663252978
 11
-16.4462268762
 21
-22.7773044667
  0
LINE
  5
367
100
AcDbEntity
  8
DRAFT
100
AcDbLine
 62
7
  6
CONTINUOUS
 10
-16.3965664437
 20
-24.3663252978
 11
-16.3405852732
 21
-24.3052325706
  0
LINE
  5
368
100
AcDbEntity
  8
0
100
AcDbLine
 62
250
  6
CONTINUOUS
 10
-43.8808557442
 20
-44.5930140251
 11
-43.7918349131
 21
-44.503993194
  0
LINE
  5
369
100
AcDbEntity
  8
0
100
AcDbLine
 62
250
  6
CONTINUOUS
 10
43.6616948463
 20
42.9495365655
 11
43.7507156775
 21
43.0385573966
  0
LINE
  5
36A
100
AcDbEntity
  8
DRAFT
100
AcDbLine
 62
7
  6
CONTINUOUS
 10
-18.9370657771
 20
-22.7773044667
 11
-18.947538816
 21
-22.7877775056
  0
LINE
  5
36B
100
AcDbEntity
  8
DRAFT
100
AcDbLine
 62
7
  6
CONTINUOUS
 10
21.935006119
 20
18.0947674294
 11
21.945479158
 21
18.1052404684
  0
LINE
  5
36C
100
AcDbEntity
  8
DRAFT
100
AcDbLine
 62
7
  6
CONTINUOUS
 10
22.0240269502
 20
15.6855010913
 11
21.935006119
 21
15.6039285286
  0
LINE
  5
36D
100
AcDbEntity
  8
DRAFT
100
AcDbLine
 62
7
  6
CONTINUOUS
 10
23.5240269502
 20
15.554268096
 11
23.4629342229
 21
15.4982869255
  0
LINE
  5
36E
100
AcDbEntity
  8
DRAFT
100
AcDbLine
 62
7
  6
CONTINUOUS
 10
25.735006119
 20
10.2976955333
 11
25.8240269502
 21
10.3369978854
  0
LINE
  5
36F
100
AcDbEntity
  8
DRAFT
100
AcDbLine
 62
7
  6
CONTINUOUS
 10
26.6740269502
 20
9.5619978854
 11
26.585006119
 21
9.5226955333
  0
LINE
  5
370
100
AcDbEntity
  8
DRAFT
100
AcDbLine
 62
7
  6
CONTINUOUS
 10
-27.714993881
 20
-14.2773044667
 11
-27.8040147121
 21
-14.3141781023
  0
LINE
  5
371
100
AcDbEntity
  8
DRAFT
100
AcDbLine
 62
7
  6
CONTINUOUS
 10
25.009269948
 20
6.5210648955
 11
24.3459852879
 21
6.4630350071
  0
LINE
  5
372
100
AcDbEntity
  8
DRAFT
100
AcDbLine
 62
7
  6
CONTINUOUS
 10
23.5240269502
 20
6.3911229706
 11
22.0240269502
 21
6.2598899753
  0
LINE
  5
373
100
AcDbEntity
  8
DRAFT
100
AcDbLine
 62
7
  6
CONTINUOUS
 10
21.935006119
 20
6.341462538
 11
23.4605001283
 21
6.4749259701
  0
LINE
  5
374
100
AcDbEntity
  8
DRAFT
100
AcDbLine
 62
7
  6
CONTINUOUS
 10
24.4046439205
 20
6.5575278487
 11
24.9692336339
 21
6.6069230481
  0
LINE
  5
375
100
AcDbEntity
  8
DRAFT
100
AcDbLine
 62
7
  6
CONTINUOUS
 10
-23.1540147121
 20
6.2598899753
 11
-24.6540147121
 21
6.3911229706
  0
LINE
  5
376
100
AcDbEntity
  8
DRAFT
100
AcDbLine
 62
7
  6
CONTINUOUS
 10
-25.4759730498
 20
6.4630350071
 11
-26.1392577099
 21
6.5210648955
  0
LINE
  5
377
100
AcDbEntity
  8
DRAFT
100
AcDbLine
 62
7
  6
CONTINUOUS
 10
-23.064993881
 20
6.341462538
 11
-24.5904878902
 21
6.4749259701
  0
LINE
  5
378
100
AcDbEntity
  8
DRAFT
100
AcDbLine
 62
7
  6
CONTINUOUS
 10
-25.5346316824
 20
6.5575278487
 11
-26.0992213958
 21
6.6069230481
  0
LINE
  5
379
100
AcDbEntity
  8
DRAFT
100
AcDbLine
 62
7
  6
CONTINUOUS
 10
-27.714993881
 20
13.7226955333
 11
-27.8040147121
 21
13.7595691689
  0
LINE
  5
37A
100
AcDbEntity
  8
DRAFT
100
AcDbLine
 62
7
  6
CONTINUOUS
 10
25.735006119
 20
-10.8523044667
 11
25.8240269502
 21
-10.8916068187
  0
LINE
  5
37B
100
AcDbEntity
  8
DRAFT
100
AcDbLine
 62
7
  6
CONTINUOUS
 10
26.6740269502
 20
-10.1166068187
 11
26.585006119
 21
-10.0773044667
  0
LINE
  5
37C
100
AcDbEntity
  8
DRAFT
100
AcDbLine
 62
7
  6
CONTINUOUS
 10
22.0240269502
 20
-16.2401100247
 11
21.935006119
 21
-16.158537462
  0
LINE
  5
37D
100
AcDbEntity
  8
DRAFT
100
AcDbLine
 62
7
  6
CONTINUOUS
 10
23.5240269502
 20
-16.1088770294
 11
23.4629342229
 21
-16.0528958589
  0
LINE
  5
37E
100
AcDbEntity
  8
0
100
AcDbLine
 62
250
  6
CONTINUOUS
 10
-43.8808557442
 20
44.0384050918
 11
-43.7918349131
 21
43.9493842606
  0
LINE
  5
37F
100
AcDbEntity
  8
0
100
AcDbLine
 62
250
  6
CONTINUOUS
 10
43.7507156775
 20
-43.59316633
 11
43.6616948463
 21
-43.5041454988
  0
LINE
  5
380
100
AcDbEntity
  8
DRAFT
100
AcDbLine
 62
7
  6
CONTINUOUS
 10
21.935006119
 20
-18.6493763628
 11
21.945479158
 21
-18.6598494017
  0
LINE
  5
381
100
AcDbEntity
  8
DRAFT
100
AcDbLine
 62
7
  6
CONTINUOUS
 10
-18.9370657771
 20
22.2226955333
 11
-18.947538816
 21
22.2331685723
  0
LINE
  5
382
100
AcDbEntity
  8
DRAFT
100
AcDbLine
 62
7
  6
CONTINUOUS
 10
-16.4462268762
 20
22.2226955333
 11
-16.5277994389
 21
22.3117163645
  0
LINE
  5
383
100
AcDbEntity
  8
DRAFT
100
AcDbLine
 62
7
  6
CONTINUOUS
 10
-16.3965664437
 20
23.8117163645
 11
-16.3405852732
 21
23.7506236372
  0
LINE
  5
384
100
AcDbEntity
  8
DRAFT
100
AcDbLine
 62
7
  6
CONTINUOUS
 10
-11.139993881
 20
26.0226955333
 11
-11.179296233
 21
26.1117163645
  0
LINE
  5
385
100
AcDbEntity
  8
DRAFT
100
AcDbLine
 62
7
  6
CONTINUOUS
 10
-10.404296233
 20
26.9617163645
 11
-10.364993881
 21
26.8726955333
  0
LINE
  5
386
100
AcDbEntity
  8
DRAFT
100
AcDbLine
 62
7
  6
CONTINUOUS
 10
13.435006119
 20
-27.4273044667
 11
13.4718797546
 21
-27.5163252978
  0
LINE
  5
387
100
AcDbEntity
  8
DRAFT
100
AcDbLine
 62
7
  6
CONTINUOUS
 10
8.2042047407
 20
-25.277110989
 11
8.2077338807
 21
-25.6273044667
  0
LINE
  5
388
100
AcDbEntity
  8
DRAFT
100
AcDbLine
 62
7
  6
CONTINUOUS
 10
8.185006119
 20
24.7226955333
 11
8.185006119
 21
24.6947674294
  0
LINE
  5
389
100
AcDbEntity
  8
DRAFT
100
AcDbLine
 62
7
  6
CONTINUOUS
 10
8.185006119
 20
23.7506236372
 11
8.185006119
 21
22.2226955333
  0
LINE
  5
38A
100
AcDbEntity
  8
DRAFT
100
AcDbLine
 62
7
  6
CONTINUOUS
 10
8.185006119
 20
-22.7773044667
 11
8.185006119
 21
-24.3052325706
  0
LINE
  5
38B
100
AcDbEntity
  8
DRAFT
100
AcDbLine
 62
7
  6
CONTINUOUS
 10
8.185006119
 20
-25.2493763628
 11
8.185006119
 21
-25.2773044667
  0
LINE
  5
38C
100
AcDbEntity
  8
DRAFT
100
AcDbLine
 62
7
  6
CONTINUOUS
 10
8.2077338807
 20
25.0726955333
 11
8.2042047407
 21
24.7225020556
  0
LINE
  5
38D
100
AcDbEntity
  8
DRAFT
100
AcDbLine
 62
7
  6
CONTINUOUS
 10
18.1465743184
 20
22.2506236372
 11
18.1574195054
 21
22.2768062346
  0
LINE
  5
38E
100
AcDbEntity
  8
DRAFT
100
AcDbLine
 62
7
  6
CONTINUOUS
 10
-13.264993881
 20
-27.4273044667
 11
-12.489993881
 21
-26.5773044667
  0
LINE
  5
38F
100
AcDbEntity
  8
DRAFT
100
AcDbLine
 62
7
  6
CONTINUOUS
 10
-14.2870657771
 20
-25.2493763628
 11
-14.314993881
 21
-25.2773044667
  0
LINE
  5
390
100
AcDbEntity
  8
DRAFT
100
AcDbLine
 62
7
  6
CONTINUOUS
 10
-11.314993881
 20
-22.7773044667
 11
-11.4040147121
 21
-22.8663252978
  0
LINE
  5
391
100
AcDbEntity
  8
DRAFT
100
AcDbLine
 62
7
  6
CONTINUOUS
 10
21.935006119
 20
10.4726955333
 11
22.0240269502
 21
10.5617163645
  0
LINE
  5
392
100
AcDbEntity
  8
DRAFT
100
AcDbLine
 62
7
  6
CONTINUOUS
 10
25.735006119
 20
11.6476955333
 11
26.585006119
 21
12.4226955333
  0
LINE
  5
393
100
AcDbEntity
  8
DRAFT
100
AcDbLine
 62
7
  6
CONTINUOUS
 10
-23.0929219848
 20
-18.9888726661
 11
-23.1191045822
 21
-18.999717853
  0
LINE
  5
394
100
AcDbEntity
  8
DRAFT
100
AcDbLine
 62
7
  6
CONTINUOUS
 10
24.785006119
 20
8.4726955333
 11
24.4070780152
 21
8.4726955333
  0
LINE
  5
395
100
AcDbEntity
  8
DRAFT
100
AcDbLine
 62
7
  6
CONTINUOUS
 10
23.4629342229
 20
8.4726955333
 11
21.935006119
 21
8.4726955333
  0
LINE
  5
396
100
AcDbEntity
  8
DRAFT
100
AcDbLine
 62
7
  6
CONTINUOUS
 10
-23.064993881
 20
8.4726955333
 11
-24.5929219848
 21
8.4726955333
  0
LINE
  5
397
100
AcDbEntity
  8
DRAFT
100
AcDbLine
 62
7
  6
CONTINUOUS
 10
-25.5370657771
 20
8.4726955333
 11
-25.914993881
 21
8.4726955333
  0
LINE
  5
398
100
AcDbEntity
  8
DRAFT
100
AcDbLine
 62
7
  6
CONTINUOUS
 10
-23.0929219848
 20
18.4342637327
 11
-23.1191045822
 21
18.4451089197
  0
LINE
  5
399
100
AcDbEntity
  8
DRAFT
100
AcDbLine
 62
7
  6
CONTINUOUS
 10
26.585006119
 20
-12.9773044667
 11
25.735006119
 21
-12.2023044667
  0
LINE
  5
39A
100
AcDbEntity
  8
DRAFT
100
AcDbLine
 62
7
  6
CONTINUOUS
 10
-14.314993881
 20
24.7226955333
 11
-14.2870657771
 21
24.6947674294
  0
LINE
  5
39B
100
AcDbEntity
  8
DRAFT
100
AcDbLine
 62
7
  6
CONTINUOUS
 10
22.0240269502
 20
-11.1163252978
 11
21.935006119
 21
-11.0273044667
  0
LINE
  5
39C
100
AcDbEntity
  8
DRAFT
100
AcDbLine
 62
7
  6
CONTINUOUS
 10
-11.314993881
 20
22.2226955333
 11
-11.4040147121
 21
22.3117163645
  0
LINE
  5
39D
100
AcDbEntity
  8
DRAFT
100
AcDbLine
 62
7
  6
CONTINUOUS
 10
-12.489993881
 20
26.0226955333
 11
-13.264993881
 21
26.8726955333
  0
LINE
  5
39E
100
AcDbEntity
  8
DRAFT
100
AcDbLine
 62
7
  6
CONTINUOUS
 10
18.1465743184
 20
-22.8052325706
 11
18.1574195054
 21
-22.831415168
  0
LINE
  5
39F
100
AcDbEntity
  8
DRAFT
100
AcDbLine
 62
7
  6
CONTINUOUS
 10
10.185006119
 20
23.7226955333
 11
10.185006119
 21
22.2226955333
  0
LINE
  5
3A0
100
AcDbEntity
  8
DRAFT
100
AcDbLine
 62
7
  6
CONTINUOUS
 10
10.185006119
 20
-22.7773044667
 11
10.185006119
 21
-24.2773044667
  0
LINE
  5
3A1
100
AcDbEntity
  8
DRAFT
100
AcDbLine
 62
7
  6
CONTINUOUS
 10
10.2740269502
 20
-22.8663252978
 11
10.2740269502
 21
-24.3663252978
  0
LINE
  5
3A2
100
AcDbEntity
  8
DRAFT
100
AcDbLine
 62
7
  6
CONTINUOUS
 10
10.2740269502
 20
22.3117163645
 11
10.2740269502
 21
23.8117163645
  0
LINE
  5
3A3
100
AcDbEntity
  8
DRAFT
100
AcDbLine
 62
7
  6
CONTINUOUS
 10
11.0959852879
 20
-22.8663252978
 11
11.0959852879
 21
-24.3663252978
  0
LINE
  5
3A4
100
AcDbEntity
  8
DRAFT
100
AcDbLine
 62
7
  6
CONTINUOUS
 10
11.0959852879
 20
22.3117163645
 11
11.0959852879
 21
23.8117163645
  0
LINE
  5
3A5
100
AcDbEntity
  8
DRAFT
100
AcDbLine
 62
7
  6
CONTINUOUS
 10
11.185006119
 20
23.7226955333
 11
11.185006119
 21
22.2226955333
  0
LINE
  5
3A6
100
AcDbEntity
  8
DRAFT
100
AcDbLine
 62
7
  6
CONTINUOUS
 10
11.185006119
 20
-22.7773044667
 11
11.185006119
 21
-24.2773044667
  0
LINE
  5
3A7
100
AcDbEntity
  8
DRAFT
100
AcDbLine
 62
7
  6
CONTINUOUS
 10
-13.2256915289
 20
-27.5163252978
 11
-12.4506915289
 21
-26.6663252978
  0
LINE
  5
3A8
100
AcDbEntity
  8
DRAFT
100
AcDbLine
 62
7
  6
CONTINUOUS
 10
23.5240269502
 20
10.5617163645
 11
23.435006119
 21
10.4726955333
  0
LINE
  5
3A9
100
AcDbEntity
  8
DRAFT
100
AcDbLine
 62
7
  6
CONTINUOUS
 10
-11.314993881
 20
-24.2773044667
 11
-11.4040147121
 21
-24.3663252978
  0
LINE
  5
3AA
100
AcDbEntity
  8
DRAFT
100
AcDbLine
 62
7
  6
CONTINUOUS
 10
-9.314993881
 20
-24.2773044667
 11
-9.3429219848
 21
-24.3052325706
  0
LINE
  5
3AB
100
AcDbEntity
  8
DRAFT
100
AcDbLine
 62
7
  6
CONTINUOUS
 10
25.8240269502
 20
11.6083931813
 11
26.6740269502
 21
12.3833931813
  0
LINE
  5
3AC
100
AcDbEntity
  8
DRAFT
100
AcDbLine
 62
7
  6
CONTINUOUS
 10
23.435006119
 20
10.4726955333
 11
21.935006119
 21
10.4726955333
  0
LINE
  5
3AD
100
AcDbEntity
  8
DRAFT
100
AcDbLine
 62
7
  6
CONTINUOUS
 10
-23.064993881
 20
10.4726955333
 11
-24.564993881
 21
10.4726955333
  0
LINE
  5
3AE
100
AcDbEntity
  8
DRAFT
100
AcDbLine
 62
7
  6
CONTINUOUS
 10
22.0240269502
 20
10.5617163645
 11
23.5240269502
 21
10.5617163645
  0
LINE
  5
3AF
100
AcDbEntity
  8
DRAFT
100
AcDbLine
 62
7
  6
CONTINUOUS
 10
-23.1540147121
 20
10.5617163645
 11
-24.6540147121
 21
10.5617163645
  0
LINE
  5
3B0
100
AcDbEntity
  8
DRAFT
100
AcDbLine
 62
7
  6
CONTINUOUS
 10
22.0240269502
 20
11.3836747022
 11
23.5240269502
 21
11.3836747022
  0
LINE
  5
3B1
100
AcDbEntity
  8
DRAFT
100
AcDbLine
 62
7
  6
CONTINUOUS
 10
-23.1540147121
 20
11.3836747022
 11
-24.6540147121
 21
11.3836747022
  0
LINE
  5
3B2
100
AcDbEntity
  8
DRAFT
100
AcDbLine
 62
7
  6
CONTINUOUS
 10
23.435006119
 20
11.4726955333
 11
21.935006119
 21
11.4726955333
  0
LINE
  5
3B3
100
AcDbEntity
  8
DRAFT
100
AcDbLine
 62
7
  6
CONTINUOUS
 10
-23.064993881
 20
11.4726955333
 11
-24.564993881
 21
11.4726955333
  0
LINE
  5
3B4
100
AcDbEntity
  8
DRAFT
100
AcDbLine
 62
7
  6
CONTINUOUS
 10
26.6740269502
 20
-12.9380021146
 11
25.8240269502
 21
-12.1630021146
  0
LINE
  5
3B5
100
AcDbEntity
  8
DRAFT
100
AcDbLine
 62
7
  6
CONTINUOUS
 10
-11.4040147121
 20
23.8117163645
 11
-11.314993881
 21
23.7226955333
  0
LINE
  5
3B6
100
AcDbEntity
  8
DRAFT
100
AcDbLine
 62
7
  6
CONTINUOUS
 10
23.5240269502
 20
-11.1163252978
 11
23.435006119
 21
-11.0273044667
  0
LINE
  5
3B7
100
AcDbEntity
  8
DRAFT
100
AcDbLine
 62
7
  6
CONTINUOUS
 10
-9.3429219848
 20
23.7506236372
 11
-9.314993881
 21
23.7226955333
  0
LINE
  5
3B8
100
AcDbEntity
  8
DRAFT
100
AcDbLine
 62
7
  6
CONTINUOUS
 10
-12.4506915289
 20
26.1117163645
 11
-13.2256915289
 21
26.9617163645
  0
LINE
  5
3B9
100
AcDbEntity
  8
DRAFT
100
AcDbLine
 62
7
  6
CONTINUOUS
 10
13.1622783574
 20
25.0726955333
 11
13.1658074974
 21
24.7225020556
  0
LINE
  5
3BA
100
AcDbEntity
  8
DRAFT
100
AcDbLine
 62
7
  6
CONTINUOUS
 10
13.185006119
 20
24.7226955333
 11
13.185006119
 21
24.6947674294
  0
LINE
  5
3BB
100
AcDbEntity
  8
DRAFT
100
AcDbLine
 62
7
  6
CONTINUOUS
 10
13.185006119
 20
23.7506236372
 11
13.185006119
 21
22.2226955333
  0
LINE
  5
3BC
100
AcDbEntity
  8
DRAFT
100
AcDbLine
 62
7
  6
CONTINUOUS
 10
13.185006119
 20
-22.7773044667
 11
13.185006119
 21
-24.3052325706
  0
LINE
  5
3BD
100
AcDbEntity
  8
DRAFT
100
AcDbLine
 62
7
  6
CONTINUOUS
 10
13.185006119
 20
-25.2493763628
 11
13.185006119
 21
-25.2773044667
  0
LINE
  5
3BE
100
AcDbEntity
  8
DRAFT
100
AcDbLine
 62
7
  6
CONTINUOUS
 10
13.1658074974
 20
-25.277110989
 11
13.1622783574
 21
-25.6273044667
  0
LINE
  5
3BF
100
AcDbEntity
  8
DRAFT
100
AcDbLine
 62
7
  6
CONTINUOUS
 10
25.009269948
 20
15.4243261711
 11
24.9692336339
 21
15.3384680185
  0
LINE
  5
3C0
100
AcDbEntity
  8
DRAFT
100
AcDbLine
 62
7
  6
CONTINUOUS
 10
24.3459852879
 20
6.4630350071
 11
24.4070780152
 21
6.5297060197
  0
LINE
  5
3C1
100
AcDbEntity
  8
DRAFT
100
AcDbLine
 62
7
  6
CONTINUOUS
 10
26.585006119
 20
8.2226955333
 11
24.9692336339
 21
6.6069230481
  0
LINE
  5
3C2
100
AcDbEntity
  8
DRAFT
100
AcDbLine
 62
7
  6
CONTINUOUS
 10
-7.4492213958
 20
-25.8115319815
 11
-9.064993881
 21
-27.4273044667
  0
LINE
  5
3C3
100
AcDbEntity
  8
DRAFT
100
AcDbLine
 62
7
  6
CONTINUOUS
 10
26.6740269502
 20
8.1858218977
 11
25.009269948
 21
6.5210648955
  0
LINE
  5
3C4
100
AcDbEntity
  8
DRAFT
100
AcDbLine
 62
7
  6
CONTINUOUS
 10
-9.0281202454
 20
-27.5163252978
 11
-7.3633632431
 21
-25.8515682956
  0
LINE
  5
3C5
100
AcDbEntity
  8
DRAFT
100
AcDbLine
 62
7
  6
CONTINUOUS
 10
-1.5370657771
 20
-22.7773044667
 11
-1.547538816
 21
-22.7877775056
  0
LINE
  5
3C6
100
AcDbEntity
  8
DRAFT
100
AcDbLine
 62
7
  6
CONTINUOUS
 10
21.935006119
 20
0.6947674294
 11
21.945479158
 21
0.7052404684
  0
LINE
  5
3C7
100
AcDbEntity
  8
DRAFT
100
AcDbLine
 62
7
  6
CONTINUOUS
 10
-7.3053333547
 20
-25.1882836355
 11
-7.3720043673
 21
-25.2493763628
  0
LINE
  5
3C8
100
AcDbEntity
  8
DRAFT
100
AcDbLine
 62
7
  6
CONTINUOUS
 10
-16.1807663661
 20
-25.8115319815
 11
-16.2666245188
 21
-25.8515682956
  0
LINE
  5
3C9
100
AcDbEntity
  8
DRAFT
100
AcDbLine
 62
7
  6
CONTINUOUS
 10
24.785006119
 20
13.4726955333
 11
24.4070780152
 21
13.4726955333
  0
LINE
  5
3CA
100
AcDbEntity
  8
DRAFT
100
AcDbLine
 62
7
  6
CONTINUOUS
 10
23.4629342229
 20
13.4726955333
 11
21.935006119
 21
13.4726955333
  0
LINE
  5
3CB
100
AcDbEntity
  8
DRAFT
100
AcDbLine
 62
7
  6
CONTINUOUS
 10
-23.064993881
 20
13.4726955333
 11
-24.5929219848
 21
13.4726955333
  0
LINE
  5
3CC
100
AcDbEntity
  8
DRAFT
100
AcDbLine
 62
7
  6
CONTINUOUS
 10
-25.5370657771
 20
13.4726955333
 11
-25.914993881
 21
13.4726955333
  0
LINE
  5
3CD
100
AcDbEntity
  8
DRAFT
100
AcDbLine
 62
7
  6
CONTINUOUS
 10
-16.2666245188
 20
25.2969593622
 11
-16.1807663661
 21
25.2569230481
  0
LINE
  5
3CE
100
AcDbEntity
  8
DRAFT
100
AcDbLine
 62
7
  6
CONTINUOUS
 10
-7.3053333547
 20
24.6336747022
 11
-7.3720043673
 21
24.6947674294
  0
LINE
  5
3CF
100
AcDbEntity
  8
DRAFT
100
AcDbLine
 62
7
  6
CONTINUOUS
 10
-9.064993881
 20
26.8726955333
 11
-7.4492213958
 21
25.2569230481
  0
LINE
  5
3D0
100
AcDbEntity
  8
DRAFT
100
AcDbLine
 62
7
  6
CONTINUOUS
 10
24.9692336339
 20
-7.1615319815
 11
26.585006119
 21
-8.7773044667
  0
LINE
  5
3D1
100
AcDbEntity
  8
DRAFT
100
AcDbLine
 62
7
  6
CONTINUOUS
 10
25.009269948
 20
-7.0756738289
 11
26.6740269502
 21
-8.7404308311
  0
LINE
  5
3D2
100
AcDbEntity
  8
DRAFT
100
AcDbLine
 62
7
  6
CONTINUOUS
 10
-7.3633632431
 20
25.2969593622
 11
-9.0281202454
 21
26.9617163645
  0
LINE
  5
3D3
100
AcDbEntity
  8
DRAFT
100
AcDbLine
 62
7
  6
CONTINUOUS
 10
21.935006119
 20
-1.2493763628
 11
21.945479158
 21
-1.2598494017
  0
LINE
  5
3D4
100
AcDbEntity
  8
DRAFT
100
AcDbLine
 62
7
  6
CONTINUOUS
 10
-1.5370657771
 20
22.2226955333
 11
-1.547538816
 21
22.2331685723
  0
LINE
  5
3D5
100
AcDbEntity
  8
DRAFT
100
AcDbLine
 62
7
  6
CONTINUOUS
 10
24.3459852879
 20
-7.0176439404
 11
24.4070780152
 21
-7.084314953
  0
LINE
  5
3D6
100
AcDbEntity
  8
DRAFT
100
AcDbLine
 62
7
  6
CONTINUOUS
 10
25.009269948
 20
-15.9789351045
 11
24.9692336339
 21
-15.8930769519
  0
LINE
  5
3D7
100
AcDbEntity
  8
DRAFT
100
AcDbLine
 62
7
  6
CONTINUOUS
 10
15.3162391143
 20
22.2226955333
 11
15.1827756822
 21
23.7481895426
  0
LINE
  5
3D8
100
AcDbEntity
  8
DRAFT
100
AcDbLine
 62
7
  6
CONTINUOUS
 10
15.1001738037
 20
24.6923333348
 11
15.0507786042
 21
25.2569230481
  0
LINE
  5
3D9
100
AcDbEntity
  8
DRAFT
100
AcDbLine
 62
7
  6
CONTINUOUS
 10
15.397811677
 20
22.3117163645
 11
15.2665786818
 21
23.8117163645
  0
LINE
  5
3DA
100
AcDbEntity
  8
DRAFT
100
AcDbLine
 62
7
  6
CONTINUOUS
 10
15.1946666453
 20
24.6336747022
 11
15.1366367569
 21
25.2969593622
  0
LINE
  5
3DB
100
AcDbEntity
  8
DRAFT
100
AcDbLine
 62
7
  6
CONTINUOUS
 10
15.3162391143
 20
-22.7773044667
 11
15.1827756822
 21
-24.3027984759
  0
LINE
  5
3DC
100
AcDbEntity
  8
DRAFT
100
AcDbLine
 62
7
  6
CONTINUOUS
 10
15.1001738037
 20
-25.2469422682
 11
15.0507786042
 21
-25.8115319815
  0
LINE
  5
3DD
100
AcDbEntity
  8
DRAFT
100
AcDbLine
 62
7
  6
CONTINUOUS
 10
15.1366367569
 20
-25.8515682956
 11
15.1946666453
 21
-25.1882836355
  0
LINE
  5
3DE
100
AcDbEntity
  8
DRAFT
100
AcDbLine
 62
7
  6
CONTINUOUS
 10
15.2665786818
 20
-24.3663252978
 11
15.397811677
 21
-22.8663252978
  0
LINE
  5
3DF
100
AcDbEntity
  8
DRAFT
100
AcDbLine
 62
7
  6
CONTINUOUS
 10
7.935006119
 20
-27.4273044667
 11
7.8981324835
 21
-27.5163252978
  0
LINE
  5
3E0
100
AcDbEntity
  8
DRAFT
100
AcDbLine
 62
7
  6
CONTINUOUS
 10
5.9722005611
 20
-22.8663252978
 11
6.0537731238
 21
-22.7773044667
  0
LINE
  5
3E1
100
AcDbEntity
  8
DRAFT
100
AcDbLine
 62
7
  6
CONTINUOUS
 10
6.1034335563
 20
-24.3663252978
 11
6.1594147268
 21
-24.3052325706
  0
LINE
  5
3E2
100
AcDbEntity
  8
DRAFT
100
AcDbLine
 62
7
  6
CONTINUOUS
 10
3.5629342229
 20
-22.7773044667
 11
3.552461184
 21
-22.7877775056
  0
LINE
  5
3E3
100
AcDbEntity
  8
DRAFT
100
AcDbLine
 62
7
  6
CONTINUOUS
 10
21.935006119
 20
-4.4052325706
 11
21.945479158
 21
-4.3947595316
  0
LINE
  5
3E4
100
AcDbEntity
  8
DRAFT
100
AcDbLine
 62
7
  6
CONTINUOUS
 10
22.0240269502
 20
-6.8144989087
 11
21.935006119
 21
-6.8960714714
  0
LINE
  5
3E5
100
AcDbEntity
  8
DRAFT
100
AcDbLine
 62
7
  6
CONTINUOUS
 10
23.5240269502
 20
-6.945731904
 11
23.4629342229
 21
-7.0017130745
  0
LINE
  5
3E6
100
AcDbEntity
  8
DRAFT
100
AcDbLine
 62
7
  6
CONTINUOUS
 10
26.585006119
 20
-8.7773044667
 11
26.6740269502
 21
-8.7404308311
  0
LINE
  5
3E7
100
AcDbEntity
  8
DRAFT
100
AcDbLine
 62
7
  6
CONTINUOUS
 10
-23.064993881
 20
15.6039285286
 11
-24.5904878902
 21
15.4704650965
  0
LINE
  5
3E8
100
AcDbEntity
  8
DRAFT
100
AcDbLine
 62
7
  6
CONTINUOUS
 10
-25.5346316824
 20
15.387863218
 11
-26.0992213958
 21
15.3384680185
  0
LINE
  5
3E9
100
AcDbEntity
  8
DRAFT
100
AcDbLine
 62
7
  6
CONTINUOUS
 10
-26.1392577099
 20
15.4243261711
 11
-25.4759730498
 21
15.4823560596
  0
LINE
  5
3EA
100
AcDbEntity
  8
DRAFT
100
AcDbLine
 62
7
  6
CONTINUOUS
 10
-24.6540147121
 20
15.554268096
 11
-23.1540147121
 21
15.6855010913
  0
LINE
  5
3EB
100
AcDbEntity
  8
DRAFT
100
AcDbLine
 62
7
  6
CONTINUOUS
 10
21.935006119
 20
15.6039285286
 11
23.4605001283
 21
15.4704650965
  0
LINE
  5
3EC
100
AcDbEntity
  8
DRAFT
100
AcDbLine
 62
7
  6
CONTINUOUS
 10
24.4046439205
 20
15.387863218
 11
24.9692336339
 21
15.3384680185
  0
LINE
  5
3ED
100
AcDbEntity
  8
DRAFT
100
AcDbLine
 62
7
  6
CONTINUOUS
 10
22.0240269502
 20
15.6855010913
 11
23.5240269502
 21
15.554268096
  0
LINE
  5
3EE
100
AcDbEntity
  8
DRAFT
100
AcDbLine
 62
7
  6
CONTINUOUS
 10
24.3459852879
 20
15.4823560596
 11
25.009269948
 21
15.4243261711
  0
LINE
  5
3EF
100
AcDbEntity
  8
DRAFT
100
AcDbLine
 62
7
  6
CONTINUOUS
 10
26.585006119
 20
8.2226955333
 11
26.6740269502
 21
8.1858218977
  0
LINE
  5
3F0
100
AcDbEntity
  8
DRAFT
100
AcDbLine
 62
7
  6
CONTINUOUS
 10
22.0240269502
 20
6.2598899753
 11
21.935006119
 21
6.341462538
  0
LINE
  5
3F1
100
AcDbEntity
  8
DRAFT
100
AcDbLine
 62
7
  6
CONTINUOUS
 10
23.5240269502
 20
6.3911229706
 11
23.4629342229
 21
6.4471041411
  0
LINE
  5
3F2
100
AcDbEntity
  8
DRAFT
100
AcDbLine
 62
7
  6
CONTINUOUS
 10
21.935006119
 20
3.8506236372
 11
21.945479158
 21
3.8401505983
  0
LINE
  5
3F3
100
AcDbEntity
  8
DRAFT
100
AcDbLine
 62
7
  6
CONTINUOUS
 10
3.5629342229
 20
22.2226955333
 11
3.552461184
 21
22.2331685723
  0
LINE
  5
3F4
100
AcDbEntity
  8
DRAFT
100
AcDbLine
 62
7
  6
CONTINUOUS
 10
6.0537731238
 20
22.2226955333
 11
5.9722005611
 21
22.3117163645
  0
LINE
  5
3F5
100
AcDbEntity
  8
DRAFT
100
AcDbLine
 62
7
  6
CONTINUOUS
 10
6.1034335563
 20
23.8117163645
 11
6.1594147268
 21
23.7506236372
  0
LINE
  5
3F6
100
AcDbEntity
  8
DRAFT
100
AcDbLine
 62
7
  6
CONTINUOUS
 10
7.935006119
 20
26.8726955333
 11
7.8981324835
 21
26.9617163645
  0
LINE
  5
3F7
100
AcDbEntity
  8
DRAFT
100
AcDbLine
 62
7
  6
CONTINUOUS
 10
21.935006119
 20
18.0947674294
 11
21.935006119
 21
15.6039285286
  0
LINE
  5
3F8
100
AcDbEntity
  8
DRAFT
100
AcDbLine
 62
7
  6
CONTINUOUS
 10
21.935006119
 20
13.4726955333
 11
21.935006119
 21
8.4726955333
  0
LINE
  5
3F9
100
AcDbEntity
  8
DRAFT
100
AcDbLine
 62
7
  6
CONTINUOUS
 10
21.935006119
 20
6.341462538
 11
21.935006119
 21
3.8506236372
  0
LINE
  5
3FA
100
AcDbEntity
  8
DRAFT
100
AcDbLine
 62
7
  6
CONTINUOUS
 10
21.935006119
 20
0.6947674294
 11
21.935006119
 21
-1.2493763628
  0
LINE
  5
3FB
100
AcDbEntity
  8
DRAFT
100
AcDbLine
 62
7
  6
CONTINUOUS
 10
21.935006119
 20
-4.4052325706
 11
21.935006119
 21
-6.8960714714
  0
LINE
  5
3FC
100
AcDbEntity
  8
DRAFT
100
AcDbLine
 62
7
  6
CONTINUOUS
 10
21.935006119
 20
-9.0273044667
 11
21.935006119
 21
-14.0273044667
  0
LINE
  5
3FD
100
AcDbEntity
  8
DRAFT
100
AcDbLine
 62
7
  6
CONTINUOUS
 10
21.935006119
 20
-16.158537462
 11
21.935006119
 21
-18.6493763628
  0
LINE
  5
3FE
100
AcDbEntity
  8
DRAFT
100
AcDbLine
 62
7
  6
CONTINUOUS
 10
21.945479158
 20
18.4517187977
 11
21.945479158
 21
18.1052404684
  0
LINE
  5
3FF
100
AcDbEntity
  8
DRAFT
100
AcDbLine
 62
7
  6
CONTINUOUS
 10
21.945479158
 20
-1.2598494017
 11
21.945479158
 21
-4.3947595316
  0
LINE
  5
400
100
AcDbEntity
  8
DRAFT
100
AcDbLine
 62
7
  6
CONTINUOUS
 10
21.945479158
 20
-19.006327731
 11
21.945479158
 21
-18.6598494017
  0
LINE
  5
401
100
AcDbEntity
  8
DRAFT
100
AcDbLine
 62
7
  6
CONTINUOUS
 10
21.945479158
 20
0.7052404684
 11
21.945479158
 21
3.8401505983
  0
LINE
  5
402
100
AcDbEntity
  8
DRAFT
100
AcDbLine
 62
7
  6
CONTINUOUS
 10
21.9891168203
 20
22.2768062346
 11
21.9891168203
 21
18.4451089197
  0
LINE
  5
403
100
AcDbEntity
  8
DRAFT
100
AcDbLine
 62
7
  6
CONTINUOUS
 10
21.9891168203
 20
-18.999717853
 11
21.9891168203
 21
-22.831415168
  0
LINE
  5
404
100
AcDbEntity
  8
DRAFT
100
AcDbLine
 62
7
  6
CONTINUOUS
 10
22.0240269502
 20
-22.8663252978
 11
22.0240269502
 21
-16.2401100247
  0
LINE
  5
405
100
AcDbEntity
  8
DRAFT
100
AcDbLine
 62
7
  6
CONTINUOUS
 10
22.0240269502
 20
-11.9382836355
 11
22.0240269502
 21
-11.1163252978
  0
LINE
  5
406
100
AcDbEntity
  8
DRAFT
100
AcDbLine
 62
7
  6
CONTINUOUS
 10
22.0240269502
 20
-6.8144989087
 11
22.0240269502
 21
6.2598899753
  0
LINE
  5
407
100
AcDbEntity
  8
DRAFT
100
AcDbLine
 62
7
  6
CONTINUOUS
 10
22.0240269502
 20
10.5617163645
 11
22.0240269502
 21
11.3836747022
  0
LINE
  5
408
100
AcDbEntity
  8
DRAFT
100
AcDbLine
 62
7
  6
CONTINUOUS
 10
22.0240269502
 20
15.6855010913
 11
22.0240269502
 21
22.3117163645
  0
LINE
  5
409
100
AcDbEntity
  8
DRAFT
100
AcDbLine
 62
7
  6
CONTINUOUS
 10
23.435006119
 20
13.4726955333
 11
23.435006119
 21
11.4726955333
  0
LINE
  5
40A
100
AcDbEntity
  8
DRAFT
100
AcDbLine
 62
7
  6
CONTINUOUS
 10
23.435006119
 20
10.4726955333
 11
23.435006119
 21
8.4726955333
  0
LINE
  5
40B
100
AcDbEntity
  8
DRAFT
100
AcDbLine
 62
7
  6
CONTINUOUS
 10
23.435006119
 20
-9.0273044667
 11
23.435006119
 21
-11.0273044667
  0
LINE
  5
40C
100
AcDbEntity
  8
DRAFT
100
AcDbLine
 62
7
  6
CONTINUOUS
 10
23.435006119
 20
-12.0273044667
 11
23.435006119
 21
-14.0273044667
  0
LINE
  5
40D
100
AcDbEntity
  8
DRAFT
100
AcDbLine
 62
7
  6
CONTINUOUS
 10
23.4629342229
 20
15.4982869255
 11
23.4629342229
 21
13.4726955333
  0
LINE
  5
40E
100
AcDbEntity
  8
DRAFT
100
AcDbLine
 62
7
  6
CONTINUOUS
 10
23.4629342229
 20
8.4726955333
 11
23.4629342229
 21
6.4471041411
  0
LINE
  5
40F
100
AcDbEntity
  8
DRAFT
100
AcDbLine
 62
7
  6
CONTINUOUS
 10
23.4629342229
 20
-7.0017130745
 11
23.4629342229
 21
-9.0273044667
  0
LINE
  5
410
100
AcDbEntity
  8
DRAFT
100
AcDbLine
 62
7
  6
CONTINUOUS
 10
23.4629342229
 20
-14.0273044667
 11
23.4629342229
 21
-16.0528958589
  0
LINE
  5
411
100
AcDbEntity
  8
DRAFT
100
AcDbLine
 62
7
  6
CONTINUOUS
 10
23.5240269502
 20
15.554268096
 11
23.5240269502
 21
11.3836747022
  0
LINE
  5
412
100
AcDbEntity
  8
DRAFT
100
AcDbLine
 62
7
  6
CONTINUOUS
 10
23.5240269502
 20
10.5617163645
 11
23.5240269502
 21
6.3911229706
  0
LINE
  5
413
100
AcDbEntity
  8
DRAFT
100
AcDbLine
 62
7
  6
CONTINUOUS
 10
23.5240269502
 20
-6.945731904
 11
23.5240269502
 21
-11.1163252978
  0
LINE
  5
414
100
AcDbEntity
  8
DRAFT
100
AcDbLine
 62
7
  6
CONTINUOUS
 10
23.5240269502
 20
-11.9382836355
 11
23.5240269502
 21
-16.1088770294
  0
LINE
  5
415
100
AcDbEntity
  8
DRAFT
100
AcDbLine
 62
7
  6
CONTINUOUS
 10
24.3459852879
 20
-16.0369649929
 11
24.3459852879
 21
-7.0176439404
  0
LINE
  5
416
100
AcDbEntity
  8
DRAFT
100
AcDbLine
 62
7
  6
CONTINUOUS
 10
24.3459852879
 20
6.4630350071
 11
24.3459852879
 21
15.4823560596
  0
LINE
  5
417
100
AcDbEntity
  8
DRAFT
100
AcDbLine
 62
7
  6
CONTINUOUS
 10
24.4070780152
 20
-15.9702939803
 11
24.4070780152
 21
-14.0273044667
  0
LINE
  5
418
100
AcDbEntity
  8
DRAFT
100
AcDbLine
 62
7
  6
CONTINUOUS
 10
24.4070780152
 20
-9.0273044667
 11
24.4070780152
 21
-7.084314953
  0
LINE
  5
419
100
AcDbEntity
  8
DRAFT
100
AcDbLine
 62
7
  6
CONTINUOUS
 10
24.4070780152
 20
6.5297060197
 11
24.4070780152
 21
8.4726955333
  0
LINE
  5
41A
100
AcDbEntity
  8
DRAFT
100
AcDbLine
 62
7
  6
CONTINUOUS
 10
24.4070780152
 20
13.4726955333
 11
24.4070780152
 21
15.415685047
  0
LINE
  5
41B
100
AcDbEntity
  8
DRAFT
100
AcDbLine
 62
7
  6
CONTINUOUS
 10
24.435006119
 20
13.4726955333
 11
24.435006119
 21
8.4726955333
  0
LINE
  5
41C
100
AcDbEntity
  8
DRAFT
100
AcDbLine
 62
7
  6
CONTINUOUS
 10
24.435006119
 20
-9.0273044667
 11
24.435006119
 21
-14.0273044667
  0
LINE
  5
41D
100
AcDbEntity
  8
0
100
AcDbLine
 62
7
  6
CONTINUOUS
 10
24.785006119
 20
13.4726955333
 11
24.785006119
 21
8.4726955333
  0
LINE
  5
41E
100
AcDbEntity
  8
0
100
AcDbLine
 62
7
  6
CONTINUOUS
 10
24.785006119
 20
-9.0273044667
 11
24.785006119
 21
-14.0273044667
  0
LINE
  5
41F
100
AcDbEntity
  8
DRAFT
100
AcDbLine
 62
7
  6
CONTINUOUS
 10
11.360006119
 20
-26.5773044667
 11
11.320703767
 21
-26.6663252978
  0
LINE
  5
420
100
AcDbEntity
  8
DRAFT
100
AcDbLine
 62
7
  6
CONTINUOUS
 10
12.095703767
 20
-27.5163252978
 11
12.135006119
 21
-27.4273044667
  0
LINE
  5
421
100
AcDbEntity
  8
DRAFT
100
AcDbLine
 62
7
  6
CONTINUOUS
 10
9.235006119
 20
-27.4273044667
 11
10.010006119
 21
-26.5773044667
  0
LINE
  5
422
100
AcDbEntity
  8
DRAFT
100
AcDbLine
 62
7
  6
CONTINUOUS
 10
9.2743084711
 20
-27.5163252978
 11
10.0493084711
 21
-26.6663252978
  0
LINE
  5
423
100
AcDbEntity
  8
DRAFT
100
AcDbLine
 62
7
  6
CONTINUOUS
 10
8.2129342229
 20
-25.2493763628
 11
8.185006119
 21
-25.2773044667
  0
LINE
  5
424
100
AcDbEntity
  8
DRAFT
100
AcDbLine
 62
7
  6
CONTINUOUS
 10
11.185006119
 20
-22.7773044667
 11
11.0959852879
 21
-22.8663252978
  0
LINE
  5
425
100
AcDbEntity
  8
DRAFT
100
AcDbLine
 62
7
  6
CONTINUOUS
 10
21.935006119
 20
-12.0273044667
 11
22.0240269502
 21
-11.9382836355
  0
LINE
  5
426
100
AcDbEntity
  8
DRAFT
100
AcDbLine
 62
7
  6
CONTINUOUS
 10
23.5240269502
 20
-11.9382836355
 11
23.435006119
 21
-12.0273044667
  0
LINE
  5
427
100
AcDbEntity
  8
DRAFT
100
AcDbLine
 62
7
  6
CONTINUOUS
 10
11.185006119
 20
-24.2773044667
 11
11.0959852879
 21
-24.3663252978
  0
LINE
  5
428
100
AcDbEntity
  8
DRAFT
100
AcDbLine
 62
7
  6
CONTINUOUS
 10
25.735006119
 20
-10.8523044667
 11
26.585006119
 21
-10.0773044667
  0
LINE
  5
429
100
AcDbEntity
  8
DRAFT
100
AcDbLine
 62
7
  6
CONTINUOUS
 10
25.8240269502
 20
-10.8916068187
 11
26.6740269502
 21
-10.1166068187
  0
LINE
  5
42A
100
AcDbEntity
  8
DRAFT
100
AcDbLine
 62
7
  6
CONTINUOUS
 10
25.735006119
 20
-12.2023044667
 11
25.8240269502
 21
-12.1630021146
  0
LINE
  5
42B
100
AcDbEntity
  8
DRAFT
100
AcDbLine
 62
7
  6
CONTINUOUS
 10
26.6740269502
 20
-12.9380021146
 11
26.585006119
 21
-12.9773044667
  0
LINE
  5
42C
100
AcDbEntity
  8
DRAFT
100
AcDbLine
 62
7
  6
CONTINUOUS
 10
-18.9370657771
 20
22.2226955333
 11
-16.4462268762
 21
22.2226955333
  0
LINE
  5
42D
100
AcDbEntity
  8
DRAFT
100
AcDbLine
 62
7
  6
CONTINUOUS
 10
-14.314993881
 20
22.2226955333
 11
-9.314993881
 21
22.2226955333
  0
LINE
  5
42E
100
AcDbEntity
  8
DRAFT
100
AcDbLine
 62
7
  6
CONTINUOUS
 10
-7.1837608857
 20
22.2226955333
 11
-4.6929219848
 21
22.2226955333
  0
LINE
  5
42F
100
AcDbEntity
  8
DRAFT
100
AcDbLine
 62
7
  6
CONTINUOUS
 10
-1.5370657771
 20
22.2226955333
 11
0.4070780152
 21
22.2226955333
  0
LINE
  5
430
100
AcDbEntity
  8
DRAFT
100
AcDbLine
 62
7
  6
CONTINUOUS
 10
3.5629342229
 20
22.2226955333
 11
6.0537731238
 21
22.2226955333
  0
LINE
  5
431
100
AcDbEntity
  8
DRAFT
100
AcDbLine
 62
7
  6
CONTINUOUS
 10
8.185006119
 20
22.2226955333
 11
13.185006119
 21
22.2226955333
  0
LINE
  5
432
100
AcDbEntity
  8
DRAFT
100
AcDbLine
 62
7
  6
CONTINUOUS
 10
15.3162391143
 20
22.2226955333
 11
17.8070780152
 21
22.2226955333
  0
LINE
  5
433
100
AcDbEntity
  8
DRAFT
100
AcDbLine
 62
7
  6
CONTINUOUS
 10
-19.2940171453
 20
22.2331685723
 11
-18.947538816
 21
22.2331685723
  0
LINE
  5
434
100
AcDbEntity
  8
DRAFT
100
AcDbLine
 62
7
  6
CONTINUOUS
 10
18.1640293834
 20
22.2331685723
 11
17.8175510541
 21
22.2331685723
  0
LINE
  5
435
100
AcDbEntity
  8
DRAFT
100
AcDbLine
 62
7
  6
CONTINUOUS
 10
0.4175510541
 20
22.2331685723
 11
3.552461184
 21
22.2331685723
  0
LINE
  5
436
100
AcDbEntity
  8
DRAFT
100
AcDbLine
 62
7
  6
CONTINUOUS
 10
-1.547538816
 20
22.2331685723
 11
-4.6824489459
 21
22.2331685723
  0
LINE
  5
437
100
AcDbEntity
  8
DRAFT
100
AcDbLine
 62
7
  6
CONTINUOUS
 10
-23.1191045822
 20
22.2768062346
 11
-19.2874072673
 21
22.2768062346
  0
LINE
  5
438
100
AcDbEntity
  8
DRAFT
100
AcDbLine
 62
7
  6
CONTINUOUS
 10
18.1574195054
 20
22.2768062346
 11
21.9891168203
 21
22.2768062346
  0
LINE
  5
439
100
AcDbEntity
  8
DRAFT
100
AcDbLine
 62
7
  6
CONTINUOUS
 10
22.0240269502
 20
22.3117163645
 11
15.397811677
 21
22.3117163645
  0
LINE
  5
43A
100
AcDbEntity
  8
DRAFT
100
AcDbLine
 62
7
  6
CONTINUOUS
 10
11.0959852879
 20
22.3117163645
 11
10.2740269502
 21
22.3117163645
  0
LINE
  5
43B
100
AcDbEntity
  8
DRAFT
100
AcDbLine
 62
7
  6
CONTINUOUS
 10
5.9722005611
 20
22.3117163645
 11
-7.102188323
 21
22.3117163645
  0
LINE
  5
43C
100
AcDbEntity
  8
DRAFT
100
AcDbLine
 62
7
  6
CONTINUOUS
 10
-11.4040147121
 20
22.3117163645
 11
-12.2259730498
 21
22.3117163645
  0
LINE
  5
43D
100
AcDbEntity
  8
DRAFT
100
AcDbLine
 62
7
  6
CONTINUOUS
 10
-16.5277994389
 20
22.3117163645
 11
-23.1540147121
 21
22.3117163645
  0
LINE
  5
43E
100
AcDbEntity
  8
DRAFT
100
AcDbLine
 62
7
  6
CONTINUOUS
 10
-14.314993881
 20
23.7226955333
 11
-12.314993881
 21
23.7226955333
  0
LINE
  5
43F
100
AcDbEntity
  8
DRAFT
100
AcDbLine
 62
7
  6
CONTINUOUS
 10
-11.314993881
 20
23.7226955333
 11
-9.314993881
 21
23.7226955333
  0
LINE
  5
440
100
AcDbEntity
  8
DRAFT
100
AcDbLine
 62
7
  6
CONTINUOUS
 10
8.185006119
 20
23.7226955333
 11
10.185006119
 21
23.7226955333
  0
LINE
  5
441
100
AcDbEntity
  8
DRAFT
100
AcDbLine
 62
7
  6
CONTINUOUS
 10
11.185006119
 20
23.7226955333
 11
13.185006119
 21
23.7226955333
  0
LINE
  5
442
100
AcDbEntity
  8
DRAFT
100
AcDbLine
 62
7
  6
CONTINUOUS
 10
-16.3405852732
 20
23.7506236372
 11
-14.2870657771
 21
23.7506236372
  0
LINE
  5
443
100
AcDbEntity
  8
DRAFT
100
AcDbLine
 62
7
  6
CONTINUOUS
 10
-9.3429219848
 20
23.7506236372
 11
-7.2894024887
 21
23.7506236372
  0
LINE
  5
444
100
AcDbEntity
  8
DRAFT
100
AcDbLine
 62
7
  6
CONTINUOUS
 10
6.1594147268
 20
23.7506236372
 11
8.2129342229
 21
23.7506236372
  0
LINE
  5
445
100
AcDbEntity
  8
DRAFT
100
AcDbLine
 62
7
  6
CONTINUOUS
 10
13.1570780152
 20
23.7506236372
 11
15.2105975113
 21
23.7506236372
  0
LINE
  5
446
100
AcDbEntity
  8
DRAFT
100
AcDbLine
 62
7
  6
CONTINUOUS
 10
-16.3965664437
 20
23.8117163645
 11
-12.2259730498
 21
23.8117163645
  0
LINE
  5
447
100
AcDbEntity
  8
DRAFT
100
AcDbLine
 62
7
  6
CONTINUOUS
 10
-11.4040147121
 20
23.8117163645
 11
-7.2334213182
 21
23.8117163645
  0
LINE
  5
448
100
AcDbEntity
  8
DRAFT
100
AcDbLine
 62
7
  6
CONTINUOUS
 10
6.1034335563
 20
23.8117163645
 11
10.2740269502
 21
23.8117163645
  0
LINE
  5
449
100
AcDbEntity
  8
DRAFT
100
AcDbLine
 62
7
  6
CONTINUOUS
 10
11.0959852879
 20
23.8117163645
 11
15.2665786818
 21
23.8117163645
  0
LINE
  5
44A
100
AcDbEntity
  8
DRAFT
100
AcDbLine
 62
7
  6
CONTINUOUS
 10
15.1946666453
 20
24.6336747022
 11
6.1753455928
 21
24.6336747022
  0
LINE
  5
44B
100
AcDbEntity
  8
DRAFT
100
AcDbLine
 62
7
  6
CONTINUOUS
 10
-7.3053333547
 20
24.6336747022
 11
-16.3246544072
 21
24.6336747022
  0
LINE
  5
44C
100
AcDbEntity
  8
DRAFT
100
AcDbLine
 62
7
  6
CONTINUOUS
 10
15.1279956327
 20
24.6947674294
 11
13.1570780152
 21
24.6947674294
  0
LINE
  5
44D
100
AcDbEntity
  8
DRAFT
100
AcDbLine
 62
7
  6
CONTINUOUS
 10
8.2129342229
 20
24.6947674294
 11
6.2420166054
 21
24.6947674294
  0
LINE
  5
44E
100
AcDbEntity
  8
DRAFT
100
AcDbLine
 62
7
  6
CONTINUOUS
 10
-7.3720043673
 20
24.6947674294
 11
-9.3429219848
 21
24.6947674294
  0
LINE
  5
44F
100
AcDbEntity
  8
DRAFT
100
AcDbLine
 62
7
  6
CONTINUOUS
 10
-14.2870657771
 20
24.6947674294
 11
-16.2579833946
 21
24.6947674294
  0
LINE
  5
450
100
AcDbEntity
  8
DRAFT
100
AcDbLine
 62
7
  6
CONTINUOUS
 10
-14.314993881
 20
24.7226955333
 11
-9.314993881
 21
24.7226955333
  0
LINE
  5
451
100
AcDbEntity
  8
DRAFT
100
AcDbLine
 62
7
  6
CONTINUOUS
 10
8.185006119
 20
24.7226955333
 11
13.185006119
 21
24.7226955333
  0
LINE
  5
452
100
AcDbEntity
  8
DRAFT
100
AcDbLine
 62
7
  6
CONTINUOUS
 10
-14.2922661193
 20
25.0726955333
 11
-9.3377216426
 21
25.0726955333
  0
LINE
  5
453
100
AcDbEntity
  8
DRAFT
100
AcDbLine
 62
7
  6
CONTINUOUS
 10
8.2077338807
 20
25.0726955333
 11
13.1622783574
 21
25.0726955333
  0
LINE
  5
454
100
AcDbEntity
  8
DRAFT
100
AcDbLine
 62
7
  6
CONTINUOUS
 10
25.735006119
 20
11.6476955333
 11
25.8240269502
 21
11.6083931813
  0
LINE
  5
455
100
AcDbEntity
  8
DRAFT
100
AcDbLine
 62
7
  6
CONTINUOUS
 10
26.6740269502
 20
12.3833931813
 11
26.585006119
 21
12.4226955333
  0
LINE
  5
456
100
AcDbEntity
  8
DRAFT
100
AcDbLine
 62
7
  6
CONTINUOUS
 10
26.585006119
 20
9.5226955333
 11
25.735006119
 21
10.2976955333
  0
LINE
  5
457
100
AcDbEntity
  8
DRAFT
100
AcDbLine
 62
7
  6
CONTINUOUS
 10
26.6740269502
 20
9.5619978854
 11
25.8240269502
 21
10.3369978854
  0
LINE
  5
458
100
AcDbEntity
  8
DRAFT
100
AcDbLine
 62
7
  6
CONTINUOUS
 10
8.185006119
 20
24.7226955333
 11
8.2129342229
 21
24.6947674294
  0
LINE
  5
459
100
AcDbEntity
  8
DRAFT
100
AcDbLine
 62
7
  6
CONTINUOUS
 10
22.0240269502
 20
11.3836747022
 11
21.935006119
 21
11.4726955333
  0
LINE
  5
45A
100
AcDbEntity
  8
DRAFT
100
AcDbLine
 62
7
  6
CONTINUOUS
 10
11.185006119
 20
22.2226955333
 11
11.0959852879
 21
22.3117163645
  0
LINE
  5
45B
100
AcDbEntity
  8
DRAFT
100
AcDbLine
 62
7
  6
CONTINUOUS
 10
11.0959852879
 20
23.8117163645
 11
11.185006119
 21
23.7226955333
  0
LINE
  5
45C
100
AcDbEntity
  8
DRAFT
100
AcDbLine
 62
7
  6
CONTINUOUS
 10
23.5240269502
 20
11.3836747022
 11
23.435006119
 21
11.4726955333
  0
LINE
  5
45D
100
AcDbEntity
  8
DRAFT
100
AcDbLine
 62
7
  6
CONTINUOUS
 10
10.010006119
 20
26.0226955333
 11
9.235006119
 21
26.8726955333
  0
LINE
  5
45E
100
AcDbEntity
  8
DRAFT
100
AcDbLine
 62
7
  6
CONTINUOUS
 10
10.0493084711
 20
26.1117163645
 11
9.2743084711
 21
26.9617163645
  0
LINE
  5
45F
100
AcDbEntity
  8
DRAFT
100
AcDbLine
 62
7
  6
CONTINUOUS
 10
11.360006119
 20
26.0226955333
 11
11.320703767
 21
26.1117163645
  0
LINE
  5
460
100
AcDbEntity
  8
DRAFT
100
AcDbLine
 62
7
  6
CONTINUOUS
 10
12.095703767
 20
26.9617163645
 11
12.135006119
 21
26.8726955333
  0
LINE
  5
461
100
AcDbEntity
  8
DRAFT
100
AcDbLine
 62
7
  6
CONTINUOUS
 10
25.735006119
 20
-12.2023044667
 11
25.735006119
 21
-10.8523044667
  0
LINE
  5
462
100
AcDbEntity
  8
DRAFT
100
AcDbLine
 62
7
  6
CONTINUOUS
 10
25.735006119
 20
10.2976955333
 11
25.735006119
 21
11.6476955333
  0
LINE
  5
463
100
AcDbEntity
  8
DRAFT
100
AcDbLine
 62
7
  6
CONTINUOUS
 10
25.8240269502
 20
-12.1630021146
 11
25.8240269502
 21
-10.8916068187
  0
LINE
  5
464
100
AcDbEntity
  8
DRAFT
100
AcDbLine
 62
7
  6
CONTINUOUS
 10
25.8240269502
 20
10.3369978854
 11
25.8240269502
 21
11.6083931813
  0
LINE
  5
465
100
AcDbEntity
  8
DRAFT
100
AcDbLine
 62
7
  6
CONTINUOUS
 10
26.585006119
 20
13.7226955333
 11
26.585006119
 21
12.4226955333
  0
LINE
  5
466
100
AcDbEntity
  8
DRAFT
100
AcDbLine
 62
7
  6
CONTINUOUS
 10
26.585006119
 20
9.5226955333
 11
26.585006119
 21
8.2226955333
  0
LINE
  5
467
100
AcDbEntity
  8
DRAFT
100
AcDbLine
 62
7
  6
CONTINUOUS
 10
26.585006119
 20
-8.7773044667
 11
26.585006119
 21
-10.0773044667
  0
LINE
  5
468
100
AcDbEntity
  8
DRAFT
100
AcDbLine
 62
7
  6
CONTINUOUS
 10
26.585006119
 20
-12.9773044667
 11
26.585006119
 21
-14.2773044667
  0
LINE
  5
469
100
AcDbEntity
  8
DRAFT
100
AcDbLine
 62
7
  6
CONTINUOUS
 10
26.6740269502
 20
13.7595691689
 11
26.6740269502
 21
12.3833931813
  0
LINE
  5
46A
100
AcDbEntity
  8
DRAFT
100
AcDbLine
 62
7
  6
CONTINUOUS
 10
26.6740269502
 20
9.5619978854
 11
26.6740269502
 21
8.1858218977
  0
LINE
  5
46B
100
AcDbEntity
  8
DRAFT
100
AcDbLine
 62
7
  6
CONTINUOUS
 10
26.6740269502
 20
-8.7404308311
 11
26.6740269502
 21
-10.1166068187
  0
LINE
  5
46C
100
AcDbEntity
  8
DRAFT
100
AcDbLine
 62
7
  6
CONTINUOUS
 10
26.6740269502
 20
-12.9380021146
 11
26.6740269502
 21
-14.3141781023
  0
LINE
  5
46D
100
AcDbEntity
  8
DRAFT
100
AcDbLine
 62
7
  6
CONTINUOUS
 10
25.009269948
 20
-7.0756738289
 11
24.9692336339
 21
-7.1615319815
  0
LINE
  5
46E
100
AcDbEntity
  8
DRAFT
100
AcDbLine
 62
7
  6
CONTINUOUS
 10
24.3459852879
 20
-16.0369649929
 11
24.4070780152
 21
-15.9702939803
  0
LINE
  5
46F
100
AcDbEntity
  8
DRAFT
100
AcDbLine
 62
7
  6
CONTINUOUS
 10
13.185006119
 20
-24.2773044667
 11
13.1570780152
 21
-24.3052325706
  0
LINE
  5
470
100
AcDbEntity
  8
DRAFT
100
AcDbLine
 62
7
  6
CONTINUOUS
 10
26.585006119
 20
-14.2773044667
 11
24.9692336339
 21
-15.8930769519
  0
LINE
  5
471
100
AcDbEntity
  8
DRAFT
100
AcDbLine
 62
7
  6
CONTINUOUS
 10
15.0507786042
 20
-25.8115319815
 11
13.435006119
 21
-27.4273044667
  0
LINE
  5
472
100
AcDbEntity
  8
DRAFT
100
AcDbLine
 62
7
  6
CONTINUOUS
 10
21.9629342229
 20
-18.9888726661
 11
18.1465743184
 21
-22.8052325706
  0
LINE
  5
473
100
AcDbEntity
  8
DRAFT
100
AcDbLine
 62
7
  6
CONTINUOUS
 10
26.6740269502
 20
-14.3141781023
 11
25.009269948
 21
-15.9789351045
  0
LINE
  5
474
100
AcDbEntity
  8
DRAFT
100
AcDbLine
 62
7
  6
CONTINUOUS
 10
13.4718797546
 20
-27.5163252978
 11
15.1366367569
 21
-25.8515682956
  0
LINE
  5
475
100
AcDbEntity
  8
DRAFT
100
AcDbLine
 62
7
  6
CONTINUOUS
 10
21.9891168203
 20
-18.999717853
 11
18.1574195054
 21
-22.831415168
  0
LINE
  5
476
100
AcDbEntity
  8
DRAFT
100
AcDbLine
 62
7
  6
CONTINUOUS
 10
15.1946666453
 20
-25.1882836355
 11
15.1279956327
 21
-25.2493763628
  0
LINE
  5
477
100
AcDbEntity
  8
DRAFT
100
AcDbLine
 62
7
  6
CONTINUOUS
 10
6.3192336339
 20
-25.8115319815
 11
6.2333754812
 21
-25.8515682956
  0
LINE
  5
478
100
AcDbEntity
  8
DRAFT
100
AcDbLine
 62
7
  6
CONTINUOUS
 10
11.360006119
 20
26.0226955333
 11
10.010006119
 21
26.0226955333
  0
LINE
  5
479
100
AcDbEntity
  8
DRAFT
100
AcDbLine
 62
7
  6
CONTINUOUS
 10
-11.139993881
 20
26.0226955333
 11
-12.489993881
 21
26.0226955333
  0
LINE
  5
47A
100
AcDbEntity
  8
DRAFT
100
AcDbLine
 62
7
  6
CONTINUOUS
 10
11.320703767
 20
26.1117163645
 11
10.0493084711
 21
26.1117163645
  0
LINE
  5
47B
100
AcDbEntity
  8
DRAFT
100
AcDbLine
 62
7
  6
CONTINUOUS
 10
-11.179296233
 20
26.1117163645
 11
-12.4506915289
 21
26.1117163645
  0
LINE
  5
47C
100
AcDbEntity
  8
DRAFT
100
AcDbLine
 62
7
  6
CONTINUOUS
 10
-14.564993881
 20
26.8726955333
 11
-13.264993881
 21
26.8726955333
  0
LINE
  5
47D
100
AcDbEntity
  8
DRAFT
100
AcDbLine
 62
7
  6
CONTINUOUS
 10
-10.364993881
 20
26.8726955333
 11
-9.064993881
 21
26.8726955333
  0
LINE
  5
47E
100
AcDbEntity
  8
DRAFT
100
AcDbLine
 62
7
  6
CONTINUOUS
 10
7.935006119
 20
26.8726955333
 11
9.235006119
 21
26.8726955333
  0
LINE
  5
47F
100
AcDbEntity
  8
DRAFT
100
AcDbLine
 62
7
  6
CONTINUOUS
 10
12.135006119
 20
26.8726955333
 11
13.435006119
 21
26.8726955333
  0
LINE
  5
480
100
AcDbEntity
  8
DRAFT
100
AcDbLine
 62
7
  6
CONTINUOUS
 10
13.4718797546
 20
26.9617163645
 11
12.095703767
 21
26.9617163645
  0
LINE
  5
481
100
AcDbEntity
  8
DRAFT
100
AcDbLine
 62
7
  6
CONTINUOUS
 10
9.2743084711
 20
26.9617163645
 11
7.8981324835
 21
26.9617163645
  0
LINE
  5
482
100
AcDbEntity
  8
DRAFT
100
AcDbLine
 62
7
  6
CONTINUOUS
 10
-9.0281202454
 20
26.9617163645
 11
-10.404296233
 21
26.9617163645
  0
LINE
  5
483
100
AcDbEntity
  8
DRAFT
100
AcDbLine
 62
7
  6
CONTINUOUS
 10
-13.2256915289
 20
26.9617163645
 11
-14.6018675165
 21
26.9617163645
  0
LINE
  5
484
100
AcDbEntity
  8
DRAFT
100
AcDbLine
 62
7
  6
CONTINUOUS
 10
6.2333754812
 20
25.2969593622
 11
6.3192336339
 21
25.2569230481
  0
LINE
  5
485
100
AcDbEntity
  8
DRAFT
100
AcDbLine
 62
7
  6
CONTINUOUS
 10
15.1946666453
 20
24.6336747022
 11
15.1279956327
 21
24.6947674294
  0
LINE
  5
486
100
AcDbEntity
  8
DRAFT
100
AcDbLine
 62
7
  6
CONTINUOUS
 10
13.1570780152
 20
23.7506236372
 11
13.185006119
 21
23.7226955333
  0
LINE
  5
487
100
AcDbEntity
  8
DRAFT
100
AcDbLine
 62
7
  6
CONTINUOUS
 10
13.435006119
 20
26.8726955333
 11
15.0507786042
 21
25.2569230481
  0
LINE
  5
488
100
AcDbEntity
  8
DRAFT
100
AcDbLine
 62
7
  6
CONTINUOUS
 10
24.9692336339
 20
15.3384680185
 11
26.585006119
 21
13.7226955333
  0
LINE
  5
489
100
AcDbEntity
  8
DRAFT
100
AcDbLine
 62
7
  6
CONTINUOUS
 10
18.1465743184
 20
22.2506236372
 11
21.9629342229
 21
18.4342637327
  0
LINE
  5
48A
100
AcDbEntity
  8
DRAFT
100
AcDbLine
 62
7
  6
CONTINUOUS
 10
25.009269948
 20
15.4243261711
 11
26.6740269502
 21
13.7595691689
  0
LINE
  5
48B
100
AcDbEntity
  8
DRAFT
100
AcDbLine
 62
7
  6
CONTINUOUS
 10
15.1366367569
 20
25.2969593622
 11
13.4718797546
 21
26.9617163645
  0
LINE
  5
48C
100
AcDbEntity
  8
DRAFT
100
AcDbLine
 62
7
  6
CONTINUOUS
 10
18.1574195054
 20
22.2768062346
 11
21.9891168203
 21
18.4451089197
  0
LINE
  5
48D
100
AcDbEntity
  8
DRAFT
100
AcDbLine
 62
7
  6
CONTINUOUS
 10
24.3459852879
 20
15.4823560596
 11
24.4070780152
 21
15.415685047
  0
LINE
  5
48E
100
AcDbEntity
  8
DRAFT
100
AcDbLine
 62
7
  6
CONTINUOUS
 10
25.009269948
 20
6.5210648955
 11
24.9692336339
 21
6.6069230481
  0
LINE
  5
48F
100
AcDbEntity
  8
0
100
AcDbLine
 62
7
  6
CONTINUOUS
 10
43.6616948463
 20
-43.5041454988
 11
43.6616948463
 21
42.9495365655
  0
LINE
  5
490
100
AcDbEntity
  8
0
100
AcDbLine
 62
7
  6
CONTINUOUS
 10
43.7507156775
 20
43.0385573966
 11
43.7507156775
 21
-43.59316633
  0
LINE
  5
491
100
AcDbEntity
  8
0
100
AcDbLine
 62
7
  6
CONTINUOUS
 10
42.6618471512
 20
43.9493842606
 11
-43.7918349131
 21
43.9493842606
  0
LINE
  5
492
100
AcDbEntity
  8
0
100
AcDbLine
 62
7
  6
CONTINUOUS
 10
-43.8808557442
 20
44.0384050918
 11
42.7508679823
 21
44.0384050918
  0
ARC
  5
493
100
AcDbEntity
  8
0
100
AcDbCircle
 62
7
  6
CONTINUOUS
 10
-0.564993881
 20
-0.2773044667
 40
31.6063623377
100
AcDbArc
 50
81.1798521708
 51
98.8201478292
  0
ARC
  5
494
100
AcDbEntity
  8
0
100
AcDbCircle
 62
7
  6
CONTINUOUS
 10
-0.564993881
 20
-0.2773044667
 40
31.6063623377
100
AcDbArc
 50
261.1798521708
 51
278.8201478292
  0
ARC
  5
495
100
AcDbEntity
  8
0
100
AcDbCircle
 62
7
  6
CONTINUOUS
 10
-0.564993881
 20
-0.2773044667
 40
31.6063623377
100
AcDbArc
 50
356.5590799622
 51
8.8201478292
  0
ARC
  5
496
100
AcDbEntity
  8
0
100
AcDbCircle
 62
7
  6
CONTINUOUS
 10
-0.564993881
 20
-0.2773044667
 40
31.6063623377
100
AcDbArc
 50
176.5590799622
 51
188.8201478292
  0
ARC
  5
497
100
AcDbEntity
  8
0
100
AcDbCircle
 62
7
  6
CONTINUOUS
 10
-0.564993881
 20
-0.2773044667
 40
28.3936376623
100
AcDbArc
 50
81.1798521708
 51
98.8201478292
  0
ARC
  5
498
100
AcDbEntity
  8
0
100
AcDbCircle
 62
7
  6
CONTINUOUS
 10
-0.564993881
 20
-0.2773044667
 40
28.3936376623
100
AcDbArc
 50
261.1798521708
 51
278.8201478292
  0
ARC
  5
499
100
AcDbEntity
  8
0
100
AcDbCircle
 62
7
  6
CONTINUOUS
 10
-0.564993881
 20
-0.2773044667
 40
28.3936376623
100
AcDbArc
 50
356.8554908542
 51
8.8201478292
  0
ARC
  5
49A
100
AcDbEntity
  8
0
100
AcDbCircle
 62
7
  6
CONTINUOUS
 10
-0.564993881
 20
-0.2773044667
 40
28.3936376623
100
AcDbArc
 50
176.8554908542
 51
188.8201478292
  0
ARC
  5
49B
100
AcDbEntity
  8
0
100
AcDbCircle
 62
7
  6
CONTINUOUS
 10
-30.2102295859
 20
4.3226955333
 40
3.3063623377
100
AcDbArc
 50
293.0461299817
 51
234.8370368861
  0
ARC
  5
49C
100
AcDbEntity
  8
0
100
AcDbCircle
 62
7
  6
CONTINUOUS
 10
29.080241824
 20
-4.8773044667
 40
3.3063623377
100
AcDbArc
 50
113.0461299817
 51
54.8370368861
  0
ARC
  5
49D
100
AcDbEntity
  8
0
100
AcDbCircle
 62
7
  6
CONTINUOUS
 10
-5.164993881
 20
29.3679312382
 40
1.6063623377
100
AcDbArc
 50
98.8201478292
 51
278.8201478292
  0
ARC
  5
49E
100
AcDbEntity
  8
0
100
AcDbCircle
 62
7
  6
CONTINUOUS
 10
4.035006119
 20
29.3679312382
 40
1.6063623377
100
AcDbArc
 50
261.1798521708
 51
81.1798521708
  0
ARC
  5
49F
100
AcDbEntity
  8
0
100
AcDbCircle
 62
7
  6
CONTINUOUS
 10
4.035006119
 20
-29.9225401716
 40
1.6063623377
100
AcDbArc
 50
278.8201478292
 51
98.8201478292
  0
ARC
  5
4A0
100
AcDbEntity
  8
0
100
AcDbCircle
 62
7
  6
CONTINUOUS
 10
-5.164993881
 20
-29.9225401716
 40
1.6063623377
100
AcDbArc
 50
81.1798521708
 51
261.1798521708
  0
ARC
  5
4A1
100
AcDbEntity
  8
0
100
AcDbCircle
 62
7
  6
CONTINUOUS
 10
29.080241824
 20
4.3226955333
 40
1.6063623377
100
AcDbArc
 50
8.8201478292
 51
188.8201478292
  0
ARC
  5
4A2
100
AcDbEntity
  8
0
100
AcDbCircle
 62
7
  6
CONTINUOUS
 10
-30.2102295859
 20
-4.8773044667
 40
1.6063623377
100
AcDbArc
 50
188.8201478292
 51
8.8201478292
  0
CIRCLE
  5
4A3
100
AcDbEntity
  8
0
100
AcDbCircle
 62
7
  6
CONTINUOUS
 10
-35.564993881
 20
34.7226955333
 40
1.4563623377
  0
CIRCLE
  5
4A4
100
AcDbEntity
  8
0
100
AcDbCircle
 62
7
  6
CONTINUOUS
 10
34.435006119
 20
34.7226955333
 40
1.4563623377
  0
CIRCLE
  5
4A5
100
AcDbEntity
  8
0
100
AcDbCircle
 62
7
  6
CONTINUOUS
 10
34.435006119
 20
-35.2773044667
 40
1.4563623377
  0
CIRCLE
  5
4A6
100
AcDbEntity
  8
0
100
AcDbCircle
 62
7
  6
CONTINUOUS
 10
-35.564993881
 20
-35.2773044667
 40
1.4563623377
  0
ELLIPSE
  5
4A7
100
AcDbEntity
  8
0
100
AcDbEllipse
 62
7
  6
CONTINUOUS
 10
-43.8805511113
 20
43.0382527637
 30
0.0
 11
0.7073221892
 21
-0.7073221892
 31
0.0
 40
0.9996954599
 41
2.3563467834
 42
3.9268385237
  0
ELLIPSE
  5
4A8
100
AcDbEntity
  8
0
100
AcDbEllipse
 62
7
  6
CONTINUOUS
 10
42.7505633494
 20
43.0382527637
 30
0.0
 11
0.7073221892
 21
0.7073221892
 31
0.0
 40
0.9996954599
 41
-0.7852458701
 42
0.7852458701
  0
ELLIPSE
  5
4A9
100
AcDbEntity
  8
0
100
AcDbEllipse
 62
7
  6
CONTINUOUS
 10
42.7505633494
 20
-43.5928616971
 30
0.0
 11
0.7073221892
 21
-0.7073221892
 31
0.0
 40
0.9996954599
 41
-0.7852458701
 42
0.7852458701
  0
ELLIPSE
  5
4AA
100
AcDbEntity
  8
0
100
AcDbEllipse
 62
7
  6
CONTINUOUS
 10
-43.8805511113
 20
-43.5928616971
 30
0.0
 11
0.7073221892
 21
0.7073221892
 31
0.0
 40
0.9996954599
 41
-3.9268385237
 42
-2.3563467834
  0
ELLIPSE
  5
4AB
100
AcDbEntity
  8
0
100
AcDbEllipse
 62
7
  6
CONTINUOUS
 10
42.6615425183
 20
42.9492319326
 30
0.0
 11
-0.7073221892
 21
-0.7073221892
 31
0.0
 40
0.9996954599
 41
2.3563467834
 42
3.9268385237
  0
ELLIPSE
  5
4AC
100
AcDbEntity
  8
0
100
AcDbEllipse
 62
7
  6
CONTINUOUS
 10
42.6615425183
 20
-43.5038408659
 30
0.0
 11
0.7073221892
 21
-0.7073221892
 31
0.0
 40
0.9996954599
 41
-0.7852458701
 42
0.7852458701
  0
ELLIPSE
  5
4AD
100
AcDbEntity
  8
0
100
AcDbEllipse
 62
7
  6
CONTINUOUS
 10
-43.7915302802
 20
-43.5038408659
 30
0.0
 11
-0.7073221892
 21
-0.7073221892
 31
0.0
 40
0.9996954599
 41
-0.7852458701
 42
0.7852458701
  0
ELLIPSE
  5
4AE
100
AcDbEntity
  8
0
100
AcDbEllipse
 62
7
  6
CONTINUOUS
 10
-43.7915302802
 20
42.9492319326
 30
0.0
 11
-0.7073221892
 21
0.7073221892
 31
0.0
 40
0.9996954599
 41
-0.7852458701
 42
0.7852458701
  0
ENDSEC
  0
SECTION
  2
OBJECTS
  0
DICTIONARY
  5
C
100
AcDbDictionary
280
0
281
1
  3
ACAD_GROUP
350
D
  3
ACAD_MLINESTYLE
350
17
  3
ACAD_LAYOUT
350
1A
  3
ACAD_PLOTSETTINGS
350
19
  3
ACAD_PLOTSTYLENAME
350
E
  0
DICTIONARY
  5
D
102
{ACAD_REACTORS
330
C
102
}
100
AcDbDictionary
280
0
281
1
  0
ACDBDICTIONARYWDFLT
  5
E
102
{ACAD_REACTORS
330
C
102
}
100
AcDbDictionary
281
1
  3
Normal
350
F
100
AcDbDictionaryWithDefault
340
F
  0
DICTIONARY
  5
17
102
{ACAD_REACTORS
330
C
102
}
100
AcDbDictionary
280
0
281
1
  3
Standard
350
18
  0
DICTIONARY
  5
19
102
{ACAD_REACTORS
330
C
102
}
100
AcDbDictionary
281
1
  0
DICTIONARY
  5
1A
102
{ACAD_REACTORS
330
C
102
}
100
AcDbDictionary
281
1
  3
Model
350
4AF
  3
Layout1
350
4B0
  0
ACDBPLACEHOLDER
  5
F
102
{ACAD_REACTORS
330
E
102
}
  0
MLINESTYLE
  5
18
102
{ACAD_REACTORS
330
17
102
}
100
AcDbMlineStyle
  2
STANDARD
 70
0
  3

 62
256
 51
90.0
 52
90.0
 71
2
 49
0.5
 62
256
  6
BYLAYER
 49
-0.5
 62
256
  6
BYLAYER
  0
LAYOUT
  5
4AF
102
{ACAD_REACTORS
330
1A
102
}
100
AcDbPlotSettings
  1

  2
none_device
  4
ISO_A4_(297.00_x_210.00_MM)
  6

 40
0.0
 41
0.0
 42
0.0
 43
0.0
 44
297.0
 45
210.0
 46
0.0
 47
0.0
 48
0.0
 49
0.0
140
0.0
141
0.0
142
1.0
143
1.0
 70
1024
 72
1
 73
0
 74
0
  7

 75
0
147
1.0
148
0.0
149
0.0
100
AcDbLayout
  1
Model
 70
0
 71
0
 10
0.0
 20
0.0
 11
297.0
 21
210.0
 12
0.0
 22
0.0
 32
0.0
 14
0.0
 24
0.0
 34
0.0
 15
0.0
 25
0.0
 35
0.0
146
0.0
 13
0.0
 23
0.0
 33
0.0
 16
1.0
 26
0.0
 36
0.0
 17
0.0
 27
1.0
 37
0.0
 76
0
330
218
345
0
346
0
  0
LAYOUT
  5
4B0
102
{ACAD_REACTORS
330
1A
102
}
100
AcDbPlotSettings
  1

  2
none_device
  4
ISO_A4_(297.00_x_210.00_MM)
  6

 40
0.0
 41
0.0
 42
0.0
 43
0.0
 44
297.0
 45
210.0
 46
0.0
 47
0.0
 48
0.0
 49
0.0
140
0.0
141
0.0
142
1.0
143
1.0
 70
0
 72
1
 73
0
 74
0
  7

 75
0
147
1.0
148
0.0
149
0.0
100
AcDbLayout
  1
Layout1
 70
0
 71
1
 10
0.0
 20
0.0
 11
297.0
 21
210.0
 12
0.0
 22
0.0
 32
0.0
 14
0.0
 24
0.0
 34
0.0
 15
0.0
 25
0.0
 35
0.0
146
0.0
 13
0.0
 23
0.0
 33
0.0
 16
1.0
 26
0.0
 36
0.0
 17
0.0
 27
1.0
 37
0.0
 76
0
330
219
345
0
346
0
  0
ENDSEC
  0
EOF
