  0
SECTION
  2
HEADER
  9
$ACADVER
  1
AC1024
  9
$DWGCODEPAGE
  3
ANSI_1252
  9
$EXTMAX
 10
297.0
 20
210.0
 30
0.0
  9
$EXTMIN
 10
0.0
 20
0.0
 30
0.0
  9
$LIMMIN
 10
0.0
 20
0.0
  9
$LIMMAX
 10
297.0
 20
210.0
  9
$VIEWCTR
 10
148.5
 20
105.0
  9
$VIEWSIZE
 40
210.0
  9
$CLAYER
  8
0
  9
$LTSCALE
 40
16.335
  9
$CELTYPE
  6
BYLAYER
  9
$DIMSCALE
 40
1.0
  9
$DIMASZ
 40
3.0
  9
$DIMEXO
 40
0.5
  9
$DIMDLI
 40
11.286
  9
$DIMEXE
 40
1.5
  9
$DIMCEN
 40
2.673
  9
$DIMLFAC
 40
1.0
  9
$DIMBLK
  1
_FILLED
  9
$DIMALT
 70
0
  9
$DIMALTF
 40
0.0393700787
  9
$DIMTXT
 40
3.0
  9
$DIMTOL
 70
1
  9
$DIMLIM
 70
0
  9
$DIMTFAC
 40
1.0
  9
$DIMTP
 40
0.01
  9
$DIMTM
 40
0.01
  9
$DIMGAP
 40
0.625
  9
$DIMDSEP
 70
44
  9
$AUNITS
 70
0
  9
$PDMODE
 70
3
  9
$PDSIZE
 40
3.0
  9
$HANDSEED
  5
5F2
  9
$TILEMODE
 70
1
  9
$MEASUREMENT
 70
1
  9
$INSUNITS
 70
4
  0
ENDSEC
  0
SECTION
  2
CLASSES
  0
CLASS
  1
ACDBDICTIONARYWDFLT
  2
AcDbDictionaryWithDefault
  3
AutoCAD 2000
 90
0
 91
1
280
0
281
0
  0
CLASS
  1
ACDBPLACEHOLDER
  2
AcDbPlaceHolder
  3
AutoCAD 2000
 90
0
 91
1
280
0
281
0
  0
CLASS
  1
LAYOUT
  2
AcDbLayout
  3
AutoCAD 2000
 90
0
 91
0
280
0
281
0
  0
ENDSEC
  0
SECTION
  2
TABLES
  0
TABLE
  2
VPORT
  5
8
100
AcDbSymbolTable
 70
2
  0
VPORT
  5
1F4
100
AcDbSymbolTableRecord
100
AcDbViewportTableRecord
  2
*ACTIVE
 70
0
 10
0.0
 20
0.0
 11
1.0
 21
1.0
 12
148.5
 22
105.0
 13
0.0
 23
0.0
 14
1.0
 24
1.0
 15
0.0
 25
0.0
 16
0.0
 26
0.0
 36
1.0
 17
0.0
 27
0.0
 37
0.0
 40
210.0
 41
1.4142857143
 42
50.0
 43
0.0
 44
0.0
 50
0.0
 51
0.0
 71
0
 72
100
 73
1
 74
1
 75
0
 76
0
 77
0
 78
0
  0
ENDTAB
  0
TABLE
  2
LTYPE
  5
5
100
AcDbSymbolTable
 70
6
  0
LTYPE
  5
14
100
AcDbSymbolTableRecord
100
AcDbLinetypeTableRecord
  2
BYBLOCK
 70
0
  3

 72
65
 73
0
 40
0.0
  0
LTYPE
  5
15
100
AcDbSymbolTableRecord
100
AcDbLinetypeTableRecord
  2
BYLAYER
 70
0
  3

 72
65
 73
0
 40
0.0
  0
LTYPE
  5
16
100
AcDbSymbolTableRecord
100
AcDbLinetypeTableRecord
  2
CONTINUOUS
 70
64
  3
Solid line
 72
65
 73
0
 40
0.0
  0
LTYPE
  5
1F5
100
AcDbSymbolTableRecord
100
AcDbLinetypeTableRecord
  2
CENTER
 70
64
  3
____ _ ____ _ ____ _ ____ _ ____ _ ____ _ ____
 72
65
 73
4
 40
0.6
 49
0.375
 74
0
 49
-0.075
 74
0
 49
0.075
 74
0
 49
-0.075
 74
0
  0
LTYPE
  5
1F6
100
AcDbSymbolTableRecord
100
AcDbLinetypeTableRecord
  2
HIDDEN
 70
64
  3
- - - - - - - - - - - - - - - - - - - -
 72
65
 73
2
 40
0.2
 49
0.1
 74
0
 49
-0.1
 74
0
  0
LTYPE
  5
1F7
100
AcDbSymbolTableRecord
100
AcDbLinetypeTableRecord
  2
PHANTOM
 70
64
  3
_____ _ _ _____ _ _ _____ _ _ _____
 72
65
 73
6
 40
0.8
 49
0.45
 74
0
 49
-0.05
 74
0
 49
0.1
 74
0
 49
-0.05
 74
0
 49
0.1
 74
0
 49
-0.05
 74
0
  0
LTYPE
  5
1F8
100
AcDbSymbolTableRecord
100
AcDbLinetypeTableRecord
  2
DOT
 70
64
  3
. . . . . . . . . . . . . . . . . . . .
 72
65
 73
2
 40
0.2
 49
0.1
 74
0
 49
-0.1
 74
0
  0
LTYPE
  5
1F9
100
AcDbSymbolTableRecord
100
AcDbLinetypeTableRecord
  2
DASHED
 70
64
  3
- - - - - - - - - - - - - - - - - - - -
 72
65
 73
2
 40
0.2
 49
0.1
 74
0
 49
-0.1
 74
0
  0
ENDTAB
  0
TABLE
  2
LAYER
  5
2
100
AcDbSymbolTable
 70
36
  0
LAYER
  5
10
100
AcDbSymbolTableRecord
100
AcDbLayerTableRecord
  2
0
 70
0
 62
7
  6
CONTINUOUS
370
-3
390
F
  0
LAYER
  5
1FA
100
AcDbSymbolTableRecord
100
AcDbLayerTableRecord
  2
DEFAULT_1
 70
0
 62
7
  6
CENTER
370
-3
390
F
  0
LAYER
  5
1FB
100
AcDbSymbolTableRecord
100
AcDbLayerTableRecord
  2
DEFAULT_2
 70
0
 62
7
  6
HIDDEN
370
-3
390
F
  0
LAYER
  5
1FC
100
AcDbSymbolTableRecord
100
AcDbLayerTableRecord
  2
DEFAULT_3
 70
0
 62
7
  6
PHANTOM
370
-3
390
F
  0
LAYER
  5
1FD
100
AcDbSymbolTableRecord
100
AcDbLayerTableRecord
  2
ASSI
 70
0
 62
7
  6
CONTINUOUS
370
-3
390
F
  0
LAYER
  5
1FE
100
AcDbSymbolTableRecord
100
AcDbLayerTableRecord
  2
COLOR9
 70
0
 62
7
  6
CONTINUOUS
370
-3
390
F
  0
LAYER
  5
1FF
100
AcDbSymbolTableRecord
100
AcDbLayerTableRecord
  2
COORDINATE
 70
0
 62
7
  6
CONTINUOUS
370
-3
390
F
  0
LAYER
  5
200
100
AcDbSymbolTableRecord
100
AcDbLayerTableRecord
  2
COORD_ORIGINE
 70
0
 62
7
  6
CONTINUOUS
370
-3
390
F
  0
LAYER
  5
201
100
AcDbSymbolTableRecord
100
AcDbLayerTableRecord
  2
COPY_PUBLISH
 70
0
 62
7
  6
CONTINUOUS
370
-3
390
F
  0
LAYER
  5
202
100
AcDbSymbolTableRecord
100
AcDbLayerTableRecord
  2
COSMETICI
 70
0
 62
7
  6
CONTINUOUS
370
-3
390
F
  0
LAYER
  5
203
100
AcDbSymbolTableRecord
100
AcDbLayerTableRecord
  2
CURVE
 70
0
 62
7
  6
CONTINUOUS
370
-3
390
F
  0
LAYER
  5
204
100
AcDbSymbolTableRecord
100
AcDbLayerTableRecord
  2
DRAFT
 70
0
 62
7
  6
CONTINUOUS
370
-3
390
F
  0
LAYER
  5
205
100
AcDbSymbolTableRecord
100
AcDbLayerTableRecord
  2
IMPORT_IGES
 70
0
 62
7
  6
CONTINUOUS
370
-3
390
F
  0
LAYER
  5
206
100
AcDbSymbolTableRecord
100
AcDbLayerTableRecord
  2
INTF_1
 70
0
 62
7
  6
CONTINUOUS
370
-3
390
F
  0
LAYER
  5
207
100
AcDbSymbolTableRecord
100
AcDbLayerTableRecord
  2
INTF_YELLOW
 70
0
 62
7
  6
CONTINUOUS
370
-3
390
F
  0
LAYER
  5
208
100
AcDbSymbolTableRecord
100
AcDbLayerTableRecord
  2
NOTE
 70
0
 62
7
  6
CONTINUOUS
370
-3
390
F
  0
LAYER
  5
209
100
AcDbSymbolTableRecord
100
AcDbLayerTableRecord
  2
PIANI
 70
0
 62
7
  6
CONTINUOUS
370
-3
390
F
  0
LAYER
  5
20A
100
AcDbSymbolTableRecord
100
AcDbLayerTableRecord
  2
PIANI_ORIGINE
 70
0
 62
7
  6
CONTINUOUS
370
-3
390
F
  0
LAYER
  5
20B
100
AcDbSymbolTableRecord
100
AcDbLayerTableRecord
  2
PIANI_RIFERIMENTO
 70
0
 62
7
  6
CONTINUOUS
370
-3
390
F
  0
LAYER
  5
20C
100
AcDbSymbolTableRecord
100
AcDbLayerTableRecord
  2
PUNTI
 70
0
 62
7
  6
CONTINUOUS
370
-3
390
F
  0
LAYER
  5
20D
100
AcDbSymbolTableRecord
100
AcDbLayerTableRecord
  2
RACCORDO
 70
0
 62
7
  6
CONTINUOUS
370
-3
390
F
  0
LAYER
  5
20E
100
AcDbSymbolTableRecord
100
AcDbLayerTableRecord
  2
SIMBOLI
 70
0
 62
7
  6
CONTINUOUS
370
-3
390
F
  0
LAYER
  5
20F
100
AcDbSymbolTableRecord
100
AcDbLayerTableRecord
  2
SMUSSO
 70
0
 62
7
  6
CONTINUOUS
370
-3
390
F
  0
LAYER
  5
210
100
AcDbSymbolTableRecord
100
AcDbLayerTableRecord
  2
SUPERFICI
 70
0
 62
7
  6
CONTINUOUS
370
-3
390
F
  0
LAYER
  5
211
100
AcDbSymbolTableRecord
100
AcDbLayerTableRecord
  2
TRASH
 70
0
 62
7
  6
CONTINUOUS
370
-3
390
F
  0
LAYER
  5
212
100
AcDbSymbolTableRecord
100
AcDbLayerTableRecord
  2
XSEC_DATUMS
 70
0
 62
7
  6
CONTINUOUS
370
-3
390
F
  0
ENDTAB
  0
TABLE
  2
STYLE
  5
3
100
AcDbSymbolTable
 70
1
  0
STYLE
  5
11
100
AcDbSymbolTableRecord
100
AcDbTextStyleTableRecord
  2
STANDARD
 70
0
 40
0.0
 41
0.8
 50
0.0
 71
0
 42
0.2
  3
txt
  4

  0
STYLE
  5
213
100
AcDbSymbolTableRecord
100
AcDbTextStyleTableRecord
  2
TEXTSTYLE_1
 70
0
 40
0.0
 41
0.8
 50
0.0
 71
0
 42
0.2
  3
gdt
  4

  0
ENDTAB
  0
TABLE
  2
VIEW
  5
6
100
AcDbSymbolTable
 70
0
  0
ENDTAB
  0
TABLE
  2
UCS
  5
7
100
AcDbSymbolTable
 70
0
  0
ENDTAB
  0
TABLE
  2
APPID
  5
9
100
AcDbSymbolTable
 70
1
  0
APPID
  5
214
100
AcDbSymbolTableRecord
100
AcDbRegAppTableRecord
  2
ACAD
 70
0
  0
ENDTAB
  0
TABLE
  2
BLOCK_RECORD
  5
1
100
AcDbSymbolTable
 70
0
  0
BLOCK_RECORD
  5
215
100
AcDbSymbolTableRecord
100
AcDbBlockTableRecord
  2
*Model_Space
  0
BLOCK_RECORD
  5
216
100
AcDbSymbolTableRecord
100
AcDbBlockTableRecord
  2
*Paper_Space
  0
BLOCK_RECORD
  5
217
100
AcDbSymbolTableRecord
100
AcDbBlockTableRecord
  2
_FILLED
  0
ENDTAB
  0
TABLE
  2
DIMSTYLE
  5
A
100
AcDbSymbolTable
 70
1
100
AcDbDimStyleTable
 71
0
  0
DIMSTYLE
105
218
100
AcDbSymbolTableRecord
100
AcDbDimStyleTableRecord
  2
STANDARD
 70
0
  3

  4

 40
1.0
 41
3.0
 42
0.5
 43
0.38
 44
1.5
 45
0.0
 46
0.0
 47
0.01
 48
0.01
140
3.0
141
0.09
142
0.0
143
25.4
144
1.0
145
0.0
146
1.0
147
0.625
 71
1
 72
0
 73
0
 74
0
 75
0
 76
0
 77
1
 78
8
 79
2
170
0
171
1
172
0
173
0
174
0
175
0
176
0
177
0
178
0
270
2
179
2
271
2
272
2
273
2
274
2
275
0
280
0
281
0
282
0
283
1
284
8
285
0
286
0
287
3
288
0
340
11
278
44
341
217
342
217
343
217
344
217
  0
ENDTAB
  0
ENDSEC
  0
SECTION
  2
BLOCKS
  0
BLOCK
  5
20
100
AcDbEntity
  8
0
100
AcDbBlockBegin
  2
*Model_Space
 70
0
 10
0.0
 20
0.0
 30
0.0
  3
*Model_Space
  1

  0
ENDBLK
  5
21
100
AcDbEntity
  8
0
100
AcDbBlockEnd
  0
BLOCK
  5
1C
100
AcDbEntity
  8
0
100
AcDbBlockBegin
  2
*Paper_Space
 70
0
 10
0.0
 20
0.0
 30
0.0
  3
*Paper_Space
  1

  0
ENDBLK
  5
1D
100
AcDbEntity
  8
0
100
AcDbBlockEnd
  0
BLOCK
  5
219
100
AcDbEntity
  8
0
100
AcDbBlockBegin
  2
_FILLED
 70
64
 10
0.0
 20
0.0
  3
_FILLED
  1

  0
SOLID
  5
21A
100
AcDbEntity
  8
0
  6
BYBLOCK
 62
0
100
AcDbTrace
 10
0.0
 20
0.0
 11
-1.0
 21
0.3166666667
 12
-1.0
 22
-0.3166666667
 13
-1.0
 23
-0.3166666667
  0
ENDBLK
  5
21B
100
AcDbEntity
  8
0
  6
BYBLOCK
 62
0
100
AcDbBlockEnd
  0
ENDSEC
  0
SECTION
  2
ENTITIES
  0
LWPOLYLINE
  5
21C
100
AcDbEntity
  8
RACCORDO
100
AcDbPolyline
 62
250
  6
CONTINUOUS
 90
3
 70
0
 10
140.1753277601
 20
138.3997420851
 10
140.183134282
 20
138.4033641899
 10
140.1914790863
 20
138.4049978408
  0
LWPOLYLINE
  5
21D
100
AcDbEntity
  8
RACCORDO
100
AcDbPolyline
 62
250
  6
CONTINUOUS
 90
9
 70
0
 10
140.2009926803
 20
68.0343007776
 10
140.1973221453
 20
68.0336968448
 10
140.1937955819
 20
68.0334198187
 10
140.1904059175
 20
68.033460241
 10
140.1871534146
 20
68.0338334139
 10
140.1840242815
 20
68.0345780501
 10
140.1810121782
 20
68.0357084738
 10
140.1781176554
 20
68.037214946
 10
140.1753377747
 20
68.0390996441
  0
LWPOLYLINE
  5
21E
100
AcDbEntity
  8
RACCORDO
100
AcDbPolyline
 62
250
  6
CONTINUOUS
 90
13
 70
0
 10
140.4999420338
 20
68.20226805
 10
140.4867280368
 20
68.2017480914
 10
140.4737684766
 20
68.2004037912
 10
140.4610758445
 20
68.1982521508
 10
140.4487557391
 20
68.1953227815
 10
140.4367223131
 20
68.1916238768
 10
140.4247025047
 20
68.1871217969
 10
140.4126816846
 20
68.1818442812
 10
140.4006988832
 20
68.1757596737
 10
140.3885699774
 20
68.1687142857
 10
140.3762483219
 20
68.1606419457
 10
140.3638198794
 20
68.1515785489
 10
140.3513060764
 20
68.1415108721
  0
LINE
  5
21F
100
AcDbEntity
  8
RACCORDO
100
AcDbLine
 62
7
  6
CONTINUOUS
 10
156.7076166392
 20
67.7194253375
 11
154.8999420338
 21
67.7194253375
  0
LINE
  5
220
100
AcDbEntity
  8
RACCORDO
100
AcDbLine
 62
7
  6
CONTINUOUS
 10
139.6999420338
 20
67.7194253375
 11
137.8922674285
 21
67.7194253375
  0
LINE
  5
221
100
AcDbEntity
  8
RACCORDO
100
AcDbLine
 62
7
  6
CONTINUOUS
 10
154.0999420338
 20
68.0851107625
 11
140.4999420338
 21
68.0851107625
  0
LINE
  5
222
100
AcDbEntity
  8
RACCORDO
100
AcDbLine
 62
250
  6
CONTINUOUS
 10
154.0999420338
 20
68.20226805
 11
140.4999420338
 21
68.20226805
  0
LINE
  5
223
100
AcDbEntity
  8
RACCORDO
100
AcDbLine
 62
7
  6
CONTINUOUS
 10
146.0999420338
 20
69.1194253375
 11
148.4999420338
 21
69.1194253375
  0
LINE
  5
224
100
AcDbEntity
  8
RACCORDO
100
AcDbLine
 62
7
  6
CONTINUOUS
 10
154.0999420338
 20
69.7194253375
 11
149.0999420338
 21
69.7194253375
  0
LINE
  5
225
100
AcDbEntity
  8
RACCORDO
100
AcDbLine
 62
7
  6
CONTINUOUS
 10
145.4999420338
 20
69.7194253375
 11
140.4999420338
 21
69.7194253375
  0
LINE
  5
226
100
AcDbEntity
  8
RACCORDO
100
AcDbLine
 62
250
  6
CONTINUOUS
 10
154.4084049813
 20
68.0338528343
 11
154.3995065616
 21
68.0341854326
  0
LWPOLYLINE
  5
227
100
AcDbEntity
  8
RACCORDO
100
AcDbPolyline
 62
7
  6
CONTINUOUS
 90
5
 70
0
 10
154.0999420309
 20
68.0851111137
 10
154.1160299639
 20
68.0843310348
 10
154.1429923592
 20
68.0795777467
 10
154.17169556
 20
68.0699627784
 10
154.2001748305
 20
68.0559983564
  0
LINE
  5
228
100
AcDbEntity
  8
RACCORDO
100
AcDbLine
 62
250
  6
CONTINUOUS
 10
140.1610301672
 20
138.3873618989
 11
140.1753277601
 21
138.3997420851
  0
LWPOLYLINE
  5
229
100
AcDbEntity
  8
RACCORDO
100
AcDbPolyline
 62
7
  6
CONTINUOUS
 90
6
 70
0
 10
154.636797191
 20
138.6193051019
 10
154.5914914803
 20
138.6055832834
 10
154.5443358352
 20
138.5864835394
 10
154.4985597521
 20
138.5638481794
 10
154.4531890344
 20
138.5382189084
 10
154.4066954277
 20
138.5098094152
  0
LINE
  5
22A
100
AcDbEntity
  8
RACCORDO
100
AcDbLine
 62
250
  6
CONTINUOUS
 10
149.0999420338
 20
70.3194253375
 11
148.4999420338
 21
70.3194253375
  0
LINE
  5
22B
100
AcDbEntity
  8
RACCORDO
100
AcDbLine
 62
250
  6
CONTINUOUS
 10
145.4999420338
 20
70.3194253375
 11
146.0999420338
 21
70.3194253436
  0
LWPOLYLINE
  5
22C
100
AcDbEntity
  8
RACCORDO
100
AcDbPolyline
 62
250
  6
CONTINUOUS
 90
11
 70
0
 10
154.3995065616
 20
68.0341854326
 10
154.3899218505
 20
68.0367680309
 10
154.3797478168
 20
68.0412624858
 10
154.3693554427
 20
68.0467395365
 10
154.3588588649
 20
68.053122536
 10
154.3482042352
 20
68.0604977947
 10
154.3375606056
 20
68.0682195307
 10
154.3270009406
 20
68.0762197595
 10
154.316521783
 20
68.0845987943
 10
154.3061877811
 20
68.092976601
 10
154.296048592
 20
68.1013127547
  0
LWPOLYLINE
  5
22D
100
AcDbEntity
  8
RACCORDO
100
AcDbPolyline
 62
250
  6
CONTINUOUS
 90
15
 70
0
 10
140.1753377747
 20
68.0390996441
 10
140.166856252
 20
68.0460607136
 10
140.1587577819
 20
68.0532435911
 10
140.1510682878
 20
68.0606544701
 10
140.1438395511
 20
68.0682836077
 10
140.137068021
 20
68.0761575934
 10
140.1307143962
 20
68.0843326046
 10
140.1248067614
 20
68.0928410381
 10
140.1194110488
 20
68.101661781
 10
140.1145668802
 20
68.1107670152
 10
140.1103249893
 20
68.1201798224
 10
140.1067361777
 20
68.129902178
 10
140.1038478805
 20
68.1398772556
 10
140.1017147906
 20
68.1500997332
 10
140.1003943801
 20
68.1606165656
  0
LWPOLYLINE
  5
22E
100
AcDbEntity
  8
RACCORDO
100
AcDbPolyline
 62
250
  6
CONTINUOUS
 90
5
 70
0
 10
154.6151656557
 20
138.607730933
 10
154.5740358487
 20
138.5861127313
 10
154.5358566546
 20
138.5585695218
 10
154.5012713934
 20
138.5255653957
 10
154.4708628246
 20
138.4876564598
  0
LWPOLYLINE
  5
22F
100
AcDbEntity
  8
RACCORDO
100
AcDbPolyline
 62
250
  6
CONTINUOUS
 90
5
 70
0
 10
154.615150591
 20
67.8311275453
 10
154.574022275
 20
67.8527485038
 10
154.5358449165
 20
67.8802940267
 10
154.5012617731
 20
67.9132993716
 10
154.4708555254
 20
67.9512078831
  0
LINE
  5
230
100
AcDbEntity
  8
RACCORDO
100
AcDbLine
 62
7
  6
CONTINUOUS
 10
135.2864612129
 20
128.4059445166
 11
135.2288892713
 21
128.348372575
  0
LWPOLYLINE
  5
231
100
AcDbEntity
  8
RACCORDO
100
AcDbPolyline
 62
7
  6
CONTINUOUS
 90
4
 70
0
 10
154.4066954277
 20
138.5098094152
 10
154.302581306
 20
138.444067803
 10
154.2436617634
 20
138.4081065647
 10
154.2001303566
 20
138.3828175886
  0
LWPOLYLINE
  5
232
100
AcDbEntity
  8
RACCORDO
100
AcDbPolyline
 62
7
  6
CONTINUOUS
 90
6
 70
0
 10
154.2001284801
 20
138.3828259221
 10
154.1936011324
 20
138.3792461074
 10
154.164269523
 20
138.3659631876
 10
154.1356571403
 20
138.3575597305
 10
154.1089265331
 20
138.3539834306
 10
154.0999420302
 20
138.3537398555
  0
LINE
  5
233
100
AcDbEntity
  8
RACCORDO
100
AcDbLine
 62
250
  6
CONTINUOUS
 10
136.5940885638
 20
128.2975286544
 11
136.8657079762
 21
128.4059445166
  0
LINE
  5
234
100
AcDbEntity
  8
RACCORDO
100
AcDbLine
 62
250
  6
CONTINUOUS
 10
137.1918053826
 20
127.6978941582
 11
137.4679966242
 21
127.8081348487
  0
LWPOLYLINE
  5
235
100
AcDbEntity
  8
RACCORDO
100
AcDbPolyline
 62
250
  6
CONTINUOUS
 90
13
 70
0
 10
158.77236961
 20
78.1668036466
 10
158.8394623566
 20
78.1731727145
 10
158.9055899916
 20
78.1895226706
 10
158.9696281619
 20
78.2156497973
 10
159.0306020244
 20
78.2512682048
 10
159.0873016726
 20
78.2957894799
 10
159.13840735
 20
78.3481464784
 10
159.1830078693
 20
78.4071856689
 10
159.2205829142
 20
78.4719691221
 10
159.2506407968
 20
78.5414744176
 10
159.2727504236
 20
78.6145624774
 10
159.2865870802
 20
78.6899673268
 10
159.2919848523
 20
78.7664381428
  0
LWPOLYLINE
  5
236
100
AcDbEntity
  8
RACCORDO
100
AcDbPolyline
 62
250
  6
CONTINUOUS
 90
10
 70
0
 10
158.3091890255
 20
78.160873305
 10
158.2538675773
 20
78.1592360122
 10
158.2049160113
 20
78.1574626551
 10
158.161138019
 20
78.1555737751
 10
158.1220950901
 20
78.1535959811
 10
158.0882257349
 20
78.1515026641
 10
158.0596491765
 20
78.1492345381
 10
158.0364051556
 20
78.1467718413
 10
158.0184539314
 20
78.1441343354
 10
158.0057955039
 20
78.1413220206
  0
LWPOLYLINE
  5
237
100
AcDbEntity
  8
RACCORDO
100
AcDbPolyline
 62
250
  6
CONTINUOUS
 90
34
 70
0
 10
136.8657079762
 20
77.6331498276
 10
136.9019060576
 20
77.6338704118
 10
136.9375974326
 20
77.6357739324
 10
136.9727821013
 20
77.6388603893
 10
137.0073141971
 20
77.6431161462
 10
137.0413395866
 20
77.6485548393
 10
137.0752958691
 20
77.6552173779
 10
137.109260944
 20
77.6630571934
 10
137.1431569119
 20
77.6721208542
 10
137.1771876738
 20
77.682588975
 10
137.2113486586
 20
77.6943955222
 10
137.2456444374
 20
77.7076065295
 10
137.2802926244
 20
77.7226007118
 10
137.3154189442
 20
77.7393701981
 10
137.3508976722
 20
77.7579228595
 10
137.3865692483
 20
77.7786610243
 10
137.4225247441
 20
77.8015993623
 10
137.458673088
 20
77.8267232037
 10
137.4945815058
 20
77.8543908679
 10
137.5302942717
 20
77.8845964629
 10
137.5657671115
 20
77.9173458807
 10
137.600434428
 20
77.9530151156
 10
137.6343733925
 20
77.9916229154
 10
137.6675068336
 20
78.0331505323
 10
137.6990376404
 20
78.0779177177
 10
137.7290615452
 20
78.1259776696
 10
137.7574828156
 20
78.17727719
 10
137.7832171429
 20
78.2319764362
 10
137.8063680605
 20
78.2901721512
 10
137.826832035
 20
78.3517675921
 10
137.8432141575
 20
78.4166326872
 10
137.8550494582
 20
78.4847240793
 10
137.8628029069
 20
78.5560851257
 10
137.8664745034
 20
78.6307158263
  0
LINE
  5
238
100
AcDbEntity
  8
RACCORDO
100
AcDbLine
 62
7
  6
CONTINUOUS
 10
161.300398693
 20
75.7194253375
 11
159.89957653
 21
75.7194253375
  0
LINE
  5
239
100
AcDbEntity
  8
RACCORDO
100
AcDbLine
 62
7
  6
CONTINUOUS
 10
133.2994853747
 20
75.7194253375
 11
134.7003075376
 21
75.7194253375
  0
LINE
  5
23A
100
AcDbEntity
  8
RACCORDO
100
AcDbLine
 62
250
  6
CONTINUOUS
 10
135.2999420338
 20
77.6331498276
 11
136.8657079762
 21
77.6331498276
  0
LINE
  5
23B
100
AcDbEntity
  8
RACCORDO
100
AcDbLine
 62
250
  6
CONTINUOUS
 10
157.7341760914
 20
77.6331498276
 11
159.2999420338
 21
77.6331498276
  0
LWPOLYLINE
  5
23C
100
AcDbEntity
  8
RACCORDO
100
AcDbPolyline
 62
250
  6
CONTINUOUS
 90
13
 70
0
 10
135.8275144577
 20
78.1668036466
 10
135.7602740194
 20
78.173197899
 10
135.6941770964
 20
78.1895608388
 10
135.6303333823
 20
78.2156115699
 10
135.5698187355
 20
78.2509033172
 10
135.513641063
 20
78.2948400691
 10
135.4627275952
 20
78.346694098
 10
135.4178967337
 20
78.4056520838
 10
135.3799515652
 20
78.4706808417
 10
135.3495956285
 20
78.540513264
 10
135.3272969725
 20
78.6138888639
 10
135.3133410762
 20
78.6896195282
 10
135.3078992154
 20
78.7664381428
  0
LWPOLYLINE
  5
23D
100
AcDbEntity
  8
RACCORDO
100
AcDbPolyline
 62
250
  6
CONTINUOUS
 90
7
 70
0
 10
137.1918053826
 20
78.7409558522
 10
137.1688693763
 20
78.7441412147
 10
137.1297659494
 20
78.7471100056
 10
137.0766680787
 20
78.749862225
 10
137.0118562146
 20
78.7524017467
 10
136.9374088376
 20
78.7547246969
 10
136.7672553875
 20
78.758668229
  0
LWPOLYLINE
  5
23E
100
AcDbEntity
  8
RACCORDO
100
AcDbPolyline
 62
250
  6
CONTINUOUS
 90
11
 70
0
 10
136.5940885638
 20
78.1413220206
 10
136.5789215853
 20
78.1445051088
 10
136.5569906655
 20
78.1474725605
 10
136.5282958045
 20
78.1502243758
 10
136.4917737404
 20
78.1527649767
 10
136.4484877351
 20
78.1550899412
 10
136.4016275739
 20
78.1571860031
 10
136.3520822124
 20
78.1590344446
 10
136.2989626951
 20
78.1606539836
 10
136.2427919403
 20
78.1620875073
 10
136.1227729461
 20
78.1644298755
  0
LINE
  5
23F
100
AcDbEntity
  8
RACCORDO
100
AcDbLine
 62
250
  6
CONTINUOUS
 10
136.8657079762
 20
78.0329061584
 11
136.5940885638
 21
78.1413220206
  0
LINE
  5
240
100
AcDbEntity
  8
RACCORDO
100
AcDbLine
 62
250
  6
CONTINUOUS
 10
137.4679966242
 20
78.6307158263
 11
137.1918053826
 21
78.7409565169
  0
LWPOLYLINE
  5
241
100
AcDbEntity
  8
RACCORDO
100
AcDbPolyline
 62
7
  6
CONTINUOUS
 90
3
 70
0
 10
154.2001780622
 20
68.0560040661
 10
154.2463157918
 20
68.0291625681
 10
154.3031974221
 20
67.994398511
  0
LWPOLYLINE
  5
242
100
AcDbEntity
  8
RACCORDO
100
AcDbPolyline
 62
7
  6
CONTINUOUS
 90
7
 70
0
 10
154.4039456666
 20
67.9307625345
 10
154.4490090905
 20
67.9031076933
 10
154.4928188131
 20
67.8780657192
 10
154.5367923896
 20
67.8558590923
 10
154.5819718487
 20
67.8368295971
 10
154.6288995283
 20
67.8215166401
 10
154.6364683169
 20
67.8198324731
  0
LINE
  5
243
100
AcDbEntity
  8
RACCORDO
100
AcDbLine
 62
7
  6
CONTINUOUS
 10
154.3031974221
 20
67.994398511
 11
154.4039456666
 21
67.9307625345
  0
LINE
  5
244
100
AcDbEntity
  8
RACCORDO
100
AcDbLine
 62
7
  6
CONTINUOUS
 10
135.2864612129
 20
78.0329061584
 11
135.2288892713
 21
78.0904781
  0
LINE
  5
245
100
AcDbEntity
  8
RACCORDO
100
AcDbLine
 62
250
  6
CONTINUOUS
 10
140.3997060042
 20
138.3828466096
 11
140.3513061211
 21
138.297339765
  0
LWPOLYLINE
  5
246
100
AcDbEntity
  8
0
100
AcDbPolyline
 62
250
  6
CONTINUOUS
 90
8
 70
0
 10
145.0689803131
 20
128.4385466102
 10
145.0184215736
 20
128.4227790226
 10
144.9712878708
 20
128.4020819514
 10
144.9284685516
 20
128.3768459203
 10
144.8907715567
 20
128.3475470966
 10
144.8589081755
 20
128.3147383085
 10
144.8334796253
 20
128.2790386146
 10
144.8149657073
 20
128.2411216192
  0
LWPOLYLINE
  5
247
100
AcDbEntity
  8
RACCORDO
100
AcDbPolyline
 62
250
  6
CONTINUOUS
 90
10
 70
0
 10
136.5940885638
 20
78.1413220206
 10
136.6976757995
 20
78.1507115634
 10
136.7981298822
 20
78.1779644847
 10
136.8924103893
 20
78.222256916
 10
136.9776636201
 20
78.2822493125
 10
137.0513085334
 20
78.3561266288
 10
137.1111151229
 20
78.4416529718
 10
137.1552725266
 20
78.5362398089
 10
137.1824436518
 20
78.63702451
 10
137.1918053862
 20
78.7409565154
  0
LINE
  5
248
100
AcDbEntity
  8
RACCORDO
100
AcDbLine
 62
250
  6
CONTINUOUS
 10
135.8275144577
 20
78.1668036466
 11
135.1739564091
 21
78.1272734841
  0
LINE
  5
249
100
AcDbEntity
  8
RACCORDO
100
AcDbLine
 62
250
  6
CONTINUOUS
 10
135.3078992154
 20
78.7664381428
 11
134.6543411668
 21
78.7269079803
  0
LINE
  5
24A
100
AcDbEntity
  8
0
100
AcDbLine
 62
250
  6
CONTINUOUS
 10
151.4537911611
 20
79.7722893164
 11
151.3635905467
 21
79.7667906038
  0
LWPOLYLINE
  5
24B
100
AcDbEntity
  8
RACCORDO
100
AcDbPolyline
 62
250
  6
CONTINUOUS
 90
8
 70
0
 10
134.6042490409
 20
78.7255199002
 10
134.5836089737
 20
78.7248117693
 10
134.5659253502
 20
78.7240925555
 10
134.5511751764
 20
78.7233639479
 10
134.539318554
 20
78.7226310132
 10
134.53034143
 20
78.7218954404
 10
134.5242358326
 20
78.7211555404
 10
134.5209757436
 20
78.7204113133
  0
LWPOLYLINE
  5
24C
100
AcDbEntity
  8
RACCORDO
100
AcDbPolyline
 62
250
  6
CONTINUOUS
 90
7
 70
0
 10
157.6799280994
 20
78.7552069075
 10
157.6121667316
 20
78.7532302537
 10
157.5535863887
 20
78.7511387741
 10
157.5023225935
 20
78.7488717341
 10
157.4594352167
 20
78.7464088888
 10
157.4274578603
 20
78.743770483
 10
157.4080786851
 20
78.7409565169
  0
LINE
  5
24D
100
AcDbEntity
  8
RACCORDO
100
AcDbLine
 62
250
  6
CONTINUOUS
 10
134.6543411668
 20
78.7269079803
 11
134.6042490409
 21
78.7255199002
  0
LINE
  5
24E
100
AcDbEntity
  8
RACCORDO
100
AcDbLine
 62
250
  6
CONTINUOUS
 10
157.8424132685
 20
78.7588707128
 11
157.6799280994
 21
78.7552069075
  0
LWPOLYLINE
  5
24F
100
AcDbEntity
  8
RACCORDO
100
AcDbPolyline
 62
250
  6
CONTINUOUS
 90
34
 70
0
 10
136.8657079762
 20
78.0329061584
 10
136.8874958168
 20
78.0332516555
 10
136.9090252167
 20
78.0343599419
 10
136.9302704658
 20
78.0362055392
 10
136.9510946674
 20
78.038746484
 10
136.9715896994
 20
78.0419644812
 10
136.9920700391
 20
78.0459034883
 10
137.012546576
 20
78.0505794248
 10
137.0329543003
 20
78.0559918285
 10
137.0534811784
 20
78.0622162466
 10
137.0740687244
 20
78.0692711704
 10
137.0947010812
 20
78.0771889733
 10
137.1156085846
 20
78.0861177463
 10
137.1367789081
 20
78.0961333027
 10
137.1581010624
 20
78.1072688623
 10
137.179629177
 20
78.1196523022
 10
137.2013009181
 20
78.1333611233
 10
137.2229995241
 20
78.1484423231
 10
137.2446725914
 20
78.1649959869
 10
137.2661942173
 20
78.1830696698
 10
137.2874524647
 20
78.2027242812
 10
137.3083861192
 20
78.2240899952
 10
137.3288371197
 20
78.2472096364
 10
137.3486437428
 20
78.272124697
 10
137.3676959952
 20
78.2989725034
 10
137.3857880259
 20
78.3277723568
 10
137.4027060075
 20
78.3585340908
 10
137.4182725144
 20
78.3913802671
 10
137.4322245355
 20
78.4262783006
 10
137.4442944219
 20
78.4631852032
 10
137.4542293109
 20
78.5021905817
 10
137.4617147302
 20
78.5432460895
 10
137.4664127317
 20
78.5861505864
 10
137.4679965822
 20
78.6307158431
  0
LWPOLYLINE
  5
250
100
AcDbEntity
  8
RACCORDO
100
AcDbPolyline
 62
250
  6
CONTINUOUS
 90
3
 70
0
 10
158.5145689706
 20
78.1649482568
 10
158.4401026805
 20
78.1637997063
 10
158.3091890255
 20
78.160873305
  0
LINE
  5
251
100
AcDbEntity
  8
RACCORDO
100
AcDbLine
 62
250
  6
CONTINUOUS
 10
158.0477266441
 20
78.7620393451
 11
157.8424132685
 21
78.7588707128
  0
LINE
  5
252
100
AcDbEntity
  8
RACCORDO
100
AcDbLine
 62
7
  6
CONTINUOUS
 10
159.5078333109
 20
78.092217334
 11
159.3709947963
 21
78.0904781
  0
LINE
  5
253
100
AcDbEntity
  8
RACCORDO
100
AcDbLine
 62
250
  6
CONTINUOUS
 10
158.2984322607
 20
78.7645814076
 11
158.0477266441
 21
78.7620393451
  0
LWPOLYLINE
  5
254
100
AcDbEntity
  8
RACCORDO
100
AcDbPolyline
 62
250
  6
CONTINUOUS
 90
3
 70
0
 10
158.77236961
 20
78.1668036466
 10
158.6806115419
 20
78.1664318013
 10
158.5145689706
 20
78.1649482568
  0
LINE
  5
255
100
AcDbEntity
  8
RACCORDO
100
AcDbLine
 62
250
  6
CONTINUOUS
 10
158.7495833707
 20
78.7664381637
 11
158.2984322607
 21
78.7645814076
  0
LINE
  5
256
100
AcDbEntity
  8
RACCORDO
100
AcDbLine
 62
250
  6
CONTINUOUS
 10
135.2864612129
 20
78.0329061584
 11
136.8657079762
 21
78.0329061584
  0
LINE
  5
257
100
AcDbEntity
  8
RACCORDO
100
AcDbLine
 62
250
  6
CONTINUOUS
 10
157.7341760914
 20
78.0329061584
 11
159.3134228547
 21
78.0329061584
  0
LINE
  5
258
100
AcDbEntity
  8
0
100
AcDbLine
 62
250
  6
CONTINUOUS
 10
145.1999420338
 20
78.2773243263
 11
144.7999420338
 21
78.2773243262
  0
LINE
  5
259
100
AcDbEntity
  8
0
100
AcDbLine
 62
250
  6
CONTINUOUS
 10
149.3999420338
 20
78.2773249902
 11
149.7999420338
 21
78.2773249902
  0
LINE
  5
25A
100
AcDbEntity
  8
RACCORDO
100
AcDbLine
 62
250
  6
CONTINUOUS
 10
137.8664745034
 20
78.6307158263
 11
137.4679966242
 21
78.6307158263
  0
LINE
  5
25B
100
AcDbEntity
  8
RACCORDO
100
AcDbLine
 62
250
  6
CONTINUOUS
 10
156.7334095642
 20
78.6307158263
 11
157.1318874435
 21
78.6307158263
  0
LINE
  5
25C
100
AcDbEntity
  8
RACCORDO
100
AcDbLine
 62
250
  6
CONTINUOUS
 10
159.2919848523
 20
78.7664381428
 11
158.7495833707
 21
78.7664381428
  0
LINE
  5
25D
100
AcDbEntity
  8
0
100
AcDbLine
 62
250
  6
CONTINUOUS
 10
143.721692532
 20
80.3194253375
 11
144.129768537
 21
80.3194253375
  0
LINE
  5
25E
100
AcDbEntity
  8
0
100
AcDbLine
 62
250
  6
CONTINUOUS
 10
150.4701155307
 20
80.3194253375
 11
150.878191536
 21
80.3194253375
  0
LINE
  5
25F
100
AcDbEntity
  8
RACCORDO
100
AcDbLine
 62
250
  6
CONTINUOUS
 10
136.124847388
 20
78.7656378482
 11
135.3078992154
 21
78.7664381428
  0
LINE
  5
260
100
AcDbEntity
  8
RACCORDO
100
AcDbLine
 62
250
  6
CONTINUOUS
 10
135.9849109262
 20
78.1660043093
 11
135.8275144577
 21
78.1668036466
  0
LINE
  5
261
100
AcDbEntity
  8
RACCORDO
100
AcDbLine
 62
250
  6
CONTINUOUS
 10
136.3669889756
 20
78.7640639785
 11
136.124847388
 21
78.7656378482
  0
LINE
  5
262
100
AcDbEntity
  8
RACCORDO
100
AcDbLine
 62
250
  6
CONTINUOUS
 10
136.5770363003
 20
78.7617229457
 11
136.3669889756
 21
78.7640639785
  0
LINE
  5
263
100
AcDbEntity
  8
RACCORDO
100
AcDbLine
 62
7
  6
CONTINUOUS
 10
135.2288892713
 20
78.0904781
 11
135.0920507567
 21
78.092217334
  0
LINE
  5
264
100
AcDbEntity
  8
RACCORDO
100
AcDbLine
 62
250
  6
CONTINUOUS
 10
136.1227729461
 20
78.1644298755
 11
135.9849109262
 21
78.1660043093
  0
LINE
  5
265
100
AcDbEntity
  8
RACCORDO
100
AcDbLine
 62
250
  6
CONTINUOUS
 10
136.7672553875
 20
78.758668229
 11
136.5770363003
 21
78.7617229457
  0
LINE
  5
266
100
AcDbEntity
  8
RACCORDO
100
AcDbLine
 62
250
  6
CONTINUOUS
 10
159.9455429009
 20
78.7269079803
 11
159.2919848523
 21
78.7664381428
  0
LINE
  5
267
100
AcDbEntity
  8
0
100
AcDbLine
 62
250
  6
CONTINUOUS
 10
143.2362935211
 20
79.7667906036
 11
143.1460929065
 21
79.7722893165
  0
LWPOLYLINE
  5
268
100
AcDbEntity
  8
RACCORDO
100
AcDbPolyline
 62
250
  6
CONTINUOUS
 90
10
 70
0
 10
158.77236961
 20
78.1668036466
 10
159.4361207382
 20
78.126618622
 10
159.4452727517
 20
78.1259459471
 10
159.4533836997
 20
78.1252554593
 10
159.4604874038
 20
78.1245457379
 10
159.4665500424
 20
78.1238182037
 10
159.4714701506
 20
78.1230771183
 10
159.4752139068
 20
78.1223239024
 10
159.4778151325
 20
78.1215571353
 10
159.4792738279
 20
78.1207768171
  0
LWPOLYLINE
  5
269
100
AcDbEntity
  8
RACCORDO
100
AcDbPolyline
 62
250
  6
CONTINUOUS
 90
10
 70
0
 10
158.0057955039
 20
78.1413220206
 10
157.9022015357
 20
78.1507127703
 10
157.8017430696
 20
78.1779685636
 10
157.7074607053
 20
78.2222644434
 10
157.6222081091
 20
78.282259696
 10
157.5485656409
 20
78.3561384315
 10
157.4887622542
 20
78.4416645462
 10
157.4446080326
 20
78.5362494022
 10
157.4174394029
 20
78.6370301774
 10
157.4080786851
 20
78.7409565169
  0
LWPOLYLINE
  5
26A
100
AcDbEntity
  8
RACCORDO
100
AcDbPolyline
 62
250
  6
CONTINUOUS
 90
12
 70
0
 10
154.2383451305
 20
68.1499051609
 10
154.2277972242
 20
68.1577935595
 10
154.2169363061
 20
68.1651615487
 10
154.2058231609
 20
68.1720044205
 10
154.1944049358
 20
68.1782993361
 10
154.1825107665
 20
68.1839932286
 10
154.1701273133
 20
68.1890974031
 10
154.1572757007
 20
68.1935445609
 10
154.1438339215
 20
68.1971425635
 10
154.1297673223
 20
68.199796589
 10
154.1151312257
 20
68.2015191225
 10
154.0999420338
 20
68.20226805
  0
LINE
  5
26B
100
AcDbEntity
  8
RACCORDO
100
AcDbLine
 62
250
  6
CONTINUOUS
 10
140.3997537111
 20
68.0560330865
 11
140.351306076
 21
68.1415108718
  0
LINE
  5
26C
100
AcDbEntity
  8
RACCORDO
100
AcDbLine
 62
250
  6
CONTINUOUS
 10
134.5209757436
 20
119.7204113133
 11
134.4999420338
 21
119.6993776036
  0
LWPOLYLINE
  5
26D
100
AcDbEntity
  8
RACCORDO
100
AcDbPolyline
 62
250
  6
CONTINUOUS
 90
21
 70
0
 10
154.2485779913
 20
138.2973398029
 10
154.2798972404
 20
138.3239304424
 10
154.2894332668
 20
138.3319607894
 10
154.2985276996
 20
138.3395453994
 10
154.3071927111
 20
138.3466983377
 10
154.3154332972
 20
138.3533942451
 10
154.3232606798
 20
138.3596230182
 10
154.3306965966
 20
138.365423904
 10
154.3377460333
 20
138.3707775352
 10
154.3444222513
 20
138.3756742808
 10
154.3507582394
 20
138.3801709195
 10
154.3567593917
 20
138.3842562735
 10
154.3624378555
 20
138.3879190795
 10
154.3678343081
 20
138.3912193163
 10
154.3729552615
 20
138.3941537231
 10
154.3778091771
 20
138.396709115
 10
154.3824365716
 20
138.3989337768
 10
154.3868440973
 20
138.4008300488
 10
154.3910369673
 20
138.4023839178
 10
154.3950505141
 20
138.4036217802
 10
154.3988913873
 20
138.4045498975
  0
LWPOLYLINE
  5
26E
100
AcDbEntity
  8
0
100
AcDbPolyline
 62
7
  6
CONTINUOUS
 90
4
 70
0
 10
149.6666487921
 20
127.9978316707
 10
149.5452028642
 20
127.9273159171
 10
149.4744989442
 20
127.885098651
 10
149.3999420338
 20
127.8380894068
  0
LWPOLYLINE
  5
26F
100
AcDbEntity
  8
0
100
AcDbPolyline
 62
7
  6
CONTINUOUS
 90
3
 70
0
 10
149.7786738921
 20
128.0637796404
 10
149.7517780653
 20
128.0482652001
 10
149.6666487921
 20
127.9978316707
  0
LWPOLYLINE
  5
270
100
AcDbEntity
  8
0
100
AcDbPolyline
 62
7
  6
CONTINUOUS
 90
8
 70
0
 10
143.5216972501
 20
80.7084996413
 10
143.4866467654
 20
80.7006270655
 10
143.4532138188
 20
80.6910199459
 10
143.421343526
 20
80.6798572903
 10
143.3910811037
 20
80.6673366219
 10
143.3624521255
 20
80.6536485364
 10
143.3353599626
 20
80.6389147182
 10
143.3117062151
 20
80.6245147777
  0
LWPOLYLINE
  5
271
100
AcDbEntity
  8
0
100
AcDbPolyline
 62
250
  6
CONTINUOUS
 90
12
 70
0
 10
143.6357382691
 20
81.1194253375
 10
143.5698675761
 20
81.1166363048
 10
143.5065307908
 20
81.1105664376
 10
143.445727913
 20
81.101215736
 10
143.3874168012
 20
81.0882498682
 10
143.331639597
 20
81.072003166
 10
143.2785227253
 20
81.0534786241
 10
143.2281415833
 20
81.0327480803
 10
143.1804207739
 20
81.0097396968
 10
143.1352605309
 20
80.9852409553
 10
143.0927547327
 20
80.9593775099
 10
143.052809501
 20
80.9320237064
  0
LWPOLYLINE
  5
272
100
AcDbEntity
  8
0
100
AcDbPolyline
 62
7
  6
CONTINUOUS
 90
4
 70
0
 10
143.6357382691
 20
80.7194253375
 10
143.5963823792
 20
80.7181345984
 10
143.5583242413
 20
80.7144156608
 10
143.5216972501
 20
80.7084996413
  0
LINE
  5
273
100
AcDbEntity
  8
0
100
AcDbLine
 62
7
  6
CONTINUOUS
 10
143.6357382691
 20
80.7194253375
 11
144.129768537
 21
80.7194253375
  0
LINE
  5
274
100
AcDbEntity
  8
0
100
AcDbLine
 62
7
  6
CONTINUOUS
 10
150.4701155307
 20
80.7194253375
 11
150.9641457984
 21
80.7194253375
  0
LINE
  5
275
100
AcDbEntity
  8
0
100
AcDbLine
 62
250
  6
CONTINUOUS
 10
150.9641457984
 20
81.1194253375
 11
150.4701155307
 21
81.1194253375
  0
LINE
  5
276
100
AcDbEntity
  8
0
100
AcDbLine
 62
250
  6
CONTINUOUS
 10
144.129768537
 20
81.1194253375
 11
143.6357382691
 21
81.1194253375
  0
LINE
  5
277
100
AcDbEntity
  8
RACCORDO
100
AcDbLine
 62
7
  6
CONTINUOUS
 10
153.0130847767
 20
81.7194253375
 11
152.19957653
 21
81.7194253375
  0
LINE
  5
278
100
AcDbEntity
  8
RACCORDO
100
AcDbLine
 62
7
  6
CONTINUOUS
 10
142.4003075376
 20
81.7194253375
 11
141.586799291
 21
81.7194253375
  0
LWPOLYLINE
  5
279
100
AcDbEntity
  8
0
100
AcDbPolyline
 62
7
  6
CONTINUOUS
 90
43
 70
0
 10
150.878191536
 20
80.7194253375
 10
150.9172029919
 20
80.7181555545
 10
150.9549306717
 20
80.7144969265
 10
150.9912444087
 20
80.7086766146
 10
151.0259474417
 20
80.7009447316
 10
151.0590563656
 20
80.6915117294
 10
151.0907841158
 20
80.6804934115
 10
151.1210552764
 20
80.6680673453
 10
151.1498549727
 20
80.6543903187
 10
151.1774715169
 20
80.6394422616
 10
151.2038938315
 20
80.6233117938
 10
151.2290597126
 20
80.6061207557
 10
151.2531465429
 20
80.5878129293
 10
151.2761440224
 20
80.5684345287
 10
151.2979827429
 20
80.5480837229
 10
151.3187228611
 20
80.5267360922
 10
151.3383323165
 20
80.5044417274
 10
151.3567621133
 20
80.4812743134
 10
151.3740281156
 20
80.457224025
 10
151.3900968617
 20
80.4323347343
 10
151.4049186501
 20
80.40668048
 10
151.4184739636
 20
80.3802885637
 10
151.430731811
 20
80.3532027705
 10
151.4416471809
 20
80.3255041914
 10
151.4511816867
 20
80.2972774221
 10
151.4593083871
 20
80.2685924415
 10
151.4660046045
 20
80.2395178196
 10
151.4712483242
 20
80.2101396886
 10
151.4750263954
 20
80.1805227905
 10
151.4773269246
 20
80.1507479813
 10
151.4781431301
 20
80.1209274915
 10
151.4774798257
 20
80.0911792415
 10
151.4753456867
 20
80.0615322275
 10
151.4717370106
 20
80.0319660475
 10
151.4666794775
 20
80.0026853111
 10
151.4601635643
 20
79.9736308422
 10
151.4520526181
 20
79.944404255
 10
151.442289459
 20
79.9151114087
 10
151.4308164723
 20
79.8858480975
 10
151.4173557174
 20
79.8562582792
 10
151.4017029488
 20
79.8263497998
 10
151.3838146376
 20
79.7964615639
 10
151.3635905471
 20
79.7667906036
  0
LWPOLYLINE
  5
27A
100
AcDbEntity
  8
0
100
AcDbPolyline
 62
250
  6
CONTINUOUS
 90
43
 70
0
 10
150.878191536
 20
80.3194253375
 10
150.891257506
 20
80.3188767563
 10
150.9038228336
 20
80.3176824537
 10
150.9158875188
 20
80.3158424297
 10
150.9274434005
 20
80.3133003073
 10
150.9384986399
 20
80.3101124635
 10
150.9490777198
 20
80.306448029
 10
150.9591660788
 20
80.302335112
 10
150.9687782783
 20
80.2977456043
 10
150.9779824857
 20
80.2927643121
 10
150.9867901401
 20
80.2874055452
 10
150.9951898024
 20
80.2816549938
 10
151.0032153223
 20
80.2755545348
 10
151.0108801116
 20
80.2691056299
 10
151.0181707586
 20
80.2623068175
 10
151.0250808778
 20
80.2551955891
 10
151.0316156065
 20
80.2477719502
 10
151.0377698074
 20
80.2400358954
 10
151.0435216832
 20
80.2320249
 10
151.04887482
 20
80.2237348175
 10
151.0538256317
 20
80.2151697945
 10
151.0583415631
 20
80.2063797462
 10
151.0624229137
 20
80.1973572484
 10
151.0660693839
 20
80.1881097254
 10
151.0692475206
 20
80.1787093657
 10
151.0719527269
 20
80.1691548971
 10
151.0741895996
 20
80.1594475918
 10
151.0759384753
 20
80.1496634546
 10
151.0771943938
 20
80.1397991138
 10
151.0779623154
 20
80.1298579411
 10
151.0782374571
 20
80.1199260555
 10
151.0780179452
 20
80.1100179795
 10
151.0773056534
 20
80.1001191907
 10
151.0761014213
 20
80.0902722409
 10
151.0744269455
 20
80.0805158056
 10
151.0722605292
 20
80.0708112093
 10
151.0695379214
 20
80.0610849766
 10
151.0662877916
 20
80.0513217209
 10
151.0624814702
 20
80.0415368288
 10
151.0579686977
 20
80.0317029849
 10
151.0526993876
 20
80.0218110839
 10
151.0467236263
 20
80.011870231
 10
151.0400414139
 20
80.0018804263
  0
LWPOLYLINE
  5
27B
100
AcDbEntity
  8
0
100
AcDbPolyline
 62
7
  6
CONTINUOUS
 90
4
 70
0
 10
151.0562816164
 20
80.7123166063
 10
151.0267136826
 20
80.7161576452
 10
150.9959787883
 20
80.7185811999
 10
150.9641457984
 20
80.7194253375
  0
LWPOLYLINE
  5
27C
100
AcDbEntity
  8
RACCORDO
100
AcDbPolyline
 62
250
  6
CONTINUOUS
 90
9
 70
0
 10
160.0789083241
 20
78.7204113133
 10
160.0754131321
 20
78.7211920853
 10
160.0688822286
 20
78.721959085
 10
160.0593991329
 20
78.7227123126
 10
160.0470647905
 20
78.7234530451
 10
160.0319716652
 20
78.7241800054
 10
160.0141830009
 20
78.7248893622
 10
159.9937759662
 20
78.7255798384
 10
159.9455429009
 20
78.7269079803
  0
LINE
  5
27D
100
AcDbEntity
  8
0
100
AcDbLine
 62
7
  6
CONTINUOUS
 10
149.7786850362
 20
78.3750609886
 11
149.7517955713
 21
78.3905752716
  0
LINE
  5
27E
100
AcDbEntity
  8
RACCORDO
100
AcDbLine
 62
250
  6
CONTINUOUS
 10
154.2485779913
 20
68.1415108721
 11
154.2383451305
 21
68.1499051609
  0
LWPOLYLINE
  5
27F
100
AcDbEntity
  8
RACCORDO
100
AcDbPolyline
 62
250
  6
CONTINUOUS
 90
3
 70
0
 10
154.296048592
 20
68.1013127547
 10
154.2575886815
 20
68.1337557302
 10
154.2485779913
 20
68.1415108721
  0
LINE
  5
280
100
AcDbEntity
  8
RACCORDO
100
AcDbLine
 62
250
  6
CONTINUOUS
 10
134.4999420338
 20
86.7394730715
 11
134.5209757436
 21
86.7184393617
  0
LWPOLYLINE
  5
281
100
AcDbEntity
  8
RACCORDO
100
AcDbPolyline
 62
250
  6
CONTINUOUS
 90
5
 70
0
 10
135.8275144577
 20
119.1668036466
 10
135.8316506857
 20
119.1743252033
 10
135.8342812113
 20
119.1916181556
 10
135.8360915975
 20
119.2185325094
 10
135.8413497083
 20
119.2994834877
  0
LINE
  5
282
100
AcDbEntity
  8
RACCORDO
100
AcDbLine
 62
250
  6
CONTINUOUS
 10
135.1206102398
 20
119.1207768171
 11
135.0920507567
 21
119.092217334
  0
LWPOLYLINE
  5
283
100
AcDbEntity
  8
0
100
AcDbPolyline
 62
7
  6
CONTINUOUS
 90
3
 70
0
 10
149.7999420338
 20
128.0763181842
 10
149.7946855754
 20
128.0731306351
 10
149.7786738921
 20
128.0637796404
  0
LWPOLYLINE
  5
284
100
AcDbEntity
  8
RACCORDO
100
AcDbPolyline
 62
250
  6
CONTINUOUS
 90
10
 70
0
 10
135.1206102398
 20
119.1207768171
 10
135.1219027213
 20
119.121520625
 10
135.1243484295
 20
119.122260318
 10
135.1279473646
 20
119.1229958964
 10
135.1326922053
 20
119.1237291921
 10
135.1385902728
 20
119.1244583732
 10
135.1456635306
 20
119.1251779425
 10
135.1539192998
 20
119.125886068
 10
135.1633502593
 20
119.1265845819
 10
135.1739564091
 20
119.1272734841
  0
LWPOLYLINE
  5
285
100
AcDbEntity
  8
0
100
AcDbPolyline
 62
7
  6
CONTINUOUS
 90
8
 70
0
 10
151.0781868176
 20
84.7303510338
 10
151.1132373023
 20
84.7382236095
 10
151.1466702489
 20
84.7478307292
 10
151.1785405417
 20
84.7589933847
 10
151.208802964
 20
84.7715140532
 10
151.2374319421
 20
84.7852021386
 10
151.264524105
 20
84.7999359568
 10
151.2881778525
 20
84.8143358973
  0
LWPOLYLINE
  5
286
100
AcDbEntity
  8
0
100
AcDbPolyline
 62
250
  6
CONTINUOUS
 90
12
 70
0
 10
150.9641457986
 20
84.3194253375
 10
151.0300164915
 20
84.3222143702
 10
151.0933532769
 20
84.3282842374
 10
151.1541561546
 20
84.3376349391
 10
151.2124672665
 20
84.3506008068
 10
151.2682444707
 20
84.366847509
 10
151.3213613423
 20
84.3853720509
 10
151.3717424844
 20
84.4061025947
 10
151.4194632938
 20
84.4291109782
 10
151.4646235368
 20
84.4536097197
 10
151.5071293349
 20
84.4794731652
 10
151.5470745666
 20
84.5068269686
  0
LWPOLYLINE
  5
287
100
AcDbEntity
  8
0
100
AcDbPolyline
 62
7
  6
CONTINUOUS
 90
4
 70
0
 10
150.9641457986
 20
84.7194253375
 10
151.0035016884
 20
84.7207160767
 10
151.0415598263
 20
84.7244350142
 10
151.0781868176
 20
84.7303510338
  0
LINE
  5
288
100
AcDbEntity
  8
RACCORDO
100
AcDbLine
 62
7
  6
CONTINUOUS
 10
141.586799291
 20
83.7194253375
 11
142.4003075376
 21
83.7194253375
  0
LINE
  5
289
100
AcDbEntity
  8
RACCORDO
100
AcDbLine
 62
7
  6
CONTINUOUS
 10
152.19957653
 20
83.7194253375
 11
153.0130847767
 21
83.7194253375
  0
LINE
  5
28A
100
AcDbEntity
  8
0
100
AcDbLine
 62
250
  6
CONTINUOUS
 10
143.6357382693
 20
84.3194253375
 11
144.129768537
 21
84.3194253375
  0
LINE
  5
28B
100
AcDbEntity
  8
0
100
AcDbLine
 62
250
  6
CONTINUOUS
 10
150.4701155307
 20
84.3194253375
 11
150.9641457986
 21
84.3194253375
  0
LINE
  5
28C
100
AcDbEntity
  8
0
100
AcDbLine
 62
7
  6
CONTINUOUS
 10
143.6357382693
 20
84.7194253375
 11
144.129768537
 21
84.7194253375
  0
LINE
  5
28D
100
AcDbEntity
  8
0
100
AcDbLine
 62
7
  6
CONTINUOUS
 10
150.4701155307
 20
84.7194253375
 11
150.9641457986
 21
84.7194253375
  0
LINE
  5
28E
100
AcDbEntity
  8
0
100
AcDbLine
 62
250
  6
CONTINUOUS
 10
150.8781915356
 20
85.1194253375
 11
150.4701155307
 21
85.1194253375
  0
LINE
  5
28F
100
AcDbEntity
  8
0
100
AcDbLine
 62
250
  6
CONTINUOUS
 10
144.129768537
 20
85.1194253375
 11
143.7216925317
 21
85.1194253375
  0
LWPOLYLINE
  5
290
100
AcDbEntity
  8
0
100
AcDbPolyline
 62
7
  6
CONTINUOUS
 90
43
 70
0
 10
143.7216925317
 20
84.7194253375
 10
143.6826810758
 20
84.7206951205
 10
143.644953396
 20
84.7243537485
 10
143.6086396589
 20
84.7301740605
 10
143.573936626
 20
84.7379059435
 10
143.5408277021
 20
84.7473389456
 10
143.5090999519
 20
84.7583572635
 10
143.4788287913
 20
84.7707833298
 10
143.4500290949
 20
84.7844603563
 10
143.4224125508
 20
84.7994084135
 10
143.3959902362
 20
84.8155388812
 10
143.3708243551
 20
84.8327299194
 10
143.3467375248
 20
84.8510377457
 10
143.3237400453
 20
84.8704161464
 10
143.3019013247
 20
84.8907669521
 10
143.2811612066
 20
84.9121145828
 10
143.2615517512
 20
84.9344089477
 10
143.2431219543
 20
84.9575763616
 10
143.225855952
 20
84.98162665
 10
143.209787206
 20
85.0065159407
 10
143.1949654176
 20
85.0321701951
 10
143.1814101041
 20
85.0585621114
 10
143.1691522567
 20
85.0856479045
 10
143.1582368867
 20
85.1133464836
 10
143.148702381
 20
85.141573253
 10
143.1405756806
 20
85.1702582335
 10
143.1338794632
 20
85.1993328555
 10
143.1286357435
 20
85.2287109864
 10
143.1248576723
 20
85.2583278845
 10
143.1225571431
 20
85.2881026937
 10
143.1217409375
 20
85.3179231836
 10
143.1224042419
 20
85.3476714336
 10
143.1245383809
 20
85.3773184475
 10
143.1281470571
 20
85.4068846275
 10
143.1332045902
 20
85.436165364
 10
143.1397205033
 20
85.4652198328
 10
143.1478314496
 20
85.4944464201
 10
143.1575946087
 20
85.5237392663
 10
143.1690675954
 20
85.5530025775
 10
143.1825283503
 20
85.5825923958
 10
143.1981811188
 20
85.6125008752
 10
143.2160694301
 20
85.6423891112
 10
143.2362935206
 20
85.6720600715
  0
LWPOLYLINE
  5
291
100
AcDbEntity
  8
0
100
AcDbPolyline
 62
250
  6
CONTINUOUS
 90
43
 70
0
 10
143.7216925317
 20
85.1194253375
 10
143.7086265617
 20
85.1199739187
 10
143.6960612341
 20
85.1211682213
 10
143.6839965489
 20
85.1230082453
 10
143.6724406671
 20
85.1255503677
 10
143.6613854278
 20
85.1287382116
 10
143.6508063479
 20
85.1324026461
 10
143.6407179889
 20
85.1365155631
 10
143.6311057893
 20
85.1411050707
 10
143.6219015819
 20
85.1460863629
 10
143.6130939275
 20
85.1514451298
 10
143.6046942653
 20
85.1571956812
 10
143.5966687454
 20
85.1632961402
 10
143.589003956
 20
85.1697450451
 10
143.581713309
 20
85.1765438576
 10
143.5748031898
 20
85.183655086
 10
143.5682684612
 20
85.1910787249
 10
143.5621142603
 20
85.1988147797
 10
143.5563623845
 20
85.206825775
 10
143.5510092477
 20
85.2151158575
 10
143.546058436
 20
85.2236808806
 10
143.5415425046
 20
85.2324709288
 10
143.537461154
 20
85.2414934266
 10
143.5338146837
 20
85.2507409496
 10
143.5306365471
 20
85.2601413093
 10
143.5279313408
 20
85.2696957779
 10
143.525694468
 20
85.2794030832
 10
143.5239455923
 20
85.2891872205
 10
143.5226896738
 20
85.2990515612
 10
143.5219217523
 20
85.308992734
 10
143.5216466105
 20
85.3189246195
 10
143.5218661225
 20
85.3288326955
 10
143.5225784142
 20
85.3387314843
 10
143.5237826464
 20
85.3485784342
 10
143.5254571222
 20
85.3583348694
 10
143.5276235385
 20
85.3680394657
 10
143.5303461463
 20
85.3777656984
 10
143.5335962761
 20
85.3875289541
 10
143.5374025975
 20
85.3973138462
 10
143.54191537
 20
85.4071476902
 10
143.5471846801
 20
85.4170395911
 10
143.5531604414
 20
85.426980444
 10
143.5598426538
 20
85.4369702487
  0
LWPOLYLINE
  5
292
100
AcDbEntity
  8
0
100
AcDbPolyline
 62
7
  6
CONTINUOUS
 90
4
 70
0
 10
143.5436024513
 20
84.7265340687
 10
143.573170385
 20
84.7226930298
 10
143.6039052793
 20
84.7202694752
 10
143.6357382693
 20
84.7194253375
  0
LWPOLYLINE
  5
293
100
AcDbEntity
  8
RACCORDO
100
AcDbPolyline
 62
250
  6
CONTINUOUS
 90
9
 70
0
 10
134.5209757436
 20
86.7184393617
 10
134.5242343746
 20
86.7176953672
 10
134.5303373398
 20
86.716955639
 10
134.539311322
 20
86.7162201773
 10
134.5511649628
 20
86.7154872897
 10
134.5659129782
 20
86.7147586686
 10
134.5835959154
 20
86.7140393908
 10
134.6042374068
 20
86.7133311487
 10
134.6543411668
 20
86.7119426947
  0
LWPOLYLINE
  5
294
100
AcDbEntity
  8
0
100
AcDbPolyline
 62
7
  6
CONTINUOUS
 90
3
 70
0
 10
149.7517955713
 20
78.3905752716
 10
149.6666478664
 20
78.4410224379
 10
149.5451846692
 20
78.5115437027
  0
LWPOLYLINE
  5
295
100
AcDbEntity
  8
0
100
AcDbPolyline
 62
7
  6
CONTINUOUS
 90
3
 70
0
 10
149.5451846692
 20
78.5115437027
 10
149.4744854465
 20
78.5537580397
 10
149.3999420338
 20
78.6007612683
  0
LWPOLYLINE
  5
296
100
AcDbEntity
  8
0
100
AcDbPolyline
 62
7
  6
CONTINUOUS
 90
3
 70
0
 10
149.7999420338
 20
78.3625324909
 10
149.7946891902
 20
78.365713395
 10
149.7786850362
 20
78.3750609886
  0
LWPOLYLINE
  5
297
100
AcDbEntity
  8
0
100
AcDbPolyline
 62
7
  6
CONTINUOUS
 90
11
 70
0
 10
143.3117116124
 20
84.8143324484
 10
143.3159215997
 20
84.8116591387
 10
143.3394977809
 20
84.7975677977
 10
143.363452886
 20
84.7846919198
 10
143.387772695
 20
84.7730017573
 10
143.4122226742
 20
84.762564371
 10
143.4369098982
 20
84.7532897609
 10
143.4623670698
 20
84.7449912493
 10
143.4885622316
 20
84.7377361198
 10
143.5154544137
 20
84.7315926733
 10
143.5436024513
 20
84.7265340687
  0
LWPOLYLINE
  5
298
100
AcDbEntity
  8
0
100
AcDbPolyline
 62
250
  6
CONTINUOUS
 90
14
 70
0
 10
143.0642245003
 20
84.4988269359
 10
143.1028731378
 20
84.47314834
 10
143.1421097996
 20
84.4496628155
 10
143.1820951804
 20
84.4282052716
 10
143.222588421
 20
84.40871937
 10
143.2632687081
 20
84.3912538313
 10
143.3044568551
 20
84.3757599351
 10
143.346874443
 20
84.3620351815
 10
143.3904991516
 20
84.3499012676
 10
143.4353533013
 20
84.3395364964
 10
143.4822254336
 20
84.3312732768
 10
143.5313783961
 20
84.325222412
 10
143.5825493413
 20
84.3212730989
 10
143.6357382693
 20
84.3194253375
  0
LINE
  5
299
100
AcDbEntity
  8
RACCORDO
100
AcDbLine
 62
250
  6
CONTINUOUS
 10
135.0920507567
 20
87.346633341
 11
135.1206102398
 21
87.3180738579
  0
LWPOLYLINE
  5
29A
100
AcDbEntity
  8
RACCORDO
100
AcDbPolyline
 62
250
  6
CONTINUOUS
 90
5
 70
0
 10
135.8275144577
 20
87.2720470285
 10
135.8316568166
 20
87.2645254654
 10
135.8342932072
 20
87.2472324591
 10
135.8361091916
 20
87.2203180028
 10
135.8413780418
 20
87.1393668599
  0
LWPOLYLINE
  5
29B
100
AcDbEntity
  8
0
100
AcDbPolyline
 62
250
  6
CONTINUOUS
 90
4
 70
0
 10
143.1460929098
 20
126.6665613589
 10
143.123833503
 20
126.6328470012
 10
143.1044446892
 20
126.5987609516
 10
143.0878077821
 20
126.5645635764
  0
LINE
  5
29C
100
AcDbEntity
  8
0
100
AcDbLine
 62
250
  6
CONTINUOUS
 10
144.902981585
 20
121.753571679
 11
144.2844111472
 21
121.2462546073
  0
LINE
  5
29D
100
AcDbEntity
  8
0
100
AcDbLine
 62
250
  6
CONTINUOUS
 10
149.6969024827
 20
125.6852789961
 11
150.3154729205
 21
126.1925960677
  0
LWPOLYLINE
  5
29E
100
AcDbEntity
  8
0
100
AcDbPolyline
 62
250
  6
CONTINUOUS
 90
3
 70
0
 10
143.052809501
 20
121.9320237064
 10
143.0150434344
 20
121.9035900649
 10
142.9999420338
 20
121.8911120595
  0
LWPOLYLINE
  5
29F
100
AcDbEntity
  8
0
100
AcDbPolyline
 62
250
  6
CONTINUOUS
 90
3
 70
0
 10
151.5470745666
 20
125.5068269686
 10
151.5848406332
 20
125.5352606102
 10
151.5999420338
 20
125.5477386155
  0
LINE
  5
2A0
100
AcDbEntity
  8
0
100
AcDbLine
 62
250
  6
CONTINUOUS
 10
151.3635905447
 20
126.6720600697
 11
151.0400414084
 21
126.4369702561
  0
LINE
  5
2A1
100
AcDbEntity
  8
0
100
AcDbLine
 62
250
  6
CONTINUOUS
 10
143.236293523
 20
120.7667906053
 11
143.5598426593
 21
121.001880419
  0
LINE
  5
2A2
100
AcDbEntity
  8
0
100
AcDbLine
 62
250
  6
CONTINUOUS
 10
151.5397334106
 20
126.7275369713
 11
151.4537911562
 21
126.6665613656
  0
LINE
  5
2A3
100
AcDbEntity
  8
0
100
AcDbLine
 62
250
  6
CONTINUOUS
 10
143.0601506581
 20
120.7113137021
 11
143.146092895
 21
120.7722893327
  0
LWPOLYLINE
  5
2A4
100
AcDbEntity
  8
0
100
AcDbPolyline
 62
250
  6
CONTINUOUS
 90
23
 70
0
 10
143.3117062151
 20
121.6245147777
 10
143.2858733976
 20
121.6069961252
 10
143.2632076936
 20
121.5899241735
 10
143.2418642228
 20
121.5722265005
 10
143.221817068
 20
121.5539966077
 10
143.2028265025
 20
121.5351025144
 10
143.1848965523
 20
121.515605582
 10
143.1680374588
 20
121.4955762853
 10
143.1520725061
 20
121.4748366681
 10
143.1370274551
 20
121.4534209873
 10
143.1229345267
 20
121.431375871
 10
143.109684968
 20
121.4084986969
 10
143.0973100032
 20
121.3847638769
 10
143.0858967374
 20
121.3602512606
 10
143.0754638234
 20
121.334896267
 10
143.0660489069
 20
121.3086356203
 10
143.0577628369
 20
121.2816014317
 10
143.0507199555
 20
121.2540321985
 10
143.0449542536
 20
121.225947086
 10
143.0405140633
 20
121.1974407914
 10
143.0374607793
 20
121.1688847307
 10
143.035783872
 20
121.1403785957
 10
143.0354642341
 20
121.1119560375
  0
LWPOLYLINE
  5
2A5
100
AcDbEntity
  8
0
100
AcDbPolyline
 62
250
  6
CONTINUOUS
 90
23
 70
0
 10
151.2881778525
 20
125.8143358973
 10
151.3140106701
 20
125.8318545498
 10
151.336676374
 20
125.8489265015
 10
151.3580198449
 20
125.8666241745
 10
151.3780669996
 20
125.8848540674
 10
151.3970575652
 20
125.9037481606
 10
151.4149875154
 20
125.9232450931
 10
151.4318466089
 20
125.9432743898
 10
151.4478115616
 20
125.964014007
 10
151.4628566126
 20
125.9854296878
 10
151.4769495409
 20
126.0074748041
 10
151.4901990996
 20
126.0303519781
 10
151.5025740645
 20
126.0540867982
 10
151.5139873303
 20
126.0785994144
 10
151.5244202442
 20
126.1039544081
 10
151.5338351608
 20
126.1302150547
 10
151.5421212307
 20
126.1572492433
 10
151.5491641121
 20
126.1848184765
 10
151.5549298141
 20
126.212903589
 10
151.5593700044
 20
126.2414098836
 10
151.5624232883
 20
126.2699659444
 10
151.5641001956
 20
126.2984720794
 10
151.5644198335
 20
126.3268946376
  0
LWPOLYLINE
  5
2A6
100
AcDbEntity
  8
0
100
AcDbPolyline
 62
7
  6
CONTINUOUS
 90
3
 70
0
 10
144.7999420338
 20
119.3625324909
 10
144.8051984923
 20
119.3657200399
 10
144.8212101756
 20
119.3750710346
  0
LWPOLYLINE
  5
2A7
100
AcDbEntity
  8
0
100
AcDbPolyline
 62
7
  6
CONTINUOUS
 90
4
 70
0
 10
144.9332352756
 20
119.4410190043
 10
145.0546812035
 20
119.5115347579
 10
145.1253851235
 20
119.553752024
 10
145.1999420338
 20
119.6007612683
  0
LWPOLYLINE
  5
2A8
100
AcDbEntity
  8
0
100
AcDbPolyline
 62
7
  6
CONTINUOUS
 90
3
 70
0
 10
144.8212101756
 20
119.3750710346
 10
144.8481060024
 20
119.390585475
 10
144.9332352756
 20
119.4410190043
  0
LWPOLYLINE
  5
2A9
100
AcDbEntity
  8
RACCORDO
100
AcDbPolyline
 62
250
  6
CONTINUOUS
 90
9
 70
0
 10
159.4792738279
 20
128.3180738579
 10
159.4778140738
 20
128.3172933115
 10
159.475211861
 20
128.3165263753
 10
159.4714671896
 20
128.3157730491
 10
159.4665459805
 20
128.3150319151
 10
159.4604823126
 20
128.3143043911
 10
159.4533784229
 20
128.3135947314
 10
159.4452683901
 20
128.3129043537
 10
159.4361181353
 20
128.3122318403
  0
LWPOLYLINE
  5
2AA
100
AcDbEntity
  8
RACCORDO
100
AcDbPolyline
 62
250
  6
CONTINUOUS
 90
10
 70
0
 10
158.0057955039
 20
87.2975286544
 10
157.9022103306
 20
87.2881394848
 10
157.801757595
 20
87.2608874495
 10
157.7074776643
 20
87.2165960848
 10
157.6222242529
 20
87.1566045831
 10
157.5485786018
 20
87.0827277287
 10
157.488771027
 20
86.9972013319
 10
157.4446126333
 20
86.9026138807
 10
157.4174407306
 20
86.8018279488
 10
157.4080786833
 20
86.6978941589
  0
LINE
  5
2AB
100
AcDbEntity
  8
0
100
AcDbLine
 62
250
  6
CONTINUOUS
 10
143.1460929066
 20
85.6665613587
 11
143.2362935209
 21
85.6720600712
  0
LINE
  5
2AC
100
AcDbEntity
  8
RACCORDO
100
AcDbLine
 62
250
  6
CONTINUOUS
 10
159.2919848523
 20
86.6724125322
 11
159.9455429009
 21
86.7119426947
  0
LINE
  5
2AD
100
AcDbEntity
  8
RACCORDO
100
AcDbLine
 62
250
  6
CONTINUOUS
 10
158.77236961
 20
87.2720470285
 11
159.4361181353
 21
87.3122318403
  0
LWPOLYLINE
  5
2AE
100
AcDbEntity
  8
RACCORDO
100
AcDbPolyline
 62
250
  6
CONTINUOUS
 90
8
 70
0
 10
159.9937642737
 20
86.7132704587
 10
160.0141698089
 20
86.7139608246
 10
160.0319591051
 20
86.7146701218
 10
160.0470543752
 20
86.715397075
 10
160.0593917302
 20
86.7161378581
 10
160.0688780325
 20
86.716891196
 10
160.0754116402
 20
86.7176583639
 10
160.0789083241
 20
86.7184393617
  0
LWPOLYLINE
  5
2AF
100
AcDbEntity
  8
RACCORDO
100
AcDbPolyline
 62
250
  6
CONTINUOUS
 90
10
 70
0
 10
136.2757345413
 20
87.2775776603
 10
136.3325744945
 20
87.2791900954
 10
136.3837605355
 20
87.2809604053
 10
136.4297588052
 20
87.2828635654
 10
136.4708598303
 20
87.2848724819
 10
136.5067730841
 20
87.2870142487
 10
136.5370931282
 20
87.2893451236
 10
136.5616848164
 20
87.2918838591
 10
136.580683295
 20
87.2946117027
 10
136.5940885638
 20
87.2975286544
  0
LWPOLYLINE
  5
2B0
100
AcDbEntity
  8
RACCORDO
100
AcDbPolyline
 62
250
  6
CONTINUOUS
 90
7
 70
0
 10
136.9042282918
 20
86.6832304612
 10
136.9756344272
 20
86.6852381305
 10
137.037676039
 20
86.6873779261
 10
137.0920633913
 20
86.6897076469
 10
137.1375591517
 20
86.6922465589
 10
137.1714345321
 20
86.694975396
 10
137.1918053826
 20
86.6978941582
  0
LINE
  5
2B1
100
AcDbEntity
  8
RACCORDO
100
AcDbLine
 62
250
  6
CONTINUOUS
 10
159.9455429009
 20
86.7119426947
 11
159.9937642737
 21
86.7132704587
  0
LWPOLYLINE
  5
2B2
100
AcDbEntity
  8
RACCORDO
100
AcDbPolyline
 62
250
  6
CONTINUOUS
 90
34
 70
0
 10
157.7341760914
 20
87.8057008474
 10
157.6979780101
 20
87.8049802632
 10
157.6622866351
 20
87.8030767426
 10
157.6271019664
 20
87.7999902858
 10
157.5925698706
 20
87.7957345289
 10
157.5585444811
 20
87.7902958357
 10
157.5245881986
 20
87.7836332971
 10
157.4906231237
 20
87.7757934817
 10
157.4567271558
 20
87.7667298209
 10
157.4226963939
 20
87.7562617001
 10
157.3885354091
 20
87.7444551528
 10
157.3542396303
 20
87.7312441455
 10
157.3195914433
 20
87.7162499632
 10
157.2844651235
 20
87.6994804769
 10
157.2489863955
 20
87.6809278155
 10
157.2133148193
 20
87.6601896507
 10
157.1773593236
 20
87.6372513127
 10
157.1412109797
 20
87.6121274713
 10
157.1053025619
 20
87.5844598072
 10
157.069589796
 20
87.5542542121
 10
157.0341169562
 20
87.5215047943
 10
156.9994496397
 20
87.4858355594
 10
156.9655106752
 20
87.4472277597
 10
156.932377234
 20
87.4057001428
 10
156.9008464273
 20
87.3609329574
 10
156.8708225224
 20
87.3128730055
 10
156.842401252
 20
87.2615734851
 10
156.8166669248
 20
87.2068742389
 10
156.7935160071
 20
87.1486785238
 10
156.7730520326
 20
87.087083083
 10
156.7566699102
 20
87.0222179879
 10
156.7448346095
 20
86.9541265957
 10
156.7370811608
 20
86.8827655494
 10
156.7334095642
 20
86.8081348487
  0
LINE
  5
2B3
100
AcDbEntity
  8
RACCORDO
100
AcDbLine
 62
250
  6
CONTINUOUS
 10
136.734115399
 20
86.6795555175
 11
136.9042282918
 21
86.6832304612
  0
LINE
  5
2B4
100
AcDbEntity
  8
RACCORDO
100
AcDbLine
 62
250
  6
CONTINUOUS
 10
136.1438573913
 20
87.2747854257
 11
136.2757345413
 21
87.2775776603
  0
LWPOLYLINE
  5
2B5
100
AcDbEntity
  8
RACCORDO
100
AcDbPolyline
 62
250
  6
CONTINUOUS
 90
34
 70
0
 10
157.7341760914
 20
87.4059445166
 10
157.7123882509
 20
87.4055990195
 10
157.690858851
 20
87.4044907332
 10
157.6696136018
 20
87.4026451359
 10
157.6487894002
 20
87.4001041911
 10
157.6282943682
 20
87.3968861938
 10
157.6078140285
 20
87.3929471867
 10
157.5873374916
 20
87.3882712503
 10
157.5669297673
 20
87.3828588465
 10
157.5464028893
 20
87.3766344284
 10
157.5258153432
 20
87.3695795047
 10
157.5051829865
 20
87.3616617017
 10
157.4842754831
 20
87.3527329287
 10
157.4631051596
 20
87.3427173724
 10
157.4417830052
 20
87.3315818127
 10
157.4202548906
 20
87.3191983728
 10
157.3985831496
 20
87.3054895518
 10
157.3768845435
 20
87.2904083519
 10
157.3552114763
 20
87.2738546881
 10
157.3336898504
 20
87.2557810053
 10
157.312431603
 20
87.2361263938
 10
157.2914979485
 20
87.2147606798
 10
157.2710469479
 20
87.1916410386
 10
157.2512403249
 20
87.1667259781
 10
157.2321880725
 20
87.1398781717
 10
157.2140960418
 20
87.1110783182
 10
157.1971780602
 20
87.0803165842
 10
157.1816115533
 20
87.047470408
 10
157.1676595322
 20
87.0125723745
 10
157.1555896458
 20
86.9756654719
 10
157.1456547568
 20
86.9366600933
 10
157.1381693374
 20
86.8956045856
 10
157.133471336
 20
86.8527000886
 10
157.1318874855
 20
86.808134832
  0
LINE
  5
2B6
100
AcDbEntity
  8
RACCORDO
100
AcDbLine
 62
250
  6
CONTINUOUS
 10
136.5243819503
 20
86.6764677445
 11
136.734115399
 21
86.6795555175
  0
LINE
  5
2B7
100
AcDbEntity
  8
RACCORDO
100
AcDbLine
 62
7
  6
CONTINUOUS
 10
135.2288892713
 20
87.348372575
 11
135.0920507567
 21
87.346633341
  0
LINE
  5
2B8
100
AcDbEntity
  8
RACCORDO
100
AcDbLine
 62
250
  6
CONTINUOUS
 10
135.9939883236
 20
87.2729130462
 11
136.1438573913
 21
87.2747854257
  0
LINE
  5
2B9
100
AcDbEntity
  8
RACCORDO
100
AcDbLine
 62
250
  6
CONTINUOUS
 10
136.2760942576
 20
86.6740790969
 11
136.5243819503
 21
86.6764677445
  0
LINE
  5
2BA
100
AcDbEntity
  8
RACCORDO
100
AcDbLine
 62
250
  6
CONTINUOUS
 10
135.8275144577
 20
87.2720470285
 11
135.9939883236
 21
87.2729130462
  0
LINE
  5
2BB
100
AcDbEntity
  8
RACCORDO
100
AcDbLine
 62
250
  6
CONTINUOUS
 10
135.850300697
 20
86.6724125124
 11
136.2760942576
 21
86.6740790969
  0
LINE
  5
2BC
100
AcDbEntity
  8
RACCORDO
100
AcDbLine
 62
250
  6
CONTINUOUS
 10
135.3078992154
 20
86.6724125322
 11
135.850300697
 21
86.6724125322
  0
LINE
  5
2BD
100
AcDbEntity
  8
RACCORDO
100
AcDbLine
 62
250
  6
CONTINUOUS
 10
137.8664745034
 20
86.8081348487
 11
137.4679966242
 21
86.8081348487
  0
LINE
  5
2BE
100
AcDbEntity
  8
RACCORDO
100
AcDbLine
 62
250
  6
CONTINUOUS
 10
156.7334095642
 20
86.8081348487
 11
157.1318874435
 21
86.8081348487
  0
LINE
  5
2BF
100
AcDbEntity
  8
0
100
AcDbLine
 62
250
  6
CONTINUOUS
 10
145.1999420338
 20
87.1615258233
 11
144.7999420338
 21
87.1615258233
  0
LINE
  5
2C0
100
AcDbEntity
  8
0
100
AcDbLine
 62
250
  6
CONTINUOUS
 10
149.3999420338
 20
87.1615265786
 11
149.7999420338
 21
87.1615265786
  0
LINE
  5
2C1
100
AcDbEntity
  8
RACCORDO
100
AcDbLine
 62
250
  6
CONTINUOUS
 10
159.3134228547
 20
87.4059445166
 11
157.7341760914
 21
87.4059445166
  0
LINE
  5
2C2
100
AcDbEntity
  8
RACCORDO
100
AcDbLine
 62
250
  6
CONTINUOUS
 10
136.8657079762
 20
87.4059445166
 11
135.2864612129
 21
87.4059445166
  0
LINE
  5
2C3
100
AcDbEntity
  8
RACCORDO
100
AcDbLine
 62
250
  6
CONTINUOUS
 10
159.2999420338
 20
87.8057008474
 11
157.7341760914
 21
87.8057008474
  0
LINE
  5
2C4
100
AcDbEntity
  8
RACCORDO
100
AcDbLine
 62
250
  6
CONTINUOUS
 10
136.8657079762
 20
87.8057008474
 11
135.2999420338
 21
87.8057008474
  0
LINE
  5
2C5
100
AcDbEntity
  8
RACCORDO
100
AcDbLine
 62
250
  6
CONTINUOUS
 10
158.4651835773
 20
86.6732659834
 11
159.2919848523
 21
86.6724125322
  0
LINE
  5
2C6
100
AcDbEntity
  8
RACCORDO
100
AcDbLine
 62
250
  6
CONTINUOUS
 10
158.6093030927
 20
87.2728993934
 11
158.77236961
 21
87.2720470285
  0
LINE
  5
2C7
100
AcDbEntity
  8
RACCORDO
100
AcDbLine
 62
250
  6
CONTINUOUS
 10
158.2157196672
 20
86.6749408763
 11
158.4651835773
 21
86.6732659834
  0
LINE
  5
2C8
100
AcDbEntity
  8
RACCORDO
100
AcDbLine
 62
250
  6
CONTINUOUS
 10
158.0013683235
 20
86.6774209985
 11
158.2157196672
 21
86.6749408763
  0
LINE
  5
2C9
100
AcDbEntity
  8
RACCORDO
100
AcDbLine
 62
7
  6
CONTINUOUS
 10
159.5078333109
 20
87.346633341
 11
159.3709947963
 21
87.348372575
  0
LINE
  5
2CA
100
AcDbEntity
  8
RACCORDO
100
AcDbLine
 62
250
  6
CONTINUOUS
 10
158.4673161277
 20
87.2745748898
 11
158.6093030927
 21
87.2728993934
  0
LINE
  5
2CB
100
AcDbEntity
  8
RACCORDO
100
AcDbLine
 62
250
  6
CONTINUOUS
 10
134.6543411668
 20
86.7119426947
 11
135.3078992154
 21
86.6724125322
  0
LINE
  5
2CC
100
AcDbEntity
  8
RACCORDO
100
AcDbLine
 62
250
  6
CONTINUOUS
 10
135.1739564091
 20
87.311577191
 11
135.8275144577
 21
87.2720470285
  0
LINE
  5
2CD
100
AcDbEntity
  8
0
100
AcDbLine
 62
250
  6
CONTINUOUS
 10
151.3635905466
 20
85.6720600714
 11
151.4537911612
 21
85.6665613586
  0
LWPOLYLINE
  5
2CE
100
AcDbEntity
  8
RACCORDO
100
AcDbPolyline
 62
250
  6
CONTINUOUS
 90
10
 70
0
 10
135.1739564091
 20
87.311577191
 10
135.1633476789
 20
87.3122663076
 10
135.1539149783
 20
87.3129649842
 10
135.1456583073
 20
87.3136732207
 10
135.138585246
 20
87.3143928521
 10
135.1326882142
 20
87.3151220435
 10
135.1279444718
 20
87.3158552902
 10
135.1243464385
 20
87.3165907574
 10
135.1219016945
 20
87.31733028
 10
135.1206102398
 20
87.3180738579
  0
LWPOLYLINE
  5
2CF
100
AcDbEntity
  8
RACCORDO
100
AcDbPolyline
 62
250
  6
CONTINUOUS
 90
10
 70
0
 10
136.5940885638
 20
87.2975286544
 10
136.697682533
 20
87.2881379046
 10
136.7981409999
 20
87.2608821109
 10
136.8924233649
 20
87.2165862305
 10
136.9776759618
 20
87.1565909772
 10
137.0513184304
 20
87.0827122411
 10
137.1111218167
 20
86.997186126
 10
137.1552760373
 20
86.9026012704
 10
137.1824446658
 20
86.8018204961
 10
137.1918053826
 20
86.6978941582
  0
LINE
  5
2D0
100
AcDbEntity
  8
0
100
AcDbLine
 62
7
  6
CONTINUOUS
 10
144.8211990315
 20
87.0637896865
 11
144.8480884964
 21
87.0482754034
  0
LWPOLYLINE
  5
2D1
100
AcDbEntity
  8
0
100
AcDbPolyline
 62
7
  6
CONTINUOUS
 90
3
 70
0
 10
144.8480884964
 20
87.0482754034
 10
144.9332362013
 20
86.9978282371
 10
145.0546993985
 20
86.9273069723
  0
LWPOLYLINE
  5
2D2
100
AcDbEntity
  8
0
100
AcDbPolyline
 62
7
  6
CONTINUOUS
 90
3
 70
0
 10
145.0546993985
 20
86.9273069723
 10
145.1253986212
 20
86.8850926354
 10
145.1999420338
 20
86.8380894068
  0
LWPOLYLINE
  5
2D3
100
AcDbEntity
  8
0
100
AcDbPolyline
 62
7
  6
CONTINUOUS
 90
3
 70
0
 10
144.7999420338
 20
87.0763181842
 10
144.8051948774
 20
87.0731372801
 10
144.8211990315
 20
87.0637896865
  0
LWPOLYLINE
  5
2D4
100
AcDbEntity
  8
0
100
AcDbPolyline
 62
7
  6
CONTINUOUS
 90
11
 70
0
 10
151.2881724552
 20
80.6245182267
 10
151.283962468
 20
80.6271915364
 10
151.2603862868
 20
80.6412828773
 10
151.2364311817
 20
80.6541587553
 10
151.2121113727
 20
80.6658489177
 10
151.1876613935
 20
80.6762863041
 10
151.1629741695
 20
80.6855609141
 10
151.1375169979
 20
80.6938594257
 10
151.1113218361
 20
80.7011145553
 10
151.084429654
 20
80.7072580017
 10
151.0562816164
 20
80.7123166063
  0
LWPOLYLINE
  5
2D5
100
AcDbEntity
  8
0
100
AcDbPolyline
 62
250
  6
CONTINUOUS
 90
14
 70
0
 10
151.5356595673
 20
80.9400237392
 10
151.4970109299
 20
80.965702335
 10
151.4577742681
 20
80.9891878595
 10
151.4177888873
 20
81.0106454035
 10
151.3772956467
 20
81.0301313051
 10
151.3366153596
 20
81.0475968437
 10
151.2954272126
 20
81.06309074
 10
151.2530096247
 20
81.0768154936
 10
151.209384916
 20
81.0889494075
 10
151.1645307664
 20
81.0993141787
 10
151.117658634
 20
81.1075773982
 10
151.0685056716
 20
81.113628263
 10
151.0173347264
 20
81.1175775761
 10
150.9641457984
 20
81.1194253375
  0
LINE
  5
2D6
100
AcDbEntity
  8
0
100
AcDbLine
 62
250
  6
CONTINUOUS
 10
151.5397334094
 20
79.7113137018
 11
151.4537911596
 21
79.7722893142
  0
LINE
  5
2D7
100
AcDbEntity
  8
0
100
AcDbLine
 62
250
  6
CONTINUOUS
 10
143.0601506582
 20
85.727536973
 11
143.1460928943
 21
85.6665613414
  0
LINE
  5
2D8
100
AcDbEntity
  8
0
100
AcDbLine
 62
250
  6
CONTINUOUS
 10
151.3635905443
 20
79.7667906051
 11
151.0400414139
 21
80.0018804263
  0
LINE
  5
2D9
100
AcDbEntity
  8
0
100
AcDbLine
 62
250
  6
CONTINUOUS
 10
143.2362935227
 20
85.6720600691
 11
143.5598426538
 21
85.4369702487
  0
LWPOLYLINE
  5
2DA
100
AcDbEntity
  8
0
100
AcDbPolyline
 62
250
  6
CONTINUOUS
 90
3
 70
0
 10
142.9999420338
 20
84.5477503705
 10
143.0263245818
 20
84.5265335122
 10
143.0642245003
 20
84.4988269359
  0
LINE
  5
2DB
100
AcDbEntity
  8
0
100
AcDbLine
 62
250
  6
CONTINUOUS
 10
144.902981585
 20
84.6852789961
 11
144.2844111466
 21
85.1925960692
  0
LINE
  5
2DC
100
AcDbEntity
  8
0
100
AcDbLine
 62
250
  6
CONTINUOUS
 10
149.6969024827
 20
80.753571679
 11
150.3154729211
 21
80.2462546058
  0
LWPOLYLINE
  5
2DD
100
AcDbEntity
  8
0
100
AcDbPolyline
 62
7
  6
CONTINUOUS
 90
43
 70
0
 10
143.236293521
 20
79.7667906036
 10
143.2146223147
 20
79.7987387523
 10
143.1955790261
 20
79.8310477651
 10
143.1790604097
 20
79.8634864511
 10
143.1649860547
 20
79.8957518236
 10
143.1531790281
 20
79.9277426236
 10
143.1434216968
 20
79.9595786174
 10
143.1356210481
 20
79.9911017211
 10
143.1296667655
 20
80.022208417
 10
143.1254104856
 20
80.0531488416
 10
143.1227932966
 20
80.0838714348
 10
143.1217613919
 20
80.1142481125
 10
143.1222605325
 20
80.1444362622
 10
143.1242623761
 20
80.1743967129
 10
143.1277320068
 20
80.2040195173
 10
143.1326550623
 20
80.2333597209
 10
143.1390117067
 20
80.2623602789
 10
143.1467736023
 20
80.2909390594
 10
143.1559397924
 20
80.3191105714
 10
143.1664965589
 20
80.3468228373
 10
143.1784143497
 20
80.3739897412
 10
143.1916797466
 20
80.4005709874
 10
143.2062749916
 20
80.4265141773
 10
143.2221618808
 20
80.4517360689
 10
143.2392922298
 20
80.4761519191
 10
143.2576231766
 20
80.4996965979
 10
143.2771138128
 20
80.5223137875
 10
143.2977099734
 20
80.5439378912
 10
143.3193705636
 20
80.5645230003
 10
143.3420341856
 20
80.5840081393
 10
143.3656062482
 20
80.6023154816
 10
143.3899684223
 20
80.6193673839
 10
143.4151095007
 20
80.6351697171
 10
143.4411005267
 20
80.6497610004
 10
143.4677790151
 20
80.6630409444
 10
143.4951876196
 20
80.6750219228
 10
143.5237429042
 20
80.6858261374
 10
143.5534053483
 20
80.6953376848
 10
143.5841232812
 20
80.7034388355
 10
143.6163307177
 20
80.7101005171
 10
143.6501344954
 20
80.7151422639
 10
143.6852897888
 20
80.7183198496
 10
143.721692532
 20
80.7194253375
  0
LINE
  5
2DE
100
AcDbEntity
  8
0
100
AcDbLine
 62
250
  6
CONTINUOUS
 10
143.1287081698
 20
79.7981857577
 11
143.1460929063
 21
79.7722893164
  0
LWPOLYLINE
  5
2DF
100
AcDbEntity
  8
0
100
AcDbPolyline
 62
250
  6
CONTINUOUS
 90
43
 70
0
 10
143.559842654
 20
80.0018804262
 10
143.5526814061
 20
80.0126467679
 10
143.5463201985
 20
80.023390751
 10
143.5407590315
 20
80.0341123755
 10
143.5360468939
 20
80.0448353237
 10
143.5321347967
 20
80.0555359132
 10
143.5288757728
 20
80.0661430974
 10
143.5262549948
 20
80.076630242
 10
143.5242872901
 20
80.0870239812
 10
143.5228701731
 20
80.0973331722
 10
143.5219857434
 20
80.1075617692
 10
143.5216519015
 20
80.1177058179
 10
143.5218198628
 20
80.1277623124
 10
143.5224814459
 20
80.1377402341
 10
143.5236448321
 20
80.1476306017
 10
143.5252857812
 20
80.1574034653
 10
143.5274015851
 20
80.1670626419
 10
143.5299949519
 20
80.1766043145
 10
143.5330497664
 20
80.1859870822
 10
143.5365678529
 20
80.1952167624
 10
143.5405473872
 20
80.2042875376
 10
143.5449667812
 20
80.2131405541
 10
143.5498320192
 20
80.221779842
 10
143.5551371169
 20
80.2302013711
 10
143.5608425337
 20
80.2383341981
 10
143.5669514737
 20
80.2461745937
 10
143.5734607327
 20
80.2537262872
 10
143.5803211574
 20
80.2609295221
 10
143.5875395868
 20
80.2677831906
 10
143.5951091818
 20
80.2742884005
 10
143.6029602717
 20
80.2803887189
 10
143.6110751892
 20
80.2860708694
 10
143.6194716016
 20
80.2913481284
 10
143.6281328404
 20
80.2962038918
 10
143.6370188036
 20
80.3006376912
 10
143.6461695932
 20
80.3046499951
 10
143.6556888469
 20
80.3082256042
 10
143.6655761796
 20
80.3113984497
 10
143.6758319763
 20
80.3141346005
 10
143.6865610306
 20
80.3163170639
 10
143.6977982736
 20
80.3179068425
 10
143.7095087741
 20
80.3189429337
 10
143.721692532
 20
80.3194253375
  0
LWPOLYLINE
  5
2E0
100
AcDbEntity
  8
RACCORDO
100
AcDbPolyline
 62
7
  6
CONTINUOUS
 90
7
 70
0
 10
143.074892541
 20
79.6880961268
 10
143.0521870427
 20
79.7238559154
 10
143.0335670432
 20
79.7608475968
 10
143.0190325425
 20
79.799071171
 10
143.0085835408
 20
79.838526638
 10
143.0022200379
 20
79.8792139978
 10
142.9999420338
 20
79.9211332505
  0
LWPOLYLINE
  5
2E1
100
AcDbEntity
  8
RACCORDO
100
AcDbPolyline
 62
250
  6
CONTINUOUS
 90
13
 70
0
 10
134.6543411668
 20
78.7269079803
 10
134.6598590673
 20
78.6494928082
 10
134.6739792283
 20
78.5733730046
 10
134.6964653808
 20
78.4998222628
 10
134.7269412697
 20
78.4300712888
 10
134.7648969496
 20
78.3652872079
 10
134.8096973177
 20
78.3065540358
 10
134.860592741
 20
78.2548545396
 10
134.9167315991
 20
78.2110537941
 10
134.9771745347
 20
78.175884706
 10
135.0409101716
 20
78.1499357506
 10
135.1068720374
 20
78.1336411254
 10
135.1739564091
 20
78.1272734841
  0
LWPOLYLINE
  5
2E2
100
AcDbEntity
  8
RACCORDO
100
AcDbPolyline
 62
250
  6
CONTINUOUS
 90
13
 70
0
 10
134.5209757436
 20
78.7204113133
 10
134.5261930139
 20
78.6422035892
 10
134.541565184
 20
78.5653319495
 10
134.5668296388
 20
78.4911096532
 10
134.6015547659
 20
78.4208046987
 10
134.6451473283
 20
78.3556181609
 10
134.6968625997
 20
78.2966636733
 10
134.7558170874
 20
78.2449484018
 10
134.8210036251
 20
78.2013558394
 10
134.8913085797
 20
78.1666307124
 10
134.9655308759
 20
78.1413662575
 10
135.0424025156
 20
78.1259940874
 10
135.1206102398
 20
78.1207768171
  0
LINE
  5
2E3
100
AcDbEntity
  8
RACCORDO
100
AcDbLine
 62
7
  6
CONTINUOUS
 10
132.2999420338
 20
73.3117507321
 11
132.2999420338
 21
74.7206434051
  0
LINE
  5
2E4
100
AcDbEntity
  8
RACCORDO
100
AcDbLine
 62
7
  6
CONTINUOUS
 10
132.2999420338
 20
90.71820727
 11
132.2999420338
 21
92.1270999429
  0
LINE
  5
2E5
100
AcDbEntity
  8
RACCORDO
100
AcDbLine
 62
7
  6
CONTINUOUS
 10
132.2999420338
 20
114.3117507321
 11
132.2999420338
 21
115.7206434051
  0
LINE
  5
2E6
100
AcDbEntity
  8
RACCORDO
100
AcDbLine
 62
7
  6
CONTINUOUS
 10
132.2999420338
 20
131.71820727
 11
132.2999420338
 21
133.1270999429
  0
LINE
  5
2E7
100
AcDbEntity
  8
RACCORDO
100
AcDbLine
 62
7
  6
CONTINUOUS
 10
134.4999420338
 20
78.6993776036
 11
134.4999420338
 21
86.7394730715
  0
LINE
  5
2E8
100
AcDbEntity
  8
RACCORDO
100
AcDbLine
 62
7
  6
CONTINUOUS
 10
134.4999420338
 20
119.6993776036
 11
134.4999420338
 21
127.7394730715
  0
LINE
  5
2E9
100
AcDbEntity
  8
RACCORDO
100
AcDbLine
 62
250
  6
CONTINUOUS
 10
134.5209757436
 20
127.7184393617
 11
134.5209757436
 21
119.7204113133
  0
LINE
  5
2EA
100
AcDbEntity
  8
RACCORDO
100
AcDbLine
 62
250
  6
CONTINUOUS
 10
134.5209757436
 20
86.7184393617
 11
134.5209757436
 21
78.7204113133
  0
LINE
  5
2EB
100
AcDbEntity
  8
RACCORDO
100
AcDbLine
 62
250
  6
CONTINUOUS
 10
134.6543411668
 20
127.7119426947
 11
134.6543411668
 21
119.7269079803
  0
LINE
  5
2EC
100
AcDbEntity
  8
RACCORDO
100
AcDbLine
 62
250
  6
CONTINUOUS
 10
134.6543411668
 20
86.7119426947
 11
134.6543411668
 21
78.7269079803
  0
LWPOLYLINE
  5
2ED
100
AcDbEntity
  8
RACCORDO
100
AcDbPolyline
 62
250
  6
CONTINUOUS
 90
13
 70
0
 10
134.5209757436
 20
127.7184393617
 10
134.5261930139
 20
127.7966470859
 10
134.541565184
 20
127.8735187256
 10
134.5668296388
 20
127.9477410218
 10
134.6015547659
 20
128.0180459764
 10
134.6451473283
 20
128.0832325141
 10
134.6968625997
 20
128.1421870018
 10
134.7558170874
 20
128.1939022733
 10
134.8210036251
 20
128.2374948356
 10
134.8913085797
 20
128.2722199627
 10
134.9655308759
 20
128.2974844176
 10
135.0424025156
 20
128.3128565876
 10
135.1206102398
 20
128.3180738579
  0
LWPOLYLINE
  5
2EE
100
AcDbEntity
  8
RACCORDO
100
AcDbPolyline
 62
250
  6
CONTINUOUS
 90
13
 70
0
 10
134.6543411668
 20
127.7119426947
 10
134.6598590673
 20
127.7893578668
 10
134.6739792283
 20
127.8654776704
 10
134.6964653808
 20
127.9390284122
 10
134.7269412697
 20
128.0087793863
 10
134.7648969496
 20
128.0735634671
 10
134.8096973177
 20
128.1322966393
 10
134.860592741
 20
128.1839961354
 10
134.9167315991
 20
128.2277968809
 10
134.9771745347
 20
128.2629659691
 10
135.0409101716
 20
128.2889149244
 10
135.1068720374
 20
128.3052095497
 10
135.1739564091
 20
128.311577191
  0
LWPOLYLINE
  5
2EF
100
AcDbEntity
  8
0
100
AcDbPolyline
 62
250
  6
CONTINUOUS
 90
3
 70
0
 10
143.0878077821
 20
126.5645635764
 10
143.0738067867
 20
126.5305419369
 10
143.0622676251
 20
126.4968585204
  0
LWPOLYLINE
  5
2F0
100
AcDbEntity
  8
0
100
AcDbPolyline
 62
250
  6
CONTINUOUS
 90
8
 70
0
 10
149.5309037496
 20
119.0003038237
 10
149.5814624896
 20
119.0160714437
 10
149.628596193
 20
119.036768552
 10
149.6714155126
 20
119.062004623
 10
149.7091125081
 20
119.0913034872
 10
149.7409758898
 20
119.1241123163
 10
149.7664044406
 20
119.1598120539
 10
149.7849183591
 20
119.1977290963
  0
LWPOLYLINE
  5
2F1
100
AcDbEntity
  8
RACCORDO
100
AcDbPolyline
 62
250
  6
CONTINUOUS
 90
13
 70
0
 10
135.8275144577
 20
87.2720470285
 10
135.76042171
 20
87.2656779603
 10
135.6942940742
 20
87.2493280038
 10
135.6302559035
 20
87.2232008767
 10
135.5692820408
 20
87.1875824685
 10
135.5125823928
 20
87.143061193
 10
135.4614767156
 20
87.0907041942
 10
135.4168761967
 20
87.0316650037
 10
135.3793011523
 20
86.9668815507
 10
135.3492432701
 20
86.8973762554
 10
135.3271336437
 20
86.8242881962
 10
135.3132969874
 20
86.7488833474
 10
135.3078992154
 20
86.6724125322
  0
LINE
  5
2F2
100
AcDbEntity
  8
RACCORDO
100
AcDbLine
 62
7
  6
CONTINUOUS
 10
161.300398693
 20
89.7194253375
 11
159.89957653
 21
89.7194253375
  0
LINE
  5
2F3
100
AcDbEntity
  8
RACCORDO
100
AcDbLine
 62
7
  6
CONTINUOUS
 10
133.2994853747
 20
89.7194253375
 11
134.7003075376
 21
89.7194253375
  0
LWPOLYLINE
  5
2F4
100
AcDbEntity
  8
RACCORDO
100
AcDbPolyline
 62
250
  6
CONTINUOUS
 90
13
 70
0
 10
158.77236961
 20
87.2720470285
 10
158.8396100483
 20
87.265652776
 10
158.9057069712
 20
87.2492898363
 10
158.9695506854
 20
87.2232391051
 10
159.0300653321
 20
87.1879473579
 10
159.0862430046
 20
87.144010606
 10
159.1371564725
 20
87.092156577
 10
159.181987334
 20
87.0331985912
 10
159.2199325025
 20
86.9681698334
 10
159.2502884391
 20
86.898337411
 10
159.2725870952
 20
86.8249618111
 10
159.2865429915
 20
86.7492311468
 10
159.2919848523
 20
86.6724125322
  0
LWPOLYLINE
  5
2F5
100
AcDbEntity
  8
RACCORDO
100
AcDbPolyline
 62
250
  6
CONTINUOUS
 90
9
 70
0
 10
157.4080786851
 20
86.6978947454
 10
157.4287839489
 20
86.6949296797
 10
157.4640035515
 20
86.6921265538
 10
157.5124630071
 20
86.6894853676
 10
157.5728680717
 20
86.6869919726
 10
157.643786703
 20
86.6846605173
 10
157.723579283
 20
86.6825334476
 10
157.809969853
 20
86.6806304418
 10
158.0013683235
 20
86.6774209985
  0
LWPOLYLINE
  5
2F6
100
AcDbEntity
  8
RACCORDO
100
AcDbPolyline
 62
250
  6
CONTINUOUS
 90
11
 70
0
 10
158.0057955039
 20
87.2975286544
 10
158.0189016063
 20
87.2945653844
 10
158.0387843378
 20
87.2917633098
 10
158.0654436984
 20
87.2891224306
 10
158.0997274996
 20
87.2866281453
 10
158.1407879298
 20
87.2842950555
 10
158.1860815544
 20
87.2821669653
 10
158.2349893644
 20
87.2802643614
 10
158.2881303687
 20
87.2785667573
 10
158.3448181598
 20
87.2770564969
 10
158.4673161277
 20
87.2745748898
  0
LWPOLYLINE
  5
2F7
100
AcDbEntity
  8
0
100
AcDbPolyline
 62
250
  6
CONTINUOUS
 90
3
 70
0
 10
151.5999420338
 20
80.8911003046
 10
151.5735594858
 20
80.9123171628
 10
151.5356595673
 20
80.9400237392
  0
LWPOLYLINE
  5
2F8
100
AcDbEntity
  8
0
100
AcDbPolyline
 62
250
  6
CONTINUOUS
 90
8
 70
0
 10
144.814965722
 20
78.1977279632
 10
144.8334796479
 20
78.1598106949
 10
144.8589082076
 20
78.1241107369
 10
144.8907715991
 20
78.0913017039
 10
144.9284686037
 20
78.0620026743
 10
144.9712879304
 20
78.0367664842
 10
145.0184216383
 20
78.016069297
 10
145.06898038
 20
78.0003016356
  0
LWPOLYLINE
  5
2F9
100
AcDbEntity
  8
0
100
AcDbPolyline
 62
250
  6
CONTINUOUS
 90
4
 70
0
 10
143.0872606585
 20
79.8755122809
 10
143.0993354597
 20
79.85001997
 10
143.1131492484
 20
79.8241420357
 10
143.1287081698
 20
79.7981857577
  0
LWPOLYLINE
  5
2FA
100
AcDbEntity
  8
RACCORDO
100
AcDbPolyline
 62
250
  6
CONTINUOUS
 90
13
 70
0
 10
134.6543411668
 20
119.7269079803
 10
134.6598590673
 20
119.6494928082
 10
134.6739792283
 20
119.5733730046
 10
134.6964653808
 20
119.4998222628
 10
134.7269412697
 20
119.4300712888
 10
134.7648969496
 20
119.3652872079
 10
134.8096973177
 20
119.3065540358
 10
134.860592741
 20
119.2548545396
 10
134.9167315991
 20
119.2110537941
 10
134.9771745347
 20
119.175884706
 10
135.0409101716
 20
119.1499357506
 10
135.1068720374
 20
119.1336411254
 10
135.1739564091
 20
119.1272734841
  0
LWPOLYLINE
  5
2FB
100
AcDbEntity
  8
RACCORDO
100
AcDbPolyline
 62
250
  6
CONTINUOUS
 90
13
 70
0
 10
134.5209757436
 20
119.7204113133
 10
134.5261930139
 20
119.6422035892
 10
134.541565184
 20
119.5653319495
 10
134.5668296388
 20
119.4911096532
 10
134.6015547659
 20
119.4208046987
 10
134.6451473283
 20
119.3556181609
 10
134.6968625997
 20
119.2966636733
 10
134.7558170874
 20
119.2449484018
 10
134.8210036251
 20
119.2013558394
 10
134.8913085797
 20
119.1666307124
 10
134.9655308759
 20
119.1413662575
 10
135.0424025156
 20
119.1259940874
 10
135.1206102398
 20
119.1207768171
  0
LWPOLYLINE
  5
2FC
100
AcDbEntity
  8
RACCORDO
100
AcDbPolyline
 62
250
  6
CONTINUOUS
 90
3
 70
0
 10
135.8413780418
 20
87.1393668599
 10
135.8434874895
 20
87.0871247393
 10
135.847099558
 20
86.9636174836
  0
LINE
  5
2FD
100
AcDbEntity
  8
RACCORDO
100
AcDbLine
 62
250
  6
CONTINUOUS
 10
135.847099558
 20
86.9636174836
 11
135.848444791
 21
86.8950615229
  0
LINE
  5
2FE
100
AcDbEntity
  8
RACCORDO
100
AcDbLine
 62
250
  6
CONTINUOUS
 10
135.847099558
 20
127.9636174836
 11
135.848444791
 21
127.8950615229
  0
LWPOLYLINE
  5
2FF
100
AcDbEntity
  8
RACCORDO
100
AcDbPolyline
 62
250
  6
CONTINUOUS
 90
31
 70
0
 10
137.4679966242
 20
86.8081348487
 10
137.4676078303
 20
86.8308933273
 10
137.4663639497
 20
86.8534393299
 10
137.4642865936
 20
86.8757421653
 10
137.4614278856
 20
86.8975775484
 10
137.457795705
 20
86.9191154516
 10
137.4532827842
 20
86.9409080579
 10
137.4478274256
 20
86.9630056156
 10
137.4414079407
 20
86.9852738944
 10
137.4338800628
 20
87.0079623586
 10
137.4251517383
 20
87.0310627169
 10
137.4151707469
 20
87.0544472555
 10
137.4038037933
 20
87.078158648
 10
137.3909610018
 20
87.1021190471
 10
137.3765727824
 20
87.1262061007
 10
137.3605159547
 20
87.1503684375
 10
137.3427258814
 20
87.1744586674
 10
137.3231224115
 20
87.1983492008
 10
137.3015438205
 20
87.2219816246
 10
137.2779279233
 20
87.2451681535
 10
137.2522162906
 20
87.2677156541
 10
137.2242380793
 20
87.2895030705
 10
137.1939572173
 20
87.3102803338
 10
137.1613549421
 20
87.3297850873
 10
137.1262852901
 20
87.3478077797
 10
137.0887832766
 20
87.3640207072
 10
137.0488938887
 20
87.3780944498
 10
137.0065073672
 20
87.3897282526
 10
136.9616828692
 20
87.3985313613
 10
136.9146697152
 20
87.404073675
 10
136.8657078369
 20
87.405944461
  0
LINE
  5
300
100
AcDbEntity
  8
RACCORDO
100
AcDbLine
 62
250
  6
CONTINUOUS
 10
135.848444791
 20
86.8950615229
 11
135.850300697
 21
86.6724125322
  0
LINE
  5
301
100
AcDbEntity
  8
RACCORDO
100
AcDbLine
 62
250
  6
CONTINUOUS
 10
135.848444791
 20
127.8950615229
 11
135.850300697
 21
127.6724125322
  0
LINE
  5
302
100
AcDbEntity
  8
RACCORDO
100
AcDbLine
 62
7
  6
CONTINUOUS
 10
135.2999420338
 20
130.1197908413
 11
135.2999420338
 21
128.8057008474
  0
LINE
  5
303
100
AcDbEntity
  8
RACCORDO
100
AcDbLine
 62
7
  6
CONTINUOUS
 10
135.2999420338
 20
118.6331498276
 11
135.2999420338
 21
117.3190598337
  0
LINE
  5
304
100
AcDbEntity
  8
RACCORDO
100
AcDbLine
 62
7
  6
CONTINUOUS
 10
135.2999420338
 20
89.1197908413
 11
135.2999420338
 21
87.8057008474
  0
LINE
  5
305
100
AcDbEntity
  8
RACCORDO
100
AcDbLine
 62
7
  6
CONTINUOUS
 10
135.2999420338
 20
77.6331498276
 11
135.2999420338
 21
76.3190598337
  0
LINE
  5
306
100
AcDbEntity
  8
RACCORDO
100
AcDbLine
 62
250
  6
CONTINUOUS
 10
135.3078992154
 20
127.6724125322
 11
135.3078992154
 21
119.7664381428
  0
LINE
  5
307
100
AcDbEntity
  8
RACCORDO
100
AcDbLine
 62
250
  6
CONTINUOUS
 10
135.3078992154
 20
86.6724125322
 11
135.3078992154
 21
78.7664381428
  0
LINE
  5
308
100
AcDbEntity
  8
RACCORDO
100
AcDbLine
 62
250
  6
CONTINUOUS
 10
135.850300697
 20
127.6724125124
 11
135.850300697
 21
119.7664381428
  0
LINE
  5
309
100
AcDbEntity
  8
RACCORDO
100
AcDbLine
 62
250
  6
CONTINUOUS
 10
135.850300697
 20
86.6724125124
 11
135.850300697
 21
78.7664381428
  0
LINE
  5
30A
100
AcDbEntity
  8
RACCORDO
100
AcDbLine
 62
250
  6
CONTINUOUS
 10
136.8657079762
 20
128.8057008474
 11
136.8657079765
 21
128.4059445166
  0
LINE
  5
30B
100
AcDbEntity
  8
RACCORDO
100
AcDbLine
 62
250
  6
CONTINUOUS
 10
136.8657079762
 20
87.8057008474
 11
136.8657079765
 21
87.4059445166
  0
LINE
  5
30C
100
AcDbEntity
  8
RACCORDO
100
AcDbLine
 62
250
  6
CONTINUOUS
 10
136.8657079762
 20
77.6331498276
 11
136.8657079762
 21
78.0329061584
  0
LINE
  5
30D
100
AcDbEntity
  8
RACCORDO
100
AcDbLine
 62
250
  6
CONTINUOUS
 10
136.8657079762
 20
118.6331498276
 11
136.8657079762
 21
119.0329061584
  0
LINE
  5
30E
100
AcDbEntity
  8
RACCORDO
100
AcDbLine
 62
250
  6
CONTINUOUS
 10
137.1918053826
 20
127.6978941582
 11
137.1918053826
 21
119.7409565169
  0
LINE
  5
30F
100
AcDbEntity
  8
RACCORDO
100
AcDbLine
 62
250
  6
CONTINUOUS
 10
137.1918053826
 20
86.6978941582
 11
137.1918053826
 21
78.7409565169
  0
LINE
  5
310
100
AcDbEntity
  8
RACCORDO
100
AcDbLine
 62
250
  6
CONTINUOUS
 10
135.8484013906
 20
119.5437888363
 11
135.850300697
 21
119.7664381428
  0
LINE
  5
311
100
AcDbEntity
  8
RACCORDO
100
AcDbLine
 62
250
  6
CONTINUOUS
 10
135.8484013906
 20
78.5437888363
 11
135.850300697
 21
78.7664381428
  0
LWPOLYLINE
  5
312
100
AcDbEntity
  8
RACCORDO
100
AcDbPolyline
 62
250
  6
CONTINUOUS
 90
3
 70
0
 10
135.8434545396
 20
119.3517255675
 10
135.8470555749
 20
119.4752318471
 10
135.8484013906
 20
119.5437888363
  0
LWPOLYLINE
  5
313
100
AcDbEntity
  8
RACCORDO
100
AcDbPolyline
 62
250
  6
CONTINUOUS
 90
3
 70
0
 10
135.8434545396
 20
78.3517255675
 10
135.8470555749
 20
78.4752318471
 10
135.8484013906
 20
78.5437888363
  0
LINE
  5
314
100
AcDbEntity
  8
RACCORDO
100
AcDbLine
 62
250
  6
CONTINUOUS
 10
135.8413497083
 20
119.2994834877
 11
135.8434545396
 21
119.3517255675
  0
LINE
  5
315
100
AcDbEntity
  8
RACCORDO
100
AcDbLine
 62
250
  6
CONTINUOUS
 10
135.8413497083
 20
78.2994834877
 11
135.8434545396
 21
78.3517255675
  0
LWPOLYLINE
  5
316
100
AcDbEntity
  8
RACCORDO
100
AcDbPolyline
 62
250
  6
CONTINUOUS
 90
13
 70
0
 10
134.5209757436
 20
86.7184393617
 10
134.5261930139
 20
86.7966470859
 10
134.541565184
 20
86.8735187256
 10
134.5668296388
 20
86.9477410218
 10
134.6015547659
 20
87.0180459764
 10
134.6451473283
 20
87.0832325141
 10
134.6968625997
 20
87.1421870018
 10
134.7558170874
 20
87.1939022733
 10
134.8210036251
 20
87.2374948356
 10
134.8913085797
 20
87.2722199627
 10
134.9655308759
 20
87.2974844176
 10
135.0424025156
 20
87.3128565876
 10
135.1206102398
 20
87.3180738579
  0
LWPOLYLINE
  5
317
100
AcDbEntity
  8
RACCORDO
100
AcDbPolyline
 62
250
  6
CONTINUOUS
 90
13
 70
0
 10
134.6543411668
 20
86.7119426947
 10
134.6598590673
 20
86.7893578668
 10
134.6739792283
 20
86.8654776704
 10
134.6964653808
 20
86.9390284122
 10
134.7269412697
 20
87.0087793863
 10
134.7648969496
 20
87.0735634671
 10
134.8096973177
 20
87.1322966393
 10
134.860592741
 20
87.1839961354
 10
134.9167315991
 20
87.2277968809
 10
134.9771745347
 20
87.2629659691
 10
135.0409101716
 20
87.2889149244
 10
135.1068720374
 20
87.3052095497
 10
135.1739564091
 20
87.311577191
  0
LWPOLYLINE
  5
318
100
AcDbEntity
  8
0
100
AcDbPolyline
 62
250
  6
CONTINUOUS
 90
3
 70
0
 10
143.0622676251
 20
126.4968585204
 10
143.0529919918
 20
126.4635411809
 10
143.0458361479
 20
126.4307226545
  0
LWPOLYLINE
  5
319
100
AcDbEntity
  8
RACCORDO
100
AcDbPolyline
 62
250
  6
CONTINUOUS
 90
3
 70
0
 10
154.4708628246
 20
138.4876564598
 10
154.4451433289
 20
138.4454814634
 10
154.4245462804
 20
138.3997510408
  0
LINE
  5
31A
100
AcDbEntity
  8
RACCORDO
100
AcDbLine
 62
250
  6
CONTINUOUS
 10
157.4080786851
 20
119.7409565169
 11
157.1318874435
 21
119.6307158263
  0
LINE
  5
31B
100
AcDbEntity
  8
RACCORDO
100
AcDbLine
 62
250
  6
CONTINUOUS
 10
158.0057955039
 20
119.1413220206
 11
157.7341760914
 21
119.0329061584
  0
LINE
  5
31C
100
AcDbEntity
  8
RACCORDO
100
AcDbLine
 62
250
  6
CONTINUOUS
 10
157.1318874435
 20
86.8081348487
 11
157.4080786851
 21
86.6978941582
  0
LINE
  5
31D
100
AcDbEntity
  8
RACCORDO
100
AcDbLine
 62
250
  6
CONTINUOUS
 10
157.7341760914
 20
87.4059445166
 11
158.0057955039
 21
87.2975286544
  0
LWPOLYLINE
  5
31E
100
AcDbEntity
  8
RACCORDO
100
AcDbPolyline
 62
250
  6
CONTINUOUS
 90
3
 70
0
 10
154.4708555254
 20
67.9512078831
 10
154.4451383955
 20
67.9933806498
 10
154.4245435485
 20
68.0391068844
  0
LWPOLYLINE
  5
31F
100
AcDbEntity
  8
0
100
AcDbPolyline
 62
250
  6
CONTINUOUS
 90
4
 70
0
 10
143.0594512296
 20
79.9513542259
 10
143.0674731394
 20
79.9259840126
 10
143.0767356782
 20
79.900679401
 10
143.0872606585
 20
79.8755122809
  0
LWPOLYLINE
  5
320
100
AcDbEntity
  8
RACCORDO
100
AcDbPolyline
 62
250
  6
CONTINUOUS
 90
4
 70
0
 10
135.8342932072
 20
128.2472324591
 10
135.8413780418
 20
128.1393668599
 10
135.8434874895
 20
128.0871247393
 10
135.847099558
 20
127.9636174836
  0
LWPOLYLINE
  5
321
100
AcDbEntity
  8
RACCORDO
100
AcDbPolyline
 62
250
  6
CONTINUOUS
 90
31
 70
0
 10
137.8664745034
 20
86.8081348487
 10
137.8656913432
 20
86.8461175588
 10
137.8635651872
 20
86.8836512263
 10
137.8600960352
 20
86.9207358513
 10
137.8553523011
 20
86.9571042371
 10
137.8492655711
 20
86.9930235803
 10
137.8416306038
 20
87.0292954706
 10
137.8325188437
 20
87.0661095031
 10
137.8218588462
 20
87.1032760826
 10
137.8092310366
 20
87.1410280126
 10
137.7946512967
 20
87.1795121837
 10
137.7781037447
 20
87.2185817052
 10
137.7591211602
 20
87.2580287087
 10
137.7376993495
 20
87.2979445864
 10
137.7138425063
 20
87.3382379461
 10
137.6870959923
 20
87.3784267434
 10
137.6574705457
 20
87.4185655487
 10
137.6249554282
 20
87.4585997916
 10
137.5890637864
 20
87.4978837156
 10
137.5497747825
 20
87.5365178696
 10
137.5071092542
 20
87.5744017049
 10
137.4606428612
 20
87.6105878182
 10
137.410305626
 20
87.6452023988
 10
137.3561675261
 20
87.6781192576
 10
137.2980141535
 20
87.7080124237
 10
137.2357235352
 20
87.735014762
 10
137.1694176442
 20
87.7589934077
 10
137.0992479917
 20
87.7782237957
 10
137.0252650814
 20
87.7921310707
 10
136.9474184096
 20
87.801290088
 10
136.8657079762
 20
87.8057008474
  0
LWPOLYLINE
  5
322
100
AcDbEntity
  8
RACCORDO
100
AcDbPolyline
 62
250
  6
CONTINUOUS
 90
31
 70
0
 10
137.8664745034
 20
127.8081348487
 10
137.8656913432
 20
127.8461175588
 10
137.8635651872
 20
127.8836512263
 10
137.8600960352
 20
127.9207358513
 10
137.8553523011
 20
127.9571042371
 10
137.8492655711
 20
127.9930235803
 10
137.8416306038
 20
128.0292954706
 10
137.8325188437
 20
128.0661095031
 10
137.8218588462
 20
128.1032760826
 10
137.8092310366
 20
128.1410280126
 10
137.7946512967
 20
128.1795121837
 10
137.7781037447
 20
128.2185817052
 10
137.7591211602
 20
128.2580287087
 10
137.7376993495
 20
128.2979445864
 10
137.7138425063
 20
128.3382379461
 10
137.6870959923
 20
128.3784267434
 10
137.6574705457
 20
128.4185655487
 10
137.6249554282
 20
128.4585997916
 10
137.5890637864
 20
128.4978837156
 10
137.5497747825
 20
128.5365178696
 10
137.5071092542
 20
128.5744017049
 10
137.4606428612
 20
128.6105878182
 10
137.410305626
 20
128.6452023988
 10
137.3561675261
 20
128.6781192576
 10
137.2980141535
 20
128.7080124237
 10
137.2357235352
 20
128.735014762
 10
137.1694176442
 20
128.7589934077
 10
137.0992479917
 20
128.7782237957
 10
137.0252650814
 20
128.7921310707
 10
136.9474184096
 20
128.801290088
 10
136.8657079762
 20
128.8057008474
  0
LWPOLYLINE
  5
323
100
AcDbEntity
  8
RACCORDO
100
AcDbPolyline
 62
250
  6
CONTINUOUS
 90
31
 70
0
 10
137.4679966242
 20
127.8081348487
 10
137.4676078303
 20
127.8308933273
 10
137.4663639497
 20
127.8534393299
 10
137.4642865936
 20
127.8757421653
 10
137.4614278856
 20
127.8975775484
 10
137.457795705
 20
127.9191154516
 10
137.4532827842
 20
127.9409080579
 10
137.4478274256
 20
127.9630056156
 10
137.4414079407
 20
127.9852738944
 10
137.4338800628
 20
128.0079623586
 10
137.4251517383
 20
128.0310627169
 10
137.4151707469
 20
128.0544472555
 10
137.4038037933
 20
128.078158648
 10
137.3909610018
 20
128.1021190471
 10
137.3765727824
 20
128.1262061007
 10
137.3605159547
 20
128.1503684375
 10
137.3427258814
 20
128.1744586674
 10
137.3231224115
 20
128.1983492008
 10
137.3015438205
 20
128.2219816246
 10
137.2779279233
 20
128.2451681535
 10
137.2522162906
 20
128.2677156541
 10
137.2242380793
 20
128.2895030705
 10
137.1939572173
 20
128.3102803338
 10
137.1613549421
 20
128.3297850873
 10
137.1262852901
 20
128.3478077797
 10
137.0887832766
 20
128.3640207072
 10
137.0488938887
 20
128.3780944498
 10
137.0065073672
 20
128.3897282526
 10
136.9616828692
 20
128.3985313613
 10
136.9146697152
 20
128.404073675
 10
136.8657078369
 20
128.405944461
  0
LINE
  5
324
100
AcDbEntity
  8
RACCORDO
100
AcDbLine
 62
250
  6
CONTINUOUS
 10
137.4679966242
 20
78.6307158263
 11
137.4679966242
 21
86.8081348487
  0
LINE
  5
325
100
AcDbEntity
  8
RACCORDO
100
AcDbLine
 62
250
  6
CONTINUOUS
 10
137.4679966242
 20
119.6307158263
 11
137.4679966242
 21
127.8081348487
  0
LINE
  5
326
100
AcDbEntity
  8
RACCORDO
100
AcDbLine
 62
250
  6
CONTINUOUS
 10
137.8664745034
 20
78.6307158263
 11
137.8664745034
 21
86.8081348487
  0
LINE
  5
327
100
AcDbEntity
  8
RACCORDO
100
AcDbLine
 62
250
  6
CONTINUOUS
 10
137.8664745034
 20
119.6307158263
 11
137.8664745034
 21
127.8081348487
  0
LWPOLYLINE
  5
328
100
AcDbEntity
  8
RACCORDO
100
AcDbPolyline
 62
250
  6
CONTINUOUS
 90
12
 70
0
 10
140.0999420338
 20
138.2673969608
 10
140.1003540044
 20
138.2777674334
 10
140.1016103565
 20
138.2881383661
 10
140.10374062
 20
138.2985387381
 10
140.1067439131
 20
138.3089908474
 10
140.1106603364
 20
138.3195342361
 10
140.1156433779
 20
138.3302365416
 10
140.1217880938
 20
138.3412332437
 10
140.1291757874
 20
138.3524987866
 10
140.1380616593
 20
138.3638960662
 10
140.1486510537
 20
138.3754562054
 10
140.1610301672
 20
138.3873618989
  0
LWPOLYLINE
  5
329
100
AcDbEntity
  8
0
100
AcDbPolyline
 62
250
  6
CONTINUOUS
 90
4
 70
0
 10
143.0458361479
 20
126.4307226545
 10
143.0406629292
 20
126.3985670283
 10
143.0373164969
 20
126.3671092261
 10
143.0356602887
 20
126.3364829695
  0
LWPOLYLINE
  5
32A
100
AcDbEntity
  8
0
100
AcDbPolyline
 62
250
  6
CONTINUOUS
 90
3
 70
0
 10
144.8149657073
 20
128.2411216192
 10
144.8037157531
 20
128.2017027622
 10
144.7999420337
 20
128.1615258227
  0
LINE
  5
32B
100
AcDbEntity
  8
0
100
AcDbLine
 62
250
  6
CONTINUOUS
 10
145.1999421161
 20
119.2773246006
 11
145.0689804916
 21
119.0003033099
  0
LINE
  5
32C
100
AcDbEntity
  8
0
100
AcDbLine
 62
250
  6
CONTINUOUS
 10
149.3999419274
 20
128.1615261979
 11
149.5309035224
 21
128.4385474368
  0
LWPOLYLINE
  5
32D
100
AcDbEntity
  8
RACCORDO
100
AcDbPolyline
 62
250
  6
CONTINUOUS
 90
3
 70
0
 10
140.1290212431
 20
108.9511942152
 10
140.1547407388
 20
108.9933692116
 10
140.1753377873
 20
109.0390996342
  0
LINE
  5
32E
100
AcDbEntity
  8
RACCORDO
100
AcDbLine
 62
250
  6
CONTINUOUS
 10
159.4792738279
 20
128.3180738579
 11
159.5078333109
 21
128.346633341
  0
LINE
  5
32F
100
AcDbEntity
  8
RACCORDO
100
AcDbLine
 62
250
  6
CONTINUOUS
 10
160.0789083241
 20
127.7184393617
 11
160.0999420338
 21
127.7394730715
  0
LWPOLYLINE
  5
330
100
AcDbEntity
  8
RACCORDO
100
AcDbPolyline
 62
250
  6
CONTINUOUS
 90
21
 70
0
 10
140.3513060764
 20
109.1415108721
 10
140.3199868273
 20
109.1149202327
 10
140.3104508009
 20
109.1068898857
 10
140.301356368
 20
109.0993052756
 10
140.2926913566
 20
109.0921523373
 10
140.2844507705
 20
109.08545643
 10
140.2766233879
 20
109.0792276568
 10
140.2691874711
 20
109.0734267711
 10
140.2621380344
 20
109.0680731398
 10
140.2554618163
 20
109.0631763942
 10
140.2491258283
 20
109.0586797555
 10
140.243124676
 20
109.0545944015
 10
140.2374462122
 20
109.0509315955
 10
140.2320497596
 20
109.0476313587
 10
140.2269288061
 20
109.0446969519
 10
140.2220748905
 20
109.0421415601
 10
140.217447496
 20
109.0399168982
 10
140.2130399704
 20
109.0380206262
 10
140.2088471004
 20
109.0364667572
 10
140.2048335536
 20
109.0352288948
 10
140.2009926803
 20
109.0343007776
  0
LWPOLYLINE
  5
331
100
AcDbEntity
  8
RACCORDO
100
AcDbPolyline
 62
7
  6
CONTINUOUS
 90
4
 70
0
 10
140.19318864
 20
108.9290412598
 10
140.2973027616
 20
108.994782872
 10
140.3562223043
 20
109.0307441104
 10
140.3997537111
 20
109.0560330865
  0
LWPOLYLINE
  5
332
100
AcDbEntity
  8
RACCORDO
100
AcDbPolyline
 62
7
  6
CONTINUOUS
 90
6
 70
0
 10
140.3997555876
 20
109.0560247529
 10
140.4062829214
 20
109.0596045603
 10
140.4356145327
 20
109.072887483
 10
140.4642269198
 20
109.0812909429
 10
140.4909575329
 20
109.0848672444
 10
140.4999420375
 20
109.0851108196
  0
LWPOLYLINE
  5
333
100
AcDbEntity
  8
RACCORDO
100
AcDbPolyline
 62
250
  6
CONTINUOUS
 90
5
 70
0
 10
139.984718412
 20
108.831119742
 10
140.025848219
 20
108.8527379438
 10
140.0640274131
 20
108.8802811533
 10
140.0986126742
 20
108.9132852793
 10
140.1290212431
 20
108.9511942152
  0
LWPOLYLINE
  5
334
100
AcDbEntity
  8
RACCORDO
100
AcDbPolyline
 62
7
  6
CONTINUOUS
 90
6
 70
0
 10
139.9630868766
 20
108.8195455731
 10
140.0083925874
 20
108.8332673916
 10
140.0555482325
 20
108.8523671357
 10
140.1013243155
 20
108.8750024957
 10
140.1466950333
 20
108.9006317666
 10
140.19318864
 20
108.9290412598
  0
LINE
  5
335
100
AcDbEntity
  8
RACCORDO
100
AcDbLine
 62
250
  6
CONTINUOUS
 10
149.0999420338
 20
95.1194253375
 11
148.4999420338
 21
95.1194253314
  0
LINE
  5
336
100
AcDbEntity
  8
RACCORDO
100
AcDbLine
 62
250
  6
CONTINUOUS
 10
145.4999420338
 20
95.1194253375
 11
146.0999420338
 21
95.1194253375
  0
LINE
  5
337
100
AcDbEntity
  8
RACCORDO
100
AcDbLine
 62
7
  6
CONTINUOUS
 10
154.0999420338
 20
95.7194253375
 11
149.0999420338
 21
95.7194253375
  0
LINE
  5
338
100
AcDbEntity
  8
RACCORDO
100
AcDbLine
 62
7
  6
CONTINUOUS
 10
145.4999420338
 20
95.7194253375
 11
140.4999420338
 21
95.7194253375
  0
LWPOLYLINE
  5
339
100
AcDbEntity
  8
RACCORDO
100
AcDbPolyline
 62
250
  6
CONTINUOUS
 90
11
 70
0
 10
140.200377506
 20
97.4046652424
 10
140.2099622172
 20
97.4020826441
 10
140.2201362509
 20
97.3975881893
 10
140.230528625
 20
97.3921111385
 10
140.2410252027
 20
97.3857281391
 10
140.2516798324
 20
97.3783528803
 10
140.2623234621
 20
97.3706311444
 10
140.272883127
 20
97.3626309156
 10
140.2833622847
 20
97.3542518808
 10
140.2936962865
 20
97.3458740741
 10
140.3038354757
 20
97.3375379203
  0
LWPOLYLINE
  5
33A
100
AcDbEntity
  8
RACCORDO
100
AcDbPolyline
 62
250
  6
CONTINUOUS
 90
5
 70
0
 10
139.9847334766
 20
97.6077231297
 10
140.0258617927
 20
97.5861021712
 10
140.0640391511
 20
97.5585566483
 10
140.0986222945
 20
97.5255513035
 10
140.1290285423
 20
97.487642792
  0
LWPOLYLINE
  5
33B
100
AcDbEntity
  8
RACCORDO
100
AcDbPolyline
 62
7
  6
CONTINUOUS
 90
3
 70
0
 10
140.3997060034
 20
97.38284661
 10
140.3535682758
 20
97.409688107
 10
140.2966866456
 20
97.444452164
  0
LWPOLYLINE
  5
33C
100
AcDbEntity
  8
RACCORDO
100
AcDbPolyline
 62
7
  6
CONTINUOUS
 90
7
 70
0
 10
140.195938401
 20
97.5080881405
 10
140.1508749772
 20
97.5357429817
 10
140.1070652546
 20
97.5607849559
 10
140.0630916781
 20
97.5829915828
 10
140.017912219
 20
97.602021078
 10
139.9709845393
 20
97.617334035
 10
139.9634157508
 20
97.6190182019
  0
LINE
  5
33D
100
AcDbEntity
  8
RACCORDO
100
AcDbLine
 62
7
  6
CONTINUOUS
 10
140.2966866456
 20
97.444452164
 11
140.195938401
 21
97.5080881405
  0
LWPOLYLINE
  5
33E
100
AcDbEntity
  8
RACCORDO
100
AcDbPolyline
 62
250
  6
CONTINUOUS
 90
12
 70
0
 10
140.3615412633
 20
97.2889438155
 10
140.3720909115
 20
97.2810543027
 10
140.3829529655
 20
97.2736857495
 10
140.3940664757
 20
97.26684296
 10
140.4054844204
 20
97.260548596
 10
140.4173780912
 20
97.2548553028
 10
140.4297608989
 20
97.2497516798
 10
140.4426116425
 20
97.2453050937
 10
140.456052548
 20
97.2417075487
 10
140.4701183449
 20
97.2390538267
 10
140.4847536399
 20
97.2373314814
 10
140.4999420338
 20
97.236582625
  0
LINE
  5
33F
100
AcDbEntity
  8
RACCORDO
100
AcDbLine
 62
250
  6
CONTINUOUS
 10
140.3513060764
 20
97.2973398029
 11
140.3615412633
 21
97.2889438155
  0
LWPOLYLINE
  5
340
100
AcDbEntity
  8
RACCORDO
100
AcDbPolyline
 62
250
  6
CONTINUOUS
 90
3
 70
0
 10
140.3038354757
 20
97.3375379203
 10
140.3422953862
 20
97.3050949448
 10
140.3513060764
 20
97.2973398029
  0
LINE
  5
341
100
AcDbEntity
  8
RACCORDO
100
AcDbLine
 62
250
  6
CONTINUOUS
 10
159.5078333109
 20
78.092217334
 11
159.4792738279
 21
78.1207768171
  0
LINE
  5
342
100
AcDbEntity
  8
RACCORDO
100
AcDbLine
 62
250
  6
CONTINUOUS
 10
160.0999420338
 20
78.6993776036
 11
160.0789083241
 21
78.7204113133
  0
LWPOLYLINE
  5
343
100
AcDbEntity
  8
RACCORDO
100
AcDbPolyline
 62
250
  6
CONTINUOUS
 90
3
 70
0
 10
140.1290285423
 20
97.487642792
 10
140.1547456722
 20
97.4454700253
 10
140.1753405192
 20
97.3997437906
  0
LWPOLYLINE
  5
344
100
AcDbEntity
  8
0
100
AcDbPolyline
 62
250
  6
CONTINUOUS
 90
3
 70
0
 10
145.1999420357
 20
87.1615258236
 10
145.1832945731
 20
87.1970615119
 10
145.1352017474
 20
87.2981243791
  0
LWPOLYLINE
  5
345
100
AcDbEntity
  8
0
100
AcDbPolyline
 62
250
  6
CONTINUOUS
 90
3
 70
0
 10
149.3999420353
 20
78.2773249904
 10
149.416589509
 20
78.2417892683
 10
149.4646824072
 20
78.1407262779
  0
LINE
  5
346
100
AcDbEntity
  8
0
100
AcDbLine
 62
250
  6
CONTINUOUS
 10
145.1352017474
 20
87.2981243791
 11
145.0689803131
 21
87.4385466102
  0
LINE
  5
347
100
AcDbEntity
  8
0
100
AcDbLine
 62
250
  6
CONTINUOUS
 10
149.4646824072
 20
78.1407262779
 11
149.5309037496
 21
78.0003038237
  0
LWPOLYLINE
  5
348
100
AcDbEntity
  8
0
100
AcDbPolyline
 62
250
  6
CONTINUOUS
 90
3
 70
0
 10
144.7999420383
 20
78.2773243262
 10
144.8037157616
 20
78.2371471017
 10
144.814965722
 20
78.1977279632
  0
LWPOLYLINE
  5
349
100
AcDbEntity
  8
0
100
AcDbPolyline
 62
250
  6
CONTINUOUS
 90
7
 70
0
 10
143.0354642341
 20
80.1119560375
 10
143.0364712165
 20
80.083894347
 10
143.0387445532
 20
80.0563454718
 10
143.0422331332
 20
80.0292712711
 10
143.046895556
 20
80.0026585318
 10
143.0526415895
 20
79.9767321347
 10
143.0594512296
 20
79.9513542259
  0
LINE
  5
34A
100
AcDbEntity
  8
RACCORDO
100
AcDbLine
 62
7
  6
CONTINUOUS
 10
140.0999420338
 20
138.3188763991
 11
140.0999420338
 21
137.2851107625
  0
LINE
  5
34B
100
AcDbEntity
  8
RACCORDO
100
AcDbLine
 62
7
  6
CONTINUOUS
 10
140.0999420338
 20
110.1537399126
 11
140.0999420338
 21
109.1199742759
  0
LINE
  5
34C
100
AcDbEntity
  8
RACCORDO
100
AcDbLine
 62
7
  6
CONTINUOUS
 10
140.0999420338
 20
97.3188763991
 11
140.0999420338
 21
96.2851107625
  0
LINE
  5
34D
100
AcDbEntity
  8
RACCORDO
100
AcDbLine
 62
7
  6
CONTINUOUS
 10
140.0999420338
 20
69.1537399126
 11
140.0999420338
 21
68.1199742759
  0
LINE
  5
34E
100
AcDbEntity
  8
RACCORDO
100
AcDbLine
 62
250
  6
CONTINUOUS
 10
140.4999420338
 20
138.3537395614
 11
140.4999420338
 21
136.7194253375
  0
LINE
  5
34F
100
AcDbEntity
  8
RACCORDO
100
AcDbLine
 62
250
  6
CONTINUOUS
 10
140.4999420338
 20
97.3537395614
 11
140.4999420338
 21
95.7194253375
  0
LINE
  5
350
100
AcDbEntity
  8
RACCORDO
100
AcDbLine
 62
250
  6
CONTINUOUS
 10
140.4999420338
 20
68.0851108196
 11
140.4999420338
 21
69.7194253375
  0
LINE
  5
351
100
AcDbEntity
  8
RACCORDO
100
AcDbLine
 62
250
  6
CONTINUOUS
 10
140.4999420338
 20
109.0851108196
 11
140.4999420338
 21
110.7194253375
  0
LWPOLYLINE
  5
352
100
AcDbEntity
  8
RACCORDO
100
AcDbPolyline
 62
250
  6
CONTINUOUS
 90
12
 70
0
 10
140.0999420338
 20
97.2673969608
 10
140.1003540044
 20
97.2777674334
 10
140.1016103565
 20
97.2881383661
 10
140.10374062
 20
97.2985387381
 10
140.1067439131
 20
97.3089908474
 10
140.1106603364
 20
97.3195342361
 10
140.1156433779
 20
97.3302365416
 10
140.1217880938
 20
97.3412332437
 10
140.1291757874
 20
97.3524987866
 10
140.1380616593
 20
97.3638960662
 10
140.1486510537
 20
97.3754562054
 10
140.1610301672
 20
97.3873618989
  0
LWPOLYLINE
  5
353
100
AcDbEntity
  8
RACCORDO
100
AcDbPolyline
 62
7
  6
CONTINUOUS
 90
7
 70
0
 10
142.9999420338
 20
126.5177174246
 10
143.0022200379
 20
126.5596366772
 10
143.0085835408
 20
126.6003240369
 10
143.0190325425
 20
126.6397795039
 10
143.0335670432
 20
126.6780030781
 10
143.0521870427
 20
126.7149947596
 10
143.074892541
 20
126.7507545482
  0
LWPOLYLINE
  5
354
100
AcDbEntity
  8
0
100
AcDbPolyline
 62
250
  6
CONTINUOUS
 90
4
 70
0
 10
151.4537911578
 20
120.7722893162
 10
151.4760505647
 20
120.8060036739
 10
151.4954393785
 20
120.8400897234
 10
151.5120762855
 20
120.8742870987
  0
LWPOLYLINE
  5
355
100
AcDbEntity
  8
RACCORDO
100
AcDbPolyline
 62
250
  6
CONTINUOUS
 90
9
 70
0
 10
154.3988913873
 20
97.4045498975
 10
154.4025619224
 20
97.4051538303
 10
154.4060884858
 20
97.4054308564
 10
154.4094781501
 20
97.405390434
 10
154.4127306531
 20
97.4050172611
 10
154.4158597861
 20
97.4042726249
 10
154.4188718895
 20
97.4031422013
 10
154.4217664122
 20
97.401635729
 10
154.4245462929
 20
97.3997510309
  0
LWPOLYLINE
  5
356
100
AcDbEntity
  8
RACCORDO
100
AcDbPolyline
 62
250
  6
CONTINUOUS
 90
13
 70
0
 10
154.0999420338
 20
97.236582625
 10
154.1131554585
 20
97.2371025178
 10
154.1261145543
 20
97.2384467191
 10
154.1388068306
 20
97.2405982356
 10
154.1511266864
 20
97.2435274491
 10
154.1631599712
 20
97.2472261879
 10
154.1751797534
 20
97.2517281429
 10
154.1872006758
 20
97.2570055916
 10
154.1991836903
 20
97.2630901885
 10
154.21131288
 20
97.270135645
 10
154.2236348753
 20
97.2782081425
 10
154.2360637225
 20
97.2872717857
 10
154.2485779913
 20
97.2973398029
  0
LINE
  5
357
100
AcDbEntity
  8
RACCORDO
100
AcDbLine
 62
7
  6
CONTINUOUS
 10
146.0999420338
 20
96.3194253375
 11
148.4999420338
 21
96.3194253375
  0
LINE
  5
358
100
AcDbEntity
  8
RACCORDO
100
AcDbLine
 62
250
  6
CONTINUOUS
 10
140.4999420338
 20
97.236582625
 11
154.0999420338
 21
97.236582625
  0
LINE
  5
359
100
AcDbEntity
  8
RACCORDO
100
AcDbLine
 62
7
  6
CONTINUOUS
 10
140.4999420338
 20
97.3537399126
 11
154.0999420338
 21
97.3537399126
  0
LINE
  5
35A
100
AcDbEntity
  8
RACCORDO
100
AcDbLine
 62
7
  6
CONTINUOUS
 10
137.8922674285
 20
97.7194253375
 11
139.6999420338
 21
97.7194253375
  0
LINE
  5
35B
100
AcDbEntity
  8
RACCORDO
100
AcDbLine
 62
7
  6
CONTINUOUS
 10
154.8999420338
 20
97.7194253375
 11
156.7076166392
 21
97.7194253375
  0
LINE
  5
35C
100
AcDbEntity
  8
RACCORDO
100
AcDbLine
 62
250
  6
CONTINUOUS
 10
140.1914790863
 20
97.4049978408
 11
140.200377506
 21
97.4046652424
  0
LWPOLYLINE
  5
35D
100
AcDbEntity
  8
RACCORDO
100
AcDbPolyline
 62
7
  6
CONTINUOUS
 90
5
 70
0
 10
140.4999420368
 20
97.3537395614
 10
140.4838541255
 20
97.3545196382
 10
140.4568917521
 20
97.3592729174
 10
140.4281885739
 20
97.3688878692
 10
140.3997092352
 20
97.3828523197
  0
LWPOLYLINE
  5
35E
100
AcDbEntity
  8
0
100
AcDbPolyline
 62
7
  6
CONTINUOUS
 90
43
 70
0
 10
151.3635905467
 20
85.6720600715
 10
151.3852617529
 20
85.6401119227
 10
151.4043050416
 20
85.6078029099
 10
151.4208236579
 20
85.5753642239
 10
151.434898013
 20
85.5430988515
 10
151.4467050396
 20
85.5111080515
 10
151.4564623709
 20
85.4792720577
 10
151.4642630196
 20
85.4477489539
 10
151.4702173022
 20
85.416642258
 10
151.4744735821
 20
85.3857018335
 10
151.4770907711
 20
85.3549792402
 10
151.4781226758
 20
85.3246025625
 10
151.4776235352
 20
85.2944144129
 10
151.4756216916
 20
85.2644539621
 10
151.4721520609
 20
85.2348311577
 10
151.4672290054
 20
85.2054909542
 10
151.460872361
 20
85.1764903962
 10
151.4531104653
 20
85.1479116156
 10
151.4439442753
 20
85.1197401036
 10
151.4333875087
 20
85.0920278377
 10
151.421469718
 20
85.0648609339
 10
151.4082043211
 20
85.0382796876
 10
151.393609076
 20
85.0123364978
 10
151.3777221868
 20
84.9871146061
 10
151.3605918379
 20
84.9626987559
 10
151.342260891
 20
84.9391540771
 10
151.3227702549
 20
84.9165368876
 10
151.3021740943
 20
84.8949127838
 10
151.2805135041
 20
84.8743276747
 10
151.2578498821
 20
84.8548425357
 10
151.2342778195
 20
84.8365351934
 10
151.2099156454
 20
84.8194832912
 10
151.184774567
 20
84.8036809579
 10
151.158783541
 20
84.7890896746
 10
151.1321050526
 20
84.7758097307
 10
151.104696448
 20
84.7638287523
 10
151.0761411634
 20
84.7530245376
 10
151.0464787194
 20
84.7435129903
 10
151.0157607865
 20
84.7354118395
 10
150.98355335
 20
84.7287501579
 10
150.9497495723
 20
84.7237084111
 10
150.9145942789
 20
84.7205308254
 10
150.8781915356
 20
84.7194253375
  0
LINE
  5
35F
100
AcDbEntity
  8
0
100
AcDbLine
 62
250
  6
CONTINUOUS
 10
151.4711758978
 20
85.6406649173
 11
151.4537911613
 21
85.6665613587
  0
LWPOLYLINE
  5
360
100
AcDbEntity
  8
0
100
AcDbPolyline
 62
250
  6
CONTINUOUS
 90
43
 70
0
 10
151.0400414137
 20
85.4369702488
 10
151.0472026616
 20
85.4262039071
 10
151.0535638691
 20
85.415459924
 10
151.0591250362
 20
85.4047382995
 10
151.0638371738
 20
85.3940153514
 10
151.0677492709
 20
85.3833147619
 10
151.0710082949
 20
85.3727075776
 10
151.0736290728
 20
85.3622204331
 10
151.0755967776
 20
85.3518266938
 10
151.0770138946
 20
85.3415175028
 10
151.0778983242
 20
85.3312889059
 10
151.0782321661
 20
85.3211448572
 10
151.0780642048
 20
85.3110883626
 10
151.0774026218
 20
85.3011104409
 10
151.0762392356
 20
85.2912200733
 10
151.0745982864
 20
85.2814472097
 10
151.0724824826
 20
85.2717880331
 10
151.0698891158
 20
85.2622463605
 10
151.0668343013
 20
85.2528635929
 10
151.0633162147
 20
85.2436339127
 10
151.0593366805
 20
85.2345631374
 10
151.0549172865
 20
85.2257101209
 10
151.0500520485
 20
85.2170708331
 10
151.0447469507
 20
85.2086493039
 10
151.039041534
 20
85.200516477
 10
151.032932594
 20
85.1926760813
 10
151.0264233349
 20
85.1851243878
 10
151.0195629103
 20
85.177921153
 10
151.0123444809
 20
85.1710674844
 10
151.0047748859
 20
85.1645622745
 10
150.9969237959
 20
85.1584619561
 10
150.9888088785
 20
85.1527798056
 10
150.9804124661
 20
85.1475025466
 10
150.9717512273
 20
85.1426467833
 10
150.9628652641
 20
85.1382129838
 10
150.9537144745
 20
85.1342006799
 10
150.9441952208
 20
85.1306250708
 10
150.9343078881
 20
85.1274522253
 10
150.9240520913
 20
85.1247160745
 10
150.913323037
 20
85.1225336111
 10
150.9020857941
 20
85.1209438326
 10
150.8903752936
 20
85.1199077414
 10
150.8781915356
 20
85.1194253375
  0
LWPOLYLINE
  5
361
100
AcDbEntity
  8
RACCORDO
100
AcDbPolyline
 62
7
  6
CONTINUOUS
 90
7
 70
0
 10
151.5249915266
 20
85.7507545482
 10
151.547697025
 20
85.7149947596
 10
151.5663170245
 20
85.6780030782
 10
151.5808515251
 20
85.639779504
 10
151.5913005269
 20
85.600324037
 10
151.5976640298
 20
85.5596366772
 10
151.5999420338
 20
85.5177174246
  0
LWPOLYLINE
  5
362
100
AcDbEntity
  8
0
100
AcDbPolyline
 62
250
  6
CONTINUOUS
 90
7
 70
0
 10
143.0354642341
 20
121.1119560375
 10
143.0364712165
 20
121.083894347
 10
143.0387445532
 20
121.0563454718
 10
143.0422331332
 20
121.0292712711
 10
143.046895556
 20
121.0026585318
 10
143.0526415895
 20
120.9767321347
 10
143.0594512296
 20
120.9513542259
  0
LINE
  5
363
100
AcDbEntity
  8
0
100
AcDbLine
 62
250
  6
CONTINUOUS
 10
145.0689805461
 20
78.0003032811
 11
145.0806377742
 21
77.4692169102
  0
LINE
  5
364
100
AcDbEntity
  8
RACCORDO
100
AcDbLine
 62
7
  6
CONTINUOUS
 10
142.9999420338
 20
126.5177174246
 11
142.9999420338
 21
125.3190598337
  0
LINE
  5
365
100
AcDbEntity
  8
RACCORDO
100
AcDbLine
 62
7
  6
CONTINUOUS
 10
142.9999420338
 20
122.1197908413
 11
142.9999420338
 21
120.9211332505
  0
LINE
  5
366
100
AcDbEntity
  8
RACCORDO
100
AcDbLine
 62
7
  6
CONTINUOUS
 10
142.9999420338
 20
85.5177174246
 11
142.9999420338
 21
84.3190598337
  0
LINE
  5
367
100
AcDbEntity
  8
RACCORDO
100
AcDbLine
 62
7
  6
CONTINUOUS
 10
142.9999420338
 20
81.1197908413
 11
142.9999420338
 21
79.9211332505
  0
LINE
  5
368
100
AcDbEntity
  8
0
100
AcDbLine
 62
250
  6
CONTINUOUS
 10
143.6357382691
 20
122.1194253375
 11
143.6357382691
 21
121.7194253375
  0
LINE
  5
369
100
AcDbEntity
  8
0
100
AcDbLine
 62
250
  6
CONTINUOUS
 10
143.6357382691
 20
81.1194253375
 11
143.6357382691
 21
80.7194253375
  0
LINE
  5
36A
100
AcDbEntity
  8
0
100
AcDbLine
 62
250
  6
CONTINUOUS
 10
143.6357382693
 20
84.3194253375
 11
143.6357382693
 21
84.7194253375
  0
LINE
  5
36B
100
AcDbEntity
  8
0
100
AcDbLine
 62
250
  6
CONTINUOUS
 10
143.6357382693
 20
125.3194253375
 11
143.6357382693
 21
125.7194253375
  0
LINE
  5
36C
100
AcDbEntity
  8
0
100
AcDbLine
 62
250
  6
CONTINUOUS
 10
143.721692532
 20
121.7194253375
 11
143.721692532
 21
121.3194253375
  0
LINE
  5
36D
100
AcDbEntity
  8
0
100
AcDbLine
 62
250
  6
CONTINUOUS
 10
143.721692532
 20
80.7194253375
 11
143.721692532
 21
80.3194253375
  0
LINE
  5
36E
100
AcDbEntity
  8
0
100
AcDbLine
 62
250
  6
CONTINUOUS
 10
143.7216925317
 20
84.7194253375
 11
143.7216925317
 21
85.1194253375
  0
LINE
  5
36F
100
AcDbEntity
  8
0
100
AcDbLine
 62
250
  6
CONTINUOUS
 10
143.7216925317
 20
125.7194253375
 11
143.7216925317
 21
126.1194253375
  0
LINE
  5
370
100
AcDbEntity
  8
0
100
AcDbLine
 62
250
  6
CONTINUOUS
 10
144.129768537
 20
122.1194253375
 11
144.129768537
 21
121.3194253375
  0
LINE
  5
371
100
AcDbEntity
  8
0
100
AcDbLine
 62
250
  6
CONTINUOUS
 10
144.129768537
 20
81.1194253375
 11
144.129768537
 21
80.3194253375
  0
LINE
  5
372
100
AcDbEntity
  8
0
100
AcDbLine
 62
250
  6
CONTINUOUS
 10
144.129768537
 20
84.3194253375
 11
144.129768537
 21
85.1194253375
  0
LINE
  5
373
100
AcDbEntity
  8
0
100
AcDbLine
 62
250
  6
CONTINUOUS
 10
144.129768537
 20
125.3194253375
 11
144.129768537
 21
126.1194253375
  0
LINE
  5
374
100
AcDbEntity
  8
0
100
AcDbLine
 62
7
  6
CONTINUOUS
 10
144.7999420338
 20
128.5856353618
 11
144.7999420338
 21
128.0763181398
  0
LINE
  5
375
100
AcDbEntity
  8
0
100
AcDbLine
 62
7
  6
CONTINUOUS
 10
144.7999420338
 20
119.3625325352
 11
144.7999420338
 21
118.8532153133
  0
LINE
  5
376
100
AcDbEntity
  8
0
100
AcDbLine
 62
7
  6
CONTINUOUS
 10
144.7999420338
 20
87.5856353618
 11
144.7999420338
 21
87.0763181398
  0
LINE
  5
377
100
AcDbEntity
  8
0
100
AcDbLine
 62
7
  6
CONTINUOUS
 10
144.7999420338
 20
78.3625325352
 11
144.7999420338
 21
77.8532153133
  0
LWPOLYLINE
  5
378
100
AcDbEntity
  8
0
100
AcDbPolyline
 62
250
  6
CONTINUOUS
 90
24
 70
0
 10
143.0356602887
 20
126.3364829695
 10
143.0355517665
 20
126.3067458225
 10
143.0368645383
 20
126.2777935858
 10
143.039482096
 20
126.2497242762
 10
143.0432935016
 20
126.2225544658
 10
143.0482465844
 20
126.1960476619
 10
143.0542684055
 20
126.1702480902
 10
143.0612870029
 20
126.1451895744
 10
143.0693269303
 20
126.1206270636
 10
143.0783524576
 20
126.0965962314
 10
143.0883248415
 20
126.0731358422
 10
143.0993323579
 20
126.0500261446
 10
143.111376008
 20
126.0272989671
 10
143.1244381039
 20
126.0050190823
 10
143.1386342284
 20
125.9830454488
 10
143.1540234459
 20
125.9613770221
 10
143.1705682679
 20
125.9401524669
 10
143.1882574431
 20
125.9194569406
 10
143.2071417194
 20
125.8993049611
 10
143.2271632592
 20
125.8798292864
 10
143.2481148224
 20
125.8612676156
 10
143.2699763304
 20
125.8436511774
 10
143.2926867109
 20
125.827042084
 10
143.3117116124
 20
125.8143324484
  0
LWPOLYLINE
  5
379
100
AcDbEntity
  8
0
100
AcDbPolyline
 62
250
  6
CONTINUOUS
 90
24
 70
0
 10
143.0356602887
 20
85.3364829695
 10
143.0355517665
 20
85.3067458225
 10
143.0368645383
 20
85.2777935858
 10
143.039482096
 20
85.2497242762
 10
143.0432935016
 20
85.2225544658
 10
143.0482465844
 20
85.1960476619
 10
143.0542684055
 20
85.1702480902
 10
143.0612870029
 20
85.1451895744
 10
143.0693269303
 20
85.1206270636
 10
143.0783524576
 20
85.0965962314
 10
143.0883248415
 20
85.0731358422
 10
143.0993323579
 20
85.0500261446
 10
143.111376008
 20
85.0272989671
 10
143.1244381039
 20
85.0050190823
 10
143.1386342284
 20
84.9830454488
 10
143.1540234459
 20
84.9613770221
 10
143.1705682679
 20
84.9401524669
 10
143.1882574431
 20
84.9194569406
 10
143.2071417194
 20
84.8993049611
 10
143.2271632592
 20
84.8798292864
 10
143.2481148224
 20
84.8612676156
 10
143.2699763304
 20
84.8436511774
 10
143.2926867109
 20
84.827042084
 10
143.3117116124
 20
84.8143324484
  0
LINE
  5
37A
100
AcDbEntity
  8
0
100
AcDbLine
 62
250
  6
CONTINUOUS
 10
145.0806377733
 20
128.9696337369
 11
145.068980337
 21
128.4385471819
  0
LWPOLYLINE
  5
37B
100
AcDbEntity
  8
RACCORDO
100
AcDbPolyline
 62
7
  6
CONTINUOUS
 90
7
 70
0
 10
142.9999420338
 20
85.5177174246
 10
143.0022200379
 20
85.5596366772
 10
143.0085835408
 20
85.6003240369
 10
143.0190325425
 20
85.6397795039
 10
143.0335670432
 20
85.6780030781
 10
143.0521870427
 20
85.7149947596
 10
143.074892541
 20
85.7507545482
  0
LWPOLYLINE
  5
37C
100
AcDbEntity
  8
0
100
AcDbPolyline
 62
250
  6
CONTINUOUS
 90
3
 70
0
 10
151.5120762855
 20
120.8742870987
 10
151.526077281
 20
120.9083087381
 10
151.5376164426
 20
120.9419921546
  0
LINE
  5
37D
100
AcDbEntity
  8
RACCORDO
100
AcDbLine
 62
250
  6
CONTINUOUS
 10
140.3997060042
 20
97.3828466096
 11
140.3513061211
 21
97.297339765
  0
LINE
  5
37E
100
AcDbEntity
  8
RACCORDO
100
AcDbLine
 62
7
  6
CONTINUOUS
 10
159.3709947963
 20
119.0904781
 11
159.3134228547
 21
119.0329061584
  0
LWPOLYLINE
  5
37F
100
AcDbEntity
  8
RACCORDO
100
AcDbPolyline
 62
250
  6
CONTINUOUS
 90
3
 70
0
 10
154.4245563076
 20
109.03910859
 10
154.4167497857
 20
109.0354864851
 10
154.4084049813
 20
109.0338528343
  0
LINE
  5
380
100
AcDbEntity
  8
RACCORDO
100
AcDbLine
 62
7
  6
CONTINUOUS
 10
159.3709947963
 20
87.348372575
 11
159.3134228547
 21
87.4059445166
  0
LINE
  5
381
100
AcDbEntity
  8
RACCORDO
100
AcDbLine
 62
250
  6
CONTINUOUS
 10
140.3997537111
 20
109.0560330865
 11
140.351306076
 21
109.1415108718
  0
LWPOLYLINE
  5
382
100
AcDbEntity
  8
0
100
AcDbPolyline
 62
250
  6
CONTINUOUS
 90
8
 70
0
 10
149.7849183527
 20
87.2411220286
 10
149.7664044331
 20
87.2790388595
 10
149.7409758817
 20
87.314738404
 10
149.7091125
 20
87.3475470538
 10
149.6714155064
 20
87.3768457343
 10
149.6285961912
 20
87.4020816154
 10
149.5814624948
 20
87.4227785424
 10
149.5309037642
 20
87.4385459991
  0
LWPOLYLINE
  5
383
100
AcDbEntity
  8
0
100
AcDbPolyline
 62
250
  6
CONTINUOUS
 90
4
 70
0
 10
151.5126234091
 20
85.5633383941
 10
151.500548608
 20
85.588830705
 10
151.4867348193
 20
85.6147086394
 10
151.4711758978
 20
85.6406649173
  0
LWPOLYLINE
  5
384
100
AcDbEntity
  8
0
100
AcDbPolyline
 62
250
  6
CONTINUOUS
 90
3
 70
0
 10
144.7999420383
 20
119.2773243262
 10
144.8037157616
 20
119.2371471017
 10
144.814965722
 20
119.1977279632
  0
LINE
  5
385
100
AcDbEntity
  8
0
100
AcDbLine
 62
250
  6
CONTINUOUS
 10
145.0689805461
 20
119.0003032811
 11
145.0806377742
 21
118.4692169102
  0
LINE
  5
386
100
AcDbEntity
  8
0
100
AcDbLine
 62
250
  6
CONTINUOUS
 10
145.1999420338
 20
128.1615257641
 11
145.1999420338
 21
127.8380894068
  0
LINE
  5
387
100
AcDbEntity
  8
0
100
AcDbLine
 62
250
  6
CONTINUOUS
 10
145.1999420338
 20
119.6007612683
 11
145.1999420338
 21
119.2773246256
  0
LINE
  5
388
100
AcDbEntity
  8
0
100
AcDbLine
 62
250
  6
CONTINUOUS
 10
145.1999420338
 20
87.1615257641
 11
145.1999420338
 21
86.8380894068
  0
LINE
  5
389
100
AcDbEntity
  8
0
100
AcDbLine
 62
250
  6
CONTINUOUS
 10
145.1999420338
 20
78.6007612683
 11
145.1999420338
 21
78.2773246256
  0
LINE
  5
38A
100
AcDbEntity
  8
RACCORDO
100
AcDbLine
 62
250
  6
CONTINUOUS
 10
145.4999420338
 20
69.7194253375
 11
145.4999420338
 21
70.3194253375
  0
LINE
  5
38B
100
AcDbEntity
  8
RACCORDO
100
AcDbLine
 62
250
  6
CONTINUOUS
 10
145.4999420338
 20
95.1194253375
 11
145.4999420338
 21
95.7194253375
  0
LINE
  5
38C
100
AcDbEntity
  8
RACCORDO
100
AcDbLine
 62
250
  6
CONTINUOUS
 10
145.4999420338
 20
110.7194253375
 11
145.4999420338
 21
111.3194253375
  0
LINE
  5
38D
100
AcDbEntity
  8
RACCORDO
100
AcDbLine
 62
250
  6
CONTINUOUS
 10
145.4999420338
 20
136.1194253375
 11
145.4999420338
 21
136.7194253375
  0
LINE
  5
38E
100
AcDbEntity
  8
RACCORDO
100
AcDbLine
 62
7
  6
CONTINUOUS
 10
146.0999420338
 20
69.1194253375
 11
146.0999420338
 21
70.3194253375
  0
LINE
  5
38F
100
AcDbEntity
  8
RACCORDO
100
AcDbLine
 62
7
  6
CONTINUOUS
 10
146.0999420338
 20
95.1194253375
 11
146.0999420338
 21
96.3194253375
  0
LINE
  5
390
100
AcDbEntity
  8
RACCORDO
100
AcDbLine
 62
7
  6
CONTINUOUS
 10
146.0999420338
 20
110.1194253375
 11
146.0999420338
 21
111.3194253375
  0
LINE
  5
391
100
AcDbEntity
  8
RACCORDO
100
AcDbLine
 62
7
  6
CONTINUOUS
 10
146.0999420338
 20
136.1194253375
 11
146.0999420338
 21
137.3194253375
  0
LINE
  5
392
100
AcDbEntity
  8
0
100
AcDbLine
 62
250
  6
CONTINUOUS
 10
145.0806377733
 20
87.9696337369
 11
145.068980337
 21
87.4385471819
  0
LWPOLYLINE
  5
393
100
AcDbEntity
  8
0
100
AcDbPolyline
 62
250
  6
CONTINUOUS
 90
4
 70
0
 10
143.0458361479
 20
85.4307226545
 10
143.0406629292
 20
85.3985670283
 10
143.0373164969
 20
85.3671092261
 10
143.0356602887
 20
85.3364829695
  0
LWPOLYLINE
  5
394
100
AcDbEntity
  8
0
100
AcDbPolyline
 62
250
  6
CONTINUOUS
 90
3
 70
0
 10
151.5376164426
 20
120.9419921546
 10
151.5468920759
 20
120.9753094941
 10
151.5540479198
 20
121.0081280206
  0
LWPOLYLINE
  5
395
100
AcDbEntity
  8
0
100
AcDbPolyline
 62
250
  6
CONTINUOUS
 90
3
 70
0
 10
149.7849183591
 20
119.1977290963
 10
149.7961683138
 20
119.2371480018
 10
149.7999420337
 20
119.2773249909
  0
LWPOLYLINE
  5
396
100
AcDbEntity
  8
RACCORDO
100
AcDbPolyline
 62
250
  6
CONTINUOUS
 90
4
 70
0
 10
158.77236961
 20
128.2720470285
 10
158.7682320637
 20
128.2645250307
 10
158.7656003299
 20
128.2472311793
 10
158.7585290521
 20
128.1393637494
  0
LINE
  5
397
100
AcDbEntity
  8
RACCORDO
100
AcDbLine
 62
250
  6
CONTINUOUS
 10
140.1610301672
 20
97.3873618989
 11
140.1753277601
 21
97.3997420851
  0
LINE
  5
398
100
AcDbEntity
  8
RACCORDO
100
AcDbLine
 62
250
  6
CONTINUOUS
 10
154.4388539004
 20
109.0514887762
 11
154.4245563076
 21
109.03910859
  0
LWPOLYLINE
  5
399
100
AcDbEntity
  8
RACCORDO
100
AcDbPolyline
 62
250
  6
CONTINUOUS
 90
15
 70
0
 10
140.1753377747
 20
109.0390996441
 10
140.166856252
 20
109.0460607136
 10
140.1587577819
 20
109.0532435911
 10
140.1510682878
 20
109.0606544701
 10
140.1438395511
 20
109.0682836077
 10
140.137068021
 20
109.0761575934
 10
140.1307143962
 20
109.0843326046
 10
140.1248067614
 20
109.0928410381
 10
140.1194110488
 20
109.101661781
 10
140.1145668802
 20
109.1107670152
 10
140.1103249893
 20
109.1201798224
 10
140.1067361777
 20
109.129902178
 10
140.1038478805
 20
109.1398772556
 10
140.1017147906
 20
109.1500997332
 10
140.1003943801
 20
109.1606165656
  0
LWPOLYLINE
  5
39A
100
AcDbEntity
  8
RACCORDO
100
AcDbPolyline
 62
250
  6
CONTINUOUS
 90
15
 70
0
 10
154.4245462929
 20
97.3997510309
 10
154.4330278157
 20
97.3927899614
 10
154.4411262858
 20
97.3856070839
 10
154.4488157798
 20
97.3781962049
 10
154.4560445165
 20
97.3705670674
 10
154.4628160467
 20
97.3626930816
 10
154.4691696715
 20
97.3545180705
 10
154.4750773063
 20
97.3460096369
 10
154.4804730188
 20
97.3371888941
 10
154.4853171874
 20
97.3280836598
 10
154.4895590784
 20
97.3186708527
 10
154.49314789
 20
97.308948497
 10
154.4960361872
 20
97.2989734194
 10
154.498169277
 20
97.2887509419
 10
154.4994896876
 20
97.2782341094
  0
LWPOLYLINE
  5
39B
100
AcDbEntity
  8
RACCORDO
100
AcDbPolyline
 62
250
  6
CONTINUOUS
 90
3
 70
0
 10
158.77236961
 20
78.1668036466
 10
158.7682250732
 20
78.1743256458
 10
158.765586806
 20
78.1916195404
  0
LWPOLYLINE
  5
39C
100
AcDbEntity
  8
0
100
AcDbPolyline
 62
250
  6
CONTINUOUS
 90
4
 70
0
 10
151.540432838
 20
85.4874964492
 10
151.5324109283
 20
85.5128666625
 10
151.5231483895
 20
85.538171274
 10
151.5126234091
 20
85.5633383941
  0
LWPOLYLINE
  5
39D
100
AcDbEntity
  8
0
100
AcDbPolyline
 62
250
  6
CONTINUOUS
 90
3
 70
0
 10
149.7999420304
 20
87.1615265786
 10
149.7961683088
 20
87.2017033428
 10
149.7849183527
 20
87.2411220286
  0
LINE
  5
39E
100
AcDbEntity
  8
0
100
AcDbLine
 62
250
  6
CONTINUOUS
 10
149.5309035814
 20
87.438547412
 11
149.5192463178
 21
87.9696332251
  0
LINE
  5
39F
100
AcDbEntity
  8
0
100
AcDbLine
 62
250
  6
CONTINUOUS
 10
149.5309035814
 20
128.438547412
 11
149.5192463178
 21
128.9696332251
  0
LINE
  5
3A0
100
AcDbEntity
  8
RACCORDO
100
AcDbLine
 62
7
  6
CONTINUOUS
 10
148.4999420338
 20
137.3194253375
 11
148.4999420338
 21
136.1194253375
  0
LINE
  5
3A1
100
AcDbEntity
  8
RACCORDO
100
AcDbLine
 62
7
  6
CONTINUOUS
 10
148.4999420338
 20
111.3194253375
 11
148.4999420338
 21
110.1194253375
  0
LINE
  5
3A2
100
AcDbEntity
  8
RACCORDO
100
AcDbLine
 62
7
  6
CONTINUOUS
 10
148.4999420338
 20
96.3194253375
 11
148.4999420338
 21
95.1194253375
  0
LINE
  5
3A3
100
AcDbEntity
  8
RACCORDO
100
AcDbLine
 62
7
  6
CONTINUOUS
 10
148.4999420338
 20
70.3194253375
 11
148.4999420338
 21
69.1194253375
  0
LINE
  5
3A4
100
AcDbEntity
  8
RACCORDO
100
AcDbLine
 62
250
  6
CONTINUOUS
 10
149.0999420338
 20
136.7194253375
 11
149.0999420338
 21
136.1194253375
  0
LINE
  5
3A5
100
AcDbEntity
  8
RACCORDO
100
AcDbLine
 62
250
  6
CONTINUOUS
 10
149.0999420338
 20
111.3194253375
 11
149.0999420338
 21
110.7194253375
  0
LINE
  5
3A6
100
AcDbEntity
  8
RACCORDO
100
AcDbLine
 62
250
  6
CONTINUOUS
 10
149.0999420338
 20
95.7194253375
 11
149.0999420338
 21
95.1194253375
  0
LINE
  5
3A7
100
AcDbEntity
  8
RACCORDO
100
AcDbLine
 62
250
  6
CONTINUOUS
 10
149.0999420338
 20
70.3194253375
 11
149.0999420338
 21
69.7194253375
  0
LINE
  5
3A8
100
AcDbEntity
  8
0
100
AcDbLine
 62
250
  6
CONTINUOUS
 10
149.3999420338
 20
78.2773249851
 11
149.3999420338
 21
78.6007612683
  0
LINE
  5
3A9
100
AcDbEntity
  8
0
100
AcDbLine
 62
250
  6
CONTINUOUS
 10
149.3999420338
 20
86.8380894068
 11
149.3999420338
 21
87.1615261656
  0
LINE
  5
3AA
100
AcDbEntity
  8
0
100
AcDbLine
 62
250
  6
CONTINUOUS
 10
149.3999420338
 20
119.2773249851
 11
149.3999420338
 21
119.6007612683
  0
LINE
  5
3AB
100
AcDbEntity
  8
0
100
AcDbLine
 62
250
  6
CONTINUOUS
 10
149.3999420338
 20
127.8380894068
 11
149.3999420338
 21
128.1615261656
  0
LINE
  5
3AC
100
AcDbEntity
  8
0
100
AcDbLine
 62
7
  6
CONTINUOUS
 10
149.7999420338
 20
77.8532153133
 11
149.7999420338
 21
78.3625325352
  0
LINE
  5
3AD
100
AcDbEntity
  8
0
100
AcDbLine
 62
7
  6
CONTINUOUS
 10
149.7999420338
 20
87.0763181399
 11
149.7999420338
 21
87.5856353618
  0
LINE
  5
3AE
100
AcDbEntity
  8
0
100
AcDbLine
 62
7
  6
CONTINUOUS
 10
149.7999420338
 20
118.8532153133
 11
149.7999420338
 21
119.3625325352
  0
LINE
  5
3AF
100
AcDbEntity
  8
0
100
AcDbLine
 62
7
  6
CONTINUOUS
 10
149.7999420338
 20
128.0763181399
 11
149.7999420338
 21
128.5856353618
  0
LINE
  5
3B0
100
AcDbEntity
  8
0
100
AcDbLine
 62
250
  6
CONTINUOUS
 10
149.5192462951
 20
118.4692169576
 11
149.5309037552
 21
119.0003035342
  0
LINE
  5
3B1
100
AcDbEntity
  8
0
100
AcDbLine
 62
250
  6
CONTINUOUS
 10
149.5192462951
 20
77.4692169576
 11
149.5309037552
 21
78.0003035342
  0
LWPOLYLINE
  5
3B2
100
AcDbEntity
  8
0
100
AcDbPolyline
 62
250
  6
CONTINUOUS
 90
4
 70
0
 10
151.5540479198
 20
121.0081280206
 10
151.5592211384
 20
121.0402836467
 10
151.5625675708
 20
121.071741449
 10
151.564223779
 20
121.1023677055
  0
LWPOLYLINE
  5
3B3
100
AcDbEntity
  8
0
100
AcDbPolyline
 62
250
  6
CONTINUOUS
 90
3
 70
0
 10
143.0622676251
 20
85.4968585204
 10
143.0529919918
 20
85.4635411809
 10
143.0458361479
 20
85.4307226545
  0
LWPOLYLINE
  5
3B4
100
AcDbEntity
  8
0
100
AcDbPolyline
 62
250
  6
CONTINUOUS
 90
3
 70
0
 10
144.8149657073
 20
87.2411216192
 10
144.8037157531
 20
87.2017027622
 10
144.7999420337
 20
87.1615258227
  0
LWPOLYLINE
  5
3B5
100
AcDbEntity
  8
0
100
AcDbPolyline
 62
250
  6
CONTINUOUS
 90
3
 70
0
 10
143.0878077821
 20
85.5645635764
 10
143.0738067867
 20
85.5305419369
 10
143.0622676251
 20
85.4968585204
  0
LWPOLYLINE
  5
3B6
100
AcDbEntity
  8
RACCORDO
100
AcDbPolyline
 62
250
  6
CONTINUOUS
 90
4
 70
0
 10
135.8275144577
 20
78.1668036466
 10
135.8316506857
 20
78.1743252033
 10
135.8342812113
 20
78.1916181556
 10
135.8413497083
 20
78.2994834877
  0
LINE
  5
3B7
100
AcDbEntity
  8
RACCORDO
100
AcDbLine
 62
7
  6
CONTINUOUS
 10
135.2864612129
 20
87.4059445166
 11
135.2288892713
 21
87.348372575
  0
LWPOLYLINE
  5
3B8
100
AcDbEntity
  8
RACCORDO
100
AcDbPolyline
 62
250
  6
CONTINUOUS
 90
3
 70
0
 10
140.1753277601
 20
97.3997420851
 10
140.183134282
 20
97.4033641899
 10
140.1914790863
 20
97.4049978408
  0
LINE
  5
3B9
100
AcDbEntity
  8
RACCORDO
100
AcDbLine
 62
7
  6
CONTINUOUS
 10
135.2864612129
 20
119.0329061584
 11
135.2288892713
 21
119.0904781
  0
LWPOLYLINE
  5
3BA
100
AcDbEntity
  8
RACCORDO
100
AcDbPolyline
 62
250
  6
CONTINUOUS
 90
3
 70
0
 10
135.8275144577
 20
128.2720470285
 10
135.8316568166
 20
128.2645254654
 10
135.8342932072
 20
128.2472324591
  0
LWPOLYLINE
  5
3BB
100
AcDbEntity
  8
0
100
AcDbPolyline
 62
250
  6
CONTINUOUS
 90
4
 70
0
 10
143.0594512296
 20
120.9513542259
 10
143.0674731394
 20
120.9259840126
 10
143.0767356782
 20
120.900679401
 10
143.0872606585
 20
120.8755122809
  0
LWPOLYLINE
  5
3BC
100
AcDbEntity
  8
0
100
AcDbPolyline
 62
250
  6
CONTINUOUS
 90
3
 70
0
 10
149.7999420304
 20
128.1615265786
 10
149.7961683088
 20
128.2017033428
 10
149.7849183527
 20
128.2411220286
  0
LWPOLYLINE
  5
3BD
100
AcDbEntity
  8
0
100
AcDbPolyline
 62
250
  6
CONTINUOUS
 90
7
 70
0
 10
151.5644198335
 20
85.3268946376
 10
151.5634128512
 20
85.354956328
 10
151.5611395145
 20
85.3825052032
 10
151.5576509345
 20
85.409579404
 10
151.5529885117
 20
85.4361921432
 10
151.5472424782
 20
85.4621185403
 10
151.540432838
 20
85.4874964492
  0
LWPOLYLINE
  5
3BE
100
AcDbEntity
  8
0
100
AcDbPolyline
 62
250
  6
CONTINUOUS
 90
7
 70
0
 10
151.5644198335
 20
126.3268946376
 10
151.5634128512
 20
126.354956328
 10
151.5611395145
 20
126.3825052032
 10
151.5576509345
 20
126.409579404
 10
151.5529885117
 20
126.4361921432
 10
151.5472424782
 20
126.4621185403
 10
151.540432838
 20
126.4874964492
  0
LINE
  5
3BF
100
AcDbEntity
  8
0
100
AcDbLine
 62
250
  6
CONTINUOUS
 10
150.4701155307
 20
122.1194253375
 11
150.4701155307
 21
121.3194253375
  0
LINE
  5
3C0
100
AcDbEntity
  8
0
100
AcDbLine
 62
250
  6
CONTINUOUS
 10
150.4701155307
 20
81.1194253375
 11
150.4701155307
 21
80.3194253375
  0
LINE
  5
3C1
100
AcDbEntity
  8
0
100
AcDbLine
 62
250
  6
CONTINUOUS
 10
150.4701155307
 20
84.3194253375
 11
150.4701155307
 21
85.1194253375
  0
LINE
  5
3C2
100
AcDbEntity
  8
0
100
AcDbLine
 62
250
  6
CONTINUOUS
 10
150.4701155307
 20
125.3194253375
 11
150.4701155307
 21
126.1194253375
  0
LINE
  5
3C3
100
AcDbEntity
  8
0
100
AcDbLine
 62
250
  6
CONTINUOUS
 10
150.878191536
 20
121.7194253375
 11
150.878191536
 21
121.3194253375
  0
LINE
  5
3C4
100
AcDbEntity
  8
0
100
AcDbLine
 62
250
  6
CONTINUOUS
 10
150.878191536
 20
80.7194253375
 11
150.878191536
 21
80.3194253375
  0
LINE
  5
3C5
100
AcDbEntity
  8
0
100
AcDbLine
 62
250
  6
CONTINUOUS
 10
150.8781915356
 20
84.7194253375
 11
150.8781915356
 21
85.1194253375
  0
LINE
  5
3C6
100
AcDbEntity
  8
0
100
AcDbLine
 62
250
  6
CONTINUOUS
 10
150.8781915356
 20
125.7194253375
 11
150.8781915356
 21
126.1194253375
  0
LINE
  5
3C7
100
AcDbEntity
  8
0
100
AcDbLine
 62
250
  6
CONTINUOUS
 10
150.9641457984
 20
122.1194253375
 11
150.9641457984
 21
121.7194253375
  0
LINE
  5
3C8
100
AcDbEntity
  8
0
100
AcDbLine
 62
250
  6
CONTINUOUS
 10
150.9641457984
 20
81.1194253375
 11
150.9641457984
 21
80.7194253375
  0
LINE
  5
3C9
100
AcDbEntity
  8
0
100
AcDbLine
 62
250
  6
CONTINUOUS
 10
150.9641457986
 20
84.3194253375
 11
150.9641457986
 21
84.7194253375
  0
LINE
  5
3CA
100
AcDbEntity
  8
0
100
AcDbLine
 62
250
  6
CONTINUOUS
 10
150.9641457986
 20
125.3194253375
 11
150.9641457986
 21
125.7194253375
  0
LINE
  5
3CB
100
AcDbEntity
  8
RACCORDO
100
AcDbLine
 62
7
  6
CONTINUOUS
 10
151.5999420338
 20
79.9211332505
 11
151.5999420338
 21
81.1197908413
  0
LINE
  5
3CC
100
AcDbEntity
  8
RACCORDO
100
AcDbLine
 62
7
  6
CONTINUOUS
 10
151.5999420338
 20
84.3190598337
 11
151.5999420338
 21
85.5177174246
  0
LINE
  5
3CD
100
AcDbEntity
  8
RACCORDO
100
AcDbLine
 62
7
  6
CONTINUOUS
 10
151.5999420338
 20
120.9211332505
 11
151.5999420338
 21
122.1197908413
  0
LINE
  5
3CE
100
AcDbEntity
  8
RACCORDO
100
AcDbLine
 62
7
  6
CONTINUOUS
 10
151.5999420338
 20
125.3190598337
 11
151.5999420338
 21
126.5177174246
  0
LWPOLYLINE
  5
3CF
100
AcDbEntity
  8
0
100
AcDbPolyline
 62
250
  6
CONTINUOUS
 90
24
 70
0
 10
151.564223779
 20
121.1023677055
 10
151.5643323011
 20
121.1321048525
 10
151.5630195294
 20
121.1610570893
 10
151.5604019717
 20
121.1891263989
 10
151.5565905661
 20
121.2162962093
 10
151.5516374832
 20
121.2428030132
 10
151.5456156622
 20
121.2686025848
 10
151.5385970647
 20
121.2936611006
 10
151.5305571374
 20
121.3182236114
 10
151.5215316101
 20
121.3422544437
 10
151.5115592261
 20
121.3657148329
 10
151.5005517098
 20
121.3888245304
 10
151.4885080596
 20
121.4115517079
 10
151.4754459637
 20
121.4338315928
 10
151.4612498392
 20
121.4558052262
 10
151.4458606218
 20
121.4774736529
 10
151.4293157998
 20
121.4986982081
 10
151.4116266246
 20
121.5193937344
 10
151.3927423483
 20
121.5395457139
 10
151.3727208085
 20
121.5590213887
 10
151.3517692453
 20
121.5775830594
 10
151.3299077372
 20
121.5951994976
 10
151.3071973567
 20
121.611808591
 10
151.2881724552
 20
121.6245182267
  0
LWPOLYLINE
  5
3D0
100
AcDbEntity
  8
0
100
AcDbPolyline
 62
250
  6
CONTINUOUS
 90
24
 70
0
 10
151.564223779
 20
80.1023677055
 10
151.5643323011
 20
80.1321048525
 10
151.5630195294
 20
80.1610570893
 10
151.5604019717
 20
80.1891263989
 10
151.5565905661
 20
80.2162962093
 10
151.5516374832
 20
80.2428030132
 10
151.5456156622
 20
80.2686025848
 10
151.5385970647
 20
80.2936611006
 10
151.5305571374
 20
80.3182236114
 10
151.5215316101
 20
80.3422544437
 10
151.5115592261
 20
80.3657148329
 10
151.5005517098
 20
80.3888245304
 10
151.4885080596
 20
80.4115517079
 10
151.4754459637
 20
80.4338315928
 10
151.4612498392
 20
80.4558052262
 10
151.4458606218
 20
80.4774736529
 10
151.4293157998
 20
80.4986982081
 10
151.4116266246
 20
80.5193937344
 10
151.3927423483
 20
80.5395457139
 10
151.3727208085
 20
80.5590213887
 10
151.3517692453
 20
80.5775830594
 10
151.3299077372
 20
80.5951994976
 10
151.3071973567
 20
80.611808591
 10
151.2881724552
 20
80.6245182267
  0
LWPOLYLINE
  5
3D1
100
AcDbEntity
  8
RACCORDO
100
AcDbPolyline
 62
7
  6
CONTINUOUS
 90
7
 70
0
 10
151.5999420338
 20
120.9211332505
 10
151.5976640298
 20
120.8792139979
 10
151.5913005269
 20
120.8385266381
 10
151.5808515252
 20
120.7990711711
 10
151.5663170245
 20
120.7608475969
 10
151.547697025
 20
120.7238559155
 10
151.5249915266
 20
120.6880961268
  0
LINE
  5
3D2
100
AcDbEntity
  8
RACCORDO
100
AcDbLine
 62
250
  6
CONTINUOUS
 10
154.2001780616
 20
109.0560040665
 11
154.2485779473
 21
109.1415109094
  0
LINE
  5
3D3
100
AcDbEntity
  8
RACCORDO
100
AcDbLine
 62
250
  6
CONTINUOUS
 10
154.2001303566
 20
97.3828175886
 11
154.2485779916
 21
97.2973398032
  0
LWPOLYLINE
  5
3D4
100
AcDbEntity
  8
0
100
AcDbPolyline
 62
250
  6
CONTINUOUS
 90
8
 70
0
 10
144.814965722
 20
119.1977279632
 10
144.8334796479
 20
119.1598106949
 10
144.8589082076
 20
119.1241107369
 10
144.8907715991
 20
119.0913017039
 10
144.9284686037
 20
119.0620026743
 10
144.9712879304
 20
119.0367664842
 10
145.0184216383
 20
119.016069297
 10
145.06898038
 20
119.0003016356
  0
LWPOLYLINE
  5
3D5
100
AcDbEntity
  8
0
100
AcDbPolyline
 62
250
  6
CONTINUOUS
 90
4
 70
0
 10
143.0872606585
 20
120.8755122809
 10
143.0993354597
 20
120.85001997
 10
143.1131492484
 20
120.8241420357
 10
143.1287081698
 20
120.7981857577
  0
LINE
  5
3D6
100
AcDbEntity
  8
RACCORDO
100
AcDbLine
 62
250
  6
CONTINUOUS
 10
154.0999420338
 20
68.0851111137
 11
154.0999420338
 21
69.7194253375
  0
LINE
  5
3D7
100
AcDbEntity
  8
RACCORDO
100
AcDbLine
 62
250
  6
CONTINUOUS
 10
154.0999420338
 20
95.7194253375
 11
154.0999420338
 21
97.3537398555
  0
LINE
  5
3D8
100
AcDbEntity
  8
RACCORDO
100
AcDbLine
 62
250
  6
CONTINUOUS
 10
154.0999420338
 20
109.0851111137
 11
154.0999420338
 21
110.7194253375
  0
LINE
  5
3D9
100
AcDbEntity
  8
RACCORDO
100
AcDbLine
 62
250
  6
CONTINUOUS
 10
154.0999420338
 20
136.7194253375
 11
154.0999420338
 21
138.3537398555
  0
LINE
  5
3DA
100
AcDbEntity
  8
RACCORDO
100
AcDbLine
 62
7
  6
CONTINUOUS
 10
154.4999420338
 20
138.3188763991
 11
154.4999420338
 21
137.2851107625
  0
LINE
  5
3DB
100
AcDbEntity
  8
RACCORDO
100
AcDbLine
 62
7
  6
CONTINUOUS
 10
154.4999420338
 20
110.1537399126
 11
154.4999420338
 21
109.1199742759
  0
LINE
  5
3DC
100
AcDbEntity
  8
RACCORDO
100
AcDbLine
 62
7
  6
CONTINUOUS
 10
154.4999420338
 20
97.3188763991
 11
154.4999420338
 21
96.2851107625
  0
LINE
  5
3DD
100
AcDbEntity
  8
RACCORDO
100
AcDbLine
 62
7
  6
CONTINUOUS
 10
154.4999420338
 20
69.1537399126
 11
154.4999420338
 21
68.1199742759
  0
LWPOLYLINE
  5
3DE
100
AcDbEntity
  8
RACCORDO
100
AcDbPolyline
 62
250
  6
CONTINUOUS
 90
12
 70
0
 10
154.4999420338
 20
109.1714537142
 10
154.4995300633
 20
109.1610832416
 10
154.4982737111
 20
109.1507123089
 10
154.4961434477
 20
109.1403119369
 10
154.4931401546
 20
109.1298598277
 10
154.4892237313
 20
109.1193164389
 10
154.4842406898
 20
109.1086141334
 10
154.4780959739
 20
109.0976174313
 10
154.4707082803
 20
109.0863518884
 10
154.4618224084
 20
109.0749546089
 10
154.451233014
 20
109.0633944696
 10
154.4388539004
 20
109.0514887762
  0
LWPOLYLINE
  5
3DF
100
AcDbEntity
  8
RACCORDO
100
AcDbPolyline
 62
7
  6
CONTINUOUS
 90
7
 70
0
 10
151.5999420338
 20
79.9211332505
 10
151.5976640298
 20
79.8792139979
 10
151.5913005269
 20
79.8385266381
 10
151.5808515252
 20
79.7990711711
 10
151.5663170245
 20
79.7608475969
 10
151.547697025
 20
79.7238559155
 10
151.5249915266
 20
79.6880961268
  0
LWPOLYLINE
  5
3E0
100
AcDbEntity
  8
0
100
AcDbPolyline
 62
250
  6
CONTINUOUS
 90
4
 70
0
 10
151.5540479198
 20
80.0081280206
 10
151.5592211384
 20
80.0402836467
 10
151.5625675708
 20
80.071741449
 10
151.564223779
 20
80.1023677055
  0
LWPOLYLINE
  5
3E1
100
AcDbEntity
  8
0
100
AcDbPolyline
 62
250
  6
CONTINUOUS
 90
4
 70
0
 10
143.1460929098
 20
85.6665613589
 10
143.123833503
 20
85.6328470012
 10
143.1044446892
 20
85.5987609516
 10
143.0878077821
 20
85.5645635764
  0
LWPOLYLINE
  5
3E2
100
AcDbEntity
  8
RACCORDO
100
AcDbPolyline
 62
7
  6
CONTINUOUS
 90
6
 70
0
 10
154.636797191
 20
97.6193051019
 10
154.5914914803
 20
97.6055832834
 10
154.5443358352
 20
97.5864835394
 10
154.4985597521
 20
97.5638481794
 10
154.4531890344
 20
97.5382189084
 10
154.4066954277
 20
97.5098094152
  0
LWPOLYLINE
  5
3E3
100
AcDbEntity
  8
RACCORDO
100
AcDbPolyline
 62
250
  6
CONTINUOUS
 90
9
 70
0
 10
140.2009926803
 20
109.0343007776
 10
140.1973221453
 20
109.0336968448
 10
140.1937955819
 20
109.0334198187
 10
140.1904059175
 20
109.033460241
 10
140.1871534146
 20
109.0338334139
 10
140.1840242815
 20
109.0345780501
 10
140.1810121782
 20
109.0357084738
 10
140.1781176554
 20
109.037214946
 10
140.1753377747
 20
109.0390996441
  0
LWPOLYLINE
  5
3E4
100
AcDbEntity
  8
RACCORDO
100
AcDbPolyline
 62
250
  6
CONTINUOUS
 90
13
 70
0
 10
140.4999420338
 20
109.20226805
 10
140.4867280368
 20
109.2017480914
 10
140.4737684766
 20
109.2004037912
 10
140.4610758445
 20
109.1982521508
 10
140.4487557391
 20
109.1953227815
 10
140.4367223131
 20
109.1916238768
 10
140.4247025047
 20
109.1871217969
 10
140.4126816846
 20
109.1818442812
 10
140.4006988832
 20
109.1757596737
 10
140.3885699774
 20
109.1687142857
 10
140.3762483219
 20
109.1606419457
 10
140.3638198794
 20
109.1515785489
 10
140.3513060764
 20
109.1415108721
  0
LINE
  5
3E5
100
AcDbEntity
  8
RACCORDO
100
AcDbLine
 62
7
  6
CONTINUOUS
 10
156.7076166392
 20
108.7194253375
 11
154.8999420338
 21
108.7194253375
  0
LINE
  5
3E6
100
AcDbEntity
  8
RACCORDO
100
AcDbLine
 62
7
  6
CONTINUOUS
 10
139.6999420338
 20
108.7194253375
 11
137.8922674285
 21
108.7194253375
  0
LINE
  5
3E7
100
AcDbEntity
  8
RACCORDO
100
AcDbLine
 62
7
  6
CONTINUOUS
 10
154.0999420338
 20
109.0851107625
 11
140.4999420338
 21
109.0851107625
  0
LINE
  5
3E8
100
AcDbEntity
  8
RACCORDO
100
AcDbLine
 62
250
  6
CONTINUOUS
 10
154.0999420338
 20
109.20226805
 11
140.4999420338
 21
109.20226805
  0
LINE
  5
3E9
100
AcDbEntity
  8
RACCORDO
100
AcDbLine
 62
7
  6
CONTINUOUS
 10
146.0999420338
 20
110.1194253375
 11
148.4999420338
 21
110.1194253375
  0
LINE
  5
3EA
100
AcDbEntity
  8
RACCORDO
100
AcDbLine
 62
7
  6
CONTINUOUS
 10
154.0999420338
 20
110.7194253375
 11
149.0999420338
 21
110.7194253375
  0
LINE
  5
3EB
100
AcDbEntity
  8
RACCORDO
100
AcDbLine
 62
7
  6
CONTINUOUS
 10
145.4999420338
 20
110.7194253375
 11
140.4999420338
 21
110.7194253375
  0
LINE
  5
3EC
100
AcDbEntity
  8
RACCORDO
100
AcDbLine
 62
250
  6
CONTINUOUS
 10
154.4084049813
 20
109.0338528343
 11
154.3995065616
 21
109.0341854326
  0
LWPOLYLINE
  5
3ED
100
AcDbEntity
  8
RACCORDO
100
AcDbPolyline
 62
7
  6
CONTINUOUS
 90
5
 70
0
 10
154.0999420309
 20
109.0851111137
 10
154.1160299639
 20
109.0843310348
 10
154.1429923592
 20
109.0795777467
 10
154.17169556
 20
109.0699627784
 10
154.2001748305
 20
109.0559983564
  0
LWPOLYLINE
  5
3EE
100
AcDbEntity
  8
RACCORDO
100
AcDbPolyline
 62
250
  6
CONTINUOUS
 90
11
 70
0
 10
154.3995065616
 20
109.0341854326
 10
154.3899218505
 20
109.0367680309
 10
154.3797478168
 20
109.0412624858
 10
154.3693554427
 20
109.0467395365
 10
154.3588588649
 20
109.053122536
 10
154.3482042352
 20
109.0604977947
 10
154.3375606056
 20
109.0682195307
 10
154.3270009406
 20
109.0762197595
 10
154.316521783
 20
109.0845987943
 10
154.3061877811
 20
109.092976601
 10
154.296048592
 20
109.1013127547
  0
LWPOLYLINE
  5
3EF
100
AcDbEntity
  8
0
100
AcDbPolyline
 62
7
  6
CONTINUOUS
 90
43
 70
0
 10
143.236293521
 20
120.7667906036
 10
143.2146223147
 20
120.7987387523
 10
143.1955790261
 20
120.8310477651
 10
143.1790604097
 20
120.8634864511
 10
143.1649860547
 20
120.8957518236
 10
143.1531790281
 20
120.9277426236
 10
143.1434216968
 20
120.9595786174
 10
143.1356210481
 20
120.9911017211
 10
143.1296667655
 20
121.022208417
 10
143.1254104856
 20
121.0531488416
 10
143.1227932966
 20
121.0838714348
 10
143.1217613919
 20
121.1142481125
 10
143.1222605325
 20
121.1444362622
 10
143.1242623761
 20
121.1743967129
 10
143.1277320068
 20
121.2040195173
 10
143.1326550623
 20
121.2333597209
 10
143.1390117067
 20
121.2623602789
 10
143.1467736023
 20
121.2909390594
 10
143.1559397924
 20
121.3191105714
 10
143.1664965589
 20
121.3468228373
 10
143.1784143497
 20
121.3739897412
 10
143.1916797466
 20
121.4005709874
 10
143.2062749916
 20
121.4265141773
 10
143.2221618808
 20
121.4517360689
 10
143.2392922298
 20
121.4761519191
 10
143.2576231766
 20
121.4996965979
 10
143.2771138128
 20
121.5223137875
 10
143.2977099734
 20
121.5439378912
 10
143.3193705636
 20
121.5645230003
 10
143.3420341856
 20
121.5840081393
 10
143.3656062482
 20
121.6023154816
 10
143.3899684223
 20
121.6193673839
 10
143.4151095007
 20
121.6351697171
 10
143.4411005267
 20
121.6497610004
 10
143.4677790151
 20
121.6630409444
 10
143.4951876196
 20
121.6750219228
 10
143.5237429042
 20
121.6858261374
 10
143.5534053483
 20
121.6953376848
 10
143.5841232812
 20
121.7034388355
 10
143.6163307177
 20
121.7101005171
 10
143.6501344954
 20
121.7151422639
 10
143.6852897888
 20
121.7183198496
 10
143.721692532
 20
121.7194253375
  0
LINE
  5
3F0
100
AcDbEntity
  8
0
100
AcDbLine
 62
250
  6
CONTINUOUS
 10
143.1287081698
 20
120.7981857577
 11
143.1460929063
 21
120.7722893164
  0
LWPOLYLINE
  5
3F1
100
AcDbEntity
  8
0
100
AcDbPolyline
 62
250
  6
CONTINUOUS
 90
43
 70
0
 10
143.559842654
 20
121.0018804262
 10
143.5526814061
 20
121.0126467679
 10
143.5463201985
 20
121.023390751
 10
143.5407590315
 20
121.0341123755
 10
143.5360468939
 20
121.0448353237
 10
143.5321347967
 20
121.0555359132
 10
143.5288757728
 20
121.0661430974
 10
143.5262549948
 20
121.076630242
 10
143.5242872901
 20
121.0870239812
 10
143.5228701731
 20
121.0973331722
 10
143.5219857434
 20
121.1075617692
 10
143.5216519015
 20
121.1177058179
 10
143.5218198628
 20
121.1277623124
 10
143.5224814459
 20
121.1377402341
 10
143.5236448321
 20
121.1476306017
 10
143.5252857812
 20
121.1574034653
 10
143.5274015851
 20
121.1670626419
 10
143.5299949519
 20
121.1766043145
 10
143.5330497664
 20
121.1859870822
 10
143.5365678529
 20
121.1952167624
 10
143.5405473872
 20
121.2042875376
 10
143.5449667812
 20
121.2131405541
 10
143.5498320192
 20
121.221779842
 10
143.5551371169
 20
121.2302013711
 10
143.5608425337
 20
121.2383341981
 10
143.5669514737
 20
121.2461745937
 10
143.5734607327
 20
121.2537262872
 10
143.5803211574
 20
121.2609295221
 10
143.5875395868
 20
121.2677831906
 10
143.5951091818
 20
121.2742884005
 10
143.6029602717
 20
121.2803887189
 10
143.6110751892
 20
121.2860708694
 10
143.6194716016
 20
121.2913481284
 10
143.6281328404
 20
121.2962038918
 10
143.6370188036
 20
121.3006376912
 10
143.6461695932
 20
121.3046499951
 10
143.6556888469
 20
121.3082256042
 10
143.6655761796
 20
121.3113984497
 10
143.6758319763
 20
121.3141346005
 10
143.6865610306
 20
121.3163170639
 10
143.6977982736
 20
121.3179068425
 10
143.7095087741
 20
121.3189429337
 10
143.721692532
 20
121.3194253375
  0
LWPOLYLINE
  5
3F2
100
AcDbEntity
  8
RACCORDO
100
AcDbPolyline
 62
7
  6
CONTINUOUS
 90
7
 70
0
 10
143.074892541
 20
120.6880961268
 10
143.0521870427
 20
120.7238559154
 10
143.0335670432
 20
120.7608475968
 10
143.0190325425
 20
120.799071171
 10
143.0085835408
 20
120.838526638
 10
143.0022200379
 20
120.8792139978
 10
142.9999420338
 20
120.9211332505
  0
LINE
  5
3F3
100
AcDbEntity
  8
RACCORDO
100
AcDbLine
 62
250
  6
CONTINUOUS
 10
158.765586806
 20
78.1916195404
 11
158.7584983782
 21
78.2994871926
  0
LWPOLYLINE
  5
3F4
100
AcDbEntity
  8
RACCORDO
100
AcDbPolyline
 62
250
  6
CONTINUOUS
 90
3
 70
0
 10
158.7584983782
 20
78.2994871926
 10
158.7563882831
 20
78.3517291492
 10
158.7527748743
 20
78.4752344806
  0
LWPOLYLINE
  5
3F5
100
AcDbEntity
  8
RACCORDO
100
AcDbPolyline
 62
250
  6
CONTINUOUS
 90
31
 70
0
 10
156.7334095642
 20
78.6307158263
 10
156.7341927244
 20
78.5927331162
 10
156.7363188805
 20
78.5551994487
 10
156.7397880325
 20
78.5181148238
 10
156.7445317666
 20
78.4817464379
 10
156.7506184965
 20
78.4458270947
 10
156.7582534638
 20
78.4095552045
 10
156.767365224
 20
78.3727411719
 10
156.7780252215
 20
78.3355745924
 10
156.7906530311
 20
78.2978226624
 10
156.805232771
 20
78.2593384914
 10
156.821780323
 20
78.2202689699
 10
156.8407629074
 20
78.1808219663
 10
156.8621847182
 20
78.1409060886
 10
156.8860415613
 20
78.1006127289
 10
156.9127880754
 20
78.0604239317
 10
156.942413522
 20
78.0202851263
 10
156.9749286394
 20
77.9802508835
 10
157.0108202813
 20
77.9409669595
 10
157.0501092852
 20
77.9023328054
 10
157.0927748135
 20
77.8644489702
 10
157.1392412065
 20
77.8282628569
 10
157.1895784417
 20
77.7936482762
 10
157.2437165416
 20
77.7607314175
 10
157.3018699141
 20
77.7308382514
 10
157.3641605325
 20
77.703835913
 10
157.4304664234
 20
77.6798572673
 10
157.500636076
 20
77.6606268794
 10
157.5746189863
 20
77.6467196043
 10
157.6524656581
 20
77.637560587
 10
157.7341760914
 20
77.6331498276
  0
LWPOLYLINE
  5
3F6
100
AcDbEntity
  8
RACCORDO
100
AcDbPolyline
 62
250
  6
CONTINUOUS
 90
31
 70
0
 10
156.7334095642
 20
119.6307158263
 10
156.7341927244
 20
119.5927331162
 10
156.7363188805
 20
119.5551994487
 10
156.7397880325
 20
119.5181148238
 10
156.7445317666
 20
119.4817464379
 10
156.7506184965
 20
119.4458270947
 10
156.7582534638
 20
119.4095552045
 10
156.767365224
 20
119.3727411719
 10
156.7780252215
 20
119.3355745924
 10
156.7906530311
 20
119.2978226624
 10
156.805232771
 20
119.2593384914
 10
156.821780323
 20
119.2202689699
 10
156.8407629074
 20
119.1808219663
 10
156.8621847182
 20
119.1409060886
 10
156.8860415613
 20
119.1006127289
 10
156.9127880754
 20
119.0604239317
 10
156.942413522
 20
119.0202851263
 10
156.9749286394
 20
118.9802508835
 10
157.0108202813
 20
118.9409669595
 10
157.0501092852
 20
118.9023328054
 10
157.0927748135
 20
118.8644489702
 10
157.1392412065
 20
118.8282628569
 10
157.1895784417
 20
118.7936482762
 10
157.2437165416
 20
118.7607314175
 10
157.3018699141
 20
118.7308382514
 10
157.3641605325
 20
118.703835913
 10
157.4304664234
 20
118.6798572673
 10
157.500636076
 20
118.6606268794
 10
157.5746189863
 20
118.6467196043
 10
157.6524656581
 20
118.637560587
 10
157.7341760914
 20
118.6331498276
  0
LWPOLYLINE
  5
3F7
100
AcDbEntity
  8
RACCORDO
100
AcDbPolyline
 62
250
  6
CONTINUOUS
 90
31
 70
0
 10
157.1318874435
 20
78.6307158263
 10
157.1322762373
 20
78.6079573478
 10
157.133520118
 20
78.5854113452
 10
157.1355974741
 20
78.5631085097
 10
157.1384561821
 20
78.5412731266
 10
157.1420883626
 20
78.5197352235
 10
157.1466012834
 20
78.4979426172
 10
157.152056642
 20
78.4758450595
 10
157.158476127
 20
78.4535767807
 10
157.1660040048
 20
78.4308883164
 10
157.1747323294
 20
78.4077879581
 10
157.1847133208
 20
78.3844034195
 10
157.1960802744
 20
78.360692027
 10
157.2089230659
 20
78.3367316279
 10
157.2233112852
 20
78.3126445743
 10
157.239368113
 20
78.2884822375
 10
157.2571581863
 20
78.2643920076
 10
157.2767616562
 20
78.2405014742
 10
157.2983402472
 20
78.2168690504
 10
157.3219561443
 20
78.1936825216
 10
157.3476677771
 20
78.1711350209
 10
157.3756459883
 20
78.1493476046
 10
157.4059268504
 20
78.1285703412
 10
157.4385291255
 20
78.1090655878
 10
157.4735987775
 20
78.0910428954
 10
157.5111007911
 20
78.0748299678
 10
157.550990179
 20
78.0607562252
 10
157.5933767005
 20
78.0491224224
 10
157.6382011985
 20
78.0403193138
 10
157.6852143525
 20
78.0347770001
 10
157.7341762307
 20
78.032906214
  0
LWPOLYLINE
  5
3F8
100
AcDbEntity
  8
RACCORDO
100
AcDbPolyline
 62
250
  6
CONTINUOUS
 90
31
 70
0
 10
157.1318874435
 20
119.6307158263
 10
157.1322762373
 20
119.6079573478
 10
157.133520118
 20
119.5854113452
 10
157.1355974741
 20
119.5631085097
 10
157.1384561821
 20
119.5412731266
 10
157.1420883626
 20
119.5197352235
 10
157.1466012834
 20
119.4979426172
 10
157.152056642
 20
119.4758450595
 10
157.158476127
 20
119.4535767807
 10
157.1660040048
 20
119.4308883164
 10
157.1747323294
 20
119.4077879581
 10
157.1847133208
 20
119.3844034195
 10
157.1960802744
 20
119.360692027
 10
157.2089230659
 20
119.3367316279
 10
157.2233112852
 20
119.3126445743
 10
157.239368113
 20
119.2884822375
 10
157.2571581863
 20
119.2643920076
 10
157.2767616562
 20
119.2405014742
 10
157.2983402472
 20
119.2168690504
 10
157.3219561443
 20
119.1936825216
 10
157.3476677771
 20
119.1711350209
 10
157.3756459883
 20
119.1493476046
 10
157.4059268504
 20
119.1285703412
 10
157.4385291255
 20
119.1090655878
 10
157.4735987775
 20
119.0910428954
 10
157.5111007911
 20
119.0748299678
 10
157.550990179
 20
119.0607562252
 10
157.5933767005
 20
119.0491224224
 10
157.6382011985
 20
119.0403193138
 10
157.6852143525
 20
119.0347770001
 10
157.7341762307
 20
119.032906214
  0
LINE
  5
3F9
100
AcDbEntity
  8
RACCORDO
100
AcDbLine
 62
250
  6
CONTINUOUS
 10
156.7334095642
 20
127.8081348487
 11
156.7334095642
 21
119.6307158263
  0
LINE
  5
3FA
100
AcDbEntity
  8
RACCORDO
100
AcDbLine
 62
250
  6
CONTINUOUS
 10
156.7334095642
 20
86.8081348487
 11
156.7334095642
 21
78.6307158263
  0
LINE
  5
3FB
100
AcDbEntity
  8
RACCORDO
100
AcDbLine
 62
250
  6
CONTINUOUS
 10
157.1318874435
 20
127.8081348487
 11
157.1318874435
 21
119.6307158263
  0
LINE
  5
3FC
100
AcDbEntity
  8
RACCORDO
100
AcDbLine
 62
250
  6
CONTINUOUS
 10
157.1318874435
 20
86.8081348487
 11
157.1318874435
 21
78.6307158263
  0
LINE
  5
3FD
100
AcDbEntity
  8
RACCORDO
100
AcDbLine
 62
250
  6
CONTINUOUS
 10
157.4080786851
 20
127.6978941582
 11
157.4080786851
 21
119.7409565169
  0
LINE
  5
3FE
100
AcDbEntity
  8
RACCORDO
100
AcDbLine
 62
250
  6
CONTINUOUS
 10
157.4080786851
 20
86.6978941582
 11
157.4080786851
 21
78.7409565169
  0
LINE
  5
3FF
100
AcDbEntity
  8
RACCORDO
100
AcDbLine
 62
250
  6
CONTINUOUS
 10
157.7341760914
 20
128.8057008474
 11
157.7341760914
 21
128.4059445166
  0
LINE
  5
400
100
AcDbEntity
  8
RACCORDO
100
AcDbLine
 62
250
  6
CONTINUOUS
 10
157.7341760914
 20
87.8057008474
 11
157.7341760914
 21
87.4059445166
  0
LINE
  5
401
100
AcDbEntity
  8
RACCORDO
100
AcDbLine
 62
250
  6
CONTINUOUS
 10
157.7341760914
 20
77.6331498276
 11
157.7341760912
 21
78.0329061584
  0
LINE
  5
402
100
AcDbEntity
  8
RACCORDO
100
AcDbLine
 62
250
  6
CONTINUOUS
 10
157.7341760914
 20
118.6331498276
 11
157.7341760912
 21
119.0329061584
  0
LWPOLYLINE
  5
403
100
AcDbEntity
  8
RACCORDO
100
AcDbPolyline
 62
250
  6
CONTINUOUS
 90
12
 70
0
 10
154.4999420338
 20
68.1714537142
 10
154.4995300633
 20
68.1610832416
 10
154.4982737111
 20
68.1507123089
 10
154.4961434477
 20
68.1403119369
 10
154.4931401545
 20
68.1298598277
 10
154.4892237313
 20
68.1193164389
 10
154.4842406898
 20
68.1086141334
 10
154.4780959739
 20
68.0976174313
 10
154.4707082803
 20
68.0863518884
 10
154.4618224084
 20
68.0749546089
 10
154.451233014
 20
68.0633944696
 10
154.4388539004
 20
68.0514887762
  0
LINE
  5
404
100
AcDbEntity
  8
RACCORDO
100
AcDbLine
 62
250
  6
CONTINUOUS
 10
158.7585290521
 20
128.1393637494
 11
158.7564235503
 21
128.0871218209
  0
LWPOLYLINE
  5
405
100
AcDbEntity
  8
0
100
AcDbPolyline
 62
250
  6
CONTINUOUS
 90
3
 70
0
 10
151.5376164426
 20
79.9419921546
 10
151.5468920759
 20
79.9753094941
 10
151.5540479198
 20
80.0081280206
  0
LWPOLYLINE
  5
406
100
AcDbEntity
  8
0
100
AcDbPolyline
 62
250
  6
CONTINUOUS
 90
3
 70
0
 10
149.7849183591
 20
78.1977290963
 10
149.7961683138
 20
78.2371480018
 10
149.7999420337
 20
78.2773249909
  0
LINE
  5
407
100
AcDbEntity
  8
0
100
AcDbLine
 62
250
  6
CONTINUOUS
 10
149.3999419274
 20
87.1615261979
 11
149.5309035224
 21
87.4385474368
  0
LINE
  5
408
100
AcDbEntity
  8
0
100
AcDbLine
 62
250
  6
CONTINUOUS
 10
145.1999421161
 20
78.2773246006
 11
145.0689804916
 21
78.0003033099
  0
LWPOLYLINE
  5
409
100
AcDbEntity
  8
RACCORDO
100
AcDbPolyline
 62
250
  6
CONTINUOUS
 90
3
 70
0
 10
154.4708628246
 20
97.4876564598
 10
154.4451433289
 20
97.4454814634
 10
154.4245462804
 20
97.3997510408
  0
LINE
  5
40A
100
AcDbEntity
  8
RACCORDO
100
AcDbLine
 62
250
  6
CONTINUOUS
 10
134.5209757436
 20
78.7204113133
 11
134.4999420338
 21
78.6993776036
  0
LINE
  5
40B
100
AcDbEntity
  8
RACCORDO
100
AcDbLine
 62
250
  6
CONTINUOUS
 10
135.1206102398
 20
78.1207768171
 11
135.0920507567
 21
78.092217334
  0
LWPOLYLINE
  5
40C
100
AcDbEntity
  8
RACCORDO
100
AcDbPolyline
 62
250
  6
CONTINUOUS
 90
21
 70
0
 10
154.2485779913
 20
97.2973398029
 10
154.2798972404
 20
97.3239304424
 10
154.2894332668
 20
97.3319607894
 10
154.2985276996
 20
97.3395453994
 10
154.3071927111
 20
97.3466983377
 10
154.3154332972
 20
97.3533942451
 10
154.3232606798
 20
97.3596230182
 10
154.3306965966
 20
97.365423904
 10
154.3377460333
 20
97.3707775352
 10
154.3444222513
 20
97.3756742808
 10
154.3507582394
 20
97.3801709195
 10
154.3567593917
 20
97.3842562735
 10
154.3624378555
 20
97.3879190795
 10
154.3678343081
 20
97.3912193163
 10
154.3729552615
 20
97.3941537231
 10
154.3778091771
 20
97.396709115
 10
154.3824365716
 20
97.3989337768
 10
154.3868440973
 20
97.4008300488
 10
154.3910369673
 20
97.4023839178
 10
154.3950505141
 20
97.4036217802
 10
154.3988913873
 20
97.4045498975
  0
LWPOLYLINE
  5
40D
100
AcDbEntity
  8
RACCORDO
100
AcDbPolyline
 62
7
  6
CONTINUOUS
 90
4
 70
0
 10
154.4066954277
 20
97.5098094152
 10
154.302581306
 20
97.444067803
 10
154.2436617634
 20
97.4081065647
 10
154.2001303566
 20
97.3828175886
  0
LWPOLYLINE
  5
40E
100
AcDbEntity
  8
RACCORDO
100
AcDbPolyline
 62
7
  6
CONTINUOUS
 90
6
 70
0
 10
154.2001284801
 20
97.3828259221
 10
154.1936011324
 20
97.3792461074
 10
154.164269523
 20
97.3659631876
 10
154.1356571403
 20
97.3575597305
 10
154.1089265331
 20
97.3539834306
 10
154.0999420302
 20
97.3537398555
  0
LWPOLYLINE
  5
40F
100
AcDbEntity
  8
RACCORDO
100
AcDbPolyline
 62
250
  6
CONTINUOUS
 90
5
 70
0
 10
154.6151656557
 20
97.607730933
 10
154.5740358487
 20
97.5861127313
 10
154.5358566546
 20
97.5585695218
 10
154.5012713934
 20
97.5255653957
 10
154.4708628246
 20
97.4876564598
  0
LINE
  5
410
100
AcDbEntity
  8
RACCORDO
100
AcDbLine
 62
250
  6
CONTINUOUS
 10
149.0999420338
 20
111.3194253375
 11
148.4999420338
 21
111.3194253375
  0
LINE
  5
411
100
AcDbEntity
  8
RACCORDO
100
AcDbLine
 62
250
  6
CONTINUOUS
 10
145.4999420338
 20
111.3194253375
 11
146.0999420338
 21
111.3194253436
  0
LWPOLYLINE
  5
412
100
AcDbEntity
  8
RACCORDO
100
AcDbPolyline
 62
250
  6
CONTINUOUS
 90
5
 70
0
 10
154.615150591
 20
108.8311275453
 10
154.574022275
 20
108.8527485038
 10
154.5358449165
 20
108.8802940267
 10
154.5012617731
 20
108.9132993716
 10
154.4708555254
 20
108.9512078831
  0
LWPOLYLINE
  5
413
100
AcDbEntity
  8
RACCORDO
100
AcDbPolyline
 62
7
  6
CONTINUOUS
 90
3
 70
0
 10
154.2001780622
 20
109.0560040661
 10
154.2463157918
 20
109.0291625681
 10
154.3031974221
 20
108.994398511
  0
LWPOLYLINE
  5
414
100
AcDbEntity
  8
RACCORDO
100
AcDbPolyline
 62
7
  6
CONTINUOUS
 90
7
 70
0
 10
154.4039456666
 20
108.9307625345
 10
154.4490090905
 20
108.9031076933
 10
154.4928188131
 20
108.8780657192
 10
154.5367923896
 20
108.8558590923
 10
154.5819718487
 20
108.8368295971
 10
154.6288995283
 20
108.8215166401
 10
154.6364683169
 20
108.8198324731
  0
LINE
  5
415
100
AcDbEntity
  8
RACCORDO
100
AcDbLine
 62
7
  6
CONTINUOUS
 10
154.3031974221
 20
108.994398511
 11
154.4039456666
 21
108.9307625345
  0
LWPOLYLINE
  5
416
100
AcDbEntity
  8
RACCORDO
100
AcDbPolyline
 62
250
  6
CONTINUOUS
 90
12
 70
0
 10
154.2383451305
 20
109.1499051609
 10
154.2277972242
 20
109.1577935595
 10
154.2169363061
 20
109.1651615487
 10
154.2058231609
 20
109.1720044205
 10
154.1944049358
 20
109.1782993361
 10
154.1825107665
 20
109.1839932286
 10
154.1701273133
 20
109.1890974031
 10
154.1572757007
 20
109.1935445609
 10
154.1438339215
 20
109.1971425635
 10
154.1297673223
 20
109.199796589
 10
154.1151312257
 20
109.2015191225
 10
154.0999420338
 20
109.20226805
  0
LINE
  5
417
100
AcDbEntity
  8
RACCORDO
100
AcDbLine
 62
250
  6
CONTINUOUS
 10
154.2485779913
 20
109.1415108721
 11
154.2383451305
 21
109.1499051609
  0
LWPOLYLINE
  5
418
100
AcDbEntity
  8
RACCORDO
100
AcDbPolyline
 62
250
  6
CONTINUOUS
 90
3
 70
0
 10
154.296048592
 20
109.1013127547
 10
154.2575886815
 20
109.1337557302
 10
154.2485779913
 20
109.1415108721
  0
LINE
  5
419
100
AcDbEntity
  8
RACCORDO
100
AcDbLine
 62
250
  6
CONTINUOUS
 10
134.4999420338
 20
127.7394730715
 11
134.5209757436
 21
127.7184393617
  0
LINE
  5
41A
100
AcDbEntity
  8
RACCORDO
100
AcDbLine
 62
250
  6
CONTINUOUS
 10
135.0920507567
 20
128.346633341
 11
135.1206102398
 21
128.3180738579
  0
LWPOLYLINE
  5
41B
100
AcDbEntity
  8
RACCORDO
100
AcDbPolyline
 62
250
  6
CONTINUOUS
 90
3
 70
0
 10
154.4708555254
 20
108.9512078831
 10
154.4451383955
 20
108.9933806498
 10
154.4245435485
 20
109.0391068844
  0
LWPOLYLINE
  5
41C
100
AcDbEntity
  8
0
100
AcDbPolyline
 62
250
  6
CONTINUOUS
 90
3
 70
0
 10
145.1999420357
 20
128.1615258236
 10
145.1832945731
 20
128.1970615119
 10
145.1352017474
 20
128.2981243791
  0
LWPOLYLINE
  5
41D
100
AcDbEntity
  8
0
100
AcDbPolyline
 62
250
  6
CONTINUOUS
 90
3
 70
0
 10
149.3999420353
 20
119.2773249904
 10
149.416589509
 20
119.2417892683
 10
149.4646824072
 20
119.1407262779
  0
LINE
  5
41E
100
AcDbEntity
  8
0
100
AcDbLine
 62
250
  6
CONTINUOUS
 10
145.1352017474
 20
128.2981243791
 11
145.0689803131
 21
128.4385466102
  0
LINE
  5
41F
100
AcDbEntity
  8
0
100
AcDbLine
 62
250
  6
CONTINUOUS
 10
149.4646824072
 20
119.1407262779
 11
149.5309037496
 21
119.0003038237
  0
LWPOLYLINE
  5
420
100
AcDbEntity
  8
RACCORDO
100
AcDbPolyline
 62
250
  6
CONTINUOUS
 90
13
 70
0
 10
159.9455429009
 20
86.7119426947
 10
159.9400250004
 20
86.7893578668
 10
159.9259048393
 20
86.8654776704
 10
159.9034186869
 20
86.9390284122
 10
159.872942798
 20
87.0087793863
 10
159.8349871181
 20
87.0735634671
 10
159.7901867499
 20
87.1322966393
 10
159.7392913267
 20
87.1839961354
 10
159.6831524686
 20
87.2277968809
 10
159.622709533
 20
87.2629659691
 10
159.5589738961
 20
87.2889149244
 10
159.4930120302
 20
87.3052095497
 10
159.4259276586
 20
87.311577191
  0
LWPOLYLINE
  5
421
100
AcDbEntity
  8
RACCORDO
100
AcDbPolyline
 62
250
  6
CONTINUOUS
 90
13
 70
0
 10
160.0789083241
 20
86.7184393617
 10
160.0736910538
 20
86.7966470859
 10
160.0583188837
 20
86.8735187256
 10
160.0330544288
 20
86.9477410218
 10
159.9983293018
 20
87.0180459764
 10
159.9547367394
 20
87.0832325141
 10
159.9030214679
 20
87.1421870018
 10
159.8440669802
 20
87.1939022733
 10
159.7788804425
 20
87.2374948356
 10
159.708575488
 20
87.2722199627
 10
159.6343531917
 20
87.2974844176
 10
159.557481552
 20
87.3128565876
 10
159.4792738279
 20
87.3180738579
  0
LWPOLYLINE
  5
422
100
AcDbEntity
  8
RACCORDO
100
AcDbPolyline
 62
250
  6
CONTINUOUS
 90
4
 70
0
 10
158.765586806
 20
119.1916195404
 10
158.7584983782
 20
119.2994871926
 10
158.7563882831
 20
119.3517291492
 10
158.7527748743
 20
119.4752344806
  0
LINE
  5
423
100
AcDbEntity
  8
RACCORDO
100
AcDbLine
 62
250
  6
CONTINUOUS
 10
158.7527748743
 20
78.4752344806
 11
158.7514302919
 21
78.5437892027
  0
LINE
  5
424
100
AcDbEntity
  8
RACCORDO
100
AcDbLine
 62
250
  6
CONTINUOUS
 10
158.7527748743
 20
119.4752344806
 11
158.7514302919
 21
119.5437892027
  0
LINE
  5
425
100
AcDbEntity
  8
RACCORDO
100
AcDbLine
 62
250
  6
CONTINUOUS
 10
158.7514302919
 20
78.5437892027
 11
158.7495833706
 21
78.7664381428
  0
LINE
  5
426
100
AcDbEntity
  8
RACCORDO
100
AcDbLine
 62
250
  6
CONTINUOUS
 10
158.7514302919
 20
119.5437892027
 11
158.7495833706
 21
119.7664381428
  0
LINE
  5
427
100
AcDbEntity
  8
RACCORDO
100
AcDbLine
 62
250
  6
CONTINUOUS
 10
158.7495833707
 20
127.6724125322
 11
158.7495833707
 21
119.7664381637
  0
LINE
  5
428
100
AcDbEntity
  8
RACCORDO
100
AcDbLine
 62
250
  6
CONTINUOUS
 10
158.7495833707
 20
86.6724125322
 11
158.7495833707
 21
78.7664381637
  0
LINE
  5
429
100
AcDbEntity
  8
RACCORDO
100
AcDbLine
 62
250
  6
CONTINUOUS
 10
159.2919848523
 20
127.6724125322
 11
159.2919848523
 21
119.7664381428
  0
LINE
  5
42A
100
AcDbEntity
  8
RACCORDO
100
AcDbLine
 62
250
  6
CONTINUOUS
 10
159.2919848523
 20
86.6724125322
 11
159.2919848523
 21
78.7664381428
  0
LINE
  5
42B
100
AcDbEntity
  8
RACCORDO
100
AcDbLine
 62
7
  6
CONTINUOUS
 10
159.2999420338
 20
76.3190598337
 11
159.2999420338
 21
77.6331498276
  0
LINE
  5
42C
100
AcDbEntity
  8
RACCORDO
100
AcDbLine
 62
7
  6
CONTINUOUS
 10
159.2999420338
 20
87.8057008474
 11
159.2999420338
 21
89.1197908413
  0
LINE
  5
42D
100
AcDbEntity
  8
RACCORDO
100
AcDbLine
 62
7
  6
CONTINUOUS
 10
159.2999420338
 20
117.3190598337
 11
159.2999420338
 21
118.6331498276
  0
LINE
  5
42E
100
AcDbEntity
  8
RACCORDO
100
AcDbLine
 62
7
  6
CONTINUOUS
 10
159.2999420338
 20
128.8057008474
 11
159.2999420338
 21
130.1197908413
  0
LINE
  5
42F
100
AcDbEntity
  8
RACCORDO
100
AcDbLine
 62
250
  6
CONTINUOUS
 10
159.9455429009
 20
127.7119426947
 11
159.9455429009
 21
119.7269079803
  0
LINE
  5
430
100
AcDbEntity
  8
RACCORDO
100
AcDbLine
 62
250
  6
CONTINUOUS
 10
159.9455429009
 20
86.7119426947
 11
159.9455429009
 21
78.7269079803
  0
LINE
  5
431
100
AcDbEntity
  8
RACCORDO
100
AcDbLine
 62
250
  6
CONTINUOUS
 10
160.0789083241
 20
127.7184393617
 11
160.0789083241
 21
119.7204113133
  0
LINE
  5
432
100
AcDbEntity
  8
RACCORDO
100
AcDbLine
 62
250
  6
CONTINUOUS
 10
160.0789083241
 20
86.7184393617
 11
160.0789083241
 21
78.7204113133
  0
LINE
  5
433
100
AcDbEntity
  8
RACCORDO
100
AcDbLine
 62
7
  6
CONTINUOUS
 10
160.0999420338
 20
78.6993776036
 11
160.0999420338
 21
86.7394730715
  0
LINE
  5
434
100
AcDbEntity
  8
RACCORDO
100
AcDbLine
 62
7
  6
CONTINUOUS
 10
160.0999420338
 20
119.6993776036
 11
160.0999420338
 21
127.7394730715
  0
LINE
  5
435
100
AcDbEntity
  8
RACCORDO
100
AcDbLine
 62
250
  6
CONTINUOUS
 10
158.751475475
 20
127.8950617539
 11
158.7495833707
 21
127.6724125322
  0
LINE
  5
436
100
AcDbEntity
  8
RACCORDO
100
AcDbLine
 62
250
  6
CONTINUOUS
 10
158.751475475
 20
86.8950617539
 11
158.7495833707
 21
86.6724125322
  0
LWPOLYLINE
  5
437
100
AcDbEntity
  8
RACCORDO
100
AcDbPolyline
 62
250
  6
CONTINUOUS
 90
3
 70
0
 10
158.7564235503
 20
128.0871218209
 10
158.7528209347
 20
127.9636175081
 10
158.751475475
 20
127.8950617539
  0
LWPOLYLINE
  5
438
100
AcDbEntity
  8
RACCORDO
100
AcDbPolyline
 62
250
  6
CONTINUOUS
 90
3
 70
0
 10
158.7564235503
 20
87.0871218209
 10
158.7528209347
 20
86.9636175081
 10
158.751475475
 20
86.8950617539
  0
LINE
  5
439
100
AcDbEntity
  8
RACCORDO
100
AcDbLine
 62
250
  6
CONTINUOUS
 10
158.7585290521
 20
87.1393637494
 11
158.7564235503
 21
87.0871218209
  0
LWPOLYLINE
  5
43A
100
AcDbEntity
  8
RACCORDO
100
AcDbPolyline
 62
250
  6
CONTINUOUS
 90
13
 70
0
 10
160.0789083241
 20
119.7204113133
 10
160.0736910538
 20
119.6422035892
 10
160.0583188837
 20
119.5653319495
 10
160.0330544288
 20
119.4911096532
 10
159.9983293018
 20
119.4208046987
 10
159.9547367394
 20
119.3556181609
 10
159.9030214679
 20
119.2966636733
 10
159.8440669802
 20
119.2449484018
 10
159.7788804425
 20
119.2013558394
 10
159.708575488
 20
119.1666307124
 10
159.6343531917
 20
119.1413662575
 10
159.557481552
 20
119.1259940874
 10
159.4792738279
 20
119.1207768171
  0
LWPOLYLINE
  5
43B
100
AcDbEntity
  8
RACCORDO
100
AcDbPolyline
 62
250
  6
CONTINUOUS
 90
13
 70
0
 10
159.9455429009
 20
119.7269079803
 10
159.9400250004
 20
119.6494928082
 10
159.9259048393
 20
119.5733730046
 10
159.9034186869
 20
119.4998222628
 10
159.872942798
 20
119.4300712888
 10
159.8349871181
 20
119.3652872079
 10
159.7901867499
 20
119.3065540358
 10
159.7392913267
 20
119.2548545396
 10
159.6831524686
 20
119.2110537941
 10
159.622709533
 20
119.175884706
 10
159.5589738961
 20
119.1499357506
 10
159.4930120302
 20
119.1336411254
 10
159.4259276585
 20
119.1272734841
  0
LWPOLYLINE
  5
43C
100
AcDbEntity
  8
0
100
AcDbPolyline
 62
250
  6
CONTINUOUS
 90
3
 70
0
 10
151.5120762855
 20
79.8742870987
 10
151.526077281
 20
79.9083087381
 10
151.5376164426
 20
79.9419921546
  0
LWPOLYLINE
  5
43D
100
AcDbEntity
  8
RACCORDO
100
AcDbPolyline
 62
250
  6
CONTINUOUS
 90
3
 70
0
 10
140.1290212431
 20
67.9511942152
 10
140.1547407388
 20
67.9933692116
 10
140.1753377873
 20
68.0390996342
  0
LINE
  5
43E
100
AcDbEntity
  8
RACCORDO
100
AcDbLine
 62
250
  6
CONTINUOUS
 10
136.5940885638
 20
87.2975286544
 11
136.8657079762
 21
87.4059445166
  0
LINE
  5
43F
100
AcDbEntity
  8
RACCORDO
100
AcDbLine
 62
250
  6
CONTINUOUS
 10
137.1918053826
 20
86.6978941582
 11
137.4679966242
 21
86.8081348487
  0
LINE
  5
440
100
AcDbEntity
  8
RACCORDO
100
AcDbLine
 62
250
  6
CONTINUOUS
 10
136.8657079762
 20
119.0329061584
 11
136.5940885638
 21
119.1413220206
  0
LINE
  5
441
100
AcDbEntity
  8
RACCORDO
100
AcDbLine
 62
250
  6
CONTINUOUS
 10
137.4679966242
 20
119.6307158263
 11
137.1918053826
 21
119.7409565169
  0
LWPOLYLINE
  5
442
100
AcDbEntity
  8
RACCORDO
100
AcDbPolyline
 62
250
  6
CONTINUOUS
 90
3
 70
0
 10
140.1290285423
 20
138.487642792
 10
140.1547456722
 20
138.4454700253
 10
140.1753405192
 20
138.3997437906
  0
LWPOLYLINE
  5
443
100
AcDbEntity
  8
0
100
AcDbPolyline
 62
250
  6
CONTINUOUS
 90
4
 70
0
 10
151.540432838
 20
126.4874964492
 10
151.5324109283
 20
126.5128666625
 10
151.5231483895
 20
126.538171274
 10
151.5126234091
 20
126.5633383941
  0
LWPOLYLINE
  5
444
100
AcDbEntity
  8
RACCORDO
100
AcDbPolyline
 62
250
  6
CONTINUOUS
 90
13
 70
0
 10
159.9455429009
 20
127.7119426947
 10
159.9400250004
 20
127.7893578668
 10
159.9259048393
 20
127.8654776704
 10
159.9034186869
 20
127.9390284122
 10
159.872942798
 20
128.0087793863
 10
159.8349871181
 20
128.0735634671
 10
159.7901867499
 20
128.1322966393
 10
159.7392913267
 20
128.1839961354
 10
159.6831524686
 20
128.2277968809
 10
159.622709533
 20
128.2629659691
 10
159.5589738961
 20
128.2889149244
 10
159.4930120302
 20
128.3052095497
 10
159.4259276586
 20
128.311577191
  0
LWPOLYLINE
  5
445
100
AcDbEntity
  8
RACCORDO
100
AcDbPolyline
 62
250
  6
CONTINUOUS
 90
13
 70
0
 10
160.0789083241
 20
127.7184393617
 10
160.0736910538
 20
127.7966470859
 10
160.0583188837
 20
127.8735187256
 10
160.0330544288
 20
127.9477410218
 10
159.9983293018
 20
128.0180459764
 10
159.9547367394
 20
128.0832325141
 10
159.9030214679
 20
128.1421870018
 10
159.8440669802
 20
128.1939022733
 10
159.7788804425
 20
128.2374948356
 10
159.708575488
 20
128.2722199627
 10
159.6343531917
 20
128.2974844176
 10
159.557481552
 20
128.3128565876
 10
159.4792738279
 20
128.3180738579
  0
LINE
  5
446
100
AcDbEntity
  8
RACCORDO
100
AcDbLine
 62
7
  6
CONTINUOUS
 10
162.2999420338
 20
133.1270999429
 11
162.2999420338
 21
131.71820727
  0
LINE
  5
447
100
AcDbEntity
  8
RACCORDO
100
AcDbLine
 62
7
  6
CONTINUOUS
 10
162.2999420338
 20
115.7206434051
 11
162.2999420338
 21
114.3117507321
  0
LINE
  5
448
100
AcDbEntity
  8
RACCORDO
100
AcDbLine
 62
7
  6
CONTINUOUS
 10
162.2999420338
 20
92.1270999429
 11
162.2999420338
 21
90.71820727
  0
LINE
  5
449
100
AcDbEntity
  8
RACCORDO
100
AcDbLine
 62
7
  6
CONTINUOUS
 10
162.2999420338
 20
74.7206434051
 11
162.2999420338
 21
73.3117507321
  0
LWPOLYLINE
  5
44A
100
AcDbEntity
  8
RACCORDO
100
AcDbPolyline
 62
250
  6
CONTINUOUS
 90
13
 70
0
 10
160.0789083241
 20
78.7204113133
 10
160.0736910538
 20
78.6422035892
 10
160.0583188837
 20
78.5653319495
 10
160.0330544288
 20
78.4911096532
 10
159.9983293018
 20
78.4208046987
 10
159.9547367394
 20
78.3556181609
 10
159.9030214679
 20
78.2966636733
 10
159.8440669802
 20
78.2449484018
 10
159.7788804425
 20
78.2013558394
 10
159.708575488
 20
78.1666307124
 10
159.6343531917
 20
78.1413662575
 10
159.557481552
 20
78.1259940874
 10
159.4792738279
 20
78.1207768171
  0
LWPOLYLINE
  5
44B
100
AcDbEntity
  8
RACCORDO
100
AcDbPolyline
 62
250
  6
CONTINUOUS
 90
13
 70
0
 10
159.9455429009
 20
78.7269079803
 10
159.9400250004
 20
78.6494928082
 10
159.9259048393
 20
78.5733730046
 10
159.9034186869
 20
78.4998222628
 10
159.872942798
 20
78.4300712888
 10
159.8349871181
 20
78.3652872079
 10
159.7901867499
 20
78.3065540358
 10
159.7392913267
 20
78.2548545396
 10
159.6831524686
 20
78.2110537941
 10
159.622709533
 20
78.175884706
 10
159.5589738961
 20
78.1499357506
 10
159.4930120302
 20
78.1336411254
 10
159.4259276585
 20
78.1272734841
  0
LWPOLYLINE
  5
44C
100
AcDbEntity
  8
0
100
AcDbPolyline
 62
250
  6
CONTINUOUS
 90
3
 70
0
 10
143.052809501
 20
80.9320237064
 10
143.0150434344
 20
80.9035900649
 10
142.9999420338
 20
80.8911120595
  0
LWPOLYLINE
  5
44D
100
AcDbEntity
  8
0
100
AcDbPolyline
 62
7
  6
CONTINUOUS
 90
3
 70
0
 10
149.7999420338
 20
87.0763181842
 10
149.7946855754
 20
87.0731306351
 10
149.7786738921
 20
87.0637796404
  0
LWPOLYLINE
  5
44E
100
AcDbEntity
  8
0
100
AcDbPolyline
 62
7
  6
CONTINUOUS
 90
4
 70
0
 10
149.6666487921
 20
86.9978316707
 10
149.5452028642
 20
86.9273159171
 10
149.4744989442
 20
86.885098651
 10
149.3999420338
 20
86.8380894068
  0
LWPOLYLINE
  5
44F
100
AcDbEntity
  8
0
100
AcDbPolyline
 62
7
  6
CONTINUOUS
 90
3
 70
0
 10
149.7786738921
 20
87.0637796404
 10
149.7517780653
 20
87.0482652001
 10
149.6666487921
 20
86.9978316707
  0
LWPOLYLINE
  5
450
100
AcDbEntity
  8
RACCORDO
100
AcDbPolyline
 62
250
  6
CONTINUOUS
 90
10
 70
0
 10
135.1206102398
 20
78.1207768171
 10
135.1219027213
 20
78.121520625
 10
135.1243484295
 20
78.122260318
 10
135.1279473646
 20
78.1229958964
 10
135.1326922053
 20
78.1237291921
 10
135.1385902728
 20
78.1244583732
 10
135.1456635306
 20
78.1251779425
 10
135.1539192998
 20
78.125886068
 10
135.1633502593
 20
78.1265845819
 10
135.1739564091
 20
78.1272734841
  0
LWPOLYLINE
  5
451
100
AcDbEntity
  8
0
100
AcDbPolyline
 62
250
  6
CONTINUOUS
 90
8
 70
0
 10
145.0689803131
 20
87.4385466102
 10
145.0184215736
 20
87.4227790226
 10
144.9712878708
 20
87.4020819514
 10
144.9284685516
 20
87.3768459203
 10
144.8907715567
 20
87.3475470966
 10
144.8589081755
 20
87.3147383085
 10
144.8334796253
 20
87.2790386146
 10
144.8149657073
 20
87.2411216192
  0
LWPOLYLINE
  5
452
100
AcDbEntity
  8
RACCORDO
100
AcDbPolyline
 62
250
  6
CONTINUOUS
 90
13
 70
0
 10
158.77236961
 20
119.1668036466
 10
158.8394623566
 20
119.1731727145
 10
158.9055899916
 20
119.1895226706
 10
158.9696281619
 20
119.2156497973
 10
159.0306020244
 20
119.2512682048
 10
159.0873016726
 20
119.2957894799
 10
159.13840735
 20
119.3481464784
 10
159.1830078693
 20
119.4071856689
 10
159.2205829142
 20
119.4719691221
 10
159.2506407968
 20
119.5414744176
 10
159.2727504236
 20
119.6145624774
 10
159.2865870802
 20
119.6899673268
 10
159.2919848523
 20
119.7664381428
  0
LWPOLYLINE
  5
453
100
AcDbEntity
  8
RACCORDO
100
AcDbPolyline
 62
250
  6
CONTINUOUS
 90
10
 70
0
 10
158.3091890255
 20
119.160873305
 10
158.2538675773
 20
119.1592360122
 10
158.2049160113
 20
119.1574626551
 10
158.161138019
 20
119.1555737751
 10
158.1220950901
 20
119.1535959811
 10
158.0882257349
 20
119.1515026641
 10
158.0596491765
 20
119.1492345381
 10
158.0364051556
 20
119.1467718413
 10
158.0184539314
 20
119.1441343354
 10
158.0057955039
 20
119.1413220206
  0
LWPOLYLINE
  5
454
100
AcDbEntity
  8
RACCORDO
100
AcDbPolyline
 62
250
  6
CONTINUOUS
 90
34
 70
0
 10
136.8657079762
 20
118.6331498276
 10
136.9019060576
 20
118.6338704118
 10
136.9375974326
 20
118.6357739324
 10
136.9727821013
 20
118.6388603893
 10
137.0073141971
 20
118.6431161462
 10
137.0413395866
 20
118.6485548393
 10
137.0752958691
 20
118.6552173779
 10
137.109260944
 20
118.6630571934
 10
137.1431569119
 20
118.6721208542
 10
137.1771876738
 20
118.682588975
 10
137.2113486586
 20
118.6943955222
 10
137.2456444374
 20
118.7076065295
 10
137.2802926244
 20
118.7226007118
 10
137.3154189442
 20
118.7393701981
 10
137.3508976722
 20
118.7579228595
 10
137.3865692483
 20
118.7786610243
 10
137.4225247441
 20
118.8015993623
 10
137.458673088
 20
118.8267232037
 10
137.4945815058
 20
118.8543908679
 10
137.5302942717
 20
118.8845964629
 10
137.5657671115
 20
118.9173458807
 10
137.600434428
 20
118.9530151156
 10
137.6343733925
 20
118.9916229154
 10
137.6675068336
 20
119.0331505323
 10
137.6990376404
 20
119.0779177177
 10
137.7290615452
 20
119.1259776696
 10
137.7574828156
 20
119.17727719
 10
137.7832171429
 20
119.2319764362
 10
137.8063680605
 20
119.2901721512
 10
137.826832035
 20
119.3517675921
 10
137.8432141575
 20
119.4166326872
 10
137.8550494582
 20
119.4847240793
 10
137.8628029069
 20
119.5560851257
 10
137.8664745034
 20
119.6307158263
  0
LINE
  5
455
100
AcDbEntity
  8
RACCORDO
100
AcDbLine
 62
7
  6
CONTINUOUS
 10
159.5078333109
 20
119.092217334
 11
159.3709947963
 21
119.0904781
  0
LINE
  5
456
100
AcDbEntity
  8
RACCORDO
100
AcDbLine
 62
7
  6
CONTINUOUS
 10
161.300398693
 20
116.7194253375
 11
159.89957653
 21
116.7194253375
  0
LINE
  5
457
100
AcDbEntity
  8
RACCORDO
100
AcDbLine
 62
7
  6
CONTINUOUS
 10
133.2994853747
 20
116.7194253375
 11
134.7003075376
 21
116.7194253375
  0
LINE
  5
458
100
AcDbEntity
  8
RACCORDO
100
AcDbLine
 62
250
  6
CONTINUOUS
 10
135.2999420338
 20
118.6331498276
 11
136.8657079762
 21
118.6331498276
  0
LINE
  5
459
100
AcDbEntity
  8
RACCORDO
100
AcDbLine
 62
250
  6
CONTINUOUS
 10
157.7341760914
 20
118.6331498276
 11
159.2999420338
 21
118.6331498276
  0
LINE
  5
45A
100
AcDbEntity
  8
RACCORDO
100
AcDbLine
 62
7
  6
CONTINUOUS
 10
135.2288892713
 20
119.0904781
 11
135.0920507567
 21
119.092217334
  0
LWPOLYLINE
  5
45B
100
AcDbEntity
  8
RACCORDO
100
AcDbPolyline
 62
250
  6
CONTINUOUS
 90
13
 70
0
 10
135.8275144577
 20
119.1668036466
 10
135.7602740194
 20
119.173197899
 10
135.6941770964
 20
119.1895608388
 10
135.6303333823
 20
119.2156115699
 10
135.5698187355
 20
119.2509033172
 10
135.513641063
 20
119.2948400691
 10
135.4627275952
 20
119.346694098
 10
135.4178967337
 20
119.4056520838
 10
135.3799515652
 20
119.4706808417
 10
135.3495956285
 20
119.540513264
 10
135.3272969725
 20
119.6138888639
 10
135.3133410762
 20
119.6896195282
 10
135.3078992154
 20
119.7664381428
  0
LWPOLYLINE
  5
45C
100
AcDbEntity
  8
RACCORDO
100
AcDbPolyline
 62
250
  6
CONTINUOUS
 90
7
 70
0
 10
137.1918053826
 20
119.7409558522
 10
137.1688693763
 20
119.7441412147
 10
137.1297659494
 20
119.7471100056
 10
137.0766680787
 20
119.749862225
 10
137.0118562146
 20
119.7524017467
 10
136.9374088376
 20
119.7547246969
 10
136.7672553875
 20
119.758668229
  0
LWPOLYLINE
  5
45D
100
AcDbEntity
  8
RACCORDO
100
AcDbPolyline
 62
250
  6
CONTINUOUS
 90
11
 70
0
 10
136.5940885638
 20
119.1413220206
 10
136.5789215853
 20
119.1445051088
 10
136.5569906655
 20
119.1474725605
 10
136.5282958045
 20
119.1502243758
 10
136.4917737404
 20
119.1527649767
 10
136.4484877351
 20
119.1550899412
 10
136.4016275739
 20
119.1571860031
 10
136.3520822124
 20
119.1590344446
 10
136.2989626951
 20
119.1606539836
 10
136.2427919403
 20
119.1620875073
 10
136.1227729461
 20
119.1644298755
  0
LINE
  5
45E
100
AcDbEntity
  8
0
100
AcDbLine
 62
7
  6
CONTINUOUS
 10
149.7786850362
 20
119.3750609886
 11
149.7517955713
 21
119.3905752716
  0
LWPOLYLINE
  5
45F
100
AcDbEntity
  8
0
100
AcDbPolyline
 62
7
  6
CONTINUOUS
 90
3
 70
0
 10
149.7517955713
 20
119.3905752716
 10
149.6666478664
 20
119.4410224379
 10
149.5451846692
 20
119.5115437027
  0
LWPOLYLINE
  5
460
100
AcDbEntity
  8
0
100
AcDbPolyline
 62
7
  6
CONTINUOUS
 90
3
 70
0
 10
149.5451846692
 20
119.5115437027
 10
149.4744854465
 20
119.5537580397
 10
149.3999420338
 20
119.6007612683
  0
LWPOLYLINE
  5
461
100
AcDbEntity
  8
0
100
AcDbPolyline
 62
7
  6
CONTINUOUS
 90
3
 70
0
 10
149.7999420338
 20
119.3625324909
 10
149.7946891902
 20
119.365713395
 10
149.7786850362
 20
119.3750609886
  0
LWPOLYLINE
  5
462
100
AcDbEntity
  8
0
100
AcDbPolyline
 62
250
  6
CONTINUOUS
 90
3
 70
0
 10
142.9999420338
 20
125.5477503705
 10
143.0263245818
 20
125.5265335122
 10
143.0642245003
 20
125.4988269359
  0
LWPOLYLINE
  5
463
100
AcDbEntity
  8
0
100
AcDbPolyline
 62
250
  6
CONTINUOUS
 90
8
 70
0
 10
149.7849183527
 20
128.2411220286
 10
149.7664044331
 20
128.2790388595
 10
149.7409758817
 20
128.314738404
 10
149.7091125
 20
128.3475470538
 10
149.6714155064
 20
128.3768457343
 10
149.6285961912
 20
128.4020816154
 10
149.5814624948
 20
128.4227785424
 10
149.5309037642
 20
128.4385459991
  0
LWPOLYLINE
  5
464
100
AcDbEntity
  8
0
100
AcDbPolyline
 62
250
  6
CONTINUOUS
 90
4
 70
0
 10
151.5126234091
 20
126.5633383941
 10
151.500548608
 20
126.588830705
 10
151.4867348193
 20
126.6147086394
 10
151.4711758978
 20
126.6406649173
  0
LWPOLYLINE
  5
465
100
AcDbEntity
  8
RACCORDO
100
AcDbPolyline
 62
250
  6
CONTINUOUS
 90
4
 70
0
 10
158.77236961
 20
87.2720470285
 10
158.7682320637
 20
87.2645250307
 10
158.7656003299
 20
87.2472311793
 10
158.7585290521
 20
87.1393637494
  0
LWPOLYLINE
  5
466
100
AcDbEntity
  8
0
100
AcDbPolyline
 62
250
  6
CONTINUOUS
 90
4
 70
0
 10
151.4537911578
 20
79.7722893162
 10
151.4760505647
 20
79.8060036739
 10
151.4954393785
 20
79.8400897234
 10
151.5120762855
 20
79.8742870987
  0
LINE
  5
467
100
AcDbEntity
  8
0
100
AcDbLine
 62
250
  6
CONTINUOUS
 10
144.902981585
 20
80.753571679
 11
144.2844111472
 21
80.2462546073
  0
LINE
  5
468
100
AcDbEntity
  8
0
100
AcDbLine
 62
250
  6
CONTINUOUS
 10
149.6969024827
 20
84.6852789961
 11
150.3154729205
 21
85.1925960677
  0
LWPOLYLINE
  5
469
100
AcDbEntity
  8
0
100
AcDbPolyline
 62
250
  6
CONTINUOUS
 90
3
 70
0
 10
151.5470745666
 20
84.5068269686
 10
151.5848406332
 20
84.5352606102
 10
151.5999420338
 20
84.5477386155
  0
LINE
  5
46A
100
AcDbEntity
  8
0
100
AcDbLine
 62
250
  6
CONTINUOUS
 10
151.3635905447
 20
85.6720600697
 11
151.0400414084
 21
85.4369702561
  0
LINE
  5
46B
100
AcDbEntity
  8
0
100
AcDbLine
 62
250
  6
CONTINUOUS
 10
143.236293523
 20
79.7667906053
 11
143.5598426593
 21
80.001880419
  0
LINE
  5
46C
100
AcDbEntity
  8
0
100
AcDbLine
 62
250
  6
CONTINUOUS
 10
143.0601506581
 20
79.7113137021
 11
143.146092895
 21
79.7722893327
  0
LINE
  5
46D
100
AcDbEntity
  8
0
100
AcDbLine
 62
250
  6
CONTINUOUS
 10
151.5397334106
 20
85.7275369713
 11
151.4537911562
 21
85.6665613656
  0
LWPOLYLINE
  5
46E
100
AcDbEntity
  8
0
100
AcDbPolyline
 62
250
  6
CONTINUOUS
 90
23
 70
0
 10
143.3117062151
 20
80.6245147777
 10
143.2858733976
 20
80.6069961252
 10
143.2632076936
 20
80.5899241735
 10
143.2418642228
 20
80.5722265005
 10
143.221817068
 20
80.5539966077
 10
143.2028265025
 20
80.5351025144
 10
143.1848965523
 20
80.515605582
 10
143.1680374588
 20
80.4955762853
 10
143.1520725061
 20
80.4748366681
 10
143.1370274551
 20
80.4534209873
 10
143.1229345267
 20
80.431375871
 10
143.109684968
 20
80.4084986969
 10
143.0973100032
 20
80.3847638769
 10
143.0858967374
 20
80.3602512606
 10
143.0754638234
 20
80.334896267
 10
143.0660489069
 20
80.3086356203
 10
143.0577628369
 20
80.2816014317
 10
143.0507199555
 20
80.2540321985
 10
143.0449542536
 20
80.225947086
 10
143.0405140633
 20
80.1974407914
 10
143.0374607793
 20
80.1688847307
 10
143.035783872
 20
80.1403785957
 10
143.0354642341
 20
80.1119560375
  0
LWPOLYLINE
  5
46F
100
AcDbEntity
  8
0
100
AcDbPolyline
 62
250
  6
CONTINUOUS
 90
23
 70
0
 10
151.2881778525
 20
84.8143358973
 10
151.3140106701
 20
84.8318545498
 10
151.336676374
 20
84.8489265015
 10
151.3580198449
 20
84.8666241745
 10
151.3780669996
 20
84.8848540674
 10
151.3970575652
 20
84.9037481606
 10
151.4149875154
 20
84.9232450931
 10
151.4318466089
 20
84.9432743898
 10
151.4478115616
 20
84.964014007
 10
151.4628566126
 20
84.9854296878
 10
151.4769495409
 20
85.0074748041
 10
151.4901990996
 20
85.0303519781
 10
151.5025740645
 20
85.0540867982
 10
151.5139873303
 20
85.0785994144
 10
151.5244202442
 20
85.1039544081
 10
151.5338351608
 20
85.1302150547
 10
151.5421212307
 20
85.1572492433
 10
151.5491641121
 20
85.1848184765
 10
151.5549298141
 20
85.212903589
 10
151.5593700044
 20
85.2414098836
 10
151.5624232883
 20
85.2699659444
 10
151.5641001956
 20
85.2984720794
 10
151.5644198335
 20
85.3268946376
  0
LWPOLYLINE
  5
470
100
AcDbEntity
  8
RACCORDO
100
AcDbPolyline
 62
250
  6
CONTINUOUS
 90
10
 70
0
 10
136.5940885638
 20
119.1413220206
 10
136.6976757995
 20
119.1507115634
 10
136.7981298822
 20
119.1779644847
 10
136.8924103893
 20
119.222256916
 10
136.9776636201
 20
119.2822493125
 10
137.0513085334
 20
119.3561266288
 10
137.1111151229
 20
119.4416529718
 10
137.1552725266
 20
119.5362398089
 10
137.1824436518
 20
119.63702451
 10
137.1918053862
 20
119.7409565154
  0
LINE
  5
471
100
AcDbEntity
  8
RACCORDO
100
AcDbLine
 62
250
  6
CONTINUOUS
 10
135.8275144577
 20
119.1668036466
 11
135.1739564091
 21
119.1272734841
  0
LINE
  5
472
100
AcDbEntity
  8
RACCORDO
100
AcDbLine
 62
250
  6
CONTINUOUS
 10
135.3078992154
 20
119.7664381428
 11
134.6543411668
 21
119.7269079803
  0
LINE
  5
473
100
AcDbEntity
  8
0
100
AcDbLine
 62
250
  6
CONTINUOUS
 10
151.4537911611
 20
120.7722893164
 11
151.3635905467
 21
120.7667906038
  0
LWPOLYLINE
  5
474
100
AcDbEntity
  8
RACCORDO
100
AcDbPolyline
 62
250
  6
CONTINUOUS
 90
8
 70
0
 10
134.6042490409
 20
119.7255199002
 10
134.5836089737
 20
119.7248117693
 10
134.5659253502
 20
119.7240925555
 10
134.5511751764
 20
119.7233639479
 10
134.539318554
 20
119.7226310132
 10
134.53034143
 20
119.7218954404
 10
134.5242358326
 20
119.7211555404
 10
134.5209757436
 20
119.7204113133
  0
LWPOLYLINE
  5
475
100
AcDbEntity
  8
RACCORDO
100
AcDbPolyline
 62
250
  6
CONTINUOUS
 90
7
 70
0
 10
157.6799280994
 20
119.7552069075
 10
157.6121667316
 20
119.7532302537
 10
157.5535863887
 20
119.7511387741
 10
157.5023225935
 20
119.7488717341
 10
157.4594352167
 20
119.7464088888
 10
157.4274578603
 20
119.743770483
 10
157.4080786851
 20
119.7409565169
  0
LINE
  5
476
100
AcDbEntity
  8
RACCORDO
100
AcDbLine
 62
250
  6
CONTINUOUS
 10
134.6543411668
 20
119.7269079803
 11
134.6042490409
 21
119.7255199002
  0
LINE
  5
477
100
AcDbEntity
  8
RACCORDO
100
AcDbLine
 62
250
  6
CONTINUOUS
 10
157.8424132685
 20
119.7588707128
 11
157.6799280994
 21
119.7552069075
  0
LWPOLYLINE
  5
478
100
AcDbEntity
  8
RACCORDO
100
AcDbPolyline
 62
250
  6
CONTINUOUS
 90
34
 70
0
 10
136.8657079762
 20
119.0329061584
 10
136.8874958168
 20
119.0332516555
 10
136.9090252167
 20
119.0343599419
 10
136.9302704658
 20
119.0362055392
 10
136.9510946674
 20
119.038746484
 10
136.9715896994
 20
119.0419644812
 10
136.9920700391
 20
119.0459034883
 10
137.012546576
 20
119.0505794248
 10
137.0329543003
 20
119.0559918285
 10
137.0534811784
 20
119.0622162466
 10
137.0740687244
 20
119.0692711704
 10
137.0947010812
 20
119.0771889733
 10
137.1156085846
 20
119.0861177463
 10
137.1367789081
 20
119.0961333027
 10
137.1581010624
 20
119.1072688623
 10
137.179629177
 20
119.1196523022
 10
137.2013009181
 20
119.1333611233
 10
137.2229995241
 20
119.1484423231
 10
137.2446725914
 20
119.1649959869
 10
137.2661942173
 20
119.1830696698
 10
137.2874524647
 20
119.2027242812
 10
137.3083861192
 20
119.2240899952
 10
137.3288371197
 20
119.2472096364
 10
137.3486437428
 20
119.272124697
 10
137.3676959952
 20
119.2989725034
 10
137.3857880259
 20
119.3277723568
 10
137.4027060075
 20
119.3585340908
 10
137.4182725144
 20
119.3913802671
 10
137.4322245355
 20
119.4262783006
 10
137.4442944219
 20
119.4631852032
 10
137.4542293109
 20
119.5021905817
 10
137.4617147302
 20
119.5432460895
 10
137.4664127317
 20
119.5861505864
 10
137.4679965822
 20
119.6307158431
  0
LWPOLYLINE
  5
479
100
AcDbEntity
  8
RACCORDO
100
AcDbPolyline
 62
250
  6
CONTINUOUS
 90
3
 70
0
 10
158.5145689706
 20
119.1649482568
 10
158.4401026805
 20
119.1637997063
 10
158.3091890255
 20
119.160873305
  0
LINE
  5
47A
100
AcDbEntity
  8
RACCORDO
100
AcDbLine
 62
250
  6
CONTINUOUS
 10
158.0477266441
 20
119.7620393451
 11
157.8424132685
 21
119.7588707128
  0
LINE
  5
47B
100
AcDbEntity
  8
RACCORDO
100
AcDbLine
 62
250
  6
CONTINUOUS
 10
158.2984322607
 20
119.7645814076
 11
158.0477266441
 21
119.7620393451
  0
LWPOLYLINE
  5
47C
100
AcDbEntity
  8
RACCORDO
100
AcDbPolyline
 62
250
  6
CONTINUOUS
 90
3
 70
0
 10
158.77236961
 20
119.1668036466
 10
158.6806115419
 20
119.1664318013
 10
158.5145689706
 20
119.1649482568
  0
LINE
  5
47D
100
AcDbEntity
  8
RACCORDO
100
AcDbLine
 62
250
  6
CONTINUOUS
 10
158.7495833707
 20
119.7664381637
 11
158.2984322607
 21
119.7645814076
  0
LINE
  5
47E
100
AcDbEntity
  8
RACCORDO
100
AcDbLine
 62
250
  6
CONTINUOUS
 10
135.2864612129
 20
119.0329061584
 11
136.8657079762
 21
119.0329061584
  0
LINE
  5
47F
100
AcDbEntity
  8
RACCORDO
100
AcDbLine
 62
250
  6
CONTINUOUS
 10
157.7341760914
 20
119.0329061584
 11
159.3134228547
 21
119.0329061584
  0
LINE
  5
480
100
AcDbEntity
  8
0
100
AcDbLine
 62
250
  6
CONTINUOUS
 10
145.1999420338
 20
119.2773243263
 11
144.7999420338
 21
119.2773243262
  0
LINE
  5
481
100
AcDbEntity
  8
0
100
AcDbLine
 62
250
  6
CONTINUOUS
 10
149.3999420338
 20
119.2773249902
 11
149.7999420338
 21
119.2773249902
  0
LINE
  5
482
100
AcDbEntity
  8
RACCORDO
100
AcDbLine
 62
250
  6
CONTINUOUS
 10
137.8664745034
 20
119.6307158263
 11
137.4679966242
 21
119.6307158263
  0
LINE
  5
483
100
AcDbEntity
  8
RACCORDO
100
AcDbLine
 62
250
  6
CONTINUOUS
 10
156.7334095642
 20
119.6307158263
 11
157.1318874435
 21
119.6307158263
  0
LINE
  5
484
100
AcDbEntity
  8
RACCORDO
100
AcDbLine
 62
250
  6
CONTINUOUS
 10
159.2919848523
 20
119.7664381428
 11
158.7495833707
 21
119.7664381428
  0
LINE
  5
485
100
AcDbEntity
  8
0
100
AcDbLine
 62
250
  6
CONTINUOUS
 10
143.721692532
 20
121.3194253375
 11
144.129768537
 21
121.3194253375
  0
LINE
  5
486
100
AcDbEntity
  8
0
100
AcDbLine
 62
250
  6
CONTINUOUS
 10
150.4701155307
 20
121.3194253375
 11
150.878191536
 21
121.3194253375
  0
LINE
  5
487
100
AcDbEntity
  8
RACCORDO
100
AcDbLine
 62
250
  6
CONTINUOUS
 10
136.124847388
 20
119.7656378482
 11
135.3078992154
 21
119.7664381428
  0
LINE
  5
488
100
AcDbEntity
  8
RACCORDO
100
AcDbLine
 62
250
  6
CONTINUOUS
 10
135.9849109262
 20
119.1660043093
 11
135.8275144577
 21
119.1668036466
  0
LINE
  5
489
100
AcDbEntity
  8
RACCORDO
100
AcDbLine
 62
250
  6
CONTINUOUS
 10
136.3669889756
 20
119.7640639785
 11
136.124847388
 21
119.7656378482
  0
LINE
  5
48A
100
AcDbEntity
  8
RACCORDO
100
AcDbLine
 62
250
  6
CONTINUOUS
 10
136.5770363003
 20
119.7617229457
 11
136.3669889756
 21
119.7640639785
  0
LINE
  5
48B
100
AcDbEntity
  8
RACCORDO
100
AcDbLine
 62
250
  6
CONTINUOUS
 10
136.1227729461
 20
119.1644298755
 11
135.9849109262
 21
119.1660043093
  0
LINE
  5
48C
100
AcDbEntity
  8
RACCORDO
100
AcDbLine
 62
250
  6
CONTINUOUS
 10
136.7672553875
 20
119.758668229
 11
136.5770363003
 21
119.7617229457
  0
LWPOLYLINE
  5
48D
100
AcDbEntity
  8
0
100
AcDbPolyline
 62
250
  6
CONTINUOUS
 90
43
 70
0
 10
150.878191536
 20
121.3194253375
 10
150.891257506
 20
121.3188767563
 10
150.9038228336
 20
121.3176824537
 10
150.9158875188
 20
121.3158424297
 10
150.9274434005
 20
121.3133003073
 10
150.9384986399
 20
121.3101124635
 10
150.9490777198
 20
121.306448029
 10
150.9591660788
 20
121.302335112
 10
150.9687782783
 20
121.2977456043
 10
150.9779824857
 20
121.2927643121
 10
150.9867901401
 20
121.2874055452
 10
150.9951898024
 20
121.2816549938
 10
151.0032153223
 20
121.2755545348
 10
151.0108801116
 20
121.2691056299
 10
151.0181707586
 20
121.2623068175
 10
151.0250808778
 20
121.2551955891
 10
151.0316156065
 20
121.2477719502
 10
151.0377698074
 20
121.2400358954
 10
151.0435216832
 20
121.2320249
 10
151.04887482
 20
121.2237348175
 10
151.0538256317
 20
121.2151697945
 10
151.0583415631
 20
121.2063797462
 10
151.0624229137
 20
121.1973572484
 10
151.0660693839
 20
121.1881097254
 10
151.0692475206
 20
121.1787093657
 10
151.0719527269
 20
121.1691548971
 10
151.0741895996
 20
121.1594475918
 10
151.0759384753
 20
121.1496634546
 10
151.0771943938
 20
121.1397991138
 10
151.0779623154
 20
121.1298579411
 10
151.0782374571
 20
121.1199260555
 10
151.0780179452
 20
121.1100179795
 10
151.0773056534
 20
121.1001191907
 10
151.0761014213
 20
121.0902722409
 10
151.0744269455
 20
121.0805158056
 10
151.0722605292
 20
121.0708112093
 10
151.0695379214
 20
121.0610849766
 10
151.0662877916
 20
121.0513217209
 10
151.0624814702
 20
121.0415368288
 10
151.0579686977
 20
121.0317029849
 10
151.0526993876
 20
121.0218110839
 10
151.0467236263
 20
121.011870231
 10
151.0400414139
 20
121.0018804263
  0
LINE
  5
48E
100
AcDbEntity
  8
RACCORDO
100
AcDbLine
 62
250
  6
CONTINUOUS
 10
159.9455429009
 20
119.7269079803
 11
159.2919848523
 21
119.7664381428
  0
LINE
  5
48F
100
AcDbEntity
  8
0
100
AcDbLine
 62
250
  6
CONTINUOUS
 10
143.2362935211
 20
120.7667906036
 11
143.1460929065
 21
120.7722893165
  0
LWPOLYLINE
  5
490
100
AcDbEntity
  8
RACCORDO
100
AcDbPolyline
 62
250
  6
CONTINUOUS
 90
10
 70
0
 10
158.77236961
 20
119.1668036466
 10
159.4361207382
 20
119.126618622
 10
159.4452727517
 20
119.1259459471
 10
159.4533836997
 20
119.1252554593
 10
159.4604874038
 20
119.1245457379
 10
159.4665500424
 20
119.1238182037
 10
159.4714701506
 20
119.1230771183
 10
159.4752139068
 20
119.1223239024
 10
159.4778151325
 20
119.1215571353
 10
159.4792738279
 20
119.1207768171
  0
LWPOLYLINE
  5
491
100
AcDbEntity
  8
RACCORDO
100
AcDbPolyline
 62
250
  6
CONTINUOUS
 90
10
 70
0
 10
158.0057955039
 20
119.1413220206
 10
157.9022015357
 20
119.1507127703
 10
157.8017430696
 20
119.1779685636
 10
157.7074607053
 20
119.2222644434
 10
157.6222081091
 20
119.282259696
 10
157.5485656409
 20
119.3561384315
 10
157.4887622542
 20
119.4416645462
 10
157.4446080326
 20
119.5362494022
 10
157.4174394029
 20
119.6370301774
 10
157.4080786851
 20
119.7409565169
  0
LWPOLYLINE
  5
492
100
AcDbEntity
  8
0
100
AcDbPolyline
 62
7
  6
CONTINUOUS
 90
11
 70
0
 10
143.3117116124
 20
125.8143324484
 10
143.3159215997
 20
125.8116591387
 10
143.3394977809
 20
125.7975677977
 10
143.363452886
 20
125.7846919198
 10
143.387772695
 20
125.7730017573
 10
143.4122226742
 20
125.762564371
 10
143.4369098982
 20
125.7532897609
 10
143.4623670698
 20
125.7449912493
 10
143.4885622316
 20
125.7377361198
 10
143.5154544137
 20
125.7315926733
 10
143.5436024513
 20
125.7265340687
  0
LWPOLYLINE
  5
493
100
AcDbEntity
  8
0
100
AcDbPolyline
 62
7
  6
CONTINUOUS
 90
11
 70
0
 10
151.2881724552
 20
121.6245182267
 10
151.283962468
 20
121.6271915364
 10
151.2603862868
 20
121.6412828773
 10
151.2364311817
 20
121.6541587553
 10
151.2121113727
 20
121.6658489177
 10
151.1876613935
 20
121.6762863041
 10
151.1629741695
 20
121.6855609141
 10
151.1375169979
 20
121.6938594257
 10
151.1113218361
 20
121.7011145553
 10
151.084429654
 20
121.7072580017
 10
151.0562816164
 20
121.7123166063
  0
LWPOLYLINE
  5
494
100
AcDbEntity
  8
0
100
AcDbPolyline
 62
250
  6
CONTINUOUS
 90
14
 70
0
 10
143.0642245003
 20
125.4988269359
 10
143.1028731378
 20
125.47314834
 10
143.1421097996
 20
125.4496628155
 10
143.1820951804
 20
125.4282052716
 10
143.222588421
 20
125.40871937
 10
143.2632687081
 20
125.3912538313
 10
143.3044568551
 20
125.3757599351
 10
143.346874443
 20
125.3620351815
 10
143.3904991516
 20
125.3499012676
 10
143.4353533013
 20
125.3395364964
 10
143.4822254336
 20
125.3312732768
 10
143.5313783961
 20
125.325222412
 10
143.5825493413
 20
125.3212730989
 10
143.6357382693
 20
125.3194253375
  0
LWPOLYLINE
  5
495
100
AcDbEntity
  8
0
100
AcDbPolyline
 62
250
  6
CONTINUOUS
 90
14
 70
0
 10
151.5356595673
 20
121.9400237392
 10
151.4970109299
 20
121.965702335
 10
151.4577742681
 20
121.9891878595
 10
151.4177888873
 20
122.0106454035
 10
151.3772956467
 20
122.0301313051
 10
151.3366153596
 20
122.0475968437
 10
151.2954272126
 20
122.06309074
 10
151.2530096247
 20
122.0768154936
 10
151.209384916
 20
122.0889494075
 10
151.1645307664
 20
122.0993141787
 10
151.117658634
 20
122.1075773982
 10
151.0685056716
 20
122.113628263
 10
151.0173347264
 20
122.1175775761
 10
150.9641457984
 20
122.1194253375
  0
LINE
  5
496
100
AcDbEntity
  8
0
100
AcDbLine
 62
250
  6
CONTINUOUS
 10
151.5397334094
 20
120.7113137018
 11
151.4537911596
 21
120.7722893142
  0
LINE
  5
497
100
AcDbEntity
  8
0
100
AcDbLine
 62
250
  6
CONTINUOUS
 10
143.0601506582
 20
126.727536973
 11
143.1460928943
 21
126.6665613414
  0
LINE
  5
498
100
AcDbEntity
  8
0
100
AcDbLine
 62
250
  6
CONTINUOUS
 10
151.3635905443
 20
120.7667906051
 11
151.0400414139
 21
121.0018804263
  0
LINE
  5
499
100
AcDbEntity
  8
0
100
AcDbLine
 62
250
  6
CONTINUOUS
 10
143.2362935227
 20
126.6720600691
 11
143.5598426538
 21
126.4369702487
  0
LWPOLYLINE
  5
49A
100
AcDbEntity
  8
0
100
AcDbPolyline
 62
250
  6
CONTINUOUS
 90
3
 70
0
 10
151.5999420338
 20
121.8911003046
 10
151.5735594858
 20
121.9123171628
 10
151.5356595673
 20
121.9400237392
  0
LINE
  5
49B
100
AcDbEntity
  8
0
100
AcDbLine
 62
250
  6
CONTINUOUS
 10
144.902981585
 20
125.6852789961
 11
144.2844111466
 21
126.1925960692
  0
LINE
  5
49C
100
AcDbEntity
  8
0
100
AcDbLine
 62
250
  6
CONTINUOUS
 10
149.6969024827
 20
121.753571679
 11
150.3154729211
 21
121.2462546058
  0
LWPOLYLINE
  5
49D
100
AcDbEntity
  8
0
100
AcDbPolyline
 62
7
  6
CONTINUOUS
 90
43
 70
0
 10
151.3635905467
 20
126.6720600715
 10
151.3852617529
 20
126.6401119227
 10
151.4043050416
 20
126.6078029099
 10
151.4208236579
 20
126.5753642239
 10
151.434898013
 20
126.5430988515
 10
151.4467050396
 20
126.5111080515
 10
151.4564623709
 20
126.4792720577
 10
151.4642630196
 20
126.4477489539
 10
151.4702173022
 20
126.416642258
 10
151.4744735821
 20
126.3857018335
 10
151.4770907711
 20
126.3549792402
 10
151.4781226758
 20
126.3246025625
 10
151.4776235352
 20
126.2944144129
 10
151.4756216916
 20
126.2644539621
 10
151.4721520609
 20
126.2348311577
 10
151.4672290054
 20
126.2054909542
 10
151.460872361
 20
126.1764903962
 10
151.4531104653
 20
126.1479116156
 10
151.4439442753
 20
126.1197401036
 10
151.4333875087
 20
126.0920278377
 10
151.421469718
 20
126.0648609339
 10
151.4082043211
 20
126.0382796876
 10
151.393609076
 20
126.0123364978
 10
151.3777221868
 20
125.9871146061
 10
151.3605918379
 20
125.9626987559
 10
151.342260891
 20
125.9391540771
 10
151.3227702549
 20
125.9165368876
 10
151.3021740943
 20
125.8949127838
 10
151.2805135041
 20
125.8743276747
 10
151.2578498821
 20
125.8548425357
 10
151.2342778195
 20
125.8365351934
 10
151.2099156454
 20
125.8194832912
 10
151.184774567
 20
125.8036809579
 10
151.158783541
 20
125.7890896746
 10
151.1321050526
 20
125.7758097307
 10
151.104696448
 20
125.7638287523
 10
151.0761411634
 20
125.7530245376
 10
151.0464787194
 20
125.7435129903
 10
151.0157607865
 20
125.7354118395
 10
150.98355335
 20
125.7287501579
 10
150.9497495723
 20
125.7237084111
 10
150.9145942789
 20
125.7205308254
 10
150.8781915356
 20
125.7194253375
  0
LINE
  5
49E
100
AcDbEntity
  8
0
100
AcDbLine
 62
250
  6
CONTINUOUS
 10
151.4711758978
 20
126.6406649173
 11
151.4537911613
 21
126.6665613587
  0
LWPOLYLINE
  5
49F
100
AcDbEntity
  8
0
100
AcDbPolyline
 62
250
  6
CONTINUOUS
 90
43
 70
0
 10
151.0400414137
 20
126.4369702488
 10
151.0472026616
 20
126.4262039071
 10
151.0535638691
 20
126.415459924
 10
151.0591250362
 20
126.4047382995
 10
151.0638371738
 20
126.3940153514
 10
151.0677492709
 20
126.3833147619
 10
151.0710082949
 20
126.3727075776
 10
151.0736290728
 20
126.3622204331
 10
151.0755967776
 20
126.3518266938
 10
151.0770138946
 20
126.3415175028
 10
151.0778983242
 20
126.3312889059
 10
151.0782321661
 20
126.3211448572
 10
151.0780642048
 20
126.3110883626
 10
151.0774026218
 20
126.3011104409
 10
151.0762392356
 20
126.2912200733
 10
151.0745982864
 20
126.2814472097
 10
151.0724824826
 20
126.2717880331
 10
151.0698891158
 20
126.2622463605
 10
151.0668343013
 20
126.2528635929
 10
151.0633162147
 20
126.2436339127
 10
151.0593366805
 20
126.2345631374
 10
151.0549172865
 20
126.2257101209
 10
151.0500520485
 20
126.2170708331
 10
151.0447469507
 20
126.2086493039
 10
151.039041534
 20
126.200516477
 10
151.032932594
 20
126.1926760813
 10
151.0264233349
 20
126.1851243878
 10
151.0195629103
 20
126.177921153
 10
151.0123444809
 20
126.1710674844
 10
151.0047748859
 20
126.1645622745
 10
150.9969237959
 20
126.1584619561
 10
150.9888088785
 20
126.1527798056
 10
150.9804124661
 20
126.1475025466
 10
150.9717512273
 20
126.1426467833
 10
150.9628652641
 20
126.1382129838
 10
150.9537144745
 20
126.1342006799
 10
150.9441952208
 20
126.1306250708
 10
150.9343078881
 20
126.1274522253
 10
150.9240520913
 20
126.1247160745
 10
150.913323037
 20
126.1225336111
 10
150.9020857941
 20
126.1209438326
 10
150.8903752936
 20
126.1199077414
 10
150.8781915356
 20
126.1194253375
  0
LWPOLYLINE
  5
4A0
100
AcDbEntity
  8
RACCORDO
100
AcDbPolyline
 62
7
  6
CONTINUOUS
 90
7
 70
0
 10
151.5249915266
 20
126.7507545482
 10
151.547697025
 20
126.7149947596
 10
151.5663170245
 20
126.6780030782
 10
151.5808515251
 20
126.639779504
 10
151.5913005269
 20
126.600324037
 10
151.5976640298
 20
126.5596366772
 10
151.5999420338
 20
126.5177174246
  0
LWPOLYLINE
  5
4A1
100
AcDbEntity
  8
RACCORDO
100
AcDbPolyline
 62
250
  6
CONTINUOUS
 90
3
 70
0
 10
158.77236961
 20
119.1668036466
 10
158.7682250732
 20
119.1743256458
 10
158.765586806
 20
119.1916195404
  0
LINE
  5
4A2
100
AcDbEntity
  8
RACCORDO
100
AcDbLine
 62
250
  6
CONTINUOUS
 10
159.4792738279
 20
87.3180738579
 11
159.5078333109
 21
87.346633341
  0
LINE
  5
4A3
100
AcDbEntity
  8
RACCORDO
100
AcDbLine
 62
250
  6
CONTINUOUS
 10
160.0789083241
 20
86.7184393617
 11
160.0999420338
 21
86.7394730715
  0
LWPOLYLINE
  5
4A4
100
AcDbEntity
  8
0
100
AcDbPolyline
 62
7
  6
CONTINUOUS
 90
3
 70
0
 10
144.7999420338
 20
78.3625324909
 10
144.8051984923
 20
78.3657200399
 10
144.8212101756
 20
78.3750710346
  0
LWPOLYLINE
  5
4A5
100
AcDbEntity
  8
0
100
AcDbPolyline
 62
7
  6
CONTINUOUS
 90
4
 70
0
 10
144.9332352756
 20
78.4410190043
 10
145.0546812035
 20
78.5115347579
 10
145.1253851235
 20
78.553752024
 10
145.1999420338
 20
78.6007612683
  0
LWPOLYLINE
  5
4A6
100
AcDbEntity
  8
0
100
AcDbPolyline
 62
7
  6
CONTINUOUS
 90
3
 70
0
 10
144.8212101756
 20
78.3750710346
 10
144.8481060024
 20
78.390585475
 10
144.9332352756
 20
78.4410190043
  0
LWPOLYLINE
  5
4A7
100
AcDbEntity
  8
RACCORDO
100
AcDbPolyline
 62
250
  6
CONTINUOUS
 90
9
 70
0
 10
159.4792738279
 20
87.3180738579
 10
159.4778140738
 20
87.3172933115
 10
159.475211861
 20
87.3165263753
 10
159.4714671896
 20
87.3157730491
 10
159.4665459805
 20
87.3150319151
 10
159.4604823126
 20
87.3143043911
 10
159.4533784229
 20
87.3135947314
 10
159.4452683901
 20
87.3129043537
 10
159.4361181353
 20
87.3122318403
  0
LWPOLYLINE
  5
4A8
100
AcDbEntity
  8
0
100
AcDbPolyline
 62
7
  6
CONTINUOUS
 90
8
 70
0
 10
143.5216972501
 20
121.7084996413
 10
143.4866467654
 20
121.7006270655
 10
143.4532138188
 20
121.6910199459
 10
143.421343526
 20
121.6798572903
 10
143.3910811037
 20
121.6673366219
 10
143.3624521255
 20
121.6536485364
 10
143.3353599626
 20
121.6389147182
 10
143.3117062151
 20
121.6245147777
  0
LWPOLYLINE
  5
4A9
100
AcDbEntity
  8
0
100
AcDbPolyline
 62
250
  6
CONTINUOUS
 90
12
 70
0
 10
143.6357382691
 20
122.1194253375
 10
143.5698675761
 20
122.1166363048
 10
143.5065307908
 20
122.1105664376
 10
143.445727913
 20
122.101215736
 10
143.3874168012
 20
122.0882498682
 10
143.331639597
 20
122.072003166
 10
143.2785227253
 20
122.0534786241
 10
143.2281415833
 20
122.0327480803
 10
143.1804207739
 20
122.0097396968
 10
143.1352605309
 20
121.9852409553
 10
143.0927547327
 20
121.9593775099
 10
143.052809501
 20
121.9320237064
  0
LWPOLYLINE
  5
4AA
100
AcDbEntity
  8
0
100
AcDbPolyline
 62
7
  6
CONTINUOUS
 90
4
 70
0
 10
143.6357382691
 20
121.7194253375
 10
143.5963823792
 20
121.7181345984
 10
143.5583242413
 20
121.7144156608
 10
143.5216972501
 20
121.7084996413
  0
LINE
  5
4AB
100
AcDbEntity
  8
0
100
AcDbLine
 62
7
  6
CONTINUOUS
 10
143.6357382691
 20
121.7194253375
 11
144.129768537
 21
121.7194253375
  0
LINE
  5
4AC
100
AcDbEntity
  8
0
100
AcDbLine
 62
7
  6
CONTINUOUS
 10
150.4701155307
 20
121.7194253375
 11
150.9641457984
 21
121.7194253375
  0
LINE
  5
4AD
100
AcDbEntity
  8
0
100
AcDbLine
 62
250
  6
CONTINUOUS
 10
150.9641457984
 20
122.1194253375
 11
150.4701155307
 21
122.1194253375
  0
LINE
  5
4AE
100
AcDbEntity
  8
0
100
AcDbLine
 62
250
  6
CONTINUOUS
 10
144.129768537
 20
122.1194253375
 11
143.6357382691
 21
122.1194253375
  0
LINE
  5
4AF
100
AcDbEntity
  8
RACCORDO
100
AcDbLine
 62
7
  6
CONTINUOUS
 10
153.0130847767
 20
122.7194253375
 11
152.19957653
 21
122.7194253375
  0
LINE
  5
4B0
100
AcDbEntity
  8
RACCORDO
100
AcDbLine
 62
7
  6
CONTINUOUS
 10
142.4003075376
 20
122.7194253375
 11
141.586799291
 21
122.7194253375
  0
LWPOLYLINE
  5
4B1
100
AcDbEntity
  8
0
100
AcDbPolyline
 62
7
  6
CONTINUOUS
 90
43
 70
0
 10
150.878191536
 20
121.7194253375
 10
150.9172029919
 20
121.7181555545
 10
150.9549306717
 20
121.7144969265
 10
150.9912444087
 20
121.7086766146
 10
151.0259474417
 20
121.7009447316
 10
151.0590563656
 20
121.6915117294
 10
151.0907841158
 20
121.6804934115
 10
151.1210552764
 20
121.6680673453
 10
151.1498549727
 20
121.6543903187
 10
151.1774715169
 20
121.6394422616
 10
151.2038938315
 20
121.6233117938
 10
151.2290597126
 20
121.6061207557
 10
151.2531465429
 20
121.5878129293
 10
151.2761440224
 20
121.5684345287
 10
151.2979827429
 20
121.5480837229
 10
151.3187228611
 20
121.5267360922
 10
151.3383323165
 20
121.5044417274
 10
151.3567621133
 20
121.4812743134
 10
151.3740281156
 20
121.457224025
 10
151.3900968617
 20
121.4323347343
 10
151.4049186501
 20
121.40668048
 10
151.4184739636
 20
121.3802885637
 10
151.430731811
 20
121.3532027705
 10
151.4416471809
 20
121.3255041914
 10
151.4511816867
 20
121.2972774221
 10
151.4593083871
 20
121.2685924415
 10
151.4660046045
 20
121.2395178196
 10
151.4712483242
 20
121.2101396886
 10
151.4750263954
 20
121.1805227905
 10
151.4773269246
 20
121.1507479813
 10
151.4781431301
 20
121.1209274915
 10
151.4774798257
 20
121.0911792415
 10
151.4753456867
 20
121.0615322275
 10
151.4717370106
 20
121.0319660475
 10
151.4666794775
 20
121.0026853111
 10
151.4601635643
 20
120.9736308422
 10
151.4520526181
 20
120.944404255
 10
151.442289459
 20
120.9151114087
 10
151.4308164723
 20
120.8858480975
 10
151.4173557174
 20
120.8562582792
 10
151.4017029488
 20
120.8263497998
 10
151.3838146376
 20
120.7964615639
 10
151.3635905471
 20
120.7667906036
  0
LWPOLYLINE
  5
4B2
100
AcDbEntity
  8
0
100
AcDbPolyline
 62
7
  6
CONTINUOUS
 90
4
 70
0
 10
151.0562816164
 20
121.7123166063
 10
151.0267136826
 20
121.7161576452
 10
150.9959787883
 20
121.7185811999
 10
150.9641457984
 20
121.7194253375
  0
LWPOLYLINE
  5
4B3
100
AcDbEntity
  8
RACCORDO
100
AcDbPolyline
 62
250
  6
CONTINUOUS
 90
9
 70
0
 10
160.0789083241
 20
119.7204113133
 10
160.0754131321
 20
119.7211920853
 10
160.0688822286
 20
119.721959085
 10
160.0593991329
 20
119.7227123126
 10
160.0470647905
 20
119.7234530451
 10
160.0319716652
 20
119.7241800054
 10
160.0141830009
 20
119.7248893622
 10
159.9937759662
 20
119.7255798384
 10
159.9455429009
 20
119.7269079803
  0
LINE
  5
4B4
100
AcDbEntity
  8
0
100
AcDbLine
 62
7
  6
CONTINUOUS
 10
144.8211990315
 20
128.0637896865
 11
144.8480884964
 21
128.0482754034
  0
LWPOLYLINE
  5
4B5
100
AcDbEntity
  8
0
100
AcDbPolyline
 62
7
  6
CONTINUOUS
 90
3
 70
0
 10
144.8480884964
 20
128.0482754034
 10
144.9332362013
 20
127.9978282371
 10
145.0546993985
 20
127.9273069723
  0
LWPOLYLINE
  5
4B6
100
AcDbEntity
  8
0
100
AcDbPolyline
 62
7
  6
CONTINUOUS
 90
3
 70
0
 10
145.0546993985
 20
127.9273069723
 10
145.1253986212
 20
127.8850926354
 10
145.1999420338
 20
127.8380894068
  0
LWPOLYLINE
  5
4B7
100
AcDbEntity
  8
0
100
AcDbPolyline
 62
7
  6
CONTINUOUS
 90
3
 70
0
 10
144.7999420338
 20
128.0763181842
 10
144.8051948774
 20
128.0731372801
 10
144.8211990315
 20
128.0637896865
  0
LINE
  5
4B8
100
AcDbEntity
  8
RACCORDO
100
AcDbLine
 62
250
  6
CONTINUOUS
 10
159.5078333109
 20
119.092217334
 11
159.4792738279
 21
119.1207768171
  0
LINE
  5
4B9
100
AcDbEntity
  8
RACCORDO
100
AcDbLine
 62
250
  6
CONTINUOUS
 10
160.0999420338
 20
119.6993776036
 11
160.0789083241
 21
119.7204113133
  0
LINE
  5
4BA
100
AcDbEntity
  8
RACCORDO
100
AcDbLine
 62
250
  6
CONTINUOUS
 10
154.2001780616
 20
68.0560040665
 11
154.2485779473
 21
68.1415109094
  0
LWPOLYLINE
  5
4BB
100
AcDbEntity
  8
RACCORDO
100
AcDbPolyline
 62
250
  6
CONTINUOUS
 90
21
 70
0
 10
140.3513060764
 20
68.1415108721
 10
140.3199868273
 20
68.1149202327
 10
140.3104508009
 20
68.1068898857
 10
140.301356368
 20
68.0993052756
 10
140.2926913566
 20
68.0921523373
 10
140.2844507705
 20
68.08545643
 10
140.2766233879
 20
68.0792276568
 10
140.2691874711
 20
68.0734267711
 10
140.2621380344
 20
68.0680731398
 10
140.2554618163
 20
68.0631763942
 10
140.2491258283
 20
68.0586797555
 10
140.243124676
 20
68.0545944015
 10
140.2374462122
 20
68.0509315955
 10
140.2320497596
 20
68.0476313587
 10
140.2269288061
 20
68.0446969519
 10
140.2220748905
 20
68.0421415601
 10
140.217447496
 20
68.0399168982
 10
140.2130399704
 20
68.0380206262
 10
140.2088471004
 20
68.0364667572
 10
140.2048335536
 20
68.0352288948
 10
140.2009926803
 20
68.0343007776
  0
LWPOLYLINE
  5
4BC
100
AcDbEntity
  8
0
100
AcDbPolyline
 62
7
  6
CONTINUOUS
 90
8
 70
0
 10
151.0781868176
 20
125.7303510338
 10
151.1132373023
 20
125.7382236095
 10
151.1466702489
 20
125.7478307292
 10
151.1785405417
 20
125.7589933847
 10
151.208802964
 20
125.7715140532
 10
151.2374319421
 20
125.7852021386
 10
151.264524105
 20
125.7999359568
 10
151.2881778525
 20
125.8143358973
  0
LWPOLYLINE
  5
4BD
100
AcDbEntity
  8
0
100
AcDbPolyline
 62
250
  6
CONTINUOUS
 90
12
 70
0
 10
150.9641457986
 20
125.3194253375
 10
151.0300164915
 20
125.3222143702
 10
151.0933532769
 20
125.3282842374
 10
151.1541561546
 20
125.3376349391
 10
151.2124672665
 20
125.3506008068
 10
151.2682444707
 20
125.366847509
 10
151.3213613423
 20
125.3853720509
 10
151.3717424844
 20
125.4061025947
 10
151.4194632938
 20
125.4291109782
 10
151.4646235368
 20
125.4536097197
 10
151.5071293349
 20
125.4794731652
 10
151.5470745666
 20
125.5068269686
  0
LWPOLYLINE
  5
4BE
100
AcDbEntity
  8
0
100
AcDbPolyline
 62
7
  6
CONTINUOUS
 90
4
 70
0
 10
150.9641457986
 20
125.7194253375
 10
151.0035016884
 20
125.7207160767
 10
151.0415598263
 20
125.7244350142
 10
151.0781868176
 20
125.7303510338
  0
LINE
  5
4BF
100
AcDbEntity
  8
RACCORDO
100
AcDbLine
 62
7
  6
CONTINUOUS
 10
141.586799291
 20
124.7194253375
 11
142.4003075376
 21
124.7194253375
  0
LINE
  5
4C0
100
AcDbEntity
  8
RACCORDO
100
AcDbLine
 62
7
  6
CONTINUOUS
 10
152.19957653
 20
124.7194253375
 11
153.0130847767
 21
124.7194253375
  0
LINE
  5
4C1
100
AcDbEntity
  8
0
100
AcDbLine
 62
250
  6
CONTINUOUS
 10
143.6357382693
 20
125.3194253375
 11
144.129768537
 21
125.3194253375
  0
LINE
  5
4C2
100
AcDbEntity
  8
0
100
AcDbLine
 62
250
  6
CONTINUOUS
 10
150.4701155307
 20
125.3194253375
 11
150.9641457986
 21
125.3194253375
  0
LINE
  5
4C3
100
AcDbEntity
  8
0
100
AcDbLine
 62
7
  6
CONTINUOUS
 10
143.6357382693
 20
125.7194253375
 11
144.129768537
 21
125.7194253375
  0
LINE
  5
4C4
100
AcDbEntity
  8
0
100
AcDbLine
 62
7
  6
CONTINUOUS
 10
150.4701155307
 20
125.7194253375
 11
150.9641457986
 21
125.7194253375
  0
LINE
  5
4C5
100
AcDbEntity
  8
0
100
AcDbLine
 62
250
  6
CONTINUOUS
 10
150.8781915356
 20
126.1194253375
 11
150.4701155307
 21
126.1194253375
  0
LINE
  5
4C6
100
AcDbEntity
  8
0
100
AcDbLine
 62
250
  6
CONTINUOUS
 10
144.129768537
 20
126.1194253375
 11
143.7216925317
 21
126.1194253375
  0
LWPOLYLINE
  5
4C7
100
AcDbEntity
  8
0
100
AcDbPolyline
 62
7
  6
CONTINUOUS
 90
43
 70
0
 10
143.7216925317
 20
125.7194253375
 10
143.6826810758
 20
125.7206951205
 10
143.644953396
 20
125.7243537485
 10
143.6086396589
 20
125.7301740605
 10
143.573936626
 20
125.7379059435
 10
143.5408277021
 20
125.7473389456
 10
143.5090999519
 20
125.7583572635
 10
143.4788287913
 20
125.7707833298
 10
143.4500290949
 20
125.7844603563
 10
143.4224125508
 20
125.7994084135
 10
143.3959902362
 20
125.8155388812
 10
143.3708243551
 20
125.8327299194
 10
143.3467375248
 20
125.8510377457
 10
143.3237400453
 20
125.8704161464
 10
143.3019013247
 20
125.8907669521
 10
143.2811612066
 20
125.9121145828
 10
143.2615517512
 20
125.9344089477
 10
143.2431219543
 20
125.9575763616
 10
143.225855952
 20
125.98162665
 10
143.209787206
 20
126.0065159407
 10
143.1949654176
 20
126.0321701951
 10
143.1814101041
 20
126.0585621114
 10
143.1691522567
 20
126.0856479045
 10
143.1582368867
 20
126.1133464836
 10
143.148702381
 20
126.141573253
 10
143.1405756806
 20
126.1702582335
 10
143.1338794632
 20
126.1993328555
 10
143.1286357435
 20
126.2287109864
 10
143.1248576723
 20
126.2583278845
 10
143.1225571431
 20
126.2881026937
 10
143.1217409375
 20
126.3179231836
 10
143.1224042419
 20
126.3476714336
 10
143.1245383809
 20
126.3773184475
 10
143.1281470571
 20
126.4068846275
 10
143.1332045902
 20
126.436165364
 10
143.1397205033
 20
126.4652198328
 10
143.1478314496
 20
126.4944464201
 10
143.1575946087
 20
126.5237392663
 10
143.1690675954
 20
126.5530025775
 10
143.1825283503
 20
126.5825923958
 10
143.1981811188
 20
126.6125008752
 10
143.2160694301
 20
126.6423891112
 10
143.2362935206
 20
126.6720600715
  0
LWPOLYLINE
  5
4C8
100
AcDbEntity
  8
0
100
AcDbPolyline
 62
250
  6
CONTINUOUS
 90
43
 70
0
 10
143.7216925317
 20
126.1194253375
 10
143.7086265617
 20
126.1199739187
 10
143.6960612341
 20
126.1211682213
 10
143.6839965489
 20
126.1230082453
 10
143.6724406671
 20
126.1255503677
 10
143.6613854278
 20
126.1287382116
 10
143.6508063479
 20
126.1324026461
 10
143.6407179889
 20
126.1365155631
 10
143.6311057893
 20
126.1411050707
 10
143.6219015819
 20
126.1460863629
 10
143.6130939275
 20
126.1514451298
 10
143.6046942653
 20
126.1571956812
 10
143.5966687454
 20
126.1632961402
 10
143.589003956
 20
126.1697450451
 10
143.581713309
 20
126.1765438576
 10
143.5748031898
 20
126.183655086
 10
143.5682684612
 20
126.1910787249
 10
143.5621142603
 20
126.1988147797
 10
143.5563623845
 20
126.206825775
 10
143.5510092477
 20
126.2151158575
 10
143.546058436
 20
126.2236808806
 10
143.5415425046
 20
126.2324709288
 10
143.537461154
 20
126.2414934266
 10
143.5338146837
 20
126.2507409496
 10
143.5306365471
 20
126.2601413093
 10
143.5279313408
 20
126.2696957779
 10
143.525694468
 20
126.2794030832
 10
143.5239455923
 20
126.2891872205
 10
143.5226896738
 20
126.2990515612
 10
143.5219217523
 20
126.308992734
 10
143.5216466105
 20
126.3189246195
 10
143.5218661225
 20
126.3288326955
 10
143.5225784142
 20
126.3387314843
 10
143.5237826464
 20
126.3485784342
 10
143.5254571222
 20
126.3583348694
 10
143.5276235385
 20
126.3680394657
 10
143.5303461463
 20
126.3777656984
 10
143.5335962761
 20
126.3875289541
 10
143.5374025975
 20
126.3973138462
 10
143.54191537
 20
126.4071476902
 10
143.5471846801
 20
126.4170395911
 10
143.5531604414
 20
126.426980444
 10
143.5598426538
 20
126.4369702487
  0
LWPOLYLINE
  5
4C9
100
AcDbEntity
  8
0
100
AcDbPolyline
 62
7
  6
CONTINUOUS
 90
4
 70
0
 10
143.5436024513
 20
125.7265340687
 10
143.573170385
 20
125.7226930298
 10
143.6039052793
 20
125.7202694752
 10
143.6357382693
 20
125.7194253375
  0
LWPOLYLINE
  5
4CA
100
AcDbEntity
  8
RACCORDO
100
AcDbPolyline
 62
250
  6
CONTINUOUS
 90
9
 70
0
 10
134.5209757436
 20
127.7184393617
 10
134.5242343746
 20
127.7176953672
 10
134.5303373398
 20
127.716955639
 10
134.539311322
 20
127.7162201773
 10
134.5511649628
 20
127.7154872897
 10
134.5659129782
 20
127.7147586686
 10
134.5835959154
 20
127.7140393908
 10
134.6042374068
 20
127.7133311487
 10
134.6543411668
 20
127.7119426947
  0
LINE
  5
4CB
100
AcDbEntity
  8
RACCORDO
100
AcDbLine
 62
250
  6
CONTINUOUS
 10
140.3513060764
 20
138.2973398029
 11
140.3615412633
 21
138.2889438155
  0
LWPOLYLINE
  5
4CC
100
AcDbEntity
  8
RACCORDO
100
AcDbPolyline
 62
250
  6
CONTINUOUS
 90
3
 70
0
 10
140.3038354757
 20
138.3375379203
 10
140.3422953862
 20
138.3050949448
 10
140.3513060764
 20
138.2973398029
  0
LINE
  5
4CD
100
AcDbEntity
  8
RACCORDO
100
AcDbLine
 62
250
  6
CONTINUOUS
 10
154.2001303566
 20
138.3828175886
 11
154.2485779916
 21
138.2973398032
  0
LWPOLYLINE
  5
4CE
100
AcDbEntity
  8
RACCORDO
100
AcDbPolyline
 62
7
  6
CONTINUOUS
 90
5
 70
0
 10
140.19318864
 20
67.9290412598
 10
140.2429639716
 20
67.9605094212
 10
140.2973027616
 20
67.994782872
 10
140.3562223043
 20
68.0307441104
 10
140.3997537111
 20
68.0560330865
  0
LWPOLYLINE
  5
4CF
100
AcDbEntity
  8
0
100
AcDbPolyline
 62
250
  6
CONTINUOUS
 90
8
 70
0
 10
149.5309037496
 20
78.0003038237
 10
149.5814624896
 20
78.0160714437
 10
149.628596193
 20
78.036768552
 10
149.6714155126
 20
78.062004623
 10
149.7091125081
 20
78.0913034872
 10
149.7409758898
 20
78.1241123163
 10
149.7664044406
 20
78.1598120539
 10
149.7849183591
 20
78.1977290963
  0
LWPOLYLINE
  5
4D0
100
AcDbEntity
  8
RACCORDO
100
AcDbPolyline
 62
250
  6
CONTINUOUS
 90
13
 70
0
 10
135.8275144577
 20
128.2720470285
 10
135.76042171
 20
128.2656779603
 10
135.6942940742
 20
128.2493280038
 10
135.6302559035
 20
128.2232008767
 10
135.5692820408
 20
128.1875824685
 10
135.5125823928
 20
128.143061193
 10
135.4614767156
 20
128.0907041942
 10
135.4168761967
 20
128.0316650037
 10
135.3793011523
 20
127.9668815507
 10
135.3492432701
 20
127.8973762554
 10
135.3271336437
 20
127.8242881962
 10
135.3132969874
 20
127.7488833474
 10
135.3078992154
 20
127.6724125322
  0
LWPOLYLINE
  5
4D1
100
AcDbEntity
  8
RACCORDO
100
AcDbPolyline
 62
250
  6
CONTINUOUS
 90
10
 70
0
 10
158.0057955039
 20
128.2975286544
 10
157.9022103306
 20
128.2881394848
 10
157.801757595
 20
128.2608874495
 10
157.7074776643
 20
128.2165960848
 10
157.6222242529
 20
128.1566045831
 10
157.5485786018
 20
128.0827277287
 10
157.488771027
 20
127.9972013319
 10
157.4446126333
 20
127.9026138807
 10
157.4174407306
 20
127.8018279488
 10
157.4080786833
 20
127.6978941589
  0
LINE
  5
4D2
100
AcDbEntity
  8
0
100
AcDbLine
 62
250
  6
CONTINUOUS
 10
143.1460929066
 20
126.6665613587
 11
143.2362935209
 21
126.6720600712
  0
LINE
  5
4D3
100
AcDbEntity
  8
RACCORDO
100
AcDbLine
 62
250
  6
CONTINUOUS
 10
159.2919848523
 20
127.6724125322
 11
159.9455429009
 21
127.7119426947
  0
LINE
  5
4D4
100
AcDbEntity
  8
RACCORDO
100
AcDbLine
 62
250
  6
CONTINUOUS
 10
158.77236961
 20
128.2720470285
 11
159.4361181353
 21
128.3122318403
  0
LWPOLYLINE
  5
4D5
100
AcDbEntity
  8
RACCORDO
100
AcDbPolyline
 62
250
  6
CONTINUOUS
 90
8
 70
0
 10
159.9937642737
 20
127.7132704587
 10
160.0141698089
 20
127.7139608246
 10
160.0319591051
 20
127.7146701218
 10
160.0470543752
 20
127.715397075
 10
160.0593917302
 20
127.7161378581
 10
160.0688780325
 20
127.716891196
 10
160.0754116402
 20
127.7176583639
 10
160.0789083241
 20
127.7184393617
  0
LWPOLYLINE
  5
4D6
100
AcDbEntity
  8
RACCORDO
100
AcDbPolyline
 62
250
  6
CONTINUOUS
 90
10
 70
0
 10
136.2757345413
 20
128.2775776603
 10
136.3325744945
 20
128.2791900954
 10
136.3837605355
 20
128.2809604053
 10
136.4297588052
 20
128.2828635654
 10
136.4708598303
 20
128.2848724819
 10
136.5067730841
 20
128.2870142487
 10
136.5370931282
 20
128.2893451236
 10
136.5616848164
 20
128.2918838591
 10
136.580683295
 20
128.2946117027
 10
136.5940885638
 20
128.2975286544
  0
LWPOLYLINE
  5
4D7
100
AcDbEntity
  8
RACCORDO
100
AcDbPolyline
 62
250
  6
CONTINUOUS
 90
7
 70
0
 10
136.9042282918
 20
127.6832304612
 10
136.9756344272
 20
127.6852381305
 10
137.037676039
 20
127.6873779261
 10
137.0920633913
 20
127.6897076469
 10
137.1375591517
 20
127.6922465589
 10
137.1714345321
 20
127.694975396
 10
137.1918053826
 20
127.6978941582
  0
LINE
  5
4D8
100
AcDbEntity
  8
RACCORDO
100
AcDbLine
 62
250
  6
CONTINUOUS
 10
159.9455429009
 20
127.7119426947
 11
159.9937642737
 21
127.7132704587
  0
LWPOLYLINE
  5
4D9
100
AcDbEntity
  8
RACCORDO
100
AcDbPolyline
 62
250
  6
CONTINUOUS
 90
34
 70
0
 10
157.7341760914
 20
128.8057008474
 10
157.6979780101
 20
128.8049802632
 10
157.6622866351
 20
128.8030767426
 10
157.6271019664
 20
128.7999902858
 10
157.5925698706
 20
128.7957345289
 10
157.5585444811
 20
128.7902958357
 10
157.5245881986
 20
128.7836332971
 10
157.4906231237
 20
128.7757934817
 10
157.4567271558
 20
128.7667298209
 10
157.4226963939
 20
128.7562617001
 10
157.3885354091
 20
128.7444551528
 10
157.3542396303
 20
128.7312441455
 10
157.3195914433
 20
128.7162499632
 10
157.2844651235
 20
128.6994804769
 10
157.2489863955
 20
128.6809278155
 10
157.2133148193
 20
128.6601896507
 10
157.1773593236
 20
128.6372513127
 10
157.1412109797
 20
128.6121274713
 10
157.1053025619
 20
128.5844598072
 10
157.069589796
 20
128.5542542121
 10
157.0341169562
 20
128.5215047943
 10
156.9994496397
 20
128.4858355594
 10
156.9655106752
 20
128.4472277597
 10
156.932377234
 20
128.4057001428
 10
156.9008464273
 20
128.3609329574
 10
156.8708225224
 20
128.3128730055
 10
156.842401252
 20
128.2615734851
 10
156.8166669248
 20
128.2068742389
 10
156.7935160071
 20
128.1486785238
 10
156.7730520326
 20
128.087083083
 10
156.7566699102
 20
128.0222179879
 10
156.7448346095
 20
127.9541265957
 10
156.7370811608
 20
127.8827655494
 10
156.7334095642
 20
127.8081348487
  0
LINE
  5
4DA
100
AcDbEntity
  8
RACCORDO
100
AcDbLine
 62
250
  6
CONTINUOUS
 10
136.734115399
 20
127.6795555175
 11
136.9042282918
 21
127.6832304612
  0
LINE
  5
4DB
100
AcDbEntity
  8
RACCORDO
100
AcDbLine
 62
250
  6
CONTINUOUS
 10
136.1438573913
 20
128.2747854257
 11
136.2757345413
 21
128.2775776603
  0
LWPOLYLINE
  5
4DC
100
AcDbEntity
  8
RACCORDO
100
AcDbPolyline
 62
250
  6
CONTINUOUS
 90
34
 70
0
 10
157.7341760914
 20
128.4059445166
 10
157.7123882509
 20
128.4055990195
 10
157.690858851
 20
128.4044907332
 10
157.6696136018
 20
128.4026451359
 10
157.6487894002
 20
128.4001041911
 10
157.6282943682
 20
128.3968861938
 10
157.6078140285
 20
128.3929471867
 10
157.5873374916
 20
128.3882712503
 10
157.5669297673
 20
128.3828588465
 10
157.5464028893
 20
128.3766344284
 10
157.5258153432
 20
128.3695795047
 10
157.5051829865
 20
128.3616617017
 10
157.4842754831
 20
128.3527329287
 10
157.4631051596
 20
128.3427173724
 10
157.4417830052
 20
128.3315818127
 10
157.4202548906
 20
128.3191983728
 10
157.3985831496
 20
128.3054895518
 10
157.3768845435
 20
128.2904083519
 10
157.3552114763
 20
128.2738546881
 10
157.3336898504
 20
128.2557810053
 10
157.312431603
 20
128.2361263938
 10
157.2914979485
 20
128.2147606798
 10
157.2710469479
 20
128.1916410386
 10
157.2512403249
 20
128.1667259781
 10
157.2321880725
 20
128.1398781717
 10
157.2140960418
 20
128.1110783182
 10
157.1971780602
 20
128.0803165842
 10
157.1816115533
 20
128.047470408
 10
157.1676595322
 20
128.0125723745
 10
157.1555896458
 20
127.9756654719
 10
157.1456547568
 20
127.9366600933
 10
157.1381693374
 20
127.8956045856
 10
157.133471336
 20
127.8527000886
 10
157.1318874855
 20
127.808134832
  0
LINE
  5
4DD
100
AcDbEntity
  8
RACCORDO
100
AcDbLine
 62
250
  6
CONTINUOUS
 10
136.5243819503
 20
127.6764677445
 11
136.734115399
 21
127.6795555175
  0
LINE
  5
4DE
100
AcDbEntity
  8
RACCORDO
100
AcDbLine
 62
7
  6
CONTINUOUS
 10
135.2288892713
 20
128.348372575
 11
135.0920507567
 21
128.346633341
  0
LINE
  5
4DF
100
AcDbEntity
  8
RACCORDO
100
AcDbLine
 62
250
  6
CONTINUOUS
 10
135.9939883236
 20
128.2729130462
 11
136.1438573913
 21
128.2747854257
  0
LINE
  5
4E0
100
AcDbEntity
  8
RACCORDO
100
AcDbLine
 62
250
  6
CONTINUOUS
 10
136.2760942576
 20
127.6740790969
 11
136.5243819503
 21
127.6764677445
  0
LINE
  5
4E1
100
AcDbEntity
  8
RACCORDO
100
AcDbLine
 62
250
  6
CONTINUOUS
 10
135.8275144577
 20
128.2720470285
 11
135.9939883236
 21
128.2729130462
  0
LINE
  5
4E2
100
AcDbEntity
  8
RACCORDO
100
AcDbLine
 62
250
  6
CONTINUOUS
 10
135.850300697
 20
127.6724125124
 11
136.2760942576
 21
127.6740790969
  0
LINE
  5
4E3
100
AcDbEntity
  8
RACCORDO
100
AcDbLine
 62
250
  6
CONTINUOUS
 10
135.3078992154
 20
127.6724125322
 11
135.850300697
 21
127.6724125322
  0
LINE
  5
4E4
100
AcDbEntity
  8
RACCORDO
100
AcDbLine
 62
250
  6
CONTINUOUS
 10
137.8664745034
 20
127.8081348487
 11
137.4679966242
 21
127.8081348487
  0
LINE
  5
4E5
100
AcDbEntity
  8
RACCORDO
100
AcDbLine
 62
250
  6
CONTINUOUS
 10
156.7334095642
 20
127.8081348487
 11
157.1318874435
 21
127.8081348487
  0
LINE
  5
4E6
100
AcDbEntity
  8
0
100
AcDbLine
 62
250
  6
CONTINUOUS
 10
145.1999420338
 20
128.1615258233
 11
144.7999420338
 21
128.1615258233
  0
LINE
  5
4E7
100
AcDbEntity
  8
0
100
AcDbLine
 62
250
  6
CONTINUOUS
 10
149.3999420338
 20
128.1615265786
 11
149.7999420338
 21
128.1615265786
  0
LINE
  5
4E8
100
AcDbEntity
  8
RACCORDO
100
AcDbLine
 62
250
  6
CONTINUOUS
 10
159.3134228547
 20
128.4059445166
 11
157.7341760914
 21
128.4059445166
  0
LINE
  5
4E9
100
AcDbEntity
  8
RACCORDO
100
AcDbLine
 62
250
  6
CONTINUOUS
 10
136.8657079762
 20
128.4059445166
 11
135.2864612129
 21
128.4059445166
  0
LINE
  5
4EA
100
AcDbEntity
  8
RACCORDO
100
AcDbLine
 62
250
  6
CONTINUOUS
 10
159.2999420338
 20
128.8057008474
 11
157.7341760914
 21
128.8057008474
  0
LINE
  5
4EB
100
AcDbEntity
  8
RACCORDO
100
AcDbLine
 62
250
  6
CONTINUOUS
 10
136.8657079762
 20
128.8057008474
 11
135.2999420338
 21
128.8057008474
  0
LINE
  5
4EC
100
AcDbEntity
  8
RACCORDO
100
AcDbLine
 62
250
  6
CONTINUOUS
 10
158.4651835773
 20
127.6732659834
 11
159.2919848523
 21
127.6724125322
  0
LINE
  5
4ED
100
AcDbEntity
  8
RACCORDO
100
AcDbLine
 62
250
  6
CONTINUOUS
 10
158.6093030927
 20
128.2728993934
 11
158.77236961
 21
128.2720470285
  0
LINE
  5
4EE
100
AcDbEntity
  8
RACCORDO
100
AcDbLine
 62
250
  6
CONTINUOUS
 10
158.2157196672
 20
127.6749408763
 11
158.4651835773
 21
127.6732659834
  0
LINE
  5
4EF
100
AcDbEntity
  8
RACCORDO
100
AcDbLine
 62
250
  6
CONTINUOUS
 10
158.0013683235
 20
127.6774209985
 11
158.2157196672
 21
127.6749408763
  0
LINE
  5
4F0
100
AcDbEntity
  8
RACCORDO
100
AcDbLine
 62
7
  6
CONTINUOUS
 10
159.5078333109
 20
128.346633341
 11
159.3709947963
 21
128.348372575
  0
LINE
  5
4F1
100
AcDbEntity
  8
RACCORDO
100
AcDbLine
 62
250
  6
CONTINUOUS
 10
158.4673161277
 20
128.2745748898
 11
158.6093030927
 21
128.2728993934
  0
LINE
  5
4F2
100
AcDbEntity
  8
RACCORDO
100
AcDbLine
 62
250
  6
CONTINUOUS
 10
134.6543411668
 20
127.7119426947
 11
135.3078992154
 21
127.6724125322
  0
LINE
  5
4F3
100
AcDbEntity
  8
RACCORDO
100
AcDbLine
 62
250
  6
CONTINUOUS
 10
135.1739564091
 20
128.311577191
 11
135.8275144577
 21
128.2720470285
  0
LINE
  5
4F4
100
AcDbEntity
  8
0
100
AcDbLine
 62
250
  6
CONTINUOUS
 10
151.3635905466
 20
126.6720600714
 11
151.4537911612
 21
126.6665613586
  0
LWPOLYLINE
  5
4F5
100
AcDbEntity
  8
RACCORDO
100
AcDbPolyline
 62
250
  6
CONTINUOUS
 90
10
 70
0
 10
135.1739564091
 20
128.311577191
 10
135.1633476789
 20
128.3122663076
 10
135.1539149783
 20
128.3129649842
 10
135.1456583073
 20
128.3136732207
 10
135.138585246
 20
128.3143928521
 10
135.1326882142
 20
128.3151220435
 10
135.1279444718
 20
128.3158552902
 10
135.1243464385
 20
128.3165907574
 10
135.1219016945
 20
128.31733028
 10
135.1206102398
 20
128.3180738579
  0
LWPOLYLINE
  5
4F6
100
AcDbEntity
  8
RACCORDO
100
AcDbPolyline
 62
250
  6
CONTINUOUS
 90
10
 70
0
 10
136.5940885638
 20
128.2975286544
 10
136.697682533
 20
128.2881379046
 10
136.7981409999
 20
128.2608821109
 10
136.8924233649
 20
128.2165862305
 10
136.9776759618
 20
128.1565909772
 10
137.0513184304
 20
128.0827122411
 10
137.1111218167
 20
127.997186126
 10
137.1552760373
 20
127.9026012704
 10
137.1824446658
 20
127.8018204961
 10
137.1918053826
 20
127.6978941582
  0
LWPOLYLINE
  5
4F7
100
AcDbEntity
  8
RACCORDO
100
AcDbPolyline
 62
250
  6
CONTINUOUS
 90
13
 70
0
 10
158.77236961
 20
128.2720470285
 10
158.8396100483
 20
128.265652776
 10
158.9057069712
 20
128.2492898363
 10
158.9695506854
 20
128.2232391051
 10
159.0300653321
 20
128.1879473579
 10
159.0862430046
 20
128.144010606
 10
159.1371564725
 20
128.092156577
 10
159.181987334
 20
128.0331985912
 10
159.2199325025
 20
127.9681698334
 10
159.2502884391
 20
127.898337411
 10
159.2725870952
 20
127.8249618111
 10
159.2865429915
 20
127.7492311468
 10
159.2919848523
 20
127.6724125322
  0
LWPOLYLINE
  5
4F8
100
AcDbEntity
  8
RACCORDO
100
AcDbPolyline
 62
250
  6
CONTINUOUS
 90
9
 70
0
 10
157.4080786851
 20
127.6978947454
 10
157.4287839489
 20
127.6949296797
 10
157.4640035515
 20
127.6921265538
 10
157.5124630071
 20
127.6894853676
 10
157.5728680717
 20
127.6869919726
 10
157.643786703
 20
127.6846605173
 10
157.723579283
 20
127.6825334476
 10
157.809969853
 20
127.6806304418
 10
158.0013683235
 20
127.6774209985
  0
LWPOLYLINE
  5
4F9
100
AcDbEntity
  8
RACCORDO
100
AcDbPolyline
 62
250
  6
CONTINUOUS
 90
12
 70
0
 10
140.3615412633
 20
138.2889438155
 10
140.3720909115
 20
138.2810543027
 10
140.3829529655
 20
138.2736857495
 10
140.3940664757
 20
138.26684296
 10
140.4054844204
 20
138.260548596
 10
140.4173780912
 20
138.2548553028
 10
140.4297608989
 20
138.2497516798
 10
140.4426116425
 20
138.2453050937
 10
140.456052548
 20
138.2417075487
 10
140.4701183449
 20
138.2390538267
 10
140.4847536399
 20
138.2373314814
 10
140.4999420338
 20
138.236582625
  0
LINE
  5
4FA
100
AcDbEntity
  8
RACCORDO
100
AcDbLine
 62
7
  6
CONTINUOUS
 10
159.3709947963
 20
78.0904781
 11
159.3134228547
 21
78.0329061584
  0
LWPOLYLINE
  5
4FB
100
AcDbEntity
  8
RACCORDO
100
AcDbPolyline
 62
7
  6
CONTINUOUS
 90
6
 70
0
 10
140.3997555876
 20
68.0560247529
 10
140.4062829214
 20
68.0596045603
 10
140.4356145327
 20
68.072887483
 10
140.4642269198
 20
68.0812909429
 10
140.4909575329
 20
68.0848672444
 10
140.4999420375
 20
68.0851108196
  0
LWPOLYLINE
  5
4FC
100
AcDbEntity
  8
RACCORDO
100
AcDbPolyline
 62
250
  6
CONTINUOUS
 90
5
 70
0
 10
139.984718412
 20
67.831119742
 10
140.025848219
 20
67.8527379438
 10
140.0640274131
 20
67.8802811533
 10
140.0986126742
 20
67.9132852793
 10
140.1290212431
 20
67.9511942152
  0
LINE
  5
4FD
100
AcDbEntity
  8
RACCORDO
100
AcDbLine
 62
250
  6
CONTINUOUS
 10
157.4080786851
 20
78.7409565169
 11
157.1318874435
 21
78.6307158263
  0
LINE
  5
4FE
100
AcDbEntity
  8
RACCORDO
100
AcDbLine
 62
250
  6
CONTINUOUS
 10
158.0057955039
 20
78.1413220206
 11
157.7341760914
 21
78.0329061584
  0
LINE
  5
4FF
100
AcDbEntity
  8
RACCORDO
100
AcDbLine
 62
7
  6
CONTINUOUS
 10
161.300398693
 20
130.7194253375
 11
159.89957653
 21
130.7194253375
  0
LINE
  5
500
100
AcDbEntity
  8
RACCORDO
100
AcDbLine
 62
7
  6
CONTINUOUS
 10
133.2994853747
 20
130.7194253375
 11
134.7003075376
 21
130.7194253375
  0
LWPOLYLINE
  5
501
100
AcDbEntity
  8
RACCORDO
100
AcDbPolyline
 62
250
  6
CONTINUOUS
 90
11
 70
0
 10
158.0057955039
 20
128.2975286544
 10
158.0189016063
 20
128.2945653844
 10
158.0387843378
 20
128.2917633098
 10
158.0654436984
 20
128.2891224306
 10
158.0997274996
 20
128.2866281453
 10
158.1407879298
 20
128.2842950555
 10
158.1860815544
 20
128.2821669653
 10
158.2349893644
 20
128.2802643614
 10
158.2881303687
 20
128.2785667573
 10
158.3448181598
 20
128.2770564969
 10
158.4673161277
 20
128.2745748898
  0
LINE
  5
502
100
AcDbEntity
  8
RACCORDO
100
AcDbLine
 62
250
  6
CONTINUOUS
 10
157.1318874435
 20
127.8081348487
 11
157.4080786851
 21
127.6978941582
  0
LINE
  5
503
100
AcDbEntity
  8
RACCORDO
100
AcDbLine
 62
250
  6
CONTINUOUS
 10
157.7341760914
 20
128.4059445166
 11
158.0057955039
 21
128.2975286544
  0
LWPOLYLINE
  5
504
100
AcDbEntity
  8
RACCORDO
100
AcDbPolyline
 62
250
  6
CONTINUOUS
 90
5
 70
0
 10
139.9847334766
 20
138.6077231297
 10
140.0258617927
 20
138.5861021712
 10
140.0640391511
 20
138.5585566483
 10
140.0986222945
 20
138.5255513035
 10
140.1290285423
 20
138.487642792
  0
LWPOLYLINE
  5
505
100
AcDbEntity
  8
RACCORDO
100
AcDbPolyline
 62
7
  6
CONTINUOUS
 90
5
 70
0
 10
140.3997060034
 20
138.38284661
 10
140.3535682758
 20
138.409688107
 10
140.2966866456
 20
138.444452164
 10
140.2441548342
 20
138.4775857326
 10
140.195938401
 20
138.5080881405
  0
LWPOLYLINE
  5
506
100
AcDbEntity
  8
RACCORDO
100
AcDbPolyline
 62
7
  6
CONTINUOUS
 90
7
 70
0
 10
140.195938401
 20
138.5080881405
 10
140.1508749772
 20
138.5357429817
 10
140.1070652546
 20
138.5607849559
 10
140.0630916781
 20
138.5829915828
 10
140.017912219
 20
138.602021078
 10
139.9709845393
 20
138.617334035
 10
139.9634157508
 20
138.6190182019
  0
LINE
  5
507
100
AcDbEntity
  8
RACCORDO
100
AcDbLine
 62
7
  6
CONTINUOUS
 10
159.3709947963
 20
128.348372575
 11
159.3134228547
 21
128.4059445166
  0
LINE
  5
508
100
AcDbEntity
  8
RACCORDO
100
AcDbLine
 62
250
  6
CONTINUOUS
 10
154.4388539004
 20
68.0514887762
 11
154.4245563076
 21
68.03910859
  0
LWPOLYLINE
  5
509
100
AcDbEntity
  8
RACCORDO
100
AcDbPolyline
 62
7
  6
CONTINUOUS
 90
6
 70
0
 10
139.9630868766
 20
67.8195455731
 10
140.0083925874
 20
67.8332673916
 10
140.0555482325
 20
67.8523671357
 10
140.1013243155
 20
67.8750024957
 10
140.1466950333
 20
67.9006317666
 10
140.19318864
 20
67.9290412598
  0
LWPOLYLINE
  5
50A
100
AcDbEntity
  8
RACCORDO
100
AcDbPolyline
 62
250
  6
CONTINUOUS
 90
9
 70
0
 10
154.3988913873
 20
138.4045498975
 10
154.4025619224
 20
138.4051538303
 10
154.4060884858
 20
138.4054308564
 10
154.4094781501
 20
138.405390434
 10
154.4127306531
 20
138.4050172611
 10
154.4158597861
 20
138.4042726249
 10
154.4188718895
 20
138.4031422013
 10
154.4217664122
 20
138.401635729
 10
154.4245462929
 20
138.3997510309
  0
LINE
  5
50B
100
AcDbEntity
  8
RACCORDO
100
AcDbLine
 62
250
  6
CONTINUOUS
 10
149.0999420338
 20
136.1194253375
 11
148.4999420338
 21
136.1194253314
  0
LINE
  5
50C
100
AcDbEntity
  8
RACCORDO
100
AcDbLine
 62
250
  6
CONTINUOUS
 10
145.4999420338
 20
136.1194253375
 11
146.0999420338
 21
136.1194253375
  0
LINE
  5
50D
100
AcDbEntity
  8
RACCORDO
100
AcDbLine
 62
7
  6
CONTINUOUS
 10
154.0999420338
 20
136.7194253375
 11
149.0999420338
 21
136.7194253375
  0
LINE
  5
50E
100
AcDbEntity
  8
RACCORDO
100
AcDbLine
 62
7
  6
CONTINUOUS
 10
145.4999420338
 20
136.7194253375
 11
140.4999420338
 21
136.7194253375
  0
LWPOLYLINE
  5
50F
100
AcDbEntity
  8
RACCORDO
100
AcDbPolyline
 62
250
  6
CONTINUOUS
 90
11
 70
0
 10
140.200377506
 20
138.4046652424
 10
140.2099622172
 20
138.4020826441
 10
140.2201362509
 20
138.3975881893
 10
140.230528625
 20
138.3921111385
 10
140.2410252027
 20
138.3857281391
 10
140.2516798324
 20
138.3783528803
 10
140.2623234621
 20
138.3706311444
 10
140.272883127
 20
138.3626309156
 10
140.2833622847
 20
138.3542518808
 10
140.2936962865
 20
138.3458740741
 10
140.3038354757
 20
138.3375379203
  0
LWPOLYLINE
  5
510
100
AcDbEntity
  8
RACCORDO
100
AcDbPolyline
 62
250
  6
CONTINUOUS
 90
15
 70
0
 10
154.4245462929
 20
138.3997510309
 10
154.4330278157
 20
138.3927899614
 10
154.4411262858
 20
138.3856070839
 10
154.4488157798
 20
138.3781962049
 10
154.4560445165
 20
138.3705670674
 10
154.4628160467
 20
138.3626930816
 10
154.4691696715
 20
138.3545180705
 10
154.4750773063
 20
138.3460096369
 10
154.4804730188
 20
138.3371888941
 10
154.4853171874
 20
138.3280836598
 10
154.4895590784
 20
138.3186708527
 10
154.49314789
 20
138.308948497
 10
154.4960361872
 20
138.2989734194
 10
154.498169277
 20
138.2887509419
 10
154.4994896876
 20
138.2782341094
  0
LWPOLYLINE
  5
511
100
AcDbEntity
  8
RACCORDO
100
AcDbPolyline
 62
250
  6
CONTINUOUS
 90
3
 70
0
 10
154.4245563076
 20
68.03910859
 10
154.4167497857
 20
68.0354864851
 10
154.4084049813
 20
68.0338528343
  0
LWPOLYLINE
  5
512
100
AcDbEntity
  8
RACCORDO
100
AcDbPolyline
 62
250
  6
CONTINUOUS
 90
13
 70
0
 10
154.0999420338
 20
138.236582625
 10
154.1131554585
 20
138.2371025178
 10
154.1261145543
 20
138.2384467191
 10
154.1388068306
 20
138.2405982356
 10
154.1511266864
 20
138.2435274491
 10
154.1631599712
 20
138.2472261879
 10
154.1751797534
 20
138.2517281429
 10
154.1872006758
 20
138.2570055916
 10
154.1991836903
 20
138.2630901885
 10
154.21131288
 20
138.270135645
 10
154.2236348753
 20
138.2782081425
 10
154.2360637225
 20
138.2872717857
 10
154.2485779913
 20
138.2973398029
  0
LINE
  5
513
100
AcDbEntity
  8
RACCORDO
100
AcDbLine
 62
7
  6
CONTINUOUS
 10
146.0999420338
 20
137.3194253375
 11
148.4999420338
 21
137.3194253375
  0
LINE
  5
514
100
AcDbEntity
  8
RACCORDO
100
AcDbLine
 62
250
  6
CONTINUOUS
 10
140.4999420338
 20
138.236582625
 11
154.0999420338
 21
138.236582625
  0
LINE
  5
515
100
AcDbEntity
  8
RACCORDO
100
AcDbLine
 62
7
  6
CONTINUOUS
 10
140.4999420338
 20
138.3537399126
 11
154.0999420338
 21
138.3537399126
  0
LINE
  5
516
100
AcDbEntity
  8
RACCORDO
100
AcDbLine
 62
7
  6
CONTINUOUS
 10
137.8922674285
 20
138.7194253375
 11
139.6999420338
 21
138.7194253375
  0
LINE
  5
517
100
AcDbEntity
  8
RACCORDO
100
AcDbLine
 62
7
  6
CONTINUOUS
 10
154.8999420338
 20
138.7194253375
 11
156.7076166392
 21
138.7194253375
  0
LINE
  5
518
100
AcDbEntity
  8
RACCORDO
100
AcDbLine
 62
250
  6
CONTINUOUS
 10
140.1914790863
 20
138.4049978408
 11
140.200377506
 21
138.4046652424
  0
LWPOLYLINE
  5
519
100
AcDbEntity
  8
RACCORDO
100
AcDbPolyline
 62
7
  6
CONTINUOUS
 90
5
 70
0
 10
140.4999420368
 20
138.3537395614
 10
140.4838541255
 20
138.3545196382
 10
140.4568917521
 20
138.3592729174
 10
140.4281885739
 20
138.3688878692
 10
140.3997092352
 20
138.3828523197
  0
CIRCLE
  5
51A
100
AcDbEntity
  8
DRAFT
100
AcDbCircle
 62
7
  6
CONTINUOUS
 10
134.7999420338
 20
70.2194253375
 40
1.1
  0
CIRCLE
  5
51B
100
AcDbEntity
  8
DRAFT
100
AcDbCircle
 62
7
  6
CONTINUOUS
 10
134.7999420338
 20
95.2194253375
 40
1.1
  0
ARC
  5
51C
100
AcDbEntity
  8
0
100
AcDbCircle
 62
250
  6
CONTINUOUS
 10
144.129768537
 20
85.3194253375
 40
1.0
100
AcDbArc
 50
270.0
 51
320.6433010727
  0
ARC
  5
51D
100
AcDbEntity
  8
0
100
AcDbCircle
 62
250
  6
CONTINUOUS
 10
144.129768537
 20
80.1194253375
 40
1.0
100
AcDbArc
 50
39.3566989273
 51
90.0
  0
CIRCLE
  5
51E
100
AcDbEntity
  8
RACCORDO
100
AcDbCircle
 62
250
  6
CONTINUOUS
 10
134.7999420338
 20
70.2194253375
 40
0.9889134922
  0
CIRCLE
  5
51F
100
AcDbEntity
  8
RACCORDO
100
AcDbCircle
 62
250
  6
CONTINUOUS
 10
134.7999420338
 20
95.2194253375
 40
0.9889134922
  0
ARC
  5
520
100
AcDbEntity
  8
0
100
AcDbCircle
 62
7
  6
CONTINUOUS
 10
144.129768537
 20
80.1194253375
 40
0.6
100
AcDbArc
 50
39.3566989273
 51
90.0
  0
ARC
  5
521
100
AcDbEntity
  8
0
100
AcDbCircle
 62
7
  6
CONTINUOUS
 10
144.129768537
 20
85.3194253375
 40
0.6
100
AcDbArc
 50
270.0
 51
320.6433010727
  0
ARC
  5
522
100
AcDbEntity
  8
DRAFT
100
AcDbCircle
 62
7
  6
CONTINUOUS
 10
143.3401440592
 20
78.7596273629
 40
0.5
100
AcDbArc
 50
9.6934404798
 51
80.3065595202
  0
ARC
  5
523
100
AcDbEntity
  8
DRAFT
100
AcDbCircle
 62
7
  6
CONTINUOUS
 10
143.3401440592
 20
86.6792233122
 40
0.5
100
AcDbArc
 50
279.6934404798
 51
350.3065595202
  0
ARC
  5
524
100
AcDbEntity
  8
0
100
AcDbCircle
 62
7
  6
CONTINUOUS
 10
145.1999420338
 20
87.5856353618
 40
0.4
100
AcDbArc
 50
113.342484405
 51
180.0
  0
ARC
  5
525
100
AcDbEntity
  8
0
100
AcDbCircle
 62
7
  6
CONTINUOUS
 10
145.1999420338
 20
77.8532153133
 40
0.4
100
AcDbArc
 50
180.0
 51
246.657515595
  0
ARC
  5
526
100
AcDbEntity
  8
0
100
AcDbCircle
 62
250
  6
CONTINUOUS
 10
144.129768537
 20
80.1194253375
 40
0.2
100
AcDbArc
 50
39.3566989273
 51
90.0
  0
ARC
  5
527
100
AcDbEntity
  8
0
100
AcDbCircle
 62
250
  6
CONTINUOUS
 10
144.129768537
 20
85.3194253375
 40
0.2
100
AcDbArc
 50
270.0
 51
320.6433010727
  0
CIRCLE
  5
528
100
AcDbEntity
  8
RACCORDO
100
AcDbCircle
 62
250
  6
CONTINUOUS
 10
134.7999420338
 20
70.2194253375
 40
0.1919577337
  0
CIRCLE
  5
529
100
AcDbEntity
  8
RACCORDO
100
AcDbCircle
 62
250
  6
CONTINUOUS
 10
134.7999420338
 20
95.2194253375
 40
0.1919577337
  0
CIRCLE
  5
52A
100
AcDbEntity
  8
DRAFT
100
AcDbCircle
 62
7
  6
CONTINUOUS
 10
134.7999420338
 20
111.2194253375
 40
1.1
  0
CIRCLE
  5
52B
100
AcDbEntity
  8
DRAFT
100
AcDbCircle
 62
7
  6
CONTINUOUS
 10
134.7999420338
 20
136.2194253375
 40
1.1
  0
ARC
  5
52C
100
AcDbEntity
  8
0
100
AcDbCircle
 62
250
  6
CONTINUOUS
 10
144.129768537
 20
126.3194253375
 40
1.0
100
AcDbArc
 50
270.0
 51
320.6433010727
  0
ARC
  5
52D
100
AcDbEntity
  8
0
100
AcDbCircle
 62
250
  6
CONTINUOUS
 10
144.129768537
 20
121.1194253375
 40
1.0
100
AcDbArc
 50
39.3566989273
 51
90.0
  0
CIRCLE
  5
52E
100
AcDbEntity
  8
RACCORDO
100
AcDbCircle
 62
250
  6
CONTINUOUS
 10
134.7999420338
 20
111.2194253375
 40
0.9889134922
  0
CIRCLE
  5
52F
100
AcDbEntity
  8
RACCORDO
100
AcDbCircle
 62
250
  6
CONTINUOUS
 10
134.7999420338
 20
136.2194253375
 40
0.9889134922
  0
ARC
  5
530
100
AcDbEntity
  8
0
100
AcDbCircle
 62
7
  6
CONTINUOUS
 10
144.129768537
 20
121.1194253375
 40
0.6
100
AcDbArc
 50
39.3566989273
 51
90.0
  0
ARC
  5
531
100
AcDbEntity
  8
0
100
AcDbCircle
 62
7
  6
CONTINUOUS
 10
144.129768537
 20
126.3194253375
 40
0.6
100
AcDbArc
 50
270.0
 51
320.6433010727
  0
ARC
  5
532
100
AcDbEntity
  8
DRAFT
100
AcDbCircle
 62
7
  6
CONTINUOUS
 10
143.3401440592
 20
119.7596273629
 40
0.5
100
AcDbArc
 50
9.6934404798
 51
80.3065595202
  0
ARC
  5
533
100
AcDbEntity
  8
DRAFT
100
AcDbCircle
 62
7
  6
CONTINUOUS
 10
143.3401440592
 20
127.6792233122
 40
0.5
100
AcDbArc
 50
279.6934404798
 51
350.3065595202
  0
ARC
  5
534
100
AcDbEntity
  8
0
100
AcDbCircle
 62
7
  6
CONTINUOUS
 10
145.1999420338
 20
128.5856353618
 40
0.4
100
AcDbArc
 50
113.342484405
 51
180.0
  0
ARC
  5
535
100
AcDbEntity
  8
0
100
AcDbCircle
 62
7
  6
CONTINUOUS
 10
145.1999420338
 20
118.8532153133
 40
0.4
100
AcDbArc
 50
180.0
 51
246.657515595
  0
ARC
  5
536
100
AcDbEntity
  8
0
100
AcDbCircle
 62
250
  6
CONTINUOUS
 10
144.129768537
 20
121.1194253375
 40
0.2
100
AcDbArc
 50
39.3566989273
 51
90.0
  0
ARC
  5
537
100
AcDbEntity
  8
0
100
AcDbCircle
 62
250
  6
CONTINUOUS
 10
144.129768537
 20
126.3194253375
 40
0.2
100
AcDbArc
 50
270.0
 51
320.6433010727
  0
CIRCLE
  5
538
100
AcDbEntity
  8
RACCORDO
100
AcDbCircle
 62
250
  6
CONTINUOUS
 10
134.7999420338
 20
111.2194253375
 40
0.1919577337
  0
CIRCLE
  5
539
100
AcDbEntity
  8
RACCORDO
100
AcDbCircle
 62
250
  6
CONTINUOUS
 10
134.7999420338
 20
136.2194253375
 40
0.1919577337
  0
ARC
  5
53A
100
AcDbEntity
  8
RACCORDO
100
AcDbCircle
 62
250
  6
CONTINUOUS
 10
147.2999420338
 20
70.3194253375
 40
1.8
100
AcDbArc
 50
0.0
 51
180.0
  0
ARC
  5
53B
100
AcDbEntity
  8
RACCORDO
100
AcDbCircle
 62
7
  6
CONTINUOUS
 10
147.2999420338
 20
70.3194253375
 40
1.2
100
AcDbArc
 50
0.0
 51
180.0
  0
ARC
  5
53C
100
AcDbEntity
  8
0
100
AcDbCircle
 62
250
  6
CONTINUOUS
 10
150.4701155307
 20
80.1194253375
 40
1.0
100
AcDbArc
 50
90.0
 51
140.6433010727
  0
ARC
  5
53D
100
AcDbEntity
  8
0
100
AcDbCircle
 62
7
  6
CONTINUOUS
 10
150.4701155307
 20
80.1194253375
 40
0.6
100
AcDbArc
 50
90.0
 51
140.6433010727
  0
ARC
  5
53E
100
AcDbEntity
  8
DRAFT
100
AcDbCircle
 62
7
  6
CONTINUOUS
 10
151.2597400085
 20
78.7596273629
 40
0.5
100
AcDbArc
 50
99.6934404798
 51
170.3065595202
  0
ARC
  5
53F
100
AcDbEntity
  8
0
100
AcDbCircle
 62
7
  6
CONTINUOUS
 10
149.3999420338
 20
77.8532153133
 40
0.4
100
AcDbArc
 50
293.342484405
 51
360.0
  0
ARC
  5
540
100
AcDbEntity
  8
0
100
AcDbCircle
 62
250
  6
CONTINUOUS
 10
150.4701155307
 20
80.1194253375
 40
0.2
100
AcDbArc
 50
90.0
 51
140.6433010727
  0
CIRCLE
  5
541
100
AcDbEntity
  8
SMUSSO
100
AcDbCircle
 62
7
  6
CONTINUOUS
 10
147.2999420338
 20
82.7194253375
 40
7.2
  0
CIRCLE
  5
542
100
AcDbEntity
  8
DRAFT
100
AcDbCircle
 62
7
  6
CONTINUOUS
 10
147.2999420338
 20
82.7194253375
 40
5.8710606276
  0
CIRCLE
  5
543
100
AcDbEntity
  8
DRAFT
100
AcDbCircle
 62
7
  6
CONTINUOUS
 10
147.2999420338
 20
82.7194253375
 40
5.8
  0
ARC
  5
544
100
AcDbEntity
  8
0
100
AcDbCircle
 62
7
  6
CONTINUOUS
 10
147.2999420338
 20
82.7194253375
 40
5.7
100
AcDbArc
 50
66.657515595
 51
113.342484405
  0
ARC
  5
545
100
AcDbEntity
  8
0
100
AcDbCircle
 62
7
  6
CONTINUOUS
 10
147.2999420338
 20
82.7194253375
 40
5.7
100
AcDbArc
 50
246.657515595
 51
293.342484405
  0
ARC
  5
546
100
AcDbEntity
  8
0
100
AcDbCircle
 62
250
  6
CONTINUOUS
 10
147.2999420338
 20
82.7194253375
 40
5.219894714
100
AcDbArc
 50
64.6975909235
 51
115.3024116369
  0
ARC
  5
547
100
AcDbEntity
  8
0
100
AcDbCircle
 62
250
  6
CONTINUOUS
 10
147.2999420338
 20
82.7194253375
 40
5.219894714
100
AcDbArc
 50
244.6975914328
 51
295.3024120728
  0
ARC
  5
548
100
AcDbEntity
  8
RACCORDO
100
AcDbCircle
 62
7
  6
CONTINUOUS
 10
147.2999420338
 20
82.7194253375
 40
5.2
100
AcDbArc
 50
318.1856946414
 51
324.3418477667
  0
ARC
  5
549
100
AcDbEntity
  8
RACCORDO
100
AcDbCircle
 62
7
  6
CONTINUOUS
 10
147.2999420338
 20
82.7194253375
 40
5.2
100
AcDbArc
 50
215.6581522333
 51
221.8143053586
  0
ARC
  5
54A
100
AcDbEntity
  8
RACCORDO
100
AcDbCircle
 62
7
  6
CONTINUOUS
 10
147.2999420338
 20
82.7194253375
 40
5.2
100
AcDbArc
 50
35.6581522333
 51
41.8143053586
  0
ARC
  5
54B
100
AcDbEntity
  8
RACCORDO
100
AcDbCircle
 62
7
  6
CONTINUOUS
 10
147.2999420338
 20
82.7194253375
 40
5.2
100
AcDbArc
 50
138.1856946414
 51
144.3418477667
  0
ARC
  5
54C
100
AcDbEntity
  8
DRAFT
100
AcDbCircle
 62
7
  6
CONTINUOUS
 10
147.2999420338
 20
82.7194253375
 40
5.2
100
AcDbArc
 50
118.7493758168
 51
131.8143053586
  0
ARC
  5
54D
100
AcDbEntity
  8
DRAFT
100
AcDbCircle
 62
7
  6
CONTINUOUS
 10
147.2999420338
 20
82.7194253375
 40
5.2
100
AcDbArc
 50
48.1856946414
 51
61.2506241832
  0
ARC
  5
54E
100
AcDbEntity
  8
DRAFT
100
AcDbCircle
 62
7
  6
CONTINUOUS
 10
147.2999420338
 20
82.7194253375
 40
5.2
100
AcDbArc
 50
298.7493758168
 51
311.8143053586
  0
ARC
  5
54F
100
AcDbEntity
  8
DRAFT
100
AcDbCircle
 62
7
  6
CONTINUOUS
 10
147.2999420338
 20
82.7194253375
 40
5.2
100
AcDbArc
 50
228.1856946414
 51
241.2506241832
  0
ARC
  5
550
100
AcDbEntity
  8
0
100
AcDbCircle
 62
250
  6
CONTINUOUS
 10
147.2999420338
 20
82.7194253375
 40
5.0931398272
100
AcDbArc
 50
215.3555179157
 51
240.6271445915
  0
ARC
  5
551
100
AcDbEntity
  8
0
100
AcDbCircle
 62
250
  6
CONTINUOUS
 10
147.2999420338
 20
82.7194253375
 40
5.0931398272
100
AcDbArc
 50
299.3728590804
 51
324.6444820828
  0
ARC
  5
552
100
AcDbEntity
  8
0
100
AcDbCircle
 62
250
  6
CONTINUOUS
 10
147.2999420338
 20
82.7194253375
 40
5.0931398272
100
AcDbArc
 50
35.3555179157
 51
60.627145623
  0
ARC
  5
553
100
AcDbEntity
  8
0
100
AcDbCircle
 62
250
  6
CONTINUOUS
 10
147.2999420338
 20
82.7194253375
 40
5.0931398272
100
AcDbArc
 50
119.3728578092
 51
144.6444820829
  0
ARC
  5
554
100
AcDbEntity
  8
0
100
AcDbCircle
 62
250
  6
CONTINUOUS
 10
147.2999420338
 20
82.7194253375
 40
5.0230758612
100
AcDbArc
 50
216.0020418981
 51
240.1518530814
  0
ARC
  5
555
100
AcDbEntity
  8
0
100
AcDbCircle
 62
250
  6
CONTINUOUS
 10
147.2999420338
 20
82.7194253375
 40
5.0230758612
100
AcDbArc
 50
299.848146919
 51
323.9979581046
  0
ARC
  5
556
100
AcDbEntity
  8
0
100
AcDbCircle
 62
250
  6
CONTINUOUS
 10
147.2999420338
 20
82.7194253375
 40
5.0230758612
100
AcDbArc
 50
36.0020418981
 51
60.1518530814
  0
ARC
  5
557
100
AcDbEntity
  8
0
100
AcDbCircle
 62
250
  6
CONTINUOUS
 10
147.2999420338
 20
82.7194253375
 40
5.0230758612
100
AcDbArc
 50
119.848146919
 51
143.9979581046
  0
ARC
  5
558
100
AcDbEntity
  8
0
100
AcDbCircle
 62
250
  6
CONTINUOUS
 10
147.2999420338
 20
82.7194253375
 40
4.9134769367
100
AcDbArc
 50
244.6975898569
 51
295.302411935
  0
ARC
  5
559
100
AcDbEntity
  8
0
100
AcDbCircle
 62
250
  6
CONTINUOUS
 10
147.2999420338
 20
82.7194253375
 40
4.9134769367
100
AcDbArc
 50
64.6975904357
 51
115.3024115653
  0
ARC
  5
55A
100
AcDbEntity
  8
0
100
AcDbCircle
 62
250
  6
CONTINUOUS
 10
147.2999420338
 20
82.7194253375
 40
4.6231367806
100
AcDbArc
 50
216.0020418981
 51
242.984144773
  0
ARC
  5
55B
100
AcDbEntity
  8
0
100
AcDbCircle
 62
250
  6
CONTINUOUS
 10
147.2999420338
 20
82.7194253375
 40
4.6231367804
100
AcDbArc
 50
297.015855227
 51
323.9979581046
  0
ARC
  5
55C
100
AcDbEntity
  8
0
100
AcDbCircle
 62
250
  6
CONTINUOUS
 10
147.2999420338
 20
82.7194253375
 40
4.6231367804
100
AcDbArc
 50
117.015855227
 51
143.9979581046
  0
ARC
  5
55D
100
AcDbEntity
  8
0
100
AcDbCircle
 62
250
  6
CONTINUOUS
 10
147.2999420338
 20
82.7194253375
 40
4.6231367806
100
AcDbArc
 50
36.0020418981
 51
62.984144773
  0
ARC
  5
55E
100
AcDbEntity
  8
0
100
AcDbCircle
 62
250
  6
CONTINUOUS
 10
147.2999420338
 20
82.7194253375
 40
3.9
100
AcDbArc
 50
219.3566989273
 51
320.6433010727
  0
ARC
  5
55F
100
AcDbEntity
  8
0
100
AcDbCircle
 62
250
  6
CONTINUOUS
 10
147.2999420338
 20
82.7194253375
 40
3.9
100
AcDbArc
 50
39.3566989273
 51
140.6433010727
  0
ARC
  5
560
100
AcDbEntity
  8
0
100
AcDbCircle
 62
7
  6
CONTINUOUS
 10
147.2999420338
 20
82.7194253375
 40
3.5
100
AcDbArc
 50
39.3566989273
 51
140.6433010727
  0
ARC
  5
561
100
AcDbEntity
  8
0
100
AcDbCircle
 62
7
  6
CONTINUOUS
 10
147.2999420338
 20
82.7194253375
 40
3.5
100
AcDbArc
 50
219.3566989273
 51
320.6433010727
  0
ARC
  5
562
100
AcDbEntity
  8
0
100
AcDbCircle
 62
250
  6
CONTINUOUS
 10
147.2999420338
 20
82.7194253375
 40
3.1
100
AcDbArc
 50
219.3566989273
 51
320.6433010727
  0
ARC
  5
563
100
AcDbEntity
  8
0
100
AcDbCircle
 62
250
  6
CONTINUOUS
 10
147.2999420338
 20
82.7194253375
 40
3.1
100
AcDbArc
 50
39.3566989273
 51
140.6433010727
  0
ARC
  5
564
100
AcDbEntity
  8
RACCORDO
100
AcDbCircle
 62
250
  6
CONTINUOUS
 10
147.2999420338
 20
95.1194253375
 40
1.8
100
AcDbArc
 50
180.0
 51
360.0
  0
ARC
  5
565
100
AcDbEntity
  8
RACCORDO
100
AcDbCircle
 62
7
  6
CONTINUOUS
 10
147.2999420338
 20
95.1194253375
 40
1.2
100
AcDbArc
 50
180.0
 51
360.0
  0
ARC
  5
566
100
AcDbEntity
  8
0
100
AcDbCircle
 62
250
  6
CONTINUOUS
 10
150.4701155307
 20
85.3194253375
 40
1.0
100
AcDbArc
 50
219.3566989273
 51
270.0
  0
ARC
  5
567
100
AcDbEntity
  8
0
100
AcDbCircle
 62
7
  6
CONTINUOUS
 10
150.4701155307
 20
85.3194253375
 40
0.6
100
AcDbArc
 50
219.3566989273
 51
270.0
  0
ARC
  5
568
100
AcDbEntity
  8
DRAFT
100
AcDbCircle
 62
7
  6
CONTINUOUS
 10
151.2597400085
 20
86.6792233122
 40
0.5
100
AcDbArc
 50
189.6934404798
 51
260.3065595202
  0
ARC
  5
569
100
AcDbEntity
  8
0
100
AcDbCircle
 62
7
  6
CONTINUOUS
 10
149.3999420338
 20
87.5856353618
 40
0.4
100
AcDbArc
 50
0.0
 51
66.657515595
  0
ARC
  5
56A
100
AcDbEntity
  8
0
100
AcDbCircle
 62
250
  6
CONTINUOUS
 10
150.4701155307
 20
85.3194253375
 40
0.2
100
AcDbArc
 50
219.3566989273
 51
270.0
  0
CIRCLE
  5
56B
100
AcDbEntity
  8
DRAFT
100
AcDbCircle
 62
7
  6
CONTINUOUS
 10
159.7999420338
 20
70.2194253375
 40
1.1
  0
CIRCLE
  5
56C
100
AcDbEntity
  8
RACCORDO
100
AcDbCircle
 62
250
  6
CONTINUOUS
 10
159.7999420338
 20
70.2194253375
 40
0.9889134922
  0
CIRCLE
  5
56D
100
AcDbEntity
  8
RACCORDO
100
AcDbCircle
 62
250
  6
CONTINUOUS
 10
159.7999420338
 20
70.2194253375
 40
0.1919577337
  0
CIRCLE
  5
56E
100
AcDbEntity
  8
DRAFT
100
AcDbCircle
 62
7
  6
CONTINUOUS
 10
159.7999420338
 20
95.2194253375
 40
1.1
  0
CIRCLE
  5
56F
100
AcDbEntity
  8
RACCORDO
100
AcDbCircle
 62
250
  6
CONTINUOUS
 10
159.7999420338
 20
95.2194253375
 40
0.9889134922
  0
CIRCLE
  5
570
100
AcDbEntity
  8
RACCORDO
100
AcDbCircle
 62
250
  6
CONTINUOUS
 10
159.7999420338
 20
95.2194253375
 40
0.1919577337
  0
ARC
  5
571
100
AcDbEntity
  8
RACCORDO
100
AcDbCircle
 62
250
  6
CONTINUOUS
 10
147.2999420338
 20
111.3194253375
 40
1.8
100
AcDbArc
 50
0.0
 51
180.0
  0
ARC
  5
572
100
AcDbEntity
  8
RACCORDO
100
AcDbCircle
 62
7
  6
CONTINUOUS
 10
147.2999420338
 20
111.3194253375
 40
1.2
100
AcDbArc
 50
0.0
 51
180.0
  0
ARC
  5
573
100
AcDbEntity
  8
0
100
AcDbCircle
 62
250
  6
CONTINUOUS
 10
150.4701155307
 20
121.1194253375
 40
1.0
100
AcDbArc
 50
90.0
 51
140.6433010727
  0
ARC
  5
574
100
AcDbEntity
  8
0
100
AcDbCircle
 62
7
  6
CONTINUOUS
 10
150.4701155307
 20
121.1194253375
 40
0.6
100
AcDbArc
 50
90.0
 51
140.6433010727
  0
ARC
  5
575
100
AcDbEntity
  8
DRAFT
100
AcDbCircle
 62
7
  6
CONTINUOUS
 10
151.2597400085
 20
119.7596273629
 40
0.5
100
AcDbArc
 50
99.6934404798
 51
170.3065595202
  0
ARC
  5
576
100
AcDbEntity
  8
0
100
AcDbCircle
 62
7
  6
CONTINUOUS
 10
149.3999420338
 20
118.8532153133
 40
0.4
100
AcDbArc
 50
293.342484405
 51
360.0
  0
ARC
  5
577
100
AcDbEntity
  8
0
100
AcDbCircle
 62
250
  6
CONTINUOUS
 10
150.4701155307
 20
121.1194253375
 40
0.2
100
AcDbArc
 50
90.0
 51
140.6433010727
  0
CIRCLE
  5
578
100
AcDbEntity
  8
SMUSSO
100
AcDbCircle
 62
7
  6
CONTINUOUS
 10
147.2999420338
 20
123.7194253375
 40
7.2
  0
CIRCLE
  5
579
100
AcDbEntity
  8
DRAFT
100
AcDbCircle
 62
7
  6
CONTINUOUS
 10
147.2999420338
 20
123.7194253375
 40
5.8710606276
  0
CIRCLE
  5
57A
100
AcDbEntity
  8
DRAFT
100
AcDbCircle
 62
7
  6
CONTINUOUS
 10
147.2999420338
 20
123.7194253375
 40
5.8
  0
ARC
  5
57B
100
AcDbEntity
  8
0
100
AcDbCircle
 62
7
  6
CONTINUOUS
 10
147.2999420338
 20
123.7194253375
 40
5.7
100
AcDbArc
 50
66.657515595
 51
113.342484405
  0
ARC
  5
57C
100
AcDbEntity
  8
0
100
AcDbCircle
 62
7
  6
CONTINUOUS
 10
147.2999420338
 20
123.7194253375
 40
5.7
100
AcDbArc
 50
246.657515595
 51
293.342484405
  0
ARC
  5
57D
100
AcDbEntity
  8
0
100
AcDbCircle
 62
250
  6
CONTINUOUS
 10
147.2999420338
 20
123.7194253375
 40
5.219894714
100
AcDbArc
 50
64.6975909235
 51
115.3024116369
  0
ARC
  5
57E
100
AcDbEntity
  8
0
100
AcDbCircle
 62
250
  6
CONTINUOUS
 10
147.2999420338
 20
123.7194253375
 40
5.219894714
100
AcDbArc
 50
244.6975914328
 51
295.3024120728
  0
ARC
  5
57F
100
AcDbEntity
  8
RACCORDO
100
AcDbCircle
 62
7
  6
CONTINUOUS
 10
147.2999420338
 20
123.7194253375
 40
5.2
100
AcDbArc
 50
318.1856946414
 51
324.3418477667
  0
ARC
  5
580
100
AcDbEntity
  8
RACCORDO
100
AcDbCircle
 62
7
  6
CONTINUOUS
 10
147.2999420338
 20
123.7194253375
 40
5.2
100
AcDbArc
 50
215.6581522333
 51
221.8143053586
  0
ARC
  5
581
100
AcDbEntity
  8
RACCORDO
100
AcDbCircle
 62
7
  6
CONTINUOUS
 10
147.2999420338
 20
123.7194253375
 40
5.2
100
AcDbArc
 50
35.6581522333
 51
41.8143053586
  0
ARC
  5
582
100
AcDbEntity
  8
RACCORDO
100
AcDbCircle
 62
7
  6
CONTINUOUS
 10
147.2999420338
 20
123.7194253375
 40
5.2
100
AcDbArc
 50
138.1856946414
 51
144.3418477667
  0
ARC
  5
583
100
AcDbEntity
  8
DRAFT
100
AcDbCircle
 62
7
  6
CONTINUOUS
 10
147.2999420338
 20
123.7194253375
 40
5.2
100
AcDbArc
 50
118.7493758168
 51
131.8143053586
  0
ARC
  5
584
100
AcDbEntity
  8
DRAFT
100
AcDbCircle
 62
7
  6
CONTINUOUS
 10
147.2999420338
 20
123.7194253375
 40
5.2
100
AcDbArc
 50
48.1856946414
 51
61.2506241832
  0
ARC
  5
585
100
AcDbEntity
  8
DRAFT
100
AcDbCircle
 62
7
  6
CONTINUOUS
 10
147.2999420338
 20
123.7194253375
 40
5.2
100
AcDbArc
 50
298.7493758168
 51
311.8143053586
  0
ARC
  5
586
100
AcDbEntity
  8
DRAFT
100
AcDbCircle
 62
7
  6
CONTINUOUS
 10
147.2999420338
 20
123.7194253375
 40
5.2
100
AcDbArc
 50
228.1856946414
 51
241.2506241832
  0
ARC
  5
587
100
AcDbEntity
  8
0
100
AcDbCircle
 62
250
  6
CONTINUOUS
 10
147.2999420338
 20
123.7194253375
 40
5.0931398272
100
AcDbArc
 50
215.3555179157
 51
240.6271445915
  0
ARC
  5
588
100
AcDbEntity
  8
0
100
AcDbCircle
 62
250
  6
CONTINUOUS
 10
147.2999420338
 20
123.7194253375
 40
5.0931398272
100
AcDbArc
 50
299.3728590804
 51
324.6444820828
  0
ARC
  5
589
100
AcDbEntity
  8
0
100
AcDbCircle
 62
250
  6
CONTINUOUS
 10
147.2999420338
 20
123.7194253375
 40
5.0931398272
100
AcDbArc
 50
35.3555179157
 51
60.627145623
  0
ARC
  5
58A
100
AcDbEntity
  8
0
100
AcDbCircle
 62
250
  6
CONTINUOUS
 10
147.2999420338
 20
123.7194253375
 40
5.0931398272
100
AcDbArc
 50
119.3728578092
 51
144.6444820829
  0
ARC
  5
58B
100
AcDbEntity
  8
0
100
AcDbCircle
 62
250
  6
CONTINUOUS
 10
147.2999420338
 20
123.7194253375
 40
5.0230758612
100
AcDbArc
 50
216.0020418981
 51
240.1518530814
  0
ARC
  5
58C
100
AcDbEntity
  8
0
100
AcDbCircle
 62
250
  6
CONTINUOUS
 10
147.2999420338
 20
123.7194253375
 40
5.0230758612
100
AcDbArc
 50
299.848146919
 51
323.9979581046
  0
ARC
  5
58D
100
AcDbEntity
  8
0
100
AcDbCircle
 62
250
  6
CONTINUOUS
 10
147.2999420338
 20
123.7194253375
 40
5.0230758612
100
AcDbArc
 50
36.0020418981
 51
60.1518530814
  0
ARC
  5
58E
100
AcDbEntity
  8
0
100
AcDbCircle
 62
250
  6
CONTINUOUS
 10
147.2999420338
 20
123.7194253375
 40
5.0230758612
100
AcDbArc
 50
119.848146919
 51
143.9979581046
  0
ARC
  5
58F
100
AcDbEntity
  8
0
100
AcDbCircle
 62
250
  6
CONTINUOUS
 10
147.2999420338
 20
123.7194253375
 40
4.9134769367
100
AcDbArc
 50
244.6975898569
 51
295.302411935
  0
ARC
  5
590
100
AcDbEntity
  8
0
100
AcDbCircle
 62
250
  6
CONTINUOUS
 10
147.2999420338
 20
123.7194253375
 40
4.9134769367
100
AcDbArc
 50
64.6975904357
 51
115.3024115653
  0
ARC
  5
591
100
AcDbEntity
  8
0
100
AcDbCircle
 62
250
  6
CONTINUOUS
 10
147.2999420338
 20
123.7194253375
 40
4.6231367806
100
AcDbArc
 50
216.0020418981
 51
242.984144773
  0
ARC
  5
592
100
AcDbEntity
  8
0
100
AcDbCircle
 62
250
  6
CONTINUOUS
 10
147.2999420338
 20
123.7194253375
 40
4.6231367804
100
AcDbArc
 50
297.015855227
 51
323.9979581046
  0
ARC
  5
593
100
AcDbEntity
  8
0
100
AcDbCircle
 62
250
  6
CONTINUOUS
 10
147.2999420338
 20
123.7194253375
 40
4.6231367804
100
AcDbArc
 50
117.015855227
 51
143.9979581046
  0
ARC
  5
594
100
AcDbEntity
  8
0
100
AcDbCircle
 62
250
  6
CONTINUOUS
 10
147.2999420338
 20
123.7194253375
 40
4.6231367806
100
AcDbArc
 50
36.0020418981
 51
62.984144773
  0
ARC
  5
595
100
AcDbEntity
  8
0
100
AcDbCircle
 62
250
  6
CONTINUOUS
 10
147.2999420338
 20
123.7194253375
 40
3.9
100
AcDbArc
 50
219.3566989273
 51
320.6433010727
  0
ARC
  5
596
100
AcDbEntity
  8
0
100
AcDbCircle
 62
250
  6
CONTINUOUS
 10
147.2999420338
 20
123.7194253375
 40
3.9
100
AcDbArc
 50
39.3566989273
 51
140.6433010727
  0
ARC
  5
597
100
AcDbEntity
  8
0
100
AcDbCircle
 62
7
  6
CONTINUOUS
 10
147.2999420338
 20
123.7194253375
 40
3.5
100
AcDbArc
 50
39.3566989273
 51
140.6433010727
  0
ARC
  5
598
100
AcDbEntity
  8
0
100
AcDbCircle
 62
7
  6
CONTINUOUS
 10
147.2999420338
 20
123.7194253375
 40
3.5
100
AcDbArc
 50
219.3566989273
 51
320.6433010727
  0
ARC
  5
599
100
AcDbEntity
  8
0
100
AcDbCircle
 62
250
  6
CONTINUOUS
 10
147.2999420338
 20
123.7194253375
 40
3.1
100
AcDbArc
 50
219.3566989273
 51
320.6433010727
  0
ARC
  5
59A
100
AcDbEntity
  8
0
100
AcDbCircle
 62
250
  6
CONTINUOUS
 10
147.2999420338
 20
123.7194253375
 40
3.1
100
AcDbArc
 50
39.3566989273
 51
140.6433010727
  0
ARC
  5
59B
100
AcDbEntity
  8
RACCORDO
100
AcDbCircle
 62
250
  6
CONTINUOUS
 10
147.2999420338
 20
136.1194253375
 40
1.8
100
AcDbArc
 50
180.0
 51
360.0
  0
ARC
  5
59C
100
AcDbEntity
  8
RACCORDO
100
AcDbCircle
 62
7
  6
CONTINUOUS
 10
147.2999420338
 20
136.1194253375
 40
1.2
100
AcDbArc
 50
180.0
 51
360.0
  0
ARC
  5
59D
100
AcDbEntity
  8
0
100
AcDbCircle
 62
250
  6
CONTINUOUS
 10
150.4701155307
 20
126.3194253375
 40
1.0
100
AcDbArc
 50
219.3566989273
 51
270.0
  0
ARC
  5
59E
100
AcDbEntity
  8
0
100
AcDbCircle
 62
7
  6
CONTINUOUS
 10
150.4701155307
 20
126.3194253375
 40
0.6
100
AcDbArc
 50
219.3566989273
 51
270.0
  0
ARC
  5
59F
100
AcDbEntity
  8
DRAFT
100
AcDbCircle
 62
7
  6
CONTINUOUS
 10
151.2597400085
 20
127.6792233122
 40
0.5
100
AcDbArc
 50
189.6934404798
 51
260.3065595202
  0
ARC
  5
5A0
100
AcDbEntity
  8
0
100
AcDbCircle
 62
7
  6
CONTINUOUS
 10
149.3999420338
 20
128.5856353618
 40
0.4
100
AcDbArc
 50
0.0
 51
66.657515595
  0
ARC
  5
5A1
100
AcDbEntity
  8
0
100
AcDbCircle
 62
250
  6
CONTINUOUS
 10
150.4701155307
 20
126.3194253375
 40
0.2
100
AcDbArc
 50
219.3566989273
 51
270.0
  0
CIRCLE
  5
5A2
100
AcDbEntity
  8
DRAFT
100
AcDbCircle
 62
7
  6
CONTINUOUS
 10
159.7999420338
 20
111.2194253375
 40
1.1
  0
CIRCLE
  5
5A3
100
AcDbEntity
  8
RACCORDO
100
AcDbCircle
 62
250
  6
CONTINUOUS
 10
159.7999420338
 20
111.2194253375
 40
0.9889134922
  0
CIRCLE
  5
5A4
100
AcDbEntity
  8
RACCORDO
100
AcDbCircle
 62
250
  6
CONTINUOUS
 10
159.7999420338
 20
111.2194253375
 40
0.1919577337
  0
CIRCLE
  5
5A5
100
AcDbEntity
  8
DRAFT
100
AcDbCircle
 62
7
  6
CONTINUOUS
 10
159.7999420338
 20
136.2194253375
 40
1.1
  0
CIRCLE
  5
5A6
100
AcDbEntity
  8
RACCORDO
100
AcDbCircle
 62
250
  6
CONTINUOUS
 10
159.7999420338
 20
136.2194253375
 40
0.9889134922
  0
CIRCLE
  5
5A7
100
AcDbEntity
  8
RACCORDO
100
AcDbCircle
 62
250
  6
CONTINUOUS
 10
159.7999420338
 20
136.2194253375
 40
0.1919577337
  0
ELLIPSE
  5
5A8
100
AcDbEntity
  8
RACCORDO
100
AcDbEllipse
 62
7
  6
CONTINUOUS
 10
139.6999420338
 20
68.1199742759
 30
0.0
 11
0.0
 21
0.4005489384
 31
0.0
 40
0.9986295348
 41
3.1415926536
 42
4.7123889804
  0
ELLIPSE
  5
5A9
100
AcDbEntity
  8
RACCORDO
100
AcDbEllipse
 62
7
  6
CONTINUOUS
 10
137.9076271714
 20
73.3271104751
 30
0.0
 11
3.9706589632
 21
3.9706589632
 31
0.0
 40
0.9972646886
 41
2.3575640181
 42
3.9256212891
  0
ELLIPSE
  5
5AA
100
AcDbEntity
  8
RACCORDO
100
AcDbEllipse
 62
7
  6
CONTINUOUS
 10
133.3013143798
 20
74.7188157932
 30
0.0
 11
-0.8338289523
 21
0.5556035581
 31
0.0
 40
0.9980228614
 41
-0.9821146404
 42
0.5868551869
  0
ELLIPSE
  5
5AB
100
AcDbEntity
  8
RACCORDO
100
AcDbEllipse
 62
7
  6
CONTINUOUS
 10
133.3013143798
 20
90.7200348818
 30
0.0
 11
0.8338289523
 21
0.5556035581
 31
0.0
 40
0.9980228614
 41
2.5547374667
 42
4.123707294
  0
ELLIPSE
  5
5AC
100
AcDbEntity
  8
RACCORDO
100
AcDbEllipse
 62
7
  6
CONTINUOUS
 10
137.9076271714
 20
92.1117401999
 30
0.0
 11
3.9706589632
 21
-3.9706589632
 31
0.0
 40
0.9972646886
 41
2.3575640181
 42
3.9256212891
  0
ELLIPSE
  5
5AD
100
AcDbEntity
  8
RACCORDO
100
AcDbEllipse
 62
7
  6
CONTINUOUS
 10
139.6999420338
 20
97.3188763991
 30
0.0
 11
0.0
 21
0.4005489384
 31
0.0
 40
0.9986295348
 41
-1.5707963268
 42
0.0
  0
ELLIPSE
  5
5AE
100
AcDbEntity
  8
RACCORDO
100
AcDbEllipse
 62
7
  6
CONTINUOUS
 10
154.8999420338
 20
97.3188763991
 30
0.0
 11
-0.0
 21
-0.4005489384
 31
0.0
 40
0.9986295348
 41
3.1415926536
 42
4.7123889804
  0
ELLIPSE
  5
5AF
100
AcDbEntity
  8
RACCORDO
100
AcDbEllipse
 62
7
  6
CONTINUOUS
 10
156.6922568962
 20
92.1117401999
 30
0.0
 11
-3.9706589632
 21
-3.9706589632
 31
0.0
 40
0.9972646886
 41
2.3575640181
 42
3.9256212891
  0
ELLIPSE
  5
5B0
100
AcDbEntity
  8
RACCORDO
100
AcDbEllipse
 62
7
  6
CONTINUOUS
 10
161.2985696878
 20
90.7200348818
 30
0.0
 11
0.8338289523
 21
-0.5556035581
 31
0.0
 40
0.9980228614
 41
-0.9821146404
 42
0.5868551869
  0
ELLIPSE
  5
5B1
100
AcDbEntity
  8
RACCORDO
100
AcDbEllipse
 62
7
  6
CONTINUOUS
 10
161.2985696878
 20
74.7188157932
 30
0.0
 11
-0.8338289523
 21
-0.5556035581
 31
0.0
 40
0.9980228614
 41
2.5547374667
 42
4.123707294
  0
ELLIPSE
  5
5B2
100
AcDbEntity
  8
RACCORDO
100
AcDbEllipse
 62
7
  6
CONTINUOUS
 10
156.6922568962
 20
73.3271104751
 30
0.0
 11
-3.9706589632
 21
3.9706589632
 31
0.0
 40
0.9972646886
 41
2.3575640181
 42
3.9256212891
  0
ELLIPSE
  5
5B3
100
AcDbEntity
  8
RACCORDO
100
AcDbEllipse
 62
7
  6
CONTINUOUS
 10
154.8999420338
 20
68.1199742759
 30
0.0
 11
-0.0
 21
-0.4005489384
 31
0.0
 40
0.9986295348
 41
-1.5707963268
 42
-0.0
  0
ELLIPSE
  5
5B4
100
AcDbEntity
  8
RACCORDO
100
AcDbEllipse
 62
7
  6
CONTINUOUS
 10
152.2003077604
 20
81.1190596109
 30
0.0
 11
-0.4247811268
 21
0.4247811268
 31
0.0
 40
0.998782766
 41
-0.7847891758
 42
0.7847891758
  0
ELLIPSE
  5
5B5
100
AcDbEntity
  8
RACCORDO
100
AcDbEllipse
 62
7
  6
CONTINUOUS
 10
142.3995763073
 20
81.1190596109
 30
0.0
 11
-0.4247811268
 21
-0.4247811268
 31
0.0
 40
0.998782766
 41
2.3568034778
 42
3.9263818294
  0
ELLIPSE
  5
5B6
100
AcDbEntity
  8
RACCORDO
100
AcDbEllipse
 62
7
  6
CONTINUOUS
 10
142.3995763073
 20
84.3197910641
 30
0.0
 11
0.4247811268
 21
-0.4247811268
 31
0.0
 40
0.998782766
 41
-0.7847891758
 42
0.7847891758
  0
ELLIPSE
  5
5B7
100
AcDbEntity
  8
RACCORDO
100
AcDbEllipse
 62
7
  6
CONTINUOUS
 10
152.2003077604
 20
84.3197910641
 30
0.0
 11
0.4247811268
 21
0.4247811268
 31
0.0
 40
0.998782766
 41
2.3568034778
 42
3.9263818294
  0
ELLIPSE
  5
5B8
100
AcDbEntity
  8
RACCORDO
100
AcDbEllipse
 62
7
  6
CONTINUOUS
 10
135.0927728097
 20
86.7462767918
 30
0.0
 11
0.2144255762
 21
0.5621786813
 31
0.0
 40
0.9831276504
 41
0.3713063031
 42
1.9408846548
  0
ELLIPSE
  5
5B9
100
AcDbEntity
  8
RACCORDO
100
AcDbEllipse
 62
7
  6
CONTINUOUS
 10
135.0927728097
 20
78.6925738832
 30
0.0
 11
-0.2144255762
 21
0.5621786813
 31
0.0
 40
0.9831276504
 41
1.2007079988
 42
2.7702863504
  0
ELLIPSE
  5
5BA
100
AcDbEntity
  8
RACCORDO
100
AcDbEllipse
 62
7
  6
CONTINUOUS
 10
159.5071112579
 20
86.7462767918
 30
0.0
 11
-0.2144255762
 21
0.5621786813
 31
0.0
 40
0.9831276504
 41
-1.9408846548
 42
-0.3713063031
  0
ELLIPSE
  5
5BB
100
AcDbEntity
  8
RACCORDO
100
AcDbEllipse
 62
7
  6
CONTINUOUS
 10
159.5071112579
 20
78.6925738832
 30
0.0
 11
0.2144255762
 21
0.5621786813
 31
0.0
 40
0.9831276504
 41
-2.7702863504
 42
-1.2007079988
  0
ELLIPSE
  5
5BC
100
AcDbEntity
  8
RACCORDO
100
AcDbEllipse
 62
7
  6
CONTINUOUS
 10
159.3139103416
 20
87.8057008474
 30
0.0
 11
0.0
 21
0.4
 31
0.0
 40
0.0349207695
 41
-4.7123889804
 42
-3.1764992386
  0
ELLIPSE
  5
5BD
100
AcDbEntity
  8
RACCORDO
100
AcDbEllipse
 62
7
  6
CONTINUOUS
 10
159.3139103416
 20
77.6331498276
 30
0.0
 11
0.0
 21
0.4
 31
0.0
 40
0.0349207695
 41
6.3180918922
 42
7.853981634
  0
ELLIPSE
  5
5BE
100
AcDbEntity
  8
RACCORDO
100
AcDbEllipse
 62
7
  6
CONTINUOUS
 10
135.285973726
 20
77.6331498276
 30
0.0
 11
-0.0
 21
0.4
 31
0.0
 40
0.0349207695
 41
-1.5707963268
 42
-0.034906585
  0
ELLIPSE
  5
5BF
100
AcDbEntity
  8
RACCORDO
100
AcDbEllipse
 62
7
  6
CONTINUOUS
 10
135.285973726
 20
87.8057008474
 30
0.0
 11
0.0
 21
0.4
 31
0.0
 40
0.0349207695
 41
3.1764992386
 42
4.7123889804
  0
ELLIPSE
  5
5C0
100
AcDbEntity
  8
RACCORDO
100
AcDbEllipse
 62
7
  6
CONTINUOUS
 10
134.6995763073
 20
89.1190596109
 30
0.0
 11
0.4247811268
 21
0.4247811268
 31
0.0
 40
0.998782766
 41
-0.7847891758
 42
0.7847891758
  0
ELLIPSE
  5
5C1
100
AcDbEntity
  8
RACCORDO
100
AcDbEllipse
 62
7
  6
CONTINUOUS
 10
134.6995763073
 20
76.3197910641
 30
0.0
 11
0.4247811268
 21
-0.4247811268
 31
0.0
 40
0.998782766
 41
-0.7847891758
 42
0.7847891758
  0
ELLIPSE
  5
5C2
100
AcDbEntity
  8
RACCORDO
100
AcDbEllipse
 62
7
  6
CONTINUOUS
 10
159.9003077604
 20
76.3197910641
 30
0.0
 11
0.4247811268
 21
0.4247811268
 31
0.0
 40
0.998782766
 41
-3.9263818294
 42
-2.3568034778
  0
ELLIPSE
  5
5C3
100
AcDbEntity
  8
RACCORDO
100
AcDbEllipse
 62
7
  6
CONTINUOUS
 10
159.9003077604
 20
89.1190596109
 30
0.0
 11
-0.4247811268
 21
0.4247811268
 31
0.0
 40
0.998782766
 41
-0.7847891758
 42
0.7847891758
  0
ELLIPSE
  5
5C4
100
AcDbEntity
  8
RACCORDO
100
AcDbEllipse
 62
7
  6
CONTINUOUS
 10
154.0999420338
 20
69.1537399126
 30
0.0
 11
-0.0
 21
0.5656854249
 31
0.0
 40
0.7071067812
 41
-1.5707963268
 42
0.0
  0
ELLIPSE
  5
5C5
100
AcDbEntity
  8
RACCORDO
100
AcDbEllipse
 62
7
  6
CONTINUOUS
 10
140.4999420338
 20
69.1537399126
 30
0.0
 11
-0.0
 21
0.5656854249
 31
0.0
 40
0.7071067812
 41
0.0
 42
1.5707963268
  0
ELLIPSE
  5
5C6
100
AcDbEntity
  8
RACCORDO
100
AcDbEllipse
 62
7
  6
CONTINUOUS
 10
149.0999420338
 20
96.3194253375
 30
0.0
 11
0.6
 21
-0.0
 31
0.0
 40
1.0
 41
-3.1415926536
 42
-1.5707963268
  0
ELLIPSE
  5
5C7
100
AcDbEntity
  8
RACCORDO
100
AcDbEllipse
 62
7
  6
CONTINUOUS
 10
145.4999420338
 20
96.3194253375
 30
0.0
 11
0.6
 21
0.0
 31
0.0
 40
1.0
 41
-1.5707963268
 42
-0.0
  0
ELLIPSE
  5
5C8
100
AcDbEntity
  8
RACCORDO
100
AcDbEllipse
 62
7
  6
CONTINUOUS
 10
145.4999420338
 20
69.1194253375
 30
0.0
 11
0.6
 21
0.0
 31
0.0
 40
1.0
 41
0.0
 42
1.5707963268
  0
ELLIPSE
  5
5C9
100
AcDbEntity
  8
RACCORDO
100
AcDbEllipse
 62
7
  6
CONTINUOUS
 10
149.0999420338
 20
69.1194253375
 30
0.0
 11
0.6
 21
0.0
 31
0.0
 40
1.0
 41
1.5707963268
 42
3.1415926536
  0
ELLIPSE
  5
5CA
100
AcDbEntity
  8
RACCORDO
100
AcDbEllipse
 62
7
  6
CONTINUOUS
 10
140.4999420338
 20
96.2851107625
 30
0.0
 11
0.0
 21
0.5656854249
 31
0.0
 40
0.7071067812
 41
-4.7123889804
 42
-3.1415926536
  0
ELLIPSE
  5
5CB
100
AcDbEntity
  8
RACCORDO
100
AcDbEllipse
 62
7
  6
CONTINUOUS
 10
154.0999420338
 20
96.2851107625
 30
0.0
 11
0.0
 21
0.5656854249
 31
0.0
 40
0.7071067812
 41
-3.1415926536
 42
-1.5707963268
  0
ELLIPSE
  5
5CC
100
AcDbEntity
  8
RACCORDO
100
AcDbEllipse
 62
7
  6
CONTINUOUS
 10
139.6999420338
 20
109.1199742759
 30
0.0
 11
0.0
 21
0.4005489384
 31
0.0
 40
0.9986295348
 41
3.1415926536
 42
4.7123889804
  0
ELLIPSE
  5
5CD
100
AcDbEntity
  8
RACCORDO
100
AcDbEllipse
 62
7
  6
CONTINUOUS
 10
137.9076271714
 20
114.3271104751
 30
0.0
 11
3.9706589632
 21
3.9706589632
 31
0.0
 40
0.9972646886
 41
2.3575640181
 42
3.9256212891
  0
ELLIPSE
  5
5CE
100
AcDbEntity
  8
RACCORDO
100
AcDbEllipse
 62
7
  6
CONTINUOUS
 10
133.3013143798
 20
115.7188157932
 30
0.0
 11
-0.8338289523
 21
0.5556035581
 31
0.0
 40
0.9980228614
 41
-0.9821146404
 42
0.5868551869
  0
ELLIPSE
  5
5CF
100
AcDbEntity
  8
RACCORDO
100
AcDbEllipse
 62
7
  6
CONTINUOUS
 10
133.3013143798
 20
131.7200348818
 30
0.0
 11
0.8338289523
 21
0.5556035581
 31
0.0
 40
0.9980228614
 41
2.5547374667
 42
4.123707294
  0
ELLIPSE
  5
5D0
100
AcDbEntity
  8
RACCORDO
100
AcDbEllipse
 62
7
  6
CONTINUOUS
 10
137.9076271714
 20
133.1117401999
 30
0.0
 11
3.9706589632
 21
-3.9706589632
 31
0.0
 40
0.9972646886
 41
2.3575640181
 42
3.9256212891
  0
ELLIPSE
  5
5D1
100
AcDbEntity
  8
RACCORDO
100
AcDbEllipse
 62
7
  6
CONTINUOUS
 10
139.6999420338
 20
138.3188763991
 30
0.0
 11
0.0
 21
0.4005489384
 31
0.0
 40
0.9986295348
 41
-1.5707963268
 42
0.0
  0
ELLIPSE
  5
5D2
100
AcDbEntity
  8
RACCORDO
100
AcDbEllipse
 62
7
  6
CONTINUOUS
 10
154.8999420338
 20
138.3188763991
 30
0.0
 11
-0.0
 21
-0.4005489384
 31
0.0
 40
0.9986295348
 41
3.1415926536
 42
4.7123889804
  0
ELLIPSE
  5
5D3
100
AcDbEntity
  8
RACCORDO
100
AcDbEllipse
 62
7
  6
CONTINUOUS
 10
156.6922568962
 20
133.1117401999
 30
0.0
 11
-3.9706589632
 21
-3.9706589632
 31
0.0
 40
0.9972646886
 41
2.3575640181
 42
3.9256212891
  0
ELLIPSE
  5
5D4
100
AcDbEntity
  8
RACCORDO
100
AcDbEllipse
 62
7
  6
CONTINUOUS
 10
161.2985696878
 20
131.7200348818
 30
0.0
 11
0.8338289523
 21
-0.5556035581
 31
0.0
 40
0.9980228614
 41
-0.9821146404
 42
0.5868551869
  0
ELLIPSE
  5
5D5
100
AcDbEntity
  8
RACCORDO
100
AcDbEllipse
 62
7
  6
CONTINUOUS
 10
161.2985696878
 20
115.7188157932
 30
0.0
 11
-0.8338289523
 21
-0.5556035581
 31
0.0
 40
0.9980228614
 41
2.5547374667
 42
4.123707294
  0
ELLIPSE
  5
5D6
100
AcDbEntity
  8
RACCORDO
100
AcDbEllipse
 62
7
  6
CONTINUOUS
 10
156.6922568962
 20
114.3271104751
 30
0.0
 11
-3.9706589632
 21
3.9706589632
 31
0.0
 40
0.9972646886
 41
2.3575640181
 42
3.9256212891
  0
ELLIPSE
  5
5D7
100
AcDbEntity
  8
RACCORDO
100
AcDbEllipse
 62
7
  6
CONTINUOUS
 10
154.8999420338
 20
109.1199742759
 30
0.0
 11
-0.0
 21
-0.4005489384
 31
0.0
 40
0.9986295348
 41
-1.5707963268
 42
0.0
  0
ELLIPSE
  5
5D8
100
AcDbEntity
  8
RACCORDO
100
AcDbEllipse
 62
7
  6
CONTINUOUS
 10
152.2003077604
 20
122.1190596109
 30
0.0
 11
-0.4247811268
 21
0.4247811268
 31
0.0
 40
0.998782766
 41
-0.7847891758
 42
0.7847891758
  0
ELLIPSE
  5
5D9
100
AcDbEntity
  8
RACCORDO
100
AcDbEllipse
 62
7
  6
CONTINUOUS
 10
142.3995763073
 20
122.1190596109
 30
0.0
 11
-0.4247811268
 21
-0.4247811268
 31
0.0
 40
0.998782766
 41
2.3568034778
 42
3.9263818294
  0
ELLIPSE
  5
5DA
100
AcDbEntity
  8
RACCORDO
100
AcDbEllipse
 62
7
  6
CONTINUOUS
 10
142.3995763073
 20
125.3197910641
 30
0.0
 11
0.4247811268
 21
-0.4247811268
 31
0.0
 40
0.998782766
 41
-0.7847891758
 42
0.7847891758
  0
ELLIPSE
  5
5DB
100
AcDbEntity
  8
RACCORDO
100
AcDbEllipse
 62
7
  6
CONTINUOUS
 10
152.2003077604
 20
125.3197910641
 30
0.0
 11
0.4247811268
 21
0.4247811268
 31
0.0
 40
0.998782766
 41
2.3568034778
 42
3.9263818294
  0
ELLIPSE
  5
5DC
100
AcDbEntity
  8
RACCORDO
100
AcDbEllipse
 62
7
  6
CONTINUOUS
 10
135.0927728097
 20
127.7462767918
 30
0.0
 11
0.2144255762
 21
0.5621786813
 31
0.0
 40
0.9831276504
 41
0.3713063031
 42
1.9408846548
  0
ELLIPSE
  5
5DD
100
AcDbEntity
  8
RACCORDO
100
AcDbEllipse
 62
7
  6
CONTINUOUS
 10
135.0927728097
 20
119.6925738832
 30
0.0
 11
-0.2144255762
 21
0.5621786813
 31
0.0
 40
0.9831276504
 41
1.2007079988
 42
2.7702863504
  0
ELLIPSE
  5
5DE
100
AcDbEntity
  8
RACCORDO
100
AcDbEllipse
 62
7
  6
CONTINUOUS
 10
159.5071112579
 20
127.7462767918
 30
0.0
 11
-0.2144255762
 21
0.5621786813
 31
0.0
 40
0.9831276504
 41
-1.9408846548
 42
-0.3713063031
  0
ELLIPSE
  5
5DF
100
AcDbEntity
  8
RACCORDO
100
AcDbEllipse
 62
7
  6
CONTINUOUS
 10
159.5071112579
 20
119.6925738832
 30
0.0
 11
0.2144255762
 21
0.5621786813
 31
0.0
 40
0.9831276504
 41
-2.7702863504
 42
-1.2007079988
  0
ELLIPSE
  5
5E0
100
AcDbEntity
  8
RACCORDO
100
AcDbEllipse
 62
7
  6
CONTINUOUS
 10
159.3139103416
 20
128.8057008474
 30
0.0
 11
0.0
 21
0.4
 31
0.0
 40
0.0349207695
 41
-4.7123889804
 42
-3.1764992386
  0
ELLIPSE
  5
5E1
100
AcDbEntity
  8
RACCORDO
100
AcDbEllipse
 62
7
  6
CONTINUOUS
 10
159.3139103416
 20
118.6331498276
 30
0.0
 11
0.0
 21
0.4
 31
0.0
 40
0.0349207695
 41
6.3180918922
 42
7.853981634
  0
ELLIPSE
  5
5E2
100
AcDbEntity
  8
RACCORDO
100
AcDbEllipse
 62
7
  6
CONTINUOUS
 10
135.285973726
 20
118.6331498276
 30
0.0
 11
0.0
 21
0.4
 31
0.0
 40
0.0349207695
 41
-1.5707963268
 42
-0.034906585
  0
ELLIPSE
  5
5E3
100
AcDbEntity
  8
RACCORDO
100
AcDbEllipse
 62
7
  6
CONTINUOUS
 10
135.285973726
 20
128.8057008474
 30
0.0
 11
-0.0
 21
0.4
 31
0.0
 40
0.0349207695
 41
3.1764992386
 42
4.7123889804
  0
ELLIPSE
  5
5E4
100
AcDbEntity
  8
RACCORDO
100
AcDbEllipse
 62
7
  6
CONTINUOUS
 10
134.6995763073
 20
130.1190596109
 30
0.0
 11
0.4247811268
 21
0.4247811268
 31
0.0
 40
0.998782766
 41
-0.7847891758
 42
0.7847891758
  0
ELLIPSE
  5
5E5
100
AcDbEntity
  8
RACCORDO
100
AcDbEllipse
 62
7
  6
CONTINUOUS
 10
134.6995763073
 20
117.3197910641
 30
0.0
 11
0.4247811268
 21
-0.4247811268
 31
0.0
 40
0.998782766
 41
-0.7847891758
 42
0.7847891758
  0
ELLIPSE
  5
5E6
100
AcDbEntity
  8
RACCORDO
100
AcDbEllipse
 62
7
  6
CONTINUOUS
 10
159.9003077604
 20
117.3197910641
 30
0.0
 11
0.4247811268
 21
0.4247811268
 31
0.0
 40
0.998782766
 41
-3.9263818294
 42
-2.3568034778
  0
ELLIPSE
  5
5E7
100
AcDbEntity
  8
RACCORDO
100
AcDbEllipse
 62
7
  6
CONTINUOUS
 10
159.9003077604
 20
130.1190596109
 30
0.0
 11
-0.4247811268
 21
0.4247811268
 31
0.0
 40
0.998782766
 41
-0.7847891758
 42
0.7847891758
  0
ELLIPSE
  5
5E8
100
AcDbEntity
  8
RACCORDO
100
AcDbEllipse
 62
7
  6
CONTINUOUS
 10
154.0999420338
 20
110.1537399126
 30
0.0
 11
-0.0
 21
0.5656854249
 31
0.0
 40
0.7071067812
 41
-1.5707963268
 42
0.0
  0
ELLIPSE
  5
5E9
100
AcDbEntity
  8
RACCORDO
100
AcDbEllipse
 62
7
  6
CONTINUOUS
 10
140.4999420338
 20
110.1537399126
 30
0.0
 11
0.0
 21
0.5656854249
 31
0.0
 40
0.7071067812
 41
0.0
 42
1.5707963268
  0
ELLIPSE
  5
5EA
100
AcDbEntity
  8
RACCORDO
100
AcDbEllipse
 62
7
  6
CONTINUOUS
 10
149.0999420338
 20
137.3194253375
 30
0.0
 11
0.6
 21
-0.0
 31
0.0
 40
1.0
 41
-3.1415926536
 42
-1.5707963268
  0
ELLIPSE
  5
5EB
100
AcDbEntity
  8
RACCORDO
100
AcDbEllipse
 62
7
  6
CONTINUOUS
 10
145.4999420338
 20
137.3194253375
 30
0.0
 11
0.6
 21
-0.0
 31
0.0
 40
1.0
 41
-1.5707963268
 42
0.0
  0
ELLIPSE
  5
5EC
100
AcDbEntity
  8
RACCORDO
100
AcDbEllipse
 62
7
  6
CONTINUOUS
 10
145.4999420338
 20
110.1194253375
 30
0.0
 11
0.6
 21
-0.0
 31
0.0
 40
1.0
 41
0.0
 42
1.5707963268
  0
ELLIPSE
  5
5ED
100
AcDbEntity
  8
RACCORDO
100
AcDbEllipse
 62
7
  6
CONTINUOUS
 10
149.0999420338
 20
110.1194253375
 30
0.0
 11
0.6
 21
-0.0
 31
0.0
 40
1.0
 41
1.5707963268
 42
3.1415926536
  0
ELLIPSE
  5
5EE
100
AcDbEntity
  8
RACCORDO
100
AcDbEllipse
 62
7
  6
CONTINUOUS
 10
140.4999420338
 20
137.2851107625
 30
0.0
 11
0.0
 21
0.5656854249
 31
0.0
 40
0.7071067812
 41
-4.7123889804
 42
-3.1415926536
  0
ELLIPSE
  5
5EF
100
AcDbEntity
  8
RACCORDO
100
AcDbEllipse
 62
7
  6
CONTINUOUS
 10
154.0999420338
 20
137.2851107625
 30
0.0
 11
0.0
 21
0.5656854249
 31
0.0
 40
0.7071067812
 41
-3.1415926536
 42
-1.5707963268
  0
ENDSEC
  0
SECTION
  2
OBJECTS
  0
DICTIONARY
  5
C
100
AcDbDictionary
280
0
281
1
  3
ACAD_GROUP
350
D
  3
ACAD_MLINESTYLE
350
17
  3
ACAD_LAYOUT
350
1A
  3
ACAD_PLOTSETTINGS
350
19
  3
ACAD_PLOTSTYLENAME
350
E
  0
DICTIONARY
  5
D
102
{ACAD_REACTORS
330
C
102
}
100
AcDbDictionary
280
0
281
1
  0
ACDBDICTIONARYWDFLT
  5
E
102
{ACAD_REACTORS
330
C
102
}
100
AcDbDictionary
281
1
  3
Normal
350
F
100
AcDbDictionaryWithDefault
340
F
  0
DICTIONARY
  5
17
102
{ACAD_REACTORS
330
C
102
}
100
AcDbDictionary
280
0
281
1
  3
Standard
350
18
  0
DICTIONARY
  5
19
102
{ACAD_REACTORS
330
C
102
}
100
AcDbDictionary
281
1
  0
DICTIONARY
  5
1A
102
{ACAD_REACTORS
330
C
102
}
100
AcDbDictionary
281
1
  3
Model
350
5F0
  3
Layout1
350
5F1
  0
ACDBPLACEHOLDER
  5
F
102
{ACAD_REACTORS
330
E
102
}
  0
MLINESTYLE
  5
18
102
{ACAD_REACTORS
330
17
102
}
100
AcDbMlineStyle
  2
STANDARD
 70
0
  3

 62
256
 51
90.0
 52
90.0
 71
2
 49
0.5
 62
256
  6
BYLAYER
 49
-0.5
 62
256
  6
BYLAYER
  0
LAYOUT
  5
5F0
102
{ACAD_REACTORS
330
1A
102
}
100
AcDbPlotSettings
  1

  2
none_device
  4
ISO_A4_(297.00_x_210.00_MM)
  6

 40
0.0
 41
0.0
 42
0.0
 43
0.0
 44
297.0
 45
210.0
 46
0.0
 47
0.0
 48
0.0
 49
0.0
140
0.0
141
0.0
142
1.0
143
1.0
 70
1024
 72
1
 73
0
 74
0
  7

 75
0
147
1.0
148
0.0
149
0.0
100
AcDbLayout
  1
Model
 70
0
 71
0
 10
0.0
 20
0.0
 11
297.0
 21
210.0
 12
0.0
 22
0.0
 32
0.0
 14
0.0
 24
0.0
 34
0.0
 15
0.0
 25
0.0
 35
0.0
146
0.0
 13
0.0
 23
0.0
 33
0.0
 16
1.0
 26
0.0
 36
0.0
 17
0.0
 27
1.0
 37
0.0
 76
0
330
215
345
0
346
0
  0
LAYOUT
  5
5F1
102
{ACAD_REACTORS
330
1A
102
}
100
AcDbPlotSettings
  1

  2
none_device
  4
ISO_A4_(297.00_x_210.00_MM)
  6

 40
0.0
 41
0.0
 42
0.0
 43
0.0
 44
297.0
 45
210.0
 46
0.0
 47
0.0
 48
0.0
 49
0.0
140
0.0
141
0.0
142
1.0
143
1.0
 70
0
 72
1
 73
0
 74
0
  7

 75
0
147
1.0
148
0.0
149
0.0
100
AcDbLayout
  1
Layout1
 70
0
 71
1
 10
0.0
 20
0.0
 11
297.0
 21
210.0
 12
0.0
 22
0.0
 32
0.0
 14
0.0
 24
0.0
 34
0.0
 15
0.0
 25
0.0
 35
0.0
146
0.0
 13
0.0
 23
0.0
 33
0.0
 16
1.0
 26
0.0
 36
0.0
 17
0.0
 27
1.0
 37
0.0
 76
0
330
216
345
0
346
0
  0
ENDSEC
  0
EOF
