  0
SECTION
  2
HEADER
  9
$ACADVER
  1
AC1024
  9
$DWGCODEPAGE
  3
ANSI_1252
  9
$EXTMAX
 10
297.0
 20
210.0
 30
0.0
  9
$EXTMIN
 10
0.0
 20
0.0
 30
0.0
  9
$LIMMIN
 10
0.0
 20
0.0
  9
$LIMMAX
 10
297.0
 20
210.0
  9
$VIEWCTR
 10
148.5
 20
105.0
  9
$VIEWSIZE
 40
210.0
  9
$CLAYER
  8
0
  9
$LTSCALE
 40
16.335
  9
$CELTYPE
  6
BYLAYER
  9
$DIMSCALE
 40
1.0
  9
$DIMASZ
 40
3.0
  9
$DIMEXO
 40
0.5
  9
$DIMDLI
 40
11.286
  9
$DIMEXE
 40
1.5
  9
$DIMCEN
 40
2.673
  9
$DIMLFAC
 40
1.0
  9
$DIMBLK
  1
_FILLED
  9
$DIMALT
 70
0
  9
$DIMALTF
 40
0.0393700787
  9
$DIMTXT
 40
3.0
  9
$DIMTOL
 70
1
  9
$DIMLIM
 70
0
  9
$DIMTFAC
 40
1.0
  9
$DIMTP
 40
0.01
  9
$DIMTM
 40
0.01
  9
$DIMGAP
 40
0.625
  9
$DIMDSEP
 70
44
  9
$AUNITS
 70
0
  9
$PDMODE
 70
3
  9
$PDSIZE
 40
3.0
  9
$HANDSEED
  5
4FA
  9
$TILEMODE
 70
1
  9
$MEASUREMENT
 70
1
  9
$INSUNITS
 70
4
  0
ENDSEC
  0
SECTION
  2
CLASSES
  0
CLASS
  1
ACDBDICTIONARYWDFLT
  2
AcDbDictionaryWithDefault
  3
AutoCAD 2000
 90
0
 91
1
280
0
281
0
  0
CLASS
  1
ACDBPLACEHOLDER
  2
AcDbPlaceHolder
  3
AutoCAD 2000
 90
0
 91
1
280
0
281
0
  0
CLASS
  1
LAYOUT
  2
AcDbLayout
  3
AutoCAD 2000
 90
0
 91
0
280
0
281
0
  0
ENDSEC
  0
SECTION
  2
TABLES
  0
TABLE
  2
VPORT
  5
8
100
AcDbSymbolTable
 70
2
  0
VPORT
  5
1F4
100
AcDbSymbolTableRecord
100
AcDbViewportTableRecord
  2
*ACTIVE
 70
0
 10
0.0
 20
0.0
 11
1.0
 21
1.0
 12
148.5
 22
105.0
 13
0.0
 23
0.0
 14
1.0
 24
1.0
 15
0.0
 25
0.0
 16
0.0
 26
0.0
 36
1.0
 17
0.0
 27
0.0
 37
0.0
 40
210.0
 41
1.4142857143
 42
50.0
 43
0.0
 44
0.0
 50
0.0
 51
0.0
 71
0
 72
100
 73
1
 74
1
 75
0
 76
0
 77
0
 78
0
  0
ENDTAB
  0
TABLE
  2
LTYPE
  5
5
100
AcDbSymbolTable
 70
6
  0
LTYPE
  5
14
100
AcDbSymbolTableRecord
100
AcDbLinetypeTableRecord
  2
BYBLOCK
 70
0
  3

 72
65
 73
0
 40
0.0
  0
LTYPE
  5
15
100
AcDbSymbolTableRecord
100
AcDbLinetypeTableRecord
  2
BYLAYER
 70
0
  3

 72
65
 73
0
 40
0.0
  0
LTYPE
  5
16
100
AcDbSymbolTableRecord
100
AcDbLinetypeTableRecord
  2
CONTINUOUS
 70
64
  3
Solid line
 72
65
 73
0
 40
0.0
  0
LTYPE
  5
1F5
100
AcDbSymbolTableRecord
100
AcDbLinetypeTableRecord
  2
CENTER
 70
64
  3
____ _ ____ _ ____ _ ____ _ ____ _ ____ _ ____
 72
65
 73
4
 40
0.6
 49
0.375
 74
0
 49
-0.075
 74
0
 49
0.075
 74
0
 49
-0.075
 74
0
  0
LTYPE
  5
1F6
100
AcDbSymbolTableRecord
100
AcDbLinetypeTableRecord
  2
HIDDEN
 70
64
  3
- - - - - - - - - - - - - - - - - - - -
 72
65
 73
2
 40
0.2
 49
0.1
 74
0
 49
-0.1
 74
0
  0
LTYPE
  5
1F7
100
AcDbSymbolTableRecord
100
AcDbLinetypeTableRecord
  2
PHANTOM
 70
64
  3
_____ _ _ _____ _ _ _____ _ _ _____
 72
65
 73
6
 40
0.8
 49
0.45
 74
0
 49
-0.05
 74
0
 49
0.1
 74
0
 49
-0.05
 74
0
 49
0.1
 74
0
 49
-0.05
 74
0
  0
LTYPE
  5
1F8
100
AcDbSymbolTableRecord
100
AcDbLinetypeTableRecord
  2
DOT
 70
64
  3
. . . . . . . . . . . . . . . . . . . .
 72
65
 73
2
 40
0.2
 49
0.1
 74
0
 49
-0.1
 74
0
  0
LTYPE
  5
1F9
100
AcDbSymbolTableRecord
100
AcDbLinetypeTableRecord
  2
DASHED
 70
64
  3
- - - - - - - - - - - - - - - - - - - -
 72
65
 73
2
 40
0.2
 49
0.1
 74
0
 49
-0.1
 74
0
  0
ENDTAB
  0
TABLE
  2
LAYER
  5
2
100
AcDbSymbolTable
 70
36
  0
LAYER
  5
10
100
AcDbSymbolTableRecord
100
AcDbLayerTableRecord
  2
0
 70
0
 62
7
  6
CONTINUOUS
370
-3
390
F
  0
LAYER
  5
1FA
100
AcDbSymbolTableRecord
100
AcDbLayerTableRecord
  2
DEFAULT_1
 70
0
 62
7
  6
CENTER
370
-3
390
F
  0
LAYER
  5
1FB
100
AcDbSymbolTableRecord
100
AcDbLayerTableRecord
  2
DEFAULT_2
 70
0
 62
7
  6
HIDDEN
370
-3
390
F
  0
LAYER
  5
1FC
100
AcDbSymbolTableRecord
100
AcDbLayerTableRecord
  2
DEFAULT_3
 70
0
 62
7
  6
PHANTOM
370
-3
390
F
  0
LAYER
  5
1FD
100
AcDbSymbolTableRecord
100
AcDbLayerTableRecord
  2
ASSI
 70
0
 62
7
  6
CONTINUOUS
370
-3
390
F
  0
LAYER
  5
1FE
100
AcDbSymbolTableRecord
100
AcDbLayerTableRecord
  2
COLOR9
 70
0
 62
7
  6
CONTINUOUS
370
-3
390
F
  0
LAYER
  5
1FF
100
AcDbSymbolTableRecord
100
AcDbLayerTableRecord
  2
COORDINATE
 70
0
 62
7
  6
CONTINUOUS
370
-3
390
F
  0
LAYER
  5
200
100
AcDbSymbolTableRecord
100
AcDbLayerTableRecord
  2
COORD_ORIGINE
 70
0
 62
7
  6
CONTINUOUS
370
-3
390
F
  0
LAYER
  5
201
100
AcDbSymbolTableRecord
100
AcDbLayerTableRecord
  2
COPY_PUBLISH
 70
0
 62
7
  6
CONTINUOUS
370
-3
390
F
  0
LAYER
  5
202
100
AcDbSymbolTableRecord
100
AcDbLayerTableRecord
  2
COSMETICI
 70
0
 62
7
  6
CONTINUOUS
370
-3
390
F
  0
LAYER
  5
203
100
AcDbSymbolTableRecord
100
AcDbLayerTableRecord
  2
CURVE
 70
0
 62
7
  6
CONTINUOUS
370
-3
390
F
  0
LAYER
  5
204
100
AcDbSymbolTableRecord
100
AcDbLayerTableRecord
  2
DRAFT
 70
0
 62
7
  6
CONTINUOUS
370
-3
390
F
  0
LAYER
  5
205
100
AcDbSymbolTableRecord
100
AcDbLayerTableRecord
  2
IMPORT_IGES
 70
0
 62
7
  6
CONTINUOUS
370
-3
390
F
  0
LAYER
  5
206
100
AcDbSymbolTableRecord
100
AcDbLayerTableRecord
  2
INTF_1
 70
0
 62
7
  6
CONTINUOUS
370
-3
390
F
  0
LAYER
  5
207
100
AcDbSymbolTableRecord
100
AcDbLayerTableRecord
  2
INTF_YELLOW
 70
0
 62
7
  6
CONTINUOUS
370
-3
390
F
  0
LAYER
  5
208
100
AcDbSymbolTableRecord
100
AcDbLayerTableRecord
  2
NOTE
 70
0
 62
7
  6
CONTINUOUS
370
-3
390
F
  0
LAYER
  5
209
100
AcDbSymbolTableRecord
100
AcDbLayerTableRecord
  2
PIANI
 70
0
 62
7
  6
CONTINUOUS
370
-3
390
F
  0
LAYER
  5
20A
100
AcDbSymbolTableRecord
100
AcDbLayerTableRecord
  2
PIANI_ORIGINE
 70
0
 62
7
  6
CONTINUOUS
370
-3
390
F
  0
LAYER
  5
20B
100
AcDbSymbolTableRecord
100
AcDbLayerTableRecord
  2
PIANI_RIFERIMENTO
 70
0
 62
7
  6
CONTINUOUS
370
-3
390
F
  0
LAYER
  5
20C
100
AcDbSymbolTableRecord
100
AcDbLayerTableRecord
  2
PUNTI
 70
0
 62
7
  6
CONTINUOUS
370
-3
390
F
  0
LAYER
  5
20D
100
AcDbSymbolTableRecord
100
AcDbLayerTableRecord
  2
RACCORDO
 70
0
 62
7
  6
CONTINUOUS
370
-3
390
F
  0
LAYER
  5
20E
100
AcDbSymbolTableRecord
100
AcDbLayerTableRecord
  2
SIMBOLI
 70
0
 62
7
  6
CONTINUOUS
370
-3
390
F
  0
LAYER
  5
20F
100
AcDbSymbolTableRecord
100
AcDbLayerTableRecord
  2
SMUSSO
 70
0
 62
7
  6
CONTINUOUS
370
-3
390
F
  0
LAYER
  5
210
100
AcDbSymbolTableRecord
100
AcDbLayerTableRecord
  2
SUPERFICI
 70
0
 62
7
  6
CONTINUOUS
370
-3
390
F
  0
LAYER
  5
211
100
AcDbSymbolTableRecord
100
AcDbLayerTableRecord
  2
TRASH
 70
0
 62
7
  6
CONTINUOUS
370
-3
390
F
  0
LAYER
  5
212
100
AcDbSymbolTableRecord
100
AcDbLayerTableRecord
  2
XSEC_DATUMS
 70
0
 62
7
  6
CONTINUOUS
370
-3
390
F
  0
ENDTAB
  0
TABLE
  2
STYLE
  5
3
100
AcDbSymbolTable
 70
1
  0
STYLE
  5
11
100
AcDbSymbolTableRecord
100
AcDbTextStyleTableRecord
  2
STANDARD
 70
0
 40
0.0
 41
0.8
 50
0.0
 71
0
 42
0.2
  3
txt
  4

  0
STYLE
  5
213
100
AcDbSymbolTableRecord
100
AcDbTextStyleTableRecord
  2
TEXTSTYLE_1
 70
0
 40
0.0
 41
0.8
 50
0.0
 71
0
 42
0.2
  3
gdt
  4

  0
ENDTAB
  0
TABLE
  2
VIEW
  5
6
100
AcDbSymbolTable
 70
0
  0
ENDTAB
  0
TABLE
  2
UCS
  5
7
100
AcDbSymbolTable
 70
0
  0
ENDTAB
  0
TABLE
  2
APPID
  5
9
100
AcDbSymbolTable
 70
1
  0
APPID
  5
214
100
AcDbSymbolTableRecord
100
AcDbRegAppTableRecord
  2
ACAD
 70
0
  0
ENDTAB
  0
TABLE
  2
BLOCK_RECORD
  5
1
100
AcDbSymbolTable
 70
0
  0
BLOCK_RECORD
  5
215
100
AcDbSymbolTableRecord
100
AcDbBlockTableRecord
  2
*Model_Space
  0
BLOCK_RECORD
  5
216
100
AcDbSymbolTableRecord
100
AcDbBlockTableRecord
  2
*Paper_Space
  0
BLOCK_RECORD
  5
217
100
AcDbSymbolTableRecord
100
AcDbBlockTableRecord
  2
_FILLED
  0
ENDTAB
  0
TABLE
  2
DIMSTYLE
  5
A
100
AcDbSymbolTable
 70
1
100
AcDbDimStyleTable
 71
0
  0
DIMSTYLE
105
218
100
AcDbSymbolTableRecord
100
AcDbDimStyleTableRecord
  2
STANDARD
 70
0
  3

  4

 40
1.0
 41
3.0
 42
0.5
 43
0.38
 44
1.5
 45
0.0
 46
0.0
 47
0.01
 48
0.01
140
3.0
141
0.09
142
0.0
143
25.4
144
1.0
145
0.0
146
1.0
147
0.625
 71
1.0
 72
0.0
 73
0
 74
0
 75
0
 76
0
 77
1
 78
8
 79
2
170
0
171
1
172
0
173
0
174
0
175
0
176
0
177
0
178
0
270
2
179
2
271
2
272
2
273
2
274
2
275
0
280
0
281
0
282
0
283
1
284
8
285
0
286
0
287
3
288
0
340
11
278
44
341
217
342
217
343
217
344
217
  0
ENDTAB
  0
ENDSEC
  0
SECTION
  2
BLOCKS
  0
BLOCK
  5
20
100
AcDbEntity
  8
0
100
AcDbBlockBegin
  2
*Model_Space
 70
0
 10
0.0
 20
0.0
 30
0.0
  3
*Model_Space
  1

  0
ENDBLK
  5
21
100
AcDbEntity
  8
0
100
AcDbBlockEnd
  0
BLOCK
  5
1C
100
AcDbEntity
  8
0
100
AcDbBlockBegin
  2
*Paper_Space
 70
0
 10
0.0
 20
0.0
 30
0.0
  3
*Paper_Space
  1

  0
ENDBLK
  5
1D
100
AcDbEntity
  8
0
100
AcDbBlockEnd
  0
BLOCK
  5
219
100
AcDbEntity
  8
0
100
AcDbBlockBegin
  2
_FILLED
 70
64
 10
0.0
 20
0.0
  3
_FILLED
  1

  0
SOLID
  5
21A
100
AcDbEntity
  8
0
  6
BYBLOCK
 62
0
100
AcDbTrace
 10
0.0
 20
0.0
 11
-1.0
 21
0.3166666667
 12
-1.0
 22
-0.3166666667
 13
-1.0
 23
-0.3166666667
  0
ENDBLK
  5
21B
100
AcDbEntity
  8
0
  6
BYBLOCK
 62
0
100
AcDbBlockEnd
  0
ENDSEC
  0
SECTION
  2
ENTITIES
  0
LINE
  5
21C
100
AcDbEntity
  8
RACCORDO
100
AcDbLine
 62
7
  6
CONTINUOUS
 10
139.7509217981
 20
72.8630180921
 11
134.8816349568
 21
72.8630180921
  0
LINE
  5
21D
100
AcDbEntity
  8
0
100
AcDbLine
 62
7
  6
CONTINUOUS
 10
134.8816349568
 20
72.8630180921
 11
130.7941462932
 21
72.8630180921
  0
LINE
  5
21E
100
AcDbEntity
  8
RACCORDO
100
AcDbLine
 62
7
  6
CONTINUOUS
 10
130.7941462932
 20
72.8630180921
 11
125.9248594519
 21
72.8630180921
  0
LINE
  5
21F
100
AcDbEntity
  8
RACCORDO
100
AcDbLine
 62
7
  6
CONTINUOUS
 10
131.2840442418
 20
72.8700001181
 11
134.3917370082
 21
72.8700001181
  0
LINE
  5
220
100
AcDbEntity
  8
RACCORDO
100
AcDbLine
 62
7
  6
CONTINUOUS
 10
134.8816349568
 20
73.9747393505
 11
134.8466394914
 21
73.9653623438
  0
LINE
  5
221
100
AcDbEntity
  8
RACCORDO
100
AcDbLine
 62
7
  6
CONTINUOUS
 10
135.7429857862
 20
73.9594356893
 11
135.7616510557
 21
73.9630180921
  0
LINE
  5
222
100
AcDbEntity
  8
RACCORDO
100
AcDbLine
 62
250
  6
CONTINUOUS
 10
138.7767564877
 20
73.6594813807
 11
135.5689600243
 21
73.6594813807
  0
LINE
  5
223
100
AcDbEntity
  8
RACCORDO
100
AcDbLine
 62
250
  6
CONTINUOUS
 10
129.9415077697
 20
73.6594813807
 11
126.8990247623
 21
73.6594813807
  0
LINE
  5
224
100
AcDbEntity
  8
RACCORDO
100
AcDbLine
 62
250
  6
CONTINUOUS
 10
138.5329628099
 20
73.9594356893
 11
135.7429857862
 21
73.9594356893
  0
LINE
  5
225
100
AcDbEntity
  8
RACCORDO
100
AcDbLine
 62
250
  6
CONTINUOUS
 10
129.8016367786
 20
73.9594356893
 11
127.1428184401
 21
73.9594356893
  0
LINE
  5
226
100
AcDbEntity
  8
RACCORDO
100
AcDbLine
 62
7
  6
CONTINUOUS
 10
131.2840442418
 20
73.9612725856
 11
134.3917370082
 21
73.9612725856
  0
LINE
  5
227
100
AcDbEntity
  8
DRAFT
100
AcDbLine
 62
7
  6
CONTINUOUS
 10
127.1623750299
 20
73.9630180921
 11
129.7999662767
 21
73.9630180921
  0
LINE
  5
228
100
AcDbEntity
  8
DRAFT
100
AcDbLine
 62
7
  6
CONTINUOUS
 10
135.7616510557
 20
73.9630180921
 11
138.5134062201
 21
73.9630180921
  0
LINE
  5
229
100
AcDbEntity
  8
RACCORDO
100
AcDbLine
 62
7
  6
CONTINUOUS
 10
130.7941462932
 20
73.9747393505
 11
130.8291417586
 21
73.9653623438
  0
LINE
  5
22A
100
AcDbEntity
  8
RACCORDO
100
AcDbLine
 62
7
  6
CONTINUOUS
 10
134.8816349568
 20
109.2717456246
 11
134.8466394914
 21
109.2606738404
  0
LINE
  5
22B
100
AcDbEntity
  8
RACCORDO
100
AcDbLine
 62
7
  6
CONTINUOUS
 10
127.1428184401
 20
73.9594356893
 11
127.1623750299
 21
73.9630180921
  0
LINE
  5
22C
100
AcDbEntity
  8
RACCORDO
100
AcDbLine
 62
7
  6
CONTINUOUS
 10
130.8267805357
 20
73.9612725856
 11
130.837890625
 21
73.9630180921
  0
LINE
  5
22D
100
AcDbEntity
  8
RACCORDO
100
AcDbLine
 62
7
  6
CONTINUOUS
 10
132.4936058532
 20
75.3367525837
 11
131.433363636
 21
75.3186993938
  0
LINE
  5
22E
100
AcDbEntity
  8
RACCORDO
100
AcDbLine
 62
7
  6
CONTINUOUS
 10
131.433363636
 20
75.3186993938
 11
131.0740045157
 21
75.3146419525
  0
LINE
  5
22F
100
AcDbEntity
  8
RACCORDO
100
AcDbLine
 62
7
  6
CONTINUOUS
 10
132.6543217514
 20
75.3385667056
 11
132.4936058532
 21
75.3367525837
  0
LINE
  5
230
100
AcDbEntity
  8
RACCORDO
100
AcDbLine
 62
7
  6
CONTINUOUS
 10
132.8063694221
 20
75.3393935755
 11
132.6543217514
 21
75.3385667056
  0
LINE
  5
231
100
AcDbEntity
  8
DRAFT
100
AcDbLine
 62
7
  6
CONTINUOUS
 10
131.1554332731
 20
74.5130180921
 11
134.5203479769
 21
74.5130180921
  0
LINE
  5
232
100
AcDbEntity
  8
DRAFT
100
AcDbLine
 62
7
  6
CONTINUOUS
 10
131.1301774713
 20
74.5567624239
 11
134.5456037787
 21
74.5567624239
  0
LINE
  5
233
100
AcDbEntity
  8
RACCORDO
100
AcDbLine
 62
250
  6
CONTINUOUS
 10
131.0616160167
 20
74.9943744081
 11
134.7982591756
 21
74.9943744081
  0
LINE
  5
234
100
AcDbEntity
  8
RACCORDO
100
AcDbLine
 62
250
  6
CONTINUOUS
 10
131.0616160167
 20
75.2932328176
 11
134.7982591756
 21
75.2932328176
  0
LINE
  5
235
100
AcDbEntity
  8
RACCORDO
100
AcDbLine
 62
7
  6
CONTINUOUS
 10
132.9486143086
 20
75.3390882096
 11
132.8063694221
 21
75.3393935755
  0
LINE
  5
236
100
AcDbEntity
  8
RACCORDO
100
AcDbLine
 62
7
  6
CONTINUOUS
 10
134.8098743868
 20
75.3133509535
 11
134.5911039087
 21
75.3147314047
  0
LINE
  5
237
100
AcDbEntity
  8
RACCORDO
100
AcDbLine
 62
7
  6
CONTINUOUS
 10
133.0812553029
 20
75.3380301498
 11
132.9486143086
 21
75.3390882096
  0
LINE
  5
238
100
AcDbEntity
  8
RACCORDO
100
AcDbLine
 62
7
  6
CONTINUOUS
 10
134.5911039087
 20
75.3147314047
 11
134.3131747248
 21
75.3177449604
  0
LINE
  5
239
100
AcDbEntity
  8
RACCORDO
100
AcDbLine
 62
7
  6
CONTINUOUS
 10
133.320246115
 20
75.3346086162
 11
133.0812553029
 21
75.3380301498
  0
LINE
  5
23A
100
AcDbEntity
  8
RACCORDO
100
AcDbLine
 62
7
  6
CONTINUOUS
 10
134.3131747248
 20
75.3177449604
 11
133.8816302877
 21
75.3244543666
  0
LINE
  5
23B
100
AcDbEntity
  8
RACCORDO
100
AcDbLine
 62
7
  6
CONTINUOUS
 10
133.8816302877
 20
75.3244543666
 11
133.320246115
 21
75.3346086162
  0
LWPOLYLINE
  5
23C
100
AcDbEntity
  8
RACCORDO
100
AcDbPolyline
 62
7
  6
CONTINUOUS
 90
7
 70
0
 10
134.8098743868
 20
75.3133509535
 10
134.8286944617
 20
75.3126703922
 10
134.8474953672
 20
75.3108070692
 10
134.8662014108
 20
75.3077582041
 10
134.8847362097
 20
75.3035258621
 10
134.9030230015
 20
75.2981170415
 10
134.9209849652
 20
75.2915437418
  0
LWPOLYLINE
  5
23D
100
AcDbEntity
  8
RACCORDO
100
AcDbPolyline
 62
250
  6
CONTINUOUS
 90
10
 70
0
 10
134.7982591756
 20
75.2932328176
 10
134.8328978332
 20
75.2910770251
 10
134.8670719793
 20
75.2849423814
 10
134.9003233307
 20
75.274911153
 10
134.9322059791
 20
75.2611178607
 10
134.9622923702
 20
75.2437474755
 10
134.9901790377
 20
75.2230329385
 10
135.0154920144
 20
75.1992520369
 10
135.0378918476
 20
75.1727236778
 10
135.0570781503
 20
75.1438036129
  0
LINE
  5
23E
100
AcDbEntity
  8
RACCORDO
100
AcDbLine
 62
7
  6
CONTINUOUS
 10
134.8490007143
 20
73.9612725856
 11
134.837890625
 21
73.9630180921
  0
LINE
  5
23F
100
AcDbEntity
  8
RACCORDO
100
AcDbLine
 62
7
  6
CONTINUOUS
 10
138.5329628099
 20
73.9594356893
 11
138.5134062201
 21
73.9630180921
  0
LINE
  5
240
100
AcDbEntity
  8
RACCORDO
100
AcDbLine
 62
7
  6
CONTINUOUS
 10
134.8816349568
 20
73.9542905596
 11
134.8466394914
 21
73.9653623438
  0
LINE
  5
241
100
AcDbEntity
  8
RACCORDO
100
AcDbLine
 62
250
  6
CONTINUOUS
 10
130.6187030997
 20
108.0822325714
 11
130.8775220744
 21
108.2316617761
  0
LINE
  5
242
100
AcDbEntity
  8
DRAFT
100
AcDbLine
 62
7
  6
CONTINUOUS
 10
130.549468733
 20
74.856240337
 11
130.4894330829
 21
74.8417186823
  0
LINE
  5
243
100
AcDbEntity
  8
DRAFT
100
AcDbLine
 62
7
  6
CONTINUOUS
 10
127.2274327146
 20
76.4562774652
 11
127.2515964905
 21
76.4552039454
  0
LINE
  5
244
100
AcDbEntity
  8
DRAFT
100
AcDbLine
 62
7
  6
CONTINUOUS
 10
127.7311350113
 20
77.0266957004
 11
127.7528417571
 21
77.0254095323
  0
LINE
  5
245
100
AcDbEntity
  8
RACCORDO
100
AcDbLine
 62
7
  6
CONTINUOUS
 10
126.437890625
 20
105.1392006895
 11
126.4343082221
 21
105.1356182866
  0
LINE
  5
246
100
AcDbEntity
  8
DRAFT
100
AcDbLine
 62
7
  6
CONTINUOUS
 10
126.8640732224
 20
105.1217456246
 11
126.837890625
 21
105.0955630272
  0
LINE
  5
247
100
AcDbEntity
  8
RACCORDO
100
AcDbLine
 62
7
  6
CONTINUOUS
 10
127.6520643843
 20
105.0788455789
 11
127.7232192534
 21
105.1144121738
  0
LWPOLYLINE
  5
248
100
AcDbEntity
  8
RACCORDO
100
AcDbPolyline
 62
7
  6
CONTINUOUS
 90
7
 70
0
 10
137.9525619966
 20
78.1116240104
 10
137.9471461561
 20
78.1106207774
 10
137.9358615767
 20
78.1096559567
 10
137.9187082586
 20
78.1087295484
 10
137.8952915391
 20
78.1078299672
 10
137.8660060809
 20
78.1069687983
 10
137.8320358713
 20
78.1061807976
  0
LINE
  5
249
100
AcDbEntity
  8
RACCORDO
100
AcDbLine
 62
7
  6
CONTINUOUS
 10
127.1401151018
 20
78.1507106318
 11
126.437890625
 21
78.138453258
  0
LWPOLYLINE
  5
24A
100
AcDbEntity
  8
RACCORDO
100
AcDbPolyline
 62
7
  6
CONTINUOUS
 90
3
 70
0
 10
137.8320358713
 20
78.1061807976
 10
137.7508305231
 20
78.1048474708
 10
137.703200722
 20
78.1042905596
  0
LINE
  5
24B
100
AcDbEntity
  8
DRAFT
100
AcDbLine
 62
7
  6
CONTINUOUS
 10
138.837890625
 20
78.130473157
 11
139.237890625
 21
78.1323439853
  0
LINE
  5
24C
100
AcDbEntity
  8
DRAFT
100
AcDbLine
 62
7
  6
CONTINUOUS
 10
126.8640732224
 20
78.0868354947
 11
126.437890625
 21
78.0868354947
  0
LINE
  5
24D
100
AcDbEntity
  8
DRAFT
100
AcDbLine
 62
7
  6
CONTINUOUS
 10
138.8117080276
 20
78.0868354947
 11
139.237890625
 21
78.0868354947
  0
LINE
  5
24E
100
AcDbEntity
  8
RACCORDO
100
AcDbLine
 62
7
  6
CONTINUOUS
 10
139.5553609204
 20
78.0955630272
 11
139.5414273364
 21
78.0955630272
  0
LINE
  5
24F
100
AcDbEntity
  8
RACCORDO
100
AcDbLine
 62
7
  6
CONTINUOUS
 10
126.1343539136
 20
78.0955630272
 11
126.1204203296
 21
78.0955630272
  0
LINE
  5
250
100
AcDbEntity
  8
RACCORDO
100
AcDbLine
 62
7
  6
CONTINUOUS
 10
126.8640732224
 20
78.1042905596
 11
127.9725804683
 21
78.1042905596
  0
LINE
  5
251
100
AcDbEntity
  8
RACCORDO
100
AcDbLine
 62
7
  6
CONTINUOUS
 10
137.703200722
 20
78.1042905596
 11
138.8117080276
 21
78.1042905596
  0
LINE
  5
252
100
AcDbEntity
  8
DRAFT
100
AcDbLine
 62
7
  6
CONTINUOUS
 10
126.437890625
 20
78.1323439853
 11
126.837890625
 21
78.130473157
  0
LWPOLYLINE
  5
253
100
AcDbEntity
  8
RACCORDO
100
AcDbPolyline
 62
7
  6
CONTINUOUS
 90
9
 70
0
 10
127.9725804683
 20
78.1042905596
 10
127.8820056154
 20
78.1054775511
 10
127.8437453125
 20
78.1061807989
 10
127.809775091
 20
78.1069688002
 10
127.7804896186
 20
78.1078299696
 10
127.7570728983
 20
78.108729551
 10
127.7399195979
 20
78.1096559588
 10
127.7286350496
 20
78.1106207786
 10
127.7232192534
 20
78.1116240104
  0
LINE
  5
254
100
AcDbEntity
  8
RACCORDO
100
AcDbLine
 62
7
  6
CONTINUOUS
 10
139.237890625
 20
78.138453258
 11
138.5356661482
 21
78.1507106318
  0
LINE
  5
255
100
AcDbEntity
  8
RACCORDO
100
AcDbLine
 62
7
  6
CONTINUOUS
 10
127.7232192534
 20
78.1116240104
 11
127.6520643843
 21
78.1471906053
  0
LINE
  5
256
100
AcDbEntity
  8
RACCORDO
100
AcDbLine
 62
250
  6
CONTINUOUS
 10
130.8318376855
 20
75.1871813211
 11
131.0616160167
 21
74.9943744081
  0
LINE
  5
257
100
AcDbEntity
  8
RACCORDO
100
AcDbLine
 62
7
  6
CONTINUOUS
 10
126.437890625
 20
78.0868354947
 11
126.4343082221
 21
78.0904178976
  0
LINE
  5
258
100
AcDbEntity
  8
DRAFT
100
AcDbLine
 62
7
  6
CONTINUOUS
 10
126.837890625
 20
78.130473157
 11
126.8640732224
 21
78.1042905596
  0
LINE
  5
259
100
AcDbEntity
  8
RACCORDO
100
AcDbLine
 62
7
  6
CONTINUOUS
 10
130.0254091285
 20
109.4254642796
 11
130.0409957314
 21
109.4526504988
  0
LINE
  5
25A
100
AcDbEntity
  8
RACCORDO
100
AcDbLine
 62
7
  6
CONTINUOUS
 10
129.9964356181
 20
109.3755027688
 11
130.0254091285
 21
109.4254642796
  0
LWPOLYLINE
  5
25B
100
AcDbEntity
  8
RACCORDO
100
AcDbPolyline
 62
7
  6
CONTINUOUS
 90
3
 70
0
 10
129.9342752426
 20
109.2676963941
 10
129.9718873835
 20
109.3328425332
 10
129.9964356181
 20
109.3755027688
  0
LWPOLYLINE
  5
25C
100
AcDbEntity
  8
RACCORDO
100
AcDbPolyline
 62
7
  6
CONTINUOUS
 90
4
 70
0
 10
130.0409957314
 20
109.4526504988
 10
130.0737292692
 20
109.5088471471
 10
130.0903608314
 20
109.5375600257
 10
130.1068212257
 20
109.5665548035
  0
LWPOLYLINE
  5
25D
100
AcDbEntity
  8
RACCORDO
100
AcDbPolyline
 62
7
  6
CONTINUOUS
 90
16
 70
0
 10
138.7767564877
 20
109.5665548035
 10
138.7426672156
 20
109.5409171602
 10
138.7115165593
 20
109.5143063484
 10
138.6833045186
 20
109.4869769405
 10
138.6581180126
 20
109.459016885
 10
138.6358701223
 20
109.4310395101
 10
138.6163000906
 20
109.4040854828
 10
138.599592783
 20
109.3786972199
 10
138.5855633341
 20
109.3550263515
 10
138.5733963904
 20
109.3334453439
 10
138.5630021606
 20
109.3142401427
 10
138.554470436
 20
109.2978473255
 10
138.5472552367
 20
109.2847312129
 10
138.5411745692
 20
109.2750990649
 10
138.536410427
 20
109.2690253896
 10
138.5329628099
 20
109.266600495
  0
LWPOLYLINE
  5
25E
100
AcDbEntity
  8
RACCORDO
100
AcDbPolyline
 62
7
  6
CONTINUOUS
 90
7
 70
0
 10
134.7965439697
 20
107.9838394317
 10
134.768191804
 20
107.9625938769
 10
134.7376129143
 20
107.9447746576
 10
134.7052306699
 20
107.9306026792
 10
134.6714895725
 20
107.9202471646
 10
134.6368489835
 20
107.9138238998
 10
134.6017767343
 20
107.9113942317
  0
LWPOLYLINE
  5
25F
100
AcDbEntity
  8
RACCORDO
100
AcDbPolyline
 62
7
  6
CONTINUOUS
 90
16
 70
0
 10
138.5329628099
 20
73.9594356893
 10
138.5364962019
 20
73.9569259686
 10
138.541371359
 20
73.9506449258
 10
138.5475882813
 20
73.9407182848
 10
138.5549917587
 20
73.9272395512
 10
138.5637370012
 20
73.9104619947
 10
138.5742896386
 20
73.8909576804
 10
138.5865425868
 20
73.8692841944
 10
138.60060293
 20
73.8457234984
 10
138.6172575499
 20
73.8205533722
 10
138.6366384577
 20
73.7939280458
 10
138.6586136422
 20
73.7663800915
 10
138.6835739526
 20
73.7387779034
 10
138.7116496718
 20
73.7116560025
 10
138.7427105168
 20
73.6851412162
 10
138.7767564877
 20
73.6594813807
  0
LINE
  5
260
100
AcDbEntity
  8
RACCORDO
100
AcDbLine
 62
250
  6
CONTINUOUS
 10
130.6187030997
 20
108.0822325714
 11
130.6072800661
 21
108.0624472968
  0
LINE
  5
261
100
AcDbEntity
  8
DRAFT
100
AcDbLine
 62
7
  6
CONTINUOUS
 10
131.1554332731
 20
108.7130180921
 11
131.1301774713
 21
108.6692737603
  0
LINE
  5
262
100
AcDbEntity
  8
RACCORDO
100
AcDbLine
 62
250
  6
CONTINUOUS
 10
130.8775220744
 20
107.9328033666
 11
130.8659068632
 21
107.9126852307
  0
LINE
  5
263
100
AcDbEntity
  8
RACCORDO
100
AcDbLine
 62
250
  6
CONTINUOUS
 10
135.7342734803
 20
109.5665548035
 11
134.6141652333
 21
108.2316617761
  0
LWPOLYLINE
  5
264
100
AcDbEntity
  8
RACCORDO
100
AcDbPolyline
 62
250
  6
CONTINUOUS
 90
10
 70
0
 10
134.8439435645
 20
108.0388548631
 10
134.8242172892
 20
108.0176228676
 10
134.8025116661
 20
107.998407788
 10
134.7790312303
 20
107.9813906905
 10
134.7539972405
 20
107.9667319295
 10
134.7276455954
 20
107.9545696365
 10
134.7002246105
 20
107.9450184185
 10
134.6719926773
 20
107.9381682779
 10
134.6432158289
 20
107.9340837644
 10
134.6141652333
 20
107.9328033666
  0
LINE
  5
265
100
AcDbEntity
  8
DRAFT
100
AcDbLine
 62
7
  6
CONTINUOUS
 10
131.1554332731
 20
74.5130180921
 11
131.1301774713
 21
74.5567624239
  0
LINE
  5
266
100
AcDbEntity
  8
RACCORDO
100
AcDbLine
 62
7
  6
CONTINUOUS
 10
129.8016367786
 20
73.9594356893
 11
129.7999662767
 21
73.9630180921
  0
LINE
  5
267
100
AcDbEntity
  8
RACCORDO
100
AcDbLine
 62
7
  6
CONTINUOUS
 10
129.8695495663
 20
73.8138333056
 11
129.8025439281
 21
73.9574471417
  0
LINE
  5
268
100
AcDbEntity
  8
RACCORDO
100
AcDbLine
 62
7
  6
CONTINUOUS
 10
129.8825126278
 20
73.7858585491
 11
129.8695495663
 21
73.8138333056
  0
LWPOLYLINE
  5
269
100
AcDbEntity
  8
RACCORDO
100
AcDbPolyline
 62
7
  6
CONTINUOUS
 90
3
 70
0
 10
129.9415077697
 20
73.6594813807
 10
129.9262091995
 20
73.6928378658
 10
129.8825126278
 20
73.7858585491
  0
LINE
  5
26A
100
AcDbEntity
  8
RACCORDO
100
AcDbLine
 62
7
  6
CONTINUOUS
 10
129.8025439281
 20
73.9574471417
 11
129.8016367786
 21
73.9594356893
  0
LWPOLYLINE
  5
26B
100
AcDbEntity
  8
RACCORDO
100
AcDbPolyline
 62
7
  6
CONTINUOUS
 90
7
 70
0
 10
128.2207349235
 20
77.4064987198
 10
128.1713806567
 20
77.5289344294
 10
128.1252244663
 20
77.6489153112
 10
128.0822663523
 20
77.7664413651
 10
128.0425063146
 20
77.8815125912
 10
128.0059443533
 20
77.9941289893
 10
127.9725804683
 20
78.1042905596
  0
LINE
  5
26C
100
AcDbEntity
  8
RACCORDO
100
AcDbLine
 62
250
  6
CONTINUOUS
 10
128.1500069152
 20
105.5444884157
 11
128.1765225384
 21
105.6498126965
  0
LWPOLYLINE
  5
26D
100
AcDbEntity
  8
RACCORDO
100
AcDbPolyline
 62
250
  6
CONTINUOUS
 90
3
 70
0
 10
128.1765225384
 20
105.6498126965
 10
128.2053056902
 20
105.7614163326
 10
128.2207350124
 20
105.8195376955
  0
LWPOLYLINE
  5
26E
100
AcDbEntity
  8
RACCORDO
100
AcDbPolyline
 62
7
  6
CONTINUOUS
 90
7
 70
0
 10
127.9725804375
 20
105.1217456246
 10
128.0062083682
 20
105.2326510214
 10
128.0429287775
 20
105.3457137637
 10
128.0827416654
 20
105.4609338512
 10
128.125647032
 20
105.5783112841
 10
128.1716448772
 20
105.6978460623
 10
128.2207352011
 20
105.8195381859
  0
LWPOLYLINE
  5
26F
100
AcDbEntity
  8
RACCORDO
100
AcDbPolyline
 62
7
  6
CONTINUOUS
 90
16
 70
0
 10
126.4343082221
 20
97.1679459072
 10
126.4318489466
 20
97.1644483778
 10
126.4257056489
 20
97.1596510024
 10
126.4160021996
 20
97.1535537811
 10
126.4028462438
 20
97.1463222924
 10
126.3864745002
 20
97.1377909577
 10
126.3673731048
 20
97.1274630416
 10
126.3460624213
 20
97.1154959118
 10
126.3227893222
 20
97.1017322006
 10
126.297694421
 20
97.0852030693
 10
126.2707431057
 20
97.0656546295
 10
126.2425739369
 20
97.0433407697
 10
126.2144025788
 20
97.0180543171
 10
126.1869163283
 20
96.989726214
 10
126.1601470434
 20
96.9584255181
 10
126.1343539136
 20
96.9241522294
  0
LINE
  5
270
100
AcDbEntity
  8
RACCORDO
100
AcDbLine
 62
250
  6
CONTINUOUS
 10
135.8741444714
 20
109.266600495
 11
134.8439435645
 21
108.0388548631
  0
LINE
  5
271
100
AcDbEntity
  8
DRAFT
100
AcDbLine
 62
7
  6
CONTINUOUS
 10
127.2274327146
 20
98.9562774652
 11
127.812153489
 21
99.6531205487
  0
LINE
  5
272
100
AcDbEntity
  8
RACCORDO
100
AcDbLine
 62
7
  6
CONTINUOUS
 10
134.833553355
 20
108.020899064
 11
135.126312517
 21
108.3697958472
  0
LINE
  5
273
100
AcDbEntity
  8
DRAFT
100
AcDbLine
 62
7
  6
CONTINUOUS
 10
135.7110332914
 20
109.0666389307
 11
135.8758149733
 21
109.2630180921
  0
LINE
  5
274
100
AcDbEntity
  8
DRAFT
100
AcDbLine
 62
7
  6
CONTINUOUS
 10
127.2515964905
 20
98.9552039454
 11
127.7311350113
 21
99.5266957004
  0
LINE
  5
275
100
AcDbEntity
  8
DRAFT
100
AcDbLine
 62
7
  6
CONTINUOUS
 10
135.2367479768
 20
108.4715369167
 11
135.7162864976
 21
109.0430286716
  0
LINE
  5
276
100
AcDbEntity
  8
DRAFT
100
AcDbLine
 62
7
  6
CONTINUOUS
 10
127.7528417571
 20
99.5254095323
 11
127.808277532
 21
99.5914753162
  0
LINE
  5
277
100
AcDbEntity
  8
DRAFT
100
AcDbLine
 62
7
  6
CONTINUOUS
 10
135.1863481671
 20
108.3843175019
 11
135.241783942
 21
108.4503832858
  0
LINE
  5
278
100
AcDbEntity
  8
DRAFT
100
AcDbLine
 62
7
  6
CONTINUOUS
 10
127.6849680796
 20
99.4173655729
 11
127.7628608475
 21
99.5101945589
  0
LINE
  5
279
100
AcDbEntity
  8
DRAFT
100
AcDbLine
 62
7
  6
CONTINUOUS
 10
135.2585075625
 20
108.4431584603
 11
135.3364003305
 21
108.5359874463
  0
LWPOLYLINE
  5
27A
100
AcDbEntity
  8
RACCORDO
100
AcDbPolyline
 62
7
  6
CONTINUOUS
 90
7
 70
0
 10
134.833553355
 20
108.020899064
 10
134.827705052
 20
108.0141537182
 10
134.8217497774
 20
108.0076551352
 10
134.8156875311
 20
108.001403315
 10
134.8095183131
 20
107.9953982578
 10
134.8032421235
 20
107.9896399634
 10
134.7968589623
 20
107.9841284319
  0
LWPOLYLINE
  5
27B
100
AcDbEntity
  8
RACCORDO
100
AcDbPolyline
 62
7
  6
CONTINUOUS
 90
7
 70
0
 10
127.7232192534
 20
82.6144121738
 10
127.7286350798
 20
82.615415406
 10
127.7399196505
 20
82.6163802262
 10
127.7570729656
 20
82.6173066343
 10
127.7804896936
 20
82.6182062159
 10
127.809775166
 20
82.6190673854
 10
127.8437453771
 20
82.6198553866
  0
LINE
  5
27C
100
AcDbEntity
  8
RACCORDO
100
AcDbLine
 62
7
  6
CONTINUOUS
 10
139.237890625
 20
82.5875829262
 11
138.5356661482
 21
82.5753255524
  0
LWPOLYLINE
  5
27D
100
AcDbEntity
  8
RACCORDO
100
AcDbPolyline
 62
7
  6
CONTINUOUS
 90
3
 70
0
 10
127.8437453771
 20
82.6198553866
 10
127.9249506786
 20
82.6211887135
 10
127.9725804375
 20
82.6217456246
  0
LINE
  5
27E
100
AcDbEntity
  8
DRAFT
100
AcDbLine
 62
7
  6
CONTINUOUS
 10
126.437890625
 20
82.593692199
 11
126.837890625
 21
82.5955630272
  0
LINE
  5
27F
100
AcDbEntity
  8
RACCORDO
100
AcDbLine
 62
7
  6
CONTINUOUS
 10
138.8117080276
 20
82.6217456246
 11
137.7032007913
 21
82.6217456246
  0
LINE
  5
280
100
AcDbEntity
  8
RACCORDO
100
AcDbLine
 62
7
  6
CONTINUOUS
 10
127.9725804375
 20
82.6217456246
 11
126.8640732224
 21
82.6217456246
  0
LINE
  5
281
100
AcDbEntity
  8
RACCORDO
100
AcDbLine
 62
7
  6
CONTINUOUS
 10
126.1204203296
 20
82.630473157
 11
126.1343539136
 21
82.630473157
  0
LINE
  5
282
100
AcDbEntity
  8
RACCORDO
100
AcDbLine
 62
7
  6
CONTINUOUS
 10
139.5414273364
 20
82.630473157
 11
139.5553609204
 21
82.630473157
  0
LINE
  5
283
100
AcDbEntity
  8
DRAFT
100
AcDbLine
 62
7
  6
CONTINUOUS
 10
126.8640732224
 20
82.6392006895
 11
126.437890625
 21
82.6392006895
  0
LINE
  5
284
100
AcDbEntity
  8
DRAFT
100
AcDbLine
 62
7
  6
CONTINUOUS
 10
138.8117080276
 20
82.6392006895
 11
139.237890625
 21
82.6392006895
  0
LINE
  5
285
100
AcDbEntity
  8
DRAFT
100
AcDbLine
 62
7
  6
CONTINUOUS
 10
138.837890625
 20
82.5955630272
 11
139.237890625
 21
82.593692199
  0
LWPOLYLINE
  5
286
100
AcDbEntity
  8
RACCORDO
100
AcDbPolyline
 62
7
  6
CONTINUOUS
 90
9
 70
0
 10
137.7032007913
 20
82.6217456246
 10
137.793775617
 20
82.6205586334
 10
137.8320359202
 20
82.6198553856
 10
137.866006158
 20
82.6190673843
 10
137.8952916561
 20
82.6182062148
 10
137.9187083912
 20
82.6173066333
 10
137.9358616892
 20
82.6163802254
 10
137.9471462243
 20
82.6154154056
 10
137.9525619966
 20
82.6144121738
  0
LINE
  5
287
100
AcDbEntity
  8
RACCORDO
100
AcDbLine
 62
7
  6
CONTINUOUS
 10
127.1401151018
 20
82.5753255524
 11
126.437890625
 21
82.5875829262
  0
LWPOLYLINE
  5
288
100
AcDbEntity
  8
RACCORDO
100
AcDbPolyline
 62
7
  6
CONTINUOUS
 90
16
 70
0
 10
126.1343539136
 20
86.3018839548
 10
126.1600904562
 20
86.2676905986
 10
126.1867800396
 20
86.2364650833
 10
126.214166549
 20
86.2082074088
 10
126.2421645651
 20
86.1830105811
 10
126.2701571113
 20
86.1607815942
 10
126.2970957122
 20
86.1412414303
 10
126.3224313893
 20
86.1245756999
 10
126.3460318624
 20
86.1105987925
 10
126.3675531342
 20
86.0984748593
 10
126.3867134146
 20
86.0881060892
 10
126.4030730248
 20
86.0795902933
 10
126.4161733721
 20
86.0723850556
 10
126.4258033565
 20
86.0663095711
 10
126.4318804392
 20
86.0615446449
 10
126.4343082221
 20
86.058090277
  0
LINE
  5
289
100
AcDbEntity
  8
RACCORDO
100
AcDbLine
 62
250
  6
CONTINUOUS
 10
128.2207350124
 20
77.4064984887
 11
128.2060785775
 21
77.4617182567
  0
LINE
  5
28A
100
AcDbEntity
  8
RACCORDO
100
AcDbLine
 62
250
  6
CONTINUOUS
 10
128.2060785775
 20
77.4617182567
 11
128.1786192289
 21
77.5680131949
  0
LINE
  5
28B
100
AcDbEntity
  8
RACCORDO
100
AcDbLine
 62
250
  6
CONTINUOUS
 10
128.1786192289
 20
77.5680131949
 11
128.1532695592
 21
77.6684466376
  0
LINE
  5
28C
100
AcDbEntity
  8
DRAFT
100
AcDbLine
 62
7
  6
CONTINUOUS
 10
125.337890625
 20
73.449986919
 11
125.337890625
 21
87.2760492652
  0
LINE
  5
28D
100
AcDbEntity
  8
DRAFT
100
AcDbLine
 62
7
  6
CONTINUOUS
 10
125.337890625
 20
95.949986919
 11
125.337890625
 21
109.7760492652
  0
LINE
  5
28E
100
AcDbEntity
  8
RACCORDO
100
AcDbLine
 62
7
  6
CONTINUOUS
 10
126.0204355601
 20
78.1955477967
 11
126.0204355601
 21
82.5304883875
  0
LINE
  5
28F
100
AcDbEntity
  8
RACCORDO
100
AcDbLine
 62
7
  6
CONTINUOUS
 10
126.0204355601
 20
100.6955477967
 11
126.0204355601
 21
105.0304883875
  0
LINE
  5
290
100
AcDbEntity
  8
RACCORDO
100
AcDbLine
 62
250
  6
CONTINUOUS
 10
126.1343539136
 20
74.4241522294
 11
126.1343539136
 21
78.0955630272
  0
LINE
  5
291
100
AcDbEntity
  8
RACCORDO
100
AcDbLine
 62
250
  6
CONTINUOUS
 10
126.1343539136
 20
82.630473157
 11
126.1343539136
 21
86.3018839548
  0
LINE
  5
292
100
AcDbEntity
  8
RACCORDO
100
AcDbLine
 62
250
  6
CONTINUOUS
 10
126.1343539136
 20
96.9241522294
 11
126.1343539136
 21
100.5955630272
  0
LINE
  5
293
100
AcDbEntity
  8
RACCORDO
100
AcDbLine
 62
250
  6
CONTINUOUS
 10
126.1343539136
 20
105.130473157
 11
126.1343539136
 21
108.8018839548
  0
LINE
  5
294
100
AcDbEntity
  8
RACCORDO
100
AcDbLine
 62
7
  6
CONTINUOUS
 10
126.4343082221
 20
97.1679459072
 11
126.437890625
 21
97.187502497
  0
LWPOLYLINE
  5
295
100
AcDbEntity
  8
RACCORDO
100
AcDbPolyline
 62
250
  6
CONTINUOUS
 90
3
 70
0
 10
127.9786625547
 20
104.7616926691
 10
128.0003695355
 20
104.8748286289
 10
128.0110254991
 20
104.9283556014
  0
LINE
  5
296
100
AcDbEntity
  8
RACCORDO
100
AcDbLine
 62
250
  6
CONTINUOUS
 10
128.0110254991
 20
104.9283556014
 11
128.0318075565
 21
105.0294852713
  0
LINE
  5
297
100
AcDbEntity
  8
RACCORDO
100
AcDbLine
 62
250
  6
CONTINUOUS
 10
128.0318075565
 20
105.0294852713
 11
128.0521516183
 21
105.1247281382
  0
LINE
  5
298
100
AcDbEntity
  8
RACCORDO
100
AcDbLine
 62
250
  6
CONTINUOUS
 10
128.0521516183
 20
105.1247281382
 11
128.0722404433
 21
105.2157215293
  0
LINE
  5
299
100
AcDbEntity
  8
RACCORDO
100
AcDbLine
 62
250
  6
CONTINUOUS
 10
128.0722404433
 20
105.2157215293
 11
128.0927301004
 21
105.3055924436
  0
LINE
  5
29A
100
AcDbEntity
  8
RACCORDO
100
AcDbLine
 62
250
  6
CONTINUOUS
 10
128.0927301004
 20
105.3055924436
 11
128.1143486769
 21
105.3977942704
  0
LWPOLYLINE
  5
29B
100
AcDbEntity
  8
RACCORDO
100
AcDbPolyline
 62
250
  6
CONTINUOUS
 90
3
 70
0
 10
128.1143486769
 20
105.3977942704
 10
128.1375782203
 20
105.4940411077
 10
128.1500069152
 20
105.5444884157
  0
LINE
  5
29C
100
AcDbEntity
  8
DRAFT
100
AcDbLine
 62
7
  6
CONTINUOUS
 10
134.837890625
 20
109.2630180921
 11
134.5203479769
 21
108.7130180921
  0
LINE
  5
29D
100
AcDbEntity
  8
DRAFT
100
AcDbLine
 62
7
  6
CONTINUOUS
 10
134.8816349568
 20
109.2512968337
 11
134.5456037787
 21
108.6692737603
  0
LINE
  5
29E
100
AcDbEntity
  8
RACCORDO
100
AcDbLine
 62
250
  6
CONTINUOUS
 10
134.6141652333
 20
107.9328033666
 11
134.6017767343
 21
107.9113942317
  0
LWPOLYLINE
  5
29F
100
AcDbEntity
  8
RACCORDO
100
AcDbPolyline
 62
7
  6
CONTINUOUS
 90
16
 70
0
 10
126.8990247623
 20
96.1594813807
 10
126.9331140344
 20
96.185119024
 10
126.9642646907
 20
96.2117298358
 10
126.9924767314
 20
96.2390592437
 10
127.0176632374
 20
96.2670192992
 10
127.0399111277
 20
96.2949966741
 10
127.0594811594
 20
96.3219507014
 10
127.076188467
 20
96.3473389643
 10
127.0902179159
 20
96.3710098327
 10
127.1023848596
 20
96.3925908403
 10
127.1127790894
 20
96.4117960415
 10
127.121310814
 20
96.4281888587
 10
127.1285260133
 20
96.4413049713
 10
127.1346066808
 20
96.4509371193
 10
127.139370823
 20
96.4570107947
 10
127.1428184401
 20
96.4594356893
  0
LINE
  5
2A0
100
AcDbEntity
  8
DRAFT
100
AcDbLine
 62
7
  6
CONTINUOUS
 10
138.4483485354
 20
84.269758719
 11
138.4241847595
 21
84.2708322388
  0
LINE
  5
2A1
100
AcDbEntity
  8
DRAFT
100
AcDbLine
 62
7
  6
CONTINUOUS
 10
137.9446462387
 20
83.6993404839
 11
137.9229394929
 21
83.7006266519
  0
LWPOLYLINE
  5
2A2
100
AcDbEntity
  8
RACCORDO
100
AcDbPolyline
 62
7
  6
CONTINUOUS
 90
16
 70
0
 10
127.1428184401
 20
86.766600495
 10
127.1392850481
 20
86.7691102156
 10
127.134409891
 20
86.7753912584
 10
127.1281929687
 20
86.7853178994
 10
127.1207894913
 20
86.798796633
 10
127.1120442488
 20
86.8155741896
 10
127.1014916114
 20
86.8350785038
 10
127.0892386632
 20
86.8567519898
 10
127.07517832
 20
86.8803126858
 10
127.0585237001
 20
86.905482812
 10
127.0391427923
 20
86.9321081385
 10
127.0171676078
 20
86.9596560927
 10
126.9922072974
 20
86.9872582808
 10
126.9641315782
 20
87.0143801817
 10
126.9330707332
 20
87.040894968
 10
126.8990247623
 20
87.0665548035
  0
LINE
  5
2A3
100
AcDbEntity
  8
DRAFT
100
AcDbLine
 62
7
  6
CONTINUOUS
 10
134.5203479769
 20
74.5130180921
 11
134.837890625
 21
73.9630180921
  0
LINE
  5
2A4
100
AcDbEntity
  8
DRAFT
100
AcDbLine
 62
7
  6
CONTINUOUS
 10
134.5456037787
 20
74.5567624239
 11
134.8816349568
 21
73.9747393505
  0
LINE
  5
2A5
100
AcDbEntity
  8
RACCORDO
100
AcDbLine
 62
250
  6
CONTINUOUS
 10
134.7982591756
 20
74.9943744081
 11
135.5689600243
 21
73.6594813807
  0
LINE
  5
2A6
100
AcDbEntity
  8
RACCORDO
100
AcDbLine
 62
250
  6
CONTINUOUS
 10
128.1532695592
 20
77.6684466376
 11
128.1296414936
 21
77.7646418853
  0
LINE
  5
2A7
100
AcDbEntity
  8
RACCORDO
100
AcDbLine
 62
250
  6
CONTINUOUS
 10
128.1296414936
 20
77.7646418853
 11
128.1073160256
 21
77.8579220355
  0
LINE
  5
2A8
100
AcDbEntity
  8
RACCORDO
100
AcDbLine
 62
250
  6
CONTINUOUS
 10
128.1073160256
 20
77.8579220355
 11
128.0857456792
 21
77.9507832482
  0
LINE
  5
2A9
100
AcDbEntity
  8
RACCORDO
100
AcDbLine
 62
250
  6
CONTINUOUS
 10
128.0857456792
 20
77.9507832482
 11
128.0641104228
 21
78.0467734324
  0
LINE
  5
2AA
100
AcDbEntity
  8
DRAFT
100
AcDbLine
 62
7
  6
CONTINUOUS
 10
129.9647479586
 20
74.1593972535
 11
129.9594947524
 21
74.1830075126
  0
LWPOLYLINE
  5
2AB
100
AcDbEntity
  8
RACCORDO
100
AcDbPolyline
 62
250
  6
CONTINUOUS
 90
3
 70
0
 10
128.0641104228
 20
78.0467734324
 10
128.0422188972
 20
78.1473566107
 10
128.0311061876
 20
78.1998782459
  0
LWPOLYLINE
  5
2AC
100
AcDbEntity
  8
RACCORDO
100
AcDbPolyline
 62
250
  6
CONTINUOUS
 90
26
 70
0
 10
128.0311061876
 20
78.1998782459
 10
128.0087219026
 20
78.3091526802
 10
127.9974983008
 20
78.3658531656
 10
127.9862885593
 20
78.4239843776
 10
127.9750353852
 20
78.4838317119
 10
127.9637989833
 20
78.5453771388
 10
127.952617475
 20
78.6086390554
 10
127.9414250372
 20
78.6739607041
 10
127.9303026476
 20
78.7413308109
 10
127.919303057
 20
78.8107637016
 10
127.9083524234
 20
78.8826470485
 10
127.89757565
 20
78.9569107289
 10
127.8870311466
 20
79.0336330843
 10
127.8766019877
 20
79.1134357
 10
127.8664624236
 20
79.196366817
 10
127.8567170603
 20
79.2823945429
 10
127.8472320484
 20
79.3720423642
 10
127.8382772762
 20
79.4653629746
 10
127.82999461
 20
79.5623354341
 10
127.8221850416
 20
79.6634142741
 10
127.8152414638
 20
79.7686290177
 10
127.8093740057
 20
79.8780029128
 10
127.8042892484
 20
79.9920458919
 10
127.8002055664
 20
80.110973137
 10
127.7977433963
 20
80.2346512983
 10
127.7973023189
 20
80.3630908187
  0
LINE
  5
2AD
100
AcDbEntity
  8
RACCORDO
100
AcDbLine
 62
7
  6
CONTINUOUS
 10
126.4343082221
 20
86.058090277
 11
126.437890625
 21
86.0385336872
  0
LINE
  5
2AE
100
AcDbEntity
  8
RACCORDO
100
AcDbLine
 62
250
  6
CONTINUOUS
 10
126.4343082221
 20
74.6679459072
 11
126.4343082221
 21
78.0904178976
  0
LINE
  5
2AF
100
AcDbEntity
  8
RACCORDO
100
AcDbLine
 62
250
  6
CONTINUOUS
 10
126.4343082221
 20
82.6356182866
 11
126.4343082221
 21
86.058090277
  0
LINE
  5
2B0
100
AcDbEntity
  8
RACCORDO
100
AcDbLine
 62
250
  6
CONTINUOUS
 10
126.4343082221
 20
97.1679459072
 11
126.4343082221
 21
100.5904178976
  0
LINE
  5
2B1
100
AcDbEntity
  8
RACCORDO
100
AcDbLine
 62
250
  6
CONTINUOUS
 10
126.4343082221
 20
105.1356182866
 11
126.4343082221
 21
108.558090277
  0
LINE
  5
2B2
100
AcDbEntity
  8
DRAFT
100
AcDbLine
 62
7
  6
CONTINUOUS
 10
126.437890625
 20
105.0875829262
 11
126.437890625
 21
100.638453258
  0
LINE
  5
2B3
100
AcDbEntity
  8
DRAFT
100
AcDbLine
 62
7
  6
CONTINUOUS
 10
126.437890625
 20
82.5875829262
 11
126.437890625
 21
78.138453258
  0
LINE
  5
2B4
100
AcDbEntity
  8
DRAFT
100
AcDbLine
 62
7
  6
CONTINUOUS
 10
126.437890625
 20
74.687502497
 11
126.437890625
 21
78.0868354947
  0
LINE
  5
2B5
100
AcDbEntity
  8
DRAFT
100
AcDbLine
 62
7
  6
CONTINUOUS
 10
126.437890625
 20
82.6392006895
 11
126.437890625
 21
86.0385336872
  0
LINE
  5
2B6
100
AcDbEntity
  8
DRAFT
100
AcDbLine
 62
7
  6
CONTINUOUS
 10
126.437890625
 20
97.187502497
 11
126.437890625
 21
100.5868354947
  0
LINE
  5
2B7
100
AcDbEntity
  8
DRAFT
100
AcDbLine
 62
7
  6
CONTINUOUS
 10
126.437890625
 20
105.1392006895
 11
126.437890625
 21
108.5385336872
  0
LINE
  5
2B8
100
AcDbEntity
  8
DRAFT
100
AcDbLine
 62
7
  6
CONTINUOUS
 10
126.8640732224
 20
105.1392006895
 11
126.8640732224
 21
105.1217456246
  0
LINE
  5
2B9
100
AcDbEntity
  8
DRAFT
100
AcDbLine
 62
7
  6
CONTINUOUS
 10
126.8640732224
 20
82.6392006895
 11
126.8640732224
 21
82.6217456246
  0
LINE
  5
2BA
100
AcDbEntity
  8
DRAFT
100
AcDbLine
 62
7
  6
CONTINUOUS
 10
126.8640732224
 20
78.0868354947
 11
126.8640732224
 21
78.1042905596
  0
LINE
  5
2BB
100
AcDbEntity
  8
DRAFT
100
AcDbLine
 62
7
  6
CONTINUOUS
 10
126.8640732224
 20
100.5868354947
 11
126.8640732224
 21
100.6042905596
  0
LINE
  5
2BC
100
AcDbEntity
  8
RACCORDO
100
AcDbLine
 62
250
  6
CONTINUOUS
 10
127.1401151018
 20
105.0753255524
 11
127.1401151018
 21
100.6507106318
  0
LINE
  5
2BD
100
AcDbEntity
  8
RACCORDO
100
AcDbLine
 62
250
  6
CONTINUOUS
 10
127.1401151018
 20
82.5753255524
 11
127.1401151018
 21
78.1507106318
  0
LINE
  5
2BE
100
AcDbEntity
  8
DRAFT
100
AcDbLine
 62
7
  6
CONTINUOUS
 10
127.812153489
 20
99.6531205487
 11
127.808277532
 21
99.5914753162
  0
LINE
  5
2BF
100
AcDbEntity
  8
RACCORDO
100
AcDbLine
 62
250
  6
CONTINUOUS
 10
134.8439435645
 20
108.0388548631
 11
134.833553355
 21
108.020899064
  0
LINE
  5
2C0
100
AcDbEntity
  8
DRAFT
100
AcDbLine
 62
7
  6
CONTINUOUS
 10
137.9908131704
 20
106.3086706113
 11
137.9129204025
 21
106.2158416253
  0
LINE
  5
2C1
100
AcDbEntity
  8
DRAFT
100
AcDbLine
 62
7
  6
CONTINUOUS
 10
130.4172736875
 20
97.2828777239
 11
130.3393809195
 21
97.1900487379
  0
LINE
  5
2C2
100
AcDbEntity
  8
DRAFT
100
AcDbLine
 62
7
  6
CONTINUOUS
 10
137.9229394929
 20
106.2006266519
 11
137.867503718
 21
106.134560868
  0
LINE
  5
2C3
100
AcDbEntity
  8
DRAFT
100
AcDbLine
 62
7
  6
CONTINUOUS
 10
130.4894330829
 20
97.3417186823
 11
130.433997308
 21
97.2756528984
  0
LINE
  5
2C4
100
AcDbEntity
  8
DRAFT
100
AcDbLine
 62
7
  6
CONTINUOUS
 10
138.4241847595
 20
106.7708322388
 11
137.9446462387
 21
106.1993404839
  0
LINE
  5
2C5
100
AcDbEntity
  8
DRAFT
100
AcDbLine
 62
7
  6
CONTINUOUS
 10
130.4390332732
 20
97.2544992675
 11
129.9594947524
 21
96.6830075126
  0
LINE
  5
2C6
100
AcDbEntity
  8
DRAFT
100
AcDbLine
 62
7
  6
CONTINUOUS
 10
138.4483485354
 20
106.769758719
 11
137.863627761
 21
106.0729156355
  0
LINE
  5
2C7
100
AcDbEntity
  8
RACCORDO
100
AcDbLine
 62
7
  6
CONTINUOUS
 10
130.842227895
 20
97.7051371202
 11
130.549468733
 21
97.356240337
  0
LINE
  5
2C8
100
AcDbEntity
  8
DRAFT
100
AcDbLine
 62
7
  6
CONTINUOUS
 10
129.9647479586
 20
96.6593972535
 11
129.7999662767
 21
96.4630180921
  0
LINE
  5
2C9
100
AcDbEntity
  8
RACCORDO
100
AcDbLine
 62
250
  6
CONTINUOUS
 10
129.8016367786
 20
96.4594356893
 11
130.8318376855
 21
97.6871813211
  0
LWPOLYLINE
  5
2CA
100
AcDbEntity
  8
RACCORDO
100
AcDbPolyline
 62
7
  6
CONTINUOUS
 90
7
 70
0
 10
130.842227895
 20
97.7051371202
 10
130.848076198
 20
97.7118824661
 10
130.8540314726
 20
97.7183810491
 10
130.8600937189
 20
97.7246328692
 10
130.8662629368
 20
97.7306379264
 10
130.8725391264
 20
97.7363962208
 10
130.8789222876
 20
97.7419077522
  0
LWPOLYLINE
  5
2CB
100
AcDbEntity
  8
RACCORDO
100
AcDbPolyline
 62
250
  6
CONTINUOUS
 90
10
 70
0
 10
130.8318376855
 20
97.6871813211
 10
130.8515639608
 20
97.7084133166
 10
130.8732695839
 20
97.7276283962
 10
130.8967500197
 20
97.7446454937
 10
130.9217840095
 20
97.7593042547
 10
130.9481356546
 20
97.7714665477
 10
130.9755566395
 20
97.7810177657
 10
131.0037885727
 20
97.7878679063
 10
131.0325654211
 20
97.7919524199
 10
131.0616160167
 20
97.7932328176
  0
LWPOLYLINE
  5
2CC
100
AcDbEntity
  8
RACCORDO
100
AcDbPolyline
 62
7
  6
CONTINUOUS
 90
7
 70
0
 10
130.8792372803
 20
97.7421967525
 10
130.907589446
 20
97.7634423073
 10
130.9381683357
 20
97.7812615266
 10
130.9705505801
 20
97.795433505
 10
131.0042916775
 20
97.8057890196
 10
131.0389322665
 20
97.8122122844
 10
131.0740045157
 20
97.8146419525
  0
LINE
  5
2CD
100
AcDbEntity
  8
RACCORDO
100
AcDbLine
 62
7
  6
CONTINUOUS
 10
138.0237168657
 20
100.6471906053
 11
137.9525619966
 21
100.6116240104
  0
LINE
  5
2CE
100
AcDbEntity
  8
RACCORDO
100
AcDbLine
 62
7
  6
CONTINUOUS
 10
130.7941462932
 20
96.4542905596
 11
130.8291417586
 21
96.4653623438
  0
LINE
  5
2CF
100
AcDbEntity
  8
DRAFT
100
AcDbLine
 62
7
  6
CONTINUOUS
 10
135.126312517
 20
85.8697958472
 11
135.1863481671
 21
85.8843175019
  0
LINE
  5
2D0
100
AcDbEntity
  8
RACCORDO
100
AcDbLine
 62
7
  6
CONTINUOUS
 10
138.5329628099
 20
86.766600495
 11
138.5134062201
 21
86.7630180921
  0
LINE
  5
2D1
100
AcDbEntity
  8
RACCORDO
100
AcDbLine
 62
7
  6
CONTINUOUS
 10
134.1015750332
 20
85.4052494663
 11
133.2327297597
 21
85.3900306759
  0
LINE
  5
2D2
100
AcDbEntity
  8
RACCORDO
100
AcDbLine
 62
7
  6
CONTINUOUS
 10
134.6017767343
 20
85.4113942317
 11
134.1015750332
 21
85.4052494663
  0
LWPOLYLINE
  5
2D3
100
AcDbEntity
  8
RACCORDO
100
AcDbPolyline
 62
7
  6
CONTINUOUS
 90
3
 70
0
 10
133.2327297597
 20
85.3900306759
 10
132.9674368429
 20
85.3873244914
 10
132.83806478
 20
85.3866175141
  0
LINE
  5
2D4
100
AcDbEntity
  8
RACCORDO
100
AcDbLine
 62
250
  6
CONTINUOUS
 10
134.6141652333
 20
85.4328033666
 11
130.8775220744
 21
85.4328033666
  0
LINE
  5
2D5
100
AcDbEntity
  8
RACCORDO
100
AcDbLine
 62
250
  6
CONTINUOUS
 10
134.6141652333
 20
85.7316617761
 11
130.8775220744
 21
85.7316617761
  0
LINE
  5
2D6
100
AcDbEntity
  8
DRAFT
100
AcDbLine
 62
7
  6
CONTINUOUS
 10
134.5456037787
 20
86.1692737603
 11
131.1301774713
 21
86.1692737603
  0
LINE
  5
2D7
100
AcDbEntity
  8
DRAFT
100
AcDbLine
 62
7
  6
CONTINUOUS
 10
134.5203479769
 20
86.2130180921
 11
131.1554332731
 21
86.2130180921
  0
LINE
  5
2D8
100
AcDbEntity
  8
RACCORDO
100
AcDbLine
 62
7
  6
CONTINUOUS
 10
132.70834835
 20
85.3870806548
 11
132.83806478
 21
85.3866175141
  0
LINE
  5
2D9
100
AcDbEntity
  8
RACCORDO
100
AcDbLine
 62
7
  6
CONTINUOUS
 10
130.8659068632
 20
85.4126852307
 11
131.0871322321
 21
85.4112840606
  0
LINE
  5
2DA
100
AcDbEntity
  8
RACCORDO
100
AcDbLine
 62
7
  6
CONTINUOUS
 10
132.5871903455
 20
85.3880913475
 11
132.70834835
 21
85.3870806548
  0
LINE
  5
2DB
100
AcDbEntity
  8
RACCORDO
100
AcDbLine
 62
7
  6
CONTINUOUS
 10
131.0871322321
 20
85.4112840606
 11
131.3557911265
 21
85.408379295
  0
LINE
  5
2DC
100
AcDbEntity
  8
RACCORDO
100
AcDbLine
 62
7
  6
CONTINUOUS
 10
132.3684539794
 20
85.3912137055
 11
132.5871903455
 21
85.3880913475
  0
LINE
  5
2DD
100
AcDbEntity
  8
RACCORDO
100
AcDbLine
 62
7
  6
CONTINUOUS
 10
131.3557911265
 20
85.408379295
 11
131.7727273539
 21
85.4019567385
  0
LINE
  5
2DE
100
AcDbEntity
  8
RACCORDO
100
AcDbLine
 62
7
  6
CONTINUOUS
 10
131.7727273539
 20
85.4019567385
 11
132.3684539794
 21
85.3912137055
  0
LWPOLYLINE
  5
2DF
100
AcDbEntity
  8
RACCORDO
100
AcDbPolyline
 62
7
  6
CONTINUOUS
 90
7
 70
0
 10
130.8659068632
 20
85.4126852307
 10
130.8470867902
 20
85.4133657919
 10
130.8282858858
 20
85.4152291146
 10
130.8095798426
 20
85.4182779794
 10
130.7910450433
 20
85.4225103213
 10
130.7727582503
 20
85.4279191421
 10
130.7547962848
 20
85.4344924424
  0
LWPOLYLINE
  5
2E0
100
AcDbEntity
  8
RACCORDO
100
AcDbPolyline
 62
250
  6
CONTINUOUS
 90
10
 70
0
 10
130.8775220744
 20
85.4328033666
 10
130.8428834168
 20
85.4349591591
 10
130.8087092707
 20
85.4410938029
 10
130.7754579193
 20
85.4511250312
 10
130.7435752709
 20
85.4649183235
 10
130.7134888798
 20
85.4822887087
 10
130.6856022123
 20
85.5030032457
 10
130.6602892356
 20
85.5267841474
 10
130.6378894024
 20
85.5533125064
 10
130.6187030997
 20
85.5822325714
  0
LINE
  5
2E1
100
AcDbEntity
  8
RACCORDO
100
AcDbLine
 62
7
  6
CONTINUOUS
 10
127.1428184401
 20
86.766600495
 11
127.1623750299
 21
86.7630180921
  0
LINE
  5
2E2
100
AcDbEntity
  8
RACCORDO
100
AcDbLine
 62
7
  6
CONTINUOUS
 10
130.7941462932
 20
86.7717456246
 11
130.8291417586
 21
86.7606738404
  0
LINE
  5
2E3
100
AcDbEntity
  8
RACCORDO
100
AcDbLine
 62
7
  6
CONTINUOUS
 10
137.9525619966
 20
82.6144121739
 11
138.0237168657
 21
82.5788455789
  0
LINE
  5
2E4
100
AcDbEntity
  8
RACCORDO
100
AcDbLine
 62
250
  6
CONTINUOUS
 10
135.0570781503
 20
75.1438036129
 11
135.7415060074
 21
73.9583397901
  0
LINE
  5
2E5
100
AcDbEntity
  8
RACCORDO
100
AcDbLine
 62
7
  6
CONTINUOUS
 10
135.7616510557
 20
73.9630180921
 11
135.0685011839
 21
75.1635888874
  0
LINE
  5
2E6
100
AcDbEntity
  8
DRAFT
100
AcDbLine
 62
7
  6
CONTINUOUS
 10
130.4390332732
 20
74.7544992675
 11
130.433997308
 21
74.7756528984
  0
LINE
  5
2E7
100
AcDbEntity
  8
RACCORDO
100
AcDbLine
 62
250
  6
CONTINUOUS
 10
127.7241229659
 20
82.4685391756
 11
127.7232192534
 21
82.6144121738
  0
LINE
  5
2E8
100
AcDbEntity
  8
RACCORDO
100
AcDbLine
 62
250
  6
CONTINUOUS
 10
127.7241229659
 20
104.9685391756
 11
127.7232192534
 21
105.1144121738
  0
LINE
  5
2E9
100
AcDbEntity
  8
RACCORDO
100
AcDbLine
 62
250
  6
CONTINUOUS
 10
127.7388329809
 20
80.6926313262
 11
127.7241229659
 21
82.4685391756
  0
LINE
  5
2EA
100
AcDbEntity
  8
RACCORDO
100
AcDbLine
 62
250
  6
CONTINUOUS
 10
127.7388329809
 20
103.1926313262
 11
127.7241229659
 21
104.9685391756
  0
LINE
  5
2EB
100
AcDbEntity
  8
RACCORDO
100
AcDbLine
 62
250
  6
CONTINUOUS
 10
127.7396396977
 20
80.3630844409
 11
127.7388329809
 21
80.6926313262
  0
LINE
  5
2EC
100
AcDbEntity
  8
RACCORDO
100
AcDbLine
 62
250
  6
CONTINUOUS
 10
127.7396396977
 20
102.8630844409
 11
127.7388329809
 21
103.1926313262
  0
LINE
  5
2ED
100
AcDbEntity
  8
RACCORDO
100
AcDbLine
 62
250
  6
CONTINUOUS
 10
127.6520643843
 20
105.0788455789
 11
127.6520643843
 21
100.6471906053
  0
LINE
  5
2EE
100
AcDbEntity
  8
RACCORDO
100
AcDbLine
 62
250
  6
CONTINUOUS
 10
127.6520643843
 20
82.5788455789
 11
127.6520643843
 21
78.1471906053
  0
LWPOLYLINE
  5
2EF
100
AcDbEntity
  8
RACCORDO
100
AcDbPolyline
 62
250
  6
CONTINUOUS
 90
22
 70
0
 10
127.7973023189
 20
102.8630908187
 10
127.7977527181
 20
102.9897020051
 10
127.8001531224
 20
103.1120956562
 10
127.8041476257
 20
103.2302833931
 10
127.8091688026
 20
103.3440606805
 10
127.8150208063
 20
103.4537117157
 10
127.8219974767
 20
103.5599602599
 10
127.8299352552
 20
103.663098788
 10
127.8384728543
 20
103.7628921009
 10
127.8477595995
 20
103.8592108407
 10
127.8576375327
 20
103.9520156418
 10
127.8678491338
 20
104.0413827685
 10
127.8784723336
 20
104.1273118632
 10
127.8893643876
 20
104.2096645029
 10
127.900348218
 20
104.288596173
 10
127.911515431
 20
104.3645204378
 10
127.9227742644
 20
104.4374287914
 10
127.9339905759
 20
104.5073351365
 10
127.9452486171
 20
104.5746724142
 10
127.956486351
 20
104.6394787319
 10
127.9676029939
 20
104.7017154463
 10
127.9786625547
 20
104.7616926691
  0
LWPOLYLINE
  5
2F0
100
AcDbEntity
  8
RACCORDO
100
AcDbPolyline
 62
250
  6
CONTINUOUS
 90
22
 70
0
 10
127.7973023189
 20
80.3630908187
 10
127.7977527181
 20
80.4897020051
 10
127.8001531224
 20
80.6120956562
 10
127.8041476257
 20
80.7302833931
 10
127.8091688026
 20
80.8440606805
 10
127.8150208063
 20
80.9537117157
 10
127.8219974767
 20
81.0599602599
 10
127.8299352552
 20
81.163098788
 10
127.8384728543
 20
81.2628921009
 10
127.8477595995
 20
81.3592108407
 10
127.8576375327
 20
81.4520156418
 10
127.8678491338
 20
81.5413827685
 10
127.8784723336
 20
81.6273118632
 10
127.8893643876
 20
81.7096645029
 10
127.900348218
 20
81.788596173
 10
127.911515431
 20
81.8645204378
 10
127.9227742644
 20
81.9374287914
 10
127.9339905759
 20
82.0073351365
 10
127.9452486171
 20
82.0746724142
 10
127.956486351
 20
82.1394787319
 10
127.9676029939
 20
82.2017154463
 10
127.9786625547
 20
82.2616926691
  0
LINE
  5
2F1
100
AcDbEntity
  8
RACCORDO
100
AcDbLine
 62
250
  6
CONTINUOUS
 10
127.7382950002
 20
102.4298518262
 11
127.7396396977
 21
102.8630844409
  0
LINE
  5
2F2
100
AcDbEntity
  8
RACCORDO
100
AcDbLine
 62
250
  6
CONTINUOUS
 10
127.7382950002
 20
79.9298518262
 11
127.7396396977
 21
80.3630844409
  0
LWPOLYLINE
  5
2F3
100
AcDbEntity
  8
RACCORDO
100
AcDbPolyline
 62
250
  6
CONTINUOUS
 90
3
 70
0
 10
127.7232192534
 20
100.6116240104
 10
127.7324277444
 20
101.7270536134
 10
127.7382950002
 20
102.4298518262
  0
LINE
  5
2F4
100
AcDbEntity
  8
RACCORDO
100
AcDbLine
 62
250
  6
CONTINUOUS
 10
127.7232192534
 20
78.1116240104
 11
127.7382950002
 21
79.9298518262
  0
LINE
  5
2F5
100
AcDbEntity
  8
DRAFT
100
AcDbLine
 62
7
  6
CONTINUOUS
 10
127.812153489
 20
77.1531205487
 11
127.808277532
 21
77.0914753162
  0
LINE
  5
2F6
100
AcDbEntity
  8
DRAFT
100
AcDbLine
 62
7
  6
CONTINUOUS
 10
130.7941462932
 20
96.4747393505
 11
131.1301774713
 21
97.0567624239
  0
LINE
  5
2F7
100
AcDbEntity
  8
DRAFT
100
AcDbLine
 62
7
  6
CONTINUOUS
 10
130.837890625
 20
96.4630180921
 11
131.1554332731
 21
97.0130180921
  0
LINE
  5
2F8
100
AcDbEntity
  8
RACCORDO
100
AcDbLine
 62
250
  6
CONTINUOUS
 10
130.8318376855
 20
97.6871813211
 11
130.842227895
 21
97.7051371202
  0
LINE
  5
2F9
100
AcDbEntity
  8
RACCORDO
100
AcDbLine
 62
250
  6
CONTINUOUS
 10
131.0616160167
 20
97.7932328176
 11
131.0740045157
 21
97.8146419525
  0
LWPOLYLINE
  5
2FA
100
AcDbEntity
  8
RACCORDO
100
AcDbPolyline
 62
7
  6
CONTINUOUS
 90
16
 70
0
 10
139.2414730279
 20
108.558090277
 10
139.2439323034
 20
108.5615878064
 10
139.2500756011
 20
108.5663851818
 10
139.2597790504
 20
108.5724824031
 10
139.2729350062
 20
108.5797138919
 10
139.2893067498
 20
108.5882452265
 10
139.3084081452
 20
108.5985731426
 10
139.3297188287
 20
108.6105402724
 10
139.3529919278
 20
108.6243039836
 10
139.378086829
 20
108.6408331149
 10
139.4050381443
 20
108.6603815547
 10
139.4332073131
 20
108.6826954145
 10
139.4613786712
 20
108.7079818671
 10
139.4888649217
 20
108.7363099702
 10
139.5156342066
 20
108.7676106661
 10
139.5414273364
 20
108.8018839548
  0
LINE
  5
2FB
100
AcDbEntity
  8
RACCORDO
100
AcDbLine
 62
250
  6
CONTINUOUS
 10
129.9415077697
 20
96.1594813807
 11
131.0616160167
 21
97.4943744081
  0
LINE
  5
2FC
100
AcDbEntity
  8
RACCORDO
100
AcDbLine
 62
250
  6
CONTINUOUS
 10
135.0570781503
 20
97.6438036129
 11
134.7982591756
 21
97.4943744081
  0
LINE
  5
2FD
100
AcDbEntity
  8
RACCORDO
100
AcDbLine
 62
7
  6
CONTINUOUS
 10
130.7941462932
 20
86.7512968337
 11
130.8291417586
 21
86.7606738404
  0
LINE
  5
2FE
100
AcDbEntity
  8
RACCORDO
100
AcDbLine
 62
7
  6
CONTINUOUS
 10
129.9327954638
 20
86.766600495
 11
129.9141301943
 21
86.7630180921
  0
LINE
  5
2FF
100
AcDbEntity
  8
RACCORDO
100
AcDbLine
 62
7
  6
CONTINUOUS
 10
134.8490007143
 20
86.7647635986
 11
134.837890625
 21
86.7630180921
  0
LINE
  5
300
100
AcDbEntity
  8
DRAFT
100
AcDbLine
 62
7
  6
CONTINUOUS
 10
138.5134062201
 20
86.7630180921
 11
135.8758149733
 21
86.7630180921
  0
LINE
  5
301
100
AcDbEntity
  8
DRAFT
100
AcDbLine
 62
7
  6
CONTINUOUS
 10
129.9141301943
 20
86.7630180921
 11
127.1623750299
 21
86.7630180921
  0
LINE
  5
302
100
AcDbEntity
  8
RACCORDO
100
AcDbLine
 62
7
  6
CONTINUOUS
 10
131.2840442418
 20
86.7647635986
 11
134.3917370082
 21
86.7647635986
  0
LINE
  5
303
100
AcDbEntity
  8
RACCORDO
100
AcDbLine
 62
250
  6
CONTINUOUS
 10
127.1428184401
 20
86.766600495
 11
129.9327954638
 21
86.766600495
  0
LINE
  5
304
100
AcDbEntity
  8
RACCORDO
100
AcDbLine
 62
250
  6
CONTINUOUS
 10
135.8741444714
 20
86.766600495
 11
138.5329628099
 21
86.766600495
  0
LINE
  5
305
100
AcDbEntity
  8
RACCORDO
100
AcDbLine
 62
250
  6
CONTINUOUS
 10
126.8990247623
 20
87.0665548035
 11
130.1068212257
 21
87.0665548035
  0
LINE
  5
306
100
AcDbEntity
  8
RACCORDO
100
AcDbLine
 62
250
  6
CONTINUOUS
 10
135.7342734803
 20
87.0665548035
 11
138.7767564877
 21
87.0665548035
  0
LINE
  5
307
100
AcDbEntity
  8
RACCORDO
100
AcDbLine
 62
7
  6
CONTINUOUS
 10
130.8267805357
 20
86.7647635986
 11
130.837890625
 21
86.7630180921
  0
LINE
  5
308
100
AcDbEntity
  8
RACCORDO
100
AcDbLine
 62
7
  6
CONTINUOUS
 10
134.8816349568
 20
86.7512968337
 11
134.8466394914
 21
86.7606738404
  0
LWPOLYLINE
  5
309
100
AcDbEntity
  8
RACCORDO
100
AcDbPolyline
 62
7
  6
CONTINUOUS
 90
16
 70
0
 10
139.5414273364
 20
74.4241522294
 10
139.5156907938
 20
74.4583455856
 10
139.4890012104
 20
74.4895711009
 10
139.461614701
 20
74.5178287754
 10
139.4336166849
 20
74.5430256031
 10
139.4056241387
 20
74.5652545901
 10
139.3786855378
 20
74.5847947539
 10
139.3533498607
 20
74.6014604843
 10
139.3297493876
 20
74.6154373917
 10
139.3082281158
 20
74.6275613249
 10
139.2890678354
 20
74.637930095
 10
139.2727082252
 20
74.646445891
 10
139.2596078779
 20
74.6536511286
 10
139.2499778935
 20
74.6597266131
 10
139.2439008108
 20
74.6644915393
 10
139.2414730279
 20
74.6679459072
  0
LINE
  5
30A
100
AcDbEntity
  8
RACCORDO
100
AcDbLine
 62
7
  6
CONTINUOUS
 10
129.9141301943
 20
86.7630180921
 11
130.6072800661
 21
85.5624472968
  0
LINE
  5
30B
100
AcDbEntity
  8
RACCORDO
100
AcDbLine
 62
250
  6
CONTINUOUS
 10
130.6187030997
 20
85.5822325714
 11
129.9342752426
 21
86.7676963941
  0
LINE
  5
30C
100
AcDbEntity
  8
RACCORDO
100
AcDbLine
 62
250
  6
CONTINUOUS
 10
130.8775220744
 20
85.7316617761
 11
130.1068212257
 21
87.0665548035
  0
LINE
  5
30D
100
AcDbEntity
  8
DRAFT
100
AcDbLine
 62
7
  6
CONTINUOUS
 10
131.1301774713
 20
86.1692737603
 11
130.7941462932
 21
86.7512968337
  0
LINE
  5
30E
100
AcDbEntity
  8
DRAFT
100
AcDbLine
 62
7
  6
CONTINUOUS
 10
131.1554332731
 20
86.2130180921
 11
130.837890625
 21
86.7630180921
  0
LINE
  5
30F
100
AcDbEntity
  8
RACCORDO
100
AcDbLine
 62
7
  6
CONTINUOUS
 10
126.4343082221
 20
74.6679459072
 11
126.437890625
 21
74.687502497
  0
LWPOLYLINE
  5
310
100
AcDbEntity
  8
RACCORDO
100
AcDbPolyline
 62
250
  6
CONTINUOUS
 90
3
 70
0
 10
127.9786625547
 20
82.2616926691
 10
128.0003695355
 20
82.3748286289
 10
128.0110254991
 20
82.4283556014
  0
LINE
  5
311
100
AcDbEntity
  8
RACCORDO
100
AcDbLine
 62
250
  6
CONTINUOUS
 10
128.0110254991
 20
82.4283556014
 11
128.0318075565
 21
82.5294852713
  0
LINE
  5
312
100
AcDbEntity
  8
RACCORDO
100
AcDbLine
 62
250
  6
CONTINUOUS
 10
128.0318075565
 20
82.5294852713
 11
128.0521516183
 21
82.6247281382
  0
LINE
  5
313
100
AcDbEntity
  8
RACCORDO
100
AcDbLine
 62
250
  6
CONTINUOUS
 10
128.0521516183
 20
82.6247281382
 11
128.0722404433
 21
82.7157215293
  0
LINE
  5
314
100
AcDbEntity
  8
RACCORDO
100
AcDbLine
 62
250
  6
CONTINUOUS
 10
128.0722404433
 20
82.7157215293
 11
128.0927301004
 21
82.8055924436
  0
LINE
  5
315
100
AcDbEntity
  8
RACCORDO
100
AcDbLine
 62
250
  6
CONTINUOUS
 10
128.0927301004
 20
82.8055924436
 11
128.1143486769
 21
82.8977942704
  0
LINE
  5
316
100
AcDbEntity
  8
RACCORDO
100
AcDbLine
 62
250
  6
CONTINUOUS
 10
128.1143486769
 20
82.8977942704
 11
128.1375782203
 21
82.9940411077
  0
LINE
  5
317
100
AcDbEntity
  8
RACCORDO
100
AcDbLine
 62
7
  6
CONTINUOUS
 10
131.2840442418
 20
87.8560360661
 11
134.3917370082
 21
87.8560360661
  0
LINE
  5
318
100
AcDbEntity
  8
RACCORDO
100
AcDbLine
 62
7
  6
CONTINUOUS
 10
125.9248594519
 20
87.8630180921
 11
130.7941462932
 21
87.8630180921
  0
LINE
  5
319
100
AcDbEntity
  8
0
100
AcDbLine
 62
7
  6
CONTINUOUS
 10
130.7941462932
 20
87.8630180921
 11
134.8816349568
 21
87.8630180921
  0
LINE
  5
31A
100
AcDbEntity
  8
RACCORDO
100
AcDbLine
 62
7
  6
CONTINUOUS
 10
134.8816349568
 20
87.8630180921
 11
139.7509217981
 21
87.8630180921
  0
LINE
  5
31B
100
AcDbEntity
  8
RACCORDO
100
AcDbLine
 62
250
  6
CONTINUOUS
 10
134.8439435645
 20
85.5388548631
 11
134.6141652333
 21
85.7316617761
  0
LINE
  5
31C
100
AcDbEntity
  8
RACCORDO
100
AcDbLine
 62
250
  6
CONTINUOUS
 10
128.1412409206
 20
100.2170602699
 11
128.1183905062
 21
100.3113159018
  0
LINE
  5
31D
100
AcDbEntity
  8
RACCORDO
100
AcDbLine
 62
250
  6
CONTINUOUS
 10
128.1183905062
 20
100.3113159018
 11
128.0964488181
 21
100.404385847
  0
LINE
  5
31E
100
AcDbEntity
  8
RACCORDO
100
AcDbLine
 62
250
  6
CONTINUOUS
 10
128.0964488181
 20
100.404385847
 11
128.0749704987
 21
100.4981744961
  0
LINE
  5
31F
100
AcDbEntity
  8
RACCORDO
100
AcDbLine
 62
250
  6
CONTINUOUS
 10
128.0749704987
 20
100.4981744961
 11
128.0532239915
 21
100.5963634882
  0
LINE
  5
320
100
AcDbEntity
  8
RACCORDO
100
AcDbLine
 62
250
  6
CONTINUOUS
 10
128.0532239915
 20
100.5963634882
 11
128.0311061876
 21
100.6998782459
  0
LWPOLYLINE
  5
321
100
AcDbEntity
  8
RACCORDO
100
AcDbPolyline
 62
250
  6
CONTINUOUS
 90
26
 70
0
 10
128.0311061876
 20
100.6998782459
 10
128.0087219026
 20
100.8091526802
 10
127.9974983008
 20
100.8658531656
 10
127.9862885593
 20
100.9239843776
 10
127.9750353852
 20
100.9838317119
 10
127.9637989833
 20
101.0453771388
 10
127.952617475
 20
101.1086390554
 10
127.9414250372
 20
101.1739607041
 10
127.9303026476
 20
101.2413308109
 10
127.919303057
 20
101.3107637016
 10
127.9083524234
 20
101.3826470485
 10
127.89757565
 20
101.4569107289
 10
127.8870311466
 20
101.5336330843
 10
127.8766019877
 20
101.6134357
 10
127.8664624236
 20
101.696366817
 10
127.8567170603
 20
101.7823945429
 10
127.8472320484
 20
101.8720423642
 10
127.8382772762
 20
101.9653629746
 10
127.82999461
 20
102.0623354341
 10
127.8221850416
 20
102.1634142741
 10
127.8152414638
 20
102.2686290177
 10
127.8093740057
 20
102.3780029128
 10
127.8042892484
 20
102.4920458919
 10
127.8002055664
 20
102.610973137
 10
127.7977433963
 20
102.7346512983
 10
127.7973023189
 20
102.8630908187
  0
LINE
  5
322
100
AcDbEntity
  8
RACCORDO
100
AcDbLine
 62
7
  6
CONTINUOUS
 10
126.4343082221
 20
108.558090277
 11
126.437890625
 21
108.5385336872
  0
LINE
  5
323
100
AcDbEntity
  8
RACCORDO
100
AcDbLine
 62
7
  6
CONTINUOUS
 10
130.7941462932
 20
72.8630180921
 11
130.7941462932
 21
73.9747393505
  0
LINE
  5
324
100
AcDbEntity
  8
RACCORDO
100
AcDbLine
 62
7
  6
CONTINUOUS
 10
130.7941462932
 20
86.7512968337
 11
130.7941462932
 21
87.8630180921
  0
LINE
  5
325
100
AcDbEntity
  8
RACCORDO
100
AcDbLine
 62
7
  6
CONTINUOUS
 10
130.7941462932
 20
95.3630180921
 11
130.7941462932
 21
96.4747393505
  0
LINE
  5
326
100
AcDbEntity
  8
RACCORDO
100
AcDbLine
 62
7
  6
CONTINUOUS
 10
130.7941462932
 20
109.2512968337
 11
130.7941462932
 21
110.3630180921
  0
LINE
  5
327
100
AcDbEntity
  8
RACCORDO
100
AcDbLine
 62
250
  6
CONTINUOUS
 10
130.8775220744
 20
85.4328033666
 11
130.8775220744
 21
85.7316617761
  0
LINE
  5
328
100
AcDbEntity
  8
RACCORDO
100
AcDbLine
 62
250
  6
CONTINUOUS
 10
130.8775220744
 20
107.9328033666
 11
130.8775220744
 21
108.2316617761
  0
LINE
  5
329
100
AcDbEntity
  8
RACCORDO
100
AcDbLine
 62
250
  6
CONTINUOUS
 10
131.0616160167
 20
97.7932328176
 11
131.0616160167
 21
97.4943744081
  0
LINE
  5
32A
100
AcDbEntity
  8
RACCORDO
100
AcDbLine
 62
250
  6
CONTINUOUS
 10
131.0616160167
 20
75.2932328176
 11
131.0616160167
 21
74.9943744081
  0
LINE
  5
32B
100
AcDbEntity
  8
RACCORDO
100
AcDbLine
 62
250
  6
CONTINUOUS
 10
131.2840442418
 20
72.8700001181
 11
131.2840442418
 21
73.9612725856
  0
LINE
  5
32C
100
AcDbEntity
  8
RACCORDO
100
AcDbLine
 62
250
  6
CONTINUOUS
 10
131.2840442418
 20
86.7647635986
 11
131.2840442418
 21
87.8560360661
  0
LINE
  5
32D
100
AcDbEntity
  8
RACCORDO
100
AcDbLine
 62
250
  6
CONTINUOUS
 10
131.2840442418
 20
95.3700001181
 11
131.2840442418
 21
96.4612725856
  0
LINE
  5
32E
100
AcDbEntity
  8
RACCORDO
100
AcDbLine
 62
250
  6
CONTINUOUS
 10
131.2840442418
 20
109.2647635986
 11
131.2840442418
 21
110.3560360661
  0
LINE
  5
32F
100
AcDbEntity
  8
RACCORDO
100
AcDbLine
 62
250
  6
CONTINUOUS
 10
128.1375782203
 20
82.9940411077
 11
128.1630031957
 21
83.0963752705
  0
LWPOLYLINE
  5
330
100
AcDbEntity
  8
RACCORDO
100
AcDbPolyline
 62
250
  6
CONTINUOUS
 90
4
 70
0
 10
128.1630031957
 20
83.0963752705
 10
128.1905913891
 20
83.2048393219
 10
128.2053056902
 20
83.2614163326
 10
128.2207350124
 20
83.3195376955
  0
LWPOLYLINE
  5
331
100
AcDbEntity
  8
RACCORDO
100
AcDbPolyline
 62
7
  6
CONTINUOUS
 90
7
 70
0
 10
127.9725804375
 20
82.6217456246
 10
128.0062083682
 20
82.7326510214
 10
128.0429287775
 20
82.8457137637
 10
128.0827416654
 20
82.9609338512
 10
128.125647032
 20
83.0783112841
 10
128.1716448772
 20
83.1978460623
 10
128.2207352011
 20
83.3195381859
  0
LINE
  5
332
100
AcDbEntity
  8
RACCORDO
100
AcDbLine
 62
250
  6
CONTINUOUS
 10
134.7982591756
 20
97.7932328176
 11
134.8098743868
 21
97.8133509535
  0
LINE
  5
333
100
AcDbEntity
  8
DRAFT
100
AcDbLine
 62
7
  6
CONTINUOUS
 10
134.5203479769
 20
97.0130180921
 11
134.5456037787
 21
97.0567624239
  0
LINE
  5
334
100
AcDbEntity
  8
DRAFT
100
AcDbLine
 62
7
  6
CONTINUOUS
 10
138.8117080276
 20
100.6042905596
 11
138.837890625
 21
100.630473157
  0
LINE
  5
335
100
AcDbEntity
  8
RACCORDO
100
AcDbLine
 62
7
  6
CONTINUOUS
 10
139.237890625
 20
100.5868354947
 11
139.2414730279
 21
100.5904178976
  0
LINE
  5
336
100
AcDbEntity
  8
DRAFT
100
AcDbLine
 62
7
  6
CONTINUOUS
 10
138.837890625
 20
82.5955630272
 11
138.8117080276
 21
82.6217456246
  0
LINE
  5
337
100
AcDbEntity
  8
RACCORDO
100
AcDbLine
 62
7
  6
CONTINUOUS
 10
139.237890625
 20
82.6392006895
 11
139.2414730279
 21
82.6356182866
  0
LINE
  5
338
100
AcDbEntity
  8
DRAFT
100
AcDbLine
 62
7
  6
CONTINUOUS
 10
134.5203479769
 20
86.2130180921
 11
134.5456037787
 21
86.1692737603
  0
LWPOLYLINE
  5
339
100
AcDbEntity
  8
RACCORDO
100
AcDbPolyline
 62
7
  6
CONTINUOUS
 90
7
 70
0
 10
128.2207349235
 20
99.9064987198
 10
128.1713806567
 20
100.0289344294
 10
128.1252244663
 20
100.1489153112
 10
128.0822663523
 20
100.2664413651
 10
128.0425063146
 20
100.3815125912
 10
128.0059443533
 20
100.4941289893
 10
127.9725804683
 20
100.6042905596
  0
LINE
  5
33A
100
AcDbEntity
  8
RACCORDO
100
AcDbLine
 62
250
  6
CONTINUOUS
 10
128.2207350124
 20
99.9064984887
 11
128.2060785775
 21
99.9617182567
  0
LINE
  5
33B
100
AcDbEntity
  8
RACCORDO
100
AcDbLine
 62
250
  6
CONTINUOUS
 10
128.2060785775
 20
99.9617182567
 11
128.1786192289
 21
100.0680131949
  0
LWPOLYLINE
  5
33C
100
AcDbEntity
  8
RACCORDO
100
AcDbPolyline
 62
250
  6
CONTINUOUS
 90
3
 70
0
 10
128.1786192289
 20
100.0680131949
 10
128.1532695592
 20
100.1684466376
 10
128.1412409206
 20
100.2170602699
  0
LINE
  5
33D
100
AcDbEntity
  8
DRAFT
100
AcDbLine
 62
7
  6
CONTINUOUS
 10
129.9647479586
 20
96.6593972535
 11
129.9594947524
 21
96.6830075126
  0
LINE
  5
33E
100
AcDbEntity
  8
RACCORDO
100
AcDbLine
 62
7
  6
CONTINUOUS
 10
130.0254091285
 20
86.9254642796
 11
130.0409957314
 21
86.9526504988
  0
LINE
  5
33F
100
AcDbEntity
  8
RACCORDO
100
AcDbLine
 62
7
  6
CONTINUOUS
 10
135.6503721215
 20
96.3005719046
 11
135.6347855186
 21
96.2733856854
  0
LINE
  5
340
100
AcDbEntity
  8
RACCORDO
100
AcDbLine
 62
250
  6
CONTINUOUS
 10
135.0570781503
 20
97.6438036129
 11
135.0685011839
 21
97.6635888874
  0
LINE
  5
341
100
AcDbEntity
  8
RACCORDO
100
AcDbLine
 62
7
  6
CONTINUOUS
 10
129.9964356181
 20
86.8755027688
 11
130.0254091285
 21
86.9254642796
  0
LINE
  5
342
100
AcDbEntity
  8
RACCORDO
100
AcDbLine
 62
7
  6
CONTINUOUS
 10
135.6793456319
 20
96.3505334154
 11
135.6503721215
 21
96.3005719046
  0
LWPOLYLINE
  5
343
100
AcDbEntity
  8
RACCORDO
100
AcDbPolyline
 62
7
  6
CONTINUOUS
 90
3
 70
0
 10
129.9342752426
 20
86.7676963941
 10
129.9718873835
 20
86.8328425332
 10
129.9964356181
 20
86.8755027688
  0
LWPOLYLINE
  5
344
100
AcDbEntity
  8
RACCORDO
100
AcDbPolyline
 62
7
  6
CONTINUOUS
 90
3
 70
0
 10
135.7415060074
 20
96.4583397901
 10
135.7038938665
 20
96.393193651
 10
135.6793456319
 20
96.3505334154
  0
LWPOLYLINE
  5
345
100
AcDbEntity
  8
RACCORDO
100
AcDbPolyline
 62
7
  6
CONTINUOUS
 90
4
 70
0
 10
130.0409957314
 20
86.9526504988
 10
130.0737292692
 20
87.0088471471
 10
130.0903608314
 20
87.0375600257
 10
130.1068212257
 20
87.0665548035
  0
LWPOLYLINE
  5
346
100
AcDbEntity
  8
RACCORDO
100
AcDbPolyline
 62
7
  6
CONTINUOUS
 90
4
 70
0
 10
135.6347855186
 20
96.2733856854
 10
135.6020519808
 20
96.2171890371
 10
135.5854204186
 20
96.1884761585
 10
135.5689600243
 20
96.1594813807
  0
LINE
  5
347
100
AcDbEntity
  8
RACCORDO
100
AcDbLine
 62
7
  6
CONTINUOUS
 10
129.8016367786
 20
96.4594356893
 11
129.7999662767
 21
96.4630180921
  0
LINE
  5
348
100
AcDbEntity
  8
RACCORDO
100
AcDbLine
 62
7
  6
CONTINUOUS
 10
129.8695495663
 20
96.3138333056
 11
129.8025439281
 21
96.4574471417
  0
LINE
  5
349
100
AcDbEntity
  8
RACCORDO
100
AcDbLine
 62
7
  6
CONTINUOUS
 10
129.8825126278
 20
96.2858585491
 11
129.8695495663
 21
96.3138333056
  0
LWPOLYLINE
  5
34A
100
AcDbEntity
  8
RACCORDO
100
AcDbPolyline
 62
7
  6
CONTINUOUS
 90
3
 70
0
 10
129.9415077697
 20
96.1594813807
 10
129.9262091995
 20
96.1928378658
 10
129.8825126278
 20
96.2858585491
  0
LINE
  5
34B
100
AcDbEntity
  8
RACCORDO
100
AcDbLine
 62
7
  6
CONTINUOUS
 10
129.8025439281
 20
96.4574471417
 11
129.8016367786
 21
96.4594356893
  0
LINE
  5
34C
100
AcDbEntity
  8
DRAFT
100
AcDbLine
 62
7
  6
CONTINUOUS
 10
130.4390332732
 20
97.2544992675
 11
130.433997308
 21
97.2756528984
  0
LINE
  5
34D
100
AcDbEntity
  8
RACCORDO
100
AcDbLine
 62
250
  6
CONTINUOUS
 10
130.6187030997
 20
85.5822325714
 11
130.6072800661
 21
85.5624472968
  0
LINE
  5
34E
100
AcDbEntity
  8
DRAFT
100
AcDbLine
 62
7
  6
CONTINUOUS
 10
131.1554332731
 20
86.2130180921
 11
131.1301774713
 21
86.1692737603
  0
LINE
  5
34F
100
AcDbEntity
  8
RACCORDO
100
AcDbLine
 62
250
  6
CONTINUOUS
 10
130.8775220744
 20
85.4328033666
 11
130.8659068632
 21
85.4126852307
  0
LINE
  5
350
100
AcDbEntity
  8
DRAFT
100
AcDbLine
 62
7
  6
CONTINUOUS
 10
131.1554332731
 20
97.0130180921
 11
131.1301774713
 21
97.0567624239
  0
LINE
  5
351
100
AcDbEntity
  8
RACCORDO
100
AcDbLine
 62
7
  6
CONTINUOUS
 10
135.8741444714
 20
86.766600495
 11
135.8758149733
 21
86.7630180921
  0
LINE
  5
352
100
AcDbEntity
  8
RACCORDO
100
AcDbLine
 62
7
  6
CONTINUOUS
 10
135.8062316837
 20
86.9122028786
 11
135.8732373219
 21
86.7685890425
  0
LINE
  5
353
100
AcDbEntity
  8
RACCORDO
100
AcDbLine
 62
7
  6
CONTINUOUS
 10
135.7932686222
 20
86.9401776351
 11
135.8062316837
 21
86.9122028786
  0
LWPOLYLINE
  5
354
100
AcDbEntity
  8
RACCORDO
100
AcDbPolyline
 62
7
  6
CONTINUOUS
 90
3
 70
0
 10
135.7342734803
 20
87.0665548035
 10
135.7495720505
 20
87.0331983185
 10
135.7932686222
 20
86.9401776351
  0
LINE
  5
355
100
AcDbEntity
  8
RACCORDO
100
AcDbLine
 62
7
  6
CONTINUOUS
 10
135.8732373219
 20
86.7685890425
 11
135.8741444714
 21
86.766600495
  0
LWPOLYLINE
  5
356
100
AcDbEntity
  8
RACCORDO
100
AcDbPolyline
 62
7
  6
CONTINUOUS
 90
10
 70
0
 10
137.4550462277
 20
83.3195377207
 10
137.4885534819
 20
83.2371046875
 10
137.5205632994
 20
83.1558901353
 10
137.55107568
 20
83.0758940641
 10
137.5800722163
 20
82.9971075893
 10
137.6075713158
 20
82.9195395956
 10
137.6336282008
 20
82.8432167368
 10
137.6582612788
 20
82.7681478977
 10
137.6814521423
 20
82.6943241937
 10
137.7032007913
 20
82.6217456246
  0
LINE
  5
357
100
AcDbEntity
  8
DRAFT
100
AcDbLine
 62
7
  6
CONTINUOUS
 10
135.2367479768
 20
85.9715369167
 11
135.241783942
 21
85.9503832858
  0
LINE
  5
358
100
AcDbEntity
  8
RACCORDO
100
AcDbLine
 62
250
  6
CONTINUOUS
 10
134.3917370082
 20
110.3560360661
 11
134.3917370082
 21
109.2647635986
  0
LINE
  5
359
100
AcDbEntity
  8
RACCORDO
100
AcDbLine
 62
250
  6
CONTINUOUS
 10
134.3917370082
 20
96.4612725856
 11
134.3917370082
 21
95.3700001181
  0
LINE
  5
35A
100
AcDbEntity
  8
RACCORDO
100
AcDbLine
 62
250
  6
CONTINUOUS
 10
134.3917370082
 20
87.8560360661
 11
134.3917370082
 21
86.7647635986
  0
LINE
  5
35B
100
AcDbEntity
  8
RACCORDO
100
AcDbLine
 62
250
  6
CONTINUOUS
 10
134.3917370082
 20
73.9612725856
 11
134.3917370082
 21
72.8700001181
  0
LINE
  5
35C
100
AcDbEntity
  8
RACCORDO
100
AcDbLine
 62
250
  6
CONTINUOUS
 10
134.6141652333
 20
85.4328033666
 11
134.6141652333
 21
85.7316617761
  0
LINE
  5
35D
100
AcDbEntity
  8
RACCORDO
100
AcDbLine
 62
250
  6
CONTINUOUS
 10
134.6141652333
 20
107.9328033666
 11
134.6141652333
 21
108.2316617761
  0
LINE
  5
35E
100
AcDbEntity
  8
RACCORDO
100
AcDbLine
 62
250
  6
CONTINUOUS
 10
134.7982591756
 20
97.7932328176
 11
134.7982591756
 21
97.4943744081
  0
LINE
  5
35F
100
AcDbEntity
  8
RACCORDO
100
AcDbLine
 62
250
  6
CONTINUOUS
 10
134.7982591756
 20
75.2932328176
 11
134.7982591756
 21
74.9943744081
  0
LINE
  5
360
100
AcDbEntity
  8
RACCORDO
100
AcDbLine
 62
7
  6
CONTINUOUS
 10
134.8816349568
 20
110.3630180921
 11
134.8816349568
 21
109.2512968337
  0
LINE
  5
361
100
AcDbEntity
  8
RACCORDO
100
AcDbLine
 62
7
  6
CONTINUOUS
 10
134.8816349568
 20
87.8630180921
 11
134.8816349568
 21
86.7512968337
  0
LINE
  5
362
100
AcDbEntity
  8
RACCORDO
100
AcDbLine
 62
7
  6
CONTINUOUS
 10
134.8816349568
 20
72.8630180921
 11
134.8816349568
 21
73.9747393505
  0
LINE
  5
363
100
AcDbEntity
  8
RACCORDO
100
AcDbLine
 62
7
  6
CONTINUOUS
 10
134.8816349568
 20
95.3630180921
 11
134.8816349568
 21
96.4747393505
  0
LWPOLYLINE
  5
364
100
AcDbEntity
  8
RACCORDO
100
AcDbPolyline
 62
250
  6
CONTINUOUS
 90
3
 70
0
 10
137.6359749367
 20
100.6586934051
 10
137.6102626412
 20
100.5404229621
 10
137.5963971566
 20
100.4786451437
  0
LWPOLYLINE
  5
365
100
AcDbEntity
  8
RACCORDO
100
AcDbPolyline
 62
250
  6
CONTINUOUS
 90
3
 70
0
 10
137.5963971566
 20
100.4786451437
 10
137.5665026601
 20
100.3496096192
 10
137.550326884
 20
100.2818707643
  0
LWPOLYLINE
  5
366
100
AcDbEntity
  8
RACCORDO
100
AcDbPolyline
 62
250
  6
CONTINUOUS
 90
5
 70
0
 10
137.550326884
 20
100.2818707643
 10
137.5152871693
 20
100.1395512714
 10
137.496393846
 20
100.0644207784
 10
137.4763665367
 20
99.9867317354
 10
137.4550462376
 20
99.9064984887
  0
LWPOLYLINE
  5
367
100
AcDbEntity
  8
RACCORDO
100
AcDbPolyline
 62
7
  6
CONTINUOUS
 90
7
 70
0
 10
137.703200722
 20
100.6042905596
 10
137.6697349778
 20
100.4938431948
 10
137.6331119236
 20
100.3810553684
 10
137.5933315594
 20
100.2659270805
 10
137.5503938852
 20
100.1484583311
 10
137.5042989009
 20
100.0286491201
 10
137.4550466065
 20
99.9064994476
  0
LINE
  5
368
100
AcDbEntity
  8
RACCORDO
100
AcDbLine
 62
7
  6
CONTINUOUS
 10
126.437890625
 20
82.6392006895
 11
126.4343082221
 21
82.6356182866
  0
LINE
  5
369
100
AcDbEntity
  8
DRAFT
100
AcDbLine
 62
7
  6
CONTINUOUS
 10
126.8640732224
 20
82.6217456246
 11
126.837890625
 21
82.5955630272
  0
LINE
  5
36A
100
AcDbEntity
  8
RACCORDO
100
AcDbLine
 62
7
  6
CONTINUOUS
 10
126.437890625
 20
100.5868354947
 11
126.4343082221
 21
100.5904178976
  0
LINE
  5
36B
100
AcDbEntity
  8
DRAFT
100
AcDbLine
 62
7
  6
CONTINUOUS
 10
126.837890625
 20
100.630473157
 11
126.8640732224
 21
100.6042905596
  0
LINE
  5
36C
100
AcDbEntity
  8
RACCORDO
100
AcDbLine
 62
250
  6
CONTINUOUS
 10
137.4550462376
 20
83.3195376955
 11
137.4826989033
 21
83.2141945788
  0
LINE
  5
36D
100
AcDbEntity
  8
RACCORDO
100
AcDbLine
 62
250
  6
CONTINUOUS
 10
137.4826989033
 20
83.2141945788
 11
137.5023432529
 21
83.1376800105
  0
LINE
  5
36E
100
AcDbEntity
  8
RACCORDO
100
AcDbLine
 62
250
  6
CONTINUOUS
 10
137.5023432529
 20
83.1376800105
 11
137.5230526073
 21
83.0554310171
  0
LINE
  5
36F
100
AcDbEntity
  8
RACCORDO
100
AcDbLine
 62
250
  6
CONTINUOUS
 10
137.5230526073
 20
83.0554310171
 11
137.5447909923
 21
82.9670195436
  0
LINE
  5
370
100
AcDbEntity
  8
RACCORDO
100
AcDbLine
 62
250
  6
CONTINUOUS
 10
137.5447909923
 20
82.9670195436
 11
137.5675931651
 21
82.8717702617
  0
LINE
  5
371
100
AcDbEntity
  8
RACCORDO
100
AcDbLine
 62
250
  6
CONTINUOUS
 10
137.5675931651
 20
82.8717702617
 11
137.5915170348
 21
82.7688359471
  0
LINE
  5
372
100
AcDbEntity
  8
DRAFT
100
AcDbLine
 62
7
  6
CONTINUOUS
 10
135.7110332914
 20
86.5666389307
 11
135.7162864976
 21
86.5430286716
  0
LWPOLYLINE
  5
373
100
AcDbEntity
  8
RACCORDO
100
AcDbPolyline
 62
250
  6
CONTINUOUS
 90
51
 70
0
 10
137.5915170348
 20
82.7688359471
 10
137.6164636728
 20
82.6575534439
 10
137.6293480279
 20
82.5983521838
 10
137.6424300468
 20
82.5367664529
 10
137.6558260356
 20
82.4723175356
 10
137.6694264134
 20
82.4050563145
 10
137.6831666504
 20
82.3349408593
 10
137.6971832383
 20
82.261347679
 10
137.7113205272
 20
82.1843383455
 10
137.7254894549
 20
82.1038576703
 10
137.7398525593
 20
82.0190960181
 10
137.7542567905
 20
81.9296859338
 10
137.768481828
 20
81.8359937718
 10
137.7825263647
 20
81.7382844716
 10
137.7962354954
 20
81.6359012962
 10
137.8093055455
 20
81.5294718597
 10
137.8215608148
 20
81.4211392329
 10
137.8328089263
 20
81.311012865
 10
137.8429049499
 20
81.1989139267
 10
137.8518622604
 20
81.0864988346
 10
137.8595232439
 20
80.9741953584
 10
137.8658183347
 20
80.8614952752
 10
137.8709307514
 20
80.7486096197
 10
137.8747974014
 20
80.6353276683
 10
137.8772559029
 20
80.5217917017
 10
137.878390457
 20
80.4087212092
 10
137.8783208333
 20
80.2957995291
 10
137.8769443297
 20
80.183287602
 10
137.874200781
 20
80.0727750568
 10
137.8703696636
 20
79.9644117491
 10
137.8655719292
 20
79.8579895588
 10
137.8596620559
 20
79.7545907246
 10
137.8528837027
 20
79.6544995379
 10
137.8454874367
 20
79.5573785932
 10
137.8373289735
 20
79.4634231551
 10
137.8285668717
 20
79.3727638877
 10
137.8194342964
 20
79.2852335403
 10
137.8098227603
 20
79.2006197027
 10
137.7998389974
 20
79.1189335106
 10
137.7896577808
 20
79.0401426655
 10
137.7792071612
 20
78.963994655
 10
137.7685702042
 20
78.8904844816
 10
137.7578717609
 20
78.8196071354
 10
137.7470588416
 20
78.7511248458
 10
137.7362150656
 20
78.6851428451
 10
137.7254178877
 20
78.6215534735
 10
137.7145659872
 20
78.559807108
 10
137.7037363043
 20
78.5001164736
 10
137.6929628084
 20
78.4422690137
 10
137.6820240425
 20
78.3850772245
 10
137.6709298791
 20
78.3286128875
  0
LINE
  5
374
100
AcDbEntity
  8
DRAFT
100
AcDbLine
 62
7
  6
CONTINUOUS
 10
137.863627761
 20
106.0729156355
 11
137.867503718
 21
106.134560868
  0
LINE
  5
375
100
AcDbEntity
  8
RACCORDO
100
AcDbLine
 62
7
  6
CONTINUOUS
 10
139.2414730279
 20
108.558090277
 11
139.237890625
 21
108.5385336872
  0
LWPOLYLINE
  5
376
100
AcDbEntity
  8
RACCORDO
100
AcDbPolyline
 62
250
  6
CONTINUOUS
 90
3
 70
0
 10
137.6709298791
 20
100.8286128875
 10
137.648083016
 20
100.716222812
 10
137.6359749367
 20
100.6586934051
  0
LINE
  5
377
100
AcDbEntity
  8
DRAFT
100
AcDbLine
 62
7
  6
CONTINUOUS
 10
134.837890625
 20
86.7630180921
 11
134.5203479769
 21
86.2130180921
  0
LINE
  5
378
100
AcDbEntity
  8
DRAFT
100
AcDbLine
 62
7
  6
CONTINUOUS
 10
134.8816349568
 20
86.7512968337
 11
134.5456037787
 21
86.1692737603
  0
LINE
  5
379
100
AcDbEntity
  8
RACCORDO
100
AcDbLine
 62
250
  6
CONTINUOUS
 10
130.6187030997
 20
85.5822325714
 11
130.8775220744
 21
85.7316617761
  0
LINE
  5
37A
100
AcDbEntity
  8
RACCORDO
100
AcDbLine
 62
7
  6
CONTINUOUS
 10
134.8816349568
 20
96.4747393505
 11
134.8466394914
 21
96.4653623438
  0
LINE
  5
37B
100
AcDbEntity
  8
RACCORDO
100
AcDbLine
 62
7
  6
CONTINUOUS
 10
135.7429857862
 20
96.4594356893
 11
135.7616510557
 21
96.4630180921
  0
LINE
  5
37C
100
AcDbEntity
  8
RACCORDO
100
AcDbLine
 62
7
  6
CONTINUOUS
 10
139.7509217981
 20
95.3630180921
 11
134.8816349568
 21
95.3630180921
  0
LINE
  5
37D
100
AcDbEntity
  8
0
100
AcDbLine
 62
7
  6
CONTINUOUS
 10
134.8816349568
 20
95.3630180921
 11
130.7941462932
 21
95.3630180921
  0
LINE
  5
37E
100
AcDbEntity
  8
RACCORDO
100
AcDbLine
 62
7
  6
CONTINUOUS
 10
130.7941462932
 20
95.3630180921
 11
125.9248594519
 21
95.3630180921
  0
LINE
  5
37F
100
AcDbEntity
  8
RACCORDO
100
AcDbLine
 62
7
  6
CONTINUOUS
 10
131.2840442418
 20
95.3700001181
 11
134.3917370082
 21
95.3700001181
  0
LINE
  5
380
100
AcDbEntity
  8
RACCORDO
100
AcDbLine
 62
7
  6
CONTINUOUS
 10
130.7941462932
 20
96.4747393505
 11
130.8291417586
 21
96.4653623438
  0
LINE
  5
381
100
AcDbEntity
  8
RACCORDO
100
AcDbLine
 62
250
  6
CONTINUOUS
 10
130.8318376855
 20
97.6871813211
 11
131.0616160167
 21
97.4943744081
  0
LINE
  5
382
100
AcDbEntity
  8
DRAFT
100
AcDbLine
 62
7
  6
CONTINUOUS
 10
134.5203479769
 20
97.0130180921
 11
134.837890625
 21
96.4630180921
  0
LINE
  5
383
100
AcDbEntity
  8
DRAFT
100
AcDbLine
 62
7
  6
CONTINUOUS
 10
134.5456037787
 20
97.0567624239
 11
134.8816349568
 21
96.4747393505
  0
LINE
  5
384
100
AcDbEntity
  8
RACCORDO
100
AcDbLine
 62
7
  6
CONTINUOUS
 10
139.2414730279
 20
74.6679459072
 11
139.237890625
 21
74.687502497
  0
LINE
  5
385
100
AcDbEntity
  8
RACCORDO
100
AcDbLine
 62
250
  6
CONTINUOUS
 10
137.9517741822
 20
78.2393711693
 11
137.9525619966
 21
78.1116240104
  0
LINE
  5
386
100
AcDbEntity
  8
RACCORDO
100
AcDbLine
 62
250
  6
CONTINUOUS
 10
137.9517741822
 20
100.7393711693
 11
137.9525619966
 21
100.6116240104
  0
LINE
  5
387
100
AcDbEntity
  8
RACCORDO
100
AcDbLine
 62
250
  6
CONTINUOUS
 10
137.9369981147
 20
80.0220751862
 11
137.9517741822
 21
78.2393711693
  0
LINE
  5
388
100
AcDbEntity
  8
RACCORDO
100
AcDbLine
 62
250
  6
CONTINUOUS
 10
137.9369981147
 20
102.5220751862
 11
137.9517741822
 21
100.7393711693
  0
LINE
  5
389
100
AcDbEntity
  8
RACCORDO
100
AcDbLine
 62
250
  6
CONTINUOUS
 10
137.9361608995
 20
80.3300432522
 11
137.9369981147
 21
80.0220751862
  0
LINE
  5
38A
100
AcDbEntity
  8
RACCORDO
100
AcDbLine
 62
250
  6
CONTINUOUS
 10
137.9361608995
 20
102.8300432522
 11
137.9369981147
 21
102.5220751862
  0
LINE
  5
38B
100
AcDbEntity
  8
RACCORDO
100
AcDbLine
 62
250
  6
CONTINUOUS
 10
138.0237168657
 20
105.0788455789
 11
138.0237168657
 21
100.6471906053
  0
LINE
  5
38C
100
AcDbEntity
  8
RACCORDO
100
AcDbLine
 62
250
  6
CONTINUOUS
 10
138.0237168657
 20
82.5788455789
 11
138.0237168657
 21
78.1471906053
  0
LINE
  5
38D
100
AcDbEntity
  8
RACCORDO
100
AcDbLine
 62
250
  6
CONTINUOUS
 10
137.936743995
 20
103.1436607151
 11
137.9361608995
 21
102.8300432522
  0
LINE
  5
38E
100
AcDbEntity
  8
RACCORDO
100
AcDbLine
 62
250
  6
CONTINUOUS
 10
137.936743995
 20
80.6436607151
 11
137.9361608995
 21
80.3300432522
  0
LINE
  5
38F
100
AcDbEntity
  8
RACCORDO
100
AcDbLine
 62
250
  6
CONTINUOUS
 10
137.9403154293
 20
103.6709647368
 11
137.936743995
 21
103.1436607151
  0
LINE
  5
390
100
AcDbEntity
  8
RACCORDO
100
AcDbLine
 62
250
  6
CONTINUOUS
 10
137.9403154293
 20
81.1709647368
 11
137.936743995
 21
80.6436607151
  0
LINE
  5
391
100
AcDbEntity
  8
RACCORDO
100
AcDbLine
 62
250
  6
CONTINUOUS
 10
137.9525619966
 20
105.1144121739
 11
137.9403154293
 21
103.6709647368
  0
LINE
  5
392
100
AcDbEntity
  8
RACCORDO
100
AcDbLine
 62
250
  6
CONTINUOUS
 10
137.9525619966
 20
82.6144121739
 11
137.9403154293
 21
81.1709647368
  0
LINE
  5
393
100
AcDbEntity
  8
DRAFT
100
AcDbLine
 62
7
  6
CONTINUOUS
 10
137.863627761
 20
83.5729156355
 11
137.867503718
 21
83.634560868
  0
LINE
  5
394
100
AcDbEntity
  8
RACCORDO
100
AcDbLine
 62
250
  6
CONTINUOUS
 10
134.6141652333
 20
85.4328033666
 11
134.6017767343
 21
85.4113942317
  0
LINE
  5
395
100
AcDbEntity
  8
RACCORDO
100
AcDbLine
 62
250
  6
CONTINUOUS
 10
134.8439435645
 20
85.5388548631
 11
134.833553355
 21
85.520899064
  0
LWPOLYLINE
  5
396
100
AcDbEntity
  8
RACCORDO
100
AcDbPolyline
 62
7
  6
CONTINUOUS
 90
16
 70
0
 10
126.4343082221
 20
74.6679459072
 10
126.4318489466
 20
74.6644483778
 10
126.4257056489
 20
74.6596510024
 10
126.4160021996
 20
74.6535537811
 10
126.4028462438
 20
74.6463222924
 10
126.3864745002
 20
74.6377909577
 10
126.3673731048
 20
74.6274630416
 10
126.3460624213
 20
74.6154959118
 10
126.3227893222
 20
74.6017322006
 10
126.297694421
 20
74.5852030693
 10
126.2707431057
 20
74.5656546295
 10
126.2425739369
 20
74.5433407697
 10
126.2144025788
 20
74.5180543171
 10
126.1869163283
 20
74.489726214
 10
126.1601470434
 20
74.4584255181
 10
126.1343539136
 20
74.4241522294
  0
LINE
  5
397
100
AcDbEntity
  8
RACCORDO
100
AcDbLine
 62
250
  6
CONTINUOUS
 10
135.7342734803
 20
87.0665548035
 11
134.6141652333
 21
85.7316617761
  0
LINE
  5
398
100
AcDbEntity
  8
RACCORDO
100
AcDbLine
 62
250
  6
CONTINUOUS
 10
135.8741444714
 20
86.766600495
 11
134.8439435645
 21
85.5388548631
  0
LINE
  5
399
100
AcDbEntity
  8
DRAFT
100
AcDbLine
 62
7
  6
CONTINUOUS
 10
127.2274327146
 20
76.4562774652
 11
127.812153489
 21
77.1531205487
  0
LINE
  5
39A
100
AcDbEntity
  8
RACCORDO
100
AcDbLine
 62
7
  6
CONTINUOUS
 10
134.833553355
 20
85.520899064
 11
135.126312517
 21
85.8697958472
  0
LINE
  5
39B
100
AcDbEntity
  8
DRAFT
100
AcDbLine
 62
7
  6
CONTINUOUS
 10
135.7110332914
 20
86.5666389307
 11
135.8758149733
 21
86.7630180921
  0
LINE
  5
39C
100
AcDbEntity
  8
DRAFT
100
AcDbLine
 62
7
  6
CONTINUOUS
 10
127.2515964905
 20
76.4552039454
 11
127.7311350113
 21
77.0266957004
  0
LINE
  5
39D
100
AcDbEntity
  8
DRAFT
100
AcDbLine
 62
7
  6
CONTINUOUS
 10
135.2367479768
 20
85.9715369167
 11
135.7162864976
 21
86.5430286716
  0
LINE
  5
39E
100
AcDbEntity
  8
DRAFT
100
AcDbLine
 62
7
  6
CONTINUOUS
 10
127.7528417571
 20
77.0254095323
 11
127.808277532
 21
77.0914753162
  0
LINE
  5
39F
100
AcDbEntity
  8
DRAFT
100
AcDbLine
 62
7
  6
CONTINUOUS
 10
135.1863481671
 20
85.8843175019
 11
135.241783942
 21
85.9503832858
  0
LINE
  5
3A0
100
AcDbEntity
  8
DRAFT
100
AcDbLine
 62
7
  6
CONTINUOUS
 10
127.6849680796
 20
76.9173655729
 11
127.7628608475
 21
77.0101945589
  0
LINE
  5
3A1
100
AcDbEntity
  8
DRAFT
100
AcDbLine
 62
7
  6
CONTINUOUS
 10
135.2585075625
 20
85.9431584603
 11
135.3364003305
 21
86.0359874463
  0
LWPOLYLINE
  5
3A2
100
AcDbEntity
  8
RACCORDO
100
AcDbPolyline
 62
7
  6
CONTINUOUS
 90
7
 70
0
 10
134.833553355
 20
85.520899064
 10
134.827705052
 20
85.5141537182
 10
134.8217497774
 20
85.5076551352
 10
134.8156875311
 20
85.501403315
 10
134.8095183131
 20
85.4953982578
 10
134.8032421235
 20
85.4896399634
 10
134.7968589623
 20
85.4841284319
  0
LINE
  5
3A3
100
AcDbEntity
  8
RACCORDO
100
AcDbLine
 62
7
  6
CONTINUOUS
 10
134.8816349568
 20
86.7717456246
 11
134.8466394914
 21
86.7606738404
  0
LINE
  5
3A4
100
AcDbEntity
  8
RACCORDO
100
AcDbLine
 62
7
  6
CONTINUOUS
 10
130.8267805357
 20
96.4612725856
 11
130.837890625
 21
96.4630180921
  0
LINE
  5
3A5
100
AcDbEntity
  8
RACCORDO
100
AcDbLine
 62
250
  6
CONTINUOUS
 10
138.7767564877
 20
96.1594813807
 11
135.5689600243
 21
96.1594813807
  0
LINE
  5
3A6
100
AcDbEntity
  8
RACCORDO
100
AcDbLine
 62
250
  6
CONTINUOUS
 10
129.9415077697
 20
96.1594813807
 11
126.8990247623
 21
96.1594813807
  0
LINE
  5
3A7
100
AcDbEntity
  8
RACCORDO
100
AcDbLine
 62
250
  6
CONTINUOUS
 10
138.5329628099
 20
96.4594356893
 11
135.7429857862
 21
96.4594356893
  0
LINE
  5
3A8
100
AcDbEntity
  8
RACCORDO
100
AcDbLine
 62
250
  6
CONTINUOUS
 10
129.8016367786
 20
96.4594356893
 11
127.1428184401
 21
96.4594356893
  0
LINE
  5
3A9
100
AcDbEntity
  8
RACCORDO
100
AcDbLine
 62
7
  6
CONTINUOUS
 10
131.2840442418
 20
96.4612725856
 11
134.3917370082
 21
96.4612725856
  0
LINE
  5
3AA
100
AcDbEntity
  8
DRAFT
100
AcDbLine
 62
7
  6
CONTINUOUS
 10
127.1623750299
 20
96.4630180921
 11
129.7999662767
 21
96.4630180921
  0
LINE
  5
3AB
100
AcDbEntity
  8
DRAFT
100
AcDbLine
 62
7
  6
CONTINUOUS
 10
135.7616510557
 20
96.4630180921
 11
138.5134062201
 21
96.4630180921
  0
LINE
  5
3AC
100
AcDbEntity
  8
DRAFT
100
AcDbLine
 62
7
  6
CONTINUOUS
 10
131.1554332731
 20
97.0130180921
 11
134.5203479769
 21
97.0130180921
  0
LINE
  5
3AD
100
AcDbEntity
  8
DRAFT
100
AcDbLine
 62
7
  6
CONTINUOUS
 10
131.1301774713
 20
97.0567624239
 11
134.5456037787
 21
97.0567624239
  0
LINE
  5
3AE
100
AcDbEntity
  8
RACCORDO
100
AcDbLine
 62
7
  6
CONTINUOUS
 10
134.8490007143
 20
96.4612725856
 11
134.837890625
 21
96.4630180921
  0
LINE
  5
3AF
100
AcDbEntity
  8
RACCORDO
100
AcDbLine
 62
7
  6
CONTINUOUS
 10
134.8816349568
 20
96.4542905596
 11
134.8466394914
 21
96.4653623438
  0
LWPOLYLINE
  5
3B0
100
AcDbEntity
  8
RACCORDO
100
AcDbPolyline
 62
7
  6
CONTINUOUS
 90
16
 70
0
 10
126.1343539136
 20
108.8018839548
 10
126.1600904562
 20
108.7676905986
 10
126.1867800396
 20
108.7364650833
 10
126.214166549
 20
108.7082074088
 10
126.2421645651
 20
108.6830105811
 10
126.2701571113
 20
108.6607815942
 10
126.2970957122
 20
108.6412414303
 10
126.3224313893
 20
108.6245756999
 10
126.3460318624
 20
108.6105987925
 10
126.3675531342
 20
108.5984748593
 10
126.3867134146
 20
108.5881060892
 10
126.4030730248
 20
108.5795902933
 10
126.4161733721
 20
108.5723850556
 10
126.4258033565
 20
108.5663095711
 10
126.4318804392
 20
108.5615446449
 10
126.4343082221
 20
108.558090277
  0
LINE
  5
3B1
100
AcDbEntity
  8
RACCORDO
100
AcDbLine
 62
250
  6
CONTINUOUS
 10
134.7982591756
 20
97.4943744081
 11
135.5689600243
 21
96.1594813807
  0
LINE
  5
3B2
100
AcDbEntity
  8
RACCORDO
100
AcDbLine
 62
250
  6
CONTINUOUS
 10
135.0570781503
 20
97.6438036129
 11
135.7415060074
 21
96.4583397901
  0
LINE
  5
3B3
100
AcDbEntity
  8
RACCORDO
100
AcDbLine
 62
7
  6
CONTINUOUS
 10
135.7616510557
 20
96.4630180921
 11
135.0685011839
 21
97.6635888874
  0
LINE
  5
3B4
100
AcDbEntity
  8
RACCORDO
100
AcDbLine
 62
250
  6
CONTINUOUS
 10
138.5356661482
 20
105.0753255524
 11
138.5356661482
 21
100.6507106318
  0
LINE
  5
3B5
100
AcDbEntity
  8
RACCORDO
100
AcDbLine
 62
250
  6
CONTINUOUS
 10
138.5356661482
 20
82.5753255524
 11
138.5356661482
 21
78.1507106318
  0
LINE
  5
3B6
100
AcDbEntity
  8
DRAFT
100
AcDbLine
 62
7
  6
CONTINUOUS
 10
138.8117080276
 20
105.1392006895
 11
138.8117080276
 21
105.1217456246
  0
LINE
  5
3B7
100
AcDbEntity
  8
DRAFT
100
AcDbLine
 62
7
  6
CONTINUOUS
 10
138.8117080276
 20
82.6392006895
 11
138.8117080276
 21
82.6217456246
  0
LINE
  5
3B8
100
AcDbEntity
  8
DRAFT
100
AcDbLine
 62
7
  6
CONTINUOUS
 10
138.8117080276
 20
78.0868354947
 11
138.8117080276
 21
78.1042905596
  0
LINE
  5
3B9
100
AcDbEntity
  8
DRAFT
100
AcDbLine
 62
7
  6
CONTINUOUS
 10
138.8117080276
 20
100.5868354947
 11
138.8117080276
 21
100.6042905596
  0
LINE
  5
3BA
100
AcDbEntity
  8
DRAFT
100
AcDbLine
 62
7
  6
CONTINUOUS
 10
139.237890625
 20
105.0875829262
 11
139.237890625
 21
100.638453258
  0
LINE
  5
3BB
100
AcDbEntity
  8
DRAFT
100
AcDbLine
 62
7
  6
CONTINUOUS
 10
139.237890625
 20
82.5875829262
 11
139.237890625
 21
78.138453258
  0
LINE
  5
3BC
100
AcDbEntity
  8
DRAFT
100
AcDbLine
 62
7
  6
CONTINUOUS
 10
139.237890625
 20
74.687502497
 11
139.237890625
 21
78.0868354947
  0
LINE
  5
3BD
100
AcDbEntity
  8
DRAFT
100
AcDbLine
 62
7
  6
CONTINUOUS
 10
139.237890625
 20
82.6392006895
 11
139.237890625
 21
86.0385336872
  0
LINE
  5
3BE
100
AcDbEntity
  8
DRAFT
100
AcDbLine
 62
7
  6
CONTINUOUS
 10
139.237890625
 20
97.187502497
 11
139.237890625
 21
100.5868354947
  0
LINE
  5
3BF
100
AcDbEntity
  8
DRAFT
100
AcDbLine
 62
7
  6
CONTINUOUS
 10
139.237890625
 20
105.1392006895
 11
139.237890625
 21
108.5385336872
  0
LINE
  5
3C0
100
AcDbEntity
  8
RACCORDO
100
AcDbLine
 62
250
  6
CONTINUOUS
 10
139.2414730279
 20
108.558090277
 11
139.2414730279
 21
105.1356182866
  0
LINE
  5
3C1
100
AcDbEntity
  8
RACCORDO
100
AcDbLine
 62
250
  6
CONTINUOUS
 10
139.2414730279
 20
100.5904178976
 11
139.2414730279
 21
97.1679459072
  0
LINE
  5
3C2
100
AcDbEntity
  8
RACCORDO
100
AcDbLine
 62
250
  6
CONTINUOUS
 10
139.2414730279
 20
86.058090277
 11
139.2414730279
 21
82.6356182866
  0
LINE
  5
3C3
100
AcDbEntity
  8
RACCORDO
100
AcDbLine
 62
250
  6
CONTINUOUS
 10
139.2414730279
 20
78.0904178976
 11
139.2414730279
 21
74.6679459072
  0
LINE
  5
3C4
100
AcDbEntity
  8
RACCORDO
100
AcDbLine
 62
250
  6
CONTINUOUS
 10
139.5414273364
 20
108.8018839548
 11
139.5414273364
 21
105.130473157
  0
LINE
  5
3C5
100
AcDbEntity
  8
RACCORDO
100
AcDbLine
 62
250
  6
CONTINUOUS
 10
139.5414273364
 20
100.5955630272
 11
139.5414273364
 21
96.9241522294
  0
LINE
  5
3C6
100
AcDbEntity
  8
RACCORDO
100
AcDbLine
 62
250
  6
CONTINUOUS
 10
139.5414273364
 20
86.3018839548
 11
139.5414273364
 21
82.630473157
  0
LINE
  5
3C7
100
AcDbEntity
  8
RACCORDO
100
AcDbLine
 62
250
  6
CONTINUOUS
 10
139.5414273364
 20
78.0955630272
 11
139.5414273364
 21
74.4241522294
  0
LINE
  5
3C8
100
AcDbEntity
  8
RACCORDO
100
AcDbLine
 62
7
  6
CONTINUOUS
 10
139.6553456899
 20
105.0304883875
 11
139.6553456899
 21
100.6955477967
  0
LINE
  5
3C9
100
AcDbEntity
  8
RACCORDO
100
AcDbLine
 62
7
  6
CONTINUOUS
 10
139.6553456899
 20
82.5304883875
 11
139.6553456899
 21
78.1955477967
  0
LINE
  5
3CA
100
AcDbEntity
  8
RACCORDO
100
AcDbLine
 62
250
  6
CONTINUOUS
 10
130.8318376855
 20
75.1871813211
 11
130.842227895
 21
75.2051371202
  0
LINE
  5
3CB
100
AcDbEntity
  8
RACCORDO
100
AcDbLine
 62
250
  6
CONTINUOUS
 10
131.0616160167
 20
75.2932328176
 11
131.0740045157
 21
75.3146419525
  0
LWPOLYLINE
  5
3CC
100
AcDbEntity
  8
RACCORDO
100
AcDbPolyline
 62
250
  6
CONTINUOUS
 90
10
 70
0
 10
134.8439435645
 20
85.5388548631
 10
134.8242172892
 20
85.5176228676
 10
134.8025116661
 20
85.498407788
 10
134.7790312303
 20
85.4813906905
 10
134.7539972405
 20
85.4667319295
 10
134.7276455954
 20
85.4545696365
 10
134.7002246105
 20
85.4450184185
 10
134.6719926773
 20
85.4381682779
 10
134.6432158289
 20
85.4340837644
 10
134.6141652333
 20
85.4328033666
  0
LWPOLYLINE
  5
3CD
100
AcDbEntity
  8
RACCORDO
100
AcDbPolyline
 62
7
  6
CONTINUOUS
 90
7
 70
0
 10
134.7965439697
 20
85.4838394317
 10
134.768191804
 20
85.4625938769
 10
134.7376129143
 20
85.4447746576
 10
134.7052306699
 20
85.4306026792
 10
134.6714895725
 20
85.4202471646
 10
134.6368489835
 20
85.4138238998
 10
134.6017767343
 20
85.4113942317
  0
LINE
  5
3CE
100
AcDbEntity
  8
RACCORDO
100
AcDbLine
 62
7
  6
CONTINUOUS
 10
127.6520643843
 20
82.5788455789
 11
127.7232192534
 21
82.6144121738
  0
LINE
  5
3CF
100
AcDbEntity
  8
DRAFT
100
AcDbLine
 62
7
  6
CONTINUOUS
 10
130.549468733
 20
97.356240337
 11
130.4894330829
 21
97.3417186823
  0
LINE
  5
3D0
100
AcDbEntity
  8
RACCORDO
100
AcDbLine
 62
7
  6
CONTINUOUS
 10
127.1428184401
 20
96.4594356893
 11
127.1623750299
 21
96.4630180921
  0
LINE
  5
3D1
100
AcDbEntity
  8
RACCORDO
100
AcDbLine
 62
7
  6
CONTINUOUS
 10
132.4936058532
 20
97.8367525837
 11
131.433363636
 21
97.8186993938
  0
LINE
  5
3D2
100
AcDbEntity
  8
RACCORDO
100
AcDbLine
 62
7
  6
CONTINUOUS
 10
131.433363636
 20
97.8186993938
 11
131.0740045157
 21
97.8146419525
  0
LINE
  5
3D3
100
AcDbEntity
  8
RACCORDO
100
AcDbLine
 62
7
  6
CONTINUOUS
 10
132.6543217514
 20
97.8385667056
 11
132.4936058532
 21
97.8367525837
  0
LINE
  5
3D4
100
AcDbEntity
  8
RACCORDO
100
AcDbLine
 62
7
  6
CONTINUOUS
 10
132.8063694221
 20
97.8393935755
 11
132.6543217514
 21
97.8385667056
  0
LINE
  5
3D5
100
AcDbEntity
  8
RACCORDO
100
AcDbLine
 62
250
  6
CONTINUOUS
 10
131.0616160167
 20
97.4943744081
 11
134.7982591756
 21
97.4943744081
  0
LINE
  5
3D6
100
AcDbEntity
  8
RACCORDO
100
AcDbLine
 62
250
  6
CONTINUOUS
 10
131.0616160167
 20
97.7932328176
 11
134.7982591756
 21
97.7932328176
  0
LINE
  5
3D7
100
AcDbEntity
  8
RACCORDO
100
AcDbLine
 62
7
  6
CONTINUOUS
 10
132.9486143086
 20
97.8390882096
 11
132.8063694221
 21
97.8393935755
  0
LINE
  5
3D8
100
AcDbEntity
  8
RACCORDO
100
AcDbLine
 62
7
  6
CONTINUOUS
 10
134.8098743868
 20
97.8133509535
 11
134.5911039087
 21
97.8147314047
  0
LINE
  5
3D9
100
AcDbEntity
  8
RACCORDO
100
AcDbLine
 62
7
  6
CONTINUOUS
 10
133.0812553029
 20
97.8380301498
 11
132.9486143086
 21
97.8390882096
  0
LINE
  5
3DA
100
AcDbEntity
  8
RACCORDO
100
AcDbLine
 62
7
  6
CONTINUOUS
 10
134.5911039087
 20
97.8147314047
 11
134.3131747248
 21
97.8177449604
  0
LINE
  5
3DB
100
AcDbEntity
  8
RACCORDO
100
AcDbLine
 62
7
  6
CONTINUOUS
 10
133.320246115
 20
97.8346086162
 11
133.0812553029
 21
97.8380301498
  0
LINE
  5
3DC
100
AcDbEntity
  8
RACCORDO
100
AcDbLine
 62
7
  6
CONTINUOUS
 10
134.3131747248
 20
97.8177449604
 11
133.8816302877
 21
97.8244543666
  0
LINE
  5
3DD
100
AcDbEntity
  8
RACCORDO
100
AcDbLine
 62
7
  6
CONTINUOUS
 10
133.8816302877
 20
97.8244543666
 11
133.320246115
 21
97.8346086162
  0
LWPOLYLINE
  5
3DE
100
AcDbEntity
  8
RACCORDO
100
AcDbPolyline
 62
7
  6
CONTINUOUS
 90
7
 70
0
 10
134.8098743868
 20
97.8133509535
 10
134.8286944617
 20
97.8126703922
 10
134.8474953672
 20
97.8108070692
 10
134.8662014108
 20
97.8077582041
 10
134.8847362097
 20
97.8035258621
 10
134.9030230015
 20
97.7981170415
 10
134.9209849652
 20
97.7915437418
  0
LWPOLYLINE
  5
3DF
100
AcDbEntity
  8
RACCORDO
100
AcDbPolyline
 62
250
  6
CONTINUOUS
 90
10
 70
0
 10
134.7982591756
 20
97.7932328176
 10
134.8328978332
 20
97.7910770251
 10
134.8670719793
 20
97.7849423814
 10
134.9003233307
 20
97.774911153
 10
134.9322059791
 20
97.7611178607
 10
134.9622923702
 20
97.7437474755
 10
134.9901790377
 20
97.7230329385
 10
135.0154920144
 20
97.6992520369
 10
135.0378918476
 20
97.6727236778
 10
135.0570781503
 20
97.6438036129
  0
LINE
  5
3E0
100
AcDbEntity
  8
RACCORDO
100
AcDbLine
 62
7
  6
CONTINUOUS
 10
138.5329628099
 20
96.4594356893
 11
138.5134062201
 21
96.4630180921
  0
LINE
  5
3E1
100
AcDbEntity
  8
RACCORDO
100
AcDbLine
 62
7
  6
CONTINUOUS
 10
127.7232192534
 20
100.6116240104
 11
127.6520643843
 21
100.6471906053
  0
LINE
  5
3E2
100
AcDbEntity
  8
RACCORDO
100
AcDbLine
 62
7
  6
CONTINUOUS
 10
129.9141301943
 20
109.2630180921
 11
130.6072800661
 21
108.0624472968
  0
LINE
  5
3E3
100
AcDbEntity
  8
RACCORDO
100
AcDbLine
 62
250
  6
CONTINUOUS
 10
130.6187030997
 20
108.0822325714
 11
129.9342752426
 21
109.2676963941
  0
LINE
  5
3E4
100
AcDbEntity
  8
RACCORDO
100
AcDbLine
 62
250
  6
CONTINUOUS
 10
130.8775220744
 20
108.2316617761
 11
130.1068212257
 21
109.5665548035
  0
LINE
  5
3E5
100
AcDbEntity
  8
DRAFT
100
AcDbLine
 62
7
  6
CONTINUOUS
 10
135.2367479768
 20
108.4715369167
 11
135.241783942
 21
108.4503832858
  0
LINE
  5
3E6
100
AcDbEntity
  8
DRAFT
100
AcDbLine
 62
7
  6
CONTINUOUS
 10
135.7110332914
 20
109.0666389307
 11
135.7162864976
 21
109.0430286716
  0
LINE
  5
3E7
100
AcDbEntity
  8
DRAFT
100
AcDbLine
 62
7
  6
CONTINUOUS
 10
140.337890625
 20
109.7760492652
 11
140.337890625
 21
95.949986919
  0
LINE
  5
3E8
100
AcDbEntity
  8
DRAFT
100
AcDbLine
 62
7
  6
CONTINUOUS
 10
140.337890625
 20
87.2760492652
 11
140.337890625
 21
73.449986919
  0
LINE
  5
3E9
100
AcDbEntity
  8
RACCORDO
100
AcDbLine
 62
7
  6
CONTINUOUS
 10
139.2414730279
 20
86.058090277
 11
139.237890625
 21
86.0385336872
  0
LWPOLYLINE
  5
3EA
100
AcDbEntity
  8
RACCORDO
100
AcDbPolyline
 62
250
  6
CONTINUOUS
 90
3
 70
0
 10
137.6709298791
 20
78.3286128875
 10
137.648083016
 20
78.216222812
 10
137.6359749367
 20
78.1586934051
  0
LWPOLYLINE
  5
3EB
100
AcDbEntity
  8
RACCORDO
100
AcDbPolyline
 62
250
  6
CONTINUOUS
 90
3
 70
0
 10
137.6359749367
 20
78.1586934051
 10
137.6102626412
 20
78.0404229621
 10
137.5963971566
 20
77.9786451437
  0
LWPOLYLINE
  5
3EC
100
AcDbEntity
  8
RACCORDO
100
AcDbPolyline
 62
250
  6
CONTINUOUS
 90
3
 70
0
 10
137.5963971566
 20
77.9786451437
 10
137.5665026601
 20
77.8496096192
 10
137.550326884
 20
77.7818707643
  0
LWPOLYLINE
  5
3ED
100
AcDbEntity
  8
RACCORDO
100
AcDbPolyline
 62
250
  6
CONTINUOUS
 90
5
 70
0
 10
137.550326884
 20
77.7818707643
 10
137.5152871693
 20
77.6395512714
 10
137.496393846
 20
77.5644207784
 10
137.4763665367
 20
77.4867317354
 10
137.4550462376
 20
77.4064984887
  0
LINE
  5
3EE
100
AcDbEntity
  8
DRAFT
100
AcDbLine
 62
7
  6
CONTINUOUS
 10
130.7941462932
 20
73.9747393505
 11
131.1301774713
 21
74.5567624239
  0
LINE
  5
3EF
100
AcDbEntity
  8
DRAFT
100
AcDbLine
 62
7
  6
CONTINUOUS
 10
130.837890625
 20
73.9630180921
 11
131.1554332731
 21
74.5130180921
  0
LWPOLYLINE
  5
3F0
100
AcDbEntity
  8
RACCORDO
100
AcDbPolyline
 62
7
  6
CONTINUOUS
 90
16
 70
0
 10
138.7767564877
 20
87.0665548035
 10
138.7426672156
 20
87.0409171602
 10
138.7115165593
 20
87.0143063484
 10
138.6833045186
 20
86.9869769405
 10
138.6581180126
 20
86.959016885
 10
138.6358701223
 20
86.9310395101
 10
138.6163000906
 20
86.9040854828
 10
138.599592783
 20
86.8786972199
 10
138.5855633341
 20
86.8550263515
 10
138.5733963904
 20
86.8334453439
 10
138.5630021606
 20
86.8142401427
 10
138.554470436
 20
86.7978473255
 10
138.5472552367
 20
86.7847312129
 10
138.5411745692
 20
86.7750990649
 10
138.536410427
 20
86.7690253896
 10
138.5329628099
 20
86.766600495
  0
LWPOLYLINE
  5
3F1
100
AcDbEntity
  8
RACCORDO
100
AcDbPolyline
 62
7
  6
CONTINUOUS
 90
7
 70
0
 10
137.9525619966
 20
100.6116240104
 10
137.9471461561
 20
100.6106207774
 10
137.9358615767
 20
100.6096559567
 10
137.9187082586
 20
100.6087295484
 10
137.8952915391
 20
100.6078299672
 10
137.8660060809
 20
100.6069687983
 10
137.8320358713
 20
100.6061807976
  0
LINE
  5
3F2
100
AcDbEntity
  8
DRAFT
100
AcDbLine
 62
7
  6
CONTINUOUS
 10
127.2274327146
 20
98.9562774652
 11
127.2515964905
 21
98.9552039454
  0
LINE
  5
3F3
100
AcDbEntity
  8
DRAFT
100
AcDbLine
 62
7
  6
CONTINUOUS
 10
127.7311350113
 20
99.5266957004
 11
127.7528417571
 21
99.5254095323
  0
LWPOLYLINE
  5
3F4
100
AcDbEntity
  8
RACCORDO
100
AcDbPolyline
 62
7
  6
CONTINUOUS
 90
16
 70
0
 10
138.5329628099
 20
96.4594356893
 10
138.5364962019
 20
96.4569259686
 10
138.541371359
 20
96.4506449258
 10
138.5475882813
 20
96.4407182848
 10
138.5549917587
 20
96.4272395512
 10
138.5637370012
 20
96.4104619947
 10
138.5742896386
 20
96.3909576804
 10
138.5865425868
 20
96.3692841944
 10
138.60060293
 20
96.3457234984
 10
138.6172575499
 20
96.3205533722
 10
138.6366384577
 20
96.2939280458
 10
138.6586136422
 20
96.2663800915
 10
138.6835739526
 20
96.2387779034
 10
138.7116496718
 20
96.2116560025
 10
138.7427105168
 20
96.1851412162
 10
138.7767564877
 20
96.1594813807
  0
LINE
  5
3F5
100
AcDbEntity
  8
DRAFT
100
AcDbLine
 62
7
  6
CONTINUOUS
 10
131.1301774713
 20
108.6692737603
 11
130.7941462932
 21
109.2512968337
  0
LINE
  5
3F6
100
AcDbEntity
  8
DRAFT
100
AcDbLine
 62
7
  6
CONTINUOUS
 10
131.1554332731
 20
108.7130180921
 11
130.837890625
 21
109.2630180921
  0
LINE
  5
3F7
100
AcDbEntity
  8
RACCORDO
100
AcDbLine
 62
250
  6
CONTINUOUS
 10
137.4550462376
 20
105.8195376955
 11
137.4826989033
 21
105.7141945788
  0
LINE
  5
3F8
100
AcDbEntity
  8
RACCORDO
100
AcDbLine
 62
250
  6
CONTINUOUS
 10
137.4826989033
 20
105.7141945788
 11
137.5023432529
 21
105.6376800105
  0
LINE
  5
3F9
100
AcDbEntity
  8
RACCORDO
100
AcDbLine
 62
250
  6
CONTINUOUS
 10
137.5023432529
 20
105.6376800105
 11
137.5230526073
 21
105.5554310171
  0
LINE
  5
3FA
100
AcDbEntity
  8
RACCORDO
100
AcDbLine
 62
250
  6
CONTINUOUS
 10
137.5230526073
 20
105.5554310171
 11
137.5447909923
 21
105.4670195436
  0
LINE
  5
3FB
100
AcDbEntity
  8
RACCORDO
100
AcDbLine
 62
250
  6
CONTINUOUS
 10
137.5447909923
 20
105.4670195436
 11
137.5675931651
 21
105.3717702617
  0
LINE
  5
3FC
100
AcDbEntity
  8
RACCORDO
100
AcDbLine
 62
250
  6
CONTINUOUS
 10
137.5675931651
 20
105.3717702617
 11
137.5915170348
 21
105.2688359471
  0
LWPOLYLINE
  5
3FD
100
AcDbEntity
  8
RACCORDO
100
AcDbPolyline
 62
250
  6
CONTINUOUS
 90
51
 70
0
 10
137.5915170348
 20
105.2688359471
 10
137.6164636728
 20
105.1575534439
 10
137.6293480279
 20
105.0983521838
 10
137.6424300468
 20
105.0367664529
 10
137.6558260356
 20
104.9723175356
 10
137.6694264134
 20
104.9050563145
 10
137.6831666504
 20
104.8349408593
 10
137.6971832383
 20
104.761347679
 10
137.7113205272
 20
104.6843383455
 10
137.7254894549
 20
104.6038576703
 10
137.7398525593
 20
104.5190960181
 10
137.7542567905
 20
104.4296859338
 10
137.768481828
 20
104.3359937718
 10
137.7825263647
 20
104.2382844716
 10
137.7962354954
 20
104.1359012962
 10
137.8093055455
 20
104.0294718597
 10
137.8215608148
 20
103.9211392329
 10
137.8328089263
 20
103.811012865
 10
137.8429049499
 20
103.6989139267
 10
137.8518622604
 20
103.5864988346
 10
137.8595232439
 20
103.4741953584
 10
137.8658183347
 20
103.3614952752
 10
137.8709307514
 20
103.2486096197
 10
137.8747974014
 20
103.1353276683
 10
137.8772559029
 20
103.0217917017
 10
137.878390457
 20
102.9087212092
 10
137.8783208333
 20
102.7957995291
 10
137.8769443297
 20
102.683287602
 10
137.874200781
 20
102.5727750568
 10
137.8703696636
 20
102.4644117491
 10
137.8655719292
 20
102.3579895588
 10
137.8596620559
 20
102.2545907246
 10
137.8528837027
 20
102.1544995379
 10
137.8454874367
 20
102.0573785932
 10
137.8373289735
 20
101.9634231551
 10
137.8285668717
 20
101.8727638877
 10
137.8194342964
 20
101.7852335403
 10
137.8098227603
 20
101.7006197027
 10
137.7998389974
 20
101.6189335106
 10
137.7896577808
 20
101.5401426655
 10
137.7792071612
 20
101.463994655
 10
137.7685702042
 20
101.3904844816
 10
137.7578717609
 20
101.3196071354
 10
137.7470588416
 20
101.2511248458
 10
137.7362150656
 20
101.1851428451
 10
137.7254178877
 20
101.1215534735
 10
137.7145659872
 20
101.059807108
 10
137.7037363043
 20
101.0001164736
 10
137.6929628084
 20
100.9422690137
 10
137.6820240425
 20
100.8850772245
 10
137.6709298791
 20
100.8286128875
  0
LINE
  5
3FE
100
AcDbEntity
  8
RACCORDO
100
AcDbLine
 62
7
  6
CONTINUOUS
 10
139.2414730279
 20
97.1679459072
 11
139.237890625
 21
97.187502497
  0
LWPOLYLINE
  5
3FF
100
AcDbEntity
  8
RACCORDO
100
AcDbPolyline
 62
7
  6
CONTINUOUS
 90
7
 70
0
 10
137.703200722
 20
78.1042905596
 10
137.6697349778
 20
77.9938431948
 10
137.6331119236
 20
77.8810553684
 10
137.5933315594
 20
77.7659270805
 10
137.5503938852
 20
77.6484583311
 10
137.5042989009
 20
77.5286491201
 10
137.4550466065
 20
77.4064994476
  0
LWPOLYLINE
  5
400
100
AcDbEntity
  8
RACCORDO
100
AcDbPolyline
 62
7
  6
CONTINUOUS
 90
16
 70
0
 10
139.2414730279
 20
86.058090277
 10
139.2439323034
 20
86.0615878064
 10
139.2500756011
 20
86.0663851818
 10
139.2597790504
 20
86.0724824031
 10
139.2729350062
 20
86.0797138919
 10
139.2893067498
 20
86.0882452265
 10
139.3084081452
 20
86.0985731426
 10
139.3297188287
 20
86.1105402724
 10
139.3529919278
 20
86.1243039836
 10
139.378086829
 20
86.1408331149
 10
139.4050381443
 20
86.1603815547
 10
139.4332073131
 20
86.1826954145
 10
139.4613786712
 20
86.2079818671
 10
139.4888649217
 20
86.2363099702
 10
139.5156342066
 20
86.2676106661
 10
139.5414273364
 20
86.3018839548
  0
LINE
  5
401
100
AcDbEntity
  8
DRAFT
100
AcDbLine
 62
7
  6
CONTINUOUS
 10
137.9908131704
 20
83.8086706113
 11
137.9129204025
 21
83.7158416253
  0
LINE
  5
402
100
AcDbEntity
  8
DRAFT
100
AcDbLine
 62
7
  6
CONTINUOUS
 10
130.4172736875
 20
74.7828777239
 11
130.3393809195
 21
74.6900487379
  0
LINE
  5
403
100
AcDbEntity
  8
DRAFT
100
AcDbLine
 62
7
  6
CONTINUOUS
 10
137.9229394929
 20
83.7006266519
 11
137.867503718
 21
83.634560868
  0
LINE
  5
404
100
AcDbEntity
  8
DRAFT
100
AcDbLine
 62
7
  6
CONTINUOUS
 10
130.4894330829
 20
74.8417186823
 11
130.433997308
 21
74.7756528984
  0
LINE
  5
405
100
AcDbEntity
  8
DRAFT
100
AcDbLine
 62
7
  6
CONTINUOUS
 10
138.4241847595
 20
84.2708322388
 11
137.9446462387
 21
83.6993404839
  0
LINE
  5
406
100
AcDbEntity
  8
DRAFT
100
AcDbLine
 62
7
  6
CONTINUOUS
 10
130.4390332732
 20
74.7544992675
 11
129.9594947524
 21
74.1830075126
  0
LINE
  5
407
100
AcDbEntity
  8
DRAFT
100
AcDbLine
 62
7
  6
CONTINUOUS
 10
138.4483485354
 20
84.269758719
 11
137.863627761
 21
83.5729156355
  0
LINE
  5
408
100
AcDbEntity
  8
RACCORDO
100
AcDbLine
 62
7
  6
CONTINUOUS
 10
130.842227895
 20
75.2051371202
 11
130.549468733
 21
74.856240337
  0
LINE
  5
409
100
AcDbEntity
  8
DRAFT
100
AcDbLine
 62
7
  6
CONTINUOUS
 10
129.9647479586
 20
74.1593972535
 11
129.7999662767
 21
73.9630180921
  0
LINE
  5
40A
100
AcDbEntity
  8
RACCORDO
100
AcDbLine
 62
250
  6
CONTINUOUS
 10
129.8016367786
 20
73.9594356893
 11
130.8318376855
 21
75.1871813211
  0
LINE
  5
40B
100
AcDbEntity
  8
RACCORDO
100
AcDbLine
 62
250
  6
CONTINUOUS
 10
129.9415077697
 20
73.6594813807
 11
131.0616160167
 21
74.9943744081
  0
LWPOLYLINE
  5
40C
100
AcDbEntity
  8
RACCORDO
100
AcDbPolyline
 62
7
  6
CONTINUOUS
 90
7
 70
0
 10
130.842227895
 20
75.2051371202
 10
130.848076198
 20
75.2118824661
 10
130.8540314726
 20
75.2183810491
 10
130.8600937189
 20
75.2246328692
 10
130.8662629368
 20
75.2306379264
 10
130.8725391264
 20
75.2363962208
 10
130.8789222876
 20
75.2419077522
  0
LINE
  5
40D
100
AcDbEntity
  8
RACCORDO
100
AcDbLine
 62
7
  6
CONTINUOUS
 10
127.1401151018
 20
100.6507106318
 11
126.437890625
 21
100.638453258
  0
LWPOLYLINE
  5
40E
100
AcDbEntity
  8
RACCORDO
100
AcDbPolyline
 62
7
  6
CONTINUOUS
 90
3
 70
0
 10
137.8320358713
 20
100.6061807976
 10
137.7508305231
 20
100.6048474708
 10
137.703200722
 20
100.6042905596
  0
LINE
  5
40F
100
AcDbEntity
  8
DRAFT
100
AcDbLine
 62
7
  6
CONTINUOUS
 10
138.837890625
 20
100.630473157
 11
139.237890625
 21
100.6323439853
  0
LINE
  5
410
100
AcDbEntity
  8
DRAFT
100
AcDbLine
 62
7
  6
CONTINUOUS
 10
126.8640732224
 20
100.5868354947
 11
126.437890625
 21
100.5868354947
  0
LINE
  5
411
100
AcDbEntity
  8
DRAFT
100
AcDbLine
 62
7
  6
CONTINUOUS
 10
138.8117080276
 20
100.5868354947
 11
139.237890625
 21
100.5868354947
  0
LINE
  5
412
100
AcDbEntity
  8
RACCORDO
100
AcDbLine
 62
7
  6
CONTINUOUS
 10
139.5553609204
 20
100.5955630272
 11
139.5414273364
 21
100.5955630272
  0
LINE
  5
413
100
AcDbEntity
  8
RACCORDO
100
AcDbLine
 62
7
  6
CONTINUOUS
 10
126.1343539136
 20
100.5955630272
 11
126.1204203296
 21
100.5955630272
  0
LINE
  5
414
100
AcDbEntity
  8
RACCORDO
100
AcDbLine
 62
7
  6
CONTINUOUS
 10
126.8640732224
 20
100.6042905596
 11
127.9725804683
 21
100.6042905596
  0
LINE
  5
415
100
AcDbEntity
  8
RACCORDO
100
AcDbLine
 62
7
  6
CONTINUOUS
 10
137.703200722
 20
100.6042905596
 11
138.8117080276
 21
100.6042905596
  0
LINE
  5
416
100
AcDbEntity
  8
DRAFT
100
AcDbLine
 62
7
  6
CONTINUOUS
 10
126.437890625
 20
100.6323439853
 11
126.837890625
 21
100.630473157
  0
LWPOLYLINE
  5
417
100
AcDbEntity
  8
RACCORDO
100
AcDbPolyline
 62
7
  6
CONTINUOUS
 90
9
 70
0
 10
127.9725804683
 20
100.6042905596
 10
127.8820056154
 20
100.6054775511
 10
127.8437453125
 20
100.6061807989
 10
127.809775091
 20
100.6069688002
 10
127.7804896186
 20
100.6078299696
 10
127.7570728983
 20
100.608729551
 10
127.7399195979
 20
100.6096559588
 10
127.7286350496
 20
100.6106207786
 10
127.7232192534
 20
100.6116240104
  0
LINE
  5
418
100
AcDbEntity
  8
RACCORDO
100
AcDbLine
 62
7
  6
CONTINUOUS
 10
139.237890625
 20
100.638453258
 11
138.5356661482
 21
100.6507106318
  0
LWPOLYLINE
  5
419
100
AcDbEntity
  8
RACCORDO
100
AcDbPolyline
 62
7
  6
CONTINUOUS
 90
16
 70
0
 10
139.5414273364
 20
96.9241522294
 10
139.5156907938
 20
96.9583455856
 10
139.4890012104
 20
96.9895711009
 10
139.461614701
 20
97.0178287754
 10
139.4336166849
 20
97.0430256031
 10
139.4056241387
 20
97.0652545901
 10
139.3786855378
 20
97.0847947539
 10
139.3533498607
 20
97.1014604843
 10
139.3297493876
 20
97.1154373917
 10
139.3082281158
 20
97.1275613249
 10
139.2890678354
 20
97.137930095
 10
139.2727082252
 20
97.146445891
 10
139.2596078779
 20
97.1536511286
 10
139.2499778935
 20
97.1597266131
 10
139.2439008108
 20
97.1644915393
 10
139.2414730279
 20
97.1679459072
  0
LINE
  5
41A
100
AcDbEntity
  8
RACCORDO
100
AcDbLine
 62
250
  6
CONTINUOUS
 10
134.7982591756
 20
75.2932328176
 11
134.8098743868
 21
75.3133509535
  0
LINE
  5
41B
100
AcDbEntity
  8
DRAFT
100
AcDbLine
 62
7
  6
CONTINUOUS
 10
134.5203479769
 20
74.5130180921
 11
134.5456037787
 21
74.5567624239
  0
LINE
  5
41C
100
AcDbEntity
  8
RACCORDO
100
AcDbLine
 62
250
  6
CONTINUOUS
 10
135.0570781503
 20
75.1438036129
 11
135.0685011839
 21
75.1635888874
  0
LWPOLYLINE
  5
41D
100
AcDbEntity
  8
RACCORDO
100
AcDbPolyline
 62
250
  6
CONTINUOUS
 90
10
 70
0
 10
130.8318376855
 20
75.1871813211
 10
130.8515639608
 20
75.2084133166
 10
130.8732695839
 20
75.2276283962
 10
130.8967500197
 20
75.2446454937
 10
130.9217840095
 20
75.2593042547
 10
130.9481356546
 20
75.2714665477
 10
130.9755566395
 20
75.2810177657
 10
131.0037885727
 20
75.2878679063
 10
131.0325654211
 20
75.2919524199
 10
131.0616160167
 20
75.2932328176
  0
LWPOLYLINE
  5
41E
100
AcDbEntity
  8
RACCORDO
100
AcDbPolyline
 62
7
  6
CONTINUOUS
 90
16
 70
0
 10
126.8990247623
 20
73.6594813807
 10
126.9331140344
 20
73.685119024
 10
126.9642646907
 20
73.7117298358
 10
126.9924767314
 20
73.7390592437
 10
127.0176632374
 20
73.7670192992
 10
127.0399111277
 20
73.7949966741
 10
127.0594811594
 20
73.8219507014
 10
127.076188467
 20
73.8473389643
 10
127.0902179159
 20
73.8710098327
 10
127.1023848596
 20
73.8925908403
 10
127.1127790894
 20
73.9117960415
 10
127.121310814
 20
73.9281888587
 10
127.1285260133
 20
73.9413049713
 10
127.1346066808
 20
73.9509371193
 10
127.139370823
 20
73.9570107947
 10
127.1428184401
 20
73.9594356893
  0
LINE
  5
41F
100
AcDbEntity
  8
DRAFT
100
AcDbLine
 62
7
  6
CONTINUOUS
 10
134.5203479769
 20
108.7130180921
 11
134.5456037787
 21
108.6692737603
  0
LINE
  5
420
100
AcDbEntity
  8
RACCORDO
100
AcDbLine
 62
7
  6
CONTINUOUS
 10
135.8741444714
 20
109.266600495
 11
135.8758149733
 21
109.2630180921
  0
LINE
  5
421
100
AcDbEntity
  8
RACCORDO
100
AcDbLine
 62
7
  6
CONTINUOUS
 10
135.8062316837
 20
109.4122028786
 11
135.8732373219
 21
109.2685890425
  0
LINE
  5
422
100
AcDbEntity
  8
RACCORDO
100
AcDbLine
 62
7
  6
CONTINUOUS
 10
135.7932686222
 20
109.4401776351
 11
135.8062316837
 21
109.4122028786
  0
LWPOLYLINE
  5
423
100
AcDbEntity
  8
RACCORDO
100
AcDbPolyline
 62
7
  6
CONTINUOUS
 90
3
 70
0
 10
135.7342734803
 20
109.5665548035
 10
135.7495720505
 20
109.5331983185
 10
135.7932686222
 20
109.4401776351
  0
LINE
  5
424
100
AcDbEntity
  8
RACCORDO
100
AcDbLine
 62
7
  6
CONTINUOUS
 10
135.8732373219
 20
109.2685890425
 11
135.8741444714
 21
109.266600495
  0
LWPOLYLINE
  5
425
100
AcDbEntity
  8
RACCORDO
100
AcDbPolyline
 62
7
  6
CONTINUOUS
 90
10
 70
0
 10
137.4550462277
 20
105.8195377207
 10
137.4885534819
 20
105.7371046875
 10
137.5205632994
 20
105.6558901353
 10
137.55107568
 20
105.5758940641
 10
137.5800722163
 20
105.4971075893
 10
137.6075713158
 20
105.4195395956
 10
137.6336282008
 20
105.3432167368
 10
137.6582612788
 20
105.2681478977
 10
137.6814521423
 20
105.1943241937
 10
137.7032007913
 20
105.1217456246
  0
LINE
  5
426
100
AcDbEntity
  8
RACCORDO
100
AcDbLine
 62
7
  6
CONTINUOUS
 10
135.6503721215
 20
73.8005719046
 11
135.6347855186
 21
73.7733856854
  0
LINE
  5
427
100
AcDbEntity
  8
RACCORDO
100
AcDbLine
 62
7
  6
CONTINUOUS
 10
135.6793456319
 20
73.8505334154
 11
135.6503721215
 21
73.8005719046
  0
LWPOLYLINE
  5
428
100
AcDbEntity
  8
RACCORDO
100
AcDbPolyline
 62
7
  6
CONTINUOUS
 90
3
 70
0
 10
135.7415060074
 20
73.9583397901
 10
135.7038938665
 20
73.893193651
 10
135.6793456319
 20
73.8505334154
  0
LWPOLYLINE
  5
429
100
AcDbEntity
  8
RACCORDO
100
AcDbPolyline
 62
7
  6
CONTINUOUS
 90
4
 70
0
 10
135.6347855186
 20
73.7733856854
 10
135.6020519808
 20
73.7171890371
 10
135.5854204186
 20
73.6884761585
 10
135.5689600243
 20
73.6594813807
  0
LWPOLYLINE
  5
42A
100
AcDbEntity
  8
RACCORDO
100
AcDbPolyline
 62
7
  6
CONTINUOUS
 90
7
 70
0
 10
130.8792372803
 20
75.2421967525
 10
130.907589446
 20
75.2634423073
 10
130.9381683357
 20
75.2812615266
 10
130.9705505801
 20
75.295433505
 10
131.0042916775
 20
75.3057890196
 10
131.0389322665
 20
75.3122122844
 10
131.0740045157
 20
75.3146419525
  0
LWPOLYLINE
  5
42B
100
AcDbEntity
  8
RACCORDO
100
AcDbPolyline
 62
7
  6
CONTINUOUS
 90
16
 70
0
 10
127.1428184401
 20
109.266600495
 10
127.1392850481
 20
109.2691102156
 10
127.134409891
 20
109.2753912584
 10
127.1281929687
 20
109.2853178994
 10
127.1207894913
 20
109.298796633
 10
127.1120442488
 20
109.3155741896
 10
127.1014916114
 20
109.3350785038
 10
127.0892386632
 20
109.3567519898
 10
127.07517832
 20
109.3803126858
 10
127.0585237001
 20
109.405482812
 10
127.0391427923
 20
109.4321081385
 10
127.0171676078
 20
109.4596560927
 10
126.9922072974
 20
109.4872582808
 10
126.9641315782
 20
109.5143801817
 10
126.9330707332
 20
109.540894968
 10
126.8990247623
 20
109.5665548035
  0
LINE
  5
42C
100
AcDbEntity
  8
RACCORDO
100
AcDbLine
 62
7
  6
CONTINUOUS
 10
139.237890625
 20
105.0875829262
 11
138.5356661482
 21
105.0753255524
  0
LWPOLYLINE
  5
42D
100
AcDbEntity
  8
RACCORDO
100
AcDbPolyline
 62
7
  6
CONTINUOUS
 90
3
 70
0
 10
127.8437453771
 20
105.1198553866
 10
127.9249506786
 20
105.1211887135
 10
127.9725804375
 20
105.1217456246
  0
LINE
  5
42E
100
AcDbEntity
  8
DRAFT
100
AcDbLine
 62
7
  6
CONTINUOUS
 10
126.437890625
 20
105.093692199
 11
126.837890625
 21
105.0955630272
  0
LINE
  5
42F
100
AcDbEntity
  8
RACCORDO
100
AcDbLine
 62
7
  6
CONTINUOUS
 10
138.8117080276
 20
105.1217456246
 11
137.7032007913
 21
105.1217456246
  0
LINE
  5
430
100
AcDbEntity
  8
RACCORDO
100
AcDbLine
 62
7
  6
CONTINUOUS
 10
127.9725804375
 20
105.1217456246
 11
126.8640732224
 21
105.1217456246
  0
LINE
  5
431
100
AcDbEntity
  8
RACCORDO
100
AcDbLine
 62
7
  6
CONTINUOUS
 10
126.1204203296
 20
105.130473157
 11
126.1343539136
 21
105.130473157
  0
LINE
  5
432
100
AcDbEntity
  8
RACCORDO
100
AcDbLine
 62
7
  6
CONTINUOUS
 10
139.5414273364
 20
105.130473157
 11
139.5553609204
 21
105.130473157
  0
LINE
  5
433
100
AcDbEntity
  8
DRAFT
100
AcDbLine
 62
7
  6
CONTINUOUS
 10
126.8640732224
 20
105.1392006895
 11
126.437890625
 21
105.1392006895
  0
LINE
  5
434
100
AcDbEntity
  8
DRAFT
100
AcDbLine
 62
7
  6
CONTINUOUS
 10
138.8117080276
 20
105.1392006895
 11
139.237890625
 21
105.1392006895
  0
LINE
  5
435
100
AcDbEntity
  8
DRAFT
100
AcDbLine
 62
7
  6
CONTINUOUS
 10
138.837890625
 20
105.0955630272
 11
139.237890625
 21
105.093692199
  0
LWPOLYLINE
  5
436
100
AcDbEntity
  8
RACCORDO
100
AcDbPolyline
 62
7
  6
CONTINUOUS
 90
9
 70
0
 10
137.7032007913
 20
105.1217456246
 10
137.793775617
 20
105.1205586334
 10
137.8320359202
 20
105.1198553856
 10
137.866006158
 20
105.1190673843
 10
137.8952916561
 20
105.1182062148
 10
137.9187083912
 20
105.1173066333
 10
137.9358616892
 20
105.1163802254
 10
137.9471462243
 20
105.1154154056
 10
137.9525619966
 20
105.1144121738
  0
LINE
  5
437
100
AcDbEntity
  8
RACCORDO
100
AcDbLine
 62
7
  6
CONTINUOUS
 10
127.1401151018
 20
105.0753255524
 11
126.437890625
 21
105.0875829262
  0
LINE
  5
438
100
AcDbEntity
  8
DRAFT
100
AcDbLine
 62
7
  6
CONTINUOUS
 10
138.8117080276
 20
78.1042905596
 11
138.837890625
 21
78.130473157
  0
LINE
  5
439
100
AcDbEntity
  8
RACCORDO
100
AcDbLine
 62
7
  6
CONTINUOUS
 10
139.237890625
 20
78.0868354947
 11
139.2414730279
 21
78.0904178976
  0
LINE
  5
43A
100
AcDbEntity
  8
RACCORDO
100
AcDbLine
 62
7
  6
CONTINUOUS
 10
138.0237168657
 20
78.1471906053
 11
137.9525619966
 21
78.1116240104
  0
LWPOLYLINE
  5
43B
100
AcDbEntity
  8
RACCORDO
100
AcDbPolyline
 62
7
  6
CONTINUOUS
 90
7
 70
0
 10
127.7232192534
 20
105.1144121738
 10
127.7286350798
 20
105.115415406
 10
127.7399196505
 20
105.1163802262
 10
127.7570729656
 20
105.1173066343
 10
127.7804896936
 20
105.1182062159
 10
127.809775166
 20
105.1190673854
 10
127.8437453771
 20
105.1198553866
  0
LINE
  5
43C
100
AcDbEntity
  8
DRAFT
100
AcDbLine
 62
7
  6
CONTINUOUS
 10
137.9446462387
 20
106.1993404839
 11
137.9229394929
 21
106.2006266519
  0
LINE
  5
43D
100
AcDbEntity
  8
RACCORDO
100
AcDbLine
 62
7
  6
CONTINUOUS
 10
137.9525619966
 20
105.1144121739
 11
138.0237168657
 21
105.0788455789
  0
LINE
  5
43E
100
AcDbEntity
  8
RACCORDO
100
AcDbLine
 62
250
  6
CONTINUOUS
 10
134.8439435645
 20
108.0388548631
 11
134.6141652333
 21
108.2316617761
  0
LINE
  5
43F
100
AcDbEntity
  8
DRAFT
100
AcDbLine
 62
7
  6
CONTINUOUS
 10
138.837890625
 20
105.0955630272
 11
138.8117080276
 21
105.1217456246
  0
LINE
  5
440
100
AcDbEntity
  8
RACCORDO
100
AcDbLine
 62
7
  6
CONTINUOUS
 10
139.237890625
 20
105.1392006895
 11
139.2414730279
 21
105.1356182866
  0
LINE
  5
441
100
AcDbEntity
  8
RACCORDO
100
AcDbLine
 62
250
  6
CONTINUOUS
 10
135.0570781503
 20
75.1438036129
 11
134.7982591756
 21
74.9943744081
  0
LINE
  5
442
100
AcDbEntity
  8
RACCORDO
100
AcDbLine
 62
7
  6
CONTINUOUS
 10
130.7941462932
 20
73.9542905596
 11
130.8291417586
 21
73.9653623438
  0
LINE
  5
443
100
AcDbEntity
  8
DRAFT
100
AcDbLine
 62
7
  6
CONTINUOUS
 10
135.126312517
 20
108.3697958472
 11
135.1863481671
 21
108.3843175019
  0
LINE
  5
444
100
AcDbEntity
  8
RACCORDO
100
AcDbLine
 62
7
  6
CONTINUOUS
 10
134.1015750332
 20
107.9052494663
 11
133.2327297597
 21
107.8900306759
  0
LINE
  5
445
100
AcDbEntity
  8
RACCORDO
100
AcDbLine
 62
7
  6
CONTINUOUS
 10
134.6017767343
 20
107.9113942317
 11
134.1015750332
 21
107.9052494663
  0
LWPOLYLINE
  5
446
100
AcDbEntity
  8
RACCORDO
100
AcDbPolyline
 62
7
  6
CONTINUOUS
 90
3
 70
0
 10
133.2327297597
 20
107.8900306759
 10
132.9674368429
 20
107.8873244914
 10
132.83806478
 20
107.8866175141
  0
LINE
  5
447
100
AcDbEntity
  8
RACCORDO
100
AcDbLine
 62
250
  6
CONTINUOUS
 10
134.6141652333
 20
107.9328033666
 11
130.8775220744
 21
107.9328033666
  0
LINE
  5
448
100
AcDbEntity
  8
RACCORDO
100
AcDbLine
 62
7
  6
CONTINUOUS
 10
132.70834835
 20
107.8870806548
 11
132.83806478
 21
107.8866175141
  0
LINE
  5
449
100
AcDbEntity
  8
RACCORDO
100
AcDbLine
 62
7
  6
CONTINUOUS
 10
130.8659068632
 20
107.9126852307
 11
131.0871322321
 21
107.9112840606
  0
LINE
  5
44A
100
AcDbEntity
  8
RACCORDO
100
AcDbLine
 62
7
  6
CONTINUOUS
 10
132.5871903455
 20
107.8880913475
 11
132.70834835
 21
107.8870806548
  0
LINE
  5
44B
100
AcDbEntity
  8
RACCORDO
100
AcDbLine
 62
7
  6
CONTINUOUS
 10
131.0871322321
 20
107.9112840606
 11
131.3557911265
 21
107.908379295
  0
LINE
  5
44C
100
AcDbEntity
  8
RACCORDO
100
AcDbLine
 62
7
  6
CONTINUOUS
 10
132.3684539794
 20
107.8912137055
 11
132.5871903455
 21
107.8880913475
  0
LINE
  5
44D
100
AcDbEntity
  8
RACCORDO
100
AcDbLine
 62
7
  6
CONTINUOUS
 10
131.3557911265
 20
107.908379295
 11
131.7727273539
 21
107.9019567385
  0
LINE
  5
44E
100
AcDbEntity
  8
RACCORDO
100
AcDbLine
 62
7
  6
CONTINUOUS
 10
131.7727273539
 20
107.9019567385
 11
132.3684539794
 21
107.8912137055
  0
LWPOLYLINE
  5
44F
100
AcDbEntity
  8
RACCORDO
100
AcDbPolyline
 62
7
  6
CONTINUOUS
 90
7
 70
0
 10
130.8659068632
 20
107.9126852307
 10
130.8470867902
 20
107.9133657919
 10
130.8282858858
 20
107.9152291146
 10
130.8095798426
 20
107.9182779794
 10
130.7910450433
 20
107.9225103213
 10
130.7727582503
 20
107.9279191421
 10
130.7547962848
 20
107.9344924424
  0
LINE
  5
450
100
AcDbEntity
  8
DRAFT
100
AcDbLine
 62
7
  6
CONTINUOUS
 10
138.4483485354
 20
106.769758719
 11
138.4241847595
 21
106.7708322388
  0
LWPOLYLINE
  5
451
100
AcDbEntity
  8
RACCORDO
100
AcDbPolyline
 62
250
  6
CONTINUOUS
 90
10
 70
0
 10
130.8775220744
 20
107.9328033666
 10
130.8428834168
 20
107.9349591591
 10
130.8087092707
 20
107.9410938029
 10
130.7754579193
 20
107.9511250312
 10
130.7435752709
 20
107.9649183235
 10
130.7134888798
 20
107.9822887087
 10
130.6856022123
 20
108.0030032457
 10
130.6602892356
 20
108.0267841474
 10
130.6378894024
 20
108.0533125064
 10
130.6187030997
 20
108.0822325714
  0
LINE
  5
452
100
AcDbEntity
  8
RACCORDO
100
AcDbLine
 62
7
  6
CONTINUOUS
 10
130.7941462932
 20
109.2717456246
 11
130.8291417586
 21
109.2606738404
  0
LINE
  5
453
100
AcDbEntity
  8
RACCORDO
100
AcDbLine
 62
7
  6
CONTINUOUS
 10
130.7941462932
 20
109.2512968337
 11
130.8291417586
 21
109.2606738404
  0
LINE
  5
454
100
AcDbEntity
  8
RACCORDO
100
AcDbLine
 62
7
  6
CONTINUOUS
 10
138.5329628099
 20
109.266600495
 11
138.5134062201
 21
109.2630180921
  0
LINE
  5
455
100
AcDbEntity
  8
RACCORDO
100
AcDbLine
 62
7
  6
CONTINUOUS
 10
134.8490007143
 20
109.2647635986
 11
134.837890625
 21
109.2630180921
  0
LINE
  5
456
100
AcDbEntity
  8
RACCORDO
100
AcDbLine
 62
250
  6
CONTINUOUS
 10
134.6141652333
 20
108.2316617761
 11
130.8775220744
 21
108.2316617761
  0
LINE
  5
457
100
AcDbEntity
  8
DRAFT
100
AcDbLine
 62
7
  6
CONTINUOUS
 10
134.5456037787
 20
108.6692737603
 11
131.1301774713
 21
108.6692737603
  0
LINE
  5
458
100
AcDbEntity
  8
DRAFT
100
AcDbLine
 62
7
  6
CONTINUOUS
 10
134.5203479769
 20
108.7130180921
 11
131.1554332731
 21
108.7130180921
  0
LINE
  5
459
100
AcDbEntity
  8
DRAFT
100
AcDbLine
 62
7
  6
CONTINUOUS
 10
138.5134062201
 20
109.2630180921
 11
135.8758149733
 21
109.2630180921
  0
LINE
  5
45A
100
AcDbEntity
  8
DRAFT
100
AcDbLine
 62
7
  6
CONTINUOUS
 10
129.9141301943
 20
109.2630180921
 11
127.1623750299
 21
109.2630180921
  0
LINE
  5
45B
100
AcDbEntity
  8
RACCORDO
100
AcDbLine
 62
7
  6
CONTINUOUS
 10
131.2840442418
 20
109.2647635986
 11
134.3917370082
 21
109.2647635986
  0
LINE
  5
45C
100
AcDbEntity
  8
RACCORDO
100
AcDbLine
 62
250
  6
CONTINUOUS
 10
127.1428184401
 20
109.266600495
 11
129.9327954638
 21
109.266600495
  0
LINE
  5
45D
100
AcDbEntity
  8
RACCORDO
100
AcDbLine
 62
250
  6
CONTINUOUS
 10
135.8741444714
 20
109.266600495
 11
138.5329628099
 21
109.266600495
  0
LINE
  5
45E
100
AcDbEntity
  8
RACCORDO
100
AcDbLine
 62
7
  6
CONTINUOUS
 10
130.8267805357
 20
109.2647635986
 11
130.837890625
 21
109.2630180921
  0
LINE
  5
45F
100
AcDbEntity
  8
RACCORDO
100
AcDbLine
 62
7
  6
CONTINUOUS
 10
127.1428184401
 20
109.266600495
 11
127.1623750299
 21
109.2630180921
  0
LINE
  5
460
100
AcDbEntity
  8
RACCORDO
100
AcDbLine
 62
7
  6
CONTINUOUS
 10
134.8816349568
 20
109.2512968337
 11
134.8466394914
 21
109.2606738404
  0
LINE
  5
461
100
AcDbEntity
  8
RACCORDO
100
AcDbLine
 62
7
  6
CONTINUOUS
 10
129.9327954638
 20
109.266600495
 11
129.9141301943
 21
109.2630180921
  0
LINE
  5
462
100
AcDbEntity
  8
RACCORDO
100
AcDbLine
 62
250
  6
CONTINUOUS
 10
126.8990247623
 20
109.5665548035
 11
130.1068212257
 21
109.5665548035
  0
LINE
  5
463
100
AcDbEntity
  8
RACCORDO
100
AcDbLine
 62
250
  6
CONTINUOUS
 10
135.7342734803
 20
109.5665548035
 11
138.7767564877
 21
109.5665548035
  0
LINE
  5
464
100
AcDbEntity
  8
RACCORDO
100
AcDbLine
 62
7
  6
CONTINUOUS
 10
131.2840442418
 20
110.3560360661
 11
134.3917370082
 21
110.3560360661
  0
LINE
  5
465
100
AcDbEntity
  8
RACCORDO
100
AcDbLine
 62
7
  6
CONTINUOUS
 10
125.9248594519
 20
110.3630180921
 11
130.7941462932
 21
110.3630180921
  0
LINE
  5
466
100
AcDbEntity
  8
0
100
AcDbLine
 62
7
  6
CONTINUOUS
 10
130.7941462932
 20
110.3630180921
 11
134.8816349568
 21
110.3630180921
  0
LINE
  5
467
100
AcDbEntity
  8
RACCORDO
100
AcDbLine
 62
7
  6
CONTINUOUS
 10
134.8816349568
 20
110.3630180921
 11
139.7509217981
 21
110.3630180921
  0
ARC
  5
468
100
AcDbEntity
  8
0
100
AcDbCircle
 62
7
  6
CONTINUOUS
 10
127.487890625
 20
80.3630180921
 40
0.7637866054
100
AcDbArc
 50
307.4909557677
 51
52.508587449
  0
ARC
  5
469
100
AcDbEntity
  8
0
100
AcDbCircle
 62
250
  6
CONTINUOUS
 10
127.487890625
 20
80.3630180921
 40
0.6838197789
100
AcDbArc
 50
311.744880997
 51
48.254528013
  0
ARC
  5
46A
100
AcDbEntity
  8
DRAFT
100
AcDbCircle
 62
7
  6
CONTINUOUS
 10
126.587890625
 20
86.6130180921
 40
0.5937443318
100
AcDbArc
 50
255.366566899
 51
14.633433101
  0
ARC
  5
46B
100
AcDbEntity
  8
DRAFT
100
AcDbCircle
 62
7
  6
CONTINUOUS
 10
126.587890625
 20
74.1130180921
 40
0.5937443318
100
AcDbArc
 50
345.366566899
 51
104.633433101
  0
ARC
  5
46C
100
AcDbEntity
  8
RACCORDO
100
AcDbCircle
 62
7
  6
CONTINUOUS
 10
126.587890625
 20
86.6130180921
 40
0.55
100
AcDbArc
 50
55.5491942937
 51
214.4508057063
  0
ARC
  5
46D
100
AcDbEntity
  8
RACCORDO
100
AcDbCircle
 62
7
  6
CONTINUOUS
 10
126.587890625
 20
74.1130180921
 40
0.55
100
AcDbArc
 50
145.5491942937
 51
304.4508057063
  0
CIRCLE
  5
46E
100
AcDbEntity
  8
RACCORDO
100
AcDbCircle
 62
250
  6
CONTINUOUS
 10
126.587890625
 20
74.1130180921
 40
0.4944567461
  0
CIRCLE
  5
46F
100
AcDbEntity
  8
RACCORDO
100
AcDbCircle
 62
250
  6
CONTINUOUS
 10
126.587890625
 20
86.6130180921
 40
0.4944567461
  0
CIRCLE
  5
470
100
AcDbEntity
  8
RACCORDO
100
AcDbCircle
 62
250
  6
CONTINUOUS
 10
126.587890625
 20
74.1130180921
 40
0.0959788669
  0
CIRCLE
  5
471
100
AcDbEntity
  8
RACCORDO
100
AcDbCircle
 62
250
  6
CONTINUOUS
 10
126.587890625
 20
86.6130180921
 40
0.0959788669
  0
ARC
  5
472
100
AcDbEntity
  8
0
100
AcDbCircle
 62
7
  6
CONTINUOUS
 10
127.487890625
 20
102.8630180921
 40
0.7637866054
100
AcDbArc
 50
307.4909557677
 51
52.508587449
  0
ARC
  5
473
100
AcDbEntity
  8
0
100
AcDbCircle
 62
250
  6
CONTINUOUS
 10
127.487890625
 20
102.8630180921
 40
0.6838197789
100
AcDbArc
 50
311.744880997
 51
48.254528013
  0
ARC
  5
474
100
AcDbEntity
  8
DRAFT
100
AcDbCircle
 62
7
  6
CONTINUOUS
 10
126.587890625
 20
109.1130180921
 40
0.5937443318
100
AcDbArc
 50
255.366566899
 51
14.633433101
  0
ARC
  5
475
100
AcDbEntity
  8
DRAFT
100
AcDbCircle
 62
7
  6
CONTINUOUS
 10
126.587890625
 20
96.6130180921
 40
0.5937443318
100
AcDbArc
 50
345.366566899
 51
104.633433101
  0
ARC
  5
476
100
AcDbEntity
  8
RACCORDO
100
AcDbCircle
 62
7
  6
CONTINUOUS
 10
126.587890625
 20
109.1130180921
 40
0.55
100
AcDbArc
 50
55.5491942937
 51
214.4508057063
  0
ARC
  5
477
100
AcDbEntity
  8
RACCORDO
100
AcDbCircle
 62
7
  6
CONTINUOUS
 10
126.587890625
 20
96.6130180921
 40
0.55
100
AcDbArc
 50
145.5491942937
 51
304.4508057063
  0
CIRCLE
  5
478
100
AcDbEntity
  8
RACCORDO
100
AcDbCircle
 62
250
  6
CONTINUOUS
 10
126.587890625
 20
96.6130180921
 40
0.4944567461
  0
CIRCLE
  5
479
100
AcDbEntity
  8
RACCORDO
100
AcDbCircle
 62
250
  6
CONTINUOUS
 10
126.587890625
 20
109.1130180921
 40
0.4944567461
  0
CIRCLE
  5
47A
100
AcDbEntity
  8
RACCORDO
100
AcDbCircle
 62
250
  6
CONTINUOUS
 10
126.587890625
 20
96.6130180921
 40
0.0959788669
  0
CIRCLE
  5
47B
100
AcDbEntity
  8
RACCORDO
100
AcDbCircle
 62
250
  6
CONTINUOUS
 10
126.587890625
 20
109.1130180921
 40
0.0959788669
  0
ARC
  5
47C
100
AcDbEntity
  8
0
100
AcDbCircle
 62
7
  6
CONTINUOUS
 10
132.837890625
 20
75.0130180921
 40
0.7637866054
100
AcDbArc
 50
37.5194360128
 51
142.4814996043
  0
ARC
  5
47D
100
AcDbEntity
  8
0
100
AcDbCircle
 62
250
  6
CONTINUOUS
 10
132.837890625
 20
75.0130180921
 40
0.6838197789
100
AcDbArc
 50
41.4253874243
 51
138.5723222068
  0
ARC
  5
47E
100
AcDbEntity
  8
DRAFT
100
AcDbCircle
 62
7
  6
CONTINUOUS
 10
132.837890625
 20
80.3630180921
 40
10.2
100
AcDbArc
 50
42.6679254941
 51
47.3320745059
  0
ARC
  5
47F
100
AcDbEntity
  8
DRAFT
100
AcDbCircle
 62
7
  6
CONTINUOUS
 10
132.837890625
 20
80.3630180921
 40
10.2
100
AcDbArc
 50
312.6679254941
 51
317.3320745059
  0
ARC
  5
480
100
AcDbEntity
  8
DRAFT
100
AcDbCircle
 62
7
  6
CONTINUOUS
 10
132.837890625
 20
80.3630180921
 40
10.2
100
AcDbArc
 50
222.6679254941
 51
227.3320745059
  0
ARC
  5
481
100
AcDbEntity
  8
DRAFT
100
AcDbCircle
 62
7
  6
CONTINUOUS
 10
132.837890625
 20
80.3630180921
 40
10.2
100
AcDbArc
 50
132.6679254941
 51
137.3320745059
  0
ARC
  5
482
100
AcDbEntity
  8
DRAFT
100
AcDbCircle
 62
7
  6
CONTINUOUS
 10
132.837890625
 20
80.3630180921
 40
6.8366556363
100
AcDbArc
 50
34.8507242492
 51
65.1492757508
  0
ARC
  5
483
100
AcDbEntity
  8
DRAFT
100
AcDbCircle
 62
7
  6
CONTINUOUS
 10
132.837890625
 20
80.3630180921
 40
6.8366556363
100
AcDbArc
 50
214.8507242492
 51
245.1492757508
  0
ARC
  5
484
100
AcDbEntity
  8
DRAFT
100
AcDbCircle
 62
7
  6
CONTINUOUS
 10
132.837890625
 20
80.3630180921
 40
6.8174550649
100
AcDbArc
 50
34.9741758825
 51
65.0258241175
  0
ARC
  5
485
100
AcDbEntity
  8
DRAFT
100
AcDbCircle
 62
7
  6
CONTINUOUS
 10
132.837890625
 20
80.3630180921
 40
6.8174550649
100
AcDbArc
 50
214.9741758825
 51
245.0258241175
  0
ARC
  5
486
100
AcDbEntity
  8
0
100
AcDbCircle
 62
7
  6
CONTINUOUS
 10
132.837890625
 20
80.3630180921
 40
6.2
100
AcDbArc
 50
33.398450401
 51
66.601549599
  0
ARC
  5
487
100
AcDbEntity
  8
0
100
AcDbCircle
 62
7
  6
CONTINUOUS
 10
132.837890625
 20
80.3630180921
 40
6.2
100
AcDbArc
 50
213.398450401
 51
246.601549599
  0
ARC
  5
488
100
AcDbEntity
  8
DRAFT
100
AcDbCircle
 62
7
  6
CONTINUOUS
 10
132.837890625
 20
80.3630180921
 40
6.0825449351
100
AcDbArc
 50
246.5492144563
 51
246.720818071
  0
ARC
  5
489
100
AcDbEntity
  8
DRAFT
100
AcDbCircle
 62
7
  6
CONTINUOUS
 10
132.837890625
 20
80.3630180921
 40
6.0825449351
100
AcDbArc
 50
66.5492144563
 51
66.720818071
  0
ARC
  5
48A
100
AcDbEntity
  8
DRAFT
100
AcDbCircle
 62
7
  6
CONTINUOUS
 10
132.837890625
 20
80.3630180921
 40
6.0825449351
100
AcDbArc
 50
213.279181929
 51
213.4507855437
  0
ARC
  5
48B
100
AcDbEntity
  8
DRAFT
100
AcDbCircle
 62
7
  6
CONTINUOUS
 10
132.837890625
 20
80.3630180921
 40
6.0825449351
100
AcDbArc
 50
33.279181929
 51
33.4507855437
  0
ARC
  5
48C
100
AcDbEntity
  8
DRAFT
100
AcDbCircle
 62
7
  6
CONTINUOUS
 10
132.837890625
 20
80.3630180921
 40
6.0
100
AcDbArc
 50
213.0422367
 51
246.9577633
  0
ARC
  5
48D
100
AcDbEntity
  8
DRAFT
100
AcDbCircle
 62
7
  6
CONTINUOUS
 10
132.837890625
 20
80.3630180921
 40
6.0
100
AcDbArc
 50
33.0422367
 51
66.9577633
  0
ARC
  5
48E
100
AcDbEntity
  8
DRAFT
100
AcDbCircle
 62
7
  6
CONTINUOUS
 10
132.837890625
 20
80.3630180921
 40
5.9633443637
100
AcDbArc
 50
32.5660409028
 51
67.4339590972
  0
ARC
  5
48F
100
AcDbEntity
  8
DRAFT
100
AcDbCircle
 62
7
  6
CONTINUOUS
 10
132.837890625
 20
80.3630180921
 40
5.9633443637
100
AcDbArc
 50
212.5660409028
 51
247.4339590972
  0
ARC
  5
490
100
AcDbEntity
  8
RACCORDO
100
AcDbCircle
 62
250
  6
CONTINUOUS
 10
132.837890625
 20
80.3630180921
 40
5.4826210991
100
AcDbArc
 50
32.6327986881
 51
69.066745595
  0
ARC
  5
491
100
AcDbEntity
  8
RACCORDO
100
AcDbCircle
 62
250
  6
CONTINUOUS
 10
132.837890625
 20
80.3630180921
 40
5.4826210991
100
AcDbArc
 50
212.6327958754
 51
249.0667455945
  0
ARC
  5
492
100
AcDbEntity
  8
RACCORDO
100
AcDbCircle
 62
250
  6
CONTINUOUS
 10
132.837890625
 20
80.3630180921
 40
5.4826210991
100
AcDbArc
 50
292.330274368
 51
327.3672121085
  0
ARC
  5
493
100
AcDbEntity
  8
RACCORDO
100
AcDbCircle
 62
250
  6
CONTINUOUS
 10
132.837890625
 20
80.3630180921
 40
5.4826210991
100
AcDbArc
 50
112.330274368
 51
147.3671962104
  0
CIRCLE
  5
494
100
AcDbEntity
  8
RACCORDO
100
AcDbCircle
 62
250
  6
CONTINUOUS
 10
132.837890625
 20
80.3630180921
 40
4.9826972515
  0
CIRCLE
  5
495
100
AcDbEntity
  8
SMUSSO
100
AcDbCircle
 62
7
  6
CONTINUOUS
 10
132.837890625
 20
80.3630180921
 40
4.9249432208
  0
ARC
  5
496
100
AcDbEntity
  8
0
100
AcDbCircle
 62
7
  6
CONTINUOUS
 10
132.837890625
 20
85.7130180921
 40
0.7637866054
100
AcDbArc
 50
217.5171438522
 51
322.4790391231
  0
ARC
  5
497
100
AcDbEntity
  8
0
100
AcDbCircle
 62
250
  6
CONTINUOUS
 10
132.837890625
 20
85.7130180921
 40
0.6838197789
100
AcDbArc
 50
221.4308632179
 51
318.5780738123
  0
ARC
  5
498
100
AcDbEntity
  8
DRAFT
100
AcDbCircle
 62
7
  6
CONTINUOUS
 10
139.087890625
 20
74.1130180921
 40
0.5937443318
100
AcDbArc
 50
75.366566899
 51
194.633433101
  0
ARC
  5
499
100
AcDbEntity
  8
RACCORDO
100
AcDbCircle
 62
7
  6
CONTINUOUS
 10
139.087890625
 20
74.1130180921
 40
0.55
100
AcDbArc
 50
235.5491942937
 51
34.4508057063
  0
CIRCLE
  5
49A
100
AcDbEntity
  8
RACCORDO
100
AcDbCircle
 62
250
  6
CONTINUOUS
 10
139.087890625
 20
74.1130180921
 40
0.4944567461
  0
CIRCLE
  5
49B
100
AcDbEntity
  8
RACCORDO
100
AcDbCircle
 62
250
  6
CONTINUOUS
 10
139.087890625
 20
74.1130180921
 40
0.0959788669
  0
ARC
  5
49C
100
AcDbEntity
  8
0
100
AcDbCircle
 62
7
  6
CONTINUOUS
 10
138.187890625
 20
80.3630180921
 40
0.7637866054
100
AcDbArc
 50
127.4921168571
 51
232.5079750935
  0
ARC
  5
49D
100
AcDbEntity
  8
0
100
AcDbCircle
 62
250
  6
CONTINUOUS
 10
138.187890625
 20
80.3630180921
 40
0.6838197789
100
AcDbArc
 50
131.7458634974
 51
228.254135877
  0
ARC
  5
49E
100
AcDbEntity
  8
DRAFT
100
AcDbCircle
 62
7
  6
CONTINUOUS
 10
139.087890625
 20
86.6130180921
 40
0.5937443318
100
AcDbArc
 50
165.366566899
 51
284.633433101
  0
ARC
  5
49F
100
AcDbEntity
  8
RACCORDO
100
AcDbCircle
 62
7
  6
CONTINUOUS
 10
139.087890625
 20
86.6130180921
 40
0.55
100
AcDbArc
 50
325.5491942937
 51
124.4508057063
  0
CIRCLE
  5
4A0
100
AcDbEntity
  8
RACCORDO
100
AcDbCircle
 62
250
  6
CONTINUOUS
 10
139.087890625
 20
86.6130180921
 40
0.4944567461
  0
CIRCLE
  5
4A1
100
AcDbEntity
  8
RACCORDO
100
AcDbCircle
 62
250
  6
CONTINUOUS
 10
139.087890625
 20
86.6130180921
 40
0.0959788669
  0
ARC
  5
4A2
100
AcDbEntity
  8
0
100
AcDbCircle
 62
7
  6
CONTINUOUS
 10
132.837890625
 20
97.5130180921
 40
0.7637866054
100
AcDbArc
 50
37.5194360128
 51
142.4814996043
  0
ARC
  5
4A3
100
AcDbEntity
  8
0
100
AcDbCircle
 62
250
  6
CONTINUOUS
 10
132.837890625
 20
97.5130180921
 40
0.6838197789
100
AcDbArc
 50
41.4253874243
 51
138.5723222068
  0
ARC
  5
4A4
100
AcDbEntity
  8
DRAFT
100
AcDbCircle
 62
7
  6
CONTINUOUS
 10
132.837890625
 20
102.8630180921
 40
10.2
100
AcDbArc
 50
42.6679254941
 51
47.3320745059
  0
ARC
  5
4A5
100
AcDbEntity
  8
DRAFT
100
AcDbCircle
 62
7
  6
CONTINUOUS
 10
132.837890625
 20
102.8630180921
 40
10.2
100
AcDbArc
 50
312.6679254941
 51
317.3320745059
  0
ARC
  5
4A6
100
AcDbEntity
  8
DRAFT
100
AcDbCircle
 62
7
  6
CONTINUOUS
 10
132.837890625
 20
102.8630180921
 40
10.2
100
AcDbArc
 50
222.6679254941
 51
227.3320745059
  0
ARC
  5
4A7
100
AcDbEntity
  8
DRAFT
100
AcDbCircle
 62
7
  6
CONTINUOUS
 10
132.837890625
 20
102.8630180921
 40
10.2
100
AcDbArc
 50
132.6679254941
 51
137.3320745059
  0
ARC
  5
4A8
100
AcDbEntity
  8
DRAFT
100
AcDbCircle
 62
7
  6
CONTINUOUS
 10
132.837890625
 20
102.8630180921
 40
6.8366556363
100
AcDbArc
 50
34.8507242492
 51
65.1492757508
  0
ARC
  5
4A9
100
AcDbEntity
  8
DRAFT
100
AcDbCircle
 62
7
  6
CONTINUOUS
 10
132.837890625
 20
102.8630180921
 40
6.8366556363
100
AcDbArc
 50
214.8507242492
 51
245.1492757508
  0
ARC
  5
4AA
100
AcDbEntity
  8
DRAFT
100
AcDbCircle
 62
7
  6
CONTINUOUS
 10
132.837890625
 20
102.8630180921
 40
6.8174550649
100
AcDbArc
 50
34.9741758825
 51
65.0258241175
  0
ARC
  5
4AB
100
AcDbEntity
  8
DRAFT
100
AcDbCircle
 62
7
  6
CONTINUOUS
 10
132.837890625
 20
102.8630180921
 40
6.8174550649
100
AcDbArc
 50
214.9741758825
 51
245.0258241175
  0
ARC
  5
4AC
100
AcDbEntity
  8
0
100
AcDbCircle
 62
7
  6
CONTINUOUS
 10
132.837890625
 20
102.8630180921
 40
6.2
100
AcDbArc
 50
33.398450401
 51
66.601549599
  0
ARC
  5
4AD
100
AcDbEntity
  8
0
100
AcDbCircle
 62
7
  6
CONTINUOUS
 10
132.837890625
 20
102.8630180921
 40
6.2
100
AcDbArc
 50
213.398450401
 51
246.601549599
  0
ARC
  5
4AE
100
AcDbEntity
  8
DRAFT
100
AcDbCircle
 62
7
  6
CONTINUOUS
 10
132.837890625
 20
102.8630180921
 40
6.0825449351
100
AcDbArc
 50
246.5492144563
 51
246.720818071
  0
ARC
  5
4AF
100
AcDbEntity
  8
DRAFT
100
AcDbCircle
 62
7
  6
CONTINUOUS
 10
132.837890625
 20
102.8630180921
 40
6.0825449351
100
AcDbArc
 50
66.5492144563
 51
66.720818071
  0
ARC
  5
4B0
100
AcDbEntity
  8
DRAFT
100
AcDbCircle
 62
7
  6
CONTINUOUS
 10
132.837890625
 20
102.8630180921
 40
6.0825449351
100
AcDbArc
 50
213.279181929
 51
213.4507855437
  0
ARC
  5
4B1
100
AcDbEntity
  8
DRAFT
100
AcDbCircle
 62
7
  6
CONTINUOUS
 10
132.837890625
 20
102.8630180921
 40
6.0825449351
100
AcDbArc
 50
33.279181929
 51
33.4507855437
  0
ARC
  5
4B2
100
AcDbEntity
  8
DRAFT
100
AcDbCircle
 62
7
  6
CONTINUOUS
 10
132.837890625
 20
102.8630180921
 40
6.0
100
AcDbArc
 50
213.0422367
 51
246.9577633
  0
ARC
  5
4B3
100
AcDbEntity
  8
DRAFT
100
AcDbCircle
 62
7
  6
CONTINUOUS
 10
132.837890625
 20
102.8630180921
 40
6.0
100
AcDbArc
 50
33.0422367
 51
66.9577633
  0
ARC
  5
4B4
100
AcDbEntity
  8
DRAFT
100
AcDbCircle
 62
7
  6
CONTINUOUS
 10
132.837890625
 20
102.8630180921
 40
5.9633443637
100
AcDbArc
 50
32.5660409028
 51
67.4339590972
  0
ARC
  5
4B5
100
AcDbEntity
  8
DRAFT
100
AcDbCircle
 62
7
  6
CONTINUOUS
 10
132.837890625
 20
102.8630180921
 40
5.9633443637
100
AcDbArc
 50
212.5660409028
 51
247.4339590972
  0
ARC
  5
4B6
100
AcDbEntity
  8
RACCORDO
100
AcDbCircle
 62
250
  6
CONTINUOUS
 10
132.837890625
 20
102.8630180921
 40
5.4826210991
100
AcDbArc
 50
32.6327986881
 51
69.066745595
  0
ARC
  5
4B7
100
AcDbEntity
  8
RACCORDO
100
AcDbCircle
 62
250
  6
CONTINUOUS
 10
132.837890625
 20
102.8630180921
 40
5.4826210991
100
AcDbArc
 50
212.6327958754
 51
249.0667455945
  0
ARC
  5
4B8
100
AcDbEntity
  8
RACCORDO
100
AcDbCircle
 62
250
  6
CONTINUOUS
 10
132.837890625
 20
102.8630180921
 40
5.4826210991
100
AcDbArc
 50
292.330274368
 51
327.3672121085
  0
ARC
  5
4B9
100
AcDbEntity
  8
RACCORDO
100
AcDbCircle
 62
250
  6
CONTINUOUS
 10
132.837890625
 20
102.8630180921
 40
5.4826210991
100
AcDbArc
 50
112.330274368
 51
147.3671962104
  0
CIRCLE
  5
4BA
100
AcDbEntity
  8
RACCORDO
100
AcDbCircle
 62
250
  6
CONTINUOUS
 10
132.837890625
 20
102.8630180921
 40
4.9826972515
  0
CIRCLE
  5
4BB
100
AcDbEntity
  8
SMUSSO
100
AcDbCircle
 62
7
  6
CONTINUOUS
 10
132.837890625
 20
102.8630180921
 40
4.9249432208
  0
ARC
  5
4BC
100
AcDbEntity
  8
0
100
AcDbCircle
 62
7
  6
CONTINUOUS
 10
132.837890625
 20
108.2130180921
 40
0.7637866054
100
AcDbArc
 50
217.5171438522
 51
322.4790391231
  0
ARC
  5
4BD
100
AcDbEntity
  8
0
100
AcDbCircle
 62
250
  6
CONTINUOUS
 10
132.837890625
 20
108.2130180921
 40
0.6838197789
100
AcDbArc
 50
221.4308632179
 51
318.5780738123
  0
ARC
  5
4BE
100
AcDbEntity
  8
DRAFT
100
AcDbCircle
 62
7
  6
CONTINUOUS
 10
139.087890625
 20
96.6130180921
 40
0.5937443318
100
AcDbArc
 50
75.366566899
 51
194.633433101
  0
ARC
  5
4BF
100
AcDbEntity
  8
RACCORDO
100
AcDbCircle
 62
7
  6
CONTINUOUS
 10
139.087890625
 20
96.6130180921
 40
0.55
100
AcDbArc
 50
235.5491942937
 51
34.4508057063
  0
CIRCLE
  5
4C0
100
AcDbEntity
  8
RACCORDO
100
AcDbCircle
 62
250
  6
CONTINUOUS
 10
139.087890625
 20
96.6130180921
 40
0.4944567461
  0
CIRCLE
  5
4C1
100
AcDbEntity
  8
RACCORDO
100
AcDbCircle
 62
250
  6
CONTINUOUS
 10
139.087890625
 20
96.6130180921
 40
0.0959788669
  0
ARC
  5
4C2
100
AcDbEntity
  8
0
100
AcDbCircle
 62
7
  6
CONTINUOUS
 10
138.187890625
 20
102.8630180921
 40
0.7637866054
100
AcDbArc
 50
127.4921168571
 51
232.5079750935
  0
ARC
  5
4C3
100
AcDbEntity
  8
0
100
AcDbCircle
 62
250
  6
CONTINUOUS
 10
138.187890625
 20
102.8630180921
 40
0.6838197789
100
AcDbArc
 50
131.7458634974
 51
228.254135877
  0
ARC
  5
4C4
100
AcDbEntity
  8
DRAFT
100
AcDbCircle
 62
7
  6
CONTINUOUS
 10
139.087890625
 20
109.1130180921
 40
0.5937443318
100
AcDbArc
 50
165.366566899
 51
284.633433101
  0
ARC
  5
4C5
100
AcDbEntity
  8
RACCORDO
100
AcDbCircle
 62
7
  6
CONTINUOUS
 10
139.087890625
 20
109.1130180921
 40
0.55
100
AcDbArc
 50
325.5491942937
 51
124.4508057063
  0
CIRCLE
  5
4C6
100
AcDbEntity
  8
RACCORDO
100
AcDbCircle
 62
250
  6
CONTINUOUS
 10
139.087890625
 20
109.1130180921
 40
0.4944567461
  0
CIRCLE
  5
4C7
100
AcDbEntity
  8
RACCORDO
100
AcDbCircle
 62
250
  6
CONTINUOUS
 10
139.087890625
 20
109.1130180921
 40
0.0959788669
  0
ELLIPSE
  5
4C8
100
AcDbEntity
  8
RACCORDO
100
AcDbEllipse
 62
7
  6
CONTINUOUS
 10
139.5553304571
 20
82.5304579242
 30
0.0
 11
0.0707322189
 21
0.0707322189
 31
0.0
 40
0.9996954599
 41
-0.7852458701
 42
0.7852458701
  0
ELLIPSE
  5
4C9
100
AcDbEntity
  8
RACCORDO
100
AcDbEllipse
 62
7
  6
CONTINUOUS
 10
139.5553304571
 20
78.19557826
 30
0.0
 11
-0.0707322189
 21
0.0707322189
 31
0.0
 40
0.9996954599
 41
-3.9268385237
 42
-2.3563467834
  0
ELLIPSE
  5
4CA
100
AcDbEntity
  8
RACCORDO
100
AcDbEllipse
 62
7
  6
CONTINUOUS
 10
126.1204507929
 20
78.19557826
 30
0.0
 11
0.0707322189
 21
0.0707322189
 31
0.0
 40
0.9996954599
 41
-3.9268385237
 42
-2.3563467834
  0
ELLIPSE
  5
4CB
100
AcDbEntity
  8
RACCORDO
100
AcDbEllipse
 62
7
  6
CONTINUOUS
 10
126.1204507929
 20
82.5304579242
 30
0.0
 11
0.0707322189
 21
-0.0707322189
 31
0.0
 40
0.9996954599
 41
2.3563467834
 42
3.9268385237
  0
ELLIPSE
  5
4CC
100
AcDbEntity
  8
RACCORDO
100
AcDbEllipse
 62
7
  6
CONTINUOUS
 10
134.3917370082
 20
72.8612725856
 30
0.0
 11
0.5
 21
0.0
 31
0.0
 40
0.0174550649
 41
0.2013579208
 42
1.5707963268
  0
ELLIPSE
  5
4CD
100
AcDbEntity
  8
RACCORDO
100
AcDbEllipse
 62
7
  6
CONTINUOUS
 10
131.2840442418
 20
72.8612725856
 30
0.0
 11
0.5
 21
0.0
 31
0.0
 40
0.0174550649
 41
1.5707963268
 42
2.9402347328
  0
ELLIPSE
  5
4CE
100
AcDbEntity
  8
RACCORDO
100
AcDbEllipse
 62
7
  6
CONTINUOUS
 10
131.2840442418
 20
87.8647635986
 30
0.0
 11
0.5
 21
0.0
 31
0.0
 40
0.0174550649
 41
-2.9402347328
 42
-1.5707963268
  0
ELLIPSE
  5
4CF
100
AcDbEntity
  8
RACCORDO
100
AcDbEllipse
 62
7
  6
CONTINUOUS
 10
134.3917370082
 20
87.8647635986
 30
0.0
 11
0.5
 21
-0.0
 31
0.0
 40
0.0174550649
 41
-1.5707963268
 42
-0.2013579208
  0
ELLIPSE
  5
4D0
100
AcDbEntity
  8
RACCORDO
100
AcDbEllipse
 62
7
  6
CONTINUOUS
 10
139.5414273364
 20
82.6357096765
 30
0.0
 11
0.3
 21
-0.0
 31
0.0
 40
0.0174550649
 41
-3.1241393611
 42
-1.5707963268
  0
ELLIPSE
  5
4D1
100
AcDbEntity
  8
RACCORDO
100
AcDbEllipse
 62
7
  6
CONTINUOUS
 10
139.5414273364
 20
78.0903265077
 30
0.0
 11
0.3
 21
0.0
 31
0.0
 40
0.0174550649
 41
1.5707963268
 42
3.1241393611
  0
ELLIPSE
  5
4D2
100
AcDbEntity
  8
RACCORDO
100
AcDbEllipse
 62
7
  6
CONTINUOUS
 10
126.1343539136
 20
78.0903265077
 30
0.0
 11
0.3
 21
-0.0
 31
0.0
 40
0.0174550649
 41
0.0174532925
 42
1.5707963268
  0
ELLIPSE
  5
4D3
100
AcDbEntity
  8
RACCORDO
100
AcDbEllipse
 62
7
  6
CONTINUOUS
 10
126.1343539136
 20
82.6357096765
 30
0.0
 11
0.3
 21
-0.0
 31
0.0
 40
0.0174550649
 41
-1.5707963268
 42
-0.0174532925
  0
ELLIPSE
  5
4D4
100
AcDbEntity
  8
RACCORDO
100
AcDbEllipse
 62
7
  6
CONTINUOUS
 10
135.9166934164
 20
73.6594813807
 30
0.0
 11
-0.1743697976
 21
0.2997100681
 31
0.0
 40
0.0756218638
 41
-0.0265147695
 42
0.0432984006
  0
ELLIPSE
  5
4D5
100
AcDbEntity
  8
RACCORDO
100
AcDbEllipse
 62
7
  6
CONTINUOUS
 10
134.3917370082
 20
73.9525450531
 30
0.0
 11
0.5
 21
0.0
 31
0.0
 40
0.0174550649
 41
0.2013579208
 42
1.5707963268
  0
ELLIPSE
  5
4D6
100
AcDbEntity
  8
RACCORDO
100
AcDbEllipse
 62
7
  6
CONTINUOUS
 10
131.2840442418
 20
73.9525450531
 30
0.0
 11
0.5
 21
0.0
 31
0.0
 40
0.0174550649
 41
1.5707963268
 42
2.9402347328
  0
ELLIPSE
  5
4D7
100
AcDbEntity
  8
RACCORDO
100
AcDbEllipse
 62
7
  6
CONTINUOUS
 10
131.2840442418
 20
86.7734911311
 30
0.0
 11
0.5
 21
0.0
 31
0.0
 40
0.0174550649
 41
-2.9402347328
 42
-1.5707963268
  0
ELLIPSE
  5
4D8
100
AcDbEntity
  8
RACCORDO
100
AcDbEllipse
 62
7
  6
CONTINUOUS
 10
134.3917370082
 20
86.7734911311
 30
0.0
 11
0.5
 21
-0.0
 31
0.0
 40
0.0174550649
 41
-1.5707963268
 42
-0.2013579208
  0
ELLIPSE
  5
4D9
100
AcDbEntity
  8
RACCORDO
100
AcDbEllipse
 62
7
  6
CONTINUOUS
 10
138.3235341139
 20
82.5790283308
 30
0.0
 11
0.3
 21
0.0
 31
0.0
 40
0.0174550649
 41
-3.1066860686
 42
-0.7853981634
  0
ELLIPSE
  5
4DA
100
AcDbEntity
  8
RACCORDO
100
AcDbEllipse
 62
7
  6
CONTINUOUS
 10
127.3522471361
 20
82.5790283308
 30
0.0
 11
0.3
 21
0.0
 31
0.0
 40
0.0174550649
 41
-2.3561944902
 42
-0.034906585
  0
ELLIPSE
  5
4DB
100
AcDbEntity
  8
RACCORDO
100
AcDbEllipse
 62
7
  6
CONTINUOUS
 10
138.3235341139
 20
78.1470078534
 30
0.0
 11
0.3
 21
0.0
 31
0.0
 40
0.0174550649
 41
0.7853981634
 42
3.1066860686
  0
ELLIPSE
  5
4DC
100
AcDbEntity
  8
RACCORDO
100
AcDbEllipse
 62
7
  6
CONTINUOUS
 10
127.3522471361
 20
78.1470078534
 30
0.0
 11
0.3
 21
0.0
 31
0.0
 40
0.0174550649
 41
0.034906585
 42
2.3561944902
  0
ELLIPSE
  5
4DD
100
AcDbEntity
  8
RACCORDO
100
AcDbEllipse
 62
7
  6
CONTINUOUS
 10
130.8674197537
 20
85.7141640434
 30
0.0
 11
0.1507634836
 21
0.2611300135
 31
0.0
 40
0.9949358851
 41
-3.6629958269
 42
-3.0001178017
  0
ELLIPSE
  5
4DE
100
AcDbEntity
  8
RACCORDO
100
AcDbEllipse
 62
7
  6
CONTINUOUS
 10
134.8083614963
 20
75.0118721408
 30
0.0
 11
0.1507634836
 21
0.2611300135
 31
0.0
 40
0.9949358851
 41
-0.5214031734
 42
0.1414748519
  0
ELLIPSE
  5
4DF
100
AcDbEntity
  8
RACCORDO
100
AcDbEllipse
 62
7
  6
CONTINUOUS
 10
129.7590878336
 20
87.0665548035
 30
0.0
 11
-0.1743697976
 21
0.2997100681
 31
0.0
 40
0.0756218638
 41
-3.1681074231
 42
-3.098294253
  0
ELLIPSE
  5
4E0
100
AcDbEntity
  8
RACCORDO
100
AcDbEllipse
 62
7
  6
CONTINUOUS
 10
139.5553304571
 20
105.0304579242
 30
0.0
 11
0.0707322189
 21
0.0707322189
 31
0.0
 40
0.9996954599
 41
-0.7852458701
 42
0.7852458701
  0
ELLIPSE
  5
4E1
100
AcDbEntity
  8
RACCORDO
100
AcDbEllipse
 62
7
  6
CONTINUOUS
 10
139.5553304571
 20
100.69557826
 30
0.0
 11
0.0707322189
 21
-0.0707322189
 31
0.0
 40
0.9996954599
 41
-0.7852458701
 42
0.7852458702
  0
ELLIPSE
  5
4E2
100
AcDbEntity
  8
RACCORDO
100
AcDbEllipse
 62
7
  6
CONTINUOUS
 10
126.1204507929
 20
100.69557826
 30
0.0
 11
0.0707322189
 21
0.0707322189
 31
0.0
 40
0.9996954599
 41
-3.9268385237
 42
-2.3563467834
  0
ELLIPSE
  5
4E3
100
AcDbEntity
  8
RACCORDO
100
AcDbEllipse
 62
7
  6
CONTINUOUS
 10
126.1204507929
 20
105.0304579242
 30
0.0
 11
0.0707322189
 21
-0.0707322189
 31
0.0
 40
0.9996954599
 41
2.3563467834
 42
3.9268385237
  0
ELLIPSE
  5
4E4
100
AcDbEntity
  8
RACCORDO
100
AcDbEllipse
 62
7
  6
CONTINUOUS
 10
134.3917370082
 20
95.3612725856
 30
0.0
 11
0.5
 21
0.0
 31
0.0
 40
0.0174550649
 41
0.2013579208
 42
1.5707963268
  0
ELLIPSE
  5
4E5
100
AcDbEntity
  8
RACCORDO
100
AcDbEllipse
 62
7
  6
CONTINUOUS
 10
131.2840442418
 20
95.3612725856
 30
0.0
 11
0.5
 21
0.0
 31
0.0
 40
0.0174550649
 41
1.5707963268
 42
2.9402347328
  0
ELLIPSE
  5
4E6
100
AcDbEntity
  8
RACCORDO
100
AcDbEllipse
 62
7
  6
CONTINUOUS
 10
131.2840442418
 20
110.3647635986
 30
0.0
 11
0.5
 21
0.0
 31
0.0
 40
0.0174550649
 41
-2.9402347328
 42
-1.5707963268
  0
ELLIPSE
  5
4E7
100
AcDbEntity
  8
RACCORDO
100
AcDbEllipse
 62
7
  6
CONTINUOUS
 10
134.3917370082
 20
110.3647635986
 30
0.0
 11
0.5
 21
-0.0
 31
0.0
 40
0.0174550649
 41
-1.5707963268
 42
-0.2013579208
  0
ELLIPSE
  5
4E8
100
AcDbEntity
  8
RACCORDO
100
AcDbEllipse
 62
7
  6
CONTINUOUS
 10
139.5414273364
 20
105.1357096765
 30
0.0
 11
0.3
 21
-0.0
 31
0.0
 40
0.0174550649
 41
-3.1241393611
 42
-1.5707963268
  0
ELLIPSE
  5
4E9
100
AcDbEntity
  8
RACCORDO
100
AcDbEllipse
 62
7
  6
CONTINUOUS
 10
139.5414273364
 20
100.5903265077
 30
0.0
 11
0.3
 21
0.0
 31
0.0
 40
0.0174550649
 41
1.5707963268
 42
3.1241393611
  0
ELLIPSE
  5
4EA
100
AcDbEntity
  8
RACCORDO
100
AcDbEllipse
 62
7
  6
CONTINUOUS
 10
126.1343539136
 20
100.5903265077
 30
0.0
 11
0.3
 21
0.0
 31
0.0
 40
0.0174550649
 41
0.0174532925
 42
1.5707963268
  0
ELLIPSE
  5
4EB
100
AcDbEntity
  8
RACCORDO
100
AcDbEllipse
 62
7
  6
CONTINUOUS
 10
126.1343539136
 20
105.1357096765
 30
0.0
 11
0.3
 21
-0.0
 31
0.0
 40
0.0174550649
 41
-1.5707963268
 42
-0.0174532925
  0
ELLIPSE
  5
4EC
100
AcDbEntity
  8
RACCORDO
100
AcDbEllipse
 62
7
  6
CONTINUOUS
 10
135.9166934164
 20
96.1594813807
 30
0.0
 11
-0.1743697976
 21
0.2997100681
 31
0.0
 40
0.0756218638
 41
-0.0265147695
 42
0.0432984006
  0
ELLIPSE
  5
4ED
100
AcDbEntity
  8
RACCORDO
100
AcDbEllipse
 62
7
  6
CONTINUOUS
 10
134.3917370082
 20
96.4525450531
 30
0.0
 11
0.5
 21
0.0
 31
0.0
 40
0.0174550649
 41
0.2013579208
 42
1.5707963268
  0
ELLIPSE
  5
4EE
100
AcDbEntity
  8
RACCORDO
100
AcDbEllipse
 62
7
  6
CONTINUOUS
 10
131.2840442418
 20
96.4525450531
 30
0.0
 11
0.5
 21
0.0
 31
0.0
 40
0.0174550649
 41
1.5707963268
 42
2.9402347328
  0
ELLIPSE
  5
4EF
100
AcDbEntity
  8
RACCORDO
100
AcDbEllipse
 62
7
  6
CONTINUOUS
 10
131.2840442418
 20
109.2734911311
 30
0.0
 11
0.5
 21
0.0
 31
0.0
 40
0.0174550649
 41
-2.9402347328
 42
-1.5707963268
  0
ELLIPSE
  5
4F0
100
AcDbEntity
  8
RACCORDO
100
AcDbEllipse
 62
7
  6
CONTINUOUS
 10
134.3917370082
 20
109.2734911311
 30
0.0
 11
0.5
 21
-0.0
 31
0.0
 40
0.0174550649
 41
-1.5707963268
 42
-0.2013579208
  0
ELLIPSE
  5
4F1
100
AcDbEntity
  8
RACCORDO
100
AcDbEllipse
 62
7
  6
CONTINUOUS
 10
138.3235341139
 20
105.0790283308
 30
0.0
 11
0.3
 21
0.0
 31
0.0
 40
0.0174550649
 41
-3.1066860686
 42
-0.7853981634
  0
ELLIPSE
  5
4F2
100
AcDbEntity
  8
RACCORDO
100
AcDbEllipse
 62
7
  6
CONTINUOUS
 10
127.3522471361
 20
105.0790283308
 30
0.0
 11
0.3
 21
0.0
 31
0.0
 40
0.0174550649
 41
-2.3561944902
 42
-0.034906585
  0
ELLIPSE
  5
4F3
100
AcDbEntity
  8
RACCORDO
100
AcDbEllipse
 62
7
  6
CONTINUOUS
 10
138.3235341139
 20
100.6470078534
 30
0.0
 11
0.3
 21
0.0
 31
0.0
 40
0.0174550649
 41
0.7853981634
 42
3.1066860686
  0
ELLIPSE
  5
4F4
100
AcDbEntity
  8
RACCORDO
100
AcDbEllipse
 62
7
  6
CONTINUOUS
 10
127.3522471361
 20
100.6470078534
 30
0.0
 11
0.3
 21
0.0
 31
0.0
 40
0.0174550649
 41
0.034906585
 42
2.3561944902
  0
ELLIPSE
  5
4F5
100
AcDbEntity
  8
RACCORDO
100
AcDbEllipse
 62
7
  6
CONTINUOUS
 10
130.8674197537
 20
108.2141640434
 30
0.0
 11
0.1507634836
 21
0.2611300135
 31
0.0
 40
0.9949358851
 41
-3.6629958269
 42
-3.0001178017
  0
ELLIPSE
  5
4F6
100
AcDbEntity
  8
RACCORDO
100
AcDbEllipse
 62
7
  6
CONTINUOUS
 10
134.8083614963
 20
97.5118721408
 30
0.0
 11
0.1507634836
 21
0.2611300135
 31
0.0
 40
0.9949358851
 41
-0.5214031734
 42
0.1414748519
  0
ELLIPSE
  5
4F7
100
AcDbEntity
  8
RACCORDO
100
AcDbEllipse
 62
7
  6
CONTINUOUS
 10
129.7590878336
 20
109.5665548035
 30
0.0
 11
-0.1743697976
 21
0.2997100681
 31
0.0
 40
0.0756218638
 41
-3.1681074231
 42
-3.098294253
  0
ENDSEC
  0
SECTION
  2
OBJECTS
  0
DICTIONARY
  5
C
100
AcDbDictionary
280
0
281
1
  3
ACAD_GROUP
350
D
  3
ACAD_MLINESTYLE
350
17
  3
ACAD_LAYOUT
350
1A
  3
ACAD_PLOTSETTINGS
350
19
  3
ACAD_PLOTSTYLENAME
350
E
  0
DICTIONARY
  5
D
102
{ACAD_REACTORS
330
C
102
}
100
AcDbDictionary
280
0
281
1
  0
ACDBDICTIONARYWDFLT
  5
E
102
{ACAD_REACTORS
330
C
102
}
100
AcDbDictionary
281
1
  3
Normal
350
F
100
AcDbDictionaryWithDefault
340
F
  0
DICTIONARY
  5
17
102
{ACAD_REACTORS
330
C
102
}
100
AcDbDictionary
280
0
281
1
  3
Standard
350
18
  0
DICTIONARY
  5
19
102
{ACAD_REACTORS
330
C
102
}
100
AcDbDictionary
281
1
  0
DICTIONARY
  5
1A
102
{ACAD_REACTORS
330
C
102
}
100
AcDbDictionary
281
1
  3
Model
350
4F8
  3
Layout1
350
4F9
  0
ACDBPLACEHOLDER
  5
F
102
{ACAD_REACTORS
330
E
102
}
  0
MLINESTYLE
  5
18
102
{ACAD_REACTORS
330
17
102
}
100
AcDbMlineStyle
  2
STANDARD
 70
0
  3

 62
256
 51
90.0
 52
90.0
 71
2
 49
0.5
 62
256
  6
BYLAYER
 49
-0.5
 62
256
  6
BYLAYER
  0
LAYOUT
  5
4F8
102
{ACAD_REACTORS
330
1A
102
}
100
AcDbPlotSettings
  1

  2
none_device
  4
ISO_A4_(297.00_x_210.00_MM)
  6

 40
0.0
 41
0.0
 42
0.0
 43
0.0
 44
297.0
 45
210.0
 46
0.0
 47
0.0
 48
0.0
 49
0.0
140
0.0
141
0.0
142
1.0
143
1.0
 70
1024
 72
1
 73
0
 74
0
  7

 75
0
147
1.0
148
0.0
149
0.0
100
AcDbLayout
  1
Model
 70
0
 71
0
 10
0.0
 20
0.0
 11
297.0
 21
210.0
 12
0.0
 22
0.0
 32
0.0
 14
0.0
 24
0.0
 34
0.0
 15
0.0
 25
0.0
 35
0.0
146
0.0
 13
0.0
 23
0.0
 33
0.0
 16
1.0
 26
0.0
 36
0.0
 17
0.0
 27
1.0
 37
0.0
 76
0
330
215
345
0
346
0
  0
LAYOUT
  5
4F9
102
{ACAD_REACTORS
330
1A
102
}
100
AcDbPlotSettings
  1

  2
none_device
  4
ISO_A4_(297.00_x_210.00_MM)
  6

 40
0.0
 41
0.0
 42
0.0
 43
0.0
 44
297.0
 45
210.0
 46
0.0
 47
0.0
 48
0.0
 49
0.0
140
0.0
141
0.0
142
1.0
143
1.0
 70
0
 72
1
 73
0
 74
0
  7

 75
0
147
1.0
148
0.0
149
0.0
100
AcDbLayout
  1
Layout1
 70
0
 71
1
 10
0.0
 20
0.0
 11
297.0
 21
210.0
 12
0.0
 22
0.0
 32
0.0
 14
0.0
 24
0.0
 34
0.0
 15
0.0
 25
0.0
 35
0.0
146
0.0
 13
0.0
 23
0.0
 33
0.0
 16
1.0
 26
0.0
 36
0.0
 17
0.0
 27
1.0
 37
0.0
 76
0
330
216
345
0
346
0
  0
ENDSEC
  0
EOF
