  0
SECTION
  2
HEADER
  9
$ACADVER
  1
AC1024
  9
$DWGCODEPAGE
  3
ANSI_1252
  9
$EXTMAX
 10
297.0
 20
210.0
 30
0.0
  9
$EXTMIN
 10
0.0
 20
0.0
 30
0.0
  9
$LIMMIN
 10
0.0
 20
0.0
  9
$LIMMAX
 10
297.0
 20
210.0
  9
$VIEWCTR
 10
148.5
 20
105.0
  9
$VIEWSIZE
 40
210.0
  9
$CLAYER
  8
0
  9
$LTSCALE
 40
16.335
  9
$CELTYPE
  6
BYLAYER
  9
$DIMSCALE
 40
1.0
  9
$DIMASZ
 40
3.0
  9
$DIMEXO
 40
0.5
  9
$DIMDLI
 40
11.286
  9
$DIMEXE
 40
1.5
  9
$DIMCEN
 40
2.673
  9
$DIMLFAC
 40
1.0
  9
$DIMBLK
  1
_FILLED
  9
$DIMALT
 70
0
  9
$DIMALTF
 40
0.0393700787
  9
$DIMTXT
 40
3.0
  9
$DIMTOL
 70
1
  9
$DIMLIM
 70
0
  9
$DIMTFAC
 40
1.0
  9
$DIMTP
 40
0.01
  9
$DIMTM
 40
0.01
  9
$DIMGAP
 40
0.625
  9
$DIMDSEP
 70
44
  9
$AUNITS
 70
0
  9
$PDMODE
 70
3
  9
$PDSIZE
 40
3.0
  9
$HANDSEED
  5
759
  9
$TILEMODE
 70
1
  9
$MEASUREMENT
 70
1
  9
$INSUNITS
 70
4
  0
ENDSEC
  0
SECTION
  2
CLASSES
  0
CLASS
  1
ACDBDICTIONARYWDFLT
  2
AcDbDictionaryWithDefault
  3
AutoCAD 2000
 90
0
 91
1
280
0
281
0
  0
CLASS
  1
ACDBPLACEHOLDER
  2
AcDbPlaceHolder
  3
AutoCAD 2000
 90
0
 91
1
280
0
281
0
  0
CLASS
  1
LAYOUT
  2
AcDbLayout
  3
AutoCAD 2000
 90
0
 91
0
280
0
281
0
  0
ENDSEC
  0
SECTION
  2
TABLES
  0
TABLE
  2
VPORT
  5
8
100
AcDbSymbolTable
 70
2
  0
VPORT
  5
1F4
100
AcDbSymbolTableRecord
100
AcDbViewportTableRecord
  2
*ACTIVE
 70
0
 10
0.0
 20
0.0
 11
1.0
 21
1.0
 12
148.5
 22
105.0
 13
0.0
 23
0.0
 14
1.0
 24
1.0
 15
0.0
 25
0.0
 16
0.0
 26
0.0
 36
1.0
 17
0.0
 27
0.0
 37
0.0
 40
210.0
 41
1.4142857143
 42
50.0
 43
0.0
 44
0.0
 50
0.0
 51
0.0
 71
0
 72
100
 73
1
 74
1
 75
0
 76
0
 77
0
 78
0
  0
ENDTAB
  0
TABLE
  2
LTYPE
  5
5
100
AcDbSymbolTable
 70
6
  0
LTYPE
  5
14
100
AcDbSymbolTableRecord
100
AcDbLinetypeTableRecord
  2
BYBLOCK
 70
0
  3

 72
65
 73
0
 40
0.0
  0
LTYPE
  5
15
100
AcDbSymbolTableRecord
100
AcDbLinetypeTableRecord
  2
BYLAYER
 70
0
  3

 72
65
 73
0
 40
0.0
  0
LTYPE
  5
16
100
AcDbSymbolTableRecord
100
AcDbLinetypeTableRecord
  2
CONTINUOUS
 70
64
  3
Solid line
 72
65
 73
0
 40
0.0
  0
LTYPE
  5
1F5
100
AcDbSymbolTableRecord
100
AcDbLinetypeTableRecord
  2
CENTER
 70
64
  3
____ _ ____ _ ____ _ ____ _ ____ _ ____ _ ____
 72
65
 73
4
 40
0.6
 49
0.375
 74
0
 49
-0.075
 74
0
 49
0.075
 74
0
 49
-0.075
 74
0
  0
LTYPE
  5
1F6
100
AcDbSymbolTableRecord
100
AcDbLinetypeTableRecord
  2
HIDDEN
 70
64
  3
- - - - - - - - - - - - - - - - - - - -
 72
65
 73
2
 40
0.2
 49
0.1
 74
0
 49
-0.1
 74
0
  0
LTYPE
  5
1F7
100
AcDbSymbolTableRecord
100
AcDbLinetypeTableRecord
  2
PHANTOM
 70
64
  3
_____ _ _ _____ _ _ _____ _ _ _____
 72
65
 73
6
 40
0.8
 49
0.45
 74
0
 49
-0.05
 74
0
 49
0.1
 74
0
 49
-0.05
 74
0
 49
0.1
 74
0
 49
-0.05
 74
0
  0
LTYPE
  5
1F8
100
AcDbSymbolTableRecord
100
AcDbLinetypeTableRecord
  2
DOT
 70
64
  3
. . . . . . . . . . . . . . . . . . . .
 72
65
 73
2
 40
0.2
 49
0.1
 74
0
 49
-0.1
 74
0
  0
LTYPE
  5
1F9
100
AcDbSymbolTableRecord
100
AcDbLinetypeTableRecord
  2
DASHED
 70
64
  3
- - - - - - - - - - - - - - - - - - - -
 72
65
 73
2
 40
0.2
 49
0.1
 74
0
 49
-0.1
 74
0
  0
ENDTAB
  0
TABLE
  2
LAYER
  5
2
100
AcDbSymbolTable
 70
36
  0
LAYER
  5
10
100
AcDbSymbolTableRecord
100
AcDbLayerTableRecord
  2
0
 70
0
 62
7
  6
CONTINUOUS
370
-3
390
F
  0
LAYER
  5
1FA
100
AcDbSymbolTableRecord
100
AcDbLayerTableRecord
  2
DEFAULT_1
 70
0
 62
7
  6
CENTER
370
-3
390
F
  0
LAYER
  5
1FB
100
AcDbSymbolTableRecord
100
AcDbLayerTableRecord
  2
DEFAULT_2
 70
0
 62
7
  6
HIDDEN
370
-3
390
F
  0
LAYER
  5
1FC
100
AcDbSymbolTableRecord
100
AcDbLayerTableRecord
  2
DEFAULT_3
 70
0
 62
7
  6
PHANTOM
370
-3
390
F
  0
LAYER
  5
1FD
100
AcDbSymbolTableRecord
100
AcDbLayerTableRecord
  2
ASSI
 70
0
 62
7
  6
CONTINUOUS
370
-3
390
F
  0
LAYER
  5
1FE
100
AcDbSymbolTableRecord
100
AcDbLayerTableRecord
  2
COLOR9
 70
0
 62
7
  6
CONTINUOUS
370
-3
390
F
  0
LAYER
  5
1FF
100
AcDbSymbolTableRecord
100
AcDbLayerTableRecord
  2
COORDINATE
 70
0
 62
7
  6
CONTINUOUS
370
-3
390
F
  0
LAYER
  5
200
100
AcDbSymbolTableRecord
100
AcDbLayerTableRecord
  2
COORD_ORIGINE
 70
0
 62
7
  6
CONTINUOUS
370
-3
390
F
  0
LAYER
  5
201
100
AcDbSymbolTableRecord
100
AcDbLayerTableRecord
  2
COPY_PUBLISH
 70
0
 62
7
  6
CONTINUOUS
370
-3
390
F
  0
LAYER
  5
202
100
AcDbSymbolTableRecord
100
AcDbLayerTableRecord
  2
COSMETICI
 70
0
 62
7
  6
CONTINUOUS
370
-3
390
F
  0
LAYER
  5
203
100
AcDbSymbolTableRecord
100
AcDbLayerTableRecord
  2
CURVE
 70
0
 62
7
  6
CONTINUOUS
370
-3
390
F
  0
LAYER
  5
204
100
AcDbSymbolTableRecord
100
AcDbLayerTableRecord
  2
DRAFT
 70
0
 62
7
  6
CONTINUOUS
370
-3
390
F
  0
LAYER
  5
205
100
AcDbSymbolTableRecord
100
AcDbLayerTableRecord
  2
IMPORT_IGES
 70
0
 62
7
  6
CONTINUOUS
370
-3
390
F
  0
LAYER
  5
206
100
AcDbSymbolTableRecord
100
AcDbLayerTableRecord
  2
INTF_1
 70
0
 62
7
  6
CONTINUOUS
370
-3
390
F
  0
LAYER
  5
207
100
AcDbSymbolTableRecord
100
AcDbLayerTableRecord
  2
INTF_YELLOW
 70
0
 62
7
  6
CONTINUOUS
370
-3
390
F
  0
LAYER
  5
208
100
AcDbSymbolTableRecord
100
AcDbLayerTableRecord
  2
NOTE
 70
0
 62
7
  6
CONTINUOUS
370
-3
390
F
  0
LAYER
  5
209
100
AcDbSymbolTableRecord
100
AcDbLayerTableRecord
  2
PIANI
 70
0
 62
7
  6
CONTINUOUS
370
-3
390
F
  0
LAYER
  5
20A
100
AcDbSymbolTableRecord
100
AcDbLayerTableRecord
  2
PIANI_ORIGINE
 70
0
 62
7
  6
CONTINUOUS
370
-3
390
F
  0
LAYER
  5
20B
100
AcDbSymbolTableRecord
100
AcDbLayerTableRecord
  2
PIANI_RIFERIMENTO
 70
0
 62
7
  6
CONTINUOUS
370
-3
390
F
  0
LAYER
  5
20C
100
AcDbSymbolTableRecord
100
AcDbLayerTableRecord
  2
PUNTI
 70
0
 62
7
  6
CONTINUOUS
370
-3
390
F
  0
LAYER
  5
20D
100
AcDbSymbolTableRecord
100
AcDbLayerTableRecord
  2
RACCORDO
 70
0
 62
7
  6
CONTINUOUS
370
-3
390
F
  0
LAYER
  5
20E
100
AcDbSymbolTableRecord
100
AcDbLayerTableRecord
  2
SIMBOLI
 70
0
 62
7
  6
CONTINUOUS
370
-3
390
F
  0
LAYER
  5
20F
100
AcDbSymbolTableRecord
100
AcDbLayerTableRecord
  2
SMUSSO
 70
0
 62
7
  6
CONTINUOUS
370
-3
390
F
  0
LAYER
  5
210
100
AcDbSymbolTableRecord
100
AcDbLayerTableRecord
  2
SUPERFICI
 70
0
 62
7
  6
CONTINUOUS
370
-3
390
F
  0
LAYER
  5
211
100
AcDbSymbolTableRecord
100
AcDbLayerTableRecord
  2
TRASH
 70
0
 62
7
  6
CONTINUOUS
370
-3
390
F
  0
LAYER
  5
212
100
AcDbSymbolTableRecord
100
AcDbLayerTableRecord
  2
XSEC_DATUMS
 70
0
 62
7
  6
CONTINUOUS
370
-3
390
F
  0
ENDTAB
  0
TABLE
  2
STYLE
  5
3
100
AcDbSymbolTable
 70
1
  0
STYLE
  5
11
100
AcDbSymbolTableRecord
100
AcDbTextStyleTableRecord
  2
STANDARD
 70
0
 40
0.0
 41
0.8
 50
0.0
 71
0
 42
0.2
  3
txt
  4

  0
STYLE
  5
213
100
AcDbSymbolTableRecord
100
AcDbTextStyleTableRecord
  2
TEXTSTYLE_1
 70
0
 40
0.0
 41
0.8
 50
0.0
 71
0
 42
0.2
  3
gdt
  4

  0
ENDTAB
  0
TABLE
  2
VIEW
  5
6
100
AcDbSymbolTable
 70
0
  0
ENDTAB
  0
TABLE
  2
UCS
  5
7
100
AcDbSymbolTable
 70
0
  0
ENDTAB
  0
TABLE
  2
APPID
  5
9
100
AcDbSymbolTable
 70
1
  0
APPID
  5
214
100
AcDbSymbolTableRecord
100
AcDbRegAppTableRecord
  2
ACAD
 70
0
  0
ENDTAB
  0
TABLE
  2
BLOCK_RECORD
  5
1
100
AcDbSymbolTable
 70
0
  0
BLOCK_RECORD
  5
215
100
AcDbSymbolTableRecord
100
AcDbBlockTableRecord
  2
*Model_Space
  0
BLOCK_RECORD
  5
216
100
AcDbSymbolTableRecord
100
AcDbBlockTableRecord
  2
*Paper_Space
  0
BLOCK_RECORD
  5
217
100
AcDbSymbolTableRecord
100
AcDbBlockTableRecord
  2
_FILLED
  0
ENDTAB
  0
TABLE
  2
DIMSTYLE
  5
A
100
AcDbSymbolTable
 70
1
100
AcDbDimStyleTable
 71
0
  0
DIMSTYLE
105
218
100
AcDbSymbolTableRecord
100
AcDbDimStyleTableRecord
  2
STANDARD
 70
0
  3

  4

 40
1.0
 41
3.0
 42
0.5
 43
0.38
 44
1.5
 45
0.0
 46
0.0
 47
0.01
 48
0.01
140
3.0
141
0.09
142
0.0
143
25.4
144
1.0
145
0.0
146
1.0
147
0.625
 71
1
 72
0
 73
0
 74
0
 75
0
 76
0
 77
1
 78
8
 79
2
170
0
171
1
172
0
173
0
174
0
175
0
176
0
177
0
178
0
270
2
179
2
271
2
272
2
273
2
274
2
275
0
280
0
281
0
282
0
283
1
284
8
285
0
286
0
287
3
288
0
340
11
278
44
341
217
342
217
343
217
344
217
  0
ENDTAB
  0
ENDSEC
  0
SECTION
  2
BLOCKS
  0
BLOCK
  5
20
100
AcDbEntity
  8
0
100
AcDbBlockBegin
  2
*Model_Space
 70
0
 10
0.0
 20
0.0
 30
0.0
  3
*Model_Space
  1

  0
ENDBLK
  5
21
100
AcDbEntity
  8
0
100
AcDbBlockEnd
  0
BLOCK
  5
1C
100
AcDbEntity
  8
0
100
AcDbBlockBegin
  2
*Paper_Space
 70
0
 10
0.0
 20
0.0
 30
0.0
  3
*Paper_Space
  1

  0
ENDBLK
  5
1D
100
AcDbEntity
  8
0
100
AcDbBlockEnd
  0
BLOCK
  5
219
100
AcDbEntity
  8
0
100
AcDbBlockBegin
  2
_FILLED
 70
64
 10
0.0
 20
0.0
  3
_FILLED
  1

  0
SOLID
  5
21A
100
AcDbEntity
  8
0
  6
BYBLOCK
 62
0
100
AcDbTrace
 10
0.0
 20
0.0
 11
-1.0
 21
0.3166666667
 12
-1.0
 22
-0.3166666667
 13
-1.0
 23
-0.3166666667
  0
ENDBLK
  5
21B
100
AcDbEntity
  8
0
  6
BYBLOCK
 62
0
100
AcDbBlockEnd
  0
ENDSEC
  0
SECTION
  2
ENTITIES
  0
LINE
  5
21C
100
AcDbEntity
  8
RACCORDO
100
AcDbLine
 62
7
  6
CONTINUOUS
 10
111.4948081552
 20
85.6433501256
 11
111.4948081552
 21
97.6514205194
  0
LINE
  5
21D
100
AcDbEntity
  8
RACCORDO
100
AcDbLine
 62
7
  6
CONTINUOUS
 10
111.4948081552
 20
113.6489843843
 11
111.4948081552
 21
125.6570547781
  0
LINE
  5
21E
100
AcDbEntity
  8
RACCORDO
100
AcDbLine
 62
250
  6
CONTINUOUS
 10
119.5945718137
 20
130.3136239009
 11
119.5461723325
 21
130.2281168028
  0
LINE
  5
21F
100
AcDbEntity
  8
RACCORDO
100
AcDbLine
 62
250
  6
CONTINUOUS
 10
119.3570732889
 20
130.3192711836
 11
119.3701937433
 21
130.3305191569
  0
LWPOLYLINE
  5
220
100
AcDbEntity
  8
RACCORDO
100
AcDbPolyline
 62
250
  6
CONTINUOUS
 90
15
 70
0
 10
119.3702038961
 20
80.9698767584
 10
119.3616390202
 20
80.9769160833
 10
119.3534965893
 20
80.9841442298
 10
119.3457973549
 20
80.9915700629
 10
119.3385987125
 20
80.9991749569
 10
119.3318784281
 20
81.0069995368
 10
119.3255626274
 20
81.0151340315
 10
119.3196717852
 20
81.0236205047
 10
119.3142844564
 20
81.0324262478
 10
119.3094432719
 20
81.0415232328
 10
119.3051997047
 20
81.0509365381
 10
119.3016069748
 20
81.0606654637
 10
119.2987159691
 20
81.0706464546
 10
119.2965816912
 20
81.080872084
 10
119.2952606717
 20
81.0913915455
  0
LINE
  5
221
100
AcDbEntity
  8
RACCORDO
100
AcDbLine
 62
250
  6
CONTINUOUS
 10
119.5946215414
 20
80.986811127
 11
119.5461721973
 21
81.0722879861
  0
LWPOLYLINE
  5
222
100
AcDbEntity
  8
RACCORDO
100
AcDbPolyline
 62
250
  6
CONTINUOUS
 90
13
 70
0
 10
113.8492072882
 20
101.6576850946
 10
113.8547251887
 20
101.5802699226
 10
113.8688453497
 20
101.5041501189
 10
113.8913315022
 20
101.4305993771
 10
113.921807391
 20
101.3608484031
 10
113.9597630709
 20
101.2960643222
 10
114.0045634391
 20
101.2373311501
 10
114.0554588623
 20
101.185631654
 10
114.1115977204
 20
101.1418309085
 10
114.1720406561
 20
101.1066618203
 10
114.2357762929
 20
101.080712865
 10
114.3017381588
 20
101.0644182397
 10
114.3688225304
 20
101.0580505984
  0
LWPOLYLINE
  5
223
100
AcDbEntity
  8
RACCORDO
100
AcDbPolyline
 62
250
  6
CONTINUOUS
 90
13
 70
0
 10
113.7158418649
 20
101.6511884276
 10
113.7210591352
 20
101.5729807035
 10
113.7364313053
 20
101.4961090638
 10
113.7616957602
 20
101.4218867676
 10
113.7964208872
 20
101.351581813
 10
113.8400134496
 20
101.2863952753
 10
113.8917287211
 20
101.2274407876
 10
113.9506832088
 20
101.1757255161
 10
114.0158697465
 20
101.1321329537
 10
114.0861747011
 20
101.0974078267
 10
114.1603969973
 20
101.0721433718
 10
114.237268637
 20
101.0567712017
 10
114.3154763611
 20
101.0515539314
  0
LWPOLYLINE
  5
224
100
AcDbEntity
  8
RACCORDO
100
AcDbPolyline
 62
250
  6
CONTINUOUS
 90
4
 70
0
 10
115.0291348866
 20
110.1779640671
 10
115.0362659545
 20
110.071146709
 10
115.0383071235
 20
110.0194106728
 10
115.0419244769
 20
109.8957092553
  0
LINE
  5
225
100
AcDbEntity
  8
RACCORDO
100
AcDbLine
 62
250
  6
CONTINUOUS
 10
115.0419244769
 20
109.8957092553
 11
115.0433080027
 21
109.8268263045
  0
LINE
  5
226
100
AcDbEntity
  8
RACCORDO
100
AcDbLine
 62
250
  6
CONTINUOUS
 10
115.0433080027
 20
109.8268263045
 11
115.0451668184
 21
109.6031896466
  0
LINE
  5
227
100
AcDbEntity
  8
RACCORDO
100
AcDbLine
 62
7
  6
CONTINUOUS
 10
113.6948081552
 20
109.6702501858
 11
113.6948081552
 21
101.6301547179
  0
LINE
  5
228
100
AcDbEntity
  8
RACCORDO
100
AcDbLine
 62
250
  6
CONTINUOUS
 10
113.7158418649
 20
101.6511884276
 11
113.7158418649
 21
109.6492164761
  0
LINE
  5
229
100
AcDbEntity
  8
RACCORDO
100
AcDbLine
 62
250
  6
CONTINUOUS
 10
113.8492072882
 20
101.6576850946
 11
113.8492072882
 21
109.6427198091
  0
LINE
  5
22A
100
AcDbEntity
  8
RACCORDO
100
AcDbLine
 62
7
  6
CONTINUOUS
 10
114.4948081552
 20
112.0505679556
 11
114.4948081552
 21
110.7364779618
  0
LINE
  5
22B
100
AcDbEntity
  8
RACCORDO
100
AcDbLine
 62
7
  6
CONTINUOUS
 10
114.4948081552
 20
100.5639269419
 11
114.4948081552
 21
99.2498369481
  0
LINE
  5
22C
100
AcDbEntity
  8
RACCORDO
100
AcDbLine
 62
250
  6
CONTINUOUS
 10
114.5027653368
 20
101.6972152571
 11
114.5027653368
 21
109.6031896466
  0
LINE
  5
22D
100
AcDbEntity
  8
RACCORDO
100
AcDbLine
 62
250
  6
CONTINUOUS
 10
115.0451668183
 20
101.6972152571
 11
115.0451668183
 21
109.6031896233
  0
LINE
  5
22E
100
AcDbEntity
  8
RACCORDO
100
AcDbLine
 62
250
  6
CONTINUOUS
 10
116.0605740976
 20
110.7364779618
 11
116.0605741276
 21
110.336721631
  0
LINE
  5
22F
100
AcDbEntity
  8
RACCORDO
100
AcDbLine
 62
250
  6
CONTINUOUS
 10
116.0605740976
 20
100.5639269419
 11
116.0605740976
 21
100.9636832727
  0
LINE
  5
230
100
AcDbEntity
  8
RACCORDO
100
AcDbLine
 62
250
  6
CONTINUOUS
 10
115.043263739
 20
101.4735783466
 11
115.0451668183
 21
101.6972152571
  0
LWPOLYLINE
  5
231
100
AcDbEntity
  8
RACCORDO
100
AcDbPolyline
 62
250
  6
CONTINUOUS
 90
3
 70
0
 10
115.0382732071
 20
101.2809940187
 10
115.0418795387
 20
101.4046943861
 10
115.043263739
 20
101.4735783466
  0
LINE
  5
232
100
AcDbEntity
  8
RACCORDO
100
AcDbLine
 62
250
  6
CONTINUOUS
 10
115.0362366346
 20
101.2292580256
 11
115.0382732071
 21
101.2809940187
  0
LWPOLYLINE
  5
233
100
AcDbEntity
  8
RACCORDO
100
AcDbPolyline
 62
250
  6
CONTINUOUS
 90
13
 70
0
 10
113.7158418649
 20
109.6492164761
 10
113.7210591352
 20
109.7274242002
 10
113.7364313053
 20
109.8042958399
 10
113.7616957602
 20
109.8785181362
 10
113.7964208872
 20
109.9488230907
 10
113.8400134496
 20
110.0140096284
 10
113.8917287211
 20
110.0729641161
 10
113.9506832088
 20
110.1246793876
 10
114.0158697465
 20
110.16827195
 10
114.0861747011
 20
110.202997077
 10
114.1603969973
 20
110.2282615319
 10
114.237268637
 20
110.243633702
 10
114.3154763611
 20
110.2488509723
  0
LWPOLYLINE
  5
234
100
AcDbEntity
  8
RACCORDO
100
AcDbPolyline
 62
250
  6
CONTINUOUS
 90
13
 70
0
 10
113.8492072882
 20
109.6427198091
 10
113.8547251887
 20
109.7201349812
 10
113.8688453497
 20
109.7962547848
 10
113.8913315022
 20
109.8698055266
 10
113.921807391
 20
109.9395565006
 10
113.9597630709
 20
110.0043405815
 10
114.0045634391
 20
110.0630737536
 10
114.0554588623
 20
110.1147732497
 10
114.1115977204
 20
110.1585739953
 10
114.1720406561
 20
110.1937430834
 10
114.2357762929
 20
110.2196920388
 10
114.3017381588
 20
110.235986664
 10
114.3688225304
 20
110.2423543053
  0
LWPOLYLINE
  5
235
100
AcDbEntity
  8
RACCORDO
100
AcDbPolyline
 62
250
  6
CONTINUOUS
 90
3
 70
0
 10
119.3701937433
 20
130.3305191569
 10
119.3779844664
 20
130.3341436307
 10
119.3863169384
 20
130.3357794857
  0
LWPOLYLINE
  5
236
100
AcDbEntity
  8
RACCORDO
100
AcDbPolyline
 62
250
  6
CONTINUOUS
 90
19
 70
0
 10
117.0613406248
 20
109.738909903
 10
117.0532693182
 20
109.8492962041
 10
117.0365049911
 20
109.9534945288
 10
117.0110476435
 20
110.0515048769
 10
116.9755397148
 20
110.143824468
 10
116.9313387656
 20
110.2299560825
 10
116.8825174777
 20
110.3084080625
 10
116.8296202984
 20
110.3783456073
 10
116.7721027804
 20
110.4406035175
 10
116.7124042631
 20
110.4961945369
 10
116.6514196053
 20
110.5449735811
 10
116.5882539483
 20
110.5870857344
 10
116.522662056
 20
110.6239789942
 10
116.455195338
 20
110.6562160195
 10
116.3853023847
 20
110.6832341511
 10
116.3110837305
 20
110.7047934091
 10
116.2319062204
 20
110.7208138003
 10
116.1484030094
 20
110.7313753178
 10
116.0605740976
 20
110.7364779618
  0
LWPOLYLINE
  5
237
100
AcDbEntity
  8
RACCORDO
100
AcDbPolyline
 62
250
  6
CONTINUOUS
 90
19
 70
0
 10
116.6628625944
 20
109.7389119028
 10
116.6593737656
 20
109.8044032616
 10
116.649146903
 20
109.8671530254
 10
116.6329134978
 20
109.9265580915
 10
116.6113766776
 20
109.9822435308
 10
116.5853272154
 20
110.0337700228
 10
116.5557159512
 20
110.0806683243
 10
116.5235291678
 20
110.1226335574
 10
116.4893378524
 20
110.1599740269
 10
116.4533593121
 20
110.1932249758
 10
116.4163481624
 20
110.2222911643
 10
116.3785590118
 20
110.2475041239
 10
116.3390929416
 20
110.2697274996
 10
116.2983157783
 20
110.2888178122
 10
116.2563512225
 20
110.3047684547
 10
116.2116016552
 20
110.317999521
 10
116.1635932719
 20
110.3281561877
 10
116.1131515965
 20
110.3345559789
 10
116.0605739291
 20
110.3367215637
  0
LINE
  5
238
100
AcDbEntity
  8
RACCORDO
100
AcDbLine
 62
250
  6
CONTINUOUS
 10
116.386671504
 20
101.6717336312
 11
116.386671504
 21
109.6286712725
  0
LINE
  5
239
100
AcDbEntity
  8
RACCORDO
100
AcDbLine
 62
250
  6
CONTINUOUS
 10
116.6628627456
 20
101.5614929406
 11
116.6628627456
 21
109.7389119631
  0
LINE
  5
23A
100
AcDbEntity
  8
RACCORDO
100
AcDbLine
 62
250
  6
CONTINUOUS
 10
117.0613406248
 20
101.5614929406
 11
117.0613406248
 21
109.738909903
  0
LINE
  5
23B
100
AcDbEntity
  8
RACCORDO
100
AcDbLine
 62
7
  6
CONTINUOUS
 10
119.2948081552
 20
81.0507513903
 11
119.2948081552
 21
82.0845170269
  0
LINE
  5
23C
100
AcDbEntity
  8
RACCORDO
100
AcDbLine
 62
7
  6
CONTINUOUS
 10
119.2948081552
 20
129.2158878768
 11
119.2948081552
 21
130.2496535135
  0
LWPOLYLINE
  5
23D
100
AcDbEntity
  8
RACCORDO
100
AcDbPolyline
 62
250
  6
CONTINUOUS
 90
12
 70
0
 10
119.2948081552
 20
130.1981740752
 10
119.2954065011
 20
130.2106515626
 10
119.2971380966
 20
130.222656637
 10
119.2999075744
 20
130.2342267594
 10
119.3035766235
 20
130.2453325102
 10
119.3080749488
 20
130.2560553052
 10
119.3134994212
 20
130.2666044597
 10
119.3198177891
 20
130.2770317223
 10
119.3270426066
 20
130.2873490497
 10
119.3355400854
 20
130.2977541681
 10
119.3455539111
 20
130.3083825305
 10
119.3570732889
 20
130.3192711836
  0
LWPOLYLINE
  5
23E
100
AcDbEntity
  8
RACCORDO
100
AcDbPolyline
 62
7
  6
CONTINUOUS
 90
5
 70
0
 10
120.5463822035
 20
105.2918042866
 10
120.5444570983
 20
105.3093202331
 10
120.5427721853
 20
105.3228695936
 10
120.5413269893
 20
105.3319611568
 10
120.540074799
 20
105.3370798278
  0
LINE
  5
23F
100
AcDbEntity
  8
RACCORDO
100
AcDbLine
 62
7
  6
CONTINUOUS
 10
120.5622736098
 20
105.1395617797
 11
120.5560408826
 21
105.1982206926
  0
LINE
  5
240
100
AcDbEntity
  8
RACCORDO
100
AcDbLine
 62
7
  6
CONTINUOUS
 10
120.5560408826
 20
105.1982206926
 11
120.5463822035
 21
105.2918042866
  0
LINE
  5
241
100
AcDbEntity
  8
RACCORDO
100
AcDbLine
 62
250
  6
CONTINUOUS
 10
119.6948081552
 20
130.2845170165
 11
119.6948081552
 21
128.6502024519
  0
LINE
  5
242
100
AcDbEntity
  8
RACCORDO
100
AcDbLine
 62
250
  6
CONTINUOUS
 10
119.6948081552
 20
81.0158880152
 11
119.6948081552
 21
82.6502024519
  0
LINE
  5
243
100
AcDbEntity
  8
RACCORDO
100
AcDbLine
 62
7
  6
CONTINUOUS
 10
120.5589894117
 20
106.1302669506
 11
120.5657853428
 21
106.1926829993
  0
LWPOLYLINE
  5
244
100
AcDbEntity
  8
RACCORDO
100
AcDbPolyline
 62
7
  6
CONTINUOUS
 90
9
 70
0
 10
120.5657853428
 20
106.1926829993
 10
120.5738148565
 20
106.261948415
 10
120.5783875865
 20
106.2995032735
 10
120.5834044352
 20
106.3391834352
 10
120.5888895923
 20
106.3808866695
 10
120.5948448567
 20
106.4245827785
 10
120.6013011816
 20
106.4702574993
 10
120.608319225
 20
106.517911447
 10
120.6159478611
 20
106.5675364381
  0
LINE
  5
245
100
AcDbEntity
  8
RACCORDO
100
AcDbLine
 62
7
  6
CONTINUOUS
 10
121.2664874408
 20
108.0692242317
 11
121.2676367749
 21
108.073278313
  0
LWPOLYLINE
  5
246
100
AcDbEntity
  8
RACCORDO
100
AcDbPolyline
 62
7
  6
CONTINUOUS
 90
4
 70
0
 10
121.1285071797
 20
107.7267448192
 10
121.1678961
 20
107.8287188296
 10
121.1866891636
 20
107.8755519806
 10
121.2346781176
 20
107.991137588
  0
LINE
  5
247
100
AcDbEntity
  8
RACCORDO
100
AcDbLine
 62
7
  6
CONTINUOUS
 10
121.1075516706
 20
107.673339235
 11
121.1285071797
 21
107.7267448192
  0
LWPOLYLINE
  5
248
100
AcDbEntity
  8
RACCORDO
100
AcDbPolyline
 62
250
  6
CONTINUOUS
 90
4
 70
0
 10
115.022380579
 20
101.0975807609
 10
115.026487388
 20
101.1051331863
 10
115.0291222015
 20
101.122440835
 10
115.0362366346
 20
101.2292580256
  0
LINE
  5
249
100
AcDbEntity
  8
RACCORDO
100
AcDbLine
 62
7
  6
CONTINUOUS
 10
114.4237553927
 20
110.2791496894
 11
114.4813273343
 21
110.336721631
  0
LINE
  5
24A
100
AcDbEntity
  8
RACCORDO
100
AcDbLine
 62
250
  6
CONTINUOUS
 10
133.4434441126
 20
130.2281169173
 11
133.4809783987
 21
130.2599480392
  0
LWPOLYLINE
  5
24B
100
AcDbEntity
  8
RACCORDO
100
AcDbPolyline
 62
250
  6
CONTINUOUS
 90
20
 70
0
 10
133.4809783987
 20
130.2599480392
 10
133.4974603598
 20
130.2736952481
 10
133.5051508805
 20
130.2800025233
 10
133.5124843664
 20
130.2859172397
 10
133.5194768258
 20
130.29146951
 10
133.5261320046
 20
130.2966430784
 10
133.5324604485
 20
130.3014304504
 10
133.5384876579
 20
130.3058769886
 10
133.5442165072
 20
130.3099718052
 10
133.5496581676
 20
130.3137069262
 10
133.554848754
 20
130.3171347082
 10
133.5597930793
 20
130.3202516344
 10
133.5644983236
 20
130.3230472619
 10
133.5690016192
 20
130.3255662774
 10
133.5733079389
 20
130.3278097416
 10
133.5774217713
 20
130.3297666242
 10
133.5813769382
 20
130.3314658182
 10
133.5851783079
 20
130.332911685
 10
133.5888280182
 20
130.3340929152
 10
133.5923535061
 20
130.3350167273
  0
LWPOLYLINE
  5
24C
100
AcDbEntity
  8
RACCORDO
100
AcDbPolyline
 62
7
  6
CONTINUOUS
 90
4
 70
0
 10
133.6015421082
 20
130.4405741522
 10
133.4974252136
 20
130.3748312013
 10
133.4385096938
 20
130.3388727327
 10
133.394994769
 20
130.3135937767
  0
LWPOLYLINE
  5
24D
100
AcDbEntity
  8
RACCORDO
100
AcDbPolyline
 62
7
  6
CONTINUOUS
 90
7
 70
0
 10
133.394991359
 20
130.3136013665
 10
133.3903347373
 20
130.3110244122
 10
133.3680430784
 20
130.3002846849
 10
133.3458816625
 20
130.2922756466
 10
133.3233058069
 20
130.2869548897
 10
133.3008403871
 20
130.2846266044
 10
133.2948081528
 20
130.2845168885
  0
LWPOLYLINE
  5
24E
100
AcDbEntity
  8
RACCORDO
100
AcDbPolyline
 62
250
  6
CONTINUOUS
 90
5
 70
0
 10
133.8100318121
 20
130.53850806
 10
133.7689020037
 20
130.5168898638
 10
133.7307228047
 20
130.4893466583
 10
133.696137536
 20
130.4563425337
 10
133.665728958
 20
130.418433596
  0
LWPOLYLINE
  5
24F
100
AcDbEntity
  8
RACCORDO
100
AcDbPolyline
 62
7
  6
CONTINUOUS
 90
6
 70
0
 10
133.8316645341
 20
130.5500832821
 10
133.7863531026
 20
130.5363587243
 10
133.7391945471
 20
130.5172571407
 10
133.6934137617
 20
130.4946187187
 10
133.6480391453
 20
130.4689864304
 10
133.6015421082
 20
130.4405741522
  0
LWPOLYLINE
  5
250
100
AcDbEntity
  8
RACCORDO
100
AcDbPolyline
 62
250
  6
CONTINUOUS
 90
10
 70
0
 10
164.3972628043
 20
80.9653881764
 10
164.3938566727
 20
80.964714985
 10
164.3905697887
 20
80.9643040311
 10
164.3873835888
 20
80.9641744493
 10
164.3842926937
 20
80.9643171612
 10
164.3812988792
 20
80.9647447249
 10
164.3783952359
 20
80.9655080732
 10
164.3755784532
 20
80.966625113
 10
164.3728485657
 20
80.9680808715
 10
164.3702038961
 20
80.9698767584
  0
LWPOLYLINE
  5
251
100
AcDbEntity
  8
RACCORDO
100
AcDbPolyline
 62
250
  6
CONTINUOUS
 90
11
 70
0
 10
133.5944092189
 20
80.9649556962
 10
133.5848269863
 20
80.9675341762
 10
133.5746500837
 20
80.9720236431
 10
133.5642525494
 20
80.9774986769
 10
133.553748838
 20
80.9838845625
 10
133.54308452
 20
80.9912653932
 10
133.5324309998
 20
80.998993453
 10
133.5218615251
 20
81.0070011646
 10
133.5113725304
 20
81.0153885036
 10
133.5010307594
 20
81.0237727044
 10
133.4908862403
 20
81.0321134246
  0
LWPOLYLINE
  5
252
100
AcDbEntity
  8
RACCORDO
100
AcDbPolyline
 62
250
  6
CONTINUOUS
 90
5
 70
0
 10
133.8100169967
 20
80.7619044789
 10
133.7688886647
 20
80.7835253527
 10
133.7307112514
 20
80.8110708204
 10
133.6961280486
 20
80.8440761527
 10
133.6657217459
 20
80.881984707
  0
LWPOLYLINE
  5
253
100
AcDbEntity
  8
RACCORDO
100
AcDbPolyline
 62
7
  6
CONTINUOUS
 90
3
 70
0
 10
133.39504449
 20
80.9867810067
 10
133.4411815072
 20
80.9599399239
 10
133.4980628035
 20
80.9251760838
  0
LWPOLYLINE
  5
254
100
AcDbEntity
  8
RACCORDO
100
AcDbPolyline
 62
7
  6
CONTINUOUS
 90
7
 70
0
 10
133.5988104332
 20
80.8615404365
 10
133.6438743319
 20
80.8338854666
 10
133.6876860114
 20
80.8088423566
 10
133.7316615284
 20
80.7866344368
 10
133.7768419265
 20
80.7676048259
 10
133.8237688388
 20
80.7522926904
 10
133.8313348907
 20
80.7506091927
  0
LINE
  5
255
100
AcDbEntity
  8
RACCORDO
100
AcDbLine
 62
7
  6
CONTINUOUS
 10
133.4980628035
 20
80.9251760838
 11
133.5988104332
 21
80.8615404365
  0
LWPOLYLINE
  5
256
100
AcDbEntity
  8
RACCORDO
100
AcDbPolyline
 62
250
  6
CONTINUOUS
 90
12
 70
0
 10
133.4330024941
 20
81.080831325
 10
133.42231315
 20
81.0888094833
 10
133.4113805036
 20
81.0962119727
 10
133.4002968566
 20
81.10301842
 10
133.388982243
 20
81.1092315895
 10
133.3771778442
 20
81.1148592604
 10
133.3648341159
 20
81.1199327998
 10
133.3520070816
 20
81.1243616071
 10
133.3385918283
 20
81.1279450154
 10
133.3245594775
 20
81.1305860473
 10
133.3099594923
 20
81.1323000573
 10
133.2948081552
 20
81.1330451643
  0
LINE
  5
257
100
AcDbEntity
  8
RACCORDO
100
AcDbLine
 62
250
  6
CONTINUOUS
 10
133.4434441126
 20
81.0722879865
 11
133.4330024941
 21
81.080831325
  0
LWPOLYLINE
  5
258
100
AcDbEntity
  8
RACCORDO
100
AcDbPolyline
 62
250
  6
CONTINUOUS
 90
3
 70
0
 10
133.4908862403
 20
81.0321134246
 10
133.452440303
 20
81.0645446417
 10
133.4434441126
 20
81.0722879865
  0
LINE
  5
259
100
AcDbEntity
  8
RACCORDO
100
AcDbLine
 62
7
  6
CONTINUOUS
 10
114.4237553927
 20
101.0212552144
 11
114.4813273343
 21
100.9636832727
  0
LWPOLYLINE
  5
25A
100
AcDbEntity
  8
RACCORDO
100
AcDbPolyline
 62
250
  6
CONTINUOUS
 90
3
 70
0
 10
115.022380579
 20
110.2028241428
 10
115.0264939104
 20
110.1952717302
 10
115.0291348866
 20
110.1779640671
  0
LWPOLYLINE
  5
25B
100
AcDbEntity
  8
RACCORDO
100
AcDbPolyline
 62
7
  6
CONTINUOUS
 90
3
 70
0
 10
121.1678961
 20
103.4716860741
 10
121.1285071797
 20
103.5736600845
 10
121.1075516706
 20
103.6270656688
  0
LWPOLYLINE
  5
25C
100
AcDbEntity
  8
RACCORDO
100
AcDbPolyline
 62
7
  6
CONTINUOUS
 90
5
 70
0
 10
121.2676367749
 20
103.2271265907
 10
121.2664874408
 20
103.231180672
 10
121.2626670044
 20
103.2415734302
 10
121.2561754658
 20
103.2582091743
 10
121.2467623428
 20
103.2808717777
  0
LWPOLYLINE
  5
25D
100
AcDbEntity
  8
RACCORDO
100
AcDbPolyline
 62
7
  6
CONTINUOUS
 90
7
 70
0
 10
120.6159478611
 20
104.7328684657
 10
120.6083254861
 20
104.7824520964
 10
120.6013129031
 20
104.8300665712
 10
120.5948613259
 20
104.8757037215
 10
120.5889105769
 20
104.9193615429
 10
120.5834293493
 20
104.9610284105
 10
120.5784148424
 20
105.0006820519
  0
LINE
  5
25E
100
AcDbEntity
  8
RACCORDO
100
AcDbLine
 62
7
  6
CONTINUOUS
 10
120.5784148424
 20
105.0006820519
 11
120.569654908
 21
105.0737507519
  0
LINE
  5
25F
100
AcDbEntity
  8
RACCORDO
100
AcDbLine
 62
7
  6
CONTINUOUS
 10
120.569654908
 20
105.0737507519
 11
120.5622736098
 21
105.1395617797
  0
LWPOLYLINE
  5
260
100
AcDbEntity
  8
RACCORDO
100
AcDbPolyline
 62
250
  6
CONTINUOUS
 90
10
 70
0
 10
123.3651442378
 20
103.5559922547
 10
123.3696719571
 20
103.4970370304
 10
123.3765942705
 20
103.441123951
 10
123.3857503847
 20
103.3895517514
 10
123.3969276206
 20
103.3435183325
 10
123.4098663526
 20
103.3040929437
 10
123.4242660384
 20
103.2721913439
 10
123.4397922025
 20
103.248554522
 10
123.4560842061
 20
103.2337314899
 10
123.4727636222
 20
103.228066536
  0
LWPOLYLINE
  5
261
100
AcDbEntity
  8
RACCORDO
100
AcDbPolyline
 62
250
  6
CONTINUOUS
 90
13
 70
0
 10
124.0050984144
 20
102.560584094
 10
123.9999442546
 20
102.6388727892
 10
123.9846176214
 20
102.7158224616
 10
123.9593806564
 20
102.7901169907
 10
123.924665004
 20
102.8604856687
 10
123.8810644287
 20
102.9257249345
 10
123.8293246594
 20
102.9847189585
 10
123.7703306349
 20
103.0364587276
 10
123.7050913686
 20
103.0800593027
 10
123.6347226904
 20
103.1147749546
 10
123.5604281619
 20
103.1400119189
 10
123.4834784907
 20
103.1553385515
 10
123.4051897973
 20
103.1604927111
  0
LWPOLYLINE
  5
262
100
AcDbEntity
  8
RACCORDO
100
AcDbPolyline
 62
250
  6
CONTINUOUS
 90
40
 70
0
 10
124.0726721511
 20
102.6281578307
 10
124.0712167171
 20
102.6767271121
 10
124.0662980591
 20
102.7224734291
 10
124.0585190236
 20
102.7652019994
 10
124.0485661108
 20
102.8044736292
 10
124.0369135203
 20
102.8405792292
 10
124.0236103762
 20
102.8744577761
 10
124.0088552357
 20
102.9062692757
 10
123.993010172
 20
102.9358285049
 10
123.9760977326
 20
102.9635009232
 10
123.9582311127
 20
102.98939774
 10
123.9396681454
 20
103.0134372086
 10
123.9205676473
 20
103.0356808699
 10
123.9010746696
 20
103.0561816402
 10
123.8813535487
 20
103.074987749
 10
123.8615737125
 20
103.0921667748
 10
123.8418982977
 20
103.1077624895
 10
123.8224125571
 20
103.121881134
 10
123.8031461174
 20
103.1346820639
 10
123.7842185353
 20
103.1462215482
 10
123.7656818246
 20
103.1565888609
 10
123.7474323093
 20
103.1659651085
 10
123.7295097645
 20
103.1744154412
 10
123.71198067
 20
103.1819840972
 10
123.6947564394
 20
103.1887890862
 10
123.6778614617
 20
103.1948790368
 10
123.6613404598
 20
103.2002903017
 10
123.6451212594
 20
103.2051004561
 10
123.6292222086
 20
103.2093457397
 10
123.6136712572
 20
103.2130570721
 10
123.5984023812
 20
103.2162880271
 10
123.5834298125
 20
103.2190659974
 10
123.5687708214
 20
103.2214163498
 10
123.5543588468
 20
103.2233766241
 10
123.5402049162
 20
103.2249672583
 10
123.5263197627
 20
103.2262080339
 10
123.5126332445
 20
103.2271239692
 10
123.4991269422
 20
103.2277305956
 10
123.4858347921
 20
103.2280400085
 10
123.4727636222
 20
103.228066536
  0
LINE
  5
263
100
AcDbEntity
  8
RACCORDO
100
AcDbLine
 62
250
  6
CONTINUOUS
 10
123.9989560684
 20
110.8624057599
 11
123.9948598096
 21
111.1339606316
  0
LINE
  5
264
100
AcDbEntity
  8
RACCORDO
100
AcDbLine
 62
7
  6
CONTINUOUS
 10
124.0343276078
 20
110.9581135643
 11
124.0336708739
 21
111.0071351098
  0
LINE
  5
265
100
AcDbEntity
  8
RACCORDO
100
AcDbLine
 62
250
  6
CONTINUOUS
 10
124.0023566746
 20
110.5017334829
 11
123.9989560684
 21
110.8624057599
  0
LINE
  5
266
100
AcDbEntity
  8
RACCORDO
100
AcDbLine
 62
7
  6
CONTINUOUS
 10
124.0336708739
 20
111.0071351098
 11
124.0332148847
 21
111.0671135246
  0
LINE
  5
267
100
AcDbEntity
  8
RACCORDO
100
AcDbLine
 62
250
  6
CONTINUOUS
 10
124.0048275888
 20
109.9355403079
 11
124.0023566746
 21
110.5017334829
  0
LWPOLYLINE
  5
268
100
AcDbEntity
  8
RACCORDO
100
AcDbPolyline
 62
7
  6
CONTINUOUS
 90
3
 70
0
 10
124.0726722393
 20
108.6722469848
 10
124.071735546
 20
109.0270233944
 10
124.0717324059
 20
109.040889221
  0
LINE
  5
269
100
AcDbEntity
  8
RACCORDO
100
AcDbLine
 62
250
  6
CONTINUOUS
 10
122.4861468691
 20
108.7398208097
 11
122.4861468691
 21
108.1399121926
  0
LINE
  5
26A
100
AcDbEntity
  8
RACCORDO
100
AcDbLine
 62
250
  6
CONTINUOUS
 10
122.4861468691
 20
102.560584094
 11
122.4861468691
 21
103.1604927111
  0
LINE
  5
26B
100
AcDbEntity
  8
RACCORDO
100
AcDbLine
 62
250
  6
CONTINUOUS
 10
123.090688788
 20
103.6270656688
 11
123.090688788
 21
103.2271265907
  0
LINE
  5
26C
100
AcDbEntity
  8
RACCORDO
100
AcDbLine
 62
250
  6
CONTINUOUS
 10
123.090688788
 20
107.673339235
 11
123.090688788
 21
108.073278313
  0
LINE
  5
26D
100
AcDbEntity
  8
RACCORDO
100
AcDbLine
 62
250
  6
CONTINUOUS
 10
123.4051897973
 20
101.641540897
 11
123.4051897973
 21
103.1604927111
  0
LINE
  5
26E
100
AcDbEntity
  8
RACCORDO
100
AcDbLine
 62
250
  6
CONTINUOUS
 10
123.4051897973
 20
108.1399121926
 11
123.4051897973
 21
109.6588640133
  0
LINE
  5
26F
100
AcDbEntity
  8
RACCORDO
100
AcDbLine
 62
250
  6
CONTINUOUS
 10
124.0050984144
 20
108.7398208097
 11
124.0048275888
 21
109.9355403079
  0
LINE
  5
270
100
AcDbEntity
  8
RACCORDO
100
AcDbLine
 62
250
  6
CONTINUOUS
 10
124.0717324059
 20
109.040889221
 11
124.071732294
 21
110.8773738321
  0
LINE
  5
271
100
AcDbEntity
  8
RACCORDO
100
AcDbLine
 62
250
  6
CONTINUOUS
 10
124.4716713721
 20
100.3502024519
 11
124.4716713721
 21
102.2460830742
  0
LINE
  5
272
100
AcDbEntity
  8
RACCORDO
100
AcDbLine
 62
250
  6
CONTINUOUS
 10
124.4716713721
 20
109.0543218329
 11
124.4716713721
 21
110.9502024519
  0
LINE
  5
273
100
AcDbEntity
  8
RACCORDO
100
AcDbLine
 62
250
  6
CONTINUOUS
 10
124.071732294
 20
100.4230310716
 11
124.0717339627
 21
102.2594801984
  0
LINE
  5
274
100
AcDbEntity
  8
RACCORDO
100
AcDbLine
 62
250
  6
CONTINUOUS
 10
124.0038125791
 20
101.0504875053
 11
124.0050984144
 21
102.560584094
  0
LINE
  5
275
100
AcDbEntity
  8
RACCORDO
100
AcDbLine
 62
7
  6
CONTINUOUS
 10
124.0717339627
 20
102.2594801984
 11
124.0726722393
 21
102.6281579189
  0
LINE
  5
276
100
AcDbEntity
  8
RACCORDO
100
AcDbLine
 62
7
  6
CONTINUOUS
 10
124.0332675057
 20
100.2333830985
 11
124.0336825674
 21
100.2932901759
  0
LINE
  5
277
100
AcDbEntity
  8
RACCORDO
100
AcDbLine
 62
250
  6
CONTINUOUS
 10
124.0008647185
 20
100.6171518339
 11
124.0038125791
 21
101.0504875053
  0
LINE
  5
278
100
AcDbEntity
  8
RACCORDO
100
AcDbLine
 62
250
  6
CONTINUOUS
 10
123.9977213208
 20
100.3457154947
 11
124.0008647185
 21
100.6171518339
  0
LWPOLYLINE
  5
279
100
AcDbEntity
  8
RACCORDO
100
AcDbPolyline
 62
7
  6
CONTINUOUS
 90
7
 70
0
 10
124.0336825674
 20
100.2932901759
 10
124.0343237099
 20
100.3422845455
 10
124.0347300517
 20
100.3627481066
 10
124.0351671667
 20
100.3789588095
 10
124.0356271328
 20
100.3904475217
 10
124.036117872
 20
100.3976833759
 10
124.0366393845
 20
100.400666372
  0
LINE
  5
27A
100
AcDbEntity
  8
RACCORDO
100
AcDbLine
 62
250
  6
CONTINUOUS
 10
123.9948598014
 20
100.166443722
 11
123.9977213208
 21
100.3457154947
  0
LWPOLYLINE
  5
27B
100
AcDbEntity
  8
RACCORDO
100
AcDbPolyline
 62
250
  6
CONTINUOUS
 90
6
 70
0
 10
123.6588307288
 20
100.2941564676
 10
123.6593472672
 20
100.3015097934
 10
123.6585581363
 20
100.3176716954
 10
123.656345142
 20
100.3422813788
 10
123.652292237
 20
100.3753625836
 10
123.6402521173
 20
100.4627076838
  0
LWPOLYLINE
  5
27C
100
AcDbEntity
  8
RACCORDO
100
AcDbPolyline
 62
250
  6
CONTINUOUS
 90
10
 70
0
 10
123.365144242
 20
107.7444126503
 10
123.3696737345
 20
107.803369154
 10
123.3765973162
 20
107.8592829888
 10
123.3857542502
 20
107.9108554346
 10
123.3969318642
 20
107.9568884825
 10
123.4098705639
 20
107.9963132428
 10
123.424269934
 20
108.0282144787
 10
123.4397955558
 20
108.0518511565
 10
123.4560867055
 20
108.0666739607
 10
123.4727648567
 20
108.0723384423
  0
LWPOLYLINE
  5
27D
100
AcDbEntity
  8
RACCORDO
100
AcDbPolyline
 62
250
  6
CONTINUOUS
 90
5
 70
0
 10
123.652708474
 20
110.9284350614
 10
123.6565817689
 20
110.9603124903
 10
123.6587447185
 20
110.9839163327
 10
123.659472886
 20
110.9993114307
 10
123.6588307288
 20
111.0062484362
  0
LWPOLYLINE
  5
27E
100
AcDbEntity
  8
RACCORDO
100
AcDbPolyline
 62
250
  6
CONTINUOUS
 90
4
 70
0
 10
123.6148906007
 20
110.6781558007
 10
123.6333776846
 20
110.7922858313
 10
123.6410773979
 20
110.8432721986
 10
123.652708474
 20
110.9284350614
  0
LINE
  5
27F
100
AcDbEntity
  8
RACCORDO
100
AcDbLine
 62
250
  6
CONTINUOUS
 10
123.6047824001
 20
110.6180693804
 11
123.6148906007
 21
110.6781558007
  0
LINE
  5
280
100
AcDbEntity
  8
RACCORDO
100
AcDbLine
 62
250
  6
CONTINUOUS
 10
123.5712388931
 20
110.4330107237
 11
123.6047824001
 21
110.6180693804
  0
LINE
  5
281
100
AcDbEntity
  8
RACCORDO
100
AcDbLine
 62
250
  6
CONTINUOUS
 10
123.5356009424
 20
110.2507178307
 11
123.5712388931
 21
110.4330107237
  0
LINE
  5
282
100
AcDbEntity
  8
RACCORDO
100
AcDbLine
 62
250
  6
CONTINUOUS
 10
123.499265703
 20
110.0757054763
 11
123.5356009424
 21
110.2507178307
  0
LINE
  5
283
100
AcDbEntity
  8
RACCORDO
100
AcDbLine
 62
250
  6
CONTINUOUS
 10
123.4631990276
 20
109.9104994426
 11
123.499265703
 21
110.0757054763
  0
LWPOLYLINE
  5
284
100
AcDbEntity
  8
RACCORDO
100
AcDbPolyline
 62
250
  6
CONTINUOUS
 90
4
 70
0
 10
123.4051897973
 20
109.6588637379
 10
123.4166410356
 20
109.7068396322
 10
123.4280925155
 20
109.7560309065
 10
123.4631990276
 20
109.9104994426
  0
LINE
  5
285
100
AcDbEntity
  8
RACCORDO
100
AcDbLine
 62
250
  6
CONTINUOUS
 10
124.456650538
 20
108.9945964118
 11
124.4716713721
 21
109.054321819
  0
LINE
  5
286
100
AcDbEntity
  8
RACCORDO
100
AcDbLine
 62
250
  6
CONTINUOUS
 10
124.4338167333
 20
108.9056616518
 11
124.456650538
 21
108.9945964118
  0
LINE
  5
287
100
AcDbEntity
  8
RACCORDO
100
AcDbLine
 62
250
  6
CONTINUOUS
 10
124.4145182234
 20
108.8320869354
 11
124.4338167333
 21
108.9056616518
  0
LINE
  5
288
100
AcDbEntity
  8
RACCORDO
100
AcDbLine
 62
250
  6
CONTINUOUS
 10
124.400597958
 20
108.7798663693
 11
124.4145182234
 21
108.8320869354
  0
LWPOLYLINE
  5
289
100
AcDbEntity
  8
RACCORDO
100
AcDbPolyline
 62
7
  6
CONTINUOUS
 90
5
 70
0
 10
121.2346781176
 20
107.991137588
 10
121.2467623428
 20
108.019533126
 10
121.2561754658
 20
108.0421957294
 10
121.2626670044
 20
108.0588314736
 10
121.2664874408
 20
108.0692242317
  0
LWPOLYLINE
  5
28A
100
AcDbEntity
  8
RACCORDO
100
AcDbPolyline
 62
250
  6
CONTINUOUS
 90
3
 70
0
 10
133.665728958
 20
130.418433596
 10
133.6400094525
 20
130.3762585936
 10
133.6194123947
 20
130.3305281607
  0
LWPOLYLINE
  5
28B
100
AcDbEntity
  8
RACCORDO
100
AcDbPolyline
 62
250
  6
CONTINUOUS
 90
13
 70
0
 10
164.6948081552
 20
81.1330451643
 10
164.6819376124
 20
81.1325632082
 10
164.669261253
 20
81.1312783709
 10
164.6567910131
 20
81.1292032654
 10
164.644636483
 20
81.126372642
 10
164.6327078715
 20
81.1227813215
 10
164.6207202691
 20
81.1183630869
 10
164.6086514046
 20
81.113137384
 10
164.5965504893
 20
81.1070712775
 10
164.5842486547
 20
81.0999891559
 10
164.5717056582
 20
81.0918152357
 10
164.5590053924
 20
81.0825872675
 10
164.5461721978
 20
81.0722879865
  0
LINE
  5
28C
100
AcDbEntity
  8
RACCORDO
100
AcDbLine
 62
7
  6
CONTINUOUS
 10
181.5016604814
 20
80.6502024519
 11
179.0948081552
 21
80.6502024519
  0
LINE
  5
28D
100
AcDbEntity
  8
RACCORDO
100
AcDbLine
 62
7
  6
CONTINUOUS
 10
163.8948081552
 20
80.6502024519
 11
161.487955829
 21
80.6502024519
  0
LINE
  5
28E
100
AcDbEntity
  8
RACCORDO
100
AcDbLine
 62
7
  6
CONTINUOUS
 10
136.5016604814
 20
80.6502024519
 11
134.0948081552
 21
80.6502024519
  0
LINE
  5
28F
100
AcDbEntity
  8
RACCORDO
100
AcDbLine
 62
7
  6
CONTINUOUS
 10
118.8948081552
 20
80.6502024519
 11
116.487955829
 21
80.6502024519
  0
LINE
  5
290
100
AcDbEntity
  8
RACCORDO
100
AcDbLine
 62
7
  6
CONTINUOUS
 10
178.2948081552
 20
81.0158878768
 11
164.6948081552
 21
81.0158878768
  0
LINE
  5
291
100
AcDbEntity
  8
RACCORDO
100
AcDbLine
 62
7
  6
CONTINUOUS
 10
133.2948081552
 20
81.0158878768
 11
119.6948081552
 21
81.0158878768
  0
LINE
  5
292
100
AcDbEntity
  8
RACCORDO
100
AcDbLine
 62
250
  6
CONTINUOUS
 10
178.2948081552
 20
81.1330451643
 11
164.6948081552
 21
81.1330451643
  0
LINE
  5
293
100
AcDbEntity
  8
RACCORDO
100
AcDbLine
 62
250
  6
CONTINUOUS
 10
133.2948081552
 20
81.1330451643
 11
119.6948081552
 21
81.1330451643
  0
LINE
  5
294
100
AcDbEntity
  8
RACCORDO
100
AcDbLine
 62
250
  6
CONTINUOUS
 10
133.603299372
 20
80.964625418
 11
133.5944092189
 21
80.9649556962
  0
LWPOLYLINE
  5
295
100
AcDbEntity
  8
RACCORDO
100
AcDbPolyline
 62
7
  6
CONTINUOUS
 90
6
 70
0
 10
133.2948081521
 20
81.0158878872
 10
133.3085579778
 20
81.0153182907
 10
133.3312350753
 20
81.0119158679
 10
133.3540796138
 20
81.0054819858
 10
133.3763565208
 20
80.9964256179
 10
133.3950412745
 20
80.9867753024
  0
LWPOLYLINE
  5
296
100
AcDbEntity
  8
RACCORDO
100
AcDbPolyline
 62
250
  6
CONTINUOUS
 90
3
 70
0
 10
133.6657217459
 20
80.881984707
 10
133.640004561
 20
80.924157586
 10
133.619409666
 20
80.9698840091
  0
LWPOLYLINE
  5
297
100
AcDbEntity
  8
RACCORDO
100
AcDbPolyline
 62
7
  6
CONTINUOUS
 90
10
 70
0
 10
121.1387621709
 20
102.8142250255
 10
121.1072354123
 20
102.8828227359
 10
121.0805585738
 20
102.9438214172
 10
121.0584657468
 20
102.9970954437
 10
121.0407445612
 20
103.0425420887
 10
121.0271752107
 20
103.0800794926
 10
121.017531105
 20
103.1096465112
 10
121.0116616901
 20
103.1312008057
 10
121.0094927371
 20
103.144716587
 10
121.01096478
 20
103.1501844981
  0
LINE
  5
298
100
AcDbEntity
  8
RACCORDO
100
AcDbLine
 62
7
  6
CONTINUOUS
 10
121.2467623428
 20
103.2808717777
 11
121.2346781176
 21
103.3092673157
  0
LINE
  5
299
100
AcDbEntity
  8
RACCORDO
100
AcDbLine
 62
7
  6
CONTINUOUS
 10
121.2346781176
 20
103.3092673157
 11
121.1866891636
 21
103.4248529231
  0
LINE
  5
29A
100
AcDbEntity
  8
RACCORDO
100
AcDbLine
 62
7
  6
CONTINUOUS
 10
121.1866891636
 20
103.4248529231
 11
121.1678961
 21
103.4716860741
  0
LWPOLYLINE
  5
29B
100
AcDbEntity
  8
RACCORDO
100
AcDbPolyline
 62
250
  6
CONTINUOUS
 90
40
 70
0
 10
124.400597958
 20
102.5205385344
 10
124.3800278456
 20
102.5817942284
 10
124.3567755914
 20
102.6400484349
 10
124.3308505247
 20
102.6955646773
 10
124.3018778664
 20
102.7487179617
 10
124.2703445093
 20
102.799777759
 10
124.2375266616
 20
102.8487978276
 10
124.2035564746
 20
102.8960545556
 10
124.1683431321
 20
102.9417191407
 10
124.1327387652
 20
102.9855402498
 10
124.0966720355
 20
103.0276512552
 10
124.0601627206
 20
103.0681734424
 10
124.0241196975
 20
103.1067121757
 10
123.9884849634
 20
103.1431441613
 10
123.953139754
 20
103.1776295689
 10
123.9188571581
 20
103.2100917029
 10
123.8856772167
 20
103.2403372319
 10
123.8533441686
 20
103.2684600203
 10
123.8222095686
 20
103.2947677709
 10
123.7923269336
 20
103.3191532403
 10
123.7634799096
 20
103.3416067219
 10
123.7356695223
 20
103.3625886797
 10
123.7088821408
 20
103.3820971538
 10
123.683034218
 20
103.4000474201
 10
123.6580671391
 20
103.4167964007
 10
123.6339704551
 20
103.4323475159
 10
123.6107014012
 20
103.446636513
 10
123.5881808347
 20
103.4599353882
 10
123.5664052776
 20
103.4722465635
 10
123.5453520809
 20
103.4835252329
 10
123.5249292936
 20
103.493984499
 10
123.5051371327
 20
103.5036272924
 10
123.4859647916
 20
103.5124209756
 10
123.4673121943
 20
103.5205338415
 10
123.4491807799
 20
103.5279701725
 10
123.4315666871
 20
103.5347046768
 10
123.4143657003
 20
103.5408674311
 10
123.3975437989
 20
103.5464978329
 10
123.3811362999
 20
103.5515418917
 10
123.3651442378
 20
103.5559922547
  0
LWPOLYLINE
  5
29C
100
AcDbEntity
  8
RACCORDO
100
AcDbPolyline
 62
7
  6
CONTINUOUS
 90
10
 70
0
 10
121.011046719
 20
108.1501520832
 10
121.0094772668
 20
108.1554277712
 10
121.0115692079
 20
108.1688001242
 10
121.0173817336
 20
108.1902600719
 10
121.0269882233
 20
108.2197803477
 10
121.0405408057
 20
108.2573201268
 10
121.0582701768
 20
108.3028227047
 10
121.0803987656
 20
108.3562072179
 10
121.1071399653
 20
108.4173685264
 10
121.1387621709
 20
108.4861798783
  0
LINE
  5
29D
100
AcDbEntity
  8
RACCORDO
100
AcDbLine
 62
250
  6
CONTINUOUS
 10
124.416586649
 20
102.4606077104
 11
124.400597958
 21
102.5205385344
  0
LINE
  5
29E
100
AcDbEntity
  8
RACCORDO
100
AcDbLine
 62
250
  6
CONTINUOUS
 10
124.4403531507
 20
102.3695391314
 11
124.416586649
 21
102.4606077104
  0
LWPOLYLINE
  5
29F
100
AcDbEntity
  8
RACCORDO
100
AcDbPolyline
 62
250
  6
CONTINUOUS
 90
3
 70
0
 10
124.4716713721
 20
102.2460830847
 10
124.4638596104
 20
102.2771245107
 10
124.4403531507
 20
102.3695391314
  0
LINE
  5
2A0
100
AcDbEntity
  8
RACCORDO
100
AcDbLine
 62
250
  6
CONTINUOUS
 10
123.4166676248
 20
101.5934391504
 11
123.4051897973
 21
101.6415411658
  0
LINE
  5
2A1
100
AcDbEntity
  8
RACCORDO
100
AcDbLine
 62
250
  6
CONTINUOUS
 10
123.4396584577
 20
101.4937341933
 11
123.4166676248
 21
101.5934391504
  0
LINE
  5
2A2
100
AcDbEntity
  8
RACCORDO
100
AcDbLine
 62
250
  6
CONTINUOUS
 10
123.4632483683
 20
101.3896759212
 11
123.4396584577
 21
101.4937341933
  0
LINE
  5
2A3
100
AcDbEntity
  8
RACCORDO
100
AcDbLine
 62
250
  6
CONTINUOUS
 10
123.4992224803
 20
101.2248894702
 11
123.4632483683
 21
101.3896759212
  0
LINE
  5
2A4
100
AcDbEntity
  8
RACCORDO
100
AcDbLine
 62
250
  6
CONTINUOUS
 10
123.5353779142
 20
101.0507585254
 11
123.4992224803
 21
101.2248894702
  0
LINE
  5
2A5
100
AcDbEntity
  8
RACCORDO
100
AcDbLine
 62
250
  6
CONTINUOUS
 10
123.5707386943
 20
100.8699812344
 11
123.5353779142
 21
101.0507585254
  0
LWPOLYLINE
  5
2A6
100
AcDbEntity
  8
RACCORDO
100
AcDbPolyline
 62
7
  6
CONTINUOUS
 90
6
 70
0
 10
124.0366393845
 20
110.8997385318
 10
124.036117872
 20
110.9027215282
 10
124.0356271328
 20
110.9099573825
 10
124.0351671667
 20
110.9214460948
 10
124.0347320006
 20
110.9376534006
 10
124.0343276078
 20
110.9581135643
  0
LWPOLYLINE
  5
2A7
100
AcDbEntity
  8
RACCORDO
100
AcDbPolyline
 62
250
  6
CONTINUOUS
 90
4
 70
0
 10
123.6325185867
 20
100.5140865271
 10
123.6139688093
 20
100.6277365584
 10
123.6039528522
 20
100.6872257276
 10
123.5707386943
 20
100.8699812344
  0
LINE
  5
2A8
100
AcDbEntity
  8
RACCORDO
100
AcDbLine
 62
250
  6
CONTINUOUS
 10
123.6402521173
 20
100.4627076838
 11
123.6325185867
 21
100.5140865271
  0
LINE
  5
2A9
100
AcDbEntity
  8
RACCORDO
100
AcDbLine
 62
7
  6
CONTINUOUS
 10
121.2452720752
 20
103.1920336811
 11
121.2676367749
 21
103.2271265907
  0
LWPOLYLINE
  5
2AA
100
AcDbEntity
  8
RACCORDO
100
AcDbPolyline
 62
7
  6
CONTINUOUS
 90
7
 70
0
 10
120.5390053628
 20
105.9621817375
 10
120.5400733616
 20
105.9633220523
 10
120.541323198
 20
105.9684229532
 10
120.54276505
 20
105.9774820138
 10
120.5444447012
 20
105.99097511
 10
120.5463631679
 20
106.0084201081
 10
120.5589894117
 20
106.1302669506
  0
LINE
  5
2AB
100
AcDbEntity
  8
RACCORDO
100
AcDbLine
 62
250
  6
CONTINUOUS
 10
113.7158418649
 20
101.6511884276
 11
113.6948081552
 21
101.6301547179
  0
LINE
  5
2AC
100
AcDbEntity
  8
RACCORDO
100
AcDbLine
 62
250
  6
CONTINUOUS
 10
114.3154763611
 20
101.0515539314
 11
114.2869168781
 21
101.0229944484
  0
LWPOLYLINE
  5
2AD
100
AcDbEntity
  8
RACCORDO
100
AcDbPolyline
 62
250
  6
CONTINUOUS
 90
13
 70
0
 10
119.6948081552
 20
81.1330451643
 10
119.6819376124
 20
81.1325632082
 10
119.669261253
 20
81.1312783709
 10
119.6567910131
 20
81.1292032654
 10
119.644636483
 20
81.126372642
 10
119.6327078715
 20
81.1227813215
 10
119.6207202691
 20
81.1183630869
 10
119.6086514046
 20
81.113137384
 10
119.5965504893
 20
81.1070712775
 10
119.5842486547
 20
81.0999891559
 10
119.5717056582
 20
81.0918152357
 10
119.5590053924
 20
81.0825872675
 10
119.5461721978
 20
81.0722879865
  0
LINE
  5
2AE
100
AcDbEntity
  8
RACCORDO
100
AcDbLine
 62
7
  6
CONTINUOUS
 10
119.6948081552
 20
82.6502024519
 11
133.2948081552
 21
82.6502024519
  0
LINE
  5
2AF
100
AcDbEntity
  8
RACCORDO
100
AcDbLine
 62
7
  6
CONTINUOUS
 10
164.6948081552
 20
82.6502024519
 11
178.2948081552
 21
82.6502024519
  0
LINE
  5
2B0
100
AcDbEntity
  8
RACCORDO
100
AcDbLine
 62
250
  6
CONTINUOUS
 10
178.603299372
 20
80.964625418
 11
178.5944092189
 21
80.9649556962
  0
LWPOLYLINE
  5
2B1
100
AcDbEntity
  8
RACCORDO
100
AcDbPolyline
 62
7
  6
CONTINUOUS
 90
6
 70
0
 10
178.2948081521
 20
81.0158878872
 10
178.3085579778
 20
81.0153182907
 10
178.3312350753
 20
81.0119158679
 10
178.3540796138
 20
81.0054819858
 10
178.3763565208
 20
80.9964256179
 10
178.3950412745
 20
80.9867753024
  0
LINE
  5
2B2
100
AcDbEntity
  8
RACCORDO
100
AcDbLine
 62
250
  6
CONTINUOUS
 10
113.6948081552
 20
109.6702501858
 11
113.7158418649
 21
109.6492164761
  0
LINE
  5
2B3
100
AcDbEntity
  8
RACCORDO
100
AcDbLine
 62
250
  6
CONTINUOUS
 10
114.2869168781
 20
110.2774104553
 11
114.3154763611
 21
110.2488509723
  0
LINE
  5
2B4
100
AcDbEntity
  8
RACCORDO
100
AcDbLine
 62
7
  6
CONTINUOUS
 10
120.540074799
 20
105.3370798278
 11
120.5390053628
 21
105.3382231662
  0
LINE
  5
2B5
100
AcDbEntity
  8
RACCORDO
100
AcDbLine
 62
7
  6
CONTINUOUS
 10
121.2452720753
 20
108.1083712226
 11
121.2676367749
 21
108.073278313
  0
LWPOLYLINE
  5
2B6
100
AcDbEntity
  8
RACCORDO
100
AcDbPolyline
 62
7
  6
CONTINUOUS
 90
6
 70
0
 10
128.9529769259
 20
100.4006663719
 10
128.9534984384
 20
100.3976833755
 10
128.9539891776
 20
100.3904475212
 10
128.9544491436
 20
100.3789588089
 10
128.9548843097
 20
100.3627515031
 10
128.9552887026
 20
100.3422913394
  0
LWPOLYLINE
  5
2B7
100
AcDbEntity
  8
RACCORDO
100
AcDbPolyline
 62
250
  6
CONTINUOUS
 90
10
 70
0
 10
129.6244720726
 20
107.744412649
 10
129.6199443533
 20
107.8033678733
 10
129.6130220399
 20
107.8592809527
 10
129.6038659257
 20
107.9108531523
 10
129.5926886898
 20
107.9568865712
 10
129.5797499578
 20
107.99631196
 10
129.565350272
 20
108.0282135598
 10
129.5498241079
 20
108.0518503817
 10
129.5335321043
 20
108.0666734138
 10
129.5168526881
 20
108.0723383677
  0
LWPOLYLINE
  5
2B8
100
AcDbEntity
  8
RACCORDO
100
AcDbPolyline
 62
250
  6
CONTINUOUS
 90
13
 70
0
 10
128.984517896
 20
108.7398208097
 10
128.9896720556
 20
108.6615321163
 10
129.0049986882
 20
108.5845824452
 10
129.0302356524
 20
108.5102879167
 10
129.0649513043
 20
108.4399192385
 10
129.1085518794
 20
108.3746799721
 10
129.1602916486
 20
108.3156859476
 10
129.2192856726
 20
108.2639461783
 10
129.2845249383
 20
108.220345603
 10
129.3548936163
 20
108.1856299506
 10
129.4291881454
 20
108.1603929856
 10
129.5061378178
 20
108.1450663525
 10
129.5844265131
 20
108.1399121926
  0
LWPOLYLINE
  5
2B9
100
AcDbEntity
  8
RACCORDO
100
AcDbPolyline
 62
250
  6
CONTINUOUS
 90
19
 70
0
 10
128.9169440711
 20
108.6722469848
 10
128.9175470274
 20
108.6388448612
 10
128.9198004792
 20
108.607163573
 10
128.9234426879
 20
108.5772690061
 10
128.9281890564
 20
108.549351112
 10
128.9338241092
 20
108.5232789076
 10
128.9402692978
 20
108.4986190505
 10
128.9473872752
 20
108.4753365723
 10
128.9550199791
 20
108.4534664872
 10
128.9631660055
 20
108.432692291
 10
128.9717416868
 20
108.4129834131
 10
128.98064442
 20
108.3943531401
 10
128.9899107766
 20
108.3765676456
 10
128.9994890167
 20
108.3596046075
 10
129.0093121031
 20
108.3434688044
 10
129.0194366543
 20
108.3279841549
 10
129.0298630733
 20
108.3130926207
 10
129.0405179537
 20
108.2988433559
 10
129.0513651013
 20
108.2852284996
  0
LINE
  5
2BA
100
AcDbEntity
  8
RACCORDO
100
AcDbLine
 62
250
  6
CONTINUOUS
 10
128.990660242
 20
100.4379991439
 11
128.9947565007
 21
100.1664442721
  0
LINE
  5
2BB
100
AcDbEntity
  8
RACCORDO
100
AcDbLine
 62
7
  6
CONTINUOUS
 10
128.9552887026
 20
100.3422913394
 11
128.9559454365
 21
100.2932697939
  0
LINE
  5
2BC
100
AcDbEntity
  8
RACCORDO
100
AcDbLine
 62
250
  6
CONTINUOUS
 10
128.9872596358
 20
100.7986714208
 11
128.990660242
 21
100.4379991439
  0
LINE
  5
2BD
100
AcDbEntity
  8
RACCORDO
100
AcDbLine
 62
7
  6
CONTINUOUS
 10
128.9559454365
 20
100.2932697939
 11
128.9564014257
 21
100.2332913791
  0
LINE
  5
2BE
100
AcDbEntity
  8
RACCORDO
100
AcDbLine
 62
250
  6
CONTINUOUS
 10
128.9847887215
 20
101.3648645958
 11
128.9872596358
 21
100.7986714208
  0
LWPOLYLINE
  5
2BF
100
AcDbEntity
  8
RACCORDO
100
AcDbPolyline
 62
7
  6
CONTINUOUS
 90
3
 70
0
 10
128.9169440711
 20
102.6281579189
 10
128.9178807644
 20
102.2733815093
 10
128.9178839045
 20
102.2595156827
  0
LINE
  5
2C0
100
AcDbEntity
  8
RACCORDO
100
AcDbLine
 62
250
  6
CONTINUOUS
 10
128.5179449383
 20
110.9502024519
 11
128.5179449383
 21
109.0543218296
  0
LINE
  5
2C1
100
AcDbEntity
  8
RACCORDO
100
AcDbLine
 62
250
  6
CONTINUOUS
 10
128.5179449383
 20
102.2460830708
 11
128.5179449383
 21
100.3502024519
  0
LINE
  5
2C2
100
AcDbEntity
  8
RACCORDO
100
AcDbLine
 62
250
  6
CONTINUOUS
 10
128.9178839045
 20
102.2595156827
 11
128.9178840164
 21
100.4230310716
  0
LINE
  5
2C3
100
AcDbEntity
  8
RACCORDO
100
AcDbLine
 62
250
  6
CONTINUOUS
 10
128.984517896
 20
102.560584094
 11
128.9847887215
 21
101.3648645958
  0
LINE
  5
2C4
100
AcDbEntity
  8
RACCORDO
100
AcDbLine
 62
250
  6
CONTINUOUS
 10
129.5844265131
 20
109.6588640073
 11
129.5844265131
 21
108.1399121926
  0
LINE
  5
2C5
100
AcDbEntity
  8
RACCORDO
100
AcDbLine
 62
250
  6
CONTINUOUS
 10
129.5844265131
 20
101.6415408904
 11
129.5844265131
 21
103.1604927111
  0
LINE
  5
2C6
100
AcDbEntity
  8
RACCORDO
100
AcDbLine
 62
250
  6
CONTINUOUS
 10
129.8989275225
 20
103.6270656688
 11
129.8989275225
 21
103.2271265907
  0
LINE
  5
2C7
100
AcDbEntity
  8
RACCORDO
100
AcDbLine
 62
250
  6
CONTINUOUS
 10
129.8989275225
 20
107.673339235
 11
129.8989275225
 21
108.073278313
  0
LINE
  5
2C8
100
AcDbEntity
  8
RACCORDO
100
AcDbLine
 62
250
  6
CONTINUOUS
 10
130.5034694412
 20
108.7398208097
 11
130.5034694412
 21
108.1399121926
  0
LINE
  5
2C9
100
AcDbEntity
  8
RACCORDO
100
AcDbLine
 62
250
  6
CONTINUOUS
 10
130.5034694412
 20
102.560584094
 11
130.5034694412
 21
103.1604927111
  0
LINE
  5
2CA
100
AcDbEntity
  8
RACCORDO
100
AcDbLine
 62
250
  6
CONTINUOUS
 10
128.9178840164
 20
110.8773738321
 11
128.9178823477
 21
109.0409247053
  0
LINE
  5
2CB
100
AcDbEntity
  8
RACCORDO
100
AcDbLine
 62
250
  6
CONTINUOUS
 10
128.9858037313
 20
110.2499173984
 11
128.984517896
 21
108.7398208097
  0
LINE
  5
2CC
100
AcDbEntity
  8
RACCORDO
100
AcDbLine
 62
7
  6
CONTINUOUS
 10
128.9178823477
 20
109.0409247053
 11
128.9169440711
 21
108.6722469848
  0
LINE
  5
2CD
100
AcDbEntity
  8
RACCORDO
100
AcDbLine
 62
7
  6
CONTINUOUS
 10
128.9563488047
 20
111.0670218052
 11
128.955933743
 21
111.0071147278
  0
LINE
  5
2CE
100
AcDbEntity
  8
RACCORDO
100
AcDbLine
 62
250
  6
CONTINUOUS
 10
128.9887515919
 20
110.6832530698
 11
128.9858037313
 21
110.2499173984
  0
LINE
  5
2CF
100
AcDbEntity
  8
RACCORDO
100
AcDbLine
 62
250
  6
CONTINUOUS
 10
128.9918949896
 20
110.954689409
 11
128.9887515919
 21
110.6832530698
  0
LWPOLYLINE
  5
2D0
100
AcDbEntity
  8
RACCORDO
100
AcDbPolyline
 62
7
  6
CONTINUOUS
 90
7
 70
0
 10
128.955933743
 20
111.0071147278
 10
128.9552926005
 20
110.9581203582
 10
128.9548862587
 20
110.9376567972
 10
128.9544491437
 20
110.9214460942
 10
128.9539891776
 20
110.909957382
 10
128.9534984384
 20
110.9027215278
 10
128.9529769259
 20
110.8997385317
  0
LINE
  5
2D1
100
AcDbEntity
  8
RACCORDO
100
AcDbLine
 62
250
  6
CONTINUOUS
 10
128.994756509
 20
111.1339611817
 11
128.9918949896
 21
110.954689409
  0
LWPOLYLINE
  5
2D2
100
AcDbEntity
  8
RACCORDO
100
AcDbPolyline
 62
250
  6
CONTINUOUS
 90
6
 70
0
 10
129.3307855816
 20
111.0062484362
 10
129.3302690432
 20
110.9988951104
 10
129.331058174
 20
110.9827332084
 10
129.3332711684
 20
110.9581235249
 10
129.3373240733
 20
110.9250423201
 10
129.349364193
 20
110.8376972199
  0
LWPOLYLINE
  5
2D3
100
AcDbEntity
  8
RACCORDO
100
AcDbPolyline
 62
250
  6
CONTINUOUS
 90
10
 70
0
 10
129.6244720902
 20
103.5559922598
 10
129.619946054
 20
103.497039305
 10
129.6130250258
 20
103.4411275991
 10
129.6038698038
 20
103.3895558952
 10
129.5926930533
 20
103.3435221298
 10
129.5797543758
 20
103.3040958523
 10
129.5653543134
 20
103.2721932431
 10
129.5498273286
 20
103.2485555061
 10
129.5335340038
 20
103.2337317779
 10
129.5168526984
 20
103.2280665359
  0
LWPOLYLINE
  5
2D4
100
AcDbEntity
  8
RACCORDO
100
AcDbPolyline
 62
250
  6
CONTINUOUS
 90
5
 70
0
 10
129.3369078364
 20
100.3719698424
 10
129.3330345415
 20
100.3400924134
 10
129.3308715919
 20
100.316488571
 10
129.3301434244
 20
100.3010934731
 10
129.3307855816
 20
100.2941564676
  0
LWPOLYLINE
  5
2D5
100
AcDbEntity
  8
RACCORDO
100
AcDbPolyline
 62
250
  6
CONTINUOUS
 90
4
 70
0
 10
129.3747257097
 20
100.622249103
 10
129.3562386257
 20
100.5081190724
 10
129.3485389125
 20
100.4571327051
 10
129.3369078364
 20
100.3719698424
  0
LINE
  5
2D6
100
AcDbEntity
  8
RACCORDO
100
AcDbLine
 62
250
  6
CONTINUOUS
 10
129.3848339103
 20
100.6823355233
 11
129.3747257097
 21
100.622249103
  0
LINE
  5
2D7
100
AcDbEntity
  8
RACCORDO
100
AcDbLine
 62
250
  6
CONTINUOUS
 10
129.4183774173
 20
100.86739418
 11
129.3848339103
 21
100.6823355233
  0
LINE
  5
2D8
100
AcDbEntity
  8
RACCORDO
100
AcDbLine
 62
250
  6
CONTINUOUS
 10
129.454015368
 20
101.049687073
 11
129.4183774173
 21
100.86739418
  0
LINE
  5
2D9
100
AcDbEntity
  8
RACCORDO
100
AcDbLine
 62
250
  6
CONTINUOUS
 10
129.4903506073
 20
101.2246994274
 11
129.454015368
 21
101.049687073
  0
LINE
  5
2DA
100
AcDbEntity
  8
RACCORDO
100
AcDbLine
 62
250
  6
CONTINUOUS
 10
129.5264172828
 20
101.3899054611
 11
129.4903506073
 21
101.2246994274
  0
LWPOLYLINE
  5
2DB
100
AcDbEntity
  8
RACCORDO
100
AcDbPolyline
 62
250
  6
CONTINUOUS
 90
4
 70
0
 10
129.5844265131
 20
101.6415411658
 10
129.5729752748
 20
101.5935652715
 10
129.5615237949
 20
101.5443739972
 10
129.5264172828
 20
101.3899054611
  0
LINE
  5
2DC
100
AcDbEntity
  8
RACCORDO
100
AcDbLine
 62
250
  6
CONTINUOUS
 10
128.5329657724
 20
102.305808492
 11
128.5179449383
 21
102.2460830847
  0
LINE
  5
2DD
100
AcDbEntity
  8
RACCORDO
100
AcDbLine
 62
250
  6
CONTINUOUS
 10
128.5557995771
 20
102.3947432519
 11
128.5329657724
 21
102.305808492
  0
LINE
  5
2DE
100
AcDbEntity
  8
RACCORDO
100
AcDbLine
 62
250
  6
CONTINUOUS
 10
128.5750980869
 20
102.4683179683
 11
128.5557995771
 21
102.3947432519
  0
LINE
  5
2DF
100
AcDbEntity
  8
RACCORDO
100
AcDbLine
 62
250
  6
CONTINUOUS
 10
128.5890183523
 20
102.5205385344
 11
128.5750980869
 21
102.4683179683
  0
LINE
  5
2E0
100
AcDbEntity
  8
RACCORDO
100
AcDbLine
 62
7
  6
CONTINUOUS
 10
128.9563488047
 20
111.0670218052
 11
128.994756509
 21
111.1339611817
  0
LINE
  5
2E1
100
AcDbEntity
  8
RACCORDO
100
AcDbLine
 62
7
  6
CONTINUOUS
 10
124.0332675057
 20
100.2333830985
 11
123.9948598014
 21
100.166443722
  0
LINE
  5
2E2
100
AcDbEntity
  8
RACCORDO
100
AcDbLine
 62
7
  6
CONTINUOUS
 10
126.1816855311
 20
111.6049358081
 11
126.1828288696
 21
111.6060052442
  0
LWPOLYLINE
  5
2E3
100
AcDbEntity
  8
RACCORDO
100
AcDbPolyline
 62
250
  6
CONTINUOUS
 90
10
 70
0
 10
119.3972628043
 20
80.9653881764
 10
119.3938566727
 20
80.964714985
 10
119.3905697887
 20
80.9643040311
 10
119.3873835888
 20
80.9641744493
 10
119.3842926937
 20
80.9643171612
 10
119.3812988792
 20
80.9647447249
 10
119.3783952359
 20
80.9655080732
 10
119.3755784532
 20
80.966625113
 10
119.3728485657
 20
80.9680808715
 10
119.3702038961
 20
80.9698767584
  0
LWPOLYLINE
  5
2E4
100
AcDbEntity
  8
RACCORDO
100
AcDbPolyline
 62
7
  6
CONTINUOUS
 90
7
 70
0
 10
126.1828288696
 20
99.6943996595
 10
126.1816885547
 20
99.6954676583
 10
126.1765876539
 20
99.6967174947
 10
126.1675285932
 20
99.6981593466
 10
126.154035497
 20
99.6998389979
 10
126.1365904989
 20
99.7017574646
 10
126.0147436565
 20
99.7143837083
  0
LWPOLYLINE
  5
2E5
100
AcDbEntity
  8
RACCORDO
100
AcDbPolyline
 62
250
  6
CONTINUOUS
 90
10
 70
0
 10
129.0738172836
 20
103.212932826
 10
129.0873790076
 20
103.1918752018
 10
129.0992746074
 20
103.1724675594
 10
129.1094101254
 20
103.1548613748
 10
129.1177044985
 20
103.1391932843
 10
129.1240932252
 20
103.125586171
 10
129.1285282131
 20
103.1141478511
 10
129.1309744887
 20
103.1049675984
 10
129.1314111703
 20
103.0981158388
 10
129.1298341999
 20
103.0936455032
  0
LINE
  5
2E6
100
AcDbEntity
  8
RACCORDO
100
AcDbLine
 62
7
  6
CONTINUOUS
 10
128.9947565007
 20
100.1664442721
 11
128.9564014257
 21
100.2332913791
  0
LINE
  5
2E7
100
AcDbEntity
  8
RACCORDO
100
AcDbLine
 62
7
  6
CONTINUOUS
 10
123.9948598096
 20
111.1339606316
 11
124.0332148847
 21
111.0671135246
  0
LWPOLYLINE
  5
2E8
100
AcDbEntity
  8
RACCORDO
100
AcDbPolyline
 62
250
  6
CONTINUOUS
 90
19
 70
0
 10
128.5890183523
 20
108.7798663693
 10
128.6021002629
 20
108.7382998309
 10
128.6164213125
 20
108.6985017628
 10
128.6319868532
 20
108.6603834672
 10
128.6490146315
 20
108.6238474086
 10
128.6672694523
 20
108.5887775134
 10
128.6860869573
 20
108.5550793175
 10
128.7053647254
 20
108.5227056261
 10
128.7252079335
 20
108.4915517353
 10
128.7452870587
 20
108.4614891063
 10
128.7655471795
 20
108.4324799215
 10
128.7860517583
 20
108.4044581764
 10
128.8066581281
 20
108.3772851163
 10
128.8273386973
 20
108.3509310616
 10
128.848133093
 20
108.3253577123
 10
128.8690016544
 20
108.3004312788
 10
128.8899356985
 20
108.2760942076
 10
128.9109585341
 20
108.2523607569
 10
128.9320793793
 20
108.2292127888
  0
LINE
  5
2E9
100
AcDbEntity
  8
RACCORDO
100
AcDbLine
 62
250
  6
CONTINUOUS
 10
128.5730296614
 20
108.8397971933
 11
128.5890183523
 21
108.7798663693
  0
LINE
  5
2EA
100
AcDbEntity
  8
RACCORDO
100
AcDbLine
 62
250
  6
CONTINUOUS
 10
128.5492631597
 20
108.9308657723
 11
128.5730296614
 21
108.8397971933
  0
LWPOLYLINE
  5
2EB
100
AcDbEntity
  8
RACCORDO
100
AcDbPolyline
 62
250
  6
CONTINUOUS
 90
3
 70
0
 10
128.5179449383
 20
109.054321819
 10
128.5257567
 20
109.023280393
 10
128.5492631597
 20
108.9308657723
  0
LINE
  5
2EC
100
AcDbEntity
  8
RACCORDO
100
AcDbLine
 62
250
  6
CONTINUOUS
 10
129.5729486855
 20
109.7069657533
 11
129.5844265131
 21
109.6588637379
  0
LINE
  5
2ED
100
AcDbEntity
  8
RACCORDO
100
AcDbLine
 62
250
  6
CONTINUOUS
 10
129.5499578527
 20
109.8066707104
 11
129.5729486855
 21
109.7069657533
  0
LINE
  5
2EE
100
AcDbEntity
  8
RACCORDO
100
AcDbLine
 62
250
  6
CONTINUOUS
 10
129.5263679421
 20
109.9107289825
 11
129.5499578527
 21
109.8066707104
  0
LINE
  5
2EF
100
AcDbEntity
  8
RACCORDO
100
AcDbLine
 62
250
  6
CONTINUOUS
 10
129.49039383
 20
110.0755154335
 11
129.5263679421
 21
109.9107289825
  0
LINE
  5
2F0
100
AcDbEntity
  8
RACCORDO
100
AcDbLine
 62
250
  6
CONTINUOUS
 10
129.4542383962
 20
110.2496463784
 11
129.49039383
 21
110.0755154335
  0
LINE
  5
2F1
100
AcDbEntity
  8
RACCORDO
100
AcDbLine
 62
250
  6
CONTINUOUS
 10
129.4188776161
 20
110.4304236693
 11
129.4542383962
 21
110.2496463784
  0
LWPOLYLINE
  5
2F2
100
AcDbEntity
  8
RACCORDO
100
AcDbPolyline
 62
250
  6
CONTINUOUS
 90
4
 70
0
 10
129.3570977237
 20
110.7863183766
 10
129.3756475011
 20
110.6726683453
 10
129.3856634582
 20
110.6131791762
 10
129.4188776161
 20
110.4304236693
  0
LINE
  5
2F3
100
AcDbEntity
  8
RACCORDO
100
AcDbLine
 62
250
  6
CONTINUOUS
 10
129.349364193
 20
110.8376972199
 11
129.3570977237
 21
110.7863183766
  0
LWPOLYLINE
  5
2F4
100
AcDbEntity
  8
RACCORDO
100
AcDbPolyline
 62
7
  6
CONTINUOUS
 90
5
 70
0
 10
132.4432341069
 20
106.0086006171
 10
132.445159212
 20
105.9910846706
 10
132.446844125
 20
105.9775353101
 10
132.4482893211
 20
105.9684437469
 10
132.4495415114
 20
105.9633250759
  0
LINE
  5
2F5
100
AcDbEntity
  8
RACCORDO
100
AcDbLine
 62
7
  6
CONTINUOUS
 10
132.4273427006
 20
106.160843124
 11
132.4335754278
 21
106.1021842111
  0
LINE
  5
2F6
100
AcDbEntity
  8
RACCORDO
100
AcDbLine
 62
7
  6
CONTINUOUS
 10
132.4335754278
 20
106.1021842111
 11
132.4432341069
 21
106.0086006171
  0
LINE
  5
2F7
100
AcDbEntity
  8
RACCORDO
100
AcDbLine
 62
250
  6
CONTINUOUS
 10
133.2948081552
 20
81.0158878872
 11
133.2948081552
 21
82.6502024519
  0
LINE
  5
2F8
100
AcDbEntity
  8
RACCORDO
100
AcDbLine
 62
250
  6
CONTINUOUS
 10
133.2948081552
 20
128.6502024519
 11
133.2948081552
 21
130.2845168885
  0
LINE
  5
2F9
100
AcDbEntity
  8
RACCORDO
100
AcDbLine
 62
7
  6
CONTINUOUS
 10
133.6948081552
 20
81.0507513903
 11
133.6948081552
 21
82.0845170269
  0
LINE
  5
2FA
100
AcDbEntity
  8
RACCORDO
100
AcDbLine
 62
7
  6
CONTINUOUS
 10
133.6948081552
 20
129.2158878768
 11
133.6948081552
 21
130.2496535135
  0
LINE
  5
2FB
100
AcDbEntity
  8
RACCORDO
100
AcDbLine
 62
7
  6
CONTINUOUS
 10
132.4306268987
 20
105.1701379532
 11
132.4238309675
 21
105.1077219045
  0
LWPOLYLINE
  5
2FC
100
AcDbEntity
  8
RACCORDO
100
AcDbPolyline
 62
7
  6
CONTINUOUS
 90
9
 70
0
 10
132.4238309675
 20
105.1077219045
 10
132.4158014539
 20
105.0384564888
 10
132.4112287239
 20
105.0009016303
 10
132.4062118752
 20
104.9612214685
 10
132.4007267181
 20
104.9195182343
 10
132.3947714536
 20
104.8758221253
 10
132.3883151288
 20
104.8301474045
 10
132.3812970854
 20
104.7824934567
 10
132.3736684493
 20
104.7328684657
  0
LINE
  5
2FD
100
AcDbEntity
  8
RACCORDO
100
AcDbLine
 62
7
  6
CONTINUOUS
 10
131.7231288696
 20
103.231180672
 11
131.7219795355
 21
103.2271265907
  0
LWPOLYLINE
  5
2FE
100
AcDbEntity
  8
RACCORDO
100
AcDbPolyline
 62
7
  6
CONTINUOUS
 90
4
 70
0
 10
131.8611091307
 20
103.5736600845
 10
131.8217202103
 20
103.4716860741
 10
131.8029271467
 20
103.4248529231
 10
131.7549381928
 20
103.3092673157
  0
LINE
  5
2FF
100
AcDbEntity
  8
RACCORDO
100
AcDbLine
 62
7
  6
CONTINUOUS
 10
131.8820646398
 20
103.6270656688
 11
131.8611091307
 21
103.5736600845
  0
LWPOLYLINE
  5
300
100
AcDbEntity
  8
RACCORDO
100
AcDbPolyline
 62
7
  6
CONTINUOUS
 90
5
 70
0
 10
131.7549381928
 20
103.3092673157
 10
131.7428539676
 20
103.2808717777
 10
131.7334408446
 20
103.2582091743
 10
131.7269493059
 20
103.2415734302
 10
131.7231288696
 20
103.231180672
  0
LINE
  5
301
100
AcDbEntity
  8
RACCORDO
100
AcDbLine
 62
7
  6
CONTINUOUS
 10
131.7443442352
 20
108.1083712226
 11
131.7219795355
 21
108.073278313
  0
LINE
  5
302
100
AcDbEntity
  8
RACCORDO
100
AcDbLine
 62
250
  6
CONTINUOUS
 10
128.984517896
 20
108.7398208097
 11
128.9169440711
 21
108.6722469848
  0
LINE
  5
303
100
AcDbEntity
  8
RACCORDO
100
AcDbLine
 62
250
  6
CONTINUOUS
 10
123.4727636222
 20
103.228066536
 11
123.4051897973
 21
103.1604927111
  0
LINE
  5
304
100
AcDbEntity
  8
RACCORDO
100
AcDbLine
 62
250
  6
CONTINUOUS
 10
129.5844265131
 20
108.1399121926
 11
129.5168526881
 21
108.0723383677
  0
LINE
  5
305
100
AcDbEntity
  8
RACCORDO
100
AcDbLine
 62
250
  6
CONTINUOUS
 10
124.0726722393
 20
102.6281579189
 11
124.0050984144
 21
102.560584094
  0
LINE
  5
306
100
AcDbEntity
  8
RACCORDO
100
AcDbLine
 62
7
  6
CONTINUOUS
 10
128.9529769259
 20
110.8997385317
 11
128.9178840164
 21
110.8773738321
  0
LWPOLYLINE
  5
307
100
AcDbEntity
  8
RACCORDO
100
AcDbPolyline
 62
250
  6
CONTINUOUS
 90
3
 70
0
 10
164.3701937433
 20
130.3305191569
 10
164.3779844664
 20
130.3341436307
 10
164.3863169384
 20
130.3357794857
  0
LWPOLYLINE
  5
308
100
AcDbEntity
  8
RACCORDO
100
AcDbPolyline
 62
7
  6
CONTINUOUS
 90
10
 70
0
 10
123.6588307288
 20
111.0062484362
 10
123.7276427743
 20
111.0378676148
 10
123.7887789069
 20
111.064598506
 10
123.842112228
 20
111.0867102686
 10
123.8875032085
 20
111.104406753
 10
123.9249052082
 20
111.1179212413
 10
123.9543647992
 20
111.1275133326
 10
123.9758758452
 20
111.1333431708
 10
123.9893767514
 20
111.1354736119
 10
123.9948582905
 20
111.1339638501
  0
LINE
  5
309
100
AcDbEntity
  8
RACCORDO
100
AcDbLine
 62
250
  6
CONTINUOUS
 10
115.7889546851
 20
110.2283057687
 11
116.0605740976
 21
110.336721631
  0
LINE
  5
30A
100
AcDbEntity
  8
RACCORDO
100
AcDbLine
 62
250
  6
CONTINUOUS
 10
116.386671504
 20
109.6286712725
 11
116.6628627456
 21
109.7389119631
  0
LWPOLYLINE
  5
30B
100
AcDbEntity
  8
RACCORDO
100
AcDbPolyline
 62
7
  6
CONTINUOUS
 90
6
 70
0
 10
178.8316645341
 20
130.5500832821
 10
178.7863531026
 20
130.5363587243
 10
178.7391945471
 20
130.5172571407
 10
178.6934137617
 20
130.4946187187
 10
178.6480391453
 20
130.4689864304
 10
178.6015421082
 20
130.4405741522
  0
LWPOLYLINE
  5
30C
100
AcDbEntity
  8
RACCORDO
100
AcDbPolyline
 62
250
  6
CONTINUOUS
 90
11
 70
0
 10
178.5944092189
 20
80.9649556962
 10
178.5848269863
 20
80.9675341762
 10
178.5746500837
 20
80.9720236431
 10
178.5642525494
 20
80.9774986769
 10
178.553748838
 20
80.9838845625
 10
178.54308452
 20
80.9912653932
 10
178.5324309998
 20
80.998993453
 10
178.5218615251
 20
81.0070011646
 10
178.5113725304
 20
81.0153885036
 10
178.5010307594
 20
81.0237727044
 10
178.4908862403
 20
81.0321134246
  0
LINE
  5
30D
100
AcDbEntity
  8
RACCORDO
100
AcDbLine
 62
250
  6
CONTINUOUS
 10
116.0605740976
 20
100.9636832727
 11
115.7889546851
 21
101.072099135
  0
LINE
  5
30E
100
AcDbEntity
  8
RACCORDO
100
AcDbLine
 62
250
  6
CONTINUOUS
 10
116.6628627456
 20
101.5614929406
 11
116.386671504
 21
101.6717336312
  0
LINE
  5
30F
100
AcDbEntity
  8
RACCORDO
100
AcDbLine
 62
7
  6
CONTINUOUS
 10
128.9529769259
 20
100.4006663719
 11
128.9178840164
 21
100.4230310716
  0
LINE
  5
310
100
AcDbEntity
  8
RACCORDO
100
AcDbLine
 62
250
  6
CONTINUOUS
 10
123.4727636222
 20
108.0723383677
 11
123.4051897973
 21
108.1399121926
  0
LINE
  5
311
100
AcDbEntity
  8
RACCORDO
100
AcDbLine
 62
250
  6
CONTINUOUS
 10
128.9169440711
 20
102.6281579189
 11
128.984517896
 21
102.560584094
  0
LINE
  5
312
100
AcDbEntity
  8
RACCORDO
100
AcDbLine
 62
250
  6
CONTINUOUS
 10
124.0726722393
 20
108.6722469848
 11
124.0050984144
 21
108.7398208097
  0
LINE
  5
313
100
AcDbEntity
  8
RACCORDO
100
AcDbLine
 62
250
  6
CONTINUOUS
 10
129.5168526881
 20
103.228066536
 11
129.5844265131
 21
103.1604927111
  0
LINE
  5
314
100
AcDbEntity
  8
RACCORDO
100
AcDbLine
 62
7
  6
CONTINUOUS
 10
131.7443442351
 20
103.1920336811
 11
131.7219795355
 21
103.2271265907
  0
LINE
  5
315
100
AcDbEntity
  8
RACCORDO
100
AcDbLine
 62
7
  6
CONTINUOUS
 10
131.7428539676
 20
108.019533126
 11
131.7549381928
 21
107.991137588
  0
LINE
  5
316
100
AcDbEntity
  8
RACCORDO
100
AcDbLine
 62
7
  6
CONTINUOUS
 10
131.7549381928
 20
107.991137588
 11
131.8029271467
 21
107.8755519806
  0
LINE
  5
317
100
AcDbEntity
  8
RACCORDO
100
AcDbLine
 62
7
  6
CONTINUOUS
 10
131.8029271467
 20
107.8755519806
 11
131.8217202103
 21
107.8287188296
  0
LWPOLYLINE
  5
318
100
AcDbEntity
  8
RACCORDO
100
AcDbPolyline
 62
7
  6
CONTINUOUS
 90
3
 70
0
 10
131.8217202103
 20
107.8287188296
 10
131.8611091307
 20
107.7267448192
 10
131.8820646398
 20
107.673339235
  0
LWPOLYLINE
  5
319
100
AcDbEntity
  8
RACCORDO
100
AcDbPolyline
 62
7
  6
CONTINUOUS
 90
5
 70
0
 10
131.7219795355
 20
108.073278313
 10
131.7231288696
 20
108.0692242317
 10
131.7269493059
 20
108.0588314736
 10
131.7334408446
 20
108.0421957294
 10
131.7428539676
 20
108.019533126
  0
LWPOLYLINE
  5
31A
100
AcDbEntity
  8
RACCORDO
100
AcDbPolyline
 62
7
  6
CONTINUOUS
 90
10
 70
0
 10
131.9786526383
 20
103.1501869283
 10
131.9801240751
 20
103.1447180096
 10
131.9779548694
 20
103.1312020036
 10
131.9720855599
 20
103.1096482677
 10
131.9624422475
 20
103.0800833846
 10
131.9488740898
 20
103.042548887
 10
131.9311535342
 20
102.997103529
 10
131.9090604022
 20
102.9438283886
 10
131.8823825953
 20
102.8828270043
 10
131.8508541395
 20
102.8142250255
  0
LWPOLYLINE
  5
31B
100
AcDbEntity
  8
RACCORDO
100
AcDbPolyline
 62
7
  6
CONTINUOUS
 90
7
 70
0
 10
132.3736684493
 20
106.5675364381
 10
132.3812908243
 20
106.5179528073
 10
132.3883034073
 20
106.4703383326
 10
132.3947549845
 20
106.4247011823
 10
132.4007057335
 20
106.3810433608
 10
132.4061869611
 20
106.3393764932
 10
132.411201468
 20
106.2997228518
  0
LINE
  5
31C
100
AcDbEntity
  8
RACCORDO
100
AcDbLine
 62
7
  6
CONTINUOUS
 10
132.411201468
 20
106.2997228518
 11
132.4199614024
 21
106.2266541518
  0
LINE
  5
31D
100
AcDbEntity
  8
RACCORDO
100
AcDbLine
 62
7
  6
CONTINUOUS
 10
132.4199614024
 20
106.2266541518
 11
132.4273427006
 21
106.160843124
  0
LWPOLYLINE
  5
31E
100
AcDbEntity
  8
RACCORDO
100
AcDbPolyline
 62
250
  6
CONTINUOUS
 90
19
 70
0
 10
135.9282756856
 20
101.5614950007
 10
135.9363469922
 20
101.4511086996
 10
135.9531113193
 20
101.346910375
 10
135.9785686669
 20
101.2489000268
 10
136.0140765956
 20
101.1565804358
 10
136.0582775448
 20
101.0704488212
 10
136.1070988327
 20
100.9919968412
 10
136.159996012
 20
100.9220592964
 10
136.21751353
 20
100.8598013862
 10
136.2772120472
 20
100.8042103668
 10
136.338196705
 20
100.7554313227
 10
136.401362362
 20
100.7133191693
 10
136.4669542544
 20
100.6764259095
 10
136.5344209724
 20
100.6441888843
 10
136.6043139257
 20
100.6171707526
 10
136.6785325799
 20
100.5956114946
 10
136.75771009
 20
100.5795911034
 10
136.841213301
 20
100.5690295859
 10
136.9290422128
 20
100.5639269419
  0
LWPOLYLINE
  5
31F
100
AcDbEntity
  8
RACCORDO
100
AcDbPolyline
 62
250
  6
CONTINUOUS
 90
19
 70
0
 10
136.326753716
 20
101.561493001
 10
136.3302425448
 20
101.4960016421
 10
136.3404694074
 20
101.4332518783
 10
136.3567028126
 20
101.3738468123
 10
136.3782396328
 20
101.3181613729
 10
136.4042890949
 20
101.2666348809
 10
136.4339003591
 20
101.2197365794
 10
136.4660871426
 20
101.1777713463
 10
136.500278458
 20
101.1404308769
 10
136.5362569982
 20
101.1071799279
 10
136.573268148
 20
101.0781137394
 10
136.6110572986
 20
101.0529007798
 10
136.6505233688
 20
101.0306774041
 10
136.691300532
 20
101.0115870915
 10
136.7332650879
 20
100.995636449
 10
136.7780146552
 20
100.9824053827
 10
136.8260230385
 20
100.9722487161
 10
136.8764647139
 20
100.9658489249
 10
136.9290423813
 20
100.96368334
  0
LINE
  5
320
100
AcDbEntity
  8
RACCORDO
100
AcDbLine
 62
250
  6
CONTINUOUS
 10
135.9282756856
 20
109.7389119631
 11
135.9282756856
 21
101.5614950007
  0
LINE
  5
321
100
AcDbEntity
  8
RACCORDO
100
AcDbLine
 62
250
  6
CONTINUOUS
 10
136.3267535648
 20
109.7389119631
 11
136.3267535648
 21
101.5614929406
  0
LINE
  5
322
100
AcDbEntity
  8
RACCORDO
100
AcDbLine
 62
250
  6
CONTINUOUS
 10
136.6029448064
 20
101.6717336312
 11
136.6029448064
 21
109.6286712725
  0
LINE
  5
323
100
AcDbEntity
  8
RACCORDO
100
AcDbLine
 62
250
  6
CONTINUOUS
 10
136.9290422128
 20
100.5639269419
 11
136.9290421828
 21
100.9636832727
  0
LINE
  5
324
100
AcDbEntity
  8
RACCORDO
100
AcDbLine
 62
250
  6
CONTINUOUS
 10
136.9290422128
 20
110.7364779618
 11
136.9290422128
 21
110.336721631
  0
LWPOLYLINE
  5
325
100
AcDbEntity
  8
RACCORDO
100
AcDbPolyline
 62
250
  6
CONTINUOUS
 90
12
 70
0
 10
133.6948081552
 20
81.1022308285
 10
133.6942098092
 20
81.0897533411
 10
133.6924782137
 20
81.0777482667
 10
133.689708736
 20
81.0661781443
 10
133.6860396869
 20
81.0550723936
 10
133.6815413616
 20
81.0443495985
 10
133.6761168892
 20
81.033800444
 10
133.6697985213
 20
81.0233731814
 10
133.6625737037
 20
81.0130558541
 10
133.6540762249
 20
81.0026507356
 10
133.6440623993
 20
80.9920223732
 10
133.6325430215
 20
80.9811337201
  0
LWPOLYLINE
  5
326
100
AcDbEntity
  8
RACCORDO
100
AcDbPolyline
 62
250
  6
CONTINUOUS
 90
4
 70
0
 10
137.9672357313
 20
110.2028241428
 10
137.9631303472
 20
110.1952719909
 10
137.9604968588
 20
110.1779649554
 10
137.9533859032
 20
110.0711503546
  0
LWPOLYLINE
  5
327
100
AcDbEntity
  8
RACCORDO
100
AcDbPolyline
 62
250
  6
CONTINUOUS
 90
3
 70
0
 10
119.3238873524
 20
80.8819713077
 10
119.3496068578
 20
80.9241463101
 10
119.3702039157
 20
80.969876743
  0
LWPOLYLINE
  5
328
100
AcDbEntity
  8
RACCORDO
100
AcDbPolyline
 62
7
  6
CONTINUOUS
 90
7
 70
0
 10
132.4506109476
 20
105.3382231662
 10
132.4495429488
 20
105.3370828514
 10
132.4482931124
 20
105.3319819505
 10
132.4468512604
 20
105.3229228899
 10
132.4451716091
 20
105.3094297937
 10
132.4432531425
 20
105.2919847956
 10
132.4306268987
 20
105.1701379532
  0
LWPOLYLINE
  5
329
100
AcDbEntity
  8
RACCORDO
100
AcDbPolyline
 62
250
  6
CONTINUOUS
 90
28
 70
0
 10
129.0738170462
 20
103.2129325942
 10
129.0340409366
 20
103.1748754291
 10
128.9964539773
 20
103.1379665743
 10
128.9610815488
 20
103.1020961931
 10
128.9280698183
 20
103.0669476939
 10
128.8973483438
 20
103.0325970593
 10
128.868642899
 20
102.9995417253
 10
128.842097931
 20
102.9678512785
 10
128.8177021372
 20
102.9372579754
 10
128.7949497901
 20
102.9078126929
 10
128.7738565415
 20
102.8795114574
 10
128.7545096659
 20
102.852237765
 10
128.7364880064
 20
102.825929265
 10
128.7197837486
 20
102.8005718325
 10
128.7044760152
 20
102.7761140494
 10
128.6902540141
 20
102.7524726786
 10
128.6771139286
 20
102.7296419681
 10
128.6651087595
 20
102.7075954655
 10
128.6539987527
 20
102.6862387386
 10
128.6437804627
 20
102.6655714552
 10
128.6344915088
 20
102.6455809712
 10
128.6259437529
 20
102.6261649533
 10
128.6181329196
 20
102.6073250696
 10
128.6110873011
 20
102.5890568422
 10
128.6046605103
 20
102.5712536845
 10
128.5988082477
 20
102.5538811441
 10
128.5935914103
 20
102.5369756389
 10
128.5890183523
 20
102.5205385344
  0
LWPOLYLINE
  5
32A
100
AcDbEntity
  8
RACCORDO
100
AcDbPolyline
 62
250
  6
CONTINUOUS
 90
10
 70
0
 10
128.9320780646
 20
108.229211594
 10
128.9531449379
 20
108.2427673863
 10
128.9725586749
 20
108.2546585075
 10
128.9901681745
 20
108.2647909017
 10
129.0058374695
 20
108.2730830376
 10
129.0194438529
 20
108.279470802
 10
129.030879296
 20
108.2839070562
 10
129.0400548766
 20
108.2863568618
 10
129.0469009539
 20
108.2867987532
 10
129.0513651056
 20
108.2852284944
  0
LINE
  5
32B
100
AcDbEntity
  8
RACCORDO
100
AcDbLine
 62
7
  6
CONTINUOUS
 10
121.0778970815
 20
103.1886091814
 11
121.0110499757
 21
103.1502541064
  0
LWPOLYLINE
  5
32C
100
AcDbEntity
  8
RACCORDO
100
AcDbPolyline
 62
250
  6
CONTINUOUS
 90
9
 70
0
 10
114.3154763611
 20
101.0515539314
 10
114.3169361072
 20
101.0523344761
 10
114.3195383125
 20
101.0531014111
 10
114.3232829771
 20
101.0538547364
 10
114.3282041779
 20
101.0545958701
 10
114.3342678379
 20
101.0553233941
 10
114.3413717263
 20
101.0560330544
 10
114.349481766
 20
101.0567234328
 10
114.358632034
 20
101.0573959475
  0
LINE
  5
32D
100
AcDbEntity
  8
RACCORDO
100
AcDbLine
 62
7
  6
CONTINUOUS
 10
124.125477481
 20
110.8982482642
 11
124.153873019
 21
110.9103324895
  0
LINE
  5
32E
100
AcDbEntity
  8
RACCORDO
100
AcDbLine
 62
7
  6
CONTINUOUS
 10
124.153873019
 20
110.9103324895
 11
124.2499796234
 21
110.9502024519
  0
LWPOLYLINE
  5
32F
100
AcDbEntity
  8
RACCORDO
100
AcDbPolyline
 62
7
  6
CONTINUOUS
 90
5
 70
0
 10
173.9178840164
 20
100.4230310716
 10
173.913829935
 20
100.4218817375
 10
173.9034371769
 20
100.4180613011
 10
173.8868014327
 20
100.4115697624
 10
173.8641388293
 20
100.4021566395
  0
LWPOLYLINE
  5
330
100
AcDbEntity
  8
RACCORDO
100
AcDbPolyline
 62
250
  6
CONTINUOUS
 90
11
 70
0
 10
115.7889546851
 20
101.072099135
 10
115.7763218343
 20
101.0750214741
 10
115.7567452649
 20
101.077798051
 10
115.7302249768
 20
101.0804288657
 10
115.6958643
 20
101.0829350595
 10
115.6545599045
 20
101.0852954911
 10
115.6090018003
 20
101.0874467366
 10
115.5598822435
 20
101.0893607483
 10
115.5065089779
 20
101.0910655739
 10
115.4494952457
 20
101.0925819329
 10
115.3256817992
 20
101.0950766178
  0
LINE
  5
331
100
AcDbEntity
  8
RACCORDO
100
AcDbLine
 62
7
  6
CONTINUOUS
 10
124.0757863753
 20
100.4218817375
 11
124.071732294
 21
100.4230310716
  0
LINE
  5
332
100
AcDbEntity
  8
RACCORDO
100
AcDbLine
 62
7
  6
CONTINUOUS
 10
124.2499796234
 20
100.3502024519
 11
124.153873019
 21
100.3900724142
  0
LWPOLYLINE
  5
333
100
AcDbEntity
  8
RACCORDO
100
AcDbPolyline
 62
7
  6
CONTINUOUS
 90
5
 70
0
 10
124.153873019
 20
100.3900724142
 10
124.125477481
 20
100.4021566395
 10
124.1028148777
 20
100.4115697624
 10
124.0861791335
 20
100.4180613011
 10
124.0757863753
 20
100.4218817375
  0
LINE
  5
334
100
AcDbEntity
  8
RACCORDO
100
AcDbLine
 62
7
  6
CONTINUOUS
 10
121.0779888019
 20
108.1117431014
 11
121.0110494254
 21
108.1501508056
  0
LWPOLYLINE
  5
335
100
AcDbEntity
  8
RACCORDO
100
AcDbPolyline
 62
250
  6
CONTINUOUS
 90
28
 70
0
 10
128.9320781693
 20
108.2292115084
 10
128.9692905367
 20
108.1902656339
 10
129.0054517754
 20
108.1533967597
 10
129.0406637053
 20
108.1186260715
 10
129.0752253066
 20
108.0860824733
 10
129.1090614135
 20
108.0557034018
 10
129.1416972631
 20
108.0272475637
 10
129.1730809595
 20
108.0008462636
 10
129.2034538734
 20
107.976491411
 10
129.2327280864
 20
107.9537372871
 10
129.2608954673
 20
107.9326142059
 10
129.2880836366
 20
107.9131915145
 10
129.3143564365
 20
107.8950619548
 10
129.3397305077
 20
107.8782171012
 10
129.3642560736
 20
107.8627347416
 10
129.3880135984
 20
107.8483177651
 10
129.4110121903
 20
107.8349617495
 10
129.4332773512
 20
107.8227193888
 10
129.4548947705
 20
107.8113657135
 10
129.4758673066
 20
107.8008977656
 10
129.4962075552
 20
107.7913524959
 10
129.5160052251
 20
107.7825553396
 10
129.5352602356
 20
107.7745031941
 10
129.5539774213
 20
107.7672234705
 10
129.572248586
 20
107.7605806565
 10
129.5901035782
 20
107.7545343386
 10
129.6075117099
 20
107.7491421289
 10
129.6244720726
 20
107.744412649
  0
LINE
  5
336
100
AcDbEntity
  8
RACCORDO
100
AcDbLine
 62
7
  6
CONTINUOUS
 10
132.4495415114
 20
105.9633250759
 11
132.4506109476
 21
105.9621817375
  0
LWPOLYLINE
  5
337
100
AcDbEntity
  8
RACCORDO
100
AcDbPolyline
 62
250
  6
CONTINUOUS
 90
28
 70
0
 10
129.0513651013
 20
108.2852284996
 10
129.0708338338
 20
108.2627815215
 10
129.0906569711
 20
108.2421347785
 10
129.1106774112
 20
108.2232276833
 10
129.1307325072
 20
108.2060183501
 10
129.1507055802
 20
108.1904032439
 10
129.1705338927
 20
108.1762291119
 10
129.1900836086
 20
108.1634387791
 10
129.2092902018
 20
108.1519368644
 10
129.2282283049
 20
108.1415369869
 10
129.2468329637
 20
108.132174675
 10
129.2650431096
 20
108.1237923214
 10
129.2829681221
 20
108.1162480024
 10
129.3005828533
 20
108.1094877577
 10
129.3178327739
 20
108.103474821
 10
129.3348009767
 20
108.098120274
 10
129.3514694652
 20
108.0933849461
 10
129.3678031933
 20
108.0892377404
 10
129.3838695232
 20
108.0856203308
 10
129.3996541186
 20
108.0825035039
 10
129.4151349103
 20
108.0798612683
 10
129.4303734216
 20
108.0776538926
 10
129.4453582352
 20
108.0758593366
 10
129.4600751995
 20
108.0744567192
 10
129.4745851908
 20
108.0734194409
 10
129.4889025485
 20
108.0727302061
 10
129.5029944264
 20
108.0723752055
 10
129.5168526881
 20
108.0723383677
  0
LWPOLYLINE
  5
338
100
AcDbEntity
  8
RACCORDO
100
AcDbPolyline
 62
250
  6
CONTINUOUS
 90
3
 70
0
 10
119.3238945644
 20
130.4184201968
 10
119.3496117493
 20
130.3762473177
 10
119.3702066444
 20
130.3305208946
  0
LWPOLYLINE
  5
339
100
AcDbEntity
  8
RACCORDO
100
AcDbPolyline
 62
250
  6
CONTINUOUS
 90
3
 70
0
 10
137.9672357313
 20
101.0975807609
 10
137.963124368
 20
101.1051328998
 10
137.9604850862
 20
101.1224399525
  0
LWPOLYLINE
  5
33A
100
AcDbEntity
  8
RACCORDO
100
AcDbPolyline
 62
7
  6
CONTINUOUS
 90
10
 70
0
 10
131.8508541395
 20
108.4861798783
 10
131.8824733181
 20
108.4173678327
 10
131.9092042093
 20
108.3562317001
 10
131.931315972
 20
108.302898379
 10
131.9490124563
 20
108.2575073985
 10
131.9625269446
 20
108.2201053989
 10
131.9721190359
 20
108.1906458079
 10
131.9779488741
 20
108.1691347618
 10
131.9800793153
 20
108.1556338556
 10
131.9785695534
 20
108.1501523165
  0
LWPOLYLINE
  5
33B
100
AcDbEntity
  8
RACCORDO
100
AcDbPolyline
 62
250
  6
CONTINUOUS
 90
13
 70
0
 10
139.1404090222
 20
109.6427198091
 10
139.1348911217
 20
109.7201349812
 10
139.1207709607
 20
109.7962547848
 10
139.0982848082
 20
109.8698055266
 10
139.0678089194
 20
109.9395565006
 10
139.0298532395
 20
110.0043405815
 10
138.9850528713
 20
110.0630737536
 10
138.934157448
 20
110.1147732497
 10
138.87801859
 20
110.1585739953
 10
138.8175756543
 20
110.1937430834
 10
138.7538400174
 20
110.2196920388
 10
138.6878781516
 20
110.235986664
 10
138.6207937799
 20
110.2423543053
  0
LWPOLYLINE
  5
33C
100
AcDbEntity
  8
RACCORDO
100
AcDbPolyline
 62
250
  6
CONTINUOUS
 90
13
 70
0
 10
139.2737744454
 20
109.6492164761
 10
139.2685571751
 20
109.7274242002
 10
139.2531850051
 20
109.8042958399
 10
139.2279205502
 20
109.8785181362
 10
139.1931954231
 20
109.9488230907
 10
139.1496028608
 20
110.0140096284
 10
139.0978875893
 20
110.0729641161
 10
139.0389331016
 20
110.1246793876
 10
138.9737465639
 20
110.16827195
 10
138.9034416093
 20
110.202997077
 10
138.8292193131
 20
110.2282615319
 10
138.7523476734
 20
110.243633702
 10
138.6741399492
 20
110.2488509723
  0
LWPOLYLINE
  5
33D
100
AcDbEntity
  8
RACCORDO
100
AcDbPolyline
 62
250
  6
CONTINUOUS
 90
4
 70
0
 10
137.9604850862
 20
101.1224399525
 10
137.9533574973
 20
101.2292547534
 10
137.9513171218
 20
101.2809903432
 10
137.9477013483
 20
101.4046930391
  0
LINE
  5
33E
100
AcDbEntity
  8
RACCORDO
100
AcDbLine
 62
250
  6
CONTINUOUS
 10
137.9477013483
 20
101.4046930391
 11
137.946317297
 21
101.4735771984
  0
LINE
  5
33F
100
AcDbEntity
  8
RACCORDO
100
AcDbLine
 62
250
  6
CONTINUOUS
 10
137.946317297
 20
101.4735771984
 11
137.944449492
 21
101.6972152571
  0
LINE
  5
340
100
AcDbEntity
  8
RACCORDO
100
AcDbLine
 62
250
  6
CONTINUOUS
 10
137.944449492
 20
101.697215279
 11
137.944449492
 21
109.6031896466
  0
LINE
  5
341
100
AcDbEntity
  8
RACCORDO
100
AcDbLine
 62
250
  6
CONTINUOUS
 10
138.4868509736
 20
101.6972152571
 11
138.4868509736
 21
109.6031896466
  0
LINE
  5
342
100
AcDbEntity
  8
RACCORDO
100
AcDbLine
 62
7
  6
CONTINUOUS
 10
138.4948081552
 20
99.2498369481
 11
138.4948081552
 21
100.5639269419
  0
LINE
  5
343
100
AcDbEntity
  8
RACCORDO
100
AcDbLine
 62
7
  6
CONTINUOUS
 10
138.4948081552
 20
110.7364779618
 11
138.4948081552
 21
112.0505679556
  0
LINE
  5
344
100
AcDbEntity
  8
RACCORDO
100
AcDbLine
 62
250
  6
CONTINUOUS
 10
139.1404090222
 20
101.6576850946
 11
139.1404090222
 21
109.6427198091
  0
LINE
  5
345
100
AcDbEntity
  8
RACCORDO
100
AcDbLine
 62
250
  6
CONTINUOUS
 10
139.2737744454
 20
101.6511884276
 11
139.2737744454
 21
109.6492164761
  0
LINE
  5
346
100
AcDbEntity
  8
RACCORDO
100
AcDbLine
 62
7
  6
CONTINUOUS
 10
139.2948081552
 20
109.6702501858
 11
139.2948081552
 21
101.6301547179
  0
LINE
  5
347
100
AcDbEntity
  8
RACCORDO
100
AcDbLine
 62
250
  6
CONTINUOUS
 10
137.9463619411
 20
109.8268279923
 11
137.944449492
 21
109.6031896466
  0
LWPOLYLINE
  5
348
100
AcDbEntity
  8
RACCORDO
100
AcDbPolyline
 62
250
  6
CONTINUOUS
 90
3
 70
0
 10
137.9513503726
 20
110.0194148236
 10
137.9477464032
 20
109.8957131993
 10
137.9463619411
 20
109.8268279923
  0
LINE
  5
349
100
AcDbEntity
  8
RACCORDO
100
AcDbLine
 62
250
  6
CONTINUOUS
 10
137.9533859032
 20
110.0711503546
 11
137.9513503726
 21
110.0194148236
  0
LWPOLYLINE
  5
34A
100
AcDbEntity
  8
RACCORDO
100
AcDbPolyline
 62
250
  6
CONTINUOUS
 90
13
 70
0
 10
139.2737744454
 20
101.6511884276
 10
139.2685571751
 20
101.5729807035
 10
139.2531850051
 20
101.4961090638
 10
139.2279205502
 20
101.4218867676
 10
139.1931954231
 20
101.351581813
 10
139.1496028608
 20
101.2863952753
 10
139.0978875893
 20
101.2274407876
 10
139.0389331016
 20
101.1757255161
 10
138.9737465639
 20
101.1321329537
 10
138.9034416093
 20
101.0974078267
 10
138.8292193131
 20
101.0721433718
 10
138.7523476734
 20
101.0567712017
 10
138.6741399492
 20
101.0515539314
  0
LWPOLYLINE
  5
34B
100
AcDbEntity
  8
RACCORDO
100
AcDbPolyline
 62
250
  6
CONTINUOUS
 90
13
 70
0
 10
139.1404090222
 20
101.6576850946
 10
139.1348911217
 20
101.5802699226
 10
139.1207709607
 20
101.5041501189
 10
139.0982848082
 20
101.4305993771
 10
139.0678089194
 20
101.3608484031
 10
139.0298532395
 20
101.2960643222
 10
138.9850528713
 20
101.2373311501
 10
138.934157448
 20
101.185631654
 10
138.87801859
 20
101.1418309085
 10
138.8175756543
 20
101.1066618203
 10
138.7538400174
 20
101.080712865
 10
138.6878781516
 20
101.0644182397
 10
138.6207937799
 20
101.0580505984
  0
LINE
  5
34C
100
AcDbEntity
  8
RACCORDO
100
AcDbLine
 62
250
  6
CONTINUOUS
 10
138.6741399492
 20
110.2488509723
 11
138.7026994323
 21
110.2774104553
  0
LINE
  5
34D
100
AcDbEntity
  8
RACCORDO
100
AcDbLine
 62
250
  6
CONTINUOUS
 10
139.2737744454
 20
109.6492164761
 11
139.2948081552
 21
109.6702501858
  0
LINE
  5
34E
100
AcDbEntity
  8
RACCORDO
100
AcDbLine
 62
7
  6
CONTINUOUS
 10
126.8079307793
 20
99.6954690956
 11
126.8067874408
 21
99.6943996595
  0
LWPOLYLINE
  5
34F
100
AcDbEntity
  8
RACCORDO
100
AcDbPolyline
 62
250
  6
CONTINUOUS
 90
28
 70
0
 10
129.1298342029
 20
103.0936455058
 10
129.1069104161
 20
103.0737390833
 10
129.08588213
 20
103.0534834828
 10
129.0666819349
 20
103.0330483239
 10
129.0492622811
 20
103.0126085728
 10
129.0335097648
 20
102.9922892673
 10
129.0192582
 20
102.9721569566
 10
129.0064474022
 20
102.9523599128
 10
128.9949698461
 20
102.9329603531
 10
128.9846168508
 20
102.9138582327
 10
128.9753150567
 20
102.8951098225
 10
128.9670094627
 20
102.876788136
 10
128.9595565458
 20
102.8587869679
 10
128.9528991175
 20
102.8411328366
 10
128.9469970964
 20
102.8238809923
 10
128.9417597781
 20
102.8069504152
 10
128.9371452673
 20
102.7903608282
 10
128.9331191511
 20
102.7741464628
 10
128.9296205902
 20
102.7582380547
 10
128.9266180426
 20
102.7426510369
 10
128.9240828525
 20
102.7274063129
 10
128.9219728518
 20
102.7124368555
 10
128.9202642423
 20
102.6977546516
 10
128.9189342271
 20
102.6833725308
 10
128.9179544163
 20
102.6692211066
 10
128.9173063665
 20
102.6552828087
 10
128.9169752787
 20
102.6415925715
 10
128.9169440711
 20
102.6281579189
  0
LINE
  5
350
100
AcDbEntity
  8
RACCORDO
100
AcDbLine
 62
250
  6
CONTINUOUS
 10
164.3570732889
 20
130.3192711836
 11
164.3701937433
 21
130.3305191569
  0
LINE
  5
351
100
AcDbEntity
  8
RACCORDO
100
AcDbLine
 62
7
  6
CONTINUOUS
 10
124.0366393845
 20
100.400666372
 11
124.071732294
 21
100.4230310716
  0
LWPOLYLINE
  5
352
100
AcDbEntity
  8
RACCORDO
100
AcDbPolyline
 62
250
  6
CONTINUOUS
 90
10
 70
0
 10
138.6741399492
 20
110.2488509723
 10
138.672847593
 20
110.2481071925
 10
138.6704020024
 20
110.2473675202
 10
138.6668031773
 20
110.2466319554
 10
138.6620584706
 20
110.2458986656
 10
138.6561605294
 20
110.2451694833
 10
138.6490872956
 20
110.2444499064
 10
138.6408314164
 20
110.2437417674
 10
138.6314002445
 20
110.2430432337
 10
138.6207937799
 20
110.2423543053
  0
LINE
  5
353
100
AcDbEntity
  8
RACCORDO
100
AcDbLine
 62
7
  6
CONTINUOUS
 10
131.9785663349
 20
108.1501507974
 11
131.9117192279
 21
108.1117957223
  0
LWPOLYLINE
  5
354
100
AcDbEntity
  8
RACCORDO
100
AcDbPolyline
 62
250
  6
CONTINUOUS
 90
40
 70
0
 10
123.3651442378
 20
107.744412649
 10
123.4266205301
 20
107.7650790084
 10
123.4850578503
 20
107.7884262822
 10
123.5407225649
 20
107.8144460299
 10
123.5939987504
 20
107.8435251959
 10
123.6451533696
 20
107.8751649357
 10
123.6942237318
 20
107.9080552252
 10
123.7414778377
 20
107.9420614001
 10
123.7870956286
 20
107.9772808495
 10
123.8308307207
 20
108.0128435715
 10
123.8727946269
 20
108.0488004776
 10
123.9131248865
 20
108.0851576374
 10
123.9514890093
 20
108.1210550214
 10
123.9877901435
 20
108.1565682115
 10
124.0221620079
 20
108.1917956133
 10
124.0545126488
 20
108.2259535223
 10
124.0846347255
 20
108.2589845063
 10
124.1126357423
 20
108.2911604559
 10
124.1388508152
 20
108.3221695505
 10
124.1631886444
 20
108.3519725214
 10
124.1856266342
 20
108.3807689654
 10
124.2066101466
 20
108.4085515652
 10
124.2261368684
 20
108.4353360706
 10
124.2441236778
 20
108.4612037406
 10
124.2609144014
 20
108.4862012808
 10
124.2765100554
 20
108.5103380456
 10
124.2908489971
 20
108.5336583872
 10
124.3041970838
 20
108.5562337729
 10
124.3165553717
 20
108.5780668573
 10
124.3278802923
 20
108.5991815392
 10
124.3383825058
 20
108.6196650992
 10
124.3480641795
 20
108.6395167698
 10
124.3568932306
 20
108.6587481264
 10
124.365037428
 20
108.6774564016
 10
124.3725006199
 20
108.6956397885
 10
124.3792577471
 20
108.7133025544
 10
124.3854393654
 20
108.7305471078
 10
124.3910849781
 20
108.7474068182
 10
124.3961403204
 20
108.7638469301
 10
124.400597958
 20
108.7798663693
  0
LWPOLYLINE
  5
355
100
AcDbEntity
  8
RACCORDO
100
AcDbPolyline
 62
7
  6
CONTINUOUS
 90
10
 70
0
 10
128.9947577865
 20
111.133963888
 10
129.0000334745
 20
111.1355333402
 10
129.0134058276
 20
111.1334413991
 10
129.0348657752
 20
111.1276288734
 10
129.0643860511
 20
111.1180223837
 10
129.1019258302
 20
111.1044698014
 10
129.147428408
 20
111.0867404303
 10
129.2008129212
 20
111.0646118415
 10
129.2619742298
 20
111.0378706417
 10
129.3307855816
 20
111.0062484362
  0
LWPOLYLINE
  5
356
100
AcDbEntity
  8
RACCORDO
100
AcDbPolyline
 62
250
  6
CONTINUOUS
 90
19
 70
0
 10
174.6244720726
 20
103.5559922547
 10
174.5980046645
 20
103.5485524455
 10
174.5703912049
 20
103.5393516681
 10
174.5416308743
 20
103.5284269937
 10
174.5114998366
 20
103.5158199901
 10
174.4802163191
 20
103.5015685047
 10
174.4484131116
 20
103.4857014439
 10
174.4160255674
 20
103.4681712664
 10
174.3830328546
 20
103.4491055899
 10
174.3500860125
 20
103.4287816459
 10
174.317101869
 20
103.4071483024
 10
174.2840262104
 20
103.3843216469
 10
174.2515332143
 20
103.3607986995
 10
174.2195491638
 20
103.3364930052
 10
174.1880101034
 20
103.3115180471
 10
174.1576249548
 20
103.2866216951
 10
174.1286135194
 20
103.2620290117
 10
174.1006874348
 20
103.237472437
 10
174.0738191303
 20
103.2129306246
  0
LINE
  5
357
100
AcDbEntity
  8
RACCORDO
100
AcDbLine
 62
250
  6
CONTINUOUS
 10
174.6543443244
 20
103.5640123091
 11
174.6244720726
 21
103.5559922547
  0
LINE
  5
358
100
AcDbEntity
  8
RACCORDO
100
AcDbLine
 62
250
  6
CONTINUOUS
 10
175.5515714567
 20
102.5720619215
 11
175.5034694412
 21
102.560584094
  0
LINE
  5
359
100
AcDbEntity
  8
RACCORDO
100
AcDbLine
 62
250
  6
CONTINUOUS
 10
175.6512764137
 20
102.5950527543
 11
175.5515714567
 21
102.5720619215
  0
LINE
  5
35A
100
AcDbEntity
  8
RACCORDO
100
AcDbLine
 62
250
  6
CONTINUOUS
 10
175.7553346858
 20
102.618642665
 11
175.6512764137
 21
102.5950527543
  0
LWPOLYLINE
  5
35B
100
AcDbEntity
  8
0
100
AcDbPolyline
 62
250
  6
CONTINUOUS
 90
6
 70
0
 10
169.7739270198
 20
100.3211717597
 10
169.773817786
 20
100.321148076
 10
169.772624137
 20
100.32094209
 10
169.769993118
 20
100.3205360768
 10
169.7659264863
 20
100.3198885776
 10
169.7603969443
 20
100.3189762242
  0
LINE
  5
35C
100
AcDbEntity
  8
RACCORDO
100
AcDbLine
 62
250
  6
CONTINUOUS
 10
175.9201211368
 20
102.654616777
 11
175.7553346858
 21
102.618642665
  0
LINE
  5
35D
100
AcDbEntity
  8
0
100
AcDbLine
 62
250
  6
CONTINUOUS
 10
169.2747690134
 20
100.2353074253
 11
169.1014479916
 21
100.2035274369
  0
LINE
  5
35E
100
AcDbEntity
  8
0
100
AcDbLine
 62
250
  6
CONTINUOUS
 10
169.4311822871
 20
100.2632276455
 11
169.2747690134
 21
100.2353074253
  0
LINE
  5
35F
100
AcDbEntity
  8
0
100
AcDbLine
 62
250
  6
CONTINUOUS
 10
169.5568897554
 20
100.2850543867
 11
169.4311822871
 21
100.2632276455
  0
LINE
  5
360
100
AcDbEntity
  8
0
100
AcDbLine
 62
250
  6
CONTINUOUS
 10
169.6909243391
 20
100.3076228854
 11
169.5568897554
 21
100.2850543867
  0
LINE
  5
361
100
AcDbEntity
  8
0
100
AcDbLine
 62
250
  6
CONTINUOUS
 10
169.7442782751
 20
100.3163882124
 11
169.6909243391
 21
100.3076228854
  0
LWPOLYLINE
  5
362
100
AcDbEntity
  8
RACCORDO
100
AcDbPolyline
 62
7
  6
CONTINUOUS
 90
8
 70
0
 10
172.4121421414
 20
99.7713421577
 10
172.3625585106
 20
99.7637197828
 10
172.3149440359
 20
99.7567071997
 10
172.2693068856
 20
99.7502556225
 10
172.2256490641
 20
99.7443048735
 10
172.1839821966
 20
99.738823646
 10
172.1443285552
 20
99.7338091391
 10
172.1067818579
 20
99.7292363371
  0
LWPOLYLINE
  5
363
100
AcDbEntity
  8
0
100
AcDbPolyline
 62
250
  6
CONTINUOUS
 90
3
 70
0
 10
128.2358607349
 20
100.3178902596
 10
128.2296067792
 20
100.3189197068
 10
128.2203708737
 20
100.3203906038
  0
LINE
  5
364
100
AcDbEntity
  8
0
100
AcDbLine
 62
250
  6
CONTINUOUS
 10
128.3628682221
 20
100.2969179633
 11
128.2517299372
 21
100.3153253191
  0
LWPOLYLINE
  5
365
100
AcDbEntity
  8
0
100
AcDbPolyline
 62
250
  6
CONTINUOUS
 90
4
 70
0
 10
128.2203708737
 20
100.3203906038
 10
128.2175765989
 20
100.3208663903
 10
128.2160075675
 20
100.3211262072
 10
128.2156583435
 20
100.3211617544
  0
LINE
  5
366
100
AcDbEntity
  8
0
100
AcDbLine
 62
250
  6
CONTINUOUS
 10
128.5004786392
 20
100.2733754359
 11
128.3628682221
 21
100.2969179633
  0
LINE
  5
367
100
AcDbEntity
  8
0
100
AcDbLine
 62
250
  6
CONTINUOUS
 10
128.6494606101
 20
100.2470759872
 11
128.5004786392
 21
100.2733754359
  0
LINE
  5
368
100
AcDbEntity
  8
0
100
AcDbLine
 62
250
  6
CONTINUOUS
 10
128.791662146
 20
100.2213482532
 11
128.6494606101
 21
100.2470759872
  0
LINE
  5
369
100
AcDbEntity
  8
0
100
AcDbLine
 62
250
  6
CONTINUOUS
 10
128.8882116095
 20
100.2035436356
 11
128.791662146
 21
100.2213482532
  0
LINE
  5
36A
100
AcDbEntity
  8
RACCORDO
100
AcDbLine
 62
250
  6
CONTINUOUS
 10
122.2345111645
 20
102.6185933243
 11
122.0693051308
 21
102.6546599997
  0
LWPOLYLINE
  5
36B
100
AcDbEntity
  8
RACCORDO
100
AcDbPolyline
 62
250
  6
CONTINUOUS
 90
4
 70
0
 10
122.4861468691
 20
102.560584094
 10
122.4381709749
 20
102.5720353323
 10
122.3889797005
 20
102.5834868121
 10
122.2345111645
 20
102.6185933243
  0
LWPOLYLINE
  5
36C
100
AcDbEntity
  8
RACCORDO
100
AcDbPolyline
 62
250
  6
CONTINUOUS
 90
4
 70
0
 10
123.3651442378
 20
103.5559922547
 10
123.3387346525
 20
103.5630552881
 10
123.3129236716
 20
103.5699125201
 10
123.2393489553
 20
103.58921103
  0
LINE
  5
36D
100
AcDbEntity
  8
RACCORDO
100
AcDbLine
 62
7
  6
CONTINUOUS
 10
131.9116275178
 20
103.1886618023
 11
131.9785668848
 21
103.1502540981
  0
LINE
  5
36E
100
AcDbEntity
  8
RACCORDO
100
AcDbLine
 62
7
  6
CONTINUOUS
 10
124.0366393845
 20
110.8997385318
 11
124.071732294
 21
110.8773738321
  0
LWPOLYLINE
  5
36F
100
AcDbEntity
  8
RACCORDO
100
AcDbPolyline
 62
250
  6
CONTINUOUS
 90
15
 70
0
 10
164.3702038961
 20
80.9698767584
 10
164.3616390202
 20
80.9769160833
 10
164.3534965893
 20
80.9841442298
 10
164.3457973549
 20
80.9915700629
 10
164.3385987125
 20
80.9991749569
 10
164.3318784281
 20
81.0069995368
 10
164.3255626274
 20
81.0151340315
 10
164.3196717852
 20
81.0236205047
 10
164.3142844564
 20
81.0324262478
 10
164.3094432719
 20
81.0415232328
 10
164.3051997047
 20
81.0509365381
 10
164.3016069748
 20
81.0606654637
 10
164.2987159691
 20
81.0706464546
 10
164.2965816912
 20
81.080872084
 10
164.2952606717
 20
81.0913915455
  0
LWPOLYLINE
  5
370
100
AcDbEntity
  8
RACCORDO
100
AcDbPolyline
 62
7
  6
CONTINUOUS
 90
7
 70
0
 10
126.8067874408
 20
111.6060052442
 10
126.8079277556
 20
111.6049372455
 10
126.8130286565
 20
111.6036874091
 10
126.8220877172
 20
111.6022455571
 10
126.8355808133
 20
111.6005659058
 10
126.8530258115
 20
111.5986474391
 10
126.9748726539
 20
111.5860211954
  0
LINE
  5
371
100
AcDbEntity
  8
RACCORDO
100
AcDbLine
 62
250
  6
CONTINUOUS
 10
138.7026994323
 20
101.0229944484
 11
138.6741399492
 21
101.0515539314
  0
LINE
  5
372
100
AcDbEntity
  8
RACCORDO
100
AcDbLine
 62
250
  6
CONTINUOUS
 10
139.2948081552
 20
101.6301547179
 11
139.2737744454
 21
101.6511884276
  0
LINE
  5
373
100
AcDbEntity
  8
RACCORDO
100
AcDbLine
 62
7
  6
CONTINUOUS
 10
141.4948081552
 20
125.6570547781
 11
141.4948081552
 21
113.6489843843
  0
LINE
  5
374
100
AcDbEntity
  8
RACCORDO
100
AcDbLine
 62
7
  6
CONTINUOUS
 10
141.4948081552
 20
97.6514205194
 11
141.4948081552
 21
85.6433501256
  0
LWPOLYLINE
  5
375
100
AcDbEntity
  8
RACCORDO
100
AcDbPolyline
 62
7
  6
CONTINUOUS
 90
7
 70
0
 10
178.394991359
 20
130.3136013665
 10
178.3903347373
 20
130.3110244122
 10
178.3680430784
 20
130.3002846849
 10
178.3458816625
 20
130.2922756466
 10
178.3233058069
 20
130.2869548897
 10
178.3008403871
 20
130.2846266044
 10
178.2948081528
 20
130.2845168885
  0
LWPOLYLINE
  5
376
100
AcDbEntity
  8
RACCORDO
100
AcDbPolyline
 62
250
  6
CONTINUOUS
 90
5
 70
0
 10
178.8100318121
 20
130.53850806
 10
178.7689020037
 20
130.5168898638
 10
178.7307228047
 20
130.4893466583
 10
178.696137536
 20
130.4563425337
 10
178.665728958
 20
130.418433596
  0
LINE
  5
377
100
AcDbEntity
  8
RACCORDO
100
AcDbLine
 62
250
  6
CONTINUOUS
 10
174.7449864381
 20
103.5878347287
 11
174.6543443244
 21
103.5640123091
  0
LINE
  5
378
100
AcDbEntity
  8
RACCORDO
100
AcDbLine
 62
250
  6
CONTINUOUS
 10
174.806124087
 20
103.6036171803
 11
174.7449864381
 21
103.5878347287
  0
LINE
  5
379
100
AcDbEntity
  8
RACCORDO
100
AcDbLine
 62
250
  6
CONTINUOUS
 10
174.8989275225
 20
103.6270656688
 11
174.806124087
 21
103.6036171803
  0
LINE
  5
37A
100
AcDbEntity
  8
RACCORDO
100
AcDbLine
 62
250
  6
CONTINUOUS
 10
176.0942520817
 20
102.6907722109
 11
175.9201211368
 21
102.654616777
  0
LINE
  5
37B
100
AcDbEntity
  8
RACCORDO
100
AcDbLine
 62
250
  6
CONTINUOUS
 10
176.2750293726
 20
102.7261329909
 11
176.0942520817
 21
102.6907722109
  0
LWPOLYLINE
  5
37C
100
AcDbEntity
  8
RACCORDO
100
AcDbPolyline
 62
250
  6
CONTINUOUS
 90
4
 70
0
 10
176.6309240799
 20
102.7879128834
 10
176.5172740486
 20
102.7693631059
 10
176.4577848795
 20
102.7593471489
 10
176.2750293726
 20
102.7261329909
  0
LINE
  5
37D
100
AcDbEntity
  8
0
100
AcDbLine
 62
250
  6
CONTINUOUS
 10
169.7603969443
 20
100.3189762242
 11
169.7442782751
 21
100.3163882124
  0
LINE
  5
37E
100
AcDbEntity
  8
RACCORDO
100
AcDbLine
 62
250
  6
CONTINUOUS
 10
176.6823029233
 20
102.795646414
 11
176.6309240799
 21
102.7879128834
  0
LINE
  5
37F
100
AcDbEntity
  8
RACCORDO
100
AcDbLine
 62
7
  6
CONTINUOUS
 10
172.1067818579
 20
99.7292363371
 11
172.037520532
 21
99.7212056184
  0
LWPOLYLINE
  5
380
100
AcDbEntity
  8
RACCORDO
100
AcDbPolyline
 62
7
  6
CONTINUOUS
 90
5
 70
0
 10
171.8532063204
 20
99.7017765002
 10
171.8356903739
 20
99.699851395
 10
171.8221410134
 20
99.698166482
 10
171.8130494503
 20
99.696721286
 10
171.8079307793
 20
99.6954690956
  0
LINE
  5
381
100
AcDbEntity
  8
RACCORDO
100
AcDbLine
 62
7
  6
CONTINUOUS
 10
172.037520532
 20
99.7212056184
 11
171.9751673228
 21
99.7144150724
  0
LINE
  5
382
100
AcDbEntity
  8
RACCORDO
100
AcDbLine
 62
7
  6
CONTINUOUS
 10
171.9751673228
 20
99.7144150724
 11
171.8532063204
 21
99.7017765002
  0
LWPOLYLINE
  5
383
100
AcDbEntity
  8
RACCORDO
100
AcDbPolyline
 62
250
  6
CONTINUOUS
 90
13
 70
0
 10
182.9672357313
 20
101.0975807609
 10
183.034479981
 20
101.103975664
 10
183.1005805442
 20
101.1203403856
 10
183.1644275376
 20
101.1463939779
 10
183.2249452591
 20
101.1816898055
 10
183.2811252415
 20
101.2256315988
 10
183.3320392589
 20
101.2774904986
 10
183.3768692349
 20
101.3364528346
 10
183.4148122135
 20
101.4014847998
 10
183.4451643423
 20
101.4713169994
 10
183.4674585144
 20
101.5446877815
 10
183.4814107461
 20
101.6204095011
 10
183.4868509736
 20
101.6972152571
  0
LWPOLYLINE
  5
384
100
AcDbEntity
  8
RACCORDO
100
AcDbPolyline
 62
250
  6
CONTINUOUS
 90
19
 70
0
 10
161.0605740976
 20
100.5639269419
 10
161.1693628342
 20
100.5720811873
 10
161.2714597642
 20
100.5880028104
 10
161.3668648876
 20
100.611691811
 10
161.4556046063
 20
100.6442655579
 10
161.5376525184
 20
100.6846066825
 10
161.6129294184
 20
100.729363079
 10
161.6810263801
 20
100.7778743332
 10
161.7423523298
 20
100.8308008593
 10
161.79805484
 20
100.8867717944
 10
161.8482119139
 20
100.9449625943
 10
161.8927455485
 20
101.0061978032
 10
161.9325693068
 20
101.07158019
 10
161.9684725602
 20
101.1411691165
 10
161.9996659373
 20
101.214905221
 10
162.0246948875
 20
101.2937131873
 10
162.0430745603
 20
101.3779012433
 10
162.0552898061
 20
101.4671611611
 10
162.0613406248
 20
101.5614929406
  0
LINE
  5
385
100
AcDbEntity
  8
RACCORDO
100
AcDbLine
 62
7
  6
CONTINUOUS
 10
185.4952648143
 20
98.6502024519
 11
184.0944426514
 21
98.6502024519
  0
LINE
  5
386
100
AcDbEntity
  8
RACCORDO
100
AcDbLine
 62
7
  6
CONTINUOUS
 10
140.4952648143
 20
98.6502024519
 11
139.0944426514
 21
98.6502024519
  0
LINE
  5
387
100
AcDbEntity
  8
RACCORDO
100
AcDbLine
 62
7
  6
CONTINUOUS
 10
112.4943514961
 20
98.6502024519
 11
113.895173659
 21
98.6502024519
  0
LINE
  5
388
100
AcDbEntity
  8
RACCORDO
100
AcDbLine
 62
7
  6
CONTINUOUS
 10
157.4943514961
 20
98.6502024519
 11
158.895173659
 21
98.6502024519
  0
LWPOLYLINE
  5
389
100
AcDbEntity
  8
RACCORDO
100
AcDbPolyline
 62
250
  6
CONTINUOUS
 90
13
 70
0
 10
115.022380579
 20
101.0975807609
 10
114.9551383505
 20
101.103975319
 10
114.8890398257
 20
101.1203390604
 10
114.8251947732
 20
101.1463910178
 10
114.7646791237
 20
101.1816843243
 10
114.7085008161
 20
101.2256228798
 10
114.6575870819
 20
101.2774788903
 10
114.612755973
 20
101.3364395065
 10
114.5748110861
 20
101.4014709934
 10
114.5444566637
 20
101.4713042198
 10
114.5221602533
 20
101.5446776682
 10
114.5082063023
 20
101.6204036908
 10
114.5027653368
 20
101.6972152571
  0
LINE
  5
38A
100
AcDbEntity
  8
RACCORDO
100
AcDbLine
 62
7
  6
CONTINUOUS
 10
126.0147436565
 20
99.7143837083
 11
125.9523276078
 21
99.7211796395
  0
LWPOLYLINE
  5
38B
100
AcDbEntity
  8
RACCORDO
100
AcDbPolyline
 62
7
  6
CONTINUOUS
 90
9
 70
0
 10
125.9523276078
 20
99.7211796395
 10
125.8830621921
 20
99.7292091532
 10
125.8455073336
 20
99.7337818832
 10
125.8058271719
 20
99.7387987318
 10
125.7641239376
 20
99.7442838889
 10
125.7204278286
 20
99.7502391534
 10
125.6747531078
 20
99.7566954782
 10
125.6270991601
 20
99.7637135217
 10
125.577474169
 20
99.7713421577
  0
LWPOLYLINE
  5
38C
100
AcDbEntity
  8
RACCORDO
100
AcDbPolyline
 62
250
  6
CONTINUOUS
 90
5
 70
0
 10
121.2165755457
 20
102.8081027707
 10
121.1846981167
 20
102.8119760656
 10
121.1610942744
 20
102.8141390152
 10
121.1456991764
 20
102.8148671827
 10
121.1387621709
 20
102.8142250255
  0
LWPOLYLINE
  5
38D
100
AcDbEntity
  8
RACCORDO
100
AcDbPolyline
 62
250
  6
CONTINUOUS
 90
9
 70
0
 10
116.386671504
 20
101.6717330002
 10
116.3663882621
 20
101.674657002
 10
116.3317934088
 20
101.6774345634
 10
116.2838945308
 20
101.6800656844
 10
116.2235850177
 20
101.6825710996
 10
116.1521775856
 20
101.6849300745
 10
116.0717539475
 20
101.6870804054
 10
115.9849456406
 20
101.6889947669
 10
115.7926174935
 20
101.6922173309
  0
LINE
  5
38E
100
AcDbEntity
  8
0
100
AcDbLine
 62
250
  6
CONTINUOUS
 10
128.2517299372
 20
100.3153253191
 11
128.2358607349
 21
100.3178902596
  0
LWPOLYLINE
  5
38F
100
AcDbEntity
  8
RACCORDO
100
AcDbPolyline
 62
250
  6
CONTINUOUS
 90
4
 70
0
 10
121.4668548064
 20
102.7702848974
 10
121.3527247757
 20
102.7887719813
 10
121.3017384084
 20
102.7964716945
 10
121.2165755457
 20
102.8081027707
  0
LINE
  5
390
100
AcDbEntity
  8
RACCORDO
100
AcDbLine
 62
250
  6
CONTINUOUS
 10
121.5269412266
 20
102.7601766967
 11
121.4668548064
 21
102.7702848974
  0
LINE
  5
391
100
AcDbEntity
  8
RACCORDO
100
AcDbLine
 62
250
  6
CONTINUOUS
 10
121.7119998834
 20
102.7266331898
 11
121.5269412266
 21
102.7601766967
  0
LINE
  5
392
100
AcDbEntity
  8
RACCORDO
100
AcDbLine
 62
250
  6
CONTINUOUS
 10
121.8942927764
 20
102.690995239
 11
121.7119998834
 21
102.7266331898
  0
LINE
  5
393
100
AcDbEntity
  8
RACCORDO
100
AcDbLine
 62
250
  6
CONTINUOUS
 10
122.0693051308
 20
102.6546599997
 11
121.8942927764
 21
102.690995239
  0
LWPOLYLINE
  5
394
100
AcDbEntity
  8
RACCORDO
100
AcDbPolyline
 62
250
  6
CONTINUOUS
 90
9
 70
0
 10
139.2737744454
 20
101.6511884276
 10
139.2705158034
 20
101.651932424
 10
139.2644128183
 20
101.6526721534
 10
139.2554388124
 20
101.6534076159
 10
139.243585149
 20
101.6541405039
 10
139.2288371173
 20
101.654869125
 10
139.2111541749
 20
101.6555884023
 10
139.1905126943
 20
101.6562966435
 10
139.1404090222
 20
101.6576850946
  0
LINE
  5
395
100
AcDbEntity
  8
RACCORDO
100
AcDbLine
 62
250
  6
CONTINUOUS
 10
123.1504141953
 20
103.6120448347
 11
123.090688788
 21
103.6270656688
  0
LINE
  5
396
100
AcDbEntity
  8
RACCORDO
100
AcDbLine
 62
250
  6
CONTINUOUS
 10
123.2393489553
 20
103.58921103
 11
123.1504141953
 21
103.6120448347
  0
LWPOLYLINE
  5
397
100
AcDbEntity
  8
RACCORDO
100
AcDbPolyline
 62
250
  6
CONTINUOUS
 90
5
 70
0
 10
178.8100169967
 20
80.7619044789
 10
178.7688886647
 20
80.7835253527
 10
178.7307112514
 20
80.8110708204
 10
178.6961280486
 20
80.8440761527
 10
178.6657217459
 20
80.881984707
  0
LWPOLYLINE
  5
398
100
AcDbEntity
  8
RACCORDO
100
AcDbPolyline
 62
7
  6
CONTINUOUS
 90
3
 70
0
 10
178.39504449
 20
80.9867810067
 10
178.4411815072
 20
80.9599399239
 10
178.4980628035
 20
80.9251760838
  0
LWPOLYLINE
  5
399
100
AcDbEntity
  8
RACCORDO
100
AcDbPolyline
 62
7
  6
CONTINUOUS
 90
7
 70
0
 10
178.5988104332
 20
80.8615404365
 10
178.6438743319
 20
80.8338854666
 10
178.6876860114
 20
80.8088423566
 10
178.7316615284
 20
80.7866344368
 10
178.7768419265
 20
80.7676048259
 10
178.8237688388
 20
80.7522926904
 10
178.8313348907
 20
80.7506091927
  0
LINE
  5
39A
100
AcDbEntity
  8
RACCORDO
100
AcDbLine
 62
7
  6
CONTINUOUS
 10
138.5082889761
 20
100.9636832727
 11
138.5658609177
 21
101.0212552144
  0
LWPOLYLINE
  5
39B
100
AcDbEntity
  8
RACCORDO
100
AcDbPolyline
 62
7
  6
CONTINUOUS
 90
4
 70
0
 10
178.6015421082
 20
130.4405741522
 10
178.4974252136
 20
130.3748312013
 10
178.4385096938
 20
130.3388727327
 10
178.394994769
 20
130.3135937767
  0
LWPOLYLINE
  5
39C
100
AcDbEntity
  8
RACCORDO
100
AcDbPolyline
 62
7
  6
CONTINUOUS
 90
10
 70
0
 10
129.3307855816
 20
100.2941564676
 10
129.261973536
 20
100.2625372889
 10
129.2008374034
 20
100.2358063977
 10
129.1475040823
 20
100.2136946351
 10
129.1021131018
 20
100.1959981507
 10
129.0647111022
 20
100.1824836624
 10
129.0352515112
 20
100.1728915712
 10
129.0137404651
 20
100.1670617329
 10
129.000239559
 20
100.1649312918
 10
128.9947580199
 20
100.1664410537
  0
LINE
  5
39D
100
AcDbEntity
  8
RACCORDO
100
AcDbLine
 62
7
  6
CONTINUOUS
 10
128.8641388293
 20
100.4021566395
 11
128.8357432913
 21
100.3900724142
  0
LINE
  5
39E
100
AcDbEntity
  8
RACCORDO
100
AcDbLine
 62
7
  6
CONTINUOUS
 10
128.8357432913
 20
100.3900724142
 11
128.739636687
 21
100.3502024519
  0
LINE
  5
39F
100
AcDbEntity
  8
RACCORDO
100
AcDbLine
 62
250
  6
CONTINUOUS
 10
168.3052134137
 20
107.7284239581
 11
168.3651442378
 21
107.744412649
  0
LINE
  5
3A0
100
AcDbEntity
  8
RACCORDO
100
AcDbLine
 62
250
  6
CONTINUOUS
 10
168.2141448348
 20
107.7046574564
 11
168.3052134137
 21
107.7284239581
  0
LWPOLYLINE
  5
3A1
100
AcDbEntity
  8
RACCORDO
100
AcDbPolyline
 62
250
  6
CONTINUOUS
 90
3
 70
0
 10
168.090688788
 20
107.673339235
 10
168.121730214
 20
107.6811509966
 10
168.2141448348
 20
107.7046574564
  0
LWPOLYLINE
  5
3A2
100
AcDbEntity
  8
RACCORDO
100
AcDbPolyline
 62
7
  6
CONTINUOUS
 90
6
 70
0
 10
166.2452720752
 20
103.1920336811
 10
166.2422890788
 20
103.1915121687
 10
166.2350532245
 20
103.1910214295
 10
166.2235645123
 20
103.1905614634
 10
166.2073572065
 20
103.1901262973
 10
166.1868970428
 20
103.1897219044
  0
LINE
  5
3A3
100
AcDbEntity
  8
RACCORDO
100
AcDbLine
 62
7
  6
CONTINUOUS
 10
127.1443285552
 20
99.7338091391
 11
127.0712598551
 21
99.7250492047
  0
LINE
  5
3A4
100
AcDbEntity
  8
RACCORDO
100
AcDbLine
 62
7
  6
CONTINUOUS
 10
127.0712598551
 20
99.7250492047
 11
127.0054488273
 21
99.7176679065
  0
LWPOLYLINE
  5
3A5
100
AcDbEntity
  8
RACCORDO
100
AcDbPolyline
 62
7
  6
CONTINUOUS
 90
5
 70
0
 10
126.8532063204
 20
99.7017765002
 10
126.8356903739
 20
99.699851395
 10
126.8221410134
 20
99.698166482
 10
126.8130494503
 20
99.696721286
 10
126.8079307793
 20
99.6954690956
  0
LINE
  5
3A6
100
AcDbEntity
  8
RACCORDO
100
AcDbLine
 62
7
  6
CONTINUOUS
 10
127.0054488273
 20
99.7176679065
 11
126.9467899144
 21
99.7114351793
  0
LINE
  5
3A7
100
AcDbEntity
  8
RACCORDO
100
AcDbLine
 62
7
  6
CONTINUOUS
 10
126.9467899144
 20
99.7114351793
 11
126.8532063204
 21
99.7017765002
  0
LWPOLYLINE
  5
3A8
100
AcDbEntity
  8
RACCORDO
100
AcDbPolyline
 62
250
  6
CONTINUOUS
 90
13
 70
0
 10
137.9672357313
 20
101.0975807609
 10
138.034479981
 20
101.103975664
 10
138.1005805442
 20
101.1203403856
 10
138.1644275376
 20
101.1463939779
 10
138.2249452591
 20
101.1816898055
 10
138.2811252415
 20
101.2256315988
 10
138.3320392589
 20
101.2774904986
 10
138.3768692349
 20
101.3364528346
 10
138.4148122135
 20
101.4014847998
 10
138.4451643423
 20
101.4713169994
 10
138.4674585144
 20
101.5446877815
 10
138.4814107461
 20
101.6204095011
 10
138.4868509736
 20
101.6972152571
  0
LWPOLYLINE
  5
3A9
100
AcDbEntity
  8
RACCORDO
100
AcDbPolyline
 62
250
  6
CONTINUOUS
 90
10
 70
0
 10
173.5890183523
 20
102.5205385344
 10
173.6479735766
 20
102.5250662537
 10
173.7038866561
 20
102.5319885672
 10
173.7554588556
 20
102.5411446814
 10
173.8014922745
 20
102.5523219173
 10
173.8409176633
 20
102.5652606493
 10
173.8728192631
 20
102.5796603351
 10
173.8964560851
 20
102.5951864992
 10
173.9112791171
 20
102.6114785028
 10
173.9169440711
 20
102.6281579189
  0
LWPOLYLINE
  5
3AA
100
AcDbEntity
  8
RACCORDO
100
AcDbPolyline
 62
250
  6
CONTINUOUS
 90
19
 70
0
 10
116.0605740976
 20
100.5639269419
 10
116.1693628342
 20
100.5720811873
 10
116.2714597642
 20
100.5880028104
 10
116.3668648876
 20
100.611691811
 10
116.4556046063
 20
100.6442655579
 10
116.5376525184
 20
100.6846066825
 10
116.6129294184
 20
100.729363079
 10
116.6810263801
 20
100.7778743332
 10
116.7423523298
 20
100.8308008593
 10
116.79805484
 20
100.8867717944
 10
116.8482119139
 20
100.9449625943
 10
116.8927455485
 20
101.0061978032
 10
116.9325693068
 20
101.07158019
 10
116.9684725602
 20
101.1411691165
 10
116.9996659373
 20
101.214905221
 10
117.0246948875
 20
101.2937131873
 10
117.0430745603
 20
101.3779012433
 10
117.0552898061
 20
101.4671611611
 10
117.0613406248
 20
101.5614929406
  0
LWPOLYLINE
  5
3AB
100
AcDbEntity
  8
RACCORDO
100
AcDbPolyline
 62
250
  6
CONTINUOUS
 90
13
 70
0
 10
160.7889546851
 20
101.072099135
 10
160.8668155697
 20
101.0774459417
 10
160.9433509817
 20
101.0929204396
 10
161.0172565186
 20
101.1182594569
 10
161.0872725386
 20
101.1530317126
 10
161.152205453
 20
101.1966450602
 10
161.2109481251
 20
101.2483564873
 10
161.2624990642
 20
101.3072850219
 10
161.3059791981
 20
101.37242652
 10
161.3406468594
 20
101.4426705381
 10
161.3659107959
 20
101.5168197456
 10
161.3813401206
 20
101.5936104194
 10
161.3866715057
 20
101.6717336304
  0
LWPOLYLINE
  5
3AC
100
AcDbEntity
  8
RACCORDO
100
AcDbPolyline
 62
250
  6
CONTINUOUS
 90
13
 70
0
 10
174.5844265131
 20
103.1604927111
 10
174.5061378178
 20
103.1553385512
 10
174.4291881454
 20
103.1400119181
 10
174.3548936163
 20
103.1147749531
 10
174.2845249383
 20
103.0800593007
 10
174.2192856726
 20
103.0364587254
 10
174.1602916486
 20
102.9847189561
 10
174.1085518794
 20
102.9257249316
 10
174.0649513043
 20
102.8604856652
 10
174.0302356524
 20
102.790116987
 10
174.0049986882
 20
102.7158224585
 10
173.9896720556
 20
102.6388727874
 10
173.984517896
 20
102.560584094
  0
LINE
  5
3AD
100
AcDbEntity
  8
RACCORDO
100
AcDbLine
 62
250
  6
CONTINUOUS
 10
160.022380579
 20
101.0975807609
 11
159.358632034
 21
101.0573959475
  0
LINE
  5
3AE
100
AcDbEntity
  8
RACCORDO
100
AcDbLine
 62
250
  6
CONTINUOUS
 10
159.5027653368
 20
101.6972152571
 11
158.8492072882
 21
101.6576850946
  0
LWPOLYLINE
  5
3AF
100
AcDbEntity
  8
RACCORDO
100
AcDbPolyline
 62
250
  6
CONTINUOUS
 90
19
 70
0
 10
161.0605737408
 20
100.9636834152
 10
161.1255286076
 20
100.9670232541
 10
161.187254867
 20
100.9767473355
 10
161.2452202234
 20
100.9919932325
 10
161.2988919178
 20
101.011833612
 10
161.3482015801
 20
101.0354641984
 10
161.3934630831
 20
101.0623560843
 10
161.4344606627
 20
101.091751111
 10
161.4713514116
 20
101.1231227569
 10
161.5049095864
 20
101.1566529255
 10
161.5349386628
 20
101.1917783257
 10
161.5616054797
 20
101.2283168789
 10
161.5858025895
 20
101.2674644096
 10
161.6073171479
 20
101.3092549906
 10
161.6257403355
 20
101.3533636706
 10
161.641088853
 20
101.4007399072
 10
161.6528556219
 20
101.4516025064
 10
161.6603118464
 20
101.5053080913
 10
161.6628626647
 20
101.5614929729
  0
LWPOLYLINE
  5
3B0
100
AcDbEntity
  8
RACCORDO
100
AcDbPolyline
 62
250
  6
CONTINUOUS
 90
19
 70
0
 10
116.0605737408
 20
100.9636834152
 10
116.1255286076
 20
100.9670232541
 10
116.187254867
 20
100.9767473355
 10
116.2452202234
 20
100.9919932325
 10
116.2988919178
 20
101.011833612
 10
116.3482015801
 20
101.0354641984
 10
116.3934630831
 20
101.0623560843
 10
116.4344606627
 20
101.091751111
 10
116.4713514116
 20
101.1231227569
 10
116.5049095864
 20
101.1566529255
 10
116.5349386628
 20
101.1917783257
 10
116.5616054797
 20
101.2283168789
 10
116.5858025895
 20
101.2674644096
 10
116.6073171479
 20
101.3092549906
 10
116.6257403355
 20
101.3533636706
 10
116.641088853
 20
101.4007399072
 10
116.6528556219
 20
101.4516025064
 10
116.6603118464
 20
101.5053080913
 10
116.6628626647
 20
101.5614929729
  0
LWPOLYLINE
  5
3B1
100
AcDbEntity
  8
RACCORDO
100
AcDbPolyline
 62
250
  6
CONTINUOUS
 90
8
 70
0
 10
158.800985827
 20
101.6563573279
 10
158.7805802805
 20
101.6556669611
 10
158.7627909891
 20
101.6549576634
 10
158.7476957351
 20
101.6542307102
 10
158.7353584029
 20
101.6534899274
 10
158.7258721248
 20
101.6527365904
 10
158.7193385376
 20
101.6519694238
 10
158.7158418649
 20
101.6511884276
  0
LWPOLYLINE
  5
3B2
100
AcDbEntity
  8
RACCORDO
100
AcDbPolyline
 62
250
  6
CONTINUOUS
 90
8
 70
0
 10
113.800985827
 20
101.6563573279
 10
113.7805802805
 20
101.6556669611
 10
113.7627909891
 20
101.6549576634
 10
113.7476957351
 20
101.6542307102
 10
113.7353584029
 20
101.6534899274
 10
113.7258721248
 20
101.6527365904
 10
113.7193385376
 20
101.6519694238
 10
113.7158418649
 20
101.6511884276
  0
LWPOLYLINE
  5
3B3
100
AcDbEntity
  8
RACCORDO
100
AcDbPolyline
 62
250
  6
CONTINUOUS
 90
10
 70
0
 10
182.5194466993
 20
101.0920613595
 10
182.4622687799
 20
101.0904421283
 10
182.4108637995
 20
101.0886641001
 10
182.3646741315
 20
101.0867499015
 10
182.3233391158
 20
101.0847200844
 10
182.2872194126
 20
101.0825540971
 10
182.2568393765
 20
101.0802129112
 10
182.2323737924
 20
101.0776835176
 10
182.2136478753
 20
101.0749789255
 10
182.2006616253
 20
101.072099135
  0
LWPOLYLINE
  5
3B4
100
AcDbEntity
  8
RACCORDO
100
AcDbPolyline
 62
250
  6
CONTINUOUS
 90
10
 70
0
 10
137.5194466993
 20
101.0920613595
 10
137.4622687799
 20
101.0904421283
 10
137.4108637995
 20
101.0886641001
 10
137.3646741315
 20
101.0867499015
 10
137.3233391158
 20
101.0847200844
 10
137.2872194126
 20
101.0825540971
 10
137.2568393765
 20
101.0802129112
 10
137.2323737924
 20
101.0776835176
 10
137.2136478753
 20
101.0749789255
 10
137.2006616253
 20
101.072099135
  0
LWPOLYLINE
  5
3B5
100
AcDbEntity
  8
RACCORDO
100
AcDbPolyline
 62
250
  6
CONTINUOUS
 90
7
 70
0
 10
181.8899667045
 20
101.6863831423
 10
181.8180187407
 20
101.6843544814
 10
181.7555595539
 20
101.6821903076
 10
181.7012558518
 20
101.6798501797
 10
181.6562547639
 20
101.6773206176
 10
181.6229360678
 20
101.6746151014
 10
181.6029448064
 20
101.6717336312
  0
LWPOLYLINE
  5
3B6
100
AcDbEntity
  8
RACCORDO
100
AcDbPolyline
 62
250
  6
CONTINUOUS
 90
7
 70
0
 10
136.8899667045
 20
101.6863831423
 10
136.8180187407
 20
101.6843544814
 10
136.7555595539
 20
101.6821903076
 10
136.7012558518
 20
101.6798501797
 10
136.6562547639
 20
101.6773206176
 10
136.6229360678
 20
101.6746151014
 10
136.6029448064
 20
101.6717336312
  0
LINE
  5
3B7
100
AcDbEntity
  8
RACCORDO
100
AcDbLine
 62
250
  6
CONTINUOUS
 10
158.8492072882
 20
101.6576850946
 11
158.800985827
 21
101.6563573279
  0
LINE
  5
3B8
100
AcDbEntity
  8
RACCORDO
100
AcDbLine
 62
250
  6
CONTINUOUS
 10
113.8492072882
 20
101.6576850946
 11
113.800985827
 21
101.6563573279
  0
LINE
  5
3B9
100
AcDbEntity
  8
RACCORDO
100
AcDbLine
 62
250
  6
CONTINUOUS
 10
182.0608273372
 20
101.690076659
 11
181.8899667045
 21
101.6863831423
  0
LINE
  5
3BA
100
AcDbEntity
  8
RACCORDO
100
AcDbLine
 62
250
  6
CONTINUOUS
 10
137.0608273372
 20
101.690076659
 11
136.8899667045
 21
101.6863831423
  0
LINE
  5
3BB
100
AcDbEntity
  8
RACCORDO
100
AcDbLine
 62
250
  6
CONTINUOUS
 10
182.6527986947
 20
101.0948687897
 11
182.5194466993
 21
101.0920613595
  0
LINE
  5
3BC
100
AcDbEntity
  8
RACCORDO
100
AcDbLine
 62
250
  6
CONTINUOUS
 10
137.6527986947
 20
101.0948687897
 11
137.5194466993
 21
101.0920613595
  0
LINE
  5
3BD
100
AcDbEntity
  8
RACCORDO
100
AcDbLine
 62
250
  6
CONTINUOUS
 10
166.2812761222
 20
103.1543342393
 11
166.0110499757
 21
103.1502541064
  0
LINE
  5
3BE
100
AcDbEntity
  8
RACCORDO
100
AcDbLine
 62
250
  6
CONTINUOUS
 10
182.2722452715
 20
101.6931792651
 11
182.0608273372
 21
101.690076659
  0
LINE
  5
3BF
100
AcDbEntity
  8
RACCORDO
100
AcDbLine
 62
250
  6
CONTINUOUS
 10
137.2722452715
 20
101.6931792651
 11
137.0608273372
 21
101.690076659
  0
LINE
  5
3C0
100
AcDbEntity
  8
RACCORDO
100
AcDbLine
 62
7
  6
CONTINUOUS
 10
183.5658609177
 20
101.0212552144
 11
183.7026994323
 21
101.0229944484
  0
LINE
  5
3C1
100
AcDbEntity
  8
RACCORDO
100
AcDbLine
 62
7
  6
CONTINUOUS
 10
138.5658609177
 20
101.0212552144
 11
138.7026994323
 21
101.0229944484
  0
LWPOLYLINE
  5
3C2
100
AcDbEntity
  8
RACCORDO
100
AcDbPolyline
 62
7
  6
CONTINUOUS
 90
4
 70
0
 10
166.1868970428
 20
103.1897219044
 10
166.137875497
 20
103.1890651705
 10
166.1093141149
 20
103.1888128295
 10
166.0778970815
 20
103.1886091814
  0
LINE
  5
3C3
100
AcDbEntity
  8
RACCORDO
100
AcDbLine
 62
250
  6
CONTINUOUS
 10
182.8027144999
 20
101.0967388121
 11
182.6527986947
 21
101.0948687897
  0
LINE
  5
3C4
100
AcDbEntity
  8
RACCORDO
100
AcDbLine
 62
250
  6
CONTINUOUS
 10
137.8027144999
 20
101.0967388121
 11
137.6527986947
 21
101.0948687897
  0
LWPOLYLINE
  5
3C5
100
AcDbEntity
  8
RACCORDO
100
AcDbPolyline
 62
250
  6
CONTINUOUS
 90
19
 70
0
 10
174.5168526881
 20
103.228066536
 10
174.4952851106
 20
103.2278765614
 10
174.4731067821
 20
103.2268970097
 10
174.4503509644
 20
103.2250610705
 10
174.426916506
 20
103.2222846957
 10
174.402988853
 20
103.2185066234
 10
174.3790311034
 20
103.2137428686
 10
174.3551190793
 20
103.2079867059
 10
174.3312656283
 20
103.2012159319
 10
174.3078226857
 20
103.1935112209
 10
174.2848344993
 20
103.1849009857
 10
174.2623243408
 20
103.1754084623
 10
174.2405859327
 20
103.1651758973
 10
174.2196164154
 20
103.1542483093
 10
174.1994445664
 20
103.1426932332
 10
174.1803724811
 20
103.1307508022
 10
174.1624786169
 20
103.1185714863
 10
174.1456408655
 20
103.1061777754
 10
174.1298342029
 20
103.0936455058
  0
LINE
  5
3C6
100
AcDbEntity
  8
RACCORDO
100
AcDbLine
 62
250
  6
CONTINUOUS
 10
182.5225944724
 20
101.6955772755
 11
182.2722452715
 21
101.6931792651
  0
LINE
  5
3C7
100
AcDbEntity
  8
RACCORDO
100
AcDbLine
 62
250
  6
CONTINUOUS
 10
137.5225944724
 20
101.6955772755
 11
137.2722452715
 21
101.6931792651
  0
LWPOLYLINE
  5
3C8
100
AcDbEntity
  8
RACCORDO
100
AcDbPolyline
 62
250
  6
CONTINUOUS
 90
3
 70
0
 10
166.729442752
 20
103.1583141118
 10
166.6423407886
 20
103.1577443568
 10
166.2812761222
 20
103.1543342393
  0
LINE
  5
3C9
100
AcDbEntity
  8
RACCORDO
100
AcDbLine
 62
250
  6
CONTINUOUS
 10
182.9672357313
 20
101.0975807609
 11
182.8027144999
 21
101.0967388121
  0
LINE
  5
3CA
100
AcDbEntity
  8
RACCORDO
100
AcDbLine
 62
250
  6
CONTINUOUS
 10
137.9672357313
 20
101.0975807609
 11
137.8027144999
 21
101.0967388121
  0
LINE
  5
3CB
100
AcDbEntity
  8
RACCORDO
100
AcDbLine
 62
250
  6
CONTINUOUS
 10
182.944449492
 20
101.697215279
 11
182.5225944724
 21
101.6955772755
  0
LINE
  5
3CC
100
AcDbEntity
  8
RACCORDO
100
AcDbLine
 62
250
  6
CONTINUOUS
 10
137.944449492
 20
101.697215279
 11
137.5225944724
 21
101.6955772755
  0
LINE
  5
3CD
100
AcDbEntity
  8
0
100
AcDbLine
 62
7
  6
CONTINUOUS
 10
173.9551323404
 20
100.3502024519
 11
173.4000675524
 21
100.3502024519
  0
LINE
  5
3CE
100
AcDbEntity
  8
0
100
AcDbLine
 62
7
  6
CONTINUOUS
 10
169.5895510975
 20
100.3502024519
 11
169.0344809346
 21
100.3502024519
  0
LINE
  5
3CF
100
AcDbEntity
  8
0
100
AcDbLine
 62
7
  6
CONTINUOUS
 10
128.9551323404
 20
100.3502024519
 11
128.4000675524
 21
100.3502024519
  0
LINE
  5
3D0
100
AcDbEntity
  8
0
100
AcDbLine
 62
7
  6
CONTINUOUS
 10
124.5895510975
 20
100.3502024519
 11
124.0344809346
 21
100.3502024519
  0
LINE
  5
3D1
100
AcDbEntity
  8
RACCORDO
100
AcDbLine
 62
250
  6
CONTINUOUS
 10
114.4948081552
 20
100.5639269419
 11
116.0605740976
 21
100.5639269419
  0
LINE
  5
3D2
100
AcDbEntity
  8
RACCORDO
100
AcDbLine
 62
250
  6
CONTINUOUS
 10
136.9290422128
 20
100.5639269419
 11
138.4948081552
 21
100.5639269419
  0
LINE
  5
3D3
100
AcDbEntity
  8
RACCORDO
100
AcDbLine
 62
250
  6
CONTINUOUS
 10
159.4948081552
 20
100.5639269419
 11
161.0605740976
 21
100.5639269419
  0
LINE
  5
3D4
100
AcDbEntity
  8
RACCORDO
100
AcDbLine
 62
250
  6
CONTINUOUS
 10
181.9290422128
 20
100.5639269419
 11
183.4948081552
 21
100.5639269419
  0
LINE
  5
3D5
100
AcDbEntity
  8
RACCORDO
100
AcDbLine
 62
250
  6
CONTINUOUS
 10
114.4813273343
 20
100.9636832727
 11
116.0605740976
 21
100.9636832727
  0
LINE
  5
3D6
100
AcDbEntity
  8
RACCORDO
100
AcDbLine
 62
250
  6
CONTINUOUS
 10
136.9290422128
 20
100.9636832727
 11
138.5082889761
 21
100.9636832727
  0
LINE
  5
3D7
100
AcDbEntity
  8
RACCORDO
100
AcDbLine
 62
250
  6
CONTINUOUS
 10
159.4813273343
 20
100.9636832727
 11
161.0605740976
 21
100.9636832727
  0
LINE
  5
3D8
100
AcDbEntity
  8
RACCORDO
100
AcDbLine
 62
250
  6
CONTINUOUS
 10
181.9290422128
 20
100.9636832727
 11
183.5082889761
 21
100.9636832727
  0
LINE
  5
3D9
100
AcDbEntity
  8
RACCORDO
100
AcDbLine
 62
250
  6
CONTINUOUS
 10
162.0613406248
 20
101.5614929406
 11
161.6628627456
 21
101.5614929406
  0
LINE
  5
3DA
100
AcDbEntity
  8
RACCORDO
100
AcDbLine
 62
250
  6
CONTINUOUS
 10
117.0613406248
 20
101.5614929406
 11
116.6628627456
 21
101.5614929406
  0
LINE
  5
3DB
100
AcDbEntity
  8
RACCORDO
100
AcDbLine
 62
250
  6
CONTINUOUS
 10
135.9282756856
 20
101.5614929406
 11
136.3267535648
 21
101.5614929406
  0
LINE
  5
3DC
100
AcDbEntity
  8
RACCORDO
100
AcDbLine
 62
250
  6
CONTINUOUS
 10
180.9282756856
 20
101.5614929406
 11
181.3267535648
 21
101.5614929406
  0
LINE
  5
3DD
100
AcDbEntity
  8
RACCORDO
100
AcDbLine
 62
250
  6
CONTINUOUS
 10
174.5844265131
 20
101.6415411658
 11
173.984517896
 21
101.6415411658
  0
LINE
  5
3DE
100
AcDbEntity
  8
RACCORDO
100
AcDbLine
 62
250
  6
CONTINUOUS
 10
129.5844265131
 20
101.6415411658
 11
128.984517896
 21
101.6415411658
  0
LINE
  5
3DF
100
AcDbEntity
  8
RACCORDO
100
AcDbLine
 62
250
  6
CONTINUOUS
 10
123.4051897973
 20
101.6415411658
 11
124.0050984144
 21
101.6415411658
  0
LINE
  5
3E0
100
AcDbEntity
  8
RACCORDO
100
AcDbLine
 62
250
  6
CONTINUOUS
 10
168.4051897973
 20
101.6415411658
 11
169.0050984144
 21
101.6415411658
  0
LINE
  5
3E1
100
AcDbEntity
  8
RACCORDO
100
AcDbLine
 62
250
  6
CONTINUOUS
 10
183.4868509736
 20
101.6972152571
 11
182.944449492
 21
101.6972152571
  0
LINE
  5
3E2
100
AcDbEntity
  8
RACCORDO
100
AcDbLine
 62
250
  6
CONTINUOUS
 10
138.4868509736
 20
101.6972152571
 11
137.944449492
 21
101.6972152571
  0
LINE
  5
3E3
100
AcDbEntity
  8
RACCORDO
100
AcDbLine
 62
250
  6
CONTINUOUS
 10
169.4716713721
 20
102.2460830847
 11
169.071732294
 21
102.2460830847
  0
LINE
  5
3E4
100
AcDbEntity
  8
RACCORDO
100
AcDbLine
 62
250
  6
CONTINUOUS
 10
124.4716713721
 20
102.2460830847
 11
124.071732294
 21
102.2460830847
  0
LINE
  5
3E5
100
AcDbEntity
  8
RACCORDO
100
AcDbLine
 62
250
  6
CONTINUOUS
 10
128.5179449383
 20
102.2460830847
 11
128.9178840163
 21
102.2460830846
  0
LINE
  5
3E6
100
AcDbEntity
  8
RACCORDO
100
AcDbLine
 62
250
  6
CONTINUOUS
 10
173.5179449383
 20
102.2460830847
 11
173.9178840163
 21
102.2460830846
  0
LINE
  5
3E7
100
AcDbEntity
  8
RACCORDO
100
AcDbLine
 62
250
  6
CONTINUOUS
 10
175.5034697103
 20
102.560584094
 11
173.984517896
 21
102.560584094
  0
LINE
  5
3E8
100
AcDbEntity
  8
RACCORDO
100
AcDbLine
 62
250
  6
CONTINUOUS
 10
130.5034697103
 20
102.560584094
 11
128.984517896
 21
102.560584094
  0
LINE
  5
3E9
100
AcDbEntity
  8
RACCORDO
100
AcDbLine
 62
250
  6
CONTINUOUS
 10
122.4861465933
 20
102.560584094
 11
124.0050984144
 21
102.560584094
  0
LINE
  5
3EA
100
AcDbEntity
  8
RACCORDO
100
AcDbLine
 62
250
  6
CONTINUOUS
 10
167.4861465933
 20
102.560584094
 11
169.0050984144
 21
102.560584094
  0
LINE
  5
3EB
100
AcDbEntity
  8
RACCORDO
100
AcDbLine
 62
250
  6
CONTINUOUS
 10
115.3263845331
 20
101.6963831689
 11
114.5027653368
 21
101.6972152571
  0
LINE
  5
3EC
100
AcDbEntity
  8
RACCORDO
100
AcDbLine
 62
250
  6
CONTINUOUS
 10
160.3263845331
 20
101.6963831689
 11
159.5027653368
 21
101.6972152571
  0
LINE
  5
3ED
100
AcDbEntity
  8
RACCORDO
100
AcDbLine
 62
250
  6
CONTINUOUS
 10
115.1836735384
 20
101.0967496704
 11
115.022380579
 21
101.0975807609
  0
LINE
  5
3EE
100
AcDbEntity
  8
RACCORDO
100
AcDbLine
 62
250
  6
CONTINUOUS
 10
160.1836735384
 20
101.0967496704
 11
160.022380579
 21
101.0975807609
  0
LINE
  5
3EF
100
AcDbEntity
  8
RACCORDO
100
AcDbLine
 62
250
  6
CONTINUOUS
 10
115.5760299929
 20
101.6947106599
 11
115.3263845331
 21
101.6963831689
  0
LINE
  5
3F0
100
AcDbEntity
  8
RACCORDO
100
AcDbLine
 62
250
  6
CONTINUOUS
 10
160.5760299929
 20
101.6947106599
 11
160.3263845331
 21
101.6963831689
  0
LINE
  5
3F1
100
AcDbEntity
  8
RACCORDO
100
AcDbLine
 62
250
  6
CONTINUOUS
 10
131.620066176
 20
103.1553499559
 11
131.2637832923
 21
103.158291646
  0
LWPOLYLINE
  5
3F2
100
AcDbEntity
  8
RACCORDO
100
AcDbPolyline
 62
7
  6
CONTINUOUS
 90
8
 70
0
 10
131.8802512449
 20
103.1888420633
 10
131.8260350826
 20
103.1893662044
 10
131.8027260608
 20
103.1897180066
 10
131.7822625002
 20
103.1901243484
 10
131.7660517975
 20
103.1905614634
 10
131.7545630853
 20
103.1910214294
 10
131.7473272312
 20
103.1915121687
 10
131.7443442351
 20
103.1920336811
  0
LINE
  5
3F3
100
AcDbEntity
  8
RACCORDO
100
AcDbLine
 62
7
  6
CONTINUOUS
 10
114.2869168781
 20
101.0229944484
 11
114.4237553927
 21
101.0212552144
  0
LINE
  5
3F4
100
AcDbEntity
  8
RACCORDO
100
AcDbLine
 62
7
  6
CONTINUOUS
 10
159.2869168781
 20
101.0229944484
 11
159.4237553927
 21
101.0212552144
  0
LINE
  5
3F5
100
AcDbEntity
  8
RACCORDO
100
AcDbLine
 62
250
  6
CONTINUOUS
 10
115.7926174935
 20
101.6922173309
 11
115.5760299929
 21
101.6947106599
  0
LINE
  5
3F6
100
AcDbEntity
  8
RACCORDO
100
AcDbLine
 62
250
  6
CONTINUOUS
 10
160.7926174935
 20
101.6922173309
 11
160.5760299929
 21
101.6947106599
  0
LINE
  5
3F7
100
AcDbEntity
  8
RACCORDO
100
AcDbLine
 62
250
  6
CONTINUOUS
 10
115.3256817992
 20
101.0950766178
 11
115.1836735384
 21
101.0967496704
  0
LINE
  5
3F8
100
AcDbEntity
  8
RACCORDO
100
AcDbLine
 62
250
  6
CONTINUOUS
 10
160.3256817992
 20
101.0950766178
 11
160.1836735384
 21
101.0967496704
  0
LWPOLYLINE
  5
3F9
100
AcDbEntity
  8
RACCORDO
100
AcDbPolyline
 62
250
  6
CONTINUOUS
 90
3
 70
0
 10
131.9785668848
 20
103.1502540981
 10
131.8896629674
 20
103.1517515405
 10
131.620066176
 20
103.1553499559
  0
LINE
  5
3FA
100
AcDbEntity
  8
RACCORDO
100
AcDbLine
 62
250
  6
CONTINUOUS
 10
138.6207937799
 20
101.0580505984
 11
137.9672357313
 21
101.0975807609
  0
LINE
  5
3FB
100
AcDbEntity
  8
RACCORDO
100
AcDbLine
 62
250
  6
CONTINUOUS
 10
139.1404090222
 20
101.6576850946
 11
138.4868509736
 21
101.6972152571
  0
LWPOLYLINE
  5
3FC
100
AcDbEntity
  8
RACCORDO
100
AcDbPolyline
 62
250
  6
CONTINUOUS
 90
10
 70
0
 10
138.6207937799
 20
101.0580505984
 10
138.6314024906
 20
101.0573614834
 10
138.6408351781
 20
101.0566628081
 10
138.6490918423
 20
101.0559545723
 10
138.6561649051
 20
101.0552349414
 10
138.6620619446
 20
101.0545057501
 10
138.6668056954
 20
101.053772503
 10
138.6704037355
 20
101.053037035
 10
138.6728484867
 20
101.0522975111
 10
138.6741399492
 20
101.0515539314
  0
LWPOLYLINE
  5
3FD
100
AcDbEntity
  8
RACCORDO
100
AcDbPolyline
 62
250
  6
CONTINUOUS
 90
13
 70
0
 10
137.2006616253
 20
101.072099135
 10
137.1227937779
 20
101.0774468811
 10
137.0462531233
 20
101.0929237518
 10
136.9723442334
 20
101.1182659567
 10
136.9023268241
 20
101.1530415589
 10
136.8373942838
 20
101.196657837
 10
136.7786533337
 20
101.2483713882
 10
136.7271051644
 20
101.3073007979
 10
136.683628372
 20
101.3724416633
 10
136.648963983
 20
101.4426837128
 10
136.6237028235
 20
101.5168297289
 10
136.6082754489
 20
101.5936159542
 10
136.6029448064
 20
101.6717336312
  0
LWPOLYLINE
  5
3FE
100
AcDbEntity
  8
RACCORDO
100
AcDbPolyline
 62
250
  6
CONTINUOUS
 90
6
 70
0
 10
131.8508541395
 20
102.8142250255
 10
131.8435008137
 20
102.8147415639
 10
131.8273389117
 20
102.813952433
 10
131.8027292283
 20
102.8117394387
 10
131.7696480234
 20
102.8076865337
 10
131.6823029233
 20
102.795646414
  0
LWPOLYLINE
  5
3FF
100
AcDbEntity
  8
RACCORDO
100
AcDbPolyline
 62
250
  6
CONTINUOUS
 90
10
 70
0
 10
124.4005979572
 20
102.5205385371
 10
124.3416417171
 20
102.5250677316
 10
124.285728042
 20
102.531991096
 10
124.2341556536
 20
102.541147886
 10
124.1881225644
 20
102.5523254243
 10
124.1486977001
 20
102.5652641171
 10
124.1167963485
 20
102.5796635501
 10
124.0931595669
 20
102.595189308
 10
124.0783366829
 20
102.6114806758
 10
124.0726721653
 20
102.6281591411
  0
LWPOLYLINE
  5
400
100
AcDbEntity
  8
RACCORDO
100
AcDbPolyline
 62
250
  6
CONTINUOUS
 90
13
 70
0
 10
160.022380579
 20
101.0975807609
 10
159.9551383505
 20
101.103975319
 10
159.8890398257
 20
101.1203390604
 10
159.8251947732
 20
101.1463910178
 10
159.7646791237
 20
101.1816843243
 10
159.7085008161
 20
101.2256228798
 10
159.6575870819
 20
101.2774788903
 10
159.612755973
 20
101.3364395065
 10
159.5748110861
 20
101.4014709934
 10
159.5444566637
 20
101.4713042198
 10
159.5221602533
 20
101.5446776682
 10
159.5082063023
 20
101.6204036908
 10
159.5027653368
 20
101.6972152571
  0
LINE
  5
401
100
AcDbEntity
  8
RACCORDO
100
AcDbLine
 62
7
  6
CONTINUOUS
 10
171.0147436565
 20
99.7143837083
 11
170.9523276078
 21
99.7211796395
  0
LWPOLYLINE
  5
402
100
AcDbEntity
  8
RACCORDO
100
AcDbPolyline
 62
7
  6
CONTINUOUS
 90
9
 70
0
 10
170.9523276078
 20
99.7211796395
 10
170.8830621921
 20
99.7292091532
 10
170.8455073336
 20
99.7337818832
 10
170.8058271719
 20
99.7387987318
 10
170.7641239376
 20
99.7442838889
 10
170.7204278286
 20
99.7502391534
 10
170.6747531078
 20
99.7566954782
 10
170.6270991601
 20
99.7637135217
 10
170.577474169
 20
99.7713421577
  0
LWPOLYLINE
  5
403
100
AcDbEntity
  8
RACCORDO
100
AcDbPolyline
 62
250
  6
CONTINUOUS
 90
9
 70
0
 10
113.7158418649
 20
109.6492164761
 10
113.7193372389
 20
109.6484356763
 10
113.7258684721
 20
109.6476686558
 10
113.7353519587
 20
109.6469154148
 10
113.7476866685
 20
109.6461746764
 10
113.7627800553
 20
109.6454477173
 10
113.7805687966
 20
109.644738368
 10
113.8009756485
 20
109.6440479053
 10
113.8492072882
 20
109.6427198091
  0
LINE
  5
404
100
AcDbEntity
  8
RACCORDO
100
AcDbLine
 62
250
  6
CONTINUOUS
 10
129.8392021152
 20
107.6883600691
 11
129.8989275225
 21
107.673339235
  0
LINE
  5
405
100
AcDbEntity
  8
RACCORDO
100
AcDbLine
 62
250
  6
CONTINUOUS
 10
129.7502673552
 20
107.7111938738
 11
129.8392021152
 21
107.6883600691
  0
LINE
  5
406
100
AcDbEntity
  8
RACCORDO
100
AcDbLine
 62
250
  6
CONTINUOUS
 10
129.6766926388
 20
107.7304923836
 11
129.7502673552
 21
107.7111938738
  0
LINE
  5
407
100
AcDbEntity
  8
RACCORDO
100
AcDbLine
 62
250
  6
CONTINUOUS
 10
129.6244720726
 20
107.744412649
 11
129.6766926388
 21
107.7304923836
  0
LINE
  5
408
100
AcDbEntity
  8
RACCORDO
100
AcDbLine
 62
7
  6
CONTINUOUS
 10
128.739636687
 20
110.9502024519
 11
128.8357432913
 21
110.9103324895
  0
LWPOLYLINE
  5
409
100
AcDbEntity
  8
RACCORDO
100
AcDbPolyline
 62
7
  6
CONTINUOUS
 90
5
 70
0
 10
128.8357432913
 20
110.9103324895
 10
128.8641388293
 20
110.8982482642
 10
128.8868014327
 20
110.8888351413
 10
128.9034371769
 20
110.8823436026
 10
128.913829935
 20
110.8785231662
  0
LINE
  5
40A
100
AcDbEntity
  8
RACCORDO
100
AcDbLine
 62
7
  6
CONTINUOUS
 10
178.4980628035
 20
80.9251760838
 11
178.5988104332
 21
80.8615404365
  0
LINE
  5
40B
100
AcDbEntity
  8
RACCORDO
100
AcDbLine
 62
7
  6
CONTINUOUS
 10
138.5082889761
 20
110.336721631
 11
138.5658609177
 21
110.2791496894
  0
LINE
  5
40C
100
AcDbEntity
  8
RACCORDO
100
AcDbLine
 62
250
  6
CONTINUOUS
 10
133.3950444963
 20
80.9867810031
 11
133.4434439781
 21
81.0722881007
  0
LINE
  5
40D
100
AcDbEntity
  8
RACCORDO
100
AcDbLine
 62
250
  6
CONTINUOUS
 10
119.5461721978
 20
81.0722879865
 11
119.5086379117
 21
81.0404568646
  0
LINE
  5
40E
100
AcDbEntity
  8
RACCORDO
100
AcDbLine
 62
250
  6
CONTINUOUS
 10
178.4434441126
 20
130.2281169173
 11
178.4809783987
 21
130.2599480392
  0
LWPOLYLINE
  5
40F
100
AcDbEntity
  8
RACCORDO
100
AcDbPolyline
 62
250
  6
CONTINUOUS
 90
20
 70
0
 10
178.4809783987
 20
130.2599480392
 10
178.4974603598
 20
130.2736952481
 10
178.5051508805
 20
130.2800025233
 10
178.5124843664
 20
130.2859172397
 10
178.5194768258
 20
130.29146951
 10
178.5261320046
 20
130.2966430784
 10
178.5324604485
 20
130.3014304504
 10
178.5384876579
 20
130.3058769886
 10
178.5442165072
 20
130.3099718052
 10
178.5496581676
 20
130.3137069262
 10
178.554848754
 20
130.3171347082
 10
178.5597930793
 20
130.3202516344
 10
178.5644983236
 20
130.3230472619
 10
178.5690016192
 20
130.3255662774
 10
178.5733079389
 20
130.3278097416
 10
178.5774217713
 20
130.3297666242
 10
178.5813769382
 20
130.3314658182
 10
178.5851783079
 20
130.332911685
 10
178.5888280182
 20
130.3340929152
 10
178.5923535061
 20
130.3350167273
  0
LWPOLYLINE
  5
410
100
AcDbEntity
  8
RACCORDO
100
AcDbPolyline
 62
250
  6
CONTINUOUS
 90
20
 70
0
 10
119.5086379117
 20
81.0404568646
 10
119.4921559506
 20
81.0267096556
 10
119.4844654299
 20
81.0204023805
 10
119.477131944
 20
81.014487664
 10
119.4701394845
 20
81.0089353937
 10
119.4634843057
 20
81.0037618253
 10
119.4571558619
 20
80.9989744533
 10
119.4511286525
 20
80.9945279151
 10
119.4453998031
 20
80.9904330985
 10
119.4399581428
 20
80.9866979776
 10
119.4347675564
 20
80.9832701955
 10
119.429823231
 20
80.9801532694
 10
119.4251179867
 20
80.9773576418
 10
119.4206146911
 20
80.9748386263
 10
119.4163083715
 20
80.9725951621
 10
119.412194539
 20
80.9706382795
 10
119.4082393722
 20
80.9689390855
 10
119.4044380025
 20
80.9674932187
 10
119.4007882922
 20
80.9663119885
 10
119.3972628043
 20
80.9653881764
  0
LINE
  5
411
100
AcDbEntity
  8
RACCORDO
100
AcDbLine
 62
250
  6
CONTINUOUS
 10
136.6029448064
 20
101.6717336312
 11
136.3267535648
 21
101.5614929406
  0
LINE
  5
412
100
AcDbEntity
  8
RACCORDO
100
AcDbLine
 62
250
  6
CONTINUOUS
 10
137.2006616253
 20
101.072099135
 11
136.9290422128
 21
100.9636832727
  0
LINE
  5
413
100
AcDbEntity
  8
RACCORDO
100
AcDbLine
 62
250
  6
CONTINUOUS
 10
160.7889546851
 20
110.2283057687
 11
161.0605740976
 21
110.336721631
  0
LWPOLYLINE
  5
414
100
AcDbEntity
  8
RACCORDO
100
AcDbPolyline
 62
7
  6
CONTINUOUS
 90
10
 70
0
 10
123.9948585239
 20
100.1664410157
 10
123.9895828359
 20
100.1648715635
 10
123.9762104828
 20
100.1669635046
 10
123.9547505351
 20
100.1727760303
 10
123.9252302593
 20
100.18238252
 10
123.8876904802
 20
100.1959351024
 10
123.8421879023
 20
100.2136644734
 10
123.7888033892
 20
100.2357930622
 10
123.7276420806
 20
100.262534262
 10
123.6588307288
 20
100.2941564676
  0
LWPOLYLINE
  5
415
100
AcDbEntity
  8
RACCORDO
100
AcDbPolyline
 62
7
  6
CONTINUOUS
 90
5
 70
0
 10
169.071732294
 20
110.8773738321
 10
169.0757863753
 20
110.8785231662
 10
169.0861791335
 20
110.8823436026
 10
169.1028148777
 20
110.8888351413
 10
169.125477481
 20
110.8982482642
  0
LINE
  5
416
100
AcDbEntity
  8
RACCORDO
100
AcDbLine
 62
250
  6
CONTINUOUS
 10
167.4380448537
 20
108.7283429822
 11
167.4861468691
 21
108.7398208097
  0
LINE
  5
417
100
AcDbEntity
  8
RACCORDO
100
AcDbLine
 62
250
  6
CONTINUOUS
 10
167.3383398966
 20
108.7053521494
 11
167.4380448537
 21
108.7283429822
  0
LINE
  5
418
100
AcDbEntity
  8
RACCORDO
100
AcDbLine
 62
250
  6
CONTINUOUS
 10
167.2342816246
 20
108.6817622387
 11
167.3383398966
 21
108.7053521494
  0
LWPOLYLINE
  5
419
100
AcDbEntity
  8
0
100
AcDbPolyline
 62
250
  6
CONTINUOUS
 90
5
 70
0
 10
124.7739270198
 20
100.3211717597
 10
124.773817786
 20
100.321148076
 10
124.772624137
 20
100.32094209
 10
124.769993118
 20
100.3205360768
 10
124.7659264863
 20
100.3198885776
  0
LWPOLYLINE
  5
41A
100
AcDbEntity
  8
0
100
AcDbPolyline
 62
250
  6
CONTINUOUS
 90
5
 70
0
 10
173.2156892905
 20
110.979233144
 10
173.2157985244
 20
110.9792568277
 10
173.2169921734
 20
110.9794628137
 10
173.2196231924
 20
110.9798688269
 10
173.223689824
 20
110.9805163262
  0
LINE
  5
41B
100
AcDbEntity
  8
RACCORDO
100
AcDbLine
 62
250
  6
CONTINUOUS
 10
167.0694951736
 20
108.6457881267
 11
167.2342816246
 21
108.6817622387
  0
LINE
  5
41C
100
AcDbEntity
  8
RACCORDO
100
AcDbLine
 62
250
  6
CONTINUOUS
 10
166.8953642287
 20
108.6096326928
 11
167.0694951736
 21
108.6457881267
  0
LINE
  5
41D
100
AcDbEntity
  8
RACCORDO
100
AcDbLine
 62
250
  6
CONTINUOUS
 10
166.7145869377
 20
108.5742719128
 11
166.8953642287
 21
108.6096326928
  0
LINE
  5
41E
100
AcDbEntity
  8
0
100
AcDbLine
 62
250
  6
CONTINUOUS
 10
124.2747690134
 20
100.2353074253
 11
124.1014479916
 21
100.2035274369
  0
LINE
  5
41F
100
AcDbEntity
  8
0
100
AcDbLine
 62
250
  6
CONTINUOUS
 10
124.4311822871
 20
100.2632276455
 11
124.2747690134
 21
100.2353074253
  0
LWPOLYLINE
  5
420
100
AcDbEntity
  8
RACCORDO
100
AcDbPolyline
 62
7
  6
CONTINUOUS
 90
6
 70
0
 10
176.7443442352
 20
108.1083712226
 10
176.7473272315
 20
108.108892735
 10
176.7545630859
 20
108.1093834743
 10
176.7660517981
 20
108.1098434403
 10
176.7822591039
 20
108.1102786064
 10
176.8027192677
 20
108.1106829993
  0
LINE
  5
421
100
AcDbEntity
  8
0
100
AcDbLine
 62
250
  6
CONTINUOUS
 10
124.5568897554
 20
100.2850543867
 11
124.4311822871
 21
100.2632276455
  0
LINE
  5
422
100
AcDbEntity
  8
0
100
AcDbLine
 62
250
  6
CONTINUOUS
 10
124.6909243391
 20
100.3076228854
 11
124.5568897554
 21
100.2850543867
  0
LWPOLYLINE
  5
423
100
AcDbEntity
  8
RACCORDO
100
AcDbPolyline
 62
250
  6
CONTINUOUS
 90
4
 70
0
 10
131.6309240799
 20
102.7879128834
 10
131.5172740486
 20
102.7693631059
 10
131.4577848795
 20
102.7593471489
 10
131.2750293726
 20
102.7261329909
  0
LWPOLYLINE
  5
424
100
AcDbEntity
  8
RACCORDO
100
AcDbPolyline
 62
250
  6
CONTINUOUS
 90
4
 70
0
 10
166.3586922305
 20
108.5124920204
 10
166.4723422618
 20
108.5310417978
 10
166.5318314309
 20
108.5410577548
 10
166.7145869377
 20
108.5742719128
  0
LINE
  5
425
100
AcDbEntity
  8
0
100
AcDbLine
 62
250
  6
CONTINUOUS
 10
124.7659264863
 20
100.3198885776
 11
124.6909243391
 21
100.3076228854
  0
LWPOLYLINE
  5
426
100
AcDbEntity
  8
RACCORDO
100
AcDbPolyline
 62
7
  6
CONTINUOUS
 90
7
 70
0
 10
127.4121421414
 20
99.7713421577
 10
127.3625585106
 20
99.7637197828
 10
127.3149440359
 20
99.7567071997
 10
127.2693068856
 20
99.7502556225
 10
127.2256490641
 20
99.7443048735
 10
127.1839821966
 20
99.738823646
 10
127.1443285552
 20
99.7338091391
  0
LINE
  5
427
100
AcDbEntity
  8
RACCORDO
100
AcDbLine
 62
250
  6
CONTINUOUS
 10
131.6823029233
 20
102.795646414
 11
131.6309240799
 21
102.7879128834
  0
LINE
  5
428
100
AcDbEntity
  8
RACCORDO
100
AcDbLine
 62
250
  6
CONTINUOUS
 10
166.3073133871
 20
108.5047584897
 11
166.3586922305
 21
108.5124920204
  0
LWPOLYLINE
  5
429
100
AcDbEntity
  8
RACCORDO
100
AcDbPolyline
 62
250
  6
CONTINUOUS
 90
10
 70
0
 10
128.5890183523
 20
102.5205385344
 10
128.6479735766
 20
102.5250662537
 10
128.7038866561
 20
102.5319885672
 10
128.7554588556
 20
102.5411446814
 10
128.8014922745
 20
102.5523219173
 10
128.8409176633
 20
102.5652606493
 10
128.8728192631
 20
102.5796603351
 10
128.8964560851
 20
102.5951864992
 10
128.9112791171
 20
102.6114785028
 10
128.9169440711
 20
102.6281579189
  0
LWPOLYLINE
  5
42A
100
AcDbEntity
  8
RACCORDO
100
AcDbPolyline
 62
250
  6
CONTINUOUS
 90
13
 70
0
 10
115.7889546851
 20
101.072099135
 10
115.8668155697
 20
101.0774459417
 10
115.9433509817
 20
101.0929204396
 10
116.0172565186
 20
101.1182594569
 10
116.0872725386
 20
101.1530317126
 10
116.152205453
 20
101.1966450602
 10
116.2109481251
 20
101.2483564873
 10
116.2624990642
 20
101.3072850219
 10
116.3059791981
 20
101.37242652
 10
116.3406468594
 20
101.4426705381
 10
116.3659107959
 20
101.5168197456
 10
116.3813401206
 20
101.5936104194
 10
116.3866715057
 20
101.6717336304
  0
LWPOLYLINE
  5
42B
100
AcDbEntity
  8
RACCORDO
100
AcDbPolyline
 62
250
  6
CONTINUOUS
 90
13
 70
0
 10
129.5844265131
 20
103.1604927111
 10
129.5061378178
 20
103.1553385512
 10
129.4291881454
 20
103.1400119181
 10
129.3548936163
 20
103.1147749531
 10
129.2845249383
 20
103.0800593007
 10
129.2192856726
 20
103.0364587254
 10
129.1602916486
 20
102.9847189561
 10
129.1085518794
 20
102.9257249316
 10
129.0649513043
 20
102.8604856652
 10
129.0302356524
 20
102.790116987
 10
129.0049986882
 20
102.7158224585
 10
128.9896720556
 20
102.6388727874
 10
128.984517896
 20
102.560584094
  0
LINE
  5
42C
100
AcDbEntity
  8
RACCORDO
100
AcDbLine
 62
250
  6
CONTINUOUS
 10
115.022380579
 20
101.0975807609
 11
114.358632034
 21
101.0573959475
  0
LINE
  5
42D
100
AcDbEntity
  8
RACCORDO
100
AcDbLine
 62
250
  6
CONTINUOUS
 10
114.5027653368
 20
101.6972152571
 11
113.8492072882
 21
101.6576850946
  0
LINE
  5
42E
100
AcDbEntity
  8
RACCORDO
100
AcDbLine
 62
250
  6
CONTINUOUS
 10
121.2812761222
 20
103.1543342393
 11
121.0110499757
 21
103.1502541064
  0
LINE
  5
42F
100
AcDbEntity
  8
RACCORDO
100
AcDbLine
 62
7
  6
CONTINUOUS
 10
121.1868970428
 20
103.1897219044
 11
121.137875497
 21
103.1890651705
  0
LWPOLYLINE
  5
430
100
AcDbEntity
  8
RACCORDO
100
AcDbPolyline
 62
250
  6
CONTINUOUS
 90
19
 70
0
 10
129.5168526881
 20
103.228066536
 10
129.4952851106
 20
103.2278765614
 10
129.4731067821
 20
103.2268970097
 10
129.4503509644
 20
103.2250610705
 10
129.426916506
 20
103.2222846957
 10
129.402988853
 20
103.2185066234
 10
129.3790311034
 20
103.2137428686
 10
129.3551190793
 20
103.2079867059
 10
129.3312656283
 20
103.2012159319
 10
129.3078226857
 20
103.1935112209
 10
129.2848344993
 20
103.1849009857
 10
129.2623243408
 20
103.1754084623
 10
129.2405859327
 20
103.1651758973
 10
129.2196164154
 20
103.1542483093
 10
129.1994445664
 20
103.1426932332
 10
129.1803724811
 20
103.1307508022
 10
129.1624786169
 20
103.1185714863
 10
129.1456408655
 20
103.1061777754
 10
129.1298342029
 20
103.0936455058
  0
LINE
  5
431
100
AcDbEntity
  8
RACCORDO
100
AcDbLine
 62
250
  6
CONTINUOUS
 10
121.6423407886
 20
103.1577443568
 11
121.2812761222
 21
103.1543342393
  0
LINE
  5
432
100
AcDbEntity
  8
RACCORDO
100
AcDbLine
 62
7
  6
CONTINUOUS
 10
121.137875497
 20
103.1890651705
 11
121.0778970815
 21
103.1886091814
  0
LINE
  5
433
100
AcDbEntity
  8
RACCORDO
100
AcDbLine
 62
250
  6
CONTINUOUS
 10
122.20918529
 20
103.1602213177
 11
121.6423407886
 21
103.1577443568
  0
LINE
  5
434
100
AcDbEntity
  8
RACCORDO
100
AcDbLine
 62
250
  6
CONTINUOUS
 10
167.2815512889
 20
103.1603462354
 11
166.729442752
 21
103.1583141118
  0
LWPOLYLINE
  5
435
100
AcDbEntity
  8
RACCORDO
100
AcDbPolyline
 62
7
  6
CONTINUOUS
 90
3
 70
0
 10
168.4727636222
 20
103.228066536
 10
168.1179872127
 20
103.2271298427
 10
168.104121386
 20
103.2271267026
  0
LWPOLYLINE
  5
436
100
AcDbEntity
  8
RACCORDO
100
AcDbPolyline
 62
7
  6
CONTINUOUS
 90
3
 70
0
 10
123.4727636222
 20
103.228066536
 10
123.1179872127
 20
103.2271298427
 10
123.104121386
 20
103.2271267026
  0
LINE
  5
437
100
AcDbEntity
  8
RACCORDO
100
AcDbLine
 62
250
  6
CONTINUOUS
 10
168.4051897973
 20
103.1604927111
 11
167.2815512889
 21
103.1603462354
  0
LINE
  5
438
100
AcDbEntity
  8
RACCORDO
100
AcDbLine
 62
250
  6
CONTINUOUS
 10
123.4051897973
 20
103.1604927111
 11
122.20918529
 21
103.1602213177
  0
LINE
  5
439
100
AcDbEntity
  8
RACCORDO
100
AcDbLine
 62
250
  6
CONTINUOUS
 10
168.104121386
 20
103.2271267026
 11
166.2676367749
 21
103.2271265907
  0
LINE
  5
43A
100
AcDbEntity
  8
RACCORDO
100
AcDbLine
 62
250
  6
CONTINUOUS
 10
123.104121386
 20
103.2271267026
 11
121.2676367749
 21
103.2271265907
  0
LINE
  5
43B
100
AcDbEntity
  8
RACCORDO
100
AcDbLine
 62
250
  6
CONTINUOUS
 10
176.8820646398
 20
103.6270656688
 11
174.8989275301
 21
103.6270656688
  0
LINE
  5
43C
100
AcDbEntity
  8
RACCORDO
100
AcDbLine
 62
250
  6
CONTINUOUS
 10
168.0906887779
 20
103.6270656688
 11
166.1075516706
 21
103.6270656688
  0
LINE
  5
43D
100
AcDbEntity
  8
RACCORDO
100
AcDbLine
 62
250
  6
CONTINUOUS
 10
131.8820646398
 20
103.6270656688
 11
129.8989275301
 21
103.6270656688
  0
LINE
  5
43E
100
AcDbEntity
  8
RACCORDO
100
AcDbLine
 62
250
  6
CONTINUOUS
 10
123.0906887779
 20
103.6270656688
 11
121.1075516706
 21
103.6270656688
  0
LINE
  5
43F
100
AcDbEntity
  8
RACCORDO
100
AcDbLine
 62
250
  6
CONTINUOUS
 10
131.7219795355
 20
103.2271265907
 11
129.8855304085
 21
103.2271282594
  0
LINE
  5
440
100
AcDbEntity
  8
RACCORDO
100
AcDbLine
 62
250
  6
CONTINUOUS
 10
176.7219795355
 20
103.2271265907
 11
174.8855304085
 21
103.2271282594
  0
LINE
  5
441
100
AcDbEntity
  8
RACCORDO
100
AcDbLine
 62
250
  6
CONTINUOUS
 10
131.0951692141
 20
103.1592039338
 11
129.5844265131
 21
103.1604927111
  0
LINE
  5
442
100
AcDbEntity
  8
RACCORDO
100
AcDbLine
 62
250
  6
CONTINUOUS
 10
176.0951692141
 20
103.1592039338
 11
174.5844265131
 21
103.1604927111
  0
LINE
  5
443
100
AcDbEntity
  8
RACCORDO
100
AcDbLine
 62
7
  6
CONTINUOUS
 10
129.8855304085
 20
103.2271282594
 11
129.5168526881
 21
103.228066536
  0
LINE
  5
444
100
AcDbEntity
  8
RACCORDO
100
AcDbLine
 62
7
  6
CONTINUOUS
 10
174.8855304085
 20
103.2271282594
 11
174.5168526881
 21
103.228066536
  0
LINE
  5
445
100
AcDbEntity
  8
RACCORDO
100
AcDbLine
 62
250
  6
CONTINUOUS
 10
131.2637832923
 20
103.158291646
 11
131.0951692141
 21
103.1592039338
  0
LINE
  5
446
100
AcDbEntity
  8
RACCORDO
100
AcDbLine
 62
7
  6
CONTINUOUS
 10
131.9116275178
 20
103.1886618023
 11
131.8802512449
 21
103.1888420633
  0
LINE
  5
447
100
AcDbEntity
  8
RACCORDO
100
AcDbLine
 62
7
  6
CONTINUOUS
 10
176.9116275178
 20
103.1886618023
 11
176.8517204332
 21
103.189076864
  0
LINE
  5
448
100
AcDbEntity
  8
RACCORDO
100
AcDbLine
 62
250
  6
CONTINUOUS
 10
176.5290634316
 20
103.1562472306
 11
176.0951692141
 21
103.1592039338
  0
LINE
  5
449
100
AcDbEntity
  8
RACCORDO
100
AcDbLine
 62
250
  6
CONTINUOUS
 10
176.8003659439
 20
103.1531021108
 11
176.5290634316
 21
103.1562472306
  0
LWPOLYLINE
  5
44A
100
AcDbEntity
  8
RACCORDO
100
AcDbPolyline
 62
7
  6
CONTINUOUS
 90
7
 70
0
 10
176.8517204332
 20
103.189076864
 10
176.8027260608
 20
103.1897180066
 10
176.7822625002
 20
103.1901243484
 10
176.7660517975
 20
103.1905614634
 10
176.7545630853
 20
103.1910214294
 10
176.7473272312
 20
103.1915121687
 10
176.7443442351
 20
103.1920336811
  0
LINE
  5
44B
100
AcDbEntity
  8
RACCORDO
100
AcDbLine
 62
250
  6
CONTINUOUS
 10
176.9785668848
 20
103.1502540981
 11
176.8003659439
 21
103.1531021108
  0
LINE
  5
44C
100
AcDbEntity
  8
RACCORDO
100
AcDbLine
 62
250
  6
CONTINUOUS
 10
183.6207937799
 20
101.0580505984
 11
182.9672357313
 21
101.0975807609
  0
LINE
  5
44D
100
AcDbEntity
  8
RACCORDO
100
AcDbLine
 62
250
  6
CONTINUOUS
 10
184.1404090222
 20
101.6576850946
 11
183.4868509736
 21
101.6972152571
  0
LWPOLYLINE
  5
44E
100
AcDbEntity
  8
RACCORDO
100
AcDbPolyline
 62
250
  6
CONTINUOUS
 90
10
 70
0
 10
183.6207937799
 20
101.0580505984
 10
183.6314024906
 20
101.0573614834
 10
183.6408351781
 20
101.0566628081
 10
183.6490918423
 20
101.0559545723
 10
183.6561649051
 20
101.0552349414
 10
183.6620619446
 20
101.0545057501
 10
183.6668056954
 20
101.053772503
 10
183.6704037355
 20
101.053037035
 10
183.6728484867
 20
101.0522975111
 10
183.6741399492
 20
101.0515539314
  0
LWPOLYLINE
  5
44F
100
AcDbEntity
  8
RACCORDO
100
AcDbPolyline
 62
250
  6
CONTINUOUS
 90
13
 70
0
 10
182.2006616253
 20
101.072099135
 10
182.1227937779
 20
101.0774468811
 10
182.0462531233
 20
101.0929237518
 10
181.9723442334
 20
101.1182659567
 10
181.9023268241
 20
101.1530415589
 10
181.8373942838
 20
101.196657837
 10
181.7786533337
 20
101.2483713882
 10
181.7271051644
 20
101.3073007979
 10
181.683628372
 20
101.3724416633
 10
181.648963983
 20
101.4426837128
 10
181.6237028235
 20
101.5168297289
 10
181.6082754489
 20
101.5936159542
 10
181.6029448064
 20
101.6717336312
  0
LWPOLYLINE
  5
450
100
AcDbEntity
  8
RACCORDO
100
AcDbPolyline
 62
250
  6
CONTINUOUS
 90
6
 70
0
 10
176.8508541395
 20
102.8142250255
 10
176.8435008137
 20
102.8147415639
 10
176.8273389117
 20
102.813952433
 10
176.8027292283
 20
102.8117394387
 10
176.7696480234
 20
102.8076865337
 10
176.6823029233
 20
102.795646414
  0
LWPOLYLINE
  5
451
100
AcDbEntity
  8
RACCORDO
100
AcDbPolyline
 62
250
  6
CONTINUOUS
 90
10
 70
0
 10
169.4005979572
 20
102.5205385371
 10
169.3416417171
 20
102.5250677316
 10
169.285728042
 20
102.531991096
 10
169.2341556536
 20
102.541147886
 10
169.1881225644
 20
102.5523254243
 10
169.1486977001
 20
102.5652641171
 10
169.1167963485
 20
102.5796635501
 10
169.0931595669
 20
102.595189308
 10
169.0783366829
 20
102.6114806758
 10
169.0726721653
 20
102.6281591411
  0
LWPOLYLINE
  5
452
100
AcDbEntity
  8
RACCORDO
100
AcDbPolyline
 62
250
  6
CONTINUOUS
 90
5
 70
0
 10
166.2165755457
 20
102.8081027707
 10
166.1846981167
 20
102.8119760656
 10
166.1610942744
 20
102.8141390152
 10
166.1456991764
 20
102.8148671827
 10
166.1387621709
 20
102.8142250255
  0
LWPOLYLINE
  5
453
100
AcDbEntity
  8
RACCORDO
100
AcDbPolyline
 62
250
  6
CONTINUOUS
 90
9
 70
0
 10
161.386671504
 20
101.6717330002
 10
161.3663882621
 20
101.674657002
 10
161.3317934088
 20
101.6774345634
 10
161.2838945308
 20
101.6800656844
 10
161.2235850177
 20
101.6825710996
 10
161.1521775856
 20
101.6849300745
 10
161.0717539475
 20
101.6870804054
 10
160.9849456406
 20
101.6889947669
 10
160.7926174935
 20
101.6922173309
  0
LINE
  5
454
100
AcDbEntity
  8
0
100
AcDbLine
 62
250
  6
CONTINUOUS
 10
173.2296067792
 20
100.3189197068
 11
173.2203708737
 21
100.3203906038
  0
LWPOLYLINE
  5
455
100
AcDbEntity
  8
RACCORDO
100
AcDbPolyline
 62
250
  6
CONTINUOUS
 90
4
 70
0
 10
166.4668548064
 20
102.7702848974
 10
166.3527247757
 20
102.7887719813
 10
166.3017384084
 20
102.7964716945
 10
166.2165755457
 20
102.8081027707
  0
LWPOLYLINE
  5
456
100
AcDbEntity
  8
RACCORDO
100
AcDbPolyline
 62
250
  6
CONTINUOUS
 90
4
 70
0
 10
131.522761504
 20
108.5301200063
 10
131.6368915347
 20
108.5116329224
 10
131.687877902
 20
108.5039332092
 10
131.7730407647
 20
108.492302133
  0
LINE
  5
457
100
AcDbEntity
  8
0
100
AcDbLine
 62
250
  6
CONTINUOUS
 10
173.3628682221
 20
100.2969179633
 11
173.2296067792
 21
100.3189197068
  0
LINE
  5
458
100
AcDbEntity
  8
RACCORDO
100
AcDbLine
 62
250
  6
CONTINUOUS
 10
131.4626750837
 20
108.540228207
 11
131.522761504
 21
108.5301200063
  0
LINE
  5
459
100
AcDbEntity
  8
RACCORDO
100
AcDbLine
 62
250
  6
CONTINUOUS
 10
166.5269412266
 20
102.7601766967
 11
166.4668548064
 21
102.7702848974
  0
LWPOLYLINE
  5
45A
100
AcDbEntity
  8
0
100
AcDbPolyline
 62
250
  6
CONTINUOUS
 90
4
 70
0
 10
173.2203708737
 20
100.3203906038
 10
173.2175765989
 20
100.3208663903
 10
173.2160075675
 20
100.3211262072
 10
173.2156583435
 20
100.3211617544
  0
LINE
  5
45B
100
AcDbEntity
  8
0
100
AcDbLine
 62
250
  6
CONTINUOUS
 10
173.5004786392
 20
100.2733754359
 11
173.3628682221
 21
100.2969179633
  0
LINE
  5
45C
100
AcDbEntity
  8
0
100
AcDbLine
 62
250
  6
CONTINUOUS
 10
173.6494606101
 20
100.2470759872
 11
173.5004786392
 21
100.2733754359
  0
LINE
  5
45D
100
AcDbEntity
  8
0
100
AcDbLine
 62
250
  6
CONTINUOUS
 10
173.791662146
 20
100.2213482532
 11
173.6494606101
 21
100.2470759872
  0
LINE
  5
45E
100
AcDbEntity
  8
RACCORDO
100
AcDbLine
 62
250
  6
CONTINUOUS
 10
131.277616427
 20
108.573771714
 11
131.4626750837
 21
108.540228207
  0
LINE
  5
45F
100
AcDbEntity
  8
RACCORDO
100
AcDbLine
 62
250
  6
CONTINUOUS
 10
166.7119998834
 20
102.7266331898
 11
166.5269412266
 21
102.7601766967
  0
LINE
  5
460
100
AcDbEntity
  8
0
100
AcDbLine
 62
250
  6
CONTINUOUS
 10
173.8882116095
 20
100.2035436356
 11
173.791662146
 21
100.2213482532
  0
LINE
  5
461
100
AcDbEntity
  8
RACCORDO
100
AcDbLine
 62
250
  6
CONTINUOUS
 10
131.095323534
 20
108.6094096647
 11
131.277616427
 21
108.573771714
  0
LINE
  5
462
100
AcDbEntity
  8
RACCORDO
100
AcDbLine
 62
250
  6
CONTINUOUS
 10
130.9203111796
 20
108.645744904
 11
131.095323534
 21
108.6094096647
  0
LINE
  5
463
100
AcDbEntity
  8
RACCORDO
100
AcDbLine
 62
250
  6
CONTINUOUS
 10
130.7551051459
 20
108.6818115795
 11
130.9203111796
 21
108.645744904
  0
LWPOLYLINE
  5
464
100
AcDbEntity
  8
RACCORDO
100
AcDbPolyline
 62
250
  6
CONTINUOUS
 90
11
 70
0
 10
160.7889546851
 20
101.072099135
 10
160.7763218343
 20
101.0750214741
 10
160.7567452649
 20
101.077798051
 10
160.7302249768
 20
101.0804288657
 10
160.6958643
 20
101.0829350595
 10
160.6545599045
 20
101.0852954911
 10
160.6090018003
 20
101.0874467366
 10
160.5598822435
 20
101.0893607483
 10
160.5065089779
 20
101.0910655739
 10
160.4494952457
 20
101.0925819329
 10
160.3256817992
 20
101.0950766178
  0
LWPOLYLINE
  5
465
100
AcDbEntity
  8
RACCORDO
100
AcDbPolyline
 62
250
  6
CONTINUOUS
 90
4
 70
0
 10
130.5034694412
 20
108.7398208097
 10
130.5514453355
 20
108.7283695714
 10
130.6006366099
 20
108.7169180916
 10
130.7551051459
 20
108.6818115795
  0
LINE
  5
466
100
AcDbEntity
  8
RACCORDO
100
AcDbLine
 62
7
  6
CONTINUOUS
 10
128.913829935
 20
110.8785231662
 11
128.9178840164
 21
110.8773738321
  0
LINE
  5
467
100
AcDbEntity
  8
RACCORDO
100
AcDbLine
 62
250
  6
CONTINUOUS
 10
136.3267535648
 20
109.7389119631
 11
136.6029448064
 21
109.6286712725
  0
LINE
  5
468
100
AcDbEntity
  8
RACCORDO
100
AcDbLine
 62
250
  6
CONTINUOUS
 10
136.9290422128
 20
110.336721631
 11
137.2006616253
 21
110.2283057687
  0
LINE
  5
469
100
AcDbEntity
  8
RACCORDO
100
AcDbLine
 62
250
  6
CONTINUOUS
 10
161.0605740976
 20
100.9636832727
 11
160.7889546851
 21
101.072099135
  0
LWPOLYLINE
  5
46A
100
AcDbEntity
  8
RACCORDO
100
AcDbPolyline
 62
250
  6
CONTINUOUS
 90
12
 70
0
 10
178.4330024941
 20
81.080831325
 10
178.42231315
 20
81.0888094833
 10
178.4113805036
 20
81.0962119727
 10
178.4002968566
 20
81.10301842
 10
178.388982243
 20
81.1092315895
 10
178.3771778442
 20
81.1148592604
 10
178.3648341159
 20
81.1199327998
 10
178.3520070816
 20
81.1243616071
 10
178.3385918283
 20
81.1279450154
 10
178.3245594775
 20
81.1305860473
 10
178.3099594923
 20
81.1323000573
 10
178.2948081552
 20
81.1330451643
  0
LINE
  5
46B
100
AcDbEntity
  8
RACCORDO
100
AcDbLine
 62
250
  6
CONTINUOUS
 10
178.4434441126
 20
81.0722879865
 11
178.4330024941
 21
81.080831325
  0
LINE
  5
46C
100
AcDbEntity
  8
RACCORDO
100
AcDbLine
 62
250
  6
CONTINUOUS
 10
119.5461721978
 20
130.2281169173
 11
119.5566113135
 21
130.2195754038
  0
LWPOLYLINE
  5
46D
100
AcDbEntity
  8
RACCORDO
100
AcDbPolyline
 62
250
  6
CONTINUOUS
 90
3
 70
0
 10
119.49873007
 20
130.2682914791
 10
119.5371760074
 20
130.235860262
 10
119.5461721978
 20
130.2281169173
  0
LWPOLYLINE
  5
46E
100
AcDbEntity
  8
RACCORDO
100
AcDbPolyline
 62
250
  6
CONTINUOUS
 90
3
 70
0
 10
178.4908862403
 20
81.0321134246
 10
178.452440303
 20
81.0645446417
 10
178.4434441126
 20
81.0722879865
  0
LINE
  5
46F
100
AcDbEntity
  8
RACCORDO
100
AcDbLine
 62
250
  6
CONTINUOUS
 10
133.394994769
 20
130.3135937767
 11
133.443444113
 21
130.2281169176
  0
LINE
  5
470
100
AcDbEntity
  8
RACCORDO
100
AcDbLine
 62
250
  6
CONTINUOUS
 10
164.5945718137
 20
130.3136239009
 11
164.5461723325
 21
130.2281168028
  0
LWPOLYLINE
  5
471
100
AcDbEntity
  8
RACCORDO
100
AcDbPolyline
 62
7
  6
CONTINUOUS
 90
10
 70
0
 10
168.6588307288
 20
111.0062484362
 10
168.7276427743
 20
111.0378676148
 10
168.7887789069
 20
111.064598506
 10
168.842112228
 20
111.0867102686
 10
168.8875032085
 20
111.104406753
 10
168.9249052082
 20
111.1179212413
 10
168.9543647992
 20
111.1275133326
 10
168.9758758452
 20
111.1333431708
 10
168.9893767514
 20
111.1354736119
 10
168.9948582905
 20
111.1339638501
  0
LINE
  5
472
100
AcDbEntity
  8
RACCORDO
100
AcDbLine
 62
7
  6
CONTINUOUS
 10
169.125477481
 20
110.8982482642
 11
169.153873019
 21
110.9103324895
  0
LINE
  5
473
100
AcDbEntity
  8
RACCORDO
100
AcDbLine
 62
7
  6
CONTINUOUS
 10
169.153873019
 20
110.9103324895
 11
169.2499796234
 21
110.9502024519
  0
LINE
  5
474
100
AcDbEntity
  8
RACCORDO
100
AcDbLine
 62
250
  6
CONTINUOUS
 10
161.386671504
 20
109.6286712725
 11
161.6628627456
 21
109.7389119631
  0
LWPOLYLINE
  5
475
100
AcDbEntity
  8
RACCORDO
100
AcDbPolyline
 62
7
  6
CONTINUOUS
 90
10
 70
0
 10
173.9947577865
 20
111.133963888
 10
174.0000334745
 20
111.1355333402
 10
174.0134058276
 20
111.1334413991
 10
174.0348657752
 20
111.1276288734
 10
174.0643860511
 20
111.1180223837
 10
174.1019258302
 20
111.1044698014
 10
174.147428408
 20
111.0867404303
 10
174.2008129212
 20
111.0646118415
 10
174.2619742298
 20
111.0378706417
 10
174.3307855816
 20
111.0062484362
  0
LWPOLYLINE
  5
476
100
AcDbEntity
  8
RACCORDO
100
AcDbPolyline
 62
7
  6
CONTINUOUS
 90
5
 70
0
 10
128.9178840164
 20
100.4230310716
 10
128.913829935
 20
100.4218817375
 10
128.9034371769
 20
100.4180613011
 10
128.8868014327
 20
100.4115697624
 10
128.8641388293
 20
100.4021566395
  0
LWPOLYLINE
  5
477
100
AcDbEntity
  8
RACCORDO
100
AcDbPolyline
 62
250
  6
CONTINUOUS
 90
19
 70
0
 10
129.6244720726
 20
103.5559922547
 10
129.5980046645
 20
103.5485524455
 10
129.5703912049
 20
103.5393516681
 10
129.5416308743
 20
103.5284269937
 10
129.5114998366
 20
103.5158199901
 10
129.4802163191
 20
103.5015685047
 10
129.4484131116
 20
103.4857014439
 10
129.4160255674
 20
103.4681712664
 10
129.3830328546
 20
103.4491055899
 10
129.3500860125
 20
103.4287816459
 10
129.317101869
 20
103.4071483024
 10
129.2840262104
 20
103.3843216469
 10
129.2515332143
 20
103.3607986995
 10
129.2195491638
 20
103.3364930052
 10
129.1880101034
 20
103.3115180471
 10
129.1576249548
 20
103.2866216951
 10
129.1286135194
 20
103.2620290117
 10
129.1006874348
 20
103.237472437
 10
129.0738191303
 20
103.2129306246
  0
LINE
  5
478
100
AcDbEntity
  8
RACCORDO
100
AcDbLine
 62
250
  6
CONTINUOUS
 10
129.6844028967
 20
103.5719809456
 11
129.6244720726
 21
103.5559922547
  0
LINE
  5
479
100
AcDbEntity
  8
RACCORDO
100
AcDbLine
 62
250
  6
CONTINUOUS
 10
129.7754714757
 20
103.5957474474
 11
129.6844028967
 21
103.5719809456
  0
LWPOLYLINE
  5
47A
100
AcDbEntity
  8
RACCORDO
100
AcDbPolyline
 62
250
  6
CONTINUOUS
 90
3
 70
0
 10
129.8989275225
 20
103.6270656688
 10
129.8678860965
 20
103.6192539071
 10
129.7754714757
 20
103.5957474474
  0
LINE
  5
47B
100
AcDbEntity
  8
RACCORDO
100
AcDbLine
 62
250
  6
CONTINUOUS
 10
130.5515714567
 20
102.5720619215
 11
130.5034694412
 21
102.560584094
  0
LINE
  5
47C
100
AcDbEntity
  8
RACCORDO
100
AcDbLine
 62
250
  6
CONTINUOUS
 10
130.6512764137
 20
102.5950527543
 11
130.5515714567
 21
102.5720619215
  0
LINE
  5
47D
100
AcDbEntity
  8
RACCORDO
100
AcDbLine
 62
250
  6
CONTINUOUS
 10
130.7553346858
 20
102.618642665
 11
130.6512764137
 21
102.5950527543
  0
LINE
  5
47E
100
AcDbEntity
  8
RACCORDO
100
AcDbLine
 62
250
  6
CONTINUOUS
 10
130.9201211368
 20
102.654616777
 11
130.7553346858
 21
102.618642665
  0
LINE
  5
47F
100
AcDbEntity
  8
RACCORDO
100
AcDbLine
 62
250
  6
CONTINUOUS
 10
131.0942520817
 20
102.6907722109
 11
130.9201211368
 21
102.654616777
  0
LINE
  5
480
100
AcDbEntity
  8
RACCORDO
100
AcDbLine
 62
250
  6
CONTINUOUS
 10
131.2750293726
 20
102.7261329909
 11
131.0942520817
 21
102.6907722109
  0
LINE
  5
481
100
AcDbEntity
  8
0
100
AcDbLine
 62
250
  6
CONTINUOUS
 10
173.7148472969
 20
111.0650974784
 11
173.8881683188
 21
111.0968774668
  0
LINE
  5
482
100
AcDbEntity
  8
0
100
AcDbLine
 62
250
  6
CONTINUOUS
 10
173.5584340233
 20
111.0371772582
 11
173.7148472969
 21
111.0650974784
  0
LWPOLYLINE
  5
483
100
AcDbEntity
  8
RACCORDO
100
AcDbPolyline
 62
7
  6
CONTINUOUS
 90
6
 70
0
 10
121.2452720752
 20
103.1920336811
 10
121.2422890788
 20
103.1915121687
 10
121.2350532245
 20
103.1910214295
 10
121.2235645123
 20
103.1905614634
 10
121.2073572065
 20
103.1901262973
 10
121.1868970428
 20
103.1897219044
  0
LINE
  5
484
100
AcDbEntity
  8
0
100
AcDbLine
 62
250
  6
CONTINUOUS
 10
173.4327265549
 20
111.015350517
 11
173.5584340233
 21
111.0371772582
  0
LINE
  5
485
100
AcDbEntity
  8
0
100
AcDbLine
 62
250
  6
CONTINUOUS
 10
173.2986919713
 20
110.9927820183
 11
173.4327265549
 21
111.015350517
  0
LINE
  5
486
100
AcDbEntity
  8
0
100
AcDbLine
 62
250
  6
CONTINUOUS
 10
173.223689824
 20
110.9805163262
 11
173.2986919713
 21
110.9927820183
  0
LWPOLYLINE
  5
487
100
AcDbEntity
  8
RACCORDO
100
AcDbPolyline
 62
7
  6
CONTINUOUS
 90
7
 70
0
 10
170.577474169
 20
111.529062746
 10
170.6270577997
 20
111.5366851209
 10
170.6746722745
 20
111.543697704
 10
170.7203094248
 20
111.5501492812
 10
170.7639672463
 20
111.5561000302
 10
170.8056341138
 20
111.5615812577
 10
170.8452877552
 20
111.5665957646
  0
LWPOLYLINE
  5
488
100
AcDbEntity
  8
RACCORDO
100
AcDbPolyline
 62
7
  6
CONTINUOUS
 90
3
 70
0
 10
170.8452877552
 20
111.5665957646
 10
170.9183564553
 20
111.575355699
 10
170.9520957784
 20
111.5791992853
  0
LWPOLYLINE
  5
489
100
AcDbEntity
  8
RACCORDO
100
AcDbPolyline
 62
250
  6
CONTINUOUS
 90
10
 70
0
 10
169.400597958
 20
108.7798663693
 10
169.3416427337
 20
108.77533865
 10
169.2857296543
 20
108.7684163365
 10
169.2341574548
 20
108.7592602223
 10
169.1881240359
 20
108.7480829864
 10
169.1486986471
 20
108.7351442544
 10
169.1167970472
 20
108.7207445686
 10
169.0931602253
 20
108.7052184045
 10
169.0783371932
 20
108.6889264009
 10
169.0726722393
 20
108.6722469848
  0
LWPOLYLINE
  5
48A
100
AcDbEntity
  8
RACCORDO
100
AcDbPolyline
 62
250
  6
CONTINUOUS
 90
19
 70
0
 10
181.9290422128
 20
110.7364779618
 10
181.8202534762
 20
110.7283237164
 10
181.7181565462
 20
110.7124020934
 10
181.6227514227
 20
110.6887130927
 10
181.5340117041
 20
110.6561393458
 10
181.451963792
 20
110.6157982212
 10
181.376686892
 20
110.5710418248
 10
181.3085899303
 20
110.5225305706
 10
181.2472639806
 20
110.4696040444
 10
181.1915614704
 20
110.4136331093
 10
181.1414043964
 20
110.3554423094
 10
181.0968707619
 20
110.2942071006
 10
181.0570470036
 20
110.2288247138
 10
181.0211437502
 20
110.1592357872
 10
180.989950373
 20
110.0854996827
 10
180.9649214229
 20
110.0066917164
 10
180.9465417501
 20
109.9225036604
 10
180.9343265043
 20
109.8332437426
 10
180.9282756856
 20
109.7389119631
  0
LWPOLYLINE
  5
48B
100
AcDbEntity
  8
RACCORDO
100
AcDbPolyline
 62
250
  6
CONTINUOUS
 90
13
 70
0
 10
182.2006616253
 20
110.2283057687
 10
182.1227991124
 20
110.2229587405
 10
182.0462624713
 20
110.2074836844
 10
181.9723561444
 20
110.182143916
 10
181.9023397897
 20
110.1473708676
 10
181.8374069525
 20
110.1037568201
 10
181.7786646782
 20
110.0520448816
 10
181.7271143868
 20
109.9931161294
 10
181.6836350383
 20
109.9279747693
 10
181.6489681511
 20
109.8577312114
 10
181.6237048748
 20
109.7835827631
 10
181.6082760138
 20
109.7067931545
 10
181.6029448029
 20
109.628671274
  0
LWPOLYLINE
  5
48C
100
AcDbEntity
  8
RACCORDO
100
AcDbPolyline
 62
250
  6
CONTINUOUS
 90
13
 70
0
 10
168.4051897973
 20
108.1399121926
 10
168.4834784926
 20
108.1450663525
 10
168.5604281649
 20
108.1603929856
 10
168.6347226941
 20
108.1856299506
 10
168.7050913721
 20
108.220345603
 10
168.7703306378
 20
108.2639461783
 10
168.8293246618
 20
108.3156859476
 10
168.8810644309
 20
108.3746799721
 10
168.9246650061
 20
108.4399192385
 10
168.9593806579
 20
108.5102879167
 10
168.9846176222
 20
108.5845824452
 10
168.9999442548
 20
108.6615321163
 10
169.0050984144
 20
108.7398208097
  0
LINE
  5
48D
100
AcDbEntity
  8
RACCORDO
100
AcDbLine
 62
250
  6
CONTINUOUS
 10
183.4868509736
 20
109.6031896466
 11
184.1404090222
 21
109.6427198091
  0
LINE
  5
48E
100
AcDbEntity
  8
RACCORDO
100
AcDbLine
 62
250
  6
CONTINUOUS
 10
182.9672357313
 20
110.2028241428
 11
183.6207937799
 21
110.2423543053
  0
LWPOLYLINE
  5
48F
100
AcDbEntity
  8
RACCORDO
100
AcDbPolyline
 62
250
  6
CONTINUOUS
 90
19
 70
0
 10
181.9290425696
 20
110.3367214886
 10
181.8640877027
 20
110.3333816496
 10
181.8023614434
 20
110.3236575682
 10
181.744396087
 20
110.3084116712
 10
181.6907243926
 20
110.2885712917
 10
181.6414147303
 20
110.2649407053
 10
181.5961532273
 20
110.2380488194
 10
181.5551556476
 20
110.2086537928
 10
181.5182648987
 20
110.1772821468
 10
181.484706724
 20
110.1437519782
 10
181.4546776476
 20
110.1086265781
 10
181.4280108307
 20
110.0720880248
 10
181.4038137209
 20
110.0329404942
 10
181.3822991625
 20
109.9911499131
 10
181.3638759749
 20
109.9470412331
 10
181.3485274574
 20
109.8996649965
 10
181.3367606885
 20
109.8488023974
 10
181.3293044639
 20
109.7950968124
 10
181.3267536457
 20
109.7389119308
  0
LWPOLYLINE
  5
490
100
AcDbEntity
  8
RACCORDO
100
AcDbPolyline
 62
250
  6
CONTINUOUS
 90
8
 70
0
 10
184.1905025673
 20
109.6441079353
 10
184.2111428083
 20
109.6448160797
 10
184.2288263481
 20
109.645535301
 10
184.2435762586
 20
109.6462639099
 10
184.2554325173
 20
109.6469968386
 10
184.264409258
 20
109.6477323979
 10
184.2705145343
 20
109.6484722771
 10
184.2737744454
 20
109.6492164761
  0
LWPOLYLINE
  5
491
100
AcDbEntity
  8
RACCORDO
100
AcDbPolyline
 62
250
  6
CONTINUOUS
 90
40
 70
0
 10
168.4727635332
 20
108.0723384567
 10
168.5214991355
 20
108.073805245
 10
168.5673830643
 20
108.0787565224
 10
168.6102192455
 20
108.0865815136
 10
168.6495703952
 20
108.0965867056
 10
168.6857262975
 20
108.1082913787
 10
168.7196215902
 20
108.1216395674
 10
168.7514162982
 20
108.1364264606
 10
168.7809301179
 20
108.1522854187
 10
168.8085321936
 20
108.1691898644
 10
168.8343259225
 20
108.1870149655
 10
168.8582445858
 20
108.2055066981
 10
168.8803839895
 20
108.2245311091
 10
168.900809562
 20
108.2439582116
 10
168.9195543184
 20
108.2636140459
 10
168.9366758186
 20
108.2833202904
 10
168.9522100826
 20
108.3029035489
 10
168.9662724965
 20
108.3222890074
 10
168.9790365192
 20
108.3414697235
 10
168.9905615564
 20
108.3603374768
 10
169.0009284605
 20
108.3788329446
 10
169.0103133161
 20
108.3970555437
 10
169.0187799706
 20
108.4149669779
 10
169.0263709027
 20
108.4325007843
 10
169.0331998365
 20
108.4497382214
 10
169.0393143491
 20
108.466653985
 10
169.0447506076
 20
108.4832045105
 10
169.0495843555
 20
108.4994572465
 10
169.0538514845
 20
108.5153931603
 10
169.0575829204
 20
108.5309848382
 10
169.0608315606
 20
108.5462952243
 10
169.0636248039
 20
108.5613096366
 10
169.0659881453
 20
108.5760110201
 10
169.067958982
 20
108.5904637965
 10
169.0695579358
 20
108.6046566687
 10
169.0708049983
 20
108.6185789667
 10
169.0717253037
 20
108.632299185
 10
169.0723346461
 20
108.6458351447
 10
169.0726454268
 20
108.6591533697
 10
169.0726722393
 20
108.6722469848
  0
LWPOLYLINE
  5
492
100
AcDbEntity
  8
RACCORDO
100
AcDbPolyline
 62
250
  6
CONTINUOUS
 90
40
 70
0
 10
123.4727635332
 20
108.0723384567
 10
123.5214991355
 20
108.073805245
 10
123.5673830643
 20
108.0787565224
 10
123.6102192455
 20
108.0865815136
 10
123.6495703952
 20
108.0965867056
 10
123.6857262975
 20
108.1082913787
 10
123.7196215902
 20
108.1216395674
 10
123.7514162982
 20
108.1364264606
 10
123.7809301179
 20
108.1522854187
 10
123.8085321936
 20
108.1691898644
 10
123.8343259225
 20
108.1870149655
 10
123.8582445858
 20
108.2055066981
 10
123.8803839895
 20
108.2245311091
 10
123.900809562
 20
108.2439582116
 10
123.9195543184
 20
108.2636140459
 10
123.9366758186
 20
108.2833202904
 10
123.9522100826
 20
108.3029035489
 10
123.9662724965
 20
108.3222890074
 10
123.9790365192
 20
108.3414697235
 10
123.9905615564
 20
108.3603374768
 10
124.0009284605
 20
108.3788329446
 10
124.0103133161
 20
108.3970555437
 10
124.0187799706
 20
108.4149669779
 10
124.0263709027
 20
108.4325007843
 10
124.0331998365
 20
108.4497382214
 10
124.0393143491
 20
108.466653985
 10
124.0447506076
 20
108.4832045105
 10
124.0495843555
 20
108.4994572465
 10
124.0538514845
 20
108.5153931603
 10
124.0575829204
 20
108.5309848382
 10
124.0608315606
 20
108.5462952243
 10
124.0636248039
 20
108.5613096366
 10
124.0659881453
 20
108.5760110201
 10
124.067958982
 20
108.5904637965
 10
124.0695579358
 20
108.6046566687
 10
124.0708049983
 20
108.6185789667
 10
124.0717253037
 20
108.632299185
 10
124.0723346461
 20
108.6458351447
 10
124.0726454268
 20
108.6591533697
 10
124.0726722393
 20
108.6722469848
  0
LINE
  5
493
100
AcDbEntity
  8
RACCORDO
100
AcDbLine
 62
250
  6
CONTINUOUS
 10
184.1404090222
 20
109.6427198091
 11
184.1905025673
 21
109.6441079353
  0
LINE
  5
494
100
AcDbEntity
  8
RACCORDO
100
AcDbLine
 62
250
  6
CONTINUOUS
 10
176.7070114632
 20
108.1460545386
 11
176.9785663349
 21
108.1501507974
  0
LINE
  5
495
100
AcDbEntity
  8
RACCORDO
100
AcDbLine
 62
250
  6
CONTINUOUS
 10
131.7070114632
 20
108.1460545386
 11
131.9785663349
 21
108.1501507974
  0
LINE
  5
496
100
AcDbEntity
  8
RACCORDO
100
AcDbLine
 62
7
  6
CONTINUOUS
 10
176.8027192677
 20
108.1106829993
 11
176.8517408132
 21
108.1113397332
  0
LINE
  5
497
100
AcDbEntity
  8
RACCORDO
100
AcDbLine
 62
7
  6
CONTINUOUS
 10
131.8027192677
 20
108.1106829993
 11
131.8517408132
 21
108.1113397332
  0
LINE
  5
498
100
AcDbEntity
  8
RACCORDO
100
AcDbLine
 62
250
  6
CONTINUOUS
 10
176.3463391862
 20
108.1426539324
 11
176.7070114632
 21
108.1460545386
  0
LINE
  5
499
100
AcDbEntity
  8
RACCORDO
100
AcDbLine
 62
250
  6
CONTINUOUS
 10
131.3463391862
 20
108.1426539324
 11
131.7070114632
 21
108.1460545386
  0
LINE
  5
49A
100
AcDbEntity
  8
RACCORDO
100
AcDbLine
 62
7
  6
CONTINUOUS
 10
176.8517408132
 20
108.1113397332
 11
176.9117192279
 21
108.1117957223
  0
LINE
  5
49B
100
AcDbEntity
  8
RACCORDO
100
AcDbLine
 62
7
  6
CONTINUOUS
 10
131.8517408132
 20
108.1113397332
 11
131.9117192279
 21
108.1117957223
  0
LINE
  5
49C
100
AcDbEntity
  8
RACCORDO
100
AcDbLine
 62
250
  6
CONTINUOUS
 10
175.7801460113
 20
108.1401830182
 11
176.3463391862
 21
108.1426539324
  0
LINE
  5
49D
100
AcDbEntity
  8
RACCORDO
100
AcDbLine
 62
250
  6
CONTINUOUS
 10
130.7801460113
 20
108.1401830182
 11
131.3463391862
 21
108.1426539324
  0
LWPOLYLINE
  5
49E
100
AcDbEntity
  8
RACCORDO
100
AcDbPolyline
 62
7
  6
CONTINUOUS
 90
3
 70
0
 10
174.5168526881
 20
108.0723383677
 10
174.8716290978
 20
108.073275061
 10
174.8854949245
 20
108.0732782011
  0
LWPOLYLINE
  5
49F
100
AcDbEntity
  8
RACCORDO
100
AcDbPolyline
 62
7
  6
CONTINUOUS
 90
3
 70
0
 10
129.5168526881
 20
108.0723383677
 10
129.8716290978
 20
108.073275061
 10
129.8854949245
 20
108.0732782011
  0
LINE
  5
4A0
100
AcDbEntity
  8
RACCORDO
100
AcDbLine
 62
250
  6
CONTINUOUS
 10
121.1075516706
 20
107.673339235
 11
123.0906887803
 21
107.673339235
  0
LINE
  5
4A1
100
AcDbEntity
  8
RACCORDO
100
AcDbLine
 62
250
  6
CONTINUOUS
 10
129.8989275326
 20
107.673339235
 11
131.8820646398
 21
107.673339235
  0
LINE
  5
4A2
100
AcDbEntity
  8
RACCORDO
100
AcDbLine
 62
250
  6
CONTINUOUS
 10
166.1075516706
 20
107.673339235
 11
168.0906887803
 21
107.673339235
  0
LINE
  5
4A3
100
AcDbEntity
  8
RACCORDO
100
AcDbLine
 62
250
  6
CONTINUOUS
 10
174.8989275326
 20
107.673339235
 11
176.8820646398
 21
107.673339235
  0
LINE
  5
4A4
100
AcDbEntity
  8
RACCORDO
100
AcDbLine
 62
250
  6
CONTINUOUS
 10
174.8854949245
 20
108.0732782011
 11
176.7219795355
 21
108.073278313
  0
LINE
  5
4A5
100
AcDbEntity
  8
RACCORDO
100
AcDbLine
 62
250
  6
CONTINUOUS
 10
129.8854949245
 20
108.0732782011
 11
131.7219795355
 21
108.073278313
  0
LINE
  5
4A6
100
AcDbEntity
  8
RACCORDO
100
AcDbLine
 62
250
  6
CONTINUOUS
 10
174.5844265131
 20
108.1399121926
 11
175.7801460113
 21
108.1401830182
  0
LINE
  5
4A7
100
AcDbEntity
  8
RACCORDO
100
AcDbLine
 62
250
  6
CONTINUOUS
 10
129.5844265131
 20
108.1399121926
 11
130.7801460113
 21
108.1401830182
  0
LINE
  5
4A8
100
AcDbEntity
  8
RACCORDO
100
AcDbLine
 62
250
  6
CONTINUOUS
 10
122.4861466
 20
108.7398208097
 11
124.0050984144
 21
108.7398208097
  0
LINE
  5
4A9
100
AcDbEntity
  8
RACCORDO
100
AcDbLine
 62
250
  6
CONTINUOUS
 10
128.984517896
 20
108.7398208097
 11
130.5034697165
 21
108.7398208097
  0
LINE
  5
4AA
100
AcDbEntity
  8
RACCORDO
100
AcDbLine
 62
250
  6
CONTINUOUS
 10
167.4861466
 20
108.7398208097
 11
169.0050984144
 21
108.7398208097
  0
LINE
  5
4AB
100
AcDbEntity
  8
RACCORDO
100
AcDbLine
 62
250
  6
CONTINUOUS
 10
173.984517896
 20
108.7398208097
 11
175.5034697165
 21
108.7398208097
  0
LINE
  5
4AC
100
AcDbEntity
  8
RACCORDO
100
AcDbLine
 62
250
  6
CONTINUOUS
 10
169.4716713721
 20
109.054321819
 11
169.071732294
 21
109.0543218191
  0
LINE
  5
4AD
100
AcDbEntity
  8
RACCORDO
100
AcDbLine
 62
250
  6
CONTINUOUS
 10
124.4716713721
 20
109.054321819
 11
124.071732294
 21
109.0543218191
  0
LINE
  5
4AE
100
AcDbEntity
  8
RACCORDO
100
AcDbLine
 62
250
  6
CONTINUOUS
 10
128.5179449383
 20
109.054321819
 11
128.9178840164
 21
109.054321819
  0
LINE
  5
4AF
100
AcDbEntity
  8
RACCORDO
100
AcDbLine
 62
250
  6
CONTINUOUS
 10
173.5179449383
 20
109.054321819
 11
173.9178840164
 21
109.054321819
  0
LINE
  5
4B0
100
AcDbEntity
  8
RACCORDO
100
AcDbLine
 62
250
  6
CONTINUOUS
 10
121.2676367749
 20
108.073278313
 11
123.1040859017
 21
108.0732766444
  0
LINE
  5
4B1
100
AcDbEntity
  8
RACCORDO
100
AcDbLine
 62
250
  6
CONTINUOUS
 10
166.2676367749
 20
108.073278313
 11
168.1040859017
 21
108.0732766444
  0
LINE
  5
4B2
100
AcDbEntity
  8
RACCORDO
100
AcDbLine
 62
250
  6
CONTINUOUS
 10
121.8950932086
 20
108.1411980279
 11
123.4051897973
 21
108.1399121926
  0
LINE
  5
4B3
100
AcDbEntity
  8
RACCORDO
100
AcDbLine
 62
250
  6
CONTINUOUS
 10
166.8950932086
 20
108.1411980279
 11
168.4051897973
 21
108.1399121926
  0
LINE
  5
4B4
100
AcDbEntity
  8
RACCORDO
100
AcDbLine
 62
7
  6
CONTINUOUS
 10
123.1040859017
 20
108.0732766444
 11
123.4727636222
 21
108.0723383677
  0
LINE
  5
4B5
100
AcDbEntity
  8
RACCORDO
100
AcDbLine
 62
7
  6
CONTINUOUS
 10
168.1040859017
 20
108.0732766444
 11
168.4727636222
 21
108.0723383677
  0
LINE
  5
4B6
100
AcDbEntity
  8
RACCORDO
100
AcDbLine
 62
7
  6
CONTINUOUS
 10
121.0779888019
 20
108.1117431014
 11
121.1378958792
 21
108.1113280397
  0
LINE
  5
4B7
100
AcDbEntity
  8
RACCORDO
100
AcDbLine
 62
7
  6
CONTINUOUS
 10
166.0779888019
 20
108.1117431014
 11
166.1378958792
 21
108.1113280397
  0
LINE
  5
4B8
100
AcDbEntity
  8
RACCORDO
100
AcDbLine
 62
250
  6
CONTINUOUS
 10
121.4617575372
 20
108.1441458885
 11
121.8950932086
 21
108.1411980279
  0
LINE
  5
4B9
100
AcDbEntity
  8
RACCORDO
100
AcDbLine
 62
250
  6
CONTINUOUS
 10
166.4617575372
 20
108.1441458885
 11
166.8950932086
 21
108.1411980279
  0
LINE
  5
4BA
100
AcDbEntity
  8
RACCORDO
100
AcDbLine
 62
250
  6
CONTINUOUS
 10
121.1903211981
 20
108.1472892863
 11
121.4617575372
 21
108.1441458885
  0
LINE
  5
4BB
100
AcDbEntity
  8
RACCORDO
100
AcDbLine
 62
250
  6
CONTINUOUS
 10
166.1903211981
 20
108.1472892863
 11
166.4617575372
 21
108.1441458885
  0
LWPOLYLINE
  5
4BC
100
AcDbEntity
  8
RACCORDO
100
AcDbPolyline
 62
7
  6
CONTINUOUS
 90
7
 70
0
 10
121.1378958792
 20
108.1113280397
 10
121.1868902488
 20
108.1106868972
 10
121.2073538099
 20
108.1102805553
 10
121.2235645128
 20
108.1098434403
 10
121.2350532251
 20
108.1093834743
 10
121.2422890792
 20
108.108892735
 10
121.2452720753
 20
108.1083712226
  0
LWPOLYLINE
  5
4BD
100
AcDbEntity
  8
RACCORDO
100
AcDbPolyline
 62
7
  6
CONTINUOUS
 90
7
 70
0
 10
166.1378958792
 20
108.1113280397
 10
166.1868902488
 20
108.1106868972
 10
166.2073538099
 20
108.1102805553
 10
166.2235645128
 20
108.1098434403
 10
166.2350532251
 20
108.1093834743
 10
166.2422890792
 20
108.108892735
 10
166.2452720753
 20
108.1083712226
  0
LINE
  5
4BE
100
AcDbEntity
  8
RACCORDO
100
AcDbLine
 62
250
  6
CONTINUOUS
 10
121.0110494254
 20
108.1501508056
 11
121.1903211981
 21
108.1472892863
  0
LINE
  5
4BF
100
AcDbEntity
  8
RACCORDO
100
AcDbLine
 62
250
  6
CONTINUOUS
 10
166.0110494254
 20
108.1501508056
 11
166.1903211981
 21
108.1472892863
  0
LINE
  5
4C0
100
AcDbEntity
  8
RACCORDO
100
AcDbLine
 62
250
  6
CONTINUOUS
 10
113.8492072882
 20
109.6427198091
 11
114.5027653368
 21
109.6031896466
  0
LWPOLYLINE
  5
4C1
100
AcDbEntity
  8
RACCORDO
100
AcDbPolyline
 62
250
  6
CONTINUOUS
 90
10
 70
0
 10
115.022380579
 20
110.2028241428
 10
114.3586297686
 20
110.2430091414
 10
114.3494779693
 20
110.2436817966
 10
114.3413671327
 20
110.244372271
 10
114.3342634059
 20
110.2450819849
 10
114.3282006418
 20
110.2458095179
 10
114.3232803994
 20
110.2465506092
 10
114.3195365317
 20
110.2473038386
 10
114.3169351856
 20
110.2480706263
 10
114.3154763611
 20
110.2488509723
  0
LWPOLYLINE
  5
4C2
100
AcDbEntity
  8
RACCORDO
100
AcDbPolyline
 62
250
  6
CONTINUOUS
 90
13
 70
0
 10
115.7889546851
 20
110.2283057687
 10
115.8668225319
 20
110.2229580227
 10
115.9433631859
 20
110.2074811522
 10
116.0172720751
 20
110.1821389476
 10
116.0872894838
 20
110.1473633459
 10
116.1522220234
 20
110.1037470684
 10
116.2109629732
 20
110.0520335178
 10
116.2625111425
 20
109.9931041084
 10
116.305987935
 20
109.927963243
 10
116.3406523246
 20
109.8577211934
 10
116.365913485
 20
109.7835751768
 10
116.3813408605
 20
109.7067889507
 10
116.386671504
 20
109.6286712725
  0
LWPOLYLINE
  5
4C3
100
AcDbEntity
  8
RACCORDO
100
AcDbPolyline
 62
250
  6
CONTINUOUS
 90
6
 70
0
 10
121.1387621709
 20
108.4861798783
 10
121.1461154967
 20
108.4856633398
 10
121.1622773987
 20
108.4864524707
 10
121.1868870821
 20
108.488665465
 10
121.219968287
 20
108.49271837
 10
121.3073133871
 20
108.5047584897
  0
LWPOLYLINE
  5
4C4
100
AcDbEntity
  8
RACCORDO
100
AcDbPolyline
 62
250
  6
CONTINUOUS
 90
10
 70
0
 10
128.5890183551
 20
108.7798663598
 10
128.6479622982
 20
108.7753375931
 10
128.7038685433
 20
108.768415425
 10
128.7554382638
 20
108.7592600356
 10
128.8014733784
 20
108.7480834298
 10
128.8409031555
 20
108.7351449086
 10
128.8728097574
 20
108.7207452079
 10
128.8964511303
 20
108.7052189309
 10
128.9112776427
 20
108.6889266452
 10
128.916944071
 20
108.6722469773
  0
LWPOLYLINE
  5
4C5
100
AcDbEntity
  8
RACCORDO
100
AcDbPolyline
 62
7
  6
CONTINUOUS
 90
9
 70
0
 10
127.0372887026
 20
111.5792252642
 10
127.1065541183
 20
111.5711957506
 10
127.1441089768
 20
111.5666230205
 10
127.1837891385
 20
111.5616061719
 10
127.2254923728
 20
111.5561210148
 10
127.2691884818
 20
111.5501657503
 10
127.3148632026
 20
111.5437094255
 10
127.3625171503
 20
111.536691382
 10
127.4121421414
 20
111.529062746
  0
LWPOLYLINE
  5
4C6
100
AcDbEntity
  8
RACCORDO
100
AcDbPolyline
 62
250
  6
CONTINUOUS
 90
5
 70
0
 10
131.7730407647
 20
108.492302133
 10
131.8049181936
 20
108.4884288381
 10
131.828522036
 20
108.4862658885
 10
131.843917134
 20
108.485537721
 10
131.8508541395
 20
108.4861798783
  0
LWPOLYLINE
  5
4C7
100
AcDbEntity
  8
RACCORDO
100
AcDbPolyline
 62
250
  6
CONTINUOUS
 90
9
 70
0
 10
136.6029448064
 20
109.6286719821
 10
136.6249904356
 20
109.6255709058
 10
136.6626835504
 20
109.6226585388
 10
136.7143580699
 20
109.6199348812
 10
136.7784607476
 20
109.6173851565
 10
136.8531318204
 20
109.6150241411
 10
136.9359439197
 20
109.6128961646
 10
137.0237333204
 20
109.611031238
 10
137.2139969154
 20
109.6079547976
  0
LINE
  5
4C8
100
AcDbEntity
  8
0
100
AcDbLine
 62
250
  6
CONTINUOUS
 10
124.7600095312
 20
110.9814851969
 11
124.7692454367
 21
110.9800142999
  0
LINE
  5
4C9
100
AcDbEntity
  8
0
100
AcDbLine
 62
250
  6
CONTINUOUS
 10
124.6267480883
 20
111.0034869404
 11
124.7600095312
 21
110.9814851969
  0
LWPOLYLINE
  5
4CA
100
AcDbEntity
  8
0
100
AcDbPolyline
 62
250
  6
CONTINUOUS
 90
4
 70
0
 10
124.7692454367
 20
110.9800142999
 10
124.7720397115
 20
110.9795385134
 10
124.7736087429
 20
110.9792786966
 10
124.7739579669
 20
110.9792431493
  0
LINE
  5
4CB
100
AcDbEntity
  8
0
100
AcDbLine
 62
250
  6
CONTINUOUS
 10
124.4891376712
 20
111.0270294679
 11
124.6267480883
 21
111.0034869404
  0
LINE
  5
4CC
100
AcDbEntity
  8
0
100
AcDbLine
 62
250
  6
CONTINUOUS
 10
124.3401557003
 20
111.0533289165
 11
124.4891376712
 21
111.0270294679
  0
LINE
  5
4CD
100
AcDbEntity
  8
0
100
AcDbLine
 62
250
  6
CONTINUOUS
 10
124.1979541644
 20
111.0790566505
 11
124.3401557003
 21
111.0533289165
  0
LINE
  5
4CE
100
AcDbEntity
  8
0
100
AcDbLine
 62
250
  6
CONTINUOUS
 10
124.1014047008
 20
111.0968612681
 11
124.1979541644
 21
111.0790566505
  0
LINE
  5
4CF
100
AcDbEntity
  8
RACCORDO
100
AcDbLine
 62
250
  6
CONTINUOUS
 10
166.8942927764
 20
102.690995239
 11
166.7119998834
 21
102.7266331898
  0
LINE
  5
4D0
100
AcDbEntity
  8
RACCORDO
100
AcDbLine
 62
250
  6
CONTINUOUS
 10
167.0693051308
 20
102.6546599997
 11
166.8942927764
 21
102.690995239
  0
LWPOLYLINE
  5
4D1
100
AcDbEntity
  8
RACCORDO
100
AcDbPolyline
 62
250
  6
CONTINUOUS
 90
11
 70
0
 10
137.2006616253
 20
110.2283057687
 10
137.2148881217
 20
110.2252067126
 10
137.2361096997
 20
110.2222955481
 10
137.2643263594
 20
110.2195722752
 10
137.3006747217
 20
110.2170216403
 10
137.3440181656
 20
110.214658897
 10
137.390946828
 20
110.2125298061
 10
137.4404871332
 20
110.2106651961
 10
137.493612657
 20
110.2090342386
 10
137.5498342638
 20
110.2075902083
 10
137.6700520544
 20
110.2052268835
  0
LINE
  5
4D2
100
AcDbEntity
  8
RACCORDO
100
AcDbLine
 62
250
  6
CONTINUOUS
 10
167.2345111645
 20
102.6185933243
 11
167.0693051308
 21
102.6546599997
  0
LWPOLYLINE
  5
4D3
100
AcDbEntity
  8
RACCORDO
100
AcDbPolyline
 62
250
  6
CONTINUOUS
 90
4
 70
0
 10
167.4861468691
 20
102.560584094
 10
167.4381709749
 20
102.5720353323
 10
167.3889797005
 20
102.5834868121
 10
167.2345111645
 20
102.6185933243
  0
LINE
  5
4D4
100
AcDbEntity
  8
RACCORDO
100
AcDbLine
 62
250
  6
CONTINUOUS
 10
168.1504141953
 20
103.6120448347
 11
168.090688788
 21
103.6270656688
  0
LINE
  5
4D5
100
AcDbEntity
  8
RACCORDO
100
AcDbLine
 62
250
  6
CONTINUOUS
 10
168.2393489553
 20
103.58921103
 11
168.1504141953
 21
103.6120448347
  0
LINE
  5
4D6
100
AcDbEntity
  8
RACCORDO
100
AcDbLine
 62
250
  6
CONTINUOUS
 10
168.3129236716
 20
103.5699125201
 11
168.2393489553
 21
103.58921103
  0
LINE
  5
4D7
100
AcDbEntity
  8
RACCORDO
100
AcDbLine
 62
250
  6
CONTINUOUS
 10
168.3651442378
 20
103.5559922547
 11
168.3129236716
 21
103.5699125201
  0
LINE
  5
4D8
100
AcDbEntity
  8
RACCORDO
100
AcDbLine
 62
7
  6
CONTINUOUS
 10
169.0757863753
 20
100.4218817375
 11
169.071732294
 21
100.4230310716
  0
LINE
  5
4D9
100
AcDbEntity
  8
RACCORDO
100
AcDbLine
 62
250
  6
CONTINUOUS
 10
161.6628627456
 20
101.5614929406
 11
161.386671504
 21
101.6717336312
  0
LINE
  5
4DA
100
AcDbEntity
  8
RACCORDO
100
AcDbLine
 62
7
  6
CONTINUOUS
 10
169.2499796234
 20
100.3502024519
 11
169.153873019
 21
100.3900724142
  0
LWPOLYLINE
  5
4DB
100
AcDbEntity
  8
RACCORDO
100
AcDbPolyline
 62
7
  6
CONTINUOUS
 90
5
 70
0
 10
169.153873019
 20
100.3900724142
 10
169.125477481
 20
100.4021566395
 10
169.1028148777
 20
100.4115697624
 10
169.0861791335
 20
100.4180613011
 10
169.0757863753
 20
100.4218817375
  0
LWPOLYLINE
  5
4DC
100
AcDbEntity
  8
RACCORDO
100
AcDbPolyline
 62
250
  6
CONTINUOUS
 90
12
 70
0
 10
119.5566113135
 20
130.2195754038
 10
119.5672987672
 20
130.2115984501
 10
119.578230159
 20
130.2041965816
 10
119.5893133515
 20
130.1973900759
 10
119.6006281881
 20
130.19117635
 10
119.6124330666
 20
130.1855480539
 10
119.624777468
 20
130.1804739144
 10
119.6376054395
 20
130.1760444714
 10
119.6510216602
 20
130.1724605479
 10
119.6650549278
 20
130.1698191694
 10
119.6796558547
 20
130.1681049381
 10
119.6948081552
 20
130.1673597394
  0
LINE
  5
4DD
100
AcDbEntity
  8
RACCORDO
100
AcDbLine
 62
250
  6
CONTINUOUS
 10
164.5946215414
 20
80.986811127
 11
164.5461721973
 21
81.0722879861
  0
LINE
  5
4DE
100
AcDbEntity
  8
RACCORDO
100
AcDbLine
 62
7
  6
CONTINUOUS
 10
159.4237553927
 20
110.2791496894
 11
159.4813273343
 21
110.336721631
  0
LWPOLYLINE
  5
4DF
100
AcDbEntity
  8
RACCORDO
100
AcDbPolyline
 62
7
  6
CONTINUOUS
 90
4
 70
0
 10
119.3880742022
 20
80.8598307516
 10
119.4921910968
 20
80.9255737025
 10
119.5511066166
 20
80.961532171
 10
119.5946215414
 20
80.986811127
  0
LWPOLYLINE
  5
4E0
100
AcDbEntity
  8
RACCORDO
100
AcDbPolyline
 62
250
  6
CONTINUOUS
 90
40
 70
0
 10
168.3651442378
 20
107.744412649
 10
168.4266205301
 20
107.7650790084
 10
168.4850578503
 20
107.7884262822
 10
168.5407225649
 20
107.8144460299
 10
168.5939987504
 20
107.8435251959
 10
168.6451533696
 20
107.8751649357
 10
168.6942237318
 20
107.9080552252
 10
168.7414778377
 20
107.9420614001
 10
168.7870956286
 20
107.9772808495
 10
168.8308307207
 20
108.0128435715
 10
168.8727946269
 20
108.0488004776
 10
168.9131248865
 20
108.0851576374
 10
168.9514890093
 20
108.1210550214
 10
168.9877901435
 20
108.1565682115
 10
169.0221620079
 20
108.1917956133
 10
169.0545126488
 20
108.2259535223
 10
169.0846347255
 20
108.2589845063
 10
169.1126357423
 20
108.2911604559
 10
169.1388508152
 20
108.3221695505
 10
169.1631886444
 20
108.3519725214
 10
169.1856266342
 20
108.3807689654
 10
169.2066101466
 20
108.4085515652
 10
169.2261368684
 20
108.4353360706
 10
169.2441236778
 20
108.4612037406
 10
169.2609144014
 20
108.4862012808
 10
169.2765100554
 20
108.5103380456
 10
169.2908489971
 20
108.5336583872
 10
169.3041970838
 20
108.5562337729
 10
169.3165553717
 20
108.5780668573
 10
169.3278802923
 20
108.5991815392
 10
169.3383825058
 20
108.6196650992
 10
169.3480641795
 20
108.6395167698
 10
169.3568932306
 20
108.6587481264
 10
169.365037428
 20
108.6774564016
 10
169.3725006199
 20
108.6956397885
 10
169.3792577471
 20
108.7133025544
 10
169.3854393654
 20
108.7305471078
 10
169.3910849781
 20
108.7474068182
 10
169.3961403204
 20
108.7638469301
 10
169.400597958
 20
108.7798663693
  0
LWPOLYLINE
  5
4E1
100
AcDbEntity
  8
RACCORDO
100
AcDbPolyline
 62
7
  6
CONTINUOUS
 90
6
 70
0
 10
131.7443442352
 20
108.1083712226
 10
131.7473272315
 20
108.108892735
 10
131.7545630859
 20
108.1093834743
 10
131.7660517981
 20
108.1098434403
 10
131.7822591039
 20
108.1102786064
 10
131.8027192677
 20
108.1106829993
  0
LWPOLYLINE
  5
4E2
100
AcDbEntity
  8
RACCORDO
100
AcDbPolyline
 62
7
  6
CONTINUOUS
 90
5
 70
0
 10
171.13640999
 20
111.5986284035
 10
171.1539259365
 20
111.6005535087
 10
171.167475297
 20
111.6022384217
 10
171.1765668601
 20
111.6036836177
 10
171.1816855311
 20
111.6049358081
  0
LINE
  5
4E3
100
AcDbEntity
  8
RACCORDO
100
AcDbLine
 62
7
  6
CONTINUOUS
 10
170.9520957784
 20
111.5791992853
 11
171.0144489876
 21
111.5859898314
  0
LINE
  5
4E4
100
AcDbEntity
  8
RACCORDO
100
AcDbLine
 62
7
  6
CONTINUOUS
 10
171.0144489876
 20
111.5859898314
 11
171.13640999
 21
111.5986284035
  0
LWPOLYLINE
  5
4E5
100
AcDbEntity
  8
RACCORDO
100
AcDbPolyline
 62
250
  6
CONTINUOUS
 90
13
 70
0
 10
160.022380579
 20
110.2028241428
 10
159.9551363296
 20
110.1964292398
 10
159.8890357666
 20
110.1800645183
 10
159.8251887734
 20
110.1540109261
 10
159.764671052
 20
110.1187150988
 10
159.7084910699
 20
110.0747733057
 10
159.6575770525
 20
110.0229144063
 10
159.6127470764
 20
109.9639520705
 10
159.5748040976
 20
109.8989201054
 10
159.5444519685
 20
109.8290879057
 10
159.5221577962
 20
109.7557171233
 10
159.5082055644
 20
109.6799954033
 10
159.5027653368
 20
109.6031896466
  0
LWPOLYLINE
  5
4E6
100
AcDbEntity
  8
RACCORDO
100
AcDbPolyline
 62
250
  6
CONTINUOUS
 90
10
 70
0
 10
124.400597958
 20
108.7798663693
 10
124.3416427337
 20
108.77533865
 10
124.2857296543
 20
108.7684163365
 10
124.2341574548
 20
108.7592602223
 10
124.1881240359
 20
108.7480829864
 10
124.1486986471
 20
108.7351442544
 10
124.1167970472
 20
108.7207445686
 10
124.0931602253
 20
108.7052184045
 10
124.0783371932
 20
108.6889264009
 10
124.0726722393
 20
108.6722469848
  0
LWPOLYLINE
  5
4E7
100
AcDbEntity
  8
RACCORDO
100
AcDbPolyline
 62
250
  6
CONTINUOUS
 90
19
 70
0
 10
136.9290422128
 20
110.7364779618
 10
136.8202534762
 20
110.7283237164
 10
136.7181565462
 20
110.7124020934
 10
136.6227514227
 20
110.6887130927
 10
136.5340117041
 20
110.6561393458
 10
136.451963792
 20
110.6157982212
 10
136.376686892
 20
110.5710418248
 10
136.3085899303
 20
110.5225305706
 10
136.2472639806
 20
110.4696040444
 10
136.1915614704
 20
110.4136331093
 10
136.1414043964
 20
110.3554423094
 10
136.0968707619
 20
110.2942071006
 10
136.0570470036
 20
110.2288247138
 10
136.0211437502
 20
110.1592357872
 10
135.989950373
 20
110.0854996827
 10
135.9649214229
 20
110.0066917164
 10
135.9465417501
 20
109.9225036604
 10
135.9343265043
 20
109.8332437426
 10
135.9282756856
 20
109.7389119631
  0
LWPOLYLINE
  5
4E8
100
AcDbEntity
  8
RACCORDO
100
AcDbPolyline
 62
250
  6
CONTINUOUS
 90
13
 70
0
 10
137.2006616253
 20
110.2283057687
 10
137.1227991124
 20
110.2229587405
 10
137.0462624713
 20
110.2074836844
 10
136.9723561444
 20
110.182143916
 10
136.9023397897
 20
110.1473708676
 10
136.8374069525
 20
110.1037568201
 10
136.7786646782
 20
110.0520448816
 10
136.7271143868
 20
109.9931161294
 10
136.6836350383
 20
109.9279747693
 10
136.6489681511
 20
109.8577312114
 10
136.6237048748
 20
109.7835827631
 10
136.6082760138
 20
109.7067931545
 10
136.6029448029
 20
109.628671274
  0
LWPOLYLINE
  5
4E9
100
AcDbEntity
  8
RACCORDO
100
AcDbPolyline
 62
250
  6
CONTINUOUS
 90
13
 70
0
 10
123.4051897973
 20
108.1399121926
 10
123.4834784926
 20
108.1450663525
 10
123.5604281649
 20
108.1603929856
 10
123.6347226941
 20
108.1856299506
 10
123.7050913721
 20
108.220345603
 10
123.7703306378
 20
108.2639461783
 10
123.8293246618
 20
108.3156859476
 10
123.8810644309
 20
108.3746799721
 10
123.9246650061
 20
108.4399192385
 10
123.9593806579
 20
108.5102879167
 10
123.9846176222
 20
108.5845824452
 10
123.9999442548
 20
108.6615321163
 10
124.0050984144
 20
108.7398208097
  0
LINE
  5
4EA
100
AcDbEntity
  8
RACCORDO
100
AcDbLine
 62
250
  6
CONTINUOUS
 10
138.4868509736
 20
109.6031896466
 11
139.1404090222
 21
109.6427198091
  0
LINE
  5
4EB
100
AcDbEntity
  8
RACCORDO
100
AcDbLine
 62
250
  6
CONTINUOUS
 10
137.9672357313
 20
110.2028241428
 11
138.6207937799
 21
110.2423543053
  0
LWPOLYLINE
  5
4EC
100
AcDbEntity
  8
RACCORDO
100
AcDbPolyline
 62
250
  6
CONTINUOUS
 90
19
 70
0
 10
136.9290425696
 20
110.3367214886
 10
136.8640877027
 20
110.3333816496
 10
136.8023614434
 20
110.3236575682
 10
136.744396087
 20
110.3084116712
 10
136.6907243926
 20
110.2885712917
 10
136.6414147303
 20
110.2649407053
 10
136.5961532273
 20
110.2380488194
 10
136.5551556476
 20
110.2086537928
 10
136.5182648987
 20
110.1772821468
 10
136.484706724
 20
110.1437519782
 10
136.4546776476
 20
110.1086265781
 10
136.4280108307
 20
110.0720880248
 10
136.4038137209
 20
110.0329404942
 10
136.3822991625
 20
109.9911499131
 10
136.3638759749
 20
109.9470412331
 10
136.3485274574
 20
109.8996649965
 10
136.3367606885
 20
109.8488023974
 10
136.3293044639
 20
109.7950968124
 10
136.3267536457
 20
109.7389119308
  0
LWPOLYLINE
  5
4ED
100
AcDbEntity
  8
RACCORDO
100
AcDbPolyline
 62
250
  6
CONTINUOUS
 90
8
 70
0
 10
139.1905025673
 20
109.6441079353
 10
139.2111428083
 20
109.6448160797
 10
139.2288263481
 20
109.645535301
 10
139.2435762586
 20
109.6462639099
 10
139.2554325173
 20
109.6469968386
 10
139.264409258
 20
109.6477323979
 10
139.2705145343
 20
109.6484722771
 10
139.2737744454
 20
109.6492164761
  0
LWPOLYLINE
  5
4EE
100
AcDbEntity
  8
RACCORDO
100
AcDbPolyline
 62
250
  6
CONTINUOUS
 90
10
 70
0
 10
160.4829259741
 20
110.2086826548
 10
160.5387117698
 20
110.2103189794
 10
160.5879919029
 20
110.212091995
 10
160.6320743997
 20
110.2139821505
 10
160.6714352837
 20
110.2159621197
 10
160.7055985315
 20
110.2180592289
 10
160.7344440999
 20
110.2203359056
 10
160.7579319744
 20
110.222812959
 10
160.7761021695
 20
110.2254695801
 10
160.7889546851
 20
110.2283057687
  0
LWPOLYLINE
  5
4EF
100
AcDbEntity
  8
RACCORDO
100
AcDbPolyline
 62
250
  6
CONTINUOUS
 90
10
 70
0
 10
115.4829259741
 20
110.2086826548
 10
115.5387117698
 20
110.2103189794
 10
115.5879919029
 20
110.212091995
 10
115.6320743997
 20
110.2139821505
 10
115.6714352837
 20
110.2159621197
 10
115.7055985315
 20
110.2180592289
 10
115.7344440999
 20
110.2203359056
 10
115.7579319744
 20
110.222812959
 10
115.7761021695
 20
110.2254695801
 10
115.7889546851
 20
110.2283057687
  0
LWPOLYLINE
  5
4F0
100
AcDbEntity
  8
RACCORDO
100
AcDbPolyline
 62
250
  6
CONTINUOUS
 90
7
 70
0
 10
161.112130992
 20
109.6143489681
 10
161.1804239142
 20
109.6163277771
 10
161.2394936775
 20
109.6184230519
 10
161.2912779989
 20
109.6206986527
 10
161.3346789832
 20
109.6231758665
 10
161.3670636137
 20
109.6258334064
 10
161.386671504
 20
109.6286712725
  0
LWPOLYLINE
  5
4F1
100
AcDbEntity
  8
RACCORDO
100
AcDbPolyline
 62
250
  6
CONTINUOUS
 90
7
 70
0
 10
116.112130992
 20
109.6143489681
 10
116.1804239142
 20
109.6163277771
 10
116.2394936775
 20
109.6184230519
 10
116.2912779989
 20
109.6206986527
 10
116.3346789832
 20
109.6231758665
 10
116.3670636137
 20
109.6258334064
 10
116.386671504
 20
109.6286712725
  0
LINE
  5
4F2
100
AcDbEntity
  8
RACCORDO
100
AcDbLine
 62
250
  6
CONTINUOUS
 10
139.1404090222
 20
109.6427198091
 11
139.1905025673
 21
109.6441079353
  0
LINE
  5
4F3
100
AcDbEntity
  8
RACCORDO
100
AcDbLine
 62
250
  6
CONTINUOUS
 10
160.9485126552
 20
109.6106844073
 11
161.112130992
 21
109.6143489681
  0
LINE
  5
4F4
100
AcDbEntity
  8
RACCORDO
100
AcDbLine
 62
250
  6
CONTINUOUS
 10
115.9485126552
 20
109.6106844073
 11
116.112130992
 21
109.6143489681
  0
LWPOLYLINE
  5
4F5
100
AcDbEntity
  8
RACCORDO
100
AcDbPolyline
 62
250
  6
CONTINUOUS
 90
3
 70
0
 10
160.2752265843
 20
110.204613379
 10
160.3499724622
 20
110.2057553487
 10
160.4829259741
 20
110.2086826548
  0
LWPOLYLINE
  5
4F6
100
AcDbEntity
  8
RACCORDO
100
AcDbPolyline
 62
250
  6
CONTINUOUS
 90
3
 70
0
 10
115.2752265843
 20
110.204613379
 10
115.3499724622
 20
110.2057553487
 10
115.4829259741
 20
110.2086826548
  0
LINE
  5
4F7
100
AcDbEntity
  8
RACCORDO
100
AcDbLine
 62
250
  6
CONTINUOUS
 10
160.7408563044
 20
109.6075159106
 11
160.9485126552
 21
109.6106844073
  0
LINE
  5
4F8
100
AcDbEntity
  8
RACCORDO
100
AcDbLine
 62
250
  6
CONTINUOUS
 10
115.7408563044
 20
109.6075159106
 11
115.9485126552
 21
109.6106844073
  0
LINE
  5
4F9
100
AcDbEntity
  8
RACCORDO
100
AcDbLine
 62
7
  6
CONTINUOUS
 10
159.2869168781
 20
110.2774104553
 11
159.4237553927
 21
110.2791496894
  0
LINE
  5
4FA
100
AcDbEntity
  8
RACCORDO
100
AcDbLine
 62
7
  6
CONTINUOUS
 10
114.2869168781
 20
110.2774104553
 11
114.4237553927
 21
110.2791496894
  0
LINE
  5
4FB
100
AcDbEntity
  8
RACCORDO
100
AcDbLine
 62
250
  6
CONTINUOUS
 10
160.48764732
 20
109.604980019
 11
160.7408563044
 21
109.6075159106
  0
LINE
  5
4FC
100
AcDbEntity
  8
RACCORDO
100
AcDbLine
 62
250
  6
CONTINUOUS
 10
115.48764732
 20
109.604980019
 11
115.7408563044
 21
109.6075159106
  0
LWPOLYLINE
  5
4FD
100
AcDbEntity
  8
RACCORDO
100
AcDbPolyline
 62
250
  6
CONTINUOUS
 90
3
 70
0
 10
160.022380579
 20
110.2028241428
 10
160.1116788714
 20
110.2031672171
 10
160.2752265843
 20
110.204613379
  0
LWPOLYLINE
  5
4FE
100
AcDbEntity
  8
RACCORDO
100
AcDbPolyline
 62
250
  6
CONTINUOUS
 90
3
 70
0
 10
115.022380579
 20
110.2028241428
 10
115.1116788714
 20
110.2031672171
 10
115.2752265843
 20
110.204613379
  0
LINE
  5
4FF
100
AcDbEntity
  8
RACCORDO
100
AcDbLine
 62
250
  6
CONTINUOUS
 10
160.0451668183
 20
109.6031896233
 11
160.48764732
 21
109.604980019
  0
LINE
  5
500
100
AcDbEntity
  8
RACCORDO
100
AcDbLine
 62
250
  6
CONTINUOUS
 10
115.0451668183
 20
109.6031896233
 11
115.48764732
 21
109.604980019
  0
LINE
  5
501
100
AcDbEntity
  8
RACCORDO
100
AcDbLine
 62
250
  6
CONTINUOUS
 10
114.5027653368
 20
109.6031896466
 11
115.0451668183
 21
109.6031896466
  0
LINE
  5
502
100
AcDbEntity
  8
RACCORDO
100
AcDbLine
 62
250
  6
CONTINUOUS
 10
159.5027653368
 20
109.6031896466
 11
160.0451668183
 21
109.6031896466
  0
LINE
  5
503
100
AcDbEntity
  8
RACCORDO
100
AcDbLine
 62
250
  6
CONTINUOUS
 10
174.5844265131
 20
109.6588637379
 11
173.984517896
 21
109.6588637379
  0
LINE
  5
504
100
AcDbEntity
  8
RACCORDO
100
AcDbLine
 62
250
  6
CONTINUOUS
 10
129.5844265131
 20
109.6588637379
 11
128.984517896
 21
109.6588637379
  0
LINE
  5
505
100
AcDbEntity
  8
RACCORDO
100
AcDbLine
 62
250
  6
CONTINUOUS
 10
123.4051897973
 20
109.6588637379
 11
124.0050984144
 21
109.6588637379
  0
LINE
  5
506
100
AcDbEntity
  8
RACCORDO
100
AcDbLine
 62
250
  6
CONTINUOUS
 10
168.4051897973
 20
109.6588637379
 11
169.0050984144
 21
109.6588637379
  0
LINE
  5
507
100
AcDbEntity
  8
RACCORDO
100
AcDbLine
 62
250
  6
CONTINUOUS
 10
162.0613406248
 20
109.7389119631
 11
161.6628627456
 21
109.7389119631
  0
LINE
  5
508
100
AcDbEntity
  8
RACCORDO
100
AcDbLine
 62
250
  6
CONTINUOUS
 10
117.0613406248
 20
109.7389119631
 11
116.6628627456
 21
109.7389119631
  0
LINE
  5
509
100
AcDbEntity
  8
RACCORDO
100
AcDbLine
 62
250
  6
CONTINUOUS
 10
135.9282756856
 20
109.7389119631
 11
136.3267535648
 21
109.7389119631
  0
LINE
  5
50A
100
AcDbEntity
  8
RACCORDO
100
AcDbLine
 62
250
  6
CONTINUOUS
 10
180.9282756856
 20
109.7389119631
 11
181.3267535648
 21
109.7389119631
  0
LINE
  5
50B
100
AcDbEntity
  8
RACCORDO
100
AcDbLine
 62
250
  6
CONTINUOUS
 10
183.5082889761
 20
110.336721631
 11
181.9290422128
 21
110.336721631
  0
LINE
  5
50C
100
AcDbEntity
  8
RACCORDO
100
AcDbLine
 62
250
  6
CONTINUOUS
 10
161.0605740976
 20
110.336721631
 11
159.4813273343
 21
110.336721631
  0
LINE
  5
50D
100
AcDbEntity
  8
RACCORDO
100
AcDbLine
 62
250
  6
CONTINUOUS
 10
138.5082889761
 20
110.336721631
 11
136.9290422128
 21
110.336721631
  0
LINE
  5
50E
100
AcDbEntity
  8
RACCORDO
100
AcDbLine
 62
250
  6
CONTINUOUS
 10
116.0605740976
 20
110.336721631
 11
114.4813273343
 21
110.336721631
  0
LINE
  5
50F
100
AcDbEntity
  8
RACCORDO
100
AcDbLine
 62
250
  6
CONTINUOUS
 10
183.4948081552
 20
110.7364779618
 11
181.9290422128
 21
110.7364779618
  0
LINE
  5
510
100
AcDbEntity
  8
RACCORDO
100
AcDbLine
 62
250
  6
CONTINUOUS
 10
161.0605740976
 20
110.7364779618
 11
159.4948081552
 21
110.7364779618
  0
LINE
  5
511
100
AcDbEntity
  8
RACCORDO
100
AcDbLine
 62
250
  6
CONTINUOUS
 10
138.4948081552
 20
110.7364779618
 11
136.9290422128
 21
110.7364779618
  0
LINE
  5
512
100
AcDbEntity
  8
RACCORDO
100
AcDbLine
 62
250
  6
CONTINUOUS
 10
116.0605740976
 20
110.7364779618
 11
114.4948081552
 21
110.7364779618
  0
LINE
  5
513
100
AcDbEntity
  8
0
100
AcDbLine
 62
7
  6
CONTINUOUS
 10
173.9551353758
 20
110.9502024519
 11
173.4004601158
 21
110.9502024519
  0
LINE
  5
514
100
AcDbEntity
  8
0
100
AcDbLine
 62
7
  6
CONTINUOUS
 10
169.589548758
 20
110.9502024519
 11
169.03448397
 21
110.9502024519
  0
LINE
  5
515
100
AcDbEntity
  8
0
100
AcDbLine
 62
7
  6
CONTINUOUS
 10
128.9551353758
 20
110.9502024519
 11
128.4004601158
 21
110.9502024519
  0
LINE
  5
516
100
AcDbEntity
  8
0
100
AcDbLine
 62
7
  6
CONTINUOUS
 10
124.589548758
 20
110.9502024519
 11
124.03448397
 21
110.9502024519
  0
LINE
  5
517
100
AcDbEntity
  8
RACCORDO
100
AcDbLine
 62
250
  6
CONTINUOUS
 10
137.6677187031
 20
109.6040022297
 11
138.4868509736
 21
109.6031896466
  0
LINE
  5
518
100
AcDbEntity
  8
RACCORDO
100
AcDbLine
 62
250
  6
CONTINUOUS
 10
182.6677187031
 20
109.6040022297
 11
183.4868509736
 21
109.6031896466
  0
LINE
  5
519
100
AcDbEntity
  8
RACCORDO
100
AcDbLine
 62
250
  6
CONTINUOUS
 10
137.808592086
 20
110.203635747
 11
137.9672357313
 21
110.2028241428
  0
LINE
  5
51A
100
AcDbEntity
  8
RACCORDO
100
AcDbLine
 62
250
  6
CONTINUOUS
 10
182.808592086
 20
110.203635747
 11
182.9672357313
 21
110.2028241428
  0
LINE
  5
51B
100
AcDbEntity
  8
RACCORDO
100
AcDbLine
 62
250
  6
CONTINUOUS
 10
137.4244023742
 20
109.6055928184
 11
137.6677187031
 21
109.6040022297
  0
LINE
  5
51C
100
AcDbEntity
  8
RACCORDO
100
AcDbLine
 62
250
  6
CONTINUOUS
 10
182.4244023742
 20
109.6055928184
 11
182.6677187031
 21
109.6040022297
  0
LINE
  5
51D
100
AcDbEntity
  8
RACCORDO
100
AcDbLine
 62
250
  6
CONTINUOUS
 10
137.2139969154
 20
109.6079547976
 11
137.4244023742
 21
109.6055928184
  0
LINE
  5
51E
100
AcDbEntity
  8
RACCORDO
100
AcDbLine
 62
250
  6
CONTINUOUS
 10
182.2139969154
 20
109.6079547976
 11
182.4244023742
 21
109.6055928184
  0
LINE
  5
51F
100
AcDbEntity
  8
RACCORDO
100
AcDbLine
 62
7
  6
CONTINUOUS
 10
138.5658609177
 20
110.2791496894
 11
138.7026994323
 21
110.2774104553
  0
LINE
  5
520
100
AcDbEntity
  8
RACCORDO
100
AcDbLine
 62
7
  6
CONTINUOUS
 10
183.5658609177
 20
110.2791496894
 11
183.7026994323
 21
110.2774104553
  0
LINE
  5
521
100
AcDbEntity
  8
RACCORDO
100
AcDbLine
 62
250
  6
CONTINUOUS
 10
137.6700520544
 20
110.2052268835
 11
137.808592086
 21
110.203635747
  0
LINE
  5
522
100
AcDbEntity
  8
RACCORDO
100
AcDbLine
 62
250
  6
CONTINUOUS
 10
182.6700520544
 20
110.2052268835
 11
182.808592086
 21
110.203635747
  0
LINE
  5
523
100
AcDbEntity
  8
RACCORDO
100
AcDbLine
 62
250
  6
CONTINUOUS
 10
158.8492072882
 20
109.6427198091
 11
159.5027653368
 21
109.6031896466
  0
LWPOLYLINE
  5
524
100
AcDbEntity
  8
RACCORDO
100
AcDbPolyline
 62
250
  6
CONTINUOUS
 90
10
 70
0
 10
160.022380579
 20
110.2028241428
 10
159.3586297686
 20
110.2430091414
 10
159.3494779693
 20
110.2436817966
 10
159.3413671327
 20
110.244372271
 10
159.3342634059
 20
110.2450819849
 10
159.3282006418
 20
110.2458095179
 10
159.3232803994
 20
110.2465506092
 10
159.3195365317
 20
110.2473038386
 10
159.3169351856
 20
110.2480706263
 10
159.3154763611
 20
110.2488509723
  0
LWPOLYLINE
  5
525
100
AcDbEntity
  8
RACCORDO
100
AcDbPolyline
 62
250
  6
CONTINUOUS
 90
13
 70
0
 10
160.7889546851
 20
110.2283057687
 10
160.8668225319
 20
110.2229580227
 10
160.9433631859
 20
110.2074811522
 10
161.0172720751
 20
110.1821389476
 10
161.0872894838
 20
110.1473633459
 10
161.1522220234
 20
110.1037470684
 10
161.2109629732
 20
110.0520335178
 10
161.2625111425
 20
109.9931041084
 10
161.305987935
 20
109.927963243
 10
161.3406523246
 20
109.8577211934
 10
161.365913485
 20
109.7835751768
 10
161.3813408605
 20
109.7067889507
 10
161.386671504
 20
109.6286712725
  0
LWPOLYLINE
  5
526
100
AcDbEntity
  8
RACCORDO
100
AcDbPolyline
 62
250
  6
CONTINUOUS
 90
6
 70
0
 10
166.1387621709
 20
108.4861798783
 10
166.1461154967
 20
108.4856633398
 10
166.1622773987
 20
108.4864524707
 10
166.1868870821
 20
108.488665465
 10
166.219968287
 20
108.49271837
 10
166.3073133871
 20
108.5047584897
  0
LWPOLYLINE
  5
527
100
AcDbEntity
  8
RACCORDO
100
AcDbPolyline
 62
250
  6
CONTINUOUS
 90
10
 70
0
 10
173.5890183551
 20
108.7798663598
 10
173.6479622982
 20
108.7753375931
 10
173.7038685433
 20
108.768415425
 10
173.7554382638
 20
108.7592600356
 10
173.8014733784
 20
108.7480834298
 10
173.8409031555
 20
108.7351449086
 10
173.8728097574
 20
108.7207452079
 10
173.8964511303
 20
108.7052189309
 10
173.9112776427
 20
108.6889266452
 10
173.916944071
 20
108.6722469773
  0
LWPOLYLINE
  5
528
100
AcDbEntity
  8
RACCORDO
100
AcDbPolyline
 62
250
  6
CONTINUOUS
 90
13
 70
0
 10
137.9672357313
 20
110.2028241428
 10
138.0344779599
 20
110.1964295848
 10
138.1005764847
 20
110.1800658433
 10
138.1644215371
 20
110.154013886
 10
138.2249371867
 20
110.1187205795
 10
138.2811154943
 20
110.0747820239
 10
138.3320292285
 20
110.0229260134
 10
138.3768603373
 20
109.9639653972
 10
138.4148052242
 20
109.8989339103
 10
138.4451596467
 20
109.8291006839
 10
138.4674560571
 20
109.7557272355
 10
138.4814100081
 20
109.6800012129
 10
138.4868509736
 20
109.6031896466
  0
LINE
  5
529
100
AcDbEntity
  8
RACCORDO
100
AcDbLine
 62
7
  6
CONTINUOUS
 10
126.9748726539
 20
111.5860211954
 11
127.0372887026
 21
111.5792252642
  0
LWPOLYLINE
  5
52A
100
AcDbEntity
  8
RACCORDO
100
AcDbPolyline
 62
250
  6
CONTINUOUS
 90
5
 70
0
 10
176.7730407647
 20
108.492302133
 10
176.8049181936
 20
108.4884288381
 10
176.828522036
 20
108.4862658885
 10
176.843917134
 20
108.485537721
 10
176.8508541395
 20
108.4861798783
  0
LWPOLYLINE
  5
52B
100
AcDbEntity
  8
RACCORDO
100
AcDbPolyline
 62
250
  6
CONTINUOUS
 90
9
 70
0
 10
158.7158418649
 20
109.6492164761
 10
158.7193372389
 20
109.6484356763
 10
158.7258684721
 20
109.6476686558
 10
158.7353519587
 20
109.6469154148
 10
158.7476866685
 20
109.6461746764
 10
158.7627800553
 20
109.6454477173
 10
158.7805687966
 20
109.644738368
 10
158.8009756485
 20
109.6440479053
 10
158.8492072882
 20
109.6427198091
  0
LWPOLYLINE
  5
52C
100
AcDbEntity
  8
RACCORDO
100
AcDbPolyline
 62
250
  6
CONTINUOUS
 90
9
 70
0
 10
184.2737744454
 20
101.6511884276
 10
184.2705158034
 20
101.651932424
 10
184.2644128183
 20
101.6526721534
 10
184.2554388124
 20
101.6534076159
 10
184.243585149
 20
101.6541405039
 10
184.2288371173
 20
101.654869125
 10
184.2111541749
 20
101.6555884023
 10
184.1905126943
 20
101.6562966435
 10
184.1404090222
 20
101.6576850946
  0
LWPOLYLINE
  5
52D
100
AcDbEntity
  8
RACCORDO
100
AcDbPolyline
 62
7
  6
CONTINUOUS
 90
7
 70
0
 10
119.3908058772
 20
130.4388644672
 10
119.3457419785
 20
130.4665194371
 10
119.301930299
 20
130.4915625471
 10
119.257954782
 20
130.5137704669
 10
119.2127743839
 20
130.5328000778
 10
119.1658474716
 20
130.5481122133
 10
119.1582814197
 20
130.549795711
  0
LINE
  5
52E
100
AcDbEntity
  8
RACCORDO
100
AcDbLine
 62
7
  6
CONTINUOUS
 10
119.4915535069
 20
130.3752288199
 11
119.3908058772
 21
130.4388644672
  0
LINE
  5
52F
100
AcDbEntity
  8
RACCORDO
100
AcDbLine
 62
7
  6
CONTINUOUS
 10
159.4237553927
 20
101.0212552144
 11
159.4813273343
 21
100.9636832727
  0
LINE
  5
530
100
AcDbEntity
  8
RACCORDO
100
AcDbLine
 62
7
  6
CONTINUOUS
 10
156.4948081552
 20
85.6433501256
 11
156.4948081552
 21
97.6514205194
  0
LINE
  5
531
100
AcDbEntity
  8
RACCORDO
100
AcDbLine
 62
7
  6
CONTINUOUS
 10
156.4948081552
 20
113.6489843843
 11
156.4948081552
 21
125.6570547781
  0
LINE
  5
532
100
AcDbEntity
  8
RACCORDO
100
AcDbLine
 62
250
  6
CONTINUOUS
 10
133.6325430215
 20
80.9811337201
 11
133.6194225671
 21
80.9698857468
  0
LINE
  5
533
100
AcDbEntity
  8
RACCORDO
100
AcDbLine
 62
7
  6
CONTINUOUS
 10
173.9529769259
 20
110.8997385317
 11
173.9178840164
 21
110.8773738321
  0
LWPOLYLINE
  5
534
100
AcDbEntity
  8
RACCORDO
100
AcDbPolyline
 62
7
  6
CONTINUOUS
 90
7
 70
0
 10
119.5946249514
 20
80.9868035373
 10
119.5992816175
 20
80.9893805155
 10
119.6215732724
 20
81.0001202357
 10
119.6437346802
 20
81.0081292669
 10
119.6663105202
 20
81.0134500169
 10
119.6887759188
 20
81.0157782992
 10
119.6948081576
 20
81.0158880152
  0
LWPOLYLINE
  5
535
100
AcDbEntity
  8
RACCORDO
100
AcDbPolyline
 62
250
  6
CONTINUOUS
 90
9
 70
0
 10
159.3154763611
 20
101.0515539314
 10
159.3169361072
 20
101.0523344761
 10
159.3195383125
 20
101.0531014111
 10
159.3232829771
 20
101.0538547364
 10
159.3282041779
 20
101.0545958701
 10
159.3342678379
 20
101.0553233941
 10
159.3413717263
 20
101.0560330544
 10
159.349481766
 20
101.0567234328
 10
159.358632034
 20
101.0573959475
  0
LWPOLYLINE
  5
536
100
AcDbEntity
  8
RACCORDO
100
AcDbPolyline
 62
250
  6
CONTINUOUS
 90
5
 70
0
 10
119.1795844983
 20
80.7618968437
 10
119.2207143067
 20
80.7835150399
 10
119.2588935057
 20
80.8110582454
 10
119.2934787744
 20
80.84406237
 10
119.3238873524
 20
80.8819713077
  0
LINE
  5
537
100
AcDbEntity
  8
RACCORDO
100
AcDbLine
 62
250
  6
CONTINUOUS
 10
123.3052134137
 20
107.7284239581
 11
123.3651442378
 21
107.744412649
  0
LINE
  5
538
100
AcDbEntity
  8
RACCORDO
100
AcDbLine
 62
250
  6
CONTINUOUS
 10
123.2141448348
 20
107.7046574564
 11
123.3052134137
 21
107.7284239581
  0
LWPOLYLINE
  5
539
100
AcDbEntity
  8
RACCORDO
100
AcDbPolyline
 62
250
  6
CONTINUOUS
 90
3
 70
0
 10
123.090688788
 20
107.673339235
 10
123.121730214
 20
107.6811509966
 10
123.2141448348
 20
107.7046574564
  0
LINE
  5
53A
100
AcDbEntity
  8
RACCORDO
100
AcDbLine
 62
250
  6
CONTINUOUS
 10
122.4380448537
 20
108.7283429822
 11
122.4861468691
 21
108.7398208097
  0
LINE
  5
53B
100
AcDbEntity
  8
RACCORDO
100
AcDbLine
 62
250
  6
CONTINUOUS
 10
122.3383398966
 20
108.7053521494
 11
122.4380448537
 21
108.7283429822
  0
LINE
  5
53C
100
AcDbEntity
  8
RACCORDO
100
AcDbLine
 62
250
  6
CONTINUOUS
 10
122.2342816246
 20
108.6817622387
 11
122.3383398966
 21
108.7053521494
  0
LINE
  5
53D
100
AcDbEntity
  8
RACCORDO
100
AcDbLine
 62
250
  6
CONTINUOUS
 10
122.0694951736
 20
108.6457881267
 11
122.2342816246
 21
108.6817622387
  0
LINE
  5
53E
100
AcDbEntity
  8
RACCORDO
100
AcDbLine
 62
250
  6
CONTINUOUS
 10
121.8953642287
 20
108.6096326928
 11
122.0694951736
 21
108.6457881267
  0
LINE
  5
53F
100
AcDbEntity
  8
RACCORDO
100
AcDbLine
 62
250
  6
CONTINUOUS
 10
121.7145869377
 20
108.5742719128
 11
121.8953642287
 21
108.6096326928
  0
LINE
  5
540
100
AcDbEntity
  8
0
100
AcDbLine
 62
250
  6
CONTINUOUS
 10
128.7148472969
 20
111.0650974784
 11
128.8881683188
 21
111.0968774668
  0
LINE
  5
541
100
AcDbEntity
  8
0
100
AcDbLine
 62
250
  6
CONTINUOUS
 10
128.5584340233
 20
111.0371772582
 11
128.7148472969
 21
111.0650974784
  0
LINE
  5
542
100
AcDbEntity
  8
0
100
AcDbLine
 62
250
  6
CONTINUOUS
 10
128.4327265549
 20
111.015350517
 11
128.5584340233
 21
111.0371772582
  0
LINE
  5
543
100
AcDbEntity
  8
0
100
AcDbLine
 62
250
  6
CONTINUOUS
 10
128.2986919713
 20
110.9927820183
 11
128.4327265549
 21
111.015350517
  0
LWPOLYLINE
  5
544
100
AcDbEntity
  8
RACCORDO
100
AcDbPolyline
 62
250
  6
CONTINUOUS
 90
4
 70
0
 10
121.3586922305
 20
108.5124920204
 10
121.4723422618
 20
108.5310417978
 10
121.5318314309
 20
108.5410577548
 10
121.7145869377
 20
108.5742719128
  0
LINE
  5
545
100
AcDbEntity
  8
0
100
AcDbLine
 62
250
  6
CONTINUOUS
 10
128.223689824
 20
110.9805163262
 11
128.2986919713
 21
110.9927820183
  0
LWPOLYLINE
  5
546
100
AcDbEntity
  8
RACCORDO
100
AcDbPolyline
 62
7
  6
CONTINUOUS
 90
7
 70
0
 10
125.577474169
 20
111.529062746
 10
125.6270577997
 20
111.5366851209
 10
125.6746722745
 20
111.543697704
 10
125.7203094248
 20
111.5501492812
 10
125.7639672463
 20
111.5561000302
 10
125.8056341138
 20
111.5615812577
 10
125.8452877552
 20
111.5665957646
  0
LINE
  5
547
100
AcDbEntity
  8
RACCORDO
100
AcDbLine
 62
250
  6
CONTINUOUS
 10
121.3073133871
 20
108.5047584897
 11
121.3586922305
 21
108.5124920204
  0
LINE
  5
548
100
AcDbEntity
  8
RACCORDO
100
AcDbLine
 62
7
  6
CONTINUOUS
 10
125.8452877552
 20
111.5665957646
 11
125.9183564553
 21
111.575355699
  0
LINE
  5
549
100
AcDbEntity
  8
RACCORDO
100
AcDbLine
 62
7
  6
CONTINUOUS
 10
125.9183564553
 20
111.575355699
 11
125.9841674831
 21
111.5827369972
  0
LWPOLYLINE
  5
54A
100
AcDbEntity
  8
RACCORDO
100
AcDbPolyline
 62
7
  6
CONTINUOUS
 90
5
 70
0
 10
126.13640999
 20
111.5986284035
 10
126.1539259365
 20
111.6005535087
 10
126.167475297
 20
111.6022384217
 10
126.1765668601
 20
111.6036836177
 10
126.1816855311
 20
111.6049358081
  0
LINE
  5
54B
100
AcDbEntity
  8
RACCORDO
100
AcDbLine
 62
7
  6
CONTINUOUS
 10
125.9841674831
 20
111.5827369972
 11
126.042826396
 21
111.5889697244
  0
LINE
  5
54C
100
AcDbEntity
  8
RACCORDO
100
AcDbLine
 62
7
  6
CONTINUOUS
 10
126.042826396
 20
111.5889697244
 11
126.13640999
 21
111.5986284035
  0
LWPOLYLINE
  5
54D
100
AcDbEntity
  8
RACCORDO
100
AcDbPolyline
 62
250
  6
CONTINUOUS
 90
13
 70
0
 10
115.022380579
 20
110.2028241428
 10
114.9551363296
 20
110.1964292398
 10
114.8890357666
 20
110.1800645183
 10
114.8251887734
 20
110.1540109261
 10
114.764671052
 20
110.1187150988
 10
114.7084910699
 20
110.0747733057
 10
114.6575770525
 20
110.0229144063
 10
114.6127470764
 20
109.9639520705
 10
114.5748040976
 20
109.8989201054
 10
114.5444519685
 20
109.8290879057
 10
114.5221577962
 20
109.7557171233
 10
114.5082055644
 20
109.6799954033
 10
114.5027653368
 20
109.6031896466
  0
LINE
  5
54E
100
AcDbEntity
  8
RACCORDO
100
AcDbLine
 62
7
  6
CONTINUOUS
 10
185.4952648143
 20
112.6502024519
 11
184.0944426514
 21
112.6502024519
  0
LINE
  5
54F
100
AcDbEntity
  8
RACCORDO
100
AcDbLine
 62
7
  6
CONTINUOUS
 10
140.4952648143
 20
112.6502024519
 11
139.0944426514
 21
112.6502024519
  0
LINE
  5
550
100
AcDbEntity
  8
RACCORDO
100
AcDbLine
 62
7
  6
CONTINUOUS
 10
112.4943514961
 20
112.6502024519
 11
113.895173659
 21
112.6502024519
  0
LINE
  5
551
100
AcDbEntity
  8
RACCORDO
100
AcDbLine
 62
7
  6
CONTINUOUS
 10
157.4943514961
 20
112.6502024519
 11
158.895173659
 21
112.6502024519
  0
LWPOLYLINE
  5
552
100
AcDbEntity
  8
RACCORDO
100
AcDbPolyline
 62
250
  6
CONTINUOUS
 90
13
 70
0
 10
182.9672357313
 20
110.2028241428
 10
183.0344779599
 20
110.1964295848
 10
183.1005764847
 20
110.1800658433
 10
183.1644215371
 20
110.154013886
 10
183.2249371867
 20
110.1187205795
 10
183.2811154943
 20
110.0747820239
 10
183.3320292285
 20
110.0229260134
 10
183.3768603373
 20
109.9639653972
 10
183.4148052242
 20
109.8989339103
 10
183.4451596467
 20
109.8291006839
 10
183.4674560571
 20
109.7557272355
 10
183.4814100081
 20
109.6800012129
 10
183.4868509736
 20
109.6031896466
  0
LINE
  5
553
100
AcDbEntity
  8
RACCORDO
100
AcDbLine
 62
7
  6
CONTINUOUS
 10
171.9748726539
 20
111.5860211954
 11
172.0372887026
 21
111.5792252642
  0
LWPOLYLINE
  5
554
100
AcDbEntity
  8
RACCORDO
100
AcDbPolyline
 62
7
  6
CONTINUOUS
 90
9
 70
0
 10
172.0372887026
 20
111.5792252642
 10
172.1065541183
 20
111.5711957506
 10
172.1441089768
 20
111.5666230205
 10
172.1837891385
 20
111.5616061719
 10
172.2254923728
 20
111.5561210148
 10
172.2691884818
 20
111.5501657503
 10
172.3148632026
 20
111.5437094255
 10
172.3625171503
 20
111.536691382
 10
172.4121421414
 20
111.529062746
  0
LWPOLYLINE
  5
555
100
AcDbEntity
  8
RACCORDO
100
AcDbPolyline
 62
250
  6
CONTINUOUS
 90
9
 70
0
 10
181.6029448064
 20
109.6286719821
 10
181.6249904356
 20
109.6255709058
 10
181.6626835504
 20
109.6226585388
 10
181.7143580699
 20
109.6199348812
 10
181.7784607476
 20
109.6173851565
 10
181.8531318204
 20
109.6150241411
 10
181.9359439197
 20
109.6128961646
 10
182.0237333204
 20
109.611031238
 10
182.2139969154
 20
109.6079547976
  0
LINE
  5
556
100
AcDbEntity
  8
0
100
AcDbLine
 62
250
  6
CONTINUOUS
 10
169.7600095312
 20
110.9814851969
 11
169.7692454367
 21
110.9800142999
  0
LWPOLYLINE
  5
557
100
AcDbEntity
  8
RACCORDO
100
AcDbPolyline
 62
250
  6
CONTINUOUS
 90
4
 70
0
 10
176.522761504
 20
108.5301200063
 10
176.6368915347
 20
108.5116329224
 10
176.687877902
 20
108.5039332092
 10
176.7730407647
 20
108.492302133
  0
LINE
  5
558
100
AcDbEntity
  8
0
100
AcDbLine
 62
250
  6
CONTINUOUS
 10
169.6267480883
 20
111.0034869404
 11
169.7600095312
 21
110.9814851969
  0
LINE
  5
559
100
AcDbEntity
  8
RACCORDO
100
AcDbLine
 62
250
  6
CONTINUOUS
 10
176.4626750837
 20
108.540228207
 11
176.522761504
 21
108.5301200063
  0
LWPOLYLINE
  5
55A
100
AcDbEntity
  8
0
100
AcDbPolyline
 62
250
  6
CONTINUOUS
 90
4
 70
0
 10
169.7692454367
 20
110.9800142999
 10
169.7720397115
 20
110.9795385134
 10
169.7736087429
 20
110.9792786966
 10
169.7739579669
 20
110.9792431493
  0
LINE
  5
55B
100
AcDbEntity
  8
0
100
AcDbLine
 62
250
  6
CONTINUOUS
 10
169.4891376712
 20
111.0270294679
 11
169.6267480883
 21
111.0034869404
  0
LINE
  5
55C
100
AcDbEntity
  8
0
100
AcDbLine
 62
250
  6
CONTINUOUS
 10
169.3401557003
 20
111.0533289165
 11
169.4891376712
 21
111.0270294679
  0
LINE
  5
55D
100
AcDbEntity
  8
0
100
AcDbLine
 62
250
  6
CONTINUOUS
 10
169.1979541644
 20
111.0790566505
 11
169.3401557003
 21
111.0533289165
  0
LINE
  5
55E
100
AcDbEntity
  8
RACCORDO
100
AcDbLine
 62
250
  6
CONTINUOUS
 10
176.277616427
 20
108.573771714
 11
176.4626750837
 21
108.540228207
  0
LINE
  5
55F
100
AcDbEntity
  8
0
100
AcDbLine
 62
250
  6
CONTINUOUS
 10
169.1014047008
 20
111.0968612681
 11
169.1979541644
 21
111.0790566505
  0
LINE
  5
560
100
AcDbEntity
  8
RACCORDO
100
AcDbLine
 62
250
  6
CONTINUOUS
 10
176.095323534
 20
108.6094096647
 11
176.277616427
 21
108.573771714
  0
LINE
  5
561
100
AcDbEntity
  8
RACCORDO
100
AcDbLine
 62
250
  6
CONTINUOUS
 10
175.9203111796
 20
108.645744904
 11
176.095323534
 21
108.6094096647
  0
LINE
  5
562
100
AcDbEntity
  8
RACCORDO
100
AcDbLine
 62
250
  6
CONTINUOUS
 10
175.7551051459
 20
108.6818115795
 11
175.9203111796
 21
108.645744904
  0
LWPOLYLINE
  5
563
100
AcDbEntity
  8
RACCORDO
100
AcDbPolyline
 62
250
  6
CONTINUOUS
 90
4
 70
0
 10
175.5034694412
 20
108.7398208097
 10
175.5514453355
 20
108.7283695714
 10
175.6006366099
 20
108.7169180916
 10
175.7551051459
 20
108.6818115795
  0
LINE
  5
564
100
AcDbEntity
  8
RACCORDO
100
AcDbLine
 62
250
  6
CONTINUOUS
 10
174.8392021152
 20
107.6883600691
 11
174.8989275225
 21
107.673339235
  0
LINE
  5
565
100
AcDbEntity
  8
RACCORDO
100
AcDbLine
 62
250
  6
CONTINUOUS
 10
174.7502673552
 20
107.7111938738
 11
174.8392021152
 21
107.6883600691
  0
LINE
  5
566
100
AcDbEntity
  8
RACCORDO
100
AcDbLine
 62
250
  6
CONTINUOUS
 10
174.6766926388
 20
107.7304923836
 11
174.7502673552
 21
107.7111938738
  0
LINE
  5
567
100
AcDbEntity
  8
RACCORDO
100
AcDbLine
 62
250
  6
CONTINUOUS
 10
174.6244720726
 20
107.744412649
 11
174.6766926388
 21
107.7304923836
  0
LWPOLYLINE
  5
568
100
AcDbEntity
  8
RACCORDO
100
AcDbPolyline
 62
250
  6
CONTINUOUS
 90
5
 70
0
 10
119.1795993137
 20
130.5385004249
 10
119.2207276457
 20
130.516879551
 10
119.258905059
 20
130.4893340833
 10
119.2934882618
 20
130.456328751
 10
119.3238945644
 20
130.4184201968
  0
LWPOLYLINE
  5
569
100
AcDbEntity
  8
RACCORDO
100
AcDbPolyline
 62
7
  6
CONTINUOUS
 90
3
 70
0
 10
119.59457182
 20
130.3136238973
 10
119.5484348032
 20
130.3404649798
 10
119.4915535069
 20
130.3752288199
  0
LINE
  5
56A
100
AcDbEntity
  8
RACCORDO
100
AcDbLine
 62
7
  6
CONTINUOUS
 10
173.9529769259
 20
100.4006663719
 11
173.9178840164
 21
100.4230310716
  0
LWPOLYLINE
  5
56B
100
AcDbEntity
  8
RACCORDO
100
AcDbPolyline
 62
250
  6
CONTINUOUS
 90
15
 70
0
 10
133.6194124143
 20
130.3305281453
 10
133.6279772901
 20
130.3234888204
 10
133.6361197211
 20
130.3162606739
 10
133.6438189555
 20
130.3088348408
 10
133.6510175978
 20
130.3012299469
 10
133.6577378823
 20
130.2934053669
 10
133.664053683
 20
130.2852708722
 10
133.6699445251
 20
130.276784399
 10
133.675331854
 20
130.2679786559
 10
133.6801730385
 20
130.2588816709
 10
133.6844166056
 20
130.2494683656
 10
133.6880093356
 20
130.23973944
 10
133.6909003412
 20
130.2297584492
 10
133.6930346192
 20
130.2195328197
 10
133.6943556387
 20
130.2090133582
  0
LWPOLYLINE
  5
56C
100
AcDbEntity
  8
RACCORDO
100
AcDbPolyline
 62
250
  6
CONTINUOUS
 90
13
 70
0
 10
158.8492072882
 20
101.6576850946
 10
158.8547251887
 20
101.5802699226
 10
158.8688453497
 20
101.5041501189
 10
158.8913315022
 20
101.4305993771
 10
158.921807391
 20
101.3608484031
 10
158.9597630709
 20
101.2960643222
 10
159.0045634391
 20
101.2373311501
 10
159.0554588623
 20
101.185631654
 10
159.1115977204
 20
101.1418309085
 10
159.1720406561
 20
101.1066618203
 10
159.2357762929
 20
101.080712865
 10
159.3017381588
 20
101.0644182397
 10
159.3688225304
 20
101.0580505984
  0
LWPOLYLINE
  5
56D
100
AcDbEntity
  8
RACCORDO
100
AcDbPolyline
 62
250
  6
CONTINUOUS
 90
13
 70
0
 10
158.7158418649
 20
101.6511884276
 10
158.7210591352
 20
101.5729807035
 10
158.7364313053
 20
101.4961090638
 10
158.7616957602
 20
101.4218867676
 10
158.7964208872
 20
101.351581813
 10
158.8400134496
 20
101.2863952753
 10
158.8917287211
 20
101.2274407876
 10
158.9506832088
 20
101.1757255161
 10
159.0158697465
 20
101.1321329537
 10
159.0861747011
 20
101.0974078267
 10
159.1603969973
 20
101.0721433718
 10
159.237268637
 20
101.0567712017
 10
159.3154763611
 20
101.0515539314
  0
LWPOLYLINE
  5
56E
100
AcDbEntity
  8
RACCORDO
100
AcDbPolyline
 62
250
  6
CONTINUOUS
 90
4
 70
0
 10
160.0291348866
 20
110.1779640671
 10
160.0362659545
 20
110.071146709
 10
160.0383071235
 20
110.0194106728
 10
160.0419244769
 20
109.8957092553
  0
LINE
  5
56F
100
AcDbEntity
  8
RACCORDO
100
AcDbLine
 62
250
  6
CONTINUOUS
 10
160.0419244769
 20
109.8957092553
 11
160.0433080027
 21
109.8268263045
  0
LINE
  5
570
100
AcDbEntity
  8
RACCORDO
100
AcDbLine
 62
250
  6
CONTINUOUS
 10
160.0433080027
 20
109.8268263045
 11
160.0451668184
 21
109.6031896466
  0
LINE
  5
571
100
AcDbEntity
  8
RACCORDO
100
AcDbLine
 62
7
  6
CONTINUOUS
 10
158.6948081552
 20
109.6702501858
 11
158.6948081552
 21
101.6301547179
  0
LINE
  5
572
100
AcDbEntity
  8
RACCORDO
100
AcDbLine
 62
250
  6
CONTINUOUS
 10
158.7158418649
 20
101.6511884276
 11
158.7158418649
 21
109.6492164761
  0
LINE
  5
573
100
AcDbEntity
  8
RACCORDO
100
AcDbLine
 62
250
  6
CONTINUOUS
 10
158.8492072882
 20
101.6576850946
 11
158.8492072882
 21
109.6427198091
  0
LINE
  5
574
100
AcDbEntity
  8
RACCORDO
100
AcDbLine
 62
7
  6
CONTINUOUS
 10
159.4948081552
 20
112.0505679556
 11
159.4948081552
 21
110.7364779618
  0
LINE
  5
575
100
AcDbEntity
  8
RACCORDO
100
AcDbLine
 62
7
  6
CONTINUOUS
 10
159.4948081552
 20
100.5639269419
 11
159.4948081552
 21
99.2498369481
  0
LINE
  5
576
100
AcDbEntity
  8
RACCORDO
100
AcDbLine
 62
250
  6
CONTINUOUS
 10
159.5027653368
 20
101.6972152571
 11
159.5027653368
 21
109.6031896466
  0
LINE
  5
577
100
AcDbEntity
  8
RACCORDO
100
AcDbLine
 62
250
  6
CONTINUOUS
 10
160.0451668183
 20
101.6972152571
 11
160.0451668183
 21
109.6031896233
  0
LINE
  5
578
100
AcDbEntity
  8
RACCORDO
100
AcDbLine
 62
250
  6
CONTINUOUS
 10
161.0605740976
 20
100.5639269419
 11
161.0605740976
 21
100.9636832727
  0
LINE
  5
579
100
AcDbEntity
  8
RACCORDO
100
AcDbLine
 62
250
  6
CONTINUOUS
 10
161.0605740976
 20
110.7364779618
 11
161.0605741276
 21
110.336721631
  0
LINE
  5
57A
100
AcDbEntity
  8
RACCORDO
100
AcDbLine
 62
250
  6
CONTINUOUS
 10
161.386671504
 20
101.6717336312
 11
161.386671504
 21
109.6286712725
  0
LINE
  5
57B
100
AcDbEntity
  8
RACCORDO
100
AcDbLine
 62
250
  6
CONTINUOUS
 10
160.043263739
 20
101.4735783466
 11
160.0451668183
 21
101.6972152571
  0
LWPOLYLINE
  5
57C
100
AcDbEntity
  8
RACCORDO
100
AcDbPolyline
 62
250
  6
CONTINUOUS
 90
3
 70
0
 10
160.0382732071
 20
101.2809940187
 10
160.0418795387
 20
101.4046943861
 10
160.043263739
 20
101.4735783466
  0
LINE
  5
57D
100
AcDbEntity
  8
RACCORDO
100
AcDbLine
 62
250
  6
CONTINUOUS
 10
160.0362366346
 20
101.2292580256
 11
160.0382732071
 21
101.2809940187
  0
LWPOLYLINE
  5
57E
100
AcDbEntity
  8
RACCORDO
100
AcDbPolyline
 62
250
  6
CONTINUOUS
 90
13
 70
0
 10
158.7158418649
 20
109.6492164761
 10
158.7210591352
 20
109.7274242002
 10
158.7364313053
 20
109.8042958399
 10
158.7616957602
 20
109.8785181362
 10
158.7964208872
 20
109.9488230907
 10
158.8400134496
 20
110.0140096284
 10
158.8917287211
 20
110.0729641161
 10
158.9506832088
 20
110.1246793876
 10
159.0158697465
 20
110.16827195
 10
159.0861747011
 20
110.202997077
 10
159.1603969973
 20
110.2282615319
 10
159.237268637
 20
110.243633702
 10
159.3154763611
 20
110.2488509723
  0
LWPOLYLINE
  5
57F
100
AcDbEntity
  8
RACCORDO
100
AcDbPolyline
 62
250
  6
CONTINUOUS
 90
13
 70
0
 10
158.8492072882
 20
109.6427198091
 10
158.8547251887
 20
109.7201349812
 10
158.8688453497
 20
109.7962547848
 10
158.8913315022
 20
109.8698055266
 10
158.921807391
 20
109.9395565006
 10
158.9597630709
 20
110.0043405815
 10
159.0045634391
 20
110.0630737536
 10
159.0554588623
 20
110.1147732497
 10
159.1115977204
 20
110.1585739953
 10
159.1720406561
 20
110.1937430834
 10
159.2357762929
 20
110.2196920388
 10
159.3017381588
 20
110.235986664
 10
159.3688225304
 20
110.2423543053
  0
LWPOLYLINE
  5
580
100
AcDbEntity
  8
RACCORDO
100
AcDbPolyline
 62
250
  6
CONTINUOUS
 90
4
 70
0
 10
160.022380579
 20
101.0975807609
 10
160.026487388
 20
101.1051331863
 10
160.0291222015
 20
101.122440835
 10
160.0362366346
 20
101.2292580256
  0
LWPOLYLINE
  5
581
100
AcDbEntity
  8
RACCORDO
100
AcDbPolyline
 62
7
  6
CONTINUOUS
 90
7
 70
0
 10
165.5390053628
 20
105.9621817375
 10
165.5400733616
 20
105.9633220523
 10
165.541323198
 20
105.9684229532
 10
165.54276505
 20
105.9774820138
 10
165.5444447012
 20
105.99097511
 10
165.5463631679
 20
106.0084201081
 10
165.5589894117
 20
106.1302669506
  0
LINE
  5
582
100
AcDbEntity
  8
RACCORDO
100
AcDbLine
 62
250
  6
CONTINUOUS
 10
158.7158418649
 20
101.6511884276
 11
158.6948081552
 21
101.6301547179
  0
LINE
  5
583
100
AcDbEntity
  8
RACCORDO
100
AcDbLine
 62
250
  6
CONTINUOUS
 10
159.3154763611
 20
101.0515539314
 11
159.2869168781
 21
101.0229944484
  0
LINE
  5
584
100
AcDbEntity
  8
RACCORDO
100
AcDbLine
 62
7
  6
CONTINUOUS
 10
171.1816855311
 20
111.6049358081
 11
171.1828288696
 21
111.6060052442
  0
LWPOLYLINE
  5
585
100
AcDbEntity
  8
RACCORDO
100
AcDbPolyline
 62
250
  6
CONTINUOUS
 90
10
 70
0
 10
173.9320780646
 20
108.229211594
 10
173.9531449379
 20
108.2427673863
 10
173.972558675
 20
108.2546585075
 10
173.9901681745
 20
108.2647909017
 10
174.0058374695
 20
108.2730830376
 10
174.0194438529
 20
108.279470802
 10
174.030879296
 20
108.2839070562
 10
174.0400548766
 20
108.2863568618
 10
174.0469009539
 20
108.2867987532
 10
174.0513651056
 20
108.2852284944
  0
LINE
  5
586
100
AcDbEntity
  8
RACCORDO
100
AcDbLine
 62
7
  6
CONTINUOUS
 10
166.0778970815
 20
103.1886091814
 11
166.0110499757
 21
103.1502541064
  0
LINE
  5
587
100
AcDbEntity
  8
RACCORDO
100
AcDbLine
 62
7
  6
CONTINUOUS
 10
176.9785663349
 20
108.1501507974
 11
176.9117192279
 21
108.1117957223
  0
LWPOLYLINE
  5
588
100
AcDbEntity
  8
RACCORDO
100
AcDbPolyline
 62
7
  6
CONTINUOUS
 90
10
 70
0
 10
168.9948585239
 20
100.1664410157
 10
168.9895828359
 20
100.1648715635
 10
168.9762104828
 20
100.1669635046
 10
168.9547505351
 20
100.1727760303
 10
168.9252302593
 20
100.18238252
 10
168.8876904802
 20
100.1959351024
 10
168.8421879023
 20
100.2136644734
 10
168.7888033892
 20
100.2357930622
 10
168.7276420806
 20
100.262534262
 10
168.6588307288
 20
100.2941564676
  0
LWPOLYLINE
  5
589
100
AcDbEntity
  8
RACCORDO
100
AcDbPolyline
 62
7
  6
CONTINUOUS
 90
5
 70
0
 10
124.071732294
 20
110.8773738321
 10
124.0757863753
 20
110.8785231662
 10
124.0861791335
 20
110.8823436026
 10
124.1028148777
 20
110.8888351413
 10
124.125477481
 20
110.8982482642
  0
LWPOLYLINE
  5
58A
100
AcDbEntity
  8
0
100
AcDbPolyline
 62
250
  6
CONTINUOUS
 90
5
 70
0
 10
128.2156892905
 20
110.979233144
 10
128.2157985244
 20
110.9792568277
 10
128.2169921734
 20
110.9794628137
 10
128.2196231924
 20
110.9798688269
 10
128.223689824
 20
110.9805163262
  0
LWPOLYLINE
  5
58B
100
AcDbEntity
  8
RACCORDO
100
AcDbPolyline
 62
250
  6
CONTINUOUS
 90
11
 70
0
 10
182.2006616253
 20
110.2283057687
 10
182.2148881217
 20
110.2252067126
 10
182.2361096997
 20
110.2222955481
 10
182.2643263594
 20
110.2195722752
 10
182.3006747217
 20
110.2170216403
 10
182.3440181656
 20
110.214658897
 10
182.390946828
 20
110.2125298061
 10
182.4404871332
 20
110.2106651961
 10
182.493612657
 20
110.2090342386
 10
182.5498342638
 20
110.2075902083
 10
182.6700520544
 20
110.2052268835
  0
LINE
  5
58C
100
AcDbEntity
  8
RACCORDO
100
AcDbLine
 62
7
  6
CONTINUOUS
 10
173.913829935
 20
110.8785231662
 11
173.9178840164
 21
110.8773738321
  0
LINE
  5
58D
100
AcDbEntity
  8
RACCORDO
100
AcDbLine
 62
7
  6
CONTINUOUS
 10
166.0779888019
 20
108.1117431014
 11
166.0110494254
 21
108.1501508056
  0
LINE
  5
58E
100
AcDbEntity
  8
RACCORDO
100
AcDbLine
 62
7
  6
CONTINUOUS
 10
176.9116275178
 20
103.1886618023
 11
176.9785668848
 21
103.1502540981
  0
LWPOLYLINE
  5
58F
100
AcDbEntity
  8
RACCORDO
100
AcDbPolyline
 62
7
  6
CONTINUOUS
 90
7
 70
0
 10
171.1828288696
 20
99.6943996595
 10
171.1816885547
 20
99.6954676583
 10
171.1765876539
 20
99.6967174947
 10
171.1675285932
 20
99.6981593466
 10
171.154035497
 20
99.6998389979
 10
171.1365904989
 20
99.7017574646
 10
171.0147436565
 20
99.7143837083
  0
LINE
  5
590
100
AcDbEntity
  8
RACCORDO
100
AcDbLine
 62
250
  6
CONTINUOUS
 10
158.6948081552
 20
109.6702501858
 11
158.7158418649
 21
109.6492164761
  0
LINE
  5
591
100
AcDbEntity
  8
RACCORDO
100
AcDbLine
 62
250
  6
CONTINUOUS
 10
159.2869168781
 20
110.2774104553
 11
159.3154763611
 21
110.2488509723
  0
LINE
  5
592
100
AcDbEntity
  8
RACCORDO
100
AcDbLine
 62
7
  6
CONTINUOUS
 10
165.540074799
 20
105.3370798278
 11
165.5390053628
 21
105.3382231662
  0
LWPOLYLINE
  5
593
100
AcDbEntity
  8
RACCORDO
100
AcDbPolyline
 62
250
  6
CONTINUOUS
 90
3
 70
0
 10
160.022380579
 20
110.2028241428
 10
160.0264939104
 20
110.1952717302
 10
160.0291348866
 20
110.1779640671
  0
LWPOLYLINE
  5
594
100
AcDbEntity
  8
RACCORDO
100
AcDbPolyline
 62
250
  6
CONTINUOUS
 90
19
 70
0
 10
162.0613406248
 20
109.738909903
 10
162.0532693182
 20
109.8492962041
 10
162.0365049911
 20
109.9534945288
 10
162.0110476435
 20
110.0515048769
 10
161.9755397148
 20
110.143824468
 10
161.9313387656
 20
110.2299560825
 10
161.8825174777
 20
110.3084080625
 10
161.8296202984
 20
110.3783456073
 10
161.7721027804
 20
110.4406035175
 10
161.7124042631
 20
110.4961945369
 10
161.6514196053
 20
110.5449735811
 10
161.5882539483
 20
110.5870857344
 10
161.522662056
 20
110.6239789942
 10
161.455195338
 20
110.6562160195
 10
161.3853023847
 20
110.6832341511
 10
161.3110837305
 20
110.7047934091
 10
161.2319062204
 20
110.7208138003
 10
161.1484030094
 20
110.7313753178
 10
161.0605740976
 20
110.7364779618
  0
LWPOLYLINE
  5
595
100
AcDbEntity
  8
RACCORDO
100
AcDbPolyline
 62
250
  6
CONTINUOUS
 90
19
 70
0
 10
161.6628625944
 20
109.7389119028
 10
161.6593737656
 20
109.8044032616
 10
161.649146903
 20
109.8671530254
 10
161.6329134978
 20
109.9265580915
 10
161.6113766776
 20
109.9822435308
 10
161.5853272154
 20
110.0337700228
 10
161.5557159512
 20
110.0806683243
 10
161.5235291678
 20
110.1226335574
 10
161.4893378524
 20
110.1599740269
 10
161.4533593121
 20
110.1932249758
 10
161.4163481624
 20
110.2222911643
 10
161.3785590118
 20
110.2475041239
 10
161.3390929416
 20
110.2697274996
 10
161.2983157783
 20
110.2888178122
 10
161.2563512225
 20
110.3047684547
 10
161.2116016552
 20
110.317999521
 10
161.1635932719
 20
110.3281561877
 10
161.1131515965
 20
110.3345559789
 10
161.0605739291
 20
110.3367215637
  0
LINE
  5
596
100
AcDbEntity
  8
RACCORDO
100
AcDbLine
 62
250
  6
CONTINUOUS
 10
161.6628627456
 20
101.5614929406
 11
161.6628627456
 21
109.7389119631
  0
LINE
  5
597
100
AcDbEntity
  8
RACCORDO
100
AcDbLine
 62
250
  6
CONTINUOUS
 10
162.0613406248
 20
101.5614929406
 11
162.0613406248
 21
109.738909903
  0
LINE
  5
598
100
AcDbEntity
  8
RACCORDO
100
AcDbLine
 62
7
  6
CONTINUOUS
 10
164.2948081552
 20
81.0507513903
 11
164.2948081552
 21
82.0845170269
  0
LINE
  5
599
100
AcDbEntity
  8
RACCORDO
100
AcDbLine
 62
7
  6
CONTINUOUS
 10
164.2948081552
 20
129.2158878768
 11
164.2948081552
 21
130.2496535135
  0
LWPOLYLINE
  5
59A
100
AcDbEntity
  8
RACCORDO
100
AcDbPolyline
 62
250
  6
CONTINUOUS
 90
12
 70
0
 10
164.2948081552
 20
130.1981740752
 10
164.2954065011
 20
130.2106515626
 10
164.2971380966
 20
130.222656637
 10
164.2999075744
 20
130.2342267594
 10
164.3035766235
 20
130.2453325102
 10
164.3080749488
 20
130.2560553052
 10
164.3134994212
 20
130.2666044597
 10
164.3198177891
 20
130.2770317223
 10
164.3270426066
 20
130.2873490497
 10
164.3355400854
 20
130.2977541681
 10
164.3455539111
 20
130.3083825305
 10
164.3570732889
 20
130.3192711836
  0
LWPOLYLINE
  5
59B
100
AcDbEntity
  8
RACCORDO
100
AcDbPolyline
 62
7
  6
CONTINUOUS
 90
4
 70
0
 10
166.1285071797
 20
107.7267448192
 10
166.1678961
 20
107.8287188296
 10
166.1866891636
 20
107.8755519806
 10
166.2346781176
 20
107.991137588
  0
LINE
  5
59C
100
AcDbEntity
  8
RACCORDO
100
AcDbLine
 62
7
  6
CONTINUOUS
 10
166.1075516706
 20
107.673339235
 11
166.1285071797
 21
107.7267448192
  0
LWPOLYLINE
  5
59D
100
AcDbEntity
  8
RACCORDO
100
AcDbPolyline
 62
7
  6
CONTINUOUS
 90
5
 70
0
 10
166.2346781176
 20
107.991137588
 10
166.2467623428
 20
108.019533126
 10
166.2561754658
 20
108.0421957294
 10
166.2626670044
 20
108.0588314736
 10
166.2664874408
 20
108.0692242317
  0
LWPOLYLINE
  5
59E
100
AcDbEntity
  8
RACCORDO
100
AcDbPolyline
 62
250
  6
CONTINUOUS
 90
3
 70
0
 10
178.665728958
 20
130.418433596
 10
178.6400094525
 20
130.3762585936
 10
178.6194123947
 20
130.3305281607
  0
LINE
  5
59F
100
AcDbEntity
  8
RACCORDO
100
AcDbLine
 62
7
  6
CONTINUOUS
 10
169.0366393845
 20
100.400666372
 11
169.071732294
 21
100.4230310716
  0
LWPOLYLINE
  5
5A0
100
AcDbEntity
  8
RACCORDO
100
AcDbPolyline
 62
250
  6
CONTINUOUS
 90
10
 70
0
 10
183.6741399492
 20
110.2488509723
 10
183.672847593
 20
110.2481071925
 10
183.6704020024
 20
110.2473675202
 10
183.6668031773
 20
110.2466319554
 10
183.6620584706
 20
110.2458986656
 10
183.6561605294
 20
110.2451694833
 10
183.6490872956
 20
110.2444499064
 10
183.6408314164
 20
110.2437417674
 10
183.6314002445
 20
110.2430432337
 10
183.6207937799
 20
110.2423543053
  0
LINE
  5
5A1
100
AcDbEntity
  8
RACCORDO
100
AcDbLine
 62
7
  6
CONTINUOUS
 10
173.8641388293
 20
100.4021566395
 11
173.8357432913
 21
100.3900724142
  0
LINE
  5
5A2
100
AcDbEntity
  8
RACCORDO
100
AcDbLine
 62
7
  6
CONTINUOUS
 10
173.8357432913
 20
100.3900724142
 11
173.739636687
 21
100.3502024519
  0
LWPOLYLINE
  5
5A3
100
AcDbEntity
  8
RACCORDO
100
AcDbPolyline
 62
7
  6
CONTINUOUS
 90
6
 70
0
 10
119.1579517762
 20
80.7503216216
 10
119.2032632078
 20
80.7640461794
 10
119.2504217633
 20
80.783147763
 10
119.2962025486
 20
80.805786185
 10
119.3415771651
 20
80.8314184733
 10
119.3880742022
 20
80.8598307516
  0
LINE
  5
5A4
100
AcDbEntity
  8
RACCORDO
100
AcDbLine
 62
7
  6
CONTINUOUS
 10
173.739636687
 20
110.9502024519
 11
173.8357432913
 21
110.9103324895
  0
LWPOLYLINE
  5
5A5
100
AcDbEntity
  8
RACCORDO
100
AcDbPolyline
 62
7
  6
CONTINUOUS
 90
5
 70
0
 10
173.8357432913
 20
110.9103324895
 10
173.8641388293
 20
110.8982482642
 10
173.8868014327
 20
110.8888351413
 10
173.9034371769
 20
110.8823436026
 10
173.913829935
 20
110.8785231662
  0
LINE
  5
5A6
100
AcDbEntity
  8
RACCORDO
100
AcDbLine
 62
7
  6
CONTINUOUS
 10
169.0366393845
 20
110.8997385318
 11
169.071732294
 21
110.8773738321
  0
LWPOLYLINE
  5
5A7
100
AcDbEntity
  8
RACCORDO
100
AcDbPolyline
 62
250
  6
CONTINUOUS
 90
3
 70
0
 10
178.6657217459
 20
80.881984707
 10
178.640004561
 20
80.924157586
 10
178.619409666
 20
80.9698840091
  0
LWPOLYLINE
  5
5A8
100
AcDbEntity
  8
RACCORDO
100
AcDbPolyline
 62
7
  6
CONTINUOUS
 90
10
 70
0
 10
166.1387621709
 20
102.8142250255
 10
166.1072354123
 20
102.8828227359
 10
166.0805585738
 20
102.9438214172
 10
166.0584657468
 20
102.9970954437
 10
166.0407445612
 20
103.0425420887
 10
166.0271752107
 20
103.0800794926
 10
166.017531105
 20
103.1096465112
 10
166.0116616901
 20
103.1312008057
 10
166.0094927371
 20
103.144716587
 10
166.01096478
 20
103.1501844981
  0
LINE
  5
5A9
100
AcDbEntity
  8
RACCORDO
100
AcDbLine
 62
7
  6
CONTINUOUS
 10
166.2467623428
 20
103.2808717777
 11
166.2346781176
 21
103.3092673157
  0
LINE
  5
5AA
100
AcDbEntity
  8
RACCORDO
100
AcDbLine
 62
7
  6
CONTINUOUS
 10
166.2346781176
 20
103.3092673157
 11
166.1866891636
 21
103.4248529231
  0
LINE
  5
5AB
100
AcDbEntity
  8
RACCORDO
100
AcDbLine
 62
7
  6
CONTINUOUS
 10
166.1866891636
 20
103.4248529231
 11
166.1678961
 21
103.4716860741
  0
LWPOLYLINE
  5
5AC
100
AcDbEntity
  8
RACCORDO
100
AcDbPolyline
 62
7
  6
CONTINUOUS
 90
3
 70
0
 10
166.1678961
 20
103.4716860741
 10
166.1285071797
 20
103.5736600845
 10
166.1075516706
 20
103.6270656688
  0
LWPOLYLINE
  5
5AD
100
AcDbEntity
  8
RACCORDO
100
AcDbPolyline
 62
7
  6
CONTINUOUS
 90
5
 70
0
 10
165.5463822035
 20
105.2918042866
 10
165.5444570983
 20
105.3093202331
 10
165.5427721853
 20
105.3228695936
 10
165.5413269893
 20
105.3319611568
 10
165.540074799
 20
105.3370798278
  0
LINE
  5
5AE
100
AcDbEntity
  8
RACCORDO
100
AcDbLine
 62
7
  6
CONTINUOUS
 10
165.5622736098
 20
105.1395617797
 11
165.5560408826
 21
105.1982206926
  0
LINE
  5
5AF
100
AcDbEntity
  8
RACCORDO
100
AcDbLine
 62
7
  6
CONTINUOUS
 10
165.5560408826
 20
105.1982206926
 11
165.5463822035
 21
105.2918042866
  0
LINE
  5
5B0
100
AcDbEntity
  8
RACCORDO
100
AcDbLine
 62
250
  6
CONTINUOUS
 10
164.6948081552
 20
130.2845170165
 11
164.6948081552
 21
128.6502024519
  0
LINE
  5
5B1
100
AcDbEntity
  8
RACCORDO
100
AcDbLine
 62
250
  6
CONTINUOUS
 10
164.6948081552
 20
81.0158880152
 11
164.6948081552
 21
82.6502024519
  0
LINE
  5
5B2
100
AcDbEntity
  8
RACCORDO
100
AcDbLine
 62
7
  6
CONTINUOUS
 10
165.5589894117
 20
106.1302669506
 11
165.5657853428
 21
106.1926829993
  0
LWPOLYLINE
  5
5B3
100
AcDbEntity
  8
RACCORDO
100
AcDbPolyline
 62
7
  6
CONTINUOUS
 90
9
 70
0
 10
165.5657853428
 20
106.1926829993
 10
165.5738148565
 20
106.261948415
 10
165.5783875865
 20
106.2995032735
 10
165.5834044352
 20
106.3391834352
 10
165.5888895923
 20
106.3808866695
 10
165.5948448567
 20
106.4245827785
 10
165.6013011816
 20
106.4702574993
 10
165.608319225
 20
106.517911447
 10
165.6159478611
 20
106.5675364381
  0
LINE
  5
5B4
100
AcDbEntity
  8
RACCORDO
100
AcDbLine
 62
250
  6
CONTINUOUS
 10
168.5712388931
 20
110.4330107237
 11
168.6047824001
 21
110.6180693804
  0
LINE
  5
5B5
100
AcDbEntity
  8
RACCORDO
100
AcDbLine
 62
250
  6
CONTINUOUS
 10
168.5356009424
 20
110.2507178307
 11
168.5712388931
 21
110.4330107237
  0
LINE
  5
5B6
100
AcDbEntity
  8
RACCORDO
100
AcDbLine
 62
250
  6
CONTINUOUS
 10
168.499265703
 20
110.0757054763
 11
168.5356009424
 21
110.2507178307
  0
LINE
  5
5B7
100
AcDbEntity
  8
RACCORDO
100
AcDbLine
 62
250
  6
CONTINUOUS
 10
168.4631990276
 20
109.9104994426
 11
168.499265703
 21
110.0757054763
  0
LWPOLYLINE
  5
5B8
100
AcDbEntity
  8
RACCORDO
100
AcDbPolyline
 62
250
  6
CONTINUOUS
 90
4
 70
0
 10
168.4051897973
 20
109.6588637379
 10
168.4166410356
 20
109.7068396322
 10
168.4280925155
 20
109.7560309065
 10
168.4631990276
 20
109.9104994426
  0
LINE
  5
5B9
100
AcDbEntity
  8
RACCORDO
100
AcDbLine
 62
7
  6
CONTINUOUS
 10
166.2664874408
 20
108.0692242317
 11
166.2676367749
 21
108.073278313
  0
LINE
  5
5BA
100
AcDbEntity
  8
RACCORDO
100
AcDbLine
 62
7
  6
CONTINUOUS
 10
166.2452720752
 20
103.1920336811
 11
166.2676367749
 21
103.2271265907
  0
LINE
  5
5BB
100
AcDbEntity
  8
RACCORDO
100
AcDbLine
 62
250
  6
CONTINUOUS
 10
173.984517896
 20
108.7398208097
 11
173.9169440711
 21
108.6722469848
  0
LINE
  5
5BC
100
AcDbEntity
  8
RACCORDO
100
AcDbLine
 62
250
  6
CONTINUOUS
 10
168.4727636222
 20
103.228066536
 11
168.4051897973
 21
103.1604927111
  0
LINE
  5
5BD
100
AcDbEntity
  8
RACCORDO
100
AcDbLine
 62
250
  6
CONTINUOUS
 10
174.5844265131
 20
108.1399121926
 11
174.5168526881
 21
108.0723383677
  0
LINE
  5
5BE
100
AcDbEntity
  8
RACCORDO
100
AcDbLine
 62
250
  6
CONTINUOUS
 10
169.0726722393
 20
102.6281579189
 11
169.0050984144
 21
102.560584094
  0
LWPOLYLINE
  5
5BF
100
AcDbEntity
  8
RACCORDO
100
AcDbPolyline
 62
250
  6
CONTINUOUS
 90
28
 70
0
 10
174.1298342029
 20
103.0936455058
 10
174.1069104161
 20
103.0737390833
 10
174.08588213
 20
103.0534834828
 10
174.0666819349
 20
103.0330483239
 10
174.0492622811
 20
103.0126085728
 10
174.0335097648
 20
102.9922892673
 10
174.0192582
 20
102.9721569566
 10
174.0064474022
 20
102.9523599128
 10
173.9949698461
 20
102.9329603531
 10
173.9846168508
 20
102.9138582327
 10
173.9753150567
 20
102.8951098225
 10
173.9670094627
 20
102.876788136
 10
173.9595565458
 20
102.8587869679
 10
173.9528991175
 20
102.8411328366
 10
173.9469970964
 20
102.8238809923
 10
173.9417597781
 20
102.8069504152
 10
173.9371452673
 20
102.7903608282
 10
173.9331191511
 20
102.7741464628
 10
173.9296205902
 20
102.7582380547
 10
173.9266180426
 20
102.7426510369
 10
173.9240828525
 20
102.7274063129
 10
173.9219728518
 20
102.7124368555
 10
173.9202642423
 20
102.6977546516
 10
173.9189342271
 20
102.6833725308
 10
173.9179544163
 20
102.6692211066
 10
173.9173063665
 20
102.6552828087
 10
173.9169752787
 20
102.6415925715
 10
173.9169440711
 20
102.6281579189
  0
LWPOLYLINE
  5
5C0
100
AcDbEntity
  8
RACCORDO
100
AcDbPolyline
 62
250
  6
CONTINUOUS
 90
3
 70
0
 10
133.6194225671
 20
80.9698857468
 10
133.6116318439
 20
80.966261273
 10
133.603299372
 20
80.964625418
  0
LWPOLYLINE
  5
5C1
100
AcDbEntity
  8
RACCORDO
100
AcDbPolyline
 62
7
  6
CONTINUOUS
 90
10
 70
0
 10
174.3307855816
 20
100.2941564676
 10
174.261973536
 20
100.2625372889
 10
174.2008374034
 20
100.2358063977
 10
174.1475040823
 20
100.2136946351
 10
174.1021131018
 20
100.1959981507
 10
174.0647111022
 20
100.1824836624
 10
174.0352515112
 20
100.1728915712
 10
174.0137404651
 20
100.1670617329
 10
174.000239559
 20
100.1649312918
 10
173.9947580199
 20
100.1664410537
  0
LINE
  5
5C2
100
AcDbEntity
  8
RACCORDO
100
AcDbLine
 62
250
  6
CONTINUOUS
 10
181.6029448064
 20
101.6717336312
 11
181.3267535648
 21
101.5614929406
  0
LINE
  5
5C3
100
AcDbEntity
  8
RACCORDO
100
AcDbLine
 62
250
  6
CONTINUOUS
 10
182.2006616253
 20
101.072099135
 11
181.9290422128
 21
100.9636832727
  0
LWPOLYLINE
  5
5C4
100
AcDbEntity
  8
RACCORDO
100
AcDbPolyline
 62
250
  6
CONTINUOUS
 90
11
 70
0
 10
119.3952070915
 20
130.3354492075
 10
119.4047893241
 20
130.3328707276
 10
119.4149662267
 20
130.3283812606
 10
119.4253637609
 20
130.3229062268
 10
119.4358674724
 20
130.3165203412
 10
119.4465317904
 20
130.3091395105
 10
119.4571853105
 20
130.3014114507
 10
119.4677547853
 20
130.2934037391
 10
119.47824378
 20
130.2850164001
 10
119.4885855509
 20
130.2766321993
 10
119.49873007
 20
130.2682914791
  0
LINE
  5
5C5
100
AcDbEntity
  8
RACCORDO
100
AcDbLine
 62
250
  6
CONTINUOUS
 10
181.3267535648
 20
109.7389119631
 11
181.6029448064
 21
109.6286712725
  0
LINE
  5
5C6
100
AcDbEntity
  8
RACCORDO
100
AcDbLine
 62
250
  6
CONTINUOUS
 10
181.9290422128
 20
110.336721631
 11
182.2006616253
 21
110.2283057687
  0
LINE
  5
5C7
100
AcDbEntity
  8
RACCORDO
100
AcDbLine
 62
250
  6
CONTINUOUS
 10
168.4727636222
 20
108.0723383677
 11
168.4051897973
 21
108.1399121926
  0
LINE
  5
5C8
100
AcDbEntity
  8
RACCORDO
100
AcDbLine
 62
250
  6
CONTINUOUS
 10
173.9169440711
 20
102.6281579189
 11
173.984517896
 21
102.560584094
  0
LINE
  5
5C9
100
AcDbEntity
  8
RACCORDO
100
AcDbLine
 62
250
  6
CONTINUOUS
 10
169.0726722393
 20
108.6722469848
 11
169.0050984144
 21
108.7398208097
  0
LINE
  5
5CA
100
AcDbEntity
  8
RACCORDO
100
AcDbLine
 62
250
  6
CONTINUOUS
 10
174.5168526881
 20
103.228066536
 11
174.5844265131
 21
103.1604927111
  0
LINE
  5
5CB
100
AcDbEntity
  8
RACCORDO
100
AcDbLine
 62
7
  6
CONTINUOUS
 10
166.2452720753
 20
108.1083712226
 11
166.2676367749
 21
108.073278313
  0
LWPOLYLINE
  5
5CC
100
AcDbEntity
  8
RACCORDO
100
AcDbPolyline
 62
250
  6
CONTINUOUS
 90
40
 70
0
 10
169.400597958
 20
102.5205385344
 10
169.3800278456
 20
102.5817942284
 10
169.3567755914
 20
102.6400484349
 10
169.3308505247
 20
102.6955646773
 10
169.3018778664
 20
102.7487179617
 10
169.2703445093
 20
102.799777759
 10
169.2375266616
 20
102.8487978276
 10
169.2035564746
 20
102.8960545556
 10
169.1683431321
 20
102.9417191407
 10
169.1327387652
 20
102.9855402498
 10
169.0966720355
 20
103.0276512552
 10
169.0601627206
 20
103.0681734424
 10
169.0241196975
 20
103.1067121757
 10
168.9884849634
 20
103.1431441613
 10
168.953139754
 20
103.1776295689
 10
168.9188571581
 20
103.2100917029
 10
168.8856772167
 20
103.2403372319
 10
168.8533441686
 20
103.2684600203
 10
168.8222095686
 20
103.2947677709
 10
168.7923269336
 20
103.3191532403
 10
168.7634799096
 20
103.3416067219
 10
168.7356695223
 20
103.3625886797
 10
168.7088821408
 20
103.3820971538
 10
168.683034218
 20
103.4000474201
 10
168.6580671391
 20
103.4167964007
 10
168.6339704551
 20
103.4323475159
 10
168.6107014012
 20
103.446636513
 10
168.5881808347
 20
103.4599353882
 10
168.5664052776
 20
103.4722465635
 10
168.5453520809
 20
103.4835252329
 10
168.5249292936
 20
103.493984499
 10
168.5051371327
 20
103.5036272924
 10
168.4859647916
 20
103.5124209756
 10
168.4673121943
 20
103.5205338415
 10
168.4491807799
 20
103.5279701725
 10
168.4315666871
 20
103.5347046768
 10
168.4143657003
 20
103.5408674311
 10
168.3975437989
 20
103.5464978329
 10
168.3811362999
 20
103.5515418917
 10
168.3651442378
 20
103.5559922547
  0
LWPOLYLINE
  5
5CD
100
AcDbEntity
  8
RACCORDO
100
AcDbPolyline
 62
7
  6
CONTINUOUS
 90
10
 70
0
 10
166.011046719
 20
108.1501520832
 10
166.0094772668
 20
108.1554277712
 10
166.0115692079
 20
108.1688001242
 10
166.0173817336
 20
108.1902600719
 10
166.0269882233
 20
108.2197803477
 10
166.0405408057
 20
108.2573201268
 10
166.0582701768
 20
108.3028227047
 10
166.0803987656
 20
108.3562072179
 10
166.1071399653
 20
108.4173685264
 10
166.1387621709
 20
108.4861798783
  0
LWPOLYLINE
  5
5CE
100
AcDbEntity
  8
RACCORDO
100
AcDbPolyline
 62
7
  6
CONTINUOUS
 90
5
 70
0
 10
166.2676367749
 20
103.2271265907
 10
166.2664874408
 20
103.231180672
 10
166.2626670044
 20
103.2415734302
 10
166.2561754658
 20
103.2582091743
 10
166.2467623428
 20
103.2808717777
  0
LINE
  5
5CF
100
AcDbEntity
  8
RACCORDO
100
AcDbLine
 62
250
  6
CONTINUOUS
 10
168.4166676248
 20
101.5934391504
 11
168.4051897973
 21
101.6415411658
  0
LINE
  5
5D0
100
AcDbEntity
  8
RACCORDO
100
AcDbLine
 62
250
  6
CONTINUOUS
 10
168.4396584577
 20
101.4937341933
 11
168.4166676248
 21
101.5934391504
  0
LINE
  5
5D1
100
AcDbEntity
  8
RACCORDO
100
AcDbLine
 62
250
  6
CONTINUOUS
 10
168.4632483683
 20
101.3896759212
 11
168.4396584577
 21
101.4937341933
  0
LINE
  5
5D2
100
AcDbEntity
  8
RACCORDO
100
AcDbLine
 62
250
  6
CONTINUOUS
 10
168.4992224803
 20
101.2248894702
 11
168.4632483683
 21
101.3896759212
  0
LINE
  5
5D3
100
AcDbEntity
  8
RACCORDO
100
AcDbLine
 62
250
  6
CONTINUOUS
 10
168.5353779142
 20
101.0507585254
 11
168.4992224803
 21
101.2248894702
  0
LINE
  5
5D4
100
AcDbEntity
  8
RACCORDO
100
AcDbLine
 62
250
  6
CONTINUOUS
 10
168.5707386943
 20
100.8699812344
 11
168.5353779142
 21
101.0507585254
  0
LWPOLYLINE
  5
5D5
100
AcDbEntity
  8
RACCORDO
100
AcDbPolyline
 62
7
  6
CONTINUOUS
 90
7
 70
0
 10
165.6159478611
 20
104.7328684657
 10
165.6083254861
 20
104.7824520964
 10
165.6013129031
 20
104.8300665712
 10
165.5948613259
 20
104.8757037215
 10
165.5889105769
 20
104.9193615429
 10
165.5834293493
 20
104.9610284105
 10
165.5784148424
 20
105.0006820519
  0
LINE
  5
5D6
100
AcDbEntity
  8
RACCORDO
100
AcDbLine
 62
7
  6
CONTINUOUS
 10
165.5784148424
 20
105.0006820519
 11
165.569654908
 21
105.0737507519
  0
LINE
  5
5D7
100
AcDbEntity
  8
RACCORDO
100
AcDbLine
 62
7
  6
CONTINUOUS
 10
165.569654908
 20
105.0737507519
 11
165.5622736098
 21
105.1395617797
  0
LWPOLYLINE
  5
5D8
100
AcDbEntity
  8
RACCORDO
100
AcDbPolyline
 62
250
  6
CONTINUOUS
 90
10
 70
0
 10
168.3651442378
 20
103.5559922547
 10
168.3696719571
 20
103.4970370304
 10
168.3765942705
 20
103.441123951
 10
168.3857503847
 20
103.3895517514
 10
168.3969276206
 20
103.3435183325
 10
168.4098663526
 20
103.3040929437
 10
168.4242660384
 20
103.2721913439
 10
168.4397922025
 20
103.248554522
 10
168.4560842061
 20
103.2337314899
 10
168.4727636222
 20
103.228066536
  0
LWPOLYLINE
  5
5D9
100
AcDbEntity
  8
RACCORDO
100
AcDbPolyline
 62
250
  6
CONTINUOUS
 90
13
 70
0
 10
169.0050984144
 20
102.560584094
 10
168.9999442546
 20
102.6388727892
 10
168.9846176214
 20
102.7158224616
 10
168.9593806564
 20
102.7901169907
 10
168.924665004
 20
102.8604856687
 10
168.8810644287
 20
102.9257249345
 10
168.8293246594
 20
102.9847189585
 10
168.7703306349
 20
103.0364587276
 10
168.7050913686
 20
103.0800593027
 10
168.6347226904
 20
103.1147749546
 10
168.5604281619
 20
103.1400119189
 10
168.4834784907
 20
103.1553385515
 10
168.4051897973
 20
103.1604927111
  0
LWPOLYLINE
  5
5DA
100
AcDbEntity
  8
RACCORDO
100
AcDbPolyline
 62
250
  6
CONTINUOUS
 90
40
 70
0
 10
169.0726721511
 20
102.6281578307
 10
169.0712167171
 20
102.6767271121
 10
169.0662980591
 20
102.7224734291
 10
169.0585190236
 20
102.7652019994
 10
169.0485661108
 20
102.8044736292
 10
169.0369135203
 20
102.8405792292
 10
169.0236103762
 20
102.8744577761
 10
169.0088552357
 20
102.9062692757
 10
168.993010172
 20
102.9358285049
 10
168.9760977326
 20
102.9635009232
 10
168.9582311127
 20
102.98939774
 10
168.9396681454
 20
103.0134372086
 10
168.9205676473
 20
103.0356808699
 10
168.9010746696
 20
103.0561816402
 10
168.8813535487
 20
103.074987749
 10
168.8615737125
 20
103.0921667748
 10
168.8418982977
 20
103.1077624895
 10
168.8224125571
 20
103.121881134
 10
168.8031461174
 20
103.1346820639
 10
168.7842185353
 20
103.1462215482
 10
168.7656818246
 20
103.1565888609
 10
168.7474323093
 20
103.1659651085
 10
168.7295097645
 20
103.1744154412
 10
168.71198067
 20
103.1819840972
 10
168.6947564394
 20
103.1887890862
 10
168.6778614617
 20
103.1948790368
 10
168.6613404598
 20
103.2002903017
 10
168.6451212594
 20
103.2051004561
 10
168.6292222086
 20
103.2093457397
 10
168.6136712572
 20
103.2130570721
 10
168.5984023812
 20
103.2162880271
 10
168.5834298125
 20
103.2190659974
 10
168.5687708214
 20
103.2214163498
 10
168.5543588468
 20
103.2233766241
 10
168.5402049162
 20
103.2249672583
 10
168.5263197627
 20
103.2262080339
 10
168.5126332445
 20
103.2271239692
 10
168.4991269422
 20
103.2277305956
 10
168.4858347921
 20
103.2280400085
 10
168.4727636222
 20
103.228066536
  0
LINE
  5
5DB
100
AcDbEntity
  8
RACCORDO
100
AcDbLine
 62
250
  6
CONTINUOUS
 10
168.9989560684
 20
110.8624057599
 11
168.9948598096
 21
111.1339606316
  0
LINE
  5
5DC
100
AcDbEntity
  8
RACCORDO
100
AcDbLine
 62
7
  6
CONTINUOUS
 10
169.0343276078
 20
110.9581135643
 11
169.0336708739
 21
111.0071351098
  0
LINE
  5
5DD
100
AcDbEntity
  8
RACCORDO
100
AcDbLine
 62
250
  6
CONTINUOUS
 10
169.0023566746
 20
110.5017334829
 11
168.9989560684
 21
110.8624057599
  0
LINE
  5
5DE
100
AcDbEntity
  8
RACCORDO
100
AcDbLine
 62
7
  6
CONTINUOUS
 10
169.0336708739
 20
111.0071351098
 11
169.0332148847
 21
111.0671135246
  0
LINE
  5
5DF
100
AcDbEntity
  8
RACCORDO
100
AcDbLine
 62
250
  6
CONTINUOUS
 10
169.0048275888
 20
109.9355403079
 11
169.0023566746
 21
110.5017334829
  0
LWPOLYLINE
  5
5E0
100
AcDbEntity
  8
RACCORDO
100
AcDbPolyline
 62
7
  6
CONTINUOUS
 90
3
 70
0
 10
169.0726722393
 20
108.6722469848
 10
169.071735546
 20
109.0270233944
 10
169.0717324059
 20
109.040889221
  0
LINE
  5
5E1
100
AcDbEntity
  8
RACCORDO
100
AcDbLine
 62
250
  6
CONTINUOUS
 10
167.4861468691
 20
108.7398208097
 11
167.4861468691
 21
108.1399121926
  0
LINE
  5
5E2
100
AcDbEntity
  8
RACCORDO
100
AcDbLine
 62
250
  6
CONTINUOUS
 10
167.4861468691
 20
102.560584094
 11
167.4861468691
 21
103.1604927111
  0
LINE
  5
5E3
100
AcDbEntity
  8
RACCORDO
100
AcDbLine
 62
250
  6
CONTINUOUS
 10
168.090688788
 20
103.6270656688
 11
168.090688788
 21
103.2271265907
  0
LINE
  5
5E4
100
AcDbEntity
  8
RACCORDO
100
AcDbLine
 62
250
  6
CONTINUOUS
 10
168.090688788
 20
107.673339235
 11
168.090688788
 21
108.073278313
  0
LINE
  5
5E5
100
AcDbEntity
  8
RACCORDO
100
AcDbLine
 62
250
  6
CONTINUOUS
 10
168.4051897973
 20
101.641540897
 11
168.4051897973
 21
103.1604927111
  0
LINE
  5
5E6
100
AcDbEntity
  8
RACCORDO
100
AcDbLine
 62
250
  6
CONTINUOUS
 10
168.4051897973
 20
108.1399121926
 11
168.4051897973
 21
109.6588640133
  0
LINE
  5
5E7
100
AcDbEntity
  8
RACCORDO
100
AcDbLine
 62
250
  6
CONTINUOUS
 10
169.0050984144
 20
108.7398208097
 11
169.0048275888
 21
109.9355403079
  0
LINE
  5
5E8
100
AcDbEntity
  8
RACCORDO
100
AcDbLine
 62
250
  6
CONTINUOUS
 10
169.0717324059
 20
109.040889221
 11
169.071732294
 21
110.8773738321
  0
LINE
  5
5E9
100
AcDbEntity
  8
RACCORDO
100
AcDbLine
 62
250
  6
CONTINUOUS
 10
169.4716713721
 20
100.3502024519
 11
169.4716713721
 21
102.2460830742
  0
LINE
  5
5EA
100
AcDbEntity
  8
RACCORDO
100
AcDbLine
 62
250
  6
CONTINUOUS
 10
169.4716713721
 20
109.0543218329
 11
169.4716713721
 21
110.9502024519
  0
LINE
  5
5EB
100
AcDbEntity
  8
RACCORDO
100
AcDbLine
 62
250
  6
CONTINUOUS
 10
169.071732294
 20
100.4230310716
 11
169.0717339627
 21
102.2594801984
  0
LINE
  5
5EC
100
AcDbEntity
  8
RACCORDO
100
AcDbLine
 62
250
  6
CONTINUOUS
 10
169.0038125791
 20
101.0504875053
 11
169.0050984144
 21
102.560584094
  0
LINE
  5
5ED
100
AcDbEntity
  8
RACCORDO
100
AcDbLine
 62
7
  6
CONTINUOUS
 10
169.0717339627
 20
102.2594801984
 11
169.0726722393
 21
102.6281579189
  0
LINE
  5
5EE
100
AcDbEntity
  8
RACCORDO
100
AcDbLine
 62
7
  6
CONTINUOUS
 10
169.0332675057
 20
100.2333830985
 11
169.0336825674
 21
100.2932901759
  0
LINE
  5
5EF
100
AcDbEntity
  8
RACCORDO
100
AcDbLine
 62
250
  6
CONTINUOUS
 10
169.0008647185
 20
100.6171518339
 11
169.0038125791
 21
101.0504875053
  0
LINE
  5
5F0
100
AcDbEntity
  8
RACCORDO
100
AcDbLine
 62
250
  6
CONTINUOUS
 10
168.9977213208
 20
100.3457154947
 11
169.0008647185
 21
100.6171518339
  0
LWPOLYLINE
  5
5F1
100
AcDbEntity
  8
RACCORDO
100
AcDbPolyline
 62
7
  6
CONTINUOUS
 90
7
 70
0
 10
169.0336825674
 20
100.2932901759
 10
169.0343237099
 20
100.3422845455
 10
169.0347300517
 20
100.3627481066
 10
169.0351671667
 20
100.3789588095
 10
169.0356271328
 20
100.3904475217
 10
169.036117872
 20
100.3976833759
 10
169.0366393845
 20
100.400666372
  0
LINE
  5
5F2
100
AcDbEntity
  8
RACCORDO
100
AcDbLine
 62
250
  6
CONTINUOUS
 10
168.9948598014
 20
100.166443722
 11
168.9977213208
 21
100.3457154947
  0
LWPOLYLINE
  5
5F3
100
AcDbEntity
  8
RACCORDO
100
AcDbPolyline
 62
250
  6
CONTINUOUS
 90
6
 70
0
 10
168.6588307288
 20
100.2941564676
 10
168.6593472672
 20
100.3015097934
 10
168.6585581363
 20
100.3176716954
 10
168.656345142
 20
100.3422813788
 10
168.652292237
 20
100.3753625836
 10
168.6402521173
 20
100.4627076838
  0
LWPOLYLINE
  5
5F4
100
AcDbEntity
  8
RACCORDO
100
AcDbPolyline
 62
250
  6
CONTINUOUS
 90
10
 70
0
 10
168.365144242
 20
107.7444126503
 10
168.3696737345
 20
107.803369154
 10
168.3765973162
 20
107.8592829888
 10
168.3857542502
 20
107.9108554346
 10
168.3969318642
 20
107.9568884825
 10
168.4098705639
 20
107.9963132428
 10
168.424269934
 20
108.0282144787
 10
168.4397955558
 20
108.0518511565
 10
168.4560867055
 20
108.0666739607
 10
168.4727648567
 20
108.0723384423
  0
LWPOLYLINE
  5
5F5
100
AcDbEntity
  8
RACCORDO
100
AcDbPolyline
 62
250
  6
CONTINUOUS
 90
5
 70
0
 10
168.652708474
 20
110.9284350614
 10
168.6565817689
 20
110.9603124903
 10
168.6587447185
 20
110.9839163327
 10
168.659472886
 20
110.9993114307
 10
168.6588307288
 20
111.0062484362
  0
LWPOLYLINE
  5
5F6
100
AcDbEntity
  8
RACCORDO
100
AcDbPolyline
 62
250
  6
CONTINUOUS
 90
4
 70
0
 10
168.6148906007
 20
110.6781558007
 10
168.6333776846
 20
110.7922858313
 10
168.6410773979
 20
110.8432721986
 10
168.652708474
 20
110.9284350614
  0
LINE
  5
5F7
100
AcDbEntity
  8
RACCORDO
100
AcDbLine
 62
250
  6
CONTINUOUS
 10
168.6047824001
 20
110.6180693804
 11
168.6148906007
 21
110.6781558007
  0
LINE
  5
5F8
100
AcDbEntity
  8
RACCORDO
100
AcDbLine
 62
250
  6
CONTINUOUS
 10
169.456650538
 20
108.9945964118
 11
169.4716713721
 21
109.054321819
  0
LINE
  5
5F9
100
AcDbEntity
  8
RACCORDO
100
AcDbLine
 62
250
  6
CONTINUOUS
 10
169.4338167333
 20
108.9056616518
 11
169.456650538
 21
108.9945964118
  0
LINE
  5
5FA
100
AcDbEntity
  8
RACCORDO
100
AcDbLine
 62
250
  6
CONTINUOUS
 10
169.4145182234
 20
108.8320869354
 11
169.4338167333
 21
108.9056616518
  0
LINE
  5
5FB
100
AcDbEntity
  8
RACCORDO
100
AcDbLine
 62
250
  6
CONTINUOUS
 10
169.400597958
 20
108.7798663693
 11
169.4145182234
 21
108.8320869354
  0
LINE
  5
5FC
100
AcDbEntity
  8
RACCORDO
100
AcDbLine
 62
7
  6
CONTINUOUS
 10
173.9563488047
 20
111.0670218052
 11
173.994756509
 21
111.1339611817
  0
LINE
  5
5FD
100
AcDbEntity
  8
RACCORDO
100
AcDbLine
 62
7
  6
CONTINUOUS
 10
169.0332675057
 20
100.2333830985
 11
168.9948598014
 21
100.166443722
  0
LWPOLYLINE
  5
5FE
100
AcDbEntity
  8
RACCORDO
100
AcDbPolyline
 62
7
  6
CONTINUOUS
 90
7
 70
0
 10
177.4506109476
 20
105.3382231662
 10
177.4495429488
 20
105.3370828514
 10
177.4482931124
 20
105.3319819505
 10
177.4468512604
 20
105.3229228899
 10
177.4451716091
 20
105.3094297937
 10
177.4432531425
 20
105.2919847956
 10
177.4306268987
 20
105.1701379532
  0
LINE
  5
5FF
100
AcDbEntity
  8
RACCORDO
100
AcDbLine
 62
250
  6
CONTINUOUS
 10
183.6741399492
 20
110.2488509723
 11
183.7026994323
 21
110.2774104553
  0
LWPOLYLINE
  5
600
100
AcDbEntity
  8
RACCORDO
100
AcDbPolyline
 62
250
  6
CONTINUOUS
 90
28
 70
0
 10
174.0738170462
 20
103.2129325942
 10
174.0340409366
 20
103.1748754291
 10
173.9964539773
 20
103.1379665743
 10
173.9610815488
 20
103.1020961931
 10
173.9280698183
 20
103.0669476939
 10
173.8973483438
 20
103.0325970593
 10
173.868642899
 20
102.9995417253
 10
173.842097931
 20
102.9678512785
 10
173.8177021372
 20
102.9372579754
 10
173.7949497901
 20
102.9078126929
 10
173.7738565415
 20
102.8795114574
 10
173.7545096659
 20
102.852237765
 10
173.7364880064
 20
102.825929265
 10
173.7197837486
 20
102.8005718325
 10
173.7044760152
 20
102.7761140494
 10
173.6902540141
 20
102.7524726786
 10
173.6771139286
 20
102.7296419681
 10
173.6651087595
 20
102.7075954655
 10
173.6539987527
 20
102.6862387386
 10
173.6437804627
 20
102.6655714552
 10
173.6344915088
 20
102.6455809712
 10
173.6259437529
 20
102.6261649533
 10
173.6181329196
 20
102.6073250696
 10
173.6110873011
 20
102.5890568422
 10
173.6046605103
 20
102.5712536845
 10
173.5988082477
 20
102.5538811441
 10
173.5935914103
 20
102.5369756389
 10
173.5890183523
 20
102.5205385344
  0
LINE
  5
601
100
AcDbEntity
  8
RACCORDO
100
AcDbLine
 62
7
  6
CONTINUOUS
 10
171.8079307793
 20
99.6954690956
 11
171.8067874408
 21
99.6943996595
  0
LWPOLYLINE
  5
602
100
AcDbEntity
  8
RACCORDO
100
AcDbPolyline
 62
250
  6
CONTINUOUS
 90
10
 70
0
 10
178.5923535061
 20
130.3350167273
 10
178.5957596377
 20
130.3356899188
 10
178.5990465217
 20
130.3361008726
 10
178.6022327216
 20
130.3362304544
 10
178.6053236166
 20
130.3360877425
 10
178.6083174312
 20
130.3356601788
 10
178.6112210745
 20
130.3348968306
 10
178.6140378572
 20
130.3337797907
 10
178.6167677447
 20
130.3323240322
 10
178.6194124143
 20
130.3305281453
  0
LWPOLYLINE
  5
603
100
AcDbEntity
  8
RACCORDO
100
AcDbPolyline
 62
7
  6
CONTINUOUS
 90
7
 70
0
 10
171.8067874408
 20
111.6060052442
 10
171.8079277556
 20
111.6049372455
 10
171.8130286565
 20
111.6036874091
 10
171.8220877172
 20
111.6022455571
 10
171.8355808133
 20
111.6005659058
 10
171.8530258115
 20
111.5986474391
 10
171.9748726539
 20
111.5860211954
  0
LINE
  5
604
100
AcDbEntity
  8
RACCORDO
100
AcDbLine
 62
250
  6
CONTINUOUS
 10
183.7026994323
 20
101.0229944484
 11
183.6741399492
 21
101.0515539314
  0
LWPOLYLINE
  5
605
100
AcDbEntity
  8
RACCORDO
100
AcDbPolyline
 62
250
  6
CONTINUOUS
 90
28
 70
0
 10
173.9320781693
 20
108.2292115084
 10
173.9692905367
 20
108.1902656339
 10
174.0054517754
 20
108.1533967597
 10
174.0406637053
 20
108.1186260715
 10
174.0752253066
 20
108.0860824733
 10
174.1090614135
 20
108.0557034018
 10
174.1416972631
 20
108.0272475637
 10
174.1730809595
 20
108.0008462636
 10
174.2034538734
 20
107.976491411
 10
174.2327280864
 20
107.9537372871
 10
174.2608954673
 20
107.9326142059
 10
174.2880836366
 20
107.9131915145
 10
174.3143564365
 20
107.8950619548
 10
174.3397305077
 20
107.8782171012
 10
174.3642560736
 20
107.8627347416
 10
174.3880135984
 20
107.8483177651
 10
174.4110121903
 20
107.8349617495
 10
174.4332773512
 20
107.8227193888
 10
174.4548947705
 20
107.8113657135
 10
174.4758673066
 20
107.8008977656
 10
174.4962075552
 20
107.7913524959
 10
174.5160052251
 20
107.7825553396
 10
174.5352602356
 20
107.7745031941
 10
174.5539774213
 20
107.7672234705
 10
174.572248586
 20
107.7605806565
 10
174.5901035782
 20
107.7545343386
 10
174.6075117099
 20
107.7491421289
 10
174.6244720726
 20
107.744412649
  0
LINE
  5
606
100
AcDbEntity
  8
RACCORDO
100
AcDbLine
 62
7
  6
CONTINUOUS
 10
177.4495415114
 20
105.9633250759
 11
177.4506109476
 21
105.9621817375
  0
LWPOLYLINE
  5
607
100
AcDbEntity
  8
RACCORDO
100
AcDbPolyline
 62
250
  6
CONTINUOUS
 90
28
 70
0
 10
174.0513651013
 20
108.2852284996
 10
174.0708338338
 20
108.2627815215
 10
174.0906569711
 20
108.2421347785
 10
174.1106774112
 20
108.2232276833
 10
174.1307325072
 20
108.2060183501
 10
174.1507055802
 20
108.1904032439
 10
174.1705338927
 20
108.1762291119
 10
174.1900836086
 20
108.1634387791
 10
174.2092902018
 20
108.1519368644
 10
174.2282283049
 20
108.1415369869
 10
174.2468329637
 20
108.132174675
 10
174.2650431096
 20
108.1237923214
 10
174.2829681221
 20
108.1162480024
 10
174.3005828533
 20
108.1094877577
 10
174.3178327739
 20
108.103474821
 10
174.3348009767
 20
108.098120274
 10
174.3514694652
 20
108.0933849461
 10
174.3678031933
 20
108.0892377404
 10
174.3838695232
 20
108.0856203308
 10
174.3996541186
 20
108.0825035039
 10
174.4151349103
 20
108.0798612683
 10
174.4303734216
 20
108.0776538926
 10
174.4453582352
 20
108.0758593366
 10
174.4600751995
 20
108.0744567192
 10
174.4745851908
 20
108.0734194409
 10
174.4889025485
 20
108.0727302061
 10
174.5029944264
 20
108.0723752055
 10
174.5168526881
 20
108.0723383677
  0
LWPOLYLINE
  5
608
100
AcDbEntity
  8
RACCORDO
100
AcDbPolyline
 62
250
  6
CONTINUOUS
 90
10
 70
0
 10
174.0738172836
 20
103.212932826
 10
174.0873790076
 20
103.1918752018
 10
174.0992746074
 20
103.1724675594
 10
174.1094101254
 20
103.1548613748
 10
174.1177044985
 20
103.1391932843
 10
174.1240932252
 20
103.125586171
 10
174.1285282131
 20
103.1141478511
 10
174.1309744887
 20
103.1049675984
 10
174.1314111703
 20
103.0981158388
 10
174.1298341999
 20
103.0936455032
  0
LINE
  5
609
100
AcDbEntity
  8
RACCORDO
100
AcDbLine
 62
7
  6
CONTINUOUS
 10
173.9947565007
 20
100.1664442721
 11
173.9564014257
 21
100.2332913791
  0
LINE
  5
60A
100
AcDbEntity
  8
RACCORDO
100
AcDbLine
 62
7
  6
CONTINUOUS
 10
168.9948598096
 20
111.1339606316
 11
169.0332148847
 21
111.0671135246
  0
LINE
  5
60B
100
AcDbEntity
  8
RACCORDO
100
AcDbLine
 62
250
  6
CONTINUOUS
 10
169.416586649
 20
102.4606077104
 11
169.400597958
 21
102.5205385344
  0
LINE
  5
60C
100
AcDbEntity
  8
RACCORDO
100
AcDbLine
 62
250
  6
CONTINUOUS
 10
169.4403531507
 20
102.3695391314
 11
169.416586649
 21
102.4606077104
  0
LWPOLYLINE
  5
60D
100
AcDbEntity
  8
RACCORDO
100
AcDbPolyline
 62
250
  6
CONTINUOUS
 90
3
 70
0
 10
169.4716713721
 20
102.2460830847
 10
169.4638596104
 20
102.2771245107
 10
169.4403531507
 20
102.3695391314
  0
LWPOLYLINE
  5
60E
100
AcDbEntity
  8
RACCORDO
100
AcDbPolyline
 62
7
  6
CONTINUOUS
 90
6
 70
0
 10
169.0366393845
 20
110.8997385318
 10
169.036117872
 20
110.9027215282
 10
169.0356271328
 20
110.9099573825
 10
169.0351671667
 20
110.9214460948
 10
169.0347320006
 20
110.9376534006
 10
169.0343276078
 20
110.9581135643
  0
LWPOLYLINE
  5
60F
100
AcDbEntity
  8
RACCORDO
100
AcDbPolyline
 62
250
  6
CONTINUOUS
 90
4
 70
0
 10
168.6325185867
 20
100.5140865271
 10
168.6139688093
 20
100.6277365584
 10
168.6039528522
 20
100.6872257276
 10
168.5707386943
 20
100.8699812344
  0
LINE
  5
610
100
AcDbEntity
  8
RACCORDO
100
AcDbLine
 62
250
  6
CONTINUOUS
 10
168.6402521173
 20
100.4627076838
 11
168.6325185867
 21
100.5140865271
  0
LINE
  5
611
100
AcDbEntity
  8
RACCORDO
100
AcDbLine
 62
7
  6
CONTINUOUS
 10
176.7443442352
 20
108.1083712226
 11
176.7219795355
 21
108.073278313
  0
LINE
  5
612
100
AcDbEntity
  8
RACCORDO
100
AcDbLine
 62
250
  6
CONTINUOUS
 10
184.2737744454
 20
109.6492164761
 11
184.2948081552
 21
109.6702501858
  0
LWPOLYLINE
  5
613
100
AcDbEntity
  8
RACCORDO
100
AcDbPolyline
 62
250
  6
CONTINUOUS
 90
13
 70
0
 10
178.2948081552
 20
130.1673597394
 10
178.307680264
 20
130.1678418756
 10
178.3203578708
 20
130.1691269732
 10
178.3328290374
 20
130.1712023963
 10
178.34498416
 20
130.1740334056
 10
178.356913045
 20
130.1776251258
 10
178.3689006447
 20
130.1820436574
 10
178.3809692169
 20
130.1872695194
 10
178.3930695739
 20
130.1933356465
 10
178.4053706819
 20
130.2004175943
 10
178.4179128201
 20
130.2085911218
 10
178.4306120738
 20
130.2178184788
 10
178.4434441126
 20
130.2281169173
  0
LINE
  5
614
100
AcDbEntity
  8
RACCORDO
100
AcDbLine
 62
7
  6
CONTINUOUS
 10
119.6948081552
 20
128.6502024519
 11
133.2948081552
 21
128.6502024519
  0
LINE
  5
615
100
AcDbEntity
  8
RACCORDO
100
AcDbLine
 62
7
  6
CONTINUOUS
 10
164.6948081552
 20
128.6502024519
 11
178.2948081552
 21
128.6502024519
  0
LINE
  5
616
100
AcDbEntity
  8
RACCORDO
100
AcDbLine
 62
250
  6
CONTINUOUS
 10
119.3863169384
 20
130.3357794857
 11
119.3952070915
 21
130.3354492075
  0
LWPOLYLINE
  5
617
100
AcDbEntity
  8
RACCORDO
100
AcDbPolyline
 62
7
  6
CONTINUOUS
 90
6
 70
0
 10
119.6948081583
 20
130.2845170165
 10
119.6810583089
 20
130.285086615
 10
119.6583811877
 20
130.288489046
 10
119.6355366278
 20
130.2949229419
 10
119.6132597037
 20
130.3039793255
 10
119.5945750355
 20
130.3136296016
  0
LINE
  5
618
100
AcDbEntity
  8
RACCORDO
100
AcDbLine
 62
250
  6
CONTINUOUS
 10
184.2948081552
 20
101.6301547179
 11
184.2737744454
 21
101.6511884276
  0
LINE
  5
619
100
AcDbEntity
  8
RACCORDO
100
AcDbLine
 62
7
  6
CONTINUOUS
 10
176.7443442351
 20
103.1920336811
 11
176.7219795355
 21
103.2271265907
  0
LWPOLYLINE
  5
61A
100
AcDbEntity
  8
RACCORDO
100
AcDbPolyline
 62
250
  6
CONTINUOUS
 90
19
 70
0
 10
173.5890183523
 20
108.7798663693
 10
173.6021002629
 20
108.7382998309
 10
173.6164213125
 20
108.6985017628
 10
173.6319868532
 20
108.6603834672
 10
173.6490146315
 20
108.6238474086
 10
173.6672694523
 20
108.5887775134
 10
173.6860869573
 20
108.5550793175
 10
173.7053647254
 20
108.5227056261
 10
173.7252079335
 20
108.4915517353
 10
173.7452870587
 20
108.4614891063
 10
173.7655471795
 20
108.4324799215
 10
173.7860517583
 20
108.4044581764
 10
173.8066581281
 20
108.3772851163
 10
173.8273386973
 20
108.3509310616
 10
173.848133093
 20
108.3253577123
 10
173.8690016544
 20
108.3004312788
 10
173.8899356985
 20
108.2760942076
 10
173.9109585341
 20
108.2523607569
 10
173.9320793793
 20
108.2292127888
  0
LWPOLYLINE
  5
61B
100
AcDbEntity
  8
RACCORDO
100
AcDbPolyline
 62
7
  6
CONTINUOUS
 90
6
 70
0
 10
173.9529769259
 20
100.4006663719
 10
173.9534984384
 20
100.3976833755
 10
173.9539891776
 20
100.3904475212
 10
173.9544491436
 20
100.3789588089
 10
173.9548843097
 20
100.3627515031
 10
173.9552887026
 20
100.3422913394
  0
LWPOLYLINE
  5
61C
100
AcDbEntity
  8
RACCORDO
100
AcDbPolyline
 62
250
  6
CONTINUOUS
 90
10
 70
0
 10
174.6244720726
 20
107.744412649
 10
174.6199443533
 20
107.8033678733
 10
174.6130220399
 20
107.8592809527
 10
174.6038659257
 20
107.9108531523
 10
174.5926886898
 20
107.9568865712
 10
174.5797499578
 20
107.99631196
 10
174.565350272
 20
108.0282135598
 10
174.5498241079
 20
108.0518503817
 10
174.5335321043
 20
108.0666734138
 10
174.5168526881
 20
108.0723383677
  0
LWPOLYLINE
  5
61D
100
AcDbEntity
  8
RACCORDO
100
AcDbPolyline
 62
250
  6
CONTINUOUS
 90
13
 70
0
 10
173.984517896
 20
108.7398208097
 10
173.9896720556
 20
108.6615321163
 10
174.0049986882
 20
108.5845824452
 10
174.0302356524
 20
108.5102879167
 10
174.0649513043
 20
108.4399192385
 10
174.1085518794
 20
108.3746799721
 10
174.1602916486
 20
108.3156859476
 10
174.2192856726
 20
108.2639461783
 10
174.2845249383
 20
108.220345603
 10
174.3548936163
 20
108.1856299506
 10
174.4291881454
 20
108.1603929856
 10
174.5061378178
 20
108.1450663525
 10
174.5844265131
 20
108.1399121926
  0
LWPOLYLINE
  5
61E
100
AcDbEntity
  8
RACCORDO
100
AcDbPolyline
 62
250
  6
CONTINUOUS
 90
19
 70
0
 10
173.9169440711
 20
108.6722469848
 10
173.9175470274
 20
108.6388448612
 10
173.9198004792
 20
108.607163573
 10
173.9234426879
 20
108.5772690061
 10
173.9281890564
 20
108.549351112
 10
173.9338241092
 20
108.5232789076
 10
173.9402692978
 20
108.4986190505
 10
173.9473872752
 20
108.4753365723
 10
173.9550199791
 20
108.4534664872
 10
173.9631660055
 20
108.432692291
 10
173.9717416868
 20
108.4129834131
 10
173.98064442
 20
108.3943531401
 10
173.9899107766
 20
108.3765676456
 10
173.9994890167
 20
108.3596046075
 10
174.0093121031
 20
108.3434688044
 10
174.0194366543
 20
108.3279841549
 10
174.0298630733
 20
108.3130926207
 10
174.0405179537
 20
108.2988433559
 10
174.0513651013
 20
108.2852284996
  0
LINE
  5
61F
100
AcDbEntity
  8
RACCORDO
100
AcDbLine
 62
250
  6
CONTINUOUS
 10
173.990660242
 20
100.4379991439
 11
173.9947565007
 21
100.1664442721
  0
LINE
  5
620
100
AcDbEntity
  8
RACCORDO
100
AcDbLine
 62
7
  6
CONTINUOUS
 10
173.9552887026
 20
100.3422913394
 11
173.9559454365
 21
100.2932697939
  0
LINE
  5
621
100
AcDbEntity
  8
RACCORDO
100
AcDbLine
 62
250
  6
CONTINUOUS
 10
173.9872596358
 20
100.7986714208
 11
173.990660242
 21
100.4379991439
  0
LINE
  5
622
100
AcDbEntity
  8
RACCORDO
100
AcDbLine
 62
7
  6
CONTINUOUS
 10
173.9559454365
 20
100.2932697939
 11
173.9564014257
 21
100.2332913791
  0
LINE
  5
623
100
AcDbEntity
  8
RACCORDO
100
AcDbLine
 62
250
  6
CONTINUOUS
 10
173.9847887215
 20
101.3648645958
 11
173.9872596358
 21
100.7986714208
  0
LWPOLYLINE
  5
624
100
AcDbEntity
  8
RACCORDO
100
AcDbPolyline
 62
7
  6
CONTINUOUS
 90
3
 70
0
 10
173.9169440711
 20
102.6281579189
 10
173.9178807644
 20
102.2733815093
 10
173.9178839045
 20
102.2595156827
  0
LINE
  5
625
100
AcDbEntity
  8
RACCORDO
100
AcDbLine
 62
250
  6
CONTINUOUS
 10
173.5179449383
 20
110.9502024519
 11
173.5179449383
 21
109.0543218296
  0
LINE
  5
626
100
AcDbEntity
  8
RACCORDO
100
AcDbLine
 62
250
  6
CONTINUOUS
 10
173.5179449383
 20
102.2460830708
 11
173.5179449383
 21
100.3502024519
  0
LINE
  5
627
100
AcDbEntity
  8
RACCORDO
100
AcDbLine
 62
250
  6
CONTINUOUS
 10
173.9178839045
 20
102.2595156827
 11
173.9178840164
 21
100.4230310716
  0
LINE
  5
628
100
AcDbEntity
  8
RACCORDO
100
AcDbLine
 62
250
  6
CONTINUOUS
 10
173.984517896
 20
102.560584094
 11
173.9847887215
 21
101.3648645958
  0
LINE
  5
629
100
AcDbEntity
  8
RACCORDO
100
AcDbLine
 62
250
  6
CONTINUOUS
 10
174.5844265131
 20
109.6588640073
 11
174.5844265131
 21
108.1399121926
  0
LINE
  5
62A
100
AcDbEntity
  8
RACCORDO
100
AcDbLine
 62
250
  6
CONTINUOUS
 10
174.5844265131
 20
101.6415408904
 11
174.5844265131
 21
103.1604927111
  0
LINE
  5
62B
100
AcDbEntity
  8
RACCORDO
100
AcDbLine
 62
250
  6
CONTINUOUS
 10
174.8989275225
 20
103.6270656688
 11
174.8989275225
 21
103.2271265907
  0
LINE
  5
62C
100
AcDbEntity
  8
RACCORDO
100
AcDbLine
 62
250
  6
CONTINUOUS
 10
174.8989275225
 20
107.673339235
 11
174.8989275225
 21
108.073278313
  0
LINE
  5
62D
100
AcDbEntity
  8
RACCORDO
100
AcDbLine
 62
250
  6
CONTINUOUS
 10
175.5034694412
 20
108.7398208097
 11
175.5034694412
 21
108.1399121926
  0
LINE
  5
62E
100
AcDbEntity
  8
RACCORDO
100
AcDbLine
 62
250
  6
CONTINUOUS
 10
175.5034694412
 20
102.560584094
 11
175.5034694412
 21
103.1604927111
  0
LINE
  5
62F
100
AcDbEntity
  8
RACCORDO
100
AcDbLine
 62
250
  6
CONTINUOUS
 10
173.9178840164
 20
110.8773738321
 11
173.9178823477
 21
109.0409247053
  0
LINE
  5
630
100
AcDbEntity
  8
RACCORDO
100
AcDbLine
 62
250
  6
CONTINUOUS
 10
173.9858037313
 20
110.2499173984
 11
173.984517896
 21
108.7398208097
  0
LINE
  5
631
100
AcDbEntity
  8
RACCORDO
100
AcDbLine
 62
7
  6
CONTINUOUS
 10
173.9178823477
 20
109.0409247053
 11
173.9169440711
 21
108.6722469848
  0
LINE
  5
632
100
AcDbEntity
  8
RACCORDO
100
AcDbLine
 62
7
  6
CONTINUOUS
 10
173.9563488047
 20
111.0670218052
 11
173.955933743
 21
111.0071147278
  0
LINE
  5
633
100
AcDbEntity
  8
RACCORDO
100
AcDbLine
 62
250
  6
CONTINUOUS
 10
173.9887515919
 20
110.6832530698
 11
173.9858037313
 21
110.2499173984
  0
LINE
  5
634
100
AcDbEntity
  8
RACCORDO
100
AcDbLine
 62
250
  6
CONTINUOUS
 10
173.9918949896
 20
110.954689409
 11
173.9887515919
 21
110.6832530698
  0
LWPOLYLINE
  5
635
100
AcDbEntity
  8
RACCORDO
100
AcDbPolyline
 62
7
  6
CONTINUOUS
 90
7
 70
0
 10
173.955933743
 20
111.0071147278
 10
173.9552926005
 20
110.9581203582
 10
173.9548862587
 20
110.9376567972
 10
173.9544491437
 20
110.9214460942
 10
173.9539891776
 20
110.909957382
 10
173.9534984384
 20
110.9027215278
 10
173.9529769259
 20
110.8997385317
  0
LINE
  5
636
100
AcDbEntity
  8
RACCORDO
100
AcDbLine
 62
250
  6
CONTINUOUS
 10
173.994756509
 20
111.1339611817
 11
173.9918949896
 21
110.954689409
  0
LWPOLYLINE
  5
637
100
AcDbEntity
  8
RACCORDO
100
AcDbPolyline
 62
250
  6
CONTINUOUS
 90
6
 70
0
 10
174.3307855816
 20
111.0062484362
 10
174.3302690432
 20
110.9988951104
 10
174.331058174
 20
110.9827332084
 10
174.3332711684
 20
110.9581235249
 10
174.3373240733
 20
110.9250423201
 10
174.349364193
 20
110.8376972199
  0
LWPOLYLINE
  5
638
100
AcDbEntity
  8
RACCORDO
100
AcDbPolyline
 62
250
  6
CONTINUOUS
 90
10
 70
0
 10
174.6244720902
 20
103.5559922598
 10
174.619946054
 20
103.497039305
 10
174.6130250258
 20
103.4411275991
 10
174.6038698038
 20
103.3895558952
 10
174.5926930533
 20
103.3435221298
 10
174.5797543758
 20
103.3040958523
 10
174.5653543134
 20
103.2721932431
 10
174.5498273286
 20
103.2485555061
 10
174.5335340038
 20
103.2337317779
 10
174.5168526984
 20
103.2280665359
  0
LWPOLYLINE
  5
639
100
AcDbEntity
  8
RACCORDO
100
AcDbPolyline
 62
250
  6
CONTINUOUS
 90
5
 70
0
 10
174.3369078364
 20
100.3719698424
 10
174.3330345415
 20
100.3400924134
 10
174.3308715919
 20
100.316488571
 10
174.3301434244
 20
100.3010934731
 10
174.3307855816
 20
100.2941564676
  0
LWPOLYLINE
  5
63A
100
AcDbEntity
  8
RACCORDO
100
AcDbPolyline
 62
250
  6
CONTINUOUS
 90
4
 70
0
 10
174.3747257097
 20
100.622249103
 10
174.3562386257
 20
100.5081190724
 10
174.3485389125
 20
100.4571327051
 10
174.3369078364
 20
100.3719698424
  0
LINE
  5
63B
100
AcDbEntity
  8
RACCORDO
100
AcDbLine
 62
250
  6
CONTINUOUS
 10
174.3848339103
 20
100.6823355233
 11
174.3747257097
 21
100.622249103
  0
LINE
  5
63C
100
AcDbEntity
  8
RACCORDO
100
AcDbLine
 62
250
  6
CONTINUOUS
 10
174.4183774173
 20
100.86739418
 11
174.3848339103
 21
100.6823355233
  0
LINE
  5
63D
100
AcDbEntity
  8
RACCORDO
100
AcDbLine
 62
250
  6
CONTINUOUS
 10
174.454015368
 20
101.049687073
 11
174.4183774173
 21
100.86739418
  0
LINE
  5
63E
100
AcDbEntity
  8
RACCORDO
100
AcDbLine
 62
250
  6
CONTINUOUS
 10
174.4903506073
 20
101.2246994274
 11
174.454015368
 21
101.049687073
  0
LINE
  5
63F
100
AcDbEntity
  8
RACCORDO
100
AcDbLine
 62
250
  6
CONTINUOUS
 10
174.5264172828
 20
101.3899054611
 11
174.4903506073
 21
101.2246994274
  0
LWPOLYLINE
  5
640
100
AcDbEntity
  8
RACCORDO
100
AcDbPolyline
 62
250
  6
CONTINUOUS
 90
4
 70
0
 10
174.5844265131
 20
101.6415411658
 10
174.5729752748
 20
101.5935652715
 10
174.5615237949
 20
101.5443739972
 10
174.5264172828
 20
101.3899054611
  0
LINE
  5
641
100
AcDbEntity
  8
RACCORDO
100
AcDbLine
 62
250
  6
CONTINUOUS
 10
173.5329657724
 20
102.305808492
 11
173.5179449383
 21
102.2460830847
  0
LINE
  5
642
100
AcDbEntity
  8
RACCORDO
100
AcDbLine
 62
250
  6
CONTINUOUS
 10
173.5557995771
 20
102.3947432519
 11
173.5329657724
 21
102.305808492
  0
LINE
  5
643
100
AcDbEntity
  8
RACCORDO
100
AcDbLine
 62
250
  6
CONTINUOUS
 10
173.5750980869
 20
102.4683179683
 11
173.5557995771
 21
102.3947432519
  0
LINE
  5
644
100
AcDbEntity
  8
RACCORDO
100
AcDbLine
 62
250
  6
CONTINUOUS
 10
173.5890183523
 20
102.5205385344
 11
173.5750980869
 21
102.4683179683
  0
LINE
  5
645
100
AcDbEntity
  8
RACCORDO
100
AcDbLine
 62
7
  6
CONTINUOUS
 10
176.7231288696
 20
103.231180672
 11
176.7219795355
 21
103.2271265907
  0
LWPOLYLINE
  5
646
100
AcDbEntity
  8
RACCORDO
100
AcDbPolyline
 62
7
  6
CONTINUOUS
 90
4
 70
0
 10
176.8611091307
 20
103.5736600845
 10
176.8217202103
 20
103.4716860741
 10
176.8029271467
 20
103.4248529231
 10
176.7549381928
 20
103.3092673157
  0
LINE
  5
647
100
AcDbEntity
  8
RACCORDO
100
AcDbLine
 62
7
  6
CONTINUOUS
 10
176.8820646398
 20
103.6270656688
 11
176.8611091307
 21
103.5736600845
  0
LWPOLYLINE
  5
648
100
AcDbEntity
  8
RACCORDO
100
AcDbPolyline
 62
7
  6
CONTINUOUS
 90
5
 70
0
 10
176.7549381928
 20
103.3092673157
 10
176.7428539676
 20
103.2808717777
 10
176.7334408446
 20
103.2582091743
 10
176.7269493059
 20
103.2415734302
 10
176.7231288696
 20
103.231180672
  0
LWPOLYLINE
  5
649
100
AcDbEntity
  8
RACCORDO
100
AcDbPolyline
 62
250
  6
CONTINUOUS
 90
3
 70
0
 10
164.3238873524
 20
80.8819713077
 10
164.3496068578
 20
80.9241463101
 10
164.3702039157
 20
80.969876743
  0
LWPOLYLINE
  5
64A
100
AcDbEntity
  8
RACCORDO
100
AcDbPolyline
 62
250
  6
CONTINUOUS
 90
10
 70
0
 10
133.5923535061
 20
130.3350167273
 10
133.5957596377
 20
130.3356899188
 10
133.5990465217
 20
130.3361008726
 10
133.6022327216
 20
130.3362304544
 10
133.6053236166
 20
130.3360877425
 10
133.6083174312
 20
130.3356601788
 10
133.6112210745
 20
130.3348968306
 10
133.6140378572
 20
130.3337797907
 10
133.6167677447
 20
130.3323240322
 10
133.6194124143
 20
130.3305281453
  0
LWPOLYLINE
  5
64B
100
AcDbEntity
  8
RACCORDO
100
AcDbPolyline
 62
250
  6
CONTINUOUS
 90
13
 70
0
 10
133.2948081552
 20
130.1673597394
 10
133.307680264
 20
130.1678418756
 10
133.3203578708
 20
130.1691269732
 10
133.3328290374
 20
130.1712023963
 10
133.34498416
 20
130.1740334056
 10
133.356913045
 20
130.1776251258
 10
133.3689006447
 20
130.1820436574
 10
133.3809692169
 20
130.1872695194
 10
133.3930695739
 20
130.1933356465
 10
133.4053706819
 20
130.2004175943
 10
133.4179128201
 20
130.2085911218
 10
133.4306120738
 20
130.2178184788
 10
133.4434441126
 20
130.2281169173
  0
LINE
  5
64C
100
AcDbEntity
  8
RACCORDO
100
AcDbLine
 62
250
  6
CONTINUOUS
 10
119.6948081552
 20
130.1673597394
 11
133.2948081552
 21
130.1673597394
  0
LINE
  5
64D
100
AcDbEntity
  8
RACCORDO
100
AcDbLine
 62
250
  6
CONTINUOUS
 10
164.6948081552
 20
130.1673597394
 11
178.2948081552
 21
130.1673597394
  0
LINE
  5
64E
100
AcDbEntity
  8
RACCORDO
100
AcDbLine
 62
7
  6
CONTINUOUS
 10
119.6948081552
 20
130.2845170269
 11
133.2948081552
 21
130.2845170269
  0
LINE
  5
64F
100
AcDbEntity
  8
RACCORDO
100
AcDbLine
 62
7
  6
CONTINUOUS
 10
164.6948081552
 20
130.2845170269
 11
178.2948081552
 21
130.2845170269
  0
LINE
  5
650
100
AcDbEntity
  8
RACCORDO
100
AcDbLine
 62
7
  6
CONTINUOUS
 10
116.487955829
 20
130.6502024519
 11
118.8948081552
 21
130.6502024519
  0
LINE
  5
651
100
AcDbEntity
  8
RACCORDO
100
AcDbLine
 62
7
  6
CONTINUOUS
 10
134.0948081552
 20
130.6502024519
 11
136.5016604814
 21
130.6502024519
  0
LINE
  5
652
100
AcDbEntity
  8
RACCORDO
100
AcDbLine
 62
7
  6
CONTINUOUS
 10
161.487955829
 20
130.6502024519
 11
163.8948081552
 21
130.6502024519
  0
LINE
  5
653
100
AcDbEntity
  8
RACCORDO
100
AcDbLine
 62
7
  6
CONTINUOUS
 10
179.0948081552
 20
130.6502024519
 11
181.5016604814
 21
130.6502024519
  0
LINE
  5
654
100
AcDbEntity
  8
RACCORDO
100
AcDbLine
 62
250
  6
CONTINUOUS
 10
164.3863169384
 20
130.3357794857
 11
164.3952070915
 21
130.3354492075
  0
LWPOLYLINE
  5
655
100
AcDbEntity
  8
RACCORDO
100
AcDbPolyline
 62
7
  6
CONTINUOUS
 90
6
 70
0
 10
164.6948081583
 20
130.2845170165
 10
164.6810583089
 20
130.285086615
 10
164.6583811877
 20
130.288489046
 10
164.6355366278
 20
130.2949229419
 10
164.6132597037
 20
130.3039793255
 10
164.5945750355
 20
130.3136296016
  0
LWPOLYLINE
  5
656
100
AcDbEntity
  8
RACCORDO
100
AcDbPolyline
 62
250
  6
CONTINUOUS
 90
3
 70
0
 10
164.3238945644
 20
130.4184201968
 10
164.3496117493
 20
130.3762473177
 10
164.3702066444
 20
130.3305208946
  0
LWPOLYLINE
  5
657
100
AcDbEntity
  8
RACCORDO
100
AcDbPolyline
 62
7
  6
CONTINUOUS
 90
10
 70
0
 10
176.8508541395
 20
108.4861798783
 10
176.8824733181
 20
108.4173678327
 10
176.9092042093
 20
108.3562317001
 10
176.931315972
 20
108.302898379
 10
176.9490124563
 20
108.2575073985
 10
176.9625269446
 20
108.2201053989
 10
176.9721190359
 20
108.1906458079
 10
176.9779488741
 20
108.1691347618
 10
176.9800793153
 20
108.1556338556
 10
176.9785695534
 20
108.1501523165
  0
LINE
  5
658
100
AcDbEntity
  8
RACCORDO
100
AcDbLine
 62
7
  6
CONTINUOUS
 10
176.7428539676
 20
108.019533126
 11
176.7549381928
 21
107.991137588
  0
LINE
  5
659
100
AcDbEntity
  8
RACCORDO
100
AcDbLine
 62
7
  6
CONTINUOUS
 10
176.7549381928
 20
107.991137588
 11
176.8029271467
 21
107.8755519806
  0
LINE
  5
65A
100
AcDbEntity
  8
RACCORDO
100
AcDbLine
 62
7
  6
CONTINUOUS
 10
176.8029271467
 20
107.8755519806
 11
176.8217202103
 21
107.8287188296
  0
LWPOLYLINE
  5
65B
100
AcDbEntity
  8
RACCORDO
100
AcDbPolyline
 62
7
  6
CONTINUOUS
 90
3
 70
0
 10
176.8217202103
 20
107.8287188296
 10
176.8611091307
 20
107.7267448192
 10
176.8820646398
 20
107.673339235
  0
LWPOLYLINE
  5
65C
100
AcDbEntity
  8
RACCORDO
100
AcDbPolyline
 62
7
  6
CONTINUOUS
 90
5
 70
0
 10
176.7219795355
 20
108.073278313
 10
176.7231288696
 20
108.0692242317
 10
176.7269493059
 20
108.0588314736
 10
176.7334408446
 20
108.0421957294
 10
176.7428539676
 20
108.019533126
  0
LWPOLYLINE
  5
65D
100
AcDbEntity
  8
RACCORDO
100
AcDbPolyline
 62
7
  6
CONTINUOUS
 90
10
 70
0
 10
176.9786526383
 20
103.1501869283
 10
176.9801240751
 20
103.1447180096
 10
176.9779548694
 20
103.1312020036
 10
176.9720855599
 20
103.1096482677
 10
176.9624422475
 20
103.0800833846
 10
176.9488740898
 20
103.042548887
 10
176.9311535342
 20
102.997103529
 10
176.9090604022
 20
102.9438283886
 10
176.8823825953
 20
102.8828270043
 10
176.8508541395
 20
102.8142250255
  0
LINE
  5
65E
100
AcDbEntity
  8
RACCORDO
100
AcDbLine
 62
250
  6
CONTINUOUS
 10
173.5730296614
 20
108.8397971933
 11
173.5890183523
 21
108.7798663693
  0
LINE
  5
65F
100
AcDbEntity
  8
RACCORDO
100
AcDbLine
 62
250
  6
CONTINUOUS
 10
173.5492631597
 20
108.9308657723
 11
173.5730296614
 21
108.8397971933
  0
LWPOLYLINE
  5
660
100
AcDbEntity
  8
RACCORDO
100
AcDbPolyline
 62
250
  6
CONTINUOUS
 90
3
 70
0
 10
173.5179449383
 20
109.054321819
 10
173.5257567
 20
109.023280393
 10
173.5492631597
 20
108.9308657723
  0
LINE
  5
661
100
AcDbEntity
  8
RACCORDO
100
AcDbLine
 62
250
  6
CONTINUOUS
 10
174.5729486855
 20
109.7069657533
 11
174.5844265131
 21
109.6588637379
  0
LINE
  5
662
100
AcDbEntity
  8
RACCORDO
100
AcDbLine
 62
250
  6
CONTINUOUS
 10
174.5499578527
 20
109.8066707104
 11
174.5729486855
 21
109.7069657533
  0
LINE
  5
663
100
AcDbEntity
  8
RACCORDO
100
AcDbLine
 62
250
  6
CONTINUOUS
 10
174.5263679421
 20
109.9107289825
 11
174.5499578527
 21
109.8066707104
  0
LINE
  5
664
100
AcDbEntity
  8
RACCORDO
100
AcDbLine
 62
250
  6
CONTINUOUS
 10
174.49039383
 20
110.0755154335
 11
174.5263679421
 21
109.9107289825
  0
LINE
  5
665
100
AcDbEntity
  8
RACCORDO
100
AcDbLine
 62
250
  6
CONTINUOUS
 10
174.4542383962
 20
110.2496463784
 11
174.49039383
 21
110.0755154335
  0
LINE
  5
666
100
AcDbEntity
  8
RACCORDO
100
AcDbLine
 62
250
  6
CONTINUOUS
 10
174.4188776161
 20
110.4304236693
 11
174.4542383962
 21
110.2496463784
  0
LWPOLYLINE
  5
667
100
AcDbEntity
  8
RACCORDO
100
AcDbPolyline
 62
250
  6
CONTINUOUS
 90
4
 70
0
 10
174.3570977237
 20
110.7863183766
 10
174.3756475011
 20
110.6726683453
 10
174.3856634582
 20
110.6131791762
 10
174.4188776161
 20
110.4304236693
  0
LINE
  5
668
100
AcDbEntity
  8
RACCORDO
100
AcDbLine
 62
250
  6
CONTINUOUS
 10
174.349364193
 20
110.8376972199
 11
174.3570977237
 21
110.7863183766
  0
LWPOLYLINE
  5
669
100
AcDbEntity
  8
RACCORDO
100
AcDbPolyline
 62
7
  6
CONTINUOUS
 90
5
 70
0
 10
177.4432341069
 20
106.0086006171
 10
177.445159212
 20
105.9910846706
 10
177.446844125
 20
105.9775353101
 10
177.4482893211
 20
105.9684437469
 10
177.4495415114
 20
105.9633250759
  0
LINE
  5
66A
100
AcDbEntity
  8
RACCORDO
100
AcDbLine
 62
7
  6
CONTINUOUS
 10
177.4273427006
 20
106.160843124
 11
177.4335754278
 21
106.1021842111
  0
LINE
  5
66B
100
AcDbEntity
  8
RACCORDO
100
AcDbLine
 62
7
  6
CONTINUOUS
 10
177.4335754278
 20
106.1021842111
 11
177.4432341069
 21
106.0086006171
  0
LINE
  5
66C
100
AcDbEntity
  8
RACCORDO
100
AcDbLine
 62
250
  6
CONTINUOUS
 10
178.2948081552
 20
81.0158878872
 11
178.2948081552
 21
82.6502024519
  0
LINE
  5
66D
100
AcDbEntity
  8
RACCORDO
100
AcDbLine
 62
250
  6
CONTINUOUS
 10
178.2948081552
 20
128.6502024519
 11
178.2948081552
 21
130.2845168885
  0
LINE
  5
66E
100
AcDbEntity
  8
RACCORDO
100
AcDbLine
 62
7
  6
CONTINUOUS
 10
178.6948081552
 20
81.0507513903
 11
178.6948081552
 21
82.0845170269
  0
LINE
  5
66F
100
AcDbEntity
  8
RACCORDO
100
AcDbLine
 62
7
  6
CONTINUOUS
 10
178.6948081552
 20
129.2158878768
 11
178.6948081552
 21
130.2496535135
  0
LINE
  5
670
100
AcDbEntity
  8
RACCORDO
100
AcDbLine
 62
7
  6
CONTINUOUS
 10
177.4306268987
 20
105.1701379532
 11
177.4238309675
 21
105.1077219045
  0
LWPOLYLINE
  5
671
100
AcDbEntity
  8
RACCORDO
100
AcDbPolyline
 62
7
  6
CONTINUOUS
 90
9
 70
0
 10
177.4238309675
 20
105.1077219045
 10
177.4158014539
 20
105.0384564888
 10
177.4112287239
 20
105.0009016303
 10
177.4062118752
 20
104.9612214685
 10
177.4007267181
 20
104.9195182343
 10
177.3947714536
 20
104.8758221253
 10
177.3883151288
 20
104.8301474045
 10
177.3812970854
 20
104.7824934567
 10
177.3736684493
 20
104.7328684657
  0
LWPOLYLINE
  5
672
100
AcDbEntity
  8
RACCORDO
100
AcDbPolyline
 62
250
  6
CONTINUOUS
 90
4
 70
0
 10
182.9672357313
 20
110.2028241428
 10
182.9631303472
 20
110.1952719909
 10
182.9604968588
 20
110.1779649554
 10
182.9533859032
 20
110.0711503546
  0
LINE
  5
673
100
AcDbEntity
  8
RACCORDO
100
AcDbLine
 62
7
  6
CONTINUOUS
 10
183.5082889761
 20
100.9636832727
 11
183.5658609177
 21
101.0212552144
  0
LINE
  5
674
100
AcDbEntity
  8
RACCORDO
100
AcDbLine
 62
250
  6
CONTINUOUS
 10
164.5461721978
 20
81.0722879865
 11
164.5086379117
 21
81.0404568646
  0
LWPOLYLINE
  5
675
100
AcDbEntity
  8
RACCORDO
100
AcDbPolyline
 62
250
  6
CONTINUOUS
 90
20
 70
0
 10
164.5086379117
 20
81.0404568646
 10
164.4921559506
 20
81.0267096556
 10
164.4844654299
 20
81.0204023805
 10
164.477131944
 20
81.014487664
 10
164.4701394845
 20
81.0089353937
 10
164.4634843057
 20
81.0037618253
 10
164.4571558619
 20
80.9989744533
 10
164.4511286525
 20
80.9945279151
 10
164.4453998031
 20
80.9904330985
 10
164.4399581428
 20
80.9866979776
 10
164.4347675564
 20
80.9832701955
 10
164.429823231
 20
80.9801532694
 10
164.4251179867
 20
80.9773576418
 10
164.4206146911
 20
80.9748386263
 10
164.4163083715
 20
80.9725951621
 10
164.412194539
 20
80.9706382795
 10
164.4082393722
 20
80.9689390855
 10
164.4044380025
 20
80.9674932187
 10
164.4007882922
 20
80.9663119885
 10
164.3972628043
 20
80.9653881764
  0
LWPOLYLINE
  5
676
100
AcDbEntity
  8
RACCORDO
100
AcDbPolyline
 62
7
  6
CONTINUOUS
 90
4
 70
0
 10
164.3880742022
 20
80.8598307516
 10
164.4921910968
 20
80.9255737025
 10
164.5511066166
 20
80.961532171
 10
164.5946215414
 20
80.986811127
  0
LWPOLYLINE
  5
677
100
AcDbEntity
  8
RACCORDO
100
AcDbPolyline
 62
7
  6
CONTINUOUS
 90
7
 70
0
 10
164.5946249514
 20
80.9868035373
 10
164.5992816175
 20
80.9893805155
 10
164.6215732724
 20
81.0001202357
 10
164.6437346802
 20
81.0081292669
 10
164.6663105202
 20
81.0134500169
 10
164.6887759188
 20
81.0157782992
 10
164.6948081576
 20
81.0158880152
  0
LWPOLYLINE
  5
678
100
AcDbEntity
  8
RACCORDO
100
AcDbPolyline
 62
250
  6
CONTINUOUS
 90
5
 70
0
 10
164.1795844983
 20
80.7618968437
 10
164.2207143067
 20
80.7835150399
 10
164.2588935057
 20
80.8110582454
 10
164.2934787744
 20
80.84406237
 10
164.3238873524
 20
80.8819713077
  0
LWPOLYLINE
  5
679
100
AcDbEntity
  8
RACCORDO
100
AcDbPolyline
 62
7
  6
CONTINUOUS
 90
6
 70
0
 10
164.1579517762
 20
80.7503216216
 10
164.2032632078
 20
80.7640461794
 10
164.2504217633
 20
80.783147763
 10
164.2962025486
 20
80.805786185
 10
164.3415771651
 20
80.8314184733
 10
164.3880742022
 20
80.8598307516
  0
LWPOLYLINE
  5
67A
100
AcDbEntity
  8
RACCORDO
100
AcDbPolyline
 62
250
  6
CONTINUOUS
 90
11
 70
0
 10
164.3952070915
 20
130.3354492075
 10
164.4047893241
 20
130.3328707276
 10
164.4149662267
 20
130.3283812606
 10
164.4253637609
 20
130.3229062268
 10
164.4358674724
 20
130.3165203412
 10
164.4465317904
 20
130.3091395105
 10
164.4571853105
 20
130.3014114507
 10
164.4677547853
 20
130.2934037391
 10
164.47824378
 20
130.2850164001
 10
164.4885855509
 20
130.2766321993
 10
164.49873007
 20
130.2682914791
  0
LWPOLYLINE
  5
67B
100
AcDbEntity
  8
RACCORDO
100
AcDbPolyline
 62
250
  6
CONTINUOUS
 90
5
 70
0
 10
164.1795993137
 20
130.5385004249
 10
164.2207276457
 20
130.516879551
 10
164.258905059
 20
130.4893340833
 10
164.2934882618
 20
130.456328751
 10
164.3238945644
 20
130.4184201968
  0
LWPOLYLINE
  5
67C
100
AcDbEntity
  8
RACCORDO
100
AcDbPolyline
 62
7
  6
CONTINUOUS
 90
3
 70
0
 10
164.59457182
 20
130.3136238973
 10
164.5484348032
 20
130.3404649798
 10
164.4915535069
 20
130.3752288199
  0
LWPOLYLINE
  5
67D
100
AcDbEntity
  8
RACCORDO
100
AcDbPolyline
 62
7
  6
CONTINUOUS
 90
7
 70
0
 10
164.3908058772
 20
130.4388644672
 10
164.3457419785
 20
130.4665194371
 10
164.301930299
 20
130.4915625471
 10
164.257954782
 20
130.5137704669
 10
164.2127743839
 20
130.5328000778
 10
164.1658474716
 20
130.5481122133
 10
164.1582814197
 20
130.549795711
  0
LINE
  5
67E
100
AcDbEntity
  8
RACCORDO
100
AcDbLine
 62
7
  6
CONTINUOUS
 10
164.4915535069
 20
130.3752288199
 11
164.3908058772
 21
130.4388644672
  0
LWPOLYLINE
  5
67F
100
AcDbEntity
  8
RACCORDO
100
AcDbPolyline
 62
250
  6
CONTINUOUS
 90
12
 70
0
 10
164.5566113135
 20
130.2195754038
 10
164.5672987672
 20
130.2115984501
 10
164.578230159
 20
130.2041965816
 10
164.5893133515
 20
130.1973900759
 10
164.6006281881
 20
130.19117635
 10
164.6124330666
 20
130.1855480539
 10
164.624777468
 20
130.1804739144
 10
164.6376054395
 20
130.1760444714
 10
164.6510216602
 20
130.1724605479
 10
164.6650549278
 20
130.1698191694
 10
164.6796558547
 20
130.1681049381
 10
164.6948081552
 20
130.1673597394
  0
LINE
  5
680
100
AcDbEntity
  8
RACCORDO
100
AcDbLine
 62
250
  6
CONTINUOUS
 10
164.5461721978
 20
130.2281169173
 11
164.5566113135
 21
130.2195754038
  0
LWPOLYLINE
  5
681
100
AcDbEntity
  8
RACCORDO
100
AcDbPolyline
 62
250
  6
CONTINUOUS
 90
3
 70
0
 10
164.49873007
 20
130.2682914791
 10
164.5371760074
 20
130.235860262
 10
164.5461721978
 20
130.2281169173
  0
LINE
  5
682
100
AcDbEntity
  8
RACCORDO
100
AcDbLine
 62
7
  6
CONTINUOUS
 10
183.5082889761
 20
110.336721631
 11
183.5658609177
 21
110.2791496894
  0
LWPOLYLINE
  5
683
100
AcDbEntity
  8
RACCORDO
100
AcDbPolyline
 62
250
  6
CONTINUOUS
 90
3
 70
0
 10
182.9672357313
 20
101.0975807609
 10
182.963124368
 20
101.1051328998
 10
182.9604850862
 20
101.1224399525
  0
LWPOLYLINE
  5
684
100
AcDbEntity
  8
RACCORDO
100
AcDbPolyline
 62
7
  6
CONTINUOUS
 90
7
 70
0
 10
177.3736684493
 20
106.5675364381
 10
177.3812908243
 20
106.5179528073
 10
177.3883034073
 20
106.4703383326
 10
177.3947549845
 20
106.4247011823
 10
177.4007057335
 20
106.3810433608
 10
177.4061869611
 20
106.3393764932
 10
177.411201468
 20
106.2997228518
  0
LINE
  5
685
100
AcDbEntity
  8
RACCORDO
100
AcDbLine
 62
7
  6
CONTINUOUS
 10
177.411201468
 20
106.2997228518
 11
177.4199614024
 21
106.2266541518
  0
LINE
  5
686
100
AcDbEntity
  8
RACCORDO
100
AcDbLine
 62
7
  6
CONTINUOUS
 10
177.4199614024
 20
106.2266541518
 11
177.4273427006
 21
106.160843124
  0
LWPOLYLINE
  5
687
100
AcDbEntity
  8
RACCORDO
100
AcDbPolyline
 62
250
  6
CONTINUOUS
 90
19
 70
0
 10
180.9282756856
 20
101.5614950007
 10
180.9363469922
 20
101.4511086996
 10
180.9531113193
 20
101.346910375
 10
180.9785686669
 20
101.2489000268
 10
181.0140765956
 20
101.1565804358
 10
181.0582775448
 20
101.0704488212
 10
181.1070988327
 20
100.9919968412
 10
181.159996012
 20
100.9220592964
 10
181.21751353
 20
100.8598013862
 10
181.2772120472
 20
100.8042103668
 10
181.338196705
 20
100.7554313227
 10
181.401362362
 20
100.7133191693
 10
181.4669542544
 20
100.6764259095
 10
181.5344209724
 20
100.6441888843
 10
181.6043139257
 20
100.6171707526
 10
181.6785325799
 20
100.5956114946
 10
181.75771009
 20
100.5795911034
 10
181.841213301
 20
100.5690295859
 10
181.9290422128
 20
100.5639269419
  0
LWPOLYLINE
  5
688
100
AcDbEntity
  8
RACCORDO
100
AcDbPolyline
 62
250
  6
CONTINUOUS
 90
19
 70
0
 10
181.326753716
 20
101.561493001
 10
181.3302425448
 20
101.4960016421
 10
181.3404694074
 20
101.4332518783
 10
181.3567028126
 20
101.3738468123
 10
181.3782396328
 20
101.3181613729
 10
181.4042890949
 20
101.2666348809
 10
181.4339003591
 20
101.2197365794
 10
181.4660871426
 20
101.1777713463
 10
181.500278458
 20
101.1404308769
 10
181.5362569982
 20
101.1071799279
 10
181.573268148
 20
101.0781137394
 10
181.6110572986
 20
101.0529007798
 10
181.6505233688
 20
101.0306774041
 10
181.691300532
 20
101.0115870915
 10
181.7332650879
 20
100.995636449
 10
181.7780146552
 20
100.9824053827
 10
181.8260230385
 20
100.9722487161
 10
181.8764647139
 20
100.9658489249
 10
181.9290423813
 20
100.96368334
  0
LINE
  5
689
100
AcDbEntity
  8
RACCORDO
100
AcDbLine
 62
250
  6
CONTINUOUS
 10
180.9282756856
 20
109.7389119631
 11
180.9282756856
 21
101.5614950007
  0
LINE
  5
68A
100
AcDbEntity
  8
RACCORDO
100
AcDbLine
 62
250
  6
CONTINUOUS
 10
181.3267535648
 20
109.7389119631
 11
181.3267535648
 21
101.5614929406
  0
LINE
  5
68B
100
AcDbEntity
  8
RACCORDO
100
AcDbLine
 62
250
  6
CONTINUOUS
 10
181.6029448064
 20
101.6717336312
 11
181.6029448064
 21
109.6286712725
  0
LINE
  5
68C
100
AcDbEntity
  8
RACCORDO
100
AcDbLine
 62
250
  6
CONTINUOUS
 10
181.9290422128
 20
110.7364779618
 11
181.9290422128
 21
110.336721631
  0
LINE
  5
68D
100
AcDbEntity
  8
RACCORDO
100
AcDbLine
 62
250
  6
CONTINUOUS
 10
181.9290422128
 20
100.5639269419
 11
181.9290421828
 21
100.9636832727
  0
LWPOLYLINE
  5
68E
100
AcDbEntity
  8
RACCORDO
100
AcDbPolyline
 62
250
  6
CONTINUOUS
 90
12
 70
0
 10
178.6948081552
 20
81.1022308285
 10
178.6942098092
 20
81.0897533411
 10
178.6924782137
 20
81.0777482667
 10
178.689708736
 20
81.0661781443
 10
178.6860396869
 20
81.0550723936
 10
178.6815413616
 20
81.0443495985
 10
178.6761168892
 20
81.033800444
 10
178.6697985213
 20
81.0233731814
 10
178.6625737037
 20
81.0130558541
 10
178.6540762249
 20
81.0026507356
 10
178.6440623993
 20
80.9920223732
 10
178.6325430215
 20
80.9811337201
  0
LWPOLYLINE
  5
68F
100
AcDbEntity
  8
RACCORDO
100
AcDbPolyline
 62
250
  6
CONTINUOUS
 90
13
 70
0
 10
184.1404090222
 20
109.6427198091
 10
184.1348911217
 20
109.7201349812
 10
184.1207709607
 20
109.7962547848
 10
184.0982848082
 20
109.8698055266
 10
184.0678089194
 20
109.9395565006
 10
184.0298532395
 20
110.0043405815
 10
183.9850528713
 20
110.0630737536
 10
183.934157448
 20
110.1147732497
 10
183.87801859
 20
110.1585739953
 10
183.8175756543
 20
110.1937430834
 10
183.7538400174
 20
110.2196920388
 10
183.6878781516
 20
110.235986664
 10
183.6207937799
 20
110.2423543053
  0
LWPOLYLINE
  5
690
100
AcDbEntity
  8
RACCORDO
100
AcDbPolyline
 62
250
  6
CONTINUOUS
 90
13
 70
0
 10
184.2737744454
 20
109.6492164761
 10
184.2685571751
 20
109.7274242002
 10
184.2531850051
 20
109.8042958399
 10
184.2279205502
 20
109.8785181362
 10
184.1931954231
 20
109.9488230907
 10
184.1496028608
 20
110.0140096284
 10
184.0978875893
 20
110.0729641161
 10
184.0389331016
 20
110.1246793876
 10
183.9737465639
 20
110.16827195
 10
183.9034416093
 20
110.202997077
 10
183.8292193131
 20
110.2282615319
 10
183.7523476734
 20
110.243633702
 10
183.6741399492
 20
110.2488509723
  0
LWPOLYLINE
  5
691
100
AcDbEntity
  8
RACCORDO
100
AcDbPolyline
 62
250
  6
CONTINUOUS
 90
4
 70
0
 10
182.9604850862
 20
101.1224399525
 10
182.9533574973
 20
101.2292547534
 10
182.9513171218
 20
101.2809903432
 10
182.9477013483
 20
101.4046930391
  0
LINE
  5
692
100
AcDbEntity
  8
RACCORDO
100
AcDbLine
 62
250
  6
CONTINUOUS
 10
182.9477013483
 20
101.4046930391
 11
182.946317297
 21
101.4735771984
  0
LINE
  5
693
100
AcDbEntity
  8
RACCORDO
100
AcDbLine
 62
250
  6
CONTINUOUS
 10
182.946317297
 20
101.4735771984
 11
182.944449492
 21
101.6972152571
  0
LINE
  5
694
100
AcDbEntity
  8
RACCORDO
100
AcDbLine
 62
250
  6
CONTINUOUS
 10
182.944449492
 20
101.697215279
 11
182.944449492
 21
109.6031896466
  0
LINE
  5
695
100
AcDbEntity
  8
RACCORDO
100
AcDbLine
 62
250
  6
CONTINUOUS
 10
183.4868509736
 20
101.6972152571
 11
183.4868509736
 21
109.6031896466
  0
LINE
  5
696
100
AcDbEntity
  8
RACCORDO
100
AcDbLine
 62
7
  6
CONTINUOUS
 10
183.4948081552
 20
99.2498369481
 11
183.4948081552
 21
100.5639269419
  0
LINE
  5
697
100
AcDbEntity
  8
RACCORDO
100
AcDbLine
 62
7
  6
CONTINUOUS
 10
183.4948081552
 20
110.7364779618
 11
183.4948081552
 21
112.0505679556
  0
LINE
  5
698
100
AcDbEntity
  8
RACCORDO
100
AcDbLine
 62
250
  6
CONTINUOUS
 10
184.1404090222
 20
101.6576850946
 11
184.1404090222
 21
109.6427198091
  0
LINE
  5
699
100
AcDbEntity
  8
RACCORDO
100
AcDbLine
 62
250
  6
CONTINUOUS
 10
184.2737744454
 20
101.6511884276
 11
184.2737744454
 21
109.6492164761
  0
LINE
  5
69A
100
AcDbEntity
  8
RACCORDO
100
AcDbLine
 62
7
  6
CONTINUOUS
 10
184.2948081552
 20
109.6702501858
 11
184.2948081552
 21
101.6301547179
  0
LINE
  5
69B
100
AcDbEntity
  8
RACCORDO
100
AcDbLine
 62
250
  6
CONTINUOUS
 10
182.9463619411
 20
109.8268279923
 11
182.944449492
 21
109.6031896466
  0
LWPOLYLINE
  5
69C
100
AcDbEntity
  8
RACCORDO
100
AcDbPolyline
 62
250
  6
CONTINUOUS
 90
3
 70
0
 10
182.9513503726
 20
110.0194148236
 10
182.9477464032
 20
109.8957131993
 10
182.9463619411
 20
109.8268279923
  0
LINE
  5
69D
100
AcDbEntity
  8
RACCORDO
100
AcDbLine
 62
250
  6
CONTINUOUS
 10
182.9533859032
 20
110.0711503546
 11
182.9513503726
 21
110.0194148236
  0
LWPOLYLINE
  5
69E
100
AcDbEntity
  8
RACCORDO
100
AcDbPolyline
 62
250
  6
CONTINUOUS
 90
13
 70
0
 10
184.2737744454
 20
101.6511884276
 10
184.2685571751
 20
101.5729807035
 10
184.2531850051
 20
101.4961090638
 10
184.2279205502
 20
101.4218867676
 10
184.1931954231
 20
101.351581813
 10
184.1496028608
 20
101.2863952753
 10
184.0978875893
 20
101.2274407876
 10
184.0389331016
 20
101.1757255161
 10
183.9737465639
 20
101.1321329537
 10
183.9034416093
 20
101.0974078267
 10
183.8292193131
 20
101.0721433718
 10
183.7523476734
 20
101.0567712017
 10
183.6741399492
 20
101.0515539314
  0
LWPOLYLINE
  5
69F
100
AcDbEntity
  8
RACCORDO
100
AcDbPolyline
 62
250
  6
CONTINUOUS
 90
13
 70
0
 10
184.1404090222
 20
101.6576850946
 10
184.1348911217
 20
101.5802699226
 10
184.1207709607
 20
101.5041501189
 10
184.0982848082
 20
101.4305993771
 10
184.0678089194
 20
101.3608484031
 10
184.0298532395
 20
101.2960643222
 10
183.9850528713
 20
101.2373311501
 10
183.934157448
 20
101.185631654
 10
183.87801859
 20
101.1418309085
 10
183.8175756543
 20
101.1066618203
 10
183.7538400174
 20
101.080712865
 10
183.6878781516
 20
101.0644182397
 10
183.6207937799
 20
101.0580505984
  0
LWPOLYLINE
  5
6A0
100
AcDbEntity
  8
RACCORDO
100
AcDbPolyline
 62
250
  6
CONTINUOUS
 90
3
 70
0
 10
178.6194225671
 20
80.9698857468
 10
178.6116318439
 20
80.966261273
 10
178.603299372
 20
80.964625418
  0
LINE
  5
6A1
100
AcDbEntity
  8
RACCORDO
100
AcDbLine
 62
7
  6
CONTINUOUS
 10
186.4948081552
 20
125.6570547781
 11
186.4948081552
 21
113.6489843843
  0
LINE
  5
6A2
100
AcDbEntity
  8
RACCORDO
100
AcDbLine
 62
7
  6
CONTINUOUS
 10
186.4948081552
 20
97.6514205194
 11
186.4948081552
 21
85.6433501256
  0
LINE
  5
6A3
100
AcDbEntity
  8
RACCORDO
100
AcDbLine
 62
250
  6
CONTINUOUS
 10
178.3950444963
 20
80.9867810031
 11
178.4434439781
 21
81.0722881007
  0
LINE
  5
6A4
100
AcDbEntity
  8
RACCORDO
100
AcDbLine
 62
250
  6
CONTINUOUS
 10
178.6325430215
 20
80.9811337201
 11
178.6194225671
 21
80.9698857468
  0
LWPOLYLINE
  5
6A5
100
AcDbEntity
  8
RACCORDO
100
AcDbPolyline
 62
250
  6
CONTINUOUS
 90
15
 70
0
 10
178.6194124143
 20
130.3305281453
 10
178.6279772901
 20
130.3234888204
 10
178.6361197211
 20
130.3162606739
 10
178.6438189555
 20
130.3088348408
 10
178.6510175978
 20
130.3012299469
 10
178.6577378823
 20
130.2934053669
 10
178.664053683
 20
130.2852708722
 10
178.6699445251
 20
130.276784399
 10
178.675331854
 20
130.2679786559
 10
178.6801730385
 20
130.2588816709
 10
178.6844166056
 20
130.2494683656
 10
178.6880093356
 20
130.23973944
 10
178.6909003412
 20
130.2297584492
 10
178.6930346192
 20
130.2195328197
 10
178.6943556387
 20
130.2090133582
  0
LINE
  5
6A6
100
AcDbEntity
  8
RACCORDO
100
AcDbLine
 62
250
  6
CONTINUOUS
 10
178.394994769
 20
130.3135937767
 11
178.443444113
 21
130.2281169176
  0
CIRCLE
  5
6A7
100
AcDbEntity
  8
DRAFT
100
AcDbCircle
 62
7
  6
CONTINUOUS
 10
138.9948081552
 20
93.1502024519
 40
1.1
  0
CIRCLE
  5
6A8
100
AcDbEntity
  8
DRAFT
100
AcDbCircle
 62
7
  6
CONTINUOUS
 10
113.9948081552
 20
93.1502024519
 40
1.1
  0
CIRCLE
  5
6A9
100
AcDbEntity
  8
RACCORDO
100
AcDbCircle
 62
250
  6
CONTINUOUS
 10
138.9948081552
 20
93.1502024519
 40
0.9889134922
  0
CIRCLE
  5
6AA
100
AcDbEntity
  8
RACCORDO
100
AcDbCircle
 62
250
  6
CONTINUOUS
 10
113.9948081552
 20
93.1502024519
 40
0.9889134922
  0
ARC
  5
6AB
100
AcDbEntity
  8
RACCORDO
100
AcDbCircle
 62
7
  6
CONTINUOUS
 10
126.4948081552
 20
98.8502024519
 40
0.9
100
AcDbArc
 50
110.2821626472
 51
111.908824696
  0
ARC
  5
6AC
100
AcDbEntity
  8
RACCORDO
100
AcDbCircle
 62
7
  6
CONTINUOUS
 10
126.4948081552
 20
98.8502024519
 40
0.9
100
AcDbArc
 50
68.091175304
 51
69.7178373528
  0
ARC
  5
6AD
100
AcDbEntity
  8
0
100
AcDbCircle
 62
7
  6
CONTINUOUS
 10
128.4000675597
 20
99.7502024519
 40
0.6
100
AcDbArc
 50
89.9999950446
 51
107.8953966367
  0
ARC
  5
6AE
100
AcDbEntity
  8
0
100
AcDbCircle
 62
7
  6
CONTINUOUS
 10
124.5895510928
 20
99.7502024519
 40
0.6
100
AcDbArc
 50
72.1038192518
 51
90.0000045704
  0
CIRCLE
  5
6AF
100
AcDbEntity
  8
RACCORDO
100
AcDbCircle
 62
250
  6
CONTINUOUS
 10
113.9948081552
 20
93.1502024519
 40
0.1919577337
  0
CIRCLE
  5
6B0
100
AcDbEntity
  8
RACCORDO
100
AcDbCircle
 62
250
  6
CONTINUOUS
 10
138.9948081552
 20
93.1502024519
 40
0.1919577337
  0
ARC
  5
6B1
100
AcDbEntity
  8
RACCORDO
100
AcDbCircle
 62
7
  6
CONTINUOUS
 10
119.6948081552
 20
105.6502024519
 40
0.9
100
AcDbArc
 50
20.2821626472
 51
21.908824696
  0
ARC
  5
6B2
100
AcDbEntity
  8
RACCORDO
100
AcDbCircle
 62
7
  6
CONTINUOUS
 10
119.6948081552
 20
105.6502024519
 40
0.9
100
AcDbArc
 50
338.091175304
 51
339.7178373528
  0
ARC
  5
6B3
100
AcDbEntity
  8
0
100
AcDbCircle
 62
7
  6
CONTINUOUS
 10
124.5895487507
 20
111.5502024519
 40
0.6
100
AcDbArc
 50
269.9999950446
 51
287.8953966367
  0
CIRCLE
  5
6B4
100
AcDbEntity
  8
DRAFT
100
AcDbCircle
 62
7
  6
CONTINUOUS
 10
113.9948081552
 20
118.1502024519
 40
1.1
  0
CIRCLE
  5
6B5
100
AcDbEntity
  8
RACCORDO
100
AcDbCircle
 62
250
  6
CONTINUOUS
 10
113.9948081552
 20
118.1502024519
 40
0.9889134922
  0
CIRCLE
  5
6B6
100
AcDbEntity
  8
RACCORDO
100
AcDbCircle
 62
250
  6
CONTINUOUS
 10
113.9948081552
 20
118.1502024519
 40
0.1919577337
  0
CIRCLE
  5
6B7
100
AcDbEntity
  8
SMUSSO
100
AcDbCircle
 62
7
  6
CONTINUOUS
 10
126.4948081552
 20
105.6502024519
 40
7.35
  0
CIRCLE
  5
6B8
100
AcDbEntity
  8
DRAFT
100
AcDbCircle
 62
7
  6
CONTINUOUS
 10
126.4948081552
 20
105.6502024519
 40
6.1019742911
  0
ARC
  5
6B9
100
AcDbEntity
  8
RACCORDO
100
AcDbCircle
 62
250
  6
CONTINUOUS
 10
126.4948081552
 20
105.6502024519
 40
6.0605277451
100
AcDbArc
 50
117.9008109062
 51
152.0991890938
  0
ARC
  5
6BA
100
AcDbEntity
  8
RACCORDO
100
AcDbCircle
 62
250
  6
CONTINUOUS
 10
126.4948081552
 20
105.6502024519
 40
6.0605277451
100
AcDbArc
 50
27.9008109062
 51
62.0991890938
  0
ARC
  5
6BB
100
AcDbEntity
  8
RACCORDO
100
AcDbCircle
 62
250
  6
CONTINUOUS
 10
126.4948081552
 20
105.6502024519
 40
6.0605277451
100
AcDbArc
 50
297.9008109062
 51
332.0991890938
  0
ARC
  5
6BC
100
AcDbEntity
  8
RACCORDO
100
AcDbCircle
 62
250
  6
CONTINUOUS
 10
126.4948081552
 20
105.6502024519
 40
6.0605277451
100
AcDbArc
 50
207.9008109062
 51
242.0991890938
  0
ARC
  5
6BD
100
AcDbEntity
  8
DRAFT
100
AcDbCircle
 62
7
  6
CONTINUOUS
 10
126.4948081552
 20
105.6502024519
 40
5.9744445386
100
AcDbArc
 50
86.7777626616
 51
93.2222373384
  0
ARC
  5
6BE
100
AcDbEntity
  8
DRAFT
100
AcDbCircle
 62
7
  6
CONTINUOUS
 10
126.4948081552
 20
105.6502024519
 40
5.9744445386
100
AcDbArc
 50
176.7777626616
 51
183.2222373384
  0
ARC
  5
6BF
100
AcDbEntity
  8
DRAFT
100
AcDbCircle
 62
7
  6
CONTINUOUS
 10
126.4948081552
 20
105.6502024519
 40
5.9744445386
100
AcDbArc
 50
356.7777626616
 51
3.2222373384
  0
ARC
  5
6C0
100
AcDbEntity
  8
DRAFT
100
AcDbCircle
 62
7
  6
CONTINUOUS
 10
126.4948081552
 20
105.6502024519
 40
5.9744445386
100
AcDbArc
 50
266.7777626616
 51
273.2222373384
  0
ARC
  5
6C1
100
AcDbEntity
  8
RACCORDO
100
AcDbCircle
 62
7
  6
CONTINUOUS
 10
126.4948081552
 20
105.6502024519
 40
5.95
100
AcDbArc
 50
245.5621813177
 51
261.1311186897
  0
ARC
  5
6C2
100
AcDbEntity
  8
RACCORDO
100
AcDbCircle
 62
7
  6
CONTINUOUS
 10
126.4948081552
 20
105.6502024519
 40
5.95
100
AcDbArc
 50
188.8688813103
 51
204.4383691158
  0
ARC
  5
6C3
100
AcDbEntity
  8
RACCORDO
100
AcDbCircle
 62
7
  6
CONTINUOUS
 10
126.4948081552
 20
105.6502024519
 40
5.95
100
AcDbArc
 50
335.5621813177
 51
351.1311186897
  0
ARC
  5
6C4
100
AcDbEntity
  8
RACCORDO
100
AcDbCircle
 62
7
  6
CONTINUOUS
 10
126.4948081552
 20
105.6502024519
 40
5.95
100
AcDbArc
 50
278.8688813103
 51
294.4383691158
  0
ARC
  5
6C5
100
AcDbEntity
  8
RACCORDO
100
AcDbCircle
 62
7
  6
CONTINUOUS
 10
126.4948081552
 20
105.6502024519
 40
5.95
100
AcDbArc
 50
65.5621813177
 51
81.1311186897
  0
ARC
  5
6C6
100
AcDbEntity
  8
RACCORDO
100
AcDbCircle
 62
7
  6
CONTINUOUS
 10
126.4948081552
 20
105.6502024519
 40
5.95
100
AcDbArc
 50
8.8688813103
 51
24.4383691158
  0
ARC
  5
6C7
100
AcDbEntity
  8
RACCORDO
100
AcDbCircle
 62
7
  6
CONTINUOUS
 10
126.4948081552
 20
105.6502024519
 40
5.95
100
AcDbArc
 50
155.5621813177
 51
171.1311186897
  0
ARC
  5
6C8
100
AcDbEntity
  8
RACCORDO
100
AcDbCircle
 62
7
  6
CONTINUOUS
 10
126.4948081552
 20
105.6502024519
 40
5.95
100
AcDbArc
 50
98.8688813103
 51
114.4383691158
  0
ARC
  5
6C9
100
AcDbEntity
  8
0
100
AcDbCircle
 62
250
  6
CONTINUOUS
 10
126.4948081552
 20
105.6502024519
 40
5.9091727358
100
AcDbArc
 50
155.3620292068
 51
204.6381556287
  0
ARC
  5
6CA
100
AcDbEntity
  8
0
100
AcDbCircle
 62
250
  6
CONTINUOUS
 10
126.4948081552
 20
105.6502024519
 40
5.9091727358
100
AcDbArc
 50
335.3620292066
 51
24.6381556286
  0
ARC
  5
6CB
100
AcDbEntity
  8
RACCORDO
100
AcDbCircle
 62
7
  6
CONTINUOUS
 10
126.4948081552
 20
105.6502024519
 40
5.7546168312
100
AcDbArc
 50
339.4167739362
 51
20.5832260638
  0
ARC
  5
6CC
100
AcDbEntity
  8
RACCORDO
100
AcDbCircle
 62
7
  6
CONTINUOUS
 10
126.4948081552
 20
105.6502024519
 40
5.7546168312
100
AcDbArc
 50
159.4167739362
 51
200.5832260638
  0
ARC
  5
6CD
100
AcDbEntity
  8
0
100
AcDbCircle
 62
7
  6
CONTINUOUS
 10
126.4948081552
 20
105.6502024519
 40
5.6
100
AcDbArc
 50
252.1033969613
 51
287.8967103103
  0
ARC
  5
6CE
100
AcDbEntity
  8
0
100
AcDbCircle
 62
7
  6
CONTINUOUS
 10
126.4948081552
 20
105.6502024519
 40
5.6
100
AcDbArc
 50
72.1033969613
 51
107.8967103103
  0
ARC
  5
6CF
100
AcDbEntity
  8
RACCORDO
100
AcDbCircle
 62
250
  6
CONTINUOUS
 10
126.4948081552
 20
105.6502024519
 40
5.0611369181
100
AcDbArc
 50
307.622722538
 51
322.3772774182
  0
ARC
  5
6D0
100
AcDbEntity
  8
RACCORDO
100
AcDbCircle
 62
250
  6
CONTINUOUS
 10
126.4948081552
 20
105.6502024519
 40
5.0611369181
100
AcDbArc
 50
217.6227225351
 51
232.377277416
  0
ARC
  5
6D1
100
AcDbEntity
  8
RACCORDO
100
AcDbCircle
 62
250
  6
CONTINUOUS
 10
126.4948081552
 20
105.6502024519
 40
5.0611369181
100
AcDbArc
 50
127.6227225385
 51
142.3772774186
  0
ARC
  5
6D2
100
AcDbEntity
  8
RACCORDO
100
AcDbCircle
 62
250
  6
CONTINUOUS
 10
126.4948081552
 20
105.6502024519
 40
5.0611369181
100
AcDbArc
 50
37.6227225392
 51
52.3772774201
  0
ARC
  5
6D3
100
AcDbEntity
  8
RACCORDO
100
AcDbCircle
 62
250
  6
CONTINUOUS
 10
126.4948081552
 20
105.6502024519
 40
3.9599382709
100
AcDbArc
 50
149.2761304349
 51
210.7238695471
  0
ARC
  5
6D4
100
AcDbEntity
  8
RACCORDO
100
AcDbCircle
 62
250
  6
CONTINUOUS
 10
126.4948081552
 20
105.6502024519
 40
3.9599382709
100
AcDbArc
 50
239.276130456
 51
300.7238695193
  0
ARC
  5
6D5
100
AcDbEntity
  8
RACCORDO
100
AcDbCircle
 62
250
  6
CONTINUOUS
 10
126.4948081552
 20
105.6502024519
 40
3.9599382709
100
AcDbArc
 50
59.276130456
 51
120.7238695193
  0
ARC
  5
6D6
100
AcDbEntity
  8
RACCORDO
100
AcDbCircle
 62
250
  6
CONTINUOUS
 10
126.4948081552
 20
105.6502024519
 40
3.9599382709
100
AcDbArc
 50
329.2761304357
 51
30.7238695464
  0
CIRCLE
  5
6D7
100
AcDbEntity
  8
RACCORDO
100
AcDbCircle
 62
7
  6
CONTINUOUS
 10
126.4948081552
 20
105.6502024519
 40
3.5127246754
  0
CIRCLE
  5
6D8
100
AcDbEntity
  8
RACCORDO
100
AcDbCircle
 62
250
  6
CONTINUOUS
 10
126.4948081552
 20
105.6502024519
 40
3.1562389578
  0
CIRCLE
  5
6D9
100
AcDbEntity
  8
RACCORDO
100
AcDbCircle
 62
250
  6
CONTINUOUS
 10
126.4948081552
 20
105.6502024519
 40
2.5566044616
  0
CIRCLE
  5
6DA
100
AcDbEntity
  8
DRAFT
100
AcDbCircle
 62
7
  6
CONTINUOUS
 10
126.4948081552
 20
105.6502024519
 40
2.5
  0
ARC
  5
6DB
100
AcDbEntity
  8
0
100
AcDbCircle
 62
7
  6
CONTINUOUS
 10
128.4000652176
 20
111.5502024519
 40
0.6
100
AcDbArc
 50
252.1038192518
 51
270.0000045704
  0
ARC
  5
6DC
100
AcDbEntity
  8
RACCORDO
100
AcDbCircle
 62
7
  6
CONTINUOUS
 10
133.2948081552
 20
105.6502024519
 40
0.9
100
AcDbArc
 50
200.2821626472
 51
201.908824696
  0
ARC
  5
6DD
100
AcDbEntity
  8
RACCORDO
100
AcDbCircle
 62
7
  6
CONTINUOUS
 10
133.2948081552
 20
105.6502024519
 40
0.9
100
AcDbArc
 50
158.091175304
 51
159.7178373528
  0
CIRCLE
  5
6DE
100
AcDbEntity
  8
DRAFT
100
AcDbCircle
 62
7
  6
CONTINUOUS
 10
138.9948081552
 20
118.1502024519
 40
1.1
  0
CIRCLE
  5
6DF
100
AcDbEntity
  8
RACCORDO
100
AcDbCircle
 62
250
  6
CONTINUOUS
 10
138.9948081552
 20
118.1502024519
 40
0.9889134922
  0
ARC
  5
6E0
100
AcDbEntity
  8
RACCORDO
100
AcDbCircle
 62
7
  6
CONTINUOUS
 10
126.4948081552
 20
112.4502024519
 40
0.9
100
AcDbArc
 50
290.2821626472
 51
291.908824696
  0
ARC
  5
6E1
100
AcDbEntity
  8
RACCORDO
100
AcDbCircle
 62
7
  6
CONTINUOUS
 10
126.4948081552
 20
112.4502024519
 40
0.9
100
AcDbArc
 50
248.091175304
 51
249.7178373528
  0
CIRCLE
  5
6E2
100
AcDbEntity
  8
RACCORDO
100
AcDbCircle
 62
250
  6
CONTINUOUS
 10
138.9948081552
 20
118.1502024519
 40
0.1919577337
  0
CIRCLE
  5
6E3
100
AcDbEntity
  8
DRAFT
100
AcDbCircle
 62
7
  6
CONTINUOUS
 10
183.9948081552
 20
93.1502024519
 40
1.1
  0
CIRCLE
  5
6E4
100
AcDbEntity
  8
DRAFT
100
AcDbCircle
 62
7
  6
CONTINUOUS
 10
158.9948081552
 20
93.1502024519
 40
1.1
  0
CIRCLE
  5
6E5
100
AcDbEntity
  8
RACCORDO
100
AcDbCircle
 62
250
  6
CONTINUOUS
 10
183.9948081552
 20
93.1502024519
 40
0.9889134922
  0
CIRCLE
  5
6E6
100
AcDbEntity
  8
RACCORDO
100
AcDbCircle
 62
250
  6
CONTINUOUS
 10
158.9948081552
 20
93.1502024519
 40
0.9889134922
  0
ARC
  5
6E7
100
AcDbEntity
  8
RACCORDO
100
AcDbCircle
 62
7
  6
CONTINUOUS
 10
171.4948081552
 20
98.8502024519
 40
0.9
100
AcDbArc
 50
110.2821626472
 51
111.908824696
  0
ARC
  5
6E8
100
AcDbEntity
  8
RACCORDO
100
AcDbCircle
 62
7
  6
CONTINUOUS
 10
171.4948081552
 20
98.8502024519
 40
0.9
100
AcDbArc
 50
68.091175304
 51
69.7178373528
  0
ARC
  5
6E9
100
AcDbEntity
  8
0
100
AcDbCircle
 62
7
  6
CONTINUOUS
 10
173.4000675597
 20
99.7502024519
 40
0.6
100
AcDbArc
 50
89.9999950446
 51
107.8953966367
  0
ARC
  5
6EA
100
AcDbEntity
  8
0
100
AcDbCircle
 62
7
  6
CONTINUOUS
 10
169.5895510928
 20
99.7502024519
 40
0.6
100
AcDbArc
 50
72.1038192518
 51
90.0000045704
  0
CIRCLE
  5
6EB
100
AcDbEntity
  8
RACCORDO
100
AcDbCircle
 62
250
  6
CONTINUOUS
 10
158.9948081552
 20
93.1502024519
 40
0.1919577337
  0
CIRCLE
  5
6EC
100
AcDbEntity
  8
RACCORDO
100
AcDbCircle
 62
250
  6
CONTINUOUS
 10
183.9948081552
 20
93.1502024519
 40
0.1919577337
  0
ARC
  5
6ED
100
AcDbEntity
  8
RACCORDO
100
AcDbCircle
 62
7
  6
CONTINUOUS
 10
164.6948081552
 20
105.6502024519
 40
0.9
100
AcDbArc
 50
20.2821626472
 51
21.908824696
  0
ARC
  5
6EE
100
AcDbEntity
  8
RACCORDO
100
AcDbCircle
 62
7
  6
CONTINUOUS
 10
164.6948081552
 20
105.6502024519
 40
0.9
100
AcDbArc
 50
338.091175304
 51
339.7178373528
  0
ARC
  5
6EF
100
AcDbEntity
  8
0
100
AcDbCircle
 62
7
  6
CONTINUOUS
 10
169.5895487507
 20
111.5502024519
 40
0.6
100
AcDbArc
 50
269.9999950446
 51
287.8953966367
  0
CIRCLE
  5
6F0
100
AcDbEntity
  8
DRAFT
100
AcDbCircle
 62
7
  6
CONTINUOUS
 10
158.9948081552
 20
118.1502024519
 40
1.1
  0
CIRCLE
  5
6F1
100
AcDbEntity
  8
RACCORDO
100
AcDbCircle
 62
250
  6
CONTINUOUS
 10
158.9948081552
 20
118.1502024519
 40
0.9889134922
  0
CIRCLE
  5
6F2
100
AcDbEntity
  8
RACCORDO
100
AcDbCircle
 62
250
  6
CONTINUOUS
 10
158.9948081552
 20
118.1502024519
 40
0.1919577337
  0
CIRCLE
  5
6F3
100
AcDbEntity
  8
SMUSSO
100
AcDbCircle
 62
7
  6
CONTINUOUS
 10
171.4948081552
 20
105.6502024519
 40
7.35
  0
CIRCLE
  5
6F4
100
AcDbEntity
  8
DRAFT
100
AcDbCircle
 62
7
  6
CONTINUOUS
 10
171.4948081552
 20
105.6502024519
 40
6.1019742911
  0
ARC
  5
6F5
100
AcDbEntity
  8
RACCORDO
100
AcDbCircle
 62
250
  6
CONTINUOUS
 10
171.4948081552
 20
105.6502024519
 40
6.0605277451
100
AcDbArc
 50
117.9008109062
 51
152.0991890938
  0
ARC
  5
6F6
100
AcDbEntity
  8
RACCORDO
100
AcDbCircle
 62
250
  6
CONTINUOUS
 10
171.4948081552
 20
105.6502024519
 40
6.0605277451
100
AcDbArc
 50
27.9008109062
 51
62.0991890938
  0
ARC
  5
6F7
100
AcDbEntity
  8
RACCORDO
100
AcDbCircle
 62
250
  6
CONTINUOUS
 10
171.4948081552
 20
105.6502024519
 40
6.0605277451
100
AcDbArc
 50
297.9008109062
 51
332.0991890938
  0
ARC
  5
6F8
100
AcDbEntity
  8
RACCORDO
100
AcDbCircle
 62
250
  6
CONTINUOUS
 10
171.4948081552
 20
105.6502024519
 40
6.0605277451
100
AcDbArc
 50
207.9008109062
 51
242.0991890938
  0
ARC
  5
6F9
100
AcDbEntity
  8
DRAFT
100
AcDbCircle
 62
7
  6
CONTINUOUS
 10
171.4948081552
 20
105.6502024519
 40
5.9744445386
100
AcDbArc
 50
86.7777626616
 51
93.2222373384
  0
ARC
  5
6FA
100
AcDbEntity
  8
DRAFT
100
AcDbCircle
 62
7
  6
CONTINUOUS
 10
171.4948081552
 20
105.6502024519
 40
5.9744445386
100
AcDbArc
 50
176.7777626616
 51
183.2222373384
  0
ARC
  5
6FB
100
AcDbEntity
  8
DRAFT
100
AcDbCircle
 62
7
  6
CONTINUOUS
 10
171.4948081552
 20
105.6502024519
 40
5.9744445386
100
AcDbArc
 50
356.7777626616
 51
3.2222373384
  0
ARC
  5
6FC
100
AcDbEntity
  8
DRAFT
100
AcDbCircle
 62
7
  6
CONTINUOUS
 10
171.4948081552
 20
105.6502024519
 40
5.9744445386
100
AcDbArc
 50
266.7777626616
 51
273.2222373384
  0
ARC
  5
6FD
100
AcDbEntity
  8
RACCORDO
100
AcDbCircle
 62
7
  6
CONTINUOUS
 10
171.4948081552
 20
105.6502024519
 40
5.95
100
AcDbArc
 50
245.5621813177
 51
261.1311186897
  0
ARC
  5
6FE
100
AcDbEntity
  8
RACCORDO
100
AcDbCircle
 62
7
  6
CONTINUOUS
 10
171.4948081552
 20
105.6502024519
 40
5.95
100
AcDbArc
 50
188.8688813103
 51
204.4383691158
  0
ARC
  5
6FF
100
AcDbEntity
  8
RACCORDO
100
AcDbCircle
 62
7
  6
CONTINUOUS
 10
171.4948081552
 20
105.6502024519
 40
5.95
100
AcDbArc
 50
335.5621813177
 51
351.1311186897
  0
ARC
  5
700
100
AcDbEntity
  8
RACCORDO
100
AcDbCircle
 62
7
  6
CONTINUOUS
 10
171.4948081552
 20
105.6502024519
 40
5.95
100
AcDbArc
 50
278.8688813103
 51
294.4383691158
  0
ARC
  5
701
100
AcDbEntity
  8
RACCORDO
100
AcDbCircle
 62
7
  6
CONTINUOUS
 10
171.4948081552
 20
105.6502024519
 40
5.95
100
AcDbArc
 50
65.5621813177
 51
81.1311186897
  0
ARC
  5
702
100
AcDbEntity
  8
RACCORDO
100
AcDbCircle
 62
7
  6
CONTINUOUS
 10
171.4948081552
 20
105.6502024519
 40
5.95
100
AcDbArc
 50
8.8688813103
 51
24.4383691158
  0
ARC
  5
703
100
AcDbEntity
  8
RACCORDO
100
AcDbCircle
 62
7
  6
CONTINUOUS
 10
171.4948081552
 20
105.6502024519
 40
5.95
100
AcDbArc
 50
155.5621813177
 51
171.1311186897
  0
ARC
  5
704
100
AcDbEntity
  8
RACCORDO
100
AcDbCircle
 62
7
  6
CONTINUOUS
 10
171.4948081552
 20
105.6502024519
 40
5.95
100
AcDbArc
 50
98.8688813103
 51
114.4383691158
  0
ARC
  5
705
100
AcDbEntity
  8
0
100
AcDbCircle
 62
250
  6
CONTINUOUS
 10
171.4948081552
 20
105.6502024519
 40
5.9091727358
100
AcDbArc
 50
155.3620292068
 51
204.6381556287
  0
ARC
  5
706
100
AcDbEntity
  8
0
100
AcDbCircle
 62
250
  6
CONTINUOUS
 10
171.4948081552
 20
105.6502024519
 40
5.9091727358
100
AcDbArc
 50
335.3620292066
 51
24.6381556286
  0
ARC
  5
707
100
AcDbEntity
  8
RACCORDO
100
AcDbCircle
 62
7
  6
CONTINUOUS
 10
171.4948081552
 20
105.6502024519
 40
5.7546168312
100
AcDbArc
 50
339.4167739362
 51
20.5832260638
  0
ARC
  5
708
100
AcDbEntity
  8
RACCORDO
100
AcDbCircle
 62
7
  6
CONTINUOUS
 10
171.4948081552
 20
105.6502024519
 40
5.7546168312
100
AcDbArc
 50
159.4167739362
 51
200.5832260638
  0
ARC
  5
709
100
AcDbEntity
  8
0
100
AcDbCircle
 62
7
  6
CONTINUOUS
 10
171.4948081552
 20
105.6502024519
 40
5.6
100
AcDbArc
 50
252.1033969613
 51
287.8967103103
  0
ARC
  5
70A
100
AcDbEntity
  8
0
100
AcDbCircle
 62
7
  6
CONTINUOUS
 10
171.4948081552
 20
105.6502024519
 40
5.6
100
AcDbArc
 50
72.1033969613
 51
107.8967103103
  0
ARC
  5
70B
100
AcDbEntity
  8
RACCORDO
100
AcDbCircle
 62
250
  6
CONTINUOUS
 10
171.4948081552
 20
105.6502024519
 40
5.0611369181
100
AcDbArc
 50
307.622722538
 51
322.3772774182
  0
ARC
  5
70C
100
AcDbEntity
  8
RACCORDO
100
AcDbCircle
 62
250
  6
CONTINUOUS
 10
171.4948081552
 20
105.6502024519
 40
5.0611369181
100
AcDbArc
 50
217.6227225351
 51
232.377277416
  0
ARC
  5
70D
100
AcDbEntity
  8
RACCORDO
100
AcDbCircle
 62
250
  6
CONTINUOUS
 10
171.4948081552
 20
105.6502024519
 40
5.0611369181
100
AcDbArc
 50
127.6227225385
 51
142.3772774186
  0
ARC
  5
70E
100
AcDbEntity
  8
RACCORDO
100
AcDbCircle
 62
250
  6
CONTINUOUS
 10
171.4948081552
 20
105.6502024519
 40
5.0611369181
100
AcDbArc
 50
37.6227225392
 51
52.3772774201
  0
ARC
  5
70F
100
AcDbEntity
  8
RACCORDO
100
AcDbCircle
 62
250
  6
CONTINUOUS
 10
171.4948081552
 20
105.6502024519
 40
3.9599382709
100
AcDbArc
 50
149.2761304349
 51
210.7238695471
  0
ARC
  5
710
100
AcDbEntity
  8
RACCORDO
100
AcDbCircle
 62
250
  6
CONTINUOUS
 10
171.4948081552
 20
105.6502024519
 40
3.9599382709
100
AcDbArc
 50
239.276130456
 51
300.7238695193
  0
ARC
  5
711
100
AcDbEntity
  8
RACCORDO
100
AcDbCircle
 62
250
  6
CONTINUOUS
 10
171.4948081552
 20
105.6502024519
 40
3.9599382709
100
AcDbArc
 50
59.276130456
 51
120.7238695193
  0
ARC
  5
712
100
AcDbEntity
  8
RACCORDO
100
AcDbCircle
 62
250
  6
CONTINUOUS
 10
171.4948081552
 20
105.6502024519
 40
3.9599382709
100
AcDbArc
 50
329.2761304357
 51
30.7238695464
  0
CIRCLE
  5
713
100
AcDbEntity
  8
RACCORDO
100
AcDbCircle
 62
7
  6
CONTINUOUS
 10
171.4948081552
 20
105.6502024519
 40
3.5127246754
  0
CIRCLE
  5
714
100
AcDbEntity
  8
RACCORDO
100
AcDbCircle
 62
250
  6
CONTINUOUS
 10
171.4948081552
 20
105.6502024519
 40
3.1562389578
  0
CIRCLE
  5
715
100
AcDbEntity
  8
RACCORDO
100
AcDbCircle
 62
250
  6
CONTINUOUS
 10
171.4948081552
 20
105.6502024519
 40
2.5566044616
  0
CIRCLE
  5
716
100
AcDbEntity
  8
DRAFT
100
AcDbCircle
 62
7
  6
CONTINUOUS
 10
171.4948081552
 20
105.6502024519
 40
2.5
  0
ARC
  5
717
100
AcDbEntity
  8
0
100
AcDbCircle
 62
7
  6
CONTINUOUS
 10
173.4000652176
 20
111.5502024519
 40
0.6
100
AcDbArc
 50
252.1038192518
 51
270.0000045704
  0
ARC
  5
718
100
AcDbEntity
  8
RACCORDO
100
AcDbCircle
 62
7
  6
CONTINUOUS
 10
178.2948081552
 20
105.6502024519
 40
0.9
100
AcDbArc
 50
200.2821626472
 51
201.908824696
  0
ARC
  5
719
100
AcDbEntity
  8
RACCORDO
100
AcDbCircle
 62
7
  6
CONTINUOUS
 10
178.2948081552
 20
105.6502024519
 40
0.9
100
AcDbArc
 50
158.091175304
 51
159.7178373528
  0
CIRCLE
  5
71A
100
AcDbEntity
  8
DRAFT
100
AcDbCircle
 62
7
  6
CONTINUOUS
 10
183.9948081552
 20
118.1502024519
 40
1.1
  0
CIRCLE
  5
71B
100
AcDbEntity
  8
RACCORDO
100
AcDbCircle
 62
250
  6
CONTINUOUS
 10
183.9948081552
 20
118.1502024519
 40
0.9889134922
  0
ARC
  5
71C
100
AcDbEntity
  8
RACCORDO
100
AcDbCircle
 62
7
  6
CONTINUOUS
 10
171.4948081552
 20
112.4502024519
 40
0.9
100
AcDbArc
 50
290.2821626472
 51
291.908824696
  0
ARC
  5
71D
100
AcDbEntity
  8
RACCORDO
100
AcDbCircle
 62
7
  6
CONTINUOUS
 10
171.4948081552
 20
112.4502024519
 40
0.9
100
AcDbArc
 50
248.091175304
 51
249.7178373528
  0
CIRCLE
  5
71E
100
AcDbEntity
  8
RACCORDO
100
AcDbCircle
 62
250
  6
CONTINUOUS
 10
183.9948081552
 20
118.1502024519
 40
0.1919577337
  0
ELLIPSE
  5
71F
100
AcDbEntity
  8
RACCORDO
100
AcDbEllipse
 62
7
  6
CONTINUOUS
 10
179.0948081552
 20
130.2496535135
 30
0.0
 11
0.0
 21
-0.4005489384
 31
0.0
 40
0.9986295348
 41
3.1415926536
 42
4.7123889804
  0
ELLIPSE
  5
720
100
AcDbEntity
  8
RACCORDO
100
AcDbEllipse
 62
7
  6
CONTINUOUS
 10
181.4879464252
 20
125.6433407219
 30
0.0
 11
-3.5452312172
 21
-3.5452312172
 31
0.0
 40
0.9972646886
 41
2.3575640181
 42
3.9256212891
  0
ELLIPSE
  5
721
100
AcDbEntity
  8
RACCORDO
100
AcDbEllipse
 62
7
  6
CONTINUOUS
 10
185.4934358092
 20
113.6508119962
 30
0.0
 11
0.8338289523
 21
-0.5556035581
 31
0.0
 40
0.9980228614
 41
-0.9821146404
 42
0.5868551869
  0
ELLIPSE
  5
722
100
AcDbEntity
  8
RACCORDO
100
AcDbEllipse
 62
7
  6
CONTINUOUS
 10
185.4934358092
 20
97.6495929076
 30
0.0
 11
-0.8338289523
 21
-0.5556035581
 31
0.0
 40
0.9980228614
 41
2.5547374667
 42
4.123707294
  0
ELLIPSE
  5
723
100
AcDbEntity
  8
RACCORDO
100
AcDbEllipse
 62
7
  6
CONTINUOUS
 10
181.4879464252
 20
85.6570641818
 30
0.0
 11
-3.5452312172
 21
3.5452312172
 31
0.0
 40
0.9972646886
 41
2.3575640181
 42
3.9256212891
  0
ELLIPSE
  5
724
100
AcDbEntity
  8
RACCORDO
100
AcDbEllipse
 62
7
  6
CONTINUOUS
 10
179.0948081552
 20
81.0507513903
 30
0.0
 11
0.0
 21
-0.4005489384
 31
0.0
 40
0.9986295348
 41
-1.5707963268
 42
0.0
  0
ELLIPSE
  5
725
100
AcDbEntity
  8
RACCORDO
100
AcDbEllipse
 62
7
  6
CONTINUOUS
 10
163.8948081552
 20
81.0507513903
 30
0.0
 11
-0.0
 21
0.4005489384
 31
0.0
 40
0.9986295348
 41
3.1415926536
 42
4.7123889804
  0
ELLIPSE
  5
726
100
AcDbEntity
  8
RACCORDO
100
AcDbEllipse
 62
7
  6
CONTINUOUS
 10
161.5016698852
 20
85.6570641818
 30
0.0
 11
3.5452312172
 21
3.5452312172
 31
0.0
 40
0.9972646886
 41
2.3575640181
 42
3.9256212891
  0
ELLIPSE
  5
727
100
AcDbEntity
  8
RACCORDO
100
AcDbEllipse
 62
7
  6
CONTINUOUS
 10
157.4961805012
 20
97.6495929076
 30
0.0
 11
-0.8338289523
 21
0.5556035581
 31
0.0
 40
0.9980228614
 41
-0.9821146404
 42
0.5868551869
  0
ELLIPSE
  5
728
100
AcDbEntity
  8
RACCORDO
100
AcDbEllipse
 62
7
  6
CONTINUOUS
 10
157.4961805012
 20
113.6508119962
 30
0.0
 11
0.8338289523
 21
0.5556035581
 31
0.0
 40
0.9980228614
 41
2.5547374667
 42
4.123707294
  0
ELLIPSE
  5
729
100
AcDbEntity
  8
RACCORDO
100
AcDbEllipse
 62
7
  6
CONTINUOUS
 10
161.5016698852
 20
125.6433407219
 30
0.0
 11
3.5452312172
 21
-3.5452312172
 31
0.0
 40
0.9972646886
 41
2.3575640181
 42
3.9256212891
  0
ELLIPSE
  5
72A
100
AcDbEntity
  8
RACCORDO
100
AcDbEllipse
 62
7
  6
CONTINUOUS
 10
163.8948081552
 20
130.2496535135
 30
0.0
 11
-0.0
 21
0.4005489384
 31
0.0
 40
0.9986295348
 41
-1.5707963268
 42
0.0
  0
ELLIPSE
  5
72B
100
AcDbEntity
  8
RACCORDO
100
AcDbEllipse
 62
7
  6
CONTINUOUS
 10
183.7019773793
 20
101.6233509976
 30
0.0
 11
0.2144255762
 21
0.5621786813
 31
0.0
 40
0.9831276504
 41
-2.7702863504
 42
-1.2007079988
  0
ELLIPSE
  5
72C
100
AcDbEntity
  8
RACCORDO
100
AcDbEllipse
 62
7
  6
CONTINUOUS
 10
183.7019773793
 20
109.6770539061
 30
0.0
 11
-0.2144255762
 21
0.5621786813
 31
0.0
 40
0.9831276504
 41
-1.9408846548
 42
-0.3713063031
  0
ELLIPSE
  5
72D
100
AcDbEntity
  8
RACCORDO
100
AcDbEllipse
 62
7
  6
CONTINUOUS
 10
159.2876389311
 20
101.6233509976
 30
0.0
 11
-0.2144255762
 21
0.5621786813
 31
0.0
 40
0.9831276504
 41
1.2007079988
 42
2.7702863504
  0
ELLIPSE
  5
72E
100
AcDbEntity
  8
RACCORDO
100
AcDbEllipse
 62
7
  6
CONTINUOUS
 10
159.2876389311
 20
109.6770539061
 30
0.0
 11
0.2144255762
 21
0.5621786813
 31
0.0
 40
0.9831276504
 41
0.3713063031
 42
1.9408846548
  0
ELLIPSE
  5
72F
100
AcDbEntity
  8
RACCORDO
100
AcDbEllipse
 62
7
  6
CONTINUOUS
 10
159.4808398474
 20
100.5639269419
 30
0.0
 11
0.0
 21
0.4
 31
0.0
 40
0.0349207695
 41
-1.5707963268
 42
-0.034906585
  0
ELLIPSE
  5
730
100
AcDbEntity
  8
RACCORDO
100
AcDbEllipse
 62
7
  6
CONTINUOUS
 10
159.4808398474
 20
110.7364779618
 30
0.0
 11
-0.0
 21
0.4
 31
0.0
 40
0.0349207695
 41
3.1764992386
 42
4.7123889804
  0
ELLIPSE
  5
731
100
AcDbEntity
  8
RACCORDO
100
AcDbEllipse
 62
7
  6
CONTINUOUS
 10
183.508776463
 20
110.7364779618
 30
0.0
 11
0.0
 21
0.4
 31
0.0
 40
0.0349207695
 41
-4.7123889804
 42
-3.1764992386
  0
ELLIPSE
  5
732
100
AcDbEntity
  8
RACCORDO
100
AcDbEllipse
 62
7
  6
CONTINUOUS
 10
183.508776463
 20
100.5639269419
 30
0.0
 11
0.0
 21
0.4
 31
0.0
 40
0.0349207695
 41
6.3180918922
 42
7.853981634
  0
ELLIPSE
  5
733
100
AcDbEntity
  8
RACCORDO
100
AcDbEllipse
 62
7
  6
CONTINUOUS
 10
158.8944424286
 20
99.2505681784
 30
0.0
 11
-0.4247811268
 21
0.4247811268
 31
0.0
 40
0.998782766
 41
-3.9263818294
 42
-2.3568034778
  0
ELLIPSE
  5
734
100
AcDbEntity
  8
RACCORDO
100
AcDbEllipse
 62
7
  6
CONTINUOUS
 10
158.8944424286
 20
112.0498367253
 30
0.0
 11
0.4247811268
 21
0.4247811268
 31
0.0
 40
0.998782766
 41
-0.7847891758
 42
0.7847891758
  0
ELLIPSE
  5
735
100
AcDbEntity
  8
RACCORDO
100
AcDbEllipse
 62
7
  6
CONTINUOUS
 10
184.0951738818
 20
112.0498367253
 30
0.0
 11
-0.4247811268
 21
0.4247811268
 31
0.0
 40
0.998782766
 41
-0.7847891758
 42
0.7847891758
  0
ELLIPSE
  5
736
100
AcDbEntity
  8
RACCORDO
100
AcDbEllipse
 62
7
  6
CONTINUOUS
 10
184.0951738818
 20
99.2505681784
 30
0.0
 11
0.4247811268
 21
0.4247811268
 31
0.0
 40
0.998782766
 41
-3.9263818294
 42
-2.3568034778
  0
ELLIPSE
  5
737
100
AcDbEntity
  8
RACCORDO
100
AcDbEllipse
 62
7
  6
CONTINUOUS
 10
164.6948081552
 20
129.2158878768
 30
0.0
 11
-0.0
 21
0.5656854249
 31
0.0
 40
0.7071067812
 41
1.5707963268
 42
3.1415926536
  0
ELLIPSE
  5
738
100
AcDbEntity
  8
RACCORDO
100
AcDbEllipse
 62
7
  6
CONTINUOUS
 10
178.2948081552
 20
129.2158878768
 30
0.0
 11
-0.0
 21
0.5656854249
 31
0.0
 40
0.7071067812
 41
-3.1415926536
 42
-1.5707963268
  0
ELLIPSE
  5
739
100
AcDbEntity
  8
RACCORDO
100
AcDbEllipse
 62
7
  6
CONTINUOUS
 10
178.2948081552
 20
82.0845170269
 30
0.0
 11
0.0
 21
0.5656854249
 31
0.0
 40
0.7071067812
 41
-1.5707963268
 42
0.0
  0
ELLIPSE
  5
73A
100
AcDbEntity
  8
RACCORDO
100
AcDbEllipse
 62
7
  6
CONTINUOUS
 10
164.6948081552
 20
82.0845170269
 30
0.0
 11
-0.0
 21
0.5656854249
 31
0.0
 40
0.7071067812
 41
0.0
 42
1.5707963268
  0
ELLIPSE
  5
73B
100
AcDbEntity
  8
RACCORDO
100
AcDbEllipse
 62
7
  6
CONTINUOUS
 10
134.0948081552
 20
130.2496535135
 30
0.0
 11
0.0
 21
-0.4005489384
 31
0.0
 40
0.9986295348
 41
3.1415926536
 42
4.7123889804
  0
ELLIPSE
  5
73C
100
AcDbEntity
  8
RACCORDO
100
AcDbEllipse
 62
7
  6
CONTINUOUS
 10
136.4879464252
 20
125.6433407219
 30
0.0
 11
-3.5452312172
 21
-3.5452312172
 31
0.0
 40
0.9972646886
 41
2.3575640181
 42
3.9256212891
  0
ELLIPSE
  5
73D
100
AcDbEntity
  8
RACCORDO
100
AcDbEllipse
 62
7
  6
CONTINUOUS
 10
140.4934358092
 20
113.6508119962
 30
0.0
 11
0.8338289523
 21
-0.5556035581
 31
0.0
 40
0.9980228614
 41
-0.9821146404
 42
0.5868551869
  0
ELLIPSE
  5
73E
100
AcDbEntity
  8
RACCORDO
100
AcDbEllipse
 62
7
  6
CONTINUOUS
 10
140.4934358092
 20
97.6495929076
 30
0.0
 11
-0.8338289523
 21
-0.5556035581
 31
0.0
 40
0.9980228614
 41
2.5547374667
 42
4.123707294
  0
ELLIPSE
  5
73F
100
AcDbEntity
  8
RACCORDO
100
AcDbEllipse
 62
7
  6
CONTINUOUS
 10
136.4879464252
 20
85.6570641818
 30
0.0
 11
-3.5452312172
 21
3.5452312172
 31
0.0
 40
0.9972646886
 41
2.3575640181
 42
3.9256212891
  0
ELLIPSE
  5
740
100
AcDbEntity
  8
RACCORDO
100
AcDbEllipse
 62
7
  6
CONTINUOUS
 10
134.0948081552
 20
81.0507513903
 30
0.0
 11
0.0
 21
-0.4005489384
 31
0.0
 40
0.9986295348
 41
-1.5707963268
 42
-0.0
  0
ELLIPSE
  5
741
100
AcDbEntity
  8
RACCORDO
100
AcDbEllipse
 62
7
  6
CONTINUOUS
 10
118.8948081552
 20
81.0507513903
 30
0.0
 11
-0.0
 21
0.4005489384
 31
0.0
 40
0.9986295348
 41
3.1415926536
 42
4.7123889804
  0
ELLIPSE
  5
742
100
AcDbEntity
  8
RACCORDO
100
AcDbEllipse
 62
7
  6
CONTINUOUS
 10
116.5016698852
 20
85.6570641818
 30
0.0
 11
3.5452312172
 21
3.5452312172
 31
0.0
 40
0.9972646886
 41
2.3575640181
 42
3.9256212891
  0
ELLIPSE
  5
743
100
AcDbEntity
  8
RACCORDO
100
AcDbEllipse
 62
7
  6
CONTINUOUS
 10
112.4961805012
 20
97.6495929076
 30
0.0
 11
-0.8338289523
 21
0.5556035581
 31
0.0
 40
0.9980228614
 41
-0.9821146404
 42
0.5868551869
  0
ELLIPSE
  5
744
100
AcDbEntity
  8
RACCORDO
100
AcDbEllipse
 62
7
  6
CONTINUOUS
 10
112.4961805012
 20
113.6508119962
 30
0.0
 11
0.8338289523
 21
0.5556035581
 31
0.0
 40
0.9980228614
 41
2.5547374667
 42
4.123707294
  0
ELLIPSE
  5
745
100
AcDbEntity
  8
RACCORDO
100
AcDbEllipse
 62
7
  6
CONTINUOUS
 10
116.5016698852
 20
125.6433407219
 30
0.0
 11
3.5452312172
 21
-3.5452312172
 31
0.0
 40
0.9972646886
 41
2.3575640181
 42
3.9256212891
  0
ELLIPSE
  5
746
100
AcDbEntity
  8
RACCORDO
100
AcDbEllipse
 62
7
  6
CONTINUOUS
 10
118.8948081552
 20
130.2496535135
 30
0.0
 11
-0.0
 21
0.4005489384
 31
0.0
 40
0.9986295348
 41
-1.5707963268
 42
0.0
  0
ELLIPSE
  5
747
100
AcDbEntity
  8
RACCORDO
100
AcDbEllipse
 62
7
  6
CONTINUOUS
 10
138.7019773793
 20
101.6233509976
 30
0.0
 11
0.2144255762
 21
0.5621786813
 31
0.0
 40
0.9831276504
 41
-2.7702863504
 42
-1.2007079988
  0
ELLIPSE
  5
748
100
AcDbEntity
  8
RACCORDO
100
AcDbEllipse
 62
7
  6
CONTINUOUS
 10
138.7019773793
 20
109.6770539061
 30
0.0
 11
-0.2144255762
 21
0.5621786813
 31
0.0
 40
0.9831276504
 41
-1.9408846548
 42
-0.3713063031
  0
ELLIPSE
  5
749
100
AcDbEntity
  8
RACCORDO
100
AcDbEllipse
 62
7
  6
CONTINUOUS
 10
114.2876389311
 20
101.6233509976
 30
0.0
 11
-0.2144255762
 21
0.5621786813
 31
0.0
 40
0.9831276504
 41
1.2007079988
 42
2.7702863504
  0
ELLIPSE
  5
74A
100
AcDbEntity
  8
RACCORDO
100
AcDbEllipse
 62
7
  6
CONTINUOUS
 10
114.2876389311
 20
109.6770539061
 30
0.0
 11
0.2144255762
 21
0.5621786813
 31
0.0
 40
0.9831276504
 41
0.3713063031
 42
1.9408846548
  0
ELLIPSE
  5
74B
100
AcDbEntity
  8
RACCORDO
100
AcDbEllipse
 62
7
  6
CONTINUOUS
 10
114.4808398474
 20
100.5639269419
 30
0.0
 11
0.0
 21
0.4
 31
0.0
 40
0.0349207695
 41
-1.5707963268
 42
-0.034906585
  0
ELLIPSE
  5
74C
100
AcDbEntity
  8
RACCORDO
100
AcDbEllipse
 62
7
  6
CONTINUOUS
 10
114.4808398474
 20
110.7364779618
 30
0.0
 11
0.0
 21
0.4
 31
0.0
 40
0.0349207695
 41
3.1764992386
 42
4.7123889804
  0
ELLIPSE
  5
74D
100
AcDbEntity
  8
RACCORDO
100
AcDbEllipse
 62
7
  6
CONTINUOUS
 10
138.508776463
 20
110.7364779618
 30
0.0
 11
0.0
 21
0.4
 31
0.0
 40
0.0349207695
 41
-4.7123889804
 42
-3.1764992386
  0
ELLIPSE
  5
74E
100
AcDbEntity
  8
RACCORDO
100
AcDbEllipse
 62
7
  6
CONTINUOUS
 10
138.508776463
 20
100.5639269419
 30
0.0
 11
-0.0
 21
0.4
 31
0.0
 40
0.0349207695
 41
6.3180918922
 42
7.853981634
  0
ELLIPSE
  5
74F
100
AcDbEntity
  8
RACCORDO
100
AcDbEllipse
 62
7
  6
CONTINUOUS
 10
113.8944424286
 20
99.2505681784
 30
0.0
 11
0.4247811268
 21
-0.4247811268
 31
0.0
 40
0.998782766
 41
-0.7847891758
 42
0.7847891758
  0
ELLIPSE
  5
750
100
AcDbEntity
  8
RACCORDO
100
AcDbEllipse
 62
7
  6
CONTINUOUS
 10
113.8944424286
 20
112.0498367253
 30
0.0
 11
0.4247811268
 21
0.4247811268
 31
0.0
 40
0.998782766
 41
-0.7847891758
 42
0.7847891758
  0
ELLIPSE
  5
751
100
AcDbEntity
  8
RACCORDO
100
AcDbEllipse
 62
7
  6
CONTINUOUS
 10
139.0951738818
 20
112.0498367253
 30
0.0
 11
0.4247811268
 21
-0.4247811268
 31
0.0
 40
0.998782766
 41
2.3568034778
 42
3.9263818294
  0
ELLIPSE
  5
752
100
AcDbEntity
  8
RACCORDO
100
AcDbEllipse
 62
7
  6
CONTINUOUS
 10
139.0951738818
 20
99.2505681784
 30
0.0
 11
0.4247811268
 21
0.4247811268
 31
0.0
 40
0.998782766
 41
-3.9263818294
 42
-2.3568034778
  0
ELLIPSE
  5
753
100
AcDbEntity
  8
RACCORDO
100
AcDbEllipse
 62
7
  6
CONTINUOUS
 10
119.6948081552
 20
129.2158878768
 30
0.0
 11
0.0
 21
0.5656854249
 31
0.0
 40
0.7071067812
 41
-4.7123889804
 42
-3.1415926536
  0
ELLIPSE
  5
754
100
AcDbEntity
  8
RACCORDO
100
AcDbEllipse
 62
7
  6
CONTINUOUS
 10
133.2948081552
 20
129.2158878768
 30
0.0
 11
0.0
 21
0.5656854249
 31
0.0
 40
0.7071067812
 41
-3.1415926536
 42
-1.5707963268
  0
ELLIPSE
  5
755
100
AcDbEntity
  8
RACCORDO
100
AcDbEllipse
 62
7
  6
CONTINUOUS
 10
133.2948081552
 20
82.0845170269
 30
0.0
 11
-0.0
 21
0.5656854249
 31
0.0
 40
0.7071067812
 41
-1.5707963268
 42
0.0
  0
ELLIPSE
  5
756
100
AcDbEntity
  8
RACCORDO
100
AcDbEllipse
 62
7
  6
CONTINUOUS
 10
119.6948081552
 20
82.0845170269
 30
0.0
 11
0.0
 21
0.5656854249
 31
0.0
 40
0.7071067812
 41
0.0
 42
1.5707963268
  0
ENDSEC
  0
SECTION
  2
OBJECTS
  0
DICTIONARY
  5
C
100
AcDbDictionary
280
0
281
1
  3
ACAD_GROUP
350
D
  3
ACAD_MLINESTYLE
350
17
  3
ACAD_LAYOUT
350
1A
  3
ACAD_PLOTSETTINGS
350
19
  3
ACAD_PLOTSTYLENAME
350
E
  0
DICTIONARY
  5
D
102
{ACAD_REACTORS
330
C
102
}
100
AcDbDictionary
280
0
281
1
  0
ACDBDICTIONARYWDFLT
  5
E
102
{ACAD_REACTORS
330
C
102
}
100
AcDbDictionary
281
1
  3
Normal
350
F
100
AcDbDictionaryWithDefault
340
F
  0
DICTIONARY
  5
17
102
{ACAD_REACTORS
330
C
102
}
100
AcDbDictionary
280
0
281
1
  3
Standard
350
18
  0
DICTIONARY
  5
19
102
{ACAD_REACTORS
330
C
102
}
100
AcDbDictionary
281
1
  0
DICTIONARY
  5
1A
102
{ACAD_REACTORS
330
C
102
}
100
AcDbDictionary
281
1
  3
Model
350
757
  3
Layout1
350
758
  0
ACDBPLACEHOLDER
  5
F
102
{ACAD_REACTORS
330
E
102
}
  0
MLINESTYLE
  5
18
102
{ACAD_REACTORS
330
17
102
}
100
AcDbMlineStyle
  2
STANDARD
 70
0
  3

 62
256
 51
90.0
 52
90.0
 71
2
 49
0.5
 62
256
  6
BYLAYER
 49
-0.5
 62
256
  6
BYLAYER
  0
LAYOUT
  5
757
102
{ACAD_REACTORS
330
1A
102
}
100
AcDbPlotSettings
  1

  2
none_device
  4
ISO_A4_(297.00_x_210.00_MM)
  6

 40
0.0
 41
0.0
 42
0.0
 43
0.0
 44
297.0
 45
210.0
 46
0.0
 47
0.0
 48
0.0
 49
0.0
140
0.0
141
0.0
142
1.0
143
1.0
 70
1024
 72
1
 73
0
 74
0
  7

 75
0
147
1.0
148
0.0
149
0.0
100
AcDbLayout
  1
Model
 70
0
 71
0
 10
0.0
 20
0.0
 11
297.0
 21
210.0
 12
0.0
 22
0.0
 32
0.0
 14
0.0
 24
0.0
 34
0.0
 15
0.0
 25
0.0
 35
0.0
146
0.0
 13
0.0
 23
0.0
 33
0.0
 16
1.0
 26
0.0
 36
0.0
 17
0.0
 27
1.0
 37
0.0
 76
0
330
215
345
0
346
0
  0
LAYOUT
  5
758
102
{ACAD_REACTORS
330
1A
102
}
100
AcDbPlotSettings
  1

  2
none_device
  4
ISO_A4_(297.00_x_210.00_MM)
  6

 40
0.0
 41
0.0
 42
0.0
 43
0.0
 44
297.0
 45
210.0
 46
0.0
 47
0.0
 48
0.0
 49
0.0
140
0.0
141
0.0
142
1.0
143
1.0
 70
0
 72
1
 73
0
 74
0
  7

 75
0
147
1.0
148
0.0
149
0.0
100
AcDbLayout
  1
Layout1
 70
0
 71
1
 10
0.0
 20
0.0
 11
297.0
 21
210.0
 12
0.0
 22
0.0
 32
0.0
 14
0.0
 24
0.0
 34
0.0
 15
0.0
 25
0.0
 35
0.0
146
0.0
 13
0.0
 23
0.0
 33
0.0
 16
1.0
 26
0.0
 36
0.0
 17
0.0
 27
1.0
 37
0.0
 76
0
330
216
345
0
346
0
  0
ENDSEC
  0
EOF
