  0
SECTION
  2
HEADER
  9
$ACADVER
  1
AC1024
  9
$DWGCODEPAGE
  3
ANSI_1252
  9
$EXTMAX
 10
297.0
 20
210.0
 30
0.0
  9
$EXTMIN
 10
0.0
 20
0.0
 30
0.0
  9
$LIMMIN
 10
0.0
 20
0.0
  9
$LIMMAX
 10
297.0
 20
210.0
  9
$VIEWCTR
 10
148.5
 20
105.0
  9
$VIEWSIZE
 40
210.0
  9
$CLAYER
  8
0
  9
$LTSCALE
 40
16.335
  9
$CELTYPE
  6
BYLAYER
  9
$DIMSCALE
 40
1.0
  9
$DIMASZ
 40
3.0
  9
$DIMEXO
 40
0.5
  9
$DIMDLI
 40
11.286
  9
$DIMEXE
 40
1.5
  9
$DIMCEN
 40
2.673
  9
$DIMLFAC
 40
1.0
  9
$DIMBLK
  1
_FILLED
  9
$DIMALT
 70
0
  9
$DIMALTF
 40
0.0393700787
  9
$DIMTXT
 40
3.0
  9
$DIMTOL
 70
1
  9
$DIMLIM
 70
0
  9
$DIMTFAC
 40
1.0
  9
$DIMTP
 40
0.01
  9
$DIMTM
 40
0.01
  9
$DIMGAP
 40
0.625
  9
$DIMDSEP
 70
44
  9
$AUNITS
 70
0
  9
$PDMODE
 70
3
  9
$PDSIZE
 40
3.0
  9
$HANDSEED
  5
303
  9
$TILEMODE
 70
1
  9
$MEASUREMENT
 70
1
  9
$INSUNITS
 70
4
  0
ENDSEC
  0
SECTION
  2
CLASSES
  0
CLASS
  1
ACDBDICTIONARYWDFLT
  2
AcDbDictionaryWithDefault
  3
AutoCAD 2000
 90
0
 91
1
280
0
281
0
  0
CLASS
  1
ACDBPLACEHOLDER
  2
AcDbPlaceHolder
  3
AutoCAD 2000
 90
0
 91
1
280
0
281
0
  0
CLASS
  1
LAYOUT
  2
AcDbLayout
  3
AutoCAD 2000
 90
0
 91
0
280
0
281
0
  0
ENDSEC
  0
SECTION
  2
TABLES
  0
TABLE
  2
VPORT
  5
8
100
AcDbSymbolTable
 70
2
  0
VPORT
  5
1F4
100
AcDbSymbolTableRecord
100
AcDbViewportTableRecord
  2
*ACTIVE
 70
0
 10
0.0
 20
0.0
 11
1.0
 21
1.0
 12
148.5
 22
105.0
 13
0.0
 23
0.0
 14
1.0
 24
1.0
 15
0.0
 25
0.0
 16
0.0
 26
0.0
 36
1.0
 17
0.0
 27
0.0
 37
0.0
 40
210.0
 41
1.4142857143
 42
50.0
 43
0.0
 44
0.0
 50
0.0
 51
0.0
 71
0
 72
100
 73
1
 74
1
 75
0
 76
0
 77
0
 78
0
  0
ENDTAB
  0
TABLE
  2
LTYPE
  5
5
100
AcDbSymbolTable
 70
6
  0
LTYPE
  5
14
100
AcDbSymbolTableRecord
100
AcDbLinetypeTableRecord
  2
BYBLOCK
 70
0
  3

 72
65
 73
0
 40
0.0
  0
LTYPE
  5
15
100
AcDbSymbolTableRecord
100
AcDbLinetypeTableRecord
  2
BYLAYER
 70
0
  3

 72
65
 73
0
 40
0.0
  0
LTYPE
  5
16
100
AcDbSymbolTableRecord
100
AcDbLinetypeTableRecord
  2
CONTINUOUS
 70
64
  3
Solid line
 72
65
 73
0
 40
0.0
  0
LTYPE
  5
1F5
100
AcDbSymbolTableRecord
100
AcDbLinetypeTableRecord
  2
CENTER
 70
64
  3
____ _ ____ _ ____ _ ____ _ ____ _ ____ _ ____
 72
65
 73
4
 40
0.6
 49
0.375
 74
0
 49
-0.075
 74
0
 49
0.075
 74
0
 49
-0.075
 74
0
  0
LTYPE
  5
1F6
100
AcDbSymbolTableRecord
100
AcDbLinetypeTableRecord
  2
HIDDEN
 70
64
  3
- - - - - - - - - - - - - - - - - - - -
 72
65
 73
2
 40
0.2
 49
0.1
 74
0
 49
-0.1
 74
0
  0
LTYPE
  5
1F7
100
AcDbSymbolTableRecord
100
AcDbLinetypeTableRecord
  2
PHANTOM
 70
64
  3
_____ _ _ _____ _ _ _____ _ _ _____
 72
65
 73
6
 40
0.8
 49
0.45
 74
0
 49
-0.05
 74
0
 49
0.1
 74
0
 49
-0.05
 74
0
 49
0.1
 74
0
 49
-0.05
 74
0
  0
LTYPE
  5
1F8
100
AcDbSymbolTableRecord
100
AcDbLinetypeTableRecord
  2
DOT
 70
64
  3
. . . . . . . . . . . . . . . . . . . .
 72
65
 73
2
 40
0.2
 49
0.1
 74
0
 49
-0.1
 74
0
  0
LTYPE
  5
1F9
100
AcDbSymbolTableRecord
100
AcDbLinetypeTableRecord
  2
DASHED
 70
64
  3
- - - - - - - - - - - - - - - - - - - -
 72
65
 73
2
 40
0.2
 49
0.1
 74
0
 49
-0.1
 74
0
  0
ENDTAB
  0
TABLE
  2
LAYER
  5
2
100
AcDbSymbolTable
 70
36
  0
LAYER
  5
10
100
AcDbSymbolTableRecord
100
AcDbLayerTableRecord
  2
0
 70
0
 62
7
  6
CONTINUOUS
370
-3
390
F
  0
LAYER
  5
1FA
100
AcDbSymbolTableRecord
100
AcDbLayerTableRecord
  2
DEFAULT_1
 70
0
 62
7
  6
CENTER
370
-3
390
F
  0
LAYER
  5
1FB
100
AcDbSymbolTableRecord
100
AcDbLayerTableRecord
  2
DEFAULT_2
 70
0
 62
7
  6
HIDDEN
370
-3
390
F
  0
LAYER
  5
1FC
100
AcDbSymbolTableRecord
100
AcDbLayerTableRecord
  2
DEFAULT_3
 70
0
 62
7
  6
PHANTOM
370
-3
390
F
  0
LAYER
  5
1FD
100
AcDbSymbolTableRecord
100
AcDbLayerTableRecord
  2
ASSI
 70
0
 62
7
  6
CONTINUOUS
370
-3
390
F
  0
LAYER
  5
1FE
100
AcDbSymbolTableRecord
100
AcDbLayerTableRecord
  2
COLOR1
 70
0
 62
7
  6
CONTINUOUS
370
-3
390
F
  0
LAYER
  5
1FF
100
AcDbSymbolTableRecord
100
AcDbLayerTableRecord
  2
COLOR15
 70
0
 62
7
  6
CONTINUOUS
370
-3
390
F
  0
LAYER
  5
200
100
AcDbSymbolTableRecord
100
AcDbLayerTableRecord
  2
COORDINATE
 70
0
 62
7
  6
CONTINUOUS
370
-3
390
F
  0
LAYER
  5
201
100
AcDbSymbolTableRecord
100
AcDbLayerTableRecord
  2
COPY_PUBLISH
 70
0
 62
7
  6
CONTINUOUS
370
-3
390
F
  0
LAYER
  5
202
100
AcDbSymbolTableRecord
100
AcDbLayerTableRecord
  2
COSMETICI
 70
0
 62
7
  6
CONTINUOUS
370
-3
390
F
  0
LAYER
  5
203
100
AcDbSymbolTableRecord
100
AcDbLayerTableRecord
  2
CURVE
 70
0
 62
7
  6
CONTINUOUS
370
-3
390
F
  0
LAYER
  5
204
100
AcDbSymbolTableRecord
100
AcDbLayerTableRecord
  2
DRAFT
 70
0
 62
7
  6
CONTINUOUS
370
-3
390
F
  0
LAYER
  5
205
100
AcDbSymbolTableRecord
100
AcDbLayerTableRecord
  2
IMPORT_IGES
 70
0
 62
7
  6
CONTINUOUS
370
-3
390
F
  0
LAYER
  5
206
100
AcDbSymbolTableRecord
100
AcDbLayerTableRecord
  2
INTF_YELLOW
 70
0
 62
7
  6
CONTINUOUS
370
-3
390
F
  0
LAYER
  5
207
100
AcDbSymbolTableRecord
100
AcDbLayerTableRecord
  2
NOTE
 70
0
 62
7
  6
CONTINUOUS
370
-3
390
F
  0
LAYER
  5
208
100
AcDbSymbolTableRecord
100
AcDbLayerTableRecord
  2
PIANI
 70
0
 62
7
  6
CONTINUOUS
370
-3
390
F
  0
LAYER
  5
209
100
AcDbSymbolTableRecord
100
AcDbLayerTableRecord
  2
PUNTI
 70
0
 62
7
  6
CONTINUOUS
370
-3
390
F
  0
LAYER
  5
20A
100
AcDbSymbolTableRecord
100
AcDbLayerTableRecord
  2
RACCORDO
 70
0
 62
7
  6
CONTINUOUS
370
-3
390
F
  0
LAYER
  5
20B
100
AcDbSymbolTableRecord
100
AcDbLayerTableRecord
  2
SIMBOLI
 70
0
 62
7
  6
CONTINUOUS
370
-3
390
F
  0
LAYER
  5
20C
100
AcDbSymbolTableRecord
100
AcDbLayerTableRecord
  2
SMUSSO
 70
0
 62
7
  6
CONTINUOUS
370
-3
390
F
  0
LAYER
  5
20D
100
AcDbSymbolTableRecord
100
AcDbLayerTableRecord
  2
SNAPLINE
 70
0
 62
7
  6
CONTINUOUS
370
-3
390
F
  0
LAYER
  5
20E
100
AcDbSymbolTableRecord
100
AcDbLayerTableRecord
  2
SUPERFICI
 70
0
 62
7
  6
CONTINUOUS
370
-3
390
F
  0
LAYER
  5
20F
100
AcDbSymbolTableRecord
100
AcDbLayerTableRecord
  2
TRASH
 70
0
 62
7
  6
CONTINUOUS
370
-3
390
F
  0
ENDTAB
  0
TABLE
  2
STYLE
  5
3
100
AcDbSymbolTable
 70
1
  0
STYLE
  5
11
100
AcDbSymbolTableRecord
100
AcDbTextStyleTableRecord
  2
STANDARD
 70
0
 40
0.0
 41
0.8
 50
0.0
 71
0
 42
0.2
  3
txt
  4

  0
STYLE
  5
210
100
AcDbSymbolTableRecord
100
AcDbTextStyleTableRecord
  2
TEXTSTYLE_1
 70
0
 40
0.0
 41
0.8
 50
0.0
 71
0
 42
0.2
  3
gdt
  4

  0
ENDTAB
  0
TABLE
  2
VIEW
  5
6
100
AcDbSymbolTable
 70
0
  0
ENDTAB
  0
TABLE
  2
UCS
  5
7
100
AcDbSymbolTable
 70
0
  0
ENDTAB
  0
TABLE
  2
APPID
  5
9
100
AcDbSymbolTable
 70
1
  0
APPID
  5
211
100
AcDbSymbolTableRecord
100
AcDbRegAppTableRecord
  2
ACAD
 70
0
  0
ENDTAB
  0
TABLE
  2
BLOCK_RECORD
  5
1
100
AcDbSymbolTable
 70
0
  0
BLOCK_RECORD
  5
212
100
AcDbSymbolTableRecord
100
AcDbBlockTableRecord
  2
*Model_Space
  0
BLOCK_RECORD
  5
213
100
AcDbSymbolTableRecord
100
AcDbBlockTableRecord
  2
*Paper_Space
  0
BLOCK_RECORD
  5
214
100
AcDbSymbolTableRecord
100
AcDbBlockTableRecord
  2
_FILLED
  0
ENDTAB
  0
TABLE
  2
DIMSTYLE
  5
A
100
AcDbSymbolTable
 70
1
100
AcDbDimStyleTable
 71
0
  0
DIMSTYLE
105
215
100
AcDbSymbolTableRecord
100
AcDbDimStyleTableRecord
  2
STANDARD
 70
0
  3

  4

 40
1.0
 41
3.0
 42
0.5
 43
0.38
 44
1.5
 45
0.0
 46
0.0
 47
0.01
 48
0.01
140
3.0
141
0.09
142
0.0
143
25.4
144
1.0
145
0.0
146
1.0
147
0.625
 71
1
 72
0
 73
0
 74
0
 75
0
 76
0
 77
1
 78
8
 79
2
170
0
171
1
172
0
173
0
174
0
175
0
176
0
177
0
178
0
270
2
179
2
271
2
272
2
273
2
274
2
275
0
280
0
281
0
282
0
283
1
284
8
285
0
286
0
287
3
288
0
340
11
278
44
341
214
342
214
343
214
344
214
  0
ENDTAB
  0
ENDSEC
  0
SECTION
  2
BLOCKS
  0
BLOCK
  5
20
100
AcDbEntity
  8
0
100
AcDbBlockBegin
  2
*Model_Space
 70
0
 10
0.0
 20
0.0
 30
0.0
  3
*Model_Space
  1

  0
ENDBLK
  5
21
100
AcDbEntity
  8
0
100
AcDbBlockEnd
  0
BLOCK
  5
1C
100
AcDbEntity
  8
0
100
AcDbBlockBegin
  2
*Paper_Space
 70
0
 10
0.0
 20
0.0
 30
0.0
  3
*Paper_Space
  1

  0
ENDBLK
  5
1D
100
AcDbEntity
  8
0
100
AcDbBlockEnd
  0
BLOCK
  5
216
100
AcDbEntity
  8
0
100
AcDbBlockBegin
  2
_FILLED
 70
64
 10
0.0
 20
0.0
  3
_FILLED
  1

  0
SOLID
  5
217
100
AcDbEntity
  8
0
  6
BYBLOCK
 62
0
100
AcDbTrace
 10
0.0
 20
0.0
 11
-1.0
 21
0.3166666667
 12
-1.0
 22
-0.3166666667
 13
-1.0
 23
-0.3166666667
  0
ENDBLK
  5
218
100
AcDbEntity
  8
0
  6
BYBLOCK
 62
0
100
AcDbBlockEnd
  0
ENDSEC
  0
SECTION
  2
ENTITIES
  0
LINE
  5
219
100
AcDbEntity
  8
RACCORDO
100
AcDbLine
 62
250
  6
CONTINUOUS
 10
45.1842599783
 20
-88.4732547594
 11
45.0842752088
 21
-88.4750000014
  0
LINE
  5
21A
100
AcDbEntity
  8
0
100
AcDbLine
 62
7
  6
CONTINUOUS
 10
-66.2646018366
 20
-90.925
 11
-65.1646018366
 21
-90.925
  0
LINE
  5
21B
100
AcDbEntity
  8
0
100
AcDbLine
 62
7
  6
CONTINUOUS
 10
66.2646018366
 20
-90.925
 11
65.1646018366
 21
-90.925
  0
LINE
  5
21C
100
AcDbEntity
  8
RACCORDO
100
AcDbLine
 62
7
  6
CONTINUOUS
 10
65.1635266451
 20
-90.925
 11
-65.1635266451
 21
-90.925
  0
LINE
  5
21D
100
AcDbEntity
  8
RACCORDO
100
AcDbLine
 62
250
  6
CONTINUOUS
 10
-64.6508841097
 20
-89.4741273464
 11
64.6508841097
 21
-89.4741273464
  0
LINE
  5
21E
100
AcDbEntity
  8
RACCORDO
100
AcDbLine
 62
7
  6
CONTINUOUS
 10
-65.0508688789
 20
-89.375
 11
65.0508688789
 21
-89.375
  0
LINE
  5
21F
100
AcDbEntity
  8
RACCORDO
100
AcDbLine
 62
250
  6
CONTINUOUS
 10
23.9966297948
 20
-89.2784899497
 11
23.0033702052
 21
-89.2784899497
  0
LINE
  5
220
100
AcDbEntity
  8
RACCORDO
100
AcDbLine
 62
250
  6
CONTINUOUS
 10
-23.0033702052
 20
-89.2784899497
 11
-23.9966297948
 21
-89.2784899497
  0
LINE
  5
221
100
AcDbEntity
  8
RACCORDO
100
AcDbLine
 62
250
  6
CONTINUOUS
 10
-65.0508688789
 20
-89.2758726535
 11
-62.1674299313
 21
-89.2758726535
  0
LINE
  5
222
100
AcDbEntity
  8
RACCORDO
100
AcDbLine
 62
250
  6
CONTINUOUS
 10
61.9083589504
 20
-89.2758726535
 11
60.3900525248
 21
-89.2758726535
  0
LINE
  5
223
100
AcDbEntity
  8
RACCORDO
100
AcDbLine
 62
250
  6
CONTINUOUS
 10
58.5537497724
 20
-89.2758726535
 11
45.5008558761
 21
-89.2758726535
  0
LINE
  5
224
100
AcDbEntity
  8
RACCORDO
100
AcDbLine
 62
250
  6
CONTINUOUS
 10
45.3008688789
 20
-89.2758726535
 11
45.1982240302
 21
-89.2758726535
  0
LINE
  5
225
100
AcDbEntity
  8
RACCORDO
100
AcDbLine
 62
250
  6
CONTINUOUS
 10
30.3517759698
 20
-89.2758726535
 11
30.2491311211
 21
-89.2758726535
  0
LINE
  5
226
100
AcDbEntity
  8
RACCORDO
100
AcDbLine
 62
250
  6
CONTINUOUS
 10
30.0491387364
 20
-89.2758726535
 11
24.0965688775
 21
-89.2758726535
  0
LINE
  5
227
100
AcDbEntity
  8
RACCORDO
100
AcDbLine
 62
250
  6
CONTINUOUS
 10
22.9034311225
 20
-89.2758726535
 11
-22.9034311225
 21
-89.2758726535
  0
LINE
  5
228
100
AcDbEntity
  8
RACCORDO
100
AcDbLine
 62
250
  6
CONTINUOUS
 10
-24.0965688775
 20
-89.2758726535
 11
-30.0491387364
 21
-89.2758726535
  0
LINE
  5
229
100
AcDbEntity
  8
RACCORDO
100
AcDbLine
 62
250
  6
CONTINUOUS
 10
-30.2491311211
 20
-89.2758726535
 11
-30.3517759698
 21
-89.2758726535
  0
LINE
  5
22A
100
AcDbEntity
  8
RACCORDO
100
AcDbLine
 62
250
  6
CONTINUOUS
 10
-45.1982240302
 20
-89.2758726535
 11
-45.3008688789
 21
-89.2758726535
  0
LINE
  5
22B
100
AcDbEntity
  8
RACCORDO
100
AcDbLine
 62
250
  6
CONTINUOUS
 10
-45.5008558761
 20
-89.2758726535
 11
-58.5537497724
 21
-89.2758726535
  0
LINE
  5
22C
100
AcDbEntity
  8
RACCORDO
100
AcDbLine
 62
250
  6
CONTINUOUS
 10
62.1674299313
 20
-89.2758726535
 11
65.0508688789
 21
-89.2758726535
  0
LINE
  5
22D
100
AcDbEntity
  8
0
100
AcDbLine
 62
7
  6
CONTINUOUS
 10
-65.1646018366
 20
-89.225
 11
-61.3646018366
 21
-89.225
  0
LINE
  5
22E
100
AcDbEntity
  8
0
100
AcDbLine
 62
7
  6
CONTINUOUS
 10
65.1646018366
 20
-89.225
 11
61.3646018366
 21
-89.225
  0
LINE
  5
22F
100
AcDbEntity
  8
RACCORDO
100
AcDbLine
 62
250
  6
CONTINUOUS
 10
-45.1842599783
 20
-88.4732547594
 11
-45.0842752088
 21
-88.475
  0
LINE
  5
230
100
AcDbEntity
  8
RACCORDO
100
AcDbLine
 62
250
  6
CONTINUOUS
 10
-30.3657400217
 20
-88.4732547594
 11
-30.4657247912
 21
-88.4750000014
  0
LINE
  5
231
100
AcDbEntity
  8
RACCORDO
100
AcDbLine
 62
250
  6
CONTINUOUS
 10
45.0842752088
 20
-88.475
 11
30.4657247912
 21
-88.475
  0
LINE
  5
232
100
AcDbEntity
  8
RACCORDO
100
AcDbLine
 62
250
  6
CONTINUOUS
 10
-30.4657247912
 20
-88.475
 11
-45.0842752088
 21
-88.475
  0
LINE
  5
233
100
AcDbEntity
  8
ASSI
100
AcDbLine
 62
7
  6
CONTINUOUS
 10
63.5
 20
-88.3
 11
-63.5
 21
-88.3
  0
LINE
  5
234
100
AcDbEntity
  8
RACCORDO
100
AcDbLine
 62
250
  6
CONTINUOUS
 10
43.8915397338
 20
-82.025
 11
42.3081089482
 21
-82.025
  0
LINE
  5
235
100
AcDbEntity
  8
RACCORDO
100
AcDbLine
 62
250
  6
CONTINUOUS
 10
33.6415397338
 20
-82.025
 11
32.0081089482
 21
-82.025
  0
LINE
  5
236
100
AcDbEntity
  8
RACCORDO
100
AcDbLine
 62
250
  6
CONTINUOUS
 10
-32.0081089482
 20
-82.025
 11
-33.641539733
 21
-82.025
  0
LINE
  5
237
100
AcDbEntity
  8
RACCORDO
100
AcDbLine
 62
250
  6
CONTINUOUS
 10
-42.3081089482
 20
-82.025
 11
-43.891539733
 21
-82.025
  0
LINE
  5
238
100
AcDbEntity
  8
RACCORDO
100
AcDbLine
 62
7
  6
CONTINUOUS
 10
43.8742636625
 20
-81.925
 11
42.3258567096
 21
-81.925
  0
LINE
  5
239
100
AcDbEntity
  8
RACCORDO
100
AcDbLine
 62
7
  6
CONTINUOUS
 10
33.6242636625
 20
-81.925
 11
32.0258567096
 21
-81.925
  0
LINE
  5
23A
100
AcDbEntity
  8
RACCORDO
100
AcDbLine
 62
7
  6
CONTINUOUS
 10
-32.0258567096
 20
-81.925
 11
-33.6242636648
 21
-81.925
  0
LINE
  5
23B
100
AcDbEntity
  8
RACCORDO
100
AcDbLine
 62
7
  6
CONTINUOUS
 10
-42.3258567096
 20
-81.925
 11
-43.8742636648
 21
-81.925
  0
LINE
  5
23C
100
AcDbEntity
  8
RACCORDO
100
AcDbLine
 62
7
  6
CONTINUOUS
 10
43.8449896845
 20
-81.825
 11
42.3543449715
 21
-81.825
  0
LINE
  5
23D
100
AcDbEntity
  8
RACCORDO
100
AcDbLine
 62
7
  6
CONTINUOUS
 10
33.5949896845
 20
-81.825
 11
32.0543449715
 21
-81.825
  0
LINE
  5
23E
100
AcDbEntity
  8
RACCORDO
100
AcDbLine
 62
7
  6
CONTINUOUS
 10
-32.0543449715
 20
-81.825
 11
-33.5949896846
 21
-81.825
  0
LINE
  5
23F
100
AcDbEntity
  8
RACCORDO
100
AcDbLine
 62
7
  6
CONTINUOUS
 10
-42.3543449715
 20
-81.825
 11
-43.8449896846
 21
-81.825
  0
LINE
  5
240
100
AcDbEntity
  8
RACCORDO
100
AcDbLine
 62
250
  6
CONTINUOUS
 10
43.7176186006
 20
-81.575
 11
42.4820086255
 21
-81.575
  0
LINE
  5
241
100
AcDbEntity
  8
RACCORDO
100
AcDbLine
 62
250
  6
CONTINUOUS
 10
33.4676186006
 20
-81.575
 11
32.1820086255
 21
-81.575
  0
LINE
  5
242
100
AcDbEntity
  8
RACCORDO
100
AcDbLine
 62
250
  6
CONTINUOUS
 10
-32.1820086255
 20
-81.575
 11
-33.4676186023
 21
-81.575
  0
LINE
  5
243
100
AcDbEntity
  8
RACCORDO
100
AcDbLine
 62
250
  6
CONTINUOUS
 10
-42.4820086255
 20
-81.575
 11
-43.7176186023
 21
-81.575
  0
LINE
  5
244
100
AcDbEntity
  8
RACCORDO
100
AcDbLine
 62
250
  6
CONTINUOUS
 10
30.3657400217
 20
-88.4732547594
 11
30.4657247912
 21
-88.475
  0
LINE
  5
245
100
AcDbEntity
  8
RACCORDO
100
AcDbLine
 62
250
  6
CONTINUOUS
 10
-58.7520401202
 20
-89.375
 11
-58.770804315
 21
-88.3
  0
LINE
  5
246
100
AcDbEntity
  8
RACCORDO
100
AcDbLine
 62
7
  6
CONTINUOUS
 10
-58.6708195454
 20
-88.3
 11
-58.6520553506
 21
-89.3749999999
  0
LINE
  5
247
100
AcDbEntity
  8
RACCORDO
100
AcDbLine
 62
250
  6
CONTINUOUS
 10
-58.5707836929
 20
-88.3
 11
-58.5537497724
 21
-89.2758726535
  0
LINE
  5
248
100
AcDbEntity
  8
RACCORDO
100
AcDbLine
 62
250
  6
CONTINUOUS
 10
-62.1678738902
 20
-89.225
 11
-62.1674299313
 21
-89.2758726535
  0
LINE
  5
249
100
AcDbEntity
  8
RACCORDO
100
AcDbLine
 62
7
  6
CONTINUOUS
 10
-62.0678776979
 20
-89.225
 11
-62.0674337389
 21
-89.2758726535
  0
LINE
  5
24A
100
AcDbEntity
  8
0
100
AcDbLine
 62
7
  6
CONTINUOUS
 10
-66.2646018366
 20
89.325
 11
-66.2646018366
 21
-90.925
  0
LINE
  5
24B
100
AcDbEntity
  8
0
100
AcDbLine
 62
7
  6
CONTINUOUS
 10
-65.1646018366
 20
-90.925
 11
-65.1646018366
 21
89.35
  0
LINE
  5
24C
100
AcDbEntity
  8
RACCORDO
100
AcDbLine
 62
250
  6
CONTINUOUS
 10
-65.0508688789
 20
-89.375
 11
-65.0508688791
 21
-89.2758726536
  0
LINE
  5
24D
100
AcDbEntity
  8
0
100
AcDbLine
 62
250
  6
CONTINUOUS
 10
-64.6646018366
 20
89.825
 11
-64.6646018366
 21
90.925
  0
LINE
  5
24E
100
AcDbEntity
  8
RACCORDO
100
AcDbLine
 62
250
  6
CONTINUOUS
 10
-64.6508841097
 20
-89.4741273464
 11
-64.6508841097
 21
-89.375
  0
LINE
  5
24F
100
AcDbEntity
  8
RACCORDO
100
AcDbLine
 62
7
  6
CONTINUOUS
 10
-64.55
 20
89.0
 11
-64.55
 21
88.7353981634
  0
LINE
  5
250
100
AcDbEntity
  8
0
100
AcDbLine
 62
7
  6
CONTINUOUS
 10
-63.7646018366
 20
-89.225
 11
-63.7646018366
 21
87.95
  0
LINE
  5
251
100
AcDbEntity
  8
RACCORDO
100
AcDbLine
 62
7
  6
CONTINUOUS
 10
-63.5
 20
-88.3
 11
-63.5
 21
86.45
  0
LINE
  5
252
100
AcDbEntity
  8
RACCORDO
100
AcDbLine
 62
250
  6
CONTINUOUS
 10
-62.1674299313
 20
-89.2758726535
 11
-62.1674299313
 21
-89.375
  0
LINE
  5
253
100
AcDbEntity
  8
0
100
AcDbLine
 62
7
  6
CONTINUOUS
 10
-61.3646018366
 20
-89.225
 11
-61.3646018366
 21
-88.3
  0
LINE
  5
254
100
AcDbEntity
  8
RACCORDO
100
AcDbLine
 62
7
  6
CONTINUOUS
 10
-65.1486921815
 20
-89.2251388415
 11
-65.1635266451
 21
-90.925
  0
LINE
  5
255
100
AcDbEntity
  8
RACCORDO
100
AcDbLine
 62
250
  6
CONTINUOUS
 10
-65.0736938254
 20
-89.225
 11
-65.0741496704
 21
-89.2772346666
  0
LINE
  5
256
100
AcDbEntity
  8
RACCORDO
100
AcDbLine
 62
250
  6
CONTINUOUS
 10
-64.6508841097
 20
-89.4741273464
 11
-64.6635456835
 21
-90.925
  0
LINE
  5
257
100
AcDbEntity
  8
ASSI
100
AcDbLine
 62
7
  6
CONTINUOUS
 10
-15.5
 20
-59.85
 11
15.5
 21
-59.85
  0
LINE
  5
258
100
AcDbEntity
  8
RACCORDO
100
AcDbLine
 62
250
  6
CONTINUOUS
 10
-58.5537497724
 20
-89.2758726535
 11
-58.5537443849
 21
-89.375
  0
LINE
  5
259
100
AcDbEntity
  8
ASSI
100
AcDbLine
 62
7
  6
CONTINUOUS
 10
-15.5
 20
-51.8006096654
 11
15.35
 21
-51.8006096654
  0
LINE
  5
25A
100
AcDbEntity
  8
RACCORDO
100
AcDbLine
 62
250
  6
CONTINUOUS
 10
-45.5093721877
 20
-88.3
 11
-45.5008558761
 21
-89.2758726535
  0
LINE
  5
25B
100
AcDbEntity
  8
RACCORDO
100
AcDbLine
 62
7
  6
CONTINUOUS
 10
-45.4093813829
 20
-88.3
 11
-45.4008650712
 21
-89.2758726535
  0
LINE
  5
25C
100
AcDbEntity
  8
RACCORDO
100
AcDbLine
 62
250
  6
CONTINUOUS
 10
-45.3093851906
 20
-88.3
 11
-45.3008688789
 21
-89.2758726535
  0
LINE
  5
25D
100
AcDbEntity
  8
RACCORDO
100
AcDbLine
 62
250
  6
CONTINUOUS
 10
-45.5008558761
 20
-89.2758726535
 11
-45.5008504886
 21
-89.375
  0
LINE
  5
25E
100
AcDbEntity
  8
RACCORDO
100
AcDbLine
 62
250
  6
CONTINUOUS
 10
-45.3008688789
 20
-89.2758726535
 11
-45.3008688789
 21
-89.375
  0
LINE
  5
25F
100
AcDbEntity
  8
ASSI
100
AcDbLine
 62
7
  6
CONTINUOUS
 10
15.5
 20
-50.6
 11
-15.5
 21
-50.6
  0
LINE
  5
260
100
AcDbEntity
  8
RACCORDO
100
AcDbLine
 62
7
  6
CONTINUOUS
 10
-45.1982240302
 20
-89.2732547594
 11
-45.1812358052
 21
-88.3
  0
LINE
  5
261
100
AcDbEntity
  8
RACCORDO
100
AcDbLine
 62
250
  6
CONTINUOUS
 10
-45.0982392607
 20
-89.375
 11
-45.0812205724
 21
-88.3
  0
LINE
  5
262
100
AcDbEntity
  8
RACCORDO
100
AcDbLine
 62
7
  6
CONTINUOUS
 10
-30.3687641948
 20
-88.3
 11
-30.3517759698
 21
-89.2732547594
  0
LINE
  5
263
100
AcDbEntity
  8
RACCORDO
100
AcDbLine
 62
250
  6
CONTINUOUS
 10
-30.4687794276
 20
-88.3
 11
-30.451760739
 21
-89.3750000002
  0
LINE
  5
264
100
AcDbEntity
  8
RACCORDO
100
AcDbLine
 62
250
  6
CONTINUOUS
 10
-30.2491311211
 20
-89.2758726535
 11
-30.2491311211
 21
-89.375
  0
LINE
  5
265
100
AcDbEntity
  8
RACCORDO
100
AcDbLine
 62
250
  6
CONTINUOUS
 10
-30.0491387364
 20
-89.2758726535
 11
-30.0491387364
 21
-89.375
  0
LINE
  5
266
100
AcDbEntity
  8
RACCORDO
100
AcDbLine
 62
250
  6
CONTINUOUS
 10
-30.2491311211
 20
-89.2758726535
 11
-30.2406148094
 21
-88.3
  0
LINE
  5
267
100
AcDbEntity
  8
RACCORDO
100
AcDbLine
 62
7
  6
CONTINUOUS
 10
-30.1406186171
 20
-88.3
 11
-30.1491349288
 21
-89.2758726535
  0
LINE
  5
268
100
AcDbEntity
  8
RACCORDO
100
AcDbLine
 62
250
  6
CONTINUOUS
 10
-30.0406224248
 20
-88.3
 11
-30.0491387364
 21
-89.2758726535
  0
LINE
  5
269
100
AcDbEntity
  8
RACCORDO
100
AcDbLine
 62
7
  6
CONTINUOUS
 10
-23.0033702052
 20
-89.2784899497
 11
-23.0375398272
 21
-88.3
  0
LINE
  5
26A
100
AcDbEntity
  8
RACCORDO
100
AcDbLine
 62
250
  6
CONTINUOUS
 10
-22.9034311225
 20
-89.2758726535
 11
-22.9375093465
 21
-88.3
  0
LINE
  5
26B
100
AcDbEntity
  8
RACCORDO
100
AcDbLine
 62
250
  6
CONTINUOUS
 10
-24.0965688775
 20
-89.2758726535
 11
-24.0965688775
 21
-89.375
  0
LINE
  5
26C
100
AcDbEntity
  8
RACCORDO
100
AcDbLine
 62
250
  6
CONTINUOUS
 10
-22.9034311225
 20
-89.2758726535
 11
-22.9034311225
 21
-89.375
  0
LINE
  5
26D
100
AcDbEntity
  8
ASSI
100
AcDbLine
 62
7
  6
CONTINUOUS
 10
-15.5
 20
-50.6
 11
-15.5
 21
-59.85
  0
LINE
  5
26E
100
AcDbEntity
  8
RACCORDO
100
AcDbLine
 62
250
  6
CONTINUOUS
 10
-24.0624906535
 20
-88.3
 11
-24.0965688775
 21
-89.2758726535
  0
LINE
  5
26F
100
AcDbEntity
  8
RACCORDO
100
AcDbLine
 62
7
  6
CONTINUOUS
 10
-23.9966297948
 20
-89.2784899497
 11
-23.9624601728
 21
-88.3
  0
LINE
  5
270
100
AcDbEntity
  8
0
100
AcDbLine
 62
7
  6
CONTINUOUS
 10
62.9998384331
 20
87.4498384331
 11
65.375
 21
89.825
  0
LINE
  5
271
100
AcDbEntity
  8
0
100
AcDbLine
 62
7
  6
CONTINUOUS
 10
63.1410242803
 20
87.3264224437
 11
65.1646018366
 21
89.35
  0
LINE
  5
272
100
AcDbEntity
  8
ASSI
100
AcDbLine
 62
7
  6
CONTINUOUS
 10
15.35
 20
-51.8006096654
 11
15.35
 21
-59.85
  0
LINE
  5
273
100
AcDbEntity
  8
ASSI
100
AcDbLine
 62
7
  6
CONTINUOUS
 10
15.5
 20
-59.85
 11
15.5
 21
-50.6
  0
LINE
  5
274
100
AcDbEntity
  8
RACCORDO
100
AcDbLine
 62
7
  6
CONTINUOUS
 10
23.9966297948
 20
-89.2784899497
 11
23.9624601728
 21
-88.3
  0
LINE
  5
275
100
AcDbEntity
  8
RACCORDO
100
AcDbLine
 62
250
  6
CONTINUOUS
 10
24.0965688775
 20
-89.2758726535
 11
24.0624906535
 21
-88.3
  0
LINE
  5
276
100
AcDbEntity
  8
RACCORDO
100
AcDbLine
 62
250
  6
CONTINUOUS
 10
22.9034311225
 20
-89.2758726535
 11
22.9034311225
 21
-89.375
  0
LINE
  5
277
100
AcDbEntity
  8
0
100
AcDbLine
 62
7
  6
CONTINUOUS
 10
-63.1410242803
 20
87.3264224437
 11
-65.1646018366
 21
89.35
  0
LINE
  5
278
100
AcDbEntity
  8
0
100
AcDbLine
 62
7
  6
CONTINUOUS
 10
-62.9998384331
 20
87.4498384331
 11
-65.375
 21
89.825
  0
LINE
  5
279
100
AcDbEntity
  8
RACCORDO
100
AcDbLine
 62
250
  6
CONTINUOUS
 10
30.0406224248
 20
-88.3
 11
30.0491387364
 21
-89.2758726535
  0
LINE
  5
27A
100
AcDbEntity
  8
RACCORDO
100
AcDbLine
 62
7
  6
CONTINUOUS
 10
30.1406186171
 20
-88.3
 11
30.1491349288
 21
-89.2758726535
  0
LINE
  5
27B
100
AcDbEntity
  8
RACCORDO
100
AcDbLine
 62
250
  6
CONTINUOUS
 10
30.2406148094
 20
-88.3
 11
30.2491311211
 21
-89.2758726535
  0
LINE
  5
27C
100
AcDbEntity
  8
RACCORDO
100
AcDbLine
 62
250
  6
CONTINUOUS
 10
24.0965688775
 20
-89.2758726535
 11
24.0965688775
 21
-89.375
  0
LINE
  5
27D
100
AcDbEntity
  8
RACCORDO
100
AcDbLine
 62
250
  6
CONTINUOUS
 10
30.0491387364
 20
-89.2758726535
 11
30.0491387364
 21
-89.375
  0
LINE
  5
27E
100
AcDbEntity
  8
RACCORDO
100
AcDbLine
 62
250
  6
CONTINUOUS
 10
30.2491311211
 20
-89.2758726535
 11
30.2491311211
 21
-89.375
  0
LINE
  5
27F
100
AcDbEntity
  8
RACCORDO
100
AcDbLine
 62
250
  6
CONTINUOUS
 10
22.9375093465
 20
-88.3
 11
22.9034311225
 21
-89.2758726535
  0
LINE
  5
280
100
AcDbEntity
  8
RACCORDO
100
AcDbLine
 62
7
  6
CONTINUOUS
 10
23.0033702052
 20
-89.2784899497
 11
23.0375398272
 21
-88.3
  0
LINE
  5
281
100
AcDbEntity
  8
RACCORDO
100
AcDbLine
 62
7
  6
CONTINUOUS
 10
30.3517759698
 20
-89.2732547594
 11
30.3687641948
 21
-88.3
  0
LINE
  5
282
100
AcDbEntity
  8
RACCORDO
100
AcDbLine
 62
250
  6
CONTINUOUS
 10
30.4517607393
 20
-89.375
 11
30.4687794276
 21
-88.3
  0
LINE
  5
283
100
AcDbEntity
  8
RACCORDO
100
AcDbLine
 62
7
  6
CONTINUOUS
 10
45.1812358052
 20
-88.3
 11
45.1982240302
 21
-89.2732547594
  0
LINE
  5
284
100
AcDbEntity
  8
RACCORDO
100
AcDbLine
 62
250
  6
CONTINUOUS
 10
45.0812205724
 20
-88.3
 11
45.098239261
 21
-89.3750000002
  0
LINE
  5
285
100
AcDbEntity
  8
RACCORDO
100
AcDbLine
 62
250
  6
CONTINUOUS
 10
45.3008688789
 20
-89.2758726535
 11
45.3008688789
 21
-89.375
  0
LINE
  5
286
100
AcDbEntity
  8
RACCORDO
100
AcDbLine
 62
250
  6
CONTINUOUS
 10
45.5008558761
 20
-89.2758726535
 11
45.5008504886
 21
-89.375
  0
LINE
  5
287
100
AcDbEntity
  8
RACCORDO
100
AcDbLine
 62
250
  6
CONTINUOUS
 10
45.3008688789
 20
-89.2758726535
 11
45.3093851906
 21
-88.3
  0
LINE
  5
288
100
AcDbEntity
  8
RACCORDO
100
AcDbLine
 62
7
  6
CONTINUOUS
 10
45.4093813829
 20
-88.3
 11
45.4008650712
 21
-89.2758726535
  0
LINE
  5
289
100
AcDbEntity
  8
RACCORDO
100
AcDbLine
 62
250
  6
CONTINUOUS
 10
45.5093721877
 20
-88.3
 11
45.5008558761
 21
-89.2758726535
  0
LINE
  5
28A
100
AcDbEntity
  8
RACCORDO
100
AcDbLine
 62
250
  6
CONTINUOUS
 10
60.2490930444
 20
-89.2732547594
 11
60.2405995788
 21
-88.3
  0
LINE
  5
28B
100
AcDbEntity
  8
RACCORDO
100
AcDbLine
 62
7
  6
CONTINUOUS
 10
60.3491349288
 20
-89.2758726535
 11
60.3406186171
 21
-88.3
  0
LINE
  5
28C
100
AcDbEntity
  8
RACCORDO
100
AcDbLine
 62
250
  6
CONTINUOUS
 10
60.3815362132
 20
-88.3
 11
60.3900525248
 21
-89.2758726535
  0
LINE
  5
28D
100
AcDbEntity
  8
RACCORDO
100
AcDbLine
 62
250
  6
CONTINUOUS
 10
58.5537497724
 20
-89.2758726535
 11
58.5537443849
 21
-89.375
  0
LINE
  5
28E
100
AcDbEntity
  8
RACCORDO
100
AcDbLine
 62
250
  6
CONTINUOUS
 10
58.5707836929
 20
-88.3
 11
58.5537497724
 21
-89.2758726535
  0
LINE
  5
28F
100
AcDbEntity
  8
RACCORDO
100
AcDbLine
 62
7
  6
CONTINUOUS
 10
58.6708195454
 20
-88.3
 11
58.6520553506
 21
-89.375
  0
LINE
  5
290
100
AcDbEntity
  8
RACCORDO
100
AcDbLine
 62
250
  6
CONTINUOUS
 10
58.770804315
 20
-88.3
 11
58.7520401202
 21
-89.375
  0
LINE
  5
291
100
AcDbEntity
  8
RACCORDO
100
AcDbLine
 62
250
  6
CONTINUOUS
 10
64.6508841097
 20
-89.4741273464
 11
64.6635456835
 21
-90.925
  0
LINE
  5
292
100
AcDbEntity
  8
RACCORDO
100
AcDbLine
 62
250
  6
CONTINUOUS
 10
65.0741496745
 20
-89.2772351244
 11
65.0736938255
 21
-89.225
  0
LINE
  5
293
100
AcDbEntity
  8
RACCORDO
100
AcDbLine
 62
7
  6
CONTINUOUS
 10
65.1486921815
 20
-89.2251388415
 11
65.1635266451
 21
-90.925
  0
LINE
  5
294
100
AcDbEntity
  8
0
100
AcDbLine
 62
7
  6
CONTINUOUS
 10
61.3646018366
 20
-88.3
 11
61.3646018366
 21
-89.225
  0
LINE
  5
295
100
AcDbEntity
  8
RACCORDO
100
AcDbLine
 62
250
  6
CONTINUOUS
 10
62.1674299313
 20
-89.2758726535
 11
62.1674299313
 21
-89.375
  0
LINE
  5
296
100
AcDbEntity
  8
RACCORDO
100
AcDbLine
 62
7
  6
CONTINUOUS
 10
63.5
 20
86.45
 11
63.5
 21
-88.3
  0
LINE
  5
297
100
AcDbEntity
  8
0
100
AcDbLine
 62
7
  6
CONTINUOUS
 10
63.7646018366
 20
87.95
 11
63.7646018366
 21
-89.225
  0
LINE
  5
298
100
AcDbEntity
  8
RACCORDO
100
AcDbLine
 62
7
  6
CONTINUOUS
 10
64.55
 20
89.0
 11
64.55
 21
88.7353981634
  0
LINE
  5
299
100
AcDbEntity
  8
RACCORDO
100
AcDbLine
 62
250
  6
CONTINUOUS
 10
64.6508841097
 20
-89.375
 11
64.6508841097
 21
-89.4741273464
  0
LINE
  5
29A
100
AcDbEntity
  8
0
100
AcDbLine
 62
250
  6
CONTINUOUS
 10
64.6646018366
 20
89.825
 11
64.6646018366
 21
90.925
  0
LINE
  5
29B
100
AcDbEntity
  8
RACCORDO
100
AcDbLine
 62
250
  6
CONTINUOUS
 10
65.0508688789
 20
-89.375
 11
65.0508688789
 21
-89.2758726535
  0
LINE
  5
29C
100
AcDbEntity
  8
0
100
AcDbLine
 62
7
  6
CONTINUOUS
 10
65.1646018366
 20
-90.925
 11
65.1646018366
 21
89.35
  0
LINE
  5
29D
100
AcDbEntity
  8
0
100
AcDbLine
 62
7
  6
CONTINUOUS
 10
66.2646018366
 20
-90.925
 11
66.2646018366
 21
89.325
  0
LINE
  5
29E
100
AcDbEntity
  8
RACCORDO
100
AcDbLine
 62
250
  6
CONTINUOUS
 10
61.9088029093
 20
-89.225
 11
61.9083589504
 21
-89.2758726535
  0
LINE
  5
29F
100
AcDbEntity
  8
RACCORDO
100
AcDbLine
 62
7
  6
CONTINUOUS
 10
62.0674337389
 20
-89.2758726535
 11
62.0678776979
 21
-89.225
  0
LINE
  5
2A0
100
AcDbEntity
  8
RACCORDO
100
AcDbLine
 62
250
  6
CONTINUOUS
 10
62.1674299313
 20
-89.2758726535
 11
62.1678738902
 21
-89.225
  0
LINE
  5
2A1
100
AcDbEntity
  8
ASSI
100
AcDbLine
 62
7
  6
CONTINUOUS
 10
-1.8498310734
 20
67.225
 11
1.8498310734
 21
67.225
  0
LINE
  5
2A2
100
AcDbEntity
  8
RACCORDO
100
AcDbLine
 62
7
  6
CONTINUOUS
 10
63.3235764328
 20
87.5089745962
 11
63.0589745962
 21
87.5089745962
  0
LINE
  5
2A3
100
AcDbEntity
  8
RACCORDO
100
AcDbLine
 62
7
  6
CONTINUOUS
 10
-63.0589745962
 20
87.5089745962
 11
-63.3235764328
 21
87.5089745962
  0
LINE
  5
2A4
100
AcDbEntity
  8
RACCORDO
100
AcDbLine
 62
250
  6
CONTINUOUS
 10
63.4235764328
 20
87.6089745962
 11
63.1589745962
 21
87.6089745962
  0
LINE
  5
2A5
100
AcDbEntity
  8
RACCORDO
100
AcDbLine
 62
250
  6
CONTINUOUS
 10
-63.1589745962
 20
87.6089745962
 11
-63.4235764328
 21
87.6089745962
  0
LINE
  5
2A6
100
AcDbEntity
  8
RACCORDO
100
AcDbLine
 62
7
  6
CONTINUOUS
 10
-62.25
 20
87.7
 11
62.25
 21
87.7
  0
LINE
  5
2A7
100
AcDbEntity
  8
RACCORDO
100
AcDbLine
 62
250
  6
CONTINUOUS
 10
64.0426363251
 20
88.2280344885
 11
63.7780344885
 21
88.2280344885
  0
LINE
  5
2A8
100
AcDbEntity
  8
RACCORDO
100
AcDbLine
 62
250
  6
CONTINUOUS
 10
-63.7780344885
 20
88.2280344885
 11
-64.0426363251
 21
88.2280344885
  0
LINE
  5
2A9
100
AcDbEntity
  8
RACCORDO
100
AcDbLine
 62
250
  6
CONTINUOUS
 10
64.1292388655
 20
88.3146370289
 11
63.8646370289
 21
88.3146370289
  0
LINE
  5
2AA
100
AcDbEntity
  8
RACCORDO
100
AcDbLine
 62
250
  6
CONTINUOUS
 10
-63.8646370289
 20
88.3146370289
 11
-64.1292388655
 21
88.3146370289
  0
LINE
  5
2AB
100
AcDbEntity
  8
0
100
AcDbLine
 62
7
  6
CONTINUOUS
 10
-63.975
 20
88.425
 11
63.975
 21
88.425
  0
LINE
  5
2AC
100
AcDbEntity
  8
0
100
AcDbLine
 62
250
  6
CONTINUOUS
 10
65.1646018366
 20
89.325
 11
66.2646018366
 21
89.325
  0
LINE
  5
2AD
100
AcDbEntity
  8
0
100
AcDbLine
 62
250
  6
CONTINUOUS
 10
-65.1646018366
 20
89.325
 11
-66.2646018366
 21
89.325
  0
LINE
  5
2AE
100
AcDbEntity
  8
0
100
AcDbLine
 62
7
  6
CONTINUOUS
 10
-65.375
 20
89.825
 11
65.375
 21
89.825
  0
LINE
  5
2AF
100
AcDbEntity
  8
0
100
AcDbLine
 62
7
  6
CONTINUOUS
 10
64.6646018366
 20
90.925
 11
-64.6646018366
 21
90.925
  0
ARC
  5
2B0
100
AcDbEntity
  8
RACCORDO
100
AcDbCircle
 62
250
  6
CONTINUOUS
 10
-32.65
 20
-82.15
 40
1.1
100
AcDbArc
 50
115.5782159302
 51
244.4218408587
  0
ARC
  5
2B1
100
AcDbEntity
  8
RACCORDO
100
AcDbCircle
 62
250
  6
CONTINUOUS
 10
-42.9
 20
-82.15
 40
1.1
100
AcDbArc
 50
114.816435896
 51
245.1835856701
  0
ARC
  5
2B2
100
AcDbEntity
  8
RACCORDO
100
AcDbCircle
 62
7
  6
CONTINUOUS
 10
-32.65
 20
-82.15
 40
1.0
100
AcDbArc
 50
100.020021732
 51
259.9799780854
  0
ARC
  5
2B3
100
AcDbEntity
  8
RACCORDO
100
AcDbCircle
 62
7
  6
CONTINUOUS
 10
-42.9
 20
-82.15
 40
1.0
100
AcDbArc
 50
101.4872899377
 51
258.5127101971
  0
CIRCLE
  5
2B4
100
AcDbEntity
  8
ASSI
100
AcDbCircle
 62
7
  6
CONTINUOUS
 10
-33.0
 20
-82.15
 40
1.0
  0
CIRCLE
  5
2B5
100
AcDbEntity
  8
ASSI
100
AcDbCircle
 62
7
  6
CONTINUOUS
 10
-43.3
 20
-82.15
 40
1.0
  0
ARC
  5
2B6
100
AcDbEntity
  8
RACCORDO
100
AcDbCircle
 62
250
  6
CONTINUOUS
 10
-65.0508289968
 20
-89.4762038088
 40
0.2003311592
100
AcDbArc
 50
90.0114065013
 51
96.6849939014
  0
ARC
  5
2B7
100
AcDbEntity
  8
RACCORDO
100
AcDbCircle
 62
250
  6
CONTINUOUS
 10
-65.0357047702
 20
-89.4751504168
 40
0.1151646684
100
AcDbArc
 50
175.1475595797
 51
179.4912999158
  0
ARC
  5
2B8
100
AcDbEntity
  8
RACCORDO
100
AcDbCircle
 62
7
  6
CONTINUOUS
 10
-45.0982392607
 20
-89.275
 40
0.1
100
AcDbArc
 50
179.0
 51
270.0
  0
ARC
  5
2B9
100
AcDbEntity
  8
RACCORDO
100
AcDbCircle
 62
7
  6
CONTINUOUS
 10
-30.4517607393
 20
-89.275
 40
0.1
100
AcDbArc
 50
270.0
 51
1.0
  0
ARC
  5
2BA
100
AcDbEntity
  8
RACCORDO
100
AcDbCircle
 62
7
  6
CONTINUOUS
 10
-45.3008688789
 20
-89.275
 40
0.1
100
AcDbArc
 50
180.5
 51
270.0
  0
ARC
  5
2BB
100
AcDbEntity
  8
RACCORDO
100
AcDbCircle
 62
7
  6
CONTINUOUS
 10
-30.2491311211
 20
-89.275
 40
0.1
100
AcDbArc
 50
270.0
 51
359.5
  0
ARC
  5
2BC
100
AcDbEntity
  8
RACCORDO
100
AcDbCircle
 62
7
  6
CONTINUOUS
 10
-24.0965688775
 20
-89.275
 40
0.1
100
AcDbArc
 50
270.0
 51
358.0
  0
ARC
  5
2BD
100
AcDbEntity
  8
RACCORDO
100
AcDbCircle
 62
7
  6
CONTINUOUS
 10
-22.9034311225
 20
-89.275
 40
0.1
100
AcDbArc
 50
182.0
 51
270.0
  0
ARC
  5
2BE
100
AcDbEntity
  8
RACCORDO
100
AcDbCircle
 62
7
  6
CONTINUOUS
 10
-65.0508688789
 20
-89.475
 40
0.1
100
AcDbArc
 50
90.0
 51
179.5
  0
ARC
  5
2BF
100
AcDbEntity
  8
RACCORDO
100
AcDbCircle
 62
7
  6
CONTINUOUS
 10
-61.9674375466
 20
-89.275
 40
0.1
100
AcDbArc
 50
180.5
 51
270.0
  0
ARC
  5
2C0
100
AcDbEntity
  8
0
100
AcDbCircle
 62
7
  6
CONTINUOUS
 10
-64.6646018366
 20
89.325
 40
1.6
100
AcDbArc
 50
90.0
 51
180.0
  0
CIRCLE
  5
2C1
100
AcDbEntity
  8
RACCORDO
100
AcDbCircle
 62
250
  6
CONTINUOUS
 10
-40.95
 20
80.6
 40
1.525
  0
CIRCLE
  5
2C2
100
AcDbEntity
  8
RACCORDO
100
AcDbCircle
 62
7
  6
CONTINUOUS
 10
-40.95
 20
80.6
 40
1.325
  0
ARC
  5
2C3
100
AcDbEntity
  8
RACCORDO
100
AcDbCircle
 62
7
  6
CONTINUOUS
 10
-62.25
 20
86.45
 40
1.25
100
AcDbArc
 50
90.0
 51
180.0
  0
CIRCLE
  5
2C4
100
AcDbEntity
  8
RACCORDO
100
AcDbCircle
 62
250
  6
CONTINUOUS
 10
-40.95
 20
80.6
 40
1.125
  0
ARC
  5
2C5
100
AcDbEntity
  8
0
100
AcDbCircle
 62
7
  6
CONTINUOUS
 10
-64.6646018366
 20
89.325
 40
0.5
100
AcDbArc
 50
90.0
 51
180.0
  0
ARC
  5
2C6
100
AcDbEntity
  8
RACCORDO
100
AcDbCircle
 62
7
  6
CONTINUOUS
 10
30.4517607393
 20
-89.275
 40
0.1
100
AcDbArc
 50
179.0
 51
270.0
  0
ARC
  5
2C7
100
AcDbEntity
  8
RACCORDO
100
AcDbCircle
 62
7
  6
CONTINUOUS
 10
22.9034311225
 20
-89.275
 40
0.1
100
AcDbArc
 50
270.0
 51
358.0
  0
ARC
  5
2C8
100
AcDbEntity
  8
RACCORDO
100
AcDbCircle
 62
7
  6
CONTINUOUS
 10
24.0965688775
 20
-89.275
 40
0.1
100
AcDbArc
 50
182.0
 51
270.0
  0
ARC
  5
2C9
100
AcDbEntity
  8
RACCORDO
100
AcDbCircle
 62
7
  6
CONTINUOUS
 10
30.2491311211
 20
-89.275
 40
0.1
100
AcDbArc
 50
180.5
 51
270.0
  0
CIRCLE
  5
2CA
100
AcDbEntity
  8
RACCORDO
100
AcDbCircle
 62
250
  6
CONTINUOUS
 10
-0.0
 20
-78.725
 40
1.525
  0
CIRCLE
  5
2CB
100
AcDbEntity
  8
RACCORDO
100
AcDbCircle
 62
7
  6
CONTINUOUS
 10
-0.0
 20
-78.725
 40
1.325
  0
CIRCLE
  5
2CC
100
AcDbEntity
  8
RACCORDO
100
AcDbCircle
 62
250
  6
CONTINUOUS
 10
-0.0
 20
-78.725
 40
1.125
  0
ARC
  5
2CD
100
AcDbEntity
  8
RACCORDO
100
AcDbCircle
 62
250
  6
CONTINUOUS
 10
65.0508207973
 20
-89.4762771299
 40
0.2004044822
100
AcDbArc
 50
83.315101674
 51
89.9862534274
  0
ARC
  5
2CE
100
AcDbEntity
  8
RACCORDO
100
AcDbCircle
 62
250
  6
CONTINUOUS
 10
65.0335911209
 20
-89.4752422335
 40
0.1172783632
100
AcDbArc
 50
0.3047290902
 51
2.8570081419
  0
ARC
  5
2CF
100
AcDbEntity
  8
RACCORDO
100
AcDbCircle
 62
7
  6
CONTINUOUS
 10
45.0982392607
 20
-89.275
 40
0.1
100
AcDbArc
 50
270.0
 51
1.0
  0
ARC
  5
2D0
100
AcDbEntity
  8
RACCORDO
100
AcDbCircle
 62
7
  6
CONTINUOUS
 10
45.3008688789
 20
-89.275
 40
0.1
100
AcDbArc
 50
270.0
 51
359.5
  0
ARC
  5
2D1
100
AcDbEntity
  8
RACCORDO
100
AcDbCircle
 62
7
  6
CONTINUOUS
 10
65.0508688789
 20
-89.475
 40
0.1
100
AcDbArc
 50
0.5
 51
90.0
  0
ARC
  5
2D2
100
AcDbEntity
  8
RACCORDO
100
AcDbCircle
 62
7
  6
CONTINUOUS
 10
61.9674375466
 20
-89.275
 40
0.1
100
AcDbArc
 50
270.0
 51
359.5
  0
ARC
  5
2D3
100
AcDbEntity
  8
RACCORDO
100
AcDbCircle
 62
7
  6
CONTINUOUS
 10
60.4491311211
 20
-89.275
 40
0.1
100
AcDbArc
 50
180.4999893159
 51
265.0267189872
  0
ARC
  5
2D4
100
AcDbEntity
  8
RACCORDO
100
AcDbCircle
 62
250
  6
CONTINUOUS
 10
42.9
 20
-82.15
 40
1.1
100
AcDbArc
 50
294.816435896
 51
65.18358567
  0
ARC
  5
2D5
100
AcDbEntity
  8
RACCORDO
100
AcDbCircle
 62
250
  6
CONTINUOUS
 10
32.65
 20
-82.15
 40
1.1
100
AcDbArc
 50
295.5782159301
 51
64.4218408587
  0
ARC
  5
2D6
100
AcDbEntity
  8
RACCORDO
100
AcDbCircle
 62
7
  6
CONTINUOUS
 10
42.9
 20
-82.15
 40
1.0
100
AcDbArc
 50
281.4872899377
 51
78.512710197
  0
ARC
  5
2D7
100
AcDbEntity
  8
RACCORDO
100
AcDbCircle
 62
7
  6
CONTINUOUS
 10
32.65
 20
-82.15
 40
1.0
100
AcDbArc
 50
280.020021732
 51
79.9799780853
  0
CIRCLE
  5
2D8
100
AcDbEntity
  8
ASSI
100
AcDbCircle
 62
7
  6
CONTINUOUS
 10
33.0
 20
-82.15
 40
1.0
  0
CIRCLE
  5
2D9
100
AcDbEntity
  8
ASSI
100
AcDbCircle
 62
7
  6
CONTINUOUS
 10
43.3
 20
-82.15
 40
1.0
  0
ARC
  5
2DA
100
AcDbEntity
  8
ASSI
100
AcDbCircle
 62
7
  6
CONTINUOUS
 10
-0.0
 20
71.6
 40
4.75
100
AcDbArc
 50
292.9195421516
 51
247.0804578484
  0
ARC
  5
2DB
100
AcDbEntity
  8
0
100
AcDbCircle
 62
7
  6
CONTINUOUS
 10
64.6646018366
 20
89.325
 40
1.6
100
AcDbArc
 50
0.0
 51
90.0
  0
CIRCLE
  5
2DC
100
AcDbEntity
  8
RACCORDO
100
AcDbCircle
 62
250
  6
CONTINUOUS
 10
40.95
 20
80.6
 40
1.525
  0
CIRCLE
  5
2DD
100
AcDbEntity
  8
RACCORDO
100
AcDbCircle
 62
7
  6
CONTINUOUS
 10
40.95
 20
80.6
 40
1.325
  0
ARC
  5
2DE
100
AcDbEntity
  8
RACCORDO
100
AcDbCircle
 62
7
  6
CONTINUOUS
 10
62.25
 20
86.45
 40
1.25
100
AcDbArc
 50
0.0
 51
90.0
  0
CIRCLE
  5
2DF
100
AcDbEntity
  8
RACCORDO
100
AcDbCircle
 62
250
  6
CONTINUOUS
 10
40.95
 20
80.6
 40
1.125
  0
ARC
  5
2E0
100
AcDbEntity
  8
0
100
AcDbCircle
 62
7
  6
CONTINUOUS
 10
64.6646018366
 20
89.325
 40
0.5
100
AcDbArc
 50
0.0
 51
90.0
  0
SPLINE
  5
2E1
100
AcDbEntity
  8
RACCORDO
100
AcDbSpline
 62
250
  6
CONTINUOUS
 70
0
 71
3
 72
16
 73
12
 74
0
 42
0.0000001
 43
0.0000001
 44
0.0000000001
 40
0.0
 40
0.0
 40
0.0
 40
0.0
 40
0.3826724558
 40
0.5555019285
 40
0.7069729919
 40
0.8313528884
 40
0.9237530142
 40
0.9568274598
 40
0.9806623325
 40
0.9950899106
 40
1.0
 40
1.0
 40
1.0
 40
1.0
 10
-65.0741496713
 20
-89.2772347701
 30
0.0
 10
-65.0837168213
 20
-89.2771507817
 30
0.0
 10
-65.0976069397
 20
-89.277049821
 30
0.0
 10
-65.1152779248
 20
-89.2769793646
 30
0.0
 10
-65.1265064475
 20
-89.2769519821
 30
0.0
 10
-65.1356837271
 20
-89.2769864868
 30
0.0
 10
-65.141995141
 20
-89.2769803671
 30
0.0
 10
-65.1456383725
 20
-89.2770972561
 30
0.0
 10
-65.1475714993
 20
-89.2770355061
 30
0.0
 10
-65.1483819995
 20
-89.27726658
 30
0.0
 10
-65.1491455247
 20
-89.2771120717
 30
0.0
 10
-65.1491468162
 20
-89.2772348262
 30
0.0
  0
LINE
  5
2E2
100
AcDbEntity
  8
RACCORDO
100
AcDbLine
 62
250
  6
CONTINUOUS
 10
-60.508807949
 20
-88.2999999821
 11
-60.5009793541
 21
-89.3749998918
  0
SPLINE
  5
2E3
100
AcDbEntity
  8
RACCORDO
100
AcDbSpline
 62
250
  6
CONTINUOUS
 70
0
 71
3
 72
16
 73
12
 74
0
 42
0.0000001
 43
0.0000001
 44
0.0000000001
 40
0.0
 40
0.0
 40
0.0
 40
0.0
 40
0.3826725867
 40
0.5555017718
 40
0.7069726012
 40
0.8313524665
 40
0.9237526528
 40
0.9568271871
 40
0.9806621782
 40
0.9950898799
 40
1.0
 40
1.0
 40
1.0
 40
1.0
 10
65.0741496748
 20
-89.2772351596
 30
0.0
 10
65.0837168276
 20
-89.2771514843
 30
0.0
 10
65.0976069385
 20
-89.2770508019
 30
0.0
 10
65.1152779083
 20
-89.2769801934
 30
0.0
 10
65.1265064112
 20
-89.276952725
 30
0.0
 10
65.1356836889
 20
-89.2769871894
 30
0.0
 10
65.1419950907
 20
-89.2769809739
 30
0.0
 10
65.1456383468
 20
-89.2770978272
 30
0.0
 10
65.1475714529
 20
-89.2770359486
 30
0.0
 10
65.148382014
 20
-89.2772670886
 30
0.0
 10
65.1491454921
 20
-89.2771123928
 30
0.0
 10
65.149146819
 20
-89.2772351477
 30
0.0
  0
SPLINE
  5
2E4
100
AcDbEntity
  8
RACCORDO
100
AcDbSpline
 62
250
  6
CONTINUOUS
 70
0
 71
3
 72
18
 73
14
 74
0
 42
0.0000001
 43
0.0000001
 44
0.0000000001
 40
0.0
 40
0.0
 40
0.0
 40
0.0
 40
0.0048822204
 40
0.0192835932
 40
0.0431287051
 40
0.0761824385
 40
0.118132039
 40
0.1685796879
 40
0.2929289233
 40
0.4444621274
 40
0.617326781
 40
0.8049405932
 40
1.0
 40
1.0
 40
1.0
 40
1.0
 10
-62.0674337389
 20
-89.2758726535
 30
0.0
 10
-62.0674329909
 20
-89.2760354046
 30
0.0
 10
-62.0684537921
 20
-89.2758307564
 30
0.0
 10
-62.0695274087
 20
-89.2761385796
 30
0.0
 10
-62.0721085941
 20
-89.2760548628
 30
0.0
 10
-62.0753140523
 20
-89.276164371
 30
0.0
 10
-62.0795299152
 20
-89.276179798
 30
0.0
 10
-62.0867395409
 20
-89.2762307235
 30
0.0
 10
-62.0976279103
 20
-89.2762392381
 30
0.0
 10
-62.1125832172
 20
-89.2762153895
 30
0.0
 10
-62.1296527301
 20
-89.276143304
 30
0.0
 10
-62.1481712863
 20
-89.2760301666
 30
0.0
 10
-62.1609277107
 20
-89.2759290304
 30
0.0
 10
-62.1674299292
 20
-89.2758726536
 30
0.0
  0
SPLINE
  5
2E5
100
AcDbEntity
  8
RACCORDO
100
AcDbSpline
 62
250
  6
CONTINUOUS
 70
0
 71
3
 72
18
 73
14
 74
0
 42
0.0000001
 43
0.0000001
 44
0.0000000001
 40
0.0
 40
0.0
 40
0.0
 40
0.0
 40
0.1950594058
 40
0.3826732175
 40
0.5555378711
 40
0.7070710755
 40
0.831420311
 40
0.8818679601
 40
0.9238175615
 40
0.9568712956
 40
0.9807164056
 40
0.9951177754
 40
1.0
 40
1.0
 40
1.0
 40
1.0
 10
62.1674299313
 20
-89.2758726535
 30
0.0
 10
62.1609277126
 20
-89.2759290299
 30
0.0
 10
62.148171288
 20
-89.2760301667
 30
0.0
 10
62.1296527314
 20
-89.276143304
 30
0.0
 10
62.1125832182
 20
-89.2762153895
 30
0.0
 10
62.097627911
 20
-89.2762392381
 30
0.0
 10
62.0867395415
 20
-89.2762307235
 30
0.0
 10
62.0795299154
 20
-89.276179798
 30
0.0
 10
62.0753140527
 20
-89.276164371
 30
0.0
 10
62.0721085934
 20
-89.2760548628
 30
0.0
 10
62.0695274108
 20
-89.2761385795
 30
0.0
 10
62.0684537894
 20
-89.2758307567
 30
0.0
 10
62.0674329929
 20
-89.2760354047
 30
0.0
 10
62.0674337389
 20
-89.2758726535
 30
0.0
  0
SPLINE
  5
2E6
100
AcDbEntity
  8
RACCORDO
100
AcDbSpline
 62
250
  6
CONTINUOUS
 70
0
 71
3
 72
22
 73
18
 74
0
 42
0.0000001
 43
0.0000001
 44
0.0000000001
 40
0.0
 40
0.0
 40
0.0
 40
0.0
 40
0.0012100204
 40
0.0048228537
 40
0.0108300224
 40
0.0192213651
 40
0.0299774252
 40
0.0430681361
 40
0.0761285549
 40
0.1180862569
 40
0.1685383217
 40
0.2269954292
 40
0.292900339
 40
0.4444343761
 40
0.617322576
 40
0.8049055453
 40
1.0
 40
1.0
 40
1.0
 40
1.0
 10
-65.1508650712
 20
-89.4741273464
 30
0.0
 10
-65.1508618765
 20
-89.4739257082
 30
0.0
 10
-65.149579648
 20
-89.4743180865
 30
0.0
 10
-65.1482361027
 20
-89.4738792671
 30
0.0
 10
-65.1449723416
 20
-89.4740754917
 30
0.0
 10
-65.1408956985
 20
-89.473940603
 30
0.0
 10
-65.1354783809
 20
-89.4739484101
 30
0.0
 10
-65.1260153286
 20
-89.4738876509
 30
0.0
 10
-65.1113173844
 20
-89.4738567386
 30
0.0
 10
-65.0904122773
 20
-89.4738127002
 30
0.0
 10
-65.065266553
 20
-89.4737865327
 30
0.0
 10
-65.0361325139
 20
-89.4737690859
 30
0.0
 10
-64.99015105
 20
-89.4737620477
 30
0.0
 10
-64.9250988044
 20
-89.473785288
 30
0.0
 10
-64.8397673431
 20
-89.4738564694
 30
0.0
 10
-64.7471761695
 20
-89.4739700989
 30
0.0
 10
-64.6833987455
 20
-89.4740705574
 30
0.0
 10
-64.6508841097
 20
-89.4741273464
 30
0.0
  0
SPLINE
  5
2E7
100
AcDbEntity
  8
RACCORDO
100
AcDbSpline
 62
250
  6
CONTINUOUS
 70
0
 71
3
 72
22
 73
18
 74
0
 42
0.0000001
 43
0.0000001
 44
0.0000000001
 40
0.0
 40
0.0
 40
0.0
 40
0.0
 40
0.1950944527
 40
0.3826774977
 40
0.5555657075
 40
0.7070997353
 40
0.7730046377
 40
0.8314617335
 40
0.8819137884
 40
0.9238714733
 40
0.9569318793
 40
0.9700225824
 40
0.9807786356
 40
0.9891699746
 40
0.9951771436
 40
0.9987899787
 40
1.0
 40
1.0
 40
1.0
 40
1.0
 10
64.6508841097
 20
-89.4741273464
 30
0.0
 10
64.6833987451
 20
-89.4740705574
 30
0.0
 10
64.7471761815
 20
-89.4739700989
 30
0.0
 10
64.839767369
 20
-89.4738564693
 30
0.0
 10
64.925098843
 20
-89.4737852879
 30
0.0
 10
64.9901510875
 20
-89.4737620477
 30
0.0
 10
65.0361325466
 20
-89.4737690859
 30
0.0
 10
65.0652665809
 20
-89.4737865327
 30
0.0
 10
65.0904122987
 20
-89.4738127002
 30
0.0
 10
65.1113173992
 20
-89.4738567387
 30
0.0
 10
65.1260153371
 20
-89.473887651
 30
0.0
 10
65.1354783848
 20
-89.4739484101
 30
0.0
 10
65.1408956995
 20
-89.4739406031
 30
0.0
 10
65.1449723405
 20
-89.4740754917
 30
0.0
 10
65.1482361024
 20
-89.4738792671
 30
0.0
 10
65.149579646
 20
-89.4743180867
 30
0.0
 10
65.1508618774
 20
-89.4739257081
 30
0.0
 10
65.1508650712
 20
-89.4741273464
 30
0.0
  0
LINE
  5
2E8
100
AcDbEntity
  8
RACCORDO
100
AcDbLine
 62
250
  6
CONTINUOUS
 10
-60.6085028174
 20
-88.3000000254
 11
-60.6005477704
 21
-89.3749998867
  0
SPLINE
  5
2E9
100
AcDbEntity
  8
RACCORDO
100
AcDbSpline
 62
250
  6
CONTINUOUS
 70
0
 71
3
 72
18
 73
14
 74
0
 42
0.0000001
 43
0.0000001
 44
0.0000000001
 40
0.0
 40
0.0
 40
0.0
 40
0.0
 40
0.1950697883
 40
0.3826435795
 40
0.5555184436
 40
0.7070438018
 40
0.8313941455
 40
0.8818389484
 40
0.9237981417
 40
0.9568571724
 40
0.9807108275
 40
0.995117852
 40
1.0
 40
1.0
 40
1.0
 40
1.0
 10
-30.0491387361
 20
-89.2758726124
 30
0.0
 10
-30.055641301
 20
-89.2759290824
 30
0.0
 10
-30.0683967396
 20
-89.2760302426
 30
0.0
 10
-30.0869146521
 20
-89.2761431707
 30
0.0
 10
-30.1039829126
 20
-89.2762154949
 30
0.0
 10
-30.1189383356
 20
-89.2762391618
 30
0.0
 10
-30.1298263934
 20
-89.2762307939
 30
0.0
 10
-30.1370362724
 20
-89.2761798381
 30
0.0
 10
-30.1412525661
 20
-89.276164354
 30
0.0
 10
-30.1444587238
 20
-89.276054858
 30
0.0
 10
-30.1470407795
 20
-89.2761386015
 30
0.0
 10
-30.1481144662
 20
-89.2758308959
 30
0.0
 10
-30.1491358003
 20
-89.2760353502
 30
0.0
 10
-30.1491349283
 20
-89.2758726022
 30
0.0
  0
SPLINE
  5
2EA
100
AcDbEntity
  8
RACCORDO
100
AcDbSpline
 62
250
  6
CONTINUOUS
 70
0
 71
3
 72
18
 73
14
 74
0
 42
0.0000001
 43
0.0000001
 44
0.0000000001
 40
0.0
 40
0.0
 40
0.0
 40
0.0
 40
0.0048786299
 40
0.0192803241
 40
0.0431235452
 40
0.0761711182
 40
0.1181204324
 40
0.1685564771
 40
0.2928950519
 40
0.4444087988
 40
0.6172802154
 40
0.8048932487
 40
1.0
 40
1.0
 40
1.0
 40
1.0
 10
30.1491349284
 20
-89.2758726124
 30
0.0
 10
30.1491359109
 20
-89.2760352426
 30
0.0
 10
30.1481148294
 20
-89.275831096
 30
0.0
 10
30.1470418761
 20
-89.2761384599
 30
0.0
 10
30.1444606712
 20
-89.2760548248
 30
0.0
 10
30.1412556058
 20
-89.2761642865
 30
0.0
 10
30.1370402982
 20
-89.2761798274
 30
0.0
 10
30.1298314422
 20
-89.276230776
 30
0.0
 10
30.1189444482
 20
-89.2762391682
 30
0.0
 10
30.1039899213
 20
-89.2762154993
 30
0.0
 10
30.0869208521
 20
-89.2761432382
 30
0.0
 10
30.0684005135
 20
-89.2760302615
 30
0.0
 10
30.0556425339
 20
-89.2759290434
 30
0.0
 10
30.049138736
 20
-89.2758726022
 30
0.0
  0
SPLINE
  5
2EB
100
AcDbEntity
  8
RACCORDO
100
AcDbSpline
 62
250
  6
CONTINUOUS
 70
0
 71
3
 72
18
 73
14
 74
0
 42
0.0000001
 43
0.0000001
 44
0.0000000001
 40
0.0
 40
0.0
 40
0.0
 40
0.0
 40
0.0048785552
 40
0.019280041
 40
0.0431229275
 40
0.0761700596
 40
0.1181188511
 40
0.1685543254
 40
0.2928917741
 40
0.4444047318
 40
0.6172761254
 40
0.804890368
 40
1.0
 40
1.0
 40
1.0
 40
1.0
 10
-45.4008650716
 20
-89.2758726125
 30
0.0
 10
-45.4008640892
 20
-89.2760352313
 30
0.0
 10
-45.4018851013
 20
-89.2758310951
 30
0.0
 10
-45.4029579808
 20
-89.2761384391
 30
0.0
 10
-45.4055390114
 20
-89.2760548068
 30
0.0
 10
-45.4087438618
 20
-89.2761642606
 30
0.0
 10
-45.4129588908
 20
-89.2761797991
 30
0.0
 10
-45.4201672845
 20
-89.2762307433
 30
0.0
 10
-45.4310536091
 20
-89.2762391344
 30
0.0
 10
-45.4460072655
 20
-89.2762154677
 30
0.0
 10
-45.4630754282
 20
-89.2761432133
 30
0.0
 10
-45.4815949045
 20
-89.2760302468
 30
0.0
 10
-45.494352333
 20
-89.2759290382
 30
0.0
 10
-45.5008558765
 20
-89.2758726022
 30
0.0
  0
SPLINE
  5
2EC
100
AcDbEntity
  8
RACCORDO
100
AcDbSpline
 62
250
  6
CONTINUOUS
 70
0
 71
3
 72
18
 73
14
 74
0
 42
0.0000001
 43
0.0000001
 44
0.0000000001
 40
0.0
 40
0.0
 40
0.0
 40
0.0
 40
0.1950726565
 40
0.3826476479
 40
0.5555224916
 40
0.7070470636
 40
0.8313962845
 40
0.8818405193
 40
0.923799192
 40
0.9568577848
 40
0.9807111076
 40
0.9951179253
 40
1.0
 40
1.0
 40
1.0
 40
1.0
 10
45.5008558764
 20
-89.2758726125
 30
0.0
 10
45.4943535662
 20
-89.2759290772
 30
0.0
 10
45.4815986793
 20
-89.2760302279
 30
0.0
 10
45.4630816296
 20
-89.2761431458
 30
0.0
 10
45.4460142758
 20
-89.2762154634
 30
0.0
 10
45.4310597229
 20
-89.276239128
 30
0.0
 10
45.4201723344
 20
-89.2762307613
 30
0.0
 10
45.4129629175
 20
-89.2761798098
 30
0.0
 10
45.4087469022
 20
-89.276164328
 30
0.0
 10
45.4055409593
 20
-89.2760548401
 30
0.0
 10
45.4029590777
 20
-89.2761385807
 30
0.0
 10
45.4018854647
 20
-89.2758308949
 30
0.0
 10
45.4008641997
 20
-89.276035339
 30
0.0
 10
45.4008650717
 20
-89.2758726022
 30
0.0
  0
SPLINE
  5
2ED
100
AcDbEntity
  8
RACCORDO
100
AcDbSpline
 62
250
  6
CONTINUOUS
 70
0
 71
3
 72
10
 73
6
 74
0
 42
0.0000001
 43
0.0000001
 44
0.0000000001
 40
0.0
 40
0.0
 40
0.0
 40
0.0
 40
0.2746872179
 40
0.6571676113
 40
1.0
 40
1.0
 40
1.0
 40
1.0
 10
-65.0741425937
 20
-89.2772339205
 30
0.0
 10
-65.0749740283
 20
-89.2854892442
 30
0.0
 10
-65.0773704107
 20
-89.3051842736
 30
0.0
 10
-65.0832387834
 20
-89.3349700788
 30
0.0
 10
-65.0927522499
 20
-89.3550436228
 30
0.0
 10
-65.0984123941
 20
-89.3637153093
 30
0.0
  0
SPLINE
  5
2EE
100
AcDbEntity
  8
RACCORDO
100
AcDbSpline
 62
250
  6
CONTINUOUS
 70
0
 71
3
 72
9
 73
5
 74
0
 42
0.0000001
 43
0.0000001
 44
0.0000000001
 40
0.0
 40
0.0
 40
0.0
 40
0.0
 40
0.4829531473
 40
1.0
 40
1.0
 40
1.0
 40
1.0
 10
-65.0984123941
 20
-89.3637153093
 30
0.0
 10
-65.1085757991
 20
-89.3792862663
 30
0.0
 10
-65.1349342933
 20
-89.4076370053
 30
0.0
 10
-65.1487763181
 20
-89.4455727065
 30
0.0
 10
-65.1504566718
 20
-89.465408654
 30
0.0
  0
SPLINE
  5
2EF
100
AcDbEntity
  8
RACCORDO
100
AcDbSpline
 62
250
  6
CONTINUOUS
 70
0
 71
3
 72
10
 73
6
 74
0
 42
0.0000001
 43
0.0000001
 44
0.0000000001
 40
0.0
 40
0.0
 40
0.0
 40
0.0
 40
0.5155256541
 40
0.7643354877
 40
1.0
 40
1.0
 40
1.0
 40
1.0
 10
65.1507237116
 20
-89.469396665
 30
0.0
 10
65.1497335376
 20
-89.449558996
 30
0.0
 10
65.1400123951
 20
-89.4201993814
 30
0.0
 10
65.1175684625
 20
-89.3889152674
 30
0.0
 10
65.1057338588
 20
-89.3744397619
 30
0.0
 10
65.1005841304
 20
-89.3669616251
 30
0.0
  0
SPLINE
  5
2F0
100
AcDbEntity
  8
RACCORDO
100
AcDbSpline
 62
250
  6
CONTINUOUS
 70
0
 71
3
 72
10
 73
6
 74
0
 42
0.0000001
 43
0.0000001
 44
0.0000000001
 40
0.0
 40
0.0
 40
0.0
 40
0.0
 40
0.2264648336
 40
0.4649226018
 40
1.0
 40
1.0
 40
1.0
 40
1.0
 10
65.1005841304
 20
-89.3669616251
 30
0.0
 10
65.0965360889
 20
-89.3610832942
 30
0.0
 10
65.0890460425
 20
-89.3483741509
 30
0.0
 10
65.0789233721
 20
-89.3183534988
 30
0.0
 10
65.0758414312
 20
-89.2940132277
 30
0.0
 10
65.0741475033
 20
-89.2772348793
 30
0.0
  0
SPLINE
  5
2F1
100
AcDbEntity
  8
RACCORDO
100
AcDbSpline
 62
250
  6
CONTINUOUS
 70
0
 71
3
 72
11
 73
7
 74
0
 42
0.0000001
 43
0.0000001
 44
0.0000000001
 40
0.0
 40
0.0
 40
0.0
 40
0.0
 40
0.3052366986
 40
0.5813615685
 40
0.8106592419
 40
1.0
 40
1.0
 40
1.0
 40
1.0
 10
61.9083589504
 20
-89.2758726535
 30
0.0
 10
61.908424702
 20
-89.2886253163
 30
0.0
 10
61.911241848
 20
-89.3130215796
 30
0.0
 10
61.9233364624
 20
-89.3450456067
 30
0.0
 10
61.9419597616
 20
-89.3683318257
 30
0.0
 10
61.9595268631
 20
-89.375
 30
0.0
 10
61.9674375466
 20
-89.375
 30
0.0
  0
SPLINE
  5
2F2
100
AcDbEntity
  8
RACCORDO
100
AcDbSpline
 62
250
  6
CONTINUOUS
 70
0
 71
3
 72
11
 73
7
 74
0
 42
0.0000001
 43
0.0000001
 44
0.0000000001
 40
0.0
 40
0.0
 40
0.0
 40
0.0
 40
0.3009901471
 40
0.5760218865
 40
0.8082788578
 40
1.0
 40
1.0
 40
1.0
 40
1.0
 10
60.3900525248
 20
-89.2758726535
 30
0.0
 10
60.390114791
 20
-89.2879493161
 30
0.0
 10
60.3926619374
 20
-89.3111448223
 30
0.0
 10
60.4036078727
 20
-89.342015194
 30
0.0
 10
60.420417679
 20
-89.3651647992
 30
0.0
 10
60.4363994596
 20
-89.3734973713
 30
0.0
 10
60.4440094307
 20
-89.374621512
 30
0.0
  0
SPLINE
  5
2F3
100
AcDbEntity
  8
RACCORDO
100
AcDbSpline
 62
7
  6
CONTINUOUS
 70
0
 71
3
 72
10
 73
6
 74
0
 42
0.0000001
 43
0.0000001
 44
0.0000000001
 40
0.0
 40
0.0
 40
0.0
 40
0.0
 40
0.2497128497
 40
0.4998276051
 40
1.0
 40
1.0
 40
1.0
 40
1.0
 10
60.4233162114
 20
-89.3749999999
 30
0.0
 10
60.4060967217
 20
-89.3749993447
 30
0.0
 10
60.3714656432
 20
-89.36809291
 30
0.0
 10
60.3102974783
 20
-89.3348543617
 30
0.0
 10
60.2734744086
 20
-89.2976502827
 30
0.0
 10
60.2490930444
 20
-89.2732547594
 30
0.0
  0
SPLINE
  5
2F4
100
AcDbEntity
  8
RACCORDO
100
AcDbSpline
 62
250
  6
CONTINUOUS
 70
0
 71
3
 72
17
 73
13
 74
0
 42
0.0000001
 43
0.0000001
 44
0.0000000001
 40
0.0
 40
0.0
 40
0.0
 40
0.0
 40
0.0049248701
 40
0.0193793931
 40
0.0432757589
 40
0.0763725655
 40
0.118365716
 40
0.168836102
 40
0.2932100098
 40
0.4447116895
 40
0.6175231808
 40
1.0
 40
1.0
 40
1.0
 40
1.0
 10
58.6538313204
 20
-89.2732547594
 30
0.0
 10
58.653828659
 20
-89.2734191085
 30
0.0
 10
58.6528144624
 20
-89.2732381871
 30
0.0
 10
58.6517266259
 20
-89.2735762882
 30
0.0
 10
58.649145801
 20
-89.2735592199
 30
0.0
 10
58.6459315591
 20
-89.2737531812
 30
0.0
 10
58.6417105186
 20
-89.2738789618
 30
0.0
 10
58.6344922626
 20
-89.2741187013
 30
0.0
 10
58.6235947954
 20
-89.2744120783
 30
0.0
 10
58.6086278951
 20
-89.2747798594
 30
0.0
 10
58.5850423674
 20
-89.2752969555
 30
0.0
 10
58.5665132447
 20
-89.2756502853
 30
0.0
 10
58.5537497724
 20
-89.2758726535
 30
0.0
  0
SPLINE
  5
2F5
100
AcDbEntity
  8
RACCORDO
100
AcDbSpline
 62
250
  6
CONTINUOUS
 70
0
 71
3
 72
17
 73
13
 74
0
 42
0.0000001
 43
0.0000001
 44
0.0000000001
 40
0.0
 40
0.0
 40
0.0
 40
0.0
 40
0.3824725405
 40
0.5552855261
 40
0.7067882529
 40
0.8311629947
 40
0.8816336888
 40
0.9236270348
 40
0.9567238655
 40
0.9806206396
 40
0.9950757865
 40
1.0
 40
1.0
 40
1.0
 40
1.0
 10
-58.5537497724
 20
-89.2758726535
 30
0.0
 10
-58.5665131026
 20
-89.2756502438
 30
0.0
 10
-58.5850421329
 20
-89.2752969302
 30
0.0
 10
-58.6086276055
 20
-89.2747796451
 30
0.0
 10
-58.623594611
 20
-89.2744119394
 30
0.0
 10
-58.6344921796
 20
-89.2741185608
 30
0.0
 10
-58.6417104396
 20
-89.2738788805
 30
0.0
 10
-58.6459315923
 20
-89.2737531058
 30
0.0
 10
-58.6491456114
 20
-89.2735592268
 30
0.0
 10
-58.6517270374
 20
-89.2735761458
 30
0.0
 10
-58.6528138891
 20
-89.2732384583
 30
0.0
 10
-58.6538291158
 20
-89.2734190934
 30
0.0
 10
-58.6538313204
 20
-89.2732547594
 30
0.0
  0
SPLINE
  5
2F6
100
AcDbEntity
  8
RACCORDO
100
AcDbSpline
 62
250
  6
CONTINUOUS
 70
0
 71
3
 72
16
 73
12
 74
0
 42
0.0000001
 43
0.0000001
 44
0.0000000001
 40
0.0
 40
0.0
 40
0.0
 40
0.0
 40
0.0051384273
 40
0.0196456987
 40
0.0435539869
 40
0.0766408869
 40
0.1690442655
 40
0.2933397168
 40
0.4447724304
 40
0.6175409454
 40
1.0
 40
1.0
 40
1.0
 40
1.0
 10
60.3491349288
 20
-89.2758726535
 30
0.0
 10
60.3491327658
 20
-89.2757011806
 30
0.0
 10
60.3481504805
 20
-89.2757124646
 30
0.0
 10
60.3470196755
 20
-89.2754247576
 30
0.0
 10
60.3444647421
 20
-89.275322135
 30
0.0
 10
60.3395901775
 20
-89.2750033885
 30
0.0
 10
60.3311847511
 20
-89.2747131498
 30
0.0
 10
60.3189386004
 20
-89.2743406216
 30
0.0
 10
60.3039620671
 20
-89.2740079657
 30
0.0
 10
60.2803873731
 20
-89.2735856113
 30
0.0
 10
60.2618565011
 20
-89.2733658875
 30
0.0
 10
60.2490930444
 20
-89.2732547594
 30
0.0
  0
SPLINE
  5
2F7
100
AcDbEntity
  8
RACCORDO
100
AcDbSpline
 62
250
  6
CONTINUOUS
 70
0
 71
3
 72
14
 73
10
 74
0
 42
0.0000001
 43
0.0000001
 44
0.0000000001
 40
0.0
 40
0.0
 40
0.0
 40
0.0
 40
0.4188847388
 40
0.591292015
 40
0.7356557877
 40
0.8500459607
 40
0.9329523162
 40
0.9831314751
 40
1.0
 40
1.0
 40
1.0
 40
1.0
 10
60.3900525248
 20
-89.2758726535
 30
0.0
 10
60.3843390701
 20
-89.275903995
 30
0.0
 10
60.3762640652
 20
-89.2759516288
 30
0.0
 10
60.36625238
 20
-89.2759617005
 30
0.0
 10
60.3603227531
 20
-89.2760119369
 30
0.0
 10
60.3557912105
 20
-89.2758949293
 30
0.0
 10
60.3521190039
 20
-89.2761369967
 30
0.0
 10
60.3506003922
 20
-89.2756525614
 30
0.0
 10
60.3491369366
 20
-89.2761027296
 30
0.0
 10
60.3491349288
 20
-89.2758726535
 30
0.0
  0
SPLINE
  5
2F8
100
AcDbEntity
  8
RACCORDO
100
AcDbSpline
 62
250
  6
CONTINUOUS
 70
0
 71
3
 72
17
 73
13
 74
0
 42
0.0000001
 43
0.0000001
 44
0.0000000001
 40
0.0
 40
0.0
 40
0.0
 40
0.0
 40
0.3826589801
 40
0.5554821591
 40
0.7070115937
 40
0.8313571502
 40
0.8818069928
 40
0.9237561004
 40
0.9568310368
 40
0.9806817006
 40
0.9950998137
 40
1.0
 40
1.0
 40
1.0
 40
1.0
 10
30.2491311211
 20
-89.2758726535
 30
0.0
 10
30.2363753638
 20
-89.2759839629
 30
0.0
 10
30.2178590279
 20
-89.2761157227
 30
0.0
 10
30.1942887576
 20
-89.2762154599
 30
0.0
 10
30.1793350032
 20
-89.2762392052
 30
0.0
 10
30.168446961
 20
-89.2762307062
 30
0.0
 10
30.1612371729
 20
-89.2761798903
 30
0.0
 10
30.15702104
 20
-89.2761643412
 30
0.0
 10
30.1538134574
 20
-89.2760547697
 30
0.0
 10
30.1512336843
 20
-89.2761384421
 30
0.0
 10
30.1501539563
 20
-89.2758305479
 30
0.0
 10
30.1491363542
 20
-89.276035999
 30
0.0
 10
30.1491349288
 20
-89.2758726535
 30
0.0
  0
SPLINE
  5
2F9
100
AcDbEntity
  8
RACCORDO
100
AcDbSpline
 62
250
  6
CONTINUOUS
 70
0
 71
3
 72
17
 73
13
 74
0
 42
0.0000001
 43
0.0000001
 44
0.0000000001
 40
0.0
 40
0.0
 40
0.0
 40
0.0
 40
0.0049001863
 40
0.0193182994
 40
0.0431689632
 40
0.0762438996
 40
0.1181930072
 40
0.1686428498
 40
0.2929884063
 40
0.4445178409
 40
0.6173410199
 40
1.0
 40
1.0
 40
1.0
 40
1.0
 10
-30.1491349288
 20
-89.2758726535
 30
0.0
 10
-30.1491363542
 20
-89.276035999
 30
0.0
 10
-30.1501539563
 20
-89.2758305479
 30
0.0
 10
-30.1512336843
 20
-89.2761384421
 30
0.0
 10
-30.1538134574
 20
-89.2760547697
 30
0.0
 10
-30.15702104
 20
-89.2761643412
 30
0.0
 10
-30.1612371729
 20
-89.2761798903
 30
0.0
 10
-30.168446961
 20
-89.2762307062
 30
0.0
 10
-30.1793350032
 20
-89.2762392052
 30
0.0
 10
-30.1942887576
 20
-89.2762154599
 30
0.0
 10
-30.2178590279
 20
-89.2761157227
 30
0.0
 10
-30.2363753638
 20
-89.2759839629
 30
0.0
 10
-30.2491311211
 20
-89.2758726535
 30
0.0
  0
SPLINE
  5
2FA
100
AcDbEntity
  8
RACCORDO
100
AcDbSpline
 62
250
  6
CONTINUOUS
 70
0
 71
3
 72
17
 73
13
 74
0
 42
0.0000001
 43
0.0000001
 44
0.0000000001
 40
0.0
 40
0.0
 40
0.0
 40
0.0
 40
0.3826589801
 40
0.5554821591
 40
0.7070115937
 40
0.8313571502
 40
0.8818069928
 40
0.9237561004
 40
0.9568310368
 40
0.9806817006
 40
0.9950998137
 40
1.0
 40
1.0
 40
1.0
 40
1.0
 10
-45.3008688789
 20
-89.2758726535
 30
0.0
 10
-45.3136246362
 20
-89.2759839629
 30
0.0
 10
-45.3321409721
 20
-89.2761157227
 30
0.0
 10
-45.3557112424
 20
-89.2762154599
 30
0.0
 10
-45.3706649968
 20
-89.2762392052
 30
0.0
 10
-45.381553039
 20
-89.2762307062
 30
0.0
 10
-45.3887628271
 20
-89.2761798903
 30
0.0
 10
-45.39297896
 20
-89.2761643412
 30
0.0
 10
-45.3961865426
 20
-89.2760547697
 30
0.0
 10
-45.3987663157
 20
-89.2761384421
 30
0.0
 10
-45.3998460437
 20
-89.2758305479
 30
0.0
 10
-45.4008636458
 20
-89.276035999
 30
0.0
 10
-45.4008650712
 20
-89.2758726535
 30
0.0
  0
SPLINE
  5
2FB
100
AcDbEntity
  8
RACCORDO
100
AcDbSpline
 62
250
  6
CONTINUOUS
 70
0
 71
3
 72
17
 73
13
 74
0
 42
0.0000001
 43
0.0000001
 44
0.0000000001
 40
0.0
 40
0.0
 40
0.0
 40
0.0
 40
0.0061336599
 40
0.0239141599
 40
0.0531204395
 40
0.0932021424
 40
0.1434117161
 40
0.2028025874
 40
0.3444772915
 40
0.5075598705
 40
0.6797774363
 40
1.0
 40
1.0
 40
1.0
 40
1.0
 10
62.0674337389
 20
-89.2758726535
 30
0.0
 10
62.0674308999
 20
-89.2761979766
 30
0.0
 10
62.0654565597
 20
-89.2759424752
 30
0.0
 10
62.0633177828
 20
-89.2765030961
 30
0.0
 10
62.058325972
 20
-89.2764514915
 30
0.0
 10
62.0521511978
 20
-89.2766896777
 30
0.0
 10
62.0441522028
 20
-89.2767719494
 30
0.0
 10
62.0308518021
 20
-89.2769087513
 30
0.0
 10
62.0115206605
 20
-89.2769484705
 30
0.0
 10
61.9862275894
 20
-89.276876159
 30
0.0
 10
61.9514568656
 20
-89.2766013453
 30
0.0
 10
61.9253400149
 20
-89.276234743
 30
0.0
 10
61.9083589504
 20
-89.2758726535
 30
0.0
  0
SPLINE
  5
2FC
100
AcDbEntity
  8
RACCORDO
100
AcDbSpline
 62
250
  6
CONTINUOUS
 70
0
 71
3
 72
17
 73
13
 74
0
 42
0.0000001
 43
0.0000001
 44
0.0000000001
 40
0.0
 40
0.0
 40
0.0
 40
0.0
 40
0.0048998159
 40
0.0193170281
 40
0.0431662689
 40
0.0762393296
 40
0.1181862288
 40
0.1686336586
 40
0.2929744661
 40
0.4445005866
 40
0.6173237159
 40
1.0
 40
1.0
 40
1.0
 40
1.0
 10
-23.9966297948
 20
-89.2784899497
 30
0.0
 10
-23.9966354939
 20
-89.2786531521
 30
0.0
 10
-23.9976470825
 20
-89.2784211212
 30
0.0
 10
-23.9987341731
 20
-89.2787005878
 30
0.0
 10
-24.0013101377
 20
-89.2785493942
 30
0.0
 10
-24.004518574
 20
-89.2785749376
 30
0.0
 10
-24.0087324882
 20
-89.2784801069
 30
0.0
 10
-24.0159391754
 20
-89.2783421745
 30
0.0
 10
-24.0268208714
 20
-89.2780656853
 30
0.0
 10
-24.0417651923
 20
-89.2776505756
 30
0.0
 10
-24.0653198542
 20
-89.2769340039
 30
0.0
 10
-24.0838227414
 20
-89.2763177245
 30
0.0
 10
-24.0965688775
 20
-89.2758726535
 30
0.0
  0
SPLINE
  5
2FD
100
AcDbEntity
  8
RACCORDO
100
AcDbSpline
 62
250
  6
CONTINUOUS
 70
0
 71
3
 72
17
 73
13
 74
0
 42
0.0000001
 43
0.0000001
 44
0.0000000001
 40
0.0
 40
0.0
 40
0.0
 40
0.0
 40
0.3826762841
 40
0.5554994134
 40
0.7070255339
 40
0.8313663414
 40
0.8818137712
 40
0.9237606704
 40
0.9568337311
 40
0.9806829719
 40
0.9951001841
 40
1.0
 40
1.0
 40
1.0
 40
1.0
 10
-22.9034311225
 20
-89.2758726535
 30
0.0
 10
-22.9161772586
 20
-89.2763177245
 30
0.0
 10
-22.9346801458
 20
-89.2769340039
 30
0.0
 10
-22.9582348077
 20
-89.2776505756
 30
0.0
 10
-22.9731791286
 20
-89.2780656853
 30
0.0
 10
-22.9840608246
 20
-89.2783421745
 30
0.0
 10
-22.9912675118
 20
-89.2784801069
 30
0.0
 10
-22.995481426
 20
-89.2785749376
 30
0.0
 10
-22.9986898623
 20
-89.2785493942
 30
0.0
 10
-23.0012658269
 20
-89.2787005878
 30
0.0
 10
-23.0023529175
 20
-89.2784211212
 30
0.0
 10
-23.0033645061
 20
-89.2786531521
 30
0.0
 10
-23.0033702052
 20
-89.2784899497
 30
0.0
  0
SPLINE
  5
2FE
100
AcDbEntity
  8
RACCORDO
100
AcDbSpline
 62
250
  6
CONTINUOUS
 70
0
 71
3
 72
17
 73
13
 74
0
 42
0.0000001
 43
0.0000001
 44
0.0000000001
 40
0.0
 40
0.0
 40
0.0
 40
0.0
 40
0.0048998159
 40
0.0193170281
 40
0.0431662689
 40
0.0762393296
 40
0.1181862288
 40
0.1686336586
 40
0.2929744661
 40
0.4445005866
 40
0.6173237159
 40
1.0
 40
1.0
 40
1.0
 40
1.0
 10
23.0033702052
 20
-89.2784899497
 30
0.0
 10
23.0033645061
 20
-89.2786531521
 30
0.0
 10
23.0023529175
 20
-89.2784211212
 30
0.0
 10
23.0012658269
 20
-89.2787005878
 30
0.0
 10
22.9986898623
 20
-89.2785493942
 30
0.0
 10
22.995481426
 20
-89.2785749376
 30
0.0
 10
22.9912675118
 20
-89.2784801069
 30
0.0
 10
22.9840608246
 20
-89.2783421745
 30
0.0
 10
22.9731791286
 20
-89.2780656853
 30
0.0
 10
22.9582348077
 20
-89.2776505756
 30
0.0
 10
22.9346801458
 20
-89.2769340039
 30
0.0
 10
22.9161772586
 20
-89.2763177245
 30
0.0
 10
22.9034311225
 20
-89.2758726535
 30
0.0
  0
SPLINE
  5
2FF
100
AcDbEntity
  8
RACCORDO
100
AcDbSpline
 62
250
  6
CONTINUOUS
 70
0
 71
3
 72
17
 73
13
 74
0
 42
0.0000001
 43
0.0000001
 44
0.0000000001
 40
0.0
 40
0.0
 40
0.0
 40
0.0
 40
0.3826762841
 40
0.5554994134
 40
0.7070255339
 40
0.8313663414
 40
0.8818137712
 40
0.9237606704
 40
0.9568337311
 40
0.9806829719
 40
0.9951001841
 40
1.0
 40
1.0
 40
1.0
 40
1.0
 10
24.0965688775
 20
-89.2758726535
 30
0.0
 10
24.0838227414
 20
-89.2763177245
 30
0.0
 10
24.0653198542
 20
-89.2769340039
 30
0.0
 10
24.0417651923
 20
-89.2776505756
 30
0.0
 10
24.0268208714
 20
-89.2780656853
 30
0.0
 10
24.0159391754
 20
-89.2783421745
 30
0.0
 10
24.0087324882
 20
-89.2784801069
 30
0.0
 10
24.004518574
 20
-89.2785749376
 30
0.0
 10
24.0013101377
 20
-89.2785493942
 30
0.0
 10
23.9987341731
 20
-89.2787005878
 30
0.0
 10
23.9976470825
 20
-89.2784211212
 30
0.0
 10
23.9966354939
 20
-89.2786531521
 30
0.0
 10
23.9966297948
 20
-89.2784899497
 30
0.0
  0
SPLINE
  5
300
100
AcDbEntity
  8
RACCORDO
100
AcDbSpline
 62
250
  6
CONTINUOUS
 70
0
 71
3
 72
17
 73
13
 74
0
 42
0.0000001
 43
0.0000001
 44
0.0000000001
 40
0.0
 40
0.0
 40
0.0
 40
0.0
 40
0.0049001863
 40
0.0193182994
 40
0.0431689632
 40
0.0762438996
 40
0.1181930072
 40
0.1686428498
 40
0.2929884063
 40
0.4445178409
 40
0.6173410199
 40
1.0
 40
1.0
 40
1.0
 40
1.0
 10
45.4008650712
 20
-89.2758726535
 30
0.0
 10
45.4008636458
 20
-89.276035999
 30
0.0
 10
45.3998460437
 20
-89.2758305479
 30
0.0
 10
45.3987663157
 20
-89.2761384421
 30
0.0
 10
45.3961865426
 20
-89.2760547697
 30
0.0
 10
45.39297896
 20
-89.2761643412
 30
0.0
 10
45.3887628271
 20
-89.2761798903
 30
0.0
 10
45.381553039
 20
-89.2762307062
 30
0.0
 10
45.3706649968
 20
-89.2762392052
 30
0.0
 10
45.3557112424
 20
-89.2762154599
 30
0.0
 10
45.3321409721
 20
-89.2761157227
 30
0.0
 10
45.3136246362
 20
-89.2759839629
 30
0.0
 10
45.3008688789
 20
-89.2758726535
 30
0.0
  0
ENDSEC
  0
SECTION
  2
OBJECTS
  0
DICTIONARY
  5
C
100
AcDbDictionary
280
0
281
1
  3
ACAD_GROUP
350
D
  3
ACAD_MLINESTYLE
350
17
  3
ACAD_LAYOUT
350
1A
  3
ACAD_PLOTSETTINGS
350
19
  3
ACAD_PLOTSTYLENAME
350
E
  0
DICTIONARY
  5
D
102
{ACAD_REACTORS
330
C
102
}
100
AcDbDictionary
280
0
281
1
  0
ACDBDICTIONARYWDFLT
  5
E
102
{ACAD_REACTORS
330
C
102
}
100
AcDbDictionary
281
1
  3
Normal
350
F
100
AcDbDictionaryWithDefault
340
F
  0
DICTIONARY
  5
17
102
{ACAD_REACTORS
330
C
102
}
100
AcDbDictionary
280
0
281
1
  3
Standard
350
18
  0
DICTIONARY
  5
19
102
{ACAD_REACTORS
330
C
102
}
100
AcDbDictionary
281
1
  0
DICTIONARY
  5
1A
102
{ACAD_REACTORS
330
C
102
}
100
AcDbDictionary
281
1
  3
Model
350
301
  3
Layout1
350
302
  0
ACDBPLACEHOLDER
  5
F
102
{ACAD_REACTORS
330
E
102
}
  0
MLINESTYLE
  5
18
102
{ACAD_REACTORS
330
17
102
}
100
AcDbMlineStyle
  2
STANDARD
 70
0
  3

 62
256
 51
90.0
 52
90.0
 71
2
 49
0.5
 62
256
  6
BYLAYER
 49
-0.5
 62
256
  6
BYLAYER
  0
LAYOUT
  5
301
102
{ACAD_REACTORS
330
1A
102
}
100
AcDbPlotSettings
  1

  2
none_device
  4
ISO_A4_(297.00_x_210.00_MM)
  6

 40
0.0
 41
0.0
 42
0.0
 43
0.0
 44
297.0
 45
210.0
 46
0.0
 47
0.0
 48
0.0
 49
0.0
140
0.0
141
0.0
142
1.0
143
1.0
 70
1024
 72
1
 73
0
 74
0
  7

 75
0
147
1.0
148
0.0
149
0.0
100
AcDbLayout
  1
Model
 70
0
 71
0
 10
0.0
 20
0.0
 11
297.0
 21
210.0
 12
0.0
 22
0.0
 32
0.0
 14
0.0
 24
0.0
 34
0.0
 15
0.0
 25
0.0
 35
0.0
146
0.0
 13
0.0
 23
0.0
 33
0.0
 16
1.0
 26
0.0
 36
0.0
 17
0.0
 27
1.0
 37
0.0
 76
0
330
212
345
0
346
0
  0
LAYOUT
  5
302
102
{ACAD_REACTORS
330
1A
102
}
100
AcDbPlotSettings
  1

  2
none_device
  4
ISO_A4_(297.00_x_210.00_MM)
  6

 40
0.0
 41
0.0
 42
0.0
 43
0.0
 44
297.0
 45
210.0
 46
0.0
 47
0.0
 48
0.0
 49
0.0
140
0.0
141
0.0
142
1.0
143
1.0
 70
0
 72
1
 73
0
 74
0
  7

 75
0
147
1.0
148
0.0
149
0.0
100
AcDbLayout
  1
Layout1
 70
0
 71
1
 10
0.0
 20
0.0
 11
297.0
 21
210.0
 12
0.0
 22
0.0
 32
0.0
 14
0.0
 24
0.0
 34
0.0
 15
0.0
 25
0.0
 35
0.0
146
0.0
 13
0.0
 23
0.0
 33
0.0
 16
1.0
 26
0.0
 36
0.0
 17
0.0
 27
1.0
 37
0.0
 76
0
330
213
345
0
346
0
  0
ENDSEC
  0
EOF
