  0
SECTION
  2
HEADER
  9
$ACADVER
  1
AC1024
  9
$DWGCODEPAGE
  3
ANSI_1252
  9
$EXTMAX
 10
297.0
 20
210.0
 30
0.0
  9
$EXTMIN
 10
0.0
 20
0.0
 30
0.0
  9
$LIMMIN
 10
0.0
 20
0.0
  9
$LIMMAX
 10
297.0
 20
210.0
  9
$VIEWCTR
 10
148.5
 20
105.0
  9
$VIEWSIZE
 40
210.0
  9
$CLAYER
  8
0
  9
$LTSCALE
 40
16.335
  9
$CELTYPE
  6
BYLAYER
  9
$DIMSCALE
 40
1.0
  9
$DIMASZ
 40
3.0
  9
$DIMEXO
 40
0.5
  9
$DIMDLI
 40
11.286
  9
$DIMEXE
 40
1.5
  9
$DIMCEN
 40
2.673
  9
$DIMLFAC
 40
1.0
  9
$DIMBLK
  1
_FILLED
  9
$DIMALT
 70
0
  9
$DIMALTF
 40
0.0393700787
  9
$DIMTXT
 40
3.0
  9
$DIMTOL
 70
1
  9
$DIMLIM
 70
0
  9
$DIMTFAC
 40
1.0
  9
$DIMTP
 40
0.01
  9
$DIMTM
 40
0.01
  9
$DIMGAP
 40
0.625
  9
$DIMDSEP
 70
44
  9
$AUNITS
 70
0
  9
$PDMODE
 70
3
  9
$PDSIZE
 40
3.0
  9
$HANDSEED
  5
76D
  9
$TILEMODE
 70
1
  9
$MEASUREMENT
 70
1
  9
$INSUNITS
 70
4
  0
ENDSEC
  0
SECTION
  2
CLASSES
  0
CLASS
  1
ACDBDICTIONARYWDFLT
  2
AcDbDictionaryWithDefault
  3
AutoCAD 2000
 90
0
 91
1
280
0
281
0
  0
CLASS
  1
ACDBPLACEHOLDER
  2
AcDbPlaceHolder
  3
AutoCAD 2000
 90
0
 91
1
280
0
281
0
  0
CLASS
  1
LAYOUT
  2
AcDbLayout
  3
AutoCAD 2000
 90
0
 91
0
280
0
281
0
  0
ENDSEC
  0
SECTION
  2
TABLES
  0
TABLE
  2
VPORT
  5
8
100
AcDbSymbolTable
 70
2
  0
VPORT
  5
1F4
100
AcDbSymbolTableRecord
100
AcDbViewportTableRecord
  2
*ACTIVE
 70
0
 10
0.0
 20
0.0
 11
1.0
 21
1.0
 12
148.5
 22
105.0
 13
0.0
 23
0.0
 14
1.0
 24
1.0
 15
0.0
 25
0.0
 16
0.0
 26
0.0
 36
1.0
 17
0.0
 27
0.0
 37
0.0
 40
210.0
 41
1.4142857143
 42
50.0
 43
0.0
 44
0.0
 50
0.0
 51
0.0
 71
0
 72
100
 73
1
 74
1
 75
0
 76
0
 77
0
 78
0
  0
ENDTAB
  0
TABLE
  2
LTYPE
  5
5
100
AcDbSymbolTable
 70
6
  0
LTYPE
  5
14
100
AcDbSymbolTableRecord
100
AcDbLinetypeTableRecord
  2
BYBLOCK
 70
0
  3

 72
65
 73
0
 40
0.0
  0
LTYPE
  5
15
100
AcDbSymbolTableRecord
100
AcDbLinetypeTableRecord
  2
BYLAYER
 70
0
  3

 72
65
 73
0
 40
0.0
  0
LTYPE
  5
16
100
AcDbSymbolTableRecord
100
AcDbLinetypeTableRecord
  2
CONTINUOUS
 70
64
  3
Solid line
 72
65
 73
0
 40
0.0
  0
LTYPE
  5
1F5
100
AcDbSymbolTableRecord
100
AcDbLinetypeTableRecord
  2
CENTER
 70
64
  3
____ _ ____ _ ____ _ ____ _ ____ _ ____ _ ____
 72
65
 73
4
 40
0.6
 49
0.375
 74
0
 49
-0.075
 74
0
 49
0.075
 74
0
 49
-0.075
 74
0
  0
LTYPE
  5
1F6
100
AcDbSymbolTableRecord
100
AcDbLinetypeTableRecord
  2
HIDDEN
 70
64
  3
- - - - - - - - - - - - - - - - - - - -
 72
65
 73
2
 40
0.2
 49
0.1
 74
0
 49
-0.1
 74
0
  0
LTYPE
  5
1F7
100
AcDbSymbolTableRecord
100
AcDbLinetypeTableRecord
  2
PHANTOM
 70
64
  3
_____ _ _ _____ _ _ _____ _ _ _____
 72
65
 73
6
 40
0.8
 49
0.45
 74
0
 49
-0.05
 74
0
 49
0.1
 74
0
 49
-0.05
 74
0
 49
0.1
 74
0
 49
-0.05
 74
0
  0
LTYPE
  5
1F8
100
AcDbSymbolTableRecord
100
AcDbLinetypeTableRecord
  2
DOT
 70
64
  3
. . . . . . . . . . . . . . . . . . . .
 72
65
 73
2
 40
0.2
 49
0.1
 74
0
 49
-0.1
 74
0
  0
LTYPE
  5
1F9
100
AcDbSymbolTableRecord
100
AcDbLinetypeTableRecord
  2
DASHED
 70
64
  3
- - - - - - - - - - - - - - - - - - - -
 72
65
 73
2
 40
0.2
 49
0.1
 74
0
 49
-0.1
 74
0
  0
ENDTAB
  0
TABLE
  2
LAYER
  5
2
100
AcDbSymbolTable
 70
36
  0
LAYER
  5
10
100
AcDbSymbolTableRecord
100
AcDbLayerTableRecord
  2
0
 70
0
 62
7
  6
CONTINUOUS
370
-3
390
F
  0
LAYER
  5
1FA
100
AcDbSymbolTableRecord
100
AcDbLayerTableRecord
  2
DEFAULT_1
 70
0
 62
7
  6
CENTER
370
-3
390
F
  0
LAYER
  5
1FB
100
AcDbSymbolTableRecord
100
AcDbLayerTableRecord
  2
DEFAULT_2
 70
0
 62
7
  6
HIDDEN
370
-3
390
F
  0
LAYER
  5
1FC
100
AcDbSymbolTableRecord
100
AcDbLayerTableRecord
  2
DEFAULT_3
 70
0
 62
7
  6
PHANTOM
370
-3
390
F
  0
LAYER
  5
1FD
100
AcDbSymbolTableRecord
100
AcDbLayerTableRecord
  2
9
 70
0
 62
7
  6
CONTINUOUS
370
-3
390
F
  0
LAYER
  5
1FE
100
AcDbSymbolTableRecord
100
AcDbLayerTableRecord
  2
ASSI
 70
0
 62
7
  6
CONTINUOUS
370
-3
390
F
  0
LAYER
  5
1FF
100
AcDbSymbolTableRecord
100
AcDbLayerTableRecord
  2
COORDINATE
 70
0
 62
7
  6
CONTINUOUS
370
-3
390
F
  0
LAYER
  5
200
100
AcDbSymbolTableRecord
100
AcDbLayerTableRecord
  2
COPY_PUBLISH
 70
0
 62
7
  6
CONTINUOUS
370
-3
390
F
  0
LAYER
  5
201
100
AcDbSymbolTableRecord
100
AcDbLayerTableRecord
  2
COSMETICI
 70
0
 62
7
  6
CONTINUOUS
370
-3
390
F
  0
LAYER
  5
202
100
AcDbSymbolTableRecord
100
AcDbLayerTableRecord
  2
CURVE
 70
0
 62
7
  6
CONTINUOUS
370
-3
390
F
  0
LAYER
  5
203
100
AcDbSymbolTableRecord
100
AcDbLayerTableRecord
  2
DRAFT
 70
0
 62
7
  6
CONTINUOUS
370
-3
390
F
  0
LAYER
  5
204
100
AcDbSymbolTableRecord
100
AcDbLayerTableRecord
  2
IMPORT_IGES
 70
0
 62
7
  6
CONTINUOUS
370
-3
390
F
  0
LAYER
  5
205
100
AcDbSymbolTableRecord
100
AcDbLayerTableRecord
  2
INTF_10
 70
0
 62
7
  6
CONTINUOUS
370
-3
390
F
  0
LAYER
  5
206
100
AcDbSymbolTableRecord
100
AcDbLayerTableRecord
  2
INTF_2
 70
0
 62
7
  6
CONTINUOUS
370
-3
390
F
  0
LAYER
  5
207
100
AcDbSymbolTableRecord
100
AcDbLayerTableRecord
  2
INTF_3
 70
0
 62
7
  6
CONTINUOUS
370
-3
390
F
  0
LAYER
  5
208
100
AcDbSymbolTableRecord
100
AcDbLayerTableRecord
  2
INTF_4
 70
0
 62
7
  6
CONTINUOUS
370
-3
390
F
  0
LAYER
  5
209
100
AcDbSymbolTableRecord
100
AcDbLayerTableRecord
  2
INTF_5
 70
0
 62
7
  6
CONTINUOUS
370
-3
390
F
  0
LAYER
  5
20A
100
AcDbSymbolTableRecord
100
AcDbLayerTableRecord
  2
INTF_6
 70
0
 62
7
  6
CONTINUOUS
370
-3
390
F
  0
LAYER
  5
20B
100
AcDbSymbolTableRecord
100
AcDbLayerTableRecord
  2
INTF_7
 70
0
 62
7
  6
CONTINUOUS
370
-3
390
F
  0
LAYER
  5
20C
100
AcDbSymbolTableRecord
100
AcDbLayerTableRecord
  2
INTF_9
 70
0
 62
7
  6
CONTINUOUS
370
-3
390
F
  0
LAYER
  5
20D
100
AcDbSymbolTableRecord
100
AcDbLayerTableRecord
  2
INTF_BLANK
 70
0
 62
7
  6
CONTINUOUS
370
-3
390
F
  0
LAYER
  5
20E
100
AcDbSymbolTableRecord
100
AcDbLayerTableRecord
  2
INTF_RED
 70
0
 62
7
  6
CONTINUOUS
370
-3
390
F
  0
LAYER
  5
20F
100
AcDbSymbolTableRecord
100
AcDbLayerTableRecord
  2
NOTE
 70
0
 62
7
  6
CONTINUOUS
370
-3
390
F
  0
LAYER
  5
210
100
AcDbSymbolTableRecord
100
AcDbLayerTableRecord
  2
PIANI
 70
0
 62
7
  6
CONTINUOUS
370
-3
390
F
  0
LAYER
  5
211
100
AcDbSymbolTableRecord
100
AcDbLayerTableRecord
  2
PUNTI
 70
0
 62
7
  6
CONTINUOUS
370
-3
390
F
  0
LAYER
  5
212
100
AcDbSymbolTableRecord
100
AcDbLayerTableRecord
  2
RACCORDO
 70
0
 62
7
  6
CONTINUOUS
370
-3
390
F
  0
LAYER
  5
213
100
AcDbSymbolTableRecord
100
AcDbLayerTableRecord
  2
RGB____0____0____0__
 70
0
 62
7
  6
CONTINUOUS
370
-3
390
F
  0
LAYER
  5
214
100
AcDbSymbolTableRecord
100
AcDbLayerTableRecord
  2
SIMBOLI
 70
0
 62
7
  6
CONTINUOUS
370
-3
390
F
  0
LAYER
  5
215
100
AcDbSymbolTableRecord
100
AcDbLayerTableRecord
  2
SMUSSO
 70
0
 62
7
  6
CONTINUOUS
370
-3
390
F
  0
LAYER
  5
216
100
AcDbSymbolTableRecord
100
AcDbLayerTableRecord
  2
SNAPLINE
 70
0
 62
7
  6
CONTINUOUS
370
-3
390
F
  0
LAYER
  5
217
100
AcDbSymbolTableRecord
100
AcDbLayerTableRecord
  2
SUPERFICI
 70
0
 62
7
  6
CONTINUOUS
370
-3
390
F
  0
LAYER
  5
218
100
AcDbSymbolTableRecord
100
AcDbLayerTableRecord
  2
TRASH
 70
0
 62
7
  6
CONTINUOUS
370
-3
390
F
  0
ENDTAB
  0
TABLE
  2
STYLE
  5
3
100
AcDbSymbolTable
 70
1
  0
STYLE
  5
11
100
AcDbSymbolTableRecord
100
AcDbTextStyleTableRecord
  2
STANDARD
 70
0
 40
0.0
 41
0.8
 50
0.0
 71
0
 42
0.2
  3
txt
  4

  0
STYLE
  5
219
100
AcDbSymbolTableRecord
100
AcDbTextStyleTableRecord
  2
TEXTSTYLE_1
 70
0
 40
0.0
 41
0.8
 50
0.0
 71
0
 42
0.2
  3
gdt
  4

  0
ENDTAB
  0
TABLE
  2
VIEW
  5
6
100
AcDbSymbolTable
 70
0
  0
ENDTAB
  0
TABLE
  2
UCS
  5
7
100
AcDbSymbolTable
 70
0
  0
ENDTAB
  0
TABLE
  2
APPID
  5
9
100
AcDbSymbolTable
 70
1
  0
APPID
  5
21A
100
AcDbSymbolTableRecord
100
AcDbRegAppTableRecord
  2
ACAD
 70
0
  0
ENDTAB
  0
TABLE
  2
BLOCK_RECORD
  5
1
100
AcDbSymbolTable
 70
0
  0
BLOCK_RECORD
  5
21B
100
AcDbSymbolTableRecord
100
AcDbBlockTableRecord
  2
*Model_Space
  0
BLOCK_RECORD
  5
21C
100
AcDbSymbolTableRecord
100
AcDbBlockTableRecord
  2
*Paper_Space
  0
BLOCK_RECORD
  5
21D
100
AcDbSymbolTableRecord
100
AcDbBlockTableRecord
  2
_FILLED
  0
ENDTAB
  0
TABLE
  2
DIMSTYLE
  5
A
100
AcDbSymbolTable
 70
1
100
AcDbDimStyleTable
 71
0
  0
DIMSTYLE
105
21E
100
AcDbSymbolTableRecord
100
AcDbDimStyleTableRecord
  2
STANDARD
 70
0
  3

  4

 40
1.0
 41
3.0
 42
0.5
 43
0.38
 44
1.5
 45
0.0
 46
0.0
 47
0.01
 48
0.01
140
3.0
141
0.09
142
0.0
143
25.4
144
1.0
145
0.0
146
1.0
147
0.625
 71
1
 72
0
 73
0
 74
0
 75
0
 76
0
 77
1
 78
8
 79
2
170
0
171
1
172
0
173
0
174
0
175
0
176
0
177
0
178
0
270
2
179
2
271
2
272
2
273
2
274
2
275
0
280
0
281
0
282
0
283
1
284
8
285
0
286
0
287
3
288
0
340
11
278
44
341
21D
342
21D
343
21D
344
21D
  0
ENDTAB
  0
ENDSEC
  0
SECTION
  2
BLOCKS
  0
BLOCK
  5
20
100
AcDbEntity
  8
0
100
AcDbBlockBegin
  2
*Model_Space
 70
0
 10
0.0
 20
0.0
 30
0.0
  3
*Model_Space
  1

  0
ENDBLK
  5
21
100
AcDbEntity
  8
0
100
AcDbBlockEnd
  0
BLOCK
  5
1C
100
AcDbEntity
  8
0
100
AcDbBlockBegin
  2
*Paper_Space
 70
0
 10
0.0
 20
0.0
 30
0.0
  3
*Paper_Space
  1

  0
ENDBLK
  5
1D
100
AcDbEntity
  8
0
100
AcDbBlockEnd
  0
BLOCK
  5
21F
100
AcDbEntity
  8
0
100
AcDbBlockBegin
  2
_FILLED
 70
64
 10
0.0
 20
0.0
  3
_FILLED
  1

  0
SOLID
  5
220
100
AcDbEntity
  8
0
  6
BYBLOCK
 62
0
100
AcDbTrace
 10
0.0
 20
0.0
 11
-1.0
 21
0.3166666667
 12
-1.0
 22
-0.3166666667
 13
-1.0
 23
-0.3166666667
  0
ENDBLK
  5
221
100
AcDbEntity
  8
0
  6
BYBLOCK
 62
0
100
AcDbBlockEnd
  0
ENDSEC
  0
SECTION
  2
ENTITIES
  0
LINE
  5
222
100
AcDbEntity
  8
RACCORDO
100
AcDbLine
 62
7
  6
CONTINUOUS
 10
-8.0919770242
 20
69.9217624721
 11
-8.1111989799
 21
69.9156322646
  0
LINE
  5
223
100
AcDbEntity
  8
0
100
AcDbLine
 62
7
  6
CONTINUOUS
 10
-19.5919770242
 20
67.9145243033
 11
-21.8919990242
 21
67.2496553033
  0
LINE
  5
224
100
AcDbEntity
  8
0
100
AcDbLine
 62
7
  6
CONTINUOUS
 10
-19.8242100242
 20
64.3378263033
 11
-21.8919840242
 21
63.5647973033
  0
LINE
  5
225
100
AcDbEntity
  8
0
100
AcDbLine
 62
7
  6
CONTINUOUS
 10
-21.6597570242
 20
63.3961943033
 11
-19.5919830242
 21
64.1692233033
  0
LWPOLYLINE
  5
226
100
AcDbEntity
  8
0
100
AcDbPolyline
 62
7
  6
CONTINUOUS
 90
10
 70
0
 10
-3.9509677652
 20
67.163003684
 10
-3.9712676877
 20
67.1567292751
 10
-3.9929618584
 20
67.1509046627
 10
-4.0160502771
 20
67.1455298468
 10
-4.0404221242
 20
67.1405956646
 10
-4.0661882195
 20
67.1361112789
 10
-4.0936810221
 20
67.1321041782
 10
-4.1230113516
 20
67.1285835252
 10
-4.1540683885
 20
67.1255401572
 10
-4.1868521327
 20
67.1229740741
  0
LWPOLYLINE
  5
227
100
AcDbEntity
  8
0
100
AcDbPolyline
 62
7
  6
CONTINUOUS
 90
10
 70
0
 10
-3.9509677652
 20
65.725106121
 10
-3.9712676877
 20
65.7188317121
 10
-3.9929618584
 20
65.7130070997
 10
-4.0160502771
 20
65.7076322838
 10
-4.0404221242
 20
65.7026981016
 10
-4.0661882195
 20
65.6982137159
 10
-4.0936810221
 20
65.6942066152
 10
-4.1230113516
 20
65.6906859622
 10
-4.1540683885
 20
65.6876425942
 10
-4.1868521327
 20
65.6850765111
  0
LWPOLYLINE
  5
228
100
AcDbEntity
  8
0
100
AcDbPolyline
 62
7
  6
CONTINUOUS
 90
10
 70
0
 10
-3.9509677246
 20
64.2872084331
 10
-3.9712676681
 20
64.2809340559
 10
-3.9929618559
 20
64.2751094702
 10
-4.0160502881
 20
64.2697346761
 10
-4.0404221447
 20
64.2648005101
 10
-4.0661882457
 20
64.2603161357
 10
-4.0936810508
 20
64.2563090432
 10
-4.1230113802
 20
64.2527883959
 10
-4.1540684137
 20
64.2497450305
 10
-4.1868521515
 20
64.2471789469
  0
LWPOLYLINE
  5
229
100
AcDbEntity
  8
0
100
AcDbPolyline
 62
7
  6
CONTINUOUS
 90
10
 70
0
 10
-5.5325027089
 20
67.6734275506
 10
-5.5099969183
 20
67.6799207752
 10
-5.4864761857
 20
67.6859701412
 10
-5.4619405114
 20
67.6915756484
 10
-5.4363713481
 20
67.6967782142
 10
-5.4097872431
 20
67.7015369212
 10
-5.382243837
 20
67.7057290181
 10
-5.353759677
 20
67.7093135875
 10
-5.3243162161
 20
67.7123315468
 10
-5.2939134542
 20
67.7147828958
  0
LWPOLYLINE
  5
22A
100
AcDbEntity
  8
0
100
AcDbPolyline
 62
7
  6
CONTINUOUS
 90
10
 70
0
 10
-5.5325027089
 20
66.2355299876
 10
-5.5099969183
 20
66.2420232122
 10
-5.4864761857
 20
66.2480725782
 10
-5.4619405114
 20
66.2536780855
 10
-5.4363713481
 20
66.2588806512
 10
-5.4097872431
 20
66.2636393582
 10
-5.382243837
 20
66.2678314551
 10
-5.353759677
 20
66.2714160245
 10
-5.3243162161
 20
66.2744339838
 10
-5.2939134542
 20
66.2768853328
  0
LWPOLYLINE
  5
22B
100
AcDbEntity
  8
0
100
AcDbPolyline
 62
7
  6
CONTINUOUS
 90
10
 70
0
 10
-5.5325026334
 20
64.7976321731
 10
-5.5099968752
 20
64.8041253888
 10
-5.4864761674
 20
64.8101747479
 10
-5.4619405099
 20
64.8157802503
 10
-5.4363713543
 20
64.8209828137
 10
-5.4097872491
 20
64.8257415205
 10
-5.3822438401
 20
64.8299336175
 10
-5.3537596759
 20
64.8335181871
 10
-5.3243162078
 20
64.8365361468
 10
-5.293913436
 20
64.8389874969
  0
LINE
  5
22C
100
AcDbEntity
  8
RACCORDO
100
AcDbLine
 62
7
  6
CONTINUOUS
 10
-20.7286050668
 20
71.7437842607
 11
-20.7419770242
 21
71.7304123033
  0
LWPOLYLINE
  5
22D
100
AcDbEntity
  8
0
100
AcDbPolyline
 62
7
  6
CONTINUOUS
 90
10
 70
0
 10
-5.6756561519
 20
67.8897481713
 10
-5.7019124111
 20
67.8765050673
 10
-5.7266908238
 20
67.8619788851
 10
-5.7499913901
 20
67.846169625
 10
-5.7716702173
 20
67.8292120101
 10
-5.7918711981
 20
67.8109713172
 10
-5.8110260099
 20
67.7910433763
 10
-5.8292785455
 20
67.7692934641
 10
-5.8464849122
 20
67.7458563039
 10
-5.86264511
 20
67.7207318957
  0
LWPOLYLINE
  5
22E
100
AcDbEntity
  8
0
100
AcDbPolyline
 62
7
  6
CONTINUOUS
 90
10
 70
0
 10
-5.6756561519
 20
66.4518506084
 10
-5.7019124111
 20
66.4386075043
 10
-5.7266908238
 20
66.4240813221
 10
-5.7499913901
 20
66.408272062
 10
-5.7716702173
 20
66.3913144471
 10
-5.7918711981
 20
66.3730737542
 10
-5.8110260099
 20
66.3531458133
 10
-5.8292785455
 20
66.3313959011
 10
-5.8464849122
 20
66.3079587409
 10
-5.86264511
 20
66.2828343327
  0
LWPOLYLINE
  5
22F
100
AcDbEntity
  8
0
100
AcDbPolyline
 62
7
  6
CONTINUOUS
 90
10
 70
0
 10
-5.6756561519
 20
65.0139530454
 10
-5.7019122907
 20
65.0007100065
 10
-5.7266906204
 20
64.9861838623
 10
-5.749991141
 20
64.9703746126
 10
-5.7716699696
 20
64.9534169762
 10
-5.7918709891
 20
64.9351762343
 10
-5.811025848
 20
64.915248231
 10
-5.8292784292
 20
64.8934982474
 10
-5.8464848499
 20
64.8700610022
 10
-5.86264511
 20
64.8449364956
  0
LWPOLYLINE
  5
230
100
AcDbEntity
  8
0
100
AcDbPolyline
 62
7
  6
CONTINUOUS
 90
10
 70
0
 10
-3.8271325401
 20
66.9411701466
 10
-3.7960621033
 20
66.9560148809
 10
-3.7673194471
 20
66.9717910953
 10
-3.7409045713
 20
66.9884987897
 10
-3.7170522578
 20
67.0060362632
 10
-3.6955277248
 20
67.0245052167
 10
-3.6756266269
 20
67.0442107534
 10
-3.6571141823
 20
67.0652545742
 10
-3.6402251729
 20
67.0875349782
 10
-3.6249595985
 20
67.1110519653
  0
LWPOLYLINE
  5
231
100
AcDbEntity
  8
0
100
AcDbPolyline
 62
7
  6
CONTINUOUS
 90
10
 70
0
 10
-3.8271325401
 20
65.5032723094
 10
-3.7960621809
 20
65.5181170168
 10
-3.7673195805
 20
65.533893219
 10
-3.740904739
 20
65.5506009159
 10
-3.7170524351
 20
65.5681384072
 10
-3.69552789
 20
65.5866073933
 10
-3.6756267674
 20
65.6063129757
 10
-3.6571142886
 20
65.627356855
 10
-3.6402252323
 20
65.6496373305
 10
-3.6249595985
 20
65.6731544024
  0
LWPOLYLINE
  5
232
100
AcDbEntity
  8
0
100
AcDbPolyline
 62
7
  6
CONTINUOUS
 90
10
 70
0
 10
-3.8271325401
 20
64.0653747464
 10
-3.7960621033
 20
64.0802194807
 10
-3.7673194471
 20
64.0959956951
 10
-3.7409045713
 20
64.1127033895
 10
-3.7170522578
 20
64.130240863
 10
-3.6955277248
 20
64.1487098165
 10
-3.6756266269
 20
64.1684153532
 10
-3.6571141823
 20
64.1894591741
 10
-3.6402251729
 20
64.2117395781
 10
-3.6249595985
 20
64.2352565652
  0
LWPOLYLINE
  5
233
100
AcDbEntity
  8
RACCORDO
100
AcDbPolyline
 62
7
  6
CONTINUOUS
 90
3
 70
0
 10
-16.4388472007
 20
55.0980612249
 10
-16.465200175
 20
55.0886992308
 10
-16.4919770242
 20
55.0788972946
  0
LWPOLYLINE
  5
234
100
AcDbEntity
  8
RACCORDO
100
AcDbPolyline
 62
7
  6
CONTINUOUS
 90
6
 70
0
 10
-16.2746625883
 20
55.991477943
 10
-16.2629727192
 20
55.9955846316
 10
-16.2538060219
 20
55.9988970133
 10
-16.2472358558
 20
56.001380849
 10
-16.2432897407
 20
56.0030703777
 10
-16.2419770242
 20
56.0039655996
  0
LINE
  5
235
100
AcDbEntity
  8
RACCORDO
100
AcDbLine
 62
7
  6
CONTINUOUS
 10
-16.3652219857
 20
55.1236477527
 11
-16.4388472007
 21
55.0980612249
  0
LINE
  5
236
100
AcDbEntity
  8
RACCORDO
100
AcDbLine
 62
7
  6
CONTINUOUS
 10
-16.4919770242
 20
55.9186874161
 11
-16.465313249
 21
55.9277611491
  0
LINE
  5
237
100
AcDbEntity
  8
RACCORDO
100
AcDbLine
 62
7
  6
CONTINUOUS
 10
-16.3233338417
 20
55.9749762148
 11
-16.2746625883
 21
55.991477943
  0
LWPOLYLINE
  5
238
100
AcDbEntity
  8
RACCORDO
100
AcDbPolyline
 62
7
  6
CONTINUOUS
 90
4
 70
0
 10
-16.2886054228
 20
55.1493841175
 10
-16.3048426323
 20
55.1440368747
 10
-16.3231334544
 20
55.1378984472
 10
-16.3652219857
 20
55.1236477527
  0
LINE
  5
239
100
AcDbEntity
  8
RACCORDO
100
AcDbLine
 62
7
  6
CONTINUOUS
 10
-16.465313249
 20
55.9277611491
 11
-16.3233338417
 21
55.9749762148
  0
LWPOLYLINE
  5
23A
100
AcDbEntity
  8
0
100
AcDbPolyline
 62
7
  6
CONTINUOUS
 90
7
 70
0
 10
-16.2419770242
 20
56.0144769522
 10
-16.5970727459
 20
55.8981781308
 10
-16.9482848072
 20
55.770723949
 10
-17.2952634143
 20
55.6322446011
 10
-17.6376631505
 20
55.4828812268
 10
-17.9751433176
 20
55.3227857647
 10
-18.3073682731
 20
55.1521207933
  0
LINE
  5
23B
100
AcDbEntity
  8
RACCORDO
100
AcDbLine
 62
250
  6
CONTINUOUS
 10
-8.0353457062
 20
69.5474833102
 11
-7.8963150173
 21
69.6462023102
  0
LWPOLYLINE
  5
23C
100
AcDbEntity
  8
0
100
AcDbPolyline
 62
7
  6
CONTINUOUS
 90
10
 70
0
 10
-3.8687405128
 20
61.3969405768
 10
-3.8799668542
 20
61.3900784709
 10
-3.8918589485
 20
61.3836003953
 10
-3.9044167957
 20
61.37750635
 10
-3.9175573066
 20
61.3717883343
 10
-3.9313635703
 20
61.366454349
 10
-3.9460848547
 20
61.361528396
 10
-3.961804249
 20
61.3570184761
 10
-3.9784386638
 20
61.3529165886
 10
-3.9959880994
 20
61.3492227335
  0
LWPOLYLINE
  5
23D
100
AcDbEntity
  8
RACCORDO
100
AcDbPolyline
 62
7
  6
CONTINUOUS
 90
16
 70
0
 10
-18.3000124385
 20
55.1394584812
 10
-18.3621661885
 20
55.1034038342
 10
-18.4212148023
 20
55.0631945504
 10
-18.4771582802
 20
55.0188306296
 10
-18.5303913465
 20
54.9699073006
 10
-18.5805192767
 20
54.9168293347
 10
-18.6263578974
 20
54.8608110458
 10
-18.6676219305
 20
54.8020710898
 10
-18.704596654
 20
54.7403908109
 10
-18.7369537283
 20
54.6763285551
 10
-18.7647510723
 20
54.6095412498
 10
-18.7879307671
 20
54.5403719676
 10
-18.8059907169
 20
54.4704082723
 10
-18.8187635564
 20
54.400179352
 10
-18.8264166509
 20
54.3291560187
 10
-18.8289500003
 20
54.2573382724
  0
LWPOLYLINE
  5
23E
100
AcDbEntity
  8
RACCORDO
100
AcDbPolyline
 62
7
  6
CONTINUOUS
 90
13
 70
0
 10
-17.7857322576
 20
54.328193058
 10
-17.7938958169
 20
54.3235703014
 10
-17.8015508134
 20
54.3182006951
 10
-17.808697247
 20
54.3120842392
 10
-17.8153972762
 20
54.3051722145
 10
-17.8215887426
 20
54.2975133403
 10
-17.8270851705
 20
54.2892537736
 10
-17.8318783078
 20
54.2803667517
 10
-17.8359764065
 20
54.2708790374
 10
-17.8392177477
 20
54.2610170762
 10
-17.8415484251
 20
54.25085635
 10
-17.8430223449
 20
54.2403213768
 10
-17.8436395073
 20
54.2294121568
  0
LWPOLYLINE
  5
23F
100
AcDbEntity
  8
0
100
AcDbPolyline
 62
7
  6
CONTINUOUS
 90
10
 70
0
 10
-4.6004141004
 20
62.1508825395
 10
-4.6152908684
 20
62.1424608151
 10
-4.6298495548
 20
62.1330905742
 10
-4.6440901598
 20
62.1227718166
 10
-4.6580979494
 20
62.1114573277
 10
-4.6717876575
 20
62.0991943221
 10
-4.6849034857
 20
62.0861244443
 10
-4.6973601678
 20
62.0722949089
 10
-4.7092429699
 20
62.0576585012
 10
-4.720551892
 20
62.0422152212
  0
LWPOLYLINE
  5
240
100
AcDbEntity
  8
0
100
AcDbPolyline
 62
7
  6
CONTINUOUS
 90
7
 70
0
 10
-18.0475539731
 20
54.3657921444
 10
-17.7568578347
 20
54.5202683489
 10
-17.4617098167
 20
54.6659546661
 10
-17.1623762241
 20
54.8027242807
 10
-16.8591269254
 20
54.9304584587
 10
-16.5522351068
 20
55.0490466458
 10
-16.2419770242
 20
55.1583865581
  0
LWPOLYLINE
  5
241
100
AcDbEntity
  8
0
100
AcDbPolyline
 62
7
  6
CONTINUOUS
 90
10
 70
0
 10
-5.6120323659
 20
61.8804813806
 10
-5.5993138107
 20
61.8871550261
 10
-5.5863081587
 20
61.8933680188
 10
-5.5730154098
 20
61.8991203588
 10
-5.5594169198
 20
61.9044303599
 10
-5.5455313329
 20
61.9092797082
 10
-5.5314145818
 20
61.9136134626
 10
-5.5170853105
 20
61.9174133093
 10
-5.5025248749
 20
61.9206975621
 10
-5.487733275
 20
61.9234662208
  0
LWPOLYLINE
  5
242
100
AcDbEntity
  8
RACCORDO
100
AcDbPolyline
 62
7
  6
CONTINUOUS
 90
10
 70
0
 10
-17.331813963
 20
69.9710502708
 10
-17.3145534015
 20
69.9908979864
 10
-17.293643287
 20
70.0080432031
 10
-17.2693577432
 20
70.0226805629
 10
-17.2422126315
 20
70.0350002683
 10
-17.2125284601
 20
70.0454059826
 10
-17.180292947
 20
70.0544172427
 10
-17.1457998503
 20
70.0624187179
 10
-17.1097565778
 20
70.0697366187
 10
-17.0727664915
 20
70.0767993632
  0
LINE
  5
243
100
AcDbEntity
  8
RACCORDO
100
AcDbLine
 62
250
  6
CONTINUOUS
 10
-8.4076121782
 20
71.1147657262
 11
-8.3919656011
 21
71.1304123033
  0
LINE
  5
244
100
AcDbEntity
  8
RACCORDO
100
AcDbLine
 62
250
  6
CONTINUOUS
 10
-8.1076236012
 20
70.8147771493
 11
-8.0919770242
 21
70.8304237264
  0
LINE
  5
245
100
AcDbEntity
  8
RACCORDO
100
AcDbLine
 62
7
  6
CONTINUOUS
 10
-4.7553489816
 20
72.3170403459
 11
-4.7419770242
 21
72.3304123033
  0
LINE
  5
246
100
AcDbEntity
  8
DRAFT
100
AcDbLine
 62
7
  6
CONTINUOUS
 10
-17.3919770242
 20
69.9217624721
 11
-17.5876390311
 21
69.6462023102
  0
LINE
  5
247
100
AcDbEntity
  8
RACCORDO
100
AcDbLine
 62
7
  6
CONTINUOUS
 10
-17.5709081385
 20
69.6343225087
 11
-17.331813963
 21
69.9710502708
  0
LINE
  5
248
100
AcDbEntity
  8
RACCORDO
100
AcDbLine
 62
250
  6
CONTINUOUS
 10
-17.4486083422
 20
69.5474833102
 11
-17.0727664915
 21
70.0767993632
  0
LINE
  5
249
100
AcDbEntity
  8
DRAFT
100
AcDbLine
 62
7
  6
CONTINUOUS
 10
-17.0618224297
 20
69.3503761133
 11
-17.0759977702
 21
69.3304123033
  0
LWPOLYLINE
  5
24A
100
AcDbEntity
  8
0
100
AcDbPolyline
 62
7
  6
CONTINUOUS
 90
10
 70
0
 10
-5.6780676806
 20
67.5837255467
 10
-5.6682949112
 20
67.5952401635
 10
-5.6569585417
 20
67.6064413985
 10
-5.6440585721
 20
67.6173292517
 10
-5.6296439076
 20
67.62800179
 10
-5.6136656429
 20
67.6383609465
 10
-5.5959770623
 20
67.6481125208
 10
-5.5765292604
 20
67.6571584462
 10
-5.5553711426
 20
67.6655967895
 10
-5.5325027089
 20
67.6734275506
  0
LWPOLYLINE
  5
24B
100
AcDbEntity
  8
0
100
AcDbPolyline
 62
7
  6
CONTINUOUS
 90
10
 70
0
 10
-5.78938287
 20
62.0736708353
 10
-5.815457362
 20
62.048291041
 10
-5.8391693534
 20
62.0182828796
 10
-5.8605188442
 20
61.9836463511
 10
-5.8798336856
 20
61.945035239
 10
-5.8967860264
 20
61.9017957599
 10
-5.9103923132
 20
61.8519665634
 10
-5.9203246948
 20
61.794893866
 10
-5.9269110223
 20
61.7312314512
 10
-5.9301512958
 20
61.660979319
  0
LWPOLYLINE
  5
24C
100
AcDbEntity
  8
0
100
AcDbPolyline
 62
7
  6
CONTINUOUS
 90
10
 70
0
 10
-4.5861333104
 20
61.8534067097
 10
-4.5742850729
 20
61.8646279617
 10
-4.5614607886
 20
61.8751644253
 10
-4.5476604572
 20
61.8850161006
 10
-4.5330103177
 20
61.8941915123
 10
-4.5173841312
 20
61.9026821358
 10
-4.5004031817
 20
61.9104623967
 10
-4.4819412304
 20
61.9175237705
 10
-4.462124516
 20
61.9238747818
 10
-4.4409530386
 20
61.9295154306
  0
LWPOLYLINE
  5
24D
100
AcDbEntity
  8
0
100
AcDbPolyline
 62
7
  6
CONTINUOUS
 90
10
 70
0
 10
-3.7033186627
 20
61.2028880137
 10
-3.6761237722
 20
61.2281655371
 10
-3.651404084
 20
61.2588440103
 10
-3.6291595982
 20
61.2949234333
 10
-3.6090454256
 20
61.3356536781
 10
-3.5914064553
 20
61.3817848728
 10
-3.5772773549
 20
61.4355674011
 10
-3.5670030133
 20
61.4977513912
 10
-3.5602385416
 20
61.567586715
 10
-3.5569839398
 20
61.6450733725
  0
LINE
  5
24E
100
AcDbEntity
  8
RACCORDO
100
AcDbLine
 62
7
  6
CONTINUOUS
 10
-21.8419770242
 20
36.6304123033
 11
-21.952820353
 21
36.5802134913
  0
LINE
  5
24F
100
AcDbEntity
  8
DRAFT
100
AcDbLine
 62
7
  6
CONTINUOUS
 10
-22.2015346172
 20
37.8166287976
 11
-22.0591343117
 21
37.8804123033
  0
LINE
  5
250
100
AcDbEntity
  8
DRAFT
100
AcDbLine
 62
7
  6
CONTINUOUS
 10
-22.4824194312
 20
34.744195809
 11
-22.6248197367
 21
34.6804123033
  0
LINE
  5
251
100
AcDbEntity
  8
DRAFT
100
AcDbLine
 62
7
  6
CONTINUOUS
 10
-22.2338519639
 20
37.8023423877
 11
-22.2015346172
 21
37.8166287976
  0
LINE
  5
252
100
AcDbEntity
  8
DRAFT
100
AcDbLine
 62
7
  6
CONTINUOUS
 10
-22.4501020844
 20
34.7584822189
 11
-22.4824194312
 21
34.744195809
  0
LINE
  5
253
100
AcDbEntity
  8
DRAFT
100
AcDbLine
 62
7
  6
CONTINUOUS
 10
-22.2561523155
 20
37.7926125008
 11
-22.2338519639
 21
37.8023423877
  0
LINE
  5
254
100
AcDbEntity
  8
DRAFT
100
AcDbLine
 62
7
  6
CONTINUOUS
 10
-22.4278017328
 20
34.7682121058
 11
-22.4501020844
 21
34.7584822189
  0
LWPOLYLINE
  5
255
100
AcDbEntity
  8
DRAFT
100
AcDbPolyline
 62
7
  6
CONTINUOUS
 90
6
 70
0
 10
-22.297322441
 20
37.7754259071
 10
-22.290676414
 20
37.7780897551
 10
-22.2839441227
 20
37.7808338369
 10
-22.2771255672
 20
37.7836581523
 10
-22.2702411447
 20
37.7865607224
 10
-22.2561523155
 20
37.7926125008
  0
LWPOLYLINE
  5
256
100
AcDbEntity
  8
DRAFT
100
AcDbPolyline
 62
7
  6
CONTINUOUS
 90
6
 70
0
 10
-22.3866316074
 20
34.7853986995
 10
-22.3932776344
 20
34.7827348515
 10
-22.4000099257
 20
34.7799907697
 10
-22.4068284811
 20
34.7771664543
 10
-22.4137129037
 20
34.7742638842
 10
-22.4278017328
 20
34.7682121058
  0
LINE
  5
257
100
AcDbEntity
  8
RACCORDO
100
AcDbLine
 62
250
  6
CONTINUOUS
 10
-20.905804374
 20
36.6934532289
 11
-21.235803805
 21
36.5953710337
  0
LINE
  5
258
100
AcDbEntity
  8
RACCORDO
100
AcDbLine
 62
250
  6
CONTINUOUS
 10
-20.746179401
 20
36.5471968406
 11
-21.088082642
 21
36.4455766034
  0
LWPOLYLINE
  5
259
100
AcDbEntity
  8
0
100
AcDbPolyline
 62
7
  6
CONTINUOUS
 90
10
 70
0
 10
-5.6780676806
 20
66.1458279837
 10
-5.6682949112
 20
66.1573426005
 10
-5.6569585417
 20
66.1685438355
 10
-5.6440585721
 20
66.1794316887
 10
-5.6296439076
 20
66.190104227
 10
-5.6136656429
 20
66.2004633835
 10
-5.5959770623
 20
66.2102149578
 10
-5.5765292604
 20
66.2192608833
 10
-5.5553711426
 20
66.2276992265
 10
-5.5325027089
 20
66.2355299876
  0
LWPOLYLINE
  5
25A
100
AcDbEntity
  8
0
100
AcDbPolyline
 62
7
  6
CONTINUOUS
 90
10
 70
0
 10
-5.6780676153
 20
64.7079303685
 10
-5.6682948712
 20
64.71944498
 10
-5.6569585206
 20
64.7306462022
 10
-5.6440585635
 20
64.7415340351
 10
-5.6296439056
 20
64.7522065411
 10
-5.6136656413
 20
64.7625656578
 10
-5.5959770536
 20
64.772317198
 10
-5.5765292369
 20
64.7813630995
 10
-5.5553710969
 20
64.7898014245
 10
-5.5325026334
 20
64.7976321731
  0
LWPOLYLINE
  5
25B
100
AcDbEntity
  8
0
100
AcDbPolyline
 62
7
  6
CONTINUOUS
 90
10
 70
0
 10
-3.8033698593
 20
67.2552868736
 10
-3.8138962106
 20
67.2434150743
 10
-3.8258537609
 20
67.2318923408
 10
-3.8392425103
 20
67.2207186729
 10
-3.8540129189
 20
67.2098201211
 10
-3.8702145265
 20
67.199270635
 10
-3.8879959529
 20
67.1892920633
 10
-3.9074067382
 20
67.1799583557
 10
-3.9283973423
 20
67.1711955626
 10
-3.9509677652
 20
67.163003684
  0
LWPOLYLINE
  5
25C
100
AcDbEntity
  8
0
100
AcDbPolyline
 62
7
  6
CONTINUOUS
 90
10
 70
0
 10
-3.8033698593
 20
65.8173893106
 10
-3.8138962106
 20
65.8055175114
 10
-3.8258537609
 20
65.7939947778
 10
-3.8392425103
 20
65.7828211099
 10
-3.8540129189
 20
65.7719225581
 10
-3.8702145265
 20
65.761373072
 10
-3.8879959529
 20
65.7513945003
 10
-3.9074067382
 20
65.7420607928
 10
-3.9283973423
 20
65.7332979997
 10
-3.9509677652
 20
65.725106121
  0
LWPOLYLINE
  5
25D
100
AcDbEntity
  8
0
100
AcDbPolyline
 62
7
  6
CONTINUOUS
 90
10
 70
0
 10
-3.8033698593
 20
64.3794917476
 10
-3.8138962132
 20
64.3676199318
 10
-3.8258537642
 20
64.3560971781
 10
-3.8392425123
 20
64.3449234866
 10
-3.8540129174
 20
64.3340249019
 10
-3.8702145197
 20
64.3234753792
 10
-3.8879959395
 20
64.3134967845
 10
-3.907406717
 20
64.3041630728
 10
-3.928397312
 20
64.2954002891
 10
-3.9509677246
 20
64.2872084331
  0
LINE
  5
25E
100
AcDbEntity
  8
RACCORDO
100
AcDbLine
 62
7
  6
CONTINUOUS
 10
-21.8419770242
 20
37.8804123033
 11
-22.1710384718
 21
37.6316314757
  0
LWPOLYLINE
  5
25F
100
AcDbEntity
  8
RACCORDO
100
AcDbPolyline
 62
250
  6
CONTINUOUS
 90
6
 70
0
 10
-17.3222036689
 20
32.4218336595
 10
-17.3308526609
 20
32.4162508909
 10
-17.3395352859
 20
32.4108318042
 10
-17.3480945044
 20
32.405584789
 10
-17.3563147811
 20
32.4004600133
 10
-17.3641100951
 20
32.3955063244
  0
LWPOLYLINE
  5
260
100
AcDbEntity
  8
RACCORDO
100
AcDbPolyline
 62
250
  6
CONTINUOUS
 90
6
 70
0
 10
-17.3950981463
 20
32.3761125872
 10
-17.3991360532
 20
32.3735150065
 10
-17.4023989173
 20
32.3715037964
 10
-17.404847268
 20
32.3700959237
 10
-17.4063619373
 20
32.3691755251
 10
-17.406891792
 20
32.368684097
  0
LWPOLYLINE
  5
261
100
AcDbEntity
  8
RACCORDO
100
AcDbPolyline
 62
250
  6
CONTINUOUS
 90
4
 70
0
 10
-17.3641100951
 20
32.3955063244
 10
-17.378397257
 20
32.3865953621
 10
-17.3846190848
 20
32.3826297565
 10
-17.3950981463
 20
32.3761125872
  0
LWPOLYLINE
  5
262
100
AcDbEntity
  8
RACCORDO
100
AcDbPolyline
 62
250
  6
CONTINUOUS
 90
6
 70
0
 10
-17.4821902657
 20
32.6984180974
 10
-17.4911598336
 20
32.6933627726
 10
-17.5001417455
 20
32.6884654937
 10
-17.5089858926
 20
32.6837287351
 10
-17.5174904566
 20
32.6790967708
 10
-17.5255672304
 20
32.6746136032
  0
LWPOLYLINE
  5
263
100
AcDbEntity
  8
RACCORDO
100
AcDbPolyline
 62
250
  6
CONTINUOUS
 90
6
 70
0
 10
-17.5576479472
 20
32.6570775164
 10
-17.5618355663
 20
32.654725952
 10
-17.5652107734
 20
32.6529062645
 10
-17.5677338661
 20
32.6516350293
 10
-17.5693000761
 20
32.6508026534
 10
-17.5698649824
 20
32.6503546161
  0
LWPOLYLINE
  5
264
100
AcDbEntity
  8
RACCORDO
100
AcDbPolyline
 62
250
  6
CONTINUOUS
 90
4
 70
0
 10
-17.5255672304
 20
32.6746136032
 10
-17.540355048
 20
32.6665588493
 10
-17.5468030629
 20
32.6629691638
 10
-17.5576479472
 20
32.6570775164
  0
LWPOLYLINE
  5
265
100
AcDbEntity
  8
RACCORDO
100
AcDbPolyline
 62
7
  6
CONTINUOUS
 90
7
 70
0
 10
-16.8013294787
 20
31.6419570987
 10
-16.7941906069
 20
31.6455558117
 10
-16.7864038944
 20
31.6484884486
 10
-16.7779693411
 20
31.6507550096
 10
-16.768886947
 20
31.6523554946
 10
-16.7591567121
 20
31.6532899036
 10
-16.7487786365
 20
31.6535582366
  0
LWPOLYLINE
  5
266
100
AcDbEntity
  8
RACCORDO
100
AcDbPolyline
 62
250
  6
CONTINUOUS
 90
9
 70
0
 10
-16.5571046784
 20
31.3825779675
 10
-16.5664567953
 20
31.3782890636
 10
-16.5757728604
 20
31.3751452123
 10
-16.5848756802
 20
31.3731009762
 10
-16.5936501122
 20
31.3720614432
 10
-16.6018742356
 20
31.3720310815
 10
-16.6093722735
 20
31.3730708315
 10
-16.6161563676
 20
31.3751592476
 10
-16.6222376729
 20
31.3782408438
  0
LINE
  5
267
100
AcDbEntity
  8
RACCORDO
100
AcDbLine
 62
7
  6
CONTINUOUS
 10
-3.6419770242
 20
35.9304123033
 11
-3.5311336953
 21
35.9806111153
  0
LINE
  5
268
100
AcDbEntity
  8
DRAFT
100
AcDbLine
 62
7
  6
CONTINUOUS
 10
-3.0015346172
 20
37.8166287976
 11
-2.8591343117
 21
37.8804123033
  0
LINE
  5
269
100
AcDbEntity
  8
DRAFT
100
AcDbLine
 62
7
  6
CONTINUOUS
 10
-3.2824194312
 20
34.744195809
 11
-3.4248197367
 21
34.6804123033
  0
LWPOLYLINE
  5
26A
100
AcDbEntity
  8
RACCORDO
100
AcDbPolyline
 62
7
  6
CONTINUOUS
 90
7
 70
0
 10
-17.0502677513
 20
31.9508191322
 10
-17.0435157199
 20
31.9538093964
 10
-17.0363501265
 20
31.9562430996
 10
-17.0287709713
 20
31.9581202419
 10
-17.0207782542
 20
31.9594408233
 10
-17.0123719751
 20
31.9602048437
 10
-17.0035521342
 20
31.9604123033
  0
LINE
  5
26B
100
AcDbEntity
  8
DRAFT
100
AcDbLine
 62
7
  6
CONTINUOUS
 10
-3.0338519639
 20
37.8023423877
 11
-3.0015346172
 21
37.8166287976
  0
LINE
  5
26C
100
AcDbEntity
  8
DRAFT
100
AcDbLine
 62
7
  6
CONTINUOUS
 10
-3.2501020844
 20
34.7584822189
 11
-3.2824194312
 21
34.744195809
  0
LWPOLYLINE
  5
26D
100
AcDbEntity
  8
RACCORDO
100
AcDbPolyline
 62
250
  6
CONTINUOUS
 90
6
 70
0
 10
-17.7206765065
 20
33.1955341072
 10
-17.7301273025
 20
33.1914359186
 10
-17.739551299
 20
33.1874809463
 10
-17.7488130842
 20
33.1836633065
 10
-17.75773854
 20
33.179920901
 10
-17.7662365843
 20
33.1762897248
  0
LINE
  5
26E
100
AcDbEntity
  8
DRAFT
100
AcDbLine
 62
7
  6
CONTINUOUS
 10
-3.0561523155
 20
37.7926125008
 11
-3.0338519639
 21
37.8023423877
  0
LINE
  5
26F
100
AcDbEntity
  8
DRAFT
100
AcDbLine
 62
7
  6
CONTINUOUS
 10
-3.2278017328
 20
34.7682121058
 11
-3.2501020844
 21
34.7584822189
  0
LWPOLYLINE
  5
270
100
AcDbEntity
  8
RACCORDO
100
AcDbPolyline
 62
250
  6
CONTINUOUS
 90
3
 70
0
 10
-17.7662365843
 20
33.1762897248
 10
-17.7817693331
 20
33.1697823139
 10
-17.7885557864
 20
33.1668729555
  0
LWPOLYLINE
  5
271
100
AcDbEntity
  8
RACCORDO
100
AcDbPolyline
 62
250
  6
CONTINUOUS
 90
7
 70
0
 10
-17.7885557864
 20
33.1668729555
 10
-17.7999468054
 20
33.1621124695
 10
-17.8043577397
 20
33.1602054281
 10
-17.807902093
 20
33.1587336988
 10
-17.8105387518
 20
33.1577122351
 10
-17.8121825461
 20
33.1570401575
 10
-17.8127980828
 20
33.1566680639
  0
LWPOLYLINE
  5
272
100
AcDbEntity
  8
DRAFT
100
AcDbPolyline
 62
7
  6
CONTINUOUS
 90
6
 70
0
 10
-3.097322441
 20
37.7754259071
 10
-3.090676414
 20
37.7780897551
 10
-3.0839441227
 20
37.7808338369
 10
-3.0771255672
 20
37.7836581523
 10
-3.0702411447
 20
37.7865607224
 10
-3.0561523155
 20
37.7926125008
  0
LWPOLYLINE
  5
273
100
AcDbEntity
  8
DRAFT
100
AcDbPolyline
 62
7
  6
CONTINUOUS
 90
6
 70
0
 10
-3.1866316074
 20
34.7853986995
 10
-3.1932776344
 20
34.7827348515
 10
-3.2000099257
 20
34.7799907697
 10
-3.2068284811
 20
34.7771664543
 10
-3.2137129037
 20
34.7742638842
 10
-3.2278017328
 20
34.7682121058
  0
LWPOLYLINE
  5
274
100
AcDbEntity
  8
RACCORDO
100
AcDbPolyline
 62
7
  6
CONTINUOUS
 90
7
 70
0
 10
-17.2322129793
 20
32.2079950451
 10
-17.2259278651
 20
32.2105072003
 10
-17.2193385262
 20
32.2125533079
 10
-17.2124449627
 20
32.214133368
 10
-17.2052471747
 20
32.2152473806
 10
-17.1977451621
 20
32.2158953456
 10
-17.1899389249
 20
32.2160772631
  0
LWPOLYLINE
  5
275
100
AcDbEntity
  8
RACCORDO
100
AcDbPolyline
 62
250
  6
CONTINUOUS
 90
10
 70
0
 10
-16.9408442565
 20
31.8111229814
 10
-16.9514787592
 20
31.8073273559
 10
-16.9619420112
 20
31.8047907408
 10
-16.9720748573
 20
31.8034551115
 10
-16.9818240138
 20
31.8032425968
 10
-16.9909465227
 20
31.8041432531
 10
-16.9991681917
 20
31.80616573
 10
-17.0064763296
 20
31.8092791524
 10
-17.0129169533
 20
31.8134629348
 10
-17.0184107585
 20
31.8187433122
  0
LINE
  5
276
100
AcDbEntity
  8
RACCORDO
100
AcDbLine
 62
7
  6
CONTINUOUS
 10
-17.8782080666
 20
33.4654700028
 11
-17.8982830125
 21
33.4582858961
  0
LWPOLYLINE
  5
277
100
AcDbEntity
  8
RACCORDO
100
AcDbPolyline
 62
7
  6
CONTINUOUS
 90
7
 70
0
 10
-17.4296039026
 20
32.5305991597
 10
-17.4239562746
 20
32.5325763173
 10
-17.4180938343
 20
32.5341891173
 10
-17.4120165819
 20
32.5354375597
 10
-17.4057245173
 20
32.5363216444
 10
-17.3992176406
 20
32.5368413716
 10
-17.3924959517
 20
32.5369967412
  0
LWPOLYLINE
  5
278
100
AcDbEntity
  8
RACCORDO
100
AcDbPolyline
 62
7
  6
CONTINUOUS
 90
7
 70
0
 10
-17.8982830125
 20
33.4582858961
 10
-17.9102921992
 20
33.4541052776
 10
-17.9154262599
 20
33.4522952914
 10
-17.9197668671
 20
33.4508244136
 10
-17.9231419729
 20
33.4497441054
 10
-17.925376493
 20
33.4490051801
 10
-17.9262989501
 20
33.4486087616
  0
LWPOLYLINE
  5
279
100
AcDbEntity
  8
RACCORDO
100
AcDbPolyline
 62
250
  6
CONTINUOUS
 90
13
 70
0
 10
-17.1012890712
 20
32.0211229814
 10
-17.1096437271
 20
32.018398001
 10
-17.1179398794
 20
32.0163825349
 10
-17.1260995703
 20
32.0150582205
 10
-17.1340841814
 20
32.0143871563
 10
-17.1417815758
 20
32.0143755866
 10
-17.149054604
 20
32.0150553723
 10
-17.1559104653
 20
32.0164263342
 10
-17.1622995111
 20
32.0184523458
 10
-17.1680924479
 20
32.0210919675
 10
-17.1732715171
 20
32.0243238461
 10
-17.1778670022
 20
32.0281619342
 10
-17.1818513366
 20
32.03261647
  0
LWPOLYLINE
  5
27A
100
AcDbEntity
  8
DRAFT
100
AcDbPolyline
 62
7
  6
CONTINUOUS
 90
9
 70
0
 10
-11.207114842
 20
29.9886695296
 10
-11.0356316423
 20
30.04248953
 10
-10.8637908782
 20
30.1031037951
 10
-10.6915268812
 20
30.1701916109
 10
-10.5189053198
 20
30.2440736912
 10
-10.3461231992
 20
30.3257121775
 10
-10.1732461879
 20
30.4154277833
 10
-10.0002086174
 20
30.512899795
 10
-9.8270104878
 20
30.6181282125
  0
LINE
  5
27B
100
AcDbEntity
  8
RACCORDO
100
AcDbLine
 62
250
  6
CONTINUOUS
 10
-4.7477178998
 20
36.0106724396
 11
-4.3958714063
 21
36.1152480031
  0
LINE
  5
27C
100
AcDbEntity
  8
RACCORDO
100
AcDbLine
 62
250
  6
CONTINUOUS
 10
-4.5991269548
 20
35.8611365254
 11
-4.2481502434
 21
35.9654535729
  0
LINE
  5
27D
100
AcDbEntity
  8
DRAFT
100
AcDbLine
 62
7
  6
CONTINUOUS
 10
-2.7419770242
 20
74.6828662935
 11
-2.7559410761
 21
74.6619175562
  0
LWPOLYLINE
  5
27E
100
AcDbEntity
  8
RACCORDO
100
AcDbPolyline
 62
250
  6
CONTINUOUS
 90
7
 70
0
 10
-16.9408442565
 20
31.8818336595
 10
-16.9487356738
 20
31.875224745
 10
-16.9566995945
 20
31.8687847029
 10
-16.9645694837
 20
31.8625362677
 10
-16.9721082551
 20
31.8564463731
 10
-16.9792359566
 20
31.8505742616
 10
-16.9923289667
 20
31.8399880145
  0
LWPOLYLINE
  5
27F
100
AcDbEntity
  8
RACCORDO
100
AcDbPolyline
 62
250
  6
CONTINUOUS
 90
6
 70
0
 10
-17.0076225286
 20
31.8275475131
 10
-17.0113031581
 20
31.8244687139
 10
-17.0143018152
 20
31.822085476
 10
-17.0165770314
 20
31.8204141131
 10
-17.0179699347
 20
31.819323187
 10
-17.0184107585
 20
31.8187433122
  0
LWPOLYLINE
  5
280
100
AcDbEntity
  8
RACCORDO
100
AcDbPolyline
 62
250
  6
CONTINUOUS
 90
3
 70
0
 10
-16.9923289667
 20
31.8399880145
 10
-16.9980137421
 20
31.8352881915
 10
-17.0076225286
 20
31.8275475131
  0
LWPOLYLINE
  5
281
100
AcDbEntity
  8
RACCORDO
100
AcDbPolyline
 62
250
  6
CONTINUOUS
 90
6
 70
0
 10
-17.1012890712
 20
32.0918336595
 10
-17.1094980458
 20
32.0856237745
 10
-17.1177649832
 20
32.0795816927
 10
-17.1259262798
 20
32.0737241139
 10
-17.1337522483
 20
32.0680105826
 10
-17.141160243
 20
32.0624961439
  0
LWPOLYLINE
  5
282
100
AcDbEntity
  8
RACCORDO
100
AcDbPolyline
 62
250
  6
CONTINUOUS
 90
6
 70
0
 10
-17.1706406364
 20
32.0408854476
 10
-17.17447168
 20
32.0379941838
 10
-17.1775808815
 20
32.0357554713
 10
-17.179928064
 20
32.0341861329
 10
-17.1813720326
 20
32.0331613319
 10
-17.1818513366
 20
32.03261647
  0
LWPOLYLINE
  5
283
100
AcDbEntity
  8
RACCORDO
100
AcDbPolyline
 62
250
  6
CONTINUOUS
 90
4
 70
0
 10
-17.141160243
 20
32.0624961439
 10
-17.1547556262
 20
32.0525630065
 10
-17.1606659927
 20
32.0481491788
 10
-17.1706406364
 20
32.0408854476
  0
LINE
  5
284
100
AcDbEntity
  8
DRAFT
100
AcDbLine
 62
7
  6
CONTINUOUS
 10
-9.529409988
 20
30.8176474246
 11
-9.5434893048
 21
30.8078132557
  0
LINE
  5
285
100
AcDbEntity
  8
DRAFT
100
AcDbLine
 62
7
  6
CONTINUOUS
 10
-9.5434893048
 20
30.8078132557
 11
-9.6005719895
 21
30.7683466004
  0
LINE
  5
286
100
AcDbEntity
  8
DRAFT
100
AcDbLine
 62
7
  6
CONTINUOUS
 10
-9.5140304296
 20
30.8281893049
 11
-9.529409988
 21
30.8176474246
  0
LWPOLYLINE
  5
287
100
AcDbEntity
  8
DRAFT
100
AcDbPolyline
 62
7
  6
CONTINUOUS
 90
3
 70
0
 10
-9.6005719895
 20
30.7683466004
 10
-9.636536127
 20
30.7437735666
 10
-9.6630838849
 20
30.7258089487
  0
LWPOLYLINE
  5
288
100
AcDbEntity
  8
DRAFT
100
AcDbPolyline
 62
7
  6
CONTINUOUS
 90
7
 70
0
 10
-9.6630838849
 20
30.7258089487
 10
-9.6770413355
 20
30.7164406372
 10
-9.6914373916
 20
30.7068989027
 10
-9.7061089741
 20
30.6970149118
 10
-9.7210017233
 20
30.6868664473
 10
-9.7361699989
 20
30.6767599717
 10
-9.7516138009
 20
30.6669464566
  0
LINE
  5
289
100
AcDbEntity
  8
DRAFT
100
AcDbLine
 62
7
  6
CONTINUOUS
 10
-9.7516138009
 20
30.6669464566
 11
-9.7777145802
 21
30.6498770148
  0
LINE
  5
28A
100
AcDbEntity
  8
DRAFT
100
AcDbLine
 62
7
  6
CONTINUOUS
 10
-9.7777145802
 20
30.6498770148
 11
-9.8028549553
 21
30.6336069527
  0
LINE
  5
28B
100
AcDbEntity
  8
DRAFT
100
AcDbLine
 62
7
  6
CONTINUOUS
 10
-9.8028549553
 20
30.6336069527
 11
-9.8270104878
 21
30.6181282125
  0
LINE
  5
28C
100
AcDbEntity
  8
DRAFT
100
AcDbLine
 62
7
  6
CONTINUOUS
 10
-9.4495373406
 20
30.8684415035
 11
-9.4203604061
 21
30.8869365779
  0
LWPOLYLINE
  5
28D
100
AcDbEntity
  8
DRAFT
100
AcDbPolyline
 62
7
  6
CONTINUOUS
 90
3
 70
0
 10
-9.5085481826
 20
30.8317479896
 10
-9.5108241896
 20
30.8303289021
 10
-9.5140304296
 20
30.8281893049
  0
LINE
  5
28E
100
AcDbEntity
  8
DRAFT
100
AcDbLine
 62
7
  6
CONTINUOUS
 10
-9.4789320901
 20
30.8500451745
 11
-9.4495373406
 21
30.8684415035
  0
LINE
  5
28F
100
AcDbEntity
  8
DRAFT
100
AcDbLine
 62
7
  6
CONTINUOUS
 10
-9.5085481826
 20
30.8317479896
 11
-9.4789320901
 21
30.8500451745
  0
LINE
  5
290
100
AcDbEntity
  8
0
100
AcDbLine
 62
7
  6
CONTINUOUS
 10
-12.7331440242
 20
74.1922093033
 11
-13.2132000242
 21
72.9153583033
  0
LINE
  5
291
100
AcDbEntity
  8
0
100
AcDbLine
 62
7
  6
CONTINUOUS
 10
-13.1821570242
 20
71.8924193033
 11
-12.6113710242
 21
73.3878783033
  0
LINE
  5
292
100
AcDbEntity
  8
RACCORDO
100
AcDbLine
 62
7
  6
CONTINUOUS
 10
-18.8332372818
 20
43.3478931194
 11
-18.8419770242
 21
43.3304123033
  0
LWPOLYLINE
  5
293
100
AcDbEntity
  8
0
100
AcDbPolyline
 62
7
  6
CONTINUOUS
 90
10
 70
0
 10
-5.86264511
 20
67.7207318957
 10
-5.8756062055
 20
67.6977774786
 10
-5.8872997327
 20
67.6724060361
 10
-5.8977256918
 20
67.6446175683
 10
-5.9070141276
 20
67.6145978537
 10
-5.9150349952
 20
67.5821611138
 10
-5.9213981593
 20
67.5467500128
 10
-5.9259735749
 20
67.5081787721
 10
-5.9288912871
 20
67.4666331703
 10
-5.9301512958
 20
67.4221132074
  0
LWPOLYLINE
  5
294
100
AcDbEntity
  8
0
100
AcDbPolyline
 62
7
  6
CONTINUOUS
 90
10
 70
0
 10
-5.86264511
 20
66.2828343327
 10
-5.8756062055
 20
66.2598799156
 10
-5.8872997327
 20
66.2345084731
 10
-5.8977256918
 20
66.2067200053
 10
-5.9070141276
 20
66.1767002907
 10
-5.9150349952
 20
66.1442635508
 10
-5.9213981593
 20
66.1088524498
 10
-5.9259735749
 20
66.0702812091
 10
-5.9288912871
 20
66.0287356073
 10
-5.9301512958
 20
65.9842156444
  0
LWPOLYLINE
  5
295
100
AcDbEntity
  8
0
100
AcDbPolyline
 62
7
  6
CONTINUOUS
 90
10
 70
0
 10
-5.86264511
 20
64.8449364956
 10
-5.8756062073
 20
64.8219820867
 10
-5.8872997358
 20
64.7966106611
 10
-5.8977256954
 20
64.7688222188
 10
-5.9070141311
 20
64.7388025427
 10
-5.915034998
 20
64.7063658499
 10
-5.9213981613
 20
64.6709547921
 10
-5.9259735763
 20
64.6323835868
 10
-5.9288912878
 20
64.5908380165
 10
-5.9301512958
 20
64.5463180814
  0
LWPOLYLINE
  5
296
100
AcDbEntity
  8
0
100
AcDbPolyline
 62
7
  6
CONTINUOUS
 90
10
 70
0
 10
-3.6249595985
 20
67.1110519653
 10
-3.6117149825
 20
67.1340347611
 10
-3.5996728833
 20
67.1596624327
 10
-3.5888333008
 20
67.18793498
 10
-3.5790201577
 20
67.218636866
 10
-3.5704095313
 20
67.2519836278
 10
-3.563529654
 20
67.2886218765
 10
-3.5585566031
 20
67.3287671491
 10
-3.5553143012
 20
67.3722039087
 10
-3.5538027483
 20
67.4189321552
  0
LWPOLYLINE
  5
297
100
AcDbEntity
  8
0
100
AcDbPolyline
 62
7
  6
CONTINUOUS
 90
10
 70
0
 10
-3.6249595985
 20
65.6731544024
 10
-3.6117149825
 20
65.6961371982
 10
-3.5996728833
 20
65.7217648697
 10
-3.5888333008
 20
65.750037417
 10
-3.5790201577
 20
65.780739303
 10
-3.5704095313
 20
65.8140860648
 10
-3.563529654
 20
65.8507243135
 10
-3.5585566031
 20
65.8908695862
 10
-3.5553143012
 20
65.9343063457
 10
-3.5538027483
 20
65.9810345922
  0
LWPOLYLINE
  5
298
100
AcDbEntity
  8
0
100
AcDbPolyline
 62
7
  6
CONTINUOUS
 90
10
 70
0
 10
-3.6249595985
 20
64.2352565652
 10
-3.6117149794
 20
64.2582393655
 10
-3.5996728782
 20
64.2838670452
 10
-3.5888332948
 20
64.3121396044
 10
-3.5790201524
 20
64.3428415024
 10
-3.5704095279
 20
64.3761882798
 10
-3.5635296522
 20
64.412826559
 10
-3.5585566021
 20
64.4529718806
 10
-3.5553143009
 20
64.496408704
 10
-3.5538027483
 20
64.5431370292
  0
LINE
  5
299
100
AcDbEntity
  8
RACCORDO
100
AcDbLine
 62
250
  6
CONTINUOUS
 10
-7.1839416098
 20
55.1394584812
 11
-7.1765857753
 21
55.1521207933
  0
LWPOLYLINE
  5
29A
100
AcDbEntity
  8
0
100
AcDbPolyline
 62
7
  6
CONTINUOUS
 90
10
 70
0
 10
-5.6967052447
 20
61.7939036774
 10
-5.6891094921
 20
61.8068296324
 10
-5.6810794364
 20
61.8188843068
 10
-5.6726150777
 20
61.8300677008
 10
-5.6637414602
 20
61.8403201771
 10
-5.6544335396
 20
61.8497013729
 10
-5.6446161831
 20
61.8583902
 10
-5.6342643466
 20
61.8664462956
 10
-5.6234030742
 20
61.8738100225
 10
-5.6120323659
 20
61.8804813806
  0
LWPOLYLINE
  5
29B
100
AcDbEntity
  8
0
100
AcDbPolyline
 62
7
  6
CONTINUOUS
 90
10
 70
0
 10
-4.720551892
 20
62.0422152212
 10
-4.7302390142
 20
62.0274404263
 10
-4.7394098562
 20
62.0114461893
 10
-4.7480644179
 20
61.9942325102
 10
-4.7562414239
 20
61.975827786
 10
-4.7639021496
 20
61.9562036197
 10
-4.7709304212
 20
61.9352748204
 10
-4.7772875141
 20
61.9130129913
 10
-4.7830121529
 20
61.8894465292
 10
-4.7881043376
 20
61.8645754341
  0
LINE
  5
29C
100
AcDbEntity
  8
DRAFT
100
AcDbLine
 62
7
  6
CONTINUOUS
 10
-22.7211910624
 20
24.4091412142
 11
-22.7419770242
 21
24.3779583131
  0
LWPOLYLINE
  5
29D
100
AcDbEntity
  8
RACCORDO
100
AcDbPolyline
 62
250
  6
CONTINUOUS
 90
6
 70
0
 10
-16.6177648415
 20
31.3922164211
 10
-16.6210865129
 20
31.3887572715
 10
-16.6238251274
 20
31.3860831557
 10
-16.6259335196
 20
31.3842080657
 10
-16.627205275
 20
31.3829852732
 10
-16.6275480621
 20
31.3823331394
  0
LWPOLYLINE
  5
29E
100
AcDbEntity
  8
RACCORDO
100
AcDbPolyline
 62
250
  6
CONTINUOUS
 90
7
 70
0
 10
-16.5571046786
 20
31.4532886458
 10
-16.5642475646
 20
31.4458720132
 10
-16.571488713
 20
31.4386225258
 10
-16.5786596524
 20
31.4315769727
 10
-16.5855135746
 20
31.4247209289
 10
-16.5919776468
 20
31.4181227021
 10
-16.6038760418
 20
31.406207557
  0
LWPOLYLINE
  5
29F
100
AcDbEntity
  8
RACCORDO
100
AcDbPolyline
 62
250
  6
CONTINUOUS
 90
3
 70
0
 10
-16.6038760418
 20
31.406207557
 10
-16.6090259918
 20
31.4009271311
 10
-16.6177648415
 20
31.3922164211
  0
LWPOLYLINE
  5
2A0
100
AcDbEntity
  8
RACCORDO
100
AcDbPolyline
 62
7
  6
CONTINUOUS
 90
13
 70
0
 10
-8.1834134401
 20
32.2013334392
 10
-8.1859916525
 20
32.1987119893
 10
-8.1892950006
 20
32.1967151293
 10
-8.1932997269
 20
32.1953287332
 10
-8.1979917733
 20
32.19451172
 10
-8.2033183314
 20
32.1942631016
 10
-8.2091863857
 20
32.1946207052
 10
-8.2155432127
 20
32.1955576387
 10
-8.2223390276
 20
32.1970320857
 10
-8.2294754044
 20
32.199051754
 10
-8.2368771873
 20
32.2015897177
 10
-8.2444950758
 20
32.204586528
 10
-8.2522649746
 20
32.2079973073
  0
LWPOLYLINE
  5
2A1
100
AcDbEntity
  8
RACCORDO
100
AcDbPolyline
 62
250
  6
CONTINUOUS
 90
9
 70
0
 10
-8.8308002817
 20
31.407983224
 10
-8.8050992642
 20
31.4340185631
 10
-8.7793495575
 20
31.4604539726
 10
-8.7535861544
 20
31.4872619839
 10
-8.7277850691
 20
31.5144761193
 10
-8.7018654343
 20
31.5421928881
 10
-8.6758064489
 20
31.5704485519
 10
-8.6496452839
 20
31.5992171236
 10
-8.6233901532
 20
31.6285034938
  0
LINE
  5
2A2
100
AcDbEntity
  8
RACCORDO
100
AcDbLine
 62
7
  6
CONTINUOUS
 10
-8.8959299137
 20
31.3323289836
 11
-8.7399332564
 21
31.4902882434
  0
LINE
  5
2A3
100
AcDbEntity
  8
RACCORDO
100
AcDbLine
 62
250
  6
CONTINUOUS
 10
-8.8785785719
 20
31.359950835
 11
-8.8564470348
 21
31.3823446838
  0
LINE
  5
2A4
100
AcDbEntity
  8
RACCORDO
100
AcDbLine
 62
250
  6
CONTINUOUS
 10
-8.9756854708
 20
31.3337059095
 11
-8.9269018868
 21
31.3825779677
  0
LWPOLYLINE
  5
2A5
100
AcDbEntity
  8
RACCORDO
100
AcDbPolyline
 62
250
  6
CONTINUOUS
 90
7
 70
0
 10
-8.9269018868
 20
31.4532886458
 10
-8.8951257564
 20
31.4850845796
 10
-8.8632858221
 20
31.517513446
 10
-8.8313820838
 20
31.5505752449
 10
-8.7994145416
 20
31.5842699763
 10
-8.7673831954
 20
31.6185976402
 10
-8.7352880453
 20
31.6535582366
  0
LINE
  5
2A6
100
AcDbEntity
  8
RACCORDO
100
AcDbLine
 62
250
  6
CONTINUOUS
 10
-8.8564470348
 20
31.3823446838
 11
-8.8308002817
 21
31.407983224
  0
LWPOLYLINE
  5
2A7
100
AcDbEntity
  8
RACCORDO
100
AcDbPolyline
 62
250
  6
CONTINUOUS
 90
5
 70
0
 10
-9.1628816987
 20
31.1566243118
 10
-9.1172903234
 20
31.1981032793
 10
-9.0709221026
 20
31.2413924737
 10
-9.0236922094
 20
31.2866440782
 10
-8.9756854708
 20
31.3337059095
  0
LWPOLYLINE
  5
2A8
100
AcDbEntity
  8
RACCORDO
100
AcDbPolyline
 62
7
  6
CONTINUOUS
 90
13
 70
0
 10
-8.3694060734
 20
31.9409818874
 10
-8.3719590191
 20
31.9386751464
 10
-8.3751596505
 20
31.9369852776
 10
-8.3789883474
 20
31.9358990797
 10
-8.3834363566
 20
31.9353799639
 10
-8.3884569985
 20
31.9354251235
 10
-8.3939632192
 20
31.936063388
 10
-8.3999078411
 20
31.9372673925
 10
-8.4062495418
 20
31.9389975862
 10
-8.4129008737
 20
31.9412565332
 10
-8.41979646
 20
31.9440167037
 10
-8.426894897
 20
31.9472222406
 10
-8.4341409475
 20
31.9508296453
  0
LWPOLYLINE
  5
2A9
100
AcDbEntity
  8
RACCORDO
100
AcDbPolyline
 62
7
  6
CONTINUOUS
 90
10
 70
0
 10
-9.1940384151
 20
31.06684983
 10
-9.1583339832
 20
31.0977501497
 10
-9.1221621025
 20
31.1296136091
 10
-9.0855433393
 20
31.1624572339
 10
-9.0485474053
 20
31.1962531996
 10
-9.0111472134
 20
31.2310629776
 10
-8.9732230285
 20
31.2670415987
 10
-8.9347552182
 20
31.3042566483
 10
-8.8958201109
 20
31.3426839293
 10
-8.8785785719
 20
31.359950835
  0
LWPOLYLINE
  5
2AA
100
AcDbEntity
  8
RACCORDO
100
AcDbPolyline
 62
7
  6
CONTINUOUS
 90
3
 70
0
 10
-9.192482587
 20
31.0650440364
 10
-9.0581080101
 20
31.180817916
 10
-8.8959299137
 20
31.3323289836
  0
LWPOLYLINE
  5
2AB
100
AcDbEntity
  8
RACCORDO
100
AcDbPolyline
 62
7
  6
CONTINUOUS
 90
10
 70
0
 10
-9.1940384151
 20
31.06684983
 10
-9.2187077108
 20
31.0462826638
 10
-9.2434970035
 20
31.0258591952
 10
-9.2684062932
 20
31.0055794241
 10
-9.2934363783
 20
30.9854426791
 10
-9.3185864603
 20
30.9654496317
 10
-9.3438541437
 20
30.9456022964
 10
-9.3692386298
 20
30.9259013448
 10
-9.3947407173
 20
30.9063461053
 10
-9.4203604061
 20
30.8869365779
  0
LWPOLYLINE
  5
2AC
100
AcDbEntity
  8
RACCORDO
100
AcDbPolyline
 62
250
  6
CONTINUOUS
 90
5
 70
0
 10
-9.3402780376
 20
31.0037886657
 10
-9.2966912927
 20
31.040005107
 10
-9.2525821834
 20
31.0775752256
 10
-9.2079507097
 20
31.1164990216
 10
-9.1628816987
 20
31.1566243118
  0
LWPOLYLINE
  5
2AD
100
AcDbEntity
  8
RACCORDO
100
AcDbPolyline
 62
7
  6
CONTINUOUS
 90
16
 70
0
 10
-9.1940384151
 20
31.06684983
 10
-9.2042238601
 20
31.0587126409
 10
-9.2143903391
 20
31.0511565158
 10
-9.224537852
 20
31.0441814549
 10
-9.2346854044
 20
31.0377996612
 10
-9.2448139908
 20
31.0319989316
 10
-9.2548665945
 20
31.026742657
 10
-9.2648372466
 20
31.0220219419
 10
-9.274731916
 20
31.0178456819
 10
-9.2845114931
 20
31.014203954
 10
-9.294178363
 20
31.0110849414
 10
-9.3037301406
 20
31.0085004609
 10
-9.3131205614
 20
31.0064760403
 10
-9.3223342037
 20
31.0050201888
 10
-9.331386489
 20
31.0041243973
 10
-9.3402774175
 20
31.0037886657
  0
LWPOLYLINE
  5
2AE
100
AcDbEntity
  8
RACCORDO
100
AcDbPolyline
 62
7
  6
CONTINUOUS
 90
13
 70
0
 10
-8.6233901547
 20
31.6285034952
 10
-8.625870769
 20
31.6265797659
 10
-8.6289075638
 20
31.6252574251
 10
-8.6324851072
 20
31.6245243987
 10
-8.6365982092
 20
31.6243493451
 10
-8.6412081212
 20
31.6247273523
 10
-8.6462412007
 20
31.6256785329
 10
-8.6516618345
 20
31.6271776224
 10
-8.6574361893
 20
31.6291891611
 10
-8.6634855204
 20
31.6317102401
 10
-8.6697537325
 20
31.6347128745
 10
-8.6762096653
 20
31.6381463178
 10
-8.6828079504
 20
31.6419693083
  0
LINE
  5
2AF
100
AcDbEntity
  8
RACCORDO
100
AcDbLine
 62
250
  6
CONTINUOUS
 10
-8.8617581624
 20
31.3782510557
 11
-8.8564470348
 21
31.3823446838
  0
LINE
  5
2B0
100
AcDbEntity
  8
RACCORDO
100
AcDbLine
 62
7
  6
CONTINUOUS
 10
-3.3129155765
 20
34.9291931309
 11
-3.6419770242
 21
34.6804123033
  0
LINE
  5
2B1
100
AcDbEntity
  8
0
100
AcDbLine
 62
7
  6
CONTINUOUS
 10
-15.7718670242
 20
74.1922093033
 11
-16.2236400242
 21
72.6091923033
  0
LINE
  5
2B2
100
AcDbEntity
  8
0
100
AcDbLine
 62
7
  6
CONTINUOUS
 10
-11.2463770242
 20
74.1922093033
 11
-11.9677370242
 21
71.8924193033
  0
LINE
  5
2B3
100
AcDbEntity
  8
0
100
AcDbLine
 62
7
  6
CONTINUOUS
 10
-16.0313830242
 20
71.8924193033
 11
-15.2921390242
 21
74.1922093033
  0
LINE
  5
2B4
100
AcDbEntity
  8
RACCORDO
100
AcDbLine
 62
7
  6
CONTINUOUS
 10
-18.0518302134
 20
36.9107044239
 11
-18.0453187857
 21
36.9237282713
  0
LWPOLYLINE
  5
2B5
100
AcDbEntity
  8
0
100
AcDbPolyline
 62
7
  6
CONTINUOUS
 90
10
 70
0
 10
-3.7860295954
 20
61.489195066
 10
-3.7928351742
 20
61.4765883917
 10
-3.8002648946
 20
61.4645480575
 10
-3.8083187565
 20
61.4530740633
 10
-3.8170341076
 20
61.4421361373
 10
-3.8263736002
 20
61.4317645514
 10
-3.8362251914
 20
61.4220501209
 10
-3.8465515334
 20
61.4130231175
 10
-3.8573899738
 20
61.4046532695
 10
-3.8687405128
 20
61.3969405768
  0
LINE
  5
2B6
100
AcDbEntity
  8
RACCORDO
100
AcDbLine
 62
250
  6
CONTINUOUS
 10
-6.6550040481
 20
54.2573382724
 11
-6.6475358412
 21
54.2702841674
  0
LINE
  5
2B7
100
AcDbEntity
  8
RACCORDO
100
AcDbLine
 62
250
  6
CONTINUOUS
 10
-8.3831901795
 20
32.0211229814
 11
-8.4001339737
 21
31.9974798641
  0
LINE
  5
2B8
100
AcDbEntity
  8
RACCORDO
100
AcDbLine
 62
250
  6
CONTINUOUS
 10
-8.3255861776
 20
32.0006606386
 11
-8.3026246968
 21
32.0326226085
  0
LINE
  5
2B9
100
AcDbEntity
  8
RACCORDO
100
AcDbLine
 62
250
  6
CONTINUOUS
 10
-8.4001339737
 20
31.9974798641
 11
-8.4171178965
 21
31.9740496055
  0
LWPOLYLINE
  5
2BA
100
AcDbEntity
  8
RACCORDO
100
AcDbPolyline
 62
250
  6
CONTINUOUS
 90
7
 70
0
 10
-8.3026246968
 20
32.0326226085
 10
-8.2830286445
 20
32.0594543394
 10
-8.2633129406
 20
32.0867952668
 10
-8.2434854537
 20
32.1146495305
 10
-8.2235542156
 20
32.1430212519
 10
-8.2035274234
 20
32.1719145303
 10
-8.1834134408
 20
32.2013334397
  0
LWPOLYLINE
  5
2BB
100
AcDbEntity
  8
RACCORDO
100
AcDbPolyline
 62
250
  6
CONTINUOUS
 90
7
 70
0
 10
-8.3831901795
 20
32.0918336595
 10
-8.3685695386
 20
32.1118116915
 10
-8.353886899
 20
32.1320814177
 10
-8.3391422607
 20
32.1526428379
 10
-8.3243356236
 20
32.1734959522
 10
-8.3094669878
 20
32.1946407606
 10
-8.2945363532
 20
32.2160772631
  0
LINE
  5
2BC
100
AcDbEntity
  8
RACCORDO
100
AcDbLine
 62
250
  6
CONTINUOUS
 10
-8.3478556517
 20
31.9701194114
 11
-8.3255861776
 21
32.0006606386
  0
LINE
  5
2BD
100
AcDbEntity
  8
RACCORDO
100
AcDbLine
 62
250
  6
CONTINUOUS
 10
-8.4171178965
 20
31.9740496055
 11
-8.4341409475
 21
31.9508296453
  0
LINE
  5
2BE
100
AcDbEntity
  8
RACCORDO
100
AcDbLine
 62
250
  6
CONTINUOUS
 10
-8.3694060743
 20
31.9409818881
 11
-8.3478556517
 21
31.9701194114
  0
LINE
  5
2BF
100
AcDbEntity
  8
RACCORDO
100
AcDbLine
 62
250
  6
CONTINUOUS
 10
-8.501530582
 20
31.934123706
 11
-8.4808299755
 21
31.9604123033
  0
LWPOLYLINE
  5
2C0
100
AcDbEntity
  8
RACCORDO
100
AcDbPolyline
 62
250
  6
CONTINUOUS
 90
6
 70
0
 10
-8.543496106
 20
31.8111229814
 10
-8.5588664622
 20
31.7917547525
 10
-8.5742620481
 20
31.7725336412
 10
-8.5896828636
 20
31.7534596475
 10
-8.6051263024
 20
31.7345378028
 10
-8.6205949709
 20
31.7157630757
  0
LINE
  5
2C1
100
AcDbEntity
  8
RACCORDO
100
AcDbLine
 62
250
  6
CONTINUOUS
 10
-8.5224192922
 20
31.9079308247
 11
-8.501530582
 21
31.934123706
  0
LWPOLYLINE
  5
2C2
100
AcDbEntity
  8
RACCORDO
100
AcDbPolyline
 62
250
  6
CONTINUOUS
 90
7
 70
0
 10
-8.4659067266
 20
31.8187727203
 10
-8.4494649152
 20
31.8391005674
 10
-8.4331671171
 20
31.8594460763
 10
-8.4170128366
 20
31.8798080979
 10
-8.4010015733
 20
31.9001854923
 10
-8.3851328224
 20
31.9205771294
 10
-8.3694060743
 20
31.9409818881
  0
LINE
  5
2C3
100
AcDbEntity
  8
RACCORDO
100
AcDbLine
 62
250
  6
CONTINUOUS
 10
-8.543496106
 20
31.8818336595
 11
-8.5224192922
 21
31.9079308247
  0
LWPOLYLINE
  5
2C4
100
AcDbEntity
  8
RACCORDO
100
AcDbPolyline
 62
250
  6
CONTINUOUS
 90
4
 70
0
 10
-8.6205949709
 20
31.7157630757
 10
-8.636096688
 20
31.6971203721
 10
-8.6516340601
 20
31.6786046607
 10
-8.6672044809
 20
31.6602209727
  0
LWPOLYLINE
  5
2C5
100
AcDbEntity
  8
RACCORDO
100
AcDbPolyline
 62
250
  6
CONTINUOUS
 90
5
 70
0
 10
-8.5679321116
 20
31.6935130317
 10
-8.5470249455
 20
31.7185685833
 10
-8.5204834088
 20
31.7508230907
 10
-8.4934360972
 20
31.7842193376
 10
-8.4659067266
 20
31.8187727203
  0
LWPOLYLINE
  5
2C6
100
AcDbEntity
  8
RACCORDO
100
AcDbPolyline
 62
7
  6
CONTINUOUS
 90
4
 70
0
 10
-8.5905430625
 20
31.6542545843
 10
-8.448145032
 20
31.8237479356
 10
-8.3127746678
 20
31.9986667917
 10
-8.1843410359
 20
32.1791422873
  0
LWPOLYLINE
  5
2C7
100
AcDbEntity
  8
RACCORDO
100
AcDbPolyline
 62
7
  6
CONTINUOUS
 90
13
 70
0
 10
-7.9812213091
 20
32.5281230547
 10
-7.9837906367
 20
32.5251143541
 10
-7.9871863037
 20
32.5227325308
 10
-7.991380367
 20
32.5209635434
 10
-7.9963544795
 20
32.519761478
 10
-8.0020476203
 20
32.5191296988
 10
-8.0083532121
 20
32.5191188154
 10
-8.0152069166
 20
32.5197024158
 10
-8.0225484448
 20
32.5208351028
 10
-8.0302641693
 20
32.5225301039
 10
-8.0382649714
 20
32.5247610438
 10
-8.0464899938
 20
32.5274645515
 10
-8.0548628998
 20
32.5305945082
  0
LINE
  5
2C8
100
AcDbEntity
  8
RACCORDO
100
AcDbLine
 62
250
  6
CONTINUOUS
 10
-8.6672044809
 20
31.6602209727
 11
-8.6828079504
 21
31.6419693083
  0
LWPOLYLINE
  5
2C9
100
AcDbEntity
  8
RACCORDO
100
AcDbPolyline
 62
7
  6
CONTINUOUS
 90
3
 70
0
 10
-8.6233901532
 20
31.6285034938
 10
-8.5984999758
 20
31.6574238255
 10
-8.5679321116
 20
31.6935130317
  0
LINE
  5
2CA
100
AcDbEntity
  8
RACCORDO
100
AcDbLine
 62
7
  6
CONTINUOUS
 10
-8.7399332564
 20
31.4902882434
 11
-8.5905430625
 21
31.6542545843
  0
LINE
  5
2CB
100
AcDbEntity
  8
0
100
AcDbLine
 62
7
  6
CONTINUOUS
 10
-11.2622260242
 20
72.7068043033
 11
-11.0231980242
 21
73.5602853033
  0
LINE
  5
2CC
100
AcDbEntity
  8
0
100
AcDbLine
 62
7
  6
CONTINUOUS
 10
-11.4928890242
 20
71.8924193033
 11
-11.3604240242
 21
72.3515393033
  0
LINE
  5
2CD
100
AcDbEntity
  8
RACCORDO
100
AcDbLine
 62
7
  6
CONTINUOUS
 10
-7.4332372818
 20
43.3478931194
 11
-7.4419770242
 21
43.3304123033
  0
LINE
  5
2CE
100
AcDbEntity
  8
RACCORDO
100
AcDbLine
 62
7
  6
CONTINUOUS
 10
-6.6518302134
 20
36.9107044239
 11
-6.6453187857
 21
36.9237282713
  0
LINE
  5
2CF
100
AcDbEntity
  8
RACCORDO
100
AcDbLine
 62
250
  6
CONTINUOUS
 10
-7.9261688639
 20
32.6285901875
 11
-7.9146223445
 21
32.6503078987
  0
LINE
  5
2D0
100
AcDbEntity
  8
RACCORDO
100
AcDbLine
 62
250
  6
CONTINUOUS
 10
-8.0022704497
 20
32.6277074193
 11
-8.013974679
 21
32.60568264
  0
LINE
  5
2D1
100
AcDbEntity
  8
RACCORDO
100
AcDbLine
 62
250
  6
CONTINUOUS
 10
-8.013974679
 20
32.60568264
 11
-8.025670393
 21
32.5839130025
  0
LINE
  5
2D2
100
AcDbEntity
  8
RACCORDO
100
AcDbLine
 62
250
  6
CONTINUOUS
 10
-7.9487453954
 20
32.5867878267
 11
-7.9261688639
 21
32.6285901875
  0
LWPOLYLINE
  5
2D3
100
AcDbEntity
  8
RACCORDO
100
AcDbPolyline
 62
250
  6
CONTINUOUS
 90
10
 70
0
 10
-7.9146223445
 20
32.6503078987
 10
-7.8910960359
 20
32.6936255067
 10
-7.8678769526
 20
32.7373042484
 10
-7.844971324
 20
32.7813429205
 10
-7.8224701287
 20
32.8255718755
 10
-7.8002919162
 20
32.8701566119
 10
-7.7781980976
 20
32.9156053933
 10
-7.7561291279
 20
32.9620941253
 10
-7.7341892195
 20
33.009458721
 10
-7.7123998444
 20
33.0577039996
  0
LWPOLYLINE
  5
2D4
100
AcDbEntity
  8
RACCORDO
100
AcDbPolyline
 62
250
  6
CONTINUOUS
 90
10
 70
0
 10
-8.0022704497
 20
32.6984180974
 10
-7.9813768608
 20
32.7368358464
 10
-7.9607350718
 20
32.7755479654
 10
-7.9403450826
 20
32.8145544544
 10
-7.9202392618
 20
32.8537730326
 10
-7.9003852408
 20
32.8932859808
 10
-7.8806859141
 20
32.9333401416
 10
-7.8611089131
 20
32.9740177956
 10
-7.8416866064
 20
33.0152366621
 10
-7.8224189939
 20
33.0569967412
  0
LINE
  5
2D5
100
AcDbEntity
  8
RACCORDO
100
AcDbLine
 62
250
  6
CONTINUOUS
 10
-8.025670393
 20
32.5839130025
 11
-8.0373567724
 21
32.562397591
  0
LWPOLYLINE
  5
2D6
100
AcDbEntity
  8
RACCORDO
100
AcDbPolyline
 62
250
  6
CONTINUOUS
 90
3
 70
0
 10
-8.0373567724
 20
32.562397591
 10
-8.0490305404
 20
32.5411327424
 10
-8.0548628998
 20
32.5305945082
  0
LWPOLYLINE
  5
2D7
100
AcDbEntity
  8
RACCORDO
100
AcDbPolyline
 62
250
  6
CONTINUOUS
 90
3
 70
0
 10
-7.9812213096
 20
32.5281230549
 10
-7.9705895691
 20
32.5471433343
 10
-7.9487453954
 20
32.5867878267
  0
LINE
  5
2D8
100
AcDbEntity
  8
RACCORDO
100
AcDbLine
 62
250
  6
CONTINUOUS
 10
-8.1155720657
 20
32.4976754081
 11
-8.0919890114
 21
32.5369967412
  0
LINE
  5
2D9
100
AcDbEntity
  8
RACCORDO
100
AcDbLine
 62
250
  6
CONTINUOUS
 10
-8.1390210704
 20
32.4592877142
 11
-8.1155720657
 21
32.4976754081
  0
LINE
  5
2DA
100
AcDbEntity
  8
RACCORDO
100
AcDbLine
 62
250
  6
CONTINUOUS
 10
-8.1623360253
 20
32.3511229814
 11
-8.1823642658
 21
32.3183763221
  0
LINE
  5
2DB
100
AcDbEntity
  8
RACCORDO
100
AcDbLine
 62
250
  6
CONTINUOUS
 10
-8.1823642658
 20
32.3183763221
 11
-8.2023704333
 21
32.2861724268
  0
LWPOLYLINE
  5
2DC
100
AcDbEntity
  8
RACCORDO
100
AcDbPolyline
 62
250
  6
CONTINUOUS
 90
7
 70
0
 10
-8.0776652336
 20
32.3686585596
 10
-8.0617413071
 20
32.3941677357
 10
-8.0457491383
 20
32.4201006771
 10
-8.0296948069
 20
32.4464600461
 10
-8.013584504
 20
32.4732484869
 10
-7.9974245327
 20
32.500468623
 10
-7.9812213096
 20
32.5281230549
  0
LINE
  5
2DD
100
AcDbEntity
  8
RACCORDO
100
AcDbLine
 62
250
  6
CONTINUOUS
 10
-8.1623360253
 20
32.4218336595
 11
-8.1390210704
 21
32.4592877142
  0
LINE
  5
2DE
100
AcDbEntity
  8
RACCORDO
100
AcDbLine
 62
250
  6
CONTINUOUS
 10
-8.2023704333
 20
32.2861724268
 11
-8.2223524367
 21
32.254507857
  0
LWPOLYLINE
  5
2DF
100
AcDbEntity
  8
RACCORDO
100
AcDbPolyline
 62
250
  6
CONTINUOUS
 90
5
 70
0
 10
-8.1436296411
 20
32.262726649
 10
-8.1319947983
 20
32.2810261156
 10
-8.1141888191
 20
32.3093446572
 10
-8.0960738743
 20
32.3385529314
 10
-8.0776652336
 20
32.3686585596
  0
LWPOLYLINE
  5
2E0
100
AcDbEntity
  8
RACCORDO
100
AcDbPolyline
 62
250
  6
CONTINUOUS
 90
3
 70
0
 10
-8.2223524367
 20
32.254507857
 10
-8.2423019121
 20
32.223368858
 10
-8.2522649746
 20
32.2079973073
  0
LWPOLYLINE
  5
2E1
100
AcDbEntity
  8
RACCORDO
100
AcDbPolyline
 62
7
  6
CONTINUOUS
 90
7
 70
0
 10
-8.1843410359
 20
32.1791422873
 10
-8.0629192304
 20
32.3651690365
 10
-7.9489239691
 20
32.5562181902
 10
-7.8427647777
 20
32.7516319876
 10
-7.7446634313
 20
32.9509629517
 10
-7.6547014518
 20
33.1540029189
 10
-7.5730151293
 20
33.360418575
  0
LWPOLYLINE
  5
2E2
100
AcDbEntity
  8
RACCORDO
100
AcDbPolyline
 62
7
  6
CONTINUOUS
 90
3
 70
0
 10
-8.1834134408
 20
32.2013334397
 10
-8.1666211854
 20
32.2270279878
 10
-8.1436296411
 20
32.262726649
  0
LWPOLYLINE
  5
2E3
100
AcDbEntity
  8
RACCORDO
100
AcDbPolyline
 62
7
  6
CONTINUOUS
 90
13
 70
0
 10
-7.7123998689
 20
33.0577040105
 10
-7.7148774155
 20
33.0540759396
 10
-7.718356649
 20
33.0510664098
 10
-7.7228010147
 20
33.0486617526
 10
-7.7281829568
 20
33.0468078505
 10
-7.7344258912
 20
33.0455165912
 10
-7.7413972407
 20
33.0448622624
 10
-7.7490070154
 20
33.0448210667
 10
-7.7571756633
 20
33.0453414903
 10
-7.7657672991
 20
33.0464461529
 10
-7.7746697897
 20
33.0481114269
 10
-7.7837996283
 20
33.0502701298
 10
-7.7930592185
 20
33.0528764438
  0
LINE
  5
2E4
100
AcDbEntity
  8
RACCORDO
100
AcDbLine
 62
250
  6
CONTINUOUS
 10
-20.7419770242
 20
71.1454150077
 11
-20.7249836151
 21
71.4887680391
  0
LINE
  5
2E5
100
AcDbEntity
  8
RACCORDO
100
AcDbLine
 62
250
  6
CONTINUOUS
 10
-20.5422724894
 20
70.9426374301
 11
-20.5249912305
 21
71.2918064885
  0
LINE
  5
2E6
100
AcDbEntity
  8
RACCORDO
100
AcDbLine
 62
250
  6
CONTINUOUS
 10
-20.3416815589
 20
73.1181871765
 11
-20.3589628179
 21
72.769018118
  0
LINE
  5
2E7
100
AcDbEntity
  8
RACCORDO
100
AcDbLine
 62
250
  6
CONTINUOUS
 10
-20.1419770242
 20
72.9154095989
 11
-20.1589704332
 21
72.5720565674
  0
LWPOLYLINE
  5
2E8
100
AcDbEntity
  8
RACCORDO
100
AcDbPolyline
 62
250
  6
CONTINUOUS
 90
13
 70
0
 10
-20.7249836151
 20
72.5720565674
 10
-20.7232364283
 20
72.5977405783
 10
-20.7181037434
 20
72.6229859749
 10
-20.7096732129
 20
72.6473616334
 10
-20.6980888078
 20
72.6704512826
 10
-20.6835483587
 20
72.6918606131
 10
-20.6663001775
 20
72.7112240108
 10
-20.646638817
 20
72.7282108005
 10
-20.6249000408
 20
72.7425308933
 10
-20.6014550889
 20
72.7539397402
 10
-20.5767043386
 20
72.7622425086
 10
-20.5510704664
 20
72.7672974093
 10
-20.5249912305
 20
72.769018118
  0
LWPOLYLINE
  5
2E9
100
AcDbEntity
  8
RACCORDO
100
AcDbPolyline
 62
250
  6
CONTINUOUS
 90
13
 70
0
 10
-20.1589704332
 20
71.4887680391
 10
-20.16071762
 20
71.4630840282
 10
-20.165850305
 20
71.4378386314
 10
-20.1742808355
 20
71.4134629728
 10
-20.1858652407
 20
71.3903733235
 10
-20.2004056899
 20
71.3689639928
 10
-20.2176538712
 20
71.3496005951
 10
-20.2373152317
 20
71.3326138052
 10
-20.2590540079
 20
71.3182937123
 10
-20.2824989597
 20
71.3068848654
 10
-20.30724971
 20
71.2985820973
 10
-20.332883582
 20
71.2935271969
 10
-20.3589628179
 20
71.2918064885
  0
LWPOLYLINE
  5
2EA
100
AcDbEntity
  8
RACCORDO
100
AcDbPolyline
 62
250
  6
CONTINUOUS
 90
13
 70
0
 10
-21.088082642
 20
36.1152480031
 10
-21.0895060864
 20
36.0958075848
 10
-21.0934038844
 20
36.076695965
 10
-21.0997101121
 20
36.0582363813
 10
-21.1083181113
 20
36.0407410432
 10
-21.1190822936
 20
36.0245058516
 10
-21.131820603
 20
36.0098053948
 10
-21.1463175947
 20
35.9968883034
 10
-21.1623280789
 20
35.9859730461
 10
-21.1795812682
 20
35.9772442339
 10
-21.1977853571
 20
35.9708494987
 10
-21.2166324572
 20
35.9668969952
 10
-21.235803805
 20
35.9654535729
  0
LINE
  5
2EB
100
AcDbEntity
  8
DRAFT
100
AcDbLine
 62
7
  6
CONTINUOUS
 10
-22.696230169
 20
24.7127449316
 11
-22.7211910624
 21
24.4091412142
  0
LWPOLYLINE
  5
2EC
100
AcDbEntity
  8
0
100
AcDbPolyline
 62
7
  6
CONTINUOUS
 90
10
 70
0
 10
-4.6608566971
 20
61.7118783478
 10
-4.6556965599
 20
61.7317566308
 10
-4.6497325121
 20
61.7505465816
 10
-4.6429645537
 20
61.7682482
 10
-4.6353682908
 20
61.7847946797
 10
-4.6269681173
 20
61.8002528271
 10
-4.6178372144
 20
61.8148230619
 10
-4.6079999758
 20
61.8285721905
 10
-4.5974320078
 20
61.8414334065
 10
-4.5861333104
 20
61.8534067097
  0
LINE
  5
2ED
100
AcDbEntity
  8
RACCORDO
100
AcDbLine
 62
7
  6
CONTINUOUS
 10
-7.555277085
 20
33.4089915585
 11
-7.551193578
 21
33.4205097826
  0
LINE
  5
2EE
100
AcDbEntity
  8
RACCORDO
100
AcDbLine
 62
7
  6
CONTINUOUS
 10
-7.5622727921
 20
33.3895850547
 11
-7.555277085
 21
33.4089915585
  0
LWPOLYLINE
  5
2EF
100
AcDbEntity
  8
RACCORDO
100
AcDbPolyline
 62
7
  6
CONTINUOUS
 90
3
 70
0
 10
-7.5730151293
 20
33.360418575
 10
-7.5701823182
 20
33.3680425458
 10
-7.5622727921
 20
33.3895850547
  0
LWPOLYLINE
  5
2F0
100
AcDbEntity
  8
RACCORDO
100
AcDbPolyline
 62
7
  6
CONTINUOUS
 90
10
 70
0
 10
-6.7290289486
 20
32.9991925942
 10
-6.7139063634
 20
33.0389495638
 10
-6.7005145228
 20
33.0793055232
 10
-6.6888534267
 20
33.1202604723
 10
-6.6788902972
 20
33.1619826099
 10
-6.6706579123
 20
33.2043037373
 10
-6.6642546062
 20
33.2467192586
 10
-6.659713157
 20
33.2890609754
 10
-6.6570007866
 20
33.3314970862
 10
-6.6561174949
 20
33.374027591
  0
LINE
  5
2F1
100
AcDbEntity
  8
RACCORDO
100
AcDbLine
 62
250
  6
CONTINUOUS
 10
-7.7634125241
 20
33.124823429
 11
-7.7732390605
 21
33.1006466913
  0
LINE
  5
2F2
100
AcDbEntity
  8
RACCORDO
100
AcDbLine
 62
250
  6
CONTINUOUS
 10
-7.6853802642
 20
33.1221319981
 11
-7.6713170192
 21
33.1566068084
  0
LINE
  5
2F3
100
AcDbEntity
  8
RACCORDO
100
AcDbLine
 62
250
  6
CONTINUOUS
 10
-7.7732390605
 20
33.1006466913
 11
-7.7831220414
 21
33.0766646518
  0
LINE
  5
2F4
100
AcDbEntity
  8
RACCORDO
100
AcDbLine
 62
250
  6
CONTINUOUS
 10
-7.6990840548
 20
33.0891676434
 11
-7.6853802642
 21
33.1221319981
  0
LWPOLYLINE
  5
2F5
100
AcDbEntity
  8
RACCORDO
100
AcDbPolyline
 62
250
  6
CONTINUOUS
 90
10
 70
0
 10
-7.6713170192
 20
33.1566068084
 10
-7.6583146845
 20
33.1876338402
 10
-7.6454097909
 20
33.2189699725
 10
-7.6326072374
 20
33.2506158543
 10
-7.6199348865
 20
33.2825139031
 10
-7.6073740982
 20
33.3147225915
 10
-7.594863429
 20
33.3474178975
 10
-7.582389615
 20
33.3806602286
 10
-7.5699838755
 20
33.4143929682
 10
-7.5576550339
 20
33.4486177741
  0
LWPOLYLINE
  5
2F6
100
AcDbEntity
  8
RACCORDO
100
AcDbPolyline
 62
250
  6
CONTINUOUS
 90
10
 70
0
 10
-7.7634125241
 20
33.1955341072
 10
-7.7513013753
 20
33.2244040981
 10
-7.7392832724
 20
33.2535505203
 10
-7.7273582152
 20
33.2829733738
 10
-7.7155349359
 20
33.3126360643
 10
-7.7038047023
 20
33.3425751861
 10
-7.6921413188
 20
33.3729005222
 10
-7.6805360534
 20
33.4036486667
 10
-7.668997638
 20
33.4347830255
 10
-7.6575260726
 20
33.4663035985
  0
LINE
  5
2F7
100
AcDbEntity
  8
RACCORDO
100
AcDbLine
 62
250
  6
CONTINUOUS
 10
-7.7831220414
 20
33.0766646518
 11
-7.7930592185
 21
33.0528764438
  0
LINE
  5
2F8
100
AcDbEntity
  8
RACCORDO
100
AcDbLine
 62
250
  6
CONTINUOUS
 10
-7.7123998444
 20
33.0577039996
 11
-7.6990840548
 21
33.0891676434
  0
LWPOLYLINE
  5
2F9
100
AcDbEntity
  8
RACCORDO
100
AcDbPolyline
 62
250
  6
CONTINUOUS
 90
4
 70
0
 10
-20.7239123131
 20
72.5352490565
 10
-20.7242470748
 20
72.5496593742
 10
-20.7246041755
 20
72.5619285445
 10
-20.7249836151
 20
72.5720565674
  0
LWPOLYLINE
  5
2FA
100
AcDbEntity
  8
RACCORDO
100
AcDbPolyline
 62
250
  6
CONTINUOUS
 90
4
 70
0
 10
-20.1601245426
 20
71.5297847328
 10
-20.1597656612
 20
71.5136502343
 10
-20.1593809581
 20
71.4999780031
 10
-20.1589704332
 20
71.4887680391
  0
LWPOLYLINE
  5
2FB
100
AcDbEntity
  8
RACCORDO
100
AcDbPolyline
 62
250
  6
CONTINUOUS
 90
3
 70
0
 10
-20.5242546248
 20
72.7392056056
 10
-20.5246117489
 20
72.7561263566
 10
-20.5249912305
 20
72.769018118
  0
LWPOLYLINE
  5
2FC
100
AcDbEntity
  8
RACCORDO
100
AcDbPolyline
 62
250
  6
CONTINUOUS
 90
3
 70
0
 10
-20.3597581285
 20
71.3248455307
 10
-20.3593733958
 20
71.3059689025
 10
-20.3589628179
 20
71.2918064885
  0
LINE
  5
2FD
100
AcDbEntity
  8
RACCORDO
100
AcDbLine
 62
250
  6
CONTINUOUS
 10
-20.7362361485
 20
36.0106724396
 11
-20.746179401
 21
36.5471968406
  0
LINE
  5
2FE
100
AcDbEntity
  8
RACCORDO
100
AcDbLine
 62
250
  6
CONTINUOUS
 10
-20.5885149856
 20
36.0263517091
 11
-20.598458238
 21
36.5628761101
  0
LINE
  5
2FF
100
AcDbEntity
  8
RACCORDO
100
AcDbLine
 62
250
  6
CONTINUOUS
 10
-20.7233172429
 20
72.500195322
 11
-20.7239123131
 21
72.5352490565
  0
LINE
  5
300
100
AcDbEntity
  8
RACCORDO
100
AcDbLine
 62
250
  6
CONTINUOUS
 10
-20.1607573509
 20
71.5693125352
 11
-20.1601245426
 21
71.5297847328
  0
LINE
  5
301
100
AcDbEntity
  8
RACCORDO
100
AcDbLine
 62
250
  6
CONTINUOUS
 10
-20.5236111781
 20
72.6959409451
 11
-20.5242546248
 21
72.7392056056
  0
LINE
  5
302
100
AcDbEntity
  8
RACCORDO
100
AcDbLine
 62
250
  6
CONTINUOUS
 10
-20.3604463002
 20
71.3735282703
 11
-20.3597581285
 21
71.3248455307
  0
LINE
  5
303
100
AcDbEntity
  8
RACCORDO
100
AcDbLine
 62
250
  6
CONTINUOUS
 10
-20.7225186212
 20
72.4303925419
 11
-20.7233172429
 21
72.500195322
  0
LINE
  5
304
100
AcDbEntity
  8
RACCORDO
100
AcDbLine
 62
250
  6
CONTINUOUS
 10
-20.1615887225
 20
71.6479012341
 11
-20.1607573509
 21
71.5693125352
  0
LINE
  5
305
100
AcDbEntity
  8
RACCORDO
100
AcDbLine
 62
250
  6
CONTINUOUS
 10
-20.5225262499
 20
72.5756546935
 11
-20.5236111781
 21
72.6959409451
  0
LINE
  5
306
100
AcDbEntity
  8
RACCORDO
100
AcDbLine
 62
250
  6
CONTINUOUS
 10
-20.3615810913
 20
71.5088968741
 11
-20.3604463002
 21
71.3735282703
  0
LINE
  5
307
100
AcDbEntity
  8
RACCORDO
100
AcDbLine
 62
250
  6
CONTINUOUS
 10
-20.7214126963
 20
72.2481654301
 11
-20.7225186212
 21
72.4303925419
  0
LINE
  5
308
100
AcDbEntity
  8
RACCORDO
100
AcDbLine
 62
250
  6
CONTINUOUS
 10
-20.162641262
 20
71.8409048168
 11
-20.1615887225
 21
71.6479012341
  0
LINE
  5
309
100
AcDbEntity
  8
RACCORDO
100
AcDbLine
 62
250
  6
CONTINUOUS
 10
-20.5212656877
 20
72.2643921705
 11
-20.5225262499
 21
72.5756546935
  0
LINE
  5
30A
100
AcDbEntity
  8
0
100
AcDbLine
 62
7
  6
CONTINUOUS
 10
-22.696230169
 20
24.7127449316
 11
-22.7119484223
 21
33.2804123033
  0
LINE
  5
30B
100
AcDbEntity
  8
RACCORDO
100
AcDbLine
 62
250
  6
CONTINUOUS
 10
-20.3628543458
 20
71.8985403268
 11
-20.3615810913
 21
71.5088968741
  0
LINE
  5
30C
100
AcDbEntity
  8
RACCORDO
100
AcDbLine
 62
7
  6
CONTINUOUS
 10
-23.7948423654
 20
75.383448982
 11
-23.7948423654
 21
23.6773756246
  0
LINE
  5
30D
100
AcDbEntity
  8
DRAFT
100
AcDbLine
 62
7
  6
CONTINUOUS
 10
-23.3419770242
 20
34.8937687316
 11
-23.3419770242
 21
37.667055875
  0
LINE
  5
30E
100
AcDbEntity
  8
DRAFT
100
AcDbLine
 62
7
  6
CONTINUOUS
 10
-22.8419770242
 20
34.8685129299
 11
-22.8419770242
 21
33.2804123033
  0
LINE
  5
30F
100
AcDbEntity
  8
0
100
AcDbLine
 62
7
  6
CONTINUOUS
 10
-22.8419770242
 20
33.2804123033
 11
-22.8419770242
 21
34.6804123033
  0
LINE
  5
310
100
AcDbEntity
  8
DRAFT
100
AcDbLine
 62
7
  6
CONTINUOUS
 10
-22.8419770242
 20
37.6923116767
 11
-22.8419770242
 21
39.2804123033
  0
LINE
  5
311
100
AcDbEntity
  8
0
100
AcDbLine
 62
7
  6
CONTINUOUS
 10
-22.8419770242
 20
37.8804123033
 11
-22.8419770242
 21
39.2804123033
  0
LINE
  5
312
100
AcDbEntity
  8
0
100
AcDbLine
 62
7
  6
CONTINUOUS
 10
-22.7419770242
 20
24.3779583131
 11
-22.7419770242
 21
33.2804123033
  0
LINE
  5
313
100
AcDbEntity
  8
RACCORDO
100
AcDbLine
 62
7
  6
CONTINUOUS
 10
-22.7419770242
 20
39.2804123033
 11
-22.7419770242
 21
71.9356560396
  0
LINE
  5
314
100
AcDbEntity
  8
RACCORDO
100
AcDbLine
 62
7
  6
CONTINUOUS
 10
-22.7419770242
 20
72.1251685669
 11
-22.7419770242
 21
74.6828662935
  0
LINE
  5
315
100
AcDbEntity
  8
RACCORDO
100
AcDbLine
 62
7
  6
CONTINUOUS
 10
-22.7306521588
 20
37.1335341266
 11
-22.7306521588
 21
35.4272904799
  0
LINE
  5
316
100
AcDbEntity
  8
DRAFT
100
AcDbLine
 62
7
  6
CONTINUOUS
 10
-22.7280129722
 20
74.6619175562
 11
-22.7280129722
 21
72.3304123033
  0
LINE
  5
317
100
AcDbEntity
  8
DRAFT
100
AcDbLine
 62
7
  6
CONTINUOUS
 10
-22.7280129722
 20
71.7304123033
 11
-22.7280129722
 21
60.2675549982
  0
LINE
  5
318
100
AcDbEntity
  8
0
100
AcDbLine
 62
7
  6
CONTINUOUS
 10
-22.7280129722
 20
60.2675549982
 11
-22.708914824
 21
39.2804123033
  0
LINE
  5
319
100
AcDbEntity
  8
RACCORDO
100
AcDbLine
 62
7
  6
CONTINUOUS
 10
-22.2238560605
 20
37.1335341266
 11
-22.2238560605
 21
35.4272904799
  0
LINE
  5
31A
100
AcDbEntity
  8
RACCORDO
100
AcDbLine
 62
7
  6
CONTINUOUS
 10
-21.9692700363
 20
36.1304055455
 11
-21.9692700363
 21
36.4304190611
  0
LINE
  5
31B
100
AcDbEntity
  8
0
100
AcDbLine
 62
7
  6
CONTINUOUS
 10
-21.8919990242
 20
67.2496553033
 11
-21.8919990242
 21
66.9156303033
  0
LINE
  5
31C
100
AcDbEntity
  8
0
100
AcDbLine
 62
7
  6
CONTINUOUS
 10
-21.8919880242
 20
62.7207373033
 11
-21.8919880242
 21
62.4503353033
  0
LINE
  5
31D
100
AcDbEntity
  8
0
100
AcDbLine
 62
7
  6
CONTINUOUS
 10
-21.8919840242
 20
66.0694423033
 11
-21.8919840242
 21
65.0101063033
  0
LINE
  5
31E
100
AcDbEntity
  8
0
100
AcDbLine
 62
7
  6
CONTINUOUS
 10
-21.8919840242
 20
64.5891623033
 11
-21.8919840242
 21
64.3378263033
  0
LINE
  5
31F
100
AcDbEntity
  8
0
100
AcDbLine
 62
7
  6
CONTINUOUS
 10
-21.8919840242
 20
63.5647973033
 11
-21.8919840242
 21
63.1448803033
  0
LINE
  5
320
100
AcDbEntity
  8
0
100
AcDbLine
 62
7
  6
CONTINUOUS
 10
-21.8919840242
 20
61.4108133033
 11
-21.8919840242
 21
61.1404123033
  0
LINE
  5
321
100
AcDbEntity
  8
DRAFT
100
AcDbLine
 62
7
  6
CONTINUOUS
 10
-21.8419770242
 20
33.2804123033
 11
-21.8419770242
 21
35.9304123033
  0
LINE
  5
322
100
AcDbEntity
  8
DRAFT
100
AcDbLine
 62
7
  6
CONTINUOUS
 10
-21.8419770242
 20
36.6304123033
 11
-21.8419770242
 21
39.2804123033
  0
LINE
  5
323
100
AcDbEntity
  8
RACCORDO
100
AcDbLine
 62
7
  6
CONTINUOUS
 10
-21.7419770242
 20
71.9356560396
 11
-21.7419770242
 21
72.1251685669
  0
LINE
  5
324
100
AcDbEntity
  8
0
100
AcDbLine
 62
7
  6
CONTINUOUS
 10
-21.6756630242
 20
65.2805073033
 11
-21.6756630242
 21
66.0694423033
  0
LINE
  5
325
100
AcDbEntity
  8
RACCORDO
100
AcDbLine
 62
250
  6
CONTINUOUS
 10
-21.5804865186
 20
35.9806111153
 11
-21.5804865186
 21
36.5802134913
  0
LINE
  5
326
100
AcDbEntity
  8
RACCORDO
100
AcDbLine
 62
250
  6
CONTINUOUS
 10
-21.088082642
 20
36.1152480031
 11
-21.088082642
 21
36.4455766034
  0
LINE
  5
327
100
AcDbEntity
  8
RACCORDO
100
AcDbLine
 62
7
  6
CONTINUOUS
 10
-20.9419770242
 20
40.0303361509
 11
-20.9419770242
 21
42.0304884557
  0
LINE
  5
328
100
AcDbEntity
  8
RACCORDO
100
AcDbLine
 62
250
  6
CONTINUOUS
 10
-20.905804374
 20
36.8589269286
 11
-20.9058043742
 21
36.6934532289
  0
LINE
  5
329
100
AcDbEntity
  8
0
100
AcDbLine
 62
7
  6
CONTINUOUS
 10
-20.8867280242
 20
66.0280863033
 11
-20.8867280242
 21
65.2805073033
  0
LINE
  5
32A
100
AcDbEntity
  8
RACCORDO
100
AcDbLine
 62
250
  6
CONTINUOUS
 10
-20.8848270936
 20
35.7270213647
 11
-20.8848270936
 21
35.8611365254
  0
LINE
  5
32B
100
AcDbEntity
  8
RACCORDO
100
AcDbLine
 62
7
  6
CONTINUOUS
 10
-20.7419770242
 20
71.1454150077
 11
-20.7419770242
 21
71.7304123033
  0
LINE
  5
32C
100
AcDbEntity
  8
RACCORDO
100
AcDbLine
 62
7
  6
CONTINUOUS
 10
-20.7419770242
 20
72.3304123033
 11
-20.7419770242
 21
72.9154095989
  0
LINE
  5
32D
100
AcDbEntity
  8
RACCORDO
100
AcDbLine
 62
7
  6
CONTINUOUS
 10
-20.7261303705
 20
71.9450324072
 11
-20.7261303705
 21
72.1157921994
  0
LINE
  5
32E
100
AcDbEntity
  8
0
100
AcDbLine
 62
7
  6
CONTINUOUS
 10
-20.6704060242
 20
65.2805073033
 11
-20.6704060242
 21
66.0280863033
  0
LINE
  5
32F
100
AcDbEntity
  8
0
100
AcDbLine
 62
7
  6
CONTINUOUS
 10
-20.3904770242
 20
67.4087153033
 11
-20.3904770242
 21
66.7406653033
  0
LINE
  5
330
100
AcDbEntity
  8
0
100
AcDbLine
 62
7
  6
CONTINUOUS
 10
-20.1741560242
 20
66.6738593033
 11
-20.1741560242
 21
67.4723393033
  0
LINE
  5
331
100
AcDbEntity
  8
RACCORDO
100
AcDbLine
 62
7
  6
CONTINUOUS
 10
-20.1419770242
 20
71.1454150077
 11
-20.1419770242
 21
72.9154095989
  0
LINE
  5
332
100
AcDbEntity
  8
0
100
AcDbLine
 62
7
  6
CONTINUOUS
 10
-19.8083040242
 20
66.0917103033
 11
-19.8083040242
 21
65.2805073033
  0
LINE
  5
333
100
AcDbEntity
  8
0
100
AcDbLine
 62
7
  6
CONTINUOUS
 10
-19.8083040242
 20
62.1329433033
 11
-19.8083040242
 21
61.4108133033
  0
LINE
  5
334
100
AcDbEntity
  8
0
100
AcDbLine
 62
7
  6
CONTINUOUS
 10
-19.5919880242
 20
62.4503353033
 11
-19.5919880242
 21
62.7207373033
  0
LINE
  5
335
100
AcDbEntity
  8
0
100
AcDbLine
 62
7
  6
CONTINUOUS
 10
-19.5919830242
 20
61.1404123033
 11
-19.5919830242
 21
62.1329433033
  0
LINE
  5
336
100
AcDbEntity
  8
0
100
AcDbLine
 62
7
  6
CONTINUOUS
 10
-19.5919830242
 20
63.1448803033
 11
-19.5919830242
 21
63.3961943033
  0
LINE
  5
337
100
AcDbEntity
  8
0
100
AcDbLine
 62
7
  6
CONTINUOUS
 10
-19.5919830242
 20
64.1692233033
 11
-19.5919830242
 21
64.5891623033
  0
LINE
  5
338
100
AcDbEntity
  8
0
100
AcDbLine
 62
7
  6
CONTINUOUS
 10
-19.5919830242
 20
65.0101063033
 11
-19.5919830242
 21
66.0917103033
  0
LINE
  5
339
100
AcDbEntity
  8
0
100
AcDbLine
 62
7
  6
CONTINUOUS
 10
-19.5919770242
 20
66.2412183033
 11
-19.5919770242
 21
66.5116183033
  0
LINE
  5
33A
100
AcDbEntity
  8
0
100
AcDbLine
 62
7
  6
CONTINUOUS
 10
-19.5919770242
 20
67.6345583033
 11
-19.5919770242
 21
67.9145243033
  0
LINE
  5
33B
100
AcDbEntity
  8
RACCORDO
100
AcDbLine
 62
7
  6
CONTINUOUS
 10
-18.8289500003
 20
54.2573382724
 11
-18.8289500003
 21
43.847816967
  0
LINE
  5
33C
100
AcDbEntity
  8
RACCORDO
100
AcDbLine
 62
7
  6
CONTINUOUS
 10
-18.8278365535
 20
36.4107805763
 11
-18.8278365535
 21
33.374027591
  0
LINE
  5
33D
100
AcDbEntity
  8
RACCORDO
100
AcDbLine
 62
7
  6
CONTINUOUS
 10
-18.4419770242
 20
33.2579310012
 11
-18.4419770242
 21
36.4107805763
  0
LINE
  5
33E
100
AcDbEntity
  8
RACCORDO
100
AcDbLine
 62
7
  6
CONTINUOUS
 10
-18.4419770242
 20
43.847816967
 11
-18.4419770242
 21
54.1465496013
  0
LINE
  5
33F
100
AcDbEntity
  8
RACCORDO
100
AcDbLine
 62
7
  6
CONTINUOUS
 10
-18.8364182072
 20
54.2702841674
 11
-18.8409800506
 21
44.605967453
  0
LINE
  5
340
100
AcDbEntity
  8
RACCORDO
100
AcDbLine
 62
250
  6
CONTINUOUS
 10
-20.7210599918
 20
71.9575427153
 11
-20.7214126963
 21
72.2481654301
  0
LINE
  5
341
100
AcDbEntity
  8
RACCORDO
100
AcDbLine
 62
7
  6
CONTINUOUS
 10
-18.8409800506
 20
44.605967453
 11
-18.8419770242
 21
43.3304123033
  0
LINE
  5
342
100
AcDbEntity
  8
RACCORDO
100
AcDbLine
 62
7
  6
CONTINUOUS
 10
-18.8386352627
 20
36.9237282713
 11
-18.8418936637
 21
33.3712950718
  0
LINE
  5
343
100
AcDbEntity
  8
RACCORDO
100
AcDbLine
 62
250
  6
CONTINUOUS
 10
-20.1628656179
 20
72.1244647459
 11
-20.162641262
 21
71.8409048168
  0
LINE
  5
344
100
AcDbEntity
  8
RACCORDO
100
AcDbLine
 62
250
  6
CONTINUOUS
 10
-20.5214088096
 20
71.7364998652
 11
-20.5212656877
 21
72.2643921705
  0
LINE
  5
345
100
AcDbEntity
  8
RACCORDO
100
AcDbLine
 62
250
  6
CONTINUOUS
 10
-20.3622919079
 20
72.4035984739
 11
-20.3628543458
 21
71.8985403268
  0
LINE
  5
346
100
AcDbEntity
  8
RACCORDO
100
AcDbLine
 62
250
  6
CONTINUOUS
 10
-20.7218088314
 20
71.727851756
 11
-20.7210599918
 21
71.9575427153
  0
LINE
  5
347
100
AcDbEntity
  8
RACCORDO
100
AcDbLine
 62
250
  6
CONTINUOUS
 10
-20.1620765732
 20
72.3445882919
 11
-20.1628656179
 21
72.1244647459
  0
LINE
  5
348
100
AcDbEntity
  8
RACCORDO
100
AcDbLine
 62
250
  6
CONTINUOUS
 10
-20.522665603
 20
71.4657694533
 11
-20.5214088096
 21
71.7364998652
  0
LINE
  5
349
100
AcDbEntity
  8
RACCORDO
100
AcDbLine
 62
7
  6
CONTINUOUS
 10
-17.8436395073
 20
54.2294121568
 11
-17.8748501589
 21
49.4661237307
  0
LINE
  5
34A
100
AcDbEntity
  8
DRAFT
100
AcDbLine
 62
7
  6
CONTINUOUS
 10
-17.8750321694
 20
49.4661237307
 11
-17.9118590008
 21
43.8304123033
  0
LINE
  5
34B
100
AcDbEntity
  8
RACCORDO
100
AcDbLine
 62
7
  6
CONTINUOUS
 10
-17.9419770242
 20
37.3927401863
 11
-17.9286297486
 21
39.4297724155
  0
LINE
  5
34C
100
AcDbEntity
  8
RACCORDO
100
AcDbLine
 62
7
  6
CONTINUOUS
 10
-17.9076625422
 20
42.6297419559
 11
-17.9032119681
 21
43.3089789154
  0
LINE
  5
34D
100
AcDbEntity
  8
RACCORDO
100
AcDbLine
 62
250
  6
CONTINUOUS
 10
-17.9280221295
 20
33.7776727226
 11
-17.9281166879
 21
33.7617992808
  0
LWPOLYLINE
  5
34E
100
AcDbEntity
  8
RACCORDO
100
AcDbPolyline
 62
250
  6
CONTINUOUS
 90
3
 70
0
 10
-17.939260827
 20
36.5933098444
 10
-17.9391622833
 20
36.6092935358
 10
-17.9391137569
 20
36.614089656
  0
LINE
  5
34F
100
AcDbEntity
  8
RACCORDO
100
AcDbLine
 62
250
  6
CONTINUOUS
 10
-20.360896079
 20
72.643366839
 11
-20.3622919079
 21
72.4035984739
  0
LINE
  5
350
100
AcDbEntity
  8
RACCORDO
100
AcDbLine
 62
250
  6
CONTINUOUS
 10
-20.7226579512
 20
71.6163408799
 11
-20.7218088314
 21
71.727851756
  0
LINE
  5
351
100
AcDbEntity
  8
RACCORDO
100
AcDbLine
 62
250
  6
CONTINUOUS
 10
-20.1612326421
 20
72.4507296348
 11
-20.1620765732
 21
72.3445882919
  0
LINE
  5
352
100
AcDbEntity
  8
RACCORDO
100
AcDbLine
 62
250
  6
CONTINUOUS
 10
-17.937098686
 20
36.1039989977
 11
-17.9366128606
 21
36.152489656
  0
LINE
  5
353
100
AcDbEntity
  8
RACCORDO
100
AcDbLine
 62
250
  6
CONTINUOUS
 10
-17.9339817987
 20
35.4790305969
 11
-17.9333904403
 21
35.5380545886
  0
LINE
  5
354
100
AcDbEntity
  8
RACCORDO
100
AcDbLine
 62
250
  6
CONTINUOUS
 10
-17.9318410861
 20
34.8432066052
 11
-17.9306165301
 21
34.9654305969
  0
LINE
  5
355
100
AcDbEntity
  8
RACCORDO
100
AcDbLine
 62
250
  6
CONTINUOUS
 10
-17.9301302424
 20
34.2197091959
 11
-17.9286946205
 21
34.3629998542
  0
LINE
  5
356
100
AcDbEntity
  8
RACCORDO
100
AcDbLine
 62
250
  6
CONTINUOUS
 10
-17.8368260878
 20
36.0647458874
 11
-17.8366302366
 21
36.0842939577
  0
LINE
  5
357
100
AcDbEntity
  8
RACCORDO
100
AcDbLine
 62
250
  6
CONTINUOUS
 10
-17.8337092005
 20
35.4397774866
 11
-17.8334078164
 21
35.4698588902
  0
LINE
  5
358
100
AcDbEntity
  8
RACCORDO
100
AcDbLine
 62
250
  6
CONTINUOUS
 10
-17.8315684879
 20
34.8039534949
 11
-17.8306339062
 21
34.8972348985
  0
LINE
  5
359
100
AcDbEntity
  8
RACCORDO
100
AcDbLine
 62
250
  6
CONTINUOUS
 10
-17.8298576442
 20
34.1804560856
 11
-17.8287119966
 21
34.2948041559
  0
LINE
  5
35A
100
AcDbEntity
  8
RACCORDO
100
AcDbLine
 62
250
  6
CONTINUOUS
 10
-17.9275318543
 20
33.823148841
 11
-17.9280221295
 21
33.7776727226
  0
LINE
  5
35B
100
AcDbEntity
  8
RACCORDO
100
AcDbLine
 62
250
  6
CONTINUOUS
 10
-17.8275492304
 20
33.7531016596
 11
-17.8279927082
 21
33.7124104539
  0
LINE
  5
35C
100
AcDbEntity
  8
RACCORDO
100
AcDbLine
 62
250
  6
CONTINUOUS
 10
-20.7233526277
 20
71.5584039217
 11
-20.7226579512
 21
71.6163408799
  0
LWPOLYLINE
  5
35D
100
AcDbEntity
  8
RACCORDO
100
AcDbPolyline
 62
250
  6
CONTINUOUS
 90
5
 70
0
 10
-20.5249912667
 20
71.2918064885
 10
-20.5245543547
 20
71.306943402
 10
-20.5241371633
 20
71.3280635723
 10
-20.5237396924
 20
71.3548647337
 10
-20.522665603
 20
71.4657694533
  0
LWPOLYLINE
  5
35E
100
AcDbEntity
  8
RACCORDO
100
AcDbPolyline
 62
250
  6
CONTINUOUS
 90
5
 70
0
 10
-20.358962785
 20
72.769018118
 10
-20.3593845722
 20
72.7545062782
 10
-20.3597884584
 20
72.7343914432
 10
-20.3601744436
 20
72.7089315141
 10
-20.360896079
 20
72.643366839
  0
LWPOLYLINE
  5
35F
100
AcDbEntity
  8
RACCORDO
100
AcDbPolyline
 62
7
  6
CONTINUOUS
 90
16
 70
0
 10
-18.8364182072
 20
54.2702841674
 10
-18.8338396194
 20
54.3418442542
 10
-18.8261183197
 20
54.4132190991
 10
-18.8132547615
 20
54.4840363988
 10
-18.7952355946
 20
54.5540602785
 10
-18.7721370903
 20
54.6227718493
 10
-18.7442243598
 20
54.6894044914
 10
-18.7118451624
 20
54.7533551751
 10
-18.6751022726
 20
54.8146142004
 10
-18.633919427
 20
54.8733054158
 10
-18.5882483831
 20
54.9293379167
 10
-18.5384597846
 20
54.9821110619
 10
-18.4851229994
 20
55.0310102284
 10
-18.4286689128
 20
55.0757198225
 10
-18.3693074361
 20
55.1161480341
 10
-18.3073682731
 20
55.1521207933
  0
LWPOLYLINE
  5
360
100
AcDbEntity
  8
RACCORDO
100
AcDbPolyline
 62
250
  6
CONTINUOUS
 90
4
 70
0
 10
-20.7249836151
 20
71.4887680391
 10
-20.7245467717
 20
71.5002836753
 10
-20.7241296214
 20
71.5156979131
 10
-20.7233526277
 20
71.5584039217
  0
LWPOLYLINE
  5
361
100
AcDbEntity
  8
RACCORDO
100
AcDbPolyline
 62
250
  6
CONTINUOUS
 90
6
 70
0
 10
-20.1589704332
 20
72.5720565674
 10
-20.1593921585
 20
72.5610576101
 10
-20.1597960076
 20
72.5463697736
 10
-20.1601819805
 20
72.5279930578
 10
-20.1605517752
 20
72.5057673889
 10
-20.1612326421
 20
72.4507296348
  0
LINE
  5
362
100
AcDbEntity
  8
0
100
AcDbLine
 62
7
  6
CONTINUOUS
 10
-13.9162450242
 20
71.8924193033
 11
-13.8126490242
 21
73.3941383033
  0
LINE
  5
363
100
AcDbEntity
  8
0
100
AcDbLine
 62
7
  6
CONTINUOUS
 10
-14.1678460242
 20
74.1922093033
 11
-14.3755030242
 21
71.8924193033
  0
LWPOLYLINE
  5
364
100
AcDbEntity
  8
RACCORDO
100
AcDbPolyline
 62
7
  6
CONTINUOUS
 90
3
 70
0
 10
-7.5446958928
 20
33.4392960774
 10
-7.5435072168
 20
33.4428497907
 10
-7.5424907784
 20
33.445945624
  0
LINE
  5
365
100
AcDbEntity
  8
RACCORDO
100
AcDbLine
 62
7
  6
CONTINUOUS
 10
-7.547609795
 20
33.4307732655
 11
-7.5446958928
 21
33.4392960774
  0
LINE
  5
366
100
AcDbEntity
  8
RACCORDO
100
AcDbLine
 62
7
  6
CONTINUOUS
 10
-7.551193578
 20
33.4205097826
 11
-7.547609795
 21
33.4307732655
  0
LWPOLYLINE
  5
367
100
AcDbEntity
  8
RACCORDO
100
AcDbPolyline
 62
250
  6
CONTINUOUS
 90
16
 70
0
 10
-17.9286946205
 20
34.3629998542
 10
-17.9279804245
 20
34.3558799334
 10
-17.9262008187
 20
34.3488437349
 10
-17.9233750251
 20
34.3419667619
 10
-17.9195337583
 20
34.3353231985
 10
-17.9147182054
 20
34.3289838643
 10
-17.9089789899
 20
34.3230156608
 10
-17.9023758271
 20
34.3174816973
 10
-17.8949803867
 20
34.3124429184
 10
-17.8868755678
 20
34.3079555688
 10
-17.8781488084
 20
34.3040672377
 10
-17.8688944267
 20
34.300819187
 10
-17.8592171236
 20
34.2982467914
 10
-17.8492231506
 20
34.2963761826
 10
-17.8390183522
 20
34.2952251312
 10
-17.8287119966
 20
34.2948041559
  0
LWPOLYLINE
  5
368
100
AcDbEntity
  8
RACCORDO
100
AcDbPolyline
 62
250
  6
CONTINUOUS
 90
16
 70
0
 10
-17.9306165301
 20
34.9654305969
 10
-17.929902334
 20
34.9583106761
 10
-17.9281227283
 20
34.9512744775
 10
-17.9252969347
 20
34.9443975046
 10
-17.9214556678
 20
34.9377539412
 10
-17.9166401149
 20
34.9314146069
 10
-17.9109008995
 20
34.9254464035
 10
-17.9042977366
 20
34.91991244
 10
-17.8969022963
 20
34.914873661
 10
-17.8887974774
 20
34.9103863114
 10
-17.880070718
 20
34.9064979804
 10
-17.8708163362
 20
34.9032499297
 10
-17.8611390332
 20
34.900677534
 10
-17.8511450601
 20
34.8988069253
 10
-17.8409402617
 20
34.8976558739
 10
-17.8306339062
 20
34.8972348985
  0
LWPOLYLINE
  5
369
100
AcDbEntity
  8
RACCORDO
100
AcDbPolyline
 62
250
  6
CONTINUOUS
 90
16
 70
0
 10
-17.9333904403
 20
35.5380545886
 10
-17.9326762443
 20
35.5309346677
 10
-17.9308966385
 20
35.5238984692
 10
-17.928070845
 20
35.5170214962
 10
-17.9242295781
 20
35.5103779328
 10
-17.9194140252
 20
35.5040385986
 10
-17.9136748097
 20
35.4980703951
 10
-17.9070716469
 20
35.4925364316
 10
-17.8996762065
 20
35.4874976527
 10
-17.8915713877
 20
35.4830103031
 10
-17.8828446282
 20
35.479121972
 10
-17.8735902465
 20
35.4758739214
 10
-17.8639129434
 20
35.4733015257
 10
-17.8539189704
 20
35.4714309169
 10
-17.843714172
 20
35.4702798655
 10
-17.8334078164
 20
35.4698588902
  0
LWPOLYLINE
  5
36A
100
AcDbEntity
  8
RACCORDO
100
AcDbPolyline
 62
250
  6
CONTINUOUS
 90
16
 70
0
 10
-17.9366128606
 20
36.152489656
 10
-17.9358986645
 20
36.1453697352
 10
-17.9341190587
 20
36.1383335367
 10
-17.9312932652
 20
36.1314565637
 10
-17.9274519983
 20
36.1248130003
 10
-17.9226364454
 20
36.1184736661
 10
-17.9168972299
 20
36.1125054626
 10
-17.9102940671
 20
36.1069714991
 10
-17.9028986267
 20
36.1019327202
 10
-17.8947938079
 20
36.0974453706
 10
-17.8860670484
 20
36.0935570395
 10
-17.8768126667
 20
36.0903089888
 10
-17.8671353637
 20
36.0877365932
 10
-17.8571413906
 20
36.0858659844
 10
-17.8469365922
 20
36.084714933
 10
-17.8366302366
 20
36.0842939577
  0
LWPOLYLINE
  5
36B
100
AcDbEntity
  8
RACCORDO
100
AcDbPolyline
 62
7
  6
CONTINUOUS
 90
28
 70
0
 10
-17.9391137569
 20
36.614089656
 10
-17.9389581614
 20
36.6123883404
 10
-17.9386234844
 20
36.6103729819
 10
-17.9380860138
 20
36.6080473466
 10
-17.9373185351
 20
36.6053781859
 10
-17.9362928592
 20
36.6024103951
 10
-17.9349857855
 20
36.5992665782
 10
-17.9333739754
 20
36.59595177
 10
-17.9314323743
 20
36.5924814951
 10
-17.9291457801
 20
36.5889940942
 10
-17.9264942571
 20
36.5855220651
 10
-17.9234664115
 20
36.5820584601
 10
-17.9200733732
 20
36.5786798358
 10
-17.9163083388
 20
36.5754416915
 10
-17.9121719352
 20
36.5723134718
 10
-17.9077048137
 20
36.56924022
 10
-17.9029164463
 20
36.5662208435
 10
-17.8978261264
 20
36.5632823469
 10
-17.8925118566
 20
36.5604084017
 10
-17.8870186397
 20
36.5575462802
 10
-17.8813672583
 20
36.5547683819
 10
-17.8756070827
 20
36.5522340641
 10
-17.869807855
 20
36.5499558909
 10
-17.863958146
 20
36.5479160052
 10
-17.8579667283
 20
36.5462208469
 10
-17.8518052913
 20
36.5449079384
 10
-17.8455230018
 20
36.5439433231
 10
-17.839131133
 20
36.5433304893
  0
LWPOLYLINE
  5
36C
100
AcDbEntity
  8
RACCORDO
100
AcDbPolyline
 62
250
  6
CONTINUOUS
 90
16
 70
0
 10
-20.7461791403
 20
36.5471969181
 10
-20.7474691692
 20
36.5626156761
 10
-20.750415682
 20
36.5778156426
 10
-20.7549833369
 20
36.5926336625
 10
-20.7611339348
 20
36.6069210703
 10
-20.7687895646
 20
36.6205165325
 10
-20.777822028
 20
36.6332534509
 10
-20.7880679329
 20
36.6449431579
 10
-20.7994597162
 20
36.6555479146
 10
-20.812033002
 20
36.6651057313
 10
-20.8257686886
 20
36.6735183815
 10
-20.840490358
 20
36.6806000229
 10
-20.8560147359
 20
36.6862290706
 10
-20.8721759662
 20
36.6903034949
 10
-20.8888306225
 20
36.6927353177
 10
-20.9058051693
 20
36.6934529925
  0
LWPOLYLINE
  5
36D
100
AcDbEntity
  8
RACCORDO
100
AcDbPolyline
 62
250
  6
CONTINUOUS
 90
16
 70
0
 10
-20.598458238
 20
36.5628761101
 10
-20.6008532463
 20
36.5943447712
 10
-20.6062853974
 20
36.6247666295
 10
-20.6147546912
 20
36.6541416849
 10
-20.6264501114
 20
36.6827645412
 10
-20.6411826743
 20
36.7103405947
 10
-20.6583854292
 20
36.7359860343
 10
-20.6779833921
 20
36.759553515
 10
-20.700051547
 20
36.781190382
 10
-20.7242478953
 20
36.800454859
 10
-20.750741
 20
36.8174371337
 10
-20.7793622981
 20
36.8320470185
 10
-20.809264102
 20
36.8435721743
 10
-20.8401638491
 20
36.8517751548
 10
-20.8723441019
 20
36.8568934062
 10
-20.9058048605
 20
36.8589269286
  0
LWPOLYLINE
  5
36E
100
AcDbEntity
  8
RACCORDO
100
AcDbPolyline
 62
250
  6
CONTINUOUS
 90
13
 70
0
 10
-21.088082642
 20
36.4455766034
 10
-21.0895062195
 20
36.4650179921
 10
-21.0934043598
 20
36.4841303975
 10
-21.099711075
 20
36.5025905517
 10
-21.1083196534
 20
36.5200862531
 10
-21.1190844335
 20
36.5363215756
 10
-21.131823242
 20
36.5510218912
 10
-21.1463205497
 20
36.5639386143
 10
-21.1623311136
 20
36.5748533547
 10
-21.1795840639
 20
36.5835815664
 10
-21.1977875549
 20
36.5899757225
 10
-21.2166337132
 20
36.5939277899
 10
-21.235803805
 20
36.5953710337
  0
LWPOLYLINE
  5
36F
100
AcDbEntity
  8
RACCORDO
100
AcDbPolyline
 62
250
  6
CONTINUOUS
 90
13
 70
0
 10
-20.7249836151
 20
71.4887680391
 10
-20.72323663
 20
71.4630855208
 10
-20.7181044566
 20
71.4378412405
 10
-20.7096746102
 20
71.4134662865
 10
-20.6980909144
 20
71.3903769117
 10
-20.6835510741
 20
71.3689674758
 10
-20.6663033252
 20
71.3496036952
 10
-20.6466421277
 20
71.3326163089
 10
-20.6249031915
 20
71.3182955065
 10
-20.6014578086
 20
71.3068859778
 10
-20.5767063884
 20
71.2985826405
 10
-20.5510715976
 20
71.2935273446
 10
-20.5249912306
 20
71.2918064877
  0
LWPOLYLINE
  5
370
100
AcDbEntity
  8
RACCORDO
100
AcDbPolyline
 62
250
  6
CONTINUOUS
 90
13
 70
0
 10
-20.1589704332
 20
72.5720565674
 10
-20.1607173868
 20
72.5977388527
 10
-20.1658494798
 20
72.622982958
 10
-20.1742792183
 20
72.6473578008
 10
-20.1858628014
 20
72.6704471308
 10
-20.2004025438
 20
72.6918565811
 10
-20.2176502222
 20
72.7112204205
 10
-20.2373113915
 20
72.7282078998
 10
-20.2590503507
 20
72.7425288137
 10
-20.2824958007
 20
72.7539384506
 10
-20.3072473279
 20
72.7622418788
 10
-20.332882267
 20
72.7672972379
 10
-20.3589628179
 20
72.769018118
  0
LINE
  5
371
100
AcDbEntity
  8
RACCORDO
100
AcDbLine
 62
250
  6
CONTINUOUS
 10
-20.7249836151
 20
72.5720565674
 11
-20.7419770242
 21
72.9154095989
  0
LINE
  5
372
100
AcDbEntity
  8
RACCORDO
100
AcDbLine
 62
250
  6
CONTINUOUS
 10
-20.5249912305
 20
72.769018118
 11
-20.5422724894
 21
73.1181871765
  0
LINE
  5
373
100
AcDbEntity
  8
RACCORDO
100
AcDbLine
 62
250
  6
CONTINUOUS
 10
-20.3589628179
 20
71.2918064885
 11
-20.3416815589
 21
70.9426374301
  0
LINE
  5
374
100
AcDbEntity
  8
RACCORDO
100
AcDbLine
 62
250
  6
CONTINUOUS
 10
-20.1589704332
 20
71.4887680391
 11
-20.1419770242
 21
71.1454150077
  0
LWPOLYLINE
  5
375
100
AcDbEntity
  8
RACCORDO
100
AcDbPolyline
 62
7
  6
CONTINUOUS
 90
10
 70
0
 10
-18.8278365535
 20
33.374027591
 10
-18.826953616
 20
33.3315007802
 10
-18.824241599
 20
33.2890674229
 10
-18.8197005024
 20
33.246727519
 10
-18.8132976651
 20
33.2043128472
 10
-18.8050657484
 20
33.1619916288
 10
-18.7951027351
 20
33.1202685279
 10
-18.7834412865
 20
33.0793117658
 10
-18.7700487413
 20
33.0389531213
 10
-18.7549250998
 20
32.9991925942
  0
LINE
  5
376
100
AcDbEntity
  8
RACCORDO
100
AcDbLine
 62
250
  6
CONTINUOUS
 10
-17.3757635343
 20
70.8033746514
 11
-17.3755669344
 21
70.7938273104
  0
LINE
  5
377
100
AcDbEntity
  8
RACCORDO
100
AcDbLine
 62
250
  6
CONTINUOUS
 10
-17.3755669344
 20
70.7938273104
 11
-17.3753790311
 21
70.7813101946
  0
LINE
  5
378
100
AcDbEntity
  8
DRAFT
100
AcDbLine
 62
7
  6
CONTINUOUS
 10
-17.9032119681
 20
43.3089789154
 11
-17.9088970262
 21
43.8304123033
  0
LINE
  5
379
100
AcDbEntity
  8
RACCORDO
100
AcDbLine
 62
250
  6
CONTINUOUS
 10
-17.0759846729
 20
71.1032775981
 11
-17.0757749003
 21
71.0861721548
  0
LINE
  5
37A
100
AcDbEntity
  8
RACCORDO
100
AcDbLine
 62
250
  6
CONTINUOUS
 10
-17.0751122128
 20
70.9652393969
 11
-17.0732669766
 21
70.7500733102
  0
LINE
  5
37B
100
AcDbEntity
  8
RACCORDO
100
AcDbLine
 62
250
  6
CONTINUOUS
 10
-17.3753790311
 20
70.7813101946
 11
-17.3731605061
 21
70.5279272231
  0
LINE
  5
37C
100
AcDbEntity
  8
RACCORDO
100
AcDbLine
 62
250
  6
CONTINUOUS
 10
-17.9301302424
 20
34.2197091959
 11
-17.9275318543
 21
33.823148841
  0
LINE
  5
37D
100
AcDbEntity
  8
RACCORDO
100
AcDbLine
 62
250
  6
CONTINUOUS
 10
-17.9286946205
 20
34.3629998542
 11
-17.9318410861
 21
34.8432066052
  0
LINE
  5
37E
100
AcDbEntity
  8
RACCORDO
100
AcDbLine
 62
250
  6
CONTINUOUS
 10
-17.9306165301
 20
34.9654305969
 11
-17.9339817987
 21
35.4790305969
  0
LINE
  5
37F
100
AcDbEntity
  8
RACCORDO
100
AcDbLine
 62
250
  6
CONTINUOUS
 10
-17.9333904403
 20
35.5380545886
 11
-17.937098686
 21
36.1039989977
  0
LINE
  5
380
100
AcDbEntity
  8
RACCORDO
100
AcDbLine
 62
250
  6
CONTINUOUS
 10
-17.9391137569
 20
36.614089656
 11
-17.9418416807
 21
37.0304194565
  0
LINE
  5
381
100
AcDbEntity
  8
DRAFT
100
AcDbLine
 62
7
  6
CONTINUOUS
 10
-17.9402315177
 20
37.1263447736
 11
-17.9419770242
 21
37.3927401863
  0
LINE
  5
382
100
AcDbEntity
  8
RACCORDO
100
AcDbLine
 62
250
  6
CONTINUOUS
 10
-17.8280405452
 20
33.7124104539
 11
-17.8264323305
 21
33.466968215
  0
LINE
  5
383
100
AcDbEntity
  8
RACCORDO
100
AcDbLine
 62
250
  6
CONTINUOUS
 10
-17.8298861273
 20
34.1804560856
 11
-17.8275492304
 21
33.8238039586
  0
LINE
  5
384
100
AcDbEntity
  8
RACCORDO
100
AcDbLine
 62
250
  6
CONTINUOUS
 10
-17.8287119966
 20
34.3636549718
 11
-17.8315969709
 21
34.8039534949
  0
LINE
  5
385
100
AcDbEntity
  8
RACCORDO
100
AcDbLine
 62
250
  6
CONTINUOUS
 10
-17.8306339062
 20
34.9660857145
 11
-17.8337376836
 21
35.4397774866
  0
LINE
  5
386
100
AcDbEntity
  8
RACCORDO
100
AcDbLine
 62
250
  6
CONTINUOUS
 10
-17.8334078164
 20
35.5387097061
 11
-17.8368545708
 21
36.0647458874
  0
LINE
  5
387
100
AcDbEntity
  8
RACCORDO
100
AcDbLine
 62
250
  6
CONTINUOUS
 10
-17.8366302366
 20
36.1531447736
 11
-17.8391868561
 21
36.5433304893
  0
LINE
  5
388
100
AcDbEntity
  8
RACCORDO
100
AcDbLine
 62
250
  6
CONTINUOUS
 10
-17.839131133
 20
36.6147447736
 11
-17.8420153682
 21
37.0549304893
  0
LINE
  5
389
100
AcDbEntity
  8
RACCORDO
100
AcDbLine
 62
250
  6
CONTINUOUS
 10
-17.0757749003
 20
71.0861721548
 11
-17.0752970707
 21
71.0117250673
  0
LINE
  5
38A
100
AcDbEntity
  8
RACCORDO
100
AcDbLine
 62
7
  6
CONTINUOUS
 10
-17.94196411
 20
33.5125431429
 11
-17.9414632092
 21
33.4459368545
  0
LINE
  5
38B
100
AcDbEntity
  8
RACCORDO
100
AcDbLine
 62
250
  6
CONTINUOUS
 10
-17.0752970707
 20
71.0117250673
 11
-17.0751122128
 21
70.9652393969
  0
LINE
  5
38C
100
AcDbEntity
  8
RACCORDO
100
AcDbLine
 62
250
  6
CONTINUOUS
 10
-17.3731605061
 20
70.5279272231
 11
-17.372821819
 21
70.4544004137
  0
LINE
  5
38D
100
AcDbEntity
  8
RACCORDO
100
AcDbLine
 62
250
  6
CONTINUOUS
 10
-17.9281332273
 20
33.7376393841
 11
-17.9262989501
 21
33.448608758
  0
LINE
  5
38E
100
AcDbEntity
  8
DRAFT
100
AcDbLine
 62
7
  6
CONTINUOUS
 10
-18.0420250624
 20
33.3327854464
 11
-18.0453187857
 21
36.9237282713
  0
LINE
  5
38F
100
AcDbEntity
  8
RACCORDO
100
AcDbLine
 62
250
  6
CONTINUOUS
 10
-17.372821819
 20
70.4544004137
 11
-17.3727550685
 21
70.399618678
  0
LWPOLYLINE
  5
390
100
AcDbEntity
  8
DRAFT
100
AcDbPolyline
 62
7
  6
CONTINUOUS
 90
3
 70
0
 10
-18.0475539731
 20
54.3657921444
 10
-18.047302229
 20
53.1587491961
 10
-18.0419770242
 20
43.3304123033
  0
LINE
  5
391
100
AcDbEntity
  8
RACCORDO
100
AcDbLine
 62
7
  6
CONTINUOUS
 10
-18.0527205047
 20
33.3307469051
 11
-18.0527205047
 21
36.8983622428
  0
LINE
  5
392
100
AcDbEntity
  8
RACCORDO
100
AcDbLine
 62
7
  6
CONTINUOUS
 10
-18.0515972554
 20
43.3599815389
 11
-18.0515972554
 21
54.3681811952
  0
LINE
  5
393
100
AcDbEntity
  8
RACCORDO
100
AcDbLine
 62
7
  6
CONTINUOUS
 10
-17.9419770242
 20
37.3927401863
 11
-17.94196411
 21
33.5125431429
  0
LINE
  5
394
100
AcDbEntity
  8
RACCORDO
100
AcDbLine
 62
250
  6
CONTINUOUS
 10
-17.839131133
 20
36.5433304893
 11
-17.839131133
 21
36.6147447736
  0
LINE
  5
395
100
AcDbEntity
  8
RACCORDO
100
AcDbLine
 62
250
  6
CONTINUOUS
 10
-17.8366302366
 20
36.0842939577
 11
-17.8366302366
 21
36.1531447736
  0
LINE
  5
396
100
AcDbEntity
  8
RACCORDO
100
AcDbLine
 62
250
  6
CONTINUOUS
 10
-17.8334078164
 20
35.4698588902
 11
-17.8334078164
 21
35.5387097061
  0
LINE
  5
397
100
AcDbEntity
  8
RACCORDO
100
AcDbLine
 62
250
  6
CONTINUOUS
 10
-17.8306339062
 20
34.8972348985
 11
-17.8306339062
 21
34.9660857145
  0
LINE
  5
398
100
AcDbEntity
  8
RACCORDO
100
AcDbLine
 62
250
  6
CONTINUOUS
 10
-17.8287119966
 20
34.2948041559
 11
-17.8287119966
 21
34.3636549718
  0
LINE
  5
399
100
AcDbEntity
  8
RACCORDO
100
AcDbLine
 62
250
  6
CONTINUOUS
 10
-17.8275492304
 20
33.8238039586
 11
-17.8275492304
 21
33.7531016596
  0
LINE
  5
39A
100
AcDbEntity
  8
RACCORDO
100
AcDbLine
 62
250
  6
CONTINUOUS
 10
-17.7206765065
 20
33.1955341072
 11
-17.7206765065
 21
33.124823429
  0
LINE
  5
39B
100
AcDbEntity
  8
RACCORDO
100
AcDbLine
 62
250
  6
CONTINUOUS
 10
-17.4821902657
 20
32.6984180974
 11
-17.4821902657
 21
32.6277074193
  0
LINE
  5
39C
100
AcDbEntity
  8
RACCORDO
100
AcDbLine
 62
250
  6
CONTINUOUS
 10
-17.4245664267
 20
69.3304123033
 11
-17.4245664267
 21
69.5009261544
  0
LINE
  5
39D
100
AcDbEntity
  8
RACCORDO
100
AcDbLine
 62
7
  6
CONTINUOUS
 10
-17.3919770242
 20
69.9217624721
 11
-17.3919770242
 21
70.8304237264
  0
LINE
  5
39E
100
AcDbEntity
  8
RACCORDO
100
AcDbLine
 62
7
  6
CONTINUOUS
 10
-17.3727550685
 20
70.399618678
 11
-17.3727550685
 21
69.9156322646
  0
LINE
  5
39F
100
AcDbEntity
  8
RACCORDO
100
AcDbLine
 62
250
  6
CONTINUOUS
 10
-17.3222036689
 20
32.4218336595
 11
-17.3222036689
 21
32.3511229814
  0
LINE
  5
3A0
100
AcDbEntity
  8
RACCORDO
100
AcDbLine
 62
250
  6
CONTINUOUS
 10
-17.1012890712
 20
32.0918336595
 11
-17.1012890712
 21
32.0211229814
  0
LINE
  5
3A1
100
AcDbEntity
  8
RACCORDO
100
AcDbLine
 62
250
  6
CONTINUOUS
 10
-17.0732669766
 20
70.7500733102
 11
-17.0727664915
 21
70.0767993632
  0
LINE
  5
3A2
100
AcDbEntity
  8
RACCORDO
100
AcDbLine
 62
250
  6
CONTINUOUS
 10
-16.9408442565
 20
31.8818336595
 11
-16.9408442565
 21
31.8111229814
  0
LINE
  5
3A3
100
AcDbEntity
  8
RACCORDO
100
AcDbLine
 62
250
  6
CONTINUOUS
 10
-16.5571046786
 20
31.4532886458
 11
-16.5571046786
 21
31.3825779677
  0
LINE
  5
3A4
100
AcDbEntity
  8
RACCORDO
100
AcDbLine
 62
250
  6
CONTINUOUS
 10
-16.4919770242
 20
55.0788972946
 11
-16.4919770242
 21
55.9186874161
  0
LINE
  5
3A5
100
AcDbEntity
  8
RACCORDO
100
AcDbLine
 62
7
  6
CONTINUOUS
 10
-16.2419770242
 20
55.1638018838
 11
-16.2419770242
 21
56.0144769522
  0
LINE
  5
3A6
100
AcDbEntity
  8
IMPORT_IGES
100
AcDbLine
 62
7
  6
CONTINUOUS
 10
-15.5419770242
 20
43.8304123033
 11
-15.5419770242
 21
43.3953800568
  0
LINE
  5
3A7
100
AcDbEntity
  8
0
100
AcDbLine
 62
7
  6
CONTINUOUS
 10
-15.5419770242
 20
41.2085224072
 11
-15.5419770242
 21
43.3953324087
  0
LINE
  5
3A8
100
AcDbEntity
  8
0
100
AcDbLine
 62
7
  6
CONTINUOUS
 10
-15.2419770242
 20
56.2772180661
 11
-15.2419770242
 21
55.4497239236
  0
LINE
  5
3A9
100
AcDbEntity
  8
0
100
AcDbLine
 62
7
  6
CONTINUOUS
 10
-15.2419770242
 20
42.2447672472
 11
-15.2419770242
 21
38.2553724936
  0
LINE
  5
3AA
100
AcDbEntity
  8
0
100
AcDbLine
 62
7
  6
CONTINUOUS
 10
-15.1139890242
 20
74.1923473033
 11
-15.1139890242
 21
71.8924193033
  0
LINE
  5
3AB
100
AcDbEntity
  8
DRAFT
100
AcDbLine
 62
250
  6
CONTINUOUS
 10
-14.9974425198
 20
56.1892157309
 11
-14.9974425198
 21
55.5161941639
  0
LINE
  5
3AC
100
AcDbEntity
  8
0
100
AcDbLine
 62
7
  6
CONTINUOUS
 10
-14.6339330242
 20
71.8924193033
 11
-14.6339330242
 21
74.1923473033
  0
LINE
  5
3AD
100
AcDbEntity
  8
DRAFT
100
AcDbLine
 62
250
  6
CONTINUOUS
 10
-14.5050386433
 20
56.2386656514
 11
-14.5050386433
 21
55.6111891779
  0
LINE
  5
3AE
100
AcDbEntity
  8
DRAFT
100
AcDbLine
 62
7
  6
CONTINUOUS
 10
-14.2419770242
 20
29.9241674947
 11
-14.2419770242
 21
30.3304123033
  0
LINE
  5
3AF
100
AcDbEntity
  8
DRAFT
100
AcDbLine
 62
7
  6
CONTINUOUS
 10
-14.2419770242
 20
55.3304123033
 11
-14.2419770242
 21
55.6482987712
  0
LINE
  5
3B0
100
AcDbEntity
  8
IMPORT_IGES
100
AcDbLine
 62
250
  6
CONTINUOUS
 10
-13.1560602402
 20
43.7924562768
 11
-13.1560602402
 21
49.4661237307
  0
LINE
  5
3B1
100
AcDbEntity
  8
IMPORT_IGES
100
AcDbLine
 62
250
  6
CONTINUOUS
 10
-12.3278938081
 20
49.4661237307
 11
-12.3278938081
 21
43.7924562768
  0
LINE
  5
3B2
100
AcDbEntity
  8
RACCORDO
100
AcDbLine
 62
250
  6
CONTINUOUS
 10
-17.9281166879
 20
33.7617992808
 11
-17.9281411145
 21
33.743923425
  0
LINE
  5
3B3
100
AcDbEntity
  8
RACCORDO
100
AcDbLine
 62
250
  6
CONTINUOUS
 10
-17.9392870244
 20
36.5814005663
 11
-17.939260827
 21
36.5933098444
  0
LWPOLYLINE
  5
3B4
100
AcDbEntity
  8
0
100
AcDbPolyline
 62
7
  6
CONTINUOUS
 90
16
 70
0
 10
-8.8259176239
 20
73.5264664023
 10
-8.8283791299
 20
73.4812104766
 10
-8.8344725441
 20
73.4385632925
 10
-8.8441978666
 20
73.3985248499
 10
-8.8578258175
 20
73.3606969987
 10
-8.8750856767
 20
73.3254778891
 10
-8.895165284
 20
73.2940619713
 10
-8.9177570848
 20
73.2669968476
 10
-8.9431686336
 20
73.2437349156
 10
-8.9715104345
 20
73.2238278189
 10
-9.0029857037
 20
73.2073061049
 10
-9.037391225
 20
73.1941392263
 10
-9.0742278539
 20
73.1837871838
 10
-9.113329209
 20
73.1760699778
 10
-9.1548616717
 20
73.171167608
 10
-9.1988252421
 20
73.1690800743
  0
LWPOLYLINE
  5
3B5
100
AcDbEntity
  8
RACCORDO
100
AcDbPolyline
 62
7
  6
CONTINUOUS
 90
28
 70
0
 10
-7.5448402914
 20
36.614089656
 10
-7.5449965027
 20
36.6123801288
 10
-7.5453325347
 20
36.6103579229
 10
-7.545871953
 20
36.608026822
 10
-7.546641741
 20
36.6053537044
 10
-7.5476699044
 20
36.6023833597
 10
-7.5489796461
 20
36.5992380607
 10
-7.5505941616
 20
36.5959231239
 10
-7.5525383666
 20
36.5924537809
 10
-7.5548277482
 20
36.588967205
 10
-7.55748227
 20
36.5854959295
 10
-7.5605133295
 20
36.5820329994
 10
-7.5639103598
 20
36.5786538242
 10
-7.5676807925
 20
36.5754135678
 10
-7.5718236845
 20
36.5722822082
 10
-7.5762974448
 20
36.5692049526
 10
-7.5810921489
 20
36.5661799388
 10
-7.5861886066
 20
36.5632350402
 10
-7.5915085558
 20
36.5603564093
 10
-7.5970065519
 20
36.5574916208
 10
-7.6026620524
 20
36.5547126495
 10
-7.6084267072
 20
36.5521801227
 10
-7.6142358062
 20
36.5499070241
 10
-7.6200962561
 20
36.5478751179
 10
-7.6260855717
 20
36.5461900068
 10
-7.6322271879
 20
36.54488786
 10
-7.6384766023
 20
36.5439338657
 10
-7.6448229154
 20
36.5433304896
  0
LWPOLYLINE
  5
3B6
100
AcDbEntity
  8
RACCORDO
100
AcDbPolyline
 62
250
  6
CONTINUOUS
 90
16
 70
0
 10
-7.5473411878
 20
36.152489656
 10
-7.5480548349
 20
36.145372852
 10
-7.549833051
 20
36.1383393945
 10
-7.5526567666
 20
36.1314647108
 10
-7.5564956963
 20
36.1248225311
 10
-7.5613086733
 20
36.1184840809
 10
-7.5670440986
 20
36.1125173196
 10
-7.5736404825
 20
36.1069862304
 10
-7.5810270822
 20
36.101950143
 10
-7.589124669
 20
36.0974630791
 10
-7.5978477881
 20
36.0935726095
 10
-7.6071016688
 20
36.090321204
 10
-7.616782464
 20
36.0877447779
 10
-7.6267843241
 20
36.0858702251
 10
-7.6370012715
 20
36.0847161739
 10
-7.6473238117
 20
36.0842939577
  0
LWPOLYLINE
  5
3B7
100
AcDbEntity
  8
RACCORDO
100
AcDbPolyline
 62
250
  6
CONTINUOUS
 90
16
 70
0
 10
-7.550563608
 20
35.5380545886
 10
-7.5512772551
 20
35.5309377845
 10
-7.5530554712
 20
35.523904327
 10
-7.5558791868
 20
35.5170296433
 10
-7.5597181165
 20
35.5103874636
 10
-7.5645310935
 20
35.5040490134
 10
-7.5702665188
 20
35.4980822522
 10
-7.5768629027
 20
35.4925511629
 10
-7.5842495024
 20
35.4875150756
 10
-7.5923470892
 20
35.4830280117
 10
-7.6010702083
 20
35.479137542
 10
-7.610324089
 20
35.4758861366
 10
-7.6200048842
 20
35.4733097104
 10
-7.6300067443
 20
35.4714351576
 10
-7.6402236917
 20
35.4702811064
 10
-7.650546232
 20
35.4698588902
  0
LWPOLYLINE
  5
3B8
100
AcDbEntity
  8
RACCORDO
100
AcDbPolyline
 62
250
  6
CONTINUOUS
 90
16
 70
0
 10
-7.5533375183
 20
34.9654305969
 10
-7.5540511654
 20
34.9583137929
 10
-7.5558293815
 20
34.9512803353
 10
-7.5586530971
 20
34.9444056516
 10
-7.5624920268
 20
34.937763472
 10
-7.5673050038
 20
34.9314250218
 10
-7.573040429
 20
34.9254582605
 10
-7.579636813
 20
34.9199271713
 10
-7.5870234127
 20
34.9148910839
 10
-7.5951209994
 20
34.91040402
 10
-7.6038441186
 20
34.9065135503
 10
-7.6130979993
 20
34.9032621449
 10
-7.6227787945
 20
34.9006857188
 10
-7.6327806545
 20
34.898811166
 10
-7.642997602
 20
34.8976571147
 10
-7.6533201422
 20
34.8972348985
  0
LWPOLYLINE
  5
3B9
100
AcDbEntity
  8
RACCORDO
100
AcDbPolyline
 62
250
  6
CONTINUOUS
 90
16
 70
0
 10
-7.5552594279
 20
34.3629998542
 10
-7.5559730749
 20
34.3558830502
 10
-7.5577512911
 20
34.3488495927
 10
-7.5605750066
 20
34.341974909
 10
-7.5644139363
 20
34.3353327293
 10
-7.5692269133
 20
34.3289942791
 10
-7.5749623386
 20
34.3230275178
 10
-7.5815587226
 20
34.3174964286
 10
-7.5889453223
 20
34.3124603412
 10
-7.597042909
 20
34.3079732773
 10
-7.6057660281
 20
34.3040828077
 10
-7.6150199088
 20
34.3008314022
 10
-7.624700704
 20
34.2982549761
 10
-7.6347025641
 20
34.2963804233
 10
-7.6449195115
 20
34.2952263721
 10
-7.6552420518
 20
34.2948041559
  0
LWPOLYLINE
  5
3BA
100
AcDbEntity
  8
RACCORDO
100
AcDbPolyline
 62
7
  6
CONTINUOUS
 90
16
 70
0
 10
-7.5556595189
 20
33.7531697516
 10
-7.5564605812
 20
33.7486289957
 10
-7.5584077561
 20
33.7442609245
 10
-7.5614652153
 20
33.7400653034
 10
-7.5655909932
 20
33.7359976504
 10
-7.5707222295
 20
33.7321017607
 10
-7.5767637467
 20
33.728509631
 10
-7.583618942
 20
33.725239952
 10
-7.591199421
 20
33.7222728208
 10
-7.5994007155
 20
33.7196822029
 10
-7.6081145198
 20
33.7174828851
 10
-7.6172405903
 20
33.715658714
 10
-7.6266844301
 20
33.7142372305
 10
-7.6363466701
 20
33.7132271702
 10
-7.6461226135
 20
33.7126184604
 10
-7.6559135031
 20
33.7124104539
  0
LWPOLYLINE
  5
3BB
100
AcDbEntity
  8
RACCORDO
100
AcDbPolyline
 62
7
  6
CONTINUOUS
 90
16
 70
0
 10
-7.5468553623
 20
36.1039989977
 10
-7.5476506685
 20
36.0996382997
 10
-7.5495856546
 20
36.0954412859
 10
-7.552626492
 20
36.0914077345
 10
-7.5567332773
 20
36.0874945876
 10
-7.5618451319
 20
36.0837442427
 10
-7.5678686051
 20
36.0802844776
 10
-7.5747086218
 20
36.0771330088
 10
-7.5822782601
 20
36.0742709273
 10
-7.5904743051
 20
36.0717709273
 10
-7.5991894131
 20
36.0696470631
 10
-7.608323842
 20
36.0678839236
 10
-7.6177832113
 20
36.0665099891
 10
-7.6274680312
 20
36.0655343074
 10
-7.6372732661
 20
36.0649464907
 10
-7.6470994775
 20
36.0647458874
  0
LWPOLYLINE
  5
3BC
100
AcDbEntity
  8
RACCORDO
100
AcDbPolyline
 62
7
  6
CONTINUOUS
 90
16
 70
0
 10
-7.5499722496
 20
35.4790305969
 10
-7.5507675558
 20
35.4746698989
 10
-7.5527025419
 20
35.4704728851
 10
-7.5557433793
 20
35.4664393337
 10
-7.5598501646
 20
35.4625261868
 10
-7.5649620192
 20
35.4587758419
 10
-7.5709854923
 20
35.4553160768
 10
-7.577825509
 20
35.452164608
 10
-7.5853951474
 20
35.4493025264
 10
-7.5935911924
 20
35.4468025265
 10
-7.6023063003
 20
35.4446786623
 10
-7.6114407293
 20
35.4429155228
 10
-7.6209000985
 20
35.4415415883
 10
-7.6305849185
 20
35.4405659066
 10
-7.6403901533
 20
35.4399780899
 10
-7.6502163648
 20
35.4397774866
  0
LWPOLYLINE
  5
3BD
100
AcDbEntity
  8
RACCORDO
100
AcDbPolyline
 62
7
  6
CONTINUOUS
 90
16
 70
0
 10
-7.5521129623
 20
34.8432066052
 10
-7.5529082684
 20
34.8388459073
 10
-7.5548432545
 20
34.8346488934
 10
-7.5578840919
 20
34.8306153421
 10
-7.5619908772
 20
34.8267021951
 10
-7.5671027318
 20
34.8229518503
 10
-7.573126205
 20
34.8194920851
 10
-7.5799662217
 20
34.8163406164
 10
-7.58753586
 20
34.8134785348
 10
-7.595731905
 20
34.8109785349
 10
-7.604447013
 20
34.8088546706
 10
-7.6135814419
 20
34.8070915311
 10
-7.6230408112
 20
34.8057175966
 10
-7.6327256311
 20
34.804741915
 10
-7.642530866
 20
34.8041540982
 10
-7.6523570774
 20
34.8039534949
  0
LWPOLYLINE
  5
3BE
100
AcDbEntity
  8
RACCORDO
100
AcDbPolyline
 62
7
  6
CONTINUOUS
 90
16
 70
0
 10
-7.5538238059
 20
34.2197091959
 10
-7.5546191121
 20
34.2153484979
 10
-7.5565540982
 20
34.2111514841
 10
-7.5595949356
 20
34.2071179327
 10
-7.5637017209
 20
34.2032047858
 10
-7.5688135755
 20
34.1994544409
 10
-7.5748370487
 20
34.1959946758
 10
-7.5816770654
 20
34.192843207
 10
-7.5892467037
 20
34.1899811255
 10
-7.5974427487
 20
34.1874811255
 10
-7.6061578567
 20
34.1853572613
 10
-7.6152922856
 20
34.1835941218
 10
-7.6247516549
 20
34.1822201873
 10
-7.6344364748
 20
34.1812445056
 10
-7.6442417097
 20
34.1806566889
 10
-7.6540679211
 20
34.1804560856
  0
LWPOLYLINE
  5
3BF
100
AcDbEntity
  8
RACCORDO
100
AcDbPolyline
 62
250
  6
CONTINUOUS
 90
4
 70
0
 10
-17.0763418702
 20
71.1147657262
 10
-17.0762174802
 20
71.11319821
 10
-17.0760984144
 20
71.1092871856
 10
-17.0759846729
 20
71.1032775981
  0
LINE
  5
3C0
100
AcDbEntity
  8
0
100
AcDbLine
 62
7
  6
CONTINUOUS
 10
-12.6113710242
 20
73.3878783033
 11
-12.5127410242
 21
71.8924193033
  0
LINE
  5
3C1
100
AcDbEntity
  8
RACCORDO
100
AcDbLine
 62
250
  6
CONTINUOUS
 10
-7.6559613402
 20
33.7124104539
 11
-7.656404818
 21
33.7531016596
  0
LINE
  5
3C2
100
AcDbEntity
  8
RACCORDO
100
AcDbLine
 62
250
  6
CONTINUOUS
 10
-7.5556595189
 20
33.7531697516
 11
-7.5564221941
 21
33.823148841
  0
LINE
  5
3C3
100
AcDbEntity
  8
RACCORDO
100
AcDbLine
 62
250
  6
CONTINUOUS
 10
-7.6552420518
 20
34.2948041559
 11
-7.6540964042
 21
34.1804560856
  0
LINE
  5
3C4
100
AcDbEntity
  8
RACCORDO
100
AcDbLine
 62
250
  6
CONTINUOUS
 10
-7.6533201422
 20
34.8972348985
 11
-7.6523855605
 21
34.8039534949
  0
LINE
  5
3C5
100
AcDbEntity
  8
RACCORDO
100
AcDbLine
 62
250
  6
CONTINUOUS
 10
-7.650546232
 20
35.4698588902
 11
-7.6502448479
 21
35.4397774866
  0
LINE
  5
3C6
100
AcDbEntity
  8
RACCORDO
100
AcDbLine
 62
250
  6
CONTINUOUS
 10
-7.6473238117
 20
36.0842939577
 11
-7.6471279606
 21
36.0647458874
  0
LINE
  5
3C7
100
AcDbEntity
  8
RACCORDO
100
AcDbLine
 62
250
  6
CONTINUOUS
 10
-7.5552594279
 20
34.3629998542
 11
-7.5538238059
 21
34.2197091959
  0
LINE
  5
3C8
100
AcDbEntity
  8
RACCORDO
100
AcDbLine
 62
250
  6
CONTINUOUS
 10
-7.5533375183
 20
34.9654305969
 11
-7.5521129623
 21
34.8432066052
  0
LINE
  5
3C9
100
AcDbEntity
  8
RACCORDO
100
AcDbLine
 62
250
  6
CONTINUOUS
 10
-7.550563608
 20
35.5380545886
 11
-7.5499722496
 21
35.4790305969
  0
LINE
  5
3CA
100
AcDbEntity
  8
RACCORDO
100
AcDbLine
 62
250
  6
CONTINUOUS
 10
-7.5473411878
 20
36.152489656
 11
-7.5468553623
 21
36.1039989977
  0
LINE
  5
3CB
100
AcDbEntity
  8
RACCORDO
100
AcDbLine
 62
7
  6
CONTINUOUS
 10
-7.5807420803
 20
43.3089789154
 11
-7.5762915062
 21
42.6297419559
  0
LINE
  5
3CC
100
AcDbEntity
  8
RACCORDO
100
AcDbLine
 62
7
  6
CONTINUOUS
 10
-7.5553242998
 20
39.4297724155
 11
-7.5419770242
 21
37.3927401863
  0
LINE
  5
3CD
100
AcDbEntity
  8
DRAFT
100
AcDbLine
 62
7
  6
CONTINUOUS
 10
-7.5720950476
 20
43.8304123033
 11
-7.608921879
 21
49.4661237307
  0
LINE
  5
3CE
100
AcDbEntity
  8
RACCORDO
100
AcDbLine
 62
7
  6
CONTINUOUS
 10
-7.6403144483
 20
54.2294114937
 11
-7.6091038894
 21
49.4661237307
  0
LINE
  5
3CF
100
AcDbEntity
  8
RACCORDO
100
AcDbLine
 62
250
  6
CONTINUOUS
 10
-7.5448402914
 20
36.614089656
 11
-7.5447182998
 21
36.5989200631
  0
LINE
  5
3D0
100
AcDbEntity
  8
RACCORDO
100
AcDbLine
 62
250
  6
CONTINUOUS
 10
-7.5447182998
 20
36.5989200631
 11
-7.5446670364
 21
36.5814165199
  0
LINE
  5
3D1
100
AcDbEntity
  8
RACCORDO
100
AcDbLine
 62
7
  6
CONTINUOUS
 10
-6.6420603847
 20
33.3712950718
 11
-6.6453187857
 21
36.9237282713
  0
LWPOLYLINE
  5
3D2
100
AcDbEntity
  8
RACCORDO
100
AcDbPolyline
 62
7
  6
CONTINUOUS
 90
3
 70
0
 10
-6.6475358412
 20
54.2702841674
 10
-6.647277173
 20
53.0635127305
 10
-6.6419770242
 20
43.3304123033
  0
LINE
  5
3D3
100
AcDbEntity
  8
DRAFT
100
AcDbLine
 62
7
  6
CONTINUOUS
 10
-11.2419770242
 20
29.9241674947
 11
-11.2419770242
 21
30.3304123033
  0
LINE
  5
3D4
100
AcDbEntity
  8
DRAFT
100
AcDbLine
 62
7
  6
CONTINUOUS
 10
-11.2419770242
 20
55.3304123033
 11
-11.2419770242
 21
55.6482987712
  0
LINE
  5
3D5
100
AcDbEntity
  8
DRAFT
100
AcDbLine
 62
250
  6
CONTINUOUS
 10
-10.9789154051
 20
55.6111891779
 11
-10.9789154051
 21
56.2386656514
  0
LINE
  5
3D6
100
AcDbEntity
  8
DRAFT
100
AcDbLine
 62
250
  6
CONTINUOUS
 10
-10.4865115285
 20
55.5161941639
 11
-10.4865115285
 21
56.1892157309
  0
LINE
  5
3D7
100
AcDbEntity
  8
0
100
AcDbLine
 62
7
  6
CONTINUOUS
 10
-10.2419770242
 20
38.2553724936
 11
-10.2419770242
 21
42.2447672472
  0
LINE
  5
3D8
100
AcDbEntity
  8
0
100
AcDbLine
 62
7
  6
CONTINUOUS
 10
-10.2419770242
 20
55.4497239236
 11
-10.2419770242
 21
56.2772180661
  0
LINE
  5
3D9
100
AcDbEntity
  8
0
100
AcDbLine
 62
7
  6
CONTINUOUS
 10
-9.9419770242
 20
43.3953841201
 11
-9.9419770242
 21
41.2085224072
  0
LINE
  5
3DA
100
AcDbEntity
  8
IMPORT_IGES
100
AcDbLine
 62
7
  6
CONTINUOUS
 10
-9.9419770242
 20
43.3953800568
 11
-9.9419770242
 21
43.8304123033
  0
LINE
  5
3DB
100
AcDbEntity
  8
0
100
AcDbLine
 62
7
  6
CONTINUOUS
 10
-9.9353794421
 20
74.1653399498
 11
-9.9353794421
 21
71.8924194697
  0
LINE
  5
3DC
100
AcDbEntity
  8
0
100
AcDbLine
 62
7
  6
CONTINUOUS
 10
-9.473172668
 20
73.1690800743
 11
-9.473172668
 21
73.8004171731
  0
LINE
  5
3DD
100
AcDbEntity
  8
0
100
AcDbLine
 62
7
  6
CONTINUOUS
 10
-9.4572547227
 20
71.8924194697
 11
-9.4572547227
 21
72.7924301006
  0
LINE
  5
3DE
100
AcDbEntity
  8
RACCORDO
100
AcDbLine
 62
7
  6
CONTINUOUS
 10
-9.2419770242
 20
55.1638018838
 11
-9.2419770242
 21
56.0144769522
  0
LINE
  5
3DF
100
AcDbEntity
  8
RACCORDO
100
AcDbLine
 62
250
  6
CONTINUOUS
 10
-8.9919770242
 20
55.9186874161
 11
-8.9919770242
 21
55.0788972946
  0
LINE
  5
3E0
100
AcDbEntity
  8
RACCORDO
100
AcDbLine
 62
250
  6
CONTINUOUS
 10
-8.9269018868
 20
31.3825779677
 11
-8.9269018868
 21
31.4532886458
  0
LINE
  5
3E1
100
AcDbEntity
  8
0
100
AcDbLine
 62
7
  6
CONTINUOUS
 10
-8.701178189
 20
72.9659408783
 11
-8.701178189
 21
72.9795306301
  0
LINE
  5
3E2
100
AcDbEntity
  8
RACCORDO
100
AcDbLine
 62
250
  6
CONTINUOUS
 10
-8.543496106
 20
31.8111229814
 11
-8.543496106
 21
31.8818336595
  0
LINE
  5
3E3
100
AcDbEntity
  8
RACCORDO
100
AcDbLine
 62
250
  6
CONTINUOUS
 10
-8.3831901795
 20
32.0211229814
 11
-8.3831901795
 21
32.0918336595
  0
LINE
  5
3E4
100
AcDbEntity
  8
RACCORDO
100
AcDbLine
 62
250
  6
CONTINUOUS
 10
-8.1623360253
 20
32.3511229814
 11
-8.1623360253
 21
32.4218336595
  0
LINE
  5
3E5
100
AcDbEntity
  8
RACCORDO
100
AcDbLine
 62
7
  6
CONTINUOUS
 10
-8.1111989799
 20
69.9156322646
 11
-8.1111989799
 21
70.399618678
  0
LINE
  5
3E6
100
AcDbEntity
  8
RACCORDO
100
AcDbLine
 62
7
  6
CONTINUOUS
 10
-8.0919770242
 20
70.8304237264
 11
-8.0919770242
 21
69.9217624721
  0
LINE
  5
3E7
100
AcDbEntity
  8
RACCORDO
100
AcDbLine
 62
250
  6
CONTINUOUS
 10
-8.0593876217
 20
69.3304123033
 11
-8.0593876217
 21
69.5009261544
  0
LINE
  5
3E8
100
AcDbEntity
  8
RACCORDO
100
AcDbLine
 62
250
  6
CONTINUOUS
 10
-8.0022704497
 20
32.6277074193
 11
-8.0022704497
 21
32.6984180974
  0
LINE
  5
3E9
100
AcDbEntity
  8
RACCORDO
100
AcDbLine
 62
250
  6
CONTINUOUS
 10
-7.7634125241
 20
33.124823429
 11
-7.7634125241
 21
33.1955341072
  0
LINE
  5
3EA
100
AcDbEntity
  8
RACCORDO
100
AcDbLine
 62
250
  6
CONTINUOUS
 10
-7.656404818
 20
33.7531016596
 11
-7.656404818
 21
33.8238039586
  0
LINE
  5
3EB
100
AcDbEntity
  8
RACCORDO
100
AcDbLine
 62
250
  6
CONTINUOUS
 10
-7.6552420518
 20
34.3636549718
 11
-7.6552420518
 21
34.2948041559
  0
LINE
  5
3EC
100
AcDbEntity
  8
RACCORDO
100
AcDbLine
 62
250
  6
CONTINUOUS
 10
-7.6533201422
 20
34.9660857145
 11
-7.6533201422
 21
34.8972348985
  0
LINE
  5
3ED
100
AcDbEntity
  8
RACCORDO
100
AcDbLine
 62
250
  6
CONTINUOUS
 10
-7.650546232
 20
35.5387097061
 11
-7.650546232
 21
35.4698588902
  0
LINE
  5
3EE
100
AcDbEntity
  8
RACCORDO
100
AcDbLine
 62
250
  6
CONTINUOUS
 10
-7.6473238117
 20
36.1531447736
 11
-7.6473238117
 21
36.0842939577
  0
LINE
  5
3EF
100
AcDbEntity
  8
RACCORDO
100
AcDbLine
 62
250
  6
CONTINUOUS
 10
-7.6448229154
 20
36.6147447736
 11
-7.6448229154
 21
36.5433304893
  0
LINE
  5
3F0
100
AcDbEntity
  8
RACCORDO
100
AcDbLine
 62
7
  6
CONTINUOUS
 10
-7.432356793
 20
54.3681811952
 11
-7.432356793
 21
43.3599815389
  0
LINE
  5
3F1
100
AcDbEntity
  8
RACCORDO
100
AcDbLine
 62
7
  6
CONTINUOUS
 10
-7.4312335436
 20
36.8983622428
 11
-7.4312331365
 21
33.3307468275
  0
LINE
  5
3F2
100
AcDbEntity
  8
RACCORDO
100
AcDbLine
 62
7
  6
CONTINUOUS
 10
-7.0419770242
 20
54.1465496013
 11
-7.0419770242
 21
43.847816967
  0
LINE
  5
3F3
100
AcDbEntity
  8
RACCORDO
100
AcDbLine
 62
7
  6
CONTINUOUS
 10
-7.0419770242
 20
36.4107805763
 11
-7.0419770242
 21
33.2579294313
  0
LINE
  5
3F4
100
AcDbEntity
  8
RACCORDO
100
AcDbLine
 62
7
  6
CONTINUOUS
 10
-6.6561174949
 20
33.374027591
 11
-6.6561174949
 21
36.4107805763
  0
LINE
  5
3F5
100
AcDbEntity
  8
RACCORDO
100
AcDbLine
 62
7
  6
CONTINUOUS
 10
-6.6550040481
 20
43.847816967
 11
-6.6550040481
 21
54.2573382724
  0
LINE
  5
3F6
100
AcDbEntity
  8
0
100
AcDbLine
 62
7
  6
CONTINUOUS
 10
-5.8919770242
 20
63.3501909051
 11
-5.8919770242
 21
63.114782897
  0
LINE
  5
3F7
100
AcDbEntity
  8
DRAFT
100
AcDbLine
 62
7
  6
CONTINUOUS
 10
-7.4364000753
 20
54.3657921444
 11
-7.4409637323
 21
44.6286987438
  0
LINE
  5
3F8
100
AcDbEntity
  8
DRAFT
100
AcDbLine
 62
7
  6
CONTINUOUS
 10
-7.4409637323
 20
44.6286987438
 11
-7.4419770242
 21
43.3304123033
  0
LINE
  5
3F9
100
AcDbEntity
  8
DRAFT
100
AcDbLine
 62
7
  6
CONTINUOUS
 10
-7.4386352627
 20
36.9237282713
 11
-7.4419289859
 21
33.3327854464
  0
LINE
  5
3FA
100
AcDbEntity
  8
RACCORDO
100
AcDbLine
 62
250
  6
CONTINUOUS
 10
-8.4111875568
 20
70.0767993632
 11
-8.4106870718
 21
70.7500733102
  0
LINE
  5
3FB
100
AcDbEntity
  8
RACCORDO
100
AcDbLine
 62
250
  6
CONTINUOUS
 10
-7.5446670364
 20
36.5814165199
 11
-7.544713344
 21
36.5558651935
  0
LINE
  5
3FC
100
AcDbEntity
  8
RACCORDO
100
AcDbLine
 62
7
  6
CONTINUOUS
 10
-7.5419971344
 20
33.5108698805
 11
-7.5419770242
 21
37.3927401863
  0
LINE
  5
3FD
100
AcDbEntity
  8
RACCORDO
100
AcDbLine
 62
250
  6
CONTINUOUS
 10
-8.1111989799
 20
70.399618678
 11
-8.1109781069
 21
70.4971575821
  0
LINE
  5
3FE
100
AcDbEntity
  8
RACCORDO
100
AcDbLine
 62
250
  6
CONTINUOUS
 10
-7.6419386802
 20
37.0549304893
 11
-7.6448229154
 21
36.6147447736
  0
LINE
  5
3FF
100
AcDbEntity
  8
RACCORDO
100
AcDbLine
 62
250
  6
CONTINUOUS
 10
-7.6447671923
 20
36.5433304893
 11
-7.6473238117
 21
36.1531447736
  0
LINE
  5
400
100
AcDbEntity
  8
RACCORDO
100
AcDbLine
 62
250
  6
CONTINUOUS
 10
-7.6470994775
 20
36.0647458874
 11
-7.650546232
 21
35.5387097061
  0
LINE
  5
401
100
AcDbEntity
  8
RACCORDO
100
AcDbLine
 62
250
  6
CONTINUOUS
 10
-7.6502163648
 20
35.4397774866
 11
-7.6533201422
 21
34.9660857145
  0
LINE
  5
402
100
AcDbEntity
  8
RACCORDO
100
AcDbLine
 62
250
  6
CONTINUOUS
 10
-7.6523570774
 20
34.8039534949
 11
-7.6552420518
 21
34.3636549718
  0
LINE
  5
403
100
AcDbEntity
  8
RACCORDO
100
AcDbLine
 62
250
  6
CONTINUOUS
 10
-7.656404818
 20
33.8238039586
 11
-7.6540679211
 21
34.1804560856
  0
LINE
  5
404
100
AcDbEntity
  8
RACCORDO
100
AcDbLine
 62
250
  6
CONTINUOUS
 10
-7.6575260726
 20
33.4663035985
 11
-7.6559135031
 21
33.7124104539
  0
LINE
  5
405
100
AcDbEntity
  8
DRAFT
100
AcDbLine
 62
7
  6
CONTINUOUS
 10
-7.5419770242
 20
37.3927401863
 11
-7.5437225307
 21
37.1263447736
  0
LINE
  5
406
100
AcDbEntity
  8
RACCORDO
100
AcDbLine
 62
250
  6
CONTINUOUS
 10
-7.5421123677
 20
37.0304194565
 11
-7.5448402914
 21
36.614089656
  0
LINE
  5
407
100
AcDbEntity
  8
RACCORDO
100
AcDbLine
 62
250
  6
CONTINUOUS
 10
-7.544713344
 20
36.5558651935
 11
-7.5473411878
 21
36.152489656
  0
LINE
  5
408
100
AcDbEntity
  8
RACCORDO
100
AcDbLine
 62
250
  6
CONTINUOUS
 10
-7.5468553623
 20
36.1039989977
 11
-7.550563608
 21
35.5380545886
  0
LINE
  5
409
100
AcDbEntity
  8
RACCORDO
100
AcDbLine
 62
250
  6
CONTINUOUS
 10
-7.5499722496
 20
35.4790305969
 11
-7.5533375183
 21
34.9654305969
  0
LINE
  5
40A
100
AcDbEntity
  8
RACCORDO
100
AcDbLine
 62
250
  6
CONTINUOUS
 10
-7.5521129623
 20
34.8432066052
 11
-7.5552594279
 21
34.3629998542
  0
LINE
  5
40B
100
AcDbEntity
  8
RACCORDO
100
AcDbLine
 62
250
  6
CONTINUOUS
 10
-7.5564221941
 20
33.823148841
 11
-7.5538238059
 21
34.2197091959
  0
LINE
  5
40C
100
AcDbEntity
  8
RACCORDO
100
AcDbLine
 62
250
  6
CONTINUOUS
 10
-7.5576550392
 20
33.4486177748
 11
-7.5556595189
 21
33.7531697516
  0
LINE
  5
40D
100
AcDbEntity
  8
RACCORDO
100
AcDbLine
 62
250
  6
CONTINUOUS
 10
-8.4088418356
 20
70.9652393969
 11
-8.4082392323
 21
71.0796799647
  0
LINE
  5
40E
100
AcDbEntity
  8
RACCORDO
100
AcDbLine
 62
250
  6
CONTINUOUS
 10
-8.4106870718
 20
70.7500733102
 11
-8.4088418356
 21
70.9652393969
  0
LINE
  5
40F
100
AcDbEntity
  8
RACCORDO
100
AcDbLine
 62
7
  6
CONTINUOUS
 10
-7.5424907784
 20
33.445945624
 11
-7.5419971344
 21
33.5108698805
  0
LINE
  5
410
100
AcDbEntity
  8
RACCORDO
100
AcDbLine
 62
250
  6
CONTINUOUS
 10
-5.3226579512
 20
71.6163408799
 11
-5.3215888757
 21
71.7702246419
  0
LINE
  5
411
100
AcDbEntity
  8
RACCORDO
100
AcDbLine
 62
250
  6
CONTINUOUS
 10
-8.1109781069
 20
70.4971575821
 11
-8.1087498221
 21
70.7662108346
  0
LINE
  5
412
100
AcDbEntity
  8
DRAFT
100
AcDbLine
 62
7
  6
CONTINUOUS
 10
-7.5750570221
 20
43.8304123033
 11
-7.5807420803
 21
43.3089789154
  0
LINE
  5
413
100
AcDbEntity
  8
RACCORDO
100
AcDbLine
 62
250
  6
CONTINUOUS
 10
-8.1087498221
 20
70.7662108346
 11
-8.1085174181
 21
70.7855165
  0
LINE
  5
414
100
AcDbEntity
  8
RACCORDO
100
AcDbLine
 62
250
  6
CONTINUOUS
 10
-5.3233526277
 20
71.5584039217
 11
-5.3226579512
 21
71.6163408799
  0
LWPOLYLINE
  5
415
100
AcDbEntity
  8
0
100
AcDbPolyline
 62
7
  6
CONTINUOUS
 90
10
 70
0
 10
-4.6831250222
 20
61.4987386305
 10
-4.6827698228
 20
61.5247138265
 10
-4.6818582577
 20
61.5501873833
 10
-4.6803903269
 20
61.5751593008
 10
-4.6783305623
 20
61.5997250619
 10
-4.675714432
 20
61.6237891837
 10
-4.6726483399
 20
61.647065218
 10
-4.669167754
 20
61.6694576821
 10
-4.6652372064
 20
61.6910620587
 10
-4.6608566971
 20
61.7118783478
  0
LWPOLYLINE
  5
416
100
AcDbEntity
  8
RACCORDO
100
AcDbPolyline
 62
250
  6
CONTINUOUS
 90
4
 70
0
 10
-8.4082392323
 20
71.0796799647
 10
-8.4079411708
 20
71.1050618915
 10
-8.4077805668
 20
71.1120693551
 10
-8.4076121782
 20
71.1147657262
  0
LINE
  5
417
100
AcDbEntity
  8
RACCORDO
100
AcDbLine
 62
250
  6
CONTINUOUS
 10
-4.8854958103
 20
36.5628761101
 11
-4.8954390538
 21
36.0263521919
  0
LINE
  5
418
100
AcDbEntity
  8
RACCORDO
100
AcDbLine
 62
250
  6
CONTINUOUS
 10
-4.7377746474
 20
36.5471968406
 11
-4.7477178998
 21
36.0106724396
  0
LWPOLYLINE
  5
419
100
AcDbEntity
  8
RACCORDO
100
AcDbPolyline
 62
250
  6
CONTINUOUS
 90
6
 70
0
 10
-8.1085174181
 20
70.7855165
 10
-8.1082504067
 20
70.8008150815
 10
-8.1081049847
 20
70.806518077
 10
-8.1079521847
 20
70.810686935
 10
-8.1077917235
 20
70.8134399591
 10
-8.1076236012
 20
70.8147771493
  0
LWPOLYLINE
  5
41A
100
AcDbEntity
  8
RACCORDO
100
AcDbPolyline
 62
7
  6
CONTINUOUS
 90
10
 70
0
 10
-6.6420603847
 20
33.3712950718
 10
-6.6429050204
 20
33.3287864306
 10
-6.6455738637
 20
33.2863788472
 10
-6.6500669147
 20
33.2440723215
 10
-6.656417361
 20
33.2016997999
 10
-6.6645920149
 20
33.159428336
 10
-6.6744913129
 20
33.1177590906
 10
-6.6860820672
 20
33.0768591173
 10
-6.6993974655
 20
33.0365613625
 10
-6.714437508
 20
32.9968658262
  0
LWPOLYLINE
  5
41B
100
AcDbEntity
  8
RACCORDO
100
AcDbPolyline
 62
250
  6
CONTINUOUS
 90
5
 70
0
 10
-5.1249912667
 20
71.2918064885
 10
-5.1245543547
 20
71.306943402
 10
-5.1241371633
 20
71.3280635723
 10
-5.1237396924
 20
71.3548647337
 10
-5.122665603
 20
71.4657694533
  0
LWPOLYLINE
  5
41C
100
AcDbEntity
  8
RACCORDO
100
AcDbPolyline
 62
250
  6
CONTINUOUS
 90
5
 70
0
 10
-4.958962785
 20
72.769018118
 10
-4.9593845722
 20
72.7545062782
 10
-4.9597884584
 20
72.7343914432
 10
-4.9601744436
 20
72.7089315141
 10
-4.960896079
 20
72.643366839
  0
LWPOLYLINE
  5
41D
100
AcDbEntity
  8
0
100
AcDbPolyline
 62
7
  6
CONTINUOUS
 90
10
 70
0
 10
-5.72973637
 20
61.6546169404
 10
-5.7291510834
 20
61.6734053252
 10
-5.7277834644
 20
61.6912560505
 10
-5.7256335131
 20
61.7081691164
 10
-5.7226863991
 20
61.723998337
 10
-5.7189569527
 20
61.7388898981
 10
-5.7144896649
 20
61.753282357
 10
-5.7092993662
 20
61.7673218994
 10
-5.7033712261
 20
61.7808623395
 10
-5.6967052447
 20
61.7939036774
  0
LWPOLYLINE
  5
41E
100
AcDbEntity
  8
0
100
AcDbPolyline
 62
7
  6
CONTINUOUS
 90
10
 70
0
 10
-3.7542176956
 20
67.4189321552
 10
-3.7551100748
 20
67.3939541088
 10
-3.7571974772
 20
67.3707801027
 10
-3.7604799027
 20
67.3494101366
 10
-3.7650277246
 20
67.3299845185
 10
-3.7707705695
 20
67.3123629405
 10
-3.7774973175
 20
67.2961244793
 10
-3.7851375951
 20
67.2811288272
 10
-3.7937617757
 20
67.267516292
 10
-3.8033698593
 20
67.2552868736
  0
LWPOLYLINE
  5
41F
100
AcDbEntity
  8
0
100
AcDbPolyline
 62
7
  6
CONTINUOUS
 90
10
 70
0
 10
-3.7542176956
 20
65.9810345922
 10
-3.7551100748
 20
65.9560565459
 10
-3.7571974772
 20
65.9328825397
 10
-3.7604799027
 20
65.9115125737
 10
-3.7650277246
 20
65.8920869555
 10
-3.7707705695
 20
65.8744653775
 10
-3.7774973175
 20
65.8582269163
 10
-3.7851375951
 20
65.8432312643
 10
-3.7937617757
 20
65.829618729
 10
-3.8033698593
 20
65.8173893106
  0
LWPOLYLINE
  5
420
100
AcDbEntity
  8
0
100
AcDbPolyline
 62
7
  6
CONTINUOUS
 90
10
 70
0
 10
-3.7542176956
 20
64.5431370292
 10
-3.7551100723
 20
64.5181589511
 10
-3.7571974696
 20
64.4949849295
 10
-3.7604798877
 20
64.4736149646
 10
-3.7650276958
 20
64.4541893754
 10
-3.7707705246
 20
64.4365678428
 10
-3.7774972661
 20
64.4203294095
 10
-3.7851375511
 20
64.4053337563
 10
-3.7937617488
 20
64.3917212023
 10
-3.8033698593
 20
64.3794917476
  0
LWPOLYLINE
  5
421
100
AcDbEntity
  8
RACCORDO
100
AcDbPolyline
 62
250
  6
CONTINUOUS
 90
4
 70
0
 10
-5.3249836151
 20
71.4887680391
 10
-5.3245467717
 20
71.5002836753
 10
-5.3241296214
 20
71.5156979131
 10
-5.3233526277
 20
71.5584039217
  0
LWPOLYLINE
  5
422
100
AcDbEntity
  8
RACCORDO
100
AcDbPolyline
 62
250
  6
CONTINUOUS
 90
6
 70
0
 10
-4.7589704332
 20
72.5720565674
 10
-4.7593921585
 20
72.5610576101
 10
-4.7597960076
 20
72.5463697736
 10
-4.7601819805
 20
72.5279930578
 10
-4.7605517752
 20
72.5057673889
 10
-4.7612326421
 20
72.4507296348
  0
LWPOLYLINE
  5
423
100
AcDbEntity
  8
0
100
AcDbPolyline
 62
7
  6
CONTINUOUS
 90
10
 70
0
 10
-5.72973637
 20
67.4221132074
 10
-5.7287333493
 20
67.4451942389
 10
-5.7264962143
 20
67.4669117542
 10
-5.7230249651
 20
67.4872657533
 10
-5.718253431
 20
67.5061462496
 10
-5.7122477826
 20
67.5236632297
 10
-5.7052065322
 20
67.5401466534
 10
-5.6971958504
 20
67.5557065075
 10
-5.6881495665
 20
67.5702328053
 10
-5.6780676806
 20
67.5837255467
  0
LWPOLYLINE
  5
424
100
AcDbEntity
  8
0
100
AcDbPolyline
 62
7
  6
CONTINUOUS
 90
10
 70
0
 10
-5.72973637
 20
65.9842156444
 10
-5.7287333493
 20
66.0072966759
 10
-5.7264962143
 20
66.0290141912
 10
-5.7230249651
 20
66.0493681904
 10
-5.718253431
 20
66.0682486866
 10
-5.7122477826
 20
66.0857656667
 10
-5.7052065322
 20
66.1022490905
 10
-5.6971958504
 20
66.1178089445
 10
-5.6881495665
 20
66.1323352423
 10
-5.6780676806
 20
66.1458279837
  0
LWPOLYLINE
  5
425
100
AcDbEntity
  8
0
100
AcDbPolyline
 62
7
  6
CONTINUOUS
 90
10
 70
0
 10
-5.72973637
 20
64.5463180814
 10
-5.7287333618
 20
64.5693989594
 10
-5.726496237
 20
64.5911163612
 10
-5.7230249955
 20
64.6114702868
 10
-5.7182534699
 20
64.6303507537
 10
-5.7122478277
 20
64.6478677445
 10
-5.7052065709
 20
64.6643512066
 10
-5.697195867
 20
64.6799111226
 10
-5.6881495484
 20
64.6944375099
 10
-5.6780676153
 20
64.7079303685
  0
LINE
  5
426
100
AcDbEntity
  8
RACCORDO
100
AcDbLine
 62
250
  6
CONTINUOUS
 10
-5.3419770242
 20
71.1454150077
 11
-5.3249836151
 21
71.4887680391
  0
LINE
  5
427
100
AcDbEntity
  8
RACCORDO
100
AcDbLine
 62
250
  6
CONTINUOUS
 10
-5.1422724894
 20
70.9426374301
 11
-5.1249912305
 21
71.2918064885
  0
LINE
  5
428
100
AcDbEntity
  8
RACCORDO
100
AcDbLine
 62
250
  6
CONTINUOUS
 10
-4.9416815589
 20
73.1181871765
 11
-4.9589628179
 21
72.769018118
  0
LINE
  5
429
100
AcDbEntity
  8
RACCORDO
100
AcDbLine
 62
250
  6
CONTINUOUS
 10
-4.7419770242
 20
72.9154095989
 11
-4.7589704332
 21
72.5720565674
  0
LWPOLYLINE
  5
42A
100
AcDbEntity
  8
RACCORDO
100
AcDbPolyline
 62
250
  6
CONTINUOUS
 90
13
 70
0
 10
-5.3249836151
 20
72.5720565674
 10
-5.3232364283
 20
72.5977405783
 10
-5.3181037434
 20
72.6229859749
 10
-5.3096732129
 20
72.6473616334
 10
-5.2980888078
 20
72.6704512826
 10
-5.2835483587
 20
72.6918606131
 10
-5.2663001775
 20
72.7112240108
 10
-5.246638817
 20
72.7282108005
 10
-5.2249000408
 20
72.7425308933
 10
-5.2014550889
 20
72.7539397402
 10
-5.1767043386
 20
72.7622425086
 10
-5.1510704664
 20
72.7672974093
 10
-5.1249912305
 20
72.769018118
  0
LWPOLYLINE
  5
42B
100
AcDbEntity
  8
RACCORDO
100
AcDbPolyline
 62
250
  6
CONTINUOUS
 90
13
 70
0
 10
-4.7589704332
 20
71.4887680391
 10
-4.76071762
 20
71.4630840282
 10
-4.765850305
 20
71.4378386314
 10
-4.7742808355
 20
71.4134629728
 10
-4.7858652407
 20
71.3903733235
 10
-4.8004056899
 20
71.3689639928
 10
-4.8176538712
 20
71.3496005951
 10
-4.8373152317
 20
71.3326138052
 10
-4.8590540079
 20
71.3182937123
 10
-4.8824989597
 20
71.3068848654
 10
-4.90724971
 20
71.2985820973
 10
-4.932883582
 20
71.2935271969
 10
-4.9589628179
 20
71.2918064885
  0
LWPOLYLINE
  5
42C
100
AcDbEntity
  8
RACCORDO
100
AcDbPolyline
 62
250
  6
CONTINUOUS
 90
13
 70
0
 10
-4.3958714063
 20
36.4455766034
 10
-4.394447962
 20
36.4650170218
 10
-4.3905501639
 20
36.4841286416
 10
-4.3842439363
 20
36.5025882253
 10
-4.3756359371
 20
36.5200835634
 10
-4.3648717548
 20
36.5363187549
 10
-4.3521334454
 20
36.5510192118
 10
-4.3376364537
 20
36.5639363032
 10
-4.3216259695
 20
36.5748515605
 10
-4.3043727802
 20
36.5835803726
 10
-4.2861686913
 20
36.5899751079
 10
-4.2673215911
 20
36.5939276113
 10
-4.2481502434
 20
36.5953710337
  0
LWPOLYLINE
  5
42D
100
AcDbEntity
  8
RACCORDO
100
AcDbPolyline
 62
7
  6
CONTINUOUS
 90
16
 70
0
 10
-17.9301302424
 20
34.2197091959
 10
-17.9293349146
 20
34.2154795153
 10
-17.9273999604
 20
34.2112549782
 10
-17.9243590848
 20
34.2071179013
 10
-17.9202520187
 20
34.2031695167
 10
-17.9151395784
 20
34.1994621497
 10
-17.9091153306
 20
34.195993816
 10
-17.9022741623
 20
34.1928142101
 10
-17.8947031127
 20
34.1899793097
 10
-17.8865062491
 20
34.187479743
 10
-17.8777926582
 20
34.1853391153
 10
-17.8686607892
 20
34.1835886543
 10
-17.8592008842
 20
34.1822200022
 10
-17.8495106616
 20
34.1812363692
 10
-17.8396963985
 20
34.1806495933
 10
-17.8298576442
 20
34.1804560856
  0
LWPOLYLINE
  5
42E
100
AcDbEntity
  8
RACCORDO
100
AcDbPolyline
 62
7
  6
CONTINUOUS
 90
16
 70
0
 10
-17.9318410861
 20
34.8432066052
 10
-17.9310457583
 20
34.8389769247
 10
-17.9291108041
 20
34.8347523875
 10
-17.9260699285
 20
34.8306153106
 10
-17.9219628624
 20
34.826666926
 10
-17.9168504221
 20
34.822959559
 10
-17.9108261743
 20
34.8194912253
 10
-17.903985006
 20
34.8163116194
 10
-17.8964139564
 20
34.813476719
 10
-17.8882170928
 20
34.8109771524
 10
-17.8795035019
 20
34.8088365247
 10
-17.8703716329
 20
34.8070860636
 10
-17.8609117279
 20
34.8057174116
 10
-17.8512215053
 20
34.8047337785
 10
-17.8414072422
 20
34.8041470026
 10
-17.8315684879
 20
34.8039534949
  0
LWPOLYLINE
  5
42F
100
AcDbEntity
  8
RACCORDO
100
AcDbPolyline
 62
7
  6
CONTINUOUS
 90
16
 70
0
 10
-17.9339817987
 20
35.4790305969
 10
-17.9331864709
 20
35.4748009163
 10
-17.9312515167
 20
35.4705763792
 10
-17.9282106411
 20
35.4664393023
 10
-17.924103575
 20
35.4624909176
 10
-17.9189911347
 20
35.4587835507
 10
-17.9129668869
 20
35.455315217
 10
-17.9061257187
 20
35.4521356111
 10
-17.898554669
 20
35.4493007107
 10
-17.8903578054
 20
35.446801144
 10
-17.8816442145
 20
35.4446605163
 10
-17.8725123455
 20
35.4429100553
 10
-17.8630524405
 20
35.4415414032
 10
-17.8533622179
 20
35.4405577702
 10
-17.8435479548
 20
35.4399709942
 10
-17.8337092005
 20
35.4397774866
  0
LWPOLYLINE
  5
430
100
AcDbEntity
  8
RACCORDO
100
AcDbPolyline
 62
7
  6
CONTINUOUS
 90
16
 70
0
 10
-17.937098686
 20
36.1039989977
 10
-17.9363033582
 20
36.0997693171
 10
-17.934368404
 20
36.09554478
 10
-17.9313275284
 20
36.0914077031
 10
-17.9272204623
 20
36.0874593185
 10
-17.922108022
 20
36.0837519515
 10
-17.9160837742
 20
36.0802836178
 10
-17.9092426059
 20
36.0771040119
 10
-17.9016715563
 20
36.0742691115
 10
-17.8934746927
 20
36.0717695448
 10
-17.8847611018
 20
36.0696289171
 10
-17.8756292328
 20
36.0678784561
 10
-17.8661693278
 20
36.066509804
 10
-17.8564791052
 20
36.065526171
 10
-17.8466648421
 20
36.0649393951
 10
-17.8368260878
 20
36.0647458874
  0
LINE
  5
431
100
AcDbEntity
  8
0
100
AcDbLine
 62
7
  6
CONTINUOUS
 10
-12.0431190242
 20
71.8924193033
 11
-12.2581750242
 21
74.1922093033
  0
LWPOLYLINE
  5
432
100
AcDbEntity
  8
RACCORDO
100
AcDbPolyline
 62
250
  6
CONTINUOUS
 90
13
 70
0
 10
-4.3958714063
 20
36.1152480031
 10
-4.3944478288
 20
36.0958066145
 10
-4.3905496885
 20
36.0766942091
 10
-4.3842429734
 20
36.0582340548
 10
-4.375634395
 20
36.0407383534
 10
-4.3648696149
 20
36.024503031
 10
-4.3521308064
 20
36.0098027154
 10
-4.3376334987
 20
35.9968859923
 10
-4.3216229348
 20
35.9859712519
 10
-4.3043699845
 20
35.9772430402
 10
-4.2861664935
 20
35.9708488841
 10
-4.2673203352
 20
35.9668968166
 10
-4.2481502434
 20
35.9654535729
  0
LWPOLYLINE
  5
433
100
AcDbEntity
  8
RACCORDO
100
AcDbPolyline
 62
7
  6
CONTINUOUS
 90
13
 70
0
 10
-7.6403144483
 20
54.2294114937
 10
-7.640930498
 20
54.2403184859
 10
-7.6424043709
 20
54.2508531812
 10
-7.6447360669
 20
54.2610155795
 10
-7.6479803425
 20
54.2708827879
 10
-7.6520824412
 20
54.2803776994
 10
-7.656878094
 20
54.2892689926
 10
-7.6623742093
 20
54.2975271195
 10
-7.6685638786
 20
54.3051816281
 10
-7.6752621079
 20
54.3120898403
 10
-7.6824072325
 20
54.3182041965
 10
-7.6900609172
 20
54.3235722563
 10
-7.6982231619
 20
54.3281940197
  0
LINE
  5
434
100
AcDbEntity
  8
RACCORDO
100
AcDbLine
 62
250
  6
CONTINUOUS
 10
-5.3249836151
 20
72.5720565674
 11
-5.3419770242
 21
72.9154095989
  0
LINE
  5
435
100
AcDbEntity
  8
RACCORDO
100
AcDbLine
 62
250
  6
CONTINUOUS
 10
-5.1249912305
 20
72.769018118
 11
-5.1422724894
 21
73.1181871765
  0
LINE
  5
436
100
AcDbEntity
  8
RACCORDO
100
AcDbLine
 62
250
  6
CONTINUOUS
 10
-4.9589628179
 20
71.2918064885
 11
-4.9416815589
 21
70.9426374301
  0
LINE
  5
437
100
AcDbEntity
  8
RACCORDO
100
AcDbLine
 62
250
  6
CONTINUOUS
 10
-4.7589704332
 20
71.4887680391
 11
-4.7419770242
 21
71.1454150077
  0
LWPOLYLINE
  5
438
100
AcDbEntity
  8
0
100
AcDbPolyline
 62
7
  6
CONTINUOUS
 90
10
 70
0
 10
-5.9301512958
 20
61.660979319
 10
-5.9269409413
 20
61.5905302167
 10
-5.9203199733
 20
61.5264939619
 10
-5.9102883919
 20
61.4688705547
 10
-5.8965305764
 20
61.4182799067
 10
-5.8793621474
 20
61.3741021063
 10
-5.8597299672
 20
61.3344774183
 10
-5.8379496565
 20
61.2987859308
 10
-5.8137055947
 20
61.2676475556
 10
-5.7869977816
 20
61.2410622927
  0
LWPOLYLINE
  5
439
100
AcDbEntity
  8
RACCORDO
100
AcDbPolyline
 62
250
  6
CONTINUOUS
 90
16
 70
0
 10
-4.8954390538
 20
36.0263521919
 10
-4.8941878941
 20
35.9944736935
 10
-4.8898831011
 20
35.9636935336
 10
-4.8825246746
 20
35.9340117124
 10
-4.8719658809
 20
35.9051713657
 10
-4.8583534539
 20
35.8774293576
 10
-4.8421275948
 20
35.8515562801
 10
-4.823315229
 20
35.8276209169
 10
-4.8018894312
 20
35.8055544843
 10
-4.7782096263
 20
35.7859212234
 10
-4.7520396638
 20
35.7686620064
 10
-4.7236156942
 20
35.7538359611
 10
-4.6940055952
 20
35.7421847119
 10
-4.6635653259
 20
35.7339554668
 10
-4.6319389271
 20
35.7289010177
 10
-4.5991263988
 20
35.7270213647
  0
LWPOLYLINE
  5
43A
100
AcDbEntity
  8
RACCORDO
100
AcDbPolyline
 62
7
  6
CONTINUOUS
 90
16
 70
0
 10
-6.6550040481
 20
54.2573382724
 10
-6.6575338657
 20
54.3291647702
 10
-6.6651910291
 20
54.4002067622
 10
-6.6779755384
 20
54.4704642485
 10
-6.6960587665
 20
54.5404760048
 10
-6.7192693404
 20
54.6097032554
 10
-6.7470931413
 20
54.6765296727
 10
-6.7794716194
 20
54.7406005691
 10
-6.8164633246
 20
54.8022706322
 10
-6.8577297875
 20
54.8609875976
 10
-6.9035463304
 20
54.916964093
 10
-6.9536376312
 20
54.9699874907
 10
-7.0068392531
 20
55.0188676432
 10
-7.0627630508
 20
55.0632078344
 10
-7.1217971697
 20
55.1034047804
 10
-7.1839416099
 20
55.1394584812
  0
LWPOLYLINE
  5
43B
100
AcDbEntity
  8
0
100
AcDbPolyline
 62
7
  6
CONTINUOUS
 90
10
 70
0
 10
-5.9301512958
 20
64.5463180814
 10
-5.9286669284
 20
64.5012608128
 10
-5.9255036283
 20
64.4592851348
 10
-5.9206613956
 20
64.4203910471
 10
-5.9139989443
 20
64.3848613161
 10
-5.9056575604
 20
64.3524131756
 10
-5.8960611014
 20
64.3221983271
 10
-5.8853508531
 20
64.2939340044
 10
-5.8733855297
 20
64.2679029738
 10
-5.8601651312
 20
64.2441052351
  0
LWPOLYLINE
  5
43C
100
AcDbEntity
  8
0
100
AcDbPolyline
 62
7
  6
CONTINUOUS
 90
10
 70
0
 10
-5.9301512958
 20
65.9842156444
 10
-5.9286669307
 20
65.939158426
 10
-5.9255036347
 20
65.8971827995
 10
-5.9206614077
 20
65.858288765
 10
-5.913998967
 20
65.8227590972
 10
-5.9056575953
 20
65.7903110214
 10
-5.896061141
 20
65.7600962134
 10
-5.885350887
 20
65.7318318986
 10
-5.8733855504
 20
65.7058008515
 10
-5.8601651312
 20
65.6820030723
  0
LWPOLYLINE
  5
43D
100
AcDbEntity
  8
0
100
AcDbPolyline
 62
7
  6
CONTINUOUS
 90
10
 70
0
 10
-5.9301512958
 20
67.4221132074
 10
-5.9286669307
 20
67.3770559889
 10
-5.9255036347
 20
67.3350803625
 10
-5.9206614077
 20
67.296186328
 10
-5.913998967
 20
67.2606566602
 10
-5.9056575953
 20
67.2282085844
 10
-5.896061141
 20
67.1979937764
 10
-5.885350887
 20
67.1697294615
 10
-5.8733855504
 20
67.1436984145
 10
-5.8601651312
 20
67.1199006353
  0
LWPOLYLINE
  5
43E
100
AcDbEntity
  8
0
100
AcDbPolyline
 62
7
  6
CONTINUOUS
 90
10
 70
0
 10
-3.5538027483
 20
64.5431370292
 10
-3.5553047499
 20
64.5890007597
 10
-3.558591866
 20
64.6317439495
 10
-3.5636640963
 20
64.6713665986
 10
-3.5706923586
 20
64.7076850012
 10
-3.5795057352
 20
64.7408828631
 10
-3.5895914738
 20
64.7715113022
 10
-3.6007786571
 20
64.7997540246
 10
-3.6132382024
 20
64.8254273242
 10
-3.6269701098
 20
64.8485312011
  0
LWPOLYLINE
  5
43F
100
AcDbEntity
  8
0
100
AcDbPolyline
 62
7
  6
CONTINUOUS
 90
10
 70
0
 10
-3.5538027483
 20
65.9810345922
 10
-3.5553047499
 20
66.0268983226
 10
-3.558591866
 20
66.0696415125
 10
-3.5636640963
 20
66.1092641616
 10
-3.5706923586
 20
66.1455825641
 10
-3.5795057352
 20
66.178780426
 10
-3.5895914738
 20
66.2094088652
 10
-3.6007786571
 20
66.2376515876
 10
-3.6132382024
 20
66.2633248872
 10
-3.6269701098
 20
66.2864287641
  0
LWPOLYLINE
  5
440
100
AcDbEntity
  8
0
100
AcDbPolyline
 62
7
  6
CONTINUOUS
 90
10
 70
0
 10
-3.5538027483
 20
67.4189321552
 10
-3.5553047499
 20
67.4647958856
 10
-3.558591866
 20
67.5075390754
 10
-3.5636640963
 20
67.5471617246
 10
-3.5706923586
 20
67.5834801271
 10
-3.5795057352
 20
67.616677989
 10
-3.5895914738
 20
67.6473064282
 10
-3.6007786571
 20
67.6755491505
 10
-3.6132382024
 20
67.7012224502
 10
-3.6269701098
 20
67.7243263271
  0
LWPOLYLINE
  5
441
100
AcDbEntity
  8
RACCORDO
100
AcDbPolyline
 62
250
  6
CONTINUOUS
 90
4
 70
0
 10
-5.3239123131
 20
72.5352490565
 10
-5.3242470748
 20
72.5496593742
 10
-5.3246041755
 20
72.5619285445
 10
-5.3249836151
 20
72.5720565674
  0
LWPOLYLINE
  5
442
100
AcDbEntity
  8
RACCORDO
100
AcDbPolyline
 62
250
  6
CONTINUOUS
 90
4
 70
0
 10
-4.7601245426
 20
71.5297847328
 10
-4.7597656612
 20
71.5136502343
 10
-4.7593809581
 20
71.4999780031
 10
-4.7589704332
 20
71.4887680391
  0
LWPOLYLINE
  5
443
100
AcDbEntity
  8
0
100
AcDbPolyline
 62
7
  6
CONTINUOUS
 90
10
 70
0
 10
-3.5569839398
 20
61.6450733725
 10
-3.5578235228
 20
61.6833270085
 10
-3.5598365984
 20
61.719437613
 10
-3.5630231666
 20
61.753405186
 10
-3.5674604177
 20
61.7851087091
 10
-3.5730711615
 20
61.8146692007
 10
-3.5796238269
 20
61.8424497163
 10
-3.5870412237
 20
61.8685712744
 10
-3.5954005422
 20
61.8929128566
 10
-3.6047017825
 20
61.9154744629
  0
LWPOLYLINE
  5
444
100
AcDbEntity
  8
RACCORDO
100
AcDbPolyline
 62
250
  6
CONTINUOUS
 90
3
 70
0
 10
-5.1242546248
 20
72.7392056056
 10
-5.1246117489
 20
72.7561263566
 10
-5.1249912305
 20
72.769018118
  0
LWPOLYLINE
  5
445
100
AcDbEntity
  8
RACCORDO
100
AcDbPolyline
 62
250
  6
CONTINUOUS
 90
3
 70
0
 10
-4.9597581285
 20
71.3248455307
 10
-4.9593733958
 20
71.3059689025
 10
-4.9589628179
 20
71.2918064885
  0
LINE
  5
446
100
AcDbEntity
  8
RACCORDO
100
AcDbLine
 62
250
  6
CONTINUOUS
 10
-5.3233172429
 20
72.500195322
 11
-5.3239123131
 21
72.5352490565
  0
LINE
  5
447
100
AcDbEntity
  8
RACCORDO
100
AcDbLine
 62
250
  6
CONTINUOUS
 10
-4.7607573509
 20
71.5693125352
 11
-4.7601245426
 21
71.5297847328
  0
LINE
  5
448
100
AcDbEntity
  8
RACCORDO
100
AcDbLine
 62
250
  6
CONTINUOUS
 10
-5.1236111781
 20
72.6959409451
 11
-5.1242546248
 21
72.7392056056
  0
LINE
  5
449
100
AcDbEntity
  8
RACCORDO
100
AcDbLine
 62
250
  6
CONTINUOUS
 10
-4.9604463002
 20
71.3735282703
 11
-4.9597581285
 21
71.3248455307
  0
LINE
  5
44A
100
AcDbEntity
  8
RACCORDO
100
AcDbLine
 62
250
  6
CONTINUOUS
 10
-5.3225186212
 20
72.4303925419
 11
-5.3233172429
 21
72.500195322
  0
LINE
  5
44B
100
AcDbEntity
  8
RACCORDO
100
AcDbLine
 62
250
  6
CONTINUOUS
 10
-4.7615887225
 20
71.6479012341
 11
-4.7607573509
 21
71.5693125352
  0
LWPOLYLINE
  5
44C
100
AcDbEntity
  8
RACCORDO
100
AcDbPolyline
 62
250
  6
CONTINUOUS
 90
16
 70
0
 10
-4.7477171491
 20
36.0106726627
 10
-4.7475981987
 20
35.9948703559
 10
-4.7457808589
 20
35.9793226507
 10
-4.7423076156
 20
35.964191926
 10
-4.7372447243
 20
35.9496457021
 10
-4.7306597979
 20
35.9358181743
 10
-4.7226082964
 20
35.922815151
 10
-4.7132062158
 20
35.9108027727
 10
-4.7025348943
 20
35.8998673341
 10
-4.6905698322
 20
35.8900213823
 10
-4.6773144201
 20
35.8813570448
 10
-4.6629632667
 20
35.8740788536
 10
-4.6477891185
 20
35.868354257
 10
-4.6320014143
 20
35.8642645928
 10
-4.6157228122
 20
35.8618465931
 10
-4.5991260391
 20
35.8611367976
  0
LINE
  5
44D
100
AcDbEntity
  8
RACCORDO
100
AcDbLine
 62
250
  6
CONTINUOUS
 10
-5.1225262499
 20
72.5756546935
 11
-5.1236111781
 21
72.6959409451
  0
LINE
  5
44E
100
AcDbEntity
  8
RACCORDO
100
AcDbLine
 62
250
  6
CONTINUOUS
 10
-4.9615810913
 20
71.5088968741
 11
-4.9604463002
 21
71.3735282703
  0
LINE
  5
44F
100
AcDbEntity
  8
RACCORDO
100
AcDbLine
 62
250
  6
CONTINUOUS
 10
-5.3214126963
 20
72.2481654301
 11
-5.3225186212
 21
72.4303925419
  0
LINE
  5
450
100
AcDbEntity
  8
RACCORDO
100
AcDbLine
 62
250
  6
CONTINUOUS
 10
-4.762641262
 20
71.8409048168
 11
-4.7615887225
 21
71.6479012341
  0
LINE
  5
451
100
AcDbEntity
  8
RACCORDO
100
AcDbLine
 62
250
  6
CONTINUOUS
 10
-5.1212656877
 20
72.2643921705
 11
-5.1225262499
 21
72.5756546935
  0
LINE
  5
452
100
AcDbEntity
  8
RACCORDO
100
AcDbLine
 62
250
  6
CONTINUOUS
 10
-4.9628543458
 20
71.8985403268
 11
-4.9615810913
 21
71.5088968741
  0
LINE
  5
453
100
AcDbEntity
  8
0
100
AcDbLine
 62
7
  6
CONTINUOUS
 10
-5.3479936541
 20
61.1074523296
 11
-5.3479936541
 21
61.3619474907
  0
LINE
  5
454
100
AcDbEntity
  8
RACCORDO
100
AcDbLine
 62
7
  6
CONTINUOUS
 10
-5.3419770242
 20
71.1454150077
 11
-5.3419770242
 21
72.9154095989
  0
LINE
  5
455
100
AcDbEntity
  8
RACCORDO
100
AcDbLine
 62
7
  6
CONTINUOUS
 10
-4.7578236779
 20
72.1157921994
 11
-4.7578236779
 21
71.9450324072
  0
LINE
  5
456
100
AcDbEntity
  8
RACCORDO
100
AcDbLine
 62
7
  6
CONTINUOUS
 10
-4.7419770242
 20
71.1454150077
 11
-4.7419770242
 21
71.7304123033
  0
LINE
  5
457
100
AcDbEntity
  8
RACCORDO
100
AcDbLine
 62
7
  6
CONTINUOUS
 10
-4.7419770242
 20
72.3304123033
 11
-4.7419770242
 21
72.9154095989
  0
LINE
  5
458
100
AcDbEntity
  8
RACCORDO
100
AcDbLine
 62
250
  6
CONTINUOUS
 10
-4.5991269548
 20
35.7270213647
 11
-4.5991269544
 21
35.8611365254
  0
LINE
  5
459
100
AcDbEntity
  8
RACCORDO
100
AcDbLine
 62
250
  6
CONTINUOUS
 10
-4.5781496744
 20
36.8589269286
 11
-4.5781496744
 21
36.6934532289
  0
LINE
  5
45A
100
AcDbEntity
  8
RACCORDO
100
AcDbLine
 62
7
  6
CONTINUOUS
 10
-4.5419770242
 20
42.0304884557
 11
-4.5419770242
 21
40.0303361509
  0
LINE
  5
45B
100
AcDbEntity
  8
RACCORDO
100
AcDbLine
 62
250
  6
CONTINUOUS
 10
-4.3958714063
 20
36.4455766034
 11
-4.3958714063
 21
36.1152480031
  0
LINE
  5
45C
100
AcDbEntity
  8
0
100
AcDbLine
 62
7
  6
CONTINUOUS
 10
-4.1614099429
 20
61.3364979763
 11
-4.1614099429
 21
61.0756404281
  0
LINE
  5
45D
100
AcDbEntity
  8
RACCORDO
100
AcDbLine
 62
250
  6
CONTINUOUS
 10
-3.9034675298
 20
35.9806111153
 11
-3.9034675298
 21
36.5802134913
  0
LINE
  5
45E
100
AcDbEntity
  8
RACCORDO
100
AcDbLine
 62
7
  6
CONTINUOUS
 10
-3.7419770242
 20
72.1251685669
 11
-3.7419770242
 21
71.9356560396
  0
LINE
  5
45F
100
AcDbEntity
  8
DRAFT
100
AcDbLine
 62
7
  6
CONTINUOUS
 10
-3.6419770242
 20
39.2804123033
 11
-3.6419770242
 21
36.6304123033
  0
LINE
  5
460
100
AcDbEntity
  8
DRAFT
100
AcDbLine
 62
7
  6
CONTINUOUS
 10
-3.6419770242
 20
35.9304123033
 11
-3.6419770242
 21
33.2804123033
  0
LINE
  5
461
100
AcDbEntity
  8
0
100
AcDbLine
 62
7
  6
CONTINUOUS
 10
-3.5919770242
 20
63.0861521933
 11
-3.5919770242
 21
63.3501909051
  0
LINE
  5
462
100
AcDbEntity
  8
RACCORDO
100
AcDbLine
 62
7
  6
CONTINUOUS
 10
-3.5146840121
 20
36.1304055455
 11
-3.5146840121
 21
36.4304190611
  0
LINE
  5
463
100
AcDbEntity
  8
RACCORDO
100
AcDbLine
 62
7
  6
CONTINUOUS
 10
-3.2600979878
 20
37.1335341266
 11
-3.2600979878
 21
35.4272904799
  0
LINE
  5
464
100
AcDbEntity
  8
DRAFT
100
AcDbLine
 62
7
  6
CONTINUOUS
 10
-2.7559410761
 20
74.6619175562
 11
-2.7559410761
 21
72.3304123033
  0
LINE
  5
465
100
AcDbEntity
  8
DRAFT
100
AcDbLine
 62
7
  6
CONTINUOUS
 10
-2.7559410761
 20
71.7304123033
 11
-2.7559410761
 21
60.2675549982
  0
LINE
  5
466
100
AcDbEntity
  8
RACCORDO
100
AcDbLine
 62
7
  6
CONTINUOUS
 10
-2.7533018896
 20
37.1335341266
 11
-2.7533018896
 21
35.4272904799
  0
LINE
  5
467
100
AcDbEntity
  8
RACCORDO
100
AcDbLine
 62
7
  6
CONTINUOUS
 10
-2.7419770242
 20
74.6828662935
 11
-2.7419770242
 21
72.1251685669
  0
LINE
  5
468
100
AcDbEntity
  8
RACCORDO
100
AcDbLine
 62
7
  6
CONTINUOUS
 10
-2.7419770242
 20
71.9356560396
 11
-2.7419770242
 21
39.2804123033
  0
LINE
  5
469
100
AcDbEntity
  8
0
100
AcDbLine
 62
7
  6
CONTINUOUS
 10
-2.7419770242
 20
24.3779583131
 11
-2.7419770242
 21
33.2804123033
  0
LINE
  5
46A
100
AcDbEntity
  8
RACCORDO
100
AcDbLine
 62
7
  6
CONTINUOUS
 10
-2.699111683
 20
47.5304123033
 11
-2.699111683
 21
51.5304123033
  0
LINE
  5
46B
100
AcDbEntity
  8
DRAFT
100
AcDbLine
 62
7
  6
CONTINUOUS
 10
-2.6419770242
 20
33.2804123033
 11
-2.6419770242
 21
34.8685129299
  0
LINE
  5
46C
100
AcDbEntity
  8
0
100
AcDbLine
 62
7
  6
CONTINUOUS
 10
-2.6419770242
 20
33.2804123033
 11
-2.6419770242
 21
34.6804123033
  0
LINE
  5
46D
100
AcDbEntity
  8
DRAFT
100
AcDbLine
 62
7
  6
CONTINUOUS
 10
-2.6419770242
 20
37.6923116767
 11
-2.6419770242
 21
39.2804123033
  0
LINE
  5
46E
100
AcDbEntity
  8
0
100
AcDbLine
 62
7
  6
CONTINUOUS
 10
-2.6419770242
 20
37.8804123033
 11
-2.6419770242
 21
39.2804123033
  0
LINE
  5
46F
100
AcDbEntity
  8
DRAFT
100
AcDbLine
 62
7
  6
CONTINUOUS
 10
-2.1419770242
 20
34.8937687316
 11
-2.1419770242
 21
37.667055875
  0
LINE
  5
470
100
AcDbEntity
  8
RACCORDO
100
AcDbLine
 62
7
  6
CONTINUOUS
 10
-1.699111683
 20
47.5304123033
 11
-1.699111683
 21
51.5304123033
  0
LINE
  5
471
100
AcDbEntity
  8
RACCORDO
100
AcDbLine
 62
7
  6
CONTINUOUS
 10
-1.689111683
 20
75.383448982
 11
-1.689111683
 21
23.6773756246
  0
LINE
  5
472
100
AcDbEntity
  8
0
100
AcDbLine
 62
7
  6
CONTINUOUS
 10
-2.7559410761
 20
60.2675549982
 11
-2.757773336
 21
52.4622075156
  0
LINE
  5
473
100
AcDbEntity
  8
RACCORDO
100
AcDbLine
 62
250
  6
CONTINUOUS
 10
-5.3210599918
 20
71.9575427153
 11
-5.3214126963
 21
72.2481654301
  0
LINE
  5
474
100
AcDbEntity
  8
RACCORDO
100
AcDbLine
 62
250
  6
CONTINUOUS
 10
-4.7628656179
 20
72.1244647459
 11
-4.762641262
 21
71.8409048168
  0
LINE
  5
475
100
AcDbEntity
  8
0
100
AcDbLine
 62
7
  6
CONTINUOUS
 10
-2.757773336
 20
52.4622075156
 11
-2.7630047906
 21
46.7997677695
  0
LINE
  5
476
100
AcDbEntity
  8
0
100
AcDbLine
 62
7
  6
CONTINUOUS
 10
-2.7630047906
 20
46.7997677695
 11
-2.7750392244
 21
39.2804123033
  0
LINE
  5
477
100
AcDbEntity
  8
0
100
AcDbLine
 62
7
  6
CONTINUOUS
 10
-2.7720056261
 20
33.2804123033
 11
-2.7877238794
 21
24.7127449316
  0
LINE
  5
478
100
AcDbEntity
  8
RACCORDO
100
AcDbLine
 62
250
  6
CONTINUOUS
 10
-5.1214088096
 20
71.7364998652
 11
-5.1212656877
 21
72.2643921705
  0
LINE
  5
479
100
AcDbEntity
  8
RACCORDO
100
AcDbLine
 62
250
  6
CONTINUOUS
 10
-4.9622919079
 20
72.4035984739
 11
-4.9628543458
 21
71.8985403268
  0
LINE
  5
47A
100
AcDbEntity
  8
RACCORDO
100
AcDbLine
 62
250
  6
CONTINUOUS
 10
-5.3215888757
 20
71.7702246419
 11
-5.3210599918
 21
71.9575427153
  0
LINE
  5
47B
100
AcDbEntity
  8
RACCORDO
100
AcDbLine
 62
250
  6
CONTINUOUS
 10
-4.7620765732
 20
72.3445882919
 11
-4.7628656179
 21
72.1244647459
  0
LINE
  5
47C
100
AcDbEntity
  8
RACCORDO
100
AcDbLine
 62
250
  6
CONTINUOUS
 10
-5.122665603
 20
71.4657694533
 11
-5.1214088096
 21
71.7364998652
  0
LINE
  5
47D
100
AcDbEntity
  8
RACCORDO
100
AcDbLine
 62
250
  6
CONTINUOUS
 10
-4.960896079
 20
72.643366839
 11
-4.9622919079
 21
72.4035984739
  0
LINE
  5
47E
100
AcDbEntity
  8
RACCORDO
100
AcDbLine
 62
250
  6
CONTINUOUS
 10
-4.7612326421
 20
72.4507296348
 11
-4.7620765732
 21
72.3445882919
  0
LWPOLYLINE
  5
47F
100
AcDbEntity
  8
0
100
AcDbPolyline
 62
7
  6
CONTINUOUS
 90
10
 70
0
 10
-3.7573988849
 20
61.6355298046
 10
-3.7578931222
 20
61.6143721405
 10
-3.7590921408
 20
61.5944996038
 10
-3.7609959409
 20
61.5759121943
 10
-3.7636485798
 20
61.5586906655
 10
-3.7670060001
 20
61.5427542641
 10
-3.7709360291
 20
61.5278607294
 10
-3.7753946092
 20
61.5139293082
 10
-3.780425798
 20
61.5010407537
 10
-3.7860295954
 20
61.489195066
  0
LWPOLYLINE
  5
480
100
AcDbEntity
  8
RACCORDO
100
AcDbPolyline
 62
7
  6
CONTINUOUS
 90
10
 70
0
 10
-18.7695165404
 20
32.9968658262
 10
-18.7845576627
 20
33.0365650486
 10
-18.7978737761
 20
33.0768655419
 10
-18.8094648804
 20
33.1177673059
 10
-18.8193640371
 20
33.1594373596
 10
-18.8275381847
 20
33.201708684
 10
-18.8338881396
 20
33.244080223
 10
-18.8383808404
 20
33.286384958
 10
-18.8410493485
 20
33.3287899076
 10
-18.8418936637
 20
33.3712950718
  0
LINE
  5
481
100
AcDbEntity
  8
RACCORDO
100
AcDbLine
 62
7
  6
CONTINUOUS
 10
-17.9192531504
 20
33.3829143093
 11
-17.910938937
 21
33.3603991489
  0
LWPOLYLINE
  5
482
100
AcDbEntity
  8
RACCORDO
100
AcDbPolyline
 62
250
  6
CONTINUOUS
 90
7
 70
0
 10
-17.8264323305
 20
33.466968215
 10
-17.8093859721
 20
33.4200468521
 10
-17.7921077689
 20
33.3737984271
 10
-17.7745977207
 20
33.3282229401
 10
-17.7568558275
 20
33.2833203911
 10
-17.7388820895
 20
33.2390907802
 10
-17.7206765065
 20
33.1955341072
  0
LWPOLYLINE
  5
483
100
AcDbEntity
  8
RACCORDO
100
AcDbPolyline
 62
250
  6
CONTINUOUS
 90
7
 70
0
 10
-17.9262989529
 20
33.4486087573
 10
-17.9099703357
 20
33.4034188519
 10
-17.8926620235
 20
33.3568143656
 10
-17.8743331674
 20
33.3088151402
 10
-17.8549417913
 20
33.2594423648
 10
-17.8344448156
 20
33.2087186432
 10
-17.8127980828
 20
33.1566680639
  0
LINE
  5
484
100
AcDbEntity
  8
RACCORDO
100
AcDbLine
 62
7
  6
CONTINUOUS
 10
-17.9265840667
 20
33.403133349
 11
-17.9192531504
 21
33.3829143093
  0
LINE
  5
485
100
AcDbEntity
  8
RACCORDO
100
AcDbLine
 62
7
  6
CONTINUOUS
 10
-17.9308578732
 20
33.415110086
 11
-17.9265840667
 21
33.403133349
  0
LINE
  5
486
100
AcDbEntity
  8
RACCORDO
100
AcDbLine
 62
7
  6
CONTINUOUS
 10
-17.9346466835
 20
33.4258803734
 11
-17.9308578732
 21
33.415110086
  0
LWPOLYLINE
  5
487
100
AcDbEntity
  8
RACCORDO
100
AcDbPolyline
 62
7
  6
CONTINUOUS
 90
5
 70
0
 10
-17.9414632092
 20
33.4459368545
 10
-17.9404459975
 20
33.4428387748
 10
-17.9392599661
 20
33.4392924976
 10
-17.9379042
 20
33.4352983502
 10
-17.9346466835
 20
33.4258803734
  0
LWPOLYLINE
  5
488
100
AcDbEntity
  8
RACCORDO
100
AcDbPolyline
 62
7
  6
CONTINUOUS
 90
16
 70
0
 10
-17.9418416807
 20
37.0304194565
 10
-17.9411778855
 20
37.0280852406
 10
-17.9395060133
 20
37.0267304029
 10
-17.936752808
 20
37.0263554233
 10
-17.9327859025
 20
37.0271014854
 10
-17.9275968189
 20
37.0288283285
 10
-17.9214750996
 20
37.0311131069
 10
-17.9147128795
 20
37.0339972227
 10
-17.9073174646
 20
37.0374373118
 10
-17.899268017
 20
37.0408826139
 10
-17.890615096
 20
37.0443565842
 10
-17.8814936339
 20
37.0478345522
 10
-17.8719745129
 20
37.0506937971
 10
-17.86214804
 20
37.0527263087
 10
-17.8521269618
 20
37.0541387667
 10
-17.8420153682
 20
37.0549304893
  0
LWPOLYLINE
  5
489
100
AcDbEntity
  8
RACCORDO
100
AcDbPolyline
 62
250
  6
CONTINUOUS
 90
6
 70
0
 10
-17.3763304471
 20
70.8147771493
 10
-17.3762061296
 20
70.8139884864
 10
-17.3760871076
 20
70.8124567359
 10
-17.3759733814
 20
70.810181898
 10
-17.37586581
 20
70.8071498184
 10
-17.3757635343
 20
70.8033746514
  0
LINE
  5
48A
100
AcDbEntity
  8
DRAFT
100
AcDbLine
 62
7
  6
CONTINUOUS
 10
-2.7877238794
 20
24.7127449316
 11
-2.7627629859
 21
24.4091412142
  0
LWPOLYLINE
  5
48B
100
AcDbEntity
  8
RACCORDO
100
AcDbPolyline
 62
250
  6
CONTINUOUS
 90
13
 70
0
 10
-5.3249836151
 20
71.4887680391
 10
-5.32323663
 20
71.4630855208
 10
-5.3181044566
 20
71.4378412405
 10
-5.3096746102
 20
71.4134662865
 10
-5.2980909144
 20
71.3903769117
 10
-5.2835510741
 20
71.3689674758
 10
-5.2663033252
 20
71.3496036952
 10
-5.2466421277
 20
71.3326163089
 10
-5.2249031915
 20
71.3182955065
 10
-5.2014578086
 20
71.3068859778
 10
-5.1767063884
 20
71.2985826405
 10
-5.1510715976
 20
71.2935273446
 10
-5.1249912306
 20
71.2918064877
  0
LWPOLYLINE
  5
48C
100
AcDbEntity
  8
RACCORDO
100
AcDbPolyline
 62
250
  6
CONTINUOUS
 90
13
 70
0
 10
-4.7589704332
 20
72.5720565674
 10
-4.7607173868
 20
72.5977388527
 10
-4.7658494798
 20
72.622982958
 10
-4.7742792183
 20
72.6473578008
 10
-4.7858628014
 20
72.6704471308
 10
-4.8004025438
 20
72.6918565811
 10
-4.8176502222
 20
72.7112204205
 10
-4.8373113915
 20
72.7282078998
 10
-4.8590503507
 20
72.7425288137
 10
-4.8824958007
 20
72.7539384506
 10
-4.9072473279
 20
72.7622418788
 10
-4.932882267
 20
72.7672972379
 10
-4.9589628179
 20
72.769018118
  0
LINE
  5
48D
100
AcDbEntity
  8
RACCORDO
100
AcDbLine
 62
250
  6
CONTINUOUS
 10
-17.5376514393
 20
32.5903275665
 11
-17.5149728212
 21
32.5491152914
  0
LINE
  5
48E
100
AcDbEntity
  8
RACCORDO
100
AcDbLine
 62
250
  6
CONTINUOUS
 10
-17.4355286132
 20
32.5413048476
 11
-17.447317411
 21
32.562780347
  0
LINE
  5
48F
100
AcDbEntity
  8
RACCORDO
100
AcDbLine
 62
250
  6
CONTINUOUS
 10
-17.447317411
 20
32.562780347
 11
-17.4590260111
 21
32.584342264
  0
LINE
  5
490
100
AcDbEntity
  8
RACCORDO
100
AcDbLine
 62
250
  6
CONTINUOUS
 10
-17.4590260111
 20
32.584342264
 11
-17.4706506127
 21
32.6059850812
  0
LWPOLYLINE
  5
491
100
AcDbEntity
  8
RACCORDO
100
AcDbPolyline
 62
250
  6
CONTINUOUS
 90
3
 70
0
 10
-17.5698649824
 20
32.6503546161
 10
-17.5593632217
 20
32.6305874513
 10
-17.5376514393
 20
32.5903275665
  0
LINE
  5
492
100
AcDbEntity
  8
RACCORDO
100
AcDbLine
 62
250
  6
CONTINUOUS
 10
-17.4706506127
 20
32.6059850812
 11
-17.4821902657
 21
32.6277074193
  0
LINE
  5
493
100
AcDbEntity
  8
RACCORDO
100
AcDbLine
 62
7
  6
CONTINUOUS
 10
-18.8321238349
 20
36.9107044239
 11
-18.8386352627
 21
36.9237282713
  0
LWPOLYLINE
  5
494
100
AcDbEntity
  8
RACCORDO
100
AcDbPolyline
 62
250
  6
CONTINUOUS
 90
7
 70
0
 10
-17.6617787709
 20
33.0569967412
 10
-17.6362983213
 20
33.0015046533
 10
-17.6090374845
 20
32.9443041576
 10
-17.5799962605
 20
32.8853952542
 10
-17.5491746494
 20
32.824777943
 10
-17.5165726511
 20
32.7624522241
 10
-17.4821902657
 20
32.6984180974
  0
LWPOLYLINE
  5
495
100
AcDbEntity
  8
RACCORDO
100
AcDbPolyline
 62
250
  6
CONTINUOUS
 90
10
 70
0
 10
-17.7717795618
 20
33.0577653509
 10
-17.7529033912
 20
33.0158241951
 10
-17.7332306989
 20
32.9730848162
 10
-17.7127380613
 20
32.9295620043
 10
-17.6914487487
 20
32.8853666578
 10
-17.6692944757
 20
32.8404181046
 10
-17.6461065909
 20
32.7944485465
 10
-17.6218038204
 20
32.7473851902
 10
-17.5964009864
 20
32.699345937
 10
-17.5698649824
 20
32.6503546161
  0
LINE
  5
496
100
AcDbEntity
  8
RACCORDO
100
AcDbLine
 62
250
  6
CONTINUOUS
 10
-17.785968465
 20
33.0913619
 11
-17.7717795618
 21
33.0577653509
  0
LINE
  5
497
100
AcDbEntity
  8
RACCORDO
100
AcDbLine
 62
250
  6
CONTINUOUS
 10
-17.6910817944
 20
33.0528881756
 11
-17.701047991
 21
33.076783529
  0
LINE
  5
498
100
AcDbEntity
  8
RACCORDO
100
AcDbLine
 62
250
  6
CONTINUOUS
 10
-17.799636777
 20
33.1243318564
 11
-17.785968465
 21
33.0913619
  0
LINE
  5
499
100
AcDbEntity
  8
RACCORDO
100
AcDbLine
 62
250
  6
CONTINUOUS
 10
-17.701047991
 20
33.076783529
 11
-17.7109132921
 21
33.1007624733
  0
LINE
  5
49A
100
AcDbEntity
  8
RACCORDO
100
AcDbLine
 62
250
  6
CONTINUOUS
 10
-17.8127980828
 20
33.1566680639
 11
-17.799636777
 21
33.1243318564
  0
LINE
  5
49B
100
AcDbEntity
  8
RACCORDO
100
AcDbLine
 62
250
  6
CONTINUOUS
 10
-17.7109132921
 20
33.1007624733
 11
-17.7206765065
 21
33.124823429
  0
LINE
  5
49C
100
AcDbEntity
  8
RACCORDO
100
AcDbLine
 62
250
  6
CONTINUOUS
 10
-17.1379911622
 20
31.9720526226
 11
-17.1149801469
 21
31.9409658082
  0
LINE
  5
49D
100
AcDbEntity
  8
RACCORDO
100
AcDbLine
 62
250
  6
CONTINUOUS
 10
-17.0502677513
 20
31.9508191322
 11
-17.067359569
 21
31.9741034671
  0
LINE
  5
49E
100
AcDbEntity
  8
RACCORDO
100
AcDbLine
 62
250
  6
CONTINUOUS
 10
-17.1602770789
 20
32.0026068302
 11
-17.1379911622
 21
31.9720526226
  0
LINE
  5
49F
100
AcDbEntity
  8
RACCORDO
100
AcDbLine
 62
250
  6
CONTINUOUS
 10
-17.067359569
 20
31.9741034671
 11
-17.0843653363
 21
31.9975356246
  0
LINE
  5
4A0
100
AcDbEntity
  8
RACCORDO
100
AcDbLine
 62
250
  6
CONTINUOUS
 10
-17.1818513366
 20
32.03261647
 11
-17.1602770789
 21
32.0026068302
  0
LINE
  5
4A1
100
AcDbEntity
  8
RACCORDO
100
AcDbLine
 62
250
  6
CONTINUOUS
 10
-17.0843653363
 20
31.9975356246
 11
-17.1012890712
 21
32.0211229814
  0
LWPOLYLINE
  5
4A2
100
AcDbEntity
  8
RACCORDO
100
AcDbPolyline
 62
250
  6
CONTINUOUS
 90
6
 70
0
 10
-17.1899599406
 20
32.2160772631
 10
-17.1760811316
 20
32.1961241824
 10
-17.1618424549
 20
32.1758694271
 10
-17.1472439105
 20
32.1553129971
 10
-17.1322854984
 20
32.1344548926
 10
-17.1012890712
 20
32.0918336595
  0
LWPOLYLINE
  5
4A3
100
AcDbEntity
  8
RACCORDO
100
AcDbPolyline
 62
7
  6
CONTINUOUS
 90
13
 70
0
 10
-17.7717795619
 20
33.0577653508
 10
-17.769355546
 20
33.0542493896
 10
-17.7658668302
 20
33.0512107947
 10
-17.7613821333
 20
33.048709571
 10
-17.7559854962
 20
33.0468207504
 10
-17.7497568512
 20
33.0455637216
 10
-17.7427777325
 20
33.0448957431
 10
-17.7351520948
 20
33.0448244963
 10
-17.7269893072
 20
33.045366257
 10
-17.7183920687
 20
33.0464674754
 10
-17.7094689996
 20
33.0480961054
 10
-17.7003306765
 20
33.0502463463
 10
-17.6910817944
 20
33.0528881756
  0
LWPOLYLINE
  5
4A4
100
AcDbEntity
  8
RACCORDO
100
AcDbPolyline
 62
250
  6
CONTINUOUS
 90
7
 70
0
 10
-17.3010634633
 20
32.2013446717
 10
-17.282896902
 20
32.1747490599
 10
-17.2640664243
 20
32.1475290232
 10
-17.2445595126
 20
32.1196948355
 10
-17.2243634024
 20
32.0912571902
 10
-17.2034650893
 20
32.0622272124
 10
-17.1818513366
 20
32.03261647
  0
LWPOLYLINE
  5
4A5
100
AcDbEntity
  8
RACCORDO
100
AcDbPolyline
 62
7
  6
CONTINUOUS
 90
7
 70
0
 10
-17.2996424739
 20
32.1791546059
 10
-17.4210398803
 20
32.3651703472
 10
-17.5350268477
 20
32.5562007715
 10
-17.6411956417
 20
32.7515963592
 10
-17.7393091111
 20
32.9509196401
 10
-17.8292641025
 20
33.1539681224
 10
-17.910938937
 20
33.3603991489
  0
LINE
  5
4A6
100
AcDbEntity
  8
RACCORDO
100
AcDbLine
 62
7
  6
CONTINUOUS
 10
-17.3258400951
 20
32.2393375685
 11
-17.3010634633
 21
32.2013446717
  0
LINE
  5
4A7
100
AcDbEntity
  8
RACCORDO
100
AcDbLine
 62
250
  6
CONTINUOUS
 10
-17.2322129793
 20
32.2079950451
 11
-17.2525005935
 21
32.2393995761
  0
LINE
  5
4A8
100
AcDbEntity
  8
RACCORDO
100
AcDbLine
 62
7
  6
CONTINUOUS
 10
-17.344926799
 20
32.2690830232
 11
-17.3258400951
 21
32.2393375685
  0
LINE
  5
4A9
100
AcDbEntity
  8
RACCORDO
100
AcDbLine
 62
250
  6
CONTINUOUS
 10
-17.2525005935
 20
32.2393995761
 11
-17.272626703
 21
32.27103786
  0
LINE
  5
4AA
100
AcDbEntity
  8
RACCORDO
100
AcDbLine
 62
250
  6
CONTINUOUS
 10
-17.3615536953
 20
32.2953448184
 11
-17.344926799
 21
32.2690830232
  0
LINE
  5
4AB
100
AcDbEntity
  8
RACCORDO
100
AcDbLine
 62
250
  6
CONTINUOUS
 10
-17.272626703
 20
32.27103786
 11
-17.2925885788
 21
32.3029070359
  0
LINE
  5
4AC
100
AcDbEntity
  8
RACCORDO
100
AcDbLine
 62
250
  6
CONTINUOUS
 10
-17.3845239173
 20
32.3321784453
 11
-17.3615536953
 21
32.2953448184
  0
LINE
  5
4AD
100
AcDbEntity
  8
RACCORDO
100
AcDbLine
 62
250
  6
CONTINUOUS
 10
-17.3467339951
 20
32.461309243
 11
-17.3222036689
 21
32.4218336595
  0
LWPOLYLINE
  5
4AE
100
AcDbEntity
  8
RACCORDO
100
AcDbPolyline
 62
250
  6
CONTINUOUS
 90
3
 70
0
 10
-17.2925885788
 20
32.3029070359
 10
-17.3123753048
 20
32.3349956606
 10
-17.3222036689
 20
32.3511229814
  0
LINE
  5
4AF
100
AcDbEntity
  8
RACCORDO
100
AcDbLine
 62
250
  6
CONTINUOUS
 10
-17.406891792
 20
32.368684097
 11
-17.3845239173
 21
32.3321784453
  0
LWPOLYLINE
  5
4B0
100
AcDbEntity
  8
RACCORDO
100
AcDbPolyline
 62
250
  6
CONTINUOUS
 90
4
 70
0
 10
-17.3925093246
 20
32.5369967412
 10
-17.3814761575
 20
32.5184828252
 10
-17.3701692136
 20
32.4996969369
 10
-17.3467339951
 20
32.461309243
  0
LWPOLYLINE
  5
4B1
100
AcDbEntity
  8
RACCORDO
100
AcDbPolyline
 62
250
  6
CONTINUOUS
 90
7
 70
0
 10
-17.5032623928
 20
32.5281578539
 10
-17.4885649562
 20
32.5030349568
 10
-17.473335877
 20
32.4773196051
 10
-17.4575647425
 20
32.4510190992
 10
-17.4412409319
 20
32.4241410319
 10
-17.424353622
 20
32.3966932971
 10
-17.406891792
 20
32.368684097
  0
LINE
  5
4B2
100
AcDbEntity
  8
RACCORDO
100
AcDbLine
 62
250
  6
CONTINUOUS
 10
-17.5149728212
 20
32.5491152914
 11
-17.5032623928
 21
32.5281578539
  0
LINE
  5
4B3
100
AcDbEntity
  8
RACCORDO
100
AcDbLine
 62
250
  6
CONTINUOUS
 10
-17.4296039026
 20
32.5305991597
 11
-17.4355286132
 21
32.5413048476
  0
LWPOLYLINE
  5
4B4
100
AcDbEntity
  8
RACCORDO
100
AcDbPolyline
 62
7
  6
CONTINUOUS
 90
8
 70
0
 10
-17.8263163262
 20
33.4492638792
 10
-17.8334698404
 20
33.4622334335
 10
-17.8403720388
 20
33.4714162436
 10
-17.8469946743
 20
33.4768124946
 10
-17.8530981818
 20
33.4771863731
 10
-17.8588894924
 20
33.4737739063
 10
-17.8649818864
 20
33.4702832251
 10
-17.8782080666
 20
33.4654700028
  0
LINE
  5
4B5
100
AcDbEntity
  8
RACCORDO
100
AcDbLine
 62
7
  6
CONTINUOUS
 10
-18.0507167666
 20
43.3478931194
 11
-18.0419770242
 21
43.3304123033
  0
LINE
  5
4B6
100
AcDbEntity
  8
0
100
AcDbLine
 62
7
  6
CONTINUOUS
 10
-17.1835110242
 20
74.1922093033
 11
-16.4544330242
 21
71.8924193033
  0
LINE
  5
4B7
100
AcDbEntity
  8
0
100
AcDbLine
 62
7
  6
CONTINUOUS
 10
-16.2236400242
 20
72.6091923033
 11
-16.6620220242
 21
74.1922093033
  0
LINE
  5
4B8
100
AcDbEntity
  8
0
100
AcDbLine
 62
7
  6
CONTINUOUS
 10
-10.7066670242
 20
72.3515393033
 11
-10.5823070242
 21
71.8924193033
  0
LINE
  5
4B9
100
AcDbEntity
  8
0
100
AcDbLine
 62
7
  6
CONTINUOUS
 10
-11.0231980242
 20
73.5602853033
 11
-10.8026060242
 21
72.7068043033
  0
LWPOLYLINE
  5
4BA
100
AcDbEntity
  8
0
100
AcDbPolyline
 62
7
  6
CONTINUOUS
 90
10
 70
0
 10
-4.7881043376
 20
61.8645754341
 10
-4.7927150002
 20
61.8847437146
 10
-4.7981761716
 20
61.9041989056
 10
-4.8044878519
 20
61.922941007
 10
-4.8116110383
 20
61.9408509017
 10
-4.8195847336
 20
61.9580477068
 10
-4.8285259457
 20
61.974888774
 10
-4.8384736774
 20
61.9914932203
 10
-4.849388926
 20
62.0077419287
 10
-4.8612716914
 20
62.023634899
  0
LWPOLYLINE
  5
4BB
100
AcDbEntity
  8
0
100
AcDbPolyline
 62
7
  6
CONTINUOUS
 90
10
 70
0
 10
-4.9026271523
 20
61.6991535906
 10
-4.8987917629
 20
61.6808090344
 10
-4.8953709749
 20
61.6615053885
 10
-4.8923647883
 20
61.6412426528
 10
-4.8897544728
 20
61.6200499654
 10
-4.8875587588
 20
61.5978981883
 10
-4.8858338371
 20
61.5746999076
 10
-4.884598438
 20
61.5504259854
 10
-4.8838338311
 20
61.5251055597
 10
-4.8835400165
 20
61.4987386305
  0
LWPOLYLINE
  5
4BC
100
AcDbEntity
  8
RACCORDO
100
AcDbPolyline
 62
250
  6
CONTINUOUS
 90
7
 70
0
 10
-16.522646312
 20
31.3478672426
 10
-16.4883913123
 20
31.3139309383
 10
-16.4543396795
 20
31.2807690547
 10
-16.4206027891
 20
31.2485014433
 10
-16.3870692657
 20
31.2170082526
 10
-16.3534049828
 20
31.1859299279
 10
-16.3196567245
 20
31.1552823358
  0
LWPOLYLINE
  5
4BD
100
AcDbEntity
  8
RACCORDO
100
AcDbPolyline
 62
7
  6
CONTINUOUS
 90
10
 70
0
 10
-16.6057464162
 20
31.3602790854
 10
-16.5896138169
 20
31.3441197929
 10
-16.5518758244
 20
31.3068410801
 10
-16.5143538728
 20
31.2704843571
 10
-16.4772377682
 20
31.2351976338
 10
-16.4403786021
 20
31.2008042552
 10
-16.4032740308
 20
31.1668185731
 10
-16.3657539413
 20
31.1330857891
 10
-16.3279951842
 20
31.0997662948
 10
-16.2900025538
 20
31.0668612644
  0
LINE
  5
4BE
100
AcDbEntity
  8
RACCORDO
100
AcDbLine
 62
250
  6
CONTINUOUS
 10
-16.5571046786
 20
31.3825779677
 11
-16.522646312
 21
31.3478672426
  0
LWPOLYLINE
  5
4BF
100
AcDbEntity
  8
RACCORDO
100
AcDbPolyline
 62
7
  6
CONTINUOUS
 90
13
 70
0
 10
-17.3010634631
 20
32.2013446719
 10
-17.2985393584
 20
32.1987930209
 10
-17.2952290888
 20
32.1967767439
 10
-17.291187612
 20
32.1953283614
 10
-17.2864852223
 20
32.1944907435
 10
-17.2811769101
 20
32.1942661054
 10
-17.2753034038
 20
32.1946141558
 10
-17.2689349725
 20
32.1955340874
 10
-17.2621506998
 20
32.1970276598
 10
-17.255010426
 20
32.1990448251
 10
-17.2475866225
 20
32.2015544632
 10
-17.2399622644
 20
32.2045471664
 10
-17.2322129793
 20
32.2079950451
  0
LINE
  5
4C0
100
AcDbEntity
  8
RACCORDO
100
AcDbLine
 62
250
  6
CONTINUOUS
 10
-16.6706083488
 20
31.4255571715
 11
-16.6057464162
 21
31.3602790854
  0
LINE
  5
4C1
100
AcDbEntity
  8
RACCORDO
100
AcDbLine
 62
7
  6
CONTINUOUS
 10
-16.5881707849
 20
31.3324556957
 11
-16.7441324486
 21
31.4904005047
  0
LWPOLYLINE
  5
4C2
100
AcDbEntity
  8
RACCORDO
100
AcDbPolyline
 62
250
  6
CONTINUOUS
 90
7
 70
0
 10
-16.748818349
 20
31.6535582366
 10
-16.7196976715
 20
31.6217297266
 10
-16.6894443537
 20
31.5892813146
 10
-16.6580583955
 20
31.5562130005
 10
-16.6255397969
 20
31.5225247843
 10
-16.5918885579
 20
31.4882166661
 10
-16.5571046786
 20
31.4532886458
  0
LINE
  5
4C3
100
AcDbEntity
  8
RACCORDO
100
AcDbLine
 62
7
  6
CONTINUOUS
 10
-16.7441324486
 20
31.4904005047
 11
-16.8935026982
 21
31.654340174
  0
LWPOLYLINE
  5
4C4
100
AcDbEntity
  8
RACCORDO
100
AcDbPolyline
 62
250
  6
CONTINUOUS
 90
6
 70
0
 10
-16.8607183343
 20
31.6284781823
 10
-16.8259360892
 20
31.5897958326
 10
-16.7895692185
 20
31.5501219862
 10
-16.7515827319
 20
31.5094962232
 10
-16.7119411063
 20
31.4679600917
 10
-16.6706083488
 20
31.4255571715
  0
LWPOLYLINE
  5
4C5
100
AcDbEntity
  8
RACCORDO
100
AcDbPolyline
 62
7
  6
CONTINUOUS
 90
13
 70
0
 10
-17.5032623934
 20
32.5281578535
 10
-17.500748721
 20
32.5252331484
 10
-17.497345471
 20
32.5228276517
 10
-17.4931127904
 20
32.5209835815
 10
-17.4881266363
 20
32.5197555063
 10
-17.4824506263
 20
32.5191512156
 10
-17.4761382383
 20
32.5191285454
 10
-17.4692705509
 20
32.5196900827
 10
-17.4619381576
 20
32.520843027
 10
-17.4542171581
 20
32.5225348697
 10
-17.4461935654
 20
32.5247335094
 10
-17.437960315
 20
32.5274311857
 10
-17.4296039026
 20
32.5305991597
  0
LWPOLYLINE
  5
4C6
100
AcDbEntity
  8
RACCORDO
100
AcDbPolyline
 62
250
  6
CONTINUOUS
 90
3
 70
0
 10
-16.8013294787
 20
31.6419570987
 10
-16.8170729046
 20
31.6603521182
 10
-16.8327567345
 20
31.6788478178
  0
LWPOLYLINE
  5
4C7
100
AcDbEntity
  8
RACCORDO
100
AcDbPolyline
 62
7
  6
CONTINUOUS
 90
3
 70
0
 10
-16.8982595693
 20
31.6722058489
 10
-16.8796875175
 20
31.6504566961
 10
-16.8607183343
 20
31.6284781823
  0
LWPOLYLINE
  5
4C8
100
AcDbEntity
  8
RACCORDO
100
AcDbPolyline
 62
7
  6
CONTINUOUS
 90
4
 70
0
 10
-16.8935026982
 20
31.654340174
 10
-17.0358889169
 20
31.8237991008
 10
-17.1712392971
 20
31.9986902716
 10
-17.2996424739
 20
32.1791546059
  0
LWPOLYLINE
  5
4C9
100
AcDbEntity
  8
RACCORDO
100
AcDbPolyline
 62
250
  6
CONTINUOUS
 90
3
 70
0
 10
-16.8327567345
 20
31.6788478178
 10
-16.8483809685
 20
31.6974441975
 10
-16.8639467397
 20
31.7161417675
  0
LINE
  5
4CA
100
AcDbEntity
  8
RACCORDO
100
AcDbLine
 62
7
  6
CONTINUOUS
 10
-16.9192343278
 20
31.6970488556
 11
-16.8982595693
 21
31.6722058489
  0
LWPOLYLINE
  5
4CB
100
AcDbEntity
  8
RACCORDO
100
AcDbPolyline
 62
250
  6
CONTINUOUS
 90
6
 70
0
 10
-16.8639467397
 20
31.7161417675
 10
-16.879452915
 20
31.7349400175
 10
-16.8948960944
 20
31.753837417
 10
-16.9102751444
 20
31.7728334557
 10
-16.9255911984
 20
31.7919286439
 10
-16.9408442565
 20
31.8111229814
  0
LINE
  5
4CC
100
AcDbEntity
  8
RACCORDO
100
AcDbLine
 62
250
  6
CONTINUOUS
 10
-16.9624157056
 20
31.9085301296
 11
-16.9408442565
 21
31.8818336595
  0
LWPOLYLINE
  5
4CD
100
AcDbEntity
  8
RACCORDO
100
AcDbPolyline
 62
250
  6
CONTINUOUS
 90
7
 70
0
 10
-17.0184107585
 20
31.8187433122
 10
-17.0021015905
 20
31.7982335004
 10
-16.9855215424
 20
31.7775888249
 10
-16.9686679452
 20
31.7568122068
 10
-16.9515716686
 20
31.735947258
 10
-16.934196892
 20
31.7149560406
 10
-16.9192343278
 20
31.6970488556
  0
LINE
  5
4CE
100
AcDbEntity
  8
RACCORDO
100
AcDbLine
 62
250
  6
CONTINUOUS
 10
-16.9833153102
 20
31.9347230108
 11
-16.9624157056
 21
31.9085301296
  0
LINE
  5
4CF
100
AcDbEntity
  8
RACCORDO
100
AcDbLine
 62
250
  6
CONTINUOUS
 10
-17.0035430703
 20
31.9604123033
 11
-16.9833153102
 21
31.9347230108
  0
LWPOLYLINE
  5
4D0
100
AcDbEntity
  8
RACCORDO
100
AcDbPolyline
 62
250
  6
CONTINUOUS
 90
7
 70
0
 10
-17.1149801469
 20
31.9409658082
 10
-17.0999559745
 20
31.9214770136
 10
-17.0845108985
 20
31.9016287552
 10
-17.0686394358
 20
31.8814260316
 10
-17.0523360265
 20
31.8608739909
 10
-17.0355950361
 20
31.8399779328
 10
-17.0184107585
 20
31.8187433122
  0
LINE
  5
4D1
100
AcDbEntity
  8
DRAFT
100
AcDbLine
 62
7
  6
CONTINUOUS
 10
-2.7627629859
 20
24.4091412142
 11
-2.7419770242
 21
24.3779583131
  0
LINE
  5
4D2
100
AcDbEntity
  8
RACCORDO
100
AcDbLine
 62
250
  6
CONTINUOUS
 10
-18.3000124385
 20
55.1394584812
 11
-18.3073682731
 21
55.1521207933
  0
LINE
  5
4D3
100
AcDbEntity
  8
RACCORDO
100
AcDbLine
 62
250
  6
CONTINUOUS
 10
-18.8289500003
 20
54.2573382724
 11
-18.8364182072
 21
54.2702841674
  0
LINE
  5
4D4
100
AcDbEntity
  8
RACCORDO
100
AcDbLine
 62
7
  6
CONTINUOUS
 10
-7.4321238349
 20
36.9107044239
 11
-7.4386352627
 21
36.9237282713
  0
LINE
  5
4D5
100
AcDbEntity
  8
0
100
AcDbLine
 62
7
  6
CONTINUOUS
 10
-13.8126490242
 20
73.3941383033
 11
-13.2494850242
 21
71.8924193033
  0
LINE
  5
4D6
100
AcDbEntity
  8
0
100
AcDbLine
 62
7
  6
CONTINUOUS
 10
-13.2132000242
 20
72.9153583033
 11
-13.6881860242
 21
74.1922093033
  0
LINE
  5
4D7
100
AcDbEntity
  8
0
100
AcDbLine
 62
7
  6
CONTINUOUS
 10
-10.0763470242
 20
71.8924193033
 11
-10.7819800242
 21
74.1922093033
  0
LINE
  5
4D8
100
AcDbEntity
  8
0
100
AcDbLine
 62
7
  6
CONTINUOUS
 10
-8.7932849022
 20
72.1360816883
 11
-8.7221146848
 21
71.8924194697
  0
LINE
  5
4D9
100
AcDbEntity
  8
0
100
AcDbLine
 62
7
  6
CONTINUOUS
 10
-8.3681939197
 20
72.3039502577
 11
-8.4244680778
 21
72.5148749414
  0
LINE
  5
4DA
100
AcDbEntity
  8
0
100
AcDbLine
 62
7
  6
CONTINUOUS
 10
-8.2603563035
 20
71.8924194697
 11
-8.3681939197
 21
72.3039502577
  0
LWPOLYLINE
  5
4DB
100
AcDbEntity
  8
0
100
AcDbPolyline
 62
7
  6
CONTINUOUS
 90
16
 70
0
 10
-8.4244680778
 20
72.5148749414
 10
-8.4350294235
 20
72.5568277728
 10
-8.4467111406
 20
72.5979125381
 10
-8.4595132293
 20
72.6381292374
 10
-8.4733696089
 20
72.6778596257
 10
-8.4883463601
 20
72.716721948
 10
-8.504641724
 20
72.7535709389
 10
-8.5224106204
 20
72.7883122844
 10
-8.5414981295
 20
72.8210402986
 10
-8.5616377339
 20
72.850892658
 10
-8.5828464512
 20
72.8776542378
 10
-8.6051072638
 20
72.9015401628
 10
-8.6281026009
 20
72.9223334843
 10
-8.6517266057
 20
72.9399618859
 10
-8.6760851351
 20
72.9544976839
 10
-8.701178189
 20
72.9659408783
  0
LWPOLYLINE
  5
4DC
100
AcDbEntity
  8
DRAFT
100
AcDbPolyline
 62
7
  6
CONTINUOUS
 90
7
 70
0
 10
-15.7330386087
 20
30.6669464566
 10
-15.7485186306
 20
30.6767901659
 10
-15.7637247182
 20
30.686931593
 10
-15.7786568717
 20
30.6971182502
 10
-15.7933729197
 20
30.7070438048
 10
-15.8078150334
 20
30.7166279045
 10
-15.8218097266
 20
30.7260337342
  0
LINE
  5
4DD
100
AcDbEntity
  8
DRAFT
100
AcDbLine
 62
7
  6
CONTINUOUS
 10
-16.0637033843
 20
30.8869365779
 11
-16.0443267446
 21
30.8745978881
  0
LINE
  5
4DE
100
AcDbEntity
  8
DRAFT
100
AcDbLine
 62
7
  6
CONTINUOUS
 10
-15.6576858601
 20
30.6181282125
 11
-15.6818288923
 21
30.6336062955
  0
LINE
  5
4DF
100
AcDbEntity
  8
DRAFT
100
AcDbLine
 62
7
  6
CONTINUOUS
 10
-15.6818288923
 20
30.6336062955
 11
-15.7069545852
 21
30.6498763351
  0
LINE
  5
4E0
100
AcDbEntity
  8
DRAFT
100
AcDbLine
 62
7
  6
CONTINUOUS
 10
-15.7069545852
 20
30.6498763351
 11
-15.7330386087
 21
30.6669464566
  0
LINE
  5
4E1
100
AcDbEntity
  8
DRAFT
100
AcDbLine
 62
7
  6
CONTINUOUS
 10
-15.8218097266
 20
30.7260337342
 11
-15.8609357956
 21
30.7526043214
  0
LWPOLYLINE
  5
4E2
100
AcDbEntity
  8
DRAFT
100
AcDbPolyline
 62
7
  6
CONTINUOUS
 90
4
 70
0
 10
-15.9550391921
 20
30.8177023356
 10
-15.9703107988
 20
30.8281934028
 10
-15.9735031138
 20
30.8303294799
 10
-15.9757758217
 20
30.8317479896
  0
LINE
  5
4E3
100
AcDbEntity
  8
DRAFT
100
AcDbLine
 62
7
  6
CONTINUOUS
 10
-15.8609357956
 20
30.7526043214
 11
-15.895231305
 21
30.7761646828
  0
LINE
  5
4E4
100
AcDbEntity
  8
DRAFT
100
AcDbLine
 62
7
  6
CONTINUOUS
 10
-15.895231305
 20
30.7761646828
 11
-15.941076808
 21
30.8079343776
  0
LINE
  5
4E5
100
AcDbEntity
  8
DRAFT
100
AcDbLine
 62
7
  6
CONTINUOUS
 10
-15.941076808
 20
30.8079343776
 11
-15.9550391921
 21
30.8177023356
  0
LINE
  5
4E6
100
AcDbEntity
  8
RACCORDO
100
AcDbLine
 62
7
  6
CONTINUOUS
 10
-21.8419770242
 20
34.6804123033
 11
-22.1710384718
 21
34.9291931309
  0
LWPOLYLINE
  5
4E7
100
AcDbEntity
  8
RACCORDO
100
AcDbPolyline
 62
7
  6
CONTINUOUS
 90
10
 70
0
 10
-16.0637033843
 20
30.8869365779
 10
-16.089343675
 20
30.9063656042
 10
-16.1148610174
 20
30.9259362073
 10
-16.1402554116
 20
30.9456483871
 10
-16.1655282394
 20
30.9655033773
 10
-16.1906781189
 20
30.9854999443
 10
-16.2157009046
 20
31.0056343866
 10
-16.2405952147
 20
31.0259054705
 10
-16.2653624311
 20
31.0463144298
 10
-16.2900025538
 20
31.0668612644
  0
LWPOLYLINE
  5
4E8
100
AcDbEntity
  8
RACCORDO
100
AcDbPolyline
 62
7
  6
CONTINUOUS
 90
13
 70
0
 10
-16.8607183346
 20
31.628478182
 10
-16.8582843446
 20
31.6266051058
 10
-16.8552404803
 20
31.6252724489
 10
-16.8516298945
 20
31.6244996677
 10
-16.8475087311
 20
31.6243133239
 10
-16.8429173468
 20
31.6247103424
 10
-16.8378812794
 20
31.6256562375
 10
-16.8324533822
 20
31.6271453753
 10
-16.8266940471
 20
31.6291724726
 10
-16.8206446542
 20
31.6316922004
 10
-16.8143589636
 20
31.6346739389
 10
-16.8079013636
 20
31.6381046863
 10
-16.8013294787
 20
31.6419570987
  0
LINE
  5
4E9
100
AcDbEntity
  8
RACCORDO
100
AcDbLine
 62
250
  6
CONTINUOUS
 10
-16.6222376729
 20
31.3782408438
 11
-16.6275480621
 21
31.3823331394
  0
LWPOLYLINE
  5
4EA
100
AcDbEntity
  8
RACCORDO
100
AcDbPolyline
 62
7
  6
CONTINUOUS
 90
3
 70
0
 10
-16.2915515702
 20
31.0650636439
 10
-16.4260359827
 20
31.1809493736
 10
-16.5881707849
 20
31.3324556957
  0
LWPOLYLINE
  5
4EB
100
AcDbEntity
  8
RACCORDO
100
AcDbPolyline
 62
250
  6
CONTINUOUS
 90
6
 70
0
 10
-16.3196567245
 20
31.1552823358
 10
-16.2857777068
 20
31.1250496097
 10
-16.2512934512
 20
31.094824595
 10
-16.2160457982
 20
31.0644715737
 10
-16.1801929074
 20
31.0341262639
 10
-16.1437347786
 20
31.0037886657
  0
LWPOLYLINE
  5
4EC
100
AcDbEntity
  8
RACCORDO
100
AcDbPolyline
 62
7
  6
CONTINUOUS
 90
13
 70
0
 10
-17.1149801255
 20
31.9409658246
 10
-17.1124786367
 20
31.9387200667
 10
-17.1092712987
 20
31.9370152554
 10
-17.1054076459
 20
31.9358777395
 10
-17.1009507533
 20
31.9353426501
 10
-17.0959493854
 20
31.935409933
 10
-17.0904398351
 20
31.9360414421
 10
-17.0844865232
 20
31.9372325548
 10
-17.078158902
 20
31.9389807958
 10
-17.0715062602
 20
31.9412383543
 10
-17.0645915255
 20
31.9439744224
 10
-17.0574896472
 20
31.9471773163
 10
-17.0502677513
 20
31.9508191322
  0
LWPOLYLINE
  5
4ED
100
AcDbEntity
  8
RACCORDO
100
AcDbPolyline
 62
250
  6
CONTINUOUS
 90
7
 70
0
 10
-8.8749736953
 20
31.400937272
 10
-8.8662333489
 20
31.3922278766
 10
-8.862910933
 20
31.3887691355
 10
-8.860171681
 20
31.3860952076
 10
-8.8580627444
 20
31.384220094
 10
-8.8567904334
 20
31.3829971198
 10
-8.8564470348
 20
31.3823446838
  0
LWPOLYLINE
  5
4EE
100
AcDbEntity
  8
RACCORDO
100
AcDbPolyline
 62
250
  6
CONTINUOUS
 90
3
 70
0
 10
-8.8920245226
 20
31.4181297278
 10
-8.8801244669
 20
31.4062167937
 10
-8.8749736953
 20
31.400937272
  0
LWPOLYLINE
  5
4EF
100
AcDbEntity
  8
RACCORDO
100
AcDbPolyline
 62
250
  6
CONTINUOUS
 90
6
 70
0
 10
-8.9269018872
 20
31.4532886454
 10
-8.9197580782
 20
31.4458735006
 10
-8.9125160507
 20
31.438625487
 10
-8.9053442576
 20
31.4315813664
 10
-8.8984894691
 20
31.4247266847
 10
-8.8920245226
 20
31.4181297278
  0
LINE
  5
4F0
100
AcDbEntity
  8
RACCORDO
100
AcDbLine
 62
7
  6
CONTINUOUS
 10
-6.6507167666
 20
43.3478931194
 11
-6.6419770242
 21
43.3304123033
  0
LWPOLYLINE
  5
4F1
100
AcDbEntity
  8
0
100
AcDbPolyline
 62
7
  6
CONTINUOUS
 90
6
 70
0
 10
-8.9320315108
 20
72.589791035
 10
-8.9075019648
 20
72.5179156178
 10
-8.8835344634
 20
72.4445430777
 10
-8.8601290064
 20
72.3696734147
 10
-8.8376331684
 20
72.2931805691
 10
-8.7932849022
 20
72.1360816883
  0
LWPOLYLINE
  5
4F2
100
AcDbEntity
  8
RACCORDO
100
AcDbPolyline
 62
7
  6
CONTINUOUS
 90
12
 70
0
 10
-11.2419770242
 20
29.9793293311
 10
-11.1655522739
 20
30.00046565
 10
-10.955153722
 20
30.0678269391
 10
-10.747391299
 20
30.1436478082
 10
-10.5424602269
 20
30.2278988677
 10
-10.3408560377
 20
30.3204191283
 10
-10.1433467989
 20
30.4208567531
 10
-9.9505229941
 20
30.5288568459
 10
-9.7623826612
 20
30.6443644535
 10
-9.5787992375
 20
30.7674586354
 10
-9.3998987991
 20
30.898109741
 10
-9.2261856074
 20
31.0360063306
  0
LINE
  5
4F3
100
AcDbEntity
  8
DRAFT
100
AcDbLine
 62
7
  6
CONTINUOUS
 10
-11.2419770242
 20
29.9790893181
 11
-11.207114842
 21
29.9886695296
  0
LINE
  5
4F4
100
AcDbEntity
  8
RACCORDO
100
AcDbLine
 62
7
  6
CONTINUOUS
 10
-2.1889403455
 20
23.1775469621
 11
-23.2950137029
 21
23.1775469621
  0
LINE
  5
4F5
100
AcDbEntity
  8
DRAFT
100
AcDbLine
 62
7
  6
CONTINUOUS
 10
-2.7419770242
 20
24.3779583131
 11
-22.7419770242
 21
24.3779583131
  0
LINE
  5
4F6
100
AcDbEntity
  8
DRAFT
100
AcDbLine
 62
7
  6
CONTINUOUS
 10
-2.7627629859
 20
24.4091412142
 11
-22.7211910624
 21
24.4091412142
  0
LINE
  5
4F7
100
AcDbEntity
  8
ASSI
100
AcDbLine
 62
7
  6
CONTINUOUS
 10
-2.7877238794
 20
24.7127449316
 11
-22.696230169
 21
24.7127449316
  0
LINE
  5
4F8
100
AcDbEntity
  8
DRAFT
100
AcDbLine
 62
7
  6
CONTINUOUS
 10
-14.2772879048
 20
29.9887746769
 11
-14.2419770242
 21
29.979066595
  0
LWPOLYLINE
  5
4F9
100
AcDbEntity
  8
RACCORDO
100
AcDbPolyline
 62
7
  6
CONTINUOUS
 90
12
 70
0
 10
-14.2419770242
 20
29.9792967651
 10
-14.3187211482
 20
30.0005260542
 10
-14.5291438031
 20
30.0679264846
 10
-14.736918385
 20
30.1437785389
 10
-14.9418573933
 20
30.2280441916
 10
-15.14346503
 20
30.3205658719
 10
-15.3409644345
 20
30.4210063647
 10
-15.5337620592
 20
30.5290242658
 10
-15.721872446
 20
30.6445475677
 10
-15.9054285601
 20
30.7676411938
 10
-16.0843058786
 20
30.8982745597
 10
-16.2579950872
 20
31.0361478948
  0
LWPOLYLINE
  5
4FA
100
AcDbEntity
  8
DRAFT
100
AcDbPolyline
 62
7
  6
CONTINUOUS
 90
5
 70
0
 10
-22.2646808527
 20
34.7718941531
 10
-22.2729362856
 20
34.7754007842
 10
-22.2811416597
 20
34.7788212854
 10
-22.2892703782
 20
34.7821539238
 10
-22.297322441
 20
34.7853986995
  0
LINE
  5
4FB
100
AcDbEntity
  8
DRAFT
100
AcDbLine
 62
7
  6
CONTINUOUS
 10
-22.2392009303
 20
34.7608317421
 11
-22.2646808527
 21
34.7718941531
  0
LINE
  5
4FC
100
AcDbEntity
  8
DRAFT
100
AcDbLine
 62
7
  6
CONTINUOUS
 10
-22.1931525752
 20
34.7404684548
 11
-22.2392009303
 21
34.7608317421
  0
LINE
  5
4FD
100
AcDbEntity
  8
DRAFT
100
AcDbLine
 62
7
  6
CONTINUOUS
 10
-22.0591343117
 20
34.6804123033
 11
-22.1931525752
 21
34.7404684548
  0
LINE
  5
4FE
100
AcDbEntity
  8
RACCORDO
100
AcDbLine
 62
7
  6
CONTINUOUS
 10
-21.8419770242
 20
35.9304123033
 11
-21.952820353
 21
35.9806111153
  0
LWPOLYLINE
  5
4FF
100
AcDbEntity
  8
DRAFT
100
AcDbPolyline
 62
7
  6
CONTINUOUS
 90
9
 70
0
 10
-15.6576858601
 20
30.6181282125
 10
-15.4850490728
 20
30.5131942877
 10
-15.3123581992
 20
30.4159170581
 10
-15.1396132392
 20
30.3262965239
 10
-14.9666668087
 20
30.2446173252
 10
-14.7936662919
 20
30.1705948217
 10
-14.6210538409
 20
30.1033750926
 10
-14.4489768399
 20
30.0426734976
 10
-14.2772879048
 20
29.9887746769
  0
LINE
  5
500
100
AcDbEntity
  8
DRAFT
100
AcDbLine
 62
7
  6
CONTINUOUS
 10
-16.0052956258
 20
30.8500481819
 11
-15.9757758217
 21
30.8317479896
  0
LWPOLYLINE
  5
501
100
AcDbEntity
  8
RACCORDO
100
AcDbPolyline
 62
250
  6
CONTINUOUS
 90
7
 70
0
 10
-8.0999516545
 20
32.3826224281
 10
-8.0894735601
 20
32.3761013106
 10
-8.085434683
 20
32.3735014188
 10
-8.082169855
 20
32.3714875646
 10
-8.0797185496
 20
32.3700767295
 10
-8.0781999503
 20
32.3691532028
 10
-8.0776652336
 20
32.3686585596
  0
LWPOLYLINE
  5
502
100
AcDbEntity
  8
DRAFT
100
AcDbPolyline
 62
7
  6
CONTINUOUS
 90
3
 70
0
 10
-16.0443267446
 20
30.8745978881
 10
-16.0346036948
 20
30.8684445024
 10
-16.0052956258
 20
30.8500481819
  0
LINE
  5
503
100
AcDbEntity
  8
RACCORDO
100
AcDbLine
 62
250
  6
CONTINUOUS
 10
-8.1061716851
 20
32.3865895388
 11
-8.0999516545
 21
32.3826224281
  0
LWPOLYLINE
  5
504
100
AcDbEntity
  8
RACCORDO
100
AcDbPolyline
 62
250
  6
CONTINUOUS
 90
7
 70
0
 10
-8.1623360256
 20
32.4218336591
 10
-8.1536921525
 20
32.416250479
 10
-8.1450145788
 20
32.4108308137
 10
-8.1364601873
 20
32.4055830716
 10
-8.1282443234
 20
32.4004575132
 10
-8.1204529001
 20
32.3955029562
 10
-8.1061716851
 20
32.3865895388
  0
LWPOLYLINE
  5
505
100
AcDbEntity
  8
RACCORDO
100
AcDbPolyline
 62
250
  6
CONTINUOUS
 90
7
 70
0
 10
-8.3238274134
 20
32.0481659117
 10
-8.3138513445
 20
32.0409020821
 10
-8.3100184627
 20
32.0380099764
 10
-8.3069067848
 20
32.0357697063
 10
-8.3045564868
 20
32.0341981142
 10
-8.3031086471
 20
32.0331705754
 10
-8.3026246968
 20
32.0326226085
  0
LINE
  5
506
100
AcDbEntity
  8
RACCORDO
100
AcDbLine
 62
250
  6
CONTINUOUS
 10
-8.3297375924
 20
32.052578885
 11
-8.3238274134
 21
32.0481659117
  0
LWPOLYLINE
  5
507
100
AcDbEntity
  8
RACCORDO
100
AcDbPolyline
 62
250
  6
CONTINUOUS
 90
7
 70
0
 10
-8.3831901798
 20
32.0918336591
 10
-8.3749837958
 20
32.0856267581
 10
-8.3667195323
 20
32.079587472
 10
-8.3585608025
 20
32.0737324693
 10
-8.3507370243
 20
32.068021329
 10
-8.3433307619
 20
32.0625090308
 10
-8.3297375924
 20
32.052578885
  0
LWPOLYLINE
  5
508
100
AcDbEntity
  8
RACCORDO
100
AcDbPolyline
 62
250
  6
CONTINUOUS
 90
7
 70
0
 10
-8.4863220677
 20
31.8353199239
 10
-8.4767097326
 20
31.8275821596
 10
-8.4730267001
 20
31.8245038437
 10
-8.4700254524
 20
31.8221202288
 10
-8.467747442
 20
31.8204476538
 10
-8.4663513053
 20
31.8193549019
 10
-8.4659067266
 20
31.8187727203
  0
LWPOLYLINE
  5
509
100
AcDbEntity
  8
RACCORDO
100
AcDbPolyline
 62
250
  6
CONTINUOUS
 90
3
 70
0
 10
-8.5051030396
 20
31.8505969309
 10
-8.4920082479
 20
31.8400172501
 10
-8.4863220677
 20
31.8353199239
  0
LWPOLYLINE
  5
50A
100
AcDbEntity
  8
RACCORDO
100
AcDbPolyline
 62
250
  6
CONTINUOUS
 90
6
 70
0
 10
-8.5434961063
 20
31.8818336591
 10
-8.5356044445
 20
31.875229694
 10
-8.5276404427
 20
31.8687944533
 10
-8.5197704736
 20
31.8625506011
 10
-8.5122313688
 20
31.85646504
 10
-8.5051030396
 20
31.8505969309
  0
LINE
  5
50B
100
AcDbEntity
  8
DRAFT
100
AcDbLine
 62
7
  6
CONTINUOUS
 10
-22.7419770242
 20
74.6828662935
 11
-22.7280129722
 21
74.6619175562
  0
LWPOLYLINE
  5
50C
100
AcDbEntity
  8
0
100
AcDbPolyline
 62
7
  6
CONTINUOUS
 90
10
 70
0
 10
-3.789892005
 20
61.7910339627
 10
-3.7833007787
 20
61.7784551486
 10
-3.777434175
 20
61.7647630106
 10
-3.772292194
 20
61.7499575489
 10
-3.7678473726
 20
61.7341208068
 10
-3.7641271739
 20
61.7171707409
 10
-3.7612139869
 20
61.6988612208
 10
-3.7591352746
 20
61.679110203
 10
-3.7578635739
 20
61.6579997309
 10
-3.7573988849
 20
61.6355298046
  0
LWPOLYLINE
  5
50D
100
AcDbEntity
  8
0
100
AcDbPolyline
 62
7
  6
CONTINUOUS
 90
10
 70
0
 10
-5.6979244701
 20
61.5082822018
 10
-5.7042048911
 20
61.5215723281
 10
-5.7098248345
 20
61.5355337706
 10
-5.7147843002
 20
61.5501665295
 10
-5.7191179066
 20
61.5653759301
 10
-5.7227910352
 20
61.581256647
 10
-5.7256998314
 20
61.598092704
 10
-5.7278096768
 20
61.615978776
 10
-5.7291551896
 20
61.6348201881
 10
-5.72973637
 20
61.6546169404
  0
LWPOLYLINE
  5
50E
100
AcDbEntity
  8
0
100
AcDbPolyline
 62
7
  6
CONTINUOUS
 90
10
 70
0
 10
-3.6047017825
 20
61.9154744629
 10
-3.6169186244
 20
61.9413805141
 10
-3.6298105363
 20
61.9656961247
 10
-3.6433775182
 20
61.9884212949
 10
-3.6576434274
 20
62.0094727645
 10
-3.6725844066
 20
62.0289337937
 10
-3.6881288838
 20
62.0470541625
 10
-3.7042530015
 20
62.063917131
 10
-3.7209806172
 20
62.0794394392
 10
-3.7383117308
 20
62.093621087
  0
LWPOLYLINE
  5
50F
100
AcDbEntity
  8
RACCORDO
100
AcDbPolyline
 62
7
  6
CONTINUOUS
 90
7
 70
0
 10
-17.6910817944
 20
33.0528881756
 10
-17.6864644621
 20
33.0541523579
 10
-17.681741207
 20
33.0551847716
 10
-17.6769120293
 20
33.0559854168
 10
-17.6719769289
 20
33.0565542935
 10
-17.6669359058
 20
33.0568914016
 10
-17.6617889601
 20
33.0569967412
  0
LWPOLYLINE
  5
510
100
AcDbEntity
  8
RACCORDO
100
AcDbPolyline
 62
250
  6
CONTINUOUS
 90
13
 70
0
 10
-17.3222036689
 20
32.3511229814
 10
-17.331185117
 20
32.34869011
 10
-17.3400644677
 20
32.3470161825
 10
-17.3487667136
 20
32.3460799516
 10
-17.3572653237
 20
32.3458488964
 10
-17.3654431288
 20
32.3463241591
 10
-17.3731390667
 20
32.3475208804
 10
-17.3803537846
 20
32.3494425108
 10
-17.3870399367
 20
32.3520556194
 10
-17.3930507057
 20
32.3552984543
 10
-17.3983551659
 20
32.3591409277
 10
-17.4029795551
 20
32.3636013154
 10
-17.406891792
 20
32.368684097
  0
LWPOLYLINE
  5
511
100
AcDbEntity
  8
RACCORDO
100
AcDbPolyline
 62
250
  6
CONTINUOUS
 90
13
 70
0
 10
-17.4821902657
 20
32.6277074193
 10
-17.4916541279
 20
32.6255308343
 10
-17.5009840597
 20
32.6241513061
 10
-17.5101063222
 20
32.6235461828
 10
-17.5190006373
 20
32.623688361
 10
-17.5275457142
 20
32.6245753793
 10
-17.5355633493
 20
32.6262086579
 10
-17.5430449609
 20
32.6285939072
 10
-17.5499417996
 20
32.6316993061
 10
-17.5560949242
 20
32.6354457557
 10
-17.561462212
 20
32.6397944461
 10
-17.5660641144
 20
32.6447648413
 10
-17.5698649824
 20
32.6503546161
  0
LWPOLYLINE
  5
512
100
AcDbEntity
  8
RACCORDO
100
AcDbPolyline
 62
250
  6
CONTINUOUS
 90
12
 70
0
 10
-4.2481502434
 20
35.9654535729
 10
-4.2406503682
 20
35.9671262966
 10
-4.2309301093
 20
35.968710797
 10
-4.2189894668
 20
35.970207074
 10
-4.2044777607
 20
35.9716248331
 10
-4.187745671
 20
35.972954369
 10
-4.1698452374
 20
35.9741665648
 10
-4.1508205399
 20
35.9752498695
 10
-4.1306274986
 20
35.9762158343
 10
-4.1101859134
 20
35.9770699963
 10
-4.089898395
 20
35.9778034433
 10
-4.0693623327
 20
35.9784250876
  0
LINE
  5
513
100
AcDbEntity
  8
RACCORDO
100
AcDbLine
 62
250
  6
CONTINUOUS
 10
-18.8278365535
 20
33.374027591
 11
-18.8418936637
 21
33.3712950718
  0
LINE
  5
514
100
AcDbEntity
  8
DRAFT
100
AcDbLine
 62
7
  6
CONTINUOUS
 10
-18.0420250624
 20
33.3327854464
 11
-18.2246937386
 21
33.2980244559
  0
LINE
  5
515
100
AcDbEntity
  8
DRAFT
100
AcDbLine
 62
7
  6
CONTINUOUS
 10
-18.2246937386
 20
33.2980244559
 11
-18.4419770242
 21
33.257856205
  0
LINE
  5
516
100
AcDbEntity
  8
RACCORDO
100
AcDbLine
 62
7
  6
CONTINUOUS
 10
-17.9262989501
 20
33.448608758
 11
-17.9414632092
 21
33.4459368545
  0
LWPOLYLINE
  5
517
100
AcDbEntity
  8
RACCORDO
100
AcDbPolyline
 62
250
  6
CONTINUOUS
 90
9
 70
0
 10
-4.3958714063
 20
36.1152478193
 10
-4.3857243553
 20
36.1169208706
 10
-4.3717284849
 20
36.1185055733
 10
-4.3542131602
 20
36.1200019272
 10
-4.3334240276
 20
36.1214195716
 10
-4.3097804137
 20
36.1227488673
 10
-4.2840071102
 20
36.1239608971
 10
-4.2566568285
 20
36.1250442061
 10
-4.2280742087
 20
36.1260102491
  0
LWPOLYLINE
  5
518
100
AcDbEntity
  8
RACCORDO
100
AcDbPolyline
 62
250
  6
CONTINUOUS
 90
13
 70
0
 10
-17.7206765065
 20
33.124823429
 10
-17.7309502066
 20
33.1231324405
 10
-17.7410357215
 20
33.1223042833
 10
-17.7508583776
 20
33.1223148619
 10
-17.7604001081
 20
33.123147809
 10
-17.7695337179
 20
33.1247937957
 10
-17.7780591684
 20
33.1272281902
 10
-17.7859444468
 20
33.1304576679
 10
-17.7931329224
 20
33.1344516658
 10
-17.7994521938
 20
33.1391004139
 10
-17.8048406344
 20
33.1443474857
 10
-17.8093031536
 20
33.1502093753
 10
-17.8127980828
 20
33.1566680639
  0
LINE
  5
519
100
AcDbEntity
  8
RACCORDO
100
AcDbLine
 62
250
  6
CONTINUOUS
 10
-18.7549250998
 20
32.9991925942
 11
-18.7695165404
 21
32.9968658262
  0
LWPOLYLINE
  5
51A
100
AcDbEntity
  8
RACCORDO
100
AcDbPolyline
 62
250
  6
CONTINUOUS
 90
16
 70
0
 10
-7.656404818
 20
33.7531016596
 10
-7.6461001008
 20
33.7535342347
 10
-7.6358962045
 20
33.7547163872
 10
-7.6259024017
 20
33.7566374667
 10
-7.6162244796
 20
33.7592794049
 10
-7.6069688984
 20
33.7626154851
 10
-7.5982407772
 20
33.7666093567
 10
-7.5901345015
 20
33.7712187115
 10
-7.5827376689
 20
33.7763946893
 10
-7.5761336001
 20
33.782079262
 10
-7.5703940973
 20
33.7882096302
 10
-7.5655786978
 20
33.7947210581
 10
-7.5617379231
 20
33.8015449553
 10
-7.5589129817
 20
33.8086086187
 10
-7.5571346561
 20
33.8158357741
 10
-7.5564221941
 20
33.823148841
  0
LINE
  5
51B
100
AcDbEntity
  8
RACCORDO
100
AcDbLine
 62
250
  6
CONTINUOUS
 10
-17.8280405452
 20
33.7124104539
 11
-17.9280231692
 21
33.7117553364
  0
LINE
  5
51C
100
AcDbEntity
  8
RACCORDO
100
AcDbLine
 62
250
  6
CONTINUOUS
 10
-17.8275492304
 20
33.8238039586
 11
-17.9275318543
 21
33.823148841
  0
LINE
  5
51D
100
AcDbEntity
  8
0
100
AcDbLine
 62
7
  6
CONTINUOUS
 10
-11.2419770242
 20
30.3304123033
 11
-14.2419770242
 21
30.3304123033
  0
LINE
  5
51E
100
AcDbEntity
  8
DRAFT
100
AcDbLine
 62
250
  6
CONTINUOUS
 10
-15.6576858601
 20
30.6181282125
 11
-9.8270104878
 21
30.6181282125
  0
LINE
  5
51F
100
AcDbEntity
  8
DRAFT
100
AcDbLine
 62
250
  6
CONTINUOUS
 10
-15.7330386087
 20
30.6669464566
 11
-9.7516138009
 21
30.6669464566
  0
LINE
  5
520
100
AcDbEntity
  8
DRAFT
100
AcDbLine
 62
250
  6
CONTINUOUS
 10
-15.9757758217
 20
30.8317479896
 11
-9.5085481826
 21
30.8317479896
  0
LINE
  5
521
100
AcDbEntity
  8
DRAFT
100
AcDbLine
 62
7
  6
CONTINUOUS
 10
-9.4203604061
 20
30.8869365779
 11
-16.0637033843
 21
30.8869365779
  0
LINE
  5
522
100
AcDbEntity
  8
RACCORDO
100
AcDbLine
 62
7
  6
CONTINUOUS
 10
-9.3402774175
 20
31.0037886657
 11
-16.1437503007
 21
31.0037886657
  0
LINE
  5
523
100
AcDbEntity
  8
RACCORDO
100
AcDbLine
 62
250
  6
CONTINUOUS
 10
-8.9269018868
 20
31.3825779677
 11
-16.5571046786
 21
31.3825779677
  0
LINE
  5
524
100
AcDbEntity
  8
RACCORDO
100
AcDbLine
 62
250
  6
CONTINUOUS
 10
-8.9269018868
 20
31.4532886458
 11
-16.5571046786
 21
31.4532886458
  0
LINE
  5
525
100
AcDbEntity
  8
RACCORDO
100
AcDbLine
 62
7
  6
CONTINUOUS
 10
-8.7352880453
 20
31.6535582366
 11
-16.748818349
 21
31.6535582366
  0
LINE
  5
526
100
AcDbEntity
  8
RACCORDO
100
AcDbLine
 62
250
  6
CONTINUOUS
 10
-8.543496106
 20
31.8111229814
 11
-16.9408442565
 21
31.8111229814
  0
LINE
  5
527
100
AcDbEntity
  8
RACCORDO
100
AcDbLine
 62
250
  6
CONTINUOUS
 10
-8.543496106
 20
31.8818336595
 11
-16.9408442565
 21
31.8818336595
  0
LINE
  5
528
100
AcDbEntity
  8
RACCORDO
100
AcDbLine
 62
7
  6
CONTINUOUS
 10
-8.4808299755
 20
31.9604123033
 11
-17.0035430703
 21
31.9604123033
  0
LINE
  5
529
100
AcDbEntity
  8
RACCORDO
100
AcDbLine
 62
250
  6
CONTINUOUS
 10
-8.3831901795
 20
32.0211229814
 11
-17.1012890712
 21
32.0211229814
  0
LINE
  5
52A
100
AcDbEntity
  8
RACCORDO
100
AcDbLine
 62
250
  6
CONTINUOUS
 10
-8.3831901795
 20
32.0918336595
 11
-17.1012890712
 21
32.0918336595
  0
LINE
  5
52B
100
AcDbEntity
  8
RACCORDO
100
AcDbLine
 62
7
  6
CONTINUOUS
 10
-8.2945363532
 20
32.2160772631
 11
-17.1899599406
 21
32.2160772631
  0
LINE
  5
52C
100
AcDbEntity
  8
RACCORDO
100
AcDbLine
 62
250
  6
CONTINUOUS
 10
-8.1623360253
 20
32.3511229814
 11
-17.3222036689
 21
32.3511229814
  0
LINE
  5
52D
100
AcDbEntity
  8
RACCORDO
100
AcDbLine
 62
250
  6
CONTINUOUS
 10
-8.1623360253
 20
32.4218336595
 11
-17.3222036689
 21
32.4218336595
  0
LINE
  5
52E
100
AcDbEntity
  8
RACCORDO
100
AcDbLine
 62
7
  6
CONTINUOUS
 10
-17.3924959517
 20
32.5369967412
 11
-8.0919885115
 21
32.5369967412
  0
LINE
  5
52F
100
AcDbEntity
  8
RACCORDO
100
AcDbLine
 62
250
  6
CONTINUOUS
 10
-17.4821902657
 20
32.6277074193
 11
-8.0022704497
 21
32.6277074193
  0
LINE
  5
530
100
AcDbEntity
  8
RACCORDO
100
AcDbLine
 62
250
  6
CONTINUOUS
 10
-17.4821902657
 20
32.6984180974
 11
-8.0022704497
 21
32.6984180974
  0
LINE
  5
531
100
AcDbEntity
  8
RACCORDO
100
AcDbLine
 62
7
  6
CONTINUOUS
 10
-17.6617889601
 20
33.0569967412
 11
-7.8223965238
 21
33.0569967412
  0
LINE
  5
532
100
AcDbEntity
  8
RACCORDO
100
AcDbLine
 62
250
  6
CONTINUOUS
 10
-7.7634125241
 20
33.124823429
 11
-17.7206765065
 21
33.124823429
  0
LINE
  5
533
100
AcDbEntity
  8
RACCORDO
100
AcDbLine
 62
250
  6
CONTINUOUS
 10
-7.7634125241
 20
33.1955341072
 11
-17.7206765065
 21
33.1955341072
  0
LINE
  5
534
100
AcDbEntity
  8
0
100
AcDbLine
 62
7
  6
CONTINUOUS
 10
-22.8419770242
 20
33.2804123033
 11
-21.8419770242
 21
33.2804123033
  0
LINE
  5
535
100
AcDbEntity
  8
0
100
AcDbLine
 62
7
  6
CONTINUOUS
 10
-3.6419770242
 20
33.2804123033
 11
-2.6419770242
 21
33.2804123033
  0
LINE
  5
536
100
AcDbEntity
  8
RACCORDO
100
AcDbLine
 62
7
  6
CONTINUOUS
 10
-17.8279927082
 20
33.7124104539
 11
-7.6559613402
 21
33.7124104539
  0
LINE
  5
537
100
AcDbEntity
  8
RACCORDO
100
AcDbLine
 62
250
  6
CONTINUOUS
 10
-17.8275492304
 20
33.7531016596
 11
-7.656404818
 21
33.7531016596
  0
LINE
  5
538
100
AcDbEntity
  8
RACCORDO
100
AcDbLine
 62
250
  6
CONTINUOUS
 10
-17.8275492304
 20
33.8238039586
 11
-7.656404818
 21
33.8238039586
  0
LINE
  5
539
100
AcDbEntity
  8
RACCORDO
100
AcDbLine
 62
7
  6
CONTINUOUS
 10
-17.8298576442
 20
34.1804560856
 11
-7.6540964042
 21
34.1804560856
  0
LINE
  5
53A
100
AcDbEntity
  8
RACCORDO
100
AcDbLine
 62
250
  6
CONTINUOUS
 10
-7.656404818
 20
33.8238039586
 11
-7.5564221941
 21
33.823148841
  0
LWPOLYLINE
  5
53B
100
AcDbEntity
  8
RACCORDO
100
AcDbPolyline
 62
7
  6
CONTINUOUS
 90
7
 70
0
 10
-7.8223965238
 20
33.0569967412
 10
-7.8172412268
 20
33.0568911726
 10
-7.8121922282
 20
33.0565531449
 10
-7.8072495281
 20
33.0559826582
 10
-7.8024131265
 20
33.0551797125
 10
-7.7976830232
 20
33.0541443077
 10
-7.7930592185
 20
33.0528764438
  0
LWPOLYLINE
  5
53C
100
AcDbEntity
  8
RACCORDO
100
AcDbPolyline
 62
7
  6
CONTINUOUS
 90
7
 70
0
 10
-8.0919885115
 20
32.5369967412
 10
-8.0852631553
 20
32.5368413005
 10
-8.0787529008
 20
32.5363212206
 10
-8.072457748
 20
32.5354365014
 10
-8.0663776969
 20
32.5341871429
 10
-8.0605127475
 20
32.5325731452
 10
-8.0548628998
 20
32.5305945082
  0
LWPOLYLINE
  5
53D
100
AcDbEntity
  8
RACCORDO
100
AcDbPolyline
 62
7
  6
CONTINUOUS
 90
7
 70
0
 10
-8.2945364461
 20
32.2160772631
 10
-8.2867174824
 20
32.2158929287
 10
-8.2792080061
 20
32.2152436643
 10
-8.2720080172
 20
32.21412947
 10
-8.2651175156
 20
32.2125503457
 10
-8.2585365014
 20
32.2105062915
 10
-8.2522649746
 20
32.2079973073
  0
LWPOLYLINE
  5
53E
100
AcDbEntity
  8
RACCORDO
100
AcDbPolyline
 62
7
  6
CONTINUOUS
 90
7
 70
0
 10
-8.4808298193
 20
31.9604123033
 10
-8.4720004765
 20
31.9602018853
 10
-8.4635902793
 20
31.9594367907
 10
-8.4555992279
 20
31.9581170194
 10
-8.4480273221
 20
31.9562425714
 10
-8.440874562
 20
31.9538134467
 10
-8.4341409475
 20
31.9508296453
  0
LWPOLYLINE
  5
53F
100
AcDbEntity
  8
RACCORDO
100
AcDbPolyline
 62
7
  6
CONTINUOUS
 90
7
 70
0
 10
-8.735326952
 20
31.6535582366
 10
-8.7249578274
 20
31.6532903006
 10
-8.7152350859
 20
31.6523569437
 10
-8.7061587274
 20
31.6507581661
 10
-8.697728752
 20
31.6484939676
 10
-8.6899451597
 20
31.6455643484
 10
-8.6828079504
 20
31.6419693083
  0
LWPOLYLINE
  5
540
100
AcDbEntity
  8
RACCORDO
100
AcDbPolyline
 62
7
  6
CONTINUOUS
 90
16
 70
0
 10
-16.1437503007
 20
31.0037886657
 10
-16.1525552406
 20
31.004112798
 10
-16.1615384882
 20
31.0049955392
 10
-16.1707000436
 20
31.0064368895
 10
-16.1800599944
 20
31.0084449171
 10
-16.1895982529
 20
31.0110115536
 10
-16.1992545565
 20
31.0141125938
 10
-16.2090211991
 20
31.0177359229
 10
-16.2189058866
 20
31.0218936556
 10
-16.2288714741
 20
31.0265979304
 10
-16.2389162115
 20
31.0318329409
 10
-16.2490418488
 20
31.0376144936
 10
-16.2592164912
 20
31.0440021465
 10
-16.269429507
 20
31.0510157522
 10
-16.2796915279
 20
31.0586354582
 10
-16.2900025538
 20
31.0668612644
  0
LWPOLYLINE
  5
541
100
AcDbEntity
  8
RACCORDO
100
AcDbPolyline
 62
250
  6
CONTINUOUS
 90
16
 70
0
 10
-17.8279927082
 20
33.7124104539
 10
-17.8383324838
 20
33.7128457926
 10
-17.8485614487
 20
33.7140344312
 10
-17.858569941
 20
33.7159636351
 10
-17.8682506619
 20
33.71861273
 10
-17.8774998218
 20
33.7219533234
 10
-17.8862182543
 20
33.7259496072
 10
-17.8943124868
 20
33.7305587451
 10
-17.9016957331
 20
33.7357313278
 10
-17.9082888231
 20
33.7414118985
 10
-17.9140210683
 20
33.7475395603
 10
-17.9188310055
 20
33.7540486192
 10
-17.9226670545
 20
33.7608692799
 10
-17.9254880863
 20
33.7679284127
 10
-17.9272638585
 20
33.7751503402
 10
-17.9279753321
 20
33.7824576353
  0
LWPOLYLINE
  5
542
100
AcDbEntity
  8
RACCORDO
100
AcDbPolyline
 62
250
  6
CONTINUOUS
 90
16
 70
0
 10
-17.8275492304
 20
33.7531016596
 10
-17.8378718116
 20
33.7535356418
 10
-17.8480892104
 20
33.7547212091
 10
-17.8580918967
 20
33.7566468079
 10
-17.8677739608
 20
33.7592934285
 10
-17.8770293256
 20
33.7626335004
 10
-17.8857536892
 20
33.7666300224
 10
-17.8938521723
 20
33.7712393124
 10
-17.9012393515
 20
33.776412515
 10
-17.9078358584
 20
33.7820940168
 10
-17.9135709086
 20
33.7882227576
 10
-17.9183831272
 20
33.7947330414
 10
-17.9222210188
 20
33.8015551531
 10
-17.9250434317
 20
33.8086159626
 10
-17.9268200625
 20
33.8158396872
 10
-17.9275318543
 20
33.823148841
  0
LINE
  5
543
100
AcDbEntity
  8
RACCORDO
100
AcDbLine
 62
250
  6
CONTINUOUS
 10
-6.7290289486
 20
32.9991925942
 11
-6.714437508
 21
32.9968658262
  0
LWPOLYLINE
  5
544
100
AcDbEntity
  8
RACCORDO
100
AcDbPolyline
 62
250
  6
CONTINUOUS
 90
13
 70
0
 10
-7.7634125241
 20
33.124823429
 10
-7.7531443834
 20
33.1231297496
 10
-7.7430640607
 20
33.1222983423
 10
-7.7332461897
 20
33.1223051264
 10
-7.7237088105
 20
33.1231336745
 10
-7.7145790534
 20
33.1247747056
 10
-7.706056813
 20
33.1272037583
 10
-7.6981739382
 20
33.1304275105
 10
-7.6909869788
 20
33.1344154076
 10
-7.6846682474
 20
33.1390578979
 10
-7.6792792483
 20
33.1442986843
 10
-7.6748149636
 20
33.15015429
 10
-7.6713170192
 20
33.1566068084
  0
LINE
  5
545
100
AcDbEntity
  8
RACCORDO
100
AcDbLine
 62
7
  6
CONTINUOUS
 10
-7.5424907784
 20
33.445945624
 11
-7.6471938968
 21
33.4644351987
  0
LINE
  5
546
100
AcDbEntity
  8
RACCORDO
100
AcDbLine
 62
7
  6
CONTINUOUS
 10
-7.6471938968
 20
33.4644351987
 11
-7.6575260726
 21
33.4663035985
  0
LINE
  5
547
100
AcDbEntity
  8
RACCORDO
100
AcDbLine
 62
7
  6
CONTINUOUS
 10
-7.5576550393
 20
33.4486177714
 11
-7.5583536688
 21
33.4487468552
  0
LINE
  5
548
100
AcDbEntity
  8
DRAFT
100
AcDbLine
 62
7
  6
CONTINUOUS
 10
-7.0419770242
 20
33.257856205
 11
-7.4419289859
 21
33.3327854464
  0
LINE
  5
549
100
AcDbEntity
  8
RACCORDO
100
AcDbLine
 62
250
  6
CONTINUOUS
 10
-6.6561174949
 20
33.374027591
 11
-6.6420603847
 21
33.3712950718
  0
LWPOLYLINE
  5
54A
100
AcDbEntity
  8
RACCORDO
100
AcDbPolyline
 62
250
  6
CONTINUOUS
 90
13
 70
0
 10
-8.0022704497
 20
32.6277074193
 10
-7.9928124712
 20
32.6255313516
 10
-7.9834881453
 20
32.6241514008
 10
-7.9743711118
 20
32.6235449584
 10
-7.9654816562
 20
32.6236849331
 10
-7.956940864
 20
32.6245688853
 10
-7.948926617
 20
32.6261983155
 10
-7.941447487
 20
32.6285788986
 10
-7.9345521545
 20
32.6316788591
 10
-7.9283993047
 20
32.6354193604
 10
-7.9230309977
 20
32.6397617137
 10
-7.9184268088
 20
32.6447253223
 10
-7.9146223445
 20
32.6503078987
  0
LWPOLYLINE
  5
54B
100
AcDbEntity
  8
RACCORDO
100
AcDbPolyline
 62
250
  6
CONTINUOUS
 90
13
 70
0
 10
-8.1623360253
 20
32.3511229814
 10
-8.1533588909
 20
32.3486925215
 10
-8.1444837581
 20
32.3470200668
 10
-8.1357854938
 20
32.3460844141
 10
-8.1272905946
 20
32.3458531031
 10
-8.1191159869
 20
32.346327275
 10
-8.1114224356
 20
32.3475220609
 10
-8.1042093704
 20
32.3494408799
 10
-8.0975240642
 20
32.3520503734
 10
-8.0915130795
 20
32.3552889908
 10
-8.0862073484
 20
32.359126723
 10
-8.0815807197
 20
32.3635817599
 10
-8.0776652336
 20
32.3686585596
  0
LINE
  5
54C
100
AcDbEntity
  8
RACCORDO
100
AcDbLine
 62
250
  6
CONTINUOUS
 10
-21.235803805
 20
35.9654535729
 11
-20.8848270936
 21
35.8611365254
  0
LINE
  5
54D
100
AcDbEntity
  8
RACCORDO
100
AcDbLine
 62
250
  6
CONTINUOUS
 10
-21.088082642
 20
36.1152480031
 11
-20.7362361485
 21
36.0106724396
  0
LWPOLYLINE
  5
54E
100
AcDbEntity
  8
RACCORDO
100
AcDbPolyline
 62
250
  6
CONTINUOUS
 90
13
 70
0
 10
-8.3831901795
 20
32.0211229814
 10
-8.3748364373
 20
32.0184017662
 10
-8.3665413559
 20
32.0163894231
 10
-8.3583827315
 20
32.0150676137
 10
-8.350399057
 20
32.0143985288
 10
-8.3427022696
 20
32.0143883841
 10
-8.335429399
 20
32.0150689344
 10
-8.3285733557
 20
32.0164400011
 10
-8.3221836974
 20
32.0184655476
 10
-8.3163895952
 20
32.0211041978
 10
-8.3112088981
 20
32.0243346152
 10
-8.3066114191
 20
32.0281706941
 10
-8.3026246968
 20
32.0326226085
  0
LWPOLYLINE
  5
54F
100
AcDbEntity
  8
RACCORDO
100
AcDbPolyline
 62
250
  6
CONTINUOUS
 90
10
 70
0
 10
-8.543496106
 20
31.8111229814
 10
-8.5328586536
 20
31.8073328422
 10
-8.5223929983
 20
31.8048010624
 10
-8.5122579907
 20
31.8034696669
 10
-8.5025066254
 20
31.8032609933
 10
-8.4933815638
 20
31.8041650708
 10
-8.4851571014
 20
31.8061903451
 10
-8.4778462504
 20
31.8093059306
 10
-8.4714030406
 20
31.8134913447
 10
-8.4659067266
 20
31.8187727203
  0
LWPOLYLINE
  5
550
100
AcDbEntity
  8
DRAFT
100
AcDbPolyline
 62
7
  6
CONTINUOUS
 90
5
 70
0
 10
-22.4192731957
 20
37.7889304535
 10
-22.4110177627
 20
37.7854238224
 10
-22.4028123887
 20
37.7820033212
 10
-22.3946836702
 20
37.7786706827
 10
-22.3866316074
 20
37.7754259071
  0
LWPOLYLINE
  5
551
100
AcDbEntity
  8
RACCORDO
100
AcDbPolyline
 62
250
  6
CONTINUOUS
 90
3
 70
0
 10
-7.7023401806
 20
33.1697430545
 10
-7.6955558146
 20
33.1668292115
 10
-7.6841677847
 20
33.1620610863
  0
LWPOLYLINE
  5
552
100
AcDbEntity
  8
RACCORDO
100
AcDbPolyline
 62
250
  6
CONTINUOUS
 90
6
 70
0
 10
-7.6841677847
 20
33.1620610863
 10
-7.6797578215
 20
33.1601509497
 10
-7.6762139748
 20
33.1586766846
 10
-7.6735773462
 20
33.1576532596
 10
-7.6719332117
 20
33.1569797727
 10
-7.6713170192
 20
33.1566068084
  0
LWPOLYLINE
  5
553
100
AcDbEntity
  8
RACCORDO
100
AcDbPolyline
 62
250
  6
CONTINUOUS
 90
7
 70
0
 10
-7.7634125241
 20
33.1955341069
 10
-7.7539651885
 20
33.1914298168
 10
-7.7445443881
 20
33.1874688314
 10
-7.73528561
 20
33.1836453135
 10
-7.7263631291
 20
33.1798972027
 10
-7.7178679938
 20
33.1762605374
 10
-7.7023401806
 20
33.1697430545
  0
LINE
  5
554
100
AcDbEntity
  8
DRAFT
100
AcDbLine
 62
7
  6
CONTINUOUS
 10
-22.444753118
 20
37.7999928645
 11
-22.4192731957
 21
37.7889304535
  0
LINE
  5
555
100
AcDbEntity
  8
DRAFT
100
AcDbLine
 62
7
  6
CONTINUOUS
 10
-22.4908014732
 20
37.8203561518
 11
-22.444753118
 21
37.7999928645
  0
LINE
  5
556
100
AcDbEntity
  8
DRAFT
100
AcDbLine
 62
7
  6
CONTINUOUS
 10
-22.6248197367
 20
37.8804123033
 11
-22.4908014732
 21
37.8203561518
  0
LWPOLYLINE
  5
557
100
AcDbEntity
  8
RACCORDO
100
AcDbPolyline
 62
250
  6
CONTINUOUS
 90
9
 70
0
 10
-8.9269018867
 20
31.3825779677
 10
-8.9175479501
 20
31.3782902598
 10
-8.9082302964
 20
31.3751476376
 10
-8.8991260503
 20
31.373104651
 10
-8.8903502136
 20
31.3720664282
 10
-8.8821247002
 20
31.3720374166
 10
-8.8746254391
 20
31.3730784779
 10
-8.8678403369
 20
31.3751681649
 10
-8.8617581624
 20
31.3782510557
  0
LWPOLYLINE
  5
558
100
AcDbEntity
  8
RACCORDO
100
AcDbPolyline
 62
250
  6
CONTINUOUS
 90
3
 70
0
 10
-7.9441377674
 20
32.6665356611
 10
-7.9376921795
 20
32.6629427855
 10
-7.9268496244
 20
32.657044795
  0
LWPOLYLINE
  5
559
100
AcDbEntity
  8
RACCORDO
100
AcDbPolyline
 62
250
  6
CONTINUOUS
 90
6
 70
0
 10
-7.9268496244
 20
32.657044795
 10
-7.9226618559
 20
32.654690195
 10
-7.919285521
 20
32.6528675527
 10
-7.9167603163
 20
32.6515934616
 10
-7.9151910948
 20
32.650758404
 10
-7.9146223445
 20
32.6503078987
  0
LWPOLYLINE
  5
55A
100
AcDbEntity
  8
RACCORDO
100
AcDbPolyline
 62
250
  6
CONTINUOUS
 90
7
 70
0
 10
-8.0022704497
 20
32.6984180974
 10
-7.9933064264
 20
32.6933595045
 10
-7.9843298731
 20
32.6884588733
 10
-7.9754908243
 20
32.6837187232
 10
-7.9669910415
 20
32.6790834262
 10
-7.9589186358
 20
32.6745969893
 10
-7.9441377674
 20
32.6665356611
  0
LINE
  5
55B
100
AcDbEntity
  8
RACCORDO
100
AcDbLine
 62
7
  6
CONTINUOUS
 10
-3.3129155765
 20
37.6316314757
 11
-3.6419770242
 21
37.8804123033
  0
LWPOLYLINE
  5
55C
100
AcDbEntity
  8
0
100
AcDbPolyline
 62
7
  6
CONTINUOUS
 90
10
 70
0
 10
-5.8601651312
 20
64.2441052351
 10
-5.8445737558
 20
64.2193816632
 10
-5.8276820135
 20
64.1961358997
 10
-5.8094899043
 20
64.1743679447
 10
-5.7901357902
 20
64.1541693974
 10
-5.7694813091
 20
64.1354486585
 10
-5.7471113755
 20
64.1179309304
 10
-5.7228876274
 20
64.1015246139
 10
-5.6969484266
 20
64.0863213081
 10
-5.6692937733
 20
64.072321013
  0
LWPOLYLINE
  5
55D
100
AcDbEntity
  8
0
100
AcDbPolyline
 62
7
  6
CONTINUOUS
 90
10
 70
0
 10
-5.8601651312
 20
65.6820030723
 10
-5.8445736797
 20
65.6572793868
 10
-5.8276818729
 20
65.6340335279
 10
-5.8094897107
 20
65.6122654957
 10
-5.790135545
 20
65.5920668859
 10
-5.7694810239
 20
65.5733461027
 10
-5.7471110918
 20
65.5558283589
 10
-5.7228873967
 20
65.5394220586
 10
-5.6969482905
 20
65.5242187976
 10
-5.6692937733
 20
65.510218576
  0
LWPOLYLINE
  5
55E
100
AcDbEntity
  8
0
100
AcDbPolyline
 62
7
  6
CONTINUOUS
 90
10
 70
0
 10
-5.8601651312
 20
67.1199006353
 10
-5.8445736797
 20
67.0951769498
 10
-5.8276818729
 20
67.0719310909
 10
-5.8094897107
 20
67.0501630587
 10
-5.790135545
 20
67.0299644489
 10
-5.7694810239
 20
67.0112436657
 10
-5.7471110918
 20
66.9937259218
 10
-5.7228873967
 20
66.9773196216
 10
-5.6969482905
 20
66.9621163606
 10
-5.6692937733
 20
66.948116139
  0
LWPOLYLINE
  5
55F
100
AcDbEntity
  8
0
100
AcDbPolyline
 62
7
  6
CONTINUOUS
 90
10
 70
0
 10
-5.2748263003
 20
62.7171342347
 10
-5.2889574875
 20
62.7396403034
 10
-5.3033092037
 20
62.7618580638
 10
-5.3178814489
 20
62.7837875159
 10
-5.3326197341
 20
62.805353266
 10
-5.3475785483
 20
62.8266307078
 10
-5.3629213584
 20
62.8478460221
 10
-5.3787026533
 20
62.8690746027
 10
-5.394867944
 20
62.8902410559
 10
-5.4114172307
 20
62.9113453816
  0
LWPOLYLINE
  5
560
100
AcDbEntity
  8
RACCORDO
100
AcDbPolyline
 62
250
  6
CONTINUOUS
 90
12
 70
0
 10
-21.235803805
 20
36.5953710337
 10
-21.2433036802
 20
36.59369831
 10
-21.253023939
 20
36.5921138096
 10
-21.2649645815
 20
36.5906175326
 10
-21.2794762877
 20
36.5891997734
 10
-21.2962083774
 20
36.5878702376
 10
-21.314108811
 20
36.5866580417
 10
-21.3331335085
 20
36.5855747371
 10
-21.3533265498
 20
36.5846087723
 10
-21.373768135
 20
36.5837546102
 10
-21.3940556534
 20
36.5830211632
 10
-21.4145917156
 20
36.5823995189
  0
LWPOLYLINE
  5
561
100
AcDbEntity
  8
RACCORDO
100
AcDbPolyline
 62
250
  6
CONTINUOUS
 90
9
 70
0
 10
-21.088082642
 20
36.4455767873
 10
-21.0982296931
 20
36.443903736
 10
-21.1122255635
 20
36.4423190333
 10
-21.1297408882
 20
36.4408226793
 10
-21.1505300208
 20
36.439405035
 10
-21.1741736347
 20
36.4380757392
 10
-21.1999469381
 20
36.4368637095
 10
-21.2272972199
 20
36.4357804005
 10
-21.2558798397
 20
36.4348143574
  0
LINE
  5
562
100
AcDbEntity
  8
RACCORDO
100
AcDbLine
 62
7
  6
CONTINUOUS
 10
-23.1870742874
 20
34.9291931309
 11
-23.3419770242
 21
34.9156408975
  0
LINE
  5
563
100
AcDbEntity
  8
RACCORDO
100
AcDbLine
 62
7
  6
CONTINUOUS
 10
-2.1419770242
 20
37.6451837091
 11
-2.296879761
 21
37.6316314757
  0
LWPOLYLINE
  5
564
100
AcDbEntity
  8
RACCORDO
100
AcDbPolyline
 62
250
  6
CONTINUOUS
 90
19
 70
0
 10
-4.5781489494
 20
36.8589269286
 10
-4.6094368331
 20
36.8570114176
 10
-4.6393878339
 20
36.8525927129
 10
-4.6680019519
 20
36.8456708145
 10
-4.6955439689
 20
36.8358920318
 10
-4.7217491031
 20
36.8236100553
 10
-4.7458230093
 20
36.8098859571
 10
-4.7674316178
 20
36.7948517828
 10
-4.7869089982
 20
36.7783754866
 10
-4.8044630142
 20
36.7611220035
 10
-4.8200277135
 20
36.7433778881
 10
-4.8336690483
 20
36.7248565859
 10
-4.8457927395
 20
36.7053633679
 10
-4.8566073608
 20
36.6850084454
 10
-4.8659043384
 20
36.6636816071
 10
-4.8734636722
 20
36.6408574908
 10
-4.8792120288
 20
36.6163609754
 10
-4.8832227415
 20
36.5903671818
 10
-4.8854958103
 20
36.5628761101
  0
LWPOLYLINE
  5
565
100
AcDbEntity
  8
RACCORDO
100
AcDbPolyline
 62
250
  6
CONTINUOUS
 90
19
 70
0
 10
-20.8848276639
 20
35.7270213647
 10
-20.8552080164
 20
35.7286120816
 10
-20.8266109824
 20
35.7327211508
 10
-20.799036562
 20
35.7393485722
 10
-20.7721561041
 20
35.748793314
 10
-20.7462982597
 20
35.7607564081
 10
-20.722448982
 20
35.77434095
 10
-20.7009431735
 20
35.7894931668
 10
-20.6814459316
 20
35.8062668314
 10
-20.6639385021
 20
35.8239263582
 10
-20.648526311
 20
35.8422064185
 10
-20.6351039321
 20
35.861372341
 10
-20.623336333
 20
35.8814845259
 10
-20.6130487274
 20
35.9024074858
 10
-20.6044159014
 20
35.9242767081
 10
-20.5976271816
 20
35.9475590553
 10
-20.5927456768
 20
35.9724101483
 10
-20.5897082781
 20
35.9986743662
 10
-20.5885149856
 20
36.0263517091
  0
LINE
  5
566
100
AcDbEntity
  8
DRAFT
100
AcDbLine
 62
7
  6
CONTINUOUS
 10
-2.6419770242
 20
34.8685129299
 11
-2.1419770242
 21
34.8937687316
  0
LINE
  5
567
100
AcDbEntity
  8
DRAFT
100
AcDbLine
 62
7
  6
CONTINUOUS
 10
-23.3419770242
 20
37.667055875
 11
-22.8419770242
 21
37.6923116767
  0
LWPOLYLINE
  5
568
100
AcDbEntity
  8
RACCORDO
100
AcDbPolyline
 62
250
  6
CONTINUOUS
 90
19
 70
0
 10
-4.5781489505
 20
36.6934530137
 10
-4.5940819458
 20
36.6928285603
 10
-4.6095714858
 20
36.6907239628
 10
-4.624485542
 20
36.6872454374
 10
-4.6387887322
 20
36.6824823261
 10
-4.6523012931
 20
36.6765694148
 10
-4.6647281324
 20
36.6697472347
 10
-4.6759368874
 20
36.6622647649
 10
-4.6860406001
 20
36.6542311128
 10
-4.695148885
 20
36.6456928838
 10
-4.7032064195
 20
36.6368421343
 10
-4.710303596
 20
36.6277245743
 10
-4.7166858544
 20
36.6180731086
 10
-4.7223096709
 20
36.6079447785
 10
-4.7271307051
 20
36.5973865598
 10
-4.7312269176
 20
36.5860287834
 10
-4.7344872991
 20
36.573764003
 10
-4.7367181513
 20
36.5607921299
 10
-4.7377747934
 20
36.547196884
  0
LWPOLYLINE
  5
569
100
AcDbEntity
  8
RACCORDO
100
AcDbPolyline
 62
250
  6
CONTINUOUS
 90
19
 70
0
 10
-20.884827828
 20
35.8611367437
 10
-20.8697864054
 20
35.861708238
 10
-20.8550718565
 20
35.8636672491
 10
-20.8408075482
 20
35.8669655863
 10
-20.8270170929
 20
35.8715813595
 10
-20.8139078041
 20
35.8774256464
 10
-20.8018320477
 20
35.884259605
 10
-20.7909341531
 20
35.8918621765
 10
-20.7811273968
 20
35.9001403124
 10
-20.7723629861
 20
35.9089886896
 10
-20.7647008949
 20
35.9182024872
 10
-20.7580571286
 20
35.9277411742
 10
-20.7522246907
 20
35.937816084
 10
-20.7472441194
 20
35.948345355
 10
-20.7431478062
 20
35.9592888207
 10
-20.7398700685
 20
35.9710027544
 10
-20.7375171676
 20
35.9835864861
 10
-20.7362626603
 20
35.9968382689
 10
-20.736236521
 20
36.0106725503
  0
LWPOLYLINE
  5
56A
100
AcDbEntity
  8
RACCORDO
100
AcDbPolyline
 62
250
  6
CONTINUOUS
 90
10
 70
0
 10
-20.5885149856
 20
36.0263517091
 10
-20.6117047701
 20
36.0257380648
 10
-20.6343367596
 20
36.0247620397
 10
-20.6558665761
 20
36.0234471109
 10
-20.6757763527
 20
36.0218249067
 10
-20.6935871899
 20
36.0199344469
 10
-20.7088706752
 20
36.0178212037
 10
-20.7212591877
 20
36.0155360078
 10
-20.7304547405
 20
36.0131338261
 10
-20.7362361485
 20
36.0106724396
  0
LWPOLYLINE
  5
56B
100
AcDbEntity
  8
RACCORDO
100
AcDbPolyline
 62
250
  6
CONTINUOUS
 90
10
 70
0
 10
-20.598458238
 20
36.5628761101
 10
-20.6216488311
 20
36.5622624047
 10
-20.6442813625
 20
36.561286313
 10
-20.6658114362
 20
36.5599713238
 10
-20.6857211853
 20
36.5583490782
 10
-20.7035317752
 20
36.5564586044
 10
-20.7188149003
 20
36.554345376
 10
-20.7312030213
 20
36.5520602249
 10
-20.7403982206
 20
36.5496581202
 10
-20.746179401
 20
36.5471968406
  0
LINE
  5
56C
100
AcDbEntity
  8
RACCORDO
100
AcDbLine
 62
250
  6
CONTINUOUS
 10
-4.2280742087
 20
36.1260102491
 11
-4.1695764351
 21
36.1275979369
  0
LINE
  5
56D
100
AcDbEntity
  8
RACCORDO
100
AcDbLine
 62
250
  6
CONTINUOUS
 10
-21.2558798397
 20
36.4348143574
 11
-21.3143776132
 21
36.4332266696
  0
LWPOLYLINE
  5
56E
100
AcDbEntity
  8
RACCORDO
100
AcDbPolyline
 62
250
  6
CONTINUOUS
 90
3
 70
0
 10
-4.0693623327
 20
35.9784250876
 10
-4.0268267721
 20
35.9794406694
 10
-4.0048272738
 20
35.9798346069
  0
LWPOLYLINE
  5
56F
100
AcDbEntity
  8
RACCORDO
100
AcDbPolyline
 62
250
  6
CONTINUOUS
 90
3
 70
0
 10
-21.4145917156
 20
36.5823995189
 10
-21.4571272762
 20
36.5813839372
 10
-21.4791267746
 20
36.5809899997
  0
LINE
  5
570
100
AcDbEntity
  8
RACCORDO
100
AcDbLine
 62
250
  6
CONTINUOUS
 10
-4.1695764351
 20
36.1275979369
 11
-4.1103563371
 21
36.1287616837
  0
LINE
  5
571
100
AcDbEntity
  8
RACCORDO
100
AcDbLine
 62
250
  6
CONTINUOUS
 10
-21.3143776132
 20
36.4332266696
 11
-21.3735977113
 21
36.4320629229
  0
LINE
  5
572
100
AcDbEntity
  8
RACCORDO
100
AcDbLine
 62
250
  6
CONTINUOUS
 10
-4.1103563371
 20
36.1287616837
 11
-4.0482730537
 21
36.1296289911
  0
LINE
  5
573
100
AcDbEntity
  8
RACCORDO
100
AcDbLine
 62
250
  6
CONTINUOUS
 10
-21.3735977113
 20
36.4320629229
 11
-21.4356809947
 21
36.4311956155
  0
LINE
  5
574
100
AcDbEntity
  8
RACCORDO
100
AcDbLine
 62
250
  6
CONTINUOUS
 10
-4.0048272738
 20
35.9798346069
 11
-3.9567955217
 21
35.9803826974
  0
LINE
  5
575
100
AcDbEntity
  8
RACCORDO
100
AcDbLine
 62
250
  6
CONTINUOUS
 10
-21.4791267746
 20
36.5809899997
 11
-21.5271585267
 21
36.5804419092
  0
LINE
  5
576
100
AcDbEntity
  8
RACCORDO
100
AcDbLine
 62
250
  6
CONTINUOUS
 10
-17.9286946205
 20
34.3629998542
 11
-17.8287119966
 21
34.3636549718
  0
LINE
  5
577
100
AcDbEntity
  8
RACCORDO
100
AcDbLine
 62
250
  6
CONTINUOUS
 10
-17.9306165301
 20
34.9654305969
 11
-17.8306339062
 21
34.9660857145
  0
LINE
  5
578
100
AcDbEntity
  8
RACCORDO
100
AcDbLine
 62
250
  6
CONTINUOUS
 10
-17.9333904403
 20
35.5380545886
 11
-17.8334078164
 21
35.5387097061
  0
LINE
  5
579
100
AcDbEntity
  8
RACCORDO
100
AcDbLine
 62
250
  6
CONTINUOUS
 10
-4.0482730537
 20
36.1296289911
 11
-3.9794840383
 21
36.1301770525
  0
LINE
  5
57A
100
AcDbEntity
  8
RACCORDO
100
AcDbLine
 62
250
  6
CONTINUOUS
 10
-17.9366128606
 20
36.152489656
 11
-17.8366302366
 21
36.1531447736
  0
LINE
  5
57B
100
AcDbEntity
  8
RACCORDO
100
AcDbLine
 62
250
  6
CONTINUOUS
 10
-21.4356809947
 20
36.4311956155
 11
-21.5044700101
 21
36.430647554
  0
LINE
  5
57C
100
AcDbEntity
  8
RACCORDO
100
AcDbLine
 62
250
  6
CONTINUOUS
 10
-17.93916948
 20
36.5426753717
 11
-17.8391868561
 21
36.5433304893
  0
LINE
  5
57D
100
AcDbEntity
  8
RACCORDO
100
AcDbLine
 62
250
  6
CONTINUOUS
 10
-17.9391137569
 20
36.614089656
 11
-17.839131133
 21
36.6147447736
  0
LINE
  5
57E
100
AcDbEntity
  8
RACCORDO
100
AcDbLine
 62
250
  6
CONTINUOUS
 10
-3.9567955217
 20
35.9803826974
 11
-3.9034675298
 21
35.9806111153
  0
LINE
  5
57F
100
AcDbEntity
  8
RACCORDO
100
AcDbLine
 62
250
  6
CONTINUOUS
 10
-21.5271585267
 20
36.5804419092
 11
-21.5804865186
 21
36.5802134913
  0
LINE
  5
580
100
AcDbEntity
  8
RACCORDO
100
AcDbLine
 62
250
  6
CONTINUOUS
 10
-17.8287119966
 20
34.2948041559
 11
-7.6552420518
 21
34.2948041559
  0
LINE
  5
581
100
AcDbEntity
  8
RACCORDO
100
AcDbLine
 62
250
  6
CONTINUOUS
 10
-17.8287119966
 20
34.3636549718
 11
-7.6552420518
 21
34.3636549718
  0
LINE
  5
582
100
AcDbEntity
  8
DRAFT
100
AcDbLine
 62
7
  6
CONTINUOUS
 10
-2.6419770242
 20
34.6804123033
 11
-2.8591343117
 21
34.6804123033
  0
LINE
  5
583
100
AcDbEntity
  8
DRAFT
100
AcDbLine
 62
7
  6
CONTINUOUS
 10
-3.4248197367
 20
34.6804123033
 11
-3.6419770242
 21
34.6804123033
  0
LINE
  5
584
100
AcDbEntity
  8
DRAFT
100
AcDbLine
 62
7
  6
CONTINUOUS
 10
-21.8419770242
 20
34.6804123033
 11
-22.0591343117
 21
34.6804123033
  0
LINE
  5
585
100
AcDbEntity
  8
DRAFT
100
AcDbLine
 62
7
  6
CONTINUOUS
 10
-22.6248197367
 20
34.6804123033
 11
-22.8419770242
 21
34.6804123033
  0
LINE
  5
586
100
AcDbEntity
  8
DRAFT
100
AcDbLine
 62
7
  6
CONTINUOUS
 10
-3.097322441
 20
34.7853986995
 11
-3.1866316074
 21
34.7853986995
  0
LINE
  5
587
100
AcDbEntity
  8
DRAFT
100
AcDbLine
 62
7
  6
CONTINUOUS
 10
-22.297322441
 20
34.7853986995
 11
-22.3866316074
 21
34.7853986995
  0
LINE
  5
588
100
AcDbEntity
  8
RACCORDO
100
AcDbLine
 62
7
  6
CONTINUOUS
 10
-17.8315684879
 20
34.8039534949
 11
-7.6523855605
 21
34.8039534949
  0
LINE
  5
589
100
AcDbEntity
  8
RACCORDO
100
AcDbLine
 62
250
  6
CONTINUOUS
 10
-17.8306339062
 20
34.8972348985
 11
-7.6533201422
 21
34.8972348985
  0
LINE
  5
58A
100
AcDbEntity
  8
RACCORDO
100
AcDbLine
 62
250
  6
CONTINUOUS
 10
-2.296879761
 20
34.9291931309
 11
-3.3129155765
 21
34.9291931309
  0
LINE
  5
58B
100
AcDbEntity
  8
RACCORDO
100
AcDbLine
 62
250
  6
CONTINUOUS
 10
-22.1710384718
 20
34.9291931309
 11
-23.1870742874
 21
34.9291931309
  0
LINE
  5
58C
100
AcDbEntity
  8
RACCORDO
100
AcDbLine
 62
250
  6
CONTINUOUS
 10
-17.8306339062
 20
34.9660857145
 11
-7.6533201422
 21
34.9660857145
  0
LINE
  5
58D
100
AcDbEntity
  8
RACCORDO
100
AcDbLine
 62
250
  6
CONTINUOUS
 10
-2.7533018896
 20
35.4272904799
 11
-3.2600979878
 21
35.4272904799
  0
LINE
  5
58E
100
AcDbEntity
  8
RACCORDO
100
AcDbLine
 62
250
  6
CONTINUOUS
 10
-22.2238560605
 20
35.4272904799
 11
-22.7306521588
 21
35.4272904799
  0
LINE
  5
58F
100
AcDbEntity
  8
RACCORDO
100
AcDbLine
 62
7
  6
CONTINUOUS
 10
-17.8337092005
 20
35.4397774866
 11
-7.6502448479
 21
35.4397774866
  0
LINE
  5
590
100
AcDbEntity
  8
RACCORDO
100
AcDbLine
 62
250
  6
CONTINUOUS
 10
-17.8334078164
 20
35.4698588902
 11
-7.650546232
 21
35.4698588902
  0
LINE
  5
591
100
AcDbEntity
  8
RACCORDO
100
AcDbLine
 62
250
  6
CONTINUOUS
 10
-17.8334078164
 20
35.5387097061
 11
-7.650546232
 21
35.5387097061
  0
LINE
  5
592
100
AcDbEntity
  8
RACCORDO
100
AcDbLine
 62
250
  6
CONTINUOUS
 10
-21.8419770242
 20
35.7270213647
 11
-20.8848276639
 21
35.7270213647
  0
LINE
  5
593
100
AcDbEntity
  8
RACCORDO
100
AcDbLine
 62
250
  6
CONTINUOUS
 10
-4.5991263988
 20
35.7270213647
 11
-3.6419770242
 21
35.7270213647
  0
LINE
  5
594
100
AcDbEntity
  8
RACCORDO
100
AcDbLine
 62
250
  6
CONTINUOUS
 10
-21.8419770242
 20
35.8611365254
 11
-20.8848270936
 21
35.8611365254
  0
LINE
  5
595
100
AcDbEntity
  8
RACCORDO
100
AcDbLine
 62
250
  6
CONTINUOUS
 10
-4.5991269548
 20
35.8611365254
 11
-3.6419770242
 21
35.8611365254
  0
LINE
  5
596
100
AcDbEntity
  8
RACCORDO
100
AcDbLine
 62
250
  6
CONTINUOUS
 10
-3.9034675298
 20
35.9806111153
 11
-3.5311336953
 21
35.9806111153
  0
LINE
  5
597
100
AcDbEntity
  8
RACCORDO
100
AcDbLine
 62
7
  6
CONTINUOUS
 10
-17.8368260878
 20
36.0647458874
 11
-7.6471279606
 21
36.0647458874
  0
LINE
  5
598
100
AcDbEntity
  8
RACCORDO
100
AcDbLine
 62
250
  6
CONTINUOUS
 10
-17.8366302366
 20
36.0842939577
 11
-7.6473238117
 21
36.0842939577
  0
LINE
  5
599
100
AcDbEntity
  8
RACCORDO
100
AcDbLine
 62
250
  6
CONTINUOUS
 10
-3.9794840383
 20
36.1301770525
 11
-3.5146840121
 21
36.1304055455
  0
LINE
  5
59A
100
AcDbEntity
  8
RACCORDO
100
AcDbLine
 62
250
  6
CONTINUOUS
 10
-17.8366302366
 20
36.1531447736
 11
-7.6473238117
 21
36.1531447736
  0
LINE
  5
59B
100
AcDbEntity
  8
RACCORDO
100
AcDbLine
 62
250
  6
CONTINUOUS
 10
-6.6561174949
 20
36.4107805763
 11
-7.0419770242
 21
36.4107805763
  0
LINE
  5
59C
100
AcDbEntity
  8
RACCORDO
100
AcDbLine
 62
250
  6
CONTINUOUS
 10
-18.4419770242
 20
36.4107805763
 11
-18.8278365535
 21
36.4107805763
  0
LINE
  5
59D
100
AcDbEntity
  8
RACCORDO
100
AcDbLine
 62
250
  6
CONTINUOUS
 10
-21.5044700101
 20
36.430647554
 11
-21.9692700363
 21
36.4304190611
  0
LINE
  5
59E
100
AcDbEntity
  8
RACCORDO
100
AcDbLine
 62
7
  6
CONTINUOUS
 10
-17.8391868561
 20
36.5433304893
 11
-7.6447671923
 21
36.5433304893
  0
LINE
  5
59F
100
AcDbEntity
  8
RACCORDO
100
AcDbLine
 62
250
  6
CONTINUOUS
 10
-21.5804865186
 20
36.5802134913
 11
-21.952820353
 21
36.5802134913
  0
LINE
  5
5A0
100
AcDbEntity
  8
RACCORDO
100
AcDbLine
 62
250
  6
CONTINUOUS
 10
-17.839131133
 20
36.6147447736
 11
-7.6448229154
 21
36.6147447736
  0
LINE
  5
5A1
100
AcDbEntity
  8
RACCORDO
100
AcDbLine
 62
250
  6
CONTINUOUS
 10
-3.6419770242
 20
36.6934532289
 11
-4.5781496744
 21
36.6934532289
  0
LINE
  5
5A2
100
AcDbEntity
  8
RACCORDO
100
AcDbLine
 62
250
  6
CONTINUOUS
 10
-20.905804374
 20
36.6934532289
 11
-21.8419770242
 21
36.6934532289
  0
LINE
  5
5A3
100
AcDbEntity
  8
RACCORDO
100
AcDbLine
 62
250
  6
CONTINUOUS
 10
-3.6419770242
 20
36.8589269286
 11
-4.5781489494
 21
36.8589269286
  0
LINE
  5
5A4
100
AcDbEntity
  8
RACCORDO
100
AcDbLine
 62
250
  6
CONTINUOUS
 10
-20.9058048605
 20
36.8589269286
 11
-21.8419770242
 21
36.8589269286
  0
LINE
  5
5A5
100
AcDbEntity
  8
RACCORDO
100
AcDbLine
 62
250
  6
CONTINUOUS
 10
-6.6518302134
 20
36.9107044239
 11
-7.4321238349
 21
36.9107044239
  0
LINE
  5
5A6
100
AcDbEntity
  8
RACCORDO
100
AcDbLine
 62
250
  6
CONTINUOUS
 10
-18.0518302134
 20
36.9107044239
 11
-18.8321238349
 21
36.9107044239
  0
LINE
  5
5A7
100
AcDbEntity
  8
DRAFT
100
AcDbLine
 62
7
  6
CONTINUOUS
 10
-6.6453187857
 20
36.9237282713
 11
-7.4386352627
 21
36.9237282713
  0
LINE
  5
5A8
100
AcDbEntity
  8
DRAFT
100
AcDbLine
 62
7
  6
CONTINUOUS
 10
-18.0453187857
 20
36.9237282713
 11
-18.8386352627
 21
36.9237282713
  0
LINE
  5
5A9
100
AcDbEntity
  8
RACCORDO
100
AcDbLine
 62
7
  6
CONTINUOUS
 10
-17.8420153682
 20
37.0549304893
 11
-7.6419386802
 21
37.0549304893
  0
LINE
  5
5AA
100
AcDbEntity
  8
DRAFT
100
AcDbLine
 62
250
  6
CONTINUOUS
 10
-17.9402315177
 20
37.1263447736
 11
-7.5437225307
 21
37.1263447736
  0
LINE
  5
5AB
100
AcDbEntity
  8
RACCORDO
100
AcDbLine
 62
250
  6
CONTINUOUS
 10
-22.7306521588
 20
37.1335341266
 11
-22.2238560605
 21
37.1335341266
  0
LINE
  5
5AC
100
AcDbEntity
  8
RACCORDO
100
AcDbLine
 62
250
  6
CONTINUOUS
 10
-3.2600979878
 20
37.1335341266
 11
-2.7533018896
 21
37.1335341266
  0
LINE
  5
5AD
100
AcDbEntity
  8
RACCORDO
100
AcDbLine
 62
250
  6
CONTINUOUS
 10
-23.1870742874
 20
37.6316314757
 11
-22.1710384718
 21
37.6316314757
  0
LINE
  5
5AE
100
AcDbEntity
  8
RACCORDO
100
AcDbLine
 62
250
  6
CONTINUOUS
 10
-3.3129155765
 20
37.6316314757
 11
-2.296879761
 21
37.6316314757
  0
LINE
  5
5AF
100
AcDbEntity
  8
DRAFT
100
AcDbLine
 62
7
  6
CONTINUOUS
 10
-3.097322441
 20
37.7754259071
 11
-3.1866316074
 21
37.7754259071
  0
LINE
  5
5B0
100
AcDbEntity
  8
DRAFT
100
AcDbLine
 62
7
  6
CONTINUOUS
 10
-22.297322441
 20
37.7754259071
 11
-22.3866316074
 21
37.7754259071
  0
LINE
  5
5B1
100
AcDbEntity
  8
DRAFT
100
AcDbLine
 62
7
  6
CONTINUOUS
 10
-2.6419770242
 20
37.8804123033
 11
-2.8591343117
 21
37.8804123033
  0
LINE
  5
5B2
100
AcDbEntity
  8
DRAFT
100
AcDbLine
 62
7
  6
CONTINUOUS
 10
-3.4248197367
 20
37.8804123033
 11
-3.6419770242
 21
37.8804123033
  0
LINE
  5
5B3
100
AcDbEntity
  8
DRAFT
100
AcDbLine
 62
7
  6
CONTINUOUS
 10
-21.8419770242
 20
37.8804123033
 11
-22.0591343117
 21
37.8804123033
  0
LINE
  5
5B4
100
AcDbEntity
  8
DRAFT
100
AcDbLine
 62
7
  6
CONTINUOUS
 10
-22.6248197367
 20
37.8804123033
 11
-22.8419770242
 21
37.8804123033
  0
LINE
  5
5B5
100
AcDbEntity
  8
0
100
AcDbLine
 62
7
  6
CONTINUOUS
 10
-10.2419770242
 20
38.2553724936
 11
-15.2419770242
 21
38.2553724936
  0
LINE
  5
5B6
100
AcDbEntity
  8
SMUSSO
100
AcDbLine
 62
7
  6
CONTINUOUS
 10
-21.8419770242
 20
38.7831513556
 11
-17.9328666131
 21
38.7831513556
  0
LINE
  5
5B7
100
AcDbEntity
  8
SMUSSO
100
AcDbLine
 62
7
  6
CONTINUOUS
 10
-7.5510874353
 20
38.7831513556
 11
-3.6419770242
 21
38.7831513556
  0
LINE
  5
5B8
100
AcDbEntity
  8
SMUSSO
100
AcDbLine
 62
7
  6
CONTINUOUS
 10
-21.8419770242
 20
39.2804123033
 11
-17.929608403
 21
39.2804123033
  0
LINE
  5
5B9
100
AcDbEntity
  8
SMUSSO
100
AcDbLine
 62
7
  6
CONTINUOUS
 10
-7.5543456453
 20
39.2804123033
 11
-3.6419770242
 21
39.2804123033
  0
LINE
  5
5BA
100
AcDbEntity
  8
0
100
AcDbLine
 62
7
  6
CONTINUOUS
 10
-2.6419770242
 20
39.2804123033
 11
-3.6419770242
 21
39.2804123033
  0
LINE
  5
5BB
100
AcDbEntity
  8
0
100
AcDbLine
 62
7
  6
CONTINUOUS
 10
-21.8419770242
 20
39.2804123033
 11
-22.8419770242
 21
39.2804123033
  0
LINE
  5
5BC
100
AcDbEntity
  8
RACCORDO
100
AcDbLine
 62
7
  6
CONTINUOUS
 10
-5.0419008718
 20
39.5304123033
 11
-7.4553416765
 21
39.5304123033
  0
LINE
  5
5BD
100
AcDbEntity
  8
RACCORDO
100
AcDbLine
 62
7
  6
CONTINUOUS
 10
-18.0286123719
 20
39.5304123033
 11
-20.4420531766
 21
39.5304123033
  0
LINE
  5
5BE
100
AcDbEntity
  8
RACCORDO
100
AcDbLine
 62
250
  6
CONTINUOUS
 10
-21.9692700363
 20
36.1304055455
 11
-21.5354639736
 21
36.1303172825
  0
LINE
  5
5BF
100
AcDbEntity
  8
RACCORDO
100
AcDbLine
 62
250
  6
CONTINUOUS
 10
-3.5146840121
 20
36.4304190611
 11
-3.9484900748
 21
36.4305073241
  0
LWPOLYLINE
  5
5C0
100
AcDbEntity
  8
RACCORDO
100
AcDbPolyline
 62
250
  6
CONTINUOUS
 90
19
 70
0
 10
-21.952820353
 20
35.9806111153
 10
-21.5486259175
 20
35.9805229234
 10
-21.5178474294
 20
35.980306315
 10
-21.4881510544
 20
35.97996129
 10
-21.459262501
 20
35.9794728052
 10
-21.4314560605
 20
35.9788559039
 10
-21.4055546077
 20
35.9781557161
 10
-21.3817880752
 20
35.9773712039
 10
-21.3599265304
 20
35.9765034051
 10
-21.3401030492
 20
35.9756005636
 10
-21.3225744592
 20
35.9746819572
 10
-21.3070839328
 20
35.9737283081
 10
-21.2929940642
 20
35.9727300261
 10
-21.2801216456
 20
35.9716961478
 10
-21.2686498846
 20
35.9706176366
 10
-21.2584909984
 20
35.9694577934
 10
-21.2496157259
 20
35.9682043852
 10
-21.2420533281
 20
35.9668696451
 10
-21.235803805
 20
35.9654535729
  0
LWPOLYLINE
  5
5C1
100
AcDbEntity
  8
RACCORDO
100
AcDbPolyline
 62
250
  6
CONTINUOUS
 90
19
 70
0
 10
-3.5311336953
 20
36.5802134913
 10
-3.9353281309
 20
36.5803016832
 10
-3.966106619
 20
36.5805182916
 10
-3.995802994
 20
36.5808633165
 10
-4.0246915474
 20
36.5813518013
 10
-4.0524979878
 20
36.5819687027
 10
-4.0783994407
 20
36.5826688905
 10
-4.1021659731
 20
36.5834534027
 10
-4.124027518
 20
36.5843212014
 10
-4.1438509991
 20
36.5852240429
 10
-4.1613795892
 20
36.5861426493
 10
-4.1768701155
 20
36.5870962985
 10
-4.1909599842
 20
36.5880945804
 10
-4.2038324028
 20
36.5891284588
 10
-4.2153041638
 20
36.59020697
 10
-4.22546305
 20
36.5913668131
 10
-4.2343383225
 20
36.5926202213
 10
-4.2419007203
 20
36.5939549615
 10
-4.2481502434
 20
36.5953710337
  0
LINE
  5
5C2
100
AcDbEntity
  8
RACCORDO
100
AcDbLine
 62
250
  6
CONTINUOUS
 10
-7.5552594279
 20
34.3629998542
 11
-7.6552420518
 21
34.3636549718
  0
LINE
  5
5C3
100
AcDbEntity
  8
RACCORDO
100
AcDbLine
 62
250
  6
CONTINUOUS
 10
-7.5533375183
 20
34.9654305969
 11
-7.6533201422
 21
34.9660857145
  0
LINE
  5
5C4
100
AcDbEntity
  8
RACCORDO
100
AcDbLine
 62
250
  6
CONTINUOUS
 10
-7.550563608
 20
35.5380545886
 11
-7.650546232
 21
35.5387097061
  0
LINE
  5
5C5
100
AcDbEntity
  8
RACCORDO
100
AcDbLine
 62
250
  6
CONTINUOUS
 10
-7.5473411878
 20
36.152489656
 11
-7.6473238117
 21
36.1531447736
  0
LINE
  5
5C6
100
AcDbEntity
  8
RACCORDO
100
AcDbLine
 62
250
  6
CONTINUOUS
 10
-7.5447845683
 20
36.5426753717
 11
-7.6447671923
 21
36.5433304893
  0
LINE
  5
5C7
100
AcDbEntity
  8
RACCORDO
100
AcDbLine
 62
250
  6
CONTINUOUS
 10
-7.5448402914
 20
36.614089656
 11
-7.6448229154
 21
36.6147447736
  0
LINE
  5
5C8
100
AcDbEntity
  8
RACCORDO
100
AcDbLine
 62
250
  6
CONTINUOUS
 10
-21.5354639736
 20
36.1303172825
 11
-21.4485787137
 21
36.1297556056
  0
LINE
  5
5C9
100
AcDbEntity
  8
RACCORDO
100
AcDbLine
 62
250
  6
CONTINUOUS
 10
-3.9484900748
 20
36.4305073241
 11
-4.0353753347
 21
36.4310690009
  0
LINE
  5
5CA
100
AcDbEntity
  8
RACCORDO
100
AcDbLine
 62
250
  6
CONTINUOUS
 10
-21.4485787137
 20
36.1297556056
 11
-21.3675258685
 21
36.1286503453
  0
LINE
  5
5CB
100
AcDbEntity
  8
RACCORDO
100
AcDbLine
 62
250
  6
CONTINUOUS
 10
-4.0353753347
 20
36.4310690009
 11
-4.1164281799
 21
36.4321742613
  0
LINE
  5
5CC
100
AcDbEntity
  8
RACCORDO
100
AcDbLine
 62
250
  6
CONTINUOUS
 10
-21.3675258685
 20
36.1286503453
 11
-21.2965344007
 21
36.1271656732
  0
LINE
  5
5CD
100
AcDbEntity
  8
RACCORDO
100
AcDbLine
 62
250
  6
CONTINUOUS
 10
-4.1164281799
 20
36.4321742613
 11
-4.1874196477
 21
36.4336589334
  0
LWPOLYLINE
  5
5CE
100
AcDbEntity
  8
RACCORDO
100
AcDbPolyline
 62
250
  6
CONTINUOUS
 90
10
 70
0
 10
-4.8954390628
 20
36.0263517091
 10
-4.872248784
 20
36.0257379467
 10
-4.8496164638
 20
36.0247618204
 10
-4.8280864912
 20
36.0234468142
 10
-4.8081767335
 20
36.0218245647
 10
-4.7903660495
 20
36.0199340965
 10
-4.7750827846
 20
36.0178208827
 10
-4.76269451
 20
36.0155357545
 10
-4.7534991711
 20
36.0131336803
 10
-4.7477178998
 20
36.0106724396
  0
LWPOLYLINE
  5
5CF
100
AcDbEntity
  8
RACCORDO
100
AcDbPolyline
 62
250
  6
CONTINUOUS
 90
10
 70
0
 10
-4.8854958103
 20
36.5628761101
 10
-4.8623060258
 20
36.5622624657
 10
-4.8396740363
 20
36.5612864407
 10
-4.8181442198
 20
36.5599715118
 10
-4.7982344432
 20
36.5583493077
 10
-4.780423606
 20
36.5564588479
 10
-4.7651401207
 20
36.5543456046
 10
-4.7527516082
 20
36.5520604087
 10
-4.7435560555
 20
36.5496582271
 10
-4.7377746474
 20
36.5471968406
  0
LWPOLYLINE
  5
5D0
100
AcDbEntity
  8
RACCORDO
100
AcDbPolyline
 62
250
  6
CONTINUOUS
 90
11
 70
0
 10
-21.2965344007
 20
36.1271656732
 10
-21.2370815634
 20
36.1253949388
 10
-21.2121591846
 20
36.1244762943
 10
-21.1900266805
 20
36.1235226144
 10
-21.1697830141
 20
36.1225243537
 10
-21.1515195813
 20
36.1214906085
 10
-21.135267778
 20
36.1204122824
 10
-21.1204929141
 20
36.1192525423
 10
-21.1073597905
 20
36.1179991101
 10
-21.0964381584
 20
36.1166642637
 10
-21.088082642
 20
36.1152480031
  0
LWPOLYLINE
  5
5D1
100
AcDbEntity
  8
RACCORDO
100
AcDbPolyline
 62
250
  6
CONTINUOUS
 90
11
 70
0
 10
-4.1874196477
 20
36.4336589334
 10
-4.246872485
 20
36.4354296678
 10
-4.2717948637
 20
36.4363483123
 10
-4.2939273679
 20
36.4373019922
 10
-4.3141710343
 20
36.4383002528
 10
-4.3324344671
 20
36.4393339981
 10
-4.3486862704
 20
36.4404123241
 10
-4.3634611343
 20
36.4415720643
 10
-4.3765942579
 20
36.4428254965
 10
-4.38751589
 20
36.4441603429
 10
-4.3958714063
 20
36.4455766034
  0
LINE
  5
5D2
100
AcDbEntity
  8
DRAFT
100
AcDbLine
 62
7
  6
CONTINUOUS
 10
-23.3419770242
 20
34.8937687316
 11
-22.8419770242
 21
34.8685129299
  0
LINE
  5
5D3
100
AcDbEntity
  8
DRAFT
100
AcDbLine
 62
7
  6
CONTINUOUS
 10
-2.6419770242
 20
37.6923116767
 11
-2.1419770242
 21
37.667055875
  0
LWPOLYLINE
  5
5D4
100
AcDbEntity
  8
RACCORDO
100
AcDbPolyline
 62
7
  6
CONTINUOUS
 90
16
 70
0
 10
-7.6419386802
 20
37.0549304893
 10
-7.6318270866
 20
37.0541387667
 10
-7.6218060084
 20
37.0527263087
 10
-7.6119795355
 20
37.0506937971
 10
-7.6024604145
 20
37.0478345522
 10
-7.5933389523
 20
37.0443565842
 10
-7.5846860313
 20
37.0408826139
 10
-7.5766365838
 20
37.0374373118
 10
-7.5692411689
 20
37.0339972227
 10
-7.5624789488
 20
37.0311131069
 10
-7.5563572295
 20
37.0288283285
 10
-7.5511681459
 20
37.0271014854
 10
-7.5472012404
 20
37.0263554233
 10
-7.5444480351
 20
37.0267304029
 10
-7.5427761629
 20
37.0280852406
 10
-7.5421123677
 20
37.0304194565
  0
LINE
  5
5D5
100
AcDbEntity
  8
RACCORDO
100
AcDbLine
 62
7
  6
CONTINUOUS
 10
-2.1419770242
 20
34.9156408975
 11
-2.296879761
 21
34.9291931309
  0
LINE
  5
5D6
100
AcDbEntity
  8
RACCORDO
100
AcDbLine
 62
7
  6
CONTINUOUS
 10
-23.1870742874
 20
37.6316314757
 11
-23.3419770242
 21
37.6451837091
  0
LINE
  5
5D7
100
AcDbEntity
  8
RACCORDO
100
AcDbLine
 62
250
  6
CONTINUOUS
 10
-4.3958714063
 20
36.4455766034
 11
-4.7377746474
 21
36.5471968406
  0
LINE
  5
5D8
100
AcDbEntity
  8
RACCORDO
100
AcDbLine
 62
250
  6
CONTINUOUS
 10
-4.2481502434
 20
36.5953710337
 11
-4.5781496744
 21
36.6934532289
  0
LWPOLYLINE
  5
5D9
100
AcDbEntity
  8
DRAFT
100
AcDbPolyline
 62
7
  6
CONTINUOUS
 90
5
 70
0
 10
-3.0646808527
 20
34.7718941531
 10
-3.0729362856
 20
34.7754007842
 10
-3.0811416597
 20
34.7788212854
 10
-3.0892703782
 20
34.7821539238
 10
-3.097322441
 20
34.7853986995
  0
LWPOLYLINE
  5
5DA
100
AcDbEntity
  8
DRAFT
100
AcDbPolyline
 62
7
  6
CONTINUOUS
 90
5
 70
0
 10
-3.2192731957
 20
37.7889304535
 10
-3.2110177627
 20
37.7854238224
 10
-3.2028123887
 20
37.7820033212
 10
-3.1946836702
 20
37.7786706827
 10
-3.1866316074
 20
37.7754259071
  0
LINE
  5
5DB
100
AcDbEntity
  8
DRAFT
100
AcDbLine
 62
7
  6
CONTINUOUS
 10
-3.0392009303
 20
34.7608317421
 11
-3.0646808527
 21
34.7718941531
  0
LINE
  5
5DC
100
AcDbEntity
  8
DRAFT
100
AcDbLine
 62
7
  6
CONTINUOUS
 10
-3.244753118
 20
37.7999928645
 11
-3.2192731957
 21
37.7889304535
  0
LINE
  5
5DD
100
AcDbEntity
  8
DRAFT
100
AcDbLine
 62
7
  6
CONTINUOUS
 10
-2.9931525752
 20
34.7404684548
 11
-3.0392009303
 21
34.7608317421
  0
LINE
  5
5DE
100
AcDbEntity
  8
DRAFT
100
AcDbLine
 62
7
  6
CONTINUOUS
 10
-3.2908014732
 20
37.8203561518
 11
-3.244753118
 21
37.7999928645
  0
LINE
  5
5DF
100
AcDbEntity
  8
DRAFT
100
AcDbLine
 62
7
  6
CONTINUOUS
 10
-2.8591343117
 20
34.6804123033
 11
-2.9931525752
 21
34.7404684548
  0
LINE
  5
5E0
100
AcDbEntity
  8
DRAFT
100
AcDbLine
 62
7
  6
CONTINUOUS
 10
-3.4248197367
 20
37.8804123033
 11
-3.2908014732
 21
37.8203561518
  0
LINE
  5
5E1
100
AcDbEntity
  8
RACCORDO
100
AcDbLine
 62
7
  6
CONTINUOUS
 10
-3.6419770242
 20
36.6304123033
 11
-3.5311336953
 21
36.5802134913
  0
LWPOLYLINE
  5
5E2
100
AcDbEntity
  8
0
100
AcDbPolyline
 62
7
  6
CONTINUOUS
 90
10
 70
0
 10
-5.7042868556
 20
62.9270927284
 10
-5.6825544296
 20
62.9008333222
 10
-5.6618386325
 20
62.8753201268
 10
-5.6421394641
 20
62.8505531424
 10
-5.623459379
 20
62.826550422
 10
-5.6057959227
 20
62.8032939125
 10
-5.589141732
 20
62.7807294549
 10
-5.5734943526
 20
62.7588389962
 10
-5.5588562388
 20
62.7376405895
 10
-5.5452273906
 20
62.7171342347
  0
LWPOLYLINE
  5
5E3
100
AcDbEntity
  8
0
100
AcDbPolyline
 62
7
  6
CONTINUOUS
 90
10
 70
0
 10
-4.8612716914
 20
62.023634899
 10
-4.8726552775
 20
62.0374407507
 10
-4.8848010299
 20
62.0507203606
 10
-4.8977089484
 20
62.0634737288
 10
-4.9113590887
 20
62.0757130272
 10
-4.9257713953
 20
62.0874260838
 10
-4.9410057016
 20
62.0985763825
 10
-4.9570819522
 20
62.1091517511
 10
-4.9739802026
 20
62.1191643617
 10
-4.9917004527
 20
62.1286142144
  0
LWPOLYLINE
  5
5E4
100
AcDbEntity
  8
0
100
AcDbPolyline
 62
7
  6
CONTINUOUS
 90
10
 70
0
 10
-5.4114172307
 20
62.9113453816
 10
-5.4270269838
 20
62.9305644077
 10
-5.4431728671
 20
62.9498217475
 10
-5.4598548807
 20
62.969117401
 10
-5.4770926095
 20
62.9884344688
 10
-5.4948664686
 20
63.0077898504
 10
-5.5131177031
 20
63.0272342438
 10
-5.5318267283
 20
63.0467845484
 10
-5.5510131289
 20
63.0664238649
 10
-5.570676905
 20
63.0861521933
  0
LWPOLYLINE
  5
5E5
100
AcDbEntity
  8
0
100
AcDbPolyline
 62
7
  6
CONTINUOUS
 90
10
 70
0
 10
-3.8027173123
 20
64.7047642402
 10
-3.7932510696
 20
64.692124049
 10
-3.7847515553
 20
64.6782371499
 10
-3.7772187694
 20
64.6631035427
 10
-3.7705825509
 20
64.6468337461
 10
-3.7649130608
 20
64.6293172415
 10
-3.7604207819
 20
64.6102224731
 10
-3.7571758752
 20
64.5894389222
 10
-3.7551081798
 20
64.5670771076
 10
-3.7542176956
 20
64.5431370292
  0
LWPOLYLINE
  5
5E6
100
AcDbEntity
  8
0
100
AcDbPolyline
 62
7
  6
CONTINUOUS
 90
10
 70
0
 10
-3.8027173123
 20
66.1426620773
 10
-3.7932510927
 20
66.1300219194
 10
-3.7847515931
 20
66.1161350316
 10
-3.7772188135
 20
66.1010014139
 10
-3.7705825894
 20
66.0847315769
 10
-3.7649130855
 20
66.0672150099
 10
-3.7604207948
 20
66.0481201811
 10
-3.7571758817
 20
66.0273365799
 10
-3.755108182
 20
66.004974717
 10
-3.7542176956
 20
65.9810345922
  0
LWPOLYLINE
  5
5E7
100
AcDbEntity
  8
0
100
AcDbPolyline
 62
7
  6
CONTINUOUS
 90
10
 70
0
 10
-5.6788372749
 20
64.3808962888
 10
-5.6888343266
 20
64.3947839954
 10
-5.697785205
 20
64.409668093
 10
-5.70568991
 20
64.4255485816
 10
-5.712600743
 20
64.4422564851
 10
-5.7184654026
 20
64.4599607797
 10
-5.7231269855
 20
64.4791683937
 10
-5.7265331904
 20
64.5000483034
 10
-5.7287363186
 20
64.5224315327
 10
-5.72973637
 20
64.5463180814
  0
LWPOLYLINE
  5
5E8
100
AcDbEntity
  8
0
100
AcDbPolyline
 62
7
  6
CONTINUOUS
 90
10
 70
0
 10
-5.6788372087
 20
65.8187939028
 10
-5.6888343045
 20
65.8326817244
 10
-5.6977852152
 20
65.8475659076
 10
-5.7056899407
 20
65.8634464524
 10
-5.7126007786
 20
65.8801543836
 10
-5.7184654313
 20
65.8978586763
 10
-5.7231270061
 20
65.9170662562
 10
-5.7265332053
 20
65.9379460984
 10
-5.7287363266
 20
65.9603292278
 10
-5.72973637
 20
65.9842156444
  0
LWPOLYLINE
  5
5E9
100
AcDbEntity
  8
0
100
AcDbPolyline
 62
7
  6
CONTINUOUS
 90
10
 70
0
 10
-5.6788372087
 20
67.2566914658
 10
-5.6888343045
 20
67.2705792874
 10
-5.6977852152
 20
67.2854634706
 10
-5.7056899407
 20
67.3013440154
 10
-5.7126007786
 20
67.3180519465
 10
-5.7184654313
 20
67.3357562393
 10
-5.7231270061
 20
67.3549638192
 10
-5.7265332053
 20
67.3758436614
 10
-5.7287363266
 20
67.3982267908
 10
-5.72973637
 20
67.4221132074
  0
LINE
  5
5EA
100
AcDbEntity
  8
DRAFT
100
AcDbLine
 62
7
  6
CONTINUOUS
 10
-8.4221316186
 20
69.3503761133
 11
-8.4079562781
 21
69.3304123033
  0
LINE
  5
5EB
100
AcDbEntity
  8
RACCORDO
100
AcDbLine
 62
250
  6
CONTINUOUS
 10
-8.4111875568
 20
70.0767993632
 11
-8.0353457062
 21
69.5474833102
  0
LINE
  5
5EC
100
AcDbEntity
  8
RACCORDO
100
AcDbLine
 62
7
  6
CONTINUOUS
 10
-8.1521400854
 20
69.9710502708
 11
-7.9130459098
 21
69.6343225087
  0
LINE
  5
5ED
100
AcDbEntity
  8
DRAFT
100
AcDbLine
 62
7
  6
CONTINUOUS
 10
-7.8963150173
 20
69.6462023102
 11
-8.0919770242
 21
69.9217624721
  0
LWPOLYLINE
  5
5EE
100
AcDbEntity
  8
0
100
AcDbPolyline
 62
7
  6
CONTINUOUS
 90
10
 70
0
 10
-3.6269701098
 20
64.8485312011
 10
-3.6436674271
 20
64.8733364297
 10
-3.6616965526
 20
64.8966265309
 10
-3.6810574861
 20
64.9184015048
 10
-3.701551147
 20
64.9385472126
 10
-3.7233766161
 20
64.9571777931
 10
-3.7471311356
 20
64.9746356626
 10
-3.7730137866
 20
64.9910349597
 10
-3.800825488
 20
65.0062615458
 10
-3.8305662401
 20
65.0203154209
  0
LWPOLYLINE
  5
5EF
100
AcDbEntity
  8
0
100
AcDbPolyline
 62
7
  6
CONTINUOUS
 90
10
 70
0
 10
-3.6269701098
 20
66.2864287641
 10
-3.643667509
 20
66.3112341073
 10
-3.6616967034
 20
66.3345243044
 10
-3.681057693
 20
66.3562993553
 10
-3.7015514071
 20
66.3764451242
 10
-3.7233769163
 20
66.3950757469
 10
-3.747131433
 20
66.4125336309
 10
-3.7730140279
 20
66.428932912
 10
-3.8008256303
 20
66.4441594544
 10
-3.8305662401
 20
66.458213258
  0
LWPOLYLINE
  5
5F0
100
AcDbEntity
  8
0
100
AcDbPolyline
 62
7
  6
CONTINUOUS
 90
10
 70
0
 10
-3.6269701098
 20
67.7243263271
 10
-3.643667509
 20
67.7491316703
 10
-3.6616967034
 20
67.7724218674
 10
-3.681057693
 20
67.7941969183
 10
-3.7015514071
 20
67.8143426871
 10
-3.7233769163
 20
67.8329733098
 10
-3.747131433
 20
67.8504311938
 10
-3.7730140279
 20
67.8668304749
 10
-3.8008256303
 20
67.8820570173
 10
-3.8305662401
 20
67.896110821
  0
LWPOLYLINE
  5
5F1
100
AcDbEntity
  8
IMPORT_IGES
100
AcDbPolyline
 62
7
  6
CONTINUOUS
 90
10
 70
0
 10
-15.5419770242
 20
43.3953324087
 10
-15.2788725312
 20
43.462323008
 10
-15.0185021985
 20
43.5235280814
 10
-14.760866026
 20
43.5789476287
 10
-14.5102103067
 20
43.6284895238
 10
-14.2622887476
 20
43.6722458928
 10
-14.0043624701
 20
43.7104931147
 10
-13.7321851813
 20
43.7433233159
 10
-13.4500031741
 20
43.7706443699
 10
-13.1578164484
 20
43.7924562768
  0
LINE
  5
5F2
100
AcDbEntity
  8
0
100
AcDbLine
 62
7
  6
CONTINUOUS
 10
-15.5419770242
 20
41.2085224072
 11
-15.2419770242
 21
41.2085224072
  0
LINE
  5
5F3
100
AcDbEntity
  8
0
100
AcDbLine
 62
7
  6
CONTINUOUS
 10
-9.9419770242
 20
41.2085224072
 11
-10.2419770242
 21
41.2085224072
  0
LINE
  5
5F4
100
AcDbEntity
  8
IMPORT_IGES
100
AcDbLine
 62
7
  6
CONTINUOUS
 10
-15.2419770242
 20
42.2447672472
 11
-10.2419770242
 21
42.2447672472
  0
LINE
  5
5F5
100
AcDbEntity
  8
RACCORDO
100
AcDbLine
 62
7
  6
CONTINUOUS
 10
-20.4420531766
 20
42.5304123033
 11
-18.0076451655
 21
42.5304123033
  0
LINE
  5
5F6
100
AcDbEntity
  8
RACCORDO
100
AcDbLine
 62
7
  6
CONTINUOUS
 10
-7.4763088829
 20
42.5304123033
 11
-5.0419008718
 21
42.5304123033
  0
LINE
  5
5F7
100
AcDbEntity
  8
DRAFT
100
AcDbLine
 62
7
  6
CONTINUOUS
 10
-9.9419770242
 20
43.3089789154
 11
-7.5807420803
 21
43.3089789154
  0
LINE
  5
5F8
100
AcDbEntity
  8
DRAFT
100
AcDbLine
 62
7
  6
CONTINUOUS
 10
-15.5419770242
 20
43.3089789154
 11
-17.9032119681
 21
43.3089789154
  0
LINE
  5
5F9
100
AcDbEntity
  8
DRAFT
100
AcDbLine
 62
7
  6
CONTINUOUS
 10
-6.6419770242
 20
43.3304123033
 11
-7.4419770242
 21
43.3304123033
  0
LINE
  5
5FA
100
AcDbEntity
  8
DRAFT
100
AcDbLine
 62
7
  6
CONTINUOUS
 10
-18.0419770242
 20
43.3304123033
 11
-18.8419770242
 21
43.3304123033
  0
LINE
  5
5FB
100
AcDbEntity
  8
RACCORDO
100
AcDbLine
 62
250
  6
CONTINUOUS
 10
-18.8332372818
 20
43.3478931194
 11
-18.0507167666
 21
43.3478931194
  0
LINE
  5
5FC
100
AcDbEntity
  8
RACCORDO
100
AcDbLine
 62
250
  6
CONTINUOUS
 10
-7.4332372818
 20
43.3478931194
 11
-6.6507167666
 21
43.3478931194
  0
LINE
  5
5FD
100
AcDbEntity
  8
IMPORT_IGES
100
AcDbLine
 62
7
  6
CONTINUOUS
 10
-12.3255683254
 20
43.7924562768
 11
-13.1578164484
 21
43.7924562768
  0
LINE
  5
5FE
100
AcDbEntity
  8
DRAFT
100
AcDbLine
 62
7
  6
CONTINUOUS
 10
-7.5720950476
 20
43.8304123033
 11
-9.9419770242
 21
43.8304123033
  0
LINE
  5
5FF
100
AcDbEntity
  8
DRAFT
100
AcDbLine
 62
7
  6
CONTINUOUS
 10
-15.5419770242
 20
43.8304123033
 11
-17.9118590008
 21
43.8304123033
  0
LINE
  5
600
100
AcDbEntity
  8
RACCORDO
100
AcDbLine
 62
250
  6
CONTINUOUS
 10
-18.8289500003
 20
43.847816967
 11
-18.4419770242
 21
43.847816967
  0
LINE
  5
601
100
AcDbEntity
  8
RACCORDO
100
AcDbLine
 62
250
  6
CONTINUOUS
 10
-7.0419770242
 20
43.847816967
 11
-6.6550040481
 21
43.847816967
  0
LWPOLYLINE
  5
602
100
AcDbEntity
  8
IMPORT_IGES
100
AcDbPolyline
 62
7
  6
CONTINUOUS
 90
10
 70
0
 10
-12.3255683254
 20
43.7924562768
 10
-12.0776274709
 20
43.776222737
 10
-11.8262560567
 20
43.7530591183
 10
-11.5714540829
 20
43.7229654205
 10
-11.3142816777
 20
43.6859967348
 10
-11.0536787129
 20
43.64209797
 10
-10.7864648037
 20
43.5911038534
 10
-10.5115798216
 20
43.5329592941
 10
-10.2300838951
 20
43.467719383
 10
-9.9419770242
 20
43.3953841201
  0
LWPOLYLINE
  5
603
100
AcDbEntity
  8
RACCORDO
100
AcDbPolyline
 62
7
  6
CONTINUOUS
 90
7
 70
0
 10
-9.2419770242
 20
56.0039655996
 10
-9.2406643076
 20
56.0030703777
 10
-9.2367181926
 20
56.001380849
 10
-9.2301480265
 20
55.9988970133
 10
-9.2209813291
 20
55.9955846316
 10
-9.2092914601
 20
55.991477943
 10
-9.1606202067
 20
55.9749762148
  0
LINE
  5
604
100
AcDbEntity
  8
RACCORDO
100
AcDbLine
 62
7
  6
CONTINUOUS
 10
-20.7419770242
 20
72.3304123033
 11
-20.7286050668
 21
72.3170403459
  0
LINE
  5
605
100
AcDbEntity
  8
RACCORDO
100
AcDbLine
 62
250
  6
CONTINUOUS
 10
-17.3919770242
 20
70.8304237264
 11
-17.3763304471
 21
70.8147771493
  0
LINE
  5
606
100
AcDbEntity
  8
RACCORDO
100
AcDbLine
 62
250
  6
CONTINUOUS
 10
-17.0919884473
 20
71.1304123033
 11
-17.0763418702
 21
71.1147657262
  0
LWPOLYLINE
  5
607
100
AcDbEntity
  8
0
100
AcDbPolyline
 62
7
  6
CONTINUOUS
 90
10
 70
0
 10
-4.9749714747
 20
61.8367488442
 10
-4.9634498397
 20
61.8239495019
 10
-4.9528200738
 20
61.8106056368
 10
-4.9430821768
 20
61.7967172488
 10
-4.9342641818
 20
61.7823879807
 10
-4.9263380557
 20
61.7675141896
 10
-4.9192196996
 20
61.7517849479
 10
-4.9128810806
 20
61.7350966128
 10
-4.9073502314
 20
61.717552827
 10
-4.9026271523
 20
61.6991535906
  0
LWPOLYLINE
  5
608
100
AcDbEntity
  8
0
100
AcDbPolyline
 62
7
  6
CONTINUOUS
 90
10
 70
0
 10
-3.8027173123
 20
67.5805596403
 10
-3.7932510927
 20
67.5679194824
 10
-3.7847515931
 20
67.5540325946
 10
-3.7772188135
 20
67.5388989769
 10
-3.7705825894
 20
67.5226291399
 10
-3.7649130855
 20
67.5051125729
 10
-3.7604207948
 20
67.4860177441
 10
-3.7571758817
 20
67.4652341429
 10
-3.755108182
 20
67.4428722799
 10
-3.7542176956
 20
67.4189321552
  0
LINE
  5
609
100
AcDbEntity
  8
DRAFT
100
AcDbLine
 62
7
  6
CONTINUOUS
 10
-1.699111683
 20
47.5304123033
 11
-2.699111683
 21
47.5304123033
  0
LINE
  5
60A
100
AcDbEntity
  8
RACCORDO
100
AcDbLine
 62
250
  6
CONTINUOUS
 10
-2.699111683
 20
47.9865391845
 11
-1.699111683
 21
47.9865391845
  0
LINE
  5
60B
100
AcDbEntity
  8
RACCORDO
100
AcDbLine
 62
250
  6
CONTINUOUS
 10
-2.699111683
 20
48.478943061
 11
-1.699111683
 21
48.478943061
  0
LINE
  5
60C
100
AcDbEntity
  8
DRAFT
100
AcDbLine
 62
7
  6
CONTINUOUS
 10
-17.8750321694
 20
49.4661237307
 11
-16.1747852085
 21
49.4661237307
  0
LINE
  5
60D
100
AcDbEntity
  8
0
100
AcDbLine
 62
7
  6
CONTINUOUS
 10
-16.0184505581
 20
49.4661237307
 11
-15.8207590966
 21
49.4661237307
  0
LINE
  5
60E
100
AcDbEntity
  8
0
100
AcDbLine
 62
7
  6
CONTINUOUS
 10
-15.6989694555
 20
49.4661237307
 11
-15.4800318196
 21
49.4661237307
  0
LINE
  5
60F
100
AcDbEntity
  8
IMPORT_IGES
100
AcDbLine
 62
7
  6
CONTINUOUS
 10
-13.1560612389
 20
49.4661237307
 11
-12.3278928125
 21
49.4661237307
  0
LINE
  5
610
100
AcDbEntity
  8
0
100
AcDbLine
 62
7
  6
CONTINUOUS
 10
-10.003921845
 20
49.4661237307
 11
-9.7849845929
 21
49.4661237307
  0
LINE
  5
611
100
AcDbEntity
  8
0
100
AcDbLine
 62
7
  6
CONTINUOUS
 10
-9.6631949509
 20
49.4661237307
 11
-9.4655034906
 21
49.4661237307
  0
LINE
  5
612
100
AcDbEntity
  8
DRAFT
100
AcDbLine
 62
7
  6
CONTINUOUS
 10
-9.3091688399
 20
49.4661237307
 11
-7.608921879
 21
49.4661237307
  0
LINE
  5
613
100
AcDbEntity
  8
RACCORDO
100
AcDbLine
 62
7
  6
CONTINUOUS
 10
-9.3091688345
 20
49.4661237307
 11
-9.4655034903
 21
49.4661237307
  0
LINE
  5
614
100
AcDbEntity
  8
RACCORDO
100
AcDbLine
 62
7
  6
CONTINUOUS
 10
-9.6631949483
 20
49.4661237307
 11
-9.78450197
 21
49.4661237307
  0
LINE
  5
615
100
AcDbEntity
  8
RACCORDO
100
AcDbLine
 62
7
  6
CONTINUOUS
 10
-10.0038477663
 20
49.4661237307
 11
-12.3278928125
 21
49.4661237307
  0
LINE
  5
616
100
AcDbEntity
  8
RACCORDO
100
AcDbLine
 62
7
  6
CONTINUOUS
 10
-13.1560612389
 20
49.4661237307
 11
-15.4800312697
 21
49.4661237307
  0
LINE
  5
617
100
AcDbEntity
  8
RACCORDO
100
AcDbLine
 62
7
  6
CONTINUOUS
 10
-15.6989694555
 20
49.4661237307
 11
-15.8207591001
 21
49.4661237307
  0
LINE
  5
618
100
AcDbEntity
  8
RACCORDO
100
AcDbLine
 62
7
  6
CONTINUOUS
 10
-16.0184505581
 20
49.4661237307
 11
-16.1747852138
 21
49.4661237307
  0
LINE
  5
619
100
AcDbEntity
  8
RACCORDO
100
AcDbLine
 62
250
  6
CONTINUOUS
 10
-1.699111683
 20
50.5818815456
 11
-2.699111683
 21
50.5818815456
  0
LINE
  5
61A
100
AcDbEntity
  8
RACCORDO
100
AcDbLine
 62
250
  6
CONTINUOUS
 10
-1.699111683
 20
51.0742854221
 11
-2.699111683
 21
51.0742854221
  0
LINE
  5
61B
100
AcDbEntity
  8
DRAFT
100
AcDbLine
 62
7
  6
CONTINUOUS
 10
-2.699111683
 20
51.5304123033
 11
-1.699111683
 21
51.5304123033
  0
LWPOLYLINE
  5
61C
100
AcDbEntity
  8
RACCORDO
100
AcDbPolyline
 62
7
  6
CONTINUOUS
 90
8
 70
0
 10
-9.1791114161
 20
55.1440368747
 10
-9.1953486256
 20
55.1493841175
 10
-9.2093848928
 20
55.1539216724
 10
-9.2210453334
 20
55.1576680425
 10
-9.2301863627
 20
55.1605377922
 10
-9.2367361623
 20
55.1625024431
 10
-9.2406690189
 20
55.1635904736
 10
-9.2419770242
 20
55.1638018838
  0
LWPOLYLINE
  5
61D
100
AcDbEntity
  8
RACCORDO
100
AcDbPolyline
 62
7
  6
CONTINUOUS
 90
3
 70
0
 10
-9.1187320626
 20
55.1236477527
 10
-9.1406270955
 20
55.1311097791
 10
-9.1791114161
 20
55.1440368747
  0
LWPOLYLINE
  5
61E
100
AcDbEntity
  8
0
100
AcDbPolyline
 62
7
  6
CONTINUOUS
 90
7
 70
0
 10
-9.2419770242
 20
55.1583865581
 10
-8.9317189414
 20
55.0490466457
 10
-8.6248271226
 20
54.9304584586
 10
-8.3215778238
 20
54.8027242805
 10
-8.0222442313
 20
54.6659546659
 10
-7.7270962134
 20
54.5202683488
 10
-7.4364000753
 20
54.3657921444
  0
LWPOLYLINE
  5
61F
100
AcDbEntity
  8
RACCORDO
100
AcDbPolyline
 62
7
  6
CONTINUOUS
 90
4
 70
0
 10
-8.9919770242
 20
55.0788972946
 10
-9.0187538734
 20
55.0886992308
 10
-9.0451068477
 20
55.0980612249
 10
-9.1187320626
 20
55.1236477527
  0
LWPOLYLINE
  5
620
100
AcDbEntity
  8
RACCORDO
100
AcDbPolyline
 62
7
  6
CONTINUOUS
 90
11
 70
0
 10
-7.6982231619
 20
54.3281940197
 10
-8.0992293431
 20
54.5213777832
 10
-8.4949413542
 20
54.6974768947
 10
-8.8853591952
 20
54.856491354
 10
-9.2701125981
 20
54.9977579122
 10
-9.6495718309
 20
55.1219398182
 10
-10.024847698
 20
55.2310268192
 10
-10.3957114637
 20
55.3251886979
 10
-10.7623918635
 20
55.4042556716
 10
-11.1266859087
 20
55.4697081386
 10
-11.2419770242
 20
55.4862955256
  0
LWPOLYLINE
  5
621
100
AcDbEntity
  8
0
100
AcDbPolyline
 62
7
  6
CONTINUOUS
 90
7
 70
0
 10
-7.1765857753
 20
55.1521207933
 10
-7.5088107427
 20
55.3227857706
 10
-7.8462909173
 20
55.4828812357
 10
-8.1886906562
 20
55.6322446103
 10
-8.5356692611
 20
55.7707239566
 10
-8.8868813151
 20
55.8981781351
 10
-9.2419770242
 20
56.0144769522
  0
LWPOLYLINE
  5
622
100
AcDbEntity
  8
RACCORDO
100
AcDbPolyline
 62
7
  6
CONTINUOUS
 90
16
 70
0
 10
-7.1765857753
 20
55.1521207933
 10
-7.1146432907
 20
55.1161459424
 10
-7.0552880875
 20
55.075721992
 10
-6.9988483756
 20
55.0310249957
 10
-6.9455383485
 20
54.9821545145
 10
-6.8957798831
 20
54.9294225238
 10
-6.8501246221
 20
54.8734243504
 10
-6.8089406737
 20
54.8147510552
 10
-6.7721877874
 20
54.7534980299
 10
-6.7397922608
 20
54.6895398867
 10
-6.7118566719
 20
54.6228771611
 10
-6.6887360412
 20
54.5541196333
 10
-6.6707041611
 20
54.4840586442
 10
-6.6578362543
 20
54.4132227322
 10
-6.6501141475
 20
54.3418403444
 10
-6.6475358412
 20
54.2702841674
  0
LWPOLYLINE
  5
623
100
AcDbEntity
  8
0
100
AcDbPolyline
 62
7
  6
CONTINUOUS
 90
10
 70
0
 10
-5.6152135552
 20
61.419208898
 10
-5.6275409706
 20
61.4275366919
 10
-5.6390624398
 20
61.4362444104
 10
-5.6497779627
 20
61.4453320535
 10
-5.6596587156
 20
61.4547831076
 10
-5.6687335223
 20
61.4646140863
 10
-5.677088854
 20
61.4748745309
 10
-5.6847535344
 20
61.4855809553
 10
-5.6916987398
 20
61.4967168456
 10
-5.6979244701
 20
61.5082822018
  0
LWPOLYLINE
  5
624
100
AcDbEntity
  8
0
100
AcDbPolyline
 62
7
  6
CONTINUOUS
 90
10
 70
0
 10
-3.881465282
 20
61.8868437632
 10
-3.8679637737
 20
61.8773291049
 10
-3.8553011616
 20
61.8675141172
 10
-3.8434774458
 20
61.8573988001
 10
-3.8325022545
 20
61.8469596727
 10
-3.8223659595
 20
61.836220216
 10
-3.8130396755
 20
61.8252508724
 10
-3.8045137742
 20
61.8140751227
 10
-3.7967978841
 20
61.8026694861
 10
-3.789892005
 20
61.7910339627
  0
LINE
  5
625
100
AcDbEntity
  8
RACCORDO
100
AcDbLine
 62
250
  6
CONTINUOUS
 10
-17.4486083422
 20
69.5474833102
 11
-17.5876390311
 21
69.6462023102
  0
LWPOLYLINE
  5
626
100
AcDbEntity
  8
0
100
AcDbPolyline
 62
7
  6
CONTINUOUS
 90
10
 70
0
 10
-3.7383117308
 20
62.093621087
 10
-3.7572745639
 20
62.107722665
 10
-3.777488867
 20
62.1211146006
 10
-3.7989546401
 20
62.1337968937
 10
-3.8217673908
 20
62.1458714024
 10
-3.8458316114
 20
62.1572362686
 10
-3.8708607798
 20
62.1675859191
 10
-3.8967593884
 20
62.1768184959
 10
-3.9236229448
 20
62.185035857
 10
-3.9514514488
 20
62.1922380023
  0
LWPOLYLINE
  5
627
100
AcDbEntity
  8
0
100
AcDbPolyline
 62
7
  6
CONTINUOUS
 90
10
 70
0
 10
-5.8919770242
 20
63.114782897
 10
-5.8719860668
 20
63.0984541449
 10
-5.8518236207
 20
63.081064944
 10
-5.8314896858
 20
63.0626152943
 10
-5.8110434459
 20
63.0431998344
 10
-5.7904257172
 20
63.0227239257
 10
-5.7694589489
 20
63.0009036523
 10
-5.7480839574
 20
62.9776443757
 10
-5.7263599263
 20
62.9530407344
 10
-5.7042868556
 20
62.9270927284
  0
LWPOLYLINE
  5
628
100
AcDbEntity
  8
0
100
AcDbPolyline
 62
7
  6
CONTINUOUS
 90
10
 70
0
 10
-5.7869977816
 20
61.2410622927
 10
-5.7579236575
 20
61.2156372108
 10
-5.7250932168
 20
61.1926768356
 10
-5.6885064595
 20
61.1721811673
 10
-5.6486626047
 20
61.1539099712
 10
-5.6050624333
 20
61.1381034819
 10
-5.5562082885
 20
61.1254824027
 10
-5.5016009516
 20
61.1162869682
 10
-5.4417396414
 20
61.1102769438
 10
-5.3766243578
 20
61.1074523296
  0
LINE
  5
629
100
AcDbEntity
  8
RACCORDO
100
AcDbLine
 62
7
  6
CONTINUOUS
 10
-4.7419770242
 20
71.7304123033
 11
-4.7553489816
 21
71.7437842607
  0
LWPOLYLINE
  5
62A
100
AcDbEntity
  8
DRAFT
100
AcDbPolyline
 62
7
  6
CONTINUOUS
 90
3
 70
0
 10
-14.9839661195
 20
55.51952768
 10
-14.9915289276
 20
55.5177058996
 10
-14.9974425198
 20
55.5161941639
  0
LWPOLYLINE
  5
62B
100
AcDbEntity
  8
DRAFT
100
AcDbPolyline
 62
7
  6
CONTINUOUS
 90
3
 70
0
 10
-14.9517450953
 20
55.5268838983
 10
-14.9640329149
 20
55.5241166794
 10
-14.9839661195
 20
55.51952768
  0
LWPOLYLINE
  5
62C
100
AcDbEntity
  8
0
100
AcDbPolyline
 62
7
  6
CONTINUOUS
 90
10
 70
0
 10
-4.4409530386
 20
61.9295154306
 10
-4.4197613764
 20
61.9341886675
 10
-4.3974485027
 20
61.9383922553
 10
-4.3740144177
 20
61.942126194
 10
-4.3496042263
 20
61.9454282043
 10
-4.3240728236
 20
61.9482605655
 10
-4.2969848938
 20
61.9505101153
 10
-4.268195332
 20
61.9521391331
 10
-4.2378492431
 20
61.9531853394
 10
-4.2059466274
 20
61.9536487345
  0
LINE
  5
62D
100
AcDbEntity
  8
DRAFT
100
AcDbLine
 62
7
  6
CONTINUOUS
 10
-14.9227460061
 20
55.5332133535
 11
-14.9517450953
 21
55.5268838983
  0
LWPOLYLINE
  5
62E
100
AcDbEntity
  8
0
100
AcDbPolyline
 62
7
  6
CONTINUOUS
 90
4
 70
0
 10
-15.2419770242
 20
55.4422542558
 10
-14.8305455493
 20
55.5300281517
 10
-14.4162063185
 20
55.60198034
 10
-14.2389537527
 20
55.6258226704
  0
LINE
  5
62F
100
AcDbEntity
  8
DRAFT
100
AcDbLine
 62
7
  6
CONTINUOUS
 10
-14.8881978001
 20
55.5405481739
 11
-14.9227460061
 21
55.5332133535
  0
LINE
  5
630
100
AcDbEntity
  8
DRAFT
100
AcDbLine
 62
7
  6
CONTINUOUS
 10
-14.8485413577
 20
55.5487277824
 11
-14.8881978001
 21
55.5405481739
  0
LINE
  5
631
100
AcDbEntity
  8
DRAFT
100
AcDbLine
 62
7
  6
CONTINUOUS
 10
-14.8042562506
 20
55.5575735022
 11
-14.8485413577
 21
55.5487277824
  0
LINE
  5
632
100
AcDbEntity
  8
DRAFT
100
AcDbLine
 62
7
  6
CONTINUOUS
 10
-14.7558952557
 20
55.5669635311
 11
-14.8042562506
 21
55.5575735022
  0
LINE
  5
633
100
AcDbEntity
  8
DRAFT
100
AcDbLine
 62
7
  6
CONTINUOUS
 10
-14.7040595389
 20
55.5767076261
 11
-14.7558952557
 21
55.5669635311
  0
LINE
  5
634
100
AcDbEntity
  8
DRAFT
100
AcDbLine
 62
7
  6
CONTINUOUS
 10
-14.6493997661
 20
55.5866163533
 11
-14.7040595389
 21
55.5767076261
  0
LINE
  5
635
100
AcDbEntity
  8
DRAFT
100
AcDbLine
 62
7
  6
CONTINUOUS
 10
-14.5926153444
 20
55.5965681294
 11
-14.6493997661
 21
55.5866163533
  0
LWPOLYLINE
  5
636
100
AcDbEntity
  8
0
100
AcDbPolyline
 62
7
  6
CONTINUOUS
 90
10
 70
0
 10
-3.9959880994
 20
61.3492227335
 10
-4.0122117496
 20
61.3464180303
 10
-4.0289484808
 20
61.3439712274
 10
-4.0461982931
 20
61.3418823249
 10
-4.0639264429
 20
61.3401649094
 10
-4.0821676737
 20
61.3388053943
 10
-4.101026216
 20
61.3377630194
 10
-4.1205368134
 20
61.3370241981
 10
-4.1406647224
 20
61.3366025171
 10
-4.1614099429
 20
61.3364979763
  0
LWPOLYLINE
  5
637
100
AcDbEntity
  8
DRAFT
100
AcDbPolyline
 62
7
  6
CONTINUOUS
 90
3
 70
0
 10
-14.5050386433
 20
55.6111891779
 10
-14.5344179547
 20
55.6063485325
 10
-14.5926153444
 20
55.5965681294
  0
LWPOLYLINE
  5
638
100
AcDbEntity
  8
RACCORDO
100
AcDbPolyline
 62
7
  6
CONTINUOUS
 90
6
 70
0
 10
-16.2419770242
 20
55.1638018838
 10
-16.2432850295
 20
55.1635904736
 10
-16.247217886
 20
55.1625024431
 10
-16.2537676856
 20
55.1605377922
 10
-16.2629087149
 20
55.1576680425
 10
-16.2886054228
 20
55.1493841175
  0
LINE
  5
639
100
AcDbEntity
  8
DRAFT
100
AcDbLine
 62
7
  6
CONTINUOUS
 10
-14.562943025
 20
56.2299221506
 11
-14.5050386433
 21
56.2386656514
  0
LWPOLYLINE
  5
63A
100
AcDbEntity
  8
RACCORDO
100
AcDbPolyline
 62
7
  6
CONTINUOUS
 90
11
 70
0
 10
-14.2419770242
 20
55.4862949819
 10
-14.3574208788
 20
55.4696834656
 10
-14.7217000914
 20
55.4042277659
 10
-15.0883688414
 20
55.3251583927
 10
-15.4592162015
 20
55.2309969706
 10
-15.8344643462
 20
55.1219153599
 10
-16.2138911009
 20
54.9977417003
 10
-16.5986190145
 20
54.8564820359
 10
-16.98902227
 20
54.6974717147
 10
-17.3847266843
 20
54.5213753888
 10
-17.7857322576
 20
54.328193058
  0
LINE
  5
63B
100
AcDbEntity
  8
DRAFT
100
AcDbLine
 62
7
  6
CONTINUOUS
 10
-14.620016709
 20
56.2216551733
 11
-14.562943025
 21
56.2299221506
  0
LINE
  5
63C
100
AcDbEntity
  8
DRAFT
100
AcDbLine
 62
7
  6
CONTINUOUS
 10
-14.6755127432
 20
56.2139117522
 11
-14.620016709
 21
56.2216551733
  0
LINE
  5
63D
100
AcDbEntity
  8
0
100
AcDbLine
 62
7
  6
CONTINUOUS
 10
-11.2419770242
 20
55.3304123033
 11
-14.2419770242
 21
55.3304123033
  0
LWPOLYLINE
  5
63E
100
AcDbEntity
  8
DRAFT
100
AcDbPolyline
 62
7
  6
CONTINUOUS
 90
17
 70
0
 10
-10.7549099381
 20
56.206809249
 10
-10.729328436
 20
56.2035784265
 10
-10.7045829286
 20
56.2005693719
 10
-10.6807574548
 20
56.1977810729
 10
-10.6579312802
 20
56.1952604822
 10
-10.6361817816
 20
56.1930097407
 10
-10.6155848585
 20
56.1910267074
 10
-10.5962124172
 20
56.1893519128
 10
-10.5781311011
 20
56.1879889236
 10
-10.5614037701
 20
56.1869341729
 10
-10.5460897462
 20
56.18621749
 10
-10.5322414471
 20
56.1858436605
 10
-10.5199077154
 20
56.1858078989
 10
-10.5091337756
 20
56.1861256778
 10
-10.499956938
 20
56.1868021549
 10
-10.4924076111
 20
56.1878321726
 10
-10.4865115285
 20
56.1892157309
  0
LINE
  5
63F
100
AcDbEntity
  8
DRAFT
100
AcDbLine
 62
7
  6
CONTINUOUS
 10
-10.8082314388
 20
56.2138831715
 11
-10.7549099381
 21
56.206809249
  0
LWPOLYLINE
  5
640
100
AcDbEntity
  8
0
100
AcDbPolyline
 62
7
  6
CONTINUOUS
 90
4
 70
0
 10
-11.2450002956
 20
55.6258226704
 10
-11.0677477314
 20
55.6019803403
 10
-10.6534084999
 20
55.5300281519
 10
-10.2419770242
 20
55.4422542558
  0
LINE
  5
641
100
AcDbEntity
  8
DRAFT
100
AcDbLine
 62
7
  6
CONTINUOUS
 10
-10.8638248408
 20
56.2216392554
 11
-10.8082314388
 21
56.2138831715
  0
LINE
  5
642
100
AcDbEntity
  8
DRAFT
100
AcDbLine
 62
7
  6
CONTINUOUS
 10
-10.9209729741
 20
56.2299162932
 11
-10.8638248408
 21
56.2216392554
  0
LINE
  5
643
100
AcDbEntity
  8
DRAFT
100
AcDbLine
 62
7
  6
CONTINUOUS
 10
-10.9789154051
 20
56.2386656514
 11
-10.9209729741
 21
56.2299162932
  0
LINE
  5
644
100
AcDbEntity
  8
DRAFT
100
AcDbLine
 62
7
  6
CONTINUOUS
 10
-10.9204076694
 20
55.6014913144
 11
-10.9789154051
 21
55.6111891779
  0
LINE
  5
645
100
AcDbEntity
  8
DRAFT
100
AcDbLine
 62
7
  6
CONTINUOUS
 10
-10.8630027578
 20
55.5916578449
 11
-10.9204076694
 21
55.6014913144
  0
LINE
  5
646
100
AcDbEntity
  8
DRAFT
100
AcDbLine
 62
7
  6
CONTINUOUS
 10
-10.8074307028
 20
55.5817434566
 11
-10.8630027578
 21
55.5916578449
  0
LINE
  5
647
100
AcDbEntity
  8
DRAFT
100
AcDbLine
 62
7
  6
CONTINUOUS
 10
-10.7543130071
 20
55.571928138
 11
-10.8074307028
 21
55.5817434566
  0
LINE
  5
648
100
AcDbEntity
  8
DRAFT
100
AcDbLine
 62
7
  6
CONTINUOUS
 10
-10.7042456825
 20
55.5623873968
 11
-10.7543130071
 21
55.571928138
  0
LINE
  5
649
100
AcDbEntity
  8
DRAFT
100
AcDbLine
 62
7
  6
CONTINUOUS
 10
-10.65784293
 20
55.5532411661
 11
-10.7042456825
 21
55.5623873968
  0
LWPOLYLINE
  5
64A
100
AcDbEntity
  8
0
100
AcDbPolyline
 62
7
  6
CONTINUOUS
 90
16
 70
0
 10
-10.2419770242
 20
56.2772180661
 10
-10.5712197728
 20
56.3436034016
 10
-10.9022138284
 20
56.4006044926
 10
-11.2346918241
 20
56.4481754908
 10
-11.5683856646
 20
56.4862782625
 10
-11.9030253653
 20
56.5148820919
 10
-12.2383392427
 20
56.5339638365
 10
-12.5740536982
 20
56.5435082901
 10
-12.9099003368
 20
56.5435082903
 10
-13.2456147896
 20
56.5339638372
 10
-13.5809286585
 20
56.5148820936
 10
-13.915568348
 20
56.486278266
 10
-14.2492621846
 20
56.4481754959
 10
-14.5817401866
 20
56.4006044979
 10
-14.9127342555
 20
56.3436034054
 10
-15.2419770242
 20
56.2772180661
  0
LINE
  5
64B
100
AcDbEntity
  8
DRAFT
100
AcDbLine
 62
7
  6
CONTINUOUS
 10
-10.6156721028
 20
55.5446755462
 11
-10.65784293
 21
55.5532411661
  0
LINE
  5
64C
100
AcDbEntity
  8
DRAFT
100
AcDbLine
 62
7
  6
CONTINUOUS
 10
-10.5783019952
 20
55.5368800171
 11
-10.6156721028
 21
55.5446755462
  0
LWPOLYLINE
  5
64D
100
AcDbEntity
  8
DRAFT
100
AcDbPolyline
 62
7
  6
CONTINUOUS
 90
3
 70
0
 10
-10.5323965571
 20
55.5269261161
 10
-10.5462641523
 20
55.5299754821
 10
-10.5783019952
 20
55.5368800171
  0
LWPOLYLINE
  5
64E
100
AcDbEntity
  8
DRAFT
100
AcDbPolyline
 62
7
  6
CONTINUOUS
 90
18
 70
0
 10
-14.9974425198
 20
56.1892157309
 10
-14.9915430982
 20
56.1878310313
 10
-14.9839861677
 20
56.1868006116
 10
-14.9747959801
 20
56.1861244718
 10
-14.9640003653
 20
56.1858076349
 10
-14.9516361764
 20
56.1858450778
 10
-14.9377518813
 20
56.1862217318
 10
-14.9223962934
 20
56.1869428577
 10
-14.9056223517
 20
56.1880031947
 10
-14.8874963994
 20
56.1893718904
 10
-14.868084307
 20
56.1910526837
 10
-14.8474531943
 20
56.1930418357
 10
-14.8256800909
 20
56.1952972777
 10
-14.8028453489
 20
56.1978207693
 10
-14.7790255484
 20
56.2006105508
 10
-14.7542969413
 20
56.2036192746
 10
-14.7287457682
 20
56.2068474446
 10
-14.6755127432
 20
56.2139117522
  0
LWPOLYLINE
  5
64F
100
AcDbEntity
  8
DRAFT
100
AcDbPolyline
 62
7
  6
CONTINUOUS
 90
5
 70
0
 10
-10.4865115285
 20
55.5161941639
 10
-10.4924334842
 20
55.5177069229
 10
-10.5000151142
 20
55.5195333328
 10
-10.5092267557
 20
55.5216733937
 10
-10.5323965571
 20
55.5269261161
  0
LWPOLYLINE
  5
650
100
AcDbEntity
  8
RACCORDO
100
AcDbPolyline
 62
7
  6
CONTINUOUS
 90
3
 70
0
 10
-9.0951007242
 20
55.9530971485
 10
-9.0186407993
 20
55.9277611491
 10
-8.9919770242
 20
55.9186874161
  0
LINE
  5
651
100
AcDbEntity
  8
RACCORDO
100
AcDbLine
 62
7
  6
CONTINUOUS
 10
-9.1606202067
 20
55.9749762148
 11
-9.0951007242
 21
55.9530971485
  0
LWPOLYLINE
  5
652
100
AcDbEntity
  8
0
100
AcDbPolyline
 62
7
  6
CONTINUOUS
 90
10
 70
0
 10
-4.9917004527
 20
62.1286142144
 10
-5.0095107228
 20
62.137207275
 10
-5.0274781685
 20
62.145188907
 10
-5.0456027898
 20
62.1525591105
 10
-5.0637784404
 20
62.1592931246
 10
-5.0821112667
 20
62.1654157102
 10
-5.100919707
 20
62.1710011492
 10
-5.1203099076
 20
62.1760742023
 10
-5.1401757223
 20
62.1806101088
 10
-5.1605171511
 20
62.1846088687
  0
LWPOLYLINE
  5
653
100
AcDbEntity
  8
0
100
AcDbPolyline
 62
7
  6
CONTINUOUS
 90
10
 70
0
 10
-4.4349922569
 20
62.2049627576
 10
-4.4553455257
 20
62.2014911005
 10
-4.4751527575
 20
62.1973907835
 10
-4.4944139521
 20
62.1926618064
 10
-4.5130587482
 20
62.1873117082
 10
-4.5311575072
 20
62.18133295
 10
-4.5489213134
 20
62.1747029156
 10
-4.5664205284
 20
62.1674140664
 10
-4.5835847908
 20
62.159473941
 10
-4.6004141004
 20
62.1508825395
  0
LWPOLYLINE
  5
654
100
AcDbEntity
  8
0
100
AcDbPolyline
 62
7
  6
CONTINUOUS
 90
10
 70
0
 10
-5.487733275
 20
61.9234662208
 10
-5.4710486775
 20
61.9262041355
 10
-5.454361285
 20
61.9286770511
 10
-5.4376710973
 20
61.9308849675
 10
-5.4209418623
 20
61.9328584291
 10
-5.4042098323
 20
61.9345668916
 10
-5.3875837639
 20
61.935918722
 10
-5.3710999096
 20
61.9368833761
 10
-5.354722017
 20
61.937491398
 10
-5.3384500862
 20
61.937742788
  0
LWPOLYLINE
  5
655
100
AcDbEntity
  8
0
100
AcDbPolyline
 62
7
  6
CONTINUOUS
 90
10
 70
0
 10
-5.3797865416
 20
65.0901293596
 10
-5.4201313416
 20
65.0849654779
 10
-5.4585511386
 20
65.0789360266
 10
-5.4950459325
 20
65.0720410057
 10
-5.5295391856
 20
65.0642263733
 10
-5.5621074356
 20
65.0555461712
 10
-5.5929802959
 20
65.0461625249
 10
-5.6222343043
 20
65.036129476
 10
-5.6497929229
 20
65.0253929829
 10
-5.6756561519
 20
65.0139530454
  0
LWPOLYLINE
  5
656
100
AcDbEntity
  8
0
100
AcDbPolyline
 62
7
  6
CONTINUOUS
 90
10
 70
0
 10
-5.3797865416
 20
66.5280269226
 10
-5.4201313416
 20
66.5228630409
 10
-5.4585511386
 20
66.5168335896
 10
-5.4950459325
 20
66.5099385686
 10
-5.5295391856
 20
66.5021239363
 10
-5.5621074356
 20
66.4934437342
 10
-5.5929802959
 20
66.4840600879
 10
-5.6222343043
 20
66.474027039
 10
-5.6497929229
 20
66.4632905458
 10
-5.6756561519
 20
66.4518506084
  0
LWPOLYLINE
  5
657
100
AcDbEntity
  8
0
100
AcDbPolyline
 62
7
  6
CONTINUOUS
 90
10
 70
0
 10
-4.1390066538
 20
63.9912130499
 10
-4.0963679987
 20
63.9959620303
 10
-4.0557708875
 20
64.0016379471
 10
-4.0172153199
 20
64.0082408003
 10
-3.9807613625
 20
64.0158427691
 10
-3.9463489488
 20
64.0243716743
 10
-3.9137978796
 20
64.0336109784
 10
-3.8830480886
 20
64.0434885022
 10
-3.8541596421
 20
64.0540764249
 10
-3.8271325401
 20
64.0653747464
  0
LWPOLYLINE
  5
658
100
AcDbEntity
  8
0
100
AcDbPolyline
 62
7
  6
CONTINUOUS
 90
10
 70
0
 10
-4.1390066538
 20
65.4291106129
 10
-4.0963679987
 20
65.4338595933
 10
-4.0557708875
 20
65.4395355101
 10
-4.0172153199
 20
65.4461383633
 10
-3.9807613625
 20
65.4537403321
 10
-3.9463489488
 20
65.4622692373
 10
-3.9137978796
 20
65.4715085414
 10
-3.8830480886
 20
65.4813860652
 10
-3.8541596421
 20
65.4919739879
 10
-3.8271325401
 20
65.5032723094
  0
LWPOLYLINE
  5
659
100
AcDbEntity
  8
0
100
AcDbPolyline
 62
7
  6
CONTINUOUS
 90
9
 70
0
 10
-4.1868521515
 20
64.2471789469
 10
-4.2194619557
 20
64.2451391205
 10
-4.2527594705
 20
64.2433521453
 10
-4.286744696
 20
64.2418180216
 10
-4.3214220598
 20
64.2405434269
 10
-4.3567871342
 20
64.2395216835
 10
-4.3928266359
 20
64.2387327581
 10
-4.4295361371
 20
64.238169973
 10
-4.4669200656
 20
64.2378400058
  0
LWPOLYLINE
  5
65A
100
AcDbEntity
  8
0
100
AcDbPolyline
 62
7
  6
CONTINUOUS
 90
9
 70
0
 10
-4.1868521327
 20
65.6850765111
 10
-4.219461942
 20
65.6830366844
 10
-4.2527594611
 20
65.6812497089
 10
-4.2867446899
 20
65.6797155849
 10
-4.321422056
 20
65.6784409901
 10
-4.3567871318
 20
65.6774192466
 10
-4.3928266346
 20
65.6766303212
 10
-4.4295361366
 20
65.6760675359
 10
-4.4669200656
 20
65.6757375687
  0
LWPOLYLINE
  5
65B
100
AcDbEntity
  8
0
100
AcDbPolyline
 62
7
  6
CONTINUOUS
 90
9
 70
0
 10
-5.293913436
 20
64.8389874969
 10
-5.2629028854
 20
64.8409236534
 10
-5.2304660878
 20
64.8426463057
 10
-5.1966030434
 20
64.8441554538
 10
-5.1613287092
 20
64.8454583403
 10
-5.1246281281
 20
64.8465477226
 10
-5.0864564287
 20
64.8474018727
 10
-5.0467986538
 20
64.8480135479
 10
-5.0056697605
 20
64.848389991
  0
LWPOLYLINE
  5
65C
100
AcDbEntity
  8
0
100
AcDbPolyline
 62
7
  6
CONTINUOUS
 90
10
 70
0
 10
-5.357537222
 20
62.2017815683
 10
-5.4297459629
 20
62.1988400343
 10
-5.4954977373
 20
62.1928074432
 10
-5.5547925452
 20
62.1836837948
 10
-5.6070963951
 20
62.1711120104
 10
-5.6529432784
 20
62.1554491689
 10
-5.6939351701
 20
62.1377665069
 10
-5.7306060618
 20
62.1184211035
 10
-5.7624219617
 20
62.0970558796
 10
-5.78938287
 20
62.0736708353
  0
LWPOLYLINE
  5
65D
100
AcDbEntity
  8
0
100
AcDbPolyline
 62
7
  6
CONTINUOUS
 90
10
 70
0
 10
-4.1614099429
 20
61.0756404281
 10
-4.0852249097
 20
61.078315526
 10
-4.0157443387
 20
61.0841011571
 10
-3.95296823
 20
61.0929973215
 10
-3.8974071991
 20
61.1053302223
 10
-3.8485506305
 20
61.1207736563
 10
-3.8048666772
 20
61.1383490135
 10
-3.7658447236
 20
61.1577300904
 10
-3.7319953855
 20
61.1792430905
 10
-3.7033186627
 20
61.2028880137
  0
LWPOLYLINE
  5
65E
100
AcDbEntity
  8
0
100
AcDbPolyline
 62
7
  6
CONTINUOUS
 90
10
 70
0
 10
-4.2345773311
 20
62.2208687041
 10
-4.2568649928
 20
62.2206348409
 10
-4.2791542209
 20
62.2200059266
 10
-4.3014450152
 20
62.2189819612
 10
-4.3237459097
 20
62.2175473647
 10
-4.3460483704
 20
62.215717717
 10
-4.3683267957
 20
62.2135397585
 10
-4.3905726516
 20
62.2110290691
 10
-4.412794472
 20
62.2081700688
 10
-4.4349922569
 20
62.2049627576
  0
LWPOLYLINE
  5
65F
100
AcDbEntity
  8
0
100
AcDbPolyline
 62
7
  6
CONTINUOUS
 90
9
 70
0
 10
-4.494848648
 20
63.9769700596
 10
-4.4449310955
 20
63.9774120279
 10
-4.396581225
 20
63.978211239
 10
-4.3498137278
 20
63.9793416021
 10
-4.3046139125
 20
63.980829208
 10
-4.2609377048
 20
63.9827523285
 10
-4.2187704135
 20
63.9851370543
 10
-4.1781267298
 20
63.9879572948
 10
-4.1390066538
 20
63.9912130499
  0
LWPOLYLINE
  5
660
100
AcDbEntity
  8
0
100
AcDbPolyline
 62
7
  6
CONTINUOUS
 90
10
 70
0
 10
-4.9885192634
 20
65.1093887243
 10
-5.0355662165
 20
65.1091638947
 10
-5.0817892326
 20
65.1084573891
 10
-5.1271883117
 20
65.1072692075
 10
-5.171855808
 20
65.1055954821
 10
-5.2156993673
 20
65.1034400807
 10
-5.2584419266
 20
65.1008146073
 10
-5.2999911316
 20
65.09772293
 10
-5.3404393366
 20
65.0941611808
 10
-5.3797865416
 20
65.0901293596
  0
LINE
  5
661
100
AcDbEntity
  8
DRAFT
100
AcDbLine
 62
250
  6
CONTINUOUS
 10
-2.7559410761
 20
60.2675549982
 11
-22.7280129722
 21
60.2675549982
  0
LINE
  5
662
100
AcDbEntity
  8
0
100
AcDbLine
 62
7
  6
CONTINUOUS
 10
-5.3766243578
 20
61.1074523296
 11
-5.3479936541
 21
61.1074523296
  0
LINE
  5
663
100
AcDbEntity
  8
0
100
AcDbLine
 62
7
  6
CONTINUOUS
 10
-21.8919840242
 20
61.1404123033
 11
-19.5919830242
 21
61.1404123033
  0
LINE
  5
664
100
AcDbEntity
  8
0
100
AcDbLine
 62
7
  6
CONTINUOUS
 10
-19.8083040242
 20
61.4108133033
 11
-21.8919840242
 21
61.4108133033
  0
LINE
  5
665
100
AcDbEntity
  8
0
100
AcDbLine
 62
7
  6
CONTINUOUS
 10
-4.8835400165
 20
61.4987386305
 11
-4.6831250222
 21
61.4987386305
  0
LINE
  5
666
100
AcDbEntity
  8
0
100
AcDbLine
 62
7
  6
CONTINUOUS
 10
-19.5919830242
 20
62.1329433033
 11
-19.8083040242
 21
62.1329433033
  0
LINE
  5
667
100
AcDbEntity
  8
0
100
AcDbLine
 62
7
  6
CONTINUOUS
 10
-21.8919880242
 20
62.4503353033
 11
-19.5919880242
 21
62.4503353033
  0
LINE
  5
668
100
AcDbEntity
  8
0
100
AcDbLine
 62
7
  6
CONTINUOUS
 10
-5.5452273906
 20
62.7171342347
 11
-5.2748263003
 21
62.7171342347
  0
LINE
  5
669
100
AcDbEntity
  8
0
100
AcDbLine
 62
7
  6
CONTINUOUS
 10
-19.5919880242
 20
62.7207373033
 11
-21.8919880242
 21
62.7207373033
  0
LINE
  5
66A
100
AcDbEntity
  8
0
100
AcDbLine
 62
7
  6
CONTINUOUS
 10
-5.570676905
 20
63.0861521933
 11
-3.5919770242
 21
63.0861521933
  0
LINE
  5
66B
100
AcDbEntity
  8
0
100
AcDbLine
 62
7
  6
CONTINUOUS
 10
-21.8919840242
 20
63.1448803033
 11
-19.5919830242
 21
63.1448803033
  0
LINE
  5
66C
100
AcDbEntity
  8
0
100
AcDbLine
 62
7
  6
CONTINUOUS
 10
-3.5919770242
 20
63.3501909051
 11
-5.8919770242
 21
63.3501909051
  0
LINE
  5
66D
100
AcDbEntity
  8
0
100
AcDbLine
 62
7
  6
CONTINUOUS
 10
-19.5919830242
 20
63.3961943033
 11
-21.6597570242
 21
63.3961943033
  0
LINE
  5
66E
100
AcDbEntity
  8
0
100
AcDbLine
 62
7
  6
CONTINUOUS
 10
-4.9757945062
 20
63.976885334
 11
-4.494848648
 21
63.9769700596
  0
LINE
  5
66F
100
AcDbEntity
  8
0
100
AcDbLine
 62
7
  6
CONTINUOUS
 10
-4.4669200656
 20
64.2378400058
 11
-4.963069749
 21
64.2377428565
  0
LINE
  5
670
100
AcDbEntity
  8
0
100
AcDbLine
 62
7
  6
CONTINUOUS
 10
-21.8919840242
 20
64.3378263033
 11
-19.8242100242
 21
64.3378263033
  0
LINE
  5
671
100
AcDbEntity
  8
0
100
AcDbLine
 62
7
  6
CONTINUOUS
 10
-19.5919830242
 20
64.5891623033
 11
-21.8919840242
 21
64.5891623033
  0
LINE
  5
672
100
AcDbEntity
  8
0
100
AcDbLine
 62
7
  6
CONTINUOUS
 10
-5.0056697605
 20
64.848389991
 11
-4.5017972321
 21
64.8485312019
  0
LINE
  5
673
100
AcDbEntity
  8
0
100
AcDbLine
 62
7
  6
CONTINUOUS
 10
-21.8919840242
 20
65.0101063033
 11
-19.5919830242
 21
65.0101063033
  0
LINE
  5
674
100
AcDbEntity
  8
0
100
AcDbLine
 62
7
  6
CONTINUOUS
 10
-4.5526962609
 20
65.1093887243
 11
-4.9885192634
 21
65.1093887243
  0
LWPOLYLINE
  5
675
100
AcDbEntity
  8
0
100
AcDbPolyline
 62
7
  6
CONTINUOUS
 90
10
 70
0
 10
-4.963069749
 20
64.2377428565
 10
-5.0056697561
 20
64.2378840487
 10
-5.0467986452
 20
64.2382604667
 10
-5.0864564164
 20
64.2388721105
 10
-5.1246281114
 20
64.2397262182
 10
-5.1613286884
 20
64.2408155517
 10
-5.1966030219
 20
64.2421183968
 10
-5.2304660701
 20
64.2436275154
 10
-5.2629028748
 20
64.2453501456
 10
-5.293913436
 20
64.2472862873
  0
LWPOLYLINE
  5
676
100
AcDbEntity
  8
0
100
AcDbPolyline
 62
7
  6
CONTINUOUS
 90
10
 70
0
 10
-4.5017972321
 20
64.8485312019
 10
-4.4603031912
 20
64.8483887173
 10
-4.4202685264
 20
64.8480137312
 10
-4.3816932377
 20
64.8474062437
 10
-4.3445920849
 20
64.8465582524
 10
-4.3089503083
 20
64.8454777596
 10
-4.2747236289
 20
64.8441887719
 10
-4.2418972873
 20
64.8426992914
 10
-4.2104860429
 20
64.841001316
 10
-4.1804898958
 20
64.8390948456
  0
LWPOLYLINE
  5
677
100
AcDbEntity
  8
0
100
AcDbPolyline
 62
7
  6
CONTINUOUS
 90
10
 70
0
 10
-5.3479936541
 20
61.3619474907
 10
-5.3654674897
 20
61.3620644828
 10
-5.3826207737
 20
61.3624654598
 10
-5.3994535062
 20
61.3631504214
 10
-5.4159356128
 20
61.3641131884
 10
-5.4320971678
 20
61.3653599401
 10
-5.448028395
 20
61.3669092149
 10
-5.463759369
 20
61.3687671923
 10
-5.4792600152
 20
61.3709276928
 10
-5.4945303336
 20
61.3733907164
  0
LWPOLYLINE
  5
678
100
AcDbEntity
  8
0
100
AcDbPolyline
 62
7
  6
CONTINUOUS
 90
10
 70
0
 10
-4.2059466274
 20
61.9536487345
 10
-4.1848175155
 20
61.9534134517
 10
-4.1639216751
 20
61.9527895111
 10
-4.143259106
 20
61.9517769127
 10
-4.1228153038
 20
61.9503583129
 10
-4.1026047731
 20
61.9485510553
 10
-4.0826710267
 20
61.9464071704
 10
-4.063028569
 20
61.9439440016
 10
-4.0436628957
 20
61.9411442054
 10
-4.0245740067
 20
61.938007782
  0
LWPOLYLINE
  5
679
100
AcDbEntity
  8
0
100
AcDbPolyline
 62
7
  6
CONTINUOUS
 90
10
 70
0
 10
-5.3384500862
 20
61.937742788
 10
-5.3074017155
 20
61.9372422659
 10
-5.2779338755
 20
61.9361290565
 10
-5.2500465661
 20
61.9344031597
 10
-5.2237491937
 20
61.9320085415
 10
-5.1990323519
 20
61.9290012359
 10
-5.1758678223
 20
61.9255493447
 10
-5.1542461987
 20
61.9217089018
 10
-5.1341768873
 20
61.9174238734
 10
-5.115659888
 20
61.9126942594
  0
LWPOLYLINE
  5
67A
100
AcDbEntity
  8
0
100
AcDbPolyline
 62
7
  6
CONTINUOUS
 90
10
 70
0
 10
-5.293913436
 20
64.2472862873
 10
-5.3269590316
 20
64.2498244221
 10
-5.3583401399
 20
64.2528451088
 10
-5.3880567609
 20
64.2563483472
 10
-5.4160514289
 20
64.2603453786
 10
-5.4423816097
 20
64.2648249617
 10
-5.4672197002
 20
64.2697533738
 10
-5.4906231662
 20
64.2751193739
 10
-5.5125345421
 20
64.2809342028
 10
-5.5329538277
 20
64.2871978607
  0
LWPOLYLINE
  5
67B
100
AcDbEntity
  8
0
100
AcDbPolyline
 62
7
  6
CONTINUOUS
 90
10
 70
0
 10
-5.3670807899
 20
63.9959724698
 10
-5.3273298736
 20
63.991960581
 10
-5.2866053165
 20
63.9884208178
 10
-5.2449071186
 20
63.9853531801
 10
-5.2021788711
 20
63.9827568035
 10
-5.1584769829
 20
63.9806325525
 10
-5.1139706797
 20
63.9789830206
 10
-5.0687163701
 20
63.9778090726
 10
-5.0226576456
 20
63.9771098437
 10
-4.9757945062
 20
63.976885334
  0
LWPOLYLINE
  5
67C
100
AcDbEntity
  8
0
100
AcDbPolyline
 62
7
  6
CONTINUOUS
 90
10
 70
0
 10
-5.1605171511
 20
62.1846088687
 10
-5.1811037044
 20
62.1881048934
 10
-5.2020749221
 20
62.1912149178
 10
-5.2234308041
 20
62.1939389417
 10
-5.2452493809
 20
62.1962916138
 10
-5.267452622
 20
62.1982582855
 10
-5.2898064358
 20
62.1997950114
 10
-5.3122327918
 20
62.2008871429
 10
-5.3348097206
 20
62.2015493285
 10
-5.357537222
 20
62.2017815683
  0
LWPOLYLINE
  5
67D
100
AcDbEntity
  8
0
100
AcDbPolyline
 62
7
  6
CONTINUOUS
 90
10
 70
0
 10
-4.0245740067
 20
61.938007782
 10
-4.0044532433
 20
61.9342043381
 10
-3.9854191404
 20
61.9299255697
 10
-3.967471698
 20
61.9251714769
 10
-3.9506531987
 20
61.9199354427
 10
-3.9349213599
 20
61.914224084
 10
-3.9201493337
 20
61.9080572516
 10
-3.9062948373
 20
61.9014415625
 10
-3.8934001534
 20
61.8943703997
 10
-3.881465282
 20
61.8868437632
  0
LWPOLYLINE
  5
67E
100
AcDbEntity
  8
0
100
AcDbPolyline
 62
7
  6
CONTINUOUS
 90
10
 70
0
 10
-5.4945303336
 20
61.3733907164
 10
-5.5094899128
 20
61.3763320876
 10
-5.5240984882
 20
61.3798374494
 10
-5.5383560601
 20
61.3839068017
 10
-5.5523114009
 20
61.3885756194
 10
-5.5659157381
 20
61.3938084276
 10
-5.5790227539
 20
61.399498802
 10
-5.5915836757
 20
61.4056112678
 10
-5.6036472762
 20
61.4121812998
 10
-5.6152135552
 20
61.419208898
  0
LWPOLYLINE
  5
67F
100
AcDbEntity
  8
0
100
AcDbPolyline
 62
7
  6
CONTINUOUS
 90
10
 70
0
 10
-3.9514514488
 20
62.1922380023
 10
-3.9777885274
 20
62.1979626923
 10
-4.0053952132
 20
62.2030747851
 10
-4.0342715062
 20
62.2075742808
 10
-4.0644030984
 20
62.2114922168
 10
-4.0958042977
 20
62.2147975556
 10
-4.1285180283
 20
62.217397185
 10
-4.162558598
 20
62.2192600675
 10
-4.1979116989
 20
62.2204172405
 10
-4.2345773311
 20
62.2208687041
  0
LINE
  5
680
100
AcDbEntity
  8
0
100
AcDbLine
 62
7
  6
CONTINUOUS
 10
-20.3904770242
 20
66.7406653033
 11
-21.6406640242
 21
67.0746903033
  0
LINE
  5
681
100
AcDbEntity
  8
0
100
AcDbLine
 62
7
  6
CONTINUOUS
 10
-19.5919770242
 20
66.5116183033
 11
-20.1741560242
 21
66.6738593033
  0
LINE
  5
682
100
AcDbEntity
  8
0
100
AcDbLine
 62
7
  6
CONTINUOUS
 10
-21.8919990242
 20
66.9156303033
 11
-19.5919770242
 21
66.2412183033
  0
LWPOLYLINE
  5
683
100
AcDbEntity
  8
0
100
AcDbPolyline
 62
7
  6
CONTINUOUS
 90
10
 70
0
 10
-5.115659888
 20
61.9126942594
 10
-5.0942360399
 20
61.9062259671
 10
-5.0743050594
 20
61.8992289088
 10
-5.0558669465
 20
61.8917030846
 10
-5.0389815905
 20
61.883600169
 10
-5.0235891022
 20
61.8749684874
 10
-5.0095098132
 20
61.8659530164
 10
-4.9966838343
 20
61.8566020817
 10
-4.9851710548
 20
61.8468673576
 10
-4.9749714747
 20
61.8367488442
  0
LINE
  5
684
100
AcDbEntity
  8
RACCORDO
100
AcDbLine
 62
7
  6
CONTINUOUS
 10
-17.3919770242
 20
69.9217624721
 11
-17.3727550685
 21
69.9156322646
  0
LWPOLYLINE
  5
685
100
AcDbEntity
  8
0
100
AcDbPolyline
 62
7
  6
CONTINUOUS
 90
10
 70
0
 10
-5.5329538277
 20
64.2871978607
 10
-5.5556711291
 20
64.2954331045
 10
-5.5767273723
 20
64.3042649946
 10
-5.5961225573
 20
64.3136935312
 10
-5.6138112831
 20
64.3237890118
 10
-5.6298389506
 20
64.3344811388
 10
-5.6443417633
 20
64.3455590193
 10
-5.6573651221
 20
64.3569523557
 10
-5.668863626
 20
64.3687314455
 10
-5.6788372749
 20
64.3808962888
  0
LWPOLYLINE
  5
686
100
AcDbEntity
  8
0
100
AcDbPolyline
 62
7
  6
CONTINUOUS
 90
10
 70
0
 10
-5.5329537928
 20
65.7250955504
 10
-5.5556711073
 20
65.7333308174
 10
-5.5767273599
 20
65.7421627185
 10
-5.5961225504
 20
65.7515912538
 10
-5.6138112783
 20
65.7616867152
 10
-5.6298389442
 20
65.7723788107
 10
-5.64434175
 20
65.7834566647
 10
-5.6573650964
 20
65.7948499855
 10
-5.6688635826
 20
65.8066290649
 10
-5.6788372087
 20
65.8187939028
  0
LWPOLYLINE
  5
687
100
AcDbEntity
  8
0
100
AcDbPolyline
 62
7
  6
CONTINUOUS
 90
10
 70
0
 10
-5.5329537928
 20
67.1629931134
 10
-5.5556711073
 20
67.1712283804
 10
-5.5767273599
 20
67.1800602815
 10
-5.5961225504
 20
67.1894888168
 10
-5.6138112783
 20
67.1995842781
 10
-5.6298389442
 20
67.2102763736
 10
-5.64434175
 20
67.2213542277
 10
-5.6573650964
 20
67.2327475485
 10
-5.6688635826
 20
67.2445266278
 10
-5.6788372087
 20
67.2566914658
  0
LWPOLYLINE
  5
688
100
AcDbEntity
  8
0
100
AcDbPolyline
 62
7
  6
CONTINUOUS
 90
10
 70
0
 10
-3.9455727952
 20
64.7961987209
 10
-3.9229716626
 20
64.7879158806
 10
-3.9021335354
 20
64.7791151989
 10
-3.8830584137
 20
64.7697966757
 10
-3.8658542042
 20
64.7598953712
 10
-3.8504130001
 20
64.7494762252
 10
-3.836411081
 20
64.7387340572
 10
-3.8237405398
 20
64.7277338069
 10
-3.8125092836
 20
64.7164105346
 10
-3.8027173123
 20
64.7047642402
  0
LWPOLYLINE
  5
689
100
AcDbEntity
  8
0
100
AcDbPolyline
 62
7
  6
CONTINUOUS
 90
10
 70
0
 10
-3.9455727546
 20
66.2340964088
 10
-3.9229716173
 20
66.2258135454
 10
-3.9021334848
 20
66.2170128515
 10
-3.8830583572
 20
66.2076943273
 10
-3.8658541373
 20
66.1977930344
 10
-3.8504129222
 20
66.187373911
 10
-3.8364110031
 20
66.1766317722
 10
-3.8237404769
 20
66.1656315561
 10
-3.8125092467
 20
66.1543083245
 10
-3.8027173123
 20
66.1426620773
  0
LWPOLYLINE
  5
68A
100
AcDbEntity
  8
0
100
AcDbPolyline
 62
7
  6
CONTINUOUS
 90
10
 70
0
 10
-3.8305662401
 20
65.0203154209
 10
-3.8583277831
 20
65.0315942973
 10
-3.8878466626
 20
65.0420563917
 10
-3.9191228784
 20
65.0517017041
 10
-3.9520840333
 20
65.0605493683
 10
-3.9868025246
 20
65.0685802506
 10
-4.0234955439
 20
65.0757369494
 10
-4.0622354882
 20
65.0820003311
 10
-4.1029499605
 20
65.0873895293
 10
-4.1456389607
 20
65.0919045441
  0
LWPOLYLINE
  5
68B
100
AcDbEntity
  8
0
100
AcDbPolyline
 62
7
  6
CONTINUOUS
 90
10
 70
0
 10
-3.8305662401
 20
66.458213258
 10
-3.8583277739
 20
66.4694921178
 10
-3.8878466468
 20
66.4799541889
 10
-3.9191228589
 20
66.4895994716
 10
-3.9520840135
 20
66.4984470953
 10
-3.9868025072
 20
66.5064779306
 10
-4.0234955298
 20
66.5136345882
 10
-4.0622354779
 20
66.5198979387
 10
-4.1029499549
 20
66.5252871117
 10
-4.1456389607
 20
66.5298021071
  0
LWPOLYLINE
  5
68C
100
AcDbEntity
  8
0
100
AcDbPolyline
 62
7
  6
CONTINUOUS
 90
10
 70
0
 10
-3.8305662401
 20
67.896110821
 10
-3.8583277853
 20
67.9073897153
 10
-3.8878466657
 20
67.9178518285
 10
-3.9191228812
 20
67.9274971605
 10
-3.9520840331
 20
67.9363448522
 10
-3.9868025202
 20
67.9443757628
 10
-4.0234955386
 20
67.9515324697
 10
-4.0622354873
 20
67.957795832
 10
-4.1029499673
 20
67.9631849906
 10
-4.1456389787
 20
67.9676999456
  0
LWPOLYLINE
  5
68D
100
AcDbEntity
  8
0
100
AcDbPolyline
 62
7
  6
CONTINUOUS
 90
10
 70
0
 10
-5.6692937733
 20
64.072321013
 10
-5.6433700324
 20
64.0609042842
 10
-5.6155758944
 20
64.0501805459
 10
-5.5859113595
 20
64.0401497981
 10
-5.5544343913
 20
64.0307581757
 10
-5.5210870261
 20
64.0220595438
 10
-5.4856953725
 20
64.0142154977
 10
-5.4482014667
 20
64.0072799026
 10
-5.4086632725
 20
64.0011988933
 10
-5.3670807899
 20
63.9959724698
  0
LWPOLYLINE
  5
68E
100
AcDbEntity
  8
0
100
AcDbPolyline
 62
7
  6
CONTINUOUS
 90
10
 70
0
 10
-5.6692937733
 20
65.510218576
 10
-5.6433700324
 20
65.4988018472
 10
-5.6155758944
 20
65.4880781089
 10
-5.5859113595
 20
65.4780473611
 10
-5.5544343913
 20
65.4686557387
 10
-5.5210870261
 20
65.4599571068
 10
-5.4856953725
 20
65.4521130607
 10
-5.4482014667
 20
65.4451774655
 10
-5.4086632725
 20
65.4390964563
 10
-5.3670807899
 20
65.4338700328
  0
LWPOLYLINE
  5
68F
100
AcDbEntity
  8
0
100
AcDbPolyline
 62
7
  6
CONTINUOUS
 90
10
 70
0
 10
-5.6692937733
 20
66.948116139
 10
-5.6433700324
 20
66.9366994102
 10
-5.6155758944
 20
66.9259756719
 10
-5.5859113595
 20
66.9159449241
 10
-5.5544343913
 20
66.9065533017
 10
-5.5210870261
 20
66.8978546697
 10
-5.4856953725
 20
66.8900106237
 10
-5.4482014667
 20
66.8830750285
 10
-5.4086632725
 20
66.8769940192
 10
-5.3670807899
 20
66.8717675958
  0
LINE
  5
690
100
AcDbEntity
  8
0
100
AcDbLine
 62
7
  6
CONTINUOUS
 10
-20.1741560242
 20
67.4723393033
 11
-19.5919770242
 21
67.6345583033
  0
LINE
  5
691
100
AcDbEntity
  8
0
100
AcDbLine
 62
7
  6
CONTINUOUS
 10
-21.6406640242
 20
67.0746903033
 11
-20.3904770242
 21
67.4087153033
  0
LWPOLYLINE
  5
692
100
AcDbEntity
  8
0
100
AcDbPolyline
 62
7
  6
CONTINUOUS
 90
49
 70
0
 10
-8.701178189
 20
72.9795306301
 10
-8.6888876601
 20
72.9826488558
 10
-8.6766355874
 20
72.9872552299
 10
-8.6644219709
 20
72.9933497522
 10
-8.6522887031
 20
73.0012572464
 10
-8.6401938916
 20
73.0106528889
 10
-8.6280118589
 20
73.0205622093
 10
-8.6156996534
 20
73.0306786484
 10
-8.6033002268
 20
73.0413087654
 10
-8.5908167563
 20
73.0523977683
 10
-8.5782258207
 20
73.0638449579
 10
-8.5655508413
 20
73.0757510334
 10
-8.5528652593
 20
73.0883633002
 10
-8.5401529881
 20
73.1016636039
 10
-8.5274301143
 20
73.115670099
 10
-8.5148183391
 20
73.1306845533
 10
-8.5023031224
 20
73.1467612439
 10
-8.4898990042
 20
73.1638458938
 10
-8.4777713056
 20
73.1820774404
 10
-8.4658999499
 20
73.201485024
 10
-8.4543050138
 20
73.2220395043
 10
-8.4432120482
 20
73.2437923976
 10
-8.4325971268
 20
73.266757921
 10
-8.4224841759
 20
73.2909218575
 10
-8.4131705249
 20
73.3162930727
 10
-8.4046526211
 20
73.3428480851
 10
-8.3969340171
 20
73.3706103762
 10
-8.390322701
 20
73.3996592558
 10
-8.3848061841
 20
73.4300084874
 10
-8.3803969549
 20
73.4616443075
 10
-8.3774404672
 20
73.4946047351
 10
-8.3758838778
 20
73.5289324904
 10
-8.3757800298
 20
73.5645848532
 10
-8.3776329058
 20
73.6014716819
 10
-8.3812580678
 20
73.6396455756
 10
-8.3868399539
 20
73.6790539353
 10
-8.3954358603
 20
73.7194488222
 10
-8.4069845356
 20
73.7610062675
 10
-8.4215472312
 20
73.8035502401
 10
-8.4403649981
 20
73.846304707
 10
-8.4642463215
 20
73.8900474083
 10
-8.4923827161
 20
73.9340006041
 10
-8.5235897778
 20
73.9750550418
 10
-8.5582976489
 20
74.0126618045
 10
-8.5960761869
 20
74.0473698092
 10
-8.6344505601
 20
74.0777165549
 10
-8.6725958245
 20
74.1032145413
 10
-8.711336924
 20
74.1243512687
 10
-8.7506738586
 20
74.1411267372
  0
LWPOLYLINE
  5
693
100
AcDbEntity
  8
RACCORDO
100
AcDbPolyline
 62
7
  6
CONTINUOUS
 90
13
 70
0
 10
-3.8248197367
 20
71.735663655
 10
-3.8138239244
 20
71.7377335068
 10
-3.8029191351
 20
71.74334369
 10
-3.7924201189
 20
71.7522749119
 10
-3.7827378261
 20
71.7642114083
 10
-3.773977262
 20
71.7788693712
 10
-3.7659823049
 20
71.7961032651
 10
-3.7589344135
 20
71.8156728125
 10
-3.7530716492
 20
71.8372045176
 10
-3.7483380146
 20
71.8604020158
 10
-3.7448076132
 20
71.8849106716
 10
-3.7426633563
 20
71.9103063086
 10
-3.7419770242
 20
71.9361672477
  0
LWPOLYLINE
  5
694
100
AcDbEntity
  8
RACCORDO
100
AcDbPolyline
 62
7
  6
CONTINUOUS
 90
13
 70
0
 10
-21.6591343117
 20
72.3251609515
 10
-21.670130124
 20
72.3230910998
 10
-21.6810349133
 20
72.3174809166
 10
-21.6915339294
 20
72.3085496947
 10
-21.7012162223
 20
72.2966131983
 10
-21.7099767864
 20
72.2819552354
 10
-21.7179717434
 20
72.2647213415
 10
-21.7250196349
 20
72.245151794
 10
-21.7308823992
 20
72.2236200889
 10
-21.7356160338
 20
72.2004225908
 10
-21.7391464352
 20
72.175913935
 10
-21.741290692
 20
72.150518298
 10
-21.7419770242
 20
72.1246573589
  0
LWPOLYLINE
  5
695
100
AcDbEntity
  8
0
100
AcDbPolyline
 62
7
  6
CONTINUOUS
 90
10
 70
0
 10
-9.473172668
 20
73.8004171731
 10
-9.430881611
 20
73.807456527
 10
-9.3887303744
 20
73.8131191603
 10
-9.3467189581
 20
73.8174050728
 10
-9.3048656913
 20
73.8203236805
 10
-9.2631522448
 20
73.8218655674
 10
-9.221523632
 20
73.8220024863
 10
-9.1799615238
 20
73.8207250213
 10
-9.1384842492
 20
73.8180425883
 10
-9.0970918083
 20
73.8139551872
  0
LWPOLYLINE
  5
696
100
AcDbEntity
  8
0
100
AcDbPolyline
 62
7
  6
CONTINUOUS
 90
10
 70
0
 10
-5.3797865416
 20
67.9659244856
 10
-5.4201313416
 20
67.9607606039
 10
-5.4585511386
 20
67.9547311526
 10
-5.4950459325
 20
67.9478361316
 10
-5.5295391856
 20
67.9400214992
 10
-5.5621074356
 20
67.9313412972
 10
-5.5929802959
 20
67.9219576509
 10
-5.6222343043
 20
67.911924602
 10
-5.6497929229
 20
67.9011881088
 10
-5.6756561519
 20
67.8897481713
  0
LWPOLYLINE
  5
697
100
AcDbEntity
  8
0
100
AcDbPolyline
 62
7
  6
CONTINUOUS
 90
10
 70
0
 10
-4.1390066538
 20
66.86700845
 10
-4.0963679987
 20
66.8717574304
 10
-4.0557708875
 20
66.8774333472
 10
-4.0172153199
 20
66.8840362005
 10
-3.9807613625
 20
66.8916381693
 10
-3.9463489488
 20
66.9001670745
 10
-3.9137978796
 20
66.9094063785
 10
-3.8830480886
 20
66.9192839023
 10
-3.8541596421
 20
66.929871825
 10
-3.8271325401
 20
66.9411701466
  0
LWPOLYLINE
  5
698
100
AcDbEntity
  8
RACCORDO
100
AcDbPolyline
 62
250
  6
CONTINUOUS
 90
13
 70
0
 10
-17.0763418702
 20
71.1147657262
 10
-17.1154971492
 20
71.112196444
 10
-17.1539823854
 20
71.104538552
 10
-17.1911391365
 20
71.0919231192
 10
-17.226331712
 20
71.074566024
 10
-17.2589580102
 20
71.0527642771
 10
-17.2884598283
 20
71.0268909537
 10
-17.3143324656
 20
70.9973887704
 10
-17.3361333343
 20
70.9647625065
 10
-17.353489504
 20
70.9295703991
 10
-17.3661041044
 20
70.8924145623
 10
-17.3737613951
 20
70.8539306808
 10
-17.3763304471
 20
70.8147771493
  0
LWPOLYLINE
  5
699
100
AcDbEntity
  8
0
100
AcDbPolyline
 62
7
  6
CONTINUOUS
 90
9
 70
0
 10
-4.1868521327
 20
67.1229740741
 10
-4.219461942
 20
67.1209342473
 10
-4.2527594611
 20
67.1191472719
 10
-4.2867446899
 20
67.1176131479
 10
-4.321422056
 20
67.1163385531
 10
-4.3567871318
 20
67.1153168096
 10
-4.3928266346
 20
67.1145278842
 10
-4.4295361366
 20
67.1139650989
 10
-4.4669200656
 20
67.1136351317
  0
LWPOLYLINE
  5
69A
100
AcDbEntity
  8
0
100
AcDbPolyline
 62
7
  6
CONTINUOUS
 90
9
 70
0
 10
-5.2939134542
 20
66.2768853328
 10
-5.2629028848
 20
66.278821475
 10
-5.2304660737
 20
66.2805441056
 10
-5.196603021
 20
66.2820532244
 10
-5.1613286851
 20
66.2833560696
 10
-5.1246281076
 20
66.2844454032
 10
-5.0864564128
 20
66.2852995109
 10
-5.0467986421
 20
66.2859111547
 10
-5.0056697542
 20
66.2862875727
  0
LWPOLYLINE
  5
69B
100
AcDbEntity
  8
0
100
AcDbPolyline
 62
7
  6
CONTINUOUS
 90
9
 70
0
 10
-5.2939134542
 20
67.7147828958
 10
-5.2629028848
 20
67.716719038
 10
-5.2304660737
 20
67.7184416685
 10
-5.196603021
 20
67.7199507874
 10
-5.1613286851
 20
67.7212536326
 10
-5.1246281076
 20
67.7223429662
 10
-5.0864564128
 20
67.7231970739
 10
-5.0467986421
 20
67.7238087177
 10
-5.0056697542
 20
67.7241851357
  0
LWPOLYLINE
  5
69C
100
AcDbEntity
  8
RACCORDO
100
AcDbPolyline
 62
250
  6
CONTINUOUS
 90
13
 70
0
 10
-17.0732669766
 20
70.7500733102
 10
-17.1122706136
 20
70.7481183833
 10
-17.1506120103
 20
70.742627109
 10
-17.1876403033
 20
70.7336927394
 10
-17.2227269423
 20
70.7214669685
 10
-17.2552763217
 20
70.7061573682
 10
-17.2847359001
 20
70.6880238741
 10
-17.3106056308
 20
70.6673743455
 10
-17.3324464279
 20
70.644559337
 10
-17.3498875919
 20
70.6199661684
 10
-17.3626331249
 20
70.5940123296
 10
-17.370466746
 20
70.5671383902
 10
-17.3732555535
 20
70.5398005309
  0
LWPOLYLINE
  5
69D
100
AcDbEntity
  8
RACCORDO
100
AcDbPolyline
 62
250
  6
CONTINUOUS
 90
13
 70
0
 10
-17.0751122128
 20
70.9652393969
 10
-17.1141150607
 20
70.9632845315
 10
-17.1524558298
 20
70.9577934406
 10
-17.1894836802
 20
70.948859336
 10
-17.224570059
 20
70.9366338755
 10
-17.25711937
 20
70.921324588
 10
-17.2865790841
 20
70.9031913507
 10
-17.3124491186
 20
70.8825419779
 10
-17.334290326
 20
70.8597269955
 10
-17.3517319488
 20
70.8351336911
 10
-17.364477913
 20
70.8091795395
 10
-17.372311854
 20
70.7823051159
 10
-17.3751007897
 20
70.7549666176
  0
LWPOLYLINE
  5
69E
100
AcDbEntity
  8
0
100
AcDbPolyline
 62
7
  6
CONTINUOUS
 90
9
 70
0
 10
-4.494848648
 20
65.4148676226
 10
-4.4449310955
 20
65.4153095909
 10
-4.396581225
 20
65.416108802
 10
-4.3498137278
 20
65.4172391651
 10
-4.3046139125
 20
65.418726771
 10
-4.2609377048
 20
65.4206498915
 10
-4.2187704135
 20
65.4230346173
 10
-4.1781267298
 20
65.4258548578
 10
-4.1390066538
 20
65.4291106129
  0
LWPOLYLINE
  5
69F
100
AcDbEntity
  8
0
100
AcDbPolyline
 62
7
  6
CONTINUOUS
 90
9
 70
0
 10
-4.494848648
 20
66.8527654598
 10
-4.4449310955
 20
66.8532074281
 10
-4.396581225
 20
66.8540066391
 10
-4.3498137278
 20
66.8551370023
 10
-4.3046139125
 20
66.8566246081
 10
-4.2609377048
 20
66.8585477287
 10
-4.2187704135
 20
66.8609324545
 10
-4.1781267298
 20
66.8637526949
 10
-4.1390066538
 20
66.86700845
  0
LINE
  5
6A0
100
AcDbEntity
  8
RACCORDO
100
AcDbLine
 62
250
  6
CONTINUOUS
 10
-21.6591343117
 20
71.735663655
 11
-20.7286050668
 21
71.7437842607
  0
LINE
  5
6A1
100
AcDbEntity
  8
RACCORDO
100
AcDbLine
 62
250
  6
CONTINUOUS
 10
-21.7419770242
 20
71.9361672477
 11
-20.7261303705
 21
71.9450324072
  0
LINE
  5
6A2
100
AcDbEntity
  8
RACCORDO
100
AcDbLine
 62
250
  6
CONTINUOUS
 10
-3.7419770242
 20
72.1246573589
 11
-4.7578236779
 21
72.1157921994
  0
LINE
  5
6A3
100
AcDbEntity
  8
RACCORDO
100
AcDbLine
 62
250
  6
CONTINUOUS
 10
-3.8248197367
 20
72.3251609515
 11
-4.7553489816
 21
72.3170403459
  0
LWPOLYLINE
  5
6A4
100
AcDbEntity
  8
0
100
AcDbPolyline
 62
7
  6
CONTINUOUS
 90
10
 70
0
 10
-4.9885192634
 20
66.5472865615
 10
-5.0355654353
 20
66.5470617332
 10
-5.0817878745
 20
66.5463552222
 10
-5.1271865809
 20
66.5451670285
 10
-5.1718539207
 20
66.5434932857
 10
-5.2156975278
 20
66.5413378602
 10
-5.2584403033
 20
66.5387123512
 10
-5.299989881
 20
66.5356206252
 10
-5.3404386271
 20
66.5320588156
 10
-5.3797865416
 20
66.5280269226
  0
LWPOLYLINE
  5
6A5
100
AcDbEntity
  8
0
100
AcDbPolyline
 62
7
  6
CONTINUOUS
 90
10
 70
0
 10
-4.9885192634
 20
67.9851841245
 10
-5.0355654353
 20
67.9849592962
 10
-5.0817878745
 20
67.9842527852
 10
-5.1271865809
 20
67.9830645915
 10
-5.1718539207
 20
67.9813908487
 10
-5.2156975278
 20
67.9792354232
 10
-5.2584403033
 20
67.9766099142
 10
-5.299989881
 20
67.9735181882
 10
-5.3404386271
 20
67.9699563786
 10
-5.3797865416
 20
67.9659244856
  0
LINE
  5
6A6
100
AcDbEntity
  8
0
100
AcDbLine
 62
7
  6
CONTINUOUS
 10
-19.8083040242
 20
65.2805073033
 11
-20.6704060242
 21
65.2805073033
  0
LINE
  5
6A7
100
AcDbEntity
  8
0
100
AcDbLine
 62
7
  6
CONTINUOUS
 10
-20.8867280242
 20
65.2805073033
 11
-21.6756630242
 21
65.2805073033
  0
LINE
  5
6A8
100
AcDbEntity
  8
0
100
AcDbLine
 62
7
  6
CONTINUOUS
 10
-4.9757945062
 20
65.414782897
 11
-4.494848648
 21
65.4148676226
  0
LINE
  5
6A9
100
AcDbEntity
  8
0
100
AcDbLine
 62
7
  6
CONTINUOUS
 10
-4.4669200656
 20
65.6757375687
 11
-4.963069749
 21
65.6756404195
  0
LINE
  5
6AA
100
AcDbEntity
  8
0
100
AcDbLine
 62
7
  6
CONTINUOUS
 10
-20.6704060242
 20
66.0280863033
 11
-20.8867280242
 21
66.0280863033
  0
LINE
  5
6AB
100
AcDbEntity
  8
0
100
AcDbLine
 62
7
  6
CONTINUOUS
 10
-21.6756630242
 20
66.0694423033
 11
-21.8919840242
 21
66.0694423033
  0
LINE
  5
6AC
100
AcDbEntity
  8
0
100
AcDbLine
 62
7
  6
CONTINUOUS
 10
-19.5919830242
 20
66.0917103033
 11
-19.8083040242
 21
66.0917103033
  0
LINE
  5
6AD
100
AcDbEntity
  8
0
100
AcDbLine
 62
7
  6
CONTINUOUS
 10
-5.0056697542
 20
66.2862875727
 11
-4.5017972321
 21
66.2864287648
  0
LINE
  5
6AE
100
AcDbEntity
  8
0
100
AcDbLine
 62
7
  6
CONTINUOUS
 10
-4.5526962609
 20
66.5472865615
 11
-4.9885192634
 21
66.5472865615
  0
LINE
  5
6AF
100
AcDbEntity
  8
0
100
AcDbLine
 62
7
  6
CONTINUOUS
 10
-4.9757945062
 20
66.8526807342
 11
-4.494848648
 21
66.8527654598
  0
LINE
  5
6B0
100
AcDbEntity
  8
0
100
AcDbLine
 62
7
  6
CONTINUOUS
 10
-4.4669200656
 20
67.1136351317
 11
-4.963069749
 21
67.1135379825
  0
LINE
  5
6B1
100
AcDbEntity
  8
0
100
AcDbLine
 62
7
  6
CONTINUOUS
 10
-5.0056697542
 20
67.7241851357
 11
-4.5017972321
 21
67.7243263278
  0
LINE
  5
6B2
100
AcDbEntity
  8
0
100
AcDbLine
 62
7
  6
CONTINUOUS
 10
-4.5526962609
 20
67.9851841245
 11
-4.9885192634
 21
67.9851841245
  0
LINE
  5
6B3
100
AcDbEntity
  8
DRAFT
100
AcDbLine
 62
7
  6
CONTINUOUS
 10
-17.4245664267
 20
69.3304123033
 11
-17.0759977702
 21
69.3304123033
  0
LINE
  5
6B4
100
AcDbEntity
  8
DRAFT
100
AcDbLine
 62
7
  6
CONTINUOUS
 10
-8.4079562781
 20
69.3304123033
 11
-8.0593876217
 21
69.3304123033
  0
LINE
  5
6B5
100
AcDbEntity
  8
RACCORDO
100
AcDbLine
 62
7
  6
CONTINUOUS
 10
-8.0593876217
 20
69.3509318659
 11
-17.4245664267
 21
69.3509318659
  0
LINE
  5
6B6
100
AcDbEntity
  8
RACCORDO
100
AcDbLine
 62
250
  6
CONTINUOUS
 10
-8.0593876217
 20
69.5009261544
 11
-17.4245664267
 21
69.5009261544
  0
LINE
  5
6B7
100
AcDbEntity
  8
RACCORDO
100
AcDbLine
 62
250
  6
CONTINUOUS
 10
-8.1111989799
 20
70.399618678
 11
-17.3727550685
 21
70.399618678
  0
LINE
  5
6B8
100
AcDbEntity
  8
RACCORDO
100
AcDbLine
 62
250
  6
CONTINUOUS
 10
-8.4106870718
 20
70.7500733102
 11
-17.0732669766
 21
70.7500733102
  0
LINE
  5
6B9
100
AcDbEntity
  8
RACCORDO
100
AcDbLine
 62
7
  6
CONTINUOUS
 10
-5.1422724894
 20
70.9426374301
 11
-4.9416815589
 21
70.9426374301
  0
LINE
  5
6BA
100
AcDbEntity
  8
RACCORDO
100
AcDbLine
 62
7
  6
CONTINUOUS
 10
-20.3416815589
 20
70.9426374301
 11
-20.5422724894
 21
70.9426374301
  0
LINE
  5
6BB
100
AcDbEntity
  8
RACCORDO
100
AcDbLine
 62
250
  6
CONTINUOUS
 10
-17.0751122128
 20
70.9652393969
 11
-8.4088418356
 21
70.9652393969
  0
LINE
  5
6BC
100
AcDbEntity
  8
RACCORDO
100
AcDbLine
 62
7
  6
CONTINUOUS
 10
-17.0763418702
 20
71.1147657262
 11
-8.4076121782
 21
71.1147657262
  0
LINE
  5
6BD
100
AcDbEntity
  8
RACCORDO
100
AcDbLine
 62
7
  6
CONTINUOUS
 10
-8.3919656011
 20
71.1304123033
 11
-17.0919884473
 21
71.1304123033
  0
LINE
  5
6BE
100
AcDbEntity
  8
RACCORDO
100
AcDbLine
 62
250
  6
CONTINUOUS
 10
-5.1249912305
 20
71.2918064885
 11
-4.9589628179
 21
71.2918064885
  0
LINE
  5
6BF
100
AcDbEntity
  8
RACCORDO
100
AcDbLine
 62
250
  6
CONTINUOUS
 10
-20.3589628179
 20
71.2918064885
 11
-20.5249912305
 21
71.2918064885
  0
LINE
  5
6C0
100
AcDbEntity
  8
DRAFT
100
AcDbLine
 62
7
  6
CONTINUOUS
 10
-22.7280129722
 20
71.7304123033
 11
-20.7419770242
 21
71.7304123033
  0
LINE
  5
6C1
100
AcDbEntity
  8
DRAFT
100
AcDbLine
 62
7
  6
CONTINUOUS
 10
-2.7559410761
 20
71.7304123033
 11
-4.7419770242
 21
71.7304123033
  0
LINE
  5
6C2
100
AcDbEntity
  8
RACCORDO
100
AcDbLine
 62
7
  6
CONTINUOUS
 10
-22.7385164757
 20
71.735663655
 11
-21.6591343117
 21
71.735663655
  0
LINE
  5
6C3
100
AcDbEntity
  8
RACCORDO
100
AcDbLine
 62
7
  6
CONTINUOUS
 10
-3.8248197367
 20
71.735663655
 11
-2.7454375727
 21
71.735663655
  0
LINE
  5
6C4
100
AcDbEntity
  8
0
100
AcDbLine
 62
7
  6
CONTINUOUS
 10
-16.4544330242
 20
71.8924193033
 11
-16.0313830242
 21
71.8924193033
  0
LINE
  5
6C5
100
AcDbEntity
  8
0
100
AcDbLine
 62
7
  6
CONTINUOUS
 10
-15.1139890242
 20
71.8924193033
 11
-14.6339330242
 21
71.8924193033
  0
LINE
  5
6C6
100
AcDbEntity
  8
0
100
AcDbLine
 62
7
  6
CONTINUOUS
 10
-14.3755030242
 20
71.8924193033
 11
-13.9162450242
 21
71.8924193033
  0
LINE
  5
6C7
100
AcDbEntity
  8
0
100
AcDbLine
 62
7
  6
CONTINUOUS
 10
-13.2494850242
 20
71.8924193033
 11
-13.1821570242
 21
71.8924193033
  0
LINE
  5
6C8
100
AcDbEntity
  8
0
100
AcDbLine
 62
7
  6
CONTINUOUS
 10
-12.5127410242
 20
71.8924193033
 11
-12.0431190242
 21
71.8924193033
  0
LINE
  5
6C9
100
AcDbEntity
  8
0
100
AcDbLine
 62
7
  6
CONTINUOUS
 10
-11.9677370242
 20
71.8924193033
 11
-11.4928890242
 21
71.8924193033
  0
LINE
  5
6CA
100
AcDbEntity
  8
0
100
AcDbLine
 62
7
  6
CONTINUOUS
 10
-10.5823070242
 20
71.8924193033
 11
-10.0763470242
 21
71.8924193033
  0
LINE
  5
6CB
100
AcDbEntity
  8
0
100
AcDbLine
 62
7
  6
CONTINUOUS
 10
-9.9353794421
 20
71.8924194697
 11
-9.4572547227
 21
71.8924194697
  0
LINE
  5
6CC
100
AcDbEntity
  8
0
100
AcDbLine
 62
7
  6
CONTINUOUS
 10
-8.7221146848
 20
71.8924194697
 11
-8.2603563035
 21
71.8924194697
  0
LINE
  5
6CD
100
AcDbEntity
  8
RACCORDO
100
AcDbLine
 62
250
  6
CONTINUOUS
 10
-22.7419770242
 20
71.9356560396
 11
-21.7419770242
 21
71.9356560396
  0
LINE
  5
6CE
100
AcDbEntity
  8
RACCORDO
100
AcDbLine
 62
250
  6
CONTINUOUS
 10
-3.7419770242
 20
71.9356560396
 11
-2.7419770242
 21
71.9356560396
  0
LINE
  5
6CF
100
AcDbEntity
  8
RACCORDO
100
AcDbLine
 62
250
  6
CONTINUOUS
 10
-2.7419770242
 20
72.1251685669
 11
-3.7419770242
 21
72.1251685669
  0
LINE
  5
6D0
100
AcDbEntity
  8
RACCORDO
100
AcDbLine
 62
250
  6
CONTINUOUS
 10
-21.7419770242
 20
72.1251685669
 11
-22.7419770242
 21
72.1251685669
  0
LINE
  5
6D1
100
AcDbEntity
  8
RACCORDO
100
AcDbLine
 62
7
  6
CONTINUOUS
 10
-2.7454375727
 20
72.3251609515
 11
-3.8248197367
 21
72.3251609515
  0
LINE
  5
6D2
100
AcDbEntity
  8
RACCORDO
100
AcDbLine
 62
7
  6
CONTINUOUS
 10
-21.6591343117
 20
72.3251609515
 11
-22.7385164757
 21
72.3251609515
  0
LINE
  5
6D3
100
AcDbEntity
  8
DRAFT
100
AcDbLine
 62
7
  6
CONTINUOUS
 10
-22.7280129722
 20
72.3304123033
 11
-20.7419770242
 21
72.3304123033
  0
LINE
  5
6D4
100
AcDbEntity
  8
DRAFT
100
AcDbLine
 62
7
  6
CONTINUOUS
 10
-2.7559410761
 20
72.3304123033
 11
-4.7419770242
 21
72.3304123033
  0
LINE
  5
6D5
100
AcDbEntity
  8
0
100
AcDbLine
 62
7
  6
CONTINUOUS
 10
-11.3604240242
 20
72.3515393033
 11
-10.7066670242
 21
72.3515393033
  0
LINE
  5
6D6
100
AcDbEntity
  8
0
100
AcDbLine
 62
7
  6
CONTINUOUS
 10
-10.8026060242
 20
72.7068043033
 11
-11.2622260242
 21
72.7068043033
  0
LINE
  5
6D7
100
AcDbEntity
  8
RACCORDO
100
AcDbLine
 62
250
  6
CONTINUOUS
 10
-5.1249912305
 20
72.769018118
 11
-4.9589628179
 21
72.769018118
  0
LINE
  5
6D8
100
AcDbEntity
  8
RACCORDO
100
AcDbLine
 62
250
  6
CONTINUOUS
 10
-20.3589628179
 20
72.769018118
 11
-20.5249912305
 21
72.769018118
  0
LINE
  5
6D9
100
AcDbEntity
  8
0
100
AcDbLine
 62
7
  6
CONTINUOUS
 10
-9.4572547227
 20
72.7924301006
 11
-9.1998599948
 21
72.7924301006
  0
LINE
  5
6DA
100
AcDbEntity
  8
RACCORDO
100
AcDbLine
 62
7
  6
CONTINUOUS
 10
-5.1422724894
 20
73.1181871765
 11
-4.9416815589
 21
73.1181871765
  0
LINE
  5
6DB
100
AcDbEntity
  8
RACCORDO
100
AcDbLine
 62
7
  6
CONTINUOUS
 10
-20.3416815589
 20
73.1181871765
 11
-20.5422724894
 21
73.1181871765
  0
LINE
  5
6DC
100
AcDbEntity
  8
0
100
AcDbLine
 62
7
  6
CONTINUOUS
 10
-9.1988252421
 20
73.1690800743
 11
-9.473172668
 21
73.1690800743
  0
LINE
  5
6DD
100
AcDbEntity
  8
0
100
AcDbLine
 62
7
  6
CONTINUOUS
 10
-10.7819800242
 20
74.1922093033
 11
-11.2463770242
 21
74.1922093033
  0
LINE
  5
6DE
100
AcDbEntity
  8
0
100
AcDbLine
 62
7
  6
CONTINUOUS
 10
-12.2581750242
 20
74.1922093033
 11
-12.7331440242
 21
74.1922093033
  0
LINE
  5
6DF
100
AcDbEntity
  8
0
100
AcDbLine
 62
7
  6
CONTINUOUS
 10
-13.6881860242
 20
74.1922093033
 11
-14.1678460242
 21
74.1922093033
  0
LINE
  5
6E0
100
AcDbEntity
  8
0
100
AcDbLine
 62
7
  6
CONTINUOUS
 10
-15.2921390242
 20
74.1922093033
 11
-15.7718670242
 21
74.1922093033
  0
LINE
  5
6E1
100
AcDbEntity
  8
0
100
AcDbLine
 62
7
  6
CONTINUOUS
 10
-16.6620220242
 20
74.1922093033
 11
-17.1835110242
 21
74.1922093033
  0
LINE
  5
6E2
100
AcDbEntity
  8
0
100
AcDbLine
 62
7
  6
CONTINUOUS
 10
-14.6339330242
 20
74.1923473033
 11
-15.1139890242
 21
74.1923473033
  0
LINE
  5
6E3
100
AcDbEntity
  8
DRAFT
100
AcDbLine
 62
7
  6
CONTINUOUS
 10
-2.7559410761
 20
74.6619175562
 11
-22.7280129722
 21
74.6619175562
  0
LINE
  5
6E4
100
AcDbEntity
  8
DRAFT
100
AcDbLine
 62
7
  6
CONTINUOUS
 10
-2.7419770242
 20
74.6828662935
 11
-22.7419770242
 21
74.6828662935
  0
LINE
  5
6E5
100
AcDbEntity
  8
RACCORDO
100
AcDbLine
 62
7
  6
CONTINUOUS
 10
-2.1889403455
 20
75.8832776445
 11
-23.2950137029
 21
75.8832776445
  0
LWPOLYLINE
  5
6E6
100
AcDbEntity
  8
0
100
AcDbPolyline
 62
7
  6
CONTINUOUS
 90
10
 70
0
 10
-4.963069749
 20
65.6756404195
 10
-5.0056697542
 20
65.6757816116
 10
-5.0467986421
 20
65.6761580296
 10
-5.0864564128
 20
65.6767696734
 10
-5.1246281076
 20
65.6776237811
 10
-5.1613286851
 20
65.6787131147
 10
-5.196603021
 20
65.6800159599
 10
-5.2304660737
 20
65.6815250788
 10
-5.2629028848
 20
65.6832477093
 10
-5.2939134542
 20
65.6851838515
  0
LWPOLYLINE
  5
6E7
100
AcDbEntity
  8
0
100
AcDbPolyline
 62
7
  6
CONTINUOUS
 90
10
 70
0
 10
-4.963069749
 20
67.1135379825
 10
-5.0056697542
 20
67.1136791746
 10
-5.0467986421
 20
67.1140555926
 10
-5.0864564128
 20
67.1146672364
 10
-5.1246281076
 20
67.1155213441
 10
-5.1613286851
 20
67.1166106777
 10
-5.196603021
 20
67.1179135229
 10
-5.2304660737
 20
67.1194226418
 10
-5.2629028848
 20
67.1211452723
 10
-5.2939134542
 20
67.1230814145
  0
LWPOLYLINE
  5
6E8
100
AcDbEntity
  8
0
100
AcDbPolyline
 62
7
  6
CONTINUOUS
 90
10
 70
0
 10
-4.5017972321
 20
66.2864287648
 10
-4.4603031974
 20
66.286286299
 10
-4.4202685378
 20
66.2859113381
 10
-4.3816932533
 20
66.2853038819
 10
-4.344592105
 20
66.284455933
 10
-4.3089503319
 20
66.283375489
 10
-4.2747236508
 20
66.2820865425
 10
-4.2418973009
 20
66.2805970913
 10
-4.2104860432
 20
66.2788991376
 10
-4.1804898776
 20
66.2769926816
  0
LWPOLYLINE
  5
6E9
100
AcDbEntity
  8
0
100
AcDbPolyline
 62
7
  6
CONTINUOUS
 90
10
 70
0
 10
-4.5017972321
 20
67.7243263278
 10
-4.4603031974
 20
67.724183862
 10
-4.4202685378
 20
67.723808901
 10
-4.3816932533
 20
67.7232014449
 10
-4.344592105
 20
67.722353496
 10
-4.3089503319
 20
67.721273052
 10
-4.2747236508
 20
67.7199841055
 10
-4.2418973009
 20
67.7184946543
 10
-4.2104860432
 20
67.7167967006
 10
-4.1804898776
 20
67.7148902445
  0
LINE
  5
6EA
100
AcDbEntity
  8
RACCORDO
100
AcDbLine
 62
250
  6
CONTINUOUS
 10
-4.7553489816
 20
71.7437842607
 11
-3.8248197367
 21
71.735663655
  0
LINE
  5
6EB
100
AcDbEntity
  8
RACCORDO
100
AcDbLine
 62
250
  6
CONTINUOUS
 10
-4.7578236779
 20
71.9450324072
 11
-3.7419770242
 21
71.9361672477
  0
LINE
  5
6EC
100
AcDbEntity
  8
RACCORDO
100
AcDbLine
 62
250
  6
CONTINUOUS
 10
-20.7261303705
 20
72.1157921994
 11
-21.7419770242
 21
72.1246573589
  0
LINE
  5
6ED
100
AcDbEntity
  8
RACCORDO
100
AcDbLine
 62
250
  6
CONTINUOUS
 10
-20.7286050668
 20
72.3170403459
 11
-21.6591343117
 21
72.3251609515
  0
LWPOLYLINE
  5
6EE
100
AcDbEntity
  8
RACCORDO
100
AcDbPolyline
 62
250
  6
CONTINUOUS
 90
13
 70
0
 10
-8.4106870718
 20
70.7500733102
 10
-8.3716842239
 20
70.7481184449
 10
-8.3333434548
 20
70.7426273539
 10
-8.2963156044
 20
70.7336932494
 10
-8.2612292256
 20
70.7214677889
 10
-8.2286799146
 20
70.7061585013
 10
-8.1992202005
 20
70.688025264
 10
-8.173350166
 20
70.6673758912
 10
-8.1515089586
 20
70.6445609088
 10
-8.1340673358
 20
70.6199676045
 10
-8.1213213716
 20
70.5940134528
 10
-8.1134874305
 20
70.5671390293
 10
-8.1106984948
 20
70.5398005309
  0
LWPOLYLINE
  5
6EF
100
AcDbEntity
  8
RACCORDO
100
AcDbPolyline
 62
250
  6
CONTINUOUS
 90
13
 70
0
 10
-8.4088418356
 20
70.9652393969
 10
-8.3698381716
 20
70.9632844376
 10
-8.3314967535
 20
70.9577931321
 10
-8.2944684454
 20
70.9488587337
 10
-8.2593817975
 20
70.9366329376
 10
-8.2268324158
 20
70.9213233175
 10
-8.1973728421
 20
70.9031898112
 10
-8.1715031218
 20
70.8825402803
 10
-8.1496623389
 20
70.8597252798
 10
-8.1322211906
 20
70.8351321302
 10
-8.1194756723
 20
70.8091783218
 10
-8.111642062
 20
70.7823044242
 10
-8.1088532586
 20
70.7549666176
  0
LWPOLYLINE
  5
6F0
100
AcDbEntity
  8
0
100
AcDbPolyline
 62
7
  6
CONTINUOUS
 90
13
 70
0
 10
-9.1998599948
 20
72.7924301006
 10
-9.1705787195
 20
72.7909613195
 10
-9.1425077297
 20
72.7867192037
 10
-9.1156470253
 20
72.7797037532
 10
-9.0900061747
 20
72.7699672918
 10
-9.0655756096
 20
72.7574574957
 10
-9.0423266252
 20
72.7420173935
 10
-9.0200850975
 20
72.7235107864
 10
-8.9990251505
 20
72.7020738733
 10
-8.9796404515
 20
72.6779582791
 10
-8.9620955565
 20
72.6512478788
 10
-8.9462259096
 20
72.6218587975
 10
-8.9320315108
 20
72.589791035
  0
LWPOLYLINE
  5
6F1
100
AcDbEntity
  8
RACCORDO
100
AcDbPolyline
 62
250
  6
CONTINUOUS
 90
13
 70
0
 10
-8.4076121782
 20
71.1147657262
 10
-8.3684576987
 20
71.1121965491
 10
-8.3299730984
 20
71.1045389363
 10
-8.2928167957
 20
71.091923899
 10
-8.2576244837
 20
71.074567263
 10
-8.2249982543
 20
71.0527659766
 10
-8.1954962973
 20
71.0268930297
 10
-8.1696233504
 20
70.9973910726
 10
-8.1478220641
 20
70.9647648432
 10
-8.1304654283
 20
70.9295725313
 10
-8.1178503911
 20
70.8924162287
 10
-8.1101927783
 20
70.8539316286
 10
-8.1076236012
 20
70.8147771493
  0
LWPOLYLINE
  5
6F2
100
AcDbEntity
  8
0
100
AcDbPolyline
 62
7
  6
CONTINUOUS
 90
10
 70
0
 10
-5.2939134542
 20
65.6851838515
 10
-5.3269590566
 20
65.6877219858
 10
-5.3583401686
 20
65.690742675
 10
-5.3880567903
 20
65.6942459193
 10
-5.4160514562
 20
65.698242959
 10
-5.4423816318
 20
65.7027225537
 10
-5.4672197135
 20
65.7076509822
 10
-5.4906231671
 20
65.7130170044
 10
-5.5125345268
 20
65.7188318604
 10
-5.5329537928
 20
65.7250955504
  0
LWPOLYLINE
  5
6F3
100
AcDbEntity
  8
0
100
AcDbPolyline
 62
7
  6
CONTINUOUS
 90
10
 70
0
 10
-5.2939134542
 20
67.1230814145
 10
-5.3269590566
 20
67.1256195488
 10
-5.3583401686
 20
67.128640238
 10
-5.3880567903
 20
67.1321434823
 10
-5.4160514562
 20
67.136140522
 10
-5.4423816318
 20
67.1406201166
 10
-5.4672197135
 20
67.1455485452
 10
-5.4906231671
 20
67.1509145674
 10
-5.5125345268
 20
67.1567294234
 10
-5.5329537928
 20
67.1629931134
  0
LWPOLYLINE
  5
6F4
100
AcDbEntity
  8
0
100
AcDbPolyline
 62
7
  6
CONTINUOUS
 90
10
 70
0
 10
-4.1804898958
 20
64.8390948456
 10
-4.14908225
 20
64.8364727017
 10
-4.1191016232
 20
64.8332950609
 10
-4.0905480155
 20
64.8295619232
 10
-4.063555537
 20
64.8252473234
 10
-4.0379900776
 20
64.8203772267
 10
-4.0134493068
 20
64.8150295286
 10
-3.9897991143
 20
64.8092301941
 10
-3.9671736105
 20
64.8029532582
 10
-3.9455727952
 20
64.7961987209
  0
LWPOLYLINE
  5
6F5
100
AcDbEntity
  8
0
100
AcDbPolyline
 62
7
  6
CONTINUOUS
 90
10
 70
0
 10
-4.1804898776
 20
66.2769926816
 10
-4.1490820859
 20
66.2743705204
 10
-4.1191013516
 20
66.2711928616
 10
-4.0905476745
 20
66.2674597051
 10
-4.0635551681
 20
66.2631450847
 10
-4.0379897189
 20
66.2582749666
 10
-4.013448987
 20
66.2529272501
 10
-3.9897988589
 20
66.2471279015
 10
-3.9671734481
 20
66.2408509544
 10
-3.9455727546
 20
66.2340964088
  0
LWPOLYLINE
  5
6F6
100
AcDbEntity
  8
0
100
AcDbPolyline
 62
7
  6
CONTINUOUS
 90
10
 70
0
 10
-4.1804898776
 20
67.7148902445
 10
-4.1490820859
 20
67.7122680834
 10
-4.1191013516
 20
67.7090904245
 10
-4.0905476745
 20
67.7053572681
 10
-4.0635551681
 20
67.7010426477
 10
-4.0379897189
 20
67.6961725296
 10
-4.013448987
 20
67.6908248131
 10
-3.9897988589
 20
67.6850254644
 10
-3.9671734481
 20
67.6787485174
 10
-3.9455727546
 20
67.6719939718
  0
LWPOLYLINE
  5
6F7
100
AcDbEntity
  8
0
100
AcDbPolyline
 62
7
  6
CONTINUOUS
 90
10
 70
0
 10
-4.1456389607
 20
65.0919045441
 10
-4.1847491274
 20
65.0953340887
 10
-4.2253770183
 20
65.0984112329
 10
-4.2675226332
 20
65.1011359768
 10
-4.3111701304
 20
65.1035340724
 10
-4.3563353517
 20
65.1055797676
 10
-4.4030658228
 20
65.1071958061
 10
-4.4513773857
 20
65.1083564356
 10
-4.5012541984
 20
65.1090874084
 10
-4.5526962609
 20
65.1093887243
  0
LWPOLYLINE
  5
6F8
100
AcDbEntity
  8
0
100
AcDbPolyline
 62
7
  6
CONTINUOUS
 90
10
 70
0
 10
-4.1456389607
 20
66.5298021071
 10
-4.1847491097
 20
66.5332316658
 10
-4.2253769886
 20
66.5363088317
 10
-4.2675225973
 20
66.5390336049
 10
-4.3111700956
 20
66.5414317421
 10
-4.3563353239
 20
66.5434774865
 10
-4.4030658025
 20
66.5450935677
 10
-4.4513773716
 20
66.5462542288
 10
-4.5012541911
 20
66.5469852268
 10
-4.5526962609
 20
66.5472865615
  0
LWPOLYLINE
  5
6F9
100
AcDbEntity
  8
0
100
AcDbPolyline
 62
7
  6
CONTINUOUS
 90
10
 70
0
 10
-4.1456389787
 20
67.9676999456
 10
-4.1847491033
 20
67.9711294269
 10
-4.2253769648
 20
67.9742065287
 10
-4.2675225631
 20
67.976931251
 10
-4.31117006
 20
67.9793293528
 10
-4.3563352938
 20
67.9813750751
 10
-4.4030657793
 20
67.9829911411
 10
-4.4513773548
 20
67.9841517919
 10
-4.501254182
 20
67.9848827863
 10
-4.5526962609
 20
67.9851841245
  0
LWPOLYLINE
  5
6FA
100
AcDbEntity
  8
0
100
AcDbPolyline
 62
7
  6
CONTINUOUS
 90
10
 70
0
 10
-5.3670807899
 20
65.4338700328
 10
-5.3273298736
 20
65.429858144
 10
-5.2866053165
 20
65.4263183808
 10
-5.2449071186
 20
65.4232507431
 10
-5.2021788711
 20
65.4206543665
 10
-5.1584769829
 20
65.4185301155
 10
-5.1139706797
 20
65.4168805836
 10
-5.0687163701
 20
65.4157066355
 10
-5.0226576456
 20
65.4150074067
 10
-4.9757945062
 20
65.414782897
  0
LWPOLYLINE
  5
6FB
100
AcDbEntity
  8
0
100
AcDbPolyline
 62
7
  6
CONTINUOUS
 90
10
 70
0
 10
-5.3670807899
 20
66.8717675958
 10
-5.3273304274
 20
66.8677557635
 10
-5.286606242
 20
66.864216049
 10
-5.2449082338
 20
66.8611484523
 10
-5.2021799359
 20
66.8585521071
 10
-5.1584778152
 20
66.8564278798
 10
-5.1139712718
 20
66.8547783689
 10
-5.0687167726
 20
66.8536044408
 10
-5.0226578507
 20
66.8529052292
 10
-4.9757945062
 20
66.8526807342
  0
LWPOLYLINE
  5
6FC
100
AcDbEntity
  8
RACCORDO
100
AcDbPolyline
 62
7
  6
CONTINUOUS
 90
13
 70
0
 10
-21.6591343117
 20
71.735663655
 10
-21.6705991889
 20
71.7377329022
 10
-21.6814000495
 20
71.7433451613
 10
-21.6915368936
 20
71.7522780152
 10
-21.7011135336
 20
71.7642105802
 10
-21.7100261571
 20
71.7788583948
 10
-21.7179633269
 20
71.7960825932
 10
-21.7249138944
 20
71.8156609214
 10
-21.7308890082
 20
71.8372060309
 10
-21.7356106772
 20
71.8603708497
 10
-21.7389862376
 20
71.8847755434
 10
-21.7411083533
 20
71.9100099175
 10
-21.7419770242
 20
71.9356560396
  0
LWPOLYLINE
  5
6FD
100
AcDbEntity
  8
RACCORDO
100
AcDbPolyline
 62
7
  6
CONTINUOUS
 90
13
 70
0
 10
-3.8248197367
 20
72.3251609515
 10
-3.8133548595
 20
72.3230917043
 10
-3.8025539989
 20
72.3174794453
 10
-3.7924171547
 20
72.3085465914
 10
-3.7828405148
 20
72.2966140263
 10
-3.7739278913
 20
72.2819662118
 10
-3.7659907215
 20
72.2647420134
 10
-3.759040154
 20
72.2451636851
 10
-3.7530650402
 20
72.2236185756
 10
-3.7483433712
 20
72.2004537569
 10
-3.7449678107
 20
72.1760490632
 10
-3.7428456951
 20
72.1508146891
 10
-3.7419770242
 20
72.1251685669
  0
LWPOLYLINE
  5
6FE
100
AcDbEntity
  8
0
100
AcDbPolyline
 62
7
  6
CONTINUOUS
 90
13
 70
0
 10
-9.0970918083
 20
73.8139551872
 10
-9.057356444
 20
73.806452183
 10
-9.0204702304
 20
73.7955569628
 10
-8.9864331676
 20
73.7812695265
 10
-8.9550805015
 20
73.763418709
 10
-8.9265769861
 20
73.7421756756
 10
-8.9014168841
 20
73.7180539217
 10
-8.8796071297
 20
73.6907590889
 10
-8.8611407887
 20
73.6605855356
 10
-8.8464913216
 20
73.6289298332
 10
-8.8358165485
 20
73.5962575054
 10
-8.8289586493
 20
73.5621030285
 10
-8.8259176239
 20
73.5264664023
  0
LWPOLYLINE
  5
6FF
100
AcDbEntity
  8
RACCORDO
100
AcDbPolyline
 62
7
  6
CONTINUOUS
 90
10
 70
0
 10
-8.4111875568
 20
70.0767993632
 10
-8.3741974705
 20
70.0697366187
 10
-8.3381541981
 20
70.0624187179
 10
-8.3036611014
 20
70.0544172427
 10
-8.2714255883
 20
70.0454059826
 10
-8.2417414169
 20
70.0350002683
 10
-8.2145963052
 20
70.0226805629
 10
-8.1903107614
 20
70.0080432031
 10
-8.1694006469
 20
69.9908979864
 10
-8.1521400854
 20
69.9710502708
  0
LWPOLYLINE
  5
700
100
AcDbEntity
  8
0
100
AcDbPolyline
 62
7
  6
CONTINUOUS
 90
13
 70
0
 10
-8.7506738586
 20
74.1411267372
 10
-8.8287273936
 20
74.1648553888
 10
-8.9108434251
 20
74.1842859256
 10
-8.9970219529
 20
74.1994183476
 10
-9.0874910574
 20
74.2100142925
 10
-9.1820226584
 20
74.2163121226
 10
-9.2799325151
 20
74.2190269249
 10
-9.381051329
 20
74.2182549277
 10
-9.4855483987
 20
74.2138999028
 10
-9.5932473793
 20
74.2063882523
 10
-9.7040894893
 20
74.1958621103
 10
-9.8181335102
 20
74.1821793428
 10
-9.9353794421
 20
74.1653399498
  0
LWPOLYLINE
  5
701
100
AcDbEntity
  8
0
100
AcDbPolyline
 62
7
  6
CONTINUOUS
 90
10
 70
0
 10
-3.9455727546
 20
67.6719939718
 10
-3.9229716173
 20
67.6637111083
 10
-3.9021334848
 20
67.6549104145
 10
-3.8830583572
 20
67.6455918903
 10
-3.8658541373
 20
67.6356905973
 10
-3.8504129222
 20
67.625271474
 10
-3.8364110031
 20
67.6145293352
 10
-3.8237404769
 20
67.6035291191
 10
-3.8125092467
 20
67.5922058874
 10
-3.8027173123
 20
67.5805596403
  0
ARC
  5
702
100
AcDbEntity
  8
SMUSSO
100
AcDbCircle
 62
7
  6
CONTINUOUS
 10
-12.7420430763
 20
35.4303647144
 40
6.0999807888
100
AcDbArc
 50
200.8635016012
 51
339.1369265281
  0
ARC
  5
703
100
AcDbEntity
  8
DRAFT
100
AcDbCircle
 62
7
  6
CONTINUOUS
 10
-12.7420430763
 20
35.4303647144
 40
5.7107046991
100
AcDbArc
 50
201.5717519085
 51
338.4287361699
  0
ARC
  5
704
100
AcDbEntity
  8
DRAFT
100
AcDbCircle
 62
7
  6
CONTINUOUS
 10
-22.3419770242
 20
34.7804123033
 40
0.3
100
AcDbArc
 50
199.4712206345
 51
340.5287793655
  0
ARC
  5
705
100
AcDbEntity
  8
DRAFT
100
AcDbCircle
 62
7
  6
CONTINUOUS
 10
-22.3419770242
 20
37.7804123033
 40
0.3
100
AcDbArc
 50
19.4712206345
 51
160.5287793655
  0
ARC
  5
706
100
AcDbEntity
  8
DRAFT
100
AcDbCircle
 62
7
  6
CONTINUOUS
 10
-22.3419770242
 20
34.7804123033
 40
0.044932126
100
AcDbArc
 50
173.6284082058
 51
6.3715917942
  0
ARC
  5
707
100
AcDbEntity
  8
DRAFT
100
AcDbCircle
 62
7
  6
CONTINUOUS
 10
-22.3419770242
 20
37.7804123033
 40
0.044932126
100
AcDbArc
 50
353.6284082058
 51
186.3715917942
  0
ARC
  5
708
100
AcDbEntity
  8
DRAFT
100
AcDbCircle
 62
7
  6
CONTINUOUS
 10
-17.4245664267
 20
69.5304123033
 40
0.2
100
AcDbArc
 50
144.6232725022
 51
270.0
  0
ARC
  5
709
100
AcDbEntity
  8
RACCORDO
100
AcDbCircle
 62
7
  6
CONTINUOUS
 10
-17.4245664267
 20
69.5304123033
 40
0.1794804374
100
AcDbArc
 50
144.6232725022
 51
270.0
  0
ARC
  5
70A
100
AcDbEntity
  8
RACCORDO
100
AcDbCircle
 62
250
  6
CONTINUOUS
 10
-17.4245664267
 20
69.5304123033
 40
0.0294861489
100
AcDbArc
 50
144.6232725022
 51
270.0
  0
ARC
  5
70B
100
AcDbEntity
  8
0
100
AcDbCircle
 62
7
  6
CONTINUOUS
 10
-12.7419770242
 20
44.7304123033
 40
11.8
100
AcDbArc
 50
77.7683663409
 51
102.2316336591
  0
ARC
  5
70C
100
AcDbEntity
  8
RACCORDO
100
AcDbCircle
 62
7
  6
CONTINUOUS
 10
-12.7419770242
 20
44.7304123033
 40
11.8
100
AcDbArc
 50
61.8994758925
 51
71.4702745764
  0
ARC
  5
70D
100
AcDbEntity
  8
RACCORDO
100
AcDbCircle
 62
7
  6
CONTINUOUS
 10
-12.7419770242
 20
44.7304123033
 40
11.8
100
AcDbArc
 50
108.5297254236
 51
118.1005241074
  0
ARC
  5
70E
100
AcDbEntity
  8
DRAFT
100
AcDbCircle
 62
7
  6
CONTINUOUS
 10
-12.7419770242
 20
44.7304123033
 40
11.6425204057
100
AcDbArc
 50
81.2900207263
 51
98.7099792737
  0
ARC
  5
70F
100
AcDbEntity
  8
DRAFT
100
AcDbCircle
 62
7
  6
CONTINUOUS
 10
-12.7419770242
 20
44.7304123033
 40
11.0226898563
100
AcDbArc
 50
80.7960987452
 51
99.2039012548
  0
ARC
  5
710
100
AcDbEntity
  8
RACCORDO
100
AcDbCircle
 62
7
  6
CONTINUOUS
 10
-12.7419770242
 20
44.7304123033
 40
11.0069814942
100
AcDbArc
 50
58.8116453278
 51
70.080907571
  0
ARC
  5
711
100
AcDbEntity
  8
RACCORDO
100
AcDbCircle
 62
7
  6
CONTINUOUS
 10
-12.7419770242
 20
44.7304123033
 40
11.0069814942
100
AcDbArc
 50
109.919092429
 51
121.1883546722
  0
ARC
  5
712
100
AcDbEntity
  8
RACCORDO
100
AcDbCircle
 62
7
  6
CONTINUOUS
 10
-12.7419770242
 20
35.4304123033
 40
6.4858595293
100
AcDbArc
 50
202.0149971037
 51
337.9850028963
  0
ARC
  5
713
100
AcDbEntity
  8
0
100
AcDbCircle
 62
7
  6
CONTINUOUS
 10
-12.7419770242
 20
49.5304123033
 40
3.5926659129
100
AcDbArc
 50
358.9746735826
 51
181.0253264174
  0
ARC
  5
714
100
AcDbEntity
  8
RACCORDO
100
AcDbCircle
 62
250
  6
CONTINUOUS
 10
-12.7419770242
 20
49.5304123033
 40
3.3725378763
100
AcDbArc
 50
358.9077403639
 51
181.0922596361
  0
ARC
  5
715
100
AcDbEntity
  8
RACCORDO
100
AcDbCircle
 62
250
  6
CONTINUOUS
 10
-12.7419770242
 20
49.5304123033
 40
3.2799775428
100
AcDbArc
 50
358.8769131136
 51
181.1230868864
  0
ARC
  5
716
100
AcDbEntity
  8
0
100
AcDbCircle
 62
7
  6
CONTINUOUS
 10
-12.7419770242
 20
49.5304123033
 40
3.262169562
100
AcDbArc
 50
358.870781612
 51
181.129218388
  0
ARC
  5
717
100
AcDbEntity
  8
RACCORDO
100
AcDbCircle
 62
250
  6
CONTINUOUS
 10
-12.7419770242
 20
49.5304123033
 40
3.0510791732
100
AcDbArc
 50
358.792644738
 51
181.207355262
  0
ARC
  5
718
100
AcDbEntity
  8
RACCORDO
100
AcDbCircle
 62
250
  6
CONTINUOUS
 10
-12.7419770242
 20
49.5304123033
 40
2.958173713
100
AcDbArc
 50
358.7547202266
 51
181.2452797734
  0
ARC
  5
719
100
AcDbEntity
  8
0
100
AcDbCircle
 62
7
  6
CONTINUOUS
 10
-12.7419770242
 20
49.5304123033
 40
2.9405685532
100
AcDbArc
 50
358.7472637524
 51
181.2527362476
  0
ARC
  5
71A
100
AcDbEntity
  8
RACCORDO
100
AcDbCircle
 62
250
  6
CONTINUOUS
 10
-12.7419770242
 20
49.5304123033
 40
2.7386719841
100
AcDbArc
 50
358.6548946804
 51
181.3451254051
  0
ARC
  5
71B
100
AcDbEntity
  8
RACCORDO
100
AcDbCircle
 62
250
  6
CONTINUOUS
 10
-12.7419770242
 20
49.5304123033
 40
2.645416634
100
AcDbArc
 50
358.6074682941
 51
181.3925317059
  0
ARC
  5
71C
100
AcDbEntity
  8
0
100
AcDbCircle
 62
7
  6
CONTINUOUS
 10
-12.7419770242
 20
49.5304123033
 40
2.6280305959
100
AcDbArc
 50
358.5982542238
 51
181.4017457762
  0
ARC
  5
71D
100
AcDbEntity
  8
RACCORDO
100
AcDbCircle
 62
250
  6
CONTINUOUS
 10
-12.7419770242
 20
49.5304123033
 40
2.4353538854
100
AcDbArc
 50
358.4873279231
 51
181.5126720769
  0
ARC
  5
71E
100
AcDbEntity
  8
RACCORDO
100
AcDbCircle
 62
250
  6
CONTINUOUS
 10
-12.7419770242
 20
49.5304123033
 40
2.3417493503
100
AcDbArc
 50
358.4268484045
 51
181.5731515955
  0
ARC
  5
71F
100
AcDbEntity
  8
0
100
AcDbCircle
 62
7
  6
CONTINUOUS
 10
-12.7419770242
 20
49.5304123033
 40
2.3245995809
100
AcDbArc
 50
358.4152397901
 51
181.5847602099
  0
ARC
  5
720
100
AcDbEntity
  8
RACCORDO
100
AcDbCircle
 62
250
  6
CONTINUOUS
 10
-12.7419770242
 20
49.5304123033
 40
2.1410147463
100
AcDbArc
 50
358.2793123545
 51
181.7206876454
  0
ARC
  5
721
100
AcDbEntity
  8
RACCORDO
100
AcDbCircle
 62
250
  6
CONTINUOUS
 10
-12.7419770242
 20
49.5304123033
 40
2.0470681245
100
AcDbArc
 50
358.2003189859
 51
181.7996810141
  0
ARC
  5
722
100
AcDbEntity
  8
0
100
AcDbCircle
 62
7
  6
CONTINUOUS
 10
-12.7419770242
 20
49.5304123033
 40
2.0301686625
100
AcDbArc
 50
358.1853334524
 51
181.8146665476
  0
ARC
  5
723
100
AcDbEntity
  8
RACCORDO
100
AcDbCircle
 62
250
  6
CONTINUOUS
 10
-12.7419770242
 20
49.5304123033
 40
1.8553677877
100
AcDbArc
 50
358.0143013274
 51
181.9856986726
  0
ARC
  5
724
100
AcDbEntity
  8
RACCORDO
100
AcDbCircle
 62
250
  6
CONTINUOUS
 10
-12.7419770242
 20
49.5304123033
 40
1.7610932951
100
AcDbArc
 50
357.9079572434
 51
182.0920427566
  0
ARC
  5
725
100
AcDbEntity
  8
0
100
AcDbCircle
 62
7
  6
CONTINUOUS
 10
-12.7419770242
 20
49.5304123033
 40
1.7444536715
100
AcDbArc
 50
357.8879935079
 51
182.1120064921
  0
ARC
  5
726
100
AcDbEntity
  8
RACCORDO
100
AcDbCircle
 62
250
  6
CONTINUOUS
 10
-12.7419770242
 20
49.5304123033
 40
1.5779349634
100
AcDbArc
 50
357.6649964839
 51
182.335003516
  0
ARC
  5
727
100
AcDbEntity
  8
RACCORDO
100
AcDbCircle
 62
250
  6
CONTINUOUS
 10
-12.7419770242
 20
49.5304123033
 40
1.4833543131
100
AcDbArc
 50
357.5160230004
 51
182.4839769996
  0
ARC
  5
728
100
AcDbEntity
  8
IMPORT_IGES
100
AcDbCircle
 62
7
  6
CONTINUOUS
 10
-12.7419770242
 20
49.5304123033
 40
1.466978
100
AcDbArc
 50
357.4882759441
 51
182.5117240559
  0
ARC
  5
729
100
AcDbEntity
  8
DRAFT
100
AcDbCircle
 62
7
  6
CONTINUOUS
 10
-3.1419770242
 20
34.7804123033
 40
0.3
100
AcDbArc
 50
199.4712206345
 51
340.5287793655
  0
ARC
  5
72A
100
AcDbEntity
  8
DRAFT
100
AcDbCircle
 62
7
  6
CONTINUOUS
 10
-3.1419770242
 20
37.7804123033
 40
0.3
100
AcDbArc
 50
19.4712206345
 51
160.5287793655
  0
ARC
  5
72B
100
AcDbEntity
  8
DRAFT
100
AcDbCircle
 62
7
  6
CONTINUOUS
 10
-3.1419770242
 20
34.7804123033
 40
0.044932126
100
AcDbArc
 50
173.6284082058
 51
6.3715917942
  0
ARC
  5
72C
100
AcDbEntity
  8
DRAFT
100
AcDbCircle
 62
7
  6
CONTINUOUS
 10
-3.1419770242
 20
37.7804123033
 40
0.044932126
100
AcDbArc
 50
353.6284082058
 51
186.3715917942
  0
ARC
  5
72D
100
AcDbEntity
  8
DRAFT
100
AcDbCircle
 62
7
  6
CONTINUOUS
 10
-8.0593876217
 20
69.5304123033
 40
0.2
100
AcDbArc
 50
270.0
 51
35.3767274978
  0
ARC
  5
72E
100
AcDbEntity
  8
RACCORDO
100
AcDbCircle
 62
7
  6
CONTINUOUS
 10
-8.0593876217
 20
69.5304123033
 40
0.1794804374
100
AcDbArc
 50
270.0
 51
35.3767274978
  0
ARC
  5
72F
100
AcDbEntity
  8
RACCORDO
100
AcDbCircle
 62
250
  6
CONTINUOUS
 10
-8.0593876217
 20
69.5304123033
 40
0.0294861489
100
AcDbArc
 50
270.0
 51
35.3767274978
  0
ELLIPSE
  5
730
100
AcDbEntity
  8
RACCORDO
100
AcDbEllipse
 62
7
  6
CONTINUOUS
 10
-12.7419770242
 20
35.4244521071
 30
0.0
 11
-0.0
 21
6.4980334207
 31
0.0
 40
0.9999995793
 41
-4.3295150605
 42
-1.9536702467
  0
ELLIPSE
  5
731
100
AcDbEntity
  8
DRAFT
100
AcDbEllipse
 62
7
  6
CONTINUOUS
 10
-12.7419770242
 20
35.4356423319
 30
0.0
 11
0.0
 21
5.7019768433
 31
0.0
 40
0.9999995793
 41
3.4073117462
 42
4.3346773659
  0
ELLIPSE
  5
732
100
AcDbEntity
  8
DRAFT
100
AcDbEllipse
 62
7
  6
CONTINUOUS
 10
-12.7419770242
 20
35.4356423319
 30
0.0
 11
0.0
 21
5.7019768433
 31
0.0
 40
0.9999995793
 41
1.9485079412
 42
2.875873561
  0
ELLIPSE
  5
733
100
AcDbEntity
  8
RACCORDO
100
AcDbEllipse
 62
7
  6
CONTINUOUS
 10
-3.5320421501
 20
36.1304055455
 30
0.0
 11
0.0
 21
0.15
 31
0.0
 40
0.1157209201
 41
-3.089232776
 42
-1.5707963268
  0
ELLIPSE
  5
734
100
AcDbEntity
  8
RACCORDO
100
AcDbEllipse
 62
7
  6
CONTINUOUS
 10
-3.5320421501
 20
36.4304190611
 30
0.0
 11
0.0
 21
0.15
 31
0.0
 40
0.1157209201
 41
-1.5707963268
 42
-0.0523598776
  0
ELLIPSE
  5
735
100
AcDbEntity
  8
RACCORDO
100
AcDbEllipse
 62
7
  6
CONTINUOUS
 10
-21.9519118983
 20
36.4304190611
 30
0.0
 11
0.0
 21
0.15
 31
0.0
 40
0.1157209201
 41
0.0523598776
 42
1.5707963268
  0
ELLIPSE
  5
736
100
AcDbEntity
  8
RACCORDO
100
AcDbEllipse
 62
7
  6
CONTINUOUS
 10
-21.9519118983
 20
36.1304055455
 30
0.0
 11
0.0
 21
0.15
 31
0.0
 40
0.1157209201
 41
-4.7123889804
 42
-3.1939525311
  0
ELLIPSE
  5
737
100
AcDbEntity
  8
RACCORDO
100
AcDbEllipse
 62
7
  6
CONTINUOUS
 10
-22.1659956005
 20
35.4272904799
 30
0.0
 11
-0.0
 21
0.5
 31
0.0
 40
0.1157209201
 41
1.5707963268
 42
3.054326191
  0
ELLIPSE
  5
738
100
AcDbEntity
  8
RACCORDO
100
AcDbEllipse
 62
7
  6
CONTINUOUS
 10
-22.1659956005
 20
37.1335341266
 30
0.0
 11
0.0
 21
0.5
 31
0.0
 40
0.1157209201
 41
0.0872664626
 42
1.5707963268
  0
ELLIPSE
  5
739
100
AcDbEntity
  8
RACCORDO
100
AcDbEllipse
 62
7
  6
CONTINUOUS
 10
-23.2306521588
 20
35.4272904799
 30
0.0
 11
0.5
 21
-0.0
 31
0.0
 40
1.0
 41
-1.4835298642
 42
0.0
  0
ELLIPSE
  5
73A
100
AcDbEntity
  8
RACCORDO
100
AcDbEllipse
 62
7
  6
CONTINUOUS
 10
-23.2306521588
 20
37.1335341266
 30
0.0
 11
0.5
 21
-0.0
 31
0.0
 40
1.0
 41
0.0
 42
1.4835298642
  0
ELLIPSE
  5
73B
100
AcDbEntity
  8
RACCORDO
100
AcDbEllipse
 62
7
  6
CONTINUOUS
 10
-3.3179584479
 20
37.1335341266
 30
0.0
 11
-0.0
 21
0.5
 31
0.0
 40
0.1157209201
 41
-1.5707963268
 42
-0.0872664626
  0
ELLIPSE
  5
73C
100
AcDbEntity
  8
RACCORDO
100
AcDbEllipse
 62
7
  6
CONTINUOUS
 10
-3.3179584479
 20
35.4272904799
 30
0.0
 11
-0.0
 21
0.5
 31
0.0
 40
0.1157209201
 41
-3.054326191
 42
-1.5707963268
  0
ELLIPSE
  5
73D
100
AcDbEntity
  8
RACCORDO
100
AcDbEllipse
 62
7
  6
CONTINUOUS
 10
-2.2533018896
 20
35.4272904799
 30
0.0
 11
0.5
 21
0.0
 31
0.0
 40
1.0
 41
-3.1415926536
 42
-1.6580627894
  0
ELLIPSE
  5
73E
100
AcDbEntity
  8
RACCORDO
100
AcDbEllipse
 62
7
  6
CONTINUOUS
 10
-2.2533018896
 20
37.1335341266
 30
0.0
 11
0.5
 21
-0.0
 31
0.0
 40
1.0
 41
1.6580627894
 42
3.1415926536
  0
ELLIPSE
  5
73F
100
AcDbEntity
  8
RACCORDO
100
AcDbEllipse
 62
7
  6
CONTINUOUS
 10
-7.5419770242
 20
36.4107805763
 30
0.0
 11
0.5
 21
0.0
 31
0.0
 40
1.0
 41
0.0
 42
1.3474572868
  0
ELLIPSE
  5
740
100
AcDbEntity
  8
RACCORDO
100
AcDbEllipse
 62
7
  6
CONTINUOUS
 10
-18.051754061
 20
36.4107805763
 30
0.0
 11
-0.0
 21
0.5
 31
0.0
 40
0.0087268678
 41
0.0174532925
 42
0.22333904
  0
ELLIPSE
  5
741
100
AcDbEntity
  8
RACCORDO
100
AcDbEllipse
 62
7
  6
CONTINUOUS
 10
-18.8321999874
 20
36.4107805763
 30
0.0
 11
-0.0
 21
0.5
 31
0.0
 40
0.0087268678
 41
-1.5707963268
 42
-0.0174532925
  0
ELLIPSE
  5
742
100
AcDbEntity
  8
RACCORDO
100
AcDbEllipse
 62
7
  6
CONTINUOUS
 10
-6.651754061
 20
36.4107805763
 30
0.0
 11
-0.0
 21
0.5
 31
0.0
 40
0.0087268678
 41
0.0174532925
 42
1.5707963268
  0
ELLIPSE
  5
743
100
AcDbEntity
  8
RACCORDO
100
AcDbEllipse
 62
7
  6
CONTINUOUS
 10
-7.4321999874
 20
36.4107805763
 30
0.0
 11
0.0
 21
0.5
 31
0.0
 40
0.0087268678
 41
-0.22333904
 42
-0.0174532925
  0
ELLIPSE
  5
744
100
AcDbEntity
  8
RACCORDO
100
AcDbEllipse
 62
7
  6
CONTINUOUS
 10
-17.9419770242
 20
36.4107805763
 30
0.0
 11
0.5
 21
0.0
 31
0.0
 40
1.0
 41
1.7941353668
 42
3.1415926536
  0
ELLIPSE
  5
745
100
AcDbEntity
  8
RACCORDO
100
AcDbEllipse
 62
7
  6
CONTINUOUS
 10
-7.4762786192
 20
42.6304275361
 30
0.0
 11
0.0704992063
 21
0.070964186
 31
0.0
 40
0.9996974479
 41
-3.9235742146
 42
-2.3596326996
  0
ELLIPSE
  5
746
100
AcDbEntity
  8
RACCORDO
100
AcDbEllipse
 62
7
  6
CONTINUOUS
 10
-7.4553110136
 20
39.4303970705
 30
0.0
 11
0.0709629558
 21
-0.070501011
 31
0.0
 40
0.9996934588
 41
2.3530823337
 42
3.9301242992
  0
ELLIPSE
  5
747
100
AcDbEntity
  8
RACCORDO
100
AcDbEllipse
 62
7
  6
CONTINUOUS
 10
-18.0076754291
 20
42.6304275361
 30
0.0
 11
-0.0704992063
 21
0.070964186
 31
0.0
 40
0.9996974479
 41
-3.9235526076
 42
-2.3596110925
  0
ELLIPSE
  5
748
100
AcDbEntity
  8
RACCORDO
100
AcDbEllipse
 62
7
  6
CONTINUOUS
 10
-18.0286430348
 20
39.4303970705
 30
0.0
 11
0.0709629558
 21
0.070501011
 31
0.0
 40
0.9996934588
 41
-0.7885316457
 42
0.7885103199
  0
ELLIPSE
  5
749
100
AcDbEntity
  8
RACCORDO
100
AcDbEllipse
 62
7
  6
CONTINUOUS
 10
-5.0420531882
 20
42.0303361393
 30
0.0
 11
-0.3536610946
 21
-0.3536610946
 31
0.0
 40
0.9996954599
 41
2.3563467834
 42
3.9268385237
  0
ELLIPSE
  5
74A
100
AcDbEntity
  8
RACCORDO
100
AcDbEllipse
 62
7
  6
CONTINUOUS
 10
-5.0420531882
 20
40.0304884673
 30
0.0
 11
-0.3536610946
 21
0.3536610946
 31
0.0
 40
0.9996954599
 41
2.3563467834
 42
3.9268385237
  0
ELLIPSE
  5
74B
100
AcDbEntity
  8
RACCORDO
100
AcDbEllipse
 62
7
  6
CONTINUOUS
 10
-20.4419008602
 20
40.0304884673
 30
0.0
 11
0.3536610946
 21
0.3536610946
 31
0.0
 40
0.9996954599
 41
2.3563467834
 42
3.9268385237
  0
ELLIPSE
  5
74C
100
AcDbEntity
  8
RACCORDO
100
AcDbEllipse
 62
7
  6
CONTINUOUS
 10
-20.4419008602
 20
42.0303361393
 30
0.0
 11
0.3536610946
 21
-0.3536610946
 31
0.0
 40
0.9996954599
 41
2.3563467834
 42
3.9268385237
  0
ELLIPSE
  5
74D
100
AcDbEntity
  8
RACCORDO
100
AcDbEllipse
 62
7
  6
CONTINUOUS
 10
-17.9419770242
 20
37.1263447736
 30
0.0
 11
-0.0006554311
 21
0.0999999993
 31
0.0
 40
0.0174543153
 41
-3.4281563285
 42
-1.5709107278
  0
ELLIPSE
  5
74E
100
AcDbEntity
  8
RACCORDO
100
AcDbEllipse
 62
7
  6
CONTINUOUS
 10
-7.5419770242
 20
37.1263447736
 30
0.0
 11
0.0006554311
 21
0.0999999993
 31
0.0
 40
0.0174543153
 41
-4.7122745794
 42
-2.8550289787
  0
ELLIPSE
  5
74F
100
AcDbEntity
  8
RACCORDO
100
AcDbEllipse
 62
7
  6
CONTINUOUS
 10
-23.2946709691
 20
23.6777183584
 30
0.0
 11
0.35379574
 21
0.35379574
 31
0.0
 40
0.999315002
 41
2.3565371065
 42
3.9266482006
  0
ELLIPSE
  5
750
100
AcDbEntity
  8
RACCORDO
100
AcDbEllipse
 62
7
  6
CONTINUOUS
 10
-23.2946709691
 20
75.3831062482
 30
0.0
 11
-0.35379574
 21
0.35379574
 31
0.0
 40
0.999315002
 41
-0.7850555471
 42
0.7850555471
  0
ELLIPSE
  5
751
100
AcDbEntity
  8
RACCORDO
100
AcDbEllipse
 62
7
  6
CONTINUOUS
 10
-2.1892830793
 20
75.3831062482
 30
0.0
 11
-0.35379574
 21
-0.35379574
 31
0.0
 40
0.999315002
 41
2.3565371065
 42
3.9266482006
  0
ELLIPSE
  5
752
100
AcDbEntity
  8
RACCORDO
100
AcDbEllipse
 62
7
  6
CONTINUOUS
 10
-2.1892830793
 20
23.6777183584
 30
0.0
 11
0.35379574
 21
-0.35379574
 31
0.0
 40
0.999315002
 41
-0.7850555471
 42
0.7850555471
  0
ELLIPSE
  5
753
100
AcDbEntity
  8
RACCORDO
100
AcDbEllipse
 62
7
  6
CONTINUOUS
 10
-17.0919656007
 20
70.8304008798
 30
0.0
 11
-0.2121481893
 21
0.2121481893
 31
0.0
 40
0.9999238505
 41
-0.7853600872
 42
0.7853600872
  0
ELLIPSE
  5
754
100
AcDbEntity
  8
RACCORDO
100
AcDbEllipse
 62
7
  6
CONTINUOUS
 10
-8.3919884477
 20
70.8304008798
 30
0.0
 11
0.2121481893
 21
0.2121481893
 31
0.0
 40
0.9999238505
 41
-0.7853600872
 42
0.7853600872
  0
ELLIPSE
  5
755
100
AcDbEntity
  8
RACCORDO
100
AcDbEllipse
 62
7
  6
CONTINUOUS
 10
-20.7286204319
 20
72.1170480953
 30
0.0
 11
-0.0000156381
 21
0.2000077509
 31
0.0
 40
0.012449579
 41
-1.5770765777
 42
-0.0124508825
  0
ELLIPSE
  5
756
100
AcDbEntity
  8
RACCORDO
100
AcDbEllipse
 62
7
  6
CONTINUOUS
 10
-20.7286204319
 20
71.9437765112
 30
0.0
 11
0.0000156381
 21
0.2000077509
 31
0.0
 40
0.012449579
 41
-3.1291417711
 42
-1.5645160759
  0
ELLIPSE
  5
757
100
AcDbEntity
  8
RACCORDO
100
AcDbEllipse
 62
7
  6
CONTINUOUS
 10
-20.5419694085
 20
71.1457227524
 30
0.0
 11
0.0100392888
 21
0.2028445394
 31
0.0
 40
0.9847713852
 41
-4.6621733465
 42
-3.0928923672
  0
ELLIPSE
  5
758
100
AcDbEntity
  8
RACCORDO
100
AcDbEllipse
 62
7
  6
CONTINUOUS
 10
-20.5419694085
 20
72.9151018541
 30
0.0
 11
-0.0100392888
 21
0.2028445394
 31
0.0
 40
0.9847713852
 41
-0.0487002863
 42
1.5205806929
  0
ELLIPSE
  5
759
100
AcDbEntity
  8
RACCORDO
100
AcDbEllipse
 62
7
  6
CONTINUOUS
 10
-20.3419846399
 20
72.9151018541
 30
0.0
 11
0.0100392888
 21
0.2028445394
 31
0.0
 40
0.9847713852
 41
-1.5205806929
 42
0.0487002863
  0
ELLIPSE
  5
75A
100
AcDbEntity
  8
RACCORDO
100
AcDbEllipse
 62
7
  6
CONTINUOUS
 10
-20.3419846399
 20
71.1457227524
 30
0.0
 11
-0.0100392888
 21
0.2028445394
 31
0.0
 40
0.9847713852
 41
-3.1902929399
 42
-1.6210119607
  0
ELLIPSE
  5
75B
100
AcDbEntity
  8
RACCORDO
100
AcDbEllipse
 62
7
  6
CONTINUOUS
 10
-4.7553336165
 20
72.1170480953
 30
0.0
 11
0.0000156381
 21
0.2000077509
 31
0.0
 40
0.012449579
 41
0.0124508825
 42
1.5770765777
  0
ELLIPSE
  5
75C
100
AcDbEntity
  8
RACCORDO
100
AcDbEllipse
 62
7
  6
CONTINUOUS
 10
-4.7553336165
 20
71.9437765112
 30
0.0
 11
-0.0000156381
 21
0.2000077509
 31
0.0
 40
0.012449579
 41
1.5645160759
 42
3.1291417711
  0
ELLIPSE
  5
75D
100
AcDbEntity
  8
RACCORDO
100
AcDbEllipse
 62
7
  6
CONTINUOUS
 10
-5.1419694085
 20
71.1457227524
 30
0.0
 11
0.0100392888
 21
0.2028445394
 31
0.0
 40
0.9847713852
 41
-4.6621733465
 42
-3.0928923672
  0
ELLIPSE
  5
75E
100
AcDbEntity
  8
RACCORDO
100
AcDbEllipse
 62
7
  6
CONTINUOUS
 10
-5.1419694085
 20
72.9151018541
 30
0.0
 11
-0.0100392888
 21
0.2028445394
 31
0.0
 40
0.9847713852
 41
-0.0487002863
 42
1.5205806929
  0
ELLIPSE
  5
75F
100
AcDbEntity
  8
RACCORDO
100
AcDbEllipse
 62
7
  6
CONTINUOUS
 10
-4.9419846399
 20
72.9151018541
 30
0.0
 11
0.0100392888
 21
0.2028445394
 31
0.0
 40
0.9847713852
 41
-1.5205806929
 42
0.0487002863
  0
ELLIPSE
  5
760
100
AcDbEntity
  8
RACCORDO
100
AcDbEllipse
 62
7
  6
CONTINUOUS
 10
-4.9419846399
 20
71.1457227524
 30
0.0
 11
-0.0100392888
 21
0.2028445394
 31
0.0
 40
0.9847713852
 41
-3.1902929399
 42
-1.6210119607
  0
ELLIPSE
  5
761
100
AcDbEntity
  8
RACCORDO
100
AcDbEllipse
 62
7
  6
CONTINUOUS
 10
-7.5419770242
 20
43.847816967
 30
0.0
 11
0.5
 21
-0.0
 31
0.0
 40
1.0
 41
-1.3497604017
 42
0.0
  0
ELLIPSE
  5
762
100
AcDbEntity
  8
RACCORDO
100
AcDbEllipse
 62
7
  6
CONTINUOUS
 10
-17.9419770242
 20
43.847816967
 30
0.0
 11
0.5
 21
0.0
 31
0.0
 40
1.0
 41
-3.1415926536
 42
-1.7918322519
  0
ELLIPSE
  5
763
100
AcDbEntity
  8
0
100
AcDbEllipse
 62
7
  6
CONTINUOUS
 10
-19.6924735212
 20
44.7304123033
 30
0.0
 11
14.008215606
 21
0.0
 31
0.0
 40
0.8682237535
 41
1.2290184413
 42
1.2474869946
  0
ELLIPSE
  5
764
100
AcDbEntity
  8
0
100
AcDbEllipse
 62
7
  6
CONTINUOUS
 10
-13.2942168416
 20
44.7304123033
 30
0.0
 11
11.1580445547
 21
-0.0
 31
0.0
 40
0.998774494
 41
1.2937184794
 42
1.3164316404
  0
ELLIPSE
  5
765
100
AcDbEntity
  8
RACCORDO
100
AcDbEllipse
 62
7
  6
CONTINUOUS
 10
-18.8333134342
 20
43.847816967
 30
0.0
 11
0.0
 21
0.5
 31
0.0
 40
0.0087268678
 41
-3.1241393611
 42
-1.5707963268
  0
ELLIPSE
  5
766
100
AcDbEntity
  8
0
100
AcDbEllipse
 62
7
  6
CONTINUOUS
 10
-5.7914805271
 20
44.7304123033
 30
0.0
 11
14.008215606
 21
-0.0
 31
0.0
 40
0.8682237535
 41
8.1772909662
 42
8.1957595195
  0
ELLIPSE
  5
767
100
AcDbEntity
  8
RACCORDO
100
AcDbEllipse
 62
7
  6
CONTINUOUS
 10
-6.6506406142
 20
43.847816967
 30
0.0
 11
-0.0
 21
0.5
 31
0.0
 40
0.0087268678
 41
-4.7123889804
 42
-3.1590459461
  0
ELLIPSE
  5
768
100
AcDbEntity
  8
RACCORDO
100
AcDbEllipse
 62
7
  6
CONTINUOUS
 10
-7.4333134342
 20
43.847816967
 30
0.0
 11
0.0
 21
0.5
 31
0.0
 40
0.0087268678
 41
-3.1241393611
 42
-2.9205567285
  0
ELLIPSE
  5
769
100
AcDbEntity
  8
0
100
AcDbEllipse
 62
7
  6
CONTINUOUS
 10
-12.1897372068
 20
44.7304123033
 30
0.0
 11
11.1580445547
 21
0.0
 31
0.0
 40
0.998774494
 41
1.8251610131
 42
1.8478741742
  0
ELLIPSE
  5
76A
100
AcDbEntity
  8
RACCORDO
100
AcDbEllipse
 62
7
  6
CONTINUOUS
 10
-18.0506406142
 20
43.847816967
 30
0.0
 11
-0.0
 21
0.5
 31
0.0
 40
0.0087268678
 41
-3.3626285787
 42
-3.1590459461
  0
ENDSEC
  0
SECTION
  2
OBJECTS
  0
DICTIONARY
  5
C
100
AcDbDictionary
280
0
281
1
  3
ACAD_GROUP
350
D
  3
ACAD_MLINESTYLE
350
17
  3
ACAD_LAYOUT
350
1A
  3
ACAD_PLOTSETTINGS
350
19
  3
ACAD_PLOTSTYLENAME
350
E
  0
DICTIONARY
  5
D
102
{ACAD_REACTORS
330
C
102
}
100
AcDbDictionary
280
0
281
1
  0
ACDBDICTIONARYWDFLT
  5
E
102
{ACAD_REACTORS
330
C
102
}
100
AcDbDictionary
281
1
  3
Normal
350
F
100
AcDbDictionaryWithDefault
340
F
  0
DICTIONARY
  5
17
102
{ACAD_REACTORS
330
C
102
}
100
AcDbDictionary
280
0
281
1
  3
Standard
350
18
  0
DICTIONARY
  5
19
102
{ACAD_REACTORS
330
C
102
}
100
AcDbDictionary
281
1
  0
DICTIONARY
  5
1A
102
{ACAD_REACTORS
330
C
102
}
100
AcDbDictionary
281
1
  3
Model
350
76B
  3
Layout1
350
76C
  0
ACDBPLACEHOLDER
  5
F
102
{ACAD_REACTORS
330
E
102
}
  0
MLINESTYLE
  5
18
102
{ACAD_REACTORS
330
17
102
}
100
AcDbMlineStyle
  2
STANDARD
 70
0
  3

 62
256
 51
90.0
 52
90.0
 71
2
 49
0.5
 62
256
  6
BYLAYER
 49
-0.5
 62
256
  6
BYLAYER
  0
LAYOUT
  5
76B
102
{ACAD_REACTORS
330
1A
102
}
100
AcDbPlotSettings
  1

  2
none_device
  4
ISO_A4_(297.00_x_210.00_MM)
  6

 40
0.0
 41
0.0
 42
0.0
 43
0.0
 44
297.0
 45
210.0
 46
0.0
 47
0.0
 48
0.0
 49
0.0
140
0.0
141
0.0
142
1.0
143
1.0
 70
1024
 72
1
 73
0
 74
0
  7

 75
0
147
1.0
148
0.0
149
0.0
100
AcDbLayout
  1
Model
 70
0
 71
0
 10
0.0
 20
0.0
 11
297.0
 21
210.0
 12
0.0
 22
0.0
 32
0.0
 14
0.0
 24
0.0
 34
0.0
 15
0.0
 25
0.0
 35
0.0
146
0.0
 13
0.0
 23
0.0
 33
0.0
 16
1.0
 26
0.0
 36
0.0
 17
0.0
 27
1.0
 37
0.0
 76
0
330
21B
345
0
346
0
  0
LAYOUT
  5
76C
102
{ACAD_REACTORS
330
1A
102
}
100
AcDbPlotSettings
  1

  2
none_device
  4
ISO_A4_(297.00_x_210.00_MM)
  6

 40
0.0
 41
0.0
 42
0.0
 43
0.0
 44
297.0
 45
210.0
 46
0.0
 47
0.0
 48
0.0
 49
0.0
140
0.0
141
0.0
142
1.0
143
1.0
 70
0
 72
1
 73
0
 74
0
  7

 75
0
147
1.0
148
0.0
149
0.0
100
AcDbLayout
  1
Layout1
 70
0
 71
1
 10
0.0
 20
0.0
 11
297.0
 21
210.0
 12
0.0
 22
0.0
 32
0.0
 14
0.0
 24
0.0
 34
0.0
 15
0.0
 25
0.0
 35
0.0
146
0.0
 13
0.0
 23
0.0
 33
0.0
 16
1.0
 26
0.0
 36
0.0
 17
0.0
 27
1.0
 37
0.0
 76
0
330
21C
345
0
346
0
  0
ENDSEC
  0
EOF
