  0
SECTION
  2
HEADER
  9
$ACADVER
  1
AC1024
  9
$DWGCODEPAGE
  3
ANSI_1252
  9
$EXTMAX
 10
297.0
 20
210.0
 30
0.0
  9
$EXTMIN
 10
0.0
 20
0.0
 30
0.0
  9
$LIMMIN
 10
0.0
 20
0.0
  9
$LIMMAX
 10
297.0
 20
210.0
  9
$VIEWCTR
 10
148.5
 20
105.0
  9
$VIEWSIZE
 40
210.0
  9
$CLAYER
  8
0
  9
$LTSCALE
 40
16.335
  9
$CELTYPE
  6
BYLAYER
  9
$DIMSCALE
 40
1.0
  9
$DIMASZ
 40
3.0
  9
$DIMEXO
 40
0.5
  9
$DIMDLI
 40
11.286
  9
$DIMEXE
 40
1.5
  9
$DIMCEN
 40
2.673
  9
$DIMLFAC
 40
1.0
  9
$DIMBLK
  1
_FILLED
  9
$DIMALT
 70
0
  9
$DIMALTF
 40
0.0393700787
  9
$DIMTXT
 40
3.0
  9
$DIMTOL
 70
1
  9
$DIMLIM
 70
0
  9
$DIMTFAC
 40
1.0
  9
$DIMTP
 40
0.01
  9
$DIMTM
 40
0.01
  9
$DIMGAP
 40
0.625
  9
$DIMDSEP
 70
44
  9
$AUNITS
 70
0
  9
$PDMODE
 70
3
  9
$PDSIZE
 40
3.0
  9
$HANDSEED
  5
76C
  9
$TILEMODE
 70
1
  9
$MEASUREMENT
 70
1
  9
$INSUNITS
 70
4
  0
ENDSEC
  0
SECTION
  2
CLASSES
  0
CLASS
  1
ACDBDICTIONARYWDFLT
  2
AcDbDictionaryWithDefault
  3
AutoCAD 2000
 90
0
 91
1
280
0
281
0
  0
CLASS
  1
ACDBPLACEHOLDER
  2
AcDbPlaceHolder
  3
AutoCAD 2000
 90
0
 91
1
280
0
281
0
  0
CLASS
  1
LAYOUT
  2
AcDbLayout
  3
AutoCAD 2000
 90
0
 91
0
280
0
281
0
  0
ENDSEC
  0
SECTION
  2
TABLES
  0
TABLE
  2
VPORT
  5
8
100
AcDbSymbolTable
 70
2
  0
VPORT
  5
1F4
100
AcDbSymbolTableRecord
100
AcDbViewportTableRecord
  2
*ACTIVE
 70
0
 10
0.0
 20
0.0
 11
1.0
 21
1.0
 12
148.5
 22
105.0
 13
0.0
 23
0.0
 14
1.0
 24
1.0
 15
0.0
 25
0.0
 16
0.0
 26
0.0
 36
1.0
 17
0.0
 27
0.0
 37
0.0
 40
210.0
 41
1.4142857143
 42
50.0
 43
0.0
 44
0.0
 50
0.0
 51
0.0
 71
0
 72
100
 73
1
 74
1
 75
0
 76
0
 77
0
 78
0
  0
ENDTAB
  0
TABLE
  2
LTYPE
  5
5
100
AcDbSymbolTable
 70
6
  0
LTYPE
  5
14
100
AcDbSymbolTableRecord
100
AcDbLinetypeTableRecord
  2
BYBLOCK
 70
0
  3

 72
65
 73
0
 40
0.0
  0
LTYPE
  5
15
100
AcDbSymbolTableRecord
100
AcDbLinetypeTableRecord
  2
BYLAYER
 70
0
  3

 72
65
 73
0
 40
0.0
  0
LTYPE
  5
16
100
AcDbSymbolTableRecord
100
AcDbLinetypeTableRecord
  2
CONTINUOUS
 70
64
  3
Solid line
 72
65
 73
0
 40
0.0
  0
LTYPE
  5
1F5
100
AcDbSymbolTableRecord
100
AcDbLinetypeTableRecord
  2
CENTER
 70
64
  3
____ _ ____ _ ____ _ ____ _ ____ _ ____ _ ____
 72
65
 73
4
 40
0.6
 49
0.375
 74
0
 49
-0.075
 74
0
 49
0.075
 74
0
 49
-0.075
 74
0
  0
LTYPE
  5
1F6
100
AcDbSymbolTableRecord
100
AcDbLinetypeTableRecord
  2
HIDDEN
 70
64
  3
- - - - - - - - - - - - - - - - - - - -
 72
65
 73
2
 40
0.2
 49
0.1
 74
0
 49
-0.1
 74
0
  0
LTYPE
  5
1F7
100
AcDbSymbolTableRecord
100
AcDbLinetypeTableRecord
  2
PHANTOM
 70
64
  3
_____ _ _ _____ _ _ _____ _ _ _____
 72
65
 73
6
 40
0.8
 49
0.45
 74
0
 49
-0.05
 74
0
 49
0.1
 74
0
 49
-0.05
 74
0
 49
0.1
 74
0
 49
-0.05
 74
0
  0
LTYPE
  5
1F8
100
AcDbSymbolTableRecord
100
AcDbLinetypeTableRecord
  2
DOT
 70
64
  3
. . . . . . . . . . . . . . . . . . . .
 72
65
 73
2
 40
0.2
 49
0.1
 74
0
 49
-0.1
 74
0
  0
LTYPE
  5
1F9
100
AcDbSymbolTableRecord
100
AcDbLinetypeTableRecord
  2
DASHED
 70
64
  3
- - - - - - - - - - - - - - - - - - - -
 72
65
 73
2
 40
0.2
 49
0.1
 74
0
 49
-0.1
 74
0
  0
ENDTAB
  0
TABLE
  2
LAYER
  5
2
100
AcDbSymbolTable
 70
36
  0
LAYER
  5
10
100
AcDbSymbolTableRecord
100
AcDbLayerTableRecord
  2
0
 70
0
 62
7
  6
CONTINUOUS
370
-3
390
F
  0
LAYER
  5
1FA
100
AcDbSymbolTableRecord
100
AcDbLayerTableRecord
  2
DEFAULT_1
 70
0
 62
7
  6
CENTER
370
-3
390
F
  0
LAYER
  5
1FB
100
AcDbSymbolTableRecord
100
AcDbLayerTableRecord
  2
DEFAULT_2
 70
0
 62
7
  6
HIDDEN
370
-3
390
F
  0
LAYER
  5
1FC
100
AcDbSymbolTableRecord
100
AcDbLayerTableRecord
  2
DEFAULT_3
 70
0
 62
7
  6
PHANTOM
370
-3
390
F
  0
LAYER
  5
1FD
100
AcDbSymbolTableRecord
100
AcDbLayerTableRecord
  2
9
 70
0
 62
7
  6
CONTINUOUS
370
-3
390
F
  0
LAYER
  5
1FE
100
AcDbSymbolTableRecord
100
AcDbLayerTableRecord
  2
ASSI
 70
0
 62
7
  6
CONTINUOUS
370
-3
390
F
  0
LAYER
  5
1FF
100
AcDbSymbolTableRecord
100
AcDbLayerTableRecord
  2
COORDINATE
 70
0
 62
7
  6
CONTINUOUS
370
-3
390
F
  0
LAYER
  5
200
100
AcDbSymbolTableRecord
100
AcDbLayerTableRecord
  2
COPY_PUBLISH
 70
0
 62
7
  6
CONTINUOUS
370
-3
390
F
  0
LAYER
  5
201
100
AcDbSymbolTableRecord
100
AcDbLayerTableRecord
  2
COSMETICI
 70
0
 62
7
  6
CONTINUOUS
370
-3
390
F
  0
LAYER
  5
202
100
AcDbSymbolTableRecord
100
AcDbLayerTableRecord
  2
CURVE
 70
0
 62
7
  6
CONTINUOUS
370
-3
390
F
  0
LAYER
  5
203
100
AcDbSymbolTableRecord
100
AcDbLayerTableRecord
  2
DRAFT
 70
0
 62
7
  6
CONTINUOUS
370
-3
390
F
  0
LAYER
  5
204
100
AcDbSymbolTableRecord
100
AcDbLayerTableRecord
  2
IMPORT_IGES
 70
0
 62
7
  6
CONTINUOUS
370
-3
390
F
  0
LAYER
  5
205
100
AcDbSymbolTableRecord
100
AcDbLayerTableRecord
  2
INTF_10
 70
0
 62
7
  6
CONTINUOUS
370
-3
390
F
  0
LAYER
  5
206
100
AcDbSymbolTableRecord
100
AcDbLayerTableRecord
  2
INTF_2
 70
0
 62
7
  6
CONTINUOUS
370
-3
390
F
  0
LAYER
  5
207
100
AcDbSymbolTableRecord
100
AcDbLayerTableRecord
  2
INTF_3
 70
0
 62
7
  6
CONTINUOUS
370
-3
390
F
  0
LAYER
  5
208
100
AcDbSymbolTableRecord
100
AcDbLayerTableRecord
  2
INTF_4
 70
0
 62
7
  6
CONTINUOUS
370
-3
390
F
  0
LAYER
  5
209
100
AcDbSymbolTableRecord
100
AcDbLayerTableRecord
  2
INTF_5
 70
0
 62
7
  6
CONTINUOUS
370
-3
390
F
  0
LAYER
  5
20A
100
AcDbSymbolTableRecord
100
AcDbLayerTableRecord
  2
INTF_6
 70
0
 62
7
  6
CONTINUOUS
370
-3
390
F
  0
LAYER
  5
20B
100
AcDbSymbolTableRecord
100
AcDbLayerTableRecord
  2
INTF_7
 70
0
 62
7
  6
CONTINUOUS
370
-3
390
F
  0
LAYER
  5
20C
100
AcDbSymbolTableRecord
100
AcDbLayerTableRecord
  2
INTF_9
 70
0
 62
7
  6
CONTINUOUS
370
-3
390
F
  0
LAYER
  5
20D
100
AcDbSymbolTableRecord
100
AcDbLayerTableRecord
  2
INTF_BLANK
 70
0
 62
7
  6
CONTINUOUS
370
-3
390
F
  0
LAYER
  5
20E
100
AcDbSymbolTableRecord
100
AcDbLayerTableRecord
  2
INTF_RED
 70
0
 62
7
  6
CONTINUOUS
370
-3
390
F
  0
LAYER
  5
20F
100
AcDbSymbolTableRecord
100
AcDbLayerTableRecord
  2
NOTE
 70
0
 62
7
  6
CONTINUOUS
370
-3
390
F
  0
LAYER
  5
210
100
AcDbSymbolTableRecord
100
AcDbLayerTableRecord
  2
PIANI
 70
0
 62
7
  6
CONTINUOUS
370
-3
390
F
  0
LAYER
  5
211
100
AcDbSymbolTableRecord
100
AcDbLayerTableRecord
  2
PUNTI
 70
0
 62
7
  6
CONTINUOUS
370
-3
390
F
  0
LAYER
  5
212
100
AcDbSymbolTableRecord
100
AcDbLayerTableRecord
  2
RACCORDO
 70
0
 62
7
  6
CONTINUOUS
370
-3
390
F
  0
LAYER
  5
213
100
AcDbSymbolTableRecord
100
AcDbLayerTableRecord
  2
RGB____0____0____0__
 70
0
 62
7
  6
CONTINUOUS
370
-3
390
F
  0
LAYER
  5
214
100
AcDbSymbolTableRecord
100
AcDbLayerTableRecord
  2
SIMBOLI
 70
0
 62
7
  6
CONTINUOUS
370
-3
390
F
  0
LAYER
  5
215
100
AcDbSymbolTableRecord
100
AcDbLayerTableRecord
  2
SMUSSO
 70
0
 62
7
  6
CONTINUOUS
370
-3
390
F
  0
LAYER
  5
216
100
AcDbSymbolTableRecord
100
AcDbLayerTableRecord
  2
SUPERFICI
 70
0
 62
7
  6
CONTINUOUS
370
-3
390
F
  0
LAYER
  5
217
100
AcDbSymbolTableRecord
100
AcDbLayerTableRecord
  2
TRASH
 70
0
 62
7
  6
CONTINUOUS
370
-3
390
F
  0
ENDTAB
  0
TABLE
  2
STYLE
  5
3
100
AcDbSymbolTable
 70
1
  0
STYLE
  5
11
100
AcDbSymbolTableRecord
100
AcDbTextStyleTableRecord
  2
STANDARD
 70
0
 40
0.0
 41
0.8
 50
0.0
 71
0
 42
0.2
  3
txt
  4

  0
STYLE
  5
218
100
AcDbSymbolTableRecord
100
AcDbTextStyleTableRecord
  2
TEXTSTYLE_1
 70
0
 40
0.0
 41
0.8
 50
0.0
 71
0
 42
0.2
  3
gdt
  4

  0
ENDTAB
  0
TABLE
  2
VIEW
  5
6
100
AcDbSymbolTable
 70
0
  0
ENDTAB
  0
TABLE
  2
UCS
  5
7
100
AcDbSymbolTable
 70
0
  0
ENDTAB
  0
TABLE
  2
APPID
  5
9
100
AcDbSymbolTable
 70
1
  0
APPID
  5
219
100
AcDbSymbolTableRecord
100
AcDbRegAppTableRecord
  2
ACAD
 70
0
  0
ENDTAB
  0
TABLE
  2
BLOCK_RECORD
  5
1
100
AcDbSymbolTable
 70
0
  0
BLOCK_RECORD
  5
21A
100
AcDbSymbolTableRecord
100
AcDbBlockTableRecord
  2
*Model_Space
  0
BLOCK_RECORD
  5
21B
100
AcDbSymbolTableRecord
100
AcDbBlockTableRecord
  2
*Paper_Space
  0
BLOCK_RECORD
  5
21C
100
AcDbSymbolTableRecord
100
AcDbBlockTableRecord
  2
_FILLED
  0
ENDTAB
  0
TABLE
  2
DIMSTYLE
  5
A
100
AcDbSymbolTable
 70
1
100
AcDbDimStyleTable
 71
0
  0
DIMSTYLE
105
21D
100
AcDbSymbolTableRecord
100
AcDbDimStyleTableRecord
  2
STANDARD
 70
0
  3

  4

 40
1.0
 41
3.0
 42
0.5
 43
0.38
 44
1.5
 45
0.0
 46
0.0
 47
0.01
 48
0.01
140
3.0
141
0.09
142
0.0
143
25.4
144
1.0
145
0.0
146
1.0
147
0.625
 71
1
 72
0
 73
0
 74
0
 75
0
 76
0
 77
1
 78
8
 79
2
170
0
171
1
172
0
173
0
174
0
175
0
176
0
177
0
178
0
270
2
179
2
271
2
272
2
273
2
274
2
275
0
280
0
281
0
282
0
283
1
284
8
285
0
286
0
287
3
288
0
340
11
278
44
341
21C
342
21C
343
21C
344
21C
  0
ENDTAB
  0
ENDSEC
  0
SECTION
  2
BLOCKS
  0
BLOCK
  5
20
100
AcDbEntity
  8
0
100
AcDbBlockBegin
  2
*Model_Space
 70
0
 10
0.0
 20
0.0
 30
0.0
  3
*Model_Space
  1

  0
ENDBLK
  5
21
100
AcDbEntity
  8
0
100
AcDbBlockEnd
  0
BLOCK
  5
1C
100
AcDbEntity
  8
0
100
AcDbBlockBegin
  2
*Paper_Space
 70
0
 10
0.0
 20
0.0
 30
0.0
  3
*Paper_Space
  1

  0
ENDBLK
  5
1D
100
AcDbEntity
  8
0
100
AcDbBlockEnd
  0
BLOCK
  5
21E
100
AcDbEntity
  8
0
100
AcDbBlockBegin
  2
_FILLED
 70
64
 10
0.0
 20
0.0
  3
_FILLED
  1

  0
SOLID
  5
21F
100
AcDbEntity
  8
0
  6
BYBLOCK
 62
0
100
AcDbTrace
 10
0.0
 20
0.0
 11
-1.0
 21
0.3166666667
 12
-1.0
 22
-0.3166666667
 13
-1.0
 23
-0.3166666667
  0
ENDBLK
  5
220
100
AcDbEntity
  8
0
  6
BYBLOCK
 62
0
100
AcDbBlockEnd
  0
ENDSEC
  0
SECTION
  2
ENTITIES
  0
LINE
  5
221
100
AcDbEntity
  8
RACCORDO
100
AcDbLine
 62
7
  6
CONTINUOUS
 10
4.65
 20
86.1259246068
 11
4.6307780443
 21
86.1197943994
  0
LINE
  5
222
100
AcDbEntity
  8
0
100
AcDbLine
 62
7
  6
CONTINUOUS
 10
-6.85
 20
84.118686438
 11
-9.150022
 21
83.453817438
  0
LINE
  5
223
100
AcDbEntity
  8
0
100
AcDbLine
 62
7
  6
CONTINUOUS
 10
-7.082233
 20
80.541988438
 11
-9.150007
 21
79.768959438
  0
LINE
  5
224
100
AcDbEntity
  8
0
100
AcDbLine
 62
7
  6
CONTINUOUS
 10
-8.91778
 20
79.600356438
 11
-6.850006
 21
80.373385438
  0
LWPOLYLINE
  5
225
100
AcDbEntity
  8
0
100
AcDbPolyline
 62
7
  6
CONTINUOUS
 90
10
 70
0
 10
8.7910092589
 20
83.3671658187
 10
8.7707093365
 20
83.3608914098
 10
8.7490151658
 20
83.3550667974
 10
8.7259267471
 20
83.3496919815
 10
8.7015548999
 20
83.3447577993
 10
8.6757888047
 20
83.3402734136
 10
8.6482960021
 20
83.3362663129
 10
8.6189656725
 20
83.3327456599
 10
8.5879086357
 20
83.3297022919
 10
8.5551248915
 20
83.3271362088
  0
LWPOLYLINE
  5
226
100
AcDbEntity
  8
0
100
AcDbPolyline
 62
7
  6
CONTINUOUS
 90
10
 70
0
 10
8.7910092589
 20
81.9292682558
 10
8.7707093365
 20
81.9229938468
 10
8.7490151658
 20
81.9171692344
 10
8.7259267471
 20
81.9117944185
 10
8.7015548999
 20
81.9068602363
 10
8.6757888047
 20
81.9023758506
 10
8.6482960021
 20
81.8983687499
 10
8.6189656725
 20
81.8948480969
 10
8.5879086357
 20
81.8918047289
 10
8.5551248915
 20
81.8892386459
  0
LWPOLYLINE
  5
227
100
AcDbEntity
  8
0
100
AcDbPolyline
 62
7
  6
CONTINUOUS
 90
10
 70
0
 10
8.7910092996
 20
80.4913705678
 10
8.7707093561
 20
80.4850961906
 10
8.7490151683
 20
80.4792716049
 10
8.7259267361
 20
80.4738968108
 10
8.7015548795
 20
80.4689626448
 10
8.6757887785
 20
80.4644782704
 10
8.6482959734
 20
80.4604711779
 10
8.618965644
 20
80.4569505306
 10
8.5879086104
 20
80.4539071652
 10
8.5551248727
 20
80.4513410816
  0
LWPOLYLINE
  5
228
100
AcDbEntity
  8
0
100
AcDbPolyline
 62
7
  6
CONTINUOUS
 90
10
 70
0
 10
7.2094743153
 20
83.8775896853
 10
7.2319801059
 20
83.8840829099
 10
7.2555008384
 20
83.8901322759
 10
7.2800365128
 20
83.8957377832
 10
7.305605676
 20
83.9009403489
 10
7.3321897811
 20
83.9056990559
 10
7.3597331872
 20
83.9098911528
 10
7.3882173471
 20
83.9134757222
 10
7.4176608081
 20
83.9164936815
 10
7.4480635699
 20
83.9189450305
  0
LWPOLYLINE
  5
229
100
AcDbEntity
  8
0
100
AcDbPolyline
 62
7
  6
CONTINUOUS
 90
10
 70
0
 10
7.2094743153
 20
82.4396921223
 10
7.2319801059
 20
82.446185347
 10
7.2555008384
 20
82.4522347129
 10
7.2800365128
 20
82.4578402202
 10
7.305605676
 20
82.4630427859
 10
7.3321897811
 20
82.467801493
 10
7.3597331872
 20
82.4719935898
 10
7.3882173471
 20
82.4755781593
 10
7.4176608081
 20
82.4785961185
 10
7.4480635699
 20
82.4810474675
  0
LWPOLYLINE
  5
22A
100
AcDbEntity
  8
0
100
AcDbPolyline
 62
7
  6
CONTINUOUS
 90
10
 70
0
 10
7.2094743907
 20
81.0017943078
 10
7.231980149
 20
81.0082875235
 10
7.2555008568
 20
81.0143368826
 10
7.2800365143
 20
81.019942385
 10
7.3056056699
 20
81.0251449484
 10
7.3321897751
 20
81.0299036552
 10
7.3597331841
 20
81.0340957522
 10
7.3882173483
 20
81.0376803218
 10
7.4176608163
 20
81.0406982816
 10
7.4480635881
 20
81.0431496316
  0
LINE
  5
22B
100
AcDbEntity
  8
RACCORDO
100
AcDbLine
 62
7
  6
CONTINUOUS
 10
-7.9866280426
 20
87.9479463954
 11
-8.0
 21
87.934574438
  0
LWPOLYLINE
  5
22C
100
AcDbEntity
  8
0
100
AcDbPolyline
 62
7
  6
CONTINUOUS
 90
10
 70
0
 10
7.0663208723
 20
84.0939103061
 10
7.0400646131
 20
84.080667202
 10
7.0152862003
 20
84.0661410199
 10
6.9919856341
 20
84.0503317597
 10
6.9703068069
 20
84.0333741448
 10
6.9501058261
 20
84.0151334519
 10
6.9309510143
 20
83.995205511
 10
6.9126984787
 20
83.9734555988
 10
6.895492112
 20
83.9500184386
 10
6.8793319142
 20
83.9248940304
  0
LWPOLYLINE
  5
22D
100
AcDbEntity
  8
0
100
AcDbPolyline
 62
7
  6
CONTINUOUS
 90
10
 70
0
 10
7.0663208723
 20
82.6560127431
 10
7.0400646131
 20
82.642769639
 10
7.0152862003
 20
82.6282434569
 10
6.9919856341
 20
82.6124341967
 10
6.9703068069
 20
82.5954765818
 10
6.9501058261
 20
82.5772358889
 10
6.9309510143
 20
82.557307948
 10
6.9126984787
 20
82.5355580358
 10
6.895492112
 20
82.5121208756
 10
6.8793319142
 20
82.4869964675
  0
LWPOLYLINE
  5
22E
100
AcDbEntity
  8
0
100
AcDbPolyline
 62
7
  6
CONTINUOUS
 90
10
 70
0
 10
7.0663208723
 20
81.2181151801
 10
7.0400647335
 20
81.2048721413
 10
7.0152864038
 20
81.190345997
 10
6.9919858832
 20
81.1745367473
 10
6.9703070546
 20
81.1575791109
 10
6.9501060351
 20
81.1393383691
 10
6.9309511762
 20
81.1194103657
 10
6.912698595
 20
81.0976603821
 10
6.8954921743
 20
81.074223137
 10
6.8793319142
 20
81.0490986303
  0
LWPOLYLINE
  5
22F
100
AcDbEntity
  8
0
100
AcDbPolyline
 62
7
  6
CONTINUOUS
 90
10
 70
0
 10
8.9148444841
 20
83.1453322813
 10
8.9459149208
 20
83.1601770156
 10
8.9746575771
 20
83.17595323
 10
9.0010724529
 20
83.1926609244
 10
9.0249247664
 20
83.2101983979
 10
9.0464492994
 20
83.2286673514
 10
9.0663503973
 20
83.2483728881
 10
9.0848628419
 20
83.2694167089
 10
9.1017518513
 20
83.2916971129
 10
9.1170174257
 20
83.3152141001
  0
LWPOLYLINE
  5
230
100
AcDbEntity
  8
0
100
AcDbPolyline
 62
7
  6
CONTINUOUS
 90
10
 70
0
 10
8.9148444841
 20
81.7074344441
 10
8.9459148433
 20
81.7222791515
 10
8.9746574436
 20
81.7380553537
 10
9.0010722852
 20
81.7547630507
 10
9.0249245891
 20
81.772300542
 10
9.0464491342
 20
81.7907695281
 10
9.0663502568
 20
81.8104751105
 10
9.0848627356
 20
81.8315189897
 10
9.1017517919
 20
81.8537994652
 10
9.1170174257
 20
81.8773165371
  0
LWPOLYLINE
  5
231
100
AcDbEntity
  8
0
100
AcDbPolyline
 62
7
  6
CONTINUOUS
 90
10
 70
0
 10
8.9148444841
 20
80.2695368811
 10
8.9459149208
 20
80.2843816155
 10
8.9746575771
 20
80.3001578298
 10
9.0010724529
 20
80.3168655243
 10
9.0249247664
 20
80.3344029977
 10
9.0464492994
 20
80.3528719513
 10
9.0663503973
 20
80.3725774879
 10
9.0848628419
 20
80.3936213088
 10
9.1017518513
 20
80.4159017128
 10
9.1170174257
 20
80.4394186999
  0
LWPOLYLINE
  5
232
100
AcDbEntity
  8
RACCORDO
100
AcDbPolyline
 62
7
  6
CONTINUOUS
 90
3
 70
0
 10
-3.6968701765
 20
71.3022233596
 10
-3.7232231508
 20
71.2928613655
 10
-3.75
 20
71.2830594293
  0
LWPOLYLINE
  5
233
100
AcDbEntity
  8
RACCORDO
100
AcDbPolyline
 62
7
  6
CONTINUOUS
 90
6
 70
0
 10
-3.5326855641
 20
72.1956400777
 10
-3.520995695
 20
72.1997467663
 10
-3.5118289977
 20
72.2030591481
 10
-3.5052588316
 20
72.2055429837
 10
-3.5013127165
 20
72.2072325124
 10
-3.5
 20
72.2081277344
  0
LINE
  5
234
100
AcDbEntity
  8
RACCORDO
100
AcDbLine
 62
7
  6
CONTINUOUS
 10
-3.6232449616
 20
71.3278098874
 11
-3.6968701765
 21
71.3022233596
  0
LINE
  5
235
100
AcDbEntity
  8
RACCORDO
100
AcDbLine
 62
7
  6
CONTINUOUS
 10
-3.75
 20
72.1228495508
 11
-3.7233362249
 21
72.1319232838
  0
LINE
  5
236
100
AcDbEntity
  8
RACCORDO
100
AcDbLine
 62
7
  6
CONTINUOUS
 10
-3.5813568175
 20
72.1791383495
 11
-3.5326855641
 21
72.1956400777
  0
LWPOLYLINE
  5
237
100
AcDbEntity
  8
RACCORDO
100
AcDbPolyline
 62
7
  6
CONTINUOUS
 90
4
 70
0
 10
-3.5466283986
 20
71.3535462522
 10
-3.5628656081
 20
71.3481990094
 10
-3.5811564302
 20
71.3420605819
 10
-3.6232449616
 20
71.3278098874
  0
LINE
  5
238
100
AcDbEntity
  8
RACCORDO
100
AcDbLine
 62
7
  6
CONTINUOUS
 10
-3.7233362249
 20
72.1319232838
 11
-3.5813568175
 21
72.1791383495
  0
LWPOLYLINE
  5
239
100
AcDbEntity
  8
0
100
AcDbPolyline
 62
7
  6
CONTINUOUS
 90
7
 70
0
 10
-3.5
 20
72.2186390869
 10
-3.8550957217
 20
72.1023402655
 10
-4.206307783
 20
71.9748860838
 10
-4.5532863901
 20
71.8364067358
 10
-4.8956861263
 20
71.6870433615
 10
-5.2331662934
 20
71.5269478994
 10
-5.5653912489
 20
71.356282928
  0
LINE
  5
23A
100
AcDbEntity
  8
RACCORDO
100
AcDbLine
 62
250
  6
CONTINUOUS
 10
4.706631318
 20
85.751645445
 11
4.8456620069
 21
85.8503644449
  0
LWPOLYLINE
  5
23B
100
AcDbEntity
  8
0
100
AcDbPolyline
 62
7
  6
CONTINUOUS
 90
10
 70
0
 10
8.8732365114
 20
77.6011027115
 10
8.86201017
 20
77.5942406056
 10
8.8501180756
 20
77.58776253
 10
8.8375602284
 20
77.5816684847
 10
8.8244197176
 20
77.5759504691
 10
8.8106134539
 20
77.5706164837
 10
8.7958921695
 20
77.5656905307
 10
8.7801727752
 20
77.5611806108
 10
8.7635383603
 20
77.5570787233
 10
8.7459889248
 20
77.5533848682
  0
LWPOLYLINE
  5
23C
100
AcDbEntity
  8
RACCORDO
100
AcDbPolyline
 62
7
  6
CONTINUOUS
 90
16
 70
0
 10
-5.5580354143
 20
71.3436206159
 10
-5.6201891643
 20
71.307565969
 10
-5.6792377782
 20
71.2673566851
 10
-5.735181256
 20
71.2229927644
 10
-5.7884143223
 20
71.1740694353
 10
-5.8385422525
 20
71.1209914694
 10
-5.8843808732
 20
71.0649731805
 10
-5.9256449063
 20
71.0062332246
 10
-5.9626196298
 20
70.9445529456
 10
-5.9949767041
 20
70.8804906898
 10
-6.0227740481
 20
70.8137033845
 10
-6.0459537429
 20
70.7445341023
 10
-6.0640136927
 20
70.674570407
 10
-6.0767865322
 20
70.6043414868
 10
-6.0844396267
 20
70.5333181534
 10
-6.0869729761
 20
70.4615004071
  0
LWPOLYLINE
  5
23D
100
AcDbEntity
  8
RACCORDO
100
AcDbPolyline
 62
7
  6
CONTINUOUS
 90
13
 70
0
 10
-5.0437552334
 20
70.5323551927
 10
-5.0519187927
 20
70.5277324361
 10
-5.0595737892
 20
70.5223628298
 10
-5.0667202228
 20
70.5162463739
 10
-5.0734202521
 20
70.5093343493
 10
-5.0796117184
 20
70.501675475
 10
-5.0851081464
 20
70.4934159083
 10
-5.0899012836
 20
70.4845288864
 10
-5.0939993823
 20
70.4750411721
 10
-5.0972407236
 20
70.4651792109
 10
-5.0995714009
 20
70.4550184847
 10
-5.1010453208
 20
70.4444835115
 10
-5.1016624831
 20
70.4335742915
  0
LWPOLYLINE
  5
23E
100
AcDbEntity
  8
0
100
AcDbPolyline
 62
7
  6
CONTINUOUS
 90
10
 70
0
 10
8.1415629238
 20
78.3550446743
 10
8.1266861558
 20
78.3466229499
 10
8.1121274694
 20
78.3372527089
 10
8.0978868644
 20
78.3269339513
 10
8.0838790748
 20
78.3156194624
 10
8.0701893666
 20
78.3033564569
 10
8.0570735385
 20
78.290286579
 10
8.0446168564
 20
78.2764570437
 10
8.0327340543
 20
78.261820636
 10
8.0214251322
 20
78.246377356
  0
LWPOLYLINE
  5
23F
100
AcDbEntity
  8
0
100
AcDbPolyline
 62
7
  6
CONTINUOUS
 90
7
 70
0
 10
-5.3055769489
 20
70.5699542791
 10
-5.0148808106
 20
70.7244304836
 10
-4.7197327926
 20
70.8701168008
 10
-4.4203992
 20
71.0068864154
 10
-4.1171499012
 20
71.1346205934
 10
-3.8102580826
 20
71.2532087805
 10
-3.5
 20
71.3625486929
  0
LWPOLYLINE
  5
240
100
AcDbEntity
  8
0
100
AcDbPolyline
 62
7
  6
CONTINUOUS
 90
10
 70
0
 10
7.1299446583
 20
78.0846435153
 10
7.1426632134
 20
78.0913171608
 10
7.1556688655
 20
78.0975301535
 10
7.1689616144
 20
78.1032824935
 10
7.1825601044
 20
78.1085924946
 10
7.1964456913
 20
78.113441843
 10
7.2105624424
 20
78.1177755974
 10
7.2248917137
 20
78.1215754441
 10
7.2394521493
 20
78.1248596968
 10
7.2542437492
 20
78.1276283556
  0
LWPOLYLINE
  5
241
100
AcDbEntity
  8
RACCORDO
100
AcDbPolyline
 62
7
  6
CONTINUOUS
 90
10
 70
0
 10
-4.5898369388
 20
86.1752124055
 10
-4.5725763773
 20
86.1950601212
 10
-4.5516662628
 20
86.2122053378
 10
-4.527380719
 20
86.2268426976
 10
-4.5002356073
 20
86.239162403
 10
-4.4705514359
 20
86.2495681173
 10
-4.4383159228
 20
86.2585793774
 10
-4.4038228261
 20
86.2665808527
 10
-4.3677795537
 20
86.2738987534
 10
-4.3307894673
 20
86.280961498
  0
LINE
  5
242
100
AcDbEntity
  8
RACCORDO
100
AcDbLine
 62
250
  6
CONTINUOUS
 10
4.334364846
 20
87.318927861
 11
4.3500114231
 21
87.334574438
  0
LINE
  5
243
100
AcDbEntity
  8
RACCORDO
100
AcDbLine
 62
250
  6
CONTINUOUS
 10
4.634353423
 20
87.018939284
 11
4.65
 21
87.0345858611
  0
LINE
  5
244
100
AcDbEntity
  8
RACCORDO
100
AcDbLine
 62
7
  6
CONTINUOUS
 10
7.9866280426
 20
88.5212024806
 11
8.0
 21
88.534574438
  0
LINE
  5
245
100
AcDbEntity
  8
DRAFT
100
AcDbLine
 62
7
  6
CONTINUOUS
 10
-4.65
 20
86.1259246068
 11
-4.8456620069
 21
85.8503644449
  0
LINE
  5
246
100
AcDbEntity
  8
RACCORDO
100
AcDbLine
 62
7
  6
CONTINUOUS
 10
-4.8289311143
 20
85.8384846434
 11
-4.5898369388
 21
86.1752124055
  0
LINE
  5
247
100
AcDbEntity
  8
RACCORDO
100
AcDbLine
 62
250
  6
CONTINUOUS
 10
-4.706631318
 20
85.751645445
 11
-4.3307894673
 21
86.280961498
  0
LINE
  5
248
100
AcDbEntity
  8
DRAFT
100
AcDbLine
 62
7
  6
CONTINUOUS
 10
-4.3198454055
 20
85.554538248
 11
-4.3340207461
 21
85.534574438
  0
LWPOLYLINE
  5
249
100
AcDbEntity
  8
0
100
AcDbPolyline
 62
7
  6
CONTINUOUS
 90
10
 70
0
 10
7.0639093436
 20
83.7878876814
 10
7.073682113
 20
83.7994022982
 10
7.0850184824
 20
83.8106035332
 10
7.0979184521
 20
83.8214913864
 10
7.1123331166
 20
83.8321639247
 10
7.1283113813
 20
83.8425230812
 10
7.1459999619
 20
83.8522746555
 10
7.1654477638
 20
83.861320581
 10
7.1866058815
 20
83.8697589242
 10
7.2094743153
 20
83.8775896853
  0
LWPOLYLINE
  5
24A
100
AcDbEntity
  8
0
100
AcDbPolyline
 62
7
  6
CONTINUOUS
 90
10
 70
0
 10
6.9525941542
 20
78.2778329701
 10
6.9265196622
 20
78.2524531757
 10
6.9028076708
 20
78.2224450143
 10
6.88145818
 20
78.1878084858
 10
6.8621433386
 20
78.1491973737
 10
6.8451909977
 20
78.1059578946
 10
6.831584711
 20
78.0561286981
 10
6.8216523294
 20
77.9990560007
 10
6.8150660019
 20
77.9353935859
 10
6.8118257284
 20
77.8651414537
  0
LWPOLYLINE
  5
24B
100
AcDbEntity
  8
0
100
AcDbPolyline
 62
7
  6
CONTINUOUS
 90
10
 70
0
 10
8.1558437138
 20
78.0575688445
 10
8.1676919513
 20
78.0687900964
 10
8.1805162356
 20
78.07932656
 10
8.1943165669
 20
78.0891782353
 10
8.2089667065
 20
78.0983536471
 10
8.224592893
 20
78.1068442705
 10
8.2415738425
 20
78.1146245314
 10
8.2600357938
 20
78.1216859052
 10
8.2798525082
 20
78.1280369165
 10
8.3010239856
 20
78.1336775654
  0
LWPOLYLINE
  5
24C
100
AcDbEntity
  8
0
100
AcDbPolyline
 62
7
  6
CONTINUOUS
 90
10
 70
0
 10
9.0386583615
 20
77.4070501484
 10
9.065853252
 20
77.4323276718
 10
9.0905729402
 20
77.463006145
 10
9.112817426
 20
77.499085568
 10
9.1329315986
 20
77.5398158128
 10
9.1505705689
 20
77.5859470075
 10
9.1646996693
 20
77.6397295359
 10
9.1749740108
 20
77.7019135259
 10
9.1817384825
 20
77.7717488497
 10
9.1849930844
 20
77.8492355072
  0
LINE
  5
24D
100
AcDbEntity
  8
RACCORDO
100
AcDbLine
 62
7
  6
CONTINUOUS
 10
-9.1
 20
52.834574438
 11
-9.2108433288
 21
52.784375626
  0
LINE
  5
24E
100
AcDbEntity
  8
DRAFT
100
AcDbLine
 62
7
  6
CONTINUOUS
 10
-9.459557593
 20
54.0207909323
 11
-9.3171572875
 21
54.084574438
  0
LINE
  5
24F
100
AcDbEntity
  8
DRAFT
100
AcDbLine
 62
7
  6
CONTINUOUS
 10
-9.740442407
 20
50.9483579437
 11
-9.8828427125
 21
50.884574438
  0
LINE
  5
250
100
AcDbEntity
  8
DRAFT
100
AcDbLine
 62
7
  6
CONTINUOUS
 10
-9.4918749397
 20
54.0065045224
 11
-9.459557593
 21
54.0207909323
  0
LINE
  5
251
100
AcDbEntity
  8
DRAFT
100
AcDbLine
 62
7
  6
CONTINUOUS
 10
-9.7081250603
 20
50.9626443536
 11
-9.740442407
 21
50.9483579437
  0
LINE
  5
252
100
AcDbEntity
  8
DRAFT
100
AcDbLine
 62
7
  6
CONTINUOUS
 10
-9.5141752913
 20
53.9967746355
 11
-9.4918749397
 21
54.0065045224
  0
LINE
  5
253
100
AcDbEntity
  8
DRAFT
100
AcDbLine
 62
7
  6
CONTINUOUS
 10
-9.6858247087
 20
50.9723742405
 11
-9.7081250603
 21
50.9626443536
  0
LWPOLYLINE
  5
254
100
AcDbEntity
  8
DRAFT
100
AcDbPolyline
 62
7
  6
CONTINUOUS
 90
6
 70
0
 10
-9.5553454168
 20
53.9795880418
 10
-9.5486993898
 20
53.9822518898
 10
-9.5419670985
 20
53.9849959716
 10
-9.5351485431
 20
53.987820287
 10
-9.5282641205
 20
53.9907228571
 10
-9.5141752913
 20
53.9967746355
  0
LWPOLYLINE
  5
255
100
AcDbEntity
  8
DRAFT
100
AcDbPolyline
 62
7
  6
CONTINUOUS
 90
6
 70
0
 10
-9.6446545832
 20
50.9895608342
 10
-9.6513006102
 20
50.9868969862
 10
-9.6580329015
 20
50.9841529044
 10
-9.6648514569
 20
50.981328589
 10
-9.6717358795
 20
50.9784260189
 10
-9.6858247087
 20
50.9723742405
  0
LINE
  5
256
100
AcDbEntity
  8
RACCORDO
100
AcDbLine
 62
250
  6
CONTINUOUS
 10
-8.1638273498
 20
52.8976153636
 11
-8.4938267808
 21
52.7995331684
  0
LINE
  5
257
100
AcDbEntity
  8
RACCORDO
100
AcDbLine
 62
250
  6
CONTINUOUS
 10
-8.0042023768
 20
52.7513589753
 11
-8.3461056179
 21
52.6497387382
  0
LWPOLYLINE
  5
258
100
AcDbEntity
  8
0
100
AcDbPolyline
 62
7
  6
CONTINUOUS
 90
10
 70
0
 10
7.0639093436
 20
82.3499901184
 10
7.073682113
 20
82.3615047352
 10
7.0850184824
 20
82.3727059702
 10
7.0979184521
 20
82.3835938234
 10
7.1123331166
 20
82.3942663617
 10
7.1283113813
 20
82.4046255182
 10
7.1459999619
 20
82.4143770926
 10
7.1654477638
 20
82.423423018
 10
7.1866058815
 20
82.4318613612
 10
7.2094743153
 20
82.4396921223
  0
LWPOLYLINE
  5
259
100
AcDbEntity
  8
0
100
AcDbPolyline
 62
7
  6
CONTINUOUS
 90
10
 70
0
 10
7.0639094089
 20
80.9120925033
 10
7.073682153
 20
80.9236071147
 10
7.0850185036
 20
80.9348083369
 10
7.0979184607
 20
80.9456961698
 10
7.1123331185
 20
80.9563686758
 10
7.1283113829
 20
80.9667277925
 10
7.1459999706
 20
80.9764793327
 10
7.1654477873
 20
80.9855252342
 10
7.1866059273
 20
80.9939635592
 10
7.2094743907
 20
81.0017943078
  0
LWPOLYLINE
  5
25A
100
AcDbEntity
  8
0
100
AcDbPolyline
 62
7
  6
CONTINUOUS
 90
10
 70
0
 10
8.9386071649
 20
83.4594490083
 10
8.9280808136
 20
83.4475772091
 10
8.9161232633
 20
83.4360544755
 10
8.9027345138
 20
83.4248808076
 10
8.8879641053
 20
83.4139822558
 10
8.8717624977
 20
83.4034327697
 10
8.8539810713
 20
83.393454198
 10
8.834570286
 20
83.3841204905
 10
8.8135796819
 20
83.3753576974
 10
8.7910092589
 20
83.3671658187
  0
LWPOLYLINE
  5
25B
100
AcDbEntity
  8
0
100
AcDbPolyline
 62
7
  6
CONTINUOUS
 90
10
 70
0
 10
8.9386071649
 20
82.0215514453
 10
8.9280808136
 20
82.0096796461
 10
8.9161232633
 20
81.9981569125
 10
8.9027345138
 20
81.9869832446
 10
8.8879641053
 20
81.9760846928
 10
8.8717624977
 20
81.9655352067
 10
8.8539810713
 20
81.9555566351
 10
8.834570286
 20
81.9462229275
 10
8.8135796819
 20
81.9374601344
 10
8.7910092589
 20
81.9292682558
  0
LWPOLYLINE
  5
25C
100
AcDbEntity
  8
0
100
AcDbPolyline
 62
7
  6
CONTINUOUS
 90
10
 70
0
 10
8.9386071649
 20
80.5836538823
 10
8.928080811
 20
80.5717820666
 10
8.91612326
 20
80.5602593129
 10
8.9027345119
 20
80.5490856213
 10
8.8879641067
 20
80.5381870366
 10
8.8717625045
 20
80.527637514
 10
8.8539810847
 20
80.5176589192
 10
8.8345703072
 20
80.5083252076
 10
8.8135797122
 20
80.4995624238
 10
8.7910092996
 20
80.4913705678
  0
LINE
  5
25D
100
AcDbEntity
  8
RACCORDO
100
AcDbLine
 62
7
  6
CONTINUOUS
 10
-9.1
 20
54.084574438
 11
-9.4290614477
 21
53.8357936104
  0
LWPOLYLINE
  5
25E
100
AcDbEntity
  8
RACCORDO
100
AcDbPolyline
 62
250
  6
CONTINUOUS
 90
6
 70
0
 10
-4.5802266447
 20
48.6259957942
 10
-4.5888756368
 20
48.6204130257
 10
-4.5975582617
 20
48.6149939389
 10
-4.6061174802
 20
48.6097469237
 10
-4.6143377569
 20
48.6046221481
 10
-4.6221330709
 20
48.5996684592
  0
LWPOLYLINE
  5
25F
100
AcDbEntity
  8
RACCORDO
100
AcDbPolyline
 62
250
  6
CONTINUOUS
 90
6
 70
0
 10
-4.6531211221
 20
48.5802747219
 10
-4.657159029
 20
48.5776771413
 10
-4.6604218931
 20
48.5756659311
 10
-4.6628702438
 20
48.5742580584
 10
-4.6643849131
 20
48.5733376598
 10
-4.6649147678
 20
48.5728462318
  0
LWPOLYLINE
  5
260
100
AcDbEntity
  8
RACCORDO
100
AcDbPolyline
 62
250
  6
CONTINUOUS
 90
4
 70
0
 10
-4.6221330709
 20
48.5996684592
 10
-4.6364202328
 20
48.5907574968
 10
-4.6426420606
 20
48.5867918912
 10
-4.6531211221
 20
48.5802747219
  0
LWPOLYLINE
  5
261
100
AcDbEntity
  8
RACCORDO
100
AcDbPolyline
 62
250
  6
CONTINUOUS
 90
6
 70
0
 10
-4.7402132415
 20
48.9025802321
 10
-4.7491828094
 20
48.8975249073
 10
-4.7581647213
 20
48.8926276284
 10
-4.7670088685
 20
48.8878908698
 10
-4.7755134325
 20
48.8832589056
 10
-4.7835902062
 20
48.8787757379
  0
LWPOLYLINE
  5
262
100
AcDbEntity
  8
RACCORDO
100
AcDbPolyline
 62
250
  6
CONTINUOUS
 90
6
 70
0
 10
-4.815670923
 20
48.8612396511
 10
-4.8198585421
 20
48.8588880868
 10
-4.8232337493
 20
48.8570683992
 10
-4.8257568419
 20
48.855797164
 10
-4.8273230519
 20
48.8549647881
 10
-4.8278879582
 20
48.8545167508
  0
LWPOLYLINE
  5
263
100
AcDbEntity
  8
RACCORDO
100
AcDbPolyline
 62
250
  6
CONTINUOUS
 90
4
 70
0
 10
-4.7835902062
 20
48.8787757379
 10
-4.7983780238
 20
48.8707209841
 10
-4.8048260387
 20
48.8671312986
 10
-4.815670923
 20
48.8612396511
  0
LWPOLYLINE
  5
264
100
AcDbEntity
  8
RACCORDO
100
AcDbPolyline
 62
7
  6
CONTINUOUS
 90
7
 70
0
 10
-4.0593524545
 20
47.8461192334
 10
-4.0522135827
 20
47.8497179464
 10
-4.0444268702
 20
47.8526505833
 10
-4.0359923169
 20
47.8549171443
 10
-4.0269099228
 20
47.8565176293
 10
-4.0171796879
 20
47.8574520383
 10
-4.0068016123
 20
47.8577203714
  0
LWPOLYLINE
  5
265
100
AcDbEntity
  8
RACCORDO
100
AcDbPolyline
 62
250
  6
CONTINUOUS
 90
9
 70
0
 10
-3.8151276542
 20
47.5867401022
 10
-3.8244797711
 20
47.5824511983
 10
-3.8337958362
 20
47.5793073471
 10
-3.8428986561
 20
47.5772631109
 10
-3.851673088
 20
47.5762235779
 10
-3.8598972114
 20
47.5761932162
 10
-3.8673952493
 20
47.5772329662
 10
-3.8741793434
 20
47.5793213823
 10
-3.8802606487
 20
47.5824029785
  0
LINE
  5
266
100
AcDbEntity
  8
RACCORDO
100
AcDbLine
 62
7
  6
CONTINUOUS
 10
9.1
 20
52.134574438
 11
9.2108433288
 21
52.18477325
  0
LINE
  5
267
100
AcDbEntity
  8
DRAFT
100
AcDbLine
 62
7
  6
CONTINUOUS
 10
9.740442407
 20
54.0207909323
 11
9.8828427125
 21
54.084574438
  0
LINE
  5
268
100
AcDbEntity
  8
DRAFT
100
AcDbLine
 62
7
  6
CONTINUOUS
 10
9.459557593
 20
50.9483579437
 11
9.3171572875
 21
50.884574438
  0
LWPOLYLINE
  5
269
100
AcDbEntity
  8
RACCORDO
100
AcDbPolyline
 62
7
  6
CONTINUOUS
 90
7
 70
0
 10
-4.3082907271
 20
48.154981267
 10
-4.3015386957
 20
48.1579715311
 10
-4.2943731024
 20
48.1604052343
 10
-4.2867939471
 20
48.1622823766
 10
-4.27880123
 20
48.163602958
 10
-4.2703949509
 20
48.1643669785
 10
-4.26157511
 20
48.164574438
  0
LINE
  5
26A
100
AcDbEntity
  8
DRAFT
100
AcDbLine
 62
7
  6
CONTINUOUS
 10
9.7081250603
 20
54.0065045224
 11
9.740442407
 21
54.0207909323
  0
LINE
  5
26B
100
AcDbEntity
  8
DRAFT
100
AcDbLine
 62
7
  6
CONTINUOUS
 10
9.4918749397
 20
50.9626443536
 11
9.459557593
 21
50.9483579437
  0
LWPOLYLINE
  5
26C
100
AcDbEntity
  8
RACCORDO
100
AcDbPolyline
 62
250
  6
CONTINUOUS
 90
6
 70
0
 10
-4.9786994824
 20
49.3996962419
 10
-4.9881502783
 20
49.3955980533
 10
-4.9975742748
 20
49.391643081
 10
-5.00683606
 20
49.3878254413
 10
-5.0157615158
 20
49.3840830358
 10
-5.0242595601
 20
49.3804518595
  0
LINE
  5
26D
100
AcDbEntity
  8
DRAFT
100
AcDbLine
 62
7
  6
CONTINUOUS
 10
9.6858247087
 20
53.9967746355
 11
9.7081250603
 21
54.0065045224
  0
LINE
  5
26E
100
AcDbEntity
  8
DRAFT
100
AcDbLine
 62
7
  6
CONTINUOUS
 10
9.5141752913
 20
50.9723742405
 11
9.4918749397
 21
50.9626443536
  0
LWPOLYLINE
  5
26F
100
AcDbEntity
  8
RACCORDO
100
AcDbPolyline
 62
250
  6
CONTINUOUS
 90
3
 70
0
 10
-5.0242595601
 20
49.3804518595
 10
-5.039792309
 20
49.3739444487
 10
-5.0465787622
 20
49.3710350902
  0
LWPOLYLINE
  5
270
100
AcDbEntity
  8
RACCORDO
100
AcDbPolyline
 62
250
  6
CONTINUOUS
 90
7
 70
0
 10
-5.0465787622
 20
49.3710350902
 10
-5.0579697812
 20
49.3662746043
 10
-5.0623807155
 20
49.3643675628
 10
-5.0659250688
 20
49.3628958336
 10
-5.0685617276
 20
49.3618743698
 10
-5.0702055219
 20
49.3612022923
 10
-5.0708210586
 20
49.3608301986
  0
LWPOLYLINE
  5
271
100
AcDbEntity
  8
DRAFT
100
AcDbPolyline
 62
7
  6
CONTINUOUS
 90
6
 70
0
 10
9.6446545832
 20
53.9795880418
 10
9.6513006102
 20
53.9822518898
 10
9.6580329015
 20
53.9849959716
 10
9.6648514569
 20
53.987820287
 10
9.6717358795
 20
53.9907228571
 10
9.6858247087
 20
53.9967746355
  0
LWPOLYLINE
  5
272
100
AcDbEntity
  8
DRAFT
100
AcDbPolyline
 62
7
  6
CONTINUOUS
 90
6
 70
0
 10
9.5553454168
 20
50.9895608342
 10
9.5486993898
 20
50.9868969862
 10
9.5419670985
 20
50.9841529044
 10
9.5351485431
 20
50.981328589
 10
9.5282641205
 20
50.9784260189
 10
9.5141752913
 20
50.9723742405
  0
LWPOLYLINE
  5
273
100
AcDbEntity
  8
RACCORDO
100
AcDbPolyline
 62
7
  6
CONTINUOUS
 90
7
 70
0
 10
-4.4902359552
 20
48.4121571798
 10
-4.4839508409
 20
48.414669335
 10
-4.477361502
 20
48.4167154426
 10
-4.4704679386
 20
48.4182955027
 10
-4.4632701505
 20
48.4194095153
 10
-4.4557681379
 20
48.4200574804
 10
-4.4479619007
 20
48.4202393979
  0
LWPOLYLINE
  5
274
100
AcDbEntity
  8
RACCORDO
100
AcDbPolyline
 62
250
  6
CONTINUOUS
 90
10
 70
0
 10
-4.1988672323
 20
48.0152851161
 10
-4.209501735
 20
48.0114894906
 10
-4.219964987
 20
48.0089528755
 10
-4.2300978331
 20
48.0076172462
 10
-4.2398469896
 20
48.0074047315
 10
-4.2489694985
 20
48.0083053878
 10
-4.2571911675
 20
48.0103278647
 10
-4.2644993054
 20
48.0134412871
 10
-4.2709399291
 20
48.0176250695
 10
-4.2764337343
 20
48.0229054469
  0
LINE
  5
275
100
AcDbEntity
  8
RACCORDO
100
AcDbLine
 62
7
  6
CONTINUOUS
 10
-5.1362310425
 20
49.6696321375
 11
-5.1563059883
 21
49.6624480308
  0
LWPOLYLINE
  5
276
100
AcDbEntity
  8
RACCORDO
100
AcDbPolyline
 62
7
  6
CONTINUOUS
 90
7
 70
0
 10
-4.6876268785
 20
48.7347612944
 10
-4.6819792504
 20
48.736738452
 10
-4.6761168101
 20
48.738351252
 10
-4.6700395577
 20
48.7395996944
 10
-4.6637474931
 20
48.7404837792
 10
-4.6572406164
 20
48.7410035063
 10
-4.6505189275
 20
48.7411588759
  0
LWPOLYLINE
  5
277
100
AcDbEntity
  8
RACCORDO
100
AcDbPolyline
 62
7
  6
CONTINUOUS
 90
7
 70
0
 10
-5.1563059883
 20
49.6624480308
 10
-5.168315175
 20
49.6582674124
 10
-5.1734492357
 20
49.6564574261
 10
-5.1777898429
 20
49.6549865484
 10
-5.1811649487
 20
49.6539062401
 10
-5.1833994688
 20
49.6531673149
 10
-5.1843219259
 20
49.6527708963
  0
LWPOLYLINE
  5
278
100
AcDbEntity
  8
RACCORDO
100
AcDbPolyline
 62
250
  6
CONTINUOUS
 90
13
 70
0
 10
-4.359312047
 20
48.2252851161
 10
-4.3676667029
 20
48.2225601357
 10
-4.3759628552
 20
48.2205446696
 10
-4.3841225461
 20
48.2192203553
 10
-4.3921071572
 20
48.218549291
 10
-4.3998045516
 20
48.2185377213
 10
-4.4070775798
 20
48.219217507
 10
-4.4139334411
 20
48.2205884689
 10
-4.4203224869
 20
48.2226144805
 10
-4.4261154237
 20
48.2252541022
 10
-4.4312944929
 20
48.2284859808
 10
-4.435889978
 20
48.2323240689
 10
-4.4398743125
 20
48.2367786047
  0
LWPOLYLINE
  5
279
100
AcDbEntity
  8
DRAFT
100
AcDbPolyline
 62
7
  6
CONTINUOUS
 90
9
 70
0
 10
1.5348621822
 20
46.1928316643
 10
1.7063453819
 20
46.2466516648
 10
1.878186146
 20
46.3072659298
 10
2.050450143
 20
46.3743537456
 10
2.2230717044
 20
46.448235826
 10
2.395853825
 20
46.5298743122
 10
2.5687308363
 20
46.619589918
 10
2.7417684068
 20
46.7170619297
 10
2.9149665364
 20
46.8222903472
  0
LINE
  5
27A
100
AcDbEntity
  8
RACCORDO
100
AcDbLine
 62
250
  6
CONTINUOUS
 10
7.9942591244
 20
52.2148345743
 11
8.3461056179
 21
52.3194101379
  0
LINE
  5
27B
100
AcDbEntity
  8
RACCORDO
100
AcDbLine
 62
250
  6
CONTINUOUS
 10
8.1428500694
 20
52.0652986601
 11
8.4938267808
 21
52.1696157076
  0
LINE
  5
27C
100
AcDbEntity
  8
DRAFT
100
AcDbLine
 62
7
  6
CONTINUOUS
 10
10.0
 20
90.8870284282
 11
9.9860359481
 21
90.8660796909
  0
LWPOLYLINE
  5
27D
100
AcDbEntity
  8
RACCORDO
100
AcDbPolyline
 62
250
  6
CONTINUOUS
 90
7
 70
0
 10
-4.1988672323
 20
48.0859957942
 10
-4.2067586496
 20
48.0793868797
 10
-4.2147225703
 20
48.0729468377
 10
-4.2225924595
 20
48.0666984025
 10
-4.2301312309
 20
48.0606085079
 10
-4.2372589324
 20
48.0547363963
 10
-4.2503519425
 20
48.0441501493
  0
LWPOLYLINE
  5
27E
100
AcDbEntity
  8
RACCORDO
100
AcDbPolyline
 62
250
  6
CONTINUOUS
 90
6
 70
0
 10
-4.2656455044
 20
48.0317096478
 10
-4.269326134
 20
48.0286308486
 10
-4.272324791
 20
48.0262476107
 10
-4.2746000072
 20
48.0245762479
 10
-4.2759929106
 20
48.0234853218
 10
-4.2764337343
 20
48.0229054469
  0
LWPOLYLINE
  5
27F
100
AcDbEntity
  8
RACCORDO
100
AcDbPolyline
 62
250
  6
CONTINUOUS
 90
3
 70
0
 10
-4.2503519425
 20
48.0441501493
 10
-4.2560367179
 20
48.0394503262
 10
-4.2656455044
 20
48.0317096478
  0
LWPOLYLINE
  5
280
100
AcDbEntity
  8
RACCORDO
100
AcDbPolyline
 62
250
  6
CONTINUOUS
 90
6
 70
0
 10
-4.359312047
 20
48.2959957942
 10
-4.3675210216
 20
48.2897859092
 10
-4.375787959
 20
48.2837438274
 10
-4.3839492556
 20
48.2778862486
 10
-4.3917752241
 20
48.2721727174
 10
-4.3991832188
 20
48.2666582786
  0
LWPOLYLINE
  5
281
100
AcDbEntity
  8
RACCORDO
100
AcDbPolyline
 62
250
  6
CONTINUOUS
 90
6
 70
0
 10
-4.4286636122
 20
48.2450475823
 10
-4.4324946558
 20
48.2421563185
 10
-4.4356038573
 20
48.2399176061
 10
-4.4379510398
 20
48.2383482676
 10
-4.4393950084
 20
48.2373234666
 10
-4.4398743125
 20
48.2367786047
  0
LWPOLYLINE
  5
282
100
AcDbEntity
  8
RACCORDO
100
AcDbPolyline
 62
250
  6
CONTINUOUS
 90
4
 70
0
 10
-4.3991832188
 20
48.2666582786
 10
-4.4127786021
 20
48.2567251413
 10
-4.4186889685
 20
48.2523113135
 10
-4.4286636122
 20
48.2450475823
  0
LINE
  5
283
100
AcDbEntity
  8
DRAFT
100
AcDbLine
 62
7
  6
CONTINUOUS
 10
3.2125670362
 20
47.0218095593
 11
3.1984877193
 21
47.0119753904
  0
LINE
  5
284
100
AcDbEntity
  8
DRAFT
100
AcDbLine
 62
7
  6
CONTINUOUS
 10
3.1984877193
 20
47.0119753904
 11
3.1414050347
 21
46.9725087351
  0
LINE
  5
285
100
AcDbEntity
  8
DRAFT
100
AcDbLine
 62
7
  6
CONTINUOUS
 10
3.2279465946
 20
47.0323514397
 11
3.2125670362
 21
47.0218095593
  0
LWPOLYLINE
  5
286
100
AcDbEntity
  8
DRAFT
100
AcDbPolyline
 62
7
  6
CONTINUOUS
 90
3
 70
0
 10
3.1414050347
 20
46.9725087351
 10
3.1054408972
 20
46.9479357013
 10
3.0788931393
 20
46.9299710834
  0
LWPOLYLINE
  5
287
100
AcDbEntity
  8
DRAFT
100
AcDbPolyline
 62
7
  6
CONTINUOUS
 90
7
 70
0
 10
3.0788931393
 20
46.9299710834
 10
3.0649356887
 20
46.9206027719
 10
3.0505396326
 20
46.9110610374
 10
3.0358680501
 20
46.9011770465
 10
3.0209753009
 20
46.891028582
 10
3.0058070253
 20
46.8809221064
 10
2.9903632233
 20
46.8711085913
  0
LINE
  5
288
100
AcDbEntity
  8
DRAFT
100
AcDbLine
 62
7
  6
CONTINUOUS
 10
2.9903632233
 20
46.8711085913
 11
2.964262444
 21
46.8540391495
  0
LINE
  5
289
100
AcDbEntity
  8
DRAFT
100
AcDbLine
 62
7
  6
CONTINUOUS
 10
2.964262444
 20
46.8540391495
 11
2.9391220689
 21
46.8377690874
  0
LINE
  5
28A
100
AcDbEntity
  8
DRAFT
100
AcDbLine
 62
7
  6
CONTINUOUS
 10
2.9391220689
 20
46.8377690874
 11
2.9149665364
 21
46.8222903472
  0
LINE
  5
28B
100
AcDbEntity
  8
DRAFT
100
AcDbLine
 62
7
  6
CONTINUOUS
 10
3.2924396836
 20
47.0726036382
 11
3.3216166181
 21
47.0910987126
  0
LWPOLYLINE
  5
28C
100
AcDbEntity
  8
DRAFT
100
AcDbPolyline
 62
7
  6
CONTINUOUS
 90
3
 70
0
 10
3.2334288416
 20
47.0359101243
 10
3.2311528346
 20
47.0344910368
 10
3.2279465946
 20
47.0323514397
  0
LINE
  5
28D
100
AcDbEntity
  8
DRAFT
100
AcDbLine
 62
7
  6
CONTINUOUS
 10
3.2630449341
 20
47.0542073092
 11
3.2924396836
 21
47.0726036382
  0
LINE
  5
28E
100
AcDbEntity
  8
DRAFT
100
AcDbLine
 62
7
  6
CONTINUOUS
 10
3.2334288416
 20
47.0359101243
 11
3.2630449341
 21
47.0542073092
  0
LINE
  5
28F
100
AcDbEntity
  8
0
100
AcDbLine
 62
7
  6
CONTINUOUS
 10
0.008833
 20
90.396371438
 11
-0.471223
 21
89.119520438
  0
LINE
  5
290
100
AcDbEntity
  8
0
100
AcDbLine
 62
7
  6
CONTINUOUS
 10
-0.44018
 20
88.096581438
 11
0.130606
 21
89.592040438
  0
LINE
  5
291
100
AcDbEntity
  8
RACCORDO
100
AcDbLine
 62
7
  6
CONTINUOUS
 10
-6.0912602576
 20
59.5520552541
 11
-6.1
 21
59.534574438
  0
LWPOLYLINE
  5
292
100
AcDbEntity
  8
0
100
AcDbPolyline
 62
7
  6
CONTINUOUS
 90
10
 70
0
 10
6.8793319142
 20
83.9248940304
 10
6.8663708187
 20
83.9019396133
 10
6.8546772914
 20
83.8765681708
 10
6.8442513324
 20
83.848779703
 10
6.8349628966
 20
83.8187599884
 10
6.826942029
 20
83.7863232485
 10
6.8205788649
 20
83.7509121475
 10
6.8160034493
 20
83.7123409068
 10
6.8130857371
 20
83.670795305
 10
6.8118257284
 20
83.6262753421
  0
LWPOLYLINE
  5
293
100
AcDbEntity
  8
0
100
AcDbPolyline
 62
7
  6
CONTINUOUS
 90
10
 70
0
 10
6.8793319142
 20
82.4869964675
 10
6.8663708187
 20
82.4640420503
 10
6.8546772914
 20
82.4386706078
 10
6.8442513324
 20
82.41088214
 10
6.8349628966
 20
82.3808624254
 10
6.826942029
 20
82.3484256855
 10
6.8205788649
 20
82.3130145845
 10
6.8160034493
 20
82.2744433438
 10
6.8130857371
 20
82.232897742
 10
6.8118257284
 20
82.1883777791
  0
LWPOLYLINE
  5
294
100
AcDbEntity
  8
0
100
AcDbPolyline
 62
7
  6
CONTINUOUS
 90
10
 70
0
 10
6.8793319142
 20
81.0490986303
 10
6.8663708169
 20
81.0261442214
 10
6.8546772884
 20
81.0007727958
 10
6.8442513288
 20
80.9729843536
 10
6.8349628931
 20
80.9429646774
 10
6.8269420262
 20
80.9105279846
 10
6.8205788629
 20
80.8751169269
 10
6.8160034479
 20
80.8365457215
 10
6.8130857364
 20
80.7950001513
 10
6.8118257284
 20
80.7504802161
  0
LWPOLYLINE
  5
295
100
AcDbEntity
  8
0
100
AcDbPolyline
 62
7
  6
CONTINUOUS
 90
10
 70
0
 10
9.1170174257
 20
83.3152141001
 10
9.1302620417
 20
83.3381968959
 10
9.1423041409
 20
83.3638245674
 10
9.1531437234
 20
83.3920971147
 10
9.1629568665
 20
83.4227990007
 10
9.1715674929
 20
83.4561457625
 10
9.1784473702
 20
83.4927840112
 10
9.1834204211
 20
83.5329292839
 10
9.186662723
 20
83.5763660434
 10
9.1881742759
 20
83.6230942899
  0
LWPOLYLINE
  5
296
100
AcDbEntity
  8
0
100
AcDbPolyline
 62
7
  6
CONTINUOUS
 90
10
 70
0
 10
9.1170174257
 20
81.8773165371
 10
9.1302620417
 20
81.9002993329
 10
9.1423041409
 20
81.9259270044
 10
9.1531437234
 20
81.9541995517
 10
9.1629568665
 20
81.9849014378
 10
9.1715674929
 20
82.0182481995
 10
9.1784473702
 20
82.0548864482
 10
9.1834204211
 20
82.0950317209
 10
9.186662723
 20
82.1384684804
 10
9.1881742759
 20
82.1851967269
  0
LWPOLYLINE
  5
297
100
AcDbEntity
  8
0
100
AcDbPolyline
 62
7
  6
CONTINUOUS
 90
10
 70
0
 10
9.1170174257
 20
80.4394186999
 10
9.1302620448
 20
80.4624015002
 10
9.142304146
 20
80.4880291799
 10
9.1531437294
 20
80.5163017392
 10
9.1629568718
 20
80.5470036371
 10
9.1715674963
 20
80.5803504145
 10
9.178447372
 20
80.6169886937
 10
9.183420422
 20
80.6571340154
 10
9.1866627233
 20
80.7005708388
 10
9.1881742759
 20
80.7472991639
  0
LINE
  5
298
100
AcDbEntity
  8
RACCORDO
100
AcDbLine
 62
250
  6
CONTINUOUS
 10
5.5580354143
 20
71.3436206159
 11
5.5653912489
 21
71.356282928
  0
LWPOLYLINE
  5
299
100
AcDbEntity
  8
0
100
AcDbPolyline
 62
7
  6
CONTINUOUS
 90
10
 70
0
 10
7.0452717795
 20
77.9980658122
 10
7.0528675321
 20
78.0109917671
 10
7.0608975878
 20
78.0230464415
 10
7.0693619465
 20
78.0342298355
 10
7.078235564
 20
78.0444823118
 10
7.0875434846
 20
78.0538635076
 10
7.0973608411
 20
78.0625523347
 10
7.1077126776
 20
78.0706084303
 10
7.11857395
 20
78.0779721572
 10
7.1299446583
 20
78.0846435153
  0
LWPOLYLINE
  5
29A
100
AcDbEntity
  8
0
100
AcDbPolyline
 62
7
  6
CONTINUOUS
 90
10
 70
0
 10
8.0214251322
 20
78.246377356
 10
8.01173801
 20
78.231602561
 10
8.002567168
 20
78.215608324
 10
7.9939126063
 20
78.1983946449
 10
7.9857356003
 20
78.1799899207
 10
7.9780748746
 20
78.1603657544
 10
7.9710466029
 20
78.1394369551
 10
7.9646895101
 20
78.117175126
 10
7.9589648713
 20
78.0936086639
 10
7.9538726866
 20
78.0687375688
  0
LINE
  5
29B
100
AcDbEntity
  8
DRAFT
100
AcDbLine
 62
7
  6
CONTINUOUS
 10
-9.9792140383
 20
40.613303349
 11
-10.0
 21
40.5821204478
  0
LWPOLYLINE
  5
29C
100
AcDbEntity
  8
RACCORDO
100
AcDbPolyline
 62
250
  6
CONTINUOUS
 90
6
 70
0
 10
-3.8757878173
 20
47.5963785558
 10
-3.8791094887
 20
47.5929194063
 10
-3.8818481032
 20
47.5902452904
 10
-3.8839564954
 20
47.5883702005
 10
-3.8852282508
 20
47.5871474079
 10
-3.8855710379
 20
47.5864952741
  0
LWPOLYLINE
  5
29D
100
AcDbEntity
  8
RACCORDO
100
AcDbPolyline
 62
250
  6
CONTINUOUS
 90
7
 70
0
 10
-3.8151276544
 20
47.6574507805
 10
-3.8222705404
 20
47.6500341479
 10
-3.8295116888
 20
47.6427846605
 10
-3.8366826282
 20
47.6357391074
 10
-3.8435365505
 20
47.6288830636
 10
-3.8500006226
 20
47.6222848368
 10
-3.8618990176
 20
47.6103696917
  0
LWPOLYLINE
  5
29E
100
AcDbEntity
  8
RACCORDO
100
AcDbPolyline
 62
250
  6
CONTINUOUS
 90
3
 70
0
 10
-3.8618990176
 20
47.6103696917
 10
-3.8670489676
 20
47.6050892658
 10
-3.8757878173
 20
47.5963785558
  0
LWPOLYLINE
  5
29F
100
AcDbEntity
  8
RACCORDO
100
AcDbPolyline
 62
7
  6
CONTINUOUS
 90
13
 70
0
 10
4.5585635841
 20
48.4054955739
 10
4.5559853717
 20
48.402874124
 10
4.5526820236
 20
48.400877264
 10
4.5486772972
 20
48.3994908679
 10
4.5439852509
 20
48.3986738547
 10
4.5386586928
 20
48.3984252363
 10
4.5327906385
 20
48.3987828399
 10
4.5264338115
 20
48.3997197734
 10
4.5196379965
 20
48.4011942204
 10
4.5125016198
 20
48.4032138887
 10
4.5050998368
 20
48.4057518524
 10
4.4974819484
 20
48.4087486627
 10
4.4897120496
 20
48.412159442
  0
LWPOLYLINE
  5
2A0
100
AcDbEntity
  8
RACCORDO
100
AcDbPolyline
 62
250
  6
CONTINUOUS
 90
9
 70
0
 10
3.9111767425
 20
47.6121453587
 10
3.93687776
 20
47.6381806979
 10
3.9626274667
 20
47.6646161073
 10
3.9883908698
 20
47.6914241186
 10
4.0141919551
 20
47.718638254
 10
4.0401115899
 20
47.7463550228
 10
4.0661705753
 20
47.7746106866
 10
4.0923317403
 20
47.8033792584
 10
4.118586871
 20
47.8326656285
  0
LINE
  5
2A1
100
AcDbEntity
  8
RACCORDO
100
AcDbLine
 62
7
  6
CONTINUOUS
 10
3.8460471105
 20
47.5364911183
 11
4.0020437678
 21
47.6944503781
  0
LINE
  5
2A2
100
AcDbEntity
  8
RACCORDO
100
AcDbLine
 62
250
  6
CONTINUOUS
 10
3.8633984523
 20
47.5641129697
 11
3.8855299894
 21
47.5865068185
  0
LINE
  5
2A3
100
AcDbEntity
  8
RACCORDO
100
AcDbLine
 62
250
  6
CONTINUOUS
 10
3.7662915534
 20
47.5378680442
 11
3.8150751374
 21
47.5867401024
  0
LWPOLYLINE
  5
2A4
100
AcDbEntity
  8
RACCORDO
100
AcDbPolyline
 62
250
  6
CONTINUOUS
 90
7
 70
0
 10
3.8150751374
 20
47.6574507805
 10
3.8468512678
 20
47.6892467143
 10
3.8786912021
 20
47.7216755807
 10
3.9105949404
 20
47.7547373796
 10
3.9425624826
 20
47.788432111
 10
3.9745938288
 20
47.8227597749
 10
4.0066889789
 20
47.8577203714
  0
LINE
  5
2A5
100
AcDbEntity
  8
RACCORDO
100
AcDbLine
 62
250
  6
CONTINUOUS
 10
3.8855299894
 20
47.5865068185
 11
3.9111767425
 21
47.6121453587
  0
LWPOLYLINE
  5
2A6
100
AcDbEntity
  8
RACCORDO
100
AcDbPolyline
 62
250
  6
CONTINUOUS
 90
5
 70
0
 10
3.5790953255
 20
47.3607864465
 10
3.6246867008
 20
47.402265414
 10
3.6710549216
 20
47.4455546084
 10
3.7182848148
 20
47.4908062129
 10
3.7662915534
 20
47.5378680442
  0
LWPOLYLINE
  5
2A7
100
AcDbEntity
  8
RACCORDO
100
AcDbPolyline
 62
7
  6
CONTINUOUS
 90
13
 70
0
 10
4.3725709508
 20
48.1451440221
 10
4.3700180051
 20
48.1428372811
 10
4.3668173737
 20
48.1411474123
 10
4.3629886767
 20
48.1400612144
 10
4.3585406676
 20
48.1395420986
 10
4.3535200257
 20
48.1395872583
 10
4.348013805
 20
48.1402255227
 10
4.3420691831
 20
48.1414295272
 10
4.3357274824
 20
48.1431597209
 10
4.3290761504
 20
48.1454186679
 10
4.3221805642
 20
48.1481788384
 10
4.3150821272
 20
48.1513843753
 10
4.3078360767
 20
48.15499178
  0
LWPOLYLINE
  5
2A8
100
AcDbEntity
  8
RACCORDO
100
AcDbPolyline
 62
7
  6
CONTINUOUS
 90
10
 70
0
 10
3.5479386091
 20
47.2710119647
 10
3.583643041
 20
47.3019122845
 10
3.6198149217
 20
47.3337757439
 10
3.6564336849
 20
47.3666193686
 10
3.6934296189
 20
47.4004153343
 10
3.7308298108
 20
47.4352251123
 10
3.7687539956
 20
47.4712037335
 10
3.807221806
 20
47.508418783
 10
3.8461569133
 20
47.546846064
 10
3.8633984523
 20
47.5641129697
  0
LWPOLYLINE
  5
2A9
100
AcDbEntity
  8
RACCORDO
100
AcDbPolyline
 62
7
  6
CONTINUOUS
 90
3
 70
0
 10
3.5494944372
 20
47.2692061711
 10
3.683869014
 20
47.3849800507
 10
3.8460471105
 20
47.5364911183
  0
LWPOLYLINE
  5
2AA
100
AcDbEntity
  8
RACCORDO
100
AcDbPolyline
 62
7
  6
CONTINUOUS
 90
10
 70
0
 10
3.5479386091
 20
47.2710119647
 10
3.5232693133
 20
47.2504447985
 10
3.4984800206
 20
47.2300213299
 10
3.473570731
 20
47.2097415589
 10
3.4485406459
 20
47.1896048139
 10
3.4233905639
 20
47.1696117664
 10
3.3981228805
 20
47.1497644311
 10
3.3727383944
 20
47.1300634795
 10
3.3472363069
 20
47.11050824
 10
3.3216166181
 20
47.0910987126
  0
LWPOLYLINE
  5
2AB
100
AcDbEntity
  8
RACCORDO
100
AcDbPolyline
 62
250
  6
CONTINUOUS
 90
5
 70
0
 10
3.4016989865
 20
47.2079508004
 10
3.4452857315
 20
47.2441672417
 10
3.4893948408
 20
47.2817373603
 10
3.5340263145
 20
47.3206611563
 10
3.5790953255
 20
47.3607864465
  0
LWPOLYLINE
  5
2AC
100
AcDbEntity
  8
RACCORDO
100
AcDbPolyline
 62
7
  6
CONTINUOUS
 90
16
 70
0
 10
3.5479386091
 20
47.2710119647
 10
3.5377531641
 20
47.2628747756
 10
3.5275866851
 20
47.2553186506
 10
3.5174391722
 20
47.2483435897
 10
3.5072916198
 20
47.2419617959
 10
3.4971630334
 20
47.2361610663
 10
3.4871104297
 20
47.2309047917
 10
3.4771397776
 20
47.2261840767
 10
3.4672451082
 20
47.2220078166
 10
3.4574655311
 20
47.2183660887
 10
3.4477986612
 20
47.2152470761
 10
3.4382468835
 20
47.2126625956
 10
3.4288564628
 20
47.210638175
 10
3.4196428205
 20
47.2091823235
 10
3.4105905352
 20
47.208286532
 10
3.4016996067
 20
47.2079508004
  0
LWPOLYLINE
  5
2AD
100
AcDbEntity
  8
RACCORDO
100
AcDbPolyline
 62
7
  6
CONTINUOUS
 90
13
 70
0
 10
4.1185868695
 20
47.8326656299
 10
4.1161062552
 20
47.8307419006
 10
4.1130694604
 20
47.8294195599
 10
4.109491917
 20
47.8286865334
 10
4.105378815
 20
47.8285114798
 10
4.100768903
 20
47.828889487
 10
4.0957358235
 20
47.8298406676
 10
4.0903151897
 20
47.8313397571
 10
4.0845408349
 20
47.8333512958
 10
4.0784915037
 20
47.8358723748
 10
4.0722232916
 20
47.8388750092
 10
4.0657673589
 20
47.8423084525
 10
4.0591690738
 20
47.846131443
  0
LINE
  5
2AE
100
AcDbEntity
  8
RACCORDO
100
AcDbLine
 62
250
  6
CONTINUOUS
 10
3.8802188617
 20
47.5824131905
 11
3.8855299894
 21
47.5865068185
  0
LINE
  5
2AF
100
AcDbEntity
  8
RACCORDO
100
AcDbLine
 62
7
  6
CONTINUOUS
 10
9.4290614477
 20
51.1333552656
 11
9.1
 21
50.884574438
  0
LINE
  5
2B0
100
AcDbEntity
  8
0
100
AcDbLine
 62
7
  6
CONTINUOUS
 10
-3.02989
 20
90.396371438
 11
-3.481663
 21
88.813354438
  0
LINE
  5
2B1
100
AcDbEntity
  8
0
100
AcDbLine
 62
7
  6
CONTINUOUS
 10
1.4956
 20
90.396371438
 11
0.77424
 21
88.096581438
  0
LINE
  5
2B2
100
AcDbEntity
  8
0
100
AcDbLine
 62
7
  6
CONTINUOUS
 10
-3.289406
 20
88.096581438
 11
-2.550162
 21
90.396371438
  0
LINE
  5
2B3
100
AcDbEntity
  8
RACCORDO
100
AcDbLine
 62
7
  6
CONTINUOUS
 10
-5.3098531892
 20
53.1148665586
 11
-5.3033417615
 21
53.127890406
  0
LWPOLYLINE
  5
2B4
100
AcDbEntity
  8
0
100
AcDbPolyline
 62
7
  6
CONTINUOUS
 90
10
 70
0
 10
8.9559474288
 20
77.6933572007
 10
8.94914185
 20
77.6807505264
 10
8.9417121296
 20
77.6687101922
 10
8.9336582677
 20
77.657236198
 10
8.9249429166
 20
77.646298272
 10
8.9156034239
 20
77.6359266861
 10
8.9057518328
 20
77.6262122556
 10
8.8954254908
 20
77.6171852522
 10
8.8845870504
 20
77.6088154042
 10
8.8732365114
 20
77.6011027115
  0
LINE
  5
2B5
100
AcDbEntity
  8
RACCORDO
100
AcDbLine
 62
250
  6
CONTINUOUS
 10
6.0869729761
 20
70.4615004071
 11
6.094441183
 21
70.4744463021
  0
LINE
  5
2B6
100
AcDbEntity
  8
RACCORDO
100
AcDbLine
 62
250
  6
CONTINUOUS
 10
4.3587868447
 20
48.2252851161
 11
4.3418430505
 21
48.2016419988
  0
LINE
  5
2B7
100
AcDbEntity
  8
RACCORDO
100
AcDbLine
 62
250
  6
CONTINUOUS
 10
4.4163908465
 20
48.2048227734
 11
4.4393523274
 21
48.2367847432
  0
LINE
  5
2B8
100
AcDbEntity
  8
RACCORDO
100
AcDbLine
 62
250
  6
CONTINUOUS
 10
4.3418430505
 20
48.2016419988
 11
4.3248591277
 21
48.1782117402
  0
LWPOLYLINE
  5
2B9
100
AcDbEntity
  8
RACCORDO
100
AcDbPolyline
 62
250
  6
CONTINUOUS
 90
7
 70
0
 10
4.4393523274
 20
48.2367847432
 10
4.4589483797
 20
48.2636164741
 10
4.4786640836
 20
48.2909574016
 10
4.4984915705
 20
48.3188116653
 10
4.5184228086
 20
48.3471833866
 10
4.5384496008
 20
48.376076665
 10
4.5585635834
 20
48.4054955744
  0
LWPOLYLINE
  5
2BA
100
AcDbEntity
  8
RACCORDO
100
AcDbPolyline
 62
250
  6
CONTINUOUS
 90
7
 70
0
 10
4.3587868447
 20
48.2959957942
 10
4.3734074856
 20
48.3159738263
 10
4.3880901252
 20
48.3362435524
 10
4.4028347635
 20
48.3568049726
 10
4.4176414006
 20
48.3776580869
 10
4.4325100364
 20
48.3988028953
 10
4.447440671
 20
48.4202393979
  0
LINE
  5
2BB
100
AcDbEntity
  8
RACCORDO
100
AcDbLine
 62
250
  6
CONTINUOUS
 10
4.3941213725
 20
48.1742815461
 11
4.4163908465
 21
48.2048227734
  0
LINE
  5
2BC
100
AcDbEntity
  8
RACCORDO
100
AcDbLine
 62
250
  6
CONTINUOUS
 10
4.3248591277
 20
48.1782117402
 11
4.3078360767
 21
48.15499178
  0
LINE
  5
2BD
100
AcDbEntity
  8
RACCORDO
100
AcDbLine
 62
250
  6
CONTINUOUS
 10
4.3725709499
 20
48.1451440228
 11
4.3941213725
 21
48.1742815461
  0
LINE
  5
2BE
100
AcDbEntity
  8
RACCORDO
100
AcDbLine
 62
250
  6
CONTINUOUS
 10
4.2404464422
 20
48.1382858407
 11
4.2611470487
 21
48.164574438
  0
LWPOLYLINE
  5
2BF
100
AcDbEntity
  8
RACCORDO
100
AcDbPolyline
 62
250
  6
CONTINUOUS
 90
6
 70
0
 10
4.1984809182
 20
48.0152851161
 10
4.183110562
 20
47.9959168872
 10
4.1677149761
 20
47.9766957759
 10
4.1522941606
 20
47.9576217822
 10
4.1368507218
 20
47.9386999375
 10
4.1213820533
 20
47.9199252104
  0
LINE
  5
2C0
100
AcDbEntity
  8
RACCORDO
100
AcDbLine
 62
250
  6
CONTINUOUS
 10
4.219557732
 20
48.1120929594
 11
4.2404464422
 21
48.1382858407
  0
LWPOLYLINE
  5
2C1
100
AcDbEntity
  8
RACCORDO
100
AcDbPolyline
 62
250
  6
CONTINUOUS
 90
7
 70
0
 10
4.2760702976
 20
48.022934855
 10
4.2925121089
 20
48.0432627021
 10
4.3088099071
 20
48.063608211
 10
4.3249641876
 20
48.0839702326
 10
4.3409754509
 20
48.104347627
 10
4.3568442018
 20
48.1247392641
 10
4.3725709499
 20
48.1451440228
  0
LINE
  5
2C2
100
AcDbEntity
  8
RACCORDO
100
AcDbLine
 62
250
  6
CONTINUOUS
 10
4.1984809182
 20
48.0859957942
 11
4.219557732
 21
48.1120929594
  0
LWPOLYLINE
  5
2C3
100
AcDbEntity
  8
RACCORDO
100
AcDbPolyline
 62
250
  6
CONTINUOUS
 90
4
 70
0
 10
4.1213820533
 20
47.9199252104
 10
4.1058803362
 20
47.9012825068
 10
4.090342964
 20
47.8827667954
 10
4.0747725433
 20
47.8643831075
  0
LWPOLYLINE
  5
2C4
100
AcDbEntity
  8
RACCORDO
100
AcDbPolyline
 62
250
  6
CONTINUOUS
 90
5
 70
0
 10
4.1740449126
 20
47.8976751664
 10
4.1949520787
 20
47.9227307181
 10
4.2214936154
 20
47.9549852254
 10
4.248540927
 20
47.9883814723
 10
4.2760702976
 20
48.022934855
  0
LWPOLYLINE
  5
2C5
100
AcDbEntity
  8
RACCORDO
100
AcDbPolyline
 62
7
  6
CONTINUOUS
 90
4
 70
0
 10
4.1514339617
 20
47.858416719
 10
4.2938319922
 20
48.0279100703
 10
4.4292023564
 20
48.2028289265
 10
4.5576359883
 20
48.383304422
  0
LWPOLYLINE
  5
2C6
100
AcDbEntity
  8
RACCORDO
100
AcDbPolyline
 62
7
  6
CONTINUOUS
 90
13
 70
0
 10
4.7607557151
 20
48.7322851894
 10
4.7581863875
 20
48.7292764888
 10
4.7547907205
 20
48.7268946655
 10
4.7505966572
 20
48.7251256782
 10
4.7456225447
 20
48.7239236127
 10
4.7399294039
 20
48.7232918335
 10
4.7336238121
 20
48.7232809501
 10
4.7267701076
 20
48.7238645505
 10
4.7194285794
 20
48.7249972375
 10
4.7117128549
 20
48.7266922386
 10
4.7037120527
 20
48.7289231786
 10
4.6954870304
 20
48.7316266862
 10
4.6871141243
 20
48.7347566429
  0
LINE
  5
2C7
100
AcDbEntity
  8
RACCORDO
100
AcDbLine
 62
250
  6
CONTINUOUS
 10
4.0747725433
 20
47.8643831075
 11
4.0591690738
 21
47.846131443
  0
LWPOLYLINE
  5
2C8
100
AcDbEntity
  8
RACCORDO
100
AcDbPolyline
 62
7
  6
CONTINUOUS
 90
3
 70
0
 10
4.118586871
 20
47.8326656285
 10
4.1434770484
 20
47.8615859602
 10
4.1740449126
 20
47.8976751664
  0
LINE
  5
2C9
100
AcDbEntity
  8
RACCORDO
100
AcDbLine
 62
7
  6
CONTINUOUS
 10
4.0020437678
 20
47.6944503781
 11
4.1514339617
 21
47.858416719
  0
LINE
  5
2CA
100
AcDbEntity
  8
0
100
AcDbLine
 62
7
  6
CONTINUOUS
 10
1.479751
 20
88.910966438
 11
1.718779
 21
89.764447438
  0
LINE
  5
2CB
100
AcDbEntity
  8
0
100
AcDbLine
 62
7
  6
CONTINUOUS
 10
1.249088
 20
88.096581438
 11
1.381553
 21
88.555701438
  0
LINE
  5
2CC
100
AcDbEntity
  8
RACCORDO
100
AcDbLine
 62
7
  6
CONTINUOUS
 10
5.3087397424
 20
59.5520552541
 11
5.3
 21
59.534574438
  0
LINE
  5
2CD
100
AcDbEntity
  8
RACCORDO
100
AcDbLine
 62
7
  6
CONTINUOUS
 10
6.0901468108
 20
53.1148665586
 11
6.0966582385
 21
53.127890406
  0
LINE
  5
2CE
100
AcDbEntity
  8
RACCORDO
100
AcDbLine
 62
250
  6
CONTINUOUS
 10
4.8158081602
 20
48.8327523222
 11
4.8273546797
 21
48.8544700334
  0
LINE
  5
2CF
100
AcDbEntity
  8
RACCORDO
100
AcDbLine
 62
250
  6
CONTINUOUS
 10
4.7397065745
 20
48.831869554
 11
4.7280023452
 21
48.8098447747
  0
LINE
  5
2D0
100
AcDbEntity
  8
RACCORDO
100
AcDbLine
 62
250
  6
CONTINUOUS
 10
4.7280023452
 20
48.8098447747
 11
4.7163066312
 21
48.7880751372
  0
LINE
  5
2D1
100
AcDbEntity
  8
RACCORDO
100
AcDbLine
 62
250
  6
CONTINUOUS
 10
4.7932316288
 20
48.7909499614
 11
4.8158081602
 21
48.8327523222
  0
LWPOLYLINE
  5
2D2
100
AcDbEntity
  8
RACCORDO
100
AcDbPolyline
 62
250
  6
CONTINUOUS
 90
10
 70
0
 10
4.8273546797
 20
48.8544700334
 10
4.8508809883
 20
48.8977876414
 10
4.8741000716
 20
48.9414663831
 10
4.8970057001
 20
48.9855050552
 10
4.9195068955
 20
49.0297340102
 10
4.941685108
 20
49.0743187466
 10
4.9637789266
 20
49.119767528
 10
4.9858478962
 20
49.16625626
 10
5.0077878047
 20
49.2136208557
 10
5.0295771798
 20
49.2618661343
  0
LWPOLYLINE
  5
2D3
100
AcDbEntity
  8
RACCORDO
100
AcDbPolyline
 62
250
  6
CONTINUOUS
 90
10
 70
0
 10
4.7397065745
 20
48.9025802321
 10
4.7606001634
 20
48.9409979811
 10
4.7812419524
 20
48.9797101001
 10
4.8016319416
 20
49.0187165891
 10
4.8217377624
 20
49.0579351673
 10
4.8415917834
 20
49.0974481156
 10
4.8612911101
 20
49.1375022763
 10
4.8808681111
 20
49.1781799303
 10
4.9002904178
 20
49.2193987969
 10
4.9195580303
 20
49.2611588759
  0
LINE
  5
2D4
100
AcDbEntity
  8
RACCORDO
100
AcDbLine
 62
250
  6
CONTINUOUS
 10
4.7163066312
 20
48.7880751372
 11
4.7046202517
 21
48.7665597257
  0
LWPOLYLINE
  5
2D5
100
AcDbEntity
  8
RACCORDO
100
AcDbPolyline
 62
250
  6
CONTINUOUS
 90
3
 70
0
 10
4.7046202517
 20
48.7665597257
 10
4.6929464838
 20
48.7452948772
 10
4.6871141243
 20
48.7347566429
  0
LWPOLYLINE
  5
2D6
100
AcDbEntity
  8
RACCORDO
100
AcDbPolyline
 62
250
  6
CONTINUOUS
 90
3
 70
0
 10
4.7607557146
 20
48.7322851896
 10
4.7713874551
 20
48.751305469
 10
4.7932316288
 20
48.7909499614
  0
LINE
  5
2D7
100
AcDbEntity
  8
RACCORDO
100
AcDbLine
 62
250
  6
CONTINUOUS
 10
4.6264049585
 20
48.7018375428
 11
4.6499880128
 21
48.7411588759
  0
LINE
  5
2D8
100
AcDbEntity
  8
RACCORDO
100
AcDbLine
 62
250
  6
CONTINUOUS
 10
4.6029559538
 20
48.663449849
 11
4.6264049585
 21
48.7018375428
  0
LINE
  5
2D9
100
AcDbEntity
  8
RACCORDO
100
AcDbLine
 62
250
  6
CONTINUOUS
 10
4.5796409989
 20
48.5552851161
 11
4.5596127584
 21
48.5225384568
  0
LINE
  5
2DA
100
AcDbEntity
  8
RACCORDO
100
AcDbLine
 62
250
  6
CONTINUOUS
 10
4.5596127584
 20
48.5225384568
 11
4.5396065909
 21
48.4903345615
  0
LWPOLYLINE
  5
2DB
100
AcDbEntity
  8
RACCORDO
100
AcDbPolyline
 62
250
  6
CONTINUOUS
 90
7
 70
0
 10
4.6643117906
 20
48.5728206943
 10
4.680235717
 20
48.5983298704
 10
4.6962278859
 20
48.6242628118
 10
4.7122822173
 20
48.6506221808
 10
4.7283925202
 20
48.6774106217
 10
4.7445524915
 20
48.7046307577
 10
4.7607557146
 20
48.7322851896
  0
LINE
  5
2DC
100
AcDbEntity
  8
RACCORDO
100
AcDbLine
 62
250
  6
CONTINUOUS
 10
4.5796409989
 20
48.6259957942
 11
4.6029559538
 21
48.663449849
  0
LINE
  5
2DD
100
AcDbEntity
  8
RACCORDO
100
AcDbLine
 62
250
  6
CONTINUOUS
 10
4.5396065909
 20
48.4903345615
 11
4.5196245875
 21
48.4586699917
  0
LWPOLYLINE
  5
2DE
100
AcDbEntity
  8
RACCORDO
100
AcDbPolyline
 62
250
  6
CONTINUOUS
 90
5
 70
0
 10
4.5983473831
 20
48.4668887838
 10
4.6099822259
 20
48.4851882504
 10
4.6277882051
 20
48.5135067919
 10
4.6459031499
 20
48.5427150662
 10
4.6643117906
 20
48.5728206943
  0
LWPOLYLINE
  5
2DF
100
AcDbEntity
  8
RACCORDO
100
AcDbPolyline
 62
250
  6
CONTINUOUS
 90
3
 70
0
 10
4.5196245875
 20
48.4586699917
 10
4.4996751121
 20
48.4275309928
 10
4.4897120496
 20
48.412159442
  0
LWPOLYLINE
  5
2E0
100
AcDbEntity
  8
RACCORDO
100
AcDbPolyline
 62
7
  6
CONTINUOUS
 90
7
 70
0
 10
4.5576359883
 20
48.383304422
 10
4.6790577937
 20
48.5693311713
 10
4.7930530551
 20
48.7603803249
 10
4.8992122465
 20
48.9557941223
 10
4.9973135929
 20
49.1551250864
 10
5.0872755724
 20
49.3581650536
 10
5.1689618949
 20
49.5645807097
  0
LWPOLYLINE
  5
2E1
100
AcDbEntity
  8
RACCORDO
100
AcDbPolyline
 62
7
  6
CONTINUOUS
 90
3
 70
0
 10
4.5585635834
 20
48.4054955744
 10
4.5753558388
 20
48.4311901225
 10
4.5983473831
 20
48.4668887838
  0
LWPOLYLINE
  5
2E2
100
AcDbEntity
  8
RACCORDO
100
AcDbPolyline
 62
7
  6
CONTINUOUS
 90
13
 70
0
 10
5.0295771553
 20
49.2618661453
 10
5.0270996086
 20
49.2582380744
 10
5.0236203752
 20
49.2552285445
 10
5.0191760095
 20
49.2528238873
 10
5.0137940674
 20
49.2509699852
 10
5.007551133
 20
49.249678726
 10
5.0005797835
 20
49.2490243971
 10
4.9929700087
 20
49.2489832014
 10
4.9848013609
 20
49.249503625
 10
4.9762097251
 20
49.2506082876
 10
4.9673072344
 20
49.2522735616
 10
4.9581773959
 20
49.2544322645
 10
4.9489178057
 20
49.2570385786
  0
LINE
  5
2E3
100
AcDbEntity
  8
RACCORDO
100
AcDbLine
 62
250
  6
CONTINUOUS
 10
-8.0
 20
87.3495771424
 11
-7.9830065909
 21
87.6929301739
  0
LINE
  5
2E4
100
AcDbEntity
  8
RACCORDO
100
AcDbLine
 62
250
  6
CONTINUOUS
 10
-7.8002954653
 20
87.1467995648
 11
-7.7830142063
 21
87.4959686233
  0
LINE
  5
2E5
100
AcDbEntity
  8
RACCORDO
100
AcDbLine
 62
250
  6
CONTINUOUS
 10
-7.5997045347
 20
89.3223493112
 11
-7.6169857937
 21
88.9731802528
  0
LINE
  5
2E6
100
AcDbEntity
  8
RACCORDO
100
AcDbLine
 62
250
  6
CONTINUOUS
 10
-7.4
 20
89.1195717336
 11
-7.4169934091
 21
88.7762187022
  0
LWPOLYLINE
  5
2E7
100
AcDbEntity
  8
RACCORDO
100
AcDbPolyline
 62
250
  6
CONTINUOUS
 90
13
 70
0
 10
-7.9830065909
 20
88.7762187022
 10
-7.9812594042
 20
88.801902713
 10
-7.9761267193
 20
88.8271481097
 10
-7.9676961888
 20
88.8515237681
 10
-7.9561117836
 20
88.8746134174
 10
-7.9415713345
 20
88.8960227479
 10
-7.9243231533
 20
88.9153861455
 10
-7.9046617928
 20
88.9323729353
 10
-7.8829230166
 20
88.9466930281
 10
-7.8594780647
 20
88.958101875
 10
-7.8347273144
 20
88.9664046433
 10
-7.8090934423
 20
88.971459544
 10
-7.7830142063
 20
88.9731802528
  0
LWPOLYLINE
  5
2E8
100
AcDbEntity
  8
RACCORDO
100
AcDbPolyline
 62
250
  6
CONTINUOUS
 90
13
 70
0
 10
-7.4169934091
 20
87.6929301739
 10
-7.4187405959
 20
87.6672461629
 10
-7.4238732808
 20
87.6420007662
 10
-7.4323038113
 20
87.6176251076
 10
-7.4438882165
 20
87.5945354582
 10
-7.4584286657
 20
87.5731261276
 10
-7.475676847
 20
87.5537627298
 10
-7.4953382075
 20
87.5367759399
 10
-7.5170769837
 20
87.522455847
 10
-7.5405219355
 20
87.5110470002
 10
-7.5652726858
 20
87.502744232
 10
-7.5909065579
 20
87.4976893316
 10
-7.6169857937
 20
87.4959686233
  0
LWPOLYLINE
  5
2E9
100
AcDbEntity
  8
RACCORDO
100
AcDbPolyline
 62
250
  6
CONTINUOUS
 90
13
 70
0
 10
-8.3461056179
 20
52.3194101379
 10
-8.3475290622
 20
52.2999697195
 10
-8.3514268603
 20
52.2808580997
 10
-8.3577330879
 20
52.262398516
 10
-8.3663410871
 20
52.2449031779
 10
-8.3771052694
 20
52.2286679864
 10
-8.3898435788
 20
52.2139675295
 10
-8.4043405705
 20
52.2010504381
 10
-8.4203510547
 20
52.1901351808
 10
-8.437604244
 20
52.1814063687
 10
-8.4558083329
 20
52.1750116334
 10
-8.474655433
 20
52.17105913
 10
-8.4938267808
 20
52.1696157076
  0
LINE
  5
2EA
100
AcDbEntity
  8
DRAFT
100
AcDbLine
 62
7
  6
CONTINUOUS
 10
-9.9542531448
 20
40.9169070663
 11
-9.9792140383
 21
40.613303349
  0
LWPOLYLINE
  5
2EB
100
AcDbEntity
  8
0
100
AcDbPolyline
 62
7
  6
CONTINUOUS
 90
10
 70
0
 10
8.0811203271
 20
77.9160404825
 10
8.0862804643
 20
77.9359187655
 10
8.0922445121
 20
77.9547087163
 10
8.0990124705
 20
77.9724103348
 10
8.1066087334
 20
77.9889568144
 10
8.1150089069
 20
78.0044149619
 10
8.1241398098
 20
78.0189851966
 10
8.1339770484
 20
78.0327343252
 10
8.1445450164
 20
78.0455955412
 10
8.1558437138
 20
78.0575688445
  0
LINE
  5
2EC
100
AcDbEntity
  8
RACCORDO
100
AcDbLine
 62
7
  6
CONTINUOUS
 10
5.1866999392
 20
49.6131536933
 11
5.1907834462
 21
49.6246719173
  0
LINE
  5
2ED
100
AcDbEntity
  8
RACCORDO
100
AcDbLine
 62
7
  6
CONTINUOUS
 10
5.1797042321
 20
49.5937471894
 11
5.1866999392
 21
49.6131536933
  0
LWPOLYLINE
  5
2EE
100
AcDbEntity
  8
RACCORDO
100
AcDbPolyline
 62
7
  6
CONTINUOUS
 90
3
 70
0
 10
5.1689618949
 20
49.5645807097
 10
5.171794706
 20
49.5722046805
 10
5.1797042321
 20
49.5937471894
  0
LWPOLYLINE
  5
2EF
100
AcDbEntity
  8
RACCORDO
100
AcDbPolyline
 62
7
  6
CONTINUOUS
 90
10
 70
0
 10
6.0129480756
 20
49.2033547289
 10
6.0280706608
 20
49.2431116985
 10
6.0414625014
 20
49.2834676579
 10
6.0531235975
 20
49.324422607
 10
6.0630867269
 20
49.3661447446
 10
6.0713191118
 20
49.408465872
 10
6.0777224179
 20
49.4508813933
 10
6.0822638672
 20
49.4932231101
 10
6.0849762376
 20
49.5356592209
 10
6.0858595293
 20
49.5781897257
  0
LINE
  5
2F0
100
AcDbEntity
  8
RACCORDO
100
AcDbLine
 62
250
  6
CONTINUOUS
 10
4.9785645001
 20
49.3289855638
 11
4.9687379637
 21
49.3048088261
  0
LINE
  5
2F1
100
AcDbEntity
  8
RACCORDO
100
AcDbLine
 62
250
  6
CONTINUOUS
 10
5.05659676
 20
49.3262941329
 11
5.070660005
 21
49.3607689432
  0
LINE
  5
2F2
100
AcDbEntity
  8
RACCORDO
100
AcDbLine
 62
250
  6
CONTINUOUS
 10
4.9687379637
 20
49.3048088261
 11
4.9588549828
 21
49.2808267865
  0
LINE
  5
2F3
100
AcDbEntity
  8
RACCORDO
100
AcDbLine
 62
250
  6
CONTINUOUS
 10
5.0428929694
 20
49.2933297782
 11
5.05659676
 21
49.3262941329
  0
LWPOLYLINE
  5
2F4
100
AcDbEntity
  8
RACCORDO
100
AcDbPolyline
 62
250
  6
CONTINUOUS
 90
10
 70
0
 10
5.070660005
 20
49.3607689432
 10
5.0836623396
 20
49.3917959749
 10
5.0965672333
 20
49.4231321073
 10
5.1093697867
 20
49.4547779891
 10
5.1220421377
 20
49.4866760378
 10
5.1346029259
 20
49.5188847262
 10
5.1471135952
 20
49.5515800322
 10
5.1595874092
 20
49.5848223633
 10
5.1719931486
 20
49.6185551029
 10
5.1843219903
 20
49.6527799088
  0
LWPOLYLINE
  5
2F5
100
AcDbEntity
  8
RACCORDO
100
AcDbPolyline
 62
250
  6
CONTINUOUS
 90
10
 70
0
 10
4.9785645001
 20
49.3996962419
 10
4.9906756489
 20
49.4285662328
 10
5.0026937518
 20
49.457712655
 10
5.0146188089
 20
49.4871355085
 10
5.0264420883
 20
49.516798199
 10
5.0381723219
 20
49.5467373209
 10
5.0498357054
 20
49.5770626569
 10
5.0614409708
 20
49.6078108014
 10
5.0729793862
 20
49.6389451602
 10
5.0844509516
 20
49.6704657332
  0
LINE
  5
2F6
100
AcDbEntity
  8
RACCORDO
100
AcDbLine
 62
250
  6
CONTINUOUS
 10
4.9588549828
 20
49.2808267865
 11
4.9489178057
 21
49.2570385786
  0
LINE
  5
2F7
100
AcDbEntity
  8
RACCORDO
100
AcDbLine
 62
250
  6
CONTINUOUS
 10
5.0295771798
 20
49.2618661343
 11
5.0428929694
 21
49.2933297782
  0
LWPOLYLINE
  5
2F8
100
AcDbEntity
  8
RACCORDO
100
AcDbPolyline
 62
250
  6
CONTINUOUS
 90
4
 70
0
 10
-7.9819352889
 20
88.7394111912
 10
-7.9822700506
 20
88.7538215089
 10
-7.9826271513
 20
88.7660906792
 10
-7.9830065909
 20
88.7762187022
  0
LWPOLYLINE
  5
2F9
100
AcDbEntity
  8
RACCORDO
100
AcDbPolyline
 62
250
  6
CONTINUOUS
 90
4
 70
0
 10
-7.4181475184
 20
87.7339468676
 10
-7.417788637
 20
87.717812369
 10
-7.4174039339
 20
87.7041401378
 10
-7.4169934091
 20
87.6929301739
  0
LWPOLYLINE
  5
2FA
100
AcDbEntity
  8
RACCORDO
100
AcDbPolyline
 62
250
  6
CONTINUOUS
 90
3
 70
0
 10
-7.7822776006
 20
88.9433677403
 10
-7.7826347247
 20
88.9602884914
 10
-7.7830142063
 20
88.9731802528
  0
LWPOLYLINE
  5
2FB
100
AcDbEntity
  8
RACCORDO
100
AcDbPolyline
 62
250
  6
CONTINUOUS
 90
3
 70
0
 10
-7.6177811043
 20
87.5290076654
 10
-7.6173963716
 20
87.5101310372
 10
-7.6169857937
 20
87.4959686233
  0
LINE
  5
2FC
100
AcDbEntity
  8
RACCORDO
100
AcDbLine
 62
250
  6
CONTINUOUS
 10
-7.9942591244
 20
52.2148345743
 11
-8.0042023768
 21
52.7513589753
  0
LINE
  5
2FD
100
AcDbEntity
  8
RACCORDO
100
AcDbLine
 62
250
  6
CONTINUOUS
 10
-7.8465379614
 20
52.2305138438
 11
-7.8564812139
 21
52.7670382448
  0
LINE
  5
2FE
100
AcDbEntity
  8
RACCORDO
100
AcDbLine
 62
250
  6
CONTINUOUS
 10
-7.9813402187
 20
88.7043574567
 11
-7.9819352889
 21
88.7394111912
  0
LINE
  5
2FF
100
AcDbEntity
  8
RACCORDO
100
AcDbLine
 62
250
  6
CONTINUOUS
 10
-7.4187803267
 20
87.7734746699
 11
-7.4181475184
 21
87.7339468676
  0
LINE
  5
300
100
AcDbEntity
  8
RACCORDO
100
AcDbLine
 62
250
  6
CONTINUOUS
 10
-7.7816341539
 20
88.9001030798
 11
-7.7822776006
 21
88.9433677403
  0
LINE
  5
301
100
AcDbEntity
  8
RACCORDO
100
AcDbLine
 62
250
  6
CONTINUOUS
 10
-7.618469276
 20
87.5776904051
 11
-7.6177811043
 21
87.5290076654
  0
LINE
  5
302
100
AcDbEntity
  8
RACCORDO
100
AcDbLine
 62
250
  6
CONTINUOUS
 10
-7.980541597
 20
88.6345546766
 11
-7.9813402187
 21
88.7043574567
  0
LINE
  5
303
100
AcDbEntity
  8
RACCORDO
100
AcDbLine
 62
250
  6
CONTINUOUS
 10
-7.4196116983
 20
87.8520633688
 11
-7.4187803267
 21
87.7734746699
  0
LINE
  5
304
100
AcDbEntity
  8
RACCORDO
100
AcDbLine
 62
250
  6
CONTINUOUS
 10
-7.7805492257
 20
88.7798168282
 11
-7.7816341539
 21
88.9001030798
  0
LINE
  5
305
100
AcDbEntity
  8
RACCORDO
100
AcDbLine
 62
250
  6
CONTINUOUS
 10
-7.6196040671
 20
87.7130590088
 11
-7.618469276
 21
87.5776904051
  0
LINE
  5
306
100
AcDbEntity
  8
RACCORDO
100
AcDbLine
 62
250
  6
CONTINUOUS
 10
-7.9794356721
 20
88.4523275648
 11
-7.980541597
 21
88.6345546766
  0
LINE
  5
307
100
AcDbEntity
  8
RACCORDO
100
AcDbLine
 62
250
  6
CONTINUOUS
 10
-7.4206642378
 20
88.0450669515
 11
-7.4196116983
 21
87.8520633688
  0
LINE
  5
308
100
AcDbEntity
  8
RACCORDO
100
AcDbLine
 62
250
  6
CONTINUOUS
 10
-7.7792886635
 20
88.4685543053
 11
-7.7805492257
 21
88.7798168282
  0
LINE
  5
309
100
AcDbEntity
  8
0
100
AcDbLine
 62
7
  6
CONTINUOUS
 10
-9.9542531448
 20
40.9169070663
 11
-9.9699713981
 21
49.484574438
  0
LINE
  5
30A
100
AcDbEntity
  8
RACCORDO
100
AcDbLine
 62
250
  6
CONTINUOUS
 10
-7.6208773216
 20
88.1027024615
 11
-7.6196040671
 21
87.7130590088
  0
LINE
  5
30B
100
AcDbEntity
  8
RACCORDO
100
AcDbLine
 62
7
  6
CONTINUOUS
 10
-11.0528653412
 20
91.5876111167
 11
-11.0528653412
 21
39.8815377593
  0
LINE
  5
30C
100
AcDbEntity
  8
DRAFT
100
AcDbLine
 62
7
  6
CONTINUOUS
 10
-10.6
 20
51.0979308663
 11
-10.6
 21
53.8712180097
  0
LINE
  5
30D
100
AcDbEntity
  8
DRAFT
100
AcDbLine
 62
7
  6
CONTINUOUS
 10
-10.1
 20
51.0726750646
 11
-10.1
 21
49.484574438
  0
LINE
  5
30E
100
AcDbEntity
  8
0
100
AcDbLine
 62
7
  6
CONTINUOUS
 10
-10.1
 20
49.484574438
 11
-10.1
 21
50.884574438
  0
LINE
  5
30F
100
AcDbEntity
  8
DRAFT
100
AcDbLine
 62
7
  6
CONTINUOUS
 10
-10.1
 20
53.8964738114
 11
-10.1
 21
55.484574438
  0
LINE
  5
310
100
AcDbEntity
  8
0
100
AcDbLine
 62
7
  6
CONTINUOUS
 10
-10.1
 20
54.084574438
 11
-10.1
 21
55.484574438
  0
LINE
  5
311
100
AcDbEntity
  8
0
100
AcDbLine
 62
7
  6
CONTINUOUS
 10
-10.0
 20
40.5821204478
 11
-10.0
 21
49.484574438
  0
LINE
  5
312
100
AcDbEntity
  8
RACCORDO
100
AcDbLine
 62
7
  6
CONTINUOUS
 10
-10.0
 20
55.484574438
 11
-10.0
 21
88.1398181744
  0
LINE
  5
313
100
AcDbEntity
  8
RACCORDO
100
AcDbLine
 62
7
  6
CONTINUOUS
 10
-10.0
 20
88.3293307017
 11
-10.0
 21
90.8870284282
  0
LINE
  5
314
100
AcDbEntity
  8
RACCORDO
100
AcDbLine
 62
7
  6
CONTINUOUS
 10
-9.9886751346
 20
53.3376962614
 11
-9.9886751346
 21
51.6314526147
  0
LINE
  5
315
100
AcDbEntity
  8
DRAFT
100
AcDbLine
 62
7
  6
CONTINUOUS
 10
-9.9860359481
 20
90.8660796909
 11
-9.9860359481
 21
88.534574438
  0
LINE
  5
316
100
AcDbEntity
  8
DRAFT
100
AcDbLine
 62
7
  6
CONTINUOUS
 10
-9.9860359481
 20
87.934574438
 11
-9.9860359481
 21
76.4717171329
  0
LINE
  5
317
100
AcDbEntity
  8
0
100
AcDbLine
 62
7
  6
CONTINUOUS
 10
-9.9860359481
 20
76.4717171329
 11
-9.9669377998
 21
55.484574438
  0
LINE
  5
318
100
AcDbEntity
  8
RACCORDO
100
AcDbLine
 62
7
  6
CONTINUOUS
 10
-9.4818790363
 20
53.3376962614
 11
-9.4818790363
 21
51.6314526147
  0
LINE
  5
319
100
AcDbEntity
  8
RACCORDO
100
AcDbLine
 62
7
  6
CONTINUOUS
 10
-9.2272930121
 20
52.3345676802
 11
-9.2272930121
 21
52.6345811958
  0
LINE
  5
31A
100
AcDbEntity
  8
0
100
AcDbLine
 62
7
  6
CONTINUOUS
 10
-9.150022
 20
83.453817438
 11
-9.150022
 21
83.119792438
  0
LINE
  5
31B
100
AcDbEntity
  8
0
100
AcDbLine
 62
7
  6
CONTINUOUS
 10
-9.150011
 20
78.924899438
 11
-9.150011
 21
78.654497438
  0
LINE
  5
31C
100
AcDbEntity
  8
0
100
AcDbLine
 62
7
  6
CONTINUOUS
 10
-9.150007
 20
82.273604438
 11
-9.150007
 21
81.214268438
  0
LINE
  5
31D
100
AcDbEntity
  8
0
100
AcDbLine
 62
7
  6
CONTINUOUS
 10
-9.150007
 20
80.793324438
 11
-9.150007
 21
80.541988438
  0
LINE
  5
31E
100
AcDbEntity
  8
0
100
AcDbLine
 62
7
  6
CONTINUOUS
 10
-9.150007
 20
79.768959438
 11
-9.150007
 21
79.349042438
  0
LINE
  5
31F
100
AcDbEntity
  8
0
100
AcDbLine
 62
7
  6
CONTINUOUS
 10
-9.150007
 20
77.614975438
 11
-9.150007
 21
77.344574438
  0
LINE
  5
320
100
AcDbEntity
  8
DRAFT
100
AcDbLine
 62
7
  6
CONTINUOUS
 10
-9.1
 20
49.484574438
 11
-9.1
 21
52.134574438
  0
LINE
  5
321
100
AcDbEntity
  8
DRAFT
100
AcDbLine
 62
7
  6
CONTINUOUS
 10
-9.1
 20
52.834574438
 11
-9.1
 21
55.484574438
  0
LINE
  5
322
100
AcDbEntity
  8
RACCORDO
100
AcDbLine
 62
7
  6
CONTINUOUS
 10
-9.0
 20
88.1398181744
 11
-9.0
 21
88.3293307017
  0
LINE
  5
323
100
AcDbEntity
  8
0
100
AcDbLine
 62
7
  6
CONTINUOUS
 10
-8.933686
 20
81.484669438
 11
-8.933686
 21
82.273604438
  0
LINE
  5
324
100
AcDbEntity
  8
RACCORDO
100
AcDbLine
 62
250
  6
CONTINUOUS
 10
-8.8385094944
 20
52.18477325
 11
-8.8385094944
 21
52.784375626
  0
LINE
  5
325
100
AcDbEntity
  8
RACCORDO
100
AcDbLine
 62
250
  6
CONTINUOUS
 10
-8.3461056179
 20
52.3194101379
 11
-8.3461056179
 21
52.6497387382
  0
LINE
  5
326
100
AcDbEntity
  8
RACCORDO
100
AcDbLine
 62
7
  6
CONTINUOUS
 10
-8.2
 20
56.2344982856
 11
-8.2
 21
58.2346505904
  0
LINE
  5
327
100
AcDbEntity
  8
RACCORDO
100
AcDbLine
 62
250
  6
CONTINUOUS
 10
-8.1638273498
 20
53.0630890633
 11
-8.16382735
 21
52.8976153636
  0
LINE
  5
328
100
AcDbEntity
  8
0
100
AcDbLine
 62
7
  6
CONTINUOUS
 10
-8.144751
 20
82.232248438
 11
-8.144751
 21
81.484669438
  0
LINE
  5
329
100
AcDbEntity
  8
RACCORDO
100
AcDbLine
 62
250
  6
CONTINUOUS
 10
-8.1428500694
 20
51.9311834994
 11
-8.1428500694
 21
52.0652986601
  0
LINE
  5
32A
100
AcDbEntity
  8
RACCORDO
100
AcDbLine
 62
7
  6
CONTINUOUS
 10
-8.0
 20
87.3495771424
 11
-8.0
 21
87.934574438
  0
LINE
  5
32B
100
AcDbEntity
  8
RACCORDO
100
AcDbLine
 62
7
  6
CONTINUOUS
 10
-8.0
 20
88.534574438
 11
-8.0
 21
89.1195717336
  0
LINE
  5
32C
100
AcDbEntity
  8
RACCORDO
100
AcDbLine
 62
7
  6
CONTINUOUS
 10
-7.9841533463
 20
88.1491945419
 11
-7.9841533463
 21
88.3199543341
  0
LINE
  5
32D
100
AcDbEntity
  8
0
100
AcDbLine
 62
7
  6
CONTINUOUS
 10
-7.928429
 20
81.484669438
 11
-7.928429
 21
82.232248438
  0
LINE
  5
32E
100
AcDbEntity
  8
0
100
AcDbLine
 62
7
  6
CONTINUOUS
 10
-7.6485
 20
83.612877438
 11
-7.6485
 21
82.944827438
  0
LINE
  5
32F
100
AcDbEntity
  8
0
100
AcDbLine
 62
7
  6
CONTINUOUS
 10
-7.432179
 20
82.878021438
 11
-7.432179
 21
83.676501438
  0
LINE
  5
330
100
AcDbEntity
  8
RACCORDO
100
AcDbLine
 62
7
  6
CONTINUOUS
 10
-7.4
 20
87.3495771424
 11
-7.4
 21
89.1195717336
  0
LINE
  5
331
100
AcDbEntity
  8
0
100
AcDbLine
 62
7
  6
CONTINUOUS
 10
-7.066327
 20
82.295872438
 11
-7.066327
 21
81.484669438
  0
LINE
  5
332
100
AcDbEntity
  8
0
100
AcDbLine
 62
7
  6
CONTINUOUS
 10
-7.066327
 20
78.337105438
 11
-7.066327
 21
77.614975438
  0
LINE
  5
333
100
AcDbEntity
  8
0
100
AcDbLine
 62
7
  6
CONTINUOUS
 10
-6.850011
 20
78.654497438
 11
-6.850011
 21
78.924899438
  0
LINE
  5
334
100
AcDbEntity
  8
0
100
AcDbLine
 62
7
  6
CONTINUOUS
 10
-6.850006
 20
77.344574438
 11
-6.850006
 21
78.337105438
  0
LINE
  5
335
100
AcDbEntity
  8
0
100
AcDbLine
 62
7
  6
CONTINUOUS
 10
-6.850006
 20
79.349042438
 11
-6.850006
 21
79.600356438
  0
LINE
  5
336
100
AcDbEntity
  8
0
100
AcDbLine
 62
7
  6
CONTINUOUS
 10
-6.850006
 20
80.373385438
 11
-6.850006
 21
80.793324438
  0
LINE
  5
337
100
AcDbEntity
  8
0
100
AcDbLine
 62
7
  6
CONTINUOUS
 10
-6.850006
 20
81.214268438
 11
-6.850006
 21
82.295872438
  0
LINE
  5
338
100
AcDbEntity
  8
0
100
AcDbLine
 62
7
  6
CONTINUOUS
 10
-6.85
 20
82.445380438
 11
-6.85
 21
82.715780438
  0
LINE
  5
339
100
AcDbEntity
  8
0
100
AcDbLine
 62
7
  6
CONTINUOUS
 10
-6.85
 20
83.838720438
 11
-6.85
 21
84.118686438
  0
LINE
  5
33A
100
AcDbEntity
  8
RACCORDO
100
AcDbLine
 62
7
  6
CONTINUOUS
 10
-6.0869729761
 20
70.4615004071
 11
-6.0869729761
 21
60.0519791017
  0
LINE
  5
33B
100
AcDbEntity
  8
RACCORDO
100
AcDbLine
 62
7
  6
CONTINUOUS
 10
-6.0858595293
 20
52.614942711
 11
-6.0858595293
 21
49.5781897257
  0
LINE
  5
33C
100
AcDbEntity
  8
RACCORDO
100
AcDbLine
 62
7
  6
CONTINUOUS
 10
-5.7
 20
49.4620931359
 11
-5.7
 21
52.614942711
  0
LINE
  5
33D
100
AcDbEntity
  8
RACCORDO
100
AcDbLine
 62
7
  6
CONTINUOUS
 10
-5.7
 20
60.0519791017
 11
-5.7
 21
70.350711736
  0
LINE
  5
33E
100
AcDbEntity
  8
RACCORDO
100
AcDbLine
 62
7
  6
CONTINUOUS
 10
-6.094441183
 20
70.4744463021
 11
-6.0990030264
 21
60.8101295877
  0
LINE
  5
33F
100
AcDbEntity
  8
RACCORDO
100
AcDbLine
 62
250
  6
CONTINUOUS
 10
-7.9790829676
 20
88.16170485
 11
-7.9794356721
 21
88.4523275648
  0
LINE
  5
340
100
AcDbEntity
  8
RACCORDO
100
AcDbLine
 62
7
  6
CONTINUOUS
 10
-6.0990030264
 20
60.8101295877
 11
-6.1
 21
59.534574438
  0
LINE
  5
341
100
AcDbEntity
  8
RACCORDO
100
AcDbLine
 62
7
  6
CONTINUOUS
 10
-6.0966582385
 20
53.127890406
 11
-6.0999166395
 21
49.5754572065
  0
LINE
  5
342
100
AcDbEntity
  8
RACCORDO
100
AcDbLine
 62
250
  6
CONTINUOUS
 10
-7.4208885937
 20
88.3286268806
 11
-7.4206642378
 21
88.0450669515
  0
LINE
  5
343
100
AcDbEntity
  8
RACCORDO
100
AcDbLine
 62
250
  6
CONTINUOUS
 10
-7.7794317854
 20
87.9406619999
 11
-7.7792886635
 21
88.4685543053
  0
LINE
  5
344
100
AcDbEntity
  8
RACCORDO
100
AcDbLine
 62
250
  6
CONTINUOUS
 10
-7.6203148838
 20
88.6077606086
 11
-7.6208773216
 21
88.1027024615
  0
LINE
  5
345
100
AcDbEntity
  8
RACCORDO
100
AcDbLine
 62
250
  6
CONTINUOUS
 10
-7.9798318072
 20
87.9320138908
 11
-7.9790829676
 21
88.16170485
  0
LINE
  5
346
100
AcDbEntity
  8
RACCORDO
100
AcDbLine
 62
250
  6
CONTINUOUS
 10
-7.420099549
 20
88.5487504266
 11
-7.4208885937
 21
88.3286268806
  0
LINE
  5
347
100
AcDbEntity
  8
RACCORDO
100
AcDbLine
 62
250
  6
CONTINUOUS
 10
-7.7806885788
 20
87.669931588
 11
-7.7794317854
 21
87.9406619999
  0
LINE
  5
348
100
AcDbEntity
  8
RACCORDO
100
AcDbLine
 62
7
  6
CONTINUOUS
 10
-5.1016624831
 20
70.4335742915
 11
-5.1328731347
 21
65.6702858655
  0
LINE
  5
349
100
AcDbEntity
  8
DRAFT
100
AcDbLine
 62
7
  6
CONTINUOUS
 10
-5.1330551452
 20
65.6702858655
 11
-5.1698819766
 21
60.034574438
  0
LINE
  5
34A
100
AcDbEntity
  8
RACCORDO
100
AcDbLine
 62
7
  6
CONTINUOUS
 10
-5.2
 20
53.596902321
 11
-5.1866527244
 21
55.6339345503
  0
LINE
  5
34B
100
AcDbEntity
  8
RACCORDO
100
AcDbLine
 62
7
  6
CONTINUOUS
 10
-5.165685518
 20
58.8339040906
 11
-5.1612349439
 21
59.5131410501
  0
LINE
  5
34C
100
AcDbEntity
  8
RACCORDO
100
AcDbLine
 62
250
  6
CONTINUOUS
 10
-5.1860451054
 20
49.9818348573
 11
-5.1861396637
 21
49.9659614155
  0
LWPOLYLINE
  5
34D
100
AcDbEntity
  8
RACCORDO
100
AcDbPolyline
 62
250
  6
CONTINUOUS
 90
3
 70
0
 10
-5.1972838028
 20
52.7974719792
 10
-5.1971852591
 20
52.8134556705
 10
-5.1971367327
 20
52.8182517908
  0
LINE
  5
34E
100
AcDbEntity
  8
RACCORDO
100
AcDbLine
 62
250
  6
CONTINUOUS
 10
-7.6189190548
 20
88.8475289737
 11
-7.6203148838
 21
88.6077606086
  0
LINE
  5
34F
100
AcDbEntity
  8
RACCORDO
100
AcDbLine
 62
250
  6
CONTINUOUS
 10
-7.9806809271
 20
87.8205030146
 11
-7.9798318072
 21
87.9320138908
  0
LINE
  5
350
100
AcDbEntity
  8
RACCORDO
100
AcDbLine
 62
250
  6
CONTINUOUS
 10
-7.4192556179
 20
88.6548917695
 11
-7.420099549
 21
88.5487504266
  0
LINE
  5
351
100
AcDbEntity
  8
RACCORDO
100
AcDbLine
 62
250
  6
CONTINUOUS
 10
-5.1951216618
 20
52.3081611324
 11
-5.1946358364
 21
52.3566517908
  0
LINE
  5
352
100
AcDbEntity
  8
RACCORDO
100
AcDbLine
 62
250
  6
CONTINUOUS
 10
-5.1920047746
 20
51.6831927316
 11
-5.1914134162
 21
51.7422167233
  0
LINE
  5
353
100
AcDbEntity
  8
RACCORDO
100
AcDbLine
 62
250
  6
CONTINUOUS
 10
-5.1898640619
 20
51.04736874
 11
-5.1886395059
 21
51.1695927316
  0
LINE
  5
354
100
AcDbEntity
  8
RACCORDO
100
AcDbLine
 62
250
  6
CONTINUOUS
 10
-5.1881532182
 20
50.4238713306
 11
-5.1867175963
 21
50.5671619889
  0
LINE
  5
355
100
AcDbEntity
  8
RACCORDO
100
AcDbLine
 62
250
  6
CONTINUOUS
 10
-5.0948490636
 20
52.2689080221
 11
-5.0946532124
 21
52.2884560924
  0
LINE
  5
356
100
AcDbEntity
  8
RACCORDO
100
AcDbLine
 62
250
  6
CONTINUOUS
 10
-5.0917321763
 20
51.6439396213
 11
-5.0914307922
 21
51.6740210249
  0
LINE
  5
357
100
AcDbEntity
  8
RACCORDO
100
AcDbLine
 62
250
  6
CONTINUOUS
 10
-5.0895914637
 20
51.0081156296
 11
-5.088656882
 21
51.1013970333
  0
LINE
  5
358
100
AcDbEntity
  8
RACCORDO
100
AcDbLine
 62
250
  6
CONTINUOUS
 10
-5.08788062
 20
50.3846182203
 11
-5.0867349724
 21
50.4989662906
  0
LINE
  5
359
100
AcDbEntity
  8
RACCORDO
100
AcDbLine
 62
250
  6
CONTINUOUS
 10
-5.1855548301
 20
50.0273109757
 11
-5.1860451054
 21
49.9818348573
  0
LINE
  5
35A
100
AcDbEntity
  8
RACCORDO
100
AcDbLine
 62
250
  6
CONTINUOUS
 10
-5.0855722062
 20
49.9572637944
 11
-5.086015684
 21
49.9165725887
  0
LINE
  5
35B
100
AcDbEntity
  8
RACCORDO
100
AcDbLine
 62
250
  6
CONTINUOUS
 10
-7.9813756035
 20
87.7625660564
 11
-7.9806809271
 21
87.8205030146
  0
LWPOLYLINE
  5
35C
100
AcDbEntity
  8
RACCORDO
100
AcDbPolyline
 62
250
  6
CONTINUOUS
 90
5
 70
0
 10
-7.7830142425
 20
87.4959686233
 10
-7.7825773305
 20
87.5111055367
 10
-7.7821601391
 20
87.532225707
 10
-7.7817626682
 20
87.5590268685
 10
-7.7806885788
 20
87.669931588
  0
LWPOLYLINE
  5
35D
100
AcDbEntity
  8
RACCORDO
100
AcDbPolyline
 62
250
  6
CONTINUOUS
 90
5
 70
0
 10
-7.6169857608
 20
88.9731802528
 10
-7.617407548
 20
88.9586684129
 10
-7.6178114342
 20
88.9385535779
 10
-7.6181974194
 20
88.9130936488
 10
-7.6189190548
 20
88.8475289737
  0
LWPOLYLINE
  5
35E
100
AcDbEntity
  8
RACCORDO
100
AcDbPolyline
 62
7
  6
CONTINUOUS
 90
16
 70
0
 10
-6.094441183
 20
70.4744463021
 10
-6.0918625952
 20
70.5460063889
 10
-6.0841412955
 20
70.6173812338
 10
-6.0712777374
 20
70.6881985335
 10
-6.0532585705
 20
70.7582224132
 10
-6.0301600661
 20
70.826933984
 10
-6.0022473356
 20
70.8935666261
 10
-5.9698681382
 20
70.9575173099
 10
-5.9331252484
 20
71.0187763351
 10
-5.8919424028
 20
71.0774675505
 10
-5.8462713589
 20
71.1335000514
 10
-5.7964827605
 20
71.1862731966
 10
-5.7431459752
 20
71.2351723631
 10
-5.6866918886
 20
71.2798819573
 10
-5.6273304119
 20
71.3203101688
 10
-5.5653912489
 20
71.356282928
  0
LWPOLYLINE
  5
35F
100
AcDbEntity
  8
RACCORDO
100
AcDbPolyline
 62
250
  6
CONTINUOUS
 90
4
 70
0
 10
-7.9830065909
 20
87.6929301739
 10
-7.9825697475
 20
87.7044458101
 10
-7.9821525972
 20
87.7198600478
 10
-7.9813756035
 20
87.7625660564
  0
LWPOLYLINE
  5
360
100
AcDbEntity
  8
RACCORDO
100
AcDbPolyline
 62
250
  6
CONTINUOUS
 90
6
 70
0
 10
-7.4169934091
 20
88.7762187022
 10
-7.4174151344
 20
88.7652197449
 10
-7.4178189835
 20
88.7505319083
 10
-7.4182049564
 20
88.7321551925
 10
-7.418574751
 20
88.7099295236
 10
-7.4192556179
 20
88.6548917695
  0
LINE
  5
361
100
AcDbEntity
  8
0
100
AcDbLine
 62
7
  6
CONTINUOUS
 10
-1.174268
 20
88.096581438
 11
-1.070672
 21
89.598300438
  0
LINE
  5
362
100
AcDbEntity
  8
0
100
AcDbLine
 62
7
  6
CONTINUOUS
 10
-1.425869
 20
90.396371438
 11
-1.633526
 21
88.096581438
  0
LWPOLYLINE
  5
363
100
AcDbEntity
  8
RACCORDO
100
AcDbPolyline
 62
7
  6
CONTINUOUS
 90
3
 70
0
 10
5.1972811314
 20
49.6434582122
 10
5.1984698074
 20
49.6470119254
 10
5.1994862458
 20
49.6501077587
  0
LINE
  5
364
100
AcDbEntity
  8
RACCORDO
100
AcDbLine
 62
7
  6
CONTINUOUS
 10
5.1943672292
 20
49.6349354002
 11
5.1972811314
 21
49.6434582122
  0
LINE
  5
365
100
AcDbEntity
  8
RACCORDO
100
AcDbLine
 62
7
  6
CONTINUOUS
 10
5.1907834462
 20
49.6246719173
 11
5.1943672292
 21
49.6349354002
  0
LWPOLYLINE
  5
366
100
AcDbEntity
  8
RACCORDO
100
AcDbPolyline
 62
250
  6
CONTINUOUS
 90
16
 70
0
 10
-5.1867175963
 20
50.5671619889
 10
-5.1860034003
 20
50.5600420681
 10
-5.1842237945
 20
50.5530058696
 10
-5.181398001
 20
50.5461288966
 10
-5.1775567341
 20
50.5394853332
 10
-5.1727411812
 20
50.533145999
 10
-5.1670019657
 20
50.5271777955
 10
-5.1603988029
 20
50.521643832
 10
-5.1530033625
 20
50.5166050531
 10
-5.1448985437
 20
50.5121177035
 10
-5.1361717842
 20
50.5082293724
 10
-5.1269174025
 20
50.5049813217
 10
-5.1172400994
 20
50.5024089261
 10
-5.1072461264
 20
50.5005383173
 10
-5.097041328
 20
50.4993872659
 10
-5.0867349724
 20
50.4989662906
  0
LWPOLYLINE
  5
367
100
AcDbEntity
  8
RACCORDO
100
AcDbPolyline
 62
250
  6
CONTINUOUS
 90
16
 70
0
 10
-5.1886395059
 20
51.1695927316
 10
-5.1879253098
 20
51.1624728108
 10
-5.1861457041
 20
51.1554366123
 10
-5.1833199105
 20
51.1485596393
 10
-5.1794786436
 20
51.1419160759
 10
-5.1746630907
 20
51.1355767417
 10
-5.1689238753
 20
51.1296085382
 10
-5.1623207124
 20
51.1240745747
 10
-5.1549252721
 20
51.1190357958
 10
-5.1468204532
 20
51.1145484462
 10
-5.1380936938
 20
51.1106601151
 10
-5.1288393121
 20
51.1074120644
 10
-5.119162009
 20
51.1048396687
 10
-5.109168036
 20
51.10296906
 10
-5.0989632376
 20
51.1018180086
 10
-5.088656882
 20
51.1013970333
  0
LWPOLYLINE
  5
368
100
AcDbEntity
  8
RACCORDO
100
AcDbPolyline
 62
250
  6
CONTINUOUS
 90
16
 70
0
 10
-5.1914134162
 20
51.7422167233
 10
-5.1906992201
 20
51.7350968025
 10
-5.1889196143
 20
51.7280606039
 10
-5.1860938208
 20
51.721183631
 10
-5.1822525539
 20
51.7145400676
 10
-5.177437001
 20
51.7082007333
 10
-5.1716977855
 20
51.7022325298
 10
-5.1650946227
 20
51.6966985663
 10
-5.1576991823
 20
51.6916597874
 10
-5.1495943635
 20
51.6871724378
 10
-5.140867604
 20
51.6832841067
 10
-5.1316132223
 20
51.6800360561
 10
-5.1219359192
 20
51.6774636604
 10
-5.1119419462
 20
51.6755930516
 10
-5.1017371478
 20
51.6744420002
 10
-5.0914307922
 20
51.6740210249
  0
LWPOLYLINE
  5
369
100
AcDbEntity
  8
RACCORDO
100
AcDbPolyline
 62
250
  6
CONTINUOUS
 90
16
 70
0
 10
-5.1946358364
 20
52.3566517908
 10
-5.1939216403
 20
52.3495318699
 10
-5.1921420345
 20
52.3424956714
 10
-5.189316241
 20
52.3356186984
 10
-5.1854749741
 20
52.328975135
 10
-5.1806594212
 20
52.3226358008
 10
-5.1749202058
 20
52.3166675973
 10
-5.1683170429
 20
52.3111336338
 10
-5.1609216025
 20
52.3060948549
 10
-5.1528167837
 20
52.3016075053
 10
-5.1440900243
 20
52.2977191742
 10
-5.1348356425
 20
52.2944711236
 10
-5.1251583395
 20
52.2918987279
 10
-5.1151643664
 20
52.2900281191
 10
-5.104959568
 20
52.2888770677
 10
-5.0946532124
 20
52.2884560924
  0
LWPOLYLINE
  5
36A
100
AcDbEntity
  8
RACCORDO
100
AcDbPolyline
 62
7
  6
CONTINUOUS
 90
28
 70
0
 10
-5.1971367327
 20
52.8182517908
 10
-5.1969811372
 20
52.8165504751
 10
-5.1966464602
 20
52.8145351166
 10
-5.1961089896
 20
52.8122094813
 10
-5.1953415109
 20
52.8095403207
 10
-5.194315835
 20
52.8065725298
 10
-5.1930087613
 20
52.8034287129
 10
-5.1913969512
 20
52.8001139047
 10
-5.1894553501
 20
52.7966436299
 10
-5.187168756
 20
52.793156229
 10
-5.1845172329
 20
52.7896841999
 10
-5.1814893873
 20
52.7862205948
 10
-5.178096349
 20
52.7828419705
 10
-5.1743313146
 20
52.7796038262
 10
-5.170194911
 20
52.7764756066
 10
-5.1657277895
 20
52.7734023547
 10
-5.1609394221
 20
52.7703829782
 10
-5.1558491022
 20
52.7674444817
 10
-5.1505348324
 20
52.7645705364
 10
-5.1450416155
 20
52.7617084149
 10
-5.1393902341
 20
52.7589305166
 10
-5.1336300585
 20
52.7563961989
 10
-5.1278308308
 20
52.7541180257
 10
-5.1219811218
 20
52.7520781399
 10
-5.1159897041
 20
52.7503829817
 10
-5.1098282672
 20
52.7490700732
 10
-5.1035459776
 20
52.7481054578
 10
-5.0971541088
 20
52.7474926241
  0
LWPOLYLINE
  5
36B
100
AcDbEntity
  8
RACCORDO
100
AcDbPolyline
 62
250
  6
CONTINUOUS
 90
16
 70
0
 10
-8.0042021161
 20
52.7513590528
 10
-8.005492145
 20
52.7667778108
 10
-8.0084386578
 20
52.7819777773
 10
-8.0130063127
 20
52.7967957972
 10
-8.0191569106
 20
52.8110832051
 10
-8.0268125404
 20
52.8246786672
 10
-8.0358450038
 20
52.8374155856
 10
-8.0460909087
 20
52.8491052927
 10
-8.057482692
 20
52.8597100493
 10
-8.0700559778
 20
52.869267866
 10
-8.0837916644
 20
52.8776805162
 10
-8.0985133338
 20
52.8847621577
 10
-8.1140377117
 20
52.8903912054
 10
-8.130198942
 20
52.8944656296
 10
-8.1468535983
 20
52.8968974525
 10
-8.1638281451
 20
52.8976151272
  0
LWPOLYLINE
  5
36C
100
AcDbEntity
  8
RACCORDO
100
AcDbPolyline
 62
250
  6
CONTINUOUS
 90
16
 70
0
 10
-7.8564812139
 20
52.7670382448
 10
-7.8588762222
 20
52.7985069059
 10
-7.8643083732
 20
52.8289287642
 10
-7.872777667
 20
52.8583038197
 10
-7.8844730872
 20
52.8869266759
 10
-7.8992056501
 20
52.9145027294
 10
-7.916408405
 20
52.940148169
 10
-7.9360063679
 20
52.9637156498
 10
-7.9580745228
 20
52.9853525167
 10
-7.9822708711
 20
53.0046169937
 10
-8.0087639758
 20
53.0215992684
 10
-8.0373852739
 20
53.0362091533
 10
-8.0672870778
 20
53.0477343091
 10
-8.0981868249
 20
53.0559372895
 10
-8.1303670777
 20
53.0610555409
 10
-8.1638278363
 20
53.0630890633
  0
LWPOLYLINE
  5
36D
100
AcDbEntity
  8
RACCORDO
100
AcDbPolyline
 62
250
  6
CONTINUOUS
 90
13
 70
0
 10
-8.3461056179
 20
52.6497387382
 10
-8.3475291953
 20
52.6691801268
 10
-8.3514273356
 20
52.6882925322
 10
-8.3577340508
 20
52.7067526865
 10
-8.3663426292
 20
52.7242483879
 10
-8.3771074093
 20
52.7404837103
 10
-8.3898462178
 20
52.7551840259
 10
-8.4043435255
 20
52.768100749
 10
-8.4203540894
 20
52.7790154894
 10
-8.4376070397
 20
52.7877437011
 10
-8.4558105307
 20
52.7941378572
 10
-8.474656689
 20
52.7980899247
 10
-8.4938267808
 20
52.7995331684
  0
LWPOLYLINE
  5
36E
100
AcDbEntity
  8
RACCORDO
100
AcDbPolyline
 62
250
  6
CONTINUOUS
 90
13
 70
0
 10
-7.9830065909
 20
87.6929301739
 10
-7.9812596058
 20
87.6672476555
 10
-7.9761274324
 20
87.6420033752
 10
-7.967697586
 20
87.6176284212
 10
-7.9561138902
 20
87.5945390464
 10
-7.9415740499
 20
87.5731296105
 10
-7.924326301
 20
87.5537658299
 10
-7.9046651035
 20
87.5367784436
 10
-7.8829261673
 20
87.5224576413
 10
-7.8594807844
 20
87.5110481125
 10
-7.8347293643
 20
87.5027447752
 10
-7.8090945735
 20
87.4976894793
 10
-7.7830142064
 20
87.4959686224
  0
LWPOLYLINE
  5
36F
100
AcDbEntity
  8
RACCORDO
100
AcDbPolyline
 62
250
  6
CONTINUOUS
 90
13
 70
0
 10
-7.4169934091
 20
88.7762187022
 10
-7.4187403626
 20
88.8019009874
 10
-7.4238724556
 20
88.8271450928
 10
-7.4323021941
 20
88.8515199355
 10
-7.4438857772
 20
88.8746092655
 10
-7.4584255196
 20
88.8960187158
 10
-7.475673198
 20
88.9153825552
 10
-7.4953343673
 20
88.9323700346
 10
-7.5170733265
 20
88.9466909484
 10
-7.5405187766
 20
88.9581005854
 10
-7.5652703038
 20
88.9664040135
 10
-7.5909052429
 20
88.9714593726
 10
-7.6169857937
 20
88.9731802527
  0
LINE
  5
370
100
AcDbEntity
  8
RACCORDO
100
AcDbLine
 62
250
  6
CONTINUOUS
 10
-7.9830065909
 20
88.7762187022
 11
-8.0
 21
89.1195717336
  0
LINE
  5
371
100
AcDbEntity
  8
RACCORDO
100
AcDbLine
 62
250
  6
CONTINUOUS
 10
-7.7830142063
 20
88.9731802528
 11
-7.8002954653
 21
89.3223493112
  0
LINE
  5
372
100
AcDbEntity
  8
RACCORDO
100
AcDbLine
 62
250
  6
CONTINUOUS
 10
-7.6169857937
 20
87.4959686233
 11
-7.5997045347
 21
87.1467995648
  0
LINE
  5
373
100
AcDbEntity
  8
RACCORDO
100
AcDbLine
 62
250
  6
CONTINUOUS
 10
-7.4169934091
 20
87.6929301739
 11
-7.4
 21
87.3495771424
  0
LWPOLYLINE
  5
374
100
AcDbEntity
  8
RACCORDO
100
AcDbPolyline
 62
7
  6
CONTINUOUS
 90
10
 70
0
 10
-6.0858595293
 20
49.5781897257
 10
-6.0849765918
 20
49.5356629149
 10
-6.0822645748
 20
49.4932295576
 10
-6.0777234782
 20
49.4508896537
 10
-6.071320641
 20
49.4084749819
 10
-6.0630887242
 20
49.3661537635
 10
-6.0531257109
 20
49.3244306626
 10
-6.0414642623
 20
49.2834739006
 10
-6.0280717172
 20
49.243115256
 10
-6.0129480756
 20
49.2033547289
  0
LINE
  5
375
100
AcDbEntity
  8
RACCORDO
100
AcDbLine
 62
250
  6
CONTINUOUS
 10
-4.6337865101
 20
87.0075367861
 11
-4.6335899102
 21
86.9979894451
  0
LINE
  5
376
100
AcDbEntity
  8
RACCORDO
100
AcDbLine
 62
250
  6
CONTINUOUS
 10
-4.6335899102
 20
86.9979894451
 11
-4.6334020069
 21
86.9854723293
  0
LINE
  5
377
100
AcDbEntity
  8
DRAFT
100
AcDbLine
 62
7
  6
CONTINUOUS
 10
-5.1612349439
 20
59.5131410501
 11
-5.1669200021
 21
60.034574438
  0
LINE
  5
378
100
AcDbEntity
  8
RACCORDO
100
AcDbLine
 62
250
  6
CONTINUOUS
 10
-4.3340076487
 20
87.3074397328
 11
-4.3337978761
 21
87.2903342896
  0
LINE
  5
379
100
AcDbEntity
  8
RACCORDO
100
AcDbLine
 62
250
  6
CONTINUOUS
 10
-4.3331351886
 20
87.1694015316
 11
-4.3312899524
 21
86.9542354449
  0
LINE
  5
37A
100
AcDbEntity
  8
RACCORDO
100
AcDbLine
 62
250
  6
CONTINUOUS
 10
-4.6334020069
 20
86.9854723293
 11
-4.6311834819
 21
86.7320893578
  0
LINE
  5
37B
100
AcDbEntity
  8
RACCORDO
100
AcDbLine
 62
250
  6
CONTINUOUS
 10
-5.1881532182
 20
50.4238713306
 11
-5.1855548301
 21
50.0273109757
  0
LINE
  5
37C
100
AcDbEntity
  8
RACCORDO
100
AcDbLine
 62
250
  6
CONTINUOUS
 10
-5.1867175963
 20
50.5671619889
 11
-5.1898640619
 21
51.04736874
  0
LINE
  5
37D
100
AcDbEntity
  8
RACCORDO
100
AcDbLine
 62
250
  6
CONTINUOUS
 10
-5.1886395059
 20
51.1695927316
 11
-5.1920047746
 21
51.6831927316
  0
LINE
  5
37E
100
AcDbEntity
  8
RACCORDO
100
AcDbLine
 62
250
  6
CONTINUOUS
 10
-5.1914134162
 20
51.7422167233
 11
-5.1951216618
 21
52.3081611324
  0
LINE
  5
37F
100
AcDbEntity
  8
RACCORDO
100
AcDbLine
 62
250
  6
CONTINUOUS
 10
-5.1971367327
 20
52.8182517908
 11
-5.1998646565
 21
53.2345815913
  0
LINE
  5
380
100
AcDbEntity
  8
DRAFT
100
AcDbLine
 62
7
  6
CONTINUOUS
 10
-5.1982544935
 20
53.3305069083
 11
-5.2
 21
53.596902321
  0
LINE
  5
381
100
AcDbEntity
  8
RACCORDO
100
AcDbLine
 62
250
  6
CONTINUOUS
 10
-5.086063521
 20
49.9165725887
 11
-5.0844553063
 21
49.6711303498
  0
LINE
  5
382
100
AcDbEntity
  8
RACCORDO
100
AcDbLine
 62
250
  6
CONTINUOUS
 10
-5.0879091031
 20
50.3846182203
 11
-5.0855722062
 21
50.0279660933
  0
LINE
  5
383
100
AcDbEntity
  8
RACCORDO
100
AcDbLine
 62
250
  6
CONTINUOUS
 10
-5.0867349724
 20
50.5678171065
 11
-5.0896199468
 21
51.0081156296
  0
LINE
  5
384
100
AcDbEntity
  8
RACCORDO
100
AcDbLine
 62
250
  6
CONTINUOUS
 10
-5.088656882
 20
51.1702478492
 11
-5.0917606594
 21
51.6439396213
  0
LINE
  5
385
100
AcDbEntity
  8
RACCORDO
100
AcDbLine
 62
250
  6
CONTINUOUS
 10
-5.0914307922
 20
51.7428718409
 11
-5.0948775467
 21
52.2689080221
  0
LINE
  5
386
100
AcDbEntity
  8
RACCORDO
100
AcDbLine
 62
250
  6
CONTINUOUS
 10
-5.0946532124
 20
52.3573069083
 11
-5.0972098319
 21
52.7474926241
  0
LINE
  5
387
100
AcDbEntity
  8
RACCORDO
100
AcDbLine
 62
250
  6
CONTINUOUS
 10
-5.0971541088
 20
52.8189069083
 11
-5.100038344
 21
53.2590926241
  0
LINE
  5
388
100
AcDbEntity
  8
RACCORDO
100
AcDbLine
 62
250
  6
CONTINUOUS
 10
-4.3337978761
 20
87.2903342896
 11
-4.3333200466
 21
87.215887202
  0
LINE
  5
389
100
AcDbEntity
  8
RACCORDO
100
AcDbLine
 62
7
  6
CONTINUOUS
 10
-5.1999870858
 20
49.7167052776
 11
-5.199486185
 21
49.6500989892
  0
LINE
  5
38A
100
AcDbEntity
  8
RACCORDO
100
AcDbLine
 62
250
  6
CONTINUOUS
 10
-4.3333200466
 20
87.215887202
 11
-4.3331351886
 21
87.1694015316
  0
LINE
  5
38B
100
AcDbEntity
  8
RACCORDO
100
AcDbLine
 62
250
  6
CONTINUOUS
 10
-4.6311834819
 20
86.7320893578
 11
-4.6308447948
 21
86.6585625485
  0
LINE
  5
38C
100
AcDbEntity
  8
RACCORDO
100
AcDbLine
 62
250
  6
CONTINUOUS
 10
-5.1861562031
 20
49.9418015188
 11
-5.1843219259
 21
49.6527708928
  0
LINE
  5
38D
100
AcDbEntity
  8
DRAFT
100
AcDbLine
 62
7
  6
CONTINUOUS
 10
-5.3000480383
 20
49.5369475812
 11
-5.3033417615
 21
53.127890406
  0
LINE
  5
38E
100
AcDbEntity
  8
RACCORDO
100
AcDbLine
 62
250
  6
CONTINUOUS
 10
-4.6308447948
 20
86.6585625485
 11
-4.6307780443
 21
86.6037808128
  0
LWPOLYLINE
  5
38F
100
AcDbEntity
  8
DRAFT
100
AcDbPolyline
 62
7
  6
CONTINUOUS
 90
3
 70
0
 10
-5.3055769489
 20
70.5699542791
 10
-5.3053252048
 20
69.3629113308
 10
-5.3
 20
59.534574438
  0
LINE
  5
390
100
AcDbEntity
  8
RACCORDO
100
AcDbLine
 62
7
  6
CONTINUOUS
 10
-5.3107434805
 20
49.5349090398
 11
-5.3107434805
 21
53.1025243775
  0
LINE
  5
391
100
AcDbEntity
  8
RACCORDO
100
AcDbLine
 62
7
  6
CONTINUOUS
 10
-5.3096202312
 20
59.5641436736
 11
-5.3096202312
 21
70.5723433299
  0
LINE
  5
392
100
AcDbEntity
  8
RACCORDO
100
AcDbLine
 62
7
  6
CONTINUOUS
 10
-5.2
 20
53.596902321
 11
-5.1999870858
 21
49.7167052776
  0
LINE
  5
393
100
AcDbEntity
  8
RACCORDO
100
AcDbLine
 62
250
  6
CONTINUOUS
 10
-5.0971541088
 20
52.7474926241
 11
-5.0971541088
 21
52.8189069083
  0
LINE
  5
394
100
AcDbEntity
  8
RACCORDO
100
AcDbLine
 62
250
  6
CONTINUOUS
 10
-5.0946532124
 20
52.2884560924
 11
-5.0946532124
 21
52.3573069083
  0
LINE
  5
395
100
AcDbEntity
  8
RACCORDO
100
AcDbLine
 62
250
  6
CONTINUOUS
 10
-5.0914307922
 20
51.6740210249
 11
-5.0914307922
 21
51.7428718409
  0
LINE
  5
396
100
AcDbEntity
  8
RACCORDO
100
AcDbLine
 62
250
  6
CONTINUOUS
 10
-5.088656882
 20
51.1013970333
 11
-5.088656882
 21
51.1702478492
  0
LINE
  5
397
100
AcDbEntity
  8
RACCORDO
100
AcDbLine
 62
250
  6
CONTINUOUS
 10
-5.0867349724
 20
50.4989662906
 11
-5.0867349724
 21
50.5678171065
  0
LINE
  5
398
100
AcDbEntity
  8
RACCORDO
100
AcDbLine
 62
250
  6
CONTINUOUS
 10
-5.0855722062
 20
50.0279660933
 11
-5.0855722062
 21
49.9572637944
  0
LINE
  5
399
100
AcDbEntity
  8
RACCORDO
100
AcDbLine
 62
250
  6
CONTINUOUS
 10
-4.9786994824
 20
49.3996962419
 11
-4.9786994824
 21
49.3289855638
  0
LINE
  5
39A
100
AcDbEntity
  8
RACCORDO
100
AcDbLine
 62
250
  6
CONTINUOUS
 10
-4.7402132415
 20
48.9025802321
 11
-4.7402132415
 21
48.831869554
  0
LINE
  5
39B
100
AcDbEntity
  8
RACCORDO
100
AcDbLine
 62
250
  6
CONTINUOUS
 10
-4.6825894025
 20
85.534574438
 11
-4.6825894025
 21
85.7050882891
  0
LINE
  5
39C
100
AcDbEntity
  8
RACCORDO
100
AcDbLine
 62
7
  6
CONTINUOUS
 10
-4.65
 20
86.1259246068
 11
-4.65
 21
87.0345858611
  0
LINE
  5
39D
100
AcDbEntity
  8
RACCORDO
100
AcDbLine
 62
7
  6
CONTINUOUS
 10
-4.6307780443
 20
86.6037808128
 11
-4.6307780443
 21
86.1197943994
  0
LINE
  5
39E
100
AcDbEntity
  8
RACCORDO
100
AcDbLine
 62
250
  6
CONTINUOUS
 10
-4.5802266447
 20
48.6259957942
 11
-4.5802266447
 21
48.5552851161
  0
LINE
  5
39F
100
AcDbEntity
  8
RACCORDO
100
AcDbLine
 62
250
  6
CONTINUOUS
 10
-4.359312047
 20
48.2959957942
 11
-4.359312047
 21
48.2252851161
  0
LINE
  5
3A0
100
AcDbEntity
  8
RACCORDO
100
AcDbLine
 62
250
  6
CONTINUOUS
 10
-4.3312899524
 20
86.9542354449
 11
-4.3307894673
 21
86.280961498
  0
LINE
  5
3A1
100
AcDbEntity
  8
RACCORDO
100
AcDbLine
 62
250
  6
CONTINUOUS
 10
-4.1988672323
 20
48.0859957942
 11
-4.1988672323
 21
48.0152851161
  0
LINE
  5
3A2
100
AcDbEntity
  8
RACCORDO
100
AcDbLine
 62
250
  6
CONTINUOUS
 10
-3.8151276544
 20
47.6574507805
 11
-3.8151276544
 21
47.5867401024
  0
LINE
  5
3A3
100
AcDbEntity
  8
RACCORDO
100
AcDbLine
 62
250
  6
CONTINUOUS
 10
-3.75
 20
71.2830594293
 11
-3.75
 21
72.1228495508
  0
LINE
  5
3A4
100
AcDbEntity
  8
RACCORDO
100
AcDbLine
 62
7
  6
CONTINUOUS
 10
-3.5
 20
71.3679640185
 11
-3.5
 21
72.2186390869
  0
LINE
  5
3A5
100
AcDbEntity
  8
IMPORT_IGES
100
AcDbLine
 62
7
  6
CONTINUOUS
 10
-2.8
 20
60.034574438
 11
-2.8
 21
59.5995421915
  0
LINE
  5
3A6
100
AcDbEntity
  8
0
100
AcDbLine
 62
7
  6
CONTINUOUS
 10
-2.8
 20
57.4126845419
 11
-2.8
 21
59.5994945434
  0
LINE
  5
3A7
100
AcDbEntity
  8
0
100
AcDbLine
 62
7
  6
CONTINUOUS
 10
-2.5
 20
72.4813802009
 11
-2.5
 21
71.6538860584
  0
LINE
  5
3A8
100
AcDbEntity
  8
0
100
AcDbLine
 62
7
  6
CONTINUOUS
 10
-2.5
 20
58.4489293819
 11
-2.5
 21
54.4595346283
  0
LINE
  5
3A9
100
AcDbEntity
  8
0
100
AcDbLine
 62
7
  6
CONTINUOUS
 10
-2.372012
 20
90.396509438
 11
-2.372012
 21
88.096581438
  0
LINE
  5
3AA
100
AcDbEntity
  8
DRAFT
100
AcDbLine
 62
250
  6
CONTINUOUS
 10
-2.2554654956
 20
72.3933778656
 11
-2.2554654956
 21
71.7203562986
  0
LINE
  5
3AB
100
AcDbEntity
  8
0
100
AcDbLine
 62
7
  6
CONTINUOUS
 10
-1.891956
 20
88.096581438
 11
-1.891956
 21
90.396509438
  0
LINE
  5
3AC
100
AcDbEntity
  8
DRAFT
100
AcDbLine
 62
250
  6
CONTINUOUS
 10
-1.7630616191
 20
72.4428277861
 11
-1.7630616191
 21
71.8153513126
  0
LINE
  5
3AD
100
AcDbEntity
  8
DRAFT
100
AcDbLine
 62
7
  6
CONTINUOUS
 10
-1.5
 20
46.1283296294
 11
-1.5
 21
46.534574438
  0
LINE
  5
3AE
100
AcDbEntity
  8
DRAFT
100
AcDbLine
 62
7
  6
CONTINUOUS
 10
-1.5
 20
71.534574438
 11
-1.5
 21
71.8524609059
  0
LINE
  5
3AF
100
AcDbEntity
  8
IMPORT_IGES
100
AcDbLine
 62
250
  6
CONTINUOUS
 10
-0.4140832161
 20
59.9966184115
 11
-0.4140832161
 21
65.6702858655
  0
LINE
  5
3B0
100
AcDbEntity
  8
IMPORT_IGES
100
AcDbLine
 62
250
  6
CONTINUOUS
 10
0.4140832161
 20
65.6702858655
 11
0.4140832161
 21
59.9966184115
  0
LINE
  5
3B1
100
AcDbEntity
  8
RACCORDO
100
AcDbLine
 62
250
  6
CONTINUOUS
 10
-5.1861396637
 20
49.9659614155
 11
-5.1861640903
 21
49.9480855597
  0
LINE
  5
3B2
100
AcDbEntity
  8
RACCORDO
100
AcDbLine
 62
250
  6
CONTINUOUS
 10
-5.1973100002
 20
52.785562701
 11
-5.1972838028
 21
52.7974719792
  0
LWPOLYLINE
  5
3B3
100
AcDbEntity
  8
0
100
AcDbPolyline
 62
7
  6
CONTINUOUS
 90
16
 70
0
 10
3.9160594002
 20
89.7306285371
 10
3.9135978943
 20
89.6853726114
 10
3.9075044801
 20
89.6427254272
 10
3.8977791576
 20
89.6026869846
 10
3.8841512067
 20
89.5648591335
 10
3.8668913475
 20
89.5296400239
 10
3.8468117401
 20
89.498224106
 10
3.8242199394
 20
89.4711589823
 10
3.7988083906
 20
89.4478970503
 10
3.7704665897
 20
89.4279899536
 10
3.7389913205
 20
89.4114682397
 10
3.7045857992
 20
89.398301361
 10
3.6677491703
 20
89.3879493185
 10
3.6286478152
 20
89.3802321125
 10
3.5871153524
 20
89.3753297427
 10
3.543151782
 20
89.373242209
  0
LWPOLYLINE
  5
3B4
100
AcDbEntity
  8
RACCORDO
100
AcDbPolyline
 62
7
  6
CONTINUOUS
 90
28
 70
0
 10
5.1971367327
 20
52.8182517908
 10
5.1969805214
 20
52.8165422635
 10
5.1966444895
 20
52.8145200576
 10
5.1961050712
 20
52.8121889567
 10
5.1953352832
 20
52.8095158391
 10
5.1943071198
 20
52.8065454944
 10
5.1929973781
 20
52.8034001955
 10
5.1913828626
 20
52.8000852587
 10
5.1894386576
 20
52.7966159157
 10
5.1871492759
 20
52.7931293398
 10
5.1844947542
 20
52.7896580642
 10
5.1814636947
 20
52.7861951342
 10
5.1780666644
 20
52.7828159589
 10
5.1742962316
 20
52.7795757025
 10
5.1701533397
 20
52.7764443429
 10
5.1656795794
 20
52.7733670873
 10
5.1608848753
 20
52.7703420736
 10
5.1557884176
 20
52.7673971749
 10
5.1504684684
 20
52.7645185441
 10
5.1449704722
 20
52.7616537555
 10
5.1393149718
 20
52.7588747842
 10
5.133550317
 20
52.7563422574
 10
5.127741218
 20
52.7540691588
 10
5.1218807681
 20
52.7520372526
 10
5.1158914525
 20
52.7503521415
 10
5.1097498362
 20
52.7490499948
 10
5.1035004218
 20
52.7480960004
 10
5.0971541088
 20
52.7474926243
  0
LWPOLYLINE
  5
3B5
100
AcDbEntity
  8
RACCORDO
100
AcDbPolyline
 62
250
  6
CONTINUOUS
 90
16
 70
0
 10
5.1946358364
 20
52.3566517908
 10
5.1939221893
 20
52.3495349867
 10
5.1921439732
 20
52.3425015292
 10
5.1893202576
 20
52.3356268455
 10
5.1854813279
 20
52.3289846658
 10
5.1806683509
 20
52.3226462156
 10
5.1749329256
 20
52.3166794544
 10
5.1683365417
 20
52.3111483651
 10
5.160949942
 20
52.3061122778
 10
5.1528523552
 20
52.3016252139
 10
5.1441292361
 20
52.2977347442
 10
5.1348753554
 20
52.2944833388
 10
5.1251945602
 20
52.2919069126
 10
5.1151927001
 20
52.2900323598
 10
5.1049757527
 20
52.2888783086
 10
5.0946532124
 20
52.2884560924
  0
LWPOLYLINE
  5
3B6
100
AcDbEntity
  8
RACCORDO
100
AcDbPolyline
 62
250
  6
CONTINUOUS
 90
16
 70
0
 10
5.1914134162
 20
51.7422167233
 10
5.1906997691
 20
51.7350999193
 10
5.1889215529
 20
51.7280664617
 10
5.1860978374
 20
51.721191778
 10
5.1822589077
 20
51.7145495984
 10
5.1774459307
 20
51.7082111482
 10
5.1717105054
 20
51.7022443869
 10
5.1651141214
 20
51.6967132976
 10
5.1577275218
 20
51.6916772103
 10
5.149629935
 20
51.6871901464
 10
5.1409068159
 20
51.6832996767
 10
5.1316529352
 20
51.6800482713
 10
5.12197214
 20
51.6774718451
 10
5.1119702799
 20
51.6755972924
 10
5.1017533325
 20
51.6744432411
 10
5.0914307922
 20
51.6740210249
  0
LWPOLYLINE
  5
3B7
100
AcDbEntity
  8
RACCORDO
100
AcDbPolyline
 62
250
  6
CONTINUOUS
 90
16
 70
0
 10
5.1886395059
 20
51.1695927316
 10
5.1879258588
 20
51.1624759276
 10
5.1861476427
 20
51.15544247
 10
5.1833239271
 20
51.1485677863
 10
5.1794849974
 20
51.1419256067
 10
5.1746720204
 20
51.1355871565
 10
5.1689365952
 20
51.1296203952
 10
5.1623402112
 20
51.124089306
 10
5.1549536115
 20
51.1190532186
 10
5.1468560248
 20
51.1145661547
 10
5.1381329056
 20
51.110675685
 10
5.1288790249
 20
51.1074242796
 10
5.1191982297
 20
51.1048478535
 10
5.1091963697
 20
51.1029733007
 10
5.0989794222
 20
51.1018192495
 10
5.088656882
 20
51.1013970333
  0
LWPOLYLINE
  5
3B8
100
AcDbEntity
  8
RACCORDO
100
AcDbPolyline
 62
250
  6
CONTINUOUS
 90
16
 70
0
 10
5.1867175963
 20
50.5671619889
 10
5.1860039492
 20
50.5600451849
 10
5.1842257331
 20
50.5530117274
 10
5.1814020176
 20
50.5461370437
 10
5.1775630878
 20
50.539494864
 10
5.1727501109
 20
50.5331564138
 10
5.1670146856
 20
50.5271896526
 10
5.1604183016
 20
50.5216585633
 10
5.1530317019
 20
50.5166224759
 10
5.1449341152
 20
50.512135412
 10
5.1362109961
 20
50.5082449424
 10
5.1269571153
 20
50.504993537
 10
5.1172763201
 20
50.5024171108
 10
5.1072744601
 20
50.500542558
 10
5.0970575127
 20
50.4993885068
 10
5.0867349724
 20
50.4989662906
  0
LWPOLYLINE
  5
3B9
100
AcDbEntity
  8
RACCORDO
100
AcDbPolyline
 62
7
  6
CONTINUOUS
 90
16
 70
0
 10
5.1863175052
 20
49.9573318864
 10
5.185516443
 20
49.9527911304
 10
5.1835692681
 20
49.9484230592
 10
5.1805118089
 20
49.9442274381
 10
5.176386031
 20
49.9401597852
 10
5.1712547947
 20
49.9362638954
 10
5.1652132775
 20
49.9326717658
 10
5.1583580822
 20
49.9294020867
 10
5.1507776032
 20
49.9264349555
 10
5.1425763087
 20
49.9238443376
 10
5.1338625044
 20
49.9216450198
 10
5.1247364339
 20
49.9198208487
 10
5.115292594
 20
49.9183993652
 10
5.105630354
 20
49.9173893049
 10
5.0958544107
 20
49.9167805951
 10
5.086063521
 20
49.9165725887
  0
LWPOLYLINE
  5
3BA
100
AcDbEntity
  8
RACCORDO
100
AcDbPolyline
 62
7
  6
CONTINUOUS
 90
16
 70
0
 10
5.1951216618
 20
52.3081611324
 10
5.1943263557
 20
52.3038004345
 10
5.1923913696
 20
52.2996034206
 10
5.1893505322
 20
52.2955698693
 10
5.1852437469
 20
52.2916567223
 10
5.1801318923
 20
52.2879063775
 10
5.1741084191
 20
52.2844466123
 10
5.1672684024
 20
52.2812951435
 10
5.1596987641
 20
52.278433062
 10
5.1515027191
 20
52.2759330621
 10
5.1427876111
 20
52.2738091978
 10
5.1336531822
 20
52.2720460583
 10
5.1241938129
 20
52.2706721238
 10
5.114508993
 20
52.2696964422
 10
5.1047037581
 20
52.2691086254
 10
5.0948775467
 20
52.2689080221
  0
LWPOLYLINE
  5
3BB
100
AcDbEntity
  8
RACCORDO
100
AcDbPolyline
 62
7
  6
CONTINUOUS
 90
16
 70
0
 10
5.1920047746
 20
51.6831927316
 10
5.1912094684
 20
51.6788320336
 10
5.1892744823
 20
51.6746350198
 10
5.1862336449
 20
51.6706014684
 10
5.1821268596
 20
51.6666883215
 10
5.177015005
 20
51.6629379766
 10
5.1709915319
 20
51.6594782115
 10
5.1641515151
 20
51.6563267427
 10
5.1565818768
 20
51.6534646612
 10
5.1483858318
 20
51.6509646613
 10
5.1396707238
 20
51.648840797
 10
5.1305362949
 20
51.6470776575
 10
5.1210769257
 20
51.645703723
 10
5.1113921057
 20
51.6447280413
 10
5.1015868709
 20
51.6441402246
 10
5.0917606594
 20
51.6439396213
  0
LWPOLYLINE
  5
3BC
100
AcDbEntity
  8
RACCORDO
100
AcDbPolyline
 62
7
  6
CONTINUOUS
 90
16
 70
0
 10
5.1898640619
 20
51.04736874
 10
5.1890687558
 20
51.043008042
 10
5.1871337697
 20
51.0388110281
 10
5.1840929323
 20
51.0347774768
 10
5.179986147
 20
51.0308643298
 10
5.1748742923
 20
51.027113985
 10
5.1688508192
 20
51.0236542198
 10
5.1620108025
 20
51.0205027511
 10
5.1544411642
 20
51.0176406695
 10
5.1462451192
 20
51.0151406696
 10
5.1375300112
 20
51.0130168053
 10
5.1283955823
 20
51.0112536658
 10
5.118936213
 20
51.0098797314
 10
5.109251393
 20
51.0089040497
 10
5.0994461582
 20
51.008316233
 10
5.0896199468
 20
51.0081156296
  0
LWPOLYLINE
  5
3BD
100
AcDbEntity
  8
RACCORDO
100
AcDbPolyline
 62
7
  6
CONTINUOUS
 90
16
 70
0
 10
5.1881532182
 20
50.4238713306
 10
5.1873579121
 20
50.4195106326
 10
5.185422926
 20
50.4153136188
 10
5.1823820886
 20
50.4112800674
 10
5.1782753033
 20
50.4073669205
 10
5.1731634487
 20
50.4036165756
 10
5.1671399755
 20
50.4001568105
 10
5.1602999588
 20
50.3970053417
 10
5.1527303205
 20
50.3941432602
 10
5.1445342755
 20
50.3916432603
 10
5.1358191675
 20
50.389519396
 10
5.1266847386
 20
50.3877562565
 10
5.1172253693
 20
50.386382322
 10
5.1075405494
 20
50.3854066404
 10
5.0977353145
 20
50.3848188236
 10
5.0879091031
 20
50.3846182203
  0
LWPOLYLINE
  5
3BE
100
AcDbEntity
  8
RACCORDO
100
AcDbPolyline
 62
250
  6
CONTINUOUS
 90
4
 70
0
 10
-4.334364846
 20
87.318927861
 10
-4.334240456
 20
87.3173603447
 10
-4.3341213902
 20
87.3134493203
 10
-4.3340076487
 20
87.3074397328
  0
LINE
  5
3BF
100
AcDbEntity
  8
0
100
AcDbLine
 62
7
  6
CONTINUOUS
 10
0.130606
 20
89.592040438
 11
0.229236
 21
88.096581438
  0
LINE
  5
3C0
100
AcDbEntity
  8
RACCORDO
100
AcDbLine
 62
250
  6
CONTINUOUS
 10
5.086015684
 20
49.9165725887
 11
5.0855722062
 21
49.9572637944
  0
LINE
  5
3C1
100
AcDbEntity
  8
RACCORDO
100
AcDbLine
 62
250
  6
CONTINUOUS
 10
5.1863175052
 20
49.9573318864
 11
5.1855548301
 21
50.0273109757
  0
LINE
  5
3C2
100
AcDbEntity
  8
RACCORDO
100
AcDbLine
 62
250
  6
CONTINUOUS
 10
5.0867349724
 20
50.4989662906
 11
5.08788062
 21
50.3846182203
  0
LINE
  5
3C3
100
AcDbEntity
  8
RACCORDO
100
AcDbLine
 62
250
  6
CONTINUOUS
 10
5.088656882
 20
51.1013970333
 11
5.0895914637
 21
51.0081156296
  0
LINE
  5
3C4
100
AcDbEntity
  8
RACCORDO
100
AcDbLine
 62
250
  6
CONTINUOUS
 10
5.0914307922
 20
51.6740210249
 11
5.0917321763
 21
51.6439396213
  0
LINE
  5
3C5
100
AcDbEntity
  8
RACCORDO
100
AcDbLine
 62
250
  6
CONTINUOUS
 10
5.0946532124
 20
52.2884560924
 11
5.0948490636
 21
52.2689080221
  0
LINE
  5
3C6
100
AcDbEntity
  8
RACCORDO
100
AcDbLine
 62
250
  6
CONTINUOUS
 10
5.1867175963
 20
50.5671619889
 11
5.1881532182
 21
50.4238713306
  0
LINE
  5
3C7
100
AcDbEntity
  8
RACCORDO
100
AcDbLine
 62
250
  6
CONTINUOUS
 10
5.1886395059
 20
51.1695927316
 11
5.1898640619
 21
51.04736874
  0
LINE
  5
3C8
100
AcDbEntity
  8
RACCORDO
100
AcDbLine
 62
250
  6
CONTINUOUS
 10
5.1914134162
 20
51.7422167233
 11
5.1920047746
 21
51.6831927316
  0
LINE
  5
3C9
100
AcDbEntity
  8
RACCORDO
100
AcDbLine
 62
250
  6
CONTINUOUS
 10
5.1946358364
 20
52.3566517908
 11
5.1951216618
 21
52.3081611324
  0
LINE
  5
3CA
100
AcDbEntity
  8
RACCORDO
100
AcDbLine
 62
7
  6
CONTINUOUS
 10
5.1612349439
 20
59.5131410501
 11
5.165685518
 21
58.8339040906
  0
LINE
  5
3CB
100
AcDbEntity
  8
RACCORDO
100
AcDbLine
 62
7
  6
CONTINUOUS
 10
5.1866527244
 20
55.6339345503
 11
5.2
 21
53.596902321
  0
LINE
  5
3CC
100
AcDbEntity
  8
DRAFT
100
AcDbLine
 62
7
  6
CONTINUOUS
 10
5.1698819766
 20
60.034574438
 11
5.1330551452
 21
65.6702858655
  0
LINE
  5
3CD
100
AcDbEntity
  8
RACCORDO
100
AcDbLine
 62
7
  6
CONTINUOUS
 10
5.1016625758
 20
70.4335736284
 11
5.1328731347
 21
65.6702858655
  0
LINE
  5
3CE
100
AcDbEntity
  8
RACCORDO
100
AcDbLine
 62
250
  6
CONTINUOUS
 10
5.1971367327
 20
52.8182517908
 11
5.1972587244
 21
52.8030821978
  0
LINE
  5
3CF
100
AcDbEntity
  8
RACCORDO
100
AcDbLine
 62
250
  6
CONTINUOUS
 10
5.1972587244
 20
52.8030821978
 11
5.1973099878
 21
52.7855786546
  0
LINE
  5
3D0
100
AcDbEntity
  8
RACCORDO
100
AcDbLine
 62
7
  6
CONTINUOUS
 10
6.0999166395
 20
49.5754572065
 11
6.0966582385
 21
53.127890406
  0
LWPOLYLINE
  5
3D1
100
AcDbEntity
  8
RACCORDO
100
AcDbPolyline
 62
7
  6
CONTINUOUS
 90
3
 70
0
 10
6.094441183
 20
70.4744463021
 10
6.0946998512
 20
69.2676748652
 10
6.1
 20
59.534574438
  0
LINE
  5
3D2
100
AcDbEntity
  8
DRAFT
100
AcDbLine
 62
7
  6
CONTINUOUS
 10
1.5
 20
46.1283296294
 11
1.5
 21
46.534574438
  0
LINE
  5
3D3
100
AcDbEntity
  8
DRAFT
100
AcDbLine
 62
7
  6
CONTINUOUS
 10
1.5
 20
71.534574438
 11
1.5
 21
71.8524609059
  0
LINE
  5
3D4
100
AcDbEntity
  8
DRAFT
100
AcDbLine
 62
250
  6
CONTINUOUS
 10
1.7630616191
 20
71.8153513126
 11
1.7630616191
 21
72.4428277861
  0
LINE
  5
3D5
100
AcDbEntity
  8
DRAFT
100
AcDbLine
 62
250
  6
CONTINUOUS
 10
2.2554654956
 20
71.7203562986
 11
2.2554654956
 21
72.3933778656
  0
LINE
  5
3D6
100
AcDbEntity
  8
0
100
AcDbLine
 62
7
  6
CONTINUOUS
 10
2.5
 20
54.4595346283
 11
2.5
 21
58.4489293819
  0
LINE
  5
3D7
100
AcDbEntity
  8
0
100
AcDbLine
 62
7
  6
CONTINUOUS
 10
2.5
 20
71.6538860584
 11
2.5
 21
72.4813802009
  0
LINE
  5
3D8
100
AcDbEntity
  8
0
100
AcDbLine
 62
7
  6
CONTINUOUS
 10
2.8
 20
59.5995462548
 11
2.8
 21
57.4126845419
  0
LINE
  5
3D9
100
AcDbEntity
  8
IMPORT_IGES
100
AcDbLine
 62
7
  6
CONTINUOUS
 10
2.8
 20
59.5995421915
 11
2.8
 21
60.034574438
  0
LINE
  5
3DA
100
AcDbEntity
  8
0
100
AcDbLine
 62
7
  6
CONTINUOUS
 10
2.8065975821
 20
90.3695020845
 11
2.8065975821
 21
88.0965816044
  0
LINE
  5
3DB
100
AcDbEntity
  8
0
100
AcDbLine
 62
7
  6
CONTINUOUS
 10
3.2688043561
 20
89.373242209
 11
3.2688043561
 21
90.0045793078
  0
LINE
  5
3DC
100
AcDbEntity
  8
0
100
AcDbLine
 62
7
  6
CONTINUOUS
 10
3.2847223015
 20
88.0965816044
 11
3.2847223015
 21
88.9965922353
  0
LINE
  5
3DD
100
AcDbEntity
  8
RACCORDO
100
AcDbLine
 62
7
  6
CONTINUOUS
 10
3.5
 20
71.3679640185
 11
3.5
 21
72.2186390869
  0
LINE
  5
3DE
100
AcDbEntity
  8
RACCORDO
100
AcDbLine
 62
250
  6
CONTINUOUS
 10
3.75
 20
72.1228495508
 11
3.75
 21
71.2830594293
  0
LINE
  5
3DF
100
AcDbEntity
  8
RACCORDO
100
AcDbLine
 62
250
  6
CONTINUOUS
 10
3.8150751374
 20
47.5867401024
 11
3.8150751374
 21
47.6574507805
  0
LINE
  5
3E0
100
AcDbEntity
  8
0
100
AcDbLine
 62
7
  6
CONTINUOUS
 10
4.0407988352
 20
89.170103013
 11
4.0407988352
 21
89.1836927648
  0
LINE
  5
3E1
100
AcDbEntity
  8
RACCORDO
100
AcDbLine
 62
250
  6
CONTINUOUS
 10
4.1984809182
 20
48.0152851161
 11
4.1984809182
 21
48.0859957942
  0
LINE
  5
3E2
100
AcDbEntity
  8
RACCORDO
100
AcDbLine
 62
250
  6
CONTINUOUS
 10
4.3587868447
 20
48.2252851161
 11
4.3587868447
 21
48.2959957942
  0
LINE
  5
3E3
100
AcDbEntity
  8
RACCORDO
100
AcDbLine
 62
250
  6
CONTINUOUS
 10
4.5796409989
 20
48.5552851161
 11
4.5796409989
 21
48.6259957942
  0
LINE
  5
3E4
100
AcDbEntity
  8
RACCORDO
100
AcDbLine
 62
7
  6
CONTINUOUS
 10
4.6307780443
 20
86.1197943994
 11
4.6307780443
 21
86.6037808128
  0
LINE
  5
3E5
100
AcDbEntity
  8
RACCORDO
100
AcDbLine
 62
7
  6
CONTINUOUS
 10
4.65
 20
87.0345858611
 11
4.65
 21
86.1259246068
  0
LINE
  5
3E6
100
AcDbEntity
  8
RACCORDO
100
AcDbLine
 62
250
  6
CONTINUOUS
 10
4.6825894025
 20
85.534574438
 11
4.6825894025
 21
85.7050882891
  0
LINE
  5
3E7
100
AcDbEntity
  8
RACCORDO
100
AcDbLine
 62
250
  6
CONTINUOUS
 10
4.7397065745
 20
48.831869554
 11
4.7397065745
 21
48.9025802321
  0
LINE
  5
3E8
100
AcDbEntity
  8
RACCORDO
100
AcDbLine
 62
250
  6
CONTINUOUS
 10
4.9785645001
 20
49.3289855638
 11
4.9785645001
 21
49.3996962419
  0
LINE
  5
3E9
100
AcDbEntity
  8
RACCORDO
100
AcDbLine
 62
250
  6
CONTINUOUS
 10
5.0855722062
 20
49.9572637944
 11
5.0855722062
 21
50.0279660933
  0
LINE
  5
3EA
100
AcDbEntity
  8
RACCORDO
100
AcDbLine
 62
250
  6
CONTINUOUS
 10
5.0867349724
 20
50.5678171065
 11
5.0867349724
 21
50.4989662906
  0
LINE
  5
3EB
100
AcDbEntity
  8
RACCORDO
100
AcDbLine
 62
250
  6
CONTINUOUS
 10
5.088656882
 20
51.1702478492
 11
5.088656882
 21
51.1013970333
  0
LINE
  5
3EC
100
AcDbEntity
  8
RACCORDO
100
AcDbLine
 62
250
  6
CONTINUOUS
 10
5.0914307922
 20
51.7428718409
 11
5.0914307922
 21
51.6740210249
  0
LINE
  5
3ED
100
AcDbEntity
  8
RACCORDO
100
AcDbLine
 62
250
  6
CONTINUOUS
 10
5.0946532124
 20
52.3573069083
 11
5.0946532124
 21
52.2884560924
  0
LINE
  5
3EE
100
AcDbEntity
  8
RACCORDO
100
AcDbLine
 62
250
  6
CONTINUOUS
 10
5.0971541088
 20
52.8189069083
 11
5.0971541088
 21
52.7474926241
  0
LINE
  5
3EF
100
AcDbEntity
  8
RACCORDO
100
AcDbLine
 62
7
  6
CONTINUOUS
 10
5.3096202312
 20
70.5723433299
 11
5.3096202312
 21
59.5641436736
  0
LINE
  5
3F0
100
AcDbEntity
  8
RACCORDO
100
AcDbLine
 62
7
  6
CONTINUOUS
 10
5.3107434805
 20
53.1025243775
 11
5.3107438877
 21
49.5349089622
  0
LINE
  5
3F1
100
AcDbEntity
  8
RACCORDO
100
AcDbLine
 62
7
  6
CONTINUOUS
 10
5.7
 20
70.350711736
 11
5.7
 21
60.0519791017
  0
LINE
  5
3F2
100
AcDbEntity
  8
RACCORDO
100
AcDbLine
 62
7
  6
CONTINUOUS
 10
5.7
 20
52.614942711
 11
5.7
 21
49.462091566
  0
LINE
  5
3F3
100
AcDbEntity
  8
RACCORDO
100
AcDbLine
 62
7
  6
CONTINUOUS
 10
6.0858595293
 20
49.5781897257
 11
6.0858595293
 21
52.614942711
  0
LINE
  5
3F4
100
AcDbEntity
  8
RACCORDO
100
AcDbLine
 62
7
  6
CONTINUOUS
 10
6.0869729761
 20
60.0519791017
 11
6.0869729761
 21
70.4615004071
  0
LINE
  5
3F5
100
AcDbEntity
  8
0
100
AcDbLine
 62
7
  6
CONTINUOUS
 10
6.85
 20
79.5543530398
 11
6.85
 21
79.3189450317
  0
LINE
  5
3F6
100
AcDbEntity
  8
DRAFT
100
AcDbLine
 62
7
  6
CONTINUOUS
 10
5.3055769489
 20
70.5699542791
 11
5.3010132919
 21
60.8328608785
  0
LINE
  5
3F7
100
AcDbEntity
  8
DRAFT
100
AcDbLine
 62
7
  6
CONTINUOUS
 10
5.3010132919
 20
60.8328608785
 11
5.3
 21
59.534574438
  0
LINE
  5
3F8
100
AcDbEntity
  8
DRAFT
100
AcDbLine
 62
7
  6
CONTINUOUS
 10
5.3033417615
 20
53.127890406
 11
5.3000480383
 21
49.5369475812
  0
LINE
  5
3F9
100
AcDbEntity
  8
RACCORDO
100
AcDbLine
 62
250
  6
CONTINUOUS
 10
4.3307894673
 20
86.280961498
 11
4.3312899524
 21
86.9542354449
  0
LINE
  5
3FA
100
AcDbEntity
  8
RACCORDO
100
AcDbLine
 62
250
  6
CONTINUOUS
 10
5.1973099878
 20
52.7855786546
 11
5.1972636802
 21
52.7600273282
  0
LINE
  5
3FB
100
AcDbEntity
  8
RACCORDO
100
AcDbLine
 62
7
  6
CONTINUOUS
 10
5.1999798898
 20
49.7150320152
 11
5.2
 21
53.596902321
  0
LINE
  5
3FC
100
AcDbEntity
  8
RACCORDO
100
AcDbLine
 62
250
  6
CONTINUOUS
 10
4.6307780443
 20
86.6037808128
 11
4.6309989173
 21
86.7013197168
  0
LINE
  5
3FD
100
AcDbEntity
  8
RACCORDO
100
AcDbLine
 62
250
  6
CONTINUOUS
 10
5.100038344
 20
53.2590926241
 11
5.0971541088
 21
52.8189069083
  0
LINE
  5
3FE
100
AcDbEntity
  8
RACCORDO
100
AcDbLine
 62
250
  6
CONTINUOUS
 10
5.0972098319
 20
52.7474926241
 11
5.0946532124
 21
52.3573069083
  0
LINE
  5
3FF
100
AcDbEntity
  8
RACCORDO
100
AcDbLine
 62
250
  6
CONTINUOUS
 10
5.0948775467
 20
52.2689080221
 11
5.0914307922
 21
51.7428718409
  0
LINE
  5
400
100
AcDbEntity
  8
RACCORDO
100
AcDbLine
 62
250
  6
CONTINUOUS
 10
5.0917606594
 20
51.6439396213
 11
5.088656882
 21
51.1702478492
  0
LINE
  5
401
100
AcDbEntity
  8
RACCORDO
100
AcDbLine
 62
250
  6
CONTINUOUS
 10
5.0896199468
 20
51.0081156296
 11
5.0867349724
 21
50.5678171065
  0
LINE
  5
402
100
AcDbEntity
  8
RACCORDO
100
AcDbLine
 62
250
  6
CONTINUOUS
 10
5.0855722062
 20
50.0279660933
 11
5.0879091031
 21
50.3846182203
  0
LINE
  5
403
100
AcDbEntity
  8
RACCORDO
100
AcDbLine
 62
250
  6
CONTINUOUS
 10
5.0844509516
 20
49.6704657332
 11
5.086063521
 21
49.9165725887
  0
LINE
  5
404
100
AcDbEntity
  8
DRAFT
100
AcDbLine
 62
7
  6
CONTINUOUS
 10
5.2
 20
53.596902321
 11
5.1982544935
 21
53.3305069083
  0
LINE
  5
405
100
AcDbEntity
  8
RACCORDO
100
AcDbLine
 62
250
  6
CONTINUOUS
 10
5.1998646565
 20
53.2345815913
 11
5.1971367327
 21
52.8182517908
  0
LINE
  5
406
100
AcDbEntity
  8
RACCORDO
100
AcDbLine
 62
250
  6
CONTINUOUS
 10
5.1972636802
 20
52.7600273282
 11
5.1946358364
 21
52.3566517908
  0
LINE
  5
407
100
AcDbEntity
  8
RACCORDO
100
AcDbLine
 62
250
  6
CONTINUOUS
 10
5.1951216618
 20
52.3081611324
 11
5.1914134162
 21
51.7422167233
  0
LINE
  5
408
100
AcDbEntity
  8
RACCORDO
100
AcDbLine
 62
250
  6
CONTINUOUS
 10
5.1920047746
 20
51.6831927316
 11
5.1886395059
 21
51.1695927316
  0
LINE
  5
409
100
AcDbEntity
  8
RACCORDO
100
AcDbLine
 62
250
  6
CONTINUOUS
 10
5.1898640619
 20
51.04736874
 11
5.1867175963
 21
50.5671619889
  0
LINE
  5
40A
100
AcDbEntity
  8
RACCORDO
100
AcDbLine
 62
250
  6
CONTINUOUS
 10
5.1855548301
 20
50.0273109757
 11
5.1881532182
 21
50.4238713306
  0
LINE
  5
40B
100
AcDbEntity
  8
RACCORDO
100
AcDbLine
 62
250
  6
CONTINUOUS
 10
5.1843219849
 20
49.6527799096
 11
5.1863175052
 21
49.9573318864
  0
LINE
  5
40C
100
AcDbEntity
  8
RACCORDO
100
AcDbLine
 62
250
  6
CONTINUOUS
 10
4.3331351886
 20
87.1694015316
 11
4.3337377919
 21
87.2838420994
  0
LINE
  5
40D
100
AcDbEntity
  8
RACCORDO
100
AcDbLine
 62
250
  6
CONTINUOUS
 10
4.3312899524
 20
86.9542354449
 11
4.3331351886
 21
87.1694015316
  0
LINE
  5
40E
100
AcDbEntity
  8
RACCORDO
100
AcDbLine
 62
7
  6
CONTINUOUS
 10
5.1994862458
 20
49.6501077587
 11
5.1999798898
 21
49.7150320152
  0
LINE
  5
40F
100
AcDbEntity
  8
RACCORDO
100
AcDbLine
 62
250
  6
CONTINUOUS
 10
7.4193190729
 20
87.8205030146
 11
7.4203881485
 21
87.9743867766
  0
LINE
  5
410
100
AcDbEntity
  8
RACCORDO
100
AcDbLine
 62
250
  6
CONTINUOUS
 10
4.6309989173
 20
86.7013197168
 11
4.6332272021
 21
86.9703729693
  0
LINE
  5
411
100
AcDbEntity
  8
DRAFT
100
AcDbLine
 62
7
  6
CONTINUOUS
 10
5.1669200021
 20
60.034574438
 11
5.1612349439
 21
59.5131410501
  0
LINE
  5
412
100
AcDbEntity
  8
RACCORDO
100
AcDbLine
 62
250
  6
CONTINUOUS
 10
4.6332272021
 20
86.9703729693
 11
4.6334596061
 21
86.9896786348
  0
LINE
  5
413
100
AcDbEntity
  8
RACCORDO
100
AcDbLine
 62
250
  6
CONTINUOUS
 10
7.4186243965
 20
87.7625660564
 11
7.4193190729
 21
87.8205030146
  0
LWPOLYLINE
  5
414
100
AcDbEntity
  8
0
100
AcDbPolyline
 62
7
  6
CONTINUOUS
 90
10
 70
0
 10
8.058852002
 20
77.7029007652
 10
8.0592072014
 20
77.7288759612
 10
8.0601187664
 20
77.754349518
 10
8.0615866973
 20
77.7793214356
 10
8.0636464619
 20
77.8038871966
 10
8.0662625922
 20
77.8279513184
 10
8.0693286843
 20
77.8512273528
 10
8.0728092702
 20
77.8736198168
 10
8.0767398178
 20
77.8952241934
 10
8.0811203271
 20
77.9160404825
  0
LWPOLYLINE
  5
415
100
AcDbEntity
  8
RACCORDO
100
AcDbPolyline
 62
250
  6
CONTINUOUS
 90
4
 70
0
 10
4.3337377919
 20
87.2838420994
 10
4.3340358534
 20
87.3092240262
 10
4.3341964574
 20
87.3162314898
 10
4.334364846
 20
87.318927861
  0
LINE
  5
416
100
AcDbEntity
  8
RACCORDO
100
AcDbLine
 62
250
  6
CONTINUOUS
 10
7.8564812139
 20
52.7670382448
 11
7.8465379703
 21
52.2305143266
  0
LINE
  5
417
100
AcDbEntity
  8
RACCORDO
100
AcDbLine
 62
250
  6
CONTINUOUS
 10
8.0042023768
 20
52.7513589753
 11
7.9942591244
 21
52.2148345743
  0
LWPOLYLINE
  5
418
100
AcDbEntity
  8
RACCORDO
100
AcDbPolyline
 62
250
  6
CONTINUOUS
 90
6
 70
0
 10
4.6334596061
 20
86.9896786348
 10
4.6337266175
 20
87.0049772163
 10
4.6338720395
 20
87.0106802117
 10
4.6340248395
 20
87.0148490697
 10
4.6341853007
 20
87.0176020938
 10
4.634353423
 20
87.018939284
  0
LWPOLYLINE
  5
419
100
AcDbEntity
  8
RACCORDO
100
AcDbPolyline
 62
7
  6
CONTINUOUS
 90
10
 70
0
 10
6.0999166395
 20
49.5754572065
 10
6.0990720038
 20
49.5329485654
 10
6.0964031604
 20
49.4905409819
 10
6.0919101095
 20
49.4482344562
 10
6.0855596632
 20
49.4058619346
 10
6.0773850093
 20
49.3635904707
 10
6.0674857113
 20
49.3219212253
 10
6.055894957
 20
49.281021252
 10
6.0425795587
 20
49.2407234972
 10
6.0275395162
 20
49.2010279609
  0
LWPOLYLINE
  5
41A
100
AcDbEntity
  8
RACCORDO
100
AcDbPolyline
 62
250
  6
CONTINUOUS
 90
5
 70
0
 10
7.6169857575
 20
87.4959686233
 10
7.6174226695
 20
87.5111055367
 10
7.6178398609
 20
87.532225707
 10
7.6182373318
 20
87.5590268685
 10
7.6193114212
 20
87.669931588
  0
LWPOLYLINE
  5
41B
100
AcDbEntity
  8
RACCORDO
100
AcDbPolyline
 62
250
  6
CONTINUOUS
 90
5
 70
0
 10
7.7830142392
 20
88.9731802528
 10
7.782592452
 20
88.9586684129
 10
7.7821885658
 20
88.9385535779
 10
7.7818025806
 20
88.9130936488
 10
7.7810809452
 20
88.8475289737
  0
LWPOLYLINE
  5
41C
100
AcDbEntity
  8
0
100
AcDbPolyline
 62
7
  6
CONTINUOUS
 90
10
 70
0
 10
7.0122406542
 20
77.8587790751
 10
7.0128259408
 20
77.8775674599
 10
7.0141935598
 20
77.8954181853
 10
7.0163435111
 20
77.9123312511
 10
7.0192906251
 20
77.9281604717
 10
7.0230200715
 20
77.9430520328
 10
7.0274873593
 20
77.9574444917
 10
7.032677658
 20
77.9714840341
 10
7.0386057981
 20
77.9850244742
 10
7.0452717795
 20
77.9980658122
  0
LWPOLYLINE
  5
41D
100
AcDbEntity
  8
0
100
AcDbPolyline
 62
7
  6
CONTINUOUS
 90
10
 70
0
 10
8.9877593286
 20
83.6230942899
 10
8.9868669494
 20
83.5981162436
 10
8.984779547
 20
83.5749422374
 10
8.9814971215
 20
83.5535722714
 10
8.9769492996
 20
83.5341466532
 10
8.9712064547
 20
83.5165250752
 10
8.9644797067
 20
83.500286614
 10
8.9568394291
 20
83.485290962
 10
8.9482152485
 20
83.4716784267
 10
8.9386071649
 20
83.4594490083
  0
LWPOLYLINE
  5
41E
100
AcDbEntity
  8
0
100
AcDbPolyline
 62
7
  6
CONTINUOUS
 90
10
 70
0
 10
8.9877593286
 20
82.1851967269
 10
8.9868669494
 20
82.1602186806
 10
8.984779547
 20
82.1370446744
 10
8.9814971215
 20
82.1156747084
 10
8.9769492996
 20
82.0962490902
 10
8.9712064547
 20
82.0786275122
 10
8.9644797067
 20
82.0623890511
 10
8.9568394291
 20
82.047393399
 10
8.9482152485
 20
82.0337808637
 10
8.9386071649
 20
82.0215514453
  0
LWPOLYLINE
  5
41F
100
AcDbEntity
  8
0
100
AcDbPolyline
 62
7
  6
CONTINUOUS
 90
10
 70
0
 10
8.9877593286
 20
80.7472991639
 10
8.9868669519
 20
80.7223210858
 10
8.9847795545
 20
80.6991470643
 10
8.9814971365
 20
80.6777770993
 10
8.9769493284
 20
80.6583515101
 10
8.9712064996
 20
80.6407299776
 10
8.9644797581
 20
80.6244915442
 10
8.9568394731
 20
80.609495891
 10
8.9482152754
 20
80.595883337
 10
8.9386071649
 20
80.5836538823
  0
LWPOLYLINE
  5
420
100
AcDbEntity
  8
RACCORDO
100
AcDbPolyline
 62
250
  6
CONTINUOUS
 90
4
 70
0
 10
7.4169934091
 20
87.6929301739
 10
7.4174302525
 20
87.7044458101
 10
7.4178474028
 20
87.7198600478
 10
7.4186243965
 20
87.7625660564
  0
LWPOLYLINE
  5
421
100
AcDbEntity
  8
RACCORDO
100
AcDbPolyline
 62
250
  6
CONTINUOUS
 90
6
 70
0
 10
7.9830065909
 20
88.7762187022
 10
7.9825848656
 20
88.7652197449
 10
7.9821810165
 20
88.7505319083
 10
7.9817950436
 20
88.7321551925
 10
7.981425249
 20
88.7099295236
 10
7.9807443821
 20
88.6548917695
  0
LWPOLYLINE
  5
422
100
AcDbEntity
  8
0
100
AcDbPolyline
 62
7
  6
CONTINUOUS
 90
10
 70
0
 10
7.0122406542
 20
83.6262753421
 10
7.0132436749
 20
83.6493563736
 10
7.0154808099
 20
83.6710738889
 10
7.0189520591
 20
83.6914278881
 10
7.0237235932
 20
83.7103083843
 10
7.0297292415
 20
83.7278253644
 10
7.036770492
 20
83.7443087882
 10
7.0447811738
 20
83.7598686422
 10
7.0538274577
 20
83.77439494
 10
7.0639093436
 20
83.7878876814
  0
LWPOLYLINE
  5
423
100
AcDbEntity
  8
0
100
AcDbPolyline
 62
7
  6
CONTINUOUS
 90
10
 70
0
 10
7.0122406542
 20
82.1883777791
 10
7.0132436749
 20
82.2114588106
 10
7.0154808099
 20
82.233176326
 10
7.0189520591
 20
82.2535303251
 10
7.0237235932
 20
82.2724108214
 10
7.0297292415
 20
82.2899278014
 10
7.036770492
 20
82.3064112252
 10
7.0447811738
 20
82.3219710792
 10
7.0538274577
 20
82.336497377
 10
7.0639093436
 20
82.3499901184
  0
LWPOLYLINE
  5
424
100
AcDbEntity
  8
0
100
AcDbPolyline
 62
7
  6
CONTINUOUS
 90
10
 70
0
 10
7.0122406542
 20
80.7504802161
 10
7.0132436624
 20
80.7735610941
 10
7.0154807872
 20
80.7952784959
 10
7.0189520287
 20
80.8156324215
 10
7.0237235543
 20
80.8345128884
 10
7.0297291965
 20
80.8520298792
 10
7.0367704533
 20
80.8685133413
 10
7.0447811572
 20
80.8840732573
 10
7.0538274758
 20
80.8985996446
 10
7.0639094089
 20
80.9120925033
  0
LINE
  5
425
100
AcDbEntity
  8
RACCORDO
100
AcDbLine
 62
250
  6
CONTINUOUS
 10
7.4
 20
87.3495771424
 11
7.4169934091
 21
87.6929301739
  0
LINE
  5
426
100
AcDbEntity
  8
RACCORDO
100
AcDbLine
 62
250
  6
CONTINUOUS
 10
7.5997045347
 20
87.1467995648
 11
7.6169857937
 21
87.4959686233
  0
LINE
  5
427
100
AcDbEntity
  8
RACCORDO
100
AcDbLine
 62
250
  6
CONTINUOUS
 10
7.8002954653
 20
89.3223493112
 11
7.7830142063
 21
88.9731802528
  0
LINE
  5
428
100
AcDbEntity
  8
RACCORDO
100
AcDbLine
 62
250
  6
CONTINUOUS
 10
8.0
 20
89.1195717336
 11
7.9830065909
 21
88.7762187022
  0
LWPOLYLINE
  5
429
100
AcDbEntity
  8
RACCORDO
100
AcDbPolyline
 62
250
  6
CONTINUOUS
 90
13
 70
0
 10
7.4169934091
 20
88.7762187022
 10
7.4187405958
 20
88.801902713
 10
7.4238732807
 20
88.8271481097
 10
7.4323038112
 20
88.8515237681
 10
7.4438882164
 20
88.8746134174
 10
7.4584286655
 20
88.8960227479
 10
7.4756768467
 20
88.9153861455
 10
7.4953382072
 20
88.9323729353
 10
7.5170769834
 20
88.9466930281
 10
7.5405219353
 20
88.958101875
 10
7.5652726856
 20
88.9664046433
 10
7.5909065577
 20
88.971459544
 10
7.6169857937
 20
88.9731802528
  0
LWPOLYLINE
  5
42A
100
AcDbEntity
  8
RACCORDO
100
AcDbPolyline
 62
250
  6
CONTINUOUS
 90
13
 70
0
 10
7.9830065909
 20
87.6929301739
 10
7.9812594041
 20
87.6672461629
 10
7.9761267192
 20
87.6420007662
 10
7.9676961887
 20
87.6176251076
 10
7.9561117835
 20
87.5945354582
 10
7.9415713343
 20
87.5731261276
 10
7.924323153
 20
87.5537627298
 10
7.9046617925
 20
87.5367759399
 10
7.8829230163
 20
87.522455847
 10
7.8594780645
 20
87.5110470002
 10
7.8347273142
 20
87.502744232
 10
7.8090934421
 20
87.4976893316
 10
7.7830142063
 20
87.4959686233
  0
LWPOLYLINE
  5
42B
100
AcDbEntity
  8
RACCORDO
100
AcDbPolyline
 62
250
  6
CONTINUOUS
 90
13
 70
0
 10
8.3461056179
 20
52.6497387382
 10
8.3475290622
 20
52.6691791565
 10
8.3514268603
 20
52.6882907763
 10
8.3577330879
 20
52.70675036
 10
8.3663410871
 20
52.7242456981
 10
8.3771052694
 20
52.7404808897
 10
8.3898435788
 20
52.7551813465
 10
8.4043405705
 20
52.7680984379
 10
8.4203510547
 20
52.7790136952
 10
8.437604244
 20
52.7877425074
 10
8.4558083329
 20
52.7941372426
 10
8.474655433
 20
52.7980897461
 10
8.4938267808
 20
52.7995331684
  0
LWPOLYLINE
  5
42C
100
AcDbEntity
  8
RACCORDO
100
AcDbPolyline
 62
7
  6
CONTINUOUS
 90
16
 70
0
 10
-5.1881532182
 20
50.4238713306
 10
-5.1873578904
 20
50.4196416501
 10
-5.1854229362
 20
50.4154171129
 10
-5.1823820606
 20
50.411280036
 10
-5.1782749945
 20
50.4073316514
 10
-5.1731625542
 20
50.4036242844
 10
-5.1671383064
 20
50.4001559507
 10
-5.1602971382
 20
50.3969763448
 10
-5.1527260885
 20
50.3941414444
 10
-5.1445292249
 20
50.3916418777
 10
-5.135815634
 20
50.3895012501
 10
-5.126683765
 20
50.387750789
 10
-5.11722386
 20
50.386382137
 10
-5.1075336374
 20
50.3853985039
 10
-5.0977193743
 20
50.384811728
 10
-5.08788062
 20
50.3846182203
  0
LWPOLYLINE
  5
42D
100
AcDbEntity
  8
RACCORDO
100
AcDbPolyline
 62
7
  6
CONTINUOUS
 90
16
 70
0
 10
-5.1898640619
 20
51.04736874
 10
-5.1890687341
 20
51.0431390594
 10
-5.1871337799
 20
51.0389145223
 10
-5.1840929043
 20
51.0347774454
 10
-5.1799858382
 20
51.0308290607
 10
-5.1748733979
 20
51.0271216937
 10
-5.1688491501
 20
51.0236533601
 10
-5.1620079818
 20
51.0204737542
 10
-5.1544369322
 20
51.0176388537
 10
-5.1462400686
 20
51.0151392871
 10
-5.1375264777
 20
51.0129986594
 10
-5.1283946087
 20
51.0112481983
 10
-5.1189347037
 20
51.0098795463
 10
-5.1092444811
 20
51.0088959133
 10
-5.099430218
 20
51.0083091373
 10
-5.0895914637
 20
51.0081156296
  0
LWPOLYLINE
  5
42E
100
AcDbEntity
  8
RACCORDO
100
AcDbPolyline
 62
7
  6
CONTINUOUS
 90
16
 70
0
 10
-5.1920047746
 20
51.6831927316
 10
-5.1912094467
 20
51.6789630511
 10
-5.1892744925
 20
51.6747385139
 10
-5.1862336169
 20
51.670601437
 10
-5.1821265508
 20
51.6666530524
 10
-5.1770141105
 20
51.6629456854
 10
-5.1709898627
 20
51.6594773517
 10
-5.1641486945
 20
51.6562977458
 10
-5.1565776448
 20
51.6534628454
 10
-5.1483807812
 20
51.6509632787
 10
-5.1396671903
 20
51.6488226511
 10
-5.1305353213
 20
51.64707219
 10
-5.1210754163
 20
51.6457035379
 10
-5.1113851937
 20
51.6447199049
 10
-5.1015709306
 20
51.644133129
 10
-5.0917321763
 20
51.6439396213
  0
LWPOLYLINE
  5
42F
100
AcDbEntity
  8
RACCORDO
100
AcDbPolyline
 62
7
  6
CONTINUOUS
 90
16
 70
0
 10
-5.1951216618
 20
52.3081611324
 10
-5.194326334
 20
52.3039314519
 10
-5.1923913798
 20
52.2997069147
 10
-5.1893505042
 20
52.2955698378
 10
-5.1852434381
 20
52.2916214532
 10
-5.1801309978
 20
52.2879140862
 10
-5.17410675
 20
52.2844457525
 10
-5.1672655818
 20
52.2812661466
 10
-5.1596945321
 20
52.2784312462
 10
-5.1514976685
 20
52.2759316795
 10
-5.1427840776
 20
52.2737910519
 10
-5.1336522086
 20
52.2720405908
 10
-5.1241923036
 20
52.2706719388
 10
-5.114502081
 20
52.2696883057
 10
-5.1046878179
 20
52.2691015298
 10
-5.0948490636
 20
52.2689080221
  0
LINE
  5
430
100
AcDbEntity
  8
0
100
AcDbLine
 62
7
  6
CONTINUOUS
 10
0.698858
 20
88.096581438
 11
0.483802
 21
90.396371438
  0
LWPOLYLINE
  5
431
100
AcDbEntity
  8
RACCORDO
100
AcDbPolyline
 62
250
  6
CONTINUOUS
 90
13
 70
0
 10
8.3461056179
 20
52.3194101379
 10
8.3475291953
 20
52.2999687492
 10
8.3514273356
 20
52.2808563438
 10
8.3577340508
 20
52.2623961896
 10
8.3663426292
 20
52.2449004882
 10
8.3771074093
 20
52.2286651657
 10
8.3898462178
 20
52.2139648501
 10
8.4043435255
 20
52.201048127
 10
8.4203540894
 20
52.1901333866
 10
8.4376070397
 20
52.1814051749
 10
8.4558105307
 20
52.1750110188
 10
8.474656689
 20
52.1710589514
 10
8.4938267808
 20
52.1696157076
  0
LWPOLYLINE
  5
432
100
AcDbEntity
  8
RACCORDO
100
AcDbPolyline
 62
7
  6
CONTINUOUS
 90
13
 70
0
 10
5.1016625758
 20
70.4335736284
 10
5.1010465261
 20
70.4444806207
 10
5.0995726533
 20
70.4550153159
 10
5.0972409573
 20
70.4651777142
 10
5.0939966817
 20
70.4750449227
 10
5.089894583
 20
70.4845398342
 10
5.0850989302
 20
70.4934311273
 10
5.0796028149
 20
70.5016892543
 10
5.0734131456
 20
70.5093437629
 10
5.0667149163
 20
70.516251975
 10
5.0595697917
 20
70.5223663313
 10
5.051916107
 20
70.5277343911
 10
5.0437538623
 20
70.5323561544
  0
LINE
  5
433
100
AcDbEntity
  8
RACCORDO
100
AcDbLine
 62
250
  6
CONTINUOUS
 10
7.4169934091
 20
88.7762187022
 11
7.4
 21
89.1195717336
  0
LINE
  5
434
100
AcDbEntity
  8
RACCORDO
100
AcDbLine
 62
250
  6
CONTINUOUS
 10
7.6169857937
 20
88.9731802528
 11
7.5997045347
 21
89.3223493112
  0
LINE
  5
435
100
AcDbEntity
  8
RACCORDO
100
AcDbLine
 62
250
  6
CONTINUOUS
 10
7.7830142063
 20
87.4959686233
 11
7.8002954653
 21
87.1467995648
  0
LINE
  5
436
100
AcDbEntity
  8
RACCORDO
100
AcDbLine
 62
250
  6
CONTINUOUS
 10
7.9830065909
 20
87.6929301739
 11
8.0
 21
87.3495771424
  0
LWPOLYLINE
  5
437
100
AcDbEntity
  8
0
100
AcDbPolyline
 62
7
  6
CONTINUOUS
 90
10
 70
0
 10
6.8118257284
 20
77.8651414537
 10
6.8150360829
 20
77.7946923514
 10
6.8216570509
 20
77.7306560966
 10
6.8316886323
 20
77.6730326894
 10
6.8454464478
 20
77.6224420415
 10
6.8626148768
 20
77.5782642411
 10
6.882247057
 20
77.538639553
 10
6.9040273676
 20
77.5029480655
 10
6.9282714295
 20
77.4718096903
 10
6.9549792426
 20
77.4452244274
  0
LWPOLYLINE
  5
438
100
AcDbEntity
  8
RACCORDO
100
AcDbPolyline
 62
250
  6
CONTINUOUS
 90
16
 70
0
 10
7.8465379703
 20
52.2305143266
 10
7.84778913
 20
52.1986358282
 10
7.8520939231
 20
52.1678556683
 10
7.8594523496
 20
52.1381738471
 10
7.8700111432
 20
52.1093335004
 10
7.8836235703
 20
52.0815914923
 10
7.8998494294
 20
52.0557184148
 10
7.9186617952
 20
52.0317830516
 10
7.940087593
 20
52.009716619
 10
7.9637673979
 20
51.9900833581
 10
7.9899373604
 20
51.9728241411
 10
8.0183613299
 20
51.9579980958
 10
8.047971429
 20
51.9463468466
 10
8.0784116983
 20
51.9381176015
 10
8.1100380971
 20
51.9330631524
 10
8.1428506254
 20
51.9311834994
  0
LWPOLYLINE
  5
439
100
AcDbEntity
  8
RACCORDO
100
AcDbPolyline
 62
7
  6
CONTINUOUS
 90
16
 70
0
 10
6.0869729761
 20
70.4615004071
 10
6.0844431585
 20
70.5333269049
 10
6.076785995
 20
70.6043688969
 10
6.0640014858
 20
70.6746263832
 10
6.0459182577
 20
70.7446381396
 10
6.0227076838
 20
70.8138653901
 10
5.9948838829
 20
70.8806918075
 10
5.9625054047
 20
70.9447627038
 10
5.9255136996
 20
71.0064327669
 10
5.8842472367
 20
71.0651497323
 10
5.8384306937
 20
71.1211262277
 10
5.788339393
 20
71.1741496255
 10
5.7351377711
 20
71.2230297779
 10
5.6792139734
 20
71.2673699692
 10
5.6201798545
 20
71.3075669152
 10
5.5580354143
 20
71.3436206159
  0
LWPOLYLINE
  5
43A
100
AcDbEntity
  8
0
100
AcDbPolyline
 62
7
  6
CONTINUOUS
 90
10
 70
0
 10
6.8118257284
 20
80.7504802161
 10
6.8133100958
 20
80.7054229476
 10
6.8164733958
 20
80.6634472695
 10
6.8213156286
 20
80.6245531819
 10
6.8279780798
 20
80.5890234509
 10
6.8363194638
 20
80.5565753103
 10
6.8459159228
 20
80.5263604618
 10
6.8566261711
 20
80.4980961392
 10
6.8685914945
 20
80.4720651085
 10
6.881811893
 20
80.4482673698
  0
LWPOLYLINE
  5
43B
100
AcDbEntity
  8
0
100
AcDbPolyline
 62
7
  6
CONTINUOUS
 90
10
 70
0
 10
6.8118257284
 20
82.1883777791
 10
6.8133100935
 20
82.1433205607
 10
6.8164733895
 20
82.1013449342
 10
6.8213156165
 20
82.0624508998
 10
6.8279780572
 20
82.026921232
 10
6.8363194289
 20
81.9944731561
 10
6.8459158832
 20
81.9642583482
 10
6.8566261372
 20
81.9359940333
 10
6.8685914738
 20
81.9099629862
 10
6.881811893
 20
81.886165207
  0
LWPOLYLINE
  5
43C
100
AcDbEntity
  8
0
100
AcDbPolyline
 62
7
  6
CONTINUOUS
 90
10
 70
0
 10
6.8118257284
 20
83.6262753421
 10
6.8133100935
 20
83.5812181237
 10
6.8164733895
 20
83.5392424972
 10
6.8213156165
 20
83.5003484627
 10
6.8279780572
 20
83.464818795
 10
6.8363194289
 20
83.4323707191
 10
6.8459158832
 20
83.4021559111
 10
6.8566261372
 20
83.3738915963
 10
6.8685914738
 20
83.3478605492
 10
6.881811893
 20
83.32406277
  0
LWPOLYLINE
  5
43D
100
AcDbEntity
  8
0
100
AcDbPolyline
 62
7
  6
CONTINUOUS
 90
10
 70
0
 10
9.1881742759
 20
80.7472991639
 10
9.1866722742
 20
80.7931628944
 10
9.1833851582
 20
80.8359060842
 10
9.1783129278
 20
80.8755287334
 10
9.1712846656
 20
80.9118471359
 10
9.162471289
 20
80.9450449978
 10
9.1523855503
 20
80.9756734369
 10
9.1411983671
 20
81.0039161593
 10
9.1287388218
 20
81.029589459
 10
9.1150069144
 20
81.0526933359
  0
LWPOLYLINE
  5
43E
100
AcDbEntity
  8
0
100
AcDbPolyline
 62
7
  6
CONTINUOUS
 90
10
 70
0
 10
9.1881742759
 20
82.1851967269
 10
9.1866722742
 20
82.2310604574
 10
9.1833851582
 20
82.2738036472
 10
9.1783129278
 20
82.3134262963
 10
9.1712846656
 20
82.3497446989
 10
9.162471289
 20
82.3829425608
 10
9.1523855503
 20
82.4135709999
 10
9.1411983671
 20
82.4418137223
 10
9.1287388218
 20
82.4674870219
 10
9.1150069144
 20
82.4905908988
  0
LWPOLYLINE
  5
43F
100
AcDbEntity
  8
0
100
AcDbPolyline
 62
7
  6
CONTINUOUS
 90
10
 70
0
 10
9.1881742759
 20
83.6230942899
 10
9.1866722742
 20
83.6689580203
 10
9.1833851582
 20
83.7117012102
 10
9.1783129278
 20
83.7513238593
 10
9.1712846656
 20
83.7876422619
 10
9.162471289
 20
83.8208401237
 10
9.1523855503
 20
83.8514685629
 10
9.1411983671
 20
83.8797112853
 10
9.1287388218
 20
83.9053845849
 10
9.1150069144
 20
83.9284884618
  0
LWPOLYLINE
  5
440
100
AcDbEntity
  8
RACCORDO
100
AcDbPolyline
 62
250
  6
CONTINUOUS
 90
4
 70
0
 10
7.4180647111
 20
88.7394111912
 10
7.4177299494
 20
88.7538215089
 10
7.4173728487
 20
88.7660906792
 10
7.4169934091
 20
88.7762187022
  0
LWPOLYLINE
  5
441
100
AcDbEntity
  8
RACCORDO
100
AcDbPolyline
 62
250
  6
CONTINUOUS
 90
4
 70
0
 10
7.9818524816
 20
87.7339468676
 10
7.982211363
 20
87.717812369
 10
7.9825960661
 20
87.7041401378
 10
7.9830065909
 20
87.6929301739
  0
LWPOLYLINE
  5
442
100
AcDbEntity
  8
0
100
AcDbPolyline
 62
7
  6
CONTINUOUS
 90
10
 70
0
 10
9.1849930844
 20
77.8492355072
 10
9.1841535014
 20
77.8874891432
 10
9.1821404258
 20
77.9235997477
 10
9.1789538576
 20
77.9575673207
 10
9.1745166064
 20
77.9892708438
 10
9.1689058627
 20
78.0188313354
 10
9.1623531973
 20
78.046611851
 10
9.1549358005
 20
78.0727334092
 10
9.146576482
 20
78.0970749914
 10
9.1372752417
 20
78.1196365976
  0
LWPOLYLINE
  5
443
100
AcDbEntity
  8
RACCORDO
100
AcDbPolyline
 62
250
  6
CONTINUOUS
 90
3
 70
0
 10
7.6177223994
 20
88.9433677403
 10
7.6173652753
 20
88.9602884914
 10
7.6169857937
 20
88.9731802528
  0
LWPOLYLINE
  5
444
100
AcDbEntity
  8
RACCORDO
100
AcDbPolyline
 62
250
  6
CONTINUOUS
 90
3
 70
0
 10
7.7822188957
 20
87.5290076654
 10
7.7826036284
 20
87.5101310372
 10
7.7830142063
 20
87.4959686233
  0
LINE
  5
445
100
AcDbEntity
  8
RACCORDO
100
AcDbLine
 62
250
  6
CONTINUOUS
 10
7.4186597813
 20
88.7043574567
 11
7.4180647111
 21
88.7394111912
  0
LINE
  5
446
100
AcDbEntity
  8
RACCORDO
100
AcDbLine
 62
250
  6
CONTINUOUS
 10
7.9812196733
 20
87.7734746699
 11
7.9818524816
 21
87.7339468676
  0
LINE
  5
447
100
AcDbEntity
  8
RACCORDO
100
AcDbLine
 62
250
  6
CONTINUOUS
 10
7.6183658461
 20
88.9001030798
 11
7.6177223994
 21
88.9433677403
  0
LINE
  5
448
100
AcDbEntity
  8
RACCORDO
100
AcDbLine
 62
250
  6
CONTINUOUS
 10
7.781530724
 20
87.5776904051
 11
7.7822188957
 21
87.5290076654
  0
LINE
  5
449
100
AcDbEntity
  8
RACCORDO
100
AcDbLine
 62
250
  6
CONTINUOUS
 10
7.419458403
 20
88.6345546766
 11
7.4186597813
 21
88.7043574567
  0
LINE
  5
44A
100
AcDbEntity
  8
RACCORDO
100
AcDbLine
 62
250
  6
CONTINUOUS
 10
7.9803883017
 20
87.8520633688
 11
7.9812196733
 21
87.7734746699
  0
LWPOLYLINE
  5
44B
100
AcDbEntity
  8
RACCORDO
100
AcDbPolyline
 62
250
  6
CONTINUOUS
 90
16
 70
0
 10
7.9942598751
 20
52.2148347975
 10
7.9943788255
 20
52.1990324906
 10
7.9961961653
 20
52.1834847854
 10
7.9996694086
 20
52.1683540607
 10
8.0047322998
 20
52.1538078368
 10
8.0113172263
 20
52.139980309
 10
8.0193687278
 20
52.1269772857
 10
8.0287708084
 20
52.1149649075
 10
8.0394421299
 20
52.1040294688
 10
8.051407192
 20
52.0941835171
 10
8.0646626041
 20
52.0855191795
 10
8.0790137574
 20
52.0782409883
 10
8.0941879057
 20
52.0725163917
 10
8.1099756099
 20
52.0684267276
 10
8.126254212
 20
52.0660087278
 10
8.1428509851
 20
52.0652989323
  0
LINE
  5
44C
100
AcDbEntity
  8
RACCORDO
100
AcDbLine
 62
250
  6
CONTINUOUS
 10
7.6194507743
 20
88.7798168282
 11
7.6183658461
 21
88.9001030798
  0
LINE
  5
44D
100
AcDbEntity
  8
RACCORDO
100
AcDbLine
 62
250
  6
CONTINUOUS
 10
7.7803959329
 20
87.7130590088
 11
7.781530724
 21
87.5776904051
  0
LINE
  5
44E
100
AcDbEntity
  8
RACCORDO
100
AcDbLine
 62
250
  6
CONTINUOUS
 10
7.4205643279
 20
88.4523275648
 11
7.419458403
 21
88.6345546766
  0
LINE
  5
44F
100
AcDbEntity
  8
RACCORDO
100
AcDbLine
 62
250
  6
CONTINUOUS
 10
7.9793357622
 20
88.0450669515
 11
7.9803883017
 21
87.8520633688
  0
LINE
  5
450
100
AcDbEntity
  8
RACCORDO
100
AcDbLine
 62
250
  6
CONTINUOUS
 10
7.6207113365
 20
88.4685543053
 11
7.6194507743
 21
88.7798168282
  0
LINE
  5
451
100
AcDbEntity
  8
RACCORDO
100
AcDbLine
 62
250
  6
CONTINUOUS
 10
7.7791226784
 20
88.1027024615
 11
7.7803959329
 21
87.7130590088
  0
LINE
  5
452
100
AcDbEntity
  8
0
100
AcDbLine
 62
7
  6
CONTINUOUS
 10
7.3939833701
 20
77.3116144643
 11
7.3939833701
 21
77.5661096254
  0
LINE
  5
453
100
AcDbEntity
  8
RACCORDO
100
AcDbLine
 62
7
  6
CONTINUOUS
 10
7.4
 20
87.3495771424
 11
7.4
 21
89.1195717336
  0
LINE
  5
454
100
AcDbEntity
  8
RACCORDO
100
AcDbLine
 62
7
  6
CONTINUOUS
 10
7.9841533463
 20
88.3199543341
 11
7.9841533463
 21
88.1491945419
  0
LINE
  5
455
100
AcDbEntity
  8
RACCORDO
100
AcDbLine
 62
7
  6
CONTINUOUS
 10
8.0
 20
87.3495771424
 11
8.0
 21
87.934574438
  0
LINE
  5
456
100
AcDbEntity
  8
RACCORDO
100
AcDbLine
 62
7
  6
CONTINUOUS
 10
8.0
 20
88.534574438
 11
8.0
 21
89.1195717336
  0
LINE
  5
457
100
AcDbEntity
  8
RACCORDO
100
AcDbLine
 62
250
  6
CONTINUOUS
 10
8.1428500694
 20
51.9311834994
 11
8.1428500697
 21
52.0652986601
  0
LINE
  5
458
100
AcDbEntity
  8
RACCORDO
100
AcDbLine
 62
250
  6
CONTINUOUS
 10
8.1638273498
 20
53.0630890633
 11
8.1638273498
 21
52.8976153636
  0
LINE
  5
459
100
AcDbEntity
  8
RACCORDO
100
AcDbLine
 62
7
  6
CONTINUOUS
 10
8.2
 20
58.2346505904
 11
8.2
 21
56.2344982856
  0
LINE
  5
45A
100
AcDbEntity
  8
RACCORDO
100
AcDbLine
 62
250
  6
CONTINUOUS
 10
8.3461056179
 20
52.6497387382
 11
8.3461056179
 21
52.3194101379
  0
LINE
  5
45B
100
AcDbEntity
  8
0
100
AcDbLine
 62
7
  6
CONTINUOUS
 10
8.5805670813
 20
77.540660111
 11
8.5805670813
 21
77.2798025628
  0
LINE
  5
45C
100
AcDbEntity
  8
RACCORDO
100
AcDbLine
 62
250
  6
CONTINUOUS
 10
8.8385094944
 20
52.18477325
 11
8.8385094944
 21
52.784375626
  0
LINE
  5
45D
100
AcDbEntity
  8
RACCORDO
100
AcDbLine
 62
7
  6
CONTINUOUS
 10
9.0
 20
88.3293307017
 11
9.0
 21
88.1398181744
  0
LINE
  5
45E
100
AcDbEntity
  8
DRAFT
100
AcDbLine
 62
7
  6
CONTINUOUS
 10
9.1
 20
55.484574438
 11
9.1
 21
52.834574438
  0
LINE
  5
45F
100
AcDbEntity
  8
DRAFT
100
AcDbLine
 62
7
  6
CONTINUOUS
 10
9.1
 20
52.134574438
 11
9.1
 21
49.484574438
  0
LINE
  5
460
100
AcDbEntity
  8
0
100
AcDbLine
 62
7
  6
CONTINUOUS
 10
9.15
 20
79.290314328
 11
9.15
 21
79.5543530398
  0
LINE
  5
461
100
AcDbEntity
  8
RACCORDO
100
AcDbLine
 62
7
  6
CONTINUOUS
 10
9.2272930121
 20
52.3345676802
 11
9.2272930121
 21
52.6345811958
  0
LINE
  5
462
100
AcDbEntity
  8
RACCORDO
100
AcDbLine
 62
7
  6
CONTINUOUS
 10
9.4818790363
 20
53.3376962614
 11
9.4818790363
 21
51.6314526147
  0
LINE
  5
463
100
AcDbEntity
  8
DRAFT
100
AcDbLine
 62
7
  6
CONTINUOUS
 10
9.9860359481
 20
90.8660796909
 11
9.9860359481
 21
88.534574438
  0
LINE
  5
464
100
AcDbEntity
  8
DRAFT
100
AcDbLine
 62
7
  6
CONTINUOUS
 10
9.9860359481
 20
87.934574438
 11
9.9860359481
 21
76.4717171329
  0
LINE
  5
465
100
AcDbEntity
  8
RACCORDO
100
AcDbLine
 62
7
  6
CONTINUOUS
 10
9.9886751346
 20
53.3376962614
 11
9.9886751346
 21
51.6314526147
  0
LINE
  5
466
100
AcDbEntity
  8
RACCORDO
100
AcDbLine
 62
7
  6
CONTINUOUS
 10
10.0
 20
90.8870284282
 11
10.0
 21
88.3293307017
  0
LINE
  5
467
100
AcDbEntity
  8
RACCORDO
100
AcDbLine
 62
7
  6
CONTINUOUS
 10
10.0
 20
88.1398181744
 11
10.0
 21
55.484574438
  0
LINE
  5
468
100
AcDbEntity
  8
0
100
AcDbLine
 62
7
  6
CONTINUOUS
 10
10.0
 20
40.5821204478
 11
10.0
 21
49.484574438
  0
LINE
  5
469
100
AcDbEntity
  8
RACCORDO
100
AcDbLine
 62
7
  6
CONTINUOUS
 10
10.0428653412
 20
63.734574438
 11
10.0428653412
 21
67.734574438
  0
LINE
  5
46A
100
AcDbEntity
  8
0
100
AcDbLine
 62
7
  6
CONTINUOUS
 10
10.1
 20
49.484574438
 11
10.1
 21
50.884574438
  0
LINE
  5
46B
100
AcDbEntity
  8
DRAFT
100
AcDbLine
 62
7
  6
CONTINUOUS
 10
10.1
 20
49.484574438
 11
10.1
 21
51.0726750646
  0
LINE
  5
46C
100
AcDbEntity
  8
DRAFT
100
AcDbLine
 62
7
  6
CONTINUOUS
 10
10.1
 20
53.8964738114
 11
10.1
 21
55.484574438
  0
LINE
  5
46D
100
AcDbEntity
  8
0
100
AcDbLine
 62
7
  6
CONTINUOUS
 10
10.1
 20
54.084574438
 11
10.1
 21
55.484574438
  0
LINE
  5
46E
100
AcDbEntity
  8
DRAFT
100
AcDbLine
 62
7
  6
CONTINUOUS
 10
10.6
 20
51.0979308663
 11
10.6
 21
53.8712180097
  0
LINE
  5
46F
100
AcDbEntity
  8
RACCORDO
100
AcDbLine
 62
7
  6
CONTINUOUS
 10
11.0428653412
 20
63.734574438
 11
11.0428653412
 21
67.734574438
  0
LINE
  5
470
100
AcDbEntity
  8
RACCORDO
100
AcDbLine
 62
7
  6
CONTINUOUS
 10
11.0528653412
 20
91.5876111167
 11
11.0528653412
 21
39.8815377593
  0
LINE
  5
471
100
AcDbEntity
  8
0
100
AcDbLine
 62
7
  6
CONTINUOUS
 10
9.9860359481
 20
76.4717171329
 11
9.9842036882
 21
68.6663696504
  0
LINE
  5
472
100
AcDbEntity
  8
RACCORDO
100
AcDbLine
 62
250
  6
CONTINUOUS
 10
7.4209170324
 20
88.16170485
 11
7.4205643279
 21
88.4523275648
  0
LINE
  5
473
100
AcDbEntity
  8
RACCORDO
100
AcDbLine
 62
250
  6
CONTINUOUS
 10
7.9791114063
 20
88.3286268806
 11
7.9793357622
 21
88.0450669515
  0
LINE
  5
474
100
AcDbEntity
  8
0
100
AcDbLine
 62
7
  6
CONTINUOUS
 10
9.9842036882
 20
68.6663696504
 11
9.9789722336
 21
63.0039299042
  0
LINE
  5
475
100
AcDbEntity
  8
0
100
AcDbLine
 62
7
  6
CONTINUOUS
 10
9.9789722336
 20
63.0039299042
 11
9.9669377998
 21
55.484574438
  0
LINE
  5
476
100
AcDbEntity
  8
0
100
AcDbLine
 62
7
  6
CONTINUOUS
 10
9.9699713981
 20
49.484574438
 11
9.9542531448
 21
40.9169070663
  0
LINE
  5
477
100
AcDbEntity
  8
RACCORDO
100
AcDbLine
 62
250
  6
CONTINUOUS
 10
7.6205682146
 20
87.9406619999
 11
7.6207113365
 21
88.4685543053
  0
LINE
  5
478
100
AcDbEntity
  8
RACCORDO
100
AcDbLine
 62
250
  6
CONTINUOUS
 10
7.7796851162
 20
88.6077606086
 11
7.7791226784
 21
88.1027024615
  0
LINE
  5
479
100
AcDbEntity
  8
RACCORDO
100
AcDbLine
 62
250
  6
CONTINUOUS
 10
7.4203881485
 20
87.9743867766
 11
7.4209170324
 21
88.16170485
  0
LINE
  5
47A
100
AcDbEntity
  8
RACCORDO
100
AcDbLine
 62
250
  6
CONTINUOUS
 10
7.979900451
 20
88.5487504266
 11
7.9791114063
 21
88.3286268806
  0
LINE
  5
47B
100
AcDbEntity
  8
RACCORDO
100
AcDbLine
 62
250
  6
CONTINUOUS
 10
7.6193114212
 20
87.669931588
 11
7.6205682146
 21
87.9406619999
  0
LINE
  5
47C
100
AcDbEntity
  8
RACCORDO
100
AcDbLine
 62
250
  6
CONTINUOUS
 10
7.7810809452
 20
88.8475289737
 11
7.7796851162
 21
88.6077606086
  0
LINE
  5
47D
100
AcDbEntity
  8
RACCORDO
100
AcDbLine
 62
250
  6
CONTINUOUS
 10
7.9807443821
 20
88.6548917695
 11
7.979900451
 21
88.5487504266
  0
LWPOLYLINE
  5
47E
100
AcDbEntity
  8
0
100
AcDbPolyline
 62
7
  6
CONTINUOUS
 90
10
 70
0
 10
8.9845781393
 20
77.8396919393
 10
8.984083902
 20
77.8185342753
 10
8.9828848834
 20
77.7986617385
 10
8.9809810833
 20
77.780074329
 10
8.9783284444
 20
77.7628528002
 10
8.9749710241
 20
77.7469163988
 10
8.9710409951
 20
77.7320228642
 10
8.966582415
 20
77.7180914429
 10
8.9615512262
 20
77.7052028884
 10
8.9559474288
 20
77.6933572007
  0
LWPOLYLINE
  5
47F
100
AcDbEntity
  8
RACCORDO
100
AcDbPolyline
 62
7
  6
CONTINUOUS
 90
10
 70
0
 10
-6.0275395162
 20
49.2010279609
 10
-6.0425806385
 20
49.2407271834
 10
-6.0558967519
 20
49.2810276766
 10
-6.0674878562
 20
49.3219294407
 10
-6.0773870129
 20
49.3635994943
 10
-6.0855611605
 20
49.4058708187
 10
-6.0919111154
 20
49.4482423578
 10
-6.0964038162
 20
49.4905470927
 10
-6.0990723243
 20
49.5329520423
 10
-6.0999166395
 20
49.5754572065
  0
LINE
  5
480
100
AcDbEntity
  8
RACCORDO
100
AcDbLine
 62
7
  6
CONTINUOUS
 10
-5.1772761263
 20
49.587076444
 11
-5.1689619128
 21
49.5645612836
  0
LWPOLYLINE
  5
481
100
AcDbEntity
  8
RACCORDO
100
AcDbPolyline
 62
250
  6
CONTINUOUS
 90
7
 70
0
 10
-5.0844553063
 20
49.6711303498
 10
-5.067408948
 20
49.6242089868
 10
-5.0501307447
 20
49.5779605618
 10
-5.0326206965
 20
49.5323850748
 10
-5.0148788033
 20
49.4874825259
 10
-4.9969050653
 20
49.4432529149
 10
-4.9786994824
 20
49.3996962419
  0
LWPOLYLINE
  5
482
100
AcDbEntity
  8
RACCORDO
100
AcDbPolyline
 62
250
  6
CONTINUOUS
 90
7
 70
0
 10
-5.1843219287
 20
49.6527708921
 10
-5.1679933115
 20
49.6075809866
 10
-5.1506849993
 20
49.5609765003
 10
-5.1323561432
 20
49.5129772749
 10
-5.1129647671
 20
49.4636044995
 10
-5.0924677914
 20
49.412880778
 10
-5.0708210586
 20
49.3608301986
  0
LINE
  5
483
100
AcDbEntity
  8
RACCORDO
100
AcDbLine
 62
7
  6
CONTINUOUS
 10
-5.1846070425
 20
49.6072954838
 11
-5.1772761263
 21
49.587076444
  0
LINE
  5
484
100
AcDbEntity
  8
RACCORDO
100
AcDbLine
 62
7
  6
CONTINUOUS
 10
-5.188880849
 20
49.6192722208
 11
-5.1846070425
 21
49.6072954838
  0
LINE
  5
485
100
AcDbEntity
  8
RACCORDO
100
AcDbLine
 62
7
  6
CONTINUOUS
 10
-5.1926696593
 20
49.6300425082
 11
-5.188880849
 21
49.6192722208
  0
LWPOLYLINE
  5
486
100
AcDbEntity
  8
RACCORDO
100
AcDbPolyline
 62
7
  6
CONTINUOUS
 90
5
 70
0
 10
-5.199486185
 20
49.6500989892
 10
-5.1984689733
 20
49.6470009095
 10
-5.1972829419
 20
49.6434546324
 10
-5.1959271758
 20
49.639460485
 10
-5.1926696593
 20
49.6300425082
  0
LWPOLYLINE
  5
487
100
AcDbEntity
  8
RACCORDO
100
AcDbPolyline
 62
7
  6
CONTINUOUS
 90
16
 70
0
 10
-5.1998646565
 20
53.2345815913
 10
-5.1992008613
 20
53.2322473754
 10
-5.1975289891
 20
53.2308925376
 10
-5.1947757838
 20
53.230517558
 10
-5.1908088783
 20
53.2312636201
 10
-5.1856197947
 20
53.2329904632
 10
-5.1794980754
 20
53.2352752416
 10
-5.1727358553
 20
53.2381593574
 10
-5.1653404404
 20
53.2415994465
 10
-5.1572909928
 20
53.2450447486
 10
-5.1486380718
 20
53.248518719
 10
-5.1395166097
 20
53.2519966869
 10
-5.1299974887
 20
53.2548559319
 10
-5.1201710158
 20
53.2568884434
 10
-5.1101499376
 20
53.2583009015
 10
-5.100038344
 20
53.2590926241
  0
LWPOLYLINE
  5
488
100
AcDbEntity
  8
RACCORDO
100
AcDbPolyline
 62
250
  6
CONTINUOUS
 90
6
 70
0
 10
-4.634353423
 20
87.018939284
 10
-4.6342291054
 20
87.0181506211
 10
-4.6341100835
 20
87.0166188707
 10
-4.6339963572
 20
87.0143440327
 10
-4.6338887858
 20
87.0113119532
 10
-4.6337865101
 20
87.0075367861
  0
LINE
  5
489
100
AcDbEntity
  8
DRAFT
100
AcDbLine
 62
7
  6
CONTINUOUS
 10
9.9542531448
 20
40.9169070663
 11
9.9792140383
 21
40.613303349
  0
LWPOLYLINE
  5
48A
100
AcDbEntity
  8
RACCORDO
100
AcDbPolyline
 62
250
  6
CONTINUOUS
 90
13
 70
0
 10
7.4169934091
 20
87.6929301739
 10
7.4187403942
 20
87.6672476555
 10
7.4238725676
 20
87.6420033752
 10
7.432302414
 20
87.6176284212
 10
7.4438861098
 20
87.5945390464
 10
7.4584259501
 20
87.5731296105
 10
7.475673699
 20
87.5537658299
 10
7.4953348965
 20
87.5367784436
 10
7.5170738327
 20
87.5224576413
 10
7.5405192156
 20
87.5110481125
 10
7.5652706357
 20
87.5027447752
 10
7.5909054265
 20
87.4976894793
 10
7.6169857936
 20
87.4959686224
  0
LWPOLYLINE
  5
48B
100
AcDbEntity
  8
RACCORDO
100
AcDbPolyline
 62
250
  6
CONTINUOUS
 90
13
 70
0
 10
7.9830065909
 20
88.7762187022
 10
7.9812596374
 20
88.8019009874
 10
7.9761275444
 20
88.8271450928
 10
7.9676978059
 20
88.8515199355
 10
7.9561142228
 20
88.8746092655
 10
7.9415744804
 20
88.8960187158
 10
7.924326802
 20
88.9153825552
 10
7.9046656327
 20
88.9323700346
 10
7.8829266735
 20
88.9466909484
 10
7.8594812234
 20
88.9581005854
 10
7.8347296962
 20
88.9664040135
 10
7.8090947571
 20
88.9714593726
 10
7.7830142063
 20
88.9731802527
  0
LINE
  5
48C
100
AcDbEntity
  8
RACCORDO
100
AcDbLine
 62
250
  6
CONTINUOUS
 10
-4.7956744151
 20
48.7944897012
 11
-4.772995797
 21
48.7532774261
  0
LINE
  5
48D
100
AcDbEntity
  8
RACCORDO
100
AcDbLine
 62
250
  6
CONTINUOUS
 10
-4.693551589
 20
48.7454669823
 11
-4.7053403868
 21
48.7669424817
  0
LINE
  5
48E
100
AcDbEntity
  8
RACCORDO
100
AcDbLine
 62
250
  6
CONTINUOUS
 10
-4.7053403868
 20
48.7669424817
 11
-4.7170489869
 21
48.7885043987
  0
LINE
  5
48F
100
AcDbEntity
  8
RACCORDO
100
AcDbLine
 62
250
  6
CONTINUOUS
 10
-4.7170489869
 20
48.7885043987
 11
-4.7286735885
 21
48.8101472159
  0
LWPOLYLINE
  5
490
100
AcDbEntity
  8
RACCORDO
100
AcDbPolyline
 62
250
  6
CONTINUOUS
 90
3
 70
0
 10
-4.8278879582
 20
48.8545167508
 10
-4.8173861975
 20
48.834749586
 10
-4.7956744151
 20
48.7944897012
  0
LINE
  5
491
100
AcDbEntity
  8
RACCORDO
100
AcDbLine
 62
250
  6
CONTINUOUS
 10
-4.7286735885
 20
48.8101472159
 11
-4.7402132415
 21
48.831869554
  0
LINE
  5
492
100
AcDbEntity
  8
RACCORDO
100
AcDbLine
 62
7
  6
CONTINUOUS
 10
-6.0901468108
 20
53.1148665586
 11
-6.0966582385
 21
53.127890406
  0
LWPOLYLINE
  5
493
100
AcDbEntity
  8
RACCORDO
100
AcDbPolyline
 62
250
  6
CONTINUOUS
 90
7
 70
0
 10
-4.9198017468
 20
49.2611588759
 10
-4.8943212971
 20
49.205666788
 10
-4.8670604603
 20
49.1484662923
 10
-4.8380192363
 20
49.0895573889
 10
-4.8071976252
 20
49.0289400777
 10
-4.7745956269
 20
48.9666143588
 10
-4.7402132415
 20
48.9025802321
  0
LWPOLYLINE
  5
494
100
AcDbEntity
  8
RACCORDO
100
AcDbPolyline
 62
250
  6
CONTINUOUS
 90
10
 70
0
 10
-5.0298025376
 20
49.2619274856
 10
-5.010926367
 20
49.2199863298
 10
-4.9912536748
 20
49.1772469509
 10
-4.9707610371
 20
49.1337241391
 10
-4.9494717245
 20
49.0895287925
 10
-4.9273174515
 20
49.0445802393
 10
-4.9041295667
 20
48.9986106812
 10
-4.8798267962
 20
48.9515473249
 10
-4.8544239622
 20
48.9035080717
 10
-4.8278879582
 20
48.8545167508
  0
LINE
  5
495
100
AcDbEntity
  8
RACCORDO
100
AcDbLine
 62
250
  6
CONTINUOUS
 10
-5.0439914408
 20
49.2955240347
 11
-5.0298025376
 21
49.2619274856
  0
LINE
  5
496
100
AcDbEntity
  8
RACCORDO
100
AcDbLine
 62
250
  6
CONTINUOUS
 10
-4.9491047703
 20
49.2570503103
 11
-4.9590709668
 21
49.2809456637
  0
LINE
  5
497
100
AcDbEntity
  8
RACCORDO
100
AcDbLine
 62
250
  6
CONTINUOUS
 10
-5.0576597529
 20
49.3284939911
 11
-5.0439914408
 21
49.2955240347
  0
LINE
  5
498
100
AcDbEntity
  8
RACCORDO
100
AcDbLine
 62
250
  6
CONTINUOUS
 10
-4.9590709668
 20
49.2809456637
 11
-4.9689362679
 21
49.304924608
  0
LINE
  5
499
100
AcDbEntity
  8
RACCORDO
100
AcDbLine
 62
250
  6
CONTINUOUS
 10
-5.0708210586
 20
49.3608301986
 11
-5.0576597529
 21
49.3284939911
  0
LINE
  5
49A
100
AcDbEntity
  8
RACCORDO
100
AcDbLine
 62
250
  6
CONTINUOUS
 10
-4.9689362679
 20
49.304924608
 11
-4.9786994824
 21
49.3289855638
  0
LINE
  5
49B
100
AcDbEntity
  8
RACCORDO
100
AcDbLine
 62
250
  6
CONTINUOUS
 10
-4.3960141381
 20
48.1762147573
 11
-4.3730031227
 21
48.1451279429
  0
LINE
  5
49C
100
AcDbEntity
  8
RACCORDO
100
AcDbLine
 62
250
  6
CONTINUOUS
 10
-4.3082907271
 20
48.154981267
 11
-4.3253825448
 21
48.1782656018
  0
LINE
  5
49D
100
AcDbEntity
  8
RACCORDO
100
AcDbLine
 62
250
  6
CONTINUOUS
 10
-4.4183000547
 20
48.2067689649
 11
-4.3960141381
 21
48.1762147573
  0
LINE
  5
49E
100
AcDbEntity
  8
RACCORDO
100
AcDbLine
 62
250
  6
CONTINUOUS
 10
-4.3253825448
 20
48.1782656018
 11
-4.3423883121
 21
48.2016977593
  0
LINE
  5
49F
100
AcDbEntity
  8
RACCORDO
100
AcDbLine
 62
250
  6
CONTINUOUS
 10
-4.4398743125
 20
48.2367786047
 11
-4.4183000547
 21
48.2067689649
  0
LINE
  5
4A0
100
AcDbEntity
  8
RACCORDO
100
AcDbLine
 62
250
  6
CONTINUOUS
 10
-4.3423883121
 20
48.2016977593
 11
-4.359312047
 21
48.2252851161
  0
LWPOLYLINE
  5
4A1
100
AcDbEntity
  8
RACCORDO
100
AcDbPolyline
 62
250
  6
CONTINUOUS
 90
6
 70
0
 10
-4.4479829164
 20
48.4202393979
 10
-4.4341041074
 20
48.4002863172
 10
-4.4198654307
 20
48.3800315618
 10
-4.4052668863
 20
48.3594751319
 10
-4.3903084743
 20
48.3386170273
 10
-4.359312047
 20
48.2959957942
  0
LWPOLYLINE
  5
4A2
100
AcDbEntity
  8
RACCORDO
100
AcDbPolyline
 62
7
  6
CONTINUOUS
 90
13
 70
0
 10
-5.0298025377
 20
49.2619274856
 10
-5.0273785218
 20
49.2584115243
 10
-5.023889806
 20
49.2553729294
 10
-5.0194051091
 20
49.2528717057
 10
-5.014008472
 20
49.2509828852
 10
-5.007779827
 20
49.2497258564
 10
-5.0008007083
 20
49.2490578778
 10
-4.9931750706
 20
49.248986631
 10
-4.985012283
 20
49.2495283917
 10
-4.9764150446
 20
49.2506296101
 10
-4.9674919754
 20
49.2522582401
 10
-4.9583536523
 20
49.254408481
 10
-4.9491047703
 20
49.2570503103
  0
LWPOLYLINE
  5
4A3
100
AcDbEntity
  8
RACCORDO
100
AcDbPolyline
 62
250
  6
CONTINUOUS
 90
7
 70
0
 10
-4.5590864391
 20
48.4055068064
 10
-4.5409198778
 20
48.3789111946
 10
-4.5220894001
 20
48.351691158
 10
-4.5025824885
 20
48.3238569702
 10
-4.4823863782
 20
48.295419325
 10
-4.4614880651
 20
48.2663893471
 10
-4.4398743125
 20
48.2367786047
  0
LWPOLYLINE
  5
4A4
100
AcDbEntity
  8
RACCORDO
100
AcDbPolyline
 62
7
  6
CONTINUOUS
 90
7
 70
0
 10
-4.5576654497
 20
48.3833167407
 10
-4.6790628562
 20
48.569332482
 10
-4.7930498235
 20
48.7603629063
 10
-4.8992186175
 20
48.9557584939
 10
-4.9973320869
 20
49.1550817748
 10
-5.0872870783
 20
49.3581302571
 10
-5.1689619128
 20
49.5645612836
  0
LINE
  5
4A5
100
AcDbEntity
  8
RACCORDO
100
AcDbLine
 62
7
  6
CONTINUOUS
 10
-4.583863071
 20
48.4434997032
 11
-4.5590864391
 21
48.4055068064
  0
LINE
  5
4A6
100
AcDbEntity
  8
RACCORDO
100
AcDbLine
 62
250
  6
CONTINUOUS
 10
-4.4902359552
 20
48.4121571798
 11
-4.5105235693
 21
48.4435617108
  0
LINE
  5
4A7
100
AcDbEntity
  8
RACCORDO
100
AcDbLine
 62
7
  6
CONTINUOUS
 10
-4.6029497748
 20
48.4732451579
 11
-4.583863071
 21
48.4434997032
  0
LINE
  5
4A8
100
AcDbEntity
  8
RACCORDO
100
AcDbLine
 62
250
  6
CONTINUOUS
 10
-4.5105235693
 20
48.4435617108
 11
-4.5306496788
 21
48.4751999947
  0
LINE
  5
4A9
100
AcDbEntity
  8
RACCORDO
100
AcDbLine
 62
250
  6
CONTINUOUS
 10
-4.6195766711
 20
48.4995069532
 11
-4.6029497748
 21
48.4732451579
  0
LINE
  5
4AA
100
AcDbEntity
  8
RACCORDO
100
AcDbLine
 62
250
  6
CONTINUOUS
 10
-4.5306496788
 20
48.4751999947
 11
-4.5506115546
 21
48.5070691706
  0
LINE
  5
4AB
100
AcDbEntity
  8
RACCORDO
100
AcDbLine
 62
250
  6
CONTINUOUS
 10
-4.6425468931
 20
48.53634058
 11
-4.6195766711
 21
48.4995069532
  0
LINE
  5
4AC
100
AcDbEntity
  8
RACCORDO
100
AcDbLine
 62
250
  6
CONTINUOUS
 10
-4.6047569709
 20
48.6654713777
 11
-4.5802266447
 21
48.6259957942
  0
LWPOLYLINE
  5
4AD
100
AcDbEntity
  8
RACCORDO
100
AcDbPolyline
 62
250
  6
CONTINUOUS
 90
3
 70
0
 10
-4.5506115546
 20
48.5070691706
 10
-4.5703982806
 20
48.5391577953
 10
-4.5802266447
 20
48.5552851161
  0
LINE
  5
4AE
100
AcDbEntity
  8
RACCORDO
100
AcDbLine
 62
250
  6
CONTINUOUS
 10
-4.6649147678
 20
48.5728462318
 11
-4.6425468931
 21
48.53634058
  0
LWPOLYLINE
  5
4AF
100
AcDbEntity
  8
RACCORDO
100
AcDbPolyline
 62
250
  6
CONTINUOUS
 90
4
 70
0
 10
-4.6505323004
 20
48.7411588759
 10
-4.6394991334
 20
48.72264496
 10
-4.6281921894
 20
48.7038590716
 10
-4.6047569709
 20
48.6654713777
  0
LWPOLYLINE
  5
4B0
100
AcDbEntity
  8
RACCORDO
100
AcDbPolyline
 62
250
  6
CONTINUOUS
 90
7
 70
0
 10
-4.7612853686
 20
48.7323199886
 10
-4.746587932
 20
48.7071970915
 10
-4.7313588529
 20
48.6814817399
 10
-4.7155877183
 20
48.6551812339
 10
-4.6992639077
 20
48.6283031667
 10
-4.6823765978
 20
48.6008554318
 10
-4.6649147678
 20
48.5728462318
  0
LINE
  5
4B1
100
AcDbEntity
  8
RACCORDO
100
AcDbLine
 62
250
  6
CONTINUOUS
 10
-4.772995797
 20
48.7532774261
 11
-4.7612853686
 21
48.7323199886
  0
LINE
  5
4B2
100
AcDbEntity
  8
RACCORDO
100
AcDbLine
 62
250
  6
CONTINUOUS
 10
-4.6876268785
 20
48.7347612944
 11
-4.693551589
 21
48.7454669823
  0
LWPOLYLINE
  5
4B3
100
AcDbEntity
  8
RACCORDO
100
AcDbPolyline
 62
7
  6
CONTINUOUS
 90
8
 70
0
 10
-5.084339302
 20
49.6534260139
 10
-5.0914928162
 20
49.6663955682
 10
-5.0983950146
 20
49.6755783784
 10
-5.1050176502
 20
49.6809746294
 10
-5.1111211576
 20
49.6813485079
 10
-5.1169124682
 20
49.6779360411
 10
-5.1230048622
 20
49.6744453598
 10
-5.1362310425
 20
49.6696321375
  0
LINE
  5
4B4
100
AcDbEntity
  8
RACCORDO
100
AcDbLine
 62
7
  6
CONTINUOUS
 10
-5.3087397424
 20
59.5520552541
 11
-5.3
 21
59.534574438
  0
LINE
  5
4B5
100
AcDbEntity
  8
0
100
AcDbLine
 62
7
  6
CONTINUOUS
 10
-4.441534
 20
90.396371438
 11
-3.712456
 21
88.096581438
  0
LINE
  5
4B6
100
AcDbEntity
  8
0
100
AcDbLine
 62
7
  6
CONTINUOUS
 10
-3.481663
 20
88.813354438
 11
-3.920045
 21
90.396371438
  0
LINE
  5
4B7
100
AcDbEntity
  8
0
100
AcDbLine
 62
7
  6
CONTINUOUS
 10
2.03531
 20
88.555701438
 11
2.15967
 21
88.096581438
  0
LINE
  5
4B8
100
AcDbEntity
  8
0
100
AcDbLine
 62
7
  6
CONTINUOUS
 10
1.718779
 20
89.764447438
 11
1.939371
 21
88.910966438
  0
LWPOLYLINE
  5
4B9
100
AcDbEntity
  8
0
100
AcDbPolyline
 62
7
  6
CONTINUOUS
 90
10
 70
0
 10
7.9538726866
 20
78.0687375688
 10
7.949262024
 20
78.0889058493
 10
7.9438008525
 20
78.1083610403
 10
7.9374891723
 20
78.1271031417
 10
7.9303659859
 20
78.1450130364
 10
7.9223922906
 20
78.1622098415
 10
7.9134510785
 20
78.1790509087
 10
7.9035033468
 20
78.195655355
 10
7.8925880982
 20
78.2119040634
 10
7.8807053328
 20
78.2277970338
  0
LWPOLYLINE
  5
4BA
100
AcDbEntity
  8
0
100
AcDbPolyline
 62
7
  6
CONTINUOUS
 90
10
 70
0
 10
7.8393498719
 20
77.9033157253
 10
7.8431852613
 20
77.8849711691
 10
7.8466060493
 20
77.8656675232
 10
7.8496122359
 20
77.8454047876
 10
7.8522225514
 20
77.8242121001
 10
7.8544182654
 20
77.802060323
 10
7.8561431871
 20
77.7788620423
 10
7.8573785862
 20
77.7545881201
 10
7.8581431931
 20
77.7292676944
 10
7.8584370077
 20
77.7029007652
  0
LWPOLYLINE
  5
4BB
100
AcDbEntity
  8
RACCORDO
100
AcDbPolyline
 62
250
  6
CONTINUOUS
 90
7
 70
0
 10
-3.7806692878
 20
47.5520293774
 10
-3.7464142881
 20
47.518093073
 10
-3.7123626553
 20
47.4849311894
 10
-3.6786257649
 20
47.452663578
 10
-3.6450922415
 20
47.4211703874
 10
-3.6114279586
 20
47.3900920627
 10
-3.5776797003
 20
47.3594444705
  0
LWPOLYLINE
  5
4BC
100
AcDbEntity
  8
RACCORDO
100
AcDbPolyline
 62
7
  6
CONTINUOUS
 90
10
 70
0
 10
-3.863769392
 20
47.5644412201
 10
-3.8476367928
 20
47.5482819276
 10
-3.8098988002
 20
47.5110032148
 10
-3.7723768487
 20
47.4746464918
 10
-3.735260744
 20
47.4393597686
 10
-3.6984015779
 20
47.4049663899
 10
-3.6612970066
 20
47.3709807079
 10
-3.6237769171
 20
47.3372479239
 10
-3.58601816
 20
47.3039284295
 10
-3.5480255296
 20
47.2710233991
  0
LINE
  5
4BD
100
AcDbEntity
  8
RACCORDO
100
AcDbLine
 62
250
  6
CONTINUOUS
 10
-3.8151276544
 20
47.5867401024
 11
-3.7806692878
 21
47.5520293774
  0
LWPOLYLINE
  5
4BE
100
AcDbEntity
  8
RACCORDO
100
AcDbPolyline
 62
7
  6
CONTINUOUS
 90
13
 70
0
 10
-4.5590864389
 20
48.4055068066
 10
-4.5565623342
 20
48.4029551556
 10
-4.5532520646
 20
48.4009388786
 10
-4.5492105878
 20
48.3994904961
 10
-4.5445081981
 20
48.3986528783
 10
-4.5391998859
 20
48.3984282402
 10
-4.5333263796
 20
48.3987762905
 10
-4.5269579483
 20
48.3996962221
 10
-4.5201736756
 20
48.4011897946
 10
-4.5130334019
 20
48.4032069599
 10
-4.5056095984
 20
48.405716598
 10
-4.4979852402
 20
48.4087093012
 10
-4.4902359552
 20
48.4121571798
  0
LINE
  5
4BF
100
AcDbEntity
  8
RACCORDO
100
AcDbLine
 62
250
  6
CONTINUOUS
 10
-3.9286313247
 20
47.6297193062
 11
-3.863769392
 21
47.5644412201
  0
LINE
  5
4C0
100
AcDbEntity
  8
RACCORDO
100
AcDbLine
 62
7
  6
CONTINUOUS
 10
-3.8461937607
 20
47.5366178305
 11
-4.0021554244
 21
47.6945626394
  0
LWPOLYLINE
  5
4C1
100
AcDbEntity
  8
RACCORDO
100
AcDbPolyline
 62
250
  6
CONTINUOUS
 90
7
 70
0
 10
-4.0068413248
 20
47.8577203714
 10
-3.9777206474
 20
47.8258918614
 10
-3.9474673295
 20
47.7934434493
 10
-3.9160813713
 20
47.7603751352
 10
-3.8835627727
 20
47.726686919
 10
-3.8499115337
 20
47.6923788008
 10
-3.8151276544
 20
47.6574507805
  0
LINE
  5
4C2
100
AcDbEntity
  8
RACCORDO
100
AcDbLine
 62
7
  6
CONTINUOUS
 10
-4.0021554244
 20
47.6945626394
 11
-4.151525674
 21
47.8585023087
  0
LWPOLYLINE
  5
4C3
100
AcDbEntity
  8
RACCORDO
100
AcDbPolyline
 62
250
  6
CONTINUOUS
 90
6
 70
0
 10
-4.1187413101
 20
47.8326403171
 10
-4.083959065
 20
47.7939579674
 10
-4.0475921943
 20
47.754284121
 10
-4.0096057077
 20
47.7136583579
 10
-3.9699640821
 20
47.6721222264
 10
-3.9286313247
 20
47.6297193062
  0
LWPOLYLINE
  5
4C4
100
AcDbEntity
  8
RACCORDO
100
AcDbPolyline
 62
7
  6
CONTINUOUS
 90
13
 70
0
 10
-4.7612853693
 20
48.7323199882
 10
-4.7587716968
 20
48.7293952832
 10
-4.7553684468
 20
48.7269897864
 10
-4.7511357662
 20
48.7251457162
 10
-4.7461496121
 20
48.723917641
 10
-4.7404736021
 20
48.7233133503
 10
-4.7341612141
 20
48.7232906802
 10
-4.7272935267
 20
48.7238522174
 10
-4.7199611334
 20
48.7250051617
 10
-4.712240134
 20
48.7266970044
 10
-4.7042165412
 20
48.7288956442
 10
-4.6959832908
 20
48.7315933204
 10
-4.6876268785
 20
48.7347612944
  0
LWPOLYLINE
  5
4C5
100
AcDbEntity
  8
RACCORDO
100
AcDbPolyline
 62
250
  6
CONTINUOUS
 90
3
 70
0
 10
-4.0593524545
 20
47.8461192334
 10
-4.0750958804
 20
47.8645142529
 10
-4.0907797103
 20
47.8830099525
  0
LWPOLYLINE
  5
4C6
100
AcDbEntity
  8
RACCORDO
100
AcDbPolyline
 62
7
  6
CONTINUOUS
 90
3
 70
0
 10
-4.1562825451
 20
47.8763679836
 10
-4.1377104933
 20
47.8546188308
 10
-4.1187413101
 20
47.8326403171
  0
LWPOLYLINE
  5
4C7
100
AcDbEntity
  8
RACCORDO
100
AcDbPolyline
 62
7
  6
CONTINUOUS
 90
4
 70
0
 10
-4.151525674
 20
47.8585023087
 10
-4.2939118927
 20
48.0279612356
 10
-4.4292622729
 20
48.2028524063
 10
-4.5576654497
 20
48.3833167407
  0
LWPOLYLINE
  5
4C8
100
AcDbEntity
  8
RACCORDO
100
AcDbPolyline
 62
250
  6
CONTINUOUS
 90
3
 70
0
 10
-4.0907797103
 20
47.8830099525
 10
-4.1064039443
 20
47.9016063322
 10
-4.1219697156
 20
47.9203039022
  0
LINE
  5
4C9
100
AcDbEntity
  8
RACCORDO
100
AcDbLine
 62
7
  6
CONTINUOUS
 10
-4.1772573036
 20
47.9012109903
 11
-4.1562825451
 21
47.8763679836
  0
LWPOLYLINE
  5
4CA
100
AcDbEntity
  8
RACCORDO
100
AcDbPolyline
 62
250
  6
CONTINUOUS
 90
6
 70
0
 10
-4.1219697156
 20
47.9203039022
 10
-4.1374758909
 20
47.9391021523
 10
-4.1529190702
 20
47.9579995518
 10
-4.1682981202
 20
47.9769955905
 10
-4.1836141743
 20
47.9960907786
 10
-4.1988672323
 20
48.0152851161
  0
LINE
  5
4CB
100
AcDbEntity
  8
RACCORDO
100
AcDbLine
 62
250
  6
CONTINUOUS
 10
-4.2204386814
 20
48.1126922643
 11
-4.1988672323
 21
48.0859957942
  0
LWPOLYLINE
  5
4CC
100
AcDbEntity
  8
RACCORDO
100
AcDbPolyline
 62
250
  6
CONTINUOUS
 90
7
 70
0
 10
-4.2764337343
 20
48.0229054469
 10
-4.2601245663
 20
48.0023956351
 10
-4.2435445183
 20
47.9817509596
 10
-4.226690921
 20
47.9609743415
 10
-4.2095946444
 20
47.9401093927
 10
-4.1922198678
 20
47.9191181753
 10
-4.1772573036
 20
47.9012109903
  0
LINE
  5
4CD
100
AcDbEntity
  8
RACCORDO
100
AcDbLine
 62
250
  6
CONTINUOUS
 10
-4.241338286
 20
48.1388851455
 11
-4.2204386814
 21
48.1126922643
  0
LINE
  5
4CE
100
AcDbEntity
  8
RACCORDO
100
AcDbLine
 62
250
  6
CONTINUOUS
 10
-4.2615660461
 20
48.164574438
 11
-4.241338286
 21
48.1388851455
  0
LWPOLYLINE
  5
4CF
100
AcDbEntity
  8
RACCORDO
100
AcDbPolyline
 62
250
  6
CONTINUOUS
 90
7
 70
0
 10
-4.3730031227
 20
48.1451279429
 10
-4.3579789503
 20
48.1256391483
 10
-4.3425338743
 20
48.1057908899
 10
-4.3266624116
 20
48.0855881664
 10
-4.3103590023
 20
48.0650361256
 10
-4.2936180119
 20
48.0441400676
 10
-4.2764337343
 20
48.0229054469
  0
LINE
  5
4D0
100
AcDbEntity
  8
DRAFT
100
AcDbLine
 62
7
  6
CONTINUOUS
 10
9.9792140383
 20
40.613303349
 11
10.0
 21
40.5821204478
  0
LINE
  5
4D1
100
AcDbEntity
  8
RACCORDO
100
AcDbLine
 62
250
  6
CONTINUOUS
 10
-5.5580354143
 20
71.3436206159
 11
-5.5653912489
 21
71.356282928
  0
LINE
  5
4D2
100
AcDbEntity
  8
RACCORDO
100
AcDbLine
 62
250
  6
CONTINUOUS
 10
-6.0869729761
 20
70.4615004071
 11
-6.094441183
 21
70.4744463021
  0
LINE
  5
4D3
100
AcDbEntity
  8
RACCORDO
100
AcDbLine
 62
7
  6
CONTINUOUS
 10
5.3098531892
 20
53.1148665586
 11
5.3033417615
 21
53.127890406
  0
LINE
  5
4D4
100
AcDbEntity
  8
0
100
AcDbLine
 62
7
  6
CONTINUOUS
 10
-1.070672
 20
89.598300438
 11
-0.507508
 21
88.096581438
  0
LINE
  5
4D5
100
AcDbEntity
  8
0
100
AcDbLine
 62
7
  6
CONTINUOUS
 10
-0.471223
 20
89.119520438
 11
-0.946209
 21
90.396371438
  0
LINE
  5
4D6
100
AcDbEntity
  8
0
100
AcDbLine
 62
7
  6
CONTINUOUS
 10
2.66563
 20
88.096581438
 11
1.959997
 21
90.396371438
  0
LINE
  5
4D7
100
AcDbEntity
  8
0
100
AcDbLine
 62
7
  6
CONTINUOUS
 10
3.948692122
 20
88.340243823
 11
4.0198623394
 21
88.0965816044
  0
LINE
  5
4D8
100
AcDbEntity
  8
0
100
AcDbLine
 62
7
  6
CONTINUOUS
 10
4.3737831045
 20
88.5081123924
 11
4.3175089464
 21
88.7190370761
  0
LINE
  5
4D9
100
AcDbEntity
  8
0
100
AcDbLine
 62
7
  6
CONTINUOUS
 10
4.4816207207
 20
88.0965816044
 11
4.3737831045
 21
88.5081123924
  0
LWPOLYLINE
  5
4DA
100
AcDbEntity
  8
0
100
AcDbPolyline
 62
7
  6
CONTINUOUS
 90
16
 70
0
 10
4.3175089464
 20
88.7190370761
 10
4.3069476007
 20
88.7609899075
 10
4.2952658836
 20
88.8020746728
 10
4.2824637949
 20
88.8422913721
 10
4.2686074152
 20
88.8820217604
 10
4.2536306641
 20
88.9208840827
 10
4.2373353001
 20
88.9577330736
 10
4.2195664038
 20
88.9924744192
 10
4.2004788947
 20
89.0252024333
 10
4.1803392903
 20
89.0550547927
 10
4.159130573
 20
89.0818163725
 10
4.1368697604
 20
89.1057022975
 10
4.1138744233
 20
89.126495619
 10
4.0902504185
 20
89.1441240206
 10
4.0658918891
 20
89.1586598186
 10
4.0407988352
 20
89.170103013
  0
LWPOLYLINE
  5
4DB
100
AcDbEntity
  8
DRAFT
100
AcDbPolyline
 62
7
  6
CONTINUOUS
 90
7
 70
0
 10
-2.9910615845
 20
46.8711085913
 10
-3.0065416064
 20
46.8809523006
 10
-3.0217476941
 20
46.8910937277
 10
-3.0366798475
 20
46.9012803849
 10
-3.0513958955
 20
46.9112059395
 10
-3.0658380093
 20
46.9207900392
 10
-3.0798327024
 20
46.930195869
  0
LINE
  5
4DC
100
AcDbEntity
  8
DRAFT
100
AcDbLine
 62
7
  6
CONTINUOUS
 10
-3.3217263601
 20
47.0910987126
 11
-3.3023497204
 21
47.0787600229
  0
LINE
  5
4DD
100
AcDbEntity
  8
DRAFT
100
AcDbLine
 62
7
  6
CONTINUOUS
 10
-2.9157088359
 20
46.8222903472
 11
-2.9398518681
 21
46.8377684303
  0
LINE
  5
4DE
100
AcDbEntity
  8
DRAFT
100
AcDbLine
 62
7
  6
CONTINUOUS
 10
-2.9398518681
 20
46.8377684303
 11
-2.964977561
 21
46.8540384698
  0
LINE
  5
4DF
100
AcDbEntity
  8
DRAFT
100
AcDbLine
 62
7
  6
CONTINUOUS
 10
-2.964977561
 20
46.8540384698
 11
-2.9910615845
 21
46.8711085913
  0
LINE
  5
4E0
100
AcDbEntity
  8
DRAFT
100
AcDbLine
 62
7
  6
CONTINUOUS
 10
-3.0798327024
 20
46.930195869
 11
-3.1189587714
 21
46.9567664561
  0
LWPOLYLINE
  5
4E1
100
AcDbEntity
  8
DRAFT
100
AcDbPolyline
 62
7
  6
CONTINUOUS
 90
4
 70
0
 10
-3.213062168
 20
47.0218644703
 10
-3.2283337746
 20
47.0323555375
 10
-3.2315260897
 20
47.0344916147
 10
-3.2337987975
 20
47.0359101243
  0
LINE
  5
4E2
100
AcDbEntity
  8
DRAFT
100
AcDbLine
 62
7
  6
CONTINUOUS
 10
-3.1189587714
 20
46.9567664561
 11
-3.1532542809
 21
46.9803268175
  0
LINE
  5
4E3
100
AcDbEntity
  8
DRAFT
100
AcDbLine
 62
7
  6
CONTINUOUS
 10
-3.1532542809
 20
46.9803268175
 11
-3.1990997839
 21
47.0120965123
  0
LINE
  5
4E4
100
AcDbEntity
  8
DRAFT
100
AcDbLine
 62
7
  6
CONTINUOUS
 10
-3.1990997839
 20
47.0120965123
 11
-3.213062168
 21
47.0218644703
  0
LINE
  5
4E5
100
AcDbEntity
  8
RACCORDO
100
AcDbLine
 62
7
  6
CONTINUOUS
 10
-9.1
 20
50.884574438
 11
-9.4290614477
 21
51.1333552656
  0
LWPOLYLINE
  5
4E6
100
AcDbEntity
  8
RACCORDO
100
AcDbPolyline
 62
7
  6
CONTINUOUS
 90
10
 70
0
 10
-3.3217263601
 20
47.0910987126
 10
-3.3473666508
 20
47.110527739
 10
-3.3728839933
 20
47.130098342
 10
-3.3982783874
 20
47.1498105218
 10
-3.4235512152
 20
47.169665512
 10
-3.4487010947
 20
47.189662079
 10
-3.4737238804
 20
47.2097965213
 10
-3.4986181906
 20
47.2300676052
 10
-3.523385407
 20
47.2504765645
 10
-3.5480255296
 20
47.2710233991
  0
LWPOLYLINE
  5
4E7
100
AcDbEntity
  8
RACCORDO
100
AcDbPolyline
 62
7
  6
CONTINUOUS
 90
13
 70
0
 10
-4.1187413105
 20
47.8326403167
 10
-4.1163073204
 20
47.8307672405
 10
-4.1132634561
 20
47.8294345836
 10
-4.1096528703
 20
47.8286618024
 10
-4.1055317069
 20
47.8284754586
 10
-4.1009403226
 20
47.8288724771
 10
-4.0959042552
 20
47.8298183722
 10
-4.090476358
 20
47.83130751
 10
-4.0847170229
 20
47.8333346073
 10
-4.07866763
 20
47.8358543351
 10
-4.0723819394
 20
47.8388360736
 10
-4.0659243394
 20
47.842266821
 10
-4.0593524545
 20
47.8461192334
  0
LINE
  5
4E8
100
AcDbEntity
  8
RACCORDO
100
AcDbLine
 62
250
  6
CONTINUOUS
 10
-3.8802606487
 20
47.5824029785
 11
-3.8855710379
 21
47.5864952741
  0
LWPOLYLINE
  5
4E9
100
AcDbEntity
  8
RACCORDO
100
AcDbPolyline
 62
7
  6
CONTINUOUS
 90
3
 70
0
 10
-3.549574546
 20
47.2692257786
 10
-3.6840589585
 20
47.3851115083
 10
-3.8461937607
 20
47.5366178305
  0
LWPOLYLINE
  5
4EA
100
AcDbEntity
  8
RACCORDO
100
AcDbPolyline
 62
250
  6
CONTINUOUS
 90
6
 70
0
 10
-3.5776797003
 20
47.3594444705
 10
-3.5438006826
 20
47.3292117444
 10
-3.509316427
 20
47.2989867297
 10
-3.4740687741
 20
47.2686337085
 10
-3.4382158832
 20
47.2382883987
 10
-3.4017577544
 20
47.2079508004
  0
LWPOLYLINE
  5
4EB
100
AcDbEntity
  8
RACCORDO
100
AcDbPolyline
 62
7
  6
CONTINUOUS
 90
13
 70
0
 10
-4.3730031013
 20
48.1451279593
 10
-4.3705016125
 20
48.1428822015
 10
-4.3672942745
 20
48.1411773901
 10
-4.3634306218
 20
48.1400398743
 10
-4.3589737291
 20
48.1395047849
 10
-4.3539723612
 20
48.1395720677
 10
-4.3484628109
 20
48.1402035768
 10
-4.342509499
 20
48.1413946896
 10
-4.3361818778
 20
48.1431429305
 10
-4.329529236
 20
48.145400489
 10
-4.3226145013
 20
48.1481365571
 10
-4.315512623
 20
48.151339451
 10
-4.3082907271
 20
48.154981267
  0
LWPOLYLINE
  5
4EC
100
AcDbEntity
  8
RACCORDO
100
AcDbPolyline
 62
250
  6
CONTINUOUS
 90
7
 70
0
 10
3.8670033289
 20
47.6050994067
 10
3.8757436753
 20
47.5963900113
 10
3.8790660912
 20
47.5929312703
 10
3.8818053432
 20
47.5902573423
 10
3.8839142797
 20
47.5883822287
 10
3.8851865908
 20
47.5871592545
 10
3.8855299894
 20
47.5865068185
  0
LWPOLYLINE
  5
4ED
100
AcDbEntity
  8
RACCORDO
100
AcDbPolyline
 62
250
  6
CONTINUOUS
 90
3
 70
0
 10
3.8499525016
 20
47.6222918626
 10
3.8618525573
 20
47.6103789284
 10
3.8670033289
 20
47.6050994067
  0
LWPOLYLINE
  5
4EE
100
AcDbEntity
  8
RACCORDO
100
AcDbPolyline
 62
250
  6
CONTINUOUS
 90
6
 70
0
 10
3.815075137
 20
47.6574507801
 10
3.822218946
 20
47.6500356353
 10
3.8294609734
 20
47.6427876217
 10
3.8366327666
 20
47.6357435011
 10
3.8434875551
 20
47.6288888194
 10
3.8499525016
 20
47.6222918626
  0
LINE
  5
4EF
100
AcDbEntity
  8
RACCORDO
100
AcDbLine
 62
7
  6
CONTINUOUS
 10
6.0912602576
 20
59.5520552541
 11
6.1
 21
59.534574438
  0
LWPOLYLINE
  5
4F0
100
AcDbEntity
  8
0
100
AcDbPolyline
 62
7
  6
CONTINUOUS
 90
6
 70
0
 10
3.8099455134
 20
88.7939531698
 10
3.8344750594
 20
88.7220777526
 10
3.8584425608
 20
88.6487052125
 10
3.8818480178
 20
88.5738355495
 10
3.9043438558
 20
88.4973427038
 10
3.948692122
 20
88.340243823
  0
LWPOLYLINE
  5
4F1
100
AcDbEntity
  8
RACCORDO
100
AcDbPolyline
 62
7
  6
CONTINUOUS
 90
12
 70
0
 10
1.5
 20
46.1834914659
 10
1.5764247503
 20
46.2046277847
 10
1.7868233022
 20
46.2719890738
 10
1.9945857252
 20
46.3478099429
 10
2.1995167973
 20
46.4320610025
 10
2.4011209865
 20
46.524581263
 10
2.5986302253
 20
46.6250188878
 10
2.79145403
 20
46.7330189806
 10
2.979594363
 20
46.8485265882
 10
3.1631777867
 20
46.9716207701
 10
3.3420782251
 20
47.1022718757
 10
3.5157914168
 20
47.2401684653
  0
LINE
  5
4F2
100
AcDbEntity
  8
DRAFT
100
AcDbLine
 62
7
  6
CONTINUOUS
 10
1.5
 20
46.1832514528
 11
1.5348621822
 21
46.1928316643
  0
LINE
  5
4F3
100
AcDbEntity
  8
RACCORDO
100
AcDbLine
 62
7
  6
CONTINUOUS
 10
10.5530366787
 20
39.3817090968
 11
-10.5530366787
 21
39.3817090968
  0
LINE
  5
4F4
100
AcDbEntity
  8
DRAFT
100
AcDbLine
 62
7
  6
CONTINUOUS
 10
10.0
 20
40.5821204478
 11
-10.0
 21
40.5821204478
  0
LINE
  5
4F5
100
AcDbEntity
  8
DRAFT
100
AcDbLine
 62
7
  6
CONTINUOUS
 10
9.9792140383
 20
40.613303349
 11
-9.9792140383
 21
40.613303349
  0
LINE
  5
4F6
100
AcDbEntity
  8
ASSI
100
AcDbLine
 62
7
  6
CONTINUOUS
 10
9.9542531448
 20
40.9169070663
 11
-9.9542531448
 21
40.9169070663
  0
LINE
  5
4F7
100
AcDbEntity
  8
DRAFT
100
AcDbLine
 62
7
  6
CONTINUOUS
 10
-1.5353108806
 20
46.1929368116
 11
-1.5
 21
46.1832287297
  0
LWPOLYLINE
  5
4F8
100
AcDbEntity
  8
RACCORDO
100
AcDbPolyline
 62
7
  6
CONTINUOUS
 90
12
 70
0
 10
-1.5
 20
46.1834588998
 10
-1.576744124
 20
46.2046881889
 10
-1.7871667789
 20
46.2720886193
 10
-1.9949413608
 20
46.3479406737
 10
-2.1998803691
 20
46.4322063263
 10
-2.4014880058
 20
46.5247280066
 10
-2.5989874103
 20
46.6251684994
 10
-2.791785035
 20
46.7331864005
 10
-2.9798954218
 20
46.8487097024
 10
-3.1634515359
 20
46.9718033286
 10
-3.3423288545
 20
47.1024366944
 10
-3.516018063
 20
47.2403100296
  0
LWPOLYLINE
  5
4F9
100
AcDbEntity
  8
DRAFT
100
AcDbPolyline
 62
7
  6
CONTINUOUS
 90
5
 70
0
 10
-9.5227038285
 20
50.9760562878
 10
-9.5309592614
 20
50.9795629189
 10
-9.5391646355
 20
50.9829834201
 10
-9.547293354
 20
50.9863160586
 10
-9.5553454168
 20
50.9895608342
  0
LINE
  5
4FA
100
AcDbEntity
  8
DRAFT
100
AcDbLine
 62
7
  6
CONTINUOUS
 10
-9.4972239062
 20
50.9649938768
 11
-9.5227038285
 21
50.9760562878
  0
LINE
  5
4FB
100
AcDbEntity
  8
DRAFT
100
AcDbLine
 62
7
  6
CONTINUOUS
 10
-9.451175551
 20
50.9446305895
 11
-9.4972239062
 21
50.9649938768
  0
LINE
  5
4FC
100
AcDbEntity
  8
DRAFT
100
AcDbLine
 62
7
  6
CONTINUOUS
 10
-9.3171572875
 20
50.884574438
 11
-9.451175551
 21
50.9446305895
  0
LINE
  5
4FD
100
AcDbEntity
  8
RACCORDO
100
AcDbLine
 62
7
  6
CONTINUOUS
 10
-9.1
 20
52.134574438
 11
-9.2108433288
 21
52.18477325
  0
LWPOLYLINE
  5
4FE
100
AcDbEntity
  8
DRAFT
100
AcDbPolyline
 62
7
  6
CONTINUOUS
 90
9
 70
0
 10
-2.9157088359
 20
46.8222903472
 10
-2.7430720487
 20
46.7173564224
 10
-2.570381175
 20
46.6200791929
 10
-2.397636215
 20
46.5304586586
 10
-2.2246897845
 20
46.4487794599
 10
-2.0516892677
 20
46.3747569564
 10
-1.8790768167
 20
46.3075372273
 10
-1.7069998157
 20
46.2468356323
 10
-1.5353108806
 20
46.1929368116
  0
LINE
  5
4FF
100
AcDbEntity
  8
DRAFT
100
AcDbLine
 62
7
  6
CONTINUOUS
 10
-3.2633186016
 20
47.0542103166
 11
-3.2337987975
 21
47.0359101243
  0
LWPOLYLINE
  5
500
100
AcDbEntity
  8
RACCORDO
100
AcDbPolyline
 62
250
  6
CONTINUOUS
 90
7
 70
0
 10
4.6420253697
 20
48.5867845628
 10
4.6525034641
 20
48.5802634453
 10
4.6565423412
 20
48.5776635535
 10
4.6598071692
 20
48.5756496993
 10
4.6622584746
 20
48.5742388642
 10
4.6637770738
 20
48.5733153375
 10
4.6643117906
 20
48.5728206943
  0
LWPOLYLINE
  5
501
100
AcDbEntity
  8
DRAFT
100
AcDbPolyline
 62
7
  6
CONTINUOUS
 90
3
 70
0
 10
-3.3023497204
 20
47.0787600229
 10
-3.2926266706
 20
47.0726066371
 10
-3.2633186016
 20
47.0542103166
  0
LINE
  5
502
100
AcDbEntity
  8
RACCORDO
100
AcDbLine
 62
250
  6
CONTINUOUS
 10
4.6358053391
 20
48.5907516735
 11
4.6420253697
 21
48.5867845628
  0
LWPOLYLINE
  5
503
100
AcDbEntity
  8
RACCORDO
100
AcDbPolyline
 62
250
  6
CONTINUOUS
 90
7
 70
0
 10
4.5796409986
 20
48.6259957938
 10
4.5882848717
 20
48.6204126137
 10
4.5969624453
 20
48.6149929484
 10
4.6055168369
 20
48.6097452064
 10
4.6137327008
 20
48.6046196479
 10
4.621524124
 20
48.5996650909
 10
4.6358053391
 20
48.5907516735
  0
LWPOLYLINE
  5
504
100
AcDbEntity
  8
RACCORDO
100
AcDbPolyline
 62
250
  6
CONTINUOUS
 90
7
 70
0
 10
4.4181496107
 20
48.2523280464
 10
4.4281256797
 20
48.2450642169
 10
4.4319585615
 20
48.2421721111
 10
4.4350702394
 20
48.2399318411
 10
4.4374205374
 20
48.238360249
 10
4.4388683771
 20
48.2373327102
 10
4.4393523274
 20
48.2367847432
  0
LINE
  5
505
100
AcDbEntity
  8
RACCORDO
100
AcDbLine
 62
250
  6
CONTINUOUS
 10
4.4122394318
 20
48.2567410198
 11
4.4181496107
 21
48.2523280464
  0
LWPOLYLINE
  5
506
100
AcDbEntity
  8
RACCORDO
100
AcDbPolyline
 62
250
  6
CONTINUOUS
 90
7
 70
0
 10
4.3587868443
 20
48.2959957938
 10
4.3669932283
 20
48.2897888928
 10
4.3752574919
 20
48.2837496067
 10
4.3834162217
 20
48.277894604
 10
4.3912399998
 20
48.2721834637
 10
4.3986462623
 20
48.2666711656
 10
4.4122394318
 20
48.2567410198
  0
LWPOLYLINE
  5
507
100
AcDbEntity
  8
RACCORDO
100
AcDbPolyline
 62
250
  6
CONTINUOUS
 90
7
 70
0
 10
4.2556549565
 20
48.0394820586
 10
4.2652672915
 20
48.0317442943
 10
4.2689503241
 20
48.0286659784
 10
4.2719515718
 20
48.0262823636
 10
4.2742295822
 20
48.0246097885
 10
4.2756257189
 20
48.0235170366
 10
4.2760702976
 20
48.022934855
  0
LWPOLYLINE
  5
508
100
AcDbEntity
  8
RACCORDO
100
AcDbPolyline
 62
250
  6
CONTINUOUS
 90
3
 70
0
 10
4.2368739845
 20
48.0547590656
 10
4.2499687763
 20
48.0441793848
 10
4.2556549565
 20
48.0394820586
  0
LWPOLYLINE
  5
509
100
AcDbEntity
  8
RACCORDO
100
AcDbPolyline
 62
250
  6
CONTINUOUS
 90
6
 70
0
 10
4.1984809179
 20
48.0859957938
 10
4.2063725797
 20
48.0793918287
 10
4.2143365815
 20
48.072956588
 10
4.2222065506
 20
48.0667127358
 10
4.2297456554
 20
48.0606271747
 10
4.2368739845
 20
48.0547590656
  0
LINE
  5
50A
100
AcDbEntity
  8
DRAFT
100
AcDbLine
 62
7
  6
CONTINUOUS
 10
-10.0
 20
90.8870284282
 11
-9.9860359481
 21
90.8660796909
  0
LWPOLYLINE
  5
50B
100
AcDbEntity
  8
0
100
AcDbPolyline
 62
7
  6
CONTINUOUS
 90
10
 70
0
 10
8.9520850192
 20
77.9951960974
 10
8.9586762455
 20
77.9826172833
 10
8.9645428492
 20
77.9689251454
 10
8.9696848302
 20
77.9541196836
 10
8.9741296516
 20
77.9382829415
 10
8.9778498502
 20
77.9213328756
 10
8.9807630373
 20
77.9030233555
 10
8.9828417496
 20
77.8832723377
 10
8.9841134503
 20
77.8621618656
 10
8.9845781393
 20
77.8396919393
  0
LWPOLYLINE
  5
50C
100
AcDbEntity
  8
0
100
AcDbPolyline
 62
7
  6
CONTINUOUS
 90
10
 70
0
 10
7.0440525541
 20
77.7124443365
 10
7.037772133
 20
77.7257344628
 10
7.0321521897
 20
77.7396959054
 10
7.027192724
 20
77.7543286642
 10
7.0228591176
 20
77.7695380648
 10
7.0191859889
 20
77.7854187817
 10
7.0162771928
 20
77.8022548388
 10
7.0141673474
 20
77.8201409107
 10
7.0128218346
 20
77.8389823228
 10
7.0122406542
 20
77.8587790751
  0
LWPOLYLINE
  5
50D
100
AcDbEntity
  8
0
100
AcDbPolyline
 62
7
  6
CONTINUOUS
 90
10
 70
0
 10
9.1372752417
 20
78.1196365976
 10
9.1250583998
 20
78.1455426488
 10
9.1121664879
 20
78.1698582595
 10
9.098599506
 20
78.1925834296
 10
9.0843335968
 20
78.2136348993
 10
9.0693926176
 20
78.2330959284
 10
9.0538481404
 20
78.2512162972
 10
9.0377240227
 20
78.2680792657
 10
9.020996407
 20
78.2836015739
 10
9.0036652934
 20
78.2977832218
  0
LWPOLYLINE
  5
50E
100
AcDbEntity
  8
RACCORDO
100
AcDbPolyline
 62
7
  6
CONTINUOUS
 90
7
 70
0
 10
-4.9491047703
 20
49.2570503103
 10
-4.9444874379
 20
49.2583144926
 10
-4.9397641828
 20
49.2593469063
 10
-4.9349350051
 20
49.2601475515
 10
-4.9299999047
 20
49.2607164282
 10
-4.9249588816
 20
49.2610535363
 10
-4.9198119359
 20
49.2611588759
  0
LWPOLYLINE
  5
50F
100
AcDbEntity
  8
RACCORDO
100
AcDbPolyline
 62
250
  6
CONTINUOUS
 90
13
 70
0
 10
-4.5802266447
 20
48.5552851161
 10
-4.5892080928
 20
48.5528522448
 10
-4.5980874435
 20
48.5511783172
 10
-4.6067896894
 20
48.5502420863
 10
-4.6152882995
 20
48.5500110311
 10
-4.6234661046
 20
48.5504862939
 10
-4.6311620425
 20
48.5516830151
 10
-4.6383767604
 20
48.5536046455
 10
-4.6450629126
 20
48.5562177541
 10
-4.6510736816
 20
48.559460589
 10
-4.6563781417
 20
48.5633030624
 10
-4.6610025309
 20
48.5677634502
 10
-4.6649147678
 20
48.5728462318
  0
LWPOLYLINE
  5
510
100
AcDbEntity
  8
RACCORDO
100
AcDbPolyline
 62
250
  6
CONTINUOUS
 90
13
 70
0
 10
-4.7402132415
 20
48.831869554
 10
-4.7496771037
 20
48.8296929691
 10
-4.7590070356
 20
48.8283134408
 10
-4.768129298
 20
48.8277083175
 10
-4.7770236131
 20
48.8278504958
 10
-4.78556869
 20
48.828737514
 10
-4.7935863251
 20
48.8303707926
 10
-4.8010679367
 20
48.8327560419
 10
-4.8079647754
 20
48.8358614408
 10
-4.8141179
 20
48.8396078905
 10
-4.8194851878
 20
48.8439565808
 10
-4.8240870902
 20
48.848926976
 10
-4.8278879582
 20
48.8545167508
  0
LWPOLYLINE
  5
511
100
AcDbEntity
  8
RACCORDO
100
AcDbPolyline
 62
250
  6
CONTINUOUS
 90
12
 70
0
 10
8.4938267808
 20
52.1696157076
 10
8.501326656
 20
52.1712884313
 10
8.5110469148
 20
52.1728729317
 10
8.5229875574
 20
52.1743692087
 10
8.5374992635
 20
52.1757869679
 10
8.5542313532
 20
52.1771165037
 10
8.5721317868
 20
52.1783286996
 10
8.5911564843
 20
52.1794120042
 10
8.6113495256
 20
52.180377969
 10
8.6317911108
 20
52.1812321311
 10
8.6520786292
 20
52.181965578
 10
8.6726146915
 20
52.1825872224
  0
LINE
  5
512
100
AcDbEntity
  8
RACCORDO
100
AcDbLine
 62
250
  6
CONTINUOUS
 10
-6.0858595293
 20
49.5781897257
 11
-6.0999166395
 21
49.5754572065
  0
LINE
  5
513
100
AcDbEntity
  8
DRAFT
100
AcDbLine
 62
7
  6
CONTINUOUS
 10
-5.3000480383
 20
49.5369475812
 11
-5.4827167144
 21
49.5021865906
  0
LINE
  5
514
100
AcDbEntity
  8
DRAFT
100
AcDbLine
 62
7
  6
CONTINUOUS
 10
-5.4827167144
 20
49.5021865906
 11
-5.7
 21
49.4620183398
  0
LINE
  5
515
100
AcDbEntity
  8
RACCORDO
100
AcDbLine
 62
7
  6
CONTINUOUS
 10
-5.1843219259
 20
49.6527708928
 11
-5.199486185
 21
49.6500989892
  0
LWPOLYLINE
  5
516
100
AcDbEntity
  8
RACCORDO
100
AcDbPolyline
 62
250
  6
CONTINUOUS
 90
9
 70
0
 10
8.3461056179
 20
52.319409954
 10
8.3562526689
 20
52.3210830053
 10
8.3702485393
 20
52.322667708
 10
8.387763864
 20
52.324164062
 10
8.4085529966
 20
52.3255817063
 10
8.4321966105
 20
52.3269110021
 10
8.457969914
 20
52.3281230318
 10
8.4853201957
 20
52.3292063408
 10
8.5139028155
 20
52.3301723839
  0
LWPOLYLINE
  5
517
100
AcDbEntity
  8
RACCORDO
100
AcDbPolyline
 62
250
  6
CONTINUOUS
 90
13
 70
0
 10
-4.9786994824
 20
49.3289855638
 10
-4.9889731824
 20
49.3272945752
 10
-4.9990586973
 20
49.326466418
 10
-5.0088813534
 20
49.3264769966
 10
-5.0184230839
 20
49.3273099437
 10
-5.0275566937
 20
49.3289559304
 10
-5.0360821442
 20
49.3313903249
 10
-5.0439674226
 20
49.3346198026
 10
-5.0511558982
 20
49.3386138005
 10
-5.0574751696
 20
49.3432625486
 10
-5.0628636102
 20
49.3485096204
 10
-5.0673261294
 20
49.35437151
 10
-5.0708210586
 20
49.3608301986
  0
LINE
  5
518
100
AcDbEntity
  8
RACCORDO
100
AcDbLine
 62
250
  6
CONTINUOUS
 10
-6.0129480756
 20
49.2033547289
 11
-6.0275395162
 21
49.2010279609
  0
LWPOLYLINE
  5
519
100
AcDbEntity
  8
RACCORDO
100
AcDbPolyline
 62
250
  6
CONTINUOUS
 90
16
 70
0
 10
5.0855722062
 20
49.9572637944
 10
5.0958769234
 20
49.9576963694
 10
5.1060808196
 20
49.9588785219
 10
5.1160746225
 20
49.9607996014
 10
5.1257525446
 20
49.9634415396
 10
5.1350081258
 20
49.9667776198
 10
5.143736247
 20
49.9707714915
 10
5.1518425227
 20
49.9753808462
 10
5.1592393553
 20
49.980556824
 10
5.1658434241
 20
49.9862413967
 10
5.1715829269
 20
49.9923717649
 10
5.1763983263
 20
49.9988831929
 10
5.180239101
 20
50.0057070901
 10
5.1830640425
 20
50.0127707534
 10
5.1848423681
 20
50.0199979088
 10
5.1855548301
 20
50.0273109757
  0
LINE
  5
51A
100
AcDbEntity
  8
RACCORDO
100
AcDbLine
 62
250
  6
CONTINUOUS
 10
-5.086063521
 20
49.9165725887
 11
-5.186046145
 21
49.9159174711
  0
LINE
  5
51B
100
AcDbEntity
  8
RACCORDO
100
AcDbLine
 62
250
  6
CONTINUOUS
 10
-5.0855722062
 20
50.0279660933
 11
-5.1855548301
 21
50.0273109757
  0
LINE
  5
51C
100
AcDbEntity
  8
0
100
AcDbLine
 62
7
  6
CONTINUOUS
 10
1.5
 20
46.534574438
 11
-1.5
 21
46.534574438
  0
LINE
  5
51D
100
AcDbEntity
  8
DRAFT
100
AcDbLine
 62
250
  6
CONTINUOUS
 10
-2.9157088359
 20
46.8222903472
 11
2.9149665364
 21
46.8222903472
  0
LINE
  5
51E
100
AcDbEntity
  8
DRAFT
100
AcDbLine
 62
250
  6
CONTINUOUS
 10
-2.9910615845
 20
46.8711085913
 11
2.9903632233
 21
46.8711085913
  0
LINE
  5
51F
100
AcDbEntity
  8
DRAFT
100
AcDbLine
 62
250
  6
CONTINUOUS
 10
-3.2337987975
 20
47.0359101243
 11
3.2334288416
 21
47.0359101243
  0
LINE
  5
520
100
AcDbEntity
  8
DRAFT
100
AcDbLine
 62
7
  6
CONTINUOUS
 10
3.3216166181
 20
47.0910987126
 11
-3.3217263601
 21
47.0910987126
  0
LINE
  5
521
100
AcDbEntity
  8
RACCORDO
100
AcDbLine
 62
7
  6
CONTINUOUS
 10
3.4016996067
 20
47.2079508004
 11
-3.4017732765
 21
47.2079508004
  0
LINE
  5
522
100
AcDbEntity
  8
RACCORDO
100
AcDbLine
 62
250
  6
CONTINUOUS
 10
3.8150751374
 20
47.5867401024
 11
-3.8151276544
 21
47.5867401024
  0
LINE
  5
523
100
AcDbEntity
  8
RACCORDO
100
AcDbLine
 62
250
  6
CONTINUOUS
 10
3.8150751374
 20
47.6574507805
 11
-3.8151276544
 21
47.6574507805
  0
LINE
  5
524
100
AcDbEntity
  8
RACCORDO
100
AcDbLine
 62
7
  6
CONTINUOUS
 10
4.0066889789
 20
47.8577203714
 11
-4.0068413248
 21
47.8577203714
  0
LINE
  5
525
100
AcDbEntity
  8
RACCORDO
100
AcDbLine
 62
250
  6
CONTINUOUS
 10
4.1984809182
 20
48.0152851161
 11
-4.1988672323
 21
48.0152851161
  0
LINE
  5
526
100
AcDbEntity
  8
RACCORDO
100
AcDbLine
 62
250
  6
CONTINUOUS
 10
4.1984809182
 20
48.0859957942
 11
-4.1988672323
 21
48.0859957942
  0
LINE
  5
527
100
AcDbEntity
  8
RACCORDO
100
AcDbLine
 62
7
  6
CONTINUOUS
 10
4.2611470487
 20
48.164574438
 11
-4.2615660461
 21
48.164574438
  0
LINE
  5
528
100
AcDbEntity
  8
RACCORDO
100
AcDbLine
 62
250
  6
CONTINUOUS
 10
4.3587868447
 20
48.2252851161
 11
-4.359312047
 21
48.2252851161
  0
LINE
  5
529
100
AcDbEntity
  8
RACCORDO
100
AcDbLine
 62
250
  6
CONTINUOUS
 10
4.3587868447
 20
48.2959957942
 11
-4.359312047
 21
48.2959957942
  0
LINE
  5
52A
100
AcDbEntity
  8
RACCORDO
100
AcDbLine
 62
7
  6
CONTINUOUS
 10
4.447440671
 20
48.4202393979
 11
-4.4479829164
 21
48.4202393979
  0
LINE
  5
52B
100
AcDbEntity
  8
RACCORDO
100
AcDbLine
 62
250
  6
CONTINUOUS
 10
4.5796409989
 20
48.5552851161
 11
-4.5802266447
 21
48.5552851161
  0
LINE
  5
52C
100
AcDbEntity
  8
RACCORDO
100
AcDbLine
 62
250
  6
CONTINUOUS
 10
4.5796409989
 20
48.6259957942
 11
-4.5802266447
 21
48.6259957942
  0
LINE
  5
52D
100
AcDbEntity
  8
RACCORDO
100
AcDbLine
 62
7
  6
CONTINUOUS
 10
-4.6505189275
 20
48.7411588759
 11
4.6499885126
 21
48.7411588759
  0
LINE
  5
52E
100
AcDbEntity
  8
RACCORDO
100
AcDbLine
 62
250
  6
CONTINUOUS
 10
-4.7402132415
 20
48.831869554
 11
4.7397065745
 21
48.831869554
  0
LINE
  5
52F
100
AcDbEntity
  8
RACCORDO
100
AcDbLine
 62
250
  6
CONTINUOUS
 10
-4.7402132415
 20
48.9025802321
 11
4.7397065745
 21
48.9025802321
  0
LINE
  5
530
100
AcDbEntity
  8
RACCORDO
100
AcDbLine
 62
7
  6
CONTINUOUS
 10
-4.9198119359
 20
49.2611588759
 11
4.9195805004
 21
49.2611588759
  0
LINE
  5
531
100
AcDbEntity
  8
RACCORDO
100
AcDbLine
 62
250
  6
CONTINUOUS
 10
4.9785645001
 20
49.3289855638
 11
-4.9786994824
 21
49.3289855638
  0
LINE
  5
532
100
AcDbEntity
  8
RACCORDO
100
AcDbLine
 62
250
  6
CONTINUOUS
 10
4.9785645001
 20
49.3996962419
 11
-4.9786994824
 21
49.3996962419
  0
LINE
  5
533
100
AcDbEntity
  8
0
100
AcDbLine
 62
7
  6
CONTINUOUS
 10
-10.1
 20
49.484574438
 11
-9.1
 21
49.484574438
  0
LINE
  5
534
100
AcDbEntity
  8
0
100
AcDbLine
 62
7
  6
CONTINUOUS
 10
9.1
 20
49.484574438
 11
10.1
 21
49.484574438
  0
LINE
  5
535
100
AcDbEntity
  8
RACCORDO
100
AcDbLine
 62
7
  6
CONTINUOUS
 10
-5.086015684
 20
49.9165725887
 11
5.086015684
 21
49.9165725887
  0
LINE
  5
536
100
AcDbEntity
  8
RACCORDO
100
AcDbLine
 62
250
  6
CONTINUOUS
 10
-5.0855722062
 20
49.9572637944
 11
5.0855722062
 21
49.9572637944
  0
LINE
  5
537
100
AcDbEntity
  8
RACCORDO
100
AcDbLine
 62
250
  6
CONTINUOUS
 10
-5.0855722062
 20
50.0279660933
 11
5.0855722062
 21
50.0279660933
  0
LINE
  5
538
100
AcDbEntity
  8
RACCORDO
100
AcDbLine
 62
7
  6
CONTINUOUS
 10
-5.08788062
 20
50.3846182203
 11
5.08788062
 21
50.3846182203
  0
LINE
  5
539
100
AcDbEntity
  8
RACCORDO
100
AcDbLine
 62
250
  6
CONTINUOUS
 10
5.0855722062
 20
50.0279660933
 11
5.1855548301
 21
50.0273109757
  0
LWPOLYLINE
  5
53A
100
AcDbEntity
  8
RACCORDO
100
AcDbPolyline
 62
7
  6
CONTINUOUS
 90
7
 70
0
 10
4.9195805004
 20
49.2611588759
 10
4.9247357974
 20
49.2610533073
 10
4.929784796
 20
49.2607152797
 10
4.9347274961
 20
49.260144793
 10
4.9395638977
 20
49.2593418472
 10
4.9442940009
 20
49.2583064424
 10
4.9489178057
 20
49.2570385786
  0
LWPOLYLINE
  5
53B
100
AcDbEntity
  8
RACCORDO
100
AcDbPolyline
 62
7
  6
CONTINUOUS
 90
7
 70
0
 10
4.6499885126
 20
48.7411588759
 10
4.6567138689
 20
48.7410034352
 10
4.6632241234
 20
48.7404833553
 10
4.6695192762
 20
48.7395986361
 10
4.6755993273
 20
48.7383492776
 10
4.6814642767
 20
48.7367352799
 10
4.6871141243
 20
48.7347566429
  0
LWPOLYLINE
  5
53C
100
AcDbEntity
  8
RACCORDO
100
AcDbPolyline
 62
7
  6
CONTINUOUS
 90
7
 70
0
 10
4.4474405781
 20
48.4202393979
 10
4.4552595418
 20
48.4200550634
 10
4.4627690181
 20
48.419405799
 10
4.469969007
 20
48.4182916047
 10
4.4768595086
 20
48.4167124804
 10
4.4834405228
 20
48.4146684262
 10
4.4897120496
 20
48.412159442
  0
LWPOLYLINE
  5
53D
100
AcDbEntity
  8
RACCORDO
100
AcDbPolyline
 62
7
  6
CONTINUOUS
 90
7
 70
0
 10
4.2611472049
 20
48.164574438
 10
4.2699765477
 20
48.1643640201
 10
4.2783867448
 20
48.1635989254
 10
4.2863777963
 20
48.1622791541
 10
4.2939497021
 20
48.1604047061
 10
4.3011024622
 20
48.1579755814
 10
4.3078360767
 20
48.15499178
  0
LWPOLYLINE
  5
53E
100
AcDbEntity
  8
RACCORDO
100
AcDbPolyline
 62
7
  6
CONTINUOUS
 90
7
 70
0
 10
4.0066500722
 20
47.8577203714
 10
4.0170191968
 20
47.8574524353
 10
4.0267419383
 20
47.8565190784
 10
4.0358182968
 20
47.8549203008
 10
4.0442482722
 20
47.8526561023
 10
4.0520318645
 20
47.8497264831
 10
4.0591690738
 20
47.846131443
  0
LWPOLYLINE
  5
53F
100
AcDbEntity
  8
RACCORDO
100
AcDbPolyline
 62
7
  6
CONTINUOUS
 90
16
 70
0
 10
-3.4017732765
 20
47.2079508004
 10
-3.4105782164
 20
47.2082749327
 10
-3.419561464
 20
47.209157674
 10
-3.4287230194
 20
47.2105990242
 10
-3.4380829702
 20
47.2126070518
 10
-3.4476212288
 20
47.2151736884
 10
-3.4572775323
 20
47.2182747285
 10
-3.4670441749
 20
47.2218980576
 10
-3.4769288624
 20
47.2260557903
 10
-3.4868944499
 20
47.2307600651
 10
-3.4969391873
 20
47.2359950756
 10
-3.5070648247
 20
47.2417766283
 10
-3.517239467
 20
47.2481642812
 10
-3.5274524828
 20
47.2551778869
 10
-3.5377145037
 20
47.2627975929
 10
-3.5480255296
 20
47.2710233991
  0
LWPOLYLINE
  5
540
100
AcDbEntity
  8
RACCORDO
100
AcDbPolyline
 62
250
  6
CONTINUOUS
 90
16
 70
0
 10
-5.086015684
 20
49.9165725887
 10
-5.0963554596
 20
49.9170079273
 10
-5.1065844245
 20
49.918196566
 10
-5.1165929168
 20
49.9201257698
 10
-5.1262736377
 20
49.9227748648
 10
-5.1355227976
 20
49.9261154582
 10
-5.1442412301
 20
49.9301117419
 10
-5.1523354626
 20
49.9347208798
 10
-5.1597187089
 20
49.9398934625
 10
-5.1663117989
 20
49.9455740332
 10
-5.1720440442
 20
49.951701695
 10
-5.1768539813
 20
49.9582107539
 10
-5.1806900303
 20
49.9650314146
 10
-5.1835110621
 20
49.9720905474
 10
-5.1852868343
 20
49.9793124749
 10
-5.1859983079
 20
49.98661977
  0
LWPOLYLINE
  5
541
100
AcDbEntity
  8
RACCORDO
100
AcDbPolyline
 62
250
  6
CONTINUOUS
 90
16
 70
0
 10
-5.0855722062
 20
49.9572637944
 10
-5.0958947874
 20
49.9576977765
 10
-5.1061121862
 20
49.9588833439
 10
-5.1161148725
 20
49.9608089427
 10
-5.1257969366
 20
49.9634555632
 10
-5.1350523014
 20
49.9667956351
 10
-5.143776665
 20
49.9707921571
 10
-5.1518751481
 20
49.9754014471
 10
-5.1592623273
 20
49.9805746498
 10
-5.1658588342
 20
49.9862561515
 10
-5.1715938844
 20
49.9923848923
 10
-5.1764061031
 20
49.9988951761
 10
-5.1802439946
 20
50.0057172878
 10
-5.1830664075
 20
50.0127780973
 10
-5.1848430383
 20
50.0200018219
 10
-5.1855548301
 20
50.0273109757
  0
LINE
  5
542
100
AcDbEntity
  8
RACCORDO
100
AcDbLine
 62
250
  6
CONTINUOUS
 10
6.0129480756
 20
49.2033547289
 11
6.0275395162
 21
49.2010279609
  0
LWPOLYLINE
  5
543
100
AcDbEntity
  8
RACCORDO
100
AcDbPolyline
 62
250
  6
CONTINUOUS
 90
13
 70
0
 10
4.9785645001
 20
49.3289855638
 10
4.9888326408
 20
49.3272918844
 10
4.9989129635
 20
49.326460477
 10
5.0087308345
 20
49.3264672611
 10
5.0182682137
 20
49.3272958093
 10
5.0273979708
 20
49.3289368404
 10
5.0359202112
 20
49.331365893
 10
5.0438030859
 20
49.3345896452
 10
5.0509900453
 20
49.3385775423
 10
5.0573087768
 20
49.3432200326
 10
5.0626977759
 20
49.348460819
 10
5.0671620606
 20
49.3543164248
 10
5.070660005
 20
49.3607689432
  0
LINE
  5
544
100
AcDbEntity
  8
RACCORDO
100
AcDbLine
 62
7
  6
CONTINUOUS
 10
5.1994862458
 20
49.6501077587
 11
5.0947831274
 21
49.6685973334
  0
LINE
  5
545
100
AcDbEntity
  8
RACCORDO
100
AcDbLine
 62
7
  6
CONTINUOUS
 10
5.0947831274
 20
49.6685973334
 11
5.0844509516
 21
49.6704657332
  0
LINE
  5
546
100
AcDbEntity
  8
RACCORDO
100
AcDbLine
 62
7
  6
CONTINUOUS
 10
5.1843219849
 20
49.6527799061
 11
5.1836233554
 21
49.6529089899
  0
LINE
  5
547
100
AcDbEntity
  8
DRAFT
100
AcDbLine
 62
7
  6
CONTINUOUS
 10
5.7
 20
49.4620183398
 11
5.3000480383
 21
49.5369475812
  0
LINE
  5
548
100
AcDbEntity
  8
RACCORDO
100
AcDbLine
 62
250
  6
CONTINUOUS
 10
6.0858595293
 20
49.5781897257
 11
6.0999166395
 21
49.5754572065
  0
LWPOLYLINE
  5
549
100
AcDbEntity
  8
RACCORDO
100
AcDbPolyline
 62
250
  6
CONTINUOUS
 90
13
 70
0
 10
4.7397065745
 20
48.831869554
 10
4.749164553
 20
48.8296934864
 10
4.7584888789
 20
48.8283135356
 10
4.7676059124
 20
48.8277070931
 10
4.776495368
 20
48.8278470678
 10
4.7850361602
 20
48.82873102
 10
4.7930504072
 20
48.8303604502
 10
4.8005295372
 20
48.8327410333
 10
4.8074248696
 20
48.8358409938
 10
4.8135777195
 20
48.8395814952
 10
4.8189460265
 20
48.8439238485
 10
4.8235502154
 20
48.848887457
 10
4.8273546797
 20
48.8544700334
  0
LWPOLYLINE
  5
54A
100
AcDbEntity
  8
RACCORDO
100
AcDbPolyline
 62
250
  6
CONTINUOUS
 90
13
 70
0
 10
4.5796409989
 20
48.5552851161
 10
4.5886181333
 20
48.5528546562
 10
4.5974932661
 20
48.5511822016
 10
4.6061915304
 20
48.5502465488
 10
4.6146864296
 20
48.5500152379
 10
4.6228610373
 20
48.5504894098
 10
4.6305545886
 20
48.5516841956
 10
4.6377676538
 20
48.5536030146
 10
4.6444529599
 20
48.5562125082
 10
4.6504639447
 20
48.5594511256
 10
4.6557696758
 20
48.5632888577
 10
4.6603963045
 20
48.5677438946
 10
4.6643117906
 20
48.5728206943
  0
LINE
  5
54B
100
AcDbEntity
  8
RACCORDO
100
AcDbLine
 62
250
  6
CONTINUOUS
 10
-8.4938267808
 20
52.1696157076
 11
-8.1428500694
 21
52.0652986601
  0
LINE
  5
54C
100
AcDbEntity
  8
RACCORDO
100
AcDbLine
 62
250
  6
CONTINUOUS
 10
-8.3461056179
 20
52.3194101379
 11
-7.9942591244
 21
52.2148345743
  0
LWPOLYLINE
  5
54D
100
AcDbEntity
  8
RACCORDO
100
AcDbPolyline
 62
250
  6
CONTINUOUS
 90
13
 70
0
 10
4.3587868447
 20
48.2252851161
 10
4.3671405869
 20
48.2225639009
 10
4.3754356683
 20
48.2205515578
 10
4.3835942927
 20
48.2192297484
 10
4.3915779672
 20
48.2185606635
 10
4.3992747546
 20
48.2185505188
 10
4.4065476252
 20
48.2192310691
 10
4.4134036685
 20
48.2206021358
 10
4.4197933268
 20
48.2226276823
 10
4.425587429
 20
48.2252663325
 10
4.4307681261
 20
48.2284967499
 10
4.4353656051
 20
48.2323328288
 10
4.4393523274
 20
48.2367847432
  0
LWPOLYLINE
  5
54E
100
AcDbEntity
  8
RACCORDO
100
AcDbPolyline
 62
250
  6
CONTINUOUS
 90
10
 70
0
 10
4.1984809182
 20
48.0152851161
 10
4.2091183706
 20
48.0114949769
 10
4.2195840259
 20
48.0089631971
 10
4.2297190335
 20
48.0076318017
 10
4.2394703987
 20
48.0074231281
 10
4.2485954603
 20
48.0083272055
 10
4.2568199228
 20
48.0103524798
 10
4.2641307738
 20
48.0134680653
 10
4.2705739836
 20
48.0176534795
 10
4.2760702976
 20
48.022934855
  0
LWPOLYLINE
  5
54F
100
AcDbEntity
  8
DRAFT
100
AcDbPolyline
 62
7
  6
CONTINUOUS
 90
5
 70
0
 10
-9.6772961715
 20
53.9930925882
 10
-9.6690407386
 20
53.9895859571
 10
-9.6608353645
 20
53.9861654559
 10
-9.652706646
 20
53.9828328175
 10
-9.6446545832
 20
53.9795880418
  0
LWPOLYLINE
  5
550
100
AcDbEntity
  8
RACCORDO
100
AcDbPolyline
 62
250
  6
CONTINUOUS
 90
3
 70
0
 10
5.0396368436
 20
49.3739051893
 10
5.0464212096
 20
49.3709913462
 10
5.0578092395
 20
49.366223221
  0
LWPOLYLINE
  5
551
100
AcDbEntity
  8
RACCORDO
100
AcDbPolyline
 62
250
  6
CONTINUOUS
 90
6
 70
0
 10
5.0578092395
 20
49.366223221
 10
5.0622192027
 20
49.3643130844
 10
5.0657630493
 20
49.3628388193
 10
5.068399678
 20
49.3618153944
 10
5.0700438125
 20
49.3611419074
 10
5.070660005
 20
49.3607689432
  0
LWPOLYLINE
  5
552
100
AcDbEntity
  8
RACCORDO
100
AcDbPolyline
 62
250
  6
CONTINUOUS
 90
7
 70
0
 10
4.9785645
 20
49.3996962417
 10
4.9880118357
 20
49.3955919515
 10
4.9974326361
 20
49.3916309661
 10
5.0066914142
 20
49.3878074483
 10
5.0156138951
 20
49.3840593374
 10
5.0241090304
 20
49.3804226721
 10
5.0396368436
 20
49.3739051893
  0
LINE
  5
553
100
AcDbEntity
  8
DRAFT
100
AcDbLine
 62
7
  6
CONTINUOUS
 10
-9.7027760938
 20
54.0041549992
 11
-9.6772961715
 21
53.9930925882
  0
LINE
  5
554
100
AcDbEntity
  8
DRAFT
100
AcDbLine
 62
7
  6
CONTINUOUS
 10
-9.748824449
 20
54.0245182865
 11
-9.7027760938
 21
54.0041549992
  0
LINE
  5
555
100
AcDbEntity
  8
DRAFT
100
AcDbLine
 62
7
  6
CONTINUOUS
 10
-9.8828427125
 20
54.084574438
 11
-9.748824449
 21
54.0245182865
  0
LWPOLYLINE
  5
556
100
AcDbEntity
  8
RACCORDO
100
AcDbPolyline
 62
250
  6
CONTINUOUS
 90
9
 70
0
 10
3.8150751375
 20
47.5867401024
 10
3.824429074
 20
47.5824523945
 10
3.8337467278
 20
47.5793097723
 10
3.8428509739
 20
47.5772667857
 10
3.8516268106
 20
47.5762285629
 10
3.859852324
 20
47.5761995513
 10
3.8673515851
 20
47.5772406126
 10
3.8741366873
 20
47.5793302996
 10
3.8802188617
 20
47.5824131905
  0
LWPOLYLINE
  5
557
100
AcDbEntity
  8
RACCORDO
100
AcDbPolyline
 62
250
  6
CONTINUOUS
 90
3
 70
0
 10
4.7978392568
 20
48.8706977958
 10
4.8042848447
 20
48.8671049202
 10
4.8151273998
 20
48.8612069297
  0
LWPOLYLINE
  5
558
100
AcDbEntity
  8
RACCORDO
100
AcDbPolyline
 62
250
  6
CONTINUOUS
 90
6
 70
0
 10
4.8151273998
 20
48.8612069297
 10
4.8193151683
 20
48.8588523298
 10
4.8226915032
 20
48.8570296875
 10
4.8252167079
 20
48.8557555963
 10
4.8267859294
 20
48.8549205387
 10
4.8273546797
 20
48.8544700334
  0
LWPOLYLINE
  5
559
100
AcDbEntity
  8
RACCORDO
100
AcDbPolyline
 62
250
  6
CONTINUOUS
 90
7
 70
0
 10
4.7397065745
 20
48.9025802321
 10
4.7486705978
 20
48.8975216392
 10
4.7576471511
 20
48.892621008
 10
4.7664861999
 20
48.8878808579
 10
4.7749859827
 20
48.8832455609
 10
4.7830583884
 20
48.878759124
 10
4.7978392568
 20
48.8706977958
  0
LINE
  5
55A
100
AcDbEntity
  8
RACCORDO
100
AcDbLine
 62
7
  6
CONTINUOUS
 10
9.4290614477
 20
53.8357936104
 11
9.1
 21
54.084574438
  0
LWPOLYLINE
  5
55B
100
AcDbEntity
  8
0
100
AcDbPolyline
 62
7
  6
CONTINUOUS
 90
10
 70
0
 10
6.881811893
 20
80.4482673698
 10
6.8974032684
 20
80.4235437979
 10
6.9142950107
 20
80.4002980344
 10
6.9324871199
 20
80.3785300794
 10
6.951841234
 20
80.3583315321
 10
6.972495715
 20
80.3396107933
 10
6.9948656487
 20
80.3220930652
 10
7.0190893968
 20
80.3056867486
 10
7.0450285976
 20
80.2904834428
 10
7.0726832509
 20
80.2764831477
  0
LWPOLYLINE
  5
55C
100
AcDbEntity
  8
0
100
AcDbPolyline
 62
7
  6
CONTINUOUS
 90
10
 70
0
 10
6.881811893
 20
81.886165207
 10
6.8974033445
 20
81.8614415215
 10
6.9142951513
 20
81.8381956627
 10
6.9324873135
 20
81.8164276304
 10
6.9518414792
 20
81.7962290206
 10
6.9724960003
 20
81.7775082374
 10
6.9948659324
 20
81.7599904936
 10
7.0190896275
 20
81.7435841933
 10
7.0450287337
 20
81.7283809323
 10
7.0726832509
 20
81.7143807107
  0
LWPOLYLINE
  5
55D
100
AcDbEntity
  8
0
100
AcDbPolyline
 62
7
  6
CONTINUOUS
 90
10
 70
0
 10
6.881811893
 20
83.32406277
 10
6.8974033445
 20
83.2993390845
 10
6.9142951513
 20
83.2760932256
 10
6.9324873135
 20
83.2543251934
 10
6.9518414792
 20
83.2341265836
 10
6.9724960003
 20
83.2154058004
 10
6.9948659324
 20
83.1978880566
 10
7.0190896275
 20
83.1814817563
 10
7.0450287337
 20
83.1662784953
 10
7.0726832509
 20
83.1522782737
  0
LWPOLYLINE
  5
55E
100
AcDbEntity
  8
0
100
AcDbPolyline
 62
7
  6
CONTINUOUS
 90
10
 70
0
 10
7.4671507239
 20
78.9212963694
 10
7.4530195367
 20
78.9438024381
 10
7.4386678204
 20
78.9660201986
 10
7.4240955752
 20
78.9879496506
 10
7.40935729
 20
79.0095154007
 10
7.3943984759
 20
79.0307928425
 10
7.3790556658
 20
79.0520081568
 10
7.3632743709
 20
79.0732367374
 10
7.3471090801
 20
79.0944031906
 10
7.3305597935
 20
79.1155075163
  0
LWPOLYLINE
  5
55F
100
AcDbEntity
  8
RACCORDO
100
AcDbPolyline
 62
250
  6
CONTINUOUS
 90
12
 70
0
 10
-8.4938267808
 20
52.7995331684
 10
-8.501326656
 20
52.7978604447
 10
-8.5110469148
 20
52.7962759443
 10
-8.5229875574
 20
52.7947796673
 10
-8.5374992635
 20
52.7933619082
 10
-8.5542313532
 20
52.7920323723
 10
-8.5721317868
 20
52.7908201765
 10
-8.5911564843
 20
52.7897368718
 10
-8.6113495256
 20
52.788770907
 10
-8.6317911108
 20
52.787916745
 10
-8.6520786292
 20
52.787183298
 10
-8.6726146915
 20
52.7865616537
  0
LWPOLYLINE
  5
560
100
AcDbEntity
  8
RACCORDO
100
AcDbPolyline
 62
250
  6
CONTINUOUS
 90
9
 70
0
 10
-8.3461056179
 20
52.649738922
 10
-8.3562526689
 20
52.6480658707
 10
-8.3702485393
 20
52.646481168
 10
-8.387763864
 20
52.6449848141
 10
-8.4085529966
 20
52.6435671697
 10
-8.4321966105
 20
52.642237874
 10
-8.457969914
 20
52.6410258442
 10
-8.4853201957
 20
52.6399425352
 10
-8.5139028155
 20
52.6389764922
  0
LINE
  5
561
100
AcDbEntity
  8
RACCORDO
100
AcDbLine
 62
7
  6
CONTINUOUS
 10
-10.4450972632
 20
51.1333552656
 11
-10.6
 21
51.1198030322
  0
LINE
  5
562
100
AcDbEntity
  8
RACCORDO
100
AcDbLine
 62
7
  6
CONTINUOUS
 10
10.6
 20
53.8493458438
 11
10.4450972632
 21
53.8357936104
  0
LWPOLYLINE
  5
563
100
AcDbEntity
  8
RACCORDO
100
AcDbPolyline
 62
250
  6
CONTINUOUS
 90
19
 70
0
 10
8.1638280748
 20
53.0630890633
 10
8.1325401911
 20
53.0611735523
 10
8.1025891903
 20
53.0567548476
 10
8.0739750723
 20
53.0498329492
 10
8.0464330553
 20
53.0400541665
 10
8.0202279211
 20
53.0277721901
 10
7.9961540149
 20
53.0140480918
 10
7.9745454064
 20
52.9990139175
 10
7.955068026
 20
52.9825376213
 10
7.9375140099
 20
52.9652841382
 10
7.9219493107
 20
52.9475400228
 10
7.9083079759
 20
52.9290187206
 10
7.8961842847
 20
52.9095255026
 10
7.8853696634
 20
52.8891705801
 10
7.8760726858
 20
52.8678437419
 10
7.868513352
 20
52.8450196255
 10
7.8627649954
 20
52.8205231101
 10
7.8587542827
 20
52.7945293165
 10
7.8564812139
 20
52.7670382448
  0
LWPOLYLINE
  5
564
100
AcDbEntity
  8
RACCORDO
100
AcDbPolyline
 62
250
  6
CONTINUOUS
 90
19
 70
0
 10
-8.1428506397
 20
51.9311834994
 10
-8.1132309922
 20
51.9327742163
 10
-8.0846339583
 20
51.9368832855
 10
-8.0570595378
 20
51.9435107069
 10
-8.0301790799
 20
51.9529554487
 10
-8.0043212355
 20
51.9649185428
 10
-7.9804719578
 20
51.9785030847
 10
-7.9589661493
 20
51.9936553015
 10
-7.9394689075
 20
52.0104289661
 10
-7.9219614779
 20
52.0280884929
 10
-7.9065492868
 20
52.0463685533
 10
-7.8931269079
 20
52.0655344758
 10
-7.8813593089
 20
52.0856466607
 10
-7.8710717032
 20
52.1065696205
 10
-7.8624388772
 20
52.1284388428
 10
-7.8556501574
 20
52.15172119
 10
-7.8507686526
 20
52.176572283
 10
-7.8477312539
 20
52.2028365009
 10
-7.8465379614
 20
52.2305138438
  0
LINE
  5
565
100
AcDbEntity
  8
DRAFT
100
AcDbLine
 62
7
  6
CONTINUOUS
 10
10.1
 20
51.0726750646
 11
10.6
 21
51.0979308663
  0
LINE
  5
566
100
AcDbEntity
  8
DRAFT
100
AcDbLine
 62
7
  6
CONTINUOUS
 10
-10.6
 20
53.8712180097
 11
-10.1
 21
53.8964738114
  0
LWPOLYLINE
  5
567
100
AcDbEntity
  8
RACCORDO
100
AcDbPolyline
 62
250
  6
CONTINUOUS
 90
19
 70
0
 10
8.1638280737
 20
52.8976151484
 10
8.1478950784
 20
52.896990695
 10
8.1324055383
 20
52.8948860975
 10
8.1174914822
 20
52.8914075721
 10
8.103188292
 20
52.8866444609
 10
8.0896757311
 20
52.8807315496
 10
8.0772488918
 20
52.8739093695
 10
8.0660401367
 20
52.8664268996
 10
8.055936424
 20
52.8583932476
 10
8.0468281392
 20
52.8498550185
 10
8.0387706047
 20
52.8410042691
 10
8.0316734282
 20
52.831886709
 10
8.0252911698
 20
52.8222352434
 10
8.0196673533
 20
52.8121069132
 10
8.0148463191
 20
52.8015486945
 10
8.0107501066
 20
52.7901909181
 10
8.0074897251
 20
52.7779261378
 10
8.0052588729
 20
52.7649542646
 10
8.0042022308
 20
52.7513590187
  0
LWPOLYLINE
  5
568
100
AcDbEntity
  8
RACCORDO
100
AcDbPolyline
 62
250
  6
CONTINUOUS
 90
19
 70
0
 10
-8.1428508038
 20
52.0652988784
 10
-8.1278093812
 20
52.0658703727
 10
-8.1130948323
 20
52.0678293838
 10
-8.098830524
 20
52.071127721
 10
-8.0850400687
 20
52.0757434942
 10
-8.0719307799
 20
52.0815877811
 10
-8.0598550235
 20
52.0884217397
 10
-8.0489571289
 20
52.0960243113
 10
-8.0391503726
 20
52.1043024471
 10
-8.0303859619
 20
52.1131508243
 10
-8.0227238707
 20
52.1223646219
 10
-8.0160801044
 20
52.1319033089
 10
-8.0102476665
 20
52.1419782187
 10
-8.0052670952
 20
52.1525074897
 10
-8.001170782
 20
52.1634509554
 10
-7.9978930443
 20
52.1751648891
 10
-7.9955401434
 20
52.1877486208
 10
-7.9942856361
 20
52.2010004036
 10
-7.9942594968
 20
52.214834685
  0
LWPOLYLINE
  5
569
100
AcDbEntity
  8
RACCORDO
100
AcDbPolyline
 62
250
  6
CONTINUOUS
 90
10
 70
0
 10
-7.8465379614
 20
52.2305138438
 10
-7.8697277459
 20
52.2299001995
 10
-7.8923597354
 20
52.2289241745
 10
-7.913889552
 20
52.2276092456
 10
-7.9337993285
 20
52.2259870414
 10
-7.9516101657
 20
52.2240965816
 10
-7.9668936511
 20
52.2219833384
 10
-7.9792821635
 20
52.2196981425
 10
-7.9884777163
 20
52.2172959609
 10
-7.9942591244
 20
52.2148345743
  0
LWPOLYLINE
  5
56A
100
AcDbEntity
  8
RACCORDO
100
AcDbPolyline
 62
250
  6
CONTINUOUS
 90
10
 70
0
 10
-7.8564812139
 20
52.7670382448
 10
-7.8796718069
 20
52.7664245395
 10
-7.9023043383
 20
52.7654484477
 10
-7.923834412
 20
52.7641334585
 10
-7.9437441611
 20
52.7625112129
 10
-7.961554751
 20
52.7606207391
 10
-7.9768378762
 20
52.7585075107
 10
-7.9892259971
 20
52.7562223596
 10
-7.9984211964
 20
52.7538202549
 10
-8.0042023768
 20
52.7513589753
  0
LINE
  5
56B
100
AcDbEntity
  8
RACCORDO
100
AcDbLine
 62
250
  6
CONTINUOUS
 10
8.5139028155
 20
52.3301723839
 11
8.572400589
 21
52.3317600717
  0
LINE
  5
56C
100
AcDbEntity
  8
RACCORDO
100
AcDbLine
 62
250
  6
CONTINUOUS
 10
-8.5139028155
 20
52.6389764922
 11
-8.572400589
 21
52.6373888044
  0
LWPOLYLINE
  5
56D
100
AcDbEntity
  8
RACCORDO
100
AcDbPolyline
 62
250
  6
CONTINUOUS
 90
3
 70
0
 10
8.6726146915
 20
52.1825872224
 10
8.715150252
 20
52.1836028041
 10
8.7371497504
 20
52.1839967416
  0
LWPOLYLINE
  5
56E
100
AcDbEntity
  8
RACCORDO
100
AcDbPolyline
 62
250
  6
CONTINUOUS
 90
3
 70
0
 10
-8.6726146915
 20
52.7865616537
 10
-8.715150252
 20
52.7855460719
 10
-8.7371497504
 20
52.7851521344
  0
LINE
  5
56F
100
AcDbEntity
  8
RACCORDO
100
AcDbLine
 62
250
  6
CONTINUOUS
 10
8.572400589
 20
52.3317600717
 11
8.6316206871
 21
52.3329238184
  0
LINE
  5
570
100
AcDbEntity
  8
RACCORDO
100
AcDbLine
 62
250
  6
CONTINUOUS
 10
-8.572400589
 20
52.6373888044
 11
-8.6316206871
 21
52.6362250576
  0
LINE
  5
571
100
AcDbEntity
  8
RACCORDO
100
AcDbLine
 62
250
  6
CONTINUOUS
 10
8.6316206871
 20
52.3329238184
 11
8.6937039705
 21
52.3337911258
  0
LINE
  5
572
100
AcDbEntity
  8
RACCORDO
100
AcDbLine
 62
250
  6
CONTINUOUS
 10
-8.6316206871
 20
52.6362250576
 11
-8.6937039705
 21
52.6353577502
  0
LINE
  5
573
100
AcDbEntity
  8
RACCORDO
100
AcDbLine
 62
250
  6
CONTINUOUS
 10
8.7371497504
 20
52.1839967416
 11
8.7851815025
 21
52.1845448321
  0
LINE
  5
574
100
AcDbEntity
  8
RACCORDO
100
AcDbLine
 62
250
  6
CONTINUOUS
 10
-8.7371497504
 20
52.7851521344
 11
-8.7851815025
 21
52.7846040439
  0
LINE
  5
575
100
AcDbEntity
  8
RACCORDO
100
AcDbLine
 62
250
  6
CONTINUOUS
 10
-5.1867175963
 20
50.5671619889
 11
-5.0867349724
 21
50.5678171065
  0
LINE
  5
576
100
AcDbEntity
  8
RACCORDO
100
AcDbLine
 62
250
  6
CONTINUOUS
 10
-5.1886395059
 20
51.1695927316
 11
-5.088656882
 21
51.1702478492
  0
LINE
  5
577
100
AcDbEntity
  8
RACCORDO
100
AcDbLine
 62
250
  6
CONTINUOUS
 10
-5.1914134162
 20
51.7422167233
 11
-5.0914307922
 21
51.7428718409
  0
LINE
  5
578
100
AcDbEntity
  8
RACCORDO
100
AcDbLine
 62
250
  6
CONTINUOUS
 10
8.6937039705
 20
52.3337911258
 11
8.7624929859
 21
52.3343391873
  0
LINE
  5
579
100
AcDbEntity
  8
RACCORDO
100
AcDbLine
 62
250
  6
CONTINUOUS
 10
-5.1946358364
 20
52.3566517908
 11
-5.0946532124
 21
52.3573069083
  0
LINE
  5
57A
100
AcDbEntity
  8
RACCORDO
100
AcDbLine
 62
250
  6
CONTINUOUS
 10
-8.6937039705
 20
52.6353577502
 11
-8.7624929859
 21
52.6348096888
  0
LINE
  5
57B
100
AcDbEntity
  8
RACCORDO
100
AcDbLine
 62
250
  6
CONTINUOUS
 10
-5.1971924558
 20
52.7468375065
 11
-5.0972098319
 21
52.7474926241
  0
LINE
  5
57C
100
AcDbEntity
  8
RACCORDO
100
AcDbLine
 62
250
  6
CONTINUOUS
 10
-5.1971367327
 20
52.8182517908
 11
-5.0971541088
 21
52.8189069083
  0
LINE
  5
57D
100
AcDbEntity
  8
RACCORDO
100
AcDbLine
 62
250
  6
CONTINUOUS
 10
8.7851815025
 20
52.1845448321
 11
8.8385094944
 21
52.18477325
  0
LINE
  5
57E
100
AcDbEntity
  8
RACCORDO
100
AcDbLine
 62
250
  6
CONTINUOUS
 10
-8.7851815025
 20
52.7846040439
 11
-8.8385094944
 21
52.784375626
  0
LINE
  5
57F
100
AcDbEntity
  8
RACCORDO
100
AcDbLine
 62
250
  6
CONTINUOUS
 10
-5.0867349724
 20
50.4989662906
 11
5.0867349724
 21
50.4989662906
  0
LINE
  5
580
100
AcDbEntity
  8
RACCORDO
100
AcDbLine
 62
250
  6
CONTINUOUS
 10
-5.0867349724
 20
50.5678171065
 11
5.0867349724
 21
50.5678171065
  0
LINE
  5
581
100
AcDbEntity
  8
DRAFT
100
AcDbLine
 62
7
  6
CONTINUOUS
 10
10.1
 20
50.884574438
 11
9.8828427125
 21
50.884574438
  0
LINE
  5
582
100
AcDbEntity
  8
DRAFT
100
AcDbLine
 62
7
  6
CONTINUOUS
 10
9.3171572875
 20
50.884574438
 11
9.1
 21
50.884574438
  0
LINE
  5
583
100
AcDbEntity
  8
DRAFT
100
AcDbLine
 62
7
  6
CONTINUOUS
 10
-9.1
 20
50.884574438
 11
-9.3171572875
 21
50.884574438
  0
LINE
  5
584
100
AcDbEntity
  8
DRAFT
100
AcDbLine
 62
7
  6
CONTINUOUS
 10
-9.8828427125
 20
50.884574438
 11
-10.1
 21
50.884574438
  0
LINE
  5
585
100
AcDbEntity
  8
DRAFT
100
AcDbLine
 62
7
  6
CONTINUOUS
 10
9.6446545832
 20
50.9895608342
 11
9.5553454168
 21
50.9895608342
  0
LINE
  5
586
100
AcDbEntity
  8
DRAFT
100
AcDbLine
 62
7
  6
CONTINUOUS
 10
-9.5553454168
 20
50.9895608342
 11
-9.6446545832
 21
50.9895608342
  0
LINE
  5
587
100
AcDbEntity
  8
RACCORDO
100
AcDbLine
 62
7
  6
CONTINUOUS
 10
-5.0895914637
 20
51.0081156296
 11
5.0895914637
 21
51.0081156296
  0
LINE
  5
588
100
AcDbEntity
  8
RACCORDO
100
AcDbLine
 62
250
  6
CONTINUOUS
 10
-5.088656882
 20
51.1013970333
 11
5.088656882
 21
51.1013970333
  0
LINE
  5
589
100
AcDbEntity
  8
RACCORDO
100
AcDbLine
 62
250
  6
CONTINUOUS
 10
10.4450972632
 20
51.1333552656
 11
9.4290614477
 21
51.1333552656
  0
LINE
  5
58A
100
AcDbEntity
  8
RACCORDO
100
AcDbLine
 62
250
  6
CONTINUOUS
 10
-9.4290614477
 20
51.1333552656
 11
-10.4450972632
 21
51.1333552656
  0
LINE
  5
58B
100
AcDbEntity
  8
RACCORDO
100
AcDbLine
 62
250
  6
CONTINUOUS
 10
-5.088656882
 20
51.1702478492
 11
5.088656882
 21
51.1702478492
  0
LINE
  5
58C
100
AcDbEntity
  8
RACCORDO
100
AcDbLine
 62
250
  6
CONTINUOUS
 10
9.9886751346
 20
51.6314526147
 11
9.4818790363
 21
51.6314526147
  0
LINE
  5
58D
100
AcDbEntity
  8
RACCORDO
100
AcDbLine
 62
250
  6
CONTINUOUS
 10
-9.4818790363
 20
51.6314526147
 11
-9.9886751346
 21
51.6314526147
  0
LINE
  5
58E
100
AcDbEntity
  8
RACCORDO
100
AcDbLine
 62
7
  6
CONTINUOUS
 10
-5.0917321763
 20
51.6439396213
 11
5.0917321763
 21
51.6439396213
  0
LINE
  5
58F
100
AcDbEntity
  8
RACCORDO
100
AcDbLine
 62
250
  6
CONTINUOUS
 10
-5.0914307922
 20
51.6740210249
 11
5.0914307922
 21
51.6740210249
  0
LINE
  5
590
100
AcDbEntity
  8
RACCORDO
100
AcDbLine
 62
250
  6
CONTINUOUS
 10
-5.0914307922
 20
51.7428718409
 11
5.0914307922
 21
51.7428718409
  0
LINE
  5
591
100
AcDbEntity
  8
RACCORDO
100
AcDbLine
 62
250
  6
CONTINUOUS
 10
-9.1
 20
51.9311834994
 11
-8.1428506397
 21
51.9311834994
  0
LINE
  5
592
100
AcDbEntity
  8
RACCORDO
100
AcDbLine
 62
250
  6
CONTINUOUS
 10
8.1428506254
 20
51.9311834994
 11
9.1
 21
51.9311834994
  0
LINE
  5
593
100
AcDbEntity
  8
RACCORDO
100
AcDbLine
 62
250
  6
CONTINUOUS
 10
-9.1
 20
52.0652986601
 11
-8.1428500694
 21
52.0652986601
  0
LINE
  5
594
100
AcDbEntity
  8
RACCORDO
100
AcDbLine
 62
250
  6
CONTINUOUS
 10
8.1428500694
 20
52.0652986601
 11
9.1
 21
52.0652986601
  0
LINE
  5
595
100
AcDbEntity
  8
RACCORDO
100
AcDbLine
 62
250
  6
CONTINUOUS
 10
8.8385094944
 20
52.18477325
 11
9.2108433288
 21
52.18477325
  0
LINE
  5
596
100
AcDbEntity
  8
RACCORDO
100
AcDbLine
 62
7
  6
CONTINUOUS
 10
-5.0948490636
 20
52.2689080221
 11
5.0948490636
 21
52.2689080221
  0
LINE
  5
597
100
AcDbEntity
  8
RACCORDO
100
AcDbLine
 62
250
  6
CONTINUOUS
 10
-5.0946532124
 20
52.2884560924
 11
5.0946532124
 21
52.2884560924
  0
LINE
  5
598
100
AcDbEntity
  8
RACCORDO
100
AcDbLine
 62
250
  6
CONTINUOUS
 10
8.7624929859
 20
52.3343391873
 11
9.2272930121
 21
52.3345676802
  0
LINE
  5
599
100
AcDbEntity
  8
RACCORDO
100
AcDbLine
 62
250
  6
CONTINUOUS
 10
-5.0946532124
 20
52.3573069083
 11
5.0946532124
 21
52.3573069083
  0
LINE
  5
59A
100
AcDbEntity
  8
RACCORDO
100
AcDbLine
 62
250
  6
CONTINUOUS
 10
6.0858595293
 20
52.614942711
 11
5.7
 21
52.614942711
  0
LINE
  5
59B
100
AcDbEntity
  8
RACCORDO
100
AcDbLine
 62
250
  6
CONTINUOUS
 10
-5.7
 20
52.614942711
 11
-6.0858595293
 21
52.614942711
  0
LINE
  5
59C
100
AcDbEntity
  8
RACCORDO
100
AcDbLine
 62
250
  6
CONTINUOUS
 10
-8.7624929859
 20
52.6348096888
 11
-9.2272930121
 21
52.6345811958
  0
LINE
  5
59D
100
AcDbEntity
  8
RACCORDO
100
AcDbLine
 62
7
  6
CONTINUOUS
 10
-5.0972098319
 20
52.7474926241
 11
5.0972098319
 21
52.7474926241
  0
LINE
  5
59E
100
AcDbEntity
  8
RACCORDO
100
AcDbLine
 62
250
  6
CONTINUOUS
 10
-8.8385094944
 20
52.784375626
 11
-9.2108433288
 21
52.784375626
  0
LINE
  5
59F
100
AcDbEntity
  8
RACCORDO
100
AcDbLine
 62
250
  6
CONTINUOUS
 10
-5.0971541088
 20
52.8189069083
 11
5.0971541088
 21
52.8189069083
  0
LINE
  5
5A0
100
AcDbEntity
  8
RACCORDO
100
AcDbLine
 62
250
  6
CONTINUOUS
 10
9.1
 20
52.8976153636
 11
8.1638273498
 21
52.8976153636
  0
LINE
  5
5A1
100
AcDbEntity
  8
RACCORDO
100
AcDbLine
 62
250
  6
CONTINUOUS
 10
-8.1638273498
 20
52.8976153636
 11
-9.1
 21
52.8976153636
  0
LINE
  5
5A2
100
AcDbEntity
  8
RACCORDO
100
AcDbLine
 62
250
  6
CONTINUOUS
 10
9.1
 20
53.0630890633
 11
8.1638280748
 21
53.0630890633
  0
LINE
  5
5A3
100
AcDbEntity
  8
RACCORDO
100
AcDbLine
 62
250
  6
CONTINUOUS
 10
-8.1638278363
 20
53.0630890633
 11
-9.1
 21
53.0630890633
  0
LINE
  5
5A4
100
AcDbEntity
  8
RACCORDO
100
AcDbLine
 62
250
  6
CONTINUOUS
 10
6.0901468108
 20
53.1148665586
 11
5.3098531892
 21
53.1148665586
  0
LINE
  5
5A5
100
AcDbEntity
  8
RACCORDO
100
AcDbLine
 62
250
  6
CONTINUOUS
 10
-5.3098531892
 20
53.1148665586
 11
-6.0901468108
 21
53.1148665586
  0
LINE
  5
5A6
100
AcDbEntity
  8
DRAFT
100
AcDbLine
 62
7
  6
CONTINUOUS
 10
6.0966582385
 20
53.127890406
 11
5.3033417615
 21
53.127890406
  0
LINE
  5
5A7
100
AcDbEntity
  8
DRAFT
100
AcDbLine
 62
7
  6
CONTINUOUS
 10
-5.3033417615
 20
53.127890406
 11
-6.0966582385
 21
53.127890406
  0
LINE
  5
5A8
100
AcDbEntity
  8
RACCORDO
100
AcDbLine
 62
7
  6
CONTINUOUS
 10
-5.100038344
 20
53.2590926241
 11
5.100038344
 21
53.2590926241
  0
LINE
  5
5A9
100
AcDbEntity
  8
DRAFT
100
AcDbLine
 62
250
  6
CONTINUOUS
 10
-5.1982544935
 20
53.3305069083
 11
5.1982544935
 21
53.3305069083
  0
LINE
  5
5AA
100
AcDbEntity
  8
RACCORDO
100
AcDbLine
 62
250
  6
CONTINUOUS
 10
-9.9886751346
 20
53.3376962614
 11
-9.4818790363
 21
53.3376962614
  0
LINE
  5
5AB
100
AcDbEntity
  8
RACCORDO
100
AcDbLine
 62
250
  6
CONTINUOUS
 10
9.4818790363
 20
53.3376962614
 11
9.9886751346
 21
53.3376962614
  0
LINE
  5
5AC
100
AcDbEntity
  8
RACCORDO
100
AcDbLine
 62
250
  6
CONTINUOUS
 10
-10.4450972632
 20
53.8357936104
 11
-9.4290614477
 21
53.8357936104
  0
LINE
  5
5AD
100
AcDbEntity
  8
RACCORDO
100
AcDbLine
 62
250
  6
CONTINUOUS
 10
9.4290614477
 20
53.8357936104
 11
10.4450972632
 21
53.8357936104
  0
LINE
  5
5AE
100
AcDbEntity
  8
DRAFT
100
AcDbLine
 62
7
  6
CONTINUOUS
 10
9.6446545832
 20
53.9795880418
 11
9.5553454168
 21
53.9795880418
  0
LINE
  5
5AF
100
AcDbEntity
  8
DRAFT
100
AcDbLine
 62
7
  6
CONTINUOUS
 10
-9.5553454168
 20
53.9795880418
 11
-9.6446545832
 21
53.9795880418
  0
LINE
  5
5B0
100
AcDbEntity
  8
DRAFT
100
AcDbLine
 62
7
  6
CONTINUOUS
 10
10.1
 20
54.084574438
 11
9.8828427125
 21
54.084574438
  0
LINE
  5
5B1
100
AcDbEntity
  8
DRAFT
100
AcDbLine
 62
7
  6
CONTINUOUS
 10
9.3171572875
 20
54.084574438
 11
9.1
 21
54.084574438
  0
LINE
  5
5B2
100
AcDbEntity
  8
DRAFT
100
AcDbLine
 62
7
  6
CONTINUOUS
 10
-9.1
 20
54.084574438
 11
-9.3171572875
 21
54.084574438
  0
LINE
  5
5B3
100
AcDbEntity
  8
DRAFT
100
AcDbLine
 62
7
  6
CONTINUOUS
 10
-9.8828427125
 20
54.084574438
 11
-10.1
 21
54.084574438
  0
LINE
  5
5B4
100
AcDbEntity
  8
0
100
AcDbLine
 62
7
  6
CONTINUOUS
 10
2.5
 20
54.4595346283
 11
-2.5
 21
54.4595346283
  0
LINE
  5
5B5
100
AcDbEntity
  8
SMUSSO
100
AcDbLine
 62
7
  6
CONTINUOUS
 10
-9.1
 20
54.9873134903
 11
-5.1908895889
 21
54.9873134903
  0
LINE
  5
5B6
100
AcDbEntity
  8
SMUSSO
100
AcDbLine
 62
7
  6
CONTINUOUS
 10
5.1908895889
 20
54.9873134903
 11
9.1
 21
54.9873134903
  0
LINE
  5
5B7
100
AcDbEntity
  8
SMUSSO
100
AcDbLine
 62
7
  6
CONTINUOUS
 10
-9.1
 20
55.484574438
 11
-5.1876313788
 21
55.484574438
  0
LINE
  5
5B8
100
AcDbEntity
  8
0
100
AcDbLine
 62
7
  6
CONTINUOUS
 10
10.1
 20
55.484574438
 11
9.1
 21
55.484574438
  0
LINE
  5
5B9
100
AcDbEntity
  8
SMUSSO
100
AcDbLine
 62
7
  6
CONTINUOUS
 10
5.1876313788
 20
55.484574438
 11
9.1
 21
55.484574438
  0
LINE
  5
5BA
100
AcDbEntity
  8
0
100
AcDbLine
 62
7
  6
CONTINUOUS
 10
-9.1
 20
55.484574438
 11
-10.1
 21
55.484574438
  0
LINE
  5
5BB
100
AcDbEntity
  8
RACCORDO
100
AcDbLine
 62
7
  6
CONTINUOUS
 10
7.7000761524
 20
55.734574438
 11
5.2866353477
 21
55.734574438
  0
LINE
  5
5BC
100
AcDbEntity
  8
RACCORDO
100
AcDbLine
 62
7
  6
CONTINUOUS
 10
-5.2866353477
 20
55.734574438
 11
-7.7000761524
 21
55.734574438
  0
LINE
  5
5BD
100
AcDbEntity
  8
RACCORDO
100
AcDbLine
 62
250
  6
CONTINUOUS
 10
-9.2272930121
 20
52.3345676802
 11
-8.7934869494
 21
52.3344794172
  0
LINE
  5
5BE
100
AcDbEntity
  8
RACCORDO
100
AcDbLine
 62
250
  6
CONTINUOUS
 10
9.2272930121
 20
52.6345811958
 11
8.7934869494
 21
52.6346694588
  0
LWPOLYLINE
  5
5BF
100
AcDbEntity
  8
RACCORDO
100
AcDbPolyline
 62
250
  6
CONTINUOUS
 90
19
 70
0
 10
-9.2108433288
 20
52.18477325
 10
-8.8066488933
 20
52.1846850581
 10
-8.7758704052
 20
52.1844684497
 10
-8.7461740302
 20
52.1841234248
 10
-8.7172854768
 20
52.18363494
 10
-8.6894790363
 20
52.1830180386
 10
-8.6635775835
 20
52.1823178508
 10
-8.6398110511
 20
52.1815333386
 10
-8.6179495062
 20
52.1806655399
 10
-8.598126025
 20
52.1797626984
 10
-8.580597435
 20
52.178844092
 10
-8.5651069086
 20
52.1778904428
 10
-8.55101704
 20
52.1768921609
 10
-8.5381446214
 20
52.1758582825
 10
-8.5266728604
 20
52.1747797713
 10
-8.5165139742
 20
52.1736199282
 10
-8.5076387017
 20
52.17236652
 10
-8.5000763039
 20
52.1710317798
 10
-8.4938267808
 20
52.1696157076
  0
LWPOLYLINE
  5
5C0
100
AcDbEntity
  8
RACCORDO
100
AcDbPolyline
 62
250
  6
CONTINUOUS
 90
19
 70
0
 10
9.2108433288
 20
52.784375626
 10
8.8066488933
 20
52.7844638179
 10
8.7758704052
 20
52.7846804263
 10
8.7461740302
 20
52.7850254513
 10
8.7172854768
 20
52.7855139361
 10
8.6894790363
 20
52.7861308374
 10
8.6635775835
 20
52.7868310252
 10
8.6398110511
 20
52.7876155374
 10
8.6179495062
 20
52.7884833362
 10
8.598126025
 20
52.7893861777
 10
8.580597435
 20
52.790304784
 10
8.5651069086
 20
52.7912584332
 10
8.55101704
 20
52.7922567152
 10
8.5381446214
 20
52.7932905935
 10
8.5266728604
 20
52.7943691047
 10
8.5165139742
 20
52.7955289479
 10
8.5076387017
 20
52.796782356
 10
8.5000763039
 20
52.7981170962
 10
8.4938267808
 20
52.7995331684
  0
LINE
  5
5C1
100
AcDbEntity
  8
RACCORDO
100
AcDbLine
 62
250
  6
CONTINUOUS
 10
5.1867175963
 20
50.5671619889
 11
5.0867349724
 21
50.5678171065
  0
LINE
  5
5C2
100
AcDbEntity
  8
RACCORDO
100
AcDbLine
 62
250
  6
CONTINUOUS
 10
5.1886395059
 20
51.1695927316
 11
5.088656882
 21
51.1702478492
  0
LINE
  5
5C3
100
AcDbEntity
  8
RACCORDO
100
AcDbLine
 62
250
  6
CONTINUOUS
 10
5.1914134162
 20
51.7422167233
 11
5.0914307922
 21
51.7428718409
  0
LINE
  5
5C4
100
AcDbEntity
  8
RACCORDO
100
AcDbLine
 62
250
  6
CONTINUOUS
 10
5.1946358364
 20
52.3566517908
 11
5.0946532124
 21
52.3573069083
  0
LINE
  5
5C5
100
AcDbEntity
  8
RACCORDO
100
AcDbLine
 62
250
  6
CONTINUOUS
 10
5.1971924558
 20
52.7468375065
 11
5.0972098319
 21
52.7474926241
  0
LINE
  5
5C6
100
AcDbEntity
  8
RACCORDO
100
AcDbLine
 62
250
  6
CONTINUOUS
 10
5.1971367327
 20
52.8182517908
 11
5.0971541088
 21
52.8189069083
  0
LINE
  5
5C7
100
AcDbEntity
  8
RACCORDO
100
AcDbLine
 62
250
  6
CONTINUOUS
 10
-8.7934869494
 20
52.3344794172
 11
-8.7066016895
 21
52.3339177404
  0
LINE
  5
5C8
100
AcDbEntity
  8
RACCORDO
100
AcDbLine
 62
250
  6
CONTINUOUS
 10
8.7934869494
 20
52.6346694588
 11
8.7066016895
 21
52.6352311357
  0
LINE
  5
5C9
100
AcDbEntity
  8
RACCORDO
100
AcDbLine
 62
250
  6
CONTINUOUS
 10
-8.7066016895
 20
52.3339177404
 11
-8.6255488443
 21
52.33281248
  0
LINE
  5
5CA
100
AcDbEntity
  8
RACCORDO
100
AcDbLine
 62
250
  6
CONTINUOUS
 10
8.7066016895
 20
52.6352311357
 11
8.6255488443
 21
52.636336396
  0
LINE
  5
5CB
100
AcDbEntity
  8
RACCORDO
100
AcDbLine
 62
250
  6
CONTINUOUS
 10
-8.6255488443
 20
52.33281248
 11
-8.5545573765
 21
52.3313278079
  0
LINE
  5
5CC
100
AcDbEntity
  8
RACCORDO
100
AcDbLine
 62
250
  6
CONTINUOUS
 10
8.6255488443
 20
52.636336396
 11
8.5545573765
 21
52.6378210681
  0
LWPOLYLINE
  5
5CD
100
AcDbEntity
  8
RACCORDO
100
AcDbPolyline
 62
250
  6
CONTINUOUS
 90
10
 70
0
 10
7.8465379614
 20
52.2305138438
 10
7.8697282402
 20
52.2299000815
 10
7.8923605603
 20
52.2289239551
 10
7.913890533
 20
52.2276089489
 10
7.9338002907
 20
52.2259866994
 10
7.9516109747
 20
52.2240962312
 10
7.9668942396
 20
52.2219830174
 10
7.9792825142
 20
52.2196978892
 10
7.9884778531
 20
52.217295815
 10
7.9942591244
 20
52.2148345743
  0
LWPOLYLINE
  5
5CE
100
AcDbEntity
  8
RACCORDO
100
AcDbPolyline
 62
250
  6
CONTINUOUS
 90
10
 70
0
 10
7.8564812139
 20
52.7670382448
 10
7.8796709983
 20
52.7664246005
 10
7.9023029879
 20
52.7654485754
 10
7.9238328044
 20
52.7641336465
 10
7.943742581
 20
52.7625114424
 10
7.9615534182
 20
52.7606209826
 10
7.9768369035
 20
52.7585077393
 10
7.989225416
 20
52.7562225435
 10
7.9984209687
 20
52.7538203618
 10
8.0042023768
 20
52.7513589753
  0
LWPOLYLINE
  5
5CF
100
AcDbEntity
  8
RACCORDO
100
AcDbPolyline
 62
250
  6
CONTINUOUS
 90
11
 70
0
 10
-8.5545573765
 20
52.3313278079
 10
-8.4951045392
 20
52.3295570735
 10
-8.4701821604
 20
52.328638429
 10
-8.4480496563
 20
52.3276847491
 10
-8.4278059899
 20
52.3266864885
 10
-8.4095425571
 20
52.3256527432
 10
-8.3932907538
 20
52.3245744172
 10
-8.3785158899
 20
52.323414677
 10
-8.3653827663
 20
52.3221612448
 10
-8.3544611342
 20
52.3208263984
 10
-8.3461056179
 20
52.3194101379
  0
LWPOLYLINE
  5
5D0
100
AcDbEntity
  8
RACCORDO
100
AcDbPolyline
 62
250
  6
CONTINUOUS
 90
11
 70
0
 10
8.5545573765
 20
52.6378210681
 10
8.4951045392
 20
52.6395918025
 10
8.4701821604
 20
52.640510447
 10
8.4480496563
 20
52.6414641269
 10
8.4278059899
 20
52.6424623876
 10
8.4095425571
 20
52.6434961328
 10
8.3932907538
 20
52.6445744588
 10
8.3785158899
 20
52.645734199
 10
8.3653827663
 20
52.6469876312
 10
8.3544611342
 20
52.6483224776
 10
8.3461056179
 20
52.6497387382
  0
LINE
  5
5D1
100
AcDbEntity
  8
DRAFT
100
AcDbLine
 62
7
  6
CONTINUOUS
 10
-10.6
 20
51.0979308663
 11
-10.1
 21
51.0726750646
  0
LINE
  5
5D2
100
AcDbEntity
  8
DRAFT
100
AcDbLine
 62
7
  6
CONTINUOUS
 10
10.1
 20
53.8964738114
 11
10.6
 21
53.8712180097
  0
LWPOLYLINE
  5
5D3
100
AcDbEntity
  8
RACCORDO
100
AcDbPolyline
 62
7
  6
CONTINUOUS
 90
16
 70
0
 10
5.100038344
 20
53.2590926241
 10
5.1101499376
 20
53.2583009015
 10
5.1201710158
 20
53.2568884434
 10
5.1299974887
 20
53.2548559319
 10
5.1395166097
 20
53.2519966869
 10
5.1486380718
 20
53.248518719
 10
5.1572909928
 20
53.2450447486
 10
5.1653404404
 20
53.2415994465
 10
5.1727358553
 20
53.2381593574
 10
5.1794980754
 20
53.2352752416
 10
5.1856197947
 20
53.2329904632
 10
5.1908088783
 20
53.2312636201
 10
5.1947757838
 20
53.230517558
 10
5.1975289891
 20
53.2308925376
 10
5.1992008613
 20
53.2322473754
 10
5.1998646565
 20
53.2345815913
  0
LINE
  5
5D4
100
AcDbEntity
  8
RACCORDO
100
AcDbLine
 62
7
  6
CONTINUOUS
 10
10.6
 20
51.1198030322
 11
10.4450972632
 21
51.1333552656
  0
LINE
  5
5D5
100
AcDbEntity
  8
RACCORDO
100
AcDbLine
 62
7
  6
CONTINUOUS
 10
-10.4450972632
 20
53.8357936104
 11
-10.6
 21
53.8493458438
  0
LINE
  5
5D6
100
AcDbEntity
  8
RACCORDO
100
AcDbLine
 62
250
  6
CONTINUOUS
 10
8.3461056179
 20
52.6497387382
 11
8.0042023768
 21
52.7513589753
  0
LINE
  5
5D7
100
AcDbEntity
  8
RACCORDO
100
AcDbLine
 62
250
  6
CONTINUOUS
 10
8.4938267808
 20
52.7995331684
 11
8.1638273498
 21
52.8976153636
  0
LWPOLYLINE
  5
5D8
100
AcDbEntity
  8
DRAFT
100
AcDbPolyline
 62
7
  6
CONTINUOUS
 90
5
 70
0
 10
9.6772961715
 20
50.9760562878
 10
9.6690407386
 20
50.9795629189
 10
9.6608353645
 20
50.9829834201
 10
9.652706646
 20
50.9863160586
 10
9.6446545832
 20
50.9895608342
  0
LWPOLYLINE
  5
5D9
100
AcDbEntity
  8
DRAFT
100
AcDbPolyline
 62
7
  6
CONTINUOUS
 90
5
 70
0
 10
9.5227038285
 20
53.9930925882
 10
9.5309592614
 20
53.9895859571
 10
9.5391646355
 20
53.9861654559
 10
9.547293354
 20
53.9828328175
 10
9.5553454168
 20
53.9795880418
  0
LINE
  5
5DA
100
AcDbEntity
  8
DRAFT
100
AcDbLine
 62
7
  6
CONTINUOUS
 10
9.7027760938
 20
50.9649938768
 11
9.6772961715
 21
50.9760562878
  0
LINE
  5
5DB
100
AcDbEntity
  8
DRAFT
100
AcDbLine
 62
7
  6
CONTINUOUS
 10
9.4972239062
 20
54.0041549992
 11
9.5227038285
 21
53.9930925882
  0
LINE
  5
5DC
100
AcDbEntity
  8
DRAFT
100
AcDbLine
 62
7
  6
CONTINUOUS
 10
9.748824449
 20
50.9446305895
 11
9.7027760938
 21
50.9649938768
  0
LINE
  5
5DD
100
AcDbEntity
  8
DRAFT
100
AcDbLine
 62
7
  6
CONTINUOUS
 10
9.451175551
 20
54.0245182865
 11
9.4972239062
 21
54.0041549992
  0
LINE
  5
5DE
100
AcDbEntity
  8
DRAFT
100
AcDbLine
 62
7
  6
CONTINUOUS
 10
9.8828427125
 20
50.884574438
 11
9.748824449
 21
50.9446305895
  0
LINE
  5
5DF
100
AcDbEntity
  8
DRAFT
100
AcDbLine
 62
7
  6
CONTINUOUS
 10
9.3171572875
 20
54.084574438
 11
9.451175551
 21
54.0245182865
  0
LINE
  5
5E0
100
AcDbEntity
  8
RACCORDO
100
AcDbLine
 62
7
  6
CONTINUOUS
 10
9.1
 20
52.834574438
 11
9.2108433288
 21
52.784375626
  0
LWPOLYLINE
  5
5E1
100
AcDbEntity
  8
0
100
AcDbPolyline
 62
7
  6
CONTINUOUS
 90
10
 70
0
 10
7.0376901686
 20
79.1312548631
 10
7.0594225946
 20
79.1049954569
 10
7.0801383917
 20
79.0794822616
 10
7.0998375601
 20
79.0547152772
 10
7.1185176452
 20
79.0307125567
 10
7.1361811015
 20
79.0074560472
 10
7.1528352922
 20
78.9848915896
 10
7.1684826716
 20
78.9630011309
 10
7.1831207854
 20
78.9418027242
 10
7.1967496336
 20
78.9212963694
  0
LWPOLYLINE
  5
5E2
100
AcDbEntity
  8
0
100
AcDbPolyline
 62
7
  6
CONTINUOUS
 90
10
 70
0
 10
7.8807053328
 20
78.2277970338
 10
7.8693217467
 20
78.2416028855
 10
7.8571759943
 20
78.2548824954
 10
7.8442680758
 20
78.2676358635
 10
7.8306179354
 20
78.2798751619
 10
7.8162056289
 20
78.2915882185
 10
7.8009713226
 20
78.3027385172
 10
7.784895072
 20
78.3133138858
 10
7.7679968216
 20
78.3233264965
 10
7.7502765715
 20
78.3327763492
  0
LWPOLYLINE
  5
5E3
100
AcDbEntity
  8
0
100
AcDbPolyline
 62
7
  6
CONTINUOUS
 90
10
 70
0
 10
7.3305597935
 20
79.1155075163
 10
7.3149500404
 20
79.1347265424
 10
7.2988041571
 20
79.1539838822
 10
7.2821221435
 20
79.1732795357
 10
7.2648844147
 20
79.1925966035
 10
7.2471105556
 20
79.2119519851
 10
7.2288593211
 20
79.2313963785
 10
7.2101502959
 20
79.2509466831
 10
7.1909638953
 20
79.2705859997
 10
7.1713001192
 20
79.290314328
  0
LWPOLYLINE
  5
5E4
100
AcDbEntity
  8
0
100
AcDbPolyline
 62
7
  6
CONTINUOUS
 90
10
 70
0
 10
8.9392597119
 20
80.9089263749
 10
8.9487259546
 20
80.8962861838
 10
8.9572254689
 20
80.8823992846
 10
8.9647582548
 20
80.8672656775
 10
8.9713944733
 20
80.8509958809
 10
8.9770639634
 20
80.8334793762
 10
8.9815562423
 20
80.8143846078
 10
8.984801149
 20
80.7936010569
 10
8.9868688444
 20
80.7712392423
 10
8.9877593286
 20
80.7472991639
  0
LWPOLYLINE
  5
5E5
100
AcDbEntity
  8
0
100
AcDbPolyline
 62
7
  6
CONTINUOUS
 90
10
 70
0
 10
8.9392597119
 20
82.346824212
 10
8.9487259315
 20
82.3341840542
 10
8.9572254311
 20
82.3202971664
 10
8.9647582107
 20
82.3051635486
 10
8.9713944347
 20
82.2888937116
 10
8.9770639387
 20
82.2713771446
 10
8.9815562294
 20
82.2522823159
 10
8.9848011424
 20
82.2314987147
 10
8.9868688422
 20
82.2091368517
 10
8.9877593286
 20
82.1851967269
  0
LWPOLYLINE
  5
5E6
100
AcDbEntity
  8
0
100
AcDbPolyline
 62
7
  6
CONTINUOUS
 90
10
 70
0
 10
7.0631397493
 20
80.5850584236
 10
7.0531426976
 20
80.5989461301
 10
7.0441918192
 20
80.6138302277
 10
7.0362871142
 20
80.6297107163
 10
7.0293762812
 20
80.6464186198
 10
7.0235116216
 20
80.6641229144
 10
7.0188500387
 20
80.6833305285
 10
7.0154438338
 20
80.7042104382
 10
7.0132407056
 20
80.7265936674
 10
7.0122406542
 20
80.7504802161
  0
LWPOLYLINE
  5
5E7
100
AcDbEntity
  8
0
100
AcDbPolyline
 62
7
  6
CONTINUOUS
 90
10
 70
0
 10
7.0631398155
 20
82.0229560375
 10
7.0531427197
 20
82.0368438591
 10
7.044191809
 20
82.0517280423
 10
7.0362870835
 20
82.0676085871
 10
7.0293762456
 20
82.0843165183
 10
7.0235115929
 20
82.102020811
 10
7.0188500181
 20
82.1212283909
 10
7.0154438189
 20
82.1421082332
 10
7.0132406976
 20
82.1644913626
 10
7.0122406542
 20
82.1883777791
  0
LWPOLYLINE
  5
5E8
100
AcDbEntity
  8
0
100
AcDbPolyline
 62
7
  6
CONTINUOUS
 90
10
 70
0
 10
7.0631398155
 20
83.4608536005
 10
7.0531427197
 20
83.4747414221
 10
7.044191809
 20
83.4896256053
 10
7.0362870835
 20
83.5055061501
 10
7.0293762456
 20
83.5222140813
 10
7.0235115929
 20
83.539918374
 10
7.0188500181
 20
83.5591259539
 10
7.0154438189
 20
83.5800057961
 10
7.0132406976
 20
83.6023889255
 10
7.0122406542
 20
83.6262753421
  0
LINE
  5
5E9
100
AcDbEntity
  8
DRAFT
100
AcDbLine
 62
7
  6
CONTINUOUS
 10
4.3198454055
 20
85.554538248
 11
4.3340207461
 21
85.534574438
  0
LINE
  5
5EA
100
AcDbEntity
  8
RACCORDO
100
AcDbLine
 62
250
  6
CONTINUOUS
 10
4.3307894673
 20
86.280961498
 11
4.706631318
 21
85.751645445
  0
LINE
  5
5EB
100
AcDbEntity
  8
RACCORDO
100
AcDbLine
 62
7
  6
CONTINUOUS
 10
4.5898369388
 20
86.1752124055
 11
4.8289311143
 21
85.8384846434
  0
LINE
  5
5EC
100
AcDbEntity
  8
DRAFT
100
AcDbLine
 62
7
  6
CONTINUOUS
 10
4.8456620069
 20
85.8503644449
 11
4.65
 21
86.1259246068
  0
LWPOLYLINE
  5
5ED
100
AcDbEntity
  8
0
100
AcDbPolyline
 62
7
  6
CONTINUOUS
 90
10
 70
0
 10
9.1150069144
 20
81.0526933359
 10
9.0983095971
 20
81.0774985644
 10
9.0802804716
 20
81.1007886656
 10
9.060919538
 20
81.1225636395
 10
9.0404258771
 20
81.1427093473
 10
9.0186004081
 20
81.1613399278
 10
8.9948458885
 20
81.1787977973
 10
8.9689632376
 20
81.1951970945
 10
8.9411515361
 20
81.2104236806
 10
8.9114107841
 20
81.2244775556
  0
LWPOLYLINE
  5
5EE
100
AcDbEntity
  8
0
100
AcDbPolyline
 62
7
  6
CONTINUOUS
 90
10
 70
0
 10
9.1150069144
 20
82.4905908988
 10
9.0983095152
 20
82.5153962421
 10
9.0802803208
 20
82.5386864391
 10
9.0609193312
 20
82.56046149
 10
9.0404256171
 20
82.5806072589
 10
9.0186001079
 20
82.5992378816
 10
8.9948455912
 20
82.6166957656
 10
8.9689629963
 20
82.6330950467
 10
8.9411513939
 20
82.6483215891
 10
8.9114107841
 20
82.6623753928
  0
LWPOLYLINE
  5
5EF
100
AcDbEntity
  8
0
100
AcDbPolyline
 62
7
  6
CONTINUOUS
 90
10
 70
0
 10
9.1150069144
 20
83.9284884618
 10
9.0983095152
 20
83.9532938051
 10
9.0802803208
 20
83.9765840021
 10
9.0609193312
 20
83.998359053
 10
9.0404256171
 20
84.0185048219
 10
9.0186001079
 20
84.0371354446
 10
8.9948455912
 20
84.0545933286
 10
8.9689629963
 20
84.0709926097
 10
8.9411513939
 20
84.0862191521
 10
8.9114107841
 20
84.1002729557
  0
LWPOLYLINE
  5
5F0
100
AcDbEntity
  8
IMPORT_IGES
100
AcDbPolyline
 62
7
  6
CONTINUOUS
 90
10
 70
0
 10
-2.8
 20
59.5994945434
 10
-2.536895507
 20
59.6664851428
 10
-2.2765251743
 20
59.7276902161
 10
-2.0188890018
 20
59.7831097635
 10
-1.7682332825
 20
59.8326516585
 10
-1.5203117234
 20
59.8764080275
 10
-1.2623854459
 20
59.9146552495
 10
-0.9902081571
 20
59.9474854506
 10
-0.7080261499
 20
59.9748065046
 10
-0.4158394242
 20
59.9966184115
  0
LINE
  5
5F1
100
AcDbEntity
  8
0
100
AcDbLine
 62
7
  6
CONTINUOUS
 10
-2.8
 20
57.4126845419
 11
-2.5
 21
57.4126845419
  0
LINE
  5
5F2
100
AcDbEntity
  8
0
100
AcDbLine
 62
7
  6
CONTINUOUS
 10
2.8
 20
57.4126845419
 11
2.5
 21
57.4126845419
  0
LINE
  5
5F3
100
AcDbEntity
  8
IMPORT_IGES
100
AcDbLine
 62
7
  6
CONTINUOUS
 10
-2.5
 20
58.4489293819
 11
2.5
 21
58.4489293819
  0
LINE
  5
5F4
100
AcDbEntity
  8
RACCORDO
100
AcDbLine
 62
7
  6
CONTINUOUS
 10
-7.7000761524
 20
58.734574438
 11
-5.2656681413
 21
58.734574438
  0
LINE
  5
5F5
100
AcDbEntity
  8
RACCORDO
100
AcDbLine
 62
7
  6
CONTINUOUS
 10
5.2656681413
 20
58.734574438
 11
7.7000761524
 21
58.734574438
  0
LINE
  5
5F6
100
AcDbEntity
  8
DRAFT
100
AcDbLine
 62
7
  6
CONTINUOUS
 10
2.8
 20
59.5131410501
 11
5.1612349439
 21
59.5131410501
  0
LINE
  5
5F7
100
AcDbEntity
  8
DRAFT
100
AcDbLine
 62
7
  6
CONTINUOUS
 10
-2.8
 20
59.5131410501
 11
-5.1612349439
 21
59.5131410501
  0
LINE
  5
5F8
100
AcDbEntity
  8
DRAFT
100
AcDbLine
 62
7
  6
CONTINUOUS
 10
6.1
 20
59.534574438
 11
5.3
 21
59.534574438
  0
LINE
  5
5F9
100
AcDbEntity
  8
DRAFT
100
AcDbLine
 62
7
  6
CONTINUOUS
 10
-5.3
 20
59.534574438
 11
-6.1
 21
59.534574438
  0
LINE
  5
5FA
100
AcDbEntity
  8
RACCORDO
100
AcDbLine
 62
250
  6
CONTINUOUS
 10
-6.0912602576
 20
59.5520552541
 11
-5.3087397424
 21
59.5520552541
  0
LINE
  5
5FB
100
AcDbEntity
  8
RACCORDO
100
AcDbLine
 62
250
  6
CONTINUOUS
 10
5.3087397424
 20
59.5520552541
 11
6.0912602576
 21
59.5520552541
  0
LINE
  5
5FC
100
AcDbEntity
  8
IMPORT_IGES
100
AcDbLine
 62
7
  6
CONTINUOUS
 10
0.4164086988
 20
59.9966184115
 11
-0.4158394242
 21
59.9966184115
  0
LINE
  5
5FD
100
AcDbEntity
  8
DRAFT
100
AcDbLine
 62
7
  6
CONTINUOUS
 10
5.1698819766
 20
60.034574438
 11
2.8
 21
60.034574438
  0
LINE
  5
5FE
100
AcDbEntity
  8
DRAFT
100
AcDbLine
 62
7
  6
CONTINUOUS
 10
-2.8
 20
60.034574438
 11
-5.1698819766
 21
60.034574438
  0
LINE
  5
5FF
100
AcDbEntity
  8
RACCORDO
100
AcDbLine
 62
250
  6
CONTINUOUS
 10
-6.0869729761
 20
60.0519791017
 11
-5.7
 21
60.0519791017
  0
LINE
  5
600
100
AcDbEntity
  8
RACCORDO
100
AcDbLine
 62
250
  6
CONTINUOUS
 10
5.7
 20
60.0519791017
 11
6.0869729761
 21
60.0519791017
  0
LWPOLYLINE
  5
601
100
AcDbEntity
  8
IMPORT_IGES
100
AcDbPolyline
 62
7
  6
CONTINUOUS
 90
10
 70
0
 10
0.4164086988
 20
59.9966184115
 10
0.6643495533
 20
59.9803848718
 10
0.9157209675
 20
59.957221253
 10
1.1705229413
 20
59.9271275553
 10
1.4276953464
 20
59.8901588695
 10
1.6882983113
 20
59.8462601047
 10
1.9555122205
 20
59.7952659881
 10
2.2303972026
 20
59.7371214288
 10
2.511893129
 20
59.6718815177
 10
2.8
 20
59.5995462548
  0
LWPOLYLINE
  5
602
100
AcDbEntity
  8
RACCORDO
100
AcDbPolyline
 62
7
  6
CONTINUOUS
 90
7
 70
0
 10
3.5
 20
72.2081277344
 10
3.5013127165
 20
72.2072325124
 10
3.5052588316
 20
72.2055429837
 10
3.5118289977
 20
72.2030591481
 10
3.520995695
 20
72.1997467663
 10
3.5326855641
 20
72.1956400777
 10
3.5813568175
 20
72.1791383495
  0
LINE
  5
603
100
AcDbEntity
  8
RACCORDO
100
AcDbLine
 62
7
  6
CONTINUOUS
 10
-8.0
 20
88.534574438
 11
-7.9866280426
 21
88.5212024806
  0
LINE
  5
604
100
AcDbEntity
  8
RACCORDO
100
AcDbLine
 62
250
  6
CONTINUOUS
 10
-4.65
 20
87.0345858611
 11
-4.634353423
 21
87.018939284
  0
LINE
  5
605
100
AcDbEntity
  8
RACCORDO
100
AcDbLine
 62
250
  6
CONTINUOUS
 10
-4.3500114231
 20
87.334574438
 11
-4.334364846
 21
87.318927861
  0
LWPOLYLINE
  5
606
100
AcDbEntity
  8
0
100
AcDbPolyline
 62
7
  6
CONTINUOUS
 90
10
 70
0
 10
7.7670055495
 20
78.0409109789
 10
7.7785271844
 20
78.0281116366
 10
7.7891569504
 20
78.0147677715
 10
7.7988948474
 20
78.0008793836
 10
7.8077128424
 20
77.9865501154
 10
7.8156389685
 20
77.9716763243
 10
7.8227573245
 20
77.9559470826
 10
7.8290959436
 20
77.9392587475
 10
7.8346267927
 20
77.9217149618
 10
7.8393498719
 20
77.9033157253
  0
LWPOLYLINE
  5
607
100
AcDbEntity
  8
0
100
AcDbPolyline
 62
7
  6
CONTINUOUS
 90
10
 70
0
 10
8.9392597119
 20
83.784721775
 10
8.9487259315
 20
83.7720816172
 10
8.9572254311
 20
83.7581947294
 10
8.9647582107
 20
83.7430611116
 10
8.9713944347
 20
83.7267912746
 10
8.9770639387
 20
83.7092747076
 10
8.9815562294
 20
83.6901798788
 10
8.9848011424
 20
83.6693962776
 10
8.9868688422
 20
83.6470344147
 10
8.9877593286
 20
83.6230942899
  0
LINE
  5
608
100
AcDbEntity
  8
DRAFT
100
AcDbLine
 62
7
  6
CONTINUOUS
 10
11.0428653412
 20
63.734574438
 11
10.0428653412
 21
63.734574438
  0
LINE
  5
609
100
AcDbEntity
  8
RACCORDO
100
AcDbLine
 62
250
  6
CONTINUOUS
 10
10.0428653412
 20
64.1907013192
 11
11.0428653412
 21
64.1907013192
  0
LINE
  5
60A
100
AcDbEntity
  8
RACCORDO
100
AcDbLine
 62
250
  6
CONTINUOUS
 10
10.0428653412
 20
64.6831051957
 11
11.0428653412
 21
64.6831051957
  0
LINE
  5
60B
100
AcDbEntity
  8
DRAFT
100
AcDbLine
 62
7
  6
CONTINUOUS
 10
-5.1330551452
 20
65.6702858655
 11
-3.4328081843
 21
65.6702858655
  0
LINE
  5
60C
100
AcDbEntity
  8
0
100
AcDbLine
 62
7
  6
CONTINUOUS
 10
-3.2764735339
 20
65.6702858655
 11
-3.0787820724
 21
65.6702858655
  0
LINE
  5
60D
100
AcDbEntity
  8
0
100
AcDbLine
 62
7
  6
CONTINUOUS
 10
-2.9569924313
 20
65.6702858655
 11
-2.7380547954
 21
65.6702858655
  0
LINE
  5
60E
100
AcDbEntity
  8
RACCORDO
100
AcDbLine
 62
7
  6
CONTINUOUS
 10
2.7381292579
 20
65.6702858655
 11
0.4140842117
 21
65.6702858655
  0
LINE
  5
60F
100
AcDbEntity
  8
IMPORT_IGES
100
AcDbLine
 62
7
  6
CONTINUOUS
 10
-0.4140842147
 20
65.6702858655
 11
0.4140842117
 21
65.6702858655
  0
LINE
  5
610
100
AcDbEntity
  8
0
100
AcDbLine
 62
7
  6
CONTINUOUS
 10
2.7380551792
 20
65.6702858655
 11
2.9569924313
 21
65.6702858655
  0
LINE
  5
611
100
AcDbEntity
  8
RACCORDO
100
AcDbLine
 62
7
  6
CONTINUOUS
 10
-0.4140842147
 20
65.6702858655
 11
-2.7380542455
 21
65.6702858655
  0
LINE
  5
612
100
AcDbEntity
  8
RACCORDO
100
AcDbLine
 62
7
  6
CONTINUOUS
 10
2.9574750542
 20
65.6702858655
 11
3.0787820759
 21
65.6702858655
  0
LINE
  5
613
100
AcDbEntity
  8
0
100
AcDbLine
 62
7
  6
CONTINUOUS
 10
3.0787820733
 20
65.6702858655
 11
3.2764735336
 21
65.6702858655
  0
LINE
  5
614
100
AcDbEntity
  8
RACCORDO
100
AcDbLine
 62
7
  6
CONTINUOUS
 10
-2.9569924313
 20
65.6702858655
 11
-3.0787820759
 21
65.6702858655
  0
LINE
  5
615
100
AcDbEntity
  8
DRAFT
100
AcDbLine
 62
7
  6
CONTINUOUS
 10
3.4328081843
 20
65.6702858655
 11
5.1330551452
 21
65.6702858655
  0
LINE
  5
616
100
AcDbEntity
  8
RACCORDO
100
AcDbLine
 62
7
  6
CONTINUOUS
 10
3.2764735339
 20
65.6702858655
 11
3.4328081896
 21
65.6702858655
  0
LINE
  5
617
100
AcDbEntity
  8
RACCORDO
100
AcDbLine
 62
7
  6
CONTINUOUS
 10
-3.2764735339
 20
65.6702858655
 11
-3.4328081896
 21
65.6702858655
  0
LINE
  5
618
100
AcDbEntity
  8
RACCORDO
100
AcDbLine
 62
250
  6
CONTINUOUS
 10
11.0428653412
 20
66.7860436803
 11
10.0428653412
 21
66.7860436803
  0
LINE
  5
619
100
AcDbEntity
  8
RACCORDO
100
AcDbLine
 62
250
  6
CONTINUOUS
 10
11.0428653412
 20
67.2784475568
 11
10.0428653412
 21
67.2784475568
  0
LINE
  5
61A
100
AcDbEntity
  8
DRAFT
100
AcDbLine
 62
7
  6
CONTINUOUS
 10
10.0428653412
 20
67.734574438
 11
11.0428653412
 21
67.734574438
  0
LWPOLYLINE
  5
61B
100
AcDbEntity
  8
RACCORDO
100
AcDbPolyline
 62
7
  6
CONTINUOUS
 90
8
 70
0
 10
3.5628656081
 20
71.3481990094
 10
3.5466283986
 20
71.3535462522
 10
3.5325921314
 20
71.3580838071
 10
3.5209316908
 20
71.3618301772
 10
3.5117906615
 20
71.364699927
 10
3.5052408619
 20
71.3666645778
 10
3.5013080053
 20
71.3677526083
 10
3.5
 20
71.3679640185
  0
LWPOLYLINE
  5
61C
100
AcDbEntity
  8
RACCORDO
100
AcDbPolyline
 62
7
  6
CONTINUOUS
 90
3
 70
0
 10
3.6232449616
 20
71.3278098874
 10
3.6013499287
 20
71.3352719139
 10
3.5628656081
 20
71.3481990094
  0
LWPOLYLINE
  5
61D
100
AcDbEntity
  8
0
100
AcDbPolyline
 62
7
  6
CONTINUOUS
 90
7
 70
0
 10
3.5
 20
71.3625486929
 10
3.8102580828
 20
71.2532087804
 10
4.1171499016
 20
71.1346205933
 10
4.4203992004
 20
71.0068864152
 10
4.7197327929
 20
70.8701168006
 10
5.0148808108
 20
70.7244304835
 10
5.3055769489
 20
70.5699542791
  0
LWPOLYLINE
  5
61E
100
AcDbEntity
  8
RACCORDO
100
AcDbPolyline
 62
7
  6
CONTINUOUS
 90
4
 70
0
 10
3.75
 20
71.2830594293
 10
3.7232231508
 20
71.2928613655
 10
3.6968701765
 20
71.3022233596
 10
3.6232449616
 20
71.3278098874
  0
LWPOLYLINE
  5
61F
100
AcDbEntity
  8
RACCORDO
100
AcDbPolyline
 62
7
  6
CONTINUOUS
 90
11
 70
0
 10
5.0437538623
 20
70.5323561544
 10
4.6427476811
 20
70.725539918
 10
4.24703567
 20
70.9016390294
 10
3.856617829
 20
71.0606534887
 10
3.4718644261
 20
71.2019200469
 10
3.0924051932
 20
71.3261019529
 10
2.7171293262
 20
71.4351889539
 10
2.3462655605
 20
71.5293508327
 10
1.9795851606
 20
71.6084178063
 10
1.6152911155
 20
71.6738702733
 10
1.5
 20
71.6904576603
  0
LWPOLYLINE
  5
620
100
AcDbEntity
  8
0
100
AcDbPolyline
 62
7
  6
CONTINUOUS
 90
7
 70
0
 10
5.5653912489
 20
71.356282928
 10
5.2331662815
 20
71.5269479053
 10
4.8956861069
 20
71.6870433704
 10
4.553286368
 20
71.836406745
 10
4.2063077631
 20
71.9748860914
 10
3.8550957091
 20
72.1023402699
 10
3.5
 20
72.2186390869
  0
LWPOLYLINE
  5
621
100
AcDbEntity
  8
RACCORDO
100
AcDbPolyline
 62
7
  6
CONTINUOUS
 90
16
 70
0
 10
5.5653912489
 20
71.356282928
 10
5.6273337334
 20
71.3203080771
 10
5.6866889367
 20
71.2798841267
 10
5.7431286486
 20
71.2351871304
 10
5.7964386757
 20
71.1863166492
 10
5.8461971411
 20
71.1335846585
 10
5.8918524021
 20
71.0775864851
 10
5.9330363505
 20
71.0189131899
 10
5.9697892368
 20
70.9576601647
 10
6.0021847634
 20
70.8937020214
 10
6.0301203523
 20
70.8270392959
 10
6.053240983
 20
70.758281768
 10
6.0712728631
 20
70.6882207789
 10
6.0841407699
 20
70.6173848669
 10
6.0918628767
 20
70.5460024791
 10
6.094441183
 20
70.4744463021
  0
LWPOLYLINE
  5
622
100
AcDbEntity
  8
0
100
AcDbPolyline
 62
7
  6
CONTINUOUS
 90
10
 70
0
 10
7.126763469
 20
77.6233710327
 10
7.1144360536
 20
77.6316988266
 10
7.1029145844
 20
77.6404065451
 10
7.0921990615
 20
77.6494941882
 10
7.0823183086
 20
77.6589452423
 10
7.0732435019
 20
77.668776221
 10
7.0648881702
 20
77.6790366657
 10
7.0572234898
 20
77.68974309
 10
7.0502782844
 20
77.7008789803
 10
7.0440525541
 20
77.7124443365
  0
LWPOLYLINE
  5
623
100
AcDbEntity
  8
0
100
AcDbPolyline
 62
7
  6
CONTINUOUS
 90
10
 70
0
 10
8.8605117422
 20
78.0910058979
 10
8.8740132505
 20
78.0814912396
 10
8.8866758625
 20
78.0716762519
 10
8.8984995784
 20
78.0615609348
 10
8.9094747697
 20
78.0511218075
 10
8.9196110647
 20
78.0403823507
 10
8.9289373487
 20
78.0294130071
 10
8.9374632499
 20
78.0182372574
 10
8.9451791401
 20
78.0068316209
 10
8.9520850192
 20
77.9951960974
  0
LINE
  5
624
100
AcDbEntity
  8
RACCORDO
100
AcDbLine
 62
250
  6
CONTINUOUS
 10
-4.706631318
 20
85.751645445
 11
-4.8456620069
 21
85.8503644449
  0
LWPOLYLINE
  5
625
100
AcDbEntity
  8
0
100
AcDbPolyline
 62
7
  6
CONTINUOUS
 90
10
 70
0
 10
9.0036652934
 20
78.2977832218
 10
8.9847024603
 20
78.3118847997
 10
8.9644881572
 20
78.3252767353
 10
8.9430223841
 20
78.3379590285
 10
8.9202096334
 20
78.3500335371
 10
8.8961454127
 20
78.3613984033
 10
8.8711162444
 20
78.3717480538
 10
8.8452176357
 20
78.3809806306
 10
8.8183540794
 20
78.3891979917
 10
8.7905255754
 20
78.396400137
  0
LWPOLYLINE
  5
626
100
AcDbEntity
  8
0
100
AcDbPolyline
 62
7
  6
CONTINUOUS
 90
10
 70
0
 10
6.85
 20
79.3189450317
 10
6.8699909574
 20
79.3026162796
 10
6.8901534035
 20
79.2852270787
 10
6.9104873383
 20
79.266777429
 10
6.9309335783
 20
79.2473619691
 10
6.951551307
 20
79.2268860604
 10
6.9725180753
 20
79.205065787
 10
6.9938930668
 20
79.1818065104
 10
7.0156170979
 20
79.1572028691
 10
7.0376901686
 20
79.1312548631
  0
LWPOLYLINE
  5
627
100
AcDbEntity
  8
0
100
AcDbPolyline
 62
7
  6
CONTINUOUS
 90
10
 70
0
 10
6.9549792426
 20
77.4452244274
 10
6.9840533667
 20
77.4197993455
 10
7.0168838074
 20
77.3968389704
 10
7.0534705647
 20
77.376343302
 10
7.0933144195
 20
77.3580721059
 10
7.1369145909
 20
77.3422656166
 10
7.1857687356
 20
77.3296445375
 10
7.2403760726
 20
77.3204491029
 10
7.3002373828
 20
77.3144390786
 10
7.3653526664
 20
77.3116144643
  0
LINE
  5
628
100
AcDbEntity
  8
RACCORDO
100
AcDbLine
 62
7
  6
CONTINUOUS
 10
8.0
 20
87.934574438
 11
7.9866280426
 21
87.9479463954
  0
LWPOLYLINE
  5
629
100
AcDbEntity
  8
DRAFT
100
AcDbPolyline
 62
7
  6
CONTINUOUS
 90
3
 70
0
 10
-2.2419890953
 20
71.7236898148
 10
-2.2495519034
 20
71.7218680344
 10
-2.2554654956
 20
71.7203562986
  0
LWPOLYLINE
  5
62A
100
AcDbEntity
  8
DRAFT
100
AcDbPolyline
 62
7
  6
CONTINUOUS
 90
3
 70
0
 10
-2.2097680711
 20
71.7310460331
 10
-2.2220558907
 20
71.7282788141
 10
-2.2419890953
 20
71.7236898148
  0
LWPOLYLINE
  5
62B
100
AcDbEntity
  8
0
100
AcDbPolyline
 62
7
  6
CONTINUOUS
 90
10
 70
0
 10
8.3010239856
 20
78.1336775654
 10
8.3222156478
 20
78.1383508023
 10
8.3445285214
 20
78.1425543901
 10
8.3679626065
 20
78.1462883287
 10
8.3923727979
 20
78.149590339
 10
8.4179042006
 20
78.1524227002
 10
8.4449921304
 20
78.1546722501
 10
8.4737816922
 20
78.1563012678
 10
8.504127781
 20
78.1573474742
 10
8.5360303968
 20
78.1578108692
  0
LINE
  5
62C
100
AcDbEntity
  8
DRAFT
100
AcDbLine
 62
7
  6
CONTINUOUS
 10
-2.180768982
 20
71.7373754882
 11
-2.2097680711
 21
71.7310460331
  0
LWPOLYLINE
  5
62D
100
AcDbEntity
  8
0
100
AcDbPolyline
 62
7
  6
CONTINUOUS
 90
4
 70
0
 10
-2.5
 20
71.6464163905
 10
-2.0885685252
 20
71.7341902864
 10
-1.6742292943
 20
71.8061424747
 10
-1.4969767286
 20
71.8299848052
  0
LINE
  5
62E
100
AcDbEntity
  8
DRAFT
100
AcDbLine
 62
7
  6
CONTINUOUS
 10
-2.146220776
 20
71.7447103086
 11
-2.180768982
 21
71.7373754882
  0
LINE
  5
62F
100
AcDbEntity
  8
DRAFT
100
AcDbLine
 62
7
  6
CONTINUOUS
 10
-2.1065643335
 20
71.7528899172
 11
-2.146220776
 21
71.7447103086
  0
LINE
  5
630
100
AcDbEntity
  8
DRAFT
100
AcDbLine
 62
7
  6
CONTINUOUS
 10
-2.0622792264
 20
71.7617356369
 11
-2.1065643335
 21
71.7528899172
  0
LINE
  5
631
100
AcDbEntity
  8
DRAFT
100
AcDbLine
 62
7
  6
CONTINUOUS
 10
-2.0139182315
 20
71.7711256658
 11
-2.0622792264
 21
71.7617356369
  0
LINE
  5
632
100
AcDbEntity
  8
DRAFT
100
AcDbLine
 62
7
  6
CONTINUOUS
 10
-1.9620825147
 20
71.7808697608
 11
-2.0139182315
 21
71.7711256658
  0
LINE
  5
633
100
AcDbEntity
  8
DRAFT
100
AcDbLine
 62
7
  6
CONTINUOUS
 10
-1.9074227419
 20
71.790778488
 11
-1.9620825147
 21
71.7808697608
  0
LINE
  5
634
100
AcDbEntity
  8
DRAFT
100
AcDbLine
 62
7
  6
CONTINUOUS
 10
-1.8506383203
 20
71.8007302642
 11
-1.9074227419
 21
71.790778488
  0
LWPOLYLINE
  5
635
100
AcDbEntity
  8
0
100
AcDbPolyline
 62
7
  6
CONTINUOUS
 90
10
 70
0
 10
8.7459889248
 20
77.5533848682
 10
8.7297652746
 20
77.550580165
 10
8.7130285433
 20
77.5481333621
 10
8.6957787311
 20
77.5460444596
 10
8.6780505813
 20
77.5443270441
 10
8.6598093505
 20
77.542967529
 10
8.6409508082
 20
77.5419251542
 10
8.6214402108
 20
77.5411863329
 10
8.6013123018
 20
77.5407646518
 10
8.5805670813
 20
77.540660111
  0
LWPOLYLINE
  5
636
100
AcDbEntity
  8
DRAFT
100
AcDbPolyline
 62
7
  6
CONTINUOUS
 90
3
 70
0
 10
-1.7630616191
 20
71.8153513126
 10
-1.7924409306
 20
71.8105106673
 10
-1.8506383203
 20
71.8007302642
  0
LWPOLYLINE
  5
637
100
AcDbEntity
  8
RACCORDO
100
AcDbPolyline
 62
7
  6
CONTINUOUS
 90
6
 70
0
 10
-3.5
 20
71.3679640185
 10
-3.5013080053
 20
71.3677526083
 10
-3.5052408619
 20
71.3666645778
 10
-3.5117906615
 20
71.364699927
 10
-3.5209316908
 20
71.3618301772
 10
-3.5466283986
 20
71.3535462522
  0
LINE
  5
638
100
AcDbEntity
  8
DRAFT
100
AcDbLine
 62
7
  6
CONTINUOUS
 10
-1.8209660008
 20
72.4340842853
 11
-1.7630616191
 21
72.4428277861
  0
LWPOLYLINE
  5
639
100
AcDbEntity
  8
RACCORDO
100
AcDbPolyline
 62
7
  6
CONTINUOUS
 90
11
 70
0
 10
-1.5
 20
71.6904571166
 10
-1.6154438546
 20
71.6738456003
 10
-1.9797230672
 20
71.6083899007
 10
-2.3463918172
 20
71.5293205274
 10
-2.7172391773
 20
71.4351591053
 10
-3.092487322
 20
71.3260774946
 10
-3.4719140767
 20
71.201903835
 10
-3.8566419903
 20
71.0606441706
 10
-4.2470452458
 20
70.9016338494
 10
-4.6427496602
 20
70.7255375235
 10
-5.0437552334
 20
70.5323551927
  0
LINE
  5
63A
100
AcDbEntity
  8
DRAFT
100
AcDbLine
 62
7
  6
CONTINUOUS
 10
-1.8780396848
 20
72.425817308
 11
-1.8209660008
 21
72.4340842853
  0
LINE
  5
63B
100
AcDbEntity
  8
DRAFT
100
AcDbLine
 62
7
  6
CONTINUOUS
 10
-1.9335357191
 20
72.4180738869
 11
-1.8780396848
 21
72.425817308
  0
LINE
  5
63C
100
AcDbEntity
  8
0
100
AcDbLine
 62
7
  6
CONTINUOUS
 10
1.5
 20
71.534574438
 11
-1.5
 21
71.534574438
  0
LWPOLYLINE
  5
63D
100
AcDbEntity
  8
DRAFT
100
AcDbPolyline
 62
7
  6
CONTINUOUS
 90
17
 70
0
 10
1.987067086
 20
72.4109713837
 10
2.0126485882
 20
72.4077405613
 10
2.0373940956
 20
72.4047315066
 10
2.0612195694
 20
72.4019432076
 10
2.084045744
 20
72.3994226169
 10
2.1057952426
 20
72.3971718754
 10
2.1263921657
 20
72.3951888422
 10
2.145764607
 20
72.3935140475
 10
2.1638459231
 20
72.3921510583
 10
2.1805732541
 20
72.3910963076
 10
2.195887278
 20
72.3903796247
 10
2.2097355771
 20
72.3900057953
 10
2.2220693088
 20
72.3899700336
 10
2.2328432486
 20
72.3902878125
 10
2.2420200862
 20
72.3909642896
 10
2.2495694131
 20
72.3919943073
 10
2.2554654956
 20
72.3933778656
  0
LINE
  5
63E
100
AcDbEntity
  8
DRAFT
100
AcDbLine
 62
7
  6
CONTINUOUS
 10
1.9337455854
 20
72.4180453062
 11
1.987067086
 21
72.4109713837
  0
LWPOLYLINE
  5
63F
100
AcDbEntity
  8
0
100
AcDbPolyline
 62
7
  6
CONTINUOUS
 90
4
 70
0
 10
1.4969767286
 20
71.8299848052
 10
1.6742292928
 20
71.806142475
 10
2.0885685243
 20
71.7341902866
 10
2.5
 20
71.6464163905
  0
LINE
  5
640
100
AcDbEntity
  8
DRAFT
100
AcDbLine
 62
7
  6
CONTINUOUS
 10
1.8781521834
 20
72.4258013902
 11
1.9337455854
 21
72.4180453062
  0
LINE
  5
641
100
AcDbEntity
  8
DRAFT
100
AcDbLine
 62
7
  6
CONTINUOUS
 10
1.8210040501
 20
72.4340784279
 11
1.8781521834
 21
72.4258013902
  0
LINE
  5
642
100
AcDbEntity
  8
DRAFT
100
AcDbLine
 62
7
  6
CONTINUOUS
 10
1.7630616191
 20
72.4428277861
 11
1.8210040501
 21
72.4340784279
  0
LINE
  5
643
100
AcDbEntity
  8
DRAFT
100
AcDbLine
 62
7
  6
CONTINUOUS
 10
1.8215693548
 20
71.8056534491
 11
1.7630616191
 21
71.8153513126
  0
LINE
  5
644
100
AcDbEntity
  8
DRAFT
100
AcDbLine
 62
7
  6
CONTINUOUS
 10
1.8789742664
 20
71.7958199796
 11
1.8215693548
 21
71.8056534491
  0
LINE
  5
645
100
AcDbEntity
  8
DRAFT
100
AcDbLine
 62
7
  6
CONTINUOUS
 10
1.9345463214
 20
71.7859055913
 11
1.8789742664
 21
71.7958199796
  0
LINE
  5
646
100
AcDbEntity
  8
DRAFT
100
AcDbLine
 62
7
  6
CONTINUOUS
 10
1.9876640171
 20
71.7760902727
 11
1.9345463214
 21
71.7859055913
  0
LINE
  5
647
100
AcDbEntity
  8
DRAFT
100
AcDbLine
 62
7
  6
CONTINUOUS
 10
2.0377313417
 20
71.7665495315
 11
1.9876640171
 21
71.7760902727
  0
LINE
  5
648
100
AcDbEntity
  8
DRAFT
100
AcDbLine
 62
7
  6
CONTINUOUS
 10
2.0841340942
 20
71.7574033008
 11
2.0377313417
 21
71.7665495315
  0
LWPOLYLINE
  5
649
100
AcDbEntity
  8
0
100
AcDbPolyline
 62
7
  6
CONTINUOUS
 90
16
 70
0
 10
2.5
 20
72.4813802009
 10
2.1707572514
 20
72.5477655363
 10
1.8397631958
 20
72.6047666274
 10
1.5072852001
 20
72.6523376255
 10
1.1735913596
 20
72.6904403972
 10
0.8389516589
 20
72.7190442266
 10
0.5036377815
 20
72.7381259713
 10
0.167923326
 20
72.7476704249
 10
-0.1679233126
 20
72.747670425
 10
-0.5036377654
 20
72.738125972
 10
-0.8389516343
 20
72.7190442283
 10
-1.1735913239
 20
72.6904404008
 10
-1.5072851604
 20
72.6523376306
 10
-1.8397631624
 20
72.6047666326
 10
-2.1707572313
 20
72.5477655401
 10
-2.5
 20
72.4813802009
  0
LINE
  5
64A
100
AcDbEntity
  8
DRAFT
100
AcDbLine
 62
7
  6
CONTINUOUS
 10
2.1263049214
 20
71.7488376809
 11
2.0841340942
 21
71.7574033008
  0
LINE
  5
64B
100
AcDbEntity
  8
DRAFT
100
AcDbLine
 62
7
  6
CONTINUOUS
 10
2.163675029
 20
71.7410421518
 11
2.1263049214
 21
71.7488376809
  0
LWPOLYLINE
  5
64C
100
AcDbEntity
  8
DRAFT
100
AcDbPolyline
 62
7
  6
CONTINUOUS
 90
3
 70
0
 10
2.2095804671
 20
71.7310882509
 10
2.1957128718
 20
71.7341376168
 10
2.163675029
 20
71.7410421518
  0
LWPOLYLINE
  5
64D
100
AcDbEntity
  8
DRAFT
100
AcDbPolyline
 62
7
  6
CONTINUOUS
 90
18
 70
0
 10
-2.2554654956
 20
72.3933778656
 10
-2.249566074
 20
72.391993166
 10
-2.2420091435
 20
72.3909627463
 10
-2.2328189559
 20
72.3902866065
 10
-2.2220233411
 20
72.3899697696
 10
-2.2096591522
 20
72.3900072126
 10
-2.1957748571
 20
72.3903838665
 10
-2.1804192692
 20
72.3911049925
 10
-2.1636453275
 20
72.3921653294
 10
-2.1455193752
 20
72.3935340251
 10
-2.1261072828
 20
72.3952148184
 10
-2.1054761701
 20
72.3972039705
 10
-2.0837030667
 20
72.3994594125
 10
-2.0608683247
 20
72.401982904
 10
-2.0370485242
 20
72.4047726855
 10
-2.0123199171
 20
72.4077814093
 10
-1.986768744
 20
72.4110095794
 10
-1.9335357191
 20
72.4180738869
  0
LWPOLYLINE
  5
64E
100
AcDbEntity
  8
DRAFT
100
AcDbPolyline
 62
7
  6
CONTINUOUS
 90
5
 70
0
 10
2.2554654956
 20
71.7203562986
 10
2.24954354
 20
71.7218690576
 10
2.24196191
 20
71.7236954675
 10
2.2327502685
 20
71.7258355284
 10
2.2095804671
 20
71.7310882509
  0
LWPOLYLINE
  5
64F
100
AcDbEntity
  8
RACCORDO
100
AcDbPolyline
 62
7
  6
CONTINUOUS
 90
3
 70
0
 10
3.6468763
 20
72.1572592832
 10
3.7233362249
 20
72.1319232838
 10
3.75
 20
72.1228495508
  0
LINE
  5
650
100
AcDbEntity
  8
RACCORDO
100
AcDbLine
 62
7
  6
CONTINUOUS
 10
3.5813568175
 20
72.1791383495
 11
3.6468763
 21
72.1572592832
  0
LWPOLYLINE
  5
651
100
AcDbEntity
  8
0
100
AcDbPolyline
 62
7
  6
CONTINUOUS
 90
10
 70
0
 10
7.7502765715
 20
78.3327763492
 10
7.7324663014
 20
78.3413694098
 10
7.7144988557
 20
78.3493510418
 10
7.6963742344
 20
78.3567212452
 10
7.6781985838
 20
78.3634552594
 10
7.6598657575
 20
78.369577845
 10
7.6410573172
 20
78.375163284
 10
7.6216671166
 20
78.380236337
 10
7.6018013019
 20
78.3847722436
 10
7.5814598731
 20
78.3887710035
  0
LWPOLYLINE
  5
652
100
AcDbEntity
  8
0
100
AcDbPolyline
 62
7
  6
CONTINUOUS
 90
10
 70
0
 10
8.3069847673
 20
78.4091248923
 10
8.2866314985
 20
78.4056532352
 10
8.2668242667
 20
78.4015529182
 10
8.247563072
 20
78.3968239412
 10
8.228918276
 20
78.3914738429
 10
8.210819517
 20
78.3854950847
 10
8.1930557108
 20
78.3788650503
 10
8.1755564957
 20
78.3715762011
 10
8.1583922334
 20
78.3636360757
 10
8.1415629238
 20
78.3550446743
  0
LWPOLYLINE
  5
653
100
AcDbEntity
  8
0
100
AcDbPolyline
 62
7
  6
CONTINUOUS
 90
10
 70
0
 10
7.2542437492
 20
78.1276283556
 10
7.2709283467
 20
78.1303662702
 10
7.2876157392
 20
78.1328391858
 10
7.3043059269
 20
78.1350471022
 10
7.3210351619
 20
78.1370205638
 10
7.3377671919
 20
78.1387290263
 10
7.3543932603
 20
78.1400808567
 10
7.3708771146
 20
78.1410455108
 10
7.3872550071
 20
78.1416535328
 10
7.403526938
 20
78.1419049227
  0
LWPOLYLINE
  5
654
100
AcDbEntity
  8
0
100
AcDbPolyline
 62
7
  6
CONTINUOUS
 90
10
 70
0
 10
7.3621904825
 20
81.2942914943
 10
7.3218456825
 20
81.2891276127
 10
7.2834258856
 20
81.2830981613
 10
7.2469310917
 20
81.2762031404
 10
7.2124378386
 20
81.268388508
 10
7.1798695886
 20
81.259708306
 10
7.1489967283
 20
81.2503246596
 10
7.1197427199
 20
81.2402916108
 10
7.0921841013
 20
81.2295551176
 10
7.0663208723
 20
81.2181151801
  0
LWPOLYLINE
  5
655
100
AcDbEntity
  8
0
100
AcDbPolyline
 62
7
  6
CONTINUOUS
 90
10
 70
0
 10
7.3621904825
 20
82.7321890573
 10
7.3218456825
 20
82.7270251756
 10
7.2834258856
 20
82.7209957243
 10
7.2469310917
 20
82.7141007034
 10
7.2124378386
 20
82.706286071
 10
7.1798695886
 20
82.6976058689
 10
7.1489967283
 20
82.6882222226
 10
7.1197427199
 20
82.6781891737
 10
7.0921841013
 20
82.6674526806
 10
7.0663208723
 20
82.6560127431
  0
LWPOLYLINE
  5
656
100
AcDbEntity
  8
0
100
AcDbPolyline
 62
7
  6
CONTINUOUS
 90
10
 70
0
 10
8.6029703704
 20
80.1953751846
 10
8.6456090254
 20
80.200124165
 10
8.6862061367
 20
80.2058000818
 10
8.7247617043
 20
80.212402935
 10
8.7612156617
 20
80.2200049038
 10
8.7956280754
 20
80.228533809
 10
8.8281791446
 20
80.2377731131
 10
8.8589289356
 20
80.2476506369
 10
8.8878173821
 20
80.2582385596
 10
8.9148444841
 20
80.2695368811
  0
LWPOLYLINE
  5
657
100
AcDbEntity
  8
0
100
AcDbPolyline
 62
7
  6
CONTINUOUS
 90
10
 70
0
 10
8.6029703704
 20
81.6332727476
 10
8.6456090254
 20
81.638021728
 10
8.6862061367
 20
81.6436976448
 10
8.7247617043
 20
81.650300498
 10
8.7612156617
 20
81.6579024668
 10
8.7956280754
 20
81.666431372
 10
8.8281791446
 20
81.6756706761
 10
8.8589289356
 20
81.6855481999
 10
8.8878173821
 20
81.6961361226
 10
8.9148444841
 20
81.7074344441
  0
LWPOLYLINE
  5
658
100
AcDbEntity
  8
0
100
AcDbPolyline
 62
7
  6
CONTINUOUS
 90
9
 70
0
 10
8.5551248727
 20
80.4513410816
 10
8.5225150685
 20
80.4493012552
 10
8.4892175536
 20
80.4475142801
 10
8.4552323282
 20
80.4459801563
 10
8.4205549644
 20
80.4447055616
 10
8.38518989
 20
80.4436838182
 10
8.3491503883
 20
80.4428948929
 10
8.3124408871
 20
80.4423321077
 10
8.2750569586
 20
80.4420021405
  0
LWPOLYLINE
  5
659
100
AcDbEntity
  8
0
100
AcDbPolyline
 62
7
  6
CONTINUOUS
 90
9
 70
0
 10
8.5551248915
 20
81.8892386459
 10
8.5225150822
 20
81.8871988191
 10
8.4892175631
 20
81.8854118437
 10
8.4552323343
 20
81.8838777196
 10
8.4205549682
 20
81.8826031248
 10
8.3851898924
 20
81.8815813814
 10
8.3491503896
 20
81.8807924559
 10
8.3124408876
 20
81.8802296707
 10
8.2750569586
 20
81.8798997034
  0
LWPOLYLINE
  5
65A
100
AcDbEntity
  8
0
100
AcDbPolyline
 62
7
  6
CONTINUOUS
 90
9
 70
0
 10
7.4480635881
 20
81.0431496316
 10
7.4790741388
 20
81.0450857881
 10
7.5115109364
 20
81.0468084404
 10
7.5453739808
 20
81.0483175885
 10
7.580648315
 20
81.049620475
 10
7.6173488961
 20
81.0507098573
 10
7.6555205955
 20
81.0515640074
 10
7.6951783704
 20
81.0521756826
 10
7.7363072636
 20
81.0525521257
  0
LWPOLYLINE
  5
65B
100
AcDbEntity
  8
0
100
AcDbPolyline
 62
7
  6
CONTINUOUS
 90
10
 70
0
 10
7.3844398022
 20
78.405943703
 10
7.3122310613
 20
78.403002169
 10
7.2464792869
 20
78.3969695779
 10
7.187184479
 20
78.3878459296
 10
7.1348806291
 20
78.3752741452
 10
7.0890337457
 20
78.3596113036
 10
7.048041854
 20
78.3419286416
 10
7.0113709624
 20
78.3225832382
 10
6.9795550625
 20
78.3012180143
 10
6.9525941542
 20
78.2778329701
  0
LWPOLYLINE
  5
65C
100
AcDbEntity
  8
0
100
AcDbPolyline
 62
7
  6
CONTINUOUS
 90
10
 70
0
 10
8.5805670813
 20
77.2798025628
 10
8.6567521145
 20
77.2824776607
 10
8.7262326855
 20
77.2882632919
 10
8.7890087942
 20
77.2971594562
 10
8.8445698251
 20
77.309492357
 10
8.8934263937
 20
77.324935791
 10
8.937110347
 20
77.3425111482
 10
8.9761323005
 20
77.3618922251
 10
9.0099816387
 20
77.3834052252
 10
9.0386583615
 20
77.4070501484
  0
LWPOLYLINE
  5
65D
100
AcDbEntity
  8
0
100
AcDbPolyline
 62
7
  6
CONTINUOUS
 90
10
 70
0
 10
8.5073996931
 20
78.4250308388
 10
8.4851120313
 20
78.4247969756
 10
8.4628228033
 20
78.4241680613
 10
8.440532009
 20
78.4231440959
 10
8.4182311145
 20
78.4217094994
 10
8.3959286538
 20
78.4198798518
 10
8.3736502285
 20
78.4177018932
 10
8.3514043726
 20
78.4151912038
 10
8.3291825522
 20
78.4123322035
 10
8.3069847673
 20
78.4091248923
  0
LWPOLYLINE
  5
65E
100
AcDbEntity
  8
0
100
AcDbPolyline
 62
7
  6
CONTINUOUS
 90
9
 70
0
 10
8.2471283762
 20
80.1811321943
 10
8.2970459287
 20
80.1815741627
 10
8.3453957992
 20
80.1823733737
 10
8.3921632964
 20
80.1835037369
 10
8.4373631117
 20
80.1849913427
 10
8.4810393193
 20
80.1869144632
 10
8.5232066107
 20
80.189299189
 10
8.5638502944
 20
80.1921194295
 10
8.6029703704
 20
80.1953751846
  0
LWPOLYLINE
  5
65F
100
AcDbEntity
  8
0
100
AcDbPolyline
 62
7
  6
CONTINUOUS
 90
10
 70
0
 10
7.7534577608
 20
81.3135508591
 10
7.7064108077
 20
81.3133260294
 10
7.6601877916
 20
81.3126195238
 10
7.6147887125
 20
81.3114313423
 10
7.5701212162
 20
81.3097576168
 10
7.5262776569
 20
81.3076022154
 10
7.4835350976
 20
81.3049767421
 10
7.4419858926
 20
81.3018850648
 10
7.4015376876
 20
81.2983233155
 10
7.3621904825
 20
81.2942914943
  0
LINE
  5
660
100
AcDbEntity
  8
DRAFT
100
AcDbLine
 62
250
  6
CONTINUOUS
 10
9.9860359481
 20
76.4717171329
 11
-9.9860359481
 21
76.4717171329
  0
LINE
  5
661
100
AcDbEntity
  8
0
100
AcDbLine
 62
7
  6
CONTINUOUS
 10
7.3653526664
 20
77.3116144643
 11
7.3939833701
 21
77.3116144643
  0
LINE
  5
662
100
AcDbEntity
  8
0
100
AcDbLine
 62
7
  6
CONTINUOUS
 10
-9.150007
 20
77.344574438
 11
-6.850006
 21
77.344574438
  0
LINE
  5
663
100
AcDbEntity
  8
0
100
AcDbLine
 62
7
  6
CONTINUOUS
 10
-7.066327
 20
77.614975438
 11
-9.150007
 21
77.614975438
  0
LINE
  5
664
100
AcDbEntity
  8
0
100
AcDbLine
 62
7
  6
CONTINUOUS
 10
7.8584370077
 20
77.7029007652
 11
8.058852002
 21
77.7029007652
  0
LINE
  5
665
100
AcDbEntity
  8
0
100
AcDbLine
 62
7
  6
CONTINUOUS
 10
-6.850006
 20
78.337105438
 11
-7.066327
 21
78.337105438
  0
LINE
  5
666
100
AcDbEntity
  8
0
100
AcDbLine
 62
7
  6
CONTINUOUS
 10
-9.150011
 20
78.654497438
 11
-6.850011
 21
78.654497438
  0
LINE
  5
667
100
AcDbEntity
  8
0
100
AcDbLine
 62
7
  6
CONTINUOUS
 10
7.1967496336
 20
78.9212963694
 11
7.4671507239
 21
78.9212963694
  0
LINE
  5
668
100
AcDbEntity
  8
0
100
AcDbLine
 62
7
  6
CONTINUOUS
 10
-6.850011
 20
78.924899438
 11
-9.150011
 21
78.924899438
  0
LINE
  5
669
100
AcDbEntity
  8
0
100
AcDbLine
 62
7
  6
CONTINUOUS
 10
7.1713001192
 20
79.290314328
 11
9.15
 21
79.290314328
  0
LINE
  5
66A
100
AcDbEntity
  8
0
100
AcDbLine
 62
7
  6
CONTINUOUS
 10
-9.150007
 20
79.349042438
 11
-6.850006
 21
79.349042438
  0
LINE
  5
66B
100
AcDbEntity
  8
0
100
AcDbLine
 62
7
  6
CONTINUOUS
 10
9.15
 20
79.5543530398
 11
6.85
 21
79.5543530398
  0
LINE
  5
66C
100
AcDbEntity
  8
0
100
AcDbLine
 62
7
  6
CONTINUOUS
 10
-6.850006
 20
79.600356438
 11
-8.91778
 21
79.600356438
  0
LINE
  5
66D
100
AcDbEntity
  8
0
100
AcDbLine
 62
7
  6
CONTINUOUS
 10
7.766182518
 20
80.1810474688
 11
8.2471283762
 21
80.1811321943
  0
LINE
  5
66E
100
AcDbEntity
  8
0
100
AcDbLine
 62
7
  6
CONTINUOUS
 10
8.2750569586
 20
80.4420021405
 11
7.7789072752
 21
80.4419049912
  0
LINE
  5
66F
100
AcDbEntity
  8
0
100
AcDbLine
 62
7
  6
CONTINUOUS
 10
-9.150007
 20
80.541988438
 11
-7.082233
 21
80.541988438
  0
LINE
  5
670
100
AcDbEntity
  8
0
100
AcDbLine
 62
7
  6
CONTINUOUS
 10
-6.850006
 20
80.793324438
 11
-9.150007
 21
80.793324438
  0
LINE
  5
671
100
AcDbEntity
  8
0
100
AcDbLine
 62
7
  6
CONTINUOUS
 10
7.7363072636
 20
81.0525521257
 11
8.240179792
 21
81.0526933366
  0
LINE
  5
672
100
AcDbEntity
  8
0
100
AcDbLine
 62
7
  6
CONTINUOUS
 10
-9.150007
 20
81.214268438
 11
-6.850006
 21
81.214268438
  0
LINE
  5
673
100
AcDbEntity
  8
0
100
AcDbLine
 62
7
  6
CONTINUOUS
 10
8.1892807633
 20
81.3135508591
 11
7.7534577608
 21
81.3135508591
  0
LWPOLYLINE
  5
674
100
AcDbEntity
  8
0
100
AcDbPolyline
 62
7
  6
CONTINUOUS
 90
10
 70
0
 10
7.7789072752
 20
80.4419049912
 10
7.7363072681
 20
80.4420461834
 10
7.695178379
 20
80.4424226014
 10
7.6555206078
 20
80.4430342452
 10
7.6173489128
 20
80.4438883529
 10
7.5806483358
 20
80.4449776865
 10
7.5453740022
 20
80.4462805316
 10
7.511510954
 20
80.4477896502
 10
7.4790741493
 20
80.4495122803
 10
7.4480635881
 20
80.451448422
  0
LWPOLYLINE
  5
675
100
AcDbEntity
  8
0
100
AcDbPolyline
 62
7
  6
CONTINUOUS
 90
10
 70
0
 10
8.240179792
 20
81.0526933366
 10
8.281673833
 20
81.052550852
 10
8.3217084978
 20
81.052175866
 10
8.3602837865
 20
81.0515683784
 10
8.3973849393
 20
81.0507203871
 10
8.4330267159
 20
81.0496398943
 10
8.4672533952
 20
81.0483509066
 10
8.5000797369
 20
81.0468614261
 10
8.5314909813
 20
81.0451634507
 10
8.5614871284
 20
81.0432569804
  0
LWPOLYLINE
  5
676
100
AcDbEntity
  8
0
100
AcDbPolyline
 62
7
  6
CONTINUOUS
 90
10
 70
0
 10
7.3939833701
 20
77.5661096254
 10
7.3765095345
 20
77.5662266176
 10
7.3593562505
 20
77.5666275945
 10
7.3425235179
 20
77.5673125562
 10
7.3260414114
 20
77.5682753231
 10
7.3098798564
 20
77.5695220748
 10
7.2939486292
 20
77.5710713497
 10
7.2782176552
 20
77.572929327
 10
7.262717009
 20
77.5750898275
 10
7.2474466906
 20
77.5775528511
  0
LWPOLYLINE
  5
677
100
AcDbEntity
  8
0
100
AcDbPolyline
 62
7
  6
CONTINUOUS
 90
10
 70
0
 10
8.5360303968
 20
78.1578108692
 10
8.5571595086
 20
78.1575755864
 10
8.5780553491
 20
78.1569516458
 10
8.5987179182
 20
78.1559390474
 10
8.6191617203
 20
78.1545204476
 10
8.6393722511
 20
78.15271319
 10
8.6593059975
 20
78.1505693051
 10
8.6789484552
 20
78.1481061363
 10
8.6983141285
 20
78.1453063402
 10
8.7174030175
 20
78.1421699167
  0
LWPOLYLINE
  5
678
100
AcDbEntity
  8
0
100
AcDbPolyline
 62
7
  6
CONTINUOUS
 90
10
 70
0
 10
7.403526938
 20
78.1419049227
 10
7.4345753087
 20
78.1414044007
 10
7.4640431487
 20
78.1402911912
 10
7.4919304581
 20
78.1385652944
 10
7.5182278305
 20
78.1361706762
 10
7.5429446723
 20
78.1331633706
 10
7.5661092019
 20
78.1297114794
 10
7.5877308255
 20
78.1258710365
 10
7.6078001369
 20
78.1215860081
 10
7.6263171362
 20
78.1168563941
  0
LWPOLYLINE
  5
679
100
AcDbEntity
  8
0
100
AcDbPolyline
 62
7
  6
CONTINUOUS
 90
10
 70
0
 10
7.4480635881
 20
80.451448422
 10
7.4150179926
 20
80.4539865568
 10
7.3836368843
 20
80.4570072435
 10
7.3539202633
 20
80.460510482
 10
7.3259255953
 20
80.4645075133
 10
7.2995954145
 20
80.4689870965
 10
7.274757324
 20
80.4739155086
 10
7.2513538579
 20
80.4792815086
 10
7.2294424821
 20
80.4850963376
 10
7.2090231965
 20
80.4913599954
  0
LWPOLYLINE
  5
67A
100
AcDbEntity
  8
0
100
AcDbPolyline
 62
7
  6
CONTINUOUS
 90
10
 70
0
 10
7.3748962343
 20
80.2001346045
 10
7.4146471505
 20
80.1961227157
 10
7.4553717077
 20
80.1925829525
 10
7.4970699056
 20
80.1895153149
 10
7.539798153
 20
80.1869189382
 10
7.5835000413
 20
80.1847946872
 10
7.6280063445
 20
80.1831451554
 10
7.6732606541
 20
80.1819712073
 10
7.7193193786
 20
80.1812719784
 10
7.766182518
 20
80.1810474688
  0
LWPOLYLINE
  5
67B
100
AcDbEntity
  8
0
100
AcDbPolyline
 62
7
  6
CONTINUOUS
 90
10
 70
0
 10
7.5814598731
 20
78.3887710035
 10
7.5608733197
 20
78.3922670282
 10
7.5399021021
 20
78.3953770525
 10
7.5185462201
 20
78.3981010764
 10
7.4967276433
 20
78.4004537485
 10
7.4745244022
 20
78.4024204202
 10
7.4521705884
 20
78.4039571461
 10
7.4297442324
 20
78.4050492776
 10
7.4071673036
 20
78.4057114632
 10
7.3844398022
 20
78.405943703
  0
LWPOLYLINE
  5
67C
100
AcDbEntity
  8
0
100
AcDbPolyline
 62
7
  6
CONTINUOUS
 90
10
 70
0
 10
8.7174030175
 20
78.1421699167
 10
8.7375237809
 20
78.1383664728
 10
8.7565578838
 20
78.1340877044
 10
8.7745053262
 20
78.1293336116
 10
8.7913238255
 20
78.1240975774
 10
8.8070556643
 20
78.1183862187
 10
8.8218276905
 20
78.1122193864
 10
8.8356821869
 20
78.1056036972
 10
8.8485768708
 20
78.0985325344
 10
8.8605117422
 20
78.0910058979
  0
LWPOLYLINE
  5
67D
100
AcDbEntity
  8
0
100
AcDbPolyline
 62
7
  6
CONTINUOUS
 90
10
 70
0
 10
7.2474466906
 20
77.5775528511
 10
7.2324871114
 20
77.5804942223
 10
7.2178785359
 20
77.5839995841
 10
7.2036209641
 20
77.5880689364
 10
7.1896656233
 20
77.5927377541
 10
7.1760612861
 20
77.5979705623
 10
7.1629542703
 20
77.6036609368
 10
7.1503933485
 20
77.6097734026
 10
7.138329748
 20
77.6163434346
 10
7.126763469
 20
77.6233710327
  0
LWPOLYLINE
  5
67E
100
AcDbEntity
  8
0
100
AcDbPolyline
 62
7
  6
CONTINUOUS
 90
10
 70
0
 10
8.7905255754
 20
78.396400137
 10
8.7641884968
 20
78.402124827
 10
8.736581811
 20
78.4072369198
 10
8.707705518
 20
78.4117364155
 10
8.6775739258
 20
78.4156543515
 10
8.6461727265
 20
78.4189596903
 10
8.6134589959
 20
78.4215593197
 10
8.5794184262
 20
78.4234222022
 10
8.5440653253
 20
78.4245793752
 10
8.5073996931
 20
78.4250308388
  0
LINE
  5
67F
100
AcDbEntity
  8
0
100
AcDbLine
 62
7
  6
CONTINUOUS
 10
-7.6485
 20
82.944827438
 11
-8.898687
 21
83.278852438
  0
LINE
  5
680
100
AcDbEntity
  8
0
100
AcDbLine
 62
7
  6
CONTINUOUS
 10
-6.85
 20
82.715780438
 11
-7.432179
 21
82.878021438
  0
LINE
  5
681
100
AcDbEntity
  8
0
100
AcDbLine
 62
7
  6
CONTINUOUS
 10
-9.150022
 20
83.119792438
 11
-6.85
 21
82.445380438
  0
LWPOLYLINE
  5
682
100
AcDbEntity
  8
0
100
AcDbPolyline
 62
7
  6
CONTINUOUS
 90
10
 70
0
 10
7.6263171362
 20
78.1168563941
 10
7.6477409842
 20
78.1103881018
 10
7.6676719648
 20
78.1033910435
 10
7.6861100777
 20
78.0958652194
 10
7.7029954336
 20
78.0877623037
 10
7.718387922
 20
78.0791306221
 10
7.732467211
 20
78.0701151511
 10
7.7452931899
 20
78.0607642164
 10
7.7568059694
 20
78.0510294923
 10
7.7670055495
 20
78.0409109789
  0
LINE
  5
683
100
AcDbEntity
  8
RACCORDO
100
AcDbLine
 62
7
  6
CONTINUOUS
 10
-4.65
 20
86.1259246068
 11
-4.6307780443
 21
86.1197943994
  0
LWPOLYLINE
  5
684
100
AcDbEntity
  8
0
100
AcDbPolyline
 62
7
  6
CONTINUOUS
 90
10
 70
0
 10
7.2090231965
 20
80.4913599954
 10
7.1863058951
 20
80.4995952392
 10
7.1652496519
 20
80.5084271293
 10
7.1458544669
 20
80.5178556659
 10
7.1281657411
 20
80.5279511465
 10
7.1121380736
 20
80.5386432735
 10
7.0976352609
 20
80.549721154
 10
7.0846119021
 20
80.5611144904
 10
7.0731133982
 20
80.5728935802
 10
7.0631397493
 20
80.5850584236
  0
LWPOLYLINE
  5
685
100
AcDbEntity
  8
0
100
AcDbPolyline
 62
7
  6
CONTINUOUS
 90
10
 70
0
 10
7.2090232314
 20
81.9292576851
 10
7.1863059169
 20
81.9374929521
 10
7.1652496643
 20
81.9463248532
 10
7.1458544738
 20
81.9557533885
 10
7.1281657459
 20
81.9658488499
 10
7.11213808
 20
81.9765409454
 10
7.0976352742
 20
81.9876187995
 10
7.0846119278
 20
81.9990121202
 10
7.0731134416
 20
82.0107911996
 10
7.0631398155
 20
82.0229560375
  0
LWPOLYLINE
  5
686
100
AcDbEntity
  8
0
100
AcDbPolyline
 62
7
  6
CONTINUOUS
 90
10
 70
0
 10
7.2090232314
 20
83.3671552481
 10
7.1863059169
 20
83.3753905151
 10
7.1652496643
 20
83.3842224162
 10
7.1458544738
 20
83.3936509515
 10
7.1281657459
 20
83.4037464129
 10
7.11213808
 20
83.4144385084
 10
7.0976352742
 20
83.4255163624
 10
7.0846119278
 20
83.4369096832
 10
7.0731134416
 20
83.4486887626
 10
7.0631398155
 20
83.4608536005
  0
LWPOLYLINE
  5
687
100
AcDbEntity
  8
0
100
AcDbPolyline
 62
7
  6
CONTINUOUS
 90
10
 70
0
 10
8.796404229
 20
81.0003608556
 10
8.8190053616
 20
80.9920780153
 10
8.8398434888
 20
80.9832773336
 10
8.8589186105
 20
80.9739588104
 10
8.87612282
 20
80.9640575059
 10
8.8915640241
 20
80.95363836
 10
8.9055659432
 20
80.9428961919
 10
8.9182364843
 20
80.9318959416
 10
8.9294677406
 20
80.9205726693
 10
8.9392597119
 20
80.9089263749
  0
LWPOLYLINE
  5
688
100
AcDbEntity
  8
0
100
AcDbPolyline
 62
7
  6
CONTINUOUS
 90
10
 70
0
 10
8.7964042696
 20
82.4382585435
 10
8.8190054069
 20
82.4299756801
 10
8.8398435394
 20
82.4211749862
 10
8.858918667
 20
82.411856462
 10
8.8761228869
 20
82.4019551691
 10
8.8915641019
 20
82.3915360458
 10
8.9055660211
 20
82.3807939069
 10
8.9182365472
 20
82.3697936908
 10
8.9294677775
 20
82.3584704592
 10
8.9392597119
 20
82.346824212
  0
LWPOLYLINE
  5
689
100
AcDbEntity
  8
0
100
AcDbPolyline
 62
7
  6
CONTINUOUS
 90
10
 70
0
 10
8.9114107841
 20
81.2244775556
 10
8.8836492411
 20
81.235756432
 10
8.8541303616
 20
81.2462185264
 10
8.8228541458
 20
81.2558638388
 10
8.7898929909
 20
81.2647115031
 10
8.7551744995
 20
81.2727423853
 10
8.7184814803
 20
81.2798990842
 10
8.6797415359
 20
81.2861624658
 10
8.6390270637
 20
81.291551664
 10
8.5963380635
 20
81.2960666788
  0
LWPOLYLINE
  5
68A
100
AcDbEntity
  8
0
100
AcDbPolyline
 62
7
  6
CONTINUOUS
 90
10
 70
0
 10
8.9114107841
 20
82.6623753928
 10
8.8836492503
 20
82.6736542525
 10
8.8541303774
 20
82.6841163236
 10
8.8228541653
 20
82.6937616063
 10
8.7898930107
 20
82.7026092301
 10
8.755174517
 20
82.7106400653
 10
8.7184814943
 20
82.717796723
 10
8.6797415463
 20
82.7240600735
 10
8.6390270693
 20
82.7294492464
 10
8.5963380635
 20
82.7339642418
  0
LWPOLYLINE
  5
68B
100
AcDbEntity
  8
0
100
AcDbPolyline
 62
7
  6
CONTINUOUS
 90
10
 70
0
 10
8.9114107841
 20
84.1002729557
 10
8.8836492389
 20
84.1115518501
 10
8.8541303585
 20
84.1220139632
 10
8.822854143
 20
84.1316592952
 10
8.789892991
 20
84.140506987
 10
8.755174504
 20
84.1485378975
 10
8.7184814855
 20
84.1556946044
 10
8.6797415369
 20
84.1619579667
 10
8.6390270569
 20
84.1673471254
 10
8.5963380455
 20
84.1718620803
  0
LWPOLYLINE
  5
68C
100
AcDbEntity
  8
0
100
AcDbPolyline
 62
7
  6
CONTINUOUS
 90
10
 70
0
 10
7.0726832509
 20
80.2764831477
 10
7.0986069918
 20
80.2650664189
 10
7.1264011298
 20
80.2543426807
 10
7.1560656647
 20
80.2443119329
 10
7.1875426329
 20
80.2349203104
 10
7.2208899981
 20
80.2262216785
 10
7.2562816517
 20
80.2183776324
 10
7.2937755575
 20
80.2114420373
 10
7.3333137517
 20
80.205361028
 10
7.3748962343
 20
80.2001346045
  0
LWPOLYLINE
  5
68D
100
AcDbEntity
  8
0
100
AcDbPolyline
 62
7
  6
CONTINUOUS
 90
10
 70
0
 10
7.0726832509
 20
81.7143807107
 10
7.0986069918
 20
81.7029639819
 10
7.1264011298
 20
81.6922402436
 10
7.1560656647
 20
81.6822094958
 10
7.1875426329
 20
81.6728178734
 10
7.2208899981
 20
81.6641192415
 10
7.2562816517
 20
81.6562751954
 10
7.2937755575
 20
81.6493396003
 10
7.3333137517
 20
81.643258591
 10
7.3748962343
 20
81.6380321675
  0
LWPOLYLINE
  5
68E
100
AcDbEntity
  8
0
100
AcDbPolyline
 62
7
  6
CONTINUOUS
 90
10
 70
0
 10
7.0726832509
 20
83.1522782737
 10
7.0986069918
 20
83.1408615449
 10
7.1264011298
 20
83.1301378066
 10
7.1560656647
 20
83.1201070588
 10
7.1875426329
 20
83.1107154364
 10
7.2208899981
 20
83.1020168045
 10
7.2562816517
 20
83.0941727584
 10
7.2937755575
 20
83.0872371632
 10
7.3333137517
 20
83.081156154
 10
7.3748962343
 20
83.0759297305
  0
LINE
  5
68F
100
AcDbEntity
  8
0
100
AcDbLine
 62
7
  6
CONTINUOUS
 10
-7.432179
 20
83.676501438
 11
-6.85
 21
83.838720438
  0
LINE
  5
690
100
AcDbEntity
  8
0
100
AcDbLine
 62
7
  6
CONTINUOUS
 10
-8.898687
 20
83.278852438
 11
-7.6485
 21
83.612877438
  0
LWPOLYLINE
  5
691
100
AcDbEntity
  8
0
100
AcDbPolyline
 62
7
  6
CONTINUOUS
 90
49
 70
0
 10
4.0407988352
 20
89.1836927648
 10
4.0530893641
 20
89.1868109905
 10
4.0653414368
 20
89.1914173646
 10
4.0775550533
 20
89.197511887
 10
4.0896883211
 20
89.2054193811
 10
4.1017831326
 20
89.2148150236
 10
4.1139651653
 20
89.224724344
 10
4.1262773708
 20
89.2348407831
 10
4.1386767974
 20
89.2454709001
 10
4.1511602679
 20
89.256559903
 10
4.1637512035
 20
89.2680070926
 10
4.1764261829
 20
89.2799131681
 10
4.1891117649
 20
89.2925254349
 10
4.2018240361
 20
89.3058257387
 10
4.2145469099
 20
89.3198322337
 10
4.2271586851
 20
89.3348466881
 10
4.2396739018
 20
89.3509233786
 10
4.25207802
 20
89.3680080285
 10
4.2642057186
 20
89.3862395751
 10
4.2760770743
 20
89.4056471587
 10
4.2876720104
 20
89.426201639
 10
4.298764976
 20
89.4479545324
 10
4.3093798974
 20
89.4709200558
 10
4.3194928483
 20
89.4950839923
 10
4.3288064993
 20
89.5204552074
 10
4.3373244031
 20
89.5470102199
 10
4.3450430071
 20
89.574772511
 10
4.3516543232
 20
89.6038213905
 10
4.3571708401
 20
89.6341706222
 10
4.3615800692
 20
89.6658064423
 10
4.364536557
 20
89.6987668699
 10
4.3660931464
 20
89.7330946251
 10
4.3661969944
 20
89.7687469879
 10
4.3643441184
 20
89.8056338166
 10
4.3607189564
 20
89.8438077103
 10
4.3551370703
 20
89.88321607
 10
4.3465411639
 20
89.9236109569
 10
4.3349924886
 20
89.9651684022
 10
4.320429793
 20
90.0077123748
 10
4.301612026
 20
90.0504668418
 10
4.2777307027
 20
90.0942095431
 10
4.249594308
 20
90.1381627388
 10
4.2183872464
 20
90.1792171766
 10
4.1836793753
 20
90.2168239392
 10
4.1459008373
 20
90.2515319439
 10
4.1075264641
 20
90.2818786897
 10
4.0693811997
 20
90.3073766761
 10
4.0306401002
 20
90.3285134035
 10
3.9913031656
 20
90.3452888719
  0
LWPOLYLINE
  5
692
100
AcDbEntity
  8
RACCORDO
100
AcDbPolyline
 62
7
  6
CONTINUOUS
 90
13
 70
0
 10
8.9171572875
 20
87.9398257897
 10
8.9281530998
 20
87.9418956415
 10
8.9390578891
 20
87.9475058247
 10
8.9495569053
 20
87.9564370466
 10
8.9592391981
 20
87.968373543
 10
8.9679997622
 20
87.9830315059
 10
8.9759947193
 20
88.0002653998
 10
8.9830426107
 20
88.0198349473
 10
8.988905375
 20
88.0413666524
 10
8.9936390096
 20
88.0645641505
 10
8.997169411
 20
88.0890728063
 10
8.9993136678
 20
88.1144684433
 10
9.0
 20
88.1403293824
  0
LWPOLYLINE
  5
693
100
AcDbEntity
  8
RACCORDO
100
AcDbPolyline
 62
7
  6
CONTINUOUS
 90
13
 70
0
 10
-8.9171572875
 20
88.5293230863
 10
-8.9281530998
 20
88.5272532345
 10
-8.9390578891
 20
88.5216430513
 10
-8.9495569053
 20
88.5127118294
 10
-8.9592391981
 20
88.500775333
 10
-8.9679997622
 20
88.4861173701
 10
-8.9759947193
 20
88.4688834762
 10
-8.9830426107
 20
88.4493139288
 10
-8.988905375
 20
88.4277822236
 10
-8.9936390096
 20
88.4045847255
 10
-8.997169411
 20
88.3800760697
 10
-8.9993136678
 20
88.3546804327
 10
-9.0
 20
88.3288194936
  0
LWPOLYLINE
  5
694
100
AcDbEntity
  8
0
100
AcDbPolyline
 62
7
  6
CONTINUOUS
 90
10
 70
0
 10
3.2688043561
 20
90.0045793078
 10
3.3110954132
 20
90.0116186617
 10
3.3532466498
 20
90.017281295
 10
3.3952580661
 20
90.0215672076
 10
3.4371113329
 20
90.0244858152
 10
3.4788247794
 20
90.0260277021
 10
3.5204533922
 20
90.026164621
 10
3.5620155004
 20
90.024887156
 10
3.6034927749
 20
90.022204723
 10
3.6448852159
 20
90.0181173219
  0
LWPOLYLINE
  5
695
100
AcDbEntity
  8
0
100
AcDbPolyline
 62
7
  6
CONTINUOUS
 90
10
 70
0
 10
7.3621904825
 20
84.1700866203
 10
7.3218456825
 20
84.1649227386
 10
7.2834258856
 20
84.1588932873
 10
7.2469310917
 20
84.1519982663
 10
7.2124378386
 20
84.144183634
 10
7.1798695886
 20
84.1355034319
 10
7.1489967283
 20
84.1261197856
 10
7.1197427199
 20
84.1160867367
 10
7.0921841013
 20
84.1053502435
 10
7.0663208723
 20
84.0939103061
  0
LWPOLYLINE
  5
696
100
AcDbEntity
  8
0
100
AcDbPolyline
 62
7
  6
CONTINUOUS
 90
10
 70
0
 10
8.6029703704
 20
83.0711705848
 10
8.6456090254
 20
83.0759195652
 10
8.6862061367
 20
83.081595482
 10
8.7247617043
 20
83.0881983352
 10
8.7612156617
 20
83.095800304
 10
8.7956280754
 20
83.1043292092
 10
8.8281791446
 20
83.1135685133
 10
8.8589289356
 20
83.1234460371
 10
8.8878173821
 20
83.1340339597
 10
8.9148444841
 20
83.1453322813
  0
LWPOLYLINE
  5
697
100
AcDbEntity
  8
RACCORDO
100
AcDbPolyline
 62
250
  6
CONTINUOUS
 90
13
 70
0
 10
-4.334364846
 20
87.318927861
 10
-4.373520125
 20
87.3163585788
 10
-4.4120053612
 20
87.3087006868
 10
-4.4491621123
 20
87.296085254
 10
-4.4843546878
 20
87.2787281588
 10
-4.516980986
 20
87.2569264119
 10
-4.5464828041
 20
87.2310530884
 10
-4.5723554414
 20
87.2015509052
 10
-4.5941563101
 20
87.1689246412
 10
-4.6115124799
 20
87.1337325338
 10
-4.6241270802
 20
87.096576697
 10
-4.6317843709
 20
87.0580928155
 10
-4.634353423
 20
87.018939284
  0
LWPOLYLINE
  5
698
100
AcDbEntity
  8
0
100
AcDbPolyline
 62
7
  6
CONTINUOUS
 90
9
 70
0
 10
8.5551248915
 20
83.3271362088
 10
8.5225150822
 20
83.3250963821
 10
8.4892175631
 20
83.3233094067
 10
8.4552323343
 20
83.3217752826
 10
8.4205549682
 20
83.3205006878
 10
8.3851898924
 20
83.3194789443
 10
8.3491503896
 20
83.3186900189
 10
8.3124408876
 20
83.3181272336
 10
8.2750569586
 20
83.3177972664
  0
LWPOLYLINE
  5
699
100
AcDbEntity
  8
0
100
AcDbPolyline
 62
7
  6
CONTINUOUS
 90
9
 70
0
 10
7.4480635699
 20
82.4810474675
 10
7.4790741394
 20
82.4829836098
 10
7.5115109505
 20
82.4847062403
 10
7.5453740032
 20
82.4862153591
 10
7.5806483391
 20
82.4875182044
 10
7.6173489166
 20
82.4886075379
 10
7.6555206114
 20
82.4894616456
 10
7.695178382
 20
82.4900732894
 10
7.73630727
 20
82.4904497074
  0
LWPOLYLINE
  5
69A
100
AcDbEntity
  8
0
100
AcDbPolyline
 62
7
  6
CONTINUOUS
 90
9
 70
0
 10
7.4480635699
 20
83.9189450305
 10
7.4790741394
 20
83.9208811727
 10
7.5115109505
 20
83.9226038033
 10
7.5453740032
 20
83.9241129221
 10
7.5806483391
 20
83.9254157673
 10
7.6173489166
 20
83.9265051009
 10
7.6555206114
 20
83.9273592086
 10
7.695178382
 20
83.9279708524
 10
7.73630727
 20
83.9283472704
  0
LWPOLYLINE
  5
69B
100
AcDbEntity
  8
RACCORDO
100
AcDbPolyline
 62
250
  6
CONTINUOUS
 90
13
 70
0
 10
-4.3312899524
 20
86.9542354449
 10
-4.3702935894
 20
86.952280518
 10
-4.4086349861
 20
86.9467892438
 10
-4.4456632791
 20
86.9378548742
 10
-4.4807499181
 20
86.9256291032
 10
-4.5132992975
 20
86.910319503
 10
-4.5427588759
 20
86.8921860088
 10
-4.5686286067
 20
86.8715364802
 10
-4.5904694037
 20
86.8487214717
 10
-4.6079105677
 20
86.8241283031
 10
-4.6206561007
 20
86.7981744643
 10
-4.6284897218
 20
86.7713005249
 10
-4.6312785293
 20
86.7439626656
  0
LWPOLYLINE
  5
69C
100
AcDbEntity
  8
RACCORDO
100
AcDbPolyline
 62
250
  6
CONTINUOUS
 90
13
 70
0
 10
-4.3331351886
 20
87.1694015316
 10
-4.3721380365
 20
87.1674466663
 10
-4.4104788056
 20
87.1619555753
 10
-4.447506656
 20
87.1530214708
 10
-4.4825930348
 20
87.1407960102
 10
-4.5151423458
 20
87.1254867227
 10
-4.5446020599
 20
87.1073534854
 10
-4.5704720944
 20
87.0867041126
 10
-4.5923133018
 20
87.0638891302
 10
-4.6097549246
 20
87.0392958258
 10
-4.6225008888
 20
87.0133416742
 10
-4.6303348298
 20
86.9864672507
 10
-4.6331237655
 20
86.9591287523
  0
LWPOLYLINE
  5
69D
100
AcDbEntity
  8
0
100
AcDbPolyline
 62
7
  6
CONTINUOUS
 90
9
 70
0
 10
8.2471283762
 20
81.6190297573
 10
8.2970459287
 20
81.6194717256
 10
8.3453957992
 20
81.6202709367
 10
8.3921632964
 20
81.6214012998
 10
8.4373631117
 20
81.6228889057
 10
8.4810393193
 20
81.6248120262
 10
8.5232066107
 20
81.627196752
 10
8.5638502944
 20
81.6300169925
 10
8.6029703704
 20
81.6332727476
  0
LWPOLYLINE
  5
69E
100
AcDbEntity
  8
0
100
AcDbPolyline
 62
7
  6
CONTINUOUS
 90
9
 70
0
 10
8.2471283762
 20
83.0569275945
 10
8.2970459287
 20
83.0573695628
 10
8.3453957992
 20
83.0581687739
 10
8.3921632964
 20
83.059299137
 10
8.4373631117
 20
83.0607867429
 10
8.4810393193
 20
83.0627098634
 10
8.5232066107
 20
83.0650945892
 10
8.5638502944
 20
83.0679148296
 10
8.6029703704
 20
83.0711705848
  0
LINE
  5
69F
100
AcDbEntity
  8
RACCORDO
100
AcDbLine
 62
250
  6
CONTINUOUS
 10
-8.9171572875
 20
87.9398257897
 11
-7.9866280426
 21
87.9479463954
  0
LINE
  5
6A0
100
AcDbEntity
  8
RACCORDO
100
AcDbLine
 62
250
  6
CONTINUOUS
 10
-9.0
 20
88.1403293824
 11
-7.9841533463
 21
88.1491945419
  0
LINE
  5
6A1
100
AcDbEntity
  8
RACCORDO
100
AcDbLine
 62
250
  6
CONTINUOUS
 10
9.0
 20
88.3288194936
 11
7.9841533463
 21
88.3199543341
  0
LINE
  5
6A2
100
AcDbEntity
  8
RACCORDO
100
AcDbLine
 62
250
  6
CONTINUOUS
 10
8.9171572875
 20
88.5293230863
 11
7.9866280426
 21
88.5212024806
  0
LWPOLYLINE
  5
6A3
100
AcDbEntity
  8
0
100
AcDbPolyline
 62
7
  6
CONTINUOUS
 90
10
 70
0
 10
7.7534577608
 20
82.7514486962
 10
7.7064115889
 20
82.7512238679
 10
7.6601891497
 20
82.7505173569
 10
7.6147904433
 20
82.7493291632
 10
7.5701231034
 20
82.7476554204
 10
7.5262794964
 20
82.7454999949
 10
7.4835367208
 20
82.742874486
 10
7.4419871432
 20
82.7397827599
 10
7.4015383971
 20
82.7362209503
 10
7.3621904825
 20
82.7321890573
  0
LWPOLYLINE
  5
6A4
100
AcDbEntity
  8
0
100
AcDbPolyline
 62
7
  6
CONTINUOUS
 90
10
 70
0
 10
7.7534577608
 20
84.1893462592
 10
7.7064115889
 20
84.1891214309
 10
7.6601891497
 20
84.1884149199
 10
7.6147904433
 20
84.1872267262
 10
7.5701231034
 20
84.1855529834
 10
7.5262794964
 20
84.1833975579
 10
7.4835367208
 20
84.1807720489
 10
7.4419871432
 20
84.1776803229
 10
7.4015383971
 20
84.1741185133
 10
7.3621904825
 20
84.1700866203
  0
LINE
  5
6A5
100
AcDbEntity
  8
0
100
AcDbLine
 62
7
  6
CONTINUOUS
 10
-7.066327
 20
81.484669438
 11
-7.928429
 21
81.484669438
  0
LINE
  5
6A6
100
AcDbEntity
  8
0
100
AcDbLine
 62
7
  6
CONTINUOUS
 10
-8.144751
 20
81.484669438
 11
-8.933686
 21
81.484669438
  0
LINE
  5
6A7
100
AcDbEntity
  8
0
100
AcDbLine
 62
7
  6
CONTINUOUS
 10
7.766182518
 20
81.6189450317
 11
8.2471283762
 21
81.6190297573
  0
LINE
  5
6A8
100
AcDbEntity
  8
0
100
AcDbLine
 62
7
  6
CONTINUOUS
 10
8.2750569586
 20
81.8798997034
 11
7.7789072752
 21
81.8798025542
  0
LINE
  5
6A9
100
AcDbEntity
  8
0
100
AcDbLine
 62
7
  6
CONTINUOUS
 10
-7.928429
 20
82.232248438
 11
-8.144751
 21
82.232248438
  0
LINE
  5
6AA
100
AcDbEntity
  8
0
100
AcDbLine
 62
7
  6
CONTINUOUS
 10
-8.933686
 20
82.273604438
 11
-9.150007
 21
82.273604438
  0
LINE
  5
6AB
100
AcDbEntity
  8
0
100
AcDbLine
 62
7
  6
CONTINUOUS
 10
-6.850006
 20
82.295872438
 11
-7.066327
 21
82.295872438
  0
LINE
  5
6AC
100
AcDbEntity
  8
0
100
AcDbLine
 62
7
  6
CONTINUOUS
 10
7.73630727
 20
82.4904497074
 11
8.240179792
 21
82.4905908996
  0
LINE
  5
6AD
100
AcDbEntity
  8
0
100
AcDbLine
 62
7
  6
CONTINUOUS
 10
8.1892807633
 20
82.7514486962
 11
7.7534577608
 21
82.7514486962
  0
LINE
  5
6AE
100
AcDbEntity
  8
0
100
AcDbLine
 62
7
  6
CONTINUOUS
 10
7.766182518
 20
83.0568428689
 11
8.2471283762
 21
83.0569275945
  0
LINE
  5
6AF
100
AcDbEntity
  8
0
100
AcDbLine
 62
7
  6
CONTINUOUS
 10
8.2750569586
 20
83.3177972664
 11
7.7789072752
 21
83.3177001172
  0
LINE
  5
6B0
100
AcDbEntity
  8
0
100
AcDbLine
 62
7
  6
CONTINUOUS
 10
7.73630727
 20
83.9283472704
 11
8.240179792
 21
83.9284884625
  0
LINE
  5
6B1
100
AcDbEntity
  8
0
100
AcDbLine
 62
7
  6
CONTINUOUS
 10
8.1892807633
 20
84.1893462592
 11
7.7534577608
 21
84.1893462592
  0
LINE
  5
6B2
100
AcDbEntity
  8
DRAFT
100
AcDbLine
 62
7
  6
CONTINUOUS
 10
-4.6825894025
 20
85.534574438
 11
-4.3340207461
 21
85.534574438
  0
LINE
  5
6B3
100
AcDbEntity
  8
DRAFT
100
AcDbLine
 62
7
  6
CONTINUOUS
 10
4.3340207461
 20
85.534574438
 11
4.6825894025
 21
85.534574438
  0
LINE
  5
6B4
100
AcDbEntity
  8
RACCORDO
100
AcDbLine
 62
7
  6
CONTINUOUS
 10
4.6825894025
 20
85.5550940006
 11
-4.6825894025
 21
85.5550940006
  0
LINE
  5
6B5
100
AcDbEntity
  8
RACCORDO
100
AcDbLine
 62
250
  6
CONTINUOUS
 10
4.6825894025
 20
85.7050882891
 11
-4.6825894025
 21
85.7050882891
  0
LINE
  5
6B6
100
AcDbEntity
  8
RACCORDO
100
AcDbLine
 62
250
  6
CONTINUOUS
 10
4.6307780443
 20
86.6037808128
 11
-4.6307780443
 21
86.6037808128
  0
LINE
  5
6B7
100
AcDbEntity
  8
RACCORDO
100
AcDbLine
 62
250
  6
CONTINUOUS
 10
4.3312899524
 20
86.9542354449
 11
-4.3312899524
 21
86.9542354449
  0
LINE
  5
6B8
100
AcDbEntity
  8
RACCORDO
100
AcDbLine
 62
7
  6
CONTINUOUS
 10
7.5997045347
 20
87.1467995648
 11
7.8002954653
 21
87.1467995648
  0
LINE
  5
6B9
100
AcDbEntity
  8
RACCORDO
100
AcDbLine
 62
7
  6
CONTINUOUS
 10
-7.5997045347
 20
87.1467995648
 11
-7.8002954653
 21
87.1467995648
  0
LINE
  5
6BA
100
AcDbEntity
  8
RACCORDO
100
AcDbLine
 62
250
  6
CONTINUOUS
 10
-4.3331351886
 20
87.1694015316
 11
4.3331351886
 21
87.1694015316
  0
LINE
  5
6BB
100
AcDbEntity
  8
RACCORDO
100
AcDbLine
 62
7
  6
CONTINUOUS
 10
-4.334364846
 20
87.318927861
 11
4.334364846
 21
87.318927861
  0
LINE
  5
6BC
100
AcDbEntity
  8
RACCORDO
100
AcDbLine
 62
7
  6
CONTINUOUS
 10
4.3500114231
 20
87.334574438
 11
-4.3500114231
 21
87.334574438
  0
LINE
  5
6BD
100
AcDbEntity
  8
RACCORDO
100
AcDbLine
 62
250
  6
CONTINUOUS
 10
7.6169857937
 20
87.4959686233
 11
7.7830142063
 21
87.4959686233
  0
LINE
  5
6BE
100
AcDbEntity
  8
RACCORDO
100
AcDbLine
 62
250
  6
CONTINUOUS
 10
-7.6169857937
 20
87.4959686233
 11
-7.7830142063
 21
87.4959686233
  0
LINE
  5
6BF
100
AcDbEntity
  8
DRAFT
100
AcDbLine
 62
7
  6
CONTINUOUS
 10
-9.9860359481
 20
87.934574438
 11
-8.0
 21
87.934574438
  0
LINE
  5
6C0
100
AcDbEntity
  8
DRAFT
100
AcDbLine
 62
7
  6
CONTINUOUS
 10
9.9860359481
 20
87.934574438
 11
8.0
 21
87.934574438
  0
LINE
  5
6C1
100
AcDbEntity
  8
RACCORDO
100
AcDbLine
 62
7
  6
CONTINUOUS
 10
-9.9965394515
 20
87.9398257897
 11
-8.9171572875
 21
87.9398257897
  0
LINE
  5
6C2
100
AcDbEntity
  8
RACCORDO
100
AcDbLine
 62
7
  6
CONTINUOUS
 10
8.9171572875
 20
87.9398257897
 11
9.9965394515
 21
87.9398257897
  0
LINE
  5
6C3
100
AcDbEntity
  8
0
100
AcDbLine
 62
7
  6
CONTINUOUS
 10
-3.712456
 20
88.096581438
 11
-3.289406
 21
88.096581438
  0
LINE
  5
6C4
100
AcDbEntity
  8
0
100
AcDbLine
 62
7
  6
CONTINUOUS
 10
-2.372012
 20
88.096581438
 11
-1.891956
 21
88.096581438
  0
LINE
  5
6C5
100
AcDbEntity
  8
0
100
AcDbLine
 62
7
  6
CONTINUOUS
 10
-1.633526
 20
88.096581438
 11
-1.174268
 21
88.096581438
  0
LINE
  5
6C6
100
AcDbEntity
  8
0
100
AcDbLine
 62
7
  6
CONTINUOUS
 10
-0.507508
 20
88.096581438
 11
-0.44018
 21
88.096581438
  0
LINE
  5
6C7
100
AcDbEntity
  8
0
100
AcDbLine
 62
7
  6
CONTINUOUS
 10
0.229236
 20
88.096581438
 11
0.698858
 21
88.096581438
  0
LINE
  5
6C8
100
AcDbEntity
  8
0
100
AcDbLine
 62
7
  6
CONTINUOUS
 10
0.77424
 20
88.096581438
 11
1.249088
 21
88.096581438
  0
LINE
  5
6C9
100
AcDbEntity
  8
0
100
AcDbLine
 62
7
  6
CONTINUOUS
 10
2.15967
 20
88.096581438
 11
2.66563
 21
88.096581438
  0
LINE
  5
6CA
100
AcDbEntity
  8
0
100
AcDbLine
 62
7
  6
CONTINUOUS
 10
2.8065975821
 20
88.0965816044
 11
3.2847223015
 21
88.0965816044
  0
LINE
  5
6CB
100
AcDbEntity
  8
0
100
AcDbLine
 62
7
  6
CONTINUOUS
 10
4.0198623394
 20
88.0965816044
 11
4.4816207207
 21
88.0965816044
  0
LINE
  5
6CC
100
AcDbEntity
  8
RACCORDO
100
AcDbLine
 62
250
  6
CONTINUOUS
 10
-10.0
 20
88.1398181744
 11
-9.0
 21
88.1398181744
  0
LINE
  5
6CD
100
AcDbEntity
  8
RACCORDO
100
AcDbLine
 62
250
  6
CONTINUOUS
 10
9.0
 20
88.1398181744
 11
10.0
 21
88.1398181744
  0
LINE
  5
6CE
100
AcDbEntity
  8
RACCORDO
100
AcDbLine
 62
250
  6
CONTINUOUS
 10
10.0
 20
88.3293307017
 11
9.0
 21
88.3293307017
  0
LINE
  5
6CF
100
AcDbEntity
  8
RACCORDO
100
AcDbLine
 62
250
  6
CONTINUOUS
 10
-9.0
 20
88.3293307017
 11
-10.0
 21
88.3293307017
  0
LINE
  5
6D0
100
AcDbEntity
  8
RACCORDO
100
AcDbLine
 62
7
  6
CONTINUOUS
 10
9.9965394515
 20
88.5293230863
 11
8.9171572875
 21
88.5293230863
  0
LINE
  5
6D1
100
AcDbEntity
  8
RACCORDO
100
AcDbLine
 62
7
  6
CONTINUOUS
 10
-8.9171572875
 20
88.5293230863
 11
-9.9965394515
 21
88.5293230863
  0
LINE
  5
6D2
100
AcDbEntity
  8
DRAFT
100
AcDbLine
 62
7
  6
CONTINUOUS
 10
-9.9860359481
 20
88.534574438
 11
-8.0
 21
88.534574438
  0
LINE
  5
6D3
100
AcDbEntity
  8
DRAFT
100
AcDbLine
 62
7
  6
CONTINUOUS
 10
9.9860359481
 20
88.534574438
 11
8.0
 21
88.534574438
  0
LINE
  5
6D4
100
AcDbEntity
  8
0
100
AcDbLine
 62
7
  6
CONTINUOUS
 10
1.381553
 20
88.555701438
 11
2.03531
 21
88.555701438
  0
LINE
  5
6D5
100
AcDbEntity
  8
0
100
AcDbLine
 62
7
  6
CONTINUOUS
 10
1.939371
 20
88.910966438
 11
1.479751
 21
88.910966438
  0
LINE
  5
6D6
100
AcDbEntity
  8
RACCORDO
100
AcDbLine
 62
250
  6
CONTINUOUS
 10
7.6169857937
 20
88.9731802528
 11
7.7830142063
 21
88.9731802528
  0
LINE
  5
6D7
100
AcDbEntity
  8
RACCORDO
100
AcDbLine
 62
250
  6
CONTINUOUS
 10
-7.6169857937
 20
88.9731802528
 11
-7.7830142063
 21
88.9731802528
  0
LINE
  5
6D8
100
AcDbEntity
  8
0
100
AcDbLine
 62
7
  6
CONTINUOUS
 10
3.2847223015
 20
88.9965922353
 11
3.5421170294
 21
88.9965922353
  0
LINE
  5
6D9
100
AcDbEntity
  8
RACCORDO
100
AcDbLine
 62
7
  6
CONTINUOUS
 10
7.5997045347
 20
89.3223493112
 11
7.8002954653
 21
89.3223493112
  0
LINE
  5
6DA
100
AcDbEntity
  8
RACCORDO
100
AcDbLine
 62
7
  6
CONTINUOUS
 10
-7.5997045347
 20
89.3223493112
 11
-7.8002954653
 21
89.3223493112
  0
LINE
  5
6DB
100
AcDbEntity
  8
0
100
AcDbLine
 62
7
  6
CONTINUOUS
 10
3.543151782
 20
89.373242209
 11
3.2688043561
 21
89.373242209
  0
LINE
  5
6DC
100
AcDbEntity
  8
0
100
AcDbLine
 62
7
  6
CONTINUOUS
 10
1.959997
 20
90.396371438
 11
1.4956
 21
90.396371438
  0
LINE
  5
6DD
100
AcDbEntity
  8
0
100
AcDbLine
 62
7
  6
CONTINUOUS
 10
0.483802
 20
90.396371438
 11
0.008833
 21
90.396371438
  0
LINE
  5
6DE
100
AcDbEntity
  8
0
100
AcDbLine
 62
7
  6
CONTINUOUS
 10
-0.946209
 20
90.396371438
 11
-1.425869
 21
90.396371438
  0
LINE
  5
6DF
100
AcDbEntity
  8
0
100
AcDbLine
 62
7
  6
CONTINUOUS
 10
-2.550162
 20
90.396371438
 11
-3.02989
 21
90.396371438
  0
LINE
  5
6E0
100
AcDbEntity
  8
0
100
AcDbLine
 62
7
  6
CONTINUOUS
 10
-3.920045
 20
90.396371438
 11
-4.441534
 21
90.396371438
  0
LINE
  5
6E1
100
AcDbEntity
  8
0
100
AcDbLine
 62
7
  6
CONTINUOUS
 10
-1.891956
 20
90.396509438
 11
-2.372012
 21
90.396509438
  0
LINE
  5
6E2
100
AcDbEntity
  8
DRAFT
100
AcDbLine
 62
7
  6
CONTINUOUS
 10
9.9860359481
 20
90.8660796909
 11
-9.9860359481
 21
90.8660796909
  0
LINE
  5
6E3
100
AcDbEntity
  8
DRAFT
100
AcDbLine
 62
7
  6
CONTINUOUS
 10
10.0
 20
90.8870284282
 11
-10.0
 21
90.8870284282
  0
LINE
  5
6E4
100
AcDbEntity
  8
RACCORDO
100
AcDbLine
 62
7
  6
CONTINUOUS
 10
10.5530366787
 20
92.0874397792
 11
-10.5530366787
 21
92.0874397792
  0
LWPOLYLINE
  5
6E5
100
AcDbEntity
  8
0
100
AcDbPolyline
 62
7
  6
CONTINUOUS
 90
10
 70
0
 10
7.7789072752
 20
81.8798025542
 10
7.73630727
 20
81.8799437464
 10
7.695178382
 20
81.8803201643
 10
7.6555206114
 20
81.8809318082
 10
7.6173489166
 20
81.8817859159
 10
7.5806483391
 20
81.8828752494
 10
7.5453740032
 20
81.8841780946
 10
7.5115109505
 20
81.8856872135
 10
7.4790741394
 20
81.887409844
 10
7.4480635699
 20
81.8893459862
  0
LWPOLYLINE
  5
6E6
100
AcDbEntity
  8
0
100
AcDbPolyline
 62
7
  6
CONTINUOUS
 90
10
 70
0
 10
7.7789072752
 20
83.3177001172
 10
7.73630727
 20
83.3178413093
 10
7.695178382
 20
83.3182177273
 10
7.6555206114
 20
83.3188293711
 10
7.6173489166
 20
83.3196834788
 10
7.5806483391
 20
83.3207728124
 10
7.5453740032
 20
83.3220756576
 10
7.5115109505
 20
83.3235847765
 10
7.4790741394
 20
83.325307407
 10
7.4480635699
 20
83.3272435492
  0
LWPOLYLINE
  5
6E7
100
AcDbEntity
  8
0
100
AcDbPolyline
 62
7
  6
CONTINUOUS
 90
10
 70
0
 10
8.240179792
 20
82.4905908996
 10
8.2816738268
 20
82.4904484337
 10
8.3217084864
 20
82.4900734728
 10
8.3602837708
 20
82.4894660166
 10
8.3973849192
 20
82.4886180678
 10
8.4330266923
 20
82.4875376237
 10
8.4672533734
 20
82.4862486773
 10
8.5000797232
 20
82.484759226
 10
8.531490981
 20
82.4830612723
 10
8.5614871466
 20
82.4811548163
  0
LWPOLYLINE
  5
6E8
100
AcDbEntity
  8
0
100
AcDbPolyline
 62
7
  6
CONTINUOUS
 90
10
 70
0
 10
8.240179792
 20
83.9284884625
 10
8.2816738268
 20
83.9283459967
 10
8.3217084864
 20
83.9279710358
 10
8.3602837708
 20
83.9273635796
 10
8.3973849192
 20
83.9265156307
 10
8.4330266923
 20
83.9254351867
 10
8.4672533734
 20
83.9241462402
 10
8.5000797232
 20
83.922656789
 10
8.531490981
 20
83.9209588353
 10
8.5614871466
 20
83.9190523793
  0
LINE
  5
6E9
100
AcDbEntity
  8
RACCORDO
100
AcDbLine
 62
250
  6
CONTINUOUS
 10
7.9866280426
 20
87.9479463954
 11
8.9171572875
 21
87.9398257897
  0
LINE
  5
6EA
100
AcDbEntity
  8
RACCORDO
100
AcDbLine
 62
250
  6
CONTINUOUS
 10
7.9841533463
 20
88.1491945419
 11
9.0
 21
88.1403293824
  0
LINE
  5
6EB
100
AcDbEntity
  8
RACCORDO
100
AcDbLine
 62
250
  6
CONTINUOUS
 10
-7.9841533463
 20
88.3199543341
 11
-9.0
 21
88.3288194936
  0
LINE
  5
6EC
100
AcDbEntity
  8
RACCORDO
100
AcDbLine
 62
250
  6
CONTINUOUS
 10
-7.9866280426
 20
88.5212024806
 11
-8.9171572875
 21
88.5293230863
  0
LWPOLYLINE
  5
6ED
100
AcDbEntity
  8
RACCORDO
100
AcDbPolyline
 62
250
  6
CONTINUOUS
 90
13
 70
0
 10
4.3312899524
 20
86.9542354449
 10
4.3702928003
 20
86.9522805796
 10
4.4086335694
 20
86.9467894887
 10
4.4456614198
 20
86.9378553841
 10
4.4807477986
 20
86.9256299236
 10
4.5132971096
 20
86.910320636
 10
4.5427568237
 20
86.8921873987
 10
4.5686268582
 20
86.8715380259
 10
4.5904680656
 20
86.8487230436
 10
4.6079096884
 20
86.8241297392
 10
4.6206556526
 20
86.7981755875
 10
4.6284895936
 20
86.771301164
 10
4.6312785293
 20
86.7439626656
  0
LWPOLYLINE
  5
6EE
100
AcDbEntity
  8
RACCORDO
100
AcDbPolyline
 62
250
  6
CONTINUOUS
 90
13
 70
0
 10
4.3331351886
 20
87.1694015316
 10
4.3721388526
 20
87.1674465723
 10
4.4104802707
 20
87.1619552668
 10
4.4475085788
 20
87.1530208684
 10
4.4825952267
 20
87.1407950724
 10
4.5151446084
 20
87.1254854522
 10
4.5446041821
 20
87.1073519459
 10
4.5704739024
 20
87.086702415
 10
4.5923146853
 20
87.0638874145
 10
4.6097558336
 20
87.0392942649
 10
4.6225013519
 20
87.0133404565
 10
4.6303349622
 20
86.9864665589
 10
4.6331237655
 20
86.9591287523
  0
LWPOLYLINE
  5
6EF
100
AcDbEntity
  8
0
100
AcDbPolyline
 62
7
  6
CONTINUOUS
 90
13
 70
0
 10
3.5421170294
 20
88.9965922353
 10
3.5713983047
 20
88.9951234542
 10
3.5994692945
 20
88.9908813384
 10
3.6263299988
 20
88.9838658879
 10
3.6519708494
 20
88.9741294265
 10
3.6764014145
 20
88.9616196304
 10
3.6996503989
 20
88.9461795282
 10
3.7218919267
 20
88.9276729212
 10
3.7429518737
 20
88.906236008
 10
3.7623365727
 20
88.8821204138
 10
3.7798814677
 20
88.8554100135
 10
3.7957511146
 20
88.8260209322
 10
3.8099455134
 20
88.7939531698
  0
LWPOLYLINE
  5
6F0
100
AcDbEntity
  8
RACCORDO
100
AcDbPolyline
 62
250
  6
CONTINUOUS
 90
13
 70
0
 10
4.334364846
 20
87.318927861
 10
4.3735193255
 20
87.3163586838
 10
4.4120039258
 20
87.308701071
 10
4.4491602284
 20
87.2960860337
 10
4.4843525404
 20
87.2787293978
 10
4.5169787698
 20
87.2569281114
 10
4.5464807269
 20
87.2310551644
 10
4.5723536738
 20
87.2015532073
 10
4.5941549601
 20
87.168926978
 10
4.6115115959
 20
87.133734666
 10
4.6241266331
 20
87.0965783635
 10
4.6317842459
 20
87.0580937633
 10
4.634353423
 20
87.018939284
  0
LWPOLYLINE
  5
6F1
100
AcDbEntity
  8
0
100
AcDbPolyline
 62
7
  6
CONTINUOUS
 90
10
 70
0
 10
7.4480635699
 20
81.8893459862
 10
7.4150179676
 20
81.8918841205
 10
7.3836368556
 20
81.8949048098
 10
7.3539202339
 20
81.8984080541
 10
7.325925568
 20
81.9024050937
 10
7.2995953924
 20
81.9068846884
 10
7.2747573106
 20
81.911813117
 10
7.2513538571
 20
81.9171791391
 10
7.2294424974
 20
81.9229939952
 10
7.2090232314
 20
81.9292576851
  0
LWPOLYLINE
  5
6F2
100
AcDbEntity
  8
0
100
AcDbPolyline
 62
7
  6
CONTINUOUS
 90
10
 70
0
 10
7.4480635699
 20
83.3272435492
 10
7.4150179676
 20
83.3297816835
 10
7.3836368556
 20
83.3328023728
 10
7.3539202339
 20
83.336305617
 10
7.325925568
 20
83.3403026567
 10
7.2995953924
 20
83.3447822514
 10
7.2747573106
 20
83.3497106799
 10
7.2513538571
 20
83.3550767021
 10
7.2294424974
 20
83.3608915581
 10
7.2090232314
 20
83.3671552481
  0
LWPOLYLINE
  5
6F3
100
AcDbEntity
  8
0
100
AcDbPolyline
 62
7
  6
CONTINUOUS
 90
10
 70
0
 10
8.5614871284
 20
81.0432569804
 10
8.5928947742
 20
81.0406348365
 10
8.622875401
 20
81.0374571956
 10
8.6514290087
 20
81.0337240579
 10
8.6784214871
 20
81.0294094581
 10
8.7039869466
 20
81.0245393614
 10
8.7285277174
 20
81.0191916633
 10
8.7521779099
 20
81.0133923288
 10
8.7748034137
 20
81.007115393
 10
8.796404229
 20
81.0003608556
  0
LWPOLYLINE
  5
6F4
100
AcDbEntity
  8
0
100
AcDbPolyline
 62
7
  6
CONTINUOUS
 90
10
 70
0
 10
8.5614871466
 20
82.4811548163
 10
8.5928949382
 20
82.4785326551
 10
8.6228756726
 20
82.4753549963
 10
8.6514293497
 20
82.4716218398
 10
8.6784218561
 20
82.4673072194
 10
8.7039873053
 20
82.4624371013
 10
8.7285280372
 20
82.4570893848
 10
8.7521781653
 20
82.4512900362
 10
8.7748035761
 20
82.4450130891
 10
8.7964042696
 20
82.4382585435
  0
LWPOLYLINE
  5
6F5
100
AcDbEntity
  8
0
100
AcDbPolyline
 62
7
  6
CONTINUOUS
 90
10
 70
0
 10
8.5614871466
 20
83.9190523793
 10
8.5928949382
 20
83.9164302181
 10
8.6228756726
 20
83.9132525593
 10
8.6514293497
 20
83.9095194028
 10
8.6784218561
 20
83.9052047824
 10
8.7039873053
 20
83.9003346643
 10
8.7285280372
 20
83.8949869478
 10
8.7521781653
 20
83.8891875992
 10
8.7748035761
 20
83.8829106521
 10
8.7964042696
 20
83.8761561065
  0
LWPOLYLINE
  5
6F6
100
AcDbEntity
  8
0
100
AcDbPolyline
 62
7
  6
CONTINUOUS
 90
10
 70
0
 10
8.5963380635
 20
81.2960666788
 10
8.5572278967
 20
81.2994962234
 10
8.5166000059
 20
81.3025733676
 10
8.474454391
 20
81.3052981115
 10
8.4308068938
 20
81.3076962071
 10
8.3856416725
 20
81.3097419024
 10
8.3389112014
 20
81.3113579408
 10
8.2905996385
 20
81.3125185704
 10
8.2407228258
 20
81.3132495431
 10
8.1892807633
 20
81.3135508591
  0
LWPOLYLINE
  5
6F7
100
AcDbEntity
  8
0
100
AcDbPolyline
 62
7
  6
CONTINUOUS
 90
10
 70
0
 10
8.5963380635
 20
82.7339642418
 10
8.5572279145
 20
82.7373938005
 10
8.5166000356
 20
82.7404709665
 10
8.4744544269
 20
82.7431957396
 10
8.4308069285
 20
82.7455938768
 10
8.3856417003
 20
82.7476396212
 10
8.3389112217
 20
82.7492557024
 10
8.2905996526
 20
82.7504163635
 10
8.2407228331
 20
82.7511473615
 10
8.1892807633
 20
82.7514486962
  0
LWPOLYLINE
  5
6F8
100
AcDbEntity
  8
0
100
AcDbPolyline
 62
7
  6
CONTINUOUS
 90
10
 70
0
 10
8.5963380455
 20
84.1718620803
 10
8.5572279209
 20
84.1752915616
 10
8.5166000594
 20
84.1783686634
 10
8.4744544611
 20
84.1810933857
 10
8.4308069642
 20
84.1834914875
 10
8.3856417304
 20
84.1855372098
 10
8.3389112449
 20
84.1871532759
 10
8.2905996694
 20
84.1883139266
 10
8.2407228422
 20
84.1890449211
 10
8.1892807633
 20
84.1893462592
  0
LWPOLYLINE
  5
6F9
100
AcDbEntity
  8
0
100
AcDbPolyline
 62
7
  6
CONTINUOUS
 90
10
 70
0
 10
7.3748962343
 20
81.6380321675
 10
7.4146471505
 20
81.6340202787
 10
7.4553717077
 20
81.6304805155
 10
7.4970699056
 20
81.6274128778
 10
7.539798153
 20
81.6248165012
 10
7.5835000413
 20
81.6226922502
 10
7.6280063445
 20
81.6210427184
 10
7.6732606541
 20
81.6198687703
 10
7.7193193786
 20
81.6191695414
 10
7.766182518
 20
81.6189450317
  0
LWPOLYLINE
  5
6FA
100
AcDbEntity
  8
0
100
AcDbPolyline
 62
7
  6
CONTINUOUS
 90
10
 70
0
 10
7.3748962343
 20
83.0759297305
 10
7.4146465968
 20
83.0719178982
 10
7.4553707821
 20
83.0683781837
 10
7.4970687904
 20
83.065310587
 10
7.5397970883
 20
83.0627142419
 10
7.583499209
 20
83.0605900145
 10
7.6280057524
 20
83.0589405036
 10
7.6732602516
 20
83.0577665755
 10
7.7193191735
 20
83.057067364
 10
7.766182518
 20
83.0568428689
  0
LWPOLYLINE
  5
6FB
100
AcDbEntity
  8
RACCORDO
100
AcDbPolyline
 62
7
  6
CONTINUOUS
 90
13
 70
0
 10
-8.9171572875
 20
87.9398257897
 10
-8.9286221647
 20
87.941895037
 10
-8.9394230253
 20
87.947507296
 10
-8.9495598694
 20
87.9564401499
 10
-8.9591365094
 20
87.968372715
 10
-8.9680491329
 20
87.9830205295
 10
-8.9759863027
 20
88.0002447279
 10
-8.9829368702
 20
88.0198230562
 10
-8.988911984
 20
88.0413681656
 10
-8.993633653
 20
88.0645329844
 10
-8.9970092135
 20
88.0889376781
 10
-8.9991313291
 20
88.1141720522
 10
-9.0
 20
88.1398181744
  0
LWPOLYLINE
  5
6FC
100
AcDbEntity
  8
RACCORDO
100
AcDbPolyline
 62
7
  6
CONTINUOUS
 90
13
 70
0
 10
8.9171572875
 20
88.5293230863
 10
8.9286221647
 20
88.5272538391
 10
8.9394230253
 20
88.52164158
 10
8.9495598694
 20
88.5127087261
 10
8.9591365094
 20
88.5007761611
 10
8.9680491329
 20
88.4861283465
 10
8.9759863027
 20
88.4689041481
 10
8.9829368702
 20
88.4493258199
 10
8.988911984
 20
88.4277807104
 10
8.993633653
 20
88.4046158916
 10
8.9970092135
 20
88.3802111979
 10
8.9991313291
 20
88.3549768238
 10
9.0
 20
88.3293307017
  0
LWPOLYLINE
  5
6FD
100
AcDbEntity
  8
0
100
AcDbPolyline
 62
7
  6
CONTINUOUS
 90
13
 70
0
 10
3.6448852159
 20
90.0181173219
 10
3.6846205802
 20
90.0106143177
 10
3.7215067938
 20
89.9997190975
 10
3.7555438565
 20
89.9854316612
 10
3.7868965227
 20
89.9675808438
 10
3.8154000381
 20
89.9463378103
 10
3.8405601401
 20
89.9222160564
 10
3.8623698945
 20
89.8949212236
 10
3.8808362355
 20
89.8647476704
 10
3.8954857026
 20
89.833091968
 10
3.9061604757
 20
89.8004196402
 10
3.9130183749
 20
89.7662651632
 10
3.9160594002
 20
89.7306285371
  0
LWPOLYLINE
  5
6FE
100
AcDbEntity
  8
RACCORDO
100
AcDbPolyline
 62
7
  6
CONTINUOUS
 90
10
 70
0
 10
4.3307894673
 20
86.280961498
 10
4.3677795536
 20
86.2738987534
 10
4.4038228261
 20
86.2665808527
 10
4.4383159228
 20
86.2585793774
 10
4.4705514359
 20
86.2495681173
 10
4.5002356073
 20
86.239162403
 10
4.527380719
 20
86.2268426976
 10
4.5516662628
 20
86.2122053378
 10
4.5725763773
 20
86.1950601212
 10
4.5898369388
 20
86.1752124055
  0
LWPOLYLINE
  5
6FF
100
AcDbEntity
  8
0
100
AcDbPolyline
 62
7
  6
CONTINUOUS
 90
13
 70
0
 10
3.9913031656
 20
90.3452888719
 10
3.9132496306
 20
90.3690175235
 10
3.8311335991
 20
90.3884480603
 10
3.7449550713
 20
90.4035804823
 10
3.6544859667
 20
90.4141764272
 10
3.5599543658
 20
90.4204742573
 10
3.4620445091
 20
90.4231890596
 10
3.3609256952
 20
90.4224170624
 10
3.2564286255
 20
90.4180620375
 10
3.1487296448
 20
90.410550387
 10
3.0378875349
 20
90.400024245
 10
2.923843514
 20
90.3863414775
 10
2.8065975821
 20
90.3695020845
  0
LWPOLYLINE
  5
700
100
AcDbEntity
  8
0
100
AcDbPolyline
 62
7
  6
CONTINUOUS
 90
10
 70
0
 10
8.7964042696
 20
83.8761561065
 10
8.8190054069
 20
83.8678732431
 10
8.8398435394
 20
83.8590725492
 10
8.858918667
 20
83.849754025
 10
8.8761228869
 20
83.8398527321
 10
8.8915641019
 20
83.8294336087
 10
8.9055660211
 20
83.8186914699
 10
8.9182365472
 20
83.8076912538
 10
8.9294677775
 20
83.7963680222
 10
8.9392597119
 20
83.784721775
  0
ARC
  5
701
100
AcDbEntity
  8
SMUSSO
100
AcDbCircle
 62
7
  6
CONTINUOUS
 10
-0.0000660521
 20
51.6345268492
 40
6.0999807888
100
AcDbArc
 50
200.8635016012
 51
339.1369265281
  0
ARC
  5
702
100
AcDbEntity
  8
DRAFT
100
AcDbCircle
 62
7
  6
CONTINUOUS
 10
-0.0000660521
 20
51.6345268492
 40
5.7107046991
100
AcDbArc
 50
201.5717519085
 51
338.4287361699
  0
ARC
  5
703
100
AcDbEntity
  8
DRAFT
100
AcDbCircle
 62
7
  6
CONTINUOUS
 10
-9.6
 20
50.984574438
 40
0.3
100
AcDbArc
 50
199.4712206345
 51
340.5287793655
  0
ARC
  5
704
100
AcDbEntity
  8
DRAFT
100
AcDbCircle
 62
7
  6
CONTINUOUS
 10
-9.6
 20
53.984574438
 40
0.3
100
AcDbArc
 50
19.4712206345
 51
160.5287793655
  0
ARC
  5
705
100
AcDbEntity
  8
DRAFT
100
AcDbCircle
 62
7
  6
CONTINUOUS
 10
-9.6
 20
50.984574438
 40
0.044932126
100
AcDbArc
 50
173.6284082058
 51
6.3715917942
  0
ARC
  5
706
100
AcDbEntity
  8
DRAFT
100
AcDbCircle
 62
7
  6
CONTINUOUS
 10
-9.6
 20
53.984574438
 40
0.044932126
100
AcDbArc
 50
353.6284082058
 51
186.3715917942
  0
ARC
  5
707
100
AcDbEntity
  8
DRAFT
100
AcDbCircle
 62
7
  6
CONTINUOUS
 10
-4.6825894025
 20
85.734574438
 40
0.2
100
AcDbArc
 50
144.6232725022
 51
270.0
  0
ARC
  5
708
100
AcDbEntity
  8
RACCORDO
100
AcDbCircle
 62
7
  6
CONTINUOUS
 10
-4.6825894025
 20
85.734574438
 40
0.1794804374
100
AcDbArc
 50
144.6232725022
 51
270.0
  0
ARC
  5
709
100
AcDbEntity
  8
RACCORDO
100
AcDbCircle
 62
250
  6
CONTINUOUS
 10
-4.6825894025
 20
85.734574438
 40
0.0294861489
100
AcDbArc
 50
144.6232725022
 51
270.0
  0
ARC
  5
70A
100
AcDbEntity
  8
RACCORDO
100
AcDbCircle
 62
7
  6
CONTINUOUS
 10
-0.0
 20
60.934574438
 40
11.8
100
AcDbArc
 50
61.8994758925
 51
71.4702745764
  0
ARC
  5
70B
100
AcDbEntity
  8
RACCORDO
100
AcDbCircle
 62
7
  6
CONTINUOUS
 10
-0.0
 20
60.934574438
 40
11.8
100
AcDbArc
 50
108.5297254236
 51
118.1005241074
  0
ARC
  5
70C
100
AcDbEntity
  8
0
100
AcDbCircle
 62
7
  6
CONTINUOUS
 10
-0.0
 20
60.934574438
 40
11.8
100
AcDbArc
 50
77.7683663409
 51
102.2316336591
  0
ARC
  5
70D
100
AcDbEntity
  8
DRAFT
100
AcDbCircle
 62
7
  6
CONTINUOUS
 10
-0.0
 20
60.934574438
 40
11.6425204057
100
AcDbArc
 50
81.2900207263
 51
98.7099792737
  0
ARC
  5
70E
100
AcDbEntity
  8
DRAFT
100
AcDbCircle
 62
7
  6
CONTINUOUS
 10
-0.0
 20
60.934574438
 40
11.0226898563
100
AcDbArc
 50
80.7960987452
 51
99.2039012548
  0
ARC
  5
70F
100
AcDbEntity
  8
RACCORDO
100
AcDbCircle
 62
7
  6
CONTINUOUS
 10
-0.0
 20
60.934574438
 40
11.0069814942
100
AcDbArc
 50
58.8116453278
 51
70.080907571
  0
ARC
  5
710
100
AcDbEntity
  8
RACCORDO
100
AcDbCircle
 62
7
  6
CONTINUOUS
 10
-0.0
 20
60.934574438
 40
11.0069814942
100
AcDbArc
 50
109.919092429
 51
121.1883546722
  0
ARC
  5
711
100
AcDbEntity
  8
RACCORDO
100
AcDbCircle
 62
7
  6
CONTINUOUS
 10
0.0
 20
51.634574438
 40
6.4858595293
100
AcDbArc
 50
202.0149971037
 51
337.9850028963
  0
ARC
  5
712
100
AcDbEntity
  8
0
100
AcDbCircle
 62
7
  6
CONTINUOUS
 10
-0.0
 20
65.734574438
 40
3.5926659129
100
AcDbArc
 50
358.9746735826
 51
181.0253264174
  0
ARC
  5
713
100
AcDbEntity
  8
RACCORDO
100
AcDbCircle
 62
250
  6
CONTINUOUS
 10
-0.0
 20
65.734574438
 40
3.3725378763
100
AcDbArc
 50
358.9077403639
 51
181.0922596361
  0
ARC
  5
714
100
AcDbEntity
  8
RACCORDO
100
AcDbCircle
 62
250
  6
CONTINUOUS
 10
-0.0
 20
65.734574438
 40
3.2799775428
100
AcDbArc
 50
358.8769131136
 51
181.1230868864
  0
ARC
  5
715
100
AcDbEntity
  8
0
100
AcDbCircle
 62
7
  6
CONTINUOUS
 10
-0.0
 20
65.734574438
 40
3.262169562
100
AcDbArc
 50
358.870781612
 51
181.129218388
  0
ARC
  5
716
100
AcDbEntity
  8
RACCORDO
100
AcDbCircle
 62
250
  6
CONTINUOUS
 10
-0.0
 20
65.734574438
 40
3.0510791732
100
AcDbArc
 50
358.792644738
 51
181.207355262
  0
ARC
  5
717
100
AcDbEntity
  8
RACCORDO
100
AcDbCircle
 62
250
  6
CONTINUOUS
 10
-0.0
 20
65.734574438
 40
2.958173713
100
AcDbArc
 50
358.7547202266
 51
181.2452797734
  0
ARC
  5
718
100
AcDbEntity
  8
0
100
AcDbCircle
 62
7
  6
CONTINUOUS
 10
-0.0
 20
65.734574438
 40
2.9405685532
100
AcDbArc
 50
358.7472637524
 51
181.2527362476
  0
ARC
  5
719
100
AcDbEntity
  8
RACCORDO
100
AcDbCircle
 62
250
  6
CONTINUOUS
 10
-0.0
 20
65.734574438
 40
2.7386719841
100
AcDbArc
 50
358.6548946804
 51
181.3451254051
  0
ARC
  5
71A
100
AcDbEntity
  8
RACCORDO
100
AcDbCircle
 62
250
  6
CONTINUOUS
 10
-0.0
 20
65.734574438
 40
2.645416634
100
AcDbArc
 50
358.6074682941
 51
181.3925317059
  0
ARC
  5
71B
100
AcDbEntity
  8
0
100
AcDbCircle
 62
7
  6
CONTINUOUS
 10
-0.0
 20
65.734574438
 40
2.6280305959
100
AcDbArc
 50
358.5982542238
 51
181.4017457762
  0
ARC
  5
71C
100
AcDbEntity
  8
RACCORDO
100
AcDbCircle
 62
250
  6
CONTINUOUS
 10
-0.0
 20
65.734574438
 40
2.4353538854
100
AcDbArc
 50
358.4873279231
 51
181.5126720769
  0
ARC
  5
71D
100
AcDbEntity
  8
RACCORDO
100
AcDbCircle
 62
250
  6
CONTINUOUS
 10
-0.0
 20
65.734574438
 40
2.3417493503
100
AcDbArc
 50
358.4268484045
 51
181.5731515955
  0
ARC
  5
71E
100
AcDbEntity
  8
0
100
AcDbCircle
 62
7
  6
CONTINUOUS
 10
-0.0
 20
65.734574438
 40
2.3245995809
100
AcDbArc
 50
358.4152397901
 51
181.5847602099
  0
ARC
  5
71F
100
AcDbEntity
  8
RACCORDO
100
AcDbCircle
 62
250
  6
CONTINUOUS
 10
-0.0
 20
65.734574438
 40
2.1410147463
100
AcDbArc
 50
358.2793123545
 51
181.7206876454
  0
ARC
  5
720
100
AcDbEntity
  8
RACCORDO
100
AcDbCircle
 62
250
  6
CONTINUOUS
 10
-0.0
 20
65.734574438
 40
2.0470681245
100
AcDbArc
 50
358.2003189859
 51
181.7996810141
  0
ARC
  5
721
100
AcDbEntity
  8
0
100
AcDbCircle
 62
7
  6
CONTINUOUS
 10
-0.0
 20
65.734574438
 40
2.0301686625
100
AcDbArc
 50
358.1853334524
 51
181.8146665476
  0
ARC
  5
722
100
AcDbEntity
  8
RACCORDO
100
AcDbCircle
 62
250
  6
CONTINUOUS
 10
-0.0
 20
65.734574438
 40
1.8553677877
100
AcDbArc
 50
358.0143013274
 51
181.9856986726
  0
ARC
  5
723
100
AcDbEntity
  8
RACCORDO
100
AcDbCircle
 62
250
  6
CONTINUOUS
 10
-0.0
 20
65.734574438
 40
1.7610932951
100
AcDbArc
 50
357.9079572434
 51
182.0920427566
  0
ARC
  5
724
100
AcDbEntity
  8
0
100
AcDbCircle
 62
7
  6
CONTINUOUS
 10
-0.0
 20
65.734574438
 40
1.7444536715
100
AcDbArc
 50
357.8879935079
 51
182.1120064921
  0
ARC
  5
725
100
AcDbEntity
  8
RACCORDO
100
AcDbCircle
 62
250
  6
CONTINUOUS
 10
-0.0
 20
65.734574438
 40
1.5779349634
100
AcDbArc
 50
357.6649964839
 51
182.335003516
  0
ARC
  5
726
100
AcDbEntity
  8
RACCORDO
100
AcDbCircle
 62
250
  6
CONTINUOUS
 10
-0.0
 20
65.734574438
 40
1.4833543131
100
AcDbArc
 50
357.5160230004
 51
182.4839769996
  0
ARC
  5
727
100
AcDbEntity
  8
IMPORT_IGES
100
AcDbCircle
 62
7
  6
CONTINUOUS
 10
-0.0
 20
65.734574438
 40
1.466978
100
AcDbArc
 50
357.4882759441
 51
182.5117240559
  0
ARC
  5
728
100
AcDbEntity
  8
DRAFT
100
AcDbCircle
 62
7
  6
CONTINUOUS
 10
9.6
 20
50.984574438
 40
0.3
100
AcDbArc
 50
199.4712206345
 51
340.5287793655
  0
ARC
  5
729
100
AcDbEntity
  8
DRAFT
100
AcDbCircle
 62
7
  6
CONTINUOUS
 10
9.6
 20
53.984574438
 40
0.3
100
AcDbArc
 50
19.4712206345
 51
160.5287793655
  0
ARC
  5
72A
100
AcDbEntity
  8
DRAFT
100
AcDbCircle
 62
7
  6
CONTINUOUS
 10
9.6
 20
50.984574438
 40
0.044932126
100
AcDbArc
 50
173.6284082058
 51
6.3715917942
  0
ARC
  5
72B
100
AcDbEntity
  8
DRAFT
100
AcDbCircle
 62
7
  6
CONTINUOUS
 10
9.6
 20
53.984574438
 40
0.044932126
100
AcDbArc
 50
353.6284082058
 51
186.3715917942
  0
ARC
  5
72C
100
AcDbEntity
  8
DRAFT
100
AcDbCircle
 62
7
  6
CONTINUOUS
 10
4.6825894025
 20
85.734574438
 40
0.2
100
AcDbArc
 50
270.0
 51
35.3767274978
  0
ARC
  5
72D
100
AcDbEntity
  8
RACCORDO
100
AcDbCircle
 62
7
  6
CONTINUOUS
 10
4.6825894025
 20
85.734574438
 40
0.1794804374
100
AcDbArc
 50
270.0
 51
35.3767274978
  0
ARC
  5
72E
100
AcDbEntity
  8
RACCORDO
100
AcDbCircle
 62
250
  6
CONTINUOUS
 10
4.6825894025
 20
85.734574438
 40
0.0294861489
100
AcDbArc
 50
270.0
 51
35.3767274978
  0
ELLIPSE
  5
72F
100
AcDbEntity
  8
RACCORDO
100
AcDbEllipse
 62
7
  6
CONTINUOUS
 10
5.2
 20
52.614942711
 30
0.0
 11
-0.0
 21
0.5
 31
0.0
 40
1.0
 41
-1.5707963268
 42
-0.22333904
  0
ELLIPSE
  5
730
100
AcDbEntity
  8
RACCORDO
100
AcDbEllipse
 62
7
  6
CONTINUOUS
 10
0.0
 20
51.6286142418
 30
0.0
 11
-0.0
 21
6.4980334207
 31
0.0
 40
0.9999995793
 41
-4.3295150605
 42
-1.9536702467
  0
ELLIPSE
  5
731
100
AcDbEntity
  8
DRAFT
100
AcDbEllipse
 62
7
  6
CONTINUOUS
 10
0.0
 20
51.6398044666
 30
0.0
 11
-0.0
 21
5.7019768433
 31
0.0
 40
0.9999995793
 41
3.4073117462
 42
4.3346773659
  0
ELLIPSE
  5
732
100
AcDbEntity
  8
DRAFT
100
AcDbEllipse
 62
7
  6
CONTINUOUS
 10
0.0
 20
51.6398044666
 30
0.0
 11
-0.0
 21
5.7019768433
 31
0.0
 40
0.9999995793
 41
1.9485079412
 42
2.875873561
  0
ELLIPSE
  5
733
100
AcDbEntity
  8
RACCORDO
100
AcDbEllipse
 62
7
  6
CONTINUOUS
 10
-5.2
 20
52.614942711
 30
0.0
 11
-0.0
 21
0.5
 31
0.0
 40
1.0
 41
0.22333904
 42
1.5707963268
  0
ELLIPSE
  5
734
100
AcDbEntity
  8
RACCORDO
100
AcDbEllipse
 62
7
  6
CONTINUOUS
 10
9.2099348741
 20
52.3345676802
 30
0.0
 11
-0.0
 21
0.15
 31
0.0
 40
0.1157209201
 41
-3.089232776
 42
-1.5707963268
  0
ELLIPSE
  5
735
100
AcDbEntity
  8
RACCORDO
100
AcDbEllipse
 62
7
  6
CONTINUOUS
 10
9.2099348741
 20
52.6345811958
 30
0.0
 11
0.0
 21
0.15
 31
0.0
 40
0.1157209201
 41
-1.5707963268
 42
-0.0523598776
  0
ELLIPSE
  5
736
100
AcDbEntity
  8
RACCORDO
100
AcDbEllipse
 62
7
  6
CONTINUOUS
 10
-9.2099348741
 20
52.6345811958
 30
0.0
 11
0.0
 21
0.15
 31
0.0
 40
0.1157209201
 41
0.0523598776
 42
1.5707963268
  0
ELLIPSE
  5
737
100
AcDbEntity
  8
RACCORDO
100
AcDbEllipse
 62
7
  6
CONTINUOUS
 10
-9.2099348741
 20
52.3345676802
 30
0.0
 11
-0.0
 21
0.15
 31
0.0
 40
0.1157209201
 41
-4.7123889804
 42
-3.1939525311
  0
ELLIPSE
  5
738
100
AcDbEntity
  8
RACCORDO
100
AcDbEllipse
 62
7
  6
CONTINUOUS
 10
5.3097770368
 20
52.614942711
 30
0.0
 11
-0.0
 21
0.5
 31
0.0
 40
0.0087268678
 41
-0.22333904
 42
-0.0174532925
  0
ELLIPSE
  5
739
100
AcDbEntity
  8
RACCORDO
100
AcDbEllipse
 62
7
  6
CONTINUOUS
 10
6.0902229632
 20
52.614942711
 30
0.0
 11
-0.0
 21
0.5
 31
0.0
 40
0.0087268678
 41
0.0174532925
 42
1.5707963268
  0
ELLIPSE
  5
73A
100
AcDbEntity
  8
RACCORDO
100
AcDbEllipse
 62
7
  6
CONTINUOUS
 10
-6.0902229632
 20
52.614942711
 30
0.0
 11
-0.0
 21
0.5
 31
0.0
 40
0.0087268678
 41
-1.5707963268
 42
-0.0174532925
  0
ELLIPSE
  5
73B
100
AcDbEntity
  8
RACCORDO
100
AcDbEllipse
 62
7
  6
CONTINUOUS
 10
-5.3097770368
 20
52.614942711
 30
0.0
 11
-0.0
 21
0.5
 31
0.0
 40
0.0087268678
 41
0.0174532925
 42
0.22333904
  0
ELLIPSE
  5
73C
100
AcDbEntity
  8
RACCORDO
100
AcDbEllipse
 62
7
  6
CONTINUOUS
 10
-9.4240185763
 20
51.6314526147
 30
0.0
 11
0.0
 21
0.5
 31
0.0
 40
0.1157209201
 41
1.5707963268
 42
3.054326191
  0
ELLIPSE
  5
73D
100
AcDbEntity
  8
RACCORDO
100
AcDbEllipse
 62
7
  6
CONTINUOUS
 10
-9.4240185763
 20
53.3376962614
 30
0.0
 11
0.0
 21
0.5
 31
0.0
 40
0.1157209201
 41
0.0872664626
 42
1.5707963268
  0
ELLIPSE
  5
73E
100
AcDbEntity
  8
RACCORDO
100
AcDbEllipse
 62
7
  6
CONTINUOUS
 10
-10.4886751346
 20
51.6314526147
 30
0.0
 11
0.5
 21
0.0
 31
0.0
 40
1.0
 41
-1.4835298642
 42
0.0
  0
ELLIPSE
  5
73F
100
AcDbEntity
  8
RACCORDO
100
AcDbEllipse
 62
7
  6
CONTINUOUS
 10
-10.4886751346
 20
53.3376962614
 30
0.0
 11
0.5
 21
0.0
 31
0.0
 40
1.0
 41
0.0
 42
1.4835298642
  0
ELLIPSE
  5
740
100
AcDbEntity
  8
RACCORDO
100
AcDbEllipse
 62
7
  6
CONTINUOUS
 10
9.4240185763
 20
53.3376962614
 30
0.0
 11
-0.0
 21
0.5
 31
0.0
 40
0.1157209201
 41
-1.5707963268
 42
-0.0872664626
  0
ELLIPSE
  5
741
100
AcDbEntity
  8
RACCORDO
100
AcDbEllipse
 62
7
  6
CONTINUOUS
 10
9.4240185763
 20
51.6314526147
 30
0.0
 11
-0.0
 21
0.5
 31
0.0
 40
0.1157209201
 41
-3.054326191
 42
-1.5707963268
  0
ELLIPSE
  5
742
100
AcDbEntity
  8
RACCORDO
100
AcDbEllipse
 62
7
  6
CONTINUOUS
 10
10.4886751346
 20
51.6314526147
 30
0.0
 11
-0.0
 21
0.5
 31
0.0
 40
1.0
 41
1.5707963268
 42
3.054326191
  0
ELLIPSE
  5
743
100
AcDbEntity
  8
RACCORDO
100
AcDbEllipse
 62
7
  6
CONTINUOUS
 10
10.4886751346
 20
53.3376962614
 30
0.0
 11
0.5
 21
-0.0
 31
0.0
 40
1.0
 41
1.6580627894
 42
3.1415926536
  0
ELLIPSE
  5
744
100
AcDbEntity
  8
RACCORDO
100
AcDbEllipse
 62
7
  6
CONTINUOUS
 10
5.265698405
 20
58.8345896708
 30
0.0
 11
0.0704992063
 21
0.070964186
 31
0.0
 40
0.9996974479
 41
-3.9235742146
 42
-2.3596326996
  0
ELLIPSE
  5
745
100
AcDbEntity
  8
RACCORDO
100
AcDbEllipse
 62
7
  6
CONTINUOUS
 10
5.2866660106
 20
55.6345592052
 30
0.0
 11
0.0709629558
 21
-0.070501011
 31
0.0
 40
0.9996934588
 41
2.3530823337
 42
3.9301242992
  0
ELLIPSE
  5
746
100
AcDbEntity
  8
RACCORDO
100
AcDbEllipse
 62
7
  6
CONTINUOUS
 10
-5.265698405
 20
58.8345896708
 30
0.0
 11
-0.0704992063
 21
0.070964186
 31
0.0
 40
0.9996974479
 41
-3.9235526076
 42
-2.3596110925
  0
ELLIPSE
  5
747
100
AcDbEntity
  8
RACCORDO
100
AcDbEllipse
 62
7
  6
CONTINUOUS
 10
-5.2866660106
 20
55.6345592052
 30
0.0
 11
0.0709629558
 21
0.070501011
 31
0.0
 40
0.9996934588
 41
-0.7885316457
 42
0.7885103199
  0
ELLIPSE
  5
748
100
AcDbEntity
  8
RACCORDO
100
AcDbEllipse
 62
7
  6
CONTINUOUS
 10
7.699923836
 20
58.234498274
 30
0.0
 11
-0.3536610946
 21
-0.3536610946
 31
0.0
 40
0.9996954599
 41
2.3563467834
 42
3.9268385237
  0
ELLIPSE
  5
749
100
AcDbEntity
  8
RACCORDO
100
AcDbEllipse
 62
7
  6
CONTINUOUS
 10
7.699923836
 20
56.234650602
 30
0.0
 11
-0.3536610946
 21
0.3536610946
 31
0.0
 40
0.9996954599
 41
2.3563467834
 42
3.9268385237
  0
ELLIPSE
  5
74A
100
AcDbEntity
  8
RACCORDO
100
AcDbEllipse
 62
7
  6
CONTINUOUS
 10
-7.699923836
 20
56.234650602
 30
0.0
 11
0.3536610946
 21
0.3536610946
 31
0.0
 40
0.9996954599
 41
2.3563467834
 42
3.9268385237
  0
ELLIPSE
  5
74B
100
AcDbEntity
  8
RACCORDO
100
AcDbEllipse
 62
7
  6
CONTINUOUS
 10
-7.699923836
 20
58.234498274
 30
0.0
 11
0.3536610946
 21
-0.3536610946
 31
0.0
 40
0.9996954599
 41
2.3563467834
 42
3.9268385237
  0
ELLIPSE
  5
74C
100
AcDbEntity
  8
RACCORDO
100
AcDbEllipse
 62
7
  6
CONTINUOUS
 10
-5.2
 20
53.3305069083
 30
0.0
 11
-0.0006554311
 21
0.0999999993
 31
0.0
 40
0.0174543153
 41
-3.4281563285
 42
-1.5709107278
  0
ELLIPSE
  5
74D
100
AcDbEntity
  8
RACCORDO
100
AcDbEllipse
 62
7
  6
CONTINUOUS
 10
5.2
 20
53.3305069083
 30
0.0
 11
0.0006554311
 21
0.0999999993
 31
0.0
 40
0.0174543153
 41
-4.7122745794
 42
-2.8550289787
  0
ELLIPSE
  5
74E
100
AcDbEntity
  8
RACCORDO
100
AcDbEllipse
 62
7
  6
CONTINUOUS
 10
-10.5526939449
 20
39.8818804931
 30
0.0
 11
0.35379574
 21
0.35379574
 31
0.0
 40
0.999315002
 41
2.3565371065
 42
3.9266482006
  0
ELLIPSE
  5
74F
100
AcDbEntity
  8
RACCORDO
100
AcDbEllipse
 62
7
  6
CONTINUOUS
 10
-10.5526939449
 20
91.5872683829
 30
0.0
 11
-0.35379574
 21
0.35379574
 31
0.0
 40
0.999315002
 41
-0.7850555471
 42
0.7850555471
  0
ELLIPSE
  5
750
100
AcDbEntity
  8
RACCORDO
100
AcDbEllipse
 62
7
  6
CONTINUOUS
 10
10.5526939449
 20
91.5872683829
 30
0.0
 11
-0.35379574
 21
-0.35379574
 31
0.0
 40
0.999315002
 41
2.3565371065
 42
3.9266482006
  0
ELLIPSE
  5
751
100
AcDbEntity
  8
RACCORDO
100
AcDbEllipse
 62
7
  6
CONTINUOUS
 10
10.5526939449
 20
39.8818804931
 30
0.0
 11
0.35379574
 21
-0.35379574
 31
0.0
 40
0.999315002
 41
-0.7850555471
 42
0.7850555471
  0
ELLIPSE
  5
752
100
AcDbEntity
  8
RACCORDO
100
AcDbEllipse
 62
7
  6
CONTINUOUS
 10
-7.7999923843
 20
89.1192639889
 30
0.0
 11
-0.0100392888
 21
0.2028445394
 31
0.0
 40
0.9847713852
 41
-0.0487002863
 42
1.5205806929
  0
ELLIPSE
  5
753
100
AcDbEntity
  8
RACCORDO
100
AcDbEllipse
 62
7
  6
CONTINUOUS
 10
-7.6000076157
 20
89.1192639889
 30
0.0
 11
0.0100392888
 21
0.2028445394
 31
0.0
 40
0.9847713852
 41
-1.5205806929
 42
0.0487002863
  0
ELLIPSE
  5
754
100
AcDbEntity
  8
RACCORDO
100
AcDbEllipse
 62
7
  6
CONTINUOUS
 10
-7.6000076157
 20
87.3498848872
 30
0.0
 11
-0.0100392888
 21
0.2028445394
 31
0.0
 40
0.9847713852
 41
-3.1902929399
 42
-1.6210119607
  0
ELLIPSE
  5
755
100
AcDbEntity
  8
RACCORDO
100
AcDbEllipse
 62
7
  6
CONTINUOUS
 10
7.9866434077
 20
88.3212102301
 30
0.0
 11
0.0000156381
 21
0.2000077509
 31
0.0
 40
0.012449579
 41
0.0124508825
 42
1.5770765777
  0
ELLIPSE
  5
756
100
AcDbEntity
  8
RACCORDO
100
AcDbEllipse
 62
7
  6
CONTINUOUS
 10
7.9866434077
 20
88.147938646
 30
0.0
 11
-0.0000156381
 21
0.2000077509
 31
0.0
 40
0.012449579
 41
1.5645160759
 42
3.1291417711
  0
ELLIPSE
  5
757
100
AcDbEntity
  8
RACCORDO
100
AcDbEllipse
 62
7
  6
CONTINUOUS
 10
7.6000076157
 20
87.3498848872
 30
0.0
 11
0.0100392888
 21
0.2028445394
 31
0.0
 40
0.9847713852
 41
-4.6621733465
 42
-3.0928923672
  0
ELLIPSE
  5
758
100
AcDbEntity
  8
RACCORDO
100
AcDbEllipse
 62
7
  6
CONTINUOUS
 10
7.6000076157
 20
89.1192639889
 30
0.0
 11
-0.0100392888
 21
0.2028445394
 31
0.0
 40
0.9847713852
 41
-0.0487002863
 42
1.5205806929
  0
ELLIPSE
  5
759
100
AcDbEntity
  8
RACCORDO
100
AcDbEllipse
 62
7
  6
CONTINUOUS
 10
7.7999923843
 20
89.1192639889
 30
0.0
 11
0.0100392888
 21
0.2028445394
 31
0.0
 40
0.9847713852
 41
-1.5205806929
 42
0.0487002863
  0
ELLIPSE
  5
75A
100
AcDbEntity
  8
RACCORDO
100
AcDbEllipse
 62
7
  6
CONTINUOUS
 10
7.7999923843
 20
87.3498848872
 30
0.0
 11
-0.0100392888
 21
0.2028445394
 31
0.0
 40
0.9847713852
 41
-3.1902929399
 42
-1.6210119607
  0
ELLIPSE
  5
75B
100
AcDbEntity
  8
RACCORDO
100
AcDbEllipse
 62
7
  6
CONTINUOUS
 10
5.2
 20
60.0519791017
 30
0.0
 11
0.5
 21
-0.0
 31
0.0
 40
1.0
 41
-1.3497604017
 42
0.0
  0
ELLIPSE
  5
75C
100
AcDbEntity
  8
RACCORDO
100
AcDbEllipse
 62
7
  6
CONTINUOUS
 10
-5.2
 20
60.0519791017
 30
0.0
 11
0.5
 21
-0.0
 31
0.0
 40
1.0
 41
-3.1415926536
 42
-1.7918322519
  0
ELLIPSE
  5
75D
100
AcDbEntity
  8
0
100
AcDbEllipse
 62
7
  6
CONTINUOUS
 10
-6.950496497
 20
60.934574438
 30
0.0
 11
14.008215606
 21
0.0
 31
0.0
 40
0.8682237535
 41
1.2290184413
 42
1.2474869946
  0
ELLIPSE
  5
75E
100
AcDbEntity
  8
0
100
AcDbEllipse
 62
7
  6
CONTINUOUS
 10
-0.5522398174
 20
60.934574438
 30
0.0
 11
11.1580445547
 21
-0.0
 31
0.0
 40
0.998774494
 41
1.2937184794
 42
1.3164316404
  0
ELLIPSE
  5
75F
100
AcDbEntity
  8
RACCORDO
100
AcDbEllipse
 62
7
  6
CONTINUOUS
 10
-6.09133641
 20
60.0519791017
 30
0.0
 11
-0.0
 21
0.5
 31
0.0
 40
0.0087268678
 41
-3.1241393611
 42
-1.5707963268
  0
ELLIPSE
  5
760
100
AcDbEntity
  8
0
100
AcDbEllipse
 62
7
  6
CONTINUOUS
 10
6.950496497
 20
60.934574438
 30
0.0
 11
14.008215606
 21
-0.0
 31
0.0
 40
0.8682237535
 41
8.1772909662
 42
8.1957595195
  0
ELLIPSE
  5
761
100
AcDbEntity
  8
RACCORDO
100
AcDbEllipse
 62
7
  6
CONTINUOUS
 10
6.09133641
 20
60.0519791017
 30
0.0
 11
-0.0
 21
0.5
 31
0.0
 40
0.0087268678
 41
-4.7123889804
 42
-3.1590459461
  0
ELLIPSE
  5
762
100
AcDbEntity
  8
RACCORDO
100
AcDbEllipse
 62
7
  6
CONTINUOUS
 10
5.30866359
 20
60.0519791017
 30
0.0
 11
0.0
 21
0.5
 31
0.0
 40
0.0087268678
 41
-3.1241393611
 42
-2.9205567285
  0
ELLIPSE
  5
763
100
AcDbEntity
  8
0
100
AcDbEllipse
 62
7
  6
CONTINUOUS
 10
0.5522398174
 20
60.934574438
 30
0.0
 11
11.1580445547
 21
0.0
 31
0.0
 40
0.998774494
 41
1.8251610131
 42
1.8478741742
  0
ELLIPSE
  5
764
100
AcDbEntity
  8
RACCORDO
100
AcDbEllipse
 62
7
  6
CONTINUOUS
 10
-5.30866359
 20
60.0519791017
 30
0.0
 11
0.0
 21
0.5
 31
0.0
 40
0.0087268678
 41
-3.3626285787
 42
-3.1590459461
  0
ELLIPSE
  5
765
100
AcDbEntity
  8
RACCORDO
100
AcDbEllipse
 62
7
  6
CONTINUOUS
 10
-4.3499885765
 20
87.0345630145
 30
0.0
 11
-0.2121481893
 21
0.2121481893
 31
0.0
 40
0.9999238505
 41
-0.7853600872
 42
0.7853600872
  0
ELLIPSE
  5
766
100
AcDbEntity
  8
RACCORDO
100
AcDbEllipse
 62
7
  6
CONTINUOUS
 10
4.3499885765
 20
87.0345630145
 30
0.0
 11
0.2121481893
 21
0.2121481893
 31
0.0
 40
0.9999238505
 41
-0.7853600872
 42
0.7853600872
  0
ELLIPSE
  5
767
100
AcDbEntity
  8
RACCORDO
100
AcDbEllipse
 62
7
  6
CONTINUOUS
 10
-7.9866434077
 20
88.3212102301
 30
0.0
 11
-0.0000156381
 21
0.2000077509
 31
0.0
 40
0.012449579
 41
-1.5770765777
 42
-0.0124508825
  0
ELLIPSE
  5
768
100
AcDbEntity
  8
RACCORDO
100
AcDbEllipse
 62
7
  6
CONTINUOUS
 10
-7.9866434077
 20
88.147938646
 30
0.0
 11
0.0000156381
 21
0.2000077509
 31
0.0
 40
0.012449579
 41
-3.1291417711
 42
-1.5645160759
  0
ELLIPSE
  5
769
100
AcDbEntity
  8
RACCORDO
100
AcDbEllipse
 62
7
  6
CONTINUOUS
 10
-7.7999923843
 20
87.3498848872
 30
0.0
 11
0.0100392888
 21
0.2028445394
 31
0.0
 40
0.9847713852
 41
-4.6621733465
 42
-3.0928923672
  0
ENDSEC
  0
SECTION
  2
OBJECTS
  0
DICTIONARY
  5
C
100
AcDbDictionary
280
0
281
1
  3
ACAD_GROUP
350
D
  3
ACAD_MLINESTYLE
350
17
  3
ACAD_LAYOUT
350
1A
  3
ACAD_PLOTSETTINGS
350
19
  3
ACAD_PLOTSTYLENAME
350
E
  0
DICTIONARY
  5
D
102
{ACAD_REACTORS
330
C
102
}
100
AcDbDictionary
280
0
281
1
  0
ACDBDICTIONARYWDFLT
  5
E
102
{ACAD_REACTORS
330
C
102
}
100
AcDbDictionary
281
1
  3
Normal
350
F
100
AcDbDictionaryWithDefault
340
F
  0
DICTIONARY
  5
17
102
{ACAD_REACTORS
330
C
102
}
100
AcDbDictionary
280
0
281
1
  3
Standard
350
18
  0
DICTIONARY
  5
19
102
{ACAD_REACTORS
330
C
102
}
100
AcDbDictionary
281
1
  0
DICTIONARY
  5
1A
102
{ACAD_REACTORS
330
C
102
}
100
AcDbDictionary
281
1
  3
Model
350
76A
  3
Layout1
350
76B
  0
ACDBPLACEHOLDER
  5
F
102
{ACAD_REACTORS
330
E
102
}
  0
MLINESTYLE
  5
18
102
{ACAD_REACTORS
330
17
102
}
100
AcDbMlineStyle
  2
STANDARD
 70
0
  3

 62
256
 51
90.0
 52
90.0
 71
2
 49
0.5
 62
256
  6
BYLAYER
 49
-0.5
 62
256
  6
BYLAYER
  0
LAYOUT
  5
76A
102
{ACAD_REACTORS
330
1A
102
}
100
AcDbPlotSettings
  1

  2
none_device
  4
ISO_A4_(297.00_x_210.00_MM)
  6

 40
0.0
 41
0.0
 42
0.0
 43
0.0
 44
297.0
 45
210.0
 46
0.0
 47
0.0
 48
0.0
 49
0.0
140
0.0
141
0.0
142
1.0
143
1.0
 70
1024
 72
1
 73
0
 74
0
  7

 75
0
147
1.0
148
0.0
149
0.0
100
AcDbLayout
  1
Model
 70
0
 71
0
 10
0.0
 20
0.0
 11
297.0
 21
210.0
 12
0.0
 22
0.0
 32
0.0
 14
0.0
 24
0.0
 34
0.0
 15
0.0
 25
0.0
 35
0.0
146
0.0
 13
0.0
 23
0.0
 33
0.0
 16
1.0
 26
0.0
 36
0.0
 17
0.0
 27
1.0
 37
0.0
 76
0
330
21A
345
0
346
0
  0
LAYOUT
  5
76B
102
{ACAD_REACTORS
330
1A
102
}
100
AcDbPlotSettings
  1

  2
none_device
  4
ISO_A4_(297.00_x_210.00_MM)
  6

 40
0.0
 41
0.0
 42
0.0
 43
0.0
 44
297.0
 45
210.0
 46
0.0
 47
0.0
 48
0.0
 49
0.0
140
0.0
141
0.0
142
1.0
143
1.0
 70
0
 72
1
 73
0
 74
0
  7

 75
0
147
1.0
148
0.0
149
0.0
100
AcDbLayout
  1
Layout1
 70
0
 71
1
 10
0.0
 20
0.0
 11
297.0
 21
210.0
 12
0.0
 22
0.0
 32
0.0
 14
0.0
 24
0.0
 34
0.0
 15
0.0
 25
0.0
 35
0.0
146
0.0
 13
0.0
 23
0.0
 33
0.0
 16
1.0
 26
0.0
 36
0.0
 17
0.0
 27
1.0
 37
0.0
 76
0
330
21B
345
0
346
0
  0
ENDSEC
  0
EOF
