  0
SECTION
  2
HEADER
  9
$ACADVER
  1
AC1024
  9
$DWGCODEPAGE
  3
ANSI_1252
  9
$EXTMAX
 10
297.0
 20
210.0
 30
0.0
  9
$EXTMIN
 10
0.0
 20
0.0
 30
0.0
  9
$LIMMIN
 10
0.0
 20
0.0
  9
$LIMMAX
 10
297.0
 20
210.0
  9
$VIEWCTR
 10
148.5
 20
105.0
  9
$VIEWSIZE
 40
210.0
  9
$CLAYER
  8
0
  9
$LTSCALE
 40
16.335
  9
$CELTYPE
  6
BYLAYER
  9
$DIMSCALE
 40
1.0
  9
$DIMASZ
 40
3.0
  9
$DIMEXO
 40
0.5
  9
$DIMDLI
 40
11.286
  9
$DIMEXE
 40
1.5
  9
$DIMCEN
 40
2.673
  9
$DIMLFAC
 40
1.0
  9
$DIMBLK
  1
_FILLED
  9
$DIMALT
 70
0
  9
$DIMALTF
 40
0.0393700787
  9
$DIMTXT
 40
3.0
  9
$DIMTOL
 70
1
  9
$DIMLIM
 70
0
  9
$DIMTFAC
 40
1.0
  9
$DIMTP
 40
0.01
  9
$DIMTM
 40
0.01
  9
$DIMGAP
 40
0.625
  9
$DIMDSEP
 70
44
  9
$AUNITS
 70
0
  9
$PDMODE
 70
3
  9
$PDSIZE
 40
3.0
  9
$HANDSEED
  5
5F6
  9
$TILEMODE
 70
1
  9
$MEASUREMENT
 70
1
  9
$INSUNITS
 70
4
  0
ENDSEC
  0
SECTION
  2
CLASSES
  0
CLASS
  1
ACDBDICTIONARYWDFLT
  2
AcDbDictionaryWithDefault
  3
AutoCAD 2000
 90
0
 91
1
280
0
281
0
  0
CLASS
  1
ACDBPLACEHOLDER
  2
AcDbPlaceHolder
  3
AutoCAD 2000
 90
0
 91
1
280
0
281
0
  0
CLASS
  1
LAYOUT
  2
AcDbLayout
  3
AutoCAD 2000
 90
0
 91
0
280
0
281
0
  0
ENDSEC
  0
SECTION
  2
TABLES
  0
TABLE
  2
VPORT
  5
8
100
AcDbSymbolTable
 70
2
  0
VPORT
  5
1F4
100
AcDbSymbolTableRecord
100
AcDbViewportTableRecord
  2
*ACTIVE
 70
0
 10
0.0
 20
0.0
 11
1.0
 21
1.0
 12
148.5
 22
105.0
 13
0.0
 23
0.0
 14
1.0
 24
1.0
 15
0.0
 25
0.0
 16
0.0
 26
0.0
 36
1.0
 17
0.0
 27
0.0
 37
0.0
 40
210.0
 41
1.4142857143
 42
50.0
 43
0.0
 44
0.0
 50
0.0
 51
0.0
 71
0
 72
100
 73
1
 74
1
 75
0
 76
0
 77
0
 78
0
  0
ENDTAB
  0
TABLE
  2
LTYPE
  5
5
100
AcDbSymbolTable
 70
6
  0
LTYPE
  5
14
100
AcDbSymbolTableRecord
100
AcDbLinetypeTableRecord
  2
BYBLOCK
 70
0
  3

 72
65
 73
0
 40
0.0
  0
LTYPE
  5
15
100
AcDbSymbolTableRecord
100
AcDbLinetypeTableRecord
  2
BYLAYER
 70
0
  3

 72
65
 73
0
 40
0.0
  0
LTYPE
  5
16
100
AcDbSymbolTableRecord
100
AcDbLinetypeTableRecord
  2
CONTINUOUS
 70
64
  3
Solid line
 72
65
 73
0
 40
0.0
  0
LTYPE
  5
1F5
100
AcDbSymbolTableRecord
100
AcDbLinetypeTableRecord
  2
CENTER
 70
64
  3
____ _ ____ _ ____ _ ____ _ ____ _ ____ _ ____
 72
65
 73
4
 40
0.6
 49
0.375
 74
0
 49
-0.075
 74
0
 49
0.075
 74
0
 49
-0.075
 74
0
  0
LTYPE
  5
1F6
100
AcDbSymbolTableRecord
100
AcDbLinetypeTableRecord
  2
HIDDEN
 70
64
  3
- - - - - - - - - - - - - - - - - - - -
 72
65
 73
2
 40
0.2
 49
0.1
 74
0
 49
-0.1
 74
0
  0
LTYPE
  5
1F7
100
AcDbSymbolTableRecord
100
AcDbLinetypeTableRecord
  2
PHANTOM
 70
64
  3
_____ _ _ _____ _ _ _____ _ _ _____
 72
65
 73
6
 40
0.8
 49
0.45
 74
0
 49
-0.05
 74
0
 49
0.1
 74
0
 49
-0.05
 74
0
 49
0.1
 74
0
 49
-0.05
 74
0
  0
LTYPE
  5
1F8
100
AcDbSymbolTableRecord
100
AcDbLinetypeTableRecord
  2
DOT
 70
64
  3
. . . . . . . . . . . . . . . . . . . .
 72
65
 73
2
 40
0.2
 49
0.1
 74
0
 49
-0.1
 74
0
  0
LTYPE
  5
1F9
100
AcDbSymbolTableRecord
100
AcDbLinetypeTableRecord
  2
DASHED
 70
64
  3
- - - - - - - - - - - - - - - - - - - -
 72
65
 73
2
 40
0.2
 49
0.1
 74
0
 49
-0.1
 74
0
  0
ENDTAB
  0
TABLE
  2
LAYER
  5
2
100
AcDbSymbolTable
 70
36
  0
LAYER
  5
10
100
AcDbSymbolTableRecord
100
AcDbLayerTableRecord
  2
0
 70
0
 62
7
  6
CONTINUOUS
370
-3
390
F
  0
LAYER
  5
1FA
100
AcDbSymbolTableRecord
100
AcDbLayerTableRecord
  2
DEFAULT_1
 70
0
 62
7
  6
CENTER
370
-3
390
F
  0
LAYER
  5
1FB
100
AcDbSymbolTableRecord
100
AcDbLayerTableRecord
  2
DEFAULT_2
 70
0
 62
7
  6
HIDDEN
370
-3
390
F
  0
LAYER
  5
1FC
100
AcDbSymbolTableRecord
100
AcDbLayerTableRecord
  2
DEFAULT_3
 70
0
 62
7
  6
PHANTOM
370
-3
390
F
  0
LAYER
  5
1FD
100
AcDbSymbolTableRecord
100
AcDbLayerTableRecord
  2
ASSI
 70
0
 62
7
  6
CONTINUOUS
370
-3
390
F
  0
LAYER
  5
1FE
100
AcDbSymbolTableRecord
100
AcDbLayerTableRecord
  2
COORDINATE
 70
0
 62
7
  6
CONTINUOUS
370
-3
390
F
  0
LAYER
  5
1FF
100
AcDbSymbolTableRecord
100
AcDbLayerTableRecord
  2
COPY_PUBLISH
 70
0
 62
7
  6
CONTINUOUS
370
-3
390
F
  0
LAYER
  5
200
100
AcDbSymbolTableRecord
100
AcDbLayerTableRecord
  2
COSMETICI
 70
0
 62
7
  6
CONTINUOUS
370
-3
390
F
  0
LAYER
  5
201
100
AcDbSymbolTableRecord
100
AcDbLayerTableRecord
  2
CURVE
 70
0
 62
7
  6
CONTINUOUS
370
-3
390
F
  0
LAYER
  5
202
100
AcDbSymbolTableRecord
100
AcDbLayerTableRecord
  2
DRAFT
 70
0
 62
7
  6
CONTINUOUS
370
-3
390
F
  0
LAYER
  5
203
100
AcDbSymbolTableRecord
100
AcDbLayerTableRecord
  2
IMPORT_IGES
 70
0
 62
7
  6
CONTINUOUS
370
-3
390
F
  0
LAYER
  5
204
100
AcDbSymbolTableRecord
100
AcDbLayerTableRecord
  2
INTF_1
 70
0
 62
7
  6
CONTINUOUS
370
-3
390
F
  0
LAYER
  5
205
100
AcDbSymbolTableRecord
100
AcDbLayerTableRecord
  2
INTF_10
 70
0
 62
7
  6
CONTINUOUS
370
-3
390
F
  0
LAYER
  5
206
100
AcDbSymbolTableRecord
100
AcDbLayerTableRecord
  2
INTF_11
 70
0
 62
7
  6
CONTINUOUS
370
-3
390
F
  0
LAYER
  5
207
100
AcDbSymbolTableRecord
100
AcDbLayerTableRecord
  2
INTF_17
 70
0
 62
7
  6
CONTINUOUS
370
-3
390
F
  0
LAYER
  5
208
100
AcDbSymbolTableRecord
100
AcDbLayerTableRecord
  2
INTF_2
 70
0
 62
7
  6
CONTINUOUS
370
-3
390
F
  0
LAYER
  5
209
100
AcDbSymbolTableRecord
100
AcDbLayerTableRecord
  2
INTF_3
 70
0
 62
7
  6
CONTINUOUS
370
-3
390
F
  0
LAYER
  5
20A
100
AcDbSymbolTableRecord
100
AcDbLayerTableRecord
  2
INTF_4
 70
0
 62
7
  6
CONTINUOUS
370
-3
390
F
  0
LAYER
  5
20B
100
AcDbSymbolTableRecord
100
AcDbLayerTableRecord
  2
INTF_5
 70
0
 62
7
  6
CONTINUOUS
370
-3
390
F
  0
LAYER
  5
20C
100
AcDbSymbolTableRecord
100
AcDbLayerTableRecord
  2
INTF_6
 70
0
 62
7
  6
CONTINUOUS
370
-3
390
F
  0
LAYER
  5
20D
100
AcDbSymbolTableRecord
100
AcDbLayerTableRecord
  2
INTF_7
 70
0
 62
7
  6
CONTINUOUS
370
-3
390
F
  0
LAYER
  5
20E
100
AcDbSymbolTableRecord
100
AcDbLayerTableRecord
  2
INTF_8
 70
0
 62
7
  6
CONTINUOUS
370
-3
390
F
  0
LAYER
  5
20F
100
AcDbSymbolTableRecord
100
AcDbLayerTableRecord
  2
INTF_9
 70
0
 62
7
  6
CONTINUOUS
370
-3
390
F
  0
LAYER
  5
210
100
AcDbSymbolTableRecord
100
AcDbLayerTableRecord
  2
INTF_BLANK
 70
0
 62
7
  6
CONTINUOUS
370
-3
390
F
  0
LAYER
  5
211
100
AcDbSymbolTableRecord
100
AcDbLayerTableRecord
  2
INTF_RED
 70
0
 62
7
  6
CONTINUOUS
370
-3
390
F
  0
LAYER
  5
212
100
AcDbSymbolTableRecord
100
AcDbLayerTableRecord
  2
NOTE
 70
0
 62
7
  6
CONTINUOUS
370
-3
390
F
  0
LAYER
  5
213
100
AcDbSymbolTableRecord
100
AcDbLayerTableRecord
  2
PIANI
 70
0
 62
7
  6
CONTINUOUS
370
-3
390
F
  0
LAYER
  5
214
100
AcDbSymbolTableRecord
100
AcDbLayerTableRecord
  2
PUNTI
 70
0
 62
7
  6
CONTINUOUS
370
-3
390
F
  0
LAYER
  5
215
100
AcDbSymbolTableRecord
100
AcDbLayerTableRecord
  2
RACCORDO
 70
0
 62
7
  6
CONTINUOUS
370
-3
390
F
  0
LAYER
  5
216
100
AcDbSymbolTableRecord
100
AcDbLayerTableRecord
  2
RGB____0____0____0__
 70
0
 62
7
  6
CONTINUOUS
370
-3
390
F
  0
LAYER
  5
217
100
AcDbSymbolTableRecord
100
AcDbLayerTableRecord
  2
SIMBOLI
 70
0
 62
7
  6
CONTINUOUS
370
-3
390
F
  0
LAYER
  5
218
100
AcDbSymbolTableRecord
100
AcDbLayerTableRecord
  2
SMUSSO
 70
0
 62
7
  6
CONTINUOUS
370
-3
390
F
  0
LAYER
  5
219
100
AcDbSymbolTableRecord
100
AcDbLayerTableRecord
  2
SNAPLINE
 70
0
 62
7
  6
CONTINUOUS
370
-3
390
F
  0
LAYER
  5
21A
100
AcDbSymbolTableRecord
100
AcDbLayerTableRecord
  2
SUPERFICI
 70
0
 62
7
  6
CONTINUOUS
370
-3
390
F
  0
LAYER
  5
21B
100
AcDbSymbolTableRecord
100
AcDbLayerTableRecord
  2
TRASH
 70
0
 62
7
  6
CONTINUOUS
370
-3
390
F
  0
ENDTAB
  0
TABLE
  2
STYLE
  5
3
100
AcDbSymbolTable
 70
1
  0
STYLE
  5
11
100
AcDbSymbolTableRecord
100
AcDbTextStyleTableRecord
  2
STANDARD
 70
0
 40
0.0
 41
0.8
 50
0.0
 71
0
 42
0.2
  3
txt
  4

  0
STYLE
  5
21C
100
AcDbSymbolTableRecord
100
AcDbTextStyleTableRecord
  2
TEXTSTYLE_1
 70
0
 40
0.0
 41
0.8
 50
0.0
 71
0
 42
0.2
  3
gdt
  4

  0
ENDTAB
  0
TABLE
  2
VIEW
  5
6
100
AcDbSymbolTable
 70
0
  0
ENDTAB
  0
TABLE
  2
UCS
  5
7
100
AcDbSymbolTable
 70
0
  0
ENDTAB
  0
TABLE
  2
APPID
  5
9
100
AcDbSymbolTable
 70
1
  0
APPID
  5
21D
100
AcDbSymbolTableRecord
100
AcDbRegAppTableRecord
  2
ACAD
 70
0
  0
ENDTAB
  0
TABLE
  2
BLOCK_RECORD
  5
1
100
AcDbSymbolTable
 70
0
  0
BLOCK_RECORD
  5
21E
100
AcDbSymbolTableRecord
100
AcDbBlockTableRecord
  2
*Model_Space
  0
BLOCK_RECORD
  5
21F
100
AcDbSymbolTableRecord
100
AcDbBlockTableRecord
  2
*Paper_Space
  0
BLOCK_RECORD
  5
220
100
AcDbSymbolTableRecord
100
AcDbBlockTableRecord
  2
_FILLED
  0
ENDTAB
  0
TABLE
  2
DIMSTYLE
  5
A
100
AcDbSymbolTable
 70
1
100
AcDbDimStyleTable
 71
0
  0
DIMSTYLE
105
221
100
AcDbSymbolTableRecord
100
AcDbDimStyleTableRecord
  2
STANDARD
 70
0
  3

  4

 40
1.0
 41
3.0
 42
0.5
 43
0.38
 44
1.5
 45
0.0
 46
0.0
 47
0.01
 48
0.01
140
3.0
141
0.09
142
0.0
143
25.4
144
1.0
145
0.0
146
1.0
147
0.625
 71
1
 72
0
 73
0
 74
0
 75
0
 76
0
 77
1
 78
8
 79
2
170
0
171
1
172
0
173
0
174
0
175
0
176
0
177
0
178
0
270
2
179
2
271
2
272
2
273
2
274
2
275
0
280
0
281
0
282
0
283
1
284
8
285
0
286
0
287
3
288
0
340
11
278
44
341
220
342
220
343
220
344
220
  0
ENDTAB
  0
ENDSEC
  0
SECTION
  2
BLOCKS
  0
BLOCK
  5
20
100
AcDbEntity
  8
0
100
AcDbBlockBegin
  2
*Model_Space
 70
0
 10
0.0
 20
0.0
 30
0.0
  3
*Model_Space
  1

  0
ENDBLK
  5
21
100
AcDbEntity
  8
0
100
AcDbBlockEnd
  0
BLOCK
  5
1C
100
AcDbEntity
  8
0
100
AcDbBlockBegin
  2
*Paper_Space
 70
0
 10
0.0
 20
0.0
 30
0.0
  3
*Paper_Space
  1

  0
ENDBLK
  5
1D
100
AcDbEntity
  8
0
100
AcDbBlockEnd
  0
BLOCK
  5
222
100
AcDbEntity
  8
0
100
AcDbBlockBegin
  2
_FILLED
 70
64
 10
0.0
 20
0.0
  3
_FILLED
  1

  0
SOLID
  5
223
100
AcDbEntity
  8
0
  6
BYBLOCK
 62
0
100
AcDbTrace
 10
0.0
 20
0.0
 11
-1.0
 21
0.3166666667
 12
-1.0
 22
-0.3166666667
 13
-1.0
 23
-0.3166666667
  0
ENDBLK
  5
224
100
AcDbEntity
  8
0
  6
BYBLOCK
 62
0
100
AcDbBlockEnd
  0
ENDSEC
  0
SECTION
  2
ENTITIES
  0
LINE
  5
225
100
AcDbEntity
  8
RACCORDO
100
AcDbLine
 62
7
  6
CONTINUOUS
 10
-19.25
 20
22.2
 11
-19.2371975793
 21
22.2128024207
  0
LWPOLYLINE
  5
226
100
AcDbEntity
  8
RACCORDO
100
AcDbPolyline
 62
7
  6
CONTINUOUS
 90
13
 70
0
 10
-15.8791287847
 20
20.4196499413
 10
-15.8690614692
 20
20.4314846696
 10
-15.8568373895
 20
20.4416422363
 10
-15.8426194211
 20
20.4502372928
 10
-15.8266846977
 20
20.4573581711
 10
-15.8091783666
 20
20.4632137917
 10
-15.7900357764
 20
20.4680788894
 10
-15.7693987686
 20
20.4721234065
 10
-15.7475194274
 20
20.4754546933
 10
-15.7244324349
 20
20.4782071162
 10
-15.700289715
 20
20.4805242686
 10
-15.6753925131
 20
20.4825815525
 10
-15.65
 20
20.4845614035
  0
LINE
  5
227
100
AcDbEntity
  8
RACCORDO
100
AcDbLine
 62
7
  6
CONTINUOUS
 10
21.8030366787
 20
-26.3528653412
 11
-21.8030366787
 21
-26.3528653412
  0
LINE
  5
228
100
AcDbEntity
  8
RACCORDO
100
AcDbLine
 62
7
  6
CONTINUOUS
 10
-16.0934920741
 20
20.1151224438
 11
-15.8791287847
 21
20.4196499413
  0
LINE
  5
229
100
AcDbEntity
  8
RACCORDO
100
AcDbLine
 62
250
  6
CONTINUOUS
 10
-15.9708336545
 20
20.028780611
 11
-15.65
 21
20.4845614035
  0
LINE
  5
22A
100
AcDbEntity
  8
DRAFT
100
AcDbLine
 62
7
  6
CONTINUOUS
 10
21.25
 20
-25.1524539902
 11
-21.25
 21
-25.1524539902
  0
LINE
  5
22B
100
AcDbEntity
  8
DRAFT
100
AcDbLine
 62
7
  6
CONTINUOUS
 10
21.2292140383
 20
-25.1212710891
 11
-21.2292140383
 21
-25.1212710891
  0
LINE
  5
22C
100
AcDbEntity
  8
ASSI
100
AcDbLine
 62
7
  6
CONTINUOUS
 10
21.2042531448
 20
-24.8176673717
 11
-21.2042531448
 21
-24.8176673717
  0
LINE
  5
22D
100
AcDbEntity
  8
RACCORDO
100
AcDbLine
 62
7
  6
CONTINUOUS
 10
-20.35
 20
-14.85
 11
-20.6790614477
 21
-14.6012191724
  0
LINE
  5
22E
100
AcDbEntity
  8
0
100
AcDbLine
 62
7
  6
CONTINUOUS
 10
-21.2042531448
 20
-24.8176673717
 11
-21.2199713981
 21
-16.25
  0
LINE
  5
22F
100
AcDbEntity
  8
0
100
AcDbLine
 62
7
  6
CONTINUOUS
 10
-21.230962231
 20
-10.25
 11
-21.2419209047
 21
-3.0755777821
  0
LINE
  5
230
100
AcDbEntity
  8
0
100
AcDbLine
 62
7
  6
CONTINUOUS
 10
-21.2419209047
 20
-3.0755777821
 11
-21.2471906489
 21
3.2050711024
  0
LINE
  5
231
100
AcDbEntity
  8
RACCORDO
100
AcDbLine
 62
7
  6
CONTINUOUS
 10
-22.3028653412
 20
25.8530366787
 11
-22.3028653412
 21
-25.8530366787
  0
LINE
  5
232
100
AcDbEntity
  8
DRAFT
100
AcDbLine
 62
7
  6
CONTINUOUS
 10
-21.85
 20
-14.6366435717
 11
-21.85
 21
-11.8633564283
  0
LINE
  5
233
100
AcDbEntity
  8
DRAFT
100
AcDbLine
 62
7
  6
CONTINUOUS
 10
-21.35
 20
-14.6618993734
 11
-21.35
 21
-16.25
  0
LINE
  5
234
100
AcDbEntity
  8
0
100
AcDbLine
 62
7
  6
CONTINUOUS
 10
-21.35
 20
-16.25
 11
-21.35
 21
-14.85
  0
LINE
  5
235
100
AcDbEntity
  8
DRAFT
100
AcDbLine
 62
7
  6
CONTINUOUS
 10
-21.35
 20
-11.8381006266
 11
-21.35
 21
-10.25
  0
LINE
  5
236
100
AcDbEntity
  8
0
100
AcDbLine
 62
7
  6
CONTINUOUS
 10
-21.35
 20
-11.65
 11
-21.35
 21
-10.25
  0
LINE
  5
237
100
AcDbEntity
  8
0
100
AcDbLine
 62
7
  6
CONTINUOUS
 10
-21.25
 20
-25.1524539902
 11
-21.25
 21
-16.25
  0
LINE
  5
238
100
AcDbEntity
  8
0
100
AcDbLine
 62
7
  6
CONTINUOUS
 10
-21.25
 20
-10.25
 11
-21.25
 21
25.1524539902
  0
LINE
  5
239
100
AcDbEntity
  8
0
100
AcDbLine
 62
7
  6
CONTINUOUS
 10
-21.2471906489
 20
3.2050711024
 11
-21.2483336648
 21
8.367714293
  0
LINE
  5
23A
100
AcDbEntity
  8
RACCORDO
100
AcDbLine
 62
7
  6
CONTINUOUS
 10
-21.2386751346
 20
-12.3968781766
 11
-21.2386751346
 21
-14.1031218234
  0
LINE
  5
23B
100
AcDbEntity
  8
RACCORDO
100
AcDbLine
 62
7
  6
CONTINUOUS
 10
-20.7318790363
 20
-12.3968781766
 11
-20.7318790363
 21
-14.1031218234
  0
LINE
  5
23C
100
AcDbEntity
  8
0
100
AcDbLine
 62
7
  6
CONTINUOUS
 10
-21.2483349574
 20
8.953079846
 11
-21.2482544935
 21
10.7371426949
  0
LWPOLYLINE
  5
23D
100
AcDbEntity
  8
RACCORDO
100
AcDbPolyline
 62
250
  6
CONTINUOUS
 90
13
 70
0
 10
-19.2281986766
 20
23.0416442642
 10
-19.2264155445
 20
23.0673037053
 10
-19.2212544417
 20
23.0925257963
 10
-19.2128033361
 20
23.1168806416
 10
-19.2012062719
 20
23.1399531271
 10
-19.1866609142
 20
23.1613499958
 10
-19.1694151799
 20
23.1807065509
 10
-19.1497630126
 20
23.1976928711
 10
-19.1280393716
 20
23.2120194347
 10
-19.1046145238
 20
23.2234420536
 10
-19.0798877319
 20
23.2317660362
 10
-19.0542804495
 20
23.2368495048
 10
-19.0282291376
 20
23.2386058148
  0
LWPOLYLINE
  5
23E
100
AcDbEntity
  8
RACCORDO
100
AcDbPolyline
 62
250
  6
CONTINUOUS
 90
7
 70
0
 10
-19.2281986766
 20
21.9583557358
 10
-19.2273404808
 20
21.9694969159
 10
-19.226516877
 20
21.9846152812
 10
-19.2257278651
 20
22.0037108318
 10
-19.2249681276
 20
22.0269939857
 10
-19.2242429821
 20
22.0542543249
 10
-19.2229450175
 20
22.118902668
  0
LINE
  5
23F
100
AcDbEntity
  8
RACCORDO
100
AcDbLine
 62
250
  6
CONTINUOUS
 10
-19.25
 20
21.7381238696
 11
-19.2281986766
 21
21.9583557358
  0
LINE
  5
240
100
AcDbEntity
  8
RACCORDO
100
AcDbLine
 62
250
  6
CONTINUOUS
 10
-19.0505757424
 20
21.5356540133
 11
-19.0282291376
 21
21.7613941852
  0
LINE
  5
241
100
AcDbEntity
  8
RACCORDO
100
AcDbLine
 62
250
  6
CONTINUOUS
 10
-18.8494242576
 20
23.4643459867
 11
-18.8717708624
 21
23.2386058148
  0
LINE
  5
242
100
AcDbEntity
  8
RACCORDO
100
AcDbLine
 62
250
  6
CONTINUOUS
 10
-18.65
 20
23.2618761304
 11
-18.6718013234
 21
23.0416442642
  0
LINE
  5
243
100
AcDbEntity
  8
RACCORDO
100
AcDbLine
 62
7
  6
CONTINUOUS
 10
-4.75
 20
-21.0
 11
4.75
 21
-21.0
  0
LWPOLYLINE
  5
244
100
AcDbEntity
  8
DRAFT
100
AcDbPolyline
 62
7
  6
CONTINUOUS
 90
5
 70
0
 10
-20.7730148584
 20
-14.7583851778
 10
-20.7812029674
 20
-14.7549084219
 10
-20.7893339974
 20
-14.7515199619
 10
-20.7973814805
 20
-14.7482216892
 10
-20.8053454168
 20
-14.7450136038
  0
LINE
  5
245
100
AcDbEntity
  8
DRAFT
100
AcDbLine
 62
7
  6
CONTINUOUS
 10
-20.7563085966
 20
-14.7656149254
 11
-20.7730148584
 21
-14.7583851778
  0
LINE
  5
246
100
AcDbEntity
  8
DRAFT
100
AcDbLine
 62
7
  6
CONTINUOUS
 10
-20.729947676
 20
-14.777184181
 11
-20.7563085966
 21
-14.7656149254
  0
LINE
  5
247
100
AcDbEntity
  8
DRAFT
100
AcDbLine
 62
7
  6
CONTINUOUS
 10
-20.6610418289
 20
-14.8078591297
 11
-20.729947676
 21
-14.777184181
  0
LINE
  5
248
100
AcDbEntity
  8
DRAFT
100
AcDbLine
 62
7
  6
CONTINUOUS
 10
-20.5671572875
 20
-14.85
 11
-20.6610418289
 21
-14.8078591297
  0
LINE
  5
249
100
AcDbEntity
  8
RACCORDO
100
AcDbLine
 62
7
  6
CONTINUOUS
 10
-20.35
 20
-13.6
 11
-20.4608433288
 21
-13.549801188
  0
LWPOLYLINE
  5
24A
100
AcDbEntity
  8
RACCORDO
100
AcDbPolyline
 62
250
  6
CONTINUOUS
 90
19
 70
0
 10
-19.2542021782
 20
-12.9832154037
 10
-19.2552529106
 20
-12.969586702
 10
-19.2575982493
 20
-12.9561236256
 10
-19.2612132753
 20
-12.9429385725
 10
-19.2660867736
 20
-12.9301013645
 10
-19.2721584525
 20
-12.9177590014
 10
-19.2792831771
 20
-12.9061187427
 10
-19.2873847083
 20
-12.8952408027
 10
-19.2963566201
 20
-12.8852047763
 10
-19.3059325439
 20
-12.8761841322
 10
-19.3158373139
 20
-12.8682896348
 10
-19.3260794229
 20
-12.8613833165
 10
-19.3368371918
 20
-12.8552774162
 10
-19.3479830021
 20
-12.8500327445
 10
-19.3595063724
 20
-12.8456452482
 10
-19.3718511082
 20
-12.8419998054
 10
-19.3851503184
 20
-12.8392078035
 10
-19.3991720933
 20
-12.8374778669
 10
-19.4138277512
 20
-12.8369591937
  0
LWPOLYLINE
  5
24B
100
AcDbEntity
  8
RACCORDO
100
AcDbPolyline
 62
250
  6
CONTINUOUS
 90
13
 70
0
 10
-19.5961056179
 20
-13.0848356998
 10
-19.5975291951
 20
-13.0653943126
 10
-19.6014273349
 20
-13.0462819083
 10
-19.6077340494
 20
-13.0278217549
 10
-19.6163426269
 20
-13.0103260541
 10
-19.6271074062
 20
-12.9940907318
 10
-19.639846214
 20
-12.979390416
 10
-19.6543435212
 20
-12.9664736923
 10
-19.670354085
 20
-12.9555589512
 10
-19.6876070356
 20
-12.9468307386
 10
-19.7058105275
 20
-12.9404365817
 10
-19.7246566872
 20
-12.9364845136
 10
-19.7438267808
 20
-12.9350412696
  0
LWPOLYLINE
  5
24C
100
AcDbEntity
  8
RACCORDO
100
AcDbPolyline
 62
250
  6
CONTINUOUS
 90
19
 70
0
 10
-19.1064812139
 20
-12.9675361932
 10
-19.1083906873
 20
-12.9398246876
 10
-19.1126926699
 20
-12.9128624418
 10
-19.1193871617
 20
-12.8866494559
 10
-19.1286503181
 20
-12.8609297883
 10
-19.1403059836
 20
-12.8359593806
 10
-19.1538256925
 20
-12.8125060567
 10
-19.1693427952
 20
-12.7906637023
 10
-19.1867239413
 20
-12.7703384317
 10
-19.2050406139
 20
-12.7520164124
 10
-19.2239948221
 20
-12.7359633882
 10
-19.2438845568
 20
-12.7219136152
 10
-19.2646752737
 20
-12.7095560284
 10
-19.2861496717
 20
-12.6987439364
 10
-19.308525052
 20
-12.6896240307
 10
-19.332418774
 20
-12.6823253208
 10
-19.3580366242
 20
-12.6768908097
 10
-19.3851728161
 20
-12.6732774943
 10
-19.4138273498
 20
-12.6714853747
  0
LWPOLYLINE
  5
24D
100
AcDbEntity
  8
RACCORDO
100
AcDbPolyline
 62
250
  6
CONTINUOUS
 90
4
 70
0
 10
-19.0260792892
 20
23.1881791384
 10
-19.0267505932
 20
23.2086512531
 10
-19.0274672093
 20
23.2256541241
 10
-19.0282291376
 20
23.2386058148
  0
LWPOLYLINE
  5
24E
100
AcDbEntity
  8
RACCORDO
100
AcDbPolyline
 62
250
  6
CONTINUOUS
 90
6
 70
0
 10
-19.224857401
 20
22.9694982717
 10
-19.2254305485
 20
22.9881522211
 10
-19.2260489706
 20
23.004664701
 10
-19.2267202648
 20
23.0191326915
 10
-19.2274368335
 20
23.0314592126
 10
-19.2281986766
 20
23.0416442642
  0
LINE
  5
24F
100
AcDbEntity
  8
RACCORDO
100
AcDbLine
 62
250
  6
CONTINUOUS
 10
-19.2237717497
 20
22.925167667
 11
-19.224857401
 21
22.9694982717
  0
LINE
  5
250
100
AcDbEntity
  8
RACCORDO
100
AcDbLine
 62
250
  6
CONTINUOUS
 10
-19.0248878563
 20
23.1399807035
 11
-19.0260792892
 21
23.1881791384
  0
LINE
  5
251
100
AcDbEntity
  8
RACCORDO
100
AcDbLine
 62
250
  6
CONTINUOUS
 10
-18.8753354168
 20
21.8710029498
 11
-18.874065344
 21
21.8168265821
  0
LINE
  5
252
100
AcDbEntity
  8
RACCORDO
100
AcDbLine
 62
250
  6
CONTINUOUS
 10
-19.2442591244
 20
-13.5197398637
 11
-19.2542023768
 21
-12.9832154627
  0
LINE
  5
253
100
AcDbEntity
  8
RACCORDO
100
AcDbLine
 62
250
  6
CONTINUOUS
 10
-19.0965379614
 20
-13.5040605942
 11
-19.1064812139
 21
-12.9675361932
  0
LINE
  5
254
100
AcDbEntity
  8
RACCORDO
100
AcDbLine
 62
250
  6
CONTINUOUS
 10
-19.2227668353
 20
22.8702674361
 11
-19.2237717497
 21
22.925167667
  0
LINE
  5
255
100
AcDbEntity
  8
RACCORDO
100
AcDbLine
 62
250
  6
CONTINUOUS
 10
-19.0238022649
 20
23.0796128461
 11
-19.0248878563
 21
23.1399807035
  0
LINE
  5
256
100
AcDbEntity
  8
RACCORDO
100
AcDbLine
 62
250
  6
CONTINUOUS
 10
-18.8764746471
 20
21.9388949602
 11
-18.8753354168
 21
21.8710029498
  0
LINE
  5
257
100
AcDbEntity
  8
RACCORDO
100
AcDbLine
 62
250
  6
CONTINUOUS
 10
-18.6775307792
 20
22.1493739197
 11
-18.6765051714
 21
22.0884191732
  0
LINE
  5
258
100
AcDbEntity
  8
RACCORDO
100
AcDbLine
 62
250
  6
CONTINUOUS
 10
-19.0223139062
 20
22.9596903853
 11
-19.0238022649
 21
23.0796128461
  0
LINE
  5
259
100
AcDbEntity
  8
RACCORDO
100
AcDbLine
 62
250
  6
CONTINUOUS
 10
-19.2214077727
 20
22.7602006766
 11
-19.2227668353
 21
22.8702674361
  0
LINE
  5
25A
100
AcDbEntity
  8
RACCORDO
100
AcDbLine
 62
250
  6
CONTINUOUS
 10
-18.8779735455
 20
22.0709360019
 11
-18.8764746471
 21
21.9388949602
  0
LINE
  5
25B
100
AcDbEntity
  8
RACCORDO
100
AcDbLine
 62
250
  6
CONTINUOUS
 10
-18.6788267276
 20
22.2665383787
 11
-18.6775307792
 21
22.1493739197
  0
LINE
  5
25C
100
AcDbEntity
  8
RACCORDO
100
AcDbLine
 62
250
  6
CONTINUOUS
 10
-19.2205071847
 20
22.6226428623
 11
-19.2214077727
 21
22.7602006766
  0
LINE
  5
25D
100
AcDbEntity
  8
RACCORDO
100
AcDbLine
 62
250
  6
CONTINUOUS
 10
-19.0207713197
 20
22.7325020696
 11
-19.0223139062
 21
22.9596903853
  0
LINE
  5
25E
100
AcDbEntity
  8
RACCORDO
100
AcDbLine
 62
250
  6
CONTINUOUS
 10
-18.8793696343
 20
22.3041703134
 11
-18.8779735455
 21
22.0709360019
  0
LINE
  5
25F
100
AcDbEntity
  8
RACCORDO
100
AcDbLine
 62
250
  6
CONTINUOUS
 10
-18.6795853215
 20
22.4034063955
 11
-18.6788267276
 21
22.2665383787
  0
LINE
  5
260
100
AcDbEntity
  8
RACCORDO
100
AcDbLine
 62
7
  6
CONTINUOUS
 10
-20.4772930121
 20
-13.4000067578
 11
-20.4772930121
 21
-13.0999932422
  0
LINE
  5
261
100
AcDbEntity
  8
DRAFT
100
AcDbLine
 62
7
  6
CONTINUOUS
 10
-20.35
 20
-16.25
 11
-20.35
 21
-13.6
  0
LINE
  5
262
100
AcDbEntity
  8
DRAFT
100
AcDbLine
 62
7
  6
CONTINUOUS
 10
-20.35
 20
-12.9
 11
-20.35
 21
-10.25
  0
LINE
  5
263
100
AcDbEntity
  8
RACCORDO
100
AcDbLine
 62
7
  6
CONTINUOUS
 10
-20.25
 20
22.6024380533
 11
-20.25
 21
22.3975619467
  0
LINE
  5
264
100
AcDbEntity
  8
RACCORDO
100
AcDbLine
 62
250
  6
CONTINUOUS
 10
-20.0885094944
 20
-13.549801188
 11
-20.0885094944
 21
-12.950198812
  0
LINE
  5
265
100
AcDbEntity
  8
RACCORDO
100
AcDbLine
 62
250
  6
CONTINUOUS
 10
-19.5961056179
 20
-13.4151643002
 11
-19.5961056179
 21
-13.0848356998
  0
LINE
  5
266
100
AcDbEntity
  8
RACCORDO
100
AcDbLine
 62
250
  6
CONTINUOUS
 10
-19.4138273498
 20
-12.6714853747
 11
-19.4138273504
 21
-12.8369590744
  0
LINE
  5
267
100
AcDbEntity
  8
RACCORDO
100
AcDbLine
 62
250
  6
CONTINUOUS
 10
-19.3928500694
 20
-13.8033909386
 11
-19.3928500694
 21
-13.6692757779
  0
LINE
  5
268
100
AcDbEntity
  8
RACCORDO
100
AcDbLine
 62
7
  6
CONTINUOUS
 10
-19.25
 20
21.7381238696
 11
-19.25
 21
22.2
  0
LINE
  5
269
100
AcDbEntity
  8
RACCORDO
100
AcDbLine
 62
7
  6
CONTINUOUS
 10
-19.25
 20
22.8
 11
-19.25
 21
23.2618761304
  0
LINE
  5
26A
100
AcDbEntity
  8
RACCORDO
100
AcDbLine
 62
7
  6
CONTINUOUS
 10
-19.2322348431
 20
22.5846728965
 11
-19.2322348431
 21
22.4153271035
  0
LINE
  5
26B
100
AcDbEntity
  8
RACCORDO
100
AcDbLine
 62
250
  6
CONTINUOUS
 10
-19.2202754496
 20
22.4749198805
 11
-19.2205071847
 21
22.6226428623
  0
LINE
  5
26C
100
AcDbEntity
  8
RACCORDO
100
AcDbLine
 62
250
  6
CONTINUOUS
 10
-19.0203059103
 20
22.465799837
 11
-19.0207713197
 21
22.7325020696
  0
LINE
  5
26D
100
AcDbEntity
  8
RACCORDO
100
AcDbLine
 62
7
  6
CONTINUOUS
 10
-18.65
 20
21.7381238696
 11
-18.65
 21
23.2618761304
  0
LINE
  5
26E
100
AcDbEntity
  8
RACCORDO
100
AcDbLine
 62
250
  6
CONTINUOUS
 10
-18.8796690088
 20
22.564045745
 11
-18.8793696343
 21
22.3041703134
  0
LINE
  5
26F
100
AcDbEntity
  8
RACCORDO
100
AcDbLine
 62
250
  6
CONTINUOUS
 10
-18.6796994693
 20
22.5469668797
 11
-18.6795853215
 21
22.4034063955
  0
LINE
  5
270
100
AcDbEntity
  8
RACCORDO
100
AcDbLine
 62
250
  6
CONTINUOUS
 10
-19.2207390189
 20
22.3293923857
 11
-19.2202754496
 21
22.4749198805
  0
LINE
  5
271
100
AcDbEntity
  8
RACCORDO
100
AcDbLine
 62
250
  6
CONTINUOUS
 10
-19.021073949
 20
22.2042289459
 11
-19.0203059103
 21
22.465799837
  0
LINE
  5
272
100
AcDbEntity
  8
RACCORDO
100
AcDbLine
 62
250
  6
CONTINUOUS
 10
-18.8788109319
 20
22.8159292578
 11
-18.8796690088
 21
22.564045745
  0
LINE
  5
273
100
AcDbEntity
  8
RACCORDO
100
AcDbLine
 62
250
  6
CONTINUOUS
 10
-18.6791607399
 20
22.6872951463
 11
-18.6796994693
 21
22.5469668797
  0
LINE
  5
274
100
AcDbEntity
  8
RACCORDO
100
AcDbLine
 62
250
  6
CONTINUOUS
 10
-19.0224026731
 20
22.0311148654
 11
-19.021073949
 21
22.2042289459
  0
LINE
  5
275
100
AcDbEntity
  8
RACCORDO
100
AcDbLine
 62
250
  6
CONTINUOUS
 10
-18.8774668326
 20
22.9813349933
 11
-18.8788109319
 21
22.8159292578
  0
LINE
  5
276
100
AcDbEntity
  8
RACCORDO
100
AcDbLine
 62
250
  6
CONTINUOUS
 10
-19.2218638015
 20
22.1961237328
 11
-19.2207390189
 21
22.3293923857
  0
LINE
  5
277
100
AcDbEntity
  8
RACCORDO
100
AcDbLine
 62
250
  6
CONTINUOUS
 10
-18.6780060536
 20
22.8148353811
 11
-18.6791607399
 21
22.6872951463
  0
LINE
  5
278
100
AcDbEntity
  8
RACCORDO
100
AcDbLine
 62
250
  6
CONTINUOUS
 10
-19.0235989062
 20
21.9339008114
 11
-19.0224026731
 21
22.0311148654
  0
LINE
  5
279
100
AcDbEntity
  8
RACCORDO
100
AcDbLine
 62
250
  6
CONTINUOUS
 10
-18.8762830899
 20
23.0739811214
 11
-18.8774668326
 21
22.9813349933
  0
LINE
  5
27A
100
AcDbEntity
  8
RACCORDO
100
AcDbLine
 62
250
  6
CONTINUOUS
 10
-19.2229450175
 20
22.118902668
 11
-19.2218638015
 21
22.1961237328
  0
LINE
  5
27B
100
AcDbEntity
  8
RACCORDO
100
AcDbLine
 62
250
  6
CONTINUOUS
 10
-18.6769288065
 20
22.8884850368
 11
-18.6780060536
 21
22.8148353811
  0
LWPOLYLINE
  5
27C
100
AcDbEntity
  8
RACCORDO
100
AcDbPolyline
 62
250
  6
CONTINUOUS
 90
6
 70
0
 10
-19.0282292105
 20
21.7613941852
 10
-19.0273708884
 20
21.7761874328
 10
-19.0265472082
 20
21.7968686206
 10
-19.0257581699
 20
21.8232420425
 10
-19.0249984836
 20
21.855047129
 10
-19.0235989062
 20
21.9339008114
  0
LWPOLYLINE
  5
27D
100
AcDbEntity
  8
RACCORDO
100
AcDbPolyline
 62
250
  6
CONTINUOUS
 90
6
 70
0
 10
-18.8717707959
 20
23.2386058148
 10
-18.8726026385
 20
23.2243526601
 10
-18.8734025637
 20
23.2045559119
 10
-18.8741705714
 20
23.1793885682
 10
-18.8749115781
 20
23.1490803974
 10
-18.8762830899
 20
23.0739811214
  0
LWPOLYLINE
  5
27E
100
AcDbEntity
  8
RACCORDO
100
AcDbPolyline
 62
250
  6
CONTINUOUS
 90
13
 70
0
 10
-18.6718013234
 20
21.9583557358
 10
-18.6735844555
 20
21.9326962946
 10
-18.6787455583
 20
21.9074742035
 10
-18.687196664
 20
21.8831193581
 10
-18.6987937282
 20
21.8600468725
 10
-18.713339086
 20
21.8386500036
 10
-18.7305848203
 20
21.8192934484
 10
-18.7502369877
 20
21.802307128
 10
-18.7719606286
 20
21.7879805644
 10
-18.7953854764
 20
21.7765579455
 10
-18.8201122683
 20
21.7682339632
 10
-18.8457195507
 20
21.7631504948
 10
-18.8717708624
 20
21.7613941852
  0
LWPOLYLINE
  5
27F
100
AcDbEntity
  8
RACCORDO
100
AcDbPolyline
 62
250
  6
CONTINUOUS
 90
13
 70
0
 10
-19.5961056179
 20
-13.4151643002
 10
-19.5975290622
 20
-13.4346047185
 10
-19.6014268603
 20
-13.4537163383
 10
-19.6077330879
 20
-13.472175922
 10
-19.6163410871
 20
-13.4896712601
 10
-19.6271052694
 20
-13.5059064517
 10
-19.6398435788
 20
-13.5206069085
 10
-19.6543405705
 20
-13.5335239999
 10
-19.6703510547
 20
-13.5444392572
 10
-19.687604244
 20
-13.5531680693
 10
-19.7058083329
 20
-13.5595628046
 10
-19.724655433
 20
-13.5635153081
 10
-19.7438267808
 20
-13.5649587304
  0
LWPOLYLINE
  5
280
100
AcDbEntity
  8
RACCORDO
100
AcDbPolyline
 62
250
  6
CONTINUOUS
 90
7
 70
0
 10
-18.6718013234
 20
23.0416442642
 10
-18.6726330506
 20
23.0309325829
 10
-18.673432906
 20
23.0164572558
 10
-18.6742008897
 20
22.9982182829
 10
-18.6749419434
 20
22.9760272383
 10
-18.6756511255
 20
22.950072548
 10
-18.6769288065
 20
22.8884850368
  0
LINE
  5
281
100
AcDbEntity
  8
DRAFT
100
AcDbLine
 62
7
  6
CONTINUOUS
 10
-21.2042531448
 20
-24.8176673717
 11
-21.2292140383
 21
-25.1212710891
  0
LINE
  5
282
100
AcDbEntity
  8
RACCORDO
100
AcDbLine
 62
7
  6
CONTINUOUS
 10
-4.9
 20
23.2
 11
-4.9156727585
 21
23.1843272415
  0
LINE
  5
283
100
AcDbEntity
  8
RACCORDO
100
AcDbLine
 62
250
  6
CONTINUOUS
 10
-6.4065079259
 20
20.1151224438
 11
-6.5291663455
 21
20.028780611
  0
LWPOLYLINE
  5
284
100
AcDbEntity
  8
0
100
AcDbPolyline
 62
7
  6
CONTINUOUS
 90
16
 70
0
 10
1.8164592223
 20
-19.9893499897
 10
1.8277912427
 20
-19.989186837
 10
1.8390946275
 20
-19.9886392157
 10
1.8503693768
 20
-19.9877071257
 10
1.8616268087
 20
-19.986408482
 10
1.872855605
 20
-19.9847253697
 10
1.8840218113
 20
-19.9826040444
 10
1.8951391329
 20
-19.9800535003
 10
1.9061938645
 20
-19.9770647432
 10
1.9171109354
 20
-19.9735570455
 10
1.9279203457
 20
-19.9695257674
 10
1.9385920954
 20
-19.9649755486
 10
1.9489611135
 20
-19.9598395806
 10
1.9589723764
 20
-19.9540955939
 10
1.9686809077
 20
-19.947765858
 10
1.9780867075
 20
-19.9408503729
  0
LWPOLYLINE
  5
285
100
AcDbEntity
  8
0
100
AcDbPolyline
 62
7
  6
CONTINUOUS
 90
16
 70
0
 10
0.3785616593
 20
-19.9893499897
 10
0.3898936797
 20
-19.989186837
 10
0.4011970645
 20
-19.9886392157
 10
0.4124718138
 20
-19.9877071257
 10
0.4237292457
 20
-19.986408482
 10
0.4349580421
 20
-19.9847253697
 10
0.4461242484
 20
-19.9826040444
 10
0.45724157
 20
-19.9800535003
 10
0.4682963015
 20
-19.9770647432
 10
0.4792133724
 20
-19.9735570455
 10
0.4900227827
 20
-19.9695257674
 10
0.5006945324
 20
-19.9649755486
 10
0.5110635505
 20
-19.9598395806
 10
0.5210748134
 20
-19.9540955939
 10
0.5307833447
 20
-19.947765858
 10
0.5401891445
 20
-19.9408503729
  0
LWPOLYLINE
  5
286
100
AcDbEntity
  8
0
100
AcDbPolyline
 62
7
  6
CONTINUOUS
 90
16
 70
0
 10
-1.0593359036
 20
-19.9893499897
 10
-1.0480038994
 20
-19.9891868358
 10
-1.0367005311
 20
-19.9886392125
 10
-1.0254257987
 20
-19.98770712
 10
-1.014168384
 20
-19.9864084727
 10
-1.0029396052
 20
-19.9847253561
 10
-0.9917734171
 20
-19.9826040267
 10
-0.9806561143
 20
-19.9800534789
 10
-0.9696014021
 20
-19.9770647182
 10
-0.9586843509
 20
-19.9735570183
 10
-0.9478749609
 20
-19.9695257395
 10
-0.9372032319
 20
-19.9649755215
 10
-0.9268342336
 20
-19.9598395566
 10
-0.9168229893
 20
-19.9540955756
 10
-0.9071144756
 20
-19.9477658477
 10
-0.8977086927
 20
-19.9408503729
  0
LWPOLYLINE
  5
287
100
AcDbEntity
  8
0
100
AcDbPolyline
 62
7
  6
CONTINUOUS
 90
7
 70
0
 10
-4.103734
 20
-18.8600276687
 10
-4.0682057157
 20
-18.859686449
 10
-4.033527768
 20
-18.8582092414
 10
-3.9997001567
 20
-18.8555960461
 10
-3.9667228821
 20
-18.8518468628
 10
-3.9345959439
 20
-18.8469616918
 10
-3.9033193422
 20
-18.8409405329
  0
LWPOLYLINE
  5
288
100
AcDbEntity
  8
0
100
AcDbPolyline
 62
7
  6
CONTINUOUS
 90
16
 70
0
 10
-3.9669431282
 20
-19.9861688004
 10
-3.9563232192
 20
-19.9861196027
 10
-3.9457137009
 20
-19.9858318086
 10
-3.9351145736
 20
-19.985305418
 10
-3.9245225441
 20
-19.9845637947
 10
-3.9139409054
 20
-19.9835835749
 10
-3.9033795363
 20
-19.9822946681
 10
-3.8928262476
 20
-19.9807008624
 10
-3.8822932285
 20
-19.9787983697
 10
-3.8718269253
 20
-19.9765057344
 10
-3.8614088964
 20
-19.9738224098
 10
-3.8510575833
 20
-19.9707489426
 10
-3.8408747571
 20
-19.9672055176
 10
-3.8308943413
 20
-19.9631655296
 10
-3.8210824123
 20
-19.9586555839
 10
-3.8114389702
 20
-19.9536756803
  0
LINE
  5
289
100
AcDbEntity
  8
0
100
AcDbLine
 62
7
  6
CONTINUOUS
 10
-2.516321
 20
-20.151591
 11
-2.252282
 21
-20.151591
  0
LINE
  5
28A
100
AcDbEntity
  8
0
100
AcDbLine
 62
7
  6
CONTINUOUS
 10
2.761273
 20
-20.151591
 11
3.031674
 21
-20.151591
  0
LINE
  5
28B
100
AcDbEntity
  8
0
100
AcDbLine
 62
7
  6
CONTINUOUS
 10
3.387967
 20
-20.151591
 11
4.523651
 21
-20.151591
  0
LINE
  5
28C
100
AcDbEntity
  8
0
100
AcDbLine
 62
7
  6
CONTINUOUS
 10
4.523651
 20
-19.951176
 11
3.664731
 21
-19.951176
  0
LINE
  5
28D
100
AcDbEntity
  8
0
100
AcDbLine
 62
7
  6
CONTINUOUS
 10
3.031674
 20
-19.852559
 11
2.761273
 21
-19.852559
  0
LINE
  5
28E
100
AcDbEntity
  8
0
100
AcDbLine
 62
7
  6
CONTINUOUS
 10
-4.2659749566
 20
-19.582158
 11
-4.5268325048
 21
-19.582158
  0
LINE
  5
28F
100
AcDbEntity
  8
0
100
AcDbLine
 62
7
  6
CONTINUOUS
 10
3.407054
 20
-18.41148
 11
3.6679116683
 21
-18.41148
  0
LINE
  5
290
100
AcDbEntity
  8
0
100
AcDbLine
 62
7
  6
CONTINUOUS
 10
-4.495021
 20
-18.395574
 11
-4.2405254422
 21
-18.395574
  0
LWPOLYLINE
  5
291
100
AcDbEntity
  8
0
100
AcDbPolyline
 62
7
  6
CONTINUOUS
 90
22
 70
0
 10
-3.9573995603
 20
-20.1865837455
 10
-3.9804293089
 20
-20.186483652
 10
-4.0033761021
 20
-20.1859320016
 10
-4.0262399398
 20
-20.1849287945
 10
-4.0490277638
 20
-20.1835207828
 10
-4.0717326324
 20
-20.1816612143
 10
-4.0943337205
 20
-20.1792098321
 10
-4.1168380013
 20
-20.176177747
 10
-4.1392385016
 20
-20.1725538482
 10
-4.1614934771
 20
-20.1681645471
 10
-4.183636085
 20
-20.1630157521
 10
-4.2056331681
 20
-20.1571015547
 10
-4.2273435109
 20
-20.1502306411
 10
-4.2488095907
 20
-20.142385556
 10
-4.2699889302
 20
-20.1335837546
 10
-4.2906128816
 20
-20.1236862884
 10
-4.3106871263
 20
-20.1126751974
 10
-4.3302059829
 20
-20.1005684415
 10
-4.3488837596
 20
-20.0872809529
 10
-4.366625226
 20
-20.0727843755
 10
-4.3835256125
 20
-20.0571070654
 10
-4.3995849191
 20
-20.0402490226
  0
LWPOLYLINE
  5
292
100
AcDbEntity
  8
0
100
AcDbPolyline
 62
7
  6
CONTINUOUS
 90
19
 70
0
 10
-1.0593359036
 20
-20.1897649369
 10
-1.0770496225
 20
-20.1896463947
 10
-1.0947370948
 20
-20.1891650817
 10
-1.1123983206
 20
-20.1883209981
 10
-1.1300403911
 20
-20.1871375812
 10
-1.1476562151
 20
-20.1855913936
 10
-1.1652245188
 20
-20.1836121231
 10
-1.1827474121
 20
-20.1812041031
 10
-1.2002227852
 20
-20.1783630002
 10
-1.2176230349
 20
-20.1750055008
 10
-1.2349708011
 20
-20.1711288153
 10
-1.2522434438
 20
-20.1667357333
 10
-1.2693454408
 20
-20.1617513103
 10
-1.2862807457
 20
-20.1561753291
 10
-1.3030454049
 20
-20.1500080068
 10
-1.319532035
 20
-20.1431750507
 10
-1.3357048416
 20
-20.1356516965
 10
-1.3515996191
 20
-20.1274627085
 10
-1.3672163676
 20
-20.1186080867
  0
LWPOLYLINE
  5
293
100
AcDbEntity
  8
0
100
AcDbPolyline
 62
7
  6
CONTINUOUS
 90
19
 70
0
 10
0.3785616593
 20
-20.1897649369
 10
0.3608479554
 20
-20.1896463939
 10
0.343160498
 20
-20.1891650797
 10
0.3254992872
 20
-20.1883209944
 10
0.3078572317
 20
-20.1871375751
 10
0.2902414227
 20
-20.1855913847
 10
0.2726731341
 20
-20.1836121112
 10
0.2551502561
 20
-20.1812040884
 10
0.2376748984
 20
-20.1783629825
 10
0.2202746642
 20
-20.1750054807
 10
0.2029269139
 20
-20.1711287933
 10
0.1856542872
 20
-20.16673571
 10
0.1685523062
 20
-20.1617512867
 10
0.1516170172
 20
-20.1561753062
 10
0.1348523738
 20
-20.1500079858
 10
0.118365759
 20
-20.1431750329
 10
0.1021929672
 20
-20.1356516833
 10
0.0862982041
 20
-20.1274627013
 10
0.0706814695
 20
-20.1186080867
  0
LWPOLYLINE
  5
294
100
AcDbEntity
  8
0
100
AcDbPolyline
 62
7
  6
CONTINUOUS
 90
19
 70
0
 10
1.8164592223
 20
-20.1897649369
 10
1.7987455184
 20
-20.1896463939
 10
1.781058061
 20
-20.1891650797
 10
1.7633968502
 20
-20.1883209944
 10
1.7457547947
 20
-20.1871375751
 10
1.7281389857
 20
-20.1855913847
 10
1.7105706971
 20
-20.1836121112
 10
1.6930478191
 20
-20.1812040884
 10
1.6755724613
 20
-20.1783629825
 10
1.6581722272
 20
-20.1750054807
 10
1.6408244769
 20
-20.1711287933
 10
1.6235518502
 20
-20.16673571
 10
1.6064498692
 20
-20.1617512867
 10
1.5895145802
 20
-20.1561753062
 10
1.5727499368
 20
-20.1500079858
 10
1.556263322
 20
-20.1431750329
 10
1.5400905302
 20
-20.1356516833
 10
1.5241957671
 20
-20.1274627013
 10
1.5085790325
 20
-20.1186080867
  0
LWPOLYLINE
  5
295
100
AcDbEntity
  8
0
100
AcDbPolyline
 62
7
  6
CONTINUOUS
 90
7
 70
0
 10
-3.8905945851
 20
-19.0827109882
 10
-3.9238907532
 20
-19.0759960586
 10
-3.9580777484
 20
-19.0704825459
 10
-3.9931555707
 20
-19.0661704499
 10
-4.0291242201
 20
-19.0630597708
 10
-4.0659836965
 20
-19.0611505085
 10
-4.103734
 20
-19.0604426631
  0
LWPOLYLINE
  5
296
100
AcDbEntity
  8
0
100
AcDbPolyline
 62
7
  6
CONTINUOUS
 90
7
 70
0
 10
-3.7378974987
 20
-18.9554633477
 10
-3.7039145567
 20
-18.962424771
 10
-3.671682139
 20
-18.9711051214
 10
-3.6412002457
 20
-18.9815043988
 10
-3.6124688766
 20
-18.9936226033
 10
-3.585488032
 20
-19.0074597347
 10
-3.5602577116
 20
-19.0230157932
  0
LINE
  5
297
100
AcDbEntity
  8
RACCORDO
100
AcDbLine
 62
250
  6
CONTINUOUS
 10
-19.7438267808
 20
-13.5649587304
 11
-19.3928500694
 21
-13.6692757779
  0
LINE
  5
298
100
AcDbEntity
  8
RACCORDO
100
AcDbLine
 62
250
  6
CONTINUOUS
 10
-19.5961056179
 20
-13.4151643002
 11
-19.2442591244
 21
-13.5197398637
  0
LWPOLYLINE
  5
299
100
AcDbEntity
  8
DRAFT
100
AcDbPolyline
 62
7
  6
CONTINUOUS
 90
5
 70
0
 10
-20.9269851416
 20
-11.7416148222
 10
-20.9187970326
 20
-11.7450915781
 10
-20.9106660026
 20
-11.7484800381
 10
-20.9026185195
 20
-11.7517783108
 10
-20.8946545832
 20
-11.7549863962
  0
LINE
  5
29A
100
AcDbEntity
  8
DRAFT
100
AcDbLine
 62
7
  6
CONTINUOUS
 10
-20.9436914034
 20
-11.7343850746
 11
-20.9269851416
 21
-11.7416148222
  0
LINE
  5
29B
100
AcDbEntity
  8
DRAFT
100
AcDbLine
 62
7
  6
CONTINUOUS
 10
-20.970052324
 20
-11.722815819
 11
-20.9436914034
 21
-11.7343850746
  0
LINE
  5
29C
100
AcDbEntity
  8
DRAFT
100
AcDbLine
 62
7
  6
CONTINUOUS
 10
-21.0389581711
 20
-11.6921408703
 11
-20.970052324
 21
-11.722815819
  0
LINE
  5
29D
100
AcDbEntity
  8
DRAFT
100
AcDbLine
 62
7
  6
CONTINUOUS
 10
-21.1328427125
 20
-11.65
 11
-21.0389581711
 21
-11.6921408703
  0
LWPOLYLINE
  5
29E
100
AcDbEntity
  8
0
100
AcDbPolyline
 62
7
  6
CONTINUOUS
 90
13
 70
0
 10
-4.1132778668
 20
-19.9575380898
 10
-4.1019894266
 20
-19.9626931813
 10
-4.0904931744
 20
-19.9672913047
 10
-4.0787891103
 20
-19.97133246
 10
-4.0668418174
 20
-19.9747836016
 10
-4.0546867125
 20
-19.9776777751
 10
-4.0424300465
 20
-19.980114118
 10
-4.0301082229
 20
-19.9820940908
 10
-4.0176848382
 20
-19.9836162329
 10
-4.0051569323
 20
-19.9847752994
 10
-3.9925235187
 20
-19.9856028753
 10
-3.979785584
 20
-19.9860673757
 10
-3.9669431282
 20
-19.9861688004
  0
LINE
  5
29F
100
AcDbEntity
  8
RACCORDO
100
AcDbLine
 62
250
  6
CONTINUOUS
 10
-19.2281986766
 20
23.0416442642
 11
-19.25
 21
23.2618761304
  0
LINE
  5
2A0
100
AcDbEntity
  8
RACCORDO
100
AcDbLine
 62
250
  6
CONTINUOUS
 10
-19.0282291376
 20
23.2386058148
 11
-19.0505757424
 21
23.4643459867
  0
LINE
  5
2A1
100
AcDbEntity
  8
RACCORDO
100
AcDbLine
 62
250
  6
CONTINUOUS
 10
-18.8717708624
 20
21.7613941852
 11
-18.8494242576
 21
21.5356540133
  0
LINE
  5
2A2
100
AcDbEntity
  8
RACCORDO
100
AcDbLine
 62
250
  6
CONTINUOUS
 10
-18.6718013234
 20
21.9583557358
 11
-18.65
 21
21.7381238696
  0
LWPOLYLINE
  5
2A3
100
AcDbEntity
  8
RACCORDO
100
AcDbPolyline
 62
250
  6
CONTINUOUS
 90
13
 70
0
 10
-19.2281986766
 20
21.9583557358
 10
-19.2264157478
 20
21.9326977843
 10
-19.2212551567
 20
21.9074768075
 10
-19.2128047343
 20
21.8831226658
 10
-19.201208378
 20
21.8600504551
 10
-19.1866636276
 20
21.8386534821
 10
-19.1694183244
 20
21.8192965457
 10
-19.1497663193
 20
21.8023096308
 10
-19.1280425185
 20
21.7879823593
 10
-19.1046172401
 20
21.7765590595
 10
-19.0798897792
 20
21.7682345084
 10
-19.0542815793
 20
21.763150644
 10
-19.0282291377
 20
21.7613941844
  0
LWPOLYLINE
  5
2A4
100
AcDbEntity
  8
RACCORDO
100
AcDbPolyline
 62
250
  6
CONTINUOUS
 90
13
 70
0
 10
-18.6718013234
 20
23.0416442642
 10
-18.6735842202
 20
23.0673019831
 10
-18.678744731
 20
23.0925227853
 10
-18.6871950456
 20
23.1168768159
 10
-18.6987912894
 20
23.1399489818
 10
-18.7133359421
 20
23.161345969
 10
-18.730581175
 20
23.1807029639
 10
-18.7502331521
 20
23.1976899716
 10
-18.7719569759
 20
23.2120173543
 10
-18.7953823213
 20
23.2234407621
 10
-18.8201098892
 20
23.2317654041
 10
-18.8457182372
 20
23.2368493318
 10
-18.8717708624
 20
23.2386058147
  0
LWPOLYLINE
  5
2A5
100
AcDbEntity
  8
RACCORDO
100
AcDbPolyline
 62
250
  6
CONTINUOUS
 90
4
 70
0
 10
-18.874065344
 20
21.8168265821
 10
-18.8733498025
 20
21.7940940539
 10
-18.8725849617
 20
21.7754017016
 10
-18.8717708214
 20
21.7613941852
  0
LWPOLYLINE
  5
2A6
100
AcDbEntity
  8
RACCORDO
100
AcDbPolyline
 62
250
  6
CONTINUOUS
 90
6
 70
0
 10
-18.6753658683
 20
22.0385724063
 10
-18.6747553766
 20
22.0175334243
 10
-18.6740956348
 20
21.9990061608
 10
-18.6733801144
 20
21.9829443006
 10
-18.6726153439
 20
21.969394159
 10
-18.6718013234
 20
21.9583557358
  0
LINE
  5
2A7
100
AcDbEntity
  8
RACCORDO
100
AcDbLine
 62
250
  6
CONTINUOUS
 10
-18.6765051714
 20
22.0884191732
 11
-18.6753658683
 21
22.0385724063
  0
LINE
  5
2A8
100
AcDbEntity
  8
RACCORDO
100
AcDbLine
 62
250
  6
CONTINUOUS
 10
-15.9299475147
 20
19.8
 11
-15.9299475147
 21
19.95
  0
LWPOLYLINE
  5
2A9
100
AcDbEntity
  8
0
100
AcDbPolyline
 62
7
  6
CONTINUOUS
 90
10
 70
0
 10
-3.9033193422
 20
-18.8409405329
 10
-3.8859854131
 20
-18.8364798648
 10
-3.8691259163
 20
-18.8311081005
 10
-3.852740852
 20
-18.8248252402
 10
-3.8367809407
 20
-18.8176090189
 10
-3.8212954618
 20
-18.8094817015
 10
-3.8064322534
 20
-18.8005100825
 10
-3.7922405947
 20
-18.7907164267
 10
-3.7786712064
 20
-18.7800784694
 10
-3.7657240886
 20
-18.7685962106
  0
LWPOLYLINE
  5
2AA
100
AcDbEntity
  8
RACCORDO
100
AcDbPolyline
 62
250
  6
CONTINUOUS
 90
12
 70
0
 10
19.7438267808
 20
-13.5649587304
 10
19.7513290335
 20
-13.5632859994
 10
19.7610475426
 20
-13.5617016901
 10
19.7729823081
 20
-13.5602058024
 10
19.7874828141
 20
-13.5587887577
 10
19.8041995764
 20
-13.5574601347
 10
19.8220841426
 20
-13.5562486687
 10
19.841093451
 20
-13.5551657587
 10
19.8612705632
 20
-13.5542000057
 10
19.8816962114
 20
-13.5533459484
 10
19.9019665266
 20
-13.552612538
 10
19.9224853778
 20
-13.5519908233
  0
LWPOLYLINE
  5
2AB
100
AcDbEntity
  8
RACCORDO
100
AcDbPolyline
 62
250
  6
CONTINUOUS
 90
9
 70
0
 10
19.5961056179
 20
-13.4151644837
 10
19.6062532059
 20
-13.4134914248
 10
19.6202472274
 20
-13.411906913
 10
19.637756365
 20
-13.4104109483
 10
19.65853144
 20
-13.4089940189
 10
19.6821529347
 20
-13.4076656365
 10
19.7079018508
 20
-13.406454337
 10
19.7352295482
 20
-13.4053714226
 10
19.7637898864
 20
-13.4044055912
  0
LWPOLYLINE
  5
2AC
100
AcDbEntity
  8
0
100
AcDbPolyline
 62
7
  6
CONTINUOUS
 90
7
 70
0
 10
-3.9478559924
 20
-18.0138313153
 10
-3.9748168255
 20
-18.0147305725
 10
-4.0007489746
 20
-18.0173909202
 10
-4.0256524397
 20
-18.0218123582
 10
-4.0495272208
 20
-18.0279948868
 10
-4.0723733179
 20
-18.0359385057
 10
-4.094190731
 20
-18.0456432151
  0
LWPOLYLINE
  5
2AD
100
AcDbEntity
  8
0
100
AcDbPolyline
 62
7
  6
CONTINUOUS
 90
10
 70
0
 10
3.973305841
 20
-18.010650126
 10
3.9451758297
 20
-18.0115213424
 10
3.9182984881
 20
-18.0141524735
 10
3.892673816
 20
-18.0185435195
 10
3.8681359711
 20
-18.0247393636
 10
3.8448507958
 20
-18.0326951225
 10
3.8233158172
 20
-18.042276146
 10
3.8036968776
 20
-18.0534375506
 10
3.7858281348
 20
-18.0662242198
 10
3.7697095888
 20
-18.0806361535
  0
LWPOLYLINE
  5
2AE
100
AcDbEntity
  8
0
100
AcDbPolyline
 62
7
  6
CONTINUOUS
 90
16
 70
0
 10
1.8196402745
 20
-18.0138313153
 10
1.8078797444
 20
-18.0139505162
 10
1.7961693724
 20
-18.0145084568
 10
1.7845091588
 20
-18.015505137
 10
1.7728819274
 20
-18.0169256506
 10
1.7613048543
 20
-18.0187849038
 10
1.7498294673
 20
-18.0211276154
 10
1.7384485272
 20
-18.0239631781
 10
1.7271692731
 20
-18.0272821993
 10
1.7160649508
 20
-18.0311012193
 10
1.7051244398
 20
-18.0354190078
 10
1.6943588604
 20
-18.0402367951
 10
1.6838748194
 20
-18.0455748126
 10
1.6737078523
 20
-18.0514398038
 10
1.6638224234
 20
-18.0578250251
 10
1.6542185329
 20
-18.0647304766
  0
LWPOLYLINE
  5
2AF
100
AcDbEntity
  8
0
100
AcDbPolyline
 62
7
  6
CONTINUOUS
 90
16
 70
0
 10
0.3817427116
 20
-18.0138313153
 10
0.3699821814
 20
-18.0139505162
 10
0.3582718095
 20
-18.0145084568
 10
0.3466115958
 20
-18.015505137
 10
0.3349843644
 20
-18.0169256506
 10
0.3234072913
 20
-18.0187849038
 10
0.3119319043
 20
-18.0211276154
 10
0.3005509642
 20
-18.0239631781
 10
0.2892717102
 20
-18.0272821993
 10
0.2781673878
 20
-18.0311012193
 10
0.2672268768
 20
-18.0354190078
 10
0.2564612974
 20
-18.0402367951
 10
0.2459772564
 20
-18.0455748126
 10
0.2358102893
 20
-18.0514398038
 10
0.2259248604
 20
-18.0578250252
 10
0.2163209699
 20
-18.0647304766
  0
LWPOLYLINE
  5
2B0
100
AcDbEntity
  8
0
100
AcDbPolyline
 62
7
  6
CONTINUOUS
 90
16
 70
0
 10
-1.0561548514
 20
-18.0138313153
 10
-1.0679153817
 20
-18.0139505144
 10
-1.0796257542
 20
-18.0145084509
 10
-1.0912859692
 20
-18.0155051247
 10
-1.1029132022
 20
-18.0169256291
 10
-1.1144902776
 20
-18.0187848708
 10
-1.1259656682
 20
-18.0211275705
 10
-1.1373466137
 20
-18.0239631208
 10
-1.1486258743
 20
-18.0272821291
 10
-1.1597302036
 20
-18.0311011387
 10
-1.1706707227
 20
-18.0354189193
 10
-1.1814363105
 20
-18.0402367012
 10
-1.1919203574
 20
-18.0455747178
 10
-1.2020873271
 20
-18.0514397139
 10
-1.2119727559
 20
-18.0578249447
 10
-1.221576644
 20
-18.0647304103
  0
LINE
  5
2B1
100
AcDbEntity
  8
0
100
AcDbLine
 62
7
  6
CONTINUOUS
 10
-2.252282
 20
-17.851591
 11
-2.487690307
 21
-17.851591
  0
LINE
  5
2B2
100
AcDbEntity
  8
RACCORDO
100
AcDbLine
 62
7
  6
CONTINUOUS
 10
4.75
 20
-17.0
 11
-4.75
 21
-17.0
  0
LINE
  5
2B3
100
AcDbEntity
  8
0
100
AcDbLine
 62
7
  6
CONTINUOUS
 10
-21.35
 20
-16.25
 11
-20.35
 21
-16.25
  0
LINE
  5
2B4
100
AcDbEntity
  8
0
100
AcDbLine
 62
7
  6
CONTINUOUS
 10
20.35
 20
-16.25
 11
21.35
 21
-16.25
  0
LWPOLYLINE
  5
2B5
100
AcDbEntity
  8
0
100
AcDbPolyline
 62
7
  6
CONTINUOUS
 90
19
 70
0
 10
-1.0561548514
 20
-17.8134163895
 10
-1.0390026807
 20
-17.8135178601
 10
-1.021873803
 20
-17.8139564308
 10
-1.0047682183
 20
-17.8147321015
 10
-0.9876795684
 20
-17.8158201853
 10
-0.9706142115
 20
-17.8172453691
 10
-0.9535912227
 20
-17.8190817138
 10
-0.9366086153
 20
-17.8213249724
 10
-0.919668376
 20
-17.8239793918
 10
-0.9027955406
 20
-17.8271317734
 10
-0.8859670759
 20
-17.8307849645
 10
-0.8692060151
 20
-17.8349361178
 10
-0.8526064932
 20
-17.839663493
 10
-0.8361648334
 20
-17.8449695599
 10
-0.8198847125
 20
-17.8508518487
 10
-0.8038712959
 20
-17.8573812096
 10
-0.7881596387
 20
-17.8645812594
 10
-0.7727146858
 20
-17.8724283812
 10
-0.7575364372
 20
-17.8809225752
  0
LWPOLYLINE
  5
2B6
100
AcDbEntity
  8
0
100
AcDbPolyline
 62
7
  6
CONTINUOUS
 90
19
 70
0
 10
0.3817427116
 20
-17.8134163895
 10
0.3988948965
 20
-17.81351786
 10
0.4160237883
 20
-17.8139564306
 10
0.4331293871
 20
-17.814732101
 10
0.4502180511
 20
-17.8158201845
 10
0.4672834219
 20
-17.8172453679
 10
0.4843064248
 20
-17.819081712
 10
0.5012890465
 20
-17.82132497
 10
0.5182293003
 20
-17.8239793887
 10
0.5351021505
 20
-17.8271317695
 10
0.5519306303
 20
-17.8307849597
 10
0.5686917065
 20
-17.8349361121
 10
0.5852912443
 20
-17.8396634864
 10
0.6017329203
 20
-17.8449695517
 10
0.6180130578
 20
-17.850851839
 10
0.6340264911
 20
-17.8573811997
 10
0.6497381649
 20
-17.8645812513
 10
0.6651831345
 20
-17.8724283765
 10
0.6803613999
 20
-17.8809225752
  0
LWPOLYLINE
  5
2B7
100
AcDbEntity
  8
0
100
AcDbPolyline
 62
7
  6
CONTINUOUS
 90
19
 70
0
 10
1.8196402745
 20
-17.8134163895
 10
1.8367924595
 20
-17.81351786
 10
1.8539213513
 20
-17.8139564306
 10
1.8710269501
 20
-17.814732101
 10
1.888115614
 20
-17.8158201845
 10
1.9051809849
 20
-17.8172453679
 10
1.9222039878
 20
-17.819081712
 10
1.9391866095
 20
-17.82132497
 10
1.9561268633
 20
-17.8239793886
 10
1.9729997134
 20
-17.8271317695
 10
1.9898281933
 20
-17.8307849597
 10
2.0065892695
 20
-17.8349361121
 10
2.0231888072
 20
-17.8396634864
 10
2.0396304833
 20
-17.8449695517
 10
2.0559106208
 20
-17.8508518389
 10
2.0719240541
 20
-17.8573811997
 10
2.0876357279
 20
-17.8645812513
 10
2.1030806975
 20
-17.8724283765
 10
2.1182589629
 20
-17.8809225752
  0
LWPOLYLINE
  5
2B8
100
AcDbEntity
  8
0
100
AcDbPolyline
 62
7
  6
CONTINUOUS
 90
19
 70
0
 10
-3.9414936138
 20
-17.8134163895
 10
-3.916435327
 20
-17.8136060307
 10
-3.8914759983
 20
-17.8144688993
 10
-3.8666156277
 20
-17.8160049953
 10
-3.8418323821
 20
-17.8181555006
 10
-3.8171480945
 20
-17.8209792334
 10
-3.7926282648
 20
-17.8246526474
 10
-3.7682615824
 20
-17.8291570079
 10
-3.7440593579
 20
-17.8345110496
 10
-3.7201210227
 20
-17.8409474315
 10
-3.6963710001
 20
-17.8484799921
 10
-3.6728848667
 20
-17.8570948929
 10
-3.6499887841
 20
-17.8669832766
 10
-3.6276749388
 20
-17.8781812347
 10
-3.6059511443
 20
-17.8906526757
 10
-3.5851670027
 20
-17.9044804675
 10
-3.5654390481
 20
-17.9196922326
 10
-3.5466507463
 20
-17.9362603485
 10
-3.5288020975
 20
-17.9541848152
  0
LWPOLYLINE
  5
2B9
100
AcDbEntity
  8
0
100
AcDbPolyline
 62
7
  6
CONTINUOUS
 90
34
 70
0
 10
3.9860305982
 20
-17.8102350631
 10
4.0126772733
 20
-17.8105895289
 10
4.0391677295
 20
-17.8117545407
 10
4.0655019667
 20
-17.8137300986
 10
4.0917035557
 20
-17.8164797313
 10
4.1177489258
 20
-17.82003991
 10
4.1435673645
 20
-17.824520048
 10
4.1691664075
 20
-17.8298870373
 10
4.194538519
 20
-17.8361739859
 10
4.2195903788
 20
-17.8435896308
 10
4.244404081
 20
-17.8521258748
 10
4.2688975315
 20
-17.8617908151
 10
4.2927311277
 20
-17.8728174809
 10
4.3159657256
 20
-17.8852397493
 10
4.3385404693
 20
-17.8990237431
 10
4.3599331884
 20
-17.9143008595
 10
4.3800667165
 20
-17.9312050623
 10
4.39901822
 20
-17.9496023877
 10
4.4164970288
 20
-17.9692223417
 10
4.4323757546
 20
-17.9901649762
 10
4.4467817857
 20
-18.0123302393
 10
4.4598066165
 20
-18.0351474809
 10
4.4714080235
 20
-18.0585518854
 10
4.4816282301
 20
-18.0826082685
 10
4.4906854014
 20
-18.1069404271
 10
4.4985834269
 20
-18.1314451441
 10
4.5053184169
 20
-18.1562256366
 10
4.5110968674
 20
-18.1812153529
 10
4.5159602297
 20
-18.2064025832
 10
4.5198670523
 20
-18.2317990373
 10
4.522899477
 20
-18.2573732917
 10
4.5250848842
 20
-18.2831148722
 10
4.5263958935
 20
-18.3090342531
 10
4.5268325048
 20
-18.3351314344
  0
LWPOLYLINE
  5
2BA
100
AcDbEntity
  8
0
100
AcDbPolyline
 62
7
  6
CONTINUOUS
 90
7
 70
0
 10
-3.8085692554
 20
-18.0468624405
 10
-3.8295653468
 20
-18.0368595437
 10
-3.8514487841
 20
-18.0286557305
 10
-3.8742195674
 20
-18.0222510011
 10
-3.8978776965
 20
-18.0176453554
 10
-3.9224231715
 20
-18.0148387935
 10
-3.9478559924
 20
-18.0138313153
  0
LWPOLYLINE
  5
2BB
100
AcDbEntity
  8
0
100
AcDbPolyline
 62
7
  6
CONTINUOUS
 90
10
 70
0
 10
-1.3672163676
 20
-20.1186080867
 10
-1.3903370612
 20
-20.1032989541
 10
-1.4124807271
 20
-20.0861256602
 10
-1.4336473653
 20
-20.0670882049
 10
-1.453949251
 20
-20.0460858824
 10
-1.4732741091
 20
-20.0232193985
 10
-1.4912851142
 20
-19.998790871
 10
-1.5078699913
 20
-19.972901006
 10
-1.5231410153
 20
-19.9454490973
 10
-1.5370981864
 20
-19.9164351452
  0
LWPOLYLINE
  5
2BC
100
AcDbEntity
  8
0
100
AcDbPolyline
 62
7
  6
CONTINUOUS
 90
10
 70
0
 10
0.0706814695
 20
-20.1186080867
 10
0.0475606922
 20
-20.1032988988
 10
0.0254169556
 20
-20.0861255623
 10
0.0042502599
 20
-20.0670880774
 10
-0.0160516704
 20
-20.0460857367
 10
-0.0353765599
 20
-20.0232192475
 10
-0.0533875826
 20
-19.9987907316
 10
-0.069972463
 20
-19.9729008962
 10
-0.0852434767
 20
-19.945449034
 10
-0.0992006234
 20
-19.9164351452
  0
LWPOLYLINE
  5
2BD
100
AcDbEntity
  8
0
100
AcDbPolyline
 62
7
  6
CONTINUOUS
 90
10
 70
0
 10
1.5085790325
 20
-20.1186080867
 10
1.485458339
 20
-20.1032989542
 10
1.4633146731
 20
-20.0861256602
 10
1.4421480348
 20
-20.067088205
 10
1.4218461491
 20
-20.0460858824
 10
1.402521291
 20
-20.0232193985
 10
1.3845102859
 20
-19.9987908711
 10
1.3679254089
 20
-19.972901006
 10
1.3526543848
 20
-19.9454490973
 10
1.3386972137
 20
-19.9164351452
  0
LWPOLYLINE
  5
2BE
100
AcDbEntity
  8
0
100
AcDbPolyline
 62
7
  6
CONTINUOUS
 90
10
 70
0
 10
-3.5602577116
 20
-19.0230157932
 10
-3.5450754696
 20
-19.0341423393
 10
-3.5306510216
 20
-19.0458493309
 10
-3.5169843676
 20
-19.058136768
 10
-3.5040498678
 20
-19.071037879
 10
-3.491873162
 20
-19.0845194356
 10
-3.4805311698
 20
-19.0984817529
 10
-3.4700495308
 20
-19.1128916028
 10
-3.4604026053
 20
-19.1277822134
 10
-3.4515903933
 20
-19.1431535848
  0
LWPOLYLINE
  5
2BF
100
AcDbEntity
  8
0
100
AcDbPolyline
 62
7
  6
CONTINUOUS
 90
10
 70
0
 10
-1.2229811852
 20
-19.9401978259
 10
-1.2087948758
 20
-19.950727998
 10
-1.1935234278
 20
-19.9599901895
 10
-1.1771668415
 20
-19.9679844004
 10
-1.1596104318
 20
-19.9747095968
 10
-1.1409688837
 20
-19.9801668126
 10
-1.1215862515
 20
-19.9843591496
 10
-1.1015772197
 20
-19.9872876418
 10
-1.0808271038
 20
-19.9889512551
 10
-1.0593359036
 20
-19.9893499897
  0
LWPOLYLINE
  5
2C0
100
AcDbEntity
  8
0
100
AcDbPolyline
 62
7
  6
CONTINUOUS
 90
10
 70
0
 10
-3.7490662231
 20
-19.1574343748
 10
-3.7619518956
 20
-19.1455771775
 10
-3.7755920728
 20
-19.1345965442
 10
-3.7899867548
 20
-19.124492475
 10
-3.805195381
 20
-19.1152488555
 10
-3.821158512
 20
-19.1068818
 10
-3.8376978297
 20
-19.0994396512
 10
-3.8547538947
 20
-19.0929385234
 10
-3.8723861465
 20
-19.0873623024
 10
-3.8905945851
 20
-19.0827109882
  0
LWPOLYLINE
  5
2C1
100
AcDbEntity
  8
0
100
AcDbPolyline
 62
7
  6
CONTINUOUS
 90
22
 70
0
 10
-4.3995849191
 20
-20.0402490226
 10
-4.4143884467
 20
-20.0218527366
 10
-4.4280877636
 20
-20.0028260631
 10
-4.4406828697
 20
-19.9831690021
 10
-4.4521221443
 20
-19.9627911531
 10
-4.4624572081
 20
-19.9417829165
 10
-4.4718429236
 20
-19.9204154939
 10
-4.4802752749
 20
-19.8987134437
 10
-4.4877582779
 20
-19.8766522075
 10
-4.4944588425
 20
-19.8544293113
 10
-4.5003817013
 20
-19.8320730852
 10
-4.5055221217
 20
-19.8095551992
 10
-4.5100328156
 20
-19.7869881894
 10
-4.5139245296
 20
-19.7644052372
 10
-4.5171865172
 20
-19.7417731611
 10
-4.5199392508
 20
-19.7191049524
 10
-4.5221921383
 20
-19.6964125304
 10
-4.5239357719
 20
-19.6736839758
 10
-4.5252624005
 20
-19.6508965221
 10
-4.5262027736
 20
-19.6280425805
 10
-4.5267261417
 20
-19.6051297398
 10
-4.5268325048
 20
-19.582158
  0
LINE
  5
2C2
100
AcDbEntity
  8
RACCORDO
100
AcDbLine
 62
7
  6
CONTINUOUS
 10
-15.9
 20
21.35
 11
-15.9
 21
20.39
  0
LINE
  5
2C3
100
AcDbEntity
  8
RACCORDO
100
AcDbLine
 62
250
  6
CONTINUOUS
 10
-15.65
 20
21.6
 11
-15.65
 21
20.4845614035
  0
LINE
  5
2C4
100
AcDbEntity
  8
RACCORDO
100
AcDbLine
 62
7
  6
CONTINUOUS
 10
21.85
 20
-11.8852285942
 11
21.6950972632
 21
-11.8987808276
  0
LINE
  5
2C5
100
AcDbEntity
  8
DRAFT
100
AcDbLine
 62
7
  6
CONTINUOUS
 10
21.35
 20
-14.6618993734
 11
21.85
 21
-14.6366435717
  0
LINE
  5
2C6
100
AcDbEntity
  8
RACCORDO
100
AcDbLine
 62
250
  6
CONTINUOUS
 10
19.7637898864
 20
-13.4044055912
 11
19.8222404933
 21
-13.4028180443
  0
LWPOLYLINE
  5
2C7
100
AcDbEntity
  8
RACCORDO
100
AcDbPolyline
 62
250
  6
CONTINUOUS
 90
3
 70
0
 10
19.9224853778
 20
-13.5519908233
 10
19.9649963715
 20
-13.5509746046
 10
19.9869885139
 20
-13.5505801006
  0
LINE
  5
2C8
100
AcDbEntity
  8
RACCORDO
100
AcDbLine
 62
250
  6
CONTINUOUS
 10
19.8222404933
 20
-13.4028180443
 11
19.8814175065
 21
-13.401654009
  0
LINE
  5
2C9
100
AcDbEntity
  8
RACCORDO
100
AcDbLine
 62
250
  6
CONTINUOUS
 10
19.8814175065
 20
-13.401654009
 11
19.9434741242
 21
-13.400785717
  0
LINE
  5
2CA
100
AcDbEntity
  8
RACCORDO
100
AcDbLine
 62
250
  6
CONTINUOUS
 10
19.9869885139
 20
-13.5505801006
 11
20.0350631998
 21
-13.5500308397
  0
LINE
  5
2CB
100
AcDbEntity
  8
RACCORDO
100
AcDbLine
 62
250
  6
CONTINUOUS
 10
20.0350631998
 20
-13.5500308397
 11
20.0885094944
 21
-13.549801188
  0
LINE
  5
2CC
100
AcDbEntity
  8
DRAFT
100
AcDbLine
 62
7
  6
CONTINUOUS
 10
21.35
 20
-14.85
 11
21.1328427125
 21
-14.85
  0
LINE
  5
2CD
100
AcDbEntity
  8
DRAFT
100
AcDbLine
 62
7
  6
CONTINUOUS
 10
20.5671572875
 20
-14.85
 11
20.35
 21
-14.85
  0
LINE
  5
2CE
100
AcDbEntity
  8
DRAFT
100
AcDbLine
 62
7
  6
CONTINUOUS
 10
-20.35
 20
-14.85
 11
-20.5671572875
 21
-14.85
  0
LINE
  5
2CF
100
AcDbEntity
  8
DRAFT
100
AcDbLine
 62
7
  6
CONTINUOUS
 10
-21.1328427125
 20
-14.85
 11
-21.35
 21
-14.85
  0
LINE
  5
2D0
100
AcDbEntity
  8
DRAFT
100
AcDbLine
 62
7
  6
CONTINUOUS
 10
20.8946545832
 20
-14.7450136038
 11
20.8053454168
 21
-14.7450136038
  0
LINE
  5
2D1
100
AcDbEntity
  8
DRAFT
100
AcDbLine
 62
7
  6
CONTINUOUS
 10
-20.8053454168
 20
-14.7450136038
 11
-20.8946545832
 21
-14.7450136038
  0
LINE
  5
2D2
100
AcDbEntity
  8
RACCORDO
100
AcDbLine
 62
250
  6
CONTINUOUS
 10
21.6950972632
 20
-14.6012191724
 11
20.6790614477
 21
-14.6012191724
  0
LINE
  5
2D3
100
AcDbEntity
  8
RACCORDO
100
AcDbLine
 62
250
  6
CONTINUOUS
 10
-20.6790614477
 20
-14.6012191724
 11
-21.6950972632
 21
-14.6012191724
  0
LINE
  5
2D4
100
AcDbEntity
  8
RACCORDO
100
AcDbLine
 62
7
  6
CONTINUOUS
 10
-4.75
 20
-14.5
 11
4.75
 21
-14.5
  0
LINE
  5
2D5
100
AcDbEntity
  8
RACCORDO
100
AcDbLine
 62
250
  6
CONTINUOUS
 10
21.2386751346
 20
-14.1031218234
 11
20.7318790363
 21
-14.1031218234
  0
LINE
  5
2D6
100
AcDbEntity
  8
RACCORDO
100
AcDbLine
 62
250
  6
CONTINUOUS
 10
-20.7318790363
 20
-14.1031218234
 11
-21.2386751346
 21
-14.1031218234
  0
LINE
  5
2D7
100
AcDbEntity
  8
RACCORDO
100
AcDbLine
 62
250
  6
CONTINUOUS
 10
-20.35
 20
-13.8033909386
 11
-19.3928500694
 21
-13.8033909386
  0
LINE
  5
2D8
100
AcDbEntity
  8
RACCORDO
100
AcDbLine
 62
250
  6
CONTINUOUS
 10
19.3928500694
 20
-13.8033909386
 11
20.35
 21
-13.8033909386
  0
LINE
  5
2D9
100
AcDbEntity
  8
RACCORDO
100
AcDbLine
 62
250
  6
CONTINUOUS
 10
-20.35
 20
-13.6692757779
 11
-19.3928500694
 21
-13.6692757779
  0
LINE
  5
2DA
100
AcDbEntity
  8
RACCORDO
100
AcDbLine
 62
250
  6
CONTINUOUS
 10
19.3928500694
 20
-13.6692757779
 11
20.35
 21
-13.6692757779
  0
LINE
  5
2DB
100
AcDbEntity
  8
0
100
AcDbLine
 62
7
  6
CONTINUOUS
 10
1.710806
 20
-13.65
 11
1.981206
 21
-13.65
  0
LINE
  5
2DC
100
AcDbEntity
  8
0
100
AcDbLine
 62
7
  6
CONTINUOUS
 10
3.104146
 20
-13.65
 11
3.384112
 21
-13.65
  0
LINE
  5
2DD
100
AcDbEntity
  8
0
100
AcDbLine
 62
7
  6
CONTINUOUS
 10
-3.39
 20
-13.649994
 11
-2.397469
 21
-13.649994
  0
LINE
  5
2DE
100
AcDbEntity
  8
0
100
AcDbLine
 62
7
  6
CONTINUOUS
 10
-1.385532
 20
-13.649994
 11
-1.134218
 21
-13.649994
  0
LINE
  5
2DF
100
AcDbEntity
  8
0
100
AcDbLine
 62
7
  6
CONTINUOUS
 10
-0.361189
 20
-13.649994
 11
0.05875
 21
-13.649994
  0
LINE
  5
2E0
100
AcDbEntity
  8
0
100
AcDbLine
 62
7
  6
CONTINUOUS
 10
0.479694
 20
-13.649994
 11
1.561298
 21
-13.649994
  0
LINE
  5
2E1
100
AcDbEntity
  8
0
100
AcDbLine
 62
7
  6
CONTINUOUS
 10
-2.080077
 20
-13.649989
 11
-1.809675
 21
-13.649989
  0
LWPOLYLINE
  5
2E2
100
AcDbEntity
  8
RACCORDO
100
AcDbPolyline
 62
250
  6
CONTINUOUS
 90
18
 70
0
 10
-20.0885094944
 20
-13.549801188
 10
-20.0258780375
 20
-13.5501060303
 10
-19.9961933298
 20
-13.5504507366
 10
-19.9673250646
 20
-13.5509386168
 10
-19.9395441465
 20
-13.5515546871
 10
-19.9136632891
 20
-13.5522539961
 10
-19.8899084221
 20
-13.5530376117
 10
-19.8680536157
 20
-13.5539044662
 10
-19.848233794
 20
-13.554806405
 10
-19.830706485
 20
-13.5557241236
 10
-19.8152141606
 20
-13.5566769265
 10
-19.80111916
 20
-13.5576745736
 10
-19.7882382203
 20
-13.5587078355
 10
-19.7767546043
 20
-13.5597859415
 10
-19.7665804397
 20
-13.5609463393
 10
-19.7576864354
 20
-13.5622015113
 10
-19.7501018825
 20
-13.563538975
 10
-19.7438267808
 20
-13.5649587304
  0
LINE
  5
2E3
100
AcDbEntity
  8
RACCORDO
100
AcDbLine
 62
250
  6
CONTINUOUS
 10
-19.9566292603
 20
-13.4006564213
 11
-19.875642743
 21
-13.4017602455
  0
LINE
  5
2E4
100
AcDbEntity
  8
RACCORDO
100
AcDbLine
 62
250
  6
CONTINUOUS
 10
-19.875642743
 20
-13.4017602455
 11
-19.804696447
 21
-13.403243142
  0
LWPOLYLINE
  5
2E5
100
AcDbEntity
  8
RACCORDO
100
AcDbPolyline
 62
250
  6
CONTINUOUS
 90
11
 70
0
 10
-19.804696447
 20
-13.403243142
 10
-19.7452584948
 20
-13.4050120296
 10
-19.7203380836
 20
-13.4059297868
 10
-19.6982035461
 20
-13.4068826211
 10
-19.6779518756
 20
-13.4078802469
 10
-19.6596781928
 20
-13.4089133745
 10
-19.6434117378
 20
-13.4099912935
 10
-19.6286108405
 20
-13.4111515872
 10
-19.6154432164
 20
-13.4124067834
 10
-19.6044877309
 20
-13.4137443544
 10
-19.5961056179
 20
-13.4151643002
  0
LINE
  5
2E6
100
AcDbEntity
  8
DRAFT
100
AcDbLine
 62
7
  6
CONTINUOUS
 10
-21.85
 20
-14.6366435717
 11
-21.35
 21
-14.6618993734
  0
LINE
  5
2E7
100
AcDbEntity
  8
RACCORDO
100
AcDbLine
 62
7
  6
CONTINUOUS
 10
-21.6950972632
 20
-11.8987808276
 11
-21.85
 21
-11.8852285942
  0
LWPOLYLINE
  5
2E8
100
AcDbEntity
  8
0
100
AcDbPolyline
 62
7
  6
CONTINUOUS
 90
10
 70
0
 10
-0.7575364372
 20
-17.8809225752
 10
-0.7333943493
 20
-17.8966124539
 10
-0.7105225455
 20
-17.9136559408
 10
-0.6889210257
 20
-17.932053036
 10
-0.6684960116
 20
-17.9519129931
 10
-0.6493412817
 20
-17.9731265585
 10
-0.6317381708
 20
-17.9953659713
 10
-0.6157804573
 20
-18.0185219779
 10
-0.6013743628
 20
-18.0427038319
 10
-0.5885198874
 20
-18.0679115334
  0
LWPOLYLINE
  5
2E9
100
AcDbEntity
  8
0
100
AcDbPolyline
 62
7
  6
CONTINUOUS
 90
10
 70
0
 10
0.6803613999
 20
-17.8809225752
 10
0.7045033944
 20
-17.896612396
 10
0.7273751211
 20
-17.9136558394
 10
0.7489765801
 20
-17.9320529052
 10
0.7694015504
 20
-17.951912847
 10
0.7885562531
 20
-17.9731264113
 10
0.8061593506
 20
-17.9953658381
 10
0.822117064
 20
-18.018521874
 10
0.8365231723
 20
-18.0427037725
 10
0.8493776755
 20
-18.0679115334
  0
LWPOLYLINE
  5
2EA
100
AcDbEntity
  8
0
100
AcDbPolyline
 62
7
  6
CONTINUOUS
 90
10
 70
0
 10
2.1182589629
 20
-17.8809225752
 10
2.1424009573
 20
-17.896612396
 10
2.1652726841
 20
-17.9136558394
 10
2.186874143
 20
-17.9320529052
 10
2.2072991134
 20
-17.951912847
 10
2.226453816
 20
-17.9731264113
 10
2.2440569136
 20
-17.9953658381
 10
2.260014627
 20
-18.018521874
 10
2.2744207353
 20
-18.0427037724
 10
2.2872752385
 20
-18.0679115334
  0
LWPOLYLINE
  5
2EB
100
AcDbEntity
  8
0
100
AcDbPolyline
 62
7
  6
CONTINUOUS
 90
10
 70
0
 10
0.2149163778
 20
-19.9401978259
 10
0.2291026999
 20
-19.9507280005
 10
0.2443741576
 20
-19.9599901927
 10
0.2607307509
 20
-19.9679844025
 10
0.2782871651
 20
-19.9747095943
 10
0.2969287149
 20
-19.9801668038
 10
0.3163113447
 20
-19.9843591374
 10
0.3363203695
 20
-19.9872876307
 10
0.3570704744
 20
-19.9889512481
 10
0.3785616593
 20
-19.9893499897
  0
LWPOLYLINE
  5
2EC
100
AcDbEntity
  8
0
100
AcDbPolyline
 62
7
  6
CONTINUOUS
 90
10
 70
0
 10
1.6528139408
 20
-19.9401978259
 10
1.6670002628
 20
-19.9507280005
 10
1.6822717205
 20
-19.9599901927
 10
1.6986283139
 20
-19.9679844025
 10
1.716184728
 20
-19.9747095943
 10
1.7348262778
 20
-19.9801668038
 10
1.7542089077
 20
-19.9843591374
 10
1.7742179325
 20
-19.9872876307
 10
1.7949680374
 20
-19.9889512481
 10
1.8164592223
 20
-19.9893499897
  0
LWPOLYLINE
  5
2ED
100
AcDbEntity
  8
0
100
AcDbPolyline
 62
7
  6
CONTINUOUS
 90
16
 70
0
 10
-0.8945425643
 20
-18.0655000699
 10
-0.9039320927
 20
-18.0585219689
 10
-0.9136065919
 20
-18.0520815961
 10
-0.9235660617
 20
-18.0461789516
 10
-0.9338509683
 20
-18.040827684
 10
-0.9444208457
 20
-18.0360141446
 10
-0.9551542954
 20
-18.0316973876
 10
-0.9660386771
 20
-18.0278766872
 10
-0.9770866311
 20
-18.0245527692
 10
-0.9882146812
 20
-18.0216868646
 10
-0.9994077128
 20
-18.0192734901
 10
-1.0106808403
 20
-18.0173181292
 10
-1.0219959313
 20
-18.0157984631
 10
-1.0333402746
 20
-18.0147070523
 10
-1.0447265814
 20
-18.0140513364
 10
-1.0561548514
 20
-18.0138313153
  0
LWPOLYLINE
  5
2EE
100
AcDbEntity
  8
0
100
AcDbPolyline
 62
7
  6
CONTINUOUS
 90
16
 70
0
 10
0.5433550509
 20
-18.0655000047
 10
0.5339655235
 20
-18.0585218869
 10
0.5242910229
 20
-18.0520815024
 10
0.5143315492
 20
-18.0461788513
 10
0.5040466352
 20
-18.0408275827
 10
0.4934767481
 20
-18.0360140475
 10
0.4827432891
 20
-18.0316972974
 10
0.4718588995
 20
-18.0278766071
 10
0.460810938
 20
-18.024552702
 10
0.4496828823
 20
-18.0216868105
 10
0.4384898476
 20
-18.0192734492
 10
0.4272167186
 20
-18.0173181016
 10
0.4159016273
 20
-18.0157984465
 10
0.4045572844
 20
-18.0147070436
 10
0.3931709791
 20
-18.0140513332
 10
0.3817427116
 20
-18.0138313153
  0
LWPOLYLINE
  5
2EF
100
AcDbEntity
  8
0
100
AcDbPolyline
 62
7
  6
CONTINUOUS
 90
22
 70
0
 10
-3.5288020975
 20
-17.9541848152
 10
-3.5143321524
 20
-17.971294696
 10
-3.5008925113
 20
-17.9890208288
 10
-3.4884831743
 20
-18.0073632136
 10
-3.4771480604
 20
-18.0264045188
 10
-3.4668432506
 20
-18.0460620761
 10
-3.4574369874
 20
-18.0660878798
 10
-3.4489314007
 20
-18.0864616328
 10
-3.4413243607
 20
-18.1072036323
 10
-3.4344777201
 20
-18.128126764
 10
-3.4283873984
 20
-18.1492058406
 10
-3.423057476
 20
-18.1704660495
 10
-3.4183620471
 20
-18.1917958379
 10
-3.4142930458
 20
-18.2131656938
 10
-3.4108585379
 20
-18.2346051293
 10
-3.4079568147
 20
-18.2560911276
 10
-3.4055850909
 20
-18.2776126252
 10
-3.4037461518
 20
-18.2991806857
 10
-3.4023466448
 20
-18.3208054824
 10
-3.4013554526
 20
-18.3424904064
 10
-3.4008036924
 20
-18.3642320667
 10
-3.4006913645
 20
-18.3860304632
  0
LWPOLYLINE
  5
2F0
100
AcDbEntity
  8
0
100
AcDbPolyline
 62
7
  6
CONTINUOUS
 90
7
 70
0
 10
-4.205532356
 20
-19.8748271725
 10
-4.1932106364
 20
-19.8920436152
 10
-4.1796673054
 20
-19.907887542
 10
-4.1649023629
 20
-19.9223589529
 10
-4.148915809
 20
-19.9354578478
 10
-4.1317076436
 20
-19.9471842268
 10
-4.1132778668
 20
-19.9575380898
  0
LINE
  5
2F1
100
AcDbEntity
  8
RACCORDO
100
AcDbLine
 62
7
  6
CONTINUOUS
 10
4.9
 20
22.6
 11
4.9156727585
 21
22.6156727585
  0
LINE
  5
2F2
100
AcDbEntity
  8
RACCORDO
100
AcDbLine
 62
7
  6
CONTINUOUS
 10
-21.6950972632
 20
-14.6012191724
 11
-21.85
 21
-14.6147714058
  0
LWPOLYLINE
  5
2F3
100
AcDbEntity
  8
RACCORDO
100
AcDbPolyline
 62
250
  6
CONTINUOUS
 90
37
 70
0
 10
19.4138273498
 20
-12.6714853747
 10
19.3924539843
 20
-12.6724649471
 10
19.3720204735
 20
-12.6744985469
 10
19.3525268172
 20
-12.677586174
 10
19.3339754035
 20
-12.6818507086
 10
19.3163638445
 20
-12.6871692706
 10
19.2996849756
 20
-12.6931732192
 10
19.283959987
 20
-12.699829333
 10
19.2691676885
 20
-12.7071708336
 10
19.2552373458
 20
-12.7149287445
 10
19.2421698685
 20
-12.7230845199
 10
19.2299643469
 20
-12.7316567057
 10
19.2185473166
 20
-12.7404319639
 10
19.2079267232
 20
-12.7493906067
 10
19.1980946211
 20
-12.7585523219
 10
19.1889537093
 20
-12.7677628351
 10
19.1805137779
 20
-12.7769927017
 10
19.1727650369
 20
-12.7862713664
 10
19.1655808155
 20
-12.7955328893
 10
19.1589566134
 20
-12.8047565621
 10
19.1528969309
 20
-12.8139630931
 10
19.1472885991
 20
-12.823148667
 10
19.1421215897
 20
-12.832300737
 10
19.1374059309
 20
-12.8414318498
 10
19.1330585391
 20
-12.8505758305
 10
19.1290683572
 20
-12.8597239789
 10
19.1254464422
 20
-12.8688849952
 10
19.1221428817
 20
-12.8781188038
 10
19.1191454977
 20
-12.8874197322
 10
19.1164664682
 20
-12.8967934529
 10
19.1140924147
 20
-12.9063169085
 10
19.1120094189
 20
-12.915986849
 10
19.110231399
 20
-12.9258065244
 10
19.108786731
 20
-12.9358626272
 10
19.1076848735
 20
-12.9461840551
 10
19.1069163677
 20
-12.9567419104
 10
19.1064812139
 20
-12.9675361932
  0
LWPOLYLINE
  5
2F4
100
AcDbEntity
  8
RACCORDO
100
AcDbPolyline
 62
250
  6
CONTINUOUS
 90
37
 70
0
 10
-19.3928500694
 20
-13.8033909386
 10
-19.3716764307
 20
-13.8024298787
 10
-19.3514285369
 20
-13.8003961753
 10
-19.332106388
 20
-13.7972898283
 10
-19.3137038834
 20
-13.7929894101
 10
-19.2962271238
 20
-13.7876163483
 10
-19.2796944112
 20
-13.7815349263
 10
-19.2641320959
 20
-13.7747737813
 10
-19.2495138276
 20
-13.7673042762
 10
-19.2357788574
 20
-13.7594047826
 10
-19.2229304134
 20
-13.7510915876
 10
-19.2109652676
 20
-13.7423484043
 10
-19.1998129863
 20
-13.7334047429
 10
-19.1894849583
 20
-13.7242818958
 10
-19.1799697949
 20
-13.7149585706
 10
-19.1711628964
 20
-13.7056004014
 10
-19.163075742
 20
-13.6962413702
 10
-19.1556968526
 20
-13.6868474949
 10
-19.1488871907
 20
-13.6774824625
 10
-19.1426401896
 20
-13.6681679559
 10
-19.1369624162
 20
-13.658882292
 10
-19.1317345337
 20
-13.6496241093
 10
-19.1269449651
 20
-13.6404061165
 10
-19.1226052875
 20
-13.6312156048
 10
-19.1186308949
 20
-13.6220130858
 10
-19.1150096283
 20
-13.6128069871
 10
-19.1117536468
 20
-13.6035888811
 10
-19.1088148219
 20
-13.594293996
 10
-19.1061802478
 20
-13.5849273211
 10
-19.1038628304
 20
-13.575483867
 10
-19.1018531588
 20
-13.5658838939
 10
-19.1001370221
 20
-13.5561296024
 10
-19.0987286312
 20
-13.5462187919
 10
-19.0976612075
 20
-13.53606512
 10
-19.0969458249
 20
-13.525639806
 10
-19.0965714095
 20
-13.5149716308
 10
-19.0965379614
 20
-13.5040605942
  0
LWPOLYLINE
  5
2F5
100
AcDbEntity
  8
RACCORDO
100
AcDbPolyline
 62
250
  6
CONTINUOUS
 90
10
 70
0
 10
-19.0965379614
 20
-13.5040605942
 10
-19.1197277459
 20
-13.5046742385
 10
-19.1423597354
 20
-13.5056502635
 10
-19.163889552
 20
-13.5069651924
 10
-19.1837993285
 20
-13.5085873966
 10
-19.2016101657
 20
-13.5104778564
 10
-19.2168936511
 20
-13.5125910996
 10
-19.2292821635
 20
-13.5148762955
 10
-19.2384777163
 20
-13.5172784772
 10
-19.2442591244
 20
-13.5197398637
  0
LWPOLYLINE
  5
2F6
100
AcDbEntity
  8
RACCORDO
100
AcDbPolyline
 62
250
  6
CONTINUOUS
 90
10
 70
0
 10
-19.1064812139
 20
-12.9675361932
 10
-19.1296714572
 20
-12.9681498618
 10
-19.1523037541
 20
-12.9691259168
 10
-19.1738337166
 20
-12.9704408748
 10
-19.1937434775
 20
-12.9720631
 10
-19.2115541744
 20
-12.9739535678
 10
-19.2268374554
 20
-12.9760668053
 10
-19.2392257458
 20
-12.9783519809
 10
-19.248421098
 20
-12.9807541266
 10
-19.2542023768
 20
-12.9832154627
  0
LWPOLYLINE
  5
2F7
100
AcDbEntity
  8
RACCORDO
100
AcDbPolyline
 62
250
  6
CONTINUOUS
 90
37
 70
0
 10
-19.3928502781
 20
-13.6692757159
 10
-19.3820070499
 20
-13.6690033435
 10
-19.3715933677
 20
-13.6680452078
 10
-19.3616469428
 20
-13.666472544
 10
-19.3522116066
 20
-13.6643583289
 10
-19.3432935891
 20
-13.6617708713
 10
-19.334864315
 20
-13.6587661635
 10
-19.3269338381
 20
-13.6554031343
 10
-19.3195068837
 20
-13.6517383126
 10
-19.3125434391
 20
-13.6478091028
 10
-19.3060360615
 20
-13.643657825
 10
-19.2999868647
 20
-13.6393319526
 10
-19.2943689437
 20
-13.6348659984
 10
-19.2891744674
 20
-13.6302985225
 10
-19.2843914596
 20
-13.6256633961
 10
-19.2799865688
 20
-13.6209808673
 10
-19.2759528291
 20
-13.6162868907
 10
-19.2722705101
 20
-13.6116007823
 10
-19.2688914521
 20
-13.606909196
 10
-19.2658051001
 20
-13.6022334142
 10
-19.2629991876
 20
-13.5975890752
 10
-19.2604314051
 20
-13.5929454589
 10
-19.2580934058
 20
-13.5883150199
 10
-19.2559778835
 20
-13.5837090592
 10
-19.2540534304
 20
-13.579088279
 10
-19.2523157903
 20
-13.5744608055
 10
-19.2507615576
 20
-13.5698338619
 10
-19.2493701123
 20
-13.5651619353
 10
-19.248141587
 20
-13.5604506184
 10
-19.2470768481
 20
-13.5557047878
 10
-19.2461662403
 20
-13.5508745959
 10
-19.2454146839
 20
-13.545964789
 10
-19.244827825
 20
-13.5409792018
 10
-19.2444076933
 20
-13.5358648257
 10
-19.2441647191
 20
-13.5306068893
 10
-19.2441115327
 20
-13.5252298815
 10
-19.2442591244
 20
-13.5197398637
  0
LINE
  5
2F8
100
AcDbEntity
  8
RACCORDO
100
AcDbLine
 62
250
  6
CONTINUOUS
 10
-19.7637898864
 20
-13.0955944088
 11
-19.8222404933
 21
-13.0971819557
  0
LWPOLYLINE
  5
2F9
100
AcDbEntity
  8
RACCORDO
100
AcDbPolyline
 62
250
  6
CONTINUOUS
 90
37
 70
0
 10
19.4138275468
 20
-12.836959133
 10
19.4028633848
 20
-12.8372258286
 10
19.3923176822
 20
-12.8381741306
 10
19.3822282702
 20
-12.839727057
 10
19.3726396445
 20
-12.841803557
 10
19.3635554268
 20
-12.844332595
 10
19.3549422584
 20
-12.8472640442
 10
19.3468079556
 20
-12.8505391414
 10
19.3391577702
 20
-12.8540992456
 10
19.3319524763
 20
-12.8579138747
 10
19.3251844639
 20
-12.8619416637
 10
19.3188556191
 20
-12.8661351529
 10
19.3129411111
 20
-12.8704675383
 10
19.3074331058
 20
-12.8749028085
 10
19.3023209939
 20
-12.8794069207
 10
19.297576498
 20
-12.8839641821
 10
19.2931933322
 20
-12.888541708
 10
19.2891531573
 20
-12.8931190841
 10
19.2854138015
 20
-12.8977076721
 10
19.2819662343
 20
-12.9022865925
 10
19.2787977886
 20
-12.9068403995
 10
19.2758685359
 20
-12.9113969267
 10
19.2731709844
 20
-12.9159436259
 10
19.2706973987
 20
-12.9204692848
 10
19.2684162771
 20
-12.9250102755
 10
19.2663237919
 20
-12.9295581764
 10
19.2644160397
 20
-12.9341058257
 10
19.2626705438
 20
-12.9386962039
 10
19.2610875594
 20
-12.9433232638
 10
19.259667439
 20
-12.9479823129
 10
19.2583975254
 20
-12.952721588
 10
19.2572827017
 20
-12.9575357701
 10
19.2563281198
 20
-12.9624213976
 10
19.2555321619
 20
-12.9674313189
 10
19.254903963
 20
-12.9725802309
 10
19.2544571038
 20
-12.9778436403
 10
19.2542023768
 20
-12.9832154627
  0
LWPOLYLINE
  5
2FA
100
AcDbEntity
  8
RACCORDO
100
AcDbPolyline
 62
250
  6
CONTINUOUS
 90
3
 70
0
 10
-19.9224853778
 20
-12.9480091767
 10
-19.9649963715
 20
-12.9490253954
 10
-19.9869885139
 20
-12.9494198994
  0
LINE
  5
2FB
100
AcDbEntity
  8
RACCORDO
100
AcDbLine
 62
250
  6
CONTINUOUS
 10
-19.8222404933
 20
-13.0971819557
 11
-19.8814175065
 21
-13.098345991
  0
LINE
  5
2FC
100
AcDbEntity
  8
RACCORDO
100
AcDbLine
 62
250
  6
CONTINUOUS
 10
-19.8814175065
 20
-13.098345991
 11
-19.9434741242
 21
-13.099214283
  0
LINE
  5
2FD
100
AcDbEntity
  8
RACCORDO
100
AcDbLine
 62
250
  6
CONTINUOUS
 10
-19.9869885139
 20
-12.9494198994
 11
-20.0350631998
 21
-12.9499691603
  0
LINE
  5
2FE
100
AcDbEntity
  8
RACCORDO
100
AcDbLine
 62
250
  6
CONTINUOUS
 10
19.9434741242
 20
-13.400785717
 11
20.012323243
 21
-13.4002364854
  0
LINE
  5
2FF
100
AcDbEntity
  8
RACCORDO
100
AcDbLine
 62
250
  6
CONTINUOUS
 10
-19.9434741242
 20
-13.099214283
 11
-20.012323243
 21
-13.0997635146
  0
LINE
  5
300
100
AcDbEntity
  8
RACCORDO
100
AcDbLine
 62
250
  6
CONTINUOUS
 10
-20.0350631998
 20
-12.9499691603
 11
-20.0885094944
 21
-12.950198812
  0
LINE
  5
301
100
AcDbEntity
  8
RACCORDO
100
AcDbLine
 62
250
  6
CONTINUOUS
 10
-20.4608433288
 20
-13.549801188
 11
-20.0885094944
 21
-13.549801188
  0
LINE
  5
302
100
AcDbEntity
  8
RACCORDO
100
AcDbLine
 62
250
  6
CONTINUOUS
 10
20.0885094944
 20
-13.549801188
 11
20.4608433288
 21
-13.549801188
  0
LINE
  5
303
100
AcDbEntity
  8
0
100
AcDbLine
 62
7
  6
CONTINUOUS
 10
1.561298
 20
-13.433673
 11
0.750095
 21
-13.433673
  0
LINE
  5
304
100
AcDbEntity
  8
0
100
AcDbLine
 62
7
  6
CONTINUOUS
 10
-2.397469
 20
-13.433673
 11
-3.119599
 21
-13.433673
  0
LINE
  5
305
100
AcDbEntity
  8
RACCORDO
100
AcDbLine
 62
250
  6
CONTINUOUS
 10
20.012323243
 20
-13.4002364854
 11
20.4772930121
 21
-13.4000067578
  0
LINE
  5
306
100
AcDbEntity
  8
RACCORDO
100
AcDbLine
 62
250
  6
CONTINUOUS
 10
-20.012323243
 20
-13.0997635146
 11
-20.4772930121
 21
-13.0999932422
  0
LINE
  5
307
100
AcDbEntity
  8
0
100
AcDbLine
 62
7
  6
CONTINUOUS
 10
2.143447
 20
-13.067821
 11
2.941927
 21
-13.067821
  0
LINE
  5
308
100
AcDbEntity
  8
RACCORDO
100
AcDbLine
 62
250
  6
CONTINUOUS
 10
-20.0885094944
 20
-12.950198812
 11
-20.4608433288
 21
-12.950198812
  0
LINE
  5
309
100
AcDbEntity
  8
0
100
AcDbLine
 62
7
  6
CONTINUOUS
 10
2.878303
 20
-12.8515
 11
2.210253
 21
-12.8515
  0
LINE
  5
30A
100
AcDbEntity
  8
RACCORDO
100
AcDbLine
 62
250
  6
CONTINUOUS
 10
20.35
 20
-12.8369590744
 11
19.4138273498
 21
-12.8369590744
  0
LINE
  5
30B
100
AcDbEntity
  8
RACCORDO
100
AcDbLine
 62
250
  6
CONTINUOUS
 10
-19.4138273498
 20
-12.8369590744
 11
-20.35
 21
-12.8369590744
  0
LINE
  5
30C
100
AcDbEntity
  8
RACCORDO
100
AcDbLine
 62
250
  6
CONTINUOUS
 10
20.35
 20
-12.6714853747
 11
19.4138273498
 21
-12.6714853747
  0
LINE
  5
30D
100
AcDbEntity
  8
RACCORDO
100
AcDbLine
 62
250
  6
CONTINUOUS
 10
-19.4138273498
 20
-12.6714853747
 11
-20.35
 21
-12.6714853747
  0
LINE
  5
30E
100
AcDbEntity
  8
0
100
AcDbLine
 62
7
  6
CONTINUOUS
 10
0.750095
 20
-12.571571
 11
1.497674
 21
-12.571571
  0
LINE
  5
30F
100
AcDbEntity
  8
RACCORDO
100
AcDbLine
 62
250
  6
CONTINUOUS
 10
-21.2386751346
 20
-12.3968781766
 11
-20.7318790363
 21
-12.3968781766
  0
LINE
  5
310
100
AcDbEntity
  8
RACCORDO
100
AcDbLine
 62
250
  6
CONTINUOUS
 10
20.7318790363
 20
-12.3968781766
 11
21.2386751346
 21
-12.3968781766
  0
LINE
  5
311
100
AcDbEntity
  8
0
100
AcDbLine
 62
7
  6
CONTINUOUS
 10
1.497674
 20
-12.355249
 11
0.750095
 21
-12.355249
  0
LINE
  5
312
100
AcDbEntity
  8
RACCORDO
100
AcDbLine
 62
250
  6
CONTINUOUS
 10
-21.6950972632
 20
-11.8987808276
 11
-20.6790614477
 21
-11.8987808276
  0
LINE
  5
313
100
AcDbEntity
  8
RACCORDO
100
AcDbLine
 62
250
  6
CONTINUOUS
 10
20.6790614477
 20
-11.8987808276
 11
21.6950972632
 21
-11.8987808276
  0
LINE
  5
314
100
AcDbEntity
  8
DRAFT
100
AcDbLine
 62
7
  6
CONTINUOUS
 10
20.8946545832
 20
-11.7549863962
 11
20.8053454168
 21
-11.7549863962
  0
LINE
  5
315
100
AcDbEntity
  8
DRAFT
100
AcDbLine
 62
7
  6
CONTINUOUS
 10
-20.8053454168
 20
-11.7549863962
 11
-20.8946545832
 21
-11.7549863962
  0
LINE
  5
316
100
AcDbEntity
  8
DRAFT
100
AcDbLine
 62
7
  6
CONTINUOUS
 10
21.35
 20
-11.65
 11
21.1328427125
 21
-11.65
  0
LINE
  5
317
100
AcDbEntity
  8
DRAFT
100
AcDbLine
 62
7
  6
CONTINUOUS
 10
20.5671572875
 20
-11.65
 11
20.35
 21
-11.65
  0
LINE
  5
318
100
AcDbEntity
  8
DRAFT
100
AcDbLine
 62
7
  6
CONTINUOUS
 10
-20.35
 20
-11.65
 11
-20.5671572875
 21
-11.65
  0
LINE
  5
319
100
AcDbEntity
  8
DRAFT
100
AcDbLine
 62
7
  6
CONTINUOUS
 10
-21.1328427125
 20
-11.65
 11
-21.35
 21
-11.65
  0
LINE
  5
31A
100
AcDbEntity
  8
0
100
AcDbLine
 62
7
  6
CONTINUOUS
 10
0.750095
 20
-11.566314
 11
1.53903
 21
-11.566314
  0
LINE
  5
31B
100
AcDbEntity
  8
0
100
AcDbLine
 62
7
  6
CONTINUOUS
 10
1.53903
 20
-11.349993
 11
0.479694
 21
-11.349993
  0
LINE
  5
31C
100
AcDbEntity
  8
0
100
AcDbLine
 62
7
  6
CONTINUOUS
 10
0.05875
 20
-11.349993
 11
-0.192586
 21
-11.349993
  0
LINE
  5
31D
100
AcDbEntity
  8
0
100
AcDbLine
 62
7
  6
CONTINUOUS
 10
-0.965615
 20
-11.349993
 11
-1.385532
 21
-11.349993
  0
LINE
  5
31E
100
AcDbEntity
  8
0
100
AcDbLine
 62
7
  6
CONTINUOUS
 10
-3.119599
 20
-11.349993
 11
-3.39
 21
-11.349993
  0
LINE
  5
31F
100
AcDbEntity
  8
0
100
AcDbLine
 62
7
  6
CONTINUOUS
 10
-1.809675
 20
-11.349989
 11
-2.080077
 21
-11.349989
  0
LINE
  5
320
100
AcDbEntity
  8
0
100
AcDbLine
 62
7
  6
CONTINUOUS
 10
2.719243
 20
-11.349978
 11
2.385218
 21
-11.349978
  0
LINE
  5
321
100
AcDbEntity
  8
RACCORDO
100
AcDbLine
 62
250
  6
CONTINUOUS
 10
-20.4772930121
 20
-13.4000067578
 11
-20.0434871229
 21
-13.4000951552
  0
LINE
  5
322
100
AcDbEntity
  8
RACCORDO
100
AcDbLine
 62
250
  6
CONTINUOUS
 10
20.4772930121
 20
-13.0999932422
 11
20.0434871229
 21
-13.0999048448
  0
LWPOLYLINE
  5
323
100
AcDbEntity
  8
RACCORDO
100
AcDbPolyline
 62
250
  6
CONTINUOUS
 90
19
 70
0
 10
20.4608433288
 20
-12.950198812
 10
20.0566500924
 20
-12.9501104859
 10
20.0258780375
 20
-12.9498939697
 10
19.9961933298
 20
-12.9495492634
 10
19.9673250646
 20
-12.9490613832
 10
19.9395441465
 20
-12.9484453129
 10
19.9136632891
 20
-12.9477460039
 10
19.8899084221
 20
-12.9469623883
 10
19.8680536157
 20
-12.9460955338
 10
19.848233794
 20
-12.945193595
 10
19.830706485
 20
-12.9442758764
 10
19.8152141606
 20
-12.9433230735
 10
19.80111916
 20
-12.9423254264
 10
19.7882382203
 20
-12.9412921645
 10
19.7767546043
 20
-12.9402140585
 10
19.7665804397
 20
-12.9390536607
 10
19.7576864354
 20
-12.9377984887
 10
19.7501018825
 20
-12.936461025
 10
19.7438267808
 20
-12.9350412696
  0
LINE
  5
324
100
AcDbEntity
  8
RACCORDO
100
AcDbLine
 62
250
  6
CONTINUOUS
 10
-20.0434871229
 20
-13.4000951552
 11
-19.9566292603
 21
-13.4006564213
  0
LINE
  5
325
100
AcDbEntity
  8
RACCORDO
100
AcDbLine
 62
250
  6
CONTINUOUS
 10
20.0434871229
 20
-13.0999048448
 11
19.9566292603
 21
-13.0993435787
  0
LINE
  5
326
100
AcDbEntity
  8
RACCORDO
100
AcDbLine
 62
250
  6
CONTINUOUS
 10
19.9566292603
 20
-13.0993435787
 11
19.875642743
 21
-13.0982397545
  0
LINE
  5
327
100
AcDbEntity
  8
RACCORDO
100
AcDbLine
 62
250
  6
CONTINUOUS
 10
19.875642743
 20
-13.0982397545
 11
19.804696447
 21
-13.096756858
  0
LWPOLYLINE
  5
328
100
AcDbEntity
  8
RACCORDO
100
AcDbPolyline
 62
250
  6
CONTINUOUS
 90
10
 70
0
 10
19.0965379614
 20
-13.5040605942
 10
19.1197279225
 20
-13.5046742952
 10
19.1423600298
 20
-13.5056503672
 10
19.1638899015
 20
-13.5069653309
 10
19.1837996702
 20
-13.5085875548
 10
19.2016104517
 20
-13.5104780174
 10
19.2168938583
 20
-13.5125912464
 10
19.2292822866
 20
-13.5148764109
 10
19.2384777642
 20
-13.5172785435
 10
19.2442591244
 20
-13.5197398637
  0
LWPOLYLINE
  5
329
100
AcDbEntity
  8
RACCORDO
100
AcDbPolyline
 62
250
  6
CONTINUOUS
 90
10
 70
0
 10
19.1064812139
 20
-12.9675361932
 10
19.1296709983
 20
-12.9681498376
 10
19.1523029879
 20
-12.9691258626
 10
19.1738328044
 20
-12.9704407915
 10
19.193742581
 20
-12.9720629956
 10
19.2115534182
 20
-12.9739534554
 10
19.2268369035
 20
-12.9760666987
 10
19.239225416
 20
-12.9783518946
 10
19.2484209687
 20
-12.9807540762
 10
19.2542023768
 20
-12.9832154627
  0
LWPOLYLINE
  5
32A
100
AcDbEntity
  8
RACCORDO
100
AcDbPolyline
 62
250
  6
CONTINUOUS
 90
11
 70
0
 10
19.804696447
 20
-13.096756858
 10
19.7452584948
 20
-13.0949879704
 10
19.7203380836
 20
-13.0940702132
 10
19.6982035461
 20
-13.0931173789
 10
19.6779518756
 20
-13.0921197531
 10
19.6596781928
 20
-13.0910866255
 10
19.6434117378
 20
-13.0900087065
 10
19.6286108405
 20
-13.0888484128
 10
19.6154432164
 20
-13.0875932166
 10
19.6044877309
 20
-13.0862556456
 10
19.5961056179
 20
-13.0848356998
  0
LINE
  5
32B
100
AcDbEntity
  8
RACCORDO
100
AcDbLine
 62
7
  6
CONTINUOUS
 10
21.85
 20
-14.6147714058
 11
21.6950972632
 21
-14.6012191724
  0
LWPOLYLINE
  5
32C
100
AcDbEntity
  8
0
100
AcDbPolyline
 62
7
  6
CONTINUOUS
 90
16
 70
0
 10
1.9812526139
 20
-18.0655000047
 10
1.9718630864
 20
-18.0585218869
 10
1.9621885859
 20
-18.0520815024
 10
1.9522291121
 20
-18.0461788513
 10
1.9419441982
 20
-18.0408275827
 10
1.931374311
 20
-18.0360140475
 10
1.9206408521
 20
-18.0316972974
 10
1.9097564625
 20
-18.0278766071
 10
1.898708501
 20
-18.024552702
 10
1.8875804453
 20
-18.0216868105
 10
1.8763874105
 20
-18.0192734492
 10
1.8651142816
 20
-18.0173181016
 10
1.8537991903
 20
-18.0157984465
 10
1.8424548474
 20
-18.0147070436
 10
1.8310685421
 20
-18.0140513332
 10
1.8196402745
 20
-18.0138313153
  0
LWPOLYLINE
  5
32D
100
AcDbEntity
  8
0
100
AcDbPolyline
 62
7
  6
CONTINUOUS
 90
13
 70
0
 10
-3.7219915522
 20
-18.1315353193
 10
-3.7272286846
 20
-18.1226223914
 10
-3.7328685441
 20
-18.1140316537
 10
-3.7389111305
 20
-18.1057631062
 10
-3.7453859779
 20
-18.0978066632
 10
-3.7522635523
 20
-18.0901724104
 10
-3.759455252
 20
-18.0828906051
 10
-3.7669484178
 20
-18.0759638973
 10
-3.7747557088
 20
-18.0693896369
 10
-3.7828265005
 20
-18.0631901304
 10
-3.7911439181
 20
-18.0573728132
 10
-3.7997248364
 20
-18.05193025
 10
-3.8085692554
 20
-18.0468624405
  0
LWPOLYLINE
  5
32E
100
AcDbEntity
  8
0
100
AcDbPolyline
 62
7
  6
CONTINUOUS
 90
7
 70
0
 10
-3.4515903933
 20
-19.1431535848
 10
-3.4389557661
 20
-19.1685989508
 10
-3.4277696419
 20
-19.1948942933
 10
-3.4180320207
 20
-19.2220396123
 10
-3.4097429025
 20
-19.2500349078
 10
-3.4029022873
 20
-19.2788801798
 10
-3.3975101752
 20
-19.3085754284
  0
LWPOLYLINE
  5
32F
100
AcDbEntity
  8
RACCORDO
100
AcDbPolyline
 62
250
  6
CONTINUOUS
 90
9
 70
0
 10
-19.5961056179
 20
-13.0848355163
 10
-19.6062532059
 20
-13.0865085752
 10
-19.6202472274
 20
-13.088093087
 10
-19.637756365
 20
-13.0895890517
 10
-19.65853144
 20
-13.0910059811
 10
-19.6821529347
 20
-13.0923343635
 10
-19.7079018508
 20
-13.093545663
 10
-19.7352295482
 20
-13.0946285774
 10
-19.7637898864
 20
-13.0955944088
  0
LINE
  5
330
100
AcDbEntity
  8
DRAFT
100
AcDbLine
 62
7
  6
CONTINUOUS
 10
-21.85
 20
-11.8633564283
 11
-21.35
 21
-11.8381006266
  0
LWPOLYLINE
  5
331
100
AcDbEntity
  8
0
100
AcDbPolyline
 62
7
  6
CONTINUOUS
 90
19
 70
0
 10
3.543151782
 20
-9.361332229
 10
3.5807587466
 20
-9.3595350985
 10
3.6174073588
 20
-9.3557572597
 10
3.6525049237
 20
-9.3499345416
 10
3.6852005987
 20
-9.3421736669
 10
3.7155652235
 20
-9.3324807151
 10
3.7444425806
 20
-9.3204585479
 10
3.7717793567
 20
-9.3057917842
 10
3.7969389115
 20
-9.2884509818
 10
3.8197679244
 20
-9.2681852045
 10
3.8401518229
 20
-9.2451396062
 10
3.8580800005
 20
-9.2197401197
 10
3.873620032
 20
-9.1922932948
 10
3.8867400886
 20
-9.1632413715
 10
3.8974584563
 20
-9.1329309096
 10
3.9058267668
 20
-9.1014814071
 10
3.9117823442
 20
-9.0691968826
 10
3.9152200649
 20
-9.0365962461
 10
3.9160622762
 20
-9.0041352848
  0
LINE
  5
332
100
AcDbEntity
  8
0
100
AcDbLine
 62
7
  6
CONTINUOUS
 10
-3.712456
 20
-10.637993
 11
-3.289406
 21
-10.637993
  0
LINE
  5
333
100
AcDbEntity
  8
0
100
AcDbLine
 62
7
  6
CONTINUOUS
 10
-2.372012
 20
-10.637993
 11
-1.891956
 21
-10.637993
  0
LINE
  5
334
100
AcDbEntity
  8
0
100
AcDbLine
 62
7
  6
CONTINUOUS
 10
-1.633526
 20
-10.637993
 11
-1.174268
 21
-10.637993
  0
LINE
  5
335
100
AcDbEntity
  8
0
100
AcDbLine
 62
7
  6
CONTINUOUS
 10
-0.507508
 20
-10.637993
 11
-0.44018
 21
-10.637993
  0
LINE
  5
336
100
AcDbEntity
  8
0
100
AcDbLine
 62
7
  6
CONTINUOUS
 10
0.229236
 20
-10.637993
 11
0.698858
 21
-10.637993
  0
LINE
  5
337
100
AcDbEntity
  8
0
100
AcDbLine
 62
7
  6
CONTINUOUS
 10
0.77424
 20
-10.637993
 11
1.249088
 21
-10.637993
  0
LINE
  5
338
100
AcDbEntity
  8
0
100
AcDbLine
 62
7
  6
CONTINUOUS
 10
2.15967
 20
-10.637993
 11
2.66563
 21
-10.637993
  0
LINE
  5
339
100
AcDbEntity
  8
0
100
AcDbLine
 62
7
  6
CONTINUOUS
 10
2.8065975821
 20
-10.6379928336
 11
3.2847223015
 21
-10.6379928336
  0
LINE
  5
33A
100
AcDbEntity
  8
0
100
AcDbLine
 62
7
  6
CONTINUOUS
 10
4.0198623394
 20
-10.6379928336
 11
4.4816207207
 21
-10.6379928336
  0
LINE
  5
33B
100
AcDbEntity
  8
0
100
AcDbLine
 62
250
  6
CONTINUOUS
 10
20.35
 20
-10.4430882675
 11
5.25
 21
-10.4430882675
  0
LINE
  5
33C
100
AcDbEntity
  8
0
100
AcDbLine
 62
250
  6
CONTINUOUS
 10
4.4302542698
 20
-10.4430882675
 11
3.9629284755
 21
-10.4430882675
  0
LINE
  5
33D
100
AcDbEntity
  8
0
100
AcDbLine
 62
250
  6
CONTINUOUS
 10
3.2847223015
 20
-10.4430882675
 11
2.8065975821
 21
-10.4430882675
  0
LINE
  5
33E
100
AcDbEntity
  8
0
100
AcDbLine
 62
250
  6
CONTINUOUS
 10
2.6058283611
 20
-10.4430882675
 11
2.1068769339
 21
-10.4430882675
  0
LINE
  5
33F
100
AcDbEntity
  8
0
100
AcDbLine
 62
250
  6
CONTINUOUS
 10
1.305321785
 20
-10.4430882675
 11
0.8353744852
 21
-10.4430882675
  0
LINE
  5
340
100
AcDbEntity
  8
0
100
AcDbLine
 62
250
  6
CONTINUOUS
 10
0.680632235
 20
-10.4430882675
 11
0.2163814491
 21
-10.4430882675
  0
LINE
  5
341
100
AcDbEntity
  8
0
100
AcDbLine
 62
250
  6
CONTINUOUS
 10
-0.3657888648
 20
-10.4430882675
 11
-0.5805997893
 21
-10.4430882675
  0
LINE
  5
342
100
AcDbEntity
  8
0
100
AcDbLine
 62
250
  6
CONTINUOUS
 10
-1.1608225081
 20
-10.4430882675
 11
-1.6159272923
 21
-10.4430882675
  0
LINE
  5
343
100
AcDbEntity
  8
0
100
AcDbLine
 62
250
  6
CONTINUOUS
 10
-1.891956
 20
-10.4430882675
 11
-2.372012
 21
-10.4430882675
  0
LINE
  5
344
100
AcDbEntity
  8
0
100
AcDbLine
 62
250
  6
CONTINUOUS
 10
-3.226755865
 20
-10.4430882675
 11
-3.7742445775
 21
-10.4430882675
  0
LINE
  5
345
100
AcDbEntity
  8
0
100
AcDbLine
 62
250
  6
CONTINUOUS
 10
-5.25
 20
-10.4430882675
 11
-20.35
 21
-10.4430882675
  0
LINE
  5
346
100
AcDbEntity
  8
0
100
AcDbLine
 62
250
  6
CONTINUOUS
 10
5.25
 20
-10.4328696235
 11
4.4275950837
 21
-10.4328696235
  0
LINE
  5
347
100
AcDbEntity
  8
0
100
AcDbLine
 62
250
  6
CONTINUOUS
 10
3.9599365843
 20
-10.4328696235
 11
3.2847223015
 21
-10.4328696235
  0
LINE
  5
348
100
AcDbEntity
  8
0
100
AcDbLine
 62
250
  6
CONTINUOUS
 10
2.8065975821
 20
-10.4328696235
 11
2.602693026
 21
-10.4328696235
  0
LINE
  5
349
100
AcDbEntity
  8
0
100
AcDbLine
 62
250
  6
CONTINUOUS
 10
2.1041090506
 20
-10.4328696235
 11
1.3082700615
 21
-10.4328696235
  0
LINE
  5
34A
100
AcDbEntity
  8
0
100
AcDbLine
 62
250
  6
CONTINUOUS
 10
0.8385797001
 20
-10.4328696235
 11
0.6796766779
 21
-10.4328696235
  0
LINE
  5
34B
100
AcDbEntity
  8
0
100
AcDbLine
 62
250
  6
CONTINUOUS
 10
0.215707499
 20
-10.4328696235
 11
-0.3618886182
 21
-10.4328696235
  0
LINE
  5
34C
100
AcDbEntity
  8
0
100
AcDbLine
 62
250
  6
CONTINUOUS
 10
-0.5844319127
 20
-10.4328696235
 11
-1.1601175755
 21
-10.4328696235
  0
LINE
  5
34D
100
AcDbEntity
  8
0
100
AcDbLine
 62
250
  6
CONTINUOUS
 10
-1.6150046111
 20
-10.4328696235
 11
-1.891956
 21
-10.4328696235
  0
LINE
  5
34E
100
AcDbEntity
  8
0
100
AcDbLine
 62
250
  6
CONTINUOUS
 10
-2.372012
 20
-10.4328696235
 11
-3.2234711863
 21
-10.4328696235
  0
LINE
  5
34F
100
AcDbEntity
  8
0
100
AcDbLine
 62
250
  6
CONTINUOUS
 10
-3.7774840856
 20
-10.4328696235
 11
-5.25
 21
-10.4328696235
  0
LINE
  5
350
100
AcDbEntity
  8
0
100
AcDbLine
 62
7
  6
CONTINUOUS
 10
21.35
 20
-10.25
 11
20.35
 21
-10.25
  0
LINE
  5
351
100
AcDbEntity
  8
0
100
AcDbLine
 62
7
  6
CONTINUOUS
 10
-20.35
 20
-10.25
 11
-21.35
 21
-10.25
  0
LINE
  5
352
100
AcDbEntity
  8
0
100
AcDbLine
 62
7
  6
CONTINUOUS
 10
2.03531
 20
-10.178873
 11
1.381553
 21
-10.178873
  0
LINE
  5
353
100
AcDbEntity
  8
0
100
AcDbLine
 62
7
  6
CONTINUOUS
 10
1.939371
 20
-9.823608
 11
1.479751
 21
-9.823608
  0
LINE
  5
354
100
AcDbEntity
  8
0
100
AcDbLine
 62
7
  6
CONTINUOUS
 10
3.5421170294
 20
-9.7379822027
 11
3.2847223015
 21
-9.7379822027
  0
LINE
  5
355
100
AcDbEntity
  8
0
100
AcDbLine
 62
7
  6
CONTINUOUS
 10
3.543151782
 20
-9.361332229
 11
3.2688043561
 21
-9.361332229
  0
LINE
  5
356
100
AcDbEntity
  8
DRAFT
100
AcDbLine
 62
7
  6
CONTINUOUS
 10
21.35
 20
-11.8381006266
 11
21.85
 21
-11.8633564283
  0
LWPOLYLINE
  5
357
100
AcDbEntity
  8
0
100
AcDbPolyline
 62
7
  6
CONTINUOUS
 90
16
 70
0
 10
4.184050388
 20
-18.0926351142
 10
4.1728859763
 20
-18.081440005
 10
4.1611389053
 20
-18.0710899829
 10
4.1488091751
 20
-18.0615850479
 10
4.1358195891
 20
-18.0529354081
 10
4.1222473439
 20
-18.0451308555
 10
4.1083240292
 20
-18.0381407662
 10
4.0940715159
 20
-18.0319588391
 10
4.079467933
 20
-18.0265913753
 10
4.0646792577
 20
-18.0220266536
 10
4.0497269775
 20
-18.018291224
 10
4.0345896048
 20
-18.0153585366
 10
4.0193686534
 20
-18.0131372202
 10
4.0040979613
 20
-18.0115968178
 10
3.9887436905
 20
-18.0107677864
 10
3.973305841
 20
-18.010650126
  0
LWPOLYLINE
  5
358
100
AcDbEntity
  8
0
100
AcDbPolyline
 62
7
  6
CONTINUOUS
 90
10
 70
0
 10
-1.5370981864
 20
-19.9164351452
 10
-1.5495437198
 20
-19.8860581295
 10
-1.5609351738
 20
-19.8545499706
 10
-1.5712725485
 20
-19.8219106683
 10
-1.5805521864
 20
-19.788057253
 10
-1.5887777449
 20
-19.7530726943
 10
-1.5959601965
 20
-19.7172059018
 10
-1.6021031988
 20
-19.6805398455
 10
-1.6072030943
 20
-19.6429915554
 10
-1.6112598829
 20
-19.6045610315
  0
LINE
  5
359
100
AcDbEntity
  8
RACCORDO
100
AcDbLine
 62
250
  6
CONTINUOUS
 10
-6.85
 20
20.4845614035
 11
-6.85
 21
21.6
  0
LWPOLYLINE
  5
35A
100
AcDbEntity
  8
RACCORDO
100
AcDbPolyline
 62
250
  6
CONTINUOUS
 90
6
 70
0
 10
-5.3782292105
 20
22.1613941852
 10
-5.3773708884
 20
22.1761874328
 10
-5.3765472082
 20
22.1968686206
 10
-5.3757581699
 20
22.2232420425
 10
-5.3749984836
 20
22.255047129
 10
-5.3735989062
 20
22.3339008114
  0
LWPOLYLINE
  5
35B
100
AcDbEntity
  8
RACCORDO
100
AcDbPolyline
 62
250
  6
CONTINUOUS
 90
13
 70
0
 10
-5.5781986766
 20
23.4416442642
 10
-5.5764155445
 20
23.4673037053
 10
-5.5712544417
 20
23.4925257963
 10
-5.5628033361
 20
23.5168806416
 10
-5.5512062719
 20
23.5399531271
 10
-5.5366609142
 20
23.5613499958
 10
-5.5194151799
 20
23.5807065509
 10
-5.4997630126
 20
23.5976928711
 10
-5.4780393716
 20
23.6120194347
 10
-5.4546145238
 20
23.6234420536
 10
-5.4298877319
 20
23.6317660362
 10
-5.4042804495
 20
23.6368495048
 10
-5.3782291376
 20
23.6386058148
  0
LWPOLYLINE
  5
35C
100
AcDbEntity
  8
RACCORDO
100
AcDbPolyline
 62
250
  6
CONTINUOUS
 90
7
 70
0
 10
-5.5781986766
 20
22.3583557358
 10
-5.5773404808
 20
22.3694969159
 10
-5.576516877
 20
22.3846152812
 10
-5.5757278651
 20
22.4037108318
 10
-5.5749681276
 20
22.4269939857
 10
-5.5742429821
 20
22.4542543249
 10
-5.5729450175
 20
22.518902668
  0
LWPOLYLINE
  5
35D
100
AcDbEntity
  8
RACCORDO
100
AcDbPolyline
 62
250
  6
CONTINUOUS
 90
7
 70
0
 10
-4.9218013234
 20
23.4416442642
 10
-4.9226330506
 20
23.4309325829
 10
-4.923432906
 20
23.4164572558
 10
-4.9242008897
 20
23.3982182829
 10
-4.9249419434
 20
23.3760272383
 10
-4.9256511255
 20
23.350072548
 10
-4.9269288065
 20
23.2884850368
  0
LINE
  5
35E
100
AcDbEntity
  8
RACCORDO
100
AcDbLine
 62
250
  6
CONTINUOUS
 10
-5.6
 20
22.1381238696
 11
-5.5781986766
 21
22.3583557358
  0
LINE
  5
35F
100
AcDbEntity
  8
RACCORDO
100
AcDbLine
 62
250
  6
CONTINUOUS
 10
-5.4005757424
 20
21.9356540133
 11
-5.3782291376
 21
22.1613941852
  0
LINE
  5
360
100
AcDbEntity
  8
RACCORDO
100
AcDbLine
 62
250
  6
CONTINUOUS
 10
-5.0994242576
 20
23.8643459867
 11
-5.1217708624
 21
23.6386058148
  0
LINE
  5
361
100
AcDbEntity
  8
RACCORDO
100
AcDbLine
 62
250
  6
CONTINUOUS
 10
-4.9
 20
23.6618761304
 11
-4.9218013234
 21
23.4416442642
  0
LINE
  5
362
100
AcDbEntity
  8
0
100
AcDbLine
 62
7
  6
CONTINUOUS
 10
-3.6973821272
 20
10.2175256378
 11
-3.2128480867
 21
11.3942378508
  0
LWPOLYLINE
  5
363
100
AcDbEntity
  8
RACCORDO
100
AcDbPolyline
 62
7
  6
CONTINUOUS
 90
13
 70
0
 10
6.6208712153
 20
20.4196499413
 10
6.6309396224
 20
20.4314857404
 10
6.643165024
 20
20.4416439332
 10
6.6573844081
 20
20.4502392673
 10
6.6733205754
 20
20.4573602067
 10
6.6908281955
 20
20.4632157149
 10
6.7099715593
 20
20.4680805229
 10
6.7306084357
 20
20.4721246308
 10
6.7524868504
 20
20.475455528
 10
6.7755725747
 20
20.4782076539
 10
6.7997138844
 20
20.4805245921
 10
6.824609401
 20
20.4825817076
 10
6.85
 20
20.4845614035
  0
LINE
  5
364
100
AcDbEntity
  8
RACCORDO
100
AcDbLine
 62
250
  6
CONTINUOUS
 10
16.0934920741
 20
20.1151224438
 11
15.9708336545
 21
20.028780611
  0
LWPOLYLINE
  5
365
100
AcDbEntity
  8
RACCORDO
100
AcDbPolyline
 62
250
  6
CONTINUOUS
 90
12
 70
0
 10
-19.7438267808
 20
-12.9350412696
 10
-19.7513290335
 20
-12.9367140006
 10
-19.7610475426
 20
-12.9382983099
 10
-19.7729823081
 20
-12.9397941976
 10
-19.7874828141
 20
-12.9412112423
 10
-19.8041995764
 20
-12.9425398653
 10
-19.8220841426
 20
-12.9437513313
 10
-19.841093451
 20
-12.9448342413
 10
-19.8612705632
 20
-12.9457999943
 10
-19.8816962114
 20
-12.9466540516
 10
-19.9019665266
 20
-12.947387462
 10
-19.9224853778
 20
-12.9480091767
  0
LWPOLYLINE
  5
366
100
AcDbEntity
  8
0
100
AcDbPolyline
 62
7
  6
CONTINUOUS
 90
25
 70
0
 10
2.8065975821
 20
-8.3650723535
 10
2.8558205294
 20
-8.3579770321
 10
2.9050220078
 20
-8.3512081215
 10
2.9541947921
 20
-8.34481246
 10
3.0032970256
 20
-8.3388403196
 10
3.0523562918
 20
-8.3333325402
 10
3.101470044
 20
-8.328323897
 10
3.1506438549
 20
-8.323861223
 10
3.1998590574
 20
-8.3199936971
 10
3.2491773078
 20
-8.3167651847
 10
3.2985980266
 20
-8.3142262454
 10
3.3481088672
 20
-8.3124285228
 10
3.3977539937
 20
-8.311423022
 10
3.4475719417
 20
-8.3112646678
 10
3.4975109391
 20
-8.3120102526
 10
3.5474796064
 20
-8.3137122707
 10
3.5974245704
 20
-8.3164193892
 10
3.6473855858
 20
-8.3201844668
 10
3.6973904801
 20
-8.3250927041
 10
3.7473920699
 20
-8.3313323299
 10
3.7972192731
 20
-8.3391036889
 10
3.8466504301
 20
-8.3485920481
 10
3.8955349735
 20
-8.3599851811
 10
3.9437912081
 20
-8.3734846408
 10
3.9913031656
 20
-8.3892855661
  0
LINE
  5
367
100
AcDbEntity
  8
0
100
AcDbLine
 62
7
  6
CONTINUOUS
 10
1.959997
 20
-8.338203
 11
1.4956
 21
-8.338203
  0
LINE
  5
368
100
AcDbEntity
  8
0
100
AcDbLine
 62
7
  6
CONTINUOUS
 10
0.483802
 20
-8.338203
 11
0.008833
 21
-8.338203
  0
LINE
  5
369
100
AcDbEntity
  8
0
100
AcDbLine
 62
7
  6
CONTINUOUS
 10
-0.946209
 20
-8.338203
 11
-1.425869
 21
-8.338203
  0
LINE
  5
36A
100
AcDbEntity
  8
0
100
AcDbLine
 62
7
  6
CONTINUOUS
 10
-2.550162
 20
-8.338203
 11
-3.02989
 21
-8.338203
  0
LINE
  5
36B
100
AcDbEntity
  8
0
100
AcDbLine
 62
7
  6
CONTINUOUS
 10
-3.920045
 20
-8.338203
 11
-4.441534
 21
-8.338203
  0
LINE
  5
36C
100
AcDbEntity
  8
0
100
AcDbLine
 62
7
  6
CONTINUOUS
 10
-1.891956
 20
-8.338065
 11
-2.372012
 21
-8.338065
  0
LINE
  5
36D
100
AcDbEntity
  8
RACCORDO
100
AcDbLine
 62
7
  6
CONTINUOUS
 10
4.75
 20
-7.5
 11
-4.75
 21
-7.5
  0
LWPOLYLINE
  5
36E
100
AcDbEntity
  8
0
100
AcDbPolyline
 62
7
  6
CONTINUOUS
 90
10
 70
0
 10
3.6448730265
 20
-8.7164557013
 10
3.6043691944
 20
-8.7124399231
 10
3.563416501
 20
-8.7097565073
 10
3.5220757085
 20
-8.7084335057
 10
3.4804314812
 20
-8.7084987435
 10
3.438528776
 20
-8.7099795533
 10
3.3963732275
 20
-8.7129099513
 10
3.3540155479
 20
-8.7173248608
 10
3.311505092
 20
-8.7231204141
 10
3.2688043561
 20
-8.7299951302
  0
LINE
  5
36F
100
AcDbEntity
  8
RACCORDO
100
AcDbLine
 62
250
  6
CONTINUOUS
 10
19.5961056179
 20
-13.0848356998
 11
19.2542023768
 21
-12.9832154627
  0
LINE
  5
370
100
AcDbEntity
  8
RACCORDO
100
AcDbLine
 62
250
  6
CONTINUOUS
 10
19.7438267808
 20
-12.9350412696
 11
19.4138273498
 21
-12.8369590744
  0
LWPOLYLINE
  5
371
100
AcDbEntity
  8
0
100
AcDbPolyline
 62
7
  6
CONTINUOUS
 90
3
 70
0
 10
4.0407988352
 20
-9.564471425
 10
4.0664240613
 20
-9.5763455945
 10
4.0901779313
 20
-9.590528418
  0
LWPOLYLINE
  5
372
100
AcDbEntity
  8
0
100
AcDbPolyline
 62
7
  6
CONTINUOUS
 90
7
 70
0
 10
-0.5885198874
 20
-18.0679115334
 10
-0.5701807776
 20
-18.111757183
 10
-0.5540988908
 20
-18.1577892135
 10
-0.540274227
 20
-18.2060076248
 10
-0.5287067861
 20
-18.256412417
 10
-0.5193965682
 20
-18.3090035899
 10
-0.5123435732
 20
-18.3637811436
  0
LWPOLYLINE
  5
373
100
AcDbEntity
  8
0
100
AcDbPolyline
 62
7
  6
CONTINUOUS
 90
10
 70
0
 10
-0.0992006234
 20
-19.9164351452
 10
-0.1116461568
 20
-19.8860581295
 10
-0.1230376108
 20
-19.8545499706
 10
-0.1333749855
 20
-19.8219106683
 10
-0.1426546234
 20
-19.788057253
 10
-0.1508801819
 20
-19.7530726943
 10
-0.1580626335
 20
-19.7172059018
 10
-0.1642056359
 20
-19.6805398455
 10
-0.1693055313
 20
-19.6429915554
 10
-0.17336232
 20
-19.6045610315
  0
LWPOLYLINE
  5
374
100
AcDbEntity
  8
0
100
AcDbPolyline
 62
7
  6
CONTINUOUS
 90
16
 70
0
 10
-1.3152644997
 20
-19.7925999606
 10
-1.3115386201
 20
-19.8036278478
 10
-1.307498831
 20
-19.8145343868
 10
-1.3031451325
 20
-19.8253195776
 10
-1.298490302
 20
-19.8359960454
 10
-1.2935215621
 20
-19.846551165
 10
-1.2882005802
 20
-19.8569470608
 10
-1.2825291108
 20
-19.8671949823
 10
-1.2765053993
 20
-19.8772836801
 10
-1.2700858495
 20
-19.8871415306
 10
-1.2632628761
 20
-19.8967853913
 10
-1.2560440643
 20
-19.9061984047
 10
-1.2484085734
 20
-19.9152583745
 10
-1.2403494565
 20
-19.9239245686
 10
-1.2318736604
 20
-19.9322377191
 10
-1.2229811852
 20
-19.9401978259
  0
LINE
  5
375
100
AcDbEntity
  8
0
100
AcDbLine
 62
7
  6
CONTINUOUS
 10
-3.712456
 20
-10.637993
 11
-4.441534
 21
-8.338203
  0
LWPOLYLINE
  5
376
100
AcDbEntity
  8
0
100
AcDbPolyline
 62
7
  6
CONTINUOUS
 90
10
 70
0
 10
-3.6729575022
 20
-19.3026146467
 10
-3.6779991399
 20
-19.2834073324
 10
-3.6839013643
 20
-19.2649424115
 10
-3.6906641753
 20
-19.2472198837
 10
-3.6982967261
 20
-19.2302042158
 10
-3.7067898636
 20
-19.2139309411
 10
-3.716116128
 20
-19.1985066597
 10
-3.7262663661
 20
-19.1839669048
 10
-3.7372497312
 20
-19.1702761432
 10
-3.7490662231
 20
-19.1574343748
  0
LWPOLYLINE
  5
377
100
AcDbEntity
  8
0
100
AcDbPolyline
 62
7
  6
CONTINUOUS
 90
7
 70
0
 10
-4.2532501994
 20
-19.7475795859
 10
-4.2481434676
 20
-19.7714044545
 10
-4.241898239
 20
-19.7941825481
 10
-4.2345145136
 20
-19.8159138667
 10
-4.2259922913
 20
-19.8365984103
 10
-4.2163315721
 20
-19.8562361789
 10
-4.205532356
 20
-19.8748271725
  0
LWPOLYLINE
  5
378
100
AcDbEntity
  8
0
100
AcDbPolyline
 62
7
  6
CONTINUOUS
 90
7
 70
0
 10
-3.679006712
 20
-18.2558344102
 10
-3.6832702118
 20
-18.234209587
 10
-3.6886939678
 20
-18.212948087
 10
-3.6952779798
 20
-18.1920499102
 10
-3.7030222478
 20
-18.1715150567
 10
-3.711926772
 20
-18.1513435264
 10
-3.7219915522
 20
-18.1315353193
  0
LWPOLYLINE
  5
379
100
AcDbEntity
  8
RACCORDO
100
AcDbPolyline
 62
250
  6
CONTINUOUS
 90
4
 70
0
 10
-5.3760792892
 20
23.5881791384
 10
-5.3767505932
 20
23.6086512531
 10
-5.3774672093
 20
23.6256541241
 10
-5.3782291376
 20
23.6386058148
  0
LWPOLYLINE
  5
37A
100
AcDbEntity
  8
RACCORDO
100
AcDbPolyline
 62
250
  6
CONTINUOUS
 90
4
 70
0
 10
-5.124065344
 20
22.2168265821
 10
-5.1233498025
 20
22.1940940539
 10
-5.1225849617
 20
22.1754017016
 10
-5.1217708214
 20
22.1613941852
  0
LWPOLYLINE
  5
37B
100
AcDbEntity
  8
RACCORDO
100
AcDbPolyline
 62
250
  6
CONTINUOUS
 90
6
 70
0
 10
-5.574857401
 20
23.3694982717
 10
-5.5754305485
 20
23.3881522211
 10
-5.5760489706
 20
23.404664701
 10
-5.5767202648
 20
23.4191326915
 10
-5.5774368335
 20
23.4314592126
 10
-5.5781986766
 20
23.4416442642
  0
LINE
  5
37C
100
AcDbEntity
  8
RACCORDO
100
AcDbLine
 62
250
  6
CONTINUOUS
 10
-5.5737717497
 20
23.325167667
 11
-5.574857401
 21
23.3694982717
  0
LINE
  5
37D
100
AcDbEntity
  8
RACCORDO
100
AcDbLine
 62
250
  6
CONTINUOUS
 10
-5.3748878563
 20
23.5399807035
 11
-5.3760792892
 21
23.5881791384
  0
LINE
  5
37E
100
AcDbEntity
  8
RACCORDO
100
AcDbLine
 62
250
  6
CONTINUOUS
 10
-5.1253354168
 20
22.2710029498
 11
-5.124065344
 21
22.2168265821
  0
LINE
  5
37F
100
AcDbEntity
  8
RACCORDO
100
AcDbLine
 62
250
  6
CONTINUOUS
 10
-4.9265051714
 20
22.4884191732
 11
-4.9253658683
 21
22.4385724063
  0
LINE
  5
380
100
AcDbEntity
  8
RACCORDO
100
AcDbLine
 62
250
  6
CONTINUOUS
 10
-5.5727668353
 20
23.2702674361
 11
-5.5737717497
 21
23.325167667
  0
LINE
  5
381
100
AcDbEntity
  8
RACCORDO
100
AcDbLine
 62
250
  6
CONTINUOUS
 10
-5.3738022649
 20
23.4796128461
 11
-5.3748878563
 21
23.5399807035
  0
LINE
  5
382
100
AcDbEntity
  8
RACCORDO
100
AcDbLine
 62
250
  6
CONTINUOUS
 10
-5.1264746471
 20
22.3388949602
 11
-5.1253354168
 21
22.2710029498
  0
LINE
  5
383
100
AcDbEntity
  8
RACCORDO
100
AcDbLine
 62
250
  6
CONTINUOUS
 10
-4.9275307792
 20
22.5493739197
 11
-4.9265051714
 21
22.4884191732
  0
LINE
  5
384
100
AcDbEntity
  8
RACCORDO
100
AcDbLine
 62
250
  6
CONTINUOUS
 10
-5.3723139062
 20
23.3596903853
 11
-5.3738022649
 21
23.4796128461
  0
LINE
  5
385
100
AcDbEntity
  8
RACCORDO
100
AcDbLine
 62
250
  6
CONTINUOUS
 10
-5.5714077727
 20
23.1602006766
 11
-5.5727668353
 21
23.2702674361
  0
LINE
  5
386
100
AcDbEntity
  8
RACCORDO
100
AcDbLine
 62
250
  6
CONTINUOUS
 10
-5.1279735455
 20
22.4709360019
 11
-5.1264746471
 21
22.3388949602
  0
LINE
  5
387
100
AcDbEntity
  8
RACCORDO
100
AcDbLine
 62
250
  6
CONTINUOUS
 10
-4.9288267276
 20
22.6665383787
 11
-4.9275307792
 21
22.5493739197
  0
LINE
  5
388
100
AcDbEntity
  8
RACCORDO
100
AcDbLine
 62
250
  6
CONTINUOUS
 10
-5.5705071847
 20
23.0226428623
 11
-5.5714077727
 21
23.1602006766
  0
LINE
  5
389
100
AcDbEntity
  8
RACCORDO
100
AcDbLine
 62
250
  6
CONTINUOUS
 10
-5.3707713197
 20
23.1325020696
 11
-5.3723139062
 21
23.3596903853
  0
LINE
  5
38A
100
AcDbEntity
  8
RACCORDO
100
AcDbLine
 62
250
  6
CONTINUOUS
 10
-5.1293696343
 20
22.7041703134
 11
-5.1279735455
 21
22.4709360019
  0
LINE
  5
38B
100
AcDbEntity
  8
RACCORDO
100
AcDbLine
 62
250
  6
CONTINUOUS
 10
-4.9295853215
 20
22.8034063955
 11
-4.9288267276
 21
22.6665383787
  0
LINE
  5
38C
100
AcDbEntity
  8
RACCORDO
100
AcDbLine
 62
7
  6
CONTINUOUS
 10
-6.6
 20
20.39
 11
-6.6
 21
21.35
  0
LINE
  5
38D
100
AcDbEntity
  8
RACCORDO
100
AcDbLine
 62
250
  6
CONTINUOUS
 10
-6.5700524853
 20
19.8
 11
-6.5700524853
 21
19.95
  0
LINE
  5
38E
100
AcDbEntity
  8
0
100
AcDbLine
 62
7
  6
CONTINUOUS
 10
-5.75
 20
-5.75
 11
-5.75
 21
5.75
  0
LINE
  5
38F
100
AcDbEntity
  8
RACCORDO
100
AcDbLine
 62
7
  6
CONTINUOUS
 10
-5.6
 20
22.1381238696
 11
-5.6
 21
23.6618761304
  0
LINE
  5
390
100
AcDbEntity
  8
RACCORDO
100
AcDbLine
 62
250
  6
CONTINUOUS
 10
-5.5702754496
 20
22.8749198805
 11
-5.5705071847
 21
23.0226428623
  0
LINE
  5
391
100
AcDbEntity
  8
RACCORDO
100
AcDbLine
 62
250
  6
CONTINUOUS
 10
-5.3703059103
 20
22.865799837
 11
-5.3707713197
 21
23.1325020696
  0
LINE
  5
392
100
AcDbEntity
  8
RACCORDO
100
AcDbLine
 62
7
  6
CONTINUOUS
 10
-5.25
 20
-17.5
 11
-5.25
 21
-20.5
  0
LINE
  5
393
100
AcDbEntity
  8
RACCORDO
100
AcDbLine
 62
7
  6
CONTINUOUS
 10
-5.25
 20
-14.0
 11
-5.25
 21
-8.0
  0
LINE
  5
394
100
AcDbEntity
  8
RACCORDO
100
AcDbLine
 62
7
  6
CONTINUOUS
 10
-5.25
 20
8.0
 11
-5.25
 21
12.0
  0
LINE
  5
395
100
AcDbEntity
  8
RACCORDO
100
AcDbLine
 62
7
  6
CONTINUOUS
 10
-4.9192005714
 20
22.6426079594
 11
-4.9192005714
 21
23.1573920406
  0
LINE
  5
396
100
AcDbEntity
  8
RACCORDO
100
AcDbLine
 62
7
  6
CONTINUOUS
 10
-4.9
 20
22.1381238696
 11
-4.9
 21
22.6
  0
LINE
  5
397
100
AcDbEntity
  8
RACCORDO
100
AcDbLine
 62
7
  6
CONTINUOUS
 10
-4.9
 20
23.2
 11
-4.9
 21
23.6618761304
  0
LINE
  5
398
100
AcDbEntity
  8
RACCORDO
100
AcDbLine
 62
7
  6
CONTINUOUS
 10
-4.8
 20
22.817559358
 11
-4.8
 21
22.982440642
  0
LINE
  5
399
100
AcDbEntity
  8
0
100
AcDbLine
 62
7
  6
CONTINUOUS
 10
-4.495021
 20
-18.3669433274
 11
-4.495021
 21
-18.395574
  0
LINE
  5
39A
100
AcDbEntity
  8
RACCORDO
100
AcDbLine
 62
250
  6
CONTINUOUS
 10
-5.1296690088
 20
22.964045745
 11
-5.1293696343
 21
22.7041703134
  0
LINE
  5
39B
100
AcDbEntity
  8
RACCORDO
100
AcDbLine
 62
250
  6
CONTINUOUS
 10
-4.9296994693
 20
22.9469668797
 11
-4.9295853215
 21
22.8034063955
  0
LINE
  5
39C
100
AcDbEntity
  8
RACCORDO
100
AcDbLine
 62
250
  6
CONTINUOUS
 10
-5.5707390189
 20
22.7293923857
 11
-5.5702754496
 21
22.8749198805
  0
LINE
  5
39D
100
AcDbEntity
  8
RACCORDO
100
AcDbLine
 62
250
  6
CONTINUOUS
 10
-5.371073949
 20
22.6042289459
 11
-5.3703059103
 21
22.865799837
  0
LINE
  5
39E
100
AcDbEntity
  8
RACCORDO
100
AcDbLine
 62
250
  6
CONTINUOUS
 10
-5.1288109319
 20
23.2159292578
 11
-5.1296690088
 21
22.964045745
  0
LINE
  5
39F
100
AcDbEntity
  8
RACCORDO
100
AcDbLine
 62
250
  6
CONTINUOUS
 10
-4.9291607399
 20
23.0872951463
 11
-4.9296994693
 21
22.9469668797
  0
LINE
  5
3A0
100
AcDbEntity
  8
RACCORDO
100
AcDbLine
 62
250
  6
CONTINUOUS
 10
-5.3724026731
 20
22.4311148654
 11
-5.371073949
 21
22.6042289459
  0
LINE
  5
3A1
100
AcDbEntity
  8
RACCORDO
100
AcDbLine
 62
250
  6
CONTINUOUS
 10
-5.1274668326
 20
23.3813349933
 11
-5.1288109319
 21
23.2159292578
  0
LINE
  5
3A2
100
AcDbEntity
  8
RACCORDO
100
AcDbLine
 62
250
  6
CONTINUOUS
 10
-5.5718638015
 20
22.5961237328
 11
-5.5707390189
 21
22.7293923857
  0
LINE
  5
3A3
100
AcDbEntity
  8
RACCORDO
100
AcDbLine
 62
250
  6
CONTINUOUS
 10
-4.9280060536
 20
23.2148353811
 11
-4.9291607399
 21
23.0872951463
  0
LINE
  5
3A4
100
AcDbEntity
  8
RACCORDO
100
AcDbLine
 62
250
  6
CONTINUOUS
 10
-5.3735989062
 20
22.3339008114
 11
-5.3724026731
 21
22.4311148654
  0
LINE
  5
3A5
100
AcDbEntity
  8
RACCORDO
100
AcDbLine
 62
250
  6
CONTINUOUS
 10
-5.1262830899
 20
23.4739811214
 11
-5.1274668326
 21
23.3813349933
  0
LINE
  5
3A6
100
AcDbEntity
  8
RACCORDO
100
AcDbLine
 62
250
  6
CONTINUOUS
 10
-5.5729450175
 20
22.518902668
 11
-5.5718638015
 21
22.5961237328
  0
LINE
  5
3A7
100
AcDbEntity
  8
RACCORDO
100
AcDbLine
 62
250
  6
CONTINUOUS
 10
-4.9269288065
 20
23.2884850368
 11
-4.9280060536
 21
23.2148353811
  0
LWPOLYLINE
  5
3A8
100
AcDbEntity
  8
RACCORDO
100
AcDbPolyline
 62
250
  6
CONTINUOUS
 90
6
 70
0
 10
-5.1217707959
 20
23.6386058148
 10
-5.1226026385
 20
23.6243526601
 10
-5.1234025637
 20
23.6045559119
 10
-5.1241705714
 20
23.5793885682
 10
-5.1249115781
 20
23.5490803974
 10
-5.1262830899
 20
23.4739811214
  0
LWPOLYLINE
  5
3A9
100
AcDbEntity
  8
RACCORDO
100
AcDbPolyline
 62
250
  6
CONTINUOUS
 90
13
 70
0
 10
-4.9218013234
 20
22.3583557358
 10
-4.9235844555
 20
22.3326962946
 10
-4.9287455583
 20
22.3074742035
 10
-4.937196664
 20
22.2831193581
 10
-4.9487937282
 20
22.2600468725
 10
-4.963339086
 20
22.2386500036
 10
-4.9805848203
 20
22.2192934484
 10
-5.0002369877
 20
22.202307128
 10
-5.0219606286
 20
22.1879805644
 10
-5.0453854764
 20
22.1765579455
 10
-5.0701122683
 20
22.1682339632
 10
-5.0957195507
 20
22.1631504948
 10
-5.1217708624
 20
22.1613941852
  0
LINE
  5
3AA
100
AcDbEntity
  8
RACCORDO
100
AcDbLine
 62
7
  6
CONTINUOUS
 10
6.4065079259
 20
20.1151224438
 11
6.6208712153
 21
20.4196499413
  0
LINE
  5
3AB
100
AcDbEntity
  8
RACCORDO
100
AcDbLine
 62
250
  6
CONTINUOUS
 10
6.5291663455
 20
20.028780611
 11
6.85
 21
20.4845614035
  0
LINE
  5
3AC
100
AcDbEntity
  8
0
100
AcDbLine
 62
7
  6
CONTINUOUS
 10
5.75
 20
-5.75
 11
-5.75
 21
-5.75
  0
LWPOLYLINE
  5
3AD
100
AcDbEntity
  8
0
100
AcDbPolyline
 62
7
  6
CONTINUOUS
 90
52
 70
0
 10
3.9913031656
 20
-8.3892855661
 10
4.0238725465
 20
-8.4027853798
 10
4.056562278
 20
-8.4197690267
 10
4.0892237666
 20
-8.4400040747
 10
4.1217466146
 20
-8.4632465461
 10
4.1538015477
 20
-8.4894879067
 10
4.1849082788
 20
-8.5187230403
 10
4.2149742994
 20
-8.5513352334
 10
4.2433646718
 20
-8.5871431351
 10
4.269009909
 20
-8.6249751347
 10
4.2917748599
 20
-8.664587249
 10
4.311509749
 20
-8.7057121536
 10
4.3276547366
 20
-8.7468223779
 10
4.3403924006
 20
-8.7872342195
 10
4.3501755588
 20
-8.8270283142
 10
4.3572940564
 20
-8.8657739345
 10
4.3621042119
 20
-8.9030927238
 10
4.3649880174
 20
-8.9390377782
 10
4.3662210141
 20
-8.9738838551
 10
4.3659302561
 20
-9.0076058704
 10
4.3642332459
 20
-9.0400628213
 10
4.3612308535
 20
-9.0713854727
 10
4.3570160567
 20
-9.1015722423
 10
4.3516951883
 20
-9.1305546007
 10
4.3453596554
 20
-9.1583762573
 10
4.3381122137
 20
-9.18501704
 10
4.3300473707
 20
-9.2104941081
 10
4.3212322705
 20
-9.2348971111
 10
4.3117875059
 20
-9.2581620006
 10
4.3018135637
 20
-9.2802773788
 10
4.2913299971
 20
-9.3013798925
 10
4.2803992287
 20
-9.3214783707
 10
4.2691119305
 20
-9.3405282265
 10
4.2574987622
 20
-9.3585858248
 10
4.2456156313
 20
-9.3756562575
 10
4.2335269626
 20
-9.3917334214
 10
4.2212616919
 20
-9.4068597373
 10
4.2088621202
 20
-9.4211030447
 10
4.196397455
 20
-9.4345414138
 10
4.1839323836
 20
-9.4472485665
 10
4.1715259203
 20
-9.4592917648
 10
4.1592163681
 20
-9.4707452231
 10
4.1470316056
 20
-9.4816788335
 10
4.1350420136
 20
-9.4921133137
 10
4.1232524139
 20
-9.5021169037
 10
4.111580523
 20
-9.5118177609
 10
4.1000229538
 20
-9.5211784978
 10
4.0885247035
 20
-9.5298301013
 10
4.076924096
 20
-9.537441539
 10
4.0651234839
 20
-9.5436841889
 10
4.0530964636
 20
-9.5482449923
 10
4.0407988352
 20
-9.5508816732
  0
LWPOLYLINE
  5
3AE
100
AcDbEntity
  8
DRAFT
100
AcDbPolyline
 62
7
  6
CONTINUOUS
 90
5
 70
0
 10
20.9269851416
 20
-14.7583851778
 10
20.9187970326
 20
-14.7549084219
 10
20.9106660026
 20
-14.7515199619
 10
20.9026185195
 20
-14.7482216892
 10
20.8946545832
 20
-14.7450136038
  0
LINE
  5
3AF
100
AcDbEntity
  8
DRAFT
100
AcDbLine
 62
7
  6
CONTINUOUS
 10
20.9436914034
 20
-14.7656149254
 11
20.9269851416
 21
-14.7583851778
  0
LINE
  5
3B0
100
AcDbEntity
  8
DRAFT
100
AcDbLine
 62
7
  6
CONTINUOUS
 10
20.970052324
 20
-14.777184181
 11
20.9436914034
 21
-14.7656149254
  0
LINE
  5
3B1
100
AcDbEntity
  8
DRAFT
100
AcDbLine
 62
7
  6
CONTINUOUS
 10
21.0389581711
 20
-14.8078591297
 11
20.970052324
 21
-14.777184181
  0
LINE
  5
3B2
100
AcDbEntity
  8
DRAFT
100
AcDbLine
 62
7
  6
CONTINUOUS
 10
21.1328427125
 20
-14.85
 11
21.0389581711
 21
-14.8078591297
  0
LWPOLYLINE
  5
3B3
100
AcDbEntity
  8
0
100
AcDbPolyline
 62
7
  6
CONTINUOUS
 90
18
 70
0
 10
4.0901779313
 20
-9.590528418
 10
4.1121730965
 20
-9.6066969244
 10
4.1325313454
 20
-9.6245632354
 10
4.1513389519
 20
-9.6438351729
 10
4.1686556136
 20
-9.6642037056
 10
4.1845270136
 20
-9.685341847
 10
4.1991090837
 20
-9.7070901863
 10
4.2126026804
 20
-9.7294356664
 10
4.2250610327
 20
-9.7521879223
 10
4.2365543406
 20
-9.7752013082
 10
4.2472544278
 20
-9.798584952
 10
4.2571925106
 20
-9.822204561
 10
4.266398401
 20
-9.8459238378
 10
4.2749917559
 20
-9.8698673925
 10
4.2830123689
 20
-9.8939923587
 10
4.2904671664
 20
-9.9181083184
 10
4.2974820887
 20
-9.9422388068
 10
4.3042142433
 20
-9.9664603543
  0
LWPOLYLINE
  5
3B4
100
AcDbEntity
  8
0
100
AcDbPolyline
 62
7
  6
CONTINUOUS
 90
7
 70
0
 10
0.8493776755
 20
-18.0679115334
 10
0.8677167853
 20
-18.111757183
 10
0.8837986722
 20
-18.1577892135
 10
0.897623336
 20
-18.2060076248
 10
0.9091907769
 20
-18.256412417
 10
0.9185009948
 20
-18.3090035899
 10
0.9255539898
 20
-18.3637811436
  0
LWPOLYLINE
  5
3B5
100
AcDbEntity
  8
0
100
AcDbPolyline
 62
7
  6
CONTINUOUS
 90
7
 70
0
 10
2.2872752385
 20
-18.0679115334
 10
2.3056143483
 20
-18.111757183
 10
2.3216962351
 20
-18.1577892135
 10
2.335520899
 20
-18.2060076248
 10
2.3470883399
 20
-18.256412417
 10
2.3563985578
 20
-18.3090035899
 10
2.3634515527
 20
-18.3637811436
  0
LWPOLYLINE
  5
3B6
100
AcDbEntity
  8
0
100
AcDbPolyline
 62
7
  6
CONTINUOUS
 90
10
 70
0
 10
1.3386972137
 20
-19.9164351452
 10
1.3262516804
 20
-19.8860581295
 10
1.3148602263
 20
-19.8545499706
 10
1.3045228516
 20
-19.8219106683
 10
1.2952432138
 20
-19.788057253
 10
1.2870176553
 20
-19.7530726943
 10
1.2798352036
 20
-19.7172059018
 10
1.2736922013
 20
-19.6805398455
 10
1.2685923058
 20
-19.6429915554
 10
1.2645355172
 20
-19.6045610315
  0
LINE
  5
3B7
100
AcDbEntity
  8
0
100
AcDbLine
 62
7
  6
CONTINUOUS
 10
-1.134218
 20
-11.58222
 11
-0.361189
 21
-13.649994
  0
LINE
  5
3B8
100
AcDbEntity
  8
0
100
AcDbLine
 62
7
  6
CONTINUOUS
 10
-0.192586
 20
-13.417767
 11
-0.965615
 21
-11.349993
  0
LWPOLYLINE
  5
3B9
100
AcDbEntity
  8
0
100
AcDbPolyline
 62
7
  6
CONTINUOUS
 90
16
 70
0
 10
0.1226331882
 20
-19.79259992
 10
0.1263590796
 20
-19.8036277917
 10
0.1303988746
 20
-19.8145343185
 10
0.1347525731
 20
-19.8253195003
 10
0.1394073965
 20
-19.8359959623
 10
0.1443761236
 20
-19.8465510794
 10
0.1496970904
 20
-19.8569469759
 10
0.1553685426
 20
-19.8671949017
 10
0.1613922346
 20
-19.8772836069
 10
0.1678117663
 20
-19.8871414668
 10
0.1746347235
 20
-19.8967853396
 10
0.1818535205
 20
-19.9061983672
 10
0.1894890001
 20
-19.9152583496
 10
0.19754811
 20
-19.9239245535
 10
0.2060239026
 20
-19.9322377123
 10
0.2149163778
 20
-19.9401978259
  0
LWPOLYLINE
  5
3BA
100
AcDbEntity
  8
0
100
AcDbPolyline
 62
7
  6
CONTINUOUS
 90
16
 70
0
 10
1.5605307512
 20
-19.79259992
 10
1.5642566426
 20
-19.8036277917
 10
1.5682964375
 20
-19.8145343185
 10
1.5726501361
 20
-19.8253195003
 10
1.5773049595
 20
-19.8359959623
 10
1.5822736865
 20
-19.8465510794
 10
1.5875946534
 20
-19.8569469759
 10
1.5932661055
 20
-19.8671949017
 10
1.5992897975
 20
-19.8772836069
 10
1.6057093293
 20
-19.8871414668
 10
1.6125322865
 20
-19.8967853396
 10
1.6197510835
 20
-19.9061983672
 10
1.6273865631
 20
-19.9152583496
 10
1.635445673
 20
-19.9239245535
 10
1.6439214656
 20
-19.9322377123
 10
1.6528139408
 20
-19.9401978259
  0
LWPOLYLINE
  5
3BB
100
AcDbEntity
  8
0
100
AcDbPolyline
 62
7
  6
CONTINUOUS
 90
16
 70
0
 10
-0.8048407597
 20
-18.2110650518
 10
-0.8082561446
 20
-18.2001540343
 10
-0.8119978068
 20
-18.1893605923
 10
-0.8160657464
 20
-18.1786847257
 10
-0.8204445957
 20
-18.1681127971
 10
-0.8251497224
 20
-18.157658444
 10
-0.8302272297
 20
-18.1473625784
 10
-0.8356740751
 20
-18.1372115608
 10
-0.8414933012
 20
-18.1272190306
 10
-0.8477401395
 20
-18.1174668183
 10
-0.8544244424
 20
-18.1079327123
 10
-0.8615363576
 20
-18.0986389242
 10
-0.8691015599
 20
-18.0897339193
 10
-0.8771286076
 20
-18.0812671862
 10
-0.8856089424
 20
-18.0731892365
 10
-0.8945425643
 20
-18.0655000699
  0
LWPOLYLINE
  5
3BC
100
AcDbEntity
  8
0
100
AcDbPolyline
 62
7
  6
CONTINUOUS
 90
16
 70
0
 10
0.6330570548
 20
-18.2110649763
 10
0.6296416617
 20
-18.2001539488
 10
0.6258999876
 20
-18.1893604991
 10
0.6218320325
 20
-18.1786846273
 10
0.6174531631
 20
-18.168112696
 10
0.6127480127
 20
-18.1576583426
 10
0.6076704813
 20
-18.1473624789
 10
0.6022236116
 20
-18.1372114659
 10
0.5964043609
 20
-18.1272189426
 10
0.5901575014
 20
-18.1174667379
 10
0.5834731816
 20
-18.1079326413
 10
0.5763612529
 20
-18.0986388633
 10
0.5687960428
 20
-18.0897338646
 10
0.5607689936
 20
-18.081267132
 10
0.552288663
 20
-18.0731891787
 10
0.5433550509
 20
-18.0655000047
  0
LINE
  5
3BD
100
AcDbEntity
  8
0
100
AcDbLine
 62
7
  6
CONTINUOUS
 10
-3.920045
 20
-8.338203
 11
-3.481663
 21
-9.92122
  0
LWPOLYLINE
  5
3BE
100
AcDbEntity
  8
0
100
AcDbPolyline
 62
7
  6
CONTINUOUS
 90
7
 70
0
 10
-3.3975101752
 20
-19.3085754284
 10
-3.3926850952
 20
-19.3430972293
 10
-3.3887296507
 20
-19.377171305
 10
-3.3856438419
 20
-19.4107976553
 10
-3.3834276686
 20
-19.4439762803
 10
-3.3820811309
 20
-19.4767071799
 10
-3.3816042287
 20
-19.5089903542
  0
LWPOLYLINE
  5
3BF
100
AcDbEntity
  8
0
100
AcDbPolyline
 62
7
  6
CONTINUOUS
 90
9
 70
0
 10
-0.5123435732
 20
-18.3637811436
 10
-0.5081317797
 20
-18.4053832038
 10
-0.5044530988
 20
-18.4474616367
 10
-0.5013075306
 20
-18.4900164422
 10
-0.4987152783
 20
-18.5330582335
 10
-0.4966561387
 20
-18.5765763975
 10
-0.495069502
 20
-18.6205390948
 10
-0.4939351651
 20
-18.6649357123
 10
-0.4932733311
 20
-18.709776863
  0
LINE
  5
3C0
100
AcDbEntity
  8
RACCORDO
100
AcDbLine
 62
250
  6
CONTINUOUS
 10
-5.5781986766
 20
23.4416442642
 11
-5.6
 21
23.6618761304
  0
LINE
  5
3C1
100
AcDbEntity
  8
RACCORDO
100
AcDbLine
 62
250
  6
CONTINUOUS
 10
-5.3782291376
 20
23.6386058148
 11
-5.4005757424
 21
23.8643459867
  0
LINE
  5
3C2
100
AcDbEntity
  8
RACCORDO
100
AcDbLine
 62
250
  6
CONTINUOUS
 10
-5.1217708624
 20
22.1613941852
 11
-5.0994242576
 21
21.9356540133
  0
LINE
  5
3C3
100
AcDbEntity
  8
RACCORDO
100
AcDbLine
 62
250
  6
CONTINUOUS
 10
-4.9218013234
 20
22.3583557358
 11
-4.9
 21
22.1381238696
  0
LWPOLYLINE
  5
3C4
100
AcDbEntity
  8
0
100
AcDbPolyline
 62
7
  6
CONTINUOUS
 90
7
 70
0
 10
-0.763485436
 20
-18.4496542492
 10
-0.7670513609
 20
-18.4070461148
 10
-0.7719479374
 20
-18.3655752877
 10
-0.7781751655
 20
-18.3252417678
 10
-0.7857330453
 20
-18.2860455552
 10
-0.7946215767
 20
-18.2479866499
 10
-0.8048407597
 20
-18.2110650518
  0
LWPOLYLINE
  5
3C5
100
AcDbEntity
  8
0
100
AcDbPolyline
 62
7
  6
CONTINUOUS
 90
9
 70
0
 10
-1.6112598829
 20
-19.6045610315
 10
-1.6147920042
 20
-19.5611688307
 10
-1.6177915003
 20
-19.5173021866
 10
-1.620258371
 20
-19.4729610992
 10
-1.6221291597
 20
-19.4281351042
 10
-1.6234673232
 20
-19.382834666
 10
-1.6244632318
 20
-19.3370911774
 10
-1.6251803425
 20
-19.2909151029
 10
-1.6255551983
 20
-19.2442959781
  0
LWPOLYLINE
  5
3C6
100
AcDbEntity
  8
0
100
AcDbPolyline
 62
7
  6
CONTINUOUS
 90
7
 70
0
 10
-1.3552939859
 20
-19.5567155338
 10
-1.3521954314
 20
-19.5992685585
 10
-1.3476676663
 20
-19.6405260018
 10
-1.3417106905
 20
-19.6804878636
 10
-1.3343245042
 20
-19.719154144
 10
-1.3255091072
 20
-19.756524843
 10
-1.3152644997
 20
-19.7925999606
  0
LWPOLYLINE
  5
3C7
100
AcDbEntity
  8
RACCORDO
100
AcDbPolyline
 62
250
  6
CONTINUOUS
 90
13
 70
0
 10
-5.5781986766
 20
22.3583557358
 10
-5.5764157478
 20
22.3326977843
 10
-5.5712551567
 20
22.3074768075
 10
-5.5628047343
 20
22.2831226658
 10
-5.551208378
 20
22.2600504551
 10
-5.5366636276
 20
22.2386534821
 10
-5.5194183244
 20
22.2192965457
 10
-5.4997663193
 20
22.2023096308
 10
-5.4780425185
 20
22.1879823593
 10
-5.4546172401
 20
22.1765590595
 10
-5.4298897792
 20
22.1682345084
 10
-5.4042815793
 20
22.163150644
 10
-5.3782291377
 20
22.1613941844
  0
LWPOLYLINE
  5
3C8
100
AcDbEntity
  8
RACCORDO
100
AcDbPolyline
 62
250
  6
CONTINUOUS
 90
13
 70
0
 10
-4.9218013234
 20
23.4416442642
 10
-4.9235842202
 20
23.4673019831
 10
-4.928744731
 20
23.4925227853
 10
-4.9371950456
 20
23.5168768159
 10
-4.9487912894
 20
23.5399489818
 10
-4.9633359421
 20
23.561345969
 10
-4.980581175
 20
23.5807029639
 10
-5.0002331521
 20
23.5976899716
 10
-5.0219569759
 20
23.6120173543
 10
-5.0453823213
 20
23.6234407621
 10
-5.0701098892
 20
23.6317654041
 10
-5.0957182372
 20
23.6368493318
 10
-5.1217708624
 20
23.6386058147
  0
LWPOLYLINE
  5
3C9
100
AcDbEntity
  8
RACCORDO
100
AcDbPolyline
 62
250
  6
CONTINUOUS
 90
6
 70
0
 10
-4.9253658683
 20
22.4385724063
 10
-4.9247553766
 20
22.4175334243
 10
-4.9240956348
 20
22.3990061608
 10
-4.9233801144
 20
22.3829443006
 10
-4.9226153439
 20
22.369394159
 10
-4.9218013234
 20
22.3583557358
  0
LWPOLYLINE
  5
3CA
100
AcDbEntity
  8
0
100
AcDbPolyline
 62
7
  6
CONTINUOUS
 90
7
 70
0
 10
-3.6647301449
 20
-18.405117599
 10
-3.6652963791
 20
-18.3810960619
 10
-3.6665878908
 20
-18.356730927
 10
-3.6686046799
 20
-18.3320221944
 10
-3.6713467465
 20
-18.3069698641
 10
-3.6748140905
 20
-18.281573936
 10
-3.679006712
 20
-18.2558344102
  0
LWPOLYLINE
  5
3CB
100
AcDbEntity
  8
0
100
AcDbPolyline
 62
7
  6
CONTINUOUS
 90
7
 70
0
 10
-3.6488241984
 20
-19.5376210579
 10
-3.6493663965
 20
-19.4959064649
 10
-3.6513006024
 20
-19.455210615
 10
-3.6546268159
 20
-19.4155335082
 10
-3.659345037
 20
-19.3768751446
 10
-3.6654552658
 20
-19.3392355241
 10
-3.6729575022
 20
-19.3026146467
  0
LWPOLYLINE
  5
3CC
100
AcDbEntity
  8
0
100
AcDbPolyline
 62
7
  6
CONTINUOUS
 90
7
 70
0
 10
-4.2659749566
 20
-19.582158
 10
-4.2658906302
 20
-19.6111618007
 10
-4.2649917172
 20
-19.6395921868
 10
-4.2632782177
 20
-19.6674491584
 10
-4.2607501315
 20
-19.6947327155
 10
-4.2574074587
 20
-19.7214428579
 10
-4.2532501994
 20
-19.7475795859
  0
LINE
  5
3CD
100
AcDbEntity
  8
RACCORDO
100
AcDbLine
 62
7
  6
CONTINUOUS
 10
-4.2
 20
23.0016412134
 11
-4.2
 21
22.7983587866
  0
LINE
  5
3CE
100
AcDbEntity
  8
0
100
AcDbLine
 62
7
  6
CONTINUOUS
 10
-4.103734
 20
-18.8600276687
 11
-4.103734
 21
-19.0604426631
  0
LINE
  5
3CF
100
AcDbEntity
  8
0
100
AcDbLine
 62
7
  6
CONTINUOUS
 10
-3.39
 20
-11.349993
 11
-3.39
 21
-13.649994
  0
LINE
  5
3D0
100
AcDbEntity
  8
0
100
AcDbLine
 62
7
  6
CONTINUOUS
 10
-3.3155517821
 20
8.4965397575
 11
-3.3155517821
 21
10.2175256378
  0
LINE
  5
3D1
100
AcDbEntity
  8
0
100
AcDbLine
 62
7
  6
CONTINUOUS
 10
-3.119599
 20
-13.433673
 11
-3.119599
 21
-11.349993
  0
LINE
  5
3D2
100
AcDbEntity
  8
0
100
AcDbLine
 62
7
  6
CONTINUOUS
 10
-3.1099579961
 20
8.4965397575
 11
-3.1099579961
 21
10.2175256378
  0
LINE
  5
3D3
100
AcDbEntity
  8
0
100
AcDbLine
 62
7
  6
CONTINUOUS
 10
-2.885339
 20
-18.1983404908
 11
-2.885339
 21
-18.468741
  0
LINE
  5
3D4
100
AcDbEntity
  8
0
100
AcDbLine
 62
7
  6
CONTINUOUS
 10
-2.516321
 20
-20.151591
 11
-2.516321
 21
-18.1728910407
  0
LINE
  5
3D5
100
AcDbEntity
  8
0
100
AcDbLine
 62
7
  6
CONTINUOUS
 10
-2.397469
 20
-13.649994
 11
-2.397469
 21
-13.433673
  0
LINE
  5
3D6
100
AcDbEntity
  8
0
100
AcDbLine
 62
7
  6
CONTINUOUS
 10
-2.372012
 20
-10.637993
 11
-2.372012
 21
-8.338065
  0
LINE
  5
3D7
100
AcDbEntity
  8
0
100
AcDbLine
 62
7
  6
CONTINUOUS
 10
-2.252282
 20
-20.151591
 11
-2.252282
 21
-17.851591
  0
LINE
  5
3D8
100
AcDbEntity
  8
0
100
AcDbLine
 62
7
  6
CONTINUOUS
 10
-2.080077
 20
-11.349989
 11
-2.080077
 21
-13.649989
  0
LWPOLYLINE
  5
3D9
100
AcDbEntity
  8
0
100
AcDbPolyline
 62
7
  6
CONTINUOUS
 90
19
 70
0
 10
-4.495021
 20
-18.3669538622
 10
-4.4947806989
 20
-18.3423132703
 10
-4.4938560145
 20
-18.3177633904
 10
-4.492246947
 20
-18.2933042228
 10
-4.4899956179
 20
-18.2689145965
 10
-4.4870599056
 20
-18.2446156825
 10
-4.483313445
 20
-18.2204709925
 10
-4.4787694868
 20
-18.1964720623
 10
-4.4734147802
 20
-18.1726273562
 10
-4.467083209
 20
-18.1490257796
 10
-4.4597664762
 20
-18.1256166304
 10
-4.4514728788
 20
-18.1024506108
 10
-4.4420611906
 20
-18.0797687329
 10
-4.4314998204
 20
-18.0575682439
 10
-4.4198203596
 20
-18.0358518967
 10
-4.4069763564
 20
-18.014868962
 10
-4.3929523267
 20
-17.99470253
 10
-4.3777637546
 20
-17.9752695106
 10
-4.3614106401
 20
-17.9565699036
  0
LWPOLYLINE
  5
3DA
100
AcDbEntity
  8
0
100
AcDbPolyline
 62
7
  6
CONTINUOUS
 90
7
 70
0
 10
-3.3816042287
 20
-19.5089903542
 10
-3.3822488702
 20
-19.5595152051
 10
-3.3845443686
 20
-19.6087051744
 10
-3.3884907238
 20
-19.6565602622
 10
-3.3940879358
 20
-19.7030804685
 10
-3.4013360048
 20
-19.7482657933
 10
-3.4102349305
 20
-19.7921162365
  0
LWPOLYLINE
  5
3DB
100
AcDbEntity
  8
0
100
AcDbPolyline
 62
7
  6
CONTINUOUS
 90
7
 70
0
 10
-3.4006913645
 20
-18.3860304632
 10
-3.4012356105
 20
-18.4203256834
 10
-3.4027070048
 20
-18.454037487
 10
-3.4051055472
 20
-18.4871658738
 10
-3.4084312379
 20
-18.5197108439
 10
-3.4126840769
 20
-18.5516723974
 10
-3.4178640641
 20
-18.5830505341
  0
LINE
  5
3DC
100
AcDbEntity
  8
DRAFT
100
AcDbLine
 62
7
  6
CONTINUOUS
 10
-21.2292140383
 20
-25.1212710891
 11
-21.25
 21
-25.1524539902
  0
LINE
  5
3DD
100
AcDbEntity
  8
RACCORDO
100
AcDbLine
 62
7
  6
CONTINUOUS
 10
19.25
 20
22.8
 11
19.2371975793
 21
22.7871975793
  0
LINE
  5
3DE
100
AcDbEntity
  8
RACCORDO
100
AcDbLine
 62
7
  6
CONTINUOUS
 10
-20.35
 20
-11.65
 11
-20.6790614477
 21
-11.8987808276
  0
LWPOLYLINE
  5
3DF
100
AcDbEntity
  8
DRAFT
100
AcDbPolyline
 62
7
  6
CONTINUOUS
 90
5
 70
0
 10
20.7730148584
 20
-11.7416148222
 10
20.7812029674
 20
-11.7450915781
 10
20.7893339974
 20
-11.7484800381
 10
20.7973814805
 20
-11.7517783108
 10
20.8053454168
 20
-11.7549863962
  0
LINE
  5
3E0
100
AcDbEntity
  8
DRAFT
100
AcDbLine
 62
7
  6
CONTINUOUS
 10
20.7563085966
 20
-11.7343850746
 11
20.7730148584
 21
-11.7416148222
  0
LINE
  5
3E1
100
AcDbEntity
  8
DRAFT
100
AcDbLine
 62
7
  6
CONTINUOUS
 10
20.729947676
 20
-11.722815819
 11
20.7563085966
 21
-11.7343850746
  0
LINE
  5
3E2
100
AcDbEntity
  8
DRAFT
100
AcDbLine
 62
7
  6
CONTINUOUS
 10
20.6610418289
 20
-11.6921408703
 11
20.729947676
 21
-11.722815819
  0
LINE
  5
3E3
100
AcDbEntity
  8
DRAFT
100
AcDbLine
 62
7
  6
CONTINUOUS
 10
20.5671572875
 20
-11.65
 11
20.6610418289
 21
-11.6921408703
  0
LINE
  5
3E4
100
AcDbEntity
  8
RACCORDO
100
AcDbLine
 62
7
  6
CONTINUOUS
 10
20.35
 20
-12.9
 11
20.4608433288
 21
-12.950198812
  0
LINE
  5
3E5
100
AcDbEntity
  8
DRAFT
100
AcDbLine
 62
7
  6
CONTINUOUS
 10
-21.25
 20
25.1524539902
 11
-21.2482544935
 21
25.149835398
  0
LINE
  5
3E6
100
AcDbEntity
  8
0
100
AcDbLine
 62
7
  6
CONTINUOUS
 10
-0.507508
 20
-10.637993
 11
-1.070672
 21
-9.136274
  0
LINE
  5
3E7
100
AcDbEntity
  8
0
100
AcDbLine
 62
7
  6
CONTINUOUS
 10
-0.946209
 20
-8.338203
 11
-0.471223
 21
-9.615054
  0
LWPOLYLINE
  5
3E8
100
AcDbEntity
  8
0
100
AcDbPolyline
 62
7
  6
CONTINUOUS
 90
16
 70
0
 10
2.0709546178
 20
-18.2110649763
 10
2.0675392247
 20
-18.2001539488
 10
2.0637975506
 20
-18.1893604991
 10
2.0597295955
 20
-18.1786846273
 10
2.055350726
 20
-18.168112696
 10
2.0506455756
 20
-18.1576583426
 10
2.0455680443
 20
-18.1473624789
 10
2.0401211745
 20
-18.1372114659
 10
2.0343019239
 20
-18.1272189426
 10
2.0280550644
 20
-18.1174667379
 10
2.0213707445
 20
-18.1079326413
 10
2.0142588159
 20
-18.0986388633
 10
2.0066936058
 20
-18.0897338646
 10
1.9986665566
 20
-18.081267132
 10
1.990186226
 20
-18.0731891787
 10
1.9812526139
 20
-18.0655000047
  0
LWPOLYLINE
  5
3E9
100
AcDbEntity
  8
0
100
AcDbPolyline
 62
7
  6
CONTINUOUS
 90
9
 70
0
 10
0.9255539898
 20
-18.3637811436
 10
0.9297658014
 20
-18.4053832201
 10
0.9334445069
 20
-18.447461665
 10
0.9365901063
 20
-18.4900164783
 10
0.9391823951
 20
-18.5330578641
 10
0.9412415777
 20
-18.5765756183
 10
0.9428282681
 20
-18.6205391281
 10
0.943962671
 20
-18.6649381894
 10
0.9446245816
 20
-18.7097830063
  0
LINE
  5
3EA
100
AcDbEntity
  8
0
100
AcDbLine
 62
7
  6
CONTINUOUS
 10
0.698858
 20
-10.637993
 11
0.483802
 21
-8.338203
  0
LWPOLYLINE
  5
3EB
100
AcDbEntity
  8
0
100
AcDbPolyline
 62
7
  6
CONTINUOUS
 90
7
 70
0
 10
0.6744124
 20
-18.449654231
 10
0.6708464734
 20
-18.4070460894
 10
0.6659498944
 20
-18.3655752541
 10
0.659722663
 20
-18.3252417251
 10
0.6521647793
 20
-18.2860455025
 10
0.6432762432
 20
-18.2479865863
 10
0.6330570548
 20
-18.2110649763
  0
LWPOLYLINE
  5
3EC
100
AcDbEntity
  8
0
100
AcDbPolyline
 62
7
  6
CONTINUOUS
 90
9
 70
0
 10
-0.17336232
 20
-19.6045610315
 10
-0.1768944412
 20
-19.5611688307
 10
-0.1798939373
 20
-19.5173021866
 10
-0.182360808
 20
-19.4729610992
 10
-0.1842316055
 20
-19.4281349392
 10
-0.1855697777
 20
-19.382834336
 10
-0.1865656688
 20
-19.3370911774
 10
-0.1872827269
 20
-19.2909160928
 10
-0.187657504
 20
-19.2442984529
  0
LWPOLYLINE
  5
3ED
100
AcDbEntity
  8
0
100
AcDbPolyline
 62
7
  6
CONTINUOUS
 90
9
 70
0
 10
1.2645355172
 20
-19.6045610315
 10
1.2610033959
 20
-19.5611688307
 10
1.2580038999
 20
-19.5173021866
 10
1.2555370291
 20
-19.4729610992
 10
1.2536662256
 20
-19.428134189
 10
1.2523280474
 20
-19.3828328356
 10
1.2513321683
 20
-19.3370911774
 10
1.2506151464
 20
-19.2909205939
 10
1.2502404236
 20
-19.2443097057
  0
LWPOLYLINE
  5
3EE
100
AcDbEntity
  8
0
100
AcDbPolyline
 62
7
  6
CONTINUOUS
 90
7
 70
0
 10
0.0826035783
 20
-19.5567155525
 10
0.0857021283
 20
-19.599268593
 10
0.0902298989
 20
-19.6405260418
 10
0.0961868902
 20
-19.6804878989
 10
0.1035731022
 20
-19.7191541643
 10
0.1123885349
 20
-19.756524838
 10
0.1226331882
 20
-19.79259992
  0
LWPOLYLINE
  5
3EF
100
AcDbEntity
  8
0
100
AcDbPolyline
 62
7
  6
CONTINUOUS
 90
7
 70
0
 10
1.5205011413
 20
-19.5567155525
 10
1.5235996912
 20
-19.599268593
 10
1.5281274619
 20
-19.6405260418
 10
1.5340844532
 20
-19.6804878989
 10
1.5414706652
 20
-19.7191541643
 10
1.5502860978
 20
-19.756524838
 10
1.5605307512
 20
-19.79259992
  0
LINE
  5
3F0
100
AcDbEntity
  8
0
100
AcDbLine
 62
7
  6
CONTINUOUS
 10
0.229236
 20
-10.637993
 11
0.130606
 21
-9.142534
  0
LWPOLYLINE
  5
3F1
100
AcDbEntity
  8
0
100
AcDbPolyline
 62
7
  6
CONTINUOUS
 90
9
 70
0
 10
-1.364661433
 20
-19.2749642056
 10
-1.3643591571
 20
-19.3110783255
 10
-1.3638231723
 20
-19.3469407399
 10
-1.3630684929
 20
-19.3825556668
 10
-1.3620801046
 20
-19.4179188883
 10
-1.3608129641
 20
-19.4530177511
 10
-1.359252057
 20
-19.4878480374
 10
-1.3574123976
 20
-19.522413965
 10
-1.3552939859
 20
-19.5567155338
  0
LWPOLYLINE
  5
3F2
100
AcDbEntity
  8
0
100
AcDbPolyline
 62
7
  6
CONTINUOUS
 90
9
 70
0
 10
0.0732359524
 20
-19.2749591427
 10
0.0735383349
 20
-19.3110763034
 10
0.0740743909
 20
-19.3469407458
 10
0.074829094
 20
-19.38255635
 10
0.0758174707
 20
-19.417919236
 10
0.0770845995
 20
-19.4530177632
 10
0.0786455069
 20
-19.4878480517
 10
0.0804851665
 20
-19.5224139814
 10
0.0826035783
 20
-19.5567155525
  0
LWPOLYLINE
  5
3F3
100
AcDbEntity
  8
0
100
AcDbPolyline
 62
7
  6
CONTINUOUS
 90
9
 70
0
 10
-0.7540109099
 20
-18.7426283221
 10
-0.7543159174
 20
-18.7050330683
 10
-0.754856888
 20
-18.6677121749
 10
-0.7556179883
 20
-18.6306617208
 10
-0.7566150517
 20
-18.593885627
 10
-0.7578955782
 20
-18.5573956567
 10
-0.7594754011
 20
-18.5211957308
 10
-0.761338687
 20
-18.4852819283
 10
-0.763485436
 20
-18.4496542492
  0
LWPOLYLINE
  5
3F4
100
AcDbEntity
  8
0
100
AcDbPolyline
 62
7
  6
CONTINUOUS
 90
58
 70
0
 10
-1.8282293375
 20
9.5295633461
 10
-1.8278411939
 20
9.4726567524
 10
-1.8265171218
 20
9.4159795453
 10
-1.8240221823
 20
9.3595707153
 10
-1.8201274716
 20
9.3034689537
 10
-1.8146099375
 20
9.2477106966
 10
-1.8072521115
 20
9.1923301502
 10
-1.7978485636
 20
9.1373947778
 10
-1.7861899947
 20
9.0829070948
 10
-1.7720422206
 20
9.0289168596
 10
-1.7552037916
 20
8.9758911089
 10
-1.7354288741
 20
8.9241585331
 10
-1.7123368437
 20
8.8738096344
 10
-1.6855137468
 20
8.8250773925
 10
-1.654756143
 20
8.778645325
 10
-1.6200542522
 20
8.7352537083
 10
-1.5818094805
 20
8.6953221362
 10
-1.5403716211
 20
8.6588698675
 10
-1.4959878615
 20
8.6259268199
 10
-1.448924436
 20
8.5965432115
 10
-1.3996465804
 20
8.5708399544
 10
-1.3486474295
 20
8.5488992392
 10
-1.2963605315
 20
8.5306367147
 10
-1.2430165988
 20
8.5157382512
 10
-1.1888014733
 20
8.5038917935
 10
-1.1339393049
 20
8.4948177071
 10
-1.0786728722
 20
8.4882723742
 10
-1.0231767932
 20
8.4840074543
 10
-0.9675646551
 20
8.4817588378
 10
-0.9118938742
 20
8.4812598215
 10
-0.8562489577
 20
8.4823750343
 10
-0.8006652708
 20
8.4852802738
 10
-0.7452416935
 20
8.4901946441
 10
-0.6901455262
 20
8.4973220666
 10
-0.6355350545
 20
8.5068692516
 10
-0.5815751424
 20
8.5191415824
 10
-0.5284459793
 20
8.5344927482
 10
-0.4763465705
 20
8.5532936366
 10
-0.4256822146
 20
8.575766106
 10
-0.376978096
 20
8.6018927364
 10
-0.3307447332
 20
8.6315857733
 10
-0.2871995991
 20
8.664891579
 10
-0.2465229014
 20
8.7018880649
 10
-0.2091061246
 20
8.7425850058
 10
-0.1755049009
 20
8.7866639535
 10
-0.1457694624
 20
8.833548434
 10
-0.1197623819
 20
8.8826104423
 10
-0.0971635151
 20
8.933545622
 10
-0.0776516317
 20
8.9862156501
 10
-0.0610342633
 20
9.0402896612
 10
-0.0471818942
 20
9.0952295756
 10
-0.0359027654
 20
9.1508264297
 10
-0.0269820301
 20
9.2070639521
 10
-0.0202124875
 20
9.2638382156
 10
-0.015378657
 20
9.3209507263
 10
-0.0122384226
 20
9.3782911218
 10
-0.0105395201
 20
9.4358388499
 10
-0.0100299444
 20
9.4935269617
  0
LINE
  5
3F5
100
AcDbEntity
  8
0
100
AcDbLine
 62
7
  6
CONTINUOUS
 10
-1.891956
 20
-10.637993
 11
-1.891956
 21
-8.338065
  0
LINE
  5
3F6
100
AcDbEntity
  8
0
100
AcDbLine
 62
7
  6
CONTINUOUS
 10
-1.8282293375
 20
9.5295633461
 11
-1.8282293375
 21
11.453414866
  0
LINE
  5
3F7
100
AcDbEntity
  8
0
100
AcDbLine
 62
7
  6
CONTINUOUS
 10
-1.809675
 20
-13.649989
 11
-1.809675
 21
-11.349989
  0
LINE
  5
3F8
100
AcDbEntity
  8
0
100
AcDbLine
 62
7
  6
CONTINUOUS
 10
-1.625588
 20
-18.7677731791
 11
-1.6255551983
 21
-19.2442959781
  0
LINE
  5
3F9
100
AcDbEntity
  8
0
100
AcDbLine
 62
7
  6
CONTINUOUS
 10
-1.385532
 20
-11.349993
 11
-1.385532
 21
-13.649994
  0
LINE
  5
3FA
100
AcDbEntity
  8
0
100
AcDbLine
 62
7
  6
CONTINUOUS
 10
-1.3772482007
 20
9.5270973629
 11
-1.3773650285
 21
11.453414866
  0
LINE
  5
3FB
100
AcDbEntity
  8
0
100
AcDbLine
 62
7
  6
CONTINUOUS
 10
-1.134218
 20
-13.649994
 11
-1.134218
 21
-11.58222
  0
LINE
  5
3FC
100
AcDbEntity
  8
0
100
AcDbLine
 62
7
  6
CONTINUOUS
 10
-0.493084
 20
-19.1908714243
 11
-0.4932733311
 21
-18.709776863
  0
LINE
  5
3FD
100
AcDbEntity
  8
0
100
AcDbLine
 62
7
  6
CONTINUOUS
 10
-0.4498376355
 20
9.5430769902
 11
-0.4498376355
 21
11.453414866
  0
LINE
  5
3FE
100
AcDbEntity
  8
0
100
AcDbLine
 62
7
  6
CONTINUOUS
 10
-0.192586
 20
-11.349993
 11
-0.192586
 21
-13.417767
  0
LINE
  5
3FF
100
AcDbEntity
  8
0
100
AcDbLine
 62
7
  6
CONTINUOUS
 10
-0.18769
 20
-18.7677731791
 11
-0.187657504
 21
-19.2442984529
  0
LINE
  5
400
100
AcDbEntity
  8
0
100
AcDbLine
 62
7
  6
CONTINUOUS
 10
-0.0100299444
 20
9.4935269617
 11
-0.0100299444
 21
11.453414866
  0
LINE
  5
401
100
AcDbEntity
  8
0
100
AcDbLine
 62
7
  6
CONTINUOUS
 10
0.05875
 20
-13.649994
 11
0.05875
 21
-11.349993
  0
LWPOLYLINE
  5
402
100
AcDbEntity
  8
0
100
AcDbPolyline
 62
7
  6
CONTINUOUS
 90
10
 70
0
 10
-1.625588
 20
-18.7678006182
 10
-1.6254052766
 20
-18.7224980637
 10
-1.6247494589
 20
-18.6776443437
 10
-1.6236205468
 20
-18.6332394581
 10
-1.6220337861
 20
-18.5892741023
 10
-1.6199739309
 20
-18.5457575809
 10
-1.6173952448
 20
-18.5027178081
 10
-1.6142824819
 20
-18.4601640886
 10
-1.610650888
 20
-18.4180871176
 10
-1.606500463
 20
-18.3764868953
  0
LWPOLYLINE
  5
403
100
AcDbEntity
  8
0
100
AcDbPolyline
 62
7
  6
CONTINUOUS
 90
10
 70
0
 10
-0.18769
 20
-18.7677707297
 10
-0.1875074708
 20
-18.722481459
 10
-0.1868517988
 20
-18.6776377018
 10
-0.1857229839
 20
-18.6332394581
 10
-0.1841362554
 20
-18.5892763162
 10
-0.1820763842
 20
-18.5457586879
 10
-0.1794976818
 20
-18.5027178081
 10
-0.1763849189
 20
-18.4601640886
 10
-0.172753325
 20
-18.4180871177
 10
-0.1686029
 20
-18.3764868953
  0
LWPOLYLINE
  5
404
100
AcDbEntity
  8
0
100
AcDbPolyline
 62
7
  6
CONTINUOUS
 90
10
 70
0
 10
-0.493084
 20
-19.1908559954
 10
-0.4932799844
 20
-19.237761559
 10
-0.493908199
 20
-19.2842533593
 10
-0.4949686438
 20
-19.3303313963
 10
-0.4964553837
 20
-19.3760024056
 10
-0.4983743539
 20
-19.4212596516
 10
-0.500743359
 20
-19.4660829272
 10
-0.5035683339
 20
-19.5104654967
 10
-0.5068433439
 20
-19.5544140958
 10
-0.5105683887
 20
-19.5979287245
  0
LWPOLYLINE
  5
405
100
AcDbEntity
  8
0
100
AcDbPolyline
 62
7
  6
CONTINUOUS
 90
54
 70
0
 10
-0.4498376355
 20
9.5430769902
 10
-0.4500010255
 20
9.5065268082
 10
-0.4505434609
 20
9.470058086
 10
-0.4515427885
 20
9.43366072
 10
-0.4530747014
 20
9.3973529598
 10
-0.4552159895
 20
9.3610966403
 10
-0.4580496168
 20
9.3247971054
 10
-0.4616502715
 20
9.2884962665
 10
-0.4661225164
 20
9.2521526951
 10
-0.4717259812
 20
9.2156531507
 10
-0.4787793945
 20
9.1790412082
 10
-0.4875702024
 20
9.1426334472
 10
-0.4983659719
 20
9.106771523
 10
-0.5114617902
 20
9.0716539185
 10
-0.5271616069
 20
9.0374632736
 10
-0.5456005953
 20
9.0045998722
 10
-0.566835919
 20
8.9734527715
 10
-0.590903691
 20
8.9444303208
 10
-0.6176127299
 20
8.9180259842
 10
-0.6467007581
 20
8.8946188339
 10
-0.677966767
 20
8.8745061321
 10
-0.7110342414
 20
8.8578169798
 10
-0.7453842486
 20
8.8445058296
 10
-0.7805797378
 20
8.8344886645
 10
-0.8163548502
 20
8.8275490417
 10
-0.8525325275
 20
8.8232511743
 10
-0.8889344361
 20
8.8211373586
 10
-0.925466755
 20
8.8207555185
 10
-0.961963218
 20
8.8219521227
 10
-0.9982578138
 20
8.8251135647
 10
-1.0342561051
 20
8.8307001439
 10
-1.0697928744
 20
8.8391785188
 10
-1.1045997774
 20
8.8508961556
 10
-1.1382691866
 20
8.8659626152
 10
-1.1703050749
 20
8.8844430897
 10
-1.2002353077
 20
8.9063554552
 10
-1.2278154201
 20
8.9314695074
 10
-1.2528703377
 20
8.959481327
 10
-1.2751307918
 20
8.9899520291
 10
-1.2944973891
 20
9.0223130561
 10
-1.3110732108
 20
9.0561050105
 10
-1.3250161984
 20
9.0909677499
 10
-1.3365446185
 20
9.1265989531
 10
-1.3459586089
 20
9.1628675399
 10
-1.3535353615
 20
9.1995776794
 10
-1.3595329713
 20
9.2363830321
 10
-1.3642329092
 20
9.2729819236
 10
-1.367942651
 20
9.3093625855
 10
-1.370896352
 20
9.3456650826
 10
-1.3731879486
 20
9.3819392266
 10
-1.3748911334
 20
9.4181478942
 10
-1.3760859406
 20
9.4543925056
 10
-1.3768470308
 20
9.4907148763
 10
-1.3772482007
 20
9.5270973629
  0
LWPOLYLINE
  5
406
100
AcDbEntity
  8
0
100
AcDbPolyline
 62
7
  6
CONTINUOUS
 90
10
 70
0
 10
-1.3551866455
 20
-18.4496542492
 10
-1.3573502309
 20
-18.4853344694
 10
-1.3592226703
 20
-18.5212877813
 10
-1.3608039638
 20
-18.5575141849
 10
-1.3620736544
 20
-18.5940180819
 10
-1.3630521989
 20
-18.6307950707
 10
-1.3638009687
 20
-18.6678319457
 10
-1.3643404206
 20
-18.7051243052
 10
-1.3646500977
 20
-18.7426765511
 10
-1.364661433
 20
-19.2749642056
  0
LINE
  5
407
100
AcDbEntity
  8
0
100
AcDbLine
 62
7
  6
CONTINUOUS
 10
-1.174268
 20
-10.637993
 11
-1.070672
 21
-9.136274
  0
LINE
  5
408
100
AcDbEntity
  8
0
100
AcDbLine
 62
7
  6
CONTINUOUS
 10
-1.633526
 20
-10.637993
 11
-1.425869
 21
-8.338203
  0
LWPOLYLINE
  5
409
100
AcDbEntity
  8
0
100
AcDbPolyline
 62
7
  6
CONTINUOUS
 90
7
 70
0
 10
-4.2290822165
 20
-18.2490373516
 10
-4.2326510674
 20
-18.2723484491
 10
-4.2355552597
 20
-18.2961042175
 10
-4.2377947933
 20
-18.3203046568
 10
-4.2393696683
 20
-18.344949767
 10
-4.2402798845
 20
-18.370039548
 10
-4.2405254422
 20
-18.395574
  0
LWPOLYLINE
  5
40A
100
AcDbEntity
  8
0
100
AcDbPolyline
 62
7
  6
CONTINUOUS
 90
7
 70
0
 10
-3.6644651509
 20
-19.7189936785
 10
-3.6596591872
 20
-19.6882147014
 10
-3.6557328789
 20
-19.6576558071
 10
-3.6526862258
 20
-19.6273169956
 10
-3.650519228
 20
-19.5971982669
 10
-3.6492318856
 20
-19.567299621
 10
-3.6488241984
 20
-19.5376210579
  0
LINE
  5
40B
100
AcDbEntity
  8
0
100
AcDbLine
 62
7
  6
CONTINUOUS
 10
-3.481663
 20
-9.92122
 11
-3.02989
 21
-8.338203
  0
LINE
  5
40C
100
AcDbEntity
  8
0
100
AcDbLine
 62
7
  6
CONTINUOUS
 10
-3.289406
 20
-10.637993
 11
-2.550162
 21
-8.338203
  0
LINE
  5
40D
100
AcDbEntity
  8
0
100
AcDbLine
 62
7
  6
CONTINUOUS
 10
3.12209863
 20
10.2209858803
 11
3.606725868
 21
11.3976980933
  0
LINE
  5
40E
100
AcDbEntity
  8
DRAFT
100
AcDbLine
 62
7
  6
CONTINUOUS
 10
22.2928653412
 20
-2.0
 11
21.2928653412
 21
-2.0
  0
LINE
  5
40F
100
AcDbEntity
  8
RACCORDO
100
AcDbLine
 62
250
  6
CONTINUOUS
 10
21.2928653412
 20
-1.5438731188
 11
22.2928653412
 21
-1.5438731188
  0
LINE
  5
410
100
AcDbEntity
  8
RACCORDO
100
AcDbLine
 62
250
  6
CONTINUOUS
 10
21.2928653412
 20
-1.0514692423
 11
22.2928653412
 21
-1.0514692423
  0
LWPOLYLINE
  5
411
100
AcDbEntity
  8
0
100
AcDbPolyline
 62
7
  6
CONTINUOUS
 90
19
 70
0
 10
3.8098911609
 20
-9.9404765327
 10
3.8023608958
 20
-9.9219797073
 10
3.7938018597
 20
-9.9038252117
 10
3.7842615793
 20
-9.8861306729
 10
3.7738097517
 20
-9.8690451323
 10
3.7624723365
 20
-9.8526388877
 10
3.7502115217
 20
-9.836917091
 10
3.7370447169
 20
-9.8219867908
 10
3.7230053743
 20
-9.8079746085
 10
3.7080500709
 20
-9.794940813
 10
3.6921461823
 20
-9.7829856847
 10
3.6753525894
 20
-9.7722872272
 10
3.6577637936
 20
-9.7630219078
 10
3.6394839578
 20
-9.7552639582
 10
3.6206233533
 20
-9.7489762654
 10
3.6013138958
 20
-9.7441291968
 10
3.5816949592
 20
-9.7406973568
 10
3.5619143471
 20
-9.7386567663
 10
3.5421170294
 20
-9.7379822027
  0
LINE
  5
412
100
AcDbEntity
  8
0
100
AcDbLine
 62
7
  6
CONTINUOUS
 10
2.66563
 20
-10.637993
 11
1.959997
 21
-8.338203
  0
LINE
  5
413
100
AcDbEntity
  8
0
100
AcDbLine
 62
7
  6
CONTINUOUS
 10
3.384112
 20
-13.65
 11
2.719243
 21
-11.349978
  0
LINE
  5
414
100
AcDbEntity
  8
0
100
AcDbLine
 62
7
  6
CONTINUOUS
 10
2.941927
 20
-13.067821
 11
3.104146
 21
-13.65
  0
LINE
  5
415
100
AcDbEntity
  8
0
100
AcDbLine
 62
7
  6
CONTINUOUS
 10
2.15967
 20
-10.637993
 11
2.03531
 21
-10.178873
  0
LINE
  5
416
100
AcDbEntity
  8
0
100
AcDbLine
 62
7
  6
CONTINUOUS
 10
2.544278
 20
-11.601313
 11
2.878303
 21
-12.8515
  0
LINE
  5
417
100
AcDbEntity
  8
0
100
AcDbLine
 62
7
  6
CONTINUOUS
 10
1.939371
 20
-9.823608
 11
1.718779
 21
-8.970127
  0
LWPOLYLINE
  5
418
100
AcDbEntity
  8
0
100
AcDbPolyline
 62
7
  6
CONTINUOUS
 90
9
 70
0
 10
2.3634515527
 20
-18.3637811436
 10
2.3676633643
 20
-18.4053832201
 10
2.3713420699
 20
-18.447461665
 10
2.3744876693
 20
-18.4900164783
 10
2.3770799789
 20
-18.5330592768
 10
2.3791391824
 20
-18.5765784436
 10
2.3807258311
 20
-18.6205391281
 10
2.3818601088
 20
-18.6649297133
 10
2.3825218318
 20
-18.7097618162
  0
LWPOLYLINE
  5
419
100
AcDbEntity
  8
0
100
AcDbPolyline
 62
7
  6
CONTINUOUS
 90
7
 70
0
 10
2.112309963
 20
-18.449654231
 10
2.1087440364
 20
-18.4070460894
 10
2.1038474574
 20
-18.3655752541
 10
2.097620226
 20
-18.3252417251
 10
2.0900623423
 20
-18.2860455025
 10
2.0811738062
 20
-18.2479865863
 10
2.0709546178
 20
-18.2110649763
  0
LWPOLYLINE
  5
41A
100
AcDbEntity
  8
0
100
AcDbPolyline
 62
7
  6
CONTINUOUS
 90
7
 70
0
 10
2.2258583343
 20
10.7371426949
 10
2.2263912996
 20
10.722299191
 10
2.2268112885
 20
10.7073579546
 10
2.227125056
 20
10.6923226542
 10
2.2273397105
 20
10.6771971043
 10
2.2274627208
 20
10.6619852684
 10
2.2275019212
 20
10.6466912615
  0
LWPOLYLINE
  5
41B
100
AcDbEntity
  8
0
100
AcDbPolyline
 62
7
  6
CONTINUOUS
 90
9
 70
0
 10
1.511133623
 20
-19.2749558469
 10
1.5114359409
 20
-19.311074985
 10
1.5119719539
 20
-19.3469407458
 10
1.5127266427
 20
-19.3825567895
 10
1.5137150265
 20
-19.4179194557
 10
1.5149821625
 20
-19.4530177632
 10
1.5165430698
 20
-19.4878480517
 10
1.5183827294
 20
-19.5224139814
 10
1.5205011413
 20
-19.5567155525
  0
LWPOLYLINE
  5
41C
100
AcDbEntity
  8
0
100
AcDbPolyline
 62
7
  6
CONTINUOUS
 90
9
 70
0
 10
0.6838868367
 20
-18.7426397958
 10
0.6835817506
 20
-18.7050376181
 10
0.6830407417
 20
-18.6677121079
 10
0.6822796584
 20
-18.6306601108
 10
0.6812826523
 20
-18.5938847811
 10
0.6800021779
 20
-18.557395582
 10
0.6784223868
 20
-18.5211956677
 10
0.6765591275
 20
-18.4852818841
 10
0.6744124
 20
-18.449654231
  0
LWPOLYLINE
  5
41D
100
AcDbEntity
  8
0
100
AcDbPolyline
 62
7
  6
CONTINUOUS
 90
9
 70
0
 10
2.1217841967
 20
-18.7426282932
 10
2.1214792324
 20
-18.7050330171
 10
2.1209383047
 20
-18.6677121079
 10
2.1201772485
 20
-18.6306616444
 10
2.1191802288
 20
-18.5938855479
 10
2.1178997409
 20
-18.5573955819
 10
2.1163199498
 20
-18.5211956677
 10
2.1144566905
 20
-18.4852818841
 10
2.112309963
 20
-18.449654231
  0
LWPOLYLINE
  5
41E
100
AcDbEntity
  8
0
100
AcDbPolyline
 62
7
  6
CONTINUOUS
 90
7
 70
0
 10
1.7758186036
 20
10.6409582003
 10
1.7757487766
 20
10.6574550924
 10
1.7755186595
 20
10.6737849564
 10
1.7750992446
 20
10.6899324332
 10
1.774464054
 20
10.7058832263
 10
1.7735890587
 20
10.7216240696
 10
1.7724525978
 20
10.7371426949
  0
LINE
  5
41F
100
AcDbEntity
  8
0
100
AcDbLine
 62
7
  6
CONTINUOUS
 10
0.479694
 20
-11.349993
 11
0.479694
 21
-13.649994
  0
LINE
  5
420
100
AcDbEntity
  8
0
100
AcDbLine
 62
7
  6
CONTINUOUS
 10
0.5780183277
 20
8.5381532716
 11
0.5780183277
 21
11.4530053617
  0
LINE
  5
421
100
AcDbEntity
  8
0
100
AcDbLine
 62
7
  6
CONTINUOUS
 10
0.750095
 20
-13.433673
 11
0.750095
 21
-12.571571
  0
LINE
  5
422
100
AcDbEntity
  8
0
100
AcDbLine
 62
7
  6
CONTINUOUS
 10
0.750095
 20
-12.355249
 11
0.750095
 21
-11.566314
  0
LINE
  5
423
100
AcDbEntity
  8
0
100
AcDbLine
 62
7
  6
CONTINUOUS
 10
0.944814
 20
-19.1908714243
 11
0.9446245816
 21
-18.7097830063
  0
LINE
  5
424
100
AcDbEntity
  8
0
100
AcDbLine
 62
7
  6
CONTINUOUS
 10
1.0297016454
 20
8.5381532716
 11
1.0297016454
 21
9.8002457332
  0
LINE
  5
425
100
AcDbEntity
  8
0
100
AcDbLine
 62
7
  6
CONTINUOUS
 10
1.0297016454
 20
10.1389058454
 11
1.0297016454
 21
11.1147547539
  0
LINE
  5
426
100
AcDbEntity
  8
0
100
AcDbLine
 62
7
  6
CONTINUOUS
 10
1.250208
 20
-18.7677731791
 11
1.2502404236
 21
-19.2443097057
  0
LINE
  5
427
100
AcDbEntity
  8
0
100
AcDbLine
 62
7
  6
CONTINUOUS
 10
1.497674
 20
-12.571571
 11
1.497674
 21
-12.355249
  0
LINE
  5
428
100
AcDbEntity
  8
0
100
AcDbLine
 62
7
  6
CONTINUOUS
 10
1.53903
 20
-11.566314
 11
1.53903
 21
-11.349993
  0
LINE
  5
429
100
AcDbEntity
  8
0
100
AcDbLine
 62
7
  6
CONTINUOUS
 10
1.561298
 20
-13.649994
 11
1.561298
 21
-13.433673
  0
LINE
  5
42A
100
AcDbEntity
  8
0
100
AcDbLine
 62
7
  6
CONTINUOUS
 10
2.382711
 20
-19.1908714243
 11
2.3825218318
 21
-18.7097618162
  0
LWPOLYLINE
  5
42B
100
AcDbEntity
  8
0
100
AcDbPolyline
 62
7
  6
CONTINUOUS
 90
10
 70
0
 10
1.250208
 20
-18.7677595921
 10
1.2503904403
 20
-18.7224752517
 10
1.251046035
 20
-18.677635192
 10
1.2521747842
 20
-18.633239413
 10
1.2537614604
 20
-18.5892770904
 10
1.2558212912
 20
-18.5457590485
 10
1.2583999586
 20
-18.5027177607
 10
1.26151269
 20
-18.4601640515
 10
1.2651442582
 20
-18.4180870963
 10
1.269294663
 20
-18.3764868953
  0
LWPOLYLINE
  5
42C
100
AcDbEntity
  8
0
100
AcDbPolyline
 62
7
  6
CONTINUOUS
 90
10
 70
0
 10
0.944814
 20
-19.1908439454
 10
0.9446179271
 20
-19.2377548402
 10
0.9439896355
 20
-19.2842506386
 10
0.9429291253
 20
-19.3303313409
 10
0.9414423335
 20
-19.376003236
 10
0.9395233229
 20
-19.4212600349
 10
0.9371542828
 20
-19.46608287
 10
0.9343292762
 20
-19.510465452
 10
0.93105424
 20
-19.5544140702
 10
0.9273291742
 20
-19.5979287245
  0
LWPOLYLINE
  5
42D
100
AcDbEntity
  8
0
100
AcDbPolyline
 62
7
  6
CONTINUOUS
 90
10
 70
0
 10
2.382711
 20
-19.1908856081
 10
2.3825151736
 20
-19.2377779394
 10
2.381887073
 20
-19.2842598145
 10
2.3808266981
 20
-19.3303312333
 10
2.3793399629
 20
-19.3760000276
 10
2.3774209535
 20
-19.4212583657
 10
2.3750519279
 20
-19.4660827522
 10
2.3722269723
 20
-19.5104653553
 10
2.3689520006
 20
-19.5544140067
 10
2.3652270127
 20
-19.5979287066
  0
LWPOLYLINE
  5
42E
100
AcDbEntity
  8
0
100
AcDbPolyline
 62
7
  6
CONTINUOUS
 90
33
 70
0
 10
2.2275019212
 20
10.6466912615
 10
2.2271847542
 20
10.6000428918
 10
2.2260602875
 20
10.5532693198
 10
2.2238703916
 20
10.5064945401
 10
2.2203553952
 20
10.4598056803
 10
2.2152613206
 20
10.4133615
 10
2.2083531211
 20
10.3673904325
 10
2.1993859119
 20
10.3219714566
 10
2.1881330803
 20
10.277259155
 10
2.1744426538
 20
10.2335809155
 10
2.1581858891
 20
10.1911529985
 10
2.1392226928
 20
10.1499959028
 10
2.1175757376
 20
10.1102822201
 10
2.093389168
 20
10.0724001979
 10
2.0667521769
 20
10.0366374013
 10
2.0375630909
 20
10.0030915872
 10
2.0058090281
 20
9.9720693205
 10
1.9716085383
 20
9.9440208576
 10
1.9350250621
 20
9.9192542125
 10
1.8962485538
 20
9.8976656528
 10
1.855639027
 20
9.8790401517
 10
1.8136590622
 20
9.8631734264
 10
1.7707456567
 20
9.8498140801
 10
1.7271261447
 20
9.8386435029
 10
1.6829542655
 20
9.8293539931
 10
1.6385317957
 20
9.8216925811
 10
1.5940048
 20
9.8154719136
 10
1.5492276321
 20
9.8105378062
 10
1.5040998322
 20
9.8067526128
 10
1.4587063307
 20
9.8039907585
 10
1.4131755879
 20
9.8021142269
 10
1.3675449393
 20
9.8009700633
 10
1.3217604955
 20
9.8004000692
  0
LWPOLYLINE
  5
42F
100
AcDbEntity
  8
0
100
AcDbPolyline
 62
7
  6
CONTINUOUS
 90
10
 70
0
 10
0.0827109187
 20
-18.449654231
 10
0.0805473331
 20
-18.4853344533
 10
0.0786748935
 20
-18.5212877673
 10
0.0770935998
 20
-18.5575141729
 10
0.0758239209
 20
-18.5940177293
 10
0.074845388
 20
-18.6307943773
 10
0.0740965944
 20
-18.6678319398
 10
0.0735570714
 20
-18.7051263575
 10
0.0732472877
 20
-18.7426816897
 10
0.0732359524
 20
-19.2749591427
  0
LWPOLYLINE
  5
430
100
AcDbEntity
  8
0
100
AcDbPolyline
 62
7
  6
CONTINUOUS
 90
10
 70
0
 10
-0.7633780872
 20
-19.5630777895
 10
-0.7612411959
 20
-19.5284342409
 10
-0.7593914128
 20
-19.4935232895
 10
-0.7578287378
 20
-19.4583449354
 10
-0.7565731746
 20
-19.4228950638
 10
-0.7556047195
 20
-19.3871777894
 10
-0.7548633621
 20
-19.3512054567
 10
-0.7543290989
 20
-19.3149821805
 10
-0.7540219334
 20
-19.2785038459
 10
-0.7540109099
 20
-18.7426283221
  0
LWPOLYLINE
  5
431
100
AcDbEntity
  8
0
100
AcDbPolyline
 62
7
  6
CONTINUOUS
 90
10
 70
0
 10
0.6745197487
 20
-19.5630778077
 10
0.6766566215
 20
-19.5284342782
 10
0.6785063795
 20
-19.4935233405
 10
0.6800690228
 20
-19.4583449947
 10
0.6813245319
 20
-19.4228958645
 10
0.6822929264
 20
-19.3871793261
 10
0.6830342646
 20
-19.3512055081
 10
0.683568566
 20
-19.3149777866
 10
0.6838758111
 20
-19.2784927855
 10
0.6838868367
 20
-18.7426397958
  0
LWPOLYLINE
  5
432
100
AcDbEntity
  8
0
100
AcDbPolyline
 62
7
  6
CONTINUOUS
 90
10
 70
0
 10
-0.5105683887
 20
-19.5979287245
 10
-0.5144534717
 20
-19.6367477621
 10
-0.5193321956
 20
-19.6746796774
 10
-0.5252045603
 20
-19.7117244703
 10
-0.5320389991
 20
-19.7479696305
 10
-0.5398670788
 20
-19.7833276683
 10
-0.5487834999
 20
-19.8175361155
 10
-0.5588198292
 20
-19.8505074827
 10
-0.5699444999
 20
-19.8823292593
 10
-0.5821575119
 20
-19.9130014452
  0
LWPOLYLINE
  5
433
100
AcDbEntity
  8
0
100
AcDbPolyline
 62
7
  6
CONTINUOUS
 90
7
 70
0
 10
-1.606500463
 20
-18.3764868953
 10
-1.5994860793
 20
-18.3202974393
 10
-1.5901875462
 20
-18.2664362335
 10
-1.5786048637
 20
-18.2149032779
 10
-1.5647380318
 20
-18.1656985724
 10
-1.5485870505
 20
-18.1188221171
 10
-1.5301519198
 20
-18.0742739119
  0
LWPOLYLINE
  5
434
100
AcDbEntity
  8
0
100
AcDbPolyline
 62
7
  6
CONTINUOUS
 90
7
 70
0
 10
-0.1686029
 20
-18.3764868953
 10
-0.1615885163
 20
-18.3202974394
 10
-0.1522899832
 20
-18.2664362336
 10
-0.1407073007
 20
-18.2149032779
 10
-0.1268404688
 20
-18.1656985724
 10
-0.1106894875
 20
-18.1188221171
 10
-0.0922543569
 20
-18.074273912
  0
LWPOLYLINE
  5
435
100
AcDbEntity
  8
0
100
AcDbPolyline
 62
7
  6
CONTINUOUS
 90
7
 70
0
 10
-3.4178640641
 20
-18.5830505341
 10
-3.4239068896
 20
-18.6124532799
 10
-3.4312655619
 20
-18.6413493739
 10
-3.4399400809
 20
-18.6697388161
 10
-3.4499304467
 20
-18.6976216067
 10
-3.4612366592
 20
-18.7249977455
 10
-3.4738587184
 20
-18.7518672326
  0
LWPOLYLINE
  5
436
100
AcDbEntity
  8
0
100
AcDbPolyline
 62
7
  6
CONTINUOUS
 90
7
 70
0
 10
-3.6897786735
 20
-18.6279077972
 10
-3.6819032955
 20
-18.5937428762
 10
-3.6755081668
 20
-18.5583912437
 10
-3.6705932874
 20
-18.5218528997
 10
-3.6671586573
 20
-18.4841278443
 10
-3.6652042764
 20
-18.4452160774
 10
-3.6647301449
 20
-18.405117599
  0
LWPOLYLINE
  5
437
100
AcDbEntity
  8
0
100
AcDbPolyline
 62
7
  6
CONTINUOUS
 90
7
 70
0
 10
-3.4102349305
 20
-19.7921162365
 10
-3.4215045518
 20
-19.8332091294
 10
-3.4348407856
 20
-19.8720741797
 10
-3.4502436318
 20
-19.9087113874
 10
-3.4677130906
 20
-19.9431207524
 10
-3.487249162
 20
-19.9753022747
 10
-3.5088518458
 20
-20.0052559544
  0
LINE
  5
438
100
AcDbEntity
  8
DRAFT
100
AcDbLine
 62
7
  6
CONTINUOUS
 10
-20.7060223161
 20
-11.7122119725
 11
-20.5671572875
 21
-11.65
  0
LINE
  5
439
100
AcDbEntity
  8
DRAFT
100
AcDbLine
 62
7
  6
CONTINUOUS
 10
-20.7424810873
 20
-11.7283369753
 11
-20.7060223161
 21
-11.7122119725
  0
LINE
  5
43A
100
AcDbEntity
  8
DRAFT
100
AcDbLine
 62
7
  6
CONTINUOUS
 10
-20.7624791692
 20
-11.7370672802
 11
-20.7424810873
 21
-11.7283369753
  0
LINE
  5
43B
100
AcDbEntity
  8
RACCORDO
100
AcDbLine
 62
250
  6
CONTINUOUS
 10
22.2928653412
 20
1.0514692423
 11
21.2928653412
 21
1.0514692423
  0
LINE
  5
43C
100
AcDbEntity
  8
RACCORDO
100
AcDbLine
 62
250
  6
CONTINUOUS
 10
22.2928653412
 20
1.5438731188
 11
21.2928653412
 21
1.5438731188
  0
LINE
  5
43D
100
AcDbEntity
  8
DRAFT
100
AcDbLine
 62
7
  6
CONTINUOUS
 10
21.2928653412
 20
2.0
 11
22.2928653412
 21
2.0
  0
LINE
  5
43E
100
AcDbEntity
  8
RACCORDO
100
AcDbLine
 62
7
  6
CONTINUOUS
 10
-19.25
 20
22.8
 11
-19.2371975793
 21
22.7871975793
  0
LINE
  5
43F
100
AcDbEntity
  8
0
100
AcDbLine
 62
7
  6
CONTINUOUS
 10
-2.7282208486
 20
10.2175256378
 11
-3.2128480867
 21
11.3942378508
  0
LINE
  5
440
100
AcDbEntity
  8
0
100
AcDbLine
 62
7
  6
CONTINUOUS
 10
4.0198623394
 20
-10.6379928336
 11
3.9457626819
 21
-10.3842454146
  0
LWPOLYLINE
  5
441
100
AcDbEntity
  8
0
100
AcDbPolyline
 62
7
  6
CONTINUOUS
 90
6
 70
0
 10
3.896512211
 20
-10.2115201586
 10
3.8802857489
 20
-10.1554090646
 10
3.863730939
 20
-10.1001722139
 10
3.8466176537
 20
-10.0458885318
 10
3.8287354025
 20
-9.9926340067
 10
3.8098911357
 20
-9.9404765422
  0
LINE
  5
442
100
AcDbEntity
  8
0
100
AcDbLine
 62
7
  6
CONTINUOUS
 10
3.9457626819
 20
-10.3842454146
 11
3.896512211
 21
-10.2115201586
  0
LINE
  5
443
100
AcDbEntity
  8
0
100
AcDbLine
 62
7
  6
CONTINUOUS
 10
4.3042142433
 20
-9.9664603543
 11
4.3428492281
 21
-10.1095278365
  0
LINE
  5
444
100
AcDbEntity
  8
0
100
AcDbLine
 62
7
  6
CONTINUOUS
 10
4.4558344502
 20
-10.5410972348
 11
4.4816207207
 21
-10.6379928336
  0
LINE
  5
445
100
AcDbEntity
  8
0
100
AcDbLine
 62
7
  6
CONTINUOUS
 10
4.3428492281
 20
-10.1095278365
 11
4.3928292033
 21
-10.2992801908
  0
LINE
  5
446
100
AcDbEntity
  8
0
100
AcDbLine
 62
7
  6
CONTINUOUS
 10
4.3928292033
 20
-10.2992801908
 11
4.4558344502
 21
-10.5410972348
  0
LWPOLYLINE
  5
447
100
AcDbEntity
  8
0
100
AcDbPolyline
 62
7
  6
CONTINUOUS
 90
22
 70
0
 10
2.2258583343
 20
10.7371426949
 10
2.2220306995
 20
10.8061520915
 10
2.2144708465
 20
10.8720029567
 10
2.2031787753
 20
10.9346952907
 10
2.1882324335
 20
10.9942736643
 10
2.1695538734
 20
11.0506935065
 10
2.146909252
 20
11.1038211049
 10
2.1202945966
 20
11.153911042
 10
2.0897138799
 20
11.2007087353
 10
2.0549451763
 20
11.2433167236
 10
2.0157986292
 20
11.2814135074
 10
1.9724640954
 20
11.3153205864
 10
1.9252892193
 20
11.3451049983
 10
1.8740722978
 20
11.3705476011
 10
1.8190150341
 20
11.3918675369
 10
1.7610701824
 20
11.4097892694
 10
1.7004879608
 20
11.4243469149
 10
1.6370181512
 20
11.4355063571
 10
1.5708628534
 20
11.4438897114
 10
1.5020894341
 20
11.4497043495
 10
1.4306305266
 20
11.4527428996
 10
0.5780183277
 20
11.4530053617
  0
LWPOLYLINE
  5
448
100
AcDbEntity
  8
0
100
AcDbPolyline
 62
7
  6
CONTINUOUS
 90
22
 70
0
 10
3.9160622961
 20
-9.0041352845
 10
3.9148431434
 20
-8.9820445437
 10
3.9119460256
 20
-8.9603542514
 10
3.907509651
 20
-8.9392148082
 10
3.9016903128
 20
-8.9188338177
 10
3.894599801
 20
-8.8992494891
 10
3.8862542639
 20
-8.8803481689
 10
3.876714335
 20
-8.8622197762
 10
3.8660556721
 20
-8.8449831443
 10
3.8542361637
 20
-8.8285928455
 10
3.8412712804
 20
-8.8131408208
 10
3.8272153526
 20
-8.7987589388
 10
3.8120799038
 20
-8.7854359267
 10
3.7959252947
 20
-8.7731654321
 10
3.7788842083
 20
-8.7619971872
 10
3.7610986371
 20
-8.7519709862
 10
3.7426934354
 20
-8.7431058519
 10
3.7237619496
 20
-8.7354041158
 10
3.7044045339
 20
-8.7288747591
 10
3.6847281026
 20
-8.7235305765
 10
3.6648468437
 20
-8.7193863188
 10
3.6448730265
 20
-8.7164557011
  0
LWPOLYLINE
  5
449
100
AcDbEntity
  8
0
100
AcDbPolyline
 62
7
  6
CONTINUOUS
 90
16
 70
0
 10
4.2564315515
 20
-18.3065007308
 10
4.2562609535
 20
-18.2910891819
 10
4.2554764229
 20
-18.2757563235
 10
4.2540779597
 20
-18.2605021555
 10
4.2520876444
 20
-18.2453021024
 10
4.2494833964
 20
-18.2301807396
 10
4.2461989747
 20
-18.2152117937
 10
4.2422276864
 20
-18.2003782476
 10
4.2375762243
 20
-18.1856971182
 10
4.232198425
 20
-18.1712931826
 10
4.2260987464
 20
-18.157145258
 10
4.2192727306
 20
-18.1432745272
 10
4.2116608406
 20
-18.1298693149
 10
4.2032432307
 20
-18.1169923961
 10
4.1940397465
 20
-18.1045809959
 10
4.184050388
 20
-18.0926351142
  0
LINE
  5
44A
100
AcDbEntity
  8
0
100
AcDbLine
 62
7
  6
CONTINUOUS
 10
2.761273
 20
-19.852559
 11
2.761273
 21
-20.151591
  0
LINE
  5
44B
100
AcDbEntity
  8
0
100
AcDbLine
 62
7
  6
CONTINUOUS
 10
2.8065975821
 20
-10.6379928336
 11
2.8065975821
 21
-8.3650723535
  0
LINE
  5
44C
100
AcDbEntity
  8
0
100
AcDbLine
 62
7
  6
CONTINUOUS
 10
3.031674
 20
-20.151591
 11
3.031674
 21
-19.852559
  0
LINE
  5
44D
100
AcDbEntity
  8
0
100
AcDbLine
 62
7
  6
CONTINUOUS
 10
3.2688043561
 20
-9.361332229
 11
3.2688043561
 21
-8.7299951302
  0
LINE
  5
44E
100
AcDbEntity
  8
0
100
AcDbLine
 62
7
  6
CONTINUOUS
 10
3.2847223015
 20
-10.6379928336
 11
3.2847223015
 21
-9.7379822027
  0
LINE
  5
44F
100
AcDbEntity
  8
0
100
AcDbLine
 62
7
  6
CONTINUOUS
 10
3.387967
 20
-19.919364
 11
3.387967
 21
-20.151591
  0
LINE
  5
450
100
AcDbEntity
  8
0
100
AcDbLine
 62
7
  6
CONTINUOUS
 10
3.407054
 20
-18.351037
 11
3.407054
 21
-18.41148
  0
LINE
  5
451
100
AcDbEntity
  8
0
100
AcDbLine
 62
7
  6
CONTINUOUS
 10
3.5040221726
 20
8.5
 11
3.5040221726
 21
10.2209858803
  0
LINE
  5
452
100
AcDbEntity
  8
0
100
AcDbLine
 62
7
  6
CONTINUOUS
 10
3.7094295635
 20
8.5
 11
3.7094295635
 21
10.2209858803
  0
LINE
  5
453
100
AcDbEntity
  8
0
100
AcDbLine
 62
7
  6
CONTINUOUS
 10
4.0407988352
 20
-9.564471425
 11
4.0407988352
 21
-9.5508816732
  0
LINE
  5
454
100
AcDbEntity
  8
RACCORDO
100
AcDbLine
 62
7
  6
CONTINUOUS
 10
4.2
 20
23.0016412134
 11
4.2
 21
22.7983587866
  0
LINE
  5
455
100
AcDbEntity
  8
0
100
AcDbLine
 62
7
  6
CONTINUOUS
 10
4.523651
 20
-20.151591
 11
4.523651
 21
-19.951176
  0
LINE
  5
456
100
AcDbEntity
  8
RACCORDO
100
AcDbLine
 62
7
  6
CONTINUOUS
 10
4.8
 20
22.817559358
 11
4.8
 21
22.982440642
  0
LINE
  5
457
100
AcDbEntity
  8
RACCORDO
100
AcDbLine
 62
7
  6
CONTINUOUS
 10
4.9
 20
22.1381238696
 11
4.9
 21
22.6
  0
LINE
  5
458
100
AcDbEntity
  8
RACCORDO
100
AcDbLine
 62
7
  6
CONTINUOUS
 10
4.9
 20
23.2
 11
4.9
 21
23.6618761304
  0
LINE
  5
459
100
AcDbEntity
  8
RACCORDO
100
AcDbLine
 62
7
  6
CONTINUOUS
 10
4.9192005714
 20
22.6426079594
 11
4.9192005714
 21
23.1573920406
  0
LINE
  5
45A
100
AcDbEntity
  8
RACCORDO
100
AcDbLine
 62
250
  6
CONTINUOUS
 10
4.929490235
 20
22.7769121739
 11
4.9297235818
 21
22.9243747334
  0
LINE
  5
45B
100
AcDbEntity
  8
RACCORDO
100
AcDbLine
 62
250
  6
CONTINUOUS
 10
4.9285785634
 20
22.6384625478
 11
4.929490235
 21
22.7769121739
  0
LINE
  5
45C
100
AcDbEntity
  8
RACCORDO
100
AcDbLine
 62
250
  6
CONTINUOUS
 10
4.9276278015
 20
22.5562906718
 11
4.9285785634
 21
22.6384625478
  0
LINE
  5
45D
100
AcDbEntity
  8
RACCORDO
100
AcDbLine
 62
250
  6
CONTINUOUS
 10
5.1264010938
 20
22.3339008114
 11
5.1281057545
 21
22.4856232719
  0
LWPOLYLINE
  5
45E
100
AcDbEntity
  8
RACCORDO
100
AcDbPolyline
 62
250
  6
CONTINUOUS
 90
6
 70
0
 10
5.1217707895
 20
22.1613941852
 10
5.1226291116
 20
22.1761874328
 10
5.1234527918
 20
22.1968686206
 10
5.1242418301
 20
22.2232420425
 10
5.1250015164
 20
22.255047129
 10
5.1264010938
 20
22.3339008114
  0
LWPOLYLINE
  5
45F
100
AcDbEntity
  8
RACCORDO
100
AcDbPolyline
 62
250
  6
CONTINUOUS
 90
5
 70
0
 10
5.3782292041
 20
23.6386058148
 10
5.3773973615
 20
23.6243526601
 10
5.3765974363
 20
23.6045559119
 10
5.3758294286
 20
23.5793885682
 10
5.3743793328
 20
23.5138706285
  0
LWPOLYLINE
  5
460
100
AcDbEntity
  8
0
100
AcDbPolyline
 62
7
  6
CONTINUOUS
 90
10
 70
0
 10
1.5206084817
 20
-18.449654231
 10
1.5184448961
 20
-18.4853344533
 10
1.5165724565
 20
-18.5212877673
 10
1.5149911628
 20
-18.5575141729
 10
1.5137214767
 20
-18.5940175063
 10
1.5127429366
 20
-18.6307939313
 10
1.5119941574
 20
-18.6678319398
 10
1.5114546774
 20
-18.7051276956
 10
1.5111449583
 20
-18.7426850349
 10
1.511133623
 20
-19.2749558469
  0
LWPOLYLINE
  5
461
100
AcDbEntity
  8
0
100
AcDbPolyline
 62
7
  6
CONTINUOUS
 90
10
 70
0
 10
2.1124173117
 20
-19.5630778077
 10
2.1145541844
 20
-19.5284342782
 10
2.1164039424
 20
-19.4935233405
 10
2.1179665858
 20
-19.4583449947
 10
2.1192221084
 20
-19.4228951257
 10
2.1201905164
 20
-19.3871778485
 10
2.1209318275
 20
-19.3512055081
 10
2.1214660477
 20
-19.3149822196
 10
2.121773171
 20
-19.2785038679
 10
2.1217841967
 20
-18.7426282932
  0
LWPOLYLINE
  5
462
100
AcDbEntity
  8
RACCORDO
100
AcDbPolyline
 62
250
  6
CONTINUOUS
 90
13
 70
0
 10
4.9218013234
 20
23.4416442642
 10
4.9235844555
 20
23.4673037053
 10
4.9287455583
 20
23.4925257963
 10
4.9371966639
 20
23.5168806416
 10
4.9487937281
 20
23.5399531271
 10
4.9633390858
 20
23.5613499958
 10
4.9805848201
 20
23.5807065509
 10
5.0002369874
 20
23.5976928711
 10
5.0219606284
 20
23.6120194347
 10
5.0453854762
 20
23.6234420536
 10
5.0701122681
 20
23.6317660362
 10
5.0957195505
 20
23.6368495048
 10
5.1217708624
 20
23.6386058148
  0
LWPOLYLINE
  5
463
100
AcDbEntity
  8
RACCORDO
100
AcDbPolyline
 62
250
  6
CONTINUOUS
 90
13
 70
0
 10
5.5781986766
 20
22.3583557358
 10
5.5764155445
 20
22.3326962946
 10
5.5712544417
 20
22.3074742035
 10
5.562803336
 20
22.2831193581
 10
5.5512062718
 20
22.2600468725
 10
5.536660914
 20
22.2386500036
 10
5.5194151797
 20
22.2192934484
 10
5.4997630123
 20
22.202307128
 10
5.4780393714
 20
22.1879805644
 10
5.4546145236
 20
22.1765579455
 10
5.4298877317
 20
22.1682339632
 10
5.4042804493
 20
22.1631504948
 10
5.3782291376
 20
22.1613941852
  0
LWPOLYLINE
  5
464
100
AcDbEntity
  8
RACCORDO
100
AcDbPolyline
 62
250
  6
CONTINUOUS
 90
8
 70
0
 10
4.9218013234
 20
22.3583557358
 10
4.9226595192
 20
22.3694969159
 10
4.923483123
 20
22.3846152812
 10
4.9242721349
 20
22.4037108318
 10
4.9250318724
 20
22.4269939857
 10
4.9257570179
 20
22.4542543249
 10
4.9264316186
 20
22.4848605947
 10
4.9276278015
 20
22.5562906718
  0
LWPOLYLINE
  5
465
100
AcDbEntity
  8
RACCORDO
100
AcDbPolyline
 62
250
  6
CONTINUOUS
 90
7
 70
0
 10
5.5781986766
 20
23.4416442642
 10
5.5773669494
 20
23.4309325829
 10
5.576567094
 20
23.4164572558
 10
5.5757991103
 20
23.3982182829
 10
5.5750580566
 20
23.3760272383
 10
5.5743488745
 20
23.350072548
 10
5.5730711935
 20
23.2884850368
  0
LINE
  5
466
100
AcDbEntity
  8
RACCORDO
100
AcDbLine
 62
250
  6
CONTINUOUS
 10
4.9
 20
22.1381238696
 11
4.9218013234
 21
22.3583557358
  0
LINE
  5
467
100
AcDbEntity
  8
RACCORDO
100
AcDbLine
 62
250
  6
CONTINUOUS
 10
5.0994242576
 20
21.9356540133
 11
5.1217708624
 21
22.1613941852
  0
LINE
  5
468
100
AcDbEntity
  8
RACCORDO
100
AcDbLine
 62
250
  6
CONTINUOUS
 10
5.4005757424
 20
23.8643459867
 11
5.3782291376
 21
23.6386058148
  0
LINE
  5
469
100
AcDbEntity
  8
RACCORDO
100
AcDbLine
 62
250
  6
CONTINUOUS
 10
5.6
 20
23.6618761304
 11
5.5781986766
 21
23.4416442642
  0
LWPOLYLINE
  5
46A
100
AcDbEntity
  8
0
100
AcDbPolyline
 62
7
  6
CONTINUOUS
 90
10
 70
0
 10
0.9273291742
 20
-19.5979287245
 10
0.9234441093
 20
-19.6367477651
 10
0.9185654095
 20
-19.6746796836
 10
0.9126930746
 20
-19.7117244802
 10
0.9058586752
 20
-19.7479696455
 10
0.8980306408
 20
-19.7833276889
 10
0.8891142598
 20
-19.8175361378
 10
0.8790779616
 20
-19.8505075014
 10
0.8679533167
 20
-19.8823292705
 10
0.8557403252
 20
-19.9130014452
  0
LWPOLYLINE
  5
46B
100
AcDbEntity
  8
0
100
AcDbPolyline
 62
7
  6
CONTINUOUS
 90
10
 70
0
 10
2.3652270127
 20
-19.5979287066
 10
2.3613419857
 20
-19.6367477533
 10
2.3564632994
 20
-19.674679675
 10
2.3505909537
 20
-19.7117244719
 10
2.3437565097
 20
-19.7479696322
 10
2.3359284063
 20
-19.7833276676
 10
2.3270119608
 20
-19.8175361131
 10
2.3169756121
 20
-19.8505074804
 10
2.3058509212
 20
-19.8823292577
 10
2.2936378882
 20
-19.9130014452
  0
LWPOLYLINE
  5
46C
100
AcDbEntity
  8
0
100
AcDbPolyline
 62
7
  6
CONTINUOUS
 90
7
 70
0
 10
1.269294663
 20
-18.3764868953
 10
1.2763090467
 20
-18.3202974393
 10
1.2856075798
 20
-18.2664362335
 10
1.2971902623
 20
-18.2149032779
 10
1.3110570942
 20
-18.1656985724
 10
1.3272080755
 20
-18.1188221171
 10
1.3456432061
 20
-18.074273912
  0
LINE
  5
46D
100
AcDbEntity
  8
0
100
AcDbLine
 62
7
  6
CONTINUOUS
 10
1.718779
 20
-8.970127
 11
1.479751
 21
-9.823608
  0
LWPOLYLINE
  5
46E
100
AcDbEntity
  8
0
100
AcDbPolyline
 62
7
  6
CONTINUOUS
 90
7
 70
0
 10
-1.3152750721
 20
-18.2106138575
 10
-1.3255127767
 20
-18.2471389184
 10
-1.3343161711
 20
-18.284989981
 10
-1.3416852551
 20
-18.3241670454
 10
-1.3476200289
 20
-18.3646701115
 10
-1.3521204923
 20
-18.4064991795
 10
-1.3551866455
 20
-18.4496542492
  0
LINE
  5
46F
100
AcDbEntity
  8
0
100
AcDbLine
 62
7
  6
CONTINUOUS
 10
1.249088
 20
-10.637993
 11
1.381553
 21
-10.178873
  0
LWPOLYLINE
  5
470
100
AcDbEntity
  8
0
100
AcDbPolyline
 62
7
  6
CONTINUOUS
 90
7
 70
0
 10
-0.8062742119
 20
-19.7979948901
 10
-0.7955114157
 20
-19.7618285941
 10
-0.7861939963
 20
-19.7244676765
 10
-0.7783219537
 20
-19.6859121372
 10
-0.771895288
 20
-19.6461619763
 10
-0.7669139992
 20
-19.6052171937
 10
-0.7633780872
 20
-19.5630777895
  0
LINE
  5
471
100
AcDbEntity
  8
0
100
AcDbLine
 62
7
  6
CONTINUOUS
 10
0.77424
 20
-10.637993
 11
1.4956
 21
-8.338203
  0
LINE
  5
472
100
AcDbEntity
  8
0
100
AcDbLine
 62
7
  6
CONTINUOUS
 10
-0.471223
 20
-9.615054
 11
0.008833
 21
-8.338203
  0
LINE
  5
473
100
AcDbEntity
  8
0
100
AcDbLine
 62
7
  6
CONTINUOUS
 10
-0.44018
 20
-10.637993
 11
0.130606
 21
-9.142534
  0
LINE
  5
474
100
AcDbEntity
  8
DRAFT
100
AcDbLine
 62
7
  6
CONTINUOUS
 10
21.25
 20
25.1524539902
 11
21.2482544935
 21
25.149835398
  0
LINE
  5
475
100
AcDbEntity
  8
RACCORDO
100
AcDbLine
 62
7
  6
CONTINUOUS
 10
-20.35
 20
-12.9
 11
-20.4608433288
 21
-12.950198812
  0
LINE
  5
476
100
AcDbEntity
  8
DRAFT
100
AcDbLine
 62
7
  6
CONTINUOUS
 10
-21.0179857956
 20
-14.7984851043
 11
-21.1328427125
 21
-14.85
  0
LWPOLYLINE
  5
477
100
AcDbEntity
  8
DRAFT
100
AcDbPolyline
 62
7
  6
CONTINUOUS
 90
7
 70
0
 10
-20.8053454168
 20
-11.7549863962
 10
-20.7994385768
 20
-11.7526253223
 10
-20.7934636123
 20
-11.7501983254
 10
-20.7874205232
 20
-11.7477054055
 10
-20.7813255079
 20
-11.7451480652
 10
-20.7751623679
 20
-11.7425248018
 10
-20.7624791692
 20
-11.7370672802
  0
LINE
  5
478
100
AcDbEntity
  8
RACCORDO
100
AcDbLine
 62
7
  6
CONTINUOUS
 10
20.6790614477
 20
-11.8987808276
 11
20.35
 21
-11.65
  0
LINE
  5
479
100
AcDbEntity
  8
DRAFT
100
AcDbLine
 62
7
  6
CONTINUOUS
 10
21.2292140383
 20
-25.1212710891
 11
21.25
 21
-25.1524539902
  0
LINE
  5
47A
100
AcDbEntity
  8
RACCORDO
100
AcDbLine
 62
250
  6
CONTINUOUS
 10
4.9218013234
 20
23.4416442642
 11
4.9
 21
23.6618761304
  0
LWPOLYLINE
  5
47B
100
AcDbEntity
  8
RACCORDO
100
AcDbPolyline
 62
250
  6
CONTINUOUS
 90
13
 70
0
 10
4.9218013234
 20
22.3583557358
 10
4.9235842522
 20
22.3326977843
 10
4.9287448433
 20
22.3074768075
 10
4.9371952657
 20
22.2831226658
 10
4.948791622
 20
22.2600504551
 10
4.9633363724
 20
22.2386534821
 10
4.9805816756
 20
22.2192965457
 10
5.0002336807
 20
22.2023096308
 10
5.0219574815
 20
22.1879823593
 10
5.0453827599
 20
22.1765590595
 10
5.0701102208
 20
22.1682345084
 10
5.0957184207
 20
22.163150644
 10
5.1217708623
 20
22.1613941844
  0
LWPOLYLINE
  5
47C
100
AcDbEntity
  8
RACCORDO
100
AcDbPolyline
 62
250
  6
CONTINUOUS
 90
13
 70
0
 10
5.5781986766
 20
23.4416442642
 10
5.5764157798
 20
23.4673019831
 10
5.571255269
 20
23.4925227853
 10
5.5628049544
 20
23.5168768159
 10
5.5512087106
 20
23.5399489818
 10
5.5366640579
 20
23.561345969
 10
5.519418825
 20
23.5807029639
 10
5.4997668479
 20
23.5976899716
 10
5.4780430241
 20
23.6120173543
 10
5.4546176787
 20
23.6234407621
 10
5.4298901108
 20
23.6317654041
 10
5.4042817628
 20
23.6368493318
 10
5.3782291376
 20
23.6386058147
  0
LWPOLYLINE
  5
47D
100
AcDbEntity
  8
RACCORDO
100
AcDbPolyline
 62
250
  6
CONTINUOUS
 90
4
 70
0
 10
5.1239207108
 20
23.5881791384
 10
5.1232494068
 20
23.6086512531
 10
5.1225327907
 20
23.6256541241
 10
5.1217708624
 20
23.6386058148
  0
LWPOLYLINE
  5
47E
100
AcDbEntity
  8
RACCORDO
100
AcDbPolyline
 62
250
  6
CONTINUOUS
 90
4
 70
0
 10
5.375934656
 20
22.2168265821
 10
5.3766501975
 20
22.1940940539
 10
5.3774150383
 20
22.1754017016
 10
5.3782291786
 20
22.1613941852
  0
LWPOLYLINE
  5
47F
100
AcDbEntity
  8
RACCORDO
100
AcDbPolyline
 62
250
  6
CONTINUOUS
 90
6
 70
0
 10
4.925142599
 20
23.3694982717
 10
4.9245694515
 20
23.3881522211
 10
4.9239510294
 20
23.404664701
 10
4.9232797352
 20
23.4191326915
 10
4.9225631665
 20
23.4314592126
 10
4.9218013234
 20
23.4416442642
  0
LWPOLYLINE
  5
480
100
AcDbEntity
  8
RACCORDO
100
AcDbPolyline
 62
250
  6
CONTINUOUS
 90
6
 70
0
 10
5.5746341317
 20
22.4385724063
 10
5.5752446234
 20
22.4175334243
 10
5.5759043652
 20
22.3990061608
 10
5.5766198856
 20
22.3829443006
 10
5.5773846561
 20
22.369394159
 10
5.5781986766
 20
22.3583557358
  0
LINE
  5
481
100
AcDbEntity
  8
RACCORDO
100
AcDbLine
 62
250
  6
CONTINUOUS
 10
4.9262282503
 20
23.325167667
 11
4.925142599
 21
23.3694982717
  0
LINE
  5
482
100
AcDbEntity
  8
RACCORDO
100
AcDbLine
 62
250
  6
CONTINUOUS
 10
5.1251121437
 20
23.5399807035
 11
5.1239207108
 21
23.5881791384
  0
LINE
  5
483
100
AcDbEntity
  8
RACCORDO
100
AcDbLine
 62
250
  6
CONTINUOUS
 10
5.3746645832
 20
22.2710029498
 11
5.375934656
 21
22.2168265821
  0
LINE
  5
484
100
AcDbEntity
  8
RACCORDO
100
AcDbLine
 62
250
  6
CONTINUOUS
 10
5.5734948286
 20
22.4884191732
 11
5.5746341317
 21
22.4385724063
  0
LINE
  5
485
100
AcDbEntity
  8
RACCORDO
100
AcDbLine
 62
250
  6
CONTINUOUS
 10
4.9272331647
 20
23.2702674361
 11
4.9262282503
 21
23.325167667
  0
LINE
  5
486
100
AcDbEntity
  8
RACCORDO
100
AcDbLine
 62
250
  6
CONTINUOUS
 10
5.1261977351
 20
23.4796128461
 11
5.1251121437
 21
23.5399807035
  0
LINE
  5
487
100
AcDbEntity
  8
RACCORDO
100
AcDbLine
 62
250
  6
CONTINUOUS
 10
5.3735253529
 20
22.3388949602
 11
5.3746645832
 21
22.2710029498
  0
LINE
  5
488
100
AcDbEntity
  8
RACCORDO
100
AcDbLine
 62
250
  6
CONTINUOUS
 10
5.5724692208
 20
22.5493739197
 11
5.5734948286
 21
22.4884191732
  0
LINE
  5
489
100
AcDbEntity
  8
RACCORDO
100
AcDbLine
 62
250
  6
CONTINUOUS
 10
5.1276860938
 20
23.3596903853
 11
5.1261977351
 21
23.4796128461
  0
LINE
  5
48A
100
AcDbEntity
  8
RACCORDO
100
AcDbLine
 62
250
  6
CONTINUOUS
 10
4.9285922273
 20
23.1602006766
 11
4.9272331647
 21
23.2702674361
  0
LINE
  5
48B
100
AcDbEntity
  8
RACCORDO
100
AcDbLine
 62
250
  6
CONTINUOUS
 10
5.3720264545
 20
22.4709360019
 11
5.3735253529
 21
22.3388949602
  0
LINE
  5
48C
100
AcDbEntity
  8
RACCORDO
100
AcDbLine
 62
250
  6
CONTINUOUS
 10
5.5711732724
 20
22.6665383787
 11
5.5724692208
 21
22.5493739197
  0
LINE
  5
48D
100
AcDbEntity
  8
RACCORDO
100
AcDbLine
 62
250
  6
CONTINUOUS
 10
4.9294928153
 20
23.0226428623
 11
4.9285922273
 21
23.1602006766
  0
LINE
  5
48E
100
AcDbEntity
  8
RACCORDO
100
AcDbLine
 62
250
  6
CONTINUOUS
 10
5.1292286803
 20
23.1325020696
 11
5.1276860938
 21
23.3596903853
  0
LINE
  5
48F
100
AcDbEntity
  8
RACCORDO
100
AcDbLine
 62
250
  6
CONTINUOUS
 10
5.3706303657
 20
22.7041703134
 11
5.3720264545
 21
22.4709360019
  0
LINE
  5
490
100
AcDbEntity
  8
RACCORDO
100
AcDbLine
 62
250
  6
CONTINUOUS
 10
5.5704146785
 20
22.8034063955
 11
5.5711732724
 21
22.6665383787
  0
LINE
  5
491
100
AcDbEntity
  8
RACCORDO
100
AcDbLine
 62
250
  6
CONTINUOUS
 10
4.9297235818
 20
22.9243747334
 11
4.9294928153
 21
23.0226428623
  0
LINE
  5
492
100
AcDbEntity
  8
RACCORDO
100
AcDbLine
 62
250
  6
CONTINUOUS
 10
5.1296940897
 20
22.865799837
 11
5.1292286803
 21
23.1325020696
  0
LINE
  5
493
100
AcDbEntity
  8
RACCORDO
100
AcDbLine
 62
7
  6
CONTINUOUS
 10
5.25
 20
-17.5
 11
5.25
 21
-20.5
  0
LINE
  5
494
100
AcDbEntity
  8
RACCORDO
100
AcDbLine
 62
7
  6
CONTINUOUS
 10
5.25
 20
-14.0
 11
5.25
 21
-8.0
  0
LINE
  5
495
100
AcDbEntity
  8
RACCORDO
100
AcDbLine
 62
7
  6
CONTINUOUS
 10
5.25
 20
8.0
 11
5.25
 21
12.0
  0
LINE
  5
496
100
AcDbEntity
  8
RACCORDO
100
AcDbLine
 62
7
  6
CONTINUOUS
 10
5.6
 20
22.1381238696
 11
5.6
 21
23.6618761304
  0
LINE
  5
497
100
AcDbEntity
  8
0
100
AcDbLine
 62
7
  6
CONTINUOUS
 10
5.75
 20
-5.75
 11
5.75
 21
5.75
  0
LINE
  5
498
100
AcDbEntity
  8
RACCORDO
100
AcDbLine
 62
250
  6
CONTINUOUS
 10
6.5700524853
 20
19.8
 11
6.5700524853
 21
19.95
  0
LINE
  5
499
100
AcDbEntity
  8
RACCORDO
100
AcDbLine
 62
7
  6
CONTINUOUS
 10
6.6
 20
20.39
 11
6.6
 21
21.35
  0
LINE
  5
49A
100
AcDbEntity
  8
RACCORDO
100
AcDbLine
 62
250
  6
CONTINUOUS
 10
6.85
 20
20.4845614035
 11
6.85
 21
21.6
  0
LINE
  5
49B
100
AcDbEntity
  8
RACCORDO
100
AcDbLine
 62
250
  6
CONTINUOUS
 10
5.3703309912
 20
22.964045745
 11
5.3706303657
 21
22.7041703134
  0
LINE
  5
49C
100
AcDbEntity
  8
RACCORDO
100
AcDbLine
 62
250
  6
CONTINUOUS
 10
5.5703005307
 20
22.9469668797
 11
5.5704146785
 21
22.8034063955
  0
LINE
  5
49D
100
AcDbEntity
  8
RACCORDO
100
AcDbLine
 62
250
  6
CONTINUOUS
 10
5.128926051
 20
22.6042289459
 11
5.1296940897
 21
22.865799837
  0
LINE
  5
49E
100
AcDbEntity
  8
RACCORDO
100
AcDbLine
 62
250
  6
CONTINUOUS
 10
5.3711890681
 20
23.2159292578
 11
5.3703309912
 21
22.964045745
  0
LINE
  5
49F
100
AcDbEntity
  8
RACCORDO
100
AcDbLine
 62
250
  6
CONTINUOUS
 10
5.5708392601
 20
23.0872951463
 11
5.5703005307
 21
22.9469668797
  0
LINE
  5
4A0
100
AcDbEntity
  8
RACCORDO
100
AcDbLine
 62
250
  6
CONTINUOUS
 10
5.1281057545
 20
22.4856232719
 11
5.128926051
 21
22.6042289459
  0
LINE
  5
4A1
100
AcDbEntity
  8
RACCORDO
100
AcDbLine
 62
250
  6
CONTINUOUS
 10
5.3725331674
 20
23.3813349933
 11
5.3711890681
 21
23.2159292578
  0
LINE
  5
4A2
100
AcDbEntity
  8
RACCORDO
100
AcDbLine
 62
250
  6
CONTINUOUS
 10
5.5719939464
 20
23.2148353811
 11
5.5708392601
 21
23.0872951463
  0
LINE
  5
4A3
100
AcDbEntity
  8
RACCORDO
100
AcDbLine
 62
250
  6
CONTINUOUS
 10
5.5730711935
 20
23.2884850368
 11
5.5719939464
 21
23.2148353811
  0
LWPOLYLINE
  5
4A4
100
AcDbEntity
  8
RACCORDO
100
AcDbPolyline
 62
250
  6
CONTINUOUS
 90
3
 70
0
 10
5.3743793328
 20
23.5138706285
 10
5.3737169101
 20
23.4739811214
 10
5.3725331674
 20
23.3813349933
  0
LWPOLYLINE
  5
4A5
100
AcDbEntity
  8
0
100
AcDbPolyline
 62
7
  6
CONTINUOUS
 90
7
 70
0
 10
4.5268325048
 20
-18.3351314344
 10
4.5260870084
 20
-18.3635749034
 10
4.5240792232
 20
-18.3924997482
 10
4.5208091492
 20
-18.4219059688
 10
4.5162767864
 20
-18.4517935653
 10
4.5104821347
 20
-18.4821625377
 10
4.5034251943
 20
-18.5130128859
  0
LWPOLYLINE
  5
4A6
100
AcDbEntity
  8
RACCORDO
100
AcDbPolyline
 62
250
  6
CONTINUOUS
 90
16
 70
0
 10
6.6
 20
21.2767766953
 10
6.6013695262
 20
21.2952548916
 10
6.6054630998
 20
21.3135306369
 10
6.6122358709
 20
21.3314036983
 10
6.6216136355
 20
21.3486782548
 10
6.6334936489
 20
21.3651650428
 10
6.6477457512
 20
21.3806834296
 10
6.6642137934
 20
21.3950633925
 10
6.6827173482
 20
21.4081473815
 10
6.7030536867
 20
21.4197920459
 10
6.7249999998
 20
21.4298698041
 10
6.7483158391
 20
21.4382702423
 10
6.7727457513
 20
21.4449013233
 10
6.7980220772
 20
21.4496903957
 10
6.8238678842
 20
21.4525849894
 10
6.85
 20
21.4535533906
  0
LWPOLYLINE
  5
4A7
100
AcDbEntity
  8
RACCORDO
100
AcDbPolyline
 62
250
  6
CONTINUOUS
 90
16
 70
0
 10
6.6
 20
21.0696699141
 10
6.6013695262
 20
21.0881481104
 10
6.6054630998
 20
21.1064238557
 10
6.6122358709
 20
21.1242969172
 10
6.6216136356
 20
21.1415714737
 10
6.6334936491
 20
21.1580582618
 10
6.6477457514
 20
21.1735766486
 10
6.6642137936
 20
21.1879566114
 10
6.6827173484
 20
21.2010406005
 10
6.703053687
 20
21.2126852648
 10
6.725
 20
21.222763023
 10
6.7483158393
 20
21.2311634611
 10
6.7727457515
 20
21.2377945421
 10
6.7980220773
 20
21.2425836145
 10
6.8238678842
 20
21.2454782082
 10
6.85
 20
21.2464466094
  0
LWPOLYLINE
  5
4A8
100
AcDbEntity
  8
0
100
AcDbPolyline
 62
7
  6
CONTINUOUS
 90
7
 70
0
 10
3.6710927205
 20
-18.3351314344
 10
3.6699931766
 20
-18.3473547947
 10
3.6691213801
 20
-18.3597787152
 10
3.6684773311
 20
-18.372403196
 10
3.6680610294
 20
-18.385228237
 10
3.6678724751
 20
-18.3982538384
 10
3.6679116683
 20
-18.41148
  0
LWPOLYLINE
  5
4A9
100
AcDbEntity
  8
0
100
AcDbPolyline
 62
7
  6
CONTINUOUS
 90
19
 70
0
 10
3.407054
 20
-18.351037
 10
3.4160249904
 20
-18.2710766772
 10
3.4193369452
 20
-18.2485546761
 10
3.423355239
 20
-18.2261886284
 10
3.4280302619
 20
-18.2039459329
 10
3.4334116237
 20
-18.1818591907
 10
3.4396481534
 20
-18.1600262059
 10
3.4467746752
 20
-18.1384430822
 10
3.4547563648
 20
-18.1171137157
 10
3.4636375782
 20
-18.096147599
 10
3.473417925
 20
-18.0755114275
 10
3.4840977955
 20
-18.0552385056
 10
3.4957227173
 20
-18.0355382395
 10
3.5082867205
 20
-18.0163949374
 10
3.5217957749
 20
-17.9978242911
 10
3.5363133177
 20
-17.9800827814
 10
3.5518604946
 20
-17.9632559018
 10
3.5684161598
 20
-17.9472581588
 10
3.5859803134
 20
-17.9320895523
  0
LWPOLYLINE
  5
4AA
100
AcDbEntity
  8
0
100
AcDbPolyline
 62
7
  6
CONTINUOUS
 90
7
 70
0
 10
3.6792488941
 20
-18.258527981
 10
3.6768255471
 20
-18.2716256706
 10
3.674827794
 20
-18.2845911813
 10
3.6732556348
 20
-18.297424513
 10
3.6721090695
 20
-18.3101256658
 10
3.6713880981
 20
-18.3226946396
 10
3.6710927205
 20
-18.3351314344
  0
LINE
  5
4AB
100
AcDbEntity
  8
0
100
AcDbLine
 62
7
  6
CONTINUOUS
 10
2.210253
 20
-12.8515
 11
2.544278
 21
-11.601313
  0
LINE
  5
4AC
100
AcDbEntity
  8
0
100
AcDbLine
 62
7
  6
CONTINUOUS
 10
1.981206
 20
-13.65
 11
2.143447
 21
-13.067821
  0
LWPOLYLINE
  5
4AD
100
AcDbEntity
  8
0
100
AcDbPolyline
 62
7
  6
CONTINUOUS
 90
7
 70
0
 10
0.1226226176
 20
-18.2106138925
 10
0.1123848665
 20
-18.2471389201
 10
0.1035814359
 20
-18.2849899592
 10
0.0962123258
 20
-18.3241670099
 10
0.0902775363
 20
-18.364670072
 10
0.0857770672
 20
-18.4064991458
 10
0.0827109187
 20
-18.449654231
  0
LWPOLYLINE
  5
4AE
100
AcDbEntity
  8
0
100
AcDbPolyline
 62
7
  6
CONTINUOUS
 90
7
 70
0
 10
1.5605201806
 20
-18.2106138925
 10
1.5502824295
 20
-18.2471389201
 10
1.5414789989
 20
-18.2849899592
 10
1.5341098888
 20
-18.3241670099
 10
1.5281750993
 20
-18.3646700721
 10
1.5236746302
 20
-18.4064991458
 10
1.5206084817
 20
-18.449654231
  0
LINE
  5
4AF
100
AcDbEntity
  8
0
100
AcDbLine
 62
7
  6
CONTINUOUS
 10
2.385218
 20
-11.349978
 11
1.710806
 21
-13.65
  0
LWPOLYLINE
  5
4B0
100
AcDbEntity
  8
0
100
AcDbPolyline
 62
7
  6
CONTINUOUS
 90
7
 70
0
 10
0.631623476
 20
-19.7979949307
 10
0.6423863233
 20
-19.7618286578
 10
0.6517037832
 20
-19.7244677525
 10
0.6595758557
 20
-19.6859122149
 10
0.6660025408
 20
-19.6461620449
 10
0.6709838384
 20
-19.6052172425
 10
0.6745197487
 20
-19.5630778077
  0
LWPOLYLINE
  5
4B1
100
AcDbEntity
  8
0
100
AcDbPolyline
 62
7
  6
CONTINUOUS
 90
10
 70
0
 10
-1.5301519198
 20
-18.0742739119
 10
-1.516625818
 20
-18.0477918861
 10
-1.501628268
 20
-18.0225504991
 10
-1.4851592699
 20
-17.9985497508
 10
-1.4671105706
 20
-17.975685794
 10
-1.4475904232
 20
-17.954062476
 10
-1.4269235863
 20
-17.9339913387
 10
-1.4052183129
 20
-17.9155762297
 10
-1.38236635
 20
-17.8987133014
 10
-1.3583676977
 20
-17.883402554
  0
LWPOLYLINE
  5
4B2
100
AcDbEntity
  8
0
100
AcDbPolyline
 62
7
  6
CONTINUOUS
 90
7
 70
0
 10
-3.4738587184
 20
-18.7518672326
 10
-3.4880982216
 20
-18.7776745008
 10
-3.5036405445
 20
-18.8018541124
 10
-3.5204856872
 20
-18.8244060675
 10
-3.5386336496
 20
-18.8453303662
 10
-3.5580844318
 20
-18.8646270083
 10
-3.5788380338
 20
-18.8822959938
  0
LWPOLYLINE
  5
4B3
100
AcDbEntity
  8
0
100
AcDbPolyline
 62
7
  6
CONTINUOUS
 90
7
 70
0
 10
-3.7156291697
 20
-19.8621024033
 10
-3.7034491527
 20
-19.8410962067
 10
-3.6927302079
 20
-19.8189519072
 10
-3.6834723353
 20
-19.7956695046
 10
-3.675675535
 20
-19.7712489989
 10
-3.6693398068
 20
-19.7456903903
 10
-3.6644651509
 20
-19.7189936785
  0
LWPOLYLINE
  5
4B4
100
AcDbEntity
  8
0
100
AcDbPolyline
 62
7
  6
CONTINUOUS
 90
7
 70
0
 10
-4.1832640348
 20
-18.12835413
 10
-4.1939332186
 20
-18.1465184647
 10
-4.2033892743
 20
-18.1654626136
 10
-4.2116322019
 20
-18.1851865767
 10
-4.2186620015
 20
-18.2056903541
 10
-4.224478673
 20
-18.2269739457
 10
-4.2290822165
 20
-18.2490373516
  0
LINE
  5
4B5
100
AcDbEntity
  8
DRAFT
100
AcDbLine
 62
7
  6
CONTINUOUS
 10
-20.964476877
 20
-14.7747248129
 11
-21.0179857956
 21
-14.7984851043
  0
LINE
  5
4B6
100
AcDbEntity
  8
DRAFT
100
AcDbLine
 62
7
  6
CONTINUOUS
 10
-20.9440408897
 20
-14.7657669781
 11
-20.964476877
 21
-14.7747248129
  0
LINE
  5
4B7
100
AcDbEntity
  8
DRAFT
100
AcDbLine
 62
7
  6
CONTINUOUS
 10
-20.9311174913
 20
-14.760168892
 11
-20.9440408897
 21
-14.7657669781
  0
LWPOLYLINE
  5
4B8
100
AcDbEntity
  8
DRAFT
100
AcDbPolyline
 62
7
  6
CONTINUOUS
 90
6
 70
0
 10
-20.8946545832
 20
-14.7450136038
 10
-20.9005614232
 20
-14.7473746777
 10
-20.9065363877
 20
-14.7498016746
 10
-20.9125794768
 20
-14.7522945945
 10
-20.9186744921
 20
-14.7548519348
 10
-20.9311174913
 20
-14.760168892
  0
LINE
  5
4B9
100
AcDbEntity
  8
RACCORDO
100
AcDbLine
 62
250
  6
CONTINUOUS
 10
-19.4138273498
 20
-12.8369590744
 11
-19.7438267808
 21
-12.9350412696
  0
LINE
  5
4BA
100
AcDbEntity
  8
RACCORDO
100
AcDbLine
 62
250
  6
CONTINUOUS
 10
-19.2542023768
 20
-12.9832154627
 11
-19.5961056179
 21
-13.0848356998
  0
LINE
  5
4BB
100
AcDbEntity
  8
0
100
AcDbLine
 62
7
  6
CONTINUOUS
 10
5.75
 20
5.75
 11
-5.75
 21
5.75
  0
LINE
  5
4BC
100
AcDbEntity
  8
RACCORDO
100
AcDbLine
 62
250
  6
CONTINUOUS
 10
-16.0934920741
 20
20.1151224438
 11
-15.9708336545
 21
20.028780611
  0
LINE
  5
4BD
100
AcDbEntity
  8
RACCORDO
100
AcDbLine
 62
250
  6
CONTINUOUS
 10
-6.85
 20
20.4845614035
 11
-6.5291663455
 21
20.028780611
  0
LINE
  5
4BE
100
AcDbEntity
  8
RACCORDO
100
AcDbLine
 62
7
  6
CONTINUOUS
 10
-6.6208712153
 20
20.4196499413
 11
-6.4065079259
 21
20.1151224438
  0
LINE
  5
4BF
100
AcDbEntity
  8
RACCORDO
100
AcDbLine
 62
250
  6
CONTINUOUS
 10
5.1217708624
 20
23.6386058148
 11
5.0994242576
 21
23.8643459867
  0
LINE
  5
4C0
100
AcDbEntity
  8
RACCORDO
100
AcDbLine
 62
250
  6
CONTINUOUS
 10
5.3782291376
 20
22.1613941852
 11
5.4005757424
 21
21.9356540133
  0
LINE
  5
4C1
100
AcDbEntity
  8
RACCORDO
100
AcDbLine
 62
250
  6
CONTINUOUS
 10
5.5781986766
 20
22.3583557358
 11
5.6
 21
22.1381238696
  0
LWPOLYLINE
  5
4C2
100
AcDbEntity
  8
0
100
AcDbPolyline
 62
7
  6
CONTINUOUS
 90
7
 70
0
 10
4.5034251943
 20
-18.5130128859
 10
4.4962864659
 20
-18.5406730972
 10
4.4881724968
 20
-18.5684890485
 10
4.479083287
 20
-18.59646074
 10
4.4690188364
 20
-18.6245881717
 10
4.4579791451
 20
-18.6528713434
 10
4.4459642131
 20
-18.6813102553
  0
LWPOLYLINE
  5
4C3
100
AcDbEntity
  8
0
100
AcDbPolyline
 62
7
  6
CONTINUOUS
 90
7
 70
0
 10
4.2187270691
 20
-18.5325170361
 10
4.2303684252
 20
-18.4931368789
 10
4.239866871
 20
-18.4544410308
 10
4.2472224065
 20
-18.416429492
 10
4.2524350318
 20
-18.3791022624
 10
4.2555047467
 20
-18.342459342
 10
4.2564315515
 20
-18.3065007308
  0
LWPOLYLINE
  5
4C4
100
AcDbEntity
  8
0
100
AcDbPolyline
 62
7
  6
CONTINUOUS
 90
7
 70
0
 10
2.069521039
 20
-19.7979949307
 10
2.0802838863
 20
-19.7618286578
 10
2.0896013462
 20
-19.7244677525
 10
2.0974734186
 20
-19.6859122149
 10
2.1039001037
 20
-19.6461620448
 10
2.1088814014
 20
-19.6052172424
 10
2.1124173117
 20
-19.5630778077
  0
LWPOLYLINE
  5
4C5
100
AcDbEntity
  8
0
100
AcDbPolyline
 62
7
  6
CONTINUOUS
 90
10
 70
0
 10
-0.5821575119
 20
-19.9130014452
 10
-0.5955656629
 20
-19.9411792997
 10
-0.6104758226
 20
-19.9680473334
 10
-0.6268879912
 20
-19.9936055462
 10
-0.644911852
 20
-20.017959531
 10
-0.6644377217
 20
-20.0410036949
 10
-0.6851365495
 20
-20.0624212592
 10
-0.7068986521
 20
-20.0821066309
 10
-0.7298337128
 20
-20.100165403
 10
-0.7539417317
 20
-20.1165975755
  0
LWPOLYLINE
  5
4C6
100
AcDbEntity
  8
0
100
AcDbPolyline
 62
7
  6
CONTINUOUS
 90
10
 70
0
 10
0.8557403252
 20
-19.9130014452
 10
0.842332201
 20
-19.9411792352
 10
0.8274220537
 20
-19.9680472214
 10
0.8110098833
 20
-19.9936054036
 10
0.7929860061
 20
-20.017959376
 10
0.7734601058
 20
-20.0410035446
 10
0.7527612331
 20
-20.062421127
 10
0.7309990716
 20
-20.0821065292
 10
0.7080639376
 20
-20.1001653454
 10
0.6839558312
 20
-20.1165975755
  0
LWPOLYLINE
  5
4C7
100
AcDbEntity
  8
0
100
AcDbPolyline
 62
7
  6
CONTINUOUS
 90
10
 70
0
 10
-0.0922543569
 20
-18.074273912
 10
-0.0787282813
 20
-18.0477919446
 10
-0.0637307434
 20
-18.0225506008
 10
-0.047261743
 20
-17.9985498803
 10
-0.0292130273
 20
-17.975685935
 10
-0.0096928491
 20
-17.9540626131
 10
0.0109740325
 20
-17.9339914595
 10
0.0326793647
 20
-17.9155763227
 10
0.0555314003
 20
-17.8987133542
 10
0.0795301395
 20
-17.883402554
  0
LWPOLYLINE
  5
4C8
100
AcDbEntity
  8
0
100
AcDbPolyline
 62
7
  6
CONTINUOUS
 90
10
 70
0
 10
1.3456432061
 20
-18.074273912
 10
1.3591692817
 20
-18.0477919446
 10
1.3741668196
 20
-18.0225506008
 10
1.39063582
 20
-17.9985498803
 10
1.4086845357
 20
-17.975685935
 10
1.4282047139
 20
-17.9540626131
 10
1.4488715955
 20
-17.9339914595
 10
1.4705769277
 20
-17.9155763227
 10
1.4934289633
 20
-17.8987133542
 10
1.5174277024
 20
-17.883402554
  0
LINE
  5
4C9
100
AcDbEntity
  8
RACCORDO
100
AcDbLine
 62
7
  6
CONTINUOUS
 10
4.75
 20
7.5
 11
-4.75
 21
7.5
  0
LINE
  5
4CA
100
AcDbEntity
  8
0
100
AcDbLine
 62
7
  6
CONTINUOUS
 10
-3.1099579961
 20
8.4965397575
 11
-3.3155517821
 21
8.4965397575
  0
LINE
  5
4CB
100
AcDbEntity
  8
0
100
AcDbLine
 62
7
  6
CONTINUOUS
 10
3.7094295635
 20
8.5
 11
3.5040221726
 21
8.5
  0
LINE
  5
4CC
100
AcDbEntity
  8
0
100
AcDbLine
 62
7
  6
CONTINUOUS
 10
1.0297016454
 20
8.5381532716
 11
0.5780183277
 21
8.5381532716
  0
LINE
  5
4CD
100
AcDbEntity
  8
0
100
AcDbLine
 62
7
  6
CONTINUOUS
 10
4.0913531061
 20
10.2209858803
 11
3.606725868
 21
11.3976980933
  0
LWPOLYLINE
  5
4CE
100
AcDbEntity
  8
0
100
AcDbPolyline
 62
7
  6
CONTINUOUS
 90
7
 70
0
 10
4.4459642131
 20
-18.6813102553
 10
4.4337738697
 20
-18.7091637126
 10
4.4212170022
 20
-18.7362875727
 10
4.4082936107
 20
-18.7626818357
 10
4.395003695
 20
-18.7883465015
 10
4.3813472553
 20
-18.8132815703
 10
4.3673242915
 20
-18.8374870419
  0
LWPOLYLINE
  5
4CF
100
AcDbEntity
  8
0
100
AcDbPolyline
 62
7
  6
CONTINUOUS
 90
10
 70
0
 10
2.2936378882
 20
-19.9130014452
 10
2.280229764
 20
-19.9411792352
 10
2.2653196167
 20
-19.9680472214
 10
2.2489074462
 20
-19.9936054036
 10
2.2308835691
 20
-20.017959376
 10
2.2113576688
 20
-20.0410035446
 10
2.1906587961
 20
-20.062421127
 10
2.1688966346
 20
-20.0821065292
 10
2.1459615006
 20
-20.1001653454
 10
2.1218533942
 20
-20.1165975755
  0
LWPOLYLINE
  5
4D0
100
AcDbEntity
  8
0
100
AcDbPolyline
 62
7
  6
CONTINUOUS
 90
7
 70
0
 10
-3.5088518458
 20
-20.0052559544
 10
-3.5314328912
 20
-20.0317555669
 10
-3.55685796
 20
-20.0565626643
 10
-3.5851270523
 20
-20.0796772466
 10
-3.6162401681
 20
-20.1010993138
 10
-3.6501973073
 20
-20.1208288659
 10
-3.6869984699
 20
-20.1388659028
  0
LWPOLYLINE
  5
4D1
100
AcDbEntity
  8
0
100
AcDbPolyline
 62
7
  6
CONTINUOUS
 90
16
 70
0
 10
-3.7657240886
 20
-18.7685962106
 10
-3.7580134154
 20
-18.7607315289
 10
-3.7507199782
 20
-18.7525680248
 10
-3.7438437773
 20
-18.7441056982
 10
-3.7373980873
 20
-18.7353054121
 10
-3.7313696335
 20
-18.7262063036
 10
-3.7257185912
 20
-18.7169257834
 10
-3.720449528
 20
-18.7074771451
 10
-3.7155578762
 20
-18.6978470952
 10
-3.7109901085
 20
-18.6881131636
 10
-3.7067468766
 20
-18.6782928724
 10
-3.7028275287
 20
-18.6683686996
 10
-3.6991765827
 20
-18.6583656092
 10
-3.6957755445
 20
-18.6482919227
 10
-3.6926429081
 20
-18.6381393187
 10
-3.6897786735
 20
-18.6279077972
  0
LWPOLYLINE
  5
4D2
100
AcDbEntity
  8
0
100
AcDbPolyline
 62
7
  6
CONTINUOUS
 90
7
 70
0
 10
-2.516321
 20
-18.1728910407
 10
-2.5452952624
 20
-18.2018310316
 10
-2.5743684949
 20
-18.2298400511
 10
-2.6035406973
 20
-18.2569180992
 10
-2.6328118698
 20
-18.283065176
 10
-2.6621820123
 20
-18.3082812813
 10
-2.6916511247
 20
-18.3325664153
  0
LWPOLYLINE
  5
4D3
100
AcDbEntity
  8
0
100
AcDbPolyline
 62
7
  6
CONTINUOUS
 90
22
 70
0
 10
-4.3614106401
 20
-17.9565699036
 10
-4.3456710765
 20
-17.9410105807
 10
-4.3292043936
 20
-17.9264755165
 10
-4.3120105913
 20
-17.912964711
 10
-4.2940003337
 20
-17.9005112169
 10
-4.2752629568
 20
-17.8890819815
 10
-4.2560664684
 20
-17.8785778465
 10
-4.2364313171
 20
-17.8690012736
 10
-4.2163370542
 20
-17.860349801
 10
-4.1959903422
 20
-17.8525168852
 10
-4.1754161476
 20
-17.8454985823
 10
-4.1545895038
 20
-17.8392988362
 10
-4.1336421727
 20
-17.833822935
 10
-4.1126025495
 20
-17.8290670694
 10
-4.091442239
 20
-17.8250350487
 10
-4.0702078171
 20
-17.8216435889
 10
-4.0489090491
 20
-17.8189080272
 10
-4.0275361696
 20
-17.8168130265
 10
-4.0061064584
 20
-17.8152292918
 10
-3.9846256753
 20
-17.814113725
 10
-3.9630880604
 20
-17.8135094242
 10
-3.9414936138
 20
-17.8134163895
  0
LWPOLYLINE
  5
4D4
100
AcDbEntity
  8
0
100
AcDbPolyline
 62
7
  6
CONTINUOUS
 90
34
 70
0
 10
1.2405963948
 20
10.1389058454
 10
1.267561881
 20
10.1390303669
 10
1.2944571535
 20
10.1394745346
 10
1.3212754978
 20
10.1403431855
 10
1.3480597233
 20
10.1417428784
 10
1.3747537356
 20
10.1437750264
 10
1.4012031641
 20
10.1465231887
 10
1.4273358955
 20
10.1500621958
 10
1.4532133794
 20
10.1544776045
 10
1.4788822946
 20
10.1598563469
 10
1.5042928378
 20
10.1662714807
 10
1.5293064727
 20
10.1738230335
 10
1.5538261686
 20
10.1826584671
 10
1.5776574035
 20
10.1929086883
 10
1.6005467955
 20
10.2046806391
 10
1.6223013707
 20
10.2181098015
 10
1.6427122743
 20
10.2333330799
 10
1.6615436798
 20
10.2504487242
 10
1.6787044148
 20
10.2693426871
 10
1.6942252156
 20
10.2897572186
 10
1.7081654793
 20
10.3114649542
 10
1.7205834912
 20
10.3342525987
 10
1.7315079043
 20
10.3578587426
 10
1.7409914383
 20
10.3820702025
 10
1.7491065346
 20
10.4067607046
 10
1.7559201559
 20
10.4318274366
 10
1.7615213026
 20
10.4572100419
 10
1.7660169747
 20
10.4829040447
 10
1.7695149338
 20
10.5089187101
 10
1.7721146823
 20
10.5351810391
 10
1.7739222946
 20
10.5615611071
 10
1.77505874
 20
10.5879916775
 10
1.7756494797
 20
10.6144693005
 10
1.7758186036
 20
10.6409582003
  0
LINE
  5
4D5
100
AcDbEntity
  8
0
100
AcDbLine
 62
7
  6
CONTINUOUS
 10
1.3217604955
 20
9.8004000692
 11
1.0297016454
 21
9.8002457332
  0
LINE
  5
4D6
100
AcDbEntity
  8
0
100
AcDbLine
 62
7
  6
CONTINUOUS
 10
1.2405963948
 20
10.1389058454
 11
1.0297016454
 21
10.1389058454
  0
LINE
  5
4D7
100
AcDbEntity
  8
0
100
AcDbLine
 62
7
  6
CONTINUOUS
 10
-2.7282208486
 20
10.2175256378
 11
-3.1099579961
 21
10.2175256378
  0
LINE
  5
4D8
100
AcDbEntity
  8
0
100
AcDbLine
 62
7
  6
CONTINUOUS
 10
-3.3155517821
 20
10.2175256378
 11
-3.6973821272
 21
10.2175256378
  0
LINE
  5
4D9
100
AcDbEntity
  8
0
100
AcDbLine
 62
7
  6
CONTINUOUS
 10
4.0913531061
 20
10.2209858803
 11
3.7094295635
 21
10.2209858803
  0
LINE
  5
4DA
100
AcDbEntity
  8
0
100
AcDbLine
 62
7
  6
CONTINUOUS
 10
3.5040221726
 20
10.2209858803
 11
3.12209863
 21
10.2209858803
  0
LINE
  5
4DB
100
AcDbEntity
  8
0
100
AcDbLine
 62
250
  6
CONTINUOUS
 10
21.2482544935
 20
10.7371426949
 11
-21.2482544935
 21
10.7371426949
  0
LINE
  5
4DC
100
AcDbEntity
  8
0
100
AcDbLine
 62
7
  6
CONTINUOUS
 10
-0.0100299444
 20
11.453414866
 11
-0.4498376355
 21
11.453414866
  0
LINE
  5
4DD
100
AcDbEntity
  8
0
100
AcDbLine
 62
7
  6
CONTINUOUS
 10
-1.3773650285
 20
11.453414866
 11
-1.8282293375
 21
11.453414866
  0
LWPOLYLINE
  5
4DE
100
AcDbEntity
  8
0
100
AcDbPolyline
 62
7
  6
CONTINUOUS
 90
22
 70
0
 10
1.0297016454
 20
11.1147547539
 10
1.3012753648
 20
11.1146555988
 10
1.3402369824
 20
11.1133189641
 10
1.377956466
 20
11.1107448499
 10
1.4144503357
 20
11.1070836077
 10
1.4497020714
 20
11.1021848859
 10
1.4836621123
 20
11.0955976294
 10
1.5164621464
 20
11.0874028409
 10
1.5479704857
 20
11.0775195177
 10
1.577742505
 20
11.065253596
 10
1.6057728277
 20
11.0504295752
 10
1.6320668303
 20
11.0332229559
 10
1.6561960178
 20
11.0134661764
 10
1.6780425173
 20
10.9909384834
 10
1.6977242016
 20
10.9658606302
 10
1.7151661945
 20
10.9387273157
 10
1.7303502888
 20
10.909577863
 10
1.7432946917
 20
10.8783729489
 10
1.7539791495
 20
10.8454893022
 10
1.7623969108
 20
10.8110524991
 10
1.7685547269
 20
10.7749369633
 10
1.7724525978
 20
10.7371426949
  0
LWPOLYLINE
  5
4DF
100
AcDbEntity
  8
0
100
AcDbPolyline
 62
7
  6
CONTINUOUS
 90
7
 70
0
 10
4.1228206802
 20
-18.7455071076
 10
4.1414806918
 20
-18.7136977937
 10
4.1590704579
 20
-18.6804128672
 10
4.1755899787
 20
-18.6456523282
 10
4.1910392542
 20
-18.6094161767
 10
4.2054182843
 20
-18.5717044127
 10
4.2187270691
 20
-18.5325170361
  0
LINE
  5
4E0
100
AcDbEntity
  8
0
100
AcDbLine
 62
7
  6
CONTINUOUS
 10
4.3230216233
 20
-18.9103837826
 11
4.2787008095
 21
-18.9840927249
  0
LINE
  5
4E1
100
AcDbEntity
  8
0
100
AcDbLine
 62
7
  6
CONTINUOUS
 10
4.3673242915
 20
-18.8374870419
 11
4.3230216233
 21
-18.9103837826
  0
LINE
  5
4E2
100
AcDbEntity
  8
0
100
AcDbLine
 62
7
  6
CONTINUOUS
 10
3.387967
 20
-19.919364
 11
4.1228220038
 21
-18.7455049939
  0
LINE
  5
4E3
100
AcDbEntity
  8
0
100
AcDbLine
 62
7
  6
CONTINUOUS
 10
3.664731
 20
-19.951176
 11
4.2787008095
 21
-18.9840927249
  0
LWPOLYLINE
  5
4E4
100
AcDbEntity
  8
0
100
AcDbPolyline
 62
7
  6
CONTINUOUS
 90
7
 70
0
 10
-2.6753802044
 20
-18.0392808297
 10
-2.6398545758
 20
-18.0090319627
 10
-2.6060265388
 20
-17.9783699872
 10
-2.5738960934
 20
-17.9472949032
 10
-2.5434632396
 20
-17.9158067106
 10
-2.5147279775
 20
-17.8839054096
 10
-2.487690307
 20
-17.851591
  0
LWPOLYLINE
  5
4E5
100
AcDbEntity
  8
0
100
AcDbPolyline
 62
7
  6
CONTINUOUS
 90
16
 70
0
 10
-1.221576644
 20
-18.0647304103
 10
-1.2307923443
 20
-18.0723711273
 10
-1.2395494818
 20
-18.0804139999
 10
-1.2478480565
 20
-18.0888590283
 10
-1.2556774005
 20
-18.0977553016
 10
-1.2630481816
 20
-18.1070537307
 10
-1.2699924038
 20
-18.1166070477
 10
-1.2765035867
 20
-18.1263990913
 10
-1.2825882105
 20
-18.1364460228
 10
-1.28829772
 20
-18.1466490592
 10
-1.293630937
 20
-18.1569876449
 10
-1.2985890396
 20
-18.1674823355
 10
-1.3032270065
 20
-18.1780960137
 10
-1.307563164
 20
-18.1888163073
 10
-1.3115791859
 20
-18.1996555886
 10
-1.3152750721
 20
-18.2106138575
  0
LWPOLYLINE
  5
4E6
100
AcDbEntity
  8
0
100
AcDbPolyline
 62
7
  6
CONTINUOUS
 90
16
 70
0
 10
0.2163209699
 20
-18.0647304766
 10
0.2071052588
 20
-18.072371187
 10
0.1983481154
 20
-18.0804140568
 10
0.1900495396
 20
-18.0888590858
 10
0.1822202002
 20
-18.097755365
 10
0.1748494285
 20
-18.1070538034
 10
0.1679052182
 20
-18.1166071287
 10
0.1613940501
 20
-18.1263991786
 10
0.1553094435
 20
-18.1364461155
 10
0.1495999499
 20
-18.1466491539
 10
0.1442667475
 20
-18.1569877376
 10
0.139308658
 20
-18.1674824227
 10
0.1346706986
 20
-18.1780960925
 10
0.1303345415
 20
-18.1888163745
 10
0.1263185145
 20
-18.1996556412
 10
0.1226226176
 20
-18.2106138925
  0
LWPOLYLINE
  5
4E7
100
AcDbEntity
  8
0
100
AcDbPolyline
 62
7
  6
CONTINUOUS
 90
7
 70
0
 10
-3.5788380338
 20
-18.8822959938
 10
-3.60299476
 20
-18.8996218341
 10
-3.6280927601
 20
-18.9148951619
 10
-3.654132034
 20
-18.9281159772
 10
-3.6811125817
 20
-18.9392842799
 10
-3.7090344033
 20
-18.9484000701
 10
-3.7378974987
 20
-18.9554633477
  0
LWPOLYLINE
  5
4E8
100
AcDbEntity
  8
0
100
AcDbPolyline
 62
7
  6
CONTINUOUS
 90
7
 70
0
 10
-2.885339
 20
-18.1983404908
 10
-2.8504917946
 20
-18.1745968901
 10
-2.8155862183
 20
-18.1497467522
 10
-2.7806222711
 20
-18.1237900772
 10
-2.7455999531
 20
-18.0967268651
 10
-2.7105192642
 20
-18.068557116
 10
-2.6753802044
 20
-18.0392808297
  0
LWPOLYLINE
  5
4E9
100
AcDbEntity
  8
0
100
AcDbPolyline
 62
7
  6
CONTINUOUS
 90
13
 70
0
 10
-4.094190731
 20
-18.0456432151
 10
-4.102998335
 20
-18.050375849
 10
-4.1115607251
 20
-18.0555207836
 10
-4.1198779014
 20
-18.0610780192
 10
-4.127955382
 20
-18.0670649018
 10
-4.1357876488
 20
-18.0734640852
 10
-4.1433581467
 20
-18.0802235311
 10
-4.1506608702
 20
-18.0873217268
 10
-4.1577018248
 20
-18.094780185
 10
-4.1644824724
 20
-18.1026114044
 10
-4.1710033002
 20
-18.1108195516
 10
-4.177263821
 20
-18.1194004601
 10
-4.1832640348
 20
-18.12835413
  0
LINE
  5
4EA
100
AcDbEntity
  8
RACCORDO
100
AcDbLine
 62
7
  6
CONTINUOUS
 10
4.75
 20
12.5
 11
-4.75
 21
12.5
  0
LINE
  5
4EB
100
AcDbEntity
  8
RACCORDO
100
AcDbLine
 62
7
  6
CONTINUOUS
 10
-4.9
 20
22.6
 11
-4.9156727585
 21
22.6156727585
  0
LINE
  5
4EC
100
AcDbEntity
  8
RACCORDO
100
AcDbLine
 62
250
  6
CONTINUOUS
 10
15.65
 20
20.4845614035
 11
15.65
 21
21.6
  0
LINE
  5
4ED
100
AcDbEntity
  8
RACCORDO
100
AcDbLine
 62
7
  6
CONTINUOUS
 10
15.9
 20
21.35
 11
15.9
 21
20.39
  0
LINE
  5
4EE
100
AcDbEntity
  8
RACCORDO
100
AcDbLine
 62
250
  6
CONTINUOUS
 10
15.9299475147
 20
19.8
 11
15.9299475147
 21
19.95
  0
LINE
  5
4EF
100
AcDbEntity
  8
RACCORDO
100
AcDbLine
 62
250
  6
CONTINUOUS
 10
18.65
 20
21.7381238696
 11
18.6718013234
 21
21.9583557358
  0
LWPOLYLINE
  5
4F0
100
AcDbEntity
  8
0
100
AcDbPolyline
 62
7
  6
CONTINUOUS
 90
10
 70
0
 10
3.7697095888
 20
-18.0806361535
 10
3.7551878105
 20
-18.0964270338
 10
3.7417522585
 20
-18.1132766927
 10
3.7294029328
 20
-18.1311851301
 10
3.7180979382
 20
-18.1502390912
 10
3.7078791699
 20
-18.1703518308
 10
3.6988723129
 20
-18.1912631132
 10
3.6911192621
 20
-18.212886193
 10
3.6845781225
 20
-18.2353078157
 10
3.6792488941
 20
-18.258527981
  0
LWPOLYLINE
  5
4F1
100
AcDbEntity
  8
0
100
AcDbPolyline
 62
7
  6
CONTINUOUS
 90
16
 70
0
 10
-0.8977086927
 20
-19.9408503729
 10
-0.8890744342
 20
-19.9334874821
 10
-0.8808222726
 20
-19.9257551809
 10
-0.8729522076
 20
-19.9176534694
 10
-0.8654715781
 20
-19.9091538146
 10
-0.8583730454
 20
-19.9002847495
 10
-0.8516345931
 20
-19.8911318729
 10
-0.8452562994
 20
-19.8817048884
 10
-0.8392380862
 20
-19.8719940925
 10
-0.8335577015
 20
-19.8620559737
 10
-0.8282170275
 20
-19.8519009008
 10
-0.8232141822
 20
-19.841518505
 10
-0.8185212677
 20
-19.8309341679
 10
-0.8141289849
 20
-19.8201563499
 10
-0.810046633
 20
-19.8091765907
 10
-0.8062742119
 20
-19.7979948901
  0
LWPOLYLINE
  5
4F2
100
AcDbEntity
  8
0
100
AcDbPolyline
 62
7
  6
CONTINUOUS
 90
16
 70
0
 10
0.5401891445
 20
-19.9408503729
 10
0.5488233978
 20
-19.9334874799
 10
0.5570755516
 20
-19.9257551751
 10
0.5649456059
 20
-19.9176534584
 10
0.5724262212
 20
-19.9091537959
 10
0.5795247369
 20
-19.9002847217
 10
0.5862631717
 20
-19.8911318374
 10
0.5926414468
 20
-19.8817048467
 10
0.5986596411
 20
-19.8719940461
 10
0.6043400088
 20
-19.8620559262
 10
0.609680668
 20
-19.8519008567
 10
0.6146835008
 20
-19.8415184679
 10
0.6193764078
 20
-19.8309341427
 10
0.6237686895
 20
-19.8201563419
 10
0.6278510456
 20
-19.8091766045
 10
0.631623476
 20
-19.7979949307
  0
LWPOLYLINE
  5
4F3
100
AcDbEntity
  8
0
100
AcDbPolyline
 62
7
  6
CONTINUOUS
 90
16
 70
0
 10
1.9780867075
 20
-19.9408503729
 10
1.9867209608
 20
-19.9334874799
 10
1.9949731146
 20
-19.9257551751
 10
2.0028431689
 20
-19.9176534584
 10
2.0103237842
 20
-19.9091537959
 10
2.0174222999
 20
-19.9002847217
 10
2.0241607346
 20
-19.8911318374
 10
2.0305390098
 20
-19.8817048467
 10
2.0365572041
 20
-19.8719940461
 10
2.0422375718
 20
-19.8620559262
 10
2.047578231
 20
-19.8519008567
 10
2.0525810637
 20
-19.8415184679
 10
2.0572739708
 20
-19.8309341427
 10
2.0616662525
 20
-19.8201563419
 10
2.0657486086
 20
-19.8091766045
 10
2.069521039
 20
-19.7979949307
  0
LWPOLYLINE
  5
4F4
100
AcDbEntity
  8
0
100
AcDbPolyline
 62
7
  6
CONTINUOUS
 90
16
 70
0
 10
1.6542185329
 20
-18.0647304766
 10
1.6450028218
 20
-18.072371187
 10
1.6362456784
 20
-18.0804140568
 10
1.6279471026
 20
-18.0888590858
 10
1.6201177632
 20
-18.097755365
 10
1.6127469914
 20
-18.1070538034
 10
1.6058027812
 20
-18.1166071287
 10
1.5992916131
 20
-18.1263991786
 10
1.5932070065
 20
-18.1364461155
 10
1.5874975129
 20
-18.1466491539
 10
1.5821643104
 20
-18.1569877376
 10
1.577206221
 20
-18.1674824227
 10
1.5725682615
 20
-18.1780960925
 10
1.5682321045
 20
-18.1888163746
 10
1.5642160775
 20
-18.1996556412
 10
1.5605201806
 20
-18.2106138925
  0
LWPOLYLINE
  5
4F5
100
AcDbEntity
  8
0
100
AcDbPolyline
 62
7
  6
CONTINUOUS
 90
19
 70
0
 10
3.5859803134
 20
-17.9320895523
 10
3.6051301607
 20
-17.9177609676
 10
3.6248271726
 20
-17.9043969045
 10
3.6450713489
 20
-17.8919973631
 10
3.6659255256
 20
-17.8805840066
 10
3.6873268669
 20
-17.8701351717
 10
3.7090868651
 20
-17.8605858683
 10
3.7311956317
 20
-17.8519342851
 10
3.7536630554
 20
-17.8441822335
 10
3.7763302941
 20
-17.8372701576
 10
3.799173026
 20
-17.8311968246
 10
3.8222155729
 20
-17.8259634674
 10
3.8453720585
 20
-17.8215142279
 10
3.8686324249
 20
-17.8178652457
 10
3.8920067299
 20
-17.8150003812
 10
3.9154392701
 20
-17.8128153583
 10
3.9389114776
 20
-17.8112754183
 10
3.9624419203
 20
-17.8104153199
 10
3.9860305982
 20
-17.8102350631
  0
LWPOLYLINE
  5
4F6
100
AcDbEntity
  8
0
100
AcDbPolyline
 62
7
  6
CONTINUOUS
 90
7
 70
0
 10
-3.8114389702
 20
-19.9536756803
 10
-3.7933628849
 20
-19.9423621789
 10
-3.7761299138
 20
-19.929469193
 10
-3.7597400567
 20
-19.9149967225
 10
-3.7441933136
 20
-19.8989447673
 10
-3.7294896846
 20
-19.8813133276
 10
-3.7156291697
 20
-19.8621024033
  0
LWPOLYLINE
  5
4F7
100
AcDbEntity
  8
0
100
AcDbPolyline
 62
7
  6
CONTINUOUS
 90
10
 70
0
 10
-1.3583676977
 20
-17.883402554
 10
-1.3305613438
 20
-17.8686134515
 10
-1.3012200962
 20
-17.8555725561
 10
-1.2703439549
 20
-17.844279868
 10
-1.2378106785
 20
-17.8347287093
 10
-1.2037425085
 20
-17.8269257578
 10
-1.1685061684
 20
-17.8208910467
 10
-1.1322238994
 20
-17.8166312539
 10
-1.0947734605
 20
-17.8141397014
 10
-1.0561548514
 20
-17.8134163895
  0
LWPOLYLINE
  5
4F8
100
AcDbEntity
  8
0
100
AcDbPolyline
 62
7
  6
CONTINUOUS
 90
10
 70
0
 10
0.0795301395
 20
-17.883402554
 10
0.1073364744
 20
-17.8686134562
 10
0.1366776998
 20
-17.8555725634
 10
0.1675538157
 20
-17.8442798756
 10
0.2000870627
 20
-17.8347287137
 10
0.2341552002
 20
-17.8269257569
 10
0.269391506
 20
-17.8208910423
 10
0.3056737395
 20
-17.8166312491
 10
0.3431241413
 20
-17.8141396981
 10
0.3817427116
 20
-17.8134163895
  0
LWPOLYLINE
  5
4F9
100
AcDbEntity
  8
0
100
AcDbPolyline
 62
7
  6
CONTINUOUS
 90
10
 70
0
 10
1.5174277024
 20
-17.883402554
 10
1.5452340374
 20
-17.8686134562
 10
1.5745752628
 20
-17.8555725634
 10
1.6054513787
 20
-17.8442798756
 10
1.6379846257
 20
-17.8347287137
 10
1.6720527632
 20
-17.8269257569
 10
1.707289069
 20
-17.8208910423
 10
1.7435713025
 20
-17.8166312491
 10
1.7810217043
 20
-17.8141396981
 10
1.8196402745
 20
-17.8134163895
  0
LWPOLYLINE
  5
4FA
100
AcDbEntity
  8
RACCORDO
100
AcDbPolyline
 62
250
  6
CONTINUOUS
 90
16
 70
0
 10
15.9
 20
21.0696699141
 10
15.8986304738
 20
21.0881481104
 10
15.8945369002
 20
21.1064238557
 10
15.8877641291
 20
21.1242969171
 10
15.8783863645
 20
21.1415714736
 10
15.8665063511
 20
21.1580582616
 10
15.8522542488
 20
21.1735766484
 10
15.8357862066
 20
21.1879566113
 10
15.8172826518
 20
21.2010406003
 10
15.7969463133
 20
21.2126852647
 10
15.7750000002
 20
21.222763023
 10
15.7516841609
 20
21.2311634611
 10
15.7272542487
 20
21.2377945421
 10
15.7019779228
 20
21.2425836145
 10
15.6761321158
 20
21.2454782082
 10
15.65
 20
21.2464466094
  0
LWPOLYLINE
  5
4FB
100
AcDbEntity
  8
RACCORDO
100
AcDbPolyline
 62
250
  6
CONTINUOUS
 90
16
 70
0
 10
15.9
 20
21.2767766953
 10
15.8986304738
 20
21.2952548916
 10
15.8945369002
 20
21.3135306369
 10
15.8877641291
 20
21.3314036984
 10
15.8783863644
 20
21.3486782549
 10
15.8665063509
 20
21.365165043
 10
15.8522542486
 20
21.3806834298
 10
15.8357862064
 20
21.3950633926
 10
15.8172826516
 20
21.4081473817
 10
15.796946313
 20
21.419792046
 10
15.775
 20
21.4298698042
 10
15.7516841607
 20
21.4382702423
 10
15.7272542485
 20
21.4449013233
 10
15.7019779227
 20
21.4496903957
 10
15.6761321158
 20
21.4525849894
 10
15.65
 20
21.4535533906
  0
LWPOLYLINE
  5
4FC
100
AcDbEntity
  8
RACCORDO
100
AcDbPolyline
 62
250
  6
CONTINUOUS
 90
13
 70
0
 10
19.5961056179
 20
-13.4151643002
 10
19.5975291951
 20
-13.4346056874
 10
19.6014273349
 20
-13.4537180917
 10
19.6077340494
 20
-13.4721782451
 10
19.6163426269
 20
-13.4896739459
 10
19.6271074062
 20
-13.5059092682
 10
19.639846214
 20
-13.520609584
 10
19.6543435212
 20
-13.5335263077
 10
19.670354085
 20
-13.5444410488
 10
19.6876070356
 20
-13.5531692614
 10
19.7058105275
 20
-13.5595634183
 10
19.7246566872
 20
-13.5635154864
 10
19.7438267808
 20
-13.5649587304
  0
LWPOLYLINE
  5
4FD
100
AcDbEntity
  8
RACCORDO
100
AcDbPolyline
 62
250
  6
CONTINUOUS
 90
19
 70
0
 10
19.0965379665
 20
-13.5040603169
 10
19.0973888558
 20
-13.5317350618
 10
19.1006000747
 20
-13.5586713145
 10
19.1061716233
 20
-13.5848690752
 10
19.1142277929
 20
-13.6105423746
 10
19.1246442922
 20
-13.6354771819
 10
19.1370482472
 20
-13.6590314043
 10
19.1516089757
 20
-13.6811951032
 10
19.1681571598
 20
-13.7019782172
 10
19.1858119712
 20
-13.720768469
 10
19.2043298302
 20
-13.7372876262
 10
19.2239543165
 20
-13.7518139212
 10
19.2445353412
 20
-13.7645697741
 10
19.2658361541
 20
-13.7756656033
 10
19.2880935053
 20
-13.7849909905
 10
19.3118675563
 20
-13.7924371011
 10
19.3373450276
 20
-13.7979676569
 10
19.3643391986
 20
-13.801618936
 10
19.3928500694
 20
-13.8033909386
  0
LINE
  5
4FE
100
AcDbEntity
  8
RACCORDO
100
AcDbLine
 62
250
  6
CONTINUOUS
 10
18.679645357
 20
22.5740735294
 11
18.6789511567
 21
22.7167609339
  0
LINE
  5
4FF
100
AcDbEntity
  8
RACCORDO
100
AcDbLine
 62
7
  6
CONTINUOUS
 10
18.65
 20
21.7381238696
 11
18.65
 21
23.2618761304
  0
LINE
  5
500
100
AcDbEntity
  8
RACCORDO
100
AcDbLine
 62
250
  6
CONTINUOUS
 10
18.6796460207
 20
22.4257940557
 11
18.679645357
 21
22.5740735294
  0
LINE
  5
501
100
AcDbEntity
  8
RACCORDO
100
AcDbLine
 62
250
  6
CONTINUOUS
 10
18.878926051
 20
22.2042289459
 11
18.8796940897
 21
22.465799837
  0
LINE
  5
502
100
AcDbEntity
  8
RACCORDO
100
AcDbLine
 62
250
  6
CONTINUOUS
 10
18.6789565063
 20
22.28324642
 11
18.6796460207
 21
22.4257940557
  0
LINE
  5
503
100
AcDbEntity
  8
RACCORDO
100
AcDbLine
 62
250
  6
CONTINUOUS
 10
18.8775973269
 20
22.0311148654
 11
18.878926051
 21
22.2042289459
  0
LINE
  5
504
100
AcDbEntity
  8
RACCORDO
100
AcDbLine
 62
250
  6
CONTINUOUS
 10
19.0231017055
 20
23.0296831877
 11
19.0215768487
 21
22.8740475674
  0
LINE
  5
505
100
AcDbEntity
  8
RACCORDO
100
AcDbLine
 62
250
  6
CONTINUOUS
 10
18.6776278015
 20
22.1562906718
 11
18.6789565063
 21
22.28324642
  0
LINE
  5
506
100
AcDbEntity
  8
RACCORDO
100
AcDbLine
 62
250
  6
CONTINUOUS
 10
18.8764010938
 20
21.9339008114
 11
18.8775973269
 21
22.0311148654
  0
LINE
  5
507
100
AcDbEntity
  8
RACCORDO
100
AcDbLine
 62
250
  6
CONTINUOUS
 10
19.0243793328
 20
23.1138706285
 11
19.0231017055
 21
23.0296831877
  0
LWPOLYLINE
  5
508
100
AcDbEntity
  8
RACCORDO
100
AcDbPolyline
 62
250
  6
CONTINUOUS
 90
6
 70
0
 10
18.8717707895
 20
21.7613941852
 10
18.8726291116
 20
21.7761874328
 10
18.8734527918
 20
21.7968686206
 10
18.8742418301
 20
21.8232420425
 10
18.8750015164
 20
21.855047129
 10
18.8764010938
 20
21.9339008114
  0
LWPOLYLINE
  5
509
100
AcDbEntity
  8
RACCORDO
100
AcDbPolyline
 62
250
  6
CONTINUOUS
 90
5
 70
0
 10
19.0282292041
 20
23.2386058148
 10
19.0273973615
 20
23.2243526601
 10
19.0265974363
 20
23.2045559119
 10
19.0258294286
 20
23.1793885682
 10
19.0243793328
 20
23.1138706285
  0
LWPOLYLINE
  5
50A
100
AcDbEntity
  8
RACCORDO
100
AcDbPolyline
 62
250
  6
CONTINUOUS
 90
13
 70
0
 10
18.6718013234
 20
23.0416442642
 10
18.6735844555
 20
23.0673037053
 10
18.6787455583
 20
23.0925257963
 10
18.6871966639
 20
23.1168806416
 10
18.6987937281
 20
23.1399531271
 10
18.7133390858
 20
23.1613499958
 10
18.7305848201
 20
23.1807065509
 10
18.7502369874
 20
23.1976928711
 10
18.7719606284
 20
23.2120194347
 10
18.7953854762
 20
23.2234420536
 10
18.8201122681
 20
23.2317660362
 10
18.8457195505
 20
23.2368495048
 10
18.8717708624
 20
23.2386058148
  0
LWPOLYLINE
  5
50B
100
AcDbEntity
  8
RACCORDO
100
AcDbPolyline
 62
250
  6
CONTINUOUS
 90
13
 70
0
 10
19.2281986766
 20
21.9583557358
 10
19.2264155445
 20
21.9326962946
 10
19.2212544417
 20
21.9074742035
 10
19.212803336
 20
21.8831193581
 10
19.2012062718
 20
21.8600468725
 10
19.186660914
 20
21.8386500036
 10
19.1694151797
 20
21.8192934484
 10
19.1497630123
 20
21.802307128
 10
19.1280393714
 20
21.7879805644
 10
19.1046145236
 20
21.7765579455
 10
19.0798877317
 20
21.7682339632
 10
19.0542804493
 20
21.7631504948
 10
19.0282291376
 20
21.7613941852
  0
LWPOLYLINE
  5
50C
100
AcDbEntity
  8
RACCORDO
100
AcDbPolyline
 62
250
  6
CONTINUOUS
 90
8
 70
0
 10
18.6718013234
 20
21.9583557358
 10
18.6726595192
 20
21.9694969159
 10
18.673483123
 20
21.9846152812
 10
18.6742721349
 20
22.0037108318
 10
18.6750318724
 20
22.0269939857
 10
18.6757570179
 20
22.0542543249
 10
18.6764316186
 20
22.0848605947
 10
18.6776278015
 20
22.1562906718
  0
LWPOLYLINE
  5
50D
100
AcDbEntity
  8
RACCORDO
100
AcDbPolyline
 62
250
  6
CONTINUOUS
 90
8
 70
0
 10
19.2281986766
 20
23.0416442642
 10
19.2273669494
 20
23.0309325829
 10
19.226567094
 20
23.0164572558
 10
19.2257991103
 20
22.9982182829
 10
19.2250580566
 20
22.9760272383
 10
19.2243488745
 20
22.950072548
 10
19.2236863899
 20
22.9209194893
 10
19.2225026945
 20
22.852852216
  0
LINE
  5
50E
100
AcDbEntity
  8
RACCORDO
100
AcDbLine
 62
250
  6
CONTINUOUS
 10
18.8494242576
 20
21.5356540133
 11
18.8717708624
 21
21.7613941852
  0
LINE
  5
50F
100
AcDbEntity
  8
RACCORDO
100
AcDbLine
 62
250
  6
CONTINUOUS
 10
19.0505757424
 20
23.4643459867
 11
19.0282291376
 21
23.2386058148
  0
LINE
  5
510
100
AcDbEntity
  8
RACCORDO
100
AcDbLine
 62
250
  6
CONTINUOUS
 10
19.25
 20
23.2618761304
 11
19.2281986766
 21
23.0416442642
  0
LWPOLYLINE
  5
511
100
AcDbEntity
  8
0
100
AcDbPolyline
 62
7
  6
CONTINUOUS
 90
19
 70
0
 10
-0.7539417317
 20
-20.1165975755
 10
-0.7689687749
 20
-20.1254313794
 10
-0.7842817031
 20
-20.1336199925
 10
-0.7998805165
 20
-20.1411634147
 10
-0.8157845799
 20
-20.1480334695
 10
-0.8319745283
 20
-20.1542583334
 10
-0.8483922668
 20
-20.1599225366
 10
-0.8650367924
 20
-20.1650329599
 10
-0.881909108
 20
-20.1695827224
 10
-0.8989541272
 20
-20.1736357121
 10
-0.9161651133
 20
-20.1771959612
 10
-0.9335488032
 20
-20.1802594374
 10
-0.9510703206
 20
-20.1828779317
 10
-0.9687064903
 20
-20.1850532605
 10
-0.9864804876
 20
-20.1867836074
 10
-1.0044269626
 20
-20.1881153143
 10
-1.0225574653
 20
-20.1890638285
 10
-1.0408604456
 20
-20.1896137027
 10
-1.0593359036
 20
-20.1897649369
  0
LWPOLYLINE
  5
512
100
AcDbEntity
  8
0
100
AcDbPolyline
 62
7
  6
CONTINUOUS
 90
19
 70
0
 10
0.6839558312
 20
-20.1165975755
 10
0.6689287881
 20
-20.1254313794
 10
0.6536158598
 20
-20.1336199925
 10
0.6380170465
 20
-20.1411634147
 10
0.6221129831
 20
-20.1480334695
 10
0.6059230346
 20
-20.1542583334
 10
0.5895052962
 20
-20.1599225366
 10
0.5728607706
 20
-20.1650329599
 10
0.555988455
 20
-20.1695827224
 10
0.5389434358
 20
-20.1736357121
 10
0.5217324496
 20
-20.1771959612
 10
0.5043487598
 20
-20.1802594374
 10
0.4868272424
 20
-20.1828779317
 10
0.4691910727
 20
-20.1850532605
 10
0.4514170754
 20
-20.1867836074
 10
0.4334706004
 20
-20.1881153143
 10
0.4153400977
 20
-20.1890638285
 10
0.3970371173
 20
-20.1896137027
 10
0.3785616593
 20
-20.1897649369
  0
LWPOLYLINE
  5
513
100
AcDbEntity
  8
0
100
AcDbPolyline
 62
7
  6
CONTINUOUS
 90
19
 70
0
 10
2.1218533942
 20
-20.1165975755
 10
2.1068263511
 20
-20.1254313794
 10
2.0915134228
 20
-20.1336199925
 10
2.0759146095
 20
-20.1411634147
 10
2.0600105461
 20
-20.1480334695
 10
2.0438205976
 20
-20.1542583334
 10
2.0274028591
 20
-20.1599225366
 10
2.0107583336
 20
-20.1650329599
 10
1.993886018
 20
-20.1695827224
 10
1.9768409988
 20
-20.1736357121
 10
1.9596300126
 20
-20.1771959612
 10
1.9422463228
 20
-20.1802594374
 10
1.9247248054
 20
-20.1828779317
 10
1.9070886357
 20
-20.1850532605
 10
1.8893146383
 20
-20.1867836074
 10
1.8713681633
 20
-20.1881153143
 10
1.8532376607
 20
-20.1890638285
 10
1.8349346803
 20
-20.1896137027
 10
1.8164592223
 20
-20.1897649369
  0
LWPOLYLINE
  5
514
100
AcDbEntity
  8
DRAFT
100
AcDbPolyline
 62
7
  6
CONTINUOUS
 90
6
 70
0
 10
20.8946545832
 20
-11.7549863962
 10
20.9005614232
 20
-11.7526253223
 10
20.9065363877
 20
-11.7501983254
 10
20.9125794768
 20
-11.7477054055
 10
20.9186744921
 20
-11.7451480652
 10
20.9311174913
 20
-11.739831108
  0
LWPOLYLINE
  5
515
100
AcDbEntity
  8
0
100
AcDbPolyline
 62
7
  6
CONTINUOUS
 90
7
 70
0
 10
-3.6869984699
 20
-20.1388659028
 10
-3.7266745702
 20
-20.1537687678
 10
-3.7685069697
 20
-20.1658916764
 10
-3.8124956685
 20
-20.1752346284
 10
-3.8586406665
 20
-20.181797624
 10
-3.9069419638
 20
-20.185580663
 10
-3.9573995603
 20
-20.1865837455
  0
LINE
  5
516
100
AcDbEntity
  8
RACCORDO
100
AcDbLine
 62
250
  6
CONTINUOUS
 10
19.2442591244
 20
-13.5197398637
 11
19.5961056179
 21
-13.4151643002
  0
LINE
  5
517
100
AcDbEntity
  8
RACCORDO
100
AcDbLine
 62
250
  6
CONTINUOUS
 10
19.3928500694
 20
-13.6692757779
 11
19.7438267808
 21
-13.5649587304
  0
LINE
  5
518
100
AcDbEntity
  8
RACCORDO
100
AcDbLine
 62
250
  6
CONTINUOUS
 10
18.6718013234
 20
23.0416442642
 11
18.65
 21
23.2618761304
  0
LINE
  5
519
100
AcDbEntity
  8
RACCORDO
100
AcDbLine
 62
250
  6
CONTINUOUS
 10
18.8717708624
 20
23.2386058148
 11
18.8494242576
 21
23.4643459867
  0
LINE
  5
51A
100
AcDbEntity
  8
RACCORDO
100
AcDbLine
 62
250
  6
CONTINUOUS
 10
19.0282291376
 20
21.7613941852
 11
19.0505757424
 21
21.5356540133
  0
LINE
  5
51B
100
AcDbEntity
  8
DRAFT
100
AcDbLine
 62
7
  6
CONTINUOUS
 10
21.2042531448
 20
-24.8176673717
 11
21.2292140383
 21
-25.1212710891
  0
LWPOLYLINE
  5
51C
100
AcDbEntity
  8
RACCORDO
100
AcDbPolyline
 62
250
  6
CONTINUOUS
 90
13
 70
0
 10
18.6718013234
 20
21.9583557358
 10
18.6735842522
 20
21.9326977843
 10
18.6787448433
 20
21.9074768075
 10
18.6871952657
 20
21.8831226658
 10
18.698791622
 20
21.8600504551
 10
18.7133363724
 20
21.8386534821
 10
18.7305816756
 20
21.8192965457
 10
18.7502336807
 20
21.8023096308
 10
18.7719574815
 20
21.7879823593
 10
18.7953827599
 20
21.7765590595
 10
18.8201102208
 20
21.7682345084
 10
18.8457184207
 20
21.763150644
 10
18.8717708623
 20
21.7613941844
  0
LWPOLYLINE
  5
51D
100
AcDbEntity
  8
RACCORDO
100
AcDbPolyline
 62
250
  6
CONTINUOUS
 90
13
 70
0
 10
19.2281986766
 20
23.0416442642
 10
19.2264157798
 20
23.0673019831
 10
19.221255269
 20
23.0925227853
 10
19.2128049544
 20
23.1168768159
 10
19.2012087106
 20
23.1399489818
 10
19.1866640579
 20
23.161345969
 10
19.169418825
 20
23.1807029639
 10
19.1497668479
 20
23.1976899716
 10
19.1280430241
 20
23.2120173543
 10
19.1046176787
 20
23.2234407621
 10
19.0798901108
 20
23.2317654041
 10
19.0542817628
 20
23.2368493318
 10
19.0282291376
 20
23.2386058147
  0
LWPOLYLINE
  5
51E
100
AcDbEntity
  8
RACCORDO
100
AcDbPolyline
 62
250
  6
CONTINUOUS
 90
4
 70
0
 10
18.8739207108
 20
23.1881791384
 10
18.8732494068
 20
23.2086512531
 10
18.8725327907
 20
23.2256541241
 10
18.8717708624
 20
23.2386058148
  0
LWPOLYLINE
  5
51F
100
AcDbEntity
  8
RACCORDO
100
AcDbPolyline
 62
250
  6
CONTINUOUS
 90
4
 70
0
 10
19.025934656
 20
21.8168265821
 10
19.0266501975
 20
21.7940940539
 10
19.0274150383
 20
21.7754017016
 10
19.0282291786
 20
21.7613941852
  0
LWPOLYLINE
  5
520
100
AcDbEntity
  8
RACCORDO
100
AcDbPolyline
 62
250
  6
CONTINUOUS
 90
6
 70
0
 10
18.675142599
 20
22.9694982717
 10
18.6745694515
 20
22.9881522211
 10
18.6739510294
 20
23.004664701
 10
18.6732797352
 20
23.0191326915
 10
18.6725631665
 20
23.0314592126
 10
18.6718013234
 20
23.0416442642
  0
LWPOLYLINE
  5
521
100
AcDbEntity
  8
RACCORDO
100
AcDbPolyline
 62
250
  6
CONTINUOUS
 90
6
 70
0
 10
19.2246341317
 20
22.0385724063
 10
19.2252446234
 20
22.0175334243
 10
19.2259043652
 20
21.9990061608
 10
19.2266198856
 20
21.9829443006
 10
19.2273846561
 20
21.969394159
 10
19.2281986766
 20
21.9583557358
  0
LINE
  5
522
100
AcDbEntity
  8
RACCORDO
100
AcDbLine
 62
250
  6
CONTINUOUS
 10
18.6762282503
 20
22.925167667
 11
18.675142599
 21
22.9694982717
  0
LINE
  5
523
100
AcDbEntity
  8
RACCORDO
100
AcDbLine
 62
250
  6
CONTINUOUS
 10
18.8751121437
 20
23.1399807035
 11
18.8739207108
 21
23.1881791384
  0
LINE
  5
524
100
AcDbEntity
  8
RACCORDO
100
AcDbLine
 62
250
  6
CONTINUOUS
 10
19.0246645832
 20
21.8710029498
 11
19.025934656
 21
21.8168265821
  0
LINE
  5
525
100
AcDbEntity
  8
RACCORDO
100
AcDbLine
 62
250
  6
CONTINUOUS
 10
19.2234948286
 20
22.0884191732
 11
19.2246341317
 21
22.0385724063
  0
LINE
  5
526
100
AcDbEntity
  8
RACCORDO
100
AcDbLine
 62
250
  6
CONTINUOUS
 10
18.6772331647
 20
22.8702674361
 11
18.6762282503
 21
22.925167667
  0
LINE
  5
527
100
AcDbEntity
  8
RACCORDO
100
AcDbLine
 62
250
  6
CONTINUOUS
 10
18.8761977351
 20
23.0796128461
 11
18.8751121437
 21
23.1399807035
  0
LINE
  5
528
100
AcDbEntity
  8
RACCORDO
100
AcDbLine
 62
250
  6
CONTINUOUS
 10
19.0235253529
 20
21.9388949602
 11
19.0246645832
 21
21.8710029498
  0
LINE
  5
529
100
AcDbEntity
  8
RACCORDO
100
AcDbLine
 62
250
  6
CONTINUOUS
 10
19.2224692208
 20
22.1493739197
 11
19.2234948286
 21
22.0884191732
  0
LINE
  5
52A
100
AcDbEntity
  8
RACCORDO
100
AcDbLine
 62
250
  6
CONTINUOUS
 10
18.8776860938
 20
22.9596903853
 11
18.8761977351
 21
23.0796128461
  0
LINE
  5
52B
100
AcDbEntity
  8
RACCORDO
100
AcDbLine
 62
250
  6
CONTINUOUS
 10
19.0220264545
 20
22.0709360019
 11
19.0235253529
 21
21.9388949602
  0
LINE
  5
52C
100
AcDbEntity
  8
RACCORDO
100
AcDbLine
 62
250
  6
CONTINUOUS
 10
19.2211732724
 20
22.2665383787
 11
19.2224692208
 21
22.1493739197
  0
LWPOLYLINE
  5
52D
100
AcDbEntity
  8
RACCORDO
100
AcDbPolyline
 62
250
  6
CONTINUOUS
 90
3
 70
0
 10
18.6789511567
 20
22.7167609339
 10
18.6785922273
 20
22.7602006766
 10
18.6772331647
 20
22.8702674361
  0
LINE
  5
52E
100
AcDbEntity
  8
RACCORDO
100
AcDbLine
 62
250
  6
CONTINUOUS
 10
18.8792286803
 20
22.7325020696
 11
18.8776860938
 21
22.9596903853
  0
LINE
  5
52F
100
AcDbEntity
  8
RACCORDO
100
AcDbLine
 62
250
  6
CONTINUOUS
 10
19.0206303657
 20
22.3041703134
 11
19.0220264545
 21
22.0709360019
  0
LINE
  5
530
100
AcDbEntity
  8
RACCORDO
100
AcDbLine
 62
250
  6
CONTINUOUS
 10
19.2204146785
 20
22.4034063955
 11
19.2211732724
 21
22.2665383787
  0
LWPOLYLINE
  5
531
100
AcDbEntity
  8
RACCORDO
100
AcDbPolyline
 62
250
  6
CONTINUOUS
 90
19
 70
0
 10
19.2442596554
 20
-13.5197397059
 10
19.2442689218
 20
-13.5335094955
 10
19.2455689527
 20
-13.547106772
 10
19.2481348334
 20
-13.560423318
 10
19.2519365896
 20
-13.5733710854
 10
19.2569297635
 20
-13.5858316208
 10
19.263041954
 20
-13.5976629267
 10
19.270242094
 20
-13.6088281438
 10
19.2784222213
 20
-13.6192008749
 10
19.2873276427
 20
-13.6285599922
 10
19.2967070878
 20
-13.6367866775
 10
19.3065545119
 20
-13.6440072037
 10
19.3169840349
 20
-13.6503729232
 10
19.3278445081
 20
-13.6558204989
 10
19.3391376223
 20
-13.6603643215
 10
19.3512884672
 20
-13.6641176144
 10
19.3644209396
 20
-13.6669755154
 10
19.378304965
 20
-13.6687410818
 10
19.3928504934
 20
-13.6692756518
  0
LINE
  5
532
100
AcDbEntity
  8
RACCORDO
100
AcDbLine
 62
250
  6
CONTINUOUS
 10
18.8796940897
 20
22.465799837
 11
18.8792286803
 21
22.7325020696
  0
LINE
  5
533
100
AcDbEntity
  8
RACCORDO
100
AcDbLine
 62
7
  6
CONTINUOUS
 10
19.2322348431
 20
22.5846728965
 11
19.2322348431
 21
22.4153271035
  0
LINE
  5
534
100
AcDbEntity
  8
RACCORDO
100
AcDbLine
 62
7
  6
CONTINUOUS
 10
19.25
 20
21.7381238696
 11
19.25
 21
22.2
  0
LINE
  5
535
100
AcDbEntity
  8
RACCORDO
100
AcDbLine
 62
7
  6
CONTINUOUS
 10
19.25
 20
22.8
 11
19.25
 21
23.2618761304
  0
LINE
  5
536
100
AcDbEntity
  8
RACCORDO
100
AcDbLine
 62
250
  6
CONTINUOUS
 10
19.3928500694
 20
-13.8033909386
 11
19.3928500702
 21
-13.6692757779
  0
LINE
  5
537
100
AcDbEntity
  8
RACCORDO
100
AcDbLine
 62
250
  6
CONTINUOUS
 10
19.4138273498
 20
-12.6714853747
 11
19.4138273498
 21
-12.8369590744
  0
LINE
  5
538
100
AcDbEntity
  8
RACCORDO
100
AcDbLine
 62
250
  6
CONTINUOUS
 10
19.5961056179
 20
-13.0848356998
 11
19.5961056179
 21
-13.4151643002
  0
LINE
  5
539
100
AcDbEntity
  8
RACCORDO
100
AcDbLine
 62
250
  6
CONTINUOUS
 10
20.0885094944
 20
-13.549801188
 11
20.0885094944
 21
-12.950198812
  0
LINE
  5
53A
100
AcDbEntity
  8
RACCORDO
100
AcDbLine
 62
7
  6
CONTINUOUS
 10
20.25
 20
22.6024380533
 11
20.25
 21
22.3975619467
  0
LINE
  5
53B
100
AcDbEntity
  8
DRAFT
100
AcDbLine
 62
7
  6
CONTINUOUS
 10
20.35
 20
-10.25
 11
20.35
 21
-12.9
  0
LINE
  5
53C
100
AcDbEntity
  8
DRAFT
100
AcDbLine
 62
7
  6
CONTINUOUS
 10
20.35
 20
-13.6
 11
20.35
 21
-16.25
  0
LINE
  5
53D
100
AcDbEntity
  8
RACCORDO
100
AcDbLine
 62
7
  6
CONTINUOUS
 10
20.4772930121
 20
-13.4000067578
 11
20.4772930121
 21
-13.0999932422
  0
LINE
  5
53E
100
AcDbEntity
  8
RACCORDO
100
AcDbLine
 62
7
  6
CONTINUOUS
 10
20.7318790363
 20
-12.3968781766
 11
20.7318790363
 21
-14.1031218234
  0
LINE
  5
53F
100
AcDbEntity
  8
RACCORDO
100
AcDbLine
 62
250
  6
CONTINUOUS
 10
19.0203309912
 20
22.564045745
 11
19.0206303657
 21
22.3041703134
  0
LINE
  5
540
100
AcDbEntity
  8
RACCORDO
100
AcDbLine
 62
250
  6
CONTINUOUS
 10
19.2203005307
 20
22.5469668797
 11
19.2204146785
 21
22.4034063955
  0
LINE
  5
541
100
AcDbEntity
  8
RACCORDO
100
AcDbLine
 62
250
  6
CONTINUOUS
 10
19.2208392601
 20
22.6872951463
 11
19.2203005307
 21
22.5469668797
  0
LWPOLYLINE
  5
542
100
AcDbEntity
  8
RACCORDO
100
AcDbPolyline
 62
250
  6
CONTINUOUS
 90
3
 70
0
 10
19.0215768487
 20
22.8740475674
 10
19.0211890681
 20
22.8159292578
 10
19.0203309912
 20
22.564045745
  0
LWPOLYLINE
  5
543
100
AcDbEntity
  8
RACCORDO
100
AcDbPolyline
 62
250
  6
CONTINUOUS
 90
3
 70
0
 10
19.2225026945
 20
22.852852216
 10
19.2219939464
 20
22.8148353811
 10
19.2208392601
 20
22.6872951463
  0
LINE
  5
544
100
AcDbEntity
  8
RACCORDO
100
AcDbLine
 62
250
  6
CONTINUOUS
 10
19.1064812139
 20
-12.9675361932
 11
19.0965379665
 21
-13.5040603169
  0
LINE
  5
545
100
AcDbEntity
  8
RACCORDO
100
AcDbLine
 62
250
  6
CONTINUOUS
 10
19.2542023768
 20
-12.9832154627
 11
19.2442591244
 21
-13.5197398637
  0
LWPOLYLINE
  5
546
100
AcDbEntity
  8
RACCORDO
100
AcDbPolyline
 62
250
  6
CONTINUOUS
 90
13
 70
0
 10
19.5961056179
 20
-13.0848356998
 10
19.5975290622
 20
-13.0653952815
 10
19.6014268603
 20
-13.0462836617
 10
19.6077330879
 20
-13.027824078
 10
19.6163410871
 20
-13.0103287399
 10
19.6271052694
 20
-12.9940935483
 10
19.6398435788
 20
-12.9793930915
 10
19.6543405705
 20
-12.9664760001
 10
19.6703510547
 20
-12.9555607428
 10
19.687604244
 20
-12.9468319307
 10
19.7058083329
 20
-12.9404371954
 10
19.724655433
 20
-12.9364846919
 10
19.7438267808
 20
-12.9350412696
  0
LINE
  5
547
100
AcDbEntity
  8
RACCORDO
100
AcDbLine
 62
7
  6
CONTINUOUS
 10
20.35
 20
-13.6
 11
20.4608433288
 21
-13.549801188
  0
LINE
  5
548
100
AcDbEntity
  8
DRAFT
100
AcDbLine
 62
7
  6
CONTINUOUS
 10
20.9863426492
 20
-11.7156033169
 11
21.1328427125
 21
-11.65
  0
LINE
  5
549
100
AcDbEntity
  8
DRAFT
100
AcDbLine
 62
7
  6
CONTINUOUS
 10
20.9507059797
 20
-11.7313229362
 11
20.9863426492
 21
-11.7156033169
  0
LINE
  5
54A
100
AcDbEntity
  8
DRAFT
100
AcDbLine
 62
7
  6
CONTINUOUS
 10
20.9311174913
 20
-11.739831108
 11
20.9507059797
 21
-11.7313229362
  0
LINE
  5
54B
100
AcDbEntity
  8
RACCORDO
100
AcDbLine
 62
7
  6
CONTINUOUS
 10
15.9299475147
 20
19.8
 11
6.5700524853
 21
19.8
  0
LINE
  5
54C
100
AcDbEntity
  8
RACCORDO
100
AcDbLine
 62
7
  6
CONTINUOUS
 10
-6.5700524853
 20
19.8
 11
-15.9299475147
 21
19.8
  0
LINE
  5
54D
100
AcDbEntity
  8
RACCORDO
100
AcDbLine
 62
250
  6
CONTINUOUS
 10
15.9299475147
 20
19.95
 11
6.5700524853
 21
19.95
  0
LINE
  5
54E
100
AcDbEntity
  8
RACCORDO
100
AcDbLine
 62
250
  6
CONTINUOUS
 10
-6.5700524853
 20
19.95
 11
-15.9299475147
 21
19.95
  0
LINE
  5
54F
100
AcDbEntity
  8
RACCORDO
100
AcDbLine
 62
250
  6
CONTINUOUS
 10
6.6
 20
20.8928932188
 11
15.9
 21
20.8928932188
  0
LINE
  5
550
100
AcDbEntity
  8
RACCORDO
100
AcDbLine
 62
250
  6
CONTINUOUS
 10
-6.6
 20
20.8928932188
 11
-15.9
 21
20.8928932188
  0
LWPOLYLINE
  5
551
100
AcDbEntity
  8
RACCORDO
100
AcDbPolyline
 62
250
  6
CONTINUOUS
 90
16
 70
0
 10
-6.85
 20
21.2464466094
 10
-6.8238678842
 20
21.2454782082
 10
-6.7980220774
 20
21.2425836145
 10
-6.7727457515
 20
21.2377945421
 10
-6.7483158393
 20
21.2311634611
 10
-6.7250000001
 20
21.2227630231
 10
-6.703053687
 20
21.2126852648
 10
-6.6827173484
 20
21.2010406005
 10
-6.6642137937
 20
21.1879566114
 10
-6.6477457514
 20
21.1735766486
 10
-6.6334936491
 20
21.1580582618
 10
-6.6216136356
 20
21.1415714737
 10
-6.6122358709
 20
21.1242969172
 10
-6.6054630998
 20
21.1064238557
 10
-6.6013695262
 20
21.0881481104
 10
-6.6
 20
21.0696699141
  0
LWPOLYLINE
  5
552
100
AcDbEntity
  8
RACCORDO
100
AcDbPolyline
 62
7
  6
CONTINUOUS
 90
13
 70
0
 10
-6.85
 20
20.4845614035
 10
-6.8246074869
 20
20.4825815525
 10
-6.7997102851
 20
20.4805242686
 10
-6.7755675651
 20
20.4782071162
 10
-6.7524805726
 20
20.4754546933
 10
-6.7306012314
 20
20.4721234065
 10
-6.7099642236
 20
20.4680788894
 10
-6.6908216334
 20
20.4632137917
 10
-6.6733153023
 20
20.4573581711
 10
-6.6573805789
 20
20.4502372928
 10
-6.6431626105
 20
20.4416422363
 10
-6.6309385308
 20
20.4314846696
 10
-6.6208712153
 20
20.4196499413
  0
LINE
  5
553
100
AcDbEntity
  8
RACCORDO
100
AcDbLine
 62
250
  6
CONTINUOUS
 10
6.4065079259
 20
20.1151224438
 11
6.5291663455
 21
20.028780611
  0
LINE
  5
554
100
AcDbEntity
  8
RACCORDO
100
AcDbLine
 62
7
  6
CONTINUOUS
 10
4.9
 20
23.2
 11
4.9156727585
 21
23.1843272415
  0
LINE
  5
555
100
AcDbEntity
  8
RACCORDO
100
AcDbLine
 62
250
  6
CONTINUOUS
 10
19.2281986766
 20
21.9583557358
 11
19.25
 21
21.7381238696
  0
LINE
  5
556
100
AcDbEntity
  8
RACCORDO
100
AcDbLine
 62
7
  6
CONTINUOUS
 10
21.2386751346
 20
-12.3968781766
 11
21.2386751346
 21
-14.1031218234
  0
LINE
  5
557
100
AcDbEntity
  8
0
100
AcDbLine
 62
7
  6
CONTINUOUS
 10
21.25
 20
-25.1524539902
 11
21.25
 21
-16.25
  0
LINE
  5
558
100
AcDbEntity
  8
0
100
AcDbLine
 62
7
  6
CONTINUOUS
 10
21.25
 20
-10.25
 11
21.25
 21
25.1524539902
  0
LINE
  5
559
100
AcDbEntity
  8
RACCORDO
100
AcDbLine
 62
7
  6
CONTINUOUS
 10
21.2928653412
 20
-2.0
 11
21.2928653412
 21
2.0
  0
LINE
  5
55A
100
AcDbEntity
  8
DRAFT
100
AcDbLine
 62
7
  6
CONTINUOUS
 10
21.35
 20
-16.25
 11
21.35
 21
-14.6618993734
  0
LINE
  5
55B
100
AcDbEntity
  8
0
100
AcDbLine
 62
7
  6
CONTINUOUS
 10
21.35
 20
-16.25
 11
21.35
 21
-14.85
  0
LINE
  5
55C
100
AcDbEntity
  8
DRAFT
100
AcDbLine
 62
7
  6
CONTINUOUS
 10
21.35
 20
-11.8381006266
 11
21.35
 21
-10.25
  0
LINE
  5
55D
100
AcDbEntity
  8
0
100
AcDbLine
 62
7
  6
CONTINUOUS
 10
21.35
 20
-11.65
 11
21.35
 21
-10.25
  0
LINE
  5
55E
100
AcDbEntity
  8
DRAFT
100
AcDbLine
 62
7
  6
CONTINUOUS
 10
21.85
 20
-14.6366435717
 11
21.85
 21
-11.8633564283
  0
LINE
  5
55F
100
AcDbEntity
  8
RACCORDO
100
AcDbLine
 62
7
  6
CONTINUOUS
 10
22.2928653412
 20
-2.0
 11
22.2928653412
 21
2.0
  0
LINE
  5
560
100
AcDbEntity
  8
RACCORDO
100
AcDbLine
 62
7
  6
CONTINUOUS
 10
22.3028653412
 20
25.8530366787
 11
22.3028653412
 21
-25.8530366787
  0
LINE
  5
561
100
AcDbEntity
  8
0
100
AcDbLine
 62
7
  6
CONTINUOUS
 10
21.230962231
 20
-10.25
 11
21.2459449139
 21
1.0515014317
  0
LINE
  5
562
100
AcDbEntity
  8
0
100
AcDbLine
 62
7
  6
CONTINUOUS
 10
21.2199713981
 20
-16.25
 11
21.2042531448
 21
-24.8176673717
  0
LINE
  5
563
100
AcDbEntity
  8
DRAFT
100
AcDbLine
 62
7
  6
CONTINUOUS
 10
20.7136573508
 20
-14.7843966831
 11
20.5671572875
 21
-14.85
  0
LINE
  5
564
100
AcDbEntity
  8
DRAFT
100
AcDbLine
 62
7
  6
CONTINUOUS
 10
20.7492940203
 20
-14.7686770638
 11
20.7136573508
 21
-14.7843966831
  0
LINE
  5
565
100
AcDbEntity
  8
DRAFT
100
AcDbLine
 62
7
  6
CONTINUOUS
 10
20.7688825087
 20
-14.760168892
 11
20.7492940203
 21
-14.7686770638
  0
LWPOLYLINE
  5
566
100
AcDbEntity
  8
DRAFT
100
AcDbPolyline
 62
7
  6
CONTINUOUS
 90
6
 70
0
 10
20.8053454168
 20
-14.7450136038
 10
20.7994385768
 20
-14.7473746777
 10
20.7934636123
 20
-14.7498016746
 10
20.7874205232
 20
-14.7522945945
 10
20.7813255079
 20
-14.7548519348
 10
20.7688825087
 20
-14.760168892
  0
LWPOLYLINE
  5
567
100
AcDbEntity
  8
RACCORDO
100
AcDbPolyline
 62
250
  6
CONTINUOUS
 90
16
 70
0
 10
-15.65
 20
21.2464466094
 10
-15.6761321159
 20
21.2454782082
 10
-15.7019779228
 20
21.2425836145
 10
-15.7272542487
 20
21.2377945421
 10
-15.751684161
 20
21.2311634611
 10
-15.7750000003
 20
21.2227630229
 10
-15.7969463134
 20
21.2126852647
 10
-15.8172826519
 20
21.2010406003
 10
-15.8357862066
 20
21.1879566112
 10
-15.8522542488
 20
21.1735766483
 10
-15.8665063511
 20
21.1580582616
 10
-15.8783863645
 20
21.1415714736
 10
-15.8877641291
 20
21.1242969171
 10
-15.8945369002
 20
21.1064238557
 10
-15.8986304738
 20
21.0881481104
 10
-15.9
 20
21.0696699141
  0
LWPOLYLINE
  5
568
100
AcDbEntity
  8
RACCORDO
100
AcDbPolyline
 62
250
  6
CONTINUOUS
 90
16
 70
0
 10
-15.65
 20
21.4535533906
 10
-15.6761321158
 20
21.4525849894
 10
-15.7019779226
 20
21.4496903957
 10
-15.7272542485
 20
21.4449013233
 10
-15.7516841607
 20
21.4382702423
 10
-15.7749999999
 20
21.4298698042
 10
-15.796946313
 20
21.419792046
 10
-15.8172826516
 20
21.4081473817
 10
-15.8357862063
 20
21.3950633926
 10
-15.8522542486
 20
21.3806834298
 10
-15.8665063509
 20
21.365165043
 10
-15.8783863644
 20
21.3486782549
 10
-15.8877641291
 20
21.3314036984
 10
-15.8945369002
 20
21.3135306369
 10
-15.8986304738
 20
21.2952548916
 10
-15.9
 20
21.2767766953
  0
LINE
  5
569
100
AcDbEntity
  8
RACCORDO
100
AcDbLine
 62
250
  6
CONTINUOUS
 10
4.9156727585
 20
22.6156727585
 11
4.42591363
 21
22.6
  0
LINE
  5
56A
100
AcDbEntity
  8
RACCORDO
100
AcDbLine
 62
250
  6
CONTINUOUS
 10
4.8
 20
22.817559358
 11
4.2
 21
22.7983587866
  0
LINE
  5
56B
100
AcDbEntity
  8
RACCORDO
100
AcDbLine
 62
250
  6
CONTINUOUS
 10
-4.8
 20
22.982440642
 11
-4.2
 21
23.0016412134
  0
LINE
  5
56C
100
AcDbEntity
  8
RACCORDO
100
AcDbLine
 62
250
  6
CONTINUOUS
 10
-4.9156727585
 20
23.1843272415
 11
-4.42591363
 21
23.2
  0
LINE
  5
56D
100
AcDbEntity
  8
RACCORDO
100
AcDbLine
 62
250
  6
CONTINUOUS
 10
19.2322348431
 20
22.5846728965
 11
20.25
 21
22.6024380533
  0
LINE
  5
56E
100
AcDbEntity
  8
RACCORDO
100
AcDbLine
 62
250
  6
CONTINUOUS
 10
19.2371975793
 20
22.7871975793
 11
19.9706477688
 21
22.8
  0
LINE
  5
56F
100
AcDbEntity
  8
RACCORDO
100
AcDbLine
 62
250
  6
CONTINUOUS
 10
-19.2371975793
 20
22.2128024207
 11
-19.9706477688
 21
22.2
  0
LINE
  5
570
100
AcDbEntity
  8
RACCORDO
100
AcDbLine
 62
250
  6
CONTINUOUS
 10
-19.2322348431
 20
22.4153271035
 11
-20.25
 21
22.3975619467
  0
LINE
  5
571
100
AcDbEntity
  8
RACCORDO
100
AcDbLine
 62
250
  6
CONTINUOUS
 10
15.65
 20
21.2464466094
 11
6.85
 21
21.2464466094
  0
LINE
  5
572
100
AcDbEntity
  8
RACCORDO
100
AcDbLine
 62
250
  6
CONTINUOUS
 10
-6.85
 20
21.2464466094
 11
-15.65
 21
21.2464466094
  0
LINE
  5
573
100
AcDbEntity
  8
RACCORDO
100
AcDbLine
 62
250
  6
CONTINUOUS
 10
-15.65
 20
21.4535533906
 11
-6.85
 21
21.4535533906
  0
LINE
  5
574
100
AcDbEntity
  8
RACCORDO
100
AcDbLine
 62
250
  6
CONTINUOUS
 10
6.85
 20
21.4535533906
 11
15.65
 21
21.4535533906
  0
LINE
  5
575
100
AcDbEntity
  8
RACCORDO
100
AcDbLine
 62
7
  6
CONTINUOUS
 10
-19.0505757424
 20
21.5356540133
 11
-18.8494242576
 21
21.5356540133
  0
LINE
  5
576
100
AcDbEntity
  8
RACCORDO
100
AcDbLine
 62
7
  6
CONTINUOUS
 10
18.8494242576
 20
21.5356540133
 11
19.0505757424
 21
21.5356540133
  0
LINE
  5
577
100
AcDbEntity
  8
RACCORDO
100
AcDbLine
 62
7
  6
CONTINUOUS
 10
-15.65
 20
21.6
 11
-6.85
 21
21.6
  0
LINE
  5
578
100
AcDbEntity
  8
RACCORDO
100
AcDbLine
 62
7
  6
CONTINUOUS
 10
6.85
 20
21.6
 11
15.65
 21
21.6
  0
LINE
  5
579
100
AcDbEntity
  8
RACCORDO
100
AcDbLine
 62
250
  6
CONTINUOUS
 10
18.8717708624
 20
21.7613941852
 11
19.0282291376
 21
21.7613941852
  0
LINE
  5
57A
100
AcDbEntity
  8
RACCORDO
100
AcDbLine
 62
250
  6
CONTINUOUS
 10
-18.8717708624
 20
21.7613941852
 11
-19.0282291376
 21
21.7613941852
  0
LINE
  5
57B
100
AcDbEntity
  8
RACCORDO
100
AcDbLine
 62
7
  6
CONTINUOUS
 10
5.0994242576
 20
21.9356540133
 11
5.4005757424
 21
21.9356540133
  0
LINE
  5
57C
100
AcDbEntity
  8
RACCORDO
100
AcDbLine
 62
7
  6
CONTINUOUS
 10
-5.0994242576
 20
21.9356540133
 11
-5.4005757424
 21
21.9356540133
  0
LINE
  5
57D
100
AcDbEntity
  8
RACCORDO
100
AcDbLine
 62
250
  6
CONTINUOUS
 10
5.1217708624
 20
22.1613941852
 11
5.3782291376
 21
22.1613941852
  0
LINE
  5
57E
100
AcDbEntity
  8
RACCORDO
100
AcDbLine
 62
250
  6
CONTINUOUS
 10
-5.1217708624
 20
22.1613941852
 11
-5.3782291376
 21
22.1613941852
  0
LINE
  5
57F
100
AcDbEntity
  8
RACCORDO
100
AcDbLine
 62
7
  6
CONTINUOUS
 10
-19.9706477688
 20
22.2
 11
-19.25
 21
22.2
  0
LINE
  5
580
100
AcDbEntity
  8
RACCORDO
100
AcDbLine
 62
7
  6
CONTINUOUS
 10
19.25
 20
22.2
 11
19.9706477688
 21
22.2
  0
LINE
  5
581
100
AcDbEntity
  8
RACCORDO
100
AcDbLine
 62
7
  6
CONTINUOUS
 10
4.9
 20
22.6
 11
4.42591363
 21
22.6
  0
LINE
  5
582
100
AcDbEntity
  8
RACCORDO
100
AcDbLine
 62
7
  6
CONTINUOUS
 10
-4.42591363
 20
22.6
 11
-4.9
 21
22.6
  0
LINE
  5
583
100
AcDbEntity
  8
RACCORDO
100
AcDbLine
 62
7
  6
CONTINUOUS
 10
-19.9706477688
 20
22.8
 11
-19.25
 21
22.8
  0
LINE
  5
584
100
AcDbEntity
  8
RACCORDO
100
AcDbLine
 62
7
  6
CONTINUOUS
 10
19.25
 20
22.8
 11
19.9706477688
 21
22.8
  0
LINE
  5
585
100
AcDbEntity
  8
RACCORDO
100
AcDbLine
 62
7
  6
CONTINUOUS
 10
-4.9
 20
23.2
 11
-4.42591363
 21
23.2
  0
LINE
  5
586
100
AcDbEntity
  8
RACCORDO
100
AcDbLine
 62
7
  6
CONTINUOUS
 10
4.42591363
 20
23.2
 11
4.9
 21
23.2
  0
LINE
  5
587
100
AcDbEntity
  8
RACCORDO
100
AcDbLine
 62
250
  6
CONTINUOUS
 10
18.8717708624
 20
23.2386058148
 11
19.0282291376
 21
23.2386058148
  0
LINE
  5
588
100
AcDbEntity
  8
RACCORDO
100
AcDbLine
 62
250
  6
CONTINUOUS
 10
-18.8717708624
 20
23.2386058148
 11
-19.0282291376
 21
23.2386058148
  0
LINE
  5
589
100
AcDbEntity
  8
RACCORDO
100
AcDbLine
 62
7
  6
CONTINUOUS
 10
-19.0505757424
 20
23.4643459867
 11
-18.8494242576
 21
23.4643459867
  0
LINE
  5
58A
100
AcDbEntity
  8
RACCORDO
100
AcDbLine
 62
7
  6
CONTINUOUS
 10
18.8494242576
 20
23.4643459867
 11
19.0505757424
 21
23.4643459867
  0
LINE
  5
58B
100
AcDbEntity
  8
RACCORDO
100
AcDbLine
 62
250
  6
CONTINUOUS
 10
-20.25
 20
22.6024380533
 11
-19.2322348431
 21
22.5846728965
  0
LINE
  5
58C
100
AcDbEntity
  8
RACCORDO
100
AcDbLine
 62
250
  6
CONTINUOUS
 10
-19.9706477688
 20
22.8
 11
-19.2371975793
 21
22.7871975793
  0
LINE
  5
58D
100
AcDbEntity
  8
RACCORDO
100
AcDbLine
 62
250
  6
CONTINUOUS
 10
19.9706477688
 20
22.2
 11
19.2371975793
 21
22.2128024207
  0
LINE
  5
58E
100
AcDbEntity
  8
RACCORDO
100
AcDbLine
 62
250
  6
CONTINUOUS
 10
20.25
 20
22.3975619467
 11
19.2322348431
 21
22.4153271035
  0
LINE
  5
58F
100
AcDbEntity
  8
RACCORDO
100
AcDbLine
 62
250
  6
CONTINUOUS
 10
-4.42591363
 20
22.6
 11
-4.9156727585
 21
22.6156727585
  0
LINE
  5
590
100
AcDbEntity
  8
RACCORDO
100
AcDbLine
 62
250
  6
CONTINUOUS
 10
-4.2
 20
22.7983587866
 11
-4.8
 21
22.817559358
  0
LINE
  5
591
100
AcDbEntity
  8
RACCORDO
100
AcDbLine
 62
250
  6
CONTINUOUS
 10
4.2
 20
23.0016412134
 11
4.8
 21
22.982440642
  0
LINE
  5
592
100
AcDbEntity
  8
RACCORDO
100
AcDbLine
 62
250
  6
CONTINUOUS
 10
4.42591363
 20
23.2
 11
4.9156727585
 21
23.1843272415
  0
LWPOLYLINE
  5
593
100
AcDbEntity
  8
RACCORDO
100
AcDbPolyline
 62
250
  6
CONTINUOUS
 90
16
 70
0
 10
-6.85
 20
21.4535533906
 10
-6.8238678841
 20
21.4525849894
 10
-6.7980220772
 20
21.4496903957
 10
-6.7727457513
 20
21.4449013233
 10
-6.748315839
 20
21.4382702422
 10
-6.7249999997
 20
21.4298698041
 10
-6.7030536866
 20
21.4197920459
 10
-6.6827173481
 20
21.4081473815
 10
-6.6642137934
 20
21.3950633924
 10
-6.6477457512
 20
21.3806834295
 10
-6.6334936489
 20
21.3651650428
 10
-6.6216136355
 20
21.3486782548
 10
-6.6122358709
 20
21.3314036983
 10
-6.6054630998
 20
21.3135306368
 10
-6.6013695262
 20
21.2952548916
 10
-6.6
 20
21.2767766953
  0
LWPOLYLINE
  5
594
100
AcDbEntity
  8
RACCORDO
100
AcDbPolyline
 62
7
  6
CONTINUOUS
 90
13
 70
0
 10
15.65
 20
20.4845614035
 10
15.675390599
 20
20.4825817076
 10
15.7002861156
 20
20.4805245921
 10
15.7244274253
 20
20.4782076539
 10
15.7475131496
 20
20.475455528
 10
15.7693915643
 20
20.4721246308
 10
15.7900284407
 20
20.4680805229
 10
15.8091718045
 20
20.4632157149
 10
15.8266794246
 20
20.4573602067
 10
15.8426155919
 20
20.4502392673
 10
15.856834976
 20
20.4416439332
 10
15.8690603776
 20
20.4314857404
 10
15.8791287847
 20
20.4196499413
  0
LINE
  5
595
100
AcDbEntity
  8
RACCORDO
100
AcDbLine
 62
7
  6
CONTINUOUS
 10
20.6790614477
 20
-14.6012191724
 11
20.35
 21
-14.85
  0
LINE
  5
596
100
AcDbEntity
  8
RACCORDO
100
AcDbLine
 62
250
  6
CONTINUOUS
 10
5.1217708624
 20
23.6386058148
 11
5.3782291376
 21
23.6386058148
  0
LINE
  5
597
100
AcDbEntity
  8
RACCORDO
100
AcDbLine
 62
250
  6
CONTINUOUS
 10
-5.1217708624
 20
23.6386058148
 11
-5.3782291376
 21
23.6386058148
  0
LINE
  5
598
100
AcDbEntity
  8
RACCORDO
100
AcDbLine
 62
7
  6
CONTINUOUS
 10
5.0994242576
 20
23.8643459867
 11
5.4005757424
 21
23.8643459867
  0
LINE
  5
599
100
AcDbEntity
  8
RACCORDO
100
AcDbLine
 62
7
  6
CONTINUOUS
 10
-5.0994242576
 20
23.8643459867
 11
-5.4005757424
 21
23.8643459867
  0
LINE
  5
59A
100
AcDbEntity
  8
DRAFT
100
AcDbLine
 62
7
  6
CONTINUOUS
 10
21.25
 20
25.1524539902
 11
-21.25
 21
25.1524539902
  0
LINE
  5
59B
100
AcDbEntity
  8
RACCORDO
100
AcDbLine
 62
250
  6
CONTINUOUS
 10
15.65
 20
20.4845614035
 11
15.9708336545
 21
20.028780611
  0
LINE
  5
59C
100
AcDbEntity
  8
RACCORDO
100
AcDbLine
 62
7
  6
CONTINUOUS
 10
15.8791287847
 20
20.4196499413
 11
16.0934920741
 21
20.1151224438
  0
LINE
  5
59D
100
AcDbEntity
  8
RACCORDO
100
AcDbLine
 62
7
  6
CONTINUOUS
 10
21.8030366787
 20
26.3528653412
 11
-21.8030366787
 21
26.3528653412
  0
LINE
  5
59E
100
AcDbEntity
  8
RACCORDO
100
AcDbLine
 62
7
  6
CONTINUOUS
 10
19.25
 20
22.2
 11
19.2371975793
 21
22.2128024207
  0
ARC
  5
59F
100
AcDbEntity
  8
0
100
AcDbCircle
 62
7
  6
CONTINUOUS
 10
-3.939465
 20
-16.763572
 40
2.004690236
100
AcDbArc
 50
301.7241263014
 51
308.495064905
  0
ARC
  5
5A0
100
AcDbEntity
  8
RACCORDO
100
AcDbCircle
 62
7
  6
CONTINUOUS
 10
-4.75
 20
12.0
 40
0.5
100
AcDbArc
 50
90.0
 51
180.0
  0
ARC
  5
5A1
100
AcDbEntity
  8
RACCORDO
100
AcDbCircle
 62
7
  6
CONTINUOUS
 10
4.75
 20
12.0
 40
0.5
100
AcDbArc
 50
0.0
 51
90.0
  0
ARC
  5
5A2
100
AcDbEntity
  8
RACCORDO
100
AcDbCircle
 62
7
  6
CONTINUOUS
 10
4.75
 20
8.0
 40
0.5
100
AcDbArc
 50
270.0
 51
360.0
  0
ARC
  5
5A3
100
AcDbEntity
  8
RACCORDO
100
AcDbCircle
 62
7
  6
CONTINUOUS
 10
-4.75
 20
8.0
 40
0.5
100
AcDbArc
 50
180.0
 51
270.0
  0
ARC
  5
5A4
100
AcDbEntity
  8
RACCORDO
100
AcDbCircle
 62
7
  6
CONTINUOUS
 10
4.75
 20
-14.0
 40
0.5
100
AcDbArc
 50
270.0
 51
360.0
  0
ARC
  5
5A5
100
AcDbEntity
  8
RACCORDO
100
AcDbCircle
 62
7
  6
CONTINUOUS
 10
4.75
 20
-8.0
 40
0.5
100
AcDbArc
 50
0.0
 51
90.0
  0
ARC
  5
5A6
100
AcDbEntity
  8
RACCORDO
100
AcDbCircle
 62
7
  6
CONTINUOUS
 10
4.75
 20
-17.5
 40
0.5
100
AcDbArc
 50
0.0
 51
90.0
  0
ARC
  5
5A7
100
AcDbEntity
  8
RACCORDO
100
AcDbCircle
 62
7
  6
CONTINUOUS
 10
4.75
 20
-20.5
 40
0.5
100
AcDbArc
 50
270.0
 51
360.0
  0
ARC
  5
5A8
100
AcDbEntity
  8
RACCORDO
100
AcDbCircle
 62
7
  6
CONTINUOUS
 10
-4.75
 20
-20.5
 40
0.5
100
AcDbArc
 50
180.0
 51
270.0
  0
ARC
  5
5A9
100
AcDbEntity
  8
RACCORDO
100
AcDbCircle
 62
7
  6
CONTINUOUS
 10
-4.75
 20
-17.5
 40
0.5
100
AcDbArc
 50
90.0
 51
180.0
  0
ARC
  5
5AA
100
AcDbEntity
  8
RACCORDO
100
AcDbCircle
 62
7
  6
CONTINUOUS
 10
-4.75
 20
-8.0
 40
0.5
100
AcDbArc
 50
90.0
 51
180.0
  0
ARC
  5
5AB
100
AcDbEntity
  8
RACCORDO
100
AcDbCircle
 62
7
  6
CONTINUOUS
 10
-4.75
 20
-14.0
 40
0.5
100
AcDbArc
 50
180.0
 51
270.0
  0
ARC
  5
5AC
100
AcDbEntity
  8
DRAFT
100
AcDbCircle
 62
7
  6
CONTINUOUS
 10
-20.85
 20
-14.75
 40
0.3
100
AcDbArc
 50
199.4712206345
 51
340.5287793655
  0
ARC
  5
5AD
100
AcDbEntity
  8
DRAFT
100
AcDbCircle
 62
7
  6
CONTINUOUS
 10
-20.85
 20
-11.75
 40
0.3
100
AcDbArc
 50
19.4712206345
 51
160.5287793655
  0
ARC
  5
5AE
100
AcDbEntity
  8
DRAFT
100
AcDbCircle
 62
7
  6
CONTINUOUS
 10
20.85
 20
-14.75
 40
0.3
100
AcDbArc
 50
199.4712206345
 51
340.5287793655
  0
ARC
  5
5AF
100
AcDbEntity
  8
DRAFT
100
AcDbCircle
 62
7
  6
CONTINUOUS
 10
20.85
 20
-11.75
 40
0.3
100
AcDbArc
 50
19.4712206345
 51
160.5287793655
  0
ARC
  5
5B0
100
AcDbEntity
  8
RACCORDO
100
AcDbCircle
 62
7
  6
CONTINUOUS
 10
15.65
 20
21.35
 40
0.25
100
AcDbArc
 50
0.0
 51
90.0
  0
ARC
  5
5B1
100
AcDbEntity
  8
RACCORDO
100
AcDbCircle
 62
7
  6
CONTINUOUS
 10
6.85
 20
21.35
 40
0.25
100
AcDbArc
 50
90.0
 51
180.0
  0
ARC
  5
5B2
100
AcDbEntity
  8
RACCORDO
100
AcDbCircle
 62
7
  6
CONTINUOUS
 10
-15.65
 20
21.35
 40
0.25
100
AcDbArc
 50
90.0
 51
180.0
  0
ARC
  5
5B3
100
AcDbEntity
  8
RACCORDO
100
AcDbCircle
 62
7
  6
CONTINUOUS
 10
-6.85
 20
21.35
 40
0.25
100
AcDbArc
 50
0.0
 51
90.0
  0
ARC
  5
5B4
100
AcDbEntity
  8
RACCORDO
100
AcDbCircle
 62
7
  6
CONTINUOUS
 10
6.5700524853
 20
20.0
 40
0.2
100
AcDbArc
 50
144.8574824434
 51
270.0
  0
ARC
  5
5B5
100
AcDbEntity
  8
RACCORDO
100
AcDbCircle
 62
7
  6
CONTINUOUS
 10
15.9299475147
 20
20.0
 40
0.2
100
AcDbArc
 50
270.0
 51
35.1425175566
  0
ARC
  5
5B6
100
AcDbEntity
  8
RACCORDO
100
AcDbCircle
 62
7
  6
CONTINUOUS
 10
-6.5700524853
 20
20.0
 40
0.2
100
AcDbArc
 50
270.0
 51
35.1425175566
  0
ARC
  5
5B7
100
AcDbEntity
  8
RACCORDO
100
AcDbCircle
 62
7
  6
CONTINUOUS
 10
-15.9299475147
 20
20.0
 40
0.2
100
AcDbArc
 50
144.8574824434
 51
270.0
  0
ARC
  5
5B8
100
AcDbEntity
  8
RACCORDO
100
AcDbCircle
 62
250
  6
CONTINUOUS
 10
-6.5700524853
 20
20.0
 40
0.05
100
AcDbArc
 50
270.0
 51
35.1425175566
  0
ARC
  5
5B9
100
AcDbEntity
  8
RACCORDO
100
AcDbCircle
 62
250
  6
CONTINUOUS
 10
-15.9299475147
 20
20.0
 40
0.05
100
AcDbArc
 50
144.8574824433
 51
270.0
  0
ARC
  5
5BA
100
AcDbEntity
  8
RACCORDO
100
AcDbCircle
 62
250
  6
CONTINUOUS
 10
15.9299475147
 20
20.0
 40
0.05
100
AcDbArc
 50
270.0
 51
35.1425175566
  0
ARC
  5
5BB
100
AcDbEntity
  8
RACCORDO
100
AcDbCircle
 62
250
  6
CONTINUOUS
 10
6.5700524853
 20
20.0
 40
0.05
100
AcDbArc
 50
144.8574824434
 51
270.0
  0
ARC
  5
5BC
100
AcDbEntity
  8
DRAFT
100
AcDbCircle
 62
7
  6
CONTINUOUS
 10
-20.85
 20
-14.75
 40
0.044932126
100
AcDbArc
 50
173.6284082058
 51
6.3715917942
  0
ARC
  5
5BD
100
AcDbEntity
  8
DRAFT
100
AcDbCircle
 62
7
  6
CONTINUOUS
 10
-20.85
 20
-11.75
 40
0.044932126
100
AcDbArc
 50
353.6284082058
 51
186.3715917942
  0
ARC
  5
5BE
100
AcDbEntity
  8
DRAFT
100
AcDbCircle
 62
7
  6
CONTINUOUS
 10
20.85
 20
-14.75
 40
0.044932126
100
AcDbArc
 50
173.6284082058
 51
6.3715917942
  0
ARC
  5
5BF
100
AcDbEntity
  8
DRAFT
100
AcDbCircle
 62
7
  6
CONTINUOUS
 10
20.85
 20
-11.75
 40
0.044932126
100
AcDbArc
 50
353.6284082058
 51
186.3715917942
  0
ELLIPSE
  5
5C0
100
AcDbEntity
  8
RACCORDO
100
AcDbEllipse
 62
7
  6
CONTINUOUS
 10
20.6740185763
 20
-12.3968781766
 30
0.0
 11
-0.0
 21
0.5
 31
0.0
 40
0.1157209201
 41
-1.5707963268
 42
-0.0872664626
  0
ELLIPSE
  5
5C1
100
AcDbEntity
  8
RACCORDO
100
AcDbEllipse
 62
7
  6
CONTINUOUS
 10
20.6740185763
 20
-14.1031218234
 30
0.0
 11
0.0
 21
0.5
 31
0.0
 40
0.1157209201
 41
-3.054326191
 42
-1.5707963268
  0
ELLIPSE
  5
5C2
100
AcDbEntity
  8
RACCORDO
100
AcDbEllipse
 62
7
  6
CONTINUOUS
 10
21.7386751346
 20
-14.1031218234
 30
0.0
 11
0.5
 21
0.0
 31
0.0
 40
1.0
 41
3.1415926536
 42
4.6251225178
  0
ELLIPSE
  5
5C3
100
AcDbEntity
  8
RACCORDO
100
AcDbEllipse
 62
7
  6
CONTINUOUS
 10
21.7386751346
 20
-12.3968781766
 30
0.0
 11
0.5
 21
0.0
 31
0.0
 40
1.0
 41
1.6580627894
 42
3.1415926536
  0
ELLIPSE
  5
5C4
100
AcDbEntity
  8
RACCORDO
100
AcDbEllipse
 62
7
  6
CONTINUOUS
 10
5.0278175288
 20
22.980768963
 30
0.0
 11
0.2277277012
 21
-0.0072875033
 31
0.0
 40
0.8777925189
 41
2.0958576293
 42
3.1696754654
  0
ELLIPSE
  5
5C5
100
AcDbEntity
  8
RACCORDO
100
AcDbEllipse
 62
7
  6
CONTINUOUS
 10
5.0278175288
 20
22.819231037
 30
0.0
 11
-0.2277277012
 21
-0.0072875033
 31
0.0
 40
0.8777925189
 41
-0.0280828118
 42
1.0457350243
  0
ELLIPSE
  5
5C6
100
AcDbEntity
  8
RACCORDO
100
AcDbEllipse
 62
7
  6
CONTINUOUS
 10
-5.0278175288
 20
22.980768963
 30
0.0
 11
0.2277277012
 21
0.0072875033
 31
0.0
 40
0.8777925189
 41
-0.0280828118
 42
1.0457350243
  0
ELLIPSE
  5
5C7
100
AcDbEntity
  8
RACCORDO
100
AcDbEllipse
 62
7
  6
CONTINUOUS
 10
-5.0278175288
 20
22.819231037
 30
0.0
 11
-0.2277277012
 21
0.0072875033
 31
0.0
 40
0.8777925189
 41
2.0958576293
 42
3.1696754654
  0
ELLIPSE
  5
5C8
100
AcDbEntity
  8
RACCORDO
100
AcDbEllipse
 62
7
  6
CONTINUOUS
 10
19.2372595883
 20
22.5872291227
 30
0.0
 11
0.0000642523
 21
0.2000315672
 31
0.0
 40
0.0251177072
 41
0.0251285582
 42
1.5835838568
  0
ELLIPSE
  5
5C9
100
AcDbEntity
  8
RACCORDO
100
AcDbEllipse
 62
7
  6
CONTINUOUS
 10
19.9671572875
 20
22.5999695344
 30
0.0
 11
0.2828211741
 21
0.004936662
 31
0.0
 40
0.7070529271
 41
-0.0123410282
 42
1.5461142704
  0
ELLIPSE
  5
5CA
100
AcDbEntity
  8
RACCORDO
100
AcDbEllipse
 62
7
  6
CONTINUOUS
 10
19.9671572875
 20
22.4000304656
 30
0.0
 11
0.2828211741
 21
-0.004936662
 31
0.0
 40
0.7070529271
 41
-1.5461142704
 42
0.0123410282
  0
ELLIPSE
  5
5CB
100
AcDbEntity
  8
RACCORDO
100
AcDbEllipse
 62
7
  6
CONTINUOUS
 10
19.2372595883
 20
22.4127708773
 30
0.0
 11
-0.0000642523
 21
0.2000315672
 31
0.0
 40
0.0251177072
 41
1.5580087968
 42
3.1164640954
  0
ELLIPSE
  5
5CC
100
AcDbEntity
  8
RACCORDO
100
AcDbEllipse
 62
7
  6
CONTINUOUS
 10
19.0499695344
 20
21.7387393356
 30
0.0
 11
-0.0200091116
 21
0.2021273628
 31
0.0
 40
0.9846622838
 41
-3.2387599651
 42
-1.6709942215
  0
ELLIPSE
  5
5CD
100
AcDbEntity
  8
RACCORDO
100
AcDbEllipse
 62
7
  6
CONTINUOUS
 10
19.0499695344
 20
23.2612606644
 30
0.0
 11
0.0200091116
 21
0.2021273628
 31
0.0
 40
0.9846622838
 41
-1.4705984321
 42
0.0971673115
  0
ELLIPSE
  5
5CE
100
AcDbEntity
  8
RACCORDO
100
AcDbEllipse
 62
7
  6
CONTINUOUS
 10
18.8500304656
 20
23.2612606644
 30
0.0
 11
-0.0200091116
 21
0.2021273628
 31
0.0
 40
0.9846622838
 41
-0.0971673115
 42
1.4705984321
  0
ELLIPSE
  5
5CF
100
AcDbEntity
  8
RACCORDO
100
AcDbEllipse
 62
7
  6
CONTINUOUS
 10
18.8500304656
 20
21.7387393356
 30
0.0
 11
0.0200091116
 21
0.2021273628
 31
0.0
 40
0.9846622838
 41
-4.6121910857
 42
-3.0444253421
  0
ELLIPSE
  5
5D0
100
AcDbEntity
  8
RACCORDO
100
AcDbEllipse
 62
7
  6
CONTINUOUS
 10
4.4278175288
 20
22.9999695344
 30
0.0
 11
0.2277277012
 21
-0.0072875033
 31
0.0
 40
0.8777925189
 41
1.6072363579
 42
3.1696754654
  0
ELLIPSE
  5
5D1
100
AcDbEntity
  8
RACCORDO
100
AcDbEllipse
 62
7
  6
CONTINUOUS
 10
4.9156098178
 20
22.9843597166
 30
0.0
 11
-0.0002208509
 21
0.2001092921
 31
0.0
 40
0.0376201956
 41
-0.5263067475
 42
-0.0376854761
  0
ELLIPSE
  5
5D2
100
AcDbEntity
  8
RACCORDO
100
AcDbEllipse
 62
7
  6
CONTINUOUS
 10
4.9156098178
 20
22.8156402834
 30
0.0
 11
0.0002208509
 21
0.2001092921
 31
0.0
 40
0.0376201956
 41
-3.1039071775
 42
-2.6152859061
  0
ELLIPSE
  5
5D3
100
AcDbEntity
  8
RACCORDO
100
AcDbEllipse
 62
7
  6
CONTINUOUS
 10
4.4278175288
 20
22.8000304656
 30
0.0
 11
0.2277277012
 21
0.0072875033
 31
0.0
 40
0.8777925189
 41
3.1135098418
 42
4.6759489493
  0
ELLIPSE
  5
5D4
100
AcDbEntity
  8
RACCORDO
100
AcDbEllipse
 62
7
  6
CONTINUOUS
 10
5.1000304656
 20
23.6612606644
 30
0.0
 11
-0.0200091116
 21
0.2021273628
 31
0.0
 40
0.9846622838
 41
-0.0971673115
 42
1.4705984321
  0
ELLIPSE
  5
5D5
100
AcDbEntity
  8
RACCORDO
100
AcDbEllipse
 62
7
  6
CONTINUOUS
 10
5.1000304656
 20
22.1387393356
 30
0.0
 11
0.0200091116
 21
0.2021273628
 31
0.0
 40
0.9846622838
 41
-4.6121910857
 42
-3.0444253421
  0
ELLIPSE
  5
5D6
100
AcDbEntity
  8
RACCORDO
100
AcDbEllipse
 62
7
  6
CONTINUOUS
 10
5.3999695344
 20
22.1387393356
 30
0.0
 11
-0.0200091116
 21
0.2021273628
 31
0.0
 40
0.9846622838
 41
-3.2387599651
 42
-1.6709942215
  0
ELLIPSE
  5
5D7
100
AcDbEntity
  8
RACCORDO
100
AcDbEllipse
 62
7
  6
CONTINUOUS
 10
5.3999695344
 20
23.6612606644
 30
0.0
 11
0.0200091116
 21
0.2021273628
 31
0.0
 40
0.9846622838
 41
-1.4705984321
 42
0.0971673115
  0
ELLIPSE
  5
5D8
100
AcDbEntity
  8
RACCORDO
100
AcDbEllipse
 62
7
  6
CONTINUOUS
 10
-4.9156098178
 20
22.9843597166
 30
0.0
 11
0.0002208509
 21
0.2001092921
 31
0.0
 40
0.0376201956
 41
0.0376854761
 42
0.5263067475
  0
ELLIPSE
  5
5D9
100
AcDbEntity
  8
RACCORDO
100
AcDbEllipse
 62
7
  6
CONTINUOUS
 10
-4.4278175288
 20
22.9999695344
 30
0.0
 11
0.2277277012
 21
0.0072875033
 31
0.0
 40
0.8777925189
 41
-0.0280828118
 42
1.5343562957
  0
ELLIPSE
  5
5DA
100
AcDbEntity
  8
RACCORDO
100
AcDbEllipse
 62
7
  6
CONTINUOUS
 10
-4.4278175288
 20
22.8000304656
 30
0.0
 11
0.2277277012
 21
-0.0072875033
 31
0.0
 40
0.8777925189
 41
-1.5343562957
 42
0.0280828118
  0
ELLIPSE
  5
5DB
100
AcDbEntity
  8
RACCORDO
100
AcDbEllipse
 62
7
  6
CONTINUOUS
 10
-4.9156098178
 20
22.8156402834
 30
0.0
 11
-0.0002208509
 21
0.2001092921
 31
0.0
 40
0.0376201956
 41
-3.6678994011
 42
-3.1792781297
  0
ELLIPSE
  5
5DC
100
AcDbEntity
  8
RACCORDO
100
AcDbEllipse
 62
7
  6
CONTINUOUS
 10
-19.9671572875
 20
22.5999695344
 30
0.0
 11
0.2828211741
 21
-0.004936662
 31
0.0
 40
0.7070529271
 41
1.5954783832
 42
3.1539336818
  0
ELLIPSE
  5
5DD
100
AcDbEntity
  8
RACCORDO
100
AcDbEllipse
 62
7
  6
CONTINUOUS
 10
-19.2372595883
 20
22.5872291227
 30
0.0
 11
-0.0000642523
 21
0.2000315672
 31
0.0
 40
0.0251177072
 41
-1.5835838568
 42
-0.0251285582
  0
ELLIPSE
  5
5DE
100
AcDbEntity
  8
RACCORDO
100
AcDbEllipse
 62
7
  6
CONTINUOUS
 10
-19.2372595883
 20
22.4127708773
 30
0.0
 11
0.0000642523
 21
0.2000315672
 31
0.0
 40
0.0251177072
 41
-3.1164640954
 42
-1.5580087968
  0
ELLIPSE
  5
5DF
100
AcDbEntity
  8
RACCORDO
100
AcDbEllipse
 62
7
  6
CONTINUOUS
 10
-19.9671572875
 20
22.4000304656
 30
0.0
 11
0.2828211741
 21
0.004936662
 31
0.0
 40
0.7070529271
 41
3.1292516254
 42
4.687706924
  0
ELLIPSE
  5
5E0
100
AcDbEntity
  8
RACCORDO
100
AcDbEllipse
 62
7
  6
CONTINUOUS
 10
-18.8500304656
 20
21.7387393356
 30
0.0
 11
-0.0200091116
 21
0.2021273628
 31
0.0
 40
0.9846622838
 41
-3.2387599651
 42
-1.6709942215
  0
ELLIPSE
  5
5E1
100
AcDbEntity
  8
RACCORDO
100
AcDbEllipse
 62
7
  6
CONTINUOUS
 10
-18.8500304656
 20
23.2612606644
 30
0.0
 11
0.0200091116
 21
0.2021273628
 31
0.0
 40
0.9846622838
 41
-1.4705984321
 42
0.0971673115
  0
ELLIPSE
  5
5E2
100
AcDbEntity
  8
RACCORDO
100
AcDbEllipse
 62
7
  6
CONTINUOUS
 10
-19.0499695344
 20
23.2612606644
 30
0.0
 11
-0.0200091116
 21
0.2021273628
 31
0.0
 40
0.9846622838
 41
-0.0971673115
 42
1.4705984321
  0
ELLIPSE
  5
5E3
100
AcDbEntity
  8
RACCORDO
100
AcDbEllipse
 62
7
  6
CONTINUOUS
 10
-19.0499695344
 20
21.7387393356
 30
0.0
 11
0.0200091116
 21
0.2021273628
 31
0.0
 40
0.9846622838
 41
-4.6121910857
 42
-3.0444253421
  0
ELLIPSE
  5
5E4
100
AcDbEntity
  8
RACCORDO
100
AcDbEllipse
 62
7
  6
CONTINUOUS
 10
-5.3999695344
 20
23.6612606644
 30
0.0
 11
-0.0200091116
 21
0.2021273628
 31
0.0
 40
0.9846622838
 41
-0.0971673115
 42
1.4705984321
  0
ELLIPSE
  5
5E5
100
AcDbEntity
  8
RACCORDO
100
AcDbEllipse
 62
7
  6
CONTINUOUS
 10
-5.3999695344
 20
22.1387393356
 30
0.0
 11
0.0200091116
 21
0.2021273628
 31
0.0
 40
0.9846622838
 41
-4.6121910857
 42
-3.0444253421
  0
ELLIPSE
  5
5E6
100
AcDbEntity
  8
RACCORDO
100
AcDbEllipse
 62
7
  6
CONTINUOUS
 10
-5.1000304656
 20
22.1387393356
 30
0.0
 11
-0.0200091116
 21
0.2021273628
 31
0.0
 40
0.9846622838
 41
-3.2387599651
 42
-1.6709942215
  0
ELLIPSE
  5
5E7
100
AcDbEntity
  8
RACCORDO
100
AcDbEllipse
 62
7
  6
CONTINUOUS
 10
-5.1000304656
 20
23.6612606644
 30
0.0
 11
0.0200091116
 21
0.2021273628
 31
0.0
 40
0.9846622838
 41
-1.4705984321
 42
0.0971673115
  0
ELLIPSE
  5
5E8
100
AcDbEntity
  8
RACCORDO
100
AcDbEllipse
 62
7
  6
CONTINUOUS
 10
-20.4599348741
 20
-13.4000067578
 30
0.0
 11
0.0
 21
0.15
 31
0.0
 40
0.1157209201
 41
1.5707963268
 42
3.089232776
  0
ELLIPSE
  5
5E9
100
AcDbEntity
  8
RACCORDO
100
AcDbEllipse
 62
7
  6
CONTINUOUS
 10
-20.4599348741
 20
-13.0999932422
 30
0.0
 11
-0.0
 21
0.15
 31
0.0
 40
0.1157209201
 41
0.0523598776
 42
1.5707963268
  0
ELLIPSE
  5
5EA
100
AcDbEntity
  8
RACCORDO
100
AcDbEllipse
 62
7
  6
CONTINUOUS
 10
20.4599348741
 20
-13.0999932422
 30
0.0
 11
-0.0
 21
0.15
 31
0.0
 40
0.1157209201
 41
-1.5707963268
 42
-0.0523598776
  0
ELLIPSE
  5
5EB
100
AcDbEntity
  8
RACCORDO
100
AcDbEllipse
 62
7
  6
CONTINUOUS
 10
20.4599348741
 20
-13.4000067578
 30
0.0
 11
0.0
 21
0.15
 31
0.0
 40
0.1157209201
 41
-3.089232776
 42
-1.5707963268
  0
ELLIPSE
  5
5EC
100
AcDbEntity
  8
RACCORDO
100
AcDbEllipse
 62
7
  6
CONTINUOUS
 10
-20.6740185763
 20
-14.1031218234
 30
0.0
 11
-0.0
 21
0.5
 31
0.0
 40
0.1157209201
 41
1.5707963268
 42
3.054326191
  0
ELLIPSE
  5
5ED
100
AcDbEntity
  8
RACCORDO
100
AcDbEllipse
 62
7
  6
CONTINUOUS
 10
-20.6740185763
 20
-12.3968781766
 30
0.0
 11
-0.0
 21
0.5
 31
0.0
 40
0.1157209201
 41
0.0872664626
 42
1.5707963268
  0
ELLIPSE
  5
5EE
100
AcDbEntity
  8
RACCORDO
100
AcDbEllipse
 62
7
  6
CONTINUOUS
 10
-21.7386751346
 20
-14.1031218234
 30
0.0
 11
0.5
 21
0.0
 31
0.0
 40
1.0
 41
-1.4835298642
 42
0.0
  0
ELLIPSE
  5
5EF
100
AcDbEntity
  8
RACCORDO
100
AcDbEllipse
 62
7
  6
CONTINUOUS
 10
-21.7386751346
 20
-12.3968781766
 30
0.0
 11
0.5
 21
-0.0
 31
0.0
 40
1.0
 41
-0.0
 42
1.4835298642
  0
ELLIPSE
  5
5F0
100
AcDbEntity
  8
RACCORDO
100
AcDbEllipse
 62
7
  6
CONTINUOUS
 10
-21.8026939449
 20
-25.8526939449
 30
0.0
 11
0.35379574
 21
0.35379574
 31
0.0
 40
0.999315002
 41
2.3565371065
 42
3.9266482006
  0
ELLIPSE
  5
5F1
100
AcDbEntity
  8
RACCORDO
100
AcDbEllipse
 62
7
  6
CONTINUOUS
 10
-21.8026939449
 20
25.8526939449
 30
0.0
 11
-0.35379574
 21
0.35379574
 31
0.0
 40
0.999315002
 41
-0.7850555471
 42
0.7850555471
  0
ELLIPSE
  5
5F2
100
AcDbEntity
  8
RACCORDO
100
AcDbEllipse
 62
7
  6
CONTINUOUS
 10
21.8026939449
 20
25.8526939449
 30
0.0
 11
-0.35379574
 21
-0.35379574
 31
0.0
 40
0.999315002
 41
2.3565371065
 42
3.9266482006
  0
ELLIPSE
  5
5F3
100
AcDbEntity
  8
RACCORDO
100
AcDbEllipse
 62
7
  6
CONTINUOUS
 10
21.8026939449
 20
-25.8526939449
 30
0.0
 11
0.35379574
 21
-0.35379574
 31
0.0
 40
0.999315002
 41
-0.7850555471
 42
0.7850555471
  0
ENDSEC
  0
SECTION
  2
OBJECTS
  0
DICTIONARY
  5
C
100
AcDbDictionary
280
0
281
1
  3
ACAD_GROUP
350
D
  3
ACAD_MLINESTYLE
350
17
  3
ACAD_LAYOUT
350
1A
  3
ACAD_PLOTSETTINGS
350
19
  3
ACAD_PLOTSTYLENAME
350
E
  0
DICTIONARY
  5
D
102
{ACAD_REACTORS
330
C
102
}
100
AcDbDictionary
280
0
281
1
  0
ACDBDICTIONARYWDFLT
  5
E
102
{ACAD_REACTORS
330
C
102
}
100
AcDbDictionary
281
1
  3
Normal
350
F
100
AcDbDictionaryWithDefault
340
F
  0
DICTIONARY
  5
17
102
{ACAD_REACTORS
330
C
102
}
100
AcDbDictionary
280
0
281
1
  3
Standard
350
18
  0
DICTIONARY
  5
19
102
{ACAD_REACTORS
330
C
102
}
100
AcDbDictionary
281
1
  0
DICTIONARY
  5
1A
102
{ACAD_REACTORS
330
C
102
}
100
AcDbDictionary
281
1
  3
Model
350
5F4
  3
Layout1
350
5F5
  0
ACDBPLACEHOLDER
  5
F
102
{ACAD_REACTORS
330
E
102
}
  0
MLINESTYLE
  5
18
102
{ACAD_REACTORS
330
17
102
}
100
AcDbMlineStyle
  2
STANDARD
 70
0
  3

 62
256
 51
90.0
 52
90.0
 71
2
 49
0.5
 62
256
  6
BYLAYER
 49
-0.5
 62
256
  6
BYLAYER
  0
LAYOUT
  5
5F4
102
{ACAD_REACTORS
330
1A
102
}
100
AcDbPlotSettings
  1

  2
none_device
  4
ISO_A4_(297.00_x_210.00_MM)
  6

 40
0.0
 41
0.0
 42
0.0
 43
0.0
 44
297.0
 45
210.0
 46
0.0
 47
0.0
 48
0.0
 49
0.0
140
0.0
141
0.0
142
1.0
143
1.0
 70
1024
 72
1
 73
0
 74
0
  7

 75
0
147
1.0
148
0.0
149
0.0
100
AcDbLayout
  1
Model
 70
0
 71
0
 10
0.0
 20
0.0
 11
297.0
 21
210.0
 12
0.0
 22
0.0
 32
0.0
 14
0.0
 24
0.0
 34
0.0
 15
0.0
 25
0.0
 35
0.0
146
0.0
 13
0.0
 23
0.0
 33
0.0
 16
1.0
 26
0.0
 36
0.0
 17
0.0
 27
1.0
 37
0.0
 76
0
330
21E
345
0
346
0
  0
LAYOUT
  5
5F5
102
{ACAD_REACTORS
330
1A
102
}
100
AcDbPlotSettings
  1

  2
none_device
  4
ISO_A4_(297.00_x_210.00_MM)
  6

 40
0.0
 41
0.0
 42
0.0
 43
0.0
 44
297.0
 45
210.0
 46
0.0
 47
0.0
 48
0.0
 49
0.0
140
0.0
141
0.0
142
1.0
143
1.0
 70
0
 72
1
 73
0
 74
0
  7

 75
0
147
1.0
148
0.0
149
0.0
100
AcDbLayout
  1
Layout1
 70
0
 71
1
 10
0.0
 20
0.0
 11
297.0
 21
210.0
 12
0.0
 22
0.0
 32
0.0
 14
0.0
 24
0.0
 34
0.0
 15
0.0
 25
0.0
 35
0.0
146
0.0
 13
0.0
 23
0.0
 33
0.0
 16
1.0
 26
0.0
 36
0.0
 17
0.0
 27
1.0
 37
0.0
 76
0
330
21F
345
0
346
0
  0
ENDSEC
  0
EOF
