  0
SECTION
  2
HEADER
  9
$ACADVER
  1
AC1024
  9
$DWGCODEPAGE
  3
ANSI_1252
  9
$EXTMAX
 10
297.0
 20
210.0
 30
0.0
  9
$EXTMIN
 10
0.0
 20
0.0
 30
0.0
  9
$LIMMIN
 10
0.0
 20
0.0
  9
$LIMMAX
 10
297.0
 20
210.0
  9
$VIEWCTR
 10
148.5
 20
105.0
  9
$VIEWSIZE
 40
210.0
  9
$CLAYER
  8
0
  9
$LTSCALE
 40
16.335
  9
$CELTYPE
  6
BYLAYER
  9
$DIMSCALE
 40
1.0
  9
$DIMASZ
 40
3.0
  9
$DIMEXO
 40
0.5
  9
$DIMDLI
 40
11.286
  9
$DIMEXE
 40
1.5
  9
$DIMCEN
 40
2.673
  9
$DIMLFAC
 40
1.0
  9
$DIMBLK
  1
_FILLED
  9
$DIMALT
 70
0
  9
$DIMALTF
 40
0.0393700787
  9
$DIMTXT
 40
3.0
  9
$DIMTOL
 70
1
  9
$DIMLIM
 70
0
  9
$DIMTFAC
 40
1.0
  9
$DIMTP
 40
0.01
  9
$DIMTM
 40
0.01
  9
$DIMGAP
 40
0.625
  9
$DIMDSEP
 70
44
  9
$AUNITS
 70
0
  9
$PDMODE
 70
3
  9
$PDSIZE
 40
3.0
  9
$HANDSEED
  5
6A8
  9
$TILEMODE
 70
1
  9
$MEASUREMENT
 70
1
  9
$INSUNITS
 70
4
  0
ENDSEC
  0
SECTION
  2
CLASSES
  0
CLASS
  1
ACDBDICTIONARYWDFLT
  2
AcDbDictionaryWithDefault
  3
AutoCAD 2000
 90
0
 91
1
280
0
281
0
  0
CLASS
  1
ACDBPLACEHOLDER
  2
AcDbPlaceHolder
  3
AutoCAD 2000
 90
0
 91
1
280
0
281
0
  0
CLASS
  1
LAYOUT
  2
AcDbLayout
  3
AutoCAD 2000
 90
0
 91
0
280
0
281
0
  0
ENDSEC
  0
SECTION
  2
TABLES
  0
TABLE
  2
VPORT
  5
8
100
AcDbSymbolTable
 70
2
  0
VPORT
  5
1F4
100
AcDbSymbolTableRecord
100
AcDbViewportTableRecord
  2
*ACTIVE
 70
0
 10
0.0
 20
0.0
 11
1.0
 21
1.0
 12
148.5
 22
105.0
 13
0.0
 23
0.0
 14
1.0
 24
1.0
 15
0.0
 25
0.0
 16
0.0
 26
0.0
 36
1.0
 17
0.0
 27
0.0
 37
0.0
 40
210.0
 41
1.4142857143
 42
50.0
 43
0.0
 44
0.0
 50
0.0
 51
0.0
 71
0
 72
100
 73
1
 74
1
 75
0
 76
0
 77
0
 78
0
  0
ENDTAB
  0
TABLE
  2
LTYPE
  5
5
100
AcDbSymbolTable
 70
6
  0
LTYPE
  5
14
100
AcDbSymbolTableRecord
100
AcDbLinetypeTableRecord
  2
BYBLOCK
 70
0
  3

 72
65
 73
0
 40
0.0
  0
LTYPE
  5
15
100
AcDbSymbolTableRecord
100
AcDbLinetypeTableRecord
  2
BYLAYER
 70
0
  3

 72
65
 73
0
 40
0.0
  0
LTYPE
  5
16
100
AcDbSymbolTableRecord
100
AcDbLinetypeTableRecord
  2
CONTINUOUS
 70
64
  3
Solid line
 72
65
 73
0
 40
0.0
  0
LTYPE
  5
1F5
100
AcDbSymbolTableRecord
100
AcDbLinetypeTableRecord
  2
CENTER
 70
64
  3
____ _ ____ _ ____ _ ____ _ ____ _ ____ _ ____
 72
65
 73
4
 40
0.6
 49
0.375
 74
0
 49
-0.075
 74
0
 49
0.075
 74
0
 49
-0.075
 74
0
  0
LTYPE
  5
1F6
100
AcDbSymbolTableRecord
100
AcDbLinetypeTableRecord
  2
HIDDEN
 70
64
  3
- - - - - - - - - - - - - - - - - - - -
 72
65
 73
2
 40
0.2
 49
0.1
 74
0
 49
-0.1
 74
0
  0
LTYPE
  5
1F7
100
AcDbSymbolTableRecord
100
AcDbLinetypeTableRecord
  2
PHANTOM
 70
64
  3
_____ _ _ _____ _ _ _____ _ _ _____
 72
65
 73
6
 40
0.8
 49
0.45
 74
0
 49
-0.05
 74
0
 49
0.1
 74
0
 49
-0.05
 74
0
 49
0.1
 74
0
 49
-0.05
 74
0
  0
LTYPE
  5
1F8
100
AcDbSymbolTableRecord
100
AcDbLinetypeTableRecord
  2
DOT
 70
64
  3
. . . . . . . . . . . . . . . . . . . .
 72
65
 73
2
 40
0.2
 49
0.1
 74
0
 49
-0.1
 74
0
  0
LTYPE
  5
1F9
100
AcDbSymbolTableRecord
100
AcDbLinetypeTableRecord
  2
DASHED
 70
64
  3
- - - - - - - - - - - - - - - - - - - -
 72
65
 73
2
 40
0.2
 49
0.1
 74
0
 49
-0.1
 74
0
  0
ENDTAB
  0
TABLE
  2
LAYER
  5
2
100
AcDbSymbolTable
 70
36
  0
LAYER
  5
10
100
AcDbSymbolTableRecord
100
AcDbLayerTableRecord
  2
0
 70
0
 62
7
  6
CONTINUOUS
370
-3
390
F
  0
LAYER
  5
1FA
100
AcDbSymbolTableRecord
100
AcDbLayerTableRecord
  2
DEFAULT_1
 70
0
 62
7
  6
CENTER
370
-3
390
F
  0
LAYER
  5
1FB
100
AcDbSymbolTableRecord
100
AcDbLayerTableRecord
  2
DEFAULT_2
 70
0
 62
7
  6
HIDDEN
370
-3
390
F
  0
LAYER
  5
1FC
100
AcDbSymbolTableRecord
100
AcDbLayerTableRecord
  2
DEFAULT_3
 70
0
 62
7
  6
PHANTOM
370
-3
390
F
  0
LAYER
  5
1FD
100
AcDbSymbolTableRecord
100
AcDbLayerTableRecord
  2
ASSI
 70
0
 62
7
  6
CONTINUOUS
370
-3
390
F
  0
LAYER
  5
1FE
100
AcDbSymbolTableRecord
100
AcDbLayerTableRecord
  2
COORDINATE
 70
0
 62
7
  6
CONTINUOUS
370
-3
390
F
  0
LAYER
  5
1FF
100
AcDbSymbolTableRecord
100
AcDbLayerTableRecord
  2
COPY_PUBLISH
 70
0
 62
7
  6
CONTINUOUS
370
-3
390
F
  0
LAYER
  5
200
100
AcDbSymbolTableRecord
100
AcDbLayerTableRecord
  2
COSMETICI
 70
0
 62
7
  6
CONTINUOUS
370
-3
390
F
  0
LAYER
  5
201
100
AcDbSymbolTableRecord
100
AcDbLayerTableRecord
  2
CURVE
 70
0
 62
7
  6
CONTINUOUS
370
-3
390
F
  0
LAYER
  5
202
100
AcDbSymbolTableRecord
100
AcDbLayerTableRecord
  2
DRAFT
 70
0
 62
7
  6
CONTINUOUS
370
-3
390
F
  0
LAYER
  5
203
100
AcDbSymbolTableRecord
100
AcDbLayerTableRecord
  2
IMPORT_IGES
 70
0
 62
7
  6
CONTINUOUS
370
-3
390
F
  0
LAYER
  5
204
100
AcDbSymbolTableRecord
100
AcDbLayerTableRecord
  2
INTF_2
 70
0
 62
7
  6
CONTINUOUS
370
-3
390
F
  0
LAYER
  5
205
100
AcDbSymbolTableRecord
100
AcDbLayerTableRecord
  2
INTF_3
 70
0
 62
7
  6
CONTINUOUS
370
-3
390
F
  0
LAYER
  5
206
100
AcDbSymbolTableRecord
100
AcDbLayerTableRecord
  2
INTF_4
 70
0
 62
7
  6
CONTINUOUS
370
-3
390
F
  0
LAYER
  5
207
100
AcDbSymbolTableRecord
100
AcDbLayerTableRecord
  2
INTF_5
 70
0
 62
7
  6
CONTINUOUS
370
-3
390
F
  0
LAYER
  5
208
100
AcDbSymbolTableRecord
100
AcDbLayerTableRecord
  2
INTF_6
 70
0
 62
7
  6
CONTINUOUS
370
-3
390
F
  0
LAYER
  5
209
100
AcDbSymbolTableRecord
100
AcDbLayerTableRecord
  2
INTF_7
 70
0
 62
7
  6
CONTINUOUS
370
-3
390
F
  0
LAYER
  5
20A
100
AcDbSymbolTableRecord
100
AcDbLayerTableRecord
  2
INTF_9
 70
0
 62
7
  6
CONTINUOUS
370
-3
390
F
  0
LAYER
  5
20B
100
AcDbSymbolTableRecord
100
AcDbLayerTableRecord
  2
INTF_BLANK
 70
0
 62
7
  6
CONTINUOUS
370
-3
390
F
  0
LAYER
  5
20C
100
AcDbSymbolTableRecord
100
AcDbLayerTableRecord
  2
INTF_RED
 70
0
 62
7
  6
CONTINUOUS
370
-3
390
F
  0
LAYER
  5
20D
100
AcDbSymbolTableRecord
100
AcDbLayerTableRecord
  2
NOTE
 70
0
 62
7
  6
CONTINUOUS
370
-3
390
F
  0
LAYER
  5
20E
100
AcDbSymbolTableRecord
100
AcDbLayerTableRecord
  2
PIANI
 70
0
 62
7
  6
CONTINUOUS
370
-3
390
F
  0
LAYER
  5
20F
100
AcDbSymbolTableRecord
100
AcDbLayerTableRecord
  2
PUNTI
 70
0
 62
7
  6
CONTINUOUS
370
-3
390
F
  0
LAYER
  5
210
100
AcDbSymbolTableRecord
100
AcDbLayerTableRecord
  2
RACCORDO
 70
0
 62
7
  6
CONTINUOUS
370
-3
390
F
  0
LAYER
  5
211
100
AcDbSymbolTableRecord
100
AcDbLayerTableRecord
  2
RGB____0____0____0__
 70
0
 62
7
  6
CONTINUOUS
370
-3
390
F
  0
LAYER
  5
212
100
AcDbSymbolTableRecord
100
AcDbLayerTableRecord
  2
SIMBOLI
 70
0
 62
7
  6
CONTINUOUS
370
-3
390
F
  0
LAYER
  5
213
100
AcDbSymbolTableRecord
100
AcDbLayerTableRecord
  2
SMUSSO
 70
0
 62
7
  6
CONTINUOUS
370
-3
390
F
  0
LAYER
  5
214
100
AcDbSymbolTableRecord
100
AcDbLayerTableRecord
  2
SNAPLINE
 70
0
 62
7
  6
CONTINUOUS
370
-3
390
F
  0
LAYER
  5
215
100
AcDbSymbolTableRecord
100
AcDbLayerTableRecord
  2
SUPERFICI
 70
0
 62
7
  6
CONTINUOUS
370
-3
390
F
  0
LAYER
  5
216
100
AcDbSymbolTableRecord
100
AcDbLayerTableRecord
  2
TRASH
 70
0
 62
7
  6
CONTINUOUS
370
-3
390
F
  0
ENDTAB
  0
TABLE
  2
STYLE
  5
3
100
AcDbSymbolTable
 70
1
  0
STYLE
  5
11
100
AcDbSymbolTableRecord
100
AcDbTextStyleTableRecord
  2
STANDARD
 70
0
 40
0.0
 41
0.8
 50
0.0
 71
0
 42
0.2
  3
txt
  4

  0
STYLE
  5
217
100
AcDbSymbolTableRecord
100
AcDbTextStyleTableRecord
  2
TEXTSTYLE_1
 70
0
 40
0.0
 41
0.8
 50
0.0
 71
0
 42
0.2
  3
gdt
  4

  0
ENDTAB
  0
TABLE
  2
VIEW
  5
6
100
AcDbSymbolTable
 70
0
  0
ENDTAB
  0
TABLE
  2
UCS
  5
7
100
AcDbSymbolTable
 70
0
  0
ENDTAB
  0
TABLE
  2
APPID
  5
9
100
AcDbSymbolTable
 70
1
  0
APPID
  5
218
100
AcDbSymbolTableRecord
100
AcDbRegAppTableRecord
  2
ACAD
 70
0
  0
ENDTAB
  0
TABLE
  2
BLOCK_RECORD
  5
1
100
AcDbSymbolTable
 70
0
  0
BLOCK_RECORD
  5
219
100
AcDbSymbolTableRecord
100
AcDbBlockTableRecord
  2
*Model_Space
  0
BLOCK_RECORD
  5
21A
100
AcDbSymbolTableRecord
100
AcDbBlockTableRecord
  2
*Paper_Space
  0
BLOCK_RECORD
  5
21B
100
AcDbSymbolTableRecord
100
AcDbBlockTableRecord
  2
_FILLED
  0
ENDTAB
  0
TABLE
  2
DIMSTYLE
  5
A
100
AcDbSymbolTable
 70
1
100
AcDbDimStyleTable
 71
0
  0
DIMSTYLE
105
21C
100
AcDbSymbolTableRecord
100
AcDbDimStyleTableRecord
  2
STANDARD
 70
0
  3

  4

 40
1.0
 41
3.0
 42
0.5
 43
0.38
 44
1.5
 45
0.0
 46
0.0
 47
0.01
 48
0.01
140
3.0
141
0.09
142
0.0
143
25.4
144
1.0
145
0.0
146
1.0
147
0.625
 71
1
 72
0
 73
0
 74
0
 75
0
 76
0
 77
1
 78
8
 79
2
170
0
171
1
172
0
173
0
174
0
175
0
176
0
177
0
178
0
270
2
179
2
271
2
272
2
273
2
274
2
275
0
280
0
281
0
282
0
283
1
284
8
285
0
286
0
287
3
288
0
340
11
278
44
341
21B
342
21B
343
21B
344
21B
  0
ENDTAB
  0
ENDSEC
  0
SECTION
  2
BLOCKS
  0
BLOCK
  5
20
100
AcDbEntity
  8
0
100
AcDbBlockBegin
  2
*Model_Space
 70
0
 10
0.0
 20
0.0
 30
0.0
  3
*Model_Space
  1

  0
ENDBLK
  5
21
100
AcDbEntity
  8
0
100
AcDbBlockEnd
  0
BLOCK
  5
1C
100
AcDbEntity
  8
0
100
AcDbBlockBegin
  2
*Paper_Space
 70
0
 10
0.0
 20
0.0
 30
0.0
  3
*Paper_Space
  1

  0
ENDBLK
  5
1D
100
AcDbEntity
  8
0
100
AcDbBlockEnd
  0
BLOCK
  5
21D
100
AcDbEntity
  8
0
100
AcDbBlockBegin
  2
_FILLED
 70
64
 10
0.0
 20
0.0
  3
_FILLED
  1

  0
SOLID
  5
21E
100
AcDbEntity
  8
0
  6
BYBLOCK
 62
0
100
AcDbTrace
 10
0.0
 20
0.0
 11
-1.0
 21
0.3166666667
 12
-1.0
 22
-0.3166666667
 13
-1.0
 23
-0.3166666667
  0
ENDBLK
  5
21F
100
AcDbEntity
  8
0
  6
BYBLOCK
 62
0
100
AcDbBlockEnd
  0
ENDSEC
  0
SECTION
  2
ENTITIES
  0
LINE
  5
220
100
AcDbEntity
  8
0
100
AcDbLine
 62
7
  6
CONTINUOUS
 10
10.5347065336
 20
-26.3345351961
 11
-10.5347065336
 21
-26.3345351961
  0
LINE
  5
221
100
AcDbEntity
  8
RACCORDO
100
AcDbLine
 62
7
  6
CONTINUOUS
 10
10.5337380986
 20
-26.2828653412
 11
-10.5337380986
 21
-26.2828653412
  0
LINE
  5
222
100
AcDbEntity
  8
RACCORDO
100
AcDbLine
 62
7
  6
CONTINUOUS
 10
10.5154079535
 20
-26.2216232767
 11
-10.5154079535
 21
-26.2216232767
  0
LINE
  5
223
100
AcDbEntity
  8
RACCORDO
100
AcDbLine
 62
7
  6
CONTINUOUS
 10
-9.75
 20
-25.5
 11
9.75
 21
-25.5
  0
LINE
  5
224
100
AcDbEntity
  8
RACCORDO
100
AcDbLine
 62
7
  6
CONTINUOUS
 10
-9.4948015567
 20
-24.9947634805
 11
9.4948015567
 21
-24.9947634805
  0
LINE
  5
225
100
AcDbEntity
  8
0
100
AcDbLine
 62
7
  6
CONTINUOUS
 10
-9.4948015567
 20
-24.9947634805
 11
9.4948015567
 21
-24.9947634805
  0
LWPOLYLINE
  5
226
100
AcDbEntity
  8
RACCORDO
100
AcDbPolyline
 62
250
  6
CONTINUOUS
 90
16
 70
0
 10
-10.406343002
 20
20.9708583756
 10
-10.4039287718
 20
20.9749572379
 10
-10.4016138522
 20
20.9807309821
 10
-10.3993982432
 20
20.9881239095
 10
-10.3972642316
 20
20.9970638602
 10
-10.3952295305
 20
21.0074702383
 10
-10.3933472796
 20
21.0192588303
 10
-10.3916225814
 20
21.0323268834
 10
-10.3900503334
 20
21.046560525
 10
-10.3886683675
 20
21.0618488916
 10
-10.3874803606
 20
21.0780699207
 10
-10.3864826359
 20
21.0950771637
 10
-10.3857019943
 20
21.1127119376
 10
-10.3851473697
 20
21.1308169955
 10
-10.3848098282
 20
21.1492394929
 10
-10.38468937
 20
21.1678199262
  0
LWPOLYLINE
  5
227
100
AcDbEntity
  8
RACCORDO
100
AcDbPolyline
 62
7
  6
CONTINUOUS
 90
10
 70
0
 10
-9.2683864316
 20
16.5046309051
 10
-9.2331066989
 20
16.5525707706
 10
-9.2006139653
 20
16.602422952
 10
-9.1707774891
 20
16.6543827547
 10
-9.1437280119
 20
16.7082548732
 10
-9.1198577587
 20
16.7634533913
 10
-9.0992271925
 20
16.8199375825
 10
-9.0817758502
 20
16.8777481732
 10
-9.0677145682
 20
16.9364214259
 10
-9.0571136252
 20
16.9958027615
  0
LWPOLYLINE
  5
228
100
AcDbEntity
  8
0
100
AcDbPolyline
 62
7
  6
CONTINUOUS
 90
10
 70
0
 10
-9.3064531633
 20
16.4586033555
 10
-9.2559279612
 20
16.5209692852
 10
-9.2106334143
 20
16.5863318886
 10
-9.1705695226
 20
16.6546911658
 10
-9.1354973799
 20
16.7265644351
 10
-9.1056558923
 20
16.8014343782
 10
-9.0817617788
 20
16.8777490393
 10
-9.0640539457
 20
16.9549910998
 10
-9.0522934867
 20
17.0336778782
 10
-9.0464804017
 20
17.1138093746
  0
LINE
  5
229
100
AcDbEntity
  8
RACCORDO
100
AcDbLine
 62
7
  6
CONTINUOUS
 10
-9.3064531633
 20
16.4586033555
 11
-9.2683864316
 21
16.5046309051
  0
LWPOLYLINE
  5
22A
100
AcDbEntity
  8
0
100
AcDbPolyline
 62
7
  6
CONTINUOUS
 90
10
 70
0
 10
-9.3064531633
 20
16.4586033555
 10
-9.3234877362
 20
16.4394810635
 10
-9.3415065941
 20
16.4202712545
 10
-9.3605097372
 20
16.4010159621
 10
-9.3804826974
 20
16.381720546
 10
-9.4014399428
 20
16.3624574052
 10
-9.4234248769
 20
16.3433683253
 10
-9.4464519679
 20
16.3245241305
 10
-9.4705067477
 20
16.305922485
 10
-9.4955892163
 20
16.2875932838
  0
LINE
  5
22B
100
AcDbEntity
  8
RACCORDO
100
AcDbLine
 62
7
  6
CONTINUOUS
 10
-9.3064531633
 20
16.4586033555
 11
-9.3324891766
 21
16.4295767639
  0
LINE
  5
22C
100
AcDbEntity
  8
RACCORDO
100
AcDbLine
 62
7
  6
CONTINUOUS
 10
-9.3324891766
 20
16.4295767639
 11
-9.3607198547
 21
16.4005962753
  0
LINE
  5
22D
100
AcDbEntity
  8
RACCORDO
100
AcDbLine
 62
7
  6
CONTINUOUS
 10
-9.3607198547
 20
16.4005962753
 11
-9.3911451978
 21
16.3717932065
  0
LWPOLYLINE
  5
22E
100
AcDbEntity
  8
RACCORDO
100
AcDbPolyline
 62
250
  6
CONTINUOUS
 90
16
 70
0
 10
-9.5840895651
 20
14.6969203156
 10
-9.588612256
 20
14.6927336407
 10
-9.5929538537
 20
14.6845390035
 10
-9.5971143582
 20
14.6725054733
 10
-9.601116449
 20
14.6568994664
 10
-9.6049374466
 20
14.6379170642
 10
-9.6085093123
 20
14.6155564697
 10
-9.6118409702
 20
14.5899465576
 10
-9.6149234961
 20
14.5613504115
 10
-9.6176620799
 20
14.5298705473
 10
-9.620055349
 20
14.4956978856
 10
-9.6221046759
 20
14.4591874386
 10
-9.6237193678
 20
14.4207136644
 10
-9.6248691939
 20
14.380665857
 10
-9.6255843851
 20
14.3394391447
 10
-9.6258649413
 20
14.2974685017
  0
LWPOLYLINE
  5
22F
100
AcDbEntity
  8
RACCORDO
100
AcDbPolyline
 62
7
  6
CONTINUOUS
 90
3
 70
0
 10
-9.3911451978
 20
16.3717932065
 10
-9.4237652058
 20
16.3432876315
 10
-9.4585798786
 20
16.3151884043
  0
LWPOLYLINE
  5
230
100
AcDbEntity
  8
RACCORDO
100
AcDbPolyline
 62
7
  6
CONTINUOUS
 90
19
 70
0
 10
-9.1802601072
 20
14.8400670064
 10
-9.1774844856
 20
14.8422343485
 10
-9.1754822657
 20
14.8464664404
 10
-9.1742534476
 20
14.8526343683
 10
-9.173633274
 20
14.860603544
 10
-9.1737865022
 20
14.8702118984
 10
-9.1752074042
 20
14.8812544471
 10
-9.1778672673
 20
14.8935366562
 10
-9.1817948041
 20
14.906879649
 10
-9.187570425
 20
14.9210793151
 10
-9.1952988793
 20
14.93610081
 10
-9.2048754177
 20
14.9516362362
 10
-9.2165662019
 20
14.967009219
 10
-9.2305469355
 20
14.9820567825
 10
-9.246641915
 20
14.9965756629
 10
-9.2645901917
 20
15.0097738642
 10
-9.2843047828
 20
15.0213116393
 10
-9.3058726711
 20
15.031332069
 10
-9.3292938566
 20
15.0397929133
  0
LINE
  5
231
100
AcDbEntity
  8
DRAFT
100
AcDbLine
 62
7
  6
CONTINUOUS
 10
-10.1
 20
14.7373232745
 11
-9.9473059106
 21
14.8517623275
  0
LINE
  5
232
100
AcDbEntity
  8
RACCORDO
100
AcDbLine
 62
7
  6
CONTINUOUS
 10
-9.4585798786
 20
16.3151884043
 11
-9.4955892163
 21
16.2875932838
  0
LINE
  5
233
100
AcDbEntity
  8
RACCORDO
100
AcDbLine
 62
7
  6
CONTINUOUS
 10
-9.5008263169
 20
16.283929264
 11
-9.4955892163
 21
16.2875932838
  0
LINE
  5
234
100
AcDbEntity
  8
0
100
AcDbLine
 62
7
  6
CONTINUOUS
 10
-9.5018427646
 20
16.2832215461
 11
-9.4955892163
 21
16.2875932838
  0
LINE
  5
235
100
AcDbEntity
  8
RACCORDO
100
AcDbLine
 62
7
  6
CONTINUOUS
 10
-9.5050241386
 20
16.2810245412
 11
-9.5008263169
 21
16.283929264
  0
LINE
  5
236
100
AcDbEntity
  8
0
100
AcDbLine
 62
7
  6
CONTINUOUS
 10
-9.5081293618
 20
16.2788972182
 11
-9.5018427646
 21
16.2832215461
  0
LINE
  5
237
100
AcDbEntity
  8
RACCORDO
100
AcDbLine
 62
7
  6
CONTINUOUS
 10
-9.5102179722
 20
16.277477946
 11
-9.5050241386
 21
16.2810245412
  0
LINE
  5
238
100
AcDbEntity
  8
0
100
AcDbLine
 62
7
  6
CONTINUOUS
 10
-9.5144488706
 20
16.274620395
 11
-9.5081293618
 21
16.2788972182
  0
LINE
  5
239
100
AcDbEntity
  8
RACCORDO
100
AcDbLine
 62
7
  6
CONTINUOUS
 10
-9.5197010608
 20
16.2711205993
 11
-9.5102179722
 21
16.277477946
  0
LINE
  5
23A
100
AcDbEntity
  8
RACCORDO
100
AcDbLine
 62
7
  6
CONTINUOUS
 10
-9.523988849
 20
16.2682949195
 11
-9.5197010608
 21
16.2711205993
  0
LWPOLYLINE
  5
23B
100
AcDbEntity
  8
0
100
AcDbPolyline
 62
7
  6
CONTINUOUS
 90
3
 70
0
 10
-9.5239888488
 20
16.2682949197
 10
-9.5208007425
 20
16.2703914562
 10
-9.5144488706
 20
16.274620395
  0
LWPOLYLINE
  5
23C
100
AcDbEntity
  8
RACCORDO
100
AcDbPolyline
 62
250
  6
CONTINUOUS
 90
16
 70
0
 10
-9.4363690968
 20
14.5471258854
 10
-9.4408900175
 20
14.5442987421
 10
-9.4452306112
 20
14.5392122993
 10
-9.449390878
 20
14.5318665571
 10
-9.4533939825
 20
14.5221736287
 10
-9.4572167601
 20
14.5102214008
 10
-9.4607897169
 20
14.4962735336
 10
-9.4641209116
 20
14.4802960054
 10
-9.4672022855
 20
14.4623228379
 10
-9.4699401679
 20
14.4427197559
 10
-9.4723338171
 20
14.4213914829
 10
-9.4743839748
 20
14.3984332955
 10
-9.4759991947
 20
14.3744967483
 10
-9.4771489948
 20
14.349799026
 10
-9.4778638572
 20
14.3241229438
 10
-9.4781437817
 20
14.2974685017
  0
LINE
  5
23D
100
AcDbEntity
  8
RACCORDO
100
AcDbLine
 62
7
  6
CONTINUOUS
 10
-9.2228673023
 20
14.8234016825
 11
-9.1802601072
 21
14.8400670064
  0
LWPOLYLINE
  5
23E
100
AcDbEntity
  8
RACCORDO
100
AcDbPolyline
 62
7
  6
CONTINUOUS
 90
3
 70
0
 10
-9.2642138845
 20
14.8074864604
 10
-9.250527155
 20
14.81270596
 10
-9.2228673023
 20
14.8234016825
  0
LWPOLYLINE
  5
23F
100
AcDbEntity
  8
RACCORDO
100
AcDbPolyline
 62
7
  6
CONTINUOUS
 90
3
 70
0
 10
-9.3049020021
 20
14.7923514428
 10
-9.291412459
 20
14.7973097593
 10
-9.2642138845
 20
14.8074864604
  0
LINE
  5
240
100
AcDbEntity
  8
RACCORDO
100
AcDbLine
 62
250
  6
CONTINUOUS
 10
-10.25
 20
-17.2881634904
 11
-9.7447634805
 21
-17.2881634904
  0
LINE
  5
241
100
AcDbEntity
  8
RACCORDO
100
AcDbLine
 62
250
  6
CONTINUOUS
 10
9.7447634805
 20
-17.2881634904
 11
10.25
 21
-17.2881634904
  0
LINE
  5
242
100
AcDbEntity
  8
0
100
AcDbLine
 62
250
  6
CONTINUOUS
 10
9.7447634805
 20
-17.2881634904
 11
-9.7447634805
 21
-17.2881634904
  0
LINE
  5
243
100
AcDbEntity
  8
RACCORDO
100
AcDbLine
 62
250
  6
CONTINUOUS
 10
-10.25
 20
-17.1171534187
 11
-9.7452898151
 21
-17.1171534187
  0
LINE
  5
244
100
AcDbEntity
  8
RACCORDO
100
AcDbLine
 62
250
  6
CONTINUOUS
 10
9.7452898151
 20
-17.1171534187
 11
10.25
 21
-17.1171534187
  0
LINE
  5
245
100
AcDbEntity
  8
0
100
AcDbLine
 62
250
  6
CONTINUOUS
 10
9.7452898151
 20
-17.1171534187
 11
-9.7452898151
 21
-17.1171534187
  0
LWPOLYLINE
  5
246
100
AcDbEntity
  8
RACCORDO
100
AcDbPolyline
 62
7
  6
CONTINUOUS
 90
3
 70
0
 10
-9.3049020021
 20
-14.7923514428
 10
-9.2778497531
 20
-14.8023547652
 10
-9.2642138845
 20
-14.8074864604
  0
LINE
  5
247
100
AcDbEntity
  8
RACCORDO
100
AcDbLine
 62
7
  6
CONTINUOUS
 10
-9.2642138845
 20
-14.8074864604
 11
-9.2367672626
 21
-14.8180121489
  0
LWPOLYLINE
  5
248
100
AcDbEntity
  8
RACCORDO
100
AcDbPolyline
 62
7
  6
CONTINUOUS
 90
3
 70
0
 10
-9.2367672626
 20
-14.8180121489
 10
-9.1946025737
 20
-14.8344285538
 10
-9.1802601072
 20
-14.8400670064
  0
LINE
  5
249
100
AcDbEntity
  8
DRAFT
100
AcDbLine
 62
7
  6
CONTINUOUS
 10
-10.1
 20
-14.7373232745
 11
-9.9473059106
 21
-14.8517623275
  0
LINE
  5
24A
100
AcDbEntity
  8
RACCORDO
100
AcDbLine
 62
250
  6
CONTINUOUS
 10
-10.4808434758
 20
20.7202000995
 11
-10.406343002
 21
20.9708583756
  0
LINE
  5
24B
100
AcDbEntity
  8
RACCORDO
100
AcDbLine
 62
250
  6
CONTINUOUS
 10
-10.1812546154
 20
20.4247577736
 11
-10.1067541415
 21
20.6754160497
  0
LWPOLYLINE
  5
24C
100
AcDbEntity
  8
RACCORDO
100
AcDbPolyline
 62
250
  6
CONTINUOUS
 90
16
 70
0
 10
-9.0838071396
 20
13.6995956477
 10
-9.0894463292
 20
13.695904254
 10
-9.0948256996
 20
13.6894358738
 10
-9.0999452511
 20
13.6801905073
 10
-9.1048393664
 20
13.6679302455
 10
-9.1094736626
 20
13.6528929973
 10
-9.1137449909
 20
13.6357924893
 10
-9.1176270601
 20
13.6167997585
 10
-9.1211461614
 20
13.5957437677
 10
-9.1242780196
 20
13.5728251328
 10
-9.1270497892
 20
13.5479845133
 10
-9.1294343157
 20
13.5212812496
 10
-9.13132586
 20
13.4930939785
 10
-9.1326891758
 20
13.4635489123
 10
-9.1335595093
 20
13.4325198387
 10
-9.1339368607
 20
13.4000067578
  0
LINE
  5
24D
100
AcDbEntity
  8
RACCORDO
100
AcDbLine
 62
250
  6
CONTINUOUS
 10
-9.5840902598
 20
14.6969203156
 11
-9.1024704672
 21
14.8400670064
  0
LINE
  5
24E
100
AcDbEntity
  8
RACCORDO
100
AcDbLine
 62
250
  6
CONTINUOUS
 10
-8.9909750246
 20
14.6795055934
 11
-9.4363690968
 21
14.5471258854
  0
LINE
  5
24F
100
AcDbEntity
  8
RACCORDO
100
AcDbLine
 62
250
  6
CONTINUOUS
 10
-8.9909750246
 20
13.7271871426
 11
-9.0838071396
 21
13.6995956477
  0
LINE
  5
250
100
AcDbEntity
  8
RACCORDO
100
AcDbLine
 62
250
  6
CONTINUOUS
 10
-8.508397593
 20
13.560628004
 11
-8.4009945665
 21
13.5925502548
  0
LINE
  5
251
100
AcDbEntity
  8
RACCORDO
100
AcDbLine
 62
250
  6
CONTINUOUS
 10
-8.36067643
 20
13.4108335738
 11
-8.2468562183
 21
13.4446631358
  0
LWPOLYLINE
  5
252
100
AcDbEntity
  8
RACCORDO
100
AcDbPolyline
 62
250
  6
CONTINUOUS
 90
16
 70
0
 10
-8.8432538616
 20
13.5773927124
 10
-8.9417264793
 20
13.5481366367
 10
-8.9471091865
 20
13.5448704465
 10
-8.9522299642
 20
13.5400993812
 10
-8.9571219679
 20
13.5339360373
 10
-8.9617520421
 20
13.5264979699
 10
-8.9660207202
 20
13.5178990636
 10
-8.9699038403
 20
13.5083345736
 10
-8.9734255642
 20
13.4978818523
 10
-8.9765589106
 20
13.4864162762
 10
-8.9793294523
 20
13.4739740474
 10
-8.9817116165
 20
13.4606953867
 10
-8.9836017034
 20
13.4465500946
 10
-8.9849651465
 20
13.4316028302
 10
-8.9858365123
 20
13.4160357619
 10
-8.9862158009
 20
13.4000067578
  0
LWPOLYLINE
  5
253
100
AcDbEntity
  8
RACCORDO
100
AcDbPolyline
 62
250
  6
CONTINUOUS
 90
11
 70
0
 10
8.508397593
 20
-13.560628004
 10
8.5120321423
 20
-13.5597726342
 10
8.516326919
 20
-13.5589623825
 10
8.5212819231
 20
-13.5581972487
 10
8.5269880728
 20
-13.5574783721
 10
8.5333544498
 20
-13.5568046134
 10
8.5401083002
 20
-13.5561725554
 10
8.5472261612
 20
-13.5555825103
 10
8.5547314954
 20
-13.5550341658
 10
8.5624219373
 20
-13.5545231679
 10
8.5702802408
 20
-13.5540496645
  0
LINE
  5
254
100
AcDbEntity
  8
DRAFT
100
AcDbLine
 62
7
  6
CONTINUOUS
 10
10.1
 20
-14.7373232745
 11
10.6
 21
-14.7221944518
  0
LINE
  5
255
100
AcDbEntity
  8
RACCORDO
100
AcDbLine
 62
250
  6
CONTINUOUS
 10
9.070032489
 20
-15.0403623444
 11
9.0487711985
 21
-15.0410085743
  0
LWPOLYLINE
  5
256
100
AcDbEntity
  8
RACCORDO
100
AcDbPolyline
 62
250
  6
CONTINUOUS
 90
56
 70
0
 10
9.0487711985
 20
-15.0410085743
 10
9.0381998154
 20
-15.041304787
 10
9.027681266
 20
-15.041543338
 10
9.0171883508
 20
-15.041734264
 10
9.0065978489
 20
-15.0418186043
 10
8.9959124483
 20
-15.0417969039
 10
8.9851294611
 20
-15.0416686178
 10
8.9741176025
 20
-15.0413731505
 10
8.9628765751
 20
-15.0409178824
 10
8.9514066762
 20
-15.0402954331
 10
8.9395775131
 20
-15.0394230658
 10
8.9273712277
 20
-15.0383101179
 10
8.914805678
 20
-15.036947252
 10
8.9018040458
 20
-15.0352237195
 10
8.8883242001
 20
-15.0331405595
 10
8.8744082718
 20
-15.0306967328
 10
8.8601058353
 20
-15.0277783734
 10
8.8453610429
 20
-15.0243661755
 10
8.8302297422
 20
-15.0204794449
 10
8.8149290506
 20
-15.0160622321
 10
8.7994226382
 20
-15.0110765148
 10
8.7837468348
 20
-15.0055603154
 10
8.7682277481
 20
-14.9995717515
 10
8.7529183348
 20
-14.9931041177
 10
8.7377656381
 20
-14.9861641194
 10
8.7229368949
 20
-14.9788299904
 10
8.7084633441
 20
-14.9711053598
 10
8.6943137467
 20
-14.9629865987
 10
8.680561623
 20
-14.9545410535
 10
8.667200088
 20
-14.9457561058
 10
8.6542360265
 20
-14.9366443741
 10
8.6417636133
 20
-14.9273110611
 10
8.6297947452
 20
-14.9177555608
 10
8.6183175254
 20
-14.9079784793
 10
8.6073904383
 20
-14.8980868375
 10
8.5970311586
 20
-14.8880919737
 10
8.5872220115
 20
-14.8779825496
 10
8.5779684576
 20
-14.8678315713
 10
8.5692768731
 20
-14.8576452671
 10
8.5611408817
 20
-14.8474174088
 10
8.5535468159
 20
-14.8372023178
 10
8.5465066074
 20
-14.8270232962
 10
8.5400083245
 20
-14.8168570419
 10
8.5340025034
 20
-14.80668797
 10
8.5284873337
 20
-14.7965379717
 10
8.5234646259
 20
-14.7863851558
 10
8.5188903478
 20
-14.7761482648
 10
8.5147448365
 20
-14.7658144473
 10
8.5110477549
 20
-14.7553965547
 10
8.50781406
 20
-14.7448518833
 10
8.5050339882
 20
-14.7341414018
 10
8.502717303
 20
-14.7233041415
 10
8.5009082517
 20
-14.7124144915
 10
8.4996215833
 20
-14.7014972484
 10
8.4988425487
 20
-14.6905276157
 10
8.4985711481
 20
-14.6795055934
  0
LWPOLYLINE
  5
257
100
AcDbEntity
  8
RACCORDO
100
AcDbPolyline
 62
250
  6
CONTINUOUS
 90
3
 70
0
 10
9.1024704672
 20
-15.0397929133
 10
9.0915905517
 20
-15.039941278
 10
9.070032489
 20
-15.0403623444
  0
LINE
  5
258
100
AcDbEntity
  8
RACCORDO
100
AcDbLine
 62
250
  6
CONTINUOUS
 10
-10.25
 20
-16.4586033555
 11
-9.7494736654
 21
-16.4586033555
  0
LINE
  5
259
100
AcDbEntity
  8
RACCORDO
100
AcDbLine
 62
250
  6
CONTINUOUS
 10
9.7494736654
 20
-16.4586033555
 11
10.25
 21
-16.4586033555
  0
LINE
  5
25A
100
AcDbEntity
  8
0
100
AcDbLine
 62
250
  6
CONTINUOUS
 10
9.7494736654
 20
-16.4586033555
 11
-9.7494736654
 21
-16.4586033555
  0
LINE
  5
25B
100
AcDbEntity
  8
RACCORDO
100
AcDbLine
 62
250
  6
CONTINUOUS
 10
-10.25
 20
-16.2875932838
 11
-9.75
 21
-16.2875932838
  0
LINE
  5
25C
100
AcDbEntity
  8
RACCORDO
100
AcDbLine
 62
250
  6
CONTINUOUS
 10
9.75
 20
-16.2875932838
 11
10.25
 21
-16.2875932838
  0
LINE
  5
25D
100
AcDbEntity
  8
0
100
AcDbLine
 62
250
  6
CONTINUOUS
 10
9.75
 20
-16.2875932838
 11
-9.75
 21
-16.2875932838
  0
LINE
  5
25E
100
AcDbEntity
  8
RACCORDO
100
AcDbLine
 62
7
  6
CONTINUOUS
 10
10.9645351961
 20
-15.75
 11
10.85
 21
-15.75
  0
LINE
  5
25F
100
AcDbEntity
  8
RACCORDO
100
AcDbLine
 62
7
  6
CONTINUOUS
 10
-10.9645351961
 20
-15.75
 11
-10.85
 21
-15.75
  0
LINE
  5
260
100
AcDbEntity
  8
DRAFT
100
AcDbLine
 62
7
  6
CONTINUOUS
 10
10.9828653412
 20
-15.75
 11
10.9645351961
 21
-15.75
  0
LINE
  5
261
100
AcDbEntity
  8
DRAFT
100
AcDbLine
 62
7
  6
CONTINUOUS
 10
-10.9828653412
 20
-15.75
 11
-10.9645351961
 21
-15.75
  0
LINE
  5
262
100
AcDbEntity
  8
RACCORDO
100
AcDbLine
 62
7
  6
CONTINUOUS
 10
-4.75
 20
-15.3
 11
4.75
 21
-15.3
  0
LINE
  5
263
100
AcDbEntity
  8
RACCORDO
100
AcDbLine
 62
250
  6
CONTINUOUS
 10
9.3292938566
 20
-15.0397929133
 11
9.1024704672
 21
-15.0397929133
  0
LINE
  5
264
100
AcDbEntity
  8
RACCORDO
100
AcDbLine
 62
250
  6
CONTINUOUS
 10
-9.1024704672
 20
-15.0397929133
 11
-9.3292938566
 21
-15.0397929133
  0
LWPOLYLINE
  5
265
100
AcDbEntity
  8
RACCORDO
100
AcDbPolyline
 62
250
  6
CONTINUOUS
 90
3
 70
0
 10
-9.0700455261
 20
-15.0403619549
 10
-9.0807866199
 20
-15.040130818
 10
-9.1024704672
 20
-15.0397929133
  0
LINE
  5
266
100
AcDbEntity
  8
DRAFT
100
AcDbLine
 62
7
  6
CONTINUOUS
 10
-10.6
 20
-14.7221944518
 11
-10.1
 21
-14.7373232745
  0
LWPOLYLINE
  5
267
100
AcDbEntity
  8
RACCORDO
100
AcDbPolyline
 62
250
  6
CONTINUOUS
 90
14
 70
0
 10
-8.8432538616
 20
-13.5773927124
 10
-8.8360490969
 20
-13.5790240199
 10
-8.8266178897
 20
-13.5805767324
 10
-8.8149602402
 20
-13.58205085
 10
-8.800743357
 20
-13.583457908
 10
-8.7843000315
 20
-13.5847863711
 10
-8.7666286372
 20
-13.5860016326
 10
-8.7477531669
 20
-13.5870915072
 10
-8.727649628
 20
-13.5880681803
 10
-8.7072444161
 20
-13.5889336021
 10
-8.6869440944
 20
-13.5896779899
 10
-8.6663420999
 20
-13.5903111264
 10
-8.6451451386
 20
-13.5908643094
 10
-8.6012382924
 20
-13.5917529194
  0
LINE
  5
268
100
AcDbEntity
  8
RACCORDO
100
AcDbLine
 62
250
  6
CONTINUOUS
 10
-9.1024704672
 20
-14.8400670064
 11
-9.5840902598
 21
-14.6969203156
  0
LINE
  5
269
100
AcDbEntity
  8
RACCORDO
100
AcDbLine
 62
250
  6
CONTINUOUS
 10
-9.4363690968
 20
-14.5471258854
 11
-8.9909750246
 21
-14.6795055934
  0
LINE
  5
26A
100
AcDbEntity
  8
RACCORDO
100
AcDbLine
 62
250
  6
CONTINUOUS
 10
-9.0838071306
 20
-13.6995956504
 11
-8.9909750246
 21
-13.7271871426
  0
LINE
  5
26B
100
AcDbEntity
  8
RACCORDO
100
AcDbLine
 62
250
  6
CONTINUOUS
 10
-8.508397593
 20
-13.560628004
 11
-8.4009945665
 21
-13.5925502548
  0
LINE
  5
26C
100
AcDbEntity
  8
RACCORDO
100
AcDbLine
 62
250
  6
CONTINUOUS
 10
-8.36067643
 20
-13.4108335738
 11
-8.2468562183
 21
-13.4446631358
  0
LINE
  5
26D
100
AcDbEntity
  8
RACCORDO
100
AcDbLine
 62
7
  6
CONTINUOUS
 10
-10.9602074393
 20
17.0291416244
 11
-10.9229827449
 21
17.2797999005
  0
LWPOLYLINE
  5
26E
100
AcDbEntity
  8
RACCORDO
100
AcDbPolyline
 62
250
  6
CONTINUOUS
 90
7
 70
0
 10
-10.1067541415
 20
20.6754160497
 10
-10.1055648441
 20
20.6800049187
 10
-10.1044009895
 20
20.6855131649
 10
-10.1032625778
 20
20.6919407883
 10
-10.102149609
 20
20.6992877889
 10
-10.1010620831
 20
20.7075541667
 10
-10.1
 20
20.7167399216
  0
LINE
  5
26F
100
AcDbEntity
  8
DRAFT
100
AcDbLine
 62
7
  6
CONTINUOUS
 10
-9.5765789843
 20
11.676816664
 11
-9.6449489743
 21
11.65
  0
LINE
  5
270
100
AcDbEntity
  8
DRAFT
100
AcDbLine
 62
7
  6
CONTINUOUS
 10
-9.54364068
 20
11.6895190681
 11
-9.5765789843
 21
11.676816664
  0
LWPOLYLINE
  5
271
100
AcDbEntity
  8
DRAFT
100
AcDbPolyline
 62
7
  6
CONTINUOUS
 90
3
 70
0
 10
-9.4950979979
 20
11.7076485572
 10
-9.5111518454
 20
11.7017279036
 10
-9.54364068
 20
11.6895190681
  0
LWPOLYLINE
  5
272
100
AcDbEntity
  8
RACCORDO
100
AcDbPolyline
 62
7
  6
CONTINUOUS
 90
19
 70
0
 10
-9.3292938566
 20
11.4602070867
 10
-9.3058700183
 20
11.4686688209
 10
-9.2842996721
 20
11.4786908871
 10
-9.2645828182
 20
11.4902310196
 10
-9.2466321716
 20
11.5034326501
 10
-9.2305350173
 20
11.5179555151
 10
-9.2165532097
 20
11.5330063197
 10
-9.2048630278
 20
11.5483816479
 10
-9.1952881927
 20
11.5639185781
 10
-9.1875617227
 20
11.5789399978
 10
-9.1817883447
 20
11.5931376165
 10
-9.1778633318
 20
11.6064775236
 10
-9.1752055211
 20
11.6187568219
 10
-9.1737859129
 20
11.6297970945
 10
-9.1736335068
 20
11.6394033199
 10
-9.1742541396
 20
11.6473702465
 10
-9.17548309
 20
11.653536014
 10
-9.1774850792
 20
11.6577664644
 10
-9.1802601072
 20
11.6599329936
  0
LWPOLYLINE
  5
273
100
AcDbEntity
  8
RACCORDO
100
AcDbPolyline
 62
250
  6
CONTINUOUS
 90
9
 70
0
 10
8.36067643
 20
-13.4108335738
 10
8.3661710659
 20
-13.409978071
 10
8.3731092259
 20
-13.409167744
 10
8.3812913558
 20
-13.4084025925
 10
8.3905055397
 20
-13.4076837897
 10
8.4005811485
 20
-13.4070101625
 10
8.4114135626
 20
-13.4063781921
 10
8.4228651369
 20
-13.405788137
 10
8.4347899574
 20
-13.4052397388
  0
LWPOLYLINE
  5
274
100
AcDbEntity
  8
RACCORDO
100
AcDbPolyline
 62
250
  6
CONTINUOUS
 90
19
 70
0
 10
8.4009953754
 20
-12.757655315
 10
8.3699069267
 20
-12.7595482282
 10
8.3401652007
 20
-12.7639525046
 10
8.3117701973
 20
-12.7708681441
 10
8.2844644251
 20
-12.7806379141
 10
8.2585053756
 20
-12.7929190473
 10
8.2346655227
 20
-12.8066832415
 10
8.2132610895
 20
-12.8218134761
 10
8.193975853
 20
-12.8384267717
 10
8.1766336189
 20
-12.855845888
 10
8.1613018581
 20
-12.8737948391
 10
8.1479130997
 20
-12.8925496109
 10
8.136088737
 20
-12.9122609211
 10
8.1256322937
 20
-12.9328153294
 10
8.1167402461
 20
-12.9543262761
 10
8.1096234163
 20
-12.9772847992
 10
8.1043520782
 20
-13.0018545778
 10
8.1008559579
 20
-13.0278719328
 10
8.0991350553
 20
-13.0553368642
  0
LWPOLYLINE
  5
275
100
AcDbEntity
  8
RACCORDO
100
AcDbPolyline
 62
250
  6
CONTINUOUS
 90
19
 70
0
 10
-8.4009953754
 20
-13.742344685
 10
-8.3699069267
 20
-13.7404517718
 10
-8.3401652007
 20
-13.7360474954
 10
-8.3117701973
 20
-13.7291318559
 10
-8.2844644251
 20
-13.7193620859
 10
-8.2585053756
 20
-13.7070809527
 10
-8.2346655227
 20
-13.6933167585
 10
-8.2132610895
 20
-13.6781865239
 10
-8.193975853
 20
-13.6615732283
 10
-8.1766336189
 20
-13.644154112
 10
-8.1613018581
 20
-13.6262051609
 10
-8.1479130997
 20
-13.6074503891
 10
-8.136088737
 20
-13.5877390789
 10
-8.1256322937
 20
-13.5671846706
 10
-8.1167402461
 20
-13.5456737239
 10
-8.1096234163
 20
-13.5227152008
 10
-8.1043520782
 20
-13.4981454222
 10
-8.1008559579
 20
-13.4721280672
 10
-8.0991350553
 20
-13.4446631358
  0
LINE
  5
276
100
AcDbEntity
  8
RACCORDO
100
AcDbLine
 62
7
  6
CONTINUOUS
 10
-10.5677407521
 20
-14.6969203156
 11
-10.6
 21
-14.6986109511
  0
LINE
  5
277
100
AcDbEntity
  8
RACCORDO
100
AcDbLine
 62
250
  6
CONTINUOUS
 10
8.5702802408
 20
-13.5540496645
 11
8.5864015423
 21
-13.5532098984
  0
LINE
  5
278
100
AcDbEntity
  8
RACCORDO
100
AcDbLine
 62
250
  6
CONTINUOUS
 10
8.5864015423
 20
-13.5532098984
 11
8.6026100704
 21
-13.55250109
  0
LWPOLYLINE
  5
279
100
AcDbEntity
  8
RACCORDO
100
AcDbPolyline
 62
250
  6
CONTINUOUS
 90
19
 70
0
 10
-8.4009953087
 20
-13.5925500342
 10
-8.3851815657
 20
-13.591922486
 10
-8.3698395765
 20
-13.5898140377
 10
-8.3551002619
 20
-13.5863257368
 10
-8.3410079922
 20
-13.5815412881
 10
-8.3277339119
 20
-13.575591935
 10
-8.3155481051
 20
-13.5687142968
 10
-8.3045771185
 20
-13.5611469081
 10
-8.2947224135
 20
-13.5529980698
 10
-8.2858792483
 20
-13.5443272833
 10
-8.278098741
 20
-13.5353267361
 10
-8.271298382
 20
-13.5260423258
 10
-8.2652492246
 20
-13.5162260606
 10
-8.2599918842
 20
-13.5059412775
 10
-8.2555678619
 20
-13.4952340219
 10
-8.2519091174
 20
-13.4837460147
 10
-8.2491241165
 20
-13.4713752966
 10
-8.2473943683
 20
-13.4583198285
 10
-8.2468563352
 20
-13.4446631011
  0
LWPOLYLINE
  5
27A
100
AcDbEntity
  8
RACCORDO
100
AcDbPolyline
 62
250
  6
CONTINUOUS
 90
19
 70
0
 10
8.4009953087
 20
-12.9074499658
 10
8.3851815657
 20
-12.908077514
 10
8.3698395765
 20
-12.9101859623
 10
8.3551002619
 20
-12.9136742632
 10
8.3410079922
 20
-12.9184587119
 10
8.3277339119
 20
-12.924408065
 10
8.3155481051
 20
-12.9312857032
 10
8.3045771185
 20
-12.9388530919
 10
8.2947224135
 20
-12.9470019302
 10
8.2858792483
 20
-12.9556727167
 10
8.278098741
 20
-12.9646732639
 10
8.271298382
 20
-12.9739576742
 10
8.2652492246
 20
-12.9837739394
 10
8.2599918842
 20
-12.9940587225
 10
8.2555678619
 20
-13.0047659781
 10
8.2519091174
 20
-13.0162539853
 10
8.2491241165
 20
-13.0286247034
 10
8.2473943683
 20
-13.0416801715
 10
8.2468563352
 20
-13.0553368989
  0
LINE
  5
27B
100
AcDbEntity
  8
RACCORDO
100
AcDbLine
 62
250
  6
CONTINUOUS
 10
8.4347899574
 20
-13.4052397388
 11
8.4597362359
 21
-13.4042552019
  0
LWPOLYLINE
  5
27C
100
AcDbEntity
  8
RACCORDO
100
AcDbPolyline
 62
250
  6
CONTINUOUS
 90
10
 70
0
 10
8.8446605564
 20
-13.7372403239
 10
8.8692701447
 20
-13.7363200901
 10
8.8910674039
 20
-13.7353677122
 10
8.9109588432
 20
-13.7343739477
 10
8.9288631885
 20
-13.7333481826
 10
8.944766129
 20
-13.7322810309
 10
8.9592187449
 20
-13.7311350911
 10
8.9720716207
 20
-13.7298978963
 10
8.9827697872
 20
-13.7285819135
 10
8.9909750246
 20
-13.7271871426
  0
LWPOLYLINE
  5
27D
100
AcDbEntity
  8
0
100
AcDbPolyline
 62
7
  6
CONTINUOUS
 90
10
 70
0
 10
1.9580219671
 20
-14.2377593286
 10
1.9819285272
 20
-14.2368743607
 10
2.0042674322
 20
-14.2348112583
 10
2.025038682
 20
-14.2315700213
 10
2.0441347201
 20
-14.2270810966
 10
2.0616631031
 20
-14.2214140374
 10
2.0779465008
 20
-14.2147775034
 10
2.0930924699
 20
-14.2072410477
 10
2.1069934537
 20
-14.1987351172
 10
2.1196494523
 20
-14.1892597119
  0
LWPOLYLINE
  5
27E
100
AcDbEntity
  8
0
100
AcDbPolyline
 62
7
  6
CONTINUOUS
 90
10
 70
0
 10
0.5201244041
 20
-14.2377593286
 10
0.5440309642
 20
-14.2368743607
 10
0.5663698692
 20
-14.2348112583
 10
0.5871411191
 20
-14.2315700213
 10
0.6062371572
 20
-14.2270810966
 10
0.6237655401
 20
-14.2214140374
 10
0.6400489378
 20
-14.2147775034
 10
0.6551949069
 20
-14.2072410477
 10
0.6690958907
 20
-14.1987351172
 10
0.6817518893
 20
-14.1892597119
  0
LWPOLYLINE
  5
27F
100
AcDbEntity
  8
0
100
AcDbPolyline
 62
7
  6
CONTINUOUS
 90
10
 70
0
 10
-0.9177731588
 20
-14.2377593286
 10
-0.893866645
 20
-14.2368743629
 10
-0.8715277883
 20
-14.2348112648
 10
-0.8507565888
 20
-14.2315700342
 10
-0.8316606111
 20
-14.2270811213
 10
-0.8141322906
 20
-14.221414076
 10
-0.7978489333
 20
-14.2147775475
 10
-0.7827029749
 20
-14.2072410855
 10
-0.7688019797
 20
-14.1987351403
 10
-0.7561459479
 20
-14.1892597119
  0
LINE
  5
280
100
AcDbEntity
  8
RACCORDO
100
AcDbLine
 62
250
  6
CONTINUOUS
 10
8.6026100704
 20
-13.55250109
 11
8.6187112597
 21
-13.5519045106
  0
LINE
  5
281
100
AcDbEntity
  8
RACCORDO
100
AcDbLine
 62
250
  6
CONTINUOUS
 10
8.4597362359
 20
-13.4042552019
 11
8.485482749
 21
-13.4034154681
  0
LINE
  5
282
100
AcDbEntity
  8
RACCORDO
100
AcDbLine
 62
250
  6
CONTINUOUS
 10
8.6187112597
 20
-13.5519045106
 11
8.6346203745
 21
-13.5514086119
  0
LINE
  5
283
100
AcDbEntity
  8
RACCORDO
100
AcDbLine
 62
250
  6
CONTINUOUS
 10
8.785758769
 20
-13.7390230319
 11
8.8446605564
 21
-13.7372403239
  0
LINE
  5
284
100
AcDbEntity
  8
RACCORDO
100
AcDbLine
 62
250
  6
CONTINUOUS
 10
8.485482749
 20
-13.4034154681
 11
8.5114088338
 21
-13.4027066567
  0
LINE
  5
285
100
AcDbEntity
  8
RACCORDO
100
AcDbLine
 62
250
  6
CONTINUOUS
 10
8.6346203745
 20
-13.5514086119
 11
8.6503050865
 21
-13.5509957516
  0
LWPOLYLINE
  5
286
100
AcDbEntity
  8
0
100
AcDbPolyline
 62
7
  6
CONTINUOUS
 90
10
 70
0
 10
-3.8253803834
 20
-14.2345781393
 10
-3.802941262
 20
-14.2341164089
 10
-3.7818529733
 20
-14.2328476542
 10
-3.7621155174
 20
-14.2307718754
 10
-3.7438097108
 20
-14.2278625789
 10
-3.7268547369
 20
-14.2241462582
 10
-3.7110081464
 20
-14.2197023938
 10
-3.6961891227
 20
-14.2145574793
 10
-3.6824784824
 20
-14.2086850211
 10
-3.6698762254
 20
-14.2020850192
  0
LINE
  5
287
100
AcDbEntity
  8
RACCORDO
100
AcDbLine
 62
250
  6
CONTINUOUS
 10
8.5114088338
 20
-13.4027066567
 11
8.5499426415
 21
-13.4018516286
  0
LINE
  5
288
100
AcDbEntity
  8
RACCORDO
100
AcDbLine
 62
250
  6
CONTINUOUS
 10
8.7148970329
 20
-13.7405309912
 11
8.785758769
 21
-13.7390230319
  0
LINE
  5
289
100
AcDbEntity
  8
RACCORDO
100
AcDbLine
 62
250
  6
CONTINUOUS
 10
8.6503050865
 20
-13.5509957516
 11
8.6735894119
 21
-13.5505079742
  0
LINE
  5
28A
100
AcDbEntity
  8
RACCORDO
100
AcDbLine
 62
250
  6
CONTINUOUS
 10
8.5499426415
 20
-13.4018516286
 11
8.6001954501
 21
-13.4010222286
  0
LINE
  5
28B
100
AcDbEntity
  8
RACCORDO
100
AcDbLine
 62
250
  6
CONTINUOUS
 10
8.6735894119
 20
-13.5505079742
 11
8.6969164832
 21
-13.5501544145
  0
LINE
  5
28C
100
AcDbEntity
  8
RACCORDO
100
AcDbLine
 62
250
  6
CONTINUOUS
 10
8.633281216
 20
-13.7416662908
 11
8.7148970329
 21
-13.7405309912
  0
LWPOLYLINE
  5
28D
100
AcDbEntity
  8
RACCORDO
100
AcDbPolyline
 62
250
  6
CONTINUOUS
 90
17
 70
0
 10
8.5626918981
 20
-13.5922281698
 10
8.5928681965
 20
-13.5918719911
 10
8.6220371541
 20
-13.5913693163
 10
8.6499500606
 20
-13.5907365507
 10
8.675860785
 20
-13.59002291
 10
8.699540784
 20
-13.5892285587
 10
8.7212186009
 20
-13.5883533323
 10
8.7408337347
 20
-13.5874459528
 10
8.7581461192
 20
-13.5865257549
 10
8.7733958205
 20
-13.5855734039
 10
8.7872425359
 20
-13.5845796168
 10
8.7998663737
 20
-13.5835537236
 10
8.8110872255
 20
-13.5824863943
 10
8.821024463
 20
-13.5813403559
 10
8.8297178769
 20
-13.5801031839
 10
8.8371276764
 20
-13.5787873028
 10
8.8432538616
 20
-13.5773927124
  0
LINE
  5
28E
100
AcDbEntity
  8
RACCORDO
100
AcDbLine
 62
250
  6
CONTINUOUS
 10
8.6001954501
 20
-13.4010222286
 11
8.6498391299
 21
-13.4004638026
  0
LINE
  5
28F
100
AcDbEntity
  8
RACCORDO
100
AcDbLine
 62
250
  6
CONTINUOUS
 10
8.6969164832
 20
-13.5501544145
 11
8.720809662
 21
-13.5499209419
  0
LINE
  5
290
100
AcDbEntity
  8
RACCORDO
100
AcDbLine
 62
250
  6
CONTINUOUS
 10
8.5447709886
 20
-13.7422486071
 11
8.633281216
 21
-13.7416662908
  0
LINE
  5
291
100
AcDbEntity
  8
RACCORDO
100
AcDbLine
 62
250
  6
CONTINUOUS
 10
8.6498391299
 20
-13.4004638026
 11
8.7005316508
 21
-13.4001265133
  0
LINE
  5
292
100
AcDbEntity
  8
RACCORDO
100
AcDbLine
 62
250
  6
CONTINUOUS
 10
8.4985711481
 20
-13.5925502548
 11
8.5626918981
 21
-13.5922281698
  0
LINE
  5
293
100
AcDbEntity
  8
RACCORDO
100
AcDbLine
 62
250
  6
CONTINUOUS
 10
8.720809662
 20
-13.5499209419
 11
8.7459170648
 21
-13.5498102397
  0
LINE
  5
294
100
AcDbEntity
  8
DRAFT
100
AcDbLine
 62
7
  6
CONTINUOUS
 10
9.9496573543
 20
-14.8529366156
 11
9.75
 21
-14.8529366156
  0
LINE
  5
295
100
AcDbEntity
  8
DRAFT
100
AcDbLine
 62
7
  6
CONTINUOUS
 10
-9.75
 20
-14.8529366156
 11
-9.9496573543
 21
-14.8529366156
  0
LINE
  5
296
100
AcDbEntity
  8
DRAFT
100
AcDbLine
 62
7
  6
CONTINUOUS
 10
9.75
 20
-14.85
 11
9.6449489743
 21
-14.85
  0
LINE
  5
297
100
AcDbEntity
  8
DRAFT
100
AcDbLine
 62
7
  6
CONTINUOUS
 10
-9.6449489743
 20
-14.85
 11
-9.75
 21
-14.85
  0
LINE
  5
298
100
AcDbEntity
  8
RACCORDO
100
AcDbLine
 62
250
  6
CONTINUOUS
 10
-9.1802601072
 20
-14.8400670064
 11
-9.1024704672
 21
-14.8400670064
  0
LINE
  5
299
100
AcDbEntity
  8
RACCORDO
100
AcDbLine
 62
250
  6
CONTINUOUS
 10
9.1024704672
 20
-14.8400670064
 11
9.1802601072
 21
-14.8400670064
  0
LINE
  5
29A
100
AcDbEntity
  8
DRAFT
100
AcDbLine
 62
7
  6
CONTINUOUS
 10
-9.4950979979
 20
-14.7923514428
 11
-9.3049020021
 21
-14.7923514428
  0
LINE
  5
29B
100
AcDbEntity
  8
DRAFT
100
AcDbLine
 62
7
  6
CONTINUOUS
 10
9.3049020021
 20
-14.7923514428
 11
9.4950979979
 21
-14.7923514428
  0
LINE
  5
29C
100
AcDbEntity
  8
RACCORDO
100
AcDbLine
 62
250
  6
CONTINUOUS
 10
10.5677407521
 20
-14.6969203156
 11
9.5840902598
 21
-14.6969203156
  0
LINE
  5
29D
100
AcDbEntity
  8
RACCORDO
100
AcDbLine
 62
250
  6
CONTINUOUS
 10
-9.5840902598
 20
-14.6969203156
 11
-10.5677407521
 21
-14.6969203156
  0
LINE
  5
29E
100
AcDbEntity
  8
RACCORDO
100
AcDbLine
 62
250
  6
CONTINUOUS
 10
-8.9909750246
 20
-14.6795055803
 11
-8.4985711481
 21
-14.6795055934
  0
LINE
  5
29F
100
AcDbEntity
  8
RACCORDO
100
AcDbLine
 62
250
  6
CONTINUOUS
 10
8.9909750246
 20
-14.6795055808
 11
8.4985711481
 21
-14.6795055934
  0
LINE
  5
2A0
100
AcDbEntity
  8
0
100
AcDbLine
 62
7
  6
CONTINUOUS
 10
4.3852695391
 20
-14.4
 11
4.1053248808
 21
-14.4
  0
LINE
  5
2A1
100
AcDbEntity
  8
0
100
AcDbLine
 62
7
  6
CONTINUOUS
 10
2.9823651955
 20
-14.4
 11
2.7119642422
 21
-14.4
  0
LINE
  5
2A2
100
AcDbEntity
  8
0
100
AcDbLine
 62
7
  6
CONTINUOUS
 10
-2.1107192829
 20
-14.4
 11
-2.3747579947
 21
-14.4
  0
LINE
  5
2A3
100
AcDbEntity
  8
RACCORDO
100
AcDbLine
 62
250
  6
CONTINUOUS
 10
9.4781437817
 20
-14.2974685017
 11
10.1886751346
 21
-14.2974685017
  0
LINE
  5
2A4
100
AcDbEntity
  8
RACCORDO
100
AcDbLine
 62
250
  6
CONTINUOUS
 10
-9.4781437817
 20
-14.2974685017
 11
-10.1886751346
 21
-14.2974685017
  0
LINE
  5
2A5
100
AcDbEntity
  8
0
100
AcDbLine
 62
7
  6
CONTINUOUS
 10
-4.38526976
 20
-13.8305670813
 11
-4.1244122118
 21
-13.8305670813
  0
LINE
  5
2A6
100
AcDbEntity
  8
0
100
AcDbLine
 62
7
  6
CONTINUOUS
 10
3.9430840895
 20
-13.8178422898
 11
3.1446059868
 21
-13.8178422898
  0
LINE
  5
2A7
100
AcDbEntity
  8
RACCORDO
100
AcDbLine
 62
250
  6
CONTINUOUS
 10
8.4009951765
 20
-13.742344685
 11
8.5447709886
 21
-13.7422486071
  0
LINE
  5
2A8
100
AcDbEntity
  8
0
100
AcDbLine
 62
7
  6
CONTINUOUS
 10
3.211410825
 20
-13.6015214175
 11
3.8794603035
 21
-13.6015214175
  0
LINE
  5
2A9
100
AcDbEntity
  8
RACCORDO
100
AcDbLine
 62
250
  6
CONTINUOUS
 10
8.4009945665
 20
-13.5925502548
 11
8.4985711481
 21
-13.5925502548
  0
LINE
  5
2AA
100
AcDbEntity
  8
RACCORDO
100
AcDbLine
 62
250
  6
CONTINUOUS
 10
8.7459170648
 20
-13.5498102397
 11
8.9360860759
 21
-13.549801188
  0
LINE
  5
2AB
100
AcDbEntity
  8
RACCORDO
100
AcDbLine
 62
250
  6
CONTINUOUS
 10
8.0991350553
 20
-13.4446631358
 11
8.2468562183
 21
-13.4446631358
  0
LINE
  5
2AC
100
AcDbEntity
  8
RACCORDO
100
AcDbLine
 62
250
  6
CONTINUOUS
 10
-8.0991350553
 20
-13.4446631358
 11
-8.2468562183
 21
-13.4446631358
  0
LINE
  5
2AD
100
AcDbEntity
  8
RACCORDO
100
AcDbLine
 62
250
  6
CONTINUOUS
 10
8.7005316508
 20
-13.4001265133
 11
9.1339368607
 21
-13.4000067578
  0
LINE
  5
2AE
100
AcDbEntity
  8
RACCORDO
100
AcDbLine
 62
250
  6
CONTINUOUS
 10
-8.9360860759
 20
-13.549801188
 11
-8.7379143988
 21
-13.5498402056
  0
LINE
  5
2AF
100
AcDbEntity
  8
RACCORDO
100
AcDbLine
 62
250
  6
CONTINUOUS
 10
-8.5262407113
 20
-13.5924737937
 11
-8.4009945665
 21
-13.5925502548
  0
LINE
  5
2B0
100
AcDbEntity
  8
RACCORDO
100
AcDbLine
 62
250
  6
CONTINUOUS
 10
-9.1339368607
 20
-13.4000067578
 11
-8.7024660268
 21
-13.4001265594
  0
LINE
  5
2B1
100
AcDbEntity
  8
RACCORDO
100
AcDbLine
 62
250
  6
CONTINUOUS
 10
-8.5756031563
 20
-13.7421098719
 11
-8.4009953754
 21
-13.742344685
  0
LWPOLYLINE
  5
2B2
100
AcDbEntity
  8
RACCORDO
100
AcDbPolyline
 62
250
  6
CONTINUOUS
 90
50
 70
0
 10
9.1024704672
 20
-14.8400670064
 10
9.0976415822
 20
-14.8400341851
 10
9.0929199563
 20
-14.8398413884
 10
9.0883096738
 20
-14.8394921716
 10
9.0838178929
 20
-14.8389880688
 10
9.0794450317
 20
-14.838334754
 10
9.0751846602
 20
-14.8375428279
 10
9.0710509812
 20
-14.8366210363
 10
9.0670356473
 20
-14.8355706014
 10
9.0630986487
 20
-14.8343885228
 10
9.0592419208
 20
-14.833077598
 10
9.055469984
 20
-14.8316383862
 10
9.0517483646
 20
-14.8300582634
 10
9.0480785353
 20
-14.8283359347
 10
9.0444678168
 20
-14.8264699402
 10
9.0408930133
 20
-14.8244412767
 10
9.03735326
 20
-14.8222426984
 10
9.033862269
 20
-14.8198732884
 10
9.0304211087
 20
-14.817319581
 10
9.0270281293
 20
-14.8145692157
 10
9.0237017067
 20
-14.8116249855
 10
9.0204728957
 20
-14.8084973862
 10
9.0173421887
 20
-14.8051746594
 10
9.014325412
 20
-14.8016649012
 10
9.0114713241
 20
-14.7980162562
 10
9.0087837491
 20
-14.7942279405
 10
9.0062664936
 20
-14.7903096229
 10
9.0039576617
 20
-14.7863366796
 10
9.0018650608
 20
-14.782335437
 10
8.9999733624
 20
-14.7783006577
 10
8.9982774608
 20
-14.7742672873
 10
8.9967753257
 20
-14.7702543878
 10
8.995456166
 20
-14.7662631265
 10
8.9942997878
 20
-14.7623019678
 10
8.9932994157
 20
-14.7583762817
 10
8.9924490627
 20
-14.7544964292
 10
8.9917295441
 20
-14.7506774645
 10
8.9911342083
 20
-14.7469281743
 10
8.9906556593
 20
-14.7432526951
 10
8.9902734201
 20
-14.7396584105
 10
8.9899804815
 20
-14.7361545708
 10
8.989770167
 20
-14.7327418076
 10
8.9896235905
 20
-14.7294135219
 10
8.9895342411
 20
-14.7261739929
 10
8.9894972553
 20
-14.7230258166
 10
8.9894980615
 20
-14.7199588007
 10
8.9895313215
 20
-14.7169801931
 10
8.9895930796
 20
-14.7140874932
 10
8.9896733165
 20
-14.7112549259
 10
8.9897691815
 20
-14.7084873236
  0
LINE
  5
2B3
100
AcDbEntity
  8
RACCORDO
100
AcDbLine
 62
250
  6
CONTINUOUS
 10
-8.7024660268
 20
-13.4001265594
 11
-8.6548521862
 21
-13.4004180682
  0
LINE
  5
2B4
100
AcDbEntity
  8
RACCORDO
100
AcDbLine
 62
250
  6
CONTINUOUS
 10
-8.7379143988
 20
-13.5498402056
 11
-8.706750727
 21
-13.550043403
  0
LINE
  5
2B5
100
AcDbEntity
  8
RACCORDO
100
AcDbLine
 62
250
  6
CONTINUOUS
 10
-8.6452474717
 20
-13.7415473012
 11
-8.5756031563
 21
-13.7421098719
  0
LINE
  5
2B6
100
AcDbEntity
  8
RACCORDO
100
AcDbLine
 62
250
  6
CONTINUOUS
 10
-8.6548521862
 20
-13.4004180682
 11
-8.5923882928
 21
-13.4011304178
  0
LWPOLYLINE
  5
2B7
100
AcDbEntity
  8
RACCORDO
100
AcDbPolyline
 62
250
  6
CONTINUOUS
 90
3
 70
0
 10
-8.6012382924
 20
-13.5917529194
 10
-8.5776911599
 20
-13.5920754357
 10
-8.5262407113
 20
-13.5924737937
  0
LINE
  5
2B8
100
AcDbEntity
  8
RACCORDO
100
AcDbLine
 62
250
  6
CONTINUOUS
 10
-8.706750727
 20
-13.550043403
 11
-8.6785421541
 21
-13.5504232603
  0
LINE
  5
2B9
100
AcDbEntity
  8
RACCORDO
100
AcDbLine
 62
250
  6
CONTINUOUS
 10
-8.7079625638
 20
-13.7406587915
 11
-8.6452474717
 21
-13.7415473012
  0
LINE
  5
2BA
100
AcDbEntity
  8
RACCORDO
100
AcDbLine
 62
250
  6
CONTINUOUS
 10
-8.5923882928
 20
-13.4011304178
 11
-8.5400479146
 21
-13.4020493955
  0
LINE
  5
2BB
100
AcDbEntity
  8
RACCORDO
100
AcDbLine
 62
250
  6
CONTINUOUS
 10
-8.6785421541
 20
-13.5504232603
 11
-8.6532260568
 21
-13.5509248652
  0
LINE
  5
2BC
100
AcDbEntity
  8
RACCORDO
100
AcDbLine
 62
250
  6
CONTINUOUS
 10
-8.7674556484
 20
-13.739472482
 11
-8.7079625638
 21
-13.7406587915
  0
LINE
  5
2BD
100
AcDbEntity
  8
RACCORDO
100
AcDbLine
 62
250
  6
CONTINUOUS
 10
-8.5400479146
 20
-13.4020493955
 11
-8.497080157
 21
-13.4030818261
  0
LINE
  5
2BE
100
AcDbEntity
  8
RACCORDO
100
AcDbLine
 62
250
  6
CONTINUOUS
 10
-8.6532260568
 20
-13.5509248652
 11
-8.630737296
 21
-13.5515222979
  0
LINE
  5
2BF
100
AcDbEntity
  8
RACCORDO
100
AcDbLine
 62
250
  6
CONTINUOUS
 10
-8.497080157
 20
-13.4030818261
 11
-8.4731084555
 21
-13.4038001735
  0
LWPOLYLINE
  5
2C0
100
AcDbEntity
  8
0
100
AcDbPolyline
 62
7
  6
CONTINUOUS
 90
10
 70
0
 10
-0.9177731588
 20
-14.4381742759
 10
-0.9644372639
 20
-14.4366713519
 10
-1.0078303479
 20
-14.4334360872
 10
-1.0479524109
 20
-14.4284684817
 10
-1.0845938128
 20
-14.421593212
 10
-1.1179641937
 20
-14.4129856016
 10
-1.1486924732
 20
-14.4031716207
 10
-1.1769882911
 20
-14.3923265928
 10
-1.2026420077
 20
-14.3802751944
 10
-1.2256536228
 20
-14.3670174257
  0
LWPOLYLINE
  5
2C1
100
AcDbEntity
  8
0
100
AcDbPolyline
 62
7
  6
CONTINUOUS
 90
10
 70
0
 10
0.5201244041
 20
-14.4381742759
 10
0.4734603777
 20
-14.4366713516
 10
0.4300673575
 20
-14.4334360863
 10
0.3899453435
 20
-14.4284684799
 10
0.3533039721
 20
-14.4215932086
 10
0.3199336069
 20
-14.4129855963
 10
0.2892053394
 20
-14.4031716147
 10
0.2609095333
 20
-14.3923265877
 10
0.235255825
 20
-14.3802751913
 10
0.2122442143
 20
-14.3670174257
  0
LWPOLYLINE
  5
2C2
100
AcDbEntity
  8
0
100
AcDbPolyline
 62
7
  6
CONTINUOUS
 90
10
 70
0
 10
1.9580219671
 20
-14.4381742759
 10
1.9113579407
 20
-14.4366713516
 10
1.8679649205
 20
-14.4334360863
 10
1.8278429065
 20
-14.4284684799
 10
1.7912015351
 20
-14.4215932086
 10
1.7578311699
 20
-14.4129855963
 10
1.7271029024
 20
-14.4031716147
 10
1.6988070963
 20
-14.3923265877
 10
1.673153388
 20
-14.3802751913
 10
1.6501417773
 20
-14.3670174257
  0
LINE
  5
2C3
100
AcDbEntity
  8
RACCORDO
100
AcDbLine
 62
250
  6
CONTINUOUS
 10
-8.630737296
 20
-13.5515222979
 11
-8.6109442038
 21
-13.5521811138
  0
LINE
  5
2C4
100
AcDbEntity
  8
RACCORDO
100
AcDbLine
 62
250
  6
CONTINUOUS
 10
-8.4731084555
 20
-13.4038001735
 11
-8.4523482267
 21
-13.4045270335
  0
LWPOLYLINE
  5
2C5
100
AcDbEntity
  8
0
100
AcDbPolyline
 62
7
  6
CONTINUOUS
 90
10
 70
0
 10
-3.8158368155
 20
-14.4349930844
 10
-3.8931624578
 20
-14.4317672548
 10
-3.9628888104
 20
-14.4250270221
 10
-4.0250158733
 20
-14.4147723865
 10
-4.0788092389
 20
-14.4006620051
 10
-4.1250033148
 20
-14.3830372208
 10
-4.165801324
 20
-14.3629220615
 10
-4.2019376741
 20
-14.3406578699
 10
-4.2326779576
 20
-14.3159033032
 10
-4.2580221743
 20
-14.2886583615
  0
LINE
  5
2C6
100
AcDbEntity
  8
RACCORDO
100
AcDbLine
 62
250
  6
CONTINUOUS
 10
-8.6109442038
 20
-13.5521811138
 11
-8.5936442193
 21
-13.5528762556
  0
LINE
  5
2C7
100
AcDbEntity
  8
RACCORDO
100
AcDbLine
 62
250
  6
CONTINUOUS
 10
-8.4523482267
 20
-13.4045270335
 11
-8.4343018277
 21
-13.4052598909
  0
LINE
  5
2C8
100
AcDbEntity
  8
RACCORDO
100
AcDbLine
 62
250
  6
CONTINUOUS
 10
-8.4343018277
 20
-13.4052598909
 11
-8.4186325435
 21
-13.4059980957
  0
LWPOLYLINE
  5
2C9
100
AcDbEntity
  8
RACCORDO
100
AcDbPolyline
 62
250
  6
CONTINUOUS
 90
3
 70
0
 10
-8.5936442193
 20
-13.5528762556
 10
-8.5786676088
 20
-13.5535945967
 10
-8.5719303441
 20
-13.5539566914
  0
LINE
  5
2CA
100
AcDbEntity
  8
RACCORDO
100
AcDbLine
 62
7
  6
CONTINUOUS
 10
10.6
 20
-14.6986109511
 11
10.5677407521
 21
-14.6969203156
  0
LWPOLYLINE
  5
2CB
100
AcDbEntity
  8
RACCORDO
100
AcDbPolyline
 62
250
  6
CONTINUOUS
 90
12
 70
0
 10
-8.4186325435
 20
-13.4059980957
 10
-8.404977696
 20
-13.4067434263
 10
-8.3988103954
 20
-13.4071212655
 10
-8.3930570082
 20
-13.4075029417
 10
-8.3877165753
 20
-13.4078887803
 10
-8.3827333524
 20
-13.4082818967
 10
-8.3781192614
 20
-13.4086820732
 10
-8.3738852515
 20
-13.4090895275
 10
-8.3700009473
 20
-13.4095080279
 10
-8.3664796919
 20
-13.4099388305
 10
-8.3633628199
 20
-13.4103806791
 10
-8.36067643
 20
-13.4108335738
  0
LWPOLYLINE
  5
2CC
100
AcDbEntity
  8
RACCORDO
100
AcDbPolyline
 62
250
  6
CONTINUOUS
 90
17
 70
0
 10
-8.5719303441
 20
-13.5539566914
 10
-8.5598547226
 20
-13.554687562
 10
-8.5544060782
 20
-13.5550543187
 10
-8.5493550257
 20
-13.5554224082
 10
-8.5446201639
 20
-13.555792522
 10
-8.5401930637
 20
-13.556164179
 10
-8.5360821542
 20
-13.5565378603
 10
-8.5322313214
 20
-13.5569157007
 10
-8.5286311307
 20
-13.5572973701
 10
-8.5252910167
 20
-13.5576831986
 10
-8.5221831693
 20
-13.5580763124
 10
-8.5192968544
 20
-13.5584765029
 10
-8.516642806
 20
-13.5588839787
 10
-8.5142254165
 20
-13.5593024915
 10
-8.5120461498
 20
-13.5597332919
 10
-8.510103542
 20
-13.5601751294
 10
-8.508397593
 20
-13.560628004
  0
LWPOLYLINE
  5
2CD
100
AcDbEntity
  8
RACCORDO
100
AcDbPolyline
 62
250
  6
CONTINUOUS
 90
13
 70
0
 10
-8.508397593
 20
-12.939371996
 10
-8.489226245
 20
-12.9408154184
 10
-8.4703791447
 20
-12.9447679219
 10
-8.4521750557
 20
-12.9511626573
 10
-8.4349218663
 20
-12.9598914696
 10
-8.4189113821
 20
-12.9708067271
 10
-8.4044143905
 20
-12.9837238187
 10
-8.3916760813
 20
-12.9984242756
 10
-8.3809118991
 20
-13.0146594672
 10
-8.3723039001
 20
-13.0321548053
 10
-8.3659976726
 20
-13.0506143888
 10
-8.3620998745
 20
-13.0697260083
 10
-8.36067643
 20
-13.0891664262
  0
LWPOLYLINE
  5
2CE
100
AcDbEntity
  8
RACCORDO
100
AcDbPolyline
 62
250
  6
CONTINUOUS
 90
10
 70
0
 10
-8.9909750246
 20
-13.7271869658
 10
-8.9811399984
 20
-13.7288185736
 10
-8.9675804623
 20
-13.7303714721
 10
-8.9505555708
 20
-13.7318456612
 10
-8.9302278237
 20
-13.7332526157
 10
-8.9069673762
 20
-13.7345808609
 10
-8.8815104166
 20
-13.7357959721
 10
-8.8543917225
 20
-13.7368858516
 10
-8.8259277149
 20
-13.7378625971
 10
-8.7674556484
 20
-13.739472482
  0
LWPOLYLINE
  5
2CF
100
AcDbEntity
  8
0
100
AcDbPolyline
 62
7
  6
CONTINUOUS
 90
10
 70
0
 10
-3.5963347539
 20
-13.2038726866
 10
-3.5714960969
 20
-13.2089558208
 10
-3.5479530383
 20
-13.2146731559
 10
-3.5257055782
 20
-13.2210246921
 10
-3.5047808803
 20
-13.2280484663
 10
-3.4851517808
 20
-13.2357064414
 10
-3.4667367888
 20
-13.2438845067
 10
-3.4495087407
 20
-13.2525446251
 10
-3.4334948
 20
-13.2617248336
 10
-3.4186949668
 20
-13.2714251322
  0
LWPOLYLINE
  5
2D0
100
AcDbEntity
  8
0
100
AcDbPolyline
 62
7
  6
CONTINUOUS
 90
10
 70
0
 10
-3.7490318403
 20
-13.3311203271
 10
-3.7698504193
 20
-13.3267397134
 10
-3.7914542959
 20
-13.3228092382
 10
-3.8138434702
 20
-13.3193289013
 10
-3.8371104685
 20
-13.3162634357
 10
-3.8611627644
 20
-13.3136481084
 10
-3.8857227791
 20
-13.3115887213
 10
-3.9106979864
 20
-13.3101205414
 10
-3.9361809126
 20
-13.3092083017
 10
-3.9621715575
 20
-13.308852002
  0
LWPOLYLINE
  5
2D1
100
AcDbEntity
  8
DRAFT
100
AcDbPolyline
 62
7
  6
CONTINUOUS
 90
3
 70
0
 10
-9.4950979979
 20
-11.7076485572
 10
-9.5273327394
 20
-11.6956847406
 10
-9.54364068
 20
-11.6895190681
  0
LINE
  5
2D2
100
AcDbEntity
  8
DRAFT
100
AcDbLine
 62
7
  6
CONTINUOUS
 10
-9.54364068
 20
-11.6895190681
 11
-9.5765789843
 21
-11.676816664
  0
LINE
  5
2D3
100
AcDbEntity
  8
DRAFT
100
AcDbLine
 62
7
  6
CONTINUOUS
 10
-9.5765789843
 20
-11.676816664
 11
-9.6449489743
 21
-11.65
  0
LWPOLYLINE
  5
2D4
100
AcDbEntity
  8
0
100
AcDbPolyline
 62
7
  6
CONTINUOUS
 90
10
 70
0
 10
-3.971715122
 20
-14.2059474288
 10
-3.9598494712
 20
-14.2115581705
 10
-3.9469451088
 20
-14.2165940255
 10
-3.9330020348
 20
-14.2210549939
 10
-3.9180998888
 20
-14.2249844106
 10
-3.9021590313
 20
-14.2283389407
 10
-3.8849405438
 20
-14.2309885791
 10
-3.8663647869
 20
-14.2328899908
 10
-3.8465114001
 20
-14.2340865109
 10
-3.8253803834
 20
-14.2345781393
  0
LWPOLYLINE
  5
2D5
100
AcDbEntity
  8
0
100
AcDbPolyline
 62
7
  6
CONTINUOUS
 90
10
 70
0
 10
-3.7617565975
 20
-13.0893498719
 10
-3.7433541159
 20
-13.0846258583
 10
-3.7258073015
 20
-13.0790937387
 10
-3.7091161542
 20
-13.0727535133
 10
-3.6933835236
 20
-13.0656324555
 10
-3.6785065602
 20
-13.0577032917
 10
-3.6641767153
 20
-13.0488842013
 10
-3.6502911396
 20
-13.0391479107
 10
-3.6369526824
 20
-13.0285216934
 10
-3.6241613438
 20
-13.0170055495
  0
LINE
  5
2D6
100
AcDbEntity
  8
RACCORDO
100
AcDbLine
 62
7
  6
CONTINUOUS
 10
10.6
 20
-11.8013890489
 11
10.5677407521
 21
-11.8030796844
  0
LWPOLYLINE
  5
2D7
100
AcDbEntity
  8
0
100
AcDbPolyline
 62
7
  6
CONTINUOUS
 90
10
 70
0
 10
1.9612030193
 20
-12.2622406542
 10
1.9373300078
 20
-12.2632381664
 10
1.9149556104
 20
-12.2654394544
 10
1.8940798271
 20
-12.2688445182
 10
1.8748698708
 20
-12.2735057422
 10
1.8571585286
 20
-12.279370742
 10
1.840444162
 20
-12.2862823645
 10
1.8245595582
 20
-12.2941882254
 10
1.8096719301
 20
-12.3031407091
 10
1.7957812777
 20
-12.3131398155
  0
LWPOLYLINE
  5
2D8
100
AcDbEntity
  8
0
100
AcDbPolyline
 62
7
  6
CONTINUOUS
 90
10
 70
0
 10
0.5233054563
 20
-12.2622406542
 10
0.4994324448
 20
-12.2632381664
 10
0.4770580474
 20
-12.2654394544
 10
0.4561822641
 20
-12.2688445182
 10
0.4369723078
 20
-12.2735057422
 10
0.4192609656
 20
-12.279370742
 10
0.402546599
 20
-12.2862823645
 10
0.3866619953
 20
-12.2941882254
 10
0.3717743672
 20
-12.3031407091
 10
0.3578837147
 20
-12.3131398155
  0
LWPOLYLINE
  5
2D9
100
AcDbEntity
  8
0
100
AcDbPolyline
 62
7
  6
CONTINUOUS
 90
10
 70
0
 10
-0.9145921066
 20
-12.2622406542
 10
-0.9384652503
 20
-12.2632381744
 10
-0.9608397475
 20
-12.2654394693
 10
-0.9817155983
 20
-12.2688445388
 10
-1.0009255888
 20
-12.2735057709
 10
-1.0186369329
 20
-12.2793707776
 10
-1.0353512719
 20
-12.2862823951
 10
-1.0512358195
 20
-12.2941882357
 10
-1.0661233619
 20
-12.303140687
 10
-1.0800138992
 20
-12.3131397493
  0
LWPOLYLINE
  5
2DA
100
AcDbEntity
  8
RACCORDO
100
AcDbPolyline
 62
250
  6
CONTINUOUS
 90
10
 70
0
 10
-8.8446605564
 20
-12.7627596761
 10
-8.8692701447
 20
-12.7636799099
 10
-8.8910674039
 20
-12.7646322878
 10
-8.9109588432
 20
-12.7656260523
 10
-8.9288631885
 20
-12.7666518174
 10
-8.944766129
 20
-12.7677189691
 10
-8.9592187449
 20
-12.7688649089
 10
-8.9720716207
 20
-12.7701021037
 10
-8.9827697872
 20
-12.7714180865
 10
-8.9909750246
 20
-12.7728128574
  0
LINE
  5
2DB
100
AcDbEntity
  8
DRAFT
100
AcDbLine
 62
7
  6
CONTINUOUS
 10
-10.6
 20
-11.7778055482
 11
-10.1
 21
-11.7626767255
  0
LWPOLYLINE
  5
2DC
100
AcDbEntity
  8
0
100
AcDbPolyline
 62
7
  6
CONTINUOUS
 90
10
 70
0
 10
-3.8062932476
 20
-12.2622406542
 10
-3.82609
 20
-12.2628218346
 10
-3.8449314121
 20
-12.2641673474
 10
-3.862817484
 20
-12.2662771928
 10
-3.8796535411
 20
-12.2691859889
 10
-3.895534258
 20
-12.2728591176
 10
-3.9107436585
 20
-12.277192724
 10
-3.9253764174
 20
-12.2821521897
 10
-3.93933786
 20
-12.287772133
 10
-3.9526279862
 20
-12.2940525541
  0
LINE
  5
2DD
100
AcDbEntity
  8
RACCORDO
100
AcDbLine
 62
250
  6
CONTINUOUS
 10
-8.785758769
 20
-12.7609769681
 11
-8.8446605564
 21
-12.7627596761
  0
LWPOLYLINE
  5
2DE
100
AcDbEntity
  8
RACCORDO
100
AcDbPolyline
 62
250
  6
CONTINUOUS
 90
56
 70
0
 10
-9.0487711985
 20
-11.4589914257
 10
-9.0381998154
 20
-11.458695213
 10
-9.027681266
 20
-11.458456662
 10
-9.0171883508
 20
-11.458265736
 10
-9.0065978489
 20
-11.4581813957
 10
-8.9959124483
 20
-11.4582030961
 10
-8.9851294611
 20
-11.4583313822
 10
-8.9741176025
 20
-11.4586268495
 10
-8.9628765751
 20
-11.4590821176
 10
-8.9514066762
 20
-11.4597045669
 10
-8.9395775131
 20
-11.4605769342
 10
-8.9273712277
 20
-11.4616898821
 10
-8.914805678
 20
-11.463052748
 10
-8.9018040458
 20
-11.4647762805
 10
-8.8883242001
 20
-11.4668594405
 10
-8.8744082718
 20
-11.4693032672
 10
-8.8601058353
 20
-11.4722216266
 10
-8.8453610429
 20
-11.4756338245
 10
-8.8302297422
 20
-11.4795205551
 10
-8.8149290506
 20
-11.4839377679
 10
-8.7994226382
 20
-11.4889234852
 10
-8.7837468348
 20
-11.4944396846
 10
-8.7682277481
 20
-11.5004282485
 10
-8.7529183348
 20
-11.5068958823
 10
-8.7377656381
 20
-11.5138358806
 10
-8.7229368949
 20
-11.5211700096
 10
-8.7084633441
 20
-11.5288946402
 10
-8.6943137467
 20
-11.5370134013
 10
-8.680561623
 20
-11.5454589465
 10
-8.667200088
 20
-11.5542438942
 10
-8.6542360265
 20
-11.5633556259
 10
-8.6417636133
 20
-11.5726889389
 10
-8.6297947452
 20
-11.5822444392
 10
-8.6183175254
 20
-11.5920215207
 10
-8.6073904383
 20
-11.6019131625
 10
-8.5970311586
 20
-11.6119080263
 10
-8.5872220115
 20
-11.6220174504
 10
-8.5779684576
 20
-11.6321684287
 10
-8.5692768731
 20
-11.6423547329
 10
-8.5611408817
 20
-11.6525825912
 10
-8.5535468159
 20
-11.6627976822
 10
-8.5465066074
 20
-11.6729767038
 10
-8.5400083245
 20
-11.6831429581
 10
-8.5340025034
 20
-11.69331203
 10
-8.5284873337
 20
-11.7034620283
 10
-8.5234646259
 20
-11.7136148442
 10
-8.5188903478
 20
-11.7238517352
 10
-8.5147448365
 20
-11.7341855527
 10
-8.5110477549
 20
-11.7446034453
 10
-8.50781406
 20
-11.7551481167
 10
-8.5050339882
 20
-11.7658585982
 10
-8.502717303
 20
-11.7766958585
 10
-8.5009082517
 20
-11.7875855085
 10
-8.4996215833
 20
-11.7985027516
 10
-8.4988425487
 20
-11.8094723843
 10
-8.4985711481
 20
-11.8204944066
  0
LWPOLYLINE
  5
2DF
100
AcDbEntity
  8
RACCORDO
100
AcDbPolyline
 62
250
  6
CONTINUOUS
 90
9
 70
0
 10
-8.520071289
 20
-13.0975064496
 10
-8.4919129271
 20
-13.0967711109
 10
-8.4654027177
 20
-13.0959425861
 10
-8.4407960305
 20
-13.0950153311
 10
-8.4185734479
 20
-13.0939948899
 10
-8.3991029406
 20
-13.0928980767
 10
-8.3827397491
 20
-13.0917304961
 10
-8.3698232988
 20
-13.0904865433
 10
-8.36067643
 20
-13.0891662185
  0
LINE
  5
2E0
100
AcDbEntity
  8
RACCORDO
100
AcDbLine
 62
250
  6
CONTINUOUS
 10
-8.7148970329
 20
-12.7594690088
 11
-8.785758769
 21
-12.7609769681
  0
LINE
  5
2E1
100
AcDbEntity
  8
RACCORDO
100
AcDbLine
 62
250
  6
CONTINUOUS
 10
-8.5812134553
 20
-13.0986986603
 11
-8.520071289
 21
-13.0975064496
  0
LWPOLYLINE
  5
2E2
100
AcDbEntity
  8
RACCORDO
100
AcDbPolyline
 62
250
  6
CONTINUOUS
 90
3
 70
0
 10
-9.1024704672
 20
-11.4602070867
 10
-9.0915905517
 20
-11.460058722
 10
-9.070032489
 20
-11.4596376556
  0
LINE
  5
2E3
100
AcDbEntity
  8
RACCORDO
100
AcDbLine
 62
250
  6
CONTINUOUS
 10
-8.633281216
 20
-12.7583337092
 11
-8.7148970329
 21
-12.7594690088
  0
LWPOLYLINE
  5
2E4
100
AcDbEntity
  8
RACCORDO
100
AcDbPolyline
 62
250
  6
CONTINUOUS
 90
17
 70
0
 10
-8.5626918981
 20
-12.9077718302
 10
-8.5928681965
 20
-12.9081280089
 10
-8.6220371541
 20
-12.9086306837
 10
-8.6499500606
 20
-12.9092634493
 10
-8.675860785
 20
-12.90997709
 10
-8.699540784
 20
-12.9107714413
 10
-8.7212186009
 20
-12.9116466677
 10
-8.7408337347
 20
-12.9125540472
 10
-8.7581461192
 20
-12.9134742451
 10
-8.7733958205
 20
-12.9144265961
 10
-8.7872425359
 20
-12.9154203832
 10
-8.7998663737
 20
-12.9164462764
 10
-8.8110872255
 20
-12.9175136057
 10
-8.821024463
 20
-12.9186596441
 10
-8.8297178769
 20
-12.9198968161
 10
-8.8371276764
 20
-12.9212126972
 10
-8.8432538616
 20
-12.9226072876
  0
LWPOLYLINE
  5
2E5
100
AcDbEntity
  8
0
100
AcDbPolyline
 62
7
  6
CONTINUOUS
 90
10
 70
0
 10
-3.9621715575
 20
-13.1084370077
 10
-3.9358272904
 20
-13.1081442671
 10
-3.9105234019
 20
-13.107380706
 10
-3.886259892
 20
-13.1061463243
 10
-3.8630652863
 20
-13.1044227121
 10
-3.8409110593
 20
-13.1022282792
 10
-3.8197116345
 20
-13.0996182558
 10
-3.7994384865
 20
-13.0966110518
 10
-3.7801201409
 20
-13.0931882571
 10
-3.7617565975
 20
-13.0893498719
  0
LINE
  5
2E6
100
AcDbEntity
  8
RACCORDO
100
AcDbLine
 62
250
  6
CONTINUOUS
 10
-8.647414844
 20
-13.0995139365
 11
-8.5812134553
 21
-13.0986986603
  0
LWPOLYLINE
  5
2E7
100
AcDbEntity
  8
RACCORDO
100
AcDbPolyline
 62
250
  6
CONTINUOUS
 90
15
 70
0
 10
-8.7315958074
 20
-12.9501376237
 10
-8.7092656639
 20
-12.949977909
 10
-8.6876091009
 20
-12.9497196681
 10
-8.6665506884
 20
-12.9493611506
 10
-8.6461658563
 20
-12.9489041068
 10
-8.6266808945
 20
-12.9483537876
 10
-8.6080492627
 20
-12.9477119686
 10
-8.5903175012
 20
-12.9469768741
 10
-8.57385152
 20
-12.946148429
 10
-8.5585500019
 20
-12.9452208765
 10
-8.5445142641
 20
-12.9441999732
 10
-8.5324141682
 20
-12.943102914
 10
-8.5224730013
 20
-12.9419354306
 10
-8.5144674762
 20
-12.9406917913
 10
-8.508397593
 20
-12.939371996
  0
LINE
  5
2E8
100
AcDbEntity
  8
RACCORDO
100
AcDbLine
 62
250
  6
CONTINUOUS
 10
-8.5447709886
 20
-12.7577513929
 11
-8.633281216
 21
-12.7583337092
  0
LINE
  5
2E9
100
AcDbEntity
  8
RACCORDO
100
AcDbLine
 62
250
  6
CONTINUOUS
 10
-8.7182386349
 20
-13.0999319413
 11
-8.647414844
 21
-13.0995139365
  0
LINE
  5
2EA
100
AcDbEntity
  8
RACCORDO
100
AcDbLine
 62
250
  6
CONTINUOUS
 10
-8.4985711481
 20
-12.9074497452
 11
-8.5626918981
 21
-12.9077718302
  0
LINE
  5
2EB
100
AcDbEntity
  8
RACCORDO
100
AcDbLine
 62
250
  6
CONTINUOUS
 10
-9.1339368607
 20
-13.0999932422
 11
-8.7182386349
 21
-13.0999319413
  0
LINE
  5
2EC
100
AcDbEntity
  8
RACCORDO
100
AcDbLine
 62
250
  6
CONTINUOUS
 10
8.0991350553
 20
-13.0553368642
 11
8.2468562183
 21
-13.0553368642
  0
LINE
  5
2ED
100
AcDbEntity
  8
RACCORDO
100
AcDbLine
 62
250
  6
CONTINUOUS
 10
-8.0991350553
 20
-13.0553368642
 11
-8.2468562183
 21
-13.0553368642
  0
LINE
  5
2EE
100
AcDbEntity
  8
RACCORDO
100
AcDbLine
 62
250
  6
CONTINUOUS
 10
-8.9360860759
 20
-12.950198812
 11
-8.7315958074
 21
-12.9501376237
  0
LINE
  5
2EF
100
AcDbEntity
  8
RACCORDO
100
AcDbLine
 62
250
  6
CONTINUOUS
 10
-8.4009945665
 20
-12.9074497452
 11
-8.4985711481
 21
-12.9074497452
  0
LINE
  5
2F0
100
AcDbEntity
  8
RACCORDO
100
AcDbLine
 62
250
  6
CONTINUOUS
 10
-8.4009945665
 20
-12.757655315
 11
-8.5447709886
 21
-12.7577513929
  0
LINE
  5
2F1
100
AcDbEntity
  8
0
100
AcDbLine
 62
7
  6
CONTINUOUS
 10
-4.0989626974
 20
-12.6439833701
 11
-4.3534578584
 21
-12.6439833701
  0
LINE
  5
2F2
100
AcDbEntity
  8
RACCORDO
100
AcDbLine
 62
250
  6
CONTINUOUS
 10
-9.4781437817
 20
-12.2025314983
 11
-10.1886751346
 21
-12.2025314983
  0
LINE
  5
2F3
100
AcDbEntity
  8
RACCORDO
100
AcDbLine
 62
250
  6
CONTINUOUS
 10
9.4781437817
 20
-12.2025314983
 11
10.1886751346
 21
-12.2025314983
  0
LINE
  5
2F4
100
AcDbEntity
  8
0
100
AcDbLine
 62
7
  6
CONTINUOUS
 10
-2.346127291
 20
-12.1
 11
-2.1107192829
 21
-12.1
  0
LINE
  5
2F5
100
AcDbEntity
  8
0
100
AcDbLine
 62
7
  6
CONTINUOUS
 10
3.3863763735
 20
-12.1
 11
3.7204011127
 21
-12.1
  0
LINE
  5
2F6
100
AcDbEntity
  8
RACCORDO
100
AcDbLine
 62
250
  6
CONTINUOUS
 10
-8.9909750246
 20
-11.8204944192
 11
-8.4985711481
 21
-11.8204944066
  0
LINE
  5
2F7
100
AcDbEntity
  8
RACCORDO
100
AcDbLine
 62
250
  6
CONTINUOUS
 10
8.9909750246
 20
-11.8204944197
 11
8.4985711481
 21
-11.8204944066
  0
LINE
  5
2F8
100
AcDbEntity
  8
RACCORDO
100
AcDbLine
 62
250
  6
CONTINUOUS
 10
-10.5677407521
 20
-11.8030796844
 11
-9.5840902598
 21
-11.8030796844
  0
LINE
  5
2F9
100
AcDbEntity
  8
RACCORDO
100
AcDbLine
 62
250
  6
CONTINUOUS
 10
9.5840902598
 20
-11.8030796844
 11
10.5677407521
 21
-11.8030796844
  0
LINE
  5
2FA
100
AcDbEntity
  8
DRAFT
100
AcDbLine
 62
7
  6
CONTINUOUS
 10
-9.4950979979
 20
-11.7076485572
 11
-9.3049020021
 21
-11.7076485572
  0
LINE
  5
2FB
100
AcDbEntity
  8
DRAFT
100
AcDbLine
 62
7
  6
CONTINUOUS
 10
9.3049020021
 20
-11.7076485572
 11
9.4950979979
 21
-11.7076485572
  0
LINE
  5
2FC
100
AcDbEntity
  8
RACCORDO
100
AcDbLine
 62
250
  6
CONTINUOUS
 10
-9.1024704672
 20
-11.6599329936
 11
-9.1802601072
 21
-11.6599329936
  0
LINE
  5
2FD
100
AcDbEntity
  8
RACCORDO
100
AcDbLine
 62
250
  6
CONTINUOUS
 10
9.1024704672
 20
-11.6599329936
 11
9.1802601072
 21
-11.6599329936
  0
LINE
  5
2FE
100
AcDbEntity
  8
DRAFT
100
AcDbLine
 62
7
  6
CONTINUOUS
 10
9.75
 20
-11.65
 11
9.6449489743
 21
-11.65
  0
LINE
  5
2FF
100
AcDbEntity
  8
DRAFT
100
AcDbLine
 62
7
  6
CONTINUOUS
 10
-9.6449489743
 20
-11.65
 11
-9.75
 21
-11.65
  0
LINE
  5
300
100
AcDbEntity
  8
DRAFT
100
AcDbLine
 62
7
  6
CONTINUOUS
 10
-9.9496573543
 20
-11.6470633844
 11
-9.75
 21
-11.6470633844
  0
LINE
  5
301
100
AcDbEntity
  8
DRAFT
100
AcDbLine
 62
7
  6
CONTINUOUS
 10
9.75
 20
-11.6470633844
 11
9.9496573543
 21
-11.6470633844
  0
LINE
  5
302
100
AcDbEntity
  8
RACCORDO
100
AcDbLine
 62
250
  6
CONTINUOUS
 10
-9.3292938566
 20
-11.4602070867
 11
-9.1024704672
 21
-11.4602070867
  0
LINE
  5
303
100
AcDbEntity
  8
RACCORDO
100
AcDbLine
 62
250
  6
CONTINUOUS
 10
9.1024704672
 20
-11.4602070867
 11
9.3292938566
 21
-11.4602070867
  0
LINE
  5
304
100
AcDbEntity
  8
RACCORDO
100
AcDbLine
 62
7
  6
CONTINUOUS
 10
4.75
 20
-11.3
 11
-4.75
 21
-11.3
  0
LINE
  5
305
100
AcDbEntity
  8
RACCORDO
100
AcDbLine
 62
250
  6
CONTINUOUS
 10
8.9360860759
 20
-12.950198812
 11
8.7379143988
 21
-12.9501597944
  0
LINE
  5
306
100
AcDbEntity
  8
RACCORDO
100
AcDbLine
 62
250
  6
CONTINUOUS
 10
8.5262407113
 20
-12.9075262063
 11
8.4009945665
 21
-12.9074497452
  0
LINE
  5
307
100
AcDbEntity
  8
RACCORDO
100
AcDbLine
 62
250
  6
CONTINUOUS
 10
9.1339368607
 20
-13.0999932422
 11
8.7024660268
 21
-13.0998734406
  0
LINE
  5
308
100
AcDbEntity
  8
RACCORDO
100
AcDbLine
 62
250
  6
CONTINUOUS
 10
8.5756031563
 20
-12.7578901281
 11
8.4009953754
 21
-12.757655315
  0
LWPOLYLINE
  5
309
100
AcDbEntity
  8
RACCORDO
100
AcDbPolyline
 62
250
  6
CONTINUOUS
 90
50
 70
0
 10
-9.1024704672
 20
-11.6599329936
 10
-9.0976415822
 20
-11.6599658149
 10
-9.0929199563
 20
-11.6601586116
 10
-9.0883096738
 20
-11.6605078284
 10
-9.0838178929
 20
-11.6610119312
 10
-9.0794450317
 20
-11.661665246
 10
-9.0751846602
 20
-11.6624571721
 10
-9.0710509812
 20
-11.6633789637
 10
-9.0670356473
 20
-11.6644293986
 10
-9.0630986487
 20
-11.6656114772
 10
-9.0592419208
 20
-11.666922402
 10
-9.055469984
 20
-11.6683616138
 10
-9.0517483646
 20
-11.6699417366
 10
-9.0480785353
 20
-11.6716640653
 10
-9.0444678168
 20
-11.6735300598
 10
-9.0408930133
 20
-11.6755587233
 10
-9.03735326
 20
-11.6777573016
 10
-9.033862269
 20
-11.6801267116
 10
-9.0304211087
 20
-11.682680419
 10
-9.0270281293
 20
-11.6854307843
 10
-9.0237017067
 20
-11.6883750145
 10
-9.0204728957
 20
-11.6915026138
 10
-9.0173421887
 20
-11.6948253406
 10
-9.014325412
 20
-11.6983350988
 10
-9.0114713241
 20
-11.7019837438
 10
-9.0087837491
 20
-11.7057720595
 10
-9.0062664936
 20
-11.7096903771
 10
-9.0039576617
 20
-11.7136633204
 10
-9.0018650608
 20
-11.717664563
 10
-8.9999733624
 20
-11.7216993423
 10
-8.9982774608
 20
-11.7257327127
 10
-8.9967753257
 20
-11.7297456122
 10
-8.995456166
 20
-11.7337368735
 10
-8.9942997878
 20
-11.7376980322
 10
-8.9932994157
 20
-11.7416237183
 10
-8.9924490627
 20
-11.7455035708
 10
-8.9917295441
 20
-11.7493225355
 10
-8.9911342083
 20
-11.7530718257
 10
-8.9906556593
 20
-11.7567473049
 10
-8.9902734201
 20
-11.7603415895
 10
-8.9899804815
 20
-11.7638454292
 10
-8.989770167
 20
-11.7672581924
 10
-8.9896235905
 20
-11.7705864781
 10
-8.9895342411
 20
-11.7738260071
 10
-8.9894972553
 20
-11.7769741834
 10
-8.9894980615
 20
-11.7800411993
 10
-8.9895313215
 20
-11.7830198069
 10
-8.9895930796
 20
-11.7859125068
 10
-8.9896733165
 20
-11.7887450741
 10
-8.9897691815
 20
-11.7915126764
  0
LINE
  5
30A
100
AcDbEntity
  8
RACCORDO
100
AcDbLine
 62
250
  6
CONTINUOUS
 10
8.7024660268
 20
-13.0998734406
 11
8.6548521862
 21
-13.0995819318
  0
LINE
  5
30B
100
AcDbEntity
  8
RACCORDO
100
AcDbLine
 62
250
  6
CONTINUOUS
 10
8.7379143988
 20
-12.9501597944
 11
8.706750727
 21
-12.949956597
  0
LINE
  5
30C
100
AcDbEntity
  8
RACCORDO
100
AcDbLine
 62
250
  6
CONTINUOUS
 10
8.6452474717
 20
-12.7584526988
 11
8.5756031563
 21
-12.7578901281
  0
LINE
  5
30D
100
AcDbEntity
  8
RACCORDO
100
AcDbLine
 62
250
  6
CONTINUOUS
 10
8.6548521862
 20
-13.0995819318
 11
8.5923882928
 21
-13.0988695822
  0
LWPOLYLINE
  5
30E
100
AcDbEntity
  8
RACCORDO
100
AcDbPolyline
 62
250
  6
CONTINUOUS
 90
3
 70
0
 10
8.6012382924
 20
-12.9082470806
 10
8.5776911599
 20
-12.9079245643
 10
8.5262407113
 20
-12.9075262063
  0
LINE
  5
30F
100
AcDbEntity
  8
RACCORDO
100
AcDbLine
 62
250
  6
CONTINUOUS
 10
8.706750727
 20
-12.949956597
 11
8.6785421541
 21
-12.9495767397
  0
LINE
  5
310
100
AcDbEntity
  8
RACCORDO
100
AcDbLine
 62
250
  6
CONTINUOUS
 10
8.7079625638
 20
-12.7593412085
 11
8.6452474717
 21
-12.7584526988
  0
LINE
  5
311
100
AcDbEntity
  8
RACCORDO
100
AcDbLine
 62
250
  6
CONTINUOUS
 10
8.5923882928
 20
-13.0988695822
 11
8.5400479146
 21
-13.0979506045
  0
LINE
  5
312
100
AcDbEntity
  8
RACCORDO
100
AcDbLine
 62
250
  6
CONTINUOUS
 10
8.6785421541
 20
-12.9495767397
 11
8.6532260568
 21
-12.9490751348
  0
LINE
  5
313
100
AcDbEntity
  8
RACCORDO
100
AcDbLine
 62
250
  6
CONTINUOUS
 10
8.7674556484
 20
-12.760527518
 11
8.7079625638
 21
-12.7593412085
  0
LWPOLYLINE
  5
314
100
AcDbEntity
  8
RACCORDO
100
AcDbPolyline
 62
250
  6
CONTINUOUS
 90
3
 70
0
 10
9.0700455261
 20
-11.4596380451
 10
9.0807866199
 20
-11.459869182
 10
9.1024704672
 20
-11.4602070867
  0
LINE
  5
315
100
AcDbEntity
  8
RACCORDO
100
AcDbLine
 62
250
  6
CONTINUOUS
 10
8.5400479146
 20
-13.0979506045
 11
8.497080157
 21
-13.0969181739
  0
LINE
  5
316
100
AcDbEntity
  8
RACCORDO
100
AcDbLine
 62
250
  6
CONTINUOUS
 10
8.6532260568
 20
-12.9490751348
 11
8.630737296
 21
-12.9484777021
  0
LWPOLYLINE
  5
317
100
AcDbEntity
  8
0
100
AcDbPolyline
 62
7
  6
CONTINUOUS
 90
10
 70
0
 10
-0.9145921066
 20
-12.0618257284
 10
-0.8701437264
 20
-12.0630774839
 10
-0.8286492966
 20
-12.0659873971
 10
-0.7901088174
 20
-12.070555468
 10
-0.754704704
 20
-12.0769095964
 10
-0.7222545411
 20
-12.0849218824
 10
-0.6922110831
 20
-12.0942086272
 10
-0.6643919147
 20
-12.1046419308
 10
-0.6389794511
 20
-12.1163496932
 10
-0.6159736925
 20
-12.1293319142
  0
LWPOLYLINE
  5
318
100
AcDbEntity
  8
0
100
AcDbPolyline
 62
7
  6
CONTINUOUS
 90
10
 70
0
 10
0.5233054563
 20
-12.0618257284
 10
0.5677538642
 20
-12.0630774846
 10
0.6092483254
 20
-12.0659873985
 10
0.6477888399
 20
-12.07055547
 10
0.6831929966
 20
-12.0769095991
 10
0.7156432065
 20
-12.0849218859
 10
0.745686703
 20
-12.0942086307
 10
0.7735058971
 20
-12.1046419338
 10
0.7989183777
 20
-12.116349695
 10
0.8219241447
 20
-12.1293319142
  0
LWPOLYLINE
  5
319
100
AcDbEntity
  8
0
100
AcDbPolyline
 62
7
  6
CONTINUOUS
 90
10
 70
0
 10
1.9612030193
 20
-12.0618257284
 10
2.0056514272
 20
-12.0630774846
 10
2.0471458884
 20
-12.0659873985
 10
2.0856864028
 20
-12.07055547
 10
2.1210905595
 20
-12.0769095991
 10
2.1535407695
 20
-12.0849218859
 10
2.183584266
 20
-12.0942086307
 10
2.2114034601
 20
-12.1046419338
 10
2.2368159406
 20
-12.116349695
 10
2.2598217077
 20
-12.1293319142
  0
LINE
  5
31A
100
AcDbEntity
  8
DRAFT
100
AcDbLine
 62
7
  6
CONTINUOUS
 10
10.1
 20
-11.7626767255
 11
10.6
 21
-11.7778055482
  0
LINE
  5
31B
100
AcDbEntity
  8
RACCORDO
100
AcDbLine
 62
250
  6
CONTINUOUS
 10
8.497080157
 20
-13.0969181739
 11
8.4731084555
 21
-13.0961998265
  0
LINE
  5
31C
100
AcDbEntity
  8
RACCORDO
100
AcDbLine
 62
250
  6
CONTINUOUS
 10
8.630737296
 20
-12.9484777021
 11
8.6109442038
 21
-12.9478188862
  0
LINE
  5
31D
100
AcDbEntity
  8
RACCORDO
100
AcDbLine
 62
250
  6
CONTINUOUS
 10
8.4731084555
 20
-13.0961998265
 11
8.4523482267
 21
-13.0954729665
  0
LINE
  5
31E
100
AcDbEntity
  8
RACCORDO
100
AcDbLine
 62
250
  6
CONTINUOUS
 10
8.4523482267
 20
-13.0954729665
 11
8.4343018277
 21
-13.0947401091
  0
LINE
  5
31F
100
AcDbEntity
  8
RACCORDO
100
AcDbLine
 62
250
  6
CONTINUOUS
 10
8.6109442038
 20
-12.9478188862
 11
8.5936442193
 21
-12.9471237444
  0
LWPOLYLINE
  5
320
100
AcDbEntity
  8
0
100
AcDbPolyline
 62
7
  6
CONTINUOUS
 90
10
 70
0
 10
-3.799930869
 20
-12.0618257284
 10
-3.7298225193
 20
-12.0650388174
 10
-3.6662578325
 20
-12.0716023477
 10
-3.6092368086
 20
-12.0815163192
 10
-3.5593997528
 20
-12.0951053713
 10
-3.5161063599
 20
-12.1120448646
 10
-3.4774357149
 20
-12.1313608814
 10
-3.4427475129
 20
-12.1527287822
 10
-3.4126820588
 20
-12.1764732065
 10
-3.3872393527
 20
-12.2025941542
  0
LINE
  5
321
100
AcDbEntity
  8
RACCORDO
100
AcDbLine
 62
250
  6
CONTINUOUS
 10
8.4343018277
 20
-13.0947401091
 11
8.4186325435
 21
-13.0940019043
  0
LWPOLYLINE
  5
322
100
AcDbEntity
  8
RACCORDO
100
AcDbPolyline
 62
250
  6
CONTINUOUS
 90
3
 70
0
 10
8.5936442193
 20
-12.9471237444
 10
8.5786676088
 20
-12.9464054033
 10
8.5719303441
 20
-12.9460433086
  0
LINE
  5
323
100
AcDbEntity
  8
RACCORDO
100
AcDbLine
 62
7
  6
CONTINUOUS
 10
-10.5677407521
 20
-11.8030796844
 11
-10.6
 21
-11.8013890489
  0
LWPOLYLINE
  5
324
100
AcDbEntity
  8
RACCORDO
100
AcDbPolyline
 62
250
  6
CONTINUOUS
 90
12
 70
0
 10
8.4186325435
 20
-13.0940019043
 10
8.404977696
 20
-13.0932565737
 10
8.3988103954
 20
-13.0928787345
 10
8.3930570082
 20
-13.0924970583
 10
8.3877165753
 20
-13.0921112197
 10
8.3827333524
 20
-13.0917181033
 10
8.3781192614
 20
-13.0913179268
 10
8.3738852515
 20
-13.0909104725
 10
8.3700009473
 20
-13.0904919721
 10
8.3664796919
 20
-13.0900611695
 10
8.3633628199
 20
-13.0896193209
 10
8.36067643
 20
-13.0891664262
  0
LWPOLYLINE
  5
325
100
AcDbEntity
  8
RACCORDO
100
AcDbPolyline
 62
250
  6
CONTINUOUS
 90
17
 70
0
 10
8.5719303441
 20
-12.9460433086
 10
8.5598547226
 20
-12.945312438
 10
8.5544060782
 20
-12.9449456813
 10
8.5493550257
 20
-12.9445775918
 10
8.5446201639
 20
-12.944207478
 10
8.5401930637
 20
-12.943835821
 10
8.5360821542
 20
-12.9434621397
 10
8.5322313214
 20
-12.9430842993
 10
8.5286311307
 20
-12.9427026299
 10
8.5252910167
 20
-12.9423168014
 10
8.5221831693
 20
-12.9419236876
 10
8.5192968544
 20
-12.9415234971
 10
8.516642806
 20
-12.9411160213
 10
8.5142254165
 20
-12.9406975085
 10
8.5120461498
 20
-12.9402667081
 10
8.510103542
 20
-12.9398248706
 10
8.508397593
 20
-12.939371996
  0
LWPOLYLINE
  5
326
100
AcDbEntity
  8
0
100
AcDbPolyline
 62
7
  6
CONTINUOUS
 90
10
 70
0
 10
-3.6670065106
 20
-12.2952717795
 10
-3.6800403316
 20
-12.2886085299
 10
-3.6935756797
 20
-12.2826821228
 10
-3.7076125548
 20
-12.2774925581
 10
-3.7220054988
 20
-12.2730245843
 10
-3.7368999698
 20
-12.2692934529
 10
-3.7527323428
 20
-12.2663449187
 10
-3.7696480758
 20
-12.2641942334
 10
-3.7875017108
 20
-12.2628261452
 10
-3.8062932476
 20
-12.2622406542
  0
LWPOLYLINE
  5
327
100
AcDbEntity
  8
0
100
AcDbPolyline
 62
7
  6
CONTINUOUS
 90
10
 70
0
 10
-1.2256536228
 20
-14.3670174257
 10
-1.24917503
 20
-14.3517489551
 10
-1.2714595889
 20
-14.3348560255
 10
-1.2925072998
 20
-14.316338637
 10
-1.3122175815
 20
-14.2964292407
 10
-1.3306910151
 20
-14.2748953854
 10
-1.3482293437
 20
-14.2510397174
 10
-1.3649331481
 20
-14.2246297856
 10
-1.3807018474
 20
-14.1958980412
 10
-1.3955354416
 20
-14.1648444841
  0
LWPOLYLINE
  5
328
100
AcDbEntity
  8
0
100
AcDbPolyline
 62
7
  6
CONTINUOUS
 90
10
 70
0
 10
0.2122442143
 20
-14.3670174257
 10
0.1887227224
 20
-14.3517488956
 10
0.1664380919
 20
-14.3348559192
 10
0.1453903226
 20
-14.3163384963
 10
0.1256799951
 20
-14.2964290753
 10
0.1072065289
 20
-14.2748952079
 10
0.0896681826
 20
-14.2510395496
 10
0.0729643757
 20
-14.2246296521
 10
0.0571956886
 20
-14.1958979636
 10
0.0423621214
 20
-14.1648444841
  0
LWPOLYLINE
  5
329
100
AcDbEntity
  8
0
100
AcDbPolyline
 62
7
  6
CONTINUOUS
 90
10
 70
0
 10
-3.4186949668
 20
-13.2714251322
 10
-3.4032516868
 20
-13.2827340543
 10
-3.3886152791
 20
-13.2946168564
 10
-3.3747857437
 20
-13.3070735385
 10
-3.3617158659
 20
-13.3201893666
 10
-3.3494528604
 20
-13.3338790748
 10
-3.3381383715
 20
-13.3478868644
 10
-3.3278196139
 20
-13.3621274694
 10
-3.3184493729
 20
-13.3766861558
 10
-3.3100276485
 20
-13.3915629238
  0
LWPOLYLINE
  5
32A
100
AcDbEntity
  8
0
100
AcDbPolyline
 62
7
  6
CONTINUOUS
 90
10
 70
0
 10
-1.0814184404
 20
-14.1886071649
 10
-1.0691731215
 20
-14.1982248008
 10
-1.0555462613
 20
-14.2068556631
 10
-1.0405378599
 20
-14.2144997518
 10
-1.0242850257
 20
-14.2212267969
 10
-1.0066506503
 20
-14.2269670684
 10
-0.9872234084
 20
-14.2315113764
 10
-0.9658661917
 20
-14.2347899907
 10
-0.9427161085
 20
-14.2368726415
 10
-0.9177731588
 20
-14.2377593286
  0
LWPOLYLINE
  5
32B
100
AcDbEntity
  8
0
100
AcDbPolyline
 62
7
  6
CONTINUOUS
 90
10
 70
0
 10
-3.6075034783
 20
-13.4058437138
 10
-3.6194767816
 20
-13.3945450164
 10
-3.6323379975
 20
-13.3839770484
 10
-3.6460871261
 20
-13.3741398098
 10
-3.6606573609
 20
-13.3650089069
 10
-3.6761155083
 20
-13.3566087334
 10
-3.692661988
 20
-13.3490124705
 10
-3.7103636065
 20
-13.3422445121
 10
-3.7291535572
 20
-13.3362804643
 10
-3.7490318403
 20
-13.3311203271
  0
LWPOLYLINE
  5
32C
100
AcDbEntity
  8
0
100
AcDbPolyline
 62
7
  6
CONTINUOUS
 90
10
 70
0
 10
-4.2580221743
 20
-14.2886583615
 10
-4.2817518637
 20
-14.2598350355
 10
-4.3033230368
 20
-14.2258586658
 10
-4.3227356935
 20
-14.1867292523
 10
-4.3403088352
 20
-14.1429346383
 10
-4.3557234606
 20
-14.0939869806
 10
-4.3680225661
 20
-14.038422749
 10
-4.3768871506
 20
-13.9757541003
 10
-4.3826362152
 20
-13.9064688777
 10
-4.38526976
 20
-13.8305670813
  0
LWPOLYLINE
  5
32D
100
AcDbEntity
  8
0
100
AcDbPolyline
 62
7
  6
CONTINUOUS
 90
10
 70
0
 10
-4.0639696112
 20
-14.1232365114
 10
-4.0562569186
 20
-14.1345870504
 10
-4.0478870705
 20
-14.1454254908
 10
-4.0388600672
 20
-14.1557518328
 10
-4.0291456366
 20
-14.1656034239
 10
-4.0187740507
 20
-14.1749429166
 10
-4.0078361248
 20
-14.1836582677
 10
-3.9963621306
 20
-14.1917121296
 10
-3.9843217963
 20
-14.19914185
 10
-3.971715122
 20
-14.2059474288
  0
LWPOLYLINE
  5
32E
100
AcDbEntity
  8
RACCORDO
100
AcDbPolyline
 62
250
  6
CONTINUOUS
 90
13
 70
0
 10
-9.4363690968
 20
-11.9528741146
 10
-9.4377923113
 20
-11.9334353095
 10
-9.4416895585
 20
-11.9143249009
 10
-9.4479950565
 20
-11.8958660877
 10
-9.4566022987
 20
-11.8783710611
 10
-9.4673658275
 20
-11.8621357719
 10
-9.4801036701
 20
-11.8474349114
 10
-9.4946004804
 20
-11.8345171791
 10
-9.5106111257
 20
-11.8236011524
 10
-9.5278647715
 20
-11.8148715922
 10
-9.5460695822
 20
-11.8084762257
 10
-9.5649176789
 20
-11.8045232788
 10
-9.5840902598
 20
-11.8030796844
  0
LWPOLYLINE
  5
32F
100
AcDbEntity
  8
RACCORDO
100
AcDbPolyline
 62
250
  6
CONTINUOUS
 90
13
 70
0
 10
-9.0838072388
 20
-12.8004043818
 10
-9.082383798
 20
-12.8198447755
 10
-9.078486009
 20
-12.8389563747
 10
-9.0721797944
 20
-12.8574159429
 10
-9.0635718113
 20
-12.87491127
 10
-9.0528076462
 20
-12.8911464564
 10
-9.0400693517
 20
-12.9058469158
 10
-9.0255723701
 20
-12.9187640164
 10
-9.0095618896
 20
-12.9296792875
 10
-8.9923086944
 20
-12.9384081164
 10
-8.9741045885
 20
-12.9448028683
 10
-8.9552574609
 20
-12.9487553845
 10
-8.9360860759
 20
-12.950198812
  0
LWPOLYLINE
  5
330
100
AcDbEntity
  8
RACCORDO
100
AcDbPolyline
 62
250
  6
CONTINUOUS
 90
13
 70
0
 10
-8.9909750246
 20
-12.7728128574
 10
-8.9895515803
 20
-12.7922532753
 10
-8.9856537824
 20
-12.8113648948
 10
-8.9793475549
 20
-12.8298244783
 10
-8.9707395559
 20
-12.8473198164
 10
-8.9599753737
 20
-12.8635550079
 10
-8.9472370644
 20
-12.8782554649
 10
-8.9327400728
 20
-12.8911725565
 10
-8.9167295885
 20
-12.902087814
 10
-8.899476399
 20
-12.9108166263
 10
-8.88127231
 20
-12.9172113617
 10
-8.8624252096
 20
-12.9211638652
 10
-8.8432538616
 20
-12.9226072876
  0
LINE
  5
331
100
AcDbEntity
  8
RACCORDO
100
AcDbLine
 62
250
  6
CONTINUOUS
 10
-8.9905907631
 20
-14.6899733872
 11
-8.9899913245
 21
-14.7031132921
  0
LWPOLYLINE
  5
332
100
AcDbEntity
  8
RACCORDO
100
AcDbPolyline
 62
250
  6
CONTINUOUS
 90
51
 70
0
 10
-8.9899913245
 20
-14.7031132921
 10
-8.9897680685
 20
-14.7085145644
 10
-8.989672116
 20
-14.711292419
 10
-8.9895919035
 20
-14.7141345154
 10
-8.989530363
 20
-14.7170362768
 10
-8.9894976794
 20
-14.7200211223
 10
-8.989497683
 20
-14.7230902771
 10
-8.9895355156
 20
-14.7262378423
 10
-8.989625772
 20
-14.7294756018
 10
-8.9897732821
 20
-14.7328007548
 10
-8.989984447
 20
-14.7362092757
 10
-8.9902782757
 20
-14.7397099732
 10
-8.9906615991
 20
-14.7433030211
 10
-8.9911414374
 20
-14.7469782944
 10
-8.9917382904
 20
-14.7507280497
 10
-8.9924596898
 20
-14.7545484988
 10
-8.9933122722
 20
-14.7584304305
 10
-8.9943148934
 20
-14.7623573352
 10
-8.9954733426
 20
-14.7663183412
 10
-8.996794455
 20
-14.7703086564
 10
-8.9982983887
 20
-14.7743200499
 10
-8.9999958478
 20
-14.7783512911
 10
-9.0018888574
 20
-14.7823834434
 10
-9.0039826653
 20
-14.7863820432
 10
-9.0062927234
 20
-14.7903525397
 10
-9.008811105
 20
-14.7942683932
 10
-9.0114995089
 20
-14.7980540608
 10
-9.0143540496
 20
-14.8016998256
 10
-9.0173709437
 20
-14.8052065802
 10
-9.0205014091
 20
-14.8085262655
 10
-9.0237295274
 20
-14.8116507475
 10
-9.0270548853
 20
-14.8145918774
 10
-9.0304466919
 20
-14.8173394051
 10
-9.0338866605
 20
-14.819890592
 10
-9.0373763913
 20
-14.8222577196
 10
-9.040914894
 20
-14.8244542615
 10
-9.0444885187
 20
-14.8264811455
 10
-9.0480981
 20
-14.8283455737
 10
-9.051766769
 20
-14.8300664812
 10
-9.0554872041
 20
-14.8316453164
 10
-9.0592579483
 20
-14.8330833752
 10
-9.0631134262
 20
-14.8343932499
 10
-9.0670491173
 20
-14.8355743785
 10
-9.0710630946
 20
-14.8366239678
 10
-9.0751953277
 20
-14.8375450089
 10
-9.0794541604
 20
-14.8383362807
 10
-9.0838254002
 20
-14.8389890473
 10
-9.0883154554
 20
-14.8394927175
 10
-9.0929239042
 20
-14.8398416242
 10
-9.0976436012
 20
-14.8400342372
 10
-9.1024704672
 20
-14.8400670064
  0
LINE
  5
333
100
AcDbEntity
  8
RACCORDO
100
AcDbLine
 62
250
  6
CONTINUOUS
 10
-8.9908000243
 20
-14.6847413916
 11
-8.9905907631
 21
-14.6899733872
  0
LINE
  5
334
100
AcDbEntity
  8
RACCORDO
100
AcDbLine
 62
250
  6
CONTINUOUS
 10
-8.9909840278
 20
-14.6795029175
 11
-8.9908000243
 21
-14.6847413916
  0
LINE
  5
335
100
AcDbEntity
  8
RACCORDO
100
AcDbLine
 62
250
  6
CONTINUOUS
 10
-10.4851289328
 20
17.3658591941
 11
-10.4864403703
 21
17.4189842293
  0
LWPOLYLINE
  5
336
100
AcDbEntity
  8
RACCORDO
100
AcDbPolyline
 62
250
  6
CONTINUOUS
 90
3
 70
0
 10
-10.1886667009
 20
17.6773992024
 10
-10.1892471392
 20
17.7017077237
 10
-10.1894722918
 20
17.7142805447
  0
LINE
  5
337
100
AcDbEntity
  8
RACCORDO
100
AcDbLine
 62
250
  6
CONTINUOUS
 10
-10.4864403703
 20
17.4189842293
 11
-10.4874812663
 21
17.4768686987
  0
LWPOLYLINE
  5
338
100
AcDbEntity
  8
RACCORDO
100
AcDbPolyline
 62
250
  6
CONTINUOUS
 90
19
 70
0
 10
-9.4781437817
 20
-14.2974685017
 10
-9.4778747488
 20
-14.3227318239
 10
-9.4772399911
 20
-14.346960369
 10
-9.4762395087
 20
-14.3701541371
 10
-9.4748213029
 20
-14.3925505164
 10
-9.4730373724
 20
-14.4139121187
 10
-9.4710437131
 20
-14.4335267789
 10
-9.468852907
 20
-14.4511189197
 10
-9.4664523723
 20
-14.4669641184
 10
-9.4639603592
 20
-14.4811769427
 10
-9.4614242819
 20
-14.4936523752
 10
-9.4587967262
 20
-14.5044954333
 10
-9.4560537009
 20
-14.5141357364
 10
-9.4532151199
 20
-14.5227332711
 10
-9.4502610692
 20
-14.5301280508
 10
-9.4471078149
 20
-14.5362697361
 10
-9.4437274458
 20
-14.541141547
 10
-9.4401478731
 20
-14.5447602634
 10
-9.4363690968
 20
-14.5471258854
  0
LWPOLYLINE
  5
339
100
AcDbEntity
  8
RACCORDO
100
AcDbPolyline
 62
250
  6
CONTINUOUS
 90
19
 70
0
 10
-9.4781437817
 20
12.2025314983
 10
-9.4778747488
 20
12.1772681761
 10
-9.4772399911
 20
12.153039631
 10
-9.4762395087
 20
12.1298458629
 10
-9.4748213029
 20
12.1074494836
 10
-9.4730373724
 20
12.0860878813
 10
-9.4710437131
 20
12.0664732211
 10
-9.468852907
 20
12.0488810803
 10
-9.4664523723
 20
12.0330358816
 10
-9.4639603592
 20
12.0188230573
 10
-9.4614242819
 20
12.0063476248
 10
-9.4587967262
 20
11.9955045667
 10
-9.4560537009
 20
11.9858642636
 10
-9.4532151199
 20
11.9772667289
 10
-9.4502610692
 20
11.9698719492
 10
-9.4471078149
 20
11.9637302639
 10
-9.4437274458
 20
11.958858453
 10
-9.4401478731
 20
11.9552397366
 10
-9.4363690968
 20
11.9528741146
  0
LINE
  5
33A
100
AcDbEntity
  8
RACCORDO
100
AcDbLine
 62
250
  6
CONTINUOUS
 10
-10.4874812663
 20
17.4768686987
 11
-10.4885655868
 21
17.5652986383
  0
LINE
  5
33B
100
AcDbEntity
  8
RACCORDO
100
AcDbLine
 62
250
  6
CONTINUOUS
 10
-10.1894722918
 20
17.7142805447
 11
-10.1897855398
 21
17.7417296007
  0
LWPOLYLINE
  5
33C
100
AcDbEntity
  8
RACCORDO
100
AcDbPolyline
 62
250
  6
CONTINUOUS
 90
19
 70
0
 10
-9.6258649393
 20
-14.2974685017
 10
-9.6255954701
 20
-14.3373814828
 10
-9.6249604612
 20
-14.3762630198
 10
-9.6239599126
 20
-14.4137654953
 10
-9.6225419376
 20
-14.449802928
 10
-9.6207584228
 20
-14.4838751868
 10
-9.6187650284
 20
-14.5151617529
 10
-9.6165741683
 20
-14.5433616038
 10
-9.6141734286
 20
-14.5687241873
 10
-9.6116812269
 20
-14.5914019912
 10
-9.6091449461
 20
-14.6112492866
 10
-9.6065172035
 20
-14.6285976272
 10
-9.6037742684
 20
-14.6441360489
 10
-9.6009363749
 20
-14.6577799265
 10
-9.5979832891
 20
-14.6694811459
 10
-9.5948305779
 20
-14.6795505266
 10
-9.5914500972
 20
-14.6877695441
 10
-9.5878699911
 20
-14.6936675089
 10
-9.5840902598
 20
-14.6969203156
  0
LWPOLYLINE
  5
33D
100
AcDbEntity
  8
RACCORDO
100
AcDbPolyline
 62
250
  6
CONTINUOUS
 90
19
 70
0
 10
-9.6258649393
 20
12.2025314983
 10
-9.6255954701
 20
12.1626185172
 10
-9.6249604612
 20
12.1237369802
 10
-9.6239599126
 20
12.0862345047
 10
-9.6225419376
 20
12.050197072
 10
-9.6207584228
 20
12.0161248132
 10
-9.6187650284
 20
11.9848382471
 10
-9.6165741683
 20
11.9566383962
 10
-9.6141734286
 20
11.9312758127
 10
-9.6116812269
 20
11.9085980088
 10
-9.6091449461
 20
11.8887507134
 10
-9.6065172035
 20
11.8714023728
 10
-9.6037742684
 20
11.8558639511
 10
-9.6009363749
 20
11.8422200735
 10
-9.5979832891
 20
11.8305188541
 10
-9.5948305779
 20
11.8204494734
 10
-9.5914500972
 20
11.8122304559
 10
-9.5878699911
 20
11.8063324911
 10
-9.5840902598
 20
11.8030796844
  0
LWPOLYLINE
  5
33E
100
AcDbEntity
  8
RACCORDO
100
AcDbPolyline
 62
250
  6
CONTINUOUS
 90
16
 70
0
 10
-10.38468937
 20
16.8321800738
 10
-10.3848096783
 20
16.8506905709
 10
-10.3851442597
 20
16.8690324311
 10
-10.385693114
 20
16.887048749
 10
-10.3864645853
 20
16.9045824936
 10
-10.3874503297
 20
16.9214880739
 10
-10.3886253154
 20
16.9376312599
 10
-10.3899931335
 20
16.9528722662
 10
-10.391550193
 20
16.967082686
 10
-10.3932606895
 20
16.9801525394
 10
-10.395124956
 20
16.9919432645
 10
-10.3971426595
 20
17.0023786843
 10
-10.3992769962
 20
17.0114242142
 10
-10.4015156982
 20
17.0189802013
 10
-10.4038710335
 20
17.0249174165
 10
-10.406343002
 20
17.0291416244
  0
LINE
  5
33F
100
AcDbEntity
  8
RACCORDO
100
AcDbLine
 62
7
  6
CONTINUOUS
 10
-9.7494736654
 20
-16.4586033555
 11
-9.7452898151
 21
-17.1171534187
  0
LINE
  5
340
100
AcDbEntity
  8
0
100
AcDbLine
 62
7
  6
CONTINUOUS
 10
-9.7494736654
 20
-16.4586033555
 11
-9.7452898151
 21
-17.1171534187
  0
LINE
  5
341
100
AcDbEntity
  8
RACCORDO
100
AcDbLine
 62
250
  6
CONTINUOUS
 10
-10.4885655868
 20
17.5652986383
 11
-10.4892403586
 21
17.6606320153
  0
LINE
  5
342
100
AcDbEntity
  8
RACCORDO
100
AcDbLine
 62
250
  6
CONTINUOUS
 10
-10.1897855398
 20
17.7417296007
 11
-10.1899160682
 21
17.772203777
  0
LINE
  5
343
100
AcDbEntity
  8
0
100
AcDbLine
 62
7
  6
CONTINUOUS
 10
-11.0345351961
 20
-25.8347065336
 11
-11.0345351961
 21
25.8347065336
  0
LINE
  5
344
100
AcDbEntity
  8
RACCORDO
100
AcDbLine
 62
7
  6
CONTINUOUS
 10
-10.9828653412
 20
-25.8321769981
 11
-10.9828653412
 21
-15.75
  0
LINE
  5
345
100
AcDbEntity
  8
DRAFT
100
AcDbLine
 62
7
  6
CONTINUOUS
 10
-10.9828653412
 20
-10.75
 11
-10.9828653412
 21
10.75
  0
LINE
  5
346
100
AcDbEntity
  8
RACCORDO
100
AcDbLine
 62
7
  6
CONTINUOUS
 10
-10.9828653412
 20
15.75
 11
-10.9828653412
 21
25.8321769981
  0
LINE
  5
347
100
AcDbEntity
  8
RACCORDO
100
AcDbLine
 62
7
  6
CONTINUOUS
 10
-10.9645351961
 20
-25.7709349336
 11
-10.9645351961
 21
-15.75
  0
LINE
  5
348
100
AcDbEntity
  8
DRAFT
100
AcDbLine
 62
7
  6
CONTINUOUS
 10
-10.9645351961
 20
-10.75
 11
-10.9645351961
 21
10.75
  0
LINE
  5
349
100
AcDbEntity
  8
RACCORDO
100
AcDbLine
 62
7
  6
CONTINUOUS
 10
-10.9645351961
 20
15.75
 11
-10.9645351961
 21
16.8321800738
  0
LINE
  5
34A
100
AcDbEntity
  8
RACCORDO
100
AcDbLine
 62
7
  6
CONTINUOUS
 10
-10.9645351961
 20
21.1678199262
 11
-10.9645351961
 21
25.7709349336
  0
LINE
  5
34B
100
AcDbEntity
  8
RACCORDO
100
AcDbLine
 62
7
  6
CONTINUOUS
 10
-10.9121633529
 20
20.227796223
 11
-10.9121633529
 21
17.772203777
  0
LINE
  5
34C
100
AcDbEntity
  8
RACCORDO
100
AcDbLine
 62
7
  6
CONTINUOUS
 10
-10.65
 20
-15.55
 11
-10.65
 21
-10.95
  0
LINE
  5
34D
100
AcDbEntity
  8
RACCORDO
100
AcDbLine
 62
7
  6
CONTINUOUS
 10
-10.65
 20
10.95
 11
-10.65
 21
15.55
  0
LINE
  5
34E
100
AcDbEntity
  8
DRAFT
100
AcDbLine
 62
7
  6
CONTINUOUS
 10
-10.6
 20
-14.7221944518
 11
-10.6
 21
-11.7778055482
  0
LINE
  5
34F
100
AcDbEntity
  8
DRAFT
100
AcDbLine
 62
7
  6
CONTINUOUS
 10
-10.6
 20
11.7778055482
 11
-10.6
 21
14.7221944518
  0
LINE
  5
350
100
AcDbEntity
  8
RACCORDO
100
AcDbLine
 62
250
  6
CONTINUOUS
 10
-10.4892403586
 20
17.6606320153
 11
-10.4895049286
 21
20.227796223
  0
LINE
  5
351
100
AcDbEntity
  8
RACCORDO
100
AcDbLine
 62
7
  6
CONTINUOUS
 10
-10.25
 20
-25.0
 11
-10.25
 21
-16.2875932838
  0
LINE
  5
352
100
AcDbEntity
  8
RACCORDO
100
AcDbLine
 62
7
  6
CONTINUOUS
 10
-10.25
 20
22.1555441712
 11
-10.25
 21
25.0
  0
LINE
  5
353
100
AcDbEntity
  8
RACCORDO
100
AcDbLine
 62
7
  6
CONTINUOUS
 10
-10.1886751346
 20
14.2974685017
 11
-10.1886751346
 21
12.2025314983
  0
LINE
  5
354
100
AcDbEntity
  8
RACCORDO
100
AcDbLine
 62
7
  6
CONTINUOUS
 10
-10.1886751346
 20
-14.2974685017
 11
-10.1886751346
 21
-12.2025314983
  0
LINE
  5
355
100
AcDbEntity
  8
RACCORDO
100
AcDbLine
 62
7
  6
CONTINUOUS
 10
-10.1
 20
20.7167399216
 11
-10.1
 21
17.2832600784
  0
LINE
  5
356
100
AcDbEntity
  8
RACCORDO
100
AcDbLine
 62
7
  6
CONTINUOUS
 10
-9.75
 20
15.8500761524
 11
-9.75
 21
14.8529366156
  0
LINE
  5
357
100
AcDbEntity
  8
DRAFT
100
AcDbLine
 62
7
  6
CONTINUOUS
 10
-9.75
 20
15.8500761524
 11
-9.75
 21
14.85
  0
LINE
  5
358
100
AcDbEntity
  8
DRAFT
100
AcDbLine
 62
7
  6
CONTINUOUS
 10
-9.75
 20
11.65
 11
-9.75
 21
-11.65
  0
LINE
  5
359
100
AcDbEntity
  8
RACCORDO
100
AcDbLine
 62
7
  6
CONTINUOUS
 10
-9.75
 20
-14.8529366156
 11
-9.75
 21
-16.2875932838
  0
LINE
  5
35A
100
AcDbEntity
  8
DRAFT
100
AcDbLine
 62
7
  6
CONTINUOUS
 10
-9.75
 20
-14.85
 11
-9.75
 21
-16.2875932838
  0
LINE
  5
35B
100
AcDbEntity
  8
RACCORDO
100
AcDbLine
 62
7
  6
CONTINUOUS
 10
-9.7447634805
 20
24.7448015567
 11
-9.7447634805
 21
22.1551603671
  0
LINE
  5
35C
100
AcDbEntity
  8
0
100
AcDbLine
 62
7
  6
CONTINUOUS
 10
-9.7447634805
 20
24.7448015567
 11
-9.7447634805
 21
22.1551603671
  0
LINE
  5
35D
100
AcDbEntity
  8
RACCORDO
100
AcDbLine
 62
7
  6
CONTINUOUS
 10
-9.7447634805
 20
-17.2881634904
 11
-9.7447634805
 21
-24.7448015567
  0
LINE
  5
35E
100
AcDbEntity
  8
0
100
AcDbLine
 62
7
  6
CONTINUOUS
 10
-9.7447634805
 20
-17.2881634904
 11
-9.7447634805
 21
-24.7448015567
  0
LINE
  5
35F
100
AcDbEntity
  8
RACCORDO
100
AcDbLine
 62
250
  6
CONTINUOUS
 10
-9.6258649447
 20
14.2974685017
 11
-9.6258649447
 21
12.2025314983
  0
LINE
  5
360
100
AcDbEntity
  8
RACCORDO
100
AcDbLine
 62
250
  6
CONTINUOUS
 10
-9.6258649447
 20
-12.2025314983
 11
-9.6258649447
 21
-14.2974685017
  0
LINE
  5
361
100
AcDbEntity
  8
RACCORDO
100
AcDbLine
 62
7
  6
CONTINUOUS
 10
-9.5
 20
17.2
 11
-9.5
 21
20.8
  0
LINE
  5
362
100
AcDbEntity
  8
RACCORDO
100
AcDbLine
 62
250
  6
CONTINUOUS
 10
-9.4781437817
 20
14.2974685017
 11
-9.4781437817
 21
12.2025314983
  0
LINE
  5
363
100
AcDbEntity
  8
RACCORDO
100
AcDbLine
 62
250
  6
CONTINUOUS
 10
-9.4781437817
 20
-12.2025314983
 11
-9.4781437817
 21
-14.2974685017
  0
LWPOLYLINE
  5
364
100
AcDbEntity
  8
RACCORDO
100
AcDbPolyline
 62
250
  6
CONTINUOUS
 90
19
 70
0
 10
-10.1899160682
 20
17.772203777
 10
-10.1898656152
 20
20.2460084826
 10
-10.1897417687
 20
20.2636010933
 10
-10.1895445286
 20
20.2805740552
 10
-10.1892652834
 20
20.2970840191
 10
-10.1889126447
 20
20.312974334
 10
-10.1885124466
 20
20.3277750479
 10
-10.1880641165
 20
20.3413544837
 10
-10.1875682271
 20
20.3538443183
 10
-10.18705233
 20
20.3651696303
 10
-10.1865274395
 20
20.3751839945
 10
-10.1859825414
 20
20.384033836
 10
-10.1854121446
 20
20.3920835087
 10
-10.1848214071
 20
20.3994377579
 10
-10.1842051708
 20
20.4059918383
 10
-10.1835424701
 20
20.4117958683
 10
-10.1828263163
 20
20.4168665538
 10
-10.1820636981
 20
20.421187189
 10
-10.1812546154
 20
20.4247577736
  0
LINE
  5
365
100
AcDbEntity
  8
RACCORDO
100
AcDbLine
 62
250
  6
CONTINUOUS
 10
-10.4895049286
 20
20.227796223
 11
-10.4891329734
 21
20.3597408014
  0
LINE
  5
366
100
AcDbEntity
  8
RACCORDO
100
AcDbLine
 62
250
  6
CONTINUOUS
 10
-10.4891329734
 20
20.3597408014
 11
-10.4881015185
 21
20.4777432871
  0
LINE
  5
367
100
AcDbEntity
  8
RACCORDO
100
AcDbLine
 62
250
  6
CONTINUOUS
 10
-10.4881015185
 20
20.4777432871
 11
-10.487157035
 21
20.5430120231
  0
LINE
  5
368
100
AcDbEntity
  8
RACCORDO
100
AcDbLine
 62
7
  6
CONTINUOUS
 10
-9.0442662528
 20
17.2110518301
 11
-9.0449232236
 21
17.1728672398
  0
LINE
  5
369
100
AcDbEntity
  8
0
100
AcDbLine
 62
7
  6
CONTINUOUS
 10
-9.0442742373
 20
17.2105912008
 11
-9.0449425727
 21
17.1719341249
  0
LINE
  5
36A
100
AcDbEntity
  8
RACCORDO
100
AcDbLine
 62
250
  6
CONTINUOUS
 10
-10.487157035
 20
20.5430120231
 11
-10.4861159398
 21
20.5961471211
  0
LWPOLYLINE
  5
36B
100
AcDbEntity
  8
RACCORDO
100
AcDbPolyline
 62
7
  6
CONTINUOUS
 90
3
 70
0
 10
-9.0449232236
 20
17.1728672398
 10
-9.0458817221
 20
17.1336557663
 10
-9.0464718795
 20
17.1137384701
  0
LWPOLYLINE
  5
36C
100
AcDbEntity
  8
0
100
AcDbPolyline
 62
7
  6
CONTINUOUS
 90
3
 70
0
 10
-9.0449425727
 20
17.1719341249
 10
-9.0458922521
 20
17.13315875
 10
-9.046471879
 20
17.1137384896
  0
LWPOLYLINE
  5
36D
100
AcDbEntity
  8
RACCORDO
100
AcDbPolyline
 62
250
  6
CONTINUOUS
 90
8
 70
0
 10
-10.4861159398
 20
20.5961471211
 10
-10.4850006092
 20
20.6385144335
 10
-10.4844103792
 20
20.6567743791
 10
-10.483794849
 20
20.673023196
 10
-10.4831325412
 20
20.6877953453
 10
-10.4824162969
 20
20.7009260718
 10
-10.4816532751
 20
20.7118458251
 10
-10.4808434758
 20
20.7202000995
  0
LINE
  5
36E
100
AcDbEntity
  8
RACCORDO
100
AcDbLine
 62
250
  6
CONTINUOUS
 10
-8.9906998245
 20
14.6873540788
 11
-8.990983826
 21
14.6795029775
  0
LINE
  5
36F
100
AcDbEntity
  8
RACCORDO
100
AcDbLine
 62
250
  6
CONTINUOUS
 10
-8.9897691815
 20
14.7084873236
 11
-8.9899917147
 21
14.7031047242
  0
LWPOLYLINE
  5
370
100
AcDbEntity
  8
RACCORDO
100
AcDbPolyline
 62
7
  6
CONTINUOUS
 90
13
 70
0
 10
-10.1
 20
17.2832600784
 10
-10.1017372293
 20
17.2447913071
 10
-10.1077279869
 20
17.2060537483
 10
-10.1179722727
 20
17.167047402
 10
-10.1325680484
 20
17.1274241582
 10
-10.1514173525
 20
17.0875321268
 10
-10.1742262998
 20
17.0484156379
 10
-10.2012286086
 20
17.0104195303
 10
-10.2321905607
 20
16.9731989652
 10
-10.2661171168
 20
16.9367637557
 10
-10.3026765972
 20
16.9011171728
 10
-10.3422006816
 20
16.8662559455
 10
-10.38468937
 20
16.8321800738
  0
LINE
  5
371
100
AcDbEntity
  8
RACCORDO
100
AcDbLine
 62
250
  6
CONTINUOUS
 10
-8.9903561193
 20
14.6951994825
 11
-8.9906998245
 21
14.6873540788
  0
LINE
  5
372
100
AcDbEntity
  8
RACCORDO
100
AcDbLine
 62
250
  6
CONTINUOUS
 10
-8.9899917147
 20
14.7031047242
 11
-8.9903561193
 21
14.6951994825
  0
LWPOLYLINE
  5
373
100
AcDbEntity
  8
RACCORDO
100
AcDbPolyline
 62
250
  6
CONTINUOUS
 90
13
 70
0
 10
-9.4363690968
 20
11.9528741146
 10
-9.4377925411
 20
11.9334336967
 10
-9.441690339
 20
11.9143220772
 10
-9.4479965665
 20
11.8958624937
 10
-9.4566045655
 20
11.8783671556
 10
-9.4673687477
 20
11.862131964
 10
-9.480107057
 20
11.8474315071
 10
-9.4946040486
 20
11.8345144155
 10
-9.5106145329
 20
11.823599158
 10
-9.5278677224
 20
11.8148703457
 10
-9.5460718115
 20
11.8084756103
 10
-9.5649189118
 20
11.8045231068
 10
-9.5840902598
 20
11.8030796844
  0
LWPOLYLINE
  5
374
100
AcDbEntity
  8
RACCORDO
100
AcDbPolyline
 62
250
  6
CONTINUOUS
 90
13
 70
0
 10
-9.0838072388
 20
12.8004043818
 10
-9.0823837946
 20
12.8198447998
 10
-9.0784859967
 20
12.8389564192
 10
-9.0721797692
 20
12.8574160028
 10
-9.0635717702
 20
12.8749113408
 10
-9.052807588
 20
12.8911465324
 10
-9.0400692787
 20
12.9058469894
 10
-9.0255722871
 20
12.9187640809
 10
-9.0095618027
 20
12.9296793385
 10
-8.9923086133
 20
12.9384081507
 10
-8.9741045242
 20
12.9448028862
 10
-8.9552574239
 20
12.9487553897
 10
-8.9360860759
 20
12.950198812
  0
LWPOLYLINE
  5
375
100
AcDbEntity
  8
RACCORDO
100
AcDbPolyline
 62
250
  6
CONTINUOUS
 90
13
 70
0
 10
-8.9909750246
 20
12.7728128574
 10
-8.9895514496
 20
12.7922542289
 10
-8.9856533155
 20
12.8113666203
 10
-8.9793466092
 20
12.8298267642
 10
-8.9707380414
 20
12.8473224588
 10
-8.9599732725
 20
12.8635577786
 10
-8.9472344734
 20
12.8782580964
 10
-8.9327371718
 20
12.891174826
 10
-8.9167266096
 20
12.9020895756
 10
-8.8994736551
 20
12.9108177983
 10
-8.881270153
 20
12.9172119651
 10
-8.8624239771
 20
12.9211640406
 10
-8.8432538616
 20
12.9226072876
  0
LWPOLYLINE
  5
376
100
AcDbEntity
  8
RACCORDO
100
AcDbPolyline
 62
250
  6
CONTINUOUS
 90
13
 70
0
 10
-8.36067643
 20
13.0891664262
 10
-8.3620998746
 20
13.069726008
 10
-8.3659976728
 20
13.0506143884
 10
-8.3723039005
 20
13.0321548047
 10
-8.3809118996
 20
13.0146594666
 10
-8.3916760818
 20
12.9984242751
 10
-8.4044143911
 20
12.9837238181
 10
-8.4189113826
 20
12.9708067267
 10
-8.4349218668
 20
12.9598914693
 10
-8.4521750561
 20
12.9511626571
 10
-8.470379145
 20
12.9447679218
 10
-8.4892262452
 20
12.9408154184
 10
-8.508397593
 20
12.939371996
  0
LWPOLYLINE
  5
377
100
AcDbEntity
  8
RACCORDO
100
AcDbPolyline
 62
7
  6
CONTINUOUS
 90
3
 70
0
 10
-9.0571136252
 20
16.9958027615
 10
-9.0499027423
 20
17.0560467591
 10
-9.0460819196
 20
17.1171534187
  0
LINE
  5
378
100
AcDbEntity
  8
DRAFT
100
AcDbLine
 62
7
  6
CONTINUOUS
 10
9.5765789843
 20
14.823183336
 11
9.6449489743
 21
14.85
  0
LINE
  5
379
100
AcDbEntity
  8
DRAFT
100
AcDbLine
 62
7
  6
CONTINUOUS
 10
9.54364068
 20
14.8104809319
 11
9.5765789843
 21
14.823183336
  0
LWPOLYLINE
  5
37A
100
AcDbEntity
  8
DRAFT
100
AcDbPolyline
 62
7
  6
CONTINUOUS
 90
3
 70
0
 10
9.4950979979
 20
14.7923514428
 10
9.5111518454
 20
14.7982720964
 10
9.54364068
 20
14.8104809319
  0
LWPOLYLINE
  5
37B
100
AcDbEntity
  8
RACCORDO
100
AcDbPolyline
 62
7
  6
CONTINUOUS
 90
19
 70
0
 10
9.3292938566
 20
15.0397929133
 10
9.3058700183
 20
15.0313311791
 10
9.2842996721
 20
15.0213091129
 10
9.2645828182
 20
15.0097689804
 10
9.2466321716
 20
14.9965673499
 10
9.2305350173
 20
14.9820444849
 10
9.2165532097
 20
14.9669936803
 10
9.2048630278
 20
14.9516183521
 10
9.1952881927
 20
14.9360814219
 10
9.1875617227
 20
14.9210600022
 10
9.1817883447
 20
14.9068623835
 10
9.1778633318
 20
14.8935224764
 10
9.1752055211
 20
14.8812431781
 10
9.1737859129
 20
14.8702029055
 10
9.1736335068
 20
14.8605966801
 10
9.1742541396
 20
14.8526297535
 10
9.17548309
 20
14.846463986
 10
9.1774850792
 20
14.8422335356
 10
9.1802601072
 20
14.8400670064
  0
LINE
  5
37C
100
AcDbEntity
  8
RACCORDO
100
AcDbLine
 62
250
  6
CONTINUOUS
 10
8.2468562183
 20
13.0553368642
 11
8.36067643
 21
13.0891664262
  0
LINE
  5
37D
100
AcDbEntity
  8
RACCORDO
100
AcDbLine
 62
250
  6
CONTINUOUS
 10
8.4009945665
 20
12.9074497452
 11
8.508397593
 21
12.939371996
  0
LINE
  5
37E
100
AcDbEntity
  8
RACCORDO
100
AcDbLine
 62
250
  6
CONTINUOUS
 10
8.8432538616
 20
12.9226072876
 11
8.9360860759
 21
12.950198812
  0
LINE
  5
37F
100
AcDbEntity
  8
RACCORDO
100
AcDbLine
 62
250
  6
CONTINUOUS
 10
8.9909750246
 20
12.7728128574
 11
9.0838070899
 21
12.8004043375
  0
LWPOLYLINE
  5
380
100
AcDbEntity
  8
RACCORDO
100
AcDbPolyline
 62
250
  6
CONTINUOUS
 90
19
 70
0
 10
8.9360820784
 20
12.950198812
 10
8.9414630465
 20
12.9517568939
 10
8.9465615457
 20
12.9547363419
 10
8.9513775758
 20
12.9590002807
 10
8.9559387257
 20
12.9644243228
 10
8.9602174067
 20
12.9708534902
 10
8.9641308518
 20
12.9780717523
 10
8.9676357337
 20
12.9858510561
 10
8.9707753798
 20
12.994086282
 10
8.9735970054
 20
13.0027596611
 10
8.976095495
 20
13.0117050352
 10
8.978275964
 20
13.0208757949
 10
8.9802009749
 20
13.0305206443
 10
8.9819023366
 20
13.04058141
 10
8.9833482401
 20
13.0510173601
 10
8.984505821
 20
13.0621795917
 10
8.9853641245
 20
13.0741695909
 10
8.9859341054
 20
13.086799392
 10
8.9862157637
 20
13.0999932422
  0
LINE
  5
381
100
AcDbEntity
  8
RACCORDO
100
AcDbLine
 62
250
  6
CONTINUOUS
 10
-9.070032489
 20
-11.4596376556
 11
-9.0487711985
 21
-11.4589914257
  0
LINE
  5
382
100
AcDbEntity
  8
RACCORDO
100
AcDbLine
 62
7
  6
CONTINUOUS
 10
10.9645351961
 20
-10.75
 11
10.85
 21
-10.75
  0
LINE
  5
383
100
AcDbEntity
  8
RACCORDO
100
AcDbLine
 62
7
  6
CONTINUOUS
 10
-10.9645351961
 20
-10.75
 11
-10.85
 21
-10.75
  0
LINE
  5
384
100
AcDbEntity
  8
DRAFT
100
AcDbLine
 62
7
  6
CONTINUOUS
 10
10.9828653412
 20
-10.75
 11
10.9645351961
 21
-10.75
  0
LINE
  5
385
100
AcDbEntity
  8
DRAFT
100
AcDbLine
 62
7
  6
CONTINUOUS
 10
-10.9828653412
 20
-10.75
 11
-10.9645351961
 21
-10.75
  0
LWPOLYLINE
  5
386
100
AcDbEntity
  8
RACCORDO
100
AcDbPolyline
 62
250
  6
CONTINUOUS
 90
10
 70
0
 10
8.9909750246
 20
-12.7728130342
 10
8.9811399984
 20
-12.7711814264
 10
8.9675804623
 20
-12.7696285279
 10
8.9505555708
 20
-12.7681543388
 10
8.9302278237
 20
-12.7667473843
 10
8.9069673762
 20
-12.7654191391
 10
8.8815104166
 20
-12.7642040279
 10
8.8543917225
 20
-12.7631141484
 10
8.8259277149
 20
-12.7621374029
 10
8.7674556484
 20
-12.760527518
  0
LWPOLYLINE
  5
387
100
AcDbEntity
  8
RACCORDO
100
AcDbPolyline
 62
250
  6
CONTINUOUS
 90
14
 70
0
 10
8.8432538616
 20
-12.9226072876
 10
8.8360490969
 20
-12.9209759801
 10
8.8266178897
 20
-12.9194232676
 10
8.8149602402
 20
-12.91794915
 10
8.800743357
 20
-12.916542092
 10
8.7843000315
 20
-12.9152136289
 10
8.7666286372
 20
-12.9139983674
 10
8.7477531669
 20
-12.9129084928
 10
8.727649628
 20
-12.9119318197
 10
8.7072444161
 20
-12.9110663979
 10
8.6869440944
 20
-12.9103220101
 10
8.6663420999
 20
-12.9096888736
 10
8.6451451386
 20
-12.9091356906
 10
8.6012382924
 20
-12.9082470806
  0
LINE
  5
388
100
AcDbEntity
  8
RACCORDO
100
AcDbLine
 62
250
  6
CONTINUOUS
 10
8.36067643
 20
-13.0891664262
 11
8.2468562183
 21
-13.0553368642
  0
LINE
  5
389
100
AcDbEntity
  8
RACCORDO
100
AcDbLine
 62
250
  6
CONTINUOUS
 10
8.508397593
 20
-12.939371996
 11
8.4009945665
 21
-12.9074497452
  0
LINE
  5
38A
100
AcDbEntity
  8
RACCORDO
100
AcDbLine
 62
250
  6
CONTINUOUS
 10
9.0838071306
 20
-12.8004043496
 11
8.9909750246
 21
-12.7728128574
  0
LWPOLYLINE
  5
38B
100
AcDbEntity
  8
DRAFT
100
AcDbPolyline
 62
7
  6
CONTINUOUS
 90
3
 70
0
 10
9.4950979979
 20
-14.7923514428
 10
9.5273327394
 20
-14.8043152594
 10
9.54364068
 20
-14.8104809319
  0
LINE
  5
38C
100
AcDbEntity
  8
DRAFT
100
AcDbLine
 62
7
  6
CONTINUOUS
 10
9.54364068
 20
-14.8104809319
 11
9.5765789843
 21
-14.823183336
  0
LINE
  5
38D
100
AcDbEntity
  8
DRAFT
100
AcDbLine
 62
7
  6
CONTINUOUS
 10
9.5765789843
 20
-14.823183336
 11
9.6449489743
 21
-14.85
  0
LWPOLYLINE
  5
38E
100
AcDbEntity
  8
0
100
AcDbPolyline
 62
7
  6
CONTINUOUS
 90
10
 70
0
 10
-0.6159736925
 20
-12.1293319142
 10
-0.5908635812
 20
-12.1454797216
 10
-0.5674356914
 20
-12.1626776914
 10
-0.5456900229
 20
-12.1809258234
 10
-0.5257593729
 20
-12.2000814197
 10
-0.5075109442
 20
-12.2202871782
 10
-0.490546346
 20
-12.2419711933
 10
-0.4747327811
 20
-12.265276163
 10
-0.4602030467
 20
-12.2900593894
 10
-0.4469571427
 20
-12.3163208723
  0
LWPOLYLINE
  5
38F
100
AcDbEntity
  8
0
100
AcDbPolyline
 62
7
  6
CONTINUOUS
 90
10
 70
0
 10
0.8219241447
 20
-12.1293319142
 10
0.8470341575
 20
-12.1454796593
 10
0.8704619623
 20
-12.1626775751
 10
0.8922075594
 20
-12.1809256614
 10
0.9121381469
 20
-12.2000812106
 10
0.9303865266
 20
-12.2202869303
 10
0.9473511033
 20
-12.2419709441
 10
0.9631646787
 20
-12.2652759595
 10
0.977694451
 20
-12.2900592689
 10
0.9909404203
 20
-12.3163208723
  0
LWPOLYLINE
  5
390
100
AcDbEntity
  8
0
100
AcDbPolyline
 62
7
  6
CONTINUOUS
 90
10
 70
0
 10
1.6501417773
 20
-14.3670174257
 10
1.6266203702
 20
-14.3517489551
 10
1.6043358112
 20
-14.3348560255
 10
1.5832881003
 20
-14.316338637
 10
1.5635778186
 20
-14.2964292407
 10
1.545104385
 20
-14.2748953854
 10
1.5275660565
 20
-14.2510397174
 10
1.5108622521
 20
-14.2246297856
 10
1.4950935528
 20
-14.1958980412
 10
1.4802599585
 20
-14.1648444841
  0
LWPOLYLINE
  5
391
100
AcDbEntity
  8
0
100
AcDbPolyline
 62
7
  6
CONTINUOUS
 90
10
 70
0
 10
-0.7529798195
 20
-12.3139094089
 10
-0.7664726781
 20
-12.3038274758
 10
-0.7809990655
 20
-12.2947811572
 10
-0.7965589814
 20
-12.2867704533
 10
-0.8130424435
 20
-12.2797291965
 10
-0.8305594343
 20
-12.2737235543
 10
-0.8494399013
 20
-12.2689520287
 10
-0.8697938269
 20
-12.2654807872
 10
-0.8915112287
 20
-12.2632436624
 10
-0.9145921066
 20
-12.2622406542
  0
LWPOLYLINE
  5
392
100
AcDbEntity
  8
0
100
AcDbPolyline
 62
7
  6
CONTINUOUS
 90
10
 70
0
 10
0.6849177957
 20
-12.3139093436
 10
0.6714250542
 20
-12.3038274577
 10
0.6568987565
 20
-12.2947811738
 10
0.6413389024
 20
-12.286770492
 10
0.6248554787
 20
-12.2797292415
 10
0.6073384986
 20
-12.2737235932
 10
0.5884580023
 20
-12.2689520591
 10
0.5681040032
 20
-12.2654808099
 10
0.5463864879
 20
-12.2632436749
 10
0.5233054563
 20
-12.2622406542
  0
LWPOLYLINE
  5
393
100
AcDbEntity
  8
0
100
AcDbPolyline
 62
7
  6
CONTINUOUS
 90
10
 70
0
 10
0.3564791226
 20
-14.1886071649
 10
0.3687244052
 20
-14.1982247739
 10
0.3823512467
 20
-14.2068556191
 10
0.3973596469
 20
-14.2144997004
 10
0.413612509
 20
-14.221226752
 10
0.4312469299
 20
-14.2269670397
 10
0.4506742007
 20
-14.2315113615
 10
0.4720314185
 20
-14.2347899832
 10
0.4951814864
 20
-14.2368726389
 10
0.5201244041
 20
-14.2377593286
  0
LWPOLYLINE
  5
394
100
AcDbEntity
  8
0
100
AcDbPolyline
 62
7
  6
CONTINUOUS
 90
10
 70
0
 10
1.7943766855
 20
-14.1886071649
 10
1.8066219682
 20
-14.1982247739
 10
1.8202488097
 20
-14.2068556191
 10
1.8352572099
 20
-14.2144997004
 10
1.851510072
 20
-14.221226752
 10
1.8691444928
 20
-14.2269670397
 10
1.8885717637
 20
-14.2315113615
 10
1.9099289815
 20
-14.2347899832
 10
1.9330790493
 20
-14.2368726389
 10
1.9580219671
 20
-14.2377593286
  0
LWPOLYLINE
  5
395
100
AcDbEntity
  8
0
100
AcDbPolyline
 62
7
  6
CONTINUOUS
 90
10
 70
0
 10
-3.3872393527
 20
-12.2025941542
 10
-3.3638241944
 20
-12.2296007125
 10
-3.3424375215
 20
-12.261460507
 10
-3.3230793337
 20
-12.2981735376
 10
-3.3053940675
 20
-12.3392186886
 10
-3.2897372866
 20
-12.3851170757
 10
-3.2771756822
 20
-12.4374320459
 10
-3.2680648182
 20
-12.4966847149
 10
-3.2620491307
 20
-12.562353967
 10
-3.2591286197
 20
-12.6344398022
  0
LWPOLYLINE
  5
396
100
AcDbEntity
  8
0
100
AcDbPolyline
 62
7
  6
CONTINUOUS
 90
10
 70
0
 10
-3.5804288074
 20
-12.3799446583
 10
-3.5871001656
 20
-12.36857395
 10
-3.5944638924
 20
-12.3577126776
 10
-3.602519988
 20
-12.3473608411
 10
-3.6112088151
 20
-12.3375434846
 10
-3.620590011
 20
-12.328235564
 10
-3.6308424872
 20
-12.3193619465
 10
-3.6420258812
 20
-12.3108975878
 10
-3.6540805557
 20
-12.3028675321
 10
-3.6670065106
 20
-12.2952717795
  0
LWPOLYLINE
  5
397
100
AcDbEntity
  8
RACCORDO
100
AcDbPolyline
 62
250
  6
CONTINUOUS
 90
6
 70
0
 10
-10.4808434758
 20
17.2797999005
 10
-10.4817997298
 20
17.2899402264
 10
-10.4827053289
 20
17.3039273927
 10
-10.4835602733
 20
17.3214340784
 10
-10.4843699304
 20
17.3422174347
 10
-10.4851289328
 20
17.3658591941
  0
LWPOLYLINE
  5
398
100
AcDbEntity
  8
RACCORDO
100
AcDbPolyline
 62
250
  6
CONTINUOUS
 90
13
 70
0
 10
-9.4363690968
 20
14.5471258854
 10
-9.4377923113
 20
14.5665646905
 10
-9.4416895585
 20
14.5856750991
 10
-9.4479950565
 20
14.6041339123
 10
-9.4566022987
 20
14.6216289389
 10
-9.4673658275
 20
14.6378642281
 10
-9.4801036701
 20
14.6525650886
 10
-9.4946004804
 20
14.6654828209
 10
-9.5106111257
 20
14.6763988476
 10
-9.5278647715
 20
14.6851284078
 10
-9.5460695822
 20
14.6915237743
 10
-9.5649176789
 20
14.6954767212
 10
-9.5840902598
 20
14.6969203156
  0
LWPOLYLINE
  5
399
100
AcDbEntity
  8
RACCORDO
100
AcDbPolyline
 62
250
  6
CONTINUOUS
 90
13
 70
0
 10
-9.0838072388
 20
13.6995956182
 10
-9.082383798
 20
13.6801552245
 10
-9.078486009
 20
13.6610436253
 10
-9.0721797944
 20
13.6425840571
 10
-9.0635718113
 20
13.62508873
 10
-9.0528076462
 20
13.6088535436
 10
-9.0400693517
 20
13.5941530842
 10
-9.0255723701
 20
13.5812359836
 10
-9.0095618896
 20
13.5703207125
 10
-8.9923086944
 20
13.5615918836
 10
-8.9741045885
 20
13.5551971317
 10
-8.9552574609
 20
13.5512446155
 10
-8.9360860759
 20
13.549801188
  0
LWPOLYLINE
  5
39A
100
AcDbEntity
  8
RACCORDO
100
AcDbPolyline
 62
250
  6
CONTINUOUS
 90
13
 70
0
 10
-8.9909750246
 20
13.7271871426
 10
-8.9895515803
 20
13.7077467247
 10
-8.9856537824
 20
13.6886351052
 10
-8.9793475549
 20
13.6701755217
 10
-8.9707395559
 20
13.6526801836
 10
-8.9599753737
 20
13.6364449921
 10
-8.9472370644
 20
13.6217445351
 10
-8.9327400728
 20
13.6088274435
 10
-8.9167295885
 20
13.597912186
 10
-8.899476399
 20
13.5891833737
 10
-8.88127231
 20
13.5827886383
 10
-8.8624252096
 20
13.5788361348
 10
-8.8432538616
 20
13.5773927124
  0
LWPOLYLINE
  5
39B
100
AcDbEntity
  8
RACCORDO
100
AcDbPolyline
 62
250
  6
CONTINUOUS
 90
16
 70
0
 10
-8.0991350553
 20
-13.0553376422
 10
-8.1016142024
 20
-13.020085095
 10
-8.1075100375
 20
-12.986514295
 10
-8.1168225606
 20
-12.9546252423
 10
-8.1300746222
 20
-12.9240126475
 10
-8.1467433718
 20
-12.8950817999
 10
-8.1652602583
 20
-12.8690485672
 10
-8.1852908246
 20
-12.8464573429
 10
-8.2071695279
 20
-12.8267637335
 10
-8.2303311878
 20
-12.809550426
 10
-8.2543695708
 20
-12.7946733896
 10
-8.2796909104
 20
-12.7822766552
 10
-8.3069487277
 20
-12.7723750026
 10
-8.336360863
 20
-12.7649733583
 10
-8.367709476
 20
-12.7600667958
 10
-8.4009945665
 20
-12.757655315
  0
LWPOLYLINE
  5
39C
100
AcDbEntity
  8
RACCORDO
100
AcDbPolyline
 62
250
  6
CONTINUOUS
 90
16
 70
0
 10
-8.2468565534
 20
-13.0553369638
 10
-8.2477574631
 20
-13.0379809244
 10
-8.2506817746
 20
-13.0211086902
 10
-8.2555158378
 20
-13.0049263318
 10
-8.2621927764
 20
-12.9895123196
 10
-8.2705224255
 20
-12.9751457571
 10
-8.2800805119
 20
-12.9622406783
 10
-8.2904310461
 20
-12.9510167617
 10
-8.3014835902
 20
-12.9412595384
 10
-8.3133285037
 20
-12.9327041424
 10
-8.3257226948
 20
-12.9254361885
 10
-8.3386311061
 20
-12.9194103253
 10
-8.3526240035
 20
-12.9144075831
 10
-8.367871442
 20
-12.9105675896
 10
-8.3840422824
 20
-12.9081838158
 10
-8.4009950914
 20
-12.9074499012
  0
LWPOLYLINE
  5
39D
100
AcDbEntity
  8
RACCORDO
100
AcDbPolyline
 62
250
  6
CONTINUOUS
 90
16
 70
0
 10
-8.2468565534
 20
13.4446630362
 10
-8.2477574631
 20
13.4620190756
 10
-8.2506817746
 20
13.4788913098
 10
-8.2555158378
 20
13.4950736682
 10
-8.2621927764
 20
13.5104876804
 10
-8.2705224255
 20
13.5248542429
 10
-8.2800805119
 20
13.5377593217
 10
-8.2904310461
 20
13.5489832383
 10
-8.3014835902
 20
13.5587404616
 10
-8.3133285037
 20
13.5672958576
 10
-8.3257226948
 20
13.5745638115
 10
-8.3386311061
 20
13.5805896747
 10
-8.3526240035
 20
13.5855924169
 10
-8.367871442
 20
13.5894324104
 10
-8.3840422824
 20
13.5918161842
 10
-8.4009950914
 20
13.5925500988
  0
LINE
  5
39E
100
AcDbEntity
  8
RACCORDO
100
AcDbLine
 62
250
  6
CONTINUOUS
 10
-8.9905907631
 20
11.8100266128
 11
-8.9899913245
 21
11.7968867079
  0
LWPOLYLINE
  5
39F
100
AcDbEntity
  8
0
100
AcDbPolyline
 62
7
  6
CONTINUOUS
 90
12
 70
0
 10
-9.0437443318
 20
20.8854350923
 10
-9.0474540208
 20
20.9701179642
 10
-9.057977508
 20
21.0531109984
 10
-9.0753147935
 20
21.134414195
 10
-9.0996747431
 20
21.214577931
 10
-9.1308484908
 20
21.2930518293
 10
-9.1682094393
 20
21.3681847586
 10
-9.2118932487
 20
21.4399108051
 10
-9.2617642588
 20
21.5082958825
 10
-9.3167888917
 20
21.5718866015
 10
-9.3766226214
 20
21.6301984987
 10
-9.441609974
 20
21.6837160374
  0
LWPOLYLINE
  5
3A0
100
AcDbEntity
  8
RACCORDO
100
AcDbPolyline
 62
250
  6
CONTINUOUS
 90
51
 70
0
 10
-8.9899913245
 20
11.7968867079
 10
-8.9897680685
 20
11.7914854356
 10
-8.989672116
 20
11.788707581
 10
-8.9895919035
 20
11.7858654846
 10
-8.989530363
 20
11.7829637232
 10
-8.9894976794
 20
11.7799788777
 10
-8.989497683
 20
11.7769097229
 10
-8.9895355156
 20
11.7737621577
 10
-8.989625772
 20
11.7705243982
 10
-8.9897732821
 20
11.7671992452
 10
-8.989984447
 20
11.7637907243
 10
-8.9902782757
 20
11.7602900268
 10
-8.9906615991
 20
11.7566969789
 10
-8.9911414374
 20
11.7530217056
 10
-8.9917382904
 20
11.7492719503
 10
-8.9924596898
 20
11.7454515012
 10
-8.9933122722
 20
11.7415695695
 10
-8.9943148934
 20
11.7376426647
 10
-8.9954733426
 20
11.7336816588
 10
-8.996794455
 20
11.7296913436
 10
-8.9982983887
 20
11.7256799501
 10
-8.9999958478
 20
11.7216487089
 10
-9.0018888574
 20
11.7176165566
 10
-9.0039826653
 20
11.7136179568
 10
-9.0062927234
 20
11.7096474603
 10
-9.008811105
 20
11.7057316068
 10
-9.0114995089
 20
11.7019459392
 10
-9.0143540496
 20
11.6983001744
 10
-9.0173709437
 20
11.6947934198
 10
-9.0205014091
 20
11.6914737345
 10
-9.0237295274
 20
11.6883492525
 10
-9.0270548853
 20
11.6854081226
 10
-9.0304466919
 20
11.6826605949
 10
-9.0338866605
 20
11.6801094079
 10
-9.0373763913
 20
11.6777422804
 10
-9.040914894
 20
11.6755457385
 10
-9.0444885187
 20
11.6735188545
 10
-9.0480981
 20
11.6716544263
 10
-9.051766769
 20
11.6699335188
 10
-9.0554872041
 20
11.6683546836
 10
-9.0592579483
 20
11.6669166248
 10
-9.0631134262
 20
11.6656067501
 10
-9.0670491173
 20
11.6644256215
 10
-9.0710630946
 20
11.6633760322
 10
-9.0751953277
 20
11.6624549911
 10
-9.0794541604
 20
11.6616637193
 10
-9.0838254002
 20
11.6610109527
 10
-9.0883154554
 20
11.6605072825
 10
-9.0929239042
 20
11.6601583758
 10
-9.0976436012
 20
11.6599657628
 10
-9.1024704672
 20
11.6599329936
  0
LINE
  5
3A1
100
AcDbEntity
  8
RACCORDO
100
AcDbLine
 62
250
  6
CONTINUOUS
 10
-8.9908000243
 20
11.8152586084
 11
-8.9905907631
 21
11.8100266128
  0
LINE
  5
3A2
100
AcDbEntity
  8
RACCORDO
100
AcDbLine
 62
250
  6
CONTINUOUS
 10
-8.9909840278
 20
11.8204970825
 11
-8.9908000243
 21
11.8152586084
  0
LINE
  5
3A3
100
AcDbEntity
  8
RACCORDO
100
AcDbLine
 62
7
  6
CONTINUOUS
 10
-9.0437443317
 20
20.8854350878
 11
-9.0459517855
 21
20.9523367962
  0
LWPOLYLINE
  5
3A4
100
AcDbEntity
  8
RACCORDO
100
AcDbPolyline
 62
250
  6
CONTINUOUS
 90
16
 70
0
 10
-8.9862157512
 20
-13.4000067578
 10
-8.9859021332
 20
-13.4152339201
 10
-8.9850975331
 20
-13.4302073733
 10
-8.9838019508
 20
-13.444778897
 10
-8.9819890076
 20
-13.4587951016
 10
-8.9796850822
 20
-13.4721421063
 10
-8.9769693109
 20
-13.4847398832
 10
-8.9738559925
 20
-13.4964245577
 10
-8.9703308281
 20
-13.5071504019
 10
-8.9664300581
 20
-13.5169763898
 10
-8.9621334834
 20
-13.5258021919
 10
-8.957461303
 20
-13.5334459649
 10
-8.9525103547
 20
-13.5397930175
 10
-8.9473129176
 20
-13.5447158396
 10
-8.9418367126
 20
-13.5480878499
 10
-8.8432538616
 20
-13.5773927124
  0
LWPOLYLINE
  5
3A5
100
AcDbEntity
  8
RACCORDO
100
AcDbPolyline
 62
250
  6
CONTINUOUS
 90
16
 70
0
 10
-8.9862157512
 20
13.0999932422
 10
-8.9859021332
 20
13.0847660799
 10
-8.9850975331
 20
13.0697926267
 10
-8.9838019508
 20
13.055221103
 10
-8.9819890076
 20
13.0412048984
 10
-8.9796850822
 20
13.0278578937
 10
-8.9769693109
 20
13.0152601168
 10
-8.9738559925
 20
13.0035754423
 10
-8.9703308281
 20
12.9928495981
 10
-8.9664300581
 20
12.9830236102
 10
-8.9621334834
 20
12.9741978081
 10
-8.957461303
 20
12.9665540351
 10
-8.9525103547
 20
12.9602069825
 10
-8.9473129176
 20
12.9552841604
 10
-8.9418367126
 20
12.9519121501
 10
-8.8432538616
 20
12.9226072876
  0
LWPOLYLINE
  5
3A6
100
AcDbEntity
  8
RACCORDO
100
AcDbPolyline
 62
250
  6
CONTINUOUS
 90
16
 70
0
 10
-9.1339368607
 20
-13.4000067578
 10
-9.1336247931
 20
-13.4309243153
 10
-9.1328210051
 20
-13.4607725604
 10
-9.1315254967
 20
-13.489551493
 10
-9.1297113013
 20
-13.5174767556
 10
-9.1274053855
 20
-13.5443327057
 10
-9.1246886497
 20
-13.5694724162
 10
-9.1215768602
 20
-13.5928061022
 10
-9.1180542508
 20
-13.6144235487
 10
-9.1141544235
 20
-13.6339471833
 10
-9.1098550219
 20
-13.6515018209
 10
-9.1051784024
 20
-13.6669626467
 10
-9.1002252363
 20
-13.6795776442
 10
-9.0950290809
 20
-13.6890961412
 10
-9.089556379
 20
-13.6957688099
 10
-9.0838071306
 20
-13.6995956504
  0
LWPOLYLINE
  5
3A7
100
AcDbEntity
  8
RACCORDO
100
AcDbPolyline
 62
250
  6
CONTINUOUS
 90
16
 70
0
 10
-9.1339368607
 20
13.0999932422
 10
-9.1336247931
 20
13.0690756847
 10
-9.1328210051
 20
13.0392274396
 10
-9.1315254967
 20
13.010448507
 10
-9.1297113013
 20
12.9825232444
 10
-9.1274053855
 20
12.9556672943
 10
-9.1246886497
 20
12.9305275838
 10
-9.1215768602
 20
12.9071938978
 10
-9.1180542508
 20
12.8855764513
 10
-9.1141544235
 20
12.8660528167
 10
-9.1098550219
 20
12.8484981791
 10
-9.1051784024
 20
12.8330373533
 10
-9.1002252363
 20
12.8204223558
 10
-9.0950290809
 20
12.8109038588
 10
-9.089556379
 20
12.8042311901
 10
-9.0838071306
 20
12.8004043496
  0
LINE
  5
3A8
100
AcDbEntity
  8
RACCORDO
100
AcDbLine
 62
250
  6
CONTINUOUS
 10
-9.1339368607
 20
13.4000067578
 11
-9.1339368607
 21
13.0999932422
  0
LINE
  5
3A9
100
AcDbEntity
  8
RACCORDO
100
AcDbLine
 62
250
  6
CONTINUOUS
 10
-9.1339368607
 20
-13.0999932422
 11
-9.1339368607
 21
-13.4000067578
  0
LINE
  5
3AA
100
AcDbEntity
  8
RACCORDO
100
AcDbLine
 62
250
  6
CONTINUOUS
 10
-9.1024704353
 20
11.6599329936
 11
-9.1024704671
 21
11.4602070867
  0
LINE
  5
3AB
100
AcDbEntity
  8
RACCORDO
100
AcDbLine
 62
250
  6
CONTINUOUS
 10
-9.1024704383
 20
-11.6599329936
 11
-9.1024704671
 21
-11.4602070867
  0
LINE
  5
3AC
100
AcDbEntity
  8
RACCORDO
100
AcDbLine
 62
250
  6
CONTINUOUS
 10
-9.1024704353
 20
-14.8400670064
 11
-9.1024704671
 21
-15.0397929133
  0
LINE
  5
3AD
100
AcDbEntity
  8
RACCORDO
100
AcDbLine
 62
250
  6
CONTINUOUS
 10
-9.1024704383
 20
14.8400670064
 11
-9.1024704671
 21
15.0397929133
  0
LINE
  5
3AE
100
AcDbEntity
  8
RACCORDO
100
AcDbLine
 62
250
  6
CONTINUOUS
 10
-8.9909750246
 20
14.6795055934
 11
-8.9909750246
 21
13.7271871426
  0
LINE
  5
3AF
100
AcDbEntity
  8
RACCORDO
100
AcDbLine
 62
250
  6
CONTINUOUS
 10
-8.9909750246
 20
12.7728128574
 11
-8.9909750246
 21
11.8204944066
  0
LINE
  5
3B0
100
AcDbEntity
  8
RACCORDO
100
AcDbLine
 62
250
  6
CONTINUOUS
 10
-8.9909750246
 20
-11.8204944066
 11
-8.9909750246
 21
-12.7728128574
  0
LINE
  5
3B1
100
AcDbEntity
  8
RACCORDO
100
AcDbLine
 62
250
  6
CONTINUOUS
 10
-8.9909750246
 20
-13.7271871426
 11
-8.9909750246
 21
-14.6795055934
  0
LINE
  5
3B2
100
AcDbEntity
  8
RACCORDO
100
AcDbLine
 62
250
  6
CONTINUOUS
 10
-8.9862156978
 20
13.4000067578
 11
-8.9862156978
 21
13.0999932422
  0
LINE
  5
3B3
100
AcDbEntity
  8
RACCORDO
100
AcDbLine
 62
250
  6
CONTINUOUS
 10
-8.9862156978
 20
-13.0999932422
 11
-8.9862156978
 21
-13.4000067578
  0
LINE
  5
3B4
100
AcDbEntity
  8
RACCORDO
100
AcDbLine
 62
250
  6
CONTINUOUS
 10
-8.7545995313
 20
-13.549801188
 11
-8.7545995313
 21
-12.950198812
  0
LINE
  5
3B5
100
AcDbEntity
  8
RACCORDO
100
AcDbLine
 62
250
  6
CONTINUOUS
 10
-8.7545995313
 20
13.549801188
 11
-8.7545995313
 21
12.950198812
  0
LINE
  5
3B6
100
AcDbEntity
  8
RACCORDO
100
AcDbLine
 62
250
  6
CONTINUOUS
 10
-8.4985711481
 20
14.6795055934
 11
-8.4985711481
 21
13.5925502548
  0
LINE
  5
3B7
100
AcDbEntity
  8
RACCORDO
100
AcDbLine
 62
250
  6
CONTINUOUS
 10
-8.4985711481
 20
-11.8204944066
 11
-8.4985711481
 21
-12.9074497452
  0
LINE
  5
3B8
100
AcDbEntity
  8
RACCORDO
100
AcDbLine
 62
250
  6
CONTINUOUS
 10
-8.4985711481
 20
-14.6795055934
 11
-8.4985711481
 21
-13.5925502548
  0
LINE
  5
3B9
100
AcDbEntity
  8
RACCORDO
100
AcDbLine
 62
250
  6
CONTINUOUS
 10
-8.4985711481
 20
11.8204944066
 11
-8.4985711481
 21
12.9074497452
  0
LINE
  5
3BA
100
AcDbEntity
  8
RACCORDO
100
AcDbLine
 62
250
  6
CONTINUOUS
 10
-8.4009945665
 20
13.742344685
 11
-8.4009945665
 21
13.5925502548
  0
LINE
  5
3BB
100
AcDbEntity
  8
RACCORDO
100
AcDbLine
 62
250
  6
CONTINUOUS
 10
-8.4009945665
 20
-12.757655315
 11
-8.4009945665
 21
-12.9074497452
  0
LINE
  5
3BC
100
AcDbEntity
  8
RACCORDO
100
AcDbLine
 62
250
  6
CONTINUOUS
 10
-8.4009945665
 20
-13.742344685
 11
-8.4009945665
 21
-13.5925502548
  0
LINE
  5
3BD
100
AcDbEntity
  8
RACCORDO
100
AcDbLine
 62
250
  6
CONTINUOUS
 10
-8.4009945665
 20
12.757655315
 11
-8.4009945665
 21
12.9074497452
  0
LINE
  5
3BE
100
AcDbEntity
  8
RACCORDO
100
AcDbLine
 62
250
  6
CONTINUOUS
 10
-8.36067643
 20
-13.4108335738
 11
-8.36067643
 21
-13.0891664262
  0
LINE
  5
3BF
100
AcDbEntity
  8
RACCORDO
100
AcDbLine
 62
250
  6
CONTINUOUS
 10
-8.36067643
 20
13.0891664262
 11
-8.36067643
 21
13.4108335738
  0
LINE
  5
3C0
100
AcDbEntity
  8
RACCORDO
100
AcDbLine
 62
250
  6
CONTINUOUS
 10
-8.2468562183
 20
-13.4446631358
 11
-8.2468562183
 21
-13.0553368642
  0
LINE
  5
3C1
100
AcDbEntity
  8
RACCORDO
100
AcDbLine
 62
250
  6
CONTINUOUS
 10
-8.2468562183
 20
13.0553368642
 11
-8.2468562183
 21
13.4446631358
  0
LINE
  5
3C2
100
AcDbEntity
  8
RACCORDO
100
AcDbLine
 62
250
  6
CONTINUOUS
 10
-8.0991350553
 20
-13.4446631358
 11
-8.0991350553
 21
-13.0553376422
  0
LINE
  5
3C3
100
AcDbEntity
  8
RACCORDO
100
AcDbLine
 62
250
  6
CONTINUOUS
 10
-8.0991350553
 20
13.0553368642
 11
-8.0991350553
 21
13.4446623578
  0
LINE
  5
3C4
100
AcDbEntity
  8
RACCORDO
100
AcDbLine
 62
7
  6
CONTINUOUS
 10
-9.0437443318
 20
20.8854350889
 11
-9.0437776133
 21
17.2687314972
  0
LINE
  5
3C5
100
AcDbEntity
  8
0
100
AcDbLine
 62
7
  6
CONTINUOUS
 10
-9.0437443318
 20
20.8854350923
 11
-9.0437765597
 21
17.2687283265
  0
LWPOLYLINE
  5
3C6
100
AcDbEntity
  8
0
100
AcDbPolyline
 62
7
  6
CONTINUOUS
 90
3
 70
0
 10
-9.0437765597
 20
17.2687283265
 10
-9.0440419902
 20
17.2299343223
 10
-9.0442742373
 20
17.2105912008
  0
LINE
  5
3C7
100
AcDbEntity
  8
RACCORDO
100
AcDbLine
 62
7
  6
CONTINUOUS
 10
-9.0437776133
 20
17.2687314972
 11
-9.0439990725
 21
17.2349395769
  0
LINE
  5
3C8
100
AcDbEntity
  8
RACCORDO
100
AcDbLine
 62
7
  6
CONTINUOUS
 10
-9.0439990725
 20
17.2349395769
 11
-9.0442662528
 21
17.2110518301
  0
LWPOLYLINE
  5
3C9
100
AcDbEntity
  8
RACCORDO
100
AcDbPolyline
 62
250
  6
CONTINUOUS
 90
57
 70
0
 10
-8.4985711481
 20
11.8204944066
 10
-8.4988433888
 20
11.8094655009
 10
-8.4996231023
 20
11.7984911262
 10
-8.5009102885
 20
11.7875712827
 10
-8.5027193874
 20
11.7766826189
 10
-8.5050359591
 20
11.7658484862
 10
-8.5078166836
 20
11.7551389385
 10
-8.5110503509
 20
11.7445941023
 10
-8.5147481711
 20
11.734173851
 10
-8.5189004541
 20
11.7238278588
 10
-8.5234908826
 20
11.7135621388
 10
-8.5285357739
 20
11.7033706779
 10
-8.5340743909
 20
11.6931851109
 10
-8.5401057702
 20
11.682985467
 10
-8.5466308752
 20
11.6727917171
 10
-8.5536918589
 20
11.6625954088
 10
-8.5612974719
 20
11.6523778868
 10
-8.5694389637
 20
11.6421578064
 10
-8.5781322364
 20
11.6319826816
 10
-8.587382268
 20
11.6218462337
 10
-8.5971840806
 20
11.6117547413
 10
-8.6075386421
 20
11.6017745547
 10
-8.6184659433
 20
11.5918915278
 10
-8.6299459934
 20
11.5821198067
 10
-8.641919788
 20
11.5725681799
 10
-8.6544006676
 20
11.5632367294
 10
-8.6673752918
 20
11.5541253733
 10
-8.680744634
 20
11.5453426546
 10
-8.6944999566
 20
11.5369027062
 10
-8.7086499972
 20
11.5287913952
 10
-8.7231219431
 20
11.5210748659
 10
-8.7379466474
 20
11.5137494767
 10
-8.753093257
 20
11.5068188691
 10
-8.7683963991
 20
11.5003601129
 10
-8.7839098693
 20
11.4943794894
 10
-8.7995798721
 20
11.4888707172
 10
-8.8150796476
 20
11.4838920213
 10
-8.8303725338
 20
11.4794815179
 10
-8.8454951928
 20
11.4756010909
 10
-8.8602308516
 20
11.4721946163
 10
-8.8745233979
 20
11.4692813622
 10
-8.8884289441
 20
11.4668420606
 10
-8.901899054
 20
11.4647627836
 10
-8.9148919508
 20
11.4630423953
 10
-8.9274494113
 20
11.4616820317
 10
-8.9396483303
 20
11.4605711727
 10
-8.9514709942
 20
11.4597004982
 10
-8.9629351166
 20
11.4590793284
 10
-8.9741707318
 20
11.4586251036
 10
-8.9851774915
 20
11.458330474
 10
-8.995955744
 20
11.4582027894
 10
-9.0066365696
 20
11.4581815403
 10
-9.0172226314
 20
11.4582661911
 10
-9.0277112662
 20
11.4584572773
 10
-9.0382255641
 20
11.4586958961
 10
-9.0487927028
 20
11.4589920762
 10
-9.0700455261
 20
11.4596380451
  0
LWPOLYLINE
  5
3CA
100
AcDbEntity
  8
RACCORDO
100
AcDbPolyline
 62
250
  6
CONTINUOUS
 90
57
 70
0
 10
-8.4985711481
 20
-14.6795055934
 10
-8.4988433888
 20
-14.6905344991
 10
-8.4996231023
 20
-14.7015088738
 10
-8.5009102885
 20
-14.7124287173
 10
-8.5027193874
 20
-14.7233173811
 10
-8.5050359591
 20
-14.7341515138
 10
-8.5078166836
 20
-14.7448610615
 10
-8.5110503509
 20
-14.7554058977
 10
-8.5147481711
 20
-14.765826149
 10
-8.5189004541
 20
-14.7761721412
 10
-8.5234908826
 20
-14.7864378612
 10
-8.5285357739
 20
-14.7966293221
 10
-8.5340743909
 20
-14.8068148891
 10
-8.5401057702
 20
-14.817014533
 10
-8.5466308752
 20
-14.8272082829
 10
-8.5536918589
 20
-14.8374045912
 10
-8.5612974719
 20
-14.8476221132
 10
-8.5694389637
 20
-14.8578421936
 10
-8.5781322364
 20
-14.8680173184
 10
-8.587382268
 20
-14.8781537663
 10
-8.5971840806
 20
-14.8882452587
 10
-8.6075386421
 20
-14.8982254453
 10
-8.6184659433
 20
-14.9081084722
 10
-8.6299459934
 20
-14.9178801933
 10
-8.641919788
 20
-14.9274318201
 10
-8.6544006676
 20
-14.9367632706
 10
-8.6673752918
 20
-14.9458746267
 10
-8.680744634
 20
-14.9546573454
 10
-8.6944999566
 20
-14.9630972938
 10
-8.7086499972
 20
-14.9712086048
 10
-8.7231219431
 20
-14.9789251341
 10
-8.7379466474
 20
-14.9862505233
 10
-8.753093257
 20
-14.9931811309
 10
-8.7683963991
 20
-14.9996398871
 10
-8.7839098693
 20
-15.0056205106
 10
-8.7995798721
 20
-15.0111292828
 10
-8.8150796476
 20
-15.0161079787
 10
-8.8303725338
 20
-15.0205184821
 10
-8.8454951928
 20
-15.0243989091
 10
-8.8602308516
 20
-15.0278053837
 10
-8.8745233979
 20
-15.0307186378
 10
-8.8884289441
 20
-15.0331579394
 10
-8.901899054
 20
-15.0352372164
 10
-8.9148919508
 20
-15.0369576047
 10
-8.9274494113
 20
-15.0383179683
 10
-8.9396483303
 20
-15.0394288273
 10
-8.9514709942
 20
-15.0402995018
 10
-8.9629351166
 20
-15.0409206716
 10
-8.9741707318
 20
-15.0413748964
 10
-8.9851774915
 20
-15.041669526
 10
-8.995955744
 20
-15.0417972106
 10
-9.0066365696
 20
-15.0418184597
 10
-9.0172226314
 20
-15.0417338089
 10
-9.0277112662
 20
-15.0415427227
 10
-9.0382255641
 20
-15.0413041039
 10
-9.0487927028
 20
-15.0410079238
 10
-9.0700455261
 20
-15.0403619549
  0
LINE
  5
3CB
100
AcDbEntity
  8
RACCORDO
100
AcDbLine
 62
250
  6
CONTINUOUS
 10
-8.9906998245
 20
-11.8126459212
 11
-8.990983826
 21
-11.8204970225
  0
LINE
  5
3CC
100
AcDbEntity
  8
RACCORDO
100
AcDbLine
 62
250
  6
CONTINUOUS
 10
-8.9897691815
 20
-11.7915126764
 11
-8.9899917147
 21
-11.7968952758
  0
LINE
  5
3CD
100
AcDbEntity
  8
RACCORDO
100
AcDbLine
 62
250
  6
CONTINUOUS
 10
-8.9903561193
 20
-11.8048005175
 11
-8.9906998245
 21
-11.8126459212
  0
LINE
  5
3CE
100
AcDbEntity
  8
RACCORDO
100
AcDbLine
 62
250
  6
CONTINUOUS
 10
-8.9899917147
 20
-11.7968952758
 11
-8.9903561193
 21
-11.8048005175
  0
LWPOLYLINE
  5
3CF
100
AcDbEntity
  8
RACCORDO
100
AcDbPolyline
 62
250
  6
CONTINUOUS
 90
13
 70
0
 10
-9.4363690968
 20
-14.5471258854
 10
-9.4377925411
 20
-14.5665663033
 10
-9.441690339
 20
-14.5856779228
 10
-9.4479965665
 20
-14.6041375063
 10
-9.4566045655
 20
-14.6216328444
 10
-9.4673687477
 20
-14.637868036
 10
-9.480107057
 20
-14.6525684929
 10
-9.4946040486
 20
-14.6654855845
 10
-9.5106145329
 20
-14.676400842
 10
-9.5278677224
 20
-14.6851296543
 10
-9.5460718115
 20
-14.6915243897
 10
-9.5649189118
 20
-14.6954768932
 10
-9.5840902598
 20
-14.6969203156
  0
LWPOLYLINE
  5
3D0
100
AcDbEntity
  8
RACCORDO
100
AcDbPolyline
 62
250
  6
CONTINUOUS
 90
13
 70
0
 10
-9.0838072388
 20
-13.6995956182
 10
-9.0823837946
 20
-13.6801552002
 10
-9.0784859967
 20
-13.6610435808
 10
-9.0721797692
 20
-13.6425839972
 10
-9.0635717702
 20
-13.6250886592
 10
-9.052807588
 20
-13.6088534676
 10
-9.0400692787
 20
-13.5941530106
 10
-9.0255722871
 20
-13.5812359191
 10
-9.0095618027
 20
-13.5703206615
 10
-8.9923086133
 20
-13.5615918493
 10
-8.9741045242
 20
-13.5551971138
 10
-8.9552574239
 20
-13.5512446103
 10
-8.9360860759
 20
-13.549801188
  0
LWPOLYLINE
  5
3D1
100
AcDbEntity
  8
RACCORDO
100
AcDbPolyline
 62
250
  6
CONTINUOUS
 90
13
 70
0
 10
-8.9909750246
 20
-13.7271871426
 10
-8.9895514496
 20
-13.7077457711
 10
-8.9856533155
 20
-13.6886333797
 10
-8.9793466092
 20
-13.6701732358
 10
-8.9707380414
 20
-13.6526775412
 10
-8.9599732725
 20
-13.6364422214
 10
-8.9472344734
 20
-13.6217419036
 10
-8.9327371718
 20
-13.608825174
 10
-8.9167266096
 20
-13.5979104244
 10
-8.8994736551
 20
-13.5891822017
 10
-8.881270153
 20
-13.5827880349
 10
-8.8624239771
 20
-13.5788359594
 10
-8.8432538616
 20
-13.5773927124
  0
LWPOLYLINE
  5
3D2
100
AcDbEntity
  8
0
100
AcDbPolyline
 62
7
  6
CONTINUOUS
 90
7
 70
0
 10
4.1268322326
 20
13.2507390291
 10
4.1022226498
 20
13.2305790289
 10
4.0900610994
 20
13.2211007006
 10
4.0778508982
 20
13.2131166344
 10
4.0655488614
 20
13.2069562697
 10
4.0531981737
 20
13.2022901672
 10
4.0407988352
 20
13.1991183268
  0
LINE
  5
3D3
100
AcDbEntity
  8
RACCORDO
100
AcDbLine
 62
7
  6
CONTINUOUS
 10
9.2228673023
 20
11.6765983175
 11
9.1802601072
 21
11.6599329936
  0
LWPOLYLINE
  5
3D4
100
AcDbEntity
  8
RACCORDO
100
AcDbPolyline
 62
7
  6
CONTINUOUS
 90
3
 70
0
 10
9.2642138845
 20
11.6925135396
 10
9.250527155
 20
11.68729404
 10
9.2228673023
 20
11.6765983175
  0
LWPOLYLINE
  5
3D5
100
AcDbEntity
  8
RACCORDO
100
AcDbPolyline
 62
7
  6
CONTINUOUS
 90
3
 70
0
 10
9.3049020021
 20
11.7076485572
 10
9.291412459
 20
11.7026902407
 10
9.2642138845
 20
11.6925135396
  0
LINE
  5
3D6
100
AcDbEntity
  8
RACCORDO
100
AcDbLine
 62
250
  6
CONTINUOUS
 10
8.9909750246
 20
11.8204944066
 11
9.4363690968
 21
11.9528741146
  0
LINE
  5
3D7
100
AcDbEntity
  8
RACCORDO
100
AcDbLine
 62
250
  6
CONTINUOUS
 10
9.5840902598
 20
11.8030796844
 11
9.1024704672
 21
11.6599329936
  0
LINE
  5
3D8
100
AcDbEntity
  8
RACCORDO
100
AcDbLine
 62
250
  6
CONTINUOUS
 10
9.4363690968
 20
-11.9528741146
 11
8.9909750246
 21
-11.8204944066
  0
LINE
  5
3D9
100
AcDbEntity
  8
RACCORDO
100
AcDbLine
 62
250
  6
CONTINUOUS
 10
9.1024704672
 20
-11.6599329936
 11
9.5840902598
 21
-11.8030796844
  0
LWPOLYLINE
  5
3DA
100
AcDbEntity
  8
RACCORDO
100
AcDbPolyline
 62
7
  6
CONTINUOUS
 90
3
 70
0
 10
9.3049020021
 20
-11.7076485572
 10
9.2778497531
 20
-11.6976452348
 10
9.2642138845
 20
-11.6925135396
  0
LINE
  5
3DB
100
AcDbEntity
  8
RACCORDO
100
AcDbLine
 62
7
  6
CONTINUOUS
 10
9.2642138845
 20
-11.6925135396
 11
9.2367672626
 21
-11.6819878511
  0
LWPOLYLINE
  5
3DC
100
AcDbEntity
  8
RACCORDO
100
AcDbPolyline
 62
7
  6
CONTINUOUS
 90
3
 70
0
 10
9.2367672626
 20
-11.6819878511
 10
9.1946025737
 20
-11.6655714462
 10
9.1802601072
 20
-11.6599329936
  0
LWPOLYLINE
  5
3DD
100
AcDbEntity
  8
0
100
AcDbPolyline
 62
7
  6
CONTINUOUS
 90
10
 70
0
 10
2.2598217077
 20
-12.1293319142
 10
2.2849317204
 20
-12.1454796593
 10
2.3083595253
 20
-12.1626775751
 10
2.3301051224
 20
-12.1809256614
 10
2.3500357099
 20
-12.2000812106
 10
2.3682840896
 20
-12.2202869303
 10
2.3852486663
 20
-12.2419709441
 10
2.4010622416
 20
-12.2652759595
 10
2.415592014
 20
-12.2900592689
 10
2.4288379833
 20
-12.3163208723
  0
LWPOLYLINE
  5
3DE
100
AcDbEntity
  8
0
100
AcDbPolyline
 62
7
  6
CONTINUOUS
 90
10
 70
0
 10
2.1228153587
 20
-12.3139093436
 10
2.1093226172
 20
-12.3038274577
 10
2.0947963195
 20
-12.2947811738
 10
2.0792364654
 20
-12.286770492
 10
2.0627530416
 20
-12.2797292415
 10
2.0452360616
 20
-12.2737235932
 10
2.0263555653
 20
-12.2689520591
 10
2.0060015662
 20
-12.2654808099
 10
1.9842840509
 20
-12.2632436749
 10
1.9612030193
 20
-12.2622406542
  0
LWPOLYLINE
  5
3DF
100
AcDbEntity
  8
0
100
AcDbPolyline
 62
7
  6
CONTINUOUS
 90
10
 70
0
 10
-3.3100276485
 20
-13.3915629238
 10
-3.3014393234
 20
-13.4083847236
 10
-3.2935011845
 20
-13.4255439542
 10
-3.2862132319
 20
-13.4430406156
 10
-3.2795825764
 20
-13.4608051473
 10
-3.2736021072
 20
-13.4789071099
 10
-3.2682504913
 20
-13.497555185
 10
-3.2635206177
 20
-13.5168189332
 10
-3.2594195974
 20
-13.536628794
 10
-3.2559474304
 20
-13.5569847673
  0
LINE
  5
3E0
100
AcDbEntity
  8
RACCORDO
100
AcDbLine
 62
7
  6
CONTINUOUS
 10
-10.9602074393
 20
20.9708583756
 11
-10.9229827449
 21
20.7202000995
  0
LWPOLYLINE
  5
3E1
100
AcDbEntity
  8
RACCORDO
100
AcDbPolyline
 62
250
  6
CONTINUOUS
 90
7
 70
0
 10
-10.1
 20
17.2832600784
 10
-10.1010539271
 20
17.2923950398
 10
-10.1021365594
 20
17.3006309414
 10
-10.103247897
 20
17.3079677832
 10
-10.1043879399
 20
17.3144055654
 10
-10.1055566881
 20
17.3199442877
 10
-10.1067541415
 20
17.3245839503
  0
LWPOLYLINE
  5
3E2
100
AcDbEntity
  8
RACCORDO
100
AcDbPolyline
 62
7
  6
CONTINUOUS
 90
13
 70
0
 10
-9.0459517855
 20
20.9523367962
 10
-9.0526252959
 20
21.018616163
 10
-9.0637648628
 20
21.0842731882
 10
-9.0794887086
 20
21.1497295577
 10
-9.0996786108
 20
21.2145635855
 10
-9.1239799028
 20
21.2775102143
 10
-9.1523545665
 20
21.3383110921
 10
-9.18484062
 20
21.3972245709
 10
-9.2211974506
 20
21.4537606491
 10
-9.2616556882
 20
21.5081127501
 10
-9.3059847028
 20
21.5600874505
 10
-9.3532519921
 20
21.6086144792
 10
-9.4031467219
 20
21.653337079
  0
LWPOLYLINE
  5
3E3
100
AcDbEntity
  8
RACCORDO
100
AcDbPolyline
 62
250
  6
CONTINUOUS
 90
16
 70
0
 10
-8.0991350553
 20
13.4446623578
 10
-8.1016142024
 20
13.479914905
 10
-8.1075100375
 20
13.513485705
 10
-8.1168225606
 20
13.5453747577
 10
-8.1300746222
 20
13.5759873525
 10
-8.1467433718
 20
13.6049182001
 10
-8.1652602583
 20
13.6309514328
 10
-8.1852908246
 20
13.6535426571
 10
-8.2071695279
 20
13.6732362665
 10
-8.2303311878
 20
13.690449574
 10
-8.2543695708
 20
13.7053266104
 10
-8.2796909104
 20
13.7177233448
 10
-8.3069487277
 20
13.7276249974
 10
-8.336360863
 20
13.7350266417
 10
-8.367709476
 20
13.7399332042
 10
-8.4009945665
 20
13.742344685
  0
LWPOLYLINE
  5
3E4
100
AcDbEntity
  8
RACCORDO
100
AcDbPolyline
 62
250
  6
CONTINUOUS
 90
13
 70
0
 10
-8.36067643
 20
-13.4108335738
 10
-8.3620998746
 20
-13.430273992
 10
-8.3659976728
 20
-13.4493856116
 10
-8.3723039005
 20
-13.4678451953
 10
-8.3809118996
 20
-13.4853405334
 10
-8.3916760818
 20
-13.5015757249
 10
-8.4044143911
 20
-13.5162761819
 10
-8.4189113826
 20
-13.5291932733
 10
-8.4349218668
 20
-13.5401085307
 10
-8.4521750561
 20
-13.5488373429
 10
-8.470379145
 20
-13.5552320782
 10
-8.4892262452
 20
-13.5591845816
 10
-8.508397593
 20
-13.560628004
  0
LINE
  5
3E5
100
AcDbEntity
  8
0
100
AcDbLine
 62
7
  6
CONTINUOUS
 10
-3.481663
 20
12.82878
 11
-3.02989
 21
14.411797
  0
LINE
  5
3E6
100
AcDbEntity
  8
0
100
AcDbLine
 62
7
  6
CONTINUOUS
 10
-2.550162
 20
14.411797
 11
-3.289406
 21
12.112007
  0
LWPOLYLINE
  5
3E7
100
AcDbEntity
  8
RACCORDO
100
AcDbPolyline
 62
250
  6
CONTINUOUS
 90
19
 70
0
 10
9.0838070899
 20
12.8004043375
 10
9.0891833613
 20
12.8039905742
 10
9.0942788741
 20
12.8098586772
 10
9.0990936284
 20
12.8180086466
 10
9.1036560761
 20
12.8287849832
 10
9.1079377653
 20
12.8418431862
 10
9.1118533397
 20
12.8561497529
 10
9.1153582869
 20
12.8715486826
 10
9.1184971194
 20
12.8881959761
 10
9.1213180178
 20
12.9055261335
 10
9.1238161079
 20
12.9232895606
 10
9.1259962639
 20
12.9417358516
 10
9.1279212898
 20
12.9610482885
 10
9.1296233224
 20
12.9811207538
 10
9.1310702249
 20
13.0020593651
 10
9.1322283906
 20
13.0243657561
 10
9.1330866174
 20
13.0482071383
 10
9.1336561074
 20
13.0734163004
 10
9.1339368607
 20
13.0999932422
  0
LWPOLYLINE
  5
3E8
100
AcDbEntity
  8
0
100
AcDbPolyline
 62
7
  6
CONTINUOUS
 90
10
 70
0
 10
-1.3955354416
 20
-14.1648444841
 10
-1.406847617
 20
-14.1377764999
 10
-1.4174452881
 20
-14.1088560371
 10
-1.427328455
 20
-14.0780830957
 10
-1.4365684409
 20
-14.0455159361
 10
-1.4450939226
 20
-14.0110962979
 10
-1.4526909301
 20
-13.9746494003
 10
-1.4592881402
 20
-13.936116983
 10
-1.4649568762
 20
-13.8955573064
 10
-1.4696971382
 20
-13.8529703704
  0
LWPOLYLINE
  5
3E9
100
AcDbEntity
  8
0
100
AcDbPolyline
 62
7
  6
CONTINUOUS
 90
10
 70
0
 10
-1.1737017549
 20
-14.0410092996
 10
-1.1655257552
 20
-14.0635464682
 10
-1.1567753502
 20
-14.084513494
 10
-1.1474505399
 20
-14.1039103769
 10
-1.1374780178
 20
-14.121689395
 10
-1.1269310905
 20
-14.1378982703
 10
-1.1160296772
 20
-14.1526801683
 10
-1.1048470843
 20
-14.1660828111
 10
-1.0933100054
 20
-14.1780584766
 10
-1.0814184404
 20
-14.1886071649
  0
LWPOLYLINE
  5
3EA
100
AcDbEntity
  8
0
100
AcDbPolyline
 62
7
  6
CONTINUOUS
 90
10
 70
0
 10
-3.5313947574
 20
-13.5510239856
 10
-3.5370312601
 20
-13.5298627509
 10
-3.5433794451
 20
-13.5100526866
 10
-3.5504393124
 20
-13.4915937926
 10
-3.5582197645
 20
-13.4746109317
 10
-3.5667118989
 20
-13.4589792412
 10
-3.5758890083
 20
-13.444324133
 10
-3.58574219
 20
-13.4305207443
 10
-3.5962803467
 20
-13.4176939379
 10
-3.6075034783
 20
-13.4058437138
  0
LWPOLYLINE
  5
3EB
100
AcDbEntity
  8
RACCORDO
100
AcDbPolyline
 62
250
  6
CONTINUOUS
 90
12
 70
0
 10
-10.1812546154
 20
17.5752422264
 10
-10.1822099603
 20
17.5795239301
 10
-10.1831150388
 20
17.5850751555
 10
-10.1839698509
 20
17.5918959027
 10
-10.1847799859
 20
17.6001865641
 10
-10.1855398545
 20
17.6097467472
 10
-10.1862326888
 20
17.6199752747
 10
-10.1868518586
 20
17.6308472207
 10
-10.1874039941
 20
17.6423875112
 10
-10.1878922172
 20
17.6540697465
 10
-10.1883114152
 20
17.665663502
 10
-10.1886667009
 20
17.6773992024
  0
LWPOLYLINE
  5
3EC
100
AcDbEntity
  8
0
100
AcDbPolyline
 62
7
  6
CONTINUOUS
 90
10
 70
0
 10
-4.1116874546
 20
-13.9959889248
 10
-4.1079983937
 20
-14.0135218464
 10
-4.103900088
 20
-14.0301448258
 10
-4.0993925374
 20
-14.0458578631
 10
-4.0944677226
 20
-14.0605791357
 10
-4.0891336629
 20
-14.0743904661
 10
-4.0834144161
 20
-14.0875373221
 10
-4.0773180016
 20
-14.1001015262
 10
-4.0708363999
 20
-14.112001256
 10
-4.0639696112
 20
-14.1232365114
  0
LWPOLYLINE
  5
3ED
100
AcDbEntity
  8
0
100
AcDbPolyline
 62
7
  6
CONTINUOUS
 90
10
 70
0
 10
-3.5374439672
 20
-12.5042437492
 10
-3.5402168207
 20
-12.4894358571
 10
-3.5435045156
 20
-12.4748634041
 10
-3.547307052
 20
-12.4605263901
 10
-3.5516431384
 20
-12.4464064398
 10
-3.5564940663
 20
-12.4325219286
 10
-3.5618037097
 20
-12.4189279822
 10
-3.5675533601
 20
-12.405642976
 10
-3.573761726
 20
-12.3926485347
 10
-3.5804288074
 20
-12.3799446583
  0
LWPOLYLINE
  5
3EE
100
AcDbEntity
  8
0
100
AcDbPolyline
 62
7
  6
CONTINUOUS
 90
10
 70
0
 10
-3.5231674001
 20
-12.653526938
 10
-3.5234195387
 20
-12.637242081
 10
-3.5240282468
 20
-12.6208545681
 10
-3.5249935243
 20
-12.6043643993
 10
-3.5263460815
 20
-12.5877354214
 10
-3.5280552082
 20
-12.5710037877
 10
-3.5300287732
 20
-12.5542779576
 10
-3.5322360662
 20
-12.5375940844
 10
-3.5347077975
 20
-12.520916015
 10
-3.5374439672
 20
-12.5042437492
  0
LWPOLYLINE
  5
3EF
100
AcDbEntity
  8
0
100
AcDbPolyline
 62
7
  6
CONTINUOUS
 90
10
 70
0
 10
-3.5072614536
 20
-13.7860303968
 10
-3.5077242056
 20
-13.7541377047
 10
-3.5087699447
 20
-13.7237981181
 10
-3.510398671
 20
-13.6950116369
 10
-3.512648125
 20
-13.6679221124
 10
-3.5154805662
 20
-13.6423856934
 10
-3.5187827722
 20
-13.6179708265
 10
-3.5225170024
 20
-13.5945336607
 10
-3.5267209974
 20
-13.5722180471
 10
-3.5313947574
 20
-13.5510239856
  0
LWPOLYLINE
  5
3F0
100
AcDbEntity
  8
0
100
AcDbPolyline
 62
7
  6
CONTINUOUS
 90
10
 70
0
 10
-4.1244122118
 20
-13.8305670813
 10
-4.1243081428
 20
-13.8512969546
 10
-4.1238869801
 20
-13.8714134869
 10
-4.1231487235
 20
-13.890916678
 10
-4.1221071791
 20
-13.9097719628
 10
-4.1207485409
 20
-13.9280139065
 10
-4.1190313911
 20
-13.9457462049
 10
-4.1169419238
 20
-13.9630034235
 10
-4.114493945
 20
-13.9797509967
 10
-4.1116874546
 20
-13.9959889248
  0
LINE
  5
3F1
100
AcDbEntity
  8
RACCORDO
100
AcDbLine
 62
7
  6
CONTINUOUS
 10
-5.25
 20
14.7
 11
-5.25
 21
8.7
  0
LINE
  5
3F2
100
AcDbEntity
  8
RACCORDO
100
AcDbLine
 62
7
  6
CONTINUOUS
 10
-5.25
 20
-11.8
 11
-5.25
 21
-14.8
  0
LINE
  5
3F3
100
AcDbEntity
  8
0
100
AcDbLine
 62
7
  6
CONTINUOUS
 10
-4.3534578584
 20
-12.6439833701
 11
-4.3534578584
 21
-12.6153526664
  0
LINE
  5
3F4
100
AcDbEntity
  8
0
100
AcDbLine
 62
7
  6
CONTINUOUS
 10
-3.9621715575
 20
-13.308852002
 11
-3.9621715575
 21
-13.1084370077
  0
LWPOLYLINE
  5
3F5
100
AcDbEntity
  8
0
100
AcDbPolyline
 62
7
  6
CONTINUOUS
 90
10
 70
0
 10
-4.3534578584
 20
-12.6153526664
 10
-4.3506542888
 20
-12.5503519744
 10
-4.3446614308
 20
-12.4905682513
 10
-4.3354792842
 20
-12.436001497
 10
-4.3228694585
 20
-12.3871397883
 10
-4.3070703443
 20
-12.3434950485
 10
-4.2887971137
 20
-12.3036030471
 10
-4.2682881573
 20
-12.2669757072
 10
-4.2453050845
 20
-12.2341011057
 10
-4.2198478953
 20
-12.2049792426
  0
LINE
  5
3F6
100
AcDbEntity
  8
0
100
AcDbLine
 62
7
  6
CONTINUOUS
 10
-0.471223
 20
13.134946
 11
0.008833
 21
14.411797
  0
LINE
  5
3F7
100
AcDbEntity
  8
0
100
AcDbLine
 62
7
  6
CONTINUOUS
 10
0.130606
 20
13.607466
 11
-0.44018
 21
12.112007
  0
LWPOLYLINE
  5
3F8
100
AcDbEntity
  8
RACCORDO
100
AcDbPolyline
 62
250
  6
CONTINUOUS
 90
16
 70
0
 10
9.4363690968
 20
11.9528741146
 10
9.4408900175
 20
11.9557012579
 10
9.4452306112
 20
11.9607877007
 10
9.449390878
 20
11.9681334429
 10
9.4533939825
 20
11.9778263713
 10
9.4572167601
 20
11.9897785992
 10
9.4607897169
 20
12.0037264664
 10
9.4641209116
 20
12.0197039946
 10
9.4672022855
 20
12.0376771621
 10
9.4699401679
 20
12.0572802441
 10
9.4723338171
 20
12.0786085171
 10
9.4743839748
 20
12.1015667045
 10
9.4759991947
 20
12.1255032517
 10
9.4771489948
 20
12.150200974
 10
9.4778638572
 20
12.1758770562
 10
9.4781437817
 20
12.2025314983
  0
LWPOLYLINE
  5
3F9
100
AcDbEntity
  8
0
100
AcDbPolyline
 62
7
  6
CONTINUOUS
 90
10
 70
0
 10
-0.4469571427
 20
-12.3163208723
 10
-0.4355032347
 20
-12.3422228705
 10
-0.4247568862
 20
-12.369811788
 10
-0.4147180973
 20
-12.3990876249
 10
-0.4053336564
 20
-12.4299754726
 10
-0.3966567749
 20
-12.4625502397
 10
-0.3888470879
 20
-12.4970366517
 10
-0.381957807
 20
-12.5335096171
 10
-0.3759357205
 20
-12.5718942274
 10
-0.3707808284
 20
-12.6121904825
  0
LWPOLYLINE
  5
3FA
100
AcDbEntity
  8
0
100
AcDbPolyline
 62
7
  6
CONTINUOUS
 90
10
 70
0
 10
0.9909404203
 20
-12.3163208723
 10
1.0023943283
 20
-12.3422228705
 10
1.0131406767
 20
-12.369811788
 10
1.0231794656
 20
-12.3990876249
 10
1.0325639066
 20
-12.4299754726
 10
1.041240788
 20
-12.4625502397
 10
1.049050475
 20
-12.4970366517
 10
1.055939756
 20
-12.5335096171
 10
1.0619618425
 20
-12.5718942274
 10
1.0671167345
 20
-12.6121904825
  0
LWPOLYLINE
  5
3FB
100
AcDbEntity
  8
0
100
AcDbPolyline
 62
7
  6
CONTINUOUS
 90
10
 70
0
 10
0.0423621214
 20
-14.1648444841
 10
0.031049946
 20
-14.1377764999
 10
0.0204522749
 20
-14.1088560371
 10
0.010569108
 20
-14.0780830957
 10
0.0013291221
 20
-14.0455159361
 10
-0.0071963596
 20
-14.0110962979
 10
-0.0147933671
 20
-13.9746494003
 10
-0.0213905773
 20
-13.936116983
 10
-0.0270593133
 20
-13.8955573064
 10
-0.0317995752
 20
-13.8529703704
  0
LWPOLYLINE
  5
3FC
100
AcDbEntity
  8
0
100
AcDbPolyline
 62
7
  6
CONTINUOUS
 90
10
 70
0
 10
1.4802599585
 20
-14.1648444841
 10
1.4689477831
 20
-14.1377764999
 10
1.458350112
 20
-14.1088560371
 10
1.4484669451
 20
-14.0780830957
 10
1.4392269592
 20
-14.0455159361
 10
1.4307014776
 20
-14.0110962979
 10
1.42310447
 20
-13.9746494003
 10
1.4165072599
 20
-13.936116983
 10
1.4108385239
 20
-13.8955573064
 10
1.406098262
 20
-13.8529703704
  0
LWPOLYLINE
  5
3FD
100
AcDbEntity
  8
0
100
AcDbPolyline
 62
7
  6
CONTINUOUS
 90
10
 70
0
 10
0.264195933
 20
-14.0410092589
 10
0.2723719555
 20
-14.063546438
 10
0.2811223698
 20
-14.0845134728
 10
0.2904471761
 20
-14.1039103635
 10
0.300419675
 20
-14.1216893882
 10
0.3109665658
 20
-14.1378982688
 10
0.3218679462
 20
-14.1526801703
 10
0.3330505154
 20
-14.1660828143
 10
0.3445875742
 20
-14.1780584792
 10
0.3564791226
 20
-14.1886071649
  0
LWPOLYLINE
  5
3FE
100
AcDbEntity
  8
0
100
AcDbPolyline
 62
7
  6
CONTINUOUS
 90
10
 70
0
 10
-0.663278015
 20
-12.4594743907
 10
-0.6710923682
 20
-12.4366412613
 10
-0.6795178921
 20
-12.4155080367
 10
-0.6885545867
 20
-12.396074717
 10
-0.6982998417
 20
-12.3783880942
 10
-0.7086562674
 20
-12.3624013762
 10
-0.719331695
 20
-12.3479741864
 10
-0.7302287347
 20
-12.3350597324
 10
-0.7414447762
 20
-12.3237048066
 10
-0.7529798195
 20
-12.3139094089
  0
LINE
  5
3FF
100
AcDbEntity
  8
RACCORDO
100
AcDbLine
 62
250
  6
CONTINUOUS
 10
-10.406343002
 20
17.0291416244
 11
-10.4808434758
 21
17.2797999005
  0
LINE
  5
400
100
AcDbEntity
  8
RACCORDO
100
AcDbLine
 62
250
  6
CONTINUOUS
 10
-10.1067541415
 20
17.3245839503
 11
-10.1812546154
 21
17.5752422264
  0
LWPOLYLINE
  5
401
100
AcDbEntity
  8
0
100
AcDbPolyline
 62
7
  6
CONTINUOUS
 90
10
 70
0
 10
-3.2559474304
 20
-13.5569847673
 10
-3.2527419885
 20
-13.5791668612
 10
-3.2498842448
 20
-13.6013768422
 10
-3.2473741993
 20
-13.6236147104
 10
-3.245196078
 20
-13.6458889047
 10
-3.2433656548
 20
-13.6681909862
 10
-3.2419302516
 20
-13.6904956375
 10
-3.2409056424
 20
-13.7127944195
 10
-3.2402760532
 20
-13.7350957714
 10
-3.2400414839
 20
-13.7573996931
  0
LWPOLYLINE
  5
402
100
AcDbEntity
  8
0
100
AcDbPolyline
 62
7
  6
CONTINUOUS
 90
9
 70
0
 10
-1.4696971382
 20
-13.8529703704
 10
-1.4729538626
 20
-13.8138336406
 10
-1.4757747401
 20
-13.7731771396
 10
-1.4781597707
 20
-13.7310008675
 10
-1.4800827438
 20
-13.6873190797
 10
-1.48156987
 20
-13.6421175208
 10
-1.482699781
 20
-13.5953534242
 10
-1.4834986873
 20
-13.5470125344
 10
-1.4839403783
 20
-13.497109107
  0
LWPOLYLINE
  5
403
100
AcDbEntity
  8
0
100
AcDbPolyline
 62
7
  6
CONTINUOUS
 90
10
 70
0
 10
-1.2137312411
 20
-13.8051248727
 10
-1.2111682049
 20
-13.8378818774
 10
-1.2081274611
 20
-13.8689192415
 10
-1.2046090098
 20
-13.8982369647
 10
-1.2006041357
 20
-13.9257247341
 10
-1.1961215542
 20
-13.9514928628
 10
-1.1911874108
 20
-13.9758722898
 10
-1.1858104207
 20
-13.9989733281
 10
-1.1799818688
 20
-14.0206856647
 10
-1.1737017549
 20
-14.0410092996
  0
LINE
  5
404
100
AcDbEntity
  8
0
100
AcDbLine
 62
7
  6
CONTINUOUS
 10
-3.39
 20
8.810006
 11
-3.39
 21
11.110007
  0
LINE
  5
405
100
AcDbEntity
  8
0
100
AcDbLine
 62
7
  6
CONTINUOUS
 10
-3.119599
 20
11.110007
 11
-3.119599
 21
9.026327
  0
LINE
  5
406
100
AcDbEntity
  8
0
100
AcDbLine
 62
7
  6
CONTINUOUS
 10
-2.7437759534
 20
-12.7171507239
 11
-2.7437759534
 21
-12.4467496336
  0
LINE
  5
407
100
AcDbEntity
  8
0
100
AcDbLine
 62
7
  6
CONTINUOUS
 10
-2.397469
 20
9.026327
 11
-2.397469
 21
8.810006
  0
LINE
  5
408
100
AcDbEntity
  8
0
100
AcDbLine
 62
7
  6
CONTINUOUS
 10
-2.3747579947
 20
-14.4
 11
-2.3747579947
 21
-12.4213001192
  0
LINE
  5
409
100
AcDbEntity
  8
0
100
AcDbLine
 62
7
  6
CONTINUOUS
 10
-2.372012
 20
12.112007
 11
-2.372012
 21
14.411935
  0
LINE
  5
40A
100
AcDbEntity
  8
0
100
AcDbLine
 62
7
  6
CONTINUOUS
 10
-2.1107192829
 20
-12.1
 11
-2.1107192829
 21
-14.4
  0
LINE
  5
40B
100
AcDbEntity
  8
0
100
AcDbLine
 62
7
  6
CONTINUOUS
 10
-2.080077
 20
8.810011
 11
-2.080077
 21
11.110011
  0
LINE
  5
40C
100
AcDbEntity
  8
0
100
AcDbLine
 62
7
  6
CONTINUOUS
 10
-1.891956
 20
14.411935
 11
-1.891956
 21
12.112007
  0
LINE
  5
40D
100
AcDbEntity
  8
0
100
AcDbLine
 62
7
  6
CONTINUOUS
 10
-1.809675
 20
11.110011
 11
-1.809675
 21
8.810011
  0
LWPOLYLINE
  5
40E
100
AcDbEntity
  8
0
100
AcDbPolyline
 62
7
  6
CONTINUOUS
 90
10
 70
0
 10
-3.2591286197
 20
-12.6344398022
 10
-3.2593608595
 20
-12.6571673036
 10
-3.2600230452
 20
-12.6797442324
 10
-3.2611151767
 20
-12.7021705884
 10
-3.2626519025
 20
-12.7245244022
 10
-3.2646185742
 20
-12.7467276433
 10
-3.2669712463
 20
-12.7685462201
 10
-3.2696952703
 20
-12.7899021021
 10
-3.2728052946
 20
-12.8108733197
 10
-3.2763013193
 20
-12.8314598731
  0
LWPOLYLINE
  5
40F
100
AcDbEntity
  8
0
100
AcDbPolyline
 62
7
  6
CONTINUOUS
 90
10
 70
0
 10
-3.2400414839
 20
-13.7573996931
 10
-3.2404911364
 20
-13.7940299807
 10
-3.2416465565
 20
-13.8293572378
 10
-3.2435077442
 20
-13.8633814646
 10
-3.2461052107
 20
-13.8960892391
 10
-3.2494084447
 20
-13.9274939833
 10
-3.2533259126
 20
-13.9576359625
 10
-3.2578271031
 20
-13.9865285985
 10
-3.2629425275
 20
-14.0141584694
 10
-3.2686721857
 20
-14.0405255754
  0
LINE
  5
410
100
AcDbEntity
  8
0
100
AcDbLine
 62
7
  6
CONTINUOUS
 10
-1.070672
 20
13.613726
 11
-1.174268
 21
12.112007
  0
LINE
  5
411
100
AcDbEntity
  8
0
100
AcDbLine
 62
7
  6
CONTINUOUS
 10
-1.633526
 20
12.112007
 11
-1.425869
 21
14.411797
  0
LWPOLYLINE
  5
412
100
AcDbEntity
  8
0
100
AcDbPolyline
 62
7
  6
CONTINUOUS
 90
10
 70
0
 10
-4.0875194717
 20
-12.4974466906
 10
-4.0899839058
 20
-12.5127285094
 10
-4.0921453403
 20
-12.5282378423
 10
-4.094003775
 20
-12.543974689
 10
-4.0955528652
 20
-12.5599090567
 10
-4.0967989557
 20
-12.5760709384
 10
-4.0977610808
 20
-12.5925503127
 10
-4.0984455851
 20
-12.6093771725
 10
-4.098846124
 20
-12.626521525
 10
-4.0989626974
 20
-12.6439833701
  0
LINE
  5
413
100
AcDbEntity
  8
0
100
AcDbLine
 62
7
  6
CONTINUOUS
 10
1.718779
 20
13.779873
 11
1.479751
 21
12.926392
  0
LINE
  5
414
100
AcDbEntity
  8
0
100
AcDbLine
 62
7
  6
CONTINUOUS
 10
1.381553
 20
12.571127
 11
1.249088
 21
12.112007
  0
LINE
  5
415
100
AcDbEntity
  8
RACCORDO
100
AcDbLine
 62
250
  6
CONTINUOUS
 10
-10.9645351961
 20
-25.7709349336
 11
-10.9828653412
 21
-25.8321769981
  0
LINE
  5
416
100
AcDbEntity
  8
RACCORDO
100
AcDbLine
 62
250
  6
CONTINUOUS
 10
-10.5154079535
 20
-26.2216232767
 11
-10.5337380986
 21
-26.2828653412
  0
LINE
  5
417
100
AcDbEntity
  8
0
100
AcDbLine
 62
7
  6
CONTINUOUS
 10
0.77424
 20
12.112007
 11
1.4956
 21
14.411797
  0
LWPOLYLINE
  5
418
100
AcDbEntity
  8
RACCORDO
100
AcDbPolyline
 62
250
  6
CONTINUOUS
 90
16
 70
0
 10
9.5840895651
 20
11.8030796844
 10
9.588612256
 20
11.8072663593
 10
9.5929538537
 20
11.8154609965
 10
9.5971143582
 20
11.8274945267
 10
9.601116449
 20
11.8431005336
 10
9.6049374466
 20
11.8620829358
 10
9.6085093123
 20
11.8844435303
 10
9.6118409702
 20
11.9100534424
 10
9.6149234961
 20
11.9386495885
 10
9.6176620799
 20
11.9701294527
 10
9.620055349
 20
12.0043021144
 10
9.6221046759
 20
12.0408125614
 10
9.6237193678
 20
12.0792863356
 10
9.6248691939
 20
12.119334143
 10
9.6255843851
 20
12.1605608553
 10
9.6258649413
 20
12.2025314983
  0
LWPOLYLINE
  5
419
100
AcDbEntity
  8
RACCORDO
100
AcDbPolyline
 62
7
  6
CONTINUOUS
 90
19
 70
0
 10
9.1802601072
 20
11.6599329936
 10
9.1774230988
 20
11.6577115971
 10
9.1754015952
 20
11.6533485767
 10
9.1741955964
 20
11.6469691174
 10
9.1736592061
 20
11.6386584844
 10
9.1739383207
 20
11.6286081787
 10
9.1754706284
 20
11.6172239509
 10
9.1782352802
 20
11.6049083827
 10
9.1822531252
 20
11.5917945068
 10
9.1880243987
 20
11.5779212877
 10
9.1955793217
 20
11.5632981792
 10
9.2048876732
 20
11.5482422086
 10
9.2163590248
 20
11.5332389244
 10
9.2302089902
 20
11.5183214792
 10
9.2462219558
 20
11.5037748723
 10
9.2641606521
 20
11.4905113161
 10
9.2839459895
 20
11.4789141958
 10
9.3056570576
 20
11.4687984698
 10
9.3292938566
 20
11.4602070867
  0
LINE
  5
41A
100
AcDbEntity
  8
DRAFT
100
AcDbLine
 62
7
  6
CONTINUOUS
 10
9.9473059106
 20
11.6482376725
 11
10.1
 21
11.7626767255
  0
LINE
  5
41B
100
AcDbEntity
  8
DRAFT
100
AcDbLine
 62
7
  6
CONTINUOUS
 10
9.9473059106
 20
-11.6482376725
 11
10.1
 21
-11.7626767255
  0
LWPOLYLINE
  5
41C
100
AcDbEntity
  8
0
100
AcDbPolyline
 62
7
  6
CONTINUOUS
 90
10
 70
0
 10
2.4288379833
 20
-12.3163208723
 10
2.4402918913
 20
-12.3422228705
 10
2.4510382397
 20
-12.369811788
 10
2.4610770286
 20
-12.3990876249
 10
2.4704614696
 20
-12.4299754726
 10
2.479138351
 20
-12.4625502397
 10
2.486948038
 20
-12.4970366517
 10
2.493837319
 20
-12.5335096171
 10
2.4998594055
 20
-12.5718942274
 10
2.5050142975
 20
-12.6121904825
  0
LWPOLYLINE
  5
41D
100
AcDbEntity
  8
0
100
AcDbPolyline
 62
7
  6
CONTINUOUS
 90
10
 70
0
 10
1.702093496
 20
-14.0410092589
 10
1.7102695185
 20
-14.063546438
 10
1.7190199328
 20
-14.0845134728
 10
1.7283447391
 20
-14.1039103635
 10
1.738317238
 20
-14.1216893882
 10
1.7488641288
 20
-14.1378982688
 10
1.7597655092
 20
-14.1526801703
 10
1.7709480784
 20
-14.1660828143
 10
1.7824851372
 20
-14.1780584792
 10
1.7943766855
 20
-14.1886071649
  0
LWPOLYLINE
  5
41E
100
AcDbEntity
  8
0
100
AcDbPolyline
 62
7
  6
CONTINUOUS
 90
10
 70
0
 10
0.7746197996
 20
-12.4594743153
 10
0.7668054339
 20
-12.4366412154
 10
0.7583798918
 20
-12.415508013
 10
0.7493431732
 20
-12.396074708
 10
0.739597884
 20
-12.3783880923
 10
0.7292414184
 20
-12.3624013741
 10
0.7185659586
 20
-12.3479741776
 10
0.7076688985
 20
-12.3350597111
 10
0.6964528442
 20
-12.3237047665
 10
0.6849177957
 20
-12.3139093436
  0
LWPOLYLINE
  5
41F
100
AcDbEntity
  8
0
100
AcDbPolyline
 62
7
  6
CONTINUOUS
 90
10
 70
0
 10
2.2125173625
 20
-12.4594743153
 10
2.2047029969
 20
-12.4366412154
 10
2.1962774547
 20
-12.415508013
 10
2.1872407361
 20
-12.396074708
 10
2.177495447
 20
-12.3783880923
 10
2.1671389814
 20
-12.3624013741
 10
2.1564635216
 20
-12.3479741776
 10
2.1455664615
 20
-12.3350597111
 10
2.1343504072
 20
-12.3237047665
 10
2.1228153587
 20
-12.3139093436
  0
LINE
  5
420
100
AcDbEntity
  8
RACCORDO
100
AcDbLine
 62
250
  6
CONTINUOUS
 10
-10.9645351961
 20
25.7709349336
 11
-10.9828653412
 21
25.8321769981
  0
LINE
  5
421
100
AcDbEntity
  8
RACCORDO
100
AcDbLine
 62
250
  6
CONTINUOUS
 10
-10.5154079535
 20
26.2216232767
 11
-10.5337380986
 21
26.2828653412
  0
LWPOLYLINE
  5
422
100
AcDbEntity
  8
0
100
AcDbPolyline
 62
7
  6
CONTINUOUS
 90
10
 70
0
 10
-0.3707808284
 20
-12.6121904825
 10
-0.3667195594
 20
-12.6519417349
 10
-0.3631390933
 20
-12.692665628
 10
-0.36003943
 20
-12.734362162
 10
-0.3574211936
 20
-12.7770872278
 10
-0.3552837601
 20
-12.8207849345
 10
-0.3536252576
 20
-12.8652876085
 10
-0.352445062
 20
-12.9105393586
 10
-0.3517437974
 20
-12.9565960761
 10
-0.3515214637
 20
-13.0034577608
  0
LWPOLYLINE
  5
423
100
AcDbEntity
  8
0
100
AcDbPolyline
 62
7
  6
CONTINUOUS
 90
10
 70
0
 10
1.0671167345
 20
-12.6121904825
 10
1.0711780595
 20
-12.6519422749
 10
1.074758574
 20
-12.6926665305
 10
1.077858278
 20
-12.7343632494
 10
1.080476546
 20
-12.7770882661
 10
1.0826140035
 20
-12.8207857461
 10
1.0842725273
 20
-12.8652881859
 10
1.0854527431
 20
-12.9105397511
 10
1.0861540251
 20
-12.956596276
 10
1.0863763735
 20
-13.0034577608
  0
LWPOLYLINE
  5
424
100
AcDbEntity
  8
0
100
AcDbPolyline
 62
7
  6
CONTINUOUS
 90
9
 70
0
 10
-0.0317995752
 20
-13.8529703704
 10
-0.0350562996
 20
-13.8138336406
 10
-0.0378771771
 20
-13.7731771396
 10
-0.0402622077
 20
-13.7310008675
 10
-0.0421851808
 20
-13.6873190797
 10
-0.043672307
 20
-13.6421175208
 10
-0.044802218
 20
-13.5953534242
 10
-0.0456011243
 20
-13.5470125344
 10
-0.0460428153
 20
-13.497109107
  0
LWPOLYLINE
  5
425
100
AcDbEntity
  8
0
100
AcDbPolyline
 62
7
  6
CONTINUOUS
 90
9
 70
0
 10
1.406098262
 20
-13.8529703704
 10
1.4028415376
 20
-13.8138336406
 10
1.4000206601
 20
-13.7731771396
 10
1.3976356295
 20
-13.7310008675
 10
1.3957126563
 20
-13.6873190797
 10
1.3942255301
 20
-13.6421175208
 10
1.3930956191
 20
-13.5953534242
 10
1.3922967129
 20
-13.5470125344
 10
1.3918550219
 20
-13.497109107
  0
LWPOLYLINE
  5
426
100
AcDbEntity
  8
0
100
AcDbPolyline
 62
7
  6
CONTINUOUS
 90
10
 70
0
 10
-0.6219226912
 20
-12.6980635881
 10
-0.6243740412
 20
-12.6676608163
 10
-0.627392001
 20
-12.6382173483
 10
-0.6309765705
 20
-12.6097331841
 10
-0.6351686675
 20
-12.5821897751
 10
-0.6399273743
 20
-12.5556056699
 10
-0.6451299377
 20
-12.5300365143
 10
-0.6507354402
 20
-12.5055008568
 10
-0.6567847992
 20
-12.481980149
 10
-0.663278015
 20
-12.4594743907
  0
LWPOLYLINE
  5
427
100
AcDbEntity
  8
0
100
AcDbPolyline
 62
7
  6
CONTINUOUS
 90
10
 70
0
 10
0.8159751448
 20
-12.6980635699
 10
0.8135237957
 20
-12.6676608081
 10
0.8105058365
 20
-12.6382173471
 10
0.806921267
 20
-12.6097331872
 10
0.8027291702
 20
-12.5821897811
 10
0.7979704632
 20
-12.555605676
 10
0.7927678974
 20
-12.5300365128
 10
0.7871623902
 20
-12.5055008384
 10
0.7811130242
 20
-12.4819801059
 10
0.7746197996
 20
-12.4594743153
  0
LWPOLYLINE
  5
428
100
AcDbEntity
  8
0
100
AcDbPolyline
 62
7
  6
CONTINUOUS
 90
10
 70
0
 10
0.2241663231
 20
-13.8051248915
 10
0.2267293588
 20
-13.8378819025
 10
0.2297701052
 20
-13.8689192697
 10
0.2332885622
 20
-13.898236993
 10
0.2372934444
 20
-13.9257247598
 10
0.2417760372
 20
-13.9514928828
 10
0.2467101968
 20
-13.9758723004
 10
0.2520872087
 20
-13.9989733253
 10
0.2579157874
 20
-14.0206856449
 10
0.264195933
 20
-14.0410092589
  0
LWPOLYLINE
  5
429
100
AcDbEntity
  8
0
100
AcDbPolyline
 62
7
  6
CONTINUOUS
 90
9
 70
0
 10
-0.6125201971
 20
-12.9863072636
 10
-0.6128966401
 20
-12.9451783704
 10
-0.6135083154
 20
-12.9055205955
 10
-0.6143624655
 20
-12.8673488961
 10
-0.6154518478
 20
-12.830648315
 10
-0.6167547343
 20
-12.7953739808
 10
-0.6182638823
 20
-12.7615109364
 10
-0.6199865346
 20
-12.7290741388
 10
-0.6219226912
 20
-12.6980635881
  0
LWPOLYLINE
  5
42A
100
AcDbEntity
  8
0
100
AcDbPolyline
 62
7
  6
CONTINUOUS
 90
9
 70
0
 10
-1.2230701823
 20
-13.5250569586
 10
-1.2227402151
 20
-13.5624408871
 10
-1.2221774299
 20
-13.5991503883
 10
-1.2213885045
 20
-13.63518989
 10
-1.2203667612
 20
-13.6705549644
 10
-1.2190921665
 20
-13.7052323282
 10
-1.2175580427
 20
-13.7392175536
 10
-1.2157710676
 20
-13.7725150685
 10
-1.2137312411
 20
-13.8051248727
  0
LWPOLYLINE
  5
42B
100
AcDbEntity
  8
0
100
AcDbPolyline
 62
7
  6
CONTINUOUS
 90
9
 70
0
 10
0.2148273807
 20
-13.5250569586
 10
0.2151573479
 20
-13.5624408876
 10
0.2157201331
 20
-13.5991503896
 10
0.2165090586
 20
-13.6351898924
 10
0.217530802
 20
-13.6705549682
 10
0.2188053969
 20
-13.7052323343
 10
0.2203395209
 20
-13.7392175631
 10
0.2221264963
 20
-13.7725150822
 10
0.2241663231
 20
-13.8051248915
  0
LINE
  5
42C
100
AcDbEntity
  8
0
100
AcDbLine
 62
7
  6
CONTINUOUS
 10
-1.4839403783
 20
-13.497109107
 11
-1.484024854
 21
-13.016182518
  0
LINE
  5
42D
100
AcDbEntity
  8
0
100
AcDbLine
 62
7
  6
CONTINUOUS
 10
-1.385532
 20
8.810006
 11
-1.385532
 21
11.110007
  0
LINE
  5
42E
100
AcDbEntity
  8
0
100
AcDbLine
 62
7
  6
CONTINUOUS
 10
-1.2231673315
 20
-13.0289072752
 11
-1.2230701823
 21
-13.5250569586
  0
LINE
  5
42F
100
AcDbEntity
  8
0
100
AcDbLine
 62
7
  6
CONTINUOUS
 10
-1.134218
 20
10.87778
 11
-1.134218
 21
8.810006
  0
LINE
  5
430
100
AcDbEntity
  8
0
100
AcDbLine
 62
7
  6
CONTINUOUS
 10
-0.6123789862
 20
-13.490179792
 11
-0.6125201971
 21
-12.9863072636
  0
LINE
  5
431
100
AcDbEntity
  8
0
100
AcDbLine
 62
7
  6
CONTINUOUS
 10
-0.3515214637
 20
-13.0034577608
 11
-0.3515214637
 21
-13.4392807633
  0
LINE
  5
432
100
AcDbEntity
  8
0
100
AcDbLine
 62
7
  6
CONTINUOUS
 10
-0.192586
 20
9.042233
 11
-0.192586
 21
11.110007
  0
LINE
  5
433
100
AcDbEntity
  8
0
100
AcDbLine
 62
7
  6
CONTINUOUS
 10
-0.0460428153
 20
-13.497109107
 11
-0.046127291
 21
-13.016182518
  0
LINE
  5
434
100
AcDbEntity
  8
0
100
AcDbLine
 62
7
  6
CONTINUOUS
 10
0.05875
 20
11.110007
 11
0.05875
 21
8.810006
  0
LINE
  5
435
100
AcDbEntity
  8
0
100
AcDbLine
 62
7
  6
CONTINUOUS
 10
0.2147302315
 20
-13.0289072752
 11
0.2148273807
 21
-13.5250569586
  0
LWPOLYLINE
  5
436
100
AcDbEntity
  8
0
100
AcDbPolyline
 62
7
  6
CONTINUOUS
 90
10
 70
0
 10
-1.484024854
 20
-13.016182518
 10
-1.4838016816
 20
-12.9694616219
 10
-1.4831067511
 20
-12.9235403909
 10
-1.4819400624
 20
-12.8784188251
 10
-1.4803051448
 20
-12.8340815973
 10
-1.4781984691
 20
-12.7905440347
 10
-1.4756094474
 20
-12.747852119
 10
-1.4725345503
 20
-12.7060211772
 10
-1.4689773073
 20
-12.6650358823
 10
-1.4649377182
 20
-12.6248962343
  0
LWPOLYLINE
  5
437
100
AcDbEntity
  8
0
100
AcDbPolyline
 62
7
  6
CONTINUOUS
 90
10
 70
0
 10
-0.046127291
 20
-13.016182518
 10
-0.0459041186
 20
-12.9694616219
 10
-0.0452091881
 20
-12.9235403909
 10
-0.0440424994
 20
-12.8784188251
 10
-0.0424075818
 20
-12.8340815973
 10
-0.0403009061
 20
-12.7905440347
 10
-0.0377118844
 20
-12.747852119
 10
-0.0346369874
 20
-12.7060211772
 10
-0.0310797443
 20
-12.6650358823
 10
-0.0270401552
 20
-12.6248962343
  0
LWPOLYLINE
  5
438
100
AcDbEntity
  8
0
100
AcDbPolyline
 62
7
  6
CONTINUOUS
 90
10
 70
0
 10
-0.3515214637
 20
-13.4392807633
 10
-0.3518227797
 20
-13.4907228258
 10
-0.3525537524
 20
-13.5405996385
 10
-0.3537143819
 20
-13.5889112014
 10
-0.3553304204
 20
-13.6356416725
 10
-0.3573761156
 20
-13.6808068938
 10
-0.3597742113
 20
-13.724454391
 10
-0.3624989551
 20
-13.7666000059
 10
-0.3655760993
 20
-13.8072278967
 10
-0.369005644
 20
-13.8463380635
  0
LWPOLYLINE
  5
439
100
AcDbEntity
  8
0
100
AcDbPolyline
 62
7
  6
CONTINUOUS
 90
10
 70
0
 10
-1.2136239007
 20
-12.6980635881
 10
-1.2155600424
 20
-12.7290741493
 10
-1.2172826726
 20
-12.761510954
 10
-1.2187917912
 20
-12.7953740022
 10
-1.2200946363
 20
-12.8306483358
 10
-1.2211839698
 20
-12.8673489128
 10
-1.2220380776
 20
-12.9055206078
 10
-1.2226497214
 20
-12.945178379
 10
-1.2230261394
 20
-12.9863072681
 10
-1.2231673315
 20
-13.0289072752
  0
LWPOLYLINE
  5
43A
100
AcDbEntity
  8
0
100
AcDbPolyline
 62
7
  6
CONTINUOUS
 90
10
 70
0
 10
-0.6218153424
 20
-13.8114871284
 10
-0.619908872
 20
-13.7814909813
 10
-0.6182108966
 20
-13.7500797369
 10
-0.6167214161
 20
-13.7172533952
 10
-0.6154324284
 20
-13.6830267159
 10
-0.6143519356
 20
-13.6473849393
 10
-0.6135039444
 20
-13.6102837865
 10
-0.6128964568
 20
-13.5717084978
 10
-0.6125214707
 20
-13.531673833
 10
-0.6123789862
 20
-13.490179792
  0
LWPOLYLINE
  5
43B
100
AcDbEntity
  8
0
100
AcDbPolyline
 62
7
  6
CONTINUOUS
 90
10
 70
0
 10
-1.4649377182
 20
-12.6248962343
 10
-1.4597205135
 20
-12.5833647192
 10
-1.4536470536
 20
-12.5438634155
 10
-1.4467173385
 20
-12.5063923232
 10
-1.4388783502
 20
-12.4710076259
 10
-1.4301831068
 20
-12.43765314
 10
-1.4207906622
 20
-12.4061603147
 10
-1.4107540343
 20
-12.3764729662
 10
-1.4000202053
 20
-12.3486472783
 10
-1.388589175
 20
-12.3226832509
  0
LWPOLYLINE
  5
43C
100
AcDbEntity
  8
0
100
AcDbPolyline
 62
7
  6
CONTINUOUS
 90
10
 70
0
 10
-3.5229024061
 20
-13.9674030175
 10
-3.5197679284
 20
-13.9483287778
 10
-3.5169694403
 20
-13.9289742457
 10
-3.5145069418
 20
-13.909339421
 10
-3.5123628877
 20
-13.8894100051
 10
-3.5105548233
 20
-13.8692002966
 10
-3.509135384
 20
-13.8487531919
 10
-3.5081221153
 20
-13.8280829898
 10
-3.5074974718
 20
-13.8071753914
 10
-3.5072614536
 20
-13.7860303968
  0
LWPOLYLINE
  5
43D
100
AcDbEntity
  8
0
100
AcDbPolyline
 62
7
  6
CONTINUOUS
 90
10
 70
0
 10
-3.2763013193
 20
-12.8314598731
 10
-3.28030057
 20
-12.8518036328
 10
-3.2848371208
 20
-12.8716717465
 10
-3.2899109717
 20
-12.8910642142
 10
-3.2954977302
 20
-12.9098756244
 10
-3.3016217889
 20
-12.9282113885
 10
-3.3083563249
 20
-12.9463877418
 10
-3.3157257305
 20
-12.9645100959
 10
-3.3237056134
 20
-12.9824730392
 10
-3.3322959736
 20
-13.0002765715
  0
LWPOLYLINE
  5
43E
100
AcDbEntity
  8
0
100
AcDbPolyline
 62
7
  6
CONTINUOUS
 90
10
 70
0
 10
-3.5482159287
 20
-12.8763171362
 10
-3.5434817584
 20
-12.8577764424
 10
-3.5391936456
 20
-12.837688443
 10
-3.5353515905
 20
-12.816053138
 10
-3.5319000028
 20
-12.7928787109
 10
-3.5288944727
 20
-12.7681569781
 10
-3.5265017703
 20
-12.7418633894
 10
-3.5247774858
 20
-12.7139897615
 10
-3.523666029
 20
-12.6845442777
 10
-3.5231674001
 20
-12.653526938
  0
LINE
  5
43F
100
AcDbEntity
  8
0
100
AcDbLine
 62
7
  6
CONTINUOUS
 10
2.544278
 20
10.858687
 11
2.210253
 21
9.6085
  0
LINE
  5
440
100
AcDbEntity
  8
0
100
AcDbLine
 62
7
  6
CONTINUOUS
 10
2.143447
 20
9.392179
 11
1.981206
 21
8.81
  0
LINE
  5
441
100
AcDbEntity
  8
0
100
AcDbLine
 62
7
  6
CONTINUOUS
 10
1.710806
 20
8.81
 11
2.385218
 21
11.110022
  0
LINE
  5
442
100
AcDbEntity
  8
0
100
AcDbLine
 62
7
  6
CONTINUOUS
 10
-3.712456
 20
12.112007
 11
-4.441534
 21
14.411797
  0
LINE
  5
443
100
AcDbEntity
  8
0
100
AcDbLine
 62
7
  6
CONTINUOUS
 10
3.7204011127
 20
-12.1
 11
4.3852695391
 21
-14.4
  0
LINE
  5
444
100
AcDbEntity
  8
0
100
AcDbLine
 62
7
  6
CONTINUOUS
 10
4.1053248808
 20
-14.4
 11
3.9430840895
 21
-13.8178422898
  0
LINE
  5
445
100
AcDbEntity
  8
0
100
AcDbLine
 62
7
  6
CONTINUOUS
 10
-3.920045
 20
14.411797
 11
-3.481663
 21
12.82878
  0
LINE
  5
446
100
AcDbEntity
  8
0
100
AcDbLine
 62
7
  6
CONTINUOUS
 10
3.8794603035
 20
-13.6015214175
 11
3.5454355642
 21
-12.3513139546
  0
LWPOLYLINE
  5
447
100
AcDbEntity
  8
0
100
AcDbPolyline
 62
7
  6
CONTINUOUS
 90
10
 70
0
 10
2.5050142975
 20
-12.6121904825
 10
2.5090756225
 20
-12.6519422749
 10
2.5126561369
 20
-12.6926665305
 10
2.515755841
 20
-12.7343632494
 10
2.5183741089
 20
-12.7770882661
 10
2.5205115665
 20
-12.8207857461
 10
2.5221700903
 20
-12.8652881859
 10
2.523350306
 20
-12.9105397511
 10
2.5240515881
 20
-12.956596276
 10
2.5242739365
 20
-13.0034577608
  0
LINE
  5
448
100
AcDbEntity
  8
0
100
AcDbLine
 62
7
  6
CONTINUOUS
 10
0.483802
 20
14.411797
 11
0.698858
 21
12.112007
  0
LWPOLYLINE
  5
449
100
AcDbEntity
  8
0
100
AcDbPolyline
 62
7
  6
CONTINUOUS
 90
10
 70
0
 10
2.2538727078
 20
-12.6980635699
 10
2.2514213587
 20
-12.6676608081
 10
2.2484033995
 20
-12.6382173471
 10
2.24481883
 20
-12.6097331872
 10
2.2406267332
 20
-12.5821897811
 10
2.2358680261
 20
-12.555605676
 10
2.2306654604
 20
-12.5300365128
 10
2.2250599531
 20
-12.5055008384
 10
2.2190105872
 20
-12.4819801059
 10
2.2125173625
 20
-12.4594743153
  0
LWPOLYLINE
  5
44A
100
AcDbEntity
  8
0
100
AcDbPolyline
 62
7
  6
CONTINUOUS
 90
10
 70
0
 10
1.6620638861
 20
-13.8051248915
 10
1.6646269218
 20
-13.8378819025
 10
1.6676676682
 20
-13.8689192697
 10
1.6711861252
 20
-13.898236993
 10
1.6751910074
 20
-13.9257247598
 10
1.6796736002
 20
-13.9514928828
 10
1.6846077598
 20
-13.9758723004
 10
1.6899847717
 20
-13.9989733253
 10
1.6958133504
 20
-14.0206856449
 10
1.702093496
 20
-14.0410092589
  0
LINE
  5
44B
100
AcDbEntity
  8
0
100
AcDbLine
 62
7
  6
CONTINUOUS
 10
0.229236
 20
12.112007
 11
0.130606
 21
13.607466
  0
LWPOLYLINE
  5
44C
100
AcDbEntity
  8
0
100
AcDbPolyline
 62
7
  6
CONTINUOUS
 90
9
 70
0
 10
0.8253773847
 20
-12.98630727
 10
0.8250009667
 20
-12.945178382
 10
0.8243893229
 20
-12.9055206114
 10
0.8235352152
 20
-12.8673489166
 10
0.8224458816
 20
-12.8306483391
 10
0.8211430364
 20
-12.7953740032
 10
0.8196339175
 20
-12.7615109505
 10
0.817911287
 20
-12.7290741394
 10
0.8159751448
 20
-12.6980635699
  0
LWPOLYLINE
  5
44D
100
AcDbEntity
  8
0
100
AcDbPolyline
 62
7
  6
CONTINUOUS
 90
9
 70
0
 10
2.2632749476
 20
-12.98630727
 10
2.2628985297
 20
-12.945178382
 10
2.2622868859
 20
-12.9055206114
 10
2.2614327781
 20
-12.8673489166
 10
2.2603434446
 20
-12.8306483391
 10
2.2590405994
 20
-12.7953740032
 10
2.2575314805
 20
-12.7615109505
 10
2.25580885
 20
-12.7290741394
 10
2.2538727078
 20
-12.6980635699
  0
LWPOLYLINE
  5
44E
100
AcDbEntity
  8
0
100
AcDbPolyline
 62
7
  6
CONTINUOUS
 90
9
 70
0
 10
1.6527249437
 20
-13.5250569586
 10
1.6530549109
 20
-13.5624408876
 10
1.6536176961
 20
-13.5991503896
 10
1.6544066216
 20
-13.6351898924
 10
1.655428365
 20
-13.6705549682
 10
1.6567029599
 20
-13.7052323343
 10
1.6582370839
 20
-13.7392175631
 10
1.6600240593
 20
-13.7725150822
 10
1.6620638861
 20
-13.8051248915
  0
LINE
  5
44F
100
AcDbEntity
  8
0
100
AcDbLine
 62
7
  6
CONTINUOUS
 10
0.479694
 20
8.810006
 11
0.479694
 21
11.110007
  0
LINE
  5
450
100
AcDbEntity
  8
0
100
AcDbLine
 62
7
  6
CONTINUOUS
 10
0.750095
 20
10.893686
 11
0.750095
 21
10.104751
  0
LINE
  5
451
100
AcDbEntity
  8
0
100
AcDbLine
 62
7
  6
CONTINUOUS
 10
0.750095
 20
9.888429
 11
0.750095
 21
9.026327
  0
LINE
  5
452
100
AcDbEntity
  8
0
100
AcDbLine
 62
7
  6
CONTINUOUS
 10
0.8255185768
 20
-13.490179792
 11
0.8253773847
 21
-12.98630727
  0
LINE
  5
453
100
AcDbEntity
  8
0
100
AcDbLine
 62
7
  6
CONTINUOUS
 10
1.0863763735
 20
-13.0034577608
 11
1.0863763735
 21
-13.4392807633
  0
LINE
  5
454
100
AcDbEntity
  8
0
100
AcDbLine
 62
7
  6
CONTINUOUS
 10
1.3918550219
 20
-13.497109107
 11
1.3917705461
 21
-13.016182518
  0
LINE
  5
455
100
AcDbEntity
  8
0
100
AcDbLine
 62
7
  6
CONTINUOUS
 10
1.497674
 20
10.104751
 11
1.497674
 21
9.888429
  0
LINE
  5
456
100
AcDbEntity
  8
0
100
AcDbLine
 62
7
  6
CONTINUOUS
 10
1.53903
 20
11.110007
 11
1.53903
 21
10.893686
  0
LINE
  5
457
100
AcDbEntity
  8
0
100
AcDbLine
 62
7
  6
CONTINUOUS
 10
1.561298
 20
9.026327
 11
1.561298
 21
8.810006
  0
LINE
  5
458
100
AcDbEntity
  8
0
100
AcDbLine
 62
7
  6
CONTINUOUS
 10
1.6526277944
 20
-13.0289072752
 11
1.6527249437
 21
-13.5250569586
  0
LWPOLYLINE
  5
459
100
AcDbEntity
  8
0
100
AcDbPolyline
 62
7
  6
CONTINUOUS
 90
10
 70
0
 10
1.3917705461
 20
-13.016182518
 10
1.3919937039
 20
-12.9694614224
 10
1.3926886172
 20
-12.9235399983
 10
1.3938552858
 20
-12.8784182457
 10
1.3954901823
 20
-12.8340807794
 10
1.3975968342
 20
-12.7905429846
 10
1.4001858244
 20
-12.7478510171
 10
1.4032606805
 20
-12.7060202621
 10
1.406817875
 20
-12.6650353346
 10
1.4108574077
 20
-12.6248962343
  0
LWPOLYLINE
  5
45A
100
AcDbEntity
  8
0
100
AcDbPolyline
 62
7
  6
CONTINUOUS
 90
10
 70
0
 10
1.0863763735
 20
-13.4392807633
 10
1.0860750387
 20
-13.4907228331
 10
1.0853440408
 20
-13.5405996526
 10
1.0841833796
 20
-13.5889112217
 10
1.0825672984
 20
-13.6356417003
 10
1.080521554
 20
-13.6808069285
 10
1.0781234169
 20
-13.7244544269
 10
1.0753986437
 20
-13.7666000356
 10
1.0723214778
 20
-13.8072279145
 10
1.068891919
 20
-13.8463380635
  0
LWPOLYLINE
  5
45B
100
AcDbEntity
  8
0
100
AcDbPolyline
 62
7
  6
CONTINUOUS
 90
10
 70
0
 10
0.2242736635
 20
-12.6980635699
 10
0.2223375213
 20
-12.7290741394
 10
0.2206148907
 20
-12.7615109505
 10
0.2191057719
 20
-12.7953740032
 10
0.2178029267
 20
-12.8306483391
 10
0.2167135931
 20
-12.8673489166
 10
0.2158594854
 20
-12.9055206114
 10
0.2152478416
 20
-12.945178382
 10
0.2148714236
 20
-12.98630727
 10
0.2147302315
 20
-13.0289072752
  0
LWPOLYLINE
  5
45C
100
AcDbEntity
  8
0
100
AcDbPolyline
 62
7
  6
CONTINUOUS
 90
10
 70
0
 10
0.8160824935
 20
-13.8114871466
 10
0.8179889496
 20
-13.781490981
 10
0.8196869032
 20
-13.7500797232
 10
0.8211763545
 20
-13.7172533734
 10
0.8224653009
 20
-13.6830266923
 10
0.823545745
 20
-13.6473849192
 10
0.8243936939
 20
-13.6102837708
 10
0.82500115
 20
-13.5717084864
 10
0.825376111
 20
-13.5316738268
 10
0.8255185768
 20
-13.490179792
  0
LWPOLYLINE
  5
45D
100
AcDbEntity
  8
0
100
AcDbPolyline
 62
7
  6
CONTINUOUS
 90
10
 70
0
 10
-0.369005644
 20
-13.8463380635
 10
-0.3735126316
 20
-13.8889752783
 10
-0.3788951044
 20
-13.9296520795
 10
-0.3851530624
 20
-13.9683684668
 10
-0.3923046995
 20
-14.0050536004
 10
-0.4003318217
 20
-14.0397783201
 10
-0.4091798477
 20
-14.0727551464
 10
-0.4188305837
 20
-14.1040549192
 10
-0.4293022235
 20
-14.1336067984
 10
-0.4405947672
 20
-14.1614107841
  0
LWPOLYLINE
  5
45E
100
AcDbEntity
  8
0
100
AcDbPolyline
 62
7
  6
CONTINUOUS
 90
10
 70
0
 10
-0.0270401552
 20
-12.6248962343
 10
-0.0218229505
 20
-12.5833647192
 10
-0.0157494906
 20
-12.5438634155
 10
-0.0088197755
 20
-12.5063923232
 10
-0.0009807872
 20
-12.4710076259
 10
0.0077144562
 20
-12.43765314
 10
0.0171069008
 20
-12.4061603147
 10
0.0271435287
 20
-12.3764729662
 10
0.0378773577
 20
-12.3486472783
 10
0.0493083879
 20
-12.3226832509
  0
LWPOLYLINE
  5
45F
100
AcDbEntity
  8
0
100
AcDbPolyline
 62
7
  6
CONTINUOUS
 90
10
 70
0
 10
-3.2686721857
 20
-14.0405255754
 10
-3.275874331
 20
-14.0683540794
 10
-3.2840916921
 20
-14.0952176357
 10
-3.293324269
 20
-14.1211162444
 10
-3.3036739194
 20
-14.1461454127
 10
-3.3150387857
 20
-14.1702096334
 10
-3.3271132943
 20
-14.1930223841
 10
-3.3397955875
 20
-14.2144881572
 10
-3.353187523
 20
-14.2347024603
 10
-3.367289101
 20
-14.2536652934
  0
LWPOLYLINE
  5
460
100
AcDbEntity
  8
RACCORDO
100
AcDbPolyline
 62
250
  6
CONTINUOUS
 90
16
 70
0
 10
-9.5840895651
 20
-11.8030796844
 10
-9.588612256
 20
-11.8072663593
 10
-9.5929538537
 20
-11.8154609965
 10
-9.5971143582
 20
-11.8274945267
 10
-9.601116449
 20
-11.8431005336
 10
-9.6049374466
 20
-11.8620829358
 10
-9.6085093123
 20
-11.8844435303
 10
-9.6118409702
 20
-11.9100534424
 10
-9.6149234961
 20
-11.9386495885
 10
-9.6176620799
 20
-11.9701294527
 10
-9.620055349
 20
-12.0043021144
 10
-9.6221046759
 20
-12.0408125614
 10
-9.6237193678
 20
-12.0792863356
 10
-9.6248691939
 20
-12.119334143
 10
-9.6255843851
 20
-12.1605608553
 10
-9.6258649413
 20
-12.2025314983
  0
LINE
  5
461
100
AcDbEntity
  8
0
100
AcDbLine
 62
7
  6
CONTINUOUS
 10
2.2634161398
 20
-13.490179792
 11
2.2632749476
 21
-12.98630727
  0
LINE
  5
462
100
AcDbEntity
  8
0
100
AcDbLine
 62
7
  6
CONTINUOUS
 10
2.5242739365
 20
-13.0034577608
 11
2.5242739365
 21
-13.4392807633
  0
LINE
  5
463
100
AcDbEntity
  8
0
100
AcDbLine
 62
7
  6
CONTINUOUS
 10
2.8065975821
 20
12.1120071664
 11
2.8065975821
 21
14.3849276465
  0
LINE
  5
464
100
AcDbEntity
  8
0
100
AcDbLine
 62
7
  6
CONTINUOUS
 10
3.2688043561
 20
14.0200048698
 11
3.2688043561
 21
13.388667771
  0
LINE
  5
465
100
AcDbEntity
  8
0
100
AcDbLine
 62
7
  6
CONTINUOUS
 10
3.2847223015
 20
13.0120177973
 11
3.2847223015
 21
12.1120071664
  0
LINE
  5
466
100
AcDbEntity
  8
0
100
AcDbLine
 62
7
  6
CONTINUOUS
 10
4.0407988352
 20
13.1991183268
 11
4.0407988352
 21
13.185528575
  0
LWPOLYLINE
  5
467
100
AcDbEntity
  8
0
100
AcDbPolyline
 62
7
  6
CONTINUOUS
 90
10
 70
0
 10
2.5242739365
 20
-13.4392807633
 10
2.5239725983
 20
-13.4907228422
 10
2.5232416039
 20
-13.5405996694
 10
2.5220809531
 20
-13.5889112449
 10
2.5204648871
 20
-13.6356417304
 10
2.5184191648
 20
-13.6808069642
 10
2.516021063
 20
-13.7244544611
 10
2.5132963406
 20
-13.7666000594
 10
2.5102192388
 20
-13.8072279209
 10
2.5067897575
 20
-13.8463380455
  0
LWPOLYLINE
  5
468
100
AcDbEntity
  8
0
100
AcDbPolyline
 62
7
  6
CONTINUOUS
 90
10
 70
0
 10
1.6621712265
 20
-12.6980635699
 10
1.6602350843
 20
-12.7290741394
 10
1.6585124537
 20
-12.7615109505
 10
1.6570033349
 20
-12.7953740032
 10
1.6557004896
 20
-12.8306483391
 10
1.6546111561
 20
-12.8673489166
 10
1.6537570484
 20
-12.9055206114
 10
1.6531454046
 20
-12.945178382
 10
1.6527689866
 20
-12.98630727
 10
1.6526277944
 20
-13.0289072752
  0
LWPOLYLINE
  5
469
100
AcDbEntity
  8
0
100
AcDbPolyline
 62
7
  6
CONTINUOUS
 90
10
 70
0
 10
2.2539800565
 20
-13.8114871466
 10
2.2558865126
 20
-13.781490981
 10
2.2575844662
 20
-13.7500797232
 10
2.2590739175
 20
-13.7172533734
 10
2.2603628639
 20
-13.6830266923
 10
2.261443308
 20
-13.6473849192
 10
2.2622912569
 20
-13.6102837708
 10
2.262898713
 20
-13.5717084864
 10
2.263273674
 20
-13.5316738268
 10
2.2634161398
 20
-13.490179792
  0
LWPOLYLINE
  5
46A
100
AcDbEntity
  8
0
100
AcDbPolyline
 62
7
  6
CONTINUOUS
 90
10
 70
0
 10
1.068891919
 20
-13.8463380635
 10
1.0643849508
 20
-13.8889752839
 10
1.0590025032
 20
-13.9296520896
 10
1.0527445763
 20
-13.9683684807
 10
1.0455929804
 20
-14.0050536175
 10
1.0375659053
 20
-14.0397783397
 10
1.0287179197
 20
-14.0727551656
 10
1.0190672135
 20
-14.1040549347
 10
1.0085955969
 20
-14.1336068075
 10
0.99730307
 20
-14.1614107841
  0
LWPOLYLINE
  5
46B
100
AcDbEntity
  8
0
100
AcDbPolyline
 62
7
  6
CONTINUOUS
 90
10
 70
0
 10
2.5067897575
 20
-13.8463380455
 10
2.5022828298
 20
-13.8889752715
 10
2.4969003966
 20
-13.9296520803
 10
2.4906424579
 20
-13.9683684719
 10
2.4834908128
 20
-14.0050536047
 10
2.4754636623
 20
-14.0397783203
 10
2.4666156088
 20
-14.0727551435
 10
2.4569648532
 20
-14.1040549161
 10
2.4464931946
 20
-14.1336067963
 10
2.435200633
 20
-14.1614107841
  0
LWPOLYLINE
  5
46C
100
AcDbEntity
  8
0
100
AcDbPolyline
 62
7
  6
CONTINUOUS
 90
10
 70
0
 10
1.4108574077
 20
-12.6248962343
 10
1.4160746125
 20
-12.5833647192
 10
1.4221480724
 20
-12.5438634155
 10
1.4290777875
 20
-12.5063923232
 10
1.4369167757
 20
-12.4710076259
 10
1.4456120192
 20
-12.43765314
 10
1.4550044638
 20
-12.4061603147
 10
1.4650410916
 20
-12.3764729662
 10
1.4757749207
 20
-12.3486472783
 10
1.4872059509
 20
-12.3226832509
  0
LINE
  5
46D
100
AcDbEntity
  8
RACCORDO
100
AcDbLine
 62
250
  6
CONTINUOUS
 10
10.5154079535
 20
26.2216232767
 11
10.5337380986
 21
26.2828653412
  0
LINE
  5
46E
100
AcDbEntity
  8
RACCORDO
100
AcDbLine
 62
250
  6
CONTINUOUS
 10
10.9645351961
 20
25.7709349336
 11
10.9828653412
 21
25.8321769981
  0
LWPOLYLINE
  5
46F
100
AcDbEntity
  8
0
100
AcDbPolyline
 62
7
  6
CONTINUOUS
 90
10
 70
0
 10
-1.1737123273
 20
-12.4590231965
 10
-1.1799818958
 20
-12.4794673507
 10
-1.1858008113
 20
-12.501397786
 10
-1.1911690736
 20
-12.5248145022
 10
-1.1960974619
 20
-12.5496605777
 10
-1.2005751971
 20
-12.5759929342
 10
-1.2045699422
 20
-12.603982337
 10
-1.2080709184
 20
-12.6336857078
 10
-1.2110889046
 20
-12.6650461248
 10
-1.2136239007
 20
-12.6980635881
  0
LWPOLYLINE
  5
470
100
AcDbEntity
  8
0
100
AcDbPolyline
 62
7
  6
CONTINUOUS
 90
10
 70
0
 10
0.2641853624
 20
-12.4590232314
 10
0.2579157617
 20
-12.4794673662
 10
0.2520968191
 20
-12.5013977854
 10
0.2467285346
 20
-12.5248144893
 10
0.2418001299
 20
-12.5496605561
 10
0.2373223833
 20
-12.5759929074
 10
0.2333276298
 20
-12.603982308
 10
0.2298266478
 20
-12.6336856794
 10
0.2268086591
 20
-12.6650461001
 10
0.2242736635
 20
-12.6980635699
  0
LWPOLYLINE
  5
471
100
AcDbEntity
  8
0
100
AcDbPolyline
 62
7
  6
CONTINUOUS
 90
10
 70
0
 10
-0.6647114671
 20
-14.046404229
 10
-0.6579569298
 20
-14.0248034137
 10
-0.6516799939
 20
-14.0021779099
 10
-0.6458806595
 20
-13.9785277174
 10
-0.6405329613
 20
-13.9539869466
 10
-0.6356628646
 20
-13.9284214871
 10
-0.6313482648
 20
-13.9014290087
 10
-0.6276151271
 20
-13.872875401
 10
-0.6244374863
 20
-13.8428947742
 10
-0.6218153424
 20
-13.8114871284
  0
LWPOLYLINE
  5
472
100
AcDbEntity
  8
0
100
AcDbPolyline
 62
7
  6
CONTINUOUS
 90
10
 70
0
 10
-3.3322959736
 20
-13.0002765715
 10
-3.3417458263
 20
-13.0179968216
 10
-3.3517584369
 20
-13.034895072
 10
-3.3623338056
 20
-13.0509713226
 10
-3.3734841042
 20
-13.0662056289
 10
-3.3851971609
 20
-13.0806179354
 10
-3.3974364593
 20
-13.0942680758
 10
-3.4101898274
 20
-13.1071759943
 10
-3.4234694373
 20
-13.1193217467
 10
-3.437275289
 20
-13.1307053328
  0
LWPOLYLINE
  5
473
100
AcDbEntity
  8
0
100
AcDbPolyline
 62
7
  6
CONTINUOUS
 90
10
 70
0
 10
-4.04170129
 20
-12.376763469
 10
-4.0487288882
 20
-12.388329748
 10
-4.0552989202
 20
-12.4003933485
 10
-4.061411386
 20
-12.4129542703
 10
-4.0671017604
 20
-12.4260612861
 10
-4.0723345687
 20
-12.4396656233
 10
-4.0770033863
 20
-12.4536209641
 10
-4.0810727387
 20
-12.4678785359
 10
-4.0845781005
 20
-12.4824871114
 10
-4.0875194717
 20
-12.4974466906
  0
LWPOLYLINE
  5
474
100
AcDbEntity
  8
RACCORDO
100
AcDbPolyline
 62
7
  6
CONTINUOUS
 90
19
 70
0
 10
-9.1802601072
 20
-11.6599329936
 10
-9.1774230988
 20
-11.6577115971
 10
-9.1754015952
 20
-11.6533485767
 10
-9.1741955964
 20
-11.6469691174
 10
-9.1736592061
 20
-11.6386584844
 10
-9.1739383207
 20
-11.6286081787
 10
-9.1754706284
 20
-11.6172239509
 10
-9.1782352802
 20
-11.6049083827
 10
-9.1822531252
 20
-11.5917945068
 10
-9.1880243987
 20
-11.5779212877
 10
-9.1955793217
 20
-11.5632981792
 10
-9.2048876732
 20
-11.5482422086
 10
-9.2163590248
 20
-11.5332389244
 10
-9.2302089902
 20
-11.5183214792
 10
-9.2462219558
 20
-11.5037748723
 10
-9.2641606521
 20
-11.4905113161
 10
-9.2839459895
 20
-11.4789141958
 10
-9.3056570576
 20
-11.4687984698
 10
-9.3292938566
 20
-11.4602070867
  0
LINE
  5
475
100
AcDbEntity
  8
DRAFT
100
AcDbLine
 62
7
  6
CONTINUOUS
 10
-10.1
 20
-11.7626767255
 11
-9.9473059106
 21
-11.6482376725
  0
LINE
  5
476
100
AcDbEntity
  8
DRAFT
100
AcDbLine
 62
7
  6
CONTINUOUS
 10
-10.1
 20
11.7626767255
 11
-9.9473059106
 21
11.6482376725
  0
LINE
  5
477
100
AcDbEntity
  8
0
100
AcDbLine
 62
7
  6
CONTINUOUS
 10
-0.507508
 20
12.112007
 11
-1.070672
 21
13.613726
  0
LINE
  5
478
100
AcDbEntity
  8
0
100
AcDbLine
 62
7
  6
CONTINUOUS
 10
-0.361189
 20
8.810006
 11
-1.134218
 21
10.87778
  0
LINE
  5
479
100
AcDbEntity
  8
0
100
AcDbLine
 62
7
  6
CONTINUOUS
 10
-0.965615
 20
11.110007
 11
-0.192586
 21
9.042233
  0
LINE
  5
47A
100
AcDbEntity
  8
RACCORDO
100
AcDbLine
 62
250
  6
CONTINUOUS
 10
10.5154079535
 20
-26.2216232767
 11
10.5337380986
 21
-26.2828653412
  0
LINE
  5
47B
100
AcDbEntity
  8
RACCORDO
100
AcDbLine
 62
250
  6
CONTINUOUS
 10
10.9645351961
 20
-25.7709349336
 11
10.9828653412
 21
-25.8321769981
  0
LWPOLYLINE
  5
47C
100
AcDbEntity
  8
0
100
AcDbPolyline
 62
7
  6
CONTINUOUS
 90
13
 70
0
 10
3.9160594002
 20
13.7460540991
 10
3.9130168185
 20
13.7817032797
 10
3.9061544422
 20
13.8158691711
 10
3.8954722712
 20
13.8485517733
 10
3.8808104567
 20
13.8802180903
 10
3.8623288476
 20
13.9104011182
 10
3.8405069904
 20
13.9376998448
 10
3.8153382349
 20
13.9618167836
 10
3.7868292314
 20
13.9830494211
 10
3.755479478
 20
14.0008892052
 10
3.7214554739
 20
14.0151666183
 10
3.6845907199
 20
14.0260511778
 10
3.6448852159
 20
14.0335428839
  0
LINE
  5
47D
100
AcDbEntity
  8
RACCORDO
100
AcDbLine
 62
7
  6
CONTINUOUS
 10
5.25
 20
-14.8
 11
5.25
 21
-11.8
  0
LINE
  5
47E
100
AcDbEntity
  8
RACCORDO
100
AcDbLine
 62
7
  6
CONTINUOUS
 10
5.25
 20
8.7
 11
5.25
 21
14.7
  0
LWPOLYLINE
  5
47F
100
AcDbEntity
  8
0
100
AcDbPolyline
 62
7
  6
CONTINUOUS
 90
10
 70
0
 10
1.7020829254
 20
-12.4590232314
 10
1.6958133247
 20
-12.4794673662
 10
1.6899943821
 20
-12.5013977854
 10
1.6846260976
 20
-12.5248144893
 10
1.6796976929
 20
-12.5496605561
 10
1.6752199462
 20
-12.5759929074
 10
1.6712251928
 20
-12.603982308
 10
1.6677242108
 20
-12.6336856794
 10
1.6647062221
 20
-12.6650461001
 10
1.6621712265
 20
-12.6980635699
  0
LWPOLYLINE
  5
480
100
AcDbEntity
  8
0
100
AcDbPolyline
 62
7
  6
CONTINUOUS
 90
10
 70
0
 10
0.7731862208
 20
-14.0464042696
 10
0.7799407663
 20
-14.0248035761
 10
0.7862177134
 20
-14.0021781653
 10
0.792017062
 20
-13.9785280372
 10
0.7973647786
 20
-13.9539873053
 10
0.8022348966
 20
-13.9284218561
 10
0.8065495171
 20
-13.9014293497
 10
0.8102826735
 20
-13.8728756726
 10
0.8134603323
 20
-13.8428949382
 10
0.8160824935
 20
-13.8114871466
  0
LWPOLYLINE
  5
481
100
AcDbEntity
  8
0
100
AcDbPolyline
 62
7
  6
CONTINUOUS
 90
10
 70
0
 10
-0.4405947672
 20
-14.1614107841
 10
-0.4546486422
 20
-14.1911515361
 10
-0.4698752283
 20
-14.2189632376
 10
-0.4862745255
 20
-14.2448458885
 10
-0.5037323949
 20
-14.2686004081
 10
-0.5223629754
 20
-14.2904258771
 10
-0.5425086832
 20
-14.310919538
 10
-0.5642836571
 20
-14.3302804716
 10
-0.5875737584
 20
-14.3483095971
 10
-0.6123789869
 20
-14.3650069144
  0
LWPOLYLINE
  5
482
100
AcDbEntity
  8
0
100
AcDbPolyline
 62
7
  6
CONTINUOUS
 90
10
 70
0
 10
-1.388589175
 20
-12.3226832509
 10
-1.37458888
 20
-12.2950285976
 10
-1.3593855742
 20
-12.2690893968
 10
-1.3429792576
 20
-12.2448656487
 10
-1.3254615295
 20
-12.222495715
 10
-1.3067407907
 20
-12.201841234
 10
-1.2865422434
 20
-12.1824871199
 10
-1.2647742883
 20
-12.1642950107
 10
-1.2415285249
 20
-12.1474032684
 10
-1.2168049529
 20
-12.131811893
  0
LWPOLYLINE
  5
483
100
AcDbEntity
  8
0
100
AcDbPolyline
 62
7
  6
CONTINUOUS
 90
10
 70
0
 10
0.0493083879
 20
-12.3226832509
 10
0.0633086096
 20
-12.2950287337
 10
0.0785118705
 20
-12.2690896275
 10
0.0949181708
 20
-12.2448659324
 10
0.1124359147
 20
-12.2224960003
 10
0.1311566979
 20
-12.2018414792
 10
0.1513553077
 20
-12.1824873135
 10
0.1731233399
 20
-12.1642951513
 10
0.1963691988
 20
-12.1474033445
 10
0.2210928842
 20
-12.131811893
  0
LWPOLYLINE
  5
484
100
AcDbEntity
  8
0
100
AcDbPolyline
 62
7
  6
CONTINUOUS
 90
10
 70
0
 10
-3.5740664249
 20
-14.1105117422
 10
-3.5665302167
 20
-14.0985576506
 10
-3.559452288
 20
-14.0856478836
 10
-3.5528326388
 20
-14.0717824411
 10
-3.5466652028
 20
-14.0570027153
 10
-3.5409560464
 20
-14.041267314
 10
-3.5357233686
 20
-14.0244520612
 10
-3.5309732358
 20
-14.0065155648
 10
-3.5266995816
 20
-13.9874992169
 10
-3.5229024061
 20
-13.9674030175
  0
LWPOLYLINE
  5
485
100
AcDbEntity
  8
0
100
AcDbPolyline
 62
7
  6
CONTINUOUS
 90
10
 70
0
 10
-4.2198478953
 20
-12.2049792426
 10
-4.1931976312
 20
-12.1782242517
 10
-4.1620005221
 20
-12.1539473017
 10
-4.126256568
 20
-12.1321483926
 10
-4.0865723701
 20
-12.1125152305
 10
-4.0423413271
 20
-12.0953601094
 10
-3.9917436358
 20
-12.0816199105
 10
-3.9341726952
 20
-12.0716069276
 10
-3.8702351063
 20
-12.0650088669
 10
-3.799930869
 20
-12.0618257284
  0
LWPOLYLINE
  5
486
100
AcDbEntity
  8
RACCORDO
100
AcDbPolyline
 62
250
  6
CONTINUOUS
 90
16
 70
0
 10
-9.0838071396
 20
-12.8004043523
 10
-9.0894463292
 20
-12.804095746
 10
-9.0948256996
 20
-12.8105641262
 10
-9.0999452511
 20
-12.8198094927
 10
-9.1048393664
 20
-12.8320697545
 10
-9.1094736626
 20
-12.8471070027
 10
-9.1137449909
 20
-12.8642075107
 10
-9.1176270601
 20
-12.8832002415
 10
-9.1211461614
 20
-12.9042562323
 10
-9.1242780196
 20
-12.9271748672
 10
-9.1270497892
 20
-12.9520154867
 10
-9.1294343157
 20
-12.9787187504
 10
-9.13132586
 20
-13.0069060215
 10
-9.1326891758
 20
-13.0364510877
 10
-9.1335595093
 20
-13.0674801613
 10
-9.1339368607
 20
-13.0999932422
  0
LWPOLYLINE
  5
487
100
AcDbEntity
  8
RACCORDO
100
AcDbPolyline
 62
250
  6
CONTINUOUS
 90
16
 70
0
 10
-9.4363690968
 20
-11.9528741146
 10
-9.4408900175
 20
-11.9557012579
 10
-9.4452306112
 20
-11.9607877007
 10
-9.449390878
 20
-11.9681334429
 10
-9.4533939825
 20
-11.9778263713
 10
-9.4572167601
 20
-11.9897785992
 10
-9.4607897169
 20
-12.0037264664
 10
-9.4641209116
 20
-12.0197039946
 10
-9.4672022855
 20
-12.0376771621
 10
-9.4699401679
 20
-12.0572802441
 10
-9.4723338171
 20
-12.0786085171
 10
-9.4743839748
 20
-12.1015667045
 10
-9.4759991947
 20
-12.1255032517
 10
-9.4771489948
 20
-12.150200974
 10
-9.4778638572
 20
-12.1758770562
 10
-9.4781437817
 20
-12.2025314983
  0
LINE
  5
488
100
AcDbEntity
  8
0
100
AcDbLine
 62
7
  6
CONTINUOUS
 10
-0.946209
 20
14.411797
 11
-0.471223
 21
13.134946
  0
LINE
  5
489
100
AcDbEntity
  8
0
100
AcDbLine
 62
7
  6
CONTINUOUS
 10
2.719243
 20
11.110022
 11
3.384112
 21
8.81
  0
LINE
  5
48A
100
AcDbEntity
  8
0
100
AcDbLine
 62
7
  6
CONTINUOUS
 10
3.104146
 20
8.81
 11
2.941927
 21
9.392179
  0
LINE
  5
48B
100
AcDbEntity
  8
0
100
AcDbLine
 62
7
  6
CONTINUOUS
 10
2.15967
 20
12.112007
 11
2.03531
 21
12.571127
  0
LINE
  5
48C
100
AcDbEntity
  8
0
100
AcDbLine
 62
7
  6
CONTINUOUS
 10
2.878303
 20
9.6085
 11
2.544278
 21
10.858687
  0
LINE
  5
48D
100
AcDbEntity
  8
0
100
AcDbLine
 62
7
  6
CONTINUOUS
 10
1.939371
 20
12.926392
 11
1.718779
 21
13.779873
  0
LWPOLYLINE
  5
48E
100
AcDbEntity
  8
RACCORDO
100
AcDbPolyline
 62
250
  6
CONTINUOUS
 90
13
 70
0
 10
8.36067643
 20
-13.4108335738
 10
8.3620999909
 20
-13.4302748463
 10
8.3659980887
 20
-13.4493871544
 10
8.3723047419
 20
-13.4678472342
 10
8.3809132431
 20
-13.4853428819
 10
8.3916779392
 20
-13.5015781777
 10
8.4044166749
 20
-13.5162785044
 10
8.4189139327
 20
-13.5291952706
 10
8.434924477
 20
-13.5401100761
 10
8.4521774544
 20
-13.5488383685
 10
8.4703810274
 20
-13.5552326055
 10
8.4892273195
 20
-13.5591847348
 10
8.508397593
 20
-13.560628004
  0
LWPOLYLINE
  5
48F
100
AcDbEntity
  8
RACCORDO
100
AcDbPolyline
 62
250
  6
CONTINUOUS
 90
16
 70
0
 10
8.0991350553
 20
-13.444662868
 10
8.1009531978
 20
-13.4761638779
 10
8.1057683651
 20
-13.5065901451
 10
8.113580557
 20
-13.5359416698
 10
8.1245358819
 20
-13.5644674613
 10
8.1384882314
 20
-13.5919185102
 10
8.1549992811
 20
-13.6175477881
 10
8.174020873
 20
-13.6412847907
 10
8.195601165
 20
-13.6632000224
 10
8.2194463068
 20
-13.682757968
 10
8.2457730197
 20
-13.7000463047
 10
8.2743645825
 20
-13.7149773553
 10
8.304276981
 20
-13.7267525733
 10
8.3351955438
 20
-13.7351057765
 10
8.3674349423
 20
-13.7403031471
 10
8.4009951765
 20
-13.742344685
  0
LWPOLYLINE
  5
490
100
AcDbEntity
  8
RACCORDO
100
AcDbPolyline
 62
250
  6
CONTINUOUS
 90
16
 70
0
 10
8.2468564566
 20
-13.444663065
 10
8.2475572038
 20
-13.4601936532
 10
8.2499150924
 20
-13.4754787804
 10
8.2538882542
 20
-13.4903590857
 10
8.2594155067
 20
-13.5046674489
 10
8.2664263617
 20
-13.5182749956
 10
8.2748555587
 20
-13.5310856252
 10
8.2845827409
 20
-13.5429285459
 10
8.2955356725
 20
-13.5537261766
 10
8.3077568715
 20
-13.5634885967
 10
8.3212452066
 20
-13.572113487
 10
8.335819123
 20
-13.579392355
 10
8.3512516829
 20
-13.5851665694
 10
8.3673550443
 20
-13.5893320946
 10
8.3839953573
 20
-13.5918152334
 10
8.4009954312
 20
-13.5925499978
  0
LWPOLYLINE
  5
491
100
AcDbEntity
  8
RACCORDO
100
AcDbPolyline
 62
250
  6
CONTINUOUS
 90
13
 70
0
 10
8.36067643
 20
13.4108335738
 10
8.3620998746
 20
13.430273992
 10
8.3659976728
 20
13.4493856116
 10
8.3723039005
 20
13.4678451953
 10
8.3809118996
 20
13.4853405334
 10
8.3916760818
 20
13.5015757249
 10
8.4044143911
 20
13.5162761819
 10
8.4189113826
 20
13.5291932733
 10
8.4349218668
 20
13.5401085307
 10
8.4521750561
 20
13.5488373429
 10
8.470379145
 20
13.5552320782
 10
8.4892262452
 20
13.5591845816
 10
8.508397593
 20
13.560628004
  0
LINE
  5
492
100
AcDbEntity
  8
0
100
AcDbLine
 62
7
  6
CONTINUOUS
 10
3.5454355642
 20
-12.3513139546
 11
3.211410825
 21
-13.6015214175
  0
LINE
  5
493
100
AcDbEntity
  8
0
100
AcDbLine
 62
7
  6
CONTINUOUS
 10
3.1446059868
 20
-13.8178422898
 11
2.9823651955
 21
-14.4
  0
LINE
  5
494
100
AcDbEntity
  8
0
100
AcDbLine
 62
7
  6
CONTINUOUS
 10
2.7119642422
 20
-14.4
 11
3.3863763735
 21
-12.1
  0
LWPOLYLINE
  5
495
100
AcDbEntity
  8
0
100
AcDbPolyline
 62
7
  6
CONTINUOUS
 90
10
 70
0
 10
2.2110837838
 20
-14.0464042696
 10
2.2178383293
 20
-14.0248035761
 10
2.2241152764
 20
-14.0021781653
 10
2.229914625
 20
-13.9785280372
 10
2.2352623416
 20
-13.9539873053
 10
2.2401324596
 20
-13.9284218561
 10
2.2444470801
 20
-13.9014293497
 10
2.2481802365
 20
-13.8728756726
 10
2.2513578953
 20
-13.8428949382
 10
2.2539800565
 20
-13.8114871466
  0
LWPOLYLINE
  5
496
100
AcDbEntity
  8
0
100
AcDbPolyline
 62
7
  6
CONTINUOUS
 90
10
 70
0
 10
0.99730307
 20
-14.1614107841
 10
0.9832492663
 20
-14.1911513939
 10
0.9680227239
 20
-14.2189629963
 10
0.9516234428
 20
-14.2448455912
 10
0.9341655588
 20
-14.2686001079
 10
0.9155349361
 20
-14.2904256171
 10
0.8953891672
 20
-14.3109193312
 10
0.8736141164
 20
-14.3302803208
 10
0.8503239193
 20
-14.3483095152
 10
0.8255185761
 20
-14.3650069144
  0
LWPOLYLINE
  5
497
100
AcDbEntity
  8
0
100
AcDbPolyline
 62
7
  6
CONTINUOUS
 90
10
 70
0
 10
1.4872059509
 20
-12.3226832509
 10
1.5012061726
 20
-12.2950287337
 10
1.5164094335
 20
-12.2690896275
 10
1.5328157338
 20
-12.2448659324
 10
1.5503334777
 20
-12.2224960003
 10
1.5690542609
 20
-12.2018414792
 10
1.5892528707
 20
-12.1824873135
 10
1.6110209029
 20
-12.1642951513
 10
1.6342667617
 20
-12.1474033445
 10
1.6589904472
 20
-12.131811893
  0
LWPOLYLINE
  5
498
100
AcDbEntity
  8
0
100
AcDbPolyline
 62
7
  6
CONTINUOUS
 90
10
 70
0
 10
-3.367289101
 20
-14.2536652934
 10
-3.3814730793
 20
-14.2709992555
 10
-3.3969984217
 20
-14.2877296287
 10
-3.4138651284
 20
-14.3038564128
 10
-3.4319916544
 20
-14.3194042933
 10
-3.4514595446
 20
-14.3343485848
 10
-3.4725134333
 20
-14.348615231
 10
-3.4952348654
 20
-14.3621795466
 10
-3.519542296
 20
-14.3750662168
 10
-3.5454357252
 20
-14.3872752417
  0
LWPOLYLINE
  5
499
100
AcDbEntity
  8
0
100
AcDbPolyline
 62
7
  6
CONTINUOUS
 90
10
 70
0
 10
-3.6241613438
 20
-13.0170055495
 10
-3.6140267423
 20
-13.006785135
 10
-3.6042804342
 20
-12.9952555339
 10
-3.5949224195
 20
-12.982416746
 10
-3.5859050154
 20
-12.9683270663
 10
-3.5772759047
 20
-12.9529281999
 10
-3.5691781358
 20
-12.9360452621
 10
-3.5616593916
 20
-12.9176199582
 10
-3.5546719892
 20
-12.8977105828
 10
-3.5482159287
 20
-12.8763171362
  0
LWPOLYLINE
  5
49A
100
AcDbEntity
  8
0
100
AcDbPolyline
 62
7
  6
CONTINUOUS
 90
10
 70
0
 10
-2.3747579947
 20
-12.4213001192
 10
-2.3944741196
 20
-12.4409520788
 10
-2.4141042045
 20
-12.4601297093
 10
-2.4336482496
 20
-12.4788330108
 10
-2.45308925
 20
-12.4970816911
 10
-2.4724442106
 20
-12.5148560424
 10
-2.4917641451
 20
-12.5320969407
 10
-2.5110660583
 20
-12.5487846779
 10
-2.5303329454
 20
-12.5649389622
 10
-2.5495648064
 20
-12.5805597935
  0
LWPOLYLINE
  5
49B
100
AcDbEntity
  8
0
100
AcDbPolyline
 62
7
  6
CONTINUOUS
 90
10
 70
0
 10
-2.5338174596
 20
-12.2876901686
 10
-2.5078876735
 20
-12.2656338493
 10
-2.4832966472
 20
-12.2439216851
 10
-2.4600443808
 20
-12.222553676
 10
-2.4382241132
 20
-12.2015880767
 10
-2.4177426054
 20
-12.1809666325
 10
-2.398320141
 20
-12.1605145792
 10
-2.379863481
 20
-12.140173662
 10
-2.3624658644
 20
-12.1200021356
 10
-2.346127291
 20
-12.1
  0
LINE
  5
49C
100
AcDbEntity
  8
RACCORDO
100
AcDbLine
 62
7
  6
CONTINUOUS
 10
-9.2228673023
 20
-11.6765983175
 11
-9.1802601072
 21
-11.6599329936
  0
LWPOLYLINE
  5
49D
100
AcDbEntity
  8
RACCORDO
100
AcDbPolyline
 62
7
  6
CONTINUOUS
 90
3
 70
0
 10
-9.2642138845
 20
-11.6925135396
 10
-9.250527155
 20
-11.68729404
 10
-9.2228673023
 20
-11.6765983175
  0
LWPOLYLINE
  5
49E
100
AcDbEntity
  8
RACCORDO
100
AcDbPolyline
 62
7
  6
CONTINUOUS
 90
3
 70
0
 10
-9.3049020021
 20
-11.7076485572
 10
-9.291412459
 20
-11.7026902407
 10
-9.2642138845
 20
-11.6925135396
  0
LWPOLYLINE
  5
49F
100
AcDbEntity
  8
RACCORDO
100
AcDbPolyline
 62
7
  6
CONTINUOUS
 90
3
 70
0
 10
-9.3049020021
 20
11.7076485572
 10
-9.2778497531
 20
11.6976452348
 10
-9.2642138845
 20
11.6925135396
  0
LINE
  5
4A0
100
AcDbEntity
  8
RACCORDO
100
AcDbLine
 62
7
  6
CONTINUOUS
 10
-9.2642138845
 20
11.6925135396
 11
-9.2367672626
 21
11.6819878511
  0
LWPOLYLINE
  5
4A1
100
AcDbEntity
  8
RACCORDO
100
AcDbPolyline
 62
7
  6
CONTINUOUS
 90
3
 70
0
 10
-9.2367672626
 20
11.6819878511
 10
-9.1946025737
 20
11.6655714462
 10
-9.1802601072
 20
11.6599329936
  0
LINE
  5
4A2
100
AcDbEntity
  8
0
100
AcDbLine
 62
7
  6
CONTINUOUS
 10
1.959997
 20
14.411797
 11
2.66563
 21
12.112007
  0
LINE
  5
4A3
100
AcDbEntity
  8
0
100
AcDbLine
 62
7
  6
CONTINUOUS
 10
4.0198623394
 20
12.1120071664
 11
3.9487462215
 21
12.3554833372
  0
LWPOLYLINE
  5
4A4
100
AcDbEntity
  8
0
100
AcDbPolyline
 62
7
  6
CONTINUOUS
 90
6
 70
0
 10
3.9487462215
 20
12.3554833372
 10
3.9044036762
 20
12.5125634427
 10
3.8819017444
 20
12.5890775022
 10
3.8584843067
 20
12.6639882382
 10
3.8344988964
 20
12.7374219814
 10
3.8099455134
 20
12.8093787318
  0
LINE
  5
4A5
100
AcDbEntity
  8
0
100
AcDbLine
 62
7
  6
CONTINUOUS
 10
4.3175089464
 20
12.7344626381
 11
4.3737684033
 21
12.5235939684
  0
LINE
  5
4A6
100
AcDbEntity
  8
0
100
AcDbLine
 62
7
  6
CONTINUOUS
 10
4.3737684033
 20
12.5235939684
 11
4.4816207207
 21
12.1120071664
  0
LWPOLYLINE
  5
4A7
100
AcDbEntity
  8
RACCORDO
100
AcDbPolyline
 62
250
  6
CONTINUOUS
 90
13
 70
0
 10
8.9909750246
 20
-13.7271871426
 10
8.9895515803
 20
-13.7077467247
 10
8.9856537824
 20
-13.6886351052
 10
8.9793475549
 20
-13.6701755217
 10
8.9707395559
 20
-13.6526801836
 10
8.9599753737
 20
-13.6364449921
 10
8.9472370644
 20
-13.6217445351
 10
8.9327400728
 20
-13.6088274435
 10
8.9167295885
 20
-13.597912186
 10
8.899476399
 20
-13.5891833737
 10
8.88127231
 20
-13.5827886383
 10
8.8624252096
 20
-13.5788361348
 10
8.8432538616
 20
-13.5773927124
  0
LWPOLYLINE
  5
4A8
100
AcDbEntity
  8
RACCORDO
100
AcDbPolyline
 62
250
  6
CONTINUOUS
 90
13
 70
0
 10
9.0838072388
 20
-13.6995956182
 10
9.0823837615
 20
-13.680154961
 10
9.0784858829
 20
-13.6610431619
 10
9.0721795481
 20
-13.6425834641
 10
9.0635714375
 20
-13.6250880799
 10
9.052807159
 20
-13.6088529028
 10
9.0400687807
 20
-13.5941525056
 10
9.0255717622
 20
-13.581235509
 10
9.0095613016
 20
-13.5703203655
 10
8.9923081792
 20
-13.5615916641
 10
8.9741041963
 20
-13.5551970222
 10
8.9552572426
 20
-13.5512445846
 10
8.9360860759
 20
-13.549801188
  0
LWPOLYLINE
  5
4A9
100
AcDbEntity
  8
RACCORDO
100
AcDbPolyline
 62
250
  6
CONTINUOUS
 90
13
 70
0
 10
9.4363690968
 20
-14.5471258854
 10
9.4377923113
 20
-14.5665646905
 10
9.4416895585
 20
-14.5856750991
 10
9.4479950565
 20
-14.6041339123
 10
9.4566022987
 20
-14.6216289389
 10
9.4673658275
 20
-14.6378642281
 10
9.4801036701
 20
-14.6525650886
 10
9.4946004804
 20
-14.6654828209
 10
9.5106111257
 20
-14.6763988476
 10
9.5278647715
 20
-14.6851284078
 10
9.5460695822
 20
-14.6915237743
 10
9.5649176789
 20
-14.6954767212
 10
9.5840902598
 20
-14.6969203156
  0
LWPOLYLINE
  5
4AA
100
AcDbEntity
  8
RACCORDO
100
AcDbPolyline
 62
250
  6
CONTINUOUS
 90
13
 70
0
 10
8.36067643
 20
13.0891664262
 10
8.3620999909
 20
13.0697251537
 10
8.3659980887
 20
13.0506128456
 10
8.3723047419
 20
13.0321527658
 10
8.3809132431
 20
13.0146571181
 10
8.3916779392
 20
12.9984218223
 10
8.4044166749
 20
12.9837214956
 10
8.4189139327
 20
12.9708047294
 10
8.434924477
 20
12.9598899239
 10
8.4521774544
 20
12.9511616315
 10
8.4703810274
 20
12.9447673945
 10
8.4892273195
 20
12.9408152652
 10
8.508397593
 20
12.939371996
  0
LWPOLYLINE
  5
4AB
100
AcDbEntity
  8
RACCORDO
100
AcDbPolyline
 62
250
  6
CONTINUOUS
 90
16
 70
0
 10
8.0991350553
 20
13.055337132
 10
8.1009531978
 20
13.0238361221
 10
8.1057683651
 20
12.9934098549
 10
8.113580557
 20
12.9640583302
 10
8.1245358819
 20
12.9355325387
 10
8.1384882314
 20
12.9080814898
 10
8.1549992811
 20
12.8824522119
 10
8.174020873
 20
12.8587152093
 10
8.195601165
 20
12.8367999776
 10
8.2194463068
 20
12.817242032
 10
8.2457730197
 20
12.7999536953
 10
8.2743645825
 20
12.7850226447
 10
8.304276981
 20
12.7732474267
 10
8.3351955438
 20
12.7648942235
 10
8.3674349423
 20
12.7596968529
 10
8.4009951765
 20
12.757655315
  0
LWPOLYLINE
  5
4AC
100
AcDbEntity
  8
RACCORDO
100
AcDbPolyline
 62
250
  6
CONTINUOUS
 90
16
 70
0
 10
8.2468564566
 20
13.055336935
 10
8.2475572038
 20
13.0398063468
 10
8.2499150924
 20
13.0245212196
 10
8.2538882542
 20
13.0096409143
 10
8.2594155067
 20
12.9953325511
 10
8.2664263617
 20
12.9817250044
 10
8.2748555587
 20
12.9689143748
 10
8.2845827409
 20
12.9570714541
 10
8.2955356725
 20
12.9462738234
 10
8.3077568715
 20
12.9365114033
 10
8.3212452066
 20
12.927886513
 10
8.335819123
 20
12.920607645
 10
8.3512516829
 20
12.9148334306
 10
8.3673550443
 20
12.9106679054
 10
8.3839953573
 20
12.9081847666
 10
8.4009954312
 20
12.9074500022
  0
LINE
  5
4AD
100
AcDbEntity
  8
RACCORDO
100
AcDbLine
 62
250
  6
CONTINUOUS
 10
8.9905907631
 20
-11.8100266128
 11
8.9899913245
 21
-11.7968867079
  0
LINE
  5
4AE
100
AcDbEntity
  8
RACCORDO
100
AcDbLine
 62
250
  6
CONTINUOUS
 10
8.9905907631
 20
14.6899733872
 11
8.9899913245
 21
14.7031132921
  0
LWPOLYLINE
  5
4AF
100
AcDbEntity
  8
RACCORDO
100
AcDbPolyline
 62
250
  6
CONTINUOUS
 90
51
 70
0
 10
8.9899913245
 20
-11.7968867079
 10
8.9897680685
 20
-11.7914854356
 10
8.989672116
 20
-11.788707581
 10
8.9895919035
 20
-11.7858654846
 10
8.989530363
 20
-11.7829637232
 10
8.9894976794
 20
-11.7799788777
 10
8.989497683
 20
-11.7769097229
 10
8.9895355156
 20
-11.7737621577
 10
8.989625772
 20
-11.7705243982
 10
8.9897732821
 20
-11.7671992452
 10
8.989984447
 20
-11.7637907243
 10
8.9902782757
 20
-11.7602900268
 10
8.9906615991
 20
-11.7566969789
 10
8.9911414374
 20
-11.7530217056
 10
8.9917382904
 20
-11.7492719503
 10
8.9924596898
 20
-11.7454515012
 10
8.9933122722
 20
-11.7415695695
 10
8.9943148934
 20
-11.7376426647
 10
8.9954733426
 20
-11.7336816588
 10
8.996794455
 20
-11.7296913436
 10
8.9982983887
 20
-11.7256799501
 10
8.9999958478
 20
-11.7216487089
 10
9.0018888574
 20
-11.7176165566
 10
9.0039826653
 20
-11.7136179568
 10
9.0062927234
 20
-11.7096474603
 10
9.008811105
 20
-11.7057316068
 10
9.0114995089
 20
-11.7019459392
 10
9.0143540496
 20
-11.6983001744
 10
9.0173709437
 20
-11.6947934198
 10
9.0205014091
 20
-11.6914737345
 10
9.0237295274
 20
-11.6883492525
 10
9.0270548853
 20
-11.6854081226
 10
9.0304466919
 20
-11.6826605949
 10
9.0338866605
 20
-11.6801094079
 10
9.0373763913
 20
-11.6777422804
 10
9.040914894
 20
-11.6755457385
 10
9.0444885187
 20
-11.6735188545
 10
9.0480981
 20
-11.6716544263
 10
9.051766769
 20
-11.6699335188
 10
9.0554872041
 20
-11.6683546836
 10
9.0592579483
 20
-11.6669166248
 10
9.0631134262
 20
-11.6656067501
 10
9.0670491173
 20
-11.6644256215
 10
9.0710630946
 20
-11.6633760322
 10
9.0751953277
 20
-11.6624549911
 10
9.0794541604
 20
-11.6616637193
 10
9.0838254002
 20
-11.6610109527
 10
9.0883154554
 20
-11.6605072825
 10
9.0929239042
 20
-11.6601583758
 10
9.0976436012
 20
-11.6599657628
 10
9.1024704672
 20
-11.6599329936
  0
LWPOLYLINE
  5
4B0
100
AcDbEntity
  8
RACCORDO
100
AcDbPolyline
 62
250
  6
CONTINUOUS
 90
51
 70
0
 10
8.9899913245
 20
14.7031132921
 10
8.9897680685
 20
14.7085145644
 10
8.989672116
 20
14.711292419
 10
8.9895919035
 20
14.7141345154
 10
8.989530363
 20
14.7170362768
 10
8.9894976794
 20
14.7200211223
 10
8.989497683
 20
14.7230902771
 10
8.9895355156
 20
14.7262378423
 10
8.989625772
 20
14.7294756018
 10
8.9897732821
 20
14.7328007548
 10
8.989984447
 20
14.7362092757
 10
8.9902782757
 20
14.7397099732
 10
8.9906615991
 20
14.7433030211
 10
8.9911414374
 20
14.7469782944
 10
8.9917382904
 20
14.7507280497
 10
8.9924596898
 20
14.7545484988
 10
8.9933122722
 20
14.7584304305
 10
8.9943148934
 20
14.7623573353
 10
8.9954733426
 20
14.7663183412
 10
8.996794455
 20
14.7703086564
 10
8.9982983887
 20
14.7743200499
 10
8.9999958478
 20
14.7783512911
 10
9.0018888574
 20
14.7823834434
 10
9.0039826653
 20
14.7863820432
 10
9.0062927234
 20
14.7903525397
 10
9.008811105
 20
14.7942683932
 10
9.0114995089
 20
14.7980540608
 10
9.0143540496
 20
14.8016998256
 10
9.0173709437
 20
14.8052065802
 10
9.0205014091
 20
14.8085262655
 10
9.0237295274
 20
14.8116507475
 10
9.0270548853
 20
14.8145918774
 10
9.0304466919
 20
14.8173394051
 10
9.0338866605
 20
14.8198905921
 10
9.0373763913
 20
14.8222577196
 10
9.040914894
 20
14.8244542615
 10
9.0444885187
 20
14.8264811455
 10
9.0480981
 20
14.8283455737
 10
9.051766769
 20
14.8300664812
 10
9.0554872041
 20
14.8316453164
 10
9.0592579483
 20
14.8330833752
 10
9.0631134262
 20
14.8343932499
 10
9.0670491173
 20
14.8355743785
 10
9.0710630946
 20
14.8366239678
 10
9.0751953277
 20
14.8375450089
 10
9.0794541604
 20
14.8383362807
 10
9.0838254002
 20
14.8389890473
 10
9.0883154554
 20
14.8394927175
 10
9.0929239042
 20
14.8398416242
 10
9.0976436012
 20
14.8400342372
 10
9.1024704672
 20
14.8400670064
  0
LINE
  5
4B1
100
AcDbEntity
  8
RACCORDO
100
AcDbLine
 62
250
  6
CONTINUOUS
 10
8.9908000243
 20
-11.8152586084
 11
8.9905907631
 21
-11.8100266128
  0
LINE
  5
4B2
100
AcDbEntity
  8
RACCORDO
100
AcDbLine
 62
250
  6
CONTINUOUS
 10
8.9908000243
 20
14.6847413916
 11
8.9905907631
 21
14.6899733872
  0
LINE
  5
4B3
100
AcDbEntity
  8
RACCORDO
100
AcDbLine
 62
250
  6
CONTINUOUS
 10
8.9909840278
 20
-11.8204970825
 11
8.9908000243
 21
-11.8152586084
  0
LINE
  5
4B4
100
AcDbEntity
  8
RACCORDO
100
AcDbLine
 62
250
  6
CONTINUOUS
 10
8.9909840278
 20
14.6795029175
 11
8.9908000243
 21
14.6847413916
  0
LWPOLYLINE
  5
4B5
100
AcDbEntity
  8
RACCORDO
100
AcDbPolyline
 62
250
  6
CONTINUOUS
 90
16
 70
0
 10
8.9862157512
 20
-13.0999932422
 10
8.9859021332
 20
-13.0847660799
 10
8.9850975331
 20
-13.0697926267
 10
8.9838019508
 20
-13.055221103
 10
8.9819890076
 20
-13.0412048984
 10
8.9796850822
 20
-13.0278578937
 10
8.9769693109
 20
-13.0152601168
 10
8.9738559925
 20
-13.0035754423
 10
8.9703308281
 20
-12.9928495981
 10
8.9664300581
 20
-12.9830236102
 10
8.9621334834
 20
-12.9741978081
 10
8.957461303
 20
-12.9665540351
 10
8.9525103547
 20
-12.9602069825
 10
8.9473129176
 20
-12.9552841604
 10
8.9418367126
 20
-12.9519121501
 10
8.8432538616
 20
-12.9226072876
  0
LWPOLYLINE
  5
4B6
100
AcDbEntity
  8
RACCORDO
100
AcDbPolyline
 62
250
  6
CONTINUOUS
 90
16
 70
0
 10
8.9862157512
 20
13.4000067578
 10
8.9859021332
 20
13.4152339201
 10
8.9850975331
 20
13.4302073733
 10
8.9838019508
 20
13.444778897
 10
8.9819890076
 20
13.4587951016
 10
8.9796850822
 20
13.4721421063
 10
8.9769693109
 20
13.4847398832
 10
8.9738559925
 20
13.4964245577
 10
8.9703308281
 20
13.5071504019
 10
8.9664300581
 20
13.5169763898
 10
8.9621334834
 20
13.5258021919
 10
8.957461303
 20
13.5334459649
 10
8.9525103547
 20
13.5397930175
 10
8.9473129176
 20
13.5447158396
 10
8.9418367126
 20
13.5480878499
 10
8.8432538616
 20
13.5773927124
  0
LWPOLYLINE
  5
4B7
100
AcDbEntity
  8
RACCORDO
100
AcDbPolyline
 62
250
  6
CONTINUOUS
 90
19
 70
0
 10
9.4781437817
 20
-12.2025314983
 10
9.4778747488
 20
-12.1772681761
 10
9.4772399911
 20
-12.153039631
 10
9.4762395087
 20
-12.1298458629
 10
9.4748213029
 20
-12.1074494836
 10
9.4730373724
 20
-12.0860878813
 10
9.4710437131
 20
-12.0664732211
 10
9.468852907
 20
-12.0488810803
 10
9.4664523723
 20
-12.0330358816
 10
9.4639603592
 20
-12.0188230573
 10
9.4614242819
 20
-12.0063476248
 10
9.4587967262
 20
-11.9955045667
 10
9.4560537009
 20
-11.9858642636
 10
9.4532151199
 20
-11.9772667289
 10
9.4502610692
 20
-11.9698719492
 10
9.4471078149
 20
-11.9637302639
 10
9.4437274458
 20
-11.958858453
 10
9.4401478731
 20
-11.9552397366
 10
9.4363690968
 20
-11.9528741146
  0
LWPOLYLINE
  5
4B8
100
AcDbEntity
  8
RACCORDO
100
AcDbPolyline
 62
250
  6
CONTINUOUS
 90
19
 70
0
 10
9.4781437817
 20
14.2974685017
 10
9.4778747488
 20
14.3227318239
 10
9.4772399911
 20
14.346960369
 10
9.4762395087
 20
14.3701541371
 10
9.4748213029
 20
14.3925505164
 10
9.4730373724
 20
14.4139121187
 10
9.4710437131
 20
14.4335267789
 10
9.468852907
 20
14.4511189197
 10
9.4664523723
 20
14.4669641184
 10
9.4639603592
 20
14.4811769427
 10
9.4614242819
 20
14.4936523752
 10
9.4587967262
 20
14.5044954333
 10
9.4560537009
 20
14.5141357364
 10
9.4532151199
 20
14.5227332711
 10
9.4502610692
 20
14.5301280508
 10
9.4471078149
 20
14.5362697361
 10
9.4437274458
 20
14.541141547
 10
9.4401478731
 20
14.5447602634
 10
9.4363690968
 20
14.5471258854
  0
LWPOLYLINE
  5
4B9
100
AcDbEntity
  8
RACCORDO
100
AcDbPolyline
 62
250
  6
CONTINUOUS
 90
16
 70
0
 10
9.1339368607
 20
-13.0999932422
 10
9.1336247931
 20
-13.0690756847
 10
9.1328210051
 20
-13.0392274396
 10
9.1315254967
 20
-13.010448507
 10
9.1297113013
 20
-12.9825232444
 10
9.1274053855
 20
-12.9556672943
 10
9.1246886497
 20
-12.9305275838
 10
9.1215768602
 20
-12.9071938978
 10
9.1180542508
 20
-12.8855764513
 10
9.1141544235
 20
-12.8660528167
 10
9.1098550219
 20
-12.8484981791
 10
9.1051784024
 20
-12.8330373533
 10
9.1002252363
 20
-12.8204223558
 10
9.0950290809
 20
-12.8109038588
 10
9.089556379
 20
-12.8042311901
 10
9.0838071306
 20
-12.8004043496
  0
LWPOLYLINE
  5
4BA
100
AcDbEntity
  8
RACCORDO
100
AcDbPolyline
 62
250
  6
CONTINUOUS
 90
16
 70
0
 10
9.1339368607
 20
13.4000067578
 10
9.1336247931
 20
13.4309243153
 10
9.1328210051
 20
13.4607725604
 10
9.1315254967
 20
13.489551493
 10
9.1297113013
 20
13.5174767556
 10
9.1274053855
 20
13.5443327057
 10
9.1246886497
 20
13.5694724162
 10
9.1215768602
 20
13.5928061022
 10
9.1180542508
 20
13.6144235487
 10
9.1141544235
 20
13.6339471833
 10
9.1098550219
 20
13.6515018209
 10
9.1051784024
 20
13.6669626467
 10
9.1002252363
 20
13.6795776442
 10
9.0950290809
 20
13.6890961412
 10
9.089556379
 20
13.6957688099
 10
9.0838071306
 20
13.6995956504
  0
LWPOLYLINE
  5
4BB
100
AcDbEntity
  8
RACCORDO
100
AcDbPolyline
 62
250
  6
CONTINUOUS
 90
19
 70
0
 10
9.6258649393
 20
-12.2025314983
 10
9.6255954701
 20
-12.1626185172
 10
9.6249604612
 20
-12.1237369802
 10
9.6239599126
 20
-12.0862345047
 10
9.6225419376
 20
-12.050197072
 10
9.6207584228
 20
-12.0161248132
 10
9.6187650284
 20
-11.9848382471
 10
9.6165741683
 20
-11.9566383962
 10
9.6141734286
 20
-11.9312758127
 10
9.6116812269
 20
-11.9085980088
 10
9.6091449461
 20
-11.8887507134
 10
9.6065172035
 20
-11.8714023728
 10
9.6037742684
 20
-11.8558639511
 10
9.6009363749
 20
-11.8422200735
 10
9.5979832891
 20
-11.8305188541
 10
9.5948305779
 20
-11.8204494734
 10
9.5914500972
 20
-11.8122304559
 10
9.5878699911
 20
-11.8063324911
 10
9.5840902598
 20
-11.8030796844
  0
LWPOLYLINE
  5
4BC
100
AcDbEntity
  8
RACCORDO
100
AcDbPolyline
 62
250
  6
CONTINUOUS
 90
19
 70
0
 10
9.6258649393
 20
14.2974685017
 10
9.6255954701
 20
14.3373814828
 10
9.6249604612
 20
14.3762630198
 10
9.6239599126
 20
14.4137654953
 10
9.6225419376
 20
14.449802928
 10
9.6207584228
 20
14.4838751868
 10
9.6187650284
 20
14.5151617529
 10
9.6165741683
 20
14.5433616038
 10
9.6141734286
 20
14.5687241873
 10
9.6116812269
 20
14.5914019912
 10
9.6091449461
 20
14.6112492866
 10
9.6065172035
 20
14.6285976272
 10
9.6037742684
 20
14.6441360489
 10
9.6009363749
 20
14.6577799265
 10
9.5979832891
 20
14.6694811459
 10
9.5948305779
 20
14.6795505266
 10
9.5914500972
 20
14.6877695441
 10
9.5878699911
 20
14.6936675089
 10
9.5840902598
 20
14.6969203156
  0
LINE
  5
4BD
100
AcDbEntity
  8
0
100
AcDbLine
 62
7
  6
CONTINUOUS
 10
9.75
 20
16.2875932838
 11
9.7498362088
 21
16.3839771385
  0
LINE
  5
4BE
100
AcDbEntity
  8
RACCORDO
100
AcDbLine
 62
250
  6
CONTINUOUS
 10
8.0991350553
 20
13.4446631358
 11
8.0991350553
 21
13.055337132
  0
LINE
  5
4BF
100
AcDbEntity
  8
RACCORDO
100
AcDbLine
 62
250
  6
CONTINUOUS
 10
8.0991350553
 20
-13.0553368642
 11
8.0991350553
 21
-13.444662868
  0
LINE
  5
4C0
100
AcDbEntity
  8
RACCORDO
100
AcDbLine
 62
250
  6
CONTINUOUS
 10
8.2468562183
 20
13.4446631358
 11
8.2468562183
 21
13.0553368642
  0
LINE
  5
4C1
100
AcDbEntity
  8
RACCORDO
100
AcDbLine
 62
250
  6
CONTINUOUS
 10
8.2468562183
 20
-13.0553368642
 11
8.2468562183
 21
-13.4446631358
  0
LINE
  5
4C2
100
AcDbEntity
  8
RACCORDO
100
AcDbLine
 62
250
  6
CONTINUOUS
 10
8.36067643
 20
13.4108335738
 11
8.36067643
 21
13.0891664262
  0
LINE
  5
4C3
100
AcDbEntity
  8
RACCORDO
100
AcDbLine
 62
250
  6
CONTINUOUS
 10
8.36067643
 20
-13.0891664262
 11
8.36067643
 21
-13.4108335738
  0
LINE
  5
4C4
100
AcDbEntity
  8
RACCORDO
100
AcDbLine
 62
250
  6
CONTINUOUS
 10
8.4009945665
 20
13.742344685
 11
8.4009945665
 21
13.5925502548
  0
LINE
  5
4C5
100
AcDbEntity
  8
RACCORDO
100
AcDbLine
 62
250
  6
CONTINUOUS
 10
8.4009945665
 20
-12.757655315
 11
8.4009945665
 21
-12.9074497452
  0
LINE
  5
4C6
100
AcDbEntity
  8
RACCORDO
100
AcDbLine
 62
250
  6
CONTINUOUS
 10
8.4009945665
 20
-13.742344685
 11
8.4009945665
 21
-13.5925502548
  0
LINE
  5
4C7
100
AcDbEntity
  8
RACCORDO
100
AcDbLine
 62
250
  6
CONTINUOUS
 10
8.4009945665
 20
12.757655315
 11
8.4009945665
 21
12.9074497452
  0
LINE
  5
4C8
100
AcDbEntity
  8
RACCORDO
100
AcDbLine
 62
250
  6
CONTINUOUS
 10
8.4985711481
 20
-14.6795055934
 11
8.4985711481
 21
-13.5925502548
  0
LINE
  5
4C9
100
AcDbEntity
  8
RACCORDO
100
AcDbLine
 62
250
  6
CONTINUOUS
 10
8.4985711481
 20
-12.9074497452
 11
8.4985711481
 21
-11.8204944066
  0
LINE
  5
4CA
100
AcDbEntity
  8
RACCORDO
100
AcDbLine
 62
250
  6
CONTINUOUS
 10
8.4985711481
 20
11.8204944066
 11
8.4985711481
 21
12.9074497452
  0
LINE
  5
4CB
100
AcDbEntity
  8
RACCORDO
100
AcDbLine
 62
250
  6
CONTINUOUS
 10
8.4985711481
 20
13.5925502548
 11
8.4985711481
 21
14.6795055934
  0
LINE
  5
4CC
100
AcDbEntity
  8
RACCORDO
100
AcDbLine
 62
250
  6
CONTINUOUS
 10
8.7545995313
 20
-13.549801188
 11
8.7545995313
 21
-12.950198812
  0
LINE
  5
4CD
100
AcDbEntity
  8
RACCORDO
100
AcDbLine
 62
250
  6
CONTINUOUS
 10
8.7545995313
 20
12.950198812
 11
8.7545995313
 21
13.549801188
  0
LINE
  5
4CE
100
AcDbEntity
  8
RACCORDO
100
AcDbLine
 62
250
  6
CONTINUOUS
 10
8.9862156978
 20
-13.4000067578
 11
8.9862156978
 21
-13.0999932422
  0
LINE
  5
4CF
100
AcDbEntity
  8
RACCORDO
100
AcDbLine
 62
250
  6
CONTINUOUS
 10
8.9862156978
 20
13.0999932422
 11
8.9862156978
 21
13.4000067578
  0
LINE
  5
4D0
100
AcDbEntity
  8
RACCORDO
100
AcDbLine
 62
250
  6
CONTINUOUS
 10
8.9909750246
 20
-14.6795055934
 11
8.9909750246
 21
-13.7271871426
  0
LINE
  5
4D1
100
AcDbEntity
  8
RACCORDO
100
AcDbLine
 62
250
  6
CONTINUOUS
 10
8.9909750246
 20
-12.7728128574
 11
8.9909750246
 21
-11.8204944066
  0
LINE
  5
4D2
100
AcDbEntity
  8
RACCORDO
100
AcDbLine
 62
250
  6
CONTINUOUS
 10
8.9909750246
 20
11.8204944066
 11
8.9909750246
 21
12.7728128574
  0
LINE
  5
4D3
100
AcDbEntity
  8
RACCORDO
100
AcDbLine
 62
250
  6
CONTINUOUS
 10
8.9909750246
 20
13.7271871426
 11
8.9909750246
 21
14.6795055934
  0
LINE
  5
4D4
100
AcDbEntity
  8
RACCORDO
100
AcDbLine
 62
250
  6
CONTINUOUS
 10
9.1024704383
 20
-14.8400670064
 11
9.1024704671
 21
-15.0397929133
  0
LINE
  5
4D5
100
AcDbEntity
  8
RACCORDO
100
AcDbLine
 62
250
  6
CONTINUOUS
 10
9.1024704353
 20
14.8400670064
 11
9.1024704671
 21
15.0397929133
  0
LINE
  5
4D6
100
AcDbEntity
  8
RACCORDO
100
AcDbLine
 62
250
  6
CONTINUOUS
 10
9.1024704383
 20
11.6599329936
 11
9.1024704671
 21
11.4602070867
  0
LINE
  5
4D7
100
AcDbEntity
  8
RACCORDO
100
AcDbLine
 62
250
  6
CONTINUOUS
 10
9.1024704353
 20
-11.6599329936
 11
9.1024704671
 21
-11.4602070867
  0
LINE
  5
4D8
100
AcDbEntity
  8
RACCORDO
100
AcDbLine
 62
250
  6
CONTINUOUS
 10
9.1339368607
 20
-13.4000067578
 11
9.1339368607
 21
-13.0999932422
  0
LINE
  5
4D9
100
AcDbEntity
  8
RACCORDO
100
AcDbLine
 62
250
  6
CONTINUOUS
 10
9.1339368607
 20
13.0999932422
 11
9.1339368607
 21
13.4000067578
  0
LINE
  5
4DA
100
AcDbEntity
  8
RACCORDO
100
AcDbLine
 62
250
  6
CONTINUOUS
 10
9.4781437817
 20
-14.2974685017
 11
9.4781437817
 21
-12.2025314983
  0
LINE
  5
4DB
100
AcDbEntity
  8
RACCORDO
100
AcDbLine
 62
250
  6
CONTINUOUS
 10
9.4781437817
 20
12.2025314983
 11
9.4781437817
 21
14.2974685017
  0
LINE
  5
4DC
100
AcDbEntity
  8
RACCORDO
100
AcDbLine
 62
250
  6
CONTINUOUS
 10
9.6258649447
 20
-14.2974685017
 11
9.6258649447
 21
-12.2025314983
  0
LINE
  5
4DD
100
AcDbEntity
  8
RACCORDO
100
AcDbLine
 62
250
  6
CONTINUOUS
 10
9.6258649447
 20
12.2025314983
 11
9.6258649447
 21
14.2974685017
  0
LINE
  5
4DE
100
AcDbEntity
  8
RACCORDO
100
AcDbLine
 62
7
  6
CONTINUOUS
 10
9.7447634805
 20
-17.2881634904
 11
9.7447634805
 21
-24.7448015567
  0
LINE
  5
4DF
100
AcDbEntity
  8
0
100
AcDbLine
 62
7
  6
CONTINUOUS
 10
9.7447634805
 20
-17.2881634904
 11
9.7447634805
 21
-24.7448015567
  0
LINE
  5
4E0
100
AcDbEntity
  8
RACCORDO
100
AcDbLine
 62
7
  6
CONTINUOUS
 10
9.7447634805
 20
17.2881634904
 11
9.7447634805
 21
24.7448015567
  0
LINE
  5
4E1
100
AcDbEntity
  8
0
100
AcDbLine
 62
7
  6
CONTINUOUS
 10
9.7449223368
 20
17.193126519
 11
9.7447634805
 21
24.7448015567
  0
LINE
  5
4E2
100
AcDbEntity
  8
RACCORDO
100
AcDbLine
 62
7
  6
CONTINUOUS
 10
9.75
 20
-16.2875932838
 11
9.75
 21
-14.8529366156
  0
LINE
  5
4E3
100
AcDbEntity
  8
DRAFT
100
AcDbLine
 62
7
  6
CONTINUOUS
 10
9.75
 20
-16.2875932838
 11
9.75
 21
-14.85
  0
LINE
  5
4E4
100
AcDbEntity
  8
DRAFT
100
AcDbLine
 62
7
  6
CONTINUOUS
 10
9.75
 20
-11.65
 11
9.75
 21
11.65
  0
LINE
  5
4E5
100
AcDbEntity
  8
RACCORDO
100
AcDbLine
 62
7
  6
CONTINUOUS
 10
9.75
 20
14.8529366156
 11
9.75
 21
16.2875932838
  0
LINE
  5
4E6
100
AcDbEntity
  8
DRAFT
100
AcDbLine
 62
7
  6
CONTINUOUS
 10
9.75
 20
14.85
 11
9.75
 21
16.2875932838
  0
LWPOLYLINE
  5
4E7
100
AcDbEntity
  8
RACCORDO
100
AcDbPolyline
 62
250
  6
CONTINUOUS
 90
57
 70
0
 10
8.4985711481
 20
14.6795055934
 10
8.4988433888
 20
14.6905344991
 10
8.4996231023
 20
14.7015088738
 10
8.5009102885
 20
14.7124287173
 10
8.5027193874
 20
14.7233173811
 10
8.5050359591
 20
14.7341515138
 10
8.5078166836
 20
14.7448610615
 10
8.5110503509
 20
14.7554058977
 10
8.5147481711
 20
14.765826149
 10
8.5189004541
 20
14.7761721412
 10
8.5234908826
 20
14.7864378612
 10
8.5285357739
 20
14.7966293221
 10
8.5340743909
 20
14.8068148891
 10
8.5401057702
 20
14.817014533
 10
8.5466308752
 20
14.8272082829
 10
8.5536918589
 20
14.8374045912
 10
8.5612974719
 20
14.8476221132
 10
8.5694389637
 20
14.8578421936
 10
8.5781322364
 20
14.8680173184
 10
8.587382268
 20
14.8781537663
 10
8.5971840806
 20
14.8882452587
 10
8.6075386421
 20
14.8982254453
 10
8.6184659433
 20
14.9081084722
 10
8.6299459934
 20
14.9178801933
 10
8.641919788
 20
14.9274318201
 10
8.6544006676
 20
14.9367632706
 10
8.6673752918
 20
14.9458746267
 10
8.680744634
 20
14.9546573454
 10
8.6944999566
 20
14.9630972938
 10
8.7086499972
 20
14.9712086048
 10
8.7231219431
 20
14.9789251341
 10
8.7379466474
 20
14.9862505233
 10
8.753093257
 20
14.9931811309
 10
8.7683963991
 20
14.9996398871
 10
8.7839098693
 20
15.0056205106
 10
8.7995798721
 20
15.0111292828
 10
8.8150796476
 20
15.0161079787
 10
8.8303725338
 20
15.0205184821
 10
8.8454951928
 20
15.0243989091
 10
8.8602308516
 20
15.0278053837
 10
8.8745233979
 20
15.0307186378
 10
8.8884289441
 20
15.0331579394
 10
8.901899054
 20
15.0352372164
 10
8.9148919508
 20
15.0369576047
 10
8.9274494113
 20
15.0383179683
 10
8.9396483303
 20
15.0394288273
 10
8.9514709942
 20
15.0402995018
 10
8.9629351166
 20
15.0409206716
 10
8.9741707318
 20
15.0413748964
 10
8.9851774915
 20
15.041669526
 10
8.995955744
 20
15.0417972106
 10
9.0066365696
 20
15.0418184597
 10
9.0172226314
 20
15.0417338089
 10
9.0277112662
 20
15.0415427227
 10
9.0382255641
 20
15.0413041039
 10
9.0487927028
 20
15.0410079238
 10
9.0700455261
 20
15.0403619549
  0
LWPOLYLINE
  5
4E8
100
AcDbEntity
  8
RACCORDO
100
AcDbPolyline
 62
250
  6
CONTINUOUS
 90
57
 70
0
 10
8.4985711481
 20
-11.8204944066
 10
8.4988433888
 20
-11.8094655009
 10
8.4996231023
 20
-11.7984911262
 10
8.5009102885
 20
-11.7875712827
 10
8.5027193874
 20
-11.7766826189
 10
8.5050359591
 20
-11.7658484862
 10
8.5078166836
 20
-11.7551389385
 10
8.5110503509
 20
-11.7445941023
 10
8.5147481711
 20
-11.734173851
 10
8.5189004541
 20
-11.7238278588
 10
8.5234908826
 20
-11.7135621388
 10
8.5285357739
 20
-11.7033706779
 10
8.5340743909
 20
-11.6931851109
 10
8.5401057702
 20
-11.682985467
 10
8.5466308752
 20
-11.6727917171
 10
8.5536918589
 20
-11.6625954088
 10
8.5612974719
 20
-11.6523778868
 10
8.5694389637
 20
-11.6421578064
 10
8.5781322364
 20
-11.6319826816
 10
8.587382268
 20
-11.6218462337
 10
8.5971840806
 20
-11.6117547413
 10
8.6075386421
 20
-11.6017745547
 10
8.6184659433
 20
-11.5918915278
 10
8.6299459934
 20
-11.5821198067
 10
8.641919788
 20
-11.5725681799
 10
8.6544006676
 20
-11.5632367294
 10
8.6673752918
 20
-11.5541253733
 10
8.680744634
 20
-11.5453426546
 10
8.6944999566
 20
-11.5369027062
 10
8.7086499972
 20
-11.5287913952
 10
8.7231219431
 20
-11.5210748659
 10
8.7379466474
 20
-11.5137494767
 10
8.753093257
 20
-11.5068188691
 10
8.7683963991
 20
-11.5003601129
 10
8.7839098693
 20
-11.4943794894
 10
8.7995798721
 20
-11.4888707172
 10
8.8150796476
 20
-11.4838920213
 10
8.8303725338
 20
-11.4794815179
 10
8.8454951928
 20
-11.4756010909
 10
8.8602308516
 20
-11.4721946163
 10
8.8745233979
 20
-11.4692813622
 10
8.8884289441
 20
-11.4668420606
 10
8.901899054
 20
-11.4647627836
 10
8.9148919508
 20
-11.4630423953
 10
8.9274494113
 20
-11.4616820317
 10
8.9396483303
 20
-11.4605711727
 10
8.9514709942
 20
-11.4597004982
 10
8.9629351166
 20
-11.4590793284
 10
8.9741707318
 20
-11.4586251036
 10
8.9851774915
 20
-11.458330474
 10
8.995955744
 20
-11.4582027894
 10
9.0066365696
 20
-11.4581815403
 10
9.0172226314
 20
-11.4582661911
 10
9.0277112662
 20
-11.4584572773
 10
9.0382255641
 20
-11.4586958961
 10
9.0487927028
 20
-11.4589920762
 10
9.0700455261
 20
-11.4596380451
  0
LINE
  5
4E9
100
AcDbEntity
  8
RACCORDO
100
AcDbLine
 62
250
  6
CONTINUOUS
 10
8.9906998245
 20
11.8126459212
 11
8.990983826
 21
11.8204970225
  0
LINE
  5
4EA
100
AcDbEntity
  8
RACCORDO
100
AcDbLine
 62
250
  6
CONTINUOUS
 10
8.9906998245
 20
-14.6873540788
 11
8.990983826
 21
-14.6795029775
  0
LINE
  5
4EB
100
AcDbEntity
  8
RACCORDO
100
AcDbLine
 62
250
  6
CONTINUOUS
 10
8.9897691815
 20
11.7915126764
 11
8.9899917147
 21
11.7968952758
  0
LINE
  5
4EC
100
AcDbEntity
  8
RACCORDO
100
AcDbLine
 62
250
  6
CONTINUOUS
 10
8.9897691815
 20
-14.7084873236
 11
8.9899917147
 21
-14.7031047242
  0
LINE
  5
4ED
100
AcDbEntity
  8
RACCORDO
100
AcDbLine
 62
250
  6
CONTINUOUS
 10
8.9903561193
 20
11.8048005175
 11
8.9906998245
 21
11.8126459212
  0
LINE
  5
4EE
100
AcDbEntity
  8
RACCORDO
100
AcDbLine
 62
250
  6
CONTINUOUS
 10
8.9903561193
 20
-14.6951994825
 11
8.9906998245
 21
-14.6873540788
  0
LINE
  5
4EF
100
AcDbEntity
  8
RACCORDO
100
AcDbLine
 62
250
  6
CONTINUOUS
 10
8.9899917147
 20
11.7968952758
 11
8.9903561193
 21
11.8048005175
  0
LINE
  5
4F0
100
AcDbEntity
  8
RACCORDO
100
AcDbLine
 62
250
  6
CONTINUOUS
 10
8.9899917147
 20
-14.7031047242
 11
8.9903561193
 21
-14.6951994825
  0
LWPOLYLINE
  5
4F1
100
AcDbEntity
  8
RACCORDO
100
AcDbPolyline
 62
250
  6
CONTINUOUS
 90
13
 70
0
 10
8.9909750246
 20
13.7271871426
 10
8.9895514496
 20
13.7077457711
 10
8.9856533155
 20
13.6886333797
 10
8.9793466092
 20
13.6701732358
 10
8.9707380414
 20
13.6526775412
 10
8.9599732725
 20
13.6364422214
 10
8.9472344734
 20
13.6217419036
 10
8.9327371718
 20
13.608825174
 10
8.9167266096
 20
13.5979104244
 10
8.8994736551
 20
13.5891822017
 10
8.881270153
 20
13.5827880349
 10
8.8624239771
 20
13.5788359594
 10
8.8432538616
 20
13.5773927124
  0
LWPOLYLINE
  5
4F2
100
AcDbEntity
  8
RACCORDO
100
AcDbPolyline
 62
250
  6
CONTINUOUS
 90
13
 70
0
 10
9.0838072388
 20
13.6995956182
 10
9.0823837946
 20
13.6801552002
 10
9.0784859967
 20
13.6610435808
 10
9.0721797692
 20
13.6425839972
 10
9.0635717702
 20
13.6250886592
 10
9.052807588
 20
13.6088534676
 10
9.0400692787
 20
13.5941530106
 10
9.0255722871
 20
13.5812359191
 10
9.0095618027
 20
13.5703206615
 10
8.9923086133
 20
13.5615918493
 10
8.9741045242
 20
13.5551971138
 10
8.9552574239
 20
13.5512446103
 10
8.9360860759
 20
13.549801188
  0
LWPOLYLINE
  5
4F3
100
AcDbEntity
  8
RACCORDO
100
AcDbPolyline
 62
250
  6
CONTINUOUS
 90
13
 70
0
 10
9.4363690968
 20
14.5471258854
 10
9.4377925411
 20
14.5665663033
 10
9.441690339
 20
14.5856779228
 10
9.4479965665
 20
14.6041375063
 10
9.4566045655
 20
14.6216328444
 10
9.4673687477
 20
14.637868036
 10
9.480107057
 20
14.6525684929
 10
9.4946040486
 20
14.6654855845
 10
9.5106145329
 20
14.676400842
 10
9.5278677224
 20
14.6851296543
 10
9.5460718115
 20
14.6915243897
 10
9.5649189118
 20
14.6954768932
 10
9.5840902598
 20
14.6969203156
  0
LWPOLYLINE
  5
4F4
100
AcDbEntity
  8
RACCORDO
100
AcDbPolyline
 62
250
  6
CONTINUOUS
 90
13
 70
0
 10
8.36067643
 20
-13.0891664262
 10
8.3620998746
 20
-13.069726008
 10
8.3659976728
 20
-13.0506143884
 10
8.3723039005
 20
-13.0321548047
 10
8.3809118996
 20
-13.0146594666
 10
8.3916760818
 20
-12.9984242751
 10
8.4044143911
 20
-12.9837238181
 10
8.4189113826
 20
-12.9708067267
 10
8.4349218668
 20
-12.9598914693
 10
8.4521750561
 20
-12.9511626571
 10
8.470379145
 20
-12.9447679218
 10
8.4892262452
 20
-12.9408154184
 10
8.508397593
 20
-12.939371996
  0
LWPOLYLINE
  5
4F5
100
AcDbEntity
  8
0
100
AcDbPolyline
 62
7
  6
CONTINUOUS
 90
10
 70
0
 10
2.435200633
 20
-14.1614107841
 10
2.4211468293
 20
-14.1911513939
 10
2.4059202869
 20
-14.2189629963
 10
2.3895210058
 20
-14.2448455912
 10
2.3720631218
 20
-14.2686001079
 10
2.3534324991
 20
-14.2904256171
 10
2.3332867302
 20
-14.3109193312
 10
2.3115116793
 20
-14.3302803208
 10
2.2882214823
 20
-14.3483095152
 10
2.2634161391
 20
-14.3650069144
  0
LWPOLYLINE
  5
4F6
100
AcDbEntity
  8
0
100
AcDbPolyline
 62
7
  6
CONTINUOUS
 90
10
 70
0
 10
-1.0800138992
 20
-12.3131397493
 10
-1.0922001403
 20
-12.3231364494
 10
-1.1039947082
 20
-12.3346537471
 10
-1.1153976031
 20
-12.3476916423
 10
-1.1264783621
 20
-12.3622067412
 10
-1.137167448
 20
-12.3782424377
 10
-1.1472562487
 20
-12.3959289132
 10
-1.1566752268
 20
-12.4153095619
 10
-1.1654939197
 20
-12.4363409896
 10
-1.1737123273
 20
-12.4590231965
  0
LWPOLYLINE
  5
4F7
100
AcDbEntity
  8
0
100
AcDbPolyline
 62
7
  6
CONTINUOUS
 90
10
 70
0
 10
0.3578837147
 20
-12.3131398155
 10
0.345697479
 20
-12.3231364929
 10
0.3339029216
 20
-12.3346537729
 10
0.3225000423
 20
-12.3476916557
 10
0.3114193098
 20
-12.3622067477
 10
0.3007302554
 20
-12.3782424425
 10
0.290641474
 20
-12.3959289202
 10
0.2812224972
 20
-12.4153095743
 10
0.2724037933
 20
-12.4363410114
 10
0.2641853624
 20
-12.4590232314
  0
LWPOLYLINE
  5
4F8
100
AcDbEntity
  8
0
100
AcDbPolyline
 62
7
  6
CONTINUOUS
 90
10
 70
0
 10
-2.5495648064
 20
-12.5805597935
 10
-2.5706706468
 20
-12.5971102532
 10
-2.5918386497
 20
-12.6132766798
 10
-2.613068815
 20
-12.6290590733
 10
-2.6342863008
 20
-12.6444032863
 10
-2.655565949
 20
-12.6593634661
 10
-2.6771322857
 20
-12.6741020555
 10
-2.699060153
 20
-12.6886732021
 10
-2.7212747089
 20
-12.7030227582
 10
-2.7437759534
 20
-12.7171507239
  0
LWPOLYLINE
  5
4F9
100
AcDbEntity
  8
0
100
AcDbPolyline
 62
7
  6
CONTINUOUS
 90
10
 70
0
 10
-3.437275289
 20
-13.1307053328
 10
-3.4531596293
 20
-13.1425830352
 10
-3.4694025477
 20
-13.15349502
 10
-3.4860040442
 20
-13.1634412871
 10
-3.5028459117
 20
-13.1723835453
 10
-3.5200463572
 20
-13.1803600858
 10
-3.5379600021
 20
-13.1874857828
 10
-3.5567050534
 20
-13.1937989276
 10
-3.576163304
 20
-13.1992612289
 10
-3.5963347539
 20
-13.2038726866
  0
LWPOLYLINE
  5
4FA
100
AcDbEntity
  8
0
100
AcDbPolyline
 62
7
  6
CONTINUOUS
 90
10
 70
0
 10
-2.7437759534
 20
-12.4467496336
 10
-2.7232606167
 20
-12.4331144076
 10
-2.7020553173
 20
-12.4184712829
 10
-2.680160055
 20
-12.4028202596
 10
-2.6575926746
 20
-12.3861634886
 10
-2.6343353313
 20
-12.368498819
 10
-2.6103344916
 20
-12.3498197975
 10
-2.5855723108
 20
-12.330124273
 10
-2.5600666335
 20
-12.3094143967
 10
-2.5338174596
 20
-12.2876901686
  0
LWPOLYLINE
  5
4FB
100
AcDbEntity
  8
0
100
AcDbPolyline
 62
7
  6
CONTINUOUS
 90
10
 70
0
 10
-3.9526279862
 20
-12.2940525541
 10
-3.9642032659
 20
-12.3002848715
 10
-3.975346841
 20
-12.3072359475
 10
-3.9860587116
 20
-12.3149057822
 10
-3.9963226869
 20
-12.3232667923
 10
-4.0061549577
 20
-12.332346561
 10
-4.0156040961
 20
-12.3422278381
 10
-4.0246862931
 20
-12.3529382067
 10
-4.0333853577
 20
-12.3644500837
 10
-4.04170129
 20
-12.376763469
  0
LINE
  5
4FC
100
AcDbEntity
  8
RACCORDO
100
AcDbLine
 62
250
  6
CONTINUOUS
 10
-9.5840902598
 20
-11.8030796844
 11
-9.1024704672
 21
-11.6599329936
  0
LINE
  5
4FD
100
AcDbEntity
  8
RACCORDO
100
AcDbLine
 62
250
  6
CONTINUOUS
 10
-8.9909750246
 20
-11.8204944066
 11
-9.4363690968
 21
-11.9528741146
  0
LINE
  5
4FE
100
AcDbEntity
  8
RACCORDO
100
AcDbLine
 62
250
  6
CONTINUOUS
 10
-8.9909750246
 20
-12.7728128574
 11
-9.0838071396
 21
-12.8004043523
  0
LINE
  5
4FF
100
AcDbEntity
  8
RACCORDO
100
AcDbLine
 62
7
  6
CONTINUOUS
 10
-4.75
 20
8.2
 11
4.75
 21
8.2
  0
LINE
  5
500
100
AcDbEntity
  8
0
100
AcDbLine
 62
7
  6
CONTINUOUS
 10
3.384112
 20
8.81
 11
3.104146
 21
8.81
  0
LINE
  5
501
100
AcDbEntity
  8
0
100
AcDbLine
 62
7
  6
CONTINUOUS
 10
1.981206
 20
8.81
 11
1.710806
 21
8.81
  0
LINE
  5
502
100
AcDbEntity
  8
0
100
AcDbLine
 62
7
  6
CONTINUOUS
 10
1.561298
 20
8.810006
 11
0.479694
 21
8.810006
  0
LINE
  5
503
100
AcDbEntity
  8
0
100
AcDbLine
 62
7
  6
CONTINUOUS
 10
0.05875
 20
8.810006
 11
-0.361189
 21
8.810006
  0
LINE
  5
504
100
AcDbEntity
  8
0
100
AcDbLine
 62
7
  6
CONTINUOUS
 10
-1.134218
 20
8.810006
 11
-1.385532
 21
8.810006
  0
LINE
  5
505
100
AcDbEntity
  8
0
100
AcDbLine
 62
7
  6
CONTINUOUS
 10
-2.397469
 20
8.810006
 11
-3.39
 21
8.810006
  0
LINE
  5
506
100
AcDbEntity
  8
0
100
AcDbLine
 62
7
  6
CONTINUOUS
 10
-1.809675
 20
8.810011
 11
-2.080077
 21
8.810011
  0
LINE
  5
507
100
AcDbEntity
  8
0
100
AcDbLine
 62
7
  6
CONTINUOUS
 10
-3.119599
 20
9.026327
 11
-2.397469
 21
9.026327
  0
LINE
  5
508
100
AcDbEntity
  8
0
100
AcDbLine
 62
7
  6
CONTINUOUS
 10
0.750095
 20
9.026327
 11
1.561298
 21
9.026327
  0
LINE
  5
509
100
AcDbEntity
  8
0
100
AcDbLine
 62
7
  6
CONTINUOUS
 10
2.941927
 20
9.392179
 11
2.143447
 21
9.392179
  0
LINE
  5
50A
100
AcDbEntity
  8
0
100
AcDbLine
 62
7
  6
CONTINUOUS
 10
2.210253
 20
9.6085
 11
2.878303
 21
9.6085
  0
LINE
  5
50B
100
AcDbEntity
  8
RACCORDO
100
AcDbLine
 62
250
  6
CONTINUOUS
 10
-9.1024704672
 20
11.6599329936
 11
-9.5840902598
 21
11.8030796844
  0
LINE
  5
50C
100
AcDbEntity
  8
RACCORDO
100
AcDbLine
 62
250
  6
CONTINUOUS
 10
-9.4363690968
 20
11.9528741146
 11
-8.9909750246
 21
11.8204944066
  0
LINE
  5
50D
100
AcDbEntity
  8
RACCORDO
100
AcDbLine
 62
250
  6
CONTINUOUS
 10
-9.0838071306
 20
12.8004043496
 11
-8.9909750246
 21
12.7728128574
  0
LWPOLYLINE
  5
50E
100
AcDbEntity
  8
0
100
AcDbPolyline
 62
7
  6
CONTINUOUS
 90
13
 70
0
 10
3.8099455134
 20
12.8093787318
 10
3.7957948905
 20
12.8413788668
 10
3.7799593679
 20
12.8707214906
 10
3.7624389456
 20
12.897406603
 10
3.7430683187
 20
12.921524545
 10
3.7220127921
 20
12.9429849756
 10
3.6997682807
 20
12.9615168724
 10
3.6765077685
 20
12.976979865
 10
3.6520582715
 20
12.9895143238
 10
3.6263967528
 20
12.9992703375
 10
3.5995155334
 20
13.0062979358
 10
3.5714222923
 20
13.0105470891
 10
3.5421170294
 20
13.0120177973
  0
LWPOLYLINE
  5
50F
100
AcDbEntity
  8
RACCORDO
100
AcDbPolyline
 62
250
  6
CONTINUOUS
 90
13
 70
0
 10
8.9909750246
 20
12.7728128574
 10
8.9895515803
 20
12.7922532753
 10
8.9856537824
 20
12.8113648948
 10
8.9793475549
 20
12.8298244783
 10
8.9707395559
 20
12.8473198164
 10
8.9599753737
 20
12.8635550079
 10
8.9472370644
 20
12.8782554649
 10
8.9327400728
 20
12.8911725565
 10
8.9167295885
 20
12.902087814
 10
8.899476399
 20
12.9108166263
 10
8.88127231
 20
12.9172113617
 10
8.8624252096
 20
12.9211638652
 10
8.8432538616
 20
12.9226072876
  0
LWPOLYLINE
  5
510
100
AcDbEntity
  8
RACCORDO
100
AcDbPolyline
 62
250
  6
CONTINUOUS
 90
13
 70
0
 10
9.0838072388
 20
12.8004043818
 10
9.0823837615
 20
12.819845039
 10
9.0784858829
 20
12.8389568381
 10
9.0721795481
 20
12.8574165359
 10
9.0635714375
 20
12.8749119201
 10
9.052807159
 20
12.8911470972
 10
9.0400687807
 20
12.9058474944
 10
9.0255717622
 20
12.918764491
 10
9.0095613016
 20
12.9296796345
 10
8.9923081792
 20
12.9384083359
 10
8.9741041963
 20
12.9448029778
 10
8.9552572426
 20
12.9487554154
 10
8.9360860759
 20
12.950198812
  0
LWPOLYLINE
  5
511
100
AcDbEntity
  8
RACCORDO
100
AcDbPolyline
 62
250
  6
CONTINUOUS
 90
13
 70
0
 10
9.4363690968
 20
11.9528741146
 10
9.4377923113
 20
11.9334353095
 10
9.4416895585
 20
11.9143249009
 10
9.4479950565
 20
11.8958660877
 10
9.4566022987
 20
11.8783710611
 10
9.4673658275
 20
11.8621357719
 10
9.4801036701
 20
11.8474349114
 10
9.4946004804
 20
11.8345171791
 10
9.5106111257
 20
11.8236011524
 10
9.5278647715
 20
11.8148715922
 10
9.5460695822
 20
11.8084762257
 10
9.5649176789
 20
11.8045232788
 10
9.5840902598
 20
11.8030796844
  0
LINE
  5
512
100
AcDbEntity
  8
RACCORDO
100
AcDbLine
 62
7
  6
CONTINUOUS
 10
9.7452898151
 20
17.1171534187
 11
9.7494736654
 21
16.4586033555
  0
LINE
  5
513
100
AcDbEntity
  8
0
100
AcDbLine
 62
7
  6
CONTINUOUS
 10
9.7452898151
 20
17.1171534187
 11
9.7449223368
 21
17.193126519
  0
LINE
  5
514
100
AcDbEntity
  8
0
100
AcDbLine
 62
7
  6
CONTINUOUS
 10
9.7498362088
 20
16.3839771385
 11
9.7453093601
 21
17.1138093746
  0
LINE
  5
515
100
AcDbEntity
  8
RACCORDO
100
AcDbLine
 62
7
  6
CONTINUOUS
 10
10.1886751346
 20
14.2974685017
 11
10.1886751346
 21
12.2025314983
  0
LINE
  5
516
100
AcDbEntity
  8
RACCORDO
100
AcDbLine
 62
7
  6
CONTINUOUS
 10
10.1886751346
 20
-14.2974685017
 11
10.1886751346
 21
-12.2025314983
  0
LINE
  5
517
100
AcDbEntity
  8
RACCORDO
100
AcDbLine
 62
7
  6
CONTINUOUS
 10
10.25
 20
25.0
 11
10.25
 21
16.2875932838
  0
LINE
  5
518
100
AcDbEntity
  8
RACCORDO
100
AcDbLine
 62
7
  6
CONTINUOUS
 10
10.25
 20
-16.2875932838
 11
10.25
 21
-25.0
  0
LINE
  5
519
100
AcDbEntity
  8
DRAFT
100
AcDbLine
 62
7
  6
CONTINUOUS
 10
10.6
 20
-14.7221944518
 11
10.6
 21
-11.7778055482
  0
LINE
  5
51A
100
AcDbEntity
  8
DRAFT
100
AcDbLine
 62
7
  6
CONTINUOUS
 10
10.6
 20
11.7778055482
 11
10.6
 21
14.7221944518
  0
LINE
  5
51B
100
AcDbEntity
  8
RACCORDO
100
AcDbLine
 62
7
  6
CONTINUOUS
 10
10.65
 20
15.55
 11
10.65
 21
10.95
  0
LINE
  5
51C
100
AcDbEntity
  8
RACCORDO
100
AcDbLine
 62
7
  6
CONTINUOUS
 10
10.65
 20
-10.95
 11
10.65
 21
-15.55
  0
LINE
  5
51D
100
AcDbEntity
  8
RACCORDO
100
AcDbLine
 62
7
  6
CONTINUOUS
 10
10.9645351961
 20
25.7709349336
 11
10.9645351961
 21
15.75
  0
LINE
  5
51E
100
AcDbEntity
  8
DRAFT
100
AcDbLine
 62
7
  6
CONTINUOUS
 10
10.9645351961
 20
10.75
 11
10.9645351961
 21
-10.75
  0
LINE
  5
51F
100
AcDbEntity
  8
RACCORDO
100
AcDbLine
 62
7
  6
CONTINUOUS
 10
10.9645351961
 20
-15.75
 11
10.9645351961
 21
-25.7709349336
  0
LINE
  5
520
100
AcDbEntity
  8
RACCORDO
100
AcDbLine
 62
7
  6
CONTINUOUS
 10
10.9828653412
 20
25.8321769981
 11
10.9828653412
 21
15.75
  0
LINE
  5
521
100
AcDbEntity
  8
DRAFT
100
AcDbLine
 62
7
  6
CONTINUOUS
 10
10.9828653412
 20
10.75
 11
10.9828653412
 21
-10.75
  0
LINE
  5
522
100
AcDbEntity
  8
RACCORDO
100
AcDbLine
 62
7
  6
CONTINUOUS
 10
10.9828653412
 20
-15.75
 11
10.9828653412
 21
-25.8321769981
  0
LINE
  5
523
100
AcDbEntity
  8
0
100
AcDbLine
 62
7
  6
CONTINUOUS
 10
11.0345351961
 20
25.8347065336
 11
11.0345351961
 21
-25.8347065336
  0
LINE
  5
524
100
AcDbEntity
  8
RACCORDO
100
AcDbLine
 62
7
  6
CONTINUOUS
 10
9.7494736654
 20
-16.4586033555
 11
9.7452898151
 21
-17.1171534187
  0
LINE
  5
525
100
AcDbEntity
  8
0
100
AcDbLine
 62
7
  6
CONTINUOUS
 10
9.7494736654
 20
-16.4586033555
 11
9.7452898151
 21
-17.1171534187
  0
LWPOLYLINE
  5
526
100
AcDbEntity
  8
RACCORDO
100
AcDbPolyline
 62
250
  6
CONTINUOUS
 90
13
 70
0
 10
8.9909750246
 20
-12.7728128574
 10
8.9895514496
 20
-12.7922542289
 10
8.9856533155
 20
-12.8113666203
 10
8.9793466092
 20
-12.8298267642
 10
8.9707380414
 20
-12.8473224588
 10
8.9599732725
 20
-12.8635577786
 10
8.9472344734
 20
-12.8782580964
 10
8.9327371718
 20
-12.891174826
 10
8.9167266096
 20
-12.9020895756
 10
8.8994736551
 20
-12.9108177983
 10
8.881270153
 20
-12.9172119651
 10
8.8624239771
 20
-12.9211640406
 10
8.8432538616
 20
-12.9226072876
  0
LWPOLYLINE
  5
527
100
AcDbEntity
  8
RACCORDO
100
AcDbPolyline
 62
250
  6
CONTINUOUS
 90
13
 70
0
 10
9.0838072388
 20
-12.8004043818
 10
9.0823837946
 20
-12.8198447998
 10
9.0784859967
 20
-12.8389564192
 10
9.0721797692
 20
-12.8574160028
 10
9.0635717702
 20
-12.8749113408
 10
9.052807588
 20
-12.8911465324
 10
9.0400692787
 20
-12.9058469894
 10
9.0255722871
 20
-12.9187640809
 10
9.0095618027
 20
-12.9296793385
 10
8.9923086133
 20
-12.9384081507
 10
8.9741045242
 20
-12.9448028862
 10
8.9552574239
 20
-12.9487553897
 10
8.9360860759
 20
-12.950198812
  0
LWPOLYLINE
  5
528
100
AcDbEntity
  8
RACCORDO
100
AcDbPolyline
 62
250
  6
CONTINUOUS
 90
13
 70
0
 10
9.4363690968
 20
-11.9528741146
 10
9.4377925411
 20
-11.9334336967
 10
9.441690339
 20
-11.9143220772
 10
9.4479965665
 20
-11.8958624937
 10
9.4566045655
 20
-11.8783671556
 10
9.4673687477
 20
-11.862131964
 10
9.480107057
 20
-11.8474315071
 10
9.4946040486
 20
-11.8345144155
 10
9.5106145329
 20
-11.823599158
 10
9.5278677224
 20
-11.8148703457
 10
9.5460718115
 20
-11.8084756103
 10
9.5649189118
 20
-11.8045231068
 10
9.5840902598
 20
-11.8030796844
  0
LWPOLYLINE
  5
529
100
AcDbEntity
  8
0
100
AcDbPolyline
 62
7
  6
CONTINUOUS
 90
10
 70
0
 10
-0.7561459479
 20
-14.1892597119
 10
-0.7444881426
 20
-14.179455962
 10
-0.7331559181
 20
-14.1682138383
 10
-0.7221492745
 20
-14.1555333409
 10
-0.7114028466
 20
-14.1415196651
 10
-0.7009819996
 20
-14.1260676156
 10
-0.6910828286
 20
-14.1088616058
 10
-0.6817706987
 20
-14.0897964404
 10
-0.6729802449
 20
-14.0689773148
 10
-0.6647114671
 20
-14.046404229
  0
LWPOLYLINE
  5
52A
100
AcDbEntity
  8
0
100
AcDbPolyline
 62
7
  6
CONTINUOUS
 90
10
 70
0
 10
0.6817518893
 20
-14.1892597119
 10
0.6934096472
 20
-14.179455999
 10
0.7047418309
 20
-14.1682139014
 10
0.7157484403
 20
-14.1555334189
 10
0.726494839
 20
-14.1415197432
 10
0.7369156634
 20
-14.1260676827
 10
0.7468148229
 20
-14.1088616626
 10
0.7561269538
 20
-14.0897964912
 10
0.7649174198
 20
-14.0689773602
 10
0.7731862208
 20
-14.0464042696
  0
LWPOLYLINE
  5
52B
100
AcDbEntity
  8
0
100
AcDbPolyline
 62
7
  6
CONTINUOUS
 90
10
 70
0
 10
1.7957812777
 20
-12.3131398155
 10
1.783595042
 20
-12.3231364929
 10
1.7718004846
 20
-12.3346537729
 10
1.7603976053
 20
-12.3476916557
 10
1.7493168727
 20
-12.3622067477
 10
1.7386278184
 20
-12.3782424425
 10
1.728539037
 20
-12.3959289202
 10
1.7191200601
 20
-12.4153095743
 10
1.7103013563
 20
-12.4363410114
 10
1.7020829254
 20
-12.4590232314
  0
LWPOLYLINE
  5
52C
100
AcDbEntity
  8
0
100
AcDbPolyline
 62
7
  6
CONTINUOUS
 90
10
 70
0
 10
-3.6698762254
 20
-14.2020850192
 10
-3.6582244278
 20
-14.1951671679
 10
-3.6468068427
 20
-14.1874416783
 10
-3.6356234701
 20
-14.1789085504
 10
-3.6246511718
 20
-14.1695765856
 10
-3.613913086
 20
-14.1594369825
 10
-3.603478627
 20
-14.1484633371
 10
-3.5933709328
 20
-14.1366468478
 10
-3.5835668655
 20
-14.1239963162
 10
-3.5740664249
 20
-14.1105117422
  0
LWPOLYLINE
  5
52D
100
AcDbEntity
  8
0
100
AcDbPolyline
 62
7
  6
CONTINUOUS
 90
10
 70
0
 10
-1.2168049529
 20
-12.131811893
 10
-1.1929785063
 20
-12.1185787323
 10
-1.1669219167
 20
-12.106604404
 10
-1.1386351842
 20
-12.0958889082
 10
-1.1083957041
 20
-12.0862917145
 10
-1.0759260811
 20
-12.0779533532
 10
-1.0403941285
 20
-12.0712954149
 10
-1.0015224508
 20
-12.0664584297
 10
-0.9595884435
 20
-12.0633018676
 10
-0.9145921066
 20
-12.0618257284
  0
LWPOLYLINE
  5
52E
100
AcDbEntity
  8
0
100
AcDbPolyline
 62
7
  6
CONTINUOUS
 90
10
 70
0
 10
0.2210928842
 20
-12.131811893
 10
0.2449193714
 20
-12.1185787116
 10
0.2709759774
 20
-12.1066043701
 10
0.2992627022
 20
-12.0958888685
 10
0.3295021416
 20
-12.0862916796
 10
0.3619716998
 20
-12.0779533306
 10
0.3975035892
 20
-12.0712954028
 10
0.4363752138
 20
-12.0664584234
 10
0.4783091695
 20
-12.0633018653
 10
0.5233054563
 20
-12.0618257284
  0
LWPOLYLINE
  5
52F
100
AcDbEntity
  8
0
100
AcDbPolyline
 62
7
  6
CONTINUOUS
 90
10
 70
0
 10
1.6589904472
 20
-12.131811893
 10
1.6828169344
 20
-12.1185787116
 10
1.7088735404
 20
-12.1066043701
 10
1.7371602651
 20
-12.0958888685
 10
1.7673997046
 20
-12.0862916796
 10
1.7998692628
 20
-12.0779533306
 10
1.8354011522
 20
-12.0712954028
 10
1.8742727768
 20
-12.0664584234
 10
1.9162067325
 20
-12.0633018653
 10
1.9612030193
 20
-12.0618257284
  0
LINE
  5
530
100
AcDbEntity
  8
DRAFT
100
AcDbLine
 62
7
  6
CONTINUOUS
 10
-9.5765789843
 20
-14.823183336
 11
-9.6449489743
 21
-14.85
  0
LINE
  5
531
100
AcDbEntity
  8
DRAFT
100
AcDbLine
 62
7
  6
CONTINUOUS
 10
-9.54364068
 20
-14.8104809319
 11
-9.5765789843
 21
-14.823183336
  0
LWPOLYLINE
  5
532
100
AcDbEntity
  8
DRAFT
100
AcDbPolyline
 62
7
  6
CONTINUOUS
 90
3
 70
0
 10
-9.4950979979
 20
-14.7923514428
 10
-9.5111518454
 20
-14.7982720964
 10
-9.54364068
 20
-14.8104809319
  0
LWPOLYLINE
  5
533
100
AcDbEntity
  8
RACCORDO
100
AcDbPolyline
 62
7
  6
CONTINUOUS
 90
19
 70
0
 10
-9.3292938566
 20
-15.0397929133
 10
-9.3058700183
 20
-15.0313311791
 10
-9.2842996721
 20
-15.0213091129
 10
-9.2645828182
 20
-15.0097689804
 10
-9.2466321716
 20
-14.9965673499
 10
-9.2305350173
 20
-14.9820444849
 10
-9.2165532097
 20
-14.9669936803
 10
-9.2048630278
 20
-14.9516183521
 10
-9.1952881927
 20
-14.9360814219
 10
-9.1875617227
 20
-14.9210600022
 10
-9.1817883447
 20
-14.9068623835
 10
-9.1778633318
 20
-14.8935224764
 10
-9.1752055211
 20
-14.8812431781
 10
-9.1737859129
 20
-14.8702029055
 10
-9.1736335068
 20
-14.8605966801
 10
-9.1742541396
 20
-14.8526297535
 10
-9.17548309
 20
-14.846463986
 10
-9.1774850792
 20
-14.8422335356
 10
-9.1802601072
 20
-14.8400670064
  0
LINE
  5
534
100
AcDbEntity
  8
RACCORDO
100
AcDbLine
 62
250
  6
CONTINUOUS
 10
-8.508397593
 20
-12.939371996
 11
-8.4009945665
 21
-12.9074497452
  0
LINE
  5
535
100
AcDbEntity
  8
RACCORDO
100
AcDbLine
 62
250
  6
CONTINUOUS
 10
-8.36067643
 20
-13.0891664262
 11
-8.2468562183
 21
-13.0553368642
  0
LWPOLYLINE
  5
536
100
AcDbEntity
  8
RACCORDO
100
AcDbPolyline
 62
250
  6
CONTINUOUS
 90
16
 70
0
 10
-8.8432538616
 20
-12.9226072876
 10
-8.9417264793
 20
-12.9518633633
 10
-8.9471091865
 20
-12.9551295535
 10
-8.9522299642
 20
-12.9599006188
 10
-8.9571219679
 20
-12.9660639627
 10
-8.9617520421
 20
-12.9735020301
 10
-8.9660207202
 20
-12.9821009364
 10
-8.9699038403
 20
-12.9916654264
 10
-8.9734255642
 20
-13.0021181477
 10
-8.9765589106
 20
-13.0135837238
 10
-8.9793294523
 20
-13.0260259526
 10
-8.9817116165
 20
-13.0393046133
 10
-8.9836017034
 20
-13.0534499054
 10
-8.9849651465
 20
-13.0683971698
 10
-8.9858365123
 20
-13.0839642381
 10
-8.9862158009
 20
-13.0999932422
  0
LWPOLYLINE
  5
537
100
AcDbEntity
  8
RACCORDO
100
AcDbPolyline
 62
250
  6
CONTINUOUS
 90
11
 70
0
 10
8.508397593
 20
12.939371996
 10
8.5120321423
 20
12.9402273658
 10
8.516326919
 20
12.9410376175
 10
8.5212819231
 20
12.9418027513
 10
8.5269880728
 20
12.9425216279
 10
8.5333544498
 20
12.9431953866
 10
8.5401083002
 20
12.9438274446
 10
8.5472261612
 20
12.9444174897
 10
8.5547314954
 20
12.9449658342
 10
8.5624219373
 20
12.9454768321
 10
8.5702802408
 20
12.9459503355
  0
LWPOLYLINE
  5
538
100
AcDbEntity
  8
RACCORDO
100
AcDbPolyline
 62
250
  6
CONTINUOUS
 90
9
 70
0
 10
8.36067643
 20
13.0891664262
 10
8.3661710659
 20
13.090021929
 10
8.3731092259
 20
13.090832256
 10
8.3812913558
 20
13.0915974075
 10
8.3905055397
 20
13.0923162103
 10
8.4005811485
 20
13.0929898375
 10
8.4114135626
 20
13.0936218079
 10
8.4228651369
 20
13.094211863
 10
8.4347899574
 20
13.0947602612
  0
LINE
  5
539
100
AcDbEntity
  8
DRAFT
100
AcDbLine
 62
7
  6
CONTINUOUS
 10
10.1
 20
11.7626767255
 11
10.6
 21
11.7778055482
  0
LINE
  5
53A
100
AcDbEntity
  8
RACCORDO
100
AcDbLine
 62
250
  6
CONTINUOUS
 10
9.070032489
 20
11.4596376556
 11
9.0487711985
 21
11.4589914257
  0
LWPOLYLINE
  5
53B
100
AcDbEntity
  8
RACCORDO
100
AcDbPolyline
 62
250
  6
CONTINUOUS
 90
56
 70
0
 10
9.0487711985
 20
11.4589914257
 10
9.0381998154
 20
11.458695213
 10
9.027681266
 20
11.458456662
 10
9.0171883508
 20
11.458265736
 10
9.0065978489
 20
11.4581813957
 10
8.9959124483
 20
11.4582030961
 10
8.9851294611
 20
11.4583313822
 10
8.9741176025
 20
11.4586268495
 10
8.9628765751
 20
11.4590821176
 10
8.9514066762
 20
11.4597045669
 10
8.9395775131
 20
11.4605769342
 10
8.9273712277
 20
11.4616898821
 10
8.914805678
 20
11.463052748
 10
8.9018040458
 20
11.4647762805
 10
8.8883242001
 20
11.4668594405
 10
8.8744082718
 20
11.4693032672
 10
8.8601058353
 20
11.4722216266
 10
8.8453610429
 20
11.4756338245
 10
8.8302297422
 20
11.4795205551
 10
8.8149290506
 20
11.4839377679
 10
8.7994226382
 20
11.4889234852
 10
8.7837468348
 20
11.4944396846
 10
8.7682277481
 20
11.5004282485
 10
8.7529183348
 20
11.5068958823
 10
8.7377656381
 20
11.5138358806
 10
8.7229368949
 20
11.5211700096
 10
8.7084633441
 20
11.5288946402
 10
8.6943137467
 20
11.5370134013
 10
8.680561623
 20
11.5454589465
 10
8.667200088
 20
11.5542438942
 10
8.6542360265
 20
11.5633556259
 10
8.6417636133
 20
11.5726889389
 10
8.6297947452
 20
11.5822444392
 10
8.6183175254
 20
11.5920215207
 10
8.6073904383
 20
11.6019131625
 10
8.5970311586
 20
11.6119080263
 10
8.5872220115
 20
11.6220174504
 10
8.5779684576
 20
11.6321684287
 10
8.5692768731
 20
11.6423547329
 10
8.5611408817
 20
11.6525825912
 10
8.5535468159
 20
11.6627976822
 10
8.5465066074
 20
11.6729767038
 10
8.5400083245
 20
11.6831429581
 10
8.5340025034
 20
11.69331203
 10
8.5284873337
 20
11.7034620283
 10
8.5234646259
 20
11.7136148442
 10
8.5188903478
 20
11.7238517352
 10
8.5147448365
 20
11.7341855527
 10
8.5110477549
 20
11.7446034453
 10
8.50781406
 20
11.7551481167
 10
8.5050339882
 20
11.7658585982
 10
8.502717303
 20
11.7766958585
 10
8.5009082517
 20
11.7875855085
 10
8.4996215833
 20
11.7985027516
 10
8.4988425487
 20
11.8094723843
 10
8.4985711481
 20
11.8204944066
  0
LWPOLYLINE
  5
53C
100
AcDbEntity
  8
RACCORDO
100
AcDbPolyline
 62
250
  6
CONTINUOUS
 90
3
 70
0
 10
9.1024704672
 20
11.4602070867
 10
9.0915905517
 20
11.460058722
 10
9.070032489
 20
11.4596376556
  0
LINE
  5
53D
100
AcDbEntity
  8
0
100
AcDbLine
 62
7
  6
CONTINUOUS
 10
1.497674
 20
9.888429
 11
0.750095
 21
9.888429
  0
LINE
  5
53E
100
AcDbEntity
  8
0
100
AcDbLine
 62
7
  6
CONTINUOUS
 10
0.750095
 20
10.104751
 11
1.497674
 21
10.104751
  0
LINE
  5
53F
100
AcDbEntity
  8
RACCORDO
100
AcDbLine
 62
7
  6
CONTINUOUS
 10
10.9645351961
 20
10.75
 11
10.85
 21
10.75
  0
LINE
  5
540
100
AcDbEntity
  8
RACCORDO
100
AcDbLine
 62
7
  6
CONTINUOUS
 10
-10.9645351961
 20
10.75
 11
-10.85
 21
10.75
  0
LINE
  5
541
100
AcDbEntity
  8
DRAFT
100
AcDbLine
 62
7
  6
CONTINUOUS
 10
10.9828653412
 20
10.75
 11
10.9645351961
 21
10.75
  0
LINE
  5
542
100
AcDbEntity
  8
DRAFT
100
AcDbLine
 62
7
  6
CONTINUOUS
 10
-10.9828653412
 20
10.75
 11
-10.9645351961
 21
10.75
  0
LINE
  5
543
100
AcDbEntity
  8
0
100
AcDbLine
 62
7
  6
CONTINUOUS
 10
1.53903
 20
10.893686
 11
0.750095
 21
10.893686
  0
LINE
  5
544
100
AcDbEntity
  8
0
100
AcDbLine
 62
7
  6
CONTINUOUS
 10
-3.39
 20
11.110007
 11
-3.119599
 21
11.110007
  0
LINE
  5
545
100
AcDbEntity
  8
0
100
AcDbLine
 62
7
  6
CONTINUOUS
 10
-1.385532
 20
11.110007
 11
-0.965615
 21
11.110007
  0
LINE
  5
546
100
AcDbEntity
  8
0
100
AcDbLine
 62
7
  6
CONTINUOUS
 10
-0.192586
 20
11.110007
 11
0.05875
 21
11.110007
  0
LINE
  5
547
100
AcDbEntity
  8
0
100
AcDbLine
 62
7
  6
CONTINUOUS
 10
0.479694
 20
11.110007
 11
1.53903
 21
11.110007
  0
LINE
  5
548
100
AcDbEntity
  8
0
100
AcDbLine
 62
7
  6
CONTINUOUS
 10
-2.080077
 20
11.110011
 11
-1.809675
 21
11.110011
  0
LINE
  5
549
100
AcDbEntity
  8
0
100
AcDbLine
 62
7
  6
CONTINUOUS
 10
2.385218
 20
11.110022
 11
2.719243
 21
11.110022
  0
LINE
  5
54A
100
AcDbEntity
  8
RACCORDO
100
AcDbLine
 62
250
  6
CONTINUOUS
 10
9.3292938566
 20
11.4602070867
 11
9.1024704672
 21
11.4602070867
  0
LINE
  5
54B
100
AcDbEntity
  8
RACCORDO
100
AcDbLine
 62
250
  6
CONTINUOUS
 10
-9.1024704672
 20
11.4602070867
 11
-9.3292938566
 21
11.4602070867
  0
LINE
  5
54C
100
AcDbEntity
  8
DRAFT
100
AcDbLine
 62
7
  6
CONTINUOUS
 10
9.9496573543
 20
11.6470633844
 11
9.75
 21
11.6470633844
  0
LINE
  5
54D
100
AcDbEntity
  8
DRAFT
100
AcDbLine
 62
7
  6
CONTINUOUS
 10
-9.75
 20
11.6470633844
 11
-9.9496573543
 21
11.6470633844
  0
LINE
  5
54E
100
AcDbEntity
  8
DRAFT
100
AcDbLine
 62
7
  6
CONTINUOUS
 10
9.75
 20
11.65
 11
9.6449489743
 21
11.65
  0
LINE
  5
54F
100
AcDbEntity
  8
DRAFT
100
AcDbLine
 62
7
  6
CONTINUOUS
 10
-9.6449489743
 20
11.65
 11
-9.75
 21
11.65
  0
LINE
  5
550
100
AcDbEntity
  8
RACCORDO
100
AcDbLine
 62
250
  6
CONTINUOUS
 10
-9.1802601072
 20
11.6599329936
 11
-9.1024704672
 21
11.6599329936
  0
LINE
  5
551
100
AcDbEntity
  8
RACCORDO
100
AcDbLine
 62
250
  6
CONTINUOUS
 10
9.1024704672
 20
11.6599329936
 11
9.1802601072
 21
11.6599329936
  0
LINE
  5
552
100
AcDbEntity
  8
DRAFT
100
AcDbLine
 62
7
  6
CONTINUOUS
 10
-9.4950979979
 20
11.7076485572
 11
-9.3049020021
 21
11.7076485572
  0
LINE
  5
553
100
AcDbEntity
  8
DRAFT
100
AcDbLine
 62
7
  6
CONTINUOUS
 10
9.3049020021
 20
11.7076485572
 11
9.4950979979
 21
11.7076485572
  0
LWPOLYLINE
  5
554
100
AcDbEntity
  8
RACCORDO
100
AcDbPolyline
 62
250
  6
CONTINUOUS
 90
3
 70
0
 10
-9.0700455261
 20
11.4596380451
 10
-9.0807866199
 20
11.459869182
 10
-9.1024704672
 20
11.4602070867
  0
LINE
  5
555
100
AcDbEntity
  8
DRAFT
100
AcDbLine
 62
7
  6
CONTINUOUS
 10
-10.6
 20
11.7778055482
 11
-10.1
 21
11.7626767255
  0
LWPOLYLINE
  5
556
100
AcDbEntity
  8
RACCORDO
100
AcDbPolyline
 62
250
  6
CONTINUOUS
 90
10
 70
0
 10
-8.9909750246
 20
12.7728130342
 10
-8.9811399984
 20
12.7711814264
 10
-8.9675804623
 20
12.7696285279
 10
-8.9505555708
 20
12.7681543388
 10
-8.9302278237
 20
12.7667473843
 10
-8.9069673762
 20
12.7654191391
 10
-8.8815104166
 20
12.7642040279
 10
-8.8543917225
 20
12.7631141484
 10
-8.8259277149
 20
12.7621374029
 10
-8.7674556484
 20
12.760527518
  0
LWPOLYLINE
  5
557
100
AcDbEntity
  8
RACCORDO
100
AcDbPolyline
 62
250
  6
CONTINUOUS
 90
14
 70
0
 10
-8.8432538616
 20
12.9226072876
 10
-8.8360490969
 20
12.9209759801
 10
-8.8266178897
 20
12.9194232676
 10
-8.8149602402
 20
12.91794915
 10
-8.800743357
 20
12.916542092
 10
-8.7843000315
 20
12.9152136289
 10
-8.7666286372
 20
12.9139983674
 10
-8.7477531669
 20
12.9129084928
 10
-8.727649628
 20
12.9119318197
 10
-8.7072444161
 20
12.9110663979
 10
-8.6869440944
 20
12.9103220101
 10
-8.6663420999
 20
12.9096888736
 10
-8.6451451386
 20
12.9091356906
 10
-8.6012382924
 20
12.9082470806
  0
LINE
  5
558
100
AcDbEntity
  8
RACCORDO
100
AcDbLine
 62
250
  6
CONTINUOUS
 10
-8.508397593
 20
12.939371996
 11
-8.4009945665
 21
12.9074497452
  0
LINE
  5
559
100
AcDbEntity
  8
RACCORDO
100
AcDbLine
 62
250
  6
CONTINUOUS
 10
-8.36067643
 20
13.0891664262
 11
-8.2468562183
 21
13.0553368642
  0
LWPOLYLINE
  5
55A
100
AcDbEntity
  8
DRAFT
100
AcDbPolyline
 62
7
  6
CONTINUOUS
 90
3
 70
0
 10
-9.4950979979
 20
14.7923514428
 10
-9.5273327394
 20
14.8043152594
 10
-9.54364068
 20
14.8104809319
  0
LINE
  5
55B
100
AcDbEntity
  8
DRAFT
100
AcDbLine
 62
7
  6
CONTINUOUS
 10
-9.54364068
 20
14.8104809319
 11
-9.5765789843
 21
14.823183336
  0
LINE
  5
55C
100
AcDbEntity
  8
DRAFT
100
AcDbLine
 62
7
  6
CONTINUOUS
 10
-9.5765789843
 20
14.823183336
 11
-9.6449489743
 21
14.85
  0
LWPOLYLINE
  5
55D
100
AcDbEntity
  8
RACCORDO
100
AcDbPolyline
 62
7
  6
CONTINUOUS
 90
3
 70
0
 10
-9.4031467219
 20
21.653337079
 10
-9.4559797262
 20
21.6946120072
 10
-9.5117510051
 20
21.7324392636
  0
LWPOLYLINE
  5
55E
100
AcDbEntity
  8
RACCORDO
100
AcDbPolyline
 62
7
  6
CONTINUOUS
 90
13
 70
0
 10
-10.38468937
 20
21.1678199262
 10
-10.3421741426
 20
21.1337217158
 10
-10.3026309438
 20
21.0988421888
 10
-10.2660597738
 20
21.0631813452
 10
-10.2321304919
 20
21.0267353807
 10
-10.2011732387
 20
20.9895080995
 10
-10.1741784357
 20
20.9515109152
 10
-10.1513799984
 20
20.912401067
 10
-10.1325440113
 20
20.8725213156
 10
-10.1179591503
 20
20.8329113559
 10
-10.1077216407
 20
20.7939177528
 10
-10.1017352573
 20
20.7551939414
 10
-10.1
 20
20.7167399216
  0
LWPOLYLINE
  5
55F
100
AcDbEntity
  8
0
100
AcDbPolyline
 62
7
  6
CONTINUOUS
 90
10
 70
0
 10
2.1196494523
 20
-14.1892597119
 10
2.1313072102
 20
-14.179455999
 10
2.1426393939
 20
-14.1682139014
 10
2.1536460033
 20
-14.1555334189
 10
2.164392402
 20
-14.1415197432
 10
2.1748132264
 20
-14.1260676827
 10
2.1847123858
 20
-14.1088616626
 10
2.1940245168
 20
-14.0897964912
 10
2.2028149827
 20
-14.0689773602
 10
2.2110837838
 20
-14.0464042696
  0
LWPOLYLINE
  5
560
100
AcDbEntity
  8
0
100
AcDbPolyline
 62
7
  6
CONTINUOUS
 90
10
 70
0
 10
-0.6123789869
 20
-14.3650069144
 10
-0.6355245018
 20
-14.3787574671
 10
-0.6612326204
 20
-14.3912298268
 10
-0.6895033428
 20
-14.4024239937
 10
-0.7201577503
 20
-14.4125093258
 10
-0.7533747616
 20
-14.4213164651
 10
-0.7896911325
 20
-14.4283373371
 10
-0.8292857817
 20
-14.4334025839
 10
-0.8719797905
 20
-14.4366815635
 10
-0.9177731588
 20
-14.4381742759
  0
LWPOLYLINE
  5
561
100
AcDbEntity
  8
0
100
AcDbPolyline
 62
7
  6
CONTINUOUS
 90
10
 70
0
 10
0.8255185761
 20
-14.3650069144
 10
0.8023730612
 20
-14.3787574671
 10
0.7766649426
 20
-14.3912298268
 10
0.7483942202
 20
-14.4024239937
 10
0.7177398127
 20
-14.4125093258
 10
0.6845228014
 20
-14.4213164651
 10
0.6482064304
 20
-14.4283373371
 10
0.6086117813
 20
-14.4334025839
 10
0.5659177725
 20
-14.4366815635
 10
0.5201244041
 20
-14.4381742759
  0
LWPOLYLINE
  5
562
100
AcDbEntity
  8
0
100
AcDbPolyline
 62
7
  6
CONTINUOUS
 90
10
 70
0
 10
2.2634161391
 20
-14.3650069144
 10
2.2402706242
 20
-14.3787574671
 10
2.2145625056
 20
-14.3912298268
 10
2.1862917832
 20
-14.4024239937
 10
2.1556373756
 20
-14.4125093258
 10
2.1224203643
 20
-14.4213164651
 10
2.0861039934
 20
-14.4283373371
 10
2.0465093443
 20
-14.4334025839
 10
2.0038153355
 20
-14.4366815635
 10
1.9580219671
 20
-14.4381742759
  0
LWPOLYLINE
  5
563
100
AcDbEntity
  8
0
100
AcDbPolyline
 62
7
  6
CONTINUOUS
 90
10
 70
0
 10
-3.5454357252
 20
-14.3872752417
 10
-3.5680369268
 20
-14.3965886645
 10
-3.5924097007
 20
-14.4049561778
 10
-3.6185540466
 20
-14.4123777816
 10
-3.6463509394
 20
-14.4189294101
 10
-3.6759194044
 20
-14.4245351292
 10
-3.707616517
 20
-14.4289671364
 10
-3.7415613023
 20
-14.4321494976
 10
-3.7776347351
 20
-14.4341581469
 10
-3.8158368155
 20
-14.4349930844
  0
LWPOLYLINE
  5
564
100
AcDbEntity
  8
RACCORDO
100
AcDbPolyline
 62
250
  6
CONTINUOUS
 90
19
 70
0
 10
8.4009953754
 20
13.742344685
 10
8.3699069267
 20
13.7404517718
 10
8.3401652007
 20
13.7360474954
 10
8.3117701973
 20
13.7291318559
 10
8.2844644251
 20
13.7193620859
 10
8.2585053756
 20
13.7070809527
 10
8.2346655227
 20
13.6933167585
 10
8.2132610895
 20
13.6781865239
 10
8.193975853
 20
13.6615732283
 10
8.1766336189
 20
13.644154112
 10
8.1613018581
 20
13.6262051609
 10
8.1479130997
 20
13.6074503891
 10
8.136088737
 20
13.5877390789
 10
8.1256322937
 20
13.5671846706
 10
8.1167402461
 20
13.5456737239
 10
8.1096234163
 20
13.5227152008
 10
8.1043520782
 20
13.4981454222
 10
8.1008559579
 20
13.4721280672
 10
8.0991350553
 20
13.4446631358
  0
LWPOLYLINE
  5
565
100
AcDbEntity
  8
RACCORDO
100
AcDbPolyline
 62
250
  6
CONTINUOUS
 90
19
 70
0
 10
-8.4009953754
 20
12.757655315
 10
-8.3699069267
 20
12.7595482282
 10
-8.3401652007
 20
12.7639525046
 10
-8.3117701973
 20
12.7708681441
 10
-8.2844644251
 20
12.7806379141
 10
-8.2585053756
 20
12.7929190473
 10
-8.2346655227
 20
12.8066832415
 10
-8.2132610895
 20
12.8218134761
 10
-8.193975853
 20
12.8384267717
 10
-8.1766336189
 20
12.855845888
 10
-8.1613018581
 20
12.8737948391
 10
-8.1479130997
 20
12.8925496109
 10
-8.136088737
 20
12.9122609211
 10
-8.1256322937
 20
12.9328153294
 10
-8.1167402461
 20
12.9543262761
 10
-8.1096234163
 20
12.9772847992
 10
-8.1043520782
 20
13.0018545778
 10
-8.1008559579
 20
13.0278719328
 10
-8.0991350553
 20
13.0553368642
  0
LINE
  5
566
100
AcDbEntity
  8
RACCORDO
100
AcDbLine
 62
7
  6
CONTINUOUS
 10
-10.5677407521
 20
11.8030796844
 11
-10.6
 21
11.8013890489
  0
LINE
  5
567
100
AcDbEntity
  8
RACCORDO
100
AcDbLine
 62
250
  6
CONTINUOUS
 10
8.5702802408
 20
12.9459503355
 11
8.5864015423
 21
12.9467901016
  0
LWPOLYLINE
  5
568
100
AcDbEntity
  8
0
100
AcDbPolyline
 62
7
  6
CONTINUOUS
 90
16
 70
0
 10
3.543151782
 20
13.388667771
 10
3.5870188707
 20
13.390738163
 10
3.628484542
 20
13.3956249089
 10
3.6675487957
 20
13.4033280088
 10
3.7043859968
 20
13.4136645376
 10
3.7388217805
 20
13.4268174204
 10
3.770333052
 20
13.4433354321
 10
3.7987143714
 20
13.463256961
 10
3.8241711786
 20
13.4865436187
 10
3.8467966986
 20
13.5136290152
 10
3.8668894077
 20
13.5450550217
 10
3.8841508297
 20
13.580279767
 10
3.8977787603
 20
13.6181112477
 10
3.9075057982
 20
13.6581521294
 10
3.9135993449
 20
13.7007997465
 10
3.9160594002
 20
13.7460540991
  0
LINE
  5
569
100
AcDbEntity
  8
RACCORDO
100
AcDbLine
 62
250
  6
CONTINUOUS
 10
8.5864015423
 20
12.9467901016
 11
8.6026100704
 21
12.94749891
  0
LWPOLYLINE
  5
56A
100
AcDbEntity
  8
RACCORDO
100
AcDbPolyline
 62
250
  6
CONTINUOUS
 90
19
 70
0
 10
-8.4009953087
 20
12.9074499658
 10
-8.3851815657
 20
12.908077514
 10
-8.3698395765
 20
12.9101859623
 10
-8.3551002619
 20
12.9136742632
 10
-8.3410079922
 20
12.9184587119
 10
-8.3277339119
 20
12.924408065
 10
-8.3155481051
 20
12.9312857032
 10
-8.3045771185
 20
12.9388530919
 10
-8.2947224135
 20
12.9470019302
 10
-8.2858792483
 20
12.9556727167
 10
-8.278098741
 20
12.9646732639
 10
-8.271298382
 20
12.9739576742
 10
-8.2652492246
 20
12.9837739394
 10
-8.2599918842
 20
12.9940587225
 10
-8.2555678619
 20
13.0047659781
 10
-8.2519091174
 20
13.0162539853
 10
-8.2491241165
 20
13.0286247034
 10
-8.2473943683
 20
13.0416801715
 10
-8.2468563352
 20
13.0553368989
  0
LWPOLYLINE
  5
56B
100
AcDbEntity
  8
RACCORDO
100
AcDbPolyline
 62
250
  6
CONTINUOUS
 90
19
 70
0
 10
8.4009953087
 20
13.5925500342
 10
8.3851815657
 20
13.591922486
 10
8.3698395765
 20
13.5898140377
 10
8.3551002619
 20
13.5863257368
 10
8.3410079922
 20
13.5815412881
 10
8.3277339119
 20
13.575591935
 10
8.3155481051
 20
13.5687142968
 10
8.3045771185
 20
13.5611469081
 10
8.2947224135
 20
13.5529980698
 10
8.2858792483
 20
13.5443272833
 10
8.278098741
 20
13.5353267361
 10
8.271298382
 20
13.5260423258
 10
8.2652492246
 20
13.5162260606
 10
8.2599918842
 20
13.5059412775
 10
8.2555678619
 20
13.4952340219
 10
8.2519091174
 20
13.4837460147
 10
8.2491241165
 20
13.4713752966
 10
8.2473943683
 20
13.4583198285
 10
8.2468563352
 20
13.4446631011
  0
LINE
  5
56C
100
AcDbEntity
  8
RACCORDO
100
AcDbLine
 62
250
  6
CONTINUOUS
 10
8.4347899574
 20
13.0947602612
 11
8.4597362359
 21
13.0957447981
  0
LWPOLYLINE
  5
56D
100
AcDbEntity
  8
RACCORDO
100
AcDbPolyline
 62
250
  6
CONTINUOUS
 90
10
 70
0
 10
8.8446605564
 20
12.7627596761
 10
8.8692701447
 20
12.7636799099
 10
8.8910674039
 20
12.7646322878
 10
8.9109588432
 20
12.7656260523
 10
8.9288631885
 20
12.7666518174
 10
8.944766129
 20
12.7677189691
 10
8.9592187449
 20
12.7688649089
 10
8.9720716207
 20
12.7701021037
 10
8.9827697872
 20
12.7714180865
 10
8.9909750246
 20
12.7728128574
  0
LINE
  5
56E
100
AcDbEntity
  8
RACCORDO
100
AcDbLine
 62
250
  6
CONTINUOUS
 10
8.6026100704
 20
12.94749891
 11
8.6187112597
 21
12.9480954894
  0
LINE
  5
56F
100
AcDbEntity
  8
RACCORDO
100
AcDbLine
 62
250
  6
CONTINUOUS
 10
8.4597362359
 20
13.0957447981
 11
8.485482749
 21
13.0965845319
  0
LINE
  5
570
100
AcDbEntity
  8
RACCORDO
100
AcDbLine
 62
250
  6
CONTINUOUS
 10
8.6187112597
 20
12.9480954894
 11
8.6346203745
 21
12.9485913881
  0
LINE
  5
571
100
AcDbEntity
  8
RACCORDO
100
AcDbLine
 62
250
  6
CONTINUOUS
 10
8.785758769
 20
12.7609769681
 11
8.8446605564
 21
12.7627596761
  0
LINE
  5
572
100
AcDbEntity
  8
RACCORDO
100
AcDbLine
 62
250
  6
CONTINUOUS
 10
8.485482749
 20
13.0965845319
 11
8.5114088338
 21
13.0972933433
  0
LWPOLYLINE
  5
573
100
AcDbEntity
  8
RACCORDO
100
AcDbPolyline
 62
250
  6
CONTINUOUS
 90
9
 70
0
 10
-8.520071289
 20
13.4024935504
 10
-8.4919129271
 20
13.4032288891
 10
-8.4654027177
 20
13.4040574139
 10
-8.4407960305
 20
13.4049846689
 10
-8.4185734479
 20
13.4060051101
 10
-8.3991029406
 20
13.4071019233
 10
-8.3827397491
 20
13.4082695039
 10
-8.3698232988
 20
13.4095134567
 10
-8.36067643
 20
13.4108337815
  0
LINE
  5
574
100
AcDbEntity
  8
RACCORDO
100
AcDbLine
 62
250
  6
CONTINUOUS
 10
8.6346203745
 20
12.9485913881
 11
8.6503050865
 21
12.9490042484
  0
LINE
  5
575
100
AcDbEntity
  8
RACCORDO
100
AcDbLine
 62
250
  6
CONTINUOUS
 10
8.5114088338
 20
13.0972933433
 11
8.5499426415
 21
13.0981483714
  0
LINE
  5
576
100
AcDbEntity
  8
RACCORDO
100
AcDbLine
 62
250
  6
CONTINUOUS
 10
8.7148970329
 20
12.7594690088
 11
8.785758769
 21
12.7609769681
  0
LINE
  5
577
100
AcDbEntity
  8
RACCORDO
100
AcDbLine
 62
250
  6
CONTINUOUS
 10
8.6503050865
 20
12.9490042484
 11
8.6735894119
 21
12.9494920258
  0
LINE
  5
578
100
AcDbEntity
  8
RACCORDO
100
AcDbLine
 62
250
  6
CONTINUOUS
 10
-8.5812134553
 20
13.4013013397
 11
-8.520071289
 21
13.4024935504
  0
LINE
  5
579
100
AcDbEntity
  8
RACCORDO
100
AcDbLine
 62
250
  6
CONTINUOUS
 10
8.5499426415
 20
13.0981483714
 11
8.6001954501
 21
13.0989777714
  0
LINE
  5
57A
100
AcDbEntity
  8
RACCORDO
100
AcDbLine
 62
250
  6
CONTINUOUS
 10
8.6735894119
 20
12.9494920258
 11
8.6969164832
 21
12.9498455855
  0
LINE
  5
57B
100
AcDbEntity
  8
RACCORDO
100
AcDbLine
 62
250
  6
CONTINUOUS
 10
8.633281216
 20
12.7583337092
 11
8.7148970329
 21
12.7594690088
  0
LWPOLYLINE
  5
57C
100
AcDbEntity
  8
RACCORDO
100
AcDbPolyline
 62
250
  6
CONTINUOUS
 90
17
 70
0
 10
8.5626918981
 20
12.9077718302
 10
8.5928681965
 20
12.9081280089
 10
8.6220371541
 20
12.9086306837
 10
8.6499500606
 20
12.9092634493
 10
8.675860785
 20
12.90997709
 10
8.699540784
 20
12.9107714413
 10
8.7212186009
 20
12.9116466677
 10
8.7408337347
 20
12.9125540472
 10
8.7581461192
 20
12.9134742451
 10
8.7733958205
 20
12.9144265961
 10
8.7872425359
 20
12.9154203832
 10
8.7998663737
 20
12.9164462764
 10
8.8110872255
 20
12.9175136057
 10
8.821024463
 20
12.9186596441
 10
8.8297178769
 20
12.9198968161
 10
8.8371276764
 20
12.9212126972
 10
8.8432538616
 20
12.9226072876
  0
LINE
  5
57D
100
AcDbEntity
  8
RACCORDO
100
AcDbLine
 62
250
  6
CONTINUOUS
 10
-8.647414844
 20
13.4004860635
 11
-8.5812134553
 21
13.4013013397
  0
LINE
  5
57E
100
AcDbEntity
  8
RACCORDO
100
AcDbLine
 62
250
  6
CONTINUOUS
 10
8.6001954501
 20
13.0989777714
 11
8.6498391299
 21
13.0995361974
  0
LINE
  5
57F
100
AcDbEntity
  8
RACCORDO
100
AcDbLine
 62
250
  6
CONTINUOUS
 10
8.6969164832
 20
12.9498455855
 11
8.720809662
 21
12.9500790581
  0
LWPOLYLINE
  5
580
100
AcDbEntity
  8
RACCORDO
100
AcDbPolyline
 62
250
  6
CONTINUOUS
 90
15
 70
0
 10
-8.7315958074
 20
13.5498623763
 10
-8.7092656639
 20
13.550022091
 10
-8.6876091009
 20
13.5502803319
 10
-8.6665506884
 20
13.5506388494
 10
-8.6461658563
 20
13.5510958932
 10
-8.6266808945
 20
13.5516462124
 10
-8.6080492627
 20
13.5522880314
 10
-8.5903175012
 20
13.5530231259
 10
-8.57385152
 20
13.553851571
 10
-8.5585500019
 20
13.5547791235
 10
-8.5445142641
 20
13.5558000268
 10
-8.5324141682
 20
13.556897086
 10
-8.5224730013
 20
13.5580645694
 10
-8.5144674762
 20
13.5593082087
 10
-8.508397593
 20
13.560628004
  0
LINE
  5
581
100
AcDbEntity
  8
RACCORDO
100
AcDbLine
 62
250
  6
CONTINUOUS
 10
8.5447709886
 20
12.7577513929
 11
8.633281216
 21
12.7583337092
  0
LINE
  5
582
100
AcDbEntity
  8
RACCORDO
100
AcDbLine
 62
250
  6
CONTINUOUS
 10
8.6498391299
 20
13.0995361974
 11
8.7005316508
 21
13.0998734867
  0
LINE
  5
583
100
AcDbEntity
  8
RACCORDO
100
AcDbLine
 62
250
  6
CONTINUOUS
 10
-8.7182386349
 20
13.4000680587
 11
-8.647414844
 21
13.4004860635
  0
LINE
  5
584
100
AcDbEntity
  8
RACCORDO
100
AcDbLine
 62
250
  6
CONTINUOUS
 10
8.4985711481
 20
12.9074497452
 11
8.5626918981
 21
12.9077718302
  0
LINE
  5
585
100
AcDbEntity
  8
RACCORDO
100
AcDbLine
 62
250
  6
CONTINUOUS
 10
8.720809662
 20
12.9500790581
 11
8.7459170648
 21
12.9501897603
  0
LINE
  5
586
100
AcDbEntity
  8
RACCORDO
100
AcDbLine
 62
250
  6
CONTINUOUS
 10
10.5677407521
 20
11.8030796844
 11
9.5840902598
 21
11.8030796844
  0
LINE
  5
587
100
AcDbEntity
  8
RACCORDO
100
AcDbLine
 62
250
  6
CONTINUOUS
 10
-9.5840902598
 20
11.8030796844
 11
-10.5677407521
 21
11.8030796844
  0
LINE
  5
588
100
AcDbEntity
  8
RACCORDO
100
AcDbLine
 62
250
  6
CONTINUOUS
 10
-8.9909750246
 20
11.8204944197
 11
-8.4985711481
 21
11.8204944066
  0
LINE
  5
589
100
AcDbEntity
  8
RACCORDO
100
AcDbLine
 62
250
  6
CONTINUOUS
 10
8.9909750246
 20
11.8204944192
 11
8.4985711481
 21
11.8204944066
  0
LINE
  5
58A
100
AcDbEntity
  8
0
100
AcDbLine
 62
7
  6
CONTINUOUS
 10
4.4816207207
 20
12.1120071664
 11
4.0198623394
 21
12.1120071664
  0
LINE
  5
58B
100
AcDbEntity
  8
0
100
AcDbLine
 62
7
  6
CONTINUOUS
 10
3.2847223015
 20
12.1120071664
 11
2.8065975821
 21
12.1120071664
  0
LINE
  5
58C
100
AcDbEntity
  8
0
100
AcDbLine
 62
7
  6
CONTINUOUS
 10
2.66563
 20
12.112007
 11
2.15967
 21
12.112007
  0
LINE
  5
58D
100
AcDbEntity
  8
0
100
AcDbLine
 62
7
  6
CONTINUOUS
 10
1.249088
 20
12.112007
 11
0.77424
 21
12.112007
  0
LINE
  5
58E
100
AcDbEntity
  8
0
100
AcDbLine
 62
7
  6
CONTINUOUS
 10
0.698858
 20
12.112007
 11
0.229236
 21
12.112007
  0
LINE
  5
58F
100
AcDbEntity
  8
0
100
AcDbLine
 62
7
  6
CONTINUOUS
 10
-0.44018
 20
12.112007
 11
-0.507508
 21
12.112007
  0
LINE
  5
590
100
AcDbEntity
  8
0
100
AcDbLine
 62
7
  6
CONTINUOUS
 10
-1.174268
 20
12.112007
 11
-1.633526
 21
12.112007
  0
LINE
  5
591
100
AcDbEntity
  8
0
100
AcDbLine
 62
7
  6
CONTINUOUS
 10
-1.891956
 20
12.112007
 11
-2.372012
 21
12.112007
  0
LINE
  5
592
100
AcDbEntity
  8
0
100
AcDbLine
 62
7
  6
CONTINUOUS
 10
-3.289406
 20
12.112007
 11
-3.712456
 21
12.112007
  0
LINE
  5
593
100
AcDbEntity
  8
RACCORDO
100
AcDbLine
 62
250
  6
CONTINUOUS
 10
9.4781437817
 20
12.2025314983
 11
10.1886751346
 21
12.2025314983
  0
LINE
  5
594
100
AcDbEntity
  8
RACCORDO
100
AcDbLine
 62
250
  6
CONTINUOUS
 10
-9.4781437817
 20
12.2025314983
 11
-10.1886751346
 21
12.2025314983
  0
LINE
  5
595
100
AcDbEntity
  8
0
100
AcDbLine
 62
7
  6
CONTINUOUS
 10
2.03531
 20
12.571127
 11
1.381553
 21
12.571127
  0
LINE
  5
596
100
AcDbEntity
  8
RACCORDO
100
AcDbLine
 62
250
  6
CONTINUOUS
 10
8.4009951765
 20
12.757655315
 11
8.5447709886
 21
12.7577513929
  0
LINE
  5
597
100
AcDbEntity
  8
RACCORDO
100
AcDbLine
 62
250
  6
CONTINUOUS
 10
8.4009945665
 20
12.9074497452
 11
8.4985711481
 21
12.9074497452
  0
LINE
  5
598
100
AcDbEntity
  8
0
100
AcDbLine
 62
7
  6
CONTINUOUS
 10
1.479751
 20
12.926392
 11
1.939371
 21
12.926392
  0
LINE
  5
599
100
AcDbEntity
  8
RACCORDO
100
AcDbLine
 62
250
  6
CONTINUOUS
 10
8.7459170648
 20
12.9501897603
 11
8.9360860759
 21
12.950198812
  0
LINE
  5
59A
100
AcDbEntity
  8
0
100
AcDbLine
 62
7
  6
CONTINUOUS
 10
3.5421170294
 20
13.0120177973
 11
3.2847223015
 21
13.0120177973
  0
LINE
  5
59B
100
AcDbEntity
  8
RACCORDO
100
AcDbLine
 62
250
  6
CONTINUOUS
 10
8.0991350553
 20
13.0553368642
 11
8.2468562183
 21
13.0553368642
  0
LINE
  5
59C
100
AcDbEntity
  8
RACCORDO
100
AcDbLine
 62
250
  6
CONTINUOUS
 10
-8.0991350553
 20
13.0553368642
 11
-8.2468562183
 21
13.0553368642
  0
LINE
  5
59D
100
AcDbEntity
  8
RACCORDO
100
AcDbLine
 62
250
  6
CONTINUOUS
 10
8.7005316508
 20
13.0998734867
 11
9.1339368607
 21
13.0999932422
  0
LINE
  5
59E
100
AcDbEntity
  8
CURVE
100
AcDbLine
 62
7
  6
CONTINUOUS
 10
8.9181209637
 20
13.25
 11
10.6
 21
13.25
  0
LINE
  5
59F
100
AcDbEntity
  8
0
100
AcDbLine
 62
7
  6
CONTINUOUS
 10
3.2688043561
 20
13.388667771
 11
3.543151782
 21
13.388667771
  0
LINE
  5
5A0
100
AcDbEntity
  8
RACCORDO
100
AcDbLine
 62
250
  6
CONTINUOUS
 10
-9.1339368607
 20
13.4000067578
 11
-8.7182386349
 21
13.4000680587
  0
LINE
  5
5A1
100
AcDbEntity
  8
RACCORDO
100
AcDbLine
 62
250
  6
CONTINUOUS
 10
8.0991350553
 20
13.4446631358
 11
8.2468562183
 21
13.4446631358
  0
LINE
  5
5A2
100
AcDbEntity
  8
RACCORDO
100
AcDbLine
 62
250
  6
CONTINUOUS
 10
-8.0991350553
 20
13.4446631358
 11
-8.2468562183
 21
13.4446631358
  0
LINE
  5
5A3
100
AcDbEntity
  8
RACCORDO
100
AcDbLine
 62
250
  6
CONTINUOUS
 10
-8.9360860759
 20
13.549801188
 11
-8.7315958074
 21
13.5498623763
  0
LINE
  5
5A4
100
AcDbEntity
  8
RACCORDO
100
AcDbLine
 62
250
  6
CONTINUOUS
 10
-8.4009945665
 20
13.5925502548
 11
-8.5312595487
 21
13.5924542577
  0
LINE
  5
5A5
100
AcDbEntity
  8
RACCORDO
100
AcDbLine
 62
250
  6
CONTINUOUS
 10
-8.9360860759
 20
12.950198812
 11
-8.7379143988
 21
12.9501597944
  0
LINE
  5
5A6
100
AcDbEntity
  8
RACCORDO
100
AcDbLine
 62
250
  6
CONTINUOUS
 10
8.9360860759
 20
13.549801188
 11
8.7379143988
 21
13.5498402056
  0
LINE
  5
5A7
100
AcDbEntity
  8
RACCORDO
100
AcDbLine
 62
250
  6
CONTINUOUS
 10
-8.5262407113
 20
12.9075262063
 11
-8.4009945665
 21
12.9074497452
  0
LINE
  5
5A8
100
AcDbEntity
  8
RACCORDO
100
AcDbLine
 62
250
  6
CONTINUOUS
 10
8.5262407113
 20
13.5924737937
 11
8.4009945665
 21
13.5925502548
  0
LINE
  5
5A9
100
AcDbEntity
  8
RACCORDO
100
AcDbLine
 62
250
  6
CONTINUOUS
 10
-9.1339368607
 20
13.0999932422
 11
-8.7024660268
 21
13.0998734406
  0
LINE
  5
5AA
100
AcDbEntity
  8
RACCORDO
100
AcDbLine
 62
250
  6
CONTINUOUS
 10
9.1339368607
 20
13.4000067578
 11
8.7024660268
 21
13.4001265594
  0
LINE
  5
5AB
100
AcDbEntity
  8
RACCORDO
100
AcDbLine
 62
250
  6
CONTINUOUS
 10
-8.5756031563
 20
12.7578901281
 11
-8.4009953754
 21
12.757655315
  0
LWPOLYLINE
  5
5AC
100
AcDbEntity
  8
RACCORDO
100
AcDbPolyline
 62
250
  6
CONTINUOUS
 90
50
 70
0
 10
9.1024704672
 20
11.6599329936
 10
9.0976415822
 20
11.6599658149
 10
9.0929199563
 20
11.6601586116
 10
9.0883096738
 20
11.6605078284
 10
9.0838178929
 20
11.6610119312
 10
9.0794450317
 20
11.661665246
 10
9.0751846602
 20
11.6624571721
 10
9.0710509812
 20
11.6633789637
 10
9.0670356473
 20
11.6644293986
 10
9.0630986487
 20
11.6656114772
 10
9.0592419208
 20
11.666922402
 10
9.055469984
 20
11.6683616138
 10
9.0517483646
 20
11.6699417366
 10
9.0480785353
 20
11.6716640653
 10
9.0444678168
 20
11.6735300598
 10
9.0408930133
 20
11.6755587233
 10
9.03735326
 20
11.6777573016
 10
9.033862269
 20
11.6801267116
 10
9.0304211087
 20
11.682680419
 10
9.0270281293
 20
11.6854307843
 10
9.0237017067
 20
11.6883750145
 10
9.0204728957
 20
11.6915026138
 10
9.0173421887
 20
11.6948253406
 10
9.014325412
 20
11.6983350988
 10
9.0114713241
 20
11.7019837438
 10
9.0087837491
 20
11.7057720595
 10
9.0062664936
 20
11.7096903771
 10
9.0039576617
 20
11.7136633204
 10
9.0018650608
 20
11.717664563
 10
8.9999733624
 20
11.7216993423
 10
8.9982774608
 20
11.7257327127
 10
8.9967753257
 20
11.7297456122
 10
8.995456166
 20
11.7337368735
 10
8.9942997878
 20
11.7376980322
 10
8.9932994157
 20
11.7416237183
 10
8.9924490627
 20
11.7455035708
 10
8.9917295441
 20
11.7493225355
 10
8.9911342083
 20
11.7530718257
 10
8.9906556593
 20
11.7567473049
 10
8.9902734201
 20
11.7603415895
 10
8.9899804815
 20
11.7638454292
 10
8.989770167
 20
11.7672581924
 10
8.9896235905
 20
11.7705864781
 10
8.9895342411
 20
11.7738260071
 10
8.9894972553
 20
11.7769741834
 10
8.9894980615
 20
11.7800411993
 10
8.9895313215
 20
11.7830198069
 10
8.9895930796
 20
11.7859125068
 10
8.9896733165
 20
11.7887450741
 10
8.9897691815
 20
11.7915126764
  0
LINE
  5
5AD
100
AcDbEntity
  8
RACCORDO
100
AcDbLine
 62
250
  6
CONTINUOUS
 10
-8.7024660268
 20
13.0998734406
 11
-8.6548521862
 21
13.0995819318
  0
LINE
  5
5AE
100
AcDbEntity
  8
RACCORDO
100
AcDbLine
 62
250
  6
CONTINUOUS
 10
8.7024660268
 20
13.4001265594
 11
8.6548521862
 21
13.4004180682
  0
LINE
  5
5AF
100
AcDbEntity
  8
RACCORDO
100
AcDbLine
 62
250
  6
CONTINUOUS
 10
-8.7379143988
 20
12.9501597944
 11
-8.706750727
 21
12.949956597
  0
LINE
  5
5B0
100
AcDbEntity
  8
RACCORDO
100
AcDbLine
 62
250
  6
CONTINUOUS
 10
8.7379143988
 20
13.5498402056
 11
8.706750727
 21
13.550043403
  0
LINE
  5
5B1
100
AcDbEntity
  8
RACCORDO
100
AcDbLine
 62
250
  6
CONTINUOUS
 10
-8.6452474717
 20
12.7584526988
 11
-8.5756031563
 21
12.7578901281
  0
LINE
  5
5B2
100
AcDbEntity
  8
RACCORDO
100
AcDbLine
 62
250
  6
CONTINUOUS
 10
-8.6548521862
 20
13.0995819318
 11
-8.5923882928
 21
13.0988695822
  0
LINE
  5
5B3
100
AcDbEntity
  8
RACCORDO
100
AcDbLine
 62
250
  6
CONTINUOUS
 10
8.6548521862
 20
13.4004180682
 11
8.5923882928
 21
13.4011304178
  0
LWPOLYLINE
  5
5B4
100
AcDbEntity
  8
RACCORDO
100
AcDbPolyline
 62
250
  6
CONTINUOUS
 90
3
 70
0
 10
-8.6012382924
 20
12.9082470806
 10
-8.5776911599
 20
12.9079245643
 10
-8.5262407113
 20
12.9075262063
  0
LINE
  5
5B5
100
AcDbEntity
  8
RACCORDO
100
AcDbLine
 62
250
  6
CONTINUOUS
 10
-8.706750727
 20
12.949956597
 11
-8.6785421541
 21
12.9495767397
  0
LINE
  5
5B6
100
AcDbEntity
  8
RACCORDO
100
AcDbLine
 62
250
  6
CONTINUOUS
 10
-8.7079625638
 20
12.7593412085
 11
-8.6452474717
 21
12.7584526988
  0
LINE
  5
5B7
100
AcDbEntity
  8
RACCORDO
100
AcDbLine
 62
250
  6
CONTINUOUS
 10
-8.5923882928
 20
13.0988695822
 11
-8.5400479146
 21
13.0979506045
  0
LINE
  5
5B8
100
AcDbEntity
  8
RACCORDO
100
AcDbLine
 62
250
  6
CONTINUOUS
 10
8.5923882928
 20
13.4011304178
 11
8.5400479146
 21
13.4020493955
  0
LINE
  5
5B9
100
AcDbEntity
  8
RACCORDO
100
AcDbLine
 62
250
  6
CONTINUOUS
 10
-8.6785421541
 20
12.9495767397
 11
-8.6532260568
 21
12.9490751348
  0
LINE
  5
5BA
100
AcDbEntity
  8
RACCORDO
100
AcDbLine
 62
250
  6
CONTINUOUS
 10
-8.7674556484
 20
12.760527518
 11
-8.7079625638
 21
12.7593412085
  0
LINE
  5
5BB
100
AcDbEntity
  8
RACCORDO
100
AcDbLine
 62
250
  6
CONTINUOUS
 10
8.5400479146
 20
13.4020493955
 11
8.5104185485
 21
13.4027312695
  0
LINE
  5
5BC
100
AcDbEntity
  8
RACCORDO
100
AcDbLine
 62
250
  6
CONTINUOUS
 10
-8.5400479146
 20
13.0979506045
 11
-8.497080157
 21
13.0969181739
  0
LINE
  5
5BD
100
AcDbEntity
  8
RACCORDO
100
AcDbLine
 62
250
  6
CONTINUOUS
 10
-8.6532260568
 20
12.9490751348
 11
-8.630737296
 21
12.9484777021
  0
LINE
  5
5BE
100
AcDbEntity
  8
RACCORDO
100
AcDbLine
 62
250
  6
CONTINUOUS
 10
-8.497080157
 20
13.0969181739
 11
-8.4731084555
 21
13.0961998265
  0
LINE
  5
5BF
100
AcDbEntity
  8
RACCORDO
100
AcDbLine
 62
250
  6
CONTINUOUS
 10
-8.630737296
 20
12.9484777021
 11
-8.6109442038
 21
12.9478188862
  0
LINE
  5
5C0
100
AcDbEntity
  8
RACCORDO
100
AcDbLine
 62
250
  6
CONTINUOUS
 10
-8.4731084555
 20
13.0961998265
 11
-8.4523482267
 21
13.0954729665
  0
LINE
  5
5C1
100
AcDbEntity
  8
RACCORDO
100
AcDbLine
 62
250
  6
CONTINUOUS
 10
-8.6109442038
 20
12.9478188862
 11
-8.5936442193
 21
12.9471237444
  0
LINE
  5
5C2
100
AcDbEntity
  8
RACCORDO
100
AcDbLine
 62
250
  6
CONTINUOUS
 10
-8.4523482267
 20
13.0954729665
 11
-8.4343018277
 21
13.0947401091
  0
LINE
  5
5C3
100
AcDbEntity
  8
RACCORDO
100
AcDbLine
 62
250
  6
CONTINUOUS
 10
-8.4343018277
 20
13.0947401091
 11
-8.4186325435
 21
13.0940019043
  0
LWPOLYLINE
  5
5C4
100
AcDbEntity
  8
RACCORDO
100
AcDbPolyline
 62
250
  6
CONTINUOUS
 90
3
 70
0
 10
-8.5936442193
 20
12.9471237444
 10
-8.5786676088
 20
12.9464054033
 10
-8.5719303441
 20
12.9460433086
  0
LINE
  5
5C5
100
AcDbEntity
  8
RACCORDO
100
AcDbLine
 62
7
  6
CONTINUOUS
 10
10.6
 20
11.8013890489
 11
10.5677407521
 21
11.8030796844
  0
LWPOLYLINE
  5
5C6
100
AcDbEntity
  8
RACCORDO
100
AcDbPolyline
 62
250
  6
CONTINUOUS
 90
12
 70
0
 10
-8.4186325435
 20
13.0940019043
 10
-8.404977696
 20
13.0932565737
 10
-8.3988103954
 20
13.0928787345
 10
-8.3930570082
 20
13.0924970583
 10
-8.3877165753
 20
13.0921112197
 10
-8.3827333524
 20
13.0917181033
 10
-8.3781192614
 20
13.0913179268
 10
-8.3738852515
 20
13.0909104725
 10
-8.3700009473
 20
13.0904919721
 10
-8.3664796919
 20
13.0900611695
 10
-8.3633628199
 20
13.0896193209
 10
-8.36067643
 20
13.0891664262
  0
LWPOLYLINE
  5
5C7
100
AcDbEntity
  8
RACCORDO
100
AcDbPolyline
 62
250
  6
CONTINUOUS
 90
17
 70
0
 10
-8.5719303441
 20
12.9460433086
 10
-8.5598547226
 20
12.945312438
 10
-8.5544060782
 20
12.9449456813
 10
-8.5493550257
 20
12.9445775918
 10
-8.5446201639
 20
12.944207478
 10
-8.5401930637
 20
12.943835821
 10
-8.5360821542
 20
12.9434621397
 10
-8.5322313214
 20
12.9430842993
 10
-8.5286311307
 20
12.9427026299
 10
-8.5252910167
 20
12.9423168014
 10
-8.5221831693
 20
12.9419236876
 10
-8.5192968544
 20
12.9415234971
 10
-8.516642806
 20
12.9411160213
 10
-8.5142254165
 20
12.9406975085
 10
-8.5120461498
 20
12.9402667081
 10
-8.510103542
 20
12.9398248706
 10
-8.508397593
 20
12.939371996
  0
LWPOLYLINE
  5
5C8
100
AcDbEntity
  8
RACCORDO
100
AcDbPolyline
 62
250
  6
CONTINUOUS
 90
13
 70
0
 10
-8.508397593
 20
13.560628004
 10
-8.489226245
 20
13.5591845816
 10
-8.4703791447
 20
13.5552320781
 10
-8.4521750557
 20
13.5488373427
 10
-8.4349218663
 20
13.5401085304
 10
-8.4189113821
 20
13.5291932729
 10
-8.4044143905
 20
13.5162761813
 10
-8.3916760813
 20
13.5015757244
 10
-8.3809118991
 20
13.4853405328
 10
-8.3723039001
 20
13.4678451947
 10
-8.3659976726
 20
13.4493856112
 10
-8.3620998745
 20
13.4302739917
 10
-8.36067643
 20
13.4108335738
  0
LWPOLYLINE
  5
5C9
100
AcDbEntity
  8
0
100
AcDbPolyline
 62
7
  6
CONTINUOUS
 90
13
 70
0
 10
-9.441609974
 20
21.6837160374
 10
-9.5466125791
 20
21.7566534884
 10
-9.5789226149
 20
21.7832722616
 10
-9.6086810567
 20
21.8122955371
 10
-9.6360606783
 20
21.8439602842
 10
-9.660888706
 20
21.8780295337
 10
-9.6826468177
 20
21.9137923782
 10
-9.7012706519
 20
21.9512841731
 10
-9.7168245702
 20
21.990469563
 10
-9.7289833359
 20
22.0305315747
 10
-9.7376385368
 20
22.0711978837
 10
-9.7428985849
 20
22.1127408145
 10
-9.7447634805
 20
22.1551603671
  0
LINE
  5
5CA
100
AcDbEntity
  8
DRAFT
100
AcDbLine
 62
7
  6
CONTINUOUS
 10
9.5765789843
 20
-11.676816664
 11
9.6449489743
 21
-11.65
  0
LINE
  5
5CB
100
AcDbEntity
  8
DRAFT
100
AcDbLine
 62
7
  6
CONTINUOUS
 10
9.54364068
 20
-11.6895190681
 11
9.5765789843
 21
-11.676816664
  0
LWPOLYLINE
  5
5CC
100
AcDbEntity
  8
DRAFT
100
AcDbPolyline
 62
7
  6
CONTINUOUS
 90
3
 70
0
 10
9.4950979979
 20
-11.7076485572
 10
9.5111518454
 20
-11.7017279036
 10
9.54364068
 20
-11.6895190681
  0
LWPOLYLINE
  5
5CD
100
AcDbEntity
  8
RACCORDO
100
AcDbPolyline
 62
7
  6
CONTINUOUS
 90
19
 70
0
 10
9.3292938566
 20
-11.4602070867
 10
9.3058700183
 20
-11.4686688209
 10
9.2842996721
 20
-11.4786908871
 10
9.2645828182
 20
-11.4902310196
 10
9.2466321716
 20
-11.5034326501
 10
9.2305350173
 20
-11.5179555151
 10
9.2165532097
 20
-11.5330063197
 10
9.2048630278
 20
-11.5483816479
 10
9.1952881927
 20
-11.5639185781
 10
9.1875617227
 20
-11.5789399978
 10
9.1817883447
 20
-11.5931376165
 10
9.1778633318
 20
-11.6064775236
 10
9.1752055211
 20
-11.6187568219
 10
9.1737859129
 20
-11.6297970945
 10
9.1736335068
 20
-11.6394033199
 10
9.1742541396
 20
-11.6473702465
 10
9.17548309
 20
-11.653536014
 10
9.1774850792
 20
-11.6577664644
 10
9.1802601072
 20
-11.6599329936
  0
LINE
  5
5CE
100
AcDbEntity
  8
RACCORDO
100
AcDbLine
 62
250
  6
CONTINUOUS
 10
8.2468562183
 20
-13.4446631358
 11
8.36067643
 21
-13.4108335738
  0
LINE
  5
5CF
100
AcDbEntity
  8
RACCORDO
100
AcDbLine
 62
250
  6
CONTINUOUS
 10
8.4009945665
 20
-13.5925502548
 11
8.508397593
 21
-13.560628004
  0
LWPOLYLINE
  5
5D0
100
AcDbEntity
  8
RACCORDO
100
AcDbPolyline
 62
250
  6
CONTINUOUS
 90
19
 70
0
 10
8.9360820784
 20
-13.549801188
 10
8.9414630465
 20
-13.5482431061
 10
8.9465615457
 20
-13.5452636581
 10
8.9513775758
 20
-13.5409997193
 10
8.9559387257
 20
-13.5355756772
 10
8.9602174067
 20
-13.5291465098
 10
8.9641308518
 20
-13.5219282477
 10
8.9676357337
 20
-13.5141489439
 10
8.9707753798
 20
-13.505913718
 10
8.9735970054
 20
-13.4972403389
 10
8.976095495
 20
-13.4882949648
 10
8.978275964
 20
-13.4791242051
 10
8.9802009749
 20
-13.4694793557
 10
8.9819023366
 20
-13.45941859
 10
8.9833482401
 20
-13.4489826399
 10
8.984505821
 20
-13.4378204083
 10
8.9853641245
 20
-13.4258304091
 10
8.9859341054
 20
-13.413200608
 10
8.9862157637
 20
-13.4000067578
  0
LWPOLYLINE
  5
5D1
100
AcDbEntity
  8
0
100
AcDbPolyline
 62
7
  6
CONTINUOUS
 90
13
 70
0
 10
2.8065975821
 20
14.3849276465
 10
2.9235314501
 20
14.4017300978
 10
3.037324036
 20
14.4153913948
 10
3.1479753398
 20
14.4259115373
 10
3.2555461506
 20
14.4334375006
 10
3.3599756793
 20
14.4378223095
 10
3.4610815584
 20
14.4386250387
 10
3.5590345652
 20
14.4359439524
 10
3.6536639223
 20
14.4296807864
 10
3.7442749308
 20
14.4190998233
 10
3.8306360244
 20
14.4039558239
 10
3.9129787693
 20
14.3844940275
 10
3.9913031656
 20
14.3607144339
  0
LINE
  5
5D2
100
AcDbEntity
  8
RACCORDO
100
AcDbLine
 62
7
  6
CONTINUOUS
 10
10.6
 20
14.6986109511
 11
10.5677407521
 21
14.6969203156
  0
LWPOLYLINE
  5
5D3
100
AcDbEntity
  8
RACCORDO
100
AcDbPolyline
 62
250
  6
CONTINUOUS
 90
10
 70
0
 10
-8.8446605564
 20
13.7372403239
 10
-8.8692701447
 20
13.7363200901
 10
-8.8910674039
 20
13.7353677122
 10
-8.9109588432
 20
13.7343739477
 10
-8.9288631885
 20
13.7333481826
 10
-8.944766129
 20
13.7322810309
 10
-8.9592187449
 20
13.7311350911
 10
-8.9720716207
 20
13.7298978963
 10
-8.9827697872
 20
13.7285819135
 10
-8.9909750246
 20
13.7271871426
  0
LINE
  5
5D4
100
AcDbEntity
  8
DRAFT
100
AcDbLine
 62
7
  6
CONTINUOUS
 10
-10.6
 20
14.7221944518
 11
-10.1
 21
14.7373232745
  0
LINE
  5
5D5
100
AcDbEntity
  8
RACCORDO
100
AcDbLine
 62
250
  6
CONTINUOUS
 10
-8.785758769
 20
13.7390230319
 11
-8.8446605564
 21
13.7372403239
  0
LINE
  5
5D6
100
AcDbEntity
  8
RACCORDO
100
AcDbLine
 62
250
  6
CONTINUOUS
 10
-9.070032489
 20
15.0403623444
 11
-9.0487711985
 21
15.0410085743
  0
LWPOLYLINE
  5
5D7
100
AcDbEntity
  8
RACCORDO
100
AcDbPolyline
 62
250
  6
CONTINUOUS
 90
56
 70
0
 10
-9.0487711985
 20
15.0410085743
 10
-9.0381998154
 20
15.041304787
 10
-9.027681266
 20
15.041543338
 10
-9.0171883508
 20
15.041734264
 10
-9.0065978489
 20
15.0418186043
 10
-8.9959124484
 20
15.0417969039
 10
-8.9851294611
 20
15.0416686178
 10
-8.9741176025
 20
15.0413731505
 10
-8.9628765751
 20
15.0409178824
 10
-8.9514066762
 20
15.0402954331
 10
-8.9395775131
 20
15.0394230658
 10
-8.9273712277
 20
15.0383101179
 10
-8.914805678
 20
15.036947252
 10
-8.9018040458
 20
15.0352237195
 10
-8.8883242001
 20
15.0331405595
 10
-8.8744082718
 20
15.0306967328
 10
-8.8601058353
 20
15.0277783734
 10
-8.8453610429
 20
15.0243661755
 10
-8.8302297422
 20
15.0204794449
 10
-8.8149290506
 20
15.0160622321
 10
-8.7994226382
 20
15.0110765148
 10
-8.7837468348
 20
15.0055603154
 10
-8.7682277481
 20
14.9995717515
 10
-8.7529183348
 20
14.9931041177
 10
-8.7377656381
 20
14.9861641194
 10
-8.7229368949
 20
14.9788299904
 10
-8.7084633441
 20
14.9711053598
 10
-8.6943137467
 20
14.9629865987
 10
-8.680561623
 20
14.9545410535
 10
-8.667200088
 20
14.9457561058
 10
-8.6542360265
 20
14.9366443741
 10
-8.6417636133
 20
14.9273110611
 10
-8.6297947452
 20
14.9177555608
 10
-8.6183175254
 20
14.9079784793
 10
-8.6073904383
 20
14.8980868375
 10
-8.5970311586
 20
14.8880919737
 10
-8.5872220115
 20
14.8779825496
 10
-8.5779684576
 20
14.8678315713
 10
-8.5692768731
 20
14.8576452671
 10
-8.5611408817
 20
14.8474174088
 10
-8.5535468159
 20
14.8372023178
 10
-8.5465066074
 20
14.8270232962
 10
-8.5400083245
 20
14.8168570419
 10
-8.5340025034
 20
14.80668797
 10
-8.5284873337
 20
14.7965379717
 10
-8.5234646259
 20
14.7863851558
 10
-8.5188903478
 20
14.7761482648
 10
-8.5147448365
 20
14.7658144473
 10
-8.5110477549
 20
14.7553965547
 10
-8.50781406
 20
14.7448518833
 10
-8.5050339882
 20
14.7341414018
 10
-8.502717303
 20
14.7233041415
 10
-8.5009082517
 20
14.7124144915
 10
-8.4996215833
 20
14.7014972484
 10
-8.4988425487
 20
14.6905276157
 10
-8.4985711481
 20
14.6795055934
  0
LINE
  5
5D8
100
AcDbEntity
  8
RACCORDO
100
AcDbLine
 62
250
  6
CONTINUOUS
 10
-8.7148970329
 20
13.7405309912
 11
-8.785758769
 21
13.7390230319
  0
LWPOLYLINE
  5
5D9
100
AcDbEntity
  8
RACCORDO
100
AcDbPolyline
 62
250
  6
CONTINUOUS
 90
3
 70
0
 10
-9.1024704672
 20
15.0397929133
 10
-9.0915905517
 20
15.039941278
 10
-9.070032489
 20
15.0403623444
  0
LINE
  5
5DA
100
AcDbEntity
  8
RACCORDO
100
AcDbLine
 62
250
  6
CONTINUOUS
 10
-8.633281216
 20
13.7416662908
 11
-8.7148970329
 21
13.7405309912
  0
LWPOLYLINE
  5
5DB
100
AcDbEntity
  8
RACCORDO
100
AcDbPolyline
 62
250
  6
CONTINUOUS
 90
18
 70
0
 10
-8.5312595487
 20
13.5924542577
 10
-8.5626918981
 20
13.5922281698
 10
-8.5928681965
 20
13.5918719911
 10
-8.6220371541
 20
13.5913693163
 10
-8.6499500606
 20
13.5907365507
 10
-8.675860785
 20
13.59002291
 10
-8.699540784
 20
13.5892285587
 10
-8.7212186009
 20
13.5883533323
 10
-8.7408337347
 20
13.5874459528
 10
-8.7581461192
 20
13.5865257549
 10
-8.7733958205
 20
13.5855734039
 10
-8.7872425359
 20
13.5845796168
 10
-8.7998663737
 20
13.5835537236
 10
-8.8110872255
 20
13.5824863943
 10
-8.821024463
 20
13.5813403559
 10
-8.8297178769
 20
13.5801031839
 10
-8.8371276764
 20
13.5787873028
 10
-8.8432538616
 20
13.5773927124
  0
LINE
  5
5DC
100
AcDbEntity
  8
RACCORDO
100
AcDbLine
 62
250
  6
CONTINUOUS
 10
-8.5447709886
 20
13.7422486071
 11
-8.633281216
 21
13.7416662908
  0
LINE
  5
5DD
100
AcDbEntity
  8
RACCORDO
100
AcDbLine
 62
250
  6
CONTINUOUS
 10
-8.4009945665
 20
13.742344685
 11
-8.5447709886
 21
13.7422486071
  0
LINE
  5
5DE
100
AcDbEntity
  8
RACCORDO
100
AcDbLine
 62
250
  6
CONTINUOUS
 10
-9.4781437817
 20
14.2974685017
 11
-10.1886751346
 21
14.2974685017
  0
LINE
  5
5DF
100
AcDbEntity
  8
RACCORDO
100
AcDbLine
 62
250
  6
CONTINUOUS
 10
9.4781437817
 20
14.2974685017
 11
10.1886751346
 21
14.2974685017
  0
LINE
  5
5E0
100
AcDbEntity
  8
0
100
AcDbLine
 62
7
  6
CONTINUOUS
 10
-4.441534
 20
14.411797
 11
-3.920045
 21
14.411797
  0
LINE
  5
5E1
100
AcDbEntity
  8
0
100
AcDbLine
 62
7
  6
CONTINUOUS
 10
-3.02989
 20
14.411797
 11
-2.550162
 21
14.411797
  0
LINE
  5
5E2
100
AcDbEntity
  8
0
100
AcDbLine
 62
7
  6
CONTINUOUS
 10
-1.425869
 20
14.411797
 11
-0.946209
 21
14.411797
  0
LINE
  5
5E3
100
AcDbEntity
  8
0
100
AcDbLine
 62
7
  6
CONTINUOUS
 10
0.008833
 20
14.411797
 11
0.483802
 21
14.411797
  0
LINE
  5
5E4
100
AcDbEntity
  8
0
100
AcDbLine
 62
7
  6
CONTINUOUS
 10
1.4956
 20
14.411797
 11
1.959997
 21
14.411797
  0
LINE
  5
5E5
100
AcDbEntity
  8
0
100
AcDbLine
 62
7
  6
CONTINUOUS
 10
-2.372012
 20
14.411935
 11
-1.891956
 21
14.411935
  0
LINE
  5
5E6
100
AcDbEntity
  8
RACCORDO
100
AcDbLine
 62
250
  6
CONTINUOUS
 10
-8.9909750246
 20
14.6795055808
 11
-8.4985711481
 21
14.6795055934
  0
LINE
  5
5E7
100
AcDbEntity
  8
RACCORDO
100
AcDbLine
 62
250
  6
CONTINUOUS
 10
8.9909750246
 20
14.6795055803
 11
8.4985711481
 21
14.6795055934
  0
LINE
  5
5E8
100
AcDbEntity
  8
RACCORDO
100
AcDbLine
 62
250
  6
CONTINUOUS
 10
-10.5677407521
 20
14.6969203156
 11
-9.5840902598
 21
14.6969203156
  0
LINE
  5
5E9
100
AcDbEntity
  8
RACCORDO
100
AcDbLine
 62
250
  6
CONTINUOUS
 10
9.5840902598
 20
14.6969203156
 11
10.5677407521
 21
14.6969203156
  0
LINE
  5
5EA
100
AcDbEntity
  8
DRAFT
100
AcDbLine
 62
7
  6
CONTINUOUS
 10
-9.4950979979
 20
14.7923514428
 11
-9.3049020021
 21
14.7923514428
  0
LINE
  5
5EB
100
AcDbEntity
  8
DRAFT
100
AcDbLine
 62
7
  6
CONTINUOUS
 10
9.3049020021
 20
14.7923514428
 11
9.4950979979
 21
14.7923514428
  0
LINE
  5
5EC
100
AcDbEntity
  8
RACCORDO
100
AcDbLine
 62
250
  6
CONTINUOUS
 10
-9.1024704672
 20
14.8400670064
 11
-9.1802601072
 21
14.8400670064
  0
LINE
  5
5ED
100
AcDbEntity
  8
RACCORDO
100
AcDbLine
 62
250
  6
CONTINUOUS
 10
9.1024704672
 20
14.8400670064
 11
9.1802601072
 21
14.8400670064
  0
LINE
  5
5EE
100
AcDbEntity
  8
DRAFT
100
AcDbLine
 62
7
  6
CONTINUOUS
 10
9.75
 20
14.85
 11
9.6449489743
 21
14.85
  0
LINE
  5
5EF
100
AcDbEntity
  8
DRAFT
100
AcDbLine
 62
7
  6
CONTINUOUS
 10
-9.6449489743
 20
14.85
 11
-9.75
 21
14.85
  0
LINE
  5
5F0
100
AcDbEntity
  8
DRAFT
100
AcDbLine
 62
7
  6
CONTINUOUS
 10
-9.9496573543
 20
14.8529366156
 11
-9.75
 21
14.8529366156
  0
LINE
  5
5F1
100
AcDbEntity
  8
DRAFT
100
AcDbLine
 62
7
  6
CONTINUOUS
 10
9.75
 20
14.8529366156
 11
9.9496573543
 21
14.8529366156
  0
LINE
  5
5F2
100
AcDbEntity
  8
RACCORDO
100
AcDbLine
 62
250
  6
CONTINUOUS
 10
-9.3292938566
 20
15.0397929133
 11
-9.1024704672
 21
15.0397929133
  0
LINE
  5
5F3
100
AcDbEntity
  8
RACCORDO
100
AcDbLine
 62
250
  6
CONTINUOUS
 10
9.1024704672
 20
15.0397929133
 11
9.3292938566
 21
15.0397929133
  0
LINE
  5
5F4
100
AcDbEntity
  8
RACCORDO
100
AcDbLine
 62
7
  6
CONTINUOUS
 10
4.75
 20
15.2
 11
-4.75
 21
15.2
  0
LINE
  5
5F5
100
AcDbEntity
  8
RACCORDO
100
AcDbLine
 62
250
  6
CONTINUOUS
 10
8.5756031563
 20
13.7421098719
 11
8.4009953754
 21
13.742344685
  0
LWPOLYLINE
  5
5F6
100
AcDbEntity
  8
RACCORDO
100
AcDbPolyline
 62
250
  6
CONTINUOUS
 90
50
 70
0
 10
-9.1024704672
 20
14.8400670064
 10
-9.0976415822
 20
14.8400341851
 10
-9.0929199563
 20
14.8398413884
 10
-9.0883096738
 20
14.8394921716
 10
-9.0838178929
 20
14.8389880688
 10
-9.0794450317
 20
14.838334754
 10
-9.0751846602
 20
14.8375428279
 10
-9.0710509812
 20
14.8366210363
 10
-9.0670356473
 20
14.8355706014
 10
-9.0630986487
 20
14.8343885228
 10
-9.0592419208
 20
14.833077598
 10
-9.055469984
 20
14.8316383862
 10
-9.0517483646
 20
14.8300582634
 10
-9.0480785353
 20
14.8283359347
 10
-9.0444678168
 20
14.8264699402
 10
-9.0408930133
 20
14.8244412767
 10
-9.03735326
 20
14.8222426984
 10
-9.033862269
 20
14.8198732884
 10
-9.0304211087
 20
14.817319581
 10
-9.0270281293
 20
14.8145692157
 10
-9.0237017067
 20
14.8116249855
 10
-9.0204728957
 20
14.8084973862
 10
-9.0173421887
 20
14.8051746594
 10
-9.014325412
 20
14.8016649012
 10
-9.0114713241
 20
14.7980162562
 10
-9.0087837491
 20
14.7942279405
 10
-9.0062664936
 20
14.7903096229
 10
-9.0039576617
 20
14.7863366796
 10
-9.0018650608
 20
14.782335437
 10
-8.9999733624
 20
14.7783006577
 10
-8.9982774608
 20
14.7742672873
 10
-8.9967753257
 20
14.7702543878
 10
-8.995456166
 20
14.7662631265
 10
-8.9942997878
 20
14.7623019678
 10
-8.9932994157
 20
14.7583762817
 10
-8.9924490627
 20
14.7544964292
 10
-8.9917295441
 20
14.7506774645
 10
-8.9911342083
 20
14.7469281743
 10
-8.9906556593
 20
14.7432526951
 10
-8.9902734201
 20
14.7396584105
 10
-8.9899804815
 20
14.7361545708
 10
-8.989770167
 20
14.7327418076
 10
-8.9896235905
 20
14.7294135219
 10
-8.9895342411
 20
14.7261739929
 10
-8.9894972553
 20
14.7230258166
 10
-8.9894980615
 20
14.7199588007
 10
-8.9895313215
 20
14.7169801931
 10
-8.9895930796
 20
14.7140874932
 10
-8.9896733165
 20
14.7112549259
 10
-8.9897691815
 20
14.7084873236
  0
LINE
  5
5F7
100
AcDbEntity
  8
RACCORDO
100
AcDbLine
 62
250
  6
CONTINUOUS
 10
8.6452474717
 20
13.7415473012
 11
8.5756031563
 21
13.7421098719
  0
LWPOLYLINE
  5
5F8
100
AcDbEntity
  8
RACCORDO
100
AcDbPolyline
 62
250
  6
CONTINUOUS
 90
3
 70
0
 10
8.6012382924
 20
13.5917529194
 10
8.5776911599
 20
13.5920754357
 10
8.5262407113
 20
13.5924737937
  0
LINE
  5
5F9
100
AcDbEntity
  8
RACCORDO
100
AcDbLine
 62
250
  6
CONTINUOUS
 10
8.706750727
 20
13.550043403
 11
8.6785421541
 21
13.5504232603
  0
LINE
  5
5FA
100
AcDbEntity
  8
RACCORDO
100
AcDbLine
 62
250
  6
CONTINUOUS
 10
8.7079625638
 20
13.7406587915
 11
8.6452474717
 21
13.7415473012
  0
LINE
  5
5FB
100
AcDbEntity
  8
RACCORDO
100
AcDbLine
 62
250
  6
CONTINUOUS
 10
8.6785421541
 20
13.5504232603
 11
8.6532260568
 21
13.5509248652
  0
LINE
  5
5FC
100
AcDbEntity
  8
RACCORDO
100
AcDbLine
 62
250
  6
CONTINUOUS
 10
8.7674556484
 20
13.739472482
 11
8.7079625638
 21
13.7406587915
  0
LWPOLYLINE
  5
5FD
100
AcDbEntity
  8
RACCORDO
100
AcDbPolyline
 62
250
  6
CONTINUOUS
 90
3
 70
0
 10
9.0700455261
 20
15.0403619549
 10
9.0807866199
 20
15.040130818
 10
9.1024704672
 20
15.0397929133
  0
LINE
  5
5FE
100
AcDbEntity
  8
RACCORDO
100
AcDbLine
 62
250
  6
CONTINUOUS
 10
8.6532260568
 20
13.5509248652
 11
8.630737296
 21
13.5515222979
  0
LINE
  5
5FF
100
AcDbEntity
  8
RACCORDO
100
AcDbLine
 62
250
  6
CONTINUOUS
 10
8.5104185485
 20
13.4027312695
 11
8.4846819578
 21
13.4034396633
  0
LINE
  5
600
100
AcDbEntity
  8
DRAFT
100
AcDbLine
 62
7
  6
CONTINUOUS
 10
10.1
 20
14.7373232745
 11
10.6
 21
14.7221944518
  0
LINE
  5
601
100
AcDbEntity
  8
RACCORDO
100
AcDbLine
 62
250
  6
CONTINUOUS
 10
8.4846819578
 20
13.4034396633
 11
8.4623416211
 21
13.404162267
  0
LINE
  5
602
100
AcDbEntity
  8
RACCORDO
100
AcDbLine
 62
250
  6
CONTINUOUS
 10
8.630737296
 20
13.5515222979
 11
8.6109442038
 21
13.5521811138
  0
LINE
  5
603
100
AcDbEntity
  8
RACCORDO
100
AcDbLine
 62
250
  6
CONTINUOUS
 10
8.4623416211
 20
13.404162267
 11
8.4430078375
 21
13.4048931336
  0
LINE
  5
604
100
AcDbEntity
  8
RACCORDO
100
AcDbLine
 62
250
  6
CONTINUOUS
 10
8.6109442038
 20
13.5521811138
 11
8.5936442193
 21
13.5528762556
  0
LINE
  5
605
100
AcDbEntity
  8
RACCORDO
100
AcDbLine
 62
250
  6
CONTINUOUS
 10
8.4430078375
 20
13.4048931336
 11
8.4262101938
 21
13.4056279818
  0
LWPOLYLINE
  5
606
100
AcDbEntity
  8
RACCORDO
100
AcDbPolyline
 62
250
  6
CONTINUOUS
 90
3
 70
0
 10
8.5936442193
 20
13.5528762556
 10
8.5786676088
 20
13.5535945967
 10
8.5719303441
 20
13.5539566914
  0
LINE
  5
607
100
AcDbEntity
  8
RACCORDO
100
AcDbLine
 62
7
  6
CONTINUOUS
 10
-10.5677407521
 20
14.6969203156
 11
-10.6
 21
14.6986109511
  0
LWPOLYLINE
  5
608
100
AcDbEntity
  8
RACCORDO
100
AcDbPolyline
 62
250
  6
CONTINUOUS
 90
13
 70
0
 10
8.4262101938
 20
13.4056279818
 10
8.4115587996
 20
13.4063697495
 10
8.404977696
 20
13.4067434263
 10
8.3988103954
 20
13.4071212655
 10
8.3930570082
 20
13.4075029417
 10
8.3877165753
 20
13.4078887803
 10
8.3827333524
 20
13.4082818967
 10
8.3781192614
 20
13.4086820732
 10
8.3738852515
 20
13.4090895275
 10
8.3700009473
 20
13.4095080279
 10
8.3664796919
 20
13.4099388305
 10
8.3633628199
 20
13.4103806791
 10
8.36067643
 20
13.4108335738
  0
LWPOLYLINE
  5
609
100
AcDbEntity
  8
RACCORDO
100
AcDbPolyline
 62
250
  6
CONTINUOUS
 90
17
 70
0
 10
8.5719303441
 20
13.5539566914
 10
8.5598547226
 20
13.554687562
 10
8.5544060782
 20
13.5550543187
 10
8.5493550257
 20
13.5554224082
 10
8.5446201639
 20
13.555792522
 10
8.5401930637
 20
13.556164179
 10
8.5360821542
 20
13.5565378603
 10
8.5322313214
 20
13.5569157007
 10
8.5286311307
 20
13.5572973701
 10
8.5252910167
 20
13.5576831986
 10
8.5221831693
 20
13.5580763124
 10
8.5192968544
 20
13.5584765029
 10
8.516642806
 20
13.5588839787
 10
8.5142254165
 20
13.5593024915
 10
8.5120461498
 20
13.5597332919
 10
8.510103542
 20
13.5601751294
 10
8.508397593
 20
13.560628004
  0
LWPOLYLINE
  5
60A
100
AcDbEntity
  8
0
100
AcDbPolyline
 62
7
  6
CONTINUOUS
 90
10
 70
0
 10
3.6448852159
 20
14.0335428839
 10
3.6034874587
 20
14.0376307315
 10
3.5620047959
 20
14.0403132397
 10
3.5204372275
 20
14.0415904083
 10
3.4788012144
 20
14.0414524753
 10
3.4370802957
 20
14.0399092027
 10
3.3952250888
 20
14.0369898773
 10
3.3532191328
 20
14.032704261
 10
3.3110788886
 20
14.0270425919
 10
3.2688043561
 20
14.0200048698
  0
LWPOLYLINE
  5
60B
100
AcDbEntity
  8
RACCORDO
100
AcDbPolyline
 62
250
  6
CONTINUOUS
 90
10
 70
0
 10
8.9909750246
 20
13.7271869658
 10
8.9811399984
 20
13.7288185736
 10
8.9675804623
 20
13.7303714721
 10
8.9505555708
 20
13.7318456612
 10
8.9302278237
 20
13.7332526157
 10
8.9069673762
 20
13.7345808609
 10
8.8815104166
 20
13.7357959721
 10
8.8543917225
 20
13.7368858516
 10
8.8259277149
 20
13.7378625971
 10
8.7674556484
 20
13.739472482
  0
LWPOLYLINE
  5
60C
100
AcDbEntity
  8
RACCORDO
100
AcDbPolyline
 62
250
  6
CONTINUOUS
 90
14
 70
0
 10
8.8432538616
 20
13.5773927124
 10
8.8360490969
 20
13.5790240199
 10
8.8266178897
 20
13.5805767324
 10
8.8149602402
 20
13.58205085
 10
8.800743357
 20
13.583457908
 10
8.7843000315
 20
13.5847863711
 10
8.7666286372
 20
13.5860016326
 10
8.7477531669
 20
13.5870915072
 10
8.727649628
 20
13.5880681803
 10
8.7072444161
 20
13.5889336021
 10
8.6869440944
 20
13.5896779899
 10
8.6663420999
 20
13.5903111264
 10
8.6451451386
 20
13.5908643094
 10
8.6012382924
 20
13.5917529194
  0
LINE
  5
60D
100
AcDbEntity
  8
RACCORDO
100
AcDbLine
 62
250
  6
CONTINUOUS
 10
8.36067643
 20
13.4108335738
 11
8.2468562183
 21
13.4446631358
  0
LINE
  5
60E
100
AcDbEntity
  8
RACCORDO
100
AcDbLine
 62
250
  6
CONTINUOUS
 10
8.508397593
 20
13.560628004
 11
8.4009945665
 21
13.5925502548
  0
LWPOLYLINE
  5
60F
100
AcDbEntity
  8
DRAFT
100
AcDbPolyline
 62
7
  6
CONTINUOUS
 90
3
 70
0
 10
9.4950979979
 20
11.7076485572
 10
9.5273327394
 20
11.6956847406
 10
9.54364068
 20
11.6895190681
  0
LINE
  5
610
100
AcDbEntity
  8
DRAFT
100
AcDbLine
 62
7
  6
CONTINUOUS
 10
9.54364068
 20
11.6895190681
 11
9.5765789843
 21
11.676816664
  0
LINE
  5
611
100
AcDbEntity
  8
DRAFT
100
AcDbLine
 62
7
  6
CONTINUOUS
 10
9.5765789843
 20
11.676816664
 11
9.6449489743
 21
11.65
  0
LWPOLYLINE
  5
612
100
AcDbEntity
  8
0
100
AcDbPolyline
 62
7
  6
CONTINUOUS
 90
42
 70
0
 10
3.9913031656
 20
14.3607144339
 10
4.0310019846
 20
14.3437572152
 10
4.0700611124
 20
14.3223910003
 10
4.108480549
 20
14.2966157891
 10
4.1471313319
 20
14.2658532491
 10
4.1851424236
 20
14.2306817129
 10
4.2199007121
 20
14.1928361781
 10
4.2508454009
 20
14.1519332305
 10
4.2785372865
 20
14.1083562842
 10
4.3020456473
 20
14.0649905789
 10
4.3206559699
 20
14.0225481351
 10
4.3350827677
 20
13.9803169322
 10
4.3465388597
 20
13.9390461483
 10
4.3550842097
 20
13.8989029927
 10
4.3606588538
 20
13.8597202562
 10
4.3642957192
 20
13.8217454883
 10
4.3661745842
 20
13.7850300704
 10
4.3661156704
 20
13.7495226212
 10
4.3646125692
 20
13.715316547
 10
4.3617170973
 20
13.6824537916
 10
4.357377438
 20
13.6508924111
 10
4.351931732
 20
13.6205999806
 10
4.3453919518
 20
13.591591122
 10
4.3377461248
 20
13.5638512134
 10
4.3292964742
 20
13.5373039638
 10
4.3200456647
 20
13.5119257531
 10
4.3099910315
 20
13.4877402014
 10
4.2994268035
 20
13.4647418772
 10
4.288376099
 20
13.442944576
 10
4.2768157998
 20
13.4223345024
 10
4.2649707796
 20
13.402864838
 10
4.2528607817
 20
13.3845639916
 10
4.2404660628
 20
13.3674035545
 10
4.2279522682
 20
13.3512514818
 10
4.215333604
 20
13.3361632826
 10
4.2025958639
 20
13.3220834479
 10
4.189862075
 20
13.3087134055
 10
4.1771481818
 20
13.296036533
 10
4.1644382396
 20
13.2840694529
 10
4.1518074414
 20
13.2725634601
 10
4.139280265
 20
13.2614207009
 10
4.1268322326
 20
13.2507390291
  0
LWPOLYLINE
  5
613
100
AcDbEntity
  8
0
100
AcDbPolyline
 62
7
  6
CONTINUOUS
 90
16
 70
0
 10
4.0407988352
 20
13.185528575
 10
4.0659888802
 20
13.1740239774
 10
4.0904252031
 20
13.1594244819
 10
4.1141078038
 20
13.1417300884
 10
4.1371407799
 20
13.1208628609
 10
4.1594200339
 20
13.0969007354
 10
4.1806332733
 20
13.0700775202
 10
4.2007627443
 20
13.0401799639
 10
4.2198262007
 20
13.0074213179
 10
4.2375646116
 20
12.9726751453
 10
4.2538228228
 20
12.9358528018
 10
4.2687559885
 20
12.8970429316
 10
4.2825705405
 20
12.8573850306
 10
4.2953352895
 20
12.8172589306
 10
4.3069814248
 20
12.7762847998
 10
4.3175089464
 20
12.7344626381
  0
LWPOLYLINE
  5
614
100
AcDbEntity
  8
RACCORDO
100
AcDbPolyline
 62
250
  6
CONTINUOUS
 90
16
 70
0
 10
9.5840895651
 20
-14.6969203156
 10
9.588612256
 20
-14.6927336407
 10
9.5929538537
 20
-14.6845390035
 10
9.5971143582
 20
-14.6725054733
 10
9.601116449
 20
-14.6568994664
 10
9.6049374466
 20
-14.6379170642
 10
9.6085093123
 20
-14.6155564697
 10
9.6118409702
 20
-14.5899465576
 10
9.6149234961
 20
-14.5613504115
 10
9.6176620799
 20
-14.5298705473
 10
9.620055349
 20
-14.4956978856
 10
9.6221046759
 20
-14.4591874386
 10
9.6237193678
 20
-14.4207136644
 10
9.6248691939
 20
-14.380665857
 10
9.6255843851
 20
-14.3394391447
 10
9.6258649413
 20
-14.2974685017
  0
LWPOLYLINE
  5
615
100
AcDbEntity
  8
RACCORDO
100
AcDbPolyline
 62
7
  6
CONTINUOUS
 90
19
 70
0
 10
9.1802601072
 20
-14.8400670064
 10
9.1774844856
 20
-14.8422343485
 10
9.1754822657
 20
-14.8464664404
 10
9.1742534476
 20
-14.8526343683
 10
9.173633274
 20
-14.860603544
 10
9.1737865022
 20
-14.8702118984
 10
9.1752074042
 20
-14.8812544471
 10
9.1778672673
 20
-14.8935366562
 10
9.1817948041
 20
-14.906879649
 10
9.187570425
 20
-14.9210793151
 10
9.1952988793
 20
-14.93610081
 10
9.2048754177
 20
-14.9516362362
 10
9.2165662019
 20
-14.967009219
 10
9.2305469355
 20
-14.9820567825
 10
9.246641915
 20
-14.9965756629
 10
9.2645901917
 20
-15.0097738642
 10
9.2843047828
 20
-15.0213116393
 10
9.3058726711
 20
-15.031332069
 10
9.3292938566
 20
-15.0397929133
  0
LWPOLYLINE
  5
616
100
AcDbEntity
  8
RACCORDO
100
AcDbPolyline
 62
250
  6
CONTINUOUS
 90
19
 70
0
 10
9.0838070899
 20
-13.6995956625
 10
9.0891833613
 20
-13.6960094258
 10
9.0942788741
 20
-13.6901413228
 10
9.0990936284
 20
-13.6819913534
 10
9.1036560761
 20
-13.6712150168
 10
9.1079377653
 20
-13.6581568138
 10
9.1118533397
 20
-13.6438502471
 10
9.1153582869
 20
-13.6284513174
 10
9.1184971194
 20
-13.6118040239
 10
9.1213180178
 20
-13.5944738665
 10
9.1238161079
 20
-13.5767104394
 10
9.1259962639
 20
-13.5582641484
 10
9.1279212898
 20
-13.5389517115
 10
9.1296233224
 20
-13.5188792462
 10
9.1310702249
 20
-13.4979406349
 10
9.1322283906
 20
-13.4756342439
 10
9.1330866174
 20
-13.4517928617
 10
9.1336561074
 20
-13.4265836996
 10
9.1339368607
 20
-13.4000067578
  0
LWPOLYLINE
  5
617
100
AcDbEntity
  8
RACCORDO
100
AcDbPolyline
 62
250
  6
CONTINUOUS
 90
16
 70
0
 10
9.4363690968
 20
-14.5471258854
 10
9.4408900175
 20
-14.5442987421
 10
9.4452306112
 20
-14.5392122993
 10
9.449390878
 20
-14.5318665571
 10
9.4533939825
 20
-14.5221736287
 10
9.4572167601
 20
-14.5102214008
 10
9.4607897169
 20
-14.4962735336
 10
9.4641209116
 20
-14.4802960054
 10
9.4672022855
 20
-14.4623228379
 10
9.4699401679
 20
-14.4427197559
 10
9.4723338171
 20
-14.4213914829
 10
9.4743839748
 20
-14.3984332955
 10
9.4759991947
 20
-14.3744967483
 10
9.4771489948
 20
-14.349799026
 10
9.4778638572
 20
-14.3241229438
 10
9.4781437817
 20
-14.2974685017
  0
LINE
  5
618
100
AcDbEntity
  8
RACCORDO
100
AcDbLine
 62
7
  6
CONTINUOUS
 10
9.2228673023
 20
-14.8234016825
 11
9.1802601072
 21
-14.8400670064
  0
LWPOLYLINE
  5
619
100
AcDbEntity
  8
RACCORDO
100
AcDbPolyline
 62
7
  6
CONTINUOUS
 90
3
 70
0
 10
9.2642138845
 20
-14.8074864604
 10
9.250527155
 20
-14.81270596
 10
9.2228673023
 20
-14.8234016825
  0
LWPOLYLINE
  5
61A
100
AcDbEntity
  8
RACCORDO
100
AcDbPolyline
 62
7
  6
CONTINUOUS
 90
3
 70
0
 10
9.3049020021
 20
-14.7923514428
 10
9.291412459
 20
-14.7973097593
 10
9.2642138845
 20
-14.8074864604
  0
LINE
  5
61B
100
AcDbEntity
  8
RACCORDO
100
AcDbLine
 62
250
  6
CONTINUOUS
 10
8.8432538616
 20
-13.5773927124
 11
8.9360860759
 21
-13.549801188
  0
LINE
  5
61C
100
AcDbEntity
  8
RACCORDO
100
AcDbLine
 62
250
  6
CONTINUOUS
 10
8.9909750246
 20
-13.7271871426
 11
9.0838070899
 21
-13.6995956625
  0
LINE
  5
61D
100
AcDbEntity
  8
RACCORDO
100
AcDbLine
 62
250
  6
CONTINUOUS
 10
8.9909750246
 20
-14.6795055934
 11
9.4363690968
 21
-14.5471258854
  0
LINE
  5
61E
100
AcDbEntity
  8
RACCORDO
100
AcDbLine
 62
250
  6
CONTINUOUS
 10
9.5840902598
 20
-14.6969203156
 11
9.1024704672
 21
-14.8400670064
  0
LINE
  5
61F
100
AcDbEntity
  8
RACCORDO
100
AcDbLine
 62
7
  6
CONTINUOUS
 10
-10.9645351961
 20
15.75
 11
-10.85
 21
15.75
  0
LINE
  5
620
100
AcDbEntity
  8
RACCORDO
100
AcDbLine
 62
7
  6
CONTINUOUS
 10
10.9645351961
 20
15.75
 11
10.85
 21
15.75
  0
LINE
  5
621
100
AcDbEntity
  8
DRAFT
100
AcDbLine
 62
7
  6
CONTINUOUS
 10
10.9828653412
 20
15.75
 11
10.9645351961
 21
15.75
  0
LINE
  5
622
100
AcDbEntity
  8
DRAFT
100
AcDbLine
 62
7
  6
CONTINUOUS
 10
-10.9828653412
 20
15.75
 11
-10.9645351961
 21
15.75
  0
LINE
  5
623
100
AcDbEntity
  8
ASSI
100
AcDbLine
 62
250
  6
CONTINUOUS
 10
-10.1333448768
 20
16.2875932838
 11
-9.4955892163
 21
16.2875932838
  0
LINE
  5
624
100
AcDbEntity
  8
RACCORDO
100
AcDbLine
 62
250
  6
CONTINUOUS
 10
10.25
 20
16.2875932838
 11
9.75
 21
16.2875932838
  0
LINE
  5
625
100
AcDbEntity
  8
0
100
AcDbLine
 62
250
  6
CONTINUOUS
 10
9.75
 20
16.2875932838
 11
-9.4955892163
 21
16.2875932838
  0
LINE
  5
626
100
AcDbEntity
  8
ASSI
100
AcDbLine
 62
250
  6
CONTINUOUS
 10
-10.0078927082
 20
16.4586033555
 11
-9.3064531633
 21
16.4586033555
  0
LINE
  5
627
100
AcDbEntity
  8
RACCORDO
100
AcDbLine
 62
250
  6
CONTINUOUS
 10
10.25
 20
16.4586033555
 11
9.7494736654
 21
16.4586033555
  0
LINE
  5
628
100
AcDbEntity
  8
0
100
AcDbLine
 62
250
  6
CONTINUOUS
 10
9.7494736654
 20
16.4586033555
 11
-9.3064531633
 21
16.4586033555
  0
LINE
  5
629
100
AcDbEntity
  8
RACCORDO
100
AcDbLine
 62
250
  6
CONTINUOUS
 10
-10.9645351961
 20
16.8321800738
 11
-10.38468937
 21
16.8321800738
  0
LINE
  5
62A
100
AcDbEntity
  8
RACCORDO
100
AcDbLine
 62
250
  6
CONTINUOUS
 10
-10.9602074393
 20
17.0291416244
 11
-10.406343002
 21
17.0291416244
  0
LINE
  5
62B
100
AcDbEntity
  8
0
100
AcDbLine
 62
250
  6
CONTINUOUS
 10
9.7453093601
 20
17.1138093746
 11
-9.0464804017
 21
17.1138093746
  0
LINE
  5
62C
100
AcDbEntity
  8
RACCORDO
100
AcDbLine
 62
250
  6
CONTINUOUS
 10
10.25
 20
17.1171534187
 11
9.7452898151
 21
17.1171534187
  0
LINE
  5
62D
100
AcDbEntity
  8
RACCORDO
100
AcDbLine
 62
250
  6
CONTINUOUS
 10
-9.0460819196
 20
17.1171534187
 11
-9.5049198291
 21
17.1171534187
  0
LINE
  5
62E
100
AcDbEntity
  8
RACCORDO
100
AcDbLine
 62
250
  6
CONTINUOUS
 10
-10.9229827449
 20
17.2797999005
 11
-10.4808434758
 21
17.2797999005
  0
LINE
  5
62F
100
AcDbEntity
  8
RACCORDO
100
AcDbLine
 62
250
  6
CONTINUOUS
 10
10.25
 20
17.2881634904
 11
9.7447634805
 21
17.2881634904
  0
LINE
  5
630
100
AcDbEntity
  8
0
100
AcDbLine
 62
250
  6
CONTINUOUS
 10
9.7447634805
 20
17.2881634904
 11
-9.0437443318
 21
17.2881634904
  0
LINE
  5
631
100
AcDbEntity
  8
RACCORDO
100
AcDbLine
 62
250
  6
CONTINUOUS
 10
-9.0437443318
 20
17.2881634904
 11
-9.5
 21
17.2881634904
  0
LINE
  5
632
100
AcDbEntity
  8
RACCORDO
100
AcDbLine
 62
250
  6
CONTINUOUS
 10
9.0838071306
 20
13.6995956504
 11
8.9909750246
 21
13.7271871426
  0
LINE
  5
633
100
AcDbEntity
  8
RACCORDO
100
AcDbLine
 62
250
  6
CONTINUOUS
 10
9.4363690968
 20
14.5471258854
 11
8.9909750246
 21
14.6795055934
  0
LINE
  5
634
100
AcDbEntity
  8
RACCORDO
100
AcDbLine
 62
250
  6
CONTINUOUS
 10
9.1024704672
 20
14.8400670064
 11
9.5840902598
 21
14.6969203156
  0
LWPOLYLINE
  5
635
100
AcDbEntity
  8
RACCORDO
100
AcDbPolyline
 62
7
  6
CONTINUOUS
 90
3
 70
0
 10
9.3049020021
 20
14.7923514428
 10
9.2778497531
 20
14.8023547652
 10
9.2642138845
 20
14.8074864604
  0
LINE
  5
636
100
AcDbEntity
  8
RACCORDO
100
AcDbLine
 62
7
  6
CONTINUOUS
 10
9.2642138845
 20
14.8074864604
 11
9.2367672626
 21
14.8180121489
  0
LWPOLYLINE
  5
637
100
AcDbEntity
  8
RACCORDO
100
AcDbPolyline
 62
7
  6
CONTINUOUS
 90
3
 70
0
 10
9.2367672626
 20
14.8180121489
 10
9.1946025737
 20
14.8344285538
 10
9.1802601072
 20
14.8400670064
  0
LINE
  5
638
100
AcDbEntity
  8
DRAFT
100
AcDbLine
 62
7
  6
CONTINUOUS
 10
9.9473059106
 20
-14.8517623275
 11
10.1
 21
-14.7373232745
  0
LWPOLYLINE
  5
639
100
AcDbEntity
  8
RACCORDO
100
AcDbPolyline
 62
250
  6
CONTINUOUS
 90
13
 70
0
 10
-10.406343002
 20
17.0291416244
 10
-10.3674621661
 20
17.031988513
 10
-10.3292389271
 20
17.0397841087
 10
-10.2923197601
 20
17.0523965637
 10
-10.2573290839
 20
17.0696125617
 10
-10.2248587008
 20
17.0911409261
 10
-10.1954577868
 20
17.1166175447
 10
-10.1696236037
 20
17.1456115279
 10
-10.1477930886
 20
17.1776324966
 10
-10.1303354641
 20
17.2121388755
 10
-10.1175459932
 20
17.2485470536
 10
-10.1096409862
 20
17.2862412543
 10
-10.1067541415
 20
17.3245839503
  0
LWPOLYLINE
  5
63A
100
AcDbEntity
  8
RACCORDO
100
AcDbPolyline
 62
250
  6
CONTINUOUS
 90
13
 70
0
 10
-10.4808434758
 20
17.2797999005
 10
-10.441961686
 20
17.2826469189
 10
-10.4037376885
 20
17.2904428464
 10
-10.3668179865
 20
17.303055767
 10
-10.3318269959
 20
17.3202723029
 10
-10.29935653
 20
17.3418012042
 10
-10.2699557794
 20
17.3672782599
 10
-10.2441219624
 20
17.3962725036
 10
-10.2222919422
 20
17.4282935083
 10
-10.2048348712
 20
17.4627996449
 10
-10.1920459214
 20
17.4992072768
 10
-10.1841413022
 20
17.5369006372
 10
-10.1812546154
 20
17.5752422264
  0
LINE
  5
63B
100
AcDbEntity
  8
RACCORDO
100
AcDbLine
 62
250
  6
CONTINUOUS
 10
-10.9121633529
 20
17.772203777
 11
-10.1899160682
 21
17.772203777
  0
LINE
  5
63C
100
AcDbEntity
  8
DRAFT
100
AcDbLine
 62
7
  6
CONTINUOUS
 10
9.9473059106
 20
14.8517623275
 11
10.1
 21
14.7373232745
  0
LINE
  5
63D
100
AcDbEntity
  8
RACCORDO
100
AcDbLine
 62
250
  6
CONTINUOUS
 10
-10.1899160682
 20
20.227796223
 11
-10.9121633529
 21
20.227796223
  0
LINE
  5
63E
100
AcDbEntity
  8
RACCORDO
100
AcDbLine
 62
250
  6
CONTINUOUS
 10
-10.4808434758
 20
20.7202000995
 11
-10.9229827449
 21
20.7202000995
  0
LINE
  5
63F
100
AcDbEntity
  8
RACCORDO
100
AcDbLine
 62
250
  6
CONTINUOUS
 10
-10.406343002
 20
20.9708583756
 11
-10.9602074393
 21
20.9708583756
  0
LINE
  5
640
100
AcDbEntity
  8
RACCORDO
100
AcDbLine
 62
250
  6
CONTINUOUS
 10
-10.38468937
 20
21.1678199262
 11
-10.9645351961
 21
21.1678199262
  0
LWPOLYLINE
  5
641
100
AcDbEntity
  8
RACCORDO
100
AcDbPolyline
 62
250
  6
CONTINUOUS
 90
13
 70
0
 10
-10.4808434758
 20
20.7202000995
 10
-10.4419626399
 20
20.7173532109
 10
-10.4037394009
 20
20.7095576151
 10
-10.3668202339
 20
20.6969451602
 10
-10.3318295577
 20
20.6797291622
 10
-10.2993591746
 20
20.6582007978
 10
-10.2699582607
 20
20.6327241792
 10
-10.2441240776
 20
20.6037301959
 10
-10.2222935625
 20
20.5717092273
 10
-10.2048359379
 20
20.5372028483
 10
-10.1920464671
 20
20.5007946702
 10
-10.1841414601
 20
20.4631004696
 10
-10.1812546154
 20
20.4247577736
  0
LWPOLYLINE
  5
642
100
AcDbEntity
  8
RACCORDO
100
AcDbPolyline
 62
250
  6
CONTINUOUS
 90
13
 70
0
 10
-10.406343002
 20
20.9708583756
 10
-10.3674620777
 20
20.9680114749
 10
-10.3292387665
 20
20.9602158477
 10
-10.2923195462
 20
20.9476033477
 10
-10.2573288348
 20
20.9303872954
 10
-10.2248584374
 20
20.908858874
 10
-10.1954575351
 20
20.8833822073
 10
-10.1696233853
 20
20.8543881927
 10
-10.147792918
 20
20.8223672147
 10
-10.1303353499
 20
20.7878608571
 10
-10.1175459343
 20
20.7514527355
 10
-10.1096409691
 20
20.7137586249
 10
-10.1067541415
 20
20.6754160497
  0
LINE
  5
643
100
AcDbEntity
  8
RACCORDO
100
AcDbLine
 62
7
  6
CONTINUOUS
 10
9.4948015567
 20
24.9947634805
 11
-9.4948015567
 21
24.9947634805
  0
LINE
  5
644
100
AcDbEntity
  8
0
100
AcDbLine
 62
7
  6
CONTINUOUS
 10
9.4948015567
 20
24.9947634805
 11
-9.4948015567
 21
24.9947634805
  0
LINE
  5
645
100
AcDbEntity
  8
RACCORDO
100
AcDbLine
 62
7
  6
CONTINUOUS
 10
9.75
 20
25.5
 11
-9.75
 21
25.5
  0
LINE
  5
646
100
AcDbEntity
  8
RACCORDO
100
AcDbLine
 62
7
  6
CONTINUOUS
 10
-10.5154079535
 20
26.2216232767
 11
10.5154079535
 21
26.2216232767
  0
LINE
  5
647
100
AcDbEntity
  8
RACCORDO
100
AcDbLine
 62
7
  6
CONTINUOUS
 10
-10.5337380986
 20
26.2828653412
 11
10.5337380986
 21
26.2828653412
  0
LINE
  5
648
100
AcDbEntity
  8
0
100
AcDbLine
 62
7
  6
CONTINUOUS
 10
-10.5347065336
 20
26.3345351961
 11
10.5347065336
 21
26.3345351961
  0
ARC
  5
649
100
AcDbEntity
  8
RACCORDO
100
AcDbCircle
 62
7
  6
CONTINUOUS
 10
-9.75
 20
-25.0
 40
0.5
100
AcDbArc
 50
180.0
 51
270.0
  0
ARC
  5
64A
100
AcDbEntity
  8
RACCORDO
100
AcDbCircle
 62
7
  6
CONTINUOUS
 10
-4.75
 20
-11.8
 40
0.5
100
AcDbArc
 50
90.0
 51
180.0
  0
ARC
  5
64B
100
AcDbEntity
  8
RACCORDO
100
AcDbCircle
 62
7
  6
CONTINUOUS
 10
-4.75
 20
-14.8
 40
0.5
100
AcDbArc
 50
180.0
 51
270.0
  0
ARC
  5
64C
100
AcDbEntity
  8
RACCORDO
100
AcDbCircle
 62
7
  6
CONTINUOUS
 10
-9.4
 20
-11.7
 40
0.25
100
AcDbArc
 50
73.5711433396
 51
168.4630409672
  0
ARC
  5
64D
100
AcDbEntity
  8
RACCORDO
100
AcDbCircle
 62
7
  6
CONTINUOUS
 10
-9.4
 20
-14.8
 40
0.25
100
AcDbArc
 50
191.5369590328
 51
286.4288566604
  0
ARC
  5
64E
100
AcDbEntity
  8
RACCORDO
100
AcDbCircle
 62
7
  6
CONTINUOUS
 10
-10.85
 20
-10.95
 40
0.2
100
AcDbArc
 50
0.0
 51
90.0
  0
ARC
  5
64F
100
AcDbEntity
  8
RACCORDO
100
AcDbCircle
 62
7
  6
CONTINUOUS
 10
-10.85
 20
-15.55
 40
0.2
100
AcDbArc
 50
270.0
 51
360.0
  0
ARC
  5
650
100
AcDbEntity
  8
DRAFT
100
AcDbCircle
 62
7
  6
CONTINUOUS
 10
-9.4
 20
-11.7
 40
0.0954050818
100
AcDbArc
 50
355.4017036847
 51
184.5982963153
  0
ARC
  5
651
100
AcDbEntity
  8
DRAFT
100
AcDbCircle
 62
7
  6
CONTINUOUS
 10
-9.4
 20
-14.8
 40
0.0954050818
100
AcDbArc
 50
175.4017036847
 51
4.5982963153
  0
CIRCLE
  5
652
100
AcDbEntity
  8
ASSI
100
AcDbCircle
 62
7
  6
CONTINUOUS
 10
-7.0
 20
22.4
 40
2.0
  0
CIRCLE
  5
653
100
AcDbEntity
  8
ASSI
100
AcDbCircle
 62
7
  6
CONTINUOUS
 10
-7.0
 20
22.4
 40
1.7
  0
ARC
  5
654
100
AcDbEntity
  8
ASSI
100
AcDbCircle
 62
7
  6
CONTINUOUS
 10
-9.35
 20
15.8444558288
 40
0.9
100
AcDbArc
 50
122.0899512562
 51
150.5031999686
  0
ARC
  5
655
100
AcDbEntity
  8
RACCORDO
100
AcDbCircle
 62
7
  6
CONTINUOUS
 10
-9.35
 20
22.1555441712
 40
0.9
100
AcDbArc
 50
180.0
 51
237.9100487437
  0
ARC
  5
656
100
AcDbEntity
  8
ASSI
100
AcDbCircle
 62
7
  6
CONTINUOUS
 10
-10.2
 20
17.2
 40
0.7
100
AcDbArc
 50
302.0899512564
 51
360.0
  0
ARC
  5
657
100
AcDbEntity
  8
RACCORDO
100
AcDbCircle
 62
7
  6
CONTINUOUS
 10
-10.2
 20
20.8
 40
0.7
100
AcDbArc
 50
0.0
 51
57.9100487437
  0
ARC
  5
658
100
AcDbEntity
  8
RACCORDO
100
AcDbCircle
 62
7
  6
CONTINUOUS
 10
-9.75
 20
25.0
 40
0.5
100
AcDbArc
 50
90.0
 51
180.0
  0
ARC
  5
659
100
AcDbEntity
  8
RACCORDO
100
AcDbCircle
 62
7
  6
CONTINUOUS
 10
-4.75
 20
8.7
 40
0.5
100
AcDbArc
 50
180.0
 51
270.0
  0
ARC
  5
65A
100
AcDbEntity
  8
RACCORDO
100
AcDbCircle
 62
7
  6
CONTINUOUS
 10
-4.75
 20
14.7
 40
0.5
100
AcDbArc
 50
90.0
 51
180.0
  0
ARC
  5
65B
100
AcDbEntity
  8
RACCORDO
100
AcDbCircle
 62
7
  6
CONTINUOUS
 10
-9.4
 20
11.7
 40
0.25
100
AcDbArc
 50
191.5369590328
 51
286.4288566604
  0
ARC
  5
65C
100
AcDbEntity
  8
RACCORDO
100
AcDbCircle
 62
7
  6
CONTINUOUS
 10
-9.4
 20
14.8
 40
0.25
100
AcDbArc
 50
73.5711433396
 51
168.4630409672
  0
ARC
  5
65D
100
AcDbEntity
  8
RACCORDO
100
AcDbCircle
 62
7
  6
CONTINUOUS
 10
-10.85
 20
15.55
 40
0.2
100
AcDbArc
 50
0.0
 51
90.0
  0
ARC
  5
65E
100
AcDbEntity
  8
RACCORDO
100
AcDbCircle
 62
7
  6
CONTINUOUS
 10
-10.85
 20
10.95
 40
0.2
100
AcDbArc
 50
270.0
 51
360.0
  0
ARC
  5
65F
100
AcDbEntity
  8
DRAFT
100
AcDbCircle
 62
7
  6
CONTINUOUS
 10
-9.4
 20
11.7
 40
0.0954050818
100
AcDbArc
 50
175.4017036847
 51
4.5982963153
  0
ARC
  5
660
100
AcDbEntity
  8
DRAFT
100
AcDbCircle
 62
7
  6
CONTINUOUS
 10
-9.4
 20
14.8
 40
0.0954050818
100
AcDbArc
 50
355.4017036847
 51
184.5982963153
  0
CIRCLE
  5
661
100
AcDbEntity
  8
ASSI
100
AcDbCircle
 62
7
  6
CONTINUOUS
 10
7.0
 20
-22.4
 40
2.0
  0
CIRCLE
  5
662
100
AcDbEntity
  8
ASSI
100
AcDbCircle
 62
7
  6
CONTINUOUS
 10
7.0
 20
-22.4
 40
1.7
  0
ARC
  5
663
100
AcDbEntity
  8
RACCORDO
100
AcDbCircle
 62
7
  6
CONTINUOUS
 10
9.75
 20
-25.0
 40
0.5
100
AcDbArc
 50
270.0
 51
360.0
  0
ARC
  5
664
100
AcDbEntity
  8
RACCORDO
100
AcDbCircle
 62
7
  6
CONTINUOUS
 10
4.75
 20
-11.8
 40
0.5
100
AcDbArc
 50
0.0
 51
90.0
  0
ARC
  5
665
100
AcDbEntity
  8
RACCORDO
100
AcDbCircle
 62
7
  6
CONTINUOUS
 10
4.75
 20
-14.8
 40
0.5
100
AcDbArc
 50
270.0
 51
360.0
  0
ARC
  5
666
100
AcDbEntity
  8
RACCORDO
100
AcDbCircle
 62
7
  6
CONTINUOUS
 10
9.4
 20
-11.7
 40
0.25
100
AcDbArc
 50
11.5369590328
 51
106.4288566604
  0
ARC
  5
667
100
AcDbEntity
  8
RACCORDO
100
AcDbCircle
 62
7
  6
CONTINUOUS
 10
9.4
 20
-14.8
 40
0.25
100
AcDbArc
 50
253.5711433396
 51
348.4630409672
  0
ARC
  5
668
100
AcDbEntity
  8
RACCORDO
100
AcDbCircle
 62
7
  6
CONTINUOUS
 10
10.85
 20
-15.55
 40
0.2
100
AcDbArc
 50
180.0
 51
270.0
  0
ARC
  5
669
100
AcDbEntity
  8
RACCORDO
100
AcDbCircle
 62
7
  6
CONTINUOUS
 10
10.85
 20
-10.95
 40
0.2
100
AcDbArc
 50
90.0
 51
180.0
  0
ARC
  5
66A
100
AcDbEntity
  8
DRAFT
100
AcDbCircle
 62
7
  6
CONTINUOUS
 10
9.4
 20
-11.7
 40
0.0954050818
100
AcDbArc
 50
355.4017036847
 51
184.5982963153
  0
ARC
  5
66B
100
AcDbEntity
  8
DRAFT
100
AcDbCircle
 62
7
  6
CONTINUOUS
 10
9.4
 20
-14.8
 40
0.0954050818
100
AcDbArc
 50
175.4017036847
 51
4.5982963153
  0
ARC
  5
66C
100
AcDbEntity
  8
RACCORDO
100
AcDbCircle
 62
7
  6
CONTINUOUS
 10
9.75
 20
25.0
 40
0.5
100
AcDbArc
 50
0.0
 51
90.0
  0
ARC
  5
66D
100
AcDbEntity
  8
RACCORDO
100
AcDbCircle
 62
7
  6
CONTINUOUS
 10
4.75
 20
8.7
 40
0.5
100
AcDbArc
 50
270.0
 51
360.0
  0
ARC
  5
66E
100
AcDbEntity
  8
RACCORDO
100
AcDbCircle
 62
7
  6
CONTINUOUS
 10
4.75
 20
14.7
 40
0.5
100
AcDbArc
 50
0.0
 51
90.0
  0
ARC
  5
66F
100
AcDbEntity
  8
RACCORDO
100
AcDbCircle
 62
7
  6
CONTINUOUS
 10
9.4
 20
11.7
 40
0.25
100
AcDbArc
 50
253.5711433396
 51
348.4630409672
  0
ARC
  5
670
100
AcDbEntity
  8
RACCORDO
100
AcDbCircle
 62
7
  6
CONTINUOUS
 10
9.4
 20
14.8
 40
0.25
100
AcDbArc
 50
11.5369590328
 51
106.4288566604
  0
ARC
  5
671
100
AcDbEntity
  8
RACCORDO
100
AcDbCircle
 62
7
  6
CONTINUOUS
 10
10.85
 20
10.95
 40
0.2
100
AcDbArc
 50
180.0
 51
270.0
  0
ARC
  5
672
100
AcDbEntity
  8
RACCORDO
100
AcDbCircle
 62
7
  6
CONTINUOUS
 10
10.85
 20
15.55
 40
0.2
100
AcDbArc
 50
90.0
 51
180.0
  0
ARC
  5
673
100
AcDbEntity
  8
DRAFT
100
AcDbCircle
 62
7
  6
CONTINUOUS
 10
9.4
 20
11.7
 40
0.0954050818
100
AcDbArc
 50
175.4017036847
 51
4.5982963153
  0
ARC
  5
674
100
AcDbEntity
  8
DRAFT
100
AcDbCircle
 62
7
  6
CONTINUOUS
 10
9.4
 20
14.8
 40
0.0954050818
100
AcDbArc
 50
355.4017036847
 51
184.5982963153
  0
ELLIPSE
  5
675
100
AcDbEntity
  8
RACCORDO
100
AcDbEllipse
 62
7
  6
CONTINUOUS
 10
-10.5343637998
 20
-25.8343637998
 30
0.0
 11
0.35379574
 21
0.35379574
 31
0.0
 40
0.999315002
 41
-3.9266482006
 42
-2.3565371065
  0
ELLIPSE
  5
676
100
AcDbEntity
  8
RACCORDO
100
AcDbEllipse
 62
7
  6
CONTINUOUS
 10
-10.5343637998
 20
25.8343637998
 30
0.0
 11
-0.35379574
 21
0.35379574
 31
0.0
 40
0.999315002
 41
-0.7850555471
 42
0.7850555471
  0
ELLIPSE
  5
677
100
AcDbEntity
  8
RACCORDO
100
AcDbEllipse
 62
7
  6
CONTINUOUS
 10
10.5343637998
 20
25.8343637998
 30
0.0
 11
0.35379574
 21
0.35379574
 31
0.0
 40
0.999315002
 41
-0.7850555471
 42
0.7850555471
  0
ELLIPSE
  5
678
100
AcDbEntity
  8
RACCORDO
100
AcDbEllipse
 62
7
  6
CONTINUOUS
 10
10.5343637998
 20
-25.8343637998
 30
0.0
 11
0.35379574
 21
-0.35379574
 31
0.0
 40
0.999315002
 41
-0.7850555471
 42
0.7850555471
  0
ELLIPSE
  5
679
100
AcDbEntity
  8
RACCORDO
100
AcDbEllipse
 62
7
  6
CONTINUOUS
 10
10.5143809395
 20
-25.7699043498
 30
0.0
 11
-0.1295691639
 21
0.4328979966
 31
0.0
 40
0.9958559188
 41
2.8519110196
 42
4.4204258731
  0
ELLIPSE
  5
67A
100
AcDbEntity
  8
RACCORDO
100
AcDbEllipse
 62
7
  6
CONTINUOUS
 10
-10.5143809395
 20
-25.7699043498
 30
0.0
 11
0.1295691639
 21
0.4328979966
 31
0.0
 40
0.9958559188
 41
1.8627594341
 42
3.4312742875
  0
ELLIPSE
  5
67B
100
AcDbEntity
  8
RACCORDO
100
AcDbEllipse
 62
7
  6
CONTINUOUS
 10
-10.5143809395
 20
25.7699043498
 30
0.0
 11
0.1295691639
 21
-0.4328979966
 31
0.0
 40
0.9958559188
 41
2.8519110196
 42
4.4204258731
  0
ELLIPSE
  5
67C
100
AcDbEntity
  8
RACCORDO
100
AcDbEllipse
 62
7
  6
CONTINUOUS
 10
10.5143809395
 20
25.7699043498
 30
0.0
 11
-0.1295691639
 21
-0.4328979966
 31
0.0
 40
0.9958559188
 41
1.8627594341
 42
3.4312742875
  0
ELLIPSE
  5
67D
100
AcDbEntity
  8
RACCORDO
100
AcDbEllipse
 62
7
  6
CONTINUOUS
 10
9.7412724675
 20
16.2875932838
 30
0.0
 11
0.0
 21
0.5
 31
0.0
 40
0.0174550649
 41
4.7123889804
 42
5.0614548308
  0
ELLIPSE
  5
67E
100
AcDbEntity
  8
RACCORDO
100
AcDbEllipse
 62
7
  6
CONTINUOUS
 10
9.7412724675
 20
-16.2875932838
 30
0.0
 11
0.0
 21
0.5
 31
0.0
 40
0.0174550649
 41
-1.9198621772
 42
-1.5707963268
  0
ELLIPSE
  5
67F
100
AcDbEntity
  8
RACCORDO
100
AcDbEllipse
 62
7
  6
CONTINUOUS
 10
-9.7412724675
 20
-16.2875932838
 30
0.0
 11
-0.0
 21
0.5
 31
0.0
 40
0.0174550649
 41
-4.7123889804
 42
-4.36332313
  0
ELLIPSE
  5
680
100
AcDbEntity
  8
RACCORDO
100
AcDbEllipse
 62
7
  6
CONTINUOUS
 10
9.753491013
 20
-17.2881634904
 30
0.0
 11
0.0
 21
0.5
 31
0.0
 40
0.0174550649
 41
1.2217304764
 42
1.5707963268
  0
ELLIPSE
  5
681
100
AcDbEntity
  8
RACCORDO
100
AcDbEllipse
 62
7
  6
CONTINUOUS
 10
-9.753491013
 20
-17.2881634904
 30
0.0
 11
-0.0
 21
0.5
 31
0.0
 40
0.0174550649
 41
-1.5707963268
 42
-1.2217304764
  0
ELLIPSE
  5
682
100
AcDbEntity
  8
RACCORDO
100
AcDbEllipse
 62
7
  6
CONTINUOUS
 10
9.753491013
 20
17.2881634904
 30
0.0
 11
0.0
 21
0.5
 31
0.0
 40
0.0174550649
 41
1.5707963268
 42
1.9198621772
  0
ELLIPSE
  5
683
100
AcDbEntity
  8
RACCORDO
100
AcDbEllipse
 62
7
  6
CONTINUOUS
 10
-10.9252563137
 20
20.227796223
 30
0.0
 11
-0.0
 21
0.5
 31
0.0
 40
0.0261859216
 41
-1.5707963268
 42
-0.1745329252
  0
ELLIPSE
  5
684
100
AcDbEntity
  8
RACCORDO
100
AcDbEllipse
 62
7
  6
CONTINUOUS
 10
-10.9252563137
 20
17.772203777
 30
0.0
 11
-0.0
 21
0.5
 31
0.0
 40
0.0261859216
 41
-2.9670597284
 42
-1.5707963268
  0
ELLIPSE
  5
685
100
AcDbEntity
  8
RACCORDO
100
AcDbEllipse
 62
7
  6
CONTINUOUS
 10
10.5327110846
 20
-25.8311464143
 30
0.0
 11
-0.1295691639
 21
0.4328979966
 31
0.0
 40
0.9958559188
 41
-3.4312742875
 42
-1.8627594341
  0
ELLIPSE
  5
686
100
AcDbEntity
  8
RACCORDO
100
AcDbEllipse
 62
7
  6
CONTINUOUS
 10
-10.5327110846
 20
-25.8311464143
 30
0.0
 11
0.1295691639
 21
0.4328979966
 31
0.0
 40
0.9958559188
 41
-4.4204258731
 42
-2.8519110196
  0
ELLIPSE
  5
687
100
AcDbEntity
  8
RACCORDO
100
AcDbEllipse
 62
7
  6
CONTINUOUS
 10
-10.5327110846
 20
25.8311464143
 30
0.0
 11
-0.1295691639
 21
0.4328979966
 31
0.0
 40
0.9958559188
 41
-0.289681634
 42
1.2788332195
  0
ELLIPSE
  5
688
100
AcDbEntity
  8
RACCORDO
100
AcDbEllipse
 62
7
  6
CONTINUOUS
 10
10.5327110846
 20
25.8311464143
 30
0.0
 11
0.1295691639
 21
0.4328979966
 31
0.0
 40
0.9958559188
 41
-1.2788332195
 42
0.289681634
  0
ELLIPSE
  5
689
100
AcDbEntity
  8
RACCORDO
100
AcDbEllipse
 62
7
  6
CONTINUOUS
 10
-10.9592980118
 20
21.1678199262
 30
0.0
 11
0.0
 21
0.2
 31
0.0
 40
0.0261859216
 41
-4.7123889804
 42
-3.3161255788
  0
ELLIPSE
  5
68A
100
AcDbEntity
  8
RACCORDO
100
AcDbEllipse
 62
7
  6
CONTINUOUS
 10
-10.9592980118
 20
16.8321800738
 30
0.0
 11
0.0
 21
0.2
 31
0.0
 40
0.0261859216
 41
0.1745329252
 42
1.5707963268
  0
ELLIPSE
  5
68B
100
AcDbEntity
  8
RACCORDO
100
AcDbEllipse
 62
7
  6
CONTINUOUS
 10
-9.4947253985
 20
-24.7447253985
 30
0.0
 11
0.1768305473
 21
0.1768305473
 31
0.0
 40
0.9996954599
 41
-3.9268385237
 42
-2.3563467834
  0
ELLIPSE
  5
68C
100
AcDbEntity
  8
RACCORDO
100
AcDbEllipse
 62
7
  6
CONTINUOUS
 10
-9.4947253985
 20
24.7447253985
 30
0.0
 11
-0.1768305473
 21
0.1768305473
 31
0.0
 40
0.9996954599
 41
-0.7852458701
 42
0.7852458701
  0
ELLIPSE
  5
68D
100
AcDbEntity
  8
RACCORDO
100
AcDbEllipse
 62
7
  6
CONTINUOUS
 10
9.4947253985
 20
24.7447253985
 30
0.0
 11
0.1768305473
 21
0.1768305473
 31
0.0
 40
0.9996954599
 41
-0.7852458701
 42
0.7852458701
  0
ELLIPSE
  5
68E
100
AcDbEntity
  8
RACCORDO
100
AcDbEllipse
 62
7
  6
CONTINUOUS
 10
9.4947253985
 20
-24.7447253985
 30
0.0
 11
0.1768305473
 21
-0.1768305473
 31
0.0
 40
0.9996954599
 41
-0.7852458701
 42
0.7852458701
  0
ELLIPSE
  5
68F
100
AcDbEntity
  8
RACCORDO
100
AcDbEllipse
 62
7
  6
CONTINUOUS
 10
-9.2446873165
 20
22.1553126835
 30
0.0
 11
0.3536610946
 21
0.3536610946
 31
0.0
 40
0.9996954599
 41
2.3563467834
 42
3.3637641196
  0
ELLIPSE
  5
690
100
AcDbEntity
  8
RACCORDO
100
AcDbEllipse
 62
7
  6
CONTINUOUS
 10
-9.249923836
 20
15.849923836
 30
0.0
 11
0.3536610946
 21
-0.3536610946
 31
0.0
 40
0.9996954599
 41
-2.9010991506
 42
-2.3563467834
  0
ELLIPSE
  5
691
100
AcDbEntity
  8
RACCORDO
100
AcDbEllipse
 62
7
  6
CONTINUOUS
 10
-9.249923836
 20
15.849923836
 30
0.0
 11
-0.3536610946
 21
0.3536610946
 31
0.0
 40
0.9996954599
 41
0.2073152066
 42
0.240493503
  0
ELLIPSE
  5
692
100
AcDbEntity
  8
RACCORDO
100
AcDbEllipse
 62
7
  6
CONTINUOUS
 10
-9.249923836
 20
15.849923836
 30
0.0
 11
0.3536610946
 21
-0.3536610946
 31
0.0
 40
0.9996954599
 41
-3.0127884774
 42
-2.934277447
  0
ELLIPSE
  5
693
100
AcDbEntity
  8
RACCORDO
100
AcDbEllipse
 62
7
  6
CONTINUOUS
 10
-9.249923836
 20
15.849923836
 30
0.0
 11
-0.3536610946
 21
0.3536610946
 31
0.0
 40
0.9996954599
 41
0.0512976241
 42
0.1288041761
  0
ELLIPSE
  5
694
100
AcDbEntity
  8
RACCORDO
100
AcDbEllipse
 62
7
  6
CONTINUOUS
 10
-9.249923836
 20
15.849923836
 30
0.0
 11
0.3536610946
 21
-0.3536610946
 31
0.0
 40
0.9996954599
 41
2.9360692234
 42
3.1928902777
  0
ELLIPSE
  5
695
100
AcDbEntity
  8
0
100
AcDbEllipse
 62
7
  6
CONTINUOUS
 10
-9.4947253985
 20
24.7447253985
 30
0.0
 11
-0.1768305473
 21
0.1768305473
 31
0.0
 40
0.9996954599
 41
-0.7852458701
 42
0.7852458701
  0
ELLIPSE
  5
696
100
AcDbEntity
  8
0
100
AcDbEllipse
 62
7
  6
CONTINUOUS
 10
9.4947253985
 20
24.7447253985
 30
0.0
 11
0.1768305473
 21
0.1768305473
 31
0.0
 40
0.9996954599
 41
-0.7852458701
 42
0.7852458701
  0
ELLIPSE
  5
697
100
AcDbEntity
  8
0
100
AcDbEllipse
 62
7
  6
CONTINUOUS
 10
-9.249923836
 20
15.849923836
 30
0.0
 11
0.3536610946
 21
-0.3536610946
 31
0.0
 40
0.9996954599
 41
2.9360692229
 42
3.9268385237
  0
ELLIPSE
  5
698
100
AcDbEntity
  8
0
100
AcDbEllipse
 62
7
  6
CONTINUOUS
 10
9.7412724675
 20
-16.2875932838
 30
0.0
 11
0.0
 21
0.5
 31
0.0
 40
0.0174550649
 41
-1.9198621772
 42
-1.5707963268
  0
ELLIPSE
  5
699
100
AcDbEntity
  8
0
100
AcDbEllipse
 62
7
  6
CONTINUOUS
 10
-9.7412724675
 20
-16.2875932838
 30
0.0
 11
0.0
 21
0.5
 31
0.0
 40
0.0174550649
 41
-4.7123889804
 42
-4.36332313
  0
ELLIPSE
  5
69A
100
AcDbEntity
  8
0
100
AcDbEllipse
 62
7
  6
CONTINUOUS
 10
9.753491013
 20
-17.2881634904
 30
0.0
 11
0.0
 21
0.5
 31
0.0
 40
0.0174550649
 41
1.2217304764
 42
1.5707963268
  0
ELLIPSE
  5
69B
100
AcDbEntity
  8
0
100
AcDbEllipse
 62
7
  6
CONTINUOUS
 10
-9.753491013
 20
-17.2881634904
 30
0.0
 11
-0.0
 21
0.5
 31
0.0
 40
0.0174550649
 41
-1.5707963268
 42
-1.2217304764
  0
ELLIPSE
  5
69C
100
AcDbEntity
  8
0
100
AcDbEllipse
 62
7
  6
CONTINUOUS
 10
-9.4947253985
 20
-24.7447253985
 30
0.0
 11
0.1768305473
 21
0.1768305473
 31
0.0
 40
0.9996954599
 41
-3.9268385237
 42
-2.3563467834
  0
ELLIPSE
  5
69D
100
AcDbEntity
  8
0
100
AcDbEllipse
 62
7
  6
CONTINUOUS
 10
9.4947253985
 20
-24.7447253985
 30
0.0
 11
0.1768305473
 21
-0.1768305473
 31
0.0
 40
0.9996954599
 41
-0.7852458701
 42
0.7852458701
  0
ELLIPSE
  5
69E
100
AcDbEntity
  8
RACCORDO
100
AcDbEllipse
 62
7
  6
CONTINUOUS
 10
-10.5886751346
 20
-14.2974685017
 30
0.0
 11
0.0
 21
0.4
 31
0.0
 40
1.0
 41
-3.089232776
 42
-1.5707963268
  0
ELLIPSE
  5
69F
100
AcDbEntity
  8
RACCORDO
100
AcDbEllipse
 62
7
  6
CONTINUOUS
 10
-10.5886751346
 20
-12.2025314983
 30
0.0
 11
0.0
 21
0.4
 31
0.0
 40
1.0
 41
-1.5707963268
 42
-0.0523598776
  0
ELLIPSE
  5
6A0
100
AcDbEntity
  8
RACCORDO
100
AcDbEllipse
 62
7
  6
CONTINUOUS
 10
10.5886751346
 20
14.2974685017
 30
0.0
 11
-0.0
 21
0.4
 31
0.0
 40
1.0
 41
0.0523598776
 42
1.5707963268
  0
ELLIPSE
  5
6A1
100
AcDbEntity
  8
RACCORDO
100
AcDbEllipse
 62
7
  6
CONTINUOUS
 10
10.5886751346
 20
12.2025314983
 30
0.0
 11
0.0
 21
0.4
 31
0.0
 40
1.0
 41
-4.7123889804
 42
-3.1939525311
  0
ELLIPSE
  5
6A2
100
AcDbEntity
  8
RACCORDO
100
AcDbEllipse
 62
7
  6
CONTINUOUS
 10
-10.5886751346
 20
14.2974685017
 30
0.0
 11
0.0
 21
0.4
 31
0.0
 40
1.0
 41
-1.5707963268
 42
-0.0523598776
  0
ELLIPSE
  5
6A3
100
AcDbEntity
  8
RACCORDO
100
AcDbEllipse
 62
7
  6
CONTINUOUS
 10
-10.5886751346
 20
12.2025314983
 30
0.0
 11
0.0
 21
0.4
 31
0.0
 40
1.0
 41
-3.089232776
 42
-1.5707963268
  0
ELLIPSE
  5
6A4
100
AcDbEntity
  8
RACCORDO
100
AcDbEllipse
 62
7
  6
CONTINUOUS
 10
10.5886751346
 20
-14.2974685017
 30
0.0
 11
0.0
 21
0.4
 31
0.0
 40
1.0
 41
-4.7123889804
 42
-3.1939525311
  0
ELLIPSE
  5
6A5
100
AcDbEntity
  8
RACCORDO
100
AcDbEllipse
 62
7
  6
CONTINUOUS
 10
10.5886751346
 20
-12.2025314983
 30
0.0
 11
0.0
 21
0.4
 31
0.0
 40
1.0
 41
0.0523598776
 42
1.5707963268
  0
ENDSEC
  0
SECTION
  2
OBJECTS
  0
DICTIONARY
  5
C
100
AcDbDictionary
280
0
281
1
  3
ACAD_GROUP
350
D
  3
ACAD_MLINESTYLE
350
17
  3
ACAD_LAYOUT
350
1A
  3
ACAD_PLOTSETTINGS
350
19
  3
ACAD_PLOTSTYLENAME
350
E
  0
DICTIONARY
  5
D
102
{ACAD_REACTORS
330
C
102
}
100
AcDbDictionary
280
0
281
1
  0
ACDBDICTIONARYWDFLT
  5
E
102
{ACAD_REACTORS
330
C
102
}
100
AcDbDictionary
281
1
  3
Normal
350
F
100
AcDbDictionaryWithDefault
340
F
  0
DICTIONARY
  5
17
102
{ACAD_REACTORS
330
C
102
}
100
AcDbDictionary
280
0
281
1
  3
Standard
350
18
  0
DICTIONARY
  5
19
102
{ACAD_REACTORS
330
C
102
}
100
AcDbDictionary
281
1
  0
DICTIONARY
  5
1A
102
{ACAD_REACTORS
330
C
102
}
100
AcDbDictionary
281
1
  3
Model
350
6A6
  3
Layout1
350
6A7
  0
ACDBPLACEHOLDER
  5
F
102
{ACAD_REACTORS
330
E
102
}
  0
MLINESTYLE
  5
18
102
{ACAD_REACTORS
330
17
102
}
100
AcDbMlineStyle
  2
STANDARD
 70
0
  3

 62
256
 51
90.0
 52
90.0
 71
2
 49
0.5
 62
256
  6
BYLAYER
 49
-0.5
 62
256
  6
BYLAYER
  0
LAYOUT
  5
6A6
102
{ACAD_REACTORS
330
1A
102
}
100
AcDbPlotSettings
  1

  2
none_device
  4
ISO_A4_(297.00_x_210.00_MM)
  6

 40
0.0
 41
0.0
 42
0.0
 43
0.0
 44
297.0
 45
210.0
 46
0.0
 47
0.0
 48
0.0
 49
0.0
140
0.0
141
0.0
142
1.0
143
1.0
 70
1024
 72
1
 73
0
 74
0
  7

 75
0
147
1.0
148
0.0
149
0.0
100
AcDbLayout
  1
Model
 70
0
 71
0
 10
0.0
 20
0.0
 11
297.0
 21
210.0
 12
0.0
 22
0.0
 32
0.0
 14
0.0
 24
0.0
 34
0.0
 15
0.0
 25
0.0
 35
0.0
146
0.0
 13
0.0
 23
0.0
 33
0.0
 16
1.0
 26
0.0
 36
0.0
 17
0.0
 27
1.0
 37
0.0
 76
0
330
219
345
0
346
0
  0
LAYOUT
  5
6A7
102
{ACAD_REACTORS
330
1A
102
}
100
AcDbPlotSettings
  1

  2
none_device
  4
ISO_A4_(297.00_x_210.00_MM)
  6

 40
0.0
 41
0.0
 42
0.0
 43
0.0
 44
297.0
 45
210.0
 46
0.0
 47
0.0
 48
0.0
 49
0.0
140
0.0
141
0.0
142
1.0
143
1.0
 70
0
 72
1
 73
0
 74
0
  7

 75
0
147
1.0
148
0.0
149
0.0
100
AcDbLayout
  1
Layout1
 70
0
 71
1
 10
0.0
 20
0.0
 11
297.0
 21
210.0
 12
0.0
 22
0.0
 32
0.0
 14
0.0
 24
0.0
 34
0.0
 15
0.0
 25
0.0
 35
0.0
146
0.0
 13
0.0
 23
0.0
 33
0.0
 16
1.0
 26
0.0
 36
0.0
 17
0.0
 27
1.0
 37
0.0
 76
0
330
21A
345
0
346
0
  0
ENDSEC
  0
EOF
