  0
SECTION
  2
HEADER
  9
$ACADVER
  1
AC1024
  9
$DWGCODEPAGE
  3
ANSI_1252
  9
$EXTMAX
 10
297.0
 20
210.0
 30
0.0
  9
$EXTMIN
 10
0.0
 20
0.0
 30
0.0
  9
$LIMMIN
 10
0.0
 20
0.0
  9
$LIMMAX
 10
297.0
 20
210.0
  9
$VIEWCTR
 10
148.5
 20
105.0
  9
$VIEWSIZE
 40
210.0
  9
$CLAYER
  8
0
  9
$LTSCALE
 40
16.335
  9
$CELTYPE
  6
BYLAYER
  9
$DIMSCALE
 40
1.0
  9
$DIMASZ
 40
3.0
  9
$DIMEXO
 40
0.5
  9
$DIMDLI
 40
11.286
  9
$DIMEXE
 40
1.5
  9
$DIMCEN
 40
2.673
  9
$DIMLFAC
 40
1.0
  9
$DIMBLK
  1
_FILLED
  9
$DIMALT
 70
0
  9
$DIMALTF
 40
0.0393700787
  9
$DIMTXT
 40
3.0
  9
$DIMTOL
 70
1
  9
$DIMLIM
 70
0
  9
$DIMTFAC
 40
1.0
  9
$DIMTP
 40
0.01
  9
$DIMTM
 40
0.01
  9
$DIMGAP
 40
0.625
  9
$DIMDSEP
 70
44
  9
$AUNITS
 70
0
  9
$PDMODE
 70
3
  9
$PDSIZE
 40
3.0
  9
$HANDSEED
  5
68E
  9
$TILEMODE
 70
1
  9
$MEASUREMENT
 70
1
  9
$INSUNITS
 70
4
  0
ENDSEC
  0
SECTION
  2
CLASSES
  0
CLASS
  1
ACDBDICTIONARYWDFLT
  2
AcDbDictionaryWithDefault
  3
AutoCAD 2000
 90
0
 91
1
280
0
281
0
  0
CLASS
  1
ACDBPLACEHOLDER
  2
AcDbPlaceHolder
  3
AutoCAD 2000
 90
0
 91
1
280
0
281
0
  0
CLASS
  1
LAYOUT
  2
AcDbLayout
  3
AutoCAD 2000
 90
0
 91
0
280
0
281
0
  0
ENDSEC
  0
SECTION
  2
TABLES
  0
TABLE
  2
VPORT
  5
8
100
AcDbSymbolTable
 70
2
  0
VPORT
  5
1F4
100
AcDbSymbolTableRecord
100
AcDbViewportTableRecord
  2
*ACTIVE
 70
0
 10
0.0
 20
0.0
 11
1.0
 21
1.0
 12
148.5
 22
105.0
 13
0.0
 23
0.0
 14
1.0
 24
1.0
 15
0.0
 25
0.0
 16
0.0
 26
0.0
 36
1.0
 17
0.0
 27
0.0
 37
0.0
 40
210.0
 41
1.4142857143
 42
50.0
 43
0.0
 44
0.0
 50
0.0
 51
0.0
 71
0
 72
100
 73
1
 74
1
 75
0
 76
0
 77
0
 78
0
  0
ENDTAB
  0
TABLE
  2
LTYPE
  5
5
100
AcDbSymbolTable
 70
6
  0
LTYPE
  5
14
100
AcDbSymbolTableRecord
100
AcDbLinetypeTableRecord
  2
BYBLOCK
 70
0
  3

 72
65
 73
0
 40
0.0
  0
LTYPE
  5
15
100
AcDbSymbolTableRecord
100
AcDbLinetypeTableRecord
  2
BYLAYER
 70
0
  3

 72
65
 73
0
 40
0.0
  0
LTYPE
  5
16
100
AcDbSymbolTableRecord
100
AcDbLinetypeTableRecord
  2
CONTINUOUS
 70
64
  3
Solid line
 72
65
 73
0
 40
0.0
  0
LTYPE
  5
1F5
100
AcDbSymbolTableRecord
100
AcDbLinetypeTableRecord
  2
CENTER
 70
64
  3
____ _ ____ _ ____ _ ____ _ ____ _ ____ _ ____
 72
65
 73
4
 40
0.6
 49
0.375
 74
0
 49
-0.075
 74
0
 49
0.075
 74
0
 49
-0.075
 74
0
  0
LTYPE
  5
1F6
100
AcDbSymbolTableRecord
100
AcDbLinetypeTableRecord
  2
HIDDEN
 70
64
  3
- - - - - - - - - - - - - - - - - - - -
 72
65
 73
2
 40
0.2
 49
0.1
 74
0
 49
-0.1
 74
0
  0
LTYPE
  5
1F7
100
AcDbSymbolTableRecord
100
AcDbLinetypeTableRecord
  2
PHANTOM
 70
64
  3
_____ _ _ _____ _ _ _____ _ _ _____
 72
65
 73
6
 40
0.8
 49
0.45
 74
0
 49
-0.05
 74
0
 49
0.1
 74
0
 49
-0.05
 74
0
 49
0.1
 74
0
 49
-0.05
 74
0
  0
LTYPE
  5
1F8
100
AcDbSymbolTableRecord
100
AcDbLinetypeTableRecord
  2
DOT
 70
64
  3
. . . . . . . . . . . . . . . . . . . .
 72
65
 73
2
 40
0.2
 49
0.1
 74
0
 49
-0.1
 74
0
  0
LTYPE
  5
1F9
100
AcDbSymbolTableRecord
100
AcDbLinetypeTableRecord
  2
DASHED
 70
64
  3
- - - - - - - - - - - - - - - - - - - -
 72
65
 73
2
 40
0.2
 49
0.1
 74
0
 49
-0.1
 74
0
  0
ENDTAB
  0
TABLE
  2
LAYER
  5
2
100
AcDbSymbolTable
 70
36
  0
LAYER
  5
10
100
AcDbSymbolTableRecord
100
AcDbLayerTableRecord
  2
0
 70
0
 62
7
  6
CONTINUOUS
370
-3
390
F
  0
LAYER
  5
1FA
100
AcDbSymbolTableRecord
100
AcDbLayerTableRecord
  2
DEFAULT_1
 70
0
 62
7
  6
CENTER
370
-3
390
F
  0
LAYER
  5
1FB
100
AcDbSymbolTableRecord
100
AcDbLayerTableRecord
  2
DEFAULT_2
 70
0
 62
7
  6
HIDDEN
370
-3
390
F
  0
LAYER
  5
1FC
100
AcDbSymbolTableRecord
100
AcDbLayerTableRecord
  2
DEFAULT_3
 70
0
 62
7
  6
PHANTOM
370
-3
390
F
  0
LAYER
  5
1FD
100
AcDbSymbolTableRecord
100
AcDbLayerTableRecord
  2
ASSI
 70
0
 62
7
  6
CONTINUOUS
370
-3
390
F
  0
LAYER
  5
1FE
100
AcDbSymbolTableRecord
100
AcDbLayerTableRecord
  2
COORDINATE
 70
0
 62
7
  6
CONTINUOUS
370
-3
390
F
  0
LAYER
  5
1FF
100
AcDbSymbolTableRecord
100
AcDbLayerTableRecord
  2
COPY_PUBLISH
 70
0
 62
7
  6
CONTINUOUS
370
-3
390
F
  0
LAYER
  5
200
100
AcDbSymbolTableRecord
100
AcDbLayerTableRecord
  2
COSMETICI
 70
0
 62
7
  6
CONTINUOUS
370
-3
390
F
  0
LAYER
  5
201
100
AcDbSymbolTableRecord
100
AcDbLayerTableRecord
  2
CURVE
 70
0
 62
7
  6
CONTINUOUS
370
-3
390
F
  0
LAYER
  5
202
100
AcDbSymbolTableRecord
100
AcDbLayerTableRecord
  2
DRAFT
 70
0
 62
7
  6
CONTINUOUS
370
-3
390
F
  0
LAYER
  5
203
100
AcDbSymbolTableRecord
100
AcDbLayerTableRecord
  2
IMPORT_IGES
 70
0
 62
7
  6
CONTINUOUS
370
-3
390
F
  0
LAYER
  5
204
100
AcDbSymbolTableRecord
100
AcDbLayerTableRecord
  2
INTF_10
 70
0
 62
7
  6
CONTINUOUS
370
-3
390
F
  0
LAYER
  5
205
100
AcDbSymbolTableRecord
100
AcDbLayerTableRecord
  2
INTF_2
 70
0
 62
7
  6
CONTINUOUS
370
-3
390
F
  0
LAYER
  5
206
100
AcDbSymbolTableRecord
100
AcDbLayerTableRecord
  2
INTF_3
 70
0
 62
7
  6
CONTINUOUS
370
-3
390
F
  0
LAYER
  5
207
100
AcDbSymbolTableRecord
100
AcDbLayerTableRecord
  2
INTF_4
 70
0
 62
7
  6
CONTINUOUS
370
-3
390
F
  0
LAYER
  5
208
100
AcDbSymbolTableRecord
100
AcDbLayerTableRecord
  2
INTF_5
 70
0
 62
7
  6
CONTINUOUS
370
-3
390
F
  0
LAYER
  5
209
100
AcDbSymbolTableRecord
100
AcDbLayerTableRecord
  2
INTF_6
 70
0
 62
7
  6
CONTINUOUS
370
-3
390
F
  0
LAYER
  5
20A
100
AcDbSymbolTableRecord
100
AcDbLayerTableRecord
  2
INTF_7
 70
0
 62
7
  6
CONTINUOUS
370
-3
390
F
  0
LAYER
  5
20B
100
AcDbSymbolTableRecord
100
AcDbLayerTableRecord
  2
INTF_9
 70
0
 62
7
  6
CONTINUOUS
370
-3
390
F
  0
LAYER
  5
20C
100
AcDbSymbolTableRecord
100
AcDbLayerTableRecord
  2
INTF_BLANK
 70
0
 62
7
  6
CONTINUOUS
370
-3
390
F
  0
LAYER
  5
20D
100
AcDbSymbolTableRecord
100
AcDbLayerTableRecord
  2
INTF_RED
 70
0
 62
7
  6
CONTINUOUS
370
-3
390
F
  0
LAYER
  5
20E
100
AcDbSymbolTableRecord
100
AcDbLayerTableRecord
  2
NOTE
 70
0
 62
7
  6
CONTINUOUS
370
-3
390
F
  0
LAYER
  5
20F
100
AcDbSymbolTableRecord
100
AcDbLayerTableRecord
  2
PIANI
 70
0
 62
7
  6
CONTINUOUS
370
-3
390
F
  0
LAYER
  5
210
100
AcDbSymbolTableRecord
100
AcDbLayerTableRecord
  2
PUNTI
 70
0
 62
7
  6
CONTINUOUS
370
-3
390
F
  0
LAYER
  5
211
100
AcDbSymbolTableRecord
100
AcDbLayerTableRecord
  2
RACCORDO
 70
0
 62
7
  6
CONTINUOUS
370
-3
390
F
  0
LAYER
  5
212
100
AcDbSymbolTableRecord
100
AcDbLayerTableRecord
  2
RGB____0____0____0__
 70
0
 62
7
  6
CONTINUOUS
370
-3
390
F
  0
LAYER
  5
213
100
AcDbSymbolTableRecord
100
AcDbLayerTableRecord
  2
SIMBOLI
 70
0
 62
7
  6
CONTINUOUS
370
-3
390
F
  0
LAYER
  5
214
100
AcDbSymbolTableRecord
100
AcDbLayerTableRecord
  2
SMUSSO
 70
0
 62
7
  6
CONTINUOUS
370
-3
390
F
  0
LAYER
  5
215
100
AcDbSymbolTableRecord
100
AcDbLayerTableRecord
  2
SNAPLINE
 70
0
 62
7
  6
CONTINUOUS
370
-3
390
F
  0
LAYER
  5
216
100
AcDbSymbolTableRecord
100
AcDbLayerTableRecord
  2
SUPERFICI
 70
0
 62
7
  6
CONTINUOUS
370
-3
390
F
  0
LAYER
  5
217
100
AcDbSymbolTableRecord
100
AcDbLayerTableRecord
  2
TRASH
 70
0
 62
7
  6
CONTINUOUS
370
-3
390
F
  0
ENDTAB
  0
TABLE
  2
STYLE
  5
3
100
AcDbSymbolTable
 70
1
  0
STYLE
  5
11
100
AcDbSymbolTableRecord
100
AcDbTextStyleTableRecord
  2
STANDARD
 70
0
 40
0.0
 41
0.8
 50
0.0
 71
0
 42
0.2
  3
txt
  4

  0
STYLE
  5
218
100
AcDbSymbolTableRecord
100
AcDbTextStyleTableRecord
  2
TEXTSTYLE_1
 70
0
 40
0.0
 41
0.8
 50
0.0
 71
0
 42
0.2
  3
gdt
  4

  0
ENDTAB
  0
TABLE
  2
VIEW
  5
6
100
AcDbSymbolTable
 70
0
  0
ENDTAB
  0
TABLE
  2
UCS
  5
7
100
AcDbSymbolTable
 70
0
  0
ENDTAB
  0
TABLE
  2
APPID
  5
9
100
AcDbSymbolTable
 70
1
  0
APPID
  5
219
100
AcDbSymbolTableRecord
100
AcDbRegAppTableRecord
  2
ACAD
 70
0
  0
ENDTAB
  0
TABLE
  2
BLOCK_RECORD
  5
1
100
AcDbSymbolTable
 70
0
  0
BLOCK_RECORD
  5
21A
100
AcDbSymbolTableRecord
100
AcDbBlockTableRecord
  2
*Model_Space
  0
BLOCK_RECORD
  5
21B
100
AcDbSymbolTableRecord
100
AcDbBlockTableRecord
  2
*Paper_Space
  0
BLOCK_RECORD
  5
21C
100
AcDbSymbolTableRecord
100
AcDbBlockTableRecord
  2
_FILLED
  0
ENDTAB
  0
TABLE
  2
DIMSTYLE
  5
A
100
AcDbSymbolTable
 70
1
100
AcDbDimStyleTable
 71
0
  0
DIMSTYLE
105
21D
100
AcDbSymbolTableRecord
100
AcDbDimStyleTableRecord
  2
STANDARD
 70
0
  3

  4

 40
1.0
 41
3.0
 42
0.5
 43
0.38
 44
1.5
 45
0.0
 46
0.0
 47
0.01
 48
0.01
140
3.0
141
0.09
142
0.0
143
25.4
144
1.0
145
0.0
146
1.0
147
0.625
 71
1
 72
0
 73
0
 74
0
 75
0
 76
0
 77
1
 78
8
 79
2
170
0
171
1
172
0
173
0
174
0
175
0
176
0
177
0
178
0
270
2
179
2
271
2
272
2
273
2
274
2
275
0
280
0
281
0
282
0
283
1
284
8
285
0
286
0
287
3
288
0
340
11
278
44
341
21C
342
21C
343
21C
344
21C
  0
ENDTAB
  0
ENDSEC
  0
SECTION
  2
BLOCKS
  0
BLOCK
  5
20
100
AcDbEntity
  8
0
100
AcDbBlockBegin
  2
*Model_Space
 70
0
 10
0.0
 20
0.0
 30
0.0
  3
*Model_Space
  1

  0
ENDBLK
  5
21
100
AcDbEntity
  8
0
100
AcDbBlockEnd
  0
BLOCK
  5
1C
100
AcDbEntity
  8
0
100
AcDbBlockBegin
  2
*Paper_Space
 70
0
 10
0.0
 20
0.0
 30
0.0
  3
*Paper_Space
  1

  0
ENDBLK
  5
1D
100
AcDbEntity
  8
0
100
AcDbBlockEnd
  0
BLOCK
  5
21E
100
AcDbEntity
  8
0
100
AcDbBlockBegin
  2
_FILLED
 70
64
 10
0.0
 20
0.0
  3
_FILLED
  1

  0
SOLID
  5
21F
100
AcDbEntity
  8
0
  6
BYBLOCK
 62
0
100
AcDbTrace
 10
0.0
 20
0.0
 11
-1.0
 21
0.3166666667
 12
-1.0
 22
-0.3166666667
 13
-1.0
 23
-0.3166666667
  0
ENDBLK
  5
220
100
AcDbEntity
  8
0
  6
BYBLOCK
 62
0
100
AcDbBlockEnd
  0
ENDSEC
  0
SECTION
  2
ENTITIES
  0
LINE
  5
221
100
AcDbEntity
  8
RACCORDO
100
AcDbLine
 62
7
  6
CONTINUOUS
 10
10.5530366787
 20
-26.3528653412
 11
-10.5530366787
 21
-26.3528653412
  0
LINE
  5
222
100
AcDbEntity
  8
DRAFT
100
AcDbLine
 62
7
  6
CONTINUOUS
 10
10.0
 20
-25.1524539902
 11
-10.0
 21
-25.1524539902
  0
LINE
  5
223
100
AcDbEntity
  8
DRAFT
100
AcDbLine
 62
7
  6
CONTINUOUS
 10
9.9792140383
 20
-25.1212710891
 11
-9.9792140383
 21
-25.1212710891
  0
LINE
  5
224
100
AcDbEntity
  8
RACCORDO
100
AcDbLine
 62
7
  6
CONTINUOUS
 10
5.1788282164
 20
-24.9073657264
 11
-5.1788282164
 21
-24.9073657264
  0
LWPOLYLINE
  5
225
100
AcDbEntity
  8
0
100
AcDbPolyline
 62
250
  6
CONTINUOUS
 90
16
 70
0
 10
-4.8592651863
 20
-24.7542036487
 10
-4.8875846456
 20
-24.7537970672
 10
-4.9152074949
 20
-24.7528565219
 10
-4.9419303965
 20
-24.7513820128
 10
-4.9674936443
 20
-24.7493411084
 10
-4.9918465825
 20
-24.7467662402
 10
-5.0151376276
 20
-24.7437547027
 10
-5.037308844
 20
-24.7403148568
 10
-5.058240698
 20
-24.7364383416
 10
-5.0779680785
 20
-24.7321973697
 10
-5.096388132
 20
-24.7276038309
 10
-5.1134379646
 20
-24.7226458354
 10
-5.1291694237
 20
-24.7173599258
 10
-5.1435291396
 20
-24.7117211431
 10
-5.156378877
 20
-24.7057544464
 10
-5.1676340604
 20
-24.6995712554
  0
LWPOLYLINE
  5
226
100
AcDbEntity
  8
0
100
AcDbPolyline
 62
7
  6
CONTINUOUS
 90
15
 70
0
 10
-5.1658285627
 20
-24.6449027905
 10
-5.1539652296
 20
-24.6433344184
 10
-5.1404094447
 20
-24.6418228408
 10
-5.1253553967
 20
-24.6403948572
 10
-5.1087613498
 20
-24.6390528863
 10
-5.0906690397
 20
-24.6377945094
 10
-5.0713978628
 20
-24.6366392691
 10
-5.0509336893
 20
-24.6355884271
 10
-5.0292906489
 20
-24.6346407218
 10
-5.0068305269
 20
-24.6338119105
 10
-4.9835394543
 20
-24.6331039264
 10
-4.9594313
 20
-24.6325148362
 10
-4.9349094569
 20
-24.632054598
 10
-4.910108389
 20
-24.6317265311
 10
-4.8848936321
 20
-24.6315273161
  0
LINE
  5
227
100
AcDbEntity
  8
RACCORDO
100
AcDbLine
 62
7
  6
CONTINUOUS
 10
-9.9431567889
 20
-24.6827004522
 11
-5.2
 21
-24.6827004522
  0
LINE
  5
228
100
AcDbEntity
  8
RACCORDO
100
AcDbLine
 62
7
  6
CONTINUOUS
 10
5.2
 20
-24.6827004522
 11
9.9431567889
 21
-24.6827004522
  0
LINE
  5
229
100
AcDbEntity
  8
0
100
AcDbLine
 62
7
  6
CONTINUOUS
 10
-6.1001065276
 20
-24.6559313372
 11
-5.2
 21
-24.6559313373
  0
LINE
  5
22A
100
AcDbEntity
  8
0
100
AcDbLine
 62
7
  6
CONTINUOUS
 10
5.2
 20
-24.6559313373
 11
6.1001065276
 21
-24.6559313373
  0
LINE
  5
22B
100
AcDbEntity
  8
0
100
AcDbLine
 62
7
  6
CONTINUOUS
 10
-6.0939972548
 20
-24.6314569531
 11
-4.8592651863
 21
-24.6314569531
  0
LINE
  5
22C
100
AcDbEntity
  8
0
100
AcDbLine
 62
7
  6
CONTINUOUS
 10
6.0939972548
 20
-24.6314569531
 11
4.8791468291
 21
-24.6314569531
  0
LINE
  5
22D
100
AcDbEntity
  8
0
100
AcDbLine
 62
7
  6
CONTINUOUS
 10
6.2
 20
-23.7357114275
 11
-6.2
 21
-23.7357114275
  0
LINE
  5
22E
100
AcDbEntity
  8
0
100
AcDbLine
 62
7
  6
CONTINUOUS
 10
6.0477212615
 20
-23.3440511161
 11
5.2998974666
 21
-23.3440511161
  0
LINE
  5
22F
100
AcDbEntity
  8
0
100
AcDbLine
 62
7
  6
CONTINUOUS
 10
-5.2998974666
 20
-23.3440511161
 11
-6.0477212615
 21
-23.3440511161
  0
LWPOLYLINE
  5
230
100
AcDbEntity
  8
0
100
AcDbPolyline
 62
250
  6
CONTINUOUS
 90
4
 70
0
 10
-5.0488564959
 20
-24.9073657264
 10
-5.0492236838
 20
-24.9071722728
 10
-5.0692727207
 20
-24.8960336603
 10
-5.0882123427
 20
-24.884843233
  0
LWPOLYLINE
  5
231
100
AcDbEntity
  8
0
100
AcDbPolyline
 62
250
  6
CONTINUOUS
 90
6
 70
0
 10
-5.0882123427
 20
-24.884843233
 10
-5.1059339939
 20
-24.8736025749
 10
-5.1224102523
 20
-24.862465877
 10
-5.1375462815
 20
-24.8514306679
 10
-5.1512477214
 20
-24.8404995578
 10
-5.1634666651
 20
-24.8298344018
  0
LINE
  5
232
100
AcDbEntity
  8
0
100
AcDbLine
 62
250
  6
CONTINUOUS
 10
-5.1676340604
 20
-24.6995712554
 11
-5.1772453023
 21
-24.6931794548
  0
LINE
  5
233
100
AcDbEntity
  8
RACCORDO
100
AcDbLine
 62
7
  6
CONTINUOUS
 10
-7.9866280426
 20
22.2133719574
 11
-8.0
 21
22.2
  0
LINE
  5
234
100
AcDbEntity
  8
0
100
AcDbLine
 62
7
  6
CONTINUOUS
 10
9.9458390179
 20
-21.7506014589
 11
5.2
 21
-21.7506014589
  0
LINE
  5
235
100
AcDbEntity
  8
0
100
AcDbLine
 62
7
  6
CONTINUOUS
 10
-5.2
 20
-21.7506014589
 11
-9.9458390179
 21
-21.7506014589
  0
LWPOLYLINE
  5
236
100
AcDbEntity
  8
0
100
AcDbPolyline
 62
250
  6
CONTINUOUS
 90
5
 70
0
 10
-5.1772453023
 20
-24.6931794548
 10
-5.1852099657
 20
-24.6865711598
 10
-5.1915150328
 20
-24.6798341362
 10
-5.1961172321
 20
-24.672997639
 10
-5.1989615483
 20
-24.666032413
  0
LINE
  5
237
100
AcDbEntity
  8
0
100
AcDbLine
 62
250
  6
CONTINUOUS
 10
-5.1634666651
 20
-24.8298344018
 11
-5.1740935192
 21
-24.8194197678
  0
LINE
  5
238
100
AcDbEntity
  8
0
100
AcDbLine
 62
7
  6
CONTINUOUS
 10
-6.85
 20
18.384112
 11
-9.150022
 21
17.719243
  0
LWPOLYLINE
  5
239
100
AcDbEntity
  8
0
100
AcDbPolyline
 62
250
  6
CONTINUOUS
 90
6
 70
0
 10
-5.1740935192
 20
-24.8194197678
 10
-5.1829971953
 20
-24.8092712672
 10
-5.1900974316
 20
-24.799597387
 10
-5.1953126773
 20
-24.7904677633
 10
-5.198557348
 20
-24.7818131414
 10
-5.1997453035
 20
-24.7736336835
  0
LINE
  5
23A
100
AcDbEntity
  8
RACCORDO
100
AcDbLine
 62
7
  6
CONTINUOUS
 10
4.65
 20
20.3913501688
 11
4.6307780443
 21
20.3852199614
  0
LINE
  5
23B
100
AcDbEntity
  8
0
100
AcDbLine
 62
7
  6
CONTINUOUS
 10
5.2
 20
-17.9357114275
 11
-5.2
 21
-17.9357114275
  0
LWPOLYLINE
  5
23C
100
AcDbEntity
  8
DRAFT
100
AcDbPolyline
 62
7
  6
CONTINUOUS
 90
5
 70
0
 10
-9.4632788325
 20
-14.7502257696
 10
-9.4669126502
 20
-14.7488595531
 10
-9.4705145571
 20
-14.7475353843
 10
-9.4740736339
 20
-14.7462534012
 10
-9.4775898806
 20
-14.7450136038
  0
LINE
  5
23D
100
AcDbEntity
  8
DRAFT
100
AcDbLine
 62
7
  6
CONTINUOUS
 10
-9.4558499486
 20
-14.7530851733
 11
-9.4632788325
 21
-14.7502257696
  0
LINE
  5
23E
100
AcDbEntity
  8
DRAFT
100
AcDbLine
 62
7
  6
CONTINUOUS
 10
-9.4481070705
 20
-14.7561144857
 11
-9.4558499486
 21
-14.7530851733
  0
LINE
  5
23F
100
AcDbEntity
  8
DRAFT
100
AcDbLine
 62
7
  6
CONTINUOUS
 10
-9.4315459947
 20
-14.7626969338
 11
-9.4481070705
 21
-14.7561144857
  0
LINE
  5
240
100
AcDbEntity
  8
DRAFT
100
AcDbLine
 62
7
  6
CONTINUOUS
 10
-9.3883084784
 20
-14.7801550368
 11
-9.4315459947
 21
-14.7626969338
  0
LINE
  5
241
100
AcDbEntity
  8
DRAFT
100
AcDbLine
 62
7
  6
CONTINUOUS
 10
-9.2171572875
 20
-14.85
 11
-9.3883084784
 21
-14.7801550368
  0
LINE
  5
242
100
AcDbEntity
  8
RACCORDO
100
AcDbLine
 62
250
  6
CONTINUOUS
 10
-9.1101234466
 20
-14.8449828458
 11
-9.6014112411
 21
-14.6012191724
  0
LINE
  5
243
100
AcDbEntity
  8
RACCORDO
100
AcDbLine
 62
250
  6
CONTINUOUS
 10
-8.9519549284
 20
-14.6264958561
 11
-9.4044496904
 21
-14.4019802328
  0
LINE
  5
244
100
AcDbEntity
  8
DRAFT
100
AcDbLine
 62
7
  6
CONTINUOUS
 10
-10.0
 20
-14.85
 11
-9.9848388221
 21
-14.8575800116
  0
LWPOLYLINE
  5
245
100
AcDbEntity
  8
RACCORDO
100
AcDbPolyline
 62
250
  6
CONTINUOUS
 90
19
 70
0
 10
-9.4044496904
 20
-14.4019802328
 10
-9.4095021066
 20
-14.3978413872
 10
-9.4143326861
 20
-14.3914741812
 10
-9.4189414289
 20
-14.3828786148
 10
-9.423367089
 20
-14.3717647986
 10
-9.4275709123
 20
-14.3584226219
 10
-9.4314366373
 20
-14.3437217534
 10
-9.4349297109
 20
-14.327648483
 10
-9.4380846861
 20
-14.3102165207
 10
-9.4408889598
 20
-14.2923366651
 10
-9.4433072413
 20
-14.2743765463
 10
-9.4453748214
 20
-14.2559685341
 10
-9.4471849687
 20
-14.2369205364
 10
-9.4487720651
 20
-14.2173791467
 10
-9.4501017288
 20
-14.1971977716
 10
-9.451164083
 20
-14.1757445389
 10
-9.4519558355
 20
-14.1528088246
 10
-9.4524802785
 20
-14.1286012528
 10
-9.452737412
 20
-14.1031218234
  0
LINE
  5
246
100
AcDbEntity
  8
DRAFT
100
AcDbLine
 62
7
  6
CONTINUOUS
 10
-4.65
 20
20.3913501688
 11
-4.8456620069
 21
20.1157900069
  0
LINE
  5
247
100
AcDbEntity
  8
RACCORDO
100
AcDbLine
 62
7
  6
CONTINUOUS
 10
-4.8289311143
 20
20.1039102054
 11
-4.5898369388
 21
20.4406379675
  0
LINE
  5
248
100
AcDbEntity
  8
RACCORDO
100
AcDbLine
 62
250
  6
CONTINUOUS
 10
-4.706631318
 20
20.0170710069
 11
-4.3307894673
 21
20.54638706
  0
LWPOLYLINE
  5
249
100
AcDbEntity
  8
RACCORDO
100
AcDbPolyline
 62
7
  6
CONTINUOUS
 90
10
 70
0
 10
-4.5898369388
 20
20.4406379675
 10
-4.5725763773
 20
20.4604856831
 10
-4.5516662628
 20
20.4776308998
 10
-4.527380719
 20
20.4922682596
 10
-4.5002356073
 20
20.504587965
 10
-4.4705514359
 20
20.5149936793
 10
-4.4383159228
 20
20.5240049394
 10
-4.4038228261
 20
20.5320064146
 10
-4.3677795537
 20
20.5393243154
 10
-4.3307894673
 20
20.54638706
  0
LINE
  5
24A
100
AcDbEntity
  8
0
100
AcDbLine
 62
7
  6
CONTINUOUS
 10
-7.082233
 20
14.807414
 11
-9.150007
 21
14.034385
  0
LINE
  5
24B
100
AcDbEntity
  8
0
100
AcDbLine
 62
7
  6
CONTINUOUS
 10
-8.91778
 20
13.865782
 11
-6.850006
 21
14.638811
  0
LWPOLYLINE
  5
24C
100
AcDbEntity
  8
0
100
AcDbPolyline
 62
7
  6
CONTINUOUS
 90
10
 70
0
 10
8.4469571833
 20
18.930359709
 10
8.4613902309
 20
18.9352625733
 10
8.4766665594
 20
18.9396850103
 10
8.492786169
 20
18.9436270201
 10
8.5097933606
 20
18.9471397375
 10
8.5276438333
 20
18.9501720275
 10
8.5462046835
 20
18.9525704859
 10
8.5654316101
 20
18.9542839778
 10
8.5853689141
 20
18.955363638
 10
8.6060165957
 20
18.9558094665
  0
LWPOLYLINE
  5
24D
100
AcDbEntity
  8
RACCORDO
100
AcDbPolyline
 62
250
  6
CONTINUOUS
 90
10
 70
0
 10
10.2460385903
 20
-14.6012191724
 10
10.2637737601
 20
-14.5975836765
 10
10.2810116169
 20
-14.5898587176
 10
10.2972686277
 20
-14.5782608644
 10
10.3120887526
 20
-14.5631153284
 10
10.3250562274
 20
-14.544846859
 10
10.3358072348
 20
-14.5239678435
 10
10.3440401272
 20
-14.5010639179
 10
10.3495238878
 20
-14.4767775364
 10
10.3521046075
 20
-14.4517899677
  0
LWPOLYLINE
  5
24E
100
AcDbEntity
  8
RACCORDO
100
AcDbPolyline
 62
250
  6
CONTINUOUS
 90
12
 70
0
 10
10.45
 20
-14.6190634835
 10
10.4633295364
 20
-14.6167259771
 10
10.4764484966
 20
-14.6120650413
 10
10.4891496578
 20
-14.6051543126
 10
10.5012323787
 20
-14.5961029809
 10
10.5125058313
 20
-14.5850540194
 10
10.5227920003
 20
-14.5721818932
 10
10.5319285293
 20
-14.5576896754
 10
10.5397709173
 20
-14.5418064584
 10
10.5461950376
 20
-14.5247838436
 10
10.5510995295
 20
-14.5068910681
 10
10.554407207
 20
-14.4884105797
  0
LWPOLYLINE
  5
24F
100
AcDbEntity
  8
RACCORDO
100
AcDbPolyline
 62
250
  6
CONTINUOUS
 90
13
 70
0
 10
10.45
 20
-14.6190634835
 10
10.4694157724
 20
-14.6178064035
 10
10.4885552097
 20
-14.614042986
 10
10.5070906497
 20
-14.6078171407
 10
10.5247146648
 20
-14.5992074619
 10
10.541100617
 20
-14.5883474099
 10
10.5559202209
 20
-14.5754417249
 10
10.5689105234
 20
-14.5607209499
 10
10.5798563879
 20
-14.5444306474
 10
10.5885629263
 20
-14.5268640424
 10
10.5948833779
 20
-14.5083298306
 10
10.5987161179
 20
-14.4891433294
 10
10.6
 20
-14.4696342788
  0
LINE
  5
250
100
AcDbEntity
  8
RACCORDO
100
AcDbLine
 62
7
  6
CONTINUOUS
 10
10.0474734127
 20
-14.6592461713
 11
10.45
 21
-14.638949698
  0
LINE
  5
251
100
AcDbEntity
  8
RACCORDO
100
AcDbLine
 62
7
  6
CONTINUOUS
 10
-10.45
 20
-14.638949698
 11
-10.0474734127
 21
-14.6592461713
  0
LWPOLYLINE
  5
252
100
AcDbEntity
  8
RACCORDO
100
AcDbPolyline
 62
250
  6
CONTINUOUS
 90
12
 70
0
 10
-10.45
 20
-14.6190634835
 10
-10.4633293192
 20
-14.6167260345
 10
-10.4764479814
 20
-14.6120652722
 10
-10.4891487849
 20
-14.6051548748
 10
-10.5012310825
 20
-14.5961040964
 10
-10.5125041216
 20
-14.5850559164
 10
-10.5227900154
 20
-14.5721846897
 10
-10.5319263126
 20
-14.5576936409
 10
-10.539768663
 20
-14.5418116578
 10
-10.5461932132
 20
-14.5247894662
 10
-10.5510984471
 20
-14.5068958619
 10
-10.5544068191
 20
-14.48841349
  0
LWPOLYLINE
  5
253
100
AcDbEntity
  8
RACCORDO
100
AcDbPolyline
 62
250
  6
CONTINUOUS
 90
19
 70
0
 10
-9.6014102303
 20
-14.6012191724
 10
-9.6064645339
 20
-14.5948085939
 10
-9.6112962562
 20
-14.5841067851
 10
-9.615905397
 20
-14.5693832285
 10
-9.6203303
 20
-14.550841526
 10
-9.6245326217
 20
-14.5288546956
 10
-9.6283973311
 20
-14.5041216634
 10
-9.6318904836
 20
-14.477177007
 10
-9.6350460239
 20
-14.4484111716
 10
-9.6378507559
 20
-14.4184799056
 10
-9.6402692004
 20
-14.3882912285
 10
-9.6423368366
 20
-14.3578137452
 10
-9.6441469065
 20
-14.3261196948
 10
-9.6457336744
 20
-14.2934490458
 10
-9.647062876
 20
-14.2599251149
 10
-9.6481249607
 20
-14.2241596661
 10
-9.6489167449
 20
-14.1857274753
 10
-9.6494414122
 20
-14.1453069759
 10
-9.6496989626
 20
-14.1031218234
  0
LINE
  5
254
100
AcDbEntity
  8
DRAFT
100
AcDbLine
 62
7
  6
CONTINUOUS
 10
-4.3198454055
 20
19.81996381
 11
-4.3340207461
 21
19.8
  0
LINE
  5
255
100
AcDbEntity
  8
RACCORDO
100
AcDbLine
 62
250
  6
CONTINUOUS
 10
4.706631318
 20
20.0170710069
 11
4.8456620069
 21
20.1157900069
  0
LWPOLYLINE
  5
256
100
AcDbEntity
  8
0
100
AcDbPolyline
 62
7
  6
CONTINUOUS
 90
10
 70
0
 10
7.6168746603
 20
18.0295437098
 10
7.6400415409
 20
18.0389944878
 10
7.6622313381
 20
18.0488743813
 10
7.6834440519
 20
18.0591833903
 10
7.7035979826
 20
18.0698883331
 10
7.7227748298
 20
18.0810223913
 10
7.7412196927
 20
18.0926851107
 10
7.759014271
 20
18.1049096732
 10
7.7760768651
 20
18.1176628967
 10
7.7924074748
 20
18.1309447814
  0
LWPOLYLINE
  5
257
100
AcDbEntity
  8
0
100
AcDbPolyline
 62
7
  6
CONTINUOUS
 90
10
 70
0
 10
8.3424964168
 20
19.1993555824
 10
8.3190671974
 20
19.1904655513
 10
8.2967055095
 20
19.1810384778
 10
8.275411353
 20
19.1710743619
 10
8.2552977651
 20
19.1606120585
 10
8.2362517086
 20
19.1496127129
 10
8.2179340724
 20
19.1379597599
 10
8.2002318194
 20
19.1256143447
 10
8.1832579866
 20
19.1126153223
 10
8.1670125741
 20
19.0989626926
  0
LWPOLYLINE
  5
258
100
AcDbEntity
  8
0
100
AcDbPolyline
 62
7
  6
CONTINUOUS
 90
10
 70
0
 10
7.5249744862
 20
18.2991145933
 10
7.5110230662
 20
18.2940021707
 10
7.4961946307
 20
18.2895015716
 10
7.4804891796
 20
18.285612796
 10
7.4639988049
 20
18.2823393164
 10
7.4466314146
 20
18.2796776603
 10
7.4281107332
 20
18.2776174105
 10
7.4083446688
 20
18.2761550948
 10
7.3874253132
 20
18.2752941854
 10
7.3653526664
 20
18.2750346825
  0
LWPOLYLINE
  5
259
100
AcDbEntity
  8
0
100
AcDbPolyline
 62
7
  6
CONTINUOUS
 90
10
 70
0
 10
8.7910092589
 20
16.8516096016
 10
8.7707093365
 20
16.8453351927
 10
8.7490151658
 20
16.8395105803
 10
8.7259267471
 20
16.8341357644
 10
8.7015548999
 20
16.8292015822
 10
8.6757888047
 20
16.8247171965
 10
8.6482960021
 20
16.8207100958
 10
8.6189656725
 20
16.8171894428
 10
8.5879086357
 20
16.8141460748
 10
8.5551248915
 20
16.8115799917
  0
LWPOLYLINE
  5
25A
100
AcDbEntity
  8
0
100
AcDbPolyline
 62
7
  6
CONTINUOUS
 90
10
 70
0
 10
7.2094743153
 20
17.3620334682
 10
7.2319801059
 20
17.3685266928
 10
7.2555008384
 20
17.3745760588
 10
7.2800365128
 20
17.3801815661
 10
7.305605676
 20
17.3853841318
 10
7.3321897811
 20
17.3901428388
 10
7.3597331872
 20
17.3943349357
 10
7.3882173471
 20
17.3979195051
 10
7.4176608081
 20
17.4009374644
 10
7.4480635699
 20
17.4033888134
  0
LWPOLYLINE
  5
25B
100
AcDbEntity
  8
0
100
AcDbPolyline
 62
7
  6
CONTINUOUS
 90
10
 70
0
 10
7.2094743153
 20
15.9241359052
 10
7.2319801059
 20
15.9306291299
 10
7.2555008384
 20
15.9366784958
 10
7.2800365128
 20
15.9422840031
 10
7.305605676
 20
15.9474865688
 10
7.3321897811
 20
15.9522452759
 10
7.3597331872
 20
15.9564373727
 10
7.3882173471
 20
15.9600219422
 10
7.4176608081
 20
15.9630399014
 10
7.4480635699
 20
15.9654912504
  0
LINE
  5
25C
100
AcDbEntity
  8
RACCORDO
100
AcDbLine
 62
250
  6
CONTINUOUS
 10
-10.45
 20
-14.6190634835
 11
-10.2460385903
 21
-14.6012191724
  0
LINE
  5
25D
100
AcDbEntity
  8
RACCORDO
100
AcDbLine
 62
250
  6
CONTINUOUS
 10
-10.5560660172
 20
-14.4696342788
 11
-10.3521046075
 21
-14.4517899677
  0
LWPOLYLINE
  5
25E
100
AcDbEntity
  8
RACCORDO
100
AcDbPolyline
 62
250
  6
CONTINUOUS
 90
13
 70
0
 10
-9.6014112411
 20
-14.6012191724
 10
-9.5759449554
 20
-14.5991572888
 10
-9.5509062437
 20
-14.5937860321
 10
-9.5267153387
 20
-14.5851956106
 10
-9.503778209
 20
-14.5735302458
 10
-9.4824798166
 20
-14.5589857825
 10
-9.4631776389
 20
-14.5418064284
 10
-9.4461955716
 20
-14.5222805791
 10
-9.4318185421
 20
-14.5007359805
 10
-9.4202877731
 20
-14.4775342896
 10
-9.411796683
 20
-14.4530649359
 10
-9.4064876592
 20
-14.4277385746
 10
-9.4044496904
 20
-14.4019802328
  0
LINE
  5
25F
100
AcDbEntity
  8
DRAFT
100
AcDbLine
 62
7
  6
CONTINUOUS
 10
-9.9848388221
 20
-14.8575800116
 11
-9.7800473908
 21
-14.8575800116
  0
LINE
  5
260
100
AcDbEntity
  8
RACCORDO
100
AcDbLine
 62
7
  6
CONTINUOUS
 10
-9.2199526092
 20
-14.8575800116
 11
-9.1525281029
 21
-14.8575800116
  0
LINE
  5
261
100
AcDbEntity
  8
RACCORDO
100
AcDbLine
 62
7
  6
CONTINUOUS
 10
9.1525281029
 20
-14.8575800116
 11
9.2199526092
 21
-14.8575800116
  0
LINE
  5
262
100
AcDbEntity
  8
DRAFT
100
AcDbLine
 62
7
  6
CONTINUOUS
 10
9.7800473908
 20
-14.8575800116
 11
9.9848388221
 21
-14.8575800116
  0
LINE
  5
263
100
AcDbEntity
  8
DRAFT
100
AcDbLine
 62
7
  6
CONTINUOUS
 10
-10.0441437922
 20
-14.85
 11
-9.7828427125
 21
-14.85
  0
LINE
  5
264
100
AcDbEntity
  8
RACCORDO
100
AcDbLine
 62
7
  6
CONTINUOUS
 10
-9.2171572875
 20
-14.85
 11
-9.1523957933
 21
-14.85
  0
LINE
  5
265
100
AcDbEntity
  8
RACCORDO
100
AcDbLine
 62
7
  6
CONTINUOUS
 10
9.1523957933
 20
-14.85
 11
9.2171572875
 21
-14.85
  0
LINE
  5
266
100
AcDbEntity
  8
DRAFT
100
AcDbLine
 62
7
  6
CONTINUOUS
 10
9.7828427125
 20
-14.85
 11
10.0441437922
 21
-14.85
  0
LINE
  5
267
100
AcDbEntity
  8
DRAFT
100
AcDbLine
 62
7
  6
CONTINUOUS
 10
9.5224101194
 20
-14.7450136038
 11
9.4775898806
 21
-14.7450136038
  0
LINE
  5
268
100
AcDbEntity
  8
DRAFT
100
AcDbLine
 62
7
  6
CONTINUOUS
 10
-9.4775898806
 20
-14.7450136038
 11
-9.5224101194
 21
-14.7450136038
  0
LINE
  5
269
100
AcDbEntity
  8
RACCORDO
100
AcDbLine
 62
250
  6
CONTINUOUS
 10
10.2460385903
 20
-14.6012191724
 11
9.6014112411
 21
-14.6012191724
  0
LINE
  5
26A
100
AcDbEntity
  8
RACCORDO
100
AcDbLine
 62
250
  6
CONTINUOUS
 10
-9.6014112411
 20
-14.6012191724
 11
-10.2460385903
 21
-14.6012191724
  0
LINE
  5
26B
100
AcDbEntity
  8
RACCORDO
100
AcDbLine
 62
250
  6
CONTINUOUS
 10
-10.6
 20
-14.4696342788
 11
-10.5560660172
 21
-14.4696342788
  0
LINE
  5
26C
100
AcDbEntity
  8
RACCORDO
100
AcDbLine
 62
250
  6
CONTINUOUS
 10
10.5560660172
 20
-14.4696342788
 11
10.6
 21
-14.4696342788
  0
LINE
  5
26D
100
AcDbEntity
  8
RACCORDO
100
AcDbLine
 62
250
  6
CONTINUOUS
 10
9.452737412
 20
-14.1031218234
 11
10.0326091174
 21
-14.1031218234
  0
LINE
  5
26E
100
AcDbEntity
  8
RACCORDO
100
AcDbLine
 62
250
  6
CONTINUOUS
 10
-9.452737412
 20
-14.1031218234
 11
-10.0326091174
 21
-14.1031218234
  0
LINE
  5
26F
100
AcDbEntity
  8
RACCORDO
100
AcDbLine
 62
250
  6
CONTINUOUS
 10
10.45
 20
-14.6190634835
 11
10.2460385903
 21
-14.6012191724
  0
LINE
  5
270
100
AcDbEntity
  8
RACCORDO
100
AcDbLine
 62
250
  6
CONTINUOUS
 10
10.5560660172
 20
-14.4696342788
 11
10.3521046075
 21
-14.4517899677
  0
LWPOLYLINE
  5
271
100
AcDbEntity
  8
DRAFT
100
AcDbPolyline
 62
7
  6
CONTINUOUS
 90
5
 70
0
 10
-9.5367211675
 20
-11.7497742304
 10
-9.5330873498
 20
-11.7511404469
 10
-9.5294854429
 20
-11.7524646157
 10
-9.5259263661
 20
-11.7537465988
 10
-9.5224101194
 20
-11.7549863962
  0
LINE
  5
272
100
AcDbEntity
  8
DRAFT
100
AcDbLine
 62
7
  6
CONTINUOUS
 10
-9.5441500514
 20
-11.7469148267
 11
-9.5367211675
 21
-11.7497742304
  0
LINE
  5
273
100
AcDbEntity
  8
DRAFT
100
AcDbLine
 62
7
  6
CONTINUOUS
 10
-9.5518929295
 20
-11.7438855143
 11
-9.5441500514
 21
-11.7469148267
  0
LINE
  5
274
100
AcDbEntity
  8
DRAFT
100
AcDbLine
 62
7
  6
CONTINUOUS
 10
-9.5684540053
 20
-11.7373030662
 11
-9.5518929295
 21
-11.7438855143
  0
LINE
  5
275
100
AcDbEntity
  8
DRAFT
100
AcDbLine
 62
7
  6
CONTINUOUS
 10
-9.6116915216
 20
-11.7198449632
 11
-9.5684540053
 21
-11.7373030662
  0
LINE
  5
276
100
AcDbEntity
  8
DRAFT
100
AcDbLine
 62
7
  6
CONTINUOUS
 10
-9.7828427125
 20
-11.65
 11
-9.6116915216
 21
-11.7198449632
  0
LWPOLYLINE
  5
277
100
AcDbEntity
  8
RACCORDO
100
AcDbPolyline
 62
250
  6
CONTINUOUS
 90
10
 70
0
 10
-10.3521046075
 20
-14.4517899677
 10
-10.3495239041
 20
-14.4767772252
 10
-10.3440402181
 20
-14.5010633946
 10
-10.335807427
 20
-14.5239672164
 10
-10.3250565185
 20
-14.5448462303
 10
-10.3120891128
 20
-14.5631147851
 10
-10.2972690029
 20
-14.5782604687
 10
-10.2810119375
 20
-14.5898584929
 10
-10.2637739534
 20
-14.5975835996
 10
-10.2460385902
 20
-14.6012191724
  0
LINE
  5
278
100
AcDbEntity
  8
RACCORDO
100
AcDbLine
 62
250
  6
CONTINUOUS
 10
-10.5544068191
 20
-14.48841349
 11
-10.5560660172
 21
-14.4696342788
  0
LWPOLYLINE
  5
279
100
AcDbEntity
  8
RACCORDO
100
AcDbPolyline
 62
250
  6
CONTINUOUS
 90
13
 70
0
 10
-10.6
 20
-14.4696342788
 10
-10.5987161179
 20
-14.4891433291
 10
-10.594883378
 20
-14.5083298301
 10
-10.5885629266
 20
-14.5268640418
 10
-10.5798563883
 20
-14.5444306467
 10
-10.568910524
 20
-14.5607209492
 10
-10.5559202217
 20
-14.5754417241
 10
-10.541100618
 20
-14.5883474091
 10
-10.5247146661
 20
-14.5992074612
 10
-10.507090651
 20
-14.6078171401
 10
-10.4885552108
 20
-14.6140429857
 10
-10.4694157731
 20
-14.6178064034
 10
-10.45
 20
-14.6190634835
  0
LINE
  5
27A
100
AcDbEntity
  8
RACCORDO
100
AcDbLine
 62
250
  6
CONTINUOUS
 10
4.334364846
 20
21.584353423
 11
4.3500114231
 21
21.6
  0
LINE
  5
27B
100
AcDbEntity
  8
RACCORDO
100
AcDbLine
 62
250
  6
CONTINUOUS
 10
4.634353423
 20
21.284364846
 11
4.65
 21
21.3000114231
  0
LWPOLYLINE
  5
27C
100
AcDbEntity
  8
0
100
AcDbPolyline
 62
7
  6
CONTINUOUS
 90
10
 70
0
 10
7.0663208723
 20
17.578354089
 10
7.0400646131
 20
17.5651109849
 10
7.0152862003
 20
17.5505848027
 10
6.9919856341
 20
17.5347755426
 10
6.9703068069
 20
17.5178179277
 10
6.9501058261
 20
17.4995772348
 10
6.9309510143
 20
17.4796492939
 10
6.9126984787
 20
17.4578993817
 10
6.895492112
 20
17.4344622215
 10
6.8793319142
 20
17.4093378133
  0
LWPOLYLINE
  5
27D
100
AcDbEntity
  8
0
100
AcDbPolyline
 62
7
  6
CONTINUOUS
 90
10
 70
0
 10
8.7910092589
 20
15.4137120386
 10
8.7707093365
 20
15.4074376297
 10
8.7490151658
 20
15.4016130173
 10
8.7259267471
 20
15.3962382014
 10
8.7015548999
 20
15.3913040192
 10
8.6757888047
 20
15.3868196335
 10
8.6482960021
 20
15.3828125328
 10
8.6189656725
 20
15.3792918798
 10
8.5879086357
 20
15.3762485118
 10
8.5551248915
 20
15.3736824288
  0
LWPOLYLINE
  5
27E
100
AcDbEntity
  8
0
100
AcDbPolyline
 62
7
  6
CONTINUOUS
 90
10
 70
0
 10
7.2094743907
 20
14.4862380907
 10
7.231980149
 20
14.4927313064
 10
7.2555008568
 20
14.4987806655
 10
7.2800365143
 20
14.5043861679
 10
7.3056056699
 20
14.5095887313
 10
7.3321897751
 20
14.5143474381
 10
7.3597331841
 20
14.5185395351
 10
7.3882173483
 20
14.5221241047
 10
7.4176608163
 20
14.5251420645
 10
7.4480635881
 20
14.5275934145
  0
LWPOLYLINE
  5
27F
100
AcDbEntity
  8
RACCORDO
100
AcDbPolyline
 62
7
  6
CONTINUOUS
 90
13
 70
0
 10
-9.1101234466
 20
-14.8449828458
 10
-9.0970520088
 20
-14.841432151
 10
-9.0823332617
 20
-14.8363319224
 10
-9.0662050404
 20
-14.8292663939
 10
-9.0488169234
 20
-14.8196931612
 10
-9.030826322
 20
-14.8072511073
 10
-9.0132827632
 20
-14.7919830155
 10
-8.9966412319
 20
-14.7736161479
 10
-8.9816478274
 20
-14.7521768717
 10
-8.9694322395
 20
-14.7287066502
 10
-8.9604094841
 20
-14.703902103
 10
-8.9546545447
 20
-14.6778431636
 10
-8.952381992
 20
-14.6509623137
  0
LWPOLYLINE
  5
280
100
AcDbEntity
  8
RACCORDO
100
AcDbPolyline
 62
250
  6
CONTINUOUS
 90
19
 70
0
 10
-10.2460385903
 20
-14.6012191724
 10
-10.2138864705
 20
-14.595117259
 10
-10.1833100197
 20
-14.5851399504
 10
-10.1543092379
 20
-14.5716404884
 10
-10.1268362142
 20
-14.5550287804
 10
-10.1009388594
 20
-14.5356428116
 10
-10.0767609063
 20
-14.5136635189
 10
-10.0543277077
 20
-14.4893756697
 10
-10.0336139108
 20
-14.463084027
 10
-10.0146871901
 20
-14.4348799259
 10
-9.9976155998
 20
-14.4052744588
 10
-9.9823310857
 20
-14.3742756375
 10
-9.9686971593
 20
-14.3410056864
 10
-9.9564735054
 20
-14.3050526357
 10
-9.9459004392
 20
-14.267033801
 10
-9.9375624189
 20
-14.2275379071
 10
-9.9316542638
 20
-14.1869440195
 10
-9.9279811545
 20
-14.1453788502
 10
-9.926543091
 20
-14.1031218234
  0
LWPOLYLINE
  5
281
100
AcDbEntity
  8
RACCORDO
100
AcDbPolyline
 62
250
  6
CONTINUOUS
 90
19
 70
0
 10
-10.3521046075
 20
-14.4517899677
 10
-10.3199539605
 20
-14.4470967909
 10
-10.2893783586
 20
-14.4401949623
 10
-10.2603778016
 20
-14.4310844819
 10
-10.2329040607
 20
-14.4195685819
 10
-10.2070053648
 20
-14.40584403
 10
-10.1828264004
 20
-14.3905011302
 10
-10.1603930513
 20
-14.3735884203
 10
-10.1396794337
 20
-14.3550573626
 10
-10.1207525831
 20
-14.335352647
 10
-10.1036803835
 20
-14.3147392673
 10
-10.0883949508
 20
-14.2929522299
 10
-10.0747596691
 20
-14.2696412432
 10
-10.0625333994
 20
-14.2444654689
 10
-10.0519572806
 20
-14.2177657453
 10
-10.043618113
 20
-14.1902142966
 10
-10.0377114966
 20
-14.1620351974
 10
-10.0340418314
 20
-14.133004373
 10
-10.0326091174
 20
-14.1031218234
  0
LINE
  5
282
100
AcDbEntity
  8
RACCORDO
100
AcDbLine
 62
7
  6
CONTINUOUS
 10
8.9115891617
 20
-12.313942629
 11
9.0593097487
 21
-12.2993193851
  0
LINE
  5
283
100
AcDbEntity
  8
RACCORDO
100
AcDbLine
 62
250
  6
CONTINUOUS
 10
8.5430671685
 20
-12.3036465925
 11
8.425
 21
-12.3153343676
  0
LINE
  5
284
100
AcDbEntity
  8
RACCORDO
100
AcDbLine
 62
250
  6
CONTINUOUS
 10
8.3461056179
 20
-12.1036770535
 11
8.225
 21
-12.1156656126
  0
LINE
  5
285
100
AcDbEntity
  8
RACCORDO
100
AcDbLine
 62
7
  6
CONTINUOUS
 10
10.5560660172
 20
-11.8890723196
 11
10.0326091174
 21
-11.9348688642
  0
LWPOLYLINE
  5
286
100
AcDbEntity
  8
RACCORDO
100
AcDbPolyline
 62
250
  6
CONTINUOUS
 90
13
 70
0
 10
-8.5430671685
 20
-12.3036465925
 10
-8.5174086875
 20
-12.3018635919
 10
-8.4921873189
 20
-12.2967028209
 10
-8.4678329349
 20
-12.2882521607
 10
-8.4447606392
 20
-12.2766555635
 10
-8.4233637168
 20
-12.262110614
 10
-8.404006923
 20
-12.2448651752
 10
-8.3870202202
 20
-12.2252131286
 10
-8.372693196
 20
-12.2034893978
 10
-8.361270127
 20
-12.1800642745
 10
-8.3529457637
 20
-12.1553370374
 10
-8.3478620286
 20
-12.1297291354
 10
-8.3461056188
 20
-12.1036770534
  0
LWPOLYLINE
  5
287
100
AcDbEntity
  8
RACCORDO
100
AcDbPolyline
 62
7
  6
CONTINUOUS
 90
13
 70
0
 10
-8.425
 20
-12.3153343676
 10
-8.3985561669
 20
-12.3135407794
 10
-8.3727152856
 20
-12.3083034493
 10
-8.3479094898
 20
-12.2997645621
 10
-8.3245736058
 20
-12.288141721
 10
-8.3030404366
 20
-12.2736668696
 10
-8.2835653085
 20
-12.2565353887
 10
-8.266460367
 20
-12.2370240337
 10
-8.2520187894
 20
-12.2154727978
 10
-8.2404594006
 20
-12.1921736712
 10
-8.2319957761
 20
-12.1674834764
 10
-8.2268045781
 20
-12.1418362449
 10
-8.225
 20
-12.1156656126
  0
LINE
  5
288
100
AcDbEntity
  8
DRAFT
100
AcDbLine
 62
7
  6
CONTINUOUS
 10
-10.6
 20
-11.8637333185
 11
-10.096713794
 21
-11.8382666181
  0
LWPOLYLINE
  5
289
100
AcDbEntity
  8
RACCORDO
100
AcDbPolyline
 62
250
  6
CONTINUOUS
 90
6
 70
0
 10
8.5815519666
 20
-12.3018502442
 10
8.5715844611
 20
-12.3021600348
 10
8.5627555956
 20
-12.3024935617
 10
8.5550541465
 20
-12.3028541689
 10
8.5484913375
 20
-12.3032385125
 10
8.5430671685
 20
-12.3036465925
  0
LWPOLYLINE
  5
28A
100
AcDbEntity
  8
RACCORDO
100
AcDbPolyline
 62
250
  6
CONTINUOUS
 90
4
 70
0
 10
8.3789196623
 20
-12.1025238305
 10
8.365615395
 20
-12.1028844522
 10
8.3545552854
 20
-12.1032688599
 10
8.3461056179
 20
-12.1036770535
  0
LINE
  5
28B
100
AcDbEntity
  8
RACCORDO
100
AcDbLine
 62
250
  6
CONTINUOUS
 10
8.6048448407
 20
-12.3012694525
 11
8.5815519666
 21
-12.3018502442
  0
LINE
  5
28C
100
AcDbEntity
  8
RACCORDO
100
AcDbLine
 62
250
  6
CONTINUOUS
 10
8.4103626263
 20
-12.1018806873
 11
8.3789196623
 21
-12.1025238305
  0
LINE
  5
28D
100
AcDbEntity
  8
RACCORDO
100
AcDbLine
 62
250
  6
CONTINUOUS
 10
8.6331787672
 20
-12.3007380987
 11
8.6048448407
 21
-12.3012694525
  0
LINE
  5
28E
100
AcDbEntity
  8
RACCORDO
100
AcDbLine
 62
250
  6
CONTINUOUS
 10
8.4713898476
 20
-12.1010289613
 11
8.4103626263
 21
-12.1018806873
  0
LINE
  5
28F
100
AcDbEntity
  8
RACCORDO
100
AcDbLine
 62
250
  6
CONTINUOUS
 10
8.6888144544
 20
-12.3000178766
 11
8.6331787672
 21
-12.3007380987
  0
LINE
  5
290
100
AcDbEntity
  8
RACCORDO
100
AcDbLine
 62
250
  6
CONTINUOUS
 10
8.589017761
 20
-12.10004831
 11
8.4713898476
 21
-12.1010289613
  0
LINE
  5
291
100
AcDbEntity
  8
RACCORDO
100
AcDbLine
 62
250
  6
CONTINUOUS
 10
8.7595697706
 20
-12.2995039215
 11
8.6888144544
 21
-12.3000178766
  0
LINE
  5
292
100
AcDbEntity
  8
RACCORDO
100
AcDbLine
 62
250
  6
CONTINUOUS
 10
8.7936303846
 20
-12.0993747942
 11
8.589017761
 21
-12.10004831
  0
LINE
  5
293
100
AcDbEntity
  8
DRAFT
100
AcDbLine
 62
7
  6
CONTINUOUS
 10
-6.1015998396
 20
-13.0015998396
 11
-5.2984001604
 21
-13.0015998396
  0
LINE
  5
294
100
AcDbEntity
  8
DRAFT
100
AcDbLine
 62
7
  6
CONTINUOUS
 10
5.2984001604
 20
-13.0015998396
 11
6.1015998396
 21
-13.0015998396
  0
LINE
  5
295
100
AcDbEntity
  8
RACCORDO
100
AcDbLine
 62
7
  6
CONTINUOUS
 10
-6.0868716207
 20
-12.9868716207
 11
-5.3131283793
 21
-12.9868716207
  0
LINE
  5
296
100
AcDbEntity
  8
RACCORDO
100
AcDbLine
 62
7
  6
CONTINUOUS
 10
5.3131283793
 20
-12.9868716207
 11
6.0868716207
 21
-12.9868716207
  0
LINE
  5
297
100
AcDbEntity
  8
RACCORDO
100
AcDbLine
 62
250
  6
CONTINUOUS
 10
-6.0825462644
 20
-12.4868906591
 11
-5.7174537356
 21
-12.4868906591
  0
LINE
  5
298
100
AcDbEntity
  8
RACCORDO
100
AcDbLine
 62
250
  6
CONTINUOUS
 10
5.7174537356
 20
-12.4868906591
 11
6.0825462644
 21
-12.4868906591
  0
LINE
  5
299
100
AcDbEntity
  8
RACCORDO
100
AcDbLine
 62
7
  6
CONTINUOUS
 10
8.9115891617
 20
-12.3520081812
 11
8.425
 21
-12.3520081812
  0
LINE
  5
29A
100
AcDbEntity
  8
RACCORDO
100
AcDbLine
 62
7
  6
CONTINUOUS
 10
-8.425
 20
-12.3520081812
 11
-8.9115891617
 21
-12.3520081812
  0
LINE
  5
29B
100
AcDbEntity
  8
RACCORDO
100
AcDbLine
 62
250
  6
CONTINUOUS
 10
9.0593097487
 20
-12.2993193851
 11
8.7595697706
 21
-12.2995039215
  0
LINE
  5
29C
100
AcDbEntity
  8
RACCORDO
100
AcDbLine
 62
250
  6
CONTINUOUS
 10
9.0939596788
 20
-12.0993498461
 11
8.7936303846
 21
-12.0993747942
  0
LINE
  5
29D
100
AcDbEntity
  8
RACCORDO
100
AcDbLine
 62
7
  6
CONTINUOUS
 10
9.9265431002
 20
-11.9387125896
 11
9.6496989626
 21
-11.9387125896
  0
LINE
  5
29E
100
AcDbEntity
  8
RACCORDO
100
AcDbLine
 62
7
  6
CONTINUOUS
 10
-9.6496989626
 20
-11.9387125896
 11
-9.9265431002
 21
-11.9387125896
  0
LINE
  5
29F
100
AcDbEntity
  8
DRAFT
100
AcDbLine
 62
7
  6
CONTINUOUS
 10
9.5224101194
 20
-11.7549863962
 11
9.4775898806
 21
-11.7549863962
  0
LINE
  5
2A0
100
AcDbEntity
  8
DRAFT
100
AcDbLine
 62
7
  6
CONTINUOUS
 10
-9.4775898806
 20
-11.7549863962
 11
-9.5224101194
 21
-11.7549863962
  0
LINE
  5
2A1
100
AcDbEntity
  8
RACCORDO
100
AcDbLine
 62
7
  6
CONTINUOUS
 10
9.0939596788
 20
-11.7462375299
 11
8.8385094944
 21
-11.7462375299
  0
LINE
  5
2A2
100
AcDbEntity
  8
RACCORDO
100
AcDbLine
 62
7
  6
CONTINUOUS
 10
-8.8385094944
 20
-11.7462375299
 11
-9.0939596788
 21
-11.7462375299
  0
LINE
  5
2A3
100
AcDbEntity
  8
DRAFT
100
AcDbLine
 62
7
  6
CONTINUOUS
 10
-10.1
 20
-11.65
 11
-9.7828427125
 21
-11.65
  0
LINE
  5
2A4
100
AcDbEntity
  8
DRAFT
100
AcDbLine
 62
7
  6
CONTINUOUS
 10
-9.2171572875
 20
-11.65
 11
-8.225
 21
-11.65
  0
LINE
  5
2A5
100
AcDbEntity
  8
DRAFT
100
AcDbLine
 62
7
  6
CONTINUOUS
 10
8.225
 20
-11.65
 11
9.2171572875
 21
-11.65
  0
LINE
  5
2A6
100
AcDbEntity
  8
DRAFT
100
AcDbLine
 62
7
  6
CONTINUOUS
 10
9.7828427125
 20
-11.65
 11
10.1
 21
-11.65
  0
LINE
  5
2A7
100
AcDbEntity
  8
0
100
AcDbLine
 62
7
  6
CONTINUOUS
 10
-9.9644022453
 20
-11.6322024782
 11
-9.7753574257
 21
-11.6322024782
  0
LINE
  5
2A8
100
AcDbEntity
  8
0
100
AcDbLine
 62
7
  6
CONTINUOUS
 10
-9.2246425743
 20
-11.6322024782
 11
-8.225
 21
-11.6322024782
  0
LINE
  5
2A9
100
AcDbEntity
  8
0
100
AcDbLine
 62
7
  6
CONTINUOUS
 10
8.225
 20
-11.6322024782
 11
9.2246425743
 21
-11.6322024782
  0
LINE
  5
2AA
100
AcDbEntity
  8
0
100
AcDbLine
 62
7
  6
CONTINUOUS
 10
9.7753574257
 20
-11.6322024782
 11
9.9644022453
 21
-11.6322024782
  0
LINE
  5
2AB
100
AcDbEntity
  8
RACCORDO
100
AcDbLine
 62
250
  6
CONTINUOUS
 10
-8.7700377542
 20
-12.2994576025
 11
-9.0593097487
 21
-12.2993193851
  0
LINE
  5
2AC
100
AcDbEntity
  8
RACCORDO
100
AcDbLine
 62
250
  6
CONTINUOUS
 10
-8.6585382605
 20
-12.0996994434
 11
-9.0939596788
 21
-12.0993498461
  0
LINE
  5
2AD
100
AcDbEntity
  8
RACCORDO
100
AcDbLine
 62
250
  6
CONTINUOUS
 10
-8.5100289818
 20
-12.1006393377
 11
-8.6585382605
 21
-12.0996994434
  0
LINE
  5
2AE
100
AcDbEntity
  8
RACCORDO
100
AcDbLine
 62
250
  6
CONTINUOUS
 10
-8.693668231
 20
-12.2999685147
 11
-8.7700377542
 21
-12.2994576025
  0
LINE
  5
2AF
100
AcDbEntity
  8
RACCORDO
100
AcDbLine
 62
250
  6
CONTINUOUS
 10
-8.4297815261
 20
-12.1015713547
 11
-8.5100289818
 21
-12.1006393377
  0
LINE
  5
2B0
100
AcDbEntity
  8
RACCORDO
100
AcDbLine
 62
250
  6
CONTINUOUS
 10
-8.6414672699
 20
-12.3006088691
 11
-8.693668231
 21
-12.2999685147
  0
LINE
  5
2B1
100
AcDbEntity
  8
RACCORDO
100
AcDbLine
 62
250
  6
CONTINUOUS
 10
-8.6084768575
 20
-12.301194502
 11
-8.6414672699
 21
-12.3006088691
  0
LWPOLYLINE
  5
2B2
100
AcDbEntity
  8
RACCORDO
100
AcDbPolyline
 62
250
  6
CONTINUOUS
 90
5
 70
0
 10
-8.3461056179
 20
-12.1036771382
 10
-8.3558879752
 20
-12.103213287
 10
-8.3693725102
 20
-12.1027715007
 10
-8.3863106106
 20
-12.1023517794
 10
-8.4297815261
 20
-12.1015713547
  0
LINE
  5
2B3
100
AcDbEntity
  8
DRAFT
100
AcDbLine
 62
7
  6
CONTINUOUS
 10
10.096713794
 20
-11.8382666181
 11
10.6
 21
-11.8637333185
  0
LWPOLYLINE
  5
2B4
100
AcDbEntity
  8
RACCORDO
100
AcDbPolyline
 62
7
  6
CONTINUOUS
 90
13
 70
0
 10
8.425
 20
-12.3153343676
 10
8.3985868597
 20
-12.313541464
 10
8.372755195
 20
-12.3083104896
 10
8.3479438244
 20
-12.2997789513
 10
8.3245975293
 20
-12.2881575387
 10
8.3030538927
 20
-12.273676159
 10
8.2835660701
 20
-12.2565361515
 10
8.2664643137
 20
-12.237032425
 10
8.2520288613
 20
-12.2154895151
 10
8.240447282
 20
-12.1921446455
 10
8.2319497029
 20
-12.1673270902
 10
8.2267536913
 20
-12.1414858669
 10
8.225
 20
-12.1150594045
  0
LWPOLYLINE
  5
2B5
100
AcDbEntity
  8
RACCORDO
100
AcDbPolyline
 62
250
  6
CONTINUOUS
 90
13
 70
0
 10
8.5430671685
 20
-12.3036465925
 10
8.5174077272
 20
-12.3018634604
 10
8.4921856361
 20
-12.2967023575
 10
8.4678307907
 20
-12.2882512519
 10
8.4447583052
 20
-12.2766541876
 10
8.4233614364
 20
-12.2621088298
 10
8.4040048814
 20
-12.2448630955
 10
8.3870185612
 20
-12.2252109281
 10
8.3726919977
 20
-12.2034872872
 10
8.3612693788
 20
-12.1800624394
 10
8.3529453964
 20
-12.1553356476
 10
8.3478619278
 20
-12.1297283652
 10
8.3461056179
 20
-12.1036770535
  0
LWPOLYLINE
  5
2B6
100
AcDbEntity
  8
RACCORDO
100
AcDbPolyline
 62
250
  6
CONTINUOUS
 90
6
 70
0
 10
-8.5430671685
 20
-12.3036465925
 10
-8.5492010898
 20
-12.3031829024
 10
-8.5572420885
 20
-12.3027412156
 10
-8.5671901646
 20
-12.3023215321
 10
-8.5793473926
 20
-12.3019202312
 10
-8.6084768575
 20
-12.301194502
  0
LINE
  5
2B7
100
AcDbEntity
  8
RACCORDO
100
AcDbLine
 62
7
  6
CONTINUOUS
 10
-10.0326091174
 20
-11.9348688642
 11
-10.5560660172
 21
-11.8890723196
  0
LINE
  5
2B8
100
AcDbEntity
  8
RACCORDO
100
AcDbLine
 62
7
  6
CONTINUOUS
 10
-9.0593097487
 20
-12.2993193851
 11
-8.9115891617
 21
-12.313942629
  0
LINE
  5
2B9
100
AcDbEntity
  8
RACCORDO
100
AcDbLine
 62
250
  6
CONTINUOUS
 10
-8.425
 20
-12.3153343676
 11
-8.5430671685
 21
-12.3036465925
  0
LINE
  5
2BA
100
AcDbEntity
  8
RACCORDO
100
AcDbLine
 62
250
  6
CONTINUOUS
 10
-8.225
 20
-12.1156656126
 11
-8.3461056179
 21
-12.1036770535
  0
LWPOLYLINE
  5
2BB
100
AcDbEntity
  8
RACCORDO
100
AcDbPolyline
 62
250
  6
CONTINUOUS
 90
22
 70
0
 10
10.3521046075
 20
-14.4517899677
 10
10.3223763111
 20
-14.4475287861
 10
10.2941327915
 20
-14.4414680122
 10
10.2673740487
 20
-14.4336076459
 10
10.2421019346
 20
-14.4237716376
 10
10.2183145973
 20
-14.412136037
 10
10.1960064807
 20
-14.3992289931
 10
10.175158482
 20
-14.3850595898
 10
10.155789704
 20
-14.3696187433
 10
10.137951899
 20
-14.3534073512
 10
10.121704023
 20
-14.3364933076
 10
10.1069871199
 20
-14.3188087184
 10
10.0936760735
 20
-14.3006507987
 10
10.0817997516
 20
-14.2822025985
 10
10.0713292863
 20
-14.2632810679
 10
10.0620529574
 20
-14.2436342721
 10
10.0538423871
 20
-14.2234336863
 10
10.0468259531
 20
-14.2025078353
 10
10.0411770679
 20
-14.1800903596
 10
10.0369535356
 20
-14.1559258057
 10
10.0340975521
 20
-14.1302696269
 10
10.0326091174
 20
-14.1031218234
  0
LWPOLYLINE
  5
2BC
100
AcDbEntity
  8
RACCORDO
100
AcDbPolyline
 62
250
  6
CONTINUOUS
 90
22
 70
0
 10
10.2460385903
 20
-14.6012191724
 10
10.2163092841
 20
-14.5957106313
 10
10.1880651939
 20
-14.5869365269
 10
10.1613063194
 20
-14.5752447987
 10
10.1360347611
 20
-14.5610315801
 10
10.1122484186
 20
-14.5446110999
 10
10.0899409911
 20
-14.5261318994
 10
10.0690929148
 20
-14.5057911302
 10
10.0497237535
 20
-14.4838952771
 10
10.031885898
 20
-14.4606725718
 10
10.0156388098
 20
-14.4364059757
 10
10.0009230273
 20
-14.4112753711
 10
9.9876125562
 20
-14.3853052567
 10
9.9757354673
 20
-14.358850593
 10
9.9652636898
 20
-14.3319095632
 10
9.9559870165
 20
-14.3038538734
 10
9.9477783655
 20
-14.2749457881
 10
9.9407648187
 20
-14.2451127025
 10
9.9351174149
 20
-14.2130759385
 10
9.930893167
 20
-14.1784257671
 10
9.9280350621
 20
-14.1417215525
 10
9.9265431002
 20
-14.1031218234
  0
LWPOLYLINE
  5
2BD
100
AcDbEntity
  8
RACCORDO
100
AcDbPolyline
 62
7
  6
CONTINUOUS
 90
13
 70
0
 10
9.1101234466
 20
-14.8449828458
 10
9.09701235
 20
-14.841552172
 10
9.0822856396
 20
-14.8364320704
 10
9.0661806206
 20
-14.8292544461
 10
9.0487908639
 20
-14.8196420776
 10
9.030770416
 20
-14.8072520209
 10
9.0132583302
 20
-14.7919591571
 10
8.9966442161
 20
-14.773557038
 10
8.9816103014
 20
-14.7521715011
 10
8.9694316183
 20
-14.7287052379
 10
8.9605324069
 20
-14.7038506469
 10
8.9548123099
 20
-14.6777919387
 10
8.952381992
 20
-14.6509623137
  0
LINE
  5
2BE
100
AcDbEntity
  8
RACCORDO
100
AcDbLine
 62
7
  6
CONTINUOUS
 10
-5.3131283793
 20
-12.9868716207
 11
-5.2984001604
 21
-13.0015998396
  0
LWPOLYLINE
  5
2BF
100
AcDbEntity
  8
0
100
AcDbPolyline
 62
7
  6
CONTINUOUS
 90
6
 70
0
 10
5.2
 20
-24.6538273509
 10
5.1981206307
 20
-24.6514846537
 10
5.1928262138
 20
-24.6491970873
 10
5.1841167493
 20
-24.6469646517
 10
5.1718245263
 20
-24.6447553603
 10
5.1561172557
 20
-24.6426011997
  0
LINE
  5
2C0
100
AcDbEntity
  8
DRAFT
100
AcDbLine
 62
7
  6
CONTINUOUS
 10
-10.0474734127
 20
-14.6592461713
 11
-10.0441437922
 21
-14.85
  0
LINE
  5
2C1
100
AcDbEntity
  8
DRAFT
100
AcDbLine
 62
7
  6
CONTINUOUS
 10
-10.096713794
 20
-11.8382666181
 11
-10.1
 21
-11.65
  0
LINE
  5
2C2
100
AcDbEntity
  8
DRAFT
100
AcDbLine
 62
7
  6
CONTINUOUS
 10
-9.9584850524
 20
-14.857531663
 11
-9.9458390179
 21
-21.7506014589
  0
LINE
  5
2C3
100
AcDbEntity
  8
0
100
AcDbLine
 62
7
  6
CONTINUOUS
 10
-9.9431567889
 20
-24.6827004522
 11
-9.9458390179
 21
-21.7506014589
  0
LINE
  5
2C4
100
AcDbEntity
  8
RACCORDO
100
AcDbLine
 62
7
  6
CONTINUOUS
 10
-11.0528653412
 20
25.8530366787
 11
-11.0528653412
 21
-25.8530366787
  0
LINE
  5
2C5
100
AcDbEntity
  8
RACCORDO
100
AcDbLine
 62
7
  6
CONTINUOUS
 10
-10.6
 20
-14.4810783669
 11
-10.6
 21
-11.8637333185
  0
LINE
  5
2C6
100
AcDbEntity
  8
RACCORDO
100
AcDbLine
 62
250
  6
CONTINUOUS
 10
-10.5560660172
 20
-14.4696342788
 11
-10.5560660172
 21
-11.8890723196
  0
LINE
  5
2C7
100
AcDbEntity
  8
RACCORDO
100
AcDbLine
 62
250
  6
CONTINUOUS
 10
-10.45
 20
-14.638949698
 11
-10.45
 21
-14.6190634835
  0
LINE
  5
2C8
100
AcDbEntity
  8
RACCORDO
100
AcDbLine
 62
250
  6
CONTINUOUS
 10
-10.0326091174
 20
-14.1031218234
 11
-10.0326091174
 21
-11.9348688642
  0
LINE
  5
2C9
100
AcDbEntity
  8
DRAFT
100
AcDbLine
 62
7
  6
CONTINUOUS
 10
-10.0
 20
-25.1524539902
 11
-10.0
 21
-14.85
  0
LINE
  5
2CA
100
AcDbEntity
  8
RACCORDO
100
AcDbLine
 62
7
  6
CONTINUOUS
 10
-10.0
 20
-11.65
 11
-10.0
 21
22.4052437364
  0
LINE
  5
2CB
100
AcDbEntity
  8
RACCORDO
100
AcDbLine
 62
7
  6
CONTINUOUS
 10
-10.0
 20
22.5947562636
 11
-10.0
 21
25.1524539902
  0
LINE
  5
2CC
100
AcDbEntity
  8
DRAFT
100
AcDbLine
 62
7
  6
CONTINUOUS
 10
-9.9860359481
 20
25.1384899382
 11
-9.9860359481
 21
22.8
  0
LWPOLYLINE
  5
2CD
100
AcDbEntity
  8
DRAFT
100
AcDbPolyline
 62
7
  6
CONTINUOUS
 90
3
 70
0
 10
-9.9860359481
 20
22.2
 10
-9.9859608746
 20
8.8530479276
 10
-9.9644022453
 20
-11.6322024782
  0
LINE
  5
2CE
100
AcDbEntity
  8
RACCORDO
100
AcDbLine
 62
250
  6
CONTINUOUS
 10
-9.9265431002
 20
-14.1031218234
 11
-9.9265431002
 21
-11.9387125896
  0
LINE
  5
2CF
100
AcDbEntity
  8
RACCORDO
100
AcDbLine
 62
250
  6
CONTINUOUS
 10
-9.6496989626
 20
-14.1031218234
 11
-9.6496989626
 21
-11.9387125896
  0
LINE
  5
2D0
100
AcDbEntity
  8
RACCORDO
100
AcDbLine
 62
250
  6
CONTINUOUS
 10
-9.452737412
 20
-14.1031218234
 11
-9.452737412
 21
-11.9242533063
  0
LWPOLYLINE
  5
2D1
100
AcDbEntity
  8
RACCORDO
100
AcDbPolyline
 62
250
  6
CONTINUOUS
 90
13
 70
0
 10
-7.9830065909
 20
23.0416442642
 10
-7.9812594042
 20
23.067328275
 10
-7.9761267193
 20
23.0925736716
 10
-7.9676961888
 20
23.1169493301
 10
-7.9561117836
 20
23.1400389794
 10
-7.9415713345
 20
23.1614483098
 10
-7.9243231533
 20
23.1808117075
 10
-7.9046617928
 20
23.1977984972
 10
-7.8829230166
 20
23.21211859
 10
-7.8594780647
 20
23.223527437
 10
-7.8347273144
 20
23.2318302053
 10
-7.8090934423
 20
23.236885106
 10
-7.7830142063
 20
23.2386058148
  0
LINE
  5
2D2
100
AcDbEntity
  8
0
100
AcDbLine
 62
7
  6
CONTINUOUS
 10
-3.02989
 20
24.661797
 11
-3.481663
 21
23.07878
  0
LINE
  5
2D3
100
AcDbEntity
  8
0
100
AcDbLine
 62
7
  6
CONTINUOUS
 10
-3.289406
 20
22.362007
 11
-2.550162
 21
24.661797
  0
LINE
  5
2D4
100
AcDbEntity
  8
DRAFT
100
AcDbLine
 62
7
  6
CONTINUOUS
 10
10.0
 20
25.1524539902
 11
9.9860359481
 21
25.1384899382
  0
LINE
  5
2D5
100
AcDbEntity
  8
RACCORDO
100
AcDbLine
 62
7
  6
CONTINUOUS
 10
7.9866280426
 20
22.7866280426
 11
8.0
 21
22.8
  0
LWPOLYLINE
  5
2D6
100
AcDbEntity
  8
0
100
AcDbPolyline
 62
7
  6
CONTINUOUS
 90
10
 70
0
 10
7.1235822797
 20
18.8762793228
 10
7.133492811
 20
18.8838112847
 10
7.1440842509
 20
18.8908806363
 10
7.1553565994
 20
18.8974873777
 10
7.1672796614
 20
18.90364019
 10
7.1798836319
 20
18.9093303921
 10
7.1932590963
 20
18.9145319399
 10
7.2074362498
 20
18.9192361521
 10
7.2223848971
 20
18.92345171
 10
7.2381050383
 20
18.9271786137
  0
LWPOLYLINE
  5
2D7
100
AcDbEntity
  8
0
100
AcDbPolyline
 62
7
  6
CONTINUOUS
 90
10
 70
0
 10
8.8509681743
 20
18.3100278979
 10
8.8385128136
 20
18.3020722182
 10
8.8252274708
 20
18.2945675811
 10
8.8111121459
 20
18.2875139867
 10
8.7962086839
 20
18.2808737141
 10
8.7804752398
 20
18.2746844841
 10
8.7637862786
 20
18.2690594595
 10
8.7460999551
 20
18.2640363611
 10
8.7274581144
 20
18.2595774681
 10
8.7078607566
 20
18.2556827805
  0
LWPOLYLINE
  5
2D8
100
AcDbEntity
  8
0
100
AcDbPolyline
 62
7
  6
CONTINUOUS
 90
10
 70
0
 10
7.0663208723
 20
16.140456526
 10
7.0400646131
 20
16.1272134219
 10
7.0152862003
 20
16.1126872398
 10
6.9919856341
 20
16.0968779796
 10
6.9703068069
 20
16.0799203647
 10
6.9501058261
 20
16.0616796718
 10
6.9309510143
 20
16.0417517309
 10
6.9126984787
 20
16.0200018187
 10
6.895492112
 20
15.9965646585
 10
6.8793319142
 20
15.9714402504
  0
LWPOLYLINE
  5
2D9
100
AcDbEntity
  8
0
100
AcDbPolyline
 62
7
  6
CONTINUOUS
 90
10
 70
0
 10
7.0663208723
 20
14.702558963
 10
7.0400647335
 20
14.6893159242
 10
7.0152864038
 20
14.6747897799
 10
6.9919858832
 20
14.6589805302
 10
6.9703070546
 20
14.6420228938
 10
6.9501060351
 20
14.623782152
 10
6.9309511762
 20
14.6038541486
 10
6.912698595
 20
14.582104165
 10
6.8954921743
 20
14.5586669199
 10
6.8793319142
 20
14.5335424132
  0
LWPOLYLINE
  5
2DA
100
AcDbEntity
  8
0
100
AcDbPolyline
 62
7
  6
CONTINUOUS
 90
10
 70
0
 10
8.9148444841
 20
16.6297760642
 10
8.9459149208
 20
16.6446207985
 10
8.9746575771
 20
16.6603970129
 10
9.0010724529
 20
16.6771047073
 10
9.0249247664
 20
16.6946421808
 10
9.0464492994
 20
16.7131111343
 10
9.0663503973
 20
16.732816671
 10
9.0848628419
 20
16.7538604918
 10
9.1017518513
 20
16.7761408958
 10
9.1170174257
 20
16.799657883
  0
LWPOLYLINE
  5
2DB
100
AcDbEntity
  8
0
100
AcDbPolyline
 62
7
  6
CONTINUOUS
 90
10
 70
0
 10
8.9148444841
 20
15.191878227
 10
8.9459148433
 20
15.2067229344
 10
8.9746574436
 20
15.2224991366
 10
9.0010722852
 20
15.2392068336
 10
9.0249245891
 20
15.2567443249
 10
9.0464491342
 20
15.2752133109
 10
9.0663502568
 20
15.2949188934
 10
9.0848627356
 20
15.3159627726
 10
9.1017517919
 20
15.3382432481
 10
9.1170174257
 20
15.36176032
  0
LWPOLYLINE
  5
2DC
100
AcDbEntity
  8
0
100
AcDbPolyline
 62
7
  6
CONTINUOUS
 90
10
 70
0
 10
8.7910092996
 20
13.9758143507
 10
8.7707093561
 20
13.9695399735
 10
8.7490151683
 20
13.9637153878
 10
8.7259267361
 20
13.9583405937
 10
8.7015548795
 20
13.9534064277
 10
8.6757887785
 20
13.9489220533
 10
8.6482959734
 20
13.9449149608
 10
8.618965644
 20
13.9413943135
 10
8.5879086104
 20
13.9383509481
 10
8.5551248727
 20
13.9357848645
  0
LINE
  5
2DD
100
AcDbEntity
  8
0
100
AcDbLine
 62
7
  6
CONTINUOUS
 10
5.2
 20
-11.117670134
 11
2.4802396857
 21
-11.117670134
  0
LINE
  5
2DE
100
AcDbEntity
  8
0
100
AcDbLine
 62
7
  6
CONTINUOUS
 10
-2.4802396857
 20
-11.117670134
 11
-5.2
 21
-11.117670134
  0
LINE
  5
2DF
100
AcDbEntity
  8
0
100
AcDbLine
 62
7
  6
CONTINUOUS
 10
2.4502566497
 20
-11.0361903007
 11
-2.4502566497
 21
-11.0361903007
  0
LINE
  5
2E0
100
AcDbEntity
  8
RACCORDO
100
AcDbLine
 62
250
  6
CONTINUOUS
 10
6.0825462644
 20
-10.9235706878
 11
5.7174537356
 21
-10.9235706878
  0
LINE
  5
2E1
100
AcDbEntity
  8
RACCORDO
100
AcDbLine
 62
250
  6
CONTINUOUS
 10
-5.7174537356
 20
-10.9235706878
 11
-6.0825462644
 21
-10.9235706878
  0
LINE
  5
2E2
100
AcDbEntity
  8
RACCORDO
100
AcDbLine
 62
250
  6
CONTINUOUS
 10
6.0844069354
 20
-10.5139946657
 11
5.502373164
 21
-10.5139946657
  0
LINE
  5
2E3
100
AcDbEntity
  8
RACCORDO
100
AcDbLine
 62
250
  6
CONTINUOUS
 10
-5.502373164
 20
-10.5139946657
 11
-6.0844069354
 21
-10.5139946657
  0
LINE
  5
2E4
100
AcDbEntity
  8
DRAFT
100
AcDbLine
 62
250
  6
CONTINUOUS
 10
9.9667371255
 20
-10.3595116908
 11
6.0991764351
 21
-10.3595116908
  0
LINE
  5
2E5
100
AcDbEntity
  8
DRAFT
100
AcDbLine
 62
250
  6
CONTINUOUS
 10
5.3008235649
 20
-10.3595116908
 11
5.2
 21
-10.3595116908
  0
LINE
  5
2E6
100
AcDbEntity
  8
DRAFT
100
AcDbLine
 62
250
  6
CONTINUOUS
 10
-5.2
 20
-10.3595116908
 11
-5.3008235649
 21
-10.3595116908
  0
LINE
  5
2E7
100
AcDbEntity
  8
DRAFT
100
AcDbLine
 62
250
  6
CONTINUOUS
 10
-6.0991764351
 20
-10.3595116908
 11
-9.9667371255
 21
-10.3595116908
  0
LINE
  5
2E8
100
AcDbEntity
  8
RACCORDO
100
AcDbLine
 62
250
  6
CONTINUOUS
 10
-6.0885434569
 20
-10.1820974043
 11
-5.3114565431
 21
-10.1820974043
  0
LINE
  5
2E9
100
AcDbEntity
  8
RACCORDO
100
AcDbLine
 62
250
  6
CONTINUOUS
 10
5.3114565431
 20
-10.1820974043
 11
6.0885434569
 21
-10.1820974043
  0
LINE
  5
2EA
100
AcDbEntity
  8
RACCORDO
100
AcDbLine
 62
250
  6
CONTINUOUS
 10
-6.0906659215
 20
-10.0935760774
 11
-5.3093340785
 21
-10.0935760774
  0
LINE
  5
2EB
100
AcDbEntity
  8
RACCORDO
100
AcDbLine
 62
250
  6
CONTINUOUS
 10
5.3093340785
 20
-10.0935760774
 11
6.0906659215
 21
-10.0935760774
  0
LINE
  5
2EC
100
AcDbEntity
  8
DRAFT
100
AcDbLine
 62
7
  6
CONTINUOUS
 10
6.0988583842
 20
-10.011444936
 11
5.3011416158
 21
-10.011444936
  0
LINE
  5
2ED
100
AcDbEntity
  8
DRAFT
100
AcDbLine
 62
7
  6
CONTINUOUS
 10
-5.3011416158
 20
-10.011444936
 11
-6.0988583842
 21
-10.011444936
  0
LINE
  5
2EE
100
AcDbEntity
  8
0
100
AcDbLine
 62
7
  6
CONTINUOUS
 10
-7.7005700707
 20
-9.9357114275
 11
-5.2998859859
 21
-9.9357114275
  0
LINE
  5
2EF
100
AcDbEntity
  8
0
100
AcDbLine
 62
7
  6
CONTINUOUS
 10
5.2998859859
 20
-9.9357114275
 11
7.7005700707
 21
-9.9357114275
  0
LWPOLYLINE
  5
2F0
100
AcDbEntity
  8
DRAFT
100
AcDbPolyline
 62
7
  6
CONTINUOUS
 90
5
 70
0
 10
9.5367211675
 20
-14.7502257696
 10
9.5330873498
 20
-14.7488595531
 10
9.5294854429
 20
-14.7475353843
 10
9.5259263661
 20
-14.7462534012
 10
9.5224101194
 20
-14.7450136038
  0
LINE
  5
2F1
100
AcDbEntity
  8
DRAFT
100
AcDbLine
 62
7
  6
CONTINUOUS
 10
9.5441500514
 20
-14.7530851733
 11
9.5367211675
 21
-14.7502257696
  0
LINE
  5
2F2
100
AcDbEntity
  8
DRAFT
100
AcDbLine
 62
7
  6
CONTINUOUS
 10
9.5518929295
 20
-14.7561144857
 11
9.5441500514
 21
-14.7530851733
  0
LINE
  5
2F3
100
AcDbEntity
  8
DRAFT
100
AcDbLine
 62
7
  6
CONTINUOUS
 10
9.5684540053
 20
-14.7626969338
 11
9.5518929295
 21
-14.7561144857
  0
LINE
  5
2F4
100
AcDbEntity
  8
DRAFT
100
AcDbLine
 62
7
  6
CONTINUOUS
 10
9.6116915216
 20
-14.7801550368
 11
9.5684540053
 21
-14.7626969338
  0
LINE
  5
2F5
100
AcDbEntity
  8
DRAFT
100
AcDbLine
 62
7
  6
CONTINUOUS
 10
9.7828427125
 20
-14.85
 11
9.6116915216
 21
-14.7801550368
  0
LWPOLYLINE
  5
2F6
100
AcDbEntity
  8
0
100
AcDbPolyline
 62
7
  6
CONTINUOUS
 90
13
 70
0
 10
-6.1999898126
 20
-24.5556871475
 10
-6.1991864236
 20
-24.5680333839
 10
-6.1968069675
 20
-24.580396453
 10
-6.1928262977
 20
-24.5925659957
 10
-6.1872337531
 20
-24.6043744626
 10
-6.1800698988
 20
-24.6155381598
 10
-6.1714713513
 20
-24.6256893888
 10
-6.1615735758
 20
-24.6346187638
 10
-6.1505385859
 20
-24.6421740031
 10
-6.1386421128
 20
-24.6481570308
 10
-6.126134938
 20
-24.6524678018
 10
-6.1132137083
 20
-24.6550682903
 10
-6.1001065276
 20
-24.6559313373
  0
LWPOLYLINE
  5
2F7
100
AcDbEntity
  8
RACCORDO
100
AcDbPolyline
 62
250
  6
CONTINUOUS
 90
4
 70
0
 10
-7.9819352889
 20
23.0048367532
 10
-7.9822700506
 20
23.0192470709
 10
-7.9826271513
 20
23.0315162412
 10
-7.9830065909
 20
23.0416442642
  0
LINE
  5
2F8
100
AcDbEntity
  8
RACCORDO
100
AcDbLine
 62
250
  6
CONTINUOUS
 10
-7.9813402187
 20
22.9697830187
 11
-7.9819352889
 21
23.0048367532
  0
LINE
  5
2F9
100
AcDbEntity
  8
RACCORDO
100
AcDbLine
 62
250
  6
CONTINUOUS
 10
-7.980541597
 20
22.8999802386
 11
-7.9813402187
 21
22.9697830187
  0
LINE
  5
2FA
100
AcDbEntity
  8
RACCORDO
100
AcDbLine
 62
250
  6
CONTINUOUS
 10
-7.7810726793
 20
23.1119439758
 11
-7.781942834
 21
23.1884137545
  0
LINE
  5
2FB
100
AcDbEntity
  8
RACCORDO
100
AcDbLine
 62
250
  6
CONTINUOUS
 10
-7.7798296438
 20
22.910523644
 11
-7.7810726793
 21
23.1119439758
  0
LINE
  5
2FC
100
AcDbEntity
  8
RACCORDO
100
AcDbLine
 62
250
  6
CONTINUOUS
 10
-7.9794356721
 20
22.7177531268
 11
-7.980541597
 21
22.8999802386
  0
LINE
  5
2FD
100
AcDbEntity
  8
RACCORDO
100
AcDbLine
 62
250
  6
CONTINUOUS
 10
-7.6203082933
 20
22.1248200763
 11
-7.6190615835
 21
21.9034766302
  0
LINE
  5
2FE
100
AcDbEntity
  8
0
100
AcDbLine
 62
7
  6
CONTINUOUS
 10
-9.150022
 20
17.719243
 11
-9.150022
 21
17.385218
  0
LINE
  5
2FF
100
AcDbEntity
  8
0
100
AcDbLine
 62
7
  6
CONTINUOUS
 10
-9.150011
 20
13.190325
 11
-9.150011
 21
12.919923
  0
LINE
  5
300
100
AcDbEntity
  8
0
100
AcDbLine
 62
7
  6
CONTINUOUS
 10
-9.150007
 20
16.53903
 11
-9.150007
 21
15.479694
  0
LINE
  5
301
100
AcDbEntity
  8
0
100
AcDbLine
 62
7
  6
CONTINUOUS
 10
-9.150007
 20
15.05875
 11
-9.150007
 21
14.807414
  0
LINE
  5
302
100
AcDbEntity
  8
0
100
AcDbLine
 62
7
  6
CONTINUOUS
 10
-9.150007
 20
14.034385
 11
-9.150007
 21
13.614468
  0
LINE
  5
303
100
AcDbEntity
  8
0
100
AcDbLine
 62
7
  6
CONTINUOUS
 10
-9.150007
 20
11.880401
 11
-9.150007
 21
11.61
  0
LINE
  5
304
100
AcDbEntity
  8
RACCORDO
100
AcDbLine
 62
7
  6
CONTINUOUS
 10
-9.0939596788
 20
-11.7462375299
 11
-9.0939596788
 21
-12.0993498461
  0
LINE
  5
305
100
AcDbEntity
  8
RACCORDO
100
AcDbLine
 62
7
  6
CONTINUOUS
 10
-9.0
 20
22.4052437364
 11
-9.0
 21
22.5947562636
  0
LINE
  5
306
100
AcDbEntity
  8
0
100
AcDbLine
 62
7
  6
CONTINUOUS
 10
-8.933686
 20
15.750095
 11
-8.933686
 21
16.53903
  0
LINE
  5
307
100
AcDbEntity
  8
RACCORDO
100
AcDbLine
 62
250
  6
CONTINUOUS
 10
-8.8385094944
 20
-12.2993193851
 11
-8.8385094944
 21
-11.7462375299
  0
LINE
  5
308
100
AcDbEntity
  8
RACCORDO
100
AcDbLine
 62
250
  6
CONTINUOUS
 10
-8.425
 20
-12.3520081812
 11
-8.425
 21
-12.3153343676
  0
LINE
  5
309
100
AcDbEntity
  8
RACCORDO
100
AcDbLine
 62
250
  6
CONTINUOUS
 10
-8.3461056179
 20
-12.1036770535
 11
-8.3461056179
 21
-11.7100893216
  0
LINE
  5
30A
100
AcDbEntity
  8
DRAFT
100
AcDbLine
 62
7
  6
CONTINUOUS
 10
-8.225
 20
-11.6322024782
 11
-8.225
 21
-11.65
  0
LINE
  5
30B
100
AcDbEntity
  8
RACCORDO
100
AcDbLine
 62
7
  6
CONTINUOUS
 10
-8.225
 20
-12.151610065
 11
-8.225
 21
-11.65
  0
LINE
  5
30C
100
AcDbEntity
  8
0
100
AcDbLine
 62
7
  6
CONTINUOUS
 10
-8.2
 20
-7.4361217277
 11
-8.2
 21
-9.4330578722
  0
LINE
  5
30D
100
AcDbEntity
  8
0
100
AcDbLine
 62
7
  6
CONTINUOUS
 10
-8.144751
 20
16.497674
 11
-8.144751
 21
15.750095
  0
LINE
  5
30E
100
AcDbEntity
  8
RACCORDO
100
AcDbLine
 62
7
  6
CONTINUOUS
 10
-8.0
 20
21.6150027044
 11
-8.0
 21
22.2
  0
LINE
  5
30F
100
AcDbEntity
  8
RACCORDO
100
AcDbLine
 62
7
  6
CONTINUOUS
 10
-8.0
 20
22.8
 11
-8.0
 21
23.3849972956
  0
LINE
  5
310
100
AcDbEntity
  8
RACCORDO
100
AcDbLine
 62
7
  6
CONTINUOUS
 10
-7.9841533463
 20
22.4146201039
 11
-7.9841533463
 21
22.5853798961
  0
LINE
  5
311
100
AcDbEntity
  8
0
100
AcDbLine
 62
7
  6
CONTINUOUS
 10
-7.928429
 20
15.750095
 11
-7.928429
 21
16.497674
  0
LINE
  5
312
100
AcDbEntity
  8
0
100
AcDbLine
 62
7
  6
CONTINUOUS
 10
-7.6485
 20
17.878303
 11
-7.6485
 21
17.210253
  0
LINE
  5
313
100
AcDbEntity
  8
0
100
AcDbLine
 62
7
  6
CONTINUOUS
 10
-7.432179
 20
17.143447
 11
-7.432179
 21
17.941927
  0
LINE
  5
314
100
AcDbEntity
  8
RACCORDO
100
AcDbLine
 62
250
  6
CONTINUOUS
 10
-7.779090584
 20
22.4004418227
 11
-7.7798296438
 21
22.910523644
  0
LINE
  5
315
100
AcDbEntity
  8
RACCORDO
100
AcDbLine
 62
250
  6
CONTINUOUS
 10
-7.9790829676
 20
22.427130412
 11
-7.9794356721
 21
22.7177531268
  0
LINE
  5
316
100
AcDbEntity
  8
RACCORDO
100
AcDbLine
 62
250
  6
CONTINUOUS
 10
-7.6208809774
 20
22.6284289492
 11
-7.6203082933
 21
22.1248200763
  0
LINE
  5
317
100
AcDbEntity
  8
RACCORDO
100
AcDbLine
 62
250
  6
CONTINUOUS
 10
-7.4203224899
 20
22.7737550816
 11
-7.4209592692
 21
22.4988399872
  0
LINE
  5
318
100
AcDbEntity
  8
RACCORDO
100
AcDbLine
 62
250
  6
CONTINUOUS
 10
-7.7800926149
 20
22.0328051138
 11
-7.779090584
 21
22.4004418227
  0
LINE
  5
319
100
AcDbEntity
  8
RACCORDO
100
AcDbLine
 62
250
  6
CONTINUOUS
 10
-7.619838199
 20
22.9804560374
 11
-7.6208809774
 21
22.6284289492
  0
LINE
  5
31A
100
AcDbEntity
  8
RACCORDO
100
AcDbLine
 62
250
  6
CONTINUOUS
 10
-7.9798318072
 20
22.1974394528
 11
-7.9790829676
 21
22.427130412
  0
LINE
  5
31B
100
AcDbEntity
  8
RACCORDO
100
AcDbLine
 62
250
  6
CONTINUOUS
 10
-7.9806809271
 20
22.0859285766
 11
-7.9798318072
 21
22.1974394528
  0
LINE
  5
31C
100
AcDbEntity
  8
RACCORDO
100
AcDbLine
 62
250
  6
CONTINUOUS
 10
-7.4192556179
 20
22.9203173315
 11
-7.4203224899
 21
22.7737550816
  0
LINE
  5
31D
100
AcDbEntity
  8
RACCORDO
100
AcDbLine
 62
250
  6
CONTINUOUS
 10
-7.7813831609
 20
21.8564986319
 11
-7.7800926149
 21
22.0328051138
  0
LINE
  5
31E
100
AcDbEntity
  8
RACCORDO
100
AcDbLine
 62
250
  6
CONTINUOUS
 10
-7.6185671876
 20
23.1480882347
 11
-7.619838199
 21
22.9804560374
  0
LINE
  5
31F
100
AcDbEntity
  8
RACCORDO
100
AcDbLine
 62
250
  6
CONTINUOUS
 10
-7.9813756035
 20
22.0279916184
 11
-7.9806809271
 21
22.0859285766
  0
LINE
  5
320
100
AcDbEntity
  8
RACCORDO
100
AcDbLine
 62
250
  6
CONTINUOUS
 10
-9.1525281029
 20
-14.8575800116
 11
-9.1523957933
 21
-14.85
  0
LINE
  5
321
100
AcDbEntity
  8
RACCORDO
100
AcDbLine
 62
7
  6
CONTINUOUS
 10
-8.9115891617
 20
-12.313942629
 11
-8.952381992
 21
-14.6509623137
  0
LWPOLYLINE
  5
322
100
AcDbEntity
  8
RACCORDO
100
AcDbPolyline
 62
250
  6
CONTINUOUS
 90
4
 70
0
 10
-7.7830142425
 20
21.7613941852
 10
-7.7825773305
 20
21.7765310987
 10
-7.7821601391
 20
21.797651269
 10
-7.7813831609
 20
21.8564986319
  0
LWPOLYLINE
  5
323
100
AcDbEntity
  8
RACCORDO
100
AcDbPolyline
 62
250
  6
CONTINUOUS
 90
4
 70
0
 10
-7.6169857608
 20
23.2386058148
 10
-7.617407548
 20
23.2240939749
 10
-7.6178114342
 20
23.2039791399
 10
-7.6185671876
 20
23.1480882347
  0
LWPOLYLINE
  5
324
100
AcDbEntity
  8
RACCORDO
100
AcDbPolyline
 62
250
  6
CONTINUOUS
 90
4
 70
0
 10
-7.9830065909
 20
21.9583557358
 10
-7.9825697475
 20
21.969871372
 10
-7.9821525972
 20
21.9852856098
 10
-7.9813756035
 20
22.0279916184
  0
LWPOLYLINE
  5
325
100
AcDbEntity
  8
RACCORDO
100
AcDbPolyline
 62
250
  6
CONTINUOUS
 90
6
 70
0
 10
-7.4169934091
 20
23.0416442642
 10
-7.4174151344
 20
23.0306453069
 10
-7.4178189835
 20
23.0159574703
 10
-7.4182049564
 20
22.9975807545
 10
-7.418574751
 20
22.9753550856
 10
-7.4192556179
 20
22.9203173315
  0
LINE
  5
326
100
AcDbEntity
  8
RACCORDO
100
AcDbLine
 62
250
  6
CONTINUOUS
 10
-8.0
 20
21.6150027044
 11
-7.9830065909
 21
21.9583557358
  0
LINE
  5
327
100
AcDbEntity
  8
RACCORDO
100
AcDbLine
 62
250
  6
CONTINUOUS
 10
-7.8002954653
 20
21.4122251268
 11
-7.7830142063
 21
21.7613941852
  0
LINE
  5
328
100
AcDbEntity
  8
RACCORDO
100
AcDbLine
 62
250
  6
CONTINUOUS
 10
-7.5997045347
 20
23.5877748732
 11
-7.6169857937
 21
23.2386058148
  0
LINE
  5
329
100
AcDbEntity
  8
RACCORDO
100
AcDbLine
 62
250
  6
CONTINUOUS
 10
-7.4
 20
23.3849972956
 11
-7.4169934091
 21
23.0416442642
  0
LWPOLYLINE
  5
32A
100
AcDbEntity
  8
RACCORDO
100
AcDbPolyline
 62
250
  6
CONTINUOUS
 90
13
 70
0
 10
-7.4169934091
 20
21.9583557358
 10
-7.4187405959
 20
21.9326717249
 10
-7.4238732808
 20
21.9074263282
 10
-7.4323038113
 20
21.8830506695
 10
-7.4438882165
 20
21.8599610202
 10
-7.4584286657
 20
21.8385516896
 10
-7.475676847
 20
21.8191882918
 10
-7.4953382075
 20
21.8022015019
 10
-7.5170769837
 20
21.787881409
 10
-7.5405219355
 20
21.7764725622
 10
-7.5652726858
 20
21.768169794
 10
-7.5909065579
 20
21.7631148936
 10
-7.6169857937
 20
21.7613941852
  0
LINE
  5
32B
100
AcDbEntity
  8
0
100
AcDbLine
 62
7
  6
CONTINUOUS
 10
-9.9431567889
 20
-24.6827004522
 11
-9.9792140383
 21
-25.1212710891
  0
LINE
  5
32C
100
AcDbEntity
  8
0
100
AcDbLine
 62
7
  6
CONTINUOUS
 10
0.008833
 20
24.661797
 11
-0.471223
 21
23.384946
  0
LINE
  5
32D
100
AcDbEntity
  8
0
100
AcDbLine
 62
7
  6
CONTINUOUS
 10
-0.44018
 20
22.362007
 11
0.130606
 21
23.857466
  0
LWPOLYLINE
  5
32E
100
AcDbEntity
  8
0
100
AcDbPolyline
 62
7
  6
CONTINUOUS
 90
10
 70
0
 10
8.1670125741
 20
19.0989626926
 10
8.1506788239
 20
19.0842681381
 10
8.1347072532
 20
19.0690181881
 10
8.1190978618
 20
19.0532128426
 10
8.1038868316
 20
19.0369135795
 10
8.0890379807
 20
19.0200589208
 10
8.0744427642
 20
19.0024644334
 10
8.0600650002
 20
18.9840686394
 10
8.0459408706
 20
18.9649330166
 10
8.0320703753
 20
18.945057565
  0
LWPOLYLINE
  5
32F
100
AcDbEntity
  8
0
100
AcDbPolyline
 62
7
  6
CONTINUOUS
 90
10
 70
0
 10
7.6452974611
 20
18.3736515377
 10
7.633643539
 20
18.3634741695
 10
7.6215183677
 20
18.353740719
 10
7.6089219471
 20
18.344451186
 10
7.5957977107
 20
18.3355656323
 10
7.582202225
 20
18.3271239962
 10
7.5683051898
 20
18.3192460928
 10
7.5541631715
 20
18.3119718603
 10
7.5397196037
 20
18.3052613605
 10
7.5249744862
 20
18.2991145933
  0
LWPOLYLINE
  5
330
100
AcDbEntity
  8
0
100
AcDbPolyline
 62
7
  6
CONTINUOUS
 90
10
 70
0
 10
7.7924074748
 20
18.1309447814
 10
7.8096813071
 20
18.1459452748
 10
7.8265353671
 20
18.1614573308
 10
7.8429696549
 20
18.1774809493
 10
7.8589993878
 20
18.1940279005
 10
7.8746093484
 20
18.2110864143
 10
7.8897538846
 20
18.2286211804
 10
7.9044177789
 20
18.2466204288
 10
7.9186162489
 20
18.2650959296
 10
7.9323492944
 20
18.2840476827
  0
LWPOLYLINE
  5
331
100
AcDbEntity
  8
0
100
AcDbPolyline
 62
7
  6
CONTINUOUS
 90
10
 70
0
 10
8.3300276245
 20
18.8626332293
 10
8.3416266988
 20
18.8722433486
 10
8.3535107872
 20
18.8813019539
 10
8.3656798896
 20
18.8898090452
 10
8.3780496587
 20
18.8977242555
 10
8.3907044419
 20
18.9050879518
 10
8.4038972816
 20
18.9120212352
 10
8.4177125256
 20
18.9185644727
 10
8.4320658261
 20
18.9246772973
 10
8.4469571833
 20
18.930359709
  0
LINE
  5
332
100
AcDbEntity
  8
DRAFT
100
AcDbLine
 62
7
  6
CONTINUOUS
 10
-3.4856436795
 20
6.689723878
 11
-3.4999918312
 21
6.6825503485
  0
LWPOLYLINE
  5
333
100
AcDbEntity
  8
0
100
AcDbPolyline
 62
7
  6
CONTINUOUS
 90
10
 70
0
 10
8.9148444841
 20
13.753980664
 10
8.9459149208
 20
13.7688253983
 10
8.9746575771
 20
13.7846016127
 10
9.0010724529
 20
13.8013093072
 10
9.0249247664
 20
13.8188467806
 10
9.0464492994
 20
13.8373157342
 10
9.0663503973
 20
13.8570212708
 10
9.0848628419
 20
13.8780650917
 10
9.1017518513
 20
13.9003454957
 10
9.1170174257
 20
13.9238624828
  0
LINE
  5
334
100
AcDbEntity
  8
0
100
AcDbLine
 62
7
  6
CONTINUOUS
 10
-2.7503925857
 20
-8.3290463806
 11
-2.5
 21
-8.3290463806
  0
LINE
  5
335
100
AcDbEntity
  8
0
100
AcDbLine
 62
7
  6
CONTINUOUS
 10
2.7503925857
 20
-8.3290463806
 11
2.5
 21
-8.3290463806
  0
LWPOLYLINE
  5
336
100
AcDbEntity
  8
DRAFT
100
AcDbPolyline
 62
7
  6
CONTINUOUS
 90
5
 70
0
 10
9.4632788325
 20
-11.7497742304
 10
9.4669126502
 20
-11.7511404469
 10
9.4705145571
 20
-11.7524646157
 10
9.4740736339
 20
-11.7537465988
 10
9.4775898806
 20
-11.7549863962
  0
LINE
  5
337
100
AcDbEntity
  8
DRAFT
100
AcDbLine
 62
7
  6
CONTINUOUS
 10
9.4558499486
 20
-11.7469148267
 11
9.4632788325
 21
-11.7497742304
  0
LINE
  5
338
100
AcDbEntity
  8
DRAFT
100
AcDbLine
 62
7
  6
CONTINUOUS
 10
9.4481070705
 20
-11.7438855143
 11
9.4558499486
 21
-11.7469148267
  0
LINE
  5
339
100
AcDbEntity
  8
DRAFT
100
AcDbLine
 62
7
  6
CONTINUOUS
 10
9.4400136235
 20
-11.7406822889
 11
9.4481070705
 21
-11.7438855143
  0
LINE
  5
33A
100
AcDbEntity
  8
RACCORDO
100
AcDbLine
 62
7
  6
CONTINUOUS
 10
-5.3139631214
 20
-6.216785188
 11
-5.502373164
 21
-6.0860053343
  0
LINE
  5
33B
100
AcDbEntity
  8
RACCORDO
100
AcDbLine
 62
7
  6
CONTINUOUS
 10
5.3750945812
 20
-24.8594929665
 11
5.289700355
 21
-24.7196277561
  0
LINE
  5
33C
100
AcDbEntity
  8
0
100
AcDbLine
 62
250
  6
CONTINUOUS
 10
-5.1989615483
 20
-24.666032413
 11
-5.2
 21
-24.6589384584
  0
LINE
  5
33D
100
AcDbEntity
  8
RACCORDO
100
AcDbLine
 62
7
  6
CONTINUOUS
 10
-6.0906659215
 20
-10.0935760774
 11
-6.0988583842
 21
-10.011444936
  0
LINE
  5
33E
100
AcDbEntity
  8
RACCORDO
100
AcDbLine
 62
7
  6
CONTINUOUS
 10
-5.3093340785
 20
-6.5064239226
 11
-5.3041367914
 21
-6.5585278062
  0
LWPOLYLINE
  5
33F
100
AcDbEntity
  8
RACCORDO
100
AcDbPolyline
 62
250
  6
CONTINUOUS
 90
13
 70
0
 10
-7.9830065909
 20
21.9583557358
 10
-7.9812596058
 20
21.9326732175
 10
-7.9761274324
 20
21.9074289372
 10
-7.967697586
 20
21.8830539832
 10
-7.9561138902
 20
21.8599646084
 10
-7.9415740499
 20
21.8385551725
 10
-7.924326301
 20
21.8191913919
 10
-7.9046651035
 20
21.8022040056
 10
-7.8829261673
 20
21.7878832032
 10
-7.8594807844
 20
21.7764736745
 10
-7.8347293643
 20
21.7681703372
 10
-7.8090945735
 20
21.7631150413
 10
-7.7830142064
 20
21.7613941844
  0
LWPOLYLINE
  5
340
100
AcDbEntity
  8
RACCORDO
100
AcDbPolyline
 62
250
  6
CONTINUOUS
 90
13
 70
0
 10
-7.4169934091
 20
23.0416442642
 10
-7.4187403626
 20
23.0673265494
 10
-7.4238724556
 20
23.0925706548
 10
-7.4323021941
 20
23.1169454975
 10
-7.4438857772
 20
23.1400348275
 10
-7.4584255196
 20
23.1614442778
 10
-7.475673198
 20
23.1808081172
 10
-7.4953343673
 20
23.1977955965
 10
-7.5170733265
 20
23.2121165104
 10
-7.5405187766
 20
23.2235261473
 10
-7.5652703038
 20
23.2318295755
 10
-7.5909052429
 20
23.2368849346
 10
-7.6169857937
 20
23.2386058147
  0
LINE
  5
341
100
AcDbEntity
  8
RACCORDO
100
AcDbLine
 62
250
  6
CONTINUOUS
 10
-7.9830065909
 20
23.0416442642
 11
-8.0
 21
23.3849972956
  0
LINE
  5
342
100
AcDbEntity
  8
RACCORDO
100
AcDbLine
 62
250
  6
CONTINUOUS
 10
-7.7830142063
 20
23.2386058148
 11
-7.8002954653
 21
23.5877748732
  0
LINE
  5
343
100
AcDbEntity
  8
RACCORDO
100
AcDbLine
 62
250
  6
CONTINUOUS
 10
-7.6169857937
 20
21.7613941852
 11
-7.5997045347
 21
21.4122251268
  0
LINE
  5
344
100
AcDbEntity
  8
RACCORDO
100
AcDbLine
 62
250
  6
CONTINUOUS
 10
-7.4169934091
 20
21.9583557358
 11
-7.4
 21
21.6150027044
  0
LWPOLYLINE
  5
345
100
AcDbEntity
  8
RACCORDO
100
AcDbPolyline
 62
250
  6
CONTINUOUS
 90
4
 70
0
 10
-7.4181475184
 20
21.9993724295
 10
-7.417788637
 20
21.983237931
 10
-7.4174039339
 20
21.9695656998
 10
-7.4169934091
 20
21.9583557358
  0
LWPOLYLINE
  5
346
100
AcDbEntity
  8
RACCORDO
100
AcDbPolyline
 62
250
  6
CONTINUOUS
 90
3
 70
0
 10
-7.6177811043
 20
21.7944332274
 10
-7.6173963716
 20
21.7755565992
 10
-7.6169857937
 20
21.7613941852
  0
LWPOLYLINE
  5
347
100
AcDbEntity
  8
RACCORDO
100
AcDbPolyline
 62
250
  6
CONTINUOUS
 90
4
 70
0
 10
-7.781942834
 20
23.1884137545
 10
-7.7822776006
 20
23.2087933023
 10
-7.7826347247
 20
23.2257140534
 10
-7.7830142063
 20
23.2386058148
  0
LINE
  5
348
100
AcDbEntity
  8
RACCORDO
100
AcDbLine
 62
250
  6
CONTINUOUS
 10
-7.4187803267
 20
22.0389002319
 11
-7.4181475184
 21
21.9993724295
  0
LINE
  5
349
100
AcDbEntity
  8
RACCORDO
100
AcDbLine
 62
250
  6
CONTINUOUS
 10
-7.618469276
 20
21.8431159671
 11
-7.6177811043
 21
21.7944332274
  0
LINE
  5
34A
100
AcDbEntity
  8
RACCORDO
100
AcDbLine
 62
7
  6
CONTINUOUS
 10
-6.0844069354
 20
-10.5139946657
 11
-6.0885434569
 21
-10.1820974043
  0
LINE
  5
34B
100
AcDbEntity
  8
0
100
AcDbLine
 62
7
  6
CONTINUOUS
 10
-6.1938907273
 20
-24.2355632298
 11
-6.2
 21
-23.7357114275
  0
LINE
  5
34C
100
AcDbEntity
  8
RACCORDO
100
AcDbLine
 62
250
  6
CONTINUOUS
 10
-7.4196116983
 20
22.1174889308
 11
-7.4187803267
 21
22.0389002319
  0
LINE
  5
34D
100
AcDbEntity
  8
RACCORDO
100
AcDbLine
 62
250
  6
CONTINUOUS
 10
-7.6190615835
 20
21.9034766302
 11
-7.618469276
 21
21.8431159671
  0
LINE
  5
34E
100
AcDbEntity
  8
RACCORDO
100
AcDbLine
 62
250
  6
CONTINUOUS
 10
-7.4206642378
 20
22.3104925135
 11
-7.4196116983
 21
22.1174889308
  0
LINE
  5
34F
100
AcDbEntity
  8
RACCORDO
100
AcDbLine
 62
250
  6
CONTINUOUS
 10
-7.4209592692
 20
22.4988399872
 11
-7.4206642378
 21
22.3104925135
  0
LINE
  5
350
100
AcDbEntity
  8
RACCORDO
100
AcDbLine
 62
7
  6
CONTINUOUS
 10
-7.4
 20
21.6150027044
 11
-7.4
 21
23.3849972956
  0
LINE
  5
351
100
AcDbEntity
  8
0
100
AcDbLine
 62
7
  6
CONTINUOUS
 10
-7.066327
 20
16.561298
 11
-7.066327
 21
15.750095
  0
LINE
  5
352
100
AcDbEntity
  8
0
100
AcDbLine
 62
7
  6
CONTINUOUS
 10
-7.066327
 20
12.602531
 11
-7.066327
 21
11.880401
  0
LINE
  5
353
100
AcDbEntity
  8
0
100
AcDbLine
 62
7
  6
CONTINUOUS
 10
-6.850011
 20
12.919923
 11
-6.850011
 21
13.190325
  0
LINE
  5
354
100
AcDbEntity
  8
0
100
AcDbLine
 62
7
  6
CONTINUOUS
 10
-6.850006
 20
11.61
 11
-6.850006
 21
12.602531
  0
LINE
  5
355
100
AcDbEntity
  8
0
100
AcDbLine
 62
7
  6
CONTINUOUS
 10
-6.850006
 20
13.614468
 11
-6.850006
 21
13.865782
  0
LINE
  5
356
100
AcDbEntity
  8
0
100
AcDbLine
 62
7
  6
CONTINUOUS
 10
-6.850006
 20
14.638811
 11
-6.850006
 21
15.05875
  0
LINE
  5
357
100
AcDbEntity
  8
0
100
AcDbLine
 62
7
  6
CONTINUOUS
 10
-6.850006
 20
15.479694
 11
-6.850006
 21
16.561298
  0
LINE
  5
358
100
AcDbEntity
  8
0
100
AcDbLine
 62
7
  6
CONTINUOUS
 10
-6.85
 20
16.710806
 11
-6.85
 21
16.981206
  0
LINE
  5
359
100
AcDbEntity
  8
0
100
AcDbLine
 62
7
  6
CONTINUOUS
 10
-6.85
 20
18.104146
 11
-6.85
 21
18.384112
  0
LINE
  5
35A
100
AcDbEntity
  8
0
100
AcDbLine
 62
7
  6
CONTINUOUS
 10
-6.2
 20
-24.5520859373
 11
-6.2
 21
-24.2355632298
  0
LINE
  5
35B
100
AcDbEntity
  8
0
100
AcDbLine
 62
250
  6
CONTINUOUS
 10
-6.2
 20
-24.6559313373
 11
-6.2
 21
-24.5520859373
  0
LINE
  5
35C
100
AcDbEntity
  8
0
100
AcDbLine
 62
7
  6
CONTINUOUS
 10
-6.1938907273
 20
-24.5313348024
 11
-6.1938907273
 21
-24.2355632298
  0
LINE
  5
35D
100
AcDbEntity
  8
RACCORDO
100
AcDbLine
 62
7
  6
CONTINUOUS
 10
-6.0825462644
 20
5.9825729183
 11
-6.0825462644
 21
-5.6764293122
  0
LINE
  5
35E
100
AcDbEntity
  8
RACCORDO
100
AcDbLine
 62
7
  6
CONTINUOUS
 10
-6.0825462644
 20
-10.9235706878
 11
-6.0825462644
 21
-12.4868906591
  0
LINE
  5
35F
100
AcDbEntity
  8
RACCORDO
100
AcDbLine
 62
7
  6
CONTINUOUS
 10
-5.7174537356
 20
6.0174537356
 11
-5.7174537356
 21
-5.6764293122
  0
LINE
  5
360
100
AcDbEntity
  8
RACCORDO
100
AcDbLine
 62
7
  6
CONTINUOUS
 10
-5.7174537356
 20
-12.4868906591
 11
-5.7174537356
 21
-10.9235706878
  0
LINE
  5
361
100
AcDbEntity
  8
RACCORDO
100
AcDbLine
 62
7
  6
CONTINUOUS
 10
-6.0958632086
 20
-6.5585278062
 11
-6.0898097939
 21
5.9898364478
  0
LINE
  5
362
100
AcDbEntity
  8
DRAFT
100
AcDbLine
 62
7
  6
CONTINUOUS
 10
-6.0988583842
 20
-10.011444936
 11
-6.1015998396
 21
-13.0015998396
  0
LINE
  5
363
100
AcDbEntity
  8
0
100
AcDbLine
 62
7
  6
CONTINUOUS
 10
-6.1974647201
 20
-23.492218207
 11
-6.2
 21
-23.7357114275
  0
LINE
  5
364
100
AcDbEntity
  8
RACCORDO
100
AcDbLine
 62
7
  6
CONTINUOUS
 10
-6.0885434569
 20
-6.4179025957
 11
-6.0844069354
 21
-6.0860053343
  0
LWPOLYLINE
  5
365
100
AcDbEntity
  8
RACCORDO
100
AcDbPolyline
 62
7
  6
CONTINUOUS
 90
19
 70
0
 10
-6.0898097939
 20
5.9898364478
 10
-6.0872025173
 20
6.0500949434
 10
-6.0793572113
 20
6.1102461667
 10
-6.066243907
 20
6.1698266979
 10
-6.0477994858
 20
6.2285702699
 10
-6.0241175365
 20
6.2857794364
 10
-5.9956281795
 20
6.3404033727
 10
-5.9628115642
 20
6.3917906749
 10
-5.9258474286
 20
6.4398896202
 10
-5.884852151
 20
6.4846135601
 10
-5.8401341328
 20
6.5256235711
 10
-5.7920263949
 20
6.5626119822
 10
-5.740607094
 20
6.5954628357
 10
-5.6859073615
 20
6.6239992108
 10
-5.6285937571
 20
6.6477230398
 10
-5.5697678902
 20
6.6661843602
 10
-5.5101485842
 20
6.6792937325
 10
-5.4499879889
 20
6.6871276816
 10
-5.3897505319
 20
6.689723878
  0
LINE
  5
366
100
AcDbEntity
  8
0
100
AcDbLine
 62
7
  6
CONTINUOUS
 10
1.4956
 20
24.661797
 11
0.77424
 21
22.362007
  0
LWPOLYLINE
  5
367
100
AcDbEntity
  8
0
100
AcDbPolyline
 62
7
  6
CONTINUOUS
 90
10
 70
0
 10
6.9368105819
 20
19.0600064686
 10
6.9122546067
 20
19.0297355318
 10
6.8899663215
 20
18.995212171
 10
6.8699457265
 20
18.9564363863
 10
6.8518957958
 20
18.913878422
 10
6.8361135552
 20
18.8670680337
 10
6.8234900825
 20
18.8145944886
 10
6.8143224037
 20
18.7559875423
 10
6.8083134928
 20
18.691717439
 10
6.8054633498
 20
18.6217841789
  0
LWPOLYLINE
  5
368
100
AcDbEntity
  8
0
100
AcDbPolyline
 62
7
  6
CONTINUOUS
 90
10
 70
0
 10
7.0639093436
 20
17.2723314643
 10
7.073682113
 20
17.2838460811
 10
7.0850184824
 20
17.2950473161
 10
7.0979184521
 20
17.3059351693
 10
7.1123331166
 20
17.3166077076
 10
7.1283113813
 20
17.3269668641
 10
7.1459999619
 20
17.3367184384
 10
7.1654477638
 20
17.3457643638
 10
7.1866058815
 20
17.3542027071
 10
7.2094743153
 20
17.3620334682
  0
LWPOLYLINE
  5
369
100
AcDbEntity
  8
0
100
AcDbPolyline
 62
7
  6
CONTINUOUS
 90
10
 70
0
 10
9.0322959871
 20
18.1096128392
 10
9.0620928994
 20
18.1384832332
 10
9.0892611882
 20
18.1733297584
 10
9.1138008536
 20
18.2141524147
 10
9.1361304547
 20
18.260162637
 10
9.1558314324
 20
18.3121489905
 10
9.171648109
 20
18.3724771709
 10
9.1831619253
 20
18.4419357435
 10
9.1907914404
 20
18.519736143
 10
9.1945366545
 20
18.6058783695
  0
LINE
  5
36A
100
AcDbEntity
  8
DRAFT
100
AcDbLine
 62
7
  6
CONTINUOUS
 10
-2.5145506931
 20
5.9084351021
 11
-2.5
 21
5.9193116204
  0
LWPOLYLINE
  5
36B
100
AcDbEntity
  8
0
100
AcDbPolyline
 62
7
  6
CONTINUOUS
 90
10
 70
0
 10
-5.1426200607
 20
4.8117156624
 10
-5.1534936566
 20
4.8052132844
 10
-5.1633522655
 20
4.7974483072
 10
-5.1721958876
 20
4.7884207309
 10
-5.1801703138
 20
4.7779643546
 10
-5.1871297532
 20
4.7662453791
 10
-5.1926368327
 20
4.7537624073
 10
-5.1965457612
 20
4.7406816402
 10
-5.1990023298
 20
4.7268368768
 10
-5.2000065384
 20
4.7122281172
  0
LWPOLYLINE
  5
36C
100
AcDbEntity
  8
0
100
AcDbPolyline
 62
7
  6
CONTINUOUS
 90
10
 70
0
 10
8.1415629238
 20
11.8394884571
 10
8.1266861558
 20
11.8310667328
 10
8.1121274694
 20
11.8216964918
 10
8.0978868644
 20
11.8113777342
 10
8.0838790748
 20
11.8000632453
 10
8.0701893666
 20
11.7878002398
 10
8.0570735385
 20
11.7747303619
 10
8.0446168564
 20
11.7609008265
 10
8.0327340543
 20
11.7462644189
 10
8.0214251322
 20
11.7308211388
  0
LWPOLYLINE
  5
36D
100
AcDbEntity
  8
0
100
AcDbPolyline
 62
7
  6
CONTINUOUS
 90
10
 70
0
 10
7.1299446583
 20
11.5690872982
 10
7.1426632134
 20
11.5757609437
 10
7.1556688655
 20
11.5819739364
 10
7.1689616144
 20
11.5877262764
 10
7.1825601044
 20
11.5930362775
 10
7.1964456913
 20
11.5978856259
 10
7.2105624424
 20
11.6022193803
 10
7.2248917137
 20
11.6060192269
 10
7.2394521493
 20
11.6093034797
 10
7.2542437492
 20
11.6120721385
  0
LWPOLYLINE
  5
36E
100
AcDbEntity
  8
0
100
AcDbPolyline
 62
7
  6
CONTINUOUS
 90
9
 70
0
 10
-5.1426200607
 20
4.8117156624
 10
-4.6134321734
 20
5.067325398
 10
-4.0941770147
 20
5.2939146966
 10
-3.5848545846
 20
5.4914835584
 10
-3.0868867505
 20
5.6584713574
 10
-2.5988516449
 20
5.7964387194
 10
-2.1164836663
 20
5.9100675226
 10
-1.6396263245
 20
6.0002017465
 10
-1.5
 20
6.0196987704
  0
LINE
  5
36F
100
AcDbEntity
  8
0
100
AcDbLine
 62
250
  6
CONTINUOUS
 10
-2.7473784585
 20
-5.5819214015
 11
-5.1999922633
 21
-5.5850061643
  0
LINE
  5
370
100
AcDbEntity
  8
0
100
AcDbLine
 62
250
  6
CONTINUOUS
 10
-2.7914178684
 20
-5.6319727075
 11
-5.1999292542
 21
-5.6350146361
  0
LINE
  5
371
100
AcDbEntity
  8
0
100
AcDbLine
 62
7
  6
CONTINUOUS
 10
2.4462767686
 20
-7.3219675852
 11
-2.4462767686
 21
-7.3219675852
  0
LINE
  5
372
100
AcDbEntity
  8
0
100
AcDbLine
 62
7
  6
CONTINUOUS
 10
7.7002477983
 20
-6.9357114275
 11
5.2999504403
 21
-6.9357114275
  0
LINE
  5
373
100
AcDbEntity
  8
0
100
AcDbLine
 62
7
  6
CONTINUOUS
 10
-5.2999504403
 20
-6.9357114275
 11
-7.7002477983
 21
-6.9357114275
  0
LINE
  5
374
100
AcDbEntity
  8
DRAFT
100
AcDbLine
 62
7
  6
CONTINUOUS
 10
-6.0958632086
 20
-6.5585278062
 11
-5.3041367914
 21
-6.5585278062
  0
LINE
  5
375
100
AcDbEntity
  8
DRAFT
100
AcDbLine
 62
7
  6
CONTINUOUS
 10
5.3041367914
 20
-6.5585278062
 11
6.0958632086
 21
-6.5585278062
  0
LINE
  5
376
100
AcDbEntity
  8
RACCORDO
100
AcDbLine
 62
250
  6
CONTINUOUS
 10
6.0906659215
 20
-6.5064239226
 11
5.3093340785
 21
-6.5064239226
  0
LINE
  5
377
100
AcDbEntity
  8
RACCORDO
100
AcDbLine
 62
250
  6
CONTINUOUS
 10
-5.3093340785
 20
-6.5064239226
 11
-6.0906659215
 21
-6.5064239226
  0
LINE
  5
378
100
AcDbEntity
  8
RACCORDO
100
AcDbLine
 62
250
  6
CONTINUOUS
 10
6.0885434569
 20
-6.4179025957
 11
5.3114565431
 21
-6.4179025957
  0
LINE
  5
379
100
AcDbEntity
  8
RACCORDO
100
AcDbLine
 62
250
  6
CONTINUOUS
 10
-5.3114565431
 20
-6.4179025957
 11
-6.0885434569
 21
-6.4179025957
  0
LINE
  5
37A
100
AcDbEntity
  8
0
100
AcDbLine
 62
7
  6
CONTINUOUS
 10
-5.2
 20
-6.1907114275
 11
-2.8
 21
-6.1907114275
  0
LINE
  5
37B
100
AcDbEntity
  8
0
100
AcDbLine
 62
7
  6
CONTINUOUS
 10
5.2
 20
-6.1907114275
 11
2.8
 21
-6.1907114275
  0
LINE
  5
37C
100
AcDbEntity
  8
0
100
AcDbLine
 62
250
  6
CONTINUOUS
 10
-2.7913646542
 20
-6.1196643796
 11
-2.747378428
 21
-6.1196643879
  0
LINE
  5
37D
100
AcDbEntity
  8
0
100
AcDbLine
 62
250
  6
CONTINUOUS
 10
2.791364654
 20
-6.1196642506
 11
2.7473780495
 21
-6.1196641632
  0
LINE
  5
37E
100
AcDbEntity
  8
RACCORDO
100
AcDbLine
 62
250
  6
CONTINUOUS
 10
-6.0844069354
 20
-6.0860053343
 11
-5.502373164
 21
-6.0860053343
  0
LINE
  5
37F
100
AcDbEntity
  8
RACCORDO
100
AcDbLine
 62
250
  6
CONTINUOUS
 10
5.502373164
 20
-6.0860053343
 11
6.0844069354
 21
-6.0860053343
  0
LINE
  5
380
100
AcDbEntity
  8
RACCORDO
100
AcDbLine
 62
250
  6
CONTINUOUS
 10
-6.0825462644
 20
-5.6764293122
 11
-5.7174537356
 21
-5.6764293122
  0
LINE
  5
381
100
AcDbEntity
  8
RACCORDO
100
AcDbLine
 62
250
  6
CONTINUOUS
 10
5.7174537356
 20
-5.6764293122
 11
6.0825462644
 21
-5.6764293122
  0
LINE
  5
382
100
AcDbEntity
  8
0
100
AcDbLine
 62
7
  6
CONTINUOUS
 10
5.2
 20
-5.6357114275
 11
2.7951565884
 21
-5.6357114275
  0
LINE
  5
383
100
AcDbEntity
  8
0
100
AcDbLine
 62
7
  6
CONTINUOUS
 10
-2.7951565884
 20
-5.6357114275
 11
-5.2
 21
-5.6357114275
  0
LINE
  5
384
100
AcDbEntity
  8
0
100
AcDbLine
 62
250
  6
CONTINUOUS
 10
5.2000000006
 20
-5.5850061748
 11
2.7473784585
 21
-5.5819214015
  0
LINE
  5
385
100
AcDbEntity
  8
0
100
AcDbLine
 62
250
  6
CONTINUOUS
 10
4.8082298024
 20
-5.6344817551
 11
2.7914178684
 21
-5.6319727075
  0
LINE
  5
386
100
AcDbEntity
  8
DRAFT
100
AcDbLine
 62
7
  6
CONTINUOUS
 10
9.4133991981
 20
-11.7300055071
 11
9.4400136235
 21
-11.7406822889
  0
LINE
  5
387
100
AcDbEntity
  8
DRAFT
100
AcDbLine
 62
7
  6
CONTINUOUS
 10
9.2171572875
 20
-11.65
 11
9.4133991981
 21
-11.7300055071
  0
LINE
  5
388
100
AcDbEntity
  8
RACCORDO
100
AcDbLine
 62
7
  6
CONTINUOUS
 10
8.3461056179
 20
-11.7100893216
 11
8.225
 21
-11.65
  0
LINE
  5
389
100
AcDbEntity
  8
RACCORDO
100
AcDbLine
 62
7
  6
CONTINUOUS
 10
9.452737412
 20
-11.9242533063
 11
9.0939596788
 21
-11.7462375299
  0
LINE
  5
38A
100
AcDbEntity
  8
DRAFT
100
AcDbLine
 62
7
  6
CONTINUOUS
 10
9.9644022453
 20
-11.6322024782
 11
10.0
 21
-11.65
  0
LINE
  5
38B
100
AcDbEntity
  8
DRAFT
100
AcDbLine
 62
7
  6
CONTINUOUS
 10
9.9792140383
 20
-25.1212710891
 11
10.0
 21
-25.1524539902
  0
LWPOLYLINE
  5
38C
100
AcDbEntity
  8
0
100
AcDbPolyline
 62
7
  6
CONTINUOUS
 90
3
 70
0
 10
-5.1996378508
 20
-5.6321445373
 10
-5.1997057807
 20
-5.6293240663
 10
-5.199767153
 20
-5.6258335122
  0
LINE
  5
38D
100
AcDbEntity
  8
RACCORDO
100
AcDbLine
 62
250
  6
CONTINUOUS
 10
-4.6337865101
 20
21.2729623481
 11
-4.6335899102
 21
21.2634150071
  0
LINE
  5
38E
100
AcDbEntity
  8
RACCORDO
100
AcDbLine
 62
250
  6
CONTINUOUS
 10
-4.6335899102
 20
21.2634150071
 11
-4.6334020069
 21
21.2508978913
  0
LINE
  5
38F
100
AcDbEntity
  8
RACCORDO
100
AcDbLine
 62
7
  6
CONTINUOUS
 10
-5.3139631214
 20
-6.216785188
 11
-5.3114565431
 21
-6.4179025957
  0
LINE
  5
390
100
AcDbEntity
  8
RACCORDO
100
AcDbLine
 62
250
  6
CONTINUOUS
 10
-4.3340076487
 20
21.5728652948
 11
-4.3337978761
 21
21.5557598516
  0
LINE
  5
391
100
AcDbEntity
  8
0
100
AcDbLine
 62
7
  6
CONTINUOUS
 10
-5.199767153
 20
-5.6258335122
 11
-5.1998709983
 21
-5.6167544195
  0
LINE
  5
392
100
AcDbEntity
  8
RACCORDO
100
AcDbLine
 62
250
  6
CONTINUOUS
 10
-4.3331351886
 20
21.4348270936
 11
-4.3312899524
 21
21.2196610069
  0
LINE
  5
393
100
AcDbEntity
  8
RACCORDO
100
AcDbLine
 62
250
  6
CONTINUOUS
 10
-4.6334020069
 20
21.2508978913
 11
-4.6311834819
 21
20.9975149198
  0
LINE
  5
394
100
AcDbEntity
  8
RACCORDO
100
AcDbLine
 62
250
  6
CONTINUOUS
 10
-4.3337978761
 20
21.5557598516
 11
-4.3333200466
 21
21.481312764
  0
LINE
  5
395
100
AcDbEntity
  8
0
100
AcDbLine
 62
7
  6
CONTINUOUS
 10
-5.1998709983
 20
-5.6167544195
 11
-5.19997101
 21
-5.5988559086
  0
LINE
  5
396
100
AcDbEntity
  8
RACCORDO
100
AcDbLine
 62
250
  6
CONTINUOUS
 10
-4.3333200466
 20
21.481312764
 11
-4.3331351886
 21
21.4348270936
  0
LINE
  5
397
100
AcDbEntity
  8
RACCORDO
100
AcDbLine
 62
250
  6
CONTINUOUS
 10
-4.6311834819
 20
20.9975149198
 11
-4.6308447948
 21
20.9239881105
  0
LINE
  5
398
100
AcDbEntity
  8
DRAFT
100
AcDbLine
 62
7
  6
CONTINUOUS
 10
-5.3011416158
 20
-10.011444936
 11
-5.2984001604
 21
-13.0015998396
  0
LINE
  5
399
100
AcDbEntity
  8
RACCORDO
100
AcDbLine
 62
250
  6
CONTINUOUS
 10
-4.6308447948
 20
20.9239881105
 11
-4.6307780443
 21
20.8692063748
  0
LINE
  5
39A
100
AcDbEntity
  8
DRAFT
100
AcDbLine
 62
7
  6
CONTINUOUS
 10
-5.31019298
 20
6.01019298
 11
-5.3041367914
 21
-6.5585278062
  0
LINE
  5
39B
100
AcDbEntity
  8
SMUSSO
100
AcDbLine
 62
7
  6
CONTINUOUS
 10
-5.3139631214
 20
6.0139631214
 11
-5.3139631214
 21
-6.216785188
  0
LINE
  5
39C
100
AcDbEntity
  8
RACCORDO
100
AcDbLine
 62
7
  6
CONTINUOUS
 10
-5.3139631214
 20
-12.9767854985
 11
-5.3139631214
 21
-10.383214812
  0
LINE
  5
39D
100
AcDbEntity
  8
0
100
AcDbLine
 62
7
  6
CONTINUOUS
 10
-5.1999999295
 20
-24.9073657359
 11
-5.2
 21
-24.6551950692
  0
LINE
  5
39E
100
AcDbEntity
  8
0
100
AcDbLine
 62
7
  6
CONTINUOUS
 10
-5.2
 20
-23.244159127
 11
-5.2
 21
-10.0362421385
  0
LINE
  5
39F
100
AcDbEntity
  8
0
100
AcDbLine
 62
7
  6
CONTINUOUS
 10
-5.2
 20
-6.8356293674
 11
-5.2
 21
-5.6357114275
  0
LINE
  5
3A0
100
AcDbEntity
  8
0
100
AcDbLine
 62
7
  6
CONTINUOUS
 10
-5.19997101
 20
-5.5988559086
 11
-5.2000065384
 21
4.7122281172
  0
LINE
  5
3A1
100
AcDbEntity
  8
0
100
AcDbLine
 62
250
  6
CONTINUOUS
 10
-4.8592651863
 20
-24.9073657264
 11
-4.8592651863
 21
-24.6314569531
  0
LINE
  5
3A2
100
AcDbEntity
  8
RACCORDO
100
AcDbLine
 62
250
  6
CONTINUOUS
 10
-4.6825894025
 20
19.8
 11
-4.6825894025
 21
19.9705138511
  0
LINE
  5
3A3
100
AcDbEntity
  8
RACCORDO
100
AcDbLine
 62
7
  6
CONTINUOUS
 10
-4.65
 20
20.3913501688
 11
-4.65
 21
21.3000114231
  0
LINE
  5
3A4
100
AcDbEntity
  8
RACCORDO
100
AcDbLine
 62
7
  6
CONTINUOUS
 10
-4.6307780443
 20
20.8692063748
 11
-4.6307780443
 21
20.3852199614
  0
LINE
  5
3A5
100
AcDbEntity
  8
RACCORDO
100
AcDbLine
 62
250
  6
CONTINUOUS
 10
-4.3312899524
 20
21.2196610069
 11
-4.3307894673
 21
20.54638706
  0
LINE
  5
3A6
100
AcDbEntity
  8
RACCORDO
100
AcDbLine
 62
7
  6
CONTINUOUS
 10
-5.3114565431
 20
-10.1820974043
 11
-5.3139631214
 21
-10.383214812
  0
LINE
  5
3A7
100
AcDbEntity
  8
RACCORDO
100
AcDbLine
 62
250
  6
CONTINUOUS
 10
-5.289700355
 20
-24.7196277561
 11
-5.2959687228
 21
-24.8991303252
  0
LINE
  5
3A8
100
AcDbEntity
  8
RACCORDO
100
AcDbLine
 62
250
  6
CONTINUOUS
 10
-5.3753308746
 20
-24.8646889917
 11
-5.3750945812
 21
-24.8594929665
  0
LINE
  5
3A9
100
AcDbEntity
  8
0
100
AcDbLine
 62
7
  6
CONTINUOUS
 10
-1.425869
 20
24.661797
 11
-1.633526
 21
22.362007
  0
LINE
  5
3AA
100
AcDbEntity
  8
RACCORDO
100
AcDbLine
 62
7
  6
CONTINUOUS
 10
-6.0906659215
 20
-6.5064239226
 11
-6.0958632086
 21
-6.5585278062
  0
LINE
  5
3AB
100
AcDbEntity
  8
RACCORDO
100
AcDbLine
 62
7
  6
CONTINUOUS
 10
-5.3093340785
 20
-10.0935760774
 11
-5.3011416158
 21
-10.011444936
  0
LINE
  5
3AC
100
AcDbEntity
  8
0
100
AcDbLine
 62
7
  6
CONTINUOUS
 10
-5.2
 20
-5.6357114275
 11
-5.1996378508
 21
-5.6321445373
  0
LINE
  5
3AD
100
AcDbEntity
  8
0
100
AcDbLine
 62
7
  6
CONTINUOUS
 10
1.479751
 20
23.176392
 11
1.718779
 21
24.029873
  0
LINE
  5
3AE
100
AcDbEntity
  8
0
100
AcDbLine
 62
7
  6
CONTINUOUS
 10
1.249088
 20
22.362007
 11
1.381553
 21
22.821127
  0
LWPOLYLINE
  5
3AF
100
AcDbEntity
  8
0
100
AcDbPolyline
 62
7
  6
CONTINUOUS
 90
5
 70
0
 10
7.9618031714
 20
18.8409903654
 10
7.9470260868
 20
18.8185346915
 10
7.9323487481
 20
18.7957584802
 10
7.9176646051
 20
18.7725908333
 10
7.9029736578
 20
18.7490317509
  0
LWPOLYLINE
  5
3B0
100
AcDbEntity
  8
0
100
AcDbPolyline
 62
7
  6
CONTINUOUS
 90
3
 70
0
 10
8.2006093434
 20
18.7052949836
 10
8.2214612239
 20
18.736323128
 10
8.2317165678
 20
18.7514611284
  0
LINE
  5
3B1
100
AcDbEntity
  8
0
100
AcDbLine
 62
7
  6
CONTINUOUS
 10
8.005028098
 20
18.905299793
 11
7.9618031714
 21
18.8409903654
  0
LINE
  5
3B2
100
AcDbEntity
  8
0
100
AcDbLine
 62
7
  6
CONTINUOUS
 10
8.0320703753
 20
18.945057565
 11
8.005028098
 21
18.905299793
  0
LWPOLYLINE
  5
3B3
100
AcDbEntity
  8
0
100
AcDbPolyline
 62
7
  6
CONTINUOUS
 90
10
 70
0
 10
7.9323492944
 20
18.2840476827
 10
7.945468187
 20
18.3029885205
 10
7.9587178106
 20
18.3225100872
 10
7.9720981652
 20
18.3426123828
 10
7.9855890595
 20
18.3632943596
 10
7.9992106849
 20
18.3845570653
 10
8.0130236154
 20
18.4064036424
 10
8.0270480426
 20
18.4288351386
 10
8.0412637751
 20
18.4518505063
 10
8.1352005452
 20
18.6058783695
  0
LWPOLYLINE
  5
3B4
100
AcDbEntity
  8
0
100
AcDbPolyline
 62
7
  6
CONTINUOUS
 90
10
 70
0
 10
7.7418314263
 20
18.4842678701
 10
7.7322448588
 20
18.4705618508
 10
7.7223960155
 20
18.4572467301
 10
7.7122848966
 20
18.4443225079
 10
7.7019416107
 20
18.4318386106
 10
7.691336049
 20
18.4197456119
 10
7.6803778858
 20
18.4078952332
 10
7.6690370124
 20
18.3962380481
 10
7.6573435376
 20
18.3848234829
 10
7.6452974611
 20
18.3736515377
  0
LWPOLYLINE
  5
3B5
100
AcDbEntity
  8
0
100
AcDbPolyline
 62
7
  6
CONTINUOUS
 90
10
 70
0
 10
8.2317165678
 20
18.7514611284
 10
8.2420325841
 20
18.7661737965
 10
8.2524459557
 20
18.7802197298
 10
8.2629566826
 20
18.7935989284
 10
8.273492094
 20
18.8062091499
 10
8.2841248607
 20
18.8181526367
 10
8.2950729958
 20
18.8297361153
 10
8.3064091703
 20
18.8410618281
 10
8.3180607132
 20
18.8520275327
 10
8.3300276245
 20
18.8626332293
  0
LWPOLYLINE
  5
3B6
100
AcDbEntity
  8
0
100
AcDbPolyline
 62
7
  6
CONTINUOUS
 90
10
 70
0
 10
7.0639093436
 20
15.8344339013
 10
7.073682113
 20
15.8459485181
 10
7.0850184824
 20
15.8571497531
 10
7.0979184521
 20
15.8680376063
 10
7.1123331166
 20
15.8787101446
 10
7.1283113813
 20
15.8890693011
 10
7.1459999619
 20
15.8988208755
 10
7.1654477638
 20
15.9078668009
 10
7.1866058815
 20
15.9163051441
 10
7.2094743153
 20
15.9241359052
  0
LWPOLYLINE
  5
3B7
100
AcDbEntity
  8
0
100
AcDbPolyline
 62
7
  6
CONTINUOUS
 90
10
 70
0
 10
7.0639094089
 20
14.3965362861
 10
7.073682153
 20
14.4080508976
 10
7.0850185036
 20
14.4192521198
 10
7.0979184607
 20
14.4301399527
 10
7.1123331185
 20
14.4408124587
 10
7.1283113829
 20
14.4511715754
 10
7.1459999706
 20
14.4609231156
 10
7.1654477873
 20
14.4699690171
 10
7.1866059273
 20
14.4784073421
 10
7.2094743907
 20
14.4862380907
  0
LWPOLYLINE
  5
3B8
100
AcDbEntity
  8
0
100
AcDbPolyline
 62
7
  6
CONTINUOUS
 90
10
 70
0
 10
8.9386071649
 20
16.9438927912
 10
8.9280808136
 20
16.932020992
 10
8.9161232633
 20
16.9204982584
 10
8.9027345138
 20
16.9093245905
 10
8.8879641053
 20
16.8984260387
 10
8.8717624977
 20
16.8878765526
 10
8.8539810713
 20
16.8778979809
 10
8.834570286
 20
16.8685642734
 10
8.8135796819
 20
16.8598014803
 10
8.7910092589
 20
16.8516096016
  0
LWPOLYLINE
  5
3B9
100
AcDbEntity
  8
0
100
AcDbPolyline
 62
7
  6
CONTINUOUS
 90
10
 70
0
 10
8.9386071649
 20
15.5059952282
 10
8.9280808136
 20
15.494123429
 10
8.9161232633
 20
15.4826006954
 10
8.9027345138
 20
15.4714270275
 10
8.8879641053
 20
15.4605284757
 10
8.8717624977
 20
15.4499789896
 10
8.8539810713
 20
15.440000418
 10
8.834570286
 20
15.4306667104
 10
8.8135796819
 20
15.4219039173
 10
8.7910092589
 20
15.4137120386
  0
LINE
  5
3BA
100
AcDbEntity
  8
DRAFT
100
AcDbLine
 62
7
  6
CONTINUOUS
 10
2.5
 20
6.6297856498
 11
2.5143669823
 21
6.6413439977
  0
LWPOLYLINE
  5
3BB
100
AcDbEntity
  8
0
100
AcDbPolyline
 62
7
  6
CONTINUOUS
 90
10
 70
0
 10
8.8732365114
 20
11.0855464944
 10
8.86201017
 20
11.0786843885
 10
8.8501180756
 20
11.0722063129
 10
8.8375602284
 20
11.0661122676
 10
8.8244197176
 20
11.0603942519
 10
8.8106134539
 20
11.0550602666
 10
8.7958921695
 20
11.0501343136
 10
8.7801727752
 20
11.0456243937
 10
8.7635383603
 20
11.0415225062
 10
8.7459889248
 20
11.0378286511
  0
LINE
  5
3BC
100
AcDbEntity
  8
DRAFT
100
AcDbLine
 62
7
  6
CONTINUOUS
 10
3.4854773828
 20
6.01019298
 11
3.4999918312
 21
6.0174496515
  0
LWPOLYLINE
  5
3BD
100
AcDbEntity
  8
0
100
AcDbPolyline
 62
250
  6
CONTINUOUS
 90
25
 70
0
 10
-2.7413665539
 20
-6.1410325068
 10
-2.5013282556
 20
-6.0813835851
 10
-2.2678805165
 20
-6.0269293671
 10
-2.0410233368
 20
-5.9776698525
 10
-1.8214251376
 20
-5.9337868627
 10
-1.6084174978
 20
-5.8950985763
 10
-1.3999951534
 20
-5.8610595304
 10
-1.1967278022
 20
-5.8315933925
 10
-0.9980457464
 20
-5.806776495
 10
-0.8002346298
 20
-5.7862923718
 10
-0.6035977219
 20
-5.7698617444
 10
-0.4078317532
 20
-5.7577638913
 10
-0.2083125581
 20
-5.750520181
 10
-0.0048116589
 20
-5.7479083463
 10
0.2024424666
 20
-5.7501506544
 10
0.4173885502
 20
-5.7584352764
 10
0.6409737265
 20
-5.7728257858
 10
0.8722508609
 20
-5.7932586091
 10
1.1123172817
 20
-5.8207311962
 10
1.3614690956
 20
-5.8553672996
 10
1.6194101959
 20
-5.8970431667
 10
1.886349591
 20
-5.9463849903
 10
2.1623569503
 20
-6.0036015011
 10
2.4473626045
 20
-6.0684839683
 10
2.7413665534
 20
-6.1410323918
  0
LWPOLYLINE
  5
3BE
100
AcDbEntity
  8
0
100
AcDbPolyline
 62
250
  6
CONTINUOUS
 90
25
 70
0
 10
-2.747378428
 20
-6.1196643888
 10
-2.506994824
 20
-6.0600172911
 10
-2.2731843822
 20
-6.0055647145
 10
-2.0459471026
 20
-5.9563066592
 10
-1.8259509888
 20
-5.912425087
 10
-1.6125280373
 20
-5.8737380361
 10
-1.4036742372
 20
-5.8396996201
 10
-1.1999624887
 20
-5.8102331751
 10
-1.0008198917
 20
-5.785415365
 10
-0.8025237351
 20
-5.7649302962
 10
-0.605375812
 20
-5.7484989761
 10
-0.4090743294
 20
-5.7364003972
 10
-0.2089911969
 20
-5.7291556433
 10
-0.0048859465
 20
-5.7265417725
 10
0.2030009538
 20
-5.7287817268
 10
0.4185761897
 20
-5.7370654149
 10
0.6427843995
 20
-5.7514580518
 10
0.8746809449
 20
-5.7718944227
 10
1.1153385966
 20
-5.7993687915
 10
1.3650421692
 20
-5.8340028496
 10
1.623506848
 20
-5.8756749056
 10
1.8909509599
 20
-5.92501415
 10
2.1674472804
 20
-5.982230313
 10
2.4529230339
 20
-6.0471136644
 10
2.7473782204
 20
-6.1196642043
  0
LINE
  5
3BF
100
AcDbEntity
  8
RACCORDO
100
AcDbLine
 62
7
  6
CONTINUOUS
 10
5.3139631214
 20
-10.383214812
 11
5.502373164
 21
-10.5139946657
  0
LINE
  5
3C0
100
AcDbEntity
  8
RACCORDO
100
AcDbLine
 62
7
  6
CONTINUOUS
 10
6.0868716207
 20
-12.9868716207
 11
6.1015998396
 21
-13.0015998396
  0
LWPOLYLINE
  5
3C1
100
AcDbEntity
  8
0
100
AcDbPolyline
 62
250
  6
CONTINUOUS
 90
10
 70
0
 10
-2.7413665539
 20
-6.1410324954
 10
-2.7420580635
 20
-6.1387991025
 10
-2.7427477908
 20
-6.1365164524
 10
-2.7434339601
 20
-6.1341904209
 10
-2.7441148046
 20
-6.1318269957
 10
-2.7447885721
 20
-6.1294322609
 10
-2.74545353
 20
-6.1270123815
 10
-2.7461079669
 20
-6.124573587
 10
-2.7467501978
 20
-6.1221221552
 10
-2.7473785695
 20
-6.1196643966
  0
LWPOLYLINE
  5
3C2
100
AcDbEntity
  8
0
100
AcDbPolyline
 62
250
  6
CONTINUOUS
 90
10
 70
0
 10
-2.7913646501
 20
-6.1196644211
 10
-2.7905478102
 20
-6.1233489224
 10
-2.7882554128
 20
-6.1269258037
 10
-2.7845528352
 20
-6.1302873674
 10
-2.7795462008
 20
-6.1333329607
 10
-2.7733844571
 20
-6.1359687878
 10
-2.7662588219
 20
-6.1381123282
 10
-2.7583876066
 20
-6.1396989026
 10
-2.7500059975
 20
-6.1406820034
 10
-2.7413665539
 20
-6.1410325066
  0
LWPOLYLINE
  5
3C3
100
AcDbEntity
  8
RACCORDO
100
AcDbPolyline
 62
250
  6
CONTINUOUS
 90
4
 70
0
 10
-4.334364846
 20
21.584353423
 10
-4.334240456
 20
21.5827859067
 10
-4.3341213902
 20
21.5788748823
 10
-4.3340076487
 20
21.5728652948
  0
LINE
  5
3C4
100
AcDbEntity
  8
DRAFT
100
AcDbLine
 62
7
  6
CONTINUOUS
 10
-3.4856436795
 20
6.689723878
 11
-3.4854773828
 21
6.01019298
  0
LINE
  5
3C5
100
AcDbEntity
  8
RACCORDO
100
AcDbLine
 62
250
  6
CONTINUOUS
 10
-3.5152815382
 20
6.0174537356
 11
-3.5152815382
 21
6.6825462644
  0
LINE
  5
3C6
100
AcDbEntity
  8
DRAFT
100
AcDbLine
 62
7
  6
CONTINUOUS
 10
-3.4999918312
 20
6.0174496515
 11
-3.4999918312
 21
6.6825503485
  0
LINE
  5
3C7
100
AcDbEntity
  8
0
100
AcDbLine
 62
7
  6
CONTINUOUS
 10
-2.8
 20
-8.2129725152
 11
-2.8
 21
-6.1907114275
  0
LINE
  5
3C8
100
AcDbEntity
  8
0
100
AcDbLine
 62
7
  6
CONTINUOUS
 10
-2.7913646542
 20
-6.119665434
 11
-2.7913646585
 21
-5.6315522392
  0
LINE
  5
3C9
100
AcDbEntity
  8
0
100
AcDbLine
 62
250
  6
CONTINUOUS
 10
-2.747378428
 20
-6.1196643879
 11
-2.7473784585
 21
-5.5819214015
  0
LINE
  5
3CA
100
AcDbEntity
  8
DRAFT
100
AcDbLine
 62
7
  6
CONTINUOUS
 10
-2.5
 20
6.6297856498
 11
-2.5
 21
5.9193116204
  0
LINE
  5
3CB
100
AcDbEntity
  8
0
100
AcDbLine
 62
7
  6
CONTINUOUS
 10
-2.372012
 20
24.661935
 11
-2.372012
 21
22.362007
  0
LINE
  5
3CC
100
AcDbEntity
  8
DRAFT
100
AcDbLine
 62
250
  6
CONTINUOUS
 10
-2.2554654956
 20
6.5568676258
 11
-2.2554654956
 21
5.9857818606
  0
LINE
  5
3CD
100
AcDbEntity
  8
0
100
AcDbLine
 62
7
  6
CONTINUOUS
 10
-1.891956
 20
22.362007
 11
-1.891956
 21
24.661935
  0
LINE
  5
3CE
100
AcDbEntity
  8
DRAFT
100
AcDbLine
 62
250
  6
CONTINUOUS
 10
-1.7630616191
 20
6.6070763582
 11
-1.7630616191
 21
6.0807768746
  0
LINE
  5
3CF
100
AcDbEntity
  8
DRAFT
100
AcDbLine
 62
7
  6
CONTINUOUS
 10
-2.5145506931
 20
5.9084351021
 11
-2.5143669823
 21
6.6413439977
  0
LINE
  5
3D0
100
AcDbEntity
  8
0
100
AcDbLine
 62
7
  6
CONTINUOUS
 10
-2.5
 20
-10.7923553733
 11
-2.4964343183
 21
-7.4646841546
  0
LINE
  5
3D1
100
AcDbEntity
  8
0
100
AcDbLine
 62
250
  6
CONTINUOUS
 10
-2.4502566497
 20
-11.0361903007
 11
-2.4462767686
 21
-7.3219675852
  0
LINE
  5
3D2
100
AcDbEntity
  8
0
100
AcDbLine
 62
7
  6
CONTINUOUS
 10
-2.8
 20
-8.2129725152
 11
-2.7913646542
 21
-6.119665434
  0
LINE
  5
3D3
100
AcDbEntity
  8
0
100
AcDbLine
 62
250
  6
CONTINUOUS
 10
-2.7503925857
 20
-8.3290463806
 11
-2.7413665539
 21
-6.1410325068
  0
LINE
  5
3D4
100
AcDbEntity
  8
0
100
AcDbLine
 62
7
  6
CONTINUOUS
 10
-2.8
 20
-6.1907114275
 11
-2.7951565884
 21
-5.6357114275
  0
LINE
  5
3D5
100
AcDbEntity
  8
0
100
AcDbLine
 62
7
  6
CONTINUOUS
 10
-1.174268
 20
22.362007
 11
-1.070672
 21
23.863726
  0
LINE
  5
3D6
100
AcDbEntity
  8
0
100
AcDbLine
 62
7
  6
CONTINUOUS
 10
-2.7913646585
 20
-5.6315522392
 11
-2.7914178684
 21
-5.6319727075
  0
LWPOLYLINE
  5
3D7
100
AcDbEntity
  8
0
100
AcDbPolyline
 62
7
  6
CONTINUOUS
 90
10
 70
0
 10
7.8329874933
 20
18.6345089361
 10
7.8228873651
 20
18.6164203191
 10
7.8128126065
 20
18.5987173938
 10
7.8027632176
 20
18.5814001604
 10
7.7927824657
 20
18.5645178195
 10
7.7828270835
 20
18.5480211703
 10
7.7727672686
 20
18.531762611
 10
7.7625597538
 20
18.5156929409
 10
7.7522478063
 20
18.4998613606
 10
7.7418314263
 20
18.4842678701
  0
LWPOLYLINE
  5
3D8
100
AcDbEntity
  8
0
100
AcDbPolyline
 62
7
  6
CONTINUOUS
 90
10
 70
0
 10
6.8793319142
 20
17.4093378133
 10
6.8663708187
 20
17.3863833962
 10
6.8546772914
 20
17.3610119537
 10
6.8442513324
 20
17.3332234859
 10
6.8349628966
 20
17.3032037713
 10
6.826942029
 20
17.2707670314
 10
6.8205788649
 20
17.2353559304
 10
6.8160034493
 20
17.1967846897
 10
6.8130857371
 20
17.1552390879
 10
6.8118257284
 20
17.110719125
  0
LWPOLYLINE
  5
3D9
100
AcDbEntity
  8
0
100
AcDbPolyline
 62
7
  6
CONTINUOUS
 90
10
 70
0
 10
6.8793319142
 20
15.9714402504
 10
6.8663708187
 20
15.9484858332
 10
6.8546772914
 20
15.9231143907
 10
6.8442513324
 20
15.8953259229
 10
6.8349628966
 20
15.8653062083
 10
6.826942029
 20
15.8328694684
 10
6.8205788649
 20
15.7974583674
 10
6.8160034493
 20
15.7588871267
 10
6.8130857371
 20
15.7173415249
 10
6.8118257284
 20
15.672821562
  0
LINE
  5
3DA
100
AcDbEntity
  8
0
100
AcDbLine
 62
7
  6
CONTINUOUS
 10
7.9029736578
 20
18.7490317509
 11
7.8329874933
 21
18.6345089361
  0
LINE
  5
3DB
100
AcDbEntity
  8
0
100
AcDbLine
 62
7
  6
CONTINUOUS
 10
8.1352005452
 20
18.6058783695
 11
8.1575133419
 21
18.6401601135
  0
LINE
  5
3DC
100
AcDbEntity
  8
0
100
AcDbLine
 62
7
  6
CONTINUOUS
 10
8.1575133419
 20
18.6401601135
 11
8.1793116963
 21
18.673287317
  0
LINE
  5
3DD
100
AcDbEntity
  8
0
100
AcDbLine
 62
7
  6
CONTINUOUS
 10
8.1793116963
 20
18.673287317
 11
8.2006093434
 21
18.7052949836
  0
LWPOLYLINE
  5
3DE
100
AcDbEntity
  8
0
100
AcDbPolyline
 62
7
  6
CONTINUOUS
 90
10
 70
0
 10
8.9386071649
 20
14.0680976652
 10
8.928080811
 20
14.0562258494
 10
8.91612326
 20
14.0447030958
 10
8.9027345119
 20
14.0335294042
 10
8.8879641067
 20
14.0226308195
 10
8.8717625045
 20
14.0120812969
 10
8.8539810847
 20
14.0021027021
 10
8.8345703072
 20
13.9927689905
 10
8.8135797122
 20
13.9840062067
 10
8.7910092996
 20
13.9758143507
  0
LWPOLYLINE
  5
3DF
100
AcDbEntity
  8
0
100
AcDbPolyline
 62
7
  6
CONTINUOUS
 90
10
 70
0
 10
6.9525941542
 20
11.7622767529
 10
6.9265196622
 20
11.7368969586
 10
6.9028076708
 20
11.7068887972
 10
6.88145818
 20
11.6722522687
 10
6.8621433386
 20
11.6336411566
 10
6.8451909977
 20
11.5904016775
 10
6.831584711
 20
11.540572481
 10
6.8216523294
 20
11.4834997836
 10
6.8150660019
 20
11.4198373688
 10
6.8118257284
 20
11.3495852366
  0
LWPOLYLINE
  5
3E0
100
AcDbEntity
  8
0
100
AcDbPolyline
 62
7
  6
CONTINUOUS
 90
10
 70
0
 10
8.1558437138
 20
11.5420126274
 10
8.1676919513
 20
11.5532338793
 10
8.1805162356
 20
11.5637703429
 10
8.1943165669
 20
11.5736220182
 10
8.2089667065
 20
11.58279743
 10
8.224592893
 20
11.5912880534
 10
8.2415738425
 20
11.5990683143
 10
8.2600357938
 20
11.6061296881
 10
8.2798525082
 20
11.6124806994
 10
8.3010239856
 20
11.6181213482
  0
LWPOLYLINE
  5
3E1
100
AcDbEntity
  8
0
100
AcDbPolyline
 62
7
  6
CONTINUOUS
 90
10
 70
0
 10
9.0386583615
 20
10.8914939313
 10
9.065853252
 20
10.9167714547
 10
9.0905729402
 20
10.9474499279
 10
9.112817426
 20
10.9835293509
 10
9.1329315986
 20
11.0242595957
 10
9.1505705689
 20
11.0703907904
 10
9.1646996693
 20
11.1241733188
 10
9.1749740108
 20
11.1863573088
 10
9.1817384825
 20
11.2561926326
 10
9.1849930844
 20
11.3336792901
  0
LWPOLYLINE
  5
3E2
100
AcDbEntity
  8
RACCORDO
100
AcDbPolyline
 62
250
  6
CONTINUOUS
 90
13
 70
0
 10
10.8428653412
 20
-1.5438731188
 10
10.8689705797
 20
-1.5421880854
 10
10.8946291503
 20
-1.5371618167
 10
10.9194020279
 20
-1.5288803134
 10
10.9428653415
 20
-1.5174852744
 10
10.9646176273
 20
-1.503171672
 10
10.9842866978
 20
-1.4861844159
 10
11.0015360095
 20
-1.4668141629
 10
11.0160704221
 20
-1.4453923432
 10
11.0276412478
 20
-1.4222854902
 10
11.0360505065
 20
-1.3978889685
 10
11.0411543135
 20
-1.3726202093
 10
11.0428653412
 20
-1.3469115682
  0
LINE
  5
3E3
100
AcDbEntity
  8
RACCORDO
100
AcDbLine
 62
7
  6
CONTINUOUS
 10
10.8428653412
 20
-2.0
 11
10.2428653412
 21
-2.0
  0
LINE
  5
3E4
100
AcDbEntity
  8
0
100
AcDbLine
 62
7
  6
CONTINUOUS
 10
2.7534844797
 20
-5.5882485681
 11
2.7473784585
 21
-5.5819214015
  0
LINE
  5
3E5
100
AcDbEntity
  8
RACCORDO
100
AcDbLine
 62
7
  6
CONTINUOUS
 10
5.3750945812
 20
-24.8594929665
 11
5.3766545824
 21
-24.864628795
  0
LINE
  5
3E6
100
AcDbEntity
  8
DRAFT
100
AcDbLine
 62
7
  6
CONTINUOUS
 10
-1.5
 20
5.77
 11
-1.5
 21
6.1177205402
  0
LINE
  5
3E7
100
AcDbEntity
  8
0
100
AcDbLine
 62
250
  6
CONTINUOUS
 10
-6.0939972548
 20
-24.6314569531
 11
-6.1001065276
 21
-24.6559313372
  0
LINE
  5
3E8
100
AcDbEntity
  8
0
100
AcDbLine
 62
250
  6
CONTINUOUS
 10
-6.1938907273
 20
-24.5313348024
 11
-6.2
 21
-24.5557276917
  0
LWPOLYLINE
  5
3E9
100
AcDbEntity
  8
0
100
AcDbPolyline
 62
7
  6
CONTINUOUS
 90
10
 70
0
 10
-2.7913646585
 20
-5.6315522393
 10
-2.7909539418
 20
-5.6303603439
 10
-2.7898327217
 20
-5.6285441678
 10
-2.7880180879
 20
-5.6261037111
 10
-2.7855342132
 20
-5.6229803749
 10
-2.7824191046
 20
-5.619232758
 10
-2.7787301419
 20
-5.6150366569
 10
-2.7745536903
 20
-5.6104088952
 10
-2.7699317047
 20
-5.6053326492
 10
-2.7648490597
 20
-5.5999332444
  0
LWPOLYLINE
  5
3EA
100
AcDbEntity
  8
0
100
AcDbPolyline
 62
7
  6
CONTINUOUS
 90
10
 70
0
 10
7.0504148265
 20
18.7744813078
 10
7.057291447
 20
18.7896148585
 10
7.0644270553
 20
18.8036927516
 10
7.0718216516
 20
18.8167149872
 10
7.0794028541
 20
18.8285482418
 10
7.0872430445
 20
18.8393258389
 10
7.0955593678
 20
18.8494477485
 10
7.1044242056
 20
18.8590472941
 10
7.1137651762
 20
18.8679911522
 10
7.1235822797
 20
18.8762793228
  0
LWPOLYLINE
  5
3EB
100
AcDbEntity
  8
0
100
AcDbPolyline
 62
7
  6
CONTINUOUS
 90
10
 70
0
 10
8.9445038601
 20
18.420750566
 10
8.9354760355
 20
18.4040465231
 10
8.9260716769
 20
18.3884645542
 10
8.9162907842
 20
18.3740046593
 10
8.9060863217
 20
18.3606957622
 10
8.8955053252
 20
18.348508939
 10
8.8846889015
 20
18.3373574182
 10
8.8736840862
 20
18.3272122758
 10
8.8624438438
 20
18.3181024357
 10
8.8509681743
 20
18.3100278979
  0
LWPOLYLINE
  5
3EC
100
AcDbEntity
  8
0
100
AcDbPolyline
 62
7
  6
CONTINUOUS
 90
10
 70
0
 10
6.8793319142
 20
14.5335424132
 10
6.8663708169
 20
14.5105880043
 10
6.8546772884
 20
14.4852165787
 10
6.8442513288
 20
14.4574281365
 10
6.8349628931
 20
14.4274084603
 10
6.8269420262
 20
14.3949717675
 10
6.8205788629
 20
14.3595607098
 10
6.8160034479
 20
14.3209895044
 10
6.8130857364
 20
14.2794439342
 10
6.8118257284
 20
14.234923999
  0
LWPOLYLINE
  5
3ED
100
AcDbEntity
  8
0
100
AcDbPolyline
 62
7
  6
CONTINUOUS
 90
10
 70
0
 10
9.1170174257
 20
16.799657883
 10
9.1302620417
 20
16.8226406787
 10
9.1423041409
 20
16.8482683503
 10
9.1531437234
 20
16.8765408976
 10
9.1629568665
 20
16.9072427836
 10
9.1715674929
 20
16.9405895454
 10
9.1784473702
 20
16.9772277941
 10
9.1834204211
 20
17.0173730668
 10
9.186662723
 20
17.0608098263
 10
9.1881742759
 20
17.1075380728
  0
LWPOLYLINE
  5
3EE
100
AcDbEntity
  8
0
100
AcDbPolyline
 62
7
  6
CONTINUOUS
 90
10
 70
0
 10
9.1170174257
 20
15.36176032
 10
9.1302620417
 20
15.3847431158
 10
9.1423041409
 20
15.4103707873
 10
9.1531437234
 20
15.4386433346
 10
9.1629568665
 20
15.4693452207
 10
9.1715674929
 20
15.5026919824
 10
9.1784473702
 20
15.5393302311
 10
9.1834204211
 20
15.5794755038
 10
9.186662723
 20
15.6229122633
 10
9.1881742759
 20
15.6696405098
  0
LWPOLYLINE
  5
3EF
100
AcDbEntity
  8
0
100
AcDbPolyline
 62
7
  6
CONTINUOUS
 90
10
 70
0
 10
7.0452717795
 20
11.4825095951
 10
7.0528675321
 20
11.49543555
 10
7.0608975878
 20
11.5074902244
 10
7.0693619465
 20
11.5186736184
 10
7.078235564
 20
11.5289260947
 10
7.0875434846
 20
11.5383072905
 10
7.0973608411
 20
11.5469961176
 10
7.1077126776
 20
11.5550522132
 10
7.11857395
 20
11.5624159401
 10
7.1299446583
 20
11.5690872982
  0
LINE
  5
3F0
100
AcDbEntity
  8
RACCORDO
100
AcDbLine
 62
250
  6
CONTINUOUS
 10
10.2428653412
 20
-1.5438731188
 11
10.8428653412
 21
-1.5438731188
  0
LINE
  5
3F1
100
AcDbEntity
  8
RACCORDO
100
AcDbLine
 62
250
  6
CONTINUOUS
 10
10.0428653412
 20
-1.0514692423
 11
11.0428653412
 21
-1.0514692423
  0
LINE
  5
3F2
100
AcDbEntity
  8
0
100
AcDbLine
 62
7
  6
CONTINUOUS
 10
5.2
 20
0.0
 11
-5.2
 21
0.0
  0
LINE
  5
3F3
100
AcDbEntity
  8
0
100
AcDbLine
 62
250
  6
CONTINUOUS
 10
6.2
 20
-24.5557276917
 11
6.1938907273
 21
-24.5313348024
  0
LINE
  5
3F4
100
AcDbEntity
  8
0
100
AcDbLine
 62
250
  6
CONTINUOUS
 10
6.1001065276
 20
-24.6559313373
 11
6.0939972548
 21
-24.6314569531
  0
LWPOLYLINE
  5
3F5
100
AcDbEntity
  8
RACCORDO
100
AcDbPolyline
 62
250
  6
CONTINUOUS
 90
6
 70
0
 10
-4.634353423
 20
21.284364846
 10
-4.6342291054
 20
21.2835761831
 10
-4.6341100835
 20
21.2820444327
 10
-4.6339963572
 20
21.2797695947
 10
-4.6338887858
 20
21.2767375152
 10
-4.6337865101
 20
21.2729623481
  0
LINE
  5
3F6
100
AcDbEntity
  8
0
100
AcDbLine
 62
7
  6
CONTINUOUS
 10
0.130606
 20
23.857466
 11
0.229236
 21
22.362007
  0
LINE
  5
3F7
100
AcDbEntity
  8
DRAFT
100
AcDbLine
 62
7
  6
CONTINUOUS
 10
1.5
 20
5.77
 11
1.5
 21
6.1177205402
  0
LINE
  5
3F8
100
AcDbEntity
  8
DRAFT
100
AcDbLine
 62
250
  6
CONTINUOUS
 10
1.7630616191
 20
6.0807768746
 11
1.7630616191
 21
6.6070763582
  0
LINE
  5
3F9
100
AcDbEntity
  8
RACCORDO
100
AcDbLine
 62
7
  6
CONTINUOUS
 10
-5.3766545824
 20
-24.864628795
 11
-5.3750945812
 21
-24.8594929665
  0
LWPOLYLINE
  5
3FA
100
AcDbEntity
  8
0
100
AcDbPolyline
 62
7
  6
CONTINUOUS
 90
10
 70
0
 10
9.1170174257
 20
13.9238624828
 10
9.1302620448
 20
13.9468452831
 10
9.142304146
 20
13.9724729628
 10
9.1531437294
 20
14.000745522
 10
9.1629568718
 20
14.03144742
 10
9.1715674963
 20
14.0647941974
 10
9.178447372
 20
14.1014324766
 10
9.183420422
 20
14.1415777983
 10
9.1866627233
 20
14.1850146217
 10
9.1881742759
 20
14.2317429468
  0
LWPOLYLINE
  5
3FB
100
AcDbEntity
  8
0
100
AcDbPolyline
 62
7
  6
CONTINUOUS
 90
10
 70
0
 10
8.0214251322
 20
11.7308211388
 10
8.01173801
 20
11.7160463439
 10
8.002567168
 20
11.7000521069
 10
7.9939126063
 20
11.6828384278
 10
7.9857356003
 20
11.6644337036
 10
7.9780748746
 20
11.6448095373
 10
7.9710466029
 20
11.623880738
 10
7.9646895101
 20
11.6016189089
 10
7.9589648713
 20
11.5780524468
 10
7.9538726866
 20
11.5531813517
  0
LWPOLYLINE
  5
3FC
100
AcDbEntity
  8
0
100
AcDbPolyline
 62
7
  6
CONTINUOUS
 90
3
 70
0
 10
-2.7648490597
 20
-5.5999332444
 10
-2.753484527
 20
-5.588248508
 10
-2.7473784585
 20
-5.5819214015
  0
LINE
  5
3FD
100
AcDbEntity
  8
RACCORDO
100
AcDbLine
 62
250
  6
CONTINUOUS
 10
10.0428653412
 20
1.0514692423
 11
11.0428653412
 21
1.0514692423
  0
LINE
  5
3FE
100
AcDbEntity
  8
RACCORDO
100
AcDbLine
 62
250
  6
CONTINUOUS
 10
10.8428653412
 20
1.5438731188
 11
10.2428653412
 21
1.5438731188
  0
LINE
  5
3FF
100
AcDbEntity
  8
RACCORDO
100
AcDbLine
 62
7
  6
CONTINUOUS
 10
10.2428653412
 20
2.0
 11
10.8428653412
 21
2.0
  0
LWPOLYLINE
  5
400
100
AcDbEntity
  8
0
100
AcDbPolyline
 62
7
  6
CONTINUOUS
 90
11
 70
0
 10
2.7913646585
 20
-5.6315522483
 10
2.7909539415
 20
-5.6303603614
 10
2.7898327203
 20
-5.628544194
 10
2.7880180839
 20
-5.6261037462
 10
2.7855342053
 20
-5.6229804181
 10
2.7824190907
 20
-5.6192328096
 10
2.7787301181
 20
-5.6150367201
 10
2.7745536464
 20
-5.6104089821
 10
2.7699316347
 20
-5.605332763
 10
2.7648489759
 20
-5.5999333652
 10
2.7534844797
 20
-5.5882485681
  0
LINE
  5
401
100
AcDbEntity
  8
0
100
AcDbLine
 62
7
  6
CONTINUOUS
 10
2.7914178684
 20
-5.6319727075
 11
2.7913646585
 21
-5.6315522482
  0
LINE
  5
402
100
AcDbEntity
  8
0
100
AcDbLine
 62
7
  6
CONTINUOUS
 10
0.698858
 20
22.362007
 11
0.483802
 21
24.661797
  0
LINE
  5
403
100
AcDbEntity
  8
0
100
AcDbLine
 62
7
  6
CONTINUOUS
 10
2.7951565884
 20
-5.6357114275
 11
2.8
 21
-6.1907114275
  0
LINE
  5
404
100
AcDbEntity
  8
0
100
AcDbLine
 62
250
  6
CONTINUOUS
 10
2.7413665534
 20
-6.1410323918
 11
2.7503925857
 21
-8.3290463806
  0
LINE
  5
405
100
AcDbEntity
  8
0
100
AcDbLine
 62
7
  6
CONTINUOUS
 10
2.791364654
 20
-6.1196653729
 11
2.8
 21
-8.2129725152
  0
LINE
  5
406
100
AcDbEntity
  8
0
100
AcDbLine
 62
250
  6
CONTINUOUS
 10
2.4462767686
 20
-7.3219675852
 11
2.4502566497
 21
-11.0361903007
  0
LINE
  5
407
100
AcDbEntity
  8
0
100
AcDbLine
 62
7
  6
CONTINUOUS
 10
2.4964343183
 20
-7.4646841546
 11
2.5
 21
-10.7923553733
  0
LINE
  5
408
100
AcDbEntity
  8
DRAFT
100
AcDbLine
 62
7
  6
CONTINUOUS
 10
2.5143669823
 20
6.6413439977
 11
2.5145506931
 21
5.9084351021
  0
LINE
  5
409
100
AcDbEntity
  8
DRAFT
100
AcDbLine
 62
250
  6
CONTINUOUS
 10
2.2554654956
 20
5.9857818606
 11
2.2554654956
 21
6.5568676258
  0
LINE
  5
40A
100
AcDbEntity
  8
DRAFT
100
AcDbLine
 62
7
  6
CONTINUOUS
 10
2.5
 20
6.6297856498
 11
2.5
 21
5.9193116204
  0
LINE
  5
40B
100
AcDbEntity
  8
0
100
AcDbLine
 62
250
  6
CONTINUOUS
 10
2.7473784585
 20
-5.5819214015
 11
2.7473780495
 21
-6.1196641632
  0
LINE
  5
40C
100
AcDbEntity
  8
0
100
AcDbLine
 62
7
  6
CONTINUOUS
 10
2.7913646585
 20
-5.6315522482
 11
2.791364654
 21
-6.1196653729
  0
LINE
  5
40D
100
AcDbEntity
  8
0
100
AcDbLine
 62
7
  6
CONTINUOUS
 10
2.8
 20
-8.2129725152
 11
2.8
 21
-6.1907114275
  0
LINE
  5
40E
100
AcDbEntity
  8
0
100
AcDbLine
 62
7
  6
CONTINUOUS
 10
2.8065975821
 20
24.6349276465
 11
2.8065975821
 21
22.3620071664
  0
LINE
  5
40F
100
AcDbEntity
  8
0
100
AcDbLine
 62
7
  6
CONTINUOUS
 10
3.2688043561
 20
23.638667771
 11
3.2688043561
 21
24.2700048698
  0
LINE
  5
410
100
AcDbEntity
  8
0
100
AcDbLine
 62
7
  6
CONTINUOUS
 10
3.2847223015
 20
22.3620071664
 11
3.2847223015
 21
23.2620177973
  0
LINE
  5
411
100
AcDbEntity
  8
DRAFT
100
AcDbLine
 62
7
  6
CONTINUOUS
 10
3.4999918312
 20
6.6825503485
 11
3.4999918312
 21
6.0174496515
  0
LINE
  5
412
100
AcDbEntity
  8
RACCORDO
100
AcDbLine
 62
250
  6
CONTINUOUS
 10
3.5152815382
 20
6.6825462644
 11
3.5152815382
 21
6.0174537356
  0
LINE
  5
413
100
AcDbEntity
  8
0
100
AcDbLine
 62
7
  6
CONTINUOUS
 10
4.0407988352
 20
23.435528575
 11
4.0407988352
 21
23.4491183268
  0
LINE
  5
414
100
AcDbEntity
  8
DRAFT
100
AcDbLine
 62
7
  6
CONTINUOUS
 10
3.4854773828
 20
6.01019298
 11
3.4856436795
 21
6.689723878
  0
LWPOLYLINE
  5
415
100
AcDbEntity
  8
0
100
AcDbPolyline
 62
7
  6
CONTINUOUS
 90
16
 70
0
 10
3.9160594002
 20
23.9960540991
 10
3.9135978943
 20
23.9507981734
 10
3.9075044801
 20
23.9081509892
 10
3.8977791576
 20
23.8681125466
 10
3.8841512067
 20
23.8302846954
 10
3.8668913475
 20
23.7950655858
 10
3.8468117401
 20
23.763649668
 10
3.8242199394
 20
23.7365845443
 10
3.7988083906
 20
23.7133226123
 10
3.7704665897
 20
23.6934155156
 10
3.7389913205
 20
23.6768938017
 10
3.7045857992
 20
23.663726923
 10
3.6677491703
 20
23.6533748805
 10
3.6286478152
 20
23.6456576745
 10
3.5871153524
 20
23.6407553047
 10
3.543151782
 20
23.638667771
  0
LWPOLYLINE
  5
416
100
AcDbEntity
  8
0
100
AcDbPolyline
 62
250
  6
CONTINUOUS
 90
10
 70
0
 10
2.7913646496
 20
-6.1196643068
 10
2.7905478071
 20
-6.1233487415
 10
2.788255404
 20
-6.1269255725
 10
2.7845528197
 20
-6.1302871019
 10
2.7795461793
 20
-6.1333326769
 10
2.7733844322
 20
-6.1359685023
 10
2.7662587969
 20
-6.138112058
 10
2.7583875856
 20
-6.1396986656
 10
2.7500059848
 20
-6.1406818181
 10
2.7413665534
 20
-6.1410323922
  0
LWPOLYLINE
  5
417
100
AcDbEntity
  8
0
100
AcDbPolyline
 62
7
  6
CONTINUOUS
 90
10
 70
0
 10
8.9559474288
 20
11.1778009836
 10
8.94914185
 20
11.1651943093
 10
8.9417121296
 20
11.1531539751
 10
8.9336582677
 20
11.1416799809
 10
8.9249429166
 20
11.1307420549
 10
8.9156034239
 20
11.120370469
 10
8.9057518328
 20
11.1106560385
 10
8.8954254908
 20
11.1016290351
 10
8.8845870504
 20
11.0932591871
 10
8.8732365114
 20
11.0855464944
  0
LWPOLYLINE
  5
418
100
AcDbEntity
  8
RACCORDO
100
AcDbPolyline
 62
250
  6
CONTINUOUS
 90
13
 70
0
 10
10.8428653412
 20
1.5438731188
 10
10.8689705796
 20
1.5421880854
 10
10.8946291502
 20
1.5371618167
 10
10.9194020276
 20
1.5288803135
 10
10.9428653412
 20
1.5174852746
 10
10.964617627
 20
1.5031716723
 10
10.9842866974
 20
1.4861844163
 10
11.0015360092
 20
1.4668141632
 10
11.0160704219
 20
1.4453923435
 10
11.0276412477
 20
1.4222854904
 10
11.0360505064
 20
1.3978889686
 10
11.0411543135
 20
1.3726202094
 10
11.0428653412
 20
1.3469115682
  0
LINE
  5
419
100
AcDbEntity
  8
DRAFT
100
AcDbLine
 62
7
  6
CONTINUOUS
 10
-3.4854773828
 20
6.01019298
 11
-3.4999918312
 21
6.0174496515
  0
LINE
  5
41A
100
AcDbEntity
  8
DRAFT
100
AcDbLine
 62
7
  6
CONTINUOUS
 10
-2.5143669823
 20
6.6413439977
 11
-2.5
 21
6.6297856498
  0
LINE
  5
41B
100
AcDbEntity
  8
0
100
AcDbLine
 62
7
  6
CONTINUOUS
 10
-4.441534
 20
24.661797
 11
-3.712456
 21
22.362007
  0
LINE
  5
41C
100
AcDbEntity
  8
0
100
AcDbLine
 62
7
  6
CONTINUOUS
 10
-3.481663
 20
23.07878
 11
-3.920045
 21
24.661797
  0
LINE
  5
41D
100
AcDbEntity
  8
0
100
AcDbLine
 62
7
  6
CONTINUOUS
 10
5.1996438684
 20
-5.6322038056
 11
5.1999292542
 21
-5.6350146361
  0
LINE
  5
41E
100
AcDbEntity
  8
RACCORDO
100
AcDbLine
 62
7
  6
CONTINUOUS
 10
5.3093340785
 20
-10.0935760774
 11
5.3011416158
 21
-10.011444936
  0
LINE
  5
41F
100
AcDbEntity
  8
RACCORDO
100
AcDbLine
 62
7
  6
CONTINUOUS
 10
6.0906659215
 20
-6.5064239226
 11
6.0958632086
 21
-6.5585278062
  0
LWPOLYLINE
  5
420
100
AcDbEntity
  8
0
100
AcDbPolyline
 62
7
  6
CONTINUOUS
 90
10
 70
0
 10
5.2
 20
4.7122316114
 10
5.1989958104
 20
4.7268402611
 10
5.1965392512
 20
4.7406849331
 10
5.1926303224
 20
4.7537656274
 10
5.1871232165
 20
4.7662485463
 10
5.180163741
 20
4.7779674875
 10
5.172189318
 20
4.7884238439
 10
5.1633457548
 20
4.7974514132
 10
5.1534872441
 20
4.8052163976
 10
5.1426137858
 20
4.8117187971
  0
LINE
  5
421
100
AcDbEntity
  8
RACCORDO
100
AcDbLine
 62
250
  6
CONTINUOUS
 10
5.3750945812
 20
-24.8594929665
 11
5.3753308746
 21
-24.8646889917
  0
LINE
  5
422
100
AcDbEntity
  8
RACCORDO
100
AcDbLine
 62
250
  6
CONTINUOUS
 10
5.2959687228
 20
-24.8991303252
 11
5.289700355
 21
-24.7196277561
  0
LINE
  5
423
100
AcDbEntity
  8
RACCORDO
100
AcDbLine
 62
7
  6
CONTINUOUS
 10
5.3139631214
 20
-10.383214812
 11
5.3114565431
 21
-10.1820974043
  0
LINE
  5
424
100
AcDbEntity
  8
RACCORDO
100
AcDbLine
 62
7
  6
CONTINUOUS
 10
6.0844069354
 20
-6.0860053343
 11
6.0885434569
 21
-6.4179025957
  0
LINE
  5
425
100
AcDbEntity
  8
0
100
AcDbLine
 62
7
  6
CONTINUOUS
 10
6.2
 20
-23.7357114275
 11
6.1974647201
 21
-23.492218207
  0
LINE
  5
426
100
AcDbEntity
  8
RACCORDO
100
AcDbLine
 62
7
  6
CONTINUOUS
 10
4.6307780443
 20
20.3852199614
 11
4.6307780443
 21
20.8692063748
  0
LINE
  5
427
100
AcDbEntity
  8
RACCORDO
100
AcDbLine
 62
7
  6
CONTINUOUS
 10
4.65
 20
21.3000114231
 11
4.65
 21
20.3913501688
  0
LINE
  5
428
100
AcDbEntity
  8
RACCORDO
100
AcDbLine
 62
250
  6
CONTINUOUS
 10
4.6825894025
 20
19.8
 11
4.6825894025
 21
19.9705138511
  0
LINE
  5
429
100
AcDbEntity
  8
0
100
AcDbLine
 62
250
  6
CONTINUOUS
 10
4.8791468291
 20
-24.9073657264
 11
4.8791468291
 21
-24.6314569531
  0
LINE
  5
42A
100
AcDbEntity
  8
0
100
AcDbLine
 62
7
  6
CONTINUOUS
 10
5.2
 20
-24.9073657264
 11
5.2
 21
-24.6538273509
  0
LINE
  5
42B
100
AcDbEntity
  8
0
100
AcDbLine
 62
7
  6
CONTINUOUS
 10
5.2
 20
-23.244159127
 11
5.2
 21
-10.0362421385
  0
LINE
  5
42C
100
AcDbEntity
  8
0
100
AcDbLine
 62
7
  6
CONTINUOUS
 10
5.2
 20
-6.8356293674
 11
5.2
 21
-5.6357114275
  0
LINE
  5
42D
100
AcDbEntity
  8
RACCORDO
100
AcDbLine
 62
7
  6
CONTINUOUS
 10
5.3139631214
 20
-10.383214812
 11
5.3139631214
 21
-12.9767854985
  0
LINE
  5
42E
100
AcDbEntity
  8
SMUSSO
100
AcDbLine
 62
7
  6
CONTINUOUS
 10
5.3139631214
 20
-6.216785188
 11
5.3139631214
 21
6.0139631214
  0
LINE
  5
42F
100
AcDbEntity
  8
RACCORDO
100
AcDbLine
 62
7
  6
CONTINUOUS
 10
5.7174537356
 20
-10.9235706878
 11
5.7174537356
 21
-12.4868906591
  0
LINE
  5
430
100
AcDbEntity
  8
RACCORDO
100
AcDbLine
 62
7
  6
CONTINUOUS
 10
5.7174537356
 20
-5.6764293122
 11
5.7174537356
 21
6.0174537356
  0
LINE
  5
431
100
AcDbEntity
  8
DRAFT
100
AcDbLine
 62
7
  6
CONTINUOUS
 10
5.3041367914
 20
-6.5585278062
 11
5.31019298
 21
6.01019298
  0
LINE
  5
432
100
AcDbEntity
  8
DRAFT
100
AcDbLine
 62
7
  6
CONTINUOUS
 10
5.3011416158
 20
-10.011444936
 11
5.2984001604
 21
-13.0015998396
  0
LINE
  5
433
100
AcDbEntity
  8
RACCORDO
100
AcDbLine
 62
250
  6
CONTINUOUS
 10
4.3307894673
 20
20.54638706
 11
4.3312899524
 21
21.2196610069
  0
LINE
  5
434
100
AcDbEntity
  8
0
100
AcDbLine
 62
7
  6
CONTINUOUS
 10
5.2
 20
4.7122316114
 11
5.1999543248
 21
-5.6052782504
  0
LINE
  5
435
100
AcDbEntity
  8
RACCORDO
100
AcDbLine
 62
250
  6
CONTINUOUS
 10
4.6307780443
 20
20.8692063748
 11
4.6309989173
 21
20.9667452788
  0
LINE
  5
436
100
AcDbEntity
  8
0
100
AcDbLine
 62
7
  6
CONTINUOUS
 10
5.1999543248
 20
-5.6052782504
 11
5.1998777501
 21
-5.6168723463
  0
LWPOLYLINE
  5
437
100
AcDbEntity
  8
RACCORDO
100
AcDbPolyline
 62
250
  6
CONTINUOUS
 90
6
 70
0
 10
4.3331351886
 20
21.4348270936
 10
4.3337377919
 20
21.5492676614
 10
4.3338830339
 20
21.5637057426
 10
4.3340358534
 20
21.5746495882
 10
4.3341964574
 20
21.5816570518
 10
4.334364846
 20
21.584353423
  0
LINE
  5
438
100
AcDbEntity
  8
RACCORDO
100
AcDbLine
 62
250
  6
CONTINUOUS
 10
4.3312899524
 20
21.2196610069
 11
4.3331351886
 21
21.4348270936
  0
LINE
  5
439
100
AcDbEntity
  8
RACCORDO
100
AcDbLine
 62
250
  6
CONTINUOUS
 10
4.6309989173
 20
20.9667452788
 11
4.6332272021
 21
21.2357985313
  0
LINE
  5
43A
100
AcDbEntity
  8
RACCORDO
100
AcDbLine
 62
7
  6
CONTINUOUS
 10
5.3114565431
 20
-6.4179025957
 11
5.3139631214
 21
-6.216785188
  0
LINE
  5
43B
100
AcDbEntity
  8
RACCORDO
100
AcDbLine
 62
250
  6
CONTINUOUS
 10
4.6332272021
 20
21.2357985313
 11
4.6334596061
 21
21.2551041968
  0
LWPOLYLINE
  5
43C
100
AcDbEntity
  8
0
100
AcDbPolyline
 62
7
  6
CONTINUOUS
 90
4
 70
0
 10
5.1998777501
 20
-5.6168723463
 10
5.1997734719
 20
-5.6259334376
 10
5.1997119349
 20
-5.6294067237
 10
5.1996438684
 20
-5.6322038056
  0
LWPOLYLINE
  5
43D
100
AcDbEntity
  8
RACCORDO
100
AcDbPolyline
 62
250
  6
CONTINUOUS
 90
6
 70
0
 10
4.6334596061
 20
21.2551041968
 10
4.6337266175
 20
21.2704027783
 10
4.6338720395
 20
21.2761057737
 10
4.6340248395
 20
21.2802746317
 10
4.6341853007
 20
21.2830276558
 10
4.634353423
 20
21.284364846
  0
LWPOLYLINE
  5
43E
100
AcDbEntity
  8
RACCORDO
100
AcDbPolyline
 62
250
  6
CONTINUOUS
 90
13
 70
0
 10
7.4169934091
 20
23.0416442642
 10
7.4187405958
 20
23.067328275
 10
7.4238732807
 20
23.0925736716
 10
7.4323038112
 20
23.1169493301
 10
7.4438882164
 20
23.1400389794
 10
7.4584286655
 20
23.1614483098
 10
7.4756768467
 20
23.1808117075
 10
7.4953382072
 20
23.1977984972
 10
7.5170769834
 20
23.21211859
 10
7.5405219353
 20
23.223527437
 10
7.5652726856
 20
23.2318302053
 10
7.5909065577
 20
23.236885106
 10
7.6169857937
 20
23.2386058148
  0
LINE
  5
43F
100
AcDbEntity
  8
RACCORDO
100
AcDbLine
 62
7
  6
CONTINUOUS
 10
5.3093340785
 20
-6.5064239226
 11
5.3041367914
 21
-6.5585278062
  0
LWPOLYLINE
  5
440
100
AcDbEntity
  8
0
100
AcDbPolyline
 62
250
  6
CONTINUOUS
 90
10
 70
0
 10
2.7473781733
 20
-6.1196641632
 10
2.7467497546
 20
-6.122121913
 10
2.7461075041
 20
-6.1245733428
 10
2.745453076
 20
-6.1270121423
 10
2.7447881637
 20
-6.1294320357
 10
2.744114471
 20
-6.1318267915
 10
2.7434337074
 20
-6.1341902388
 10
2.742747617
 20
-6.1365162912
 10
2.742057974
 20
-6.138798963
 10
2.7413665534
 20
-6.1410323781
  0
LWPOLYLINE
  5
441
100
AcDbEntity
  8
0
100
AcDbPolyline
 62
7
  6
CONTINUOUS
 90
10
 70
0
 10
8.0811203271
 20
11.4004842654
 10
8.0862804643
 20
11.4203625484
 10
8.0922445121
 20
11.4391524992
 10
8.0990124705
 20
11.4568541177
 10
8.1066087334
 20
11.4734005973
 10
8.1150089069
 20
11.4888587448
 10
8.1241398098
 20
11.5034289795
 10
8.1339770484
 20
11.5171781081
 10
8.1445450164
 20
11.5300393241
 10
8.1558437138
 20
11.5420126274
  0
LINE
  5
442
100
AcDbEntity
  8
DRAFT
100
AcDbLine
 62
7
  6
CONTINUOUS
 10
-9.9792140383
 20
-25.1212710891
 11
-10.0
 21
-25.1524539902
  0
LINE
  5
443
100
AcDbEntity
  8
RACCORDO
100
AcDbLine
 62
7
  6
CONTINUOUS
 10
-6.0868716207
 20
-12.9868716207
 11
-6.1015998396
 21
-13.0015998396
  0
LINE
  5
444
100
AcDbEntity
  8
RACCORDO
100
AcDbLine
 62
7
  6
CONTINUOUS
 10
-5.502373164
 20
-10.5139946657
 11
-5.3139631214
 21
-10.383214812
  0
LINE
  5
445
100
AcDbEntity
  8
DRAFT
100
AcDbLine
 62
7
  6
CONTINUOUS
 10
-10.0
 20
-11.65
 11
-9.9644022453
 21
-11.6322024782
  0
LINE
  5
446
100
AcDbEntity
  8
0
100
AcDbLine
 62
7
  6
CONTINUOUS
 10
1.5
 20
5.77
 11
-1.5
 21
5.77
  0
LINE
  5
447
100
AcDbEntity
  8
DRAFT
100
AcDbLine
 62
7
  6
CONTINUOUS
 10
5.31019298
 20
6.01019298
 11
3.4854773828
 21
6.01019298
  0
LINE
  5
448
100
AcDbEntity
  8
DRAFT
100
AcDbLine
 62
7
  6
CONTINUOUS
 10
-3.4854773828
 20
6.01019298
 11
-5.31019298
 21
6.01019298
  0
LINE
  5
449
100
AcDbEntity
  8
RACCORDO
100
AcDbLine
 62
7
  6
CONTINUOUS
 10
-5.7174537356
 20
6.0174537356
 11
-3.5152815382
 21
6.0174537356
  0
LINE
  5
44A
100
AcDbEntity
  8
RACCORDO
100
AcDbLine
 62
7
  6
CONTINUOUS
 10
3.5152815382
 20
6.0174537356
 11
5.7174537356
 21
6.0174537356
  0
LWPOLYLINE
  5
44B
100
AcDbEntity
  8
DRAFT
100
AcDbPolyline
 62
7
  6
CONTINUOUS
 90
18
 70
0
 10
-2.2554654956
 20
6.5568676258
 10
-2.2495654919
 20
6.5554925268
 10
-2.2420077234
 20
6.5544745025
 10
-2.2328164656
 20
6.5538135529
 10
-2.2220195405
 20
6.5535148304
 10
-2.2096538512
 20
6.5535731825
 10
-2.1957680169
 20
6.5539731523
 10
-2.1804109319
 20
6.5547200482
 10
-2.1636355841
 20
6.5558085618
 10
-2.1455084776
 20
6.5572073097
 10
-2.1260956025
 20
6.558920049
 10
-2.1054641091
 20
6.5609430228
 10
-2.0836910627
 20
6.5632335768
 10
-2.0608569362
 20
6.5657934557
 10
-2.0370382858
 20
6.5686209148
 10
-2.0123111374
 20
6.5716680663
 10
-1.9867617692
 20
6.5749353895
 10
-1.9335328525
 20
6.5820797872
  0
LINE
  5
44C
100
AcDbEntity
  8
0
100
AcDbLine
 62
7
  6
CONTINUOUS
 10
9.9431567889
 20
-24.6827004522
 11
9.9792140383
 21
-25.1212710891
  0
LWPOLYLINE
  5
44D
100
AcDbEntity
  8
0
100
AcDbPolyline
 62
7
  6
CONTINUOUS
 90
10
 70
0
 10
6.8118257284
 20
11.3495852366
 10
6.8150360829
 20
11.2791361343
 10
6.8216570509
 20
11.2150998795
 10
6.8316886323
 20
11.1574764723
 10
6.8454464478
 20
11.1068858243
 10
6.8626148768
 20
11.0627080239
 10
6.882247057
 20
11.0230833359
 10
6.9040273676
 20
10.9873918484
 10
6.9282714295
 20
10.9562534732
 10
6.9549792426
 20
10.9296682103
  0
LWPOLYLINE
  5
44E
100
AcDbEntity
  8
0
100
AcDbPolyline
 62
7
  6
CONTINUOUS
 90
10
 70
0
 10
6.8118257284
 20
14.234923999
 10
6.8133100958
 20
14.1898667305
 10
6.8164733958
 20
14.1478910524
 10
6.8213156286
 20
14.1089969648
 10
6.8279780798
 20
14.0734672338
 10
6.8363194638
 20
14.0410190932
 10
6.8459159228
 20
14.0108042447
 10
6.8566261711
 20
13.9825399221
 10
6.8685914945
 20
13.9565088914
 10
6.881811893
 20
13.9327111527
  0
LWPOLYLINE
  5
44F
100
AcDbEntity
  8
0
100
AcDbPolyline
 62
7
  6
CONTINUOUS
 90
10
 70
0
 10
6.8118257284
 20
15.672821562
 10
6.8133100935
 20
15.6277643436
 10
6.8164733895
 20
15.5857887171
 10
6.8213156165
 20
15.5468946827
 10
6.8279780572
 20
15.5113650149
 10
6.8363194289
 20
15.478916939
 10
6.8459158832
 20
15.448702131
 10
6.8566261372
 20
15.4204378162
 10
6.8685914738
 20
15.3944067691
 10
6.881811893
 20
15.3706089899
  0
LWPOLYLINE
  5
450
100
AcDbEntity
  8
0
100
AcDbPolyline
 62
7
  6
CONTINUOUS
 90
10
 70
0
 10
6.8118257284
 20
17.110719125
 10
6.8133100935
 20
17.0656619066
 10
6.8164733895
 20
17.0236862801
 10
6.8213156165
 20
16.9847922456
 10
6.8279780572
 20
16.9492625778
 10
6.8363194289
 20
16.916814502
 10
6.8459158832
 20
16.886599694
 10
6.8566261372
 20
16.8583353791
 10
6.8685914738
 20
16.8323043321
 10
6.881811893
 20
16.8085065529
  0
LWPOLYLINE
  5
451
100
AcDbEntity
  8
0
100
AcDbPolyline
 62
7
  6
CONTINUOUS
 90
10
 70
0
 10
6.8054633498
 20
18.6217841789
 10
6.8060799365
 20
18.5895980821
 10
6.8076253686
 20
18.5585618339
 10
6.8100996461
 20
18.5286754341
 10
6.8135328965
 20
18.5000512243
 10
6.8178949923
 20
18.4725768629
 10
6.823095551
 20
18.4459153258
 10
6.829104445
 20
18.4199542715
 10
6.8359518018
 20
18.3948060415
 10
6.8436376214
 20
18.3704706356
  0
LINE
  5
452
100
AcDbEntity
  8
RACCORDO
100
AcDbLine
 62
250
  6
CONTINUOUS
 10
7.4186597813
 20
22.9697830187
 11
7.4180647111
 21
23.0048367532
  0
LINE
  5
453
100
AcDbEntity
  8
RACCORDO
100
AcDbLine
 62
250
  6
CONTINUOUS
 10
7.419458403
 20
22.8999802386
 11
7.4186597813
 21
22.9697830187
  0
LINE
  5
454
100
AcDbEntity
  8
RACCORDO
100
AcDbLine
 62
250
  6
CONTINUOUS
 10
7.6189273207
 20
23.1119439758
 11
7.618057166
 21
23.1884137545
  0
LINE
  5
455
100
AcDbEntity
  8
RACCORDO
100
AcDbLine
 62
250
  6
CONTINUOUS
 10
7.6201703562
 20
22.910523644
 11
7.6189273207
 21
23.1119439758
  0
LINE
  5
456
100
AcDbEntity
  8
RACCORDO
100
AcDbLine
 62
250
  6
CONTINUOUS
 10
7.4205643279
 20
22.7177531268
 11
7.419458403
 21
22.8999802386
  0
LINE
  5
457
100
AcDbEntity
  8
RACCORDO
100
AcDbLine
 62
250
  6
CONTINUOUS
 10
7.7793433789
 20
22.2416304363
 11
7.7806598895
 21
21.9392601494
  0
LINE
  5
458
100
AcDbEntity
  8
DRAFT
100
AcDbLine
 62
7
  6
CONTINUOUS
 10
6.0988583842
 20
-10.011444936
 11
6.1015998396
 21
-13.0015998396
  0
LINE
  5
459
100
AcDbEntity
  8
RACCORDO
100
AcDbLine
 62
7
  6
CONTINUOUS
 10
6.0898097939
 20
5.9898364478
 11
6.0958632086
 21
-6.5585278062
  0
LINE
  5
45A
100
AcDbEntity
  8
RACCORDO
100
AcDbLine
 62
7
  6
CONTINUOUS
 10
6.0825462644
 20
-12.4868906591
 11
6.0825462644
 21
-10.9235706878
  0
LINE
  5
45B
100
AcDbEntity
  8
RACCORDO
100
AcDbLine
 62
7
  6
CONTINUOUS
 10
6.0825462644
 20
-5.6764293122
 11
6.0825462644
 21
5.9825729183
  0
LINE
  5
45C
100
AcDbEntity
  8
0
100
AcDbLine
 62
7
  6
CONTINUOUS
 10
6.1938907273
 20
-24.5313348024
 11
6.1938907273
 21
-24.2355632298
  0
LINE
  5
45D
100
AcDbEntity
  8
0
100
AcDbLine
 62
7
  6
CONTINUOUS
 10
6.2
 20
-24.5557276917
 11
6.2
 21
-24.2355632298
  0
LINE
  5
45E
100
AcDbEntity
  8
0
100
AcDbLine
 62
250
  6
CONTINUOUS
 10
6.2
 20
-24.6559313373
 11
6.2
 21
-24.5557276917
  0
LINE
  5
45F
100
AcDbEntity
  8
0
100
AcDbLine
 62
7
  6
CONTINUOUS
 10
6.85
 20
13.0387968227
 11
6.85
 21
12.8033888146
  0
LINE
  5
460
100
AcDbEntity
  8
0
100
AcDbLine
 62
7
  6
CONTINUOUS
 10
7.3939833701
 20
10.7960582472
 11
7.3939833701
 21
11.0505534083
  0
LINE
  5
461
100
AcDbEntity
  8
RACCORDO
100
AcDbLine
 62
7
  6
CONTINUOUS
 10
7.4
 20
21.6150027044
 11
7.4
 21
23.3849972956
  0
LINE
  5
462
100
AcDbEntity
  8
0
100
AcDbLine
 62
7
  6
CONTINUOUS
 10
7.4385200202
 20
18.9430847093
 11
7.4385200202
 21
19.2166667148
  0
LINE
  5
463
100
AcDbEntity
  8
RACCORDO
100
AcDbLine
 62
250
  6
CONTINUOUS
 10
7.620909416
 20
22.4004418227
 11
7.6201703562
 21
22.910523644
  0
LINE
  5
464
100
AcDbEntity
  8
RACCORDO
100
AcDbLine
 62
250
  6
CONTINUOUS
 10
7.4209170324
 20
22.427130412
 11
7.4205643279
 21
22.7177531268
  0
LINE
  5
465
100
AcDbEntity
  8
RACCORDO
100
AcDbLine
 62
250
  6
CONTINUOUS
 10
7.7793331321
 20
22.7546902748
 11
7.7793433789
 21
22.2416304363
  0
LINE
  5
466
100
AcDbEntity
  8
RACCORDO
100
AcDbLine
 62
250
  6
CONTINUOUS
 10
7.6199073851
 20
22.0328051138
 11
7.620909416
 21
22.4004418227
  0
LINE
  5
467
100
AcDbEntity
  8
RACCORDO
100
AcDbLine
 62
250
  6
CONTINUOUS
 10
7.4201681928
 20
22.1974394528
 11
7.4209170324
 21
22.427130412
  0
LINE
  5
468
100
AcDbEntity
  8
RACCORDO
100
AcDbLine
 62
250
  6
CONTINUOUS
 10
7.979900451
 20
22.8141759886
 11
7.9791114063
 21
22.5940524426
  0
LINE
  5
469
100
AcDbEntity
  8
RACCORDO
100
AcDbLine
 62
250
  6
CONTINUOUS
 10
7.7807520309
 20
23.0731599974
 11
7.7793331321
 21
22.7546902748
  0
LINE
  5
46A
100
AcDbEntity
  8
RACCORDO
100
AcDbLine
 62
250
  6
CONTINUOUS
 10
7.4193190729
 20
22.0859285766
 11
7.4201681928
 21
22.1974394528
  0
LINE
  5
46B
100
AcDbEntity
  8
RACCORDO
100
AcDbLine
 62
250
  6
CONTINUOUS
 10
7.9807443821
 20
22.9203173315
 11
7.979900451
 21
22.8141759886
  0
LINE
  5
46C
100
AcDbEntity
  8
RACCORDO
100
AcDbLine
 62
250
  6
CONTINUOUS
 10
7.6186168391
 20
21.8564986319
 11
7.6199073851
 21
22.0328051138
  0
LINE
  5
46D
100
AcDbEntity
  8
0
100
AcDbLine
 62
7
  6
CONTINUOUS
 10
6.1938907273
 20
-24.2355632298
 11
6.2
 21
-23.7357114275
  0
LINE
  5
46E
100
AcDbEntity
  8
RACCORDO
100
AcDbLine
 62
7
  6
CONTINUOUS
 10
6.0885434569
 20
-10.1820974043
 11
6.0844069354
 21
-10.5139946657
  0
LINE
  5
46F
100
AcDbEntity
  8
RACCORDO
100
AcDbLine
 62
250
  6
CONTINUOUS
 10
7.4186243965
 20
22.0279916184
 11
7.4193190729
 21
22.0859285766
  0
LWPOLYLINE
  5
470
100
AcDbEntity
  8
0
100
AcDbPolyline
 62
7
  6
CONTINUOUS
 90
10
 70
0
 10
8.058852002
 20
11.1873445481
 10
8.0592072014
 20
11.2133197441
 10
8.0601187664
 20
11.2387933009
 10
8.0615866973
 20
11.2637652185
 10
8.0636464619
 20
11.2883309795
 10
8.0662625922
 20
11.3123951013
 10
8.0693286843
 20
11.3356711357
 10
8.0728092702
 20
11.3580635997
 10
8.0767398178
 20
11.3796679763
 10
8.0811203271
 20
11.4004842654
  0
LWPOLYLINE
  5
471
100
AcDbEntity
  8
0
100
AcDbPolyline
 62
7
  6
CONTINUOUS
 90
10
 70
0
 10
7.0217842221
 20
18.6122410223
 10
7.0222691295
 20
18.6346428153
 10
7.0234588212
 20
18.6559168222
 10
7.0253532973
 20
18.6760630431
 10
7.0279935132
 20
18.695036128
 10
7.0313385134
 20
18.7128814269
 10
7.0352654314
 20
18.7297349893
 10
7.0397333119
 20
18.7456421652
 10
7.0447831103
 20
18.7605576047
 10
7.0504148265
 20
18.7744813078
  0
LWPOLYLINE
  5
472
100
AcDbEntity
  8
RACCORDO
100
AcDbPolyline
 62
250
  6
CONTINUOUS
 90
4
 70
0
 10
7.6169857575
 20
21.7613941852
 10
7.6174226695
 20
21.7765310987
 10
7.6178398609
 20
21.797651269
 10
7.6186168391
 20
21.8564986319
  0
LWPOLYLINE
  5
473
100
AcDbEntity
  8
RACCORDO
100
AcDbPolyline
 62
250
  6
CONTINUOUS
 90
5
 70
0
 10
7.7830142392
 20
23.2386058148
 10
7.782592452
 20
23.2240939749
 10
7.7821885658
 20
23.2039791399
 10
7.7818025806
 20
23.1785192108
 10
7.7807520309
 20
23.0731599974
  0
LWPOLYLINE
  5
474
100
AcDbEntity
  8
0
100
AcDbPolyline
 62
7
  6
CONTINUOUS
 90
10
 70
0
 10
7.0122406542
 20
11.343222858
 10
7.0128259408
 20
11.3620112428
 10
7.0141935598
 20
11.3798619681
 10
7.0163435111
 20
11.396775034
 10
7.0192906251
 20
11.4126042546
 10
7.0230200715
 20
11.4274958157
 10
7.0274873593
 20
11.4418882746
 10
7.032677658
 20
11.455927817
 10
7.0386057981
 20
11.4694682571
 10
7.0452717795
 20
11.4825095951
  0
LWPOLYLINE
  5
475
100
AcDbEntity
  8
RACCORDO
100
AcDbPolyline
 62
250
  6
CONTINUOUS
 90
4
 70
0
 10
7.4169934091
 20
21.9583557358
 10
7.4174302525
 20
21.969871372
 10
7.4178474028
 20
21.9852856098
 10
7.4186243965
 20
22.0279916184
  0
LWPOLYLINE
  5
476
100
AcDbEntity
  8
RACCORDO
100
AcDbPolyline
 62
250
  6
CONTINUOUS
 90
6
 70
0
 10
7.9830065909
 20
23.0416442642
 10
7.9825848656
 20
23.0306453069
 10
7.9821810165
 20
23.0159574703
 10
7.9817950436
 20
22.9975807545
 10
7.981425249
 20
22.9753550856
 10
7.9807443821
 20
22.9203173315
  0
LWPOLYLINE
  5
477
100
AcDbEntity
  8
0
100
AcDbPolyline
 62
7
  6
CONTINUOUS
 90
10
 70
0
 10
7.0122406542
 20
17.110719125
 10
7.0132436749
 20
17.1338001565
 10
7.0154808099
 20
17.1555176718
 10
7.0189520591
 20
17.175871671
 10
7.0237235932
 20
17.1947521672
 10
7.0297292415
 20
17.2122691473
 10
7.036770492
 20
17.228752571
 10
7.0447811738
 20
17.2443124251
 10
7.0538274577
 20
17.2588387229
 10
7.0639093436
 20
17.2723314643
  0
LWPOLYLINE
  5
478
100
AcDbEntity
  8
0
100
AcDbPolyline
 62
7
  6
CONTINUOUS
 90
10
 70
0
 10
7.0122406542
 20
15.672821562
 10
7.0132436749
 20
15.6959025935
 10
7.0154808099
 20
15.7176201089
 10
7.0189520591
 20
15.737974108
 10
7.0237235932
 20
15.7568546042
 10
7.0297292415
 20
15.7743715843
 10
7.036770492
 20
15.7908550081
 10
7.0447811738
 20
15.8064148621
 10
7.0538274577
 20
15.8209411599
 10
7.0639093436
 20
15.8344339013
  0
LWPOLYLINE
  5
479
100
AcDbEntity
  8
0
100
AcDbPolyline
 62
7
  6
CONTINUOUS
 90
10
 70
0
 10
7.0122406542
 20
14.234923999
 10
7.0132436624
 20
14.258004877
 10
7.0154807872
 20
14.2797222788
 10
7.0189520287
 20
14.3000762044
 10
7.0237235543
 20
14.3189566713
 10
7.0297291965
 20
14.3364736621
 10
7.0367704533
 20
14.3529571242
 10
7.0447811572
 20
14.3685170402
 10
7.0538274758
 20
14.3830434275
 10
7.0639094089
 20
14.3965362861
  0
LINE
  5
47A
100
AcDbEntity
  8
RACCORDO
100
AcDbLine
 62
250
  6
CONTINUOUS
 10
7.4
 20
21.6150027044
 11
7.4169934091
 21
21.9583557358
  0
LINE
  5
47B
100
AcDbEntity
  8
RACCORDO
100
AcDbLine
 62
250
  6
CONTINUOUS
 10
7.5997045347
 20
21.4122251268
 11
7.6169857937
 21
21.7613941852
  0
LINE
  5
47C
100
AcDbEntity
  8
RACCORDO
100
AcDbLine
 62
250
  6
CONTINUOUS
 10
7.8002954653
 20
23.5877748732
 11
7.7830142063
 21
23.2386058148
  0
LINE
  5
47D
100
AcDbEntity
  8
RACCORDO
100
AcDbLine
 62
250
  6
CONTINUOUS
 10
8.0
 20
23.3849972956
 11
7.9830065909
 21
23.0416442642
  0
LWPOLYLINE
  5
47E
100
AcDbEntity
  8
0
100
AcDbPolyline
 62
7
  6
CONTINUOUS
 90
13
 70
0
 10
6.1999898126
 20
-24.5556871475
 10
6.1991343822
 20
-24.5684483552
 10
6.1966276064
 20
-24.5810926016
 10
6.1924911393
 20
-24.5934034098
 10
6.186768655
 20
-24.6052044382
 10
6.1795408181
 20
-24.6162456683
 10
6.1709495154
 20
-24.6262236556
 10
6.16117619
 20
-24.6349309116
 10
6.1503704658
 20
-24.642273551
 10
6.138665752
 20
-24.6481470666
 10
6.1262366546
 20
-24.6524396061
 10
6.113309694
 20
-24.6550548575
 10
6.1001065276
 20
-24.6559313373
  0
LWPOLYLINE
  5
47F
100
AcDbEntity
  8
RACCORDO
100
AcDbPolyline
 62
250
  6
CONTINUOUS
 90
13
 70
0
 10
7.9830065909
 20
21.9583557358
 10
7.9812594041
 20
21.9326717249
 10
7.9761267192
 20
21.9074263282
 10
7.9676961887
 20
21.8830506695
 10
7.9561117835
 20
21.8599610202
 10
7.9415713343
 20
21.8385516896
 10
7.924323153
 20
21.8191882918
 10
7.9046617925
 20
21.8022015019
 10
7.8829230163
 20
21.787881409
 10
7.8594780645
 20
21.7764725622
 10
7.8347273142
 20
21.768169794
 10
7.8090934421
 20
21.7631148936
 10
7.7830142063
 20
21.7613941852
  0
LINE
  5
480
100
AcDbEntity
  8
RACCORDO
100
AcDbLine
 62
7
  6
CONTINUOUS
 10
6.0906659215
 20
-10.0935760774
 11
6.0988583842
 21
-10.011444936
  0
LINE
  5
481
100
AcDbEntity
  8
RACCORDO
100
AcDbLine
 62
7
  6
CONTINUOUS
 10
-9.0939596788
 20
-11.7462375299
 11
-9.452737412
 21
-11.9242533063
  0
LINE
  5
482
100
AcDbEntity
  8
RACCORDO
100
AcDbLine
 62
7
  6
CONTINUOUS
 10
-8.225
 20
-11.65
 11
-8.3461056179
 21
-11.7100893216
  0
LINE
  5
483
100
AcDbEntity
  8
DRAFT
100
AcDbLine
 62
7
  6
CONTINUOUS
 10
-9.2171572875
 20
-11.65
 11
-9.4133991981
 21
-11.7300055071
  0
LINE
  5
484
100
AcDbEntity
  8
DRAFT
100
AcDbLine
 62
7
  6
CONTINUOUS
 10
-9.4133991981
 20
-11.7300055071
 11
-9.4400136235
 21
-11.7406822889
  0
LINE
  5
485
100
AcDbEntity
  8
DRAFT
100
AcDbLine
 62
7
  6
CONTINUOUS
 10
-9.4400136235
 20
-11.7406822889
 11
-9.4520163037
 21
-11.7454214703
  0
LWPOLYLINE
  5
486
100
AcDbEntity
  8
DRAFT
100
AcDbPolyline
 62
7
  6
CONTINUOUS
 90
7
 70
0
 10
-9.4520163037
 20
-11.7454214703
 10
-9.4596021847
 20
-11.7483658283
 10
-9.4632788325
 20
-11.7497742304
 10
-9.4669126502
 20
-11.7511404469
 10
-9.4705145571
 20
-11.7524646157
 10
-9.4740736339
 20
-11.7537465988
 10
-9.4775898806
 20
-11.7549863962
  0
LWPOLYLINE
  5
487
100
AcDbEntity
  8
DRAFT
100
AcDbPolyline
 62
7
  6
CONTINUOUS
 90
3
 70
0
 10
-2.2419890953
 20
5.9891153768
 10
-2.2495519034
 20
5.9872935963
 10
-2.2554654956
 20
5.9857818606
  0
LWPOLYLINE
  5
488
100
AcDbEntity
  8
0
100
AcDbPolyline
 62
7
  6
CONTINUOUS
 90
7
 70
0
 10
-2.5145506931
 20
5.9084351021
 10
-2.3467449789
 20
5.9464622863
 10
-2.1783697024
 20
5.981858673
 10
-2.0094661255
 20
6.0146158243
 10
-1.8400756333
 20
6.04472595
 10
-1.6702397243
 20
6.0721819087
 10
-1.5
 20
6.0969772099
  0
LWPOLYLINE
  5
489
100
AcDbEntity
  8
DRAFT
100
AcDbPolyline
 62
7
  6
CONTINUOUS
 90
3
 70
0
 10
-2.2097680711
 20
5.996471595
 10
-2.2220558907
 20
5.9937043761
 10
-2.2419890953
 20
5.9891153768
  0
LINE
  5
48A
100
AcDbEntity
  8
DRAFT
100
AcDbLine
 62
7
  6
CONTINUOUS
 10
-2.180768982
 20
6.0028010502
 11
-2.2097680711
 21
5.996471595
  0
LINE
  5
48B
100
AcDbEntity
  8
DRAFT
100
AcDbLine
 62
7
  6
CONTINUOUS
 10
-2.146220776
 20
6.0101358706
 11
-2.180768982
 21
6.0028010502
  0
LINE
  5
48C
100
AcDbEntity
  8
DRAFT
100
AcDbLine
 62
7
  6
CONTINUOUS
 10
-2.1065643335
 20
6.0183154792
 11
-2.146220776
 21
6.0101358706
  0
LINE
  5
48D
100
AcDbEntity
  8
DRAFT
100
AcDbLine
 62
7
  6
CONTINUOUS
 10
-2.0622792264
 20
6.0271611989
 11
-2.1065643335
 21
6.0183154792
  0
LINE
  5
48E
100
AcDbEntity
  8
DRAFT
100
AcDbLine
 62
7
  6
CONTINUOUS
 10
-2.0139182315
 20
6.0365512278
 11
-2.0622792264
 21
6.0271611989
  0
LINE
  5
48F
100
AcDbEntity
  8
DRAFT
100
AcDbLine
 62
7
  6
CONTINUOUS
 10
-1.9620825147
 20
6.0462953228
 11
-2.0139182315
 21
6.0365512278
  0
LINE
  5
490
100
AcDbEntity
  8
DRAFT
100
AcDbLine
 62
7
  6
CONTINUOUS
 10
-1.9074227419
 20
6.05620405
 11
-1.9620825147
 21
6.0462953228
  0
LINE
  5
491
100
AcDbEntity
  8
DRAFT
100
AcDbLine
 62
7
  6
CONTINUOUS
 10
-1.8506383203
 20
6.0661558261
 11
-1.9074227419
 21
6.05620405
  0
LWPOLYLINE
  5
492
100
AcDbEntity
  8
DRAFT
100
AcDbPolyline
 62
7
  6
CONTINUOUS
 90
3
 70
0
 10
-1.7630616191
 20
6.0807768746
 10
-1.7924409306
 20
6.0759362293
 10
-1.8506383203
 20
6.0661558261
  0
LINE
  5
493
100
AcDbEntity
  8
DRAFT
100
AcDbLine
 62
7
  6
CONTINUOUS
 10
-1.8209678663
 20
6.5982523778
 11
-1.7630616191
 21
6.6070763582
  0
LINE
  5
494
100
AcDbEntity
  8
DRAFT
100
AcDbLine
 62
7
  6
CONTINUOUS
 10
-1.8780403716
 20
6.589904381
 11
-1.8209678663
 21
6.5982523778
  0
LINE
  5
495
100
AcDbEntity
  8
DRAFT
100
AcDbLine
 62
7
  6
CONTINUOUS
 10
-1.9335328525
 20
6.5820797872
 11
-1.8780403716
 21
6.589904381
  0
LINE
  5
496
100
AcDbEntity
  8
RACCORDO
100
AcDbLine
 62
7
  6
CONTINUOUS
 10
5.3825729183
 20
6.6825462644
 11
3.5152815382
 21
6.6825462644
  0
LINE
  5
497
100
AcDbEntity
  8
RACCORDO
100
AcDbLine
 62
7
  6
CONTINUOUS
 10
-3.5152815382
 20
6.6825462644
 11
-5.3825729183
 21
6.6825462644
  0
LINE
  5
498
100
AcDbEntity
  8
RACCORDO
100
AcDbLine
 62
7
  6
CONTINUOUS
 10
5.3897505319
 20
6.689723878
 11
3.4856436795
 21
6.689723878
  0
LINE
  5
499
100
AcDbEntity
  8
RACCORDO
100
AcDbLine
 62
7
  6
CONTINUOUS
 10
-3.4856436795
 20
6.689723878
 11
-5.3897505319
 21
6.689723878
  0
LWPOLYLINE
  5
49A
100
AcDbEntity
  8
RACCORDO
100
AcDbPolyline
 62
7
  6
CONTINUOUS
 90
19
 70
0
 10
5.3897505319
 20
6.689723878
 10
5.4500227615
 20
6.6871246779
 10
5.5101871002
 20
6.6792870078
 10
5.5697800565
 20
6.666181123
 10
5.6285353317
 20
6.6477442407
 10
5.6857554867
 20
6.6240700903
 10
5.7403897219
 20
6.5955886686
 10
5.791786577
 20
6.5627802757
 10
5.8398945264
 20
6.5258248156
 10
5.8846272692
 20
6.4848383955
 10
5.9256461085
 20
6.4401292174
 10
5.9626431743
 20
6.392030528
 10
5.9955022437
 20
6.3406208245
 10
6.0240465615
 20
6.2859314399
 10
6.0477782089
 20
6.2286288703
 10
6.0662470958
 20
6.1698147217
 10
6.0793639146
 20
6.1102078126
 10
6.0872055183
 20
6.0500602692
 10
6.0898097939
 20
5.9898364478
  0
LWPOLYLINE
  5
49B
100
AcDbEntity
  8
DRAFT
100
AcDbPolyline
 62
7
  6
CONTINUOUS
 90
17
 70
0
 10
1.9870694372
 20
6.5748955285
 10
2.0126500791
 20
6.5716254153
 10
2.0373946573
 20
6.5685778896
 10
2.0612191623
 20
6.5657519439
 10
2.0840444584
 20
6.5631950625
 10
2.1057931681
 20
6.5609093888
 10
2.1263894093
 20
6.5588927793
 10
2.1457613977
 20
6.5571862885
 10
2.1638424734
 20
6.5557934972
 10
2.1805697524
 20
6.5547108246
 10
2.1958839713
 20
6.5539685828
 10
2.2097326806
 20
6.5535715863
 10
2.2220669562
 20
6.5535150207
 10
2.2328415248
 20
6.5538147549
 10
2.2420190122
 20
6.5544760786
 10
2.2495689371
 20
6.5554937023
 10
2.2554654956
 20
6.5568676258
  0
LINE
  5
49C
100
AcDbEntity
  8
DRAFT
100
AcDbLine
 62
7
  6
CONTINUOUS
 10
1.9337492931
 20
6.5820499882
 11
1.9870694372
 21
6.5748955285
  0
LWPOLYLINE
  5
49D
100
AcDbEntity
  8
0
100
AcDbPolyline
 62
7
  6
CONTINUOUS
 90
9
 70
0
 10
1.5
 20
6.0196514406
 10
1.6421747276
 20
5.9997613793
 10
2.1190165303
 20
5.9095311253
 10
2.6011078884
 20
5.7958698277
 10
3.0887103868
 20
5.657916829
 10
3.5862223893
 20
5.4909931268
 10
4.0951100173
 20
5.2935390537
 10
4.6139071494
 20
5.0671142772
 10
5.1426137858
 20
4.8117187971
  0
LINE
  5
49E
100
AcDbEntity
  8
DRAFT
100
AcDbLine
 62
7
  6
CONTINUOUS
 10
1.8781564149
 20
6.5898877933
 11
1.9337492931
 21
6.5820499882
  0
LWPOLYLINE
  5
49F
100
AcDbEntity
  8
0
100
AcDbPolyline
 62
7
  6
CONTINUOUS
 90
7
 70
0
 10
1.5
 20
6.0969772099
 10
1.6702397243
 20
6.0721819087
 10
1.8400756333
 20
6.04472595
 10
2.0094661255
 20
6.0146158243
 10
2.1783697024
 20
5.981858673
 10
2.3467449789
 20
5.9464622863
 10
2.5145506931
 20
5.9084351021
  0
LINE
  5
4A0
100
AcDbEntity
  8
DRAFT
100
AcDbLine
 62
7
  6
CONTINUOUS
 10
1.8210071305
 20
6.598246278
 11
1.8781564149
 21
6.5898877933
  0
LINE
  5
4A1
100
AcDbEntity
  8
DRAFT
100
AcDbLine
 62
7
  6
CONTINUOUS
 10
1.7630616191
 20
6.6070763582
 11
1.8210071305
 21
6.598246278
  0
LINE
  5
4A2
100
AcDbEntity
  8
DRAFT
100
AcDbLine
 62
7
  6
CONTINUOUS
 10
1.8215693548
 20
6.0710790111
 11
1.7630616191
 21
6.0807768746
  0
LINE
  5
4A3
100
AcDbEntity
  8
DRAFT
100
AcDbLine
 62
7
  6
CONTINUOUS
 10
1.8789742664
 20
6.0612455416
 11
1.8215693548
 21
6.0710790111
  0
LINE
  5
4A4
100
AcDbEntity
  8
DRAFT
100
AcDbLine
 62
7
  6
CONTINUOUS
 10
1.9345463214
 20
6.0513311533
 11
1.8789742664
 21
6.0612455416
  0
LINE
  5
4A5
100
AcDbEntity
  8
DRAFT
100
AcDbLine
 62
7
  6
CONTINUOUS
 10
1.9876640171
 20
6.0415158347
 11
1.9345463214
 21
6.0513311533
  0
LINE
  5
4A6
100
AcDbEntity
  8
DRAFT
100
AcDbLine
 62
7
  6
CONTINUOUS
 10
2.0377313417
 20
6.0319750935
 11
1.9876640171
 21
6.0415158347
  0
LWPOLYLINE
  5
4A7
100
AcDbEntity
  8
DRAFT
100
AcDbPolyline
 62
7
  6
CONTINUOUS
 90
10
 70
0
 10
2.5143669823
 20
6.6413439977
 10
1.9616634951
 20
6.74892773
 10
1.404431301
 20
6.8298333734
 10
0.8439570672
 20
6.8838743075
 10
0.2815354489
 20
6.910925905
 10
-0.2815354488
 20
6.910925905
 10
-0.8439570672
 20
6.8838743075
 10
-1.404431301
 20
6.8298333734
 10
-1.9616634951
 20
6.74892773
 10
-2.5143669823
 20
6.6413439977
  0
LINE
  5
4A8
100
AcDbEntity
  8
DRAFT
100
AcDbLine
 62
7
  6
CONTINUOUS
 10
2.0841340942
 20
6.0228288628
 11
2.0377313417
 21
6.0319750935
  0
LINE
  5
4A9
100
AcDbEntity
  8
DRAFT
100
AcDbLine
 62
7
  6
CONTINUOUS
 10
2.1263049214
 20
6.0142632429
 11
2.0841340942
 21
6.0228288628
  0
LINE
  5
4AA
100
AcDbEntity
  8
DRAFT
100
AcDbLine
 62
7
  6
CONTINUOUS
 10
2.163675029
 20
6.0064677138
 11
2.1263049214
 21
6.0142632429
  0
LWPOLYLINE
  5
4AB
100
AcDbEntity
  8
DRAFT
100
AcDbPolyline
 62
7
  6
CONTINUOUS
 90
3
 70
0
 10
2.2095804671
 20
5.9965138129
 10
2.1957128718
 20
5.9995631788
 10
2.163675029
 20
6.0064677138
  0
LWPOLYLINE
  5
4AC
100
AcDbEntity
  8
DRAFT
100
AcDbPolyline
 62
7
  6
CONTINUOUS
 90
5
 70
0
 10
2.2554654956
 20
5.9857818606
 10
2.24954354
 20
5.9872946196
 10
2.24196191
 20
5.9891210295
 10
2.2327502685
 20
5.9912610904
 10
2.2095804671
 20
5.9965138129
  0
LINE
  5
4AD
100
AcDbEntity
  8
DRAFT
100
AcDbLine
 62
7
  6
CONTINUOUS
 10
3.4856436795
 20
6.689723878
 11
3.4999918312
 21
6.6825503485
  0
LINE
  5
4AE
100
AcDbEntity
  8
DRAFT
100
AcDbLine
 62
7
  6
CONTINUOUS
 10
2.5145506931
 20
5.9084351021
 11
2.5
 21
5.9193116204
  0
LINE
  5
4AF
100
AcDbEntity
  8
0
100
AcDbLine
 62
7
  6
CONTINUOUS
 10
-1.070672
 20
23.863726
 11
-0.507508
 21
22.362007
  0
LINE
  5
4B0
100
AcDbEntity
  8
0
100
AcDbLine
 62
7
  6
CONTINUOUS
 10
-0.471223
 20
23.384946
 11
-0.946209
 21
24.661797
  0
LINE
  5
4B1
100
AcDbEntity
  8
0
100
AcDbLine
 62
7
  6
CONTINUOUS
 10
2.03531
 20
22.821127
 11
2.15967
 21
22.362007
  0
LINE
  5
4B2
100
AcDbEntity
  8
0
100
AcDbLine
 62
7
  6
CONTINUOUS
 10
1.718779
 20
24.029873
 11
1.939371
 21
23.176392
  0
LWPOLYLINE
  5
4B3
100
AcDbEntity
  8
RACCORDO
100
AcDbPolyline
 62
250
  6
CONTINUOUS
 90
13
 70
0
 10
9.4044496904
 20
-14.4019802328
 10
9.4064876311
 20
-14.4277383735
 10
9.4117965871
 20
-14.4530645837
 10
9.4202875871
 20
-14.4775338411
 10
9.4318182627
 20
-14.5007354928
 10
9.4461952116
 20
-14.5222801029
 10
9.4631772213
 20
-14.5418060019
 10
9.4824793766
 20
-14.5589854355
 10
9.5037777888
 20
-14.5735299944
 10
9.5267149748
 20
-14.5851954525
 10
9.5509059687
 20
-14.5937859531
 10
9.5759448032
 20
-14.599157266
 10
9.6014112408
 20
-14.6012191725
  0
LWPOLYLINE
  5
4B4
100
AcDbEntity
  8
RACCORDO
100
AcDbPolyline
 62
250
  6
CONTINUOUS
 90
13
 70
0
 10
7.4169934091
 20
21.9583557358
 10
7.4187403942
 20
21.9326732175
 10
7.4238725676
 20
21.9074289372
 10
7.432302414
 20
21.8830539832
 10
7.4438861098
 20
21.8599646084
 10
7.4584259501
 20
21.8385551725
 10
7.475673699
 20
21.8191913919
 10
7.4953348965
 20
21.8022040056
 10
7.5170738327
 20
21.7878832032
 10
7.5405192156
 20
21.7764736745
 10
7.5652706357
 20
21.7681703372
 10
7.5909054265
 20
21.7631150413
 10
7.6169857936
 20
21.7613941844
  0
LWPOLYLINE
  5
4B5
100
AcDbEntity
  8
RACCORDO
100
AcDbPolyline
 62
250
  6
CONTINUOUS
 90
13
 70
0
 10
7.9830065909
 20
23.0416442642
 10
7.9812596374
 20
23.0673265494
 10
7.9761275444
 20
23.0925706548
 10
7.9676978059
 20
23.1169454975
 10
7.9561142228
 20
23.1400348275
 10
7.9415744804
 20
23.1614442778
 10
7.924326802
 20
23.1808081172
 10
7.9046656327
 20
23.1977955965
 10
7.8829266735
 20
23.2121165104
 10
7.8594812234
 20
23.2235261473
 10
7.8347296962
 20
23.2318295755
 10
7.8090947571
 20
23.2368849346
 10
7.7830142063
 20
23.2386058147
  0
LINE
  5
4B6
100
AcDbEntity
  8
RACCORDO
100
AcDbLine
 62
250
  6
CONTINUOUS
 10
7.4169934091
 20
23.0416442642
 11
7.4
 21
23.3849972956
  0
LINE
  5
4B7
100
AcDbEntity
  8
RACCORDO
100
AcDbLine
 62
250
  6
CONTINUOUS
 10
7.6169857937
 20
23.2386058148
 11
7.5997045347
 21
23.5877748732
  0
LINE
  5
4B8
100
AcDbEntity
  8
RACCORDO
100
AcDbLine
 62
250
  6
CONTINUOUS
 10
7.7830142063
 20
21.7613941852
 11
7.8002954653
 21
21.4122251268
  0
LINE
  5
4B9
100
AcDbEntity
  8
RACCORDO
100
AcDbLine
 62
250
  6
CONTINUOUS
 10
7.9830065909
 20
21.9583557358
 11
8.0
 21
21.6150027044
  0
LWPOLYLINE
  5
4BA
100
AcDbEntity
  8
0
100
AcDbPolyline
 62
7
  6
CONTINUOUS
 90
10
 70
0
 10
9.1881742759
 20
14.2317429468
 10
9.1866722742
 20
14.2776066773
 10
9.1833851582
 20
14.3203498671
 10
9.1783129278
 20
14.3599725162
 10
9.1712846656
 20
14.3962909188
 10
9.162471289
 20
14.4294887807
 10
9.1523855503
 20
14.4601172198
 10
9.1411983671
 20
14.4883599422
 10
9.1287388218
 20
14.5140332418
 10
9.1150069144
 20
14.5371371187
  0
LWPOLYLINE
  5
4BB
100
AcDbEntity
  8
0
100
AcDbPolyline
 62
7
  6
CONTINUOUS
 90
10
 70
0
 10
9.1881742759
 20
15.6696405098
 10
9.1866722742
 20
15.7155042403
 10
9.1833851582
 20
15.7582474301
 10
9.1783129278
 20
15.7978700792
 10
9.1712846656
 20
15.8341884818
 10
9.162471289
 20
15.8673863436
 10
9.1523855503
 20
15.8980147828
 10
9.1411983671
 20
15.9262575052
 10
9.1287388218
 20
15.9519308048
 10
9.1150069144
 20
15.9750346817
  0
LWPOLYLINE
  5
4BC
100
AcDbEntity
  8
0
100
AcDbPolyline
 62
7
  6
CONTINUOUS
 90
10
 70
0
 10
9.1881742759
 20
17.1075380728
 10
9.1866722742
 20
17.1534018032
 10
9.1833851582
 20
17.196144993
 10
9.1783129278
 20
17.2357676422
 10
9.1712846656
 20
17.2720860447
 10
9.162471289
 20
17.3052839066
 10
9.1523855503
 20
17.3359123458
 10
9.1411983671
 20
17.3641550682
 10
9.1287388218
 20
17.3898283678
 10
9.1150069144
 20
17.4129322447
  0
LWPOLYLINE
  5
4BD
100
AcDbEntity
  8
RACCORDO
100
AcDbPolyline
 62
250
  6
CONTINUOUS
 90
4
 70
0
 10
7.4180647111
 20
23.0048367532
 10
7.4177299494
 20
23.0192470709
 10
7.4173728487
 20
23.0315162412
 10
7.4169934091
 20
23.0416442642
  0
LWPOLYLINE
  5
4BE
100
AcDbEntity
  8
RACCORDO
100
AcDbPolyline
 62
250
  6
CONTINUOUS
 90
4
 70
0
 10
7.9818524816
 20
21.9993724295
 10
7.982211363
 20
21.983237931
 10
7.9825960661
 20
21.9695656998
 10
7.9830065909
 20
21.9583557358
  0
LWPOLYLINE
  5
4BF
100
AcDbEntity
  8
0
100
AcDbPolyline
 62
7
  6
CONTINUOUS
 90
10
 70
0
 10
9.1849930844
 20
11.3336792901
 10
9.1841535014
 20
11.3719329261
 10
9.1821404258
 20
11.4080435306
 10
9.1789538576
 20
11.4420111036
 10
9.1745166064
 20
11.4737146267
 10
9.1689058627
 20
11.5032751183
 10
9.1623531973
 20
11.5310556339
 10
9.1549358005
 20
11.5571771921
 10
9.146576482
 20
11.5815187743
 10
9.1372752417
 20
11.6040803805
  0
LWPOLYLINE
  5
4C0
100
AcDbEntity
  8
RACCORDO
100
AcDbPolyline
 62
250
  6
CONTINUOUS
 90
3
 70
0
 10
7.7822188957
 20
21.7944332274
 10
7.7826036284
 20
21.7755565992
 10
7.7830142063
 20
21.7613941852
  0
LINE
  5
4C1
100
AcDbEntity
  8
RACCORDO
100
AcDbLine
 62
7
  6
CONTINUOUS
 10
8.952381992
 20
-14.6509623137
 11
8.9115891617
 21
-12.313942629
  0
LINE
  5
4C2
100
AcDbEntity
  8
RACCORDO
100
AcDbLine
 62
250
  6
CONTINUOUS
 10
9.1523957933
 20
-14.85
 11
9.1525281029
 21
-14.8575800116
  0
LWPOLYLINE
  5
4C3
100
AcDbEntity
  8
RACCORDO
100
AcDbPolyline
 62
250
  6
CONTINUOUS
 90
4
 70
0
 10
7.618057166
 20
23.1884137545
 10
7.6177223994
 20
23.2087933023
 10
7.6173652753
 20
23.2257140534
 10
7.6169857937
 20
23.2386058148
  0
LINE
  5
4C4
100
AcDbEntity
  8
RACCORDO
100
AcDbLine
 62
250
  6
CONTINUOUS
 10
7.9812196733
 20
22.0389002319
 11
7.9818524816
 21
21.9993724295
  0
LINE
  5
4C5
100
AcDbEntity
  8
RACCORDO
100
AcDbLine
 62
250
  6
CONTINUOUS
 10
7.781530724
 20
21.8431159671
 11
7.7822188957
 21
21.7944332274
  0
LINE
  5
4C6
100
AcDbEntity
  8
RACCORDO
100
AcDbLine
 62
250
  6
CONTINUOUS
 10
7.9803883017
 20
22.1174889308
 11
7.9812196733
 21
22.0389002319
  0
LINE
  5
4C7
100
AcDbEntity
  8
RACCORDO
100
AcDbLine
 62
250
  6
CONTINUOUS
 10
7.7806598895
 20
21.9392601494
 11
7.781530724
 21
21.8431159671
  0
LINE
  5
4C8
100
AcDbEntity
  8
RACCORDO
100
AcDbLine
 62
250
  6
CONTINUOUS
 10
7.9793357622
 20
22.3104925135
 11
7.9803883017
 21
22.1174889308
  0
LINE
  5
4C9
100
AcDbEntity
  8
RACCORDO
100
AcDbLine
 62
7
  6
CONTINUOUS
 10
7.9841533463
 20
22.5853798961
 11
7.9841533463
 21
22.4146201039
  0
LINE
  5
4CA
100
AcDbEntity
  8
RACCORDO
100
AcDbLine
 62
7
  6
CONTINUOUS
 10
8.0
 20
21.6150027044
 11
8.0
 21
22.2
  0
LINE
  5
4CB
100
AcDbEntity
  8
RACCORDO
100
AcDbLine
 62
7
  6
CONTINUOUS
 10
8.0
 20
22.8
 11
8.0
 21
23.3849972956
  0
LINE
  5
4CC
100
AcDbEntity
  8
0
100
AcDbLine
 62
7
  6
CONTINUOUS
 10
8.2
 20
-9.4330578722
 11
8.2
 21
-7.4361217277
  0
LINE
  5
4CD
100
AcDbEntity
  8
RACCORDO
100
AcDbLine
 62
7
  6
CONTINUOUS
 10
8.225
 20
-12.151610065
 11
8.225
 21
-11.65
  0
LINE
  5
4CE
100
AcDbEntity
  8
DRAFT
100
AcDbLine
 62
7
  6
CONTINUOUS
 10
8.225
 20
-11.65
 11
8.225
 21
-11.6322024782
  0
LINE
  5
4CF
100
AcDbEntity
  8
RACCORDO
100
AcDbLine
 62
250
  6
CONTINUOUS
 10
8.3461056179
 20
-12.1036770535
 11
8.3461056179
 21
-11.7100893216
  0
LINE
  5
4D0
100
AcDbEntity
  8
RACCORDO
100
AcDbLine
 62
250
  6
CONTINUOUS
 10
8.425
 20
-12.3153343676
 11
8.425
 21
-12.3520081812
  0
LINE
  5
4D1
100
AcDbEntity
  8
0
100
AcDbLine
 62
7
  6
CONTINUOUS
 10
8.5042185038
 20
18.2432230636
 11
8.5042185038
 21
17.9632784054
  0
LINE
  5
4D2
100
AcDbEntity
  8
0
100
AcDbLine
 62
7
  6
CONTINUOUS
 10
8.5805670813
 20
11.0251038939
 11
8.5805670813
 21
10.7642463457
  0
LINE
  5
4D3
100
AcDbEntity
  8
RACCORDO
100
AcDbLine
 62
250
  6
CONTINUOUS
 10
8.8385094944
 20
-12.2993193851
 11
8.8385094944
 21
-11.7462375299
  0
LINE
  5
4D4
100
AcDbEntity
  8
RACCORDO
100
AcDbLine
 62
7
  6
CONTINUOUS
 10
9.0
 20
22.5947562636
 11
9.0
 21
22.4052437364
  0
LINE
  5
4D5
100
AcDbEntity
  8
RACCORDO
100
AcDbLine
 62
7
  6
CONTINUOUS
 10
9.0939596788
 20
-11.7462375299
 11
9.0939596788
 21
-12.0993498461
  0
LINE
  5
4D6
100
AcDbEntity
  8
0
100
AcDbLine
 62
7
  6
CONTINUOUS
 10
9.15
 20
12.7747581109
 11
9.15
 21
13.0387968227
  0
LINE
  5
4D7
100
AcDbEntity
  8
RACCORDO
100
AcDbLine
 62
250
  6
CONTINUOUS
 10
9.452737412
 20
-14.1031218234
 11
9.452737412
 21
-11.9242533063
  0
LINE
  5
4D8
100
AcDbEntity
  8
RACCORDO
100
AcDbLine
 62
250
  6
CONTINUOUS
 10
9.6496989626
 20
-14.1031218234
 11
9.6496989626
 21
-11.9387125896
  0
LINE
  5
4D9
100
AcDbEntity
  8
RACCORDO
100
AcDbLine
 62
250
  6
CONTINUOUS
 10
7.9791114063
 20
22.5940524426
 11
7.9793357622
 21
22.3104925135
  0
LWPOLYLINE
  5
4DA
100
AcDbEntity
  8
0
100
AcDbPolyline
 62
7
  6
CONTINUOUS
 90
10
 70
0
 10
8.9782157607
 20
18.6058783695
 10
8.9777680319
 20
18.5789885882
 10
8.9764806738
 20
18.5537546438
 10
8.9743536865
 20
18.5301765365
 10
8.9713669104
 20
18.5083553737
 10
8.967540505
 20
18.488190048
 10
8.9629349494
 20
18.4693772366
 10
8.9575704033
 20
18.4518158321
 10
8.9514267068
 20
18.4356069418
 10
8.9445038601
 20
18.420750566
  0
LWPOLYLINE
  5
4DB
100
AcDbEntity
  8
0
100
AcDbPolyline
 62
7
  6
CONTINUOUS
 90
10
 70
0
 10
8.9845781393
 20
11.3241357222
 10
8.984083902
 20
11.3029780582
 10
8.9828848834
 20
11.2831055214
 10
8.9809810833
 20
11.2645181119
 10
8.9783284444
 20
11.2472965831
 10
8.9749710241
 20
11.2313601817
 10
8.9710409951
 20
11.2164666471
 10
8.966582415
 20
11.2025352258
 10
8.9615512262
 20
11.1896466713
 10
8.9559474288
 20
11.1778009836
  0
LWPOLYLINE
  5
4DC
100
AcDbEntity
  8
0
100
AcDbPolyline
 62
7
  6
CONTINUOUS
 90
10
 70
0
 10
8.9877593286
 20
17.1075380728
 10
8.9868669494
 20
17.0825600265
 10
8.984779547
 20
17.0593860203
 10
8.9814971215
 20
17.0380160543
 10
8.9769492996
 20
17.0185904361
 10
8.9712064547
 20
17.0009688581
 10
8.9644797067
 20
16.9847303969
 10
8.9568394291
 20
16.9697347449
 10
8.9482152485
 20
16.9561222096
 10
8.9386071649
 20
16.9438927912
  0
LWPOLYLINE
  5
4DD
100
AcDbEntity
  8
0
100
AcDbPolyline
 62
7
  6
CONTINUOUS
 90
10
 70
0
 10
8.9877593286
 20
15.6696405098
 10
8.9868669494
 20
15.6446624635
 10
8.984779547
 20
15.6214884573
 10
8.9814971215
 20
15.6001184913
 10
8.9769492996
 20
15.5806928731
 10
8.9712064547
 20
15.5630712951
 10
8.9644797067
 20
15.546832834
 10
8.9568394291
 20
15.5318371819
 10
8.9482152485
 20
15.5182246466
 10
8.9386071649
 20
15.5059952282
  0
LWPOLYLINE
  5
4DE
100
AcDbEntity
  8
0
100
AcDbPolyline
 62
7
  6
CONTINUOUS
 90
10
 70
0
 10
8.9877593286
 20
14.2317429468
 10
8.9868669519
 20
14.2067648687
 10
8.9847795545
 20
14.1835908471
 10
8.9814971365
 20
14.1622208822
 10
8.9769493284
 20
14.142795293
 10
8.9712064996
 20
14.1251737604
 10
8.9644797581
 20
14.1089353271
 10
8.9568394731
 20
14.0939396739
 10
8.9482152754
 20
14.0803271199
 10
8.9386071649
 20
14.0680976652
  0
LWPOLYLINE
  5
4DF
100
AcDbEntity
  8
0
100
AcDbPolyline
 62
250
  6
CONTINUOUS
 90
9
 70
0
 10
5.1996519612
 20
-24.7793092033
 10
5.1985197742
 20
-24.7871127882
 10
5.1954215876
 20
-24.7954681851
 10
5.1904359414
 20
-24.8043752848
 10
5.1836351626
 20
-24.8139167289
 10
5.1750969177
 20
-24.8240095859
 10
5.1649212269
 20
-24.8344054242
 10
5.1532514867
 20
-24.8450812485
 10
5.1401942021
 20
-24.8560600231
  0
LINE
  5
4E0
100
AcDbEntity
  8
RACCORDO
100
AcDbLine
 62
7
  6
CONTINUOUS
 10
-5.3750945812
 20
-24.8594929665
 11
-5.289700355
 21
-24.7196277561
  0
LWPOLYLINE
  5
4E1
100
AcDbEntity
  8
0
100
AcDbPolyline
 62
7
  6
CONTINUOUS
 90
7
 70
0
 10
-5.2
 20
-24.6551950692
 10
-5.1988355276
 20
-24.6534091032
 10
-5.1958587483
 20
-24.6516513717
 10
-5.1910696622
 20
-24.6499218747
 10
-5.1844283175
 20
-24.6482110922
 10
-5.175974666
 20
-24.6465285441
 10
-5.1658285627
 20
-24.6449027905
  0
LINE
  5
4E2
100
AcDbEntity
  8
RACCORDO
100
AcDbLine
 62
7
  6
CONTINUOUS
 10
5.502373164
 20
-6.0860053343
 11
5.3139631214
 21
-6.216785188
  0
LWPOLYLINE
  5
4E3
100
AcDbEntity
  8
0
100
AcDbPolyline
 62
7
  6
CONTINUOUS
 90
10
 70
0
 10
8.3010239856
 20
11.6181213482
 10
8.3222156478
 20
11.6227945852
 10
8.3445285214
 20
11.626998173
 10
8.3679626065
 20
11.6307321116
 10
8.3923727979
 20
11.6340341219
 10
8.4179042006
 20
11.6368664831
 10
8.4449921304
 20
11.639116033
 10
8.4737816922
 20
11.6407450507
 10
8.504127781
 20
11.6417912571
 10
8.5360303968
 20
11.6422546521
  0
LWPOLYLINE
  5
4E4
100
AcDbEntity
  8
0
100
AcDbPolyline
 62
7
  6
CONTINUOUS
 90
10
 70
0
 10
8.7459889248
 20
11.0378286511
 10
8.7297652746
 20
11.0350239479
 10
8.7130285433
 20
11.032577145
 10
8.6957787311
 20
11.0304882425
 10
8.6780505813
 20
11.028770827
 10
8.6598093505
 20
11.0274113119
 10
8.6409508082
 20
11.0263689371
 10
8.6214402108
 20
11.0256301157
 10
8.6013123018
 20
11.0252084347
 10
8.5805670813
 20
11.0251038939
  0
LINE
  5
4E5
100
AcDbEntity
  8
0
100
AcDbLine
 62
7
  6
CONTINUOUS
 10
2.66563
 20
22.362007
 11
1.959997
 21
24.661797
  0
LWPOLYLINE
  5
4E6
100
AcDbEntity
  8
0
100
AcDbPolyline
 62
7
  6
CONTINUOUS
 90
16
 70
0
 10
4.3175089464
 20
22.9844626381
 10
4.3069476007
 20
23.0264154695
 10
4.2952658836
 20
23.0675002348
 10
4.2824637949
 20
23.1077169341
 10
4.2686074152
 20
23.1474473224
 10
4.2536306641
 20
23.1863096447
 10
4.2373353001
 20
23.2231586356
 10
4.2195664038
 20
23.2578999811
 10
4.2004788947
 20
23.2906279953
 10
4.1803392903
 20
23.3204803547
 10
4.159130573
 20
23.3472419345
 10
4.1368697604
 20
23.3711278595
 10
4.1138744233
 20
23.391921181
 10
4.0902504185
 20
23.4095495826
 10
4.0658918891
 20
23.4240853806
 10
4.0407988352
 20
23.435528575
  0
LWPOLYLINE
  5
4E7
100
AcDbEntity
  8
RACCORDO
100
AcDbPolyline
 62
250
  6
CONTINUOUS
 90
13
 70
0
 10
10.0428653412
 20
-1.3469115682
 10
10.0445763689
 20
-1.3726202093
 10
10.0496801759
 20
-1.3978889685
 10
10.0580894346
 20
-1.4222854902
 10
10.0696602603
 20
-1.4453923433
 10
10.0841946729
 20
-1.4668141629
 10
10.1014439847
 20
-1.486184416
 10
10.1211130551
 20
-1.5031716721
 10
10.1428653409
 20
-1.5174852745
 10
10.1663286545
 20
-1.5288803134
 10
10.191101532
 20
-1.5371618165
 10
10.2167601027
 20
-1.5421880849
 10
10.2428653412
 20
-1.5438731179
  0
LWPOLYLINE
  5
4E8
100
AcDbEntity
  8
0
100
AcDbPolyline
 62
7
  6
CONTINUOUS
 90
10
 70
0
 10
9.1945366545
 20
18.6058783695
 10
9.1915887233
 20
18.6748786424
 10
9.185079626
 20
18.7388925761
 10
9.1750093625
 20
18.7979201708
 10
9.1611846937
 20
18.8514645389
 10
9.1437988587
 20
18.9000225679
 10
9.1234315745
 20
18.9450849199
 10
9.1002760803
 20
18.9871484824
 10
9.074139137
 20
19.0257163678
 10
9.0450207445
 20
19.0607885762
  0
LINE
  5
4E9
100
AcDbEntity
  8
RACCORDO
100
AcDbLine
 62
250
  6
CONTINUOUS
 10
9.9265431002
 20
-14.1031218234
 11
9.9265431002
 21
-11.9387125896
  0
LINE
  5
4EA
100
AcDbEntity
  8
DRAFT
100
AcDbLine
 62
7
  6
CONTINUOUS
 10
9.9860359481
 20
25.1384899382
 11
9.9860359481
 21
22.8
  0
LINE
  5
4EB
100
AcDbEntity
  8
RACCORDO
100
AcDbLine
 62
7
  6
CONTINUOUS
 10
10.0
 20
25.1524539902
 11
10.0
 21
22.5947562636
  0
LINE
  5
4EC
100
AcDbEntity
  8
RACCORDO
100
AcDbLine
 62
7
  6
CONTINUOUS
 10
10.0
 20
22.4052437364
 11
10.0
 21
-11.65
  0
LINE
  5
4ED
100
AcDbEntity
  8
DRAFT
100
AcDbLine
 62
7
  6
CONTINUOUS
 10
10.0
 20
-25.1524539902
 11
10.0
 21
-14.85
  0
LINE
  5
4EE
100
AcDbEntity
  8
RACCORDO
100
AcDbLine
 62
250
  6
CONTINUOUS
 10
10.0326091174
 20
-14.1031218234
 11
10.0326091174
 21
-11.9348688642
  0
LINE
  5
4EF
100
AcDbEntity
  8
RACCORDO
100
AcDbLine
 62
7
  6
CONTINUOUS
 10
10.0428653412
 20
-1.7969146776
 11
10.0428653412
 21
1.7969146776
  0
LINE
  5
4F0
100
AcDbEntity
  8
RACCORDO
100
AcDbLine
 62
250
  6
CONTINUOUS
 10
10.2428653412
 20
-2.0
 11
10.2428653412
 21
2.0
  0
LINE
  5
4F1
100
AcDbEntity
  8
RACCORDO
100
AcDbLine
 62
250
  6
CONTINUOUS
 10
10.45
 20
-14.638949698
 11
10.45
 21
-14.6190634835
  0
LINE
  5
4F2
100
AcDbEntity
  8
RACCORDO
100
AcDbLine
 62
250
  6
CONTINUOUS
 10
10.5560660172
 20
-14.4696342788
 11
10.5560660172
 21
-11.8890723196
  0
LINE
  5
4F3
100
AcDbEntity
  8
RACCORDO
100
AcDbLine
 62
7
  6
CONTINUOUS
 10
10.6
 20
-14.4810783669
 11
10.6
 21
-11.8637333185
  0
LINE
  5
4F4
100
AcDbEntity
  8
RACCORDO
100
AcDbLine
 62
250
  6
CONTINUOUS
 10
10.8428653412
 20
-2.0
 11
10.8428653412
 21
2.0
  0
LINE
  5
4F5
100
AcDbEntity
  8
RACCORDO
100
AcDbLine
 62
7
  6
CONTINUOUS
 10
11.0428653412
 20
-1.7969146776
 11
11.0428653412
 21
1.7969146776
  0
LINE
  5
4F6
100
AcDbEntity
  8
RACCORDO
100
AcDbLine
 62
7
  6
CONTINUOUS
 10
11.0528653412
 20
25.8530366787
 11
11.0528653412
 21
-25.8530366787
  0
LINE
  5
4F7
100
AcDbEntity
  8
DRAFT
100
AcDbLine
 62
7
  6
CONTINUOUS
 10
9.9860359481
 20
22.2
 11
9.9855794234
 21
6.4126439834
  0
LINE
  5
4F8
100
AcDbEntity
  8
0
100
AcDbLine
 62
7
  6
CONTINUOUS
 10
9.9431567889
 20
-24.6827004522
 11
9.9458390179
 21
-21.7506014589
  0
LINE
  5
4F9
100
AcDbEntity
  8
DRAFT
100
AcDbLine
 62
7
  6
CONTINUOUS
 10
9.9855794234
 20
6.4126439834
 11
9.9820594286
 21
0.0511985227
  0
LINE
  5
4FA
100
AcDbEntity
  8
DRAFT
100
AcDbLine
 62
7
  6
CONTINUOUS
 10
9.9820594286
 20
0.0511985227
 11
9.9757116115
 21
-5.0653483811
  0
LINE
  5
4FB
100
AcDbEntity
  8
DRAFT
100
AcDbLine
 62
7
  6
CONTINUOUS
 10
9.9757116115
 20
-5.0653483811
 11
9.9644022453
 21
-11.6322024782
  0
LINE
  5
4FC
100
AcDbEntity
  8
DRAFT
100
AcDbLine
 62
7
  6
CONTINUOUS
 10
9.9584850524
 20
-14.857531663
 11
9.9458390179
 21
-21.7506014589
  0
LINE
  5
4FD
100
AcDbEntity
  8
DRAFT
100
AcDbLine
 62
7
  6
CONTINUOUS
 10
10.1
 20
-11.65
 11
10.096713794
 21
-11.8382666181
  0
LINE
  5
4FE
100
AcDbEntity
  8
DRAFT
100
AcDbLine
 62
7
  6
CONTINUOUS
 10
10.0441437922
 20
-14.85
 11
10.0474734127
 21
-14.6592461713
  0
LWPOLYLINE
  5
4FF
100
AcDbEntity
  8
RACCORDO
100
AcDbPolyline
 62
250
  6
CONTINUOUS
 90
13
 70
0
 10
10.0428653412
 20
1.3469115682
 10
10.0445763689
 20
1.3726202094
 10
10.0496801759
 20
1.3978889686
 10
10.0580894347
 20
1.4222854904
 10
10.0696602604
 20
1.4453923435
 10
10.0841946731
 20
1.4668141632
 10
10.1014439849
 20
1.4861844163
 10
10.1211130554
 20
1.5031716723
 10
10.1428653412
 20
1.5174852746
 10
10.1663286547
 20
1.5288803135
 10
10.1911015322
 20
1.5371618167
 10
10.2167601027
 20
1.5421880854
 10
10.2428653412
 20
1.5438731188
  0
LWPOLYLINE
  5
500
100
AcDbEntity
  8
0
100
AcDbPolyline
 62
250
  6
CONTINUOUS
 90
4
 70
0
 10
5.2
 20
-24.6645162153
 10
5.1981122815
 20
-24.674099931
 10
5.1927692806
 20
-24.6834137936
 10
5.1839794701
 20
-24.6924578032
  0
LINE
  5
501
100
AcDbEntity
  8
DRAFT
100
AcDbLine
 62
7
  6
CONTINUOUS
 10
-9.7828427125
 20
-14.85
 11
-9.5866008019
 21
-14.7699944929
  0
LINE
  5
502
100
AcDbEntity
  8
DRAFT
100
AcDbLine
 62
7
  6
CONTINUOUS
 10
-9.5866008019
 20
-14.7699944929
 11
-9.5599863765
 21
-14.7593177111
  0
LINE
  5
503
100
AcDbEntity
  8
DRAFT
100
AcDbLine
 62
7
  6
CONTINUOUS
 10
-9.5599863765
 20
-14.7593177111
 11
-9.5479836963
 21
-14.7545785297
  0
LWPOLYLINE
  5
504
100
AcDbEntity
  8
DRAFT
100
AcDbPolyline
 62
7
  6
CONTINUOUS
 90
7
 70
0
 10
-9.5479836963
 20
-14.7545785297
 10
-9.5403978153
 20
-14.7516341717
 10
-9.5367211675
 20
-14.7502257696
 10
-9.5330873498
 20
-14.7488595531
 10
-9.5294854429
 20
-14.7475353843
 10
-9.5259263661
 20
-14.7462534012
 10
-9.5224101194
 20
-14.7450136038
  0
LWPOLYLINE
  5
505
100
AcDbEntity
  8
0
100
AcDbPolyline
 62
7
  6
CONTINUOUS
 90
10
 70
0
 10
8.3069847673
 20
11.8935686752
 10
8.2866314985
 20
11.8900970181
 10
8.2668242667
 20
11.8859967011
 10
8.247563072
 20
11.8812677241
 10
8.228918276
 20
11.8759176258
 10
8.210819517
 20
11.8699388676
 10
8.1930557108
 20
11.8633088332
 10
8.1755564957
 20
11.856019984
 10
8.1583922334
 20
11.8480798586
 10
8.1415629238
 20
11.8394884571
  0
LWPOLYLINE
  5
506
100
AcDbEntity
  8
0
100
AcDbPolyline
 62
7
  6
CONTINUOUS
 90
10
 70
0
 10
7.2542437492
 20
11.6120721385
 10
7.2709283467
 20
11.6148100531
 10
7.2876157392
 20
11.6172829687
 10
7.3043059269
 20
11.6194908851
 10
7.3210351619
 20
11.6214643467
 10
7.3377671919
 20
11.6231728092
 10
7.3543932603
 20
11.6245246396
 10
7.3708771146
 20
11.6254892937
 10
7.3872550071
 20
11.6260973157
 10
7.403526938
 20
11.6263487056
  0
LWPOLYLINE
  5
507
100
AcDbEntity
  8
0
100
AcDbPolyline
 62
7
  6
CONTINUOUS
 90
10
 70
0
 10
7.3844398022
 20
11.8903874859
 10
7.3122310613
 20
11.8874459519
 10
7.2464792869
 20
11.8814133608
 10
7.187184479
 20
11.8722897125
 10
7.1348806291
 20
11.8597179281
 10
7.0890337457
 20
11.8440550865
 10
7.048041854
 20
11.8263724245
 10
7.0113709624
 20
11.8070270211
 10
6.9795550625
 20
11.7856617972
 10
6.9525941542
 20
11.7622767529
  0
LWPOLYLINE
  5
508
100
AcDbEntity
  8
0
100
AcDbPolyline
 62
7
  6
CONTINUOUS
 90
10
 70
0
 10
8.5805670813
 20
10.7642463457
 10
8.6567521145
 20
10.7669214436
 10
8.7262326855
 20
10.7727070748
 10
8.7890087942
 20
10.7816032391
 10
8.8445698251
 20
10.7939361399
 10
8.8934263937
 20
10.8093795739
 10
8.937110347
 20
10.8269549311
 10
8.9761323005
 20
10.846336008
 10
9.0099816387
 20
10.8678490081
 10
9.0386583615
 20
10.8914939313
  0
LINE
  5
509
100
AcDbEntity
  8
DRAFT
100
AcDbLine
 62
250
  6
CONTINUOUS
 10
9.9860359481
 20
10.7371426949
 11
-9.9860359481
 21
10.7371426949
  0
LINE
  5
50A
100
AcDbEntity
  8
0
100
AcDbLine
 62
7
  6
CONTINUOUS
 10
7.3653526664
 20
10.7960582472
 11
7.3939833701
 21
10.7960582472
  0
LINE
  5
50B
100
AcDbEntity
  8
0
100
AcDbLine
 62
7
  6
CONTINUOUS
 10
7.8584370077
 20
11.1873445481
 11
8.058852002
 21
11.1873445481
  0
LINE
  5
50C
100
AcDbEntity
  8
0
100
AcDbLine
 62
7
  6
CONTINUOUS
 10
-9.150007
 20
11.61
 11
-6.850006
 21
11.61
  0
LWPOLYLINE
  5
50D
100
AcDbEntity
  8
0
100
AcDbPolyline
 62
7
  6
CONTINUOUS
 90
10
 70
0
 10
7.3939833701
 20
11.0505534083
 10
7.3765095345
 20
11.0506704004
 10
7.3593562505
 20
11.0510713774
 10
7.3425235179
 20
11.051756339
 10
7.3260414114
 20
11.052719106
 10
7.3098798564
 20
11.0539658577
 10
7.2939486292
 20
11.0555151325
 10
7.2782176552
 20
11.0573731099
 10
7.262717009
 20
11.0595336104
 10
7.2474466906
 20
11.061996634
  0
LWPOLYLINE
  5
50E
100
AcDbEntity
  8
0
100
AcDbPolyline
 62
7
  6
CONTINUOUS
 90
10
 70
0
 10
8.5360303968
 20
11.6422546521
 10
8.5571595086
 20
11.6420193693
 10
8.5780553491
 20
11.6413954287
 10
8.5987179182
 20
11.6403828303
 10
8.6191617203
 20
11.6389642305
 10
8.6393722511
 20
11.6371569729
 10
8.6593059975
 20
11.635013088
 10
8.6789484552
 20
11.6325499192
 10
8.6983141285
 20
11.6297501231
 10
8.7174030175
 20
11.6266136996
  0
LWPOLYLINE
  5
50F
100
AcDbEntity
  8
0
100
AcDbPolyline
 62
7
  6
CONTINUOUS
 90
10
 70
0
 10
7.403526938
 20
11.6263487056
 10
7.4345753087
 20
11.6258481836
 10
7.4640431487
 20
11.6247349741
 10
7.4919304581
 20
11.6230090773
 10
7.5182278305
 20
11.6206144591
 10
7.5429446723
 20
11.6176071535
 10
7.5661092019
 20
11.6141552623
 10
7.5877308255
 20
11.6103148194
 10
7.6078001369
 20
11.606029791
 10
7.6263171362
 20
11.601300177
  0
LINE
  5
510
100
AcDbEntity
  8
RACCORDO
100
AcDbLine
 62
7
  6
CONTINUOUS
 10
-8.0
 20
22.8
 11
-7.9866280426
 21
22.7866280426
  0
LINE
  5
511
100
AcDbEntity
  8
DRAFT
100
AcDbLine
 62
7
  6
CONTINUOUS
 10
-10.0
 20
25.1524539902
 11
-9.9860359481
 21
25.1384899382
  0
LINE
  5
512
100
AcDbEntity
  8
RACCORDO
100
AcDbLine
 62
250
  6
CONTINUOUS
 10
-4.65
 20
21.3000114231
 11
-4.634353423
 21
21.284364846
  0
LWPOLYLINE
  5
513
100
AcDbEntity
  8
0
100
AcDbPolyline
 62
7
  6
CONTINUOUS
 90
10
 70
0
 10
7.0440525541
 20
11.1968881194
 10
7.037772133
 20
11.2101782457
 10
7.0321521897
 20
11.2241396882
 10
7.027192724
 20
11.2387724471
 10
7.0228591176
 20
11.2539818477
 10
7.0191859889
 20
11.2698625646
 10
7.0162771928
 20
11.2866986217
 10
7.0141673474
 20
11.3045846936
 10
7.0128218346
 20
11.3234261057
 10
7.0122406542
 20
11.343222858
  0
LWPOLYLINE
  5
514
100
AcDbEntity
  8
0
100
AcDbPolyline
 62
7
  6
CONTINUOUS
 90
6
 70
0
 10
3.8099455134
 20
23.0593787318
 10
3.8344750594
 20
22.9875033146
 10
3.8584425608
 20
22.9141307745
 10
3.8818480178
 20
22.8392611115
 10
3.9043438558
 20
22.7627682658
 10
3.948692122
 20
22.605669385
  0
LINE
  5
515
100
AcDbEntity
  8
0
100
AcDbLine
 62
7
  6
CONTINUOUS
 10
3.948692122
 20
22.605669385
 11
4.0198623394
 21
22.3620071664
  0
LINE
  5
516
100
AcDbEntity
  8
0
100
AcDbLine
 62
7
  6
CONTINUOUS
 10
4.3737831045
 20
22.7735379544
 11
4.3175089464
 21
22.9844626381
  0
LINE
  5
517
100
AcDbEntity
  8
0
100
AcDbLine
 62
7
  6
CONTINUOUS
 10
4.4816207207
 20
22.3620071664
 11
4.3737831045
 21
22.7735379544
  0
LWPOLYLINE
  5
518
100
AcDbEntity
  8
0
100
AcDbPolyline
 62
7
  6
CONTINUOUS
 90
10
 70
0
 10
7.9538726866
 20
11.5531813517
 10
7.949262024
 20
11.5733496322
 10
7.9438008525
 20
11.5928048232
 10
7.9374891723
 20
11.6115469246
 10
7.9303659859
 20
11.6294568193
 10
7.9223922906
 20
11.6466536244
 10
7.9134510785
 20
11.6634946916
 10
7.9035033468
 20
11.6800991379
 10
7.8925880982
 20
11.6963478463
 10
7.8807053328
 20
11.7122408167
  0
LWPOLYLINE
  5
519
100
AcDbEntity
  8
0
100
AcDbPolyline
 62
7
  6
CONTINUOUS
 90
10
 70
0
 10
7.8393498719
 20
11.3877595082
 10
7.8431852613
 20
11.369414952
 10
7.8466060493
 20
11.3501113061
 10
7.8496122359
 20
11.3298485705
 10
7.8522225514
 20
11.308655883
 10
7.8544182654
 20
11.2865041059
 10
7.8561431871
 20
11.2633058252
 10
7.8573785862
 20
11.239031903
 10
7.8581431931
 20
11.2137114773
 10
7.8584370077
 20
11.1873445481
  0
LINE
  5
51A
100
AcDbEntity
  8
RACCORDO
100
AcDbLine
 62
250
  6
CONTINUOUS
 10
10.554407207
 20
-14.4884105797
 11
10.5560660172
 21
-14.4696342788
  0
LINE
  5
51B
100
AcDbEntity
  8
RACCORDO
100
AcDbLine
 62
7
  6
CONTINUOUS
 10
5.3131283793
 20
-12.9868716207
 11
5.2984001604
 21
-13.0015998396
  0
LWPOLYLINE
  5
51C
100
AcDbEntity
  8
0
100
AcDbPolyline
 62
7
  6
CONTINUOUS
 90
10
 70
0
 10
8.6029703704
 20
13.6798189675
 10
8.6456090254
 20
13.6845679479
 10
8.6862061367
 20
13.6902438647
 10
8.7247617043
 20
13.6968467179
 10
8.7612156617
 20
13.7044486867
 10
8.7956280754
 20
13.7129775919
 10
8.8281791446
 20
13.722216896
 10
8.8589289356
 20
13.7320944198
 10
8.8878173821
 20
13.7426823425
 10
8.9148444841
 20
13.753980664
  0
LWPOLYLINE
  5
51D
100
AcDbEntity
  8
0
100
AcDbPolyline
 62
7
  6
CONTINUOUS
 90
9
 70
0
 10
8.5551248727
 20
13.9357848645
 10
8.5225150685
 20
13.9337450381
 10
8.4892175536
 20
13.931958063
 10
8.4552323282
 20
13.9304239392
 10
8.4205549644
 20
13.9291493445
 10
8.38518989
 20
13.9281276011
 10
8.3491503883
 20
13.9273386758
 10
8.3124408871
 20
13.9267758906
 10
8.2750569586
 20
13.9264459234
  0
LWPOLYLINE
  5
51E
100
AcDbEntity
  8
0
100
AcDbPolyline
 62
7
  6
CONTINUOUS
 90
10
 70
0
 10
8.5073996931
 20
11.9094746217
 10
8.4851120313
 20
11.9092407585
 10
8.4628228033
 20
11.9086118442
 10
8.440532009
 20
11.9075878788
 10
8.4182311145
 20
11.9061532823
 10
8.3959286538
 20
11.9043236347
 10
8.3736502285
 20
11.9021456761
 10
8.3514043726
 20
11.8996349867
 10
8.3291825522
 20
11.8967759864
 10
8.3069847673
 20
11.8935686752
  0
LWPOLYLINE
  5
51F
100
AcDbEntity
  8
0
100
AcDbPolyline
 62
7
  6
CONTINUOUS
 90
9
 70
0
 10
8.2471283762
 20
13.6655759772
 10
8.2970459287
 20
13.6660179456
 10
8.3453957992
 20
13.6668171566
 10
8.3921632964
 20
13.6679475197
 10
8.4373631117
 20
13.6694351256
 10
8.4810393193
 20
13.6713582461
 10
8.5232066107
 20
13.6737429719
 10
8.5638502944
 20
13.6765632124
 10
8.6029703704
 20
13.6798189675
  0
LINE
  5
520
100
AcDbEntity
  8
0
100
AcDbLine
 62
7
  6
CONTINUOUS
 10
-7.066327
 20
11.880401
 11
-9.150007
 21
11.880401
  0
LINE
  5
521
100
AcDbEntity
  8
0
100
AcDbLine
 62
7
  6
CONTINUOUS
 10
7.1967496336
 20
12.4057401523
 11
7.4671507239
 21
12.4057401523
  0
LINE
  5
522
100
AcDbEntity
  8
0
100
AcDbLine
 62
7
  6
CONTINUOUS
 10
-6.850006
 20
12.602531
 11
-7.066327
 21
12.602531
  0
LINE
  5
523
100
AcDbEntity
  8
0
100
AcDbLine
 62
7
  6
CONTINUOUS
 10
7.1713001192
 20
12.7747581109
 11
9.15
 21
12.7747581109
  0
LINE
  5
524
100
AcDbEntity
  8
0
100
AcDbLine
 62
7
  6
CONTINUOUS
 10
-9.150011
 20
12.919923
 11
-6.850011
 21
12.919923
  0
LINE
  5
525
100
AcDbEntity
  8
0
100
AcDbLine
 62
7
  6
CONTINUOUS
 10
9.15
 20
13.0387968227
 11
6.85
 21
13.0387968227
  0
LINE
  5
526
100
AcDbEntity
  8
0
100
AcDbLine
 62
7
  6
CONTINUOUS
 10
-6.850011
 20
13.190325
 11
-9.150011
 21
13.190325
  0
LINE
  5
527
100
AcDbEntity
  8
0
100
AcDbLine
 62
7
  6
CONTINUOUS
 10
-9.150007
 20
13.614468
 11
-6.850006
 21
13.614468
  0
LINE
  5
528
100
AcDbEntity
  8
0
100
AcDbLine
 62
7
  6
CONTINUOUS
 10
7.766182518
 20
13.6654912516
 11
8.2471283762
 21
13.6655759772
  0
LWPOLYLINE
  5
529
100
AcDbEntity
  8
0
100
AcDbPolyline
 62
7
  6
CONTINUOUS
 90
10
 70
0
 10
7.5814598731
 20
11.8732147864
 10
7.5608733197
 20
11.8767108111
 10
7.5399021021
 20
11.8798208354
 10
7.5185462201
 20
11.8825448593
 10
7.4967276433
 20
11.8848975314
 10
7.4745244022
 20
11.8868642031
 10
7.4521705884
 20
11.888400929
 10
7.4297442324
 20
11.8894930605
 10
7.4071673036
 20
11.8901552461
 10
7.3844398022
 20
11.8903874859
  0
LWPOLYLINE
  5
52A
100
AcDbEntity
  8
0
100
AcDbPolyline
 62
7
  6
CONTINUOUS
 90
10
 70
0
 10
8.7174030175
 20
11.6266136996
 10
8.7375237809
 20
11.6228102557
 10
8.7565578838
 20
11.6185314873
 10
8.7745053262
 20
11.6137773945
 10
8.7913238255
 20
11.6085413603
 10
8.8070556643
 20
11.6028300016
 10
8.8218276905
 20
11.5966631693
 10
8.8356821869
 20
11.5900474801
 10
8.8485768708
 20
11.5829763173
 10
8.8605117422
 20
11.5754496808
  0
LWPOLYLINE
  5
52B
100
AcDbEntity
  8
0
100
AcDbPolyline
 62
7
  6
CONTINUOUS
 90
10
 70
0
 10
7.2474466906
 20
11.061996634
 10
7.2324871114
 20
11.0649380052
 10
7.2178785359
 20
11.068443367
 10
7.2036209641
 20
11.0725127193
 10
7.1896656233
 20
11.077181537
 10
7.1760612861
 20
11.0824143452
 10
7.1629542703
 20
11.0881047196
 10
7.1503933485
 20
11.0942171855
 10
7.138329748
 20
11.1007872175
 10
7.126763469
 20
11.1078148156
  0
LWPOLYLINE
  5
52C
100
AcDbEntity
  8
0
100
AcDbPolyline
 62
7
  6
CONTINUOUS
 90
10
 70
0
 10
8.7905255754
 20
11.8808439199
 10
8.7641884968
 20
11.8865686099
 10
8.736581811
 20
11.8916807027
 10
8.707705518
 20
11.8961801984
 10
8.6775739258
 20
11.9000981344
 10
8.6461727265
 20
11.9034034732
 10
8.6134589959
 20
11.9060031026
 10
8.5794184262
 20
11.9078659851
 10
8.5440653253
 20
11.9090231581
 10
8.5073996931
 20
11.9094746217
  0
LWPOLYLINE
  5
52D
100
AcDbEntity
  8
0
100
AcDbPolyline
 62
7
  6
CONTINUOUS
 90
10
 70
0
 10
7.6263171362
 20
11.601300177
 10
7.6477409842
 20
11.5948318847
 10
7.6676719648
 20
11.5878348264
 10
7.6861100777
 20
11.5803090022
 10
7.7029954336
 20
11.5722060866
 10
7.718387922
 20
11.563574405
 10
7.732467211
 20
11.554558934
 10
7.7452931899
 20
11.5452079993
 10
7.7568059694
 20
11.5354732752
 10
7.7670055495
 20
11.5253547618
  0
LWPOLYLINE
  5
52E
100
AcDbEntity
  8
0
100
AcDbPolyline
 62
7
  6
CONTINUOUS
 90
10
 70
0
 10
7.126763469
 20
11.1078148156
 10
7.1144360536
 20
11.1161426095
 10
7.1029145844
 20
11.124850328
 10
7.0921990615
 20
11.1339379711
 10
7.0823183086
 20
11.1433890252
 10
7.0732435019
 20
11.1532200039
 10
7.0648881702
 20
11.1634804486
 10
7.0572234898
 20
11.1741868729
 10
7.0502782844
 20
11.1853227632
 10
7.0440525541
 20
11.1968881194
  0
LINE
  5
52F
100
AcDbEntity
  8
RACCORDO
100
AcDbLine
 62
250
  6
CONTINUOUS
 10
-4.706631318
 20
20.0170710069
 11
-4.8456620069
 21
20.1157900069
  0
LWPOLYLINE
  5
530
100
AcDbEntity
  8
0
100
AcDbPolyline
 62
7
  6
CONTINUOUS
 90
10
 70
0
 10
6.9549792426
 20
10.9296682103
 10
6.9840533667
 20
10.9042431284
 10
7.0168838074
 20
10.8812827533
 10
7.0534705647
 20
10.8607870849
 10
7.0933144195
 20
10.8425158888
 10
7.1369145909
 20
10.8267093995
 10
7.1857687356
 20
10.8140883204
 10
7.2403760726
 20
10.8048928858
 10
7.3002373828
 20
10.7988828615
 10
7.3653526664
 20
10.7960582472
  0
LINE
  5
531
100
AcDbEntity
  8
RACCORDO
100
AcDbLine
 62
250
  6
CONTINUOUS
 10
-4.3500114231
 20
21.6
 11
-4.334364846
 21
21.584353423
  0
LWPOLYLINE
  5
532
100
AcDbEntity
  8
0
100
AcDbPolyline
 62
7
  6
CONTINUOUS
 90
10
 70
0
 10
7.7670055495
 20
11.5253547618
 10
7.7785271844
 20
11.5125554195
 10
7.7891569504
 20
11.4992115544
 10
7.7988948474
 20
11.4853231665
 10
7.8077128424
 20
11.4709938983
 10
7.8156389685
 20
11.4561201072
 10
7.8227573245
 20
11.4403908655
 10
7.8290959436
 20
11.4237025304
 10
7.8346267927
 20
11.4061587447
 10
7.8393498719
 20
11.3877595082
  0
LWPOLYLINE
  5
533
100
AcDbEntity
  8
0
100
AcDbPolyline
 62
7
  6
CONTINUOUS
 90
10
 70
0
 10
7.0376901686
 20
12.615698646
 10
7.0594225946
 20
12.5894392398
 10
7.0801383917
 20
12.5639260444
 10
7.0998375601
 20
12.5391590601
 10
7.1185176452
 20
12.5151563396
 10
7.1361811015
 20
12.4918998301
 10
7.1528352922
 20
12.4693353725
 10
7.1684826716
 20
12.4474449138
 10
7.1831207854
 20
12.4262465071
 10
7.1967496336
 20
12.4057401523
  0
LWPOLYLINE
  5
534
100
AcDbEntity
  8
0
100
AcDbPolyline
 62
7
  6
CONTINUOUS
 90
10
 70
0
 10
7.8807053328
 20
11.7122408167
 10
7.8693217467
 20
11.7260466683
 10
7.8571759943
 20
11.7393262783
 10
7.8442680758
 20
11.7520796464
 10
7.8306179354
 20
11.7643189448
 10
7.8162056289
 20
11.7760320014
 10
7.8009713226
 20
11.7871823001
 10
7.784895072
 20
11.7977576687
 10
7.7679968216
 20
11.8077702794
 10
7.7502765715
 20
11.8172201321
  0
LWPOLYLINE
  5
535
100
AcDbEntity
  8
0
100
AcDbPolyline
 62
7
  6
CONTINUOUS
 90
10
 70
0
 10
7.3305597935
 20
12.5999512992
 10
7.3149500404
 20
12.6191703253
 10
7.2988041571
 20
12.6384276651
 10
7.2821221435
 20
12.6577233186
 10
7.2648844147
 20
12.6770403864
 10
7.2471105556
 20
12.696395768
 10
7.2288593211
 20
12.7158401614
 10
7.2101502959
 20
12.735390466
 10
7.1909638953
 20
12.7550297826
 10
7.1713001192
 20
12.7747581109
  0
LWPOLYLINE
  5
536
100
AcDbEntity
  8
0
100
AcDbPolyline
 62
7
  6
CONTINUOUS
 90
10
 70
0
 10
6.881811893
 20
13.9327111527
 10
6.8974032684
 20
13.9079875808
 10
6.9142950107
 20
13.8847418173
 10
6.9324871199
 20
13.8629738623
 10
6.951841234
 20
13.842775315
 10
6.972495715
 20
13.8240545761
 10
6.9948656487
 20
13.8065368481
 10
7.0190893968
 20
13.7901305315
 10
7.0450285976
 20
13.7749272257
 10
7.0726832509
 20
13.7609269306
  0
LWPOLYLINE
  5
537
100
AcDbEntity
  8
0
100
AcDbPolyline
 62
7
  6
CONTINUOUS
 90
10
 70
0
 10
7.4671507239
 20
12.4057401523
 10
7.4530195367
 20
12.428246221
 10
7.4386678204
 20
12.4504639814
 10
7.4240955752
 20
12.4723934335
 10
7.40935729
 20
12.4939591836
 10
7.3943984759
 20
12.5152366254
 10
7.3790556658
 20
12.5364519397
 10
7.3632743709
 20
12.5576805203
 10
7.3471090801
 20
12.5788469735
 10
7.3305597935
 20
12.5999512992
  0
LWPOLYLINE
  5
538
100
AcDbEntity
  8
0
100
AcDbPolyline
 62
7
  6
CONTINUOUS
 90
10
 70
0
 10
8.9520850192
 20
11.4796398803
 10
8.9586762455
 20
11.4670610662
 10
8.9645428492
 20
11.4533689282
 10
8.9696848302
 20
11.4385634665
 10
8.9741296516
 20
11.4227267244
 10
8.9778498502
 20
11.4057766585
 10
8.9807630373
 20
11.3874671384
 10
8.9828417496
 20
11.3677161206
 10
8.9841134503
 20
11.3466056485
 10
8.9845781393
 20
11.3241357222
  0
LWPOLYLINE
  5
539
100
AcDbEntity
  8
0
100
AcDbPolyline
 62
7
  6
CONTINUOUS
 90
10
 70
0
 10
9.1372752417
 20
11.6040803805
 10
9.1250583998
 20
11.6299864317
 10
9.1121664879
 20
11.6543020424
 10
9.098599506
 20
11.6770272125
 10
9.0843335968
 20
11.6980786822
 10
9.0693926176
 20
11.7175397113
 10
9.0538481404
 20
11.7356600801
 10
9.0377240227
 20
11.7525230486
 10
9.020996407
 20
11.7680453568
 10
9.0036652934
 20
11.7822270047
  0
LWPOLYLINE
  5
53A
100
AcDbEntity
  8
0
100
AcDbPolyline
 62
7
  6
CONTINUOUS
 90
10
 70
0
 10
6.8436376214
 20
18.3704706356
 10
6.8532193853
 20
18.3435493962
 10
6.8634152455
 20
18.3178381328
 10
6.8742252019
 20
18.2933368455
 10
6.8856560339
 20
18.2701078734
 10
6.8977009621
 20
18.2480888773
 10
6.9103396488
 20
18.2270928397
 10
6.9235653149
 20
18.2070574214
 10
6.9373847395
 20
18.1880449616
 10
6.9517979227
 20
18.1700554603
  0
LINE
  5
53B
100
AcDbEntity
  8
DRAFT
100
AcDbLine
 62
7
  6
CONTINUOUS
 10
9.7828427125
 20
-11.65
 11
9.5773201251
 21
-11.7337451586
  0
LINE
  5
53C
100
AcDbEntity
  8
DRAFT
100
AcDbLine
 62
7
  6
CONTINUOUS
 10
9.5773201251
 20
-11.7337451586
 11
9.5599863765
 21
-11.7406822889
  0
LINE
  5
53D
100
AcDbEntity
  8
DRAFT
100
AcDbLine
 62
7
  6
CONTINUOUS
 10
9.5599863765
 20
-11.7406822889
 11
9.5479836963
 21
-11.7454214703
  0
LWPOLYLINE
  5
53E
100
AcDbEntity
  8
DRAFT
100
AcDbPolyline
 62
7
  6
CONTINUOUS
 90
7
 70
0
 10
9.5479836963
 20
-11.7454214703
 10
9.5403978153
 20
-11.7483658283
 10
9.5367211675
 20
-11.7497742304
 10
9.5330873498
 20
-11.7511404469
 10
9.5294854429
 20
-11.7524646157
 10
9.5259263661
 20
-11.7537465988
 10
9.5224101194
 20
-11.7549863962
  0
LWPOLYLINE
  5
53F
100
AcDbEntity
  8
0
100
AcDbPolyline
 62
7
  6
CONTINUOUS
 90
10
 70
0
 10
7.3621904825
 20
14.7787352772
 10
7.3218456825
 20
14.7735713956
 10
7.2834258856
 20
14.7675419442
 10
7.2469310917
 20
14.7606469233
 10
7.2124378386
 20
14.7528322909
 10
7.1798695886
 20
14.7441520889
 10
7.1489967283
 20
14.7347684425
 10
7.1197427199
 20
14.7247353936
 10
7.0921841013
 20
14.7139989005
 10
7.0663208723
 20
14.702558963
  0
LWPOLYLINE
  5
540
100
AcDbEntity
  8
0
100
AcDbPolyline
 62
7
  6
CONTINUOUS
 90
10
 70
0
 10
7.3621904825
 20
16.2166328402
 10
7.3218456825
 20
16.2114689585
 10
7.2834258856
 20
16.2054395072
 10
7.2469310917
 20
16.1985444863
 10
7.2124378386
 20
16.1907298539
 10
7.1798695886
 20
16.1820496518
 10
7.1489967283
 20
16.1726660055
 10
7.1197427199
 20
16.1626329566
 10
7.0921841013
 20
16.1518964635
 10
7.0663208723
 20
16.140456526
  0
LWPOLYLINE
  5
541
100
AcDbEntity
  8
0
100
AcDbPolyline
 62
7
  6
CONTINUOUS
 90
10
 70
0
 10
8.6029703704
 20
15.1177165305
 10
8.6456090254
 20
15.1224655109
 10
8.6862061367
 20
15.1281414277
 10
8.7247617043
 20
15.1347442809
 10
8.7612156617
 20
15.1423462497
 10
8.7956280754
 20
15.1508751549
 10
8.8281791446
 20
15.160114459
 10
8.8589289356
 20
15.1699919828
 10
8.8878173821
 20
15.1805799055
 10
8.9148444841
 20
15.191878227
  0
LWPOLYLINE
  5
542
100
AcDbEntity
  8
0
100
AcDbPolyline
 62
7
  6
CONTINUOUS
 90
10
 70
0
 10
8.6029703704
 20
16.5556143676
 10
8.6456090254
 20
16.560363348
 10
8.6862061367
 20
16.5660392649
 10
8.7247617043
 20
16.5726421181
 10
8.7612156617
 20
16.5802440869
 10
8.7956280754
 20
16.5887729921
 10
8.8281791446
 20
16.5980122962
 10
8.8589289356
 20
16.60788982
 10
8.8878173821
 20
16.6184777426
 10
8.9148444841
 20
16.6297760642
  0
LWPOLYLINE
  5
543
100
AcDbEntity
  8
0
100
AcDbPolyline
 62
7
  6
CONTINUOUS
 90
9
 70
0
 10
8.5551248915
 20
15.3736824288
 10
8.5225150822
 20
15.371642602
 10
8.4892175631
 20
15.3698556266
 10
8.4552323343
 20
15.3683215025
 10
8.4205549682
 20
15.3670469077
 10
8.3851898924
 20
15.3660251642
 10
8.3491503896
 20
15.3652362388
 10
8.3124408876
 20
15.3646734536
 10
8.2750569586
 20
15.3643434863
  0
LWPOLYLINE
  5
544
100
AcDbEntity
  8
0
100
AcDbPolyline
 62
7
  6
CONTINUOUS
 90
9
 70
0
 10
7.4480635881
 20
14.5275934145
 10
7.4790741388
 20
14.529529571
 10
7.5115109364
 20
14.5312522233
 10
7.5453739808
 20
14.5327613714
 10
7.580648315
 20
14.5340642579
 10
7.6173488961
 20
14.5351536402
 10
7.6555205955
 20
14.5360077903
 10
7.6951783704
 20
14.5366194655
 10
7.7363072636
 20
14.5369959086
  0
LWPOLYLINE
  5
545
100
AcDbEntity
  8
0
100
AcDbPolyline
 62
7
  6
CONTINUOUS
 90
9
 70
0
 10
7.4480635699
 20
15.9654912504
 10
7.4790741394
 20
15.9674273926
 10
7.5115109505
 20
15.9691500232
 10
7.5453740032
 20
15.970659142
 10
7.5806483391
 20
15.9719619873
 10
7.6173489166
 20
15.9730513208
 10
7.6555206114
 20
15.9739054285
 10
7.695178382
 20
15.9745170723
 10
7.73630727
 20
15.9748934903
  0
LWPOLYLINE
  5
546
100
AcDbEntity
  8
0
100
AcDbPolyline
 62
7
  6
CONTINUOUS
 90
9
 70
0
 10
8.2471283762
 20
15.1034735402
 10
8.2970459287
 20
15.1039155085
 10
8.3453957992
 20
15.1047147196
 10
8.3921632964
 20
15.1058450827
 10
8.4373631117
 20
15.1073326886
 10
8.4810393193
 20
15.1092558091
 10
8.5232066107
 20
15.1116405349
 10
8.5638502944
 20
15.1144607754
 10
8.6029703704
 20
15.1177165305
  0
LWPOLYLINE
  5
547
100
AcDbEntity
  8
0
100
AcDbPolyline
 62
7
  6
CONTINUOUS
 90
10
 70
0
 10
7.7534577608
 20
14.797994642
 10
7.7064108077
 20
14.7977698123
 10
7.6601877916
 20
14.7970633067
 10
7.6147887125
 20
14.7958751252
 10
7.5701212162
 20
14.7942013997
 10
7.5262776569
 20
14.7920459983
 10
7.4835350976
 20
14.7894205249
 10
7.4419858926
 20
14.7863288476
 10
7.4015376876
 20
14.7827670984
 10
7.3621904825
 20
14.7787352772
  0
LINE
  5
548
100
AcDbEntity
  8
0
100
AcDbLine
 62
7
  6
CONTINUOUS
 10
-6.850006
 20
13.865782
 11
-8.91778
 21
13.865782
  0
LINE
  5
549
100
AcDbEntity
  8
0
100
AcDbLine
 62
7
  6
CONTINUOUS
 10
8.2750569586
 20
13.9264459234
 11
7.7789072752
 21
13.9263487741
  0
LINE
  5
54A
100
AcDbEntity
  8
0
100
AcDbLine
 62
7
  6
CONTINUOUS
 10
7.7363072636
 20
14.5369959086
 11
8.240179792
 21
14.5371371195
  0
LINE
  5
54B
100
AcDbEntity
  8
0
100
AcDbLine
 62
7
  6
CONTINUOUS
 10
8.1892807633
 20
14.797994642
 11
7.7534577608
 21
14.797994642
  0
LINE
  5
54C
100
AcDbEntity
  8
0
100
AcDbLine
 62
7
  6
CONTINUOUS
 10
-9.150007
 20
14.807414
 11
-7.082233
 21
14.807414
  0
LINE
  5
54D
100
AcDbEntity
  8
0
100
AcDbLine
 62
7
  6
CONTINUOUS
 10
-6.850006
 20
15.05875
 11
-9.150007
 21
15.05875
  0
LINE
  5
54E
100
AcDbEntity
  8
0
100
AcDbLine
 62
7
  6
CONTINUOUS
 10
7.766182518
 20
15.1033888146
 11
8.2471283762
 21
15.1034735402
  0
LINE
  5
54F
100
AcDbEntity
  8
0
100
AcDbLine
 62
7
  6
CONTINUOUS
 10
8.2750569586
 20
15.3643434863
 11
7.7789072752
 21
15.3642463371
  0
LINE
  5
550
100
AcDbEntity
  8
0
100
AcDbLine
 62
7
  6
CONTINUOUS
 10
-9.150007
 20
15.479694
 11
-6.850006
 21
15.479694
  0
LWPOLYLINE
  5
551
100
AcDbEntity
  8
0
100
AcDbPolyline
 62
7
  6
CONTINUOUS
 90
10
 70
0
 10
7.7789072752
 20
13.9263487741
 10
7.7363072681
 20
13.9264899663
 10
7.695178379
 20
13.9268663843
 10
7.6555206078
 20
13.9274780281
 10
7.6173489128
 20
13.9283321358
 10
7.5806483358
 20
13.9294214693
 10
7.5453740022
 20
13.9307243145
 10
7.511510954
 20
13.932233433
 10
7.4790741493
 20
13.9339560632
 10
7.4480635881
 20
13.9358922049
  0
LWPOLYLINE
  5
552
100
AcDbEntity
  8
0
100
AcDbPolyline
 62
7
  6
CONTINUOUS
 90
10
 70
0
 10
7.7789072752
 20
15.3642463371
 10
7.73630727
 20
15.3643875293
 10
7.695178382
 20
15.3647639472
 10
7.6555206114
 20
15.365375591
 10
7.6173489166
 20
15.3662296988
 10
7.5806483391
 20
15.3673190323
 10
7.5453740032
 20
15.3686218775
 10
7.5115109505
 20
15.3701309964
 10
7.4790741394
 20
15.3718536269
 10
7.4480635699
 20
15.3737897691
  0
LWPOLYLINE
  5
553
100
AcDbEntity
  8
0
100
AcDbPolyline
 62
7
  6
CONTINUOUS
 90
10
 70
0
 10
8.240179792
 20
14.5371371195
 10
8.281673833
 20
14.5369946349
 10
8.3217084978
 20
14.5366196488
 10
8.3602837865
 20
14.5360121613
 10
8.3973849393
 20
14.53516417
 10
8.4330267159
 20
14.5340836772
 10
8.4672533952
 20
14.5327946895
 10
8.5000797369
 20
14.531305209
 10
8.5314909813
 20
14.5296072336
 10
8.5614871284
 20
14.5277007632
  0
LWPOLYLINE
  5
554
100
AcDbEntity
  8
0
100
AcDbPolyline
 62
7
  6
CONTINUOUS
 90
10
 70
0
 10
7.4480635881
 20
13.9358922049
 10
7.4150179926
 20
13.9384303397
 10
7.3836368843
 20
13.9414510264
 10
7.3539202633
 20
13.9449542649
 10
7.3259255953
 20
13.9489512962
 10
7.2995954145
 20
13.9534308794
 10
7.274757324
 20
13.9583592914
 10
7.2513538579
 20
13.9637252915
 10
7.2294424821
 20
13.9695401204
 10
7.2090231965
 20
13.9758037783
  0
LWPOLYLINE
  5
555
100
AcDbEntity
  8
0
100
AcDbPolyline
 62
7
  6
CONTINUOUS
 90
10
 70
0
 10
8.5614871284
 20
14.5277007632
 10
8.5928947742
 20
14.5250786193
 10
8.622875401
 20
14.5219009785
 10
8.6514290087
 20
14.5181678408
 10
8.6784214871
 20
14.513853241
 10
8.7039869466
 20
14.5089831443
 10
8.7285277174
 20
14.5036354462
 10
8.7521779099
 20
14.4978361117
 10
8.7748034137
 20
14.4915591758
 10
8.796404229
 20
14.4848046385
  0
LWPOLYLINE
  5
556
100
AcDbEntity
  8
0
100
AcDbPolyline
 62
7
  6
CONTINUOUS
 90
10
 70
0
 10
8.5963380635
 20
14.7805104617
 10
8.5572278967
 20
14.7839400063
 10
8.5166000059
 20
14.7870171505
 10
8.474454391
 20
14.7897418944
 10
8.4308068938
 20
14.79213999
 10
8.3856416725
 20
14.7941856853
 10
8.3389112014
 20
14.7958017237
 10
8.2905996385
 20
14.7969623532
 10
8.2407228258
 20
14.797693326
 10
8.1892807633
 20
14.797994642
  0
LWPOLYLINE
  5
557
100
AcDbEntity
  8
0
100
AcDbPolyline
 62
7
  6
CONTINUOUS
 90
10
 70
0
 10
7.3748962343
 20
13.6845783874
 10
7.4146471505
 20
13.6805664986
 10
7.4553717077
 20
13.6770267354
 10
7.4970699056
 20
13.6739590978
 10
7.539798153
 20
13.6713627211
 10
7.5835000413
 20
13.6692384701
 10
7.6280063445
 20
13.6675889383
 10
7.6732606541
 20
13.6664149902
 10
7.7193193786
 20
13.6657157613
 10
7.766182518
 20
13.6654912516
  0
LINE
  5
558
100
AcDbEntity
  8
0
100
AcDbLine
 62
7
  6
CONTINUOUS
 10
-7.6485
 20
17.210253
 11
-8.898687
 21
17.544278
  0
LINE
  5
559
100
AcDbEntity
  8
0
100
AcDbLine
 62
7
  6
CONTINUOUS
 10
-6.85
 20
16.981206
 11
-7.432179
 21
17.143447
  0
LINE
  5
55A
100
AcDbEntity
  8
0
100
AcDbLine
 62
7
  6
CONTINUOUS
 10
-9.150022
 20
17.385218
 11
-6.85
 21
16.710806
  0
LWPOLYLINE
  5
55B
100
AcDbEntity
  8
0
100
AcDbPolyline
 62
7
  6
CONTINUOUS
 90
10
 70
0
 10
7.2090231965
 20
13.9758037783
 10
7.1863058951
 20
13.9840390221
 10
7.1652496519
 20
13.9928709122
 10
7.1458544669
 20
14.0022994488
 10
7.1281657411
 20
14.0123949294
 10
7.1121380736
 20
14.0230870564
 10
7.0976352609
 20
14.0341649369
 10
7.0846119021
 20
14.0455582733
 10
7.0731133982
 20
14.0573373631
 10
7.0631397493
 20
14.0695022064
  0
LWPOLYLINE
  5
55C
100
AcDbEntity
  8
0
100
AcDbPolyline
 62
7
  6
CONTINUOUS
 90
10
 70
0
 10
7.0726832509
 20
13.7609269306
 10
7.0986069918
 20
13.7495102018
 10
7.1264011298
 20
13.7387864635
 10
7.1560656647
 20
13.7287557158
 10
7.1875426329
 20
13.7193640933
 10
7.2208899981
 20
13.7106654614
 10
7.2562816517
 20
13.7028214153
 10
7.2937755575
 20
13.6958858202
 10
7.3333137517
 20
13.6898048109
 10
7.3748962343
 20
13.6845783874
  0
LWPOLYLINE
  5
55D
100
AcDbEntity
  8
0
100
AcDbPolyline
 62
7
  6
CONTINUOUS
 90
10
 70
0
 10
7.7502765715
 20
11.8172201321
 10
7.7324663014
 20
11.8258131926
 10
7.7144988557
 20
11.8337948247
 10
7.6963742344
 20
11.8411650281
 10
7.6781985838
 20
11.8478990423
 10
7.6598657575
 20
11.8540216278
 10
7.6410573172
 20
11.8596070669
 10
7.6216671166
 20
11.8646801199
 10
7.6018013019
 20
11.8692160264
 10
7.5814598731
 20
11.8732147864
  0
LWPOLYLINE
  5
55E
100
AcDbEntity
  8
0
100
AcDbPolyline
 62
7
  6
CONTINUOUS
 90
10
 70
0
 10
8.8605117422
 20
11.5754496808
 10
8.8740132505
 20
11.5659350225
 10
8.8866758625
 20
11.5561200348
 10
8.8984995784
 20
11.5460047177
 10
8.9094747697
 20
11.5355655904
 10
8.9196110647
 20
11.5248261336
 10
8.9289373487
 20
11.51385679
 10
8.9374632499
 20
11.5026810403
 10
8.9451791401
 20
11.4912754037
 10
8.9520850192
 20
11.4796398803
  0
LWPOLYLINE
  5
55F
100
AcDbEntity
  8
0
100
AcDbPolyline
 62
7
  6
CONTINUOUS
 90
10
 70
0
 10
9.0036652934
 20
11.7822270047
 10
8.9847024603
 20
11.7963285826
 10
8.9644881572
 20
11.8097205182
 10
8.9430223841
 20
11.8224028114
 10
8.9202096334
 20
11.83447732
 10
8.8961454127
 20
11.8458421862
 10
8.8711162444
 20
11.8561918367
 10
8.8452176357
 20
11.8654244135
 10
8.8183540794
 20
11.8736417746
 10
8.7905255754
 20
11.8808439199
  0
LWPOLYLINE
  5
560
100
AcDbEntity
  8
0
100
AcDbPolyline
 62
7
  6
CONTINUOUS
 90
10
 70
0
 10
6.85
 20
12.8033888146
 10
6.8699909574
 20
12.7870600625
 10
6.8901534035
 20
12.7696708616
 10
6.9104873383
 20
12.7512212119
 10
6.9309335783
 20
12.731805752
 10
6.951551307
 20
12.7113298433
 10
6.9725180753
 20
12.6895095699
 10
6.9938930668
 20
12.6662502933
 10
7.0156170979
 20
12.641646652
 10
7.0376901686
 20
12.615698646
  0
LWPOLYLINE
  5
561
100
AcDbEntity
  8
0
100
AcDbPolyline
 62
7
  6
CONTINUOUS
 90
10
 70
0
 10
7.0631397493
 20
14.0695022064
 10
7.0531426976
 20
14.083389913
 10
7.0441918192
 20
14.0982740106
 10
7.0362871142
 20
14.1141544992
 10
7.0293762812
 20
14.1308624027
 10
7.0235116216
 20
14.1485666973
 10
7.0188500387
 20
14.1677743113
 10
7.0154438338
 20
14.1886542211
 10
7.0132407056
 20
14.2110374503
 10
7.0122406542
 20
14.234923999
  0
LWPOLYLINE
  5
562
100
AcDbEntity
  8
0
100
AcDbPolyline
 62
7
  6
CONTINUOUS
 90
10
 70
0
 10
7.0631398155
 20
15.5073998204
 10
7.0531427197
 20
15.521287642
 10
7.044191809
 20
15.5361718252
 10
7.0362870835
 20
15.55205237
 10
7.0293762456
 20
15.5687603012
 10
7.0235115929
 20
15.5864645939
 10
7.0188500181
 20
15.6056721738
 10
7.0154438189
 20
15.626552016
 10
7.0132406976
 20
15.6489351454
 10
7.0122406542
 20
15.672821562
  0
LINE
  5
563
100
AcDbEntity
  8
DRAFT
100
AcDbLine
 62
7
  6
CONTINUOUS
 10
4.3198454055
 20
19.81996381
 11
4.3340207461
 21
19.8
  0
LINE
  5
564
100
AcDbEntity
  8
RACCORDO
100
AcDbLine
 62
250
  6
CONTINUOUS
 10
4.3307894673
 20
20.54638706
 11
4.706631318
 21
20.0170710069
  0
LINE
  5
565
100
AcDbEntity
  8
RACCORDO
100
AcDbLine
 62
7
  6
CONTINUOUS
 10
4.5898369388
 20
20.4406379675
 11
4.8289311143
 21
20.1039102054
  0
LINE
  5
566
100
AcDbEntity
  8
DRAFT
100
AcDbLine
 62
7
  6
CONTINUOUS
 10
4.8456620069
 20
20.1157900069
 11
4.65
 21
20.3913501688
  0
LWPOLYLINE
  5
567
100
AcDbEntity
  8
0
100
AcDbPolyline
 62
7
  6
CONTINUOUS
 90
10
 70
0
 10
6.881811893
 20
15.3706089899
 10
6.8974033445
 20
15.3458853044
 10
6.9142951513
 20
15.3226394456
 10
6.9324873135
 20
15.3008714133
 10
6.9518414792
 20
15.2806728035
 10
6.9724960003
 20
15.2619520203
 10
6.9948659324
 20
15.2444342765
 10
7.0190896275
 20
15.2280279762
 10
7.0450287337
 20
15.2128247152
 10
7.0726832509
 20
15.1988244936
  0
LWPOLYLINE
  5
568
100
AcDbEntity
  8
0
100
AcDbPolyline
 62
7
  6
CONTINUOUS
 90
10
 70
0
 10
6.881811893
 20
16.8085065529
 10
6.8974033445
 20
16.7837828674
 10
6.9142951513
 20
16.7605370085
 10
6.9324873135
 20
16.7387689763
 10
6.9518414792
 20
16.7185703665
 10
6.9724960003
 20
16.6998495833
 10
6.9948659324
 20
16.6823318395
 10
7.0190896275
 20
16.6659255392
 10
7.0450287337
 20
16.6507222782
 10
7.0726832509
 20
16.6367220566
  0
LWPOLYLINE
  5
569
100
AcDbEntity
  8
RACCORDO
100
AcDbPolyline
 62
250
  6
CONTINUOUS
 90
19
 70
0
 10
9.6014100548
 20
-14.6012191724
 10
9.6070282447
 20
-14.5937847164
 10
9.6122882893
 20
-14.5813273586
 10
9.6171901883
 20
-14.5645017739
 10
9.6217462634
 20
-14.5439476047
 10
9.6259441931
 20
-14.5203181096
 10
9.6297470127
 20
-14.4942956016
 10
9.6331253744
 20
-14.4665693643
 10
9.6361086261
 20
-14.4376248933
 10
9.6387478466
 20
-14.4077507217
 10
9.6410297223
 20
-14.3776296687
 10
9.6429675668
 20
-14.3473939113
 10
9.6446524002
 20
-14.3162613119
 10
9.6461120159
 20
-14.2845617112
 10
9.6473186206
 20
-14.2523419897
 10
9.6482798536
 20
-14.2181376722
 10
9.6489982616
 20
-14.1814921465
 10
9.6494712979
 20
-14.1430889158
 10
9.6496989626
 20
-14.1031218234
  0
LWPOLYLINE
  5
56A
100
AcDbEntity
  8
RACCORDO
100
AcDbPolyline
 62
250
  6
CONTINUOUS
 90
19
 70
0
 10
9.4044496904
 20
-14.4019802328
 10
9.4100652059
 20
-14.3968692887
 10
9.4153236339
 20
-14.3895257814
 10
9.4202249745
 20
-14.3799497111
 10
9.4247821219
 20
-14.367759978
 10
9.4289821819
 20
-14.3533376819
 10
9.4327864718
 20
-14.3378261215
 10
9.4361648074
 20
-14.3213531856
 10
9.439147373
 20
-14.3037909855
 10
9.4417860379
 20
-14.2858991544
 10
9.4440677587
 20
-14.267968453
 10
9.4460055788
 20
-14.2497081205
 10
9.4476904981
 20
-14.2310055079
 10
9.4491503936
 20
-14.2120510221
 10
9.4503573884
 20
-14.1926542562
 10
9.4513188507
 20
-14.1721313404
 10
9.4520372368
 20
-14.150254318
 10
9.4525100906
 20
-14.1272511456
 10
9.452737412
 20
-14.1031218234
  0
LINE
  5
56B
100
AcDbEntity
  8
RACCORDO
100
AcDbLine
 62
250
  6
CONTINUOUS
 10
8.9519549284
 20
-14.6264958561
 11
9.4044496904
 21
-14.4019802328
  0
LINE
  5
56C
100
AcDbEntity
  8
RACCORDO
100
AcDbLine
 62
250
  6
CONTINUOUS
 10
9.1101234466
 20
-14.8449828458
 11
9.6014112411
 21
-14.6012191724
  0
LINE
  5
56D
100
AcDbEntity
  8
DRAFT
100
AcDbLine
 62
7
  6
CONTINUOUS
 10
9.2171572875
 20
-14.85
 11
9.4226798749
 21
-14.7662548414
  0
LINE
  5
56E
100
AcDbEntity
  8
DRAFT
100
AcDbLine
 62
7
  6
CONTINUOUS
 10
9.4226798749
 20
-14.7662548414
 11
9.4400136235
 21
-14.7593177111
  0
LINE
  5
56F
100
AcDbEntity
  8
DRAFT
100
AcDbLine
 62
7
  6
CONTINUOUS
 10
9.4400136235
 20
-14.7593177111
 11
9.4520163037
 21
-14.7545785297
  0
LWPOLYLINE
  5
570
100
AcDbEntity
  8
DRAFT
100
AcDbPolyline
 62
7
  6
CONTINUOUS
 90
7
 70
0
 10
9.4520163037
 20
-14.7545785297
 10
9.4596021847
 20
-14.7516341717
 10
9.4632788325
 20
-14.7502257696
 10
9.4669126502
 20
-14.7488595531
 10
9.4705145571
 20
-14.7475353843
 10
9.4740736339
 20
-14.7462534012
 10
9.4775898806
 20
-14.7450136038
  0
LWPOLYLINE
  5
571
100
AcDbEntity
  8
0
100
AcDbPolyline
 62
7
  6
CONTINUOUS
 90
10
 70
0
 10
7.2381050383
 20
18.9271786137
 10
7.2540333315
 20
18.9304072709
 10
7.2700885607
 20
18.9332804875
 10
7.2862707259
 20
18.9357982635
 10
7.3026386999
 20
18.9379737825
 10
7.3191336098
 20
18.939793861
 10
7.3355788369
 20
18.941218948
 10
7.3519155082
 20
18.9422358599
 10
7.3682024966
 20
18.9428577803
 10
7.3844398022
 20
18.9430847093
  0
LWPOLYLINE
  5
572
100
AcDbEntity
  8
0
100
AcDbPolyline
 62
7
  6
CONTINUOUS
 90
10
 70
0
 10
8.7078607566
 20
18.2556827805
 10
8.6904167265
 20
18.2529486015
 10
8.6723709675
 20
18.2505609244
 10
8.6537234796
 20
18.2485197491
 10
8.634457012
 20
18.2468371562
 10
8.6145888154
 20
18.2455010651
 10
8.5941706425
 20
18.2444752345
 10
8.5732197441
 20
18.2437475838
 10
8.5517188693
 20
18.2433301935
 10
8.5296680182
 20
18.2432230636
  0
LWPOLYLINE
  5
573
100
AcDbEntity
  8
0
100
AcDbPolyline
 62
7
  6
CONTINUOUS
 90
10
 70
0
 10
7.3621904825
 20
17.6545304032
 10
7.3218456825
 20
17.6493665215
 10
7.2834258856
 20
17.6433370702
 10
7.2469310917
 20
17.6364420492
 10
7.2124378386
 20
17.6286274168
 10
7.1798695886
 20
17.6199472148
 10
7.1489967283
 20
17.6105635685
 10
7.1197427199
 20
17.6005305196
 10
7.0921841013
 20
17.5897940264
 10
7.0663208723
 20
17.578354089
  0
LWPOLYLINE
  5
574
100
AcDbEntity
  8
0
100
AcDbPolyline
 62
7
  6
CONTINUOUS
 90
9
 70
0
 10
8.5551248915
 20
16.8115799917
 10
8.5225150822
 20
16.8095401649
 10
8.4892175631
 20
16.8077531895
 10
8.4552323343
 20
16.8062190655
 10
8.4205549682
 20
16.8049444707
 10
8.3851898924
 20
16.8039227272
 10
8.3491503896
 20
16.8031338018
 10
8.3124408876
 20
16.8025710165
 10
8.2750569586
 20
16.8022410493
  0
LWPOLYLINE
  5
575
100
AcDbEntity
  8
0
100
AcDbPolyline
 62
7
  6
CONTINUOUS
 90
9
 70
0
 10
7.4480635699
 20
17.4033888134
 10
7.4790741394
 20
17.4053249556
 10
7.5115109505
 20
17.4070475862
 10
7.5453740032
 20
17.408556705
 10
7.5806483391
 20
17.4098595502
 10
7.6173489166
 20
17.4109488838
 10
7.6555206114
 20
17.4118029915
 10
7.695178382
 20
17.4124146353
 10
7.73630727
 20
17.4127910533
  0
LWPOLYLINE
  5
576
100
AcDbEntity
  8
0
100
AcDbPolyline
 62
7
  6
CONTINUOUS
 90
9
 70
0
 10
8.2471283762
 20
16.5413713774
 10
8.2970459287
 20
16.5418133457
 10
8.3453957992
 20
16.5426125568
 10
8.3921632964
 20
16.5437429199
 10
8.4373631117
 20
16.5452305258
 10
8.4810393193
 20
16.5471536463
 10
8.5232066107
 20
16.5495383721
 10
8.5638502944
 20
16.5523586125
 10
8.6029703704
 20
16.5556143676
  0
LWPOLYLINE
  5
577
100
AcDbEntity
  8
0
100
AcDbPolyline
 62
7
  6
CONTINUOUS
 90
10
 70
0
 10
7.7534577608
 20
16.2358924791
 10
7.7064115889
 20
16.2356676508
 10
7.6601891497
 20
16.2349611398
 10
7.6147904433
 20
16.2337729461
 10
7.5701231034
 20
16.2320992033
 10
7.5262794964
 20
16.2299437778
 10
7.4835367208
 20
16.2273182689
 10
7.4419871432
 20
16.2242265428
 10
7.4015383971
 20
16.2206647332
 10
7.3621904825
 20
16.2166328402
  0
LINE
  5
578
100
AcDbEntity
  8
0
100
AcDbLine
 62
7
  6
CONTINUOUS
 10
-7.066327
 20
15.750095
 11
-7.928429
 21
15.750095
  0
LINE
  5
579
100
AcDbEntity
  8
0
100
AcDbLine
 62
7
  6
CONTINUOUS
 10
-8.144751
 20
15.750095
 11
-8.933686
 21
15.750095
  0
LINE
  5
57A
100
AcDbEntity
  8
0
100
AcDbLine
 62
7
  6
CONTINUOUS
 10
7.73630727
 20
15.9748934903
 11
8.240179792
 21
15.9750346825
  0
LINE
  5
57B
100
AcDbEntity
  8
0
100
AcDbLine
 62
7
  6
CONTINUOUS
 10
8.1892807633
 20
16.2358924791
 11
7.7534577608
 21
16.2358924791
  0
LINE
  5
57C
100
AcDbEntity
  8
0
100
AcDbLine
 62
7
  6
CONTINUOUS
 10
-7.928429
 20
16.497674
 11
-8.144751
 21
16.497674
  0
LINE
  5
57D
100
AcDbEntity
  8
0
100
AcDbLine
 62
7
  6
CONTINUOUS
 10
-8.933686
 20
16.53903
 11
-9.150007
 21
16.53903
  0
LINE
  5
57E
100
AcDbEntity
  8
0
100
AcDbLine
 62
7
  6
CONTINUOUS
 10
7.766182518
 20
16.5412866518
 11
8.2471283762
 21
16.5413713774
  0
LINE
  5
57F
100
AcDbEntity
  8
0
100
AcDbLine
 62
7
  6
CONTINUOUS
 10
-6.850006
 20
16.561298
 11
-7.066327
 21
16.561298
  0
LINE
  5
580
100
AcDbEntity
  8
0
100
AcDbLine
 62
7
  6
CONTINUOUS
 10
8.2750569586
 20
16.8022410493
 11
7.7789072752
 21
16.8021439001
  0
LINE
  5
581
100
AcDbEntity
  8
0
100
AcDbLine
 62
7
  6
CONTINUOUS
 10
7.73630727
 20
17.4127910533
 11
8.240179792
 21
17.4129322454
  0
LWPOLYLINE
  5
582
100
AcDbEntity
  8
0
100
AcDbPolyline
 62
7
  6
CONTINUOUS
 90
10
 70
0
 10
7.7789072752
 20
16.8021439001
 10
7.73630727
 20
16.8022850922
 10
7.695178382
 20
16.8026615102
 10
7.6555206114
 20
16.803273154
 10
7.6173489166
 20
16.8041272617
 10
7.5806483391
 20
16.8052165953
 10
7.5453740032
 20
16.8065194405
 10
7.5115109505
 20
16.8080285594
 10
7.4790741394
 20
16.8097511899
 10
7.4480635699
 20
16.8116873321
  0
LWPOLYLINE
  5
583
100
AcDbEntity
  8
0
100
AcDbPolyline
 62
7
  6
CONTINUOUS
 90
10
 70
0
 10
8.240179792
 20
15.9750346825
 10
8.2816738268
 20
15.9748922166
 10
8.3217084864
 20
15.9745172557
 10
8.3602837708
 20
15.9739097995
 10
8.3973849192
 20
15.9730618506
 10
8.4330266923
 20
15.9719814066
 10
8.4672533734
 20
15.9706924601
 10
8.5000797232
 20
15.9692030089
 10
8.531490981
 20
15.9675050552
 10
8.5614871466
 20
15.9655985992
  0
LWPOLYLINE
  5
584
100
AcDbEntity
  8
0
100
AcDbPolyline
 62
7
  6
CONTINUOUS
 90
10
 70
0
 10
8.240179792
 20
17.4129322454
 10
8.2816738268
 20
17.4127897796
 10
8.3217084864
 20
17.4124148186
 10
8.3602837708
 20
17.4118073625
 10
8.3973849192
 20
17.4109594136
 10
8.4330266923
 20
17.4098789696
 10
8.4672533734
 20
17.4085900231
 10
8.5000797232
 20
17.4071005719
 10
8.531490981
 20
17.4054026182
 10
8.5614871466
 20
17.4034961622
  0
LWPOLYLINE
  5
585
100
AcDbEntity
  8
0
100
AcDbPolyline
 62
7
  6
CONTINUOUS
 90
10
 70
0
 10
7.4480635699
 20
15.3737897691
 10
7.4150179676
 20
15.3763279034
 10
7.3836368556
 20
15.3793485927
 10
7.3539202339
 20
15.3828518369
 10
7.325925568
 20
15.3868488766
 10
7.2995953924
 20
15.3913284713
 10
7.2747573106
 20
15.3962568998
 10
7.2513538571
 20
15.401622922
 10
7.2294424974
 20
15.407437778
 10
7.2090232314
 20
15.413701468
  0
LWPOLYLINE
  5
586
100
AcDbEntity
  8
0
100
AcDbPolyline
 62
7
  6
CONTINUOUS
 90
10
 70
0
 10
7.4480635699
 20
16.8116873321
 10
7.4150179676
 20
16.8142254664
 10
7.3836368556
 20
16.8172461556
 10
7.3539202339
 20
16.8207493999
 10
7.325925568
 20
16.8247464396
 10
7.2995953924
 20
16.8292260342
 10
7.2747573106
 20
16.8341544628
 10
7.2513538571
 20
16.839520485
 10
7.2294424974
 20
16.845335341
 10
7.2090232314
 20
16.851599031
  0
LWPOLYLINE
  5
587
100
AcDbEntity
  8
0
100
AcDbPolyline
 62
7
  6
CONTINUOUS
 90
10
 70
0
 10
8.5614871466
 20
15.9655985992
 10
8.5928949382
 20
15.962976438
 10
8.6228756726
 20
15.9597987792
 10
8.6514293497
 20
15.9560656227
 10
8.6784218561
 20
15.9517510023
 10
8.7039873053
 20
15.9468808842
 10
8.7285280372
 20
15.9415331677
 10
8.7521781653
 20
15.9357338191
 10
8.7748035761
 20
15.929456872
 10
8.7964042696
 20
15.9227023264
  0
LWPOLYLINE
  5
588
100
AcDbEntity
  8
0
100
AcDbPolyline
 62
7
  6
CONTINUOUS
 90
10
 70
0
 10
8.5963380635
 20
16.2184080247
 10
8.5572279145
 20
16.2218375834
 10
8.5166000356
 20
16.2249147494
 10
8.4744544269
 20
16.2276395225
 10
8.4308069285
 20
16.2300376597
 10
8.3856417003
 20
16.2320834041
 10
8.3389112217
 20
16.2336994853
 10
8.2905996526
 20
16.2348601464
 10
8.2407228331
 20
16.2355911444
 10
8.1892807633
 20
16.2358924791
  0
LWPOLYLINE
  5
589
100
AcDbEntity
  8
0
100
AcDbPolyline
 62
7
  6
CONTINUOUS
 90
10
 70
0
 10
7.3748962343
 20
15.1224759504
 10
7.4146471505
 20
15.1184640616
 10
7.4553717077
 20
15.1149242984
 10
7.4970699056
 20
15.1118566607
 10
7.539798153
 20
15.1092602841
 10
7.5835000413
 20
15.1071360331
 10
7.6280063445
 20
15.1054865012
 10
7.6732606541
 20
15.1043125532
 10
7.7193193786
 20
15.1036133243
 10
7.766182518
 20
15.1033888146
  0
LWPOLYLINE
  5
58A
100
AcDbEntity
  8
0
100
AcDbPolyline
 62
7
  6
CONTINUOUS
 90
10
 70
0
 10
7.3748962343
 20
16.5603735134
 10
7.4146465968
 20
16.5563616811
 10
7.4553707821
 20
16.5528219666
 10
7.4970687904
 20
16.5497543699
 10
7.5397970883
 20
16.5471580248
 10
7.583499209
 20
16.5450337974
 10
7.6280057524
 20
16.5433842865
 10
7.6732602516
 20
16.5422103584
 10
7.7193191735
 20
16.5415111469
 10
7.766182518
 20
16.5412866518
  0
LWPOLYLINE
  5
58B
100
AcDbEntity
  8
0
100
AcDbPolyline
 62
7
  6
CONTINUOUS
 90
10
 70
0
 10
7.2090232314
 20
15.413701468
 10
7.1863059169
 20
15.421936735
 10
7.1652496643
 20
15.4307686361
 10
7.1458544738
 20
15.4401971714
 10
7.1281657459
 20
15.4502926328
 10
7.11213808
 20
15.4609847283
 10
7.0976352742
 20
15.4720625824
 10
7.0846119278
 20
15.4834559031
 10
7.0731134416
 20
15.4952349825
 10
7.0631398155
 20
15.5073998204
  0
LWPOLYLINE
  5
58C
100
AcDbEntity
  8
0
100
AcDbPolyline
 62
7
  6
CONTINUOUS
 90
10
 70
0
 10
8.796404229
 20
14.4848046385
 10
8.8190053616
 20
14.4765217982
 10
8.8398434888
 20
14.4677211165
 10
8.8589186105
 20
14.4584025933
 10
8.87612282
 20
14.4485012888
 10
8.8915640241
 20
14.4380821428
 10
8.9055659432
 20
14.4273399748
 10
8.9182364843
 20
14.4163397245
 10
8.9294677406
 20
14.4050164522
 10
8.9392597119
 20
14.3933701578
  0
LWPOLYLINE
  5
58D
100
AcDbEntity
  8
0
100
AcDbPolyline
 62
7
  6
CONTINUOUS
 90
10
 70
0
 10
8.9114107841
 20
14.7089213385
 10
8.8836492411
 20
14.7202002149
 10
8.8541303616
 20
14.7306623093
 10
8.8228541458
 20
14.7403076217
 10
8.7898929909
 20
14.7491552859
 10
8.7551744995
 20
14.7571861682
 10
8.7184814803
 20
14.764342867
 10
8.6797415359
 20
14.7706062487
 10
8.6390270637
 20
14.7759954469
 10
8.5963380635
 20
14.7805104617
  0
LWPOLYLINE
  5
58E
100
AcDbEntity
  8
0
100
AcDbPolyline
 62
7
  6
CONTINUOUS
 90
10
 70
0
 10
7.0726832509
 20
15.1988244936
 10
7.0986069918
 20
15.1874077648
 10
7.1264011298
 20
15.1766840265
 10
7.1560656647
 20
15.1666532787
 10
7.1875426329
 20
15.1572616563
 10
7.2208899981
 20
15.1485630244
 10
7.2562816517
 20
15.1407189783
 10
7.2937755575
 20
15.1337833832
 10
7.3333137517
 20
15.1277023739
 10
7.3748962343
 20
15.1224759504
  0
LWPOLYLINE
  5
58F
100
AcDbEntity
  8
0
100
AcDbPolyline
 62
7
  6
CONTINUOUS
 90
10
 70
0
 10
6.9517979227
 20
18.1700554603
 10
6.9667517946
 20
18.1529875051
 10
6.9828834906
 20
18.1365819293
 10
7.0001930108
 20
18.1208387329
 10
7.0186277589
 20
18.1057605612
 10
7.0382403312
 20
18.0913447689
 10
7.059188516
 20
18.0775834207
 10
7.0815249096
 20
18.0644738714
 10
7.1051969158
 20
18.052018766
 10
7.1302045346
 20
18.0402181047
  0
LWPOLYLINE
  5
590
100
AcDbEntity
  8
0
100
AcDbPolyline
 62
7
  6
CONTINUOUS
 90
10
 70
0
 10
8.9392597119
 20
14.3933701578
 10
8.9487259546
 20
14.3807299667
 10
8.9572254689
 20
14.3668430675
 10
8.9647582548
 20
14.3517094604
 10
8.9713944733
 20
14.3354396637
 10
8.9770639634
 20
14.3179231591
 10
8.9815562423
 20
14.2988283907
 10
8.984801149
 20
14.2780448398
 10
8.9868688444
 20
14.2556830252
 10
8.9877593286
 20
14.2317429468
  0
LWPOLYLINE
  5
591
100
AcDbEntity
  8
0
100
AcDbPolyline
 62
7
  6
CONTINUOUS
 90
10
 70
0
 10
8.9392597119
 20
15.8312679949
 10
8.9487259315
 20
15.8186278371
 10
8.9572254311
 20
15.8047409493
 10
8.9647582107
 20
15.7896073315
 10
8.9713944347
 20
15.7733374945
 10
8.9770639387
 20
15.7558209275
 10
8.9815562294
 20
15.7367260987
 10
8.9848011424
 20
15.7159424976
 10
8.9868688422
 20
15.6935806346
 10
8.9877593286
 20
15.6696405098
  0
LWPOLYLINE
  5
592
100
AcDbEntity
  8
0
100
AcDbPolyline
 62
7
  6
CONTINUOUS
 90
10
 70
0
 10
8.9392597119
 20
17.2691655579
 10
8.9487259315
 20
17.2565254
 10
8.9572254311
 20
17.2426385122
 10
8.9647582107
 20
17.2275048945
 10
8.9713944347
 20
17.2112350575
 10
8.9770639387
 20
17.1937184905
 10
8.9815562294
 20
17.1746236617
 10
8.9848011424
 20
17.1538400605
 10
8.9868688422
 20
17.1314781976
 10
8.9877593286
 20
17.1075380728
  0
LWPOLYLINE
  5
593
100
AcDbEntity
  8
0
100
AcDbPolyline
 62
7
  6
CONTINUOUS
 90
10
 70
0
 10
7.0631398155
 20
16.9452973834
 10
7.0531427197
 20
16.959185205
 10
7.044191809
 20
16.9740693882
 10
7.0362870835
 20
16.989949933
 10
7.0293762456
 20
17.0066578642
 10
7.0235115929
 20
17.0243621569
 10
7.0188500181
 20
17.0435697368
 10
7.0154438189
 20
17.064449579
 10
7.0132406976
 20
17.0868327084
 10
7.0122406542
 20
17.110719125
  0
LWPOLYLINE
  5
594
100
AcDbEntity
  8
0
100
AcDbPolyline
 62
7
  6
CONTINUOUS
 90
10
 70
0
 10
9.1150069144
 20
14.5371371187
 10
9.0983095971
 20
14.5619423473
 10
9.0802804716
 20
14.5852324485
 10
9.060919538
 20
14.6070074224
 10
9.0404258771
 20
14.6271531302
 10
9.0186004081
 20
14.6457837107
 10
8.9948458885
 20
14.6632415802
 10
8.9689632376
 20
14.6796408774
 10
8.9411515361
 20
14.6948674635
 10
8.9114107841
 20
14.7089213385
  0
LWPOLYLINE
  5
595
100
AcDbEntity
  8
0
100
AcDbPolyline
 62
7
  6
CONTINUOUS
 90
10
 70
0
 10
9.1150069144
 20
15.9750346817
 10
9.0983095152
 20
15.999840025
 10
9.0802803208
 20
16.023130222
 10
9.0609193312
 20
16.0449052729
 10
9.0404256171
 20
16.0650510418
 10
9.0186001079
 20
16.0836816645
 10
8.9948455912
 20
16.1011395485
 10
8.9689629963
 20
16.1175388296
 10
8.9411513939
 20
16.132765372
 10
8.9114107841
 20
16.1468191757
  0
LWPOLYLINE
  5
596
100
AcDbEntity
  8
0
100
AcDbPolyline
 62
7
  6
CONTINUOUS
 90
10
 70
0
 10
9.1150069144
 20
17.4129322447
 10
9.0983095152
 20
17.4377375879
 10
9.0802803208
 20
17.461027785
 10
9.0609193312
 20
17.4828028359
 10
9.0404256171
 20
17.5029486048
 10
9.0186001079
 20
17.5215792275
 10
8.9948455912
 20
17.5390371115
 10
8.9689629963
 20
17.5554363926
 10
8.9411513939
 20
17.570662935
 10
8.9114107841
 20
17.5847167386
  0
LINE
  5
597
100
AcDbEntity
  8
DRAFT
100
AcDbLine
 62
7
  6
CONTINUOUS
 10
10.0
 20
-14.85
 11
9.9848388221
 21
-14.8575800116
  0
LINE
  5
598
100
AcDbEntity
  8
0
100
AcDbLine
 62
7
  6
CONTINUOUS
 10
-7.432179
 20
17.941927
 11
-6.85
 21
18.104146
  0
LINE
  5
599
100
AcDbEntity
  8
0
100
AcDbLine
 62
7
  6
CONTINUOUS
 10
-8.898687
 20
17.544278
 11
-7.6485
 21
17.878303
  0
LWPOLYLINE
  5
59A
100
AcDbEntity
  8
0
100
AcDbPolyline
 62
7
  6
CONTINUOUS
 90
10
 70
0
 10
7.3621714771
 20
19.2166667148
 10
7.2901429878
 20
19.2130131149
 10
7.2248748215
 20
19.2056939604
 10
7.1663669782
 20
19.1947092514
 10
7.1153778327
 20
19.1797559466
 10
7.0711490102
 20
19.1611370873
 10
7.0314053863
 20
19.1397617974
 10
6.9953885862
 20
19.1159331183
 10
6.9638569848
 20
19.0893480088
 10
6.9368105819
 20
19.0600064686
  0
LWPOLYLINE
  5
59B
100
AcDbEntity
  8
0
100
AcDbPolyline
 62
7
  6
CONTINUOUS
 90
10
 70
0
 10
8.5296680182
 20
17.9632784054
 10
8.6134051403
 20
17.9664348385
 10
8.6897333953
 20
17.9731490124
 10
8.7586527834
 20
17.983420927
 10
8.8195813385
 20
17.9976265872
 10
8.8731010266
 20
18.0153899882
 10
8.9209577458
 20
18.0355831154
 10
8.9637334619
 20
18.0578299638
 10
9.000846209
 20
18.0825065384
 10
9.0322959871
 20
18.1096128392
  0
LWPOLYLINE
  5
59C
100
AcDbEntity
  8
0
100
AcDbPolyline
 62
7
  6
CONTINUOUS
 90
10
 70
0
 10
8.5869294599
 20
19.2357541248
 10
8.5532316423
 20
19.2350891965
 10
8.52119817
 20
19.233531189
 10
8.490829043
 20
19.2310801021
 10
8.462163858
 20
19.2276716149
 10
8.4351630183
 20
19.2233700485
 10
8.4097077333
 20
19.2183683657
 10
8.3857584064
 20
19.2127308876
 10
8.3633546342
 20
19.2063932932
 10
8.3424964168
 20
19.1993555824
  0
LWPOLYLINE
  5
59D
100
AcDbEntity
  8
0
100
AcDbPolyline
 62
7
  6
CONTINUOUS
 90
10
 70
0
 10
7.3812586129
 20
17.9950900242
 10
7.4139871665
 20
17.9955170723
 10
7.4450477726
 20
17.9968028671
 10
7.4744404311
 20
17.9989474085
 10
7.5021242096
 20
18.0019619792
 10
7.5281400404
 20
18.0058352966
 10
7.5526107212
 20
18.0105335131
 10
7.5755771843
 20
18.0160453462
 10
7.5969984974
 20
18.0223820784
 10
7.6168746603
 20
18.0295437098
  0
LWPOLYLINE
  5
59E
100
AcDbEntity
  8
0
100
AcDbPolyline
 62
7
  6
CONTINUOUS
 90
10
 70
0
 10
7.7534577608
 20
17.6737900421
 10
7.7064115889
 20
17.6735652138
 10
7.6601891497
 20
17.6728587028
 10
7.6147904433
 20
17.6716705091
 10
7.5701231034
 20
17.6699967663
 10
7.5262794964
 20
17.6678413408
 10
7.4835367208
 20
17.6652158318
 10
7.4419871432
 20
17.6621241058
 10
7.4015383971
 20
17.6585622962
 10
7.3621904825
 20
17.6545304032
  0
LINE
  5
59F
100
AcDbEntity
  8
0
100
AcDbLine
 62
7
  6
CONTINUOUS
 10
8.1892807633
 20
17.6737900421
 11
7.7534577608
 21
17.6737900421
  0
LINE
  5
5A0
100
AcDbEntity
  8
0
100
AcDbLine
 62
7
  6
CONTINUOUS
 10
8.5042185038
 20
17.9632784054
 11
8.5296680182
 21
17.9632784054
  0
LINE
  5
5A1
100
AcDbEntity
  8
0
100
AcDbLine
 62
7
  6
CONTINUOUS
 10
8.5296680182
 20
18.2432230636
 11
8.5042185038
 21
18.2432230636
  0
LINE
  5
5A2
100
AcDbEntity
  8
0
100
AcDbLine
 62
7
  6
CONTINUOUS
 10
7.3844398022
 20
18.9430847093
 11
7.4385200202
 21
18.9430847093
  0
LINE
  5
5A3
100
AcDbEntity
  8
0
100
AcDbLine
 62
7
  6
CONTINUOUS
 10
7.4385200202
 20
19.2166667148
 11
7.3621714771
 21
19.2166667148
  0
LWPOLYLINE
  5
5A4
100
AcDbEntity
  8
0
100
AcDbPolyline
 62
7
  6
CONTINUOUS
 90
10
 70
0
 10
8.6060165957
 20
18.9558094665
 10
8.6475926402
 20
18.9540696655
 10
8.686214518
 20
18.9503404065
 10
8.7218822292
 20
18.9446216897
 10
8.7543828888
 20
18.9367443485
 10
8.7839293818
 20
18.9268775494
 10
8.8111603628
 20
18.9155287918
 10
8.8362887168
 20
18.9028672419
 10
8.8591015589
 20
18.8887237335
 10
8.8795988891
 20
18.8730982664
  0
LWPOLYLINE
  5
5A5
100
AcDbEntity
  8
0
100
AcDbPolyline
 62
7
  6
CONTINUOUS
 90
10
 70
0
 10
7.3653526664
 20
18.2750346825
 10
7.3265756385
 20
18.276741472
 10
7.290755124
 20
18.2804821174
 10
7.2578911229
 20
18.2862566189
 10
7.2283079066
 20
18.2941645252
 10
7.2016812037
 20
18.3041062874
 10
7.1770382004
 20
18.3157832593
 10
7.1540546256
 20
18.329095892
 10
7.1330547504
 20
18.3441437342
 10
7.1140385749
 20
18.3609267861
  0
LWPOLYLINE
  5
5A6
100
AcDbEntity
  8
0
100
AcDbPolyline
 62
7
  6
CONTINUOUS
 90
10
 70
0
 10
8.5614871466
 20
17.4034961622
 10
8.5928949382
 20
17.400874001
 10
8.6228756726
 20
17.3976963421
 10
8.6514293497
 20
17.3939631857
 10
8.6784218561
 20
17.3896485653
 10
8.7039873053
 20
17.3847784472
 10
8.7285280372
 20
17.3794307307
 10
8.7521781653
 20
17.3736313821
 10
8.7748035761
 20
17.367354435
 10
8.7964042696
 20
17.3605998894
  0
LWPOLYLINE
  5
5A7
100
AcDbEntity
  8
0
100
AcDbPolyline
 62
7
  6
CONTINUOUS
 90
10
 70
0
 10
8.5963380455
 20
17.6563058632
 10
8.5572279209
 20
17.6597353445
 10
8.5166000594
 20
17.6628124463
 10
8.4744544611
 20
17.6655371686
 10
8.4308069642
 20
17.6679352704
 10
8.3856417304
 20
17.6699809927
 10
8.3389112449
 20
17.6715970587
 10
8.2905996694
 20
17.6727577095
 10
8.2407228422
 20
17.673488704
 10
8.1892807633
 20
17.6737900421
  0
LINE
  5
5A8
100
AcDbEntity
  8
RACCORDO
100
AcDbLine
 62
7
  6
CONTINUOUS
 10
-4.65
 20
20.3913501688
 11
-4.6307780443
 21
20.3852199614
  0
LWPOLYLINE
  5
5A9
100
AcDbEntity
  8
0
100
AcDbPolyline
 62
7
  6
CONTINUOUS
 90
10
 70
0
 10
7.2090232314
 20
16.851599031
 10
7.1863059169
 20
16.859834298
 10
7.1652496643
 20
16.8686661991
 10
7.1458544738
 20
16.8780947344
 10
7.1281657459
 20
16.8881901958
 10
7.11213808
 20
16.8988822913
 10
7.0976352742
 20
16.9099601453
 10
7.0846119278
 20
16.9213534661
 10
7.0731134416
 20
16.9331325455
 10
7.0631398155
 20
16.9452973834
  0
LWPOLYLINE
  5
5AA
100
AcDbEntity
  8
0
100
AcDbPolyline
 62
7
  6
CONTINUOUS
 90
10
 70
0
 10
8.7964042696
 20
15.9227023264
 10
8.8190054069
 20
15.914419463
 10
8.8398435394
 20
15.9056187691
 10
8.858918667
 20
15.8963002449
 10
8.8761228869
 20
15.886398952
 10
8.8915641019
 20
15.8759798286
 10
8.9055660211
 20
15.8652376898
 10
8.9182365472
 20
15.8542374737
 10
8.9294677775
 20
15.8429142421
 10
8.9392597119
 20
15.8312679949
  0
LWPOLYLINE
  5
5AB
100
AcDbEntity
  8
0
100
AcDbPolyline
 62
7
  6
CONTINUOUS
 90
10
 70
0
 10
8.7964042696
 20
17.3605998894
 10
8.8190054069
 20
17.352317026
 10
8.8398435394
 20
17.3435163321
 10
8.858918667
 20
17.3341978079
 10
8.8761228869
 20
17.3242965149
 10
8.8915641019
 20
17.3138773916
 10
8.9055660211
 20
17.3031352528
 10
8.9182365472
 20
17.2921350367
 10
8.9294677775
 20
17.2808118051
 10
8.9392597119
 20
17.2691655579
  0
LWPOLYLINE
  5
5AC
100
AcDbEntity
  8
0
100
AcDbPolyline
 62
7
  6
CONTINUOUS
 90
10
 70
0
 10
8.9114107841
 20
16.1468191757
 10
8.8836492503
 20
16.1580980354
 10
8.8541303774
 20
16.1685601065
 10
8.8228541653
 20
16.1782053892
 10
8.7898930107
 20
16.1870530129
 10
8.755174517
 20
16.1950838482
 10
8.7184814943
 20
16.2022405059
 10
8.6797415463
 20
16.2085038563
 10
8.6390270693
 20
16.2138930293
 10
8.5963380635
 20
16.2184080247
  0
LWPOLYLINE
  5
5AD
100
AcDbEntity
  8
0
100
AcDbPolyline
 62
7
  6
CONTINUOUS
 90
10
 70
0
 10
7.1302045346
 20
18.0402181047
 10
7.1525181782
 20
18.0309228722
 10
7.1761651633
 20
18.0226802884
 10
7.2011454898
 20
18.0154903533
 10
7.2273765284
 20
18.0093295982
 10
7.2549409084
 20
18.0042214918
 10
7.284086518
 20
18.0002364406
 10
7.3148959867
 20
17.9973979133
 10
7.347286685
 20
17.9956824412
 10
7.3812586129
 20
17.9950900242
  0
LWPOLYLINE
  5
5AE
100
AcDbEntity
  8
0
100
AcDbPolyline
 62
7
  6
CONTINUOUS
 90
10
 70
0
 10
7.0726832509
 20
16.6367220566
 10
7.0986069918
 20
16.6253053278
 10
7.1264011298
 20
16.6145815895
 10
7.1560656647
 20
16.6045508417
 10
7.1875426329
 20
16.5951592193
 10
7.2208899981
 20
16.5864605874
 10
7.2562816517
 20
16.5786165413
 10
7.2937755575
 20
16.5716809461
 10
7.3333137517
 20
16.5655999368
 10
7.3748962343
 20
16.5603735134
  0
LWPOLYLINE
  5
5AF
100
AcDbEntity
  8
0
100
AcDbPolyline
 62
7
  6
CONTINUOUS
 90
10
 70
0
 10
7.1140385749
 20
18.3609267861
 10
7.096592812
 20
18.3787051769
 10
7.0808141381
 20
18.3988377082
 10
7.0667025535
 20
18.4213243801
 10
7.054082417
 20
18.445922242
 10
7.0431293696
 20
18.4728742444
 10
7.0343703341
 20
18.5029092385
 10
7.0279809516
 20
18.5362701748
 10
7.0237855809
 20
18.5727141027
 10
7.0217842221
 20
18.6122410223
  0
LWPOLYLINE
  5
5B0
100
AcDbEntity
  8
RACCORDO
100
AcDbPolyline
 62
7
  6
CONTINUOUS
 90
13
 70
0
 10
8.9171572875
 20
22.2052513517
 10
8.9281530998
 20
22.2073212035
 10
8.9390578891
 20
22.2129313867
 10
8.9495569053
 20
22.2218626086
 10
8.9592391981
 20
22.233799105
 10
8.9679997622
 20
22.2484570679
 10
8.9759947193
 20
22.2656909618
 10
8.9830426107
 20
22.2852605093
 10
8.988905375
 20
22.3067922144
 10
8.9936390096
 20
22.3299897125
 10
8.997169411
 20
22.3544983683
 10
8.9993136678
 20
22.3798940053
 10
9.0
 20
22.4057549444
  0
LINE
  5
5B1
100
AcDbEntity
  8
DRAFT
100
AcDbLine
 62
7
  6
CONTINUOUS
 10
-4.6825894025
 20
19.8
 11
-4.3340207461
 21
19.8
  0
LINE
  5
5B2
100
AcDbEntity
  8
DRAFT
100
AcDbLine
 62
7
  6
CONTINUOUS
 10
4.3340207461
 20
19.8
 11
4.6825894025
 21
19.8
  0
LINE
  5
5B3
100
AcDbEntity
  8
RACCORDO
100
AcDbLine
 62
7
  6
CONTINUOUS
 10
4.6825894025
 20
19.8205195626
 11
-4.6825894025
 21
19.8205195626
  0
LINE
  5
5B4
100
AcDbEntity
  8
RACCORDO
100
AcDbLine
 62
250
  6
CONTINUOUS
 10
4.6825894025
 20
19.9705138511
 11
-4.6825894025
 21
19.9705138511
  0
LINE
  5
5B5
100
AcDbEntity
  8
RACCORDO
100
AcDbLine
 62
250
  6
CONTINUOUS
 10
4.6307780443
 20
20.8692063748
 11
-4.6307780443
 21
20.8692063748
  0
LINE
  5
5B6
100
AcDbEntity
  8
RACCORDO
100
AcDbLine
 62
250
  6
CONTINUOUS
 10
4.3312899524
 20
21.2196610069
 11
-4.3312899524
 21
21.2196610069
  0
LWPOLYLINE
  5
5B7
100
AcDbEntity
  8
RACCORDO
100
AcDbPolyline
 62
7
  6
CONTINUOUS
 90
13
 70
0
 10
-8.9171572875
 20
22.2052513517
 10
-8.9286221647
 20
22.2073205989
 10
-8.9394230253
 20
22.212932858
 10
-8.9495598694
 20
22.2218657119
 10
-8.9591365094
 20
22.233798277
 10
-8.9680491329
 20
22.2484460915
 10
-8.9759863027
 20
22.2656702899
 10
-8.9829368702
 20
22.2852486182
 10
-8.988911984
 20
22.3067937276
 10
-8.993633653
 20
22.3299585464
 10
-8.9970092135
 20
22.3543632401
 10
-8.9991313291
 20
22.3795976142
 10
-9.0
 20
22.4052437364
  0
LWPOLYLINE
  5
5B8
100
AcDbEntity
  8
RACCORDO
100
AcDbPolyline
 62
7
  6
CONTINUOUS
 90
10
 70
0
 10
4.3307894673
 20
20.54638706
 10
4.3677795536
 20
20.5393243154
 10
4.4038228261
 20
20.5320064146
 10
4.4383159228
 20
20.5240049394
 10
4.4705514359
 20
20.5149936793
 10
4.5002356073
 20
20.504587965
 10
4.527380719
 20
20.4922682596
 10
4.5516662628
 20
20.4776308998
 10
4.5725763773
 20
20.4604856831
 10
4.5898369388
 20
20.4406379675
  0
LWPOLYLINE
  5
5B9
100
AcDbEntity
  8
0
100
AcDbPolyline
 62
7
  6
CONTINUOUS
 90
10
 70
0
 10
8.9114107841
 20
17.5847167386
 10
8.8836492389
 20
17.595995633
 10
8.8541303585
 20
17.6064577461
 10
8.822854143
 20
17.6161030781
 10
8.789892991
 20
17.6249507699
 10
8.755174504
 20
17.6329816804
 10
8.7184814855
 20
17.6401383873
 10
8.6797415369
 20
17.6464017496
 10
8.6390270569
 20
17.6517909083
 10
8.5963380455
 20
17.6563058632
  0
LWPOLYLINE
  5
5BA
100
AcDbEntity
  8
0
100
AcDbPolyline
 62
7
  6
CONTINUOUS
 90
10
 70
0
 10
8.8795988891
 20
18.8730982664
 10
8.8985757214
 20
18.8564087806
 10
8.915665213
 20
18.8367593128
 10
8.9308673639
 20
18.8141498628
 10
8.9443388537
 20
18.7889676593
 10
8.9559230027
 20
18.7608254737
 10
8.9651497718
 20
18.7285616205
 10
8.9718624814
 20
18.6917888711
 10
8.976217811
 20
18.6508944541
 10
8.9782157607
 20
18.6058783695
  0
LINE
  5
5BB
100
AcDbEntity
  8
RACCORDO
100
AcDbLine
 62
7
  6
CONTINUOUS
 10
8.0
 20
22.2
 11
7.9866280426
 21
22.2133719574
  0
LWPOLYLINE
  5
5BC
100
AcDbEntity
  8
0
100
AcDbPolyline
 62
7
  6
CONTINUOUS
 90
10
 70
0
 10
9.0450207445
 20
19.0607885762
 10
9.0129107878
 20
19.0942394376
 10
8.976630377
 20
19.1243795954
 10
8.9361795121
 20
19.1512090495
 10
8.8922606126
 20
19.1749836101
 10
8.844171259
 20
19.1954474672
 10
8.7898041928
 20
19.2118331902
 10
8.7284569944
 20
19.2238849691
 10
8.6608320835
 20
19.231858614
 10
8.5869294599
 20
19.2357541248
  0
LWPOLYLINE
  5
5BD
100
AcDbEntity
  8
0
100
AcDbPolyline
 62
250
  6
CONTINUOUS
 90
4
 70
0
 10
5.1401942021
 20
-24.8560600231
 10
5.1258078547
 20
-24.8671623524
 10
5.1101931375
 20
-24.8783805697
 10
5.0934454673
 20
-24.8897223304
  0
LWPOLYLINE
  5
5BE
100
AcDbEntity
  8
0
100
AcDbPolyline
 62
250
  6
CONTINUOUS
 90
13
 70
0
 10
5.1839794701
 20
-24.6924578032
 10
5.1717268846
 20
-24.7013508265
 10
5.1560944669
 20
-24.7099739966
 10
5.137326606
 20
-24.7179707135
 10
5.1156350511
 20
-24.7252933247
 10
5.0912760698
 20
-24.7319894825
 10
5.0646756809
 20
-24.7378455434
 10
5.0361622342
 20
-24.7428165501
 10
5.0060850927
 20
-24.74694746
 10
4.9749458642
 20
-24.7501595019
 10
4.9431634425
 20
-24.7524264188
 10
4.9110969208
 20
-24.7537744677
 10
4.8791468291
 20
-24.7542036487
  0
LWPOLYLINE
  5
5BF
100
AcDbEntity
  8
0
100
AcDbPolyline
 62
7
  6
CONTINUOUS
 90
49
 70
0
 10
4.0407988352
 20
23.4491183268
 10
4.0530893641
 20
23.4522365525
 10
4.0653414368
 20
23.4568429266
 10
4.0775550533
 20
23.4629374489
 10
4.0896883211
 20
23.4708449431
 10
4.1017831326
 20
23.4802405856
 10
4.1139651653
 20
23.490149906
 10
4.1262773708
 20
23.5002663451
 10
4.1386767974
 20
23.5108964621
 10
4.1511602679
 20
23.521985465
 10
4.1637512035
 20
23.5334326546
 10
4.1764261829
 20
23.5453387301
 10
4.1891117649
 20
23.5579509969
 10
4.2018240361
 20
23.5712513007
 10
4.2145469099
 20
23.5852577957
 10
4.2271586851
 20
23.60027225
 10
4.2396739018
 20
23.6163489406
 10
4.25207802
 20
23.6334335905
 10
4.2642057186
 20
23.6516651371
 10
4.2760770743
 20
23.6710727207
 10
4.2876720104
 20
23.691627201
 10
4.298764976
 20
23.7133800943
 10
4.3093798974
 20
23.7363456178
 10
4.3194928483
 20
23.7605095542
 10
4.3288064993
 20
23.7858807694
 10
4.3373244031
 20
23.8124357818
 10
4.3450430071
 20
23.840198073
 10
4.3516543232
 20
23.8692469525
 10
4.3571708401
 20
23.8995961842
 10
4.3615800692
 20
23.9312320043
 10
4.364536557
 20
23.9641924319
 10
4.3660931464
 20
23.9985201871
 10
4.3661969944
 20
24.0341725499
 10
4.3643441184
 20
24.0710593786
 10
4.3607189564
 20
24.1092332723
 10
4.3551370703
 20
24.148641632
 10
4.3465411639
 20
24.1890365189
 10
4.3349924886
 20
24.2305939642
 10
4.320429793
 20
24.2731379368
 10
4.301612026
 20
24.3158924038
 10
4.2777307027
 20
24.3596351051
 10
4.249594308
 20
24.4035883008
 10
4.2183872464
 20
24.4446427386
 10
4.1836793753
 20
24.4822495012
 10
4.1459008373
 20
24.5169575059
 10
4.1075264641
 20
24.5473042516
 10
4.0693811997
 20
24.572802238
 10
4.0306401002
 20
24.5939389655
 10
3.9913031656
 20
24.6107144339
  0
LWPOLYLINE
  5
5C0
100
AcDbEntity
  8
RACCORDO
100
AcDbPolyline
 62
250
  6
CONTINUOUS
 90
13
 70
0
 10
-4.334364846
 20
21.584353423
 10
-4.373520125
 20
21.5817841407
 10
-4.4120053612
 20
21.5741262487
 10
-4.4491621123
 20
21.5615108159
 10
-4.4843546878
 20
21.5441537208
 10
-4.516980986
 20
21.5223519738
 10
-4.5464828041
 20
21.4964786504
 10
-4.5723554414
 20
21.4669764671
 10
-4.5941563101
 20
21.4343502032
 10
-4.6115124799
 20
21.3991580958
 10
-4.6241270802
 20
21.362002259
 10
-4.6317843709
 20
21.3235183775
 10
-4.634353423
 20
21.284364846
  0
LWPOLYLINE
  5
5C1
100
AcDbEntity
  8
RACCORDO
100
AcDbPolyline
 62
250
  6
CONTINUOUS
 90
13
 70
0
 10
-4.3312899524
 20
21.2196610069
 10
-4.3702935894
 20
21.21770608
 10
-4.4086349861
 20
21.2122148058
 10
-4.4456632791
 20
21.2032804361
 10
-4.4807499181
 20
21.1910546652
 10
-4.5132992975
 20
21.1757450649
 10
-4.5427588759
 20
21.1576115708
 10
-4.5686286067
 20
21.1369620422
 10
-4.5904694037
 20
21.1141470337
 10
-4.6079105677
 20
21.0895538651
 10
-4.6206561007
 20
21.0636000263
 10
-4.6284897218
 20
21.0367260869
 10
-4.6312785293
 20
21.0093882276
  0
LWPOLYLINE
  5
5C2
100
AcDbEntity
  8
RACCORDO
100
AcDbPolyline
 62
250
  6
CONTINUOUS
 90
13
 70
0
 10
-4.3331351886
 20
21.4348270936
 10
-4.3721380365
 20
21.4328722283
 10
-4.4104788056
 20
21.4273811373
 10
-4.447506656
 20
21.4184470327
 10
-4.4825930348
 20
21.4062215722
 10
-4.5151423458
 20
21.3909122847
 10
-4.5446020599
 20
21.3727790474
 10
-4.5704720944
 20
21.3521296746
 10
-4.5923133018
 20
21.3293146922
 10
-4.6097549246
 20
21.3047213878
 10
-4.6225008888
 20
21.2787672362
 10
-4.6303348298
 20
21.2518928126
 10
-4.6331237655
 20
21.2245543143
  0
LINE
  5
5C3
100
AcDbEntity
  8
RACCORDO
100
AcDbLine
 62
250
  6
CONTINUOUS
 10
-8.9171572875
 20
22.2052513517
 11
-7.9866280426
 21
22.2133719574
  0
LINE
  5
5C4
100
AcDbEntity
  8
RACCORDO
100
AcDbLine
 62
250
  6
CONTINUOUS
 10
-9.0
 20
22.4057549444
 11
-7.9841533463
 21
22.4146201039
  0
LINE
  5
5C5
100
AcDbEntity
  8
RACCORDO
100
AcDbLine
 62
250
  6
CONTINUOUS
 10
9.0
 20
22.5942450556
 11
7.9841533463
 21
22.5853798961
  0
LINE
  5
5C6
100
AcDbEntity
  8
RACCORDO
100
AcDbLine
 62
250
  6
CONTINUOUS
 10
8.9171572875
 20
22.7947486483
 11
7.9866280426
 21
22.7866280426
  0
LINE
  5
5C7
100
AcDbEntity
  8
RACCORDO
100
AcDbLine
 62
7
  6
CONTINUOUS
 10
7.5997045347
 20
21.4122251268
 11
7.8002954653
 21
21.4122251268
  0
LINE
  5
5C8
100
AcDbEntity
  8
RACCORDO
100
AcDbLine
 62
7
  6
CONTINUOUS
 10
-7.5997045347
 20
21.4122251268
 11
-7.8002954653
 21
21.4122251268
  0
LINE
  5
5C9
100
AcDbEntity
  8
RACCORDO
100
AcDbLine
 62
250
  6
CONTINUOUS
 10
-4.3331351886
 20
21.4348270936
 11
4.3331351886
 21
21.4348270936
  0
LINE
  5
5CA
100
AcDbEntity
  8
RACCORDO
100
AcDbLine
 62
7
  6
CONTINUOUS
 10
-4.334364846
 20
21.584353423
 11
4.334364846
 21
21.584353423
  0
LINE
  5
5CB
100
AcDbEntity
  8
RACCORDO
100
AcDbLine
 62
7
  6
CONTINUOUS
 10
4.3500114231
 20
21.6
 11
-4.3500114231
 21
21.6
  0
LINE
  5
5CC
100
AcDbEntity
  8
RACCORDO
100
AcDbLine
 62
250
  6
CONTINUOUS
 10
7.6169857937
 20
21.7613941852
 11
7.7830142063
 21
21.7613941852
  0
LINE
  5
5CD
100
AcDbEntity
  8
RACCORDO
100
AcDbLine
 62
250
  6
CONTINUOUS
 10
-7.6169857937
 20
21.7613941852
 11
-7.7830142063
 21
21.7613941852
  0
LINE
  5
5CE
100
AcDbEntity
  8
DRAFT
100
AcDbLine
 62
7
  6
CONTINUOUS
 10
-9.9860359481
 20
22.2
 11
-8.0
 21
22.2
  0
LINE
  5
5CF
100
AcDbEntity
  8
DRAFT
100
AcDbLine
 62
7
  6
CONTINUOUS
 10
9.9860359481
 20
22.2
 11
8.0
 21
22.2
  0
LINE
  5
5D0
100
AcDbEntity
  8
RACCORDO
100
AcDbLine
 62
7
  6
CONTINUOUS
 10
-9.9965394515
 20
22.2052513517
 11
-8.9171572875
 21
22.2052513517
  0
LINE
  5
5D1
100
AcDbEntity
  8
RACCORDO
100
AcDbLine
 62
7
  6
CONTINUOUS
 10
8.9171572875
 20
22.2052513517
 11
9.9965394515
 21
22.2052513517
  0
LINE
  5
5D2
100
AcDbEntity
  8
0
100
AcDbLine
 62
7
  6
CONTINUOUS
 10
-3.712456
 20
22.362007
 11
-3.289406
 21
22.362007
  0
LINE
  5
5D3
100
AcDbEntity
  8
0
100
AcDbLine
 62
7
  6
CONTINUOUS
 10
-2.372012
 20
22.362007
 11
-1.891956
 21
22.362007
  0
LINE
  5
5D4
100
AcDbEntity
  8
0
100
AcDbLine
 62
7
  6
CONTINUOUS
 10
-1.633526
 20
22.362007
 11
-1.174268
 21
22.362007
  0
LINE
  5
5D5
100
AcDbEntity
  8
0
100
AcDbLine
 62
7
  6
CONTINUOUS
 10
-0.507508
 20
22.362007
 11
-0.44018
 21
22.362007
  0
LINE
  5
5D6
100
AcDbEntity
  8
0
100
AcDbLine
 62
7
  6
CONTINUOUS
 10
0.229236
 20
22.362007
 11
0.698858
 21
22.362007
  0
LINE
  5
5D7
100
AcDbEntity
  8
0
100
AcDbLine
 62
7
  6
CONTINUOUS
 10
0.77424
 20
22.362007
 11
1.249088
 21
22.362007
  0
LINE
  5
5D8
100
AcDbEntity
  8
0
100
AcDbLine
 62
7
  6
CONTINUOUS
 10
2.15967
 20
22.362007
 11
2.66563
 21
22.362007
  0
LINE
  5
5D9
100
AcDbEntity
  8
0
100
AcDbLine
 62
7
  6
CONTINUOUS
 10
2.8065975821
 20
22.3620071664
 11
3.2847223015
 21
22.3620071664
  0
LINE
  5
5DA
100
AcDbEntity
  8
0
100
AcDbLine
 62
7
  6
CONTINUOUS
 10
4.0198623394
 20
22.3620071664
 11
4.4816207207
 21
22.3620071664
  0
LINE
  5
5DB
100
AcDbEntity
  8
RACCORDO
100
AcDbLine
 62
250
  6
CONTINUOUS
 10
-10.0
 20
22.4052437364
 11
-9.0
 21
22.4052437364
  0
LINE
  5
5DC
100
AcDbEntity
  8
RACCORDO
100
AcDbLine
 62
250
  6
CONTINUOUS
 10
9.0
 20
22.4052437364
 11
10.0
 21
22.4052437364
  0
LINE
  5
5DD
100
AcDbEntity
  8
RACCORDO
100
AcDbLine
 62
250
  6
CONTINUOUS
 10
10.0
 20
22.5947562636
 11
9.0
 21
22.5947562636
  0
LINE
  5
5DE
100
AcDbEntity
  8
RACCORDO
100
AcDbLine
 62
250
  6
CONTINUOUS
 10
-9.0
 20
22.5947562636
 11
-10.0
 21
22.5947562636
  0
LINE
  5
5DF
100
AcDbEntity
  8
RACCORDO
100
AcDbLine
 62
7
  6
CONTINUOUS
 10
9.9965394515
 20
22.7947486483
 11
8.9171572875
 21
22.7947486483
  0
LINE
  5
5E0
100
AcDbEntity
  8
RACCORDO
100
AcDbLine
 62
7
  6
CONTINUOUS
 10
-8.9171572875
 20
22.7947486483
 11
-9.9965394515
 21
22.7947486483
  0
LINE
  5
5E1
100
AcDbEntity
  8
DRAFT
100
AcDbLine
 62
7
  6
CONTINUOUS
 10
-9.9860359481
 20
22.8
 11
-8.0
 21
22.8
  0
LINE
  5
5E2
100
AcDbEntity
  8
DRAFT
100
AcDbLine
 62
7
  6
CONTINUOUS
 10
9.9860359481
 20
22.8
 11
8.0
 21
22.8
  0
LINE
  5
5E3
100
AcDbEntity
  8
0
100
AcDbLine
 62
7
  6
CONTINUOUS
 10
1.381553
 20
22.821127
 11
2.03531
 21
22.821127
  0
LINE
  5
5E4
100
AcDbEntity
  8
0
100
AcDbLine
 62
7
  6
CONTINUOUS
 10
1.939371
 20
23.176392
 11
1.479751
 21
23.176392
  0
LINE
  5
5E5
100
AcDbEntity
  8
RACCORDO
100
AcDbLine
 62
250
  6
CONTINUOUS
 10
7.6169857937
 20
23.2386058148
 11
7.7830142063
 21
23.2386058148
  0
LINE
  5
5E6
100
AcDbEntity
  8
RACCORDO
100
AcDbLine
 62
250
  6
CONTINUOUS
 10
-7.6169857937
 20
23.2386058148
 11
-7.7830142063
 21
23.2386058148
  0
LINE
  5
5E7
100
AcDbEntity
  8
0
100
AcDbLine
 62
7
  6
CONTINUOUS
 10
3.2847223015
 20
23.2620177973
 11
3.5421170294
 21
23.2620177973
  0
LINE
  5
5E8
100
AcDbEntity
  8
RACCORDO
100
AcDbLine
 62
250
  6
CONTINUOUS
 10
7.9866280426
 20
22.2133719574
 11
8.9171572875
 21
22.2052513517
  0
LINE
  5
5E9
100
AcDbEntity
  8
RACCORDO
100
AcDbLine
 62
250
  6
CONTINUOUS
 10
7.9841533463
 20
22.4146201039
 11
9.0
 21
22.4057549444
  0
LINE
  5
5EA
100
AcDbEntity
  8
RACCORDO
100
AcDbLine
 62
250
  6
CONTINUOUS
 10
-7.9841533463
 20
22.5853798961
 11
-9.0
 21
22.5942450556
  0
LINE
  5
5EB
100
AcDbEntity
  8
RACCORDO
100
AcDbLine
 62
250
  6
CONTINUOUS
 10
-7.9866280426
 20
22.7866280426
 11
-8.9171572875
 21
22.7947486483
  0
LWPOLYLINE
  5
5EC
100
AcDbEntity
  8
RACCORDO
100
AcDbPolyline
 62
250
  6
CONTINUOUS
 90
13
 70
0
 10
4.3312899524
 20
21.2196610069
 10
4.3702928003
 20
21.2177061416
 10
4.4086335694
 20
21.2122150506
 10
4.4456614198
 20
21.2032809461
 10
4.4807477986
 20
21.1910554856
 10
4.5132971096
 20
21.175746198
 10
4.5427568237
 20
21.1576129607
 10
4.5686268582
 20
21.1369635879
 10
4.5904680656
 20
21.1141486056
 10
4.6079096884
 20
21.0895553012
 10
4.6206556526
 20
21.0636011495
 10
4.6284895936
 20
21.036726726
 10
4.6312785293
 20
21.0093882276
  0
LWPOLYLINE
  5
5ED
100
AcDbEntity
  8
RACCORDO
100
AcDbPolyline
 62
250
  6
CONTINUOUS
 90
13
 70
0
 10
4.3331351886
 20
21.4348270936
 10
4.3721388526
 20
21.4328721343
 10
4.4104802707
 20
21.4273808288
 10
4.4475085788
 20
21.4184464304
 10
4.4825952267
 20
21.4062206343
 10
4.5151446084
 20
21.3909110142
 10
4.5446041821
 20
21.3727775079
 10
4.5704739024
 20
21.352127977
 10
4.5923146853
 20
21.3293129765
 10
4.6097558336
 20
21.3047198269
 10
4.6225013519
 20
21.2787660185
 10
4.6303349622
 20
21.2518921209
 10
4.6331237655
 20
21.2245543143
  0
LWPOLYLINE
  5
5EE
100
AcDbEntity
  8
RACCORDO
100
AcDbPolyline
 62
250
  6
CONTINUOUS
 90
13
 70
0
 10
4.334364846
 20
21.584353423
 10
4.3735193255
 20
21.5817842458
 10
4.4120039258
 20
21.574126633
 10
4.4491602284
 20
21.5615115957
 10
4.4843525404
 20
21.5441549598
 10
4.5169787698
 20
21.5223536733
 10
4.5464807269
 20
21.4964807264
 10
4.5723536738
 20
21.4669787693
 10
4.5941549601
 20
21.43435254
 10
4.6115115959
 20
21.399160228
 10
4.6241266331
 20
21.3620039254
 10
4.6317842459
 20
21.3235193253
 10
4.634353423
 20
21.284364846
  0
LWPOLYLINE
  5
5EF
100
AcDbEntity
  8
0
100
AcDbPolyline
 62
250
  6
CONTINUOUS
 90
3
 70
0
 10
5.0934454673
 20
-24.8897223304
 10
5.0755957105
 20
-24.9010312558
 10
5.0650079729
 20
-24.9073657264
  0
LWPOLYLINE
  5
5F0
100
AcDbEntity
  8
RACCORDO
100
AcDbPolyline
 62
7
  6
CONTINUOUS
 90
13
 70
0
 10
-8.9171572875
 20
22.7947486483
 10
-8.9281530998
 20
22.7926787965
 10
-8.9390578891
 20
22.7870686133
 10
-8.9495569053
 20
22.7781373914
 10
-8.9592391981
 20
22.766200895
 10
-8.9679997622
 20
22.7515429321
 10
-8.9759947193
 20
22.7343090382
 10
-8.9830426107
 20
22.7147394907
 10
-8.988905375
 20
22.6932077856
 10
-8.9936390096
 20
22.6700102875
 10
-8.997169411
 20
22.6455016317
 10
-8.9993136678
 20
22.6201059947
 10
-9.0
 20
22.5942450556
  0
LWPOLYLINE
  5
5F1
100
AcDbEntity
  8
0
100
AcDbPolyline
 62
7
  6
CONTINUOUS
 90
10
 70
0
 10
3.2688043561
 20
24.2700048698
 10
3.3110954132
 20
24.2770442237
 10
3.3532466498
 20
24.282706857
 10
3.3952580661
 20
24.2869927695
 10
3.4371113329
 20
24.2899113772
 10
3.4788247794
 20
24.2914532641
 10
3.5204533922
 20
24.291590183
 10
3.5620155004
 20
24.290312718
 10
3.6034927749
 20
24.287630285
 10
3.6448852159
 20
24.2835428839
  0
LINE
  5
5F2
100
AcDbEntity
  8
RACCORDO
100
AcDbLine
 62
7
  6
CONTINUOUS
 10
7.5997045347
 20
23.5877748732
 11
7.8002954653
 21
23.5877748732
  0
LINE
  5
5F3
100
AcDbEntity
  8
RACCORDO
100
AcDbLine
 62
7
  6
CONTINUOUS
 10
-7.5997045347
 20
23.5877748732
 11
-7.8002954653
 21
23.5877748732
  0
LINE
  5
5F4
100
AcDbEntity
  8
0
100
AcDbLine
 62
7
  6
CONTINUOUS
 10
3.543151782
 20
23.638667771
 11
3.2688043561
 21
23.638667771
  0
LINE
  5
5F5
100
AcDbEntity
  8
0
100
AcDbLine
 62
7
  6
CONTINUOUS
 10
1.959997
 20
24.661797
 11
1.4956
 21
24.661797
  0
LINE
  5
5F6
100
AcDbEntity
  8
0
100
AcDbLine
 62
7
  6
CONTINUOUS
 10
0.483802
 20
24.661797
 11
0.008833
 21
24.661797
  0
LINE
  5
5F7
100
AcDbEntity
  8
0
100
AcDbLine
 62
7
  6
CONTINUOUS
 10
-0.946209
 20
24.661797
 11
-1.425869
 21
24.661797
  0
LINE
  5
5F8
100
AcDbEntity
  8
0
100
AcDbLine
 62
7
  6
CONTINUOUS
 10
-2.550162
 20
24.661797
 11
-3.02989
 21
24.661797
  0
LINE
  5
5F9
100
AcDbEntity
  8
0
100
AcDbLine
 62
7
  6
CONTINUOUS
 10
-3.920045
 20
24.661797
 11
-4.441534
 21
24.661797
  0
LINE
  5
5FA
100
AcDbEntity
  8
0
100
AcDbLine
 62
7
  6
CONTINUOUS
 10
-1.891956
 20
24.661935
 11
-2.372012
 21
24.661935
  0
LINE
  5
5FB
100
AcDbEntity
  8
DRAFT
100
AcDbLine
 62
7
  6
CONTINUOUS
 10
9.9860359481
 20
25.1384899382
 11
-9.9860359481
 21
25.1384899382
  0
LINE
  5
5FC
100
AcDbEntity
  8
DRAFT
100
AcDbLine
 62
7
  6
CONTINUOUS
 10
10.0
 20
25.1524539902
 11
-10.0
 21
25.1524539902
  0
LWPOLYLINE
  5
5FD
100
AcDbEntity
  8
0
100
AcDbPolyline
 62
7
  6
CONTINUOUS
 90
13
 70
0
 10
3.5421170294
 20
23.2620177973
 10
3.5713983047
 20
23.2605490162
 10
3.5994692945
 20
23.2563069004
 10
3.6263299988
 20
23.2492914499
 10
3.6519708494
 20
23.2395549885
 10
3.6764014145
 20
23.2270451924
 10
3.6996503989
 20
23.2116050902
 10
3.7218919267
 20
23.1930984831
 10
3.7429518737
 20
23.17166157
 10
3.7623365727
 20
23.1475459758
 10
3.7798814677
 20
23.1208355755
 10
3.7957511146
 20
23.0914464942
 10
3.8099455134
 20
23.0593787318
  0
LWPOLYLINE
  5
5FE
100
AcDbEntity
  8
RACCORDO
100
AcDbPolyline
 62
7
  6
CONTINUOUS
 90
13
 70
0
 10
8.9171572875
 20
22.7947486483
 10
8.9286221647
 20
22.7926794011
 10
8.9394230253
 20
22.787067142
 10
8.9495598694
 20
22.7781342881
 10
8.9591365094
 20
22.766201723
 10
8.9680491329
 20
22.7515539085
 10
8.9759863027
 20
22.7343297101
 10
8.9829368702
 20
22.7147513818
 10
8.988911984
 20
22.6932062724
 10
8.993633653
 20
22.6700414536
 10
8.9970092135
 20
22.6456367599
 10
8.9991313291
 20
22.6204023858
 10
9.0
 20
22.5947562636
  0
LWPOLYLINE
  5
5FF
100
AcDbEntity
  8
0
100
AcDbPolyline
 62
7
  6
CONTINUOUS
 90
13
 70
0
 10
3.6448852159
 20
24.2835428839
 10
3.6846205802
 20
24.2760398797
 10
3.7215067938
 20
24.2651446595
 10
3.7555438565
 20
24.2508572232
 10
3.7868965227
 20
24.2330064058
 10
3.8154000381
 20
24.2117633723
 10
3.8405601401
 20
24.1876416184
 10
3.8623698945
 20
24.1603467856
 10
3.8808362355
 20
24.1301732323
 10
3.8954857026
 20
24.09851753
 10
3.9061604757
 20
24.0658452021
 10
3.9130183749
 20
24.0316907252
 10
3.9160594002
 20
23.9960540991
  0
LWPOLYLINE
  5
600
100
AcDbEntity
  8
0
100
AcDbPolyline
 62
7
  6
CONTINUOUS
 90
13
 70
0
 10
3.9913031656
 20
24.6107144339
 10
3.9132496306
 20
24.6344430855
 10
3.8311335991
 20
24.6538736223
 10
3.7449550713
 20
24.6690060443
 10
3.6544859667
 20
24.6796019892
 10
3.5599543658
 20
24.6858998193
 10
3.4620445091
 20
24.6886146216
 10
3.3609256952
 20
24.6878426244
 10
3.2564286255
 20
24.6834875995
 10
3.1487296448
 20
24.675975949
 10
3.0378875349
 20
24.665449807
 10
2.923843514
 20
24.6517670395
 10
2.8065975821
 20
24.6349276465
  0
LINE
  5
601
100
AcDbEntity
  8
RACCORDO
100
AcDbLine
 62
7
  6
CONTINUOUS
 10
10.5530366787
 20
26.3528653412
 11
-10.5530366787
 21
26.3528653412
  0
ARC
  5
602
100
AcDbEntity
  8
DRAFT
100
AcDbCircle
 62
7
  6
CONTINUOUS
 10
-9.5
 20
-11.75
 40
0.3
100
AcDbArc
 50
19.4712206345
 51
160.5287793655
  0
ARC
  5
603
100
AcDbEntity
  8
DRAFT
100
AcDbCircle
 62
7
  6
CONTINUOUS
 10
-9.5
 20
-14.75
 40
0.3
100
AcDbArc
 50
199.4712206345
 51
340.5287793655
  0
ARC
  5
604
100
AcDbEntity
  8
DRAFT
100
AcDbCircle
 62
7
  6
CONTINUOUS
 10
-9.5
 20
-14.75
 40
0.0229581706
100
AcDbArc
 50
167.4556742459
 51
12.5443257541
  0
ARC
  5
605
100
AcDbEntity
  8
DRAFT
100
AcDbCircle
 62
7
  6
CONTINUOUS
 10
-9.5
 20
-11.75
 40
0.0229581706
100
AcDbArc
 50
347.4556742459
 51
192.5443257541
  0
ARC
  5
606
100
AcDbEntity
  8
DRAFT
100
AcDbCircle
 62
7
  6
CONTINUOUS
 10
-4.6825894025
 20
20.0
 40
0.2
100
AcDbArc
 50
144.6232725022
 51
270.0
  0
ARC
  5
607
100
AcDbEntity
  8
RACCORDO
100
AcDbCircle
 62
7
  6
CONTINUOUS
 10
-4.6825894025
 20
20.0
 40
0.1794804374
100
AcDbArc
 50
144.6232725022
 51
270.0
  0
ARC
  5
608
100
AcDbEntity
  8
RACCORDO
100
AcDbCircle
 62
250
  6
CONTINUOUS
 10
-4.6825894025
 20
20.0
 40
0.0294861489
100
AcDbArc
 50
144.6232725022
 51
270.0
  0
ARC
  5
609
100
AcDbEntity
  8
DRAFT
100
AcDbCircle
 62
7
  6
CONTINUOUS
 10
-0.0
 20
-4.8
 40
11.7
100
AcDbArc
 50
77.6621833916
 51
102.3378166084
  0
ARC
  5
60A
100
AcDbEntity
  8
DRAFT
100
AcDbCircle
 62
7
  6
CONTINUOUS
 10
-0.0
 20
-4.8
 40
11.5425204057
100
AcDbArc
 50
81.2139663259
 51
98.7860336741
  0
ARC
  5
60B
100
AcDbEntity
  8
DRAFT
100
AcDbCircle
 62
7
  6
CONTINUOUS
 10
-0.0
 20
-4.8
 40
11.0226898563
100
AcDbArc
 50
80.7960987452
 51
99.2039012548
  0
ARC
  5
60C
100
AcDbEntity
  8
0
100
AcDbCircle
 62
7
  6
CONTINUOUS
 10
-0.0
 20
0.0642885725
 40
3.592665913
100
AcDbArc
 50
358.9746728701
 51
181.0253272339
  0
ARC
  5
60D
100
AcDbEntity
  8
0
100
AcDbCircle
 62
250
  6
CONTINUOUS
 10
-0.0
 20
0.0642885725
 40
3.3725378763
100
AcDbArc
 50
358.9077403639
 51
181.0922596362
  0
ARC
  5
60E
100
AcDbEntity
  8
0
100
AcDbCircle
 62
250
  6
CONTINUOUS
 10
-0.0
 20
0.0642885725
 40
3.2799775428
100
AcDbArc
 50
358.8769131136
 51
181.1230868864
  0
ARC
  5
60F
100
AcDbEntity
  8
0
100
AcDbCircle
 62
7
  6
CONTINUOUS
 10
-0.0
 20
0.0642885725
 40
3.262169562
100
AcDbArc
 50
358.8707815818
 51
181.1292186569
  0
ARC
  5
610
100
AcDbEntity
  8
0
100
AcDbCircle
 62
250
  6
CONTINUOUS
 10
-0.0
 20
0.0642885725
 40
3.0510791732
100
AcDbArc
 50
358.792644738
 51
181.207355262
  0
ARC
  5
611
100
AcDbEntity
  8
0
100
AcDbCircle
 62
250
  6
CONTINUOUS
 10
-0.0
 20
0.0642885725
 40
2.958173713
100
AcDbArc
 50
358.7547202266
 51
181.2452797734
  0
ARC
  5
612
100
AcDbEntity
  8
0
100
AcDbCircle
 62
7
  6
CONTINUOUS
 10
-0.0000000001
 20
0.0642885725
 40
2.940568553
100
AcDbArc
 50
358.7472637163
 51
181.2527362839
  0
ARC
  5
613
100
AcDbEntity
  8
0
100
AcDbCircle
 62
250
  6
CONTINUOUS
 10
-0.0
 20
0.0642885725
 40
2.7386719841
100
AcDbArc
 50
358.6548946804
 51
181.3451301164
  0
ARC
  5
614
100
AcDbEntity
  8
0
100
AcDbCircle
 62
250
  6
CONTINUOUS
 10
-0.0
 20
0.0642885725
 40
2.6454166339
100
AcDbArc
 50
358.6074682941
 51
181.392531706
  0
ARC
  5
615
100
AcDbEntity
  8
0
100
AcDbCircle
 62
7
  6
CONTINUOUS
 10
0.0000000017
 20
0.0642885725
 40
2.6280305965
100
AcDbArc
 50
358.598254184
 51
181.4017460501
  0
ARC
  5
616
100
AcDbEntity
  8
0
100
AcDbCircle
 62
250
  6
CONTINUOUS
 10
-0.0
 20
0.0642885725
 40
2.4353538857
100
AcDbArc
 50
358.4873279231
 51
181.5126720768
  0
ARC
  5
617
100
AcDbEntity
  8
0
100
AcDbCircle
 62
250
  6
CONTINUOUS
 10
-0.0
 20
0.0642885725
 40
2.3417493507
100
AcDbArc
 50
358.4268484045
 51
181.573151595
  0
ARC
  5
618
100
AcDbEntity
  8
0
100
AcDbCircle
 62
7
  6
CONTINUOUS
 10
0.000000002
 20
0.0642885725
 40
2.3245995797
100
AcDbArc
 50
358.4152397398
 51
181.5847602575
  0
ARC
  5
619
100
AcDbEntity
  8
0
100
AcDbCircle
 62
250
  6
CONTINUOUS
 10
-0.0
 20
0.0642885725
 40
2.1410147457
100
AcDbArc
 50
358.2793123546
 51
181.7206876468
  0
ARC
  5
61A
100
AcDbEntity
  8
0
100
AcDbCircle
 62
250
  6
CONTINUOUS
 10
-0.0
 20
0.0642885725
 40
2.0470681237
100
AcDbArc
 50
358.2003189859
 51
181.7996810157
  0
ARC
  5
61B
100
AcDbEntity
  8
0
100
AcDbCircle
 62
7
  6
CONTINUOUS
 10
-0.0000000001
 20
0.0642885726
 40
2.0301686622
100
AcDbArc
 50
358.1853334008
 51
181.8146674534
  0
ARC
  5
61C
100
AcDbEntity
  8
0
100
AcDbCircle
 62
250
  6
CONTINUOUS
 10
-0.0
 20
0.0642885725
 40
1.8553677876
100
AcDbArc
 50
358.0143013274
 51
181.9856986732
  0
ARC
  5
61D
100
AcDbEntity
  8
0
100
AcDbCircle
 62
250
  6
CONTINUOUS
 10
-0.0
 20
0.0642885725
 40
1.761093295
100
AcDbArc
 50
357.9079572434
 51
182.092042757
  0
ARC
  5
61E
100
AcDbEntity
  8
0
100
AcDbCircle
 62
7
  6
CONTINUOUS
 10
-0.0000000007
 20
0.0642885726
 40
1.7444536719
100
AcDbArc
 50
357.8879934432
 51
182.1120077316
  0
ARC
  5
61F
100
AcDbEntity
  8
0
100
AcDbCircle
 62
250
  6
CONTINUOUS
 10
-0.0
 20
0.0642885725
 40
1.5779349635
100
AcDbArc
 50
357.6649964839
 51
182.3350035167
  0
ARC
  5
620
100
AcDbEntity
  8
0
100
AcDbCircle
 62
250
  6
CONTINUOUS
 10
-0.0
 20
0.0642885725
 40
1.4833543133
100
AcDbArc
 50
357.5160230004
 51
182.4839769989
  0
ARC
  5
621
100
AcDbEntity
  8
0
100
AcDbCircle
 62
7
  6
CONTINUOUS
 10
-0.0
 20
0.0642885725
 40
1.466978
100
AcDbArc
 50
357.4882759446
 51
182.5117240554
  0
ARC
  5
622
100
AcDbEntity
  8
DRAFT
100
AcDbCircle
 62
7
  6
CONTINUOUS
 10
9.5
 20
-11.75
 40
0.3
100
AcDbArc
 50
19.4712206345
 51
160.5287793655
  0
ARC
  5
623
100
AcDbEntity
  8
DRAFT
100
AcDbCircle
 62
7
  6
CONTINUOUS
 10
9.5
 20
-14.75
 40
0.3
100
AcDbArc
 50
199.4712206345
 51
340.5287793655
  0
ARC
  5
624
100
AcDbEntity
  8
DRAFT
100
AcDbCircle
 62
7
  6
CONTINUOUS
 10
9.5
 20
-14.75
 40
0.0229581706
100
AcDbArc
 50
167.4556742459
 51
12.5443257541
  0
ARC
  5
625
100
AcDbEntity
  8
DRAFT
100
AcDbCircle
 62
7
  6
CONTINUOUS
 10
9.5
 20
-11.75
 40
0.0229581706
100
AcDbArc
 50
347.4556742459
 51
192.5443257541
  0
ARC
  5
626
100
AcDbEntity
  8
DRAFT
100
AcDbCircle
 62
7
  6
CONTINUOUS
 10
4.6825894025
 20
20.0
 40
0.2
100
AcDbArc
 50
270.0
 51
35.3767274978
  0
ARC
  5
627
100
AcDbEntity
  8
RACCORDO
100
AcDbCircle
 62
7
  6
CONTINUOUS
 10
4.6825894025
 20
20.0
 40
0.1794804374
100
AcDbArc
 50
270.0
 51
35.3767274978
  0
ARC
  5
628
100
AcDbEntity
  8
RACCORDO
100
AcDbCircle
 62
250
  6
CONTINUOUS
 10
4.6825894025
 20
20.0
 40
0.0294861489
100
AcDbArc
 50
270.0
 51
35.3767274978
  0
ELLIPSE
  5
629
100
AcDbEntity
  8
0
100
AcDbEllipse
 62
7
  6
CONTINUOUS
 10
5.3000054834
 20
-23.2440511161
 30
0.0
 11
0.0725222074
 21
0.0689339783
 31
0.0
 40
0.9989190847
 41
-3.901089852
 42
-2.331373634
  0
ELLIPSE
  5
62A
100
AcDbEntity
  8
0
100
AcDbEllipse
 62
7
  6
CONTINUOUS
 10
5.3000055423
 20
-6.8355741929
 30
0.0
 11
0.019724193
 21
0.0981811105
 31
0.0
 40
0.9985743421
 41
-4.5138563486
 42
-2.9436110112
  0
ELLIPSE
  5
62B
100
AcDbEntity
  8
0
100
AcDbEllipse
 62
7
  6
CONTINUOUS
 10
5.3000055423
 20
-10.0363624667
 30
0.0
 11
-0.0092331511
 21
0.100232176
 31
0.0
 40
0.9934773673
 41
-0.0912625686
 42
1.4783382595
  0
ELLIPSE
  5
62C
100
AcDbEntity
  8
0
100
AcDbEllipse
 62
7
  6
CONTINUOUS
 10
-5.3000054834
 20
-23.2440511161
 30
0.0
 11
-0.0725222074
 21
0.0689339783
 31
0.0
 40
0.9989190847
 41
-3.9518116732
 42
-2.3820954552
  0
ELLIPSE
  5
62D
100
AcDbEntity
  8
0
100
AcDbEllipse
 62
7
  6
CONTINUOUS
 10
-5.3000055423
 20
-6.8355741929
 30
0.0
 11
-0.019724193
 21
0.0981811105
 31
0.0
 40
0.9985743421
 41
-3.339574296
 42
-1.7693289585
  0
ELLIPSE
  5
62E
100
AcDbEntity
  8
0
100
AcDbEllipse
 62
7
  6
CONTINUOUS
 10
-5.3000055423
 20
-10.0363624667
 30
0.0
 11
0.0092331511
 21
0.100232176
 31
0.0
 40
0.9934773673
 41
-1.4783382595
 42
0.0912625686
  0
ELLIPSE
  5
62F
100
AcDbEntity
  8
0
100
AcDbEllipse
 62
7
  6
CONTINUOUS
 10
-7.6999722884
 20
-9.4324562314
 30
0.0
 11
0.0461657555
 21
0.5011608801
 31
0.0
 40
0.9934773673
 41
1.6632543941
 42
3.2328552222
  0
ELLIPSE
  5
630
100
AcDbEntity
  8
0
100
AcDbEllipse
 62
7
  6
CONTINUOUS
 10
-7.6999722884
 20
-7.4363976005
 30
0.0
 11
0.098620965
 21
-0.4909055525
 31
0.0
 40
0.9985743421
 41
2.9436110112
 42
4.5138563486
  0
ELLIPSE
  5
631
100
AcDbEntity
  8
0
100
AcDbEllipse
 62
7
  6
CONTINUOUS
 10
7.6999722884
 20
-7.4363976005
 30
0.0
 11
-0.098620965
 21
-0.4909055525
 31
0.0
 40
0.9985743421
 41
1.7693289585
 42
3.339574296
  0
ELLIPSE
  5
632
100
AcDbEntity
  8
0
100
AcDbEllipse
 62
7
  6
CONTINUOUS
 10
7.6999722884
 20
-9.4324562314
 30
0.0
 11
-0.0461657555
 21
0.5011608801
 31
0.0
 40
0.9934773673
 41
3.050330085
 42
4.6199309131
  0
ELLIPSE
  5
633
100
AcDbEntity
  8
0
100
AcDbEllipse
 62
7
  6
CONTINUOUS
 10
6.0474497538
 20
-23.4940511161
 30
0.0
 11
0.1105785749
 21
0.1015712386
 31
0.0
 40
0.9981853378
 41
-0.7316514739
 42
0.8269251546
  0
ELLIPSE
  5
634
100
AcDbEntity
  8
0
100
AcDbEllipse
 62
7
  6
CONTINUOUS
 10
-6.0474497538
 20
-23.4940511161
 30
0.0
 11
-0.1105785749
 21
0.1015712386
 31
0.0
 40
0.9981853378
 41
-0.8269251546
 42
0.7316514739
  0
ELLIPSE
  5
635
100
AcDbEntity
  8
0
100
AcDbEllipse
 62
7
  6
CONTINUOUS
 10
2.450703192
 20
-11.4468323379
 30
0.0
 11
-0.0004532623
 21
0.4106420335
 31
0.0
 40
0.121760472
 41
-0.6409985095
 42
-0.0001343979
  0
ELLIPSE
  5
636
100
AcDbEntity
  8
0
100
AcDbEllipse
 62
7
  6
CONTINUOUS
 10
-2.450703192
 20
-11.4468323379
 30
0.0
 11
0.0004532623
 21
0.4106420335
 31
0.0
 40
0.121760472
 41
0.0001343979
 42
0.6409985095
  0
ELLIPSE
  5
637
100
AcDbEntity
  8
0
100
AcDbEllipse
 62
7
  6
CONTINUOUS
 10
-2.4464375583
 20
-7.465931093
 30
0.0
 11
0.0001828453
 21
0.1439634938
 31
0.0
 40
0.3473099407
 41
0.0004411118
 42
1.5625758411
  0
ELLIPSE
  5
638
100
AcDbEntity
  8
0
100
AcDbEllipse
 62
7
  6
CONTINUOUS
 10
-2.4499980961
 20
-10.7888017768
 30
0.0
 11
0.0004396202
 21
0.4102754489
 31
0.0
 40
0.1218692745
 41
-4.7035967969
 42
-3.7823261793
  0
ELLIPSE
  5
639
100
AcDbEntity
  8
0
100
AcDbEllipse
 62
7
  6
CONTINUOUS
 10
2.4499980961
 20
-10.7888017768
 30
0.0
 11
-0.0004396202
 21
0.4102754489
 31
0.0
 40
0.1218692745
 41
-2.5008591279
 42
-1.5795885103
  0
ELLIPSE
  5
63A
100
AcDbEntity
  8
0
100
AcDbEllipse
 62
7
  6
CONTINUOUS
 10
2.4464375583
 20
-7.465931093
 30
0.0
 11
-0.0001828453
 21
0.1439634938
 31
0.0
 40
0.3473099407
 41
-1.5625758411
 42
-0.0004411118
  0
ELLIPSE
  5
63B
100
AcDbEntity
  8
0
100
AcDbEllipse
 62
7
  6
CONTINUOUS
 10
-2.7499980961
 20
-8.2120494689
 30
0.0
 11
0.0004826369
 21
0.1169967299
 31
0.0
 40
0.4273587358
 41
-4.7027364603
 42
-3.1398297079
  0
ELLIPSE
  5
63C
100
AcDbEntity
  8
0
100
AcDbEllipse
 62
7
  6
CONTINUOUS
 10
2.7499980961
 20
-8.2120494689
 30
0.0
 11
-0.0004826369
 21
0.1169967299
 31
0.0
 40
0.4273587358
 41
-3.1433555992
 42
-1.5804488469
  0
ELLIPSE
  5
63D
100
AcDbEntity
  8
0
100
AcDbEllipse
 62
7
  6
CONTINUOUS
 10
6.0938754945
 20
-24.5312127633
 30
0.0
 11
0.024281595
 21
-0.0972746037
 31
0.0
 40
0.9974128556
 41
-0.244012084
 42
1.3255668242
  0
ELLIPSE
  5
63E
100
AcDbEntity
  8
0
100
AcDbEllipse
 62
7
  6
CONTINUOUS
 10
-6.0938754945
 20
-24.5312127633
 30
0.0
 11
0.024281595
 21
0.0972746037
 31
0.0
 40
0.9974128556
 41
1.8160258294
 42
3.3856047376
  0
ELLIPSE
  5
63F
100
AcDbEntity
  8
0
100
AcDbEllipse
 62
250
  6
CONTINUOUS
 10
-10.6254141143
 20
-24.5060306123
 30
0.0
 11
-0.0000000001
 21
-57.3872103951
 31
0.0
 40
0.2757655235
 41
1.5638022343
 42
1.5662207852
  0
ELLIPSE
  5
640
100
AcDbEntity
  8
RACCORDO
100
AcDbEllipse
 62
7
  6
CONTINUOUS
 10
5.1765642066
 20
-24.8645606856
 30
0.0
 11
0.2002192177
 21
-0.0005072039
 31
0.0
 40
0.2137758614
 41
-1.5589468863
 42
0.0102637566
  0
ELLIPSE
  5
641
100
AcDbEntity
  8
RACCORDO
100
AcDbEllipse
 62
7
  6
CONTINUOUS
 10
-10.5526939449
 20
-25.8526939449
 30
0.0
 11
0.35379574
 21
0.35379574
 31
0.0
 40
0.999315002
 41
2.3565371065
 42
3.9266482006
  0
ELLIPSE
  5
642
100
AcDbEntity
  8
RACCORDO
100
AcDbEllipse
 62
7
  6
CONTINUOUS
 10
-10.5526939449
 20
25.8526939449
 30
0.0
 11
-0.35379574
 21
0.35379574
 31
0.0
 40
0.999315002
 41
-0.7850555471
 42
0.7850555471
  0
ELLIPSE
  5
643
100
AcDbEntity
  8
RACCORDO
100
AcDbEllipse
 62
7
  6
CONTINUOUS
 10
10.5526939449
 20
25.8526939449
 30
0.0
 11
-0.35379574
 21
-0.35379574
 31
0.0
 40
0.999315002
 41
2.3565371065
 42
3.9266482006
  0
ELLIPSE
  5
644
100
AcDbEntity
  8
RACCORDO
100
AcDbEllipse
 62
7
  6
CONTINUOUS
 10
10.5526939449
 20
-25.8526939449
 30
0.0
 11
0.35379574
 21
-0.35379574
 31
0.0
 40
0.999315002
 41
-0.7850555471
 42
0.7850555471
  0
ELLIPSE
  5
645
100
AcDbEntity
  8
RACCORDO
100
AcDbEllipse
 62
7
  6
CONTINUOUS
 10
-5.1765642066
 20
-24.8645606856
 30
0.0
 11
0.2002192177
 21
0.0005072039
 31
0.0
 40
0.2137758614
 41
3.131328897
 42
4.7005395399
  0
ELLIPSE
  5
646
100
AcDbEntity
  8
RACCORDO
100
AcDbEllipse
 62
7
  6
CONTINUOUS
 10
-10.45
 20
-14.4886417704
 30
0.0
 11
0.1052402834
 21
-0.1124112899
 31
0.0
 40
0.950841967
 41
-2.3484393908
 42
-0.777643064
  0
ELLIPSE
  5
647
100
AcDbEntity
  8
RACCORDO
100
AcDbEllipse
 62
7
  6
CONTINUOUS
 10
10.45
 20
-14.4886417704
 30
0.0
 11
0.1052402834
 21
0.1124112899
 31
0.0
 40
0.950841967
 41
-2.3639495896
 42
-0.7931532628
  0
ELLIPSE
  5
648
100
AcDbEntity
  8
RACCORDO
100
AcDbEllipse
 62
7
  6
CONTINUOUS
 10
-9.152529433
 20
-14.6576638288
 30
0.0
 11
0.1999937159
 21
-0.0015863885
 31
0.0
 40
0.9995808499
 41
-1.5628609757
 42
-0.0095172768
  0
ELLIPSE
  5
649
100
AcDbEntity
  8
RACCORDO
100
AcDbEllipse
 62
7
  6
CONTINUOUS
 10
9.152529433
 20
-14.6576638288
 30
0.0
 11
0.1999937159
 21
0.0015863885
 31
0.0
 40
0.9995808499
 41
-3.1320753768
 42
-1.5787316779
  0
ELLIPSE
  5
64A
100
AcDbEntity
  8
RACCORDO
100
AcDbEllipse
 62
7
  6
CONTINUOUS
 10
-8.8385094944
 20
-11.7024931981
 30
0.0
 11
0.5
 21
0.0
 31
0.0
 40
0.0874886635
 41
-1.5707963268
 42
-0.1745329252
  0
ELLIPSE
  5
64B
100
AcDbEntity
  8
RACCORDO
100
AcDbEllipse
 62
7
  6
CONTINUOUS
 10
-9.6496989626
 20
-11.9212148569
 30
0.0
 11
0.2
 21
-0.0
 31
0.0
 40
0.0874886635
 41
-1.5707963268
 42
-0.1745329252
  0
ELLIPSE
  5
64C
100
AcDbEntity
  8
RACCORDO
100
AcDbEllipse
 62
7
  6
CONTINUOUS
 10
-9.9265431002
 20
-11.9255892901
 30
0.0
 11
0.15
 21
0.0
 31
0.0
 40
0.0874886635
 41
-2.3561944902
 42
-1.5707963268
  0
ELLIPSE
  5
64D
100
AcDbEntity
  8
RACCORDO
100
AcDbEllipse
 62
7
  6
CONTINUOUS
 10
10.8428653412
 20
1.7969146776
 30
0.0
 11
-0.0
 21
0.2030853224
 31
0.0
 40
0.984807753
 41
-1.5707963268
 42
0.0
  0
ELLIPSE
  5
64E
100
AcDbEntity
  8
RACCORDO
100
AcDbEllipse
 62
7
  6
CONTINUOUS
 10
10.45
 20
-11.8797927455
 30
0.0
 11
0.15
 21
-0.0
 31
0.0
 40
0.0874886635
 41
-0.7853981634
 42
0.0
  0
ELLIPSE
  5
64F
100
AcDbEntity
  8
RACCORDO
100
AcDbEllipse
 62
7
  6
CONTINUOUS
 10
9.9265431002
 20
-11.9255892901
 30
0.0
 11
0.15
 21
0.0
 31
0.0
 40
0.0874886635
 41
-1.5707963268
 42
-0.7853981634
  0
ELLIPSE
  5
650
100
AcDbEntity
  8
RACCORDO
100
AcDbEllipse
 62
7
  6
CONTINUOUS
 10
-8.425
 20
-12.151610065
 30
0.0
 11
0.0
 21
0.2003981162
 31
0.0
 40
0.9980133733
 41
-3.1415926536
 42
-1.5707963268
  0
ELLIPSE
  5
651
100
AcDbEntity
  8
RACCORDO
100
AcDbEllipse
 62
7
  6
CONTINUOUS
 10
-9.0586942826
 20
-12.0993498461
 30
0.0
 11
0.0
 21
0.2
 31
0.0
 40
0.1763269807
 41
-4.7123889804
 42
-3.1590459461
  0
ELLIPSE
  5
652
100
AcDbEntity
  8
RACCORDO
100
AcDbEllipse
 62
7
  6
CONTINUOUS
 10
9.0586942826
 20
-12.0993498461
 30
0.0
 11
0.0
 21
0.2
 31
0.0
 40
0.1763269807
 41
-3.1241393611
 42
-1.5707963268
  0
ELLIPSE
  5
653
100
AcDbEntity
  8
RACCORDO
100
AcDbEllipse
 62
7
  6
CONTINUOUS
 10
8.425
 20
-12.151610065
 30
0.0
 11
0.0
 21
0.2003981162
 31
0.0
 40
0.9980133733
 41
-4.7123889804
 42
-3.1415926536
  0
ELLIPSE
  5
654
100
AcDbEntity
  8
RACCORDO
100
AcDbEllipse
 62
7
  6
CONTINUOUS
 10
-4.3499885765
 20
21.2999885765
 30
0.0
 11
0.2121481893
 21
-0.2121481893
 31
0.0
 40
0.9999238505
 41
2.3562325664
 42
3.9269527408
  0
ELLIPSE
  5
655
100
AcDbEntity
  8
RACCORDO
100
AcDbEllipse
 62
7
  6
CONTINUOUS
 10
4.3499885765
 20
21.2999885765
 30
0.0
 11
0.2121481893
 21
0.2121481893
 31
0.0
 40
0.9999238505
 41
-0.7853600872
 42
0.7853600872
  0
ELLIPSE
  5
656
100
AcDbEntity
  8
RACCORDO
100
AcDbEllipse
 62
7
  6
CONTINUOUS
 10
-7.9866434077
 20
22.586635792
 30
0.0
 11
-0.0000156381
 21
0.2000077509
 31
0.0
 40
0.012449579
 41
-1.5770765777
 42
-0.0124508825
  0
ELLIPSE
  5
657
100
AcDbEntity
  8
RACCORDO
100
AcDbEllipse
 62
7
  6
CONTINUOUS
 10
-7.9866434077
 20
22.413364208
 30
0.0
 11
0.0000156381
 21
0.2000077509
 31
0.0
 40
0.012449579
 41
-3.1291417711
 42
-1.5645160759
  0
ELLIPSE
  5
658
100
AcDbEntity
  8
RACCORDO
100
AcDbEllipse
 62
7
  6
CONTINUOUS
 10
-7.7999923843
 20
21.6153104492
 30
0.0
 11
0.0100392888
 21
0.2028445394
 31
0.0
 40
0.9847713852
 41
-4.6621733465
 42
-3.0928923672
  0
ELLIPSE
  5
659
100
AcDbEntity
  8
RACCORDO
100
AcDbEllipse
 62
7
  6
CONTINUOUS
 10
-7.7999923843
 20
23.3846895508
 30
0.0
 11
-0.0100392888
 21
0.2028445394
 31
0.0
 40
0.9847713852
 41
-0.0487002863
 42
1.5205806929
  0
ELLIPSE
  5
65A
100
AcDbEntity
  8
RACCORDO
100
AcDbEllipse
 62
7
  6
CONTINUOUS
 10
-7.6000076157
 20
23.3846895508
 30
0.0
 11
0.0100392888
 21
0.2028445394
 31
0.0
 40
0.9847713852
 41
-1.5205806929
 42
0.0487002863
  0
ELLIPSE
  5
65B
100
AcDbEntity
  8
RACCORDO
100
AcDbEllipse
 62
7
  6
CONTINUOUS
 10
-7.6000076157
 20
21.6153104492
 30
0.0
 11
-0.0100392888
 21
0.2028445394
 31
0.0
 40
0.9847713852
 41
-3.1902929399
 42
-1.6210119607
  0
ELLIPSE
  5
65C
100
AcDbEntity
  8
RACCORDO
100
AcDbEllipse
 62
7
  6
CONTINUOUS
 10
7.9866434077
 20
22.586635792
 30
0.0
 11
0.0000156381
 21
0.2000077509
 31
0.0
 40
0.012449579
 41
0.0124508825
 42
1.5770765777
  0
ELLIPSE
  5
65D
100
AcDbEntity
  8
RACCORDO
100
AcDbEllipse
 62
7
  6
CONTINUOUS
 10
7.9866434077
 20
22.413364208
 30
0.0
 11
-0.0000156381
 21
0.2000077509
 31
0.0
 40
0.012449579
 41
1.5645160759
 42
3.1291417711
  0
ELLIPSE
  5
65E
100
AcDbEntity
  8
RACCORDO
100
AcDbEllipse
 62
7
  6
CONTINUOUS
 10
7.7999923843
 20
23.3846895508
 30
0.0
 11
0.0100392888
 21
0.2028445394
 31
0.0
 40
0.9847713852
 41
-1.5205806929
 42
0.0487002863
  0
ELLIPSE
  5
65F
100
AcDbEntity
  8
RACCORDO
100
AcDbEllipse
 62
7
  6
CONTINUOUS
 10
7.7999923843
 20
21.6153104492
 30
0.0
 11
-0.0100392888
 21
0.2028445394
 31
0.0
 40
0.9847713852
 41
-3.1902929399
 42
-1.6210119607
  0
ELLIPSE
  5
660
100
AcDbEntity
  8
RACCORDO
100
AcDbEllipse
 62
7
  6
CONTINUOUS
 10
9.6496989626
 20
-11.9212148569
 30
0.0
 11
0.2
 21
-0.0
 31
0.0
 40
0.0874886635
 41
-2.9670597284
 42
-1.5707963268
  0
ELLIPSE
  5
661
100
AcDbEntity
  8
RACCORDO
100
AcDbEllipse
 62
7
  6
CONTINUOUS
 10
7.6000076157
 20
21.6153104492
 30
0.0
 11
0.0100392888
 21
0.2028445394
 31
0.0
 40
0.9847713852
 41
-4.6621733465
 42
-3.0928923672
  0
ELLIPSE
  5
662
100
AcDbEntity
  8
RACCORDO
100
AcDbEllipse
 62
7
  6
CONTINUOUS
 10
7.6000076157
 20
23.3846895508
 30
0.0
 11
-0.0100392888
 21
0.2028445394
 31
0.0
 40
0.9847713852
 41
-0.0487002863
 42
1.5205806929
  0
ELLIPSE
  5
663
100
AcDbEntity
  8
RACCORDO
100
AcDbEllipse
 62
7
  6
CONTINUOUS
 10
8.8385094944
 20
-11.7024931981
 30
0.0
 11
0.5
 21
0.0
 31
0.0
 40
0.0874886635
 41
-2.9670597284
 42
-1.5707963268
  0
ELLIPSE
  5
664
100
AcDbEntity
  8
RACCORDO
100
AcDbEllipse
 62
7
  6
CONTINUOUS
 10
10.2428653412
 20
1.7969146776
 30
0.0
 11
-0.0
 21
0.2030853224
 31
0.0
 40
0.984807753
 41
-0.0
 42
1.5707963268
  0
ELLIPSE
  5
665
100
AcDbEntity
  8
RACCORDO
100
AcDbEllipse
 62
7
  6
CONTINUOUS
 10
5.3825196095
 20
5.9825196095
 30
0.0
 11
0.4950124418
 21
0.4950124418
 31
0.0
 40
0.9999238505
 41
-0.7853600872
 42
0.7853600872
  0
ELLIPSE
  5
666
100
AcDbEntity
  8
RACCORDO
100
AcDbEllipse
 62
7
  6
CONTINUOUS
 10
-5.3825196095
 20
5.9825196095
 30
0.0
 11
-0.4950124418
 21
0.4950124418
 31
0.0
 40
0.9999238505
 41
-0.7853600872
 42
0.7853600872
  0
ELLIPSE
  5
667
100
AcDbEntity
  8
DRAFT
100
AcDbEllipse
 62
7
  6
CONTINUOUS
 10
6.8846747077
 20
-4.8
 30
0.0
 11
13.87555662
 21
-0.0
 31
0.0
 40
0.8682237535
 41
1.8923067144
 42
1.9109408261
  0
ELLIPSE
  5
668
100
AcDbEntity
  8
DRAFT
100
AcDbEllipse
 62
7
  6
CONTINUOUS
 10
-0.5522398174
 20
-4.8
 30
0.0
 11
11.1580445547
 21
-0.0
 31
0.0
 40
0.998774494
 41
1.2937184794
 42
1.3164316404
  0
ELLIPSE
  5
669
100
AcDbEntity
  8
DRAFT
100
AcDbEllipse
 62
7
  6
CONTINUOUS
 10
-6.8846747077
 20
-4.8
 30
0.0
 11
13.87555662
 21
0.0
 31
0.0
 40
0.8682237535
 41
1.2306518275
 42
1.2492859392
  0
ELLIPSE
  5
66A
100
AcDbEntity
  8
RACCORDO
100
AcDbEllipse
 62
7
  6
CONTINUOUS
 10
5.0912048743
 20
-24.7247526271
 30
0.0
 11
0.2001246081
 21
-0.0002424734
 31
0.0
 40
0.2101264618
 41
0.127939093
 42
0.9954180857
  0
ELLIPSE
  5
66B
100
AcDbEntity
  8
RACCORDO
100
AcDbEllipse
 62
7
  6
CONTINUOUS
 10
-10.45
 20
-11.8797927455
 30
0.0
 11
0.15
 21
-0.0
 31
0.0
 40
0.0874886635
 41
-3.1415926536
 42
-2.3561944902
  0
ELLIPSE
  5
66C
100
AcDbEntity
  8
RACCORDO
100
AcDbEllipse
 62
7
  6
CONTINUOUS
 10
10.2428653412
 20
-1.7969146776
 30
0.0
 11
0.0
 21
0.2030853224
 31
0.0
 40
0.984807753
 41
-4.7123889804
 42
-3.1415926536
  0
ELLIPSE
  5
66D
100
AcDbEntity
  8
RACCORDO
100
AcDbEllipse
 62
7
  6
CONTINUOUS
 10
10.8428653412
 20
-1.7969146776
 30
0.0
 11
0.0
 21
0.2030853224
 31
0.0
 40
0.984807753
 41
-3.1415926536
 42
-1.5707963268
  0
ELLIPSE
  5
66E
100
AcDbEntity
  8
RACCORDO
100
AcDbEllipse
 62
7
  6
CONTINUOUS
 10
-5.0912048743
 20
-24.7247526271
 30
0.0
 11
0.2001246081
 21
0.0002424734
 31
0.0
 40
0.2101264618
 41
2.1461745679
 42
3.0136535606
  0
ELLIPSE
  5
66F
100
AcDbEntity
  8
RACCORDO
100
AcDbEllipse
 62
7
  6
CONTINUOUS
 10
5.2130712625
 20
-5.6764293122
 30
0.0
 11
0.5043824731
 21
-0.0
 31
0.0
 40
0.9913112106
 41
-0.9599310886
 42
0.0
  0
ELLIPSE
  5
670
100
AcDbEntity
  8
RACCORDO
100
AcDbEllipse
 62
7
  6
CONTINUOUS
 10
5.2130712625
 20
-10.9235706878
 30
0.0
 11
0.5043824731
 21
-0.0
 31
0.0
 40
0.9913112106
 41
0.0
 42
0.9599310886
  0
ELLIPSE
  5
671
100
AcDbEntity
  8
RACCORDO
100
AcDbEllipse
 62
7
  6
CONTINUOUS
 10
5.2130712625
 20
-12.4868906591
 30
0.0
 11
0.5043824731
 21
0.0
 31
0.0
 40
0.9913112106
 41
4.913777991
 42
6.2831853072
  0
ELLIPSE
  5
672
100
AcDbEntity
  8
RACCORDO
100
AcDbEllipse
 62
7
  6
CONTINUOUS
 10
-5.2130712625
 20
-10.9235706878
 30
0.0
 11
0.5043824731
 21
0.0
 31
0.0
 40
0.9913112106
 41
2.181661565
 42
3.1415926536
  0
ELLIPSE
  5
673
100
AcDbEntity
  8
RACCORDO
100
AcDbEllipse
 62
7
  6
CONTINUOUS
 10
-5.2130712625
 20
-12.4868906591
 30
0.0
 11
0.5043824731
 21
-0.0
 31
0.0
 40
0.9913112106
 41
3.1415926536
 42
4.5109999698
  0
ELLIPSE
  5
674
100
AcDbEntity
  8
RACCORDO
100
AcDbEllipse
 62
7
  6
CONTINUOUS
 10
-5.2130712625
 20
-5.6764293122
 30
0.0
 11
0.5043824731
 21
-0.0
 31
0.0
 40
0.9913112106
 41
-3.1415926536
 42
-2.181661565
  0
ELLIPSE
  5
675
100
AcDbEntity
  8
RACCORDO
100
AcDbEllipse
 62
7
  6
CONTINUOUS
 10
9.1520087058
 20
-14.6278313861
 30
0.0
 11
-0.0020412941
 21
0.2221610144
 31
0.0
 40
0.900202765
 41
-3.3627870865
 42
-3.1498638467
  0
ELLIPSE
  5
676
100
AcDbEntity
  8
RACCORDO
100
AcDbEllipse
 62
7
  6
CONTINUOUS
 10
-9.1520087058
 20
-14.6278313861
 30
0.0
 11
0.0020412941
 21
0.2221610144
 31
0.0
 40
0.900202765
 41
-3.1333214604
 42
-2.9203982207
  0
ELLIPSE
  5
677
100
AcDbEntity
  8
RACCORDO
100
AcDbEllipse
 62
7
  6
CONTINUOUS
 10
-5.3089537802
 20
-6.0083265735
 30
0.0
 11
-0.0
 21
0.5
 31
0.0
 40
0.0087268678
 41
-3.7524578918
 42
-3.2288591162
  0
ELLIPSE
  5
678
100
AcDbEntity
  8
RACCORDO
100
AcDbEllipse
 62
7
  6
CONTINUOUS
 10
-5.3130903017
 20
-12.4868906591
 30
0.0
 11
0.0
 21
0.5
 31
0.0
 40
0.0087268678
 41
-3.3429816642
 42
-3.1503192998
  0
ELLIPSE
  5
679
100
AcDbEntity
  8
RACCORDO
100
AcDbEllipse
 62
7
  6
CONTINUOUS
 10
-5.3089537802
 20
-10.5916734265
 30
0.0
 11
0.0
 21
0.5
 31
0.0
 40
0.0087268678
 41
0.0872664626
 42
0.6108652382
  0
ELLIPSE
  5
67A
100
AcDbEntity
  8
RACCORDO
100
AcDbEllipse
 62
7
  6
CONTINUOUS
 10
-6.0869096983
 20
-12.4868906591
 30
0.0
 11
0.0
 21
0.5
 31
0.0
 40
0.0087268678
 41
-3.1328660073
 42
-1.5707963268
  0
ELLIPSE
  5
67B
100
AcDbEntity
  8
RACCORDO
100
AcDbEllipse
 62
7
  6
CONTINUOUS
 10
-6.0910462198
 20
-10.5916734265
 30
0.0
 11
-0.0
 21
0.5
 31
0.0
 40
0.0087268678
 41
-0.6108652382
 42
-0.0872664626
  0
ELLIPSE
  5
67C
100
AcDbEntity
  8
RACCORDO
100
AcDbEllipse
 62
7
  6
CONTINUOUS
 10
-6.0869096983
 20
-10.9235706878
 30
0.0
 11
0.0
 21
0.5
 31
0.0
 40
0.0087268678
 41
-1.5707963268
 42
-0.6108652382
  0
ELLIPSE
  5
67D
100
AcDbEntity
  8
RACCORDO
100
AcDbEllipse
 62
7
  6
CONTINUOUS
 10
-6.0869096983
 20
-5.6764293122
 30
0.0
 11
0.0
 21
0.5
 31
0.0
 40
0.0087268678
 41
-2.5307274154
 42
-1.5707963268
  0
ELLIPSE
  5
67E
100
AcDbEntity
  8
RACCORDO
100
AcDbEllipse
 62
7
  6
CONTINUOUS
 10
-6.0910462198
 20
-6.0083265735
 30
0.0
 11
0.0
 21
0.5
 31
0.0
 40
0.0087268678
 41
-3.054326191
 42
-2.5307274154
  0
ELLIPSE
  5
67F
100
AcDbEntity
  8
RACCORDO
100
AcDbEllipse
 62
7
  6
CONTINUOUS
 10
6.0869096983
 20
-12.4868906591
 30
0.0
 11
-0.0
 21
0.5
 31
0.0
 40
0.0087268678
 41
1.5707963268
 42
3.1328660073
  0
ELLIPSE
  5
680
100
AcDbEntity
  8
RACCORDO
100
AcDbEllipse
 62
7
  6
CONTINUOUS
 10
6.0869096983
 20
-10.9235706878
 30
0.0
 11
-0.0
 21
0.5
 31
0.0
 40
0.0087268678
 41
0.6108652382
 42
1.5707963268
  0
ELLIPSE
  5
681
100
AcDbEntity
  8
RACCORDO
100
AcDbEllipse
 62
7
  6
CONTINUOUS
 10
6.0910462198
 20
-10.5916734265
 30
0.0
 11
-0.0
 21
0.5
 31
0.0
 40
0.0087268678
 41
0.0872664626
 42
0.6108652382
  0
ELLIPSE
  5
682
100
AcDbEntity
  8
RACCORDO
100
AcDbEllipse
 62
7
  6
CONTINUOUS
 10
6.0910462198
 20
-6.0083265735
 30
0.0
 11
0.0
 21
0.5
 31
0.0
 40
0.0087268678
 41
-3.7524578918
 42
-3.2288591162
  0
ELLIPSE
  5
683
100
AcDbEntity
  8
RACCORDO
100
AcDbEllipse
 62
7
  6
CONTINUOUS
 10
6.0869096983
 20
-5.6764293122
 30
0.0
 11
0.0
 21
0.5
 31
0.0
 40
0.0087268678
 41
1.5707963268
 42
2.5307274154
  0
ELLIPSE
  5
684
100
AcDbEntity
  8
RACCORDO
100
AcDbEllipse
 62
7
  6
CONTINUOUS
 10
5.3089537802
 20
-6.0083265735
 30
0.0
 11
-0.0
 21
0.5
 31
0.0
 40
0.0087268678
 41
-3.054326191
 42
-2.5307274154
  0
ELLIPSE
  5
685
100
AcDbEntity
  8
RACCORDO
100
AcDbEllipse
 62
7
  6
CONTINUOUS
 10
5.3130903017
 20
-12.4868906591
 30
0.0
 11
0.0
 21
0.5
 31
0.0
 40
0.0087268678
 41
-3.1328660073
 42
-2.940203643
  0
ELLIPSE
  5
686
100
AcDbEntity
  8
RACCORDO
100
AcDbEllipse
 62
7
  6
CONTINUOUS
 10
5.3089537802
 20
-10.5916734265
 30
0.0
 11
0.0
 21
0.5
 31
0.0
 40
0.0087268678
 41
-0.6108652382
 42
-0.0872664626
  0
ELLIPSE
  5
687
100
AcDbEntity
  8
DRAFT
100
AcDbEllipse
 62
7
  6
CONTINUOUS
 10
-3.5152815382
 20
6.0152720186
 30
0.0
 11
0.25
 21
-0.0
 31
0.0
 40
0.0087268678
 41
1.5095993081
 42
1.5707963268
  0
ELLIPSE
  5
688
100
AcDbEntity
  8
DRAFT
100
AcDbEllipse
 62
7
  6
CONTINUOUS
 10
-3.5152815382
 20
6.6847279814
 30
0.0
 11
0.25
 21
0.0
 31
0.0
 40
0.0087268678
 41
-1.5707963268
 42
-1.5095993081
  0
ELLIPSE
  5
689
100
AcDbEntity
  8
DRAFT
100
AcDbEllipse
 62
7
  6
CONTINUOUS
 10
3.5152815382
 20
6.6847279814
 30
0.0
 11
0.25
 21
-0.0
 31
0.0
 40
0.0087268678
 41
-1.6319933455
 42
-1.5707963268
  0
ELLIPSE
  5
68A
100
AcDbEntity
  8
DRAFT
100
AcDbEllipse
 62
7
  6
CONTINUOUS
 10
3.5152815382
 20
6.0152720186
 30
0.0
 11
0.25
 21
-0.0
 31
0.0
 40
0.0087268678
 41
1.5707963268
 42
1.6319933455
  0
ELLIPSE
  5
68B
100
AcDbEntity
  8
DRAFT
100
AcDbEllipse
 62
7
  6
CONTINUOUS
 10
0.5522398174
 20
-4.8
 30
0.0
 11
11.1580445547
 21
0.0
 31
0.0
 40
0.998774494
 41
1.8251610131
 42
1.8478741742
  0
ENDSEC
  0
SECTION
  2
OBJECTS
  0
DICTIONARY
  5
C
100
AcDbDictionary
280
0
281
1
  3
ACAD_GROUP
350
D
  3
ACAD_MLINESTYLE
350
17
  3
ACAD_LAYOUT
350
1A
  3
ACAD_PLOTSETTINGS
350
19
  3
ACAD_PLOTSTYLENAME
350
E
  0
DICTIONARY
  5
D
102
{ACAD_REACTORS
330
C
102
}
100
AcDbDictionary
280
0
281
1
  0
ACDBDICTIONARYWDFLT
  5
E
102
{ACAD_REACTORS
330
C
102
}
100
AcDbDictionary
281
1
  3
Normal
350
F
100
AcDbDictionaryWithDefault
340
F
  0
DICTIONARY
  5
17
102
{ACAD_REACTORS
330
C
102
}
100
AcDbDictionary
280
0
281
1
  3
Standard
350
18
  0
DICTIONARY
  5
19
102
{ACAD_REACTORS
330
C
102
}
100
AcDbDictionary
281
1
  0
DICTIONARY
  5
1A
102
{ACAD_REACTORS
330
C
102
}
100
AcDbDictionary
281
1
  3
Model
350
68C
  3
Layout1
350
68D
  0
ACDBPLACEHOLDER
  5
F
102
{ACAD_REACTORS
330
E
102
}
  0
MLINESTYLE
  5
18
102
{ACAD_REACTORS
330
17
102
}
100
AcDbMlineStyle
  2
STANDARD
 70
0
  3

 62
256
 51
90.0
 52
90.0
 71
2
 49
0.5
 62
256
  6
BYLAYER
 49
-0.5
 62
256
  6
BYLAYER
  0
LAYOUT
  5
68C
102
{ACAD_REACTORS
330
1A
102
}
100
AcDbPlotSettings
  1

  2
none_device
  4
ISO_A4_(297.00_x_210.00_MM)
  6

 40
0.0
 41
0.0
 42
0.0
 43
0.0
 44
297.0
 45
210.0
 46
0.0
 47
0.0
 48
0.0
 49
0.0
140
0.0
141
0.0
142
1.0
143
1.0
 70
1024
 72
1
 73
0
 74
0
  7

 75
0
147
1.0
148
0.0
149
0.0
100
AcDbLayout
  1
Model
 70
0
 71
0
 10
0.0
 20
0.0
 11
297.0
 21
210.0
 12
0.0
 22
0.0
 32
0.0
 14
0.0
 24
0.0
 34
0.0
 15
0.0
 25
0.0
 35
0.0
146
0.0
 13
0.0
 23
0.0
 33
0.0
 16
1.0
 26
0.0
 36
0.0
 17
0.0
 27
1.0
 37
0.0
 76
0
330
21A
345
0
346
0
  0
LAYOUT
  5
68D
102
{ACAD_REACTORS
330
1A
102
}
100
AcDbPlotSettings
  1

  2
none_device
  4
ISO_A4_(297.00_x_210.00_MM)
  6

 40
0.0
 41
0.0
 42
0.0
 43
0.0
 44
297.0
 45
210.0
 46
0.0
 47
0.0
 48
0.0
 49
0.0
140
0.0
141
0.0
142
1.0
143
1.0
 70
0
 72
1
 73
0
 74
0
  7

 75
0
147
1.0
148
0.0
149
0.0
100
AcDbLayout
  1
Layout1
 70
0
 71
1
 10
0.0
 20
0.0
 11
297.0
 21
210.0
 12
0.0
 22
0.0
 32
0.0
 14
0.0
 24
0.0
 34
0.0
 15
0.0
 25
0.0
 35
0.0
146
0.0
 13
0.0
 23
0.0
 33
0.0
 16
1.0
 26
0.0
 36
0.0
 17
0.0
 27
1.0
 37
0.0
 76
0
330
21B
345
0
346
0
  0
ENDSEC
  0
EOF
