  0
SECTION
  2
HEADER
  9
$ACADVER
  1
AC1024
  9
$DWGCODEPAGE
  3
ANSI_1252
  9
$EXTMAX
 10
297.0
 20
210.0
 30
0.0
  9
$EXTMIN
 10
0.0
 20
0.0
 30
0.0
  9
$LIMMIN
 10
0.0
 20
0.0
  9
$LIMMAX
 10
297.0
 20
210.0
  9
$VIEWCTR
 10
148.5
 20
105.0
  9
$VIEWSIZE
 40
210.0
  9
$CLAYER
  8
0
  9
$LTSCALE
 40
16.335
  9
$CELTYPE
  6
BYLAYER
  9
$DIMSCALE
 40
1.0
  9
$DIMASZ
 40
3.0
  9
$DIMEXO
 40
0.5
  9
$DIMDLI
 40
11.286
  9
$DIMEXE
 40
1.5
  9
$DIMCEN
 40
2.673
  9
$DIMLFAC
 40
1.0
  9
$DIMBLK
  1
_FILLED
  9
$DIMALT
 70
0
  9
$DIMALTF
 40
0.0393700787
  9
$DIMTXT
 40
3.0
  9
$DIMTOL
 70
1
  9
$DIMLIM
 70
0
  9
$DIMTFAC
 40
1.0
  9
$DIMTP
 40
0.01
  9
$DIMTM
 40
0.01
  9
$DIMGAP
 40
0.625
  9
$DIMDSEP
 70
44
  9
$AUNITS
 70
0
  9
$PDMODE
 70
3
  9
$PDSIZE
 40
3.0
  9
$HANDSEED
  5
5B6
  9
$TILEMODE
 70
1
  9
$MEASUREMENT
 70
1
  9
$INSUNITS
 70
4
  0
ENDSEC
  0
SECTION
  2
CLASSES
  0
CLASS
  1
ACDBDICTIONARYWDFLT
  2
AcDbDictionaryWithDefault
  3
AutoCAD 2000
 90
0
 91
1
280
0
281
0
  0
CLASS
  1
ACDBPLACEHOLDER
  2
AcDbPlaceHolder
  3
AutoCAD 2000
 90
0
 91
1
280
0
281
0
  0
CLASS
  1
LAYOUT
  2
AcDbLayout
  3
AutoCAD 2000
 90
0
 91
0
280
0
281
0
  0
ENDSEC
  0
SECTION
  2
TABLES
  0
TABLE
  2
VPORT
  5
8
100
AcDbSymbolTable
 70
2
  0
VPORT
  5
1F4
100
AcDbSymbolTableRecord
100
AcDbViewportTableRecord
  2
*ACTIVE
 70
0
 10
0.0
 20
0.0
 11
1.0
 21
1.0
 12
148.5
 22
105.0
 13
0.0
 23
0.0
 14
1.0
 24
1.0
 15
0.0
 25
0.0
 16
0.0
 26
0.0
 36
1.0
 17
0.0
 27
0.0
 37
0.0
 40
210.0
 41
1.4142857143
 42
50.0
 43
0.0
 44
0.0
 50
0.0
 51
0.0
 71
0
 72
100
 73
1
 74
1
 75
0
 76
0
 77
0
 78
0
  0
ENDTAB
  0
TABLE
  2
LTYPE
  5
5
100
AcDbSymbolTable
 70
6
  0
LTYPE
  5
14
100
AcDbSymbolTableRecord
100
AcDbLinetypeTableRecord
  2
BYBLOCK
 70
0
  3

 72
65
 73
0
 40
0.0
  0
LTYPE
  5
15
100
AcDbSymbolTableRecord
100
AcDbLinetypeTableRecord
  2
BYLAYER
 70
0
  3

 72
65
 73
0
 40
0.0
  0
LTYPE
  5
16
100
AcDbSymbolTableRecord
100
AcDbLinetypeTableRecord
  2
CONTINUOUS
 70
64
  3
Solid line
 72
65
 73
0
 40
0.0
  0
LTYPE
  5
1F5
100
AcDbSymbolTableRecord
100
AcDbLinetypeTableRecord
  2
CENTER
 70
64
  3
____ _ ____ _ ____ _ ____ _ ____ _ ____ _ ____
 72
65
 73
4
 40
0.6
 49
0.375
 74
0
 49
-0.075
 74
0
 49
0.075
 74
0
 49
-0.075
 74
0
  0
LTYPE
  5
1F6
100
AcDbSymbolTableRecord
100
AcDbLinetypeTableRecord
  2
HIDDEN
 70
64
  3
- - - - - - - - - - - - - - - - - - - -
 72
65
 73
2
 40
0.2
 49
0.1
 74
0
 49
-0.1
 74
0
  0
LTYPE
  5
1F7
100
AcDbSymbolTableRecord
100
AcDbLinetypeTableRecord
  2
PHANTOM
 70
64
  3
_____ _ _ _____ _ _ _____ _ _ _____
 72
65
 73
6
 40
0.8
 49
0.45
 74
0
 49
-0.05
 74
0
 49
0.1
 74
0
 49
-0.05
 74
0
 49
0.1
 74
0
 49
-0.05
 74
0
  0
LTYPE
  5
1F8
100
AcDbSymbolTableRecord
100
AcDbLinetypeTableRecord
  2
DOT
 70
64
  3
. . . . . . . . . . . . . . . . . . . .
 72
65
 73
2
 40
0.2
 49
0.1
 74
0
 49
-0.1
 74
0
  0
LTYPE
  5
1F9
100
AcDbSymbolTableRecord
100
AcDbLinetypeTableRecord
  2
DASHED
 70
64
  3
- - - - - - - - - - - - - - - - - - - -
 72
65
 73
2
 40
0.2
 49
0.1
 74
0
 49
-0.1
 74
0
  0
ENDTAB
  0
TABLE
  2
LAYER
  5
2
100
AcDbSymbolTable
 70
36
  0
LAYER
  5
10
100
AcDbSymbolTableRecord
100
AcDbLayerTableRecord
  2
0
 70
0
 62
7
  6
CONTINUOUS
370
-3
390
F
  0
LAYER
  5
1FA
100
AcDbSymbolTableRecord
100
AcDbLayerTableRecord
  2
DEFAULT_1
 70
0
 62
7
  6
CENTER
370
-3
390
F
  0
LAYER
  5
1FB
100
AcDbSymbolTableRecord
100
AcDbLayerTableRecord
  2
DEFAULT_2
 70
0
 62
7
  6
HIDDEN
370
-3
390
F
  0
LAYER
  5
1FC
100
AcDbSymbolTableRecord
100
AcDbLayerTableRecord
  2
DEFAULT_3
 70
0
 62
7
  6
PHANTOM
370
-3
390
F
  0
LAYER
  5
1FD
100
AcDbSymbolTableRecord
100
AcDbLayerTableRecord
  2
ASSI
 70
0
 62
7
  6
CONTINUOUS
370
-3
390
F
  0
LAYER
  5
1FE
100
AcDbSymbolTableRecord
100
AcDbLayerTableRecord
  2
COLOR17
 70
0
 62
7
  6
CONTINUOUS
370
-3
390
F
  0
LAYER
  5
1FF
100
AcDbSymbolTableRecord
100
AcDbLayerTableRecord
  2
COLOR5
 70
0
 62
7
  6
CONTINUOUS
370
-3
390
F
  0
LAYER
  5
200
100
AcDbSymbolTableRecord
100
AcDbLayerTableRecord
  2
COORDINATE
 70
0
 62
7
  6
CONTINUOUS
370
-3
390
F
  0
LAYER
  5
201
100
AcDbSymbolTableRecord
100
AcDbLayerTableRecord
  2
COPY_PUBLISH
 70
0
 62
7
  6
CONTINUOUS
370
-3
390
F
  0
LAYER
  5
202
100
AcDbSymbolTableRecord
100
AcDbLayerTableRecord
  2
COSMETICI
 70
0
 62
7
  6
CONTINUOUS
370
-3
390
F
  0
LAYER
  5
203
100
AcDbSymbolTableRecord
100
AcDbLayerTableRecord
  2
CURVE
 70
0
 62
7
  6
CONTINUOUS
370
-3
390
F
  0
LAYER
  5
204
100
AcDbSymbolTableRecord
100
AcDbLayerTableRecord
  2
DRAFT
 70
0
 62
7
  6
CONTINUOUS
370
-3
390
F
  0
LAYER
  5
205
100
AcDbSymbolTableRecord
100
AcDbLayerTableRecord
  2
IMPORT_IGES
 70
0
 62
7
  6
CONTINUOUS
370
-3
390
F
  0
LAYER
  5
206
100
AcDbSymbolTableRecord
100
AcDbLayerTableRecord
  2
INTF_1
 70
0
 62
7
  6
CONTINUOUS
370
-3
390
F
  0
LAYER
  5
207
100
AcDbSymbolTableRecord
100
AcDbLayerTableRecord
  2
INTF_10
 70
0
 62
7
  6
CONTINUOUS
370
-3
390
F
  0
LAYER
  5
208
100
AcDbSymbolTableRecord
100
AcDbLayerTableRecord
  2
INTF_11
 70
0
 62
7
  6
CONTINUOUS
370
-3
390
F
  0
LAYER
  5
209
100
AcDbSymbolTableRecord
100
AcDbLayerTableRecord
  2
INTF_12
 70
0
 62
7
  6
CONTINUOUS
370
-3
390
F
  0
LAYER
  5
20A
100
AcDbSymbolTableRecord
100
AcDbLayerTableRecord
  2
INTF_2
 70
0
 62
7
  6
CONTINUOUS
370
-3
390
F
  0
LAYER
  5
20B
100
AcDbSymbolTableRecord
100
AcDbLayerTableRecord
  2
INTF_3
 70
0
 62
7
  6
CONTINUOUS
370
-3
390
F
  0
LAYER
  5
20C
100
AcDbSymbolTableRecord
100
AcDbLayerTableRecord
  2
INTF_4
 70
0
 62
7
  6
CONTINUOUS
370
-3
390
F
  0
LAYER
  5
20D
100
AcDbSymbolTableRecord
100
AcDbLayerTableRecord
  2
INTF_5
 70
0
 62
7
  6
CONTINUOUS
370
-3
390
F
  0
LAYER
  5
20E
100
AcDbSymbolTableRecord
100
AcDbLayerTableRecord
  2
INTF_6
 70
0
 62
7
  6
CONTINUOUS
370
-3
390
F
  0
LAYER
  5
20F
100
AcDbSymbolTableRecord
100
AcDbLayerTableRecord
  2
INTF_7
 70
0
 62
7
  6
CONTINUOUS
370
-3
390
F
  0
LAYER
  5
210
100
AcDbSymbolTableRecord
100
AcDbLayerTableRecord
  2
INTF_9
 70
0
 62
7
  6
CONTINUOUS
370
-3
390
F
  0
LAYER
  5
211
100
AcDbSymbolTableRecord
100
AcDbLayerTableRecord
  2
INTF_BLANK
 70
0
 62
7
  6
CONTINUOUS
370
-3
390
F
  0
LAYER
  5
212
100
AcDbSymbolTableRecord
100
AcDbLayerTableRecord
  2
INTF_RED
 70
0
 62
7
  6
CONTINUOUS
370
-3
390
F
  0
LAYER
  5
213
100
AcDbSymbolTableRecord
100
AcDbLayerTableRecord
  2
NOTE
 70
0
 62
7
  6
CONTINUOUS
370
-3
390
F
  0
LAYER
  5
214
100
AcDbSymbolTableRecord
100
AcDbLayerTableRecord
  2
PIANI
 70
0
 62
7
  6
CONTINUOUS
370
-3
390
F
  0
LAYER
  5
215
100
AcDbSymbolTableRecord
100
AcDbLayerTableRecord
  2
PUNTI
 70
0
 62
7
  6
CONTINUOUS
370
-3
390
F
  0
LAYER
  5
216
100
AcDbSymbolTableRecord
100
AcDbLayerTableRecord
  2
RACCORDO
 70
0
 62
7
  6
CONTINUOUS
370
-3
390
F
  0
LAYER
  5
217
100
AcDbSymbolTableRecord
100
AcDbLayerTableRecord
  2
RGB____0____0____0__
 70
0
 62
7
  6
CONTINUOUS
370
-3
390
F
  0
LAYER
  5
218
100
AcDbSymbolTableRecord
100
AcDbLayerTableRecord
  2
SIMBOLI
 70
0
 62
7
  6
CONTINUOUS
370
-3
390
F
  0
LAYER
  5
219
100
AcDbSymbolTableRecord
100
AcDbLayerTableRecord
  2
SMUSSO
 70
0
 62
7
  6
CONTINUOUS
370
-3
390
F
  0
LAYER
  5
21A
100
AcDbSymbolTableRecord
100
AcDbLayerTableRecord
  2
SNAPLINE
 70
0
 62
7
  6
CONTINUOUS
370
-3
390
F
  0
LAYER
  5
21B
100
AcDbSymbolTableRecord
100
AcDbLayerTableRecord
  2
SUPERFICI
 70
0
 62
7
  6
CONTINUOUS
370
-3
390
F
  0
LAYER
  5
21C
100
AcDbSymbolTableRecord
100
AcDbLayerTableRecord
  2
TRASH
 70
0
 62
7
  6
CONTINUOUS
370
-3
390
F
  0
LAYER
  5
21D
100
AcDbSymbolTableRecord
100
AcDbLayerTableRecord
  2
___SHELL
 70
0
 62
7
  6
CONTINUOUS
370
-3
390
F
  0
ENDTAB
  0
TABLE
  2
STYLE
  5
3
100
AcDbSymbolTable
 70
1
  0
STYLE
  5
11
100
AcDbSymbolTableRecord
100
AcDbTextStyleTableRecord
  2
STANDARD
 70
0
 40
0.0
 41
0.8
 50
0.0
 71
0
 42
0.2
  3
txt
  4

  0
STYLE
  5
21E
100
AcDbSymbolTableRecord
100
AcDbTextStyleTableRecord
  2
TEXTSTYLE_1
 70
0
 40
0.0
 41
0.8
 50
0.0
 71
0
 42
0.2
  3
gdt
  4

  0
ENDTAB
  0
TABLE
  2
VIEW
  5
6
100
AcDbSymbolTable
 70
0
  0
ENDTAB
  0
TABLE
  2
UCS
  5
7
100
AcDbSymbolTable
 70
0
  0
ENDTAB
  0
TABLE
  2
APPID
  5
9
100
AcDbSymbolTable
 70
1
  0
APPID
  5
21F
100
AcDbSymbolTableRecord
100
AcDbRegAppTableRecord
  2
ACAD
 70
0
  0
ENDTAB
  0
TABLE
  2
BLOCK_RECORD
  5
1
100
AcDbSymbolTable
 70
0
  0
BLOCK_RECORD
  5
220
100
AcDbSymbolTableRecord
100
AcDbBlockTableRecord
  2
*Model_Space
  0
BLOCK_RECORD
  5
221
100
AcDbSymbolTableRecord
100
AcDbBlockTableRecord
  2
*Paper_Space
  0
BLOCK_RECORD
  5
222
100
AcDbSymbolTableRecord
100
AcDbBlockTableRecord
  2
_FILLED
  0
ENDTAB
  0
TABLE
  2
DIMSTYLE
  5
A
100
AcDbSymbolTable
 70
1
100
AcDbDimStyleTable
 71
0
  0
DIMSTYLE
105
223
100
AcDbSymbolTableRecord
100
AcDbDimStyleTableRecord
  2
STANDARD
 70
0
  3

  4

 40
1.0
 41
3.0
 42
0.5
 43
0.38
 44
1.5
 45
0.0
 46
0.0
 47
0.01
 48
0.01
140
3.0
141
0.09
142
0.0
143
25.4
144
1.0
145
0.0
146
1.0
147
0.625
 71
1
 72
0
 73
0
 74
0
 75
0
 76
0
 77
1
 78
8
 79
2
170
0
171
1
172
0
173
0
174
0
175
0
176
0
177
0
178
0
270
2
179
2
271
2
272
2
273
2
274
2
275
0
280
0
281
0
282
0
283
1
284
8
285
0
286
0
287
3
288
0
340
11
278
44
341
222
342
222
343
222
344
222
  0
ENDTAB
  0
ENDSEC
  0
SECTION
  2
BLOCKS
  0
BLOCK
  5
20
100
AcDbEntity
  8
0
100
AcDbBlockBegin
  2
*Model_Space
 70
0
 10
0.0
 20
0.0
 30
0.0
  3
*Model_Space
  1

  0
ENDBLK
  5
21
100
AcDbEntity
  8
0
100
AcDbBlockEnd
  0
BLOCK
  5
1C
100
AcDbEntity
  8
0
100
AcDbBlockBegin
  2
*Paper_Space
 70
0
 10
0.0
 20
0.0
 30
0.0
  3
*Paper_Space
  1

  0
ENDBLK
  5
1D
100
AcDbEntity
  8
0
100
AcDbBlockEnd
  0
BLOCK
  5
224
100
AcDbEntity
  8
0
100
AcDbBlockBegin
  2
_FILLED
 70
64
 10
0.0
 20
0.0
  3
_FILLED
  1

  0
SOLID
  5
225
100
AcDbEntity
  8
0
  6
BYBLOCK
 62
0
100
AcDbTrace
 10
0.0
 20
0.0
 11
-1.0
 21
0.3166666667
 12
-1.0
 22
-0.3166666667
 13
-1.0
 23
-0.3166666667
  0
ENDBLK
  5
226
100
AcDbEntity
  8
0
  6
BYBLOCK
 62
0
100
AcDbBlockEnd
  0
ENDSEC
  0
SECTION
  2
ENTITIES
  0
LINE
  5
227
100
AcDbEntity
  8
ASSI
100
AcDbLine
 62
7
  6
CONTINUOUS
 10
10.5687482316
 20
-26.3685768941
 11
-10.5687482316
 21
-26.3685768941
  0
LINE
  5
228
100
AcDbEntity
  8
ASSI
100
AcDbLine
 62
7
  6
CONTINUOUS
 10
9.7682683574
 20
-25.1681655431
 11
-9.7682683574
 21
-25.1681655431
  0
LINE
  5
229
100
AcDbEntity
  8
ASSI
100
AcDbLine
 62
250
  6
CONTINUOUS
 10
-9.7237761007
 20
-25.1236732864
 11
9.7237761007
 21
-25.1236732864
  0
LINE
  5
22A
100
AcDbEntity
  8
ASSI
100
AcDbLine
 62
250
  6
CONTINUOUS
 10
-9.7199738409
 20
-25.1022127811
 11
9.7199738409
 21
-25.1022127811
  0
LINE
  5
22B
100
AcDbEntity
  8
ASSI
100
AcDbLine
 62
250
  6
CONTINUOUS
 10
-9.668887889
 20
-24.6880204493
 11
9.668887889
 21
-24.6880204493
  0
LINE
  5
22C
100
AcDbEntity
  8
ASSI
100
AcDbLine
 62
250
  6
CONTINUOUS
 10
-9.668887889
 20
-24.4714753928
 11
9.668887889
 21
-24.4714753928
  0
LINE
  5
22D
100
AcDbEntity
  8
ASSI
100
AcDbLine
 62
7
  6
CONTINUOUS
 10
-9.875426243
 20
-22.0918412015
 11
-9.9604811481
 21
-22.0351451296
  0
LINE
  5
22E
100
AcDbEntity
  8
ASSI
100
AcDbLine
 62
7
  6
CONTINUOUS
 10
-2.0213073071
 20
25.2071702628
 11
-2.0101106157
 21
25.2155662887
  0
LINE
  5
22F
100
AcDbEntity
  8
ASSI
100
AcDbLine
 62
7
  6
CONTINUOUS
 10
-9.9914962434
 20
-21.3064645282
 11
-10.2721847665
 21
-21.3111129436
  0
LINE
  5
230
100
AcDbEntity
  8
ASSI
100
AcDbLine
 62
250
  6
CONTINUOUS
 10
-11.0685768941
 20
-22.5392953814
 11
-9.9681998224
 21
-22.5392953814
  0
LINE
  5
231
100
AcDbEntity
  8
ASSI
100
AcDbLine
 62
250
  6
CONTINUOUS
 10
9.9681998224
 20
-22.5392953814
 11
11.0685768941
 21
-22.5392953814
  0
LINE
  5
232
100
AcDbEntity
  8
ASSI
100
AcDbLine
 62
250
  6
CONTINUOUS
 10
-11.0704147967
 20
-22.3464590985
 11
-9.9700377249
 21
-22.3464590985
  0
LINE
  5
233
100
AcDbEntity
  8
ASSI
100
AcDbLine
 62
250
  6
CONTINUOUS
 10
9.9700377249
 20
-22.3464590985
 11
11.0704147967
 21
-22.3464590985
  0
LINE
  5
234
100
AcDbEntity
  8
ASSI
100
AcDbLine
 62
7
  6
CONTINUOUS
 10
-9.6754278134
 20
-22.0952663437
 11
-8.2346879649
 21
-22.0952663437
  0
LINE
  5
235
100
AcDbEntity
  8
ASSI
100
AcDbLine
 62
7
  6
CONTINUOUS
 10
9.6754278134
 20
-22.0952663437
 11
8.2346879649
 21
-22.0952663437
  0
LINE
  5
236
100
AcDbEntity
  8
ASSI
100
AcDbLine
 62
250
  6
CONTINUOUS
 10
-9.9604811481
 20
-22.0351451296
 11
-8.2948091789
 21
-22.0351451296
  0
LINE
  5
237
100
AcDbEntity
  8
ASSI
100
AcDbLine
 62
250
  6
CONTINUOUS
 10
9.9604811481
 20
-22.0351451296
 11
8.2948091789
 21
-22.0351451296
  0
LINE
  5
238
100
AcDbEntity
  8
ASSI
100
AcDbLine
 62
250
  6
CONTINUOUS
 10
-9.9681998224
 20
-21.7351908211
 11
-7.9948548704
 21
-21.7351908211
  0
LINE
  5
239
100
AcDbEntity
  8
ASSI
100
AcDbLine
 62
250
  6
CONTINUOUS
 10
9.9681998224
 20
-21.7351908211
 11
7.9948548704
 21
-21.7351908211
  0
LINE
  5
23A
100
AcDbEntity
  8
ASSI
100
AcDbLine
 62
250
  6
CONTINUOUS
 10
-9.9681998224
 20
-21.6248091789
 11
-7.9948548704
 21
-21.6248091789
  0
LINE
  5
23B
100
AcDbEntity
  8
ASSI
100
AcDbLine
 62
250
  6
CONTINUOUS
 10
9.9681998224
 20
-21.6248091789
 11
7.9948548704
 21
-21.6248091789
  0
LINE
  5
23C
100
AcDbEntity
  8
ASSI
100
AcDbLine
 62
250
  6
CONTINUOUS
 10
11.0876877288
 20
-21.5603466497
 11
9.9873106571
 21
-21.5603466497
  0
LINE
  5
23D
100
AcDbEntity
  8
ASSI
100
AcDbLine
 62
250
  6
CONTINUOUS
 10
-9.9873106571
 20
-21.5603466497
 11
-11.0876877288
 21
-21.5603466497
  0
LINE
  5
23E
100
AcDbEntity
  8
ASSI
100
AcDbLine
 62
250
  6
CONTINUOUS
 10
11.0895256314
 20
-21.3675103668
 11
9.9891485596
 21
-21.3675103668
  0
LINE
  5
23F
100
AcDbEntity
  8
ASSI
100
AcDbLine
 62
250
  6
CONTINUOUS
 10
-9.9891485596
 20
-21.3675103668
 11
-11.0895256314
 21
-21.3675103668
  0
LINE
  5
240
100
AcDbEntity
  8
ASSI
100
AcDbLine
 62
7
  6
CONTINUOUS
 10
10.3347981654
 20
-21.3439640519
 11
9.9891485596
 21
-21.3439640519
  0
LINE
  5
241
100
AcDbEntity
  8
ASSI
100
AcDbLine
 62
7
  6
CONTINUOUS
 10
-9.9891485596
 20
-21.3439640519
 11
-10.3347981654
 21
-21.3439640519
  0
LINE
  5
242
100
AcDbEntity
  8
ASSI
100
AcDbLine
 62
250
  6
CONTINUOUS
 10
-9.9604811481
 20
-21.3248548704
 11
-8.2948091789
 21
-21.3248548704
  0
LINE
  5
243
100
AcDbEntity
  8
ASSI
100
AcDbLine
 62
250
  6
CONTINUOUS
 10
9.9604811481
 20
-21.3248548704
 11
8.2948091789
 21
-21.3248548704
  0
LINE
  5
244
100
AcDbEntity
  8
ASSI
100
AcDbLine
 62
7
  6
CONTINUOUS
 10
-9.6777094621
 20
-21.2662545624
 11
-8.2362088709
 21
-21.2662545624
  0
LINE
  5
245
100
AcDbEntity
  8
ASSI
100
AcDbLine
 62
7
  6
CONTINUOUS
 10
9.6777094621
 20
-21.2662545624
 11
8.2362088709
 21
-21.2662545624
  0
LINE
  5
246
100
AcDbEntity
  8
ASSI
100
AcDbLine
 62
7
  6
CONTINUOUS
 10
-5.2390435305
 20
-21.0388912257
 11
5.2390435305
 21
-21.0388912257
  0
LINE
  5
247
100
AcDbEntity
  8
ASSI
100
AcDbLine
 62
250
  6
CONTINUOUS
 10
-5.2035823913
 20
-21.0034300864
 11
5.2035823913
 21
-21.0034300864
  0
LINE
  5
248
100
AcDbEntity
  8
ASSI
100
AcDbLine
 62
7
  6
CONTINUOUS
 10
10.2721914759
 20
-21.3130263813
 11
9.9944327163
 21
-21.308425519
  0
LINE
  5
249
100
AcDbEntity
  8
ASSI
100
AcDbLine
 62
250
  6
CONTINUOUS
 10
-8.2948091789
 20
-22.0351451296
 11
-8.2346879649
 21
-22.0952663437
  0
LINE
  5
24A
100
AcDbEntity
  8
ASSI
100
AcDbLine
 62
250
  6
CONTINUOUS
 10
-7.9948548704
 20
-21.7351908211
 11
-7.9352849643
 21
-21.7947607271
  0
LINE
  5
24B
100
AcDbEntity
  8
ASSI
100
AcDbLine
 62
250
  6
CONTINUOUS
 10
-10.0304880981
 20
17.905823674
 11
-9.936639623
 21
18.0143665295
  0
LINE
  5
24C
100
AcDbEntity
  8
ASSI
100
AcDbLine
 62
250
  6
CONTINUOUS
 10
-10.0640625842
 20
17.6473957952
 11
-9.9707923891
 21
17.7552698261
  0
LINE
  5
24D
100
AcDbEntity
  8
ASSI
100
AcDbLine
 62
250
  6
CONTINUOUS
 10
-5.2035823913
 20
-20.8034605474
 11
5.2035823913
 21
-20.8034605474
  0
LINE
  5
24E
100
AcDbEntity
  8
ASSI
100
AcDbLine
 62
250
  6
CONTINUOUS
 10
5.1966003746
 20
-20.3965394526
 11
-5.1966002062
 21
-20.3965394526
  0
LINE
  5
24F
100
AcDbEntity
  8
ASSI
100
AcDbLine
 62
250
  6
CONTINUOUS
 10
5.1966003746
 20
-20.1965699136
 11
-5.1966003746
 21
-20.1965699136
  0
LINE
  5
250
100
AcDbEntity
  8
ASSI
100
AcDbLine
 62
7
  6
CONTINUOUS
 10
5.1627466671
 20
-20.1627162061
 11
-5.1627466671
 21
-20.1627162061
  0
LINE
  5
251
100
AcDbEntity
  8
ASSI
100
AcDbLine
 62
250
  6
CONTINUOUS
 10
6.0034605474
 20
-20.0035823913
 11
6.2034300864
 21
-20.0035823913
  0
LINE
  5
252
100
AcDbEntity
  8
ASSI
100
AcDbLine
 62
250
  6
CONTINUOUS
 10
-6.0034605474
 20
-20.0035823913
 11
-6.2034300864
 21
-20.0035823913
  0
LINE
  5
253
100
AcDbEntity
  8
ASSI
100
AcDbLine
 62
250
  6
CONTINUOUS
 10
-5.5965394526
 20
-19.9966003746
 11
-5.3965699136
 21
-19.9966003746
  0
LINE
  5
254
100
AcDbEntity
  8
ASSI
100
AcDbLine
 62
250
  6
CONTINUOUS
 10
5.5965394526
 20
-19.9966003746
 11
5.3965699136
 21
-19.9966003746
  0
LINE
  5
255
100
AcDbEntity
  8
ASSI
100
AcDbLine
 62
250
  6
CONTINUOUS
 10
-11.0895256314
 20
-19.196450535
 11
-10.3160570988
 21
-19.196450535
  0
LINE
  5
256
100
AcDbEntity
  8
ASSI
100
AcDbLine
 62
250
  6
CONTINUOUS
 10
10.3160570988
 20
-19.196450535
 11
11.0895256314
 21
-19.196450535
  0
LINE
  5
257
100
AcDbEntity
  8
ASSI
100
AcDbLine
 62
250
  6
CONTINUOUS
 10
-11.0899292437
 20
-18.8041550564
 11
-10.312633588
 21
-18.8041550564
  0
LINE
  5
258
100
AcDbEntity
  8
ASSI
100
AcDbLine
 62
250
  6
CONTINUOUS
 10
10.312633588
 20
-18.8041550564
 11
11.0899292437
 21
-18.8041550564
  0
LINE
  5
259
100
AcDbEntity
  8
ASSI
100
AcDbLine
 62
250
  6
CONTINUOUS
 10
5.3965699136
 20
-18.1965394526
 11
6.2034300864
 21
-18.1965394526
  0
LINE
  5
25A
100
AcDbEntity
  8
ASSI
100
AcDbLine
 62
250
  6
CONTINUOUS
 10
-5.3965699136
 20
-18.1965394526
 11
-6.2034300864
 21
-18.1965394526
  0
LINE
  5
25B
100
AcDbEntity
  8
ASSI
100
AcDbLine
 62
250
  6
CONTINUOUS
 10
6.0034605474
 20
-17.9965699136
 11
5.5965394526
 21
-17.9965699136
  0
LINE
  5
25C
100
AcDbEntity
  8
ASSI
100
AcDbLine
 62
250
  6
CONTINUOUS
 10
-5.5965394526
 20
-17.9965699136
 11
-6.0034605474
 21
-17.9965699136
  0
LINE
  5
25D
100
AcDbEntity
  8
ASSI
100
AcDbLine
 62
7
  6
CONTINUOUS
 10
6.0332855232
 20
-17.9667449378
 11
5.5667144768
 21
-17.9667449378
  0
LINE
  5
25E
100
AcDbEntity
  8
ASSI
100
AcDbLine
 62
7
  6
CONTINUOUS
 10
-5.5667144768
 20
-17.9667449378
 11
-6.0332855232
 21
-17.9667449378
  0
LINE
  5
25F
100
AcDbEntity
  8
ASSI
100
AcDbLine
 62
250
  6
CONTINUOUS
 10
-6.2034300864
 20
-18.1965394526
 11
-6.2336212548
 21
-18.1663482842
  0
LINE
  5
260
100
AcDbEntity
  8
ASSI
100
AcDbLine
 62
7
  6
CONTINUOUS
 10
10.090749475
 20
-16.2956114515
 11
10.071376389
 21
-16.2956114515
  0
LINE
  5
261
100
AcDbEntity
  8
ASSI
100
AcDbLine
 62
7
  6
CONTINUOUS
 10
-10.071376389
 20
-16.2956114515
 11
-10.090749475
 21
-16.2956114515
  0
LINE
  5
262
100
AcDbEntity
  8
ASSI
100
AcDbLine
 62
7
  6
CONTINUOUS
 10
-10.2899132466
 20
-16.2006617941
 11
-9.8106071712
 21
-16.2006617941
  0
LINE
  5
263
100
AcDbEntity
  8
ASSI
100
AcDbLine
 62
7
  6
CONTINUOUS
 10
9.8106071709
 20
-16.2006617941
 11
10.2899132466
 21
-16.2006617941
  0
LINE
  5
264
100
AcDbEntity
  8
ASSI
100
AcDbLine
 62
250
  6
CONTINUOUS
 10
-6.0034605474
 20
-17.9965699136
 11
-6.0332855232
 21
-17.9667449378
  0
LINE
  5
265
100
AcDbEntity
  8
ASSI
100
AcDbLine
 62
7
  6
CONTINUOUS
 10
-10.0640625842
 20
17.6473957952
 11
-10.2804181908
 21
16.8356370771
  0
LINE
  5
266
100
AcDbEntity
  8
ASSI
100
AcDbLine
 62
250
  6
CONTINUOUS
 10
-10.2193611024
 20
16.8275987589
 11
-9.9707923891
 21
17.7552698261
  0
LINE
  5
267
100
AcDbEntity
  8
ASSI
100
AcDbLine
 62
250
  6
CONTINUOUS
 10
-10.0262053601
 20
16.7758428337
 11
-9.7776366468
 21
17.7035139009
  0
LINE
  5
268
100
AcDbEntity
  8
ASSI
100
AcDbLine
 62
7
  6
CONTINUOUS
 10
-0.3966003711
 20
25.1366053437
 11
-0.3859750215
 21
25.1525453917
  0
LINE
  5
269
100
AcDbEntity
  8
ASSI
100
AcDbLine
 62
7
  6
CONTINUOUS
 10
-9.9299344469
 20
-16.2884268707
 11
-9.6854333298
 21
-16.2584513323
  0
LINE
  5
26A
100
AcDbEntity
  8
ASSI
100
AcDbLine
 62
250
  6
CONTINUOUS
 10
-11.0995963877
 20
-14.1133630491
 11
-9.983380666
 21
-14.1133630491
  0
LINE
  5
26B
100
AcDbEntity
  8
ASSI
100
AcDbLine
 62
250
  6
CONTINUOUS
 10
9.983380666
 20
-14.1133630491
 11
11.0995963877
 21
-14.1133630491
  0
LINE
  5
26C
100
AcDbEntity
  8
ASSI
100
AcDbLine
 62
250
  6
CONTINUOUS
 10
-11.1
 20
-13.7210675705
 11
-9.9996229283
 21
-13.7210675705
  0
LINE
  5
26D
100
AcDbEntity
  8
ASSI
100
AcDbLine
 62
250
  6
CONTINUOUS
 10
9.9996229283
 20
-13.7210675705
 11
11.1
 21
-13.7210675705
  0
LINE
  5
26E
100
AcDbEntity
  8
ASSI
100
AcDbLine
 62
7
  6
CONTINUOUS
 10
9.6854333298
 20
-16.2584513323
 11
9.9299344469
 21
-16.2884268707
  0
LINE
  5
26F
100
AcDbEntity
  8
ASSI
100
AcDbLine
 62
7
  6
CONTINUOUS
 10
-11.0876877288
 20
-21.5603466497
 11
-11.0704147967
 21
-22.3464590985
  0
LINE
  5
270
100
AcDbEntity
  8
ASSI
100
AcDbLine
 62
7
  6
CONTINUOUS
 10
-11.0978365611
 20
14.8762018049
 11
-11.093705798
 21
14.9596641646
  0
LINE
  5
271
100
AcDbEntity
  8
ASSI
100
AcDbLine
 62
7
  6
CONTINUOUS
 10
-11.0975873503
 20
7.0217580526
 11
-11.0718686124
 21
7.2536979213
  0
LINE
  5
272
100
AcDbEntity
  8
ASSI
100
AcDbLine
 62
7
  6
CONTINUOUS
 10
-10.0257157828
 20
19.0473192698
 11
-10.0061145635
 21
19.1793071325
  0
LINE
  5
273
100
AcDbEntity
  8
ASSI
100
AcDbLine
 62
7
  6
CONTINUOUS
 10
-10.0840342344
 20
10.7463020787
 11
-10.0068623476
 21
10.9782419474
  0
LINE
  5
274
100
AcDbEntity
  8
ASSI
100
AcDbLine
 62
250
  6
CONTINUOUS
 10
-9.9996229283
 20
-11.4048503739
 11
-9.811693777
 21
-11.4032940408
  0
LINE
  5
275
100
AcDbEntity
  8
ASSI
100
AcDbLine
 62
7
  6
CONTINUOUS
 10
-9.685
 20
-12.2
 11
-9.6570821223
 21
-12.2
  0
LINE
  5
276
100
AcDbEntity
  8
ASSI
100
AcDbLine
 62
7
  6
CONTINUOUS
 10
9.6570821223
 20
-12.2
 11
9.685
 21
-12.2
  0
LINE
  5
277
100
AcDbEntity
  8
ASSI
100
AcDbLine
 62
250
  6
CONTINUOUS
 10
9.811693777
 20
-11.4032940408
 11
9.9996229283
 21
-11.4048503739
  0
LINE
  5
278
100
AcDbEntity
  8
ASSI
100
AcDbLine
 62
7
  6
CONTINUOUS
 10
9.8776890725
 20
-21.26966716
 11
9.9321721665
 21
-21.3059846117
  0
LINE
  5
279
100
AcDbEntity
  8
ASSI
100
AcDbLine
 62
7
  6
CONTINUOUS
 10
9.9604811481
 20
-21.3248548704
 11
9.9891485596
 21
-21.3439640519
  0
LINE
  5
27A
100
AcDbEntity
  8
ASSI
100
AcDbLine
 62
7
  6
CONTINUOUS
 10
-9.983380666
 20
-14.1133630491
 11
-9.811693777
 21
-16.1835185879
  0
LINE
  5
27B
100
AcDbEntity
  8
ASSI
100
AcDbLine
 62
7
  6
CONTINUOUS
 10
-9.6854333298
 20
-16.2584513323
 11
-9.687050838
 21
-16.2356934491
  0
LINE
  5
27C
100
AcDbEntity
  8
ASSI
100
AcDbLine
 62
7
  6
CONTINUOUS
 10
-11.0913041483
 20
19.0473192698
 11
-11.0978365611
 21
19.1793071325
  0
LINE
  5
27D
100
AcDbEntity
  8
ASSI
100
AcDbLine
 62
7
  6
CONTINUOUS
 10
-9.9873106571
 20
-21.5603466497
 11
-9.9700377249
 21
-22.3464590985
  0
LINE
  5
27E
100
AcDbEntity
  8
ASSI
100
AcDbLine
 62
250
  6
CONTINUOUS
 10
-9.8913989893
 20
-16.2883208115
 11
-9.8776890725
 21
-21.26966716
  0
LINE
  5
27F
100
AcDbEntity
  8
ASSI
100
AcDbLine
 62
250
  6
CONTINUOUS
 10
-9.875426243
 20
-22.0918412015
 11
-9.868819354
 21
-24.4923810854
  0
LINE
  5
280
100
AcDbEntity
  8
ASSI
100
AcDbLine
 62
250
  6
CONTINUOUS
 10
-9.905472871
 20
-11.1747318288
 11
-9.9076590239
 21
-10.3804173835
  0
LINE
  5
281
100
AcDbEntity
  8
ASSI
100
AcDbLine
 62
250
  6
CONTINUOUS
 10
-9.691492149
 20
-16.2584680077
 11
-9.6777094621
 21
-21.2662545624
  0
LINE
  5
282
100
AcDbEntity
  8
ASSI
100
AcDbLine
 62
250
  6
CONTINUOUS
 10
-9.7052939133
 20
-11.2437498589
 11
-9.7077275589
 21
-10.3595116908
  0
LINE
  5
283
100
AcDbEntity
  8
ASSI
100
AcDbLine
 62
7
  6
CONTINUOUS
 10
-11.0995963877
 20
-14.1133630491
 11
-11.0899292437
 21
-18.8041550564
  0
LINE
  5
284
100
AcDbEntity
  8
ASSI
100
AcDbLine
 62
7
  6
CONTINUOUS
 10
-10.0304880981
 20
17.905823674
 11
-10.0321832013
 21
18.7283392151
  0
LINE
  5
285
100
AcDbEntity
  8
ASSI
100
AcDbLine
 62
7
  6
CONTINUOUS
 10
-10.3122835966
 20
15.2315687618
 11
-10.3141316137
 21
16.5768106408
  0
LINE
  5
286
100
AcDbEntity
  8
ASSI
100
AcDbLine
 62
7
  6
CONTINUOUS
 10
-9.6570821223
 20
-12.2
 11
-9.6578408251
 21
-11.3728332097
  0
LINE
  5
287
100
AcDbEntity
  8
ASSI
100
AcDbLine
 62
250
  6
CONTINUOUS
 10
-9.9931157244
 20
-16.2936292999
 11
-9.9914962434
 21
-21.3064645282
  0
LINE
  5
288
100
AcDbEntity
  8
ASSI
100
AcDbLine
 62
250
  6
CONTINUOUS
 10
-9.9308510492
 20
-16.2884271669
 11
-9.9292306761
 21
-21.3040238671
  0
LINE
  5
289
100
AcDbEntity
  8
ASSI
100
AcDbLine
 62
7
  6
CONTINUOUS
 10
-11.1
 20
-13.7210675705
 11
-11.1
 21
25.9001713375
  0
LINE
  5
28A
100
AcDbEntity
  8
ASSI
100
AcDbLine
 62
7
  6
CONTINUOUS
 10
-11.0895256314
 20
-19.196450535
 11
-11.0895256314
 21
-21.3675103668
  0
LINE
  5
28B
100
AcDbEntity
  8
ASSI
100
AcDbLine
 62
7
  6
CONTINUOUS
 10
-11.0694559627
 20
7.5527731214
 11
-11.0694559627
 21
10.4472268786
  0
LINE
  5
28C
100
AcDbEntity
  8
ASSI
100
AcDbLine
 62
7
  6
CONTINUOUS
 10
-11.0685768941
 20
-25.8687482316
 11
-11.0685768941
 21
-22.5392953814
  0
LINE
  5
28D
100
AcDbEntity
  8
ASSI
100
AcDbLine
 62
7
  6
CONTINUOUS
 10
-10.2953831688
 20
14.580759479
 11
-10.2953831688
 21
12.4256576388
  0
LINE
  5
28E
100
AcDbEntity
  8
ASSI
100
AcDbLine
 62
250
  6
CONTINUOUS
 10
-10.2534300864
 20
12.4311808668
 11
-10.2534300864
 21
16.5688191332
  0
LINE
  5
28F
100
AcDbEntity
  8
ASSI
100
AcDbLine
 62
7
  6
CONTINUOUS
 10
-10.0912736538
 20
7.5527731214
 11
-10.0912736538
 21
10.4472268786
  0
LINE
  5
290
100
AcDbEntity
  8
ASSI
100
AcDbLine
 62
250
  6
CONTINUOUS
 10
-10.0534605474
 20
12.4311808668
 11
-10.0534605474
 21
16.5688191332
  0
LINE
  5
291
100
AcDbEntity
  8
ASSI
100
AcDbLine
 62
7
  6
CONTINUOUS
 10
-9.9996229283
 20
-13.7210675705
 11
-9.9996229283
 21
6.7226828525
  0
LINE
  5
292
100
AcDbEntity
  8
ASSI
100
AcDbLine
 62
7
  6
CONTINUOUS
 10
-9.9996229283
 20
19.4747494584
 11
-9.9996229283
 21
24.999657184
  0
LINE
  5
293
100
AcDbEntity
  8
ASSI
100
AcDbLine
 62
7
  6
CONTINUOUS
 10
-9.9891485596
 20
-21.3439640519
 11
-9.9891485596
 21
-21.3675103668
  0
LINE
  5
294
100
AcDbEntity
  8
ASSI
100
AcDbLine
 62
7
  6
CONTINUOUS
 10
-9.9681998224
 20
-24.9682340781
 11
-9.9681998224
 21
-22.5392953814
  0
LINE
  5
295
100
AcDbEntity
  8
ASSI
100
AcDbLine
 62
7
  6
CONTINUOUS
 10
-9.9681998224
 20
-21.6248091789
 11
-9.9681998224
 21
-21.7351908211
  0
LINE
  5
296
100
AcDbEntity
  8
ASSI
100
AcDbLine
 62
250
  6
CONTINUOUS
 10
-9.936639623
 20
10.7371426949
 11
-9.936639623
 21
10.9856334705
  0
LINE
  5
297
100
AcDbEntity
  8
ASSI
100
AcDbLine
 62
250
  6
CONTINUOUS
 10
-9.936639623
 20
18.0143665295
 11
-9.936639623
 21
24.9366738787
  0
LINE
  5
298
100
AcDbEntity
  8
ASSI
100
AcDbLine
 62
250
  6
CONTINUOUS
 10
-9.811693777
 20
-11.4032940408
 11
-9.811693777
 21
-16.1835185879
  0
LINE
  5
299
100
AcDbEntity
  8
ASSI
100
AcDbLine
 62
250
  6
CONTINUOUS
 10
-9.736708158
 20
10.7371426949
 11
-9.736708158
 21
10.9856334705
  0
LINE
  5
29A
100
AcDbEntity
  8
ASSI
100
AcDbLine
 62
250
  6
CONTINUOUS
 10
-9.736708158
 20
18.0143665295
 11
-9.7367081578
 21
25.1366053437
  0
LINE
  5
29B
100
AcDbEntity
  8
ASSI
100
AcDbLine
 62
7
  6
CONTINUOUS
 10
-9.687050838
 20
-11.4020432226
 11
-9.687050838
 21
-16.2356934491
  0
LINE
  5
29C
100
AcDbEntity
  8
ASSI
100
AcDbLine
 62
250
  6
CONTINUOUS
 10
-9.668887889
 20
-24.6880204493
 11
-9.6754278134
 21
-22.0952663437
  0
LINE
  5
29D
100
AcDbEntity
  8
ASSI
100
AcDbLine
 62
7
  6
CONTINUOUS
 10
-11.0915504297
 20
15.2315687618
 11
-11.0891487799
 21
18.7283392151
  0
LINE
  5
29E
100
AcDbEntity
  8
ASSI
100
AcDbLine
 62
7
  6
CONTINUOUS
 10
-10.3347981654
 20
-21.3439640519
 11
-10.2899132466
 21
-16.2006617941
  0
LINE
  5
29F
100
AcDbEntity
  8
ASSI
100
AcDbLine
 62
250
  6
CONTINUOUS
 10
-10.2284743218
 20
-16.3023920832
 11
-10.2721847665
 21
-21.3111129436
  0
LINE
  5
2A0
100
AcDbEntity
  8
ASSI
100
AcDbLine
 62
250
  6
CONTINUOUS
 10
9.736708158
 20
25.1366053437
 11
9.7996914633
 21
25.199588649
  0
LINE
  5
2A1
100
AcDbEntity
  8
ASSI
100
AcDbLine
 62
250
  6
CONTINUOUS
 10
9.936639623
 20
24.9366738787
 11
9.9996229283
 21
24.999657184
  0
LINE
  5
2A2
100
AcDbEntity
  8
ASSI
100
AcDbLine
 62
7
  6
CONTINUOUS
 10
-6.85
 20
8.384112
 11
-9.150022
 21
7.719243
  0
LINE
  5
2A3
100
AcDbEntity
  8
ASSI
100
AcDbLine
 62
250
  6
CONTINUOUS
 10
-9.9922658363
 20
-11.2036569415
 11
-9.9493646921
 21
-11.2033016562
  0
LINE
  5
2A4
100
AcDbEntity
  8
ASSI
100
AcDbLine
 62
250
  6
CONTINUOUS
 10
9.7077275589
 20
-10.3595116908
 11
-9.7077275589
 21
-10.3595116908
  0
LINE
  5
2A5
100
AcDbEntity
  8
ASSI
100
AcDbLine
 62
250
  6
CONTINUOUS
 10
9.9493646921
 20
-11.2033016562
 11
9.9922658363
 21
-11.2036569415
  0
LINE
  5
2A6
100
AcDbEntity
  8
ASSI
100
AcDbLine
 62
250
  6
CONTINUOUS
 10
5.2035823913
 20
-21.0034300864
 11
5.2390435305
 21
-21.0388912257
  0
LINE
  5
2A7
100
AcDbEntity
  8
ASSI
100
AcDbLine
 62
250
  6
CONTINUOUS
 10
9.7682683574
 20
-25.1681655431
 11
9.7237761007
 21
-25.1236732864
  0
LINE
  5
2A8
100
AcDbEntity
  8
ASSI
100
AcDbLine
 62
250
  6
CONTINUOUS
 10
9.9681998224
 20
-24.9682340781
 11
9.9237075657
 21
-24.9237418214
  0
LINE
  5
2A9
100
AcDbEntity
  8
ASSI
100
AcDbLine
 62
250
  6
CONTINUOUS
 10
5.1627466671
 20
-20.1627162061
 11
5.1966003746
 21
-20.1965699136
  0
LINE
  5
2AA
100
AcDbEntity
  8
ASSI
100
AcDbLine
 62
250
  6
CONTINUOUS
 10
5.3630823987
 20
-19.9631128596
 11
5.3965699136
 21
-19.9966003746
  0
LINE
  5
2AB
100
AcDbEntity
  8
ASSI
100
AcDbLine
 62
250
  6
CONTINUOUS
 10
6.2034300864
 20
-20.0035823913
 11
6.2370535324
 21
-20.0372058372
  0
LINE
  5
2AC
100
AcDbEntity
  8
ASSI
100
AcDbLine
 62
250
  6
CONTINUOUS
 10
7.9948548704
 20
-21.6248091789
 11
7.9357052736
 21
-21.5656595821
  0
LINE
  5
2AD
100
AcDbEntity
  8
ASSI
100
AcDbLine
 62
7
  6
CONTINUOUS
 10
-11.0718686124
 20
10.7463020787
 11
-11.0975873503
 21
10.9782419474
  0
LINE
  5
2AE
100
AcDbEntity
  8
ASSI
100
AcDbLine
 62
7
  6
CONTINUOUS
 10
-10.2997103762
 20
14.8762018049
 11
-10.3079725316
 21
14.9596641646
  0
LINE
  5
2AF
100
AcDbEntity
  8
ASSI
100
AcDbLine
 62
7
  6
CONTINUOUS
 10
-7.9352849643
 20
-21.7947607271
 11
-7.9357052736
 21
-21.5656595821
  0
LINE
  5
2B0
100
AcDbEntity
  8
ASSI
100
AcDbLine
 62
7
  6
CONTINUOUS
 10
-9.150022
 20
7.719243
 11
-9.150022
 21
7.385218
  0
LINE
  5
2B1
100
AcDbEntity
  8
ASSI
100
AcDbLine
 62
7
  6
CONTINUOUS
 10
-9.150011
 20
3.190325
 11
-9.150011
 21
2.919923
  0
LINE
  5
2B2
100
AcDbEntity
  8
ASSI
100
AcDbLine
 62
7
  6
CONTINUOUS
 10
-9.150007
 20
6.53903
 11
-9.150007
 21
5.479694
  0
LINE
  5
2B3
100
AcDbEntity
  8
ASSI
100
AcDbLine
 62
7
  6
CONTINUOUS
 10
-9.150007
 20
5.05875
 11
-9.150007
 21
4.807414
  0
LINE
  5
2B4
100
AcDbEntity
  8
ASSI
100
AcDbLine
 62
7
  6
CONTINUOUS
 10
-9.150007
 20
4.034385
 11
-9.150007
 21
3.614468
  0
LINE
  5
2B5
100
AcDbEntity
  8
ASSI
100
AcDbLine
 62
7
  6
CONTINUOUS
 10
-9.150007
 20
1.880401
 11
-9.150007
 21
1.61
  0
LINE
  5
2B6
100
AcDbEntity
  8
ASSI
100
AcDbLine
 62
7
  6
CONTINUOUS
 10
-8.933686
 20
5.750095
 11
-8.933686
 21
6.53903
  0
LINE
  5
2B7
100
AcDbEntity
  8
ASSI
100
AcDbLine
 62
250
  6
CONTINUOUS
 10
-8.2948091789
 20
-21.3248548704
 11
-8.2948091789
 21
-22.0351451296
  0
LINE
  5
2B8
100
AcDbEntity
  8
ASSI
100
AcDbLine
 62
7
  6
CONTINUOUS
 10
-8.144751
 20
6.497674
 11
-8.144751
 21
5.750095
  0
LINE
  5
2B9
100
AcDbEntity
  8
ASSI
100
AcDbLine
 62
250
  6
CONTINUOUS
 10
-7.9948548704
 20
-21.7351908211
 11
-7.9948548704
 21
-21.6248091789
  0
LINE
  5
2BA
100
AcDbEntity
  8
ASSI
100
AcDbLine
 62
7
  6
CONTINUOUS
 10
-7.928429
 20
5.750095
 11
-7.928429
 21
6.497674
  0
LINE
  5
2BB
100
AcDbEntity
  8
ASSI
100
AcDbLine
 62
7
  6
CONTINUOUS
 10
-7.6485
 20
7.878303
 11
-7.6485
 21
7.210253
  0
LINE
  5
2BC
100
AcDbEntity
  8
ASSI
100
AcDbLine
 62
7
  6
CONTINUOUS
 10
-7.432179
 20
7.143447
 11
-7.432179
 21
7.941927
  0
LINE
  5
2BD
100
AcDbEntity
  8
ASSI
100
AcDbLine
 62
7
  6
CONTINUOUS
 10
9.905472871
 20
-11.1747318288
 11
9.9922658363
 21
-11.2036569415
  0
LINE
  5
2BE
100
AcDbEntity
  8
ASSI
100
AcDbLine
 62
250
  6
CONTINUOUS
 10
8.2948091789
 20
-21.3248548704
 11
8.2362088709
 21
-21.2662545624
  0
LINE
  5
2BF
100
AcDbEntity
  8
ASSI
100
AcDbLine
 62
250
  6
CONTINUOUS
 10
5.3965699136
 20
-18.1965394526
 11
5.3663787452
 21
-18.1663482842
  0
LINE
  5
2C0
100
AcDbEntity
  8
ASSI
100
AcDbLine
 62
250
  6
CONTINUOUS
 10
5.5965394526
 20
-17.9965699136
 11
5.5667144768
 21
-17.9667449378
  0
LINE
  5
2C1
100
AcDbEntity
  8
ASSI
100
AcDbLine
 62
7
  6
CONTINUOUS
 10
-7.066327
 20
6.561298
 11
-7.066327
 21
5.750095
  0
LINE
  5
2C2
100
AcDbEntity
  8
ASSI
100
AcDbLine
 62
7
  6
CONTINUOUS
 10
-7.066327
 20
2.602531
 11
-7.066327
 21
1.880401
  0
LINE
  5
2C3
100
AcDbEntity
  8
ASSI
100
AcDbLine
 62
7
  6
CONTINUOUS
 10
-6.850011
 20
2.919923
 11
-6.850011
 21
3.190325
  0
LINE
  5
2C4
100
AcDbEntity
  8
ASSI
100
AcDbLine
 62
7
  6
CONTINUOUS
 10
-6.850006
 20
1.61
 11
-6.850006
 21
2.602531
  0
LINE
  5
2C5
100
AcDbEntity
  8
ASSI
100
AcDbLine
 62
7
  6
CONTINUOUS
 10
-6.850006
 20
3.614468
 11
-6.850006
 21
3.865782
  0
LINE
  5
2C6
100
AcDbEntity
  8
ASSI
100
AcDbLine
 62
7
  6
CONTINUOUS
 10
-6.850006
 20
4.638811
 11
-6.850006
 21
5.05875
  0
LINE
  5
2C7
100
AcDbEntity
  8
ASSI
100
AcDbLine
 62
7
  6
CONTINUOUS
 10
-6.850006
 20
5.479694
 11
-6.850006
 21
6.561298
  0
LINE
  5
2C8
100
AcDbEntity
  8
ASSI
100
AcDbLine
 62
7
  6
CONTINUOUS
 10
-6.85
 20
6.710806
 11
-6.85
 21
6.981206
  0
LINE
  5
2C9
100
AcDbEntity
  8
ASSI
100
AcDbLine
 62
7
  6
CONTINUOUS
 10
-6.85
 20
8.104146
 11
-6.85
 21
8.384112
  0
LINE
  5
2CA
100
AcDbEntity
  8
ASSI
100
AcDbLine
 62
250
  6
CONTINUOUS
 10
-6.2034300864
 20
-18.1965394526
 11
-6.2034300864
 21
-20.0035823913
  0
LINE
  5
2CB
100
AcDbEntity
  8
ASSI
100
AcDbLine
 62
250
  6
CONTINUOUS
 10
-6.1689736718
 20
-0.6925584265
 11
-6.1689737036
 21
-0.4310567573
  0
LINE
  5
2CC
100
AcDbEntity
  8
ASSI
100
AcDbLine
 62
250
  6
CONTINUOUS
 10
-6.0034605474
 20
-20.0035823913
 11
-6.0034605474
 21
-17.9965699136
  0
LINE
  5
2CD
100
AcDbEntity
  8
ASSI
100
AcDbLine
 62
250
  6
CONTINUOUS
 10
-5.9999390734
 20
-1.1999390734
 11
-5.9999390734
 21
-2.4999695344
  0
LINE
  5
2CE
100
AcDbEntity
  8
ASSI
100
AcDbLine
 62
250
  6
CONTINUOUS
 10
-5.7999695344
 20
-1.196508987
 11
-5.7999695344
 21
-2.6999390734
  0
LINE
  5
2CF
100
AcDbEntity
  8
ASSI
100
AcDbLine
 62
250
  6
CONTINUOUS
 10
-5.5965394526
 20
-19.9966003746
 11
-5.5965394526
 21
-17.9965699136
  0
LINE
  5
2D0
100
AcDbEntity
  8
ASSI
100
AcDbLine
 62
7
  6
CONTINUOUS
 10
-6.4046068335
 20
-0.5953627055
 11
-6.4046763983
 21
-0.6634143993
  0
LINE
  5
2D1
100
AcDbEntity
  8
ASSI
100
AcDbLine
 62
7
  6
CONTINUOUS
 10
-6.2336212548
 20
-18.1663482842
 11
-6.2370535324
 21
-20.0372058372
  0
LINE
  5
2D2
100
AcDbEntity
  8
ASSI
100
AcDbLine
 62
250
  6
CONTINUOUS
 10
-6.3688835721
 20
-0.6262031248
 11
-6.3689432166
 21
-0.6310263225
  0
LINE
  5
2D3
100
AcDbEntity
  8
ASSI
100
AcDbLine
 62
250
  6
CONTINUOUS
 10
-9.868819354
 20
-24.4923810854
 11
-9.9199053059
 21
-24.9065734171
  0
LINE
  5
2D4
100
AcDbEntity
  8
ASSI
100
AcDbLine
 62
250
  6
CONTINUOUS
 10
-9.668887889
 20
-24.6880204493
 11
-9.7199738409
 21
-25.1022127811
  0
LINE
  5
2D5
100
AcDbEntity
  8
ASSI
100
AcDbLine
 62
7
  6
CONTINUOUS
 10
-3.2128480867
 20
8.2942378508
 11
-3.6973821272
 21
7.1175256378
  0
LINE
  5
2D6
100
AcDbEntity
  8
ASSI
100
AcDbLine
 62
7
  6
CONTINUOUS
 10
-7.082233
 20
4.807414
 11
-9.150007
 21
4.034385
  0
LINE
  5
2D7
100
AcDbEntity
  8
ASSI
100
AcDbLine
 62
7
  6
CONTINUOUS
 10
-8.91778
 20
3.865782
 11
-6.850006
 21
4.638811
  0
LINE
  5
2D8
100
AcDbEntity
  8
ASSI
100
AcDbLine
 62
250
  6
CONTINUOUS
 10
-5.4451426712
 20
-2.6999390734
 11
-5.4380487479
 21
-2.7070329968
  0
LINE
  5
2D9
100
AcDbEntity
  8
ASSI
100
AcDbLine
 62
7
  6
CONTINUOUS
 10
-10.0068623476
 20
7.0217580526
 11
-10.0840342344
 21
7.2536979213
  0
LINE
  5
2DA
100
AcDbEntity
  8
ASSI
100
AcDbLine
 62
7
  6
CONTINUOUS
 10
-10.2613141848
 20
12.166878013
 11
-10.0337300023
 21
11.3175222811
  0
LINE
  5
2DB
100
AcDbEntity
  8
ASSI
100
AcDbLine
 62
250
  6
CONTINUOUS
 10
-9.9707923891
 20
11.2447301739
 11
-10.2193611024
 21
12.1724012411
  0
LINE
  5
2DC
100
AcDbEntity
  8
ASSI
100
AcDbLine
 62
250
  6
CONTINUOUS
 10
-9.7776366468
 20
11.2964860991
 11
-10.0262053601
 21
12.2241571663
  0
LINE
  5
2DD
100
AcDbEntity
  8
ASSI
100
AcDbLine
 62
7
  6
CONTINUOUS
 10
-5.3630823987
 20
-19.9631128596
 11
-5.3663787452
 21
-18.1663482842
  0
LINE
  5
2DE
100
AcDbEntity
  8
ASSI
100
AcDbLine
 62
250
  6
CONTINUOUS
 10
-5.4451426712
 20
-2.6999390734
 11
-5.4451426712
 21
-1.196508987
  0
LINE
  5
2DF
100
AcDbEntity
  8
ASSI
100
AcDbLine
 62
250
  6
CONTINUOUS
 10
-5.3965699136
 20
-19.9966003746
 11
-5.3965699136
 21
-18.1965394526
  0
LINE
  5
2E0
100
AcDbEntity
  8
ASSI
100
AcDbLine
 62
250
  6
CONTINUOUS
 10
-5.2451731322
 20
-2.4999695344
 11
-5.2451731322
 21
-1.1999390734
  0
LINE
  5
2E1
100
AcDbEntity
  8
ASSI
100
AcDbLine
 62
250
  6
CONTINUOUS
 10
-5.2035823913
 20
-20.8034605474
 11
-5.2035823913
 21
-21.0034300864
  0
LINE
  5
2E2
100
AcDbEntity
  8
ASSI
100
AcDbLine
 62
250
  6
CONTINUOUS
 10
-5.1966003746
 20
-20.3965394526
 11
-5.1966003746
 21
-20.1965699136
  0
LINE
  5
2E3
100
AcDbEntity
  8
ASSI
100
AcDbLine
 62
7
  6
CONTINUOUS
 10
-3.02989
 20
3.911797
 11
-3.481663
 21
2.32878
  0
LINE
  5
2E4
100
AcDbEntity
  8
ASSI
100
AcDbLine
 62
7
  6
CONTINUOUS
 10
-3.289406
 20
1.612007
 11
-2.550162
 21
3.911797
  0
LINE
  5
2E5
100
AcDbEntity
  8
ASSI
100
AcDbLine
 62
250
  6
CONTINUOUS
 10
-6.3770951726
 20
-0.9771256335
 11
-6.4050346929
 21
-1.0050651539
  0
LINE
  5
2E6
100
AcDbEntity
  8
ASSI
100
AcDbLine
 62
250
  6
CONTINUOUS
 10
-5.2451731322
 20
-2.4999695344
 11
-5.2383318847
 21
-2.5068107819
  0
LINE
  5
2E7
100
AcDbEntity
  8
ASSI
100
AcDbLine
 62
250
  6
CONTINUOUS
 10
-6.3689432155
 20
-0.6310263236
 11
-6.4046068335
 21
-0.5953627055
  0
LINE
  5
2E8
100
AcDbEntity
  8
ASSI
100
AcDbLine
 62
250
  6
CONTINUOUS
 10
-6.1689737036
 20
-0.4310567573
 11
-6.2044365927
 21
-0.3955938683
  0
LINE
  5
2E9
100
AcDbEntity
  8
ASSI
100
AcDbLine
 62
250
  6
CONTINUOUS
 10
-3.3310568066
 20
-0.6310263456
 11
-3.3311164509
 21
-0.6262031522
  0
LINE
  5
2EA
100
AcDbEntity
  8
ASSI
100
AcDbLine
 62
7
  6
CONTINUOUS
 10
-3.2953931665
 20
-0.5953627055
 11
-3.2953236017
 21
-0.6634144029
  0
LINE
  5
2EB
100
AcDbEntity
  8
ASSI
100
AcDbLine
 62
250
  6
CONTINUOUS
 10
-3.5310263733
 20
-0.6925543433
 11
-3.5310262964
 21
-0.4310567573
  0
LINE
  5
2EC
100
AcDbEntity
  8
ASSI
100
AcDbLine
 62
7
  6
CONTINUOUS
 10
-3.3155517821
 20
7.1175256378
 11
-3.3155517821
 21
5.3965397575
  0
LINE
  5
2ED
100
AcDbEntity
  8
ASSI
100
AcDbLine
 62
7
  6
CONTINUOUS
 10
-3.1099579961
 20
5.3965397575
 11
-3.1099579961
 21
7.1175256378
  0
LINE
  5
2EE
100
AcDbEntity
  8
ASSI
100
AcDbLine
 62
7
  6
CONTINUOUS
 10
-2.372012
 20
3.911935
 11
-2.372012
 21
1.612007
  0
LINE
  5
2EF
100
AcDbEntity
  8
ASSI
100
AcDbLine
 62
250
  6
CONTINUOUS
 10
-2.3211245552
 20
26.4
 11
-2.3211245552
 21
25.199588649
  0
LINE
  5
2F0
100
AcDbEntity
  8
ASSI
100
AcDbLine
 62
250
  6
CONTINUOUS
 10
-2.0213073071
 20
26.3974733087
 11
-2.0213073071
 21
25.2071702628
  0
LINE
  5
2F1
100
AcDbEntity
  8
ASSI
100
AcDbLine
 62
250
  6
CONTINUOUS
 10
-2.0101106157
 20
25.2155662887
 11
-2.0101106157
 21
26.3946752018
  0
LINE
  5
2F2
100
AcDbEntity
  8
ASSI
100
AcDbLine
 62
7
  6
CONTINUOUS
 10
-1.891956
 20
1.612007
 11
-1.891956
 21
3.911935
  0
LINE
  5
2F3
100
AcDbEntity
  8
ASSI
100
AcDbLine
 62
7
  6
CONTINUOUS
 10
-1.8282293375
 20
8.353414866
 11
-1.8282293375
 21
6.4295633461
  0
LINE
  5
2F4
100
AcDbEntity
  8
ASSI
100
AcDbLine
 62
250
  6
CONTINUOUS
 10
-1.7102933676
 20
25.2231479025
 11
-1.7102933676
 21
26.3921485104
  0
LINE
  5
2F5
100
AcDbEntity
  8
ASSI
100
AcDbLine
 62
7
  6
CONTINUOUS
 10
-1.425869
 20
3.911797
 11
-1.633526
 21
1.612007
  0
LINE
  5
2F6
100
AcDbEntity
  8
ASSI
100
AcDbLine
 62
250
  6
CONTINUOUS
 10
-0.4
 20
21.6024698564
 11
-0.3975142412
 21
21.6275804095
  0
LINE
  5
2F7
100
AcDbEntity
  8
ASSI
100
AcDbLine
 62
250
  6
CONTINUOUS
 10
-0.2005757424
 20
21.4
 11
-0.1975447022
 21
21.4306188589
  0
LINE
  5
2F8
100
AcDbEntity
  8
ASSI
100
AcDbLine
 62
250
  6
CONTINUOUS
 10
-6.1771256335
 20
-1.1770951726
 11
-6.2052820006
 21
-1.2052515396
  0
LINE
  5
2F9
100
AcDbEntity
  8
ASSI
100
AcDbLine
 62
250
  6
CONTINUOUS
 10
-5.9999390734
 20
-2.4999695344
 11
-6.006780321
 21
-2.5068107819
  0
LINE
  5
2FA
100
AcDbEntity
  8
ASSI
100
AcDbLine
 62
250
  6
CONTINUOUS
 10
-5.7999695344
 20
-2.6999390734
 11
-5.8070634577
 21
-2.7070329968
  0
LINE
  5
2FB
100
AcDbEntity
  8
ASSI
100
AcDbLine
 62
250
  6
CONTINUOUS
 10
-3.5310262964
 20
-0.4310567573
 11
-3.4955634073
 21
-0.3955938683
  0
LINE
  5
2FC
100
AcDbEntity
  8
ASSI
100
AcDbLine
 62
250
  6
CONTINUOUS
 10
-3.3310568066
 20
-0.6310263456
 11
-3.2953931665
 21
-0.5953627055
  0
LINE
  5
2FD
100
AcDbEntity
  8
ASSI
100
AcDbLine
 62
7
  6
CONTINUOUS
 10
5.8070634577
 20
-2.7070329968
 11
5.4380487479
 21
-2.7070329968
  0
LINE
  5
2FE
100
AcDbEntity
  8
ASSI
100
AcDbLine
 62
7
  6
CONTINUOUS
 10
-5.4380487479
 20
-2.7070329968
 11
-5.8070634577
 21
-2.7070329968
  0
LINE
  5
2FF
100
AcDbEntity
  8
ASSI
100
AcDbLine
 62
250
  6
CONTINUOUS
 10
-5.7999695344
 20
-2.6999390734
 11
-5.4451426712
 21
-2.6999390734
  0
LINE
  5
300
100
AcDbEntity
  8
ASSI
100
AcDbLine
 62
250
  6
CONTINUOUS
 10
5.4451426712
 20
-2.6999390734
 11
5.7999695344
 21
-2.6999390734
  0
LINE
  5
301
100
AcDbEntity
  8
ASSI
100
AcDbLine
 62
250
  6
CONTINUOUS
 10
5.2451731322
 20
-2.4999695344
 11
5.9999390734
 21
-2.4999695344
  0
LINE
  5
302
100
AcDbEntity
  8
ASSI
100
AcDbLine
 62
250
  6
CONTINUOUS
 10
-5.2451731322
 20
-2.4999695344
 11
-5.9999390734
 21
-2.4999695344
  0
LINE
  5
303
100
AcDbEntity
  8
ASSI
100
AcDbLine
 62
250
  6
CONTINUOUS
 10
-3.4947179994
 20
-1.2052515396
 11
-3.5228743665
 21
-1.1770951726
  0
LINE
  5
304
100
AcDbEntity
  8
ASSI
100
AcDbLine
 62
250
  6
CONTINUOUS
 10
-3.2949653071
 20
-1.0050651539
 11
-3.3229048274
 21
-0.9771256335
  0
LINE
  5
305
100
AcDbEntity
  8
ASSI
100
AcDbLine
 62
7
  6
CONTINUOUS
 10
-4.441534
 20
3.911797
 11
-3.712456
 21
1.612007
  0
LINE
  5
306
100
AcDbEntity
  8
ASSI
100
AcDbLine
 62
7
  6
CONTINUOUS
 10
-3.481663
 20
2.32878
 11
-3.920045
 21
3.911797
  0
LINE
  5
307
100
AcDbEntity
  8
ASSI
100
AcDbLine
 62
7
  6
CONTINUOUS
 10
-1.3773650285
 20
6.4635522086
 11
-1.3773650285
 21
8.353414866
  0
LINE
  5
308
100
AcDbEntity
  8
ASSI
100
AcDbLine
 62
7
  6
CONTINUOUS
 10
-0.4498376355
 20
8.353414866
 11
-0.4498376355
 21
6.4430769902
  0
LINE
  5
309
100
AcDbEntity
  8
ASSI
100
AcDbLine
 62
7
  6
CONTINUOUS
 10
-0.4
 20
24.9366738787
 11
-0.4
 21
21.6024698564
  0
LINE
  5
30A
100
AcDbEntity
  8
ASSI
100
AcDbLine
 62
250
  6
CONTINUOUS
 10
-0.3859750215
 20
22.4154266119
 11
-0.3859750215
 21
25.1525453917
  0
LINE
  5
30B
100
AcDbEntity
  8
ASSI
100
AcDbLine
 62
250
  6
CONTINUOUS
 10
-0.1860054824
 20
22.4154266119
 11
-0.1860054824
 21
25.1576911745
  0
LINE
  5
30C
100
AcDbEntity
  8
ASSI
100
AcDbLine
 62
7
  6
CONTINUOUS
 10
-0.0100299444
 20
6.3935269617
 11
-0.0100299444
 21
8.353414866
  0
LINE
  5
30D
100
AcDbEntity
  8
ASSI
100
AcDbLine
 62
250
  6
CONTINUOUS
 10
0.1860054824
 20
25.1576911745
 11
0.1860054824
 21
22.4154266119
  0
LINE
  5
30E
100
AcDbEntity
  8
ASSI
100
AcDbLine
 62
7
  6
CONTINUOUS
 10
-1.174268
 20
1.612007
 11
-1.070672
 21
3.113726
  0
LINE
  5
30F
100
AcDbEntity
  8
ASSI
100
AcDbLine
 62
7
  6
CONTINUOUS
 10
1.4956
 20
3.911797
 11
0.77424
 21
1.612007
  0
LINE
  5
310
100
AcDbEntity
  8
ASSI
100
AcDbLine
 62
7
  6
CONTINUOUS
 10
0.008833
 20
3.911797
 11
-0.471223
 21
2.634946
  0
LINE
  5
311
100
AcDbEntity
  8
ASSI
100
AcDbLine
 62
7
  6
CONTINUOUS
 10
-0.44018
 20
1.612007
 11
0.130606
 21
3.107466
  0
LINE
  5
312
100
AcDbEntity
  8
ASSI
100
AcDbLine
 62
7
  6
CONTINUOUS
 10
3.606725868
 20
8.2976980933
 11
3.12209863
 21
7.1209858803
  0
LINE
  5
313
100
AcDbEntity
  8
ASSI
100
AcDbLine
 62
250
  6
CONTINUOUS
 10
10.0337300023
 20
11.3175222811
 11
9.9707923891
 21
11.2447301739
  0
LINE
  5
314
100
AcDbEntity
  8
ASSI
100
AcDbLine
 62
7
  6
CONTINUOUS
 10
6.2052820006
 20
-1.2052515396
 11
6.0052515396
 21
-1.2052515396
  0
LINE
  5
315
100
AcDbEntity
  8
ASSI
100
AcDbLine
 62
7
  6
CONTINUOUS
 10
5.239860666
 20
-1.2052515396
 11
3.4947179994
 21
-1.2052515396
  0
LINE
  5
316
100
AcDbEntity
  8
ASSI
100
AcDbLine
 62
7
  6
CONTINUOUS
 10
-3.4947179994
 20
-1.2052515396
 11
-5.239860666
 21
-1.2052515396
  0
LINE
  5
317
100
AcDbEntity
  8
ASSI
100
AcDbLine
 62
7
  6
CONTINUOUS
 10
-6.0052515396
 20
-1.2052515396
 11
-6.2052820006
 21
-1.2052515396
  0
LINE
  5
318
100
AcDbEntity
  8
ASSI
100
AcDbLine
 62
7
  6
CONTINUOUS
 10
5.7999695344
 20
-1.196508987
 11
5.4451426712
 21
-1.196508987
  0
LINE
  5
319
100
AcDbEntity
  8
ASSI
100
AcDbLine
 62
7
  6
CONTINUOUS
 10
-5.4451426712
 20
-1.196508987
 11
-5.7999695344
 21
-1.196508987
  0
LINE
  5
31A
100
AcDbEntity
  8
ASSI
100
AcDbLine
 62
250
  6
CONTINUOUS
 10
-6.1771256335
 20
-1.1770951726
 11
-3.5228743665
 21
-1.1770951726
  0
LINE
  5
31B
100
AcDbEntity
  8
ASSI
100
AcDbLine
 62
250
  6
CONTINUOUS
 10
3.5228743665
 20
-1.1770951726
 11
6.1771256335
 21
-1.1770951726
  0
LINE
  5
31C
100
AcDbEntity
  8
ASSI
100
AcDbLine
 62
250
  6
CONTINUOUS
 10
6.1689736268
 20
-0.6925543433
 11
3.5310263296
 21
-0.6925584265
  0
LINE
  5
31D
100
AcDbEntity
  8
ASSI
100
AcDbLine
 62
250
  6
CONTINUOUS
 10
-3.5310263732
 20
-0.6925543433
 11
-6.1689736704
 21
-0.6925584265
  0
LINE
  5
31E
100
AcDbEntity
  8
ASSI
100
AcDbLine
 62
250
  6
CONTINUOUS
 10
6.1689737036
 20
-0.4310567573
 11
3.5310262964
 21
-0.4310567573
  0
LINE
  5
31F
100
AcDbEntity
  8
ASSI
100
AcDbLine
 62
250
  6
CONTINUOUS
 10
-3.5310262964
 20
-0.4310567573
 11
-6.1689737036
 21
-0.4310567573
  0
LINE
  5
320
100
AcDbEntity
  8
ASSI
100
AcDbLine
 62
7
  6
CONTINUOUS
 10
6.2044365927
 20
-0.3955938683
 11
3.4955634073
 21
-0.3955938683
  0
LINE
  5
321
100
AcDbEntity
  8
ASSI
100
AcDbLine
 62
7
  6
CONTINUOUS
 10
-3.4955634073
 20
-0.3955938683
 11
-6.2044365927
 21
-0.3955938683
  0
LINE
  5
322
100
AcDbEntity
  8
ASSI
100
AcDbLine
 62
250
  6
CONTINUOUS
 10
9.6578408251
 20
-11.3728332097
 11
9.687050838
 21
-11.4020432226
  0
LINE
  5
323
100
AcDbEntity
  8
ASSI
100
AcDbLine
 62
250
  6
CONTINUOUS
 10
9.8586420285
 20
-11.1736496439
 11
9.8870432226
 21
-11.202050838
  0
LINE
  5
324
100
AcDbEntity
  8
ASSI
100
AcDbLine
 62
250
  6
CONTINUOUS
 10
-9.936639623
 20
10.9856334705
 11
-10.0020285339
 21
11.0612606887
  0
LINE
  5
325
100
AcDbEntity
  8
ASSI
100
AcDbLine
 62
250
  6
CONTINUOUS
 10
-9.9707923891
 20
11.2447301739
 11
-10.0337300023
 21
11.3175222811
  0
LINE
  5
326
100
AcDbEntity
  8
ASSI
100
AcDbLine
 62
7
  6
CONTINUOUS
 10
-2.7282208486
 20
7.1175256378
 11
-3.2128480867
 21
8.2942378508
  0
LINE
  5
327
100
AcDbEntity
  8
ASSI
100
AcDbLine
 62
7
  6
CONTINUOUS
 10
-1.070672
 20
3.113726
 11
-0.507508
 21
1.612007
  0
LINE
  5
328
100
AcDbEntity
  8
ASSI
100
AcDbLine
 62
7
  6
CONTINUOUS
 10
0.698858
 20
1.612007
 11
0.483802
 21
3.911797
  0
LINE
  5
329
100
AcDbEntity
  8
ASSI
100
AcDbLine
 62
7
  6
CONTINUOUS
 10
0.130606
 20
3.107466
 11
0.229236
 21
1.612007
  0
LINE
  5
32A
100
AcDbEntity
  8
ASSI
100
AcDbLine
 62
250
  6
CONTINUOUS
 10
0.3859750215
 20
25.1525453917
 11
0.3859750215
 21
22.4154266119
  0
LINE
  5
32B
100
AcDbEntity
  8
ASSI
100
AcDbLine
 62
7
  6
CONTINUOUS
 10
0.4
 20
24.9366738787
 11
0.4
 21
21.6024698564
  0
LINE
  5
32C
100
AcDbEntity
  8
ASSI
100
AcDbLine
 62
7
  6
CONTINUOUS
 10
0.5780183277
 20
8.3530053617
 11
0.5780183277
 21
5.4381532716
  0
LINE
  5
32D
100
AcDbEntity
  8
ASSI
100
AcDbLine
 62
7
  6
CONTINUOUS
 10
1.0297016454
 20
5.4381532716
 11
1.0297016454
 21
6.7002457332
  0
LINE
  5
32E
100
AcDbEntity
  8
ASSI
100
AcDbLine
 62
7
  6
CONTINUOUS
 10
1.0297016454
 20
7.0389058454
 11
1.0297016454
 21
8.0147547539
  0
LINE
  5
32F
100
AcDbEntity
  8
ASSI
100
AcDbLine
 62
250
  6
CONTINUOUS
 10
1.7102933676
 20
26.3921485104
 11
1.7102933676
 21
25.2231479025
  0
LINE
  5
330
100
AcDbEntity
  8
ASSI
100
AcDbLine
 62
250
  6
CONTINUOUS
 10
2.0101106157
 20
26.3946752018
 11
2.0101106157
 21
25.2155662887
  0
LINE
  5
331
100
AcDbEntity
  8
ASSI
100
AcDbLine
 62
250
  6
CONTINUOUS
 10
2.0213073071
 20
25.2071702628
 11
2.0213073071
 21
26.3974733087
  0
LINE
  5
332
100
AcDbEntity
  8
ASSI
100
AcDbLine
 62
7
  6
CONTINUOUS
 10
1.479751
 20
2.426392
 11
1.718779
 21
3.279873
  0
LINE
  5
333
100
AcDbEntity
  8
ASSI
100
AcDbLine
 62
7
  6
CONTINUOUS
 10
1.249088
 20
1.612007
 11
1.381553
 21
2.071127
  0
LINE
  5
334
100
AcDbEntity
  8
ASSI
100
AcDbLine
 62
250
  6
CONTINUOUS
 10
10.0020285339
 20
11.0612606887
 11
9.936639623
 21
10.9856334705
  0
LINE
  5
335
100
AcDbEntity
  8
ASSI
100
AcDbLine
 62
250
  6
CONTINUOUS
 10
-9.8870432226
 20
-11.202050838
 11
-9.8586420285
 21
-11.1736496439
  0
LINE
  5
336
100
AcDbEntity
  8
ASSI
100
AcDbLine
 62
250
  6
CONTINUOUS
 10
-9.687050838
 20
-11.4020432226
 11
-9.6578408251
 21
-11.3728332097
  0
LINE
  5
337
100
AcDbEntity
  8
ASSI
100
AcDbLine
 62
7
  6
CONTINUOUS
 10
-9.150007
 20
1.61
 11
-6.850006
 21
1.61
  0
LINE
  5
338
100
AcDbEntity
  8
ASSI
100
AcDbLine
 62
7
  6
CONTINUOUS
 10
-3.712456
 20
1.612007
 11
-3.289406
 21
1.612007
  0
LINE
  5
339
100
AcDbEntity
  8
ASSI
100
AcDbLine
 62
7
  6
CONTINUOUS
 10
-2.372012
 20
1.612007
 11
-1.891956
 21
1.612007
  0
LINE
  5
33A
100
AcDbEntity
  8
ASSI
100
AcDbLine
 62
7
  6
CONTINUOUS
 10
-1.633526
 20
1.612007
 11
-1.174268
 21
1.612007
  0
LINE
  5
33B
100
AcDbEntity
  8
ASSI
100
AcDbLine
 62
7
  6
CONTINUOUS
 10
-0.507508
 20
1.612007
 11
-0.44018
 21
1.612007
  0
LINE
  5
33C
100
AcDbEntity
  8
ASSI
100
AcDbLine
 62
7
  6
CONTINUOUS
 10
0.229236
 20
1.612007
 11
0.698858
 21
1.612007
  0
LINE
  5
33D
100
AcDbEntity
  8
ASSI
100
AcDbLine
 62
7
  6
CONTINUOUS
 10
0.77424
 20
1.612007
 11
1.249088
 21
1.612007
  0
LINE
  5
33E
100
AcDbEntity
  8
ASSI
100
AcDbLine
 62
7
  6
CONTINUOUS
 10
2.15967
 20
1.612007
 11
2.66563
 21
1.612007
  0
LINE
  5
33F
100
AcDbEntity
  8
ASSI
100
AcDbLine
 62
7
  6
CONTINUOUS
 10
2.8065975821
 20
1.6120071664
 11
3.2847223015
 21
1.6120071664
  0
LINE
  5
340
100
AcDbEntity
  8
ASSI
100
AcDbLine
 62
7
  6
CONTINUOUS
 10
4.0198623394
 20
1.6120071664
 11
4.4816207207
 21
1.6120071664
  0
LINE
  5
341
100
AcDbEntity
  8
ASSI
100
AcDbLine
 62
7
  6
CONTINUOUS
 10
7.3653526664
 20
1.7376902796
 11
7.3939833701
 21
1.7376902796
  0
LINE
  5
342
100
AcDbEntity
  8
ASSI
100
AcDbLine
 62
7
  6
CONTINUOUS
 10
-7.066327
 20
1.880401
 11
-9.150007
 21
1.880401
  0
LINE
  5
343
100
AcDbEntity
  8
ASSI
100
AcDbLine
 62
7
  6
CONTINUOUS
 10
1.381553
 20
2.071127
 11
2.03531
 21
2.071127
  0
LINE
  5
344
100
AcDbEntity
  8
ASSI
100
AcDbLine
 62
7
  6
CONTINUOUS
 10
7.8584370077
 20
2.1289765805
 11
8.058852002
 21
2.1289765805
  0
LINE
  5
345
100
AcDbEntity
  8
ASSI
100
AcDbLine
 62
250
  6
CONTINUOUS
 10
3.2953931665
 20
-0.5953627055
 11
3.3310567845
 21
-0.6310263236
  0
LINE
  5
346
100
AcDbEntity
  8
ASSI
100
AcDbLine
 62
7
  6
CONTINUOUS
 10
-0.471223
 20
2.634946
 11
-0.946209
 21
3.911797
  0
LINE
  5
347
100
AcDbEntity
  8
ASSI
100
AcDbLine
 62
250
  6
CONTINUOUS
 10
0.1975447022
 20
21.4306188589
 11
0.2005757424
 21
21.4
  0
LINE
  5
348
100
AcDbEntity
  8
ASSI
100
AcDbLine
 62
250
  6
CONTINUOUS
 10
0.3975142412
 20
21.6275804095
 11
0.4
 21
21.6024698564
  0
LINE
  5
349
100
AcDbEntity
  8
ASSI
100
AcDbLine
 62
250
  6
CONTINUOUS
 10
2.3211245552
 20
25.199588649
 11
2.3211245552
 21
26.4
  0
LINE
  5
34A
100
AcDbEntity
  8
ASSI
100
AcDbLine
 62
7
  6
CONTINUOUS
 10
2.8065975821
 20
3.8849276465
 11
2.8065975821
 21
1.6120071664
  0
LINE
  5
34B
100
AcDbEntity
  8
ASSI
100
AcDbLine
 62
7
  6
CONTINUOUS
 10
3.2688043561
 20
2.888667771
 11
3.2688043561
 21
3.5200048698
  0
LINE
  5
34C
100
AcDbEntity
  8
ASSI
100
AcDbLine
 62
7
  6
CONTINUOUS
 10
3.2847223015
 20
1.6120071664
 11
3.2847223015
 21
2.5120177973
  0
LINE
  5
34D
100
AcDbEntity
  8
ASSI
100
AcDbLine
 62
7
  6
CONTINUOUS
 10
3.5040221726
 20
7.1209858803
 11
3.5040221726
 21
5.4
  0
LINE
  5
34E
100
AcDbEntity
  8
ASSI
100
AcDbLine
 62
250
  6
CONTINUOUS
 10
3.5310263282
 20
-0.6925584265
 11
3.5310262964
 21
-0.4310567573
  0
LINE
  5
34F
100
AcDbEntity
  8
ASSI
100
AcDbLine
 62
7
  6
CONTINUOUS
 10
3.7094295635
 20
5.4
 11
3.7094295635
 21
7.1209858803
  0
LINE
  5
350
100
AcDbEntity
  8
ASSI
100
AcDbLine
 62
7
  6
CONTINUOUS
 10
4.0407988352
 20
2.685528575
 11
4.0407988352
 21
2.6991183268
  0
LINE
  5
351
100
AcDbEntity
  8
ASSI
100
AcDbLine
 62
7
  6
CONTINUOUS
 10
3.2953236017
 20
-0.6634144029
 11
3.2953931665
 21
-0.5953627055
  0
LINE
  5
352
100
AcDbEntity
  8
ASSI
100
AcDbLine
 62
250
  6
CONTINUOUS
 10
3.3311164279
 20
-0.6262031248
 11
3.3310567834
 21
-0.6310263225
  0
LINE
  5
353
100
AcDbEntity
  8
ASSI
100
AcDbLine
 62
250
  6
CONTINUOUS
 10
3.3229048274
 20
-0.9771256335
 11
3.2949653071
 21
-1.0050651539
  0
LINE
  5
354
100
AcDbEntity
  8
ASSI
100
AcDbLine
 62
250
  6
CONTINUOUS
 10
3.5228743665
 20
-1.1770951726
 11
3.4947179994
 21
-1.2052515396
  0
LINE
  5
355
100
AcDbEntity
  8
ASSI
100
AcDbLine
 62
7
  6
CONTINUOUS
 10
1.939371
 20
2.426392
 11
1.479751
 21
2.426392
  0
LINE
  5
356
100
AcDbEntity
  8
ASSI
100
AcDbLine
 62
7
  6
CONTINUOUS
 10
3.2847223015
 20
2.5120177973
 11
3.5421170294
 21
2.5120177973
  0
LINE
  5
357
100
AcDbEntity
  8
ASSI
100
AcDbLine
 62
7
  6
CONTINUOUS
 10
-6.850006
 20
2.602531
 11
-7.066327
 21
2.602531
  0
LINE
  5
358
100
AcDbEntity
  8
ASSI
100
AcDbLine
 62
7
  6
CONTINUOUS
 10
3.543151782
 20
2.888667771
 11
3.2688043561
 21
2.888667771
  0
LINE
  5
359
100
AcDbEntity
  8
ASSI
100
AcDbLine
 62
7
  6
CONTINUOUS
 10
-9.150011
 20
2.919923
 11
-6.850011
 21
2.919923
  0
LINE
  5
35A
100
AcDbEntity
  8
ASSI
100
AcDbLine
 62
7
  6
CONTINUOUS
 10
-6.850011
 20
3.190325
 11
-9.150011
 21
3.190325
  0
LINE
  5
35B
100
AcDbEntity
  8
ASSI
100
AcDbLine
 62
7
  6
CONTINUOUS
 10
7.1967496336
 20
3.3473721847
 11
7.4671507239
 21
3.3473721847
  0
LINE
  5
35C
100
AcDbEntity
  8
ASSI
100
AcDbLine
 62
7
  6
CONTINUOUS
 10
-9.150007
 20
3.614468
 11
-6.850006
 21
3.614468
  0
LINE
  5
35D
100
AcDbEntity
  8
ASSI
100
AcDbLine
 62
7
  6
CONTINUOUS
 10
7.1713001192
 20
3.7163901433
 11
9.15
 21
3.7163901433
  0
LINE
  5
35E
100
AcDbEntity
  8
ASSI
100
AcDbLine
 62
7
  6
CONTINUOUS
 10
-6.850006
 20
3.865782
 11
-8.91778
 21
3.865782
  0
LINE
  5
35F
100
AcDbEntity
  8
ASSI
100
AcDbLine
 62
7
  6
CONTINUOUS
 10
1.959997
 20
3.911797
 11
1.4956
 21
3.911797
  0
LINE
  5
360
100
AcDbEntity
  8
ASSI
100
AcDbLine
 62
7
  6
CONTINUOUS
 10
0.483802
 20
3.911797
 11
0.008833
 21
3.911797
  0
LINE
  5
361
100
AcDbEntity
  8
ASSI
100
AcDbLine
 62
7
  6
CONTINUOUS
 10
-0.946209
 20
3.911797
 11
-1.425869
 21
3.911797
  0
LINE
  5
362
100
AcDbEntity
  8
ASSI
100
AcDbLine
 62
7
  6
CONTINUOUS
 10
-2.550162
 20
3.911797
 11
-3.02989
 21
3.911797
  0
LINE
  5
363
100
AcDbEntity
  8
ASSI
100
AcDbLine
 62
7
  6
CONTINUOUS
 10
-3.920045
 20
3.911797
 11
-4.441534
 21
3.911797
  0
LINE
  5
364
100
AcDbEntity
  8
ASSI
100
AcDbLine
 62
7
  6
CONTINUOUS
 10
-1.891956
 20
3.911935
 11
-2.372012
 21
3.911935
  0
LINE
  5
365
100
AcDbEntity
  8
ASSI
100
AcDbLine
 62
7
  6
CONTINUOUS
 10
9.15
 20
3.9804288551
 11
6.85
 21
3.9804288551
  0
LINE
  5
366
100
AcDbEntity
  8
ASSI
100
AcDbLine
 62
250
  6
CONTINUOUS
 10
3.4955634073
 20
-0.3955938683
 11
3.5310262964
 21
-0.4310567573
  0
LINE
  5
367
100
AcDbEntity
  8
ASSI
100
AcDbLine
 62
250
  6
CONTINUOUS
 10
5.7999695344
 20
-2.6999390734
 11
5.8070634577
 21
-2.7070329968
  0
LINE
  5
368
100
AcDbEntity
  8
ASSI
100
AcDbLine
 62
250
  6
CONTINUOUS
 10
5.9999390734
 20
-2.4999695344
 11
6.006780321
 21
-2.5068107819
  0
LINE
  5
369
100
AcDbEntity
  8
ASSI
100
AcDbLine
 62
250
  6
CONTINUOUS
 10
6.2052820006
 20
-1.2052515396
 11
6.1771256335
 21
-1.1770951726
  0
LINE
  5
36A
100
AcDbEntity
  8
ASSI
100
AcDbLine
 62
250
  6
CONTINUOUS
 10
6.4050346929
 20
-1.0050651539
 11
6.3770951726
 21
-0.9771256335
  0
LINE
  5
36B
100
AcDbEntity
  8
ASSI
100
AcDbLine
 62
7
  6
CONTINUOUS
 10
2.66563
 20
1.612007
 11
1.959997
 21
3.911797
  0
LINE
  5
36C
100
AcDbEntity
  8
ASSI
100
AcDbLine
 62
7
  6
CONTINUOUS
 10
2.03531
 20
2.071127
 11
2.15967
 21
1.612007
  0
LINE
  5
36D
100
AcDbEntity
  8
ASSI
100
AcDbLine
 62
7
  6
CONTINUOUS
 10
1.718779
 20
3.279873
 11
1.939371
 21
2.426392
  0
LINE
  5
36E
100
AcDbEntity
  8
ASSI
100
AcDbLine
 62
250
  6
CONTINUOUS
 10
5.1966003746
 20
-20.3965394526
 11
5.1966003746
 21
-20.1965699136
  0
LINE
  5
36F
100
AcDbEntity
  8
ASSI
100
AcDbLine
 62
250
  6
CONTINUOUS
 10
5.2035823913
 20
-20.8034605474
 11
5.2035823913
 21
-21.0034300864
  0
LINE
  5
370
100
AcDbEntity
  8
ASSI
100
AcDbLine
 62
250
  6
CONTINUOUS
 10
5.2451731322
 20
-1.1999390734
 11
5.2451731322
 21
-2.4999695344
  0
LINE
  5
371
100
AcDbEntity
  8
ASSI
100
AcDbLine
 62
250
  6
CONTINUOUS
 10
5.3965699136
 20
-18.1965394526
 11
5.3965699136
 21
-19.9966003746
  0
LINE
  5
372
100
AcDbEntity
  8
ASSI
100
AcDbLine
 62
250
  6
CONTINUOUS
 10
5.4451426712
 20
-1.196508987
 11
5.4451426712
 21
-2.6999390734
  0
LINE
  5
373
100
AcDbEntity
  8
ASSI
100
AcDbLine
 62
250
  6
CONTINUOUS
 10
5.5965394526
 20
-19.9966002062
 11
5.5965394526
 21
-17.9965699136
  0
LINE
  5
374
100
AcDbEntity
  8
ASSI
100
AcDbLine
 62
250
  6
CONTINUOUS
 10
5.7999695344
 20
-2.6999390734
 11
5.7999695344
 21
-1.196508987
  0
LINE
  5
375
100
AcDbEntity
  8
ASSI
100
AcDbLine
 62
250
  6
CONTINUOUS
 10
5.9999390734
 20
-2.4999695344
 11
5.9999390734
 21
-1.1999390734
  0
LINE
  5
376
100
AcDbEntity
  8
ASSI
100
AcDbLine
 62
250
  6
CONTINUOUS
 10
6.0034605474
 20
-20.0035823913
 11
6.0034605474
 21
-17.9965699136
  0
LINE
  5
377
100
AcDbEntity
  8
ASSI
100
AcDbLine
 62
7
  6
CONTINUOUS
 10
5.3663787452
 20
-18.1663482842
 11
5.3630823987
 21
-19.9631128596
  0
LINE
  5
378
100
AcDbEntity
  8
ASSI
100
AcDbLine
 62
250
  6
CONTINUOUS
 10
6.1689737036
 20
-0.4310567573
 11
6.2044365927
 21
-0.3955938683
  0
LINE
  5
379
100
AcDbEntity
  8
ASSI
100
AcDbLine
 62
250
  6
CONTINUOUS
 10
6.3689431934
 20
-0.6310263456
 11
6.4046068335
 21
-0.5953627055
  0
LINE
  5
37A
100
AcDbEntity
  8
ASSI
100
AcDbLine
 62
250
  6
CONTINUOUS
 10
5.2451731322
 20
-2.4999695344
 11
5.2383318847
 21
-2.5068107819
  0
LINE
  5
37B
100
AcDbEntity
  8
ASSI
100
AcDbLine
 62
250
  6
CONTINUOUS
 10
5.4451426712
 20
-2.6999390734
 11
5.4380487479
 21
-2.7070329968
  0
LINE
  5
37C
100
AcDbEntity
  8
ASSI
100
AcDbLine
 62
7
  6
CONTINUOUS
 10
-9.150007
 20
4.807414
 11
-7.082233
 21
4.807414
  0
LINE
  5
37D
100
AcDbEntity
  8
ASSI
100
AcDbLine
 62
7
  6
CONTINUOUS
 10
-6.850006
 20
5.05875
 11
-9.150007
 21
5.05875
  0
LINE
  5
37E
100
AcDbEntity
  8
ASSI
100
AcDbLine
 62
7
  6
CONTINUOUS
 10
-3.3155517821
 20
5.3965397575
 11
-3.1099579961
 21
5.3965397575
  0
LINE
  5
37F
100
AcDbEntity
  8
ASSI
100
AcDbLine
 62
7
  6
CONTINUOUS
 10
3.5040221726
 20
5.4
 11
3.7094295635
 21
5.4
  0
LINE
  5
380
100
AcDbEntity
  8
ASSI
100
AcDbLine
 62
7
  6
CONTINUOUS
 10
0.5780183277
 20
5.4381532716
 11
1.0297016454
 21
5.4381532716
  0
LINE
  5
381
100
AcDbEntity
  8
ASSI
100
AcDbLine
 62
7
  6
CONTINUOUS
 10
-9.150007
 20
5.479694
 11
-6.850006
 21
5.479694
  0
LINE
  5
382
100
AcDbEntity
  8
ASSI
100
AcDbLine
 62
7
  6
CONTINUOUS
 10
-7.066327
 20
5.750095
 11
-7.928429
 21
5.750095
  0
LINE
  5
383
100
AcDbEntity
  8
ASSI
100
AcDbLine
 62
7
  6
CONTINUOUS
 10
-8.144751
 20
5.750095
 11
-8.933686
 21
5.750095
  0
LINE
  5
384
100
AcDbEntity
  8
ASSI
100
AcDbLine
 62
7
  6
CONTINUOUS
 10
8.3419778496
 20
6.003665249
 11
8.5901106492
 21
6.003665249
  0
LINE
  5
385
100
AcDbEntity
  8
ASSI
100
AcDbLine
 62
7
  6
CONTINUOUS
 10
-7.6485
 20
7.210253
 11
-8.898687
 21
7.544278
  0
LINE
  5
386
100
AcDbEntity
  8
ASSI
100
AcDbLine
 62
7
  6
CONTINUOUS
 10
-6.85
 20
6.981206
 11
-7.432179
 21
7.143447
  0
LINE
  5
387
100
AcDbEntity
  8
ASSI
100
AcDbLine
 62
7
  6
CONTINUOUS
 10
-9.150022
 20
7.385218
 11
-6.85
 21
6.710806
  0
LINE
  5
388
100
AcDbEntity
  8
ASSI
100
AcDbLine
 62
250
  6
CONTINUOUS
 10
6.3689431934
 20
-0.6310263456
 11
6.3688835491
 21
-0.6262031522
  0
LINE
  5
389
100
AcDbEntity
  8
ASSI
100
AcDbLine
 62
7
  6
CONTINUOUS
 10
6.2370535324
 20
-20.0372058372
 11
6.2336212548
 21
-18.1663482842
  0
LINE
  5
38A
100
AcDbEntity
  8
ASSI
100
AcDbLine
 62
7
  6
CONTINUOUS
 10
6.4046068335
 20
-0.5953627055
 11
6.4046763983
 21
-0.6634143993
  0
LINE
  5
38B
100
AcDbEntity
  8
ASSI
100
AcDbLine
 62
250
  6
CONTINUOUS
 10
6.1689736267
 20
-0.6925543433
 11
6.1689737036
 21
-0.4310567573
  0
LINE
  5
38C
100
AcDbEntity
  8
ASSI
100
AcDbLine
 62
250
  6
CONTINUOUS
 10
6.2034300864
 20
-20.0035823913
 11
6.2034300864
 21
-18.1965394526
  0
LINE
  5
38D
100
AcDbEntity
  8
ASSI
100
AcDbLine
 62
7
  6
CONTINUOUS
 10
6.85
 20
8.2941215441
 11
6.85
 21
8.0587138101
  0
LINE
  5
38E
100
AcDbEntity
  8
ASSI
100
AcDbLine
 62
7
  6
CONTINUOUS
 10
6.85
 20
6.993015258
 11
6.85
 21
6.6367220566
  0
LINE
  5
38F
100
AcDbEntity
  8
ASSI
100
AcDbLine
 62
7
  6
CONTINUOUS
 10
6.85
 20
3.9804288551
 11
6.85
 21
3.745020847
  0
LINE
  5
390
100
AcDbEntity
  8
ASSI
100
AcDbLine
 62
7
  6
CONTINUOUS
 10
7.3939833701
 20
1.7376902796
 11
7.3939833701
 21
1.9921854407
  0
LINE
  5
391
100
AcDbEntity
  8
ASSI
100
AcDbLine
 62
250
  6
CONTINUOUS
 10
9.7776366468
 20
11.2964860991
 11
10.0262053601
 21
12.2241571663
  0
LINE
  5
392
100
AcDbEntity
  8
ASSI
100
AcDbLine
 62
250
  6
CONTINUOUS
 10
9.9707923891
 20
11.2447301739
 11
10.2193611024
 21
12.1724012411
  0
LINE
  5
393
100
AcDbEntity
  8
ASSI
100
AcDbLine
 62
7
  6
CONTINUOUS
 10
10.0337300023
 20
11.3175222811
 11
10.2613141848
 21
12.166878013
  0
LINE
  5
394
100
AcDbEntity
  8
ASSI
100
AcDbLine
 62
7
  6
CONTINUOUS
 10
10.0068623476
 20
7.0217580526
 11
10.0840342344
 21
7.2536979213
  0
LINE
  5
395
100
AcDbEntity
  8
ASSI
100
AcDbLine
 62
7
  6
CONTINUOUS
 10
-9.905472871
 20
-11.1747318288
 11
-9.9922658363
 21
-11.2036569415
  0
LINE
  5
396
100
AcDbEntity
  8
ASSI
100
AcDbLine
 62
7
  6
CONTINUOUS
 10
-7.928429
 20
6.497674
 11
-8.144751
 21
6.497674
  0
LINE
  5
397
100
AcDbEntity
  8
ASSI
100
AcDbLine
 62
7
  6
CONTINUOUS
 10
-8.933686
 20
6.53903
 11
-9.150007
 21
6.53903
  0
LINE
  5
398
100
AcDbEntity
  8
ASSI
100
AcDbLine
 62
7
  6
CONTINUOUS
 10
-6.850006
 20
6.561298
 11
-7.066327
 21
6.561298
  0
LINE
  5
399
100
AcDbEntity
  8
ASSI
100
AcDbLine
 62
7
  6
CONTINUOUS
 10
1.0297016454
 20
6.7002457332
 11
1.2758137705
 21
6.7002457332
  0
LINE
  5
39A
100
AcDbEntity
  8
ASSI
100
AcDbLine
 62
250
  6
CONTINUOUS
 10
-11.1
 20
6.7226828525
 11
-9.9996229283
 21
6.7226828525
  0
LINE
  5
39B
100
AcDbEntity
  8
ASSI
100
AcDbLine
 62
250
  6
CONTINUOUS
 10
9.9996229283
 20
6.7226828525
 11
11.1
 21
6.7226828525
  0
LINE
  5
39C
100
AcDbEntity
  8
ASSI
100
AcDbLine
 62
7
  6
CONTINUOUS
 10
8.5901106492
 20
6.7448827669
 11
9.15
 21
6.7448827669
  0
LINE
  5
39D
100
AcDbEntity
  8
ASSI
100
AcDbLine
 62
7
  6
CONTINUOUS
 10
7.0790456295
 20
6.7480638191
 11
8.3896956891
 21
6.7480638191
  0
LINE
  5
39E
100
AcDbEntity
  8
ASSI
100
AcDbLine
 62
7
  6
CONTINUOUS
 10
9.15
 20
6.993015258
 11
8.5901106492
 21
6.993015258
  0
LINE
  5
39F
100
AcDbEntity
  8
ASSI
100
AcDbLine
 62
7
  6
CONTINUOUS
 10
8.3896956891
 20
6.993015258
 11
6.85
 21
6.993015258
  0
LINE
  5
3A0
100
AcDbEntity
  8
ASSI
100
AcDbLine
 62
250
  6
CONTINUOUS
 10
-11.0975873503
 20
7.0217580526
 11
-10.0068623476
 21
7.0217580526
  0
LINE
  5
3A1
100
AcDbEntity
  8
ASSI
100
AcDbLine
 62
250
  6
CONTINUOUS
 10
10.0068623476
 20
7.0217580526
 11
11.0975873503
 21
7.0217580526
  0
LINE
  5
3A2
100
AcDbEntity
  8
ASSI
100
AcDbLine
 62
7
  6
CONTINUOUS
 10
1.2405963948
 20
7.0389058454
 11
1.0297016454
 21
7.0389058454
  0
LINE
  5
3A3
100
AcDbEntity
  8
ASSI
100
AcDbLine
 62
7
  6
CONTINUOUS
 10
-3.6973821272
 20
7.1175256378
 11
-3.3155517821
 21
7.1175256378
  0
LINE
  5
3A4
100
AcDbEntity
  8
ASSI
100
AcDbLine
 62
7
  6
CONTINUOUS
 10
-3.1099579961
 20
7.1175256378
 11
-2.7282208486
 21
7.1175256378
  0
LINE
  5
3A5
100
AcDbEntity
  8
ASSI
100
AcDbLine
 62
7
  6
CONTINUOUS
 10
3.12209863
 20
7.1209858803
 11
3.5040221726
 21
7.1209858803
  0
LINE
  5
3A6
100
AcDbEntity
  8
ASSI
100
AcDbLine
 62
7
  6
CONTINUOUS
 10
3.7094295635
 20
7.1209858803
 11
4.0913531061
 21
7.1209858803
  0
LINE
  5
3A7
100
AcDbEntity
  8
ASSI
100
AcDbLine
 62
7
  6
CONTINUOUS
 10
8.5901106492
 20
7.2379666969
 11
8.3896956891
 21
7.2379666969
  0
LINE
  5
3A8
100
AcDbEntity
  8
ASSI
100
AcDbLine
 62
250
  6
CONTINUOUS
 10
-11.0718686124
 20
7.2536979213
 11
-10.0840342344
 21
7.2536979213
  0
LINE
  5
3A9
100
AcDbEntity
  8
ASSI
100
AcDbLine
 62
250
  6
CONTINUOUS
 10
10.0840342344
 20
7.2536979213
 11
11.0718686124
 21
7.2536979213
  0
LINE
  5
3AA
100
AcDbEntity
  8
ASSI
100
AcDbLine
 62
250
  6
CONTINUOUS
 10
-11.0694559627
 20
7.5527731214
 11
-10.0912736538
 21
7.5527731214
  0
LINE
  5
3AB
100
AcDbEntity
  8
ASSI
100
AcDbLine
 62
250
  6
CONTINUOUS
 10
10.0912736538
 20
7.5527731214
 11
11.0694559627
 21
7.5527731214
  0
LINE
  5
3AC
100
AcDbEntity
  8
ASSI
100
AcDbLine
 62
7
  6
CONTINUOUS
 10
7.1967496336
 20
7.6610652849
 11
7.4671507239
 21
7.6610652849
  0
LINE
  5
3AD
100
AcDbEntity
  8
ASSI
100
AcDbLine
 62
7
  6
CONTINUOUS
 10
4.0913531061
 20
7.1209858803
 11
3.606725868
 21
8.2976980933
  0
LINE
  5
3AE
100
AcDbEntity
  8
ASSI
100
AcDbLine
 62
250
  6
CONTINUOUS
 10
9.7199738409
 20
-25.1022127811
 11
9.668887889
 21
-24.6880204493
  0
LINE
  5
3AF
100
AcDbEntity
  8
ASSI
100
AcDbLine
 62
250
  6
CONTINUOUS
 10
9.9199053059
 20
-24.9065734171
 11
9.868819354
 21
-24.4923810854
  0
LINE
  5
3B0
100
AcDbEntity
  8
ASSI
100
AcDbLine
 62
250
  6
CONTINUOUS
 10
7.9948548704
 20
-21.6248091789
 11
7.9948548704
 21
-21.7351908211
  0
LINE
  5
3B1
100
AcDbEntity
  8
ASSI
100
AcDbLine
 62
250
  6
CONTINUOUS
 10
8.2948091789
 20
-21.3248548704
 11
8.2948091789
 21
-22.0351451296
  0
LINE
  5
3B2
100
AcDbEntity
  8
ASSI
100
AcDbLine
 62
7
  6
CONTINUOUS
 10
8.3896956891
 20
7.2379666969
 11
8.3896956891
 21
6.993015258
  0
LINE
  5
3B3
100
AcDbEntity
  8
ASSI
100
AcDbLine
 62
7
  6
CONTINUOUS
 10
8.3896956891
 20
6.7480638191
 11
8.3896956891
 21
6.2104429647
  0
LINE
  5
3B4
100
AcDbEntity
  8
ASSI
100
AcDbLine
 62
7
  6
CONTINUOUS
 10
8.5805670813
 20
1.9667359263
 11
8.5805670813
 21
1.7058783781
  0
LINE
  5
3B5
100
AcDbEntity
  8
ASSI
100
AcDbLine
 62
7
  6
CONTINUOUS
 10
8.5901106492
 20
6.003665249
 11
8.5901106492
 21
6.7448827669
  0
LINE
  5
3B6
100
AcDbEntity
  8
ASSI
100
AcDbLine
 62
7
  6
CONTINUOUS
 10
8.5901106492
 20
6.993015258
 11
8.5901106492
 21
7.2379666969
  0
LINE
  5
3B7
100
AcDbEntity
  8
ASSI
100
AcDbLine
 62
7
  6
CONTINUOUS
 10
9.15
 20
3.7163901433
 11
9.15
 21
3.9804288551
  0
LINE
  5
3B8
100
AcDbEntity
  8
ASSI
100
AcDbLine
 62
7
  6
CONTINUOUS
 10
9.15
 20
6.7448827669
 11
9.15
 21
6.993015258
  0
LINE
  5
3B9
100
AcDbEntity
  8
ASSI
100
AcDbLine
 62
7
  6
CONTINUOUS
 10
9.15
 20
8.0300832435
 11
9.15
 21
8.2941215441
  0
LINE
  5
3BA
100
AcDbEntity
  8
ASSI
100
AcDbLine
 62
7
  6
CONTINUOUS
 10
9.687050838
 20
-11.4020432226
 11
9.687050838
 21
-16.2356934491
  0
LINE
  5
3BB
100
AcDbEntity
  8
ASSI
100
AcDbLine
 62
250
  6
CONTINUOUS
 10
9.736708158
 20
10.7371426949
 11
9.736708158
 21
10.9856334705
  0
LINE
  5
3BC
100
AcDbEntity
  8
ASSI
100
AcDbLine
 62
250
  6
CONTINUOUS
 10
9.736708158
 20
18.0143665295
 11
9.736708158
 21
25.1366053437
  0
LINE
  5
3BD
100
AcDbEntity
  8
ASSI
100
AcDbLine
 62
250
  6
CONTINUOUS
 10
9.811693777
 20
-11.4032940408
 11
9.811693777
 21
-16.1835185879
  0
LINE
  5
3BE
100
AcDbEntity
  8
ASSI
100
AcDbLine
 62
7
  6
CONTINUOUS
 10
9.6570821223
 20
-12.2
 11
9.6578408251
 21
-11.3728332097
  0
LINE
  5
3BF
100
AcDbEntity
  8
ASSI
100
AcDbLine
 62
7
  6
CONTINUOUS
 10
7.9357052736
 20
-21.5656595821
 11
7.9352849643
 21
-21.7947607271
  0
LINE
  5
3C0
100
AcDbEntity
  8
ASSI
100
AcDbLine
 62
250
  6
CONTINUOUS
 10
9.668887889
 20
-24.6880204493
 11
9.6754278134
 21
-22.0952663437
  0
LINE
  5
3C1
100
AcDbEntity
  8
ASSI
100
AcDbLine
 62
250
  6
CONTINUOUS
 10
9.6777094621
 20
-21.2662545624
 11
9.691492149
 21
-16.2584680077
  0
LINE
  5
3C2
100
AcDbEntity
  8
ASSI
100
AcDbLine
 62
250
  6
CONTINUOUS
 10
9.7052939133
 20
-11.2437498589
 11
9.7077275589
 21
-10.3595116908
  0
LINE
  5
3C3
100
AcDbEntity
  8
ASSI
100
AcDbLine
 62
7
  6
CONTINUOUS
 10
10.2997103762
 20
14.8762018049
 11
10.3079725316
 21
14.9596641646
  0
LINE
  5
3C4
100
AcDbEntity
  8
ASSI
100
AcDbLine
 62
7
  6
CONTINUOUS
 10
11.0718686124
 20
10.7463020787
 11
11.0975873503
 21
10.9782419474
  0
LINE
  5
3C5
100
AcDbEntity
  8
ASSI
100
AcDbLine
 62
250
  6
CONTINUOUS
 10
-5.5965394526
 20
-17.9965699136
 11
-5.5667144768
 21
-17.9667449378
  0
LINE
  5
3C6
100
AcDbEntity
  8
ASSI
100
AcDbLine
 62
250
  6
CONTINUOUS
 10
-5.3965699136
 20
-18.1965394526
 11
-5.3663787452
 21
-18.1663482842
  0
LINE
  5
3C7
100
AcDbEntity
  8
ASSI
100
AcDbLine
 62
250
  6
CONTINUOUS
 10
-8.2948091789
 20
-21.3248548704
 11
-8.2362088709
 21
-21.2662545624
  0
LINE
  5
3C8
100
AcDbEntity
  8
ASSI
100
AcDbLine
 62
250
  6
CONTINUOUS
 10
-7.9948548704
 20
-21.6248091789
 11
-7.9357052736
 21
-21.5656595821
  0
LINE
  5
3C9
100
AcDbEntity
  8
ASSI
100
AcDbLine
 62
250
  6
CONTINUOUS
 10
-6.2034300864
 20
-20.0035823913
 11
-6.2370535324
 21
-20.0372058372
  0
LINE
  5
3CA
100
AcDbEntity
  8
ASSI
100
AcDbLine
 62
7
  6
CONTINUOUS
 10
-7.432179
 20
7.941927
 11
-6.85
 21
8.104146
  0
LINE
  5
3CB
100
AcDbEntity
  8
ASSI
100
AcDbLine
 62
7
  6
CONTINUOUS
 10
-8.898687
 20
7.544278
 11
-7.6485
 21
7.878303
  0
LINE
  5
3CC
100
AcDbEntity
  8
ASSI
100
AcDbLine
 62
7
  6
CONTINUOUS
 10
1.0297016454
 20
8.0147547539
 11
1.2610716132
 21
8.0147547539
  0
LINE
  5
3CD
100
AcDbEntity
  8
ASSI
100
AcDbLine
 62
7
  6
CONTINUOUS
 10
7.1713001192
 20
8.0300832435
 11
9.15
 21
8.0300832435
  0
LINE
  5
3CE
100
AcDbEntity
  8
ASSI
100
AcDbLine
 62
7
  6
CONTINUOUS
 10
9.15
 20
8.2941215441
 11
6.85
 21
8.2941215441
  0
LINE
  5
3CF
100
AcDbEntity
  8
ASSI
100
AcDbLine
 62
7
  6
CONTINUOUS
 10
1.3564861309
 20
8.3530053617
 11
0.5780183277
 21
8.3530053617
  0
LINE
  5
3D0
100
AcDbEntity
  8
ASSI
100
AcDbLine
 62
7
  6
CONTINUOUS
 10
-0.0100299444
 20
8.353414866
 11
-0.4498376355
 21
8.353414866
  0
LINE
  5
3D1
100
AcDbEntity
  8
ASSI
100
AcDbLine
 62
7
  6
CONTINUOUS
 10
-1.3773650285
 20
8.353414866
 11
-1.8282293375
 21
8.353414866
  0
LINE
  5
3D2
100
AcDbEntity
  8
ASSI
100
AcDbLine
 62
7
  6
CONTINUOUS
 10
8.3896956891
 20
6.2104429647
 11
7.0790456295
 21
6.7480638191
  0
LINE
  5
3D3
100
AcDbEntity
  8
ASSI
100
AcDbLine
 62
7
  6
CONTINUOUS
 10
6.85
 20
6.6367220566
 11
8.3419778496
 21
6.003665249
  0
LINE
  5
3D4
100
AcDbEntity
  8
ASSI
100
AcDbLine
 62
250
  6
CONTINUOUS
 10
10.2721914759
 20
-21.3130263813
 11
10.2284643235
 21
-16.3023910138
  0
LINE
  5
3D5
100
AcDbEntity
  8
ASSI
100
AcDbLine
 62
7
  6
CONTINUOUS
 10
10.3347981654
 20
-21.3439640519
 11
10.2899132466
 21
-16.2006617941
  0
LINE
  5
3D6
100
AcDbEntity
  8
ASSI
100
AcDbLine
 62
7
  6
CONTINUOUS
 10
11.0915504297
 20
15.2315687618
 11
11.0891487799
 21
18.7283392151
  0
LINE
  5
3D7
100
AcDbEntity
  8
ASSI
100
AcDbLine
 62
250
  6
CONTINUOUS
 10
9.9321721665
 20
-21.3059846117
 11
9.9321721665
 21
-16.2884268707
  0
LINE
  5
3D8
100
AcDbEntity
  8
ASSI
100
AcDbLine
 62
250
  6
CONTINUOUS
 10
9.936639623
 20
10.7371426949
 11
9.936639623
 21
10.9856334705
  0
LINE
  5
3D9
100
AcDbEntity
  8
ASSI
100
AcDbLine
 62
250
  6
CONTINUOUS
 10
9.936639623
 20
18.0143665295
 11
9.936639623
 21
24.9366738787
  0
LINE
  5
3DA
100
AcDbEntity
  8
ASSI
100
AcDbLine
 62
7
  6
CONTINUOUS
 10
9.9681998224
 20
-24.9682340781
 11
9.9681998224
 21
-22.5392953814
  0
LINE
  5
3DB
100
AcDbEntity
  8
ASSI
100
AcDbLine
 62
7
  6
CONTINUOUS
 10
9.9681998224
 20
-21.6248091789
 11
9.9681998224
 21
-21.7351908211
  0
LINE
  5
3DC
100
AcDbEntity
  8
ASSI
100
AcDbLine
 62
7
  6
CONTINUOUS
 10
9.9891485596
 20
-21.3439640519
 11
9.9891485596
 21
-21.3675103668
  0
LINE
  5
3DD
100
AcDbEntity
  8
ASSI
100
AcDbLine
 62
250
  6
CONTINUOUS
 10
9.9944327163
 20
-21.308425519
 11
9.9944327163
 21
-16.2936961029
  0
LINE
  5
3DE
100
AcDbEntity
  8
ASSI
100
AcDbLine
 62
7
  6
CONTINUOUS
 10
9.9996229283
 20
6.7226828525
 11
9.9996229283
 21
-13.7210675705
  0
LINE
  5
3DF
100
AcDbEntity
  8
ASSI
100
AcDbLine
 62
7
  6
CONTINUOUS
 10
9.9996229283
 20
19.4747494584
 11
9.9996229283
 21
24.999657184
  0
LINE
  5
3E0
100
AcDbEntity
  8
ASSI
100
AcDbLine
 62
250
  6
CONTINUOUS
 10
10.0534605474
 20
12.4311808668
 11
10.0534605474
 21
16.5688191332
  0
LINE
  5
3E1
100
AcDbEntity
  8
ASSI
100
AcDbLine
 62
7
  6
CONTINUOUS
 10
10.0912736538
 20
7.5527731214
 11
10.0912736538
 21
10.4472268786
  0
LINE
  5
3E2
100
AcDbEntity
  8
ASSI
100
AcDbLine
 62
250
  6
CONTINUOUS
 10
10.2534300864
 20
12.4311808668
 11
10.2534300864
 21
16.5688191332
  0
LINE
  5
3E3
100
AcDbEntity
  8
ASSI
100
AcDbLine
 62
7
  6
CONTINUOUS
 10
10.2953831688
 20
12.4256576388
 11
10.2953831688
 21
14.580759479
  0
LINE
  5
3E4
100
AcDbEntity
  8
ASSI
100
AcDbLine
 62
7
  6
CONTINUOUS
 10
11.0685768941
 20
-25.8687482316
 11
11.0685768941
 21
-22.5392953814
  0
LINE
  5
3E5
100
AcDbEntity
  8
ASSI
100
AcDbLine
 62
7
  6
CONTINUOUS
 10
11.0694559627
 20
7.5527731214
 11
11.0694559627
 21
10.4472268786
  0
LINE
  5
3E6
100
AcDbEntity
  8
ASSI
100
AcDbLine
 62
7
  6
CONTINUOUS
 10
11.0895256314
 20
-19.196450535
 11
11.0895256314
 21
-21.3675103668
  0
LINE
  5
3E7
100
AcDbEntity
  8
ASSI
100
AcDbLine
 62
7
  6
CONTINUOUS
 10
11.1
 20
25.9001713375
 11
11.1
 21
-13.7210675705
  0
LINE
  5
3E8
100
AcDbEntity
  8
ASSI
100
AcDbLine
 62
7
  6
CONTINUOUS
 10
10.3122835966
 20
15.2315687618
 11
10.3141316137
 21
16.5768106408
  0
LINE
  5
3E9
100
AcDbEntity
  8
ASSI
100
AcDbLine
 62
7
  6
CONTINUOUS
 10
10.0304880981
 20
17.905823674
 11
10.0321832013
 21
18.7283392151
  0
LINE
  5
3EA
100
AcDbEntity
  8
ASSI
100
AcDbLine
 62
7
  6
CONTINUOUS
 10
11.0995963877
 20
-14.1133630491
 11
11.0899292437
 21
-18.8041550564
  0
LINE
  5
3EB
100
AcDbEntity
  8
ASSI
100
AcDbLine
 62
250
  6
CONTINUOUS
 10
9.868819354
 20
-24.4923810854
 11
9.875426243
 21
-22.0918412015
  0
LINE
  5
3EC
100
AcDbEntity
  8
ASSI
100
AcDbLine
 62
250
  6
CONTINUOUS
 10
9.8776890725
 20
-21.26966716
 11
9.8913989893
 21
-16.2883208115
  0
LINE
  5
3ED
100
AcDbEntity
  8
ASSI
100
AcDbLine
 62
250
  6
CONTINUOUS
 10
9.905472871
 20
-11.1747318288
 11
9.9076590239
 21
-10.3804173835
  0
LINE
  5
3EE
100
AcDbEntity
  8
ASSI
100
AcDbLine
 62
7
  6
CONTINUOUS
 10
9.9873106571
 20
-21.5603466497
 11
9.9700377249
 21
-22.3464590985
  0
LINE
  5
3EF
100
AcDbEntity
  8
ASSI
100
AcDbLine
 62
7
  6
CONTINUOUS
 10
11.0876877288
 20
-21.5603466497
 11
11.0704147967
 21
-22.3464590985
  0
LINE
  5
3F0
100
AcDbEntity
  8
ASSI
100
AcDbLine
 62
7
  6
CONTINUOUS
 10
11.0913041483
 20
19.0473192698
 11
11.0978365611
 21
19.1793071325
  0
LINE
  5
3F1
100
AcDbEntity
  8
ASSI
100
AcDbLine
 62
7
  6
CONTINUOUS
 10
9.687050838
 20
-16.2356934491
 11
9.6854333298
 21
-16.2584513323
  0
LINE
  5
3F2
100
AcDbEntity
  8
ASSI
100
AcDbLine
 62
7
  6
CONTINUOUS
 10
9.983380666
 20
-14.1133630491
 11
9.811693777
 21
-16.1835185879
  0
LINE
  5
3F3
100
AcDbEntity
  8
ASSI
100
AcDbLine
 62
250
  6
CONTINUOUS
 10
-5.3630823987
 20
-19.9631128596
 11
-5.3965699136
 21
-19.9966003746
  0
LINE
  5
3F4
100
AcDbEntity
  8
ASSI
100
AcDbLine
 62
250
  6
CONTINUOUS
 10
-5.1627466671
 20
-20.1627162061
 11
-5.1966003746
 21
-20.1965699136
  0
LINE
  5
3F5
100
AcDbEntity
  8
ASSI
100
AcDbLine
 62
250
  6
CONTINUOUS
 10
-9.9237075657
 20
-24.9237418214
 11
-9.9681998224
 21
-24.9682340781
  0
LINE
  5
3F6
100
AcDbEntity
  8
ASSI
100
AcDbLine
 62
250
  6
CONTINUOUS
 10
-9.7237761007
 20
-25.1236732864
 11
-9.7682683574
 21
-25.1681655431
  0
LINE
  5
3F7
100
AcDbEntity
  8
ASSI
100
AcDbLine
 62
250
  6
CONTINUOUS
 10
-5.2035823913
 20
-21.0034300864
 11
-5.2390435305
 21
-21.0388912257
  0
LINE
  5
3F8
100
AcDbEntity
  8
ASSI
100
AcDbLine
 62
250
  6
CONTINUOUS
 10
-11.0694559627
 20
10.4472268786
 11
-10.0912736538
 21
10.4472268786
  0
LINE
  5
3F9
100
AcDbEntity
  8
ASSI
100
AcDbLine
 62
250
  6
CONTINUOUS
 10
10.0912736538
 20
10.4472268786
 11
11.0694559627
 21
10.4472268786
  0
LINE
  5
3FA
100
AcDbEntity
  8
ASSI
100
AcDbLine
 62
250
  6
CONTINUOUS
 10
9.936639623
 20
10.7371426949
 11
-9.936639623
 21
10.7371426949
  0
LINE
  5
3FB
100
AcDbEntity
  8
ASSI
100
AcDbLine
 62
250
  6
CONTINUOUS
 10
-11.0718686124
 20
10.7463020787
 11
-10.0840342344
 21
10.7463020787
  0
LINE
  5
3FC
100
AcDbEntity
  8
ASSI
100
AcDbLine
 62
250
  6
CONTINUOUS
 10
10.0840342344
 20
10.7463020787
 11
11.0718686124
 21
10.7463020787
  0
LINE
  5
3FD
100
AcDbEntity
  8
ASSI
100
AcDbLine
 62
250
  6
CONTINUOUS
 10
11.0975873503
 20
10.9782419474
 11
10.0068623476
 21
10.9782419474
  0
LINE
  5
3FE
100
AcDbEntity
  8
ASSI
100
AcDbLine
 62
250
  6
CONTINUOUS
 10
-10.0068623476
 20
10.9782419474
 11
-11.0975873503
 21
10.9782419474
  0
LINE
  5
3FF
100
AcDbEntity
  8
ASSI
100
AcDbLine
 62
250
  6
CONTINUOUS
 10
9.936639623
 20
10.9856334705
 11
9.736708158
 21
10.9856334705
  0
LINE
  5
400
100
AcDbEntity
  8
ASSI
100
AcDbLine
 62
250
  6
CONTINUOUS
 10
-9.736708158
 20
10.9856334705
 11
-9.936639623
 21
10.9856334705
  0
LINE
  5
401
100
AcDbEntity
  8
ASSI
100
AcDbLine
 62
250
  6
CONTINUOUS
 10
11.1
 20
11.2773171475
 11
10.0238434114
 21
11.2773171475
  0
LINE
  5
402
100
AcDbEntity
  8
ASSI
100
AcDbLine
 62
250
  6
CONTINUOUS
 10
-10.0238434114
 20
11.2773171475
 11
-11.1
 21
11.2773171475
  0
LINE
  5
403
100
AcDbEntity
  8
ASSI
100
AcDbLine
 62
250
  6
CONTINUOUS
 10
-9.9996229283
 20
24.999657184
 11
-9.936639623
 21
24.9366738787
  0
LINE
  5
404
100
AcDbEntity
  8
ASSI
100
AcDbLine
 62
250
  6
CONTINUOUS
 10
-9.7996914633
 20
25.199588649
 11
-9.736708158
 21
25.1366053437
  0
LINE
  5
405
100
AcDbEntity
  8
ASSI
100
AcDbLine
 62
7
  6
CONTINUOUS
 10
11.0978365611
 20
14.8762018049
 11
11.093705798
 21
14.9596641646
  0
LINE
  5
406
100
AcDbEntity
  8
ASSI
100
AcDbLine
 62
7
  6
CONTINUOUS
 10
-9.9891485596
 20
-21.3439640519
 11
-9.9604811481
 21
-21.3248548704
  0
LINE
  5
407
100
AcDbEntity
  8
ASSI
100
AcDbLine
 62
7
  6
CONTINUOUS
 10
-9.8776890725
 20
-21.26966716
 11
-9.9292306761
 21
-21.3040238671
  0
LINE
  5
408
100
AcDbEntity
  8
ASSI
100
AcDbLine
 62
250
  6
CONTINUOUS
 10
-9.7776366468
 20
11.2964860991
 11
-9.9707923891
 21
11.2447301739
  0
LINE
  5
409
100
AcDbEntity
  8
ASSI
100
AcDbLine
 62
250
  6
CONTINUOUS
 10
10.2193611024
 20
16.8275987589
 11
10.0262053601
 21
16.7758428337
  0
LINE
  5
40A
100
AcDbEntity
  8
ASSI
100
AcDbLine
 62
250
  6
CONTINUOUS
 10
-10.2613141848
 20
12.166878013
 11
-10.2193611024
 21
12.1724012411
  0
LINE
  5
40B
100
AcDbEntity
  8
ASSI
100
AcDbLine
 62
250
  6
CONTINUOUS
 10
-10.2953831688
 20
12.4256576388
 11
-10.2534300864
 21
12.4311808668
  0
LINE
  5
40C
100
AcDbEntity
  8
ASSI
100
AcDbLine
 62
250
  6
CONTINUOUS
 10
10.2534300864
 20
12.4311808668
 11
10.0534605474
 21
12.4311808668
  0
LINE
  5
40D
100
AcDbEntity
  8
ASSI
100
AcDbLine
 62
250
  6
CONTINUOUS
 10
-10.0534605474
 20
12.4311808668
 11
-10.2534300864
 21
12.4311808668
  0
LINE
  5
40E
100
AcDbEntity
  8
ASSI
100
AcDbLine
 62
250
  6
CONTINUOUS
 10
10.2613141848
 20
12.166878013
 11
10.2193611024
 21
12.1724012411
  0
LINE
  5
40F
100
AcDbEntity
  8
ASSI
100
AcDbLine
 62
250
  6
CONTINUOUS
 10
10.2953831688
 20
12.4256576388
 11
10.2534300864
 21
12.4311808668
  0
LINE
  5
410
100
AcDbEntity
  8
ASSI
100
AcDbLine
 62
250
  6
CONTINUOUS
 10
9.9707923891
 20
11.2447301739
 11
9.7776366468
 21
11.2964860991
  0
LINE
  5
411
100
AcDbEntity
  8
ASSI
100
AcDbLine
 62
250
  6
CONTINUOUS
 10
-10.0262053601
 20
16.7758428337
 11
-10.2193611024
 21
16.8275987589
  0
LINE
  5
412
100
AcDbEntity
  8
ASSI
100
AcDbLine
 62
7
  6
CONTINUOUS
 10
10.0840342344
 20
10.7463020787
 11
10.0068623476
 21
10.9782419474
  0
LINE
  5
413
100
AcDbEntity
  8
ASSI
100
AcDbLine
 62
7
  6
CONTINUOUS
 10
10.0257157828
 20
19.0473192698
 11
10.0061145635
 21
19.1793071325
  0
LINE
  5
414
100
AcDbEntity
  8
ASSI
100
AcDbLine
 62
7
  6
CONTINUOUS
 10
11.0975873503
 20
7.0217580526
 11
11.0718686124
 21
7.2536979213
  0
LINE
  5
415
100
AcDbEntity
  8
ASSI
100
AcDbLine
 62
250
  6
CONTINUOUS
 10
-10.0262053601
 20
12.2241571663
 11
-10.2193611024
 21
12.1724012411
  0
LINE
  5
416
100
AcDbEntity
  8
ASSI
100
AcDbLine
 62
250
  6
CONTINUOUS
 10
9.9707923891
 20
17.7552698261
 11
9.7776366468
 21
17.7035139009
  0
LINE
  5
417
100
AcDbEntity
  8
ASSI
100
AcDbLine
 62
250
  6
CONTINUOUS
 10
10.3141316137
 20
16.5768106408
 11
10.2534300864
 21
16.5688191332
  0
LINE
  5
418
100
AcDbEntity
  8
ASSI
100
AcDbLine
 62
250
  6
CONTINUOUS
 10
10.2804181908
 20
16.8356370771
 11
10.2193611024
 21
16.8275987589
  0
LINE
  5
419
100
AcDbEntity
  8
ASSI
100
AcDbLine
 62
250
  6
CONTINUOUS
 10
-11.1
 20
14.580759479
 11
-10.2953831688
 21
14.580759479
  0
LINE
  5
41A
100
AcDbEntity
  8
ASSI
100
AcDbLine
 62
250
  6
CONTINUOUS
 10
10.2953831688
 20
14.580759479
 11
11.1
 21
14.580759479
  0
LINE
  5
41B
100
AcDbEntity
  8
ASSI
100
AcDbLine
 62
250
  6
CONTINUOUS
 10
-11.0978365611
 20
14.8762018049
 11
-10.2997103762
 21
14.8762018049
  0
LINE
  5
41C
100
AcDbEntity
  8
ASSI
100
AcDbLine
 62
250
  6
CONTINUOUS
 10
10.2997103762
 20
14.8762018049
 11
11.0978365611
 21
14.8762018049
  0
LINE
  5
41D
100
AcDbEntity
  8
ASSI
100
AcDbLine
 62
250
  6
CONTINUOUS
 10
-11.093705798
 20
14.9596641646
 11
-10.3079725316
 21
14.9596641646
  0
LINE
  5
41E
100
AcDbEntity
  8
ASSI
100
AcDbLine
 62
250
  6
CONTINUOUS
 10
10.3079725316
 20
14.9596641646
 11
11.093705798
 21
14.9596641646
  0
LINE
  5
41F
100
AcDbEntity
  8
ASSI
100
AcDbLine
 62
250
  6
CONTINUOUS
 10
-11.0915504297
 20
15.2315687618
 11
-10.3122835966
 21
15.2315687618
  0
LINE
  5
420
100
AcDbEntity
  8
ASSI
100
AcDbLine
 62
250
  6
CONTINUOUS
 10
10.3122835966
 20
15.2315687618
 11
11.0915504297
 21
15.2315687618
  0
LINE
  5
421
100
AcDbEntity
  8
ASSI
100
AcDbLine
 62
250
  6
CONTINUOUS
 10
-10.3141316137
 20
16.5768106408
 11
-10.2534300864
 21
16.5688191332
  0
LINE
  5
422
100
AcDbEntity
  8
ASSI
100
AcDbLine
 62
250
  6
CONTINUOUS
 10
-10.2804181908
 20
16.8356370771
 11
-10.2193611024
 21
16.8275987589
  0
LINE
  5
423
100
AcDbEntity
  8
ASSI
100
AcDbLine
 62
250
  6
CONTINUOUS
 10
10.2193611024
 20
12.1724012411
 11
10.0262053601
 21
12.2241571663
  0
LINE
  5
424
100
AcDbEntity
  8
ASSI
100
AcDbLine
 62
250
  6
CONTINUOUS
 10
-9.7776366468
 20
17.7035139009
 11
-9.9707923891
 21
17.7552698261
  0
LINE
  5
425
100
AcDbEntity
  8
ASSI
100
AcDbLine
 62
7
  6
CONTINUOUS
 10
0.3966003711
 20
25.1366053437
 11
0.3859750215
 21
25.1525453917
  0
LINE
  5
426
100
AcDbEntity
  8
ASSI
100
AcDbLine
 62
250
  6
CONTINUOUS
 10
10.0262053601
 20
16.7758428337
 11
9.7776366468
 21
17.7035139009
  0
LINE
  5
427
100
AcDbEntity
  8
ASSI
100
AcDbLine
 62
250
  6
CONTINUOUS
 10
10.2193611024
 20
16.8275987589
 11
9.9707923891
 21
17.7552698261
  0
LINE
  5
428
100
AcDbEntity
  8
ASSI
100
AcDbLine
 62
7
  6
CONTINUOUS
 10
10.0640625842
 20
17.6473957952
 11
10.2804181908
 21
16.8356370771
  0
LINE
  5
429
100
AcDbEntity
  8
ASSI
100
AcDbLine
 62
250
  6
CONTINUOUS
 10
6.0034605474
 20
-17.9965699136
 11
6.0332855232
 21
-17.9667449378
  0
LINE
  5
42A
100
AcDbEntity
  8
ASSI
100
AcDbLine
 62
250
  6
CONTINUOUS
 10
6.2034300864
 20
-18.1965394526
 11
6.2336212548
 21
-18.1663482842
  0
LINE
  5
42B
100
AcDbEntity
  8
ASSI
100
AcDbLine
 62
250
  6
CONTINUOUS
 10
10.2534300864
 20
16.5688191332
 11
10.0534605474
 21
16.5688191332
  0
LINE
  5
42C
100
AcDbEntity
  8
ASSI
100
AcDbLine
 62
250
  6
CONTINUOUS
 10
-10.0534605474
 20
16.5688191332
 11
-10.2534300864
 21
16.5688191332
  0
LINE
  5
42D
100
AcDbEntity
  8
ASSI
100
AcDbLine
 62
250
  6
CONTINUOUS
 10
9.936639623
 20
18.0143665295
 11
9.736708158
 21
18.0143665295
  0
LINE
  5
42E
100
AcDbEntity
  8
ASSI
100
AcDbLine
 62
250
  6
CONTINUOUS
 10
-9.736708158
 20
18.0143665295
 11
-9.936639623
 21
18.0143665295
  0
LINE
  5
42F
100
AcDbEntity
  8
ASSI
100
AcDbLine
 62
250
  6
CONTINUOUS
 10
-11.0891487799
 20
18.7283392151
 11
-10.0321832013
 21
18.7283392151
  0
LINE
  5
430
100
AcDbEntity
  8
ASSI
100
AcDbLine
 62
250
  6
CONTINUOUS
 10
10.0321832013
 20
18.7283392151
 11
11.0891487799
 21
18.7283392151
  0
LINE
  5
431
100
AcDbEntity
  8
ASSI
100
AcDbLine
 62
250
  6
CONTINUOUS
 10
-11.0913041483
 20
19.0473192698
 11
-10.0257157828
 21
19.0473192698
  0
LINE
  5
432
100
AcDbEntity
  8
ASSI
100
AcDbLine
 62
250
  6
CONTINUOUS
 10
10.0257157828
 20
19.0473192698
 11
11.0913041483
 21
19.0473192698
  0
LINE
  5
433
100
AcDbEntity
  8
ASSI
100
AcDbLine
 62
250
  6
CONTINUOUS
 10
11.0978365611
 20
19.1793071325
 11
10.0061145635
 21
19.1793071325
  0
LINE
  5
434
100
AcDbEntity
  8
ASSI
100
AcDbLine
 62
250
  6
CONTINUOUS
 10
-10.0061145635
 20
19.1793071325
 11
-11.0978365611
 21
19.1793071325
  0
LINE
  5
435
100
AcDbEntity
  8
ASSI
100
AcDbLine
 62
250
  6
CONTINUOUS
 10
9.9707923891
 20
17.7552698261
 11
10.0640625842
 21
17.6473957952
  0
LINE
  5
436
100
AcDbEntity
  8
ASSI
100
AcDbLine
 62
250
  6
CONTINUOUS
 10
9.936639623
 20
18.0143665295
 11
10.0304880981
 21
17.905823674
  0
LINE
  5
437
100
AcDbEntity
  8
ASSI
100
AcDbLine
 62
250
  6
CONTINUOUS
 10
7.9948548704
 20
-21.7351908211
 11
7.9352849643
 21
-21.7947607271
  0
LINE
  5
438
100
AcDbEntity
  8
ASSI
100
AcDbLine
 62
250
  6
CONTINUOUS
 10
11.1
 20
19.4747494584
 11
9.9996229283
 21
19.4747494584
  0
LINE
  5
439
100
AcDbEntity
  8
ASSI
100
AcDbLine
 62
250
  6
CONTINUOUS
 10
-9.9996229283
 20
19.4747494584
 11
-11.1
 21
19.4747494584
  0
LINE
  5
43A
100
AcDbEntity
  8
ASSI
100
AcDbLine
 62
7
  6
CONTINUOUS
 10
2.0213073071
 20
25.2071702628
 11
2.0101106157
 21
25.2155662887
  0
LINE
  5
43B
100
AcDbEntity
  8
ASSI
100
AcDbLine
 62
250
  6
CONTINUOUS
 10
8.2948091789
 20
-22.0351451296
 11
8.2346879649
 21
-22.0952663437
  0
LINE
  5
43C
100
AcDbEntity
  8
ASSI
100
AcDbLine
 62
7
  6
CONTINUOUS
 10
0.2005757424
 20
21.4
 11
-0.2005757424
 21
21.4
  0
LINE
  5
43D
100
AcDbEntity
  8
ASSI
100
AcDbLine
 62
250
  6
CONTINUOUS
 10
-0.1975447022
 20
21.4306188589
 11
0.1975447022
 21
21.4306188589
  0
LINE
  5
43E
100
AcDbEntity
  8
ASSI
100
AcDbLine
 62
250
  6
CONTINUOUS
 10
0.3859750215
 20
22.4154266119
 11
-0.3859750215
 21
22.4154266119
  0
LINE
  5
43F
100
AcDbEntity
  8
ASSI
100
AcDbLine
 62
7
  6
CONTINUOUS
 10
9.875426243
 20
-22.0918412015
 11
9.9604811481
 21
-22.0351451296
  0
LINE
  5
440
100
AcDbEntity
  8
ASSI
100
AcDbLine
 62
7
  6
CONTINUOUS
 10
2.0101106157
 20
26.3946752018
 11
2.0213073071
 21
26.3974733087
  0
LINE
  5
441
100
AcDbEntity
  8
ASSI
100
AcDbLine
 62
250
  6
CONTINUOUS
 10
9.936639623
 20
24.9366738787
 11
0.4
 21
24.9366738787
  0
LINE
  5
442
100
AcDbEntity
  8
ASSI
100
AcDbLine
 62
250
  6
CONTINUOUS
 10
-0.4
 20
24.9366738787
 11
-9.936639623
 21
24.9366738787
  0
LINE
  5
443
100
AcDbEntity
  8
ASSI
100
AcDbLine
 62
250
  6
CONTINUOUS
 10
-9.736708158
 20
25.1366053437
 11
-0.3966003711
 21
25.1366053437
  0
LINE
  5
444
100
AcDbEntity
  8
ASSI
100
AcDbLine
 62
250
  6
CONTINUOUS
 10
9.736708158
 20
25.1366053437
 11
0.3966003711
 21
25.1366053437
  0
LINE
  5
445
100
AcDbEntity
  8
ASSI
100
AcDbLine
 62
7
  6
CONTINUOUS
 10
0.1860054824
 20
25.1576911745
 11
-0.1860054824
 21
25.1576911745
  0
LINE
  5
446
100
AcDbEntity
  8
ASSI
100
AcDbLine
 62
7
  6
CONTINUOUS
 10
9.7996914633
 20
25.199588649
 11
2.3211245552
 21
25.199588649
  0
LINE
  5
447
100
AcDbEntity
  8
ASSI
100
AcDbLine
 62
7
  6
CONTINUOUS
 10
-2.3211245552
 20
25.199588649
 11
-9.7996914633
 21
25.199588649
  0
LINE
  5
448
100
AcDbEntity
  8
ASSI
100
AcDbLine
 62
7
  6
CONTINUOUS
 10
1.7102933676
 20
25.2231479025
 11
-1.7102933676
 21
25.2231479025
  0
LINE
  5
449
100
AcDbEntity
  8
ASSI
100
AcDbLine
 62
7
  6
CONTINUOUS
 10
-2.0101106157
 20
26.3946752018
 11
-2.0213073071
 21
26.3974733087
  0
LINE
  5
44A
100
AcDbEntity
  8
ASSI
100
AcDbLine
 62
7
  6
CONTINUOUS
 10
1.7102933676
 20
26.3921485104
 11
-1.7102933676
 21
26.3921485104
  0
LINE
  5
44B
100
AcDbEntity
  8
ASSI
100
AcDbLine
 62
7
  6
CONTINUOUS
 10
10.6001713375
 20
26.4
 11
-10.6001713375
 21
26.4
  0
ARC
  5
44C
100
AcDbEntity
  8
ASSI
100
AcDbCircle
 62
250
  6
CONTINUOUS
 10
-5.2035479378
 20
-20.0035479385
 40
0.9998821485
100
AcDbArc
 50
180.0019741916
 51
269.9980257305
  0
ARC
  5
44D
100
AcDbEntity
  8
ASSI
100
AcDbCircle
 62
250
  6
CONTINUOUS
 10
-5.2036237856
 20
-20.0036237856
 40
0.7998367629
100
AcDbArc
 50
179.9970347443
 51
270.0029652557
  0
ARC
  5
44E
100
AcDbEntity
  8
ASSI
100
AcDbCircle
 62
250
  6
CONTINUOUS
 10
-5.1966246306
 20
-19.9966246306
 40
0.3999148228
100
AcDbArc
 50
179.9965248436
 51
270.0034992788
  0
ARC
  5
44F
100
AcDbEntity
  8
ASSI
100
AcDbCircle
 62
250
  6
CONTINUOUS
 10
-8.2949343371
 20
-21.7350659883
 40
0.3000809651
100
AcDbArc
 50
270.0238971509
 51
359.9761650059
  0
ARC
  5
450
100
AcDbEntity
  8
ASSI
100
AcDbCircle
 62
250
  6
CONTINUOUS
 10
-8.2949343393
 20
-21.6249340046
 40
0.300080964
100
AcDbArc
 50
0.0238336294
 51
89.9761024298
  0
ARC
  5
451
100
AcDbEntity
  8
ASSI
100
AcDbCircle
 62
250
  6
CONTINUOUS
 10
-3.5311361938
 20
-0.6315653052
 40
0.2005085288
100
AcDbArc
 50
80.1453359738
 51
89.9686106179
  0
ARC
  5
452
100
AcDbEntity
  8
ASSI
100
AcDbCircle
 62
250
  6
CONTINUOUS
 10
-6.1688638294
 20
-0.6315652819
 40
0.2005085285
100
AcDbArc
 50
90.0313893746
 51
99.8546573381
  0
ARC
  5
453
100
AcDbEntity
  8
ASSI
100
AcDbCircle
 62
250
  6
CONTINUOUS
 10
-9.7236137355
 20
-24.9235794563
 40
0.2000941966
100
AcDbArc
 50
180.0464923597
 51
269.9535076403
  0
ARC
  5
454
100
AcDbEntity
  8
ASSI
100
AcDbCircle
 62
7
  6
CONTINUOUS
 10
-3.5311024678
 20
-0.631102225
 40
0.2000463761
100
AcDbArc
 50
1.403298452
 51
80.1453359738
  0
ARC
  5
455
100
AcDbEntity
  8
ASSI
100
AcDbCircle
 62
7
  6
CONTINUOUS
 10
-6.168897564
 20
-0.6311021944
 40
0.2000463761
100
AcDbArc
 50
99.8546573381
 51
178.5967024062
  0
ARC
  5
456
100
AcDbEntity
  8
ASSI
100
AcDbCircle
 62
250
  6
CONTINUOUS
 10
-5.596612577
 20
-18.196612577
 40
0.2000430909
100
AcDbArc
 50
0.020944126
 51
89.979055874
  0
ARC
  5
457
100
AcDbEntity
  8
ASSI
100
AcDbCircle
 62
250
  6
CONTINUOUS
 10
-6.0033873739
 20
-18.1966126261
 40
0.2000430909
100
AcDbArc
 50
90.020958193
 51
179.979041807
  0
ARC
  5
458
100
AcDbEntity
  8
ASSI
100
AcDbCircle
 62
250
  6
CONTINUOUS
 10
-6.1770524602
 20
-0.9770524602
 40
0.2000430907
100
AcDbArc
 50
180.0209581322
 51
269.9790418678
  0
ARC
  5
459
100
AcDbEntity
  8
ASSI
100
AcDbCircle
 62
250
  6
CONTINUOUS
 10
-5.4452157956
 20
-2.49989641
 40
0.2000430909
100
AcDbArc
 50
270.020944126
 51
359.979055874
  0
ARC
  5
45A
100
AcDbEntity
  8
ASSI
100
AcDbCircle
 62
250
  6
CONTINUOUS
 10
-5.7998963609
 20
-2.4998963609
 40
0.2000430909
100
AcDbArc
 50
180.0209581922
 51
269.9790418078
  0
ARC
  5
45B
100
AcDbEntity
  8
ASSI
100
AcDbCircle
 62
250
  6
CONTINUOUS
 10
-3.5229475394
 20
-0.9770524606
 40
0.2000430903
100
AcDbArc
 50
270.0209580172
 51
359.9790419828
  0
ARC
  5
45C
100
AcDbEntity
  8
ASSI
100
AcDbCircle
 62
250
  6
CONTINUOUS
 10
-9.8870616049
 20
-11.4020616049
 40
0.2000107677
100
AcDbArc
 50
0.0052658463
 51
89.9947341537
  0
ARC
  5
45D
100
AcDbEntity
  8
ASSI
100
AcDbCircle
 62
7
  6
CONTINUOUS
 10
-6.2045907575
 20
-0.5956350744
 40
0.1999993618
100
AcDbArc
 50
112.4925958236
 51
179.8653112646
  0
ARC
  5
45E
100
AcDbEntity
  8
ASSI
100
AcDbCircle
 62
7
  6
CONTINUOUS
 10
-3.4954087855
 20
-0.5956338478
 40
0.1999981371
100
AcDbArc
 50
0.1357815501
 51
67.5985968584
  0
ARC
  5
45F
100
AcDbEntity
  8
ASSI
100
AcDbCircle
 62
250
  6
CONTINUOUS
 10
-5.1966956673
 20
-19.9966952215
 40
0.1998741375
100
AcDbArc
 50
179.9728093269
 51
270.027318763
  0
ARC
  5
460
100
AcDbEntity
  8
ASSI
100
AcDbCircle
 62
7
  6
CONTINUOUS
 10
-6.2052152658
 20
-1.0054472352
 40
0.1998114979
100
AcDbArc
 50
179.8904429622
 51
269.9808631692
  0
ARC
  5
461
100
AcDbEntity
  8
ASSI
100
AcDbCircle
 62
7
  6
CONTINUOUS
 10
-3.4947847341
 20
-1.0054472351
 40
0.199811498
100
AcDbArc
 50
270.0191367998
 51
0.1095569861
  0
ARC
  5
462
100
AcDbEntity
  8
ASSI
100
AcDbCircle
 62
7
  6
CONTINUOUS
 10
-5.8069843223
 20
-2.5072544983
 40
0.1997868707
100
AcDbArc
 50
179.8727550329
 51
269.9773042395
  0
ARC
  5
463
100
AcDbEntity
  8
ASSI
100
AcDbCircle
 62
7
  6
CONTINUOUS
 10
-5.4381277583
 20
-2.5072544804
 40
0.1997867827
100
AcDbArc
 50
270.02265989
 51
0.1272399133
  0
ARC
  5
464
100
AcDbEntity
  8
ASSI
100
AcDbCircle
 62
7
  6
CONTINUOUS
 10
-9.8567045941
 20
-11.372190267
 40
0.1985500761
100
AcDbArc
 50
40.3076617719
 51
90.5590961035
  0
ARC
  5
465
100
AcDbEntity
  8
ASSI
100
AcDbCircle
 62
250
  6
CONTINUOUS
 10
-6392.50256999
 20
8.9647045963
 40
6402.439454952
100
AcDbArc
 50
359.826879186
 51
0.0158616453
  0
ARC
  5
466
100
AcDbEntity
  8
ASSI
100
AcDbCircle
 62
250
  6
CONTINUOUS
 10
-6380.0215276197
 20
8.9664443239
 40
6389.7584811213
100
AcDbArc
 50
359.8267074716
 51
0.0158775242
  0
ARC
  5
467
100
AcDbEntity
  8
ASSI
100
AcDbCircle
 62
250
  6
CONTINUOUS
 10
-10.942892318
 20
10.9849416765
 40
1.2061843584
100
AcDbArc
 50
0.032861377
 51
14.9685749659
  0
ARC
  5
468
100
AcDbEntity
  8
ASSI
100
AcDbCircle
 62
250
  6
CONTINUOUS
 10
-10.9428754342
 20
18.0150561005
 40
1.2061674733
100
AcDbArc
 50
345.0313198958
 51
359.9672437612
  0
ARC
  5
469
100
AcDbEntity
  8
ASSI
100
AcDbCircle
 62
250
  6
CONTINUOUS
 10
-10.9421314828
 20
10.9848940875
 40
1.0054921316
100
AcDbArc
 50
0.0421321319
 51
14.9761429877
  0
ARC
  5
46A
100
AcDbEntity
  8
ASSI
100
AcDbCircle
 62
250
  6
CONTINUOUS
 10
-10.9421244313
 20
18.015104983
 40
1.0054850795
100
AcDbArc
 50
345.0238043426
 51
359.9579205378
  0
ARC
  5
46B
100
AcDbEntity
  8
ASSI
100
AcDbCircle
 62
250
  6
CONTINUOUS
 10
-9.2492612568
 20
16.568250245
 40
1.0041689907
100
AcDbArc
 50
165.0324595676
 51
179.9675404324
  0
ARC
  5
46C
100
AcDbEntity
  8
ASSI
100
AcDbCircle
 62
250
  6
CONTINUOUS
 10
-9.2492612641
 20
12.431749754
 40
1.0041689835
100
AcDbArc
 50
180.0324595132
 51
194.9675404868
  0
ARC
  5
46D
100
AcDbEntity
  8
ASSI
100
AcDbCircle
 62
250
  6
CONTINUOUS
 10
-9.2501708325
 20
16.5683699929
 40
0.8032898404
100
AcDbArc
 50
165.0320355609
 51
179.9679644391
  0
ARC
  5
46E
100
AcDbEntity
  8
ASSI
100
AcDbCircle
 62
250
  6
CONTINUOUS
 10
-9.2501708491
 20
12.4316300049
 40
0.8032898239
100
AcDbArc
 50
180.0320354065
 51
194.9679645935
  0
ARC
  5
46F
100
AcDbEntity
  8
ASSI
100
AcDbCircle
 62
250
  6
CONTINUOUS
 10
-9.7365434991
 20
24.9365092199
 40
0.2000969867
100
AcDbArc
 50
90.0471486253
 51
179.9528513747
  0
ARC
  5
470
100
AcDbEntity
  8
ASSI
100
AcDbCircle
 62
250
  6
CONTINUOUS
 10
5.2035479385
 20
-20.0035479378
 40
0.9998821485
100
AcDbArc
 50
270.0019741916
 51
359.9980257305
  0
ARC
  5
471
100
AcDbEntity
  8
ASSI
100
AcDbCircle
 62
250
  6
CONTINUOUS
 10
5.2036237856
 20
-20.0036237856
 40
0.7998367629
100
AcDbArc
 50
269.9970347443
 51
0.0029652557
  0
ARC
  5
472
100
AcDbEntity
  8
ASSI
100
AcDbCircle
 62
250
  6
CONTINUOUS
 10
5.1966246306
 20
-19.9966246306
 40
0.3999148228
100
AcDbArc
 50
269.9965248436
 51
0.0034992788
  0
ARC
  5
473
100
AcDbEntity
  8
ASSI
100
AcDbCircle
 62
250
  6
CONTINUOUS
 10
8.294934324
 20
-21.6249341126
 40
0.3000810075
100
AcDbArc
 50
90.0238946394
 51
179.9761457409
  0
ARC
  5
474
100
AcDbEntity
  8
ASSI
100
AcDbCircle
 62
250
  6
CONTINUOUS
 10
8.294934324
 20
-21.7350658874
 40
0.3000810076
100
AcDbArc
 50
180.023854262
 51
269.9761053603
  0
ARC
  5
475
100
AcDbEntity
  8
ASSI
100
AcDbCircle
 62
250
  6
CONTINUOUS
 10
3.5311362525
 20
-0.63156568
 40
0.2005089267
100
AcDbArc
 50
90.0314127087
 51
99.8546463298
  0
ARC
  5
476
100
AcDbEntity
  8
ASSI
100
AcDbCircle
 62
250
  6
CONTINUOUS
 10
6.1688638062
 20
-0.6315653052
 40
0.2005085288
100
AcDbArc
 50
80.1453359736
 51
89.9686106179
  0
ARC
  5
477
100
AcDbEntity
  8
ASSI
100
AcDbCircle
 62
250
  6
CONTINUOUS
 10
9.7236114418
 20
-24.9235771625
 40
0.2000969867
100
AcDbArc
 50
270.0471486257
 51
359.9528513743
  0
ARC
  5
478
100
AcDbEntity
  8
ASSI
100
AcDbCircle
 62
7
  6
CONTINUOUS
 10
6.1688975322
 20
-0.631102225
 40
0.2000463761
100
AcDbArc
 50
1.4032984522
 51
80.1453359736
  0
ARC
  5
479
100
AcDbEntity
  8
ASSI
100
AcDbCircle
 62
7
  6
CONTINUOUS
 10
3.5311023951
 20
-0.6311021836
 40
0.2000463053
100
AcDbArc
 50
99.8546463298
 51
178.5967052026
  0
ARC
  5
47A
100
AcDbEntity
  8
ASSI
100
AcDbCircle
 62
250
  6
CONTINUOUS
 10
6.003387423
 20
-18.196612577
 40
0.2000430909
100
AcDbArc
 50
0.020944126
 51
89.979055874
  0
ARC
  5
47B
100
AcDbEntity
  8
ASSI
100
AcDbCircle
 62
250
  6
CONTINUOUS
 10
5.5966126261
 20
-18.1966126261
 40
0.2000430909
100
AcDbArc
 50
90.020958193
 51
179.979041807
  0
ARC
  5
47C
100
AcDbEntity
  8
ASSI
100
AcDbCircle
 62
250
  6
CONTINUOUS
 10
5.79989641
 20
-2.49989641
 40
0.2000430909
100
AcDbArc
 50
270.020944126
 51
359.979055874
  0
ARC
  5
47D
100
AcDbEntity
  8
ASSI
100
AcDbCircle
 62
250
  6
CONTINUOUS
 10
5.4452158448
 20
-2.4998963609
 40
0.2000430909
100
AcDbArc
 50
180.0209581922
 51
269.9790418078
  0
ARC
  5
47E
100
AcDbEntity
  8
ASSI
100
AcDbCircle
 62
250
  6
CONTINUOUS
 10
3.5229475398
 20
-0.9770524602
 40
0.2000430907
100
AcDbArc
 50
180.0209581322
 51
269.9790418678
  0
ARC
  5
47F
100
AcDbEntity
  8
ASSI
100
AcDbCircle
 62
250
  6
CONTINUOUS
 10
6.1770524606
 20
-0.9770524606
 40
0.2000430903
100
AcDbArc
 50
270.0209580172
 51
359.9790419828
  0
ARC
  5
480
100
AcDbEntity
  8
ASSI
100
AcDbCircle
 62
250
  6
CONTINUOUS
 10
9.8870616067
 20
-11.4020616076
 40
0.2000107704
100
AcDbArc
 50
90.0052663746
 51
179.9947331409
  0
ARC
  5
481
100
AcDbEntity
  8
ASSI
100
AcDbCircle
 62
7
  6
CONTINUOUS
 10
6.2045912145
 20
-0.5956338478
 40
0.1999981371
100
AcDbArc
 50
0.1357815501
 51
67.5985968584
  0
ARC
  5
482
100
AcDbEntity
  8
ASSI
100
AcDbCircle
 62
7
  6
CONTINUOUS
 10
3.4954087855
 20
-0.5956338478
 40
0.1999981371
100
AcDbArc
 50
112.4014031416
 51
179.8642184499
  0
ARC
  5
483
100
AcDbEntity
  8
ASSI
100
AcDbCircle
 62
250
  6
CONTINUOUS
 10
5.1966951075
 20
-19.9966955533
 40
0.1998743094
100
AcDbArc
 50
269.9728420239
 51
0.0272860667
  0
ARC
  5
484
100
AcDbEntity
  8
ASSI
100
AcDbCircle
 62
7
  6
CONTINUOUS
 10
6.205215266
 20
-1.0054472351
 40
0.199811498
100
AcDbArc
 50
270.0191367946
 51
0.1095569913
  0
ARC
  5
485
100
AcDbEntity
  8
ASSI
100
AcDbCircle
 62
7
  6
CONTINUOUS
 10
3.4947847342
 20
-1.0054472352
 40
0.1998114979
100
AcDbArc
 50
179.8904429622
 51
269.9808631692
  0
ARC
  5
486
100
AcDbEntity
  8
ASSI
100
AcDbCircle
 62
7
  6
CONTINUOUS
 10
5.4381278833
 20
-2.5072544984
 40
0.1997868707
100
AcDbArc
 50
179.8727550232
 51
269.9773042492
  0
ARC
  5
487
100
AcDbEntity
  8
ASSI
100
AcDbCircle
 62
7
  6
CONTINUOUS
 10
5.8069844474
 20
-2.5072544804
 40
0.1997867827
100
AcDbArc
 50
270.0226598957
 51
0.1272399076
  0
ARC
  5
488
100
AcDbEntity
  8
ASSI
100
AcDbCircle
 62
7
  6
CONTINUOUS
 10
9.8567061995
 20
-11.3721937789
 40
0.1985535721
100
AcDbArc
 50
89.4413770211
 51
139.6918651035
  0
ARC
  5
489
100
AcDbEntity
  8
ASSI
100
AcDbCircle
 62
250
  6
CONTINUOUS
 10
6392.467073535
 20
8.9646558828
 40
6402.4039585119
100
AcDbArc
 50
179.9841378308
 51
180.1731213379
  0
ARC
  5
48A
100
AcDbEntity
  8
ASSI
100
AcDbCircle
 62
250
  6
CONTINUOUS
 10
6379.9857333522
 20
8.9663951531
 40
6389.7226868688
100
AcDbArc
 50
179.984121946
 51
180.1732930582
  0
ARC
  5
48B
100
AcDbEntity
  8
ASSI
100
AcDbCircle
 62
7
  6
CONTINUOUS
 10
5.76196153
 20
6.6069242682
 40
2.004715309
100
AcDbArc
 50
31.7241878782
 51
38.5141502175
  0
ARC
  5
48C
100
AcDbEntity
  8
ASSI
100
AcDbCircle
 62
7
  6
CONTINUOUS
 10
5.7619813308
 20
2.2932455226
 40
2.0046909186
100
AcDbArc
 50
31.7241364889
 51
38.5141846813
  0
ARC
  5
48D
100
AcDbEntity
  8
ASSI
100
AcDbCircle
 62
7
  6
CONTINUOUS
 10
8.5243143308
 20
3.8156772497
 40
1.9334940759
100
AcDbArc
 50
89.9356217315
 51
95.6954108777
  0
ARC
  5
48E
100
AcDbEntity
  8
ASSI
100
AcDbCircle
 62
250
  6
CONTINUOUS
 10
10.9428923637
 20
18.0150583296
 40
1.2061844041
100
AcDbArc
 50
180.0328616619
 51
194.9685746811
  0
ARC
  5
48F
100
AcDbEntity
  8
ASSI
100
AcDbCircle
 62
250
  6
CONTINUOUS
 10
10.9428754167
 20
10.9849439018
 40
1.2061674559
100
AcDbArc
 50
165.0313197873
 51
179.9672438697
  0
ARC
  5
490
100
AcDbEntity
  8
ASSI
100
AcDbCircle
 62
250
  6
CONTINUOUS
 10
10.9421316168
 20
18.0151059302
 40
1.0054922657
100
AcDbArc
 50
180.0421331331
 51
194.9761419865
  0
ARC
  5
491
100
AcDbEntity
  8
ASSI
100
AcDbCircle
 62
250
  6
CONTINUOUS
 10
10.942124365
 20
10.9848950257
 40
1.0054850132
100
AcDbArc
 50
165.0238038474
 51
179.9579210329
  0
ARC
  5
492
100
AcDbEntity
  8
ASSI
100
AcDbCircle
 62
250
  6
CONTINUOUS
 10
9.2492612671
 20
12.4317497536
 40
1.0041689805
100
AcDbArc
 50
345.0324594909
 51
359.9675405091
  0
ARC
  5
493
100
AcDbEntity
  8
ASSI
100
AcDbCircle
 62
250
  6
CONTINUOUS
 10
9.2492612689
 20
16.5682502466
 40
1.0041689787
100
AcDbArc
 50
0.0324594774
 51
14.9675405226
  0
ARC
  5
494
100
AcDbEntity
  8
ASSI
100
AcDbCircle
 62
250
  6
CONTINUOUS
 10
9.2501708592
 20
12.4316300036
 40
0.8032898138
100
AcDbArc
 50
345.032035312
 51
359.967964688
  0
ARC
  5
495
100
AcDbEntity
  8
ASSI
100
AcDbCircle
 62
250
  6
CONTINUOUS
 10
9.2501708639
 20
16.5683699971
 40
0.8032898091
100
AcDbArc
 50
0.0320352682
 51
14.9679647318
  0
ARC
  5
496
100
AcDbEntity
  8
ASSI
100
AcDbCircle
 62
250
  6
CONTINUOUS
 10
9.7365434991
 20
24.9365092199
 40
0.2000969867
100
AcDbArc
 50
0.0471486253
 51
89.9528513747
  0
SPLINE
  5
497
100
AcDbEntity
  8
ASSI
100
AcDbSpline
 62
7
  6
CONTINUOUS
 70
0
 71
3
 72
11
 73
7
 74
0
 42
0.0000001
 43
0.0000001
 44
0.0000000001
 40
0.0
 40
0.0
 40
0.0
 40
0.0
 40
0.2618523752
 40
0.4776212397
 40
0.6920968422
 40
1.0
 40
1.0
 40
1.0
 40
1.0
 10
1.2758137705
 20
6.7002457332
 30
0.0
 10
1.4057749851
 20
6.7002457332
 30
0.0
 10
1.6417944707
 20
6.7058015387
 30
0.0
 10
1.9851289861
 20
6.8088592868
 30
0.0
 10
2.2124807564
 20
7.1263213841
 30
0.0
 10
2.2275019212
 20
7.3938743608
 30
0.0
 10
2.2275019212
 20
7.5466912615
 30
0.0
  0
SPLINE
  5
498
100
AcDbEntity
  8
ASSI
100
AcDbSpline
 62
7
  6
CONTINUOUS
 70
0
 71
3
 72
11
 73
7
 74
0
 42
0.0000001
 43
0.0000001
 44
0.0000000001
 40
0.0
 40
0.0
 40
0.0
 40
0.0
 40
0.2849551711
 40
0.4998261233
 40
0.7192050889
 40
1.0
 40
1.0
 40
1.0
 40
1.0
 10
2.2275019212
 20
7.5466912615
 30
0.0
 10
2.2275019212
 20
7.677539424
 30
0.0
 10
2.2130110745
 20
7.911378784
 30
0.0
 10
2.0332546562
 20
8.2104585041
 30
0.0
 10
1.7157209962
 20
8.3416654547
 30
0.0
 10
1.4854239496
 20
8.3530053617
 30
0.0
 10
1.3564861309
 20
8.3530053617
 30
0.0
  0
SPLINE
  5
499
100
AcDbEntity
  8
ASSI
100
AcDbSpline
 62
7
  6
CONTINUOUS
 70
0
 71
3
 72
12
 73
8
 74
0
 42
0.0000001
 43
0.0000001
 44
0.0000000001
 40
0.0
 40
0.0
 40
0.0
 40
0.0
 40
0.2809994813
 40
0.3943878187
 40
0.4999228527
 40
0.7126332797
 40
1.0
 40
1.0
 40
1.0
 40
1.0
 10
1.2610716132
 20
8.0147547539
 30
0.0
 10
1.3375445971
 20
8.0147547539
 30
0.0
 10
1.4460753416
 20
8.0099097204
 30
0.0
 10
1.577093856
 20
7.9698814223
 30
0.0
 10
1.6781918206
 20
7.9066987437
 30
0.0
 10
1.7683283294
 20
7.7582375785
 30
0.0
 10
1.7758186036
 20
7.6191640051
 30
0.0
 10
1.7758186036
 20
7.5409582003
 30
0.0
  0
SPLINE
  5
49A
100
AcDbEntity
  8
ASSI
100
AcDbSpline
 62
7
  6
CONTINUOUS
 70
0
 71
3
 72
11
 73
7
 74
0
 42
0.0000001
 43
0.0000001
 44
0.0000000001
 40
0.0
 40
0.0
 40
0.0
 40
0.0
 40
0.2899253097
 40
0.5011337383
 40
0.7154169941
 40
1.0
 40
1.0
 40
1.0
 40
1.0
 10
1.7758186036
 20
7.5409582003
 30
0.0
 10
1.7758186036
 20
7.4580135986
 30
0.0
 10
1.7682812244
 20
7.3128754203
 30
0.0
 10
1.6637224936
 20
7.12252249
 30
0.0
 10
1.4646427095
 20
7.0440111174
 30
0.0
 10
1.3220126193
 20
7.0389058454
 30
0.0
 10
1.2405963948
 20
7.0389058454
 30
0.0
  0
SPLINE
  5
49B
100
AcDbEntity
  8
ASSI
100
AcDbSpline
 62
7
  6
CONTINUOUS
 70
0
 71
3
 72
19
 73
15
 74
0
 42
0.0000001
 43
0.0000001
 44
0.0000000001
 40
0.0
 40
0.0
 40
0.0
 40
0.0
 40
0.1376566839
 40
0.2507896178
 40
0.3044764038
 40
0.3616116642
 40
0.4267143629
 40
0.5046083827
 40
0.5795121393
 40
0.6428412283
 40
0.6985473357
 40
0.7510756625
 40
0.861871673
 40
1.0
 40
1.0
 40
1.0
 40
1.0
 10
-1.8282293375
 20
6.4295633461
 30
0.0
 10
-1.8282293375
 20
6.2840077274
 30
0.0
 10
-1.8158397064
 20
6.0180878759
 30
0.0
 10
-1.6971901591
 20
5.7056594082
 30
0.0
 10
-1.5257234687
 20
5.5376704535
 30
0.0
 10
-1.3619862255
 20
5.4452912953
 30
0.0
 10
-1.155606402
 20
5.3903837815
 30
0.0
 10
-0.9247109257
 20
5.3763831057
 30
0.0
 10
-0.6959361416
 20
5.3899342791
 30
0.0
 10
-0.4949572268
 20
5.4380047281
 30
0.0
 10
-0.331991673
 20
5.5217095934
 30
0.0
 10
-0.1572499714
 20
5.6783816946
 30
0.0
 10
-0.0261755304
 20
5.9827648113
 30
0.0
 10
-0.0100299444
 20
6.2474726364
 30
0.0
 10
-0.0100299444
 20
6.3935269617
 30
0.0
  0
SPLINE
  5
49C
100
AcDbEntity
  8
ASSI
100
AcDbSpline
 62
7
  6
CONTINUOUS
 70
0
 71
3
 72
19
 73
15
 74
0
 42
0.0000001
 43
0.0000001
 44
0.0000000001
 40
0.0
 40
0.0
 40
0.0
 40
0.0
 40
0.1302828175
 40
0.2503908627
 40
0.30576226
 40
0.3615367838
 40
0.4223182514
 40
0.4953223222
 40
0.5694747572
 40
0.6310595376
 40
0.6875119231
 40
0.7440166713
 40
0.8677044043
 40
1.0
 40
1.0
 40
1.0
 40
1.0
 10
-0.4498376355
 20
6.4430769902
 30
0.0
 10
-0.4498376355
 20
6.3567109323
 30
0.0
 10
-0.4546633498
 20
6.1912924887
 30
0.0
 10
-0.4933176869
 20
5.9879385241
 30
0.0
 10
-0.5742029949
 20
5.8555358841
 30
0.0
 10
-0.6599166942
 20
5.777704377
 30
0.0
 10
-0.7779436506
 20
5.7276334196
 30
0.0
 10
-0.9166082791
 20
5.7169188475
 30
0.0
 10
-1.0558726931
 20
5.7276799221
 30
0.0
 10
-1.1753060617
 20
5.7794085085
 30
0.0
 10
-1.260714964
 20
5.8603982745
 30
0.0
 10
-1.3393111596
 20
5.9983599103
 30
0.0
 10
-1.3738752623
 20
6.2067789881
 30
0.0
 10
-1.3773650285
 20
6.3758518556
 30
0.0
 10
-1.3773650285
 20
6.4635522086
 30
0.0
  0
SPLINE
  5
49D
100
AcDbEntity
  8
ASSI
100
AcDbSpline
 62
7
  6
CONTINUOUS
 70
0
 71
3
 72
8
 73
4
 74
0
 42
0.0000001
 43
0.0000001
 44
0.0000000001
 40
0.0
 40
0.0
 40
0.0
 40
0.0
 40
1.0
 40
1.0
 40
1.0
 40
1.0
 10
6.85
 20
8.0587138101
 30
0.0
 10
6.913623786
 20
8.0078147814
 30
0.0
 10
6.9740663826
 20
7.9473720476
 30
0.0
 10
7.0376901686
 20
7.8710235044
 30
0.0
  0
SPLINE
  5
49E
100
AcDbEntity
  8
ASSI
100
AcDbSpline
 62
7
  6
CONTINUOUS
 70
0
 71
3
 72
8
 73
4
 74
0
 42
0.0000001
 43
0.0000001
 44
0.0000000001
 40
0.0
 40
0.0
 40
0.0
 40
0.0
 40
1.0
 40
1.0
 40
1.0
 40
1.0
 10
7.0376901686
 20
7.8710235044
 30
0.0
 10
7.1013139546
 20
7.7946749613
 30
0.0
 10
7.1553941727
 20
7.7246890709
 30
0.0
 10
7.1967496336
 20
7.6610652849
 30
0.0
  0
SPLINE
  5
49F
100
AcDbEntity
  8
ASSI
100
AcDbSpline
 62
7
  6
CONTINUOUS
 70
0
 71
3
 72
8
 73
4
 74
0
 42
0.0000001
 43
0.0000001
 44
0.0000000001
 40
0.0
 40
0.0
 40
0.0
 40
0.0
 40
1.0
 40
1.0
 40
1.0
 40
1.0
 10
7.330559828
 20
7.8552763218
 30
0.0
 10
7.2826417446
 20
7.9155604288
 30
0.0
 10
7.2285615265
 20
7.972821562
 30
0.0
 10
7.1713001192
 20
8.0300832435
 30
0.0
  0
SPLINE
  5
4A0
100
AcDbEntity
  8
ASSI
100
AcDbSpline
 62
7
  6
CONTINUOUS
 70
0
 71
3
 72
8
 73
4
 74
0
 42
0.0000001
 43
0.0000001
 44
0.0000000001
 40
0.0
 40
0.0
 40
0.0
 40
0.0
 40
1.0
 40
1.0
 40
1.0
 40
1.0
 10
8.6887477434
 20
5.472586244
 30
0.0
 10
8.7459889248
 20
5.4660443947
 30
0.0
 10
8.7968879536
 20
5.4501383111
 30
0.0
 10
8.8414245506
 20
5.4278700168
 30
0.0
  0
SPLINE
  5
4A1
100
AcDbEntity
  8
ASSI
100
AcDbSpline
 62
7
  6
CONTINUOUS
 70
0
 71
3
 72
8
 73
4
 74
0
 42
0.0000001
 43
0.0000001
 44
0.0000000001
 40
0.0
 40
0.0
 40
0.0
 40
0.0
 40
1.0
 40
1.0
 40
1.0
 40
1.0
 10
8.8414245506
 20
5.4278700168
 30
0.0
 10
8.8859612711
 20
5.4056016609
 30
0.0
 10
8.9209543534
 20
5.3737897679
 30
0.0
 10
8.9495850571
 20
5.3356154963
 30
0.0
  0
SPLINE
  5
4A2
100
AcDbEntity
  8
ASSI
100
AcDbSpline
 62
7
  6
CONTINUOUS
 70
0
 71
3
 72
8
 73
4
 74
0
 42
0.0000001
 43
0.0000001
 44
0.0000000001
 40
0.0
 40
0.0
 40
0.0
 40
0.0
 40
1.0
 40
1.0
 40
1.0
 40
1.0
 10
8.9495850571
 20
5.3356154963
 30
0.0
 10
8.9750345714
 20
5.2942601725
 30
0.0
 10
8.9877593286
 20
5.2401798174
 30
0.0
 10
8.9877593286
 20
5.1701936528
 30
0.0
  0
SPLINE
  5
4A3
100
AcDbEntity
  8
ASSI
100
AcDbSpline
 62
7
  6
CONTINUOUS
 70
0
 71
3
 72
8
 73
4
 74
0
 42
0.0000001
 43
0.0000001
 44
0.0000000001
 40
0.0
 40
0.0
 40
0.0
 40
0.0
 40
1.0
 40
1.0
 40
1.0
 40
1.0
 10
8.9877593286
 20
5.1701936528
 30
0.0
 10
8.9877593286
 20
5.1065698668
 30
0.0
 10
8.9750345714
 20
5.0524897859
 30
0.0
 10
8.949238026
 20
5.0145536242
 30
0.0
  0
SPLINE
  5
4A4
100
AcDbEntity
  8
ASSI
100
AcDbSpline
 62
7
  6
CONTINUOUS
 70
0
 71
3
 72
8
 73
4
 74
0
 42
0.0000001
 43
0.0000001
 44
0.0000000001
 40
0.0
 40
0.0
 40
0.0
 40
0.0
 40
1.0
 40
1.0
 40
1.0
 40
1.0
 10
8.949238026
 20
5.0145536242
 30
0.0
 10
8.9209543534
 20
4.9729599163
 30
0.0
 10
8.8859612711
 20
4.9411480233
 30
0.0
 10
8.8414246603
 20
4.9188797222
 30
0.0
  0
SPLINE
  5
4A5
100
AcDbEntity
  8
ASSI
100
AcDbSpline
 62
7
  6
CONTINUOUS
 70
0
 71
3
 72
8
 73
4
 74
0
 42
0.0000001
 43
0.0000001
 44
0.0000000001
 40
0.0
 40
0.0
 40
0.0
 40
0.0
 40
1.0
 40
1.0
 40
1.0
 40
1.0
 10
8.8414246603
 20
4.9188797222
 30
0.0
 10
8.7968879536
 20
4.8966113731
 30
0.0
 10
8.7459889248
 20
4.8807055637
 30
0.0
 10
8.6890112233
 20
4.8725658219
 30
0.0
  0
SPLINE
  5
4A6
100
AcDbEntity
  8
ASSI
100
AcDbSpline
 62
7
  6
CONTINUOUS
 70
0
 71
3
 72
8
 73
4
 74
0
 42
0.0000001
 43
0.0000001
 44
0.0000000001
 40
0.0
 40
0.0
 40
0.0
 40
0.0
 40
1.0
 40
1.0
 40
1.0
 40
1.0
 10
8.6890112233
 20
4.8725658219
 30
0.0
 10
8.6346472993
 20
4.8647994801
 30
0.0
 10
8.577385892
 20
4.8616184279
 30
0.0
 10
8.5233056396
 20
4.8616184279
 30
0.0
  0
SPLINE
  5
4A7
100
AcDbEntity
  8
ASSI
100
AcDbSpline
 62
7
  6
CONTINUOUS
 70
0
 71
3
 72
8
 73
4
 74
0
 42
0.0000001
 43
0.0000001
 44
0.0000000001
 40
0.0
 40
0.0
 40
0.0
 40
0.0
 40
1.0
 40
1.0
 40
1.0
 40
1.0
 10
8.5233056396
 20
4.8616184279
 30
0.0
 10
8.4660442322
 20
4.8616184279
 30
0.0
 10
8.4087828249
 20
4.8647994801
 30
0.0
 10
8.3547026068
 20
4.8711618587
 30
0.0
  0
SPLINE
  5
4A8
100
AcDbEntity
  8
ASSI
100
AcDbSpline
 62
7
  6
CONTINUOUS
 70
0
 71
3
 72
8
 73
4
 74
0
 42
0.0000001
 43
0.0000001
 44
0.0000000001
 40
0.0
 40
0.0
 40
0.0
 40
0.0
 40
1.0
 40
1.0
 40
1.0
 40
1.0
 10
8.3547026068
 20
4.8711618587
 30
0.0
 10
8.3006223887
 20
4.8775242373
 30
0.0
 10
8.2497233599
 20
4.8934303209
 30
0.0
 10
8.2051867646
 20
4.9156986186
 30
0.0
  0
SPLINE
  5
4A9
100
AcDbEntity
  8
ASSI
100
AcDbSpline
 62
7
  6
CONTINUOUS
 70
0
 71
3
 72
8
 73
4
 74
0
 42
0.0000001
 43
0.0000001
 44
0.0000000001
 40
0.0
 40
0.0
 40
0.0
 40
0.0
 40
1.0
 40
1.0
 40
1.0
 40
1.0
 10
8.2051867646
 20
4.9156986186
 30
0.0
 10
8.1606500596
 20
4.9379669711
 30
0.0
 10
8.1256569773
 20
4.9697788641
 30
0.0
 10
8.1002075241
 20
5.0111342255
 30
0.0
  0
SPLINE
  5
4AA
100
AcDbEntity
  8
ASSI
100
AcDbSpline
 62
7
  6
CONTINUOUS
 70
0
 71
3
 72
8
 73
4
 74
0
 42
0.0000001
 43
0.0000001
 44
0.0000000001
 40
0.0
 40
0.0
 40
0.0
 40
0.0
 40
1.0
 40
1.0
 40
1.0
 40
1.0
 10
8.1002075241
 20
5.0111342255
 30
0.0
 10
8.0747579485
 20
5.0524897859
 30
0.0
 10
8.058852002
 20
5.1065698668
 30
0.0
 10
8.058852002
 20
5.1765560314
 30
0.0
  0
SPLINE
  5
4AB
100
AcDbEntity
  8
ASSI
100
AcDbSpline
 62
7
  6
CONTINUOUS
 70
0
 71
3
 72
8
 73
4
 74
0
 42
0.0000001
 43
0.0000001
 44
0.0000000001
 40
0.0
 40
0.0
 40
0.0
 40
0.0
 40
1.0
 40
1.0
 40
1.0
 40
1.0
 10
8.058852002
 20
5.1765560314
 30
0.0
 10
8.058852002
 20
5.2433611438
 30
0.0
 10
8.0715767592
 20
5.2974412248
 30
0.0
 10
8.0977441616
 20
5.3383278614
 30
0.0
  0
SPLINE
  5
4AC
100
AcDbEntity
  8
ASSI
100
AcDbSpline
 62
7
  6
CONTINUOUS
 70
0
 71
3
 72
8
 73
4
 74
0
 42
0.0000001
 43
0.0000001
 44
0.0000000001
 40
0.0
 40
0.0
 40
0.0
 40
0.0
 40
1.0
 40
1.0
 40
1.0
 40
1.0
 10
8.0977441616
 20
5.3383278614
 30
0.0
 10
8.122475788
 20
5.3769710943
 30
0.0
 10
8.1574688703
 20
5.4087829873
 30
0.0
 10
8.2023224028
 20
5.430379061
 30
0.0
  0
SPLINE
  5
4AD
100
AcDbEntity
  8
ASSI
100
AcDbSpline
 62
7
  6
CONTINUOUS
 70
0
 71
3
 72
8
 73
4
 74
0
 42
0.0000001
 43
0.0000001
 44
0.0000000001
 40
0.0
 40
0.0
 40
0.0
 40
0.0
 40
1.0
 40
1.0
 40
1.0
 40
1.0
 10
8.2023224028
 20
5.430379061
 30
0.0
 10
8.2433609813
 20
5.4501383111
 30
0.0
 10
8.2942600101
 20
5.4660443947
 30
0.0
 10
8.3483402282
 20
5.4724067733
 30
0.0
  0
SPLINE
  5
4AE
100
AcDbEntity
  8
ASSI
100
AcDbSpline
 62
7
  6
CONTINUOUS
 70
0
 71
3
 72
8
 73
4
 74
0
 42
0.0000001
 43
0.0000001
 44
0.0000000001
 40
0.0
 40
0.0
 40
0.0
 40
0.0
 40
1.0
 40
1.0
 40
1.0
 40
1.0
 10
8.3483402282
 20
5.4724067733
 30
0.0
 10
8.4024204463
 20
5.4787691519
 30
0.0
 10
8.4596818537
 20
5.4819502041
 30
0.0
 10
8.5201244503
 20
5.4819502041
 30
0.0
  0
SPLINE
  5
4AF
100
AcDbEntity
  8
ASSI
100
AcDbSpline
 62
7
  6
CONTINUOUS
 70
0
 71
3
 72
8
 73
4
 74
0
 42
0.0000001
 43
0.0000001
 44
0.0000000001
 40
0.0
 40
0.0
 40
0.0
 40
0.0
 40
1.0
 40
1.0
 40
1.0
 40
1.0
 10
8.5201244503
 20
5.4819502041
 30
0.0
 10
8.577385892
 20
5.4819502041
 30
0.0
 10
8.6346472993
 20
5.4787691519
 30
0.0
 10
8.6887477434
 20
5.472586244
 30
0.0
  0
SPLINE
  5
4B0
100
AcDbEntity
  8
ASSI
100
AcDbSpline
 62
7
  6
CONTINUOUS
 70
0
 71
3
 72
8
 73
4
 74
0
 42
0.0000001
 43
0.0000001
 44
0.0000000001
 40
0.0
 40
0.0
 40
0.0
 40
0.0
 40
1.0
 40
1.0
 40
1.0
 40
1.0
 10
7.6005344111
 20
5.4520220184
 30
0.0
 10
7.6516597033
 20
5.4437759325
 30
0.0
 10
7.6930151641
 20
5.4278701231
 30
0.0
 10
7.7305038121
 20
5.4075637048
 30
0.0
  0
SPLINE
  5
4B1
100
AcDbEntity
  8
ASSI
100
AcDbSpline
 62
7
  6
CONTINUOUS
 70
0
 71
3
 72
8
 73
4
 74
0
 42
0.0000001
 43
0.0000001
 44
0.0000000001
 40
0.0
 40
0.0
 40
0.0
 40
0.0
 40
1.0
 40
1.0
 40
1.0
 40
1.0
 10
7.7305038121
 20
5.4075637048
 30
0.0
 10
7.7693637073
 20
5.3865145251
 30
0.0
 10
7.8011756003
 20
5.3578839585
 30
0.0
 10
7.8245772132
 20
5.3204413779
 30
0.0
  0
SPLINE
  5
4B2
100
AcDbEntity
  8
ASSI
100
AcDbSpline
 62
7
  6
CONTINUOUS
 70
0
 71
3
 72
8
 73
4
 74
0
 42
0.0000001
 43
0.0000001
 44
0.0000000001
 40
0.0
 40
0.0
 40
0.0
 40
0.0
 40
1.0
 40
1.0
 40
1.0
 40
1.0
 10
7.8245772132
 20
5.3204413779
 30
0.0
 10
7.8488934398
 20
5.2815354154
 30
0.0
 10
7.8584370077
 20
5.2338174388
 30
0.0
 10
7.8584370077
 20
5.1765560314
 30
0.0
  0
SPLINE
  5
4B3
100
AcDbEntity
  8
ASSI
100
AcDbSpline
 62
7
  6
CONTINUOUS
 70
0
 71
3
 72
8
 73
4
 74
0
 42
0.0000001
 43
0.0000001
 44
0.0000000001
 40
0.0
 40
0.0
 40
0.0
 40
0.0
 40
1.0
 40
1.0
 40
1.0
 40
1.0
 10
7.8584370077
 20
5.1765560314
 30
0.0
 10
7.8584370077
 20
5.1161135718
 30
0.0
 10
7.8488934398
 20
5.0683955953
 30
0.0
 10
7.8245986353
 20
5.0295239082
 30
0.0
  0
SPLINE
  5
4B4
100
AcDbEntity
  8
ASSI
100
AcDbSpline
 62
7
  6
CONTINUOUS
 70
0
 71
3
 72
8
 73
4
 74
0
 42
0.0000001
 43
0.0000001
 44
0.0000000001
 40
0.0
 40
0.0
 40
0.0
 40
0.0
 40
1.0
 40
1.0
 40
1.0
 40
1.0
 10
7.8245986353
 20
5.0295239082
 30
0.0
 10
7.8011756003
 20
4.9920470521
 30
0.0
 10
7.7693637073
 20
4.9602351591
 30
0.0
 10
7.7311894954
 20
4.9379668688
 30
0.0
  0
SPLINE
  5
4B5
100
AcDbEntity
  8
ASSI
100
AcDbSpline
 62
7
  6
CONTINUOUS
 70
0
 71
3
 72
8
 73
4
 74
0
 42
0.0000001
 43
0.0000001
 44
0.0000000001
 40
0.0
 40
0.0
 40
0.0
 40
0.0
 40
1.0
 40
1.0
 40
1.0
 40
1.0
 10
7.7311894954
 20
4.9379668688
 30
0.0
 10
7.6930151641
 20
4.9156985089
 30
0.0
 10
7.6452973247
 20
4.8997926995
 30
0.0
 10
7.5946644825
 20
4.8918812497
 30
0.0
  0
SPLINE
  5
4B6
100
AcDbEntity
  8
ASSI
100
AcDbSpline
 62
7
  6
CONTINUOUS
 70
0
 71
3
 72
8
 73
4
 74
0
 42
0.0000001
 43
0.0000001
 44
0.0000000001
 40
0.0
 40
0.0
 40
0.0
 40
0.0
 40
1.0
 40
1.0
 40
1.0
 40
1.0
 10
7.5946644825
 20
4.8918812497
 30
0.0
 10
7.5434992671
 20
4.8838866159
 30
0.0
 10
7.4926002383
 20
4.8807055637
 30
0.0
 10
7.4385200202
 20
4.8807055637
 30
0.0
  0
SPLINE
  5
4B7
100
AcDbEntity
  8
ASSI
100
AcDbSpline
 62
7
  6
CONTINUOUS
 70
0
 71
3
 72
8
 73
4
 74
0
 42
0.0000001
 43
0.0000001
 44
0.0000000001
 40
0.0
 40
0.0
 40
0.0
 40
0.0
 40
1.0
 40
1.0
 40
1.0
 40
1.0
 10
7.4385200202
 20
4.8807055637
 30
0.0
 10
7.3812586129
 20
4.8807055637
 30
0.0
 10
7.3271783948
 20
4.8838866159
 30
0.0
 10
7.2760605386
 20
4.8918738498
 30
0.0
  0
SPLINE
  5
4B8
100
AcDbEntity
  8
ASSI
100
AcDbSpline
 62
7
  6
CONTINUOUS
 70
0
 71
3
 72
8
 73
4
 74
0
 42
0.0000001
 43
0.0000001
 44
0.0000000001
 40
0.0
 40
0.0
 40
0.0
 40
0.0
 40
1.0
 40
1.0
 40
1.0
 40
1.0
 10
7.2760605386
 20
4.8918738498
 30
0.0
 10
7.2253803372
 20
4.8997926995
 30
0.0
 10
7.1776624978
 20
4.9156985089
 30
0.0
 10
7.1394881665
 20
4.9379668688
 30
0.0
  0
SPLINE
  5
4B9
100
AcDbEntity
  8
ASSI
100
AcDbSpline
 62
7
  6
CONTINUOUS
 70
0
 71
3
 72
8
 73
4
 74
0
 42
0.0000001
 43
0.0000001
 44
0.0000000001
 40
0.0
 40
0.0
 40
0.0
 40
0.0
 40
1.0
 40
1.0
 40
1.0
 40
1.0
 10
7.1394881665
 20
4.9379668688
 30
0.0
 10
7.1013139546
 20
4.9602351591
 30
0.0
 10
7.0726832509
 20
4.9920470521
 30
0.0
 10
7.0483884465
 20
5.0309187392
 30
0.0
  0
SPLINE
  5
4BA
100
AcDbEntity
  8
ASSI
100
AcDbSpline
 62
7
  6
CONTINUOUS
 70
0
 71
3
 72
8
 73
4
 74
0
 42
0.0000001
 43
0.0000001
 44
0.0000000001
 40
0.0
 40
0.0
 40
0.0
 40
0.0
 40
1.0
 40
1.0
 40
1.0
 40
1.0
 10
7.0483884465
 20
5.0309187392
 30
0.0
 10
7.0249654174
 20
5.0683955857
 30
0.0
 10
7.0122406607
 20
5.119294598
 30
0.0
 10
7.0122406542
 20
5.1829183613
 30
0.0
  0
SPLINE
  5
4BB
100
AcDbEntity
  8
ASSI
100
AcDbSpline
 62
7
  6
CONTINUOUS
 70
0
 71
3
 72
8
 73
4
 74
0
 42
0.0000001
 43
0.0000001
 44
0.0000000001
 40
0.0
 40
0.0
 40
0.0
 40
0.0
 40
1.0
 40
1.0
 40
1.0
 40
1.0
 10
7.0122406542
 20
5.1829183613
 30
0.0
 10
7.0122406477
 20
5.2465421716
 30
0.0
 10
7.0249654049
 20
5.2942601628
 30
0.0
 10
7.0504149258
 20
5.3324344441
 30
0.0
  0
SPLINE
  5
4BC
100
AcDbEntity
  8
ASSI
100
AcDbSpline
 62
7
  6
CONTINUOUS
 70
0
 71
3
 72
8
 73
4
 74
0
 42
0.0000001
 43
0.0000001
 44
0.0000000001
 40
0.0
 40
0.0
 40
0.0
 40
0.0
 40
1.0
 40
1.0
 40
1.0
 40
1.0
 10
7.0504149258
 20
5.3324344441
 30
0.0
 10
7.0758644402
 20
5.3706087157
 30
0.0
 10
7.1076763332
 20
5.3992392823
 30
0.0
 10
7.1458506048
 20
5.4183264181
 30
0.0
  0
SPLINE
  5
4BD
100
AcDbEntity
  8
ASSI
100
AcDbSpline
 62
7
  6
CONTINUOUS
 70
0
 71
3
 72
8
 73
4
 74
0
 42
0.0000001
 43
0.0000001
 44
0.0000000001
 40
0.0
 40
0.0
 40
0.0
 40
0.0
 40
1.0
 40
1.0
 40
1.0
 40
1.0
 10
7.1458506048
 20
5.4183264181
 30
0.0
 10
7.1840248764
 20
5.4374135539
 30
0.0
 10
7.2317427158
 20
5.4501383111
 30
0.0
 10
7.2826644419
 20
5.4563106415
 30
0.0
  0
SPLINE
  5
4BE
100
AcDbEntity
  8
ASSI
100
AcDbSpline
 62
7
  6
CONTINUOUS
 70
0
 71
3
 72
8
 73
4
 74
0
 42
0.0000001
 43
0.0000001
 44
0.0000000001
 40
0.0
 40
0.0
 40
0.0
 40
0.0
 40
1.0
 40
1.0
 40
1.0
 40
1.0
 10
7.2826644419
 20
5.4563106415
 30
0.0
 10
7.3367219627
 20
5.4628630683
 30
0.0
 10
7.3908021808
 20
5.4660443947
 30
0.0
 10
7.4480635881
 20
5.4660443947
 30
0.0
  0
SPLINE
  5
4BF
100
AcDbEntity
  8
ASSI
100
AcDbSpline
 62
7
  6
CONTINUOUS
 70
0
 71
3
 72
8
 73
4
 74
0
 42
0.0000001
 43
0.0000001
 44
0.0000000001
 40
0.0
 40
0.0
 40
0.0
 40
0.0
 40
1.0
 40
1.0
 40
1.0
 40
1.0
 10
7.4480635881
 20
5.4660443947
 30
0.0
 10
7.5021438062
 20
5.4660443947
 30
0.0
 10
7.553042835
 20
5.4596820161
 30
0.0
 10
7.6005344111
 20
5.4520220184
 30
0.0
  0
SPLINE
  5
4C0
100
AcDbEntity
  8
ASSI
100
AcDbSpline
 62
7
  6
CONTINUOUS
 70
0
 71
3
 72
8
 73
4
 74
0
 42
0.0000001
 43
0.0000001
 44
0.0000000001
 40
0.0
 40
0.0
 40
0.0
 40
0.0
 40
1.0
 40
1.0
 40
1.0
 40
1.0
 10
8.3324342817
 20
5.7396266744
 30
0.0
 10
8.2688104957
 20
5.7332642958
 30
0.0
 10
8.2115490884
 20
5.7173582122
 30
0.0
 10
8.161277868
 20
5.6937936453
 30
0.0
  0
SPLINE
  5
4C1
100
AcDbEntity
  8
ASSI
100
AcDbSpline
 62
7
  6
CONTINUOUS
 70
0
 71
3
 72
8
 73
4
 74
0
 42
0.0000001
 43
0.0000001
 44
0.0000000001
 40
0.0
 40
0.0
 40
0.0
 40
0.0
 40
1.0
 40
1.0
 40
1.0
 40
1.0
 10
8.161277868
 20
5.6937936453
 30
0.0
 10
8.1097510308
 20
5.6696405098
 30
0.0
 10
8.0683955699
 20
5.6378286168
 30
0.0
 10
8.031179496
 20
5.5925221344
 30
0.0
  0
SPLINE
  5
4C2
100
AcDbEntity
  8
ASSI
100
AcDbSpline
 62
7
  6
CONTINUOUS
 70
0
 71
3
 72
8
 73
4
 74
0
 42
0.0000001
 43
0.0000001
 44
0.0000000001
 40
0.0
 40
0.0
 40
0.0
 40
0.0
 40
1.0
 40
1.0
 40
1.0
 40
1.0
 10
8.031179496
 20
5.5925221344
 30
0.0
 10
7.9952281475
 20
5.5487553164
 30
0.0
 10
7.9697786331
 20
5.4914939091
 30
0.0
 10
7.9538726866
 20
5.4183264181
 30
0.0
  0
SPLINE
  5
4C3
100
AcDbEntity
  8
ASSI
100
AcDbSpline
 62
7
  6
CONTINUOUS
 70
0
 71
3
 72
8
 73
4
 74
0
 42
0.0000001
 43
0.0000001
 44
0.0000000001
 40
0.0
 40
0.0
 40
0.0
 40
0.0
 40
1.0
 40
1.0
 40
1.0
 40
1.0
 10
7.9538726866
 20
5.4183264181
 30
0.0
 10
7.9347855508
 20
5.4851315305
 30
0.0
 10
7.9061548471
 20
5.5392116114
 30
0.0
 10
7.8671936903
 20
5.5797962198
 30
0.0
  0
SPLINE
  5
4C4
100
AcDbEntity
  8
ASSI
100
AcDbSpline
 62
7
  6
CONTINUOUS
 70
0
 71
3
 72
8
 73
4
 74
0
 42
0.0000001
 43
0.0000001
 44
0.0000000001
 40
0.0
 40
0.0
 40
0.0
 40
0.0
 40
1.0
 40
1.0
 40
1.0
 40
1.0
 10
7.8671936903
 20
5.5797962198
 30
0.0
 10
7.829806304
 20
5.618741481
 30
0.0
 10
7.7852696538
 20
5.650553374
 30
0.0
 10
7.7343706754
 20
5.6728216771
 30
0.0
  0
SPLINE
  5
4C5
100
AcDbEntity
  8
ASSI
100
AcDbSpline
 62
7
  6
CONTINUOUS
 70
0
 71
3
 72
8
 73
4
 74
0
 42
0.0000001
 43
0.0000001
 44
0.0000000001
 40
0.0
 40
0.0
 40
0.0
 40
0.0
 40
1.0
 40
1.0
 40
1.0
 40
1.0
 10
7.7343706754
 20
5.6728216771
 30
0.0
 10
7.6834715962
 20
5.6950900242
 30
0.0
 10
7.6293913782
 20
5.7109958336
 30
0.0
 10
7.5721299708
 20
5.7173582122
 30
0.0
  0
SPLINE
  5
4C6
100
AcDbEntity
  8
ASSI
100
AcDbSpline
 62
7
  6
CONTINUOUS
 70
0
 71
3
 72
8
 73
4
 74
0
 42
0.0000001
 43
0.0000001
 44
0.0000000001
 40
0.0
 40
0.0
 40
0.0
 40
0.0
 40
1.0
 40
1.0
 40
1.0
 40
1.0
 10
7.5721299708
 20
5.7173582122
 30
0.0
 10
7.5148685634
 20
5.7237205908
 30
0.0
 10
7.4544259667
 20
5.7300829694
 30
0.0
 10
7.3908021808
 20
5.7300829694
 30
0.0
  0
SPLINE
  5
4C7
100
AcDbEntity
  8
ASSI
100
AcDbSpline
 62
7
  6
CONTINUOUS
 70
0
 71
3
 72
8
 73
4
 74
0
 42
0.0000001
 43
0.0000001
 44
0.0000000001
 40
0.0
 40
0.0
 40
0.0
 40
0.0
 40
1.0
 40
1.0
 40
1.0
 40
1.0
 10
7.3908021808
 20
5.7300829694
 30
0.0
 10
7.1935684443
 20
5.7300829694
 30
0.0
 10
7.0472337365
 20
5.6855463192
 30
0.0
 10
6.9525552802
 20
5.5956820217
 30
0.0
  0
SPLINE
  5
4C8
100
AcDbEntity
  8
ASSI
100
AcDbSpline
 62
7
  6
CONTINUOUS
 70
0
 71
3
 72
8
 73
4
 74
0
 42
0.0000001
 43
0.0000001
 44
0.0000000001
 40
0.0
 40
0.0
 40
0.0
 40
0.0
 40
1.0
 40
1.0
 40
1.0
 40
1.0
 10
6.9525552802
 20
5.5956820217
 30
0.0
 10
6.8595435679
 20
5.5073997185
 30
0.0
 10
6.8118257284
 20
5.3674273893
 30
0.0
 10
6.8118257284
 20
5.1765560314
 30
0.0
  0
SPLINE
  5
4C9
100
AcDbEntity
  8
ASSI
100
AcDbSpline
 62
7
  6
CONTINUOUS
 70
0
 71
3
 72
8
 73
4
 74
0
 42
0.0000001
 43
0.0000001
 44
0.0000000001
 40
0.0
 40
0.0
 40
0.0
 40
0.0
 40
1.0
 40
1.0
 40
1.0
 40
1.0
 10
6.8118257284
 20
5.1765560314
 30
0.0
 10
6.8118257284
 20
4.9761412427
 30
0.0
 10
6.8690871358
 20
4.8329875872
 30
0.0
 10
6.97784898
 20
4.7478696221
 30
0.0
  0
SPLINE
  5
4CA
100
AcDbEntity
  8
ASSI
100
AcDbSpline
 62
7
  6
CONTINUOUS
 70
0
 71
3
 72
8
 73
4
 74
0
 42
0.0000001
 43
0.0000001
 44
0.0000000001
 40
0.0
 40
0.0
 40
0.0
 40
0.0
 40
1.0
 40
1.0
 40
1.0
 40
1.0
 10
6.97784898
 20
4.7478696221
 30
0.0
 10
7.0885891974
 20
4.661203365
 30
0.0
 10
7.2412862837
 20
4.6198480412
 30
0.0
 10
7.4385200202
 20
4.6198480412
 30
0.0
  0
SPLINE
  5
4CB
100
AcDbEntity
  8
ASSI
100
AcDbSpline
 62
7
  6
CONTINUOUS
 70
0
 71
3
 72
8
 73
4
 74
0
 42
0.0000001
 43
0.0000001
 44
0.0000000001
 40
0.0
 40
0.0
 40
0.0
 40
0.0
 40
1.0
 40
1.0
 40
1.0
 40
1.0
 10
7.4385200202
 20
4.6198480412
 30
0.0
 10
7.5657675922
 20
4.6198480412
 30
0.0
 10
7.670746839
 20
4.638935177
 30
0.0
 10
7.7598201394
 20
4.6771094486
 30
0.0
  0
SPLINE
  5
4CC
100
AcDbEntity
  8
ASSI
100
AcDbSpline
 62
7
  6
CONTINUOUS
 70
0
 71
3
 72
8
 73
4
 74
0
 42
0.0000001
 43
0.0000001
 44
0.0000000001
 40
0.0
 40
0.0
 40
0.0
 40
0.0
 40
1.0
 40
1.0
 40
1.0
 40
1.0
 10
7.7598201394
 20
4.6771094486
 30
0.0
 10
7.8488934398
 20
4.7152837202
 30
0.0
 10
7.915698415
 20
4.7948133156
 30
0.0
 10
7.9538726866
 20
4.9156985089
 30
0.0
  0
SPLINE
  5
4CD
100
AcDbEntity
  8
ASSI
100
AcDbSpline
 62
7
  6
CONTINUOUS
 70
0
 71
3
 72
8
 73
4
 74
0
 42
0.0000001
 43
0.0000001
 44
0.0000000001
 40
0.0
 40
0.0
 40
0.0
 40
0.0
 40
1.0
 40
1.0
 40
1.0
 40
1.0
 10
7.9538726866
 20
4.9156985089
 30
0.0
 10
7.9729598224
 20
4.8393499658
 30
0.0
 10
8.0047717839
 20
4.7820885584
 30
0.0
 10
8.0429459872
 20
4.7407331715
 30
0.0
  0
SPLINE
  5
4CE
100
AcDbEntity
  8
ASSI
100
AcDbSpline
 62
7
  6
CONTINUOUS
 70
0
 71
3
 72
8
 73
4
 74
0
 42
0.0000001
 43
0.0000001
 44
0.0000000001
 40
0.0
 40
0.0
 40
0.0
 40
0.0
 40
1.0
 40
1.0
 40
1.0
 40
1.0
 10
8.0429459872
 20
4.7407331715
 30
0.0
 10
8.0811203271
 20
4.6993776366
 30
0.0
 10
8.1288381666
 20
4.6675657436
 30
0.0
 10
8.1799767223
 20
4.6458705988
 30
0.0
  0
SPLINE
  5
4CF
100
AcDbEntity
  8
ASSI
100
AcDbSpline
 62
7
  6
CONTINUOUS
 70
0
 71
3
 72
8
 73
4
 74
0
 42
0.0000001
 43
0.0000001
 44
0.0000000001
 40
0.0
 40
0.0
 40
0.0
 40
0.0
 40
1.0
 40
1.0
 40
1.0
 40
1.0
 10
8.1799767223
 20
4.6458705988
 30
0.0
 10
8.2338174134
 20
4.6230290934
 30
0.0
 10
8.2910788208
 20
4.6103043362
 30
0.0
 10
8.3515377705
 20
4.6041034183
 30
0.0
  0
SPLINE
  5
4D0
100
AcDbEntity
  8
ASSI
100
AcDbSpline
 62
7
  6
CONTINUOUS
 70
0
 71
3
 72
8
 73
4
 74
0
 42
0.0000001
 43
0.0000001
 44
0.0000000001
 40
0.0
 40
0.0
 40
0.0
 40
0.0
 40
1.0
 40
1.0
 40
1.0
 40
1.0
 10
8.3515377705
 20
4.6041034183
 30
0.0
 10
8.4151452035
 20
4.5975795791
 30
0.0
 10
8.4755878001
 20
4.5975795791
 30
0.0
 10
8.5328492075
 20
4.5975795791
 30
0.0
  0
SPLINE
  5
4D1
100
AcDbEntity
  8
ASSI
100
AcDbSpline
 62
7
  6
CONTINUOUS
 70
0
 71
3
 72
8
 73
4
 74
0
 42
0.0000001
 43
0.0000001
 44
0.0000000001
 40
0.0
 40
0.0
 40
0.0
 40
0.0
 40
1.0
 40
1.0
 40
1.0
 40
1.0
 10
8.5328492075
 20
4.5975795791
 30
0.0
 10
8.7523513034
 20
4.5975795791
 30
0.0
 10
8.9177731641
 20
4.6421162292
 30
0.0
 10
9.0259336086
 20
4.7311895299
 30
0.0
  0
SPLINE
  5
4D2
100
AcDbEntity
  8
ASSI
100
AcDbSpline
 62
7
  6
CONTINUOUS
 70
0
 71
3
 72
8
 73
4
 74
0
 42
0.0000001
 43
0.0000001
 44
0.0000000001
 40
0.0
 40
0.0
 40
0.0
 40
0.0
 40
1.0
 40
1.0
 40
1.0
 40
1.0
 10
9.0259336086
 20
4.7311895299
 30
0.0
 10
9.1340940524
 20
4.82026283
 30
0.0
 10
9.1881742759
 20
4.9665975377
 30
0.0
 10
9.1881742759
 20
5.1701936528
 30
0.0
  0
SPLINE
  5
4D3
100
AcDbEntity
  8
ASSI
100
AcDbSpline
 62
7
  6
CONTINUOUS
 70
0
 71
3
 72
8
 73
4
 74
0
 42
0.0000001
 43
0.0000001
 44
0.0000000001
 40
0.0
 40
0.0
 40
0.0
 40
0.0
 40
1.0
 40
1.0
 40
1.0
 40
1.0
 10
9.1881742759
 20
5.1701936528
 30
0.0
 10
9.1881742759
 20
5.278354089
 30
0.0
 10
9.1722683272
 20
5.3674273893
 30
0.0
 10
9.1398843304
 20
5.443529844
 30
0.0
  0
SPLINE
  5
4D4
100
AcDbEntity
  8
ASSI
100
AcDbSpline
 62
7
  6
CONTINUOUS
 70
0
 71
3
 72
8
 73
4
 74
0
 42
0.0000001
 43
0.0000001
 44
0.0000000001
 40
0.0
 40
0.0
 40
0.0
 40
0.0
 40
1.0
 40
1.0
 40
1.0
 40
1.0
 10
9.1398843304
 20
5.443529844
 30
0.0
 10
9.1086445348
 20
5.5169434235
 30
0.0
 10
9.0641078804
 20
5.577385883
 30
0.0
 10
9.0068464714
 20
5.6219225311
 30
0.0
  0
SPLINE
  5
4D5
100
AcDbEntity
  8
ASSI
100
AcDbSpline
 62
7
  6
CONTINUOUS
 70
0
 71
3
 72
8
 73
4
 74
0
 42
0.0000001
 43
0.0000001
 44
0.0000000001
 40
0.0
 40
0.0
 40
0.0
 40
0.0
 40
1.0
 40
1.0
 40
1.0
 40
1.0
 10
9.0068464714
 20
5.6219225311
 30
0.0
 10
8.9495850571
 20
5.6664591834
 30
0.0
 10
8.8827800818
 20
5.7014524028
 30
0.0
 10
8.8000691433
 20
5.7205395404
 30
0.0
  0
SPLINE
  5
4D6
100
AcDbEntity
  8
ASSI
100
AcDbSpline
 62
7
  6
CONTINUOUS
 70
0
 71
3
 72
8
 73
4
 74
0
 42
0.0000001
 43
0.0000001
 44
0.0000000001
 40
0.0
 40
0.0
 40
0.0
 40
0.0
 40
1.0
 40
1.0
 40
1.0
 40
1.0
 10
8.8000691433
 20
5.7205395404
 30
0.0
 10
8.7173582211
 20
5.7396266744
 30
0.0
 10
8.6282849208
 20
5.7491701052
 30
0.0
 10
8.5264868289
 20
5.7491701052
 30
0.0
  0
SPLINE
  5
4D7
100
AcDbEntity
  8
ASSI
100
AcDbSpline
 62
7
  6
CONTINUOUS
 70
0
 71
3
 72
8
 73
4
 74
0
 42
0.0000001
 43
0.0000001
 44
0.0000000001
 40
0.0
 40
0.0
 40
0.0
 40
0.0
 40
1.0
 40
1.0
 40
1.0
 40
1.0
 10
6.85
 20
3.745020847
 30
0.0
 10
6.913623786
 20
3.6941218182
 30
0.0
 10
6.9740663826
 20
3.6336792216
 30
0.0
 10
7.0376901686
 20
3.5573306784
 30
0.0
  0
SPLINE
  5
4D8
100
AcDbEntity
  8
ASSI
100
AcDbSpline
 62
7
  6
CONTINUOUS
 70
0
 71
3
 72
8
 73
4
 74
0
 42
0.0000001
 43
0.0000001
 44
0.0000000001
 40
0.0
 40
0.0
 40
0.0
 40
0.0
 40
1.0
 40
1.0
 40
1.0
 40
1.0
 10
7.0376901686
 20
3.5573306784
 30
0.0
 10
7.1013139546
 20
3.4809821352
 30
0.0
 10
7.1553941727
 20
3.4109959707
 30
0.0
 10
7.1967496336
 20
3.3473721847
 30
0.0
  0
SPLINE
  5
4D9
100
AcDbEntity
  8
ASSI
100
AcDbSpline
 62
7
  6
CONTINUOUS
 70
0
 71
3
 72
8
 73
4
 74
0
 42
0.0000001
 43
0.0000001
 44
0.0000000001
 40
0.0
 40
0.0
 40
0.0
 40
0.0
 40
1.0
 40
1.0
 40
1.0
 40
1.0
 10
7.3305597935
 20
3.5415833316
 30
0.0
 10
7.2826417446
 20
3.6018673286
 30
0.0
 10
7.2285615265
 20
3.659128736
 30
0.0
 10
7.1713001192
 20
3.7163901433
 30
0.0
  0
SPLINE
  5
4DA
100
AcDbEntity
  8
ASSI
100
AcDbSpline
 62
7
  6
CONTINUOUS
 70
0
 71
3
 72
8
 73
4
 74
0
 42
0.0000001
 43
0.0000001
 44
0.0000000001
 40
0.0
 40
0.0
 40
0.0
 40
0.0
 40
1.0
 40
1.0
 40
1.0
 40
1.0
 10
8.3069847673
 20
2.8352007076
 30
0.0
 10
8.2433609813
 20
2.8256571397
 30
0.0
 10
8.1892807633
 20
2.8065700039
 30
0.0
 10
8.1415629238
 20
2.7811204895
 30
0.0
  0
SPLINE
  5
4DB
100
AcDbEntity
  8
ASSI
100
AcDbSpline
 62
7
  6
CONTINUOUS
 70
0
 71
3
 72
8
 73
4
 74
0
 42
0.0000001
 43
0.0000001
 44
0.0000000001
 40
0.0
 40
0.0
 40
0.0
 40
0.0
 40
1.0
 40
1.0
 40
1.0
 40
1.0
 10
8.1415629238
 20
2.7811204895
 30
0.0
 10
8.0938450843
 20
2.7556709751
 30
0.0
 10
8.0524896234
 20
2.717496635
 30
0.0
 10
8.0214251322
 20
2.6724531712
 30
0.0
  0
SPLINE
  5
4DC
100
AcDbEntity
  8
ASSI
100
AcDbSpline
 62
7
  6
CONTINUOUS
 70
0
 71
3
 72
8
 73
4
 74
0
 42
0.0000001
 43
0.0000001
 44
0.0000000001
 40
0.0
 40
0.0
 40
0.0
 40
0.0
 40
1.0
 40
1.0
 40
1.0
 40
1.0
 10
8.0214251322
 20
2.6724531712
 30
0.0
 10
7.9888657689
 20
2.6252421454
 30
0.0
 10
7.9665974438
 20
2.5647995487
 30
0.0
 10
7.9538726866
 20
2.4948133841
 30
0.0
  0
SPLINE
  5
4DD
100
AcDbEntity
  8
ASSI
100
AcDbSpline
 62
7
  6
CONTINUOUS
 70
0
 71
3
 72
8
 73
4
 74
0
 42
0.0000001
 43
0.0000001
 44
0.0000000001
 40
0.0
 40
0.0
 40
0.0
 40
0.0
 40
1.0
 40
1.0
 40
1.0
 40
1.0
 10
7.9538726866
 20
2.4948133841
 30
0.0
 10
7.9411479294
 20
2.5584371701
 30
0.0
 10
7.915698415
 20
2.6093361989
 30
0.0
 10
7.8807053328
 20
2.653872849
 30
0.0
  0
SPLINE
  5
4DE
100
AcDbEntity
  8
ASSI
100
AcDbSpline
 62
7
  6
CONTINUOUS
 70
0
 71
3
 72
8
 73
4
 74
0
 42
0.0000001
 43
0.0000001
 44
0.0000000001
 40
0.0
 40
0.0
 40
0.0
 40
0.0
 40
1.0
 40
1.0
 40
1.0
 40
1.0
 10
7.8807053328
 20
2.653872849
 30
0.0
 10
7.8457122505
 20
2.6984094992
 30
0.0
 10
7.8011756003
 20
2.7334026501
 30
0.0
 10
7.7502765715
 20
2.7588521644
 30
0.0
  0
SPLINE
  5
4DF
100
AcDbEntity
  8
ASSI
100
AcDbSpline
 62
7
  6
CONTINUOUS
 70
0
 71
3
 72
8
 73
4
 74
0
 42
0.0000001
 43
0.0000001
 44
0.0000000001
 40
0.0
 40
0.0
 40
0.0
 40
0.0
 40
1.0
 40
1.0
 40
1.0
 40
1.0
 10
7.7502765715
 20
2.7588521644
 30
0.0
 10
7.6993775427
 20
2.7843016788
 30
0.0
 10
7.6452973247
 20
2.8033888146
 30
0.0
 10
7.5814598731
 20
2.8148468188
 30
0.0
  0
SPLINE
  5
4E0
100
AcDbEntity
  8
ASSI
100
AcDbSpline
 62
7
  6
CONTINUOUS
 70
0
 71
3
 72
8
 73
4
 74
0
 42
0.0000001
 43
0.0000001
 44
0.0000000001
 40
0.0
 40
0.0
 40
0.0
 40
0.0
 40
1.0
 40
1.0
 40
1.0
 40
1.0
 10
7.5814598731
 20
2.8148468188
 30
0.0
 10
7.521230942
 20
2.8256571397
 30
0.0
 10
7.4544259667
 20
2.8320195183
 30
0.0
 10
7.3844398022
 20
2.8320195183
 30
0.0
  0
SPLINE
  5
4E1
100
AcDbEntity
  8
ASSI
100
AcDbSpline
 62
7
  6
CONTINUOUS
 70
0
 71
3
 72
8
 73
4
 74
0
 42
0.0000001
 43
0.0000001
 44
0.0000000001
 40
0.0
 40
0.0
 40
0.0
 40
0.0
 40
1.0
 40
1.0
 40
1.0
 40
1.0
 10
7.3844398022
 20
2.8320195183
 30
0.0
 10
7.1872060657
 20
2.8320195183
 30
0.0
 10
7.0440525472
 20
2.7874828681
 30
0.0
 10
6.9525941542
 20
2.7039087853
 30
0.0
  0
SPLINE
  5
4E2
100
AcDbEntity
  8
ASSI
100
AcDbSpline
 62
7
  6
CONTINUOUS
 70
0
 71
3
 72
8
 73
4
 74
0
 42
0.0000001
 43
0.0000001
 44
0.0000000001
 40
0.0
 40
0.0
 40
0.0
 40
0.0
 40
1.0
 40
1.0
 40
1.0
 40
1.0
 10
6.9525941542
 20
2.7039087853
 30
0.0
 10
6.8595435679
 20
2.6188797668
 30
0.0
 10
6.8118257284
 20
2.4820886269
 30
0.0
 10
6.8118257284
 20
2.291217269
 30
0.0
  0
SPLINE
  5
4E3
100
AcDbEntity
  8
ASSI
100
AcDbSpline
 62
7
  6
CONTINUOUS
 70
0
 71
3
 72
8
 73
4
 74
0
 42
0.0000001
 43
0.0000001
 44
0.0000000001
 40
0.0
 40
0.0
 40
0.0
 40
0.0
 40
1.0
 40
1.0
 40
1.0
 40
1.0
 10
6.8118257284
 20
2.291217269
 30
0.0
 10
6.8118257284
 20
2.1003458768
 30
0.0
 10
6.8595435679
 20
1.9603735477
 30
0.0
 10
6.9549792426
 20
1.8713002427
 30
0.0
  0
SPLINE
  5
4E4
100
AcDbEntity
  8
ASSI
100
AcDbSpline
 62
7
  6
CONTINUOUS
 70
0
 71
3
 72
8
 73
4
 74
0
 42
0.0000001
 43
0.0000001
 44
0.0000000001
 40
0.0
 40
0.0
 40
0.0
 40
0.0
 40
1.0
 40
1.0
 40
1.0
 40
1.0
 10
6.9549792426
 20
1.8713002427
 30
0.0
 10
7.0504149258
 20
1.7822269298
 30
0.0
 10
7.1872060657
 20
1.7376902796
 30
0.0
 10
7.3653526664
 20
1.7376902796
 30
0.0
  0
SPLINE
  5
4E5
100
AcDbEntity
  8
ASSI
100
AcDbSpline
 62
7
  6
CONTINUOUS
 70
0
 71
3
 72
8
 73
4
 74
0
 42
0.0000001
 43
0.0000001
 44
0.0000000001
 40
0.0
 40
0.0
 40
0.0
 40
0.0
 40
1.0
 40
1.0
 40
1.0
 40
1.0
 10
7.3939833701
 20
1.9921854407
 30
0.0
 10
7.3430843413
 20
1.9921854407
 30
0.0
 10
7.2953665018
 20
1.99536663
 30
0.0
 10
7.2474466906
 20
2.0036286664
 30
0.0
  0
SPLINE
  5
4E6
100
AcDbEntity
  8
ASSI
100
AcDbSpline
 62
7
  6
CONTINUOUS
 70
0
 71
3
 72
8
 73
4
 74
0
 42
0.0000001
 43
0.0000001
 44
0.0000000001
 40
0.0
 40
0.0
 40
0.0
 40
0.0
 40
1.0
 40
1.0
 40
1.0
 40
1.0
 10
7.2474466906
 20
2.0036286664
 30
0.0
 10
7.2031117852
 20
2.0112726156
 30
0.0
 10
7.1617561279
 20
2.0271786858
 30
0.0
 10
7.1267629316
 20
2.04944719
 30
0.0
  0
SPLINE
  5
4E7
100
AcDbEntity
  8
ASSI
100
AcDbSpline
 62
7
  6
CONTINUOUS
 70
0
 71
3
 72
8
 73
4
 74
0
 42
0.0000001
 43
0.0000001
 44
0.0000000001
 40
0.0
 40
0.0
 40
0.0
 40
0.0
 40
1.0
 40
1.0
 40
1.0
 40
1.0
 10
7.1267629316
 20
2.04944719
 30
0.0
 10
7.0917700936
 20
2.0717154663
 30
0.0
 10
7.0631395853
 20
2.1003460722
 30
0.0
 10
7.0440525541
 20
2.1385201518
 30
0.0
  0
SPLINE
  5
4E8
100
AcDbEntity
  8
ASSI
100
AcDbSpline
 62
7
  6
CONTINUOUS
 70
0
 71
3
 72
8
 73
4
 74
0
 42
0.0000001
 43
0.0000001
 44
0.0000000001
 40
0.0
 40
0.0
 40
0.0
 40
0.0
 40
1.0
 40
1.0
 40
1.0
 40
1.0
 10
7.0440525541
 20
2.1385201518
 30
0.0
 10
7.0249654114
 20
2.1766944543
 30
0.0
 10
7.0122406542
 20
2.2244122937
 30
0.0
 10
7.0122406542
 20
2.2848548904
 30
0.0
  0
SPLINE
  5
4E9
100
AcDbEntity
  8
ASSI
100
AcDbSpline
 62
7
  6
CONTINUOUS
 70
0
 71
3
 72
8
 73
4
 74
0
 42
0.0000001
 43
0.0000001
 44
0.0000000001
 40
0.0
 40
0.0
 40
0.0
 40
0.0
 40
1.0
 40
1.0
 40
1.0
 40
1.0
 10
7.0122406542
 20
2.2848548904
 30
0.0
 10
7.0122406542
 20
2.3421162978
 30
0.0
 10
7.0249654114
 20
2.386652948
 30
0.0
 10
7.0452717795
 20
2.4241416275
 30
0.0
  0
SPLINE
  5
4EA
100
AcDbEntity
  8
ASSI
100
AcDbSpline
 62
7
  6
CONTINUOUS
 70
0
 71
3
 72
8
 73
4
 74
0
 42
0.0000001
 43
0.0000001
 44
0.0000000001
 40
0.0
 40
0.0
 40
0.0
 40
0.0
 40
1.0
 40
1.0
 40
1.0
 40
1.0
 10
7.0452717795
 20
2.4241416275
 30
0.0
 10
7.0663208723
 20
2.4630014911
 30
0.0
 10
7.094951576
 20
2.4916321948
 30
0.0
 10
7.1299446583
 20
2.5107193306
 30
0.0
  0
SPLINE
  5
4EB
100
AcDbEntity
  8
ASSI
100
AcDbSpline
 62
7
  6
CONTINUOUS
 70
0
 71
3
 72
8
 73
4
 74
0
 42
0.0000001
 43
0.0000001
 44
0.0000000001
 40
0.0
 40
0.0
 40
0.0
 40
0.0
 40
1.0
 40
1.0
 40
1.0
 40
1.0
 10
7.1299446583
 20
2.5107193306
 30
0.0
 10
7.1649377406
 20
2.5298064664
 30
0.0
 10
7.2062932014
 20
2.5457124129
 30
0.0
 10
7.2542437492
 20
2.5537041709
 30
0.0
  0
SPLINE
  5
4EC
100
AcDbEntity
  8
ASSI
100
AcDbSpline
 62
7
  6
CONTINUOUS
 70
0
 71
3
 72
8
 73
4
 74
0
 42
0.0000001
 43
0.0000001
 44
0.0000000001
 40
0.0
 40
0.0
 40
0.0
 40
0.0
 40
1.0
 40
1.0
 40
1.0
 40
1.0
 10
7.2542437492
 20
2.5537041709
 30
0.0
 10
7.3017288804
 20
2.5616183594
 30
0.0
 10
7.3526279092
 20
2.567980738
 30
0.0
 10
7.403526938
 20
2.567980738
 30
0.0
  0
SPLINE
  5
4ED
100
AcDbEntity
  8
ASSI
100
AcDbSpline
 62
7
  6
CONTINUOUS
 70
0
 71
3
 72
8
 73
4
 74
0
 42
0.0000001
 43
0.0000001
 44
0.0000000001
 40
0.0
 40
0.0
 40
0.0
 40
0.0
 40
1.0
 40
1.0
 40
1.0
 40
1.0
 10
7.403526938
 20
2.567980738
 30
0.0
 10
7.4926002383
 20
2.567980738
 30
0.0
 10
7.5689487815
 20
2.5584371701
 30
0.0
 10
7.6263171362
 20
2.5429322094
 30
0.0
  0
SPLINE
  5
4EE
100
AcDbEntity
  8
ASSI
100
AcDbSpline
 62
7
  6
CONTINUOUS
 70
0
 71
3
 72
8
 73
4
 74
0
 42
0.0000001
 43
0.0000001
 44
0.0000000001
 40
0.0
 40
0.0
 40
0.0
 40
0.0
 40
1.0
 40
1.0
 40
1.0
 40
1.0
 10
7.6263171362
 20
2.5429322094
 30
0.0
 10
7.6866527855
 20
2.5266252771
 30
0.0
 10
7.734370625
 20
2.5011757627
 30
0.0
 10
7.7670055495
 20
2.4669867942
 30
0.0
  0
SPLINE
  5
4EF
100
AcDbEntity
  8
ASSI
100
AcDbSpline
 62
7
  6
CONTINUOUS
 70
0
 71
3
 72
8
 73
4
 74
0
 42
0.0000001
 43
0.0000001
 44
0.0000000001
 40
0.0
 40
0.0
 40
0.0
 40
0.0
 40
1.0
 40
1.0
 40
1.0
 40
1.0
 10
7.7670055495
 20
2.4669867942
 30
0.0
 10
7.8011756003
 20
2.4311895981
 30
0.0
 10
7.8266251147
 20
2.386652948
 30
0.0
 10
7.8393498719
 20
2.3293915406
 30
0.0
  0
SPLINE
  5
4F0
100
AcDbEntity
  8
ASSI
100
AcDbSpline
 62
7
  6
CONTINUOUS
 70
0
 71
3
 72
8
 73
4
 74
0
 42
0.0000001
 43
0.0000001
 44
0.0000000001
 40
0.0
 40
0.0
 40
0.0
 40
0.0
 40
1.0
 40
1.0
 40
1.0
 40
1.0
 10
7.8393498719
 20
2.3293915406
 30
0.0
 10
7.8520746291
 20
2.2721301332
 30
0.0
 10
7.8584370077
 20
2.2053251579
 30
0.0
 10
7.8584370077
 20
2.1289765805
 30
0.0
  0
SPLINE
  5
4F1
100
AcDbEntity
  8
ASSI
100
AcDbSpline
 62
7
  6
CONTINUOUS
 70
0
 71
3
 72
8
 73
4
 74
0
 42
0.0000001
 43
0.0000001
 44
0.0000000001
 40
0.0
 40
0.0
 40
0.0
 40
0.0
 40
1.0
 40
1.0
 40
1.0
 40
1.0
 10
8.058852002
 20
2.1289765805
 30
0.0
 10
8.058852002
 20
2.2116875365
 30
0.0
 10
8.0683955699
 20
2.2848548904
 30
0.0
 10
8.0811203271
 20
2.3421162978
 30
0.0
  0
SPLINE
  5
4F2
100
AcDbEntity
  8
ASSI
100
AcDbSpline
 62
7
  6
CONTINUOUS
 70
0
 71
3
 72
8
 73
4
 74
0
 42
0.0000001
 43
0.0000001
 44
0.0000000001
 40
0.0
 40
0.0
 40
0.0
 40
0.0
 40
1.0
 40
1.0
 40
1.0
 40
1.0
 10
8.0811203271
 20
2.3421162978
 30
0.0
 10
8.0938450843
 20
2.3993777052
 30
0.0
 10
8.1192945987
 20
2.4470955446
 30
0.0
 10
8.1558437138
 20
2.4836446598
 30
0.0
  0
SPLINE
  5
4F3
100
AcDbEntity
  8
ASSI
100
AcDbSpline
 62
7
  6
CONTINUOUS
 70
0
 71
3
 72
8
 73
4
 74
0
 42
0.0000001
 43
0.0000001
 44
0.0000000001
 40
0.0
 40
0.0
 40
0.0
 40
0.0
 40
1.0
 40
1.0
 40
1.0
 40
1.0
 10
8.1558437138
 20
2.4836446598
 30
0.0
 10
8.1924619526
 20
2.5202628985
 30
0.0
 10
8.240179792
 20
2.5457124129
 30
0.0
 10
8.3010239856
 20
2.5597533806
 30
0.0
  0
SPLINE
  5
4F4
100
AcDbEntity
  8
ASSI
100
AcDbSpline
 62
7
  6
CONTINUOUS
 70
0
 71
3
 72
8
 73
4
 74
0
 42
0.0000001
 43
0.0000001
 44
0.0000000001
 40
0.0
 40
0.0
 40
0.0
 40
0.0
 40
1.0
 40
1.0
 40
1.0
 40
1.0
 10
8.3010239856
 20
2.5597533806
 30
0.0
 10
8.3642461747
 20
2.5743431166
 30
0.0
 10
8.4405947179
 20
2.5838866845
 30
0.0
 10
8.5360303968
 20
2.5838866845
 30
0.0
  0
SPLINE
  5
4F5
100
AcDbEntity
  8
ASSI
100
AcDbSpline
 62
7
  6
CONTINUOUS
 70
0
 71
3
 72
8
 73
4
 74
0
 42
0.0000001
 43
0.0000001
 44
0.0000000001
 40
0.0
 40
0.0
 40
0.0
 40
0.0
 40
1.0
 40
1.0
 40
1.0
 40
1.0
 10
8.5360303968
 20
2.5838866845
 30
0.0
 10
8.6028354064
 20
2.5838866845
 30
0.0
 10
8.663278003
 20
2.5775243059
 30
0.0
 10
8.7174030175
 20
2.568245732
 30
0.0
  0
SPLINE
  5
4F6
100
AcDbEntity
  8
ASSI
100
AcDbSpline
 62
7
  6
CONTINUOUS
 70
0
 71
3
 72
8
 73
4
 74
0
 42
0.0000001
 43
0.0000001
 44
0.0000000001
 40
0.0
 40
0.0
 40
0.0
 40
0.0
 40
1.0
 40
1.0
 40
1.0
 40
1.0
 10
8.7174030175
 20
2.568245732
 30
0.0
 10
8.7746196285
 20
2.5584371701
 30
0.0
 10
8.822337468
 20
2.5425312236
 30
0.0
 10
8.8605117422
 20
2.5170817132
 30
0.0
  0
SPLINE
  5
4F7
100
AcDbEntity
  8
ASSI
100
AcDbSpline
 62
7
  6
CONTINUOUS
 70
0
 71
3
 72
8
 73
4
 74
0
 42
0.0000001
 43
0.0000001
 44
0.0000000001
 40
0.0
 40
0.0
 40
0.0
 40
0.0
 40
1.0
 40
1.0
 40
1.0
 40
1.0
 10
8.8605117422
 20
2.5170817132
 30
0.0
 10
8.8986860283
 20
2.4916321948
 30
0.0
 10
8.9304979213
 20
2.4598203018
 30
0.0
 10
8.9520850192
 20
2.4212719127
 30
0.0
  0
SPLINE
  5
4F8
100
AcDbEntity
  8
ASSI
100
AcDbSpline
 62
7
  6
CONTINUOUS
 70
0
 71
3
 72
8
 73
4
 74
0
 42
0.0000001
 43
0.0000001
 44
0.0000000001
 40
0.0
 40
0.0
 40
0.0
 40
0.0
 40
1.0
 40
1.0
 40
1.0
 40
1.0
 10
8.9520850192
 20
2.4212719127
 30
0.0
 10
8.9750345714
 20
2.3802905694
 30
0.0
 10
8.9845781393
 20
2.3293915406
 30
0.0
 10
8.9845781393
 20
2.2657677546
 30
0.0
  0
SPLINE
  5
4F9
100
AcDbEntity
  8
ASSI
100
AcDbSpline
 62
7
  6
CONTINUOUS
 70
0
 71
3
 72
8
 73
4
 74
0
 42
0.0000001
 43
0.0000001
 44
0.0000000001
 40
0.0
 40
0.0
 40
0.0
 40
0.0
 40
1.0
 40
1.0
 40
1.0
 40
1.0
 10
8.9845781393
 20
2.2657677546
 30
0.0
 10
8.9845781393
 20
2.2053251579
 30
0.0
 10
8.9750345714
 20
2.1576073185
 30
0.0
 10
8.9559474288
 20
2.119433016
 30
0.0
  0
SPLINE
  5
4FA
100
AcDbEntity
  8
ASSI
100
AcDbSpline
 62
7
  6
CONTINUOUS
 70
0
 71
3
 72
8
 73
4
 74
0
 42
0.0000001
 43
0.0000001
 44
0.0000000001
 40
0.0
 40
0.0
 40
0.0
 40
0.0
 40
1.0
 40
1.0
 40
1.0
 40
1.0
 10
8.9559474288
 20
2.119433016
 30
0.0
 10
8.9368602999
 20
2.081258741
 30
0.0
 10
8.9082295962
 20
2.049446848
 30
0.0
 10
8.8732365114
 20
2.0271785268
 30
0.0
  0
SPLINE
  5
4FB
100
AcDbEntity
  8
ASSI
100
AcDbSpline
 62
7
  6
CONTINUOUS
 70
0
 71
3
 72
8
 73
4
 74
0
 42
0.0000001
 43
0.0000001
 44
0.0000000001
 40
0.0
 40
0.0
 40
0.0
 40
0.0
 40
1.0
 40
1.0
 40
1.0
 40
1.0
 10
8.8732365114
 20
2.0271785268
 30
0.0
 10
8.8382434145
 20
2.0049101979
 30
0.0
 10
8.7968879536
 20
1.9890042514
 30
0.0
 10
8.7459889248
 20
1.9794606835
 30
0.0
  0
SPLINE
  5
4FC
100
AcDbEntity
  8
ASSI
100
AcDbSpline
 62
7
  6
CONTINUOUS
 70
0
 71
3
 72
8
 73
4
 74
0
 42
0.0000001
 43
0.0000001
 44
0.0000000001
 40
0.0
 40
0.0
 40
0.0
 40
0.0
 40
1.0
 40
1.0
 40
1.0
 40
1.0
 10
8.7459889248
 20
1.9794606835
 30
0.0
 10
8.695089896
 20
1.9699171156
 30
0.0
 10
8.6410096779
 20
1.9667359263
 30
0.0
 10
8.5805670813
 20
1.9667359263
 30
0.0
  0
SPLINE
  5
4FD
100
AcDbEntity
  8
ASSI
100
AcDbSpline
 62
7
  6
CONTINUOUS
 70
0
 71
3
 72
8
 73
4
 74
0
 42
0.0000001
 43
0.0000001
 44
0.0000000001
 40
0.0
 40
0.0
 40
0.0
 40
0.0
 40
1.0
 40
1.0
 40
1.0
 40
1.0
 10
8.5805670813
 20
1.7058783781
 30
0.0
 10
8.7873443857
 20
1.7058783781
 30
0.0
 10
8.9400414892
 20
1.7472338475
 30
0.0
 10
9.0386583615
 20
1.8331259637
 30
0.0
  0
SPLINE
  5
4FE
100
AcDbEntity
  8
ASSI
100
AcDbSpline
 62
7
  6
CONTINUOUS
 70
0
 71
3
 72
8
 73
4
 74
0
 42
0.0000001
 43
0.0000001
 44
0.0000000001
 40
0.0
 40
0.0
 40
0.0
 40
0.0
 40
1.0
 40
1.0
 40
1.0
 40
1.0
 10
9.0386583615
 20
1.8331259637
 30
0.0
 10
9.1372752417
 20
1.9190180868
 30
0.0
 10
9.1849930844
 20
2.0653527945
 30
0.0
 10
9.1849930844
 20
2.2753113225
 30
0.0
  0
SPLINE
  5
4FF
100
AcDbEntity
  8
ASSI
100
AcDbSpline
 62
7
  6
CONTINUOUS
 70
0
 71
3
 72
8
 73
4
 74
0
 42
0.0000001
 43
0.0000001
 44
0.0000000001
 40
0.0
 40
0.0
 40
0.0
 40
0.0
 40
1.0
 40
1.0
 40
1.0
 40
1.0
 10
9.1849930844
 20
2.2753113225
 30
0.0
 10
9.1849930844
 20
2.3834717587
 30
0.0
 10
9.1690871379
 20
2.472545059
 30
0.0
 10
9.1372752417
 20
2.5457124129
 30
0.0
  0
SPLINE
  5
500
100
AcDbEntity
  8
ASSI
100
AcDbSpline
 62
7
  6
CONTINUOUS
 70
0
 71
3
 72
8
 73
4
 74
0
 42
0.0000001
 43
0.0000001
 44
0.0000000001
 40
0.0
 40
0.0
 40
0.0
 40
0.0
 40
1.0
 40
1.0
 40
1.0
 40
1.0
 10
9.1372752417
 20
2.5457124129
 30
0.0
 10
9.1054633455
 20
2.6188797668
 30
0.0
 10
9.0609266911
 20
2.6793223634
 30
0.0
 10
9.0036652934
 20
2.723859037
 30
0.0
  0
SPLINE
  5
501
100
AcDbEntity
  8
ASSI
100
AcDbSpline
 62
7
  6
CONTINUOUS
 70
0
 71
3
 72
8
 73
4
 74
0
 42
0.0000001
 43
0.0000001
 44
0.0000000001
 40
0.0
 40
0.0
 40
0.0
 40
0.0
 40
1.0
 40
1.0
 40
1.0
 40
1.0
 10
9.0036652934
 20
2.723859037
 30
0.0
 10
8.9464038678
 20
2.7683957323
 30
0.0
 10
8.8732365139
 20
2.8033888146
 30
0.0
 10
8.7905255754
 20
2.8224759523
 30
0.0
  0
SPLINE
  5
502
100
AcDbEntity
  8
ASSI
100
AcDbSpline
 62
7
  6
CONTINUOUS
 70
0
 71
3
 72
8
 73
4
 74
0
 42
0.0000001
 43
0.0000001
 44
0.0000000001
 40
0.0
 40
0.0
 40
0.0
 40
0.0
 40
1.0
 40
1.0
 40
1.0
 40
1.0
 10
8.7905255754
 20
2.8224759523
 30
0.0
 10
8.7078146532
 20
2.8415630862
 30
0.0
 10
8.6123789743
 20
2.8511066541
 30
0.0
 10
8.5073996931
 20
2.8511066541
 30
0.0
  0
SPLINE
  5
503
100
AcDbEntity
  8
ASSI
100
AcDbSpline
 62
7
  6
CONTINUOUS
 70
0
 71
3
 72
8
 73
4
 74
0
 42
0.0000001
 43
0.0000001
 44
0.0000000001
 40
0.0
 40
0.0
 40
0.0
 40
0.0
 40
1.0
 40
1.0
 40
1.0
 40
1.0
 10
8.5073996931
 20
2.8511066541
 30
0.0
 10
8.4374135286
 20
2.8511066541
 30
0.0
 10
8.3706085533
 20
2.8447442755
 30
0.0
 10
8.3069847673
 20
2.8352007076
 30
0.0
  0
SPLINE
  5
504
100
AcDbEntity
  8
ASSI
100
AcDbSpline
 62
7
  6
CONTINUOUS
 70
0
 71
3
 72
9
 73
5
 74
0
 42
0.0000001
 43
0.0000001
 44
0.0000000001
 40
0.0
 40
0.0
 40
0.0
 40
0.0
 40
0.2704041687
 40
1.0
 40
1.0
 40
1.0
 40
1.0
 10
3.2688043561
 20
3.5200048698
 30
0.0
 10
3.3023102168
 20
3.5257221236
 30
0.0
 10
3.4266081924
 20
3.5445251038
 30
0.0
 10
3.5537734031
 20
3.5441175375
 30
0.0
 10
3.6448730265
 20
3.5335442987
 30
0.0
  0
SPLINE
  5
505
100
AcDbEntity
  8
ASSI
100
AcDbSpline
 62
7
  6
CONTINUOUS
 70
0
 71
3
 72
9
 73
5
 74
0
 42
0.0000001
 43
0.0000001
 44
0.0000000001
 40
0.0
 40
0.0
 40
0.0
 40
0.0
 40
0.5013654753
 40
1.0
 40
1.0
 40
1.0
 40
1.0
 10
3.6448730265
 20
3.5335442989
 30
0.0
 10
3.7152347308
 20
3.5253779523
 30
0.0
 10
3.8575480881
 20
3.4634183917
 30
0.0
 10
3.9149576844
 20
3.316494087
 30
0.0
 10
3.9160594002
 20
3.2460540991
 30
0.0
  0
SPLINE
  5
506
100
AcDbEntity
  8
ASSI
100
AcDbSpline
 62
7
  6
CONTINUOUS
 70
0
 71
3
 72
9
 73
5
 74
0
 42
0.0000001
 43
0.0000001
 44
0.0000000001
 40
0.0
 40
0.0
 40
0.0
 40
0.0
 40
0.5206208722
 40
1.0
 40
1.0
 40
1.0
 40
1.0
 10
3.9160594002
 20
3.2460540991
 30
0.0
 10
3.9175935001
 20
3.1466328758
 30
0.0
 10
3.8473572317
 20
2.9294481916
 30
0.0
 10
3.6346852757
 20
2.8907122382
 30
0.0
 10
3.543151782
 20
2.888667771
 30
0.0
  0
SPLINE
  5
507
100
AcDbEntity
  8
ASSI
100
AcDbSpline
 62
7
  6
CONTINUOUS
 70
0
 71
3
 72
9
 73
5
 74
0
 42
0.0000001
 43
0.0000001
 44
0.0000000001
 40
0.0
 40
0.0
 40
0.0
 40
0.0
 40
0.3559141631
 40
1.0
 40
1.0
 40
1.0
 40
1.0
 10
3.5421170294
 20
2.5120177973
 30
0.0
 10
3.5839504738
 20
2.5120177973
 30
0.0
 10
3.7042940752
 20
2.4866863195
 30
0.0
 10
3.7833459769
 20
2.3802564205
 30
0.0
 10
3.8099455134
 20
2.3093787318
 30
0.0
  0
SPLINE
  5
508
100
AcDbEntity
  8
ASSI
100
AcDbSpline
 62
7
  6
CONTINUOUS
 70
0
 71
3
 72
9
 73
5
 74
0
 42
0.0000001
 43
0.0000001
 44
0.0000000001
 40
0.0
 40
0.0
 40
0.0
 40
0.0
 40
0.5586214172
 40
1.0
 40
1.0
 40
1.0
 40
1.0
 10
3.8099455134
 20
2.3093787318
 30
0.0
 10
3.8576395638
 20
2.1824268846
 30
0.0
 10
3.9203614803
 20
1.9473478989
 30
0.0
 10
3.990254935
 20
1.7149880043
 30
0.0
 10
4.0198623394
 20
1.6120071664
 30
0.0
  0
SPLINE
  5
509
100
AcDbEntity
  8
ASSI
100
AcDbSpline
 62
7
  6
CONTINUOUS
 70
0
 71
3
 72
9
 73
5
 74
0
 42
0.0000001
 43
0.0000001
 44
0.0000000001
 40
0.0
 40
0.0
 40
0.0
 40
0.0
 40
0.1980298616
 40
1.0
 40
1.0
 40
1.0
 40
1.0
 10
4.4816207207
 20
1.6120071664
 30
0.0
 10
4.4704842658
 20
1.6530107416
 30
0.0
 10
4.4159806277
 20
1.8605336881
 30
0.0
 10
4.3627526626
 20
2.0683949782
 30
0.0
 10
4.3175223525
 20
2.234413431
 30
0.0
  0
SPLINE
  5
50A
100
AcDbEntity
  8
ASSI
100
AcDbSpline
 62
7
  6
CONTINUOUS
 70
0
 71
3
 72
9
 73
5
 74
0
 42
0.0000001
 43
0.0000001
 44
0.0000000001
 40
0.0
 40
0.0
 40
0.0
 40
0.0
 40
0.2427307434
 40
1.0
 40
1.0
 40
1.0
 40
1.0
 10
4.3175223522
 20
2.2344134309
 30
0.0
 10
4.3061320903
 20
2.2762215383
 30
0.0
 10
4.2626434997
 20
2.4449979726
 30
0.0
 10
4.1663681235
 20
2.6354578213
 30
0.0
 10
4.0407988352
 20
2.685528575
 30
0.0
  0
SPLINE
  5
50B
100
AcDbEntity
  8
ASSI
100
AcDbSpline
 62
7
  6
CONTINUOUS
 70
0
 71
3
 72
8
 73
4
 74
0
 42
0.0000001
 43
0.0000001
 44
0.0000000001
 40
0.0
 40
0.0
 40
0.0
 40
0.0
 40
1.0
 40
1.0
 40
1.0
 40
1.0
 10
4.0407988352
 20
2.6991183268
 30
0.0
 10
4.0623306446
 20
2.7018966248
 30
0.0
 10
4.0811164427
 20
2.7140400229
 30
0.0
 10
4.0988834501
 20
2.7279339792
 30
0.0
  0
SPLINE
  5
50C
100
AcDbEntity
  8
ASSI
100
AcDbSpline
 62
7
  6
CONTINUOUS
 70
0
 71
3
 72
19
 73
15
 74
0
 42
0.0000001
 43
0.0000001
 44
0.0000000001
 40
0.0
 40
0.0
 40
0.0
 40
0.0
 40
0.0110138874
 40
0.1290747731
 40
0.2042710992
 40
0.2890578236
 40
0.3846037432
 40
0.4373237418
 40
0.4939605976
 40
0.5827134624
 40
0.6624939374
 40
0.8014544683
 40
0.9162933948
 40
1.0
 40
1.0
 40
1.0
 40
1.0
 10
4.0988834501
 20
2.7279339792
 30
0.0
 10
4.1029955371
 20
2.7311496674
 30
0.0
 10
4.1505466536
 20
2.7699341395
 30
0.0
 10
4.2185926984
 20
2.8311763781
 30
0.0
 10
4.289020157
 20
2.9384015907
 30
0.0
 10
4.3362382954
 20
3.0454060545
 30
0.0
 10
4.3598110715
 20
3.1499256373
 30
0.0
 10
4.3670987495
 20
3.2432304556
 30
0.0
 10
4.3654950077
 20
3.3337193225
 30
0.0
 10
4.3507284549
 20
3.4359248601
 30
0.0
 10
4.3067497413
 20
3.5697455784
 30
0.0
 10
4.224111339
 20
3.7009324542
 30
0.0
 10
4.1074434922
 20
3.8035119384
 30
0.0
 10
4.0272256607
 20
3.8477552669
 30
0.0
 10
3.9913031656
 20
3.8607144339
 30
0.0
  0
SPLINE
  5
50D
100
AcDbEntity
  8
ASSI
100
AcDbSpline
 62
7
  6
CONTINUOUS
 70
0
 71
3
 72
9
 73
5
 74
0
 42
0.0000001
 43
0.0000001
 44
0.0000000001
 40
0.0
 40
0.0
 40
0.0
 40
0.0
 40
0.2957417834
 40
1.0
 40
1.0
 40
1.0
 40
1.0
 10
3.9913031656
 20
3.8607144339
 30
0.0
 10
3.8807137649
 20
3.9006678553
 30
0.0
 10
3.4832118165
 20
3.9657943135
 30
0.0
 10
3.0836247851
 20
3.9256830653
 30
0.0
 10
2.8065975821
 20
3.8849276465
 30
0.0
  0
SPLINE
  5
50E
100
AcDbEntity
  8
ASSI
100
AcDbSpline
 62
250
  6
CONTINUOUS
 70
0
 71
3
 72
10
 73
6
 74
0
 42
0.0000001
 43
0.0000001
 44
0.0000000001
 40
0.0
 40
0.0
 40
0.0
 40
0.0
 40
0.1150150792
 40
0.3182224184
 40
1.0
 40
1.0
 40
1.0
 40
1.0
 10
9.9237075657
 20
-24.9237418214
 30
0.0
 10
9.9232281115
 20
-24.9232623717
 30
0.0
 10
9.9225236679
 20
-24.9214374801
 30
0.0
 10
9.9210655859
 20
-24.9157934479
 30
0.0
 10
9.9203973117
 20
-24.9105624673
 30
0.0
 10
9.9199053059
 20
-24.9065734171
 30
0.0
  0
SPLINE
  5
50F
100
AcDbEntity
  8
ASSI
100
AcDbSpline
 62
250
  6
CONTINUOUS
 70
0
 71
3
 72
10
 73
6
 74
0
 42
0.0000001
 43
0.0000001
 44
0.0000000001
 40
0.0
 40
0.0
 40
0.0
 40
0.0
 40
0.6817589034
 40
0.8849775994
 40
1.0
 40
1.0
 40
1.0
 40
1.0
 10
-9.9199053059
 20
-24.9065734171
 30
0.0
 10
-9.9203972957
 20
-24.9105623572
 30
0.0
 10
-9.9210655405
 20
-24.9157932979
 30
0.0
 10
-9.9225236464
 20
-24.9214373199
 30
0.0
 10
-9.9232280915
 20
-24.9232623309
 30
0.0
 10
-9.9237075657
 20
-24.9237418214
 30
0.0
  0
LINE
  5
510
100
AcDbEntity
  8
ASSI
100
AcDbLine
 62
7
  6
CONTINUOUS
 10
-6.4046763983
 20
-0.6634143993
 11
-6.4050346929
 21
-1.0050651539
  0
LINE
  5
511
100
AcDbEntity
  8
ASSI
100
AcDbLine
 62
7
  6
CONTINUOUS
 10
-6.0052515396
 20
-1.2052515396
 11
-6.006780321
 21
-2.5068107819
  0
LINE
  5
512
100
AcDbEntity
  8
ASSI
100
AcDbLine
 62
7
  6
CONTINUOUS
 10
-5.239860666
 20
-1.2052515396
 11
-5.2383318847
 21
-2.5068107819
  0
LINE
  5
513
100
AcDbEntity
  8
ASSI
100
AcDbLine
 62
7
  6
CONTINUOUS
 10
-3.2953236017
 20
-0.6634144029
 11
-3.2949653071
 21
-1.0050651539
  0
LINE
  5
514
100
AcDbEntity
  8
ASSI
100
AcDbLine
 62
7
  6
CONTINUOUS
 10
6.4046763983
 20
-0.6634143993
 11
6.4050346929
 21
-1.0050651539
  0
LINE
  5
515
100
AcDbEntity
  8
ASSI
100
AcDbLine
 62
7
  6
CONTINUOUS
 10
3.2949653071
 20
-1.0050651539
 11
3.2953236017
 21
-0.6634144029
  0
LINE
  5
516
100
AcDbEntity
  8
ASSI
100
AcDbLine
 62
7
  6
CONTINUOUS
 10
5.239860666
 20
-1.2052515396
 11
5.2383318847
 21
-2.5068107819
  0
LINE
  5
517
100
AcDbEntity
  8
ASSI
100
AcDbLine
 62
7
  6
CONTINUOUS
 10
6.0052515396
 20
-1.2052515396
 11
6.006780321
 21
-2.5068107819
  0
SPLINE
  5
518
100
AcDbEntity
  8
ASSI
100
AcDbSpline
 62
7
  6
CONTINUOUS
 70
0
 71
3
 72
9
 73
5
 74
0
 42
0.0000001
 43
0.0000001
 44
0.0000000001
 40
0.0
 40
0.0
 40
0.0
 40
0.0
 40
0.2125841396
 40
1.0
 40
1.0
 40
1.0
 40
1.0
 10
10.0020285339
 20
11.0612606887
 30
0.0
 10
10.0016098561
 20
11.0766630424
 30
0.0
 10
10.0018414362
 20
11.1491589179
 30
0.0
 10
10.0113642109
 20
11.2216265011
 30
0.0
 10
10.0238434114
 20
11.2773171475
 30
0.0
  0
SPLINE
  5
519
100
AcDbEntity
  8
ASSI
100
AcDbSpline
 62
7
  6
CONTINUOUS
 70
0
 71
3
 72
9
 73
5
 74
0
 42
0.0000001
 43
0.0000001
 44
0.0000000001
 40
0.0
 40
0.0
 40
0.0
 40
0.0
 40
0.2772316537
 40
1.0
 40
1.0
 40
1.0
 40
1.0
 10
-10.0238434114
 20
11.2773171475
 30
0.0
 10
-10.0194490518
 20
11.257706538
 30
0.0
 10
-10.0058840471
 20
11.1864826029
 30
0.0
 10
-10.0006048342
 20
11.1136358691
 30
0.0
 10
-10.0020285339
 20
11.0612606887
 30
0.0
  0
SPLINE
  5
51A
100
AcDbEntity
  8
ASSI
100
AcDbSpline
 62
7
  6
CONTINUOUS
 70
0
 71
3
 72
11
 73
7
 74
0
 42
0.0000001
 43
0.0000001
 44
0.0000000001
 40
0.0
 40
0.0
 40
0.0
 40
0.0
 40
0.2499321303
 40
0.4981265634
 40
0.7501453094
 40
1.0
 40
1.0
 40
1.0
 40
1.0
 10
-9.8117398689
 20
-16.2006617941
 30
0.0
 10
-9.8118586864
 20
-16.1992291234
 30
0.0
 10
-9.8108176774
 20
-16.1964402453
 30
0.0
 10
-9.8106295561
 20
-16.1920902966
 30
0.0
 10
-9.8115049664
 20
-16.1878435803
 30
0.0
 10
-9.8115749962
 20
-16.1849508147
 30
0.0
 10
-9.811693777
 20
-16.1835185879
 30
0.0
  0
SPLINE
  5
51B
100
AcDbEntity
  8
ASSI
100
AcDbSpline
 62
7
  6
CONTINUOUS
 70
0
 71
3
 72
11
 73
7
 74
0
 42
0.0000001
 43
0.0000001
 44
0.0000000001
 40
0.0
 40
0.0
 40
0.0
 40
0.0
 40
0.2498546906
 40
0.5018734366
 40
0.7500678697
 40
1.0
 40
1.0
 40
1.0
 40
1.0
 10
9.811693777
 20
-16.1835185879
 30
0.0
 10
9.8115749962
 20
-16.1849508147
 30
0.0
 10
9.8115049664
 20
-16.1878435803
 30
0.0
 10
9.8106295561
 20
-16.1920902966
 30
0.0
 10
9.8108176774
 20
-16.1964402453
 30
0.0
 10
9.8118586864
 20
-16.1992291234
 30
0.0
 10
9.8117398689
 20
-16.2006617941
 30
0.0
  0
SPLINE
  5
51C
100
AcDbEntity
  8
ASSI
100
AcDbSpline
 62
250
  6
CONTINUOUS
 70
0
 71
3
 72
13
 73
9
 74
0
 42
0.0000001
 43
0.0000001
 44
0.0000000001
 40
0.0
 40
0.0
 40
0.0
 40
0.0
 40
0.3473917103
 40
0.6527449412
 40
0.7778372789
 40
0.8792911092
 40
0.9541032105
 40
1.0
 40
1.0
 40
1.0
 40
1.0
 10
0.3859750215
 20
22.4154266119
 30
0.0
 10
0.3859751899
 20
22.3241763813
 30
0.0
 10
0.3864818881
 20
22.1527185582
 30
0.0
 10
0.3883623883
 20
21.9484066508
 30
0.0
 10
0.3907429718
 20
21.8087132788
 30
0.0
 10
0.3925991424
 20
21.7295708275
 30
0.0
 10
0.3947071391
 20
21.6712614905
 30
0.0
 10
0.3963270598
 20
21.639577636
 30
0.0
 10
0.3975142412
 20
21.6275804095
 30
0.0
  0
SPLINE
  5
51D
100
AcDbEntity
  8
ASSI
100
AcDbSpline
 62
250
  6
CONTINUOUS
 70
0
 71
3
 72
13
 73
9
 74
0
 42
0.0000001
 43
0.0000001
 44
0.0000000001
 40
0.0
 40
0.0
 40
0.0
 40
0.0
 40
0.0459033022
 40
0.1207686042
 40
0.2223089024
 40
0.3474738888
 40
0.6527357027
 40
1.0
 40
1.0
 40
1.0
 40
1.0
 10
-0.3975142412
 20
21.6275804095
 30
0.0
 10
-0.3963270694
 20
21.639579356
 30
0.0
 10
-0.3947062962
 20
21.6712788693
 30
0.0
 10
-0.3925974919
 20
21.7296266017
 30
0.0
 10
-0.3907405842
 20
21.8088248217
 30
0.0
 10
-0.3883609198
 20
21.9485359959
 30
0.0
 10
-0.3864815232
 20
22.1528095064
 30
0.0
 10
-0.385975139
 20
22.3242098495
 30
0.0
 10
-0.3859750215
 20
22.4154266119
 30
0.0
  0
SPLINE
  5
51E
100
AcDbEntity
  8
ASSI
100
AcDbSpline
 62
250
  6
CONTINUOUS
 70
0
 71
3
 72
14
 73
10
 74
0
 42
0.0000001
 43
0.0000001
 44
0.0000000001
 40
0.0
 40
0.0
 40
0.0
 40
0.0
 40
0.4196219637
 40
0.5907622049
 40
0.7336802616
 40
0.8470341446
 40
0.9297082495
 40
0.9808150541
 40
1.0
 40
1.0
 40
1.0
 40
1.0
 10
-9.9493646921
 20
-11.2033016562
 30
0.0
 10
-9.9406442079
 20
-11.2032294272
 30
0.0
 10
-9.9283633012
 20
-11.2031176591
 30
0.0
 10
-9.9131258543
 20
-11.2028952669
 30
0.0
 10
-9.9042254861
 20
-11.2027734643
 30
0.0
 10
-9.8972333276
 20
-11.202534705
 30
0.0
 10
-9.8919824993
 20
-11.2025669175
 30
0.0
 10
-9.8890211097
 20
-11.2020704701
 30
0.0
 10
-9.8873262354
 20
-11.2023316832
 30
0.0
 10
-9.8870432226
 20
-11.202050838
 30
0.0
  0
SPLINE
  5
51F
100
AcDbEntity
  8
ASSI
100
AcDbSpline
 62
250
  6
CONTINUOUS
 70
0
 71
3
 72
14
 73
10
 74
0
 42
0.0000001
 43
0.0000001
 44
0.0000000001
 40
0.0
 40
0.0
 40
0.0
 40
0.0
 40
0.0191747933
 40
0.0702670171
 40
0.1529253232
 40
0.2662572796
 40
0.4091637295
 40
0.5803292815
 40
1.0
 40
1.0
 40
1.0
 40
1.0
 10
9.8870432226
 20
-11.202050838
 30
0.0
 10
9.8873261607
 20
-11.2023314589
 30
0.0
 10
9.8890202335
 20
-11.2020706981
 30
0.0
 10
9.8919810047
 20
-11.2025667389
 30
0.0
 10
9.8972306368
 20
-11.2025346757
 30
0.0
 10
9.9042218148
 20
-11.2027733777
 30
0.0
 10
9.9131219986
 20
-11.2028952206
 30
0.0
 10
9.9283607491
 20
-11.2031176155
 30
0.0
 10
9.940643194
 20
-11.2032294195
 30
0.0
 10
9.9493646921
 20
-11.2033016562
 30
0.0
  0
SPLINE
  5
520
100
AcDbEntity
  8
ASSI
100
AcDbSpline
 62
250
  6
CONTINUOUS
 70
0
 71
3
 72
18
 73
14
 74
0
 42
0.0000001
 43
0.0000001
 44
0.0000000001
 40
0.0
 40
0.0
 40
0.0
 40
0.0
 40
0.0066045454
 40
0.0216680418
 40
0.0452129459
 40
0.0771594062
 40
0.1173218283
 40
0.1654348921
 40
0.2843909948
 40
0.4311253416
 40
0.6020877143
 40
0.7933270484
 40
1.0
 40
1.0
 40
1.0
 40
1.0
 10
6.3770951726
 20
-0.9771256335
 30
0.0
 10
6.376558173
 20
-0.9765842989
 30
0.0
 10
6.3763643535
 20
-0.9738278764
 30
0.0
 10
6.3755241262
 20
-0.9688823846
 30
0.0
 10
6.3750294664
 20
-0.9606337411
 30
0.0
 10
6.3743493362
 20
-0.9496609102
 30
0.0
 10
6.3737531871
 20
-0.9357746561
 30
0.0
 10
6.3728812526
 20
-0.9118740079
 30
0.0
 10
6.3719234284
 20
-0.8756513539
 30
0.0
 10
6.3709333391
 20
-0.8252510824
 30
0.0
 10
6.3700876754
 20
-0.7664987848
 30
0.0
 10
6.3694032774
 20
-0.7008251441
 30
0.0
 10
6.3690778482
 20
-0.654886635
 30
0.0
 10
6.3689431934
 20
-0.6310263456
 30
0.0
  0
SPLINE
  5
521
100
AcDbEntity
  8
ASSI
100
AcDbSpline
 62
250
  6
CONTINUOUS
 70
0
 71
3
 72
18
 73
14
 74
0
 42
0.0000001
 43
0.0000001
 44
0.0000000001
 40
0.0
 40
0.0
 40
0.0
 40
0.0
 40
0.206766454
 40
0.3982253114
 40
0.5692344268
 40
0.7158658587
 40
0.8347039112
 40
0.8827661033
 40
0.9228823469
 40
0.9548038508
 40
0.9783388125
 40
0.9933985927
 40
1.0
 40
1.0
 40
1.0
 40
1.0
 10
-6.3689432155
 20
-0.6310263236
 30
0.0
 10
-6.3690779459
 20
-0.6548974134
 30
0.0
 10
-6.3694039452
 20
-0.7008720694
 30
0.0
 10
-6.3700885701
 20
-0.7665872603
 30
0.0
 10
-6.3709351036
 20
-0.8253584243
 30
0.0
 10
-6.3719253156
 20
-0.8757385804
 30
0.0
 10
-6.3728830869
 20
-0.9119298643
 30
0.0
 10
-6.3737543253
 20
-0.9358056684
 30
0.0
 10
-6.3743501464
 20
-0.9496778948
 30
0.0
 10
-6.3750299225
 20
-0.9606412076
 30
0.0
 10
-6.3755240071
 20
-0.9688858628
 30
0.0
 10
-6.3763647427
 20
-0.9738284799
 30
0.0
 10
-6.3765577349
 20
-0.9765852444
 30
0.0
 10
-6.3770951726
 20
-0.9771256335
 30
0.0
  0
SPLINE
  5
522
100
AcDbEntity
  8
ASSI
100
AcDbSpline
 62
250
  6
CONTINUOUS
 70
0
 71
3
 72
18
 73
14
 74
0
 42
0.0000001
 43
0.0000001
 44
0.0000000001
 40
0.0
 40
0.0
 40
0.0
 40
0.0
 40
0.206766454
 40
0.3982253114
 40
0.5692344268
 40
0.7158658587
 40
0.8347039112
 40
0.8827661033
 40
0.9228823469
 40
0.9548038508
 40
0.9783388125
 40
0.9933985927
 40
1.0
 40
1.0
 40
1.0
 40
1.0
 10
3.3310567845
 20
-0.6310263236
 30
0.0
 10
3.3309220541
 20
-0.6548974134
 30
0.0
 10
3.3305960548
 20
-0.7008720694
 30
0.0
 10
3.3299114299
 20
-0.7665872603
 30
0.0
 10
3.3290648964
 20
-0.8253584243
 30
0.0
 10
3.3280746844
 20
-0.8757385804
 30
0.0
 10
3.3271169131
 20
-0.9119298643
 30
0.0
 10
3.3262456747
 20
-0.9358056684
 30
0.0
 10
3.3256498536
 20
-0.9496778948
 30
0.0
 10
3.3249700775
 20
-0.9606412076
 30
0.0
 10
3.3244759929
 20
-0.9688858628
 30
0.0
 10
3.3236352573
 20
-0.9738284799
 30
0.0
 10
3.3234422651
 20
-0.9765852444
 30
0.0
 10
3.3229048274
 20
-0.9771256335
 30
0.0
  0
SPLINE
  5
523
100
AcDbEntity
  8
ASSI
100
AcDbSpline
 62
250
  6
CONTINUOUS
 70
0
 71
3
 72
18
 73
14
 74
0
 42
0.0000001
 43
0.0000001
 44
0.0000000001
 40
0.0
 40
0.0
 40
0.0
 40
0.0
 40
0.0066045454
 40
0.0216680418
 40
0.0452129459
 40
0.0771594062
 40
0.1173218283
 40
0.1654348921
 40
0.2843909948
 40
0.4311253416
 40
0.6020877143
 40
0.7933270484
 40
1.0
 40
1.0
 40
1.0
 40
1.0
 10
-3.3229048274
 20
-0.9771256335
 30
0.0
 10
-3.323441827
 20
-0.9765842989
 30
0.0
 10
-3.3236356465
 20
-0.9738278764
 30
0.0
 10
-3.3244758738
 20
-0.9688823846
 30
0.0
 10
-3.3249705336
 20
-0.9606337411
 30
0.0
 10
-3.3256506638
 20
-0.9496609102
 30
0.0
 10
-3.3262468129
 20
-0.9357746561
 30
0.0
 10
-3.3271187474
 20
-0.9118740079
 30
0.0
 10
-3.3280765716
 20
-0.8756513539
 30
0.0
 10
-3.3290666609
 20
-0.8252510824
 30
0.0
 10
-3.3299123246
 20
-0.7664987848
 30
0.0
 10
-3.3305967226
 20
-0.7008251441
 30
0.0
 10
-3.3309221518
 20
-0.654886635
 30
0.0
 10
-3.3310568066
 20
-0.6310263456
 30
0.0
  0
SPLINE
  5
524
100
AcDbEntity
  8
ASSI
100
AcDbSpline
 62
7
  6
CONTINUOUS
 70
0
 71
3
 72
12
 73
8
 74
0
 42
0.0000001
 43
0.0000001
 44
0.0000000001
 40
0.0
 40
0.0
 40
0.0
 40
0.0
 40
0.4006068808
 40
0.7035211675
 40
0.8155142934
 40
0.9009840919
 40
1.0
 40
1.0
 40
1.0
 40
1.0
 10
9.8106071709
 20
-16.2006617941
 30
0.0
 10
9.793209052
 20
-16.2026889915
 30
0.0
 10
9.7626694009
 20
-16.2069191553
 30
0.0
 10
9.7278392025
 20
-16.2139321107
 30
0.0
 10
9.706700177
 20
-16.220677904
 30
0.0
 10
9.6953536981
 20
-16.2256357273
 30
0.0
 10
9.6873577668
 20
-16.2313750483
 30
0.0
 10
9.687050838
 20
-16.2356934491
 30
0.0
  0
SPLINE
  5
525
100
AcDbEntity
  8
ASSI
100
AcDbSpline
 62
250
  6
CONTINUOUS
 70
0
 71
3
 72
14
 73
10
 74
0
 42
0.0000001
 43
0.0000001
 44
0.0000000001
 40
0.0
 40
0.0
 40
0.0
 40
0.0
 40
0.0305364992
 40
0.0925440488
 40
0.1869216509
 40
0.3106153544
 40
0.4594941734
 40
0.6283084615
 40
1.0
 40
1.0
 40
1.0
 40
1.0
 10
-9.868819354
 20
-24.4923810854
 30
0.0
 10
-9.8683207929
 20
-24.4903786039
 30
0.0
 10
-9.8617799812
 20
-24.4870629223
 30
0.0
 10
-9.8503124646
 20
-24.4838140669
 30
0.0
 10
-9.8313039822
 20
-24.4804084798
 30
0.0
 10
-9.8068239355
 20
-24.4774523642
 30
0.0
 10
-9.7770444806
 20
-24.4749395717
 30
0.0
 10
-9.7305478685
 20
-24.472328946
 30
0.0
 10
-9.6940061696
 20
-24.4715437692
 30
0.0
 10
-9.668887889
 20
-24.4714753928
 30
0.0
  0
SPLINE
  5
526
100
AcDbEntity
  8
ASSI
100
AcDbSpline
 62
7
  6
CONTINUOUS
 70
0
 71
3
 72
12
 73
8
 74
0
 42
0.0000001
 43
0.0000001
 44
0.0000000001
 40
0.0
 40
0.0
 40
0.0
 40
0.0
 40
0.0990159048
 40
0.1844857022
 40
0.2964788283
 40
0.5993931184
 40
1.0
 40
1.0
 40
1.0
 40
1.0
 10
-9.687050838
 20
-16.2356934491
 30
0.0
 10
-9.6873577668
 20
-16.2313750484
 30
0.0
 10
-9.6953536976
 20
-16.2256357273
 30
0.0
 10
-9.7067001765
 20
-16.2206779042
 30
0.0
 10
-9.7278392021
 20
-16.2139321108
 30
0.0
 10
-9.7626694008
 20
-16.2069191553
 30
0.0
 10
-9.7932090522
 20
-16.2026889915
 30
0.0
 10
-9.8106071712
 20
-16.2006617941
 30
0.0
  0
SPLINE
  5
527
100
AcDbEntity
  8
ASSI
100
AcDbSpline
 62
250
  6
CONTINUOUS
 70
0
 71
3
 72
14
 73
10
 74
0
 42
0.0000001
 43
0.0000001
 44
0.0000000001
 40
0.0
 40
0.0
 40
0.0
 40
0.0
 40
0.0305366765
 40
0.092544486
 40
0.1869224512
 40
0.3106164083
 40
0.4594950765
 40
0.6283089726
 40
1.0
 40
1.0
 40
1.0
 40
1.0
 10
9.868819354
 20
-24.4923810854
 30
0.0
 10
9.86832079
 20
-24.4903785924
 30
0.0
 10
9.8617799194
 20
-24.4870629279
 30
0.0
 10
9.8503123743
 20
-24.483814035
 30
0.0
 10
9.8313038209
 20
-24.4804084586
 30
0.0
 10
9.8068237468
 20
-24.4774523447
 30
0.0
 10
9.7770443106
 20
-24.4749395599
 30
0.0
 10
9.7305477713
 20
-24.472328943
 30
0.0
 10
9.6940061343
 20
-24.4715437691
 30
0.0
 10
9.668887889
 20
-24.4714753928
 30
0.0
  0
SPLINE
  5
528
100
AcDbEntity
  8
ASSI
100
AcDbSpline
 62
250
  6
CONTINUOUS
 70
0
 71
3
 72
13
 73
9
 74
0
 42
0.0000001
 43
0.0000001
 44
0.0000000001
 40
0.0
 40
0.0
 40
0.0
 40
0.0
 40
0.0458722934
 40
0.1207291742
 40
0.2222679982
 40
0.3474377899
 40
0.6527164982
 40
1.0
 40
1.0
 40
1.0
 40
1.0
 10
-0.1975447469
 20
21.4306188589
 30
0.0
 10
-0.196356454
 20
21.4456324643
 30
0.0
 10
-0.1947368613
 20
21.4852512873
 30
0.0
 10
-0.1926273361
 20
21.5581877617
 30
0.0
 10
-0.1907711291
 20
21.6571833914
 30
0.0
 10
-0.1883910771
 20
21.8318251972
 30
0.0
 10
-0.1865120871
 20
22.0871626023
 30
0.0
 10
-0.186005563
 20
22.3014082645
 30
0.0
 10
-0.1860054837
 20
22.4154266119
 30
0.0
  0
SPLINE
  5
529
100
AcDbEntity
  8
ASSI
100
AcDbSpline
 62
250
  6
CONTINUOUS
 70
0
 71
3
 72
13
 73
9
 74
0
 42
0.0000001
 43
0.0000001
 44
0.0000000001
 40
0.0
 40
0.0
 40
0.0
 40
0.0
 40
0.3474109126
 40
0.6527809963
 40
0.7778781793
 40
0.8793308249
 40
0.9541337304
 40
1.0
 40
1.0
 40
1.0
 40
1.0
 10
0.1860054831
 20
22.4154266119
 30
0.0
 10
0.1860056088
 20
22.3013664335
 30
0.0
 10
0.186512459
 20
22.0870489407
 30
0.0
 10
0.1883925499
 20
21.8316635456
 30
0.0
 10
0.1907735133
 20
21.6570438854
 30
0.0
 10
0.192629058
 20
21.5581181136
 30
0.0
 10
0.1947375727
 20
21.4852296154
 30
0.0
 10
0.1963565664
 20
21.4456304904
 30
0.0
 10
0.1975447332
 20
21.4306188589
 30
0.0
  0
SPLINE
  5
52A
100
AcDbEntity
  8
ASSI
100
AcDbSpline
 62
250
  6
CONTINUOUS
 70
0
 71
3
 72
11
 73
7
 74
0
 42
0.0000001
 43
0.0000001
 44
0.0000000001
 40
0.0
 40
0.0
 40
0.0
 40
0.0
 40
0.2481494737
 40
0.4975319787
 40
0.7483584945
 40
1.0
 40
1.0
 40
1.0
 40
1.0
 10
-0.3975142412
 20
21.6275804095
 30
0.0
 10
-0.3974354787
 20
21.6019820896
 30
0.0
 10
-0.3868396617
 20
21.5501243285
 30
0.0
 10
-0.3421993286
 20
21.4847675332
 30
0.0
 10
-0.2758550564
 20
21.4410238442
 30
0.0
 10
-0.2235032566
 20
21.4306963419
 30
0.0
 10
-0.1975447025
 20
21.4306188558
 30
0.0
  0
SPLINE
  5
52B
100
AcDbEntity
  8
ASSI
100
AcDbSpline
 62
250
  6
CONTINUOUS
 70
0
 71
3
 72
11
 73
7
 74
0
 42
0.0000001
 43
0.0000001
 44
0.0000000001
 40
0.0
 40
0.0
 40
0.0
 40
0.0
 40
0.2481496317
 40
0.4975322082
 40
0.748358622
 40
1.0
 40
1.0
 40
1.0
 40
1.0
 10
0.3975142412
 20
21.6275804095
 30
0.0
 10
0.3974354787
 20
21.6019820734
 30
0.0
 10
0.3868396458
 20
21.5501242886
 30
0.0
 10
0.3421992878
 20
21.4847674941
 30
0.0
 10
0.2758550198
 20
21.4410238303
 30
0.0
 10
0.2235032431
 20
21.4306963434
 30
0.0
 10
0.1975447022
 20
21.4306188589
 30
0.0
  0
SPLINE
  5
52C
100
AcDbEntity
  8
ASSI
100
AcDbSpline
 62
250
  6
CONTINUOUS
 70
0
 71
3
 72
14
 73
10
 74
0
 42
0.0000001
 43
0.0000001
 44
0.0000000001
 40
0.0
 40
0.0
 40
0.0
 40
0.0
 40
0.0305472679
 40
0.0925658183
 40
0.1869470732
 40
0.3106435274
 40
0.4595174079
 40
0.6283218691
 40
1.0
 40
1.0
 40
1.0
 40
1.0
 10
9.9076590239
 20
-10.3804173835
 30
0.0
 10
9.9071602889
 20
-10.3784141992
 30
0.0
 10
9.9006161794
 20
-10.3750997734
 30
0.0
 10
9.8891484328
 20
-10.3718488767
 30
0.0
 10
9.8701381799
 20
-10.3684438586
 30
0.0
 10
9.8456582324
 20
-10.3654881839
 30
0.0
 10
9.8158795604
 20
-10.3629756506
 30
0.0
 10
9.7693849626
 20
-10.3603651326
 30
0.0
 10
9.7328448875
 20
-10.3595800765
 30
0.0
 10
9.7077275589
 20
-10.3595116908
 30
0.0
  0
SPLINE
  5
52D
100
AcDbEntity
  8
ASSI
100
AcDbSpline
 62
250
  6
CONTINUOUS
 70
0
 71
3
 72
14
 73
10
 74
0
 42
0.0000001
 43
0.0000001
 44
0.0000000001
 40
0.0
 40
0.0
 40
0.0
 40
0.0
 40
0.371678131
 40
0.5404825926
 40
0.6893564741
 40
0.8130529298
 40
0.9074341861
 40
0.9694527365
 40
1.0
 40
1.0
 40
1.0
 40
1.0
 10
-9.7077275589
 20
-10.3595116908
 30
0.0
 10
-9.7328448875
 20
-10.3595800738
 30
0.0
 10
-9.7693849627
 20
-10.3603651273
 30
0.0
 10
-9.8158795605
 20
-10.3629756462
 30
0.0
 10
-9.8456582325
 20
-10.3654881814
 30
0.0
 10
-9.8701381799
 20
-10.3684438584
 30
0.0
 10
-9.889148433
 20
-10.3718488779
 30
0.0
 10
-9.9006161787
 20
-10.3750997754
 30
0.0
 10
-9.9071602887
 20
-10.3784141996
 30
0.0
 10
-9.9076590239
 20
-10.3804173835
 30
0.0
  0
SPLINE
  5
52E
100
AcDbEntity
  8
ASSI
100
AcDbSpline
 62
250
  6
CONTINUOUS
 70
0
 71
3
 72
18
 73
14
 74
0
 42
0.0000001
 43
0.0000001
 44
0.0000000001
 40
0.0
 40
0.0
 40
0.0
 40
0.0
 40
0.006458144
 40
0.0214658789
 40
0.0449847052
 40
0.0769199706
 40
0.1170800303
 40
0.1651971182
 40
0.2841753437
 40
0.4309460544
 40
0.6019576861
 40
0.7932590959
 40
1.0
 40
1.0
 40
1.0
 40
1.0
 10
-3.5228742797
 20
-1.1770951726
 30
0.0
 10
-3.5234793065
 20
-1.1762450102
 30
0.0
 10
-3.5235340377
 20
-1.1725203459
 30
0.0
 10
-3.5244880306
 20
-1.1655110048
 30
0.0
 10
-3.5249219422
 20
-1.1540192716
 30
0.0
 10
-3.525627909
 20
-1.138634981
 30
0.0
 10
-3.5262142679
 20
-1.1192017764
 30
0.0
 10
-3.527090397
 20
-1.0857345251
 30
0.0
 10
-3.5280452932
 20
-1.0350247719
 30
0.0
 10
-3.5290367472
 20
-0.9644645004
 30
0.0
 10
-3.5298818853
 20
-0.882212901
 30
0.0
 10
-3.5305663473
 20
-0.7902709667
 30
0.0
 10
-3.5308917579
 20
-0.7259581454
 30
0.0
 10
-3.5310263732
 20
-0.6925543433
 30
0.0
  0
SPLINE
  5
52F
100
AcDbEntity
  8
ASSI
100
AcDbSpline
 62
250
  6
CONTINUOUS
 70
0
 71
3
 72
18
 73
14
 74
0
 42
0.0000001
 43
0.0000001
 44
0.0000000001
 40
0.0
 40
0.0
 40
0.0
 40
0.0
 40
0.2068337949
 40
0.3983537929
 40
0.5694115261
 40
0.7160801181
 40
0.8349411922
 40
0.883007273
 40
0.9231206355
 40
0.955030126
 40
0.9785384964
 40
0.9935429929
 40
1.0
 40
1.0
 40
1.0
 40
1.0
 10
-6.1689736704
 20
-0.6925584265
 30
0.0
 10
-6.1691083575
 20
-0.7259769569
 30
0.0
 10
-6.1694342908
 20
-0.7903395633
 30
0.0
 10
-6.1701190161
 20
-0.8823385012
 30
0.0
 10
-6.1709650772
 20
-0.9646156711
 30
0.0
 10
-6.1719565998
 20
-1.0351473666
 30
0.0
 10
-6.1729116164
 20
-1.0858130155
 30
0.0
 10
-6.1737869835
 20
-1.1192452763
 30
0.0
 10
-6.1743729624
 20
-1.1386583739
 30
0.0
 10
-6.1750784041
 20
-1.1540291128
 30
0.0
 10
-6.175511914
 20
-1.1655145153
 30
0.0
 10
-6.1764662046
 20
-1.1725210646
 30
0.0
 10
-6.1765204117
 20
-1.176245424
 30
0.0
 10
-6.1771256879
 20
-1.1770951726
 30
0.0
  0
SPLINE
  5
530
100
AcDbEntity
  8
ASSI
100
AcDbSpline
 62
250
  6
CONTINUOUS
 70
0
 71
3
 72
18
 73
14
 74
0
 42
0.0000001
 43
0.0000001
 44
0.0000000001
 40
0.0
 40
0.0
 40
0.0
 40
0.0
 40
0.006458144
 40
0.0214658789
 40
0.0449847052
 40
0.0769199706
 40
0.1170800303
 40
0.1651971182
 40
0.2841753437
 40
0.4309460544
 40
0.6019576861
 40
0.7932590959
 40
1.0
 40
1.0
 40
1.0
 40
1.0
 10
6.1771257203
 20
-1.1770951726
 30
0.0
 10
6.1765206935
 20
-1.1762450102
 30
0.0
 10
6.1764659623
 20
-1.1725203459
 30
0.0
 10
6.1755119694
 20
-1.1655110048
 30
0.0
 10
6.1750780578
 20
-1.1540192716
 30
0.0
 10
6.174372091
 20
-1.138634981
 30
0.0
 10
6.1737857321
 20
-1.1192017764
 30
0.0
 10
6.172909603
 20
-1.0857345251
 30
0.0
 10
6.1719547068
 20
-1.0350247719
 30
0.0
 10
6.1709632528
 20
-0.9644645004
 30
0.0
 10
6.1701181147
 20
-0.882212901
 30
0.0
 10
6.1694336527
 20
-0.7902709667
 30
0.0
 10
6.1691082421
 20
-0.7259581454
 30
0.0
 10
6.1689736268
 20
-0.6925543433
 30
0.0
  0
SPLINE
  5
531
100
AcDbEntity
  8
ASSI
100
AcDbSpline
 62
250
  6
CONTINUOUS
 70
0
 71
3
 72
18
 73
14
 74
0
 42
0.0000001
 43
0.0000001
 44
0.0000000001
 40
0.0
 40
0.0
 40
0.0
 40
0.0
 40
0.2068337949
 40
0.3983537929
 40
0.5694115261
 40
0.7160801181
 40
0.8349411922
 40
0.883007273
 40
0.9231206355
 40
0.955030126
 40
0.9785384964
 40
0.9935429929
 40
1.0
 40
1.0
 40
1.0
 40
1.0
 10
3.5310263296
 20
-0.6925584265
 30
0.0
 10
3.5308916425
 20
-0.7259769569
 30
0.0
 10
3.5305657092
 20
-0.7903395633
 30
0.0
 10
3.5298809839
 20
-0.8823385012
 30
0.0
 10
3.5290349228
 20
-0.9646156711
 30
0.0
 10
3.5280434002
 20
-1.0351473666
 30
0.0
 10
3.5270883836
 20
-1.0858130155
 30
0.0
 10
3.5262130165
 20
-1.1192452763
 30
0.0
 10
3.5256270376
 20
-1.1386583739
 30
0.0
 10
3.5249215959
 20
-1.1540291128
 30
0.0
 10
3.524488086
 20
-1.1655145153
 30
0.0
 10
3.5235337954
 20
-1.1725210646
 30
0.0
 10
3.5234795883
 20
-1.176245424
 30
0.0
 10
3.5228743121
 20
-1.1770951726
 30
0.0
  0
SPLINE
  5
532
100
AcDbEntity
  8
ASSI
100
AcDbSpline
 62
250
  6
CONTINUOUS
 70
0
 71
3
 72
13
 73
9
 74
0
 42
0.0000001
 43
0.0000001
 44
0.0000000001
 40
0.0
 40
0.0
 40
0.0
 40
0.0
 40
0.129996938
 40
0.2283060232
 40
0.3500309331
 40
0.4926486111
 40
0.6520493521
 40
1.0
 40
1.0
 40
1.0
 40
1.0
 10
6.3689431934
 20
-0.6310263456
 30
0.0
 10
6.3684335767
 20
-0.6404686743
 30
0.0
 10
6.3549386235
 20
-0.6545163467
 30
0.0
 10
6.332893597
 20
-0.6659945456
 30
0.0
 10
6.3078576514
 20
-0.6751444175
 30
0.0
 10
6.2779500135
 20
-0.6824977708
 30
0.0
 10
6.2312398459
 20
-0.6901779807
 30
0.0
 10
6.1942834697
 20
-0.6924239044
 30
0.0
 10
6.1689736188
 20
-0.6925532241
 30
0.0
  0
SPLINE
  5
533
100
AcDbEntity
  8
ASSI
100
AcDbSpline
 62
7
  6
CONTINUOUS
 70
0
 71
3
 72
8
 73
4
 74
0
 42
0.0000001
 43
0.0000001
 44
0.0000000001
 40
0.0
 40
0.0
 40
0.0
 40
0.0
 40
1.0
 40
1.0
 40
1.0
 40
1.0
 10
6.2044365927
 20
-0.3955938683
 30
0.0
 10
6.2303891349
 20
-0.3955938683
 30
0.0
 10
6.2568123255
 20
-0.4008444621
 30
0.0
 10
6.2808091081
 20
-0.41072823
 30
0.0
  0
SPLINE
  5
534
100
AcDbEntity
  8
ASSI
100
AcDbSpline
 62
250
  6
CONTINUOUS
 70
0
 71
3
 72
13
 73
9
 74
0
 42
0.0000001
 43
0.0000001
 44
0.0000000001
 40
0.0
 40
0.0
 40
0.0
 40
0.0
 40
0.3479556722
 40
0.507352043
 40
0.6499637174
 40
0.771683567
 40
0.8699908535
 40
1.0
 40
1.0
 40
1.0
 40
1.0
 10
-6.1690338402
 20
-0.6925557083
 30
0.0
 10
-6.1943375957
 20
-0.6924320702
 30
0.0
 10
-6.2312848494
 20
-0.6901816405
 30
0.0
 10
-6.2779817129
 20
-0.6824986644
 30
0.0
 10
-6.3078797577
 20
-0.6751436797
 30
0.0
 10
-6.3329069953
 20
-0.6659930377
 30
0.0
 10
-6.3549452849
 20
-0.6545137875
 30
0.0
 10
-6.3684337382
 20
-0.6404671199
 30
0.0
 10
-6.3689432166
 20
-0.6310263225
 30
0.0
  0
SPLINE
  5
535
100
AcDbEntity
  8
ASSI
100
AcDbSpline
 62
7
  6
CONTINUOUS
 70
0
 71
3
 72
8
 73
4
 74
0
 42
0.0000001
 43
0.0000001
 44
0.0000000001
 40
0.0
 40
0.0
 40
0.0
 40
0.0
 40
1.0
 40
1.0
 40
1.0
 40
1.0
 10
-6.2811033211
 20
-0.4108498684
 30
0.0
 10
-6.2570259797
 20
-0.400888457
 30
0.0
 10
-6.230493225
 20
-0.3955938683
 30
0.0
 10
-6.2044365927
 20
-0.3955938683
 30
0.0
  0
SPLINE
  5
536
100
AcDbEntity
  8
ASSI
100
AcDbSpline
 62
7
  6
CONTINUOUS
 70
0
 71
3
 72
8
 73
4
 74
0
 42
0.0000001
 43
0.0000001
 44
0.0000000001
 40
0.0
 40
0.0
 40
0.0
 40
0.0
 40
1.0
 40
1.0
 40
1.0
 40
1.0
 10
-3.4955634073
 20
-0.3955938683
 30
0.0
 10
-3.4696108651
 20
-0.3955938683
 30
0.0
 10
-3.4431876745
 20
-0.4008444621
 30
0.0
 10
-3.4191908919
 20
-0.41072823
 30
0.0
  0
SPLINE
  5
537
100
AcDbEntity
  8
ASSI
100
AcDbSpline
 62
250
  6
CONTINUOUS
 70
0
 71
3
 72
13
 73
9
 74
0
 42
0.0000001
 43
0.0000001
 44
0.0000000001
 40
0.0
 40
0.0
 40
0.0
 40
0.0
 40
0.129996938
 40
0.2283060232
 40
0.3500309331
 40
0.4926486111
 40
0.6520493521
 40
1.0
 40
1.0
 40
1.0
 40
1.0
 10
-3.3310568066
 20
-0.6310263456
 30
0.0
 10
-3.3315664233
 20
-0.6404686743
 30
0.0
 10
-3.3450613765
 20
-0.6545163467
 30
0.0
 10
-3.367106403
 20
-0.6659945456
 30
0.0
 10
-3.3921423486
 20
-0.6751444175
 30
0.0
 10
-3.4220499865
 20
-0.6824977708
 30
0.0
 10
-3.4687601541
 20
-0.6901779807
 30
0.0
 10
-3.5057165303
 20
-0.6924239044
 30
0.0
 10
-3.5310263812
 20
-0.6925532241
 30
0.0
  0
SPLINE
  5
538
100
AcDbEntity
  8
ASSI
100
AcDbSpline
 62
7
  6
CONTINUOUS
 70
0
 71
3
 72
8
 73
4
 74
0
 42
0.0000001
 43
0.0000001
 44
0.0000000001
 40
0.0
 40
0.0
 40
0.0
 40
0.0
 40
1.0
 40
1.0
 40
1.0
 40
1.0
 10
3.4191908919
 20
-0.41072823
 30
0.0
 10
3.4431876745
 20
-0.4008444621
 30
0.0
 10
3.4696108651
 20
-0.3955938683
 30
0.0
 10
3.4955634073
 20
-0.3955938683
 30
0.0
  0
SPLINE
  5
539
100
AcDbEntity
  8
ASSI
100
AcDbSpline
 62
250
  6
CONTINUOUS
 70
0
 71
3
 72
13
 73
9
 74
0
 42
0.0000001
 43
0.0000001
 44
0.0000000001
 40
0.0
 40
0.0
 40
0.0
 40
0.0
 40
0.3479585185
 40
0.5073567108
 40
0.6499690601
 40
0.7716878496
 40
0.8699934412
 40
1.0
 40
1.0
 40
1.0
 40
1.0
 10
3.5309672209
 20
-0.6925557138
 30
0.0
 10
3.5056631336
 20
-0.692431974
 30
0.0
 10
3.4687153492
 20
-0.6901817342
 30
0.0
 10
3.4220178762
 20
-0.6824985821
 30
0.0
 10
3.392119593
 20
-0.675143492
 30
0.0
 10
3.3670924015
 20
-0.6659927863
 30
0.0
 10
3.3450543961
 20
-0.6545135088
 30
0.0
 10
3.3315662542
 20
-0.6404669787
 30
0.0
 10
3.3310567834
 20
-0.6310263225
 30
0.0
  0
SPLINE
  5
53A
100
AcDbEntity
  8
ASSI
100
AcDbSpline
 62
250
  6
CONTINUOUS
 70
0
 71
3
 72
14
 73
10
 74
0
 42
0.0000001
 43
0.0000001
 44
0.0000000001
 40
0.0
 40
0.0
 40
0.0
 40
0.0
 40
0.4197345038
 40
0.5909149517
 40
0.7338620731
 40
0.8472279905
 40
0.9298970417
 40
0.9809692927
 40
1.0
 40
1.0
 40
1.0
 40
1.0
 10
-9.811693777
 20
-11.4032940408
 30
0.0
 10
-9.7942531258
 20
-11.4032220354
 30
0.0
 10
-9.7696967773
 20
-11.403112755
 30
0.0
 10
-9.739210644
 20
-11.4028840851
 30
0.0
 10
-9.7214339573
 20
-11.4027756823
 30
0.0
 10
-9.7073868665
 20
-11.4025018577
 30
0.0
 10
-9.6970330775
 20
-11.4026160667
 30
0.0
 10
-9.6908460803
 20
-11.401970162
 30
0.0
 10
-9.6877587955
 20
-11.4023955055
 30
0.0
 10
-9.687050838
 20
-11.4020432226
 30
0.0
  0
SPLINE
  5
53B
100
AcDbEntity
  8
ASSI
100
AcDbSpline
 62
250
  6
CONTINUOUS
 70
0
 71
3
 72
14
 73
10
 74
0
 42
0.0000001
 43
0.0000001
 44
0.0000000001
 40
0.0
 40
0.0
 40
0.0
 40
0.0
 40
0.0190206407
 40
0.0700786337
 40
0.1527314279
 40
0.2660753738
 40
0.4090109368
 40
0.5802164101
 40
1.0
 40
1.0
 40
1.0
 40
1.0
 10
9.687050838
 20
-11.4020432226
 30
0.0
 10
9.687758387
 20
-11.4023953875
 30
0.0
 10
9.6908446528
 20
-11.4019703113
 30
0.0
 10
9.6970299473
 20
-11.402615943
 30
0.0
 10
9.7073815739
 20
-11.4025017749
 30
0.0
 10
9.7214265862
 20
-11.4027756129
 30
0.0
 10
9.7392029261
 20
-11.4028840154
 30
0.0
 10
9.769691655
 20
-11.4031127174
 30
0.0
 10
9.7942510855
 20
-11.4032220653
 30
0.0
 10
9.811693777
 20
-11.4032940408
 30
0.0
  0
SPLINE
  5
53C
100
AcDbEntity
  8
ASSI
100
AcDbSpline
 62
250
  6
CONTINUOUS
 70
0
 71
3
 72
11
 73
7
 74
0
 42
0.0000001
 43
0.0000001
 44
0.0000000001
 40
0.0
 40
0.0
 40
0.0
 40
0.0
 40
0.2063908181
 40
0.4409676824
 40
0.7097521212
 40
1.0
 40
1.0
 40
1.0
 40
1.0
 10
-9.9493646921
 20
-11.2033016562
 30
0.0
 10
-9.9311157229
 20
-11.2034694645
 30
0.0
 10
-9.8918251818
 20
-11.2161112341
 30
0.0
 10
-9.8472778138
 20
-11.2627894597
 30
0.0
 10
-9.8185093963
 20
-11.3279324275
 30
0.0
 10
-9.8118056784
 20
-11.377629633
 30
0.0
 10
-9.8116938472
 20
-11.4032940414
 30
0.0
  0
SPLINE
  5
53D
100
AcDbEntity
  8
ASSI
100
AcDbSpline
 62
250
  6
CONTINUOUS
 70
0
 71
3
 72
11
 73
7
 74
0
 42
0.0000001
 43
0.0000001
 44
0.0000000001
 40
0.0
 40
0.0
 40
0.0
 40
0.0
 40
0.2063908514
 40
0.4409676819
 40
0.7097520854
 40
1.0
 40
1.0
 40
1.0
 40
1.0
 10
9.9493646921
 20
-11.2033016562
 30
0.0
 10
9.931115721
 20
-11.2034694645
 30
0.0
 10
9.8918251805
 20
-11.216111234
 30
0.0
 10
9.8472778317
 20
-11.2627894761
 30
0.0
 10
9.8185094693
 20
-11.3279324525
 30
0.0
 10
9.8118056698
 20
-11.3776296309
 30
0.0
 10
9.811693777
 20
-11.4032940408
 30
0.0
  0
SPLINE
  5
53E
100
AcDbEntity
  8
ASSI
100
AcDbSpline
 62
250
  6
CONTINUOUS
 70
0
 71
3
 72
10
 73
6
 74
0
 42
0.0000001
 43
0.0000001
 44
0.0000000001
 40
0.0
 40
0.0
 40
0.0
 40
0.0
 40
0.1114835152
 40
0.3141843025
 40
1.0
 40
1.0
 40
1.0
 40
1.0
 10
9.7237761007
 20
-25.1236732864
 30
0.0
 10
9.7232681845
 20
-25.1230383771
 30
0.0
 10
9.722599396
 20
-25.1207613661
 30
0.0
 10
9.7211096695
 20
-25.1136985173
 30
0.0
 10
9.7204649714
 20
-25.1071904136
 30
0.0
 10
9.7199738409
 20
-25.1022127811
 30
0.0
  0
SPLINE
  5
53F
100
AcDbEntity
  8
ASSI
100
AcDbSpline
 62
250
  6
CONTINUOUS
 70
0
 71
3
 72
10
 73
6
 74
0
 42
0.0000001
 43
0.0000001
 44
0.0000000001
 40
0.0
 40
0.0
 40
0.0
 40
0.0
 40
0.685796869
 40
0.8885092754
 40
1.0
 40
1.0
 40
1.0
 40
1.0
 10
-9.7199738409
 20
-25.1022127811
 30
0.0
 10
-9.720464961
 20
-25.1071902757
 30
0.0
 10
-9.7211096058
 20
-25.1136983357
 30
0.0
 10
-9.7225993831
 20
-25.1207611657
 30
0.0
 10
-9.723268159
 20
-25.1230383304
 30
0.0
 10
-9.7237761007
 20
-25.1236732864
 30
0.0
  0
SPLINE
  5
540
100
AcDbEntity
  8
ASSI
100
AcDbSpline
 62
250
  6
CONTINUOUS
 70
0
 71
3
 72
11
 73
7
 74
0
 42
0.0000001
 43
0.0000001
 44
0.0000000001
 40
0.0
 40
0.0
 40
0.0
 40
0.0
 40
0.252307357
 40
0.5035248029
 40
0.7526819718
 40
1.0
 40
1.0
 40
1.0
 40
1.0
 10
9.668887889
 20
-24.6880204493
 30
0.0
 10
9.6948074536
 20
-24.6878825645
 30
0.0
 10
9.7470191109
 20
-24.6775441144
 30
0.0
 10
9.8132560916
 20
-24.6341230898
 30
0.0
 10
9.8579537409
 20
-24.5692944524
 30
0.0
 10
9.8686782005
 20
-24.517788063
 30
0.0
 10
9.868819354
 20
-24.4923810854
 30
0.0
  0
SPLINE
  5
541
100
AcDbEntity
  8
ASSI
100
AcDbSpline
 62
250
  6
CONTINUOUS
 70
0
 71
3
 72
11
 73
7
 74
0
 42
0.0000001
 43
0.0000001
 44
0.0000000001
 40
0.0
 40
0.0
 40
0.0
 40
0.0
 40
0.2473180282
 40
0.496475197
 40
0.747692643
 40
1.0
 40
1.0
 40
1.0
 40
1.0
 10
9.9199053059
 20
-24.9065734171
 30
0.0
 10
9.9197641524
 20
-24.9319803947
 30
0.0
 10
9.9090396928
 20
-24.9834867841
 30
0.0
 10
9.8643420435
 20
-25.0483154215
 30
0.0
 10
9.7981050628
 20
-25.0917364461
 30
0.0
 10
9.7458934055
 20
-25.1020748962
 30
0.0
 10
9.7199738409
 20
-25.1022127811
 30
0.0
  0
SPLINE
  5
542
100
AcDbEntity
  8
ASSI
100
AcDbSpline
 62
250
  6
CONTINUOUS
 70
0
 71
3
 72
11
 73
7
 74
0
 42
0.0000001
 43
0.0000001
 44
0.0000000001
 40
0.0
 40
0.0
 40
0.0
 40
0.0
 40
0.2473180282
 40
0.496475197
 40
0.7476926429
 40
1.0
 40
1.0
 40
1.0
 40
1.0
 10
-9.9199053059
 20
-24.9065734171
 30
0.0
 10
-9.9197641524
 20
-24.9319803947
 30
0.0
 10
-9.9090396928
 20
-24.9834867841
 30
0.0
 10
-9.8643420435
 20
-25.0483154215
 30
0.0
 10
-9.7981050628
 20
-25.0917364461
 30
0.0
 10
-9.7458934055
 20
-25.1020748962
 30
0.0
 10
-9.7199738409
 20
-25.1022127811
 30
0.0
  0
SPLINE
  5
543
100
AcDbEntity
  8
ASSI
100
AcDbSpline
 62
250
  6
CONTINUOUS
 70
0
 71
3
 72
11
 73
7
 74
0
 42
0.0000001
 43
0.0000001
 44
0.0000000001
 40
0.0
 40
0.0
 40
0.0
 40
0.0
 40
0.2473180282
 40
0.496475197
 40
0.7476926429
 40
1.0
 40
1.0
 40
1.0
 40
1.0
 10
-9.868819354
 20
-24.4923810854
 30
0.0
 10
-9.8686782006
 20
-24.517788063
 30
0.0
 10
-9.8579537409
 20
-24.5692944523
 30
0.0
 10
-9.8132560916
 20
-24.6341230898
 30
0.0
 10
-9.7470191109
 20
-24.6775441144
 30
0.0
 10
-9.6948074536
 20
-24.6878825645
 30
0.0
 10
-9.668887889
 20
-24.6880204493
 30
0.0
  0
ELLIPSE
  5
544
100
AcDbEntity
  8
ASSI
100
AcDbEllipse
 62
7
  6
CONTINUOUS
 10
11.0816698549
 20
-21.3675103668
 30
0.0
 11
-0.0
 21
0.3
 31
0.0
 40
0.0261859216
 41
-2.2689280276
 42
-1.5707963268
  0
ELLIPSE
  5
545
100
AcDbEntity
  8
ASSI
100
AcDbEllipse
 62
7
  6
CONTINUOUS
 10
11.2204552392
 20
-19.196450535
 30
0.0
 11
0.0
 21
5.0
 31
0.0
 40
0.0261859216
 41
1.4922565105
 42
1.5707963268
  0
ELLIPSE
  5
546
100
AcDbEntity
  8
ASSI
100
AcDbEllipse
 62
7
  6
CONTINUOUS
 10
10.9690703922
 20
-13.7210675705
 30
0.0
 11
0.0
 21
5.0
 31
0.0
 40
0.0261859216
 41
-1.6493361431
 42
-1.5707963268
  0
ELLIPSE
  5
547
100
AcDbEntity
  8
ASSI
100
AcDbEllipse
 62
7
  6
CONTINUOUS
 10
-10.9690703922
 20
-13.7210675705
 30
0.0
 11
0.0
 21
5.0
 31
0.0
 40
0.0261859216
 41
-4.7123889804
 42
-4.633849164
  0
ELLIPSE
  5
548
100
AcDbEntity
  8
ASSI
100
AcDbEllipse
 62
7
  6
CONTINUOUS
 10
-11.2204552392
 20
-19.196450535
 30
0.0
 11
0.0
 21
5.0
 31
0.0
 40
0.0261859216
 41
-1.5707963268
 42
-1.4922565105
  0
ELLIPSE
  5
549
100
AcDbEntity
  8
ASSI
100
AcDbEllipse
 62
7
  6
CONTINUOUS
 10
-11.0816698549
 20
-21.3675103668
 30
0.0
 11
0.0
 21
0.3
 31
0.0
 40
0.0261859216
 41
-4.7123889804
 42
-4.0142572796
  0
ELLIPSE
  5
54A
100
AcDbEntity
  8
ASSI
100
AcDbEllipse
 62
7
  6
CONTINUOUS
 10
-10.5998286038
 20
25.8998286038
 30
0.0
 11
-0.35379574
 21
0.35379574
 31
0.0
 40
0.999315002
 41
-0.7850555471
 42
0.7850555471
  0
ELLIPSE
  5
54B
100
AcDbEntity
  8
ASSI
100
AcDbEllipse
 62
7
  6
CONTINUOUS
 10
10.5998286038
 20
25.8998286038
 30
0.0
 11
-0.35379574
 21
-0.35379574
 31
0.0
 40
0.999315002
 41
2.3565371065
 42
3.9266482006
  0
ELLIPSE
  5
54C
100
AcDbEntity
  8
ASSI
100
AcDbEllipse
 62
7
  6
CONTINUOUS
 10
10.5684054979
 20
-25.8684054979
 30
0.0
 11
0.35379574
 21
-0.35379574
 31
0.0
 40
0.999315002
 41
-0.7850555471
 42
0.7850555471
  0
ELLIPSE
  5
54D
100
AcDbEntity
  8
ASSI
100
AcDbEllipse
 62
7
  6
CONTINUOUS
 10
-10.5684054979
 20
-25.8684054979
 30
0.0
 11
0.35379574
 21
0.35379574
 31
0.0
 40
0.999315002
 41
2.3565371065
 42
3.9266482006
  0
ELLIPSE
  5
54E
100
AcDbEntity
  8
ASSI
100
AcDbEllipse
 62
7
  6
CONTINUOUS
 10
10.0712940215
 20
-16.2710798904
 30
0.0
 11
0.2000013235
 21
-0.0000102573
 31
0.0
 40
0.1226569831
 41
-2.3557448212
 42
-1.5703782017
  0
ELLIPSE
  5
54F
100
AcDbEntity
  8
ASSI
100
AcDbEllipse
 62
7
  6
CONTINUOUS
 10
-10.0712940215
 20
-16.2710798904
 30
0.0
 11
0.2000013235
 21
0.0000102573
 31
0.0
 40
0.1226569831
 41
-1.5712144519
 42
-0.7858478324
  0
ELLIPSE
  5
550
100
AcDbEntity
  8
ASSI
100
AcDbEllipse
 62
7
  6
CONTINUOUS
 10
-11.0764326706
 20
-22.5392953814
 30
0.0
 11
0.0
 21
0.3
 31
0.0
 40
0.0261859216
 41
-1.5707963268
 42
-0.872664626
  0
ELLIPSE
  5
551
100
AcDbEntity
  8
ASSI
100
AcDbEllipse
 62
7
  6
CONTINUOUS
 10
11.0764326706
 20
-22.5392953814
 30
0.0
 11
0.0
 21
0.3
 31
0.0
 40
0.0261859216
 41
0.872664626
 42
1.5707963268
  0
ELLIPSE
  5
552
100
AcDbEntity
  8
ASSI
100
AcDbEllipse
 62
7
  6
CONTINUOUS
 10
10.0909483277
 20
-16.3201430126
 30
0.0
 11
0.2000077139
 21
-0.0000247624
 31
0.0
 40
0.1226530123
 41
0.0010855627
 42
1.5718057371
  0
ELLIPSE
  5
553
100
AcDbEntity
  8
ASSI
100
AcDbEllipse
 62
7
  6
CONTINUOUS
 10
-10.0909483277
 20
-16.3201430126
 30
0.0
 11
0.2000077139
 21
0.0000247624
 31
0.0
 40
0.1226530123
 41
1.5697869165
 42
3.1405070909
  0
ELLIPSE
  5
554
100
AcDbEntity
  8
ASSI
100
AcDbEllipse
 62
7
  6
CONTINUOUS
 10
10.0243516415
 20
18.7518769438
 30
0.0
 11
-0.0
 21
0.3
 31
0.0
 40
0.0261859216
 41
-1.6493361431
 42
-0.1745329252
  0
ELLIPSE
  5
555
100
AcDbEntity
  8
ASSI
100
AcDbEllipse
 62
7
  6
CONTINUOUS
 10
10.0834178773
 20
7.5527731214
 30
0.0
 11
0.0
 21
0.3
 31
0.0
 40
0.0261859216
 41
-3.0630528372
 42
-1.5707963268
  0
ELLIPSE
  5
556
100
AcDbEntity
  8
ASSI
100
AcDbEllipse
 62
7
  6
CONTINUOUS
 10
10.0834178773
 20
10.4472268786
 30
0.0
 11
0.0
 21
0.3
 31
0.0
 40
0.0261859216
 41
-1.5707963268
 42
-0.0785398163
  0
ELLIPSE
  5
557
100
AcDbEntity
  8
ASSI
100
AcDbEllipse
 62
7
  6
CONTINUOUS
 10
11.0917587697
 20
18.7518769438
 30
0.0
 11
-0.0
 21
0.3
 31
0.0
 40
0.0087268678
 41
0.1745329252
 42
1.6493361431
  0
ELLIPSE
  5
558
100
AcDbEntity
  8
ASSI
100
AcDbEllipse
 62
7
  6
CONTINUOUS
 10
-9.9812927832
 20
-21.3675103668
 30
0.0
 11
-0.0
 21
0.3
 31
0.0
 40
0.0261859216
 41
-4.7123889804
 42
-4.0142572796
  0
ELLIPSE
  5
559
100
AcDbEntity
  8
ASSI
100
AcDbEllipse
 62
7
  6
CONTINUOUS
 10
-10.0243516415
 20
18.7518769438
 30
0.0
 11
0.0
 21
0.3
 31
0.0
 40
0.0261859216
 41
0.1745329252
 42
1.6493361431
  0
ELLIPSE
  5
55A
100
AcDbEntity
  8
ASSI
100
AcDbEllipse
 62
7
  6
CONTINUOUS
 10
-10.0834178773
 20
10.4472268786
 30
0.0
 11
0.0
 21
0.3
 31
0.0
 40
0.0261859216
 41
0.0785398163
 42
1.5707963268
  0
ELLIPSE
  5
55B
100
AcDbEntity
  8
ASSI
100
AcDbEllipse
 62
7
  6
CONTINUOUS
 10
-10.0834178773
 20
7.5527731214
 30
0.0
 11
0.0
 21
0.3
 31
0.0
 40
0.0261859216
 41
-4.7123889804
 42
-3.2201324699
  0
ELLIPSE
  5
55C
100
AcDbEntity
  8
ASSI
100
AcDbEllipse
 62
7
  6
CONTINUOUS
 10
1.7102933676
 20
25.215292126
 30
0.0
 11
0.3
 21
0.0
 31
0.0
 40
0.0261859216
 41
0.034906585
 42
1.5707963268
  0
ELLIPSE
  5
55D
100
AcDbEntity
  8
ASSI
100
AcDbEllipse
 62
7
  6
CONTINUOUS
 10
-1.7102933676
 20
25.215292126
 30
0.0
 11
0.3
 21
0.0
 31
0.0
 40
0.0261859216
 41
1.5707963268
 42
3.1066860686
  0
ELLIPSE
  5
55E
100
AcDbEntity
  8
ASSI
100
AcDbEllipse
 62
7
  6
CONTINUOUS
 10
11.0720740231
 20
7.5527731214
 30
0.0
 11
-0.0
 21
0.3
 31
0.0
 40
0.0087268678
 41
-4.7123889804
 42
-3.2201324699
  0
ELLIPSE
  5
55F
100
AcDbEntity
  8
ASSI
100
AcDbEllipse
 62
7
  6
CONTINUOUS
 10
11.0720740231
 20
10.4472268786
 30
0.0
 11
0.0
 21
0.3
 31
0.0
 40
0.0087268678
 41
0.0785398163
 42
1.5707963268
  0
ELLIPSE
  5
560
100
AcDbEntity
  8
ASSI
100
AcDbEllipse
 62
7
  6
CONTINUOUS
 10
-11.0917587697
 20
18.7518769438
 30
0.0
 11
0.0
 21
0.3
 31
0.0
 40
0.0087268678
 41
-1.6493361431
 42
-0.1745329252
  0
ELLIPSE
  5
561
100
AcDbEntity
  8
ASSI
100
AcDbEllipse
 62
7
  6
CONTINUOUS
 10
-11.0941604194
 20
15.2551064905
 30
0.0
 11
-0.0
 21
0.3
 31
0.0
 40
0.0087268678
 41
-2.9670597284
 42
-1.6493361431
  0
ELLIPSE
  5
562
100
AcDbEntity
  8
ASSI
100
AcDbEllipse
 62
7
  6
CONTINUOUS
 10
-1.7102933676
 20
26.3947665708
 30
0.0
 11
0.3
 21
0.0
 31
0.0
 40
0.0087268678
 41
-3.1066860685
 42
-1.5707963268
  0
ELLIPSE
  5
563
100
AcDbEntity
  8
ASSI
100
AcDbEllipse
 62
7
  6
CONTINUOUS
 10
1.7102933676
 20
26.3947665708
 30
0.0
 11
0.3
 21
0.0
 31
0.0
 40
0.0087268678
 41
-1.5707963268
 42
-0.034906585
  0
ELLIPSE
  5
564
100
AcDbEntity
  8
ASSI
100
AcDbEllipse
 62
7
  6
CONTINUOUS
 10
-11.0720740231
 20
10.4472268786
 30
0.0
 11
0.0
 21
0.3
 31
0.0
 40
0.0087268678
 41
-1.5707963268
 42
-0.0785398163
  0
ELLIPSE
  5
565
100
AcDbEntity
  8
ASSI
100
AcDbEllipse
 62
7
  6
CONTINUOUS
 10
-11.0720740231
 20
7.5527731214
 30
0.0
 11
0.0
 21
0.3
 31
0.0
 40
0.0087268678
 41
-3.0630528372
 42
-1.5707963268
  0
ELLIPSE
  5
566
100
AcDbEntity
  8
ASSI
100
AcDbEllipse
 62
7
  6
CONTINUOUS
 10
-10.9999657208
 20
11.0592712189
 30
0.0
 11
-0.6545705536
 21
0.7570603242
 31
0.0
 40
0.9991994902
 41
-2.0636122861
 42
-2.0222327614
  0
ELLIPSE
  5
567
100
AcDbEntity
  8
ASSI
100
AcDbEllipse
 62
7
  6
CONTINUOUS
 10
10.9999657208
 20
11.0592712189
 30
0.0
 11
0.6545705536
 21
0.7570603242
 31
0.0
 40
0.9991994902
 41
-4.2609525458
 42
-4.2195730211
  0
ELLIPSE
  5
568
100
AcDbEntity
  8
ASSI
100
AcDbEllipse
 62
7
  6
CONTINUOUS
 10
11.0941604194
 20
15.2551064905
 30
0.0
 11
0.0
 21
0.3
 31
0.0
 40
0.0087268678
 41
-4.633849164
 42
-3.3161255788
  0
ELLIPSE
  5
569
100
AcDbEntity
  8
ASSI
100
AcDbEllipse
 62
7
  6
CONTINUOUS
 10
11.0308292606
 20
17.9050327642
 30
0.0
 11
0.9683010547
 21
0.2518091957
 31
0.0
 40
0.9974091799
 41
2.8857502985
 42
3.1476316333
  0
ELLIPSE
  5
56A
100
AcDbEntity
  8
ASSI
100
AcDbEllipse
 62
7
  6
CONTINUOUS
 10
10.0074787047
 20
11.2773171475
 30
0.0
 11
0.0
 21
0.3
 31
0.0
 40
0.0261859216
 41
-3.9083154373
 42
-3.2201324699
  0
ELLIPSE
  5
56B
100
AcDbEntity
  8
ASSI
100
AcDbEllipse
 62
7
  6
CONTINUOUS
 10
11.0973819397
 20
11.2773171475
 30
0.0
 11
0.0
 21
0.3
 31
0.0
 40
0.0087268678
 41
-3.0630528372
 42
-1.5707963268
  0
ELLIPSE
  5
56C
100
AcDbEntity
  8
ASSI
100
AcDbEllipse
 62
7
  6
CONTINUOUS
 10
11.0973819397
 20
6.7226828525
 30
0.0
 11
-0.0
 21
0.3
 31
0.0
 40
0.0087268678
 41
-1.5707963268
 42
-0.0785398163
  0
ELLIPSE
  5
56D
100
AcDbEntity
  8
ASSI
100
AcDbEllipse
 62
7
  6
CONTINUOUS
 10
10.0074787047
 20
6.7226828525
 30
0.0
 11
0.0
 21
0.3
 31
0.0
 40
0.0261859216
 41
0.0785398163
 42
1.5707963268
  0
ELLIPSE
  5
56E
100
AcDbEntity
  8
ASSI
100
AcDbEllipse
 62
7
  6
CONTINUOUS
 10
-11.0973819397
 20
11.2773171475
 30
0.0
 11
0.0
 21
0.3
 31
0.0
 40
0.0087268678
 41
1.5707963268
 42
3.0630528372
  0
ELLIPSE
  5
56F
100
AcDbEntity
  8
ASSI
100
AcDbEllipse
 62
7
  6
CONTINUOUS
 10
-10.0074787047
 20
11.2773171475
 30
0.0
 11
0.0
 21
0.3
 31
0.0
 40
0.0261859216
 41
-3.0630528372
 42
-2.3748698699
  0
ELLIPSE
  5
570
100
AcDbEntity
  8
ASSI
100
AcDbEllipse
 62
7
  6
CONTINUOUS
 10
-10.0074787047
 20
6.7226828525
 30
0.0
 11
0.0
 21
0.3
 31
0.0
 40
0.0261859216
 41
-1.5707963268
 42
-0.0785398163
  0
ELLIPSE
  5
571
100
AcDbEntity
  8
ASSI
100
AcDbEllipse
 62
7
  6
CONTINUOUS
 10
-11.0973819397
 20
6.7226828525
 30
0.0
 11
0.0
 21
0.3
 31
0.0
 40
0.0087268678
 41
0.0785398163
 42
1.5707963268
  0
ELLIPSE
  5
572
100
AcDbEntity
  8
ASSI
100
AcDbEllipse
 62
7
  6
CONTINUOUS
 10
5.1630520446
 20
-19.9630520446
 30
0.0
 11
0.1881537843
 21
0.0680623715
 31
0.0
 40
0.9976165555
 41
-1.9186536692
 42
-0.3481619289
  0
ELLIPSE
  5
573
100
AcDbEntity
  8
ASSI
100
AcDbEllipse
 62
7
  6
CONTINUOUS
 10
-5.1630520446
 20
-19.9630520446
 30
0.0
 11
0.1881537843
 21
-0.0680623715
 31
0.0
 40
0.9976165555
 41
-2.7934307246
 42
-1.2229389843
  0
ELLIPSE
  5
574
100
AcDbEntity
  8
ASSI
100
AcDbEllipse
 62
7
  6
CONTINUOUS
 10
-4.7307223019
 20
-13.7210675705
 30
0.0
 11
5.2689006264
 21
-0.0
 31
0.0
 40
0.9489645667
 41
-3.1415926536
 42
-3.0630528373
  0
ELLIPSE
  5
575
100
AcDbEntity
  8
ASSI
100
AcDbEllipse
 62
7
  6
CONTINUOUS
 10
4.7307223019
 20
-13.7210675705
 30
0.0
 11
5.2689006264
 21
-0.0
 31
0.0
 40
0.9489645667
 41
-0.0785398163
 42
0.0
  0
ELLIPSE
  5
576
100
AcDbEntity
  8
ASSI
100
AcDbEllipse
 62
7
  6
CONTINUOUS
 10
-11.0308292606
 20
17.9050327642
 30
0.0
 11
0.9683010547
 21
-0.2518091957
 31
0.0
 40
0.9974091799
 41
-0.0060389797
 42
0.2558423551
  0
ELLIPSE
  5
577
100
AcDbEntity
  8
ASSI
100
AcDbEllipse
 62
7
  6
CONTINUOUS
 10
5.2369006444
 20
-20.0369006444
 30
0.0
 11
-0.4191934034
 21
0.9106318789
 31
0.0
 40
0.9971836448
 41
-3.5719354526
 42
-2.0014437123
  0
ELLIPSE
  5
578
100
AcDbEntity
  8
ASSI
100
AcDbEllipse
 62
7
  6
CONTINUOUS
 10
-5.2369006444
 20
-20.0369006444
 30
0.0
 11
0.4191934034
 21
0.9106318789
 31
0.0
 40
0.9971836448
 41
-4.2817415948
 42
-2.7112498545
  0
ELLIPSE
  5
579
100
AcDbEntity
  8
ASSI
100
AcDbEllipse
 62
7
  6
CONTINUOUS
 10
-5.5664090993
 20
-18.1664090993
 30
0.0
 11
0.1881537843
 21
-0.0680623715
 31
0.0
 40
0.9976165555
 41
0.3481619289
 42
1.9186536692
  0
ELLIPSE
  5
57A
100
AcDbEntity
  8
ASSI
100
AcDbEllipse
 62
7
  6
CONTINUOUS
 10
-6.0335909007
 20
-18.1664090993
 30
0.0
 11
0.1881537843
 21
0.0680623715
 31
0.0
 40
0.9976165555
 41
1.2229389843
 42
2.7934307246
  0
ELLIPSE
  5
57B
100
AcDbEntity
  8
ASSI
100
AcDbEllipse
 62
7
  6
CONTINUOUS
 10
0.396508987
 20
24.9366738787
 30
0.0
 11
0.0
 21
0.2
 31
0.0
 40
0.0174550649
 41
-1.5707963268
 42
-0.0261799388
  0
ELLIPSE
  5
57C
100
AcDbEntity
  8
ASSI
100
AcDbEllipse
 62
7
  6
CONTINUOUS
 10
-0.396508987
 20
24.9366738787
 30
0.0
 11
0.0
 21
0.2
 31
0.0
 40
0.0174550649
 41
0.0261799388
 42
1.5707963268
  0
ELLIPSE
  5
57D
100
AcDbEntity
  8
ASSI
100
AcDbEllipse
 62
7
  6
CONTINUOUS
 10
6.0335909007
 20
-18.1664090993
 30
0.0
 11
0.1881537843
 21
-0.0680623715
 31
0.0
 40
0.9976165555
 41
0.3481619289
 42
1.9186536692
  0
ELLIPSE
  5
57E
100
AcDbEntity
  8
ASSI
100
AcDbEllipse
 62
7
  6
CONTINUOUS
 10
5.5664090993
 20
-18.1664090993
 30
0.0
 11
0.1881537843
 21
0.0680623715
 31
0.0
 40
0.9976165555
 41
1.2229389843
 42
2.7934307246
  0
ELLIPSE
  5
57F
100
AcDbEntity
  8
ASSI
100
AcDbEllipse
 62
7
  6
CONTINUOUS
 10
2.3211245552
 20
26.3973819397
 30
0.0
 11
0.3
 21
0.0
 31
0.0
 40
0.0087268678
 41
1.5707963268
 42
3.1066860685
  0
ELLIPSE
  5
580
100
AcDbEntity
  8
ASSI
100
AcDbEllipse
 62
7
  6
CONTINUOUS
 10
2.3211245552
 20
25.2074444255
 30
0.0
 11
0.3
 21
0.0
 31
0.0
 40
0.0261859216
 41
-3.1066860686
 42
-1.5707963268
  0
ELLIPSE
  5
581
100
AcDbEntity
  8
ASSI
100
AcDbEllipse
 62
7
  6
CONTINUOUS
 10
-9.7055412804
 20
-11.1747774755
 30
0.0
 11
0.2000007562
 21
0.0000004622
 31
0.0
 40
0.0087668631
 41
2.4426156716
 42
3.1152925846
  0
ELLIPSE
  5
582
100
AcDbEntity
  8
ASSI
100
AcDbEllipse
 62
7
  6
CONTINUOUS
 10
9.7055412804
 20
-11.1747774755
 30
0.0
 11
0.2000007562
 21
-0.0000004622
 31
0.0
 40
0.0087668631
 41
0.026300069
 42
0.698976982
  0
ELLIPSE
  5
583
100
AcDbEntity
  8
ASSI
100
AcDbEllipse
 62
7
  6
CONTINUOUS
 10
10.3070632195
 20
15.2551064905
 30
0.0
 11
0.0
 21
0.3
 31
0.0
 40
0.0174550649
 41
-2.9670597284
 42
-1.6493361431
  0
ELLIPSE
  5
584
100
AcDbEntity
  8
ASSI
100
AcDbEllipse
 62
7
  6
CONTINUOUS
 10
-10.3070632195
 20
15.2551064905
 30
0.0
 11
0.0
 21
0.3
 31
0.0
 40
0.0174550649
 41
-4.633849164
 42
-3.3161255788
  0
ELLIPSE
  5
585
100
AcDbEntity
  8
ASSI
100
AcDbEllipse
 62
7
  6
CONTINUOUS
 10
-9.6754950299
 20
-22.0917496495
 30
0.0
 11
0.2000007605
 21
-0.0000011823
 31
0.0
 40
0.0175834031
 41
-3.1152199784
 42
-1.5704601414
  0
ELLIPSE
  5
586
100
AcDbEntity
  8
ASSI
100
AcDbEllipse
 62
7
  6
CONTINUOUS
 10
-2.3211245552
 20
25.2074444255
 30
0.0
 11
0.3
 21
-0.0
 31
0.0
 40
0.0261859216
 41
-1.5707963268
 42
-0.034906585
  0
ELLIPSE
  5
587
100
AcDbEntity
  8
ASSI
100
AcDbEllipse
 62
7
  6
CONTINUOUS
 10
-10.1345259601
 20
-21.313645087
 30
0.0
 11
0.200007617
 21
0.0000004176
 31
0.0
 40
0.0174533805
 41
2.3298949198
 42
3.1414403038
  0
ELLIPSE
  5
588
100
AcDbEntity
  8
ASSI
100
AcDbEllipse
 62
7
  6
CONTINUOUS
 10
-9.6777573565
 20
-21.2697583767
 30
0.0
 11
0.2000007549
 21
0.0000008393
 31
0.0
 40
0.0175190052
 41
1.5705567825
 42
3.1153166194
  0
ELLIPSE
  5
589
100
AcDbEntity
  8
ASSI
100
AcDbEllipse
 62
7
  6
CONTINUOUS
 10
9.6777573565
 20
-21.2697583767
 30
0.0
 11
0.2000007549
 21
-0.0000008393
 31
0.0
 40
0.0175190052
 41
0.0262760342
 42
1.5710358711
  0
ELLIPSE
  5
58A
100
AcDbEntity
  8
ASSI
100
AcDbEllipse
 62
7
  6
CONTINUOUS
 10
10.1345426629
 20
-21.3155590387
 30
0.0
 11
0.2000076202
 21
-0.0000007845
 31
0.0
 40
0.0174575215
 41
0.7203849906
 42
0.8117666532
  0
ELLIPSE
  5
58B
100
AcDbEntity
  8
ASSI
100
AcDbEllipse
 62
7
  6
CONTINUOUS
 10
-2.3211245552
 20
26.3973819397
 30
0.0
 11
0.3
 21
-0.0
 31
0.0
 40
0.0087268678
 41
0.034906585
 42
1.5707963268
  0
ELLIPSE
  5
58C
100
AcDbEntity
  8
ASSI
100
AcDbEllipse
 62
7
  6
CONTINUOUS
 10
9.6754950299
 20
-22.0917496495
 30
0.0
 11
0.2000007605
 21
0.0000011823
 31
0.0
 40
0.0175834031
 41
-1.5711325122
 42
-0.0263726752
  0
ELLIPSE
  5
58D
100
AcDbEntity
  8
ASSI
100
AcDbEllipse
 62
7
  6
CONTINUOUS
 10
-0.1860054824
 20
25.1524539902
 30
0.0
 11
0.2
 21
0.0
 31
0.0
 40
0.0261859216
 41
1.5707963268
 42
3.1241393611
  0
ELLIPSE
  5
58E
100
AcDbEntity
  8
ASSI
100
AcDbEllipse
 62
7
  6
CONTINUOUS
 10
-0.1999695344
 20
21.6030853224
 30
0.0
 11
0.0200091116
 21
0.2021273628
 31
0.0
 40
0.9846622838
 41
-4.6121910857
 42
-3.0444253421
  0
ELLIPSE
  5
58F
100
AcDbEntity
  8
ASSI
100
AcDbEllipse
 62
7
  6
CONTINUOUS
 10
0.1999695344
 20
21.6030853224
 30
0.0
 11
-0.0200091116
 21
0.2021273628
 31
0.0
 40
0.9846622838
 41
-3.2387599651
 42
-1.6709942215
  0
ELLIPSE
  5
590
100
AcDbEntity
  8
ASSI
100
AcDbEllipse
 62
7
  6
CONTINUOUS
 10
0.1860054824
 20
25.1524539902
 30
0.0
 11
0.2
 21
-0.0
 31
0.0
 40
0.0261859216
 41
0.0174532925
 42
1.5707963268
  0
ELLIPSE
  5
591
100
AcDbEntity
  8
ASSI
100
AcDbEllipse
 62
7
  6
CONTINUOUS
 10
-9.2952308408
 20
12.4256977444
 30
0.0
 11
0.9915985036
 21
0.1305464196
 31
0.0
 40
0.999845056
 41
3.010713011
 42
3.2724722962
  0
ELLIPSE
  5
592
100
AcDbEntity
  8
ASSI
100
AcDbEllipse
 62
7
  6
CONTINUOUS
 10
-9.3139792306
 20
16.5767705279
 30
0.0
 11
-0.7001288175
 21
0.7152420668
 31
0.0
 40
0.9985867857
 41
0.5349832444
 42
0.7967425296
  0
ELLIPSE
  5
593
100
AcDbEntity
  8
ASSI
100
AcDbEllipse
 62
7
  6
CONTINUOUS
 10
9.2952308408
 20
12.4256977444
 30
0.0
 11
0.9915985036
 21
-0.1305464196
 31
0.0
 40
0.999845056
 41
-0.1308796426
 42
0.1308796426
  0
ELLIPSE
  5
594
100
AcDbEntity
  8
ASSI
100
AcDbEllipse
 62
7
  6
CONTINUOUS
 10
9.3139792306
 20
16.5767705279
 30
0.0
 11
0.7001288175
 21
0.7152420668
 31
0.0
 40
0.9985867857
 41
-0.7967425296
 42
-0.5349832443
  0
ELLIPSE
  5
595
100
AcDbEntity
  8
ASSI
100
AcDbEllipse
 62
7
  6
CONTINUOUS
 10
5.7999695344
 20
-1.2
 30
0.0
 11
0.2
 21
0.0
 31
0.0
 40
0.0174550649
 41
0.0174532925
 42
1.5707963268
  0
ELLIPSE
  5
596
100
AcDbEntity
  8
ASSI
100
AcDbEllipse
 62
7
  6
CONTINUOUS
 10
5.4451426712
 20
-1.2
 30
0.0
 11
0.2
 21
-0.0
 31
0.0
 40
0.0174550649
 41
1.5707963268
 42
3.1241393611
  0
ELLIPSE
  5
597
100
AcDbEntity
  8
ASSI
100
AcDbEllipse
 62
7
  6
CONTINUOUS
 10
-5.4451426712
 20
-1.2
 30
0.0
 11
0.2
 21
0.0
 31
0.0
 40
0.0174550649
 41
0.0174532925
 42
1.5707963268
  0
ELLIPSE
  5
598
100
AcDbEntity
  8
ASSI
100
AcDbEllipse
 62
7
  6
CONTINUOUS
 10
-5.7999695344
 20
-1.2
 30
0.0
 11
0.2
 21
-0.0
 31
0.0
 40
0.0174550649
 41
1.5707963268
 42
3.1241393611
  0
ELLIPSE
  5
599
100
AcDbEntity
  8
ASSI
100
AcDbEllipse
 62
7
  6
CONTINUOUS
 10
8.2357508046
 20
-21.5657508046
 30
0.0
 11
0.2822306764
 21
0.1020935573
 31
0.0
 40
0.9976165555
 41
1.2229389843
 42
2.7934307246
  0
ELLIPSE
  5
59A
100
AcDbEntity
  8
ASSI
100
AcDbEllipse
 62
7
  6
CONTINUOUS
 10
9.9603440459
 20
-21.6248091789
 30
0.0
 11
-0.0
 21
0.3
 31
0.0
 40
0.0261859216
 41
-1.5707963268
 42
-0.0174532925
  0
ELLIPSE
  5
59B
100
AcDbEntity
  8
ASSI
100
AcDbEllipse
 62
7
  6
CONTINUOUS
 10
8.2353308307
 20
-21.7946691693
 30
0.0
 11
0.125758021
 21
0.2731895637
 31
0.0
 40
0.9971836448
 41
-4.2817415948
 42
-2.7112498545
  0
ELLIPSE
  5
59C
100
AcDbEntity
  8
ASSI
100
AcDbEllipse
 62
7
  6
CONTINUOUS
 10
9.9603440459
 20
-21.7351908211
 30
0.0
 11
-0.0
 21
0.3
 31
0.0
 40
0.0261859216
 41
-3.1241393611
 42
-1.5707963268
  0
ELLIPSE
  5
59D
100
AcDbEntity
  8
ASSI
100
AcDbEllipse
 62
7
  6
CONTINUOUS
 10
-8.2357508046
 20
-21.5657508046
 30
0.0
 11
0.2822306764
 21
-0.1020935573
 31
0.0
 40
0.9976165555
 41
0.3481619289
 42
1.9186536692
  0
ELLIPSE
  5
59E
100
AcDbEntity
  8
ASSI
100
AcDbEllipse
 62
7
  6
CONTINUOUS
 10
-9.9603440459
 20
-21.6248091789
 30
0.0
 11
0.0
 21
0.3
 31
0.0
 40
0.0261859216
 41
0.0174532925
 42
1.5707963268
  0
ELLIPSE
  5
59F
100
AcDbEntity
  8
ASSI
100
AcDbEllipse
 62
7
  6
CONTINUOUS
 10
-8.2353308307
 20
-21.7946691693
 30
0.0
 11
-0.125758021
 21
0.2731895637
 31
0.0
 40
0.9971836448
 41
-3.5719354526
 42
-2.0014437123
  0
ELLIPSE
  5
5A0
100
AcDbEntity
  8
ASSI
100
AcDbEllipse
 62
7
  6
CONTINUOUS
 10
-9.9603440459
 20
-21.7351908211
 30
0.0
 11
0.0
 21
0.3
 31
0.0
 40
0.0261859216
 41
-4.7123889804
 42
-3.1590459461
  0
ELLIPSE
  5
5A1
100
AcDbEntity
  8
ASSI
100
AcDbEllipse
 62
7
  6
CONTINUOUS
 10
-9.9760555988
 20
-22.5392953814
 30
0.0
 11
0.0
 21
0.3
 31
0.0
 40
0.0261859216
 41
-1.5707963268
 42
-0.872664626
  0
ELLIPSE
  5
5A2
100
AcDbEntity
  8
ASSI
100
AcDbEllipse
 62
7
  6
CONTINUOUS
 10
9.9760555988
 20
-22.5392953814
 30
0.0
 11
0.0
 21
0.3
 31
0.0
 40
0.0261859216
 41
0.872664626
 42
1.5707963268
  0
ELLIPSE
  5
5A3
100
AcDbEntity
  8
ASSI
100
AcDbEllipse
 62
7
  6
CONTINUOUS
 10
9.9812927832
 20
-21.3675103668
 30
0.0
 11
-0.0
 21
0.3
 31
0.0
 40
0.0261859216
 41
-2.2689280276
 42
-1.5707963268
  0
ELLIPSE
  5
5A4
100
AcDbEntity
  8
ASSI
100
AcDbEllipse
 62
7
  6
CONTINUOUS
 10
10.3006196883
 20
14.580759479
 30
0.0
 11
0.0
 21
0.3
 31
0.0
 40
0.0174550649
 41
0.1745329252
 42
1.5707963268
  0
ELLIPSE
  5
5A5
100
AcDbEntity
  8
ASSI
100
AcDbEllipse
 62
7
  6
CONTINUOUS
 10
11.0973819397
 20
14.580759479
 30
0.0
 11
0.0
 21
0.3
 31
0.0
 40
0.0087268678
 41
-1.5707963268
 42
-0.1745329252
  0
ELLIPSE
  5
5A6
100
AcDbEntity
  8
ASSI
100
AcDbEllipse
 62
7
  6
CONTINUOUS
 10
11.0973819397
 20
19.4747494584
 30
0.0
 11
0.0
 21
0.3
 31
0.0
 40
0.0087268678
 41
-2.9670597284
 42
-1.5707963268
  0
ELLIPSE
  5
5A7
100
AcDbEntity
  8
ASSI
100
AcDbEllipse
 62
7
  6
CONTINUOUS
 10
10.0074787047
 20
19.4747494584
 30
0.0
 11
-0.0
 21
0.3
 31
0.0
 40
0.0261859216
 41
-4.7123889804
 42
-3.3161255788
  0
ELLIPSE
  5
5A8
100
AcDbEntity
  8
ASSI
100
AcDbEllipse
 62
7
  6
CONTINUOUS
 10
-11.0973819397
 20
14.580759479
 30
0.0
 11
0.0
 21
0.3
 31
0.0
 40
0.0087268678
 41
0.1745329252
 42
1.5707963268
  0
ELLIPSE
  5
5A9
100
AcDbEntity
  8
ASSI
100
AcDbEllipse
 62
7
  6
CONTINUOUS
 10
-10.3006196883
 20
14.580759479
 30
0.0
 11
0.0
 21
0.3
 31
0.0
 40
0.0174550649
 41
-1.5707963268
 42
-0.1745329252
  0
ELLIPSE
  5
5AA
100
AcDbEntity
  8
ASSI
100
AcDbEllipse
 62
7
  6
CONTINUOUS
 10
-10.0074787047
 20
19.4747494584
 30
0.0
 11
-0.0
 21
0.3
 31
0.0
 40
0.0261859216
 41
-2.9670597284
 42
-1.5707963268
  0
ELLIPSE
  5
5AB
100
AcDbEntity
  8
ASSI
100
AcDbEllipse
 62
7
  6
CONTINUOUS
 10
-11.0973819397
 20
19.4747494584
 30
0.0
 11
-0.0
 21
0.3
 31
0.0
 40
0.0087268678
 41
-4.7123889804
 42
-3.3161255788
  0
ELLIPSE
  5
5AC
100
AcDbEntity
  8
ASSI
100
AcDbEllipse
 62
7
  6
CONTINUOUS
 10
-9.8578484268
 20
-11.3728484268
 30
0.0
 11
0.1864431383
 21
-0.0724919819
 31
0.0
 40
0.9987569152
 41
0.3713240022
 42
1.0736594488
  0
ELLIPSE
  5
5AD
100
AcDbEntity
  8
ASSI
100
AcDbEllipse
 62
7
  6
CONTINUOUS
 10
9.8578484268
 20
-11.3728484268
 30
0.0
 11
0.1864431383
 21
0.0724919819
 31
0.0
 40
0.9987569152
 41
2.0679332048
 42
2.7702686513
  0
ELLIPSE
  5
5AE
100
AcDbEntity
  8
ASSI
100
AcDbEllipse
 62
7
  6
CONTINUOUS
 10
-10.1291621706
 20
-21.3039325027
 30
0.0
 11
0.2000000104
 21
-0.0000000058
 31
0.0
 40
0.017452634
 41
-0.8116125323
 42
-0.0261762927
  0
ELLIPSE
  5
5AF
100
AcDbEntity
  8
ASSI
100
AcDbEllipse
 62
7
  6
CONTINUOUS
 10
9.7995543698
 20
24.9995200905
 30
0.0
 11
0.141518296
 21
0.141518296
 31
0.0
 40
0.999315002
 41
-0.7850555471
 42
0.7850555471
  0
ELLIPSE
  5
5B0
100
AcDbEntity
  8
ASSI
100
AcDbEllipse
 62
7
  6
CONTINUOUS
 10
10.1321036314
 20
-21.3058932277
 30
0.0
 11
0.2
 21
-0.0
 31
0.0
 40
0.0174550649
 41
-3.1154127148
 42
-2.3300145514
  0
ELLIPSE
  5
5B1
100
AcDbEntity
  8
ASSI
100
AcDbEllipse
 62
7
  6
CONTINUOUS
 10
9.7681312639
 20
-24.9680969846
 30
0.0
 11
-0.141518296
 21
0.141518296
 31
0.0
 40
0.999315002
 41
-3.9266482006
 42
-2.3565371065
  0
ELLIPSE
  5
5B2
100
AcDbEntity
  8
ASSI
100
AcDbEllipse
 62
7
  6
CONTINUOUS
 10
-9.7681312639
 20
-24.9680969846
 30
0.0
 11
0.141518296
 21
0.141518296
 31
0.0
 40
0.999315002
 41
-3.9266482006
 42
-2.3565371065
  0
ELLIPSE
  5
5B3
100
AcDbEntity
  8
ASSI
100
AcDbEllipse
 62
7
  6
CONTINUOUS
 10
-9.7995543698
 20
24.9995200905
 30
0.0
 11
0.141518296
 21
-0.141518296
 31
0.0
 40
0.999315002
 41
2.3565371065
 42
3.9266482006
  0
ENDSEC
  0
SECTION
  2
OBJECTS
  0
DICTIONARY
  5
C
100
AcDbDictionary
280
0
281
1
  3
ACAD_GROUP
350
D
  3
ACAD_MLINESTYLE
350
17
  3
ACAD_LAYOUT
350
1A
  3
ACAD_PLOTSETTINGS
350
19
  3
ACAD_PLOTSTYLENAME
350
E
  0
DICTIONARY
  5
D
102
{ACAD_REACTORS
330
C
102
}
100
AcDbDictionary
280
0
281
1
  0
ACDBDICTIONARYWDFLT
  5
E
102
{ACAD_REACTORS
330
C
102
}
100
AcDbDictionary
281
1
  3
Normal
350
F
100
AcDbDictionaryWithDefault
340
F
  0
DICTIONARY
  5
17
102
{ACAD_REACTORS
330
C
102
}
100
AcDbDictionary
280
0
281
1
  3
Standard
350
18
  0
DICTIONARY
  5
19
102
{ACAD_REACTORS
330
C
102
}
100
AcDbDictionary
281
1
  0
DICTIONARY
  5
1A
102
{ACAD_REACTORS
330
C
102
}
100
AcDbDictionary
281
1
  3
Model
350
5B4
  3
Layout1
350
5B5
  0
ACDBPLACEHOLDER
  5
F
102
{ACAD_REACTORS
330
E
102
}
  0
MLINESTYLE
  5
18
102
{ACAD_REACTORS
330
17
102
}
100
AcDbMlineStyle
  2
STANDARD
 70
0
  3

 62
256
 51
90.0
 52
90.0
 71
2
 49
0.5
 62
256
  6
BYLAYER
 49
-0.5
 62
256
  6
BYLAYER
  0
LAYOUT
  5
5B4
102
{ACAD_REACTORS
330
1A
102
}
100
AcDbPlotSettings
  1

  2
none_device
  4
ISO_A4_(297.00_x_210.00_MM)
  6

 40
0.0
 41
0.0
 42
0.0
 43
0.0
 44
297.0
 45
210.0
 46
0.0
 47
0.0
 48
0.0
 49
0.0
140
0.0
141
0.0
142
1.0
143
1.0
 70
1024
 72
1
 73
0
 74
0
  7

 75
0
147
1.0
148
0.0
149
0.0
100
AcDbLayout
  1
Model
 70
0
 71
0
 10
0.0
 20
0.0
 11
297.0
 21
210.0
 12
0.0
 22
0.0
 32
0.0
 14
0.0
 24
0.0
 34
0.0
 15
0.0
 25
0.0
 35
0.0
146
0.0
 13
0.0
 23
0.0
 33
0.0
 16
1.0
 26
0.0
 36
0.0
 17
0.0
 27
1.0
 37
0.0
 76
0
330
220
345
0
346
0
  0
LAYOUT
  5
5B5
102
{ACAD_REACTORS
330
1A
102
}
100
AcDbPlotSettings
  1

  2
none_device
  4
ISO_A4_(297.00_x_210.00_MM)
  6

 40
0.0
 41
0.0
 42
0.0
 43
0.0
 44
297.0
 45
210.0
 46
0.0
 47
0.0
 48
0.0
 49
0.0
140
0.0
141
0.0
142
1.0
143
1.0
 70
0
 72
1
 73
0
 74
0
  7

 75
0
147
1.0
148
0.0
149
0.0
100
AcDbLayout
  1
Layout1
 70
0
 71
1
 10
0.0
 20
0.0
 11
297.0
 21
210.0
 12
0.0
 22
0.0
 32
0.0
 14
0.0
 24
0.0
 34
0.0
 15
0.0
 25
0.0
 35
0.0
146
0.0
 13
0.0
 23
0.0
 33
0.0
 16
1.0
 26
0.0
 36
0.0
 17
0.0
 27
1.0
 37
0.0
 76
0
330
221
345
0
346
0
  0
ENDSEC
  0
EOF
