  0
SECTION
  2
HEADER
  9
$ACADVER
  1
AC1024
  9
$DWGCODEPAGE
  3
ANSI_1252
  9
$EXTMAX
 10
297.0
 20
210.0
 30
0.0
  9
$EXTMIN
 10
0.0
 20
0.0
 30
0.0
  9
$LIMMIN
 10
0.0
 20
0.0
  9
$LIMMAX
 10
297.0
 20
210.0
  9
$VIEWCTR
 10
148.5
 20
105.0
  9
$VIEWSIZE
 40
210.0
  9
$CLAYER
  8
0
  9
$LTSCALE
 40
16.335
  9
$CELTYPE
  6
BYLAYER
  9
$DIMSCALE
 40
1.0
  9
$DIMASZ
 40
3.0
  9
$DIMEXO
 40
0.5
  9
$DIMDLI
 40
11.286
  9
$DIMEXE
 40
1.5
  9
$DIMCEN
 40
2.673
  9
$DIMLFAC
 40
1.0
  9
$DIMBLK
  1
_FILLED
  9
$DIMALT
 70
0
  9
$DIMALTF
 40
0.0393700787
  9
$DIMTXT
 40
3.0
  9
$DIMTOL
 70
1
  9
$DIMLIM
 70
0
  9
$DIMTFAC
 40
1.0
  9
$DIMTP
 40
0.01
  9
$DIMTM
 40
0.01
  9
$DIMGAP
 40
0.625
  9
$DIMDSEP
 70
44
  9
$AUNITS
 70
0
  9
$PDMODE
 70
3
  9
$PDSIZE
 40
3.0
  9
$HANDSEED
  5
717
  9
$TILEMODE
 70
1
  9
$MEASUREMENT
 70
1
  9
$INSUNITS
 70
4
  0
ENDSEC
  0
SECTION
  2
CLASSES
  0
CLASS
  1
ACDBDICTIONARYWDFLT
  2
AcDbDictionaryWithDefault
  3
AutoCAD 2000
 90
0
 91
1
280
0
281
0
  0
CLASS
  1
ACDBPLACEHOLDER
  2
AcDbPlaceHolder
  3
AutoCAD 2000
 90
0
 91
1
280
0
281
0
  0
CLASS
  1
LAYOUT
  2
AcDbLayout
  3
AutoCAD 2000
 90
0
 91
0
280
0
281
0
  0
ENDSEC
  0
SECTION
  2
TABLES
  0
TABLE
  2
VPORT
  5
8
100
AcDbSymbolTable
 70
2
  0
VPORT
  5
1F4
100
AcDbSymbolTableRecord
100
AcDbViewportTableRecord
  2
*ACTIVE
 70
0
 10
0.0
 20
0.0
 11
1.0
 21
1.0
 12
148.5
 22
105.0
 13
0.0
 23
0.0
 14
1.0
 24
1.0
 15
0.0
 25
0.0
 16
0.0
 26
0.0
 36
1.0
 17
0.0
 27
0.0
 37
0.0
 40
210.0
 41
1.4142857143
 42
50.0
 43
0.0
 44
0.0
 50
0.0
 51
0.0
 71
0
 72
100
 73
1
 74
1
 75
0
 76
0
 77
0
 78
0
  0
ENDTAB
  0
TABLE
  2
LTYPE
  5
5
100
AcDbSymbolTable
 70
6
  0
LTYPE
  5
14
100
AcDbSymbolTableRecord
100
AcDbLinetypeTableRecord
  2
BYBLOCK
 70
0
  3

 72
65
 73
0
 40
0.0
  0
LTYPE
  5
15
100
AcDbSymbolTableRecord
100
AcDbLinetypeTableRecord
  2
BYLAYER
 70
0
  3

 72
65
 73
0
 40
0.0
  0
LTYPE
  5
16
100
AcDbSymbolTableRecord
100
AcDbLinetypeTableRecord
  2
CONTINUOUS
 70
64
  3
Solid line
 72
65
 73
0
 40
0.0
  0
LTYPE
  5
1F5
100
AcDbSymbolTableRecord
100
AcDbLinetypeTableRecord
  2
CENTER
 70
64
  3
____ _ ____ _ ____ _ ____ _ ____ _ ____ _ ____
 72
65
 73
4
 40
0.6
 49
0.375
 74
0
 49
-0.075
 74
0
 49
0.075
 74
0
 49
-0.075
 74
0
  0
LTYPE
  5
1F6
100
AcDbSymbolTableRecord
100
AcDbLinetypeTableRecord
  2
HIDDEN
 70
64
  3
- - - - - - - - - - - - - - - - - - - -
 72
65
 73
2
 40
0.2
 49
0.1
 74
0
 49
-0.1
 74
0
  0
LTYPE
  5
1F7
100
AcDbSymbolTableRecord
100
AcDbLinetypeTableRecord
  2
PHANTOM
 70
64
  3
_____ _ _ _____ _ _ _____ _ _ _____
 72
65
 73
6
 40
0.8
 49
0.45
 74
0
 49
-0.05
 74
0
 49
0.1
 74
0
 49
-0.05
 74
0
 49
0.1
 74
0
 49
-0.05
 74
0
  0
LTYPE
  5
1F8
100
AcDbSymbolTableRecord
100
AcDbLinetypeTableRecord
  2
DOT
 70
64
  3
. . . . . . . . . . . . . . . . . . . .
 72
65
 73
2
 40
0.2
 49
0.1
 74
0
 49
-0.1
 74
0
  0
LTYPE
  5
1F9
100
AcDbSymbolTableRecord
100
AcDbLinetypeTableRecord
  2
DASHED
 70
64
  3
- - - - - - - - - - - - - - - - - - - -
 72
65
 73
2
 40
0.2
 49
0.1
 74
0
 49
-0.1
 74
0
  0
ENDTAB
  0
TABLE
  2
LAYER
  5
2
100
AcDbSymbolTable
 70
36
  0
LAYER
  5
10
100
AcDbSymbolTableRecord
100
AcDbLayerTableRecord
  2
0
 70
0
 62
7
  6
CONTINUOUS
370
-3
390
F
  0
LAYER
  5
1FA
100
AcDbSymbolTableRecord
100
AcDbLayerTableRecord
  2
DEFAULT_1
 70
0
 62
7
  6
CENTER
370
-3
390
F
  0
LAYER
  5
1FB
100
AcDbSymbolTableRecord
100
AcDbLayerTableRecord
  2
DEFAULT_2
 70
0
 62
7
  6
HIDDEN
370
-3
390
F
  0
LAYER
  5
1FC
100
AcDbSymbolTableRecord
100
AcDbLayerTableRecord
  2
DEFAULT_3
 70
0
 62
7
  6
PHANTOM
370
-3
390
F
  0
LAYER
  5
1FD
100
AcDbSymbolTableRecord
100
AcDbLayerTableRecord
  2
ASSI
 70
0
 62
7
  6
CONTINUOUS
370
-3
390
F
  0
LAYER
  5
1FE
100
AcDbSymbolTableRecord
100
AcDbLayerTableRecord
  2
COLOR17
 70
0
 62
7
  6
CONTINUOUS
370
-3
390
F
  0
LAYER
  5
1FF
100
AcDbSymbolTableRecord
100
AcDbLayerTableRecord
  2
COLOR5
 70
0
 62
7
  6
CONTINUOUS
370
-3
390
F
  0
LAYER
  5
200
100
AcDbSymbolTableRecord
100
AcDbLayerTableRecord
  2
COORDINATE
 70
0
 62
7
  6
CONTINUOUS
370
-3
390
F
  0
LAYER
  5
201
100
AcDbSymbolTableRecord
100
AcDbLayerTableRecord
  2
COPY_PUBLISH
 70
0
 62
7
  6
CONTINUOUS
370
-3
390
F
  0
LAYER
  5
202
100
AcDbSymbolTableRecord
100
AcDbLayerTableRecord
  2
COSMETICI
 70
0
 62
7
  6
CONTINUOUS
370
-3
390
F
  0
LAYER
  5
203
100
AcDbSymbolTableRecord
100
AcDbLayerTableRecord
  2
CURVE
 70
0
 62
7
  6
CONTINUOUS
370
-3
390
F
  0
LAYER
  5
204
100
AcDbSymbolTableRecord
100
AcDbLayerTableRecord
  2
DRAFT
 70
0
 62
7
  6
CONTINUOUS
370
-3
390
F
  0
LAYER
  5
205
100
AcDbSymbolTableRecord
100
AcDbLayerTableRecord
  2
IMPORT_IGES
 70
0
 62
7
  6
CONTINUOUS
370
-3
390
F
  0
LAYER
  5
206
100
AcDbSymbolTableRecord
100
AcDbLayerTableRecord
  2
INTF_1
 70
0
 62
7
  6
CONTINUOUS
370
-3
390
F
  0
LAYER
  5
207
100
AcDbSymbolTableRecord
100
AcDbLayerTableRecord
  2
INTF_10
 70
0
 62
7
  6
CONTINUOUS
370
-3
390
F
  0
LAYER
  5
208
100
AcDbSymbolTableRecord
100
AcDbLayerTableRecord
  2
INTF_11
 70
0
 62
7
  6
CONTINUOUS
370
-3
390
F
  0
LAYER
  5
209
100
AcDbSymbolTableRecord
100
AcDbLayerTableRecord
  2
INTF_12
 70
0
 62
7
  6
CONTINUOUS
370
-3
390
F
  0
LAYER
  5
20A
100
AcDbSymbolTableRecord
100
AcDbLayerTableRecord
  2
INTF_2
 70
0
 62
7
  6
CONTINUOUS
370
-3
390
F
  0
LAYER
  5
20B
100
AcDbSymbolTableRecord
100
AcDbLayerTableRecord
  2
INTF_3
 70
0
 62
7
  6
CONTINUOUS
370
-3
390
F
  0
LAYER
  5
20C
100
AcDbSymbolTableRecord
100
AcDbLayerTableRecord
  2
INTF_4
 70
0
 62
7
  6
CONTINUOUS
370
-3
390
F
  0
LAYER
  5
20D
100
AcDbSymbolTableRecord
100
AcDbLayerTableRecord
  2
INTF_5
 70
0
 62
7
  6
CONTINUOUS
370
-3
390
F
  0
LAYER
  5
20E
100
AcDbSymbolTableRecord
100
AcDbLayerTableRecord
  2
INTF_6
 70
0
 62
7
  6
CONTINUOUS
370
-3
390
F
  0
LAYER
  5
20F
100
AcDbSymbolTableRecord
100
AcDbLayerTableRecord
  2
INTF_7
 70
0
 62
7
  6
CONTINUOUS
370
-3
390
F
  0
LAYER
  5
210
100
AcDbSymbolTableRecord
100
AcDbLayerTableRecord
  2
INTF_9
 70
0
 62
7
  6
CONTINUOUS
370
-3
390
F
  0
LAYER
  5
211
100
AcDbSymbolTableRecord
100
AcDbLayerTableRecord
  2
INTF_BLANK
 70
0
 62
7
  6
CONTINUOUS
370
-3
390
F
  0
LAYER
  5
212
100
AcDbSymbolTableRecord
100
AcDbLayerTableRecord
  2
INTF_RED
 70
0
 62
7
  6
CONTINUOUS
370
-3
390
F
  0
LAYER
  5
213
100
AcDbSymbolTableRecord
100
AcDbLayerTableRecord
  2
NOTE
 70
0
 62
7
  6
CONTINUOUS
370
-3
390
F
  0
LAYER
  5
214
100
AcDbSymbolTableRecord
100
AcDbLayerTableRecord
  2
PIANI
 70
0
 62
7
  6
CONTINUOUS
370
-3
390
F
  0
LAYER
  5
215
100
AcDbSymbolTableRecord
100
AcDbLayerTableRecord
  2
PUNTI
 70
0
 62
7
  6
CONTINUOUS
370
-3
390
F
  0
LAYER
  5
216
100
AcDbSymbolTableRecord
100
AcDbLayerTableRecord
  2
RACCORDO
 70
0
 62
7
  6
CONTINUOUS
370
-3
390
F
  0
LAYER
  5
217
100
AcDbSymbolTableRecord
100
AcDbLayerTableRecord
  2
RGB____0____0____0__
 70
0
 62
7
  6
CONTINUOUS
370
-3
390
F
  0
LAYER
  5
218
100
AcDbSymbolTableRecord
100
AcDbLayerTableRecord
  2
SIMBOLI
 70
0
 62
7
  6
CONTINUOUS
370
-3
390
F
  0
LAYER
  5
219
100
AcDbSymbolTableRecord
100
AcDbLayerTableRecord
  2
SMUSSO
 70
0
 62
7
  6
CONTINUOUS
370
-3
390
F
  0
LAYER
  5
21A
100
AcDbSymbolTableRecord
100
AcDbLayerTableRecord
  2
SNAPLINE
 70
0
 62
7
  6
CONTINUOUS
370
-3
390
F
  0
LAYER
  5
21B
100
AcDbSymbolTableRecord
100
AcDbLayerTableRecord
  2
SUPERFICI
 70
0
 62
7
  6
CONTINUOUS
370
-3
390
F
  0
LAYER
  5
21C
100
AcDbSymbolTableRecord
100
AcDbLayerTableRecord
  2
TRASH
 70
0
 62
7
  6
CONTINUOUS
370
-3
390
F
  0
LAYER
  5
21D
100
AcDbSymbolTableRecord
100
AcDbLayerTableRecord
  2
___SHELL
 70
0
 62
7
  6
CONTINUOUS
370
-3
390
F
  0
ENDTAB
  0
TABLE
  2
STYLE
  5
3
100
AcDbSymbolTable
 70
1
  0
STYLE
  5
11
100
AcDbSymbolTableRecord
100
AcDbTextStyleTableRecord
  2
STANDARD
 70
0
 40
0.0
 41
0.8
 50
0.0
 71
0
 42
0.2
  3
txt
  4

  0
STYLE
  5
21E
100
AcDbSymbolTableRecord
100
AcDbTextStyleTableRecord
  2
TEXTSTYLE_1
 70
0
 40
0.0
 41
0.8
 50
0.0
 71
0
 42
0.2
  3
gdt
  4

  0
ENDTAB
  0
TABLE
  2
VIEW
  5
6
100
AcDbSymbolTable
 70
0
  0
ENDTAB
  0
TABLE
  2
UCS
  5
7
100
AcDbSymbolTable
 70
0
  0
ENDTAB
  0
TABLE
  2
APPID
  5
9
100
AcDbSymbolTable
 70
1
  0
APPID
  5
21F
100
AcDbSymbolTableRecord
100
AcDbRegAppTableRecord
  2
ACAD
 70
0
  0
ENDTAB
  0
TABLE
  2
BLOCK_RECORD
  5
1
100
AcDbSymbolTable
 70
0
  0
BLOCK_RECORD
  5
220
100
AcDbSymbolTableRecord
100
AcDbBlockTableRecord
  2
*Model_Space
  0
BLOCK_RECORD
  5
221
100
AcDbSymbolTableRecord
100
AcDbBlockTableRecord
  2
*Paper_Space
  0
BLOCK_RECORD
  5
222
100
AcDbSymbolTableRecord
100
AcDbBlockTableRecord
  2
_FILLED
  0
ENDTAB
  0
TABLE
  2
DIMSTYLE
  5
A
100
AcDbSymbolTable
 70
1
100
AcDbDimStyleTable
 71
0
  0
DIMSTYLE
105
223
100
AcDbSymbolTableRecord
100
AcDbDimStyleTableRecord
  2
STANDARD
 70
0
  3

  4

 40
1.0
 41
3.0
 42
0.5
 43
0.38
 44
1.5
 45
0.0
 46
0.0
 47
0.01
 48
0.01
140
3.0
141
0.09
142
0.0
143
25.4
144
1.0
145
0.0
146
1.0
147
0.625
 71
1
 72
0
 73
0
 74
0
 75
0
 76
0
 77
1
 78
8
 79
2
170
0
171
1
172
0
173
0
174
0
175
0
176
0
177
0
178
0
270
2
179
2
271
2
272
2
273
2
274
2
275
0
280
0
281
0
282
0
283
1
284
8
285
0
286
0
287
3
288
0
340
11
278
44
341
222
342
222
343
222
344
222
  0
ENDTAB
  0
ENDSEC
  0
SECTION
  2
BLOCKS
  0
BLOCK
  5
20
100
AcDbEntity
  8
0
100
AcDbBlockBegin
  2
*Model_Space
 70
0
 10
0.0
 20
0.0
 30
0.0
  3
*Model_Space
  1

  0
ENDBLK
  5
21
100
AcDbEntity
  8
0
100
AcDbBlockEnd
  0
BLOCK
  5
1C
100
AcDbEntity
  8
0
100
AcDbBlockBegin
  2
*Paper_Space
 70
0
 10
0.0
 20
0.0
 30
0.0
  3
*Paper_Space
  1

  0
ENDBLK
  5
1D
100
AcDbEntity
  8
0
100
AcDbBlockEnd
  0
BLOCK
  5
224
100
AcDbEntity
  8
0
100
AcDbBlockBegin
  2
_FILLED
 70
64
 10
0.0
 20
0.0
  3
_FILLED
  1

  0
SOLID
  5
225
100
AcDbEntity
  8
0
  6
BYBLOCK
 62
0
100
AcDbTrace
 10
0.0
 20
0.0
 11
-1.0
 21
0.3166666667
 12
-1.0
 22
-0.3166666667
 13
-1.0
 23
-0.3166666667
  0
ENDBLK
  5
226
100
AcDbEntity
  8
0
  6
BYBLOCK
 62
0
100
AcDbBlockEnd
  0
ENDSEC
  0
SECTION
  2
ENTITIES
  0
LINE
  5
227
100
AcDbEntity
  8
RACCORDO
100
AcDbLine
 62
7
  6
CONTINUOUS
 10
10.5687482316
 20
-26.3685768941
 11
-10.5687482316
 21
-26.3685768941
  0
LINE
  5
228
100
AcDbEntity
  8
RACCORDO
100
AcDbLine
 62
7
  6
CONTINUOUS
 10
9.7682683574
 20
-25.1681655431
 11
-9.7682683574
 21
-25.1681655431
  0
LINE
  5
229
100
AcDbEntity
  8
RACCORDO
100
AcDbLine
 62
250
  6
CONTINUOUS
 10
9.7237761007
 20
-25.1236732864
 11
-9.7237761007
 21
-25.1236732864
  0
LINE
  5
22A
100
AcDbEntity
  8
RACCORDO
100
AcDbLine
 62
250
  6
CONTINUOUS
 10
9.7199738409
 20
-25.1022127811
 11
-9.7199738409
 21
-25.1022127811
  0
LINE
  5
22B
100
AcDbEntity
  8
RACCORDO
100
AcDbLine
 62
7
  6
CONTINUOUS
 10
-6.3759253238
 20
-24.9282454583
 11
-6.3147413609
 21
-24.9282454583
  0
LINE
  5
22C
100
AcDbEntity
  8
RACCORDO
100
AcDbLine
 62
7
  6
CONTINUOUS
 10
6.3147413609
 20
-24.9282454583
 11
6.3759253238
 21
-24.9282454583
  0
LINE
  5
22D
100
AcDbEntity
  8
RACCORDO
100
AcDbLine
 62
7
  6
CONTINUOUS
 10
5.0757243206
 20
-24.9176300077
 11
-5.0757243206
 21
-24.9176300077
  0
LINE
  5
22E
100
AcDbEntity
  8
RACCORDO
100
AcDbLine
 62
250
  6
CONTINUOUS
 10
-9.668887889
 20
-24.6880204493
 11
-6.5924417736
 21
-24.6880204493
  0
LINE
  5
22F
100
AcDbEntity
  8
RACCORDO
100
AcDbLine
 62
250
  6
CONTINUOUS
 10
-5.8030755202
 20
-24.6880204493
 11
-5.275
 21
-24.6880204493
  0
LINE
  5
230
100
AcDbEntity
  8
RACCORDO
100
AcDbLine
 62
250
  6
CONTINUOUS
 10
5.275
 20
-24.6880204493
 11
5.8030755202
 21
-24.6880204493
  0
LINE
  5
231
100
AcDbEntity
  8
RACCORDO
100
AcDbLine
 62
250
  6
CONTINUOUS
 10
6.5924417736
 20
-24.6880204493
 11
9.668887889
 21
-24.6880204493
  0
LINE
  5
232
100
AcDbEntity
  8
RACCORDO
100
AcDbLine
 62
7
  6
CONTINUOUS
 10
5.5442948957
 20
-24.55
 11
5.1296924905
 21
-24.55
  0
LINE
  5
233
100
AcDbEntity
  8
RACCORDO
100
AcDbLine
 62
7
  6
CONTINUOUS
 10
-5.1296924905
 20
-24.55
 11
-5.5442948957
 21
-24.55
  0
LINE
  5
234
100
AcDbEntity
  8
RACCORDO
100
AcDbLine
 62
250
  6
CONTINUOUS
 10
5.083755594
 20
-24.5323465765
 11
5.5217211052
 21
-24.5323465765
  0
LINE
  5
235
100
AcDbEntity
  8
RACCORDO
100
AcDbLine
 62
250
  6
CONTINUOUS
 10
-5.0837555939
 20
-24.5323465765
 11
-5.5217211052
 21
-24.5323465765
  0
LINE
  5
236
100
AcDbEntity
  8
RACCORDO
100
AcDbLine
 62
250
  6
CONTINUOUS
 10
-9.668887889
 20
-24.4714753928
 11
-6.5951886489
 21
-24.4714753928
  0
LINE
  5
237
100
AcDbEntity
  8
RACCORDO
100
AcDbLine
 62
250
  6
CONTINUOUS
 10
-5.8003286449
 20
-24.4714753928
 11
-5.7025026637
 21
-24.4714753928
  0
LINE
  5
238
100
AcDbEntity
  8
RACCORDO
100
AcDbLine
 62
250
  6
CONTINUOUS
 10
5.7025067222
 20
-24.4714753928
 11
5.8003286449
 21
-24.4714753928
  0
LINE
  5
239
100
AcDbEntity
  8
RACCORDO
100
AcDbLine
 62
250
  6
CONTINUOUS
 10
6.5951886489
 20
-24.4714753928
 11
9.668887889
 21
-24.4714753928
  0
LINE
  5
23A
100
AcDbEntity
  8
RACCORDO
100
AcDbLine
 62
250
  6
CONTINUOUS
 10
5.0837555941
 20
-24.3950418342
 11
5.5217211052
 21
-24.3950418342
  0
LINE
  5
23B
100
AcDbEntity
  8
RACCORDO
100
AcDbLine
 62
250
  6
CONTINUOUS
 10
-5.0837562407
 20
-24.3950418342
 11
-5.5217211052
 21
-24.3950418342
  0
LINE
  5
23C
100
AcDbEntity
  8
RACCORDO
100
AcDbLine
 62
250
  6
CONTINUOUS
 10
-5.3806651023
 20
-23.7324719501
 11
-4.7542925662
 21
-23.7324719501
  0
LINE
  5
23D
100
AcDbEntity
  8
RACCORDO
100
AcDbLine
 62
250
  6
CONTINUOUS
 10
5.3806651023
 20
-23.7324719501
 11
4.7542916651
 21
-23.7324719501
  0
LINE
  5
23E
100
AcDbEntity
  8
RACCORDO
100
AcDbLine
 62
250
  6
CONTINUOUS
 10
-5.3806651023
 20
-23.5686797244
 11
-4.7542916661
 21
-23.5686797244
  0
LINE
  5
23F
100
AcDbEntity
  8
RACCORDO
100
AcDbLine
 62
250
  6
CONTINUOUS
 10
5.3806651023
 20
-23.5686797244
 11
4.7542916651
 21
-23.5686797244
  0
LINE
  5
240
100
AcDbEntity
  8
RACCORDO
100
AcDbLine
 62
7
  6
CONTINUOUS
 10
-5.3941636592
 20
-23.5514188459
 11
-4.7839262984
 21
-23.5514188459
  0
LINE
  5
241
100
AcDbEntity
  8
RACCORDO
100
AcDbLine
 62
7
  6
CONTINUOUS
 10
4.7839262984
 20
-23.5514188459
 11
5.3941636592
 21
-23.5514188459
  0
LINE
  5
242
100
AcDbEntity
  8
RACCORDO
100
AcDbLine
 62
7
  6
CONTINUOUS
 10
-9.875426243
 20
-22.0918412015
 11
-9.9604811481
 21
-22.0351451296
  0
LINE
  5
243
100
AcDbEntity
  8
RACCORDO
100
AcDbLine
 62
7
  6
CONTINUOUS
 10
-2.0213073071
 20
25.2071702628
 11
-2.0101106157
 21
25.2155662887
  0
LINE
  5
244
100
AcDbEntity
  8
RACCORDO
100
AcDbLine
 62
250
  6
CONTINUOUS
 10
4.4303727066
 20
-20.7884317324
 11
4.7485118534
 21
-20.7534300864
  0
LINE
  5
245
100
AcDbEntity
  8
RACCORDO
100
AcDbLine
 62
7
  6
CONTINUOUS
 10
-9.9914962434
 20
-21.3064645282
 11
-10.2721847665
 21
-21.3111129436
  0
LINE
  5
246
100
AcDbEntity
  8
RACCORDO
100
AcDbLine
 62
250
  6
CONTINUOUS
 10
-11.0685768941
 20
-22.5392953814
 11
-9.9681998224
 21
-22.5392953814
  0
LINE
  5
247
100
AcDbEntity
  8
RACCORDO
100
AcDbLine
 62
250
  6
CONTINUOUS
 10
9.9681998224
 20
-22.5392953814
 11
11.0685768941
 21
-22.5392953814
  0
LINE
  5
248
100
AcDbEntity
  8
RACCORDO
100
AcDbLine
 62
250
  6
CONTINUOUS
 10
-11.0704147967
 20
-22.3464590985
 11
-9.9700377249
 21
-22.3464590985
  0
LINE
  5
249
100
AcDbEntity
  8
RACCORDO
100
AcDbLine
 62
250
  6
CONTINUOUS
 10
9.9700377249
 20
-22.3464590985
 11
11.0704147967
 21
-22.3464590985
  0
LINE
  5
24A
100
AcDbEntity
  8
RACCORDO
100
AcDbLine
 62
7
  6
CONTINUOUS
 10
-9.6754278134
 20
-22.0952663437
 11
-8.2346879649
 21
-22.0952663437
  0
LINE
  5
24B
100
AcDbEntity
  8
RACCORDO
100
AcDbLine
 62
7
  6
CONTINUOUS
 10
9.6754278134
 20
-22.0952663437
 11
8.2346879649
 21
-22.0952663437
  0
LINE
  5
24C
100
AcDbEntity
  8
RACCORDO
100
AcDbLine
 62
250
  6
CONTINUOUS
 10
-9.9604811481
 20
-22.0351451296
 11
-8.2948091789
 21
-22.0351451296
  0
LINE
  5
24D
100
AcDbEntity
  8
RACCORDO
100
AcDbLine
 62
250
  6
CONTINUOUS
 10
9.9604811481
 20
-22.0351451296
 11
8.2948091789
 21
-22.0351451296
  0
LINE
  5
24E
100
AcDbEntity
  8
RACCORDO
100
AcDbLine
 62
250
  6
CONTINUOUS
 10
-9.9681998224
 20
-21.7351908211
 11
-7.9948548704
 21
-21.7351908211
  0
LINE
  5
24F
100
AcDbEntity
  8
RACCORDO
100
AcDbLine
 62
250
  6
CONTINUOUS
 10
9.9681998224
 20
-21.7351908211
 11
7.9948548704
 21
-21.7351908211
  0
LINE
  5
250
100
AcDbEntity
  8
RACCORDO
100
AcDbLine
 62
250
  6
CONTINUOUS
 10
-6.3543677794
 20
-21.6713308066
 11
-6.3362989053
 21
-21.6713308066
  0
LINE
  5
251
100
AcDbEntity
  8
RACCORDO
100
AcDbLine
 62
250
  6
CONTINUOUS
 10
6.3362989053
 20
-21.6713308066
 11
6.3543677794
 21
-21.6713308066
  0
LINE
  5
252
100
AcDbEntity
  8
RACCORDO
100
AcDbLine
 62
250
  6
CONTINUOUS
 10
-9.9681998224
 20
-21.6248091789
 11
-7.9948548704
 21
-21.6248091789
  0
LINE
  5
253
100
AcDbEntity
  8
RACCORDO
100
AcDbLine
 62
250
  6
CONTINUOUS
 10
9.9681998224
 20
-21.6248091789
 11
7.9948548704
 21
-21.6248091789
  0
LINE
  5
254
100
AcDbEntity
  8
RACCORDO
100
AcDbLine
 62
250
  6
CONTINUOUS
 10
11.0876877288
 20
-21.5603466497
 11
9.9873106571
 21
-21.5603466497
  0
LINE
  5
255
100
AcDbEntity
  8
RACCORDO
100
AcDbLine
 62
250
  6
CONTINUOUS
 10
-9.9873106571
 20
-21.5603466497
 11
-11.0876877288
 21
-21.5603466497
  0
LINE
  5
256
100
AcDbEntity
  8
RACCORDO
100
AcDbLine
 62
250
  6
CONTINUOUS
 10
11.0895256314
 20
-21.3675103668
 11
9.9891485596
 21
-21.3675103668
  0
LINE
  5
257
100
AcDbEntity
  8
RACCORDO
100
AcDbLine
 62
250
  6
CONTINUOUS
 10
-9.9891485596
 20
-21.3675103668
 11
-11.0895256314
 21
-21.3675103668
  0
LINE
  5
258
100
AcDbEntity
  8
DRAFT
100
AcDbLine
 62
7
  6
CONTINUOUS
 10
10.3347981654
 20
-21.3439640519
 11
9.9891485596
 21
-21.3439640519
  0
LINE
  5
259
100
AcDbEntity
  8
DRAFT
100
AcDbLine
 62
7
  6
CONTINUOUS
 10
-9.9891485596
 20
-21.3439640519
 11
-10.3347981654
 21
-21.3439640519
  0
LINE
  5
25A
100
AcDbEntity
  8
RACCORDO
100
AcDbLine
 62
250
  6
CONTINUOUS
 10
-9.9604811481
 20
-21.3248548704
 11
-8.2948091789
 21
-21.3248548704
  0
LINE
  5
25B
100
AcDbEntity
  8
RACCORDO
100
AcDbLine
 62
250
  6
CONTINUOUS
 10
9.9604811481
 20
-21.3248548704
 11
8.2948091789
 21
-21.3248548704
  0
LINE
  5
25C
100
AcDbEntity
  8
RACCORDO
100
AcDbLine
 62
250
  6
CONTINUOUS
 10
-5.8369420777
 20
-21.3167645497
 11
-6.5534300864
 21
-21.3167645497
  0
LINE
  5
25D
100
AcDbEntity
  8
RACCORDO
100
AcDbLine
 62
250
  6
CONTINUOUS
 10
5.8369420777
 20
-21.3167645497
 11
6.5534300864
 21
-21.3167645497
  0
LINE
  5
25E
100
AcDbEntity
  8
RACCORDO
100
AcDbLine
 62
7
  6
CONTINUOUS
 10
-9.6777094621
 20
-21.2662545624
 11
-8.2362088709
 21
-21.2662545624
  0
LINE
  5
25F
100
AcDbEntity
  8
RACCORDO
100
AcDbLine
 62
7
  6
CONTINUOUS
 10
9.6777094621
 20
-21.2662545624
 11
8.2362088709
 21
-21.2662545624
  0
LINE
  5
260
100
AcDbEntity
  8
RACCORDO
100
AcDbLine
 62
250
  6
CONTINUOUS
 10
5.8369420777
 20
-20.9585447574
 11
6.3368659253
 21
-20.9585447551
  0
LINE
  5
261
100
AcDbEntity
  8
RACCORDO
100
AcDbLine
 62
250
  6
CONTINUOUS
 10
-5.8369420777
 20
-20.9585447574
 11
-6.3368659253
 21
-20.9585447551
  0
LINE
  5
262
100
AcDbEntity
  8
RACCORDO
100
AcDbLine
 62
7
  6
CONTINUOUS
 10
10.2721914759
 20
-21.3130263813
 11
9.9944327163
 21
-21.308425519
  0
LINE
  5
263
100
AcDbEntity
  8
RACCORDO
100
AcDbLine
 62
250
  6
CONTINUOUS
 10
-4.4303727066
 20
-20.7884317324
 11
-4.7485118534
 21
-20.7534300864
  0
LINE
  5
264
100
AcDbEntity
  8
RACCORDO
100
AcDbLine
 62
250
  6
CONTINUOUS
 10
-8.2948091789
 20
-22.0351451296
 11
-8.2346879649
 21
-22.0952663437
  0
LINE
  5
265
100
AcDbEntity
  8
RACCORDO
100
AcDbLine
 62
250
  6
CONTINUOUS
 10
-7.9948548704
 20
-21.7351908211
 11
-7.9352849643
 21
-21.7947607271
  0
LINE
  5
266
100
AcDbEntity
  8
RACCORDO
100
AcDbLine
 62
250
  6
CONTINUOUS
 10
-10.0304880981
 20
17.905823674
 11
-9.936639623
 21
18.0143665295
  0
LINE
  5
267
100
AcDbEntity
  8
RACCORDO
100
AcDbLine
 62
250
  6
CONTINUOUS
 10
-10.0640625842
 20
17.6473957952
 11
-9.9707923891
 21
17.7552698261
  0
LINE
  5
268
100
AcDbEntity
  8
RACCORDO
100
AcDbLine
 62
250
  6
CONTINUOUS
 10
-4.444135548
 20
-19.9630824545
 11
-4.7485118534
 21
-19.9965699136
  0
LINE
  5
269
100
AcDbEntity
  8
RACCORDO
100
AcDbLine
 62
7
  6
CONTINUOUS
 10
-5.6071160224
 20
-20.7884317324
 11
-4.4303727066
 21
-20.7884317324
  0
LINE
  5
26A
100
AcDbEntity
  8
RACCORDO
100
AcDbLine
 62
7
  6
CONTINUOUS
 10
4.4303727066
 20
-20.7884317324
 11
5.6071160224
 21
-20.7884317324
  0
LINE
  5
26B
100
AcDbEntity
  8
RACCORDO
100
AcDbLine
 62
250
  6
CONTINUOUS
 10
5.6421176683
 20
-20.7534300864
 11
4.7485118534
 21
-20.7534300864
  0
LINE
  5
26C
100
AcDbEntity
  8
RACCORDO
100
AcDbLine
 62
250
  6
CONTINUOUS
 10
-4.7485118534
 20
-20.7534300864
 11
-5.6421176683
 21
-20.7534300864
  0
LINE
  5
26D
100
AcDbEntity
  8
RACCORDO
100
AcDbLine
 62
250
  6
CONTINUOUS
 10
5.6421176683
 20
-20.5534605474
 11
4.7485118534
 21
-20.5534605474
  0
LINE
  5
26E
100
AcDbEntity
  8
RACCORDO
100
AcDbLine
 62
250
  6
CONTINUOUS
 10
-4.7485118534
 20
-20.5534605474
 11
-5.6421176683
 21
-20.5534605474
  0
LINE
  5
26F
100
AcDbEntity
  8
RACCORDO
100
AcDbLine
 62
250
  6
CONTINUOUS
 10
-6.5534300864
 20
-20.4964937612
 11
-6.3534605474
 21
-20.4964937612
  0
LINE
  5
270
100
AcDbEntity
  8
RACCORDO
100
AcDbLine
 62
250
  6
CONTINUOUS
 10
6.5534300864
 20
-20.4964937612
 11
6.3534605474
 21
-20.4964937612
  0
LINE
  5
271
100
AcDbEntity
  8
RACCORDO
100
AcDbLine
 62
250
  6
CONTINUOUS
 10
-6.0535062388
 20
-20.1965394526
 11
-4.7485118534
 21
-20.1965394526
  0
LINE
  5
272
100
AcDbEntity
  8
RACCORDO
100
AcDbLine
 62
250
  6
CONTINUOUS
 10
4.7485118534
 20
-20.1965394526
 11
6.0535062388
 21
-20.1965394526
  0
LINE
  5
273
100
AcDbEntity
  8
RACCORDO
100
AcDbLine
 62
250
  6
CONTINUOUS
 10
-6.0535062388
 20
-19.9965699136
 11
-4.7485118534
 21
-19.9965699136
  0
LINE
  5
274
100
AcDbEntity
  8
RACCORDO
100
AcDbLine
 62
250
  6
CONTINUOUS
 10
4.7485118534
 20
-19.9965699136
 11
6.0535062388
 21
-19.9965699136
  0
LINE
  5
275
100
AcDbEntity
  8
RACCORDO
100
AcDbLine
 62
7
  6
CONTINUOUS
 10
6.086993698
 20
-19.9630824545
 11
4.444135548
 21
-19.9630824545
  0
LINE
  5
276
100
AcDbEntity
  8
RACCORDO
100
AcDbLine
 62
7
  6
CONTINUOUS
 10
-4.444135548
 20
-19.9630824545
 11
-6.086993698
 21
-19.9630824545
  0
LINE
  5
277
100
AcDbEntity
  8
RACCORDO
100
AcDbLine
 62
250
  6
CONTINUOUS
 10
-11.0895256314
 20
-19.196450535
 11
-10.3160570988
 21
-19.196450535
  0
LINE
  5
278
100
AcDbEntity
  8
RACCORDO
100
AcDbLine
 62
250
  6
CONTINUOUS
 10
10.3160570988
 20
-19.196450535
 11
11.0895256314
 21
-19.196450535
  0
LINE
  5
279
100
AcDbEntity
  8
RACCORDO
100
AcDbLine
 62
250
  6
CONTINUOUS
 10
4.444135548
 20
-19.9630824545
 11
4.7485118534
 21
-19.9965699136
  0
LINE
  5
27A
100
AcDbEntity
  8
RACCORDO
100
AcDbLine
 62
250
  6
CONTINUOUS
 10
-6.5534300864
 20
-20.4964937612
 11
-6.5878330269
 21
-20.4620908207
  0
LINE
  5
27B
100
AcDbEntity
  8
RACCORDO
100
AcDbLine
 62
250
  6
CONTINUOUS
 10
-5.5884132421
 20
-23.7029670437
 11
-5.5747871369
 21
-23.7203910206
  0
LINE
  5
27C
100
AcDbEntity
  8
RACCORDO
100
AcDbLine
 62
250
  6
CONTINUOUS
 10
-11.0899292437
 20
-18.8041550564
 11
-10.312633588
 21
-18.8041550564
  0
LINE
  5
27D
100
AcDbEntity
  8
RACCORDO
100
AcDbLine
 62
250
  6
CONTINUOUS
 10
10.312633588
 20
-18.8041550564
 11
11.0899292437
 21
-18.8041550564
  0
LINE
  5
27E
100
AcDbEntity
  8
RACCORDO
100
AcDbLine
 62
250
  6
CONTINUOUS
 10
-5.8369420777
 20
-20.9585447551
 11
-5.8067180228
 21
-20.98876881
  0
LINE
  5
27F
100
AcDbEntity
  8
RACCORDO
100
AcDbLine
 62
250
  6
CONTINUOUS
 10
-5.6421176683
 20
-20.7534300864
 11
-5.6071160224
 21
-20.7884317324
  0
LINE
  5
280
100
AcDbEntity
  8
RACCORDO
100
AcDbLine
 62
250
  6
CONTINUOUS
 10
-6.0535062388
 20
-19.9965699136
 11
-6.086993698
 21
-19.9630824545
  0
LINE
  5
281
100
AcDbEntity
  8
RACCORDO
100
AcDbLine
 62
250
  6
CONTINUOUS
 10
-5.3941636592
 20
-23.5514188459
 11
-5.3806651023
 21
-23.5686797244
  0
LINE
  5
282
100
AcDbEntity
  8
RACCORDO
100
AcDbLine
 62
7
  6
CONTINUOUS
 10
10.090749475
 20
-16.2956114515
 11
10.071376389
 21
-16.2956114515
  0
LINE
  5
283
100
AcDbEntity
  8
RACCORDO
100
AcDbLine
 62
7
  6
CONTINUOUS
 10
-10.071376389
 20
-16.2956114515
 11
-10.090749475
 21
-16.2956114515
  0
LINE
  5
284
100
AcDbEntity
  8
RACCORDO
100
AcDbLine
 62
7
  6
CONTINUOUS
 10
-10.2899132466
 20
-16.2006617941
 11
-9.8106071712
 21
-16.2006617941
  0
LINE
  5
285
100
AcDbEntity
  8
RACCORDO
100
AcDbLine
 62
7
  6
CONTINUOUS
 10
9.8106071709
 20
-16.2006617941
 11
10.2899132466
 21
-16.2006617941
  0
LINE
  5
286
100
AcDbEntity
  8
RACCORDO
100
AcDbLine
 62
250
  6
CONTINUOUS
 10
5.5442948957
 20
-24.55
 11
5.5217211052
 21
-24.5323465765
  0
LINE
  5
287
100
AcDbEntity
  8
RACCORDO
100
AcDbLine
 62
250
  6
CONTINUOUS
 10
5.7379334714
 20
-24.301492458
 11
5.715677363
 21
-24.2840874721
  0
LINE
  5
288
100
AcDbEntity
  8
RACCORDO
100
AcDbLine
 62
7
  6
CONTINUOUS
 10
-10.0640625842
 20
17.6473957952
 11
-10.2804181908
 21
16.8356370771
  0
LINE
  5
289
100
AcDbEntity
  8
RACCORDO
100
AcDbLine
 62
250
  6
CONTINUOUS
 10
-10.2193611024
 20
16.8275987589
 11
-9.9707923891
 21
17.7552698261
  0
LINE
  5
28A
100
AcDbEntity
  8
RACCORDO
100
AcDbLine
 62
250
  6
CONTINUOUS
 10
-10.0262053601
 20
16.7758428337
 11
-9.7776366468
 21
17.7035139009
  0
LINE
  5
28B
100
AcDbEntity
  8
RACCORDO
100
AcDbLine
 62
7
  6
CONTINUOUS
 10
-0.3966003711
 20
25.1366053437
 11
-0.3859750215
 21
25.1525453917
  0
LINE
  5
28C
100
AcDbEntity
  8
RACCORDO
100
AcDbLine
 62
250
  6
CONTINUOUS
 10
2.6561039863
 20
-13.5819659569
 11
2.569485004
 21
-13.5955985871
  0
LINE
  5
28D
100
AcDbEntity
  8
RACCORDO
100
AcDbLine
 62
7
  6
CONTINUOUS
 10
-9.9299344469
 20
-16.2884268707
 11
-9.6854333298
 21
-16.2584513323
  0
LINE
  5
28E
100
AcDbEntity
  8
RACCORDO
100
AcDbLine
 62
7
  6
CONTINUOUS
 10
2.3027127755
 20
-13.6937905579
 11
2.5888422521
 21
-13.6662880866
  0
LINE
  5
28F
100
AcDbEntity
  8
RACCORDO
100
AcDbLine
 62
250
  6
CONTINUOUS
 10
3.1995062982
 20
-14.0562089646
 11
3.6933808724
 21
-14.0302784575
  0
LINE
  5
290
100
AcDbEntity
  8
RACCORDO
100
AcDbLine
 62
250
  6
CONTINUOUS
 10
3.1976339883
 20
-13.8769679856
 11
3.6829152754
 21
-13.8514886625
  0
LINE
  5
291
100
AcDbEntity
  8
RACCORDO
100
AcDbLine
 62
7
  6
CONTINUOUS
 10
3.1956240734
 20
-13.8327074973
 11
2.8803323171
 21
-13.8491349129
  0
LINE
  5
292
100
AcDbEntity
  8
RACCORDO
100
AcDbLine
 62
250
  6
CONTINUOUS
 10
-11.0995963877
 20
-14.1133630491
 11
-9.983380666
 21
-14.1133630491
  0
LINE
  5
293
100
AcDbEntity
  8
RACCORDO
100
AcDbLine
 62
250
  6
CONTINUOUS
 10
9.983380666
 20
-14.1133630491
 11
11.0995963877
 21
-14.1133630491
  0
LINE
  5
294
100
AcDbEntity
  8
RACCORDO
100
AcDbLine
 62
250
  6
CONTINUOUS
 10
-11.1
 20
-13.7210675705
 11
-9.9996229283
 21
-13.7210675705
  0
LINE
  5
295
100
AcDbEntity
  8
RACCORDO
100
AcDbLine
 62
250
  6
CONTINUOUS
 10
9.9996229283
 20
-13.7210675705
 11
11.1
 21
-13.7210675705
  0
LINE
  5
296
100
AcDbEntity
  8
RACCORDO
100
AcDbLine
 62
250
  6
CONTINUOUS
 10
2.5684464636
 20
-13.6079784459
 11
2.1224826479
 21
-13.6079784459
  0
LINE
  5
297
100
AcDbEntity
  8
RACCORDO
100
AcDbLine
 62
250
  6
CONTINUOUS
 10
-2.1224857813
 20
-13.6079784459
 11
-2.5684465191
 21
-13.6079784459
  0
LINE
  5
298
100
AcDbEntity
  8
RACCORDO
100
AcDbLine
 62
250
  6
CONTINUOUS
 10
2.5400673383
 20
-13.4475532606
 11
2.0472064063
 21
-13.4475532606
  0
LINE
  5
299
100
AcDbEntity
  8
RACCORDO
100
AcDbLine
 62
250
  6
CONTINUOUS
 10
-2.0472185736
 20
-13.4475532606
 11
-2.5400673383
 21
-13.4475532606
  0
LINE
  5
29A
100
AcDbEntity
  8
RACCORDO
100
AcDbLine
 62
7
  6
CONTINUOUS
 10
-3.1956240734
 20
-13.8327074973
 11
-2.8803323171
 21
-13.8491349129
  0
LINE
  5
29B
100
AcDbEntity
  8
RACCORDO
100
AcDbLine
 62
250
  6
CONTINUOUS
 10
-3.6933803775
 20
-14.0302784835
 11
-3.1995062982
 21
-14.0562089646
  0
LINE
  5
29C
100
AcDbEntity
  8
RACCORDO
100
AcDbLine
 62
250
  6
CONTINUOUS
 10
-3.6829152753
 20
-13.8514886625
 11
-3.1976339883
 21
-13.8769679856
  0
LINE
  5
29D
100
AcDbEntity
  8
RACCORDO
100
AcDbLine
 62
7
  6
CONTINUOUS
 10
-2.3027185537
 20
-13.6937902612
 11
-2.5888279293
 21
-13.6662896345
  0
LINE
  5
29E
100
AcDbEntity
  8
RACCORDO
100
AcDbLine
 62
7
  6
CONTINUOUS
 10
9.6854333298
 20
-16.2584513323
 11
9.9299344469
 21
-16.2884268707
  0
LINE
  5
29F
100
AcDbEntity
  8
RACCORDO
100
AcDbLine
 62
250
  6
CONTINUOUS
 10
-2.569485004
 20
-13.5955985871
 11
-2.6561039863
 21
-13.5819659569
  0
LINE
  5
2A0
100
AcDbEntity
  8
RACCORDO
100
AcDbLine
 62
7
  6
CONTINUOUS
 10
-11.0876877288
 20
-21.5603466497
 11
-11.0704147967
 21
-22.3464590985
  0
LINE
  5
2A1
100
AcDbEntity
  8
RACCORDO
100
AcDbLine
 62
7
  6
CONTINUOUS
 10
-11.0978365611
 20
14.8762018049
 11
-11.093705798
 21
14.9596641646
  0
LINE
  5
2A2
100
AcDbEntity
  8
RACCORDO
100
AcDbLine
 62
7
  6
CONTINUOUS
 10
-11.0975873503
 20
7.0217580526
 11
-11.0718686124
 21
7.2536979213
  0
LINE
  5
2A3
100
AcDbEntity
  8
RACCORDO
100
AcDbLine
 62
7
  6
CONTINUOUS
 10
-10.0257157828
 20
19.0473192698
 11
-10.0061145635
 21
19.1793071325
  0
LINE
  5
2A4
100
AcDbEntity
  8
RACCORDO
100
AcDbLine
 62
7
  6
CONTINUOUS
 10
-10.0840342344
 20
10.7463020787
 11
-10.0068623476
 21
10.9782419474
  0
LINE
  5
2A5
100
AcDbEntity
  8
RACCORDO
100
AcDbLine
 62
250
  6
CONTINUOUS
 10
-9.9996229283
 20
-11.4048503739
 11
-9.811693777
 21
-11.4032940408
  0
LINE
  5
2A6
100
AcDbEntity
  8
DRAFT
100
AcDbLine
 62
7
  6
CONTINUOUS
 10
-9.685
 20
-12.2
 11
-9.6570821223
 21
-12.2
  0
LINE
  5
2A7
100
AcDbEntity
  8
DRAFT
100
AcDbLine
 62
7
  6
CONTINUOUS
 10
9.6570821223
 20
-12.2
 11
9.685
 21
-12.2
  0
LINE
  5
2A8
100
AcDbEntity
  8
RACCORDO
100
AcDbLine
 62
250
  6
CONTINUOUS
 10
9.811693777
 20
-11.4032940408
 11
9.9996229283
 21
-11.4048503739
  0
LINE
  5
2A9
100
AcDbEntity
  8
RACCORDO
100
AcDbLine
 62
7
  6
CONTINUOUS
 10
-2.0214677931
 20
-12.3648631166
 11
-2.0224803758
 21
-12.3643437232
  0
LINE
  5
2AA
100
AcDbEntity
  8
RACCORDO
100
AcDbLine
 62
250
  6
CONTINUOUS
 10
-2.5684464545
 20
-13.596164872
 11
-2.5694850068
 21
-13.5955986052
  0
LINE
  5
2AB
100
AcDbEntity
  8
RACCORDO
100
AcDbLine
 62
7
  6
CONTINUOUS
 10
9.8776890725
 20
-21.26966716
 11
9.9321721665
 21
-21.3059846117
  0
LINE
  5
2AC
100
AcDbEntity
  8
RACCORDO
100
AcDbLine
 62
7
  6
CONTINUOUS
 10
9.9604811481
 20
-21.3248548704
 11
9.9891485596
 21
-21.3439640519
  0
LINE
  5
2AD
100
AcDbEntity
  8
RACCORDO
100
AcDbLine
 62
7
  6
CONTINUOUS
 10
-9.983380666
 20
-14.1133630491
 11
-9.811693777
 21
-16.1835185879
  0
LINE
  5
2AE
100
AcDbEntity
  8
RACCORDO
100
AcDbLine
 62
7
  6
CONTINUOUS
 10
-9.6854333298
 20
-16.2584513323
 11
-9.687050838
 21
-16.2356934491
  0
LINE
  5
2AF
100
AcDbEntity
  8
RACCORDO
100
AcDbLine
 62
7
  6
CONTINUOUS
 10
-11.0913041483
 20
19.0473192698
 11
-11.0978365611
 21
19.1793071325
  0
LINE
  5
2B0
100
AcDbEntity
  8
RACCORDO
100
AcDbLine
 62
7
  6
CONTINUOUS
 10
-9.9873106571
 20
-21.5603466497
 11
-9.9700377249
 21
-22.3464590985
  0
LINE
  5
2B1
100
AcDbEntity
  8
RACCORDO
100
AcDbLine
 62
250
  6
CONTINUOUS
 10
-9.8913989893
 20
-16.2883208115
 11
-9.8776890725
 21
-21.26966716
  0
LINE
  5
2B2
100
AcDbEntity
  8
RACCORDO
100
AcDbLine
 62
250
  6
CONTINUOUS
 10
-9.875426243
 20
-22.0918412015
 11
-9.868819354
 21
-24.4923810854
  0
LINE
  5
2B3
100
AcDbEntity
  8
RACCORDO
100
AcDbLine
 62
250
  6
CONTINUOUS
 10
-9.905472871
 20
-11.1747318288
 11
-9.9076590239
 21
-10.3804173835
  0
LINE
  5
2B4
100
AcDbEntity
  8
RACCORDO
100
AcDbLine
 62
250
  6
CONTINUOUS
 10
-9.691492149
 20
-16.2584680077
 11
-9.6777094621
 21
-21.2662545624
  0
LINE
  5
2B5
100
AcDbEntity
  8
RACCORDO
100
AcDbLine
 62
250
  6
CONTINUOUS
 10
-9.7052939133
 20
-11.2437498589
 11
-9.7077275589
 21
-10.3595116908
  0
LINE
  5
2B6
100
AcDbEntity
  8
RACCORDO
100
AcDbLine
 62
7
  6
CONTINUOUS
 10
-11.0995963877
 20
-14.1133630491
 11
-11.0899292437
 21
-18.8041550564
  0
LINE
  5
2B7
100
AcDbEntity
  8
RACCORDO
100
AcDbLine
 62
7
  6
CONTINUOUS
 10
-10.0304880981
 20
17.905823674
 11
-10.0321832013
 21
18.7283392151
  0
LINE
  5
2B8
100
AcDbEntity
  8
RACCORDO
100
AcDbLine
 62
7
  6
CONTINUOUS
 10
-10.3122835966
 20
15.2315687618
 11
-10.3141316137
 21
16.5768106408
  0
LINE
  5
2B9
100
AcDbEntity
  8
RACCORDO
100
AcDbLine
 62
7
  6
CONTINUOUS
 10
-9.6570821223
 20
-12.2
 11
-9.6578408251
 21
-11.3728332097
  0
LINE
  5
2BA
100
AcDbEntity
  8
RACCORDO
100
AcDbLine
 62
250
  6
CONTINUOUS
 10
-9.9931157244
 20
-16.2936292999
 11
-9.9914962434
 21
-21.3064645282
  0
LINE
  5
2BB
100
AcDbEntity
  8
RACCORDO
100
AcDbLine
 62
250
  6
CONTINUOUS
 10
-9.9308510492
 20
-16.2884271669
 11
-9.9292306761
 21
-21.3040238671
  0
LINE
  5
2BC
100
AcDbEntity
  8
RACCORDO
100
AcDbLine
 62
7
  6
CONTINUOUS
 10
-11.1
 20
-13.7210675705
 11
-11.1
 21
25.9001713375
  0
LINE
  5
2BD
100
AcDbEntity
  8
RACCORDO
100
AcDbLine
 62
7
  6
CONTINUOUS
 10
-11.0895256314
 20
-19.196450535
 11
-11.0895256314
 21
-21.3675103668
  0
LINE
  5
2BE
100
AcDbEntity
  8
RACCORDO
100
AcDbLine
 62
7
  6
CONTINUOUS
 10
-11.0694559627
 20
7.5527731214
 11
-11.0694559627
 21
10.4472268786
  0
LINE
  5
2BF
100
AcDbEntity
  8
RACCORDO
100
AcDbLine
 62
7
  6
CONTINUOUS
 10
-11.0685768941
 20
-25.8687482316
 11
-11.0685768941
 21
-22.5392953814
  0
LINE
  5
2C0
100
AcDbEntity
  8
RACCORDO
100
AcDbLine
 62
7
  6
CONTINUOUS
 10
-10.2953831688
 20
14.580759479
 11
-10.2953831688
 21
12.4256576388
  0
LINE
  5
2C1
100
AcDbEntity
  8
RACCORDO
100
AcDbLine
 62
250
  6
CONTINUOUS
 10
-10.2534300864
 20
12.4311808668
 11
-10.2534300864
 21
16.5688191332
  0
LINE
  5
2C2
100
AcDbEntity
  8
RACCORDO
100
AcDbLine
 62
7
  6
CONTINUOUS
 10
-10.0912736538
 20
7.5527731214
 11
-10.0912736538
 21
10.4472268786
  0
LINE
  5
2C3
100
AcDbEntity
  8
RACCORDO
100
AcDbLine
 62
250
  6
CONTINUOUS
 10
-10.0534605474
 20
12.4311808668
 11
-10.0534605474
 21
16.5688191332
  0
LINE
  5
2C4
100
AcDbEntity
  8
RACCORDO
100
AcDbLine
 62
7
  6
CONTINUOUS
 10
-9.9996229283
 20
-13.7210675705
 11
-9.9996229283
 21
6.7226828525
  0
LINE
  5
2C5
100
AcDbEntity
  8
RACCORDO
100
AcDbLine
 62
7
  6
CONTINUOUS
 10
-9.9996229283
 20
19.4747494584
 11
-9.9996229283
 21
24.999657184
  0
LINE
  5
2C6
100
AcDbEntity
  8
RACCORDO
100
AcDbLine
 62
7
  6
CONTINUOUS
 10
-9.9891485596
 20
-21.3439640519
 11
-9.9891485596
 21
-21.3675103668
  0
LINE
  5
2C7
100
AcDbEntity
  8
RACCORDO
100
AcDbLine
 62
7
  6
CONTINUOUS
 10
-9.9681998224
 20
-24.9682340781
 11
-9.9681998224
 21
-22.5392953814
  0
LINE
  5
2C8
100
AcDbEntity
  8
RACCORDO
100
AcDbLine
 62
7
  6
CONTINUOUS
 10
-9.9681998224
 20
-21.6248091789
 11
-9.9681998224
 21
-21.7351908211
  0
LINE
  5
2C9
100
AcDbEntity
  8
RACCORDO
100
AcDbLine
 62
250
  6
CONTINUOUS
 10
-9.936639623
 20
10.7371426949
 11
-9.936639623
 21
10.9856334705
  0
LINE
  5
2CA
100
AcDbEntity
  8
RACCORDO
100
AcDbLine
 62
250
  6
CONTINUOUS
 10
-9.936639623
 20
18.0143665295
 11
-9.936639623
 21
24.9366738787
  0
LINE
  5
2CB
100
AcDbEntity
  8
RACCORDO
100
AcDbLine
 62
250
  6
CONTINUOUS
 10
-9.811693777
 20
-11.4032940408
 11
-9.811693777
 21
-16.1835185879
  0
LINE
  5
2CC
100
AcDbEntity
  8
RACCORDO
100
AcDbLine
 62
250
  6
CONTINUOUS
 10
-9.736708158
 20
10.7371426949
 11
-9.736708158
 21
10.9856334705
  0
LINE
  5
2CD
100
AcDbEntity
  8
RACCORDO
100
AcDbLine
 62
250
  6
CONTINUOUS
 10
-9.736708158
 20
18.0143665295
 11
-9.7367081578
 21
25.1366053437
  0
LINE
  5
2CE
100
AcDbEntity
  8
RACCORDO
100
AcDbLine
 62
7
  6
CONTINUOUS
 10
-9.687050838
 20
-11.4020432226
 11
-9.687050838
 21
-16.2356934491
  0
LINE
  5
2CF
100
AcDbEntity
  8
RACCORDO
100
AcDbLine
 62
250
  6
CONTINUOUS
 10
-9.668887889
 20
-24.6880204493
 11
-9.6754278134
 21
-22.0952663437
  0
LINE
  5
2D0
100
AcDbEntity
  8
RACCORDO
100
AcDbLine
 62
7
  6
CONTINUOUS
 10
-11.0915504297
 20
15.2315687618
 11
-11.0891487799
 21
18.7283392151
  0
LINE
  5
2D1
100
AcDbEntity
  8
RACCORDO
100
AcDbLine
 62
7
  6
CONTINUOUS
 10
-10.3347981654
 20
-21.3439640519
 11
-10.2899132466
 21
-16.2006617941
  0
LINE
  5
2D2
100
AcDbEntity
  8
RACCORDO
100
AcDbLine
 62
250
  6
CONTINUOUS
 10
-10.2284743218
 20
-16.3023920832
 11
-10.2721847665
 21
-21.3111129436
  0
LINE
  5
2D3
100
AcDbEntity
  8
RACCORDO
100
AcDbLine
 62
250
  6
CONTINUOUS
 10
9.736708158
 20
25.1366053437
 11
9.7996914633
 21
25.199588649
  0
LINE
  5
2D4
100
AcDbEntity
  8
RACCORDO
100
AcDbLine
 62
250
  6
CONTINUOUS
 10
9.936639623
 20
24.9366738787
 11
9.9996229283
 21
24.999657184
  0
LINE
  5
2D5
100
AcDbEntity
  8
0
100
AcDbLine
 62
7
  6
CONTINUOUS
 10
-6.85
 20
8.384112
 11
-9.150022
 21
7.719243
  0
LINE
  5
2D6
100
AcDbEntity
  8
RACCORDO
100
AcDbLine
 62
250
  6
CONTINUOUS
 10
-9.9922658363
 20
-11.2036569415
 11
-9.9493646921
 21
-11.2033016562
  0
LINE
  5
2D7
100
AcDbEntity
  8
RACCORDO
100
AcDbLine
 62
7
  6
CONTINUOUS
 10
0.8498469553
 20
-10.9999999557
 11
-0.8498468785
 21
-10.9999999706
  0
LINE
  5
2D8
100
AcDbEntity
  8
RACCORDO
100
AcDbLine
 62
250
  6
CONTINUOUS
 10
9.7077275589
 20
-10.3595116908
 11
1.6086736809
 21
-10.3595116908
  0
LINE
  5
2D9
100
AcDbEntity
  8
RACCORDO
100
AcDbLine
 62
250
  6
CONTINUOUS
 10
-1.6088421349
 20
-10.3595116908
 11
-9.7077275589
 21
-10.3595116908
  0
LINE
  5
2DA
100
AcDbEntity
  8
RACCORDO
100
AcDbLine
 62
250
  6
CONTINUOUS
 10
9.9493646921
 20
-11.2033016562
 11
9.9922658363
 21
-11.2036569415
  0
LINE
  5
2DB
100
AcDbEntity
  8
RACCORDO
100
AcDbLine
 62
7
  6
CONTINUOUS
 10
-1.9256620743
 20
-11.4442563557
 11
-1.9376055026
 21
-11.4389126291
  0
LINE
  5
2DC
100
AcDbEntity
  8
RACCORDO
100
AcDbLine
 62
250
  6
CONTINUOUS
 10
9.7682683574
 20
-25.1681655431
 11
9.7237761007
 21
-25.1236732864
  0
LINE
  5
2DD
100
AcDbEntity
  8
RACCORDO
100
AcDbLine
 62
250
  6
CONTINUOUS
 10
9.9681998224
 20
-24.9682340781
 11
9.9237075657
 21
-24.9237418214
  0
LINE
  5
2DE
100
AcDbEntity
  8
RACCORDO
100
AcDbLine
 62
250
  6
CONTINUOUS
 10
7.9948548704
 20
-21.6248091789
 11
7.9357052736
 21
-21.5656595821
  0
LINE
  5
2DF
100
AcDbEntity
  8
RACCORDO
100
AcDbLine
 62
7
  6
CONTINUOUS
 10
-11.0718686124
 20
10.7463020787
 11
-11.0975873503
 21
10.9782419474
  0
LINE
  5
2E0
100
AcDbEntity
  8
RACCORDO
100
AcDbLine
 62
7
  6
CONTINUOUS
 10
-10.2997103762
 20
14.8762018049
 11
-10.3079725316
 21
14.9596641646
  0
LINE
  5
2E1
100
AcDbEntity
  8
RACCORDO
100
AcDbLine
 62
7
  6
CONTINUOUS
 10
-6.5924417736
 20
-24.6880204493
 11
-6.5760905905
 21
-24.8869027521
  0
LINE
  5
2E2
100
AcDbEntity
  8
RACCORDO
100
AcDbLine
 62
7
  6
CONTINUOUS
 10
-7.9352849643
 20
-21.7947607271
 11
-7.9357052736
 21
-21.5656595821
  0
LINE
  5
2E3
100
AcDbEntity
  8
0
100
AcDbLine
 62
7
  6
CONTINUOUS
 10
-9.150022
 20
7.719243
 11
-9.150022
 21
7.385218
  0
LINE
  5
2E4
100
AcDbEntity
  8
0
100
AcDbLine
 62
7
  6
CONTINUOUS
 10
-9.150011
 20
3.190325
 11
-9.150011
 21
2.919923
  0
LINE
  5
2E5
100
AcDbEntity
  8
0
100
AcDbLine
 62
7
  6
CONTINUOUS
 10
-9.150007
 20
6.53903
 11
-9.150007
 21
5.479694
  0
LINE
  5
2E6
100
AcDbEntity
  8
0
100
AcDbLine
 62
7
  6
CONTINUOUS
 10
-9.150007
 20
5.05875
 11
-9.150007
 21
4.807414
  0
LINE
  5
2E7
100
AcDbEntity
  8
0
100
AcDbLine
 62
7
  6
CONTINUOUS
 10
-9.150007
 20
4.034385
 11
-9.150007
 21
3.614468
  0
LINE
  5
2E8
100
AcDbEntity
  8
0
100
AcDbLine
 62
7
  6
CONTINUOUS
 10
-9.150007
 20
1.880401
 11
-9.150007
 21
1.61
  0
LINE
  5
2E9
100
AcDbEntity
  8
0
100
AcDbLine
 62
7
  6
CONTINUOUS
 10
-8.933686
 20
5.750095
 11
-8.933686
 21
6.53903
  0
LINE
  5
2EA
100
AcDbEntity
  8
RACCORDO
100
AcDbLine
 62
250
  6
CONTINUOUS
 10
-8.2948091789
 20
-21.3248548704
 11
-8.2948091789
 21
-22.0351451296
  0
LINE
  5
2EB
100
AcDbEntity
  8
0
100
AcDbLine
 62
7
  6
CONTINUOUS
 10
-8.144751
 20
6.497674
 11
-8.144751
 21
5.750095
  0
LINE
  5
2EC
100
AcDbEntity
  8
RACCORDO
100
AcDbLine
 62
250
  6
CONTINUOUS
 10
-7.9948548704
 20
-21.7351908211
 11
-7.9948548704
 21
-21.6248091789
  0
LINE
  5
2ED
100
AcDbEntity
  8
0
100
AcDbLine
 62
7
  6
CONTINUOUS
 10
-7.928429
 20
5.750095
 11
-7.928429
 21
6.497674
  0
LINE
  5
2EE
100
AcDbEntity
  8
0
100
AcDbLine
 62
7
  6
CONTINUOUS
 10
-7.6485
 20
7.878303
 11
-7.6485
 21
7.210253
  0
LINE
  5
2EF
100
AcDbEntity
  8
0
100
AcDbLine
 62
7
  6
CONTINUOUS
 10
-7.432179
 20
7.143447
 11
-7.432179
 21
7.941927
  0
LINE
  5
2F0
100
AcDbEntity
  8
RACCORDO
100
AcDbLine
 62
7
  6
CONTINUOUS
 10
-0.6935249784
 20
-8.9999999936
 11
0.6935250253
 21
-9.0
  0
LINE
  5
2F1
100
AcDbEntity
  8
RACCORDO
100
AcDbLine
 62
7
  6
CONTINUOUS
 10
9.905472871
 20
-11.1747318288
 11
9.9922658363
 21
-11.2036569415
  0
LINE
  5
2F2
100
AcDbEntity
  8
RACCORDO
100
AcDbLine
 62
7
  6
CONTINUOUS
 10
1.9256620743
 20
-11.4442563557
 11
1.8942001363
 21
-11.4208517212
  0
LINE
  5
2F3
100
AcDbEntity
  8
RACCORDO
100
AcDbLine
 62
250
  6
CONTINUOUS
 10
8.2948091789
 20
-21.3248548704
 11
8.2362088709
 21
-21.2662545624
  0
LINE
  5
2F4
100
AcDbEntity
  8
RACCORDO
100
AcDbLine
 62
250
  6
CONTINUOUS
 10
-1.8942001363
 20
-11.4208517212
 11
-2.1834617404
 21
-11.0381552373
  0
LINE
  5
2F5
100
AcDbEntity
  8
RACCORDO
100
AcDbLine
 62
250
  6
CONTINUOUS
 10
-1.7981176889
 20
-11.1954309189
 11
-2.0237589656
 21
-10.8969048719
  0
LINE
  5
2F6
100
AcDbEntity
  8
RACCORDO
100
AcDbLine
 62
250
  6
CONTINUOUS
 10
-6.3362989053
 20
-21.6713308066
 11
-6.3147413609
 21
-24.9282454583
  0
LINE
  5
2F7
100
AcDbEntity
  8
RACCORDO
100
AcDbLine
 62
250
  6
CONTINUOUS
 10
-5.8363750578
 20
-21.4940476781
 11
-5.8143281941
 21
-24.8248886929
  0
LINE
  5
2F8
100
AcDbEntity
  8
RACCORDO
100
AcDbLine
 62
7
  6
CONTINUOUS
 10
-5.8003286449
 20
-24.4714753928
 11
-5.8067180228
 21
-20.98876881
  0
LINE
  5
2F9
100
AcDbEntity
  8
0
100
AcDbLine
 62
7
  6
CONTINUOUS
 10
-7.066327
 20
6.561298
 11
-7.066327
 21
5.750095
  0
LINE
  5
2FA
100
AcDbEntity
  8
0
100
AcDbLine
 62
7
  6
CONTINUOUS
 10
-7.066327
 20
2.602531
 11
-7.066327
 21
1.880401
  0
LINE
  5
2FB
100
AcDbEntity
  8
0
100
AcDbLine
 62
7
  6
CONTINUOUS
 10
-6.850011
 20
2.919923
 11
-6.850011
 21
3.190325
  0
LINE
  5
2FC
100
AcDbEntity
  8
0
100
AcDbLine
 62
7
  6
CONTINUOUS
 10
-6.850006
 20
1.61
 11
-6.850006
 21
2.602531
  0
LINE
  5
2FD
100
AcDbEntity
  8
0
100
AcDbLine
 62
7
  6
CONTINUOUS
 10
-6.850006
 20
3.614468
 11
-6.850006
 21
3.865782
  0
LINE
  5
2FE
100
AcDbEntity
  8
0
100
AcDbLine
 62
7
  6
CONTINUOUS
 10
-6.850006
 20
4.638811
 11
-6.850006
 21
5.05875
  0
LINE
  5
2FF
100
AcDbEntity
  8
0
100
AcDbLine
 62
7
  6
CONTINUOUS
 10
-6.850006
 20
5.479694
 11
-6.850006
 21
6.561298
  0
LINE
  5
300
100
AcDbEntity
  8
0
100
AcDbLine
 62
7
  6
CONTINUOUS
 10
-6.85
 20
6.710806
 11
-6.85
 21
6.981206
  0
LINE
  5
301
100
AcDbEntity
  8
0
100
AcDbLine
 62
7
  6
CONTINUOUS
 10
-6.85
 20
8.104146
 11
-6.85
 21
8.384112
  0
LINE
  5
302
100
AcDbEntity
  8
RACCORDO
100
AcDbLine
 62
250
  6
CONTINUOUS
 10
-6.5534300864
 20
-21.3167645497
 11
-6.5534300864
 21
-20.4964937612
  0
LINE
  5
303
100
AcDbEntity
  8
RACCORDO
100
AcDbLine
 62
250
  6
CONTINUOUS
 10
-6.3534605474
 20
-21.3167645497
 11
-6.3534605474
 21
-20.4964937612
  0
LINE
  5
304
100
AcDbEntity
  8
RACCORDO
100
AcDbLine
 62
250
  6
CONTINUOUS
 10
-6.3368659253
 20
-21.3167645497
 11
-6.3368659253
 21
-20.9585447551
  0
LINE
  5
305
100
AcDbEntity
  8
RACCORDO
100
AcDbLine
 62
250
  6
CONTINUOUS
 10
-6.1689736721
 20
-0.6925584824
 11
-6.1689737036
 21
-0.4310567573
  0
LINE
  5
306
100
AcDbEntity
  8
RACCORDO
100
AcDbLine
 62
250
  6
CONTINUOUS
 10
-6.0535062388
 20
-19.9965699136
 11
-6.0535062388
 21
-20.1965394526
  0
LINE
  5
307
100
AcDbEntity
  8
RACCORDO
100
AcDbLine
 62
250
  6
CONTINUOUS
 10
-5.9999390734
 20
-1.1999390734
 11
-5.9999390734
 21
-2.4999695344
  0
LINE
  5
308
100
AcDbEntity
  8
RACCORDO
100
AcDbLine
 62
250
  6
CONTINUOUS
 10
-5.8369420777
 20
-20.9585447551
 11
-5.8369420777
 21
-21.3167645497
  0
LINE
  5
309
100
AcDbEntity
  8
RACCORDO
100
AcDbLine
 62
250
  6
CONTINUOUS
 10
-5.7999695344
 20
-1.196508987
 11
-5.7999695344
 21
-2.6999390734
  0
LINE
  5
30A
100
AcDbEntity
  8
RACCORDO
100
AcDbLine
 62
250
  6
CONTINUOUS
 10
-5.6421176646
 20
-20.7534300864
 11
-5.6421176683
 21
-20.5534605474
  0
LINE
  5
30B
100
AcDbEntity
  8
RACCORDO
100
AcDbLine
 62
250
  6
CONTINUOUS
 10
-5.5217211042
 20
-24.5323465765
 11
-5.5217211054
 21
-24.3950418342
  0
LINE
  5
30C
100
AcDbEntity
  8
RACCORDO
100
AcDbLine
 62
7
  6
CONTINUOUS
 10
-6.4046068335
 20
-0.5953627055
 11
-6.4046763983
 21
-0.6634143993
  0
LINE
  5
30D
100
AcDbEntity
  8
RACCORDO
100
AcDbLine
 62
7
  6
CONTINUOUS
 10
-6.5951886489
 20
-24.4714753928
 11
-6.5878330269
 21
-20.4620908207
  0
LINE
  5
30E
100
AcDbEntity
  8
RACCORDO
100
AcDbLine
 62
250
  6
CONTINUOUS
 10
-6.5760905905
 20
-24.8869027521
 11
-6.5543373184
 21
-21.6004175552
  0
LINE
  5
30F
100
AcDbEntity
  8
RACCORDO
100
AcDbLine
 62
250
  6
CONTINUOUS
 10
-6.3759253238
 20
-24.9282454583
 11
-6.3543677794
 21
-21.6713308066
  0
LINE
  5
310
100
AcDbEntity
  8
RACCORDO
100
AcDbLine
 62
250
  6
CONTINUOUS
 10
-6.3688835722
 20
-0.6262031247
 11
-6.3689432167
 21
-0.6310263223
  0
LINE
  5
311
100
AcDbEntity
  8
RACCORDO
100
AcDbLine
 62
250
  6
CONTINUOUS
 10
-9.868819354
 20
-24.4923810854
 11
-9.9199053059
 21
-24.9065734171
  0
LINE
  5
312
100
AcDbEntity
  8
RACCORDO
100
AcDbLine
 62
250
  6
CONTINUOUS
 10
-9.668887889
 20
-24.6880204493
 11
-9.7199738409
 21
-25.1022127811
  0
LINE
  5
313
100
AcDbEntity
  8
0
100
AcDbLine
 62
7
  6
CONTINUOUS
 10
-3.2128480867
 20
8.2942378508
 11
-3.6973821272
 21
7.1175256378
  0
LINE
  5
314
100
AcDbEntity
  8
0
100
AcDbLine
 62
7
  6
CONTINUOUS
 10
-7.082233
 20
4.807414
 11
-9.150007
 21
4.034385
  0
LINE
  5
315
100
AcDbEntity
  8
0
100
AcDbLine
 62
7
  6
CONTINUOUS
 10
-8.91778
 20
3.865782
 11
-6.850006
 21
4.638811
  0
LINE
  5
316
100
AcDbEntity
  8
RACCORDO
100
AcDbLine
 62
7
  6
CONTINUOUS
 10
0.7986108245
 20
-9.0291664946
 11
1.0
 21
-9.15
  0
LINE
  5
317
100
AcDbEntity
  8
RACCORDO
100
AcDbLine
 62
250
  6
CONTINUOUS
 10
-5.4451426712
 20
-2.6999390734
 11
-5.4380487479
 21
-2.7070329968
  0
LINE
  5
318
100
AcDbEntity
  8
RACCORDO
100
AcDbLine
 62
7
  6
CONTINUOUS
 10
-10.0068623476
 20
7.0217580526
 11
-10.0840342344
 21
7.2536979213
  0
LINE
  5
319
100
AcDbEntity
  8
RACCORDO
100
AcDbLine
 62
7
  6
CONTINUOUS
 10
-10.2613141848
 20
12.166878013
 11
-10.0337300023
 21
11.3175222811
  0
LINE
  5
31A
100
AcDbEntity
  8
RACCORDO
100
AcDbLine
 62
250
  6
CONTINUOUS
 10
-9.9707923891
 20
11.2447301739
 11
-10.2193611024
 21
12.1724012411
  0
LINE
  5
31B
100
AcDbEntity
  8
RACCORDO
100
AcDbLine
 62
250
  6
CONTINUOUS
 10
-9.7776366468
 20
11.2964860991
 11
-10.0262053601
 21
12.2241571663
  0
LINE
  5
31C
100
AcDbEntity
  8
RACCORDO
100
AcDbLine
 62
250
  6
CONTINUOUS
 10
-5.4451426712
 20
-2.6999390734
 11
-5.4451426712
 21
-1.196508987
  0
LINE
  5
31D
100
AcDbEntity
  8
RACCORDO
100
AcDbLine
 62
250
  6
CONTINUOUS
 10
-5.3806651023
 20
-23.5686797244
 11
-5.3806651023
 21
-23.7324719501
  0
LINE
  5
31E
100
AcDbEntity
  8
RACCORDO
100
AcDbLine
 62
7
  6
CONTINUOUS
 10
-5.275
 20
-24.8752482938
 11
-5.275
 21
-24.6880204493
  0
LINE
  5
31F
100
AcDbEntity
  8
RACCORDO
100
AcDbLine
 62
250
  6
CONTINUOUS
 10
-5.2451731322
 20
-2.4999695344
 11
-5.2451731322
 21
-1.1999390734
  0
LINE
  5
320
100
AcDbEntity
  8
RACCORDO
100
AcDbLine
 62
250
  6
CONTINUOUS
 10
-5.0837555941
 20
-24.5323465765
 11
-5.0837555941
 21
-24.3950418342
  0
LINE
  5
321
100
AcDbEntity
  8
RACCORDO
100
AcDbLine
 62
250
  6
CONTINUOUS
 10
-4.7542916661
 20
-23.5686797065
 11
-4.7542916661
 21
-23.7324718012
  0
LINE
  5
322
100
AcDbEntity
  8
RACCORDO
100
AcDbLine
 62
250
  6
CONTINUOUS
 10
-4.7485118534
 20
-19.9965699136
 11
-4.7485118534
 21
-20.1965394526
  0
LINE
  5
323
100
AcDbEntity
  8
RACCORDO
100
AcDbLine
 62
250
  6
CONTINUOUS
 10
-4.7485118534
 20
-20.7534300864
 11
-4.7485118534
 21
-20.5534605474
  0
LINE
  5
324
100
AcDbEntity
  8
RACCORDO
100
AcDbLine
 62
7
  6
CONTINUOUS
 10
-5.8030755202
 20
-24.6880204493
 11
-5.8143281941
 21
-24.8248886929
  0
LINE
  5
325
100
AcDbEntity
  8
0
100
AcDbLine
 62
7
  6
CONTINUOUS
 10
-3.02989
 20
3.911797
 11
-3.481663
 21
2.32878
  0
LINE
  5
326
100
AcDbEntity
  8
0
100
AcDbLine
 62
7
  6
CONTINUOUS
 10
-3.289406
 20
1.612007
 11
-2.550162
 21
3.911797
  0
LINE
  5
327
100
AcDbEntity
  8
RACCORDO
100
AcDbLine
 62
250
  6
CONTINUOUS
 10
-6.3770951726
 20
-0.9771256335
 11
-6.4050346929
 21
-1.0050651539
  0
LINE
  5
328
100
AcDbEntity
  8
RACCORDO
100
AcDbLine
 62
250
  6
CONTINUOUS
 10
-5.2451731322
 20
-2.4999695344
 11
-5.2383318847
 21
-2.5068107819
  0
LINE
  5
329
100
AcDbEntity
  8
RACCORDO
100
AcDbLine
 62
250
  6
CONTINUOUS
 10
-6.3689432156
 20
-0.6310263234
 11
-6.4046068335
 21
-0.5953627055
  0
LINE
  5
32A
100
AcDbEntity
  8
RACCORDO
100
AcDbLine
 62
250
  6
CONTINUOUS
 10
-6.1689737036
 20
-0.4310567573
 11
-6.2044365927
 21
-0.3955938683
  0
LINE
  5
32B
100
AcDbEntity
  8
RACCORDO
100
AcDbLine
 62
250
  6
CONTINUOUS
 10
-3.3310568064
 20
-0.6310263455
 11
-3.3311164508
 21
-0.6262031521
  0
LINE
  5
32C
100
AcDbEntity
  8
RACCORDO
100
AcDbLine
 62
7
  6
CONTINUOUS
 10
-3.2953931665
 20
-0.5953627055
 11
-3.2953236017
 21
-0.6634144029
  0
LINE
  5
32D
100
AcDbEntity
  8
RACCORDO
100
AcDbLine
 62
250
  6
CONTINUOUS
 10
-3.531026373
 20
-0.6925543809
 11
-3.5310262964
 21
-0.4310567573
  0
LINE
  5
32E
100
AcDbEntity
  8
0
100
AcDbLine
 62
7
  6
CONTINUOUS
 10
-3.3155517821
 20
7.1175256378
 11
-3.3155517821
 21
5.3965397575
  0
LINE
  5
32F
100
AcDbEntity
  8
0
100
AcDbLine
 62
7
  6
CONTINUOUS
 10
-3.1099579961
 20
5.3965397575
 11
-3.1099579961
 21
7.1175256378
  0
LINE
  5
330
100
AcDbEntity
  8
0
100
AcDbLine
 62
7
  6
CONTINUOUS
 10
-2.372012
 20
3.911935
 11
-2.372012
 21
1.612007
  0
LINE
  5
331
100
AcDbEntity
  8
RACCORDO
100
AcDbLine
 62
250
  6
CONTINUOUS
 10
-2.3211245552
 20
26.4
 11
-2.3211245552
 21
25.199588649
  0
LINE
  5
332
100
AcDbEntity
  8
RACCORDO
100
AcDbLine
 62
250
  6
CONTINUOUS
 10
-2.0213073071
 20
26.3974733087
 11
-2.0213073071
 21
25.2071702628
  0
LINE
  5
333
100
AcDbEntity
  8
RACCORDO
100
AcDbLine
 62
250
  6
CONTINUOUS
 10
-2.0101106157
 20
25.2155662887
 11
-2.0101106157
 21
26.3946752018
  0
LINE
  5
334
100
AcDbEntity
  8
0
100
AcDbLine
 62
7
  6
CONTINUOUS
 10
-1.891956
 20
1.612007
 11
-1.891956
 21
3.911935
  0
LINE
  5
335
100
AcDbEntity
  8
0
100
AcDbLine
 62
7
  6
CONTINUOUS
 10
-1.8282293375
 20
8.353414866
 11
-1.8282293375
 21
6.4295633461
  0
LINE
  5
336
100
AcDbEntity
  8
RACCORDO
100
AcDbLine
 62
250
  6
CONTINUOUS
 10
-1.7102933676
 20
25.2231479025
 11
-1.7102933676
 21
26.3921485104
  0
LINE
  5
337
100
AcDbEntity
  8
RACCORDO
100
AcDbLine
 62
7
  6
CONTINUOUS
 10
-3.1976339883
 20
-13.8769679856
 11
-3.1956240734
 21
-13.8327074973
  0
LINE
  5
338
100
AcDbEntity
  8
0
100
AcDbLine
 62
7
  6
CONTINUOUS
 10
-1.425869
 20
3.911797
 11
-1.633526
 21
1.612007
  0
LINE
  5
339
100
AcDbEntity
  8
RACCORDO
100
AcDbLine
 62
250
  6
CONTINUOUS
 10
-0.4
 20
21.6024698564
 11
-0.3975142412
 21
21.6275804095
  0
LINE
  5
33A
100
AcDbEntity
  8
RACCORDO
100
AcDbLine
 62
250
  6
CONTINUOUS
 10
-0.2005757424
 20
21.4
 11
-0.1975447022
 21
21.4306188589
  0
LINE
  5
33B
100
AcDbEntity
  8
RACCORDO
100
AcDbLine
 62
250
  6
CONTINUOUS
 10
-6.1771256335
 20
-1.1770951726
 11
-6.2052820006
 21
-1.2052515396
  0
LINE
  5
33C
100
AcDbEntity
  8
RACCORDO
100
AcDbLine
 62
250
  6
CONTINUOUS
 10
-5.9999390734
 20
-2.4999695344
 11
-6.006780321
 21
-2.5068107819
  0
LINE
  5
33D
100
AcDbEntity
  8
RACCORDO
100
AcDbLine
 62
250
  6
CONTINUOUS
 10
-5.7999695344
 20
-2.6999390734
 11
-5.8070634577
 21
-2.7070329968
  0
LINE
  5
33E
100
AcDbEntity
  8
RACCORDO
100
AcDbLine
 62
250
  6
CONTINUOUS
 10
-3.5310262964
 20
-0.4310567573
 11
-3.4955634073
 21
-0.3955938683
  0
LINE
  5
33F
100
AcDbEntity
  8
RACCORDO
100
AcDbLine
 62
250
  6
CONTINUOUS
 10
-3.3310568064
 20
-0.6310263455
 11
-3.2953931665
 21
-0.5953627055
  0
LINE
  5
340
100
AcDbEntity
  8
RACCORDO
100
AcDbLine
 62
7
  6
CONTINUOUS
 10
5.8070634577
 20
-2.7070329968
 11
5.4380487479
 21
-2.7070329968
  0
LINE
  5
341
100
AcDbEntity
  8
RACCORDO
100
AcDbLine
 62
7
  6
CONTINUOUS
 10
-5.4380487479
 20
-2.7070329968
 11
-5.8070634577
 21
-2.7070329968
  0
LINE
  5
342
100
AcDbEntity
  8
RACCORDO
100
AcDbLine
 62
250
  6
CONTINUOUS
 10
-5.7999695344
 20
-2.6999390734
 11
-5.4451426712
 21
-2.6999390734
  0
LINE
  5
343
100
AcDbEntity
  8
RACCORDO
100
AcDbLine
 62
250
  6
CONTINUOUS
 10
5.4451426712
 20
-2.6999390734
 11
5.7999695344
 21
-2.6999390734
  0
LINE
  5
344
100
AcDbEntity
  8
RACCORDO
100
AcDbLine
 62
250
  6
CONTINUOUS
 10
5.2451731322
 20
-2.4999695344
 11
5.9999390734
 21
-2.4999695344
  0
LINE
  5
345
100
AcDbEntity
  8
RACCORDO
100
AcDbLine
 62
250
  6
CONTINUOUS
 10
-5.2451731322
 20
-2.4999695344
 11
-5.9999390734
 21
-2.4999695344
  0
LINE
  5
346
100
AcDbEntity
  8
RACCORDO
100
AcDbLine
 62
250
  6
CONTINUOUS
 10
-3.4947179994
 20
-1.2052515396
 11
-3.5228743665
 21
-1.1770951726
  0
LINE
  5
347
100
AcDbEntity
  8
RACCORDO
100
AcDbLine
 62
250
  6
CONTINUOUS
 10
-3.2949653071
 20
-1.0050651539
 11
-3.3229048274
 21
-0.9771256335
  0
LINE
  5
348
100
AcDbEntity
  8
0
100
AcDbLine
 62
7
  6
CONTINUOUS
 10
-4.441534
 20
3.911797
 11
-3.712456
 21
1.612007
  0
LINE
  5
349
100
AcDbEntity
  8
0
100
AcDbLine
 62
7
  6
CONTINUOUS
 10
-3.481663
 20
2.32878
 11
-3.920045
 21
3.911797
  0
LINE
  5
34A
100
AcDbEntity
  8
0
100
AcDbLine
 62
7
  6
CONTINUOUS
 10
-1.3773650285
 20
6.4635522086
 11
-1.3773650285
 21
8.353414866
  0
LINE
  5
34B
100
AcDbEntity
  8
0
100
AcDbLine
 62
7
  6
CONTINUOUS
 10
-0.9999999997
 20
-10.8509305044
 11
-1.0
 21
-9.15
  0
LINE
  5
34C
100
AcDbEntity
  8
0
100
AcDbLine
 62
7
  6
CONTINUOUS
 10
-0.4498376355
 20
8.353414866
 11
-0.4498376355
 21
6.4430769902
  0
LINE
  5
34D
100
AcDbEntity
  8
RACCORDO
100
AcDbLine
 62
7
  6
CONTINUOUS
 10
-0.4
 20
24.9366738787
 11
-0.4
 21
21.6024698564
  0
LINE
  5
34E
100
AcDbEntity
  8
RACCORDO
100
AcDbLine
 62
250
  6
CONTINUOUS
 10
-0.3859750215
 20
22.4154266119
 11
-0.3859750215
 21
25.1525453917
  0
LINE
  5
34F
100
AcDbEntity
  8
RACCORDO
100
AcDbLine
 62
250
  6
CONTINUOUS
 10
-0.1860054824
 20
22.4154266119
 11
-0.1860054824
 21
25.1576911745
  0
LINE
  5
350
100
AcDbEntity
  8
0
100
AcDbLine
 62
7
  6
CONTINUOUS
 10
-0.0100299444
 20
6.3935269617
 11
-0.0100299444
 21
8.353414866
  0
LINE
  5
351
100
AcDbEntity
  8
RACCORDO
100
AcDbLine
 62
250
  6
CONTINUOUS
 10
0.1860054824
 20
25.1576911745
 11
0.1860054824
 21
22.4154266119
  0
LINE
  5
352
100
AcDbEntity
  8
0
100
AcDbLine
 62
7
  6
CONTINUOUS
 10
-1.174268
 20
1.612007
 11
-1.070672
 21
3.113726
  0
LINE
  5
353
100
AcDbEntity
  8
SMUSSO
100
AcDbLine
 62
7
  6
CONTINUOUS
 10
-1.9256620743
 20
-11.4442563557
 11
-1.9429099522
 21
-11.6099246064
  0
LINE
  5
354
100
AcDbEntity
  8
0
100
AcDbLine
 62
7
  6
CONTINUOUS
 10
1.4956
 20
3.911797
 11
0.77424
 21
1.612007
  0
LINE
  5
355
100
AcDbEntity
  8
0
100
AcDbLine
 62
7
  6
CONTINUOUS
 10
0.008833
 20
3.911797
 11
-0.471223
 21
2.634946
  0
LINE
  5
356
100
AcDbEntity
  8
0
100
AcDbLine
 62
7
  6
CONTINUOUS
 10
-0.44018
 20
1.612007
 11
0.130606
 21
3.107466
  0
LINE
  5
357
100
AcDbEntity
  8
0
100
AcDbLine
 62
7
  6
CONTINUOUS
 10
3.606725868
 20
8.2976980933
 11
3.12209863
 21
7.1209858803
  0
LINE
  5
358
100
AcDbEntity
  8
RACCORDO
100
AcDbLine
 62
250
  6
CONTINUOUS
 10
10.0337300023
 20
11.3175222811
 11
9.9707923891
 21
11.2447301739
  0
LINE
  5
359
100
AcDbEntity
  8
RACCORDO
100
AcDbLine
 62
7
  6
CONTINUOUS
 10
6.2052820006
 20
-1.2052515396
 11
6.0052515396
 21
-1.2052515396
  0
LINE
  5
35A
100
AcDbEntity
  8
RACCORDO
100
AcDbLine
 62
7
  6
CONTINUOUS
 10
5.239860666
 20
-1.2052515396
 11
3.4947179994
 21
-1.2052515396
  0
LINE
  5
35B
100
AcDbEntity
  8
RACCORDO
100
AcDbLine
 62
7
  6
CONTINUOUS
 10
-3.4947179994
 20
-1.2052515396
 11
-5.239860666
 21
-1.2052515396
  0
LINE
  5
35C
100
AcDbEntity
  8
RACCORDO
100
AcDbLine
 62
7
  6
CONTINUOUS
 10
-6.0052515396
 20
-1.2052515396
 11
-6.2052820006
 21
-1.2052515396
  0
LINE
  5
35D
100
AcDbEntity
  8
RACCORDO
100
AcDbLine
 62
7
  6
CONTINUOUS
 10
5.7999695344
 20
-1.196508987
 11
5.4451426712
 21
-1.196508987
  0
LINE
  5
35E
100
AcDbEntity
  8
RACCORDO
100
AcDbLine
 62
7
  6
CONTINUOUS
 10
-5.4451426712
 20
-1.196508987
 11
-5.7999695344
 21
-1.196508987
  0
LINE
  5
35F
100
AcDbEntity
  8
RACCORDO
100
AcDbLine
 62
250
  6
CONTINUOUS
 10
-6.1771256335
 20
-1.1770951726
 11
-3.5228743665
 21
-1.1770951726
  0
LINE
  5
360
100
AcDbEntity
  8
RACCORDO
100
AcDbLine
 62
250
  6
CONTINUOUS
 10
3.5228743665
 20
-1.1770951726
 11
6.1771256335
 21
-1.1770951726
  0
LINE
  5
361
100
AcDbEntity
  8
RACCORDO
100
AcDbLine
 62
250
  6
CONTINUOUS
 10
6.168973627
 20
-0.6925543809
 11
3.5310263294
 21
-0.6925584824
  0
LINE
  5
362
100
AcDbEntity
  8
RACCORDO
100
AcDbLine
 62
250
  6
CONTINUOUS
 10
-3.531026373
 20
-0.6925543809
 11
-6.1689736706
 21
-0.6925584824
  0
LINE
  5
363
100
AcDbEntity
  8
RACCORDO
100
AcDbLine
 62
250
  6
CONTINUOUS
 10
6.1689737036
 20
-0.4310567573
 11
3.5310262964
 21
-0.4310567573
  0
LINE
  5
364
100
AcDbEntity
  8
RACCORDO
100
AcDbLine
 62
250
  6
CONTINUOUS
 10
-3.5310262964
 20
-0.4310567573
 11
-6.1689737036
 21
-0.4310567573
  0
LINE
  5
365
100
AcDbEntity
  8
RACCORDO
100
AcDbLine
 62
7
  6
CONTINUOUS
 10
6.2044365927
 20
-0.3955938683
 11
3.4955634073
 21
-0.3955938683
  0
LINE
  5
366
100
AcDbEntity
  8
RACCORDO
100
AcDbLine
 62
7
  6
CONTINUOUS
 10
-3.4955634073
 20
-0.3955938683
 11
-6.2044365927
 21
-0.3955938683
  0
LINE
  5
367
100
AcDbEntity
  8
RACCORDO
100
AcDbLine
 62
250
  6
CONTINUOUS
 10
9.6578408251
 20
-11.3728332097
 11
9.687050838
 21
-11.4020432226
  0
LINE
  5
368
100
AcDbEntity
  8
RACCORDO
100
AcDbLine
 62
250
  6
CONTINUOUS
 10
9.8586420285
 20
-11.1736496439
 11
9.8870432226
 21
-11.202050838
  0
LINE
  5
369
100
AcDbEntity
  8
RACCORDO
100
AcDbLine
 62
250
  6
CONTINUOUS
 10
-9.936639623
 20
10.9856334705
 11
-10.0020285339
 21
11.0612606887
  0
LINE
  5
36A
100
AcDbEntity
  8
RACCORDO
100
AcDbLine
 62
250
  6
CONTINUOUS
 10
-9.9707923891
 20
11.2447301739
 11
-10.0337300023
 21
11.3175222811
  0
LINE
  5
36B
100
AcDbEntity
  8
0
100
AcDbLine
 62
7
  6
CONTINUOUS
 10
-2.7282208486
 20
7.1175256378
 11
-3.2128480867
 21
8.2942378508
  0
LINE
  5
36C
100
AcDbEntity
  8
0
100
AcDbLine
 62
7
  6
CONTINUOUS
 10
-1.070672
 20
3.113726
 11
-0.507508
 21
1.612007
  0
LINE
  5
36D
100
AcDbEntity
  8
RACCORDO
100
AcDbLine
 62
7
  6
CONTINUOUS
 10
5.5884132421
 20
-23.7029670437
 11
5.5917101814
 21
-23.7161624137
  0
LINE
  5
36E
100
AcDbEntity
  8
RACCORDO
100
AcDbLine
 62
7
  6
CONTINUOUS
 10
5.733709662
 20
-24.2845823253
 11
5.7379334714
 21
-24.301492458
  0
LINE
  5
36F
100
AcDbEntity
  8
RACCORDO
100
AcDbLine
 62
250
  6
CONTINUOUS
 10
4.5591727544
 20
-23.4165192027
 11
4.5569971955
 21
-23.4077258026
  0
LINE
  5
370
100
AcDbEntity
  8
DRAFT
100
AcDbLine
 62
7
  6
CONTINUOUS
 10
4.9361436183
 20
-24.7972586083
 11
4.9656541265
 21
-24.9176295309
  0
LINE
  5
371
100
AcDbEntity
  8
DRAFT
100
AcDbLine
 62
250
  6
CONTINUOUS
 10
4.7667593172
 20
-24.9176269738
 11
4.7446198364
 21
-24.82515919
  0
LINE
  5
372
100
AcDbEntity
  8
DRAFT
100
AcDbLine
 62
250
  6
CONTINUOUS
 10
4.9236618484
 20
-24.9176631507
 11
4.8904827517
 21
-24.7787784182
  0
LINE
  5
373
100
AcDbEntity
  8
RACCORDO
100
AcDbLine
 62
250
  6
CONTINUOUS
 10
5.7167896672
 20
-24.2888085982
 11
5.715677363
 21
-24.2840874721
  0
LINE
  5
374
100
AcDbEntity
  8
SMUSSO
100
AcDbLine
 62
7
  6
CONTINUOUS
 10
1.9434708021
 20
-11.6114067164
 11
1.9256620743
 21
-11.4442563557
  0
LINE
  5
375
100
AcDbEntity
  8
0
100
AcDbLine
 62
7
  6
CONTINUOUS
 10
0.698858
 20
1.612007
 11
0.483802
 21
3.911797
  0
LINE
  5
376
100
AcDbEntity
  8
0
100
AcDbLine
 62
7
  6
CONTINUOUS
 10
0.130606
 20
3.107466
 11
0.229236
 21
1.612007
  0
LINE
  5
377
100
AcDbEntity
  8
RACCORDO
100
AcDbLine
 62
250
  6
CONTINUOUS
 10
0.3859750215
 20
25.1525453917
 11
0.3859750215
 21
22.4154266119
  0
LINE
  5
378
100
AcDbEntity
  8
RACCORDO
100
AcDbLine
 62
7
  6
CONTINUOUS
 10
0.4
 20
24.9366738787
 11
0.4
 21
21.6024698564
  0
LINE
  5
379
100
AcDbEntity
  8
0
100
AcDbLine
 62
7
  6
CONTINUOUS
 10
0.5780183277
 20
8.3530053617
 11
0.5780183277
 21
5.4381532716
  0
LINE
  5
37A
100
AcDbEntity
  8
0
100
AcDbLine
 62
7
  6
CONTINUOUS
 10
1.0
 20
-9.15
 11
1.0000000029
 21
-10.8509304883
  0
LINE
  5
37B
100
AcDbEntity
  8
0
100
AcDbLine
 62
7
  6
CONTINUOUS
 10
1.0297016454
 20
5.4381532716
 11
1.0297016454
 21
6.7002457332
  0
LINE
  5
37C
100
AcDbEntity
  8
0
100
AcDbLine
 62
7
  6
CONTINUOUS
 10
1.0297016454
 20
7.0389058454
 11
1.0297016454
 21
8.0147547539
  0
LINE
  5
37D
100
AcDbEntity
  8
RACCORDO
100
AcDbLine
 62
250
  6
CONTINUOUS
 10
1.7102933676
 20
26.3921485104
 11
1.7102933676
 21
25.2231479025
  0
LINE
  5
37E
100
AcDbEntity
  8
RACCORDO
100
AcDbLine
 62
250
  6
CONTINUOUS
 10
2.0101106157
 20
26.3946752018
 11
2.0101106157
 21
25.2155662887
  0
LINE
  5
37F
100
AcDbEntity
  8
RACCORDO
100
AcDbLine
 62
250
  6
CONTINUOUS
 10
2.0213073071
 20
25.2071702628
 11
2.0213073071
 21
26.3974733087
  0
LINE
  5
380
100
AcDbEntity
  8
DRAFT
100
AcDbLine
 62
250
  6
CONTINUOUS
 10
-4.9236659115
 20
-24.9176300077
 11
-4.8904934321
 21
-24.7787333782
  0
LINE
  5
381
100
AcDbEntity
  8
DRAFT
100
AcDbLine
 62
250
  6
CONTINUOUS
 10
-4.7667509661
 20
-24.9176300077
 11
-4.7446197088
 21
-24.825158658
  0
LINE
  5
382
100
AcDbEntity
  8
DRAFT
100
AcDbLine
 62
7
  6
CONTINUOUS
 10
-4.9361437946
 20
-24.7972579777
 11
-4.9656516661
 21
-24.9176300077
  0
LINE
  5
383
100
AcDbEntity
  8
RACCORDO
100
AcDbLine
 62
250
  6
CONTINUOUS
 10
-4.5591727545
 20
-23.4165192032
 11
-4.5570034886
 21
-23.4077242562
  0
LINE
  5
384
100
AcDbEntity
  8
RACCORDO
100
AcDbLine
 62
7
  6
CONTINUOUS
 10
-5.5917101941
 20
-23.7161628068
 11
-5.5884132421
 21
-23.7029670437
  0
LINE
  5
385
100
AcDbEntity
  8
0
100
AcDbLine
 62
7
  6
CONTINUOUS
 10
1.479751
 20
2.426392
 11
1.718779
 21
3.279873
  0
LINE
  5
386
100
AcDbEntity
  8
0
100
AcDbLine
 62
7
  6
CONTINUOUS
 10
1.249088
 20
1.612007
 11
1.381553
 21
2.071127
  0
LINE
  5
387
100
AcDbEntity
  8
RACCORDO
100
AcDbLine
 62
250
  6
CONTINUOUS
 10
10.0020285339
 20
11.0612606887
 11
9.936639623
 21
10.9856334705
  0
LINE
  5
388
100
AcDbEntity
  8
RACCORDO
100
AcDbLine
 62
250
  6
CONTINUOUS
 10
-9.8870432226
 20
-11.202050838
 11
-9.8586420285
 21
-11.1736496439
  0
LINE
  5
389
100
AcDbEntity
  8
RACCORDO
100
AcDbLine
 62
250
  6
CONTINUOUS
 10
-9.687050838
 20
-11.4020432226
 11
-9.6578408251
 21
-11.3728332097
  0
LINE
  5
38A
100
AcDbEntity
  8
0
100
AcDbLine
 62
7
  6
CONTINUOUS
 10
7.3653526664
 20
0.7960582472
 11
7.3939833701
 21
0.7960582472
  0
LINE
  5
38B
100
AcDbEntity
  8
0
100
AcDbLine
 62
7
  6
CONTINUOUS
 10
7.8584370077
 20
1.1873445481
 11
8.058852002
 21
1.1873445481
  0
LINE
  5
38C
100
AcDbEntity
  8
0
100
AcDbLine
 62
7
  6
CONTINUOUS
 10
-9.150007
 20
1.61
 11
-6.850006
 21
1.61
  0
LINE
  5
38D
100
AcDbEntity
  8
0
100
AcDbLine
 62
7
  6
CONTINUOUS
 10
-3.712456
 20
1.612007
 11
-3.289406
 21
1.612007
  0
LINE
  5
38E
100
AcDbEntity
  8
0
100
AcDbLine
 62
7
  6
CONTINUOUS
 10
-2.372012
 20
1.612007
 11
-1.891956
 21
1.612007
  0
LINE
  5
38F
100
AcDbEntity
  8
0
100
AcDbLine
 62
7
  6
CONTINUOUS
 10
-1.633526
 20
1.612007
 11
-1.174268
 21
1.612007
  0
LINE
  5
390
100
AcDbEntity
  8
0
100
AcDbLine
 62
7
  6
CONTINUOUS
 10
-0.507508
 20
1.612007
 11
-0.44018
 21
1.612007
  0
LINE
  5
391
100
AcDbEntity
  8
0
100
AcDbLine
 62
7
  6
CONTINUOUS
 10
0.229236
 20
1.612007
 11
0.698858
 21
1.612007
  0
LINE
  5
392
100
AcDbEntity
  8
0
100
AcDbLine
 62
7
  6
CONTINUOUS
 10
0.77424
 20
1.612007
 11
1.249088
 21
1.612007
  0
LINE
  5
393
100
AcDbEntity
  8
0
100
AcDbLine
 62
7
  6
CONTINUOUS
 10
2.15967
 20
1.612007
 11
2.66563
 21
1.612007
  0
LINE
  5
394
100
AcDbEntity
  8
0
100
AcDbLine
 62
7
  6
CONTINUOUS
 10
2.8065975821
 20
1.6120071664
 11
3.2847223015
 21
1.6120071664
  0
LINE
  5
395
100
AcDbEntity
  8
0
100
AcDbLine
 62
7
  6
CONTINUOUS
 10
4.0198623394
 20
1.6120071664
 11
4.4816207207
 21
1.6120071664
  0
LINE
  5
396
100
AcDbEntity
  8
0
100
AcDbLine
 62
7
  6
CONTINUOUS
 10
-7.066327
 20
1.880401
 11
-9.150007
 21
1.880401
  0
LINE
  5
397
100
AcDbEntity
  8
0
100
AcDbLine
 62
7
  6
CONTINUOUS
 10
1.381553
 20
2.071127
 11
2.03531
 21
2.071127
  0
LINE
  5
398
100
AcDbEntity
  8
RACCORDO
100
AcDbLine
 62
250
  6
CONTINUOUS
 10
3.2953931665
 20
-0.5953627055
 11
3.3310567844
 21
-0.6310263234
  0
LINE
  5
399
100
AcDbEntity
  8
0
100
AcDbLine
 62
7
  6
CONTINUOUS
 10
-0.471223
 20
2.634946
 11
-0.946209
 21
3.911797
  0
LINE
  5
39A
100
AcDbEntity
  8
RACCORDO
100
AcDbLine
 62
250
  6
CONTINUOUS
 10
0.1975447022
 20
21.4306188589
 11
0.2005757424
 21
21.4
  0
LINE
  5
39B
100
AcDbEntity
  8
RACCORDO
100
AcDbLine
 62
250
  6
CONTINUOUS
 10
0.3975142412
 20
21.6275804095
 11
0.4
 21
21.6024698564
  0
LINE
  5
39C
100
AcDbEntity
  8
RACCORDO
100
AcDbLine
 62
7
  6
CONTINUOUS
 10
5.8030755202
 20
-24.6880204493
 11
5.8143281941
 21
-24.8248886929
  0
LINE
  5
39D
100
AcDbEntity
  8
RACCORDO
100
AcDbLine
 62
7
  6
CONTINUOUS
 10
3.1976339883
 20
-13.8769679856
 11
3.1956240734
 21
-13.8327074973
  0
LINE
  5
39E
100
AcDbEntity
  8
RACCORDO
100
AcDbLine
 62
250
  6
CONTINUOUS
 10
2.3211245552
 20
25.199588649
 11
2.3211245552
 21
26.4
  0
LINE
  5
39F
100
AcDbEntity
  8
0
100
AcDbLine
 62
7
  6
CONTINUOUS
 10
2.8065975821
 20
3.8849276465
 11
2.8065975821
 21
1.6120071664
  0
LINE
  5
3A0
100
AcDbEntity
  8
0
100
AcDbLine
 62
7
  6
CONTINUOUS
 10
3.2688043561
 20
2.888667771
 11
3.2688043561
 21
3.5200048698
  0
LINE
  5
3A1
100
AcDbEntity
  8
0
100
AcDbLine
 62
7
  6
CONTINUOUS
 10
3.2847223015
 20
1.6120071664
 11
3.2847223015
 21
2.5120177973
  0
LINE
  5
3A2
100
AcDbEntity
  8
0
100
AcDbLine
 62
7
  6
CONTINUOUS
 10
3.5040221726
 20
7.1209858803
 11
3.5040221726
 21
5.4
  0
LINE
  5
3A3
100
AcDbEntity
  8
RACCORDO
100
AcDbLine
 62
250
  6
CONTINUOUS
 10
3.5310263279
 20
-0.6925584824
 11
3.5310262964
 21
-0.4310567573
  0
LINE
  5
3A4
100
AcDbEntity
  8
0
100
AcDbLine
 62
7
  6
CONTINUOUS
 10
3.7094295635
 20
5.4
 11
3.7094295635
 21
7.1209858803
  0
LINE
  5
3A5
100
AcDbEntity
  8
0
100
AcDbLine
 62
7
  6
CONTINUOUS
 10
4.0407988352
 20
2.685528575
 11
4.0407988352
 21
2.6991183268
  0
LINE
  5
3A6
100
AcDbEntity
  8
RACCORDO
100
AcDbLine
 62
7
  6
CONTINUOUS
 10
3.2953236017
 20
-0.6634144029
 11
3.2953931665
 21
-0.5953627055
  0
LINE
  5
3A7
100
AcDbEntity
  8
RACCORDO
100
AcDbLine
 62
250
  6
CONTINUOUS
 10
3.3311164278
 20
-0.6262031247
 11
3.3310567833
 21
-0.6310263223
  0
LINE
  5
3A8
100
AcDbEntity
  8
0
100
AcDbLine
 62
7
  6
CONTINUOUS
 10
8.0556708127
 20
8.4754497454
 11
8.1352005452
 21
8.6058783695
  0
LINE
  5
3A9
100
AcDbEntity
  8
0
100
AcDbLine
 62
7
  6
CONTINUOUS
 10
7.9029736578
 20
8.7490317509
 11
7.8329874933
 21
8.6345089361
  0
LINE
  5
3AA
100
AcDbEntity
  8
RACCORDO
100
AcDbLine
 62
250
  6
CONTINUOUS
 10
3.3229048274
 20
-0.9771256335
 11
3.2949653071
 21
-1.0050651539
  0
LINE
  5
3AB
100
AcDbEntity
  8
RACCORDO
100
AcDbLine
 62
250
  6
CONTINUOUS
 10
3.5228743665
 20
-1.1770951726
 11
3.4947179994
 21
-1.2052515396
  0
LINE
  5
3AC
100
AcDbEntity
  8
0
100
AcDbLine
 62
7
  6
CONTINUOUS
 10
7.1967496336
 20
2.4057401523
 11
7.4671507239
 21
2.4057401523
  0
LINE
  5
3AD
100
AcDbEntity
  8
0
100
AcDbLine
 62
7
  6
CONTINUOUS
 10
1.939371
 20
2.426392
 11
1.479751
 21
2.426392
  0
LINE
  5
3AE
100
AcDbEntity
  8
0
100
AcDbLine
 62
7
  6
CONTINUOUS
 10
3.2847223015
 20
2.5120177973
 11
3.5421170294
 21
2.5120177973
  0
LINE
  5
3AF
100
AcDbEntity
  8
0
100
AcDbLine
 62
7
  6
CONTINUOUS
 10
-6.850006
 20
2.602531
 11
-7.066327
 21
2.602531
  0
LINE
  5
3B0
100
AcDbEntity
  8
0
100
AcDbLine
 62
7
  6
CONTINUOUS
 10
7.1713001192
 20
2.7747581109
 11
9.15
 21
2.7747581109
  0
LINE
  5
3B1
100
AcDbEntity
  8
0
100
AcDbLine
 62
7
  6
CONTINUOUS
 10
3.543151782
 20
2.888667771
 11
3.2688043561
 21
2.888667771
  0
LINE
  5
3B2
100
AcDbEntity
  8
0
100
AcDbLine
 62
7
  6
CONTINUOUS
 10
-9.150011
 20
2.919923
 11
-6.850011
 21
2.919923
  0
LINE
  5
3B3
100
AcDbEntity
  8
0
100
AcDbLine
 62
7
  6
CONTINUOUS
 10
9.15
 20
3.0387968227
 11
6.85
 21
3.0387968227
  0
LINE
  5
3B4
100
AcDbEntity
  8
0
100
AcDbLine
 62
7
  6
CONTINUOUS
 10
-6.850011
 20
3.190325
 11
-9.150011
 21
3.190325
  0
LINE
  5
3B5
100
AcDbEntity
  8
0
100
AcDbLine
 62
7
  6
CONTINUOUS
 10
-9.150007
 20
3.614468
 11
-6.850006
 21
3.614468
  0
LINE
  5
3B6
100
AcDbEntity
  8
0
100
AcDbLine
 62
7
  6
CONTINUOUS
 10
-6.850006
 20
3.865782
 11
-8.91778
 21
3.865782
  0
LINE
  5
3B7
100
AcDbEntity
  8
0
100
AcDbLine
 62
7
  6
CONTINUOUS
 10
1.959997
 20
3.911797
 11
1.4956
 21
3.911797
  0
LINE
  5
3B8
100
AcDbEntity
  8
0
100
AcDbLine
 62
7
  6
CONTINUOUS
 10
0.483802
 20
3.911797
 11
0.008833
 21
3.911797
  0
LINE
  5
3B9
100
AcDbEntity
  8
0
100
AcDbLine
 62
7
  6
CONTINUOUS
 10
-0.946209
 20
3.911797
 11
-1.425869
 21
3.911797
  0
LINE
  5
3BA
100
AcDbEntity
  8
0
100
AcDbLine
 62
7
  6
CONTINUOUS
 10
-2.550162
 20
3.911797
 11
-3.02989
 21
3.911797
  0
LINE
  5
3BB
100
AcDbEntity
  8
0
100
AcDbLine
 62
7
  6
CONTINUOUS
 10
-3.920045
 20
3.911797
 11
-4.441534
 21
3.911797
  0
LINE
  5
3BC
100
AcDbEntity
  8
0
100
AcDbLine
 62
7
  6
CONTINUOUS
 10
-1.891956
 20
3.911935
 11
-2.372012
 21
3.911935
  0
LINE
  5
3BD
100
AcDbEntity
  8
RACCORDO
100
AcDbLine
 62
250
  6
CONTINUOUS
 10
3.4955634073
 20
-0.3955938683
 11
3.5310262964
 21
-0.4310567573
  0
LINE
  5
3BE
100
AcDbEntity
  8
RACCORDO
100
AcDbLine
 62
250
  6
CONTINUOUS
 10
5.7999695344
 20
-2.6999390734
 11
5.8070634577
 21
-2.7070329968
  0
LINE
  5
3BF
100
AcDbEntity
  8
RACCORDO
100
AcDbLine
 62
250
  6
CONTINUOUS
 10
5.9999390734
 20
-2.4999695344
 11
6.006780321
 21
-2.5068107819
  0
LINE
  5
3C0
100
AcDbEntity
  8
RACCORDO
100
AcDbLine
 62
250
  6
CONTINUOUS
 10
6.2052820006
 20
-1.2052515396
 11
6.1771256335
 21
-1.1770951726
  0
LINE
  5
3C1
100
AcDbEntity
  8
RACCORDO
100
AcDbLine
 62
250
  6
CONTINUOUS
 10
6.4050346929
 20
-1.0050651539
 11
6.3770951726
 21
-0.9771256335
  0
LINE
  5
3C2
100
AcDbEntity
  8
0
100
AcDbLine
 62
7
  6
CONTINUOUS
 10
2.66563
 20
1.612007
 11
1.959997
 21
3.911797
  0
LINE
  5
3C3
100
AcDbEntity
  8
0
100
AcDbLine
 62
7
  6
CONTINUOUS
 10
2.03531
 20
2.071127
 11
2.15967
 21
1.612007
  0
LINE
  5
3C4
100
AcDbEntity
  8
0
100
AcDbLine
 62
7
  6
CONTINUOUS
 10
1.718779
 20
3.279873
 11
1.939371
 21
2.426392
  0
LINE
  5
3C5
100
AcDbEntity
  8
RACCORDO
100
AcDbLine
 62
250
  6
CONTINUOUS
 10
4.7485118534
 20
-20.7534300864
 11
4.7485116909
 21
-20.5534605474
  0
LINE
  5
3C6
100
AcDbEntity
  8
RACCORDO
100
AcDbLine
 62
250
  6
CONTINUOUS
 10
4.7485118534
 20
-19.9965699136
 11
4.7485118534
 21
-20.1965394526
  0
LINE
  5
3C7
100
AcDbEntity
  8
RACCORDO
100
AcDbLine
 62
250
  6
CONTINUOUS
 10
4.754291667
 20
-23.7324719501
 11
4.7542916635
 21
-23.5686797183
  0
LINE
  5
3C8
100
AcDbEntity
  8
RACCORDO
100
AcDbLine
 62
250
  6
CONTINUOUS
 10
5.0837555941
 20
-24.3950418342
 11
5.0837555941
 21
-24.5323465765
  0
LINE
  5
3C9
100
AcDbEntity
  8
RACCORDO
100
AcDbLine
 62
250
  6
CONTINUOUS
 10
5.2451731322
 20
-1.1999390734
 11
5.2451731322
 21
-2.4999695344
  0
LINE
  5
3CA
100
AcDbEntity
  8
RACCORDO
100
AcDbLine
 62
7
  6
CONTINUOUS
 10
5.275
 20
-24.8752482938
 11
5.275
 21
-24.6880204493
  0
LINE
  5
3CB
100
AcDbEntity
  8
RACCORDO
100
AcDbLine
 62
250
  6
CONTINUOUS
 10
5.3806651023
 20
-23.7324719501
 11
5.3806651023
 21
-23.5686797244
  0
LINE
  5
3CC
100
AcDbEntity
  8
RACCORDO
100
AcDbLine
 62
250
  6
CONTINUOUS
 10
5.4451426712
 20
-1.196508987
 11
5.4451426712
 21
-2.6999390734
  0
LINE
  5
3CD
100
AcDbEntity
  8
RACCORDO
100
AcDbLine
 62
250
  6
CONTINUOUS
 10
5.5217211053
 20
-24.3950418342
 11
5.5217211048
 21
-24.5323465765
  0
LINE
  5
3CE
100
AcDbEntity
  8
RACCORDO
100
AcDbLine
 62
250
  6
CONTINUOUS
 10
5.6421176646
 20
-20.7534300864
 11
5.6421176683
 21
-20.5534605474
  0
LINE
  5
3CF
100
AcDbEntity
  8
RACCORDO
100
AcDbLine
 62
250
  6
CONTINUOUS
 10
5.7999695344
 20
-2.6999390734
 11
5.7999695344
 21
-1.196508987
  0
LINE
  5
3D0
100
AcDbEntity
  8
RACCORDO
100
AcDbLine
 62
250
  6
CONTINUOUS
 10
5.8369420777
 20
-21.3167645497
 11
5.8369420777
 21
-20.9585447551
  0
LINE
  5
3D1
100
AcDbEntity
  8
RACCORDO
100
AcDbLine
 62
250
  6
CONTINUOUS
 10
5.9999390734
 20
-2.4999695344
 11
5.9999390734
 21
-1.1999390734
  0
LINE
  5
3D2
100
AcDbEntity
  8
RACCORDO
100
AcDbLine
 62
7
  6
CONTINUOUS
 10
5.8003286449
 20
-24.4714753928
 11
5.8067180228
 21
-20.98876881
  0
LINE
  5
3D3
100
AcDbEntity
  8
RACCORDO
100
AcDbLine
 62
250
  6
CONTINUOUS
 10
5.8143281941
 20
-24.8248886929
 11
5.8363750578
 21
-21.4940476781
  0
LINE
  5
3D4
100
AcDbEntity
  8
RACCORDO
100
AcDbLine
 62
250
  6
CONTINUOUS
 10
6.1689737036
 20
-0.4310567573
 11
6.2044365927
 21
-0.3955938683
  0
LINE
  5
3D5
100
AcDbEntity
  8
RACCORDO
100
AcDbLine
 62
250
  6
CONTINUOUS
 10
6.3689431936
 20
-0.6310263455
 11
6.4046068335
 21
-0.5953627055
  0
LINE
  5
3D6
100
AcDbEntity
  8
RACCORDO
100
AcDbLine
 62
250
  6
CONTINUOUS
 10
5.2451731322
 20
-2.4999695344
 11
5.2383318847
 21
-2.5068107819
  0
LINE
  5
3D7
100
AcDbEntity
  8
RACCORDO
100
AcDbLine
 62
250
  6
CONTINUOUS
 10
5.4451426712
 20
-2.6999390734
 11
5.4380487479
 21
-2.7070329968
  0
LINE
  5
3D8
100
AcDbEntity
  8
0
100
AcDbLine
 62
7
  6
CONTINUOUS
 10
-9.150007
 20
4.807414
 11
-7.082233
 21
4.807414
  0
LINE
  5
3D9
100
AcDbEntity
  8
0
100
AcDbLine
 62
7
  6
CONTINUOUS
 10
-6.850006
 20
5.05875
 11
-9.150007
 21
5.05875
  0
LINE
  5
3DA
100
AcDbEntity
  8
0
100
AcDbLine
 62
7
  6
CONTINUOUS
 10
8.3419778496
 20
5.0620332167
 11
8.5901106492
 21
5.0620332167
  0
LINE
  5
3DB
100
AcDbEntity
  8
0
100
AcDbLine
 62
7
  6
CONTINUOUS
 10
-3.3155517821
 20
5.3965397575
 11
-3.1099579961
 21
5.3965397575
  0
LINE
  5
3DC
100
AcDbEntity
  8
0
100
AcDbLine
 62
7
  6
CONTINUOUS
 10
3.5040221726
 20
5.4
 11
3.7094295635
 21
5.4
  0
LINE
  5
3DD
100
AcDbEntity
  8
0
100
AcDbLine
 62
7
  6
CONTINUOUS
 10
0.5780183277
 20
5.4381532716
 11
1.0297016454
 21
5.4381532716
  0
LINE
  5
3DE
100
AcDbEntity
  8
0
100
AcDbLine
 62
7
  6
CONTINUOUS
 10
-9.150007
 20
5.479694
 11
-6.850006
 21
5.479694
  0
LINE
  5
3DF
100
AcDbEntity
  8
0
100
AcDbLine
 62
7
  6
CONTINUOUS
 10
-7.066327
 20
5.750095
 11
-7.928429
 21
5.750095
  0
LINE
  5
3E0
100
AcDbEntity
  8
0
100
AcDbLine
 62
7
  6
CONTINUOUS
 10
-8.144751
 20
5.750095
 11
-8.933686
 21
5.750095
  0
LINE
  5
3E1
100
AcDbEntity
  8
0
100
AcDbLine
 62
7
  6
CONTINUOUS
 10
8.5901106492
 20
5.8032507345
 11
9.15
 21
5.8032507345
  0
LINE
  5
3E2
100
AcDbEntity
  8
0
100
AcDbLine
 62
7
  6
CONTINUOUS
 10
7.0790456295
 20
5.8064317867
 11
8.3896956891
 21
5.8064317867
  0
LINE
  5
3E3
100
AcDbEntity
  8
0
100
AcDbLine
 62
7
  6
CONTINUOUS
 10
-7.6485
 20
7.210253
 11
-8.898687
 21
7.544278
  0
LINE
  5
3E4
100
AcDbEntity
  8
0
100
AcDbLine
 62
7
  6
CONTINUOUS
 10
-6.85
 20
6.981206
 11
-7.432179
 21
7.143447
  0
LINE
  5
3E5
100
AcDbEntity
  8
0
100
AcDbLine
 62
7
  6
CONTINUOUS
 10
-9.150022
 20
7.385218
 11
-6.85
 21
6.710806
  0
LINE
  5
3E6
100
AcDbEntity
  8
RACCORDO
100
AcDbLine
 62
250
  6
CONTINUOUS
 10
6.3689431936
 20
-0.6310263455
 11
6.3688835492
 21
-0.6262031521
  0
LINE
  5
3E7
100
AcDbEntity
  8
RACCORDO
100
AcDbLine
 62
250
  6
CONTINUOUS
 10
6.3543677794
 20
-21.6713308066
 11
6.3759253238
 21
-24.9282454583
  0
LINE
  5
3E8
100
AcDbEntity
  8
RACCORDO
100
AcDbLine
 62
250
  6
CONTINUOUS
 10
6.5543373184
 20
-21.6004175552
 11
6.5760905905
 21
-24.8869027521
  0
LINE
  5
3E9
100
AcDbEntity
  8
RACCORDO
100
AcDbLine
 62
7
  6
CONTINUOUS
 10
6.5951886489
 20
-24.4714753928
 11
6.5878330269
 21
-20.4620908207
  0
LINE
  5
3EA
100
AcDbEntity
  8
RACCORDO
100
AcDbLine
 62
7
  6
CONTINUOUS
 10
6.4046068335
 20
-0.5953627055
 11
6.4046763983
 21
-0.6634143993
  0
LINE
  5
3EB
100
AcDbEntity
  8
RACCORDO
100
AcDbLine
 62
250
  6
CONTINUOUS
 10
6.0535062388
 20
-19.9965699136
 11
6.0535062388
 21
-20.1965394526
  0
LINE
  5
3EC
100
AcDbEntity
  8
RACCORDO
100
AcDbLine
 62
250
  6
CONTINUOUS
 10
6.168973627
 20
-0.6925543809
 11
6.1689737036
 21
-0.4310567573
  0
LINE
  5
3ED
100
AcDbEntity
  8
RACCORDO
100
AcDbLine
 62
250
  6
CONTINUOUS
 10
6.3368659253
 20
-20.9585447551
 11
6.3368659253
 21
-21.3167645497
  0
LINE
  5
3EE
100
AcDbEntity
  8
RACCORDO
100
AcDbLine
 62
250
  6
CONTINUOUS
 10
6.3534605474
 20
-20.4964937612
 11
6.3534605474
 21
-21.3167645497
  0
LINE
  5
3EF
100
AcDbEntity
  8
RACCORDO
100
AcDbLine
 62
250
  6
CONTINUOUS
 10
6.5534300864
 20
-20.4964937612
 11
6.5534300864
 21
-21.3167645497
  0
LINE
  5
3F0
100
AcDbEntity
  8
0
100
AcDbLine
 62
7
  6
CONTINUOUS
 10
6.85
 20
7.3524895117
 11
6.85
 21
7.1170817778
  0
LINE
  5
3F1
100
AcDbEntity
  8
0
100
AcDbLine
 62
7
  6
CONTINUOUS
 10
6.85
 20
6.0513832256
 11
6.85
 21
5.6950900242
  0
LINE
  5
3F2
100
AcDbEntity
  8
0
100
AcDbLine
 62
7
  6
CONTINUOUS
 10
6.85
 20
3.0387968227
 11
6.85
 21
2.8033888146
  0
LINE
  5
3F3
100
AcDbEntity
  8
0
100
AcDbLine
 62
7
  6
CONTINUOUS
 10
7.3939833701
 20
0.7960582472
 11
7.3939833701
 21
1.0505534083
  0
LINE
  5
3F4
100
AcDbEntity
  8
0
100
AcDbLine
 62
7
  6
CONTINUOUS
 10
7.4385200202
 20
8.9430847093
 11
7.4385200202
 21
9.2166667148
  0
LINE
  5
3F5
100
AcDbEntity
  8
RACCORDO
100
AcDbLine
 62
250
  6
CONTINUOUS
 10
6.3147413609
 20
-24.9282454583
 11
6.3362989053
 21
-21.6713308066
  0
LINE
  5
3F6
100
AcDbEntity
  8
RACCORDO
100
AcDbLine
 62
250
  6
CONTINUOUS
 10
9.7776366468
 20
11.2964860991
 11
10.0262053601
 21
12.2241571663
  0
LINE
  5
3F7
100
AcDbEntity
  8
RACCORDO
100
AcDbLine
 62
250
  6
CONTINUOUS
 10
9.9707923891
 20
11.2447301739
 11
10.2193611024
 21
12.1724012411
  0
LINE
  5
3F8
100
AcDbEntity
  8
RACCORDO
100
AcDbLine
 62
7
  6
CONTINUOUS
 10
10.0337300023
 20
11.3175222811
 11
10.2613141848
 21
12.166878013
  0
LINE
  5
3F9
100
AcDbEntity
  8
RACCORDO
100
AcDbLine
 62
7
  6
CONTINUOUS
 10
10.0068623476
 20
7.0217580526
 11
10.0840342344
 21
7.2536979213
  0
LINE
  5
3FA
100
AcDbEntity
  8
RACCORDO
100
AcDbLine
 62
7
  6
CONTINUOUS
 10
-0.7986105973
 20
-9.0291663972
 11
-1.0
 21
-9.15
  0
LINE
  5
3FB
100
AcDbEntity
  8
RACCORDO
100
AcDbLine
 62
7
  6
CONTINUOUS
 10
-9.905472871
 20
-11.1747318288
 11
-9.9922658363
 21
-11.2036569415
  0
LINE
  5
3FC
100
AcDbEntity
  8
0
100
AcDbLine
 62
7
  6
CONTINUOUS
 10
9.15
 20
6.0513832256
 11
8.5901106492
 21
6.0513832256
  0
LINE
  5
3FD
100
AcDbEntity
  8
0
100
AcDbLine
 62
7
  6
CONTINUOUS
 10
8.3896956891
 20
6.0513832256
 11
6.85
 21
6.0513832256
  0
LINE
  5
3FE
100
AcDbEntity
  8
0
100
AcDbLine
 62
7
  6
CONTINUOUS
 10
8.5901106492
 20
6.2963346645
 11
8.3896956891
 21
6.2963346645
  0
LINE
  5
3FF
100
AcDbEntity
  8
0
100
AcDbLine
 62
7
  6
CONTINUOUS
 10
-7.928429
 20
6.497674
 11
-8.144751
 21
6.497674
  0
LINE
  5
400
100
AcDbEntity
  8
0
100
AcDbLine
 62
7
  6
CONTINUOUS
 10
-8.933686
 20
6.53903
 11
-9.150007
 21
6.53903
  0
LINE
  5
401
100
AcDbEntity
  8
0
100
AcDbLine
 62
7
  6
CONTINUOUS
 10
-6.850006
 20
6.561298
 11
-7.066327
 21
6.561298
  0
LINE
  5
402
100
AcDbEntity
  8
0
100
AcDbLine
 62
7
  6
CONTINUOUS
 10
1.0297016454
 20
6.7002457332
 11
1.2758137705
 21
6.7002457332
  0
LINE
  5
403
100
AcDbEntity
  8
0
100
AcDbLine
 62
7
  6
CONTINUOUS
 10
7.1967496336
 20
6.7194332525
 11
7.4671507239
 21
6.7194332525
  0
LINE
  5
404
100
AcDbEntity
  8
RACCORDO
100
AcDbLine
 62
250
  6
CONTINUOUS
 10
-11.1
 20
6.7226828525
 11
-9.9996229283
 21
6.7226828525
  0
LINE
  5
405
100
AcDbEntity
  8
RACCORDO
100
AcDbLine
 62
250
  6
CONTINUOUS
 10
9.9996229283
 20
6.7226828525
 11
11.1
 21
6.7226828525
  0
LINE
  5
406
100
AcDbEntity
  8
RACCORDO
100
AcDbLine
 62
250
  6
CONTINUOUS
 10
-11.0975873503
 20
7.0217580526
 11
-10.0068623476
 21
7.0217580526
  0
LINE
  5
407
100
AcDbEntity
  8
RACCORDO
100
AcDbLine
 62
250
  6
CONTINUOUS
 10
10.0068623476
 20
7.0217580526
 11
11.0975873503
 21
7.0217580526
  0
LINE
  5
408
100
AcDbEntity
  8
0
100
AcDbLine
 62
7
  6
CONTINUOUS
 10
1.2405963948
 20
7.0389058454
 11
1.0297016454
 21
7.0389058454
  0
LINE
  5
409
100
AcDbEntity
  8
0
100
AcDbLine
 62
7
  6
CONTINUOUS
 10
7.1713001192
 20
7.0884512112
 11
9.15
 21
7.0884512112
  0
LINE
  5
40A
100
AcDbEntity
  8
0
100
AcDbLine
 62
7
  6
CONTINUOUS
 10
-3.6973821272
 20
7.1175256378
 11
-3.3155517821
 21
7.1175256378
  0
LINE
  5
40B
100
AcDbEntity
  8
0
100
AcDbLine
 62
7
  6
CONTINUOUS
 10
-3.1099579961
 20
7.1175256378
 11
-2.7282208486
 21
7.1175256378
  0
LINE
  5
40C
100
AcDbEntity
  8
0
100
AcDbLine
 62
7
  6
CONTINUOUS
 10
3.12209863
 20
7.1209858803
 11
3.5040221726
 21
7.1209858803
  0
LINE
  5
40D
100
AcDbEntity
  8
0
100
AcDbLine
 62
7
  6
CONTINUOUS
 10
3.7094295635
 20
7.1209858803
 11
4.0913531061
 21
7.1209858803
  0
LINE
  5
40E
100
AcDbEntity
  8
RACCORDO
100
AcDbLine
 62
250
  6
CONTINUOUS
 10
-11.0718686124
 20
7.2536979213
 11
-10.0840342344
 21
7.2536979213
  0
LINE
  5
40F
100
AcDbEntity
  8
RACCORDO
100
AcDbLine
 62
250
  6
CONTINUOUS
 10
10.0840342344
 20
7.2536979213
 11
11.0718686124
 21
7.2536979213
  0
LINE
  5
410
100
AcDbEntity
  8
0
100
AcDbLine
 62
7
  6
CONTINUOUS
 10
9.15
 20
7.3524895117
 11
6.85
 21
7.3524895117
  0
LINE
  5
411
100
AcDbEntity
  8
RACCORDO
100
AcDbLine
 62
250
  6
CONTINUOUS
 10
-11.0694559627
 20
7.5527731214
 11
-10.0912736538
 21
7.5527731214
  0
LINE
  5
412
100
AcDbEntity
  8
RACCORDO
100
AcDbLine
 62
250
  6
CONTINUOUS
 10
10.0912736538
 20
7.5527731214
 11
11.0694559627
 21
7.5527731214
  0
LINE
  5
413
100
AcDbEntity
  8
0
100
AcDbLine
 62
7
  6
CONTINUOUS
 10
6.85
 20
5.6950900242
 11
8.3419778496
 21
5.0620332167
  0
LINE
  5
414
100
AcDbEntity
  8
0
100
AcDbLine
 62
7
  6
CONTINUOUS
 10
4.0913531061
 20
7.1209858803
 11
3.606725868
 21
8.2976980933
  0
LINE
  5
415
100
AcDbEntity
  8
RACCORDO
100
AcDbLine
 62
250
  6
CONTINUOUS
 10
9.7199738409
 20
-25.1022127811
 11
9.668887889
 21
-24.6880204493
  0
LINE
  5
416
100
AcDbEntity
  8
RACCORDO
100
AcDbLine
 62
250
  6
CONTINUOUS
 10
9.9199053059
 20
-24.9065734171
 11
9.868819354
 21
-24.4923810854
  0
LINE
  5
417
100
AcDbEntity
  8
RACCORDO
100
AcDbLine
 62
250
  6
CONTINUOUS
 10
7.9948548704
 20
-21.6248091789
 11
7.9948548704
 21
-21.7351908211
  0
LINE
  5
418
100
AcDbEntity
  8
RACCORDO
100
AcDbLine
 62
250
  6
CONTINUOUS
 10
8.2948091789
 20
-21.3248548704
 11
8.2948091789
 21
-22.0351451296
  0
LINE
  5
419
100
AcDbEntity
  8
0
100
AcDbLine
 62
7
  6
CONTINUOUS
 10
8.3896956891
 20
6.2963346645
 11
8.3896956891
 21
6.0513832256
  0
LINE
  5
41A
100
AcDbEntity
  8
0
100
AcDbLine
 62
7
  6
CONTINUOUS
 10
8.3896956891
 20
5.8064317867
 11
8.3896956891
 21
5.2688109323
  0
LINE
  5
41B
100
AcDbEntity
  8
0
100
AcDbLine
 62
7
  6
CONTINUOUS
 10
8.5042185038
 20
8.2432230636
 11
8.5042185038
 21
7.9632784054
  0
LINE
  5
41C
100
AcDbEntity
  8
0
100
AcDbLine
 62
7
  6
CONTINUOUS
 10
8.5805670813
 20
1.0251038939
 11
8.5805670813
 21
0.7642463457
  0
LINE
  5
41D
100
AcDbEntity
  8
0
100
AcDbLine
 62
7
  6
CONTINUOUS
 10
8.5901106492
 20
5.0620332167
 11
8.5901106492
 21
5.8032507345
  0
LINE
  5
41E
100
AcDbEntity
  8
0
100
AcDbLine
 62
7
  6
CONTINUOUS
 10
8.5901106492
 20
6.0513832256
 11
8.5901106492
 21
6.2963346645
  0
LINE
  5
41F
100
AcDbEntity
  8
0
100
AcDbLine
 62
7
  6
CONTINUOUS
 10
9.15
 20
2.7747581109
 11
9.15
 21
3.0387968227
  0
LINE
  5
420
100
AcDbEntity
  8
0
100
AcDbLine
 62
7
  6
CONTINUOUS
 10
9.15
 20
5.8032507345
 11
9.15
 21
6.0513832256
  0
LINE
  5
421
100
AcDbEntity
  8
0
100
AcDbLine
 62
7
  6
CONTINUOUS
 10
9.15
 20
7.0884512112
 11
9.15
 21
7.3524895117
  0
LINE
  5
422
100
AcDbEntity
  8
RACCORDO
100
AcDbLine
 62
7
  6
CONTINUOUS
 10
9.687050838
 20
-11.4020432226
 11
9.687050838
 21
-16.2356934491
  0
LINE
  5
423
100
AcDbEntity
  8
RACCORDO
100
AcDbLine
 62
250
  6
CONTINUOUS
 10
9.736708158
 20
10.7371426949
 11
9.736708158
 21
10.9856334705
  0
LINE
  5
424
100
AcDbEntity
  8
RACCORDO
100
AcDbLine
 62
250
  6
CONTINUOUS
 10
9.736708158
 20
18.0143665295
 11
9.736708158
 21
25.1366053437
  0
LINE
  5
425
100
AcDbEntity
  8
RACCORDO
100
AcDbLine
 62
250
  6
CONTINUOUS
 10
9.811693777
 20
-11.4032940408
 11
9.811693777
 21
-16.1835185879
  0
LINE
  5
426
100
AcDbEntity
  8
RACCORDO
100
AcDbLine
 62
7
  6
CONTINUOUS
 10
9.6570821223
 20
-12.2
 11
9.6578408251
 21
-11.3728332097
  0
LINE
  5
427
100
AcDbEntity
  8
RACCORDO
100
AcDbLine
 62
7
  6
CONTINUOUS
 10
7.9357052736
 20
-21.5656595821
 11
7.9352849643
 21
-21.7947607271
  0
LINE
  5
428
100
AcDbEntity
  8
RACCORDO
100
AcDbLine
 62
250
  6
CONTINUOUS
 10
9.668887889
 20
-24.6880204493
 11
9.6754278134
 21
-22.0952663437
  0
LINE
  5
429
100
AcDbEntity
  8
RACCORDO
100
AcDbLine
 62
250
  6
CONTINUOUS
 10
9.6777094621
 20
-21.2662545624
 11
9.691492149
 21
-16.2584680077
  0
LINE
  5
42A
100
AcDbEntity
  8
RACCORDO
100
AcDbLine
 62
250
  6
CONTINUOUS
 10
9.7052939133
 20
-11.2437498589
 11
9.7077275589
 21
-10.3595116908
  0
LINE
  5
42B
100
AcDbEntity
  8
RACCORDO
100
AcDbLine
 62
7
  6
CONTINUOUS
 10
6.5924417736
 20
-24.6880204493
 11
6.5760905905
 21
-24.8869027521
  0
LINE
  5
42C
100
AcDbEntity
  8
RACCORDO
100
AcDbLine
 62
7
  6
CONTINUOUS
 10
10.2997103762
 20
14.8762018049
 11
10.3079725316
 21
14.9596641646
  0
LINE
  5
42D
100
AcDbEntity
  8
RACCORDO
100
AcDbLine
 62
7
  6
CONTINUOUS
 10
11.0718686124
 20
10.7463020787
 11
11.0975873503
 21
10.9782419474
  0
LINE
  5
42E
100
AcDbEntity
  8
RACCORDO
100
AcDbLine
 62
250
  6
CONTINUOUS
 10
2.0237589656
 20
-10.8969048719
 11
1.7980482593
 21
-11.1955227751
  0
LINE
  5
42F
100
AcDbEntity
  8
RACCORDO
100
AcDbLine
 62
250
  6
CONTINUOUS
 10
2.1834617404
 20
-11.0381552373
 11
1.8942001363
 21
-11.4208517212
  0
LINE
  5
430
100
AcDbEntity
  8
RACCORDO
100
AcDbLine
 62
250
  6
CONTINUOUS
 10
-8.2948091789
 20
-21.3248548704
 11
-8.2362088709
 21
-21.2662545624
  0
LINE
  5
431
100
AcDbEntity
  8
RACCORDO
100
AcDbLine
 62
250
  6
CONTINUOUS
 10
-7.9948548704
 20
-21.6248091789
 11
-7.9357052736
 21
-21.5656595821
  0
LINE
  5
432
100
AcDbEntity
  8
RACCORDO
100
AcDbLine
 62
7
  6
CONTINUOUS
 10
-1.9256620743
 20
-11.4442563557
 11
-1.8942001363
 21
-11.4208517212
  0
LINE
  5
433
100
AcDbEntity
  8
0
100
AcDbLine
 62
7
  6
CONTINUOUS
 10
-7.432179
 20
7.941927
 11
-6.85
 21
8.104146
  0
LINE
  5
434
100
AcDbEntity
  8
0
100
AcDbLine
 62
7
  6
CONTINUOUS
 10
-8.898687
 20
7.544278
 11
-7.6485
 21
7.878303
  0
LINE
  5
435
100
AcDbEntity
  8
0
100
AcDbLine
 62
7
  6
CONTINUOUS
 10
8.5042185038
 20
7.9632784054
 11
8.5296680182
 21
7.9632784054
  0
LINE
  5
436
100
AcDbEntity
  8
0
100
AcDbLine
 62
7
  6
CONTINUOUS
 10
1.0297016454
 20
8.0147547539
 11
1.2610716132
 21
8.0147547539
  0
LINE
  5
437
100
AcDbEntity
  8
0
100
AcDbLine
 62
7
  6
CONTINUOUS
 10
8.5296680182
 20
8.2432230636
 11
8.5042185038
 21
8.2432230636
  0
LINE
  5
438
100
AcDbEntity
  8
0
100
AcDbLine
 62
7
  6
CONTINUOUS
 10
1.3564861309
 20
8.3530053617
 11
0.5780183277
 21
8.3530053617
  0
LINE
  5
439
100
AcDbEntity
  8
0
100
AcDbLine
 62
7
  6
CONTINUOUS
 10
-0.0100299444
 20
8.353414866
 11
-0.4498376355
 21
8.353414866
  0
LINE
  5
43A
100
AcDbEntity
  8
0
100
AcDbLine
 62
7
  6
CONTINUOUS
 10
-1.3773650285
 20
8.353414866
 11
-1.8282293375
 21
8.353414866
  0
LINE
  5
43B
100
AcDbEntity
  8
0
100
AcDbLine
 62
7
  6
CONTINUOUS
 10
7.3844398022
 20
8.9430847093
 11
7.4385200202
 21
8.9430847093
  0
LINE
  5
43C
100
AcDbEntity
  8
0
100
AcDbLine
 62
7
  6
CONTINUOUS
 10
7.4385200202
 20
9.2166667148
 11
7.3621714771
 21
9.2166667148
  0
LINE
  5
43D
100
AcDbEntity
  8
0
100
AcDbLine
 62
7
  6
CONTINUOUS
 10
8.3896956891
 20
5.2688109323
 11
7.0790456295
 21
5.8064317867
  0
LINE
  5
43E
100
AcDbEntity
  8
RACCORDO
100
AcDbLine
 62
250
  6
CONTINUOUS
 10
10.2721914759
 20
-21.3130263813
 11
10.2284643235
 21
-16.3023910138
  0
LINE
  5
43F
100
AcDbEntity
  8
RACCORDO
100
AcDbLine
 62
7
  6
CONTINUOUS
 10
10.3347981654
 20
-21.3439640519
 11
10.2899132466
 21
-16.2006617941
  0
LINE
  5
440
100
AcDbEntity
  8
RACCORDO
100
AcDbLine
 62
7
  6
CONTINUOUS
 10
11.0915504297
 20
15.2315687618
 11
11.0891487799
 21
18.7283392151
  0
LINE
  5
441
100
AcDbEntity
  8
RACCORDO
100
AcDbLine
 62
250
  6
CONTINUOUS
 10
9.9321721665
 20
-21.3059846117
 11
9.9321721665
 21
-16.2884268707
  0
LINE
  5
442
100
AcDbEntity
  8
RACCORDO
100
AcDbLine
 62
250
  6
CONTINUOUS
 10
9.936639623
 20
10.7371426949
 11
9.936639623
 21
10.9856334705
  0
LINE
  5
443
100
AcDbEntity
  8
RACCORDO
100
AcDbLine
 62
250
  6
CONTINUOUS
 10
9.936639623
 20
18.0143665295
 11
9.936639623
 21
24.9366738787
  0
LINE
  5
444
100
AcDbEntity
  8
RACCORDO
100
AcDbLine
 62
7
  6
CONTINUOUS
 10
9.9681998224
 20
-24.9682340781
 11
9.9681998224
 21
-22.5392953814
  0
LINE
  5
445
100
AcDbEntity
  8
RACCORDO
100
AcDbLine
 62
7
  6
CONTINUOUS
 10
9.9681998224
 20
-21.6248091789
 11
9.9681998224
 21
-21.7351908211
  0
LINE
  5
446
100
AcDbEntity
  8
RACCORDO
100
AcDbLine
 62
7
  6
CONTINUOUS
 10
9.9891485596
 20
-21.3439640519
 11
9.9891485596
 21
-21.3675103668
  0
LINE
  5
447
100
AcDbEntity
  8
RACCORDO
100
AcDbLine
 62
250
  6
CONTINUOUS
 10
9.9944327163
 20
-21.308425519
 11
9.9944327163
 21
-16.2936961029
  0
LINE
  5
448
100
AcDbEntity
  8
RACCORDO
100
AcDbLine
 62
7
  6
CONTINUOUS
 10
9.9996229283
 20
6.7226828525
 11
9.9996229283
 21
-13.7210675705
  0
LINE
  5
449
100
AcDbEntity
  8
RACCORDO
100
AcDbLine
 62
7
  6
CONTINUOUS
 10
9.9996229283
 20
19.4747494584
 11
9.9996229283
 21
24.999657184
  0
LINE
  5
44A
100
AcDbEntity
  8
RACCORDO
100
AcDbLine
 62
250
  6
CONTINUOUS
 10
10.0534605474
 20
12.4311808668
 11
10.0534605474
 21
16.5688191332
  0
LINE
  5
44B
100
AcDbEntity
  8
RACCORDO
100
AcDbLine
 62
7
  6
CONTINUOUS
 10
10.0912736538
 20
7.5527731214
 11
10.0912736538
 21
10.4472268786
  0
LINE
  5
44C
100
AcDbEntity
  8
RACCORDO
100
AcDbLine
 62
250
  6
CONTINUOUS
 10
10.2534300864
 20
12.4311808668
 11
10.2534300864
 21
16.5688191332
  0
LINE
  5
44D
100
AcDbEntity
  8
RACCORDO
100
AcDbLine
 62
7
  6
CONTINUOUS
 10
10.2953831688
 20
12.4256576388
 11
10.2953831688
 21
14.580759479
  0
LINE
  5
44E
100
AcDbEntity
  8
RACCORDO
100
AcDbLine
 62
7
  6
CONTINUOUS
 10
11.0685768941
 20
-25.8687482316
 11
11.0685768941
 21
-22.5392953814
  0
LINE
  5
44F
100
AcDbEntity
  8
RACCORDO
100
AcDbLine
 62
7
  6
CONTINUOUS
 10
11.0694559627
 20
7.5527731214
 11
11.0694559627
 21
10.4472268786
  0
LINE
  5
450
100
AcDbEntity
  8
RACCORDO
100
AcDbLine
 62
7
  6
CONTINUOUS
 10
11.0895256314
 20
-19.196450535
 11
11.0895256314
 21
-21.3675103668
  0
LINE
  5
451
100
AcDbEntity
  8
RACCORDO
100
AcDbLine
 62
7
  6
CONTINUOUS
 10
11.1
 20
25.9001713375
 11
11.1
 21
-13.7210675705
  0
LINE
  5
452
100
AcDbEntity
  8
RACCORDO
100
AcDbLine
 62
7
  6
CONTINUOUS
 10
10.3122835966
 20
15.2315687618
 11
10.3141316137
 21
16.5768106408
  0
LINE
  5
453
100
AcDbEntity
  8
RACCORDO
100
AcDbLine
 62
7
  6
CONTINUOUS
 10
10.0304880981
 20
17.905823674
 11
10.0321832013
 21
18.7283392151
  0
LINE
  5
454
100
AcDbEntity
  8
RACCORDO
100
AcDbLine
 62
7
  6
CONTINUOUS
 10
11.0995963877
 20
-14.1133630491
 11
11.0899292437
 21
-18.8041550564
  0
LINE
  5
455
100
AcDbEntity
  8
RACCORDO
100
AcDbLine
 62
250
  6
CONTINUOUS
 10
9.868819354
 20
-24.4923810854
 11
9.875426243
 21
-22.0918412015
  0
LINE
  5
456
100
AcDbEntity
  8
RACCORDO
100
AcDbLine
 62
250
  6
CONTINUOUS
 10
9.8776890725
 20
-21.26966716
 11
9.8913989893
 21
-16.2883208115
  0
LINE
  5
457
100
AcDbEntity
  8
RACCORDO
100
AcDbLine
 62
250
  6
CONTINUOUS
 10
9.905472871
 20
-11.1747318288
 11
9.9076590239
 21
-10.3804173835
  0
LINE
  5
458
100
AcDbEntity
  8
RACCORDO
100
AcDbLine
 62
7
  6
CONTINUOUS
 10
9.9873106571
 20
-21.5603466497
 11
9.9700377249
 21
-22.3464590985
  0
LINE
  5
459
100
AcDbEntity
  8
RACCORDO
100
AcDbLine
 62
7
  6
CONTINUOUS
 10
11.0876877288
 20
-21.5603466497
 11
11.0704147967
 21
-22.3464590985
  0
LINE
  5
45A
100
AcDbEntity
  8
RACCORDO
100
AcDbLine
 62
7
  6
CONTINUOUS
 10
11.0913041483
 20
19.0473192698
 11
11.0978365611
 21
19.1793071325
  0
LINE
  5
45B
100
AcDbEntity
  8
RACCORDO
100
AcDbLine
 62
7
  6
CONTINUOUS
 10
9.687050838
 20
-16.2356934491
 11
9.6854333298
 21
-16.2584513323
  0
LINE
  5
45C
100
AcDbEntity
  8
RACCORDO
100
AcDbLine
 62
7
  6
CONTINUOUS
 10
9.983380666
 20
-14.1133630491
 11
9.811693777
 21
-16.1835185879
  0
LINE
  5
45D
100
AcDbEntity
  8
RACCORDO
100
AcDbLine
 62
250
  6
CONTINUOUS
 10
-9.9237075657
 20
-24.9237418214
 11
-9.9681998224
 21
-24.9682340781
  0
LINE
  5
45E
100
AcDbEntity
  8
RACCORDO
100
AcDbLine
 62
250
  6
CONTINUOUS
 10
-9.7237761007
 20
-25.1236732864
 11
-9.7682683574
 21
-25.1681655431
  0
LINE
  5
45F
100
AcDbEntity
  8
RACCORDO
100
AcDbLine
 62
7
  6
CONTINUOUS
 10
1.937605619
 20
-11.43891248
 11
1.9256617553
 21
-11.4442567795
  0
LINE
  5
460
100
AcDbEntity
  8
RACCORDO
100
AcDbLine
 62
250
  6
CONTINUOUS
 10
-11.0694559627
 20
10.4472268786
 11
-10.0912736538
 21
10.4472268786
  0
LINE
  5
461
100
AcDbEntity
  8
RACCORDO
100
AcDbLine
 62
250
  6
CONTINUOUS
 10
10.0912736538
 20
10.4472268786
 11
11.0694559627
 21
10.4472268786
  0
LINE
  5
462
100
AcDbEntity
  8
RACCORDO
100
AcDbLine
 62
250
  6
CONTINUOUS
 10
9.936639623
 20
10.7371426949
 11
-9.936639623
 21
10.7371426949
  0
LINE
  5
463
100
AcDbEntity
  8
RACCORDO
100
AcDbLine
 62
250
  6
CONTINUOUS
 10
-11.0718686124
 20
10.7463020787
 11
-10.0840342344
 21
10.7463020787
  0
LINE
  5
464
100
AcDbEntity
  8
RACCORDO
100
AcDbLine
 62
250
  6
CONTINUOUS
 10
10.0840342344
 20
10.7463020787
 11
11.0718686124
 21
10.7463020787
  0
LINE
  5
465
100
AcDbEntity
  8
RACCORDO
100
AcDbLine
 62
250
  6
CONTINUOUS
 10
11.0975873503
 20
10.9782419474
 11
10.0068623476
 21
10.9782419474
  0
LINE
  5
466
100
AcDbEntity
  8
RACCORDO
100
AcDbLine
 62
250
  6
CONTINUOUS
 10
-10.0068623476
 20
10.9782419474
 11
-11.0975873503
 21
10.9782419474
  0
LINE
  5
467
100
AcDbEntity
  8
RACCORDO
100
AcDbLine
 62
250
  6
CONTINUOUS
 10
9.936639623
 20
10.9856334705
 11
9.736708158
 21
10.9856334705
  0
LINE
  5
468
100
AcDbEntity
  8
RACCORDO
100
AcDbLine
 62
250
  6
CONTINUOUS
 10
-9.736708158
 20
10.9856334705
 11
-9.936639623
 21
10.9856334705
  0
LINE
  5
469
100
AcDbEntity
  8
RACCORDO
100
AcDbLine
 62
250
  6
CONTINUOUS
 10
11.1
 20
11.2773171475
 11
10.0238434114
 21
11.2773171475
  0
LINE
  5
46A
100
AcDbEntity
  8
RACCORDO
100
AcDbLine
 62
250
  6
CONTINUOUS
 10
-10.0238434114
 20
11.2773171475
 11
-11.1
 21
11.2773171475
  0
LINE
  5
46B
100
AcDbEntity
  8
RACCORDO
100
AcDbLine
 62
250
  6
CONTINUOUS
 10
-9.9996229283
 20
24.999657184
 11
-9.936639623
 21
24.9366738787
  0
LINE
  5
46C
100
AcDbEntity
  8
RACCORDO
100
AcDbLine
 62
250
  6
CONTINUOUS
 10
-9.7996914633
 20
25.199588649
 11
-9.736708158
 21
25.1366053437
  0
LINE
  5
46D
100
AcDbEntity
  8
RACCORDO
100
AcDbLine
 62
7
  6
CONTINUOUS
 10
11.0978365611
 20
14.8762018049
 11
11.093705798
 21
14.9596641646
  0
LINE
  5
46E
100
AcDbEntity
  8
RACCORDO
100
AcDbLine
 62
7
  6
CONTINUOUS
 10
-9.9891485596
 20
-21.3439640519
 11
-9.9604811481
 21
-21.3248548704
  0
LINE
  5
46F
100
AcDbEntity
  8
RACCORDO
100
AcDbLine
 62
7
  6
CONTINUOUS
 10
-9.8776890725
 20
-21.26966716
 11
-9.9292306761
 21
-21.3040238671
  0
LINE
  5
470
100
AcDbEntity
  8
RACCORDO
100
AcDbLine
 62
250
  6
CONTINUOUS
 10
2.5694850044
 20
-13.5955985898
 11
2.5684464545
 21
-13.5961648721
  0
LINE
  5
471
100
AcDbEntity
  8
RACCORDO
100
AcDbLine
 62
7
  6
CONTINUOUS
 10
2.0224806314
 20
-12.364345457
 11
2.0214680515
 21
-12.3648648628
  0
LINE
  5
472
100
AcDbEntity
  8
RACCORDO
100
AcDbLine
 62
250
  6
CONTINUOUS
 10
-9.7776366468
 20
11.2964860991
 11
-9.9707923891
 21
11.2447301739
  0
LINE
  5
473
100
AcDbEntity
  8
RACCORDO
100
AcDbLine
 62
250
  6
CONTINUOUS
 10
10.2193611024
 20
16.8275987589
 11
10.0262053601
 21
16.7758428337
  0
LINE
  5
474
100
AcDbEntity
  8
RACCORDO
100
AcDbLine
 62
250
  6
CONTINUOUS
 10
-10.2613141848
 20
12.166878013
 11
-10.2193611024
 21
12.1724012411
  0
LINE
  5
475
100
AcDbEntity
  8
RACCORDO
100
AcDbLine
 62
250
  6
CONTINUOUS
 10
-10.2953831688
 20
12.4256576388
 11
-10.2534300864
 21
12.4311808668
  0
LINE
  5
476
100
AcDbEntity
  8
RACCORDO
100
AcDbLine
 62
250
  6
CONTINUOUS
 10
10.2534300864
 20
12.4311808668
 11
10.0534605474
 21
12.4311808668
  0
LINE
  5
477
100
AcDbEntity
  8
RACCORDO
100
AcDbLine
 62
250
  6
CONTINUOUS
 10
-10.0534605474
 20
12.4311808668
 11
-10.2534300864
 21
12.4311808668
  0
LINE
  5
478
100
AcDbEntity
  8
RACCORDO
100
AcDbLine
 62
250
  6
CONTINUOUS
 10
10.2613141848
 20
12.166878013
 11
10.2193611024
 21
12.1724012411
  0
LINE
  5
479
100
AcDbEntity
  8
RACCORDO
100
AcDbLine
 62
250
  6
CONTINUOUS
 10
10.2953831688
 20
12.4256576388
 11
10.2534300864
 21
12.4311808668
  0
LINE
  5
47A
100
AcDbEntity
  8
RACCORDO
100
AcDbLine
 62
250
  6
CONTINUOUS
 10
9.9707923891
 20
11.2447301739
 11
9.7776366468
 21
11.2964860991
  0
LINE
  5
47B
100
AcDbEntity
  8
RACCORDO
100
AcDbLine
 62
250
  6
CONTINUOUS
 10
-10.0262053601
 20
16.7758428337
 11
-10.2193611024
 21
16.8275987589
  0
LINE
  5
47C
100
AcDbEntity
  8
RACCORDO
100
AcDbLine
 62
7
  6
CONTINUOUS
 10
10.0840342344
 20
10.7463020787
 11
10.0068623476
 21
10.9782419474
  0
LINE
  5
47D
100
AcDbEntity
  8
RACCORDO
100
AcDbLine
 62
7
  6
CONTINUOUS
 10
10.0257157828
 20
19.0473192698
 11
10.0061145635
 21
19.1793071325
  0
LINE
  5
47E
100
AcDbEntity
  8
RACCORDO
100
AcDbLine
 62
7
  6
CONTINUOUS
 10
11.0975873503
 20
7.0217580526
 11
11.0718686124
 21
7.2536979213
  0
LINE
  5
47F
100
AcDbEntity
  8
RACCORDO
100
AcDbLine
 62
250
  6
CONTINUOUS
 10
-5.7379334714
 20
-24.301492458
 11
-5.715677363
 21
-24.2840874721
  0
LINE
  5
480
100
AcDbEntity
  8
RACCORDO
100
AcDbLine
 62
250
  6
CONTINUOUS
 10
-10.0262053601
 20
12.2241571663
 11
-10.2193611024
 21
12.1724012411
  0
LINE
  5
481
100
AcDbEntity
  8
RACCORDO
100
AcDbLine
 62
250
  6
CONTINUOUS
 10
9.9707923891
 20
17.7552698261
 11
9.7776366468
 21
17.7035139009
  0
LINE
  5
482
100
AcDbEntity
  8
RACCORDO
100
AcDbLine
 62
250
  6
CONTINUOUS
 10
10.3141316137
 20
16.5768106408
 11
10.2534300864
 21
16.5688191332
  0
LINE
  5
483
100
AcDbEntity
  8
RACCORDO
100
AcDbLine
 62
250
  6
CONTINUOUS
 10
10.2804181908
 20
16.8356370771
 11
10.2193611024
 21
16.8275987589
  0
LINE
  5
484
100
AcDbEntity
  8
RACCORDO
100
AcDbLine
 62
250
  6
CONTINUOUS
 10
-11.1
 20
14.580759479
 11
-10.2953831688
 21
14.580759479
  0
LINE
  5
485
100
AcDbEntity
  8
RACCORDO
100
AcDbLine
 62
250
  6
CONTINUOUS
 10
10.2953831688
 20
14.580759479
 11
11.1
 21
14.580759479
  0
LINE
  5
486
100
AcDbEntity
  8
RACCORDO
100
AcDbLine
 62
250
  6
CONTINUOUS
 10
-11.0978365611
 20
14.8762018049
 11
-10.2997103762
 21
14.8762018049
  0
LINE
  5
487
100
AcDbEntity
  8
RACCORDO
100
AcDbLine
 62
250
  6
CONTINUOUS
 10
10.2997103762
 20
14.8762018049
 11
11.0978365611
 21
14.8762018049
  0
LINE
  5
488
100
AcDbEntity
  8
RACCORDO
100
AcDbLine
 62
250
  6
CONTINUOUS
 10
-11.093705798
 20
14.9596641646
 11
-10.3079725316
 21
14.9596641646
  0
LINE
  5
489
100
AcDbEntity
  8
RACCORDO
100
AcDbLine
 62
250
  6
CONTINUOUS
 10
10.3079725316
 20
14.9596641646
 11
11.093705798
 21
14.9596641646
  0
LINE
  5
48A
100
AcDbEntity
  8
RACCORDO
100
AcDbLine
 62
250
  6
CONTINUOUS
 10
-11.0915504297
 20
15.2315687618
 11
-10.3122835966
 21
15.2315687618
  0
LINE
  5
48B
100
AcDbEntity
  8
RACCORDO
100
AcDbLine
 62
250
  6
CONTINUOUS
 10
10.3122835966
 20
15.2315687618
 11
11.0915504297
 21
15.2315687618
  0
LINE
  5
48C
100
AcDbEntity
  8
RACCORDO
100
AcDbLine
 62
250
  6
CONTINUOUS
 10
-10.3141316137
 20
16.5768106408
 11
-10.2534300864
 21
16.5688191332
  0
LINE
  5
48D
100
AcDbEntity
  8
RACCORDO
100
AcDbLine
 62
250
  6
CONTINUOUS
 10
-10.2804181908
 20
16.8356370771
 11
-10.2193611024
 21
16.8275987589
  0
LINE
  5
48E
100
AcDbEntity
  8
RACCORDO
100
AcDbLine
 62
250
  6
CONTINUOUS
 10
10.2193611024
 20
12.1724012411
 11
10.0262053601
 21
12.2241571663
  0
LINE
  5
48F
100
AcDbEntity
  8
RACCORDO
100
AcDbLine
 62
250
  6
CONTINUOUS
 10
-9.7776366468
 20
17.7035139009
 11
-9.9707923891
 21
17.7552698261
  0
LINE
  5
490
100
AcDbEntity
  8
RACCORDO
100
AcDbLine
 62
7
  6
CONTINUOUS
 10
0.3966003711
 20
25.1366053437
 11
0.3859750215
 21
25.1525453917
  0
LINE
  5
491
100
AcDbEntity
  8
RACCORDO
100
AcDbLine
 62
250
  6
CONTINUOUS
 10
10.0262053601
 20
16.7758428337
 11
9.7776366468
 21
17.7035139009
  0
LINE
  5
492
100
AcDbEntity
  8
RACCORDO
100
AcDbLine
 62
250
  6
CONTINUOUS
 10
10.2193611024
 20
16.8275987589
 11
9.9707923891
 21
17.7552698261
  0
LINE
  5
493
100
AcDbEntity
  8
RACCORDO
100
AcDbLine
 62
7
  6
CONTINUOUS
 10
10.0640625842
 20
17.6473957952
 11
10.2804181908
 21
16.8356370771
  0
LINE
  5
494
100
AcDbEntity
  8
RACCORDO
100
AcDbLine
 62
250
  6
CONTINUOUS
 10
-5.5442948957
 20
-24.55
 11
-5.5217211052
 21
-24.5323465765
  0
LINE
  5
495
100
AcDbEntity
  8
RACCORDO
100
AcDbLine
 62
250
  6
CONTINUOUS
 10
10.2534300864
 20
16.5688191332
 11
10.0534605474
 21
16.5688191332
  0
LINE
  5
496
100
AcDbEntity
  8
RACCORDO
100
AcDbLine
 62
250
  6
CONTINUOUS
 10
-10.0534605474
 20
16.5688191332
 11
-10.2534300864
 21
16.5688191332
  0
LINE
  5
497
100
AcDbEntity
  8
RACCORDO
100
AcDbLine
 62
250
  6
CONTINUOUS
 10
5.3941636592
 20
-23.5514188459
 11
5.3806651023
 21
-23.5686797244
  0
LINE
  5
498
100
AcDbEntity
  8
RACCORDO
100
AcDbLine
 62
250
  6
CONTINUOUS
 10
5.5884132421
 20
-23.7029670437
 11
5.5747871369
 21
-23.7203910206
  0
LINE
  5
499
100
AcDbEntity
  8
RACCORDO
100
AcDbLine
 62
250
  6
CONTINUOUS
 10
6.0535062388
 20
-19.9965699136
 11
6.086993698
 21
-19.9630824545
  0
LINE
  5
49A
100
AcDbEntity
  8
RACCORDO
100
AcDbLine
 62
250
  6
CONTINUOUS
 10
5.6071160224
 20
-20.7884317324
 11
5.6421176683
 21
-20.7534300864
  0
LINE
  5
49B
100
AcDbEntity
  8
RACCORDO
100
AcDbLine
 62
250
  6
CONTINUOUS
 10
5.8067180228
 20
-20.98876881
 11
5.8369420777
 21
-20.9585447551
  0
LINE
  5
49C
100
AcDbEntity
  8
RACCORDO
100
AcDbLine
 62
250
  6
CONTINUOUS
 10
6.5534300864
 20
-20.4964937612
 11
6.5878330269
 21
-20.4620908207
  0
LINE
  5
49D
100
AcDbEntity
  8
RACCORDO
100
AcDbLine
 62
250
  6
CONTINUOUS
 10
9.936639623
 20
18.0143665295
 11
9.736708158
 21
18.0143665295
  0
LINE
  5
49E
100
AcDbEntity
  8
RACCORDO
100
AcDbLine
 62
250
  6
CONTINUOUS
 10
-9.736708158
 20
18.0143665295
 11
-9.936639623
 21
18.0143665295
  0
LINE
  5
49F
100
AcDbEntity
  8
RACCORDO
100
AcDbLine
 62
250
  6
CONTINUOUS
 10
-11.0891487799
 20
18.7283392151
 11
-10.0321832013
 21
18.7283392151
  0
LINE
  5
4A0
100
AcDbEntity
  8
RACCORDO
100
AcDbLine
 62
250
  6
CONTINUOUS
 10
10.0321832013
 20
18.7283392151
 11
11.0891487799
 21
18.7283392151
  0
LINE
  5
4A1
100
AcDbEntity
  8
RACCORDO
100
AcDbLine
 62
250
  6
CONTINUOUS
 10
-11.0913041483
 20
19.0473192698
 11
-10.0257157828
 21
19.0473192698
  0
LINE
  5
4A2
100
AcDbEntity
  8
RACCORDO
100
AcDbLine
 62
250
  6
CONTINUOUS
 10
10.0257157828
 20
19.0473192698
 11
11.0913041483
 21
19.0473192698
  0
LINE
  5
4A3
100
AcDbEntity
  8
RACCORDO
100
AcDbLine
 62
250
  6
CONTINUOUS
 10
11.0978365611
 20
19.1793071325
 11
10.0061145635
 21
19.1793071325
  0
LINE
  5
4A4
100
AcDbEntity
  8
RACCORDO
100
AcDbLine
 62
250
  6
CONTINUOUS
 10
-10.0061145635
 20
19.1793071325
 11
-11.0978365611
 21
19.1793071325
  0
LINE
  5
4A5
100
AcDbEntity
  8
RACCORDO
100
AcDbLine
 62
250
  6
CONTINUOUS
 10
9.9707923891
 20
17.7552698261
 11
10.0640625842
 21
17.6473957952
  0
LINE
  5
4A6
100
AcDbEntity
  8
RACCORDO
100
AcDbLine
 62
250
  6
CONTINUOUS
 10
9.936639623
 20
18.0143665295
 11
10.0304880981
 21
17.905823674
  0
LINE
  5
4A7
100
AcDbEntity
  8
RACCORDO
100
AcDbLine
 62
250
  6
CONTINUOUS
 10
7.9948548704
 20
-21.7351908211
 11
7.9352849643
 21
-21.7947607271
  0
LINE
  5
4A8
100
AcDbEntity
  8
RACCORDO
100
AcDbLine
 62
250
  6
CONTINUOUS
 10
11.1
 20
19.4747494584
 11
9.9996229283
 21
19.4747494584
  0
LINE
  5
4A9
100
AcDbEntity
  8
RACCORDO
100
AcDbLine
 62
250
  6
CONTINUOUS
 10
-9.9996229283
 20
19.4747494584
 11
-11.1
 21
19.4747494584
  0
LINE
  5
4AA
100
AcDbEntity
  8
RACCORDO
100
AcDbLine
 62
7
  6
CONTINUOUS
 10
2.0213073071
 20
25.2071702628
 11
2.0101106157
 21
25.2155662887
  0
LINE
  5
4AB
100
AcDbEntity
  8
RACCORDO
100
AcDbLine
 62
250
  6
CONTINUOUS
 10
8.2948091789
 20
-22.0351451296
 11
8.2346879649
 21
-22.0952663437
  0
LINE
  5
4AC
100
AcDbEntity
  8
RACCORDO
100
AcDbLine
 62
7
  6
CONTINUOUS
 10
0.2005757424
 20
21.4
 11
-0.2005757424
 21
21.4
  0
LINE
  5
4AD
100
AcDbEntity
  8
RACCORDO
100
AcDbLine
 62
250
  6
CONTINUOUS
 10
-0.1975447022
 20
21.4306188589
 11
0.1975447022
 21
21.4306188589
  0
LINE
  5
4AE
100
AcDbEntity
  8
RACCORDO
100
AcDbLine
 62
250
  6
CONTINUOUS
 10
0.3859750215
 20
22.4154266119
 11
-0.3859750215
 21
22.4154266119
  0
LINE
  5
4AF
100
AcDbEntity
  8
RACCORDO
100
AcDbLine
 62
7
  6
CONTINUOUS
 10
9.875426243
 20
-22.0918412015
 11
9.9604811481
 21
-22.0351451296
  0
LINE
  5
4B0
100
AcDbEntity
  8
RACCORDO
100
AcDbLine
 62
7
  6
CONTINUOUS
 10
2.0101106157
 20
26.3946752018
 11
2.0213073071
 21
26.3974733087
  0
LINE
  5
4B1
100
AcDbEntity
  8
RACCORDO
100
AcDbLine
 62
250
  6
CONTINUOUS
 10
9.936639623
 20
24.9366738787
 11
0.4
 21
24.9366738787
  0
LINE
  5
4B2
100
AcDbEntity
  8
RACCORDO
100
AcDbLine
 62
250
  6
CONTINUOUS
 10
-0.4
 20
24.9366738787
 11
-9.936639623
 21
24.9366738787
  0
LINE
  5
4B3
100
AcDbEntity
  8
RACCORDO
100
AcDbLine
 62
250
  6
CONTINUOUS
 10
-9.736708158
 20
25.1366053437
 11
-0.3966003711
 21
25.1366053437
  0
LINE
  5
4B4
100
AcDbEntity
  8
RACCORDO
100
AcDbLine
 62
250
  6
CONTINUOUS
 10
9.736708158
 20
25.1366053437
 11
0.3966003711
 21
25.1366053437
  0
LINE
  5
4B5
100
AcDbEntity
  8
RACCORDO
100
AcDbLine
 62
7
  6
CONTINUOUS
 10
0.1860054824
 20
25.1576911745
 11
-0.1860054824
 21
25.1576911745
  0
LINE
  5
4B6
100
AcDbEntity
  8
RACCORDO
100
AcDbLine
 62
7
  6
CONTINUOUS
 10
9.7996914633
 20
25.199588649
 11
2.3211245552
 21
25.199588649
  0
LINE
  5
4B7
100
AcDbEntity
  8
RACCORDO
100
AcDbLine
 62
7
  6
CONTINUOUS
 10
-2.3211245552
 20
25.199588649
 11
-9.7996914633
 21
25.199588649
  0
LINE
  5
4B8
100
AcDbEntity
  8
RACCORDO
100
AcDbLine
 62
7
  6
CONTINUOUS
 10
1.7102933676
 20
25.2231479025
 11
-1.7102933676
 21
25.2231479025
  0
LINE
  5
4B9
100
AcDbEntity
  8
RACCORDO
100
AcDbLine
 62
7
  6
CONTINUOUS
 10
-2.0101106157
 20
26.3946752018
 11
-2.0213073071
 21
26.3974733087
  0
LINE
  5
4BA
100
AcDbEntity
  8
RACCORDO
100
AcDbLine
 62
7
  6
CONTINUOUS
 10
1.7102933676
 20
26.3921485104
 11
-1.7102933676
 21
26.3921485104
  0
LINE
  5
4BB
100
AcDbEntity
  8
RACCORDO
100
AcDbLine
 62
7
  6
CONTINUOUS
 10
10.6001713375
 20
26.4
 11
-10.6001713375
 21
26.4
  0
ARC
  5
4BC
100
AcDbEntity
  8
RACCORDO
100
AcDbCircle
 62
250
  6
CONTINUOUS
 10
-26.6088864634
 20
-328.4208541815
 40
315.748731313
100
AcDbArc
 50
85.6493473089
 51
85.7680672402
  0
ARC
  5
4BD
100
AcDbEntity
  8
RACCORDO
100
AcDbCircle
 62
250
  6
CONTINUOUS
 10
-6392.5025699911
 20
8.9647045963
 40
6402.4394549531
100
AcDbArc
 50
359.826879186
 51
0.0158616453
  0
ARC
  5
4BE
100
AcDbEntity
  8
RACCORDO
100
AcDbCircle
 62
250
  6
CONTINUOUS
 10
-6380.0215276211
 20
8.9664443239
 40
6389.7584811227
100
AcDbArc
 50
359.8267074716
 51
0.0158775242
  0
ARC
  5
4BF
100
AcDbEntity
  8
RACCORDO
100
AcDbCircle
 62
250
  6
CONTINUOUS
 10
-99.7524922678
 20
-21.3243907363
 40
106.0893584673
100
AcDbArc
 50
359.8126274163
 51
0.0041186818
  0
ARC
  5
4C0
100
AcDbEntity
  8
RACCORDO
100
AcDbCircle
 62
250
  6
CONTINUOUS
 10
-72.6681756977
 20
-21.3243687574
 40
66.3147155863
100
AcDbArc
 50
359.7002241268
 51
0.00657002
  0
ARC
  5
4C1
100
AcDbEntity
  8
RACCORDO
100
AcDbCircle
 62
7
  6
CONTINUOUS
 10
-113.9056209886
 20
-2.9066645189
 40
112.2782824793
100
AcDbArc
 50
355.2425520055
 51
355.4363963296
  0
ARC
  5
4C2
100
AcDbEntity
  8
RACCORDO
100
AcDbCircle
 62
250
  6
CONTINUOUS
 10
-48.995136703
 20
-21.3228475141
 40
42.4417070526
100
AcDbArc
 50
359.6252812067
 51
0.0082119267
  0
ARC
  5
4C3
100
AcDbEntity
  8
RACCORDO
100
AcDbCircle
 62
250
  6
CONTINUOUS
 10
-20.6874705646
 20
-21.3205716925
 40
26.5244129156
100
AcDbArc
 50
359.6252692674
 51
0.008223866
  0
ARC
  5
4C4
100
AcDbEntity
  8
RACCORDO
100
AcDbCircle
 62
250
  6
CONTINUOUS
 10
-3.4997575037
 20
-21.736246081
 40
11.104121411
100
AcDbArc
 50
47.7673854466
 51
48.2013338344
  0
ARC
  5
4C5
100
AcDbEntity
  8
RACCORDO
100
AcDbCircle
 62
250
  6
CONTINUOUS
 10
-2.7418480365
 20
-21.5033397285
 40
9.9914167338
100
AcDbArc
 50
49.9819983892
 51
50.4522123811
  0
ARC
  5
4C6
100
AcDbEntity
  8
RACCORDO
100
AcDbCircle
 62
250
  6
CONTINUOUS
 10
-6.0657395649
 20
-21.9480727829
 40
3.0649376631
100
AcDbArc
 50
291.6264811063
 51
292.5474627243
  0
ARC
  5
4C7
100
AcDbEntity
  8
RACCORDO
100
AcDbCircle
 62
250
  6
CONTINUOUS
 10
-6.0383709925
 20
-22.1168860254
 40
2.5972562895
100
AcDbArc
 50
290.4788092366
 51
291.5644526736
  0
ARC
  5
4C8
100
AcDbEntity
  8
RACCORDO
100
AcDbCircle
 62
250
  6
CONTINUOUS
 10
-5.9788101524
 20
-25.6369452884
 40
2.4035739986
100
AcDbArc
 50
59.372307856
 51
60.1898310028
  0
ARC
  5
4C9
100
AcDbEntity
  8
RACCORDO
100
AcDbCircle
 62
250
  6
CONTINUOUS
 10
-5.549875512
 20
-25.1619744104
 40
2.0070141589
100
AcDbArc
 50
60.4211932595
 51
61.4082231176
  0
ARC
  5
4CA
100
AcDbEntity
  8
RACCORDO
100
AcDbCircle
 62
250
  6
CONTINUOUS
 10
-5.1528290948
 20
-22.6493927513
 40
1.734561436
100
AcDbArc
 50
254.3762971994
 51
256.0795063173
  0
ARC
  5
4CB
100
AcDbEntity
  8
RACCORDO
100
AcDbCircle
 62
250
  6
CONTINUOUS
 10
-6.0534427579
 20
-20.4965566845
 40
0.4999884794
100
AcDbArc
 50
90.0072745741
 51
179.9927895579
  0
ARC
  5
4CC
100
AcDbEntity
  8
RACCORDO
100
AcDbCircle
 62
250
  6
CONTINUOUS
 10
-4.7492897353
 20
-20.37500124
 40
0.3784544058
100
AcDbArc
 50
270.1177745404
 51
89.8822496494
  0
ARC
  5
4CD
100
AcDbEntity
  8
RACCORDO
100
AcDbCircle
 62
250
  6
CONTINUOUS
 10
-4.7540042599
 20
-23.3815487218
 40
0.3509047408
100
AcDbArc
 50
269.9529277983
 51
346.0266855361
  0
ARC
  5
4CE
100
AcDbEntity
  8
RACCORDO
100
AcDbCircle
 62
250
  6
CONTINUOUS
 10
-3.604057385
 20
-13.4993558811
 40
0.3000851319
100
AcDbArc
 50
172.1205615553
 51
266.9732267848
  0
ARC
  5
4CF
100
AcDbEntity
  8
RACCORDO
100
AcDbCircle
 62
250
  6
CONTINUOUS
 10
-8.2949343372
 20
-21.7350659882
 40
0.3000809651
100
AcDbArc
 50
270.0238971544
 51
359.9761650017
  0
ARC
  5
4D0
100
AcDbEntity
  8
RACCORDO
100
AcDbCircle
 62
250
  6
CONTINUOUS
 10
-8.2949343394
 20
-21.6249340046
 40
0.3000809641
100
AcDbArc
 50
0.0238336379
 51
89.9761024261
  0
ARC
  5
4D1
100
AcDbEntity
  8
RACCORDO
100
AcDbCircle
 62
250
  6
CONTINUOUS
 10
-6.0535193448
 20
-20.4964803218
 40
0.299941623
100
AcDbArc
 50
89.9974964493
 51
180.0025672389
  0
ARC
  5
4D2
100
AcDbEntity
  8
RACCORDO
100
AcDbCircle
 62
7
  6
CONTINUOUS
 10
-2.8647509301
 20
-13.5496026963
 40
0.2999398796
100
AcDbArc
 50
267.0221934509
 51
351.0693623346
  0
ARC
  5
4D3
100
AcDbEntity
  8
RACCORDO
100
AcDbCircle
 62
7
  6
CONTINUOUS
 10
-4.7838894659
 20
-23.350866429
 40
0.200548612
100
AcDbArc
 50
269.9894773122
 51
345.9027073223
  0
ARC
  5
4D4
100
AcDbEntity
  8
RACCORDO
100
AcDbCircle
 62
250
  6
CONTINUOUS
 10
-9.7236137355
 20
-24.9235794563
 40
0.2000941966
100
AcDbArc
 50
180.0464923596
 51
269.9535076404
  0
ARC
  5
4D5
100
AcDbEntity
  8
RACCORDO
100
AcDbCircle
 62
7
  6
CONTINUOUS
 10
-5.3806768788
 20
-23.7687357924
 40
0.2000400191
100
AcDbArc
 50
115.5005024206
 51
166.0145491201
  0
ARC
  5
4D6
100
AcDbEntity
  8
RACCORDO
100
AcDbCircle
 62
250
  6
CONTINUOUS
 10
-5.5215539707
 20
-24.3322708988
 40
0.2000138347
100
AcDbArc
 50
166.0603070982
 51
172.2076525338
  0
ARC
  5
4D7
100
AcDbEntity
  8
RACCORDO
100
AcDbCircle
 62
7
  6
CONTINUOUS
 10
-5.5216216972
 20
-24.3323909227
 40
0.1999591314
100
AcDbArc
 50
172.2076525338
 51
269.9715154047
  0
ARC
  5
4D8
100
AcDbEntity
  8
RACCORDO
100
AcDbCircle
 62
7
  6
CONTINUOUS
 10
-5.5441579437
 20
-24.3503108584
 40
0.1997353586
100
AcDbArc
 50
193.4226638534
 51
249.6139643392
  0
ARC
  5
4D9
100
AcDbEntity
  8
RACCORDO
100
AcDbCircle
 62
7
  6
CONTINUOUS
 10
-5.3951341714
 20
-23.7509663612
 40
0.1990883985
100
AcDbArc
 50
89.9978606918
 51
146.3201888475
  0
ARC
  5
4DA
100
AcDbEntity
  8
RACCORDO
100
AcDbCircle
 62
250
  6
CONTINUOUS
 10
-5.3807099994
 20
-23.782509139
 40
0.0500372091
100
AcDbArc
 50
89.9485899216
 51
165.8610674855
  0
ARC
  5
4DB
100
AcDbEntity
  8
RACCORDO
100
AcDbCircle
 62
250
  6
CONTINUOUS
 10
-5.5217425552
 20
-24.3451616882
 40
0.0498804772
100
AcDbArc
 50
165.9014127485
 51
270.0246389387
  0
ARC
  5
4DC
100
AcDbEntity
  8
RACCORDO
100
AcDbCircle
 62
7
  6
CONTINUOUS
 10
-29.9035567273
 20
-8.9762840722
 40
28.1548084136
100
AcDbArc
 50
353.0707403797
 51
354.825669486
  0
ARC
  5
4DD
100
AcDbEntity
  8
RACCORDO
100
AcDbCircle
 62
7
  6
CONTINUOUS
 10
-26.9455574236
 20
-9.3190024902
 40
25.177073399
100
AcDbArc
 50
352.85901147
 51
353.0328517562
  0
ARC
  5
4DE
100
AcDbEntity
  8
RACCORDO
100
AcDbCircle
 62
7
  6
CONTINUOUS
 10
-26.4562895475
 20
-9.3783727869
 40
24.6842203185
100
AcDbArc
 50
350.9869252498
 51
352.8545739636
  0
ARC
  5
4DF
100
AcDbEntity
  8
RACCORDO
100
AcDbCircle
 62
250
  6
CONTINUOUS
 10
-8.3595566831
 20
-12.573826042
 40
11.0928923325
100
AcDbArc
 50
7.7985263779
 51
8.1944810742
  0
ARC
  5
4E0
100
AcDbEntity
  8
RACCORDO
100
AcDbCircle
 62
250
  6
CONTINUOUS
 10
-7.7421861182
 20
-12.0761250116
 40
9.9797728764
100
AcDbArc
 50
5.5476144597
 51
5.9699790236
  0
ARC
  5
4E1
100
AcDbEntity
  8
RACCORDO
100
AcDbCircle
 62
250
  6
CONTINUOUS
 10
-2.4230540229
 20
-11.1991195294
 40
0.5007780579
100
AcDbArc
 50
37.1210050644
 51
130.9759221446
  0
ARC
  5
4E2
100
AcDbEntity
  8
RACCORDO
100
AcDbCircle
 62
250
  6
CONTINUOUS
 10
-2.4230426083
 20
-11.2199184219
 40
0.300735385
100
AcDbArc
 50
37.1865582977
 51
130.9324715822
  0
ARC
  5
4E3
100
AcDbEntity
  8
RACCORDO
100
AcDbCircle
 62
250
  6
CONTINUOUS
 10
-2.4304160984
 20
-11.2920576525
 40
0.3000851318
100
AcDbArc
 50
37.0267731974
 51
131.8794384775
  0
ARC
  5
4E4
100
AcDbEntity
  8
RACCORDO
100
AcDbCircle
 62
7
  6
CONTINUOUS
 10
-2.0313363448
 20
-11.3766044196
 40
0.2179107312
100
AcDbArc
 50
307.7503604645
 51
309.9129515852
  0
ARC
  5
4E5
100
AcDbEntity
  8
RACCORDO
100
AcDbCircle
 62
7
  6
CONTINUOUS
 10
-2.0279352088
 20
-11.3804668634
 40
0.2127659519
100
AcDbArc
 50
309.8778073755
 51
320.6177978866
  0
ARC
  5
4E6
100
AcDbEntity
  8
RACCORDO
100
AcDbCircle
 62
250
  6
CONTINUOUS
 10
-3.531136194
 20
-0.6315653067
 40
0.2005085304
100
AcDbArc
 50
80.1453361007
 51
89.9686105367
  0
ARC
  5
4E7
100
AcDbEntity
  8
RACCORDO
100
AcDbCircle
 62
250
  6
CONTINUOUS
 10
-6.1688638292
 20
-0.6315652833
 40
0.2005085301
100
AcDbArc
 50
90.0313894559
 51
99.8546572021
  0
ARC
  5
4E8
100
AcDbEntity
  8
RACCORDO
100
AcDbCircle
 62
7
  6
CONTINUOUS
 10
-3.5311024673
 20
-0.6311022245
 40
0.2000463756
100
AcDbArc
 50
1.4032983436
 51
80.1453361007
  0
ARC
  5
4E9
100
AcDbEntity
  8
RACCORDO
100
AcDbCircle
 62
7
  6
CONTINUOUS
 10
-6.1688975646
 20
-0.6311021938
 40
0.2000463755
100
AcDbArc
 50
99.8546572021
 51
178.5967025193
  0
ARC
  5
4EA
100
AcDbEntity
  8
RACCORDO
100
AcDbCircle
 62
250
  6
CONTINUOUS
 10
-6.1770524602
 20
-0.9770524602
 40
0.2000430907
100
AcDbArc
 50
180.0209581322
 51
269.9790418678
  0
ARC
  5
4EB
100
AcDbEntity
  8
RACCORDO
100
AcDbCircle
 62
250
  6
CONTINUOUS
 10
-5.4452157956
 20
-2.49989641
 40
0.2000430909
100
AcDbArc
 50
270.020944126
 51
359.979055874
  0
ARC
  5
4EC
100
AcDbEntity
  8
RACCORDO
100
AcDbCircle
 62
250
  6
CONTINUOUS
 10
-5.7998963609
 20
-2.4998963609
 40
0.2000430909
100
AcDbArc
 50
180.0209581922
 51
269.9790418078
  0
ARC
  5
4ED
100
AcDbEntity
  8
RACCORDO
100
AcDbCircle
 62
250
  6
CONTINUOUS
 10
-3.5229475394
 20
-0.9770524606
 40
0.2000430903
100
AcDbArc
 50
270.0209580172
 51
359.9790419828
  0
ARC
  5
4EE
100
AcDbEntity
  8
RACCORDO
100
AcDbCircle
 62
250
  6
CONTINUOUS
 10
-9.8870616049
 20
-11.4020616049
 40
0.2000107677
100
AcDbArc
 50
0.0052658463
 51
89.9947341537
  0
ARC
  5
4EF
100
AcDbEntity
  8
RACCORDO
100
AcDbCircle
 62
7
  6
CONTINUOUS
 10
-6.2045907575
 20
-0.5956350744
 40
0.1999993618
100
AcDbArc
 50
112.4925958236
 51
179.8653112646
  0
ARC
  5
4F0
100
AcDbEntity
  8
RACCORDO
100
AcDbCircle
 62
7
  6
CONTINUOUS
 10
-3.4954087855
 20
-0.5956338478
 40
0.1999981371
100
AcDbArc
 50
0.1357815501
 51
67.5985968584
  0
ARC
  5
4F1
100
AcDbEntity
  8
RACCORDO
100
AcDbCircle
 62
7
  6
CONTINUOUS
 10
-6.2052152658
 20
-1.0054472352
 40
0.199811498
100
AcDbArc
 50
179.890442968
 51
269.9808631633
  0
ARC
  5
4F2
100
AcDbEntity
  8
RACCORDO
100
AcDbCircle
 62
7
  6
CONTINUOUS
 10
-3.494784734
 20
-1.0054472351
 40
0.1998114979
100
AcDbArc
 50
270.0191367843
 51
0.1095570016
  0
ARC
  5
4F3
100
AcDbEntity
  8
RACCORDO
100
AcDbCircle
 62
7
  6
CONTINUOUS
 10
-5.8069843224
 20
-2.5072544984
 40
0.1997868706
100
AcDbArc
 50
179.8727550134
 51
269.9773042589
  0
ARC
  5
4F4
100
AcDbEntity
  8
RACCORDO
100
AcDbCircle
 62
7
  6
CONTINUOUS
 10
-5.4381277582
 20
-2.5072544805
 40
0.1997867826
100
AcDbArc
 50
270.0226598822
 51
0.1272399211
  0
ARC
  5
4F5
100
AcDbEntity
  8
RACCORDO
100
AcDbCircle
 62
7
  6
CONTINUOUS
 10
-9.8567045941
 20
-11.372190267
 40
0.1985500761
100
AcDbArc
 50
40.3076617719
 51
90.5590961035
  0
ARC
  5
4F6
100
AcDbEntity
  8
RACCORDO
100
AcDbCircle
 62
250
  6
CONTINUOUS
 10
-10.942892318
 20
10.9849416765
 40
1.2061843584
100
AcDbArc
 50
0.032861377
 51
14.9685749659
  0
ARC
  5
4F7
100
AcDbEntity
  8
RACCORDO
100
AcDbCircle
 62
250
  6
CONTINUOUS
 10
-10.9428754342
 20
18.0150561005
 40
1.2061674734
100
AcDbArc
 50
345.0313198963
 51
359.9672437607
  0
ARC
  5
4F8
100
AcDbEntity
  8
RACCORDO
100
AcDbCircle
 62
250
  6
CONTINUOUS
 10
-10.9421314828
 20
10.9848940875
 40
1.0054921316
100
AcDbArc
 50
0.0421321319
 51
14.9761429877
  0
ARC
  5
4F9
100
AcDbEntity
  8
RACCORDO
100
AcDbCircle
 62
250
  6
CONTINUOUS
 10
-10.9421244313
 20
18.015104983
 40
1.0054850795
100
AcDbArc
 50
345.0238043428
 51
359.9579205376
  0
ARC
  5
4FA
100
AcDbEntity
  8
RACCORDO
100
AcDbCircle
 62
250
  6
CONTINUOUS
 10
-9.2492612568
 20
16.568250245
 40
1.0041689907
100
AcDbArc
 50
165.0324595675
 51
179.9675404325
  0
ARC
  5
4FB
100
AcDbEntity
  8
RACCORDO
100
AcDbCircle
 62
250
  6
CONTINUOUS
 10
-9.2492612641
 20
12.431749754
 40
1.0041689834
100
AcDbArc
 50
180.0324595131
 51
194.9675404869
  0
ARC
  5
4FC
100
AcDbEntity
  8
RACCORDO
100
AcDbCircle
 62
250
  6
CONTINUOUS
 10
-9.2501708326
 20
16.5683699929
 40
0.8032898404
100
AcDbArc
 50
165.0320355608
 51
179.9679644392
  0
ARC
  5
4FD
100
AcDbEntity
  8
RACCORDO
100
AcDbCircle
 62
250
  6
CONTINUOUS
 10
-9.2501708491
 20
12.4316300049
 40
0.8032898239
100
AcDbArc
 50
180.0320354064
 51
194.9679645936
  0
ARC
  5
4FE
100
AcDbEntity
  8
RACCORDO
100
AcDbCircle
 62
250
  6
CONTINUOUS
 10
-9.7365434991
 20
24.9365092199
 40
0.2000969867
100
AcDbArc
 50
90.0471486253
 51
179.9528513747
  0
ARC
  5
4FF
100
AcDbEntity
  8
RACCORDO
100
AcDbCircle
 62
250
  6
CONTINUOUS
 10
26.6090300289
 20
-328.4227672046
 40
315.7506497145
100
AcDbArc
 50
94.2319331235
 51
94.3506523335
  0
ARC
  5
500
100
AcDbEntity
  8
RACCORDO
100
AcDbCircle
 62
250
  6
CONTINUOUS
 10
21.5912350606
 20
-21.3176811042
 40
27.4281771537
100
AcDbArc
 50
179.9980853738
 51
180.3684214927
  0
ARC
  5
501
100
AcDbEntity
  8
RACCORDO
100
AcDbCircle
 62
250
  6
CONTINUOUS
 10
3.4997564342
 20
-21.7362448984
 40
11.1041198166
100
AcDbArc
 50
131.7986661185
 51
132.2326145685
  0
ARC
  5
502
100
AcDbEntity
  8
RACCORDO
100
AcDbCircle
 62
250
  6
CONTINUOUS
 10
2.7418482422
 20
-21.5033399744
 40
9.9914170545
100
AcDbArc
 50
129.5477876306
 51
130.0180016073
  0
ARC
  5
503
100
AcDbEntity
  8
RACCORDO
100
AcDbCircle
 62
250
  6
CONTINUOUS
 10
6.0700389739
 20
-21.9374775422
 40
3.0763716318
100
AcDbArc
 50
247.4542499719
 51
248.3718084856
  0
ARC
  5
504
100
AcDbEntity
  8
RACCORDO
100
AcDbCircle
 62
250
  6
CONTINUOUS
 10
6.0434157934
 20
-22.1037586937
 40
2.6113189776
100
AcDbArc
 50
248.4384705971
 51
249.5182673617
  0
ARC
  5
505
100
AcDbEntity
  8
RACCORDO
100
AcDbCircle
 62
250
  6
CONTINUOUS
 10
5.97875612
 20
-25.6368525899
 40
2.4034667052
100
AcDbArc
 50
119.8101499341
 51
120.6277095964
  0
ARC
  5
506
100
AcDbEntity
  8
RACCORDO
100
AcDbCircle
 62
250
  6
CONTINUOUS
 10
5.5498516042
 20
-25.1619314934
 40
2.0069650341
100
AcDbArc
 50
118.5917639314
 51
119.5788179457
  0
ARC
  5
507
100
AcDbEntity
  8
RACCORDO
100
AcDbCircle
 62
250
  6
CONTINUOUS
 10
5.1528290948
 20
-22.6493927513
 40
1.734561436
100
AcDbArc
 50
283.920493683
 51
285.6237028019
  0
ARC
  5
508
100
AcDbEntity
  8
RACCORDO
100
AcDbCircle
 62
250
  6
CONTINUOUS
 10
6.0534428344
 20
-20.4965571675
 40
0.4999887294
100
AcDbArc
 50
0.0072660122
 51
89.9927344287
  0
ARC
  5
509
100
AcDbEntity
  8
RACCORDO
100
AcDbCircle
 62
250
  6
CONTINUOUS
 10
4.7492897496
 20
-20.3749989047
 40
0.3784544409
100
AcDbArc
 50
90.1177766608
 51
269.882247439
  0
ARC
  5
50A
100
AcDbEntity
  8
RACCORDO
100
AcDbCircle
 62
250
  6
CONTINUOUS
 10
8.294934324
 20
-21.6249341126
 40
0.3000810075
100
AcDbArc
 50
90.0238946333
 51
179.9761457421
  0
ARC
  5
50B
100
AcDbEntity
  8
RACCORDO
100
AcDbCircle
 62
250
  6
CONTINUOUS
 10
8.294934324
 20
-21.7350658874
 40
0.3000810075
100
AcDbArc
 50
180.0238542517
 51
269.9761053723
  0
ARC
  5
50C
100
AcDbEntity
  8
RACCORDO
100
AcDbCircle
 62
250
  6
CONTINUOUS
 10
6.0535195459
 20
-20.4964804541
 40
0.299941623
100
AcDbArc
 50
359.9974580348
 51
90.0025419612
  0
ARC
  5
50D
100
AcDbEntity
  8
RACCORDO
100
AcDbCircle
 62
250
  6
CONTINUOUS
 10
5.3805570447
 20
-23.7694546824
 40
0.2007749871
100
AcDbArc
 50
77.9388416134
 51
89.9691632548
  0
ARC
  5
50E
100
AcDbEntity
  8
RACCORDO
100
AcDbCircle
 62
7
  6
CONTINUOUS
 10
4.7838894927
 20
-23.3508665604
 40
0.200548622
100
AcDbArc
 50
194.0972543788
 51
270.0105150199
  0
ARC
  5
50F
100
AcDbEntity
  8
RACCORDO
100
AcDbCircle
 62
7
  6
CONTINUOUS
 10
5.3941568726
 20
-23.751796139
 40
0.2003772932
100
AcDbArc
 50
39.8854968352
 51
89.9980594365
  0
ARC
  5
510
100
AcDbEntity
  8
RACCORDO
100
AcDbCircle
 62
250
  6
CONTINUOUS
 10
9.7236137355
 20
-24.9235794563
 40
0.2000941966
100
AcDbArc
 50
270.0464923598
 51
359.9535076402
  0
ARC
  5
511
100
AcDbEntity
  8
RACCORDO
100
AcDbCircle
 62
7
  6
CONTINUOUS
 10
5.3806521685
 20
-23.7687519752
 40
0.2000679082
100
AcDbArc
 50
13.9882377262
 51
77.9388416134
  0
ARC
  5
512
100
AcDbEntity
  8
RACCORDO
100
AcDbCircle
 62
7
  6
CONTINUOUS
 10
5.5216125318
 20
-24.3323759271
 40
0.1999750221
100
AcDbArc
 50
270.0311085407
 51
12.5832380202
  0
ARC
  5
513
100
AcDbEntity
  8
RACCORDO
100
AcDbCircle
 62
7
  6
CONTINUOUS
 10
5.5441145434
 20
-24.3502676152
 40
0.1997909592
100
AcDbArc
 50
290.3689523382
 51
353.5342848068
  0
ARC
  5
514
100
AcDbEntity
  8
RACCORDO
100
AcDbCircle
 62
250
  6
CONTINUOUS
 10
5.3807099816
 20
-23.782509162
 40
0.050037232
100
AcDbArc
 50
14.1389530056
 51
90.0513895872
  0
ARC
  5
515
100
AcDbEntity
  8
RACCORDO
100
AcDbCircle
 62
250
  6
CONTINUOUS
 10
5.5217425752
 20
-24.3451616974
 40
0.0498804649
100
AcDbArc
 50
269.9753380407
 51
14.0986030979
  0
ARC
  5
516
100
AcDbEntity
  8
RACCORDO
100
AcDbCircle
 62
250
  6
CONTINUOUS
 10
0.0000113041
 20
-13.9867890557
 40
4.1943350834
100
AcDbArc
 50
130.9948692875
 51
172.9127941505
  0
ARC
  5
517
100
AcDbEntity
  8
RACCORDO
100
AcDbCircle
 62
250
  6
CONTINUOUS
 10
-0.0000096665
 20
-13.9867881563
 40
4.1943333303
100
AcDbArc
 50
7.0872033638
 51
49.0051395378
  0
ARC
  5
518
100
AcDbEntity
  8
RACCORDO
100
AcDbCircle
 62
250
  6
CONTINUOUS
 10
0.0000107305
 20
-14.0076947532
 40
3.9943653237
100
AcDbArc
 50
130.991412105
 51
172.9075708076
  0
ARC
  5
519
100
AcDbEntity
  8
RACCORDO
100
AcDbCircle
 62
250
  6
CONTINUOUS
 10
-0.0000092799
 20
-14.0076939803
 40
3.9943637887
100
AcDbArc
 50
7.0924207584
 51
49.0085963279
  0
ARC
  5
51A
100
AcDbEntity
  8
RACCORDO
100
AcDbCircle
 62
250
  6
CONTINUOUS
 10
0.0
 20
-14.0
 40
3.9387467967
100
AcDbArc
 50
131.9062116818
 51
172.0937883182
  0
ARC
  5
51B
100
AcDbEntity
  8
RACCORDO
100
AcDbCircle
 62
250
  6
CONTINUOUS
 10
0.0
 20
-14.0
 40
3.9387467967
100
AcDbArc
 50
7.9062116818
 51
48.0937883182
  0
ARC
  5
51C
100
AcDbEntity
  8
RACCORDO
100
AcDbCircle
 62
250
  6
CONTINUOUS
 10
0.0
 20
-14.0
 40
3.34131273
100
AcDbArc
 50
8.0340924944
 51
47.9659075056
  0
ARC
  5
51D
100
AcDbEntity
  8
RACCORDO
100
AcDbCircle
 62
250
  6
CONTINUOUS
 10
0.0
 20
-14.0
 40
3.34131273
100
AcDbArc
 50
132.0340924944
 51
171.9659075056
  0
ARC
  5
51E
100
AcDbEntity
  8
RACCORDO
100
AcDbCircle
 62
7
  6
CONTINUOUS
 10
0.0
 20
-14.0
 40
3.2
100
AcDbArc
 50
358.9935306004
 51
2.2034228221
  0
ARC
  5
51F
100
AcDbEntity
  8
RACCORDO
100
AcDbCircle
 62
7
  6
CONTINUOUS
 10
0.0
 20
-14.0
 40
3.2
100
AcDbArc
 50
177.7965771779
 51
181.0064693996
  0
ARC
  5
520
100
AcDbEntity
  8
RACCORDO
100
AcDbCircle
 62
7
  6
CONTINUOUS
 10
0.0
 20
-14.0
 40
3.1
100
AcDbArc
 50
127.7512381606
 51
128.77273596
  0
ARC
  5
521
100
AcDbEntity
  8
RACCORDO
100
AcDbCircle
 62
7
  6
CONTINUOUS
 10
0.0
 20
-14.0
 40
3.1
100
AcDbArc
 50
51.2234164855
 51
52.2487570896
  0
ARC
  5
522
100
AcDbEntity
  8
RACCORDO
100
AcDbCircle
 62
250
  6
CONTINUOUS
 10
0.0
 20
-14.0
 40
2.688799146
100
AcDbArc
 50
8.9441945977
 51
41.4879027755
  0
ARC
  5
523
100
AcDbEntity
  8
RACCORDO
100
AcDbCircle
 62
250
  6
CONTINUOUS
 10
0.0
 20
-14.0
 40
2.688799146
100
AcDbArc
 50
138.5120945026
 51
171.0558054016
  0
ARC
  5
524
100
AcDbEntity
  8
RACCORDO
100
AcDbCircle
 62
7
  6
CONTINUOUS
 10
0.0
 20
-14.0
 40
2.6
100
AcDbArc
 50
8.9354254456
 51
38.9688752491
  0
ARC
  5
525
100
AcDbEntity
  8
RACCORDO
100
AcDbCircle
 62
7
  6
CONTINUOUS
 10
0.0
 20
-14.0
 40
2.6
100
AcDbArc
 50
141.031121673
 51
171.0645745541
  0
ARC
  5
526
100
AcDbEntity
  8
RACCORDO
100
AcDbCircle
 62
250
  6
CONTINUOUS
 10
3.604057393
 20
-13.4993558836
 40
0.3000851284
100
AcDbArc
 50
273.0267716013
 51
7.8794381867
  0
ARC
  5
527
100
AcDbEntity
  8
RACCORDO
100
AcDbCircle
 62
7
  6
CONTINUOUS
 10
2.8647506555
 20
-13.5496028945
 40
0.2999396507
100
AcDbArc
 50
188.9305746745
 51
272.9778456343
  0
ARC
  5
528
100
AcDbEntity
  8
RACCORDO
100
AcDbCircle
 62
250
  6
CONTINUOUS
 10
50.4383624922
 20
-21.3182315199
 40
43.8849324303
100
AcDbArc
 50
179.9980847366
 51
180.3684221299
  0
ARC
  5
529
100
AcDbEntity
  8
RACCORDO
100
AcDbCircle
 62
7
  6
CONTINUOUS
 10
29.9035286727
 20
-8.9762864422
 40
28.1547802595
100
AcDbArc
 50
185.1743308615
 51
186.9292617311
  0
ARC
  5
52A
100
AcDbEntity
  8
RACCORDO
100
AcDbCircle
 62
7
  6
CONTINUOUS
 10
26.9459226546
 20
-9.3189570503
 40
25.1774414265
100
AcDbArc
 50
186.9671500801
 51
187.1409904594
  0
ARC
  5
52B
100
AcDbEntity
  8
RACCORDO
100
AcDbCircle
 62
7
  6
CONTINUOUS
 10
26.4563538606
 20
-9.3783697284
 40
24.6842844936
100
AcDbArc
 50
187.1454172108
 51
189.0130627195
  0
ARC
  5
52C
100
AcDbEntity
  8
RACCORDO
100
AcDbCircle
 62
250
  6
CONTINUOUS
 10
8.3595568997
 20
-12.573826076
 40
11.0928925517
100
AcDbArc
 50
171.8055189114
 51
172.2014736
  0
ARC
  5
52D
100
AcDbEntity
  8
RACCORDO
100
AcDbCircle
 62
250
  6
CONTINUOUS
 10
7.7421861177
 20
-12.0761250115
 40
9.979772876
100
AcDbArc
 50
174.0300209769
 51
174.4523855408
  0
ARC
  5
52E
100
AcDbEntity
  8
RACCORDO
100
AcDbCircle
 62
250
  6
CONTINUOUS
 10
2.423052439
 20
-11.1991150872
 40
0.5007750295
100
AcDbArc
 50
49.0236077646
 51
142.8792908362
  0
ARC
  5
52F
100
AcDbEntity
  8
RACCORDO
100
AcDbCircle
 62
250
  6
CONTINUOUS
 10
2.4230415693
 20
-11.2199160385
 40
0.3007337135
100
AcDbArc
 50
49.0670833861
 51
142.8136833436
  0
ARC
  5
530
100
AcDbEntity
  8
RACCORDO
100
AcDbCircle
 62
250
  6
CONTINUOUS
 10
2.4304161009
 20
-11.2920576451
 40
0.3000851287
100
AcDbArc
 50
48.1205606198
 51
142.9732283451
  0
ARC
  5
531
100
AcDbEntity
  8
RACCORDO
100
AcDbCircle
 62
7
  6
CONTINUOUS
 10
2.128116971
 20
-11.4439046637
 40
0.274297506
100
AcDbArc
 50
191.2050082998
 51
191.9542320017
  0
ARC
  5
532
100
AcDbEntity
  8
RACCORDO
100
AcDbCircle
 62
250
  6
CONTINUOUS
 10
3.5311362516
 20
-0.6315656748
 40
0.2005089216
100
AcDbArc
 50
90.0314124955
 51
99.8546462827
  0
ARC
  5
533
100
AcDbEntity
  8
RACCORDO
100
AcDbCircle
 62
250
  6
CONTINUOUS
 10
6.168863806
 20
-0.6315653067
 40
0.2005085304
100
AcDbArc
 50
80.1453361007
 51
89.9686105367
  0
ARC
  5
534
100
AcDbEntity
  8
RACCORDO
100
AcDbCircle
 62
7
  6
CONTINUOUS
 10
6.1688975327
 20
-0.6311022245
 40
0.2000463756
100
AcDbArc
 50
1.4032983436
 51
80.1453361007
  0
ARC
  5
535
100
AcDbEntity
  8
RACCORDO
100
AcDbCircle
 62
7
  6
CONTINUOUS
 10
3.5311023949
 20
-0.6311021833
 40
0.2000463051
100
AcDbArc
 50
99.8546462827
 51
178.5967052526
  0
ARC
  5
536
100
AcDbEntity
  8
RACCORDO
100
AcDbCircle
 62
250
  6
CONTINUOUS
 10
5.79989641
 20
-2.49989641
 40
0.2000430909
100
AcDbArc
 50
270.020944126
 51
359.979055874
  0
ARC
  5
537
100
AcDbEntity
  8
RACCORDO
100
AcDbCircle
 62
250
  6
CONTINUOUS
 10
5.4452158448
 20
-2.4998963609
 40
0.2000430909
100
AcDbArc
 50
180.0209581922
 51
269.9790418078
  0
ARC
  5
538
100
AcDbEntity
  8
RACCORDO
100
AcDbCircle
 62
250
  6
CONTINUOUS
 10
3.5229475398
 20
-0.9770524602
 40
0.2000430907
100
AcDbArc
 50
180.0209581322
 51
269.9790418678
  0
ARC
  5
539
100
AcDbEntity
  8
RACCORDO
100
AcDbCircle
 62
250
  6
CONTINUOUS
 10
6.1770524606
 20
-0.9770524606
 40
0.2000430903
100
AcDbArc
 50
270.0209580172
 51
359.9790419828
  0
ARC
  5
53A
100
AcDbEntity
  8
RACCORDO
100
AcDbCircle
 62
250
  6
CONTINUOUS
 10
9.8870616067
 20
-11.4020616076
 40
0.2000107704
100
AcDbArc
 50
90.0052663746
 51
179.9947331409
  0
ARC
  5
53B
100
AcDbEntity
  8
RACCORDO
100
AcDbCircle
 62
7
  6
CONTINUOUS
 10
6.2045912145
 20
-0.5956338478
 40
0.1999981371
100
AcDbArc
 50
0.1357815501
 51
67.5985968584
  0
ARC
  5
53C
100
AcDbEntity
  8
RACCORDO
100
AcDbCircle
 62
7
  6
CONTINUOUS
 10
3.4954087855
 20
-0.5956338478
 40
0.1999981371
100
AcDbArc
 50
112.4014031416
 51
179.8642184499
  0
ARC
  5
53D
100
AcDbEntity
  8
RACCORDO
100
AcDbCircle
 62
7
  6
CONTINUOUS
 10
6.205215266
 20
-1.0054472351
 40
0.1998114979
100
AcDbArc
 50
270.0191367895
 51
0.1095569965
  0
ARC
  5
53E
100
AcDbEntity
  8
RACCORDO
100
AcDbCircle
 62
7
  6
CONTINUOUS
 10
3.4947847342
 20
-1.0054472352
 40
0.199811498
100
AcDbArc
 50
179.8904429666
 51
269.9808631648
  0
ARC
  5
53F
100
AcDbEntity
  8
RACCORDO
100
AcDbCircle
 62
7
  6
CONTINUOUS
 10
5.4381278833
 20
-2.5072544984
 40
0.1997868707
100
AcDbArc
 50
179.8727550232
 51
269.9773042492
  0
ARC
  5
540
100
AcDbEntity
  8
RACCORDO
100
AcDbCircle
 62
7
  6
CONTINUOUS
 10
5.8069844474
 20
-2.5072544804
 40
0.1997867826
100
AcDbArc
 50
270.0226598863
 51
0.127239917
  0
ARC
  5
541
100
AcDbEntity
  8
RACCORDO
100
AcDbCircle
 62
7
  6
CONTINUOUS
 10
9.8567061994
 20
-11.3721937787
 40
0.1985535719
100
AcDbArc
 50
89.4413769963
 51
139.6918651283
  0
ARC
  5
542
100
AcDbEntity
  8
RACCORDO
100
AcDbCircle
 62
250
  6
CONTINUOUS
 10
103.3768328055
 20
-21.3185947151
 40
109.7136987461
100
AcDbArc
 50
179.9990442328
 51
180.1842096691
  0
ARC
  5
543
100
AcDbEntity
  8
RACCORDO
100
AcDbCircle
 62
250
  6
CONTINUOUS
 10
74.923453958
 20
-21.3185981558
 40
68.5699934351
100
AcDbArc
 50
179.9984678737
 51
180.2947379795
  0
ARC
  5
544
100
AcDbEntity
  8
RACCORDO
100
AcDbCircle
 62
7
  6
CONTINUOUS
 10
117.5146144214
 20
-2.6124606128
 40
115.8992426506
100
AcDbArc
 50
184.566628605
 51
184.754416881
  0
ARC
  5
545
100
AcDbEntity
  8
0
100
AcDbCircle
 62
7
  6
CONTINUOUS
 10
14.7563711706
 20
4.3210700766
 40
7.8866648564
100
AcDbArc
 50
145.8225903539
 51
147.0915767485
  0
ARC
  5
546
100
AcDbEntity
  8
0
100
AcDbCircle
 62
7
  6
CONTINUOUS
 10
5.76196153
 20
5.6652922358
 40
2.004715309
100
AcDbArc
 50
31.7241878782
 51
38.5141502175
  0
ARC
  5
547
100
AcDbEntity
  8
0
100
AcDbCircle
 62
7
  6
CONTINUOUS
 10
5.7619813308
 20
1.3516134902
 40
2.0046909186
100
AcDbArc
 50
31.7241364889
 51
38.5141846813
  0
ARC
  5
548
100
AcDbEntity
  8
0
100
AcDbCircle
 62
7
  6
CONTINUOUS
 10
8.5243143308
 20
2.8740452174
 40
1.9334940759
100
AcDbArc
 50
89.9356217315
 51
95.6954108777
  0
ARC
  5
549
100
AcDbEntity
  8
RACCORDO
100
AcDbCircle
 62
250
  6
CONTINUOUS
 10
10.9428923637
 20
18.0150583296
 40
1.2061844041
100
AcDbArc
 50
180.0328616619
 51
194.9685746811
  0
ARC
  5
54A
100
AcDbEntity
  8
RACCORDO
100
AcDbCircle
 62
250
  6
CONTINUOUS
 10
10.9428754167
 20
10.9849439018
 40
1.2061674559
100
AcDbArc
 50
165.0313197873
 51
179.9672438697
  0
ARC
  5
54B
100
AcDbEntity
  8
RACCORDO
100
AcDbCircle
 62
250
  6
CONTINUOUS
 10
10.9421316168
 20
18.0151059302
 40
1.0054922657
100
AcDbArc
 50
180.0421331331
 51
194.9761419865
  0
ARC
  5
54C
100
AcDbEntity
  8
RACCORDO
100
AcDbCircle
 62
250
  6
CONTINUOUS
 10
10.942124365
 20
10.9848950257
 40
1.0054850132
100
AcDbArc
 50
165.0238038474
 51
179.9579210329
  0
ARC
  5
54D
100
AcDbEntity
  8
RACCORDO
100
AcDbCircle
 62
250
  6
CONTINUOUS
 10
9.2492612671
 20
12.4317497536
 40
1.0041689805
100
AcDbArc
 50
345.0324594908
 51
359.9675405092
  0
ARC
  5
54E
100
AcDbEntity
  8
RACCORDO
100
AcDbCircle
 62
250
  6
CONTINUOUS
 10
9.2492612689
 20
16.5682502466
 40
1.0041689787
100
AcDbArc
 50
0.0324594772
 51
14.9675405228
  0
ARC
  5
54F
100
AcDbEntity
  8
0
100
AcDbCircle
 62
7
  6
CONTINUOUS
 10
7.2709201944
 20
8.7481112997
 40
0.8079873111
100
AcDbArc
 50
310.1968117989
 51
324.9462124127
  0
ARC
  5
550
100
AcDbEntity
  8
RACCORDO
100
AcDbCircle
 62
250
  6
CONTINUOUS
 10
9.2501708592
 20
12.4316300035
 40
0.8032898138
100
AcDbArc
 50
345.0320353119
 51
359.9679646881
  0
ARC
  5
551
100
AcDbEntity
  8
RACCORDO
100
AcDbCircle
 62
250
  6
CONTINUOUS
 10
9.2501708639
 20
16.5683699971
 40
0.8032898091
100
AcDbArc
 50
0.032035268
 51
14.967964732
  0
ARC
  5
552
100
AcDbEntity
  8
RACCORDO
100
AcDbCircle
 62
250
  6
CONTINUOUS
 10
9.7365434991
 20
24.9365092199
 40
0.2000969867
100
AcDbArc
 50
0.0471486253
 51
89.9528513747
  0
ARC
  5
553
100
AcDbEntity
  8
RACCORDO
100
AcDbCircle
 62
250
  6
CONTINUOUS
 10
6392.4670735352
 20
8.9646558828
 40
6402.4039585121
100
AcDbArc
 50
179.9841378308
 51
180.1731213379
  0
ARC
  5
554
100
AcDbEntity
  8
RACCORDO
100
AcDbCircle
 62
250
  6
CONTINUOUS
 10
6379.9857333521
 20
8.9663951531
 40
6389.7226868687
100
AcDbArc
 50
179.984121946
 51
180.1732930582
  0
SPLINE
  5
555
100
AcDbEntity
  8
RACCORDO
100
AcDbSpline
 62
7
  6
CONTINUOUS
 70
0
 71
3
 72
8
 73
4
 74
0
 42
0.0000001
 43
0.0000001
 44
0.0000000001
 40
0.0
 40
0.0
 40
0.0
 40
0.0
 40
1.0
 40
1.0
 40
1.0
 40
1.0
 10
-0.6935249784
 20
-8.9999999936
 30
0.0
 10
-0.7298776741
 20
-9.0000000658
 30
0.0
 10
-0.7674384328
 20
-9.0104630646
 30
0.0
 10
-0.7986105973
 20
-9.0291663972
 30
0.0
  0
SPLINE
  5
556
100
AcDbEntity
  8
RACCORDO
100
AcDbSpline
 62
7
  6
CONTINUOUS
 70
0
 71
3
 72
8
 73
4
 74
0
 42
0.0000001
 43
0.0000001
 44
0.0000000001
 40
0.0
 40
0.0
 40
0.0
 40
0.0
 40
1.0
 40
1.0
 40
1.0
 40
1.0
 10
0.7986108245
 20
-9.0291664946
 30
0.0
 10
0.7674385888
 20
-9.0104631523
 30
0.0
 10
0.7298777871
 20
-9.0000000016
 30
0.0
 10
0.6935250253
 20
-9.0
 30
0.0
  0
SPLINE
  5
557
100
AcDbEntity
  8
RACCORDO
100
AcDbSpline
 62
7
  6
CONTINUOUS
 70
0
 71
3
 72
11
 73
7
 74
0
 42
0.0000001
 43
0.0000001
 44
0.0000000001
 40
0.0
 40
0.0
 40
0.0
 40
0.0
 40
0.1514819454
 40
0.3505855192
 40
0.6237798767
 40
1.0
 40
1.0
 40
1.0
 40
1.0
 10
-1.3619254075
 20
-9.6262552207
 30
0.0
 10
-1.4022494949
 20
-9.7116959978
 30
0.0
 10
-1.4827296135
 20
-9.915490743
 30
0.0
 10
-1.5945460291
 20
-10.2883856745
 30
0.0
 10
-1.7178330623
 20
-10.8032200469
 30
0.0
 10
-1.7997352475
 20
-11.1999158474
 30
0.0
 10
-1.845684303
 20
-11.4300190905
 30
0.0
  0
LINE
  5
558
100
AcDbEntity
  8
RACCORDO
100
AcDbLine
 62
7
  6
CONTINUOUS
 10
-1.845684303
 20
-11.4300190905
 11
-1.8590527339
 21
-11.4972110969
  0
SPLINE
  5
559
100
AcDbEntity
  8
0
100
AcDbSpline
 62
7
  6
CONTINUOUS
 70
0
 71
3
 72
10
 73
6
 74
0
 42
0.0000001
 43
0.0000001
 44
0.0000000001
 40
0.0
 40
0.0
 40
0.0
 40
0.0
 40
0.2181668849
 40
0.4475598196
 40
1.0
 40
1.0
 40
1.0
 40
1.0
 10
-1.0000248843
 20
-9.1500148025
 30
0.0
 10
-1.0338285128
 20
-9.1779194348
 30
0.0
 10
-1.101061977
 20
-9.2378740716
 30
0.0
 10
-1.2351989197
 20
-9.3880769295
 30
0.0
 10
-1.3145660574
 20
-9.5258896198
 30
0.0
 10
-1.3619391194
 20
-9.6262663846
 30
0.0
  0
SPLINE
  5
55A
100
AcDbEntity
  8
RACCORDO
100
AcDbSpline
 62
7
  6
CONTINUOUS
 70
0
 71
3
 72
9
 73
5
 74
0
 42
0.0000001
 43
0.0000001
 44
0.0000000001
 40
0.0
 40
0.0
 40
0.0
 40
0.0
 40
0.2926667834
 40
1.0
 40
1.0
 40
1.0
 40
1.0
 10
-1.859048059
 20
-11.4972061915
 30
0.0
 10
-1.8594045783
 20
-11.4990045911
 30
0.0
 10
-1.8606820495
 20
-11.5051367144
 30
0.0
 10
-1.8621867531
 20
-11.5112272656
 30
0.0
 10
-1.8634818719
 20
-11.5154648274
 30
0.0
  0
SPLINE
  5
55B
100
AcDbEntity
  8
RACCORDO
100
AcDbSpline
 62
7
  6
CONTINUOUS
 70
0
 71
3
 72
9
 73
5
 74
0
 42
0.0000001
 43
0.0000001
 44
0.0000000001
 40
0.0
 40
0.0
 40
0.0
 40
0.0
 40
0.2143379759
 40
1.0
 40
1.0
 40
1.0
 40
1.0
 10
1.863481872
 20
-11.5154648283
 30
0.0
 10
1.8631642898
 20
-11.5144257159
 30
0.0
 10
1.8617523747
 20
-11.5095563747
 30
0.0
 10
1.8605935638
 20
-11.50461631
 30
0.0
 10
1.8597680538
 20
-11.5007199824
 30
0.0
  0
SPLINE
  5
55C
100
AcDbEntity
  8
RACCORDO
100
AcDbSpline
 62
7
  6
CONTINUOUS
 70
0
 71
3
 72
8
 73
4
 74
0
 42
0.0000001
 43
0.0000001
 44
0.0000000001
 40
0.0
 40
0.0
 40
0.0
 40
0.0
 40
1.0
 40
1.0
 40
1.0
 40
1.0
 10
1.89792674
 20
-11.5489034922
 30
0.0
 10
1.8852742908
 20
-11.5391064805
 30
0.0
 10
1.8736220926
 20
-11.5278439168
 30
0.0
 10
1.863481872
 20
-11.5154648283
 30
0.0
  0
SPLINE
  5
55D
100
AcDbEntity
  8
RACCORDO
100
AcDbSpline
 62
7
  6
CONTINUOUS
 70
0
 71
3
 72
11
 73
7
 74
0
 42
0.0000001
 43
0.0000001
 44
0.0000000001
 40
0.0
 40
0.0
 40
0.0
 40
0.0
 40
0.1066637094
 40
0.2211428743
 40
0.4673484194
 40
1.0
 40
1.0
 40
1.0
 40
1.0
 10
-2.3027282835
 20
-13.6939186332
 30
0.0
 10
-2.3698767212
 20
-14.0420818103
 30
0.0
 10
-2.5138297527
 20
-14.7630191704
 30
0.0
 10
-2.8406584215
 20
-16.2818930009
 30
0.0
 10
-3.5165987139
 20
-19.1738518303
 30
0.0
 10
-4.159486325
 20
-21.6820128272
 30
0.0
 10
-4.5893793058
 20
-23.3997142123
 30
0.0
  0
SPLINE
  5
55E
100
AcDbEntity
  8
RACCORDO
100
AcDbSpline
 62
7
  6
CONTINUOUS
 70
0
 71
3
 72
8
 73
4
 74
0
 42
0.0000001
 43
0.0000001
 44
0.0000000001
 40
0.0
 40
0.0
 40
0.0
 40
0.0
 40
1.0
 40
1.0
 40
1.0
 40
1.0
 10
-5.5884132421
 20
-23.7029670437
 30
0.0
 10
-5.5828993858
 20
-23.6808989718
 30
0.0
 10
-5.5734165711
 20
-23.6594921266
 30
0.0
 10
-5.560805498
 20
-23.6405616421
 30
0.0
  0
LINE
  5
55F
100
AcDbEntity
  8
RACCORDO
100
AcDbLine
 62
7
  6
CONTINUOUS
 10
-5.7379334714
 20
-24.301492458
 11
-5.5917101814
 21
-23.7161624137
  0
SPLINE
  5
560
100
AcDbEntity
  8
RACCORDO
100
AcDbSpline
 62
7
  6
CONTINUOUS
 70
0
 71
3
 72
8
 73
4
 74
0
 42
0.0000001
 43
0.0000001
 44
0.0000000001
 40
0.0
 40
0.0
 40
0.0
 40
0.0
 40
1.0
 40
1.0
 40
1.0
 40
1.0
 10
-5.5442948957
 20
-24.55
 30
0.0
 10
-5.567811326
 20
-24.55
 30
0.0
 10
-5.591682987
 20
-24.5457065037
 30
0.0
 10
-5.6137344774
 20
-24.5375361757
 30
0.0
  0
SPLINE
  5
561
100
AcDbEntity
  8
RACCORDO
100
AcDbSpline
 62
7
  6
CONTINUOUS
 70
0
 71
3
 72
8
 73
4
 74
0
 42
0.0000001
 43
0.0000001
 44
0.0000000001
 40
0.0
 40
0.0
 40
0.0
 40
0.0
 40
1.0
 40
1.0
 40
1.0
 40
1.0
 10
-5.7384373577
 20
-24.3966759616
 30
0.0
 10
-5.745812211
 20
-24.3658166804
 30
0.0
 10
-5.7456221424
 20
-24.332275051
 30
0.0
 10
-5.7379334714
 20
-24.301492458
 30
0.0
  0
SPLINE
  5
562
100
AcDbEntity
  8
RACCORDO
100
AcDbSpline
 62
7
  6
CONTINUOUS
 70
0
 71
3
 72
8
 73
4
 74
0
 42
0.0000001
 43
0.0000001
 44
0.0000000001
 40
0.0
 40
0.0
 40
0.0
 40
0.0
 40
1.0
 40
1.0
 40
1.0
 40
1.0
 10
5.7379334714
 20
-24.301492458
 30
0.0
 10
5.7437031735
 20
-24.3245922098
 30
0.0
 10
5.7453126171
 20
-24.3491074714
 30
0.0
 10
5.7426347155
 20
-24.3727658069
 30
0.0
  0
SPLINE
  5
563
100
AcDbEntity
  8
RACCORDO
100
AcDbSpline
 62
7
  6
CONTINUOUS
 70
0
 71
3
 72
8
 73
4
 74
0
 42
0.0000001
 43
0.0000001
 44
0.0000000001
 40
0.0
 40
0.0
 40
0.0
 40
0.0
 40
1.0
 40
1.0
 40
1.0
 40
1.0
 10
5.6136546034
 20
-24.5375657931
 30
0.0
 10
5.5916258121
 20
-24.5457169328
 30
0.0
 10
5.5677833765
 20
-24.55
 30
0.0
 10
5.5442948957
 20
-24.55
 30
0.0
  0
LINE
  5
564
100
AcDbEntity
  8
RACCORDO
100
AcDbLine
 62
7
  6
CONTINUOUS
 10
5.5917101814
 20
-23.7161624137
 11
5.7337096536
 21
-24.2845819305
  0
SPLINE
  5
565
100
AcDbEntity
  8
RACCORDO
100
AcDbSpline
 62
7
  6
CONTINUOUS
 70
0
 71
3
 72
8
 73
4
 74
0
 42
0.0000001
 43
0.0000001
 44
0.0000000001
 40
0.0
 40
0.0
 40
0.0
 40
0.0
 40
1.0
 40
1.0
 40
1.0
 40
1.0
 10
5.5479213249
 20
-23.6233251499
 30
0.0
 10
5.5670134339
 20
-23.6461818264
 30
0.0
 10
5.5811940694
 20
-23.6740737947
 30
0.0
 10
5.5884132421
 20
-23.7029670437
 30
0.0
  0
SPLINE
  5
566
100
AcDbEntity
  8
RACCORDO
100
AcDbSpline
 62
7
  6
CONTINUOUS
 70
0
 71
3
 72
11
 73
7
 74
0
 42
0.0000001
 43
0.0000001
 44
0.0000000001
 40
0.0
 40
0.0
 40
0.0
 40
0.0
 40
0.151503453
 40
0.3506201109
 40
0.623810052
 40
1.0
 40
1.0
 40
1.0
 40
1.0
 10
1.3619308962
 20
-9.6262596896
 30
0.0
 10
1.4022438342
 20
-9.7116769126
 30
0.0
 10
1.4827013846
 20
-9.915405201
 30
0.0
 10
1.5944871018
 20
-10.288159191
 30
0.0
 10
1.7177336949
 20
-10.8027620861
 30
0.0
 10
1.7996053298
 20
-11.1992694232
 30
0.0
 10
1.8455353226
 20
-11.4292573311
 30
0.0
  0
LINE
  5
567
100
AcDbEntity
  8
RACCORDO
100
AcDbLine
 62
7
  6
CONTINUOUS
 10
1.8455353226
 20
-11.4292573311
 11
1.859056766
 21
-11.4972155124
  0
SPLINE
  5
568
100
AcDbEntity
  8
0
100
AcDbSpline
 62
7
  6
CONTINUOUS
 70
0
 71
3
 72
10
 73
6
 74
0
 42
0.0000001
 43
0.0000001
 44
0.0000000001
 40
0.0
 40
0.0
 40
0.0
 40
0.0
 40
0.2181668843
 40
0.4475598185
 40
1.0
 40
1.0
 40
1.0
 40
1.0
 10
1.0000249102
 20
-9.1500148179
 30
0.0
 10
1.033828538
 20
-9.1779194506
 30
0.0
 10
1.101062001
 20
-9.2378740879
 30
0.0
 10
1.2351989418
 20
-9.3880769467
 30
0.0
 10
1.3145660786
 20
-9.5258896371
 30
0.0
 10
1.3619391405
 20
-9.6262664018
 30
0.0
  0
SPLINE
  5
569
100
AcDbEntity
  8
RACCORDO
100
AcDbSpline
 62
7
  6
CONTINUOUS
 70
0
 71
3
 72
12
 73
8
 74
0
 42
0.0000001
 43
0.0000001
 44
0.0000000001
 40
0.0
 40
0.0
 40
0.0
 40
0.0
 40
0.1066670751
 40
0.2211429201
 40
0.3418250228
 40
0.4673774492
 40
1.0
 40
1.0
 40
1.0
 40
1.0
 10
2.3027123291
 20
-13.6937492955
 30
0.0
 10
2.3698620414
 20
-14.0419306713
 30
0.0
 10
2.5138018653
 20
-14.7628852866
 30
0.0
 10
2.7528734577
 20
-15.8738290265
 30
0.0
 10
3.0185751553
 20
-17.0431648077
 30
0.0
 10
3.6160989198
 20
-19.5624986912
 30
0.0
 10
4.1595152998
 20
-21.6820671374
 30
0.0
 10
4.5893874203
 20
-23.3997098958
 30
0.0
  0
SPLINE
  5
56A
100
AcDbEntity
  8
RACCORDO
100
AcDbSpline
 62
7
  6
CONTINUOUS
 70
0
 71
3
 72
11
 73
7
 74
0
 42
0.0000001
 43
0.0000001
 44
0.0000000001
 40
0.0
 40
0.0
 40
0.0
 40
0.0
 40
0.2503678727
 40
0.500470882
 40
0.7502770174
 40
1.0
 40
1.0
 40
1.0
 40
1.0
 10
5.1296924905
 20
-24.55
 30
0.0
 10
5.099776949
 20
-24.5499999975
 30
0.0
 10
5.039092263
 20
-24.5638623901
 30
0.0
 10
4.9671623608
 20
-24.6223251762
 30
0.0
 10
4.927930103
 20
-24.7061942696
 30
0.0
 10
4.9290312751
 20
-24.7682795837
 30
0.0
 10
4.9361437782
 20
-24.7972579816
 30
0.0
  0
SPLINE
  5
56B
100
AcDbEntity
  8
RACCORDO
100
AcDbSpline
 62
7
  6
CONTINUOUS
 70
0
 71
3
 72
11
 73
7
 74
0
 42
0.0000001
 43
0.0000001
 44
0.0000000001
 40
0.0
 40
0.0
 40
0.0
 40
0.0
 40
0.2497229826
 40
0.499529118
 40
0.7496321274
 40
1.0
 40
1.0
 40
1.0
 40
1.0
 10
-4.9361437868
 20
-24.7972579795
 30
0.0
 10
-4.9290312843
 20
-24.7682795824
 30
0.0
 10
-4.9279301124
 20
-24.7061942704
 30
0.0
 10
-4.9671623679
 20
-24.6223251793
 30
0.0
 10
-5.0390922664
 20
-24.5638623932
 30
0.0
 10
-5.0997769499
 20
-24.5499999989
 30
0.0
 10
-5.1296924905
 20
-24.55
 30
0.0
  0
SPLINE
  5
56C
100
AcDbEntity
  8
RACCORDO
100
AcDbSpline
 62
250
  6
CONTINUOUS
 70
0
 71
3
 72
11
 73
7
 74
0
 42
0.0000001
 43
0.0000001
 44
0.0000000001
 40
0.0
 40
0.0
 40
0.0
 40
0.0
 40
0.250046812
 40
0.4998736316
 40
0.7497875944
 40
1.0
 40
1.0
 40
1.0
 40
1.0
 10
4.7446198364
 20
-24.82515919
 30
0.0
 10
4.7324895636
 20
-24.7745147055
 30
0.0
 10
4.7311518978
 20
-24.6662222367
 30
0.0
 10
4.8002516796
 20
-24.5203457903
 30
0.0
 10
4.925967327
 20
-24.41904309
 30
0.0
 10
5.0316441696
 20
-24.3950448131
 30
0.0
 10
5.0837555941
 20
-24.3950418342
 30
0.0
  0
SPLINE
  5
56D
100
AcDbEntity
  8
RACCORDO
100
AcDbSpline
 62
7
  6
CONTINUOUS
 70
0
 71
3
 72
11
 73
7
 74
0
 42
0.0000001
 43
0.0000001
 44
0.0000000001
 40
0.0
 40
0.0
 40
0.0
 40
0.0
 40
0.2500044877
 40
0.5000177495
 40
0.7500199584
 40
1.0
 40
1.0
 40
1.0
 40
1.0
 10
0.8498469553
 20
-10.9999999557
 30
0.0
 10
0.8693128169
 20
-10.9999999531
 30
0.0
 10
0.9086673932
 20
-10.9923631532
 30
0.0
 10
0.9586321214
 20
-10.9593796692
 30
0.0
 10
0.992178414
 20
-10.9097613036
 30
0.0
 10
0.9999999778
 20
-10.8703944464
 30
0.0
 10
1.0000000029
 20
-10.8509304883
 30
0.0
  0
SPLINE
  5
56E
100
AcDbEntity
  8
RACCORDO
100
AcDbSpline
 62
250
  6
CONTINUOUS
 70
0
 71
3
 72
11
 73
7
 74
0
 42
0.0000001
 43
0.0000001
 44
0.0000000001
 40
0.0
 40
0.0
 40
0.0
 40
0.0
 40
0.2497074446
 40
0.4994335267
 40
0.7494875674
 40
1.0
 40
1.0
 40
1.0
 40
1.0
 10
-4.7446197088
 20
-24.825158658
 30
0.0
 10
-4.7325098705
 20
-24.7745826708
 30
0.0
 10
-4.7311248233
 20
-24.6663945224
 30
0.0
 10
-4.8001344331
 20
-24.5205608923
 30
0.0
 10
-4.9257999436
 20
-24.419072339
 30
0.0
 10
-5.0315830276
 20
-24.3950567723
 30
0.0
 10
-5.0837562407
 20
-24.3950418342
 30
0.0
  0
LINE
  5
56F
100
AcDbEntity
  8
RACCORDO
100
AcDbLine
 62
250
  6
CONTINUOUS
 10
-5.5701216202
 20
-24.3330109751
 11
-5.429231394
 21
-23.7702863506
  0
SPLINE
  5
570
100
AcDbEntity
  8
RACCORDO
100
AcDbSpline
 62
250
  6
CONTINUOUS
 70
0
 71
3
 72
9
 73
5
 74
0
 42
0.0000001
 43
0.0000001
 44
0.0000000001
 40
0.0
 40
0.0
 40
0.0
 40
0.0
 40
0.2664479235
 40
1.0
 40
1.0
 40
1.0
 40
1.0
 10
4.4135066677
 20
-23.4662773811
 30
0.0
 10
4.4218532191
 20
-23.4642374236
 30
0.0
 10
4.45310921
 20
-23.4563095251
 30
0.0
 10
4.484168246
 20
-23.4475394717
 30
0.0
 10
4.5066582051
 20
-23.4402070616
 30
0.0
  0
SPLINE
  5
571
100
AcDbEntity
  8
RACCORDO
100
AcDbSpline
 62
250
  6
CONTINUOUS
 70
0
 71
3
 72
12
 73
8
 74
0
 42
0.0000001
 43
0.0000001
 44
0.0000000001
 40
0.0
 40
0.0
 40
0.0
 40
0.0
 40
0.3979093726
 40
0.7035769794
 40
0.9045636098
 40
0.9646490171
 40
1.0
 40
1.0
 40
1.0
 40
1.0
 10
4.5066582051
 20
-23.4402070616
 30
0.0
 10
4.5140027249
 20
-23.4378125249
 30
0.0
 10
4.5269552051
 20
-23.4333965608
 30
0.0
 10
4.5432328029
 20
-23.4269704744
 30
0.0
 10
4.5532705378
 20
-23.422115023
 30
0.0
 10
4.5578529322
 20
-23.4187841013
 30
0.0
 10
4.5591045409
 20
-23.4172020956
 30
0.0
 10
4.5591727509
 20
-23.4165191899
 30
0.0
  0
SPLINE
  5
572
100
AcDbEntity
  8
RACCORDO
100
AcDbSpline
 62
7
  6
CONTINUOUS
 70
0
 71
3
 72
10
 73
6
 74
0
 42
0.0000001
 43
0.0000001
 44
0.0000000001
 40
0.0
 40
0.0
 40
0.0
 40
0.0
 40
0.664402676
 40
0.874908114
 40
1.0
 40
1.0
 40
1.0
 40
1.0
 10
2.1224826479
 20
-13.6079784459
 30
0.0
 10
2.1317558901
 20
-13.6086707367
 30
0.0
 10
2.1440079798
 20
-13.6096602084
 30
0.0
 10
2.1577691447
 20
-13.6119323177
 30
0.0
 10
2.1624065318
 20
-13.6130119668
 30
0.0
 10
2.1639724527
 20
-13.6137950301
 30
0.0
  0
SPLINE
  5
573
100
AcDbEntity
  8
RACCORDO
100
AcDbSpline
 62
250
  6
CONTINUOUS
 70
0
 71
3
 72
15
 73
11
 74
0
 42
0.0000001
 43
0.0000001
 44
0.0000000001
 40
0.0
 40
0.0
 40
0.0
 40
0.0
 40
0.2576630941
 40
0.3859633612
 40
0.5136513977
 40
0.6403240289
 40
0.7651885158
 40
0.8864795902
 40
0.9446700629
 40
1.0
 40
1.0
 40
1.0
 40
1.0
 10
4.4135066677
 20
-23.4662773811
 30
0.0
 10
4.202899254
 20
-22.6139841719
 30
0.0
 10
3.8808553428
 20
-21.3389313258
 30
0.0
 10
3.4508365311
 20
-19.6424333938
 30
0.0
 10
3.1327346299
 20
-18.3779996708
 30
0.0
 10
2.8223881915
 20
-17.1236954762
 30
0.0
 10
2.5233240212
 20
-15.889063208
 30
0.0
 10
2.2866336014
 20
-14.8794375308
 30
0.0
 10
2.1062956567
 20
-14.0999622784
 30
0.0
 10
2.0178116664
 20
-13.7234180779
 30
0.0
 10
1.9734703711
 20
-13.5401825519
 30
0.0
  0
SPLINE
  5
574
100
AcDbEntity
  8
RACCORDO
100
AcDbSpline
 62
250
  6
CONTINUOUS
 70
0
 71
3
 72
15
 73
11
 74
0
 42
0.0000001
 43
0.0000001
 44
0.0000000001
 40
0.0
 40
0.0
 40
0.0
 40
0.0
 40
0.2710768387
 40
0.4825507851
 40
0.6349367701
 40
0.7439698909
 40
0.8251513608
 40
0.889932451
 40
0.9463004992
 40
1.0
 40
1.0
 40
1.0
 40
1.0
 10
2.0768548346
 20
-13.2454003851
 30
0.0
 10
2.01974064
 20
-13.0083331097
 30
0.0
 10
1.9141291838
 20
-12.5872135003
 30
0.0
 10
1.7540335208
 20
-12.0387584765
 30
0.0
 10
1.6143308637
 20
-11.6366964513
 30
0.0
 10
1.4907648356
 20
-11.3538415789
 30
0.0
 10
1.3737162407
 20
-11.1556770494
 30
0.0
 10
1.2559130891
 20
-11.0155880856
 30
0.0
 10
1.1323644278
 20
-10.9166540281
 30
0.0
 10
1.0442895938
 20
-10.8702152207
 30
0.0
 10
1.0000000001
 20
-10.8509305027
 30
0.0
  0
SPLINE
  5
575
100
AcDbEntity
  8
RACCORDO
100
AcDbSpline
 62
7
  6
CONTINUOUS
 70
0
 71
3
 72
11
 73
7
 74
0
 42
0.0000001
 43
0.0000001
 44
0.0000000001
 40
0.0
 40
0.0
 40
0.0
 40
0.0
 40
0.2499659339
 40
0.4999523709
 40
0.7499786671
 40
1.0
 40
1.0
 40
1.0
 40
1.0
 10
-0.9999999997
 20
-10.8509305044
 30
0.0
 10
-0.9999999825
 20
-10.8703933706
 30
0.0
 10
-0.9921795446
 20
-10.9097578869
 30
0.0
 10
-0.9586357024
 20
-10.9593761255
 30
0.0
 10
-0.9086710069
 20
-10.9923619659
 30
0.0
 10
-0.8693140582
 20
-10.9999999669
 30
0.0
 10
-0.8498468785
 20
-10.9999999706
 30
0.0
  0
SPLINE
  5
576
100
AcDbEntity
  8
RACCORDO
100
AcDbSpline
 62
250
  6
CONTINUOUS
 70
0
 71
3
 72
14
 73
10
 74
0
 42
0.0000001
 43
0.0000001
 44
0.0000000001
 40
0.0
 40
0.0
 40
0.0
 40
0.0
 40
0.2571497048
 40
0.3851999656
 40
0.5126506322
 40
0.6391225094
 40
0.7638848402
 40
0.8853799662
 40
1.0
 40
1.0
 40
1.0
 40
1.0
 10
4.5570030158
 20
-23.4077223235
 30
0.0
 10
4.3500311787
 20
-22.5686484309
 30
0.0
 10
4.0337419997
 20
-21.3132984346
 30
0.0
 10
3.6116025593
 20
-19.6429103963
 30
0.0
 10
3.2994152843
 20
-18.3977204852
 30
0.0
 10
2.9946341933
 20
-17.1620724022
 30
0.0
 10
2.7015134181
 20
-15.9441806673
 30
0.0
 10
2.4256411847
 20
-14.7631310497
 30
0.0
 10
2.2513241555
 20
-13.9889740853
 30
0.0
 10
2.1639724709
 20
-13.6137961176
 30
0.0
  0
SPLINE
  5
577
100
AcDbEntity
  8
RACCORDO
100
AcDbSpline
 62
7
  6
CONTINUOUS
 70
0
 71
3
 72
9
 73
5
 74
0
 42
0.0000001
 43
0.0000001
 44
0.0000000001
 40
0.0
 40
0.0
 40
0.0
 40
0.0
 40
0.2697835899
 40
1.0
 40
1.0
 40
1.0
 40
1.0
 10
2.1639724527
 20
-13.6137950301
 30
0.0
 10
2.1768551066
 20
-13.6202442433
 30
0.0
 10
2.2242090735
 20
-13.6449421421
 30
0.0
 10
2.2700652704
 20
-13.6724666376
 30
0.0
 10
2.3027127638
 20
-13.6937905259
 30
0.0
  0
SPLINE
  5
578
100
AcDbEntity
  8
RACCORDO
100
AcDbSpline
 62
250
  6
CONTINUOUS
 70
0
 71
3
 72
14
 73
10
 74
0
 42
0.0000001
 43
0.0000001
 44
0.0000000001
 40
0.0
 40
0.0
 40
0.0
 40
0.0
 40
0.3727671673
 40
0.5432801122
 40
0.6932219621
 40
0.8174925344
 40
0.9114045936
 40
0.9721835317
 40
1.0
 40
1.0
 40
1.0
 40
1.0
 10
5.4292313662
 20
-23.7702862393
 30
0.0
 10
5.4479122358
 20
-23.7656552569
 30
0.0
 10
5.4750389642
 20
-23.7584463988
 30
0.0
 10
5.5093298981
 20
-23.7482692721
 30
0.0
 10
5.5312342608
 20
-23.741178548
 30
0.0
 10
5.5489732945
 20
-23.7348183158
 30
0.0
 10
5.5626710023
 20
-23.7291628865
 30
0.0
 10
5.5702902466
 20
-23.7250722828
 30
0.0
 10
5.5748595997
 20
-23.7218258131
 30
0.0
 10
5.5747872429
 20
-23.7203914464
 30
0.0
  0
SPLINE
  5
579
100
AcDbEntity
  8
RACCORDO
100
AcDbSpline
 62
250
  6
CONTINUOUS
 70
0
 71
3
 72
15
 73
11
 74
0
 42
0.0000001
 43
0.0000001
 44
0.0000000001
 40
0.0
 40
0.0
 40
0.0
 40
0.0
 40
0.2710855228
 40
0.482579491
 40
0.6349658184
 40
0.7439928552
 40
0.8251607106
 40
0.8899377362
 40
0.9463031077
 40
1.0
 40
1.0
 40
1.0
 40
1.0
 10
-2.0768550004
 20
-13.2454010733
 30
0.0
 10
-2.0197406643
 20
-13.0083257517
 30
0.0
 10
-1.9141086315
 20
-12.5871849721
 30
0.0
 10
-1.7540229251
 20
-12.0386991892
 30
0.0
 10
-1.6143041926
 20
-11.6366297476
 30
0.0
 10
-1.4907484806
 20
-11.3537879512
 30
0.0
 10
-1.3736892562
 20
-11.1556552615
 30
0.0
 10
-1.2559021353
 20
-11.0155775042
 30
0.0
 10
-1.132357824
 20
-10.9166509375
 30
0.0
 10
-1.0442874575
 20
-10.8702142708
 30
0.0
 10
-1.0
 20
-10.8509305027
 30
0.0
  0
SPLINE
  5
57A
100
AcDbEntity
  8
RACCORDO
100
AcDbSpline
 62
7
  6
CONTINUOUS
 70
0
 71
3
 72
9
 73
5
 74
0
 42
0.0000001
 43
0.0000001
 44
0.0000000001
 40
0.0
 40
0.0
 40
0.0
 40
0.0
 40
0.232868146
 40
1.0
 40
1.0
 40
1.0
 40
1.0
 10
-2.3027184514
 20
-13.6937899792
 30
0.0
 10
-2.2923072731
 20
-13.6869898605
 30
0.0
 10
-2.2472484808
 20
-13.6583322534
 30
0.0
 10
-2.2006036658
 20
-13.632133063
 30
0.0
 10
-2.1639724453
 20
-13.613795029
 30
0.0
  0
SPLINE
  5
57B
100
AcDbEntity
  8
RACCORDO
100
AcDbSpline
 62
250
  6
CONTINUOUS
 70
0
 71
3
 72
14
 73
10
 74
0
 42
0.0000001
 43
0.0000001
 44
0.0000000001
 40
0.0
 40
0.0
 40
0.0
 40
0.0
 40
0.2571474909
 40
0.3851966136
 40
0.5126463124
 40
0.6391178304
 40
0.7638804952
 40
0.8853765921
 40
1.0
 40
1.0
 40
1.0
 40
1.0
 10
-4.5570034886
 20
-23.4077242562
 30
0.0
 10
-4.3500330666
 20
-22.5686575024
 30
0.0
 10
-4.0337531201
 20
-21.3133165388
 30
0.0
 10
-3.6116056585
 20
-19.6429451425
 30
0.0
 10
-3.299426842
 20
-18.397761389
 30
0.0
 10
-2.9946486523
 20
-17.1621157627
 30
0.0
 10
-2.7015299119
 20
-15.9442200557
 30
0.0
 10
-2.4256372371
 20
-14.7631587994
 30
0.0
 10
-2.2513316017
 20
-13.9889840466
 30
0.0
 10
-2.1639724651
 20
-13.6137960927
 30
0.0
  0
SPLINE
  5
57C
100
AcDbEntity
  8
RACCORDO
100
AcDbSpline
 62
250
  6
CONTINUOUS
 70
0
 71
3
 72
14
 73
10
 74
0
 42
0.0000001
 43
0.0000001
 44
0.0000000001
 40
0.0
 40
0.0
 40
0.0
 40
0.0
 40
0.3948535461
 40
0.5637602153
 40
0.7088074662
 40
0.8266008833
 40
0.9147211244
 40
0.9721305029
 40
1.0
 40
1.0
 40
1.0
 40
1.0
 10
5.6199781456
 20
-24.3198642834
 30
0.0
 10
5.6330251062
 20
-24.3162121435
 30
0.0
 10
5.6515980653
 20
-24.3107686147
 30
0.0
 10
5.6747152783
 20
-24.3032467407
 30
0.0
 10
5.6887135914
 20
-24.2983054219
 30
0.0
 10
5.6998608802
 20
-24.2939517268
 30
0.0
 10
5.7082552807
 20
-24.2901048314
 30
0.0
 10
5.7130893098
 20
-24.2873148739
 30
0.0
 10
5.7157118129
 20
-24.2850431283
 30
0.0
 10
5.715677363
 20
-24.2840874721
 30
0.0
  0
SPLINE
  5
57D
100
AcDbEntity
  8
RACCORDO
100
AcDbSpline
 62
250
  6
CONTINUOUS
 70
0
 71
3
 72
14
 73
10
 74
0
 42
0.0000001
 43
0.0000001
 44
0.0000000001
 40
0.0
 40
0.0
 40
0.0
 40
0.0
 40
0.3695258403
 40
0.5388422305
 40
0.6882352478
 40
0.8127515132
 40
0.9078000458
 40
0.970474011
 40
1.0
 40
1.0
 40
1.0
 40
1.0
 10
4.7446197774
 20
-24.8251583554
 30
0.0
 10
4.7630462788
 20
-24.820775991
 30
0.0
 10
4.7898345354
 20
-24.8139990107
 30
0.0
 10
4.8237906745
 20
-24.8044987219
 30
0.0
 10
4.8455840112
 20
-24.797927277
 30
0.0
 10
4.863410234
 20
-24.7919705349
 30
0.0
 10
4.8772684108
 20
-24.7868743773
 30
0.0
 10
4.8853544882
 20
-24.7828173442
 30
0.0
 10
4.8901456579
 20
-24.7802060439
 30
0.0
 10
4.8904934822
 20
-24.778733169
 30
0.0
  0
SPLINE
  5
57E
100
AcDbEntity
  8
RACCORDO
100
AcDbSpline
 62
250
  6
CONTINUOUS
 70
0
 71
3
 72
12
 73
8
 74
0
 42
0.0000001
 43
0.0000001
 44
0.0000000001
 40
0.0
 40
0.0
 40
0.0
 40
0.0
 40
0.0353505228
 40
0.0954358779
 40
0.296423
 40
0.6020910821
 40
1.0
 40
1.0
 40
1.0
 40
1.0
 10
-4.5591727506
 20
-23.416519188
 30
0.0
 10
-4.5591045378
 20
-23.4172021214
 30
0.0
 10
-4.5578528387
 20
-23.4187841884
 30
0.0
 10
-4.5532701741
 20
-23.4221152376
 30
0.0
 10
-4.5432318482
 20
-23.4269708967
 30
0.0
 10
-4.5269533406
 20
-23.4333972524
 30
0.0
 10
-4.5140001458
 20
-23.4378134004
 30
0.0
 10
-4.5066552307
 20
-23.4402080336
 30
0.0
  0
SPLINE
  5
57F
100
AcDbEntity
  8
RACCORDO
100
AcDbSpline
 62
250
  6
CONTINUOUS
 70
0
 71
3
 72
9
 73
5
 74
0
 42
0.0000001
 43
0.0000001
 44
0.0000000001
 40
0.0
 40
0.0
 40
0.0
 40
0.0
 40
0.2246222115
 40
1.0
 40
1.0
 40
1.0
 40
1.0
 10
-4.5066552307
 20
-23.4402080336
 30
0.0
 10
-4.4997686423
 20
-23.4424532403
 30
0.0
 10
-4.4689716762
 20
-23.4520218965
 30
0.0
 10
-4.4377951987
 20
-23.4603410915
 30
0.0
 10
-4.4135066685
 20
-23.4662773838
 30
0.0
  0
SPLINE
  5
580
100
AcDbEntity
  8
RACCORDO
100
AcDbSpline
 62
250
  6
CONTINUOUS
 70
0
 71
3
 72
8
 73
4
 74
0
 42
0.0000001
 43
0.0000001
 44
0.0000000001
 40
0.0
 40
0.0
 40
0.0
 40
0.0
 40
1.0
 40
1.0
 40
1.0
 40
1.0
 10
-5.4667979101
 20
-23.58818337
 30
0.0
 10
-5.4402298679
 20
-23.5755057214
 30
0.0
 10
-5.4101028946
 20
-23.5686849329
 30
0.0
 10
-5.3806651023
 20
-23.5686797244
 30
0.0
  0
SPLINE
  5
581
100
AcDbEntity
  8
RACCORDO
100
AcDbSpline
 62
250
  6
CONTINUOUS
 70
0
 71
3
 72
11
 73
7
 74
0
 42
0.0000001
 43
0.0000001
 44
0.0000000001
 40
0.0
 40
0.0
 40
0.0
 40
0.0
 40
0.2504298908
 40
0.5005306343
 40
0.7503166027
 40
1.0
 40
1.0
 40
1.0
 40
1.0
 10
4.7542916651
 20
-23.7324719501
 30
0.0
 10
4.7155774574
 20
-23.7324681353
 30
0.0
 10
4.6375917173
 20
-23.719468312
 30
0.0
 10
4.5338799916
 20
-23.6630558598
 30
0.0
 10
4.4541118824
 20
-23.5761675678
 30
0.0
 10
4.4227704628
 20
-23.5037480127
 30
0.0
 10
4.4135066623
 20
-23.4662773592
 30
0.0
  0
SPLINE
  5
582
100
AcDbEntity
  8
RACCORDO
100
AcDbSpline
 62
250
  6
CONTINUOUS
 70
0
 71
3
 72
15
 73
11
 74
0
 42
0.0000001
 43
0.0000001
 44
0.0000000001
 40
0.0
 40
0.0
 40
0.0
 40
0.0
 40
0.0553294053
 40
0.11351958
 40
0.2348116558
 40
0.3596756488
 40
0.4863484922
 40
0.6140365773
 40
0.7423368469
 40
1.0
 40
1.0
 40
1.0
 40
1.0
 10
-1.9734689975
 20
-13.5401867567
 30
0.0
 10
-2.0178101987
 20
-13.7234203682
 30
0.0
 10
-2.1062975972
 20
-14.0999606999
 30
0.0
 10
-2.2866461716
 20
-14.8794337932
 30
0.0
 10
-2.5233350611
 20
-15.8890601136
 30
0.0
 10
-2.8223836134
 20
-17.1236982122
 30
0.0
 10
-3.1327346729
 20
-18.3779999631
 30
0.0
 10
-3.4508332754
 20
-19.6424349267
 30
0.0
 10
-3.8808540338
 20
-21.3389320818
 30
0.0
 10
-4.2028986287
 20
-22.6139844611
 30
0.0
 10
-4.4135066685
 20
-23.4662773838
 30
0.0
  0
SPLINE
  5
583
100
AcDbEntity
  8
RACCORDO
100
AcDbSpline
 62
7
  6
CONTINUOUS
 70
0
 71
3
 72
10
 73
6
 74
0
 42
0.0000001
 43
0.0000001
 44
0.0000000001
 40
0.0
 40
0.0
 40
0.0
 40
0.0
 40
0.125091173
 40
0.3355970812
 40
1.0
 40
1.0
 40
1.0
 40
1.0
 10
-2.1639724453
 20
-13.613795029
 30
0.0
 10
-2.1624066841
 20
-13.6130119587
 30
0.0
 10
-2.1577696296
 20
-13.6119323652
 30
0.0
 10
-2.1440095275
 20
-13.609660286
 30
0.0
 10
-2.1317583347
 20
-13.6086707548
 30
0.0
 10
-2.1224857813
 20
-13.6079784459
 30
0.0
  0
LINE
  5
584
100
AcDbEntity
  8
RACCORDO
100
AcDbLine
 62
250
  6
CONTINUOUS
 10
-5.715677363
 20
-24.2840874721
 11
-5.5747871369
 21
-23.7203910206
  0
LINE
  5
585
100
AcDbEntity
  8
RACCORDO
100
AcDbLine
 62
250
  6
CONTINUOUS
 10
5.715677363
 20
-24.2840874721
 11
5.5747871369
 21
-23.7203910206
  0
SPLINE
  5
586
100
AcDbEntity
  8
RACCORDO
100
AcDbSpline
 62
250
  6
CONTINUOUS
 70
0
 71
3
 72
11
 73
7
 74
0
 42
0.0000001
 43
0.0000001
 44
0.0000000001
 40
0.0
 40
0.0
 40
0.0
 40
0.0
 40
0.2512339712
 40
0.5016009131
 40
0.7510660801
 40
1.0
 40
1.0
 40
1.0
 40
1.0
 10
4.7542916753
 20
-23.5686797183
 30
0.0
 10
4.7320718094
 20
-23.5686871381
 30
0.0
 10
4.6873553658
 20
-23.5612192008
 30
0.0
 10
4.6279876158
 20
-23.5288663527
 30
0.0
 10
4.5824209867
 20
-23.4792011723
 30
0.0
 10
4.5644895213
 20
-23.4378840387
 30
0.0
 10
4.5591727213
 20
-23.4165192209
 30
0.0
  0
SPLINE
  5
587
100
AcDbEntity
  8
RACCORDO
100
AcDbSpline
 62
250
  6
CONTINUOUS
 70
0
 71
3
 72
11
 73
7
 74
0
 42
0.0000001
 43
0.0000001
 44
0.0000000001
 40
0.0
 40
0.0
 40
0.0
 40
0.0
 40
0.2489179041
 40
0.4983639648
 40
0.748841354
 40
1.0
 40
1.0
 40
1.0
 40
1.0
 10
4.8904935451
 20
-24.7787334285
 30
0.0
 10
4.8835051188
 20
-24.7499084544
 30
0.0
 10
4.8824358153
 20
-24.6881835162
 30
0.0
 10
4.9213503262
 20
-24.6045567771
 30
0.0
 10
4.9931574794
 20
-24.5461494465
 30
0.0
 10
5.0538285864
 20
-24.5323303907
 30
0.0
 10
5.083755607
 20
-24.5323465816
 30
0.0
  0
SPLINE
  5
588
100
AcDbEntity
  8
RACCORDO
100
AcDbSpline
 62
250
  6
CONTINUOUS
 70
0
 71
3
 72
11
 73
7
 74
0
 42
0.0000001
 43
0.0000001
 44
0.0000000001
 40
0.0
 40
0.0
 40
0.0
 40
0.0
 40
0.2512120513
 40
0.5015629973
 40
0.751106843
 40
1.0
 40
1.0
 40
1.0
 40
1.0
 10
-4.7542916964
 20
-23.5686797064
 30
0.0
 10
-4.7320738173
 20
-23.5686850503
 30
0.0
 10
-4.6873628196
 20
-23.5612176594
 30
0.0
 10
-4.6279832145
 20
-23.528875643
 30
0.0
 10
-4.5824283305
 20
-23.4791955925
 30
0.0
 10
-4.5644905053
 20
-23.4378800458
 30
0.0
 10
-4.5591726682
 20
-23.4165192512
 30
0.0
  0
SPLINE
  5
589
100
AcDbEntity
  8
RACCORDO
100
AcDbSpline
 62
7
  6
CONTINUOUS
 70
0
 71
3
 72
10
 73
6
 74
0
 42
0.0000001
 43
0.0000001
 44
0.0000000001
 40
0.0
 40
0.0
 40
0.0
 40
0.0
 40
0.5531505842
 40
0.7950338256
 40
1.0
 40
1.0
 40
1.0
 40
1.0
 10
-1.9734698022
 20
-13.5401803566
 30
0.0
 10
-1.9985905909
 20
-13.5573353967
 30
0.0
 10
-2.0363280214
 20
-13.5799889251
 30
0.0
 10
-2.0871443223
 20
-13.6010561052
 30
0.0
 10
-2.1112453083
 20
-13.6071392079
 30
0.0
 10
-2.1224857813
 20
-13.6079784459
 30
0.0
  0
SPLINE
  5
58A
100
AcDbEntity
  8
RACCORDO
100
AcDbSpline
 62
250
  6
CONTINUOUS
 70
0
 71
3
 72
11
 73
7
 74
0
 42
0.0000001
 43
0.0000001
 44
0.0000000001
 40
0.0
 40
0.0
 40
0.0
 40
0.0
 40
0.2485662941
 40
0.4979054853
 40
0.7485255664
 40
1.0
 40
1.0
 40
1.0
 40
1.0
 10
-4.8904935915
 20
-24.7787334479
 30
0.0
 10
-4.8835163916
 20
-24.7499493285
 30
0.0
 10
-4.8824214339
 20
-24.6882866467
 30
0.0
 10
-4.9212799005
 20
-24.6046849082
 30
0.0
 10
-4.9930577068
 20
-24.5461706676
 30
0.0
 10
-5.0537914708
 20
-24.532334347
 30
0.0
 10
-5.0837556628
 20
-24.5323466037
 30
0.0
  0
SPLINE
  5
58B
100
AcDbEntity
  8
RACCORDO
100
AcDbSpline
 62
7
  6
CONTINUOUS
 70
0
 71
3
 72
9
 73
5
 74
0
 42
0.0000001
 43
0.0000001
 44
0.0000000001
 40
0.0
 40
0.0
 40
0.0
 40
0.0
 40
0.2590229034
 40
1.0
 40
1.0
 40
1.0
 40
1.0
 10
-2.0472185736
 20
-13.4475532606
 30
0.0
 10
-2.0417018233
 20
-13.4561717463
 30
0.0
 10
-2.0194487116
 20
-13.4888230388
 30
0.0
 10
-1.9939633947
 20
-13.51927776
 30
0.0
 10
-1.9734698022
 20
-13.5401803566
 30
0.0
  0
SPLINE
  5
58C
100
AcDbEntity
  8
RACCORDO
100
AcDbSpline
 62
7
  6
CONTINUOUS
 70
0
 71
3
 72
9
 73
5
 74
0
 42
0.0000001
 43
0.0000001
 44
0.0000000001
 40
0.0
 40
0.0
 40
0.0
 40
0.0
 40
0.237795979
 40
1.0
 40
1.0
 40
1.0
 40
1.0
 10
1.9734680232
 20
-13.5401781831
 30
0.0
 10
1.9800440978
 20
-13.5334709582
 30
0.0
 10
2.0069326548
 20
-13.5045280545
 30
0.0
 10
2.0309729028
 20
-13.4729097648
 30
0.0
 10
2.0472064063
 20
-13.4475532606
 30
0.0
  0
SPLINE
  5
58D
100
AcDbEntity
  8
RACCORDO
100
AcDbSpline
 62
7
  6
CONTINUOUS
 70
0
 71
3
 72
10
 73
6
 74
0
 42
0.0000001
 43
0.0000001
 44
0.0000000001
 40
0.0
 40
0.0
 40
0.0
 40
0.0
 40
0.2049719416
 40
0.4468707117
 40
1.0
 40
1.0
 40
1.0
 40
1.0
 10
2.1224826479
 20
-13.6079784459
 30
0.0
 10
2.1112417896
 20
-13.6071392634
 30
0.0
 10
2.0871398237
 20
-13.6010557771
 30
0.0
 10
2.0363188504
 20
-13.5799982686
 30
0.0
 10
1.9985881233
 20
-13.5573324561
 30
0.0
 10
1.9734680232
 20
-13.5401781831
 30
0.0
  0
LINE
  5
58E
100
AcDbEntity
  8
RACCORDO
100
AcDbLine
 62
250
  6
CONTINUOUS
 10
5.5701216202
 20
-24.3330109751
 11
5.429231394
 21
-23.7702863506
  0
SPLINE
  5
58F
100
AcDbEntity
  8
RACCORDO
100
AcDbSpline
 62
7
  6
CONTINUOUS
 70
0
 71
3
 72
9
 73
5
 74
0
 42
0.0000001
 43
0.0000001
 44
0.0000000001
 40
0.0
 40
0.0
 40
0.0
 40
0.0
 40
0.5010670123
 40
1.0
 40
1.0
 40
1.0
 40
1.0
 10
2.0768548714
 20
-13.2454008886
 30
0.0
 10
2.0822761531
 20
-13.2796012701
 30
0.0
 10
2.0848041238
 20
-13.3491492619
 30
0.0
 10
2.0657972718
 20
-13.41851459
 30
0.0
 10
2.0472064063
 20
-13.4475532606
 30
0.0
  0
SPLINE
  5
590
100
AcDbEntity
  8
RACCORDO
100
AcDbSpline
 62
250
  6
CONTINUOUS
 70
0
 71
3
 72
15
 73
11
 74
0
 42
0.0000001
 43
0.0000001
 44
0.0000000001
 40
0.0
 40
0.0
 40
0.0
 40
0.0
 40
0.2719998686
 40
0.4872033674
 40
0.641594679
 40
0.7504010641
 40
0.8303639051
 40
0.8935436539
 40
0.9481357594
 40
1.0
 40
1.0
 40
1.0
 40
1.0
 10
1.9734664642
 20
-13.5401809654
 30
0.0
 10
1.9126593126
 20
-13.2888738655
 30
0.0
 10
1.7999032877
 20
-12.8396017994
 30
0.0
 10
1.628973839
 20
-12.2539564231
 30
0.0
 10
1.4805332829
 20
-11.823862567
 30
0.0
 10
1.3516381805
 20
-11.5236929845
 30
0.0
 10
1.2311568181
 20
-11.3157987442
 30
0.0
 10
1.1107576258
 20
-11.1700663761
 30
0.0
 10
0.9847650412
 20
-11.0677641163
 30
0.0
 10
0.8949571589
 20
-11.0198913972
 30
0.0
 10
0.8498467296
 20
-10.9999998241
 30
0.0
  0
SPLINE
  5
591
100
AcDbEntity
  8
RACCORDO
100
AcDbSpline
 62
250
  6
CONTINUOUS
 70
0
 71
3
 72
15
 73
11
 74
0
 42
0.0000001
 43
0.0000001
 44
0.0000000001
 40
0.0
 40
0.0
 40
0.0
 40
0.0
 40
0.0518637172
 40
0.1064575693
 40
0.1696361165
 40
0.2495901639
 40
0.358408235
 40
0.5127868382
 40
0.7279945244
 40
1.0
 40
1.0
 40
1.0
 40
1.0
 10
-0.8498467296
 20
-10.9999998832
 30
0.0
 10
-0.8949567443
 20
-11.0198912799
 30
0.0
 10
-0.9847676907
 20
-11.0677614424
 30
0.0
 10
-1.1107557779
 20
-11.1700700541
 30
0.0
 10
-1.2311511618
 20
-11.3157943656
 30
0.0
 10
-1.3516429658
 20
-11.5236850277
 30
0.0
 10
-1.4805267275
 20
-11.8238502234
 30
0.0
 10
-1.628972978
 20
-12.2539452096
 30
0.0
 10
-1.7998961275
 20
-12.8395905624
 30
0.0
 10
-1.9126550321
 20
-13.2888716621
 30
0.0
 10
-1.9734703365
 20
-13.540182527
 30
0.0
  0
SPLINE
  5
592
100
AcDbEntity
  8
RACCORDO
100
AcDbSpline
 62
7
  6
CONTINUOUS
 70
0
 71
3
 72
9
 73
5
 74
0
 42
0.0000001
 43
0.0000001
 44
0.0000000001
 40
0.0
 40
0.0
 40
0.0
 40
0.0
 40
0.4989399717
 40
1.0
 40
1.0
 40
1.0
 40
1.0
 10
-2.0472185736
 20
-13.4475532606
 30
0.0
 10
-2.0658075638
 20
-13.418512804
 30
0.0
 10
-2.0848111359
 20
-13.3491464304
 30
0.0
 10
-2.082276849
 20
-13.2795987869
 30
0.0
 10
-2.0768547529
 20
-13.2453990126
 30
0.0
  0
SPLINE
  5
593
100
AcDbEntity
  8
RACCORDO
100
AcDbSpline
 62
250
  6
CONTINUOUS
 70
0
 71
3
 72
14
 73
10
 74
0
 42
0.0000001
 43
0.0000001
 44
0.0000000001
 40
0.0
 40
0.0
 40
0.0
 40
0.0
 40
0.0295250759
 40
0.0921983515
 40
0.1872465083
 40
0.311762732
 40
0.4611559909
 40
0.630472844
 40
1.0
 40
1.0
 40
1.0
 40
1.0
 10
-4.8904935032
 20
-24.7787330832
 30
0.0
 10
-4.8901457936
 20
-24.7802059387
 30
0.0
 10
-4.8853546134
 20
-24.7828172716
 30
0.0
 10
-4.8772687091
 20
-24.786874254
 30
0.0
 10
-4.8634105336
 20
-24.7919704292
 30
0.0
 10
-4.8455843212
 20
-24.7979271768
 30
0.0
 10
-4.8237909243
 20
-24.8044986466
 30
0.0
 10
-4.7898346536
 20
-24.8139989771
 30
0.0
 10
-4.7630462793
 20
-24.8207759878
 30
0.0
 10
-4.7446196928
 20
-24.8251583721
 30
0.0
  0
SPLINE
  5
594
100
AcDbEntity
  8
RACCORDO
100
AcDbSpline
 62
250
  6
CONTINUOUS
 70
0
 71
3
 72
14
 73
10
 74
0
 42
0.0000001
 43
0.0000001
 44
0.0000000001
 40
0.0
 40
0.0
 40
0.0
 40
0.0
 40
0.0278694971
 40
0.0852788756
 40
0.1733991167
 40
0.2911925338
 40
0.4362397847
 40
0.6051464539
 40
1.0
 40
1.0
 40
1.0
 40
1.0
 10
-5.715677363
 20
-24.2840874721
 30
0.0
 10
-5.7157118129
 20
-24.2850431283
 30
0.0
 10
-5.7130893098
 20
-24.2873148739
 30
0.0
 10
-5.7082552807
 20
-24.2901048314
 30
0.0
 10
-5.6998608802
 20
-24.2939517268
 30
0.0
 10
-5.6887135914
 20
-24.2983054219
 30
0.0
 10
-5.6747152783
 20
-24.3032467407
 30
0.0
 10
-5.6515980653
 20
-24.3107686147
 30
0.0
 10
-5.6330251061
 20
-24.3162121435
 30
0.0
 10
-5.6199781456
 20
-24.3198642835
 30
0.0
  0
SPLINE
  5
595
100
AcDbEntity
  8
RACCORDO
100
AcDbSpline
 62
250
  6
CONTINUOUS
 70
0
 71
3
 72
14
 73
10
 74
0
 42
0.0000001
 43
0.0000001
 44
0.0000000001
 40
0.0
 40
0.0
 40
0.0
 40
0.0
 40
0.0278172154
 40
0.0885962225
 40
0.1825081498
 40
0.3067784609
 40
0.4567201109
 40
0.6272330365
 40
1.0
 40
1.0
 40
1.0
 40
1.0
 10
-5.5747871371
 20
-23.7203910212
 30
0.0
 10
-5.5748595238
 20
-23.7218254268
 30
0.0
 10
-5.5702903405
 20
-23.72507215
 30
0.0
 10
-5.5626710033
 20
-23.7291628208
 30
0.0
 10
-5.5489733692
 20
-23.7348183346
 30
0.0
 10
-5.5312343142
 20
-23.7411785374
 30
0.0
 10
-5.5093299496
 20
-23.7482692454
 30
0.0
 10
-5.4750390049
 20
-23.7584464197
 30
0.0
 10
-5.4479122768
 20
-23.7656553668
 30
0.0
 10
-5.429231394
 20
-23.7702863505
 30
0.0
  0
SPLINE
  5
596
100
AcDbEntity
  8
0
100
AcDbSpline
 62
7
  6
CONTINUOUS
 70
0
 71
3
 72
11
 73
7
 74
0
 42
0.0000001
 43
0.0000001
 44
0.0000000001
 40
0.0
 40
0.0
 40
0.0
 40
0.0
 40
0.2618523752
 40
0.4776212397
 40
0.6920968422
 40
1.0
 40
1.0
 40
1.0
 40
1.0
 10
1.2758137705
 20
6.7002457332
 30
0.0
 10
1.4057749851
 20
6.7002457332
 30
0.0
 10
1.6417944707
 20
6.7058015387
 30
0.0
 10
1.9851289861
 20
6.8088592868
 30
0.0
 10
2.2124807564
 20
7.1263213841
 30
0.0
 10
2.2275019212
 20
7.3938743608
 30
0.0
 10
2.2275019212
 20
7.5466912615
 30
0.0
  0
SPLINE
  5
597
100
AcDbEntity
  8
0
100
AcDbSpline
 62
7
  6
CONTINUOUS
 70
0
 71
3
 72
11
 73
7
 74
0
 42
0.0000001
 43
0.0000001
 44
0.0000000001
 40
0.0
 40
0.0
 40
0.0
 40
0.0
 40
0.2849551711
 40
0.4998261233
 40
0.7192050889
 40
1.0
 40
1.0
 40
1.0
 40
1.0
 10
2.2275019212
 20
7.5466912615
 30
0.0
 10
2.2275019212
 20
7.677539424
 30
0.0
 10
2.2130110745
 20
7.911378784
 30
0.0
 10
2.0332546562
 20
8.2104585041
 30
0.0
 10
1.7157209962
 20
8.3416654547
 30
0.0
 10
1.4854239496
 20
8.3530053617
 30
0.0
 10
1.3564861309
 20
8.3530053617
 30
0.0
  0
SPLINE
  5
598
100
AcDbEntity
  8
0
100
AcDbSpline
 62
7
  6
CONTINUOUS
 70
0
 71
3
 72
12
 73
8
 74
0
 42
0.0000001
 43
0.0000001
 44
0.0000000001
 40
0.0
 40
0.0
 40
0.0
 40
0.0
 40
0.2809994813
 40
0.3943878187
 40
0.4999228527
 40
0.7126332797
 40
1.0
 40
1.0
 40
1.0
 40
1.0
 10
1.2610716132
 20
8.0147547539
 30
0.0
 10
1.3375445971
 20
8.0147547539
 30
0.0
 10
1.4460753416
 20
8.0099097204
 30
0.0
 10
1.577093856
 20
7.9698814223
 30
0.0
 10
1.6781918206
 20
7.9066987437
 30
0.0
 10
1.7683283294
 20
7.7582375785
 30
0.0
 10
1.7758186036
 20
7.6191640051
 30
0.0
 10
1.7758186036
 20
7.5409582003
 30
0.0
  0
SPLINE
  5
599
100
AcDbEntity
  8
0
100
AcDbSpline
 62
7
  6
CONTINUOUS
 70
0
 71
3
 72
11
 73
7
 74
0
 42
0.0000001
 43
0.0000001
 44
0.0000000001
 40
0.0
 40
0.0
 40
0.0
 40
0.0
 40
0.2899253097
 40
0.5011337383
 40
0.7154169941
 40
1.0
 40
1.0
 40
1.0
 40
1.0
 10
1.7758186036
 20
7.5409582003
 30
0.0
 10
1.7758186036
 20
7.4580135986
 30
0.0
 10
1.7682812244
 20
7.3128754203
 30
0.0
 10
1.6637224936
 20
7.12252249
 30
0.0
 10
1.4646427095
 20
7.0440111174
 30
0.0
 10
1.3220126193
 20
7.0389058454
 30
0.0
 10
1.2405963948
 20
7.0389058454
 30
0.0
  0
SPLINE
  5
59A
100
AcDbEntity
  8
0
100
AcDbSpline
 62
7
  6
CONTINUOUS
 70
0
 71
3
 72
19
 73
15
 74
0
 42
0.0000001
 43
0.0000001
 44
0.0000000001
 40
0.0
 40
0.0
 40
0.0
 40
0.0
 40
0.1376566839
 40
0.2507896178
 40
0.3044764038
 40
0.3616116642
 40
0.4267143629
 40
0.5046083827
 40
0.5795121393
 40
0.6428412283
 40
0.6985473357
 40
0.7510756625
 40
0.861871673
 40
1.0
 40
1.0
 40
1.0
 40
1.0
 10
-1.8282293375
 20
6.4295633461
 30
0.0
 10
-1.8282293375
 20
6.2840077274
 30
0.0
 10
-1.8158397064
 20
6.0180878759
 30
0.0
 10
-1.6971901591
 20
5.7056594082
 30
0.0
 10
-1.5257234687
 20
5.5376704535
 30
0.0
 10
-1.3619862255
 20
5.4452912953
 30
0.0
 10
-1.155606402
 20
5.3903837815
 30
0.0
 10
-0.9247109257
 20
5.3763831057
 30
0.0
 10
-0.6959361416
 20
5.3899342791
 30
0.0
 10
-0.4949572268
 20
5.4380047281
 30
0.0
 10
-0.331991673
 20
5.5217095934
 30
0.0
 10
-0.1572499714
 20
5.6783816946
 30
0.0
 10
-0.0261755304
 20
5.9827648113
 30
0.0
 10
-0.0100299444
 20
6.2474726364
 30
0.0
 10
-0.0100299444
 20
6.3935269617
 30
0.0
  0
SPLINE
  5
59B
100
AcDbEntity
  8
0
100
AcDbSpline
 62
7
  6
CONTINUOUS
 70
0
 71
3
 72
19
 73
15
 74
0
 42
0.0000001
 43
0.0000001
 44
0.0000000001
 40
0.0
 40
0.0
 40
0.0
 40
0.0
 40
0.1302828175
 40
0.2503908627
 40
0.30576226
 40
0.3615367838
 40
0.4223182514
 40
0.4953223222
 40
0.5694747572
 40
0.6310595376
 40
0.6875119231
 40
0.7440166713
 40
0.8677044043
 40
1.0
 40
1.0
 40
1.0
 40
1.0
 10
-0.4498376355
 20
6.4430769902
 30
0.0
 10
-0.4498376355
 20
6.3567109323
 30
0.0
 10
-0.4546633498
 20
6.1912924887
 30
0.0
 10
-0.4933176869
 20
5.9879385241
 30
0.0
 10
-0.5742029949
 20
5.8555358841
 30
0.0
 10
-0.6599166942
 20
5.777704377
 30
0.0
 10
-0.7779436506
 20
5.7276334196
 30
0.0
 10
-0.9166082791
 20
5.7169188475
 30
0.0
 10
-1.0558726931
 20
5.7276799221
 30
0.0
 10
-1.1753060617
 20
5.7794085085
 30
0.0
 10
-1.260714964
 20
5.8603982745
 30
0.0
 10
-1.3393111596
 20
5.9983599103
 30
0.0
 10
-1.3738752623
 20
6.2067789881
 30
0.0
 10
-1.3773650285
 20
6.3758518556
 30
0.0
 10
-1.3773650285
 20
6.4635522086
 30
0.0
  0
SPLINE
  5
59C
100
AcDbEntity
  8
0
100
AcDbSpline
 62
7
  6
CONTINUOUS
 70
0
 71
3
 72
8
 73
4
 74
0
 42
0.0000001
 43
0.0000001
 44
0.0000000001
 40
0.0
 40
0.0
 40
0.0
 40
0.0
 40
1.0
 40
1.0
 40
1.0
 40
1.0
 10
8.3424964168
 20
9.1993555824
 30
0.0
 10
8.2751728743
 20
9.1753113911
 30
0.0
 10
8.217911467
 20
9.1434992239
 30
0.0
 10
8.1670125741
 20
9.0989626926
 30
0.0
  0
SPLINE
  5
59D
100
AcDbEntity
  8
0
100
AcDbSpline
 62
7
  6
CONTINUOUS
 70
0
 71
3
 72
8
 73
4
 74
0
 42
0.0000001
 43
0.0000001
 44
0.0000000001
 40
0.0
 40
0.0
 40
0.0
 40
0.0
 40
1.0
 40
1.0
 40
1.0
 40
1.0
 10
8.1670125741
 20
9.0989626926
 30
0.0
 10
8.1161134094
 20
9.0544259235
 30
0.0
 10
8.0715767592
 20
9.0035268947
 30
0.0
 10
8.0320703753
 20
8.945057565
 30
0.0
  0
SPLINE
  5
59E
100
AcDbEntity
  8
0
100
AcDbSpline
 62
7
  6
CONTINUOUS
 70
0
 71
3
 72
8
 73
4
 74
0
 42
0.0000001
 43
0.0000001
 44
0.0000000001
 40
0.0
 40
0.0
 40
0.0
 40
0.0
 40
1.0
 40
1.0
 40
1.0
 40
1.0
 10
8.0320703753
 20
8.945057565
 30
0.0
 10
7.9920469582
 20
8.8858230278
 30
0.0
 10
7.9462308036
 20
8.8198161712
 30
0.0
 10
7.9029736578
 20
8.7490317509
 30
0.0
  0
SPLINE
  5
59F
100
AcDbEntity
  8
0
100
AcDbSpline
 62
7
  6
CONTINUOUS
 70
0
 71
3
 72
8
 73
4
 74
0
 42
0.0000001
 43
0.0000001
 44
0.0000000001
 40
0.0
 40
0.0
 40
0.0
 40
0.0
 40
1.0
 40
1.0
 40
1.0
 40
1.0
 10
7.8329874933
 20
8.6345089361
 30
0.0
 10
7.8011756003
 20
8.5772478029
 30
0.0
 10
7.7725448966
 20
8.5295298263
 30
0.0
 10
7.7418314263
 20
8.4842678701
 30
0.0
  0
SPLINE
  5
5A0
100
AcDbEntity
  8
0
100
AcDbSpline
 62
7
  6
CONTINUOUS
 70
0
 71
3
 72
8
 73
4
 74
0
 42
0.0000001
 43
0.0000001
 44
0.0000000001
 40
0.0
 40
0.0
 40
0.0
 40
0.0
 40
1.0
 40
1.0
 40
1.0
 40
1.0
 10
7.7418314263
 20
8.4842678701
 30
0.0
 10
7.7121022999
 20
8.440456526
 30
0.0
 10
7.6802904069
 20
8.4054633066
 30
0.0
 10
7.6452974611
 20
8.3736515377
 30
0.0
  0
SPLINE
  5
5A1
100
AcDbEntity
  8
0
100
AcDbSpline
 62
7
  6
CONTINUOUS
 70
0
 71
3
 72
8
 73
4
 74
0
 42
0.0000001
 43
0.0000001
 44
0.0000000001
 40
0.0
 40
0.0
 40
0.0
 40
0.0
 40
1.0
 40
1.0
 40
1.0
 40
1.0
 10
7.6452974611
 20
8.3736515377
 30
0.0
 10
7.6103042424
 20
8.3418395206
 30
0.0
 10
7.5689487815
 20
8.3163900062
 30
0.0
 10
7.5249744862
 20
8.2991145933
 30
0.0
  0
SPLINE
  5
5A2
100
AcDbEntity
  8
0
100
AcDbSpline
 62
7
  6
CONTINUOUS
 70
0
 71
3
 72
8
 73
4
 74
0
 42
0.0000001
 43
0.0000001
 44
0.0000000001
 40
0.0
 40
0.0
 40
0.0
 40
0.0
 40
1.0
 40
1.0
 40
1.0
 40
1.0
 10
7.5249744862
 20
8.2991145933
 30
0.0
 10
7.4798754811
 20
8.2813973352
 30
0.0
 10
7.4289764524
 20
8.2750346825
 30
0.0
 10
7.3653526664
 20
8.2750346825
 30
0.0
  0
SPLINE
  5
5A3
100
AcDbEntity
  8
0
100
AcDbSpline
 62
7
  6
CONTINUOUS
 70
0
 71
3
 72
8
 73
4
 74
0
 42
0.0000001
 43
0.0000001
 44
0.0000000001
 40
0.0
 40
0.0
 40
0.0
 40
0.0
 40
1.0
 40
1.0
 40
1.0
 40
1.0
 10
7.3653526664
 20
8.2750346825
 30
0.0
 10
7.2571922302
 20
8.2750346825
 30
0.0
 10
7.1744813085
 20
8.303665249
 30
0.0
 10
7.1140385749
 20
8.3609267861
 30
0.0
  0
SPLINE
  5
5A4
100
AcDbEntity
  8
0
100
AcDbSpline
 62
7
  6
CONTINUOUS
 70
0
 71
3
 72
8
 73
4
 74
0
 42
0.0000001
 43
0.0000001
 44
0.0000000001
 40
0.0
 40
0.0
 40
0.0
 40
0.0
 40
1.0
 40
1.0
 40
1.0
 40
1.0
 10
7.1140385749
 20
8.3609267861
 30
0.0
 10
7.0535961151
 20
8.4181880638
 30
0.0
 10
7.0217842221
 20
8.504080312
 30
0.0
 10
7.0217842221
 20
8.6122410223
 30
0.0
  0
SPLINE
  5
5A5
100
AcDbEntity
  8
0
100
AcDbSpline
 62
7
  6
CONTINUOUS
 70
0
 71
3
 72
8
 73
4
 74
0
 42
0.0000001
 43
0.0000001
 44
0.0000000001
 40
0.0
 40
0.0
 40
0.0
 40
0.0
 40
1.0
 40
1.0
 40
1.0
 40
1.0
 10
7.0217842221
 20
8.6122410223
 30
0.0
 10
7.0217842221
 20
8.6758648083
 30
0.0
 10
7.03132779
 20
8.7299448892
 30
0.0
 10
7.0504148265
 20
8.7744813078
 30
0.0
  0
SPLINE
  5
5A6
100
AcDbEntity
  8
0
100
AcDbSpline
 62
7
  6
CONTINUOUS
 70
0
 71
3
 72
8
 73
4
 74
0
 42
0.0000001
 43
0.0000001
 44
0.0000000001
 40
0.0
 40
0.0
 40
0.0
 40
0.0
 40
1.0
 40
1.0
 40
1.0
 40
1.0
 10
7.0504148265
 20
8.7744813078
 30
0.0
 10
7.0695020616
 20
8.8190181896
 30
0.0
 10
7.0917703867
 20
8.8508298084
 30
0.0
 10
7.1235822797
 20
8.8762793228
 30
0.0
  0
SPLINE
  5
5A7
100
AcDbEntity
  8
0
100
AcDbSpline
 62
7
  6
CONTINUOUS
 70
0
 71
3
 72
8
 73
4
 74
0
 42
0.0000001
 43
0.0000001
 44
0.0000000001
 40
0.0
 40
0.0
 40
0.0
 40
0.0
 40
1.0
 40
1.0
 40
1.0
 40
1.0
 10
7.1235822797
 20
8.8762793228
 30
0.0
 10
7.1553941727
 20
8.9017288372
 30
0.0
 10
7.1935684443
 20
8.917635195
 30
0.0
 10
7.2381050383
 20
8.9271786137
 30
0.0
  0
SPLINE
  5
5A8
100
AcDbEntity
  8
0
100
AcDbSpline
 62
7
  6
CONTINUOUS
 70
0
 71
3
 72
8
 73
4
 74
0
 42
0.0000001
 43
0.0000001
 44
0.0000000001
 40
0.0
 40
0.0
 40
0.0
 40
0.0
 40
1.0
 40
1.0
 40
1.0
 40
1.0
 10
7.2381050383
 20
8.9271786137
 30
0.0
 10
7.2826417446
 20
8.9367220566
 30
0.0
 10
7.3335407734
 20
8.9430847093
 30
0.0
 10
7.3844398022
 20
8.9430847093
 30
0.0
  0
SPLINE
  5
5A9
100
AcDbEntity
  8
0
100
AcDbSpline
 62
7
  6
CONTINUOUS
 70
0
 71
3
 72
8
 73
4
 74
0
 42
0.0000001
 43
0.0000001
 44
0.0000000001
 40
0.0
 40
0.0
 40
0.0
 40
0.0
 40
1.0
 40
1.0
 40
1.0
 40
1.0
 10
7.3621714771
 20
9.2166667148
 30
0.0
 10
7.1649377406
 20
9.2166667148
 30
0.0
 10
7.0249654114
 20
9.1625866339
 30
0.0
 10
6.9368105819
 20
9.0600064686
 30
0.0
  0
SPLINE
  5
5AA
100
AcDbEntity
  8
0
100
AcDbSpline
 62
7
  6
CONTINUOUS
 70
0
 71
3
 72
8
 73
4
 74
0
 42
0.0000001
 43
0.0000001
 44
0.0000000001
 40
0.0
 40
0.0
 40
0.0
 40
0.0
 40
1.0
 40
1.0
 40
1.0
 40
1.0
 10
6.9368105819
 20
9.0600064686
 30
0.0
 10
6.85
 20
8.9589905187
 30
0.0
 10
6.8054633498
 20
8.8126555368
 30
0.0
 10
6.8054633498
 20
8.6217841789
 30
0.0
  0
SPLINE
  5
5AB
100
AcDbEntity
  8
0
100
AcDbSpline
 62
7
  6
CONTINUOUS
 70
0
 71
3
 72
8
 73
4
 74
0
 42
0.0000001
 43
0.0000001
 44
0.0000000001
 40
0.0
 40
0.0
 40
0.0
 40
0.0
 40
1.0
 40
1.0
 40
1.0
 40
1.0
 10
6.8054633498
 20
8.6217841789
 30
0.0
 10
6.8054633498
 20
8.5295298263
 30
0.0
 10
6.818188107
 20
8.4468191788
 30
0.0
 10
6.8436376214
 20
8.3704706356
 30
0.0
  0
SPLINE
  5
5AC
100
AcDbEntity
  8
0
100
AcDbSpline
 62
7
  6
CONTINUOUS
 70
0
 71
3
 72
8
 73
4
 74
0
 42
0.0000001
 43
0.0000001
 44
0.0000000001
 40
0.0
 40
0.0
 40
0.0
 40
0.0
 40
1.0
 40
1.0
 40
1.0
 40
1.0
 10
6.8436376214
 20
8.3704706356
 30
0.0
 10
6.8690871358
 20
8.2941220924
 30
0.0
 10
6.9040802181
 20
8.2273167059
 30
0.0
 10
6.9517979227
 20
8.1700554603
 30
0.0
  0
SPLINE
  5
5AD
100
AcDbEntity
  8
0
100
AcDbSpline
 62
7
  6
CONTINUOUS
 70
0
 71
3
 72
8
 73
4
 74
0
 42
0.0000001
 43
0.0000001
 44
0.0000000001
 40
0.0
 40
0.0
 40
0.0
 40
0.0
 40
1.0
 40
1.0
 40
1.0
 40
1.0
 10
6.9517979227
 20
8.1700554603
 30
0.0
 10
6.999515897
 20
8.1127938911
 30
0.0
 10
7.0599584937
 20
8.0714385673
 30
0.0
 10
7.1302045346
 20
8.0402181047
 30
0.0
  0
SPLINE
  5
5AE
100
AcDbEntity
  8
0
100
AcDbSpline
 62
7
  6
CONTINUOUS
 70
0
 71
3
 72
8
 73
4
 74
0
 42
0.0000001
 43
0.0000001
 44
0.0000000001
 40
0.0
 40
0.0
 40
0.0
 40
0.0
 40
1.0
 40
1.0
 40
1.0
 40
1.0
 10
7.1302045346
 20
8.0402181047
 30
0.0
 10
7.2031120121
 20
8.0078147814
 30
0.0
 10
7.2858229339
 20
7.9950900242
 30
0.0
 10
7.3812586129
 20
7.9950900242
 30
0.0
  0
SPLINE
  5
5AF
100
AcDbEntity
  8
0
100
AcDbSpline
 62
7
  6
CONTINUOUS
 70
0
 71
3
 72
8
 73
4
 74
0
 42
0.0000001
 43
0.0000001
 44
0.0000000001
 40
0.0
 40
0.0
 40
0.0
 40
0.0
 40
1.0
 40
1.0
 40
1.0
 40
1.0
 10
7.3812586129
 20
7.9950900242
 30
0.0
 10
7.4735131025
 20
7.9950900242
 30
0.0
 10
7.553042835
 20
8.0046337292
 30
0.0
 10
7.6168746603
 20
8.0295437098
 30
0.0
  0
SPLINE
  5
5B0
100
AcDbEntity
  8
0
100
AcDbSpline
 62
7
  6
CONTINUOUS
 70
0
 71
3
 72
8
 73
4
 74
0
 42
0.0000001
 43
0.0000001
 44
0.0000000001
 40
0.0
 40
0.0
 40
0.0
 40
0.0
 40
1.0
 40
1.0
 40
1.0
 40
1.0
 10
7.6168746603
 20
8.0295437098
 30
0.0
 10
7.6834715962
 20
8.0555327579
 30
0.0
 10
7.7407330036
 20
8.0873443767
 30
0.0
 10
7.7924074748
 20
8.1309447814
 30
0.0
  0
SPLINE
  5
5B1
100
AcDbEntity
  8
0
100
AcDbSpline
 62
7
  6
CONTINUOUS
 70
0
 71
3
 72
8
 73
4
 74
0
 42
0.0000001
 43
0.0000001
 44
0.0000000001
 40
0.0
 40
0.0
 40
0.0
 40
0.0
 40
1.0
 40
1.0
 40
1.0
 40
1.0
 10
7.9323492944
 20
8.2840476827
 30
0.0
 10
7.9729598224
 20
8.3418395206
 30
0.0
 10
8.0133496048
 20
8.4060430374
 30
0.0
 10
8.0556708127
 20
8.4754497454
 30
0.0
  0
SPLINE
  5
5B2
100
AcDbEntity
  8
0
100
AcDbSpline
 62
7
  6
CONTINUOUS
 70
0
 71
3
 72
8
 73
4
 74
0
 42
0.0000001
 43
0.0000001
 44
0.0000000001
 40
0.0
 40
0.0
 40
0.0
 40
0.0
 40
1.0
 40
1.0
 40
1.0
 40
1.0
 10
8.2317165678
 20
8.7514611284
 30
0.0
 10
8.2624481171
 20
8.7967497274
 30
0.0
 10
8.2942600101
 20
8.8317429468
 30
0.0
 10
8.3300276245
 20
8.8626332293
 30
0.0
  0
SPLINE
  5
5B3
100
AcDbEntity
  8
0
100
AcDbSpline
 62
7
  6
CONTINUOUS
 70
0
 71
3
 72
8
 73
4
 74
0
 42
0.0000001
 43
0.0000001
 44
0.0000000001
 40
0.0
 40
0.0
 40
0.0
 40
0.0
 40
1.0
 40
1.0
 40
1.0
 40
1.0
 10
8.3300276245
 20
8.8626332293
 30
0.0
 10
8.3642461747
 20
8.8921856806
 30
0.0
 10
8.4024204463
 20
8.9144535944
 30
0.0
 10
8.4469571833
 20
8.930359709
 30
0.0
  0
SPLINE
  5
5B4
100
AcDbEntity
  8
0
100
AcDbSpline
 62
7
  6
CONTINUOUS
 70
0
 71
3
 72
8
 73
4
 74
0
 42
0.0000001
 43
0.0000001
 44
0.0000000001
 40
0.0
 40
0.0
 40
0.0
 40
0.0
 40
1.0
 40
1.0
 40
1.0
 40
1.0
 10
8.4469571833
 20
8.930359709
 30
0.0
 10
8.4914937466
 20
8.9462657616
 30
0.0
 10
8.5455739647
 20
8.9558094665
 30
0.0
 10
8.6060165957
 20
8.9558094665
 30
0.0
  0
SPLINE
  5
5B5
100
AcDbEntity
  8
0
100
AcDbSpline
 62
7
  6
CONTINUOUS
 70
0
 71
3
 72
8
 73
4
 74
0
 42
0.0000001
 43
0.0000001
 44
0.0000000001
 40
0.0
 40
0.0
 40
0.0
 40
0.0
 40
1.0
 40
1.0
 40
1.0
 40
1.0
 10
8.6060165957
 20
8.9558094665
 30
0.0
 10
8.7205394104
 20
8.9558094665
 30
0.0
 10
8.8127939001
 20
8.9271783516
 30
0.0
 10
8.8795988891
 20
8.8730982664
 30
0.0
  0
SPLINE
  5
5B6
100
AcDbEntity
  8
0
100
AcDbSpline
 62
7
  6
CONTINUOUS
 70
0
 71
3
 72
8
 73
4
 74
0
 42
0.0000001
 43
0.0000001
 44
0.0000000001
 40
0.0
 40
0.0
 40
0.0
 40
0.0
 40
1.0
 40
1.0
 40
1.0
 40
1.0
 10
8.8795988891
 20
8.8730982664
 30
0.0
 10
8.9464038678
 20
8.8190181896
 30
0.0
 10
8.9782157607
 20
8.7299448892
 30
0.0
 10
8.9782157607
 20
8.6058783695
 30
0.0
  0
SPLINE
  5
5B7
100
AcDbEntity
  8
0
100
AcDbSpline
 62
7
  6
CONTINUOUS
 70
0
 71
3
 72
8
 73
4
 74
0
 42
0.0000001
 43
0.0000001
 44
0.0000000001
 40
0.0
 40
0.0
 40
0.0
 40
0.0
 40
1.0
 40
1.0
 40
1.0
 40
1.0
 10
8.9782157607
 20
8.6058783695
 30
0.0
 10
8.9782157607
 20
8.5295298263
 30
0.0
 10
8.9686721928
 20
8.4690870926
 30
0.0
 10
8.9445038601
 20
8.420750566
 30
0.0
  0
SPLINE
  5
5B8
100
AcDbEntity
  8
0
100
AcDbSpline
 62
7
  6
CONTINUOUS
 70
0
 71
3
 72
8
 73
4
 74
0
 42
0.0000001
 43
0.0000001
 44
0.0000000001
 40
0.0
 40
0.0
 40
0.0
 40
0.0
 40
1.0
 40
1.0
 40
1.0
 40
1.0
 10
8.9445038601
 20
8.420750566
 30
0.0
 10
8.9209543534
 20
8.3736516878
 30
0.0
 10
8.8891424604
 20
8.3354774162
 30
0.0
 10
8.8509681743
 20
8.3100278979
 30
0.0
  0
SPLINE
  5
5B9
100
AcDbEntity
  8
0
100
AcDbSpline
 62
7
  6
CONTINUOUS
 70
0
 71
3
 72
8
 73
4
 74
0
 42
0.0000001
 43
0.0000001
 44
0.0000000001
 40
0.0
 40
0.0
 40
0.0
 40
0.0
 40
1.0
 40
1.0
 40
1.0
 40
1.0
 10
8.8509681743
 20
8.3100278979
 30
0.0
 10
8.8127939001
 20
8.2845783874
 30
0.0
 10
8.7650760606
 20
8.2654909775
 30
0.0
 10
8.7078607566
 20
8.2556827805
 30
0.0
  0
SPLINE
  5
5BA
100
AcDbEntity
  8
0
100
AcDbSpline
 62
7
  6
CONTINUOUS
 70
0
 71
3
 72
8
 73
4
 74
0
 42
0.0000001
 43
0.0000001
 44
0.0000000001
 40
0.0
 40
0.0
 40
0.0
 40
0.0
 40
1.0
 40
1.0
 40
1.0
 40
1.0
 10
8.7078607566
 20
8.2556827805
 30
0.0
 10
8.6537344351
 20
8.2464041159
 30
0.0
 10
8.5932918385
 20
8.2432230636
 30
0.0
 10
8.5296680182
 20
8.2432230636
 30
0.0
  0
SPLINE
  5
5BB
100
AcDbEntity
  8
0
100
AcDbSpline
 62
7
  6
CONTINUOUS
 70
0
 71
3
 72
8
 73
4
 74
0
 42
0.0000001
 43
0.0000001
 44
0.0000000001
 40
0.0
 40
0.0
 40
0.0
 40
0.0
 40
1.0
 40
1.0
 40
1.0
 40
1.0
 10
8.5296680182
 20
7.9632784054
 30
0.0
 10
8.7555324927
 20
7.9632784054
 30
0.0
 10
8.9241355427
 20
8.0109958336
 30
0.0
 10
9.0322959871
 20
8.1096128392
 30
0.0
  0
SPLINE
  5
5BC
100
AcDbEntity
  8
0
100
AcDbSpline
 62
7
  6
CONTINUOUS
 70
0
 71
3
 72
8
 73
4
 74
0
 42
0.0000001
 43
0.0000001
 44
0.0000000001
 40
0.0
 40
0.0
 40
0.0
 40
0.0
 40
1.0
 40
1.0
 40
1.0
 40
1.0
 10
9.0322959871
 20
8.1096128392
 30
0.0
 10
9.140456431
 20
8.2082298443
 30
0.0
 10
9.1945366545
 20
8.3736516878
 30
0.0
 10
9.1945366545
 20
8.6058783695
 30
0.0
  0
SPLINE
  5
5BD
100
AcDbEntity
  8
0
100
AcDbSpline
 62
7
  6
CONTINUOUS
 70
0
 71
3
 72
8
 73
4
 74
0
 42
0.0000001
 43
0.0000001
 44
0.0000000001
 40
0.0
 40
0.0
 40
0.0
 40
0.0
 40
1.0
 40
1.0
 40
1.0
 40
1.0
 10
9.1945366545
 20
8.6058783695
 30
0.0
 10
9.1945366545
 20
8.7935686752
 30
0.0
 10
9.1468188104
 20
8.9462657616
 30
0.0
 10
9.0450207445
 20
9.0607885762
 30
0.0
  0
SPLINE
  5
5BE
100
AcDbEntity
  8
0
100
AcDbSpline
 62
7
  6
CONTINUOUS
 70
0
 71
3
 72
8
 73
4
 74
0
 42
0.0000001
 43
0.0000001
 44
0.0000000001
 40
0.0
 40
0.0
 40
0.0
 40
0.0
 40
1.0
 40
1.0
 40
1.0
 40
1.0
 10
9.0450207445
 20
9.0607885762
 30
0.0
 10
8.9432226785
 20
9.1753113911
 30
0.0
 10
8.790525575
 20
9.2357541248
 30
0.0
 10
8.5869294599
 20
9.2357541248
 30
0.0
  0
SPLINE
  5
5BF
100
AcDbEntity
  8
0
100
AcDbSpline
 62
7
  6
CONTINUOUS
 70
0
 71
3
 72
8
 73
4
 74
0
 42
0.0000001
 43
0.0000001
 44
0.0000000001
 40
0.0
 40
0.0
 40
0.0
 40
0.0
 40
1.0
 40
1.0
 40
1.0
 40
1.0
 10
8.5869294599
 20
9.2357541248
 30
0.0
 10
8.4914937466
 20
9.2357541248
 30
0.0
 10
8.4087828249
 20
9.2230293676
 30
0.0
 10
8.3424964168
 20
9.1993555824
 30
0.0
  0
SPLINE
  5
5C0
100
AcDbEntity
  8
0
100
AcDbSpline
 62
7
  6
CONTINUOUS
 70
0
 71
3
 72
8
 73
4
 74
0
 42
0.0000001
 43
0.0000001
 44
0.0000000001
 40
0.0
 40
0.0
 40
0.0
 40
0.0
 40
1.0
 40
1.0
 40
1.0
 40
1.0
 10
6.85
 20
7.1170817778
 30
0.0
 10
6.913623786
 20
7.066182749
 30
0.0
 10
6.9740663826
 20
7.0057400152
 30
0.0
 10
7.0376901686
 20
6.929391472
 30
0.0
  0
SPLINE
  5
5C1
100
AcDbEntity
  8
0
100
AcDbSpline
 62
7
  6
CONTINUOUS
 70
0
 71
3
 72
8
 73
4
 74
0
 42
0.0000001
 43
0.0000001
 44
0.0000000001
 40
0.0
 40
0.0
 40
0.0
 40
0.0
 40
1.0
 40
1.0
 40
1.0
 40
1.0
 10
7.0376901686
 20
6.929391472
 30
0.0
 10
7.1013139546
 20
6.8530429289
 30
0.0
 10
7.1553941727
 20
6.7830570385
 30
0.0
 10
7.1967496336
 20
6.7194332525
 30
0.0
  0
SPLINE
  5
5C2
100
AcDbEntity
  8
0
100
AcDbSpline
 62
7
  6
CONTINUOUS
 70
0
 71
3
 72
8
 73
4
 74
0
 42
0.0000001
 43
0.0000001
 44
0.0000000001
 40
0.0
 40
0.0
 40
0.0
 40
0.0
 40
1.0
 40
1.0
 40
1.0
 40
1.0
 10
7.330559828
 20
6.9136442894
 30
0.0
 10
7.2826417446
 20
6.9739283964
 30
0.0
 10
7.2285615265
 20
7.0311895296
 30
0.0
 10
7.1713001192
 20
7.0884512112
 30
0.0
  0
SPLINE
  5
5C3
100
AcDbEntity
  8
0
100
AcDbSpline
 62
7
  6
CONTINUOUS
 70
0
 71
3
 72
8
 73
4
 74
0
 42
0.0000001
 43
0.0000001
 44
0.0000000001
 40
0.0
 40
0.0
 40
0.0
 40
0.0
 40
1.0
 40
1.0
 40
1.0
 40
1.0
 10
8.6887477434
 20
4.5309542116
 30
0.0
 10
8.7459889248
 20
4.5244123623
 30
0.0
 10
8.7968879536
 20
4.5085062787
 30
0.0
 10
8.8414245506
 20
4.4862379844
 30
0.0
  0
SPLINE
  5
5C4
100
AcDbEntity
  8
0
100
AcDbSpline
 62
7
  6
CONTINUOUS
 70
0
 71
3
 72
8
 73
4
 74
0
 42
0.0000001
 43
0.0000001
 44
0.0000000001
 40
0.0
 40
0.0
 40
0.0
 40
0.0
 40
1.0
 40
1.0
 40
1.0
 40
1.0
 10
8.8414245506
 20
4.4862379844
 30
0.0
 10
8.8859612711
 20
4.4639696285
 30
0.0
 10
8.9209543534
 20
4.4321577355
 30
0.0
 10
8.9495850571
 20
4.3939834639
 30
0.0
  0
SPLINE
  5
5C5
100
AcDbEntity
  8
0
100
AcDbSpline
 62
7
  6
CONTINUOUS
 70
0
 71
3
 72
8
 73
4
 74
0
 42
0.0000001
 43
0.0000001
 44
0.0000000001
 40
0.0
 40
0.0
 40
0.0
 40
0.0
 40
1.0
 40
1.0
 40
1.0
 40
1.0
 10
8.9495850571
 20
4.3939834639
 30
0.0
 10
8.9750345714
 20
4.3526281402
 30
0.0
 10
8.9877593286
 20
4.298547785
 30
0.0
 10
8.9877593286
 20
4.2285616204
 30
0.0
  0
SPLINE
  5
5C6
100
AcDbEntity
  8
0
100
AcDbSpline
 62
7
  6
CONTINUOUS
 70
0
 71
3
 72
8
 73
4
 74
0
 42
0.0000001
 43
0.0000001
 44
0.0000000001
 40
0.0
 40
0.0
 40
0.0
 40
0.0
 40
1.0
 40
1.0
 40
1.0
 40
1.0
 10
8.9877593286
 20
4.2285616204
 30
0.0
 10
8.9877593286
 20
4.1649378344
 30
0.0
 10
8.9750345714
 20
4.1108577535
 30
0.0
 10
8.949238026
 20
4.0729215918
 30
0.0
  0
SPLINE
  5
5C7
100
AcDbEntity
  8
0
100
AcDbSpline
 62
7
  6
CONTINUOUS
 70
0
 71
3
 72
8
 73
4
 74
0
 42
0.0000001
 43
0.0000001
 44
0.0000000001
 40
0.0
 40
0.0
 40
0.0
 40
0.0
 40
1.0
 40
1.0
 40
1.0
 40
1.0
 10
8.949238026
 20
4.0729215918
 30
0.0
 10
8.9209543534
 20
4.0313278839
 30
0.0
 10
8.8859612711
 20
3.9995159909
 30
0.0
 10
8.8414246603
 20
3.9772476898
 30
0.0
  0
SPLINE
  5
5C8
100
AcDbEntity
  8
0
100
AcDbSpline
 62
7
  6
CONTINUOUS
 70
0
 71
3
 72
8
 73
4
 74
0
 42
0.0000001
 43
0.0000001
 44
0.0000000001
 40
0.0
 40
0.0
 40
0.0
 40
0.0
 40
1.0
 40
1.0
 40
1.0
 40
1.0
 10
8.8414246603
 20
3.9772476898
 30
0.0
 10
8.7968879536
 20
3.9549793407
 30
0.0
 10
8.7459889248
 20
3.9390735313
 30
0.0
 10
8.6890112233
 20
3.9309337895
 30
0.0
  0
SPLINE
  5
5C9
100
AcDbEntity
  8
0
100
AcDbSpline
 62
7
  6
CONTINUOUS
 70
0
 71
3
 72
8
 73
4
 74
0
 42
0.0000001
 43
0.0000001
 44
0.0000000001
 40
0.0
 40
0.0
 40
0.0
 40
0.0
 40
1.0
 40
1.0
 40
1.0
 40
1.0
 10
8.6890112233
 20
3.9309337895
 30
0.0
 10
8.6346472993
 20
3.9231674477
 30
0.0
 10
8.577385892
 20
3.9199863955
 30
0.0
 10
8.5233056396
 20
3.9199863955
 30
0.0
  0
SPLINE
  5
5CA
100
AcDbEntity
  8
0
100
AcDbSpline
 62
7
  6
CONTINUOUS
 70
0
 71
3
 72
8
 73
4
 74
0
 42
0.0000001
 43
0.0000001
 44
0.0000000001
 40
0.0
 40
0.0
 40
0.0
 40
0.0
 40
1.0
 40
1.0
 40
1.0
 40
1.0
 10
8.5233056396
 20
3.9199863955
 30
0.0
 10
8.4660442322
 20
3.9199863955
 30
0.0
 10
8.4087828249
 20
3.9231674477
 30
0.0
 10
8.3547026068
 20
3.9295298263
 30
0.0
  0
SPLINE
  5
5CB
100
AcDbEntity
  8
0
100
AcDbSpline
 62
7
  6
CONTINUOUS
 70
0
 71
3
 72
8
 73
4
 74
0
 42
0.0000001
 43
0.0000001
 44
0.0000000001
 40
0.0
 40
0.0
 40
0.0
 40
0.0
 40
1.0
 40
1.0
 40
1.0
 40
1.0
 10
8.3547026068
 20
3.9295298263
 30
0.0
 10
8.3006223887
 20
3.9358922049
 30
0.0
 10
8.2497233599
 20
3.9517982885
 30
0.0
 10
8.2051867646
 20
3.9740665862
 30
0.0
  0
SPLINE
  5
5CC
100
AcDbEntity
  8
0
100
AcDbSpline
 62
7
  6
CONTINUOUS
 70
0
 71
3
 72
8
 73
4
 74
0
 42
0.0000001
 43
0.0000001
 44
0.0000000001
 40
0.0
 40
0.0
 40
0.0
 40
0.0
 40
1.0
 40
1.0
 40
1.0
 40
1.0
 10
8.2051867646
 20
3.9740665862
 30
0.0
 10
8.1606500596
 20
3.9963349387
 30
0.0
 10
8.1256569773
 20
4.0281468317
 30
0.0
 10
8.1002075241
 20
4.0695021931
 30
0.0
  0
SPLINE
  5
5CD
100
AcDbEntity
  8
0
100
AcDbSpline
 62
7
  6
CONTINUOUS
 70
0
 71
3
 72
8
 73
4
 74
0
 42
0.0000001
 43
0.0000001
 44
0.0000000001
 40
0.0
 40
0.0
 40
0.0
 40
0.0
 40
1.0
 40
1.0
 40
1.0
 40
1.0
 10
8.1002075241
 20
4.0695021931
 30
0.0
 10
8.0747579485
 20
4.1108577535
 30
0.0
 10
8.058852002
 20
4.1649378344
 30
0.0
 10
8.058852002
 20
4.234923999
 30
0.0
  0
SPLINE
  5
5CE
100
AcDbEntity
  8
0
100
AcDbSpline
 62
7
  6
CONTINUOUS
 70
0
 71
3
 72
8
 73
4
 74
0
 42
0.0000001
 43
0.0000001
 44
0.0000000001
 40
0.0
 40
0.0
 40
0.0
 40
0.0
 40
1.0
 40
1.0
 40
1.0
 40
1.0
 10
8.058852002
 20
4.234923999
 30
0.0
 10
8.058852002
 20
4.3017291114
 30
0.0
 10
8.0715767592
 20
4.3558091924
 30
0.0
 10
8.0977441616
 20
4.396695829
 30
0.0
  0
SPLINE
  5
5CF
100
AcDbEntity
  8
0
100
AcDbSpline
 62
7
  6
CONTINUOUS
 70
0
 71
3
 72
8
 73
4
 74
0
 42
0.0000001
 43
0.0000001
 44
0.0000000001
 40
0.0
 40
0.0
 40
0.0
 40
0.0
 40
1.0
 40
1.0
 40
1.0
 40
1.0
 10
8.0977441616
 20
4.396695829
 30
0.0
 10
8.122475788
 20
4.4353390619
 30
0.0
 10
8.1574688703
 20
4.4671509549
 30
0.0
 10
8.2023224028
 20
4.4887470286
 30
0.0
  0
SPLINE
  5
5D0
100
AcDbEntity
  8
0
100
AcDbSpline
 62
7
  6
CONTINUOUS
 70
0
 71
3
 72
8
 73
4
 74
0
 42
0.0000001
 43
0.0000001
 44
0.0000000001
 40
0.0
 40
0.0
 40
0.0
 40
0.0
 40
1.0
 40
1.0
 40
1.0
 40
1.0
 10
8.2023224028
 20
4.4887470286
 30
0.0
 10
8.2433609813
 20
4.5085062787
 30
0.0
 10
8.2942600101
 20
4.5244123623
 30
0.0
 10
8.3483402282
 20
4.5307747409
 30
0.0
  0
SPLINE
  5
5D1
100
AcDbEntity
  8
0
100
AcDbSpline
 62
7
  6
CONTINUOUS
 70
0
 71
3
 72
8
 73
4
 74
0
 42
0.0000001
 43
0.0000001
 44
0.0000000001
 40
0.0
 40
0.0
 40
0.0
 40
0.0
 40
1.0
 40
1.0
 40
1.0
 40
1.0
 10
8.3483402282
 20
4.5307747409
 30
0.0
 10
8.4024204463
 20
4.5371371195
 30
0.0
 10
8.4596818537
 20
4.5403181717
 30
0.0
 10
8.5201244503
 20
4.5403181717
 30
0.0
  0
SPLINE
  5
5D2
100
AcDbEntity
  8
0
100
AcDbSpline
 62
7
  6
CONTINUOUS
 70
0
 71
3
 72
8
 73
4
 74
0
 42
0.0000001
 43
0.0000001
 44
0.0000000001
 40
0.0
 40
0.0
 40
0.0
 40
0.0
 40
1.0
 40
1.0
 40
1.0
 40
1.0
 10
8.5201244503
 20
4.5403181717
 30
0.0
 10
8.577385892
 20
4.5403181717
 30
0.0
 10
8.6346472993
 20
4.5371371195
 30
0.0
 10
8.6887477434
 20
4.5309542116
 30
0.0
  0
SPLINE
  5
5D3
100
AcDbEntity
  8
0
100
AcDbSpline
 62
7
  6
CONTINUOUS
 70
0
 71
3
 72
8
 73
4
 74
0
 42
0.0000001
 43
0.0000001
 44
0.0000000001
 40
0.0
 40
0.0
 40
0.0
 40
0.0
 40
1.0
 40
1.0
 40
1.0
 40
1.0
 10
7.6005344111
 20
4.510389986
 30
0.0
 10
7.6516597033
 20
4.5021439001
 30
0.0
 10
7.6930151641
 20
4.4862380907
 30
0.0
 10
7.7305038121
 20
4.4659316724
 30
0.0
  0
SPLINE
  5
5D4
100
AcDbEntity
  8
0
100
AcDbSpline
 62
7
  6
CONTINUOUS
 70
0
 71
3
 72
8
 73
4
 74
0
 42
0.0000001
 43
0.0000001
 44
0.0000000001
 40
0.0
 40
0.0
 40
0.0
 40
0.0
 40
1.0
 40
1.0
 40
1.0
 40
1.0
 10
7.7305038121
 20
4.4659316724
 30
0.0
 10
7.7693637073
 20
4.4448824927
 30
0.0
 10
7.8011756003
 20
4.4162519261
 30
0.0
 10
7.8245772132
 20
4.3788093455
 30
0.0
  0
SPLINE
  5
5D5
100
AcDbEntity
  8
0
100
AcDbSpline
 62
7
  6
CONTINUOUS
 70
0
 71
3
 72
8
 73
4
 74
0
 42
0.0000001
 43
0.0000001
 44
0.0000000001
 40
0.0
 40
0.0
 40
0.0
 40
0.0
 40
1.0
 40
1.0
 40
1.0
 40
1.0
 10
7.8245772132
 20
4.3788093455
 30
0.0
 10
7.8488934398
 20
4.339903383
 30
0.0
 10
7.8584370077
 20
4.2921854064
 30
0.0
 10
7.8584370077
 20
4.234923999
 30
0.0
  0
SPLINE
  5
5D6
100
AcDbEntity
  8
0
100
AcDbSpline
 62
7
  6
CONTINUOUS
 70
0
 71
3
 72
8
 73
4
 74
0
 42
0.0000001
 43
0.0000001
 44
0.0000000001
 40
0.0
 40
0.0
 40
0.0
 40
0.0
 40
1.0
 40
1.0
 40
1.0
 40
1.0
 10
7.8584370077
 20
4.234923999
 30
0.0
 10
7.8584370077
 20
4.1744815394
 30
0.0
 10
7.8488934398
 20
4.1267635629
 30
0.0
 10
7.8245986353
 20
4.0878918758
 30
0.0
  0
SPLINE
  5
5D7
100
AcDbEntity
  8
0
100
AcDbSpline
 62
7
  6
CONTINUOUS
 70
0
 71
3
 72
8
 73
4
 74
0
 42
0.0000001
 43
0.0000001
 44
0.0000000001
 40
0.0
 40
0.0
 40
0.0
 40
0.0
 40
1.0
 40
1.0
 40
1.0
 40
1.0
 10
7.8245986353
 20
4.0878918758
 30
0.0
 10
7.8011756003
 20
4.0504150197
 30
0.0
 10
7.7693637073
 20
4.0186031267
 30
0.0
 10
7.7311894954
 20
3.9963348364
 30
0.0
  0
SPLINE
  5
5D8
100
AcDbEntity
  8
0
100
AcDbSpline
 62
7
  6
CONTINUOUS
 70
0
 71
3
 72
8
 73
4
 74
0
 42
0.0000001
 43
0.0000001
 44
0.0000000001
 40
0.0
 40
0.0
 40
0.0
 40
0.0
 40
1.0
 40
1.0
 40
1.0
 40
1.0
 10
7.7311894954
 20
3.9963348364
 30
0.0
 10
7.6930151641
 20
3.9740664765
 30
0.0
 10
7.6452973247
 20
3.9581606671
 30
0.0
 10
7.5946644825
 20
3.9502492173
 30
0.0
  0
SPLINE
  5
5D9
100
AcDbEntity
  8
0
100
AcDbSpline
 62
7
  6
CONTINUOUS
 70
0
 71
3
 72
8
 73
4
 74
0
 42
0.0000001
 43
0.0000001
 44
0.0000000001
 40
0.0
 40
0.0
 40
0.0
 40
0.0
 40
1.0
 40
1.0
 40
1.0
 40
1.0
 10
7.5946644825
 20
3.9502492173
 30
0.0
 10
7.5434992671
 20
3.9422545835
 30
0.0
 10
7.4926002383
 20
3.9390735313
 30
0.0
 10
7.4385200202
 20
3.9390735313
 30
0.0
  0
SPLINE
  5
5DA
100
AcDbEntity
  8
0
100
AcDbSpline
 62
7
  6
CONTINUOUS
 70
0
 71
3
 72
8
 73
4
 74
0
 42
0.0000001
 43
0.0000001
 44
0.0000000001
 40
0.0
 40
0.0
 40
0.0
 40
0.0
 40
1.0
 40
1.0
 40
1.0
 40
1.0
 10
7.4385200202
 20
3.9390735313
 30
0.0
 10
7.3812586129
 20
3.9390735313
 30
0.0
 10
7.3271783948
 20
3.9422545835
 30
0.0
 10
7.2760605386
 20
3.9502418174
 30
0.0
  0
SPLINE
  5
5DB
100
AcDbEntity
  8
0
100
AcDbSpline
 62
7
  6
CONTINUOUS
 70
0
 71
3
 72
8
 73
4
 74
0
 42
0.0000001
 43
0.0000001
 44
0.0000000001
 40
0.0
 40
0.0
 40
0.0
 40
0.0
 40
1.0
 40
1.0
 40
1.0
 40
1.0
 10
7.2760605386
 20
3.9502418174
 30
0.0
 10
7.2253803372
 20
3.9581606671
 30
0.0
 10
7.1776624978
 20
3.9740664765
 30
0.0
 10
7.1394881665
 20
3.9963348364
 30
0.0
  0
SPLINE
  5
5DC
100
AcDbEntity
  8
0
100
AcDbSpline
 62
7
  6
CONTINUOUS
 70
0
 71
3
 72
8
 73
4
 74
0
 42
0.0000001
 43
0.0000001
 44
0.0000000001
 40
0.0
 40
0.0
 40
0.0
 40
0.0
 40
1.0
 40
1.0
 40
1.0
 40
1.0
 10
7.1394881665
 20
3.9963348364
 30
0.0
 10
7.1013139546
 20
4.0186031267
 30
0.0
 10
7.0726832509
 20
4.0504150197
 30
0.0
 10
7.0483884465
 20
4.0892867068
 30
0.0
  0
SPLINE
  5
5DD
100
AcDbEntity
  8
0
100
AcDbSpline
 62
7
  6
CONTINUOUS
 70
0
 71
3
 72
8
 73
4
 74
0
 42
0.0000001
 43
0.0000001
 44
0.0000000001
 40
0.0
 40
0.0
 40
0.0
 40
0.0
 40
1.0
 40
1.0
 40
1.0
 40
1.0
 10
7.0483884465
 20
4.0892867068
 30
0.0
 10
7.0249654048
 20
4.1267635735
 30
0.0
 10
7.012240647
 20
4.1776626204
 30
0.0
 10
7.0122406542
 20
4.2412864316
 30
0.0
  0
SPLINE
  5
5DE
100
AcDbEntity
  8
0
100
AcDbSpline
 62
7
  6
CONTINUOUS
 70
0
 71
3
 72
8
 73
4
 74
0
 42
0.0000001
 43
0.0000001
 44
0.0000000001
 40
0.0
 40
0.0
 40
0.0
 40
0.0
 40
1.0
 40
1.0
 40
1.0
 40
1.0
 10
7.0122406542
 20
4.2412864316
 30
0.0
 10
7.0122406614
 20
4.3049101906
 30
0.0
 10
7.0249654186
 20
4.3526281509
 30
0.0
 10
7.0504149258
 20
4.3908024117
 30
0.0
  0
SPLINE
  5
5DF
100
AcDbEntity
  8
0
100
AcDbSpline
 62
7
  6
CONTINUOUS
 70
0
 71
3
 72
8
 73
4
 74
0
 42
0.0000001
 43
0.0000001
 44
0.0000000001
 40
0.0
 40
0.0
 40
0.0
 40
0.0
 40
1.0
 40
1.0
 40
1.0
 40
1.0
 10
7.0504149258
 20
4.3908024117
 30
0.0
 10
7.0758644402
 20
4.4289766833
 30
0.0
 10
7.1076763332
 20
4.4576072499
 30
0.0
 10
7.1458506048
 20
4.4766943857
 30
0.0
  0
SPLINE
  5
5E0
100
AcDbEntity
  8
0
100
AcDbSpline
 62
7
  6
CONTINUOUS
 70
0
 71
3
 72
8
 73
4
 74
0
 42
0.0000001
 43
0.0000001
 44
0.0000000001
 40
0.0
 40
0.0
 40
0.0
 40
0.0
 40
1.0
 40
1.0
 40
1.0
 40
1.0
 10
7.1458506048
 20
4.4766943857
 30
0.0
 10
7.1840248764
 20
4.4957815215
 30
0.0
 10
7.2317427158
 20
4.5085062787
 30
0.0
 10
7.2826644419
 20
4.5146786091
 30
0.0
  0
SPLINE
  5
5E1
100
AcDbEntity
  8
0
100
AcDbSpline
 62
7
  6
CONTINUOUS
 70
0
 71
3
 72
8
 73
4
 74
0
 42
0.0000001
 43
0.0000001
 44
0.0000000001
 40
0.0
 40
0.0
 40
0.0
 40
0.0
 40
1.0
 40
1.0
 40
1.0
 40
1.0
 10
7.2826644419
 20
4.5146786091
 30
0.0
 10
7.3367219627
 20
4.5212310359
 30
0.0
 10
7.3908021808
 20
4.5244123623
 30
0.0
 10
7.4480635881
 20
4.5244123623
 30
0.0
  0
SPLINE
  5
5E2
100
AcDbEntity
  8
0
100
AcDbSpline
 62
7
  6
CONTINUOUS
 70
0
 71
3
 72
8
 73
4
 74
0
 42
0.0000001
 43
0.0000001
 44
0.0000000001
 40
0.0
 40
0.0
 40
0.0
 40
0.0
 40
1.0
 40
1.0
 40
1.0
 40
1.0
 10
7.4480635881
 20
4.5244123623
 30
0.0
 10
7.5021438062
 20
4.5244123623
 30
0.0
 10
7.553042835
 20
4.5180499837
 30
0.0
 10
7.6005344111
 20
4.510389986
 30
0.0
  0
SPLINE
  5
5E3
100
AcDbEntity
  8
0
100
AcDbSpline
 62
7
  6
CONTINUOUS
 70
0
 71
3
 72
8
 73
4
 74
0
 42
0.0000001
 43
0.0000001
 44
0.0000000001
 40
0.0
 40
0.0
 40
0.0
 40
0.0
 40
1.0
 40
1.0
 40
1.0
 40
1.0
 10
8.3324342817
 20
4.797994642
 30
0.0
 10
8.2688104957
 20
4.7916322634
 30
0.0
 10
8.2115490884
 20
4.7757261798
 30
0.0
 10
8.161277868
 20
4.752161613
 30
0.0
  0
SPLINE
  5
5E4
100
AcDbEntity
  8
0
100
AcDbSpline
 62
7
  6
CONTINUOUS
 70
0
 71
3
 72
8
 73
4
 74
0
 42
0.0000001
 43
0.0000001
 44
0.0000000001
 40
0.0
 40
0.0
 40
0.0
 40
0.0
 40
1.0
 40
1.0
 40
1.0
 40
1.0
 10
8.161277868
 20
4.752161613
 30
0.0
 10
8.1097510308
 20
4.7280084774
 30
0.0
 10
8.0683955699
 20
4.6961965844
 30
0.0
 10
8.031179496
 20
4.650890102
 30
0.0
  0
SPLINE
  5
5E5
100
AcDbEntity
  8
0
100
AcDbSpline
 62
7
  6
CONTINUOUS
 70
0
 71
3
 72
8
 73
4
 74
0
 42
0.0000001
 43
0.0000001
 44
0.0000000001
 40
0.0
 40
0.0
 40
0.0
 40
0.0
 40
1.0
 40
1.0
 40
1.0
 40
1.0
 10
8.031179496
 20
4.650890102
 30
0.0
 10
7.9952281475
 20
4.607123284
 30
0.0
 10
7.9697786331
 20
4.5498618767
 30
0.0
 10
7.9538726866
 20
4.4766943857
 30
0.0
  0
SPLINE
  5
5E6
100
AcDbEntity
  8
0
100
AcDbSpline
 62
7
  6
CONTINUOUS
 70
0
 71
3
 72
8
 73
4
 74
0
 42
0.0000001
 43
0.0000001
 44
0.0000000001
 40
0.0
 40
0.0
 40
0.0
 40
0.0
 40
1.0
 40
1.0
 40
1.0
 40
1.0
 10
7.9538726866
 20
4.4766943857
 30
0.0
 10
7.9347855508
 20
4.5434994981
 30
0.0
 10
7.9061548471
 20
4.5975795791
 30
0.0
 10
7.8671936903
 20
4.6381641874
 30
0.0
  0
SPLINE
  5
5E7
100
AcDbEntity
  8
0
100
AcDbSpline
 62
7
  6
CONTINUOUS
 70
0
 71
3
 72
8
 73
4
 74
0
 42
0.0000001
 43
0.0000001
 44
0.0000000001
 40
0.0
 40
0.0
 40
0.0
 40
0.0
 40
1.0
 40
1.0
 40
1.0
 40
1.0
 10
7.8671936903
 20
4.6381641874
 30
0.0
 10
7.829806304
 20
4.6771094486
 30
0.0
 10
7.7852696538
 20
4.7089213416
 30
0.0
 10
7.7343706754
 20
4.7311896447
 30
0.0
  0
SPLINE
  5
5E8
100
AcDbEntity
  8
0
100
AcDbSpline
 62
7
  6
CONTINUOUS
 70
0
 71
3
 72
8
 73
4
 74
0
 42
0.0000001
 43
0.0000001
 44
0.0000000001
 40
0.0
 40
0.0
 40
0.0
 40
0.0
 40
1.0
 40
1.0
 40
1.0
 40
1.0
 10
7.7343706754
 20
4.7311896447
 30
0.0
 10
7.6834715962
 20
4.7534579918
 30
0.0
 10
7.6293913782
 20
4.7693638012
 30
0.0
 10
7.5721299708
 20
4.7757261798
 30
0.0
  0
SPLINE
  5
5E9
100
AcDbEntity
  8
0
100
AcDbSpline
 62
7
  6
CONTINUOUS
 70
0
 71
3
 72
8
 73
4
 74
0
 42
0.0000001
 43
0.0000001
 44
0.0000000001
 40
0.0
 40
0.0
 40
0.0
 40
0.0
 40
1.0
 40
1.0
 40
1.0
 40
1.0
 10
7.5721299708
 20
4.7757261798
 30
0.0
 10
7.5148685634
 20
4.7820885584
 30
0.0
 10
7.4544259667
 20
4.788450937
 30
0.0
 10
7.3908021808
 20
4.788450937
 30
0.0
  0
SPLINE
  5
5EA
100
AcDbEntity
  8
0
100
AcDbSpline
 62
7
  6
CONTINUOUS
 70
0
 71
3
 72
8
 73
4
 74
0
 42
0.0000001
 43
0.0000001
 44
0.0000000001
 40
0.0
 40
0.0
 40
0.0
 40
0.0
 40
1.0
 40
1.0
 40
1.0
 40
1.0
 10
7.3908021808
 20
4.788450937
 30
0.0
 10
7.1935684443
 20
4.788450937
 30
0.0
 10
7.0472337365
 20
4.7439142868
 30
0.0
 10
6.9525552802
 20
4.6540499893
 30
0.0
  0
SPLINE
  5
5EB
100
AcDbEntity
  8
0
100
AcDbSpline
 62
7
  6
CONTINUOUS
 70
0
 71
3
 72
8
 73
4
 74
0
 42
0.0000001
 43
0.0000001
 44
0.0000000001
 40
0.0
 40
0.0
 40
0.0
 40
0.0
 40
1.0
 40
1.0
 40
1.0
 40
1.0
 10
6.9525552802
 20
4.6540499893
 30
0.0
 10
6.8595435679
 20
4.5657676861
 30
0.0
 10
6.8118257284
 20
4.4257953569
 30
0.0
 10
6.8118257284
 20
4.234923999
 30
0.0
  0
SPLINE
  5
5EC
100
AcDbEntity
  8
0
100
AcDbSpline
 62
7
  6
CONTINUOUS
 70
0
 71
3
 72
8
 73
4
 74
0
 42
0.0000001
 43
0.0000001
 44
0.0000000001
 40
0.0
 40
0.0
 40
0.0
 40
0.0
 40
1.0
 40
1.0
 40
1.0
 40
1.0
 10
6.8118257284
 20
4.234923999
 30
0.0
 10
6.8118257284
 20
4.0345092103
 30
0.0
 10
6.8690871358
 20
3.8913555548
 30
0.0
 10
6.97784898
 20
3.8062375897
 30
0.0
  0
SPLINE
  5
5ED
100
AcDbEntity
  8
0
100
AcDbSpline
 62
7
  6
CONTINUOUS
 70
0
 71
3
 72
8
 73
4
 74
0
 42
0.0000001
 43
0.0000001
 44
0.0000000001
 40
0.0
 40
0.0
 40
0.0
 40
0.0
 40
1.0
 40
1.0
 40
1.0
 40
1.0
 10
6.97784898
 20
3.8062375897
 30
0.0
 10
7.0885891974
 20
3.7195713326
 30
0.0
 10
7.2412862837
 20
3.6782160088
 30
0.0
 10
7.4385200202
 20
3.6782160088
 30
0.0
  0
SPLINE
  5
5EE
100
AcDbEntity
  8
0
100
AcDbSpline
 62
7
  6
CONTINUOUS
 70
0
 71
3
 72
8
 73
4
 74
0
 42
0.0000001
 43
0.0000001
 44
0.0000000001
 40
0.0
 40
0.0
 40
0.0
 40
0.0
 40
1.0
 40
1.0
 40
1.0
 40
1.0
 10
7.4385200202
 20
3.6782160088
 30
0.0
 10
7.5657675922
 20
3.6782160088
 30
0.0
 10
7.670746839
 20
3.6973031446
 30
0.0
 10
7.7598201394
 20
3.7354774162
 30
0.0
  0
SPLINE
  5
5EF
100
AcDbEntity
  8
0
100
AcDbSpline
 62
7
  6
CONTINUOUS
 70
0
 71
3
 72
8
 73
4
 74
0
 42
0.0000001
 43
0.0000001
 44
0.0000000001
 40
0.0
 40
0.0
 40
0.0
 40
0.0
 40
1.0
 40
1.0
 40
1.0
 40
1.0
 10
7.7598201394
 20
3.7354774162
 30
0.0
 10
7.8488934398
 20
3.7736516878
 30
0.0
 10
7.915698415
 20
3.8531812832
 30
0.0
 10
7.9538726866
 20
3.9740664765
 30
0.0
  0
SPLINE
  5
5F0
100
AcDbEntity
  8
0
100
AcDbSpline
 62
7
  6
CONTINUOUS
 70
0
 71
3
 72
8
 73
4
 74
0
 42
0.0000001
 43
0.0000001
 44
0.0000000001
 40
0.0
 40
0.0
 40
0.0
 40
0.0
 40
1.0
 40
1.0
 40
1.0
 40
1.0
 10
7.9538726866
 20
3.9740664765
 30
0.0
 10
7.9729598224
 20
3.8977179334
 30
0.0
 10
8.0047717839
 20
3.840456526
 30
0.0
 10
8.0429459872
 20
3.7991011391
 30
0.0
  0
SPLINE
  5
5F1
100
AcDbEntity
  8
0
100
AcDbSpline
 62
7
  6
CONTINUOUS
 70
0
 71
3
 72
8
 73
4
 74
0
 42
0.0000001
 43
0.0000001
 44
0.0000000001
 40
0.0
 40
0.0
 40
0.0
 40
0.0
 40
1.0
 40
1.0
 40
1.0
 40
1.0
 10
8.0429459872
 20
3.7991011391
 30
0.0
 10
8.0811203271
 20
3.7577456042
 30
0.0
 10
8.1288381666
 20
3.7259337112
 30
0.0
 10
8.1799767223
 20
3.7042385664
 30
0.0
  0
SPLINE
  5
5F2
100
AcDbEntity
  8
0
100
AcDbSpline
 62
7
  6
CONTINUOUS
 70
0
 71
3
 72
8
 73
4
 74
0
 42
0.0000001
 43
0.0000001
 44
0.0000000001
 40
0.0
 40
0.0
 40
0.0
 40
0.0
 40
1.0
 40
1.0
 40
1.0
 40
1.0
 10
8.1799767223
 20
3.7042385664
 30
0.0
 10
8.2338174134
 20
3.681397061
 30
0.0
 10
8.2910788208
 20
3.6686723039
 30
0.0
 10
8.3515377705
 20
3.6624713859
 30
0.0
  0
SPLINE
  5
5F3
100
AcDbEntity
  8
0
100
AcDbSpline
 62
7
  6
CONTINUOUS
 70
0
 71
3
 72
8
 73
4
 74
0
 42
0.0000001
 43
0.0000001
 44
0.0000000001
 40
0.0
 40
0.0
 40
0.0
 40
0.0
 40
1.0
 40
1.0
 40
1.0
 40
1.0
 10
8.3515377705
 20
3.6624713859
 30
0.0
 10
8.4151452035
 20
3.6559475467
 30
0.0
 10
8.4755878001
 20
3.6559475467
 30
0.0
 10
8.5328492075
 20
3.6559475467
 30
0.0
  0
SPLINE
  5
5F4
100
AcDbEntity
  8
0
100
AcDbSpline
 62
7
  6
CONTINUOUS
 70
0
 71
3
 72
8
 73
4
 74
0
 42
0.0000001
 43
0.0000001
 44
0.0000000001
 40
0.0
 40
0.0
 40
0.0
 40
0.0
 40
1.0
 40
1.0
 40
1.0
 40
1.0
 10
8.5328492075
 20
3.6559475467
 30
0.0
 10
8.7523513034
 20
3.6559475467
 30
0.0
 10
8.9177731641
 20
3.7004841968
 30
0.0
 10
9.0259336086
 20
3.7895574975
 30
0.0
  0
SPLINE
  5
5F5
100
AcDbEntity
  8
0
100
AcDbSpline
 62
7
  6
CONTINUOUS
 70
0
 71
3
 72
8
 73
4
 74
0
 42
0.0000001
 43
0.0000001
 44
0.0000000001
 40
0.0
 40
0.0
 40
0.0
 40
0.0
 40
1.0
 40
1.0
 40
1.0
 40
1.0
 10
9.0259336086
 20
3.7895574975
 30
0.0
 10
9.1340940524
 20
3.8786307976
 30
0.0
 10
9.1881742759
 20
4.0249655053
 30
0.0
 10
9.1881742759
 20
4.2285616204
 30
0.0
  0
SPLINE
  5
5F6
100
AcDbEntity
  8
0
100
AcDbSpline
 62
7
  6
CONTINUOUS
 70
0
 71
3
 72
8
 73
4
 74
0
 42
0.0000001
 43
0.0000001
 44
0.0000000001
 40
0.0
 40
0.0
 40
0.0
 40
0.0
 40
1.0
 40
1.0
 40
1.0
 40
1.0
 10
9.1881742759
 20
4.2285616204
 30
0.0
 10
9.1881742759
 20
4.3367220566
 30
0.0
 10
9.1722683272
 20
4.4257953569
 30
0.0
 10
9.1398843304
 20
4.5018978116
 30
0.0
  0
SPLINE
  5
5F7
100
AcDbEntity
  8
0
100
AcDbSpline
 62
7
  6
CONTINUOUS
 70
0
 71
3
 72
8
 73
4
 74
0
 42
0.0000001
 43
0.0000001
 44
0.0000000001
 40
0.0
 40
0.0
 40
0.0
 40
0.0
 40
1.0
 40
1.0
 40
1.0
 40
1.0
 10
9.1398843304
 20
4.5018978116
 30
0.0
 10
9.1086445348
 20
4.5753113911
 30
0.0
 10
9.0641078804
 20
4.6357538506
 30
0.0
 10
9.0068464714
 20
4.6802904987
 30
0.0
  0
SPLINE
  5
5F8
100
AcDbEntity
  8
0
100
AcDbSpline
 62
7
  6
CONTINUOUS
 70
0
 71
3
 72
8
 73
4
 74
0
 42
0.0000001
 43
0.0000001
 44
0.0000000001
 40
0.0
 40
0.0
 40
0.0
 40
0.0
 40
1.0
 40
1.0
 40
1.0
 40
1.0
 10
9.0068464714
 20
4.6802904987
 30
0.0
 10
8.9495850571
 20
4.724827151
 30
0.0
 10
8.8827800818
 20
4.7598203704
 30
0.0
 10
8.8000691433
 20
4.778907508
 30
0.0
  0
SPLINE
  5
5F9
100
AcDbEntity
  8
0
100
AcDbSpline
 62
7
  6
CONTINUOUS
 70
0
 71
3
 72
8
 73
4
 74
0
 42
0.0000001
 43
0.0000001
 44
0.0000000001
 40
0.0
 40
0.0
 40
0.0
 40
0.0
 40
1.0
 40
1.0
 40
1.0
 40
1.0
 10
8.8000691433
 20
4.778907508
 30
0.0
 10
8.7173582211
 20
4.797994642
 30
0.0
 10
8.6282849208
 20
4.8075380728
 30
0.0
 10
8.5264868289
 20
4.8075380728
 30
0.0
  0
SPLINE
  5
5FA
100
AcDbEntity
  8
0
100
AcDbSpline
 62
7
  6
CONTINUOUS
 70
0
 71
3
 72
8
 73
4
 74
0
 42
0.0000001
 43
0.0000001
 44
0.0000000001
 40
0.0
 40
0.0
 40
0.0
 40
0.0
 40
1.0
 40
1.0
 40
1.0
 40
1.0
 10
6.85
 20
2.8033888146
 30
0.0
 10
6.913623786
 20
2.7524897859
 30
0.0
 10
6.9740663826
 20
2.6920471892
 30
0.0
 10
7.0376901686
 20
2.615698646
 30
0.0
  0
SPLINE
  5
5FB
100
AcDbEntity
  8
0
100
AcDbSpline
 62
7
  6
CONTINUOUS
 70
0
 71
3
 72
8
 73
4
 74
0
 42
0.0000001
 43
0.0000001
 44
0.0000000001
 40
0.0
 40
0.0
 40
0.0
 40
0.0
 40
1.0
 40
1.0
 40
1.0
 40
1.0
 10
7.0376901686
 20
2.615698646
 30
0.0
 10
7.1013139546
 20
2.5393501028
 30
0.0
 10
7.1553941727
 20
2.4693639383
 30
0.0
 10
7.1967496336
 20
2.4057401523
 30
0.0
  0
SPLINE
  5
5FC
100
AcDbEntity
  8
0
100
AcDbSpline
 62
7
  6
CONTINUOUS
 70
0
 71
3
 72
8
 73
4
 74
0
 42
0.0000001
 43
0.0000001
 44
0.0000000001
 40
0.0
 40
0.0
 40
0.0
 40
0.0
 40
1.0
 40
1.0
 40
1.0
 40
1.0
 10
7.3305597935
 20
2.5999512992
 30
0.0
 10
7.2826417446
 20
2.6602352962
 30
0.0
 10
7.2285615265
 20
2.7174967036
 30
0.0
 10
7.1713001192
 20
2.7747581109
 30
0.0
  0
SPLINE
  5
5FD
100
AcDbEntity
  8
0
100
AcDbSpline
 62
7
  6
CONTINUOUS
 70
0
 71
3
 72
8
 73
4
 74
0
 42
0.0000001
 43
0.0000001
 44
0.0000000001
 40
0.0
 40
0.0
 40
0.0
 40
0.0
 40
1.0
 40
1.0
 40
1.0
 40
1.0
 10
8.3069847673
 20
1.8935686752
 30
0.0
 10
8.2433609813
 20
1.8840251073
 30
0.0
 10
8.1892807633
 20
1.8649379715
 30
0.0
 10
8.1415629238
 20
1.8394884571
 30
0.0
  0
SPLINE
  5
5FE
100
AcDbEntity
  8
0
100
AcDbSpline
 62
7
  6
CONTINUOUS
 70
0
 71
3
 72
8
 73
4
 74
0
 42
0.0000001
 43
0.0000001
 44
0.0000000001
 40
0.0
 40
0.0
 40
0.0
 40
0.0
 40
1.0
 40
1.0
 40
1.0
 40
1.0
 10
8.1415629238
 20
1.8394884571
 30
0.0
 10
8.0938450843
 20
1.8140389428
 30
0.0
 10
8.0524896234
 20
1.7758646026
 30
0.0
 10
8.0214251322
 20
1.7308211388
 30
0.0
  0
SPLINE
  5
5FF
100
AcDbEntity
  8
0
100
AcDbSpline
 62
7
  6
CONTINUOUS
 70
0
 71
3
 72
8
 73
4
 74
0
 42
0.0000001
 43
0.0000001
 44
0.0000000001
 40
0.0
 40
0.0
 40
0.0
 40
0.0
 40
1.0
 40
1.0
 40
1.0
 40
1.0
 10
8.0214251322
 20
1.7308211388
 30
0.0
 10
7.9888657689
 20
1.683610113
 30
0.0
 10
7.9665974438
 20
1.6231675163
 30
0.0
 10
7.9538726866
 20
1.5531813517
 30
0.0
  0
SPLINE
  5
600
100
AcDbEntity
  8
0
100
AcDbSpline
 62
7
  6
CONTINUOUS
 70
0
 71
3
 72
8
 73
4
 74
0
 42
0.0000001
 43
0.0000001
 44
0.0000000001
 40
0.0
 40
0.0
 40
0.0
 40
0.0
 40
1.0
 40
1.0
 40
1.0
 40
1.0
 10
7.9538726866
 20
1.5531813517
 30
0.0
 10
7.9411479294
 20
1.6168051377
 30
0.0
 10
7.915698415
 20
1.6677041665
 30
0.0
 10
7.8807053328
 20
1.7122408167
 30
0.0
  0
SPLINE
  5
601
100
AcDbEntity
  8
0
100
AcDbSpline
 62
7
  6
CONTINUOUS
 70
0
 71
3
 72
8
 73
4
 74
0
 42
0.0000001
 43
0.0000001
 44
0.0000000001
 40
0.0
 40
0.0
 40
0.0
 40
0.0
 40
1.0
 40
1.0
 40
1.0
 40
1.0
 10
7.8807053328
 20
1.7122408167
 30
0.0
 10
7.8457122505
 20
1.7567774668
 30
0.0
 10
7.8011756003
 20
1.7917706177
 30
0.0
 10
7.7502765715
 20
1.8172201321
 30
0.0
  0
SPLINE
  5
602
100
AcDbEntity
  8
0
100
AcDbSpline
 62
7
  6
CONTINUOUS
 70
0
 71
3
 72
8
 73
4
 74
0
 42
0.0000001
 43
0.0000001
 44
0.0000000001
 40
0.0
 40
0.0
 40
0.0
 40
0.0
 40
1.0
 40
1.0
 40
1.0
 40
1.0
 10
7.7502765715
 20
1.8172201321
 30
0.0
 10
7.6993775427
 20
1.8426696464
 30
0.0
 10
7.6452973247
 20
1.8617567822
 30
0.0
 10
7.5814598731
 20
1.8732147864
 30
0.0
  0
SPLINE
  5
603
100
AcDbEntity
  8
0
100
AcDbSpline
 62
7
  6
CONTINUOUS
 70
0
 71
3
 72
8
 73
4
 74
0
 42
0.0000001
 43
0.0000001
 44
0.0000000001
 40
0.0
 40
0.0
 40
0.0
 40
0.0
 40
1.0
 40
1.0
 40
1.0
 40
1.0
 10
7.5814598731
 20
1.8732147864
 30
0.0
 10
7.521230942
 20
1.8840251073
 30
0.0
 10
7.4544259667
 20
1.8903874859
 30
0.0
 10
7.3844398022
 20
1.8903874859
 30
0.0
  0
SPLINE
  5
604
100
AcDbEntity
  8
0
100
AcDbSpline
 62
7
  6
CONTINUOUS
 70
0
 71
3
 72
8
 73
4
 74
0
 42
0.0000001
 43
0.0000001
 44
0.0000000001
 40
0.0
 40
0.0
 40
0.0
 40
0.0
 40
1.0
 40
1.0
 40
1.0
 40
1.0
 10
7.3844398022
 20
1.8903874859
 30
0.0
 10
7.1872060657
 20
1.8903874859
 30
0.0
 10
7.0440525472
 20
1.8458508357
 30
0.0
 10
6.9525941542
 20
1.7622767529
 30
0.0
  0
SPLINE
  5
605
100
AcDbEntity
  8
0
100
AcDbSpline
 62
7
  6
CONTINUOUS
 70
0
 71
3
 72
8
 73
4
 74
0
 42
0.0000001
 43
0.0000001
 44
0.0000000001
 40
0.0
 40
0.0
 40
0.0
 40
0.0
 40
1.0
 40
1.0
 40
1.0
 40
1.0
 10
6.9525941542
 20
1.7622767529
 30
0.0
 10
6.8595435679
 20
1.6772477344
 30
0.0
 10
6.8118257284
 20
1.5404565945
 30
0.0
 10
6.8118257284
 20
1.3495852366
 30
0.0
  0
SPLINE
  5
606
100
AcDbEntity
  8
0
100
AcDbSpline
 62
7
  6
CONTINUOUS
 70
0
 71
3
 72
8
 73
4
 74
0
 42
0.0000001
 43
0.0000001
 44
0.0000000001
 40
0.0
 40
0.0
 40
0.0
 40
0.0
 40
1.0
 40
1.0
 40
1.0
 40
1.0
 10
6.8118257284
 20
1.3495852366
 30
0.0
 10
6.8118257284
 20
1.1587138444
 30
0.0
 10
6.8595435679
 20
1.0187415153
 30
0.0
 10
6.9549792426
 20
0.9296682103
 30
0.0
  0
SPLINE
  5
607
100
AcDbEntity
  8
0
100
AcDbSpline
 62
7
  6
CONTINUOUS
 70
0
 71
3
 72
8
 73
4
 74
0
 42
0.0000001
 43
0.0000001
 44
0.0000000001
 40
0.0
 40
0.0
 40
0.0
 40
0.0
 40
1.0
 40
1.0
 40
1.0
 40
1.0
 10
6.9549792426
 20
0.9296682103
 30
0.0
 10
7.0504149258
 20
0.8405948974
 30
0.0
 10
7.1872060657
 20
0.7960582472
 30
0.0
 10
7.3653526664
 20
0.7960582472
 30
0.0
  0
SPLINE
  5
608
100
AcDbEntity
  8
0
100
AcDbSpline
 62
7
  6
CONTINUOUS
 70
0
 71
3
 72
8
 73
4
 74
0
 42
0.0000001
 43
0.0000001
 44
0.0000000001
 40
0.0
 40
0.0
 40
0.0
 40
0.0
 40
1.0
 40
1.0
 40
1.0
 40
1.0
 10
7.3939833701
 20
1.0505534083
 30
0.0
 10
7.3430843413
 20
1.0505534083
 30
0.0
 10
7.2953665018
 20
1.0537345976
 30
0.0
 10
7.2474466906
 20
1.061996634
 30
0.0
  0
SPLINE
  5
609
100
AcDbEntity
  8
0
100
AcDbSpline
 62
7
  6
CONTINUOUS
 70
0
 71
3
 72
8
 73
4
 74
0
 42
0.0000001
 43
0.0000001
 44
0.0000000001
 40
0.0
 40
0.0
 40
0.0
 40
0.0
 40
1.0
 40
1.0
 40
1.0
 40
1.0
 10
7.2474466906
 20
1.061996634
 30
0.0
 10
7.2031114138
 20
1.0696406472
 30
0.0
 10
7.161755435
 20
1.0855469199
 30
0.0
 10
7.1267620522
 20
1.1078157172
 30
0.0
  0
SPLINE
  5
60A
100
AcDbEntity
  8
0
100
AcDbSpline
 62
7
  6
CONTINUOUS
 70
0
 71
3
 72
8
 73
4
 74
0
 42
0.0000001
 43
0.0000001
 44
0.0000000001
 40
0.0
 40
0.0
 40
0.0
 40
0.0
 40
1.0
 40
1.0
 40
1.0
 40
1.0
 10
7.1267620522
 20
1.1078157172
 30
0.0
 10
7.0917696139
 20
1.1300839135
 30
0.0
 10
7.0631394254
 20
1.1587143596
 30
0.0
 10
7.0440525541
 20
1.1968881194
 30
0.0
  0
SPLINE
  5
60B
100
AcDbEntity
  8
0
100
AcDbSpline
 62
7
  6
CONTINUOUS
 70
0
 71
3
 72
8
 73
4
 74
0
 42
0.0000001
 43
0.0000001
 44
0.0000000001
 40
0.0
 40
0.0
 40
0.0
 40
0.0
 40
1.0
 40
1.0
 40
1.0
 40
1.0
 10
7.0440525541
 20
1.1968881194
 30
0.0
 10
7.0249654114
 20
1.2350624219
 30
0.0
 10
7.0122406542
 20
1.2827802613
 30
0.0
 10
7.0122406542
 20
1.343222858
 30
0.0
  0
SPLINE
  5
60C
100
AcDbEntity
  8
0
100
AcDbSpline
 62
7
  6
CONTINUOUS
 70
0
 71
3
 72
8
 73
4
 74
0
 42
0.0000001
 43
0.0000001
 44
0.0000000001
 40
0.0
 40
0.0
 40
0.0
 40
0.0
 40
1.0
 40
1.0
 40
1.0
 40
1.0
 10
7.0122406542
 20
1.343222858
 30
0.0
 10
7.0122406542
 20
1.4004842654
 30
0.0
 10
7.0249654114
 20
1.4450209156
 30
0.0
 10
7.0452717795
 20
1.4825095951
 30
0.0
  0
SPLINE
  5
60D
100
AcDbEntity
  8
0
100
AcDbSpline
 62
7
  6
CONTINUOUS
 70
0
 71
3
 72
8
 73
4
 74
0
 42
0.0000001
 43
0.0000001
 44
0.0000000001
 40
0.0
 40
0.0
 40
0.0
 40
0.0
 40
1.0
 40
1.0
 40
1.0
 40
1.0
 10
7.0452717795
 20
1.4825095951
 30
0.0
 10
7.0663208723
 20
1.5213694587
 30
0.0
 10
7.094951576
 20
1.5500001624
 30
0.0
 10
7.1299446583
 20
1.5690872982
 30
0.0
  0
SPLINE
  5
60E
100
AcDbEntity
  8
0
100
AcDbSpline
 62
7
  6
CONTINUOUS
 70
0
 71
3
 72
8
 73
4
 74
0
 42
0.0000001
 43
0.0000001
 44
0.0000000001
 40
0.0
 40
0.0
 40
0.0
 40
0.0
 40
1.0
 40
1.0
 40
1.0
 40
1.0
 10
7.1299446583
 20
1.5690872982
 30
0.0
 10
7.1649377406
 20
1.588174434
 30
0.0
 10
7.2062932014
 20
1.6040803805
 30
0.0
 10
7.2542437492
 20
1.6120721385
 30
0.0
  0
SPLINE
  5
60F
100
AcDbEntity
  8
0
100
AcDbSpline
 62
7
  6
CONTINUOUS
 70
0
 71
3
 72
8
 73
4
 74
0
 42
0.0000001
 43
0.0000001
 44
0.0000000001
 40
0.0
 40
0.0
 40
0.0
 40
0.0
 40
1.0
 40
1.0
 40
1.0
 40
1.0
 10
7.2542437492
 20
1.6120721385
 30
0.0
 10
7.3017288804
 20
1.619986327
 30
0.0
 10
7.3526279092
 20
1.6263487056
 30
0.0
 10
7.403526938
 20
1.6263487056
 30
0.0
  0
SPLINE
  5
610
100
AcDbEntity
  8
0
100
AcDbSpline
 62
7
  6
CONTINUOUS
 70
0
 71
3
 72
8
 73
4
 74
0
 42
0.0000001
 43
0.0000001
 44
0.0000000001
 40
0.0
 40
0.0
 40
0.0
 40
0.0
 40
1.0
 40
1.0
 40
1.0
 40
1.0
 10
7.403526938
 20
1.6263487056
 30
0.0
 10
7.4926002383
 20
1.6263487056
 30
0.0
 10
7.5689487815
 20
1.6168051377
 30
0.0
 10
7.6263171362
 20
1.601300177
 30
0.0
  0
SPLINE
  5
611
100
AcDbEntity
  8
0
100
AcDbSpline
 62
7
  6
CONTINUOUS
 70
0
 71
3
 72
8
 73
4
 74
0
 42
0.0000001
 43
0.0000001
 44
0.0000000001
 40
0.0
 40
0.0
 40
0.0
 40
0.0
 40
1.0
 40
1.0
 40
1.0
 40
1.0
 10
7.6263171362
 20
1.601300177
 30
0.0
 10
7.6866527855
 20
1.5849932447
 30
0.0
 10
7.734370625
 20
1.5595437303
 30
0.0
 10
7.7670055495
 20
1.5253547618
 30
0.0
  0
SPLINE
  5
612
100
AcDbEntity
  8
0
100
AcDbSpline
 62
7
  6
CONTINUOUS
 70
0
 71
3
 72
8
 73
4
 74
0
 42
0.0000001
 43
0.0000001
 44
0.0000000001
 40
0.0
 40
0.0
 40
0.0
 40
0.0
 40
1.0
 40
1.0
 40
1.0
 40
1.0
 10
7.7670055495
 20
1.5253547618
 30
0.0
 10
7.8011756003
 20
1.4895575657
 30
0.0
 10
7.8266251147
 20
1.4450209156
 30
0.0
 10
7.8393498719
 20
1.3877595082
 30
0.0
  0
SPLINE
  5
613
100
AcDbEntity
  8
0
100
AcDbSpline
 62
7
  6
CONTINUOUS
 70
0
 71
3
 72
8
 73
4
 74
0
 42
0.0000001
 43
0.0000001
 44
0.0000000001
 40
0.0
 40
0.0
 40
0.0
 40
0.0
 40
1.0
 40
1.0
 40
1.0
 40
1.0
 10
7.8393498719
 20
1.3877595082
 30
0.0
 10
7.8520746291
 20
1.3304981008
 30
0.0
 10
7.8584370077
 20
1.2636931255
 30
0.0
 10
7.8584370077
 20
1.1873445481
 30
0.0
  0
SPLINE
  5
614
100
AcDbEntity
  8
0
100
AcDbSpline
 62
7
  6
CONTINUOUS
 70
0
 71
3
 72
8
 73
4
 74
0
 42
0.0000001
 43
0.0000001
 44
0.0000000001
 40
0.0
 40
0.0
 40
0.0
 40
0.0
 40
1.0
 40
1.0
 40
1.0
 40
1.0
 10
8.058852002
 20
1.1873445481
 30
0.0
 10
8.058852002
 20
1.2700555041
 30
0.0
 10
8.0683955699
 20
1.343222858
 30
0.0
 10
8.0811203271
 20
1.4004842654
 30
0.0
  0
SPLINE
  5
615
100
AcDbEntity
  8
0
100
AcDbSpline
 62
7
  6
CONTINUOUS
 70
0
 71
3
 72
8
 73
4
 74
0
 42
0.0000001
 43
0.0000001
 44
0.0000000001
 40
0.0
 40
0.0
 40
0.0
 40
0.0
 40
1.0
 40
1.0
 40
1.0
 40
1.0
 10
8.0811203271
 20
1.4004842654
 30
0.0
 10
8.0938450843
 20
1.4577456728
 30
0.0
 10
8.1192945987
 20
1.5054635122
 30
0.0
 10
8.1558437138
 20
1.5420126274
 30
0.0
  0
SPLINE
  5
616
100
AcDbEntity
  8
0
100
AcDbSpline
 62
7
  6
CONTINUOUS
 70
0
 71
3
 72
8
 73
4
 74
0
 42
0.0000001
 43
0.0000001
 44
0.0000000001
 40
0.0
 40
0.0
 40
0.0
 40
0.0
 40
1.0
 40
1.0
 40
1.0
 40
1.0
 10
8.1558437138
 20
1.5420126274
 30
0.0
 10
8.1924619526
 20
1.5786308661
 30
0.0
 10
8.240179792
 20
1.6040803805
 30
0.0
 10
8.3010239856
 20
1.6181213482
 30
0.0
  0
SPLINE
  5
617
100
AcDbEntity
  8
0
100
AcDbSpline
 62
7
  6
CONTINUOUS
 70
0
 71
3
 72
8
 73
4
 74
0
 42
0.0000001
 43
0.0000001
 44
0.0000000001
 40
0.0
 40
0.0
 40
0.0
 40
0.0
 40
1.0
 40
1.0
 40
1.0
 40
1.0
 10
8.3010239856
 20
1.6181213482
 30
0.0
 10
8.3642461747
 20
1.6327110842
 30
0.0
 10
8.4405947179
 20
1.6422546521
 30
0.0
 10
8.5360303968
 20
1.6422546521
 30
0.0
  0
SPLINE
  5
618
100
AcDbEntity
  8
0
100
AcDbSpline
 62
7
  6
CONTINUOUS
 70
0
 71
3
 72
8
 73
4
 74
0
 42
0.0000001
 43
0.0000001
 44
0.0000000001
 40
0.0
 40
0.0
 40
0.0
 40
0.0
 40
1.0
 40
1.0
 40
1.0
 40
1.0
 10
8.5360303968
 20
1.6422546521
 30
0.0
 10
8.6028354064
 20
1.6422546521
 30
0.0
 10
8.663278003
 20
1.6358922735
 30
0.0
 10
8.7174030175
 20
1.6266136996
 30
0.0
  0
SPLINE
  5
619
100
AcDbEntity
  8
0
100
AcDbSpline
 62
7
  6
CONTINUOUS
 70
0
 71
3
 72
8
 73
4
 74
0
 42
0.0000001
 43
0.0000001
 44
0.0000000001
 40
0.0
 40
0.0
 40
0.0
 40
0.0
 40
1.0
 40
1.0
 40
1.0
 40
1.0
 10
8.7174030175
 20
1.6266136996
 30
0.0
 10
8.7746196285
 20
1.6168051377
 30
0.0
 10
8.822337468
 20
1.6008991912
 30
0.0
 10
8.8605117422
 20
1.5754496808
 30
0.0
  0
SPLINE
  5
61A
100
AcDbEntity
  8
0
100
AcDbSpline
 62
7
  6
CONTINUOUS
 70
0
 71
3
 72
8
 73
4
 74
0
 42
0.0000001
 43
0.0000001
 44
0.0000000001
 40
0.0
 40
0.0
 40
0.0
 40
0.0
 40
1.0
 40
1.0
 40
1.0
 40
1.0
 10
8.8605117422
 20
1.5754496808
 30
0.0
 10
8.8986860283
 20
1.5500001624
 30
0.0
 10
8.9304979213
 20
1.5181882694
 30
0.0
 10
8.9520850192
 20
1.4796398803
 30
0.0
  0
SPLINE
  5
61B
100
AcDbEntity
  8
0
100
AcDbSpline
 62
7
  6
CONTINUOUS
 70
0
 71
3
 72
8
 73
4
 74
0
 42
0.0000001
 43
0.0000001
 44
0.0000000001
 40
0.0
 40
0.0
 40
0.0
 40
0.0
 40
1.0
 40
1.0
 40
1.0
 40
1.0
 10
8.9520850192
 20
1.4796398803
 30
0.0
 10
8.9750345714
 20
1.438658537
 30
0.0
 10
8.9845781393
 20
1.3877595082
 30
0.0
 10
8.9845781393
 20
1.3241357222
 30
0.0
  0
SPLINE
  5
61C
100
AcDbEntity
  8
0
100
AcDbSpline
 62
7
  6
CONTINUOUS
 70
0
 71
3
 72
8
 73
4
 74
0
 42
0.0000001
 43
0.0000001
 44
0.0000000001
 40
0.0
 40
0.0
 40
0.0
 40
0.0
 40
1.0
 40
1.0
 40
1.0
 40
1.0
 10
8.9845781393
 20
1.3241357222
 30
0.0
 10
8.9845781393
 20
1.2636931255
 30
0.0
 10
8.9750345714
 20
1.2159752861
 30
0.0
 10
8.9559474288
 20
1.1778009836
 30
0.0
  0
SPLINE
  5
61D
100
AcDbEntity
  8
0
100
AcDbSpline
 62
7
  6
CONTINUOUS
 70
0
 71
3
 72
8
 73
4
 74
0
 42
0.0000001
 43
0.0000001
 44
0.0000000001
 40
0.0
 40
0.0
 40
0.0
 40
0.0
 40
1.0
 40
1.0
 40
1.0
 40
1.0
 10
8.9559474288
 20
1.1778009836
 30
0.0
 10
8.9368602999
 20
1.1396267086
 30
0.0
 10
8.9082295962
 20
1.1078148156
 30
0.0
 10
8.8732365114
 20
1.0855464944
 30
0.0
  0
SPLINE
  5
61E
100
AcDbEntity
  8
0
100
AcDbSpline
 62
7
  6
CONTINUOUS
 70
0
 71
3
 72
8
 73
4
 74
0
 42
0.0000001
 43
0.0000001
 44
0.0000000001
 40
0.0
 40
0.0
 40
0.0
 40
0.0
 40
1.0
 40
1.0
 40
1.0
 40
1.0
 10
8.8732365114
 20
1.0855464944
 30
0.0
 10
8.8382434145
 20
1.0632781655
 30
0.0
 10
8.7968879536
 20
1.047372219
 30
0.0
 10
8.7459889248
 20
1.0378286511
 30
0.0
  0
SPLINE
  5
61F
100
AcDbEntity
  8
0
100
AcDbSpline
 62
7
  6
CONTINUOUS
 70
0
 71
3
 72
8
 73
4
 74
0
 42
0.0000001
 43
0.0000001
 44
0.0000000001
 40
0.0
 40
0.0
 40
0.0
 40
0.0
 40
1.0
 40
1.0
 40
1.0
 40
1.0
 10
8.7459889248
 20
1.0378286511
 30
0.0
 10
8.695089896
 20
1.0282850832
 30
0.0
 10
8.6410096779
 20
1.0251038939
 30
0.0
 10
8.5805670813
 20
1.0251038939
 30
0.0
  0
SPLINE
  5
620
100
AcDbEntity
  8
0
100
AcDbSpline
 62
7
  6
CONTINUOUS
 70
0
 71
3
 72
8
 73
4
 74
0
 42
0.0000001
 43
0.0000001
 44
0.0000000001
 40
0.0
 40
0.0
 40
0.0
 40
0.0
 40
1.0
 40
1.0
 40
1.0
 40
1.0
 10
8.5805670813
 20
0.7642463457
 30
0.0
 10
8.7873443857
 20
0.7642463457
 30
0.0
 10
8.9400414892
 20
0.8056018151
 30
0.0
 10
9.0386583615
 20
0.8914939313
 30
0.0
  0
SPLINE
  5
621
100
AcDbEntity
  8
0
100
AcDbSpline
 62
7
  6
CONTINUOUS
 70
0
 71
3
 72
8
 73
4
 74
0
 42
0.0000001
 43
0.0000001
 44
0.0000000001
 40
0.0
 40
0.0
 40
0.0
 40
0.0
 40
1.0
 40
1.0
 40
1.0
 40
1.0
 10
9.0386583615
 20
0.8914939313
 30
0.0
 10
9.1372752417
 20
0.9773860544
 30
0.0
 10
9.1849930844
 20
1.1237207621
 30
0.0
 10
9.1849930844
 20
1.3336792901
 30
0.0
  0
SPLINE
  5
622
100
AcDbEntity
  8
0
100
AcDbSpline
 62
7
  6
CONTINUOUS
 70
0
 71
3
 72
8
 73
4
 74
0
 42
0.0000001
 43
0.0000001
 44
0.0000000001
 40
0.0
 40
0.0
 40
0.0
 40
0.0
 40
1.0
 40
1.0
 40
1.0
 40
1.0
 10
9.1849930844
 20
1.3336792901
 30
0.0
 10
9.1849930844
 20
1.4418397263
 30
0.0
 10
9.1690871379
 20
1.5309130266
 30
0.0
 10
9.1372752417
 20
1.6040803805
 30
0.0
  0
SPLINE
  5
623
100
AcDbEntity
  8
0
100
AcDbSpline
 62
7
  6
CONTINUOUS
 70
0
 71
3
 72
8
 73
4
 74
0
 42
0.0000001
 43
0.0000001
 44
0.0000000001
 40
0.0
 40
0.0
 40
0.0
 40
0.0
 40
1.0
 40
1.0
 40
1.0
 40
1.0
 10
9.1372752417
 20
1.6040803805
 30
0.0
 10
9.1054633455
 20
1.6772477344
 30
0.0
 10
9.0609266911
 20
1.737690331
 30
0.0
 10
9.0036652934
 20
1.7822270047
 30
0.0
  0
SPLINE
  5
624
100
AcDbEntity
  8
0
100
AcDbSpline
 62
7
  6
CONTINUOUS
 70
0
 71
3
 72
8
 73
4
 74
0
 42
0.0000001
 43
0.0000001
 44
0.0000000001
 40
0.0
 40
0.0
 40
0.0
 40
0.0
 40
1.0
 40
1.0
 40
1.0
 40
1.0
 10
9.0036652934
 20
1.7822270047
 30
0.0
 10
8.9464038678
 20
1.8267636999
 30
0.0
 10
8.8732365139
 20
1.8617567822
 30
0.0
 10
8.7905255754
 20
1.8808439199
 30
0.0
  0
SPLINE
  5
625
100
AcDbEntity
  8
0
100
AcDbSpline
 62
7
  6
CONTINUOUS
 70
0
 71
3
 72
8
 73
4
 74
0
 42
0.0000001
 43
0.0000001
 44
0.0000000001
 40
0.0
 40
0.0
 40
0.0
 40
0.0
 40
1.0
 40
1.0
 40
1.0
 40
1.0
 10
8.7905255754
 20
1.8808439199
 30
0.0
 10
8.7078146532
 20
1.8999310538
 30
0.0
 10
8.6123789743
 20
1.9094746217
 30
0.0
 10
8.5073996931
 20
1.9094746217
 30
0.0
  0
SPLINE
  5
626
100
AcDbEntity
  8
0
100
AcDbSpline
 62
7
  6
CONTINUOUS
 70
0
 71
3
 72
8
 73
4
 74
0
 42
0.0000001
 43
0.0000001
 44
0.0000000001
 40
0.0
 40
0.0
 40
0.0
 40
0.0
 40
1.0
 40
1.0
 40
1.0
 40
1.0
 10
8.5073996931
 20
1.9094746217
 30
0.0
 10
8.4374135286
 20
1.9094746217
 30
0.0
 10
8.3706085533
 20
1.9031122431
 30
0.0
 10
8.3069847673
 20
1.8935686752
 30
0.0
  0
SPLINE
  5
627
100
AcDbEntity
  8
0
100
AcDbSpline
 62
7
  6
CONTINUOUS
 70
0
 71
3
 72
9
 73
5
 74
0
 42
0.0000001
 43
0.0000001
 44
0.0000000001
 40
0.0
 40
0.0
 40
0.0
 40
0.0
 40
0.2704041687
 40
1.0
 40
1.0
 40
1.0
 40
1.0
 10
3.2688043561
 20
3.5200048698
 30
0.0
 10
3.3023102168
 20
3.5257221236
 30
0.0
 10
3.4266081924
 20
3.5445251038
 30
0.0
 10
3.5537734031
 20
3.5441175375
 30
0.0
 10
3.6448730265
 20
3.5335442987
 30
0.0
  0
SPLINE
  5
628
100
AcDbEntity
  8
0
100
AcDbSpline
 62
7
  6
CONTINUOUS
 70
0
 71
3
 72
9
 73
5
 74
0
 42
0.0000001
 43
0.0000001
 44
0.0000000001
 40
0.0
 40
0.0
 40
0.0
 40
0.0
 40
0.5013654753
 40
1.0
 40
1.0
 40
1.0
 40
1.0
 10
3.6448730265
 20
3.5335442989
 30
0.0
 10
3.7152347308
 20
3.5253779523
 30
0.0
 10
3.8575480881
 20
3.4634183917
 30
0.0
 10
3.9149576844
 20
3.316494087
 30
0.0
 10
3.9160594002
 20
3.2460540991
 30
0.0
  0
SPLINE
  5
629
100
AcDbEntity
  8
0
100
AcDbSpline
 62
7
  6
CONTINUOUS
 70
0
 71
3
 72
9
 73
5
 74
0
 42
0.0000001
 43
0.0000001
 44
0.0000000001
 40
0.0
 40
0.0
 40
0.0
 40
0.0
 40
0.5206208722
 40
1.0
 40
1.0
 40
1.0
 40
1.0
 10
3.9160594002
 20
3.2460540991
 30
0.0
 10
3.9175935001
 20
3.1466328758
 30
0.0
 10
3.8473572317
 20
2.9294481916
 30
0.0
 10
3.6346852757
 20
2.8907122382
 30
0.0
 10
3.543151782
 20
2.888667771
 30
0.0
  0
SPLINE
  5
62A
100
AcDbEntity
  8
0
100
AcDbSpline
 62
7
  6
CONTINUOUS
 70
0
 71
3
 72
9
 73
5
 74
0
 42
0.0000001
 43
0.0000001
 44
0.0000000001
 40
0.0
 40
0.0
 40
0.0
 40
0.0
 40
0.3559141631
 40
1.0
 40
1.0
 40
1.0
 40
1.0
 10
3.5421170294
 20
2.5120177973
 30
0.0
 10
3.5839504738
 20
2.5120177973
 30
0.0
 10
3.7042940752
 20
2.4866863195
 30
0.0
 10
3.7833459769
 20
2.3802564205
 30
0.0
 10
3.8099455134
 20
2.3093787318
 30
0.0
  0
SPLINE
  5
62B
100
AcDbEntity
  8
0
100
AcDbSpline
 62
7
  6
CONTINUOUS
 70
0
 71
3
 72
9
 73
5
 74
0
 42
0.0000001
 43
0.0000001
 44
0.0000000001
 40
0.0
 40
0.0
 40
0.0
 40
0.0
 40
0.5586214172
 40
1.0
 40
1.0
 40
1.0
 40
1.0
 10
3.8099455134
 20
2.3093787318
 30
0.0
 10
3.8576395638
 20
2.1824268846
 30
0.0
 10
3.9203614803
 20
1.9473478989
 30
0.0
 10
3.990254935
 20
1.7149880043
 30
0.0
 10
4.0198623394
 20
1.6120071664
 30
0.0
  0
SPLINE
  5
62C
100
AcDbEntity
  8
0
100
AcDbSpline
 62
7
  6
CONTINUOUS
 70
0
 71
3
 72
9
 73
5
 74
0
 42
0.0000001
 43
0.0000001
 44
0.0000000001
 40
0.0
 40
0.0
 40
0.0
 40
0.0
 40
0.1980298616
 40
1.0
 40
1.0
 40
1.0
 40
1.0
 10
4.4816207207
 20
1.6120071664
 30
0.0
 10
4.4704842658
 20
1.6530107416
 30
0.0
 10
4.4159806277
 20
1.8605336881
 30
0.0
 10
4.3627526626
 20
2.0683949782
 30
0.0
 10
4.3175223525
 20
2.234413431
 30
0.0
  0
SPLINE
  5
62D
100
AcDbEntity
  8
0
100
AcDbSpline
 62
7
  6
CONTINUOUS
 70
0
 71
3
 72
9
 73
5
 74
0
 42
0.0000001
 43
0.0000001
 44
0.0000000001
 40
0.0
 40
0.0
 40
0.0
 40
0.0
 40
0.2427307434
 40
1.0
 40
1.0
 40
1.0
 40
1.0
 10
4.3175223522
 20
2.2344134309
 30
0.0
 10
4.3061320903
 20
2.2762215383
 30
0.0
 10
4.2626434997
 20
2.4449979726
 30
0.0
 10
4.1663681235
 20
2.6354578213
 30
0.0
 10
4.0407988352
 20
2.685528575
 30
0.0
  0
SPLINE
  5
62E
100
AcDbEntity
  8
0
100
AcDbSpline
 62
7
  6
CONTINUOUS
 70
0
 71
3
 72
8
 73
4
 74
0
 42
0.0000001
 43
0.0000001
 44
0.0000000001
 40
0.0
 40
0.0
 40
0.0
 40
0.0
 40
1.0
 40
1.0
 40
1.0
 40
1.0
 10
4.0407988352
 20
2.6991183268
 30
0.0
 10
4.0623237658
 20
2.7018957372
 30
0.0
 10
4.0811044394
 20
2.714032265
 30
0.0
 10
4.0988664218
 20
2.7279206637
 30
0.0
  0
SPLINE
  5
62F
100
AcDbEntity
  8
0
100
AcDbSpline
 62
7
  6
CONTINUOUS
 70
0
 71
3
 72
19
 73
15
 74
0
 42
0.0000001
 43
0.0000001
 44
0.0000000001
 40
0.0
 40
0.0
 40
0.0
 40
0.0
 40
0.0110289224
 40
0.1290880133
 40
0.2042831962
 40
0.2890686317
 40
0.3846130988
 40
0.4373322959
 40
0.4939682906
 40
0.5827198062
 40
0.6624990683
 40
0.8014574867
 40
0.9162946673
 40
1.0
 40
1.0
 40
1.0
 40
1.0
 10
4.0988664218
 20
2.7279206637
 30
0.0
 10
4.1029843357
 20
2.7311405312
 30
0.0
 10
4.1505415893
 20
2.7699295816
 30
0.0
 10
4.2185926984
 20
2.8311763781
 30
0.0
 10
4.289020157
 20
2.9384015907
 30
0.0
 10
4.3362382954
 20
3.0454060545
 30
0.0
 10
4.3598110715
 20
3.1499256373
 30
0.0
 10
4.3670987495
 20
3.2432304556
 30
0.0
 10
4.3654950077
 20
3.3337193225
 30
0.0
 10
4.3507284549
 20
3.4359248601
 30
0.0
 10
4.3067497413
 20
3.5697455784
 30
0.0
 10
4.224111339
 20
3.7009324542
 30
0.0
 10
4.1074434922
 20
3.8035119384
 30
0.0
 10
4.0272256607
 20
3.8477552669
 30
0.0
 10
3.9913031656
 20
3.8607144339
 30
0.0
  0
SPLINE
  5
630
100
AcDbEntity
  8
0
100
AcDbSpline
 62
7
  6
CONTINUOUS
 70
0
 71
3
 72
9
 73
5
 74
0
 42
0.0000001
 43
0.0000001
 44
0.0000000001
 40
0.0
 40
0.0
 40
0.0
 40
0.0
 40
0.2957417834
 40
1.0
 40
1.0
 40
1.0
 40
1.0
 10
3.9913031656
 20
3.8607144339
 30
0.0
 10
3.8807137649
 20
3.9006678553
 30
0.0
 10
3.4832118165
 20
3.9657943135
 30
0.0
 10
3.0836247851
 20
3.9256830653
 30
0.0
 10
2.8065975821
 20
3.8849276465
 30
0.0
  0
LINE
  5
631
100
AcDbEntity
  8
SMUSSO
100
AcDbLine
 62
7
  6
CONTINUOUS
 10
2.0214678263
 20
-12.3648645845
 11
1.94306862
 21
-11.6114485204
  0
LINE
  5
632
100
AcDbEntity
  8
SMUSSO
100
AcDbLine
 62
7
  6
CONTINUOUS
 10
-1.9429099522
 20
-11.6099246064
 11
-2.0214678263
 21
-12.3648645845
  0
SPLINE
  5
633
100
AcDbEntity
  8
RACCORDO
100
AcDbSpline
 62
7
  6
CONTINUOUS
 70
0
 71
3
 72
11
 73
7
 74
0
 42
0.0000001
 43
0.0000001
 44
0.0000000001
 40
0.0
 40
0.0
 40
0.0
 40
0.0
 40
0.0786115456
 40
0.275179671
 40
0.5843936749
 40
1.0
 40
1.0
 40
1.0
 40
1.0
 10
1.8941865903
 20
-11.4208696427
 30
0.0
 10
1.8938890964
 20
-11.4206486006
 30
0.0
 10
1.8924605333
 20
-11.4207754466
 30
0.0
 10
1.8898263809
 20
-11.4204107071
 30
0.0
 10
1.885421956
 20
-11.4203704117
 30
0.0
 10
1.8820258481
 20
-11.4202424377
 30
0.0
 10
1.8800669929
 20
-11.4201950217
 30
0.0
  0
LINE
  5
634
100
AcDbEntity
  8
RACCORDO
100
AcDbLine
 62
7
  6
CONTINUOUS
 10
1.8800669929
 20
-11.4201950217
 11
1.8515245809
 21
-11.4197073899
  0
LINE
  5
635
100
AcDbEntity
  8
RACCORDO
100
AcDbLine
 62
7
  6
CONTINUOUS
 10
1.8515245809
 20
-11.4197073899
 11
1.8436458232
 21
-11.4196115892
  0
SPLINE
  5
636
100
AcDbEntity
  8
RACCORDO
100
AcDbSpline
 62
7
  6
CONTINUOUS
 70
0
 71
3
 72
13
 73
9
 74
0
 42
0.0000001
 43
0.0000001
 44
0.0000000001
 40
0.0
 40
0.0
 40
0.0
 40
0.0
 40
0.4045770599
 40
0.7186226797
 40
0.8355639292
 40
0.9225745107
 40
0.9778862932
 40
1.0
 40
1.0
 40
1.0
 40
1.0
 10
-1.8437189293
 20
-11.4196124314
 30
0.0
 10
-1.8505284202
 20
-11.4196909153
 30
0.0
 10
-1.8626151793
 20
-11.4198641979
 30
0.0
 10
-1.8767020115
 20
-11.420070762
 30
0.0
 10
-1.8853834294
 20
-11.4203662531
 30
0.0
 10
-1.8898062701
 20
-11.4204097455
 30
0.0
 10
-1.8924526981
 20
-11.4207756788
 30
0.0
 10
-1.8938878126
 20
-11.4206476467
 30
0.0
 10
-1.8941865903
 20
-11.4208696427
 30
0.0
  0
LINE
  5
637
100
AcDbEntity
  8
RACCORDO
100
AcDbLine
 62
7
  6
CONTINUOUS
 10
-6.4046763983
 20
-0.6634143993
 11
-6.4050346929
 21
-1.0050651539
  0
LINE
  5
638
100
AcDbEntity
  8
RACCORDO
100
AcDbLine
 62
7
  6
CONTINUOUS
 10
-6.0052515396
 20
-1.2052515396
 11
-6.006780321
 21
-2.5068107819
  0
LINE
  5
639
100
AcDbEntity
  8
RACCORDO
100
AcDbLine
 62
7
  6
CONTINUOUS
 10
-5.239860666
 20
-1.2052515396
 11
-5.2383318847
 21
-2.5068107819
  0
LINE
  5
63A
100
AcDbEntity
  8
RACCORDO
100
AcDbLine
 62
7
  6
CONTINUOUS
 10
-3.2953236017
 20
-0.6634144029
 11
-3.2949653071
 21
-1.0050651539
  0
LINE
  5
63B
100
AcDbEntity
  8
RACCORDO
100
AcDbLine
 62
7
  6
CONTINUOUS
 10
6.4046763983
 20
-0.6634143993
 11
6.4050346929
 21
-1.0050651539
  0
LINE
  5
63C
100
AcDbEntity
  8
RACCORDO
100
AcDbLine
 62
7
  6
CONTINUOUS
 10
3.2949653071
 20
-1.0050651539
 11
3.2953236017
 21
-0.6634144029
  0
LINE
  5
63D
100
AcDbEntity
  8
RACCORDO
100
AcDbLine
 62
7
  6
CONTINUOUS
 10
5.239860666
 20
-1.2052515396
 11
5.2383318847
 21
-2.5068107819
  0
LINE
  5
63E
100
AcDbEntity
  8
RACCORDO
100
AcDbLine
 62
7
  6
CONTINUOUS
 10
6.0052515396
 20
-1.2052515396
 11
6.006780321
 21
-2.5068107819
  0
SPLINE
  5
63F
100
AcDbEntity
  8
RACCORDO
100
AcDbSpline
 62
250
  6
CONTINUOUS
 70
0
 71
3
 72
10
 73
6
 74
0
 42
0.0000001
 43
0.0000001
 44
0.0000000001
 40
0.0
 40
0.0
 40
0.0
 40
0.0
 40
0.1150132728
 40
0.318219764
 40
1.0
 40
1.0
 40
1.0
 40
1.0
 10
9.9237075657
 20
-24.9237418214
 30
0.0
 10
9.9232281176
 20
-24.9232623806
 30
0.0
 10
9.9225236695
 20
-24.9214375087
 30
0.0
 10
9.9210655986
 20
-24.9157934718
 30
0.0
 10
9.9203973144
 20
-24.910562483
 30
0.0
 10
9.9199053059
 20
-24.9065734171
 30
0.0
  0
SPLINE
  5
640
100
AcDbEntity
  8
RACCORDO
100
AcDbSpline
 62
7
  6
CONTINUOUS
 70
0
 71
3
 72
9
 73
5
 74
0
 42
0.0000001
 43
0.0000001
 44
0.0000000001
 40
0.0
 40
0.0
 40
0.0
 40
0.0
 40
0.2125841396
 40
1.0
 40
1.0
 40
1.0
 40
1.0
 10
10.0020285339
 20
11.0612606887
 30
0.0
 10
10.0016098561
 20
11.0766630424
 30
0.0
 10
10.0018414362
 20
11.1491589179
 30
0.0
 10
10.0113642109
 20
11.2216265011
 30
0.0
 10
10.0238434114
 20
11.2773171475
 30
0.0
  0
SPLINE
  5
641
100
AcDbEntity
  8
RACCORDO
100
AcDbSpline
 62
7
  6
CONTINUOUS
 70
0
 71
3
 72
9
 73
5
 74
0
 42
0.0000001
 43
0.0000001
 44
0.0000000001
 40
0.0
 40
0.0
 40
0.0
 40
0.0
 40
0.2772316537
 40
1.0
 40
1.0
 40
1.0
 40
1.0
 10
-10.0238434114
 20
11.2773171475
 30
0.0
 10
-10.0194490518
 20
11.257706538
 30
0.0
 10
-10.0058840471
 20
11.1864826029
 30
0.0
 10
-10.0006048342
 20
11.1136358691
 30
0.0
 10
-10.0020285339
 20
11.0612606887
 30
0.0
  0
SPLINE
  5
642
100
AcDbEntity
  8
RACCORDO
100
AcDbSpline
 62
250
  6
CONTINUOUS
 70
0
 71
3
 72
11
 73
7
 74
0
 42
0.0000001
 43
0.0000001
 44
0.0000000001
 40
0.0
 40
0.0
 40
0.0
 40
0.0
 40
0.3121997412
 40
0.5473080652
 40
0.7486082847
 40
1.0
 40
1.0
 40
1.0
 40
1.0
 10
5.6421176683
 20
-20.7534300864
 30
0.0
 10
5.6746660736
 20
-20.7534213777
 30
0.0
 10
5.7329175381
 20
-20.7687505803
 30
0.0
 10
5.7932753499
 20
-20.8210349448
 30
0.0
 10
5.8287593654
 20
-20.8845965705
 30
0.0
 10
5.8369573335
 20
-20.9323403448
 30
0.0
 10
5.836937634
 20
-20.9585491988
 30
0.0
  0
SPLINE
  5
643
100
AcDbEntity
  8
RACCORDO
100
AcDbSpline
 62
250
  6
CONTINUOUS
 70
0
 71
3
 72
14
 73
10
 74
0
 42
0.0000001
 43
0.0000001
 44
0.0000000001
 40
0.0
 40
0.0
 40
0.0
 40
0.0
 40
0.1253237765
 40
0.250587399
 40
0.5002620158
 40
0.6254548262
 40
0.7505647217
 40
0.8754466987
 40
1.0
 40
1.0
 40
1.0
 40
1.0
 10
5.6421176683
 20
-20.5534605474
 30
0.0
 10
5.6792535432
 20
-20.5534614473
 30
0.0
 10
5.7535221973
 20
-20.5512081599
 30
0.0
 10
5.9016618458
 20
-20.560572448
 30
0.0
 10
6.047019021
 20
-20.6021012558
 30
0.0
 10
6.1749150313
 20
-20.6782582916
 30
0.0
 10
6.2582507148
 20
-20.7531642811
 30
0.0
 10
6.3204741227
 20
-20.8470508219
 30
0.0
 10
6.3368642623
 20
-20.921637187
 30
0.0
 10
6.3368659253
 20
-20.9585447551
 30
0.0
  0
SPLINE
  5
644
100
AcDbEntity
  8
RACCORDO
100
AcDbSpline
 62
250
  6
CONTINUOUS
 70
0
 71
3
 72
11
 73
7
 74
0
 42
0.0000001
 43
0.0000001
 44
0.0000000001
 40
0.0
 40
0.0
 40
0.0
 40
0.0
 40
0.2513917153
 40
0.4526919348
 40
0.6878002588
 40
1.0
 40
1.0
 40
1.0
 40
1.0
 10
-5.836937634
 20
-20.9585491988
 30
0.0
 10
-5.8369573335
 20
-20.9323403449
 30
0.0
 10
-5.8287593654
 20
-20.8845965705
 30
0.0
 10
-5.7932753499
 20
-20.8210349448
 30
0.0
 10
-5.7329175381
 20
-20.7687505803
 30
0.0
 10
-5.6746660736
 20
-20.7534213777
 30
0.0
 10
-5.6421176683
 20
-20.7534300864
 30
0.0
  0
SPLINE
  5
645
100
AcDbEntity
  8
RACCORDO
100
AcDbSpline
 62
250
  6
CONTINUOUS
 70
0
 71
3
 72
14
 73
10
 74
0
 42
0.0000001
 43
0.0000001
 44
0.0000000001
 40
0.0
 40
0.0
 40
0.0
 40
0.0
 40
0.1245533013
 40
0.2494352783
 40
0.3745451738
 40
0.4997379842
 40
0.749412601
 40
0.8746762235
 40
1.0
 40
1.0
 40
1.0
 40
1.0
 10
-6.3368659253
 20
-20.9585447551
 30
0.0
 10
-6.3368642623
 20
-20.921637187
 30
0.0
 10
-6.3204741227
 20
-20.8470508219
 30
0.0
 10
-6.2582507148
 20
-20.7531642811
 30
0.0
 10
-6.1749150313
 20
-20.6782582916
 30
0.0
 10
-6.047019021
 20
-20.6021012558
 30
0.0
 10
-5.9016618458
 20
-20.560572448
 30
0.0
 10
-5.7535221973
 20
-20.5512081599
 30
0.0
 10
-5.6792535432
 20
-20.5534614473
 30
0.0
 10
-5.6421176683
 20
-20.5534605474
 30
0.0
  0
SPLINE
  5
646
100
AcDbEntity
  8
RACCORDO
100
AcDbSpline
 62
250
  6
CONTINUOUS
 70
0
 71
3
 72
12
 73
8
 74
0
 42
0.0000001
 43
0.0000001
 44
0.0000000001
 40
0.0
 40
0.0
 40
0.0
 40
0.0
 40
0.140571645
 40
0.2405731499
 40
0.361965613
 40
0.659252897
 40
1.0
 40
1.0
 40
1.0
 40
1.0
 10
-6.5543373184
 20
-21.6004175552
 30
0.0
 10
-6.553856924
 20
-21.6108570692
 30
0.0
 10
-6.5411425643
 20
-21.6269622824
 30
0.0
 10
-6.5184482469
 20
-21.6406738136
 30
0.0
 10
-6.4826136968
 20
-21.6557261227
 30
0.0
 10
-6.4271676146
 20
-21.6677318644
 30
0.0
 10
-6.3796996225
 20
-21.6711842091
 30
0.0
 10
-6.3543677793
 20
-21.6713308015
 30
0.0
  0
SPLINE
  5
647
100
AcDbEntity
  8
RACCORDO
100
AcDbSpline
 62
250
  6
CONTINUOUS
 70
0
 71
3
 72
11
 73
7
 74
0
 42
0.0000001
 43
0.0000001
 44
0.0000000001
 40
0.0
 40
0.0
 40
0.0
 40
0.0
 40
0.2506410908
 40
0.5007827866
 40
0.7504419946
 40
1.0
 40
1.0
 40
1.0
 40
1.0
 10
3.6933808724
 20
-14.0302784575
 30
0.0
 10
3.7613424014
 20
-14.0267024356
 30
0.0
 10
3.8972779556
 20
-13.9909359866
 30
0.0
 10
4.0611733201
 20
-13.8605734276
 30
0.0
 10
4.1595969407
 20
-13.6761255114
 30
0.0
 10
4.1706266955
 20
-13.5365370217
 30
0.0
 10
4.1622769385
 20
-13.4692919692
 30
0.0
  0
SPLINE
  5
648
100
AcDbEntity
  8
RACCORDO
100
AcDbSpline
 62
250
  6
CONTINUOUS
 70
0
 71
3
 72
11
 73
7
 74
0
 42
0.0000001
 43
0.0000001
 44
0.0000000001
 40
0.0
 40
0.0
 40
0.0
 40
0.0
 40
0.2494306174
 40
0.4990561039
 40
0.7492279995
 40
1.0
 40
1.0
 40
1.0
 40
1.0
 10
-4.1622770181
 20
-13.4692924717
 30
0.0
 10
-4.1706250985
 20
-13.5365028685
 30
0.0
 10
-4.1596104512
 20
-13.676043034
 30
0.0
 10
-4.0612506245
 20
-13.8604810205
 30
0.0
 10
-3.8973573809
 20
-13.9909067335
 30
0.0
 10
-3.761377251
 20
-14.0266978786
 30
0.0
 10
-3.6933803775
 20
-14.0302784835
 30
0.0
  0
SPLINE
  5
649
100
AcDbEntity
  8
RACCORDO
100
AcDbSpline
 62
7
  6
CONTINUOUS
 70
0
 71
3
 72
12
 73
8
 74
0
 42
0.0000001
 43
0.0000001
 44
0.0000000001
 40
0.0
 40
0.0
 40
0.0
 40
0.0
 40
0.4006068808
 40
0.7035211675
 40
0.8155142934
 40
0.9009840919
 40
1.0
 40
1.0
 40
1.0
 40
1.0
 10
9.8106071709
 20
-16.2006617941
 30
0.0
 10
9.793209052
 20
-16.2026889915
 30
0.0
 10
9.7626694009
 20
-16.2069191553
 30
0.0
 10
9.7278392025
 20
-16.2139321107
 30
0.0
 10
9.706700177
 20
-16.220677904
 30
0.0
 10
9.6953536981
 20
-16.2256357273
 30
0.0
 10
9.6873577668
 20
-16.2313750483
 30
0.0
 10
9.687050838
 20
-16.2356934491
 30
0.0
  0
SPLINE
  5
64A
100
AcDbEntity
  8
RACCORDO
100
AcDbSpline
 62
7
  6
CONTINUOUS
 70
0
 71
3
 72
12
 73
8
 74
0
 42
0.0000001
 43
0.0000001
 44
0.0000000001
 40
0.0
 40
0.0
 40
0.0
 40
0.0
 40
0.0990159048
 40
0.1844857022
 40
0.2964788283
 40
0.5993931184
 40
1.0
 40
1.0
 40
1.0
 40
1.0
 10
-9.687050838
 20
-16.2356934491
 30
0.0
 10
-9.6873577668
 20
-16.2313750484
 30
0.0
 10
-9.6953536976
 20
-16.2256357273
 30
0.0
 10
-9.7067001765
 20
-16.2206779042
 30
0.0
 10
-9.7278392021
 20
-16.2139321108
 30
0.0
 10
-9.7626694008
 20
-16.2069191553
 30
0.0
 10
-9.7932090522
 20
-16.2026889915
 30
0.0
 10
-9.8106071712
 20
-16.2006617941
 30
0.0
  0
SPLINE
  5
64B
100
AcDbEntity
  8
RACCORDO
100
AcDbSpline
 62
250
  6
CONTINUOUS
 70
0
 71
3
 72
12
 73
8
 74
0
 42
0.0000001
 43
0.0000001
 44
0.0000000001
 40
0.0
 40
0.0
 40
0.0
 40
0.0
 40
0.1405716725
 40
0.2405731949
 40
0.3619656714
 40
0.6592529361
 40
1.0
 40
1.0
 40
1.0
 40
1.0
 10
6.5543373184
 20
-21.6004175552
 30
0.0
 10
6.5538569239
 20
-21.6108570713
 30
0.0
 10
6.5411425592
 20
-21.626962286
 30
0.0
 10
6.5184482383
 20
-21.640673819
 30
0.0
 10
6.4826136856
 20
-21.655726125
 30
0.0
 10
6.427167607
 20
-21.6677318646
 30
0.0
 10
6.3796996196
 20
-21.6711842117
 30
0.0
 10
6.3543677794
 20
-21.6713308066
 30
0.0
  0
SPLINE
  5
64C
100
AcDbEntity
  8
RACCORDO
100
AcDbSpline
 62
250
  6
CONTINUOUS
 70
0
 71
3
 72
10
 73
6
 74
0
 42
0.0000001
 43
0.0000001
 44
0.0000000001
 40
0.0
 40
0.0
 40
0.0
 40
0.0
 40
0.6817619804
 40
0.8849783021
 40
1.0
 40
1.0
 40
1.0
 40
1.0
 10
-9.9199053059
 20
-24.9065734171
 30
0.0
 10
-9.9203972983
 20
-24.9105623753
 30
0.0
 10
-9.9210655425
 20
-24.915793322
 30
0.0
 10
-9.9225236519
 20
-24.9214373415
 30
0.0
 10
-9.9232280917
 20
-24.9232623366
 30
0.0
 10
-9.9237075657
 20
-24.9237418214
 30
0.0
  0
SPLINE
  5
64D
100
AcDbEntity
  8
RACCORDO
100
AcDbSpline
 62
250
  6
CONTINUOUS
 70
0
 71
3
 72
18
 73
14
 74
0
 42
0.0000001
 43
0.0000001
 44
0.0000000001
 40
0.0
 40
0.0
 40
0.0
 40
0.0
 40
0.0066045098
 40
0.0216679347
 40
0.0452127886
 40
0.0771592517
 40
0.1173216597
 40
0.1654347093
 40
0.2843908341
 40
0.431125156
 40
0.6020875357
 40
0.7933269823
 40
1.0
 40
1.0
 40
1.0
 40
1.0
 10
6.3770951726
 20
-0.9771256335
 30
0.0
 10
6.3765581758
 20
-0.9765843019
 30
0.0
 10
6.3763643509
 20
-0.973827895
 30
0.0
 10
6.375524128
 20
-0.9688824192
 30
0.0
 10
6.3750294678
 20
-0.9606337901
 30
0.0
 10
6.3743493401
 20
-0.949660966
 30
0.0
 10
6.3737531901
 20
-0.935774715
 30
0.0
 10
6.3728812545
 20
-0.9118740674
 30
0.0
 10
6.3719234299
 20
-0.8756514154
 30
0.0
 10
6.3709333401
 20
-0.8252511432
 30
0.0
 10
6.3700876759
 20
-0.7664988347
 30
0.0
 10
6.3694032779
 20
-0.7008251723
 30
0.0
 10
6.3690778485
 20
-0.6548866426
 30
0.0
 10
6.3689431936
 20
-0.6310263455
 30
0.0
  0
SPLINE
  5
64E
100
AcDbEntity
  8
RACCORDO
100
AcDbSpline
 62
250
  6
CONTINUOUS
 70
0
 71
3
 72
18
 73
14
 74
0
 42
0.0000001
 43
0.0000001
 44
0.0000000001
 40
0.0
 40
0.0
 40
0.0
 40
0.0
 40
0.2067665161
 40
0.3982255332
 40
0.5692346684
 40
0.7158660754
 40
0.8347041197
 40
0.882766296
 40
0.9228825125
 40
0.9548040032
 40
0.9783389128
 40
0.9933986238
 40
1.0
 40
1.0
 40
1.0
 40
1.0
 10
-6.3689432156
 20
-0.6310263234
 30
0.0
 10
-6.3690779464
 20
-0.6548974204
 30
0.0
 10
-6.3694039461
 20
-0.7008721021
 30
0.0
 10
-6.3700885705
 20
-0.7665873211
 30
0.0
 10
-6.370935105
 20
-0.825358503
 30
0.0
 10
-6.3719253173
 20
-0.8757386577
 30
0.0
 10
-6.3728830891
 20
-0.9119299359
 30
0.0
 10
-6.3737543282
 20
-0.9358057342
 30
0.0
 10
-6.3743501504
 20
-0.9496779539
 30
0.0
 10
-6.3750299241
 20
-0.9606412566
 30
0.0
 10
-6.3755240093
 20
-0.9688858951
 30
0.0
 10
-6.3763647399
 20
-0.9738284977
 30
0.0
 10
-6.3765577381
 20
-0.9765852463
 30
0.0
 10
-6.3770951726
 20
-0.9771256335
 30
0.0
  0
SPLINE
  5
64F
100
AcDbEntity
  8
RACCORDO
100
AcDbSpline
 62
250
  6
CONTINUOUS
 70
0
 71
3
 72
18
 73
14
 74
0
 42
0.0000001
 43
0.0000001
 44
0.0000000001
 40
0.0
 40
0.0
 40
0.0
 40
0.0
 40
0.2067665161
 40
0.3982255332
 40
0.5692346684
 40
0.7158660754
 40
0.8347041197
 40
0.882766296
 40
0.9228825125
 40
0.9548040032
 40
0.9783389128
 40
0.9933986238
 40
1.0
 40
1.0
 40
1.0
 40
1.0
 10
3.3310567844
 20
-0.6310263234
 30
0.0
 10
3.3309220536
 20
-0.6548974204
 30
0.0
 10
3.3305960539
 20
-0.7008721021
 30
0.0
 10
3.3299114295
 20
-0.7665873211
 30
0.0
 10
3.329064895
 20
-0.825358503
 30
0.0
 10
3.3280746827
 20
-0.8757386577
 30
0.0
 10
3.3271169109
 20
-0.9119299359
 30
0.0
 10
3.3262456718
 20
-0.9358057342
 30
0.0
 10
3.3256498496
 20
-0.9496779539
 30
0.0
 10
3.3249700759
 20
-0.9606412566
 30
0.0
 10
3.3244759907
 20
-0.9688858951
 30
0.0
 10
3.3236352601
 20
-0.9738284977
 30
0.0
 10
3.3234422619
 20
-0.9765852463
 30
0.0
 10
3.3229048274
 20
-0.9771256335
 30
0.0
  0
SPLINE
  5
650
100
AcDbEntity
  8
RACCORDO
100
AcDbSpline
 62
250
  6
CONTINUOUS
 70
0
 71
3
 72
18
 73
14
 74
0
 42
0.0000001
 43
0.0000001
 44
0.0000000001
 40
0.0
 40
0.0
 40
0.0
 40
0.0
 40
0.0066045098
 40
0.0216679347
 40
0.0452127886
 40
0.0771592517
 40
0.1173216597
 40
0.1654347093
 40
0.2843908341
 40
0.431125156
 40
0.6020875357
 40
0.7933269823
 40
1.0
 40
1.0
 40
1.0
 40
1.0
 10
-3.3229048274
 20
-0.9771256335
 30
0.0
 10
-3.3234418242
 20
-0.9765843019
 30
0.0
 10
-3.3236356491
 20
-0.973827895
 30
0.0
 10
-3.324475872
 20
-0.9688824192
 30
0.0
 10
-3.3249705322
 20
-0.9606337901
 30
0.0
 10
-3.3256506599
 20
-0.949660966
 30
0.0
 10
-3.3262468099
 20
-0.935774715
 30
0.0
 10
-3.3271187455
 20
-0.9118740674
 30
0.0
 10
-3.3280765701
 20
-0.8756514154
 30
0.0
 10
-3.3290666599
 20
-0.8252511432
 30
0.0
 10
-3.3299123241
 20
-0.7664988347
 30
0.0
 10
-3.3305967221
 20
-0.7008251723
 30
0.0
 10
-3.3309221515
 20
-0.6548866426
 30
0.0
 10
-3.3310568064
 20
-0.6310263455
 30
0.0
  0
SPLINE
  5
651
100
AcDbEntity
  8
RACCORDO
100
AcDbSpline
 62
250
  6
CONTINUOUS
 70
0
 71
3
 72
14
 73
10
 74
0
 42
0.0000001
 43
0.0000001
 44
0.0000000001
 40
0.0
 40
0.0
 40
0.0
 40
0.0
 40
0.0642226422
 40
0.1431755294
 40
0.2427552902
 40
0.3638274969
 40
0.5042486364
 40
0.6603702733
 40
1.0
 40
1.0
 40
1.0
 40
1.0
 10
-5.8363750578
 20
-21.4940476781
 30
0.0
 10
-5.8369256174
 20
-21.5060119594
 30
0.0
 10
-5.8464649714
 20
-21.5323528448
 30
0.0
 10
-5.8785230312
 20
-21.5653225462
 30
0.0
 10
-5.9262467351
 20
-21.5950098351
 30
0.0
 10
-5.9886227867
 20
-21.6209206291
 30
0.0
 10
-6.0636291428
 20
-21.6423783001
 30
0.0
 10
-6.1803130978
 20
-21.6644304924
 30
0.0
 10
-6.2729620924
 20
-21.6709642838
 30
0.0
 10
-6.3362989053
 20
-21.6713308066
 30
0.0
  0
SPLINE
  5
652
100
AcDbEntity
  8
RACCORDO
100
AcDbSpline
 62
250
  6
CONTINUOUS
 70
0
 71
3
 72
14
 73
10
 74
0
 42
0.0000001
 43
0.0000001
 44
0.0000000001
 40
0.0
 40
0.0
 40
0.0
 40
0.0
 40
0.0642226422
 40
0.1431755294
 40
0.2427552901
 40
0.3638274969
 40
0.5042486364
 40
0.6603702733
 40
1.0
 40
1.0
 40
1.0
 40
1.0
 10
5.8363750578
 20
-21.4940476781
 30
0.0
 10
5.8369256174
 20
-21.5060119594
 30
0.0
 10
5.8464649714
 20
-21.5323528448
 30
0.0
 10
5.8785230312
 20
-21.5653225462
 30
0.0
 10
5.926246735
 20
-21.5950098351
 30
0.0
 10
5.9886227867
 20
-21.6209206291
 30
0.0
 10
6.0636291428
 20
-21.6423783001
 30
0.0
 10
6.1803130978
 20
-21.6644304924
 30
0.0
 10
6.2729620924
 20
-21.6709642838
 30
0.0
 10
6.3362989053
 20
-21.6713308066
 30
0.0
  0
SPLINE
  5
653
100
AcDbEntity
  8
RACCORDO
100
AcDbSpline
 62
250
  6
CONTINUOUS
 70
0
 71
3
 72
15
 73
11
 74
0
 42
0.0000001
 43
0.0000001
 44
0.0000000001
 40
0.0
 40
0.0
 40
0.0
 40
0.0
 40
0.1251077206
 40
0.2501599269
 40
0.37521963
 40
0.5002672298
 40
0.6253049144
 40
0.7502662786
 40
0.8751105937
 40
1.0
 40
1.0
 40
1.0
 40
1.0
 10
-4.7485118534
 20
-20.1965394526
 30
0.0
 10
-4.7251359782
 20
-20.1965439923
 30
0.0
 10
-4.6778945135
 20
-20.2057055552
 30
0.0
 10
-4.6178445608
 20
-20.2451319924
 30
0.0
 10
-4.5773089125
 20
-20.3045913238
 30
0.0
 10
-4.5630447534
 20
-20.3751563194
 30
0.0
 10
-4.5774296613
 20
-20.4456745641
 30
0.0
 10
-4.6180103907
 20
-20.5050279239
 30
0.0
 10
-4.6780196516
 20
-20.5443216063
 30
0.0
 10
-4.725176769
 20
-20.5534588166
 30
0.0
 10
-4.7485118534
 20
-20.5534605474
 30
0.0
  0
SPLINE
  5
654
100
AcDbEntity
  8
RACCORDO
100
AcDbSpline
 62
250
  6
CONTINUOUS
 70
0
 71
3
 72
15
 73
11
 74
0
 42
0.0000001
 43
0.0000001
 44
0.0000000001
 40
0.0
 40
0.0
 40
0.0
 40
0.0
 40
0.1251077206
 40
0.2501599269
 40
0.37521963
 40
0.5002672298
 40
0.6253049145
 40
0.7502662786
 40
0.8751105938
 40
1.0
 40
1.0
 40
1.0
 40
1.0
 10
4.7485118534
 20
-20.5534605474
 30
0.0
 10
4.7251359782
 20
-20.5534560077
 30
0.0
 10
4.6778945135
 20
-20.5442944448
 30
0.0
 10
4.6178445608
 20
-20.5048680076
 30
0.0
 10
4.5773089125
 20
-20.4454086762
 30
0.0
 10
4.5630447534
 20
-20.3748436805
 30
0.0
 10
4.5774296613
 20
-20.3043254359
 30
0.0
 10
4.6180103907
 20
-20.2449720761
 30
0.0
 10
4.6780196517
 20
-20.2056783937
 30
0.0
 10
4.725176769
 20
-20.1965411834
 30
0.0
 10
4.7485118534
 20
-20.1965394526
 30
0.0
  0
LINE
  5
655
100
AcDbEntity
  8
RACCORDO
100
AcDbLine
 62
250
  6
CONTINUOUS
 10
2.8813549699
 20
-13.8485285116
 11
3.5342663902
 21
-13.8029055764
  0
SPLINE
  5
656
100
AcDbEntity
  8
RACCORDO
100
AcDbSpline
 62
250
  6
CONTINUOUS
 70
0
 71
3
 72
16
 73
12
 74
0
 42
0.0000001
 43
0.0000001
 44
0.0000000001
 40
0.0
 40
0.0
 40
0.0
 40
0.0
 40
0.2975159265
 40
0.4676423927
 40
0.6331487169
 40
0.7801648056
 40
0.8963104984
 40
0.9396021041
 40
0.9717244917
 40
0.9919862168
 40
1.0
 40
1.0
 40
1.0
 40
1.0
 10
3.5342663902
 20
-13.8029055764
 30
0.0
 10
3.5427493262
 20
-13.8023127771
 30
0.0
 10
3.5560926105
 20
-13.8015153486
 30
0.0
 10
3.5741626261
 20
-13.8005509139
 30
0.0
 10
3.5879442472
 20
-13.7998806739
 30
0.0
 10
3.6001776243
 20
-13.7993715004
 30
0.0
 10
3.6089496219
 20
-13.7990308795
 30
0.0
 10
3.6143968238
 20
-13.7989445862
 30
0.0
 10
3.6171782687
 20
-13.7988318964
 30
0.0
 10
3.6188157781
 20
-13.7989987816
 30
0.0
 10
3.6197258809
 20
-13.7988745151
 30
0.0
 10
3.6199025472
 20
-13.7990202997
 30
0.0
  0
SPLINE
  5
657
100
AcDbEntity
  8
RACCORDO
100
AcDbSpline
 62
250
  6
CONTINUOUS
 70
0
 71
3
 72
16
 73
12
 74
0
 42
0.0000001
 43
0.0000001
 44
0.0000000001
 40
0.0
 40
0.0
 40
0.0
 40
0.0
 40
0.2970021619
 40
0.4670239113
 40
0.6325660323
 40
0.7797177577
 40
0.8960450025
 40
0.9394280488
 40
0.9716411826
 40
0.9919443423
 40
1.0
 40
1.0
 40
1.0
 40
1.0
 10
-3.5342663902
 20
-13.8029055764
 30
0.0
 10
-3.5427346724
 20
-13.802313808
 30
0.0
 10
-3.5560602832
 20
-13.8015172386
 30
0.0
 10
-3.5741136548
 20
-13.80055341
 30
0.0
 10
-3.5878971247
 20
-13.7998828279
 30
0.0
 10
-3.6001406612
 20
-13.7993729408
 30
0.0
 10
-3.6089240973
 20
-13.7990316524
 30
0.0
 10
-3.6143819827
 20
-13.7989448669
 30
0.0
 10
-3.6171693172
 20
-13.7988317916
 30
0.0
 10
-3.6188127425
 20
-13.7989989686
 30
0.0
 10
-3.6197242769
 20
-13.7988745825
 30
0.0
 10
-3.6199025472
 20
-13.7990202997
 30
0.0
  0
LINE
  5
658
100
AcDbEntity
  8
RACCORDO
100
AcDbLine
 62
250
  6
CONTINUOUS
 10
-2.8813551418
 20
-13.8485284996
 11
-3.5342663902
 21
-13.8029055764
  0
LINE
  5
659
100
AcDbEntity
  8
RACCORDO
100
AcDbLine
 62
250
  6
CONTINUOUS
 10
2.2372517146
 20
-11.5182515185
 11
1.9833031306
 21
-11.840166633
  0
LINE
  5
65A
100
AcDbEntity
  8
RACCORDO
100
AcDbLine
 62
250
  6
CONTINUOUS
 10
-2.2372517146
 20
-11.5182515185
 11
-1.9833030423
 21
-11.8401667447
  0
SPLINE
  5
65B
100
AcDbEntity
  8
RACCORDO
100
AcDbSpline
 62
7
  6
CONTINUOUS
 70
0
 71
3
 72
11
 73
7
 74
0
 42
0.0000001
 43
0.0000001
 44
0.0000000001
 40
0.0
 40
0.0
 40
0.0
 40
0.0
 40
0.2499321514
 40
0.4981265195
 40
0.7501453235
 40
1.0
 40
1.0
 40
1.0
 40
1.0
 10
-9.8117398698
 20
-16.2006617941
 30
0.0
 10
-9.8118586874
 20
-16.1992291231
 30
0.0
 10
-9.8108176479
 20
-16.1964402493
 30
0.0
 10
-9.8106295612
 20
-16.1920902967
 30
0.0
 10
-9.8115049684
 20
-16.1878435816
 30
0.0
 10
-9.8115749962
 20
-16.1849508148
 30
0.0
 10
-9.811693777
 20
-16.1835185879
 30
0.0
  0
SPLINE
  5
65C
100
AcDbEntity
  8
RACCORDO
100
AcDbSpline
 62
7
  6
CONTINUOUS
 70
0
 71
3
 72
11
 73
7
 74
0
 42
0.0000001
 43
0.0000001
 44
0.0000000001
 40
0.0
 40
0.0
 40
0.0
 40
0.0
 40
0.2498546765
 40
0.5018734805
 40
0.7500678486
 40
1.0
 40
1.0
 40
1.0
 40
1.0
 10
9.811693777
 20
-16.1835185879
 30
0.0
 10
9.8115749962
 20
-16.1849508148
 30
0.0
 10
9.8115049684
 20
-16.1878435816
 30
0.0
 10
9.8106295612
 20
-16.1920902967
 30
0.0
 10
9.8108176479
 20
-16.1964402493
 30
0.0
 10
9.8118586874
 20
-16.1992291231
 30
0.0
 10
9.8117398698
 20
-16.2006617941
 30
0.0
  0
SPLINE
  5
65D
100
AcDbEntity
  8
RACCORDO
100
AcDbSpline
 62
250
  6
CONTINUOUS
 70
0
 71
3
 72
14
 73
10
 74
0
 42
0.0000001
 43
0.0000001
 44
0.0000000001
 40
0.0
 40
0.0
 40
0.0
 40
0.0
 40
0.4196219442
 40
0.5907621726
 40
0.7336802286
 40
0.8470341205
 40
0.9297082321
 40
0.9808150464
 40
1.0
 40
1.0
 40
1.0
 40
1.0
 10
-9.9493646921
 20
-11.2033016562
 30
0.0
 10
-9.9406442083
 20
-11.2032294272
 30
0.0
 10
-9.9283633023
 20
-11.2031176591
 30
0.0
 10
-9.913125856
 20
-11.2028952669
 30
0.0
 10
-9.904225488
 20
-11.2027734644
 30
0.0
 10
-9.8972333292
 20
-11.2025347051
 30
0.0
 10
-9.8919825003
 20
-11.2025669175
 30
0.0
 10
-9.8890211102
 20
-11.20207047
 30
0.0
 10
-9.8873262355
 20
-11.2023316833
 30
0.0
 10
-9.8870432226
 20
-11.202050838
 30
0.0
  0
SPLINE
  5
65E
100
AcDbEntity
  8
RACCORDO
100
AcDbSpline
 62
250
  6
CONTINUOUS
 70
0
 71
3
 72
14
 73
10
 74
0
 42
0.0000001
 43
0.0000001
 44
0.0000000001
 40
0.0
 40
0.0
 40
0.0
 40
0.0
 40
0.0191747898
 40
0.0702670081
 40
0.1529253046
 40
0.2662572463
 40
0.4091636834
 40
0.5803292504
 40
1.0
 40
1.0
 40
1.0
 40
1.0
 10
9.8870432226
 20
-11.202050838
 30
0.0
 10
9.8873261607
 20
-11.2023314588
 30
0.0
 10
9.8890202332
 20
-11.2020706981
 30
0.0
 10
9.8919810041
 20
-11.2025667388
 30
0.0
 10
9.8972306355
 20
-11.2025346757
 30
0.0
 10
9.9042218127
 20
-11.2027733776
 30
0.0
 10
9.9131219963
 20
-11.2028952206
 30
0.0
 10
9.9283607475
 20
-11.2031176155
 30
0.0
 10
9.9406431933
 20
-11.2032294195
 30
0.0
 10
9.9493646921
 20
-11.2033016562
 30
0.0
  0
SPLINE
  5
65F
100
AcDbEntity
  8
RACCORDO
100
AcDbSpline
 62
250
  6
CONTINUOUS
 70
0
 71
3
 72
16
 73
12
 74
0
 42
0.0000001
 43
0.0000001
 44
0.0000000001
 40
0.0
 40
0.0
 40
0.0
 40
0.0
 40
0.008065201
 40
0.0284158826
 40
0.0606883698
 40
0.1041487207
 40
0.2206308012
 40
0.3678567001
 40
0.5333677958
 40
0.7032658351
 40
1.0
 40
1.0
 40
1.0
 40
1.0
 10
2.1908435385
 20
-11.1113512015
 30
0.0
 10
2.1908650421
 20
-11.1115807165
 30
0.0
 10
2.190250367
 20
-11.1122683971
 30
0.0
 10
2.1894688189
 20
-11.1137268412
 30
0.0
 10
2.1878128594
 20
-11.1159787386
 30
0.0
 10
2.1846841511
 20
-11.1204616399
 30
0.0
 10
2.1794841531
 20
-11.1275596085
 30
0.0
 10
2.1722114444
 20
-11.1374292443
 30
0.0
 10
2.1639491212
 20
-11.1484793358
 30
0.0
 10
2.1530618916
 20
-11.1628975431
 30
0.0
 10
2.1449566866
 20
-11.1734906235
 30
0.0
 10
2.1397353669
 20
-11.1801741741
 30
0.0
  0
LINE
  5
660
100
AcDbEntity
  8
RACCORDO
100
AcDbLine
 62
250
  6
CONTINUOUS
 10
2.1397353669
 20
-11.1801741741
 11
1.9376056196
 21
-11.4389124793
  0
LINE
  5
661
100
AcDbEntity
  8
RACCORDO
100
AcDbLine
 62
250
  6
CONTINUOUS
 10
-2.1397353669
 20
-11.1801741741
 11
-1.9376055026
 21
-11.4389126291
  0
SPLINE
  5
662
100
AcDbEntity
  8
RACCORDO
100
AcDbSpline
 62
250
  6
CONTINUOUS
 70
0
 71
3
 72
16
 73
12
 74
0
 42
0.0000001
 43
0.0000001
 44
0.0000000001
 40
0.0
 40
0.0
 40
0.0
 40
0.0
 40
0.0080754345
 40
0.0284359082
 40
0.0607267155
 40
0.1042033839
 40
0.2207188794
 40
0.3679583045
 40
0.5334615952
 40
0.7033336054
 40
1.0
 40
1.0
 40
1.0
 40
1.0
 10
-2.1908435385
 20
-11.1113512015
 30
0.0
 10
-2.1908648751
 20
-11.1115810258
 30
0.0
 10
-2.1902498518
 20
-11.1122689916
 30
0.0
 10
-2.1894676979
 20
-11.1137285374
 30
0.0
 10
-2.1878110173
 20
-11.1159813747
 30
0.0
 10
-2.1846811106
 20
-11.1204658757
 30
0.0
 10
-2.1794800248
 20
-11.1275652377
 30
0.0
 10
-2.1722066024
 20
-11.1374357577
 30
0.0
 10
-2.1639445977
 20
-11.1484853518
 30
0.0
 10
-2.1530590865
 20
-11.1629012172
 30
0.0
 10
-2.1449554931
 20
-11.1734921509
 30
0.0
 10
-2.1397353669
 20
-11.1801741741
 30
0.0
  0
SPLINE
  5
663
100
AcDbEntity
  8
RACCORDO
100
AcDbSpline
 62
250
  6
CONTINUOUS
 70
0
 71
3
 72
14
 73
10
 74
0
 42
0.0000001
 43
0.0000001
 44
0.0000000001
 40
0.0
 40
0.0
 40
0.0
 40
0.0
 40
0.0305366765
 40
0.092544486
 40
0.1869224512
 40
0.3106164083
 40
0.4594950765
 40
0.6283089726
 40
1.0
 40
1.0
 40
1.0
 40
1.0
 10
9.868819354
 20
-24.4923810854
 30
0.0
 10
9.86832079
 20
-24.4903785924
 30
0.0
 10
9.8617799194
 20
-24.4870629279
 30
0.0
 10
9.8503123743
 20
-24.483814035
 30
0.0
 10
9.8313038209
 20
-24.4804084586
 30
0.0
 10
9.8068237468
 20
-24.4774523447
 30
0.0
 10
9.7770443106
 20
-24.4749395599
 30
0.0
 10
9.7305477713
 20
-24.472328943
 30
0.0
 10
9.6940061343
 20
-24.4715437691
 30
0.0
 10
9.668887889
 20
-24.4714753928
 30
0.0
  0
SPLINE
  5
664
100
AcDbEntity
  8
RACCORDO
100
AcDbSpline
 62
250
  6
CONTINUOUS
 70
0
 71
3
 72
13
 73
9
 74
0
 42
0.0000001
 43
0.0000001
 44
0.0000000001
 40
0.0
 40
0.0
 40
0.0
 40
0.0
 40
0.347391361
 40
0.6527447881
 40
0.7778371589
 40
0.8792910362
 40
0.9541031807
 40
1.0
 40
1.0
 40
1.0
 40
1.0
 10
0.3859750215
 20
22.4154266119
 30
0.0
 10
0.3859751899
 20
22.324176473
 30
0.0
 10
0.3864818885
 20
22.1527186902
 30
0.0
 10
0.3883623855
 20
21.9484068143
 30
0.0
 10
0.3907429703
 20
21.8087133697
 30
0.0
 10
0.39259914
 20
21.729570886
 30
0.0
 10
0.3947071387
 20
21.6712615175
 30
0.0
 10
0.396327059
 20
21.6395776438
 30
0.0
 10
0.3975142412
 20
21.6275804095
 30
0.0
  0
SPLINE
  5
665
100
AcDbEntity
  8
RACCORDO
100
AcDbSpline
 62
250
  6
CONTINUOUS
 70
0
 71
3
 72
13
 73
9
 74
0
 42
0.0000001
 43
0.0000001
 44
0.0000000001
 40
0.0
 40
0.0
 40
0.0
 40
0.0
 40
0.0459032342
 40
0.1207685388
 40
0.2223088936
 40
0.3474739322
 40
0.6527359439
 40
1.0
 40
1.0
 40
1.0
 40
1.0
 10
-0.3975142412
 20
21.6275804095
 30
0.0
 10
-0.3963270712
 20
21.6395793382
 30
0.0
 10
-0.3947062951
 20
21.6712788341
 30
0.0
 10
-0.3925974949
 20
21.7296265644
 30
0.0
 10
-0.3907405835
 20
21.8088248136
 30
0.0
 10
-0.3883609193
 20
21.9485360683
 30
0.0
 10
-0.386481523
 20
22.1528095811
 30
0.0
 10
-0.385975139
 20
22.3242099128
 30
0.0
 10
-0.3859750215
 20
22.4154266119
 30
0.0
  0
SPLINE
  5
666
100
AcDbEntity
  8
RACCORDO
100
AcDbSpline
 62
250
  6
CONTINUOUS
 70
0
 71
3
 72
17
 73
13
 74
0
 42
0.0000001
 43
0.0000001
 44
0.0000000001
 40
0.0
 40
0.0
 40
0.0
 40
0.0
 40
0.0077792527
 40
0.0279072667
 40
0.0599689342
 40
0.10324646
 40
0.1568158025
 40
0.2195250261
 40
0.3668186741
 40
0.5326154381
 40
0.7028609514
 40
1.0
 40
1.0
 40
1.0
 40
1.0
 10
2.6307411564
 20
-11.0686304742
 30
0.0
 10
2.6298972985
 20
-11.0699298587
 30
0.0
 10
2.6260676806
 20
-11.0740051671
 30
0.0
 10
2.6185187929
 20
-11.083232634
 30
0.0
 10
2.6059725364
 20
-11.0975387003
 30
0.0
 10
2.5892061005
 20
-11.1169742728
 30
0.0
 10
2.5683452207
 20
-11.1409493467
 30
0.0
 10
2.5338752259
 20
-11.1805393784
 30
0.0
 10
2.4846380068
 20
-11.2369106692
 30
0.0
 10
2.4212164554
 20
-11.3093284568
 30
0.0
 10
2.3380001496
 20
-11.4040815742
 30
0.0
 10
2.276464305
 20
-11.4739276738
 30
0.0
 10
2.2372517146
 20
-11.5182515185
 30
0.0
  0
SPLINE
  5
667
100
AcDbEntity
  8
RACCORDO
100
AcDbSpline
 62
250
  6
CONTINUOUS
 70
0
 71
3
 72
17
 73
13
 74
0
 42
0.0000001
 43
0.0000001
 44
0.0000000001
 40
0.0
 40
0.0
 40
0.0
 40
0.0
 40
0.2979224542
 40
0.4683980469
 40
0.6341890366
 40
0.7812702949
 40
0.8438168992
 40
0.8972104572
 40
0.9403202466
 40
0.9722321351
 40
0.9922680402
 40
1.0
 40
1.0
 40
1.0
 40
1.0
 10
3.3085180188
 20
-13.5330104084
 30
0.0
 10
3.3673421985
 20
-13.5252362087
 30
0.0
 10
3.4598625044
 20
-13.5132875935
 30
0.0
 10
3.5851489674
 20
-13.4972543859
 30
0.0
 10
3.680653485
 20
-13.4851726106
 30
0.0
 10
3.7548452271
 20
-13.4758840337
 30
0.0
 10
3.8068336374
 20
-13.4694624135
 30
0.0
 10
3.8382748122
 20
-13.4655822323
 30
0.0
 10
3.8636656113
 20
-13.4625678466
 30
0.0
 10
3.8824621588
 20
-13.4601722396
 30
0.0
 10
3.8942741213
 20
-13.4590942374
 30
0.0
 10
3.8997678731
 20
-13.4581767667
 30
0.0
 10
3.9013072615
 20
-13.4582177739
 30
0.0
  0
SPLINE
  5
668
100
AcDbEntity
  8
RACCORDO
100
AcDbSpline
 62
250
  6
CONTINUOUS
 70
0
 71
3
 72
17
 73
13
 74
0
 42
0.0000001
 43
0.0000001
 44
0.0000000001
 40
0.0
 40
0.0
 40
0.0
 40
0.0
 40
0.2974068588
 40
0.4677785279
 40
0.6336077815
 40
0.7808267879
 40
0.8434557551
 40
0.896948068
 40
0.9401469163
 40
0.9721509948
 40
0.9922328604
 40
1.0
 40
1.0
 40
1.0
 40
1.0
 10
-3.3085180188
 20
-13.5330104084
 30
0.0
 10
-3.3672404507
 20
-13.5252501147
 30
0.0
 10
-3.4596380607
 20
-13.5133148112
 30
0.0
 10
-3.5848099783
 20
-13.4972986842
 30
0.0
 10
-3.6803285001
 20
-13.4852129744
 30
0.0
 10
-3.7545709943
 20
-13.475916408
 30
0.0
 10
-3.8066229843
 20
-13.4694900352
 30
0.0
 10
-3.8381173849
 20
-13.4656051613
 30
0.0
 10
-3.8635633036
 20
-13.4625730593
 30
0.0
 10
-3.8824034274
 20
-13.4601822744
 30
0.0
 10
-3.8942524208
 20
-13.4590829949
 30
0.0
 10
-3.8997604853
 20
-13.4581951946
 30
0.0
 10
-3.9013072615
 20
-13.4582177739
 30
0.0
  0
SPLINE
  5
669
100
AcDbEntity
  8
RACCORDO
100
AcDbSpline
 62
250
  6
CONTINUOUS
 70
0
 71
3
 72
17
 73
13
 74
0
 42
0.0000001
 43
0.0000001
 44
0.0000000001
 40
0.0
 40
0.0
 40
0.0
 40
0.0
 40
0.0077879022
 40
0.0279265745
 40
0.0600074639
 40
0.1033007144
 40
0.1568913257
 40
0.2196127825
 40
0.3669202521
 40
0.532709425
 40
0.7029289234
 40
1.0
 40
1.0
 40
1.0
 40
1.0
 10
-2.6307411564
 20
-11.0686304742
 30
0.0
 10
-2.629893531
 20
-11.0699294616
 30
0.0
 10
-2.6260658867
 20
-11.0740103064
 30
0.0
 10
-2.6185096303
 20
-11.0832426379
 30
0.0
 10
-2.6059598988
 20
-11.0975571196
 30
0.0
 10
-2.5891830136
 20
-11.1169987019
 30
0.0
 10
-2.5683162888
 20
-11.1409815893
 30
0.0
 10
-2.5338418297
 20
-11.180580273
 30
0.0
 10
-2.4846002956
 20
-11.2369526534
 30
0.0
 10
-2.4211820198
 20
-11.3093680769
 30
0.0
 10
-2.3379786323
 20
-11.404105609
 30
0.0
 10
-2.276455843
 20
-11.4739382639
 30
0.0
 10
-2.2372517146
 20
-11.5182515185
 30
0.0
  0
SPLINE
  5
66A
100
AcDbEntity
  8
RACCORDO
100
AcDbSpline
 62
250
  6
CONTINUOUS
 70
0
 71
3
 72
14
 73
10
 74
0
 42
0.0000001
 43
0.0000001
 44
0.0000000001
 40
0.0
 40
0.0
 40
0.0
 40
0.0
 40
0.0305364992
 40
0.0925440488
 40
0.1869216509
 40
0.3106153544
 40
0.4594941734
 40
0.6283084615
 40
1.0
 40
1.0
 40
1.0
 40
1.0
 10
-9.868819354
 20
-24.4923810854
 30
0.0
 10
-9.8683207929
 20
-24.4903786039
 30
0.0
 10
-9.8617799812
 20
-24.4870629223
 30
0.0
 10
-9.8503124646
 20
-24.4838140669
 30
0.0
 10
-9.8313039822
 20
-24.4804084798
 30
0.0
 10
-9.8068239355
 20
-24.4774523642
 30
0.0
 10
-9.7770444806
 20
-24.4749395717
 30
0.0
 10
-9.7305478685
 20
-24.472328946
 30
0.0
 10
-9.6940061696
 20
-24.4715437692
 30
0.0
 10
-9.668887889
 20
-24.4714753928
 30
0.0
  0
SPLINE
  5
66B
100
AcDbEntity
  8
RACCORDO
100
AcDbSpline
 62
250
  6
CONTINUOUS
 70
0
 71
3
 72
13
 73
9
 74
0
 42
0.0000001
 43
0.0000001
 44
0.0000000001
 40
0.0
 40
0.0
 40
0.0
 40
0.0
 40
0.0458722264
 40
0.1207291089
 40
0.2222679894
 40
0.3474378333
 40
0.6527167394
 40
1.0
 40
1.0
 40
1.0
 40
1.0
 10
-0.197544747
 20
21.4306188589
 30
0.0
 10
-0.1963564553
 20
21.4456324423
 30
0.0
 10
-0.1947368604
 20
21.4852512437
 30
0.0
 10
-0.1926273392
 20
21.5581877154
 30
0.0
 10
-0.1907711282
 20
21.6571833812
 30
0.0
 10
-0.1883910767
 20
21.8318252877
 30
0.0
 10
-0.1865120868
 20
22.0871626957
 30
0.0
 10
-0.186005563
 20
22.3014083437
 30
0.0
 10
-0.1860054837
 20
22.4154266119
 30
0.0
  0
SPLINE
  5
66C
100
AcDbEntity
  8
RACCORDO
100
AcDbSpline
 62
250
  6
CONTINUOUS
 70
0
 71
3
 72
13
 73
9
 74
0
 42
0.0000001
 43
0.0000001
 44
0.0000000001
 40
0.0
 40
0.0
 40
0.0
 40
0.0
 40
0.3474105633
 40
0.6527808432
 40
0.7778780593
 40
0.8793307517
 40
0.9541337009
 40
1.0
 40
1.0
 40
1.0
 40
1.0
 10
0.1860054831
 20
22.4154266119
 30
0.0
 10
0.1860056088
 20
22.3013665482
 30
0.0
 10
0.1865124594
 20
22.0870491057
 30
0.0
 10
0.188392547
 20
21.83166375
 30
0.0
 10
0.1907735119
 20
21.657043999
 30
0.0
 10
0.1926290556
 20
21.5581181867
 30
0.0
 10
0.1947375723
 20
21.4852296491
 30
0.0
 10
0.1963565658
 20
21.4456305
 30
0.0
 10
0.1975447332
 20
21.4306188589
 30
0.0
  0
SPLINE
  5
66D
100
AcDbEntity
  8
RACCORDO
100
AcDbSpline
 62
250
  6
CONTINUOUS
 70
0
 71
3
 72
11
 73
7
 74
0
 42
0.0000001
 43
0.0000001
 44
0.0000000001
 40
0.0
 40
0.0
 40
0.0
 40
0.0
 40
0.2481494737
 40
0.4975319787
 40
0.7483584945
 40
1.0
 40
1.0
 40
1.0
 40
1.0
 10
-0.3975142412
 20
21.6275804095
 30
0.0
 10
-0.3974354787
 20
21.6019820896
 30
0.0
 10
-0.3868396617
 20
21.5501243285
 30
0.0
 10
-0.3421993286
 20
21.4847675332
 30
0.0
 10
-0.2758550564
 20
21.4410238442
 30
0.0
 10
-0.2235032566
 20
21.4306963419
 30
0.0
 10
-0.1975447025
 20
21.4306188558
 30
0.0
  0
SPLINE
  5
66E
100
AcDbEntity
  8
RACCORDO
100
AcDbSpline
 62
250
  6
CONTINUOUS
 70
0
 71
3
 72
11
 73
7
 74
0
 42
0.0000001
 43
0.0000001
 44
0.0000000001
 40
0.0
 40
0.0
 40
0.0
 40
0.0
 40
0.2481496317
 40
0.4975322082
 40
0.748358622
 40
1.0
 40
1.0
 40
1.0
 40
1.0
 10
0.3975142412
 20
21.6275804095
 30
0.0
 10
0.3974354787
 20
21.6019820734
 30
0.0
 10
0.3868396458
 20
21.5501242886
 30
0.0
 10
0.3421992878
 20
21.4847674941
 30
0.0
 10
0.2758550198
 20
21.4410238303
 30
0.0
 10
0.2235032431
 20
21.4306963434
 30
0.0
 10
0.1975447022
 20
21.4306188589
 30
0.0
  0
SPLINE
  5
66F
100
AcDbEntity
  8
RACCORDO
100
AcDbSpline
 62
250
  6
CONTINUOUS
 70
0
 71
3
 72
14
 73
10
 74
0
 42
0.0000001
 43
0.0000001
 44
0.0000000001
 40
0.0
 40
0.0
 40
0.0
 40
0.0
 40
0.0305472679
 40
0.0925658183
 40
0.1869470732
 40
0.3106435274
 40
0.4595174079
 40
0.6283218691
 40
1.0
 40
1.0
 40
1.0
 40
1.0
 10
9.9076590239
 20
-10.3804173835
 30
0.0
 10
9.9071602889
 20
-10.3784141992
 30
0.0
 10
9.9006161794
 20
-10.3750997734
 30
0.0
 10
9.8891484328
 20
-10.3718488767
 30
0.0
 10
9.8701381799
 20
-10.3684438586
 30
0.0
 10
9.8456582324
 20
-10.3654881839
 30
0.0
 10
9.8158795604
 20
-10.3629756506
 30
0.0
 10
9.7693849626
 20
-10.3603651326
 30
0.0
 10
9.7328448875
 20
-10.3595800765
 30
0.0
 10
9.7077275589
 20
-10.3595116908
 30
0.0
  0
SPLINE
  5
670
100
AcDbEntity
  8
RACCORDO
100
AcDbSpline
 62
250
  6
CONTINUOUS
 70
0
 71
3
 72
14
 73
10
 74
0
 42
0.0000001
 43
0.0000001
 44
0.0000000001
 40
0.0
 40
0.0
 40
0.0
 40
0.0
 40
0.371678131
 40
0.5404825926
 40
0.6893564741
 40
0.8130529298
 40
0.9074341861
 40
0.9694527365
 40
1.0
 40
1.0
 40
1.0
 40
1.0
 10
-9.7077275589
 20
-10.3595116908
 30
0.0
 10
-9.7328448875
 20
-10.3595800738
 30
0.0
 10
-9.7693849627
 20
-10.3603651273
 30
0.0
 10
-9.8158795605
 20
-10.3629756462
 30
0.0
 10
-9.8456582325
 20
-10.3654881814
 30
0.0
 10
-9.8701381799
 20
-10.3684438584
 30
0.0
 10
-9.889148433
 20
-10.3718488779
 30
0.0
 10
-9.9006161787
 20
-10.3750997754
 30
0.0
 10
-9.9071602887
 20
-10.3784141996
 30
0.0
 10
-9.9076590239
 20
-10.3804173835
 30
0.0
  0
SPLINE
  5
671
100
AcDbEntity
  8
RACCORDO
100
AcDbSpline
 62
250
  6
CONTINUOUS
 70
0
 71
3
 72
18
 73
14
 74
0
 42
0.0000001
 43
0.0000001
 44
0.0000000001
 40
0.0
 40
0.0
 40
0.0
 40
0.0
 40
0.0064581105
 40
0.021465776
 40
0.0449845526
 40
0.0769198183
 40
0.11707986
 40
0.1651969295
 40
0.2841751731
 40
0.4309458615
 40
0.6019575067
 40
0.7932590288
 40
1.0
 40
1.0
 40
1.0
 40
1.0
 10
-3.5228742796
 20
-1.1770951726
 30
0.0
 10
-3.5234793035
 20
-1.1762450148
 30
0.0
 10
-3.5235340414
 20
-1.1725203701
 30
0.0
 10
-3.5244880288
 20
-1.1655110524
 30
0.0
 10
-3.5249219408
 20
-1.1540193399
 30
0.0
 10
-3.5256279046
 20
-1.1386350611
 30
0.0
 10
-3.5262142646
 20
-1.1192018639
 30
0.0
 10
-3.5270903951
 20
-1.0857346181
 30
0.0
 10
-3.528045292
 20
-1.0350248725
 30
0.0
 10
-3.529036746
 20
-0.9644646049
 30
0.0
 10
-3.5298818846
 20
-0.8822129951
 30
0.0
 10
-3.5305663465
 20
-0.7902710366
 30
0.0
 10
-3.5308917572
 20
-0.7259581913
 30
0.0
 10
-3.531026373
 20
-0.6925543809
 30
0.0
  0
SPLINE
  5
672
100
AcDbEntity
  8
RACCORDO
100
AcDbSpline
 62
250
  6
CONTINUOUS
 70
0
 71
3
 72
18
 73
14
 74
0
 42
0.0000001
 43
0.0000001
 44
0.0000000001
 40
0.0
 40
0.0
 40
0.0
 40
0.0
 40
0.2068338637
 40
0.3983540155
 40
0.5694117702
 40
0.7160803386
 40
0.8349414029
 40
0.8830074663
 40
0.9231208003
 40
0.955030277
 40
0.9785385962
 40
0.9935430247
 40
1.0
 40
1.0
 40
1.0
 40
1.0
 10
-6.1689736706
 20
-0.6925584824
 30
0.0
 10
-6.1691083582
 20
-0.72597702
 30
0.0
 10
-6.1694342921
 20
-0.790339655
 30
0.0
 10
-6.1701190169
 20
-0.8823386219
 30
0.0
 10
-6.170965079
 20
-0.9646158069
 30
0.0
 10
-6.1719566015
 20
-1.0351474924
 30
0.0
 10
-6.1729116186
 20
-1.0858131273
 30
0.0
 10
-6.1737869868
 20
-1.1192453752
 30
0.0
 10
-6.1743729669
 20
-1.1386584608
 30
0.0
 10
-6.1750784059
 20
-1.1540291831
 30
0.0
 10
-6.1755119161
 20
-1.1655145622
 30
0.0
 10
-6.176466201
 20
-1.1725210882
 30
0.0
 10
-6.1765204148
 20
-1.1762454282
 30
0.0
 10
-6.1771256879
 20
-1.1770951726
 30
0.0
  0
SPLINE
  5
673
100
AcDbEntity
  8
RACCORDO
100
AcDbSpline
 62
250
  6
CONTINUOUS
 70
0
 71
3
 72
18
 73
14
 74
0
 42
0.0000001
 43
0.0000001
 44
0.0000000001
 40
0.0
 40
0.0
 40
0.0
 40
0.0
 40
0.0064581105
 40
0.021465776
 40
0.0449845526
 40
0.0769198183
 40
0.11707986
 40
0.1651969295
 40
0.2841751731
 40
0.4309458615
 40
0.6019575067
 40
0.7932590288
 40
1.0
 40
1.0
 40
1.0
 40
1.0
 10
6.1771257204
 20
-1.1770951726
 30
0.0
 10
6.1765206965
 20
-1.1762450148
 30
0.0
 10
6.1764659586
 20
-1.1725203701
 30
0.0
 10
6.1755119712
 20
-1.1655110524
 30
0.0
 10
6.1750780592
 20
-1.1540193399
 30
0.0
 10
6.1743720954
 20
-1.1386350611
 30
0.0
 10
6.1737857354
 20
-1.1192018639
 30
0.0
 10
6.1729096049
 20
-1.0857346181
 30
0.0
 10
6.171954708
 20
-1.0350248725
 30
0.0
 10
6.170963254
 20
-0.9644646049
 30
0.0
 10
6.1701181154
 20
-0.8822129951
 30
0.0
 10
6.1694336535
 20
-0.7902710366
 30
0.0
 10
6.1691082428
 20
-0.7259581913
 30
0.0
 10
6.168973627
 20
-0.6925543809
 30
0.0
  0
SPLINE
  5
674
100
AcDbEntity
  8
RACCORDO
100
AcDbSpline
 62
250
  6
CONTINUOUS
 70
0
 71
3
 72
18
 73
14
 74
0
 42
0.0000001
 43
0.0000001
 44
0.0000000001
 40
0.0
 40
0.0
 40
0.0
 40
0.0
 40
0.2068338637
 40
0.3983540155
 40
0.5694117702
 40
0.7160803386
 40
0.8349414029
 40
0.8830074663
 40
0.9231208003
 40
0.955030277
 40
0.9785385962
 40
0.9935430247
 40
1.0
 40
1.0
 40
1.0
 40
1.0
 10
3.5310263294
 20
-0.6925584824
 30
0.0
 10
3.5308916418
 20
-0.72597702
 30
0.0
 10
3.5305657079
 20
-0.790339655
 30
0.0
 10
3.5298809831
 20
-0.8823386219
 30
0.0
 10
3.529034921
 20
-0.9646158069
 30
0.0
 10
3.5280433985
 20
-1.0351474924
 30
0.0
 10
3.5270883814
 20
-1.0858131273
 30
0.0
 10
3.5262130132
 20
-1.1192453752
 30
0.0
 10
3.5256270331
 20
-1.1386584608
 30
0.0
 10
3.5249215941
 20
-1.1540291831
 30
0.0
 10
3.5244880839
 20
-1.1655145622
 30
0.0
 10
3.523533799
 20
-1.1725210882
 30
0.0
 10
3.5234795852
 20
-1.1762454282
 30
0.0
 10
3.5228743121
 20
-1.1770951726
 30
0.0
  0
SPLINE
  5
675
100
AcDbEntity
  8
RACCORDO
100
AcDbSpline
 62
250
  6
CONTINUOUS
 70
0
 71
3
 72
13
 73
9
 74
0
 42
0.0000001
 43
0.0000001
 44
0.0000000001
 40
0.0
 40
0.0
 40
0.0
 40
0.0
 40
0.1299970228
 40
0.2283061141
 40
0.3500310174
 40
0.4926486926
 40
0.6520494116
 40
1.0
 40
1.0
 40
1.0
 40
1.0
 10
6.3689431936
 20
-0.6310263455
 30
0.0
 10
6.3684335769
 20
-0.6404686822
 30
0.0
 10
6.3549386302
 20
-0.6545163708
 30
0.0
 10
6.3328935998
 20
-0.6659945899
 30
0.0
 10
6.3078576549
 20
-0.6751444763
 30
0.0
 10
6.2779500163
 20
-0.6824978427
 30
0.0
 10
6.2312398481
 20
-0.6901780665
 30
0.0
 10
6.1942834707
 20
-0.6924239947
 30
0.0
 10
6.1689736192
 20
-0.6925533147
 30
0.0
  0
SPLINE
  5
676
100
AcDbEntity
  8
RACCORDO
100
AcDbSpline
 62
7
  6
CONTINUOUS
 70
0
 71
3
 72
8
 73
4
 74
0
 42
0.0000001
 43
0.0000001
 44
0.0000000001
 40
0.0
 40
0.0
 40
0.0
 40
0.0
 40
1.0
 40
1.0
 40
1.0
 40
1.0
 10
6.2044365927
 20
-0.3955938683
 30
0.0
 10
6.2303891349
 20
-0.3955938683
 30
0.0
 10
6.2568123255
 20
-0.4008444621
 30
0.0
 10
6.2808091081
 20
-0.41072823
 30
0.0
  0
SPLINE
  5
677
100
AcDbEntity
  8
RACCORDO
100
AcDbSpline
 62
250
  6
CONTINUOUS
 70
0
 71
3
 72
13
 73
9
 74
0
 42
0.0000001
 43
0.0000001
 44
0.0000000001
 40
0.0
 40
0.0
 40
0.0
 40
0.0
 40
0.3479555514
 40
0.5073518958
 40
0.6499635685
 40
0.7716834185
 40
0.869990724
 40
1.0
 40
1.0
 40
1.0
 40
1.0
 10
-6.169033814
 20
-0.6925557092
 30
0.0
 10
-6.19433757
 20
-0.6924320683
 30
0.0
 10
-6.2312848375
 20
-0.6901817994
 30
0.0
 10
-6.2779817023
 20
-0.6824987708
 30
0.0
 10
-6.3078797526
 20
-0.675143772
 30
0.0
 10
-6.3329069931
 20
-0.6659931069
 30
0.0
 10
-6.354945292
 20
-0.6545138261
 30
0.0
 10
-6.3684337386
 20
-0.6404671326
 30
0.0
 10
-6.3689432167
 20
-0.6310263223
 30
0.0
  0
SPLINE
  5
678
100
AcDbEntity
  8
RACCORDO
100
AcDbSpline
 62
7
  6
CONTINUOUS
 70
0
 71
3
 72
8
 73
4
 74
0
 42
0.0000001
 43
0.0000001
 44
0.0000000001
 40
0.0
 40
0.0
 40
0.0
 40
0.0
 40
1.0
 40
1.0
 40
1.0
 40
1.0
 10
-6.2811033211
 20
-0.4108498684
 30
0.0
 10
-6.2570259797
 20
-0.400888457
 30
0.0
 10
-6.230493225
 20
-0.3955938683
 30
0.0
 10
-6.2044365927
 20
-0.3955938683
 30
0.0
  0
SPLINE
  5
679
100
AcDbEntity
  8
RACCORDO
100
AcDbSpline
 62
7
  6
CONTINUOUS
 70
0
 71
3
 72
8
 73
4
 74
0
 42
0.0000001
 43
0.0000001
 44
0.0000000001
 40
0.0
 40
0.0
 40
0.0
 40
0.0
 40
1.0
 40
1.0
 40
1.0
 40
1.0
 10
-3.4955634073
 20
-0.3955938683
 30
0.0
 10
-3.4696108651
 20
-0.3955938683
 30
0.0
 10
-3.4431876745
 20
-0.4008444621
 30
0.0
 10
-3.4191908919
 20
-0.41072823
 30
0.0
  0
SPLINE
  5
67A
100
AcDbEntity
  8
RACCORDO
100
AcDbSpline
 62
250
  6
CONTINUOUS
 70
0
 71
3
 72
13
 73
9
 74
0
 42
0.0000001
 43
0.0000001
 44
0.0000000001
 40
0.0
 40
0.0
 40
0.0
 40
0.0
 40
0.1299970228
 40
0.2283061141
 40
0.3500310174
 40
0.4926486926
 40
0.6520494116
 40
1.0
 40
1.0
 40
1.0
 40
1.0
 10
-3.3310568064
 20
-0.6310263455
 30
0.0
 10
-3.3315664231
 20
-0.6404686822
 30
0.0
 10
-3.3450613698
 20
-0.6545163708
 30
0.0
 10
-3.3671064002
 20
-0.6659945899
 30
0.0
 10
-3.3921423451
 20
-0.6751444763
 30
0.0
 10
-3.4220499837
 20
-0.6824978427
 30
0.0
 10
-3.4687601519
 20
-0.6901780665
 30
0.0
 10
-3.5057165293
 20
-0.6924239947
 30
0.0
 10
-3.5310263808
 20
-0.6925533147
 30
0.0
  0
SPLINE
  5
67B
100
AcDbEntity
  8
RACCORDO
100
AcDbSpline
 62
7
  6
CONTINUOUS
 70
0
 71
3
 72
8
 73
4
 74
0
 42
0.0000001
 43
0.0000001
 44
0.0000000001
 40
0.0
 40
0.0
 40
0.0
 40
0.0
 40
1.0
 40
1.0
 40
1.0
 40
1.0
 10
3.4191908919
 20
-0.41072823
 30
0.0
 10
3.4431876745
 20
-0.4008444621
 30
0.0
 10
3.4696108651
 20
-0.3955938683
 30
0.0
 10
3.4955634073
 20
-0.3955938683
 30
0.0
  0
SPLINE
  5
67C
100
AcDbEntity
  8
RACCORDO
100
AcDbSpline
 62
250
  6
CONTINUOUS
 70
0
 71
3
 72
13
 73
9
 74
0
 42
0.0000001
 43
0.0000001
 44
0.0000000001
 40
0.0
 40
0.0
 40
0.0
 40
0.0
 40
0.3479583988
 40
0.5073565642
 40
0.6499689128
 40
0.7716877038
 40
0.8699933132
 40
1.0
 40
1.0
 40
1.0
 40
1.0
 10
3.5309671957
 20
-0.6925557145
 30
0.0
 10
3.5056631137
 20
-0.6924319768
 30
0.0
 10
3.4687153242
 20
-0.690181888
 30
0.0
 10
3.4220178614
 20
-0.6824986832
 30
0.0
 10
3.3921195799
 20
-0.6751435788
 30
0.0
 10
3.367092392
 20
-0.6659928502
 30
0.0
 10
3.3450543833
 20
-0.6545135428
 30
0.0
 10
3.3315662537
 20
-0.6404669891
 30
0.0
 10
3.3310567833
 20
-0.6310263223
 30
0.0
  0
SPLINE
  5
67D
100
AcDbEntity
  8
RACCORDO
100
AcDbSpline
 62
7
  6
CONTINUOUS
 70
0
 71
3
 72
15
 73
11
 74
0
 42
0.0000001
 43
0.0000001
 44
0.0000000001
 40
0.0
 40
0.0
 40
0.0
 40
0.0
 40
0.1254731111
 40
0.2507520074
 40
0.3757735537
 40
0.5005189749
 40
0.6251249521
 40
0.7498416355
 40
0.8748157013
 40
1.0
 40
1.0
 40
1.0
 40
1.0
 10
-4.444135548
 20
-19.9630824545
 30
0.0
 10
-4.3899200491
 20
-19.9630824545
 30
0.0
 10
-4.2804648068
 20
-19.984395017
 30
0.0
 10
-4.141032925
 20
-20.0747994382
 30
0.0
 10
-4.0453069432
 20
-20.2106035696
 30
0.0
 10
-4.0085272026
 20
-20.3724936143
 30
0.0
 10
-4.0375248476
 20
-20.5359987022
 30
0.0
 10
-4.1287255286
 20
-20.6749895276
 30
0.0
 10
-4.2669819265
 20
-20.7671900743
 30
0.0
 10
-4.3762820003
 20
-20.7884317324
 30
0.0
 10
-4.4303727066
 20
-20.7884317324
 30
0.0
  0
SPLINE
  5
67E
100
AcDbEntity
  8
RACCORDO
100
AcDbSpline
 62
7
  6
CONTINUOUS
 70
0
 71
3
 72
15
 73
11
 74
0
 42
0.0000001
 43
0.0000001
 44
0.0000000001
 40
0.0
 40
0.0
 40
0.0
 40
0.0
 40
0.1253186004
 40
0.2504031292
 40
0.3752396404
 40
0.4998974647
 40
0.6245881407
 40
0.7494984449
 40
0.8746488367
 40
1.0
 40
1.0
 40
1.0
 40
1.0
 10
4.4303727066
 20
-20.7884317324
 30
0.0
 10
4.3762244242
 20
-20.7884317324
 30
0.0
 10
4.2668129026
 20
-20.7671486572
 30
0.0
 10
4.1284858602
 20
-20.6747516339
 30
0.0
 10
4.037344796
 20
-20.5355678711
 30
0.0
 10
4.0085318764
 20
-20.3719709122
 30
0.0
 10
4.0455237138
 20
-20.2101871585
 30
0.0
 10
4.1412888078
 20
-20.0745856733
 30
0.0
 10
4.2806297032
 20
-19.9843486722
 30
0.0
 10
4.3899731956
 20
-19.9630824545
 30
0.0
 10
4.444135548
 20
-19.9630824545
 30
0.0
  0
SPLINE
  5
67F
100
AcDbEntity
  8
RACCORDO
100
AcDbSpline
 62
7
  6
CONTINUOUS
 70
0
 71
3
 72
16
 73
12
 74
0
 42
0.0000001
 43
0.0000001
 44
0.0000000001
 40
0.0
 40
0.0
 40
0.0
 40
0.0
 40
0.3636950342
 40
0.5287703252
 40
0.6778890415
 40
0.8062938559
 40
0.9074170052
 40
0.9453332823
 40
0.9737234526
 40
0.9920248016
 40
1.0
 40
1.0
 40
1.0
 40
1.0
 10
-2.0141675445
 20
-12.218772909
 30
0.0
 10
-2.0156359046
 20
-12.236410415
 30
0.0
 10
-2.0177041288
 20
-12.2620602501
 30
0.0
 10
-2.0201222066
 20
-12.2949569816
 30
0.0
 10
-2.0215686885
 20
-12.3164538107
 30
0.0
 10
-2.0226145385
 20
-12.3348299323
 30
0.0
 10
-2.0231905215
 20
-12.3478804839
 30
0.0
 10
-2.0232775856
 20
-12.3559607017
 30
0.0
 10
-2.0232652074
 20
-12.3601996534
 30
0.0
 10
-2.0229617299
 20
-12.3626178508
 30
0.0
 10
-2.0228258672
 20
-12.3641682272
 30
0.0
 10
-2.0224805452
 20
-12.3643453504
 30
0.0
  0
SPLINE
  5
680
100
AcDbEntity
  8
RACCORDO
100
AcDbSpline
 62
7
  6
CONTINUOUS
 70
0
 71
3
 72
18
 73
14
 74
0
 42
0.0000001
 43
0.0000001
 44
0.0000000001
 40
0.0
 40
0.0
 40
0.0
 40
0.0
 40
0.0040692609
 40
0.015920798
 40
0.0382092293
 40
0.0735682786
 40
0.1242810709
 40
0.1898516619
 40
0.3527006338
 40
0.5264861353
 40
0.693891341
 40
0.8516673101
 40
1.0
 40
1.0
 40
1.0
 40
1.0
 10
-1.9376055016
 20
-11.438912629
 30
0.0
 10
-1.9381065721
 20
-11.4386884643
 30
0.0
 10
-1.9398784498
 20
-11.4411466588
 30
0.0
 10
-1.9407923781
 20
-11.4454882328
 30
0.0
 10
-1.9432584593
 20
-11.4550203275
 30
0.0
 10
-1.9455770655
 20
-11.4692229842
 30
0.0
 10
-1.9486953234
 20
-11.4895430386
 30
0.0
 10
-1.9535780596
 20
-11.5268291168
 30
0.0
 10
-1.9597142069
 20
-11.5807715378
 30
0.0
 10
-1.9665569379
 20
-11.6484090415
 30
0.0
 10
-1.9727939192
 20
-11.7154316159
 30
0.0
 10
-1.9783302514
 20
-11.7790659816
 30
0.0
 10
-1.9817094037
 20
-11.8202206809
 30
0.0
 10
-1.9833030368
 20
-11.8401666275
 30
0.0
  0
SPLINE
  5
681
100
AcDbEntity
  8
RACCORDO
100
AcDbSpline
 62
7
  6
CONTINUOUS
 70
0
 71
3
 72
16
 73
12
 74
0
 42
0.0000001
 43
0.0000001
 44
0.0000000001
 40
0.0
 40
0.0
 40
0.0
 40
0.0
 40
0.0079752026
 40
0.0262765573
 40
0.0546667328
 40
0.0925830143
 40
0.1937061686
 40
0.3221109833
 40
0.4712296966
 40
0.6363049819
 40
1.0
 40
1.0
 40
1.0
 40
1.0
 10
2.0224806314
 20
-12.364345457
 30
0.0
 10
2.0228259531
 20
-12.3641683329
 30
0.0
 10
2.0229618147
 20
-12.3626179565
 30
0.0
 10
2.0232652921
 20
-12.3601997576
 30
0.0
 10
2.0232776694
 20
-12.3559608052
 30
0.0
 10
2.0231906048
 20
-12.3478805859
 30
0.0
 10
2.0226146211
 20
-12.334830033
 30
0.0
 10
2.0215687709
 20
-12.31645391
 30
0.0
 10
2.0201222892
 20
-12.2949570797
 30
0.0
 10
2.017704212
 20
-12.2620603472
 30
0.0
 10
2.0156359886
 20
-12.2364105112
 30
0.0
 10
2.0141676292
 20
-12.2187730046
 30
0.0
  0
SPLINE
  5
682
100
AcDbEntity
  8
RACCORDO
100
AcDbSpline
 62
7
  6
CONTINUOUS
 70
0
 71
3
 72
18
 73
14
 74
0
 42
0.0000001
 43
0.0000001
 44
0.0000000001
 40
0.0
 40
0.0
 40
0.0
 40
0.0
 40
0.1483327968
 40
0.306110561
 40
0.4735185315
 40
0.6473212596
 40
0.8101844826
 40
0.875749064
 40
0.9264364505
 40
0.9618058034
 40
0.984081334
 40
0.9959288059
 40
1.0
 40
1.0
 40
1.0
 40
1.0
 10
1.9833031249
 20
-11.8401665104
 30
0.0
 10
1.9817094933
 20
-11.8202205656
 30
0.0
 10
1.9783303148
 20
-11.7790656454
 30
0.0
 10
1.9727939984
 20
-11.7154306987
 30
0.0
 10
1.9665565557
 20
-11.6484052717
 30
0.0
 10
1.9597141047
 20
-11.5807631579
 30
0.0
 10
1.9535756437
 20
-11.5268175497
 30
0.0
 10
1.9486951146
 20
-11.4895336344
 30
0.0
 10
1.9455753314
 20
-11.4692165281
 30
0.0
 10
1.9432580422
 20
-11.4550179925
 30
0.0
 10
1.9407929344
 20
-11.4454858505
 30
0.0
 10
1.9398773621
 20
-11.4411478444
 30
0.0
 10
1.9381069267
 20
-11.438688208
 30
0.0
 10
1.9376056186
 20
-11.4389124793
 30
0.0
  0
SPLINE
  5
683
100
AcDbEntity
  8
RACCORDO
100
AcDbSpline
 62
250
  6
CONTINUOUS
 70
0
 71
3
 72
11
 73
7
 74
0
 42
0.0000001
 43
0.0000001
 44
0.0000000001
 40
0.0
 40
0.0
 40
0.0
 40
0.0
 40
0.2519751213
 40
0.5026722462
 40
0.7517656157
 40
1.0
 40
1.0
 40
1.0
 40
1.0
 10
3.6829152716
 20
-13.8514886593
 30
0.0
 10
3.7239219061
 20
-13.8493393003
 30
0.0
 10
3.8058305581
 20
-13.8276728256
 30
0.0
 10
3.9040784928
 20
-13.7488729283
 30
0.0
 10
3.9624973532
 20
-13.6380880118
 30
0.0
 10
3.968835307
 20
-13.5546465566
 30
0.0
 10
3.9637907
 20
-13.5145090063
 30
0.0
  0
SPLINE
  5
684
100
AcDbEntity
  8
RACCORDO
100
AcDbSpline
 62
250
  6
CONTINUOUS
 70
0
 71
3
 72
11
 73
7
 74
0
 42
0.0000001
 43
0.0000001
 44
0.0000000001
 40
0.0
 40
0.0
 40
0.0
 40
0.0
 40
0.287570405
 40
0.5540607567
 40
0.7895285206
 40
1.0
 40
1.0
 40
1.0
 40
1.0
 10
3.3085175686
 20
-13.533010473
 30
0.0
 10
3.3123595939
 20
-13.5694829437
 30
0.0
 10
3.3288540558
 20
-13.6392172421
 30
0.0
 10
3.3790199289
 20
-13.7282495524
 30
0.0
 10
3.4494228591
 20
-13.7893823719
 30
0.0
 10
3.5074410394
 20
-13.8038413849
 30
0.0
 10
3.5342664558
 20
-13.8029055719
 30
0.0
  0
SPLINE
  5
685
100
AcDbEntity
  8
RACCORDO
100
AcDbSpline
 62
250
  6
CONTINUOUS
 70
0
 71
3
 72
11
 73
7
 74
0
 42
0.0000001
 43
0.0000001
 44
0.0000000001
 40
0.0
 40
0.0
 40
0.0
 40
0.0
 40
0.2106113459
 40
0.4460058107
 40
0.7123371474
 40
1.0
 40
1.0
 40
1.0
 40
1.0
 10
2.8813549411
 20
-13.8485285131
 30
0.0
 10
2.8547509966
 20
-13.8494560174
 30
0.0
 10
2.7972474953
 20
-13.8352497646
 30
0.0
 10
2.7272190057
 20
-13.7750046742
 30
0.0
 10
2.6770142589
 20
-13.6870725978
 30
0.0
 10
2.6601983086
 20
-13.6180936855
 30
0.0
 10
2.6561039863
 20
-13.5819659569
 30
0.0
  0
SPLINE
  5
686
100
AcDbEntity
  8
RACCORDO
100
AcDbSpline
 62
250
  6
CONTINUOUS
 70
0
 71
3
 72
11
 73
7
 74
0
 42
0.0000001
 43
0.0000001
 44
0.0000000001
 40
0.0
 40
0.0
 40
0.0
 40
0.0
 40
0.2481095114
 40
0.4971662468
 40
0.7478920004
 40
1.0
 40
1.0
 40
1.0
 40
1.0
 10
-3.9637907135
 20
-13.5145090186
 30
0.0
 10
-3.9688336635
 20
-13.554626258
 30
0.0
 10
-3.9625057182
 20
-13.6380385517
 30
0.0
 10
-3.9041246934
 20
-13.7488170602
 30
0.0
 10
-3.8058788334
 20
-13.8276542488
 30
0.0
 10
-3.7239434723
 20
-13.8493372498
 30
0.0
 10
-3.6829152705
 20
-13.8514886584
 30
0.0
  0
SPLINE
  5
687
100
AcDbEntity
  8
RACCORDO
100
AcDbSpline
 62
250
  6
CONTINUOUS
 70
0
 71
3
 72
11
 73
7
 74
0
 42
0.0000001
 43
0.0000001
 44
0.0000000001
 40
0.0
 40
0.0
 40
0.0
 40
0.0
 40
0.2104714143
 40
0.4459391673
 40
0.712429544
 40
1.0
 40
1.0
 40
1.0
 40
1.0
 10
-3.5342664356
 20
-13.8029055733
 30
0.0
 10
-3.5074410347
 20
-13.8038413858
 30
0.0
 10
-3.4494228801
 20
-13.7893823582
 30
0.0
 10
-3.3790200049
 20
-13.7282495237
 30
0.0
 10
-3.3288541751
 20
-13.6392172124
 30
0.0
 10
-3.3123597289
 20
-13.5694829212
 30
0.0
 10
-3.3085177057
 20
-13.5330104534
 30
0.0
  0
SPLINE
  5
688
100
AcDbEntity
  8
RACCORDO
100
AcDbSpline
 62
250
  6
CONTINUOUS
 70
0
 71
3
 72
13
 73
9
 74
0
 42
0.0000001
 43
0.0000001
 44
0.0000000001
 40
0.0
 40
0.0
 40
0.0
 40
0.0
 40
0.2868269063
 40
0.5523842863
 40
0.6745337619
 40
0.788207599
 40
0.8943353229
 40
1.0
 40
1.0
 40
1.0
 40
1.0
 10
-2.6561039863
 20
-13.5819659569
 30
0.0
 10
-2.6612555119
 20
-13.6179581493
 30
0.0
 10
-2.6765547122
 20
-13.6870164433
 30
0.0
 10
-2.7200732992
 20
-13.7627109454
 30
0.0
 10
-2.7655636343
 20
-13.8075502541
 30
0.0
 10
-2.8018983692
 20
-13.8317447806
 30
0.0
 10
-2.8408441957
 20
-13.8465630716
 30
0.0
 10
-2.8679696874
 20
-13.8490221557
 30
0.0
 10
-2.8813549411
 20
-13.8485285131
 30
0.0
  0
SPLINE
  5
689
100
AcDbEntity
  8
RACCORDO
100
AcDbSpline
 62
250
  6
CONTINUOUS
 70
0
 71
3
 72
11
 73
7
 74
0
 42
0.0000001
 43
0.0000001
 44
0.0000000001
 40
0.0
 40
0.0
 40
0.0
 40
0.0
 40
0.2104714634
 40
0.4459392583
 40
0.7124296069
 40
1.0
 40
1.0
 40
1.0
 40
1.0
 10
-2.1397353949
 20
-11.1801741382
 30
0.0
 10
-2.1239589914
 20
-11.201890109
 30
0.0
 10
-2.103502731
 20
-11.2580747445
 30
0.0
 10
-2.1148153735
 20
-11.350626431
 30
0.0
 10
-2.1605741385
 20
-11.4420020202
 30
0.0
 10
-2.2091629095
 20
-11.4946714439
 30
0.0
 10
-2.237251519
 20
-11.5182517667
 30
0.0
  0
SPLINE
  5
68A
100
AcDbEntity
  8
RACCORDO
100
AcDbSpline
 62
250
  6
CONTINUOUS
 70
0
 71
3
 72
11
 73
7
 74
0
 42
0.0000001
 43
0.0000001
 44
0.0000000001
 40
0.0
 40
0.0
 40
0.0
 40
0.0
 40
0.2875703171
 40
0.5540606295
 40
0.7895284519
 40
1.0
 40
1.0
 40
1.0
 40
1.0
 10
2.2372514335
 20
-11.5182518753
 30
0.0
 10
2.2091628245
 20
-11.4946715506
 30
0.0
 10
2.1605740556
 20
-11.4420021149
 30
0.0
 10
2.1148153116
 20
-11.3506264924
 30
0.0
 10
2.1035027067
 20
-11.2580747644
 30
0.0
 10
2.1239589924
 20
-11.2018901076
 30
0.0
 10
2.1397354073
 20
-11.1801741223
 30
0.0
  0
SPLINE
  5
68B
100
AcDbEntity
  8
RACCORDO
100
AcDbSpline
 62
250
  6
CONTINUOUS
 70
0
 71
3
 72
14
 73
10
 74
0
 42
0.0000001
 43
0.0000001
 44
0.0000000001
 40
0.0
 40
0.0
 40
0.0
 40
0.0
 40
0.3859457099
 40
0.5573987296
 40
0.7066905362
 40
0.829049415
 40
0.9206198658
 40
0.9781635431
 40
1.0
 40
1.0
 40
1.0
 40
1.0
 10
3.6933808724
 20
-14.0302784575
 30
0.0
 10
3.6921594714
 20
-14.0072696977
 30
0.0
 10
3.6903726101
 20
-13.974039081
 30
0.0
 10
3.688001026
 20
-13.9319197878
 30
0.0
 10
3.6865276425
 20
-13.9054984649
 30
0.0
 10
3.6851230933
 20
-13.8838834068
 30
0.0
 10
3.6843928072
 20
-13.8676327528
 30
0.0
 10
3.6831661006
 20
-13.8575914654
 30
0.0
 10
3.6833723907
 20
-13.8527095403
 30
0.0
 10
3.6829152753
 20
-13.8514886625
 30
0.0
  0
SPLINE
  5
68C
100
AcDbEntity
  8
RACCORDO
100
AcDbSpline
 62
250
  6
CONTINUOUS
 70
0
 71
3
 72
14
 73
10
 74
0
 42
0.0000001
 43
0.0000001
 44
0.0000000001
 40
0.0
 40
0.0
 40
0.0
 40
0.0
 40
0.372610466
 40
0.5420566856
 40
0.6914172657
 40
0.8152758488
 40
0.9093693144
 40
0.9705743726
 40
1.0
 40
1.0
 40
1.0
 40
1.0
 10
4.1622770181
 20
-13.4692924717
 30
0.0
 10
4.1369594858
 20
-13.4724058025
 30
0.0
 10
4.1001960782
 20
-13.47763497
 30
0.0
 10
4.0536131754
 20
-13.4859087908
 30
0.0
 10
4.0238740918
 20
-13.4920653327
 30
0.0
 10
3.9996042808
 20
-13.4979854726
 30
0.0
 10
3.9809196329
 20
-13.5037532354
 30
0.0
 10
3.9699987126
 20
-13.5082681912
 30
0.0
 10
3.9638791417
 20
-13.5124965699
 30
0.0
 10
3.9637907537
 20
-13.5145090551
 30
0.0
  0
SPLINE
  5
68D
100
AcDbEntity
  8
RACCORDO
100
AcDbSpline
 62
250
  6
CONTINUOUS
 70
0
 71
3
 72
16
 73
12
 74
0
 42
0.0000001
 43
0.0000001
 44
0.0000000001
 40
0.0
 40
0.0
 40
0.0
 40
0.0
 40
0.3703321144
 40
0.5409180779
 40
0.6920479992
 40
0.8176544198
 40
0.9128390893
 40
0.9476957699
 40
0.973709589
 40
0.9908959925
 40
1.0
 40
1.0
 40
1.0
 40
1.0
 10
2.7514366207
 20
-10.8210377849
 30
0.0
 10
2.7337421004
 20
-10.8411742567
 30
0.0
 10
2.7082833277
 20
-10.8709320443
 30
0.0
 10
2.6766051238
 20
-10.9097365501
 30
0.0
 10
2.6565829205
 20
-10.935192685
 30
0.0
 10
2.640470711
 20
-10.9567459866
 30
0.0
 10
2.6298928318
 20
-10.97197659
 30
0.0
 10
2.6240124268
 20
-10.981579504
 30
0.0
 10
2.621353467
 20
-10.9866529254
 30
0.0
 10
2.6199823401
 20
-10.9900313533
 30
0.0
 10
2.6197013606
 20
-10.9921745837
 30
0.0
 10
2.6200767906
 20
-10.9927161704
 30
0.0
  0
SPLINE
  5
68E
100
AcDbEntity
  8
RACCORDO
100
AcDbSpline
 62
250
  6
CONTINUOUS
 70
0
 71
3
 72
15
 73
11
 74
0
 42
0.0000001
 43
0.0000001
 44
0.0000000001
 40
0.0
 40
0.0
 40
0.0
 40
0.0
 40
0.3704986215
 40
0.5406313767
 40
0.6911882546
 40
0.8162792447
 40
0.9111861421
 40
0.9722314333
 40
0.989884439
 40
1.0
 40
1.0
 40
1.0
 40
1.0
 10
2.0237589656
 20
-10.8969048719
 30
0.0
 10
2.0449835779
 20
-10.9127722408
 30
0.0
 10
2.075590111
 20
-10.9364191547
 30
0.0
 10
2.1138567096
 20
-10.9677324796
 30
0.0
 10
2.1380718469
 20
-10.9884607713
 30
0.0
 10
2.1577201742
 20
-11.0063109693
 30
0.0
 10
2.1719313111
 20
-11.0204150671
 30
0.0
 10
2.1801641814
 20
-11.0299608129
 30
0.0
 10
2.1833230318
 20
-11.0353335286
 30
0.0
 10
2.1837703038
 20
-11.0375008076
 30
0.0
 10
2.1834617429
 20
-11.038155234
 30
0.0
  0
SPLINE
  5
68F
100
AcDbEntity
  8
RACCORDO
100
AcDbSpline
 62
250
  6
CONTINUOUS
 70
0
 71
3
 72
14
 73
10
 74
0
 42
0.0000001
 43
0.0000001
 44
0.0000000001
 40
0.0
 40
0.0
 40
0.0
 40
0.0
 40
0.3859456998
 40
0.5573987159
 40
0.7066905241
 40
0.8290494066
 40
0.9206198612
 40
0.9781635409
 40
1.0
 40
1.0
 40
1.0
 40
1.0
 10
-3.6933808724
 20
-14.0302784575
 30
0.0
 10
-3.6921594723
 20
-14.0072696983
 30
0.0
 10
-3.6903726121
 20
-13.9740390822
 30
0.0
 10
-3.6880010274
 20
-13.9319197899
 30
0.0
 10
-3.6865276435
 20
-13.9054984667
 30
0.0
 10
-3.6851230931
 20
-13.8838834086
 30
0.0
 10
-3.6843928089
 20
-13.8676327528
 30
0.0
 10
-3.6831660975
 20
-13.8575914671
 30
0.0
 10
-3.6833723912
 20
-13.8527095394
 30
0.0
 10
-3.6829152727
 20
-13.8514886626
 30
0.0
  0
SPLINE
  5
690
100
AcDbEntity
  8
RACCORDO
100
AcDbSpline
 62
250
  6
CONTINUOUS
 70
0
 71
3
 72
14
 73
10
 74
0
 42
0.0000001
 43
0.0000001
 44
0.0000000001
 40
0.0
 40
0.0
 40
0.0
 40
0.0
 40
0.3726123783
 40
0.5420592439
 40
0.6914201294
 40
0.815278599
 40
0.9093714779
 40
0.9705755008
 40
1.0
 40
1.0
 40
1.0
 40
1.0
 10
-4.1622770182
 20
-13.4692924724
 30
0.0
 10
-4.1369593341
 20
-13.4724058215
 30
0.0
 10
-4.1001957207
 20
-13.4776350232
 30
0.0
 10
-4.05361259
 20
-13.4859088985
 30
0.0
 10
-4.0238734237
 20
-13.4920654878
 30
0.0
 10
-3.9996036382
 20
-13.4979856249
 30
0.0
 10
-3.9809190702
 20
-13.5037534735
 30
0.0
 10
-3.9699983885
 20
-13.5082682854
 30
0.0
 10
-3.9638789404
 20
-13.5124968469
 30
0.0
 10
-3.9637907445
 20
-13.514509265
 30
0.0
  0
SPLINE
  5
691
100
AcDbEntity
  8
RACCORDO
100
AcDbSpline
 62
250
  6
CONTINUOUS
 70
0
 71
3
 72
16
 73
12
 74
0
 42
0.0000001
 43
0.0000001
 44
0.0000000001
 40
0.0
 40
0.0
 40
0.0
 40
0.0
 40
0.3703330215
 40
0.5409193049
 40
0.6920493923
 40
0.8176557806
 40
0.9128401843
 40
0.9476966399
 40
0.9737101834
 40
0.9908962707
 40
1.0
 40
1.0
 40
1.0
 40
1.0
 10
-2.7514366228
 20
-10.8210377867
 30
0.0
 10
-2.7337420531
 20
-10.8411743125
 30
0.0
 10
-2.7082832154
 20
-10.870932176
 30
0.0
 10
-2.6766049432
 20
-10.909736774
 30
0.0
 10
-2.6565827194
 20
-10.9351929465
 30
0.0
 10
-2.6404705179
 20
-10.9567462505
 30
0.0
 10
-2.6298926691
 20
-10.9719768379
 30
0.0
 10
-2.6240123041
 20
-10.9815797117
 30
0.0
 10
-2.6213533922
 20
-10.9866530998
 30
0.0
 10
-2.619982297
 20
-10.9900314616
 30
0.0
 10
-2.6197013745
 20
-10.9921746796
 30
0.0
 10
-2.6200768284
 20
-10.9927162255
 30
0.0
  0
SPLINE
  5
692
100
AcDbEntity
  8
RACCORDO
100
AcDbSpline
 62
250
  6
CONTINUOUS
 70
0
 71
3
 72
15
 73
11
 74
0
 42
0.0000001
 43
0.0000001
 44
0.0000000001
 40
0.0
 40
0.0
 40
0.0
 40
0.0
 40
0.3704986684
 40
0.5406314382
 40
0.6911883065
 40
0.816279276
 40
0.9111861548
 40
0.9722314359
 40
0.9898844377
 40
1.0
 40
1.0
 40
1.0
 40
1.0
 10
-2.0237589656
 20
-10.8969048719
 30
0.0
 10
-2.0449835847
 20
-10.912772238
 30
0.0
 10
-2.0755901253
 20
-10.9364191503
 30
0.0
 10
-2.1138567262
 20
-10.9677324794
 30
0.0
 10
-2.1380718601
 20
-10.988460774
 30
0.0
 10
-2.1577201826
 20
-11.0063109726
 30
0.0
 10
-2.1719313149
 20
-11.0204150705
 30
0.0
 10
-2.1801641824
 20
-11.0299608155
 30
0.0
 10
-2.1833230309
 20
-11.035333532
 30
0.0
 10
-2.1837703014
 20
-11.0375008108
 30
0.0
 10
-2.1834617404
 20
-11.0381552373
 30
0.0
  0
SPLINE
  5
693
100
AcDbEntity
  8
RACCORDO
100
AcDbSpline
 62
250
  6
CONTINUOUS
 70
0
 71
3
 72
14
 73
10
 74
0
 42
0.0000001
 43
0.0000001
 44
0.0000000001
 40
0.0
 40
0.0
 40
0.0
 40
0.0
 40
0.4197344843
 40
0.5909149195
 40
0.73386204
 40
0.8472279663
 40
0.9298970246
 40
0.9809692853
 40
1.0
 40
1.0
 40
1.0
 40
1.0
 10
-9.811693777
 20
-11.4032940408
 30
0.0
 10
-9.7942531266
 20
-11.4032220354
 30
0.0
 10
-9.7696967795
 20
-11.403112755
 30
0.0
 10
-9.7392106475
 20
-11.4028840851
 30
0.0
 10
-9.721433961
 20
-11.4027756824
 30
0.0
 10
-9.7073868696
 20
-11.4025018577
 30
0.0
 10
-9.6970330795
 20
-11.4026160668
 30
0.0
 10
-9.6908460813
 20
-11.4019701619
 30
0.0
 10
-9.6877587958
 20
-11.4023955056
 30
0.0
 10
-9.687050838
 20
-11.4020432226
 30
0.0
  0
SPLINE
  5
694
100
AcDbEntity
  8
RACCORDO
100
AcDbSpline
 62
250
  6
CONTINUOUS
 70
0
 71
3
 72
14
 73
10
 74
0
 42
0.0000001
 43
0.0000001
 44
0.0000000001
 40
0.0
 40
0.0
 40
0.0
 40
0.0
 40
0.0190206375
 40
0.0700786249
 40
0.1527314092
 40
0.2660753404
 40
0.4090108907
 40
0.5802163787
 40
1.0
 40
1.0
 40
1.0
 40
1.0
 10
9.687050838
 20
-11.4020432226
 30
0.0
 10
9.6877583869
 20
-11.4023953875
 30
0.0
 10
9.6908446523
 20
-11.4019703114
 30
0.0
 10
9.697029946
 20
-11.4026159429
 30
0.0
 10
9.7073815714
 20
-11.4025017749
 30
0.0
 10
9.7214265821
 20
-11.4027756128
 30
0.0
 10
9.7392029215
 20
-11.4028840154
 30
0.0
 10
9.7696916518
 20
-11.4031127173
 30
0.0
 10
9.7942510842
 20
-11.4032220654
 30
0.0
 10
9.811693777
 20
-11.4032940408
 30
0.0
  0
SPLINE
  5
695
100
AcDbEntity
  8
RACCORDO
100
AcDbSpline
 62
250
  6
CONTINUOUS
 70
0
 71
3
 72
11
 73
7
 74
0
 42
0.0000001
 43
0.0000001
 44
0.0000000001
 40
0.0
 40
0.0
 40
0.0
 40
0.0
 40
0.2063908181
 40
0.4409676824
 40
0.7097521212
 40
1.0
 40
1.0
 40
1.0
 40
1.0
 10
-9.9493646921
 20
-11.2033016562
 30
0.0
 10
-9.9311157229
 20
-11.2034694645
 30
0.0
 10
-9.8918251818
 20
-11.2161112341
 30
0.0
 10
-9.8472778138
 20
-11.2627894597
 30
0.0
 10
-9.8185093963
 20
-11.3279324275
 30
0.0
 10
-9.8118056784
 20
-11.377629633
 30
0.0
 10
-9.8116938472
 20
-11.4032940414
 30
0.0
  0
SPLINE
  5
696
100
AcDbEntity
  8
RACCORDO
100
AcDbSpline
 62
250
  6
CONTINUOUS
 70
0
 71
3
 72
11
 73
7
 74
0
 42
0.0000001
 43
0.0000001
 44
0.0000000001
 40
0.0
 40
0.0
 40
0.0
 40
0.0
 40
0.2063908514
 40
0.4409676819
 40
0.7097520854
 40
1.0
 40
1.0
 40
1.0
 40
1.0
 10
9.9493646921
 20
-11.2033016562
 30
0.0
 10
9.931115721
 20
-11.2034694645
 30
0.0
 10
9.8918251805
 20
-11.216111234
 30
0.0
 10
9.8472778317
 20
-11.2627894761
 30
0.0
 10
9.8185094693
 20
-11.3279324525
 30
0.0
 10
9.8118056698
 20
-11.3776296309
 30
0.0
 10
9.811693777
 20
-11.4032940408
 30
0.0
  0
SPLINE
  5
697
100
AcDbEntity
  8
RACCORDO
100
AcDbSpline
 62
250
  6
CONTINUOUS
 70
0
 71
3
 72
10
 73
6
 74
0
 42
0.0000001
 43
0.0000001
 44
0.0000000001
 40
0.0
 40
0.0
 40
0.0
 40
0.0
 40
0.1114817052
 40
0.314181638
 40
1.0
 40
1.0
 40
1.0
 40
1.0
 10
9.7237761007
 20
-25.1236732864
 30
0.0
 10
9.7232681914
 20
-25.1230383885
 30
0.0
 10
9.7225993967
 20
-25.120761401
 30
0.0
 10
9.7211096846
 20
-25.1136985474
 30
0.0
 10
9.7204649737
 20
-25.1071904331
 30
0.0
 10
9.7199738409
 20
-25.1022127811
 30
0.0
  0
SPLINE
  5
698
100
AcDbEntity
  8
RACCORDO
100
AcDbSpline
 62
250
  6
CONTINUOUS
 70
0
 71
3
 72
10
 73
6
 74
0
 42
0.0000001
 43
0.0000001
 44
0.0000000001
 40
0.0
 40
0.0
 40
0.0
 40
0.0
 40
0.6857999798
 40
0.8885099316
 40
1.0
 40
1.0
 40
1.0
 40
1.0
 10
-9.7199738409
 20
-25.1022127811
 30
0.0
 10
-9.7204649622
 20
-25.1071902985
 30
0.0
 10
-9.7211096109
 20
-25.1136983632
 30
0.0
 10
-9.7225993869
 20
-25.1207611939
 30
0.0
 10
-9.7232681606
 20
-25.1230383352
 30
0.0
 10
-9.7237761007
 20
-25.1236732864
 30
0.0
  0
SPLINE
  5
699
100
AcDbEntity
  8
RACCORDO
100
AcDbSpline
 62
250
  6
CONTINUOUS
 70
0
 71
3
 72
11
 73
7
 74
0
 42
0.0000001
 43
0.0000001
 44
0.0000000001
 40
0.0
 40
0.0
 40
0.0
 40
0.0
 40
0.252307357
 40
0.5035248029
 40
0.7526819718
 40
1.0
 40
1.0
 40
1.0
 40
1.0
 10
9.668887889
 20
-24.6880204493
 30
0.0
 10
9.6948074536
 20
-24.6878825645
 30
0.0
 10
9.7470191109
 20
-24.6775441144
 30
0.0
 10
9.8132560916
 20
-24.6341230898
 30
0.0
 10
9.8579537409
 20
-24.5692944524
 30
0.0
 10
9.8686782005
 20
-24.517788063
 30
0.0
 10
9.868819354
 20
-24.4923810854
 30
0.0
  0
SPLINE
  5
69A
100
AcDbEntity
  8
RACCORDO
100
AcDbSpline
 62
250
  6
CONTINUOUS
 70
0
 71
3
 72
11
 73
7
 74
0
 42
0.0000001
 43
0.0000001
 44
0.0000000001
 40
0.0
 40
0.0
 40
0.0
 40
0.0
 40
0.2473180282
 40
0.496475197
 40
0.747692643
 40
1.0
 40
1.0
 40
1.0
 40
1.0
 10
9.9199053059
 20
-24.9065734171
 30
0.0
 10
9.9197641524
 20
-24.9319803947
 30
0.0
 10
9.9090396928
 20
-24.9834867841
 30
0.0
 10
9.8643420435
 20
-25.0483154215
 30
0.0
 10
9.7981050628
 20
-25.0917364461
 30
0.0
 10
9.7458934055
 20
-25.1020748962
 30
0.0
 10
9.7199738409
 20
-25.1022127811
 30
0.0
  0
SPLINE
  5
69B
100
AcDbEntity
  8
RACCORDO
100
AcDbSpline
 62
250
  6
CONTINUOUS
 70
0
 71
3
 72
11
 73
7
 74
0
 42
0.0000001
 43
0.0000001
 44
0.0000000001
 40
0.0
 40
0.0
 40
0.0
 40
0.0
 40
0.2473180282
 40
0.4964751971
 40
0.747692643
 40
1.0
 40
1.0
 40
1.0
 40
1.0
 10
-9.9199053059
 20
-24.9065734171
 30
0.0
 10
-9.9197641524
 20
-24.9319803947
 30
0.0
 10
-9.9090396928
 20
-24.9834867841
 30
0.0
 10
-9.8643420435
 20
-25.0483154215
 30
0.0
 10
-9.7981050628
 20
-25.0917364461
 30
0.0
 10
-9.7458934055
 20
-25.1020748962
 30
0.0
 10
-9.7199738409
 20
-25.1022127811
 30
0.0
  0
SPLINE
  5
69C
100
AcDbEntity
  8
RACCORDO
100
AcDbSpline
 62
250
  6
CONTINUOUS
 70
0
 71
3
 72
11
 73
7
 74
0
 42
0.0000001
 43
0.0000001
 44
0.0000000001
 40
0.0
 40
0.0
 40
0.0
 40
0.0
 40
0.2473180282
 40
0.496475197
 40
0.7476926429
 40
1.0
 40
1.0
 40
1.0
 40
1.0
 10
-9.868819354
 20
-24.4923810854
 30
0.0
 10
-9.8686782006
 20
-24.517788063
 30
0.0
 10
-9.8579537409
 20
-24.5692944523
 30
0.0
 10
-9.8132560916
 20
-24.6341230898
 30
0.0
 10
-9.7470191109
 20
-24.6775441144
 30
0.0
 10
-9.6948074536
 20
-24.6878825645
 30
0.0
 10
-9.668887889
 20
-24.6880204493
 30
0.0
  0
ELLIPSE
  5
69D
100
AcDbEntity
  8
RACCORDO
100
AcDbEllipse
 62
7
  6
CONTINUOUS
 10
11.0816698549
 20
-21.3675103668
 30
0.0
 11
-0.0
 21
0.3
 31
0.0
 40
0.0261859216
 41
-2.2689280276
 42
-1.5707963268
  0
ELLIPSE
  5
69E
100
AcDbEntity
  8
RACCORDO
100
AcDbEllipse
 62
7
  6
CONTINUOUS
 10
11.2204552392
 20
-19.196450535
 30
0.0
 11
-0.0
 21
5.0
 31
0.0
 40
0.0261859216
 41
1.4922565105
 42
1.5707963268
  0
ELLIPSE
  5
69F
100
AcDbEntity
  8
RACCORDO
100
AcDbEllipse
 62
7
  6
CONTINUOUS
 10
10.9690703922
 20
-13.7210675705
 30
0.0
 11
-0.0
 21
5.0
 31
0.0
 40
0.0261859216
 41
-1.6493361431
 42
-1.5707963268
  0
ELLIPSE
  5
6A0
100
AcDbEntity
  8
RACCORDO
100
AcDbEllipse
 62
7
  6
CONTINUOUS
 10
-10.9690703922
 20
-13.7210675705
 30
0.0
 11
-0.0
 21
5.0
 31
0.0
 40
0.0261859216
 41
-4.7123889804
 42
-4.633849164
  0
ELLIPSE
  5
6A1
100
AcDbEntity
  8
RACCORDO
100
AcDbEllipse
 62
7
  6
CONTINUOUS
 10
-11.2204552392
 20
-19.196450535
 30
0.0
 11
-0.0
 21
5.0
 31
0.0
 40
0.0261859216
 41
-1.5707963268
 42
-1.4922565105
  0
ELLIPSE
  5
6A2
100
AcDbEntity
  8
RACCORDO
100
AcDbEllipse
 62
7
  6
CONTINUOUS
 10
-11.0816698549
 20
-21.3675103668
 30
0.0
 11
-0.0
 21
0.3
 31
0.0
 40
0.0261859216
 41
-4.7123889804
 42
-4.0142572796
  0
ELLIPSE
  5
6A3
100
AcDbEntity
  8
RACCORDO
100
AcDbEllipse
 62
7
  6
CONTINUOUS
 10
-10.5998286038
 20
25.8998286038
 30
0.0
 11
-0.35379574
 21
0.35379574
 31
0.0
 40
0.999315002
 41
-0.7850555471
 42
0.7850555471
  0
ELLIPSE
  5
6A4
100
AcDbEntity
  8
RACCORDO
100
AcDbEllipse
 62
7
  6
CONTINUOUS
 10
10.5998286038
 20
25.8998286038
 30
0.0
 11
-0.35379574
 21
-0.35379574
 31
0.0
 40
0.999315002
 41
2.3565371065
 42
3.9266482006
  0
ELLIPSE
  5
6A5
100
AcDbEntity
  8
RACCORDO
100
AcDbEllipse
 62
7
  6
CONTINUOUS
 10
10.0712940215
 20
-16.2710798904
 30
0.0
 11
0.2000013235
 21
-0.0000102573
 31
0.0
 40
0.1226569831
 41
-2.3557448212
 42
-1.5703782017
  0
ELLIPSE
  5
6A6
100
AcDbEntity
  8
RACCORDO
100
AcDbEllipse
 62
7
  6
CONTINUOUS
 10
-10.0712940215
 20
-16.2710798904
 30
0.0
 11
0.2000013235
 21
0.0000102573
 31
0.0
 40
0.1226569831
 41
-1.5712144519
 42
-0.7858478324
  0
ELLIPSE
  5
6A7
100
AcDbEntity
  8
RACCORDO
100
AcDbEllipse
 62
7
  6
CONTINUOUS
 10
10.5684054979
 20
-25.8684054979
 30
0.0
 11
0.35379574
 21
-0.35379574
 31
0.0
 40
0.999315002
 41
-0.7850555471
 42
0.7850555471
  0
ELLIPSE
  5
6A8
100
AcDbEntity
  8
RACCORDO
100
AcDbEllipse
 62
7
  6
CONTINUOUS
 10
-10.5684054979
 20
-25.8684054979
 30
0.0
 11
0.35379574
 21
0.35379574
 31
0.0
 40
0.999315002
 41
2.3565371065
 42
3.9266482006
  0
ELLIPSE
  5
6A9
100
AcDbEntity
  8
RACCORDO
100
AcDbEllipse
 62
7
  6
CONTINUOUS
 10
-5.0749695344
 20
-24.8750877668
 30
0.0
 11
0.2000304624
 21
0.0001681319
 31
0.0
 40
0.2126771505
 41
3.1414138918
 42
4.7084368534
  0
ELLIPSE
  5
6AA
100
AcDbEntity
  8
RACCORDO
100
AcDbEllipse
 62
7
  6
CONTINUOUS
 10
5.0749695344
 20
-24.8750877668
 30
0.0
 11
0.2000304624
 21
-0.0001681319
 31
0.0
 40
0.2126771505
 41
-1.5668441998
 42
0.0001787618
  0
ELLIPSE
  5
6AB
100
AcDbEntity
  8
RACCORDO
100
AcDbEllipse
 62
7
  6
CONTINUOUS
 10
-5.271508987
 20
-24.4923810854
 30
0.0
 11
0.0034149427
 21
0.1999999996
 31
0.0
 40
0.0036240113
 41
-4.4196444014
 42
-3.350733423
  0
ELLIPSE
  5
6AC
100
AcDbEntity
  8
RACCORDO
100
AcDbEllipse
 62
7
  6
CONTINUOUS
 10
5.271508987
 20
-24.4923810854
 30
0.0
 11
-0.0034149427
 21
0.1999999996
 31
0.0
 40
0.0036240113
 41
-2.9324518841
 42
-1.8635409058
  0
ELLIPSE
  5
6AD
100
AcDbEntity
  8
RACCORDO
100
AcDbEllipse
 62
7
  6
CONTINUOUS
 10
-11.0764326706
 20
-22.5392953814
 30
0.0
 11
-0.0
 21
0.3
 31
0.0
 40
0.0261859216
 41
-1.5707963268
 42
-0.872664626
  0
ELLIPSE
  5
6AE
100
AcDbEntity
  8
RACCORDO
100
AcDbEllipse
 62
7
  6
CONTINUOUS
 10
11.0764326706
 20
-22.5392953814
 30
0.0
 11
0.0
 21
0.3
 31
0.0
 40
0.0261859216
 41
0.872664626
 42
1.5707963268
  0
ELLIPSE
  5
6AF
100
AcDbEntity
  8
RACCORDO
100
AcDbEllipse
 62
7
  6
CONTINUOUS
 10
10.0909483277
 20
-16.3201430126
 30
0.0
 11
0.2000077139
 21
-0.0000247624
 31
0.0
 40
0.1226530123
 41
0.0010855627
 42
1.5718057371
  0
ELLIPSE
  5
6B0
100
AcDbEntity
  8
RACCORDO
100
AcDbEllipse
 62
7
  6
CONTINUOUS
 10
-10.0909483277
 20
-16.3201430126
 30
0.0
 11
0.2000077139
 21
0.0000247624
 31
0.0
 40
0.1226530123
 41
1.5697869165
 42
3.1405070909
  0
ELLIPSE
  5
6B1
100
AcDbEntity
  8
RACCORDO
100
AcDbEllipse
 62
7
  6
CONTINUOUS
 10
-11.0917587697
 20
18.7518769438
 30
0.0
 11
0.0
 21
0.3
 31
0.0
 40
0.0087268678
 41
-1.6493361431
 42
-0.1745329252
  0
ELLIPSE
  5
6B2
100
AcDbEntity
  8
RACCORDO
100
AcDbEllipse
 62
7
  6
CONTINUOUS
 10
-11.0941604194
 20
15.2551064905
 30
0.0
 11
-0.0
 21
0.3
 31
0.0
 40
0.0087268678
 41
-2.9670597284
 42
-1.6493361431
  0
ELLIPSE
  5
6B3
100
AcDbEntity
  8
RACCORDO
100
AcDbEllipse
 62
7
  6
CONTINUOUS
 10
-1.7102933676
 20
26.3947665708
 30
0.0
 11
0.3
 21
0.0
 31
0.0
 40
0.0087268678
 41
-3.1066860685
 42
-1.5707963268
  0
ELLIPSE
  5
6B4
100
AcDbEntity
  8
RACCORDO
100
AcDbEllipse
 62
7
  6
CONTINUOUS
 10
-11.0720740231
 20
7.5527731214
 30
0.0
 11
0.0
 21
0.3
 31
0.0
 40
0.0087268678
 41
-3.0630528373
 42
-1.5707963268
  0
ELLIPSE
  5
6B5
100
AcDbEntity
  8
RACCORDO
100
AcDbEllipse
 62
7
  6
CONTINUOUS
 10
1.7102933676
 20
26.3947665708
 30
0.0
 11
0.3
 21
0.0
 31
0.0
 40
0.0087268678
 41
-1.5707963268
 42
-0.034906585
  0
ELLIPSE
  5
6B6
100
AcDbEntity
  8
RACCORDO
100
AcDbEllipse
 62
7
  6
CONTINUOUS
 10
-11.0720740231
 20
10.4472268786
 30
0.0
 11
0.0
 21
0.3
 31
0.0
 40
0.0087268678
 41
-1.5707963268
 42
-0.0785398163
  0
ELLIPSE
  5
6B7
100
AcDbEntity
  8
RACCORDO
100
AcDbEllipse
 62
7
  6
CONTINUOUS
 10
-10.9999657208
 20
11.0592712189
 30
0.0
 11
-0.6545705536
 21
0.7570603242
 31
0.0
 40
0.9991994902
 41
-2.0636122861
 42
-2.0222327614
  0
ELLIPSE
  5
6B8
100
AcDbEntity
  8
RACCORDO
100
AcDbEllipse
 62
7
  6
CONTINUOUS
 10
10.9999657208
 20
11.0592712189
 30
0.0
 11
0.6545705536
 21
0.7570603242
 31
0.0
 40
0.9991994902
 41
-4.2609525458
 42
-4.2195730211
  0
ELLIPSE
  5
6B9
100
AcDbEntity
  8
RACCORDO
100
AcDbEllipse
 62
7
  6
CONTINUOUS
 10
11.0941604194
 20
15.2551064905
 30
0.0
 11
0.0
 21
0.3
 31
0.0
 40
0.0087268678
 41
-4.633849164
 42
-3.3161255788
  0
ELLIPSE
  5
6BA
100
AcDbEntity
  8
RACCORDO
100
AcDbEllipse
 62
7
  6
CONTINUOUS
 10
11.0917587697
 20
18.7518769438
 30
0.0
 11
-0.0
 21
0.3
 31
0.0
 40
0.0087268678
 41
0.1745329252
 42
1.6493361431
  0
ELLIPSE
  5
6BB
100
AcDbEntity
  8
RACCORDO
100
AcDbEllipse
 62
7
  6
CONTINUOUS
 10
11.0720740231
 20
7.5527731214
 30
0.0
 11
0.0
 21
0.3
 31
0.0
 40
0.0087268678
 41
-4.7123889804
 42
-3.2201324699
  0
ELLIPSE
  5
6BC
100
AcDbEntity
  8
RACCORDO
100
AcDbEllipse
 62
7
  6
CONTINUOUS
 10
11.0720740231
 20
10.4472268786
 30
0.0
 11
-0.0
 21
0.3
 31
0.0
 40
0.0087268678
 41
0.0785398163
 42
1.5707963268
  0
ELLIPSE
  5
6BD
100
AcDbEntity
  8
RACCORDO
100
AcDbEllipse
 62
7
  6
CONTINUOUS
 10
11.0308292606
 20
17.9050327642
 30
0.0
 11
0.9683010547
 21
0.2518091957
 31
0.0
 40
0.9974091799
 41
2.8857502985
 42
3.1476316333
  0
ELLIPSE
  5
6BE
100
AcDbEntity
  8
RACCORDO
100
AcDbEllipse
 62
7
  6
CONTINUOUS
 10
-11.0308292606
 20
17.9050327642
 30
0.0
 11
0.9683010547
 21
-0.2518091957
 31
0.0
 40
0.9974091799
 41
-0.0060389797
 42
0.2558423551
  0
ELLIPSE
  5
6BF
100
AcDbEntity
  8
RACCORDO
100
AcDbEllipse
 62
7
  6
CONTINUOUS
 10
9.9812927832
 20
-21.3675103668
 30
0.0
 11
-0.0
 21
0.3
 31
0.0
 40
0.0261859216
 41
-2.2689280276
 42
-1.5707963268
  0
ELLIPSE
  5
6C0
100
AcDbEntity
  8
RACCORDO
100
AcDbEllipse
 62
7
  6
CONTINUOUS
 10
10.0243516415
 20
18.7518769438
 30
0.0
 11
-0.0
 21
0.3
 31
0.0
 40
0.0261859216
 41
-1.6493361431
 42
-0.1745329252
  0
ELLIPSE
  5
6C1
100
AcDbEntity
  8
RACCORDO
100
AcDbEllipse
 62
7
  6
CONTINUOUS
 10
10.0834178773
 20
7.5527731214
 30
0.0
 11
-0.0
 21
0.3
 31
0.0
 40
0.0261859216
 41
-3.0630528373
 42
-1.5707963268
  0
ELLIPSE
  5
6C2
100
AcDbEntity
  8
RACCORDO
100
AcDbEllipse
 62
7
  6
CONTINUOUS
 10
10.0074787047
 20
11.2773171475
 30
0.0
 11
0.0
 21
0.3
 31
0.0
 40
0.0261859216
 41
-3.9083154373
 42
-3.2201324699
  0
ELLIPSE
  5
6C3
100
AcDbEntity
  8
RACCORDO
100
AcDbEllipse
 62
7
  6
CONTINUOUS
 10
11.0973819397
 20
11.2773171475
 30
0.0
 11
-0.0
 21
0.3
 31
0.0
 40
0.0087268678
 41
-3.0630528373
 42
-1.5707963268
  0
ELLIPSE
  5
6C4
100
AcDbEntity
  8
RACCORDO
100
AcDbEllipse
 62
7
  6
CONTINUOUS
 10
11.0973819397
 20
6.7226828525
 30
0.0
 11
0.0
 21
0.3
 31
0.0
 40
0.0087268678
 41
-1.5707963268
 42
-0.0785398163
  0
ELLIPSE
  5
6C5
100
AcDbEntity
  8
RACCORDO
100
AcDbEllipse
 62
7
  6
CONTINUOUS
 10
10.0074787047
 20
6.7226828525
 30
0.0
 11
0.0
 21
0.3
 31
0.0
 40
0.0261859216
 41
0.0785398163
 42
1.5707963268
  0
ELLIPSE
  5
6C6
100
AcDbEntity
  8
RACCORDO
100
AcDbEllipse
 62
7
  6
CONTINUOUS
 10
-10.0074787047
 20
6.7226828525
 30
0.0
 11
-0.0
 21
0.3
 31
0.0
 40
0.0261859216
 41
-1.5707963268
 42
-0.0785398163
  0
ELLIPSE
  5
6C7
100
AcDbEntity
  8
RACCORDO
100
AcDbEllipse
 62
7
  6
CONTINUOUS
 10
-11.0973819397
 20
6.7226828525
 30
0.0
 11
0.0
 21
0.3
 31
0.0
 40
0.0087268678
 41
0.0785398163
 42
1.5707963268
  0
ELLIPSE
  5
6C8
100
AcDbEntity
  8
RACCORDO
100
AcDbEllipse
 62
7
  6
CONTINUOUS
 10
-11.0973819397
 20
11.2773171475
 30
0.0
 11
0.0
 21
0.3
 31
0.0
 40
0.0087268678
 41
1.5707963268
 42
3.0630528372
  0
ELLIPSE
  5
6C9
100
AcDbEntity
  8
RACCORDO
100
AcDbEllipse
 62
7
  6
CONTINUOUS
 10
-10.0074787047
 20
11.2773171475
 30
0.0
 11
0.0
 21
0.3
 31
0.0
 40
0.0261859216
 41
-3.0630528372
 42
-2.3748698699
  0
ELLIPSE
  5
6CA
100
AcDbEntity
  8
RACCORDO
100
AcDbEllipse
 62
7
  6
CONTINUOUS
 10
-6.3761165119
 20
-24.8862169076
 30
0.0
 11
0.2000039215
 21
-0.0000420321
 31
0.0
 40
0.2101385281
 41
-3.1242733064
 42
-1.5697962431
  0
ELLIPSE
  5
6CB
100
AcDbEntity
  8
RACCORDO
100
AcDbEllipse
 62
7
  6
CONTINUOUS
 10
-5.6066874452
 20
-20.9888298486
 30
0.0
 11
-0.0838386807
 21
0.1821263758
 31
0.0
 40
0.9971836448
 41
-0.4303427991
 42
1.1401489412
  0
ELLIPSE
  5
6CC
100
AcDbEntity
  8
RACCORDO
100
AcDbEllipse
 62
7
  6
CONTINUOUS
 10
5.6066874452
 20
-20.9888298486
 30
0.0
 11
0.0838386807
 21
0.1821263758
 31
0.0
 40
0.9971836448
 41
-1.1401489412
 42
0.4303427991
  0
ELLIPSE
  5
6CD
100
AcDbEntity
  8
RACCORDO
100
AcDbEllipse
 62
7
  6
CONTINUOUS
 10
10.0834178773
 20
10.4472268786
 30
0.0
 11
0.0
 21
0.3
 31
0.0
 40
0.0261859216
 41
-1.5707963268
 42
-0.0785398163
  0
ELLIPSE
  5
6CE
100
AcDbEntity
  8
RACCORDO
100
AcDbEllipse
 62
7
  6
CONTINUOUS
 10
6.3761165119
 20
-24.8862169076
 30
0.0
 11
0.2000039215
 21
0.0000420321
 31
0.0
 40
0.2101385281
 41
-1.5717964104
 42
-0.0173193472
  0
ELLIPSE
  5
6CF
100
AcDbEntity
  8
RACCORDO
100
AcDbEllipse
 62
7
  6
CONTINUOUS
 10
-4.7307223019
 20
-13.7210675705
 30
0.0
 11
5.2689006264
 21
0.0
 31
0.0
 40
0.9489645667
 41
3.1415926536
 42
3.2201324699
  0
ELLIPSE
  5
6D0
100
AcDbEntity
  8
RACCORDO
100
AcDbEllipse
 62
7
  6
CONTINUOUS
 10
4.7307223019
 20
-13.7210675705
 30
0.0
 11
5.2689006264
 21
0.0
 31
0.0
 40
0.9489645667
 41
-0.0785398163
 42
0.0
  0
ELLIPSE
  5
6D1
100
AcDbEntity
  8
RACCORDO
100
AcDbEllipse
 62
7
  6
CONTINUOUS
 10
10.3070632195
 20
15.2551064905
 30
0.0
 11
-0.0
 21
0.3
 31
0.0
 40
0.0174550649
 41
-2.9670597284
 42
-1.6493361431
  0
ELLIPSE
  5
6D2
100
AcDbEntity
  8
RACCORDO
100
AcDbEllipse
 62
7
  6
CONTINUOUS
 10
-10.3070632195
 20
15.2551064905
 30
0.0
 11
0.0
 21
0.3
 31
0.0
 40
0.0174550649
 41
-4.633849164
 42
-3.3161255788
  0
ELLIPSE
  5
6D3
100
AcDbEntity
  8
RACCORDO
100
AcDbEllipse
 62
7
  6
CONTINUOUS
 10
-6.3142633907
 20
-24.8231740815
 30
0.0
 11
0.5000098037
 21
0.0001050801
 31
0.0
 40
0.2101385281
 41
-1.5717964104
 42
-0.0173193472
  0
ELLIPSE
  5
6D4
100
AcDbEntity
  8
RACCORDO
100
AcDbEllipse
 62
7
  6
CONTINUOUS
 10
6.3142633907
 20
-24.8231740815
 30
0.0
 11
0.5000098037
 21
-0.0001050801
 31
0.0
 40
0.2101385281
 41
-3.1242733064
 42
-1.5697962431
  0
ELLIPSE
  5
6D5
100
AcDbEntity
  8
RACCORDO
100
AcDbEllipse
 62
7
  6
CONTINUOUS
 10
-9.6754950299
 20
-22.0917496495
 30
0.0
 11
0.2000007605
 21
-0.0000011823
 31
0.0
 40
0.0175834031
 41
-3.1152199784
 42
-1.5704601414
  0
ELLIPSE
  5
6D6
100
AcDbEntity
  8
RACCORDO
100
AcDbEllipse
 62
7
  6
CONTINUOUS
 10
-10.1345259601
 20
-21.313645087
 30
0.0
 11
0.200007617
 21
0.0000004176
 31
0.0
 40
0.0174533805
 41
2.3298949198
 42
3.1414403038
  0
ELLIPSE
  5
6D7
100
AcDbEntity
  8
RACCORDO
100
AcDbEllipse
 62
7
  6
CONTINUOUS
 10
-9.6777573565
 20
-21.2697583767
 30
0.0
 11
0.2000007549
 21
0.0000008393
 31
0.0
 40
0.0175190052
 41
1.5705567825
 42
3.1153166194
  0
ELLIPSE
  5
6D8
100
AcDbEntity
  8
RACCORDO
100
AcDbEllipse
 62
7
  6
CONTINUOUS
 10
9.6777573565
 20
-21.2697583767
 30
0.0
 11
0.2000007549
 21
-0.0000008393
 31
0.0
 40
0.0175190052
 41
0.0262760342
 42
1.5710358711
  0
ELLIPSE
  5
6D9
100
AcDbEntity
  8
RACCORDO
100
AcDbEllipse
 62
7
  6
CONTINUOUS
 10
10.1345426629
 20
-21.3155590387
 30
0.0
 11
0.2000076202
 21
-0.0000007845
 31
0.0
 40
0.0174575215
 41
0.7203849906
 42
0.8117666532
  0
ELLIPSE
  5
6DA
100
AcDbEntity
  8
RACCORDO
100
AcDbEllipse
 62
7
  6
CONTINUOUS
 10
9.6754950299
 20
-22.0917496495
 30
0.0
 11
0.2000007605
 21
0.0000011823
 31
0.0
 40
0.0175834031
 41
-1.5711325122
 42
-0.0263726752
  0
ELLIPSE
  5
6DB
100
AcDbEntity
  8
RACCORDO
100
AcDbEllipse
 62
7
  6
CONTINUOUS
 10
-5.8038005338
 20
-24.4923810854
 30
0.0
 11
-0.0
 21
0.2
 31
0.0
 40
0.0174550649
 41
-2.9323900052
 42
-1.4660765717
  0
ELLIPSE
  5
6DC
100
AcDbEntity
  8
RACCORDO
100
AcDbEllipse
 62
7
  6
CONTINUOUS
 10
-6.59171676
 20
-24.4923810854
 30
0.0
 11
0.0
 21
0.2
 31
0.0
 40
0.0174550649
 41
1.4660765717
 42
2.9323900052
  0
ELLIPSE
  5
6DD
100
AcDbEntity
  8
RACCORDO
100
AcDbEllipse
 62
7
  6
CONTINUOUS
 10
6.59171676
 20
-24.4923810854
 30
0.0
 11
0.0
 21
0.2
 31
0.0
 40
0.0174550649
 41
-2.9323900052
 42
-1.4660765717
  0
ELLIPSE
  5
6DE
100
AcDbEntity
  8
RACCORDO
100
AcDbEllipse
 62
7
  6
CONTINUOUS
 10
5.8038005338
 20
-24.4923810854
 30
0.0
 11
0.0
 21
0.2
 31
0.0
 40
0.0174550649
 41
1.4660765717
 42
2.9323900052
  0
ELLIPSE
  5
6DF
100
AcDbEntity
  8
RACCORDO
100
AcDbEllipse
 62
7
  6
CONTINUOUS
 10
-9.9812927832
 20
-21.3675103668
 30
0.0
 11
0.0
 21
0.3
 31
0.0
 40
0.0261859216
 41
-4.7123889804
 42
-4.0142572796
  0
ELLIPSE
  5
6E0
100
AcDbEntity
  8
RACCORDO
100
AcDbEllipse
 62
7
  6
CONTINUOUS
 10
-10.0243516415
 20
18.7518769438
 30
0.0
 11
-0.0
 21
0.3
 31
0.0
 40
0.0261859216
 41
0.1745329252
 42
1.6493361431
  0
ELLIPSE
  5
6E1
100
AcDbEntity
  8
RACCORDO
100
AcDbEllipse
 62
7
  6
CONTINUOUS
 10
-10.0834178773
 20
7.5527731214
 30
0.0
 11
-0.0
 21
0.3
 31
0.0
 40
0.0261859216
 41
-4.7123889804
 42
-3.2201324699
  0
ELLIPSE
  5
6E2
100
AcDbEntity
  8
RACCORDO
100
AcDbEllipse
 62
7
  6
CONTINUOUS
 10
-10.0834178773
 20
10.4472268786
 30
0.0
 11
0.0
 21
0.3
 31
0.0
 40
0.0261859216
 41
0.0785398163
 42
1.5707963268
  0
ELLIPSE
  5
6E3
100
AcDbEntity
  8
RACCORDO
100
AcDbEllipse
 62
7
  6
CONTINUOUS
 10
-6.0877571418
 20
-20.4622428582
 30
0.0
 11
0.4703844607
 21
0.1701559288
 31
0.0
 40
0.9976165555
 41
1.2229389843
 42
2.7934307246
  0
ELLIPSE
  5
6E4
100
AcDbEntity
  8
RACCORDO
100
AcDbEllipse
 62
7
  6
CONTINUOUS
 10
6.0877571418
 20
-20.4622428582
 30
0.0
 11
0.4703844607
 21
-0.1701559288
 31
0.0
 40
0.9976165555
 41
0.3481619289
 42
1.9186536692
  0
ELLIPSE
  5
6E5
100
AcDbEntity
  8
RACCORDO
100
AcDbEllipse
 62
7
  6
CONTINUOUS
 10
2.3211245552
 20
26.3973819397
 30
0.0
 11
0.3
 21
0.0
 31
0.0
 40
0.0087268678
 41
1.5707963268
 42
3.1066860685
  0
ELLIPSE
  5
6E6
100
AcDbEntity
  8
RACCORDO
100
AcDbEllipse
 62
7
  6
CONTINUOUS
 10
2.3211245552
 20
25.2074444255
 30
0.0
 11
0.3
 21
-0.0
 31
0.0
 40
0.0261859216
 41
-3.1066860686
 42
-1.5707963268
  0
ELLIPSE
  5
6E7
100
AcDbEntity
  8
RACCORDO
100
AcDbEllipse
 62
7
  6
CONTINUOUS
 10
-2.3211245552
 20
25.2074444255
 30
0.0
 11
0.3
 21
-0.0
 31
0.0
 40
0.0261859216
 41
-1.5707963268
 42
-0.034906585
  0
ELLIPSE
  5
6E8
100
AcDbEntity
  8
RACCORDO
100
AcDbEllipse
 62
7
  6
CONTINUOUS
 10
-9.7055412804
 20
-11.1747774755
 30
0.0
 11
0.2000007562
 21
0.0000004622
 31
0.0
 40
0.0087668631
 41
2.4426156716
 42
3.1152925846
  0
ELLIPSE
  5
6E9
100
AcDbEntity
  8
RACCORDO
100
AcDbEllipse
 62
7
  6
CONTINUOUS
 10
9.7055412804
 20
-11.1747774755
 30
0.0
 11
0.2000007562
 21
-0.0000004622
 31
0.0
 40
0.0087668631
 41
0.026300069
 42
0.698976982
  0
ELLIPSE
  5
6EA
100
AcDbEntity
  8
RACCORDO
100
AcDbEllipse
 62
7
  6
CONTINUOUS
 10
-2.3211245552
 20
26.3973819397
 30
0.0
 11
0.3
 21
-0.0
 31
0.0
 40
0.0087268678
 41
0.034906585
 42
1.5707963268
  0
ELLIPSE
  5
6EB
100
AcDbEntity
  8
RACCORDO
100
AcDbEllipse
 62
7
  6
CONTINUOUS
 10
1.7102933676
 20
25.215292126
 30
0.0
 11
0.3
 21
0.0
 31
0.0
 40
0.0261859216
 41
0.034906585
 42
1.5707963268
  0
ELLIPSE
  5
6EC
100
AcDbEntity
  8
RACCORDO
100
AcDbEllipse
 62
7
  6
CONTINUOUS
 10
-1.7102933676
 20
25.215292126
 30
0.0
 11
0.3
 21
0.0
 31
0.0
 40
0.0261859216
 41
1.5707963268
 42
3.1066860686
  0
ELLIPSE
  5
6ED
100
AcDbEntity
  8
RACCORDO
100
AcDbEllipse
 62
7
  6
CONTINUOUS
 10
0.396508987
 20
24.9366738787
 30
0.0
 11
0.0
 21
0.2
 31
0.0
 40
0.0174550649
 41
-1.5707963268
 42
-0.0261799388
  0
ELLIPSE
  5
6EE
100
AcDbEntity
  8
RACCORDO
100
AcDbEllipse
 62
7
  6
CONTINUOUS
 10
-0.396508987
 20
24.9366738787
 30
0.0
 11
-0.0
 21
0.2
 31
0.0
 40
0.0174550649
 41
0.0261799388
 42
1.5707963268
  0
ELLIPSE
  5
6EF
100
AcDbEntity
  8
RACCORDO
100
AcDbEllipse
 62
7
  6
CONTINUOUS
 10
-0.1860054824
 20
25.1524539902
 30
0.0
 11
0.2
 21
-0.0
 31
0.0
 40
0.0261859216
 41
1.5707963268
 42
3.1241393611
  0
ELLIPSE
  5
6F0
100
AcDbEntity
  8
RACCORDO
100
AcDbEllipse
 62
7
  6
CONTINUOUS
 10
-0.1999695344
 20
21.6030853224
 30
0.0
 11
0.0200091116
 21
0.2021273628
 31
0.0
 40
0.9846622838
 41
-4.6121910857
 42
-3.0444253421
  0
ELLIPSE
  5
6F1
100
AcDbEntity
  8
RACCORDO
100
AcDbEllipse
 62
7
  6
CONTINUOUS
 10
0.1999695344
 20
21.6030853224
 30
0.0
 11
-0.0200091116
 21
0.2021273628
 31
0.0
 40
0.9846622838
 41
-3.2387599651
 42
-1.6709942215
  0
ELLIPSE
  5
6F2
100
AcDbEntity
  8
RACCORDO
100
AcDbEllipse
 62
7
  6
CONTINUOUS
 10
0.1860054824
 20
25.1524539902
 30
0.0
 11
0.2
 21
-0.0
 31
0.0
 40
0.0261859216
 41
0.0174532925
 42
1.5707963268
  0
ELLIPSE
  5
6F3
100
AcDbEntity
  8
RACCORDO
100
AcDbEllipse
 62
7
  6
CONTINUOUS
 10
-9.2952308408
 20
12.4256977444
 30
0.0
 11
0.9915985036
 21
0.1305464196
 31
0.0
 40
0.999845056
 41
3.010713011
 42
3.2724722962
  0
ELLIPSE
  5
6F4
100
AcDbEntity
  8
RACCORDO
100
AcDbEllipse
 62
7
  6
CONTINUOUS
 10
-9.3139792306
 20
16.5767705279
 30
0.0
 11
-0.7001288175
 21
0.7152420668
 31
0.0
 40
0.9985867857
 41
0.5349832444
 42
0.7967425296
  0
ELLIPSE
  5
6F5
100
AcDbEntity
  8
RACCORDO
100
AcDbEllipse
 62
7
  6
CONTINUOUS
 10
9.2952308408
 20
12.4256977444
 30
0.0
 11
0.9915985036
 21
-0.1305464196
 31
0.0
 40
0.999845056
 41
-0.1308796426
 42
0.1308796426
  0
ELLIPSE
  5
6F6
100
AcDbEntity
  8
RACCORDO
100
AcDbEllipse
 62
7
  6
CONTINUOUS
 10
9.3139792306
 20
16.5767705279
 30
0.0
 11
0.7001288175
 21
0.7152420668
 31
0.0
 40
0.9985867857
 41
-0.7967425296
 42
-0.5349832443
  0
ELLIPSE
  5
6F7
100
AcDbEntity
  8
RACCORDO
100
AcDbEllipse
 62
7
  6
CONTINUOUS
 10
5.7999695344
 20
-1.2
 30
0.0
 11
0.2
 21
-0.0
 31
0.0
 40
0.0174550649
 41
0.0174532925
 42
1.5707963268
  0
ELLIPSE
  5
6F8
100
AcDbEntity
  8
RACCORDO
100
AcDbEllipse
 62
7
  6
CONTINUOUS
 10
5.4451426712
 20
-1.2
 30
0.0
 11
0.2
 21
0.0
 31
0.0
 40
0.0174550649
 41
1.5707963268
 42
3.1241393611
  0
ELLIPSE
  5
6F9
100
AcDbEntity
  8
RACCORDO
100
AcDbEllipse
 62
7
  6
CONTINUOUS
 10
-5.4451426712
 20
-1.2
 30
0.0
 11
0.2
 21
0.0
 31
0.0
 40
0.0174550649
 41
0.0174532925
 42
1.5707963268
  0
ELLIPSE
  5
6FA
100
AcDbEntity
  8
RACCORDO
100
AcDbEllipse
 62
7
  6
CONTINUOUS
 10
-5.7999695344
 20
-1.2
 30
0.0
 11
0.2
 21
0.0
 31
0.0
 40
0.0174550649
 41
1.5707963268
 42
3.1241393611
  0
ELLIPSE
  5
6FB
100
AcDbEntity
  8
RACCORDO
100
AcDbEllipse
 62
7
  6
CONTINUOUS
 10
8.2357508046
 20
-21.5657508046
 30
0.0
 11
0.2822306764
 21
0.1020935573
 31
0.0
 40
0.9976165555
 41
1.2229389843
 42
2.7934307246
  0
ELLIPSE
  5
6FC
100
AcDbEntity
  8
RACCORDO
100
AcDbEllipse
 62
7
  6
CONTINUOUS
 10
9.9603440459
 20
-21.6248091789
 30
0.0
 11
0.0
 21
0.3
 31
0.0
 40
0.0261859216
 41
-1.5707963268
 42
-0.0174532925
  0
ELLIPSE
  5
6FD
100
AcDbEntity
  8
RACCORDO
100
AcDbEllipse
 62
7
  6
CONTINUOUS
 10
8.2353308307
 20
-21.7946691693
 30
0.0
 11
0.125758021
 21
0.2731895637
 31
0.0
 40
0.9971836448
 41
-4.2817415948
 42
-2.7112498545
  0
ELLIPSE
  5
6FE
100
AcDbEntity
  8
RACCORDO
100
AcDbEllipse
 62
7
  6
CONTINUOUS
 10
9.9603440459
 20
-21.7351908211
 30
0.0
 11
-0.0
 21
0.3
 31
0.0
 40
0.0261859216
 41
-3.1241393611
 42
-1.5707963268
  0
ELLIPSE
  5
6FF
100
AcDbEntity
  8
RACCORDO
100
AcDbEllipse
 62
7
  6
CONTINUOUS
 10
-8.2357508046
 20
-21.5657508046
 30
0.0
 11
0.2822306764
 21
-0.1020935573
 31
0.0
 40
0.9976165555
 41
0.3481619289
 42
1.9186536692
  0
ELLIPSE
  5
700
100
AcDbEntity
  8
RACCORDO
100
AcDbEllipse
 62
7
  6
CONTINUOUS
 10
-9.9603440459
 20
-21.6248091789
 30
0.0
 11
-0.0
 21
0.3
 31
0.0
 40
0.0261859216
 41
0.0174532925
 42
1.5707963268
  0
ELLIPSE
  5
701
100
AcDbEntity
  8
RACCORDO
100
AcDbEllipse
 62
7
  6
CONTINUOUS
 10
-8.2353308307
 20
-21.7946691693
 30
0.0
 11
-0.125758021
 21
0.2731895637
 31
0.0
 40
0.9971836448
 41
-3.5719354526
 42
-2.0014437123
  0
ELLIPSE
  5
702
100
AcDbEntity
  8
RACCORDO
100
AcDbEllipse
 62
7
  6
CONTINUOUS
 10
-9.9603440459
 20
-21.7351908211
 30
0.0
 11
0.0
 21
0.3
 31
0.0
 40
0.0261859216
 41
-4.7123889804
 42
-3.1590459461
  0
ELLIPSE
  5
703
100
AcDbEntity
  8
RACCORDO
100
AcDbEllipse
 62
7
  6
CONTINUOUS
 10
-9.9760555988
 20
-22.5392953814
 30
0.0
 11
0.0
 21
0.3
 31
0.0
 40
0.0261859216
 41
-1.5707963268
 42
-0.872664626
  0
ELLIPSE
  5
704
100
AcDbEntity
  8
RACCORDO
100
AcDbEllipse
 62
7
  6
CONTINUOUS
 10
9.9760555988
 20
-22.5392953814
 30
0.0
 11
0.0
 21
0.3
 31
0.0
 40
0.0261859216
 41
0.872664626
 42
1.5707963268
  0
ELLIPSE
  5
705
100
AcDbEntity
  8
RACCORDO
100
AcDbEllipse
 62
7
  6
CONTINUOUS
 10
10.3006196883
 20
14.580759479
 30
0.0
 11
0.0
 21
0.3
 31
0.0
 40
0.0174550649
 41
0.1745329252
 42
1.5707963268
  0
ELLIPSE
  5
706
100
AcDbEntity
  8
RACCORDO
100
AcDbEllipse
 62
7
  6
CONTINUOUS
 10
11.0973819397
 20
14.580759479
 30
0.0
 11
0.0
 21
0.3
 31
0.0
 40
0.0087268678
 41
-1.5707963268
 42
-0.1745329252
  0
ELLIPSE
  5
707
100
AcDbEntity
  8
RACCORDO
100
AcDbEllipse
 62
7
  6
CONTINUOUS
 10
11.0973819397
 20
19.4747494584
 30
0.0
 11
-0.0
 21
0.3
 31
0.0
 40
0.0087268678
 41
-2.9670597284
 42
-1.5707963268
  0
ELLIPSE
  5
708
100
AcDbEntity
  8
RACCORDO
100
AcDbEllipse
 62
7
  6
CONTINUOUS
 10
10.0074787047
 20
19.4747494584
 30
0.0
 11
-0.0
 21
0.3
 31
0.0
 40
0.0261859216
 41
-4.7123889804
 42
-3.3161255788
  0
ELLIPSE
  5
709
100
AcDbEntity
  8
RACCORDO
100
AcDbEllipse
 62
7
  6
CONTINUOUS
 10
-11.0973819397
 20
14.580759479
 30
0.0
 11
-0.0
 21
0.3
 31
0.0
 40
0.0087268678
 41
0.1745329252
 42
1.5707963268
  0
ELLIPSE
  5
70A
100
AcDbEntity
  8
RACCORDO
100
AcDbEllipse
 62
7
  6
CONTINUOUS
 10
-10.3006196883
 20
14.580759479
 30
0.0
 11
0.0
 21
0.3
 31
0.0
 40
0.0174550649
 41
-1.5707963268
 42
-0.1745329252
  0
ELLIPSE
  5
70B
100
AcDbEntity
  8
RACCORDO
100
AcDbEllipse
 62
7
  6
CONTINUOUS
 10
-10.0074787047
 20
19.4747494584
 30
0.0
 11
-0.0
 21
0.3
 31
0.0
 40
0.0261859216
 41
-2.9670597284
 42
-1.5707963268
  0
ELLIPSE
  5
70C
100
AcDbEntity
  8
RACCORDO
100
AcDbEllipse
 62
7
  6
CONTINUOUS
 10
-11.0973819397
 20
19.4747494584
 30
0.0
 11
-0.0
 21
0.3
 31
0.0
 40
0.0087268678
 41
-4.7123889804
 42
-3.3161255788
  0
ELLIPSE
  5
70D
100
AcDbEntity
  8
RACCORDO
100
AcDbEllipse
 62
7
  6
CONTINUOUS
 10
-9.8578484268
 20
-11.3728484268
 30
0.0
 11
0.1864431383
 21
-0.0724919819
 31
0.0
 40
0.9987569152
 41
0.3713240022
 42
1.0736594488
  0
ELLIPSE
  5
70E
100
AcDbEntity
  8
RACCORDO
100
AcDbEllipse
 62
7
  6
CONTINUOUS
 10
9.8578484268
 20
-11.3728484268
 30
0.0
 11
0.1864431383
 21
0.0724919819
 31
0.0
 40
0.9987569152
 41
2.0679332048
 42
2.7702686513
  0
ELLIPSE
  5
70F
100
AcDbEntity
  8
RACCORDO
100
AcDbEllipse
 62
7
  6
CONTINUOUS
 10
-10.1291621706
 20
-21.3039325027
 30
0.0
 11
0.2000000104
 21
-0.0000000058
 31
0.0
 40
0.017452634
 41
-0.8116125323
 42
-0.0261762927
  0
ELLIPSE
  5
710
100
AcDbEntity
  8
RACCORDO
100
AcDbEllipse
 62
7
  6
CONTINUOUS
 10
9.7995543698
 20
24.9995200905
 30
0.0
 11
0.141518296
 21
0.141518296
 31
0.0
 40
0.999315002
 41
-0.7850555471
 42
0.7850555471
  0
ELLIPSE
  5
711
100
AcDbEntity
  8
RACCORDO
100
AcDbEllipse
 62
7
  6
CONTINUOUS
 10
10.1321036314
 20
-21.3058932277
 30
0.0
 11
0.2
 21
-0.0
 31
0.0
 40
0.0174550649
 41
-3.1154127148
 42
-2.3300145514
  0
ELLIPSE
  5
712
100
AcDbEntity
  8
RACCORDO
100
AcDbEllipse
 62
7
  6
CONTINUOUS
 10
9.7681312639
 20
-24.9680969846
 30
0.0
 11
-0.141518296
 21
0.141518296
 31
0.0
 40
0.999315002
 41
-3.9266482006
 42
-2.3565371065
  0
ELLIPSE
  5
713
100
AcDbEntity
  8
RACCORDO
100
AcDbEllipse
 62
7
  6
CONTINUOUS
 10
-9.7681312639
 20
-24.9680969846
 30
0.0
 11
0.141518296
 21
0.141518296
 31
0.0
 40
0.999315002
 41
-3.9266482006
 42
-2.3565371065
  0
ELLIPSE
  5
714
100
AcDbEntity
  8
RACCORDO
100
AcDbEllipse
 62
7
  6
CONTINUOUS
 10
-9.7995543698
 20
24.9995200905
 30
0.0
 11
0.141518296
 21
-0.141518296
 31
0.0
 40
0.999315002
 41
2.3565371065
 42
3.9266482006
  0
ENDSEC
  0
SECTION
  2
OBJECTS
  0
DICTIONARY
  5
C
100
AcDbDictionary
280
0
281
1
  3
ACAD_GROUP
350
D
  3
ACAD_MLINESTYLE
350
17
  3
ACAD_LAYOUT
350
1A
  3
ACAD_PLOTSETTINGS
350
19
  3
ACAD_PLOTSTYLENAME
350
E
  0
DICTIONARY
  5
D
102
{ACAD_REACTORS
330
C
102
}
100
AcDbDictionary
280
0
281
1
  0
ACDBDICTIONARYWDFLT
  5
E
102
{ACAD_REACTORS
330
C
102
}
100
AcDbDictionary
281
1
  3
Normal
350
F
100
AcDbDictionaryWithDefault
340
F
  0
DICTIONARY
  5
17
102
{ACAD_REACTORS
330
C
102
}
100
AcDbDictionary
280
0
281
1
  3
Standard
350
18
  0
DICTIONARY
  5
19
102
{ACAD_REACTORS
330
C
102
}
100
AcDbDictionary
281
1
  0
DICTIONARY
  5
1A
102
{ACAD_REACTORS
330
C
102
}
100
AcDbDictionary
281
1
  3
Model
350
715
  3
Layout1
350
716
  0
ACDBPLACEHOLDER
  5
F
102
{ACAD_REACTORS
330
E
102
}
  0
MLINESTYLE
  5
18
102
{ACAD_REACTORS
330
17
102
}
100
AcDbMlineStyle
  2
STANDARD
 70
0
  3

 62
256
 51
90.0
 52
90.0
 71
2
 49
0.5
 62
256
  6
BYLAYER
 49
-0.5
 62
256
  6
BYLAYER
  0
LAYOUT
  5
715
102
{ACAD_REACTORS
330
1A
102
}
100
AcDbPlotSettings
  1

  2
none_device
  4
ISO_A4_(297.00_x_210.00_MM)
  6

 40
0.0
 41
0.0
 42
0.0
 43
0.0
 44
297.0
 45
210.0
 46
0.0
 47
0.0
 48
0.0
 49
0.0
140
0.0
141
0.0
142
1.0
143
1.0
 70
1024
 72
1
 73
0
 74
0
  7

 75
0
147
1.0
148
0.0
149
0.0
100
AcDbLayout
  1
Model
 70
0
 71
0
 10
0.0
 20
0.0
 11
297.0
 21
210.0
 12
0.0
 22
0.0
 32
0.0
 14
0.0
 24
0.0
 34
0.0
 15
0.0
 25
0.0
 35
0.0
146
0.0
 13
0.0
 23
0.0
 33
0.0
 16
1.0
 26
0.0
 36
0.0
 17
0.0
 27
1.0
 37
0.0
 76
0
330
220
345
0
346
0
  0
LAYOUT
  5
716
102
{ACAD_REACTORS
330
1A
102
}
100
AcDbPlotSettings
  1

  2
none_device
  4
ISO_A4_(297.00_x_210.00_MM)
  6

 40
0.0
 41
0.0
 42
0.0
 43
0.0
 44
297.0
 45
210.0
 46
0.0
 47
0.0
 48
0.0
 49
0.0
140
0.0
141
0.0
142
1.0
143
1.0
 70
0
 72
1
 73
0
 74
0
  7

 75
0
147
1.0
148
0.0
149
0.0
100
AcDbLayout
  1
Layout1
 70
0
 71
1
 10
0.0
 20
0.0
 11
297.0
 21
210.0
 12
0.0
 22
0.0
 32
0.0
 14
0.0
 24
0.0
 34
0.0
 15
0.0
 25
0.0
 35
0.0
146
0.0
 13
0.0
 23
0.0
 33
0.0
 16
1.0
 26
0.0
 36
0.0
 17
0.0
 27
1.0
 37
0.0
 76
0
330
221
345
0
346
0
  0
ENDSEC
  0
EOF
