  0
SECTION
  2
HEADER
  9
$ACADVER
  1
AC1021
  9
$DWGCODEPAGE
  3
ANSI_1252
  9
$EXTMAX
 10
297.0
 20
210.0
 30
0.0
  9
$EXTMIN
 10
0.0
 20
0.0
 30
0.0
  9
$LIMMIN
 10
0.0
 20
0.0
  9
$LIMMAX
 10
297.0
 20
210.0
  9
$VIEWCTR
 10
148.5
 20
105.0
  9
$VIEWSIZE
 40
210.0
  9
$CLAYER
  8
0
  9
$LTSCALE
 40
16.335
  9
$CELTYPE
  6
BYLAYER
  9
$DIMSCALE
 40
1.0
  9
$DIMASZ
 40
3.0
  9
$DIMEXO
 40
0.5
  9
$DIMDLI
 40
11.286
  9
$DIMEXE
 40
1.5
  9
$DIMCEN
 40
2.673
  9
$DIMLFAC
 40
1.0
  9
$DIMBLK
  1
_FILLED
  9
$DIMALT
 70
0
  9
$DIMALTF
 40
0.0393700787
  9
$DIMTXT
 40
3.0
  9
$DIMTOL
 70
1
  9
$DIMLIM
 70
0
  9
$DIMTFAC
 40
1.0
  9
$DIMTP
 40
0.01
  9
$DIMTM
 40
0.01
  9
$DIMGAP
 40
0.625
  9
$DIMDSEP
 70
44
  9
$AUNITS
 70
0
  9
$PDMODE
 70
3
  9
$PDSIZE
 40
3.0
  9
$HANDSEED
  5
7F9
  9
$TILEMODE
 70
1
  9
$MEASUREMENT
 70
1
  9
$INSUNITS
 70
4
  0
ENDSEC
  0
SECTION
  2
CLASSES
  0
CLASS
  1
ACDBDICTIONARYWDFLT
  2
AcDbDictionaryWithDefault
  3
AutoCAD 2000
 90
0
 91
1
280
0
281
0
  0
CLASS
  1
ACDBPLACEHOLDER
  2
AcDbPlaceHolder
  3
AutoCAD 2000
 90
0
 91
1
280
0
281
0
  0
CLASS
  1
LAYOUT
  2
AcDbLayout
  3
AutoCAD 2000
 90
0
 91
0
280
0
281
0
  0
ENDSEC
  0
SECTION
  2
TABLES
  0
TABLE
  2
VPORT
  5
8
100
AcDbSymbolTable
 70
2
  0
VPORT
  5
1F4
100
AcDbSymbolTableRecord
100
AcDbViewportTableRecord
  2
*ACTIVE
 70
0
 10
0.0
 20
0.0
 11
1.0
 21
1.0
 12
148.5
 22
105.0
 13
0.0
 23
0.0
 14
1.0
 24
1.0
 15
0.0
 25
0.0
 16
0.0
 26
0.0
 36
1.0
 17
0.0
 27
0.0
 37
0.0
 40
210.0
 41
1.4142857143
 42
50.0
 43
0.0
 44
0.0
 50
0.0
 51
0.0
 71
0
 72
100
 73
1
 74
1
 75
0
 76
0
 77
0
 78
0
  0
ENDTAB
  0
TABLE
  2
LTYPE
  5
5
100
AcDbSymbolTable
 70
6
  0
LTYPE
  5
14
100
AcDbSymbolTableRecord
100
AcDbLinetypeTableRecord
  2
BYBLOCK
 70
0
  3

 72
65
 73
0
 40
0.0
  0
LTYPE
  5
15
100
AcDbSymbolTableRecord
100
AcDbLinetypeTableRecord
  2
BYLAYER
 70
0
  3

 72
65
 73
0
 40
0.0
  0
LTYPE
  5
16
100
AcDbSymbolTableRecord
100
AcDbLinetypeTableRecord
  2
CONTINUOUS
 70
64
  3
Solid line
 72
65
 73
0
 40
0.0
  0
LTYPE
  5
1F5
100
AcDbSymbolTableRecord
100
AcDbLinetypeTableRecord
  2
CENTER
 70
64
  3
____ _ ____ _ ____ _ ____ _ ____ _ ____ _ ____
 72
65
 73
4
 40
0.6
 49
0.375
 74
0
 49
-0.075
 74
0
 49
0.075
 74
0
 49
-0.075
 74
0
  0
LTYPE
  5
1F6
100
AcDbSymbolTableRecord
100
AcDbLinetypeTableRecord
  2
HIDDEN
 70
64
  3
- - - - - - - - - - - - - - - - - - - -
 72
65
 73
2
 40
0.2
 49
0.1
 74
0
 49
-0.1
 74
0
  0
LTYPE
  5
1F7
100
AcDbSymbolTableRecord
100
AcDbLinetypeTableRecord
  2
PHANTOM
 70
64
  3
_____ _ _ _____ _ _ _____ _ _ _____
 72
65
 73
6
 40
0.8
 49
0.45
 74
0
 49
-0.05
 74
0
 49
0.1
 74
0
 49
-0.05
 74
0
 49
0.1
 74
0
 49
-0.05
 74
0
  0
LTYPE
  5
1F8
100
AcDbSymbolTableRecord
100
AcDbLinetypeTableRecord
  2
DOT
 70
64
  3
. . . . . . . . . . . . . . . . . . . .
 72
65
 73
2
 40
0.2
 49
0.1
 74
0
 49
-0.1
 74
0
  0
LTYPE
  5
1F9
100
AcDbSymbolTableRecord
100
AcDbLinetypeTableRecord
  2
DASHED
 70
64
  3
- - - - - - - - - - - - - - - - - - - -
 72
65
 73
2
 40
0.2
 49
0.1
 74
0
 49
-0.1
 74
0
  0
ENDTAB
  0
TABLE
  2
LAYER
  5
2
100
AcDbSymbolTable
 70
36
  0
LAYER
  5
10
100
AcDbSymbolTableRecord
100
AcDbLayerTableRecord
  2
0
 70
0
 62
7
  6
CONTINUOUS
370
-3
390
F
  0
LAYER
  5
1FA
100
AcDbSymbolTableRecord
100
AcDbLayerTableRecord
  2
DEFAULT_1
 70
0
 62
7
  6
CENTER
370
-3
390
F
  0
LAYER
  5
1FB
100
AcDbSymbolTableRecord
100
AcDbLayerTableRecord
  2
DEFAULT_2
 70
0
 62
7
  6
HIDDEN
370
-3
390
F
  0
LAYER
  5
1FC
100
AcDbSymbolTableRecord
100
AcDbLayerTableRecord
  2
DEFAULT_3
 70
0
 62
7
  6
PHANTOM
370
-3
390
F
  0
LAYER
  5
1FD
100
AcDbSymbolTableRecord
100
AcDbLayerTableRecord
  2
1040912880
 70
0
 62
7
  6
CONTINUOUS
370
-3
390
F
  0
LAYER
  5
1FE
100
AcDbSymbolTableRecord
100
AcDbLayerTableRecord
  2
474145168
 70
0
 62
7
  6
CONTINUOUS
370
-3
390
F
  0
LAYER
  5
1FF
100
AcDbSymbolTableRecord
100
AcDbLayerTableRecord
  2
474147688
 70
0
 62
7
  6
CONTINUOUS
370
-3
390
F
  0
LAYER
  5
200
100
AcDbSymbolTableRecord
100
AcDbLayerTableRecord
  2
474690960
 70
0
 62
7
  6
CONTINUOUS
370
-3
390
F
  0
LAYER
  5
201
100
AcDbSymbolTableRecord
100
AcDbLayerTableRecord
  2
474690960_1
 70
0
 62
7
  6
CONTINUOUS
370
-3
390
F
  0
LAYER
  5
202
100
AcDbSymbolTableRecord
100
AcDbLayerTableRecord
  2
474696336
 70
0
 62
7
  6
CONTINUOUS
370
-3
390
F
  0
LAYER
  5
203
100
AcDbSymbolTableRecord
100
AcDbLayerTableRecord
  2
474697104
 70
0
 62
7
  6
CONTINUOUS
370
-3
390
F
  0
LAYER
  5
204
100
AcDbSymbolTableRecord
100
AcDbLayerTableRecord
  2
474697360
 70
0
 62
7
  6
CONTINUOUS
370
-3
390
F
  0
LAYER
  5
205
100
AcDbSymbolTableRecord
100
AcDbLayerTableRecord
  2
474697360_1
 70
0
 62
7
  6
CONTINUOUS
370
-3
390
F
  0
LAYER
  5
206
100
AcDbSymbolTableRecord
100
AcDbLayerTableRecord
  2
474697488
 70
0
 62
7
  6
CONTINUOUS
370
-3
390
F
  0
LAYER
  5
207
100
AcDbSymbolTableRecord
100
AcDbLayerTableRecord
  2
474697488_1
 70
0
 62
7
  6
CONTINUOUS
370
-3
390
F
  0
LAYER
  5
208
100
AcDbSymbolTableRecord
100
AcDbLayerTableRecord
  2
474697616
 70
0
 62
7
  6
CONTINUOUS
370
-3
390
F
  0
LAYER
  5
209
100
AcDbSymbolTableRecord
100
AcDbLayerTableRecord
  2
474697616_1
 70
0
 62
7
  6
CONTINUOUS
370
-3
390
F
  0
LAYER
  5
20A
100
AcDbSymbolTableRecord
100
AcDbLayerTableRecord
  2
474697872
 70
0
 62
7
  6
CONTINUOUS
370
-3
390
F
  0
LAYER
  5
20B
100
AcDbSymbolTableRecord
100
AcDbLayerTableRecord
  2
474697872_1
 70
0
 62
7
  6
CONTINUOUS
370
-3
390
F
  0
LAYER
  5
20C
100
AcDbSymbolTableRecord
100
AcDbLayerTableRecord
  2
474698000
 70
0
 62
7
  6
CONTINUOUS
370
-3
390
F
  0
LAYER
  5
20D
100
AcDbSymbolTableRecord
100
AcDbLayerTableRecord
  2
474698000_1
 70
0
 62
7
  6
CONTINUOUS
370
-3
390
F
  0
LAYER
  5
20E
100
AcDbSymbolTableRecord
100
AcDbLayerTableRecord
  2
474698256
 70
0
 62
7
  6
CONTINUOUS
370
-3
390
F
  0
LAYER
  5
20F
100
AcDbSymbolTableRecord
100
AcDbLayerTableRecord
  2
474698256_1
 70
0
 62
7
  6
CONTINUOUS
370
-3
390
F
  0
LAYER
  5
210
100
AcDbSymbolTableRecord
100
AcDbLayerTableRecord
  2
474698384
 70
0
 62
7
  6
CONTINUOUS
370
-3
390
F
  0
LAYER
  5
211
100
AcDbSymbolTableRecord
100
AcDbLayerTableRecord
  2
474698384_1
 70
0
 62
7
  6
CONTINUOUS
370
-3
390
F
  0
LAYER
  5
212
100
AcDbSymbolTableRecord
100
AcDbLayerTableRecord
  2
474698512
 70
0
 62
7
  6
CONTINUOUS
370
-3
390
F
  0
LAYER
  5
213
100
AcDbSymbolTableRecord
100
AcDbLayerTableRecord
  2
474698512_1
 70
0
 62
7
  6
CONTINUOUS
370
-3
390
F
  0
LAYER
  5
214
100
AcDbSymbolTableRecord
100
AcDbLayerTableRecord
  2
474698512_2
 70
0
 62
7
  6
CONTINUOUS
370
-3
390
F
  0
LAYER
  5
215
100
AcDbSymbolTableRecord
100
AcDbLayerTableRecord
  2
474698512_3
 70
0
 62
7
  6
CONTINUOUS
370
-3
390
F
  0
LAYER
  5
216
100
AcDbSymbolTableRecord
100
AcDbLayerTableRecord
  2
474698768
 70
0
 62
7
  6
CONTINUOUS
370
-3
390
F
  0
LAYER
  5
217
100
AcDbSymbolTableRecord
100
AcDbLayerTableRecord
  2
474698768_1
 70
0
 62
7
  6
CONTINUOUS
370
-3
390
F
  0
LAYER
  5
218
100
AcDbSymbolTableRecord
100
AcDbLayerTableRecord
  2
474698768_2
 70
0
 62
7
  6
CONTINUOUS
370
-3
390
F
  0
LAYER
  5
219
100
AcDbSymbolTableRecord
100
AcDbLayerTableRecord
  2
474698768_3
 70
0
 62
7
  6
CONTINUOUS
370
-3
390
F
  0
LAYER
  5
21A
100
AcDbSymbolTableRecord
100
AcDbLayerTableRecord
  2
474698768_4
 70
0
 62
7
  6
CONTINUOUS
370
-3
390
F
  0
LAYER
  5
21B
100
AcDbSymbolTableRecord
100
AcDbLayerTableRecord
  2
474698768_5
 70
0
 62
7
  6
CONTINUOUS
370
-3
390
F
  0
LAYER
  5
21C
100
AcDbSymbolTableRecord
100
AcDbLayerTableRecord
  2
474698768_6
 70
0
 62
7
  6
CONTINUOUS
370
-3
390
F
  0
LAYER
  5
21D
100
AcDbSymbolTableRecord
100
AcDbLayerTableRecord
  2
474698896
 70
0
 62
7
  6
CONTINUOUS
370
-3
390
F
  0
LAYER
  5
21E
100
AcDbSymbolTableRecord
100
AcDbLayerTableRecord
  2
474698896_1
 70
0
 62
7
  6
CONTINUOUS
370
-3
390
F
  0
LAYER
  5
21F
100
AcDbSymbolTableRecord
100
AcDbLayerTableRecord
  2
474699024
 70
0
 62
7
  6
CONTINUOUS
370
-3
390
F
  0
LAYER
  5
220
100
AcDbSymbolTableRecord
100
AcDbLayerTableRecord
  2
474699152
 70
0
 62
7
  6
CONTINUOUS
370
-3
390
F
  0
LAYER
  5
221
100
AcDbSymbolTableRecord
100
AcDbLayerTableRecord
  2
474699280
 70
0
 62
7
  6
CONTINUOUS
370
-3
390
F
  0
LAYER
  5
222
100
AcDbSymbolTableRecord
100
AcDbLayerTableRecord
  2
474699280_1
 70
0
 62
7
  6
CONTINUOUS
370
-3
390
F
  0
LAYER
  5
223
100
AcDbSymbolTableRecord
100
AcDbLayerTableRecord
  2
474699408
 70
0
 62
7
  6
CONTINUOUS
370
-3
390
F
  0
LAYER
  5
224
100
AcDbSymbolTableRecord
100
AcDbLayerTableRecord
  2
474699792
 70
0
 62
7
  6
CONTINUOUS
370
-3
390
F
  0
LAYER
  5
225
100
AcDbSymbolTableRecord
100
AcDbLayerTableRecord
  2
474699920
 70
0
 62
7
  6
CONTINUOUS
370
-3
390
F
  0
LAYER
  5
226
100
AcDbSymbolTableRecord
100
AcDbLayerTableRecord
  2
474699920_1
 70
0
 62
7
  6
CONTINUOUS
370
-3
390
F
  0
LAYER
  5
227
100
AcDbSymbolTableRecord
100
AcDbLayerTableRecord
  2
474700688
 70
0
 62
7
  6
CONTINUOUS
370
-3
390
F
  0
LAYER
  5
228
100
AcDbSymbolTableRecord
100
AcDbLayerTableRecord
  2
474700688_1
 70
0
 62
7
  6
CONTINUOUS
370
-3
390
F
  0
LAYER
  5
229
100
AcDbSymbolTableRecord
100
AcDbLayerTableRecord
  2
474700688_2
 70
0
 62
7
  6
CONTINUOUS
370
-3
390
F
  0
LAYER
  5
22A
100
AcDbSymbolTableRecord
100
AcDbLayerTableRecord
  2
474700688_3
 70
0
 62
7
  6
CONTINUOUS
370
-3
390
F
  0
LAYER
  5
22B
100
AcDbSymbolTableRecord
100
AcDbLayerTableRecord
  2
474700688_4
 70
0
 62
7
  6
CONTINUOUS
370
-3
390
F
  0
LAYER
  5
22C
100
AcDbSymbolTableRecord
100
AcDbLayerTableRecord
  2
474700688_5
 70
0
 62
7
  6
CONTINUOUS
370
-3
390
F
  0
LAYER
  5
22D
100
AcDbSymbolTableRecord
100
AcDbLayerTableRecord
  2
474700688_6
 70
0
 62
7
  6
CONTINUOUS
370
-3
390
F
  0
LAYER
  5
22E
100
AcDbSymbolTableRecord
100
AcDbLayerTableRecord
  2
474700816
 70
0
 62
7
  6
CONTINUOUS
370
-3
390
F
  0
LAYER
  5
22F
100
AcDbSymbolTableRecord
100
AcDbLayerTableRecord
  2
474700816_1
 70
0
 62
7
  6
CONTINUOUS
370
-3
390
F
  0
LAYER
  5
230
100
AcDbSymbolTableRecord
100
AcDbLayerTableRecord
  2
474700816_2
 70
0
 62
7
  6
CONTINUOUS
370
-3
390
F
  0
LAYER
  5
231
100
AcDbSymbolTableRecord
100
AcDbLayerTableRecord
  2
474700816_3
 70
0
 62
7
  6
CONTINUOUS
370
-3
390
F
  0
LAYER
  5
232
100
AcDbSymbolTableRecord
100
AcDbLayerTableRecord
  2
474700816_4
 70
0
 62
7
  6
CONTINUOUS
370
-3
390
F
  0
LAYER
  5
233
100
AcDbSymbolTableRecord
100
AcDbLayerTableRecord
  2
474700816_5
 70
0
 62
7
  6
CONTINUOUS
370
-3
390
F
  0
LAYER
  5
234
100
AcDbSymbolTableRecord
100
AcDbLayerTableRecord
  2
474700816_6
 70
0
 62
7
  6
CONTINUOUS
370
-3
390
F
  0
LAYER
  5
235
100
AcDbSymbolTableRecord
100
AcDbLayerTableRecord
  2
474703888
 70
0
 62
7
  6
CONTINUOUS
370
-3
390
F
  0
LAYER
  5
236
100
AcDbSymbolTableRecord
100
AcDbLayerTableRecord
  2
474704912
 70
0
 62
7
  6
CONTINUOUS
370
-3
390
F
  0
LAYER
  5
237
100
AcDbSymbolTableRecord
100
AcDbLayerTableRecord
  2
474727440
 70
0
 62
7
  6
CONTINUOUS
370
-3
390
F
  0
LAYER
  5
238
100
AcDbSymbolTableRecord
100
AcDbLayerTableRecord
  2
474727440_1
 70
0
 62
7
  6
CONTINUOUS
370
-3
390
F
  0
LAYER
  5
239
100
AcDbSymbolTableRecord
100
AcDbLayerTableRecord
  2
474727568
 70
0
 62
7
  6
CONTINUOUS
370
-3
390
F
  0
LAYER
  5
23A
100
AcDbSymbolTableRecord
100
AcDbLayerTableRecord
  2
474730768
 70
0
 62
7
  6
CONTINUOUS
370
-3
390
F
  0
LAYER
  5
23B
100
AcDbSymbolTableRecord
100
AcDbLayerTableRecord
  2
474730768_1
 70
0
 62
7
  6
CONTINUOUS
370
-3
390
F
  0
LAYER
  5
23C
100
AcDbSymbolTableRecord
100
AcDbLayerTableRecord
  2
542304768
 70
0
 62
7
  6
CONTINUOUS
370
-3
390
F
  0
LAYER
  5
23D
100
AcDbSymbolTableRecord
100
AcDbLayerTableRecord
  2
542304888
 70
0
 62
7
  6
CONTINUOUS
370
-3
390
F
  0
LAYER
  5
23E
100
AcDbSymbolTableRecord
100
AcDbLayerTableRecord
  2
542307168
 70
0
 62
7
  6
CONTINUOUS
370
-3
390
F
  0
LAYER
  5
23F
100
AcDbSymbolTableRecord
100
AcDbLayerTableRecord
  2
542307168_1
 70
0
 62
7
  6
CONTINUOUS
370
-3
390
F
  0
LAYER
  5
240
100
AcDbSymbolTableRecord
100
AcDbLayerTableRecord
  2
542307168_2
 70
0
 62
7
  6
CONTINUOUS
370
-3
390
F
  0
LAYER
  5
241
100
AcDbSymbolTableRecord
100
AcDbLayerTableRecord
  2
542307168_3
 70
0
 62
7
  6
CONTINUOUS
370
-3
390
F
  0
LAYER
  5
242
100
AcDbSymbolTableRecord
100
AcDbLayerTableRecord
  2
542307168_4
 70
0
 62
7
  6
CONTINUOUS
370
-3
390
F
  0
LAYER
  5
243
100
AcDbSymbolTableRecord
100
AcDbLayerTableRecord
  2
542307168_5
 70
0
 62
7
  6
CONTINUOUS
370
-3
390
F
  0
LAYER
  5
244
100
AcDbSymbolTableRecord
100
AcDbLayerTableRecord
  2
542307168_6
 70
0
 62
7
  6
CONTINUOUS
370
-3
390
F
  0
LAYER
  5
245
100
AcDbSymbolTableRecord
100
AcDbLayerTableRecord
  2
542307168_7
 70
0
 62
7
  6
CONTINUOUS
370
-3
390
F
  0
LAYER
  5
246
100
AcDbSymbolTableRecord
100
AcDbLayerTableRecord
  2
542307168_8
 70
0
 62
7
  6
CONTINUOUS
370
-3
390
F
  0
LAYER
  5
247
100
AcDbSymbolTableRecord
100
AcDbLayerTableRecord
  2
542307288
 70
0
 62
7
  6
CONTINUOUS
370
-3
390
F
  0
LAYER
  5
248
100
AcDbSymbolTableRecord
100
AcDbLayerTableRecord
  2
542307288_1
 70
0
 62
7
  6
CONTINUOUS
370
-3
390
F
  0
LAYER
  5
249
100
AcDbSymbolTableRecord
100
AcDbLayerTableRecord
  2
542307288_2
 70
0
 62
7
  6
CONTINUOUS
370
-3
390
F
  0
LAYER
  5
24A
100
AcDbSymbolTableRecord
100
AcDbLayerTableRecord
  2
542307288_3
 70
0
 62
7
  6
CONTINUOUS
370
-3
390
F
  0
LAYER
  5
24B
100
AcDbSymbolTableRecord
100
AcDbLayerTableRecord
  2
542307288_4
 70
0
 62
7
  6
CONTINUOUS
370
-3
390
F
  0
LAYER
  5
24C
100
AcDbSymbolTableRecord
100
AcDbLayerTableRecord
  2
542307408
 70
0
 62
7
  6
CONTINUOUS
370
-3
390
F
  0
LAYER
  5
24D
100
AcDbSymbolTableRecord
100
AcDbLayerTableRecord
  2
542307408_1
 70
0
 62
7
  6
CONTINUOUS
370
-3
390
F
  0
LAYER
  5
24E
100
AcDbSymbolTableRecord
100
AcDbLayerTableRecord
  2
542307408_2
 70
0
 62
7
  6
CONTINUOUS
370
-3
390
F
  0
LAYER
  5
24F
100
AcDbSymbolTableRecord
100
AcDbLayerTableRecord
  2
542307408_3
 70
0
 62
7
  6
CONTINUOUS
370
-3
390
F
  0
LAYER
  5
250
100
AcDbSymbolTableRecord
100
AcDbLayerTableRecord
  2
542307528
 70
0
 62
7
  6
CONTINUOUS
370
-3
390
F
  0
LAYER
  5
251
100
AcDbSymbolTableRecord
100
AcDbLayerTableRecord
  2
542307528_1
 70
0
 62
7
  6
CONTINUOUS
370
-3
390
F
  0
LAYER
  5
252
100
AcDbSymbolTableRecord
100
AcDbLayerTableRecord
  2
542307528_2
 70
0
 62
7
  6
CONTINUOUS
370
-3
390
F
  0
LAYER
  5
253
100
AcDbSymbolTableRecord
100
AcDbLayerTableRecord
  2
542307528_3
 70
0
 62
7
  6
CONTINUOUS
370
-3
390
F
  0
LAYER
  5
254
100
AcDbSymbolTableRecord
100
AcDbLayerTableRecord
  2
542888720
 70
0
 62
7
  6
CONTINUOUS
370
-3
390
F
  0
LAYER
  5
255
100
AcDbSymbolTableRecord
100
AcDbLayerTableRecord
  2
542888720_1
 70
0
 62
7
  6
CONTINUOUS
370
-3
390
F
  0
LAYER
  5
256
100
AcDbSymbolTableRecord
100
AcDbLayerTableRecord
  2
542888848
 70
0
 62
7
  6
CONTINUOUS
370
-3
390
F
  0
LAYER
  5
257
100
AcDbSymbolTableRecord
100
AcDbLayerTableRecord
  2
542888976
 70
0
 62
7
  6
CONTINUOUS
370
-3
390
F
  0
LAYER
  5
258
100
AcDbSymbolTableRecord
100
AcDbLayerTableRecord
  2
542889104
 70
0
 62
7
  6
CONTINUOUS
370
-3
390
F
  0
LAYER
  5
259
100
AcDbSymbolTableRecord
100
AcDbLayerTableRecord
  2
542889104_1
 70
0
 62
7
  6
CONTINUOUS
370
-3
390
F
  0
LAYER
  5
25A
100
AcDbSymbolTableRecord
100
AcDbLayerTableRecord
  2
542889360
 70
0
 62
7
  6
CONTINUOUS
370
-3
390
F
  0
LAYER
  5
25B
100
AcDbSymbolTableRecord
100
AcDbLayerTableRecord
  2
542889488
 70
0
 62
7
  6
CONTINUOUS
370
-3
390
F
  0
LAYER
  5
25C
100
AcDbSymbolTableRecord
100
AcDbLayerTableRecord
  2
542889616
 70
0
 62
7
  6
CONTINUOUS
370
-3
390
F
  0
LAYER
  5
25D
100
AcDbSymbolTableRecord
100
AcDbLayerTableRecord
  2
542889616_1
 70
0
 62
7
  6
CONTINUOUS
370
-3
390
F
  0
LAYER
  5
25E
100
AcDbSymbolTableRecord
100
AcDbLayerTableRecord
  2
542889616_2
 70
0
 62
7
  6
CONTINUOUS
370
-3
390
F
  0
LAYER
  5
25F
100
AcDbSymbolTableRecord
100
AcDbLayerTableRecord
  2
542889616_3
 70
0
 62
7
  6
CONTINUOUS
370
-3
390
F
  0
LAYER
  5
260
100
AcDbSymbolTableRecord
100
AcDbLayerTableRecord
  2
542889616_4
 70
0
 62
7
  6
CONTINUOUS
370
-3
390
F
  0
LAYER
  5
261
100
AcDbSymbolTableRecord
100
AcDbLayerTableRecord
  2
542889616_5
 70
0
 62
7
  6
CONTINUOUS
370
-3
390
F
  0
LAYER
  5
262
100
AcDbSymbolTableRecord
100
AcDbLayerTableRecord
  2
542889616_6
 70
0
 62
7
  6
CONTINUOUS
370
-3
390
F
  0
LAYER
  5
263
100
AcDbSymbolTableRecord
100
AcDbLayerTableRecord
  2
542889744
 70
0
 62
7
  6
CONTINUOUS
370
-3
390
F
  0
LAYER
  5
264
100
AcDbSymbolTableRecord
100
AcDbLayerTableRecord
  2
542889744_1
 70
0
 62
7
  6
CONTINUOUS
370
-3
390
F
  0
LAYER
  5
265
100
AcDbSymbolTableRecord
100
AcDbLayerTableRecord
  2
542889744_2
 70
0
 62
7
  6
CONTINUOUS
370
-3
390
F
  0
LAYER
  5
266
100
AcDbSymbolTableRecord
100
AcDbLayerTableRecord
  2
542889744_3
 70
0
 62
7
  6
CONTINUOUS
370
-3
390
F
  0
LAYER
  5
267
100
AcDbSymbolTableRecord
100
AcDbLayerTableRecord
  2
542889744_4
 70
0
 62
7
  6
CONTINUOUS
370
-3
390
F
  0
LAYER
  5
268
100
AcDbSymbolTableRecord
100
AcDbLayerTableRecord
  2
542889744_5
 70
0
 62
7
  6
CONTINUOUS
370
-3
390
F
  0
LAYER
  5
269
100
AcDbSymbolTableRecord
100
AcDbLayerTableRecord
  2
542889744_6
 70
0
 62
7
  6
CONTINUOUS
370
-3
390
F
  0
LAYER
  5
26A
100
AcDbSymbolTableRecord
100
AcDbLayerTableRecord
  2
542889872
 70
0
 62
7
  6
CONTINUOUS
370
-3
390
F
  0
LAYER
  5
26B
100
AcDbSymbolTableRecord
100
AcDbLayerTableRecord
  2
542889872_1
 70
0
 62
7
  6
CONTINUOUS
370
-3
390
F
  0
LAYER
  5
26C
100
AcDbSymbolTableRecord
100
AcDbLayerTableRecord
  2
542889872_2
 70
0
 62
7
  6
CONTINUOUS
370
-3
390
F
  0
LAYER
  5
26D
100
AcDbSymbolTableRecord
100
AcDbLayerTableRecord
  2
542889872_3
 70
0
 62
7
  6
CONTINUOUS
370
-3
390
F
  0
LAYER
  5
26E
100
AcDbSymbolTableRecord
100
AcDbLayerTableRecord
  2
542889872_4
 70
0
 62
7
  6
CONTINUOUS
370
-3
390
F
  0
LAYER
  5
26F
100
AcDbSymbolTableRecord
100
AcDbLayerTableRecord
  2
542889872_5
 70
0
 62
7
  6
CONTINUOUS
370
-3
390
F
  0
LAYER
  5
270
100
AcDbSymbolTableRecord
100
AcDbLayerTableRecord
  2
542889872_6
 70
0
 62
7
  6
CONTINUOUS
370
-3
390
F
  0
LAYER
  5
271
100
AcDbSymbolTableRecord
100
AcDbLayerTableRecord
  2
542890000
 70
0
 62
7
  6
CONTINUOUS
370
-3
390
F
  0
LAYER
  5
272
100
AcDbSymbolTableRecord
100
AcDbLayerTableRecord
  2
542890000_1
 70
0
 62
7
  6
CONTINUOUS
370
-3
390
F
  0
LAYER
  5
273
100
AcDbSymbolTableRecord
100
AcDbLayerTableRecord
  2
542890000_2
 70
0
 62
7
  6
CONTINUOUS
370
-3
390
F
  0
LAYER
  5
274
100
AcDbSymbolTableRecord
100
AcDbLayerTableRecord
  2
542890000_3
 70
0
 62
7
  6
CONTINUOUS
370
-3
390
F
  0
LAYER
  5
275
100
AcDbSymbolTableRecord
100
AcDbLayerTableRecord
  2
542890128
 70
0
 62
7
  6
CONTINUOUS
370
-3
390
F
  0
LAYER
  5
276
100
AcDbSymbolTableRecord
100
AcDbLayerTableRecord
  2
542890128_1
 70
0
 62
7
  6
CONTINUOUS
370
-3
390
F
  0
LAYER
  5
277
100
AcDbSymbolTableRecord
100
AcDbLayerTableRecord
  2
542890384
 70
0
 62
7
  6
CONTINUOUS
370
-3
390
F
  0
LAYER
  5
278
100
AcDbSymbolTableRecord
100
AcDbLayerTableRecord
  2
542890384_1
 70
0
 62
7
  6
CONTINUOUS
370
-3
390
F
  0
LAYER
  5
279
100
AcDbSymbolTableRecord
100
AcDbLayerTableRecord
  2
542890512
 70
0
 62
7
  6
CONTINUOUS
370
-3
390
F
  0
LAYER
  5
27A
100
AcDbSymbolTableRecord
100
AcDbLayerTableRecord
  2
542890512_1
 70
0
 62
7
  6
CONTINUOUS
370
-3
390
F
  0
LAYER
  5
27B
100
AcDbSymbolTableRecord
100
AcDbLayerTableRecord
  2
542890640
 70
0
 62
7
  6
CONTINUOUS
370
-3
390
F
  0
LAYER
  5
27C
100
AcDbSymbolTableRecord
100
AcDbLayerTableRecord
  2
542890640_1
 70
0
 62
7
  6
CONTINUOUS
370
-3
390
F
  0
LAYER
  5
27D
100
AcDbSymbolTableRecord
100
AcDbLayerTableRecord
  2
542890768
 70
0
 62
7
  6
CONTINUOUS
370
-3
390
F
  0
LAYER
  5
27E
100
AcDbSymbolTableRecord
100
AcDbLayerTableRecord
  2
542890768_1
 70
0
 62
7
  6
CONTINUOUS
370
-3
390
F
  0
LAYER
  5
27F
100
AcDbSymbolTableRecord
100
AcDbLayerTableRecord
  2
542890896
 70
0
 62
7
  6
CONTINUOUS
370
-3
390
F
  0
LAYER
  5
280
100
AcDbSymbolTableRecord
100
AcDbLayerTableRecord
  2
542891024
 70
0
 62
7
  6
CONTINUOUS
370
-3
390
F
  0
LAYER
  5
281
100
AcDbSymbolTableRecord
100
AcDbLayerTableRecord
  2
542891024_1
 70
0
 62
7
  6
CONTINUOUS
370
-3
390
F
  0
LAYER
  5
282
100
AcDbSymbolTableRecord
100
AcDbLayerTableRecord
  2
542891408
 70
0
 62
7
  6
CONTINUOUS
370
-3
390
F
  0
LAYER
  5
283
100
AcDbSymbolTableRecord
100
AcDbLayerTableRecord
  2
542891408_1
 70
0
 62
7
  6
CONTINUOUS
370
-3
390
F
  0
LAYER
  5
284
100
AcDbSymbolTableRecord
100
AcDbLayerTableRecord
  2
542891792
 70
0
 62
7
  6
CONTINUOUS
370
-3
390
F
  0
LAYER
  5
285
100
AcDbSymbolTableRecord
100
AcDbLayerTableRecord
  2
542891792_1
 70
0
 62
7
  6
CONTINUOUS
370
-3
390
F
  0
LAYER
  5
286
100
AcDbSymbolTableRecord
100
AcDbLayerTableRecord
  2
542892048
 70
0
 62
7
  6
CONTINUOUS
370
-3
390
F
  0
LAYER
  5
287
100
AcDbSymbolTableRecord
100
AcDbLayerTableRecord
  2
542892176
 70
0
 62
7
  6
CONTINUOUS
370
-3
390
F
  0
LAYER
  5
288
100
AcDbSymbolTableRecord
100
AcDbLayerTableRecord
  2
542892560
 70
0
 62
7
  6
CONTINUOUS
370
-3
390
F
  0
LAYER
  5
289
100
AcDbSymbolTableRecord
100
AcDbLayerTableRecord
  2
542892816
 70
0
 62
7
  6
CONTINUOUS
370
-3
390
F
  0
LAYER
  5
28A
100
AcDbSymbolTableRecord
100
AcDbLayerTableRecord
  2
542893072
 70
0
 62
7
  6
CONTINUOUS
370
-3
390
F
  0
LAYER
  5
28B
100
AcDbSymbolTableRecord
100
AcDbLayerTableRecord
  2
542893456
 70
0
 62
7
  6
CONTINUOUS
370
-3
390
F
  0
LAYER
  5
28C
100
AcDbSymbolTableRecord
100
AcDbLayerTableRecord
  2
542893456_1
 70
0
 62
7
  6
CONTINUOUS
370
-3
390
F
  0
LAYER
  5
28D
100
AcDbSymbolTableRecord
100
AcDbLayerTableRecord
  2
886209568
 70
0
 62
7
  6
CONTINUOUS
370
-3
390
F
  0
LAYER
  5
28E
100
AcDbSymbolTableRecord
100
AcDbLayerTableRecord
  2
886209568_1
 70
0
 62
7
  6
CONTINUOUS
370
-3
390
F
  0
LAYER
  5
28F
100
AcDbSymbolTableRecord
100
AcDbLayerTableRecord
  2
886209568_2
 70
0
 62
7
  6
CONTINUOUS
370
-3
390
F
  0
LAYER
  5
290
100
AcDbSymbolTableRecord
100
AcDbLayerTableRecord
  2
886209568_3
 70
0
 62
7
  6
CONTINUOUS
370
-3
390
F
  0
LAYER
  5
291
100
AcDbSymbolTableRecord
100
AcDbLayerTableRecord
  2
886209808
 70
0
 62
7
  6
CONTINUOUS
370
-3
390
F
  0
LAYER
  5
292
100
AcDbSymbolTableRecord
100
AcDbLayerTableRecord
  2
886209808_1
 70
0
 62
7
  6
CONTINUOUS
370
-3
390
F
  0
LAYER
  5
293
100
AcDbSymbolTableRecord
100
AcDbLayerTableRecord
  2
886209808_2
 70
0
 62
7
  6
CONTINUOUS
370
-3
390
F
  0
LAYER
  5
294
100
AcDbSymbolTableRecord
100
AcDbLayerTableRecord
  2
886209808_3
 70
0
 62
7
  6
CONTINUOUS
370
-3
390
F
  0
LAYER
  5
295
100
AcDbSymbolTableRecord
100
AcDbLayerTableRecord
  2
886209808_4
 70
0
 62
7
  6
CONTINUOUS
370
-3
390
F
  0
LAYER
  5
296
100
AcDbSymbolTableRecord
100
AcDbLayerTableRecord
  2
886209808_5
 70
0
 62
7
  6
CONTINUOUS
370
-3
390
F
  0
LAYER
  5
297
100
AcDbSymbolTableRecord
100
AcDbLayerTableRecord
  2
886209808_6
 70
0
 62
7
  6
CONTINUOUS
370
-3
390
F
  0
LAYER
  5
298
100
AcDbSymbolTableRecord
100
AcDbLayerTableRecord
  2
886209808_7
 70
0
 62
7
  6
CONTINUOUS
370
-3
390
F
  0
LAYER
  5
299
100
AcDbSymbolTableRecord
100
AcDbLayerTableRecord
  2
886209808_8
 70
0
 62
7
  6
CONTINUOUS
370
-3
390
F
  0
LAYER
  5
29A
100
AcDbSymbolTableRecord
100
AcDbLayerTableRecord
  2
886211488
 70
0
 62
7
  6
CONTINUOUS
370
-3
390
F
  0
LAYER
  5
29B
100
AcDbSymbolTableRecord
100
AcDbLayerTableRecord
  2
886211488_1
 70
0
 62
7
  6
CONTINUOUS
370
-3
390
F
  0
LAYER
  5
29C
100
AcDbSymbolTableRecord
100
AcDbLayerTableRecord
  2
886211488_2
 70
0
 62
7
  6
CONTINUOUS
370
-3
390
F
  0
LAYER
  5
29D
100
AcDbSymbolTableRecord
100
AcDbLayerTableRecord
  2
886211488_3
 70
0
 62
7
  6
CONTINUOUS
370
-3
390
F
  0
LAYER
  5
29E
100
AcDbSymbolTableRecord
100
AcDbLayerTableRecord
  2
886211488_4
 70
0
 62
7
  6
CONTINUOUS
370
-3
390
F
  0
LAYER
  5
29F
100
AcDbSymbolTableRecord
100
AcDbLayerTableRecord
  2
886212928
 70
0
 62
7
  6
CONTINUOUS
370
-3
390
F
  0
LAYER
  5
2A0
100
AcDbSymbolTableRecord
100
AcDbLayerTableRecord
  2
886212928_1
 70
0
 62
7
  6
CONTINUOUS
370
-3
390
F
  0
LAYER
  5
2A1
100
AcDbSymbolTableRecord
100
AcDbLayerTableRecord
  2
886212928_2
 70
0
 62
7
  6
CONTINUOUS
370
-3
390
F
  0
LAYER
  5
2A2
100
AcDbSymbolTableRecord
100
AcDbLayerTableRecord
  2
886212928_3
 70
0
 62
7
  6
CONTINUOUS
370
-3
390
F
  0
LAYER
  5
2A3
100
AcDbSymbolTableRecord
100
AcDbLayerTableRecord
  2
907105184
 70
0
 62
7
  6
CONTINUOUS
370
-3
390
F
  0
LAYER
  5
2A4
100
AcDbSymbolTableRecord
100
AcDbLayerTableRecord
  2
907105184_1
 70
0
 62
7
  6
CONTINUOUS
370
-3
390
F
  0
LAYER
  5
2A5
100
AcDbSymbolTableRecord
100
AcDbLayerTableRecord
  2
907107104
 70
0
 62
7
  6
CONTINUOUS
370
-3
390
F
  0
LAYER
  5
2A6
100
AcDbSymbolTableRecord
100
AcDbLayerTableRecord
  2
907107104_1
 70
0
 62
7
  6
CONTINUOUS
370
-3
390
F
  0
LAYER
  5
2A7
100
AcDbSymbolTableRecord
100
AcDbLayerTableRecord
  2
907115296
 70
0
 62
7
  6
CONTINUOUS
370
-3
390
F
  0
LAYER
  5
2A8
100
AcDbSymbolTableRecord
100
AcDbLayerTableRecord
  2
ASSI
 70
0
 62
7
  6
CONTINUOUS
370
-3
390
F
  0
LAYER
  5
2A9
100
AcDbSymbolTableRecord
100
AcDbLayerTableRecord
  2
BASE-1299
 70
0
 62
7
  6
CONTINUOUS
370
-3
390
F
  0
LAYER
  5
2AA
100
AcDbSymbolTableRecord
100
AcDbLayerTableRecord
  2
BASE-1305
 70
0
 62
7
  6
CONTINUOUS
370
-3
390
F
  0
LAYER
  5
2AB
100
AcDbSymbolTableRecord
100
AcDbLayerTableRecord
  2
BASE-1311
 70
0
 62
7
  6
CONTINUOUS
370
-3
390
F
  0
LAYER
  5
2AC
100
AcDbSymbolTableRecord
100
AcDbLayerTableRecord
  2
BASE-1317
 70
0
 62
7
  6
CONTINUOUS
370
-3
390
F
  0
LAYER
  5
2AD
100
AcDbSymbolTableRecord
100
AcDbLayerTableRecord
  2
BASE-248428
 70
0
 62
7
  6
CONTINUOUS
370
-3
390
F
  0
LAYER
  5
2AE
100
AcDbSymbolTableRecord
100
AcDbLayerTableRecord
  2
BASE-263497
 70
0
 62
7
  6
CONTINUOUS
370
-3
390
F
  0
LAYER
  5
2AF
100
AcDbSymbolTableRecord
100
AcDbLayerTableRecord
  2
BASE-264060
 70
0
 62
7
  6
CONTINUOUS
370
-3
390
F
  0
LAYER
  5
2B0
100
AcDbSymbolTableRecord
100
AcDbLayerTableRecord
  2
BASE-273209
 70
0
 62
7
  6
CONTINUOUS
370
-3
390
F
  0
LAYER
  5
2B1
100
AcDbSymbolTableRecord
100
AcDbLayerTableRecord
  2
BOARD
 70
0
 62
7
  6
CONTINUOUS
370
-3
390
F
  0
LAYER
  5
2B2
100
AcDbSymbolTableRecord
100
AcDbLayerTableRecord
  2
C-0805
 70
0
 62
7
  6
CONTINUOUS
370
-3
390
F
  0
LAYER
  5
2B3
100
AcDbSymbolTableRecord
100
AcDbLayerTableRecord
  2
C-0805_1
 70
0
 62
7
  6
CONTINUOUS
370
-3
390
F
  0
LAYER
  5
2B4
100
AcDbSymbolTableRecord
100
AcDbLayerTableRecord
  2
C-0805_10
 70
0
 62
7
  6
CONTINUOUS
370
-3
390
F
  0
LAYER
  5
2B5
100
AcDbSymbolTableRecord
100
AcDbLayerTableRecord
  2
C-0805_11
 70
0
 62
7
  6
CONTINUOUS
370
-3
390
F
  0
LAYER
  5
2B6
100
AcDbSymbolTableRecord
100
AcDbLayerTableRecord
  2
C-0805_12
 70
0
 62
7
  6
CONTINUOUS
370
-3
390
F
  0
LAYER
  5
2B7
100
AcDbSymbolTableRecord
100
AcDbLayerTableRecord
  2
C-0805_13
 70
0
 62
7
  6
CONTINUOUS
370
-3
390
F
  0
LAYER
  5
2B8
100
AcDbSymbolTableRecord
100
AcDbLayerTableRecord
  2
C-0805_14
 70
0
 62
7
  6
CONTINUOUS
370
-3
390
F
  0
LAYER
  5
2B9
100
AcDbSymbolTableRecord
100
AcDbLayerTableRecord
  2
C-0805_2
 70
0
 62
7
  6
CONTINUOUS
370
-3
390
F
  0
LAYER
  5
2BA
100
AcDbSymbolTableRecord
100
AcDbLayerTableRecord
  2
C-0805_3
 70
0
 62
7
  6
CONTINUOUS
370
-3
390
F
  0
LAYER
  5
2BB
100
AcDbSymbolTableRecord
100
AcDbLayerTableRecord
  2
C-0805_4
 70
0
 62
7
  6
CONTINUOUS
370
-3
390
F
  0
LAYER
  5
2BC
100
AcDbSymbolTableRecord
100
AcDbLayerTableRecord
  2
C-0805_5
 70
0
 62
7
  6
CONTINUOUS
370
-3
390
F
  0
LAYER
  5
2BD
100
AcDbSymbolTableRecord
100
AcDbLayerTableRecord
  2
C-0805_6
 70
0
 62
7
  6
CONTINUOUS
370
-3
390
F
  0
LAYER
  5
2BE
100
AcDbSymbolTableRecord
100
AcDbLayerTableRecord
  2
C-0805_7
 70
0
 62
7
  6
CONTINUOUS
370
-3
390
F
  0
LAYER
  5
2BF
100
AcDbSymbolTableRecord
100
AcDbLayerTableRecord
  2
C-0805_8
 70
0
 62
7
  6
CONTINUOUS
370
-3
390
F
  0
LAYER
  5
2C0
100
AcDbSymbolTableRecord
100
AcDbLayerTableRecord
  2
C-0805_9
 70
0
 62
7
  6
CONTINUOUS
370
-3
390
F
  0
LAYER
  5
2C1
100
AcDbSymbolTableRecord
100
AcDbLayerTableRecord
  2
C-1206
 70
0
 62
7
  6
CONTINUOUS
370
-3
390
F
  0
LAYER
  5
2C2
100
AcDbSymbolTableRecord
100
AcDbLayerTableRecord
  2
C-1206_1
 70
0
 62
7
  6
CONTINUOUS
370
-3
390
F
  0
LAYER
  5
2C3
100
AcDbSymbolTableRecord
100
AcDbLayerTableRecord
  2
C-1206_2
 70
0
 62
7
  6
CONTINUOUS
370
-3
390
F
  0
LAYER
  5
2C4
100
AcDbSymbolTableRecord
100
AcDbLayerTableRecord
  2
C-1206_3
 70
0
 62
7
  6
CONTINUOUS
370
-3
390
F
  0
LAYER
  5
2C5
100
AcDbSymbolTableRecord
100
AcDbLayerTableRecord
  2
C-1206_4
 70
0
 62
7
  6
CONTINUOUS
370
-3
390
F
  0
LAYER
  5
2C6
100
AcDbSymbolTableRecord
100
AcDbLayerTableRecord
  2
C-1206_5
 70
0
 62
7
  6
CONTINUOUS
370
-3
390
F
  0
LAYER
  5
2C7
100
AcDbSymbolTableRecord
100
AcDbLayerTableRecord
  2
C-1206_6
 70
0
 62
7
  6
CONTINUOUS
370
-3
390
F
  0
LAYER
  5
2C8
100
AcDbSymbolTableRecord
100
AcDbLayerTableRecord
  2
C-1206_7
 70
0
 62
7
  6
CONTINUOUS
370
-3
390
F
  0
LAYER
  5
2C9
100
AcDbSymbolTableRecord
100
AcDbLayerTableRecord
  2
C1
 70
0
 62
7
  6
CONTINUOUS
370
-3
390
F
  0
LAYER
  5
2CA
100
AcDbSymbolTableRecord
100
AcDbLayerTableRecord
  2
C10
 70
0
 62
7
  6
CONTINUOUS
370
-3
390
F
  0
LAYER
  5
2CB
100
AcDbSymbolTableRecord
100
AcDbLayerTableRecord
  2
C11
 70
0
 62
7
  6
CONTINUOUS
370
-3
390
F
  0
LAYER
  5
2CC
100
AcDbSymbolTableRecord
100
AcDbLayerTableRecord
  2
C12
 70
0
 62
7
  6
CONTINUOUS
370
-3
390
F
  0
LAYER
  5
2CD
100
AcDbSymbolTableRecord
100
AcDbLayerTableRecord
  2
C13
 70
0
 62
7
  6
CONTINUOUS
370
-3
390
F
  0
LAYER
  5
2CE
100
AcDbSymbolTableRecord
100
AcDbLayerTableRecord
  2
C14
 70
0
 62
7
  6
CONTINUOUS
370
-3
390
F
  0
LAYER
  5
2CF
100
AcDbSymbolTableRecord
100
AcDbLayerTableRecord
  2
C15
 70
0
 62
7
  6
CONTINUOUS
370
-3
390
F
  0
LAYER
  5
2D0
100
AcDbSymbolTableRecord
100
AcDbLayerTableRecord
  2
C16
 70
0
 62
7
  6
CONTINUOUS
370
-3
390
F
  0
LAYER
  5
2D1
100
AcDbSymbolTableRecord
100
AcDbLayerTableRecord
  2
C17
 70
0
 62
7
  6
CONTINUOUS
370
-3
390
F
  0
LAYER
  5
2D2
100
AcDbSymbolTableRecord
100
AcDbLayerTableRecord
  2
C18
 70
0
 62
7
  6
CONTINUOUS
370
-3
390
F
  0
LAYER
  5
2D3
100
AcDbSymbolTableRecord
100
AcDbLayerTableRecord
  2
C19
 70
0
 62
7
  6
CONTINUOUS
370
-3
390
F
  0
LAYER
  5
2D4
100
AcDbSymbolTableRecord
100
AcDbLayerTableRecord
  2
C20
 70
0
 62
7
  6
CONTINUOUS
370
-3
390
F
  0
LAYER
  5
2D5
100
AcDbSymbolTableRecord
100
AcDbLayerTableRecord
  2
C21
 70
0
 62
7
  6
CONTINUOUS
370
-3
390
F
  0
LAYER
  5
2D6
100
AcDbSymbolTableRecord
100
AcDbLayerTableRecord
  2
C22
 70
0
 62
7
  6
CONTINUOUS
370
-3
390
F
  0
LAYER
  5
2D7
100
AcDbSymbolTableRecord
100
AcDbLayerTableRecord
  2
C23
 70
0
 62
7
  6
CONTINUOUS
370
-3
390
F
  0
LAYER
  5
2D8
100
AcDbSymbolTableRecord
100
AcDbLayerTableRecord
  2
C24
 70
0
 62
7
  6
CONTINUOUS
370
-3
390
F
  0
LAYER
  5
2D9
100
AcDbSymbolTableRecord
100
AcDbLayerTableRecord
  2
C25
 70
0
 62
7
  6
CONTINUOUS
370
-3
390
F
  0
LAYER
  5
2DA
100
AcDbSymbolTableRecord
100
AcDbLayerTableRecord
  2
C26
 70
0
 62
7
  6
CONTINUOUS
370
-3
390
F
  0
LAYER
  5
2DB
100
AcDbSymbolTableRecord
100
AcDbLayerTableRecord
  2
C27
 70
0
 62
7
  6
CONTINUOUS
370
-3
390
F
  0
LAYER
  5
2DC
100
AcDbSymbolTableRecord
100
AcDbLayerTableRecord
  2
C28
 70
0
 62
7
  6
CONTINUOUS
370
-3
390
F
  0
LAYER
  5
2DD
100
AcDbSymbolTableRecord
100
AcDbLayerTableRecord
  2
C29
 70
0
 62
7
  6
CONTINUOUS
370
-3
390
F
  0
LAYER
  5
2DE
100
AcDbSymbolTableRecord
100
AcDbLayerTableRecord
  2
C3
 70
0
 62
7
  6
CONTINUOUS
370
-3
390
F
  0
LAYER
  5
2DF
100
AcDbSymbolTableRecord
100
AcDbLayerTableRecord
  2
C30
 70
0
 62
7
  6
CONTINUOUS
370
-3
390
F
  0
LAYER
  5
2E0
100
AcDbSymbolTableRecord
100
AcDbLayerTableRecord
  2
C31
 70
0
 62
7
  6
CONTINUOUS
370
-3
390
F
  0
LAYER
  5
2E1
100
AcDbSymbolTableRecord
100
AcDbLayerTableRecord
  2
C32
 70
0
 62
7
  6
CONTINUOUS
370
-3
390
F
  0
LAYER
  5
2E2
100
AcDbSymbolTableRecord
100
AcDbLayerTableRecord
  2
C33
 70
0
 62
7
  6
CONTINUOUS
370
-3
390
F
  0
LAYER
  5
2E3
100
AcDbSymbolTableRecord
100
AcDbLayerTableRecord
  2
C5
 70
0
 62
7
  6
CONTINUOUS
370
-3
390
F
  0
LAYER
  5
2E4
100
AcDbSymbolTableRecord
100
AcDbLayerTableRecord
  2
C6
 70
0
 62
7
  6
CONTINUOUS
370
-3
390
F
  0
LAYER
  5
2E5
100
AcDbSymbolTableRecord
100
AcDbLayerTableRecord
  2
C7
 70
0
 62
7
  6
CONTINUOUS
370
-3
390
F
  0
LAYER
  5
2E6
100
AcDbSymbolTableRecord
100
AcDbLayerTableRecord
  2
C8
 70
0
 62
7
  6
CONTINUOUS
370
-3
390
F
  0
LAYER
  5
2E7
100
AcDbSymbolTableRecord
100
AcDbLayerTableRecord
  2
C9
 70
0
 62
7
  6
CONTINUOUS
370
-3
390
F
  0
LAYER
  5
2E8
100
AcDbSymbolTableRecord
100
AcDbLayerTableRecord
  2
COLOR1
 70
0
 62
7
  6
CONTINUOUS
370
-3
390
F
  0
LAYER
  5
2E9
100
AcDbSymbolTableRecord
100
AcDbLayerTableRecord
  2
COLOR100
 70
0
 62
7
  6
CONTINUOUS
370
-3
390
F
  0
LAYER
  5
2EA
100
AcDbSymbolTableRecord
100
AcDbLayerTableRecord
  2
COLOR101
 70
0
 62
7
  6
CONTINUOUS
370
-3
390
F
  0
LAYER
  5
2EB
100
AcDbSymbolTableRecord
100
AcDbLayerTableRecord
  2
COLOR102
 70
0
 62
7
  6
CONTINUOUS
370
-3
390
F
  0
LAYER
  5
2EC
100
AcDbSymbolTableRecord
100
AcDbLayerTableRecord
  2
COLOR104
 70
0
 62
7
  6
CONTINUOUS
370
-3
390
F
  0
LAYER
  5
2ED
100
AcDbSymbolTableRecord
100
AcDbLayerTableRecord
  2
COLOR106
 70
0
 62
7
  6
CONTINUOUS
370
-3
390
F
  0
LAYER
  5
2EE
100
AcDbSymbolTableRecord
100
AcDbLayerTableRecord
  2
COLOR108
 70
0
 62
7
  6
CONTINUOUS
370
-3
390
F
  0
LAYER
  5
2EF
100
AcDbSymbolTableRecord
100
AcDbLayerTableRecord
  2
COLOR11
 70
0
 62
7
  6
CONTINUOUS
370
-3
390
F
  0
LAYER
  5
2F0
100
AcDbSymbolTableRecord
100
AcDbLayerTableRecord
  2
COLOR110
 70
0
 62
7
  6
CONTINUOUS
370
-3
390
F
  0
LAYER
  5
2F1
100
AcDbSymbolTableRecord
100
AcDbLayerTableRecord
  2
COLOR111
 70
0
 62
7
  6
CONTINUOUS
370
-3
390
F
  0
LAYER
  5
2F2
100
AcDbSymbolTableRecord
100
AcDbLayerTableRecord
  2
COLOR113
 70
0
 62
7
  6
CONTINUOUS
370
-3
390
F
  0
LAYER
  5
2F3
100
AcDbSymbolTableRecord
100
AcDbLayerTableRecord
  2
COLOR114
 70
0
 62
7
  6
CONTINUOUS
370
-3
390
F
  0
LAYER
  5
2F4
100
AcDbSymbolTableRecord
100
AcDbLayerTableRecord
  2
COLOR115
 70
0
 62
7
  6
CONTINUOUS
370
-3
390
F
  0
LAYER
  5
2F5
100
AcDbSymbolTableRecord
100
AcDbLayerTableRecord
  2
COLOR116
 70
0
 62
7
  6
CONTINUOUS
370
-3
390
F
  0
LAYER
  5
2F6
100
AcDbSymbolTableRecord
100
AcDbLayerTableRecord
  2
COLOR117
 70
0
 62
7
  6
CONTINUOUS
370
-3
390
F
  0
LAYER
  5
2F7
100
AcDbSymbolTableRecord
100
AcDbLayerTableRecord
  2
COLOR132
 70
0
 62
7
  6
CONTINUOUS
370
-3
390
F
  0
LAYER
  5
2F8
100
AcDbSymbolTableRecord
100
AcDbLayerTableRecord
  2
COLOR133
 70
0
 62
7
  6
CONTINUOUS
370
-3
390
F
  0
LAYER
  5
2F9
100
AcDbSymbolTableRecord
100
AcDbLayerTableRecord
  2
COLOR134
 70
0
 62
7
  6
CONTINUOUS
370
-3
390
F
  0
LAYER
  5
2FA
100
AcDbSymbolTableRecord
100
AcDbLayerTableRecord
  2
COLOR135
 70
0
 62
7
  6
CONTINUOUS
370
-3
390
F
  0
LAYER
  5
2FB
100
AcDbSymbolTableRecord
100
AcDbLayerTableRecord
  2
COLOR136
 70
0
 62
7
  6
CONTINUOUS
370
-3
390
F
  0
LAYER
  5
2FC
100
AcDbSymbolTableRecord
100
AcDbLayerTableRecord
  2
COLOR137
 70
0
 62
7
  6
CONTINUOUS
370
-3
390
F
  0
LAYER
  5
2FD
100
AcDbSymbolTableRecord
100
AcDbLayerTableRecord
  2
COLOR138
 70
0
 62
7
  6
CONTINUOUS
370
-3
390
F
  0
LAYER
  5
2FE
100
AcDbSymbolTableRecord
100
AcDbLayerTableRecord
  2
COLOR139
 70
0
 62
7
  6
CONTINUOUS
370
-3
390
F
  0
LAYER
  5
2FF
100
AcDbSymbolTableRecord
100
AcDbLayerTableRecord
  2
COLOR14
 70
0
 62
7
  6
CONTINUOUS
370
-3
390
F
  0
LAYER
  5
300
100
AcDbSymbolTableRecord
100
AcDbLayerTableRecord
  2
COLOR140
 70
0
 62
7
  6
CONTINUOUS
370
-3
390
F
  0
LAYER
  5
301
100
AcDbSymbolTableRecord
100
AcDbLayerTableRecord
  2
COLOR141
 70
0
 62
7
  6
CONTINUOUS
370
-3
390
F
  0
LAYER
  5
302
100
AcDbSymbolTableRecord
100
AcDbLayerTableRecord
  2
COLOR142
 70
0
 62
7
  6
CONTINUOUS
370
-3
390
F
  0
LAYER
  5
303
100
AcDbSymbolTableRecord
100
AcDbLayerTableRecord
  2
COLOR143
 70
0
 62
7
  6
CONTINUOUS
370
-3
390
F
  0
LAYER
  5
304
100
AcDbSymbolTableRecord
100
AcDbLayerTableRecord
  2
COLOR144
 70
0
 62
7
  6
CONTINUOUS
370
-3
390
F
  0
LAYER
  5
305
100
AcDbSymbolTableRecord
100
AcDbLayerTableRecord
  2
COLOR145
 70
0
 62
7
  6
CONTINUOUS
370
-3
390
F
  0
LAYER
  5
306
100
AcDbSymbolTableRecord
100
AcDbLayerTableRecord
  2
COLOR146
 70
0
 62
7
  6
CONTINUOUS
370
-3
390
F
  0
LAYER
  5
307
100
AcDbSymbolTableRecord
100
AcDbLayerTableRecord
  2
COLOR147
 70
0
 62
7
  6
CONTINUOUS
370
-3
390
F
  0
LAYER
  5
308
100
AcDbSymbolTableRecord
100
AcDbLayerTableRecord
  2
COLOR148
 70
0
 62
7
  6
CONTINUOUS
370
-3
390
F
  0
LAYER
  5
309
100
AcDbSymbolTableRecord
100
AcDbLayerTableRecord
  2
COLOR149
 70
0
 62
7
  6
CONTINUOUS
370
-3
390
F
  0
LAYER
  5
30A
100
AcDbSymbolTableRecord
100
AcDbLayerTableRecord
  2
COLOR150
 70
0
 62
7
  6
CONTINUOUS
370
-3
390
F
  0
LAYER
  5
30B
100
AcDbSymbolTableRecord
100
AcDbLayerTableRecord
  2
COLOR151
 70
0
 62
7
  6
CONTINUOUS
370
-3
390
F
  0
LAYER
  5
30C
100
AcDbSymbolTableRecord
100
AcDbLayerTableRecord
  2
COLOR152
 70
0
 62
7
  6
CONTINUOUS
370
-3
390
F
  0
LAYER
  5
30D
100
AcDbSymbolTableRecord
100
AcDbLayerTableRecord
  2
COLOR153
 70
0
 62
7
  6
CONTINUOUS
370
-3
390
F
  0
LAYER
  5
30E
100
AcDbSymbolTableRecord
100
AcDbLayerTableRecord
  2
COLOR154
 70
0
 62
7
  6
CONTINUOUS
370
-3
390
F
  0
LAYER
  5
30F
100
AcDbSymbolTableRecord
100
AcDbLayerTableRecord
  2
COLOR155
 70
0
 62
7
  6
CONTINUOUS
370
-3
390
F
  0
LAYER
  5
310
100
AcDbSymbolTableRecord
100
AcDbLayerTableRecord
  2
COLOR156
 70
0
 62
7
  6
CONTINUOUS
370
-3
390
F
  0
LAYER
  5
311
100
AcDbSymbolTableRecord
100
AcDbLayerTableRecord
  2
COLOR157
 70
0
 62
7
  6
CONTINUOUS
370
-3
390
F
  0
LAYER
  5
312
100
AcDbSymbolTableRecord
100
AcDbLayerTableRecord
  2
COLOR158
 70
0
 62
7
  6
CONTINUOUS
370
-3
390
F
  0
LAYER
  5
313
100
AcDbSymbolTableRecord
100
AcDbLayerTableRecord
  2
COLOR159
 70
0
 62
7
  6
CONTINUOUS
370
-3
390
F
  0
LAYER
  5
314
100
AcDbSymbolTableRecord
100
AcDbLayerTableRecord
  2
COLOR16
 70
0
 62
7
  6
CONTINUOUS
370
-3
390
F
  0
LAYER
  5
315
100
AcDbSymbolTableRecord
100
AcDbLayerTableRecord
  2
COLOR160
 70
0
 62
7
  6
CONTINUOUS
370
-3
390
F
  0
LAYER
  5
316
100
AcDbSymbolTableRecord
100
AcDbLayerTableRecord
  2
COLOR161
 70
0
 62
7
  6
CONTINUOUS
370
-3
390
F
  0
LAYER
  5
317
100
AcDbSymbolTableRecord
100
AcDbLayerTableRecord
  2
COLOR162
 70
0
 62
7
  6
CONTINUOUS
370
-3
390
F
  0
LAYER
  5
318
100
AcDbSymbolTableRecord
100
AcDbLayerTableRecord
  2
COLOR163
 70
0
 62
7
  6
CONTINUOUS
370
-3
390
F
  0
LAYER
  5
319
100
AcDbSymbolTableRecord
100
AcDbLayerTableRecord
  2
COLOR164
 70
0
 62
7
  6
CONTINUOUS
370
-3
390
F
  0
LAYER
  5
31A
100
AcDbSymbolTableRecord
100
AcDbLayerTableRecord
  2
COLOR165
 70
0
 62
7
  6
CONTINUOUS
370
-3
390
F
  0
LAYER
  5
31B
100
AcDbSymbolTableRecord
100
AcDbLayerTableRecord
  2
COLOR166
 70
0
 62
7
  6
CONTINUOUS
370
-3
390
F
  0
LAYER
  5
31C
100
AcDbSymbolTableRecord
100
AcDbLayerTableRecord
  2
COLOR167
 70
0
 62
7
  6
CONTINUOUS
370
-3
390
F
  0
LAYER
  5
31D
100
AcDbSymbolTableRecord
100
AcDbLayerTableRecord
  2
COLOR168
 70
0
 62
7
  6
CONTINUOUS
370
-3
390
F
  0
LAYER
  5
31E
100
AcDbSymbolTableRecord
100
AcDbLayerTableRecord
  2
COLOR169
 70
0
 62
7
  6
CONTINUOUS
370
-3
390
F
  0
LAYER
  5
31F
100
AcDbSymbolTableRecord
100
AcDbLayerTableRecord
  2
COLOR170
 70
0
 62
7
  6
CONTINUOUS
370
-3
390
F
  0
LAYER
  5
320
100
AcDbSymbolTableRecord
100
AcDbLayerTableRecord
  2
COLOR171
 70
0
 62
7
  6
CONTINUOUS
370
-3
390
F
  0
LAYER
  5
321
100
AcDbSymbolTableRecord
100
AcDbLayerTableRecord
  2
COLOR173
 70
0
 62
7
  6
CONTINUOUS
370
-3
390
F
  0
LAYER
  5
322
100
AcDbSymbolTableRecord
100
AcDbLayerTableRecord
  2
COLOR174
 70
0
 62
7
  6
CONTINUOUS
370
-3
390
F
  0
LAYER
  5
323
100
AcDbSymbolTableRecord
100
AcDbLayerTableRecord
  2
COLOR175
 70
0
 62
7
  6
CONTINUOUS
370
-3
390
F
  0
LAYER
  5
324
100
AcDbSymbolTableRecord
100
AcDbLayerTableRecord
  2
COLOR176
 70
0
 62
7
  6
CONTINUOUS
370
-3
390
F
  0
LAYER
  5
325
100
AcDbSymbolTableRecord
100
AcDbLayerTableRecord
  2
COLOR177
 70
0
 62
7
  6
CONTINUOUS
370
-3
390
F
  0
LAYER
  5
326
100
AcDbSymbolTableRecord
100
AcDbLayerTableRecord
  2
COLOR178
 70
0
 62
7
  6
CONTINUOUS
370
-3
390
F
  0
LAYER
  5
327
100
AcDbSymbolTableRecord
100
AcDbLayerTableRecord
  2
COLOR180
 70
0
 62
7
  6
CONTINUOUS
370
-3
390
F
  0
LAYER
  5
328
100
AcDbSymbolTableRecord
100
AcDbLayerTableRecord
  2
COLOR182
 70
0
 62
7
  6
CONTINUOUS
370
-3
390
F
  0
LAYER
  5
329
100
AcDbSymbolTableRecord
100
AcDbLayerTableRecord
  2
COLOR19
 70
0
 62
7
  6
CONTINUOUS
370
-3
390
F
  0
LAYER
  5
32A
100
AcDbSymbolTableRecord
100
AcDbLayerTableRecord
  2
COLOR196
 70
0
 62
7
  6
CONTINUOUS
370
-3
390
F
  0
LAYER
  5
32B
100
AcDbSymbolTableRecord
100
AcDbLayerTableRecord
  2
COLOR197
 70
0
 62
7
  6
CONTINUOUS
370
-3
390
F
  0
LAYER
  5
32C
100
AcDbSymbolTableRecord
100
AcDbLayerTableRecord
  2
COLOR198
 70
0
 62
7
  6
CONTINUOUS
370
-3
390
F
  0
LAYER
  5
32D
100
AcDbSymbolTableRecord
100
AcDbLayerTableRecord
  2
COLOR199
 70
0
 62
7
  6
CONTINUOUS
370
-3
390
F
  0
LAYER
  5
32E
100
AcDbSymbolTableRecord
100
AcDbLayerTableRecord
  2
COLOR2
 70
0
 62
7
  6
CONTINUOUS
370
-3
390
F
  0
LAYER
  5
32F
100
AcDbSymbolTableRecord
100
AcDbLayerTableRecord
  2
COLOR200
 70
0
 62
7
  6
CONTINUOUS
370
-3
390
F
  0
LAYER
  5
330
100
AcDbSymbolTableRecord
100
AcDbLayerTableRecord
  2
COLOR204
 70
0
 62
7
  6
CONTINUOUS
370
-3
390
F
  0
LAYER
  5
331
100
AcDbSymbolTableRecord
100
AcDbLayerTableRecord
  2
COLOR206
 70
0
 62
7
  6
CONTINUOUS
370
-3
390
F
  0
LAYER
  5
332
100
AcDbSymbolTableRecord
100
AcDbLayerTableRecord
  2
COLOR208
 70
0
 62
7
  6
CONTINUOUS
370
-3
390
F
  0
LAYER
  5
333
100
AcDbSymbolTableRecord
100
AcDbLayerTableRecord
  2
COLOR210
 70
0
 62
7
  6
CONTINUOUS
370
-3
390
F
  0
LAYER
  5
334
100
AcDbSymbolTableRecord
100
AcDbLayerTableRecord
  2
COLOR212
 70
0
 62
7
  6
CONTINUOUS
370
-3
390
F
  0
LAYER
  5
335
100
AcDbSymbolTableRecord
100
AcDbLayerTableRecord
  2
COLOR30
 70
0
 62
7
  6
CONTINUOUS
370
-3
390
F
  0
LAYER
  5
336
100
AcDbSymbolTableRecord
100
AcDbLayerTableRecord
  2
COLOR31
 70
0
 62
7
  6
CONTINUOUS
370
-3
390
F
  0
LAYER
  5
337
100
AcDbSymbolTableRecord
100
AcDbLayerTableRecord
  2
COLOR32
 70
0
 62
7
  6
CONTINUOUS
370
-3
390
F
  0
LAYER
  5
338
100
AcDbSymbolTableRecord
100
AcDbLayerTableRecord
  2
COLOR33
 70
0
 62
7
  6
CONTINUOUS
370
-3
390
F
  0
LAYER
  5
339
100
AcDbSymbolTableRecord
100
AcDbLayerTableRecord
  2
COLOR34
 70
0
 62
7
  6
CONTINUOUS
370
-3
390
F
  0
LAYER
  5
33A
100
AcDbSymbolTableRecord
100
AcDbLayerTableRecord
  2
COLOR35
 70
0
 62
7
  6
CONTINUOUS
370
-3
390
F
  0
LAYER
  5
33B
100
AcDbSymbolTableRecord
100
AcDbLayerTableRecord
  2
COLOR36
 70
0
 62
7
  6
CONTINUOUS
370
-3
390
F
  0
LAYER
  5
33C
100
AcDbSymbolTableRecord
100
AcDbLayerTableRecord
  2
COLOR37
 70
0
 62
7
  6
CONTINUOUS
370
-3
390
F
  0
LAYER
  5
33D
100
AcDbSymbolTableRecord
100
AcDbLayerTableRecord
  2
COLOR38
 70
0
 62
7
  6
CONTINUOUS
370
-3
390
F
  0
LAYER
  5
33E
100
AcDbSymbolTableRecord
100
AcDbLayerTableRecord
  2
COLOR40
 70
0
 62
7
  6
CONTINUOUS
370
-3
390
F
  0
LAYER
  5
33F
100
AcDbSymbolTableRecord
100
AcDbLayerTableRecord
  2
COLOR41
 70
0
 62
7
  6
CONTINUOUS
370
-3
390
F
  0
LAYER
  5
340
100
AcDbSymbolTableRecord
100
AcDbLayerTableRecord
  2
COLOR43
 70
0
 62
7
  6
CONTINUOUS
370
-3
390
F
  0
LAYER
  5
341
100
AcDbSymbolTableRecord
100
AcDbLayerTableRecord
  2
COLOR44
 70
0
 62
7
  6
CONTINUOUS
370
-3
390
F
  0
LAYER
  5
342
100
AcDbSymbolTableRecord
100
AcDbLayerTableRecord
  2
COLOR45
 70
0
 62
7
  6
CONTINUOUS
370
-3
390
F
  0
LAYER
  5
343
100
AcDbSymbolTableRecord
100
AcDbLayerTableRecord
  2
COLOR46
 70
0
 62
7
  6
CONTINUOUS
370
-3
390
F
  0
LAYER
  5
344
100
AcDbSymbolTableRecord
100
AcDbLayerTableRecord
  2
COLOR47
 70
0
 62
7
  6
CONTINUOUS
370
-3
390
F
  0
LAYER
  5
345
100
AcDbSymbolTableRecord
100
AcDbLayerTableRecord
  2
COLOR48
 70
0
 62
7
  6
CONTINUOUS
370
-3
390
F
  0
LAYER
  5
346
100
AcDbSymbolTableRecord
100
AcDbLayerTableRecord
  2
COLOR49
 70
0
 62
7
  6
CONTINUOUS
370
-3
390
F
  0
LAYER
  5
347
100
AcDbSymbolTableRecord
100
AcDbLayerTableRecord
  2
COLOR5
 70
0
 62
7
  6
CONTINUOUS
370
-3
390
F
  0
LAYER
  5
348
100
AcDbSymbolTableRecord
100
AcDbLayerTableRecord
  2
COLOR50
 70
0
 62
7
  6
CONTINUOUS
370
-3
390
F
  0
LAYER
  5
349
100
AcDbSymbolTableRecord
100
AcDbLayerTableRecord
  2
COLOR51
 70
0
 62
7
  6
CONTINUOUS
370
-3
390
F
  0
LAYER
  5
34A
100
AcDbSymbolTableRecord
100
AcDbLayerTableRecord
  2
COLOR52
 70
0
 62
7
  6
CONTINUOUS
370
-3
390
F
  0
LAYER
  5
34B
100
AcDbSymbolTableRecord
100
AcDbLayerTableRecord
  2
COLOR53
 70
0
 62
7
  6
CONTINUOUS
370
-3
390
F
  0
LAYER
  5
34C
100
AcDbSymbolTableRecord
100
AcDbLayerTableRecord
  2
COLOR54
 70
0
 62
7
  6
CONTINUOUS
370
-3
390
F
  0
LAYER
  5
34D
100
AcDbSymbolTableRecord
100
AcDbLayerTableRecord
  2
COLOR55
 70
0
 62
7
  6
CONTINUOUS
370
-3
390
F
  0
LAYER
  5
34E
100
AcDbSymbolTableRecord
100
AcDbLayerTableRecord
  2
COLOR56
 70
0
 62
7
  6
CONTINUOUS
370
-3
390
F
  0
LAYER
  5
34F
100
AcDbSymbolTableRecord
100
AcDbLayerTableRecord
  2
COLOR57
 70
0
 62
7
  6
CONTINUOUS
370
-3
390
F
  0
LAYER
  5
350
100
AcDbSymbolTableRecord
100
AcDbLayerTableRecord
  2
COLOR58
 70
0
 62
7
  6
CONTINUOUS
370
-3
390
F
  0
LAYER
  5
351
100
AcDbSymbolTableRecord
100
AcDbLayerTableRecord
  2
COLOR60
 70
0
 62
7
  6
CONTINUOUS
370
-3
390
F
  0
LAYER
  5
352
100
AcDbSymbolTableRecord
100
AcDbLayerTableRecord
  2
COLOR61
 70
0
 62
7
  6
CONTINUOUS
370
-3
390
F
  0
LAYER
  5
353
100
AcDbSymbolTableRecord
100
AcDbLayerTableRecord
  2
COLOR62
 70
0
 62
7
  6
CONTINUOUS
370
-3
390
F
  0
LAYER
  5
354
100
AcDbSymbolTableRecord
100
AcDbLayerTableRecord
  2
COLOR63
 70
0
 62
7
  6
CONTINUOUS
370
-3
390
F
  0
LAYER
  5
355
100
AcDbSymbolTableRecord
100
AcDbLayerTableRecord
  2
COLOR64
 70
0
 62
7
  6
CONTINUOUS
370
-3
390
F
  0
LAYER
  5
356
100
AcDbSymbolTableRecord
100
AcDbLayerTableRecord
  2
COLOR71
 70
0
 62
7
  6
CONTINUOUS
370
-3
390
F
  0
LAYER
  5
357
100
AcDbSymbolTableRecord
100
AcDbLayerTableRecord
  2
COLOR72
 70
0
 62
7
  6
CONTINUOUS
370
-3
390
F
  0
LAYER
  5
358
100
AcDbSymbolTableRecord
100
AcDbLayerTableRecord
  2
COLOR73
 70
0
 62
7
  6
CONTINUOUS
370
-3
390
F
  0
LAYER
  5
359
100
AcDbSymbolTableRecord
100
AcDbLayerTableRecord
  2
COLOR74
 70
0
 62
7
  6
CONTINUOUS
370
-3
390
F
  0
LAYER
  5
35A
100
AcDbSymbolTableRecord
100
AcDbLayerTableRecord
  2
COLOR75
 70
0
 62
7
  6
CONTINUOUS
370
-3
390
F
  0
LAYER
  5
35B
100
AcDbSymbolTableRecord
100
AcDbLayerTableRecord
  2
COLOR76
 70
0
 62
7
  6
CONTINUOUS
370
-3
390
F
  0
LAYER
  5
35C
100
AcDbSymbolTableRecord
100
AcDbLayerTableRecord
  2
COLOR78
 70
0
 62
7
  6
CONTINUOUS
370
-3
390
F
  0
LAYER
  5
35D
100
AcDbSymbolTableRecord
100
AcDbLayerTableRecord
  2
COLOR79
 70
0
 62
7
  6
CONTINUOUS
370
-3
390
F
  0
LAYER
  5
35E
100
AcDbSymbolTableRecord
100
AcDbLayerTableRecord
  2
COLOR80
 70
0
 62
7
  6
CONTINUOUS
370
-3
390
F
  0
LAYER
  5
35F
100
AcDbSymbolTableRecord
100
AcDbLayerTableRecord
  2
COLOR82
 70
0
 62
7
  6
CONTINUOUS
370
-3
390
F
  0
LAYER
  5
360
100
AcDbSymbolTableRecord
100
AcDbLayerTableRecord
  2
COLOR83
 70
0
 62
7
  6
CONTINUOUS
370
-3
390
F
  0
LAYER
  5
361
100
AcDbSymbolTableRecord
100
AcDbLayerTableRecord
  2
COLOR86
 70
0
 62
7
  6
CONTINUOUS
370
-3
390
F
  0
LAYER
  5
362
100
AcDbSymbolTableRecord
100
AcDbLayerTableRecord
  2
COLOR87
 70
0
 62
7
  6
CONTINUOUS
370
-3
390
F
  0
LAYER
  5
363
100
AcDbSymbolTableRecord
100
AcDbLayerTableRecord
  2
COLOR88
 70
0
 62
7
  6
CONTINUOUS
370
-3
390
F
  0
LAYER
  5
364
100
AcDbSymbolTableRecord
100
AcDbLayerTableRecord
  2
COLOR89
 70
0
 62
7
  6
CONTINUOUS
370
-3
390
F
  0
LAYER
  5
365
100
AcDbSymbolTableRecord
100
AcDbLayerTableRecord
  2
COLOR94
 70
0
 62
7
  6
CONTINUOUS
370
-3
390
F
  0
LAYER
  5
366
100
AcDbSymbolTableRecord
100
AcDbLayerTableRecord
  2
COLOR95
 70
0
 62
7
  6
CONTINUOUS
370
-3
390
F
  0
LAYER
  5
367
100
AcDbSymbolTableRecord
100
AcDbLayerTableRecord
  2
COLOR96
 70
0
 62
7
  6
CONTINUOUS
370
-3
390
F
  0
LAYER
  5
368
100
AcDbSymbolTableRecord
100
AcDbLayerTableRecord
  2
COLOR97
 70
0
 62
7
  6
CONTINUOUS
370
-3
390
F
  0
LAYER
  5
369
100
AcDbSymbolTableRecord
100
AcDbLayerTableRecord
  2
COLOR98
 70
0
 62
7
  6
CONTINUOUS
370
-3
390
F
  0
LAYER
  5
36A
100
AcDbSymbolTableRecord
100
AcDbLayerTableRecord
  2
COLOR99
 70
0
 62
7
  6
CONTINUOUS
370
-3
390
F
  0
LAYER
  5
36B
100
AcDbSymbolTableRecord
100
AcDbLayerTableRecord
  2
COORDINATE
 70
0
 62
7
  6
CONTINUOUS
370
-3
390
F
  0
LAYER
  5
36C
100
AcDbSymbolTableRecord
100
AcDbLayerTableRecord
  2
COORD_ORIGINE
 70
0
 62
7
  6
CONTINUOUS
370
-3
390
F
  0
LAYER
  5
36D
100
AcDbSymbolTableRecord
100
AcDbLayerTableRecord
  2
COPY_PUBLISH
 70
0
 62
7
  6
CONTINUOUS
370
-3
390
F
  0
LAYER
  5
36E
100
AcDbSymbolTableRecord
100
AcDbLayerTableRecord
  2
COSMETICI
 70
0
 62
7
  6
CONTINUOUS
370
-3
390
F
  0
LAYER
  5
36F
100
AcDbSymbolTableRecord
100
AcDbLayerTableRecord
  2
CURVE
 70
0
 62
7
  6
CONTINUOUS
370
-3
390
F
  0
LAYER
  5
370
100
AcDbSymbolTableRecord
100
AcDbLayerTableRecord
  2
CYLINDER
 70
0
 62
7
  6
CONTINUOUS
370
-3
390
F
  0
LAYER
  5
371
100
AcDbSymbolTableRecord
100
AcDbLayerTableRecord
  2
CYLINDER-1
 70
0
 62
7
  6
CONTINUOUS
370
-3
390
F
  0
LAYER
  5
372
100
AcDbSymbolTableRecord
100
AcDbLayerTableRecord
  2
CYLINDER-1_1
 70
0
 62
7
  6
CONTINUOUS
370
-3
390
F
  0
LAYER
  5
373
100
AcDbSymbolTableRecord
100
AcDbLayerTableRecord
  2
CYLINDER-1_2
 70
0
 62
7
  6
CONTINUOUS
370
-3
390
F
  0
LAYER
  5
374
100
AcDbSymbolTableRecord
100
AcDbLayerTableRecord
  2
CYLINDER-1_3
 70
0
 62
7
  6
CONTINUOUS
370
-3
390
F
  0
LAYER
  5
375
100
AcDbSymbolTableRecord
100
AcDbLayerTableRecord
  2
CYLINDER-1_4
 70
0
 62
7
  6
CONTINUOUS
370
-3
390
F
  0
LAYER
  5
376
100
AcDbSymbolTableRecord
100
AcDbLayerTableRecord
  2
CYLINDER-1_5
 70
0
 62
7
  6
CONTINUOUS
370
-3
390
F
  0
LAYER
  5
377
100
AcDbSymbolTableRecord
100
AcDbLayerTableRecord
  2
CYLINDER-1_6
 70
0
 62
7
  6
CONTINUOUS
370
-3
390
F
  0
LAYER
  5
378
100
AcDbSymbolTableRecord
100
AcDbLayerTableRecord
  2
CYLINDER-1_7
 70
0
 62
7
  6
CONTINUOUS
370
-3
390
F
  0
LAYER
  5
379
100
AcDbSymbolTableRecord
100
AcDbLayerTableRecord
  2
CYLINDER-1_8
 70
0
 62
7
  6
CONTINUOUS
370
-3
390
F
  0
LAYER
  5
37A
100
AcDbSymbolTableRecord
100
AcDbLayerTableRecord
  2
CYLINDER-2
 70
0
 62
7
  6
CONTINUOUS
370
-3
390
F
  0
LAYER
  5
37B
100
AcDbSymbolTableRecord
100
AcDbLayerTableRecord
  2
CYLINDER-289961
 70
0
 62
7
  6
CONTINUOUS
370
-3
390
F
  0
LAYER
  5
37C
100
AcDbSymbolTableRecord
100
AcDbLayerTableRecord
  2
CYLINDER-289961_1
 70
0
 62
7
  6
CONTINUOUS
370
-3
390
F
  0
LAYER
  5
37D
100
AcDbSymbolTableRecord
100
AcDbLayerTableRecord
  2
CYLINDER-2_1
 70
0
 62
7
  6
CONTINUOUS
370
-3
390
F
  0
LAYER
  5
37E
100
AcDbSymbolTableRecord
100
AcDbLayerTableRecord
  2
CYLINDER-2_2
 70
0
 62
7
  6
CONTINUOUS
370
-3
390
F
  0
LAYER
  5
37F
100
AcDbSymbolTableRecord
100
AcDbLayerTableRecord
  2
CYLINDER-2_3
 70
0
 62
7
  6
CONTINUOUS
370
-3
390
F
  0
LAYER
  5
380
100
AcDbSymbolTableRecord
100
AcDbLayerTableRecord
  2
CYLINDER-2_4
 70
0
 62
7
  6
CONTINUOUS
370
-3
390
F
  0
LAYER
  5
381
100
AcDbSymbolTableRecord
100
AcDbLayerTableRecord
  2
CYLINDER-3
 70
0
 62
7
  6
CONTINUOUS
370
-3
390
F
  0
LAYER
  5
382
100
AcDbSymbolTableRecord
100
AcDbLayerTableRecord
  2
CYLINDER-300117
 70
0
 62
7
  6
CONTINUOUS
370
-3
390
F
  0
LAYER
  5
383
100
AcDbSymbolTableRecord
100
AcDbLayerTableRecord
  2
CYLINDER-300117_1
 70
0
 62
7
  6
CONTINUOUS
370
-3
390
F
  0
LAYER
  5
384
100
AcDbSymbolTableRecord
100
AcDbLayerTableRecord
  2
CYLINDER-300117_2
 70
0
 62
7
  6
CONTINUOUS
370
-3
390
F
  0
LAYER
  5
385
100
AcDbSymbolTableRecord
100
AcDbLayerTableRecord
  2
CYLINDER-300117_3
 70
0
 62
7
  6
CONTINUOUS
370
-3
390
F
  0
LAYER
  5
386
100
AcDbSymbolTableRecord
100
AcDbLayerTableRecord
  2
CYLINDER-300117_4
 70
0
 62
7
  6
CONTINUOUS
370
-3
390
F
  0
LAYER
  5
387
100
AcDbSymbolTableRecord
100
AcDbLayerTableRecord
  2
CYLINDER-300117_5
 70
0
 62
7
  6
CONTINUOUS
370
-3
390
F
  0
LAYER
  5
388
100
AcDbSymbolTableRecord
100
AcDbLayerTableRecord
  2
CYLINDER-300117_6
 70
0
 62
7
  6
CONTINUOUS
370
-3
390
F
  0
LAYER
  5
389
100
AcDbSymbolTableRecord
100
AcDbLayerTableRecord
  2
CYLINDER-300117_7
 70
0
 62
7
  6
CONTINUOUS
370
-3
390
F
  0
LAYER
  5
38A
100
AcDbSymbolTableRecord
100
AcDbLayerTableRecord
  2
CYLINDER-300117_8
 70
0
 62
7
  6
CONTINUOUS
370
-3
390
F
  0
LAYER
  5
38B
100
AcDbSymbolTableRecord
100
AcDbLayerTableRecord
  2
CYLINDER-300680
 70
0
 62
7
  6
CONTINUOUS
370
-3
390
F
  0
LAYER
  5
38C
100
AcDbSymbolTableRecord
100
AcDbLayerTableRecord
  2
CYLINDER-300680_1
 70
0
 62
7
  6
CONTINUOUS
370
-3
390
F
  0
LAYER
  5
38D
100
AcDbSymbolTableRecord
100
AcDbLayerTableRecord
  2
CYLINDER-300680_2
 70
0
 62
7
  6
CONTINUOUS
370
-3
390
F
  0
LAYER
  5
38E
100
AcDbSymbolTableRecord
100
AcDbLayerTableRecord
  2
CYLINDER-300680_3
 70
0
 62
7
  6
CONTINUOUS
370
-3
390
F
  0
LAYER
  5
38F
100
AcDbSymbolTableRecord
100
AcDbLayerTableRecord
  2
CYLINDER-300680_4
 70
0
 62
7
  6
CONTINUOUS
370
-3
390
F
  0
LAYER
  5
390
100
AcDbSymbolTableRecord
100
AcDbLayerTableRecord
  2
CYLINDER-300846
 70
0
 62
7
  6
CONTINUOUS
370
-3
390
F
  0
LAYER
  5
391
100
AcDbSymbolTableRecord
100
AcDbLayerTableRecord
  2
CYLINDER-300846_1
 70
0
 62
7
  6
CONTINUOUS
370
-3
390
F
  0
LAYER
  5
392
100
AcDbSymbolTableRecord
100
AcDbLayerTableRecord
  2
CYLINDER-300846_2
 70
0
 62
7
  6
CONTINUOUS
370
-3
390
F
  0
LAYER
  5
393
100
AcDbSymbolTableRecord
100
AcDbLayerTableRecord
  2
CYLINDER-300846_3
 70
0
 62
7
  6
CONTINUOUS
370
-3
390
F
  0
LAYER
  5
394
100
AcDbSymbolTableRecord
100
AcDbLayerTableRecord
  2
CYLINDER-301379
 70
0
 62
7
  6
CONTINUOUS
370
-3
390
F
  0
LAYER
  5
395
100
AcDbSymbolTableRecord
100
AcDbLayerTableRecord
  2
CYLINDER-301379_1
 70
0
 62
7
  6
CONTINUOUS
370
-3
390
F
  0
LAYER
  5
396
100
AcDbSymbolTableRecord
100
AcDbLayerTableRecord
  2
CYLINDER-301379_2
 70
0
 62
7
  6
CONTINUOUS
370
-3
390
F
  0
LAYER
  5
397
100
AcDbSymbolTableRecord
100
AcDbLayerTableRecord
  2
CYLINDER-301379_3
 70
0
 62
7
  6
CONTINUOUS
370
-3
390
F
  0
LAYER
  5
398
100
AcDbSymbolTableRecord
100
AcDbLayerTableRecord
  2
CYLINDER-3_1
 70
0
 62
7
  6
CONTINUOUS
370
-3
390
F
  0
LAYER
  5
399
100
AcDbSymbolTableRecord
100
AcDbLayerTableRecord
  2
CYLINDER-3_2
 70
0
 62
7
  6
CONTINUOUS
370
-3
390
F
  0
LAYER
  5
39A
100
AcDbSymbolTableRecord
100
AcDbLayerTableRecord
  2
CYLINDER-3_3
 70
0
 62
7
  6
CONTINUOUS
370
-3
390
F
  0
LAYER
  5
39B
100
AcDbSymbolTableRecord
100
AcDbLayerTableRecord
  2
CYLINDER-4
 70
0
 62
7
  6
CONTINUOUS
370
-3
390
F
  0
LAYER
  5
39C
100
AcDbSymbolTableRecord
100
AcDbLayerTableRecord
  2
CYLINDER-4_1
 70
0
 62
7
  6
CONTINUOUS
370
-3
390
F
  0
LAYER
  5
39D
100
AcDbSymbolTableRecord
100
AcDbLayerTableRecord
  2
CYLINDER-4_2
 70
0
 62
7
  6
CONTINUOUS
370
-3
390
F
  0
LAYER
  5
39E
100
AcDbSymbolTableRecord
100
AcDbLayerTableRecord
  2
CYLINDER-4_3
 70
0
 62
7
  6
CONTINUOUS
370
-3
390
F
  0
LAYER
  5
39F
100
AcDbSymbolTableRecord
100
AcDbLayerTableRecord
  2
CYLINDER_1
 70
0
 62
7
  6
CONTINUOUS
370
-3
390
F
  0
LAYER
  5
3A0
100
AcDbSymbolTableRecord
100
AcDbLayerTableRecord
  2
D1
 70
0
 62
7
  6
CONTINUOUS
370
-3
390
F
  0
LAYER
  5
3A1
100
AcDbSymbolTableRecord
100
AcDbLayerTableRecord
  2
D10
 70
0
 62
7
  6
CONTINUOUS
370
-3
390
F
  0
LAYER
  5
3A2
100
AcDbSymbolTableRecord
100
AcDbLayerTableRecord
  2
D2
 70
0
 62
7
  6
CONTINUOUS
370
-3
390
F
  0
LAYER
  5
3A3
100
AcDbSymbolTableRecord
100
AcDbLayerTableRecord
  2
D3
 70
0
 62
7
  6
CONTINUOUS
370
-3
390
F
  0
LAYER
  5
3A4
100
AcDbSymbolTableRecord
100
AcDbLayerTableRecord
  2
D4
 70
0
 62
7
  6
CONTINUOUS
370
-3
390
F
  0
LAYER
  5
3A5
100
AcDbSymbolTableRecord
100
AcDbLayerTableRecord
  2
D5
 70
0
 62
7
  6
CONTINUOUS
370
-3
390
F
  0
LAYER
  5
3A6
100
AcDbSymbolTableRecord
100
AcDbLayerTableRecord
  2
D6
 70
0
 62
7
  6
CONTINUOUS
370
-3
390
F
  0
LAYER
  5
3A7
100
AcDbSymbolTableRecord
100
AcDbLayerTableRecord
  2
D7
 70
0
 62
7
  6
CONTINUOUS
370
-3
390
F
  0
LAYER
  5
3A8
100
AcDbSymbolTableRecord
100
AcDbLayerTableRecord
  2
D8
 70
0
 62
7
  6
CONTINUOUS
370
-3
390
F
  0
LAYER
  5
3A9
100
AcDbSymbolTableRecord
100
AcDbLayerTableRecord
  2
D9
 70
0
 62
7
  6
CONTINUOUS
370
-3
390
F
  0
LAYER
  5
3AA
100
AcDbSymbolTableRecord
100
AcDbLayerTableRecord
  2
DECKEL
 70
0
 62
7
  6
CONTINUOUS
370
-3
390
F
  0
LAYER
  5
3AB
100
AcDbSymbolTableRecord
100
AcDbLayerTableRecord
  2
DO214AC_SMA_
 70
0
 62
7
  6
CONTINUOUS
370
-3
390
F
  0
LAYER
  5
3AC
100
AcDbSymbolTableRecord
100
AcDbLayerTableRecord
  2
DO214AC_SMA__1
 70
0
 62
7
  6
CONTINUOUS
370
-3
390
F
  0
LAYER
  5
3AD
100
AcDbSymbolTableRecord
100
AcDbLayerTableRecord
  2
DO214AC_SMA__2
 70
0
 62
7
  6
CONTINUOUS
370
-3
390
F
  0
LAYER
  5
3AE
100
AcDbSymbolTableRecord
100
AcDbLayerTableRecord
  2
DO214AC_SMA__3
 70
0
 62
7
  6
CONTINUOUS
370
-3
390
F
  0
LAYER
  5
3AF
100
AcDbSymbolTableRecord
100
AcDbLayerTableRecord
  2
DO214AC_SMA__4
 70
0
 62
7
  6
CONTINUOUS
370
-3
390
F
  0
LAYER
  5
3B0
100
AcDbSymbolTableRecord
100
AcDbLayerTableRecord
  2
DPACK
 70
0
 62
7
  6
CONTINUOUS
370
-3
390
F
  0
LAYER
  5
3B1
100
AcDbSymbolTableRecord
100
AcDbLayerTableRecord
  2
DRAFT
 70
0
 62
7
  6
CONTINUOUS
370
-3
390
F
  0
LAYER
  5
3B2
100
AcDbSymbolTableRecord
100
AcDbLayerTableRecord
  2
DZ1
 70
0
 62
7
  6
CONTINUOUS
370
-3
390
F
  0
LAYER
  5
3B3
100
AcDbSymbolTableRecord
100
AcDbLayerTableRecord
  2
DZ2
 70
0
 62
7
  6
CONTINUOUS
370
-3
390
F
  0
LAYER
  5
3B4
100
AcDbSymbolTableRecord
100
AcDbLayerTableRecord
  2
DZ3
 70
0
 62
7
  6
CONTINUOUS
370
-3
390
F
  0
LAYER
  5
3B5
100
AcDbSymbolTableRecord
100
AcDbLayerTableRecord
  2
EXTRUDED
 70
0
 62
7
  6
CONTINUOUS
370
-3
390
F
  0
LAYER
  5
3B6
100
AcDbSymbolTableRecord
100
AcDbLayerTableRecord
  2
EXTRUDED-1
 70
0
 62
7
  6
CONTINUOUS
370
-3
390
F
  0
LAYER
  5
3B7
100
AcDbSymbolTableRecord
100
AcDbLayerTableRecord
  2
EXTRUDED-10
 70
0
 62
7
  6
CONTINUOUS
370
-3
390
F
  0
LAYER
  5
3B8
100
AcDbSymbolTableRecord
100
AcDbLayerTableRecord
  2
EXTRUDED-10_1
 70
0
 62
7
  6
CONTINUOUS
370
-3
390
F
  0
LAYER
  5
3B9
100
AcDbSymbolTableRecord
100
AcDbLayerTableRecord
  2
EXTRUDED-10_10
 70
0
 62
7
  6
CONTINUOUS
370
-3
390
F
  0
LAYER
  5
3BA
100
AcDbSymbolTableRecord
100
AcDbLayerTableRecord
  2
EXTRUDED-10_11
 70
0
 62
7
  6
CONTINUOUS
370
-3
390
F
  0
LAYER
  5
3BB
100
AcDbSymbolTableRecord
100
AcDbLayerTableRecord
  2
EXTRUDED-10_12
 70
0
 62
7
  6
CONTINUOUS
370
-3
390
F
  0
LAYER
  5
3BC
100
AcDbSymbolTableRecord
100
AcDbLayerTableRecord
  2
EXTRUDED-10_13
 70
0
 62
7
  6
CONTINUOUS
370
-3
390
F
  0
LAYER
  5
3BD
100
AcDbSymbolTableRecord
100
AcDbLayerTableRecord
  2
EXTRUDED-10_14
 70
0
 62
7
  6
CONTINUOUS
370
-3
390
F
  0
LAYER
  5
3BE
100
AcDbSymbolTableRecord
100
AcDbLayerTableRecord
  2
EXTRUDED-10_15
 70
0
 62
7
  6
CONTINUOUS
370
-3
390
F
  0
LAYER
  5
3BF
100
AcDbSymbolTableRecord
100
AcDbLayerTableRecord
  2
EXTRUDED-10_16
 70
0
 62
7
  6
CONTINUOUS
370
-3
390
F
  0
LAYER
  5
3C0
100
AcDbSymbolTableRecord
100
AcDbLayerTableRecord
  2
EXTRUDED-10_17
 70
0
 62
7
  6
CONTINUOUS
370
-3
390
F
  0
LAYER
  5
3C1
100
AcDbSymbolTableRecord
100
AcDbLayerTableRecord
  2
EXTRUDED-10_2
 70
0
 62
7
  6
CONTINUOUS
370
-3
390
F
  0
LAYER
  5
3C2
100
AcDbSymbolTableRecord
100
AcDbLayerTableRecord
  2
EXTRUDED-10_3
 70
0
 62
7
  6
CONTINUOUS
370
-3
390
F
  0
LAYER
  5
3C3
100
AcDbSymbolTableRecord
100
AcDbLayerTableRecord
  2
EXTRUDED-10_4
 70
0
 62
7
  6
CONTINUOUS
370
-3
390
F
  0
LAYER
  5
3C4
100
AcDbSymbolTableRecord
100
AcDbLayerTableRecord
  2
EXTRUDED-10_5
 70
0
 62
7
  6
CONTINUOUS
370
-3
390
F
  0
LAYER
  5
3C5
100
AcDbSymbolTableRecord
100
AcDbLayerTableRecord
  2
EXTRUDED-10_6
 70
0
 62
7
  6
CONTINUOUS
370
-3
390
F
  0
LAYER
  5
3C6
100
AcDbSymbolTableRecord
100
AcDbLayerTableRecord
  2
EXTRUDED-10_7
 70
0
 62
7
  6
CONTINUOUS
370
-3
390
F
  0
LAYER
  5
3C7
100
AcDbSymbolTableRecord
100
AcDbLayerTableRecord
  2
EXTRUDED-10_8
 70
0
 62
7
  6
CONTINUOUS
370
-3
390
F
  0
LAYER
  5
3C8
100
AcDbSymbolTableRecord
100
AcDbLayerTableRecord
  2
EXTRUDED-10_9
 70
0
 62
7
  6
CONTINUOUS
370
-3
390
F
  0
LAYER
  5
3C9
100
AcDbSymbolTableRecord
100
AcDbLayerTableRecord
  2
EXTRUDED-11
 70
0
 62
7
  6
CONTINUOUS
370
-3
390
F
  0
LAYER
  5
3CA
100
AcDbSymbolTableRecord
100
AcDbLayerTableRecord
  2
EXTRUDED-113189
 70
0
 62
7
  6
CONTINUOUS
370
-3
390
F
  0
LAYER
  5
3CB
100
AcDbSymbolTableRecord
100
AcDbLayerTableRecord
  2
EXTRUDED-113189_1
 70
0
 62
7
  6
CONTINUOUS
370
-3
390
F
  0
LAYER
  5
3CC
100
AcDbSymbolTableRecord
100
AcDbLayerTableRecord
  2
EXTRUDED-12
 70
0
 62
7
  6
CONTINUOUS
370
-3
390
F
  0
LAYER
  5
3CD
100
AcDbSymbolTableRecord
100
AcDbLayerTableRecord
  2
EXTRUDED-12_1
 70
0
 62
7
  6
CONTINUOUS
370
-3
390
F
  0
LAYER
  5
3CE
100
AcDbSymbolTableRecord
100
AcDbLayerTableRecord
  2
EXTRUDED-13
 70
0
 62
7
  6
CONTINUOUS
370
-3
390
F
  0
LAYER
  5
3CF
100
AcDbSymbolTableRecord
100
AcDbLayerTableRecord
  2
EXTRUDED-14
 70
0
 62
7
  6
CONTINUOUS
370
-3
390
F
  0
LAYER
  5
3D0
100
AcDbSymbolTableRecord
100
AcDbLayerTableRecord
  2
EXTRUDED-15
 70
0
 62
7
  6
CONTINUOUS
370
-3
390
F
  0
LAYER
  5
3D1
100
AcDbSymbolTableRecord
100
AcDbLayerTableRecord
  2
EXTRUDED-16
 70
0
 62
7
  6
CONTINUOUS
370
-3
390
F
  0
LAYER
  5
3D2
100
AcDbSymbolTableRecord
100
AcDbLayerTableRecord
  2
EXTRUDED-161989
 70
0
 62
7
  6
CONTINUOUS
370
-3
390
F
  0
LAYER
  5
3D3
100
AcDbSymbolTableRecord
100
AcDbLayerTableRecord
  2
EXTRUDED-17
 70
0
 62
7
  6
CONTINUOUS
370
-3
390
F
  0
LAYER
  5
3D4
100
AcDbSymbolTableRecord
100
AcDbLayerTableRecord
  2
EXTRUDED-18
 70
0
 62
7
  6
CONTINUOUS
370
-3
390
F
  0
LAYER
  5
3D5
100
AcDbSymbolTableRecord
100
AcDbLayerTableRecord
  2
EXTRUDED-19
 70
0
 62
7
  6
CONTINUOUS
370
-3
390
F
  0
LAYER
  5
3D6
100
AcDbSymbolTableRecord
100
AcDbLayerTableRecord
  2
EXTRUDED-192287
 70
0
 62
7
  6
CONTINUOUS
370
-3
390
F
  0
LAYER
  5
3D7
100
AcDbSymbolTableRecord
100
AcDbLayerTableRecord
  2
EXTRUDED-192682
 70
0
 62
7
  6
CONTINUOUS
370
-3
390
F
  0
LAYER
  5
3D8
100
AcDbSymbolTableRecord
100
AcDbLayerTableRecord
  2
EXTRUDED-193077
 70
0
 62
7
  6
CONTINUOUS
370
-3
390
F
  0
LAYER
  5
3D9
100
AcDbSymbolTableRecord
100
AcDbLayerTableRecord
  2
EXTRUDED-198180
 70
0
 62
7
  6
CONTINUOUS
370
-3
390
F
  0
LAYER
  5
3DA
100
AcDbSymbolTableRecord
100
AcDbLayerTableRecord
  2
EXTRUDED-19_1
 70
0
 62
7
  6
CONTINUOUS
370
-3
390
F
  0
LAYER
  5
3DB
100
AcDbSymbolTableRecord
100
AcDbLayerTableRecord
  2
EXTRUDED-19_2
 70
0
 62
7
  6
CONTINUOUS
370
-3
390
F
  0
LAYER
  5
3DC
100
AcDbSymbolTableRecord
100
AcDbLayerTableRecord
  2
EXTRUDED-19_3
 70
0
 62
7
  6
CONTINUOUS
370
-3
390
F
  0
LAYER
  5
3DD
100
AcDbSymbolTableRecord
100
AcDbLayerTableRecord
  2
EXTRUDED-2
 70
0
 62
7
  6
CONTINUOUS
370
-3
390
F
  0
LAYER
  5
3DE
100
AcDbSymbolTableRecord
100
AcDbLayerTableRecord
  2
EXTRUDED-20
 70
0
 62
7
  6
CONTINUOUS
370
-3
390
F
  0
LAYER
  5
3DF
100
AcDbSymbolTableRecord
100
AcDbLayerTableRecord
  2
EXTRUDED-20_1
 70
0
 62
7
  6
CONTINUOUS
370
-3
390
F
  0
LAYER
  5
3E0
100
AcDbSymbolTableRecord
100
AcDbLayerTableRecord
  2
EXTRUDED-21
 70
0
 62
7
  6
CONTINUOUS
370
-3
390
F
  0
LAYER
  5
3E1
100
AcDbSymbolTableRecord
100
AcDbLayerTableRecord
  2
EXTRUDED-21_1
 70
0
 62
7
  6
CONTINUOUS
370
-3
390
F
  0
LAYER
  5
3E2
100
AcDbSymbolTableRecord
100
AcDbLayerTableRecord
  2
EXTRUDED-22
 70
0
 62
7
  6
CONTINUOUS
370
-3
390
F
  0
LAYER
  5
3E3
100
AcDbSymbolTableRecord
100
AcDbLayerTableRecord
  2
EXTRUDED-22_1
 70
0
 62
7
  6
CONTINUOUS
370
-3
390
F
  0
LAYER
  5
3E4
100
AcDbSymbolTableRecord
100
AcDbLayerTableRecord
  2
EXTRUDED-23
 70
0
 62
7
  6
CONTINUOUS
370
-3
390
F
  0
LAYER
  5
3E5
100
AcDbSymbolTableRecord
100
AcDbLayerTableRecord
  2
EXTRUDED-23_1
 70
0
 62
7
  6
CONTINUOUS
370
-3
390
F
  0
LAYER
  5
3E6
100
AcDbSymbolTableRecord
100
AcDbLayerTableRecord
  2
EXTRUDED-24
 70
0
 62
7
  6
CONTINUOUS
370
-3
390
F
  0
LAYER
  5
3E7
100
AcDbSymbolTableRecord
100
AcDbLayerTableRecord
  2
EXTRUDED-247997
 70
0
 62
7
  6
CONTINUOUS
370
-3
390
F
  0
LAYER
  5
3E8
100
AcDbSymbolTableRecord
100
AcDbLayerTableRecord
  2
EXTRUDED-24_1
 70
0
 62
7
  6
CONTINUOUS
370
-3
390
F
  0
LAYER
  5
3E9
100
AcDbSymbolTableRecord
100
AcDbLayerTableRecord
  2
EXTRUDED-25
 70
0
 62
7
  6
CONTINUOUS
370
-3
390
F
  0
LAYER
  5
3EA
100
AcDbSymbolTableRecord
100
AcDbLayerTableRecord
  2
EXTRUDED-26
 70
0
 62
7
  6
CONTINUOUS
370
-3
390
F
  0
LAYER
  5
3EB
100
AcDbSymbolTableRecord
100
AcDbLayerTableRecord
  2
EXTRUDED-26_1
 70
0
 62
7
  6
CONTINUOUS
370
-3
390
F
  0
LAYER
  5
3EC
100
AcDbSymbolTableRecord
100
AcDbLayerTableRecord
  2
EXTRUDED-27
 70
0
 62
7
  6
CONTINUOUS
370
-3
390
F
  0
LAYER
  5
3ED
100
AcDbSymbolTableRecord
100
AcDbLayerTableRecord
  2
EXTRUDED-27_1
 70
0
 62
7
  6
CONTINUOUS
370
-3
390
F
  0
LAYER
  5
3EE
100
AcDbSymbolTableRecord
100
AcDbLayerTableRecord
  2
EXTRUDED-28
 70
0
 62
7
  6
CONTINUOUS
370
-3
390
F
  0
LAYER
  5
3EF
100
AcDbSymbolTableRecord
100
AcDbLayerTableRecord
  2
EXTRUDED-28_1
 70
0
 62
7
  6
CONTINUOUS
370
-3
390
F
  0
LAYER
  5
3F0
100
AcDbSymbolTableRecord
100
AcDbLayerTableRecord
  2
EXTRUDED-29
 70
0
 62
7
  6
CONTINUOUS
370
-3
390
F
  0
LAYER
  5
3F1
100
AcDbSymbolTableRecord
100
AcDbLayerTableRecord
  2
EXTRUDED-290122
 70
0
 62
7
  6
CONTINUOUS
370
-3
390
F
  0
LAYER
  5
3F2
100
AcDbSymbolTableRecord
100
AcDbLayerTableRecord
  2
EXTRUDED-293013
 70
0
 62
7
  6
CONTINUOUS
370
-3
390
F
  0
LAYER
  5
3F3
100
AcDbSymbolTableRecord
100
AcDbLayerTableRecord
  2
EXTRUDED-297096
 70
0
 62
7
  6
CONTINUOUS
370
-3
390
F
  0
LAYER
  5
3F4
100
AcDbSymbolTableRecord
100
AcDbLayerTableRecord
  2
EXTRUDED-297096_1
 70
0
 62
7
  6
CONTINUOUS
370
-3
390
F
  0
LAYER
  5
3F5
100
AcDbSymbolTableRecord
100
AcDbLayerTableRecord
  2
EXTRUDED-297096_2
 70
0
 62
7
  6
CONTINUOUS
370
-3
390
F
  0
LAYER
  5
3F6
100
AcDbSymbolTableRecord
100
AcDbLayerTableRecord
  2
EXTRUDED-297096_3
 70
0
 62
7
  6
CONTINUOUS
370
-3
390
F
  0
LAYER
  5
3F7
100
AcDbSymbolTableRecord
100
AcDbLayerTableRecord
  2
EXTRUDED-297483
 70
0
 62
7
  6
CONTINUOUS
370
-3
390
F
  0
LAYER
  5
3F8
100
AcDbSymbolTableRecord
100
AcDbLayerTableRecord
  2
EXTRUDED-297483_1
 70
0
 62
7
  6
CONTINUOUS
370
-3
390
F
  0
LAYER
  5
3F9
100
AcDbSymbolTableRecord
100
AcDbLayerTableRecord
  2
EXTRUDED-297860
 70
0
 62
7
  6
CONTINUOUS
370
-3
390
F
  0
LAYER
  5
3FA
100
AcDbSymbolTableRecord
100
AcDbLayerTableRecord
  2
EXTRUDED-297860_1
 70
0
 62
7
  6
CONTINUOUS
370
-3
390
F
  0
LAYER
  5
3FB
100
AcDbSymbolTableRecord
100
AcDbLayerTableRecord
  2
EXTRUDED-298232
 70
0
 62
7
  6
CONTINUOUS
370
-3
390
F
  0
LAYER
  5
3FC
100
AcDbSymbolTableRecord
100
AcDbLayerTableRecord
  2
EXTRUDED-298232_1
 70
0
 62
7
  6
CONTINUOUS
370
-3
390
F
  0
LAYER
  5
3FD
100
AcDbSymbolTableRecord
100
AcDbLayerTableRecord
  2
EXTRUDED-298614
 70
0
 62
7
  6
CONTINUOUS
370
-3
390
F
  0
LAYER
  5
3FE
100
AcDbSymbolTableRecord
100
AcDbLayerTableRecord
  2
EXTRUDED-298614_1
 70
0
 62
7
  6
CONTINUOUS
370
-3
390
F
  0
LAYER
  5
3FF
100
AcDbSymbolTableRecord
100
AcDbLayerTableRecord
  2
EXTRUDED-298991
 70
0
 62
7
  6
CONTINUOUS
370
-3
390
F
  0
LAYER
  5
400
100
AcDbSymbolTableRecord
100
AcDbLayerTableRecord
  2
EXTRUDED-298991_1
 70
0
 62
7
  6
CONTINUOUS
370
-3
390
F
  0
LAYER
  5
401
100
AcDbSymbolTableRecord
100
AcDbLayerTableRecord
  2
EXTRUDED-299368
 70
0
 62
7
  6
CONTINUOUS
370
-3
390
F
  0
LAYER
  5
402
100
AcDbSymbolTableRecord
100
AcDbLayerTableRecord
  2
EXTRUDED-299740
 70
0
 62
7
  6
CONTINUOUS
370
-3
390
F
  0
LAYER
  5
403
100
AcDbSymbolTableRecord
100
AcDbLayerTableRecord
  2
EXTRUDED-299740_1
 70
0
 62
7
  6
CONTINUOUS
370
-3
390
F
  0
LAYER
  5
404
100
AcDbSymbolTableRecord
100
AcDbLayerTableRecord
  2
EXTRUDED-2_1
 70
0
 62
7
  6
CONTINUOUS
370
-3
390
F
  0
LAYER
  5
405
100
AcDbSymbolTableRecord
100
AcDbLayerTableRecord
  2
EXTRUDED-2_2
 70
0
 62
7
  6
CONTINUOUS
370
-3
390
F
  0
LAYER
  5
406
100
AcDbSymbolTableRecord
100
AcDbLayerTableRecord
  2
EXTRUDED-2_3
 70
0
 62
7
  6
CONTINUOUS
370
-3
390
F
  0
LAYER
  5
407
100
AcDbSymbolTableRecord
100
AcDbLayerTableRecord
  2
EXTRUDED-2_4
 70
0
 62
7
  6
CONTINUOUS
370
-3
390
F
  0
LAYER
  5
408
100
AcDbSymbolTableRecord
100
AcDbLayerTableRecord
  2
EXTRUDED-2_5
 70
0
 62
7
  6
CONTINUOUS
370
-3
390
F
  0
LAYER
  5
409
100
AcDbSymbolTableRecord
100
AcDbLayerTableRecord
  2
EXTRUDED-2_6
 70
0
 62
7
  6
CONTINUOUS
370
-3
390
F
  0
LAYER
  5
40A
100
AcDbSymbolTableRecord
100
AcDbLayerTableRecord
  2
EXTRUDED-3
 70
0
 62
7
  6
CONTINUOUS
370
-3
390
F
  0
LAYER
  5
40B
100
AcDbSymbolTableRecord
100
AcDbLayerTableRecord
  2
EXTRUDED-30
 70
0
 62
7
  6
CONTINUOUS
370
-3
390
F
  0
LAYER
  5
40C
100
AcDbSymbolTableRecord
100
AcDbLayerTableRecord
  2
EXTRUDED-300303
 70
0
 62
7
  6
CONTINUOUS
370
-3
390
F
  0
LAYER
  5
40D
100
AcDbSymbolTableRecord
100
AcDbLayerTableRecord
  2
EXTRUDED-300303_1
 70
0
 62
7
  6
CONTINUOUS
370
-3
390
F
  0
LAYER
  5
40E
100
AcDbSymbolTableRecord
100
AcDbLayerTableRecord
  2
EXTRUDED-301007
 70
0
 62
7
  6
CONTINUOUS
370
-3
390
F
  0
LAYER
  5
40F
100
AcDbSymbolTableRecord
100
AcDbLayerTableRecord
  2
EXTRUDED-301007_1
 70
0
 62
7
  6
CONTINUOUS
370
-3
390
F
  0
LAYER
  5
410
100
AcDbSymbolTableRecord
100
AcDbLayerTableRecord
  2
EXTRUDED-301525
 70
0
 62
7
  6
CONTINUOUS
370
-3
390
F
  0
LAYER
  5
411
100
AcDbSymbolTableRecord
100
AcDbLayerTableRecord
  2
EXTRUDED-302068
 70
0
 62
7
  6
CONTINUOUS
370
-3
390
F
  0
LAYER
  5
412
100
AcDbSymbolTableRecord
100
AcDbLayerTableRecord
  2
EXTRUDED-302708
 70
0
 62
7
  6
CONTINUOUS
370
-3
390
F
  0
LAYER
  5
413
100
AcDbSymbolTableRecord
100
AcDbLayerTableRecord
  2
EXTRUDED-303080
 70
0
 62
7
  6
CONTINUOUS
370
-3
390
F
  0
LAYER
  5
414
100
AcDbSymbolTableRecord
100
AcDbLayerTableRecord
  2
EXTRUDED-303080_1
 70
0
 62
7
  6
CONTINUOUS
370
-3
390
F
  0
LAYER
  5
415
100
AcDbSymbolTableRecord
100
AcDbLayerTableRecord
  2
EXTRUDED-303080_2
 70
0
 62
7
  6
CONTINUOUS
370
-3
390
F
  0
LAYER
  5
416
100
AcDbSymbolTableRecord
100
AcDbLayerTableRecord
  2
EXTRUDED-303080_3
 70
0
 62
7
  6
CONTINUOUS
370
-3
390
F
  0
LAYER
  5
417
100
AcDbSymbolTableRecord
100
AcDbLayerTableRecord
  2
EXTRUDED-303080_4
 70
0
 62
7
  6
CONTINUOUS
370
-3
390
F
  0
LAYER
  5
418
100
AcDbSymbolTableRecord
100
AcDbLayerTableRecord
  2
EXTRUDED-303080_5
 70
0
 62
7
  6
CONTINUOUS
370
-3
390
F
  0
LAYER
  5
419
100
AcDbSymbolTableRecord
100
AcDbLayerTableRecord
  2
EXTRUDED-303080_6
 70
0
 62
7
  6
CONTINUOUS
370
-3
390
F
  0
LAYER
  5
41A
100
AcDbSymbolTableRecord
100
AcDbLayerTableRecord
  2
EXTRUDED-303452
 70
0
 62
7
  6
CONTINUOUS
370
-3
390
F
  0
LAYER
  5
41B
100
AcDbSymbolTableRecord
100
AcDbLayerTableRecord
  2
EXTRUDED-303452_1
 70
0
 62
7
  6
CONTINUOUS
370
-3
390
F
  0
LAYER
  5
41C
100
AcDbSymbolTableRecord
100
AcDbLayerTableRecord
  2
EXTRUDED-303452_2
 70
0
 62
7
  6
CONTINUOUS
370
-3
390
F
  0
LAYER
  5
41D
100
AcDbSymbolTableRecord
100
AcDbLayerTableRecord
  2
EXTRUDED-303452_3
 70
0
 62
7
  6
CONTINUOUS
370
-3
390
F
  0
LAYER
  5
41E
100
AcDbSymbolTableRecord
100
AcDbLayerTableRecord
  2
EXTRUDED-303452_4
 70
0
 62
7
  6
CONTINUOUS
370
-3
390
F
  0
LAYER
  5
41F
100
AcDbSymbolTableRecord
100
AcDbLayerTableRecord
  2
EXTRUDED-303452_5
 70
0
 62
7
  6
CONTINUOUS
370
-3
390
F
  0
LAYER
  5
420
100
AcDbSymbolTableRecord
100
AcDbLayerTableRecord
  2
EXTRUDED-303452_6
 70
0
 62
7
  6
CONTINUOUS
370
-3
390
F
  0
LAYER
  5
421
100
AcDbSymbolTableRecord
100
AcDbLayerTableRecord
  2
EXTRUDED-303824
 70
0
 62
7
  6
CONTINUOUS
370
-3
390
F
  0
LAYER
  5
422
100
AcDbSymbolTableRecord
100
AcDbLayerTableRecord
  2
EXTRUDED-303824_1
 70
0
 62
7
  6
CONTINUOUS
370
-3
390
F
  0
LAYER
  5
423
100
AcDbSymbolTableRecord
100
AcDbLayerTableRecord
  2
EXTRUDED-303824_2
 70
0
 62
7
  6
CONTINUOUS
370
-3
390
F
  0
LAYER
  5
424
100
AcDbSymbolTableRecord
100
AcDbLayerTableRecord
  2
EXTRUDED-303824_3
 70
0
 62
7
  6
CONTINUOUS
370
-3
390
F
  0
LAYER
  5
425
100
AcDbSymbolTableRecord
100
AcDbLayerTableRecord
  2
EXTRUDED-303824_4
 70
0
 62
7
  6
CONTINUOUS
370
-3
390
F
  0
LAYER
  5
426
100
AcDbSymbolTableRecord
100
AcDbLayerTableRecord
  2
EXTRUDED-303824_5
 70
0
 62
7
  6
CONTINUOUS
370
-3
390
F
  0
LAYER
  5
427
100
AcDbSymbolTableRecord
100
AcDbLayerTableRecord
  2
EXTRUDED-303824_6
 70
0
 62
7
  6
CONTINUOUS
370
-3
390
F
  0
LAYER
  5
428
100
AcDbSymbolTableRecord
100
AcDbLayerTableRecord
  2
EXTRUDED-39028
 70
0
 62
7
  6
CONTINUOUS
370
-3
390
F
  0
LAYER
  5
429
100
AcDbSymbolTableRecord
100
AcDbLayerTableRecord
  2
EXTRUDED-39028_1
 70
0
 62
7
  6
CONTINUOUS
370
-3
390
F
  0
LAYER
  5
42A
100
AcDbSymbolTableRecord
100
AcDbLayerTableRecord
  2
EXTRUDED-3_1
 70
0
 62
7
  6
CONTINUOUS
370
-3
390
F
  0
LAYER
  5
42B
100
AcDbSymbolTableRecord
100
AcDbLayerTableRecord
  2
EXTRUDED-3_2
 70
0
 62
7
  6
CONTINUOUS
370
-3
390
F
  0
LAYER
  5
42C
100
AcDbSymbolTableRecord
100
AcDbLayerTableRecord
  2
EXTRUDED-3_3
 70
0
 62
7
  6
CONTINUOUS
370
-3
390
F
  0
LAYER
  5
42D
100
AcDbSymbolTableRecord
100
AcDbLayerTableRecord
  2
EXTRUDED-3_4
 70
0
 62
7
  6
CONTINUOUS
370
-3
390
F
  0
LAYER
  5
42E
100
AcDbSymbolTableRecord
100
AcDbLayerTableRecord
  2
EXTRUDED-3_5
 70
0
 62
7
  6
CONTINUOUS
370
-3
390
F
  0
LAYER
  5
42F
100
AcDbSymbolTableRecord
100
AcDbLayerTableRecord
  2
EXTRUDED-3_6
 70
0
 62
7
  6
CONTINUOUS
370
-3
390
F
  0
LAYER
  5
430
100
AcDbSymbolTableRecord
100
AcDbLayerTableRecord
  2
EXTRUDED-4
 70
0
 62
7
  6
CONTINUOUS
370
-3
390
F
  0
LAYER
  5
431
100
AcDbSymbolTableRecord
100
AcDbLayerTableRecord
  2
EXTRUDED-42879
 70
0
 62
7
  6
CONTINUOUS
370
-3
390
F
  0
LAYER
  5
432
100
AcDbSymbolTableRecord
100
AcDbLayerTableRecord
  2
EXTRUDED-42879_1
 70
0
 62
7
  6
CONTINUOUS
370
-3
390
F
  0
LAYER
  5
433
100
AcDbSymbolTableRecord
100
AcDbLayerTableRecord
  2
EXTRUDED-43256
 70
0
 62
7
  6
CONTINUOUS
370
-3
390
F
  0
LAYER
  5
434
100
AcDbSymbolTableRecord
100
AcDbLayerTableRecord
  2
EXTRUDED-43256_1
 70
0
 62
7
  6
CONTINUOUS
370
-3
390
F
  0
LAYER
  5
435
100
AcDbSymbolTableRecord
100
AcDbLayerTableRecord
  2
EXTRUDED-43633
 70
0
 62
7
  6
CONTINUOUS
370
-3
390
F
  0
LAYER
  5
436
100
AcDbSymbolTableRecord
100
AcDbLayerTableRecord
  2
EXTRUDED-43633_1
 70
0
 62
7
  6
CONTINUOUS
370
-3
390
F
  0
LAYER
  5
437
100
AcDbSymbolTableRecord
100
AcDbLayerTableRecord
  2
EXTRUDED-44010
 70
0
 62
7
  6
CONTINUOUS
370
-3
390
F
  0
LAYER
  5
438
100
AcDbSymbolTableRecord
100
AcDbLayerTableRecord
  2
EXTRUDED-4_1
 70
0
 62
7
  6
CONTINUOUS
370
-3
390
F
  0
LAYER
  5
439
100
AcDbSymbolTableRecord
100
AcDbLayerTableRecord
  2
EXTRUDED-4_2
 70
0
 62
7
  6
CONTINUOUS
370
-3
390
F
  0
LAYER
  5
43A
100
AcDbSymbolTableRecord
100
AcDbLayerTableRecord
  2
EXTRUDED-4_3
 70
0
 62
7
  6
CONTINUOUS
370
-3
390
F
  0
LAYER
  5
43B
100
AcDbSymbolTableRecord
100
AcDbLayerTableRecord
  2
EXTRUDED-4_4
 70
0
 62
7
  6
CONTINUOUS
370
-3
390
F
  0
LAYER
  5
43C
100
AcDbSymbolTableRecord
100
AcDbLayerTableRecord
  2
EXTRUDED-4_5
 70
0
 62
7
  6
CONTINUOUS
370
-3
390
F
  0
LAYER
  5
43D
100
AcDbSymbolTableRecord
100
AcDbLayerTableRecord
  2
EXTRUDED-4_6
 70
0
 62
7
  6
CONTINUOUS
370
-3
390
F
  0
LAYER
  5
43E
100
AcDbSymbolTableRecord
100
AcDbLayerTableRecord
  2
EXTRUDED-5
 70
0
 62
7
  6
CONTINUOUS
370
-3
390
F
  0
LAYER
  5
43F
100
AcDbSymbolTableRecord
100
AcDbLayerTableRecord
  2
EXTRUDED-5_1
 70
0
 62
7
  6
CONTINUOUS
370
-3
390
F
  0
LAYER
  5
440
100
AcDbSymbolTableRecord
100
AcDbLayerTableRecord
  2
EXTRUDED-6
 70
0
 62
7
  6
CONTINUOUS
370
-3
390
F
  0
LAYER
  5
441
100
AcDbSymbolTableRecord
100
AcDbLayerTableRecord
  2
EXTRUDED-69123
 70
0
 62
7
  6
CONTINUOUS
370
-3
390
F
  0
LAYER
  5
442
100
AcDbSymbolTableRecord
100
AcDbLayerTableRecord
  2
EXTRUDED-69123_1
 70
0
 62
7
  6
CONTINUOUS
370
-3
390
F
  0
LAYER
  5
443
100
AcDbSymbolTableRecord
100
AcDbLayerTableRecord
  2
EXTRUDED-69123_10
 70
0
 62
7
  6
CONTINUOUS
370
-3
390
F
  0
LAYER
  5
444
100
AcDbSymbolTableRecord
100
AcDbLayerTableRecord
  2
EXTRUDED-69123_11
 70
0
 62
7
  6
CONTINUOUS
370
-3
390
F
  0
LAYER
  5
445
100
AcDbSymbolTableRecord
100
AcDbLayerTableRecord
  2
EXTRUDED-69123_12
 70
0
 62
7
  6
CONTINUOUS
370
-3
390
F
  0
LAYER
  5
446
100
AcDbSymbolTableRecord
100
AcDbLayerTableRecord
  2
EXTRUDED-69123_13
 70
0
 62
7
  6
CONTINUOUS
370
-3
390
F
  0
LAYER
  5
447
100
AcDbSymbolTableRecord
100
AcDbLayerTableRecord
  2
EXTRUDED-69123_14
 70
0
 62
7
  6
CONTINUOUS
370
-3
390
F
  0
LAYER
  5
448
100
AcDbSymbolTableRecord
100
AcDbLayerTableRecord
  2
EXTRUDED-69123_15
 70
0
 62
7
  6
CONTINUOUS
370
-3
390
F
  0
LAYER
  5
449
100
AcDbSymbolTableRecord
100
AcDbLayerTableRecord
  2
EXTRUDED-69123_16
 70
0
 62
7
  6
CONTINUOUS
370
-3
390
F
  0
LAYER
  5
44A
100
AcDbSymbolTableRecord
100
AcDbLayerTableRecord
  2
EXTRUDED-69123_17
 70
0
 62
7
  6
CONTINUOUS
370
-3
390
F
  0
LAYER
  5
44B
100
AcDbSymbolTableRecord
100
AcDbLayerTableRecord
  2
EXTRUDED-69123_2
 70
0
 62
7
  6
CONTINUOUS
370
-3
390
F
  0
LAYER
  5
44C
100
AcDbSymbolTableRecord
100
AcDbLayerTableRecord
  2
EXTRUDED-69123_3
 70
0
 62
7
  6
CONTINUOUS
370
-3
390
F
  0
LAYER
  5
44D
100
AcDbSymbolTableRecord
100
AcDbLayerTableRecord
  2
EXTRUDED-69123_4
 70
0
 62
7
  6
CONTINUOUS
370
-3
390
F
  0
LAYER
  5
44E
100
AcDbSymbolTableRecord
100
AcDbLayerTableRecord
  2
EXTRUDED-69123_5
 70
0
 62
7
  6
CONTINUOUS
370
-3
390
F
  0
LAYER
  5
44F
100
AcDbSymbolTableRecord
100
AcDbLayerTableRecord
  2
EXTRUDED-69123_6
 70
0
 62
7
  6
CONTINUOUS
370
-3
390
F
  0
LAYER
  5
450
100
AcDbSymbolTableRecord
100
AcDbLayerTableRecord
  2
EXTRUDED-69123_7
 70
0
 62
7
  6
CONTINUOUS
370
-3
390
F
  0
LAYER
  5
451
100
AcDbSymbolTableRecord
100
AcDbLayerTableRecord
  2
EXTRUDED-69123_8
 70
0
 62
7
  6
CONTINUOUS
370
-3
390
F
  0
LAYER
  5
452
100
AcDbSymbolTableRecord
100
AcDbLayerTableRecord
  2
EXTRUDED-69123_9
 70
0
 62
7
  6
CONTINUOUS
370
-3
390
F
  0
LAYER
  5
453
100
AcDbSymbolTableRecord
100
AcDbLayerTableRecord
  2
EXTRUDED-6_1
 70
0
 62
7
  6
CONTINUOUS
370
-3
390
F
  0
LAYER
  5
454
100
AcDbSymbolTableRecord
100
AcDbLayerTableRecord
  2
EXTRUDED-7
 70
0
 62
7
  6
CONTINUOUS
370
-3
390
F
  0
LAYER
  5
455
100
AcDbSymbolTableRecord
100
AcDbLayerTableRecord
  2
EXTRUDED-7_1
 70
0
 62
7
  6
CONTINUOUS
370
-3
390
F
  0
LAYER
  5
456
100
AcDbSymbolTableRecord
100
AcDbLayerTableRecord
  2
EXTRUDED-8
 70
0
 62
7
  6
CONTINUOUS
370
-3
390
F
  0
LAYER
  5
457
100
AcDbSymbolTableRecord
100
AcDbLayerTableRecord
  2
EXTRUDED-8_1
 70
0
 62
7
  6
CONTINUOUS
370
-3
390
F
  0
LAYER
  5
458
100
AcDbSymbolTableRecord
100
AcDbLayerTableRecord
  2
EXTRUDED-9
 70
0
 62
7
  6
CONTINUOUS
370
-3
390
F
  0
LAYER
  5
459
100
AcDbSymbolTableRecord
100
AcDbLayerTableRecord
  2
EXTRUDED-95603
 70
0
 62
7
  6
CONTINUOUS
370
-3
390
F
  0
LAYER
  5
45A
100
AcDbSymbolTableRecord
100
AcDbLayerTableRecord
  2
F1
 70
0
 62
7
  6
CONTINUOUS
370
-3
390
F
  0
LAYER
  5
45B
100
AcDbSymbolTableRecord
100
AcDbLayerTableRecord
  2
FREE-MODELS
 70
0
 62
7
  6
CONTINUOUS
370
-3
390
F
  0
LAYER
  5
45C
100
AcDbSymbolTableRecord
100
AcDbLayerTableRecord
  2
GEH_USE-117156
 70
0
 62
7
  6
CONTINUOUS
370
-3
390
F
  0
LAYER
  5
45D
100
AcDbSymbolTableRecord
100
AcDbLayerTableRecord
  2
GEH_USE-125770
 70
0
 62
7
  6
CONTINUOUS
370
-3
390
F
  0
LAYER
  5
45E
100
AcDbSymbolTableRecord
100
AcDbLayerTableRecord
  2
GEH_USE-134527
 70
0
 62
7
  6
CONTINUOUS
370
-3
390
F
  0
LAYER
  5
45F
100
AcDbSymbolTableRecord
100
AcDbLayerTableRecord
  2
GEH_USE-138230
 70
0
 62
7
  6
CONTINUOUS
370
-3
390
F
  0
LAYER
  5
460
100
AcDbSymbolTableRecord
100
AcDbLayerTableRecord
  2
GEH_X2_00E4_X0_USE
 70
0
 62
7
  6
CONTINUOUS
370
-3
390
F
  0
LAYER
  5
461
100
AcDbSymbolTableRecord
100
AcDbLayerTableRecord
  2
IMPORT_IGES
 70
0
 62
7
  6
CONTINUOUS
370
-3
390
F
  0
LAYER
  5
462
100
AcDbSymbolTableRecord
100
AcDbLayerTableRecord
  2
INTFCLR_3
 70
0
 62
7
  6
CONTINUOUS
370
-3
390
F
  0
LAYER
  5
463
100
AcDbSymbolTableRecord
100
AcDbLayerTableRecord
  2
INTFCLR_4
 70
0
 62
7
  6
CONTINUOUS
370
-3
390
F
  0
LAYER
  5
464
100
AcDbSymbolTableRecord
100
AcDbLayerTableRecord
  2
INTFCLR_5
 70
0
 62
7
  6
CONTINUOUS
370
-3
390
F
  0
LAYER
  5
465
100
AcDbSymbolTableRecord
100
AcDbLayerTableRecord
  2
INTF_2
 70
0
 62
7
  6
CONTINUOUS
370
-3
390
F
  0
LAYER
  5
466
100
AcDbSymbolTableRecord
100
AcDbLayerTableRecord
  2
INTF_9
 70
0
 62
7
  6
CONTINUOUS
370
-3
390
F
  0
LAYER
  5
467
100
AcDbSymbolTableRecord
100
AcDbLayerTableRecord
  2
INTF_BLANK
 70
0
 62
7
  6
CONTINUOUS
370
-3
390
F
  0
LAYER
  5
468
100
AcDbSymbolTableRecord
100
AcDbLayerTableRecord
  2
INTF_BLUE
 70
0
 62
7
  6
CONTINUOUS
370
-3
390
F
  0
LAYER
  5
469
100
AcDbSymbolTableRecord
100
AcDbLayerTableRecord
  2
J-1888687
 70
0
 62
7
  6
CONTINUOUS
370
-3
390
F
  0
LAYER
  5
46A
100
AcDbSymbolTableRecord
100
AcDbLayerTableRecord
  2
J-1888690
 70
0
 62
7
  6
CONTINUOUS
370
-3
390
F
  0
LAYER
  5
46B
100
AcDbSymbolTableRecord
100
AcDbLayerTableRecord
  2
J-1888700
 70
0
 62
7
  6
CONTINUOUS
370
-3
390
F
  0
LAYER
  5
46C
100
AcDbSymbolTableRecord
100
AcDbLayerTableRecord
  2
J1
 70
0
 62
7
  6
CONTINUOUS
370
-3
390
F
  0
LAYER
  5
46D
100
AcDbSymbolTableRecord
100
AcDbLayerTableRecord
  2
J2
 70
0
 62
7
  6
CONTINUOUS
370
-3
390
F
  0
LAYER
  5
46E
100
AcDbSymbolTableRecord
100
AcDbLayerTableRecord
  2
KBPM
 70
0
 62
7
  6
CONTINUOUS
370
-3
390
F
  0
LAYER
  5
46F
100
AcDbSymbolTableRecord
100
AcDbLayerTableRecord
  2
KBPM_1
 70
0
 62
7
  6
CONTINUOUS
370
-3
390
F
  0
LAYER
  5
470
100
AcDbSymbolTableRecord
100
AcDbLayerTableRecord
  2
KBPM_10
 70
0
 62
7
  6
CONTINUOUS
370
-3
390
F
  0
LAYER
  5
471
100
AcDbSymbolTableRecord
100
AcDbLayerTableRecord
  2
KBPM_11
 70
0
 62
7
  6
CONTINUOUS
370
-3
390
F
  0
LAYER
  5
472
100
AcDbSymbolTableRecord
100
AcDbLayerTableRecord
  2
KBPM_12
 70
0
 62
7
  6
CONTINUOUS
370
-3
390
F
  0
LAYER
  5
473
100
AcDbSymbolTableRecord
100
AcDbLayerTableRecord
  2
KBPM_13
 70
0
 62
7
  6
CONTINUOUS
370
-3
390
F
  0
LAYER
  5
474
100
AcDbSymbolTableRecord
100
AcDbLayerTableRecord
  2
KBPM_14
 70
0
 62
7
  6
CONTINUOUS
370
-3
390
F
  0
LAYER
  5
475
100
AcDbSymbolTableRecord
100
AcDbLayerTableRecord
  2
KBPM_15
 70
0
 62
7
  6
CONTINUOUS
370
-3
390
F
  0
LAYER
  5
476
100
AcDbSymbolTableRecord
100
AcDbLayerTableRecord
  2
KBPM_16
 70
0
 62
7
  6
CONTINUOUS
370
-3
390
F
  0
LAYER
  5
477
100
AcDbSymbolTableRecord
100
AcDbLayerTableRecord
  2
KBPM_17
 70
0
 62
7
  6
CONTINUOUS
370
-3
390
F
  0
LAYER
  5
478
100
AcDbSymbolTableRecord
100
AcDbLayerTableRecord
  2
KBPM_2
 70
0
 62
7
  6
CONTINUOUS
370
-3
390
F
  0
LAYER
  5
479
100
AcDbSymbolTableRecord
100
AcDbLayerTableRecord
  2
KBPM_3
 70
0
 62
7
  6
CONTINUOUS
370
-3
390
F
  0
LAYER
  5
47A
100
AcDbSymbolTableRecord
100
AcDbLayerTableRecord
  2
KBPM_4
 70
0
 62
7
  6
CONTINUOUS
370
-3
390
F
  0
LAYER
  5
47B
100
AcDbSymbolTableRecord
100
AcDbLayerTableRecord
  2
KBPM_5
 70
0
 62
7
  6
CONTINUOUS
370
-3
390
F
  0
LAYER
  5
47C
100
AcDbSymbolTableRecord
100
AcDbLayerTableRecord
  2
KBPM_6
 70
0
 62
7
  6
CONTINUOUS
370
-3
390
F
  0
LAYER
  5
47D
100
AcDbSymbolTableRecord
100
AcDbLayerTableRecord
  2
KBPM_7
 70
0
 62
7
  6
CONTINUOUS
370
-3
390
F
  0
LAYER
  5
47E
100
AcDbSymbolTableRecord
100
AcDbLayerTableRecord
  2
KBPM_8
 70
0
 62
7
  6
CONTINUOUS
370
-3
390
F
  0
LAYER
  5
47F
100
AcDbSymbolTableRecord
100
AcDbLayerTableRecord
  2
KBPM_9
 70
0
 62
7
  6
CONTINUOUS
370
-3
390
F
  0
LAYER
  5
480
100
AcDbSymbolTableRecord
100
AcDbLayerTableRecord
  2
KL45_DR
 70
0
 62
7
  6
CONTINUOUS
370
-3
390
F
  0
LAYER
  5
481
100
AcDbSymbolTableRecord
100
AcDbLayerTableRecord
  2
KL45_DR_1
 70
0
 62
7
  6
CONTINUOUS
370
-3
390
F
  0
LAYER
  5
482
100
AcDbSymbolTableRecord
100
AcDbLayerTableRecord
  2
KL45_DR_2
 70
0
 62
7
  6
CONTINUOUS
370
-3
390
F
  0
LAYER
  5
483
100
AcDbSymbolTableRecord
100
AcDbLayerTableRecord
  2
KLEBEMASSE
 70
0
 62
7
  6
CONTINUOUS
370
-3
390
F
  0
LAYER
  5
484
100
AcDbSymbolTableRecord
100
AcDbLayerTableRecord
  2
L-WECMBS
 70
0
 62
7
  6
CONTINUOUS
370
-3
390
F
  0
LAYER
  5
485
100
AcDbSymbolTableRecord
100
AcDbLayerTableRecord
  2
L-WEGF-1210
 70
0
 62
7
  6
CONTINUOUS
370
-3
390
F
  0
LAYER
  5
486
100
AcDbSymbolTableRecord
100
AcDbLayerTableRecord
  2
L-WESL5-744272251
 70
0
 62
7
  6
CONTINUOUS
370
-3
390
F
  0
LAYER
  5
487
100
AcDbSymbolTableRecord
100
AcDbLayerTableRecord
  2
L-WESPC-4838
 70
0
 62
7
  6
CONTINUOUS
370
-3
390
F
  0
LAYER
  5
488
100
AcDbSymbolTableRecord
100
AcDbLayerTableRecord
  2
L-WESPC-4838_1
 70
0
 62
7
  6
CONTINUOUS
370
-3
390
F
  0
LAYER
  5
489
100
AcDbSymbolTableRecord
100
AcDbLayerTableRecord
  2
L-WESPC-4838_2
 70
0
 62
7
  6
CONTINUOUS
370
-3
390
F
  0
LAYER
  5
48A
100
AcDbSymbolTableRecord
100
AcDbLayerTableRecord
  2
L2
 70
0
 62
7
  6
CONTINUOUS
370
-3
390
F
  0
LAYER
  5
48B
100
AcDbSymbolTableRecord
100
AcDbLayerTableRecord
  2
L3
 70
0
 62
7
  6
CONTINUOUS
370
-3
390
F
  0
LAYER
  5
48C
100
AcDbSymbolTableRecord
100
AcDbLayerTableRecord
  2
L4
 70
0
 62
7
  6
CONTINUOUS
370
-3
390
F
  0
LAYER
  5
48D
100
AcDbSymbolTableRecord
100
AcDbLayerTableRecord
  2
L5
 70
0
 62
7
  6
CONTINUOUS
370
-3
390
F
  0
LAYER
  5
48E
100
AcDbSymbolTableRecord
100
AcDbLayerTableRecord
  2
L6
 70
0
 62
7
  6
CONTINUOUS
370
-3
390
F
  0
LAYER
  5
48F
100
AcDbSymbolTableRecord
100
AcDbLayerTableRecord
  2
L7
 70
0
 62
7
  6
CONTINUOUS
370
-3
390
F
  0
LAYER
  5
490
100
AcDbSymbolTableRecord
100
AcDbLayerTableRecord
  2
MANIFOLD_SOLID_BREP_78153
 70
0
 62
7
  6
CONTINUOUS
370
-3
390
F
  0
LAYER
  5
491
100
AcDbSymbolTableRecord
100
AcDbLayerTableRecord
  2
MANIFOLD_SOLID_BREP_78153_1
 70
0
 62
7
  6
CONTINUOUS
370
-3
390
F
  0
LAYER
  5
492
100
AcDbSymbolTableRecord
100
AcDbLayerTableRecord
  2
MANIFOLD_SOLID_BREP_78153_2
 70
0
 62
7
  6
CONTINUOUS
370
-3
390
F
  0
LAYER
  5
493
100
AcDbSymbolTableRecord
100
AcDbLayerTableRecord
  2
MANIFOLD_SOLID_BREP_78153_3
 70
0
 62
7
  6
CONTINUOUS
370
-3
390
F
  0
LAYER
  5
494
100
AcDbSymbolTableRecord
100
AcDbLayerTableRecord
  2
MANIFOLD_SOLID_BREP_78153_4
 70
0
 62
7
  6
CONTINUOUS
370
-3
390
F
  0
LAYER
  5
495
100
AcDbSymbolTableRecord
100
AcDbLayerTableRecord
  2
MANIFOLD_SOLID_BREP_78483
 70
0
 62
7
  6
CONTINUOUS
370
-3
390
F
  0
LAYER
  5
496
100
AcDbSymbolTableRecord
100
AcDbLayerTableRecord
  2
MANIFOLD_SOLID_BREP_78483_1
 70
0
 62
7
  6
CONTINUOUS
370
-3
390
F
  0
LAYER
  5
497
100
AcDbSymbolTableRecord
100
AcDbLayerTableRecord
  2
MANIFOLD_SOLID_BREP_78483_2
 70
0
 62
7
  6
CONTINUOUS
370
-3
390
F
  0
LAYER
  5
498
100
AcDbSymbolTableRecord
100
AcDbLayerTableRecord
  2
MANIFOLD_SOLID_BREP_78483_3
 70
0
 62
7
  6
CONTINUOUS
370
-3
390
F
  0
LAYER
  5
499
100
AcDbSymbolTableRecord
100
AcDbLayerTableRecord
  2
MANIFOLD_SOLID_BREP_78483_4
 70
0
 62
7
  6
CONTINUOUS
370
-3
390
F
  0
LAYER
  5
49A
100
AcDbSymbolTableRecord
100
AcDbLayerTableRecord
  2
MANIFOLD_SOLID_BREP_79437
 70
0
 62
7
  6
CONTINUOUS
370
-3
390
F
  0
LAYER
  5
49B
100
AcDbSymbolTableRecord
100
AcDbLayerTableRecord
  2
MANIFOLD_SOLID_BREP_79437_1
 70
0
 62
7
  6
CONTINUOUS
370
-3
390
F
  0
LAYER
  5
49C
100
AcDbSymbolTableRecord
100
AcDbLayerTableRecord
  2
MANIFOLD_SOLID_BREP_79437_2
 70
0
 62
7
  6
CONTINUOUS
370
-3
390
F
  0
LAYER
  5
49D
100
AcDbSymbolTableRecord
100
AcDbLayerTableRecord
  2
MANIFOLD_SOLID_BREP_79437_3
 70
0
 62
7
  6
CONTINUOUS
370
-3
390
F
  0
LAYER
  5
49E
100
AcDbSymbolTableRecord
100
AcDbLayerTableRecord
  2
MANIFOLD_SOLID_BREP_79437_4
 70
0
 62
7
  6
CONTINUOUS
370
-3
390
F
  0
LAYER
  5
49F
100
AcDbSymbolTableRecord
100
AcDbLayerTableRecord
  2
MANIFOLD_SOLID_BREP_80391
 70
0
 62
7
  6
CONTINUOUS
370
-3
390
F
  0
LAYER
  5
4A0
100
AcDbSymbolTableRecord
100
AcDbLayerTableRecord
  2
MANIFOLD_SOLID_BREP_80391_1
 70
0
 62
7
  6
CONTINUOUS
370
-3
390
F
  0
LAYER
  5
4A1
100
AcDbSymbolTableRecord
100
AcDbLayerTableRecord
  2
MANIFOLD_SOLID_BREP_80391_2
 70
0
 62
7
  6
CONTINUOUS
370
-3
390
F
  0
LAYER
  5
4A2
100
AcDbSymbolTableRecord
100
AcDbLayerTableRecord
  2
MANIFOLD_SOLID_BREP_80391_3
 70
0
 62
7
  6
CONTINUOUS
370
-3
390
F
  0
LAYER
  5
4A3
100
AcDbSymbolTableRecord
100
AcDbLayerTableRecord
  2
MANIFOLD_SOLID_BREP_80391_4
 70
0
 62
7
  6
CONTINUOUS
370
-3
390
F
  0
LAYER
  5
4A4
100
AcDbSymbolTableRecord
100
AcDbLayerTableRecord
  2
MANIFOLD_SOLID_BREP_86290
 70
0
 62
7
  6
CONTINUOUS
370
-3
390
F
  0
LAYER
  5
4A5
100
AcDbSymbolTableRecord
100
AcDbLayerTableRecord
  2
MANIFOLD_SOLID_BREP_86290_1
 70
0
 62
7
  6
CONTINUOUS
370
-3
390
F
  0
LAYER
  5
4A6
100
AcDbSymbolTableRecord
100
AcDbLayerTableRecord
  2
MANIFOLD_SOLID_BREP_86620
 70
0
 62
7
  6
CONTINUOUS
370
-3
390
F
  0
LAYER
  5
4A7
100
AcDbSymbolTableRecord
100
AcDbLayerTableRecord
  2
MANIFOLD_SOLID_BREP_86620_1
 70
0
 62
7
  6
CONTINUOUS
370
-3
390
F
  0
LAYER
  5
4A8
100
AcDbSymbolTableRecord
100
AcDbLayerTableRecord
  2
MKDSN_2_5-2-5_08
 70
0
 62
7
  6
CONTINUOUS
370
-3
390
F
  0
LAYER
  5
4A9
100
AcDbSymbolTableRecord
100
AcDbLayerTableRecord
  2
MKDSN_2_5-3-5_08
 70
0
 62
7
  6
CONTINUOUS
370
-3
390
F
  0
LAYER
  5
4AA
100
AcDbSymbolTableRecord
100
AcDbLayerTableRecord
  2
MKDSN_2_5-4-5_08
 70
0
 62
7
  6
CONTINUOUS
370
-3
390
F
  0
LAYER
  5
4AB
100
AcDbSymbolTableRecord
100
AcDbLayerTableRecord
  2
NOTE
 70
0
 62
7
  6
CONTINUOUS
370
-3
390
F
  0
LAYER
  5
4AC
100
AcDbSymbolTableRecord
100
AcDbLayerTableRecord
  2
OC1
 70
0
 62
7
  6
CONTINUOUS
370
-3
390
F
  0
LAYER
  5
4AD
100
AcDbSymbolTableRecord
100
AcDbLayerTableRecord
  2
PAD
 70
0
 62
7
  6
CONTINUOUS
370
-3
390
F
  0
LAYER
  5
4AE
100
AcDbSymbolTableRecord
100
AcDbLayerTableRecord
  2
PAD_1
 70
0
 62
7
  6
CONTINUOUS
370
-3
390
F
  0
LAYER
  5
4AF
100
AcDbSymbolTableRecord
100
AcDbLayerTableRecord
  2
PAD_2
 70
0
 62
7
  6
CONTINUOUS
370
-3
390
F
  0
LAYER
  5
4B0
100
AcDbSymbolTableRecord
100
AcDbLayerTableRecord
  2
PAD_3
 70
0
 62
7
  6
CONTINUOUS
370
-3
390
F
  0
LAYER
  5
4B1
100
AcDbSymbolTableRecord
100
AcDbLayerTableRecord
  2
PAD_4
 70
0
 62
7
  6
CONTINUOUS
370
-3
390
F
  0
LAYER
  5
4B2
100
AcDbSymbolTableRecord
100
AcDbLayerTableRecord
  2
PAD_5
 70
0
 62
7
  6
CONTINUOUS
370
-3
390
F
  0
LAYER
  5
4B3
100
AcDbSymbolTableRecord
100
AcDbLayerTableRecord
  2
PCB
 70
0
 62
7
  6
CONTINUOUS
370
-3
390
F
  0
LAYER
  5
4B4
100
AcDbSymbolTableRecord
100
AcDbLayerTableRecord
  2
PIANI
 70
0
 62
7
  6
CONTINUOUS
370
-3
390
F
  0
LAYER
  5
4B5
100
AcDbSymbolTableRecord
100
AcDbLayerTableRecord
  2
PIANI_ORIGINE
 70
0
 62
7
  6
CONTINUOUS
370
-3
390
F
  0
LAYER
  5
4B6
100
AcDbSymbolTableRecord
100
AcDbLayerTableRecord
  2
PIANI_PATTERN
 70
0
 62
7
  6
CONTINUOUS
370
-3
390
F
  0
LAYER
  5
4B7
100
AcDbSymbolTableRecord
100
AcDbLayerTableRecord
  2
PIN
 70
0
 62
7
  6
CONTINUOUS
370
-3
390
F
  0
LAYER
  5
4B8
100
AcDbSymbolTableRecord
100
AcDbLayerTableRecord
  2
PIN-1
 70
0
 62
7
  6
CONTINUOUS
370
-3
390
F
  0
LAYER
  5
4B9
100
AcDbSymbolTableRecord
100
AcDbLayerTableRecord
  2
PIN-161563
 70
0
 62
7
  6
CONTINUOUS
370
-3
390
F
  0
LAYER
  5
4BA
100
AcDbSymbolTableRecord
100
AcDbLayerTableRecord
  2
PIN-161563_1
 70
0
 62
7
  6
CONTINUOUS
370
-3
390
F
  0
LAYER
  5
4BB
100
AcDbSymbolTableRecord
100
AcDbLayerTableRecord
  2
PIN-161563_2
 70
0
 62
7
  6
CONTINUOUS
370
-3
390
F
  0
LAYER
  5
4BC
100
AcDbSymbolTableRecord
100
AcDbLayerTableRecord
  2
PIN-161563_3
 70
0
 62
7
  6
CONTINUOUS
370
-3
390
F
  0
LAYER
  5
4BD
100
AcDbSymbolTableRecord
100
AcDbLayerTableRecord
  2
PIN-1_1
 70
0
 62
7
  6
CONTINUOUS
370
-3
390
F
  0
LAYER
  5
4BE
100
AcDbSymbolTableRecord
100
AcDbLayerTableRecord
  2
PIN-1_2
 70
0
 62
7
  6
CONTINUOUS
370
-3
390
F
  0
LAYER
  5
4BF
100
AcDbSymbolTableRecord
100
AcDbLayerTableRecord
  2
PIN-1_3
 70
0
 62
7
  6
CONTINUOUS
370
-3
390
F
  0
LAYER
  5
4C0
100
AcDbSymbolTableRecord
100
AcDbLayerTableRecord
  2
PIN-288965
 70
0
 62
7
  6
CONTINUOUS
370
-3
390
F
  0
LAYER
  5
4C1
100
AcDbSymbolTableRecord
100
AcDbLayerTableRecord
  2
PIN-288965_1
 70
0
 62
7
  6
CONTINUOUS
370
-3
390
F
  0
LAYER
  5
4C2
100
AcDbSymbolTableRecord
100
AcDbLayerTableRecord
  2
PIN-288965_2
 70
0
 62
7
  6
CONTINUOUS
370
-3
390
F
  0
LAYER
  5
4C3
100
AcDbSymbolTableRecord
100
AcDbLayerTableRecord
  2
PIN-288965_3
 70
0
 62
7
  6
CONTINUOUS
370
-3
390
F
  0
LAYER
  5
4C4
100
AcDbSymbolTableRecord
100
AcDbLayerTableRecord
  2
PUNTI
 70
0
 62
7
  6
CONTINUOUS
370
-3
390
F
  0
LAYER
  5
4C5
100
AcDbSymbolTableRecord
100
AcDbLayerTableRecord
  2
R-0805
 70
0
 62
7
  6
CONTINUOUS
370
-3
390
F
  0
LAYER
  5
4C6
100
AcDbSymbolTableRecord
100
AcDbLayerTableRecord
  2
R-0805_1
 70
0
 62
7
  6
CONTINUOUS
370
-3
390
F
  0
LAYER
  5
4C7
100
AcDbSymbolTableRecord
100
AcDbLayerTableRecord
  2
R-0805_10
 70
0
 62
7
  6
CONTINUOUS
370
-3
390
F
  0
LAYER
  5
4C8
100
AcDbSymbolTableRecord
100
AcDbLayerTableRecord
  2
R-0805_11
 70
0
 62
7
  6
CONTINUOUS
370
-3
390
F
  0
LAYER
  5
4C9
100
AcDbSymbolTableRecord
100
AcDbLayerTableRecord
  2
R-0805_12
 70
0
 62
7
  6
CONTINUOUS
370
-3
390
F
  0
LAYER
  5
4CA
100
AcDbSymbolTableRecord
100
AcDbLayerTableRecord
  2
R-0805_13
 70
0
 62
7
  6
CONTINUOUS
370
-3
390
F
  0
LAYER
  5
4CB
100
AcDbSymbolTableRecord
100
AcDbLayerTableRecord
  2
R-0805_14
 70
0
 62
7
  6
CONTINUOUS
370
-3
390
F
  0
LAYER
  5
4CC
100
AcDbSymbolTableRecord
100
AcDbLayerTableRecord
  2
R-0805_15
 70
0
 62
7
  6
CONTINUOUS
370
-3
390
F
  0
LAYER
  5
4CD
100
AcDbSymbolTableRecord
100
AcDbLayerTableRecord
  2
R-0805_16
 70
0
 62
7
  6
CONTINUOUS
370
-3
390
F
  0
LAYER
  5
4CE
100
AcDbSymbolTableRecord
100
AcDbLayerTableRecord
  2
R-0805_17
 70
0
 62
7
  6
CONTINUOUS
370
-3
390
F
  0
LAYER
  5
4CF
100
AcDbSymbolTableRecord
100
AcDbLayerTableRecord
  2
R-0805_18
 70
0
 62
7
  6
CONTINUOUS
370
-3
390
F
  0
LAYER
  5
4D0
100
AcDbSymbolTableRecord
100
AcDbLayerTableRecord
  2
R-0805_19
 70
0
 62
7
  6
CONTINUOUS
370
-3
390
F
  0
LAYER
  5
4D1
100
AcDbSymbolTableRecord
100
AcDbLayerTableRecord
  2
R-0805_2
 70
0
 62
7
  6
CONTINUOUS
370
-3
390
F
  0
LAYER
  5
4D2
100
AcDbSymbolTableRecord
100
AcDbLayerTableRecord
  2
R-0805_20
 70
0
 62
7
  6
CONTINUOUS
370
-3
390
F
  0
LAYER
  5
4D3
100
AcDbSymbolTableRecord
100
AcDbLayerTableRecord
  2
R-0805_21
 70
0
 62
7
  6
CONTINUOUS
370
-3
390
F
  0
LAYER
  5
4D4
100
AcDbSymbolTableRecord
100
AcDbLayerTableRecord
  2
R-0805_22
 70
0
 62
7
  6
CONTINUOUS
370
-3
390
F
  0
LAYER
  5
4D5
100
AcDbSymbolTableRecord
100
AcDbLayerTableRecord
  2
R-0805_23
 70
0
 62
7
  6
CONTINUOUS
370
-3
390
F
  0
LAYER
  5
4D6
100
AcDbSymbolTableRecord
100
AcDbLayerTableRecord
  2
R-0805_24
 70
0
 62
7
  6
CONTINUOUS
370
-3
390
F
  0
LAYER
  5
4D7
100
AcDbSymbolTableRecord
100
AcDbLayerTableRecord
  2
R-0805_25
 70
0
 62
7
  6
CONTINUOUS
370
-3
390
F
  0
LAYER
  5
4D8
100
AcDbSymbolTableRecord
100
AcDbLayerTableRecord
  2
R-0805_26
 70
0
 62
7
  6
CONTINUOUS
370
-3
390
F
  0
LAYER
  5
4D9
100
AcDbSymbolTableRecord
100
AcDbLayerTableRecord
  2
R-0805_27
 70
0
 62
7
  6
CONTINUOUS
370
-3
390
F
  0
LAYER
  5
4DA
100
AcDbSymbolTableRecord
100
AcDbLayerTableRecord
  2
R-0805_28
 70
0
 62
7
  6
CONTINUOUS
370
-3
390
F
  0
LAYER
  5
4DB
100
AcDbSymbolTableRecord
100
AcDbLayerTableRecord
  2
R-0805_29
 70
0
 62
7
  6
CONTINUOUS
370
-3
390
F
  0
LAYER
  5
4DC
100
AcDbSymbolTableRecord
100
AcDbLayerTableRecord
  2
R-0805_3
 70
0
 62
7
  6
CONTINUOUS
370
-3
390
F
  0
LAYER
  5
4DD
100
AcDbSymbolTableRecord
100
AcDbLayerTableRecord
  2
R-0805_30
 70
0
 62
7
  6
CONTINUOUS
370
-3
390
F
  0
LAYER
  5
4DE
100
AcDbSymbolTableRecord
100
AcDbLayerTableRecord
  2
R-0805_31
 70
0
 62
7
  6
CONTINUOUS
370
-3
390
F
  0
LAYER
  5
4DF
100
AcDbSymbolTableRecord
100
AcDbLayerTableRecord
  2
R-0805_4
 70
0
 62
7
  6
CONTINUOUS
370
-3
390
F
  0
LAYER
  5
4E0
100
AcDbSymbolTableRecord
100
AcDbLayerTableRecord
  2
R-0805_5
 70
0
 62
7
  6
CONTINUOUS
370
-3
390
F
  0
LAYER
  5
4E1
100
AcDbSymbolTableRecord
100
AcDbLayerTableRecord
  2
R-0805_6
 70
0
 62
7
  6
CONTINUOUS
370
-3
390
F
  0
LAYER
  5
4E2
100
AcDbSymbolTableRecord
100
AcDbLayerTableRecord
  2
R-0805_7
 70
0
 62
7
  6
CONTINUOUS
370
-3
390
F
  0
LAYER
  5
4E3
100
AcDbSymbolTableRecord
100
AcDbLayerTableRecord
  2
R-0805_8
 70
0
 62
7
  6
CONTINUOUS
370
-3
390
F
  0
LAYER
  5
4E4
100
AcDbSymbolTableRecord
100
AcDbLayerTableRecord
  2
R-0805_9
 70
0
 62
7
  6
CONTINUOUS
370
-3
390
F
  0
LAYER
  5
4E5
100
AcDbSymbolTableRecord
100
AcDbLayerTableRecord
  2
R-1206
 70
0
 62
7
  6
CONTINUOUS
370
-3
390
F
  0
LAYER
  5
4E6
100
AcDbSymbolTableRecord
100
AcDbLayerTableRecord
  2
R-1206-1387
 70
0
 62
7
  6
CONTINUOUS
370
-3
390
F
  0
LAYER
  5
4E7
100
AcDbSymbolTableRecord
100
AcDbLayerTableRecord
  2
R-1206-1387_1
 70
0
 62
7
  6
CONTINUOUS
370
-3
390
F
  0
LAYER
  5
4E8
100
AcDbSymbolTableRecord
100
AcDbLayerTableRecord
  2
R-1206-1387_2
 70
0
 62
7
  6
CONTINUOUS
370
-3
390
F
  0
LAYER
  5
4E9
100
AcDbSymbolTableRecord
100
AcDbLayerTableRecord
  2
R-1206-1387_3
 70
0
 62
7
  6
CONTINUOUS
370
-3
390
F
  0
LAYER
  5
4EA
100
AcDbSymbolTableRecord
100
AcDbLayerTableRecord
  2
R-1206-1387_4
 70
0
 62
7
  6
CONTINUOUS
370
-3
390
F
  0
LAYER
  5
4EB
100
AcDbSymbolTableRecord
100
AcDbLayerTableRecord
  2
R-1206-1393
 70
0
 62
7
  6
CONTINUOUS
370
-3
390
F
  0
LAYER
  5
4EC
100
AcDbSymbolTableRecord
100
AcDbLayerTableRecord
  2
R-1206-1393_1
 70
0
 62
7
  6
CONTINUOUS
370
-3
390
F
  0
LAYER
  5
4ED
100
AcDbSymbolTableRecord
100
AcDbLayerTableRecord
  2
R-1206-1393_2
 70
0
 62
7
  6
CONTINUOUS
370
-3
390
F
  0
LAYER
  5
4EE
100
AcDbSymbolTableRecord
100
AcDbLayerTableRecord
  2
R-1206-1393_3
 70
0
 62
7
  6
CONTINUOUS
370
-3
390
F
  0
LAYER
  5
4EF
100
AcDbSymbolTableRecord
100
AcDbLayerTableRecord
  2
R-1206-1393_4
 70
0
 62
7
  6
CONTINUOUS
370
-3
390
F
  0
LAYER
  5
4F0
100
AcDbSymbolTableRecord
100
AcDbLayerTableRecord
  2
R-1206-1399
 70
0
 62
7
  6
CONTINUOUS
370
-3
390
F
  0
LAYER
  5
4F1
100
AcDbSymbolTableRecord
100
AcDbLayerTableRecord
  2
R-1206-1399_1
 70
0
 62
7
  6
CONTINUOUS
370
-3
390
F
  0
LAYER
  5
4F2
100
AcDbSymbolTableRecord
100
AcDbLayerTableRecord
  2
R-1206-1399_2
 70
0
 62
7
  6
CONTINUOUS
370
-3
390
F
  0
LAYER
  5
4F3
100
AcDbSymbolTableRecord
100
AcDbLayerTableRecord
  2
R-1206-1399_3
 70
0
 62
7
  6
CONTINUOUS
370
-3
390
F
  0
LAYER
  5
4F4
100
AcDbSymbolTableRecord
100
AcDbLayerTableRecord
  2
R-1206-1399_4
 70
0
 62
7
  6
CONTINUOUS
370
-3
390
F
  0
LAYER
  5
4F5
100
AcDbSymbolTableRecord
100
AcDbLayerTableRecord
  2
R-1206-1405
 70
0
 62
7
  6
CONTINUOUS
370
-3
390
F
  0
LAYER
  5
4F6
100
AcDbSymbolTableRecord
100
AcDbLayerTableRecord
  2
R-1206-1405_1
 70
0
 62
7
  6
CONTINUOUS
370
-3
390
F
  0
LAYER
  5
4F7
100
AcDbSymbolTableRecord
100
AcDbLayerTableRecord
  2
R-1206-1405_2
 70
0
 62
7
  6
CONTINUOUS
370
-3
390
F
  0
LAYER
  5
4F8
100
AcDbSymbolTableRecord
100
AcDbLayerTableRecord
  2
R-1206-1405_3
 70
0
 62
7
  6
CONTINUOUS
370
-3
390
F
  0
LAYER
  5
4F9
100
AcDbSymbolTableRecord
100
AcDbLayerTableRecord
  2
R-1206-1405_4
 70
0
 62
7
  6
CONTINUOUS
370
-3
390
F
  0
LAYER
  5
4FA
100
AcDbSymbolTableRecord
100
AcDbLayerTableRecord
  2
R-1206_1
 70
0
 62
7
  6
CONTINUOUS
370
-3
390
F
  0
LAYER
  5
4FB
100
AcDbSymbolTableRecord
100
AcDbLayerTableRecord
  2
R-1206_2
 70
0
 62
7
  6
CONTINUOUS
370
-3
390
F
  0
LAYER
  5
4FC
100
AcDbSymbolTableRecord
100
AcDbLayerTableRecord
  2
R-1206_3
 70
0
 62
7
  6
CONTINUOUS
370
-3
390
F
  0
LAYER
  5
4FD
100
AcDbSymbolTableRecord
100
AcDbLayerTableRecord
  2
R-1206_4
 70
0
 62
7
  6
CONTINUOUS
370
-3
390
F
  0
LAYER
  5
4FE
100
AcDbSymbolTableRecord
100
AcDbLayerTableRecord
  2
R-1210
 70
0
 62
7
  6
CONTINUOUS
370
-3
390
F
  0
LAYER
  5
4FF
100
AcDbSymbolTableRecord
100
AcDbLayerTableRecord
  2
R-1210_1
 70
0
 62
7
  6
CONTINUOUS
370
-3
390
F
  0
LAYER
  5
500
100
AcDbSymbolTableRecord
100
AcDbLayerTableRecord
  2
R-2010
 70
0
 62
7
  6
CONTINUOUS
370
-3
390
F
  0
LAYER
  5
501
100
AcDbSymbolTableRecord
100
AcDbLayerTableRecord
  2
R-2010_1
 70
0
 62
7
  6
CONTINUOUS
370
-3
390
F
  0
LAYER
  5
502
100
AcDbSymbolTableRecord
100
AcDbLayerTableRecord
  2
R-2010_2
 70
0
 62
7
  6
CONTINUOUS
370
-3
390
F
  0
LAYER
  5
503
100
AcDbSymbolTableRecord
100
AcDbLayerTableRecord
  2
R-2010_3
 70
0
 62
7
  6
CONTINUOUS
370
-3
390
F
  0
LAYER
  5
504
100
AcDbSymbolTableRecord
100
AcDbLayerTableRecord
  2
R-2010_4
 70
0
 62
7
  6
CONTINUOUS
370
-3
390
F
  0
LAYER
  5
505
100
AcDbSymbolTableRecord
100
AcDbLayerTableRecord
  2
R-3W-SMALL
 70
0
 62
7
  6
CONTINUOUS
370
-3
390
F
  0
LAYER
  5
506
100
AcDbSymbolTableRecord
100
AcDbLayerTableRecord
  2
R-3W-SMALL_1
 70
0
 62
7
  6
CONTINUOUS
370
-3
390
F
  0
LAYER
  5
507
100
AcDbSymbolTableRecord
100
AcDbLayerTableRecord
  2
R1
 70
0
 62
7
  6
CONTINUOUS
370
-3
390
F
  0
LAYER
  5
508
100
AcDbSymbolTableRecord
100
AcDbLayerTableRecord
  2
R10
 70
0
 62
7
  6
CONTINUOUS
370
-3
390
F
  0
LAYER
  5
509
100
AcDbSymbolTableRecord
100
AcDbLayerTableRecord
  2
R11
 70
0
 62
7
  6
CONTINUOUS
370
-3
390
F
  0
LAYER
  5
50A
100
AcDbSymbolTableRecord
100
AcDbLayerTableRecord
  2
R12
 70
0
 62
7
  6
CONTINUOUS
370
-3
390
F
  0
LAYER
  5
50B
100
AcDbSymbolTableRecord
100
AcDbLayerTableRecord
  2
R13
 70
0
 62
7
  6
CONTINUOUS
370
-3
390
F
  0
LAYER
  5
50C
100
AcDbSymbolTableRecord
100
AcDbLayerTableRecord
  2
R14
 70
0
 62
7
  6
CONTINUOUS
370
-3
390
F
  0
LAYER
  5
50D
100
AcDbSymbolTableRecord
100
AcDbLayerTableRecord
  2
R15
 70
0
 62
7
  6
CONTINUOUS
370
-3
390
F
  0
LAYER
  5
50E
100
AcDbSymbolTableRecord
100
AcDbLayerTableRecord
  2
R16
 70
0
 62
7
  6
CONTINUOUS
370
-3
390
F
  0
LAYER
  5
50F
100
AcDbSymbolTableRecord
100
AcDbLayerTableRecord
  2
R17
 70
0
 62
7
  6
CONTINUOUS
370
-3
390
F
  0
LAYER
  5
510
100
AcDbSymbolTableRecord
100
AcDbLayerTableRecord
  2
R18
 70
0
 62
7
  6
CONTINUOUS
370
-3
390
F
  0
LAYER
  5
511
100
AcDbSymbolTableRecord
100
AcDbLayerTableRecord
  2
R19
 70
0
 62
7
  6
CONTINUOUS
370
-3
390
F
  0
LAYER
  5
512
100
AcDbSymbolTableRecord
100
AcDbLayerTableRecord
  2
R2
 70
0
 62
7
  6
CONTINUOUS
370
-3
390
F
  0
LAYER
  5
513
100
AcDbSymbolTableRecord
100
AcDbLayerTableRecord
  2
R20
 70
0
 62
7
  6
CONTINUOUS
370
-3
390
F
  0
LAYER
  5
514
100
AcDbSymbolTableRecord
100
AcDbLayerTableRecord
  2
R21
 70
0
 62
7
  6
CONTINUOUS
370
-3
390
F
  0
LAYER
  5
515
100
AcDbSymbolTableRecord
100
AcDbLayerTableRecord
  2
R22
 70
0
 62
7
  6
CONTINUOUS
370
-3
390
F
  0
LAYER
  5
516
100
AcDbSymbolTableRecord
100
AcDbLayerTableRecord
  2
R23
 70
0
 62
7
  6
CONTINUOUS
370
-3
390
F
  0
LAYER
  5
517
100
AcDbSymbolTableRecord
100
AcDbLayerTableRecord
  2
R24
 70
0
 62
7
  6
CONTINUOUS
370
-3
390
F
  0
LAYER
  5
518
100
AcDbSymbolTableRecord
100
AcDbLayerTableRecord
  2
R25
 70
0
 62
7
  6
CONTINUOUS
370
-3
390
F
  0
LAYER
  5
519
100
AcDbSymbolTableRecord
100
AcDbLayerTableRecord
  2
R26
 70
0
 62
7
  6
CONTINUOUS
370
-3
390
F
  0
LAYER
  5
51A
100
AcDbSymbolTableRecord
100
AcDbLayerTableRecord
  2
R27
 70
0
 62
7
  6
CONTINUOUS
370
-3
390
F
  0
LAYER
  5
51B
100
AcDbSymbolTableRecord
100
AcDbLayerTableRecord
  2
R28
 70
0
 62
7
  6
CONTINUOUS
370
-3
390
F
  0
LAYER
  5
51C
100
AcDbSymbolTableRecord
100
AcDbLayerTableRecord
  2
R29
 70
0
 62
7
  6
CONTINUOUS
370
-3
390
F
  0
LAYER
  5
51D
100
AcDbSymbolTableRecord
100
AcDbLayerTableRecord
  2
R3
 70
0
 62
7
  6
CONTINUOUS
370
-3
390
F
  0
LAYER
  5
51E
100
AcDbSymbolTableRecord
100
AcDbLayerTableRecord
  2
R30
 70
0
 62
7
  6
CONTINUOUS
370
-3
390
F
  0
LAYER
  5
51F
100
AcDbSymbolTableRecord
100
AcDbLayerTableRecord
  2
R31
 70
0
 62
7
  6
CONTINUOUS
370
-3
390
F
  0
LAYER
  5
520
100
AcDbSymbolTableRecord
100
AcDbLayerTableRecord
  2
R32
 70
0
 62
7
  6
CONTINUOUS
370
-3
390
F
  0
LAYER
  5
521
100
AcDbSymbolTableRecord
100
AcDbLayerTableRecord
  2
R33
 70
0
 62
7
  6
CONTINUOUS
370
-3
390
F
  0
LAYER
  5
522
100
AcDbSymbolTableRecord
100
AcDbLayerTableRecord
  2
R34
 70
0
 62
7
  6
CONTINUOUS
370
-3
390
F
  0
LAYER
  5
523
100
AcDbSymbolTableRecord
100
AcDbLayerTableRecord
  2
R35
 70
0
 62
7
  6
CONTINUOUS
370
-3
390
F
  0
LAYER
  5
524
100
AcDbSymbolTableRecord
100
AcDbLayerTableRecord
  2
R36
 70
0
 62
7
  6
CONTINUOUS
370
-3
390
F
  0
LAYER
  5
525
100
AcDbSymbolTableRecord
100
AcDbLayerTableRecord
  2
R37
 70
0
 62
7
  6
CONTINUOUS
370
-3
390
F
  0
LAYER
  5
526
100
AcDbSymbolTableRecord
100
AcDbLayerTableRecord
  2
R38
 70
0
 62
7
  6
CONTINUOUS
370
-3
390
F
  0
LAYER
  5
527
100
AcDbSymbolTableRecord
100
AcDbLayerTableRecord
  2
R39
 70
0
 62
7
  6
CONTINUOUS
370
-3
390
F
  0
LAYER
  5
528
100
AcDbSymbolTableRecord
100
AcDbLayerTableRecord
  2
R4
 70
0
 62
7
  6
CONTINUOUS
370
-3
390
F
  0
LAYER
  5
529
100
AcDbSymbolTableRecord
100
AcDbLayerTableRecord
  2
R40
 70
0
 62
7
  6
CONTINUOUS
370
-3
390
F
  0
LAYER
  5
52A
100
AcDbSymbolTableRecord
100
AcDbLayerTableRecord
  2
R41
 70
0
 62
7
  6
CONTINUOUS
370
-3
390
F
  0
LAYER
  5
52B
100
AcDbSymbolTableRecord
100
AcDbLayerTableRecord
  2
R42
 70
0
 62
7
  6
CONTINUOUS
370
-3
390
F
  0
LAYER
  5
52C
100
AcDbSymbolTableRecord
100
AcDbLayerTableRecord
  2
R43
 70
0
 62
7
  6
CONTINUOUS
370
-3
390
F
  0
LAYER
  5
52D
100
AcDbSymbolTableRecord
100
AcDbLayerTableRecord
  2
R5
 70
0
 62
7
  6
CONTINUOUS
370
-3
390
F
  0
LAYER
  5
52E
100
AcDbSymbolTableRecord
100
AcDbLayerTableRecord
  2
R6
 70
0
 62
7
  6
CONTINUOUS
370
-3
390
F
  0
LAYER
  5
52F
100
AcDbSymbolTableRecord
100
AcDbLayerTableRecord
  2
R7
 70
0
 62
7
  6
CONTINUOUS
370
-3
390
F
  0
LAYER
  5
530
100
AcDbSymbolTableRecord
100
AcDbLayerTableRecord
  2
R8
 70
0
 62
7
  6
CONTINUOUS
370
-3
390
F
  0
LAYER
  5
531
100
AcDbSymbolTableRecord
100
AcDbLayerTableRecord
  2
R9
 70
0
 62
7
  6
CONTINUOUS
370
-3
390
F
  0
LAYER
  5
532
100
AcDbSymbolTableRecord
100
AcDbLayerTableRecord
  2
RACCORDO
 70
0
 62
7
  6
CONTINUOUS
370
-3
390
F
  0
LAYER
  5
533
100
AcDbSymbolTableRecord
100
AcDbLayerTableRecord
  2
RGB__255__255__255__
 70
0
 62
7
  6
CONTINUOUS
370
-3
390
F
  0
LAYER
  5
534
100
AcDbSymbolTableRecord
100
AcDbLayerTableRecord
  2
RT1
 70
0
 62
7
  6
CONTINUOUS
370
-3
390
F
  0
LAYER
  5
535
100
AcDbSymbolTableRecord
100
AcDbLayerTableRecord
  2
RV1
 70
0
 62
7
  6
CONTINUOUS
370
-3
390
F
  0
LAYER
  5
536
100
AcDbSymbolTableRecord
100
AcDbLayerTableRecord
  2
S07K300-1
 70
0
 62
7
  6
CONTINUOUS
370
-3
390
F
  0
LAYER
  5
537
100
AcDbSymbolTableRecord
100
AcDbLayerTableRecord
  2
S07K300-1_1
 70
0
 62
7
  6
CONTINUOUS
370
-3
390
F
  0
LAYER
  5
538
100
AcDbSymbolTableRecord
100
AcDbLayerTableRecord
  2
S07K300-3
 70
0
 62
7
  6
CONTINUOUS
370
-3
390
F
  0
LAYER
  5
539
100
AcDbSymbolTableRecord
100
AcDbLayerTableRecord
  2
SIMBOLI
 70
0
 62
7
  6
CONTINUOUS
370
-3
390
F
  0
LAYER
  5
53A
100
AcDbSymbolTableRecord
100
AcDbLayerTableRecord
  2
SMUSSO
 70
0
 62
7
  6
CONTINUOUS
370
-3
390
F
  0
LAYER
  5
53B
100
AcDbSymbolTableRecord
100
AcDbLayerTableRecord
  2
SNAPLINE
 70
0
 62
7
  6
CONTINUOUS
370
-3
390
F
  0
LAYER
  5
53C
100
AcDbSymbolTableRecord
100
AcDbLayerTableRecord
  2
SO08
 70
0
 62
7
  6
CONTINUOUS
370
-3
390
F
  0
LAYER
  5
53D
100
AcDbSymbolTableRecord
100
AcDbLayerTableRecord
  2
SOT23
 70
0
 62
7
  6
CONTINUOUS
370
-3
390
F
  0
LAYER
  5
53E
100
AcDbSymbolTableRecord
100
AcDbLayerTableRecord
  2
SOT23_1
 70
0
 62
7
  6
CONTINUOUS
370
-3
390
F
  0
LAYER
  5
53F
100
AcDbSymbolTableRecord
100
AcDbLayerTableRecord
  2
SOT23_2
 70
0
 62
7
  6
CONTINUOUS
370
-3
390
F
  0
LAYER
  5
540
100
AcDbSymbolTableRecord
100
AcDbLayerTableRecord
  2
SOT23_3
 70
0
 62
7
  6
CONTINUOUS
370
-3
390
F
  0
LAYER
  5
541
100
AcDbSymbolTableRecord
100
AcDbLayerTableRecord
  2
SOT23_4
 70
0
 62
7
  6
CONTINUOUS
370
-3
390
F
  0
LAYER
  5
542
100
AcDbSymbolTableRecord
100
AcDbLayerTableRecord
  2
SOT23_5
 70
0
 62
7
  6
CONTINUOUS
370
-3
390
F
  0
LAYER
  5
543
100
AcDbSymbolTableRecord
100
AcDbLayerTableRecord
  2
SOT23_6
 70
0
 62
7
  6
CONTINUOUS
370
-3
390
F
  0
LAYER
  5
544
100
AcDbSymbolTableRecord
100
AcDbLayerTableRecord
  2
SOT23_7
 70
0
 62
7
  6
CONTINUOUS
370
-3
390
F
  0
LAYER
  5
545
100
AcDbSymbolTableRecord
100
AcDbLayerTableRecord
  2
STEG
 70
0
 62
7
  6
CONTINUOUS
370
-3
390
F
  0
LAYER
  5
546
100
AcDbSymbolTableRecord
100
AcDbLayerTableRecord
  2
SUPERFICI
 70
0
 62
7
  6
CONTINUOUS
370
-3
390
F
  0
LAYER
  5
547
100
AcDbSymbolTableRecord
100
AcDbLayerTableRecord
  2
T1
 70
0
 62
7
  6
CONTINUOUS
370
-3
390
F
  0
LAYER
  5
548
100
AcDbSymbolTableRecord
100
AcDbLayerTableRecord
  2
T13SH_ARI
 70
0
 62
7
  6
CONTINUOUS
370
-3
390
F
  0
LAYER
  5
549
100
AcDbSymbolTableRecord
100
AcDbLayerTableRecord
  2
T13SH_ARI_1
 70
0
 62
7
  6
CONTINUOUS
370
-3
390
F
  0
LAYER
  5
54A
100
AcDbSymbolTableRecord
100
AcDbLayerTableRecord
  2
T13SH_ARI_2
 70
0
 62
7
  6
CONTINUOUS
370
-3
390
F
  0
LAYER
  5
54B
100
AcDbSymbolTableRecord
100
AcDbLayerTableRecord
  2
TRASH
 70
0
 62
7
  6
CONTINUOUS
370
-3
390
F
  0
LAYER
  5
54C
100
AcDbSymbolTableRecord
100
AcDbLayerTableRecord
  2
U1
 70
0
 62
7
  6
CONTINUOUS
370
-3
390
F
  0
LAYER
  5
54D
100
AcDbSymbolTableRecord
100
AcDbLayerTableRecord
  2
U2
 70
0
 62
7
  6
CONTINUOUS
370
-3
390
F
  0
LAYER
  5
54E
100
AcDbSymbolTableRecord
100
AcDbLayerTableRecord
  2
U3
 70
0
 62
7
  6
CONTINUOUS
370
-3
390
F
  0
LAYER
  5
54F
100
AcDbSymbolTableRecord
100
AcDbLayerTableRecord
  2
USER_LIBRARY-RES1210_PAD_1-1077
 70
0
 62
7
  6
CONTINUOUS
370
-3
390
F
  0
LAYER
  5
550
100
AcDbSymbolTableRecord
100
AcDbLayerTableRecord
  2
USER_LIBRARY-RES1210_PAD_1-1083
 70
0
 62
7
  6
CONTINUOUS
370
-3
390
F
  0
LAYER
  5
551
100
AcDbSymbolTableRecord
100
AcDbLayerTableRecord
  2
USER_LIBRARY-RES1210_PAD_1-10_1
 70
0
 62
7
  6
CONTINUOUS
370
-3
390
F
  0
LAYER
  5
552
100
AcDbSymbolTableRecord
100
AcDbLayerTableRecord
  2
USER_LIBRARY-RES1210_PAD_1-10_2
 70
0
 62
7
  6
CONTINUOUS
370
-3
390
F
  0
LAYER
  5
553
100
AcDbSymbolTableRecord
100
AcDbLayerTableRecord
  2
USER_LIBRARY-RES1210_PAD_1210_1
 70
0
 62
7
  6
CONTINUOUS
370
-3
390
F
  0
LAYER
  5
554
100
AcDbSymbolTableRecord
100
AcDbLayerTableRecord
  2
USER_LIBRARY-RES1210_PAD_1210__
 70
0
 62
7
  6
CONTINUOUS
370
-3
390
F
  0
LAYER
  5
555
100
AcDbSymbolTableRecord
100
AcDbLayerTableRecord
  2
USER_LIBRARY-RES1210_RES1210_BO
 70
0
 62
7
  6
CONTINUOUS
370
-3
390
F
  0
LAYER
  5
556
100
AcDbSymbolTableRecord
100
AcDbLayerTableRecord
  2
USER_LIBRARY-RES1210_RES1210__1
 70
0
 62
7
  6
CONTINUOUS
370
-3
390
F
  0
LAYER
  5
557
100
AcDbSymbolTableRecord
100
AcDbLayerTableRecord
  2
WHITE
 70
0
 62
7
  6
CONTINUOUS
370
-3
390
F
  0
LAYER
  5
558
100
AcDbSymbolTableRecord
100
AcDbLayerTableRecord
  2
WHITE_1
 70
0
 62
7
  6
CONTINUOUS
370
-3
390
F
  0
LAYER
  5
559
100
AcDbSymbolTableRecord
100
AcDbLayerTableRecord
  2
___SHELL
 70
0
 62
7
  6
CONTINUOUS
370
-3
390
F
  0
ENDTAB
  0
TABLE
  2
STYLE
  5
3
100
AcDbSymbolTable
 70
1
  0
STYLE
  5
11
100
AcDbSymbolTableRecord
100
AcDbTextStyleTableRecord
  2
STANDARD
 70
0
 40
0.0
 41
0.8
 50
0.0
 71
0
 42
0.2
  3
txt
  4

  0
STYLE
  5
55A
100
AcDbSymbolTableRecord
100
AcDbTextStyleTableRecord
  2
TEXTSTYLE_1
 70
0
 40
0.0
 41
0.8
 50
0.0
 71
0
 42
0.2
  3
gdt
  4

  0
ENDTAB
  0
TABLE
  2
VIEW
  5
6
100
AcDbSymbolTable
 70
0
  0
ENDTAB
  0
TABLE
  2
UCS
  5
7
100
AcDbSymbolTable
 70
0
  0
ENDTAB
  0
TABLE
  2
APPID
  5
9
100
AcDbSymbolTable
 70
1
  0
APPID
  5
55B
100
AcDbSymbolTableRecord
100
AcDbRegAppTableRecord
  2
ACAD
 70
0
  0
ENDTAB
  0
TABLE
  2
BLOCK_RECORD
  5
1
100
AcDbSymbolTable
 70
0
  0
BLOCK_RECORD
  5
55C
100
AcDbSymbolTableRecord
100
AcDbBlockTableRecord
  2
*Model_Space
  0
BLOCK_RECORD
  5
55D
100
AcDbSymbolTableRecord
100
AcDbBlockTableRecord
  2
*Paper_Space
  0
ENDTAB
  0
TABLE
  2
DIMSTYLE
  5
A
100
AcDbSymbolTable
 70
1
100
AcDbDimStyleTable
 71
0
  0
DIMSTYLE
105
55E
100
AcDbSymbolTableRecord
100
AcDbDimStyleTableRecord
  2
STANDARD
 70
0
  3

  4

 40
1.0
 41
3.0
 42
0.5
 43
0.38
 44
1.5
 45
0.0
 46
0.0
 47
0.01
 48
0.01
140
3.0
141
0.09
142
0.0
143
25.4
144
1.0
145
0.0
146
1.0
147
0.625
 71
1.0
 72
0.0
 73
0
 74
0
 75
0
 76
0
 77
1
 78
8
170
0
171
2
172
0
173
0
174
0
175
0
176
0
177
0
178
0
270
2
271
2
272
2
273
2
274
2
275
0
280
0
281
0
282
0
283
1
284
8
285
0
286
0
287
3
288
0
340
11
278
44
  0
ENDTAB
  0
ENDSEC
  0
SECTION
  2
BLOCKS
  0
BLOCK
  5
20
100
AcDbEntity
  8
0
100
AcDbBlockBegin
  2
*Model_Space
 70
0
 10
0.0
 20
0.0
 30
0.0
  3
*Model_Space
  1

  0
ENDBLK
  5
21
100
AcDbEntity
  8
0
100
AcDbBlockEnd
  0
BLOCK
  5
1C
100
AcDbEntity
  8
0
100
AcDbBlockBegin
  2
*Paper_Space
 70
0
 10
0.0
 20
0.0
 30
0.0
  3
*Paper_Space
  1

  0
ENDBLK
  5
1D
100
AcDbEntity
  8
0
100
AcDbBlockEnd
  0
ENDSEC
  0
SECTION
  2
ENTITIES
  0
LWPOLYLINE
  5
55F
100
AcDbEntity
  8
RACCORDO
100
AcDbPolyline
 62
253
  6
CONTINUOUS
 90
22
 70
0
 10
-53.6380791656
 20
-46.2828439876
 10
-53.6366658291
 20
-46.3202573822
 10
-53.6324565913
 20
-46.3574605844
 10
-53.6254751396
 20
-46.3942449488
 10
-53.6157610219
 20
-46.4304031741
 10
-53.6033686335
 20
-46.4657335567
 10
-53.5883661602
 20
-46.5000408645
 10
-53.5708346683
 20
-46.5331367402
 10
-53.5508737929
 20
-46.5648305434
 10
-53.5286023689
 20
-46.5949348768
 10
-53.5041531283
 20
-46.6232754125
 10
-53.4776594675
 20
-46.649702153
 10
-53.4492590595
 20
-46.6740781506
 10
-53.4190966878
 20
-46.6962748099
 10
-53.3873525714
 20
-46.7161554273
 10
-53.3542338852
 20
-46.7335928916
 10
-53.3199209665
 20
-46.7484978742
 10
-53.2846157511
 20
-46.7607880773
 10
-53.248575014
 20
-46.7703873699
 10
-53.2120236521
 20
-46.7772578574
 10
-53.1751486753
 20
-46.7813859719
 10
-53.1381553181
 20
-46.7827678352
  0
LINE
  5
560
100
AcDbEntity
  8
RACCORDO
100
AcDbLine
 62
7
  6
CONTINUOUS
 10
-53.7290892096
 20
-20.4538122456
 11
-53.7300030579
 21
-20.3856257325
  0
LINE
  5
561
100
AcDbEntity
  8
RACCORDO
100
AcDbLine
 62
7
  6
CONTINUOUS
 10
-53.7300030579
 20
-20.3856257325
 11
-53.7329637011
 21
-20.1207349743
  0
LINE
  5
562
100
AcDbEntity
  8
RACCORDO
100
AcDbLine
 62
7
  6
CONTINUOUS
 10
-53.7329637011
 20
-20.1207349743
 11
-53.733991725
 21
-19.9553245895
  0
LINE
  5
563
100
AcDbEntity
  8
RACCORDO
100
AcDbLine
 62
7
  6
CONTINUOUS
 10
-53.9087849885
 20
42.4466024944
 11
-53.9087849885
 21
-46.5535498104
  0
LINE
  5
564
100
AcDbEntity
  8
RACCORDO
100
AcDbLine
 62
7
  6
CONTINUOUS
 10
-53.733991725
 20
-19.9553245895
 11
-53.7342343392
 21
16.3417198
  0
LINE
  5
565
100
AcDbEntity
  8
RACCORDO
100
AcDbLine
 62
253
  6
CONTINUOUS
 10
-53.6380791656
 20
-46.2828439876
 11
-53.6380791656
 21
-20.5448222896
  0
LINE
  5
566
100
AcDbEntity
  8
RACCORDO
100
AcDbLine
 62
253
  6
CONTINUOUS
 10
-53.6380791656
 20
16.4378749736
 11
-53.6380791656
 21
42.1758966716
  0
LINE
  5
567
100
AcDbEntity
  8
RACCORDO
100
AcDbLine
 62
253
  6
CONTINUOUS
 10
-53.229165362
 20
-19.6539340895
 11
-53.229165362
 21
-19.953888398
  0
LINE
  5
568
100
AcDbEntity
  8
RACCORDO
100
AcDbLine
 62
253
  6
CONTINUOUS
 10
-53.1381553181
 20
-46.7827678352
 11
-53.1381553181
 21
-20.044898442
  0
LINE
  5
569
100
AcDbEntity
  8
RACCORDO
100
AcDbLine
 62
253
  6
CONTINUOUS
 10
-53.1381553181
 20
15.937951126
 11
-53.1381553181
 21
42.6758205192
  0
LWPOLYLINE
  5
56A
100
AcDbEntity
  8
RACCORDO
100
AcDbPolyline
 62
253
  6
CONTINUOUS
 90
22
 70
0
 10
-53.6380791656
 20
16.4378749736
 10
-53.6366658291
 20
16.400461579
 10
-53.6324565913
 20
16.3632583767
 10
-53.6254751396
 20
16.3264740124
 10
-53.6157610219
 20
16.2903157871
 10
-53.6033686335
 20
16.2549854044
 10
-53.5883661602
 20
16.2206780966
 10
-53.5708346683
 20
16.187582221
 10
-53.5508737929
 20
16.1558884177
 10
-53.5286023689
 20
16.1257840843
 10
-53.5041531283
 20
16.0974435487
 10
-53.4776594675
 20
16.0710168082
 10
-53.4492590595
 20
16.0466408105
 10
-53.4190966878
 20
16.0244441513
 10
-53.3873525714
 20
16.0045635338
 10
-53.3542338852
 20
15.9871260695
 10
-53.3199209665
 20
15.972221087
 10
-53.2846157511
 20
15.9599308839
 10
-53.248575014
 20
15.9503315912
 10
-53.2120236521
 20
15.9434611037
 10
-53.1751486753
 20
15.9393329893
 10
-53.1381553181
 20
15.937951126
  0
LINE
  5
56B
100
AcDbEntity
  8
DRAFT
100
AcDbLine
 62
7
  6
CONTINUOUS
 10
-51.7342343392
 20
15.8417959524
 11
-51.7342343392
 21
11.746526342
  0
LINE
  5
56C
100
AcDbEntity
  8
RACCORDO
100
AcDbLine
 62
7
  6
CONTINUOUS
 10
-51.5087849885
 20
11.946526342
 11
-51.5087849885
 21
16.4378749736
  0
LINE
  5
56D
100
AcDbEntity
  8
IMPORT_IGES
100
AcDbLine
 62
7
  6
CONTINUOUS
 10
-51.2587857285
 20
11.946526342
 11
-51.2587857285
 21
11.746526342
  0
LINE
  5
56E
100
AcDbEntity
  8
RACCORDO
100
AcDbLine
 62
253
  6
CONTINUOUS
 10
-53.7342343392
 20
16.3417198
 11
-53.6380791656
 21
16.4378749736
  0
LINE
  5
56F
100
AcDbEntity
  8
RACCORDO
100
AcDbLine
 62
253
  6
CONTINUOUS
 10
-53.2343104916
 20
15.8417959524
 11
-53.1381553181
 21
15.937951126
  0
LWPOLYLINE
  5
570
100
AcDbEntity
  8
RACCORDO
100
AcDbPolyline
 62
253
  6
CONTINUOUS
 90
22
 70
0
 10
53.1205853411
 20
-46.7827678352
 10
53.1579374681
 20
-46.7813591116
 10
53.1950807878
 20
-46.7771635697
 10
53.2318076602
 20
-46.7702046638
 10
53.2679127733
 20
-46.7605212956
 10
53.3031942911
 20
-46.7481675975
 10
53.3374549813
 20
-46.7332126297
 10
53.3705033186
 20
-46.715739994
 10
53.402154555
 20
-46.6958473666
 10
53.4322317524
 20
-46.6736459519
 10
53.4605667721
 20
-46.6492598612
 10
53.4870012148
 20
-46.6228254186
 10
53.5113873054
 20
-46.5944903988
 10
53.5335887201
 20
-46.5644132014
 10
53.5534813475
 20
-46.5327619651
 10
53.5709539833
 20
-46.4997136278
 10
53.5859089511
 20
-46.4654529375
 10
53.5982626491
 20
-46.4301714198
 10
53.6079460173
 20
-46.3940663066
 10
53.6149049232
 20
-46.3573394342
 10
53.6191004651
 20
-46.3201961146
 10
53.6205091887
 20
-46.2828439876
  0
LINE
  5
571
100
AcDbEntity
  8
RACCORDO
100
AcDbLine
 62
7
  6
CONTINUOUS
 10
-13.2087545275
 20
-49.553473658
 11
-22.8088154494
 21
-49.553473658
  0
LWPOLYLINE
  5
572
100
AcDbEntity
  8
RACCORDO
100
AcDbPolyline
 62
7
  6
CONTINUOUS
 90
6
 70
0
 10
-23.4502097725
 20
-44.8533975056
 10
-23.4526651976
 20
-44.8513373842
 10
-23.4572866227
 20
-44.8466374301
 10
-23.4640740477
 20
-44.8395332304
 10
-23.4732366256
 20
-44.8302752809
 10
-23.4845652034
 20
-44.8190946795
  0
LINE
  5
573
100
AcDbEntity
  8
RACCORDO
100
AcDbLine
 62
253
  6
CONTINUOUS
 10
-53.6380791656
 20
-20.5448222896
 11
-53.7290892096
 21
-20.4538122456
  0
LINE
  5
574
100
AcDbEntity
  8
RACCORDO
100
AcDbLine
 62
253
  6
CONTINUOUS
 10
-53.1381553181
 20
-20.044898442
 11
-53.229165362
 21
-19.953888398
  0
LINE
  5
575
100
AcDbEntity
  8
RACCORDO
100
AcDbLine
 62
253
  6
CONTINUOUS
 10
-23.95013362
 20
-46.7827678352
 11
-23.7969898249
 21
-46.9359116303
  0
LINE
  5
576
100
AcDbEntity
  8
RACCORDO
100
AcDbLine
 62
253
  6
CONTINUOUS
 10
-23.4502097725
 20
-46.2828439876
 11
-23.3151496885
 21
-46.4179040716
  0
LINE
  5
577
100
AcDbEntity
  8
DRAFT
100
AcDbLine
 62
7
  6
CONTINUOUS
 10
-23.3795039496
 20
-44.853473658
 11
-23.3453270664
 21
-44.8876505412
  0
LINE
  5
578
100
AcDbEntity
  8
RACCORDO
100
AcDbLine
 62
7
  6
CONTINUOUS
 10
-23.5276617012
 20
-44.7759749991
 11
-23.95013362
 21
-44.353473658
  0
LWPOLYLINE
  5
579
100
AcDbEntity
  8
RACCORDO
100
AcDbPolyline
 62
7
  6
CONTINUOUS
 90
3
 70
0
 10
-23.4845652034
 20
-44.8190946795
 10
-23.5117777412
 20
-44.7917370977
 10
-23.5276617012
 20
-44.7759749991
  0
LWPOLYLINE
  5
57A
100
AcDbEntity
  8
RACCORDO
100
AcDbPolyline
 62
253
  6
CONTINUOUS
 90
22
 70
0
 10
-23.95013362
 20
-46.7827678352
 10
-23.9127202254
 20
-46.7813544986
 10
-23.8755170232
 20
-46.7771452608
 10
-23.8387326588
 20
-46.7701638092
 10
-23.8025744335
 20
-46.7604496914
 10
-23.7672440509
 20
-46.748057303
 10
-23.7329367431
 20
-46.7330548298
 10
-23.6998408674
 20
-46.7155233378
 10
-23.6681470642
 20
-46.6955624625
 10
-23.6380427308
 20
-46.6732910384
 10
-23.6097021952
 20
-46.6488417978
 10
-23.5832754547
 20
-46.622348137
 10
-23.558899457
 20
-46.593947729
 10
-23.5367027977
 20
-46.5637853573
 10
-23.5168221803
 20
-46.532041241
 10
-23.499384716
 20
-46.4989225547
 10
-23.4844797334
 20
-46.464609636
 10
-23.4721895303
 20
-46.4293044206
 10
-23.4625902377
 20
-46.3932636835
 10
-23.4557197502
 20
-46.3567123216
 10
-23.4515916358
 20
-46.3198373449
 10
-23.4502097725
 20
-46.2828439876
  0
LWPOLYLINE
  5
57B
100
AcDbEntity
  8
RACCORDO
100
AcDbPolyline
 62
7
  6
CONTINUOUS
 90
4
 70
0
 10
4.8940406378
 20
-47.1005566163
 10
4.9155805373
 20
-47.0997821729
 10
4.9426669092
 20
-47.0965894246
 10
4.969679826
 20
-47.0908645976
  0
LINE
  5
57C
100
AcDbEntity
  8
RACCORDO
100
AcDbLine
 62
7
  6
CONTINUOUS
 10
4.8940406378
 20
-47.1005566349
 11
-4.9116106148
 21
-47.1005566349
  0
LINE
  5
57D
100
AcDbEntity
  8
RACCORDO
100
AcDbLine
 62
7
  6
CONTINUOUS
 10
-53.4088611409
 20
-47.053473658
 11
-23.0087849885
 21
-47.053473658
  0
LINE
  5
57E
100
AcDbEntity
  8
RACCORDO
100
AcDbLine
 62
7
  6
CONTINUOUS
 10
-20.9590587847
 20
-47.053473658
 11
-15.0585111923
 21
-47.053473658
  0
LINE
  5
57F
100
AcDbEntity
  8
RACCORDO
100
AcDbLine
 62
7
  6
CONTINUOUS
 10
-13.0087849885
 20
-47.053473658
 11
-4.9586479002
 21
-47.053473658
  0
LINE
  5
580
100
AcDbEntity
  8
RACCORDO
100
AcDbLine
 62
7
  6
CONTINUOUS
 10
4.9410779232
 20
-47.053473658
 11
53.3912911639
 21
-47.053473658
  0
LINE
  5
581
100
AcDbEntity
  8
RACCORDO
100
AcDbLine
 62
7
  6
CONTINUOUS
 10
-12.2205801521
 20
-46.9359116303
 11
-13.0087849885
 21
-46.9359116303
  0
LINE
  5
582
100
AcDbEntity
  8
RACCORDO
100
AcDbLine
 62
7
  6
CONTINUOUS
 10
-14.8770248128
 20
-46.9359116303
 11
-21.140545185
 21
-46.9359116303
  0
LINE
  5
583
100
AcDbEntity
  8
RACCORDO
100
AcDbLine
 62
7
  6
CONTINUOUS
 10
-23.0087849885
 20
-46.9359116303
 11
-23.7969898249
 21
-46.9359116303
  0
LINE
  5
584
100
AcDbEntity
  8
RACCORDO
100
AcDbLine
 62
253
  6
CONTINUOUS
 10
-53.1381553181
 20
-46.7827678352
 11
-23.95013362
 21
-46.7827678352
  0
LINE
  5
585
100
AcDbEntity
  8
RACCORDO
100
AcDbLine
 62
253
  6
CONTINUOUS
 10
-12.0674363569
 20
-46.7827678352
 11
53.1205853411
 21
-46.7827678352
  0
LINE
  5
586
100
AcDbEntity
  8
RACCORDO
100
AcDbLine
 62
253
  6
CONTINUOUS
 10
53.6205091887
 20
-46.2828439876
 11
-12.5673602045
 21
-46.2828439876
  0
LINE
  5
587
100
AcDbEntity
  8
RACCORDO
100
AcDbLine
 62
253
  6
CONTINUOUS
 10
-23.4502097725
 20
-46.2828439876
 11
-53.6380791656
 21
-46.2828439876
  0
LINE
  5
588
100
AcDbEntity
  8
DRAFT
100
AcDbLine
 62
7
  6
CONTINUOUS
 10
-12.6722429105
 20
-45.553473658
 11
-13.0087849885
 21
-45.553473658
  0
LINE
  5
589
100
AcDbEntity
  8
DRAFT
100
AcDbLine
 62
7
  6
CONTINUOUS
 10
-14.8587849885
 20
-45.553473658
 11
-21.1587849885
 21
-45.553473658
  0
LINE
  5
58A
100
AcDbEntity
  8
DRAFT
100
AcDbLine
 62
7
  6
CONTINUOUS
 10
-23.0087849885
 20
-45.553473658
 11
-23.3453270664
 21
-45.553473658
  0
LINE
  5
58B
100
AcDbEntity
  8
DRAFT
100
AcDbLine
 62
7
  6
CONTINUOUS
 10
0.7412150115
 20
-44.953473658
 11
-0.7587849885
 21
-44.953473658
  0
LINE
  5
58C
100
AcDbEntity
  8
DRAFT
100
AcDbLine
 62
7
  6
CONTINUOUS
 10
-12.6722429105
 20
-44.8876505412
 11
-13.0087849885
 21
-44.8876505412
  0
LINE
  5
58D
100
AcDbEntity
  8
DRAFT
100
AcDbLine
 62
7
  6
CONTINUOUS
 10
-14.870463647
 20
-44.8876505412
 11
-21.1471063509
 21
-44.8876505412
  0
LINE
  5
58E
100
AcDbEntity
  8
DRAFT
100
AcDbLine
 62
7
  6
CONTINUOUS
 10
-23.0087849885
 20
-44.8876505412
 11
-23.3453270664
 21
-44.8876505412
  0
LINE
  5
58F
100
AcDbEntity
  8
RACCORDO
100
AcDbLine
 62
7
  6
CONTINUOUS
 10
-23.450057456
 20
-44.853473658
 11
-12.5675125209
 21
-44.853473658
  0
LINE
  5
590
100
AcDbEntity
  8
RACCORDO
100
AcDbLine
 62
253
  6
CONTINUOUS
 10
-23.95013362
 20
-44.353473658
 11
-12.0674363569
 21
-44.353473658
  0
LWPOLYLINE
  5
591
100
AcDbEntity
  8
RACCORDO
100
AcDbPolyline
 62
7
  6
CONTINUOUS
 90
4
 70
0
 10
-4.9116106148
 20
-47.1005566163
 10
-4.9331505143
 20
-47.0997821729
 10
-4.9602368862
 20
-47.0965894246
 10
-4.9872498029
 20
-47.0908645976
  0
LWPOLYLINE
  5
592
100
AcDbEntity
  8
RACCORDO
100
AcDbPolyline
 62
7
  6
CONTINUOUS
 90
3
 70
0
 10
-4.9872498029
 20
-47.0908645976
 10
-5.0138890562
 20
-47.0825834382
 10
-5.0398293799
 20
-47.0717759898
  0
LWPOLYLINE
  5
593
100
AcDbEntity
  8
RACCORDO
100
AcDbPolyline
 62
7
  6
CONTINUOUS
 90
5
 70
0
 10
-5.0145405537
 20
-47.0823290299
 10
-4.9894959663
 20
-47.0902464755
 10
-4.9638639463
 20
-47.0959404175
 10
-4.9378356459
 20
-47.0993703037
 10
-4.9116106148
 20
-47.1005109434
  0
LWPOLYLINE
  5
594
100
AcDbEntity
  8
RACCORDO
100
AcDbPolyline
 62
7
  6
CONTINUOUS
 90
3
 70
0
 10
-5.0398293799
 20
-47.0717759898
 10
-5.0647496822
 20
-47.058526451
 10
-5.0724154719
 20
-47.053473658
  0
LINE
  5
595
100
AcDbEntity
  8
RACCORDO
100
AcDbLine
 62
7
  6
CONTINUOUS
 10
-42.5087849885
 20
11.946526342
 11
-42.5087849885
 21
16.4378749736
  0
LINE
  5
596
100
AcDbEntity
  8
DRAFT
100
AcDbLine
 62
7
  6
CONTINUOUS
 10
-42.3087849885
 20
15.8417959524
 11
-42.3087849885
 21
11.746526342
  0
LINE
  5
597
100
AcDbEntity
  8
DRAFT
100
AcDbLine
 62
7
  6
CONTINUOUS
 10
-39.5238748586
 20
36.8116162121
 11
-39.5238748586
 21
20.8814364719
  0
LINE
  5
598
100
AcDbEntity
  8
DRAFT
100
AcDbLine
 62
7
  6
CONTINUOUS
 10
-39.5238748586
 20
-24.9883837879
 11
-39.5238748586
 21
-40.9185635281
  0
LWPOLYLINE
  5
599
100
AcDbEntity
  8
RACCORDO
100
AcDbPolyline
 62
7
  6
CONTINUOUS
 90
3
 70
0
 10
-5.0724794161
 20
42.946526342
 10
-5.0640886087
 20
42.9519704251
 10
-5.041204226
 20
42.9641744498
  0
LWPOLYLINE
  5
59A
100
AcDbEntity
  8
RACCORDO
100
AcDbPolyline
 62
7
  6
CONTINUOUS
 90
3
 70
0
 10
-5.0387995153
 20
42.9653014636
 10
-5.0620710722
 20
42.953143567
 10
-5.0724179922
 20
42.946526342
  0
LWPOLYLINE
  5
59B
100
AcDbEntity
  8
RACCORDO
100
AcDbPolyline
 62
7
  6
CONTINUOUS
 90
5
 70
0
 10
-5.041204226
 20
42.9641744498
 10
-5.0172172479
 20
42.9744068243
 10
-4.9926838744
 20
42.9824468558
 10
-4.9675104005
 20
42.9883553315
 10
-4.9412177561
 20
42.9921447727
  0
LINE
  5
59C
100
AcDbEntity
  8
0
100
AcDbLine
 62
7
  6
CONTINUOUS
 10
-19.5741139872
 20
-39.0626590408
 11
-19.0539579207
 21
-39.0462178304
  0
LINE
  5
59D
100
AcDbEntity
  8
0
100
AcDbLine
 62
7
  6
CONTINUOUS
 10
-18.2869779876
 20
-39.0234907338
 11
-16.3529012136
 21
-38.9652733842
  0
LINE
  5
59E
100
AcDbEntity
  8
0
100
AcDbLine
 62
7
  6
CONTINUOUS
 10
-19.0539579207
 20
-39.0462178304
 11
-18.2869779876
 21
-39.0234907338
  0
LINE
  5
59F
100
AcDbEntity
  8
RACCORDO
100
AcDbLine
 62
7
  6
CONTINUOUS
 10
-13.7087849885
 20
-42.353473658
 11
-22.3087849885
 21
-42.353473658
  0
LINE
  5
5A0
100
AcDbEntity
  8
DRAFT
100
AcDbLine
 62
7
  6
CONTINUOUS
 10
-39.5238748586
 20
-40.9185635281
 11
-37.1936951183
 21
-40.9185635281
  0
LINE
  5
5A1
100
AcDbEntity
  8
DRAFT
100
AcDbLine
 62
7
  6
CONTINUOUS
 10
-34.1238748586
 20
-40.9185635281
 11
-31.7936951183
 21
-40.9185635281
  0
LINE
  5
5A2
100
AcDbEntity
  8
DRAFT
100
AcDbLine
 62
7
  6
CONTINUOUS
 10
28.7063048817
 20
-40.9185635281
 11
26.3761251414
 21
-40.9185635281
  0
LINE
  5
5A3
100
AcDbEntity
  8
DRAFT
100
AcDbLine
 62
7
  6
CONTINUOUS
 10
23.3063048817
 20
-40.9185635281
 11
20.9761251414
 21
-40.9185635281
  0
LINE
  5
5A4
100
AcDbEntity
  8
DRAFT
100
AcDbLine
 62
7
  6
CONTINUOUS
 10
31.7761251414
 20
-40.9185635281
 11
34.1063048817
 21
-40.9185635281
  0
LINE
  5
5A5
100
AcDbEntity
  8
DRAFT
100
AcDbLine
 62
7
  6
CONTINUOUS
 10
37.1761251414
 20
-40.9185635281
 11
39.5063048817
 21
-40.9185635281
  0
LINE
  5
5A6
100
AcDbEntity
  8
DRAFT
100
AcDbLine
 62
7
  6
CONTINUOUS
 10
-0.7587849885
 20
-40.453473658
 11
0.7412150115
 21
-40.453473658
  0
LINE
  5
5A7
100
AcDbEntity
  8
IMPORT_IGES
100
AcDbLine
 62
7
  6
CONTINUOUS
 10
-31.8887368771
 20
-40.0533815402
 11
-31.7936951183
 21
-40.0533815413
  0
LINE
  5
5A8
100
AcDbEntity
  8
IMPORT_IGES
100
AcDbLine
 62
7
  6
CONTINUOUS
 10
-31.7936951183
 20
-39.2533815413
 11
-31.8887368675
 21
-39.2533815402
  0
LINE
  5
5A9
100
AcDbEntity
  8
RACCORDO
100
AcDbLine
 62
253
  6
CONTINUOUS
 10
-26.1587849885
 20
-38.6971570187
 11
-22.0087849885
 21
-38.6971570187
  0
LINE
  5
5AA
100
AcDbEntity
  8
RACCORDO
100
AcDbLine
 62
253
  6
CONTINUOUS
 10
-14.0087849885
 20
-38.6971570187
 11
-9.8587849885
 21
-38.6971570187
  0
LINE
  5
5AB
100
AcDbEntity
  8
RACCORDO
100
AcDbLine
 62
253
  6
CONTINUOUS
 10
-26.1536398589
 20
-38.3972027102
 11
-22.3087849885
 21
-38.3972027102
  0
LINE
  5
5AC
100
AcDbEntity
  8
RACCORDO
100
AcDbLine
 62
253
  6
CONTINUOUS
 10
-13.7087849885
 20
-38.3972027102
 11
-9.8639301181
 21
-38.3972027102
  0
LWPOLYLINE
  5
5AD
100
AcDbEntity
  8
0
100
AcDbPolyline
 62
7
  6
CONTINUOUS
 90
19
 70
0
 10
-19.2978772636
 20
-36.953473658
 10
-19.3318101047
 20
-36.9463427789
 10
-19.476496845
 20
-36.9152338241
 10
-19.615887219
 20
-36.884482891
 10
-19.7497851004
 20
-36.854086935
 10
-19.8779403019
 20
-36.8240618925
 10
-19.99948766
 20
-36.794584337
 10
-20.1143079295
 20
-36.7656738929
 10
-20.2223912224
 20
-36.7373322853
 10
-20.3231955032
 20
-36.7097184455
 10
-20.4165758395
 20
-36.6829132456
 10
-20.5028736252
 20
-36.6568714813
 10
-20.5823139121
 20
-36.6315824841
 10
-20.6549986166
 20
-36.6070809865
 10
-20.7210613402
 20
-36.5834027136
 10
-20.7806629395
 20
-36.5605844186
 10
-20.834034302
 20
-36.5386435897
 10
-20.8811485133
 20
-36.5177185422
 10
-20.8971369409
 20
-36.509995205
  0
LWPOLYLINE
  5
5AE
100
AcDbEntity
  8
0
100
AcDbPolyline
 62
7
  6
CONTINUOUS
 90
10
 70
0
 10
-22.6797358188
 20
-36.0399536682
 10
-22.6607241734
 20
-36.046619589
 10
-22.6417341221
 20
-36.0523748769
 10
-22.6227656649
 20
-36.057219532
 10
-22.6038418912
 20
-36.0611401707
 10
-22.5849397115
 20
-36.0641501765
 10
-22.5659898582
 20
-36.0662897
 10
-22.5469692419
 20
-36.0675721244
 10
-22.527900952
 20
-36.0679840664
 10
-22.5087849885
 20
-36.067525526
  0
LWPOLYLINE
  5
5AF
100
AcDbEntity
  8
0
100
AcDbPolyline
 62
7
  6
CONTINUOUS
 90
10
 70
0
 10
-23.7255971288
 20
-34.7971574908
 10
-23.7518008617
 20
-34.7867429397
 10
-23.777987774
 20
-34.7775919181
 10
-23.8041578659
 20
-34.7697044261
 10
-23.8302780633
 20
-34.7631035779
 10
-23.8563814403
 20
-34.7577662594
 10
-23.8825672184
 20
-34.7536231274
 10
-23.9088684714
 20
-34.7506510677
 10
-23.9352521255
 20
-34.7488731947
 10
-23.9617181807
 20
-34.7482895083
  0
LWPOLYLINE
  5
5B0
100
AcDbEntity
  8
0
100
AcDbPolyline
 62
7
  6
CONTINUOUS
 90
10
 70
0
 10
-24.0027865455
 20
-34.1797403237
 10
-24.0403024825
 20
-34.1629182871
 10
-24.0751451976
 20
-34.1452105876
 10
-24.1073146907
 20
-34.1266172251
 10
-24.1366057481
 20
-34.1071291746
 10
-24.1632235835
 20
-34.0867554613
 10
-24.1877838381
 20
-34.0655231599
 10
-24.2104917256
 20
-34.0434412955
 10
-24.2311420323
 20
-34.020500843
 10
-24.2497347582
 20
-33.9967018025
  0
LWPOLYLINE
  5
5B1
100
AcDbEntity
  8
0
100
AcDbPolyline
 62
7
  6
CONTINUOUS
 90
10
 70
0
 10
-22.8075571478
 20
-33.2544286735
 10
-22.8432576586
 20
-33.237490884
 10
-22.8796869249
 20
-33.2225056418
 10
-22.9168449467
 20
-33.2094729468
 10
-22.9546178664
 20
-33.1983819435
 10
-22.9931195416
 20
-33.1892434875
 10
-23.0326915449
 20
-33.1820901454
 10
-23.0734477339
 20
-33.1769327731
 10
-23.1152742511
 20
-33.1737605147
 10
-23.1581710964
 20
-33.1725733704
  0
LWPOLYLINE
  5
5B2
100
AcDbEntity
  8
0
100
AcDbPolyline
 62
7
  6
CONTINUOUS
 90
10
 70
0
 10
-23.7229732693
 20
-32.2858065774
 10
-23.6525236416
 20
-32.3221705861
 10
-23.5818661359
 20
-32.3564659745
 10
-23.5110007523
 20
-32.3886927426
 10
-23.4400117092
 20
-32.4187985421
 10
-23.3688147881
 20
-32.4468357213
 10
-23.2971573331
 20
-32.4729613251
 10
-23.2249551257
 20
-32.4972277018
 10
-23.1522923845
 20
-32.5195825031
 10
-23.0791691094
 20
-32.540025729
  0
LWPOLYLINE
  5
5B3
100
AcDbEntity
  8
0
100
AcDbPolyline
 62
7
  6
CONTINUOUS
 90
10
 70
0
 10
-23.7514599466
 20
-31.9962937307
 10
-23.829452859
 20
-31.9514609444
 10
-23.9028041671
 20
-31.9073343158
 10
-23.9715138706
 20
-31.863913845
 10
-24.0353756813
 20
-31.8212328472
 10
-24.0945958874
 20
-31.7792580071
 10
-24.1497933547
 20
-31.7378893788
 10
-24.2011743717
 20
-31.6970936469
 10
-24.2485326497
 20
-31.6569041267
 10
-24.2918681889
 20
-31.6173208183
  0
LWPOLYLINE
  5
5B4
100
AcDbEntity
  8
RACCORDO
100
AcDbPolyline
 62
7
  6
CONTINUOUS
 90
3
 70
0
 10
-5.0724179922
 20
-47.053473658
 10
-5.0620710722
 20
-47.060090883
 10
-5.0387995153
 20
-47.0722487796
  0
LWPOLYLINE
  5
5B5
100
AcDbEntity
  8
0
100
AcDbPolyline
 62
7
  6
CONTINUOUS
 90
10
 70
0
 10
-22.7448013663
 20
-35.7264613933
 10
-22.7600321227
 20
-35.7167094873
 10
-22.7751539767
 20
-35.7065205933
 10
-22.7901669284
 20
-35.6958947113
 10
-22.805088913
 20
-35.6848253938
 10
-22.8199019953
 20
-35.6733190883
 10
-22.834552369
 20
-35.6613951366
 10
-22.8490220989
 20
-35.649059986
 10
-22.8633291203
 20
-35.6363071892
 10
-22.8774734331
 20
-35.6231367461
  0
LWPOLYLINE
  5
5B6
100
AcDbEntity
  8
0
100
AcDbPolyline
 62
7
  6
CONTINUOUS
 90
10
 70
0
 10
-24.2878336389
 20
-34.2790567671
 10
-24.2366949502
 20
-34.3184635109
 10
-24.1756716499
 20
-34.3544049008
 10
-24.1047637379
 20
-34.386880937
 10
-24.0249739733
 20
-34.4164764788
 10
-23.935299597
 20
-34.4426066668
 10
-23.8327323326
 20
-34.4635169229
 10
-23.7162694213
 20
-34.4786223879
 10
-23.5869136218
 20
-34.4885079211
 10
-23.4446649342
 20
-34.4931735224
  0
LWPOLYLINE
  5
5B7
100
AcDbEntity
  8
0
100
AcDbPolyline
 62
7
  6
CONTINUOUS
 90
9
 70
0
 10
-23.6711314917
 20
-35.1152745001
 10
-23.6364235761
 20
-35.1421610897
 10
-23.5985303383
 20
-35.1746541233
 10
-23.5574517786
 20
-35.212753601
 10
-23.5130312458
 20
-35.2565732174
 10
-23.4654253909
 20
-35.3059992779
 10
-23.415104167
 20
-35.3606906983
 10
-23.3622242251
 20
-35.4205337839
 10
-23.3066289141
 20
-35.4856422294
  0
LWPOLYLINE
  5
5B8
100
AcDbEntity
  8
0
100
AcDbPolyline
 62
7
  6
CONTINUOUS
 90
10
 70
0
 10
-22.9453470498
 20
-35.8778938777
 10
-22.9140724681
 20
-35.9032935072
 10
-22.8832370705
 20
-35.926792915
 10
-22.852840857
 20
-35.9483921011
 10
-22.8228819986
 20
-35.9680217652
 10
-22.7933623243
 20
-35.9857512076
 10
-22.7642873205
 20
-36.001788329
 10
-22.735658816
 20
-36.0162024297
 10
-22.7074749821
 20
-36.0289242094
 10
-22.6797358188
 20
-36.0399536682
  0
LWPOLYLINE
  5
5B9
100
AcDbEntity
  8
0
100
AcDbPolyline
 62
7
  6
CONTINUOUS
 90
10
 70
0
 10
-24.2468477278
 20
-31.9324639267
 10
-24.2017571861
 20
-31.9713457739
 10
-24.1534851523
 20
-32.0103286137
 10
-24.1020316264
 20
-32.0494124462
 10
-24.0475271962
 20
-32.0886057791
 10
-23.9898412739
 20
-32.1279001047
 10
-23.9285820964
 20
-32.1672698996
 10
-23.863619076
 20
-32.2067066562
 10
-23.7950828002
 20
-32.2462188821
 10
-23.7229732693
 20
-32.2858065774
  0
LWPOLYLINE
  5
5BA
100
AcDbEntity
  8
0
100
AcDbPolyline
 62
7
  6
CONTINUOUS
 90
10
 70
0
 10
-23.4811954118
 20
-34.960775105
 10
-23.5113439478
 20
-34.9346965742
 10
-23.5407380248
 20
-34.9106567539
 10
-23.5693776427
 20
-34.888655644
 10
-23.5972544529
 20
-34.8687785931
 10
-23.6243768041
 20
-34.8509402527
 10
-23.6507697427
 20
-34.8348845768
 10
-23.6764416174
 20
-34.8205262169
 10
-23.7013840794
 20
-34.8079505215
 10
-23.7255971288
 20
-34.7971574908
  0
LWPOLYLINE
  5
5BB
100
AcDbEntity
  8
0
100
AcDbPolyline
 62
7
  6
CONTINUOUS
 90
10
 70
0
 10
-22.8021386732
 20
-33.5355089914
 10
-22.7746183625
 20
-33.5624589386
 10
-22.7506494219
 20
-33.5898807742
 10
-22.7302318514
 20
-33.6177744983
 10
-22.7135773795
 20
-33.6458507283
 10
-22.7004742777
 20
-33.6743988467
 10
-22.6902873603
 20
-33.7042870009
 10
-22.6828048989
 20
-33.7358045734
 10
-22.6782386219
 20
-33.7686621816
 10
-22.6765885293
 20
-33.8028598255
  0
LWPOLYLINE
  5
5BC
100
AcDbEntity
  8
0
100
AcDbPolyline
 62
7
  6
CONTINUOUS
 90
8
 70
0
 10
-22.8774734331
 20
-35.6231367461
 10
-22.8933193959
 20
-35.6074865116
 10
-22.9122005843
 20
-35.5878659448
 10
-22.9341169982
 20
-35.5642750456
 10
-22.9590583639
 20
-35.5367229426
 10
-22.9870349552
 20
-35.5052005074
 10
-23.0180775936
 20
-35.4696803539
 10
-23.0521965532
 20
-35.4301533536
  0
LINE
  5
5BD
100
AcDbEntity
  8
DRAFT
100
AcDbLine
 62
7
  6
CONTINUOUS
 10
-26.1099108067
 20
-29.253473658
 11
-26.1587849885
 21
-29.2045994762
  0
LWPOLYLINE
  5
5BE
100
AcDbEntity
  8
0
100
AcDbPolyline
 62
7
  6
CONTINUOUS
 90
10
 70
0
 10
-24.3686049245
 20
-35.8263465497
 10
-24.3373235308
 20
-35.8596948547
 10
-24.302323009
 20
-35.890226699
 10
-24.2636033591
 20
-35.9179420825
 10
-24.2217074698
 20
-35.9429872235
 10
-24.1760924525
 20
-35.9652159037
 10
-24.1251296409
 20
-35.9841894682
 10
-24.0682761465
 20
-35.9997616984
 10
-24.0060748579
 20
-36.0120788129
 10
-23.938525775
 20
-36.0211408115
  0
LWPOLYLINE
  5
5BF
100
AcDbEntity
  8
0
100
AcDbPolyline
 62
7
  6
CONTINUOUS
 90
10
 70
0
 10
-24.3686050429
 20
-30.2342592344
 10
-24.3373236951
 20
-30.2676075168
 10
-24.3023232089
 20
-30.298139345
 10
-24.2636035845
 20
-30.325854719
 10
-24.2217077165
 20
-30.3508998549
 10
-24.1760927102
 20
-30.3731285366
 10
-24.1251298813
 20
-30.3921021155
 10
-24.0682763351
 20
-30.4076743755
 10
-24.0060749663
 20
-30.4199915328
 10
-23.938525775
 20
-30.4290535874
  0
LWPOLYLINE
  5
5C0
100
AcDbEntity
  8
0
100
AcDbPolyline
 62
7
  6
CONTINUOUS
 90
10
 70
0
 10
-23.4695616903
 20
-34.0951614707
 10
-23.4951673183
 20
-34.0677291799
 10
-23.5176021883
 20
-34.0395123203
 10
-23.5368663003
 20
-34.0105108919
 10
-23.5528333163
 20
-33.9810069945
 10
-23.5656295743
 20
-33.9507185283
 10
-23.5756340877
 20
-33.9187991938
 10
-23.5829731943
 20
-33.8849668914
 10
-23.5875205563
 20
-33.8495037207
 10
-23.5892761737
 20
-33.8124096817
  0
LWPOLYLINE
  5
5C1
100
AcDbEntity
  8
0
100
AcDbPolyline
 62
7
  6
CONTINUOUS
 90
10
 70
0
 10
-24.2072843104
 20
-35.6609771079
 10
-24.2286676666
 20
-35.6377941992
 10
-24.2477006417
 20
-35.6127673499
 10
-24.264383236
 20
-35.58589656
 10
-24.2787682061
 20
-35.5575054346
 10
-24.2908027953
 20
-35.5272703687
 10
-24.3003287327
 20
-35.494220547
 10
-24.3072932614
 20
-35.4580323645
 10
-24.3117491384
 20
-35.4190294263
 10
-24.3136963635
 20
-35.3772117323
  0
LWPOLYLINE
  5
5C2
100
AcDbEntity
  8
0
100
AcDbPolyline
 62
7
  6
CONTINUOUS
 90
9
 70
0
 10
-23.1776038497
 20
-35.2827700816
 10
-23.2233545414
 20
-35.2300088892
 10
-23.2668846892
 20
-35.1808226215
 10
-23.3082031352
 20
-35.1352114017
 10
-23.3473010373
 20
-35.0931751066
 10
-23.3841518687
 20
-35.0547133664
 10
-23.4187467871
 20
-35.0198260577
 10
-23.4510946348
 20
-34.9885133039
 10
-23.4811954118
 20
-34.960775105
  0
LINE
  5
5C3
100
AcDbEntity
  8
0
100
AcDbLine
 62
7
  6
CONTINUOUS
 10
-23.0521965532
 20
-35.4301533536
 11
-23.1776038497
 21
-35.2827700816
  0
LWPOLYLINE
  5
5C4
100
AcDbEntity
  8
0
100
AcDbPolyline
 62
7
  6
CONTINUOUS
 90
10
 70
0
 10
-23.3066289141
 20
-35.4856422294
 10
-23.2106736656
 20
-35.6015487562
 10
-23.173998912
 20
-35.6446754149
 10
-23.1382939731
 20
-35.6853960109
 10
-23.1035249008
 20
-35.7237586326
 10
-23.0697256434
 20
-35.7597151915
 10
-23.0369980451
 20
-35.7931214221
 10
-23.0053760541
 20
-35.8239292357
 10
-22.9748257224
 20
-35.8521867209
 10
-22.9453470498
 20
-35.8778938777
  0
LWPOLYLINE
  5
5C5
100
AcDbEntity
  8
0
100
AcDbPolyline
 62
7
  6
CONTINUOUS
 90
10
 70
0
 10
-24.2497347582
 20
-33.9967018025
 10
-24.2632718055
 20
-33.9770006197
 10
-24.2752329152
 20
-33.9566281671
 10
-24.2856180875
 20
-33.9355844445
 10
-24.2944189459
 20
-33.9140414496
 10
-24.3016438668
 20
-33.8918271849
 10
-24.3073179793
 20
-33.8684256576
 10
-24.3114496595
 20
-33.84366487
 10
-24.3140305313
 20
-33.8177168199
 10
-24.3150605946
 20
-33.7905815071
  0
LINE
  5
5C6
100
AcDbEntity
  8
DRAFT
100
AcDbLine
 62
7
  6
CONTINUOUS
 10
-37.1936951183
 20
-40.9185635281
 11
-37.1936951183
 21
-24.9883837879
  0
LINE
  5
5C7
100
AcDbEntity
  8
DRAFT
100
AcDbLine
 62
7
  6
CONTINUOUS
 10
-37.1936951183
 20
20.8814364719
 11
-37.1936951183
 21
36.8116162121
  0
LINE
  5
5C8
100
AcDbEntity
  8
DRAFT
100
AcDbLine
 62
7
  6
CONTINUOUS
 10
-34.1238748586
 20
36.8116162121
 11
-34.1238748586
 21
20.8814364719
  0
LINE
  5
5C9
100
AcDbEntity
  8
DRAFT
100
AcDbLine
 62
7
  6
CONTINUOUS
 10
-34.1238748586
 20
-24.9883837879
 11
-34.1238748586
 21
-40.9185635281
  0
LINE
  5
5CA
100
AcDbEntity
  8
RACCORDO
100
AcDbLine
 62
253
  6
CONTINUOUS
 10
-4.9116106148
 20
42.9935636274
 11
-4.9586479002
 21
42.946526342
  0
LWPOLYLINE
  5
5CB
100
AcDbEntity
  8
0
100
AcDbPolyline
 62
7
  6
CONTINUOUS
 90
14
 70
0
 10
-21.2167764165
 20
-39.1457289346
 10
-21.2169858569
 20
-39.1457755854
 10
-21.2168599967
 20
-39.1457495917
 10
-21.2159111037
 20
-39.1455618992
 10
-21.2143139683
 20
-39.1452644434
 10
-21.2120800995
 20
-39.1448714073
 10
-21.2091742078
 20
-39.1443875318
 10
-21.2057072909
 20
-39.1438399949
 10
-21.2016858847
 20
-39.1432360866
 10
-21.1970878327
 20
-39.1425782238
 10
-21.1919863462
 20
-39.1418815069
 10
-21.186392157
 20
-39.1411507625
 10
-21.1802846608
 20
-39.1403864045
 10
-21.1736904592
 20
-39.1395945121
  0
LWPOLYLINE
  5
5CC
100
AcDbEntity
  8
0
100
AcDbPolyline
 62
7
  6
CONTINUOUS
 90
32
 70
0
 10
-21.2279641883
 20
-38.5422941094
 10
-21.2387829261
 20
-38.543527178
 10
-21.2492467119
 20
-38.5447729494
 10
-21.2593599086
 20
-38.5460327781
 10
-21.2691393796
 20
-38.5473097258
 10
-21.2786693853
 20
-38.5486166724
 10
-21.287959291
 20
-38.5499577967
 10
-21.2970171923
 20
-38.5513375115
 10
-21.3059285663
 20
-38.5527734437
 10
-21.3146814843
 20
-38.5542695831
 10
-21.3233127768
 20
-38.5558389178
 10
-21.3319880054
 20
-38.5575222753
 10
-21.3406711343
 20
-38.5593268729
 10
-21.3494245518
 20
-38.5612818747
 10
-21.3585637277
 20
-38.5634852986
 10
-21.3680321254
 20
-38.5659621533
 10
-21.3778983816
 20
-38.5687750173
 10
-21.3886587549
 20
-38.5721391655
 10
-21.40029684
 20
-38.5761585826
 10
-21.4127867933
 20
-38.5809528487
 10
-21.4265783496
 20
-38.5868783109
 10
-21.4418153199
 20
-38.5942716055
 10
-21.4581224663
 20
-38.6032791327
 10
-21.4751225897
 20
-38.6140342022
 10
-21.4926912948
 20
-38.6268497911
 10
-21.5104500754
 20
-38.6419183292
 10
-21.5276572159
 20
-38.6590684465
 10
-21.544007142
 20
-38.6783616312
 10
-21.5592677626
 20
-38.6998629721
 10
-21.5729382651
 20
-38.7231817181
 10
-21.5847491693
 20
-38.7481159507
 10
-21.586722584
 20
-38.753473658
  0
LINE
  5
5CD
100
AcDbEntity
  8
0
100
AcDbLine
 62
7
  6
CONTINUOUS
 10
-21.1736904592
 20
-39.1395945121
 11
-21.1590262012
 21
-39.137935294
  0
LINE
  5
5CE
100
AcDbEntity
  8
0
100
AcDbLine
 62
7
  6
CONTINUOUS
 10
-21.2050382917
 20
-38.539839768
 11
-21.2279641883
 21
-38.5422941094
  0
LINE
  5
5CF
100
AcDbEntity
  8
0
100
AcDbLine
 62
7
  6
CONTINUOUS
 10
-21.1590262012
 20
-39.137935294
 11
-21.1423739982
 21
-39.1361865265
  0
LINE
  5
5D0
100
AcDbEntity
  8
0
100
AcDbLine
 62
7
  6
CONTINUOUS
 10
-21.1802679315
 20
-38.537389253
 11
-21.2050382917
 21
-38.539839768
  0
LINE
  5
5D1
100
AcDbEntity
  8
0
100
AcDbLine
 62
7
  6
CONTINUOUS
 10
-21.1423739982
 20
-39.1361865265
 11
-21.1236827303
 21
-39.1343568212
  0
LINE
  5
5D2
100
AcDbEntity
  8
0
100
AcDbLine
 62
7
  6
CONTINUOUS
 10
-21.1236827303
 20
-39.1343568212
 11
-21.1028834045
 21
-39.1324518487
  0
LINE
  5
5D3
100
AcDbEntity
  8
0
100
AcDbLine
 62
7
  6
CONTINUOUS
 10
-21.1534147475
 20
-38.5349229884
 11
-21.1802679315
 21
-38.537389253
  0
LINE
  5
5D4
100
AcDbEntity
  8
0
100
AcDbLine
 62
7
  6
CONTINUOUS
 10
-21.1028834045
 20
-39.1324518487
 11
-21.079869527
 21
-39.1304733618
  0
LINE
  5
5D5
100
AcDbEntity
  8
0
100
AcDbLine
 62
7
  6
CONTINUOUS
 10
-21.1242521157
 20
-38.5324266108
 11
-21.1534147475
 21
-38.5349229884
  0
LINE
  5
5D6
100
AcDbEntity
  8
0
100
AcDbLine
 62
7
  6
CONTINUOUS
 10
-21.079869527
 20
-39.1304733618
 11
-21.0545420445
 21
-39.1284237017
  0
LINE
  5
5D7
100
AcDbEntity
  8
0
100
AcDbLine
 62
7
  6
CONTINUOUS
 10
-21.0925946101
 20
-38.5298919273
 11
-21.1242521157
 21
-38.5324266108
  0
LINE
  5
5D8
100
AcDbEntity
  8
0
100
AcDbLine
 62
7
  6
CONTINUOUS
 10
-21.0582450122
 20
-38.5273113948
 11
-21.0925946101
 21
-38.5298919273
  0
LINE
  5
5D9
100
AcDbEntity
  8
0
100
AcDbLine
 62
7
  6
CONTINUOUS
 10
-21.0545420445
 20
-39.1284237017
 11
-21.0120037586
 21
-39.1252208955
  0
LINE
  5
5DA
100
AcDbEntity
  8
0
100
AcDbLine
 62
7
  6
CONTINUOUS
 10
-21.0120037586
 20
-39.1252208955
 11
-20.9638641601
 21
-39.121879534
  0
LINE
  5
5DB
100
AcDbEntity
  8
0
100
AcDbLine
 62
7
  6
CONTINUOUS
 10
-21.0014374649
 20
-38.5233545057
 11
-21.0582450122
 21
-38.5273113948
  0
LINE
  5
5DC
100
AcDbEntity
  8
0
100
AcDbLine
 62
7
  6
CONTINUOUS
 10
-20.9638641601
 20
-39.121879534
 11
-20.9099825583
 21
-39.1184142625
  0
LINE
  5
5DD
100
AcDbEntity
  8
0
100
AcDbLine
 62
7
  6
CONTINUOUS
 10
-20.9379909345
 20
-38.5192945838
 11
-21.0014374649
 21
-38.5233545057
  0
LWPOLYLINE
  5
5DE
100
AcDbEntity
  8
0
100
AcDbPolyline
 62
253
  6
CONTINUOUS
 90
18
 70
0
 10
-16.0110354095
 20
-38.9534052531
 10
-16.0061790695
 20
-38.9531164508
 10
-15.9890183463
 20
-38.950301164
 10
-15.9721146645
 20
-38.9447835113
 10
-15.955596876
 20
-38.9366710088
 10
-15.9395913968
 20
-38.9260571801
 10
-15.9242423319
 20
-38.9130371716
 10
-15.9097026119
 20
-38.8977127559
 10
-15.8961151678
 20
-38.8801749928
 10
-15.883621734
 20
-38.8605059429
 10
-15.8723565625
 20
-38.8388611192
 10
-15.8624067422
 20
-38.8155155234
 10
-15.8538377586
 20
-38.7907456048
 10
-15.8466962117
 20
-38.7647779957
 10
-15.8410328315
 20
-38.7378265561
 10
-15.8369084409
 20
-38.7101235957
 10
-15.8343880155
 20
-38.6819243829
 10
-15.8335339862
 20
-38.653473658
  0
LINE
  5
5DF
100
AcDbEntity
  8
0
100
AcDbLine
 62
7
  6
CONTINUOUS
 10
-20.8676366579
 20
-38.5151344974
 11
-20.9379909345
 21
-38.5192945838
  0
LINE
  5
5E0
100
AcDbEntity
  8
0
100
AcDbLine
 62
7
  6
CONTINUOUS
 10
-20.9099825583
 20
-39.1184142625
 11
-20.829021533
 21
-39.1136225747
  0
LINE
  5
5E1
100
AcDbEntity
  8
0
100
AcDbLine
 62
7
  6
CONTINUOUS
 10
-20.829021533
 20
-39.1136225747
 11
-20.737306527
 21
-39.1086486912
  0
LINE
  5
5E2
100
AcDbEntity
  8
0
100
AcDbLine
 62
7
  6
CONTINUOUS
 10
-20.7625641743
 20
-38.5094300804
 11
-20.8676366579
 21
-38.5151344974
  0
LWPOLYLINE
  5
5E3
100
AcDbEntity
  8
0
100
AcDbPolyline
 62
7
  6
CONTINUOUS
 90
10
 70
0
 10
-23.9617181807
 20
-34.7482895083
 10
-24.0149958808
 20
-34.7508910088
 10
-24.0656252796
 20
-34.7573961111
 10
-24.113606377
 20
-34.7678048152
 10
-24.158514216
 20
-34.7819741449
 10
-24.2007737537
 20
-34.8000470765
 10
-24.2416598614
 20
-34.8224525382
 10
-24.2815974962
 20
-34.8493335062
 10
-24.320161701
 20
-34.8805470044
 10
-24.3573524758
 20
-34.9160930327
  0
LINE
  5
5E4
100
AcDbEntity
  8
0
100
AcDbLine
 62
7
  6
CONTINUOUS
 10
-20.737306527
 20
-39.1086486912
 11
-20.6068455356
 21
-39.1021820812
  0
LINE
  5
5E5
100
AcDbEntity
  8
0
100
AcDbLine
 62
7
  6
CONTINUOUS
 10
-20.6120018512
 20
-38.502033417
 11
-20.7625641743
 21
-38.5094300804
  0
LWPOLYLINE
  5
5E6
100
AcDbEntity
  8
RACCORDO
100
AcDbPolyline
 62
7
  6
CONTINUOUS
 90
19
 70
0
 10
-13.7087849885
 20
-38.3972027102
 10
-13.7350098084
 20
-38.3983509687
 10
-13.7610379917
 20
-38.4017876864
 10
-13.7866700525
 20
-38.4074876354
 10
-13.8117150417
 20
-38.4154102915
 10
-13.8359746694
 20
-38.4254949131
 10
-13.8592468101
 20
-38.4376561075
 10
-13.8813426601
 20
-38.4517889145
 10
-13.9021087519
 20
-38.4677885524
 10
-13.921407494
 20
-38.485548826
 10
-13.9391057692
 20
-38.5049563871
 10
-13.9550455394
 20
-38.5258479422
 10
-13.9690762779
 20
-38.5480206111
 10
-13.9810994147
 20
-38.5712998492
 10
-13.9910318687
 20
-38.5955029476
 10
-13.9987938286
 20
-38.6203906383
 10
-14.0043464081
 20
-38.6457503842
 10
-14.0076772256
 20
-38.6714037956
 10
-14.0087849885
 20
-38.6971570187
  0
LINE
  5
5E7
100
AcDbEntity
  8
0
100
AcDbLine
 62
7
  6
CONTINUOUS
 10
-20.6068455356
 20
-39.1021820812
 11
-20.4260052027
 21
-39.0940620956
  0
LINE
  5
5E8
100
AcDbEntity
  8
0
100
AcDbLine
 62
7
  6
CONTINUOUS
 10
-20.4013105241
 20
-38.4927483003
 11
-20.6120018512
 21
-38.502033417
  0
LINE
  5
5E9
100
AcDbEntity
  8
0
100
AcDbLine
 62
7
  6
CONTINUOUS
 10
-15.8381087232
 20
-38.3459499692
 11
-15.968499701
 21
-38.3516447042
  0
LINE
  5
5EA
100
AcDbEntity
  8
0
100
AcDbLine
 62
7
  6
CONTINUOUS
 10
-20.4260052027
 20
-39.0940620956
 11
-20.1800662884
 21
-39.0840963202
  0
LINE
  5
5EB
100
AcDbEntity
  8
0
100
AcDbLine
 62
7
  6
CONTINUOUS
 10
-20.0665878603
 20
-38.4796510986
 11
-20.4013105241
 21
-38.4927483003
  0
LINE
  5
5EC
100
AcDbEntity
  8
0
100
AcDbLine
 62
7
  6
CONTINUOUS
 10
-20.1800662884
 20
-39.0840963202
 11
-19.8521210289
 21
-39.0720812545
  0
LINE
  5
5ED
100
AcDbEntity
  8
0
100
AcDbLine
 62
7
  6
CONTINUOUS
 10
-15.968499701
 20
-38.3516447042
 11
-16.2673145995
 21
-38.3622983584
  0
LINE
  5
5EE
100
AcDbEntity
  8
0
100
AcDbLine
 62
7
  6
CONTINUOUS
 10
-16.3529012136
 20
-38.9652733842
 11
-16.0110354095
 21
-38.9534052531
  0
LINE
  5
5EF
100
AcDbEntity
  8
0
100
AcDbLine
 62
7
  6
CONTINUOUS
 10
-19.8521210289
 20
-39.0720812545
 11
-19.5741139872
 21
-39.0626590408
  0
LWPOLYLINE
  5
5F0
100
AcDbEntity
  8
0
100
AcDbPolyline
 62
7
  6
CONTINUOUS
 90
10
 70
0
 10
-23.4446649342
 20
-34.4931735224
 10
-23.3172626247
 20
-34.4889570024
 10
-23.2017067483
 20
-34.4800255904
 10
-23.0979973051
 20
-34.4663792866
 10
-23.007062869
 20
-34.4474864871
 10
-22.9279748662
 20
-34.4238787958
 10
-22.8579475747
 20
-34.3971510233
 10
-22.7960524206
 20
-34.3678347733
 10
-22.7432179778
 20
-34.3353984422
 10
-22.6994442463
 20
-34.2998420299
  0
LINE
  5
5F1
100
AcDbEntity
  8
0
100
AcDbLine
 62
7
  6
CONTINUOUS
 10
-19.5055090351
 20
-38.460352528
 11
-20.0665878603
 21
-38.4796510986
  0
LINE
  5
5F2
100
AcDbEntity
  8
0
100
AcDbLine
 62
7
  6
CONTINUOUS
 10
-16.2673145995
 20
-38.3622983584
 11
-16.6917586954
 21
-38.3762044865
  0
LINE
  5
5F3
100
AcDbEntity
  8
0
100
AcDbLine
 62
7
  6
CONTINUOUS
 10
-16.6917586954
 20
-38.3762044865
 11
-17.2786722859
 21
-38.39412031
  0
LINE
  5
5F4
100
AcDbEntity
  8
0
100
AcDbLine
 62
7
  6
CONTINUOUS
 10
-17.2786722859
 20
-38.39412031
 11
-19.5055090351
 21
-38.460352528
  0
LINE
  5
5F5
100
AcDbEntity
  8
RACCORDO
100
AcDbLine
 62
7
  6
CONTINUOUS
 10
-22.3087849885
 20
-38.3699240145
 11
-16.4961147318
 21
-38.3699240145
  0
LINE
  5
5F6
100
AcDbEntity
  8
RACCORDO
100
AcDbLine
 62
7
  6
CONTINUOUS
 10
-16.018588867
 20
-38.3699240145
 11
-13.7087849885
 21
-38.3699240145
  0
LINE
  5
5F7
100
AcDbEntity
  8
DRAFT
100
AcDbLine
 62
7
  6
CONTINUOUS
 10
-26.1099108067
 20
-38.353473658
 11
-9.9076591703
 21
-38.353473658
  0
LINE
  5
5F8
100
AcDbEntity
  8
DRAFT
100
AcDbLine
 62
7
  6
CONTINUOUS
 10
-26.0540545989
 20
-38.1976174502
 11
-25.8087849885
 21
-38.1976174502
  0
LINE
  5
5F9
100
AcDbEntity
  8
DRAFT
100
AcDbLine
 62
7
  6
CONTINUOUS
 10
-22.2587849885
 20
-38.1976174502
 11
-21.6295583865
 21
-38.1976174502
  0
LINE
  5
5FA
100
AcDbEntity
  8
DRAFT
100
AcDbLine
 62
7
  6
CONTINUOUS
 10
-14.3880115904
 20
-38.1976174502
 11
-13.7587849885
 21
-38.1976174502
  0
LINE
  5
5FB
100
AcDbEntity
  8
DRAFT
100
AcDbLine
 62
7
  6
CONTINUOUS
 10
-10.2087849885
 20
-38.1976174502
 11
-9.963515378
 21
-38.1976174502
  0
LINE
  5
5FC
100
AcDbEntity
  8
DRAFT
100
AcDbLine
 62
7
  6
CONTINUOUS
 10
-20.2587849885
 20
-36.953473658
 11
-15.7587849885
 21
-36.953473658
  0
LINE
  5
5FD
100
AcDbEntity
  8
0
100
AcDbLine
 62
7
  6
CONTINUOUS
 10
-22.5087849885
 20
-34.745561046
 11
-22.7448013663
 21
-34.745561046
  0
LWPOLYLINE
  5
5FE
100
AcDbEntity
  8
0
100
AcDbPolyline
 62
7
  6
CONTINUOUS
 90
10
 70
0
 10
-23.5401629
 20
-34.2489716238
 10
-23.6103449553
 20
-34.2473042323
 10
-23.6756427982
 20
-34.244047978
 10
-23.7360564287
 20
-34.2392028608
 10
-23.7913333732
 20
-34.2326587221
 10
-23.8417261053
 20
-34.2245257204
 10
-23.8879920464
 20
-34.2151343322
 10
-23.9303836704
 20
-34.204594716
 10
-23.9686485035
 20
-34.1927967132
 10
-24.0027865455
 20
-34.1797403237
  0
LWPOLYLINE
  5
5FF
100
AcDbEntity
  8
0
100
AcDbPolyline
 62
7
  6
CONTINUOUS
 90
10
 70
0
 10
-23.9671752244
 20
-35.0006769127
 10
-23.9395024079
 20
-35.0014320776
 10
-23.9105464833
 20
-35.0049982196
 10
-23.8803074506
 20
-35.0113753385
 10
-23.8488148094
 20
-35.0203187704
 10
-23.8160390602
 20
-35.0320731793
 10
-23.7818917037
 20
-35.0473725574
 10
-23.7463432402
 20
-35.066461569
 10
-23.7094231696
 20
-35.0890955499
 10
-23.6711314917
 20
-35.1152745001
  0
LWPOLYLINE
  5
600
100
AcDbEntity
  8
0
100
AcDbPolyline
 62
7
  6
CONTINUOUS
 90
10
 70
0
 10
-23.1431642562
 20
-33.4235964245
 10
-23.0913519001
 20
-33.4258504447
 10
-23.0432893064
 20
-33.4307700934
 10
-22.998976475
 20
-33.4383553705
 10
-22.9587728809
 20
-33.4487668776
 10
-22.9223190492
 20
-33.4618440132
 10
-22.888536555
 20
-33.4771049728
 10
-22.8570659235
 20
-33.494389155
 10
-22.8282666296
 20
-33.5138571612
 10
-22.8021386732
 20
-33.5355089914
  0
LWPOLYLINE
  5
601
100
AcDbEntity
  8
0
100
AcDbPolyline
 62
7
  6
CONTINUOUS
 90
10
 70
0
 10
-23.1568068057
 20
-34.2107724375
 10
-23.2024315966
 20
-34.2086546975
 10
-23.2451105496
 20
-34.2037980729
 10
-23.2848436644
 20
-34.1962025637
 10
-23.3213279066
 20
-34.185792298
 10
-23.3548663108
 20
-34.1726431477
 10
-23.3863679808
 20
-34.1569827283
 10
-23.4161359514
 20
-34.1388869115
 10
-23.4438671879
 20
-34.1182798257
 10
-23.4695616903
 20
-34.0951614707
  0
LWPOLYLINE
  5
602
100
AcDbEntity
  8
0
100
AcDbPolyline
 62
7
  6
CONTINUOUS
 90
10
 70
0
 10
-23.9126049071
 20
-35.7687533623
 10
-23.9572724189
 20
-35.7666217467
 10
-23.9987126189
 20
-35.7619415808
 10
-24.0369255072
 20
-35.7547128647
 10
-24.0715831198
 20
-35.7448187059
 10
-24.1030134206
 20
-35.7323759969
 10
-24.132200301
 20
-35.7177354149
 10
-24.1594717246
 20
-35.7010138522
 10
-24.1844997277
 20
-35.6820944166
 10
-24.2072843104
 20
-35.6609771079
  0
LWPOLYLINE
  5
603
100
AcDbEntity
  8
0
100
AcDbPolyline
 62
7
  6
CONTINUOUS
 90
10
 70
0
 10
-22.5087849885
 20
-32.3799403137
 10
-22.578191799
 20
-32.3742933678
 10
-22.6454530028
 20
-32.367417465
 10
-22.7105685997
 20
-32.3593126054
 10
-22.7734454285
 20
-32.3499264023
 10
-22.8341766504
 20
-32.3393112424
 10
-22.8930417499
 20
-32.3276242854
 10
-22.9501338886
 20
-32.3149179177
 10
-23.0053599049
 20
-32.301139753
 10
-23.0587197988
 20
-32.2862897911
  0
LINE
  5
604
100
AcDbEntity
  8
0
100
AcDbLine
 62
7
  6
CONTINUOUS
 10
-17.443826432
 20
-33.3193648266
 11
-18.3091263427
 21
-33.1519302986
  0
LINE
  5
605
100
AcDbEntity
  8
0
100
AcDbLine
 62
7
  6
CONTINUOUS
 10
-18.6211368221
 20
-33.6913625539
 11
-17.7074502469
 21
-33.8682530599
  0
LINE
  5
606
100
AcDbEntity
  8
0
100
AcDbLine
 62
7
  6
CONTINUOUS
 10
-17.7074502469
 20
-33.8682530599
 11
-17.4256951387
 21
-33.9232477349
  0
LINE
  5
607
100
AcDbEntity
  8
0
100
AcDbLine
 62
7
  6
CONTINUOUS
 10
-18.3091263427
 20
-33.1519302986
 11
-18.6495538364
 21
-33.0853818908
  0
LINE
  5
608
100
AcDbEntity
  8
0
100
AcDbLine
 62
7
  6
CONTINUOUS
 10
-17.1046995711
 20
-33.3862393265
 11
-17.443826432
 21
-33.3193648266
  0
LINE
  5
609
100
AcDbEntity
  8
0
100
AcDbLine
 62
7
  6
CONTINUOUS
 10
-18.9325479821
 20
-33.6298209698
 11
-18.6211368221
 21
-33.6913625539
  0
LINE
  5
60A
100
AcDbEntity
  8
0
100
AcDbLine
 62
7
  6
CONTINUOUS
 10
-17.4256951387
 20
-33.9232477349
 11
-17.1578540188
 21
-33.9764103043
  0
LWPOLYLINE
  5
60B
100
AcDbEntity
  8
0
100
AcDbPolyline
 62
7
  6
CONTINUOUS
 90
20
 70
0
 10
-18.6495538364
 20
-33.0853818908
 10
-18.9816281105
 20
-33.018977346
 10
-19.143937769
 20
-32.9857176962
 10
-19.3028981117
 20
-32.9524715428
 10
-19.4572659059
 20
-32.919412644
 10
-19.6069301295
 20
-32.886484096
 10
-19.7512131299
 20
-32.853757123
 10
-19.8882406
 20
-32.821603489
 10
-20.0176351191
 20
-32.7900880025
 10
-20.1395172322
 20
-32.7591680997
 10
-20.2530493327
 20
-32.7290639502
 10
-20.3580270736
 20
-32.6998695068
 10
-20.4548483545
 20
-32.6715286424
 10
-20.5436728956
 20
-32.6440576217
 10
-20.6246862613
 20
-32.6174758457
 10
-20.6980010821
 20
-32.5918402581
 10
-20.7636198235
 20
-32.5672708602
 10
-20.8218722125
 20
-32.543789392
 10
-20.8728306548
 20
-32.5215388588
 10
-20.8972493065
 20
-32.5099137611
  0
LINE
  5
60C
100
AcDbEntity
  8
0
100
AcDbLine
 62
7
  6
CONTINUOUS
 10
-17.1578540188
 20
-33.9764103043
 11
-16.9045124951
 21
-34.0278957738
  0
LINE
  5
60D
100
AcDbEntity
  8
0
100
AcDbLine
 62
7
  6
CONTINUOUS
 10
-16.9045124951
 20
-34.0278957738
 11
-16.6655470305
 21
-34.0779498025
  0
LWPOLYLINE
  5
60E
100
AcDbEntity
  8
0
100
AcDbPolyline
 62
7
  6
CONTINUOUS
 90
20
 70
0
 10
-16.6655470305
 20
-34.0779498025
 10
-16.4408858172
 20
-34.126774271
 10
-16.3340487994
 20
-34.1507475494
 10
-16.2308619086
 20
-34.1744541951
 10
-16.1313953872
 20
-34.1978935867
 10
-16.0357344384
 20
-34.2210586445
 10
-15.9438535971
 20
-34.2439667979
 10
-15.855809665
 20
-34.2666136472
 10
-15.7716637011
 20
-34.2889906499
 10
-15.6914152701
 20
-34.311102977
 10
-15.6150942743
 20
-34.3329456024
 10
-15.5427628212
 20
-34.3545009249
 10
-15.4744907433
 20
-34.3757440108
 10
-15.4102483015
 20
-34.3966768864
 10
-15.3501348837
 20
-34.4172556012
 10
-15.2944150714
 20
-34.4373646836
 10
-15.2430397339
 20
-34.4569845107
 10
-15.196047684
 20
-34.4760545384
 10
-15.153800021
 20
-34.4943553868
 10
-15.1203071214
 20
-34.5099183612
  0
LWPOLYLINE
  5
60F
100
AcDbEntity
  8
0
100
AcDbPolyline
 62
7
  6
CONTINUOUS
 90
10
 70
0
 10
-23.0791691094
 20
-32.540025729
 10
-23.0033094058
 20
-32.5593252873
 10
-22.9304605451
 20
-32.5763226621
 10
-22.8606225272
 20
-32.5910178534
 10
-22.7936485792
 20
-32.6033558816
 10
-22.7296854741
 20
-32.6133917262
 10
-22.6691735306
 20
-32.6212903264
 10
-22.6122595216
 20
-32.6271066618
 10
-22.5587966742
 20
-32.6307857526
 10
-22.5087849885
 20
-32.632327599
  0
LWPOLYLINE
  5
610
100
AcDbEntity
  8
0
100
AcDbPolyline
 62
7
  6
CONTINUOUS
 90
10
 70
0
 10
-23.0587197988
 20
-32.2862897911
 10
-23.1385503207
 20
-32.2620751393
 10
-23.2175826113
 20
-32.235900649
 10
-23.2958166707
 20
-32.20776632
 10
-23.3731413219
 20
-32.1777280785
 10
-23.4496677418
 20
-32.1457299984
 10
-23.5257294612
 20
-32.1116043014
 10
-23.6014376569
 20
-32.0752950614
 10
-23.676681152
 20
-32.0368582045
 10
-23.7514599466
 20
-31.9962937307
  0
LWPOLYLINE
  5
611
100
AcDbEntity
  8
0
100
AcDbPolyline
 62
7
  6
CONTINUOUS
 90
16
 70
0
 10
-21.3734634794
 20
-29.253473658
 10
-21.3724980461
 20
-29.2537931573
 10
-21.3640328496
 20
-29.2564526931
 10
-21.3555709182
 20
-29.2589873005
 10
-21.3470576722
 20
-29.2614265961
 10
-21.3385250388
 20
-29.2637730749
 10
-21.3298211857
 20
-29.2660771811
 10
-21.3209109632
 20
-29.2683534873
 10
-21.3118044585
 20
-29.270604068
 10
-21.3024210982
 20
-29.2728524104
 10
-21.2927426515
 20
-29.2751052279
 10
-21.2827659359
 20
-29.2773653464
 10
-21.2724370772
 20
-29.2796465078
 10
-21.261745276
 20
-29.2819521005
 10
-21.2506823252
 20
-29.2842847927
 10
-21.2272796231
 20
-29.2890676838
  0
LWPOLYLINE
  5
612
100
AcDbEntity
  8
0
100
AcDbPolyline
 62
7
  6
CONTINUOUS
 90
10
 70
0
 10
-22.6797358496
 20
-30.4478662018
 10
-22.6607238956
 20
-30.4545322179
 10
-22.6417336126
 20
-30.4602875823
 10
-22.6227650006
 20
-30.4651322949
 10
-22.6038411494
 20
-30.4690529663
 10
-22.5849389691
 20
-30.4720629859
 10
-22.5659891899
 20
-30.4742025221
 10
-22.5469687218
 20
-30.4754849644
 10
-22.5279006546
 20
-30.4758969233
 10
-22.5087849885
 20
-30.4754383988
  0
LINE
  5
613
100
AcDbEntity
  8
0
100
AcDbLine
 62
7
  6
CONTINUOUS
 10
-15.2587849885
 20
-30.4509965103
 11
-15.2351885629
 21
-30.4600886703
  0
LWPOLYLINE
  5
614
100
AcDbEntity
  8
0
100
AcDbPolyline
 62
7
  6
CONTINUOUS
 90
4
 70
0
 10
-15.2351885629
 20
-30.4600886703
 10
-15.1881820081
 20
-30.4793700654
 10
-15.1460634128
 20
-30.4978485395
 10
-15.1201843469
 20
-30.5100563517
  0
LWPOLYLINE
  5
615
100
AcDbEntity
  8
0
100
AcDbPolyline
 62
7
  6
CONTINUOUS
 90
10
 70
0
 10
-22.7448013663
 20
-30.1343739456
 10
-22.7600322822
 20
-30.1246219459
 10
-22.7751542529
 20
-30.1144329885
 10
-22.7901672784
 20
-30.1038070735
 10
-22.8050892856
 20
-30.0927377582
 10
-22.8199023475
 20
-30.0812314853
 10
-22.8345526832
 20
-30.0693075827
 10
-22.8490223655
 20
-30.0569724931
 10
-22.8633293215
 20
-30.0442197739
 10
-22.8774735511
 20
-30.0310494249
  0
LWPOLYLINE
  5
616
100
AcDbEntity
  8
0
100
AcDbPolyline
 62
7
  6
CONTINUOUS
 90
9
 70
0
 10
-23.6711314917
 20
-29.5231869929
 10
-23.6364236094
 20
-29.5500735577
 10
-23.5985303921
 20
-29.5825665821
 10
-23.5574518399
 20
-29.620666066
 10
-23.5130313001
 20
-29.664485707
 10
-23.4654254253
 20
-29.7139118075
 10
-23.4151041738
 20
-29.7686032753
 10
-23.3622241983
 20
-29.8284464129
 10
-23.3066288461
 20
-29.8935549177
  0
LWPOLYLINE
  5
617
100
AcDbEntity
  8
0
100
AcDbPolyline
 62
7
  6
CONTINUOUS
 90
10
 70
0
 10
-22.9453470498
 20
-30.2858064598
 10
-22.9140724656
 20
-30.3112061048
 10
-22.8832370669
 20
-30.3347055218
 10
-22.8528408536
 20
-30.3563047108
 10
-22.822881997
 20
-30.37593437
 10
-22.7933623258
 20
-30.3936638013
 10
-22.7642873269
 20
-30.4097009096
 10
-22.7356588289
 20
-30.4241149966
 10
-22.7074750032
 20
-30.4368367607
 10
-22.6797358496
 20
-30.4478662018
  0
LWPOLYLINE
  5
618
100
AcDbEntity
  8
0
100
AcDbPolyline
 62
7
  6
CONTINUOUS
 90
7
 70
0
 10
-23.4811954118
 20
-29.3686875977
 10
-23.5113439546
 20
-29.3426090603
 10
-23.5407380368
 20
-29.3185692379
 10
-23.5693776582
 20
-29.2965681305
 10
-23.5972544702
 20
-29.2766910864
 10
-23.6243768215
 20
-29.2588527573
 10
-23.6332192012
 20
-29.253473658
  0
LWPOLYLINE
  5
619
100
AcDbEntity
  8
0
100
AcDbPolyline
 62
7
  6
CONTINUOUS
 90
8
 70
0
 10
-22.8774735511
 20
-30.0310494249
 10
-22.8933194615
 20
-30.0153992531
 10
-22.9122006066
 20
-29.9957787322
 10
-22.9341169864
 20
-29.9721878624
 10
-22.9590583255
 20
-29.9446357729
 10
-22.9870348993
 20
-29.9131133344
 10
-23.0180775343
 20
-29.8775931592
 10
-23.0521965059
 20
-29.8380661182
  0
LINE
  5
61A
100
AcDbEntity
  8
RACCORDO
100
AcDbLine
 62
253
  6
CONTINUOUS
 10
-4.9116106148
 20
-47.1005109434
 11
-4.9586479002
 21
-47.053473658
  0
LINE
  5
61B
100
AcDbEntity
  8
RACCORDO
100
AcDbLine
 62
7
  6
CONTINUOUS
 10
-9.9076591703
 20
-38.353473658
 11
-9.8639301181
 21
-38.3972027102
  0
LWPOLYLINE
  5
61C
100
AcDbEntity
  8
0
100
AcDbPolyline
 62
7
  6
CONTINUOUS
 90
10
 70
0
 10
-24.2072843104
 20
-30.0688898987
 10
-24.2286676642
 20
-30.0457069524
 10
-24.2477006382
 20
-30.0206800717
 10
-24.2643832323
 20
-29.9938092566
 10
-24.2787682044
 20
-29.9654181058
 10
-24.2908027968
 20
-29.9351830207
 10
-24.3003287361
 20
-29.9021332054
 10
-24.3072932649
 20
-29.8659450613
 10
-24.3117491407
 20
-29.8269421871
 10
-24.3136963635
 20
-29.7851245827
  0
LWPOLYLINE
  5
61D
100
AcDbEntity
  8
0
100
AcDbPolyline
 62
7
  6
CONTINUOUS
 90
9
 70
0
 10
-23.1776038699
 20
-29.6906826766
 10
-23.2233545622
 20
-29.6379214562
 10
-23.2668847094
 20
-29.5887351648
 10
-23.3082031538
 20
-29.5431239259
 10
-23.3473010532
 20
-29.5010876162
 10
-23.3841518813
 20
-29.4626258655
 10
-23.418746796
 20
-29.4277385505
 10
-23.4510946395
 20
-29.3964257946
 10
-23.4811954118
 20
-29.3686875977
  0
LINE
  5
61E
100
AcDbEntity
  8
0
100
AcDbLine
 62
7
  6
CONTINUOUS
 10
-23.0521965059
 20
-29.8380661182
 11
-23.1776038699
 21
-29.6906826766
  0
LWPOLYLINE
  5
61F
100
AcDbEntity
  8
0
100
AcDbPolyline
 62
7
  6
CONTINUOUS
 90
10
 70
0
 10
-23.3066288461
 20
-29.8935549177
 10
-23.2106736061
 20
-30.0094614355
 10
-23.1739989029
 20
-30.0525880278
 10
-23.1382940076
 20
-30.0933085667
 10
-23.1035249774
 20
-30.1316711345
 10
-23.0697257551
 20
-30.1676276489
 10
-23.0369981684
 20
-30.2010338633
 10
-23.0053761599
 20
-30.2318416955
 10
-22.9748257871
 20
-30.2600992277
 10
-22.9453470498
 20
-30.2858064598
  0
LWPOLYLINE
  5
620
100
AcDbEntity
  8
0
100
AcDbPolyline
 62
7
  6
CONTINUOUS
 90
10
 70
0
 10
-22.5609284385
 20
-33.4769853756
 10
-22.5800551197
 20
-33.4473472968
 10
-22.601092061
 20
-33.4189958568
 10
-22.6240392622
 20
-33.3919310555
 10
-22.6486849007
 20
-33.3662318924
 10
-22.6752407992
 20
-33.341819368
 10
-22.7043424262
 20
-33.3184564838
 10
-22.7362016048
 20
-33.2960642402
 10
-22.770606512
 20
-33.2747216368
 10
-22.8075571478
 20
-33.2544286735
  0
LWPOLYLINE
  5
621
100
AcDbEntity
  8
0
100
AcDbPolyline
 62
7
  6
CONTINUOUS
 90
10
 70
0
 10
-23.7409854551
 20
-34.0321961465
 10
-23.7262377337
 20
-34.0591853117
 10
-23.7097151276
 20
-34.0854098646
 10
-23.6914176369
 20
-34.1108698051
 10
-23.6715007139
 20
-34.1355133172
 10
-23.6498089063
 20
-34.1593922169
 10
-23.6258758568
 20
-34.1826619527
 10
-23.5995461131
 20
-34.2053743404
 10
-23.5709751275
 20
-34.2274775641
 10
-23.5401629
 20
-34.2489716238
  0
LINE
  5
622
100
AcDbEntity
  8
DRAFT
100
AcDbLine
 62
7
  6
CONTINUOUS
 10
-16.4778743558
 20
-44.853473658
 11
-16.4607872156
 21
-44.8876505412
  0
LINE
  5
623
100
AcDbEntity
  8
DRAFT
100
AcDbLine
 62
7
  6
CONTINUOUS
 10
-26.1099108067
 20
-29.253473658
 11
-26.0540545989
 21
-29.4093298658
  0
LINE
  5
624
100
AcDbEntity
  8
IMPORT_IGES
100
AcDbLine
 62
7
  6
CONTINUOUS
 10
-31.8887368771
 20
-40.0533815402
 11
-31.8887368675
 21
-39.2533815402
  0
LINE
  5
625
100
AcDbEntity
  8
DRAFT
100
AcDbLine
 62
7
  6
CONTINUOUS
 10
-31.7936951183
 20
-40.9185635281
 11
-31.7936951183
 21
-24.9883837879
  0
LINE
  5
626
100
AcDbEntity
  8
DRAFT
100
AcDbLine
 62
7
  6
CONTINUOUS
 10
-31.7936951183
 20
20.8814364719
 11
-31.7936951183
 21
36.8116162121
  0
LWPOLYLINE
  5
627
100
AcDbEntity
  8
0
100
AcDbPolyline
 62
7
  6
CONTINUOUS
 90
35
 70
0
 10
-19.2820608365
 20
-35.4612564111
 10
-19.4244319822
 20
-35.4910721749
 10
-19.5617749011
 20
-35.5204371316
 10
-19.693979158
 20
-35.549358671
 10
-19.821104771
 20
-35.5778765957
 10
-19.9430542083
 20
-35.6059915114
 10
-20.0597879148
 20
-35.6337115908
 10
-20.1714783953
 20
-35.6610925419
 10
-20.2780928138
 20
-35.6881387484
 10
-20.3796421329
 20
-35.7148611128
 10
-20.4763749855
 20
-35.7413327865
 10
-20.5682947418
 20
-35.7675623276
 10
-20.6554515465
 20
-35.7935684564
 10
-20.7381645036
 20
-35.8194539501
 10
-20.8164462637
 20
-35.8452337888
 10
-20.8903781016
 20
-35.8709444236
 10
-20.9603747033
 20
-35.8967506509
 10
-21.026557842
 20
-35.9227340824
 10
-21.0888867195
 20
-35.9489192423
 10
-21.1475747302
 20
-35.9754451544
 10
-21.202738415
 20
-36.002432957
 10
-21.2544074274
 20
-36.0299794229
 10
-21.302771338
 20
-36.0582915788
 10
-21.3478547983
 20
-36.0875209292
 10
-21.3897713034
 20
-36.1179163405
 10
-21.428860016
 20
-36.1500053452
 10
-21.4650303401
 20
-36.1841425629
 10
-21.4980591495
 20
-36.2206571911
 10
-21.5279404858
 20
-36.2601931833
 10
-21.5546972075
 20
-36.3039026186
 10
-21.5770682111
 20
-36.3512103878
 10
-21.5935748371
 20
-36.3997050054
 10
-21.6039981958
 20
-36.4481417389
 10
-21.6085658207
 20
-36.4968680527
 10
-21.6087697308
 20
-36.5098286964
  0
LWPOLYLINE
  5
628
100
AcDbEntity
  8
0
100
AcDbPolyline
 62
7
  6
CONTINUOUS
 90
34
 70
0
 10
-16.8720462029
 20
-35.5868222361
 10
-16.713719888
 20
-35.5542092432
 10
-16.5606671398
 20
-35.5220339816
 10
-16.4134685818
 20
-35.4903698643
 10
-16.2724335872
 20
-35.4592464089
 10
-16.1375238597
 20
-35.4286261353
 10
-16.0087058612
 20
-35.3984775527
 10
-15.8860378733
 20
-35.3687965235
 10
-15.7695226142
 20
-35.3395728475
 10
-15.6589946508
 20
-35.310758579
 10
-15.5544294658
 20
-35.2823450327
 10
-15.4557520547
 20
-35.2543154421
 10
-15.3626867564
 20
-35.2265967047
 10
-15.2751633071
 20
-35.199174517
 10
-15.1930427361
 20
-35.1720163872
 10
-15.1159247276
 20
-35.144996488
 10
-15.0436991388
 20
-35.1180772834
 10
-14.9762156138
 20
-35.0912048718
 10
-14.9129970963
 20
-35.0641766138
 10
-14.8538999019
 20
-35.0368982983
 10
-14.7988085144
 20
-35.0092759085
 10
-14.7472644247
 20
-34.9810059166
 10
-14.6992050489
 20
-34.9519379799
 10
-14.6545095551
 20
-34.9218510502
 10
-14.6126785372
 20
-34.890155378
 10
-14.5738795425
 20
-34.8565949021
 10
-14.538214254
 20
-34.8207582369
 10
-14.5053447384
 20
-34.7815346441
 10
-14.4753058296
 20
-34.7376642233
 10
-14.449519613
 20
-34.6895331759
 10
-14.429579282
 20
-34.6388531596
 10
-14.416120914
 20
-34.58659531
 10
-14.4094316149
 20
-34.5326151122
 10
-14.4088047845
 20
-34.5098603456
  0
LINE
  5
629
100
AcDbEntity
  8
0
100
AcDbLine
 62
7
  6
CONTINUOUS
 10
-18.9829023824
 20
-35.400258122
 11
-19.2820608365
 21
-35.4612564111
  0
LINE
  5
62A
100
AcDbEntity
  8
0
100
AcDbLine
 62
7
  6
CONTINUOUS
 10
-19.0791884032
 20
-36.0209296179
 11
-18.7538539659
 21
-35.95526823
  0
LINE
  5
62B
100
AcDbEntity
  8
0
100
AcDbLine
 62
7
  6
CONTINUOUS
 10
-17.2041654942
 20
-35.653524481
 11
-16.8720462029
 21
-35.5868222361
  0
LINE
  5
62C
100
AcDbEntity
  8
0
100
AcDbLine
 62
7
  6
CONTINUOUS
 10
-17.0025497932
 20
-35.0121855554
 11
-17.3229203952
 21
-35.0764693845
  0
LINE
  5
62D
100
AcDbEntity
  8
0
100
AcDbLine
 62
7
  6
CONTINUOUS
 10
-18.6651980225
 20
-35.3372611504
 11
-18.9829023824
 21
-35.400258122
  0
LINE
  5
62E
100
AcDbEntity
  8
0
100
AcDbLine
 62
7
  6
CONTINUOUS
 10
-18.7538539659
 20
-35.95526823
 11
-18.4166455125
 21
-35.8889624678
  0
LINE
  5
62F
100
AcDbEntity
  8
0
100
AcDbLine
 62
7
  6
CONTINUOUS
 10
-17.5488122313
 20
-35.7210746962
 11
-17.2041654942
 21
-35.653524481
  0
LINE
  5
630
100
AcDbEntity
  8
0
100
AcDbLine
 62
7
  6
CONTINUOUS
 10
-17.3229203952
 20
-35.0764693845
 11
-17.6550668195
 21
-35.1415651566
  0
LINE
  5
631
100
AcDbEntity
  8
0
100
AcDbLine
 62
7
  6
CONTINUOUS
 10
-18.4166455125
 20
-35.8889624678
 11
-17.5488122313
 21
-35.7210746962
  0
LINE
  5
632
100
AcDbEntity
  8
0
100
AcDbLine
 62
7
  6
CONTINUOUS
 10
-17.6550668195
 20
-35.1415651566
 11
-18.6651980225
 21
-35.3372611504
  0
LWPOLYLINE
  5
633
100
AcDbEntity
  8
0
100
AcDbPolyline
 62
7
  6
CONTINUOUS
 90
10
 70
0
 10
-23.1581710964
 20
-33.1725733704
 10
-23.2250988577
 20
-33.175718487
 10
-23.2878773639
 20
-33.1829333136
 10
-23.346506615
 20
-33.1942178503
 10
-23.4004829434
 20
-33.2096296962
 10
-23.4503100167
 20
-33.2291112521
 10
-23.497498838
 20
-33.2524897207
 10
-23.542553075
 20
-33.279707503
 10
-23.5849690599
 20
-33.3108221981
 10
-23.6247467928
 20
-33.3458338059
  0
LINE
  5
634
100
AcDbEntity
  8
0
100
AcDbLine
 62
7
  6
CONTINUOUS
 10
-24.4828641206
 20
-32.9120002216
 11
-24.2468477278
 21
-32.9120002216
  0
LINE
  5
635
100
AcDbEntity
  8
0
100
AcDbLine
 62
7
  6
CONTINUOUS
 10
-24.2918681889
 20
-31.6173208183
 11
-24.4828641206
 21
-31.6173208183
  0
LINE
  5
636
100
AcDbEntity
  8
0
100
AcDbLine
 62
7
  6
CONTINUOUS
 10
-23.3559882432
 20
-31.4017684883
 11
-23.1090578228
 21
-31.4017684883
  0
LINE
  5
637
100
AcDbEntity
  8
DRAFT
100
AcDbLine
 62
7
  6
CONTINUOUS
 10
-16.7196030612
 20
-30.953473658
 11
-20.2587849885
 21
-30.953473658
  0
LINE
  5
638
100
AcDbEntity
  8
0
100
AcDbLine
 62
7
  6
CONTINUOUS
 10
-23.1090578228
 20
-30.6473343796
 11
-23.3559882432
 21
-30.6473343796
  0
LINE
  5
639
100
AcDbEntity
  8
DRAFT
100
AcDbLine
 62
7
  6
CONTINUOUS
 10
-26.0540545989
 20
-29.4093298658
 11
-25.8087849885
 21
-29.4093298658
  0
LINE
  5
63A
100
AcDbEntity
  8
DRAFT
100
AcDbLine
 62
7
  6
CONTINUOUS
 10
-22.2587849885
 20
-29.4093298658
 11
-21.6295583865
 21
-29.4093298658
  0
LINE
  5
63B
100
AcDbEntity
  8
DRAFT
100
AcDbLine
 62
7
  6
CONTINUOUS
 10
-14.3880115904
 20
-29.4093298658
 11
-13.7587849885
 21
-29.4093298658
  0
LINE
  5
63C
100
AcDbEntity
  8
DRAFT
100
AcDbLine
 62
7
  6
CONTINUOUS
 10
-10.2087849885
 20
-29.4093298658
 11
-9.963515378
 21
-29.4093298658
  0
LINE
  5
63D
100
AcDbEntity
  8
DRAFT
100
AcDbLine
 62
7
  6
CONTINUOUS
 10
-9.9076591703
 20
-29.253473658
 11
-26.1099108067
 21
-29.253473658
  0
LINE
  5
63E
100
AcDbEntity
  8
DRAFT
100
AcDbLine
 62
7
  6
CONTINUOUS
 10
-26.1587849885
 20
-29.2045994762
 11
-9.8587849885
 21
-29.2045994762
  0
LWPOLYLINE
  5
63F
100
AcDbEntity
  8
0
100
AcDbPolyline
 62
7
  6
CONTINUOUS
 90
10
 70
0
 10
-23.9671752244
 20
-29.4085896439
 10
-23.9395024015
 20
-29.4093447991
 10
-23.9105464723
 20
-29.4129109244
 10
-23.8803074368
 20
-29.4192880199
 10
-23.848814795
 20
-29.4282314176
 10
-23.8160390468
 20
-29.4399857855
 10
-23.7818916924
 20
-29.4552851266
 10
-23.7463432318
 20
-29.4743741088
 10
-23.7094231649
 20
-29.4970080642
 10
-23.6711314917
 20
-29.5231869929
  0
LWPOLYLINE
  5
640
100
AcDbEntity
  8
0
100
AcDbPolyline
 62
7
  6
CONTINUOUS
 90
10
 70
0
 10
-23.9126049071
 20
-30.1766660637
 10
-23.9572725029
 20
-30.1745344502
 10
-23.9987127636
 20
-30.169854288
 10
-24.0369256891
 20
-30.162625577
 10
-24.0715833126
 20
-30.1527314242
 10
-24.1030136009
 20
-30.1402887228
 10
-24.1322004548
 20
-30.1256481516
 10
-24.1594718412
 20
-30.1089266037
 10
-24.184499793
 20
-30.090007186
 10
-24.2072843104
 20
-30.0688898987
  0
LINE
  5
641
100
AcDbEntity
  8
0
100
AcDbLine
 62
7
  6
CONTINUOUS
 10
-20.9030641695
 20
-29.345658283
 11
-20.7587849885
 21
-29.3684526529
  0
LINE
  5
642
100
AcDbEntity
  8
0
100
AcDbLine
 62
7
  6
CONTINUOUS
 10
-20.9882138606
 20
-29.3317783597
 11
-20.9030641695
 21
-29.345658283
  0
LINE
  5
643
100
AcDbEntity
  8
0
100
AcDbLine
 62
7
  6
CONTINUOUS
 10
-21.0458329574
 20
-29.3221166579
 11
-20.9882138606
 21
-29.3317783597
  0
LINE
  5
644
100
AcDbEntity
  8
0
100
AcDbLine
 62
7
  6
CONTINUOUS
 10
-21.0983241597
 20
-29.3130550947
 11
-21.0458329574
 21
-29.3221166579
  0
LINE
  5
645
100
AcDbEntity
  8
0
100
AcDbLine
 62
7
  6
CONTINUOUS
 10
-21.1458992359
 20
-29.3045557235
 11
-21.0983241597
 21
-29.3130550947
  0
LINE
  5
646
100
AcDbEntity
  8
0
100
AcDbLine
 62
7
  6
CONTINUOUS
 10
-21.1749975365
 20
-29.2991817469
 11
-21.1458992359
 21
-29.3045557235
  0
LINE
  5
647
100
AcDbEntity
  8
0
100
AcDbLine
 62
7
  6
CONTINUOUS
 10
-21.2020926233
 20
-29.2940250439
 11
-21.1749975365
 21
-29.2991817469
  0
LINE
  5
648
100
AcDbEntity
  8
0
100
AcDbLine
 62
7
  6
CONTINUOUS
 10
-21.2272796231
 20
-29.2890676838
 11
-21.2020926233
 21
-29.2940250439
  0
LINE
  5
649
100
AcDbEntity
  8
IMPORT_IGES
100
AcDbLine
 62
253
  6
CONTINUOUS
 10
-39.5238748586
 20
34.911146276
 11
-38.8813896409
 21
32.5133596488
  0
LINE
  5
64A
100
AcDbEntity
  8
0
100
AcDbLine
 62
7
  6
CONTINUOUS
 10
-23.9999173671
 20
-33.4522457546
 11
-24.0190169602
 21
-33.2080438561
  0
LWPOLYLINE
  5
64B
100
AcDbEntity
  8
0
100
AcDbPolyline
 62
7
  6
CONTINUOUS
 90
10
 70
0
 10
-24.5169706136
 20
-33.7755747265
 10
-24.5130608956
 20
-33.8484007936
 10
-24.5038708909
 20
-33.9164935046
 10
-24.4894005995
 20
-33.9798528594
 10
-24.4697929545
 20
-34.0377955892
 10
-24.4449050229
 20
-34.0910049629
 10
-24.4143080054
 20
-34.1415307869
 10
-24.377858969
 20
-34.19005633
 10
-24.3357008469
 20
-34.2358983234
 10
-24.2878336389
 20
-34.2790567671
  0
LWPOLYLINE
  5
64C
100
AcDbEntity
  8
0
100
AcDbPolyline
 62
7
  6
CONTINUOUS
 90
10
 70
0
 10
-24.5169706136
 20
-35.3717547483
 10
-24.513926194
 20
-35.4407041411
 10
-24.5073573612
 20
-35.5046761823
 10
-24.4972641151
 20
-35.5636708717
 10
-24.4834274571
 20
-35.6171981381
 10
-24.4660663859
 20
-35.6657480527
 10
-24.4458378974
 20
-35.7107908298
 10
-24.4229609904
 20
-35.7528165407
 10
-24.3972166661
 20
-35.791335114
 10
-24.3686049245
 20
-35.8263465497
  0
LWPOLYLINE
  5
64D
100
AcDbEntity
  8
0
100
AcDbPolyline
 62
7
  6
CONTINUOUS
 90
10
 70
0
 10
-24.5169706136
 20
-29.7796671814
 10
-24.51392619
 20
-29.8486166853
 10
-24.5073573562
 20
-29.9125888146
 10
-24.4972641122
 20
-29.9715835692
 10
-24.4834274576
 20
-30.0251108749
 10
-24.4660663927
 20
-30.073660806
 10
-24.4458379188
 20
-30.1187035852
 10
-24.422961036
 20
-30.1607292868
 10
-24.397216744
 20
-30.1992478366
 10
-24.3686050429
 20
-30.2342592344
  0
LINE
  5
64E
100
AcDbEntity
  8
RACCORDO
100
AcDbLine
 62
7
  6
CONTINUOUS
 10
-23.3151496885
 20
-46.4179040716
 11
-23.3453270664
 21
-45.553473658
  0
LWPOLYLINE
  5
64F
100
AcDbEntity
  8
0
100
AcDbPolyline
 62
7
  6
CONTINUOUS
 90
10
 70
0
 10
-23.806192854
 20
-33.7632964081
 10
-23.8053552732
 20
-33.7946102595
 10
-23.8029344488
 20
-33.8255113855
 10
-23.7989303807
 20
-33.855999786
 10
-23.7933679727
 20
-33.8860038615
 10
-23.7862223212
 20
-33.9155952115
 10
-23.7774187147
 20
-33.9449886351
 10
-23.7669322497
 20
-33.974255732
 10
-23.7547878298
 20
-34.0033249025
 10
-23.7409854551
 20
-34.0321961465
  0
LINE
  5
650
100
AcDbEntity
  8
RACCORDO
100
AcDbLine
 62
7
  6
CONTINUOUS
 10
-25.7703838456
 20
-20.153473658
 11
-25.795709522
 21
-17.3303139147
  0
LINE
  5
651
100
AcDbEntity
  8
RACCORDO
100
AcDbLine
 62
7
  6
CONTINUOUS
 10
-26.1587849885
 20
-38.6971570187
 11
-26.1587849885
 21
-29.2045994762
  0
LINE
  5
652
100
AcDbEntity
  8
RACCORDO
100
AcDbLine
 62
7
  6
CONTINUOUS
 10
-26.1587849885
 20
-20.5448222896
 11
-26.1587849885
 21
-24.953473658
  0
LINE
  5
653
100
AcDbEntity
  8
DRAFT
100
AcDbLine
 62
7
  6
CONTINUOUS
 10
-26.0540545989
 20
-38.1976174502
 11
-26.0540545989
 21
-29.4093298658
  0
LINE
  5
654
100
AcDbEntity
  8
RACCORDO
100
AcDbLine
 62
7
  6
CONTINUOUS
 10
-26.0540545989
 20
-19.6539340895
 11
-26.0540545989
 21
-24.353473658
  0
LINE
  5
655
100
AcDbEntity
  8
RACCORDO
100
AcDbLine
 62
7
  6
CONTINUOUS
 10
-25.8087849885
 20
-38.353473658
 11
-25.8087849885
 21
-29.253473658
  0
LINE
  5
656
100
AcDbEntity
  8
RACCORDO
100
AcDbLine
 62
7
  6
CONTINUOUS
 10
-25.8087849885
 20
-24.953473658
 11
-25.8087849885
 21
-17.253443197
  0
LINE
  5
657
100
AcDbEntity
  8
DRAFT
100
AcDbLine
 62
7
  6
CONTINUOUS
 10
-25.7703838456
 20
-21.753473658
 11
-25.7703838456
 21
-20.153473658
  0
LINE
  5
658
100
AcDbEntity
  8
0
100
AcDbLine
 62
7
  6
CONTINUOUS
 10
-24.4828641206
 20
-31.6173208183
 11
-24.4828641206
 21
-32.9120002216
  0
LINE
  5
659
100
AcDbEntity
  8
0
100
AcDbLine
 62
7
  6
CONTINUOUS
 10
-24.2468477278
 20
-32.9120002216
 11
-24.2468477278
 21
-31.9324639267
  0
LINE
  5
65A
100
AcDbEntity
  8
RACCORDO
100
AcDbLine
 62
253
  6
CONTINUOUS
 10
-23.95013362
 20
-44.353473658
 11
-23.95013362
 21
-46.7827678352
  0
LINE
  5
65B
100
AcDbEntity
  8
0
100
AcDbLine
 62
7
  6
CONTINUOUS
 10
-16.4604775638
 20
-30.8975549925
 11
-16.6918036802
 21
-30.9476254698
  0
LWPOLYLINE
  5
65C
100
AcDbEntity
  8
0
100
AcDbPolyline
 62
7
  6
CONTINUOUS
 90
34
 70
0
 10
-16.7482481516
 20
-31.5613746021
 10
-16.6036460712
 20
-31.5311397035
 10
-16.4640678947
 20
-31.5013410035
 10
-16.3293546937
 20
-31.4719078617
 10
-16.1996424385
 20
-31.4428362676
 10
-16.0750408016
 20
-31.4141220771
 10
-15.9553388089
 20
-31.3856896844
 10
-15.8405495228
 20
-31.3575154048
 10
-15.7308022771
 20
-31.3296079815
 10
-15.6260386649
 20
-31.3019327805
 10
-15.526240436
 20
-31.2744665523
 10
-15.4314503006
 20
-31.2472057828
 10
-15.3416445419
 20
-31.2201320869
 10
-15.2568020727
 20
-31.1932308281
 10
-15.1768329309
 20
-31.1664676941
 10
-15.1015398363
 20
-31.1397688853
 10
-15.0308614597
 20
-31.1131032063
 10
-14.9646542553
 20
-31.0864068125
 10
-14.9025401073
 20
-31.0595033966
 10
-14.8444026452
 20
-31.0323008222
 10
-14.7901306069
 20
-31.0046959695
 10
-14.7393082664
 20
-30.9763923149
 10
-14.6918630517
 20
-30.9472192284
 10
-14.6477158553
 20
-30.9169629217
 10
-14.606462584
 20
-30.8850828768
 10
-14.5682510404
 20
-30.8513032568
 10
-14.5332036647
 20
-30.8152237873
 10
-14.5010872806
 20
-30.7758716035
 10
-14.4719077099
 20
-30.7320136132
 10
-14.447038393
 20
-30.684093349
 10
-14.4280485586
 20
-30.6340493617
 10
-14.4154397662
 20
-30.5829474787
 10
-14.4093209393
 20
-30.5305803759
 10
-14.4087873745
 20
-30.5092621013
  0
LINE
  5
65D
100
AcDbEntity
  8
0
100
AcDbLine
 62
7
  6
CONTINUOUS
 10
-16.6918036802
 20
-30.9476254698
 11
-16.9385391942
 21
-30.9990935
  0
LWPOLYLINE
  5
65E
100
AcDbEntity
  8
0
100
AcDbPolyline
 62
7
  6
CONTINUOUS
 90
34
 70
0
 10
-19.1686397031
 20
-31.4378921953
 10
-19.328025666
 20
-31.4708182566
 10
-19.4855004417
 20
-31.5040492607
 10
-19.6385034394
 20
-31.5371367379
 10
-19.7866313412
 20
-31.5700675189
 10
-19.9296842047
 20
-31.6028683806
 10
-20.0657694466
 20
-31.6351546259
 10
-20.1944792699
 20
-31.6668466719
 10
-20.3161844359
 20
-31.6980437025
 10
-20.4304727155
 20
-31.7286365746
 10
-20.5373766782
 20
-31.7586112173
 10
-20.637179166
 20
-31.7880144491
 10
-20.7300085579
 20
-31.8168425724
 10
-20.8160399199
 20
-31.8450954563
 10
-20.8956370922
 20
-31.8728295324
 10
-20.9692849761
 20
-31.9001515076
 10
-21.0371532605
 20
-31.9270575237
 10
-21.0996848481
 20
-31.9536509359
 10
-21.157731704
 20
-31.9802502069
 10
-21.2115679633
 20
-32.0069692316
 10
-21.2613676944
 20
-32.033887805
 10
-21.3077370601
 20
-32.0613625017
 10
-21.350749521
 20
-32.0895090925
 10
-21.390594966
 20
-32.1185503697
 10
-21.4278967351
 20
-32.14916044
 10
-21.4624895428
 20
-32.1815691823
 10
-21.4942643174
 20
-32.2161328814
 10
-21.523589941
 20
-32.253936672
 10
-21.5503596696
 20
-32.296081803
 10
-21.5732772146
 20
-32.3421425389
 10
-21.5909584215
 20
-32.3906325411
 10
-21.6027820079
 20
-32.4407106908
 10
-21.6083966113
 20
-32.4924788568
 10
-21.608767948
 20
-32.5099643773
  0
LINE
  5
65F
100
AcDbEntity
  8
0
100
AcDbLine
 62
7
  6
CONTINUOUS
 10
-19.1750671059
 20
-32.0407264632
 11
-18.8744335229
 21
-31.9793647172
  0
LINE
  5
660
100
AcDbEntity
  8
0
100
AcDbLine
 62
7
  6
CONTINUOUS
 10
-17.0519198176
 20
-31.6231939846
 11
-16.7482481516
 21
-31.5613746021
  0
LINE
  5
661
100
AcDbEntity
  8
0
100
AcDbLine
 62
7
  6
CONTINUOUS
 10
-16.9385391942
 20
-30.9990935
 11
-17.1999437409
 21
-31.0520088412
  0
LINE
  5
662
100
AcDbEntity
  8
0
100
AcDbLine
 62
7
  6
CONTINUOUS
 10
-18.8467176574
 20
-31.3730716889
 11
-19.1686397031
 21
-31.4378921953
  0
LINE
  5
663
100
AcDbEntity
  8
0
100
AcDbLine
 62
7
  6
CONTINUOUS
 10
-18.8744335229
 20
-31.9793647172
 11
-18.5551956918
 21
-31.9160437277
  0
LINE
  5
664
100
AcDbEntity
  8
0
100
AcDbLine
 62
7
  6
CONTINUOUS
 10
-17.3738573265
 20
-31.6869416679
 11
-17.0519198176
 21
-31.6231939846
  0
LINE
  5
665
100
AcDbEntity
  8
0
100
AcDbLine
 62
7
  6
CONTINUOUS
 10
-17.1999437409
 20
-31.0520088412
 11
-17.4750383049
 21
-31.1064296757
  0
LINE
  5
666
100
AcDbEntity
  8
0
100
AcDbLine
 62
7
  6
CONTINUOUS
 10
-18.3698317075
 20
-31.2797220941
 11
-18.8467176574
 21
-31.3730716889
  0
LWPOLYLINE
  5
667
100
AcDbEntity
  8
0
100
AcDbPolyline
 62
7
  6
CONTINUOUS
 90
3
 70
0
 10
-17.4750383049
 20
-31.1064296757
 10
-17.9106437962
 20
-31.1910545231
 10
-18.3698317075
 20
-31.2797220941
  0
LINE
  5
668
100
AcDbEntity
  8
0
100
AcDbLine
 62
7
  6
CONTINUOUS
 10
-18.5551956918
 20
-31.9160437277
 11
-17.3738573265
 21
-31.6869416679
  0
LWPOLYLINE
  5
669
100
AcDbEntity
  8
0
100
AcDbPolyline
 62
7
  6
CONTINUOUS
 90
10
 70
0
 10
-24.0190169602
 20
-33.2080438561
 10
-24.073921098
 20
-33.2176970513
 10
-24.1249403518
 20
-33.2300070819
 10
-24.1720747216
 20
-33.2449739477
 10
-24.2149186125
 20
-33.2626251087
 10
-24.2538776194
 20
-33.282933105
 10
-24.2901685271
 20
-33.3058155568
 10
-24.3241969308
 20
-33.331245004
 10
-24.3555572353
 20
-33.3592489068
 10
-24.3842494408
 20
-33.389827265
  0
LINE
  5
66A
100
AcDbEntity
  8
IMPORT_IGES
100
AcDbLine
 62
7
  6
CONTINUOUS
 10
37.1761251414
 20
-26.0234748601
 11
37.7004863307
 21
-26.0234748601
  0
LINE
  5
66B
100
AcDbEntity
  8
IMPORT_IGES
100
AcDbLine
 62
7
  6
CONTINUOUS
 10
39.3819436924
 20
-26.0234748601
 11
39.5063048817
 21
-26.0234748601
  0
LINE
  5
66C
100
AcDbEntity
  8
IMPORT_IGES
100
AcDbLine
 62
7
  6
CONTINUOUS
 10
39.5063048817
 20
-25.7534728601
 11
39.3819435653
 21
-25.7534728601
  0
LINE
  5
66D
100
AcDbEntity
  8
IMPORT_IGES
100
AcDbLine
 62
7
  6
CONTINUOUS
 10
37.7004864578
 20
-25.7534728601
 11
37.1761251414
 21
-25.7534728601
  0
LINE
  5
66E
100
AcDbEntity
  8
DRAFT
100
AcDbLine
 62
7
  6
CONTINUOUS
 10
39.5063048817
 20
-24.9883837879
 11
37.1761251414
 21
-24.9883837879
  0
LINE
  5
66F
100
AcDbEntity
  8
DRAFT
100
AcDbLine
 62
7
  6
CONTINUOUS
 10
34.1063048817
 20
-24.9883837879
 11
31.7761251414
 21
-24.9883837879
  0
LINE
  5
670
100
AcDbEntity
  8
DRAFT
100
AcDbLine
 62
7
  6
CONTINUOUS
 10
20.9761251414
 20
-24.9883837879
 11
23.3063048817
 21
-24.9883837879
  0
LINE
  5
671
100
AcDbEntity
  8
DRAFT
100
AcDbLine
 62
7
  6
CONTINUOUS
 10
26.3761251414
 20
-24.9883837879
 11
28.7063048817
 21
-24.9883837879
  0
LINE
  5
672
100
AcDbEntity
  8
DRAFT
100
AcDbLine
 62
7
  6
CONTINUOUS
 10
-31.7936951183
 20
-24.9883837879
 11
-34.1238748586
 21
-24.9883837879
  0
LINE
  5
673
100
AcDbEntity
  8
DRAFT
100
AcDbLine
 62
7
  6
CONTINUOUS
 10
-37.1936951183
 20
-24.9883837879
 11
-39.5238748586
 21
-24.9883837879
  0
LINE
  5
674
100
AcDbEntity
  8
DRAFT
100
AcDbLine
 62
7
  6
CONTINUOUS
 10
-26.1587849885
 20
-24.953473658
 11
-9.8587849885
 21
-24.953473658
  0
LINE
  5
675
100
AcDbEntity
  8
DRAFT
100
AcDbLine
 62
7
  6
CONTINUOUS
 10
-9.963515378
 20
-24.353473658
 11
-10.2087849885
 21
-24.353473658
  0
LINE
  5
676
100
AcDbEntity
  8
DRAFT
100
AcDbLine
 62
7
  6
CONTINUOUS
 10
-25.8087849885
 20
-24.353473658
 11
-26.0540545989
 21
-24.353473658
  0
LINE
  5
677
100
AcDbEntity
  8
IMPORT_IGES
100
AcDbLine
 62
253
  6
CONTINUOUS
 10
-38.2267690238
 20
32.3380166455
 11
-38.9542930729
 21
35.0531684391
  0
LINE
  5
678
100
AcDbEntity
  8
IMPORT_IGES
100
AcDbLine
 62
7
  6
CONTINUOUS
 10
-37.8225632158
 20
32.32018799
 11
-38.5718436206
 21
35.1165368912
  0
LINE
  5
679
100
AcDbEntity
  8
IMPORT_IGES
100
AcDbLine
 62
7
  6
CONTINUOUS
 10
-37.2544655374
 20
32.4068698561
 11
-38.014962037
 21
35.2450804274
  0
LWPOLYLINE
  5
67A
100
AcDbEntity
  8
RACCORDO
100
AcDbPolyline
 62
253
  6
CONTINUOUS
 90
19
 70
0
 10
-22.0087849885
 20
-38.6971570187
 10
-22.009926579
 20
-38.6710142782
 10
-22.0133426626
 20
-38.6450704997
 10
-22.0190072406
 20
-38.619523131
 10
-22.0268772022
 20
-38.5945666031
 10
-22.0368926524
 20
-38.5703908503
 10
-22.0489773673
 20
-38.5471798645
 10
-22.0630393752
 20
-38.5251102954
 10
-22.0789716555
 20
-38.5043501057
 10
-22.0966529541
 20
-38.4850572931
 10
-22.1159487056
 20
-38.4673786875
 10
-22.1367120576
 20
-38.4514488337
 10
-22.1587849885
 20
-38.4373889676
 10
-22.18199951
 20
-38.4253060931
 10
-22.2061789455
 20
-38.4152921684
 10
-22.2311392749
 20
-38.4074234054
 10
-22.2566905352
 20
-38.4017596901
 10
-22.2826382657
 20
-38.3983441269
 10
-22.3087849885
 20
-38.3972027102
  0
LWPOLYLINE
  5
67B
100
AcDbEntity
  8
0
100
AcDbPolyline
 62
7
  6
CONTINUOUS
 90
10
 70
0
 10
-22.4746785774
 20
-33.7987668938
 10
-22.4760342214
 20
-33.7573399683
 10
-22.4794483132
 20
-33.7175103043
 10
-22.4849208527
 20
-33.6792779019
 10
-22.4924538789
 20
-33.6428813018
 10
-22.5020453529
 20
-33.6080819633
 10
-22.5136891576
 20
-33.5741642637
 10
-22.5273832539
 20
-33.5408896621
 10
-22.5431296808
 20
-33.5084966994
 10
-22.5609284385
 20
-33.4769853756
  0
LWPOLYLINE
  5
67C
100
AcDbEntity
  8
0
100
AcDbPolyline
 62
7
  6
CONTINUOUS
 90
23
 70
0
 10
-21.6087828321
 20
-36.5092996398
 10
-21.6082618253
 20
-36.5303388992
 10
-21.6022505702
 20
-36.5822859065
 10
-21.5899079723
 20
-36.632806376
 10
-21.5714256037
 20
-36.6820878676
 10
-21.5473513867
 20
-36.7291408709
 10
-21.519210492
 20
-36.7721602683
 10
-21.4883530637
 20
-36.8107183789
 10
-21.4548408261
 20
-36.845991952
 10
-21.4184719785
 20
-36.8789350258
 10
-21.3794251349
 20
-36.9099175847
 10
-21.3378781167
 20
-36.9392146902
 10
-21.2934070661
 20
-36.9674034579
 10
-21.2459368907
 20
-36.9947018352
 10
-21.1954553049
 20
-37.0212530293
 10
-21.1415830056
 20
-37.0473498779
 10
-21.0842032923
 20
-37.0731059289
 10
-21.0232516354
 20
-37.0985971083
 10
-20.9584717428
 20
-37.1239639462
 10
-20.8898156774
 20
-37.1492485186
 10
-20.8171952451
 20
-37.1745045083
 10
-20.740341788
 20
-37.1998385994
 10
-20.6970858813
 20
-37.2133995012
  0
LWPOLYLINE
  5
67D
100
AcDbEntity
  8
0
100
AcDbPolyline
 62
7
  6
CONTINUOUS
 90
34
 70
0
 10
-21.6087824122
 20
-32.5092337515
 10
-21.6084419633
 20
-32.5264308506
 10
-21.6033206266
 20
-32.5760875162
 10
-21.5919629278
 20
-32.6259611801
 10
-21.5738352227
 20
-32.6765459613
 10
-21.5490046525
 20
-32.7262833465
 10
-21.5192286895
 20
-32.7721344739
 10
-21.4859486173
 20
-32.8134464757
 10
-21.4489882589
 20
-32.8516175115
 10
-21.4083987102
 20
-32.8873060039
 10
-21.3644538988
 20
-32.9208554628
 10
-21.3171473512
 20
-32.9527121024
 10
-21.2659865198
 20
-32.9834793641
 10
-21.210814443
 20
-33.0134106218
 10
-21.1515286954
 20
-33.0426831115
 10
-21.0877222247
 20
-33.0715784345
 10
-21.0191933658
 20
-33.1002342064
 10
-20.9458508059
 20
-33.1287258651
 10
-20.867596274
 20
-33.1571253788
 10
-20.784445031
 20
-33.1854608767
 10
-20.6962717387
 20
-33.2138070521
 10
-20.6028976737
 20
-33.2422464565
 10
-20.5043162624
 20
-33.2708038225
 10
-20.4005267932
 20
-33.2995040784
 10
-20.2914234722
 20
-33.3284010011
 10
-20.1770308653
 20
-33.3575130655
 10
-20.0574319515
 20
-33.3868475454
 10
-19.9326617798
 20
-33.4164273184
 10
-19.8027456497
 20
-33.4462800045
 10
-19.6679060044
 20
-33.476392118
 10
-19.5285483199
 20
-33.5067176241
 10
-19.3846351071
 20
-33.5373129203
 10
-19.2366372394
 20
-33.568129798
 10
-18.9325479821
 20
-33.6298209698
  0
LINE
  5
67E
100
AcDbEntity
  8
RACCORDO
100
AcDbLine
 62
253
  6
CONTINUOUS
 10
-23.4502097725
 20
-46.2828439876
 11
-23.4502097725
 21
-44.8533975056
  0
LINE
  5
67F
100
AcDbEntity
  8
0
100
AcDbLine
 62
7
  6
CONTINUOUS
 10
-23.3559882432
 20
-30.6473343796
 11
-23.3559882432
 21
-31.4017684883
  0
LINE
  5
680
100
AcDbEntity
  8
DRAFT
100
AcDbLine
 62
7
  6
CONTINUOUS
 10
-23.3453270664
 20
-45.553473658
 11
-23.3453270664
 21
-44.8876505412
  0
LINE
  5
681
100
AcDbEntity
  8
0
100
AcDbLine
 62
7
  6
CONTINUOUS
 10
-23.1090578228
 20
-31.4017684883
 11
-23.1090578228
 21
-30.6473343796
  0
LINE
  5
682
100
AcDbEntity
  8
RACCORDO
100
AcDbLine
 62
7
  6
CONTINUOUS
 10
-23.0087849885
 20
-49.353504119
 11
-23.0087849885
 21
-44.853473658
  0
LINE
  5
683
100
AcDbEntity
  8
0
100
AcDbLine
 62
7
  6
CONTINUOUS
 10
-22.7448013663
 20
-29.253473658
 11
-22.7448013663
 21
-30.1343739456
  0
LINE
  5
684
100
AcDbEntity
  8
0
100
AcDbLine
 62
7
  6
CONTINUOUS
 10
-22.7448013663
 20
-34.745561046
 11
-22.7448013663
 21
-35.7264613933
  0
LINE
  5
685
100
AcDbEntity
  8
0
100
AcDbLine
 62
7
  6
CONTINUOUS
 10
-22.5087849885
 20
-36.067525526
 11
-22.5087849885
 21
-34.745561046
  0
LINE
  5
686
100
AcDbEntity
  8
0
100
AcDbLine
 62
7
  6
CONTINUOUS
 10
-22.5087849885
 20
-32.632327599
 11
-22.5087849885
 21
-32.3799403137
  0
LINE
  5
687
100
AcDbEntity
  8
0
100
AcDbLine
 62
7
  6
CONTINUOUS
 10
-22.5087849885
 20
-30.4754383988
 11
-22.5087849885
 21
-29.253473658
  0
LINE
  5
688
100
AcDbEntity
  8
RACCORDO
100
AcDbLine
 62
253
  6
CONTINUOUS
 10
-22.3087849885
 20
-38.3699240145
 11
-22.3087849885
 21
-42.353473658
  0
LINE
  5
689
100
AcDbEntity
  8
RACCORDO
100
AcDbLine
 62
7
  6
CONTINUOUS
 10
-22.2587849885
 20
-29.353443197
 11
-22.2587849885
 21
-38.353473658
  0
LINE
  5
68A
100
AcDbEntity
  8
RACCORDO
100
AcDbLine
 62
7
  6
CONTINUOUS
 10
-22.0087849885
 20
-41.7101215819
 11
-22.0087849885
 21
-38.6724319553
  0
LINE
  5
68B
100
AcDbEntity
  8
CURVE
100
AcDbLine
 62
2
  6
CONTINUOUS
 10
-21.7037849885
 20
-29.253473658
 11
-21.7037849885
 21
-35.053473658
  0
LINE
  5
68C
100
AcDbEntity
  8
DRAFT
100
AcDbLine
 62
7
  6
CONTINUOUS
 10
-21.6295583865
 20
-38.1976174502
 11
-21.6295583865
 21
-29.4093298658
  0
LINE
  5
68D
100
AcDbEntity
  8
RACCORDO
100
AcDbLine
 62
7
  6
CONTINUOUS
 10
-21.1587849885
 20
-44.953932248
 11
-21.1587849885
 21
-46.853015068
  0
LINE
  5
68E
100
AcDbEntity
  8
RACCORDO
100
AcDbLine
 62
7
  6
CONTINUOUS
 10
-20.7587849885
 20
-38.353473658
 11
-20.7587849885
 21
-37.453473658
  0
LINE
  5
68F
100
AcDbEntity
  8
RACCORDO
100
AcDbLine
 62
7
  6
CONTINUOUS
 10
-20.7587849885
 20
-30.453473658
 11
-20.7587849885
 21
-29.353443197
  0
LWPOLYLINE
  5
690
100
AcDbEntity
  8
0
100
AcDbPolyline
 62
7
  6
CONTINUOUS
 90
10
 70
0
 10
-22.6765885293
 20
-33.8028598255
 10
-22.6773495916
 20
-33.8268321231
 10
-22.6795454303
 20
-33.8503927117
 10
-22.6831760455
 20
-33.8735415912
 10
-22.6881963498
 20
-33.8961847293
 10
-22.6946514305
 20
-33.9184161583
 10
-22.7026765494
 20
-33.9405179753
 10
-22.7123167938
 20
-33.9625842124
 10
-22.7235270764
 20
-33.9845208374
 10
-22.7363073972
 20
-34.0063278502
  0
LWPOLYLINE
  5
691
100
AcDbEntity
  8
0
100
AcDbPolyline
 62
7
  6
CONTINUOUS
 90
10
 70
0
 10
-24.3136963635
 20
-29.7851245827
 10
-24.311906376
 20
-29.7461701588
 10
-24.3077378695
 20
-29.7096297647
 10
-24.3011908442
 20
-29.6755034003
 10
-24.2922363544
 20
-29.6440800457
 10
-24.2809033457
 20
-29.6150707209
 10
-24.2672786546
 20
-29.5876084856
 10
-24.2513912265
 20
-29.5614043597
 10
-24.233212116
 20
-29.5367473233
 10
-24.2127413231
 20
-29.5136373764
  0
LWPOLYLINE
  5
692
100
AcDbEntity
  8
0
100
AcDbPolyline
 62
7
  6
CONTINUOUS
 90
10
 70
0
 10
-24.3136963635
 20
-35.3772117323
 10
-24.3119063658
 20
-35.3382573094
 10
-24.3077378463
 20
-35.3017169134
 10
-24.3011908051
 20
-35.2675905442
 10
-24.292236289
 20
-35.2361671701
 10
-24.2809032512
 20
-35.2071578228
 10
-24.2672785513
 20
-35.1796955977
 10
-24.2513911423
 20
-35.1534915264
 10
-24.2332120712
 20
-35.1288345772
 10
-24.212741338
 20
-35.1057247502
  0
LWPOLYLINE
  5
693
100
AcDbEntity
  8
0
100
AcDbPolyline
 62
7
  6
CONTINUOUS
 90
10
 70
0
 10
-24.3150605946
 20
-33.7905815071
 10
-24.313475308
 20
-33.7580296034
 10
-24.3094290915
 20
-33.7270068756
 10
-24.3029219449
 20
-33.6975133236
 10
-24.2940616362
 20
-33.6698032415
 10
-24.2827403975
 20
-33.6436223352
 10
-24.2686349255
 20
-33.6182077232
 10
-24.2516374523
 20
-33.5933051115
 10
-24.2318557457
 20
-33.5691687942
 10
-24.2092898058
 20
-33.545798771
  0
LWPOLYLINE
  5
694
100
AcDbEntity
  8
0
100
AcDbPolyline
 62
7
  6
CONTINUOUS
 90
10
 70
0
 10
-23.5892761737
 20
-33.8124096817
 10
-23.5874200951
 20
-33.7748825656
 10
-23.5827735771
 20
-33.7392315419
 10
-23.5753366195
 20
-33.7054566104
 10
-23.5652164107
 20
-33.6738579067
 10
-23.5523057623
 20
-33.6441352953
 10
-23.5362831093
 20
-33.61538837
 10
-23.5170412633
 20
-33.5873169955
 10
-23.4946874126
 20
-33.5602213072
 10
-23.4692215572
 20
-33.534101305
  0
LINE
  5
695
100
AcDbEntity
  8
DRAFT
100
AcDbLine
 62
7
  6
CONTINUOUS
 10
-26.0540545989
 20
-24.353473658
 11
-26.1099108067
 21
-24.953473658
  0
LINE
  5
696
100
AcDbEntity
  8
0
100
AcDbLine
 62
7
  6
CONTINUOUS
 10
-23.938525775
 20
-30.4290535874
 11
-23.9126049071
 21
-30.1766660637
  0
LINE
  5
697
100
AcDbEntity
  8
0
100
AcDbLine
 62
7
  6
CONTINUOUS
 10
-23.938525775
 20
-36.0211408115
 11
-23.9126049071
 21
-35.7687533623
  0
LINE
  5
698
100
AcDbEntity
  8
DRAFT
100
AcDbLine
 62
7
  6
CONTINUOUS
 10
12.4494364141
 20
42.946526342
 11
12.3412150115
 21
42.8383049394
  0
LINE
  5
699
100
AcDbEntity
  8
DRAFT
100
AcDbLine
 62
7
  6
CONTINUOUS
 10
-10.2087849885
 20
-21.753473658
 11
-25.8087849885
 21
-21.753473658
  0
LINE
  5
69A
100
AcDbEntity
  8
RACCORDO
100
AcDbLine
 62
253
  6
CONTINUOUS
 10
-53.6380791656
 20
-20.5448222896
 11
-26.1587849885
 21
-20.5448222896
  0
LINE
  5
69B
100
AcDbEntity
  8
RACCORDO
100
AcDbLine
 62
253
  6
CONTINUOUS
 10
-9.8587849885
 20
-20.5448222896
 11
53.6205091887
 21
-20.5448222896
  0
LINE
  5
69C
100
AcDbEntity
  8
DRAFT
100
AcDbLine
 62
7
  6
CONTINUOUS
 10
-10.2471861313
 20
-20.153473658
 11
-25.7703838456
 21
-20.153473658
  0
LINE
  5
69D
100
AcDbEntity
  8
RACCORDO
100
AcDbLine
 62
253
  6
CONTINUOUS
 10
-53.1381553181
 20
-20.044898442
 11
-26.1502097725
 21
-20.044898442
  0
LINE
  5
69E
100
AcDbEntity
  8
RACCORDO
100
AcDbLine
 62
253
  6
CONTINUOUS
 10
-9.8673602045
 20
-20.044898442
 11
53.1205853411
 21
-20.044898442
  0
LINE
  5
69F
100
AcDbEntity
  8
RACCORDO
100
AcDbLine
 62
253
  6
CONTINUOUS
 10
-9.9583702484
 20
-19.953888398
 11
53.2115953851
 21
-19.953888398
  0
LINE
  5
6A0
100
AcDbEntity
  8
RACCORDO
100
AcDbLine
 62
253
  6
CONTINUOUS
 10
-26.0591997285
 20
-19.953888398
 11
-53.229165362
 21
-19.953888398
  0
LINE
  5
6A1
100
AcDbEntity
  8
RACCORDO
100
AcDbLine
 62
253
  6
CONTINUOUS
 10
-9.963515378
 20
-19.6539340895
 11
53.2115953851
 21
-19.6539340895
  0
LINE
  5
6A2
100
AcDbEntity
  8
RACCORDO
100
AcDbLine
 62
253
  6
CONTINUOUS
 10
-26.0540545989
 20
-19.6539340895
 11
-53.229165362
 21
-19.6539340895
  0
LINE
  5
6A3
100
AcDbEntity
  8
RACCORDO
100
AcDbLine
 62
7
  6
CONTINUOUS
 10
-9.8673602045
 20
-20.044898442
 11
-9.9583702484
 21
-19.953888398
  0
LINE
  5
6A4
100
AcDbEntity
  8
DRAFT
100
AcDbLine
 62
7
  6
CONTINUOUS
 10
-9.963515378
 20
-38.1976174502
 11
-9.9076591703
 21
-38.353473658
  0
LWPOLYLINE
  5
6A5
100
AcDbEntity
  8
0
100
AcDbPolyline
 62
7
  6
CONTINUOUS
 90
31
 70
0
 10
-14.4169173701
 20
-38.353473658
 10
-14.4190142102
 20
-38.3426020912
 10
-14.4299102184
 20
-38.3067523228
 10
-14.4442973763
 20
-38.2723704748
 10
-14.4610656607
 20
-38.241081141
 10
-14.4792762311
 20
-38.2132584126
 10
-14.498710642
 20
-38.1881798796
 10
-14.5190623415
 20
-38.1655253918
 10
-14.5398801617
 20
-38.1451854258
 10
-14.5610604567
 20
-38.1267180788
 10
-14.5829987116
 20
-38.1094252484
 10
-14.6057102203
 20
-38.0930823114
 10
-14.6290583091
 20
-38.0776122156
 10
-14.6533207139
 20
-38.0626999435
 10
-14.678531608
 20
-38.048236511
 10
-14.7046804977
 20
-38.0341538175
 10
-14.7319944373
 20
-38.0202752035
 10
-14.7605055206
 20
-38.0065469183
 10
-14.7902369327
 20
-37.992925506
 10
-14.8213947083
 20
-37.9792940402
 10
-14.8540341322
 20
-37.9656143728
 10
-14.8881681955
 20
-37.9518687148
 10
-14.9239308141
 20
-37.9379939275
 10
-14.9613684624
 20
-37.9239660138
 10
-15.0004966721
 20
-37.909773517
 10
-15.0413901734
 20
-37.8953844404
 10
-15.0840826093
 20
-37.8807829448
 10
-15.1285869995
 20
-37.8659603995
 10
-15.1749322297
 20
-37.8509027838
 10
-15.223138749
 20
-37.8355989343
 10
-15.2587849885
 20
-37.8245243938
  0
LWPOLYLINE
  5
6A6
100
AcDbEntity
  8
RACCORDO
100
AcDbPolyline
 62
253
  6
CONTINUOUS
 90
22
 70
0
 10
-12.5673602045
 20
-46.2828439876
 10
-12.5659514809
 20
-46.3201961146
 10
-12.5617559391
 20
-46.3573394342
 10
-12.5547970331
 20
-46.3940663066
 10
-12.5451136649
 20
-46.4301714198
 10
-12.5327599669
 20
-46.4654529375
 10
-12.5178049991
 20
-46.4997136278
 10
-12.5003323634
 20
-46.5327619651
 10
-12.4804397359
 20
-46.5644132014
 10
-12.4582383212
 20
-46.5944903988
 10
-12.4338522306
 20
-46.6228254186
 10
-12.4074177879
 20
-46.6492598612
 10
-12.3790827682
 20
-46.6736459519
 10
-12.3490055708
 20
-46.6958473666
 10
-12.3173543344
 20
-46.715739994
 10
-12.2843059971
 20
-46.7332126297
 10
-12.2500453069
 20
-46.7481675975
 10
-12.2147637891
 20
-46.7605212956
 10
-12.178658676
 20
-46.7702046638
 10
-12.1419318036
 20
-46.7771635697
 10
-12.1047884839
 20
-46.7813591116
 10
-12.0674363569
 20
-46.7827678352
  0
LWPOLYLINE
  5
6A7
100
AcDbEntity
  8
0
100
AcDbPolyline
 62
253
  6
CONTINUOUS
 90
18
 70
0
 10
-15.8335339862
 20
-38.653473658
 10
-15.8343880155
 20
-38.6250229331
 10
-15.8369084409
 20
-38.5968237203
 10
-15.8410328315
 20
-38.5691207599
 10
-15.8466962117
 20
-38.5421693203
 10
-15.8538377586
 20
-38.5162017112
 10
-15.8624067422
 20
-38.4914317926
 10
-15.8723565625
 20
-38.4680861968
 10
-15.883621734
 20
-38.4464413731
 10
-15.8961151678
 20
-38.4267723232
 10
-15.9097026119
 20
-38.4092345601
 10
-15.9242423319
 20
-38.3939101444
 10
-15.9395913968
 20
-38.3808901359
 10
-15.955596876
 20
-38.3702763072
 10
-15.9721146645
 20
-38.3621638047
 10
-15.9890183463
 20
-38.356646152
 10
-16.0061790695
 20
-38.3538308652
 10
-16.0185866699
 20
-38.3535425086
  0
LWPOLYLINE
  5
6A8
100
AcDbEntity
  8
0
100
AcDbPolyline
 62
7
  6
CONTINUOUS
 90
34
 70
0
 10
-14.4087874135
 20
-34.510733909
 10
-14.40913004
 20
-34.4935037051
 10
-14.4145628954
 20
-34.442027351
 10
-14.4263471746
 20
-34.3915172619
 10
-14.4444413295
 20
-34.3417987956
 10
-14.4684367607
 20
-34.2939312225
 10
-14.4969227792
 20
-34.2498140108
 10
-14.5286544206
 20
-34.2099165681
 10
-14.5636654682
 20
-34.173089966
 10
-14.6022654858
 20
-34.1383927403
 10
-14.6444715101
 20
-34.105394539
 10
-14.6902021523
 20
-34.0738499549
 10
-14.7398395262
 20
-34.043287888
 10
-14.7936220425
 20
-34.0134439826
 10
-14.8516743491
 20
-33.9841643697
 10
-14.9141341644
 20
-33.9553102139
 10
-14.9810533518
 20
-33.926796847
 10
-15.0526464213
 20
-33.8984834078
 10
-15.1291169611
 20
-33.8702556639
 10
-15.2104372931
 20
-33.8420934568
 10
-15.2967742242
 20
-33.8139103117
 10
-15.3885437526
 20
-33.7855551691
 10
-15.4858302111
 20
-33.7569943423
 10
-15.58865406
 20
-33.7282108581
 10
-15.6973209922
 20
-33.6991093033
 10
-15.8118654611
 20
-33.6696712494
 10
-15.9322617887
 20
-33.6398888243
 10
-16.0587029659
 20
-33.6096971155
 10
-16.1911815621
 20
-33.579078063
 10
-16.3295674427
 20
-33.5480354015
 10
-16.4738238731
 20
-33.5165447126
 10
-16.6240643253
 20
-33.4845445055
 10
-16.7798292355
 20
-33.4520884398
 10
-17.1046995711
 20
-33.3862393265
  0
LWPOLYLINE
  5
6A9
100
AcDbEntity
  8
0
100
AcDbPolyline
 62
7
  6
CONTINUOUS
 90
23
 70
0
 10
-14.4087866401
 20
-30.5106047621
 10
-14.4090402925
 20
-30.4958042245
 10
-14.4137795513
 20
-30.4468074017
 10
-14.4242229393
 20
-30.3988840107
 10
-14.4402515635
 20
-30.3518275448
 10
-14.4614253228
 20
-30.3065895539
 10
-14.4863999717
 20
-30.2649671476
 10
-14.5139736026
 20
-30.227434802
 10
-14.5440347838
 20
-30.19297589
 10
-14.5766622124
 20
-30.1608240147
 10
-14.6116141037
 20
-30.130696494
 10
-14.6487333566
 20
-30.1022891874
 10
-14.688467808
 20
-30.0749803752
 10
-14.7309192119
 20
-30.0485423872
 10
-14.7760620589
 20
-30.0228658468
 10
-14.8242479234
 20
-29.9976638766
 10
-14.8755873951
 20
-29.9728272834
 10
-14.9301758085
 20
-29.948269158
 10
-14.9883336344
 20
-29.9238218764
 10
-15.0500908282
 20
-29.8994599147
 10
-15.1156200808
 20
-29.8751043577
 10
-15.1854655357
 20
-29.8505595547
 10
-15.2587849885
 20
-29.8261224628
  0
LINE
  5
6AA
100
AcDbEntity
  8
RACCORDO
100
AcDbLine
 62
7
  6
CONTINUOUS
 10
-16.3953357072
 20
-44.8876505412
 11
-16.3953357072
 21
-44.853473658
  0
LINE
  5
6AB
100
AcDbEntity
  8
RACCORDO
100
AcDbLine
 62
7
  6
CONTINUOUS
 10
-15.2587849885
 20
-29.353443197
 11
-15.2587849885
 21
-30.453473658
  0
LINE
  5
6AC
100
AcDbEntity
  8
RACCORDO
100
AcDbLine
 62
7
  6
CONTINUOUS
 10
-15.2587849885
 20
-37.453473658
 11
-15.2587849885
 21
-38.301298233
  0
LINE
  5
6AD
100
AcDbEntity
  8
RACCORDO
100
AcDbLine
 62
7
  6
CONTINUOUS
 10
-15.1222342698
 20
-44.853473658
 11
-15.1222342698
 21
-44.8876505412
  0
LINE
  5
6AE
100
AcDbEntity
  8
RACCORDO
100
AcDbLine
 62
7
  6
CONTINUOUS
 10
-14.8587849885
 20
-46.853015068
 11
-14.8587849885
 21
-44.953932248
  0
LINE
  5
6AF
100
AcDbEntity
  8
DRAFT
100
AcDbLine
 62
7
  6
CONTINUOUS
 10
-14.3880115904
 20
-38.1976174502
 11
-14.3880115904
 21
-29.4093298658
  0
LINE
  5
6B0
100
AcDbEntity
  8
CURVE
100
AcDbLine
 62
252
  6
CONTINUOUS
 10
-14.3137849885
 20
-29.253473658
 11
-14.3137849885
 21
-38.053473658
  0
LINE
  5
6B1
100
AcDbEntity
  8
RACCORDO
100
AcDbLine
 62
7
  6
CONTINUOUS
 10
-14.0087849885
 20
-38.6724319553
 11
-14.0087849885
 21
-41.7101215819
  0
LWPOLYLINE
  5
6B2
100
AcDbEntity
  8
RACCORDO
100
AcDbPolyline
 62
253
  6
CONTINUOUS
 90
22
 70
0
 10
-53.1381553181
 20
-20.044898442
 10
-53.175507445
 20
-20.0463071656
 10
-53.2126507647
 20
-20.0505027074
 10
-53.2493776371
 20
-20.0574616134
 10
-53.2854827503
 20
-20.0671449816
 10
-53.320764268
 20
-20.0794986796
 10
-53.3550249583
 20
-20.0944536474
 10
-53.3880732956
 20
-20.1119262831
 10
-53.4197245319
 20
-20.1318189106
 10
-53.4498017293
 20
-20.1540203252
 10
-53.4781367491
 20
-20.1784064159
 10
-53.5045711917
 20
-20.2048408585
 10
-53.5289572824
 20
-20.2331758783
 10
-53.551158697
 20
-20.2632530757
 10
-53.5710513245
 20
-20.294904312
 10
-53.5885239602
 20
-20.3279526494
 10
-53.603478928
 20
-20.3622133396
 10
-53.6158326261
 20
-20.3974948574
 10
-53.6255159942
 20
-20.4335999705
 10
-53.6324749002
 20
-20.4703268429
 10
-53.636670442
 20
-20.5074701626
 10
-53.6380791656
 20
-20.5448222896
  0
LWPOLYLINE
  5
6B3
100
AcDbEntity
  8
RACCORDO
100
AcDbPolyline
 62
253
  6
CONTINUOUS
 90
25
 70
0
 10
-53.229165362
 20
-19.953888398
 10
-53.2606973426
 20
-19.9548775034
 10
-53.2920973115
 20
-19.9578519745
 10
-53.3232405427
 20
-19.9627988857
 10
-53.354011414
 20
-19.9696994928
 10
-53.3842796726
 20
-19.9785242989
 10
-53.4139023645
 20
-19.9892282183
 10
-53.4426623873
 20
-20.0017154527
 10
-53.470555711
 20
-20.0159665316
 10
-53.4977388638
 20
-20.0320882204
 10
-53.5241265501
 20
-20.0500988979
 10
-53.5495257856
 20
-20.0699394339
 10
-53.5738876131
 20
-20.0916563611
 10
-53.5971446713
 20
-20.1153136624
 10
-53.6190355768
 20
-20.1407792248
 10
-53.639244197
 20
-20.1677689011
 10
-53.6576387953
 20
-20.196146657
 10
-53.6741340011
 20
-20.2258246309
 10
-53.6885637702
 20
-20.2565255782
 10
-53.7008466186
 20
-20.2880460613
 10
-53.7109610655
 20
-20.3202955648
 10
-53.7188715555
 20
-20.3531460181
 10
-53.7245449563
 20
-20.386454148
 10
-53.7279553637
 20
-20.4200607055
 10
-53.7290892096
 20
-20.4538122456
  0
LWPOLYLINE
  5
6B4
100
AcDbEntity
  8
RACCORDO
100
AcDbPolyline
 62
253
  6
CONTINUOUS
 90
13
 70
0
 10
-53.229165362
 20
-19.6539340895
 10
-53.2749725953
 20
-19.6552780906
 10
-53.3203007085
 20
-19.6591582007
 10
-53.3651497018
 20
-19.6655744196
 10
-53.4096582958
 20
-19.6745704501
 10
-53.4536877699
 20
-19.6861025895
 10
-53.4968219614
 20
-19.70003973
 10
-53.5389873176
 20
-19.7163518508
 10
-53.5802573913
 20
-19.7350689727
 10
-53.6204366783
 20
-19.7561500494
 10
-53.6594600107
 20
-19.7795813989
 10
-53.6973925565
 20
-19.8053767033
 10
-53.7342343156
 20
-19.8335359624
  0
LINE
  5
6B5
100
AcDbEntity
  8
RACCORDO
100
AcDbLine
 62
253
  6
CONTINUOUS
 10
-25.795709522
 20
-17.3303139147
 11
-10.2218604549
 21
-17.3303139147
  0
LINE
  5
6B6
100
AcDbEntity
  8
RACCORDO
100
AcDbLine
 62
253
  6
CONTINUOUS
 10
-25.6794962213
 20
-17.0589390306
 11
-10.3380737557
 21
-17.0589390306
  0
LINE
  5
6B7
100
AcDbEntity
  8
RACCORDO
100
AcDbLine
 62
7
  6
CONTINUOUS
 10
-10.4087545275
 20
-17.053473658
 11
-25.6088154494
 21
-17.053473658
  0
LWPOLYLINE
  5
6B8
100
AcDbEntity
  8
RACCORDO
100
AcDbPolyline
 62
253
  6
CONTINUOUS
 90
25
 70
0
 10
53.2115953851
 20
-19.953888398
 10
53.2420582139
 20
-19.9548113381
 10
53.2722863884
 20
-19.9575733035
 10
53.3021706236
 20
-19.9621420831
 10
53.3315722681
 20
-19.9684710546
 10
53.3604231929
 20
-19.9765200335
 10
53.3887206455
 20
-19.9862751344
 10
53.4162641678
 20
-19.9976529788
 10
53.4430622424
 20
-20.0106425838
 10
53.4693909288
 20
-20.0254169251
 10
53.4951012409
 20
-20.0419754515
 10
53.5200740438
 20
-20.0603289632
 10
53.5445350521
 20
-20.0807960666
 10
53.5684763216
 20
-20.1036318827
 10
53.5914419276
 20
-20.1286876223
 10
53.6129663712
 20
-20.1556708447
 10
53.6328842822
 20
-20.1845566919
 10
53.6509788134
 20
-20.2152337504
 10
53.6668540001
 20
-20.2471468272
 10
53.6803716548
 20
-20.2799952756
 10
53.6915301038
 20
-20.3137477915
 10
53.7002571028
 20
-20.3481866334
 10
53.7065110243
 20
-20.3831202919
 10
53.7102697628
 20
-20.4183881
 10
53.7115192326
 20
-20.4538122456
  0
LWPOLYLINE
  5
6B9
100
AcDbEntity
  8
RACCORDO
100
AcDbPolyline
 62
253
  6
CONTINUOUS
 90
13
 70
0
 10
53.2115953851
 20
-19.6539340895
 10
53.2576625548
 20
-19.6553286797
 10
53.3031280476
 20
-19.6592325318
 10
53.3479918635
 20
-19.6656456456
 10
53.3923587502
 20
-19.6746167894
 10
53.4361239601
 20
-19.6860971951
 10
53.4789732494
 20
-19.699940558
 10
53.5207849009
 20
-19.7160534532
 10
53.5616806319
 20
-19.7345293056
 10
53.6017113509
 20
-19.755502086
 10
53.6408940272
 20
-19.7790164513
 10
53.6792116915
 20
-19.8050277446
 10
53.7166643437
 20
-19.8335359659
  0
LWPOLYLINE
  5
6BA
100
AcDbEntity
  8
RACCORDO
100
AcDbPolyline
 62
7
  6
CONTINUOUS
 90
10
 70
0
 10
-10.2192206867
 20
-17.1540519857
 10
-10.2317319282
 20
-17.1347868475
 10
-10.2449778525
 20
-17.1176437265
 10
-10.2589584595
 20
-17.1026634444
 10
-10.2744217745
 20
-17.0899072483
 10
-10.2906197723
 20
-17.0793470615
 10
-10.3053083769
 20
-17.0709259265
 10
-10.317739563
 20
-17.0646790268
 10
-10.328661356
 20
-17.0606733116
 10
-10.3380737557
 20
-17.0589390306
  0
LINE
  5
6BB
100
AcDbEntity
  8
DRAFT
100
AcDbLine
 62
7
  6
CONTINUOUS
 10
-9.963515378
 20
-24.353473658
 11
-9.9076591703
 21
-24.953473658
  0
LINE
  5
6BC
100
AcDbEntity
  8
RACCORDO
100
AcDbLine
 62
7
  6
CONTINUOUS
 10
-13.7587849885
 20
-38.353473658
 11
-13.7587849885
 21
-29.353443197
  0
LINE
  5
6BD
100
AcDbEntity
  8
RACCORDO
100
AcDbLine
 62
253
  6
CONTINUOUS
 10
-13.7087849885
 20
-38.3699240145
 11
-13.7087849885
 21
-42.353473658
  0
LINE
  5
6BE
100
AcDbEntity
  8
RACCORDO
100
AcDbLine
 62
7
  6
CONTINUOUS
 10
-13.0087849885
 20
-49.353504119
 11
-13.0087849885
 21
-44.853473658
  0
LINE
  5
6BF
100
AcDbEntity
  8
DRAFT
100
AcDbLine
 62
7
  6
CONTINUOUS
 10
-12.6722429105
 20
-44.8876505412
 11
-12.6722429105
 21
-45.553473658
  0
LINE
  5
6C0
100
AcDbEntity
  8
RACCORDO
100
AcDbLine
 62
253
  6
CONTINUOUS
 10
-12.5673602045
 20
-44.8533975056
 11
-12.5673602045
 21
-46.2828439876
  0
LINE
  5
6C1
100
AcDbEntity
  8
RACCORDO
100
AcDbLine
 62
253
  6
CONTINUOUS
 10
-12.0674363569
 20
-44.353473658
 11
-12.0674363569
 21
-46.7827678352
  0
LINE
  5
6C2
100
AcDbEntity
  8
DRAFT
100
AcDbLine
 62
7
  6
CONTINUOUS
 10
-10.2471861313
 20
-21.753473658
 11
-10.2471861313
 21
-20.153473658
  0
LINE
  5
6C3
100
AcDbEntity
  8
RACCORDO
100
AcDbLine
 62
7
  6
CONTINUOUS
 10
-10.2087849885
 20
-38.353473658
 11
-10.2087849885
 21
-29.253473658
  0
LINE
  5
6C4
100
AcDbEntity
  8
RACCORDO
100
AcDbLine
 62
7
  6
CONTINUOUS
 10
-10.2087849885
 20
-24.953473658
 11
-10.2087849885
 21
-17.253443197
  0
LINE
  5
6C5
100
AcDbEntity
  8
DRAFT
100
AcDbLine
 62
7
  6
CONTINUOUS
 10
-9.963515378
 20
-38.1976174502
 11
-9.963515378
 21
-29.4093298658
  0
LINE
  5
6C6
100
AcDbEntity
  8
RACCORDO
100
AcDbLine
 62
7
  6
CONTINUOUS
 10
-9.963515378
 20
-24.353473658
 11
-9.963515378
 21
-19.6539340895
  0
LINE
  5
6C7
100
AcDbEntity
  8
RACCORDO
100
AcDbLine
 62
7
  6
CONTINUOUS
 10
-9.8587849885
 20
-20.5448222896
 11
-9.8587849885
 21
-24.953473658
  0
LINE
  5
6C8
100
AcDbEntity
  8
RACCORDO
100
AcDbLine
 62
7
  6
CONTINUOUS
 10
-9.8587849885
 20
-29.2045994762
 11
-9.8587849885
 21
-38.6971570187
  0
LINE
  5
6C9
100
AcDbEntity
  8
RACCORDO
100
AcDbLine
 62
7
  6
CONTINUOUS
 10
-10.2471861313
 20
-20.153473658
 11
-10.2218604549
 21
-17.3303139147
  0
LINE
  5
6CA
100
AcDbEntity
  8
RACCORDO
100
AcDbLine
 62
7
  6
CONTINUOUS
 10
-12.6722429105
 20
-45.553473658
 11
-12.7024202885
 21
-46.4179040716
  0
LINE
  5
6CB
100
AcDbEntity
  8
DRAFT
100
AcDbLine
 62
7
  6
CONTINUOUS
 10
-26.0540545989
 20
-38.1976174502
 11
-26.1099108067
 21
-38.353473658
  0
LINE
  5
6CC
100
AcDbEntity
  8
IMPORT_IGES
100
AcDbLine
 62
7
  6
CONTINUOUS
 10
20.9758145315
 20
26.051440242
 11
21.1577420315
 21
26.172999562
  0
LWPOLYLINE
  5
6CD
100
AcDbEntity
  8
RACCORDO
100
AcDbPolyline
 62
7
  6
CONTINUOUS
 90
10
 70
0
 10
-25.6794962213
 20
-17.0589390306
 10
-25.6897304894
 20
-17.0608318038
 10
-25.7013169199
 20
-17.0651929938
 10
-25.714255513
 20
-17.0719167991
 10
-25.729358609
 20
-17.0809054335
 10
-25.7458138674
 20
-17.0920267062
 10
-25.7611842669
 20
-17.1050778304
 10
-25.774657467
 20
-17.1198655151
 10
-25.7870458081
 20
-17.1362451316
 10
-25.7983492903
 20
-17.1540519857
  0
LINE
  5
6CE
100
AcDbEntity
  8
RACCORDO
100
AcDbLine
 62
253
  6
CONTINUOUS
 10
-4.9116106148
 20
-47.1005566163
 11
-4.9116106148
 21
-47.1005109434
  0
LINE
  5
6CF
100
AcDbEntity
  8
RACCORDO
100
AcDbLine
 62
253
  6
CONTINUOUS
 10
-4.9116106148
 20
42.9935636274
 11
-4.9116106148
 21
42.9936093178
  0
LINE
  5
6D0
100
AcDbEntity
  8
RACCORDO
100
AcDbLine
 62
253
  6
CONTINUOUS
 10
-53.9087849885
 20
-46.5535498104
 11
-53.6380791656
 21
-46.2828439876
  0
LINE
  5
6D1
100
AcDbEntity
  8
RACCORDO
100
AcDbLine
 62
253
  6
CONTINUOUS
 10
-53.4088611409
 20
-47.053473658
 11
-53.1381553181
 21
-46.7827678352
  0
LINE
  5
6D2
100
AcDbEntity
  8
RACCORDO
100
AcDbLine
 62
7
  6
CONTINUOUS
 10
-26.1502097725
 20
-20.044898442
 11
-26.0591997285
 21
-19.953888398
  0
LINE
  5
6D3
100
AcDbEntity
  8
IMPORT_IGES
100
AcDbLine
 62
7
  6
CONTINUOUS
 10
32.3194610025
 20
21.9044883012
 11
32.1574126915
 21
21.836297542
  0
LINE
  5
6D4
100
AcDbEntity
  8
IMPORT_IGES
100
AcDbLine
 62
7
  6
CONTINUOUS
 10
37.217646158
 20
21.8591685755
 11
37.1761251414
 21
21.8453293527
  0
LINE
  5
6D5
100
AcDbEntity
  8
RACCORDO
100
AcDbLine
 62
253
  6
CONTINUOUS
 10
-53.6380791656
 20
42.1758966716
 11
-53.9087849885
 21
42.4466024944
  0
LINE
  5
6D6
100
AcDbEntity
  8
RACCORDO
100
AcDbLine
 62
253
  6
CONTINUOUS
 10
-53.1381553181
 20
42.6758205192
 11
-53.4088611409
 21
42.946526342
  0
LINE
  5
6D7
100
AcDbEntity
  8
DRAFT
100
AcDbLine
 62
7
  6
CONTINUOUS
 10
-9.9076591703
 20
-29.253473658
 11
-9.963515378
 21
-29.4093298658
  0
LWPOLYLINE
  5
6D8
100
AcDbEntity
  8
0
100
AcDbPolyline
 62
7
  6
CONTINUOUS
 90
10
 70
0
 10
-22.7363073972
 20
-34.0063278502
 10
-22.7503270951
 20
-34.0270819527
 10
-22.7656593414
 20
-34.0468134615
 10
-22.7823041361
 20
-34.0655223768
 10
-22.8001091422
 20
-34.0831522572
 10
-22.8192266966
 20
-34.099759544
 10
-22.8401138109
 20
-34.1155135607
 10
-22.862922822
 20
-34.1304707483
 10
-22.8875013929
 20
-34.1445746658
 10
-22.9138495235
 20
-34.1578253131
  0
LINE
  5
6D9
100
AcDbEntity
  8
DRAFT
100
AcDbLine
 62
7
  6
CONTINUOUS
 10
40.7494364141
 20
42.946526342
 11
40.6412150115
 21
42.8383049394
  0
LINE
  5
6DA
100
AcDbEntity
  8
IMPORT_IGES
100
AcDbLine
 62
7
  6
CONTINUOUS
 10
32.5206149115
 20
22.936612842
 11
32.3386874115
 21
22.815053522
  0
LINE
  5
6DB
100
AcDbEntity
  8
IMPORT_IGES
100
AcDbLine
 62
7
  6
CONTINUOUS
 10
32.9498139515
 20
21.900440162
 11
33.1317414515
 21
22.021999482
  0
LINE
  5
6DC
100
AcDbEntity
  8
RACCORDO
100
AcDbLine
 62
253
  6
CONTINUOUS
 10
4.8940406378
 20
-47.1005566163
 11
4.8940406378
 21
-47.1005109434
  0
LINE
  5
6DD
100
AcDbEntity
  8
RACCORDO
100
AcDbLine
 62
253
  6
CONTINUOUS
 10
4.8940406378
 20
42.9935636274
 11
4.8940406378
 21
42.9936093026
  0
LINE
  5
6DE
100
AcDbEntity
  8
IMPORT_IGES
100
AcDbLine
 62
7
  6
CONTINUOUS
 10
21.1577420315
 20
26.172999562
 11
21.2793013515
 21
26.354927062
  0
LWPOLYLINE
  5
6DF
100
AcDbEntity
  8
0
100
AcDbPolyline
 62
7
  6
CONTINUOUS
 90
29
 70
0
 10
-21.0333349111
 20
-32.5927888854
 10
-21.0339198129
 20
-32.5935471591
 10
-21.0337297311
 20
-32.5933976057
 10
-21.028702093
 20
-32.5885555671
 10
-21.0191494299
 20
-32.5805848499
 10
-21.004746703
 20
-32.5699999976
 10
-20.9848688792
 20
-32.5569694397
 10
-20.9598186405
 20
-32.5421623277
 10
-20.929422034
 20
-32.5258023116
 10
-20.8934413376
 20
-32.5080331898
 10
-20.8521876704
 20
-32.4892122315
 10
-20.8055995681
 20
-32.4694559961
 10
-20.7535256972
 20
-32.4488227497
 10
-20.6961476535
 20
-32.42748011
 10
-20.6334383723
 20
-32.4054883343
 10
-20.5652986293
 20
-32.3828715801
 10
-20.4917800586
 20
-32.3596943624
 10
-20.4128721059
 20
-32.3359889371
 10
-20.328517914
 20
-32.3117662876
 10
-20.2386722824
 20
-32.287035561
 10
-20.1433797017
 20
-32.2618241426
 10
-20.0425913622
 20
-32.2361281173
 10
-19.9360841111
 20
-32.2098975572
 10
-19.8239000794
 20
-32.1831462975
 10
-19.7060474377
 20
-32.1558734799
 10
-19.5822079336
 20
-32.1280002161
 10
-19.4523408232
 20
-32.0995094795
 10
-19.3166252184
 20
-32.0704253533
 10
-19.1750671059
 20
-32.0407264632
  0
LWPOLYLINE
  5
6E0
100
AcDbEntity
  8
0
100
AcDbPolyline
 62
7
  6
CONTINUOUS
 90
10
 70
0
 10
-24.3842494408
 20
-33.389827265
 10
-24.4108666155
 20
-33.4227402234
 10
-24.4345730769
 20
-33.4578530196
 10
-24.4553688249
 20
-33.4951656538
 10
-24.473329701
 20
-33.5342952861
 10
-24.4883798637
 20
-33.5756247563
 10
-24.5002917888
 20
-33.6203025836
 10
-24.5089896347
 20
-33.6687116075
 10
-24.514549243
 20
-33.7204689885
 10
-24.5169706136
 20
-33.7755747265
  0
LWPOLYLINE
  5
6E1
100
AcDbEntity
  8
0
100
AcDbPolyline
 62
7
  6
CONTINUOUS
 90
10
 70
0
 10
-24.3573526246
 20
-29.3240057415
 10
-24.388411269
 20
-29.3590856647
 10
-24.4162898079
 20
-29.3976784471
 10
-24.4409882414
 20
-29.4397840887
 10
-24.4627075329
 20
-29.48490336
 10
-24.481246719
 20
-29.5335354905
 10
-24.4960029092
 20
-29.587178169
 10
-24.5067751399
 20
-29.6463306252
 10
-24.5137643747
 20
-29.7104936293
 10
-24.5169706136
 20
-29.7796671814
  0
LWPOLYLINE
  5
6E2
100
AcDbEntity
  8
0
100
AcDbPolyline
 62
7
  6
CONTINUOUS
 90
10
 70
0
 10
-24.3573524758
 20
-34.9160930327
 10
-24.3884111759
 20
-34.9511730036
 10
-24.4162897583
 20
-34.9897658244
 10
-24.4409882229
 20
-35.0318714952
 10
-24.46270753
 20
-35.0769907797
 10
-24.4812467193
 20
-35.1256229142
 10
-24.4960029104
 20
-35.1792656074
 10
-24.506775143
 20
-35.2384180956
 10
-24.5137643774
 20
-35.3025811426
 10
-24.5169706136
 20
-35.3717547483
  0
LWPOLYLINE
  5
6E3
100
AcDbEntity
  8
0
100
AcDbPolyline
 62
7
  6
CONTINUOUS
 90
10
 70
0
 10
-24.2127413231
 20
-29.5136373764
 10
-24.1889607442
 20
-29.4911488294
 10
-24.1644924904
 20
-29.4714502031
 10
-24.1393365618
 20
-29.4545414975
 10
-24.1137442394
 20
-29.4405370813
 10
-24.0874642421
 20
-29.4293225858
 10
-24.0597427264
 20
-29.420554905
 10
-24.0303284109
 20
-29.41411967
 10
-23.9994725769
 20
-29.4101312497
 10
-23.9671752244
 20
-29.4085896439
  0
LINE
  5
6E4
100
AcDbEntity
  8
IMPORT_IGES
100
AcDbLine
 62
7
  6
CONTINUOUS
 10
32.1574126915
 20
21.836297542
 11
32.0216319115
 21
21.732109282
  0
LINE
  5
6E5
100
AcDbEntity
  8
IMPORT_IGES
100
AcDbLine
 62
7
  6
CONTINUOUS
 10
37.4814424691
 20
21.9210266877
 11
37.6317426115
 21
22.021999482
  0
LINE
  5
6E6
100
AcDbEntity
  8
RACCORDO
100
AcDbLine
 62
253
  6
CONTINUOUS
 10
53.1205853411
 20
-46.7827678352
 11
53.3912911639
 21
-47.053473658
  0
LINE
  5
6E7
100
AcDbEntity
  8
RACCORDO
100
AcDbLine
 62
253
  6
CONTINUOUS
 10
53.6205091887
 20
-46.2828439876
 11
53.8912150115
 21
-46.5535498104
  0
LINE
  5
6E8
100
AcDbEntity
  8
DRAFT
100
AcDbLine
 62
7
  6
CONTINUOUS
 10
-15.0396956212
 20
-44.853473658
 11
-15.0567827613
 21
-44.8876505412
  0
LWPOLYLINE
  5
6E9
100
AcDbEntity
  8
0
100
AcDbPolyline
 62
7
  6
CONTINUOUS
 90
28
 70
0
 10
-21.0335913838
 20
-36.5931270831
 10
-21.0341231819
 20
-36.5938020287
 10
-21.0333523018
 20
-36.5930023003
 10
-21.0273490461
 20
-36.5873549287
 10
-21.0164002703
 20
-36.578460984
 10
-21.0001446715
 20
-36.5668515584
 10
-20.9779027356
 20
-36.5527021365
 10
-20.9499296704
 20
-36.536676564
 10
-20.9159911229
 20
-36.5189961255
 10
-20.8758189463
 20
-36.4998180691
 10
-20.8297177604
 20
-36.4795107492
 10
-20.7775821009
 20
-36.4581880411
 10
-20.719235917
 20
-36.4359137531
 10
-20.6548973883
 20
-36.4128755532
 10
-20.5845429753
 20
-36.3891397643
 10
-20.5080455746
 20
-36.3647253428
 10
-20.4254596922
 20
-36.3396987629
 10
-20.336892953
 20
-36.314125867
 10
-20.242181586
 20
-36.2879839182
 10
-20.1409011256
 20
-36.2611818361
 10
-20.0330612464
 20
-36.2337454623
 10
-19.918588734
 20
-36.2056707716
 10
-19.7968152515
 20
-36.1768087653
 10
-19.6672936719
 20
-36.1470711048
 10
-19.5304277416
 20
-36.1165571629
 10
-19.3868440633
 20
-36.0853931339
 10
-19.2362135568
 20
-36.0534828738
 10
-19.0791884032
 20
-36.0209296179
  0
LWPOLYLINE
  5
6EA
100
AcDbEntity
  8
0
100
AcDbPolyline
 62
7
  6
CONTINUOUS
 90
26
 70
0
 10
-14.9834258006
 20
-34.4261536254
 10
-14.9833767808
 20
-34.426091575
 10
-14.9869386344
 20
-34.4296661778
 10
-14.9967265501
 20
-34.4380656335
 10
-15.0122474399
 20
-34.4495898352
 10
-15.0337548807
 20
-34.4636754272
 10
-15.0619901428
 20
-34.4802016473
 10
-15.0968658378
 20
-34.4986323474
 10
-15.1385663423
 20
-34.518709425
 10
-15.187529015
 20
-34.5403436588
 10
-15.2441913702
 20
-34.5634595255
 10
-15.3091032381
 20
-34.5880356963
 10
-15.3824938406
 20
-34.6139433837
 10
-15.4644672059
 20
-34.6410455193
 10
-15.5557835238
 20
-34.6694381654
 10
-15.6563098578
 20
-34.6989472263
 10
-15.7645381449
 20
-34.7290692571
 10
-15.8803249927
 20
-34.759757504
 10
-16.0036493062
 20
-34.7910108857
 10
-16.1327171596
 20
-34.8224131989
 10
-16.266679212
 20
-34.8538320072
 10
-16.4056618203
 20
-34.8853726008
 10
-16.5491375956
 20
-34.9169881956
 10
-16.6965023925
 20
-34.9486233737
 10
-16.8475862895
 20
-34.980319967
 10
-17.0025497932
 20
-35.0121855554
  0
LWPOLYLINE
  5
6EB
100
AcDbEntity
  8
0
100
AcDbPolyline
 62
7
  6
CONTINUOUS
 90
28
 70
0
 10
-14.9834810312
 20
-30.4262307122
 10
-14.9832406582
 20
-30.4259389756
 10
-14.9845745197
 20
-30.4273556735
 10
-14.9902117763
 20
-30.4326280182
 10
-14.9999109802
 20
-30.4405643911
 10
-15.0139950003
 20
-30.4508006676
 10
-15.0330043722
 20
-30.4632091344
 10
-15.0566985429
 20
-30.4772329284
 10
-15.0852828833
 20
-30.4927053452
 10
-15.118926464
 20
-30.5094752614
 10
-15.1571537595
 20
-30.5271347055
 10
-15.199948558
 20
-30.5455662425
 10
-15.2474203763
 20
-30.5647250692
 10
-15.299195206
 20
-30.5843951793
 10
-15.3551662318
 20
-30.6044986235
 10
-15.4154107093
 20
-30.6250335144
 10
-15.4798285759
 20
-30.645942261
 10
-15.5483725825
 20
-30.6671941984
 10
-15.6210467609
 20
-30.6887797969
 10
-15.69786466
 20
-30.7106951539
 10
-15.7787896975
 20
-30.7329251848
 10
-15.8638017559
 20
-30.7554631732
 10
-15.9529729406
 20
-30.7783287052
 10
-16.0462711967
 20
-30.801515838
 10
-16.1436482269
 20
-30.8250180181
 10
-16.2451753251
 20
-30.8488597954
 10
-16.3508141507
 20
-30.8730413154
 10
-16.4604775638
 20
-30.8975549925
  0
LWPOLYLINE
  5
6EC
100
AcDbEntity
  8
0
100
AcDbPolyline
 62
7
  6
CONTINUOUS
 90
10
 70
0
 10
-23.6247467928
 20
-33.3458338059
 10
-23.6639390875
 20
-33.387088781
 10
-23.6981951424
 20
-33.4293107565
 10
-23.7275149575
 20
-33.4724997323
 10
-23.7516607536
 20
-33.5162351228
 10
-23.7708703099
 20
-33.5609375136
 10
-23.7858569643
 20
-33.6078686619
 10
-23.7968584961
 20
-33.6574491532
 10
-23.803637126
 20
-33.709258402
 10
-23.806192854
 20
-33.7632964081
  0
LINE
  5
6ED
100
AcDbEntity
  8
RACCORDO
100
AcDbLine
 62
253
  6
CONTINUOUS
 10
53.3912911639
 20
42.946526342
 11
53.1205853411
 21
42.6758205192
  0
LINE
  5
6EE
100
AcDbEntity
  8
RACCORDO
100
AcDbLine
 62
253
  6
CONTINUOUS
 10
53.8912150115
 20
42.4466024944
 11
53.6205091887
 21
42.1758966716
  0
LINE
  5
6EF
100
AcDbEntity
  8
RACCORDO
100
AcDbLine
 62
7
  6
CONTINUOUS
 10
-26.1536398589
 20
-38.3972027102
 11
-26.1099108067
 21
-38.353473658
  0
LWPOLYLINE
  5
6F0
100
AcDbEntity
  8
0
100
AcDbPolyline
 62
7
  6
CONTINUOUS
 90
10
 70
0
 10
-22.6994442463
 20
-34.2998420299
 10
-22.6521497998
 20
-34.2548919451
 10
-22.6105661178
 20
-34.2077263272
 10
-22.5746932003
 20
-34.1583451762
 10
-22.544705239
 20
-34.1073694247
 10
-22.5204280422
 20
-34.0541781401
 10
-22.5013390351
 20
-33.9969085246
 10
-22.4872640262
 20
-33.9349396453
 10
-22.4783772069
 20
-33.8688924351
 10
-22.4746785774
 20
-33.7987668938
  0
LWPOLYLINE
  5
6F1
100
AcDbEntity
  8
0
100
AcDbPolyline
 62
7
  6
CONTINUOUS
 90
10
 70
0
 10
-24.212741338
 20
-35.1057247502
 10
-24.1889606805
 20
-35.0832361712
 10
-24.1644923603
 20
-35.0635375175
 10
-24.1393363774
 20
-35.0466287892
 10
-24.1137440036
 20
-35.0326243544
 10
-24.087463967
 20
-35.0214098449
 10
-24.0597424524
 20
-35.0126421565
 10
-24.0303281878
 20
-35.0062069209
 10
-23.9994724451
 20
-35.0022185063
 10
-23.9671752244
 20
-35.0006769127
  0
LWPOLYLINE
  5
6F2
100
AcDbEntity
  8
0
100
AcDbPolyline
 62
7
  6
CONTINUOUS
 90
10
 70
0
 10
-24.2092898058
 20
-33.545798771
 10
-24.195699916
 20
-33.5338317441
 10
-24.179778139
 20
-33.5222178682
 10
-24.1615244745
 20
-33.5109571436
 10
-24.1410543111
 20
-33.4999963559
 10
-24.1182522604
 20
-33.4893887193
 10
-24.0927721571
 20
-33.4792938766
 10
-24.0644986129
 20
-33.4697650421
 10
-24.0335470163
 20
-33.4607490014
 10
-23.9999173671
 20
-33.4522457546
  0
LWPOLYLINE
  5
6F3
100
AcDbEntity
  8
0
100
AcDbPolyline
 62
7
  6
CONTINUOUS
 90
10
 70
0
 10
-23.4692215572
 20
-33.534101305
 10
-23.4444475593
 20
-33.51261535
 10
-23.4170483545
 20
-33.4933179778
 10
-23.387023943
 20
-33.4762091882
 10
-23.3546922459
 20
-33.4611378801
 10
-23.3197353421
 20
-33.4482551548
 10
-23.2811994675
 20
-33.4380143161
 10
-23.2387667011
 20
-33.4305664655
 10
-23.1927549639
 20
-33.4257605016
 10
-23.1431642562
 20
-33.4235964245
  0
LINE
  5
6F4
100
AcDbEntity
  8
0
100
AcDbLine
 62
7
  6
CONTINUOUS
 10
10.4912150115
 20
42.8383049394
 11
10.4912150115
 21
49.546526342
  0
LINE
  5
6F5
100
AcDbEntity
  8
0
100
AcDbLine
 62
7
  6
CONTINUOUS
 10
12.1912150115
 20
47.346526342
 11
12.1912150115
 21
42.8383049394
  0
LINE
  5
6F6
100
AcDbEntity
  8
IMPORT_IGES
100
AcDbLine
 62
7
  6
CONTINUOUS
 10
32.3386874115
 20
22.815053522
 11
32.2171280915
 21
22.633126022
  0
LINE
  5
6F7
100
AcDbEntity
  8
IMPORT_IGES
100
AcDbLine
 62
7
  6
CONTINUOUS
 10
32.0216319115
 20
21.732109282
 11
31.9174436515
 21
21.596331042
  0
LINE
  5
6F8
100
AcDbEntity
  8
IMPORT_IGES
100
AcDbLine
 62
7
  6
CONTINUOUS
 10
33.0074943709
 20
20.8814364719
 11
33.0220955081
 21
20.9004646877
  0
LINE
  5
6F9
100
AcDbEntity
  8
DRAFT
100
AcDbLine
 62
7
  6
CONTINUOUS
 10
-9.8587849885
 20
-29.2045994762
 11
-9.9076591703
 21
-29.253473658
  0
LWPOLYLINE
  5
6FA
100
AcDbEntity
  8
0
100
AcDbPolyline
 62
7
  6
CONTINUOUS
 90
4
 70
0
 10
-24.2759927398
 20
-29.253473658
 10
-24.2815976167
 20
-29.2572461548
 10
-24.3201618328
 20
-29.2884596791
 10
-24.3573526246
 20
-29.3240057415
  0
LINE
  5
6FB
100
AcDbEntity
  8
IMPORT_IGES
100
AcDbLine
 62
7
  6
CONTINUOUS
 10
32.7527838651
 20
21.8591685755
 11
32.9498139515
 21
21.900440162
  0
LINE
  5
6FC
100
AcDbEntity
  8
IMPORT_IGES
100
AcDbLine
 62
7
  6
CONTINUOUS
 10
37.2352155915
 20
22.979300082
 11
37.1761251414
 21
22.9675460565
  0
LWPOLYLINE
  5
6FD
100
AcDbEntity
  8
RACCORDO
100
AcDbPolyline
 62
253
  6
CONTINUOUS
 90
22
 70
0
 10
53.1205853411
 20
15.937951126
 10
53.1579374681
 20
15.9393598496
 10
53.1950807878
 20
15.9435553914
 10
53.2318076602
 20
15.9505142974
 10
53.2679127733
 20
15.9601976656
 10
53.3031942911
 20
15.9725513636
 10
53.3374549813
 20
15.9875063314
 10
53.3705033186
 20
16.0049789671
 10
53.402154555
 20
16.0248715946
 10
53.4322317524
 20
16.0470730092
 10
53.4605667721
 20
16.0714590999
 10
53.4870012148
 20
16.0978935425
 10
53.5113873054
 20
16.1262285623
 10
53.5335887201
 20
16.1563057597
 10
53.5534813475
 20
16.187956996
 10
53.5709539833
 20
16.2210053334
 10
53.5859089511
 20
16.2552660236
 10
53.5982626491
 20
16.2905475413
 10
53.6079460173
 20
16.3266526545
 10
53.6149049232
 20
16.3633795269
 10
53.6191004651
 20
16.4005228466
 10
53.6205091887
 20
16.4378749736
  0
LINE
  5
6FE
100
AcDbEntity
  8
DRAFT
100
AcDbLine
 62
7
  6
CONTINUOUS
 10
51.7166643622
 20
11.746526342
 11
42.2912150115
 21
11.746526342
  0
LINE
  5
6FF
100
AcDbEntity
  8
DRAFT
100
AcDbLine
 62
7
  6
CONTINUOUS
 10
-42.3087849885
 20
11.746526342
 11
-51.7342343392
 21
11.746526342
  0
LINE
  5
700
100
AcDbEntity
  8
ASSI
100
AcDbLine
 62
7
  6
CONTINUOUS
 10
42.4912150115
 20
11.946526342
 11
51.4912150115
 21
11.946526342
  0
LINE
  5
701
100
AcDbEntity
  8
0
100
AcDbLine
 62
7
  6
CONTINUOUS
 10
-42.5087849885
 20
11.946526342
 11
-51.5087849885
 21
11.946526342
  0
LINE
  5
702
100
AcDbEntity
  8
IMPORT_IGES
100
AcDbLine
 62
7
  6
CONTINUOUS
 10
21.2793013515
 20
26.354927062
 11
21.3219889284
 21
26.569531662
  0
LINE
  5
703
100
AcDbEntity
  8
IMPORT_IGES
100
AcDbLine
 62
7
  6
CONTINUOUS
 10
33.1317414515
 20
22.021999482
 11
33.2533007715
 21
22.203926982
  0
LINE
  5
704
100
AcDbEntity
  8
IMPORT_IGES
100
AcDbLine
 62
7
  6
CONTINUOUS
 10
37.6317426115
 20
22.021999482
 11
37.7533019315
 21
22.203926982
  0
LINE
  5
705
100
AcDbEntity
  8
IMPORT_IGES
100
AcDbLine
 62
7
  6
CONTINUOUS
 10
38.0074945309
 20
20.8814364719
 11
38.0220956062
 21
20.9004646071
  0
LWPOLYLINE
  5
706
100
AcDbEntity
  8
RACCORDO
100
AcDbPolyline
 62
7
  6
CONTINUOUS
 90
6
 70
0
 10
-12.5673602045
 20
-44.8533975056
 10
-12.5653000832
 20
-44.8509420804
 10
-12.560600129
 20
-44.8463206553
 10
-12.5534959293
 20
-44.8395332304
 10
-12.5442379799
 20
-44.8303706525
 10
-12.5330573785
 20
-44.8190420747
  0
LINE
  5
707
100
AcDbEntity
  8
IMPORT_IGES
100
AcDbLine
 62
7
  6
CONTINUOUS
 10
32.7352144315
 20
22.979300082
 11
32.5206149115
 21
22.936612842
  0
LINE
  5
708
100
AcDbEntity
  8
IMPORT_IGES
100
AcDbLine
 62
7
  6
CONTINUOUS
 10
32.4889762856
 20
21.9209924489
 11
32.3194610025
 21
21.9044883012
  0
LINE
  5
709
100
AcDbEntity
  8
RACCORDO
100
AcDbLine
 62
253
  6
CONTINUOUS
 10
53.2115953851
 20
15.5469867735
 11
51.7166643622
 21
15.5469867735
  0
LINE
  5
70A
100
AcDbEntity
  8
RACCORDO
100
AcDbLine
 62
7
  6
CONTINUOUS
 10
51.7115192326
 20
15.8417959524
 11
51.4912150115
 21
15.8417959524
  0
LINE
  5
70B
100
AcDbEntity
  8
RACCORDO
100
AcDbLine
 62
7
  6
CONTINUOUS
 10
42.4912150115
 20
15.8417959524
 11
42.2912150115
 21
15.8417959524
  0
LINE
  5
70C
100
AcDbEntity
  8
DRAFT
100
AcDbLine
 62
7
  6
CONTINUOUS
 10
42.2912150115
 20
15.8417959524
 11
-42.5087849885
 21
15.8417959524
  0
LINE
  5
70D
100
AcDbEntity
  8
DRAFT
100
AcDbLine
 62
7
  6
CONTINUOUS
 10
-51.5087849885
 20
15.8417959524
 11
-51.7342343392
 21
15.8417959524
  0
LINE
  5
70E
100
AcDbEntity
  8
RACCORDO
100
AcDbLine
 62
7
  6
CONTINUOUS
 10
-51.7342343392
 20
15.8417959524
 11
-53.2343104916
 21
15.8417959524
  0
LINE
  5
70F
100
AcDbEntity
  8
RACCORDO
100
AcDbLine
 62
253
  6
CONTINUOUS
 10
53.2115953851
 20
15.846941082
 11
51.7115192326
 21
15.846941082
  0
LINE
  5
710
100
AcDbEntity
  8
RACCORDO
100
AcDbLine
 62
253
  6
CONTINUOUS
 10
-53.1381553181
 20
15.937951126
 11
-51.5087849885
 21
15.937951126
  0
LINE
  5
711
100
AcDbEntity
  8
RACCORDO
100
AcDbLine
 62
253
  6
CONTINUOUS
 10
-42.5087849885
 20
15.937951126
 11
42.4912150115
 21
15.937951126
  0
LINE
  5
712
100
AcDbEntity
  8
RACCORDO
100
AcDbLine
 62
253
  6
CONTINUOUS
 10
51.4912150115
 20
15.937951126
 11
53.1205853411
 21
15.937951126
  0
LINE
  5
713
100
AcDbEntity
  8
RACCORDO
100
AcDbLine
 62
7
  6
CONTINUOUS
 10
42.4912150115
 20
15.946526342
 11
51.4912150115
 21
15.946526342
  0
LINE
  5
714
100
AcDbEntity
  8
RACCORDO
100
AcDbLine
 62
7
  6
CONTINUOUS
 10
-42.5087849885
 20
15.946526342
 11
-51.5087849885
 21
15.946526342
  0
LINE
  5
715
100
AcDbEntity
  8
RACCORDO
100
AcDbLine
 62
253
  6
CONTINUOUS
 10
-42.5087849885
 20
16.4378749736
 11
42.4912150115
 21
16.4378749736
  0
LINE
  5
716
100
AcDbEntity
  8
RACCORDO
100
AcDbLine
 62
253
  6
CONTINUOUS
 10
51.4912150115
 20
16.4378749736
 11
53.6205091887
 21
16.4378749736
  0
LINE
  5
717
100
AcDbEntity
  8
RACCORDO
100
AcDbLine
 62
253
  6
CONTINUOUS
 10
-51.5087849885
 20
16.4378749736
 11
-53.6380791656
 21
16.4378749736
  0
LINE
  5
718
100
AcDbEntity
  8
DRAFT
100
AcDbLine
 62
7
  6
CONTINUOUS
 10
20.9761251414
 20
-40.9185635281
 11
20.9761251414
 21
-24.9883837879
  0
LINE
  5
719
100
AcDbEntity
  8
DRAFT
100
AcDbLine
 62
7
  6
CONTINUOUS
 10
20.9761251414
 20
20.8814364719
 11
20.9761251414
 21
36.8116162121
  0
LINE
  5
71A
100
AcDbEntity
  8
IMPORT_IGES
100
AcDbLine
 62
7
  6
CONTINUOUS
 10
21.2490293003
 20
35.9464405115
 11
21.2490292654
 21
35.1464405115
  0
LINE
  5
71B
100
AcDbEntity
  8
IMPORT_IGES
100
AcDbLine
 62
7
  6
CONTINUOUS
 10
21.6131308805
 20
35.1464404956
 11
21.6131309155
 21
35.9464404956
  0
LINE
  5
71C
100
AcDbEntity
  8
IMPORT_IGES
100
AcDbLine
 62
7
  6
CONTINUOUS
 10
21.8810800292
 20
35.1464404839
 11
21.8810800642
 21
35.9464404839
  0
LINE
  5
71D
100
AcDbEntity
  8
DRAFT
100
AcDbLine
 62
7
  6
CONTINUOUS
 10
23.3063048817
 20
36.8116162121
 11
23.3063048817
 21
20.8814364719
  0
LINE
  5
71E
100
AcDbEntity
  8
DRAFT
100
AcDbLine
 62
7
  6
CONTINUOUS
 10
23.3063048817
 20
-24.9883837879
 11
23.3063048817
 21
-40.9185635281
  0
LINE
  5
71F
100
AcDbEntity
  8
IMPORT_IGES
100
AcDbLine
 62
7
  6
CONTINUOUS
 10
31.9174436515
 20
21.596331042
 11
31.8492707565
 21
21.4342765915
  0
LINE
  5
720
100
AcDbEntity
  8
DRAFT
100
AcDbLine
 62
7
  6
CONTINUOUS
 10
-12.6380660273
 20
-44.853473658
 11
-12.6722429105
 21
-44.8876505412
  0
LINE
  5
721
100
AcDbEntity
  8
RACCORDO
100
AcDbLine
 62
253
  6
CONTINUOUS
 10
-12.7024202885
 20
-46.4179040716
 11
-12.5673602045
 21
-46.2828439876
  0
LINE
  5
722
100
AcDbEntity
  8
RACCORDO
100
AcDbLine
 62
253
  6
CONTINUOUS
 10
-12.2205801521
 20
-46.9359116303
 11
-12.0674363569
 21
-46.7827678352
  0
LINE
  5
723
100
AcDbEntity
  8
RACCORDO
100
AcDbLine
 62
7
  6
CONTINUOUS
 10
-12.489937698
 20
-44.7759455769
 11
-12.0674363569
 21
-44.353473658
  0
LWPOLYLINE
  5
724
100
AcDbEntity
  8
RACCORDO
100
AcDbPolyline
 62
7
  6
CONTINUOUS
 90
3
 70
0
 10
-12.5330573785
 20
-44.8190420747
 10
-12.5056997966
 20
-44.7918295369
 10
-12.489937698
 20
-44.7759455769
  0
LWPOLYLINE
  5
725
100
AcDbEntity
  8
RACCORDO
100
AcDbPolyline
 62
253
  6
CONTINUOUS
 90
13
 70
0
 10
53.7166643555
 20
15.7265886578
 10
53.681611619
 20
15.6996160032
 10
53.6452688444
 20
15.6747189443
 10
53.6076360315
 20
15.6518974811
 10
53.568667644
 20
15.6310936375
 10
53.5284092184
 20
15.6123653896
 10
53.4869973637
 20
15.5958866655
 10
53.444588063
 20
15.5816271233
 10
53.4010253334
 20
15.5696171049
 10
53.3559778348
 20
15.5601215652
 10
53.3093351205
 20
15.5532288226
 10
53.2612076373
 20
15.5488505587
 10
53.2115953851
 20
15.5469867735
  0
LWPOLYLINE
  5
726
100
AcDbEntity
  8
0
100
AcDbPolyline
 62
7
  6
CONTINUOUS
 90
32
 70
0
 10
-14.9164641516
 20
-38.2363639904
 10
-14.9131075687
 20
-38.2342792222
 10
-14.9108538423
 20
-38.2330096876
 10
-14.9112715784
 20
-38.2332018937
 10
-14.9141740937
 20
-38.2344812771
 10
-14.9197321022
 20
-38.2367046012
 10
-14.9280363072
 20
-38.2397171869
 10
-14.9386725113
 20
-38.2432289
 10
-14.9516321618
 20
-38.2471404547
 10
-14.9670245166
 20
-38.2513996756
 10
-14.9845657478
 20
-38.2558615303
 10
-15.0042415044
 20
-38.2604748022
 10
-15.0261282596
 20
-38.2652145623
 10
-15.0500759064
 20
-38.2700128147
 10
-15.076086171
 20
-38.274842333
 10
-15.1042085914
 20
-38.2796870408
 10
-15.1343708942
 20
-38.2845126039
 10
-15.1665846431
 20
-38.2893025748
 10
-15.2008844407
 20
-38.2940450876
 10
-15.2372385437
 20
-38.2987205067
 10
-15.2756611625
 20
-38.3033172277
 10
-15.316178568
 20
-38.3078257601
 10
-15.3587813737
 20
-38.3122333979
 10
-15.4034823401
 20
-38.3165307916
 10
-15.4503017929
 20
-38.3207097558
 10
-15.4992446651
 20
-38.3247611161
 10
-15.550321183
 20
-38.3286766389
 10
-15.6035451529
 20
-38.3324486675
 10
-15.6589288624
 20
-38.3360696338
 10
-15.7164780632
 20
-38.3395317504
 10
-15.7761996831
 20
-38.3428275194
 10
-15.8381087232
 20
-38.3459499692
  0
LWPOLYLINE
  5
727
100
AcDbEntity
  8
0
100
AcDbPolyline
 62
7
  6
CONTINUOUS
 90
10
 70
0
 10
-22.9138495235
 20
-34.1578253131
 10
-22.9394858037
 20
-34.1688780721
 10
-22.9654493233
 20
-34.1786398026
 10
-22.9917400824
 20
-34.1871105046
 10
-23.0183414092
 20
-34.194292055
 10
-23.0452699754
 20
-34.200182577
 10
-23.0725757966
 20
-34.2047764393
 10
-23.1002755446
 20
-34.208071765
 10
-23.1283525477
 20
-34.210070431
 10
-23.1568068057
 20
-34.2107724375
  0
LINE
  5
728
100
AcDbEntity
  8
DRAFT
100
AcDbLine
 62
7
  6
CONTINUOUS
 10
-39.5238748586
 20
20.8814364719
 11
-37.1936951183
 21
20.8814364719
  0
LINE
  5
729
100
AcDbEntity
  8
DRAFT
100
AcDbLine
 62
7
  6
CONTINUOUS
 10
-34.1238748586
 20
20.8814364719
 11
-31.7936951183
 21
20.8814364719
  0
LINE
  5
72A
100
AcDbEntity
  8
DRAFT
100
AcDbLine
 62
7
  6
CONTINUOUS
 10
28.7063048817
 20
20.8814364719
 11
26.3761251414
 21
20.8814364719
  0
LINE
  5
72B
100
AcDbEntity
  8
DRAFT
100
AcDbLine
 62
7
  6
CONTINUOUS
 10
23.3063048817
 20
20.8814364719
 11
20.9761251414
 21
20.8814364719
  0
LINE
  5
72C
100
AcDbEntity
  8
DRAFT
100
AcDbLine
 62
7
  6
CONTINUOUS
 10
31.7761251414
 20
20.8814364719
 11
34.1063048817
 21
20.8814364719
  0
LINE
  5
72D
100
AcDbEntity
  8
DRAFT
100
AcDbLine
 62
7
  6
CONTINUOUS
 10
37.1761251414
 20
20.8814364719
 11
39.5063048817
 21
20.8814364719
  0
LINE
  5
72E
100
AcDbEntity
  8
DRAFT
100
AcDbLine
 62
7
  6
CONTINUOUS
 10
26.3761251414
 20
-40.9185635281
 11
26.3761251414
 21
-24.9883837879
  0
LINE
  5
72F
100
AcDbEntity
  8
DRAFT
100
AcDbLine
 62
7
  6
CONTINUOUS
 10
26.3761251414
 20
20.8814364719
 11
26.3761251414
 21
36.8116162121
  0
LINE
  5
730
100
AcDbEntity
  8
IMPORT_IGES
100
AcDbLine
 62
7
  6
CONTINUOUS
 10
26.6931308805
 20
35.1464402736
 11
26.6931309155
 21
35.9464402736
  0
LINE
  5
731
100
AcDbEntity
  8
IMPORT_IGES
100
AcDbLine
 62
7
  6
CONTINUOUS
 10
26.9610800292
 20
35.1464402619
 11
26.9610800642
 21
35.9464402619
  0
LINE
  5
732
100
AcDbEntity
  8
DRAFT
100
AcDbLine
 62
7
  6
CONTINUOUS
 10
28.6237612759
 20
-28.1214296714
 11
28.6237612759
 21
-28.4814946271
  0
LINE
  5
733
100
AcDbEntity
  8
DRAFT
100
AcDbLine
 62
7
  6
CONTINUOUS
 10
28.7063048817
 20
36.8116162121
 11
28.7063048817
 21
20.8814364719
  0
LINE
  5
734
100
AcDbEntity
  8
DRAFT
100
AcDbLine
 62
7
  6
CONTINUOUS
 10
28.7063048817
 20
-24.9883837879
 11
28.7063048817
 21
-40.9185635281
  0
LINE
  5
735
100
AcDbEntity
  8
IMPORT_IGES
100
AcDbLine
 62
7
  6
CONTINUOUS
 10
31.8492707565
 20
21.4342765915
 11
31.8333311282
 21
21.268526262
  0
LINE
  5
736
100
AcDbEntity
  8
IMPORT_IGES
100
AcDbLine
 62
7
  6
CONTINUOUS
 10
32.2171280915
 20
22.633126022
 11
32.1744408515
 21
22.418526502
  0
LINE
  5
737
100
AcDbEntity
  8
IMPORT_IGES
100
AcDbLine
 62
7
  6
CONTINUOUS
 10
33.2533007715
 20
22.203926982
 11
33.2959880115
 21
22.418526502
  0
LINE
  5
738
100
AcDbEntity
  8
IMPORT_IGES
100
AcDbLine
 62
7
  6
CONTINUOUS
 10
37.6509651762
 20
21.9044699555
 11
37.4814424691
 21
21.9210266877
  0
LINE
  5
739
100
AcDbEntity
  8
IMPORT_IGES
100
AcDbLine
 62
7
  6
CONTINUOUS
 10
32.9498139515
 20
22.936612842
 11
32.7352144315
 21
22.979300082
  0
LINE
  5
73A
100
AcDbEntity
  8
IMPORT_IGES
100
AcDbLine
 62
7
  6
CONTINUOUS
 10
37.4498151115
 20
22.936612842
 11
37.2352155915
 21
22.979300082
  0
LINE
  5
73B
100
AcDbEntity
  8
IMPORT_IGES
100
AcDbLine
 62
7
  6
CONTINUOUS
 10
37.1761251414
 20
21.8677155895
 11
37.217646158
 21
21.8591685755
  0
LINE
  5
73C
100
AcDbEntity
  8
IMPORT_IGES
100
AcDbLine
 62
7
  6
CONTINUOUS
 10
21.3219889284
 20
26.569531662
 11
21.2793013515
 21
26.784136262
  0
LINE
  5
73D
100
AcDbEntity
  8
IMPORT_IGES
100
AcDbLine
 62
7
  6
CONTINUOUS
 10
31.8333311282
 20
21.268526262
 11
31.8492707565
 21
21.1027759325
  0
LINE
  5
73E
100
AcDbEntity
  8
DRAFT
100
AcDbLine
 62
7
  6
CONTINUOUS
 10
31.7761251414
 20
36.8116162121
 11
31.7761251414
 21
20.8814364719
  0
LINE
  5
73F
100
AcDbEntity
  8
DRAFT
100
AcDbLine
 62
7
  6
CONTINUOUS
 10
31.7761251414
 20
-24.9883837879
 11
31.7761251414
 21
-40.9185635281
  0
LINE
  5
740
100
AcDbEntity
  8
IMPORT_IGES
100
AcDbLine
 62
7
  6
CONTINUOUS
 10
32.0410800642
 20
35.9464400398
 11
32.0410800292
 21
35.1464400398
  0
LINE
  5
741
100
AcDbEntity
  8
DRAFT
100
AcDbLine
 62
7
  6
CONTINUOUS
 10
34.1063048817
 20
-40.9185635281
 11
34.1063048817
 21
-24.9883837879
  0
LINE
  5
742
100
AcDbEntity
  8
DRAFT
100
AcDbLine
 62
7
  6
CONTINUOUS
 10
34.1063048817
 20
20.8814364719
 11
34.1063048817
 21
36.8116162121
  0
LINE
  5
743
100
AcDbEntity
  8
IMPORT_IGES
100
AcDbLine
 62
7
  6
CONTINUOUS
 10
37.7533019315
 20
22.203926982
 11
37.7959891715
 21
22.418526502
  0
LINE
  5
744
100
AcDbEntity
  8
IMPORT_IGES
100
AcDbLine
 62
7
  6
CONTINUOUS
 10
32.8093668991
 20
21.8397772032
 11
32.7527838651
 21
21.8591685755
  0
LINE
  5
745
100
AcDbEntity
  8
IMPORT_IGES
100
AcDbLine
 62
7
  6
CONTINUOUS
 10
37.8130173315
 20
21.836297542
 11
37.6509651762
 21
21.9044699555
  0
LINE
  5
746
100
AcDbEntity
  8
IMPORT_IGES
100
AcDbLine
 62
7
  6
CONTINUOUS
 10
21.1577420315
 20
26.966063762
 11
20.9758145315
 21
27.087623082
  0
LINE
  5
747
100
AcDbEntity
  8
RACCORDO
100
AcDbLine
 62
253
  6
CONTINUOUS
 10
4.9410779232
 20
42.946526342
 11
4.8940406378
 21
42.9935636274
  0
LINE
  5
748
100
AcDbEntity
  8
IMPORT_IGES
100
AcDbLine
 62
7
  6
CONTINUOUS
 10
21.2793013515
 20
26.784136262
 11
21.1577420315
 21
26.966063762
  0
LINE
  5
749
100
AcDbEntity
  8
DRAFT
100
AcDbLine
 62
7
  6
CONTINUOUS
 10
37.1761251414
 20
36.8116162121
 11
37.1761251414
 21
20.8814364719
  0
LINE
  5
74A
100
AcDbEntity
  8
DRAFT
100
AcDbLine
 62
7
  6
CONTINUOUS
 10
37.1761251414
 20
-24.9883837879
 11
37.1761251414
 21
-40.9185635281
  0
LINE
  5
74B
100
AcDbEntity
  8
IMPORT_IGES
100
AcDbLine
 62
7
  6
CONTINUOUS
 10
37.6312111908
 20
-26.0234748601
 11
37.6312111908
 21
-25.7534728601
  0
LINE
  5
74C
100
AcDbEntity
  8
0
100
AcDbLine
 62
7
  6
CONTINUOUS
 10
38.7912150115
 20
42.8383049394
 11
38.7912150115
 21
47.346526342
  0
LINE
  5
74D
100
AcDbEntity
  8
IMPORT_IGES
100
AcDbLine
 62
7
  6
CONTINUOUS
 10
39.4512211757
 20
-25.7534728601
 11
39.4512211757
 21
-26.0234748601
  0
LINE
  5
74E
100
AcDbEntity
  8
DRAFT
100
AcDbLine
 62
7
  6
CONTINUOUS
 10
39.5063048817
 20
-40.9185635281
 11
39.5063048817
 21
-24.9883837879
  0
LINE
  5
74F
100
AcDbEntity
  8
DRAFT
100
AcDbLine
 62
7
  6
CONTINUOUS
 10
39.5063048817
 20
20.8814364719
 11
39.5063048817
 21
36.8116162121
  0
LINE
  5
750
100
AcDbEntity
  8
RACCORDO
100
AcDbLine
 62
253
  6
CONTINUOUS
 10
4.9410779232
 20
-47.053473658
 11
4.8940406378
 21
-47.1005109434
  0
LINE
  5
751
100
AcDbEntity
  8
IMPORT_IGES
100
AcDbLine
 62
7
  6
CONTINUOUS
 10
20.9810800292
 20
35.1464405233
 11
21.8810800292
 21
35.1464404839
  0
LINE
  5
752
100
AcDbEntity
  8
IMPORT_IGES
100
AcDbLine
 62
7
  6
CONTINUOUS
 10
26.3761251414
 20
35.1464402874
 11
26.9610800292
 21
35.1464402619
  0
LINE
  5
753
100
AcDbEntity
  8
IMPORT_IGES
100
AcDbLine
 62
7
  6
CONTINUOUS
 10
31.7761251414
 20
35.1464400514
 11
32.0410800292
 21
35.1464400398
  0
LINE
  5
754
100
AcDbEntity
  8
IMPORT_IGES
100
AcDbLine
 62
7
  6
CONTINUOUS
 10
32.0410800642
 20
35.9464400398
 11
31.7761251414
 21
35.9464400514
  0
LINE
  5
755
100
AcDbEntity
  8
IMPORT_IGES
100
AcDbLine
 62
7
  6
CONTINUOUS
 10
20.9810800642
 20
35.9464405233
 11
21.8810800642
 21
35.9464404839
  0
LINE
  5
756
100
AcDbEntity
  8
IMPORT_IGES
100
AcDbLine
 62
7
  6
CONTINUOUS
 10
26.3761251414
 20
35.9464402874
 11
26.9610800642
 21
35.9464402619
  0
LINE
  5
757
100
AcDbEntity
  8
DRAFT
100
AcDbLine
 62
7
  6
CONTINUOUS
 10
0.7412150115
 20
36.346526342
 11
-0.7587849885
 21
36.346526342
  0
LINE
  5
758
100
AcDbEntity
  8
DRAFT
100
AcDbLine
 62
7
  6
CONTINUOUS
 10
39.5063048817
 20
36.8116162121
 11
37.1761251414
 21
36.8116162121
  0
LINE
  5
759
100
AcDbEntity
  8
DRAFT
100
AcDbLine
 62
7
  6
CONTINUOUS
 10
34.1063048817
 20
36.8116162121
 11
31.7761251414
 21
36.8116162121
  0
LINE
  5
75A
100
AcDbEntity
  8
DRAFT
100
AcDbLine
 62
7
  6
CONTINUOUS
 10
20.9761251414
 20
36.8116162121
 11
23.3063048817
 21
36.8116162121
  0
LINE
  5
75B
100
AcDbEntity
  8
DRAFT
100
AcDbLine
 62
7
  6
CONTINUOUS
 10
26.3761251414
 20
36.8116162121
 11
28.7063048817
 21
36.8116162121
  0
LINE
  5
75C
100
AcDbEntity
  8
DRAFT
100
AcDbLine
 62
7
  6
CONTINUOUS
 10
-31.7936951183
 20
36.8116162121
 11
-34.1238748586
 21
36.8116162121
  0
LINE
  5
75D
100
AcDbEntity
  8
DRAFT
100
AcDbLine
 62
7
  6
CONTINUOUS
 10
-37.1936951183
 20
36.8116162121
 11
-39.5238748586
 21
36.8116162121
  0
LINE
  5
75E
100
AcDbEntity
  8
IMPORT_IGES
100
AcDbLine
 62
7
  6
CONTINUOUS
 10
33.1317414515
 20
22.815053522
 11
32.9498139515
 21
22.936612842
  0
LINE
  5
75F
100
AcDbEntity
  8
IMPORT_IGES
100
AcDbLine
 62
7
  6
CONTINUOUS
 10
32.3386874115
 20
22.021999482
 11
32.4889762856
 21
21.9209924489
  0
LWPOLYLINE
  5
760
100
AcDbEntity
  8
RACCORDO
100
AcDbPolyline
 62
7
  6
CONTINUOUS
 90
3
 70
0
 10
5.0550214444
 20
42.946526342
 10
5.0505857763
 20
42.9495265313
 10
5.0262582787
 20
42.9629018923
  0
LINE
  5
761
100
AcDbEntity
  8
IMPORT_IGES
100
AcDbLine
 62
7
  6
CONTINUOUS
 10
32.9487979515
 20
21.732109282
 11
32.8093668991
 21
21.8397772032
  0
LINE
  5
762
100
AcDbEntity
  8
DRAFT
100
AcDbLine
 62
7
  6
CONTINUOUS
 10
10.232993609
 20
42.946526342
 11
10.3412150115
 21
42.8383049394
  0
LINE
  5
763
100
AcDbEntity
  8
IMPORT_IGES
100
AcDbLine
 62
7
  6
CONTINUOUS
 10
31.9174436515
 20
20.940721482
 11
31.9629354921
 21
20.8814364719
  0
LINE
  5
764
100
AcDbEntity
  8
IMPORT_IGES
100
AcDbLine
 62
7
  6
CONTINUOUS
 10
33.0529862115
 20
21.596331042
 11
32.9487979515
 21
21.732109282
  0
LINE
  5
765
100
AcDbEntity
  8
IMPORT_IGES
100
AcDbLine
 62
7
  6
CONTINUOUS
 10
32.2171280915
 20
22.203926982
 11
32.3386874115
 21
22.021999482
  0
LINE
  5
766
100
AcDbEntity
  8
IMPORT_IGES
100
AcDbLine
 62
7
  6
CONTINUOUS
 10
31.8492707565
 20
21.1027759325
 11
31.9174436515
 21
20.940721482
  0
LINE
  5
767
100
AcDbEntity
  8
IMPORT_IGES
100
AcDbLine
 62
7
  6
CONTINUOUS
 10
33.0554295866
 20
21.590432299
 11
33.0529862115
 21
21.596331042
  0
LINE
  5
768
100
AcDbEntity
  8
IMPORT_IGES
100
AcDbLine
 62
7
  6
CONTINUOUS
 10
32.1744408515
 20
22.418526502
 11
32.2171280915
 21
22.203926982
  0
LINE
  5
769
100
AcDbEntity
  8
IMPORT_IGES
100
AcDbLine
 62
7
  6
CONTINUOUS
 10
33.2959880115
 20
22.418526502
 11
33.2533007715
 21
22.633126022
  0
LINE
  5
76A
100
AcDbEntity
  8
0
100
AcDbLine
 62
7
  6
CONTINUOUS
 10
40.4912150115
 20
49.546526342
 11
40.4912150115
 21
42.8383049394
  0
LINE
  5
76B
100
AcDbEntity
  8
DRAFT
100
AcDbLine
 62
7
  6
CONTINUOUS
 10
42.2912150115
 20
15.8417959524
 11
42.2912150115
 21
11.746526342
  0
LINE
  5
76C
100
AcDbEntity
  8
RACCORDO
100
AcDbLine
 62
7
  6
CONTINUOUS
 10
42.4912150115
 20
11.946526342
 11
42.4912150115
 21
16.4378749736
  0
LWPOLYLINE
  5
76D
100
AcDbEntity
  8
RACCORDO
100
AcDbPolyline
 62
7
  6
CONTINUOUS
 90
3
 70
0
 10
5.0548480152
 20
-47.053473658
 10
5.0445010976
 20
-47.0600908816
 10
5.0212295406
 20
-47.0722487786
  0
LWPOLYLINE
  5
76E
100
AcDbEntity
  8
RACCORDO
100
AcDbPolyline
 62
7
  6
CONTINUOUS
 90
3
 70
0
 10
5.022259403
 20
-47.0717759898
 10
5.0471797053
 20
-47.058526451
 10
5.0548454949
 20
-47.053473658
  0
LINE
  5
76F
100
AcDbEntity
  8
IMPORT_IGES
100
AcDbLine
 62
7
  6
CONTINUOUS
 10
-38.0149620436
 20
35.245080452
 11
-37.1936951183
 21
35.4651383393
  0
LINE
  5
770
100
AcDbEntity
  8
IMPORT_IGES
100
AcDbLine
 62
7
  6
CONTINUOUS
 10
-32.6449364136
 20
36.683974992
 11
-32.1685730635
 21
36.8116162121
  0
LINE
  5
771
100
AcDbEntity
  8
IMPORT_IGES
100
AcDbLine
 62
7
  6
CONTINUOUS
 10
-38.0149620095
 20
35.2450804618
 11
-38.2917446361
 21
35.173625142
  0
LINE
  5
772
100
AcDbEntity
  8
IMPORT_IGES
100
AcDbLine
 62
7
  6
CONTINUOUS
 10
-38.9542930417
 20
35.0531684708
 11
-39.5286447201
 21
34.9289476234
  0
LINE
  5
773
100
AcDbEntity
  8
IMPORT_IGES
100
AcDbLine
 62
7
  6
CONTINUOUS
 10
-38.291744635
 20
35.1736251422
 11
-38.5718435837
 21
35.1165369213
  0
LINE
  5
774
100
AcDbEntity
  8
IMPORT_IGES
100
AcDbLine
 62
7
  6
CONTINUOUS
 10
-38.5718436066
 20
35.1165369196
 11
-38.9542930586
 21
35.053168468
  0
LINE
  5
775
100
AcDbEntity
  8
RACCORDO
100
AcDbLine
 62
7
  6
CONTINUOUS
 10
-4.9412177561
 20
42.9921447727
 11
-4.9116106148
 21
42.9936093178
  0
LWPOLYLINE
  5
776
100
AcDbEntity
  8
RACCORDO
100
AcDbPolyline
 62
7
  6
CONTINUOUS
 90
6
 70
0
 10
-4.9116106148
 20
42.9935636274
 10
-4.9378356459
 20
42.9924229877
 10
-4.9638639463
 20
42.9889931015
 10
-4.9894959663
 20
42.9832991595
 10
-5.0145405537
 20
42.9753817139
 10
-5.0387995153
 20
42.9653014636
  0
LINE
  5
777
100
AcDbEntity
  8
DRAFT
100
AcDbLine
 62
7
  6
CONTINUOUS
 10
-0.7587849885
 20
40.846526342
 11
0.7412150115
 21
40.846526342
  0
LINE
  5
778
100
AcDbEntity
  8
RACCORDO
100
AcDbLine
 62
253
  6
CONTINUOUS
 10
-53.6380791656
 20
42.1758966716
 11
53.6205091887
 21
42.1758966716
  0
LINE
  5
779
100
AcDbEntity
  8
RACCORDO
100
AcDbLine
 62
253
  6
CONTINUOUS
 10
-53.1381553181
 20
42.6758205192
 11
53.1205853411
 21
42.6758205192
  0
LINE
  5
77A
100
AcDbEntity
  8
DRAFT
100
AcDbLine
 62
7
  6
CONTINUOUS
 10
40.6412150115
 20
42.8383049394
 11
38.6412150115
 21
42.8383049394
  0
LINE
  5
77B
100
AcDbEntity
  8
DRAFT
100
AcDbLine
 62
7
  6
CONTINUOUS
 10
12.3412150115
 20
42.8383049394
 11
10.3412150115
 21
42.8383049394
  0
LINE
  5
77C
100
AcDbEntity
  8
RACCORDO
100
AcDbLine
 62
7
  6
CONTINUOUS
 10
53.3912911639
 20
42.946526342
 11
40.4912150115
 21
42.946526342
  0
LINE
  5
77D
100
AcDbEntity
  8
RACCORDO
100
AcDbLine
 62
7
  6
CONTINUOUS
 10
38.7912150115
 20
42.946526342
 11
34.1912150115
 21
42.946526342
  0
LINE
  5
77E
100
AcDbEntity
  8
RACCORDO
100
AcDbLine
 62
7
  6
CONTINUOUS
 10
18.7912150115
 20
42.946526342
 11
12.1912150115
 21
42.946526342
  0
LINE
  5
77F
100
AcDbEntity
  8
DRAFT
100
AcDbLine
 62
7
  6
CONTINUOUS
 10
38.532993609
 20
42.946526342
 11
12.4494364141
 21
42.946526342
  0
LINE
  5
780
100
AcDbEntity
  8
RACCORDO
100
AcDbLine
 62
7
  6
CONTINUOUS
 10
10.4912150115
 20
42.946526342
 11
4.9410779232
 21
42.946526342
  0
LINE
  5
781
100
AcDbEntity
  8
RACCORDO
100
AcDbLine
 62
7
  6
CONTINUOUS
 10
-4.9586479002
 20
42.946526342
 11
-53.4088611409
 21
42.946526342
  0
LINE
  5
782
100
AcDbEntity
  8
RACCORDO
100
AcDbLine
 62
7
  6
CONTINUOUS
 10
4.8940406378
 20
42.9936093189
 11
-4.9116106148
 21
42.9936093189
  0
LWPOLYLINE
  5
783
100
AcDbEntity
  8
RACCORDO
100
AcDbPolyline
 62
7
  6
CONTINUOUS
 90
3
 70
0
 10
4.8940406378
 20
42.9936093026
 10
4.9202656696
 20
42.9924229877
 10
4.9462939705
 20
42.9889931013
  0
LWPOLYLINE
  5
784
100
AcDbEntity
  8
RACCORDO
100
AcDbPolyline
 62
7
  6
CONTINUOUS
 90
3
 70
0
 10
4.9719259911
 20
42.983299159
 10
4.996970579
 20
42.9753817131
 10
5.021229541
 20
42.9653014624
  0
LWPOLYLINE
  5
785
100
AcDbEntity
  8
RACCORDO
100
AcDbPolyline
 62
7
  6
CONTINUOUS
 90
5
 70
0
 10
5.0262582787
 20
42.9629018923
 10
5.0006293421
 20
42.9740355031
 10
4.9737923323
 20
42.9828145526
 10
4.9459666995
 20
42.9890811738
 10
4.9175013424
 20
42.9926903935
  0
LWPOLYLINE
  5
786
100
AcDbEntity
  8
RACCORDO
100
AcDbPolyline
 62
7
  6
CONTINUOUS
 90
3
 70
0
 10
5.021229541
 20
42.9653014624
 10
5.0445010982
 20
42.9531435653
 10
5.0548480152
 20
42.946526342
  0
LINE
  5
787
100
AcDbEntity
  8
IMPORT_IGES
100
AcDbLine
 62
7
  6
CONTINUOUS
 10
37.6317426115
 20
22.815053522
 11
37.4498151115
 21
22.936612842
  0
LINE
  5
788
100
AcDbEntity
  8
IMPORT_IGES
100
AcDbLine
 62
7
  6
CONTINUOUS
 10
37.9487981115
 20
21.732109282
 11
37.8130173315
 21
21.836297542
  0
LINE
  5
789
100
AcDbEntity
  8
IMPORT_IGES
100
AcDbLine
 62
7
  6
CONTINUOUS
 10
38.0529863715
 20
21.596331042
 11
37.9487981115
 21
21.732109282
  0
LINE
  5
78A
100
AcDbEntity
  8
IMPORT_IGES
100
AcDbLine
 62
7
  6
CONTINUOUS
 10
33.2533007715
 20
22.633126022
 11
33.1317414515
 21
22.815053522
  0
LINE
  5
78B
100
AcDbEntity
  8
IMPORT_IGES
100
AcDbLine
 62
7
  6
CONTINUOUS
 10
37.7533019315
 20
22.633126022
 11
37.6317426115
 21
22.815053522
  0
LINE
  5
78C
100
AcDbEntity
  8
IMPORT_IGES
100
AcDbLine
 62
7
  6
CONTINUOUS
 10
38.055429763
 20
21.5904322596
 11
38.0529863715
 21
21.596331042
  0
LINE
  5
78D
100
AcDbEntity
  8
IMPORT_IGES
100
AcDbLine
 62
7
  6
CONTINUOUS
 10
37.7959891715
 20
22.418526502
 11
37.7533019315
 21
22.633126022
  0
LWPOLYLINE
  5
78E
100
AcDbEntity
  8
RACCORDO
100
AcDbPolyline
 62
7
  6
CONTINUOUS
 90
5
 70
0
 10
4.9969705786
 20
-47.0823290293
 10
4.9719259908
 20
-47.0902464751
 10
4.9462939703
 20
-47.0959404173
 10
4.9202656695
 20
-47.0993703037
 10
4.8940406378
 20
-47.1005109434
  0
LWPOLYLINE
  5
78F
100
AcDbEntity
  8
RACCORDO
100
AcDbPolyline
 62
7
  6
CONTINUOUS
 90
3
 70
0
 10
4.969679826
 20
-47.0908645976
 10
4.9963190792
 20
-47.0825834382
 10
5.022259403
 20
-47.0717759898
  0
LWPOLYLINE
  5
790
100
AcDbEntity
  8
RACCORDO
100
AcDbPolyline
 62
253
  6
CONTINUOUS
 90
22
 70
0
 10
-53.1381553181
 20
42.6758205192
 10
-53.175507445
 20
42.6744117956
 10
-53.2126507647
 20
42.6702162537
 10
-53.2493776371
 20
42.6632573477
 10
-53.2854827503
 20
42.6535739796
 10
-53.320764268
 20
42.6412202815
 10
-53.3550249583
 20
42.6262653137
 10
-53.3880732956
 20
42.608792678
 10
-53.4197245319
 20
42.5889000506
 10
-53.4498017293
 20
42.5666986359
 10
-53.4781367491
 20
42.5423125452
 10
-53.5045711917
 20
42.5158781026
 10
-53.5289572824
 20
42.4875430828
 10
-53.551158697
 20
42.4574658854
 10
-53.5710513245
 20
42.4258146491
 10
-53.5885239602
 20
42.3927663118
 10
-53.603478928
 20
42.3585056215
 10
-53.6158326261
 20
42.3232241038
 10
-53.6255159942
 20
42.2871189906
 10
-53.6324749002
 20
42.2503921182
 10
-53.636670442
 20
42.2132487986
 10
-53.6380791656
 20
42.1758966716
  0
LINE
  5
791
100
AcDbEntity
  8
0
100
AcDbLine
 62
7
  6
CONTINUOUS
 10
38.7912150115
 20
47.346526342
 11
12.1912150115
 21
47.346526342
  0
LINE
  5
792
100
AcDbEntity
  8
RACCORDO
100
AcDbLine
 62
253
  6
CONTINUOUS
 10
53.1205853411
 20
15.937951126
 11
53.2115953851
 21
15.846941082
  0
LWPOLYLINE
  5
793
100
AcDbEntity
  8
RACCORDO
100
AcDbPolyline
 62
253
  6
CONTINUOUS
 90
22
 70
0
 10
53.6205091887
 20
-20.5448222896
 10
53.6190958522
 20
-20.507408895
 10
53.6148866143
 20
-20.4702056927
 10
53.6079051627
 20
-20.4334213284
 10
53.5981910449
 20
-20.3972631031
 10
53.5857986565
 20
-20.3619327204
 10
53.5707961833
 20
-20.3276254126
 10
53.5532646913
 20
-20.294529537
 10
53.533303816
 20
-20.2628357337
 10
53.5110323919
 20
-20.2327314003
 10
53.4865831514
 20
-20.2043908647
 10
53.4600894905
 20
-20.1779641242
 10
53.4316890825
 20
-20.1535881265
 10
53.4015267108
 20
-20.1313914673
 10
53.3697825945
 20
-20.1115108499
 10
53.3366639083
 20
-20.0940733855
 10
53.3023509895
 20
-20.079168403
 10
53.2670457742
 20
-20.0668781999
 10
53.231005037
 20
-20.0572789072
 10
53.1944536751
 20
-20.0504084197
 10
53.1575786984
 20
-20.0462803053
 10
53.1205853411
 20
-20.044898442
  0
LINE
  5
794
100
AcDbEntity
  8
RACCORDO
100
AcDbLine
 62
7
  6
CONTINUOUS
 10
53.7115192326
 20
16.3468649296
 11
53.7149650643
 21
16.0614035885
  0
LINE
  5
795
100
AcDbEntity
  8
RACCORDO
100
AcDbLine
 62
7
  6
CONTINUOUS
 10
53.7149650643
 20
16.0614035885
 11
53.7162429427
 21
15.8879297464
  0
LINE
  5
796
100
AcDbEntity
  8
RACCORDO
100
AcDbLine
 62
7
  6
CONTINUOUS
 10
53.7162429427
 20
15.8879297464
 11
53.7166643622
 21
15.7265886638
  0
LINE
  5
797
100
AcDbEntity
  8
IMPORT_IGES
100
AcDbLine
 62
7
  6
CONTINUOUS
 10
51.2412150115
 20
11.746526342
 11
51.2412150115
 21
11.946526342
  0
LINE
  5
798
100
AcDbEntity
  8
RACCORDO
100
AcDbLine
 62
7
  6
CONTINUOUS
 10
51.4912150115
 20
11.946526342
 11
51.4912150115
 21
16.4378749736
  0
LINE
  5
799
100
AcDbEntity
  8
RACCORDO
100
AcDbLine
 62
7
  6
CONTINUOUS
 10
51.7166643622
 20
15.5469867735
 11
51.7166643622
 21
11.746526342
  0
LINE
  5
79A
100
AcDbEntity
  8
RACCORDO
100
AcDbLine
 62
253
  6
CONTINUOUS
 10
53.1205853411
 20
42.6758205192
 11
53.1205853411
 21
15.937951126
  0
LINE
  5
79B
100
AcDbEntity
  8
RACCORDO
100
AcDbLine
 62
253
  6
CONTINUOUS
 10
53.1205853411
 20
-20.044898442
 11
53.1205853411
 21
-46.7827678352
  0
LINE
  5
79C
100
AcDbEntity
  8
RACCORDO
100
AcDbLine
 62
253
  6
CONTINUOUS
 10
53.2115953851
 20
15.846941082
 11
53.2115953857
 21
15.5469867737
  0
LINE
  5
79D
100
AcDbEntity
  8
RACCORDO
100
AcDbLine
 62
253
  6
CONTINUOUS
 10
53.2115953851
 20
-19.953888398
 11
53.2115953851
 21
-19.6539340895
  0
LINE
  5
79E
100
AcDbEntity
  8
RACCORDO
100
AcDbLine
 62
253
  6
CONTINUOUS
 10
53.6205091887
 20
42.1758966716
 11
53.6205091887
 21
16.4378749736
  0
LINE
  5
79F
100
AcDbEntity
  8
RACCORDO
100
AcDbLine
 62
253
  6
CONTINUOUS
 10
53.6205091887
 20
-20.5448222896
 11
53.6205091887
 21
-46.2828439876
  0
LINE
  5
7A0
100
AcDbEntity
  8
RACCORDO
100
AcDbLine
 62
7
  6
CONTINUOUS
 10
53.8912150115
 20
42.4466024944
 11
53.8912150115
 21
-46.5535498104
  0
LINE
  5
7A1
100
AcDbEntity
  8
RACCORDO
100
AcDbLine
 62
7
  6
CONTINUOUS
 10
53.7166643555
 20
15.7265886578
 11
53.7164026523
 21
-19.9597478468
  0
LINE
  5
7A2
100
AcDbEntity
  8
RACCORDO
100
AcDbLine
 62
7
  6
CONTINUOUS
 10
53.7164026523
 20
-19.9597478468
 11
53.7153182241
 21
-20.1295173814
  0
LWPOLYLINE
  5
7A3
100
AcDbEntity
  8
RACCORDO
100
AcDbPolyline
 62
7
  6
CONTINUOUS
 90
3
 70
0
 10
53.7153182241
 20
-20.1295173814
 10
53.7120300654
 20
-20.4164179324
 10
53.7115192326
 20
-20.4538122456
  0
LWPOLYLINE
  5
7A4
100
AcDbEntity
  8
RACCORDO
100
AcDbPolyline
 62
253
  6
CONTINUOUS
 90
28
 70
0
 10
53.7115192326
 20
16.3468649296
 10
53.7105077892
 20
16.3149800987
 10
53.7074600008
 20
16.2831822366
 10
53.7023799409
 20
16.2516018098
 10
53.6952463169
 20
16.2202400277
 10
53.6860973422
 20
16.1893609829
 10
53.6751130179
 20
16.1594667277
 10
53.662408932
 20
16.1306702096
 10
53.6480917573
 20
16.1030424112
 10
53.6324653615
 20
16.0769546645
 10
53.6157979701
 20
16.0525745633
 10
53.5981683095
 20
16.0297684097
 10
53.5796244794
 20
16.0084203748
 10
53.560349274
 20
15.988589659
 10
53.5404196741
 20
15.9702161851
 10
53.5196542684
 20
15.9530531023
 10
53.498088935
 20
15.9371003857
 10
53.4758398657
 20
15.922415825
 10
53.4527840548
 20
15.9089081893
 10
53.4289561802
 20
15.8966121221
 10
53.4044447024
 20
15.8855872776
 10
53.3791820032
 20
15.8758269462
 10
53.3533180991
 20
15.8674167806
 10
53.3268345189
 20
15.8603781864
 10
53.2993910269
 20
15.854691501
 10
53.2709143996
 20
15.8504605088
 10
53.2416186721
 20
15.8478375688
 10
53.2115953851
 20
15.846941082
  0
LINE
  5
7A5
100
AcDbEntity
  8
RACCORDO
100
AcDbLine
 62
253
  6
CONTINUOUS
 10
53.2115953851
 20
-19.953888398
 11
53.1205853411
 21
-20.044898442
  0
LINE
  5
7A6
100
AcDbEntity
  8
RACCORDO
100
AcDbLine
 62
253
  6
CONTINUOUS
 10
53.7115192326
 20
-20.4538122456
 11
53.6205091887
 21
-20.5448222896
  0
LINE
  5
7A7
100
AcDbEntity
  8
0
100
AcDbLine
 62
7
  6
CONTINUOUS
 10
10.4912150115
 20
49.546526342
 11
40.4912150115
 21
49.546526342
  0
LINE
  5
7A8
100
AcDbEntity
  8
RACCORDO
100
AcDbLine
 62
253
  6
CONTINUOUS
 10
53.6205091887
 20
16.4378749736
 11
53.7115192326
 21
16.3468649296
  0
LWPOLYLINE
  5
7A9
100
AcDbEntity
  8
RACCORDO
100
AcDbPolyline
 62
253
  6
CONTINUOUS
 90
22
 70
0
 10
53.6205091887
 20
42.1758966716
 10
53.6190958522
 20
42.2133100662
 10
53.6148866143
 20
42.2505132684
 10
53.6079051627
 20
42.2872976328
 10
53.5981910449
 20
42.3234558581
 10
53.5857986565
 20
42.3587862407
 10
53.5707961833
 20
42.3930935485
 10
53.5532646913
 20
42.4261894242
 10
53.533303816
 20
42.4578832274
 10
53.5110323919
 20
42.4879875608
 10
53.4865831514
 20
42.5163280965
 10
53.4600894905
 20
42.542754837
 10
53.4316890825
 20
42.5671308346
 10
53.4015267108
 20
42.5893274939
 10
53.3697825945
 20
42.6092081113
 10
53.3366639083
 20
42.6266455756
 10
53.3023509895
 20
42.6415505582
 10
53.2670457742
 20
42.6538407613
 10
53.231005037
 20
42.6634400539
 10
53.1944536751
 20
42.6703105414
 10
53.1575786984
 20
42.6744386559
 10
53.1205853411
 20
42.6758205192
  0
LINE
  5
7AA
100
AcDbEntity
  8
DRAFT
100
AcDbLine
 62
7
  6
CONTINUOUS
 10
38.532993609
 20
42.946526342
 11
38.6412150115
 21
42.8383049394
  0
ARC
  5
7AB
100
AcDbEntity
  8
DRAFT
100
AcDbCircle
 62
7
  6
CONTINUOUS
 10
0.7412150115
 20
-42.703473658
 40
2.25
100
AcDbArc
 50
270.0
 51
90.0
  0
ARC
  5
7AC
100
AcDbEntity
  8
DRAFT
100
AcDbCircle
 62
7
  6
CONTINUOUS
 10
-0.7587849885
 20
-42.703473658
 40
2.25
100
AcDbArc
 50
90.0
 51
270.0
  0
ARC
  5
7AD
100
AcDbEntity
  8
IMPORT_IGES
100
AcDbCircle
 62
7
  6
CONTINUOUS
 10
-31.4387367849
 20
-39.6533815456
 40
0.65
100
AcDbArc
 50
123.1061751818
 51
236.877238375
  0
ARC
  5
7AE
100
AcDbEntity
  8
IMPORT_IGES
100
AcDbCircle
 62
7
  6
CONTINUOUS
 10
-31.4487847085
 20
-39.653472798
 40
0.6499987
100
AcDbArc
 50
122.0859921198
 51
237.9128488363
  0
ARC
  5
7AF
100
AcDbEntity
  8
DRAFT
100
AcDbCircle
 62
7
  6
CONTINUOUS
 10
-15.7587849885
 20
-30.453473658
 40
0.5
100
AcDbArc
 50
345.953416245
 51
360.0
  0
ARC
  5
7B0
100
AcDbEntity
  8
DRAFT
100
AcDbCircle
 62
7
  6
CONTINUOUS
 10
-20.2587849885
 20
-30.453473658
 40
0.5
100
AcDbArc
 50
180.0
 51
270.0
  0
ARC
  5
7B1
100
AcDbEntity
  8
DRAFT
100
AcDbCircle
 62
7
  6
CONTINUOUS
 10
-20.2587849885
 20
-37.453473658
 40
0.5
100
AcDbArc
 50
90.0
 51
180.0
  0
ARC
  5
7B2
100
AcDbEntity
  8
DRAFT
100
AcDbCircle
 62
7
  6
CONTINUOUS
 10
-15.7587849885
 20
-37.453473658
 40
0.5
100
AcDbArc
 50
0.0
 51
90.0
  0
ARC
  5
7B3
100
AcDbEntity
  8
IMPORT_IGES
100
AcDbCircle
 62
7
  6
CONTINUOUS
 10
-39.5637849885
 20
26.181526342
 40
2.50000008
100
AcDbArc
 50
270.9131147681
 51
341.5195572177
  0
ARC
  5
7B4
100
AcDbEntity
  8
IMPORT_IGES
100
AcDbCircle
 62
7
  6
CONTINUOUS
 10
-39.5637849885
 20
26.181526342
 40
2.50000008
100
AcDbArc
 50
18.4811125503
 51
89.0874088383
  0
ARC
  5
7B5
100
AcDbEntity
  8
IMPORT_IGES
100
AcDbCircle
 62
7
  6
CONTINUOUS
 10
-30.5467849885
 20
35.325526342
 40
2.50000008
100
AcDbArc
 50
143.5238554406
 51
240.0816125236
  0
ARC
  5
7B6
100
AcDbEntity
  8
IMPORT_IGES
100
AcDbCircle
 62
7
  6
CONTINUOUS
 10
-37.9127849885
 20
34.817526342
 40
2.50000008
100
AcDbArc
 50
229.8736041407
 51
286.7169330531
  0
ARC
  5
7B7
100
AcDbEntity
  8
IMPORT_IGES
100
AcDbCircle
 62
7
  6
CONTINUOUS
 10
-37.9127849885
 20
34.817526342
 40
2.50000008
100
AcDbArc
 50
127.0807587729
 51
129.9698473977
  0
ARC
  5
7B8
100
AcDbEntity
  8
IMPORT_IGES
100
AcDbCircle
 62
7
  6
CONTINUOUS
 10
-30.0387849885
 20
26.181526342
 40
2.50000008
100
AcDbArc
 50
134.6104871462
 51
225.3890785034
  0
ARC
  5
7B9
100
AcDbEntity
  8
DRAFT
100
AcDbCircle
 62
7
  6
CONTINUOUS
 10
-0.7587849885
 20
38.596526342
 40
2.25
100
AcDbArc
 50
90.0
 51
270.0
  0
ARC
  5
7BA
100
AcDbEntity
  8
DRAFT
100
AcDbCircle
 62
7
  6
CONTINUOUS
 10
0.7412150115
 20
38.596526342
 40
2.25
100
AcDbArc
 50
270.0
 51
90.0
  0
ARC
  5
7BB
100
AcDbEntity
  8
IMPORT_IGES
100
AcDbCircle
 62
7
  6
CONTINUOUS
 10
-37.5387852285
 20
21.456526902
 40
0.6499987
100
AcDbArc
 50
297.682333266
 51
302.104682291
  0
ARC
  5
7BC
100
AcDbEntity
  8
IMPORT_IGES
100
AcDbCircle
 62
7
  6
CONTINUOUS
 10
-37.5387852285
 20
21.456526902
 40
0.6499987
100
AcDbArc
 50
57.8940641217
 51
242.3196427301
  0
ARC
  5
7BD
100
AcDbEntity
  8
IMPORT_IGES
100
AcDbCircle
 62
7
  6
CONTINUOUS
 10
-32.5387850685
 20
21.456526902
 40
0.6499987
100
AcDbArc
 50
297.682333266
 51
242.3196427301
  0
ARC
  5
7BE
100
AcDbEntity
  8
IMPORT_IGES
100
AcDbCircle
 62
7
  6
CONTINUOUS
 10
29.1432150115
 20
-28.301473658
 40
0.5499989
100
AcDbArc
 50
142.6115522855
 51
217.3802829868
  0
ARC
  5
7BF
100
AcDbEntity
  8
IMPORT_IGES
100
AcDbCircle
 62
7
  6
CONTINUOUS
 10
39.8112150115
 20
-25.888473658
 40
0.4499991
100
AcDbArc
 50
132.7091843096
 51
227.2886513528
  0
ARC
  5
7C0
100
AcDbEntity
  8
IMPORT_IGES
100
AcDbCircle
 62
7
  6
CONTINUOUS
 10
37.2712150115
 20
-25.888473658
 40
0.4499991
100
AcDbArc
 50
257.7802844741
 51
102.2196237536
  0
ARC
  5
7C1
100
AcDbEntity
  8
IMPORT_IGES
100
AcDbCircle
 62
7
  6
CONTINUOUS
 10
38.095339154
 20
21.2427150749
 40
0.95
100
AcDbArc
 50
115.7341061061
 51
165.4464141447
  0
ARC
  5
7C2
100
AcDbEntity
  8
IMPORT_IGES
100
AcDbCircle
 62
7
  6
CONTINUOUS
 10
38.095339154
 20
21.2427150749
 40
0.95
100
AcDbArc
 50
194.5138164713
 51
202.36513508
  0
ARC
  5
7C3
100
AcDbEntity
  8
IMPORT_IGES
100
AcDbCircle
 62
7
  6
CONTINUOUS
 10
33.095339154
 20
21.2427151345
 40
0.95
100
AcDbArc
 50
134.8471550808
 51
202.3672956808
  0
ARC
  5
7C4
100
AcDbEntity
  8
IMPORT_IGES
100
AcDbCircle
 62
7
  6
CONTINUOUS
 10
33.095339154
 20
21.2427151345
 40
0.95
100
AcDbArc
 50
81.3294140492
 51
132.3896467883
  0
ARC
  5
7C5
100
AcDbEntity
  8
IMPORT_IGES
100
AcDbCircle
 62
7
  6
CONTINUOUS
 10
29.0462149515
 20
35.546526662
 40
0.6499987
100
AcDbArc
 50
121.5655255126
 51
238.4359868558
  0
ARC
  5
7C6
100
AcDbEntity
  8
IMPORT_IGES
100
AcDbCircle
 62
7
  6
CONTINUOUS
 10
21.4262149515
 20
35.546526662
 40
0.6499987
100
AcDbArc
 50
226.1738408587
 51
133.8361645411
  0
ARC
  5
7C7
100
AcDbEntity
  8
IMPORT_IGES
100
AcDbCircle
 62
7
  6
CONTINUOUS
 10
31.5862149515
 20
35.546526662
 40
0.6499987
100
AcDbArc
 50
287.0036853368
 51
72.99960576
  0
ARC
  5
7C8
100
AcDbEntity
  8
IMPORT_IGES
100
AcDbCircle
 62
7
  6
CONTINUOUS
 10
26.6962145715
 20
20.466526342
 40
0.5499989
100
AcDbArc
 50
49.0208574847
 51
125.6124367065
  0
ARC
  5
7C9
100
AcDbEntity
  8
IMPORT_IGES
100
AcDbCircle
 62
7
  6
CONTINUOUS
 10
43.1132150115
 20
12.211526342
 40
0.5499989
100
AcDbArc
 50
208.81757872
 51
237.7887998399
  0
ARC
  5
7CA
100
AcDbEntity
  8
IMPORT_IGES
100
AcDbCircle
 62
7
  6
CONTINUOUS
 10
43.1132150115
 20
12.211526342
 40
0.5499989
100
AcDbArc
 50
302.2110750258
 51
331.1842240282
  0
CIRCLE
  5
7CB
100
AcDbEntity
  8
IMPORT_IGES
100
AcDbCircle
 62
7
  6
CONTINUOUS
 10
38.095339154
 20
21.2427150749
 40
0.35
  0
CIRCLE
  5
7CC
100
AcDbEntity
  8
IMPORT_IGES
100
AcDbCircle
 62
7
  6
CONTINUOUS
 10
33.095339154
 20
21.2427151345
 40
0.35
  0
ELLIPSE
  5
7CD
100
AcDbEntity
  8
RACCORDO
100
AcDbEllipse
 62
7
  6
CONTINUOUS
 10
-13.9588154541
 20
-29.3535041236
 30
0.0
 11
0.1414644378
 21
0.1414644378
 31
0.0
 40
0.9996954599
 41
-0.7852458701
 42
-0.2615792756
  0
ELLIPSE
  5
7CE
100
AcDbEntity
  8
RACCORDO
100
AcDbEllipse
 62
7
  6
CONTINUOUS
 10
-15.0587545229
 20
-29.3535041236
 30
0.0
 11
0.1414644378
 21
-0.1414644378
 31
0.0
 40
0.9996954599
 41
-2.8800133685
 42
-2.3563467834
  0
ELLIPSE
  5
7CF
100
AcDbEntity
  8
RACCORDO
100
AcDbEllipse
 62
7
  6
CONTINUOUS
 10
-20.9588154541
 20
-29.3535041236
 30
0.0
 11
0.1414644378
 21
0.1414644378
 31
0.0
 40
0.9996954599
 41
-0.7852458701
 42
-0.2615792756
  0
ELLIPSE
  5
7D0
100
AcDbEntity
  8
RACCORDO
100
AcDbEllipse
 62
7
  6
CONTINUOUS
 10
-22.0587545229
 20
-29.3535041236
 30
0.0
 11
0.1414644378
 21
-0.1414644378
 31
0.0
 40
0.9996954599
 41
-2.8800133685
 42
-2.3563467834
  0
ELLIPSE
  5
7D1
100
AcDbEntity
  8
RACCORDO
100
AcDbEllipse
 62
7
  6
CONTINUOUS
 10
-20.9587545229
 20
-46.8527096905
 30
0.0
 11
0.039286661
 21
0.1969134736
 31
0.0
 40
0.9960441251
 41
-4.514700471
 42
-2.9454252223
  0
ELLIPSE
  5
7D2
100
AcDbEntity
  8
RACCORDO
100
AcDbEllipse
 62
7
  6
CONTINUOUS
 10
-22.8087545229
 20
-49.3534431924
 30
0.0
 11
0.1414644378
 21
0.1414644378
 31
0.0
 40
0.9996954599
 41
2.3563467834
 42
3.9268385237
  0
ELLIPSE
  5
7D3
100
AcDbEntity
  8
RACCORDO
100
AcDbEllipse
 62
7
  6
CONTINUOUS
 10
-13.2088154541
 20
-49.3534431924
 30
0.0
 11
0.1414644378
 21
-0.1414644378
 31
0.0
 40
0.9996954599
 41
-0.7852458701
 42
0.7852458701
  0
ELLIPSE
  5
7D4
100
AcDbEntity
  8
RACCORDO
100
AcDbEllipse
 62
7
  6
CONTINUOUS
 10
-20.9587545229
 20
-44.9542376255
 30
0.0
 11
-0.039286661
 21
0.1969134736
 31
0.0
 40
0.9960441251
 41
0.8485376209
 42
1.3731078174
  0
ELLIPSE
  5
7D5
100
AcDbEntity
  8
RACCORDO
100
AcDbEllipse
 62
7
  6
CONTINUOUS
 10
-15.0588154541
 20
-46.8527096905
 30
0.0
 11
-0.039286661
 21
0.1969134736
 31
0.0
 40
0.9960441251
 41
-3.3377600849
 42
-1.7684848362
  0
ELLIPSE
  5
7D6
100
AcDbEntity
  8
RACCORDO
100
AcDbEllipse
 62
7
  6
CONTINUOUS
 10
-15.0588154541
 20
-44.9542376255
 30
0.0
 11
0.039286661
 21
0.1969134736
 31
0.0
 40
0.9960441251
 41
-1.3731078174
 42
-0.8485377415
  0
ELLIPSE
  5
7D7
100
AcDbEntity
  8
RACCORDO
100
AcDbEllipse
 62
7
  6
CONTINUOUS
 10
-25.7087697557
 20
-17.1534888908
 30
0.0
 11
0.0525603851
 21
0.2227100583
 31
0.0
 40
0.3820700798
 41
-4.6199440805
 42
-4.1590583148
  0
ELLIPSE
  5
7D8
100
AcDbEntity
  8
RACCORDO
100
AcDbEllipse
 62
7
  6
CONTINUOUS
 10
-10.3088002213
 20
-17.1534888908
 30
0.0
 11
-0.0525603851
 21
0.2227100583
 31
0.0
 40
0.3820700798
 41
-2.1241269924
 42
-1.6632412267
  0
ELLIPSE
  5
7D9
100
AcDbEntity
  8
RACCORDO
100
AcDbEllipse
 62
7
  6
CONTINUOUS
 10
-10.3088002213
 20
-17.1534888908
 30
0.0
 11
0.2227100583
 21
-0.0525603851
 31
0.0
 40
0.3820700798
 41
1.7920111351
 42
2.1241269924
  0
ELLIPSE
  5
7DA
100
AcDbEntity
  8
RACCORDO
100
AcDbEllipse
 62
7
  6
CONTINUOUS
 10
-25.7087697557
 20
-17.1534888908
 30
0.0
 11
0.2227100583
 21
0.0525603851
 31
0.0
 40
0.3820700798
 41
1.0174656612
 42
1.3495815185
  0
ELLIPSE
  5
7DB
100
AcDbEntity
  8
RACCORDO
100
AcDbEllipse
 62
7
  6
CONTINUOUS
 10
-25.8034719323
 20
-17.5588628782
 30
0.0
 11
-0.0
 21
0.5
 31
0.0
 40
0.0174550649
 41
-1.0960667703
 42
-0.6272888696
  0
ELLIPSE
  5
7DC
100
AcDbEntity
  8
RACCORDO
100
AcDbEllipse
 62
7
  6
CONTINUOUS
 10
-10.2140980447
 20
-17.5588628782
 30
0.0
 11
0.0
 21
0.5
 31
0.0
 40
0.0174550649
 41
0.6272888696
 42
1.0960667703
  0
ELLIPSE
  5
7DD
100
AcDbEntity
  8
RACCORDO
100
AcDbEllipse
 62
7
  6
CONTINUOUS
 10
53.3911388475
 20
-46.553397494
 30
0.0
 11
-0.3536610946
 21
0.3536610946
 31
0.0
 40
0.9996954599
 41
2.3563467834
 42
3.9268385237
  0
ELLIPSE
  5
7DE
100
AcDbEntity
  8
RACCORDO
100
AcDbEllipse
 62
7
  6
CONTINUOUS
 10
-53.4087088245
 20
-46.553397494
 30
0.0
 11
-0.3536610946
 21
-0.3536610946
 31
0.0
 40
0.9996954599
 41
-0.7852458701
 42
0.7852458701
  0
ELLIPSE
  5
7DF
100
AcDbEntity
  8
RACCORDO
100
AcDbEllipse
 62
7
  6
CONTINUOUS
 10
-53.4087088245
 20
42.446450178
 30
0.0
 11
-0.3536610946
 21
0.3536610946
 31
0.0
 40
0.9996954599
 41
-0.7097622557
 42
0.7097622446
  0
ELLIPSE
  5
7E0
100
AcDbEntity
  8
RACCORDO
100
AcDbEllipse
 62
7
  6
CONTINUOUS
 10
-53.4087088245
 20
42.446450178
 30
0.0
 11
0.3536610946
 21
-0.3536610946
 31
0.0
 40
0.9996954599
 41
2.3563467834
 42
3.9268385237
  0
ELLIPSE
  5
7E1
100
AcDbEntity
  8
RACCORDO
100
AcDbEllipse
 62
7
  6
CONTINUOUS
 10
-53.4087088245
 20
-46.553397494
 30
0.0
 11
0.3536610946
 21
0.3536610946
 31
0.0
 40
0.9996954599
 41
2.3563467834
 42
3.9268385237
  0
ELLIPSE
  5
7E2
100
AcDbEntity
  8
RACCORDO
100
AcDbEllipse
 62
7
  6
CONTINUOUS
 10
53.3911388475
 20
-46.553397494
 30
0.0
 11
0.3536610946
 21
-0.3536610946
 31
0.0
 40
0.9996954599
 41
-0.7852458701
 42
0.7852458701
  0
ELLIPSE
  5
7E3
100
AcDbEntity
  8
RACCORDO
100
AcDbEllipse
 62
7
  6
CONTINUOUS
 10
53.3911388475
 20
42.446450178
 30
0.0
 11
0.3536610946
 21
0.3536610946
 31
0.0
 40
0.9996954599
 41
-0.7852458701
 42
0.7852458701
  0
ELLIPSE
  5
7E4
100
AcDbEntity
  8
RACCORDO
100
AcDbEllipse
 62
7
  6
CONTINUOUS
 10
51.7114278428
 20
15.5469867735
 30
0.0
 11
0.0
 21
0.3
 31
0.0
 40
0.0174550649
 41
4.7123889804
 42
6.2657320147
  0
ELLIPSE
  5
7E5
100
AcDbEntity
  8
DRAFT
100
AcDbEllipse
 62
7
  6
CONTINUOUS
 10
-18.0087849885
 20
-29.3796562554
 30
0.0
 11
4.0
 21
-0.0
 31
0.0
 40
0.0174550649
 41
-2.702630768
 42
-2.3291326113
  0
ELLIPSE
  5
7E6
100
AcDbEntity
  8
DRAFT
100
AcDbEllipse
 62
7
  6
CONTINUOUS
 10
-18.0087849885
 20
-29.3796562554
 30
0.0
 11
4.0
 21
-0.0
 31
0.0
 40
0.0174550649
 41
-0.8124600423
 42
-0.4389618856
  0
ELLIPSE
  5
7E7
100
AcDbEntity
  8
DRAFT
100
AcDbEllipse
 62
7
  6
CONTINUOUS
 10
-18.0087849885
 20
-38.2272910606
 30
0.0
 11
4.0
 21
-0.0
 31
0.0
 40
0.0174550649
 41
2.3291326113
 42
2.702630768
  0
ELLIPSE
  5
7E8
100
AcDbEntity
  8
DRAFT
100
AcDbEllipse
 62
7
  6
CONTINUOUS
 10
-18.0087849885
 20
-38.2272910606
 30
0.0
 11
4.0
 21
-0.0
 31
0.0
 40
0.0174550649
 41
0.4389618856
 42
0.4974535551
  0
ELLIPSE
  5
7E9
100
AcDbEntity
  8
RACCORDO
100
AcDbEllipse
 62
7
  6
CONTINUOUS
 10
-22.3087849885
 20
-38.6724319553
 30
0.0
 11
-0.0
 21
0.3025079408
 31
0.0
 40
0.9917095044
 41
-1.5707963268
 42
-0.0
  0
ELLIPSE
  5
7EA
100
AcDbEntity
  8
RACCORDO
100
AcDbEllipse
 62
7
  6
CONTINUOUS
 10
-22.3087849885
 20
-41.7101215819
 30
0.0
 11
-0.0
 21
0.6433520762
 31
0.0
 40
0.4663076582
 41
-3.1415926536
 42
-1.5707963268
  0
ELLIPSE
  5
7EB
100
AcDbEntity
  8
RACCORDO
100
AcDbEllipse
 62
7
  6
CONTINUOUS
 10
-9.9582788586
 20
-19.6539340895
 30
0.0
 11
0.0
 21
0.3
 31
0.0
 40
0.0174550649
 41
-4.7123889804
 42
-3.1590459461
  0
ELLIPSE
  5
7EC
100
AcDbEntity
  8
RACCORDO
100
AcDbEllipse
 62
7
  6
CONTINUOUS
 10
-53.2341581752
 20
16.3418721164
 30
0.0
 11
0.3536610946
 21
0.3536610946
 31
0.0
 40
0.9996954599
 41
-3.9268385237
 42
-2.3563467834
  0
ELLIPSE
  5
7ED
100
AcDbEntity
  8
RACCORDO
100
AcDbEllipse
 62
7
  6
CONTINUOUS
 10
-23.8152313622
 20
-46.4177462454
 30
0.0
 11
-0.2050972319
 21
0.4800715085
 31
0.0
 40
0.9507899748
 41
-3.5274312344
 42
-1.9569394941
  0
ELLIPSE
  5
7EE
100
AcDbEntity
  8
RACCORDO
100
AcDbEllipse
 62
7
  6
CONTINUOUS
 10
-12.2023386147
 20
-46.4177462454
 30
0.0
 11
0.2050972319
 21
0.4800715085
 31
0.0
 40
0.9507899748
 41
-4.3262458131
 42
-2.7557540728
  0
ELLIPSE
  5
7EF
100
AcDbEntity
  8
RACCORDO
100
AcDbEllipse
 62
7
  6
CONTINUOUS
 10
-26.0592911184
 20
-19.6539340895
 30
0.0
 11
0.0
 21
0.3
 31
0.0
 40
0.0174550649
 41
-3.1241393611
 42
-1.5707963268
  0
ELLIPSE
  5
7F0
100
AcDbEntity
  8
RACCORDO
100
AcDbEllipse
 62
7
  6
CONTINUOUS
 10
-23.450057456
 20
-44.353473658
 30
0.0
 11
0.0
 21
0.5
 31
0.0
 40
0.0174550649
 41
-3.1590459461
 42
-3.1415926536
  0
ELLIPSE
  5
7F1
100
AcDbEntity
  8
RACCORDO
100
AcDbEllipse
 62
7
  6
CONTINUOUS
 10
-12.5675125209
 20
-44.353473658
 30
0.0
 11
0.0
 21
0.5
 31
0.0
 40
0.0174550649
 41
-3.1415926536
 42
-3.1241393611
  0
ELLIPSE
  5
7F2
100
AcDbEntity
  8
RACCORDO
100
AcDbEllipse
 62
7
  6
CONTINUOUS
 10
-26.150057456
 20
-20.5448222896
 30
0.0
 11
-0.0
 21
0.5
 31
0.0
 40
0.0174550649
 41
0.0174532925
 42
1.5707963268
  0
ELLIPSE
  5
7F3
100
AcDbEntity
  8
RACCORDO
100
AcDbEllipse
 62
7
  6
CONTINUOUS
 10
-9.8675125209
 20
-20.5448222896
 30
0.0
 11
-0.0
 21
0.5
 31
0.0
 40
0.0174550649
 41
-1.5707963268
 42
-0.0174532925
  0
ELLIPSE
  5
7F4
100
AcDbEntity
  8
RACCORDO
100
AcDbEllipse
 62
7
  6
CONTINUOUS
 10
-13.7087849885
 20
-41.7101215819
 30
0.0
 11
-0.0
 21
0.6433520762
 31
0.0
 40
0.4663076582
 41
1.5707963268
 42
3.1415926536
  0
ELLIPSE
  5
7F5
100
AcDbEntity
  8
RACCORDO
100
AcDbEllipse
 62
7
  6
CONTINUOUS
 10
-9.864021508
 20
-38.6971570187
 30
0.0
 11
0.0
 21
0.3
 31
0.0
 40
0.0174550649
 41
-1.5707963268
 42
-0.0174532925
  0
ELLIPSE
  5
7F6
100
AcDbEntity
  8
RACCORDO
100
AcDbEllipse
 62
7
  6
CONTINUOUS
 10
-13.7087849885
 20
-38.6724319553
 30
0.0
 11
-0.0
 21
0.3025079408
 31
0.0
 40
0.9917095044
 41
0.0
 42
1.5707963268
  0
ENDSEC
  0
SECTION
  2
OBJECTS
  0
DICTIONARY
  5
C
100
AcDbDictionary
280
0
281
1
  3
ACAD_GROUP
350
D
  3
ACAD_MLINESTYLE
350
17
  3
ACAD_LAYOUT
350
1A
  3
ACAD_PLOTSETTINGS
350
19
  3
ACAD_PLOTSTYLENAME
350
E
  0
DICTIONARY
  5
D
102
{ACAD_REACTORS
330
C
102
}
100
AcDbDictionary
280
0
281
1
  0
ACDBDICTIONARYWDFLT
  5
E
102
{ACAD_REACTORS
330
C
102
}
100
AcDbDictionary
281
1
  3
Normal
350
F
100
AcDbDictionaryWithDefault
340
F
  0
DICTIONARY
  5
17
102
{ACAD_REACTORS
330
C
102
}
100
AcDbDictionary
280
0
281
1
  3
Standard
350
18
  0
DICTIONARY
  5
19
102
{ACAD_REACTORS
330
C
102
}
100
AcDbDictionary
281
1
  0
DICTIONARY
  5
1A
102
{ACAD_REACTORS
330
C
102
}
100
AcDbDictionary
281
1
  3
Model
350
7F7
  3
Layout1
350
7F8
  0
ACDBPLACEHOLDER
  5
F
102
{ACAD_REACTORS
330
E
102
}
  0
MLINESTYLE
  5
18
102
{ACAD_REACTORS
330
17
102
}
100
AcDbMlineStyle
  2
STANDARD
 70
0
  3

 62
256
 51
90.0
 52
90.0
 71
2
 49
0.5
 62
256
  6
BYLAYER
 49
-0.5
 62
256
  6
BYLAYER
  0
LAYOUT
  5
7F7
102
{ACAD_REACTORS
330
1A
102
}
100
AcDbPlotSettings
  1

  2
none_device
  4
ISO_A4_(297.00_x_210.00_MM)
  6

 40
0.0
 41
0.0
 42
0.0
 43
0.0
 44
297.0
 45
210.0
 46
0.0
 47
0.0
 48
0.0
 49
0.0
140
0.0
141
0.0
142
1.0
143
1.0
 70
1024
 72
1
 73
0
 74
0
  7

 75
0
147
1.0
148
0.0
149
0.0
100
AcDbLayout
  1
Model
 70
0
 71
0
 10
0.0
 20
0.0
 11
297.0
 21
210.0
 12
0.0
 22
0.0
 32
0.0
 14
0.0
 24
0.0
 34
0.0
 15
0.0
 25
0.0
 35
0.0
146
0.0
 13
0.0
 23
0.0
 33
0.0
 16
1.0
 26
0.0
 36
0.0
 17
0.0
 27
1.0
 37
0.0
 76
0
330
55C
345
0
346
0
  0
LAYOUT
  5
7F8
102
{ACAD_REACTORS
330
1A
102
}
100
AcDbPlotSettings
  1

  2
none_device
  4
ISO_A4_(297.00_x_210.00_MM)
  6

 40
0.0
 41
0.0
 42
0.0
 43
0.0
 44
297.0
 45
210.0
 46
0.0
 47
0.0
 48
0.0
 49
0.0
140
0.0
141
0.0
142
1.0
143
1.0
 70
0
 72
1
 73
0
 74
0
  7

 75
0
147
1.0
148
0.0
149
0.0
100
AcDbLayout
  1
Layout1
 70
0
 71
1
 10
0.0
 20
0.0
 11
297.0
 21
210.0
 12
0.0
 22
0.0
 32
0.0
 14
0.0
 24
0.0
 34
0.0
 15
0.0
 25
0.0
 35
0.0
146
0.0
 13
0.0
 23
0.0
 33
0.0
 16
1.0
 26
0.0
 36
0.0
 17
0.0
 27
1.0
 37
0.0
 76
0
330
55D
345
0
346
0
  0
ENDSEC
  0
EOF
