  0
SECTION
  2
HEADER
  9
$ACADVER
  1
AC1024
  9
$DWGCODEPAGE
  3
ANSI_1252
  9
$EXTMAX
 10
297.0
 20
210.0
 30
0.0
  9
$EXTMIN
 10
0.0
 20
0.0
 30
0.0
  9
$LIMMIN
 10
0.0
 20
0.0
  9
$LIMMAX
 10
297.0
 20
210.0
  9
$VIEWCTR
 10
148.5
 20
105.0
  9
$VIEWSIZE
 40
210.0
  9
$CLAYER
  8
0
  9
$LTSCALE
 40
16.335
  9
$CELTYPE
  6
BYLAYER
  9
$DIMSCALE
 40
1.0
  9
$DIMASZ
 40
3.0
  9
$DIMEXO
 40
0.5
  9
$DIMDLI
 40
11.286
  9
$DIMEXE
 40
1.5
  9
$DIMCEN
 40
2.673
  9
$DIMLFAC
 40
1.0
  9
$DIMBLK
  1
_FILLED
  9
$DIMALT
 70
0
  9
$DIMALTF
 40
0.0393700787
  9
$DIMTXT
 40
3.0
  9
$DIMTOL
 70
1
  9
$DIMLIM
 70
0
  9
$DIMTFAC
 40
1.0
  9
$DIMTP
 40
0.01
  9
$DIMTM
 40
0.01
  9
$DIMGAP
 40
0.625
  9
$DIMDSEP
 70
44
  9
$AUNITS
 70
0
  9
$PDMODE
 70
3
  9
$PDSIZE
 40
3.0
  9
$HANDSEED
  5
47A
  9
$TILEMODE
 70
1
  9
$MEASUREMENT
 70
1
  9
$INSUNITS
 70
4
  0
ENDSEC
  0
SECTION
  2
CLASSES
  0
CLASS
  1
ACDBDICTIONARYWDFLT
  2
AcDbDictionaryWithDefault
  3
AutoCAD 2000
 90
0
 91
1
280
0
281
0
  0
CLASS
  1
ACDBPLACEHOLDER
  2
AcDbPlaceHolder
  3
AutoCAD 2000
 90
0
 91
1
280
0
281
0
  0
CLASS
  1
LAYOUT
  2
AcDbLayout
  3
AutoCAD 2000
 90
0
 91
0
280
0
281
0
  0
ENDSEC
  0
SECTION
  2
TABLES
  0
TABLE
  2
VPORT
  5
8
100
AcDbSymbolTable
 70
2
  0
VPORT
  5
1F4
100
AcDbSymbolTableRecord
100
AcDbViewportTableRecord
  2
*ACTIVE
 70
0
 10
0.0
 20
0.0
 11
1.0
 21
1.0
 12
148.5
 22
105.0
 13
0.0
 23
0.0
 14
1.0
 24
1.0
 15
0.0
 25
0.0
 16
0.0
 26
0.0
 36
1.0
 17
0.0
 27
0.0
 37
0.0
 40
210.0
 41
1.4142857143
 42
50.0
 43
0.0
 44
0.0
 50
0.0
 51
0.0
 71
0
 72
100
 73
1
 74
1
 75
0
 76
0
 77
0
 78
0
  0
ENDTAB
  0
TABLE
  2
LTYPE
  5
5
100
AcDbSymbolTable
 70
6
  0
LTYPE
  5
14
100
AcDbSymbolTableRecord
100
AcDbLinetypeTableRecord
  2
BYBLOCK
 70
0
  3

 72
65
 73
0
 40
0.0
  0
LTYPE
  5
15
100
AcDbSymbolTableRecord
100
AcDbLinetypeTableRecord
  2
BYLAYER
 70
0
  3

 72
65
 73
0
 40
0.0
  0
LTYPE
  5
16
100
AcDbSymbolTableRecord
100
AcDbLinetypeTableRecord
  2
CONTINUOUS
 70
64
  3
Solid line
 72
65
 73
0
 40
0.0
  0
LTYPE
  5
1F5
100
AcDbSymbolTableRecord
100
AcDbLinetypeTableRecord
  2
CENTER
 70
64
  3
____ _ ____ _ ____ _ ____ _ ____ _ ____ _ ____
 72
65
 73
4
 40
0.6
 49
0.375
 74
0
 49
-0.075
 74
0
 49
0.075
 74
0
 49
-0.075
 74
0
  0
LTYPE
  5
1F6
100
AcDbSymbolTableRecord
100
AcDbLinetypeTableRecord
  2
HIDDEN
 70
64
  3
- - - - - - - - - - - - - - - - - - - -
 72
65
 73
2
 40
0.2
 49
0.1
 74
0
 49
-0.1
 74
0
  0
LTYPE
  5
1F7
100
AcDbSymbolTableRecord
100
AcDbLinetypeTableRecord
  2
PHANTOM
 70
64
  3
_____ _ _ _____ _ _ _____ _ _ _____
 72
65
 73
6
 40
0.8
 49
0.45
 74
0
 49
-0.05
 74
0
 49
0.1
 74
0
 49
-0.05
 74
0
 49
0.1
 74
0
 49
-0.05
 74
0
  0
LTYPE
  5
1F8
100
AcDbSymbolTableRecord
100
AcDbLinetypeTableRecord
  2
DOT
 70
64
  3
. . . . . . . . . . . . . . . . . . . .
 72
65
 73
2
 40
0.2
 49
0.1
 74
0
 49
-0.1
 74
0
  0
LTYPE
  5
1F9
100
AcDbSymbolTableRecord
100
AcDbLinetypeTableRecord
  2
DASHED
 70
64
  3
- - - - - - - - - - - - - - - - - - - -
 72
65
 73
2
 40
0.2
 49
0.1
 74
0
 49
-0.1
 74
0
  0
ENDTAB
  0
TABLE
  2
LAYER
  5
2
100
AcDbSymbolTable
 70
36
  0
LAYER
  5
10
100
AcDbSymbolTableRecord
100
AcDbLayerTableRecord
  2
0
 70
0
 62
7
  6
CONTINUOUS
370
-3
390
F
  0
LAYER
  5
1FA
100
AcDbSymbolTableRecord
100
AcDbLayerTableRecord
  2
DEFAULT_1
 70
0
 62
7
  6
CENTER
370
-3
390
F
  0
LAYER
  5
1FB
100
AcDbSymbolTableRecord
100
AcDbLayerTableRecord
  2
DEFAULT_2
 70
0
 62
7
  6
HIDDEN
370
-3
390
F
  0
LAYER
  5
1FC
100
AcDbSymbolTableRecord
100
AcDbLayerTableRecord
  2
DEFAULT_3
 70
0
 62
7
  6
PHANTOM
370
-3
390
F
  0
LAYER
  5
1FD
100
AcDbSymbolTableRecord
100
AcDbLayerTableRecord
  2
06___PRT_ALL_SURFS
 70
0
 62
7
  6
CONTINUOUS
370
-3
390
F
  0
LAYER
  5
1FE
100
AcDbSymbolTableRecord
100
AcDbLayerTableRecord
  2
0805_LED_REF_60000
 70
0
 62
7
  6
CONTINUOUS
370
-3
390
F
  0
LAYER
  5
1FF
100
AcDbSymbolTableRecord
100
AcDbLayerTableRecord
  2
0805_LED_REF_60000_1
 70
0
 62
7
  6
CONTINUOUS
370
-3
390
F
  0
LAYER
  5
200
100
AcDbSymbolTableRecord
100
AcDbLayerTableRecord
  2
0805_LED_REF_60000_2
 70
0
 62
7
  6
CONTINUOUS
370
-3
390
F
  0
LAYER
  5
201
100
AcDbSymbolTableRecord
100
AcDbLayerTableRecord
  2
1206_R_REF_65000
 70
0
 62
7
  6
CONTINUOUS
370
-3
390
F
  0
LAYER
  5
202
100
AcDbSymbolTableRecord
100
AcDbLayerTableRecord
  2
1206_R_REF_65000_1
 70
0
 62
7
  6
CONTINUOUS
370
-3
390
F
  0
LAYER
  5
203
100
AcDbSymbolTableRecord
100
AcDbLayerTableRecord
  2
ASSI
 70
0
 62
7
  6
CONTINUOUS
370
-3
390
F
  0
LAYER
  5
204
100
AcDbSymbolTableRecord
100
AcDbLayerTableRecord
  2
COLOR
 70
0
 62
7
  6
CONTINUOUS
370
-3
390
F
  0
LAYER
  5
205
100
AcDbSymbolTableRecord
100
AcDbLayerTableRecord
  2
COLOR24
 70
0
 62
7
  6
CONTINUOUS
370
-3
390
F
  0
LAYER
  5
206
100
AcDbSymbolTableRecord
100
AcDbLayerTableRecord
  2
COLOR26
 70
0
 62
7
  6
CONTINUOUS
370
-3
390
F
  0
LAYER
  5
207
100
AcDbSymbolTableRecord
100
AcDbLayerTableRecord
  2
COORDINATE
 70
0
 62
7
  6
CONTINUOUS
370
-3
390
F
  0
LAYER
  5
208
100
AcDbSymbolTableRecord
100
AcDbLayerTableRecord
  2
COPY_PUBLISH
 70
0
 62
7
  6
CONTINUOUS
370
-3
390
F
  0
LAYER
  5
209
100
AcDbSymbolTableRecord
100
AcDbLayerTableRecord
  2
COSMETICI
 70
0
 62
7
  6
CONTINUOUS
370
-3
390
F
  0
LAYER
  5
20A
100
AcDbSymbolTableRecord
100
AcDbLayerTableRecord
  2
CR_CN2MP2_5_H6_EH-A_TET__810000
 70
0
 62
7
  6
CONTINUOUS
370
-3
390
F
  0
LAYER
  5
20B
100
AcDbSymbolTableRecord
100
AcDbLayerTableRecord
  2
CR_CN2MP2_5_H6_EH-A_TET__8100_1
 70
0
 62
7
  6
CONTINUOUS
370
-3
390
F
  0
LAYER
  5
20C
100
AcDbSymbolTableRecord
100
AcDbLayerTableRecord
  2
CR_FIDUCIAL75__10000
 70
0
 62
7
  6
CONTINUOUS
370
-3
390
F
  0
LAYER
  5
20D
100
AcDbSymbolTableRecord
100
AcDbLayerTableRecord
  2
CR_FIDUCIAL75__10000_1
 70
0
 62
7
  6
CONTINUOUS
370
-3
390
F
  0
LAYER
  5
20E
100
AcDbSymbolTableRecord
100
AcDbLayerTableRecord
  2
CR_SWITCH_LF201__650000
 70
0
 62
7
  6
CONTINUOUS
370
-3
390
F
  0
LAYER
  5
20F
100
AcDbSymbolTableRecord
100
AcDbLayerTableRecord
  2
CS3484R01
 70
0
 62
7
  6
CONTINUOUS
370
-3
390
F
  0
LAYER
  5
210
100
AcDbSymbolTableRecord
100
AcDbLayerTableRecord
  2
CS3484R02
 70
0
 62
7
  6
CONTINUOUS
370
-3
390
F
  0
LAYER
  5
211
100
AcDbSymbolTableRecord
100
AcDbLayerTableRecord
  2
CURVE
 70
0
 62
7
  6
CONTINUOUS
370
-3
390
F
  0
LAYER
  5
212
100
AcDbSymbolTableRecord
100
AcDbLayerTableRecord
  2
DRAFT
 70
0
 62
7
  6
CONTINUOUS
370
-3
390
F
  0
LAYER
  5
213
100
AcDbSymbolTableRecord
100
AcDbLayerTableRecord
  2
GEOMETRIA_SOLIDA
 70
0
 62
7
  6
CONTINUOUS
370
-3
390
F
  0
LAYER
  5
214
100
AcDbSymbolTableRecord
100
AcDbLayerTableRecord
  2
GEOMETRIA_SOLIDA_1
 70
0
 62
7
  6
CONTINUOUS
370
-3
390
F
  0
LAYER
  5
215
100
AcDbSymbolTableRecord
100
AcDbLayerTableRecord
  2
GEOMETRIA_SOLIDA_2
 70
0
 62
7
  6
CONTINUOUS
370
-3
390
F
  0
LAYER
  5
216
100
AcDbSymbolTableRecord
100
AcDbLayerTableRecord
  2
IMPORT_IGES
 70
0
 62
7
  6
CONTINUOUS
370
-3
390
F
  0
LAYER
  5
217
100
AcDbSymbolTableRecord
100
AcDbLayerTableRecord
  2
INTF_10000
 70
0
 62
7
  6
CONTINUOUS
370
-3
390
F
  0
LAYER
  5
218
100
AcDbSymbolTableRecord
100
AcDbLayerTableRecord
  2
INTF_11
 70
0
 62
7
  6
CONTINUOUS
370
-3
390
F
  0
LAYER
  5
219
100
AcDbSymbolTableRecord
100
AcDbLayerTableRecord
  2
INTF_7
 70
0
 62
7
  6
CONTINUOUS
370
-3
390
F
  0
LAYER
  5
21A
100
AcDbSymbolTableRecord
100
AcDbLayerTableRecord
  2
INTF_GREEN
 70
0
 62
7
  6
CONTINUOUS
370
-3
390
F
  0
LAYER
  5
21B
100
AcDbSymbolTableRecord
100
AcDbLayerTableRecord
  2
INTF_RED
 70
0
 62
7
  6
CONTINUOUS
370
-3
390
F
  0
LAYER
  5
21C
100
AcDbSymbolTableRecord
100
AcDbLayerTableRecord
  2
INTF_YELLOW
 70
0
 62
7
  6
CONTINUOUS
370
-3
390
F
  0
LAYER
  5
21D
100
AcDbSymbolTableRecord
100
AcDbLayerTableRecord
  2
LAYER_102
 70
0
 62
7
  6
CONTINUOUS
370
-3
390
F
  0
LAYER
  5
21E
100
AcDbSymbolTableRecord
100
AcDbLayerTableRecord
  2
NONE
 70
0
 62
7
  6
CONTINUOUS
370
-3
390
F
  0
LAYER
  5
21F
100
AcDbSymbolTableRecord
100
AcDbLayerTableRecord
  2
NOTE
 70
0
 62
7
  6
CONTINUOUS
370
-3
390
F
  0
LAYER
  5
220
100
AcDbSymbolTableRecord
100
AcDbLayerTableRecord
  2
PIANI
 70
0
 62
7
  6
CONTINUOUS
370
-3
390
F
  0
LAYER
  5
221
100
AcDbSymbolTableRecord
100
AcDbLayerTableRecord
  2
PUNTI
 70
0
 62
7
  6
CONTINUOUS
370
-3
390
F
  0
LAYER
  5
222
100
AcDbSymbolTableRecord
100
AcDbLayerTableRecord
  2
RACCORDO
 70
0
 62
7
  6
CONTINUOUS
370
-3
390
F
  0
LAYER
  5
223
100
AcDbSymbolTableRecord
100
AcDbLayerTableRecord
  2
SIMBOLI
 70
0
 62
7
  6
CONTINUOUS
370
-3
390
F
  0
LAYER
  5
224
100
AcDbSymbolTableRecord
100
AcDbLayerTableRecord
  2
SMUSSO
 70
0
 62
7
  6
CONTINUOUS
370
-3
390
F
  0
LAYER
  5
225
100
AcDbSymbolTableRecord
100
AcDbLayerTableRecord
  2
SNAPLINE
 70
0
 62
7
  6
CONTINUOUS
370
-3
390
F
  0
LAYER
  5
226
100
AcDbSymbolTableRecord
100
AcDbLayerTableRecord
  2
SUPERFICI
 70
0
 62
7
  6
CONTINUOUS
370
-3
390
F
  0
LAYER
  5
227
100
AcDbSymbolTableRecord
100
AcDbLayerTableRecord
  2
TRASH
 70
0
 62
7
  6
CONTINUOUS
370
-3
390
F
  0
LAYER
  5
228
100
AcDbSymbolTableRecord
100
AcDbLayerTableRecord
  2
_1054
 70
0
 62
7
  6
CONTINUOUS
370
-3
390
F
  0
LAYER
  5
229
100
AcDbSymbolTableRecord
100
AcDbLayerTableRecord
  2
_1066
 70
0
 62
7
  6
CONTINUOUS
370
-3
390
F
  0
LAYER
  5
22A
100
AcDbSymbolTableRecord
100
AcDbLayerTableRecord
  2
_1101
 70
0
 62
7
  6
CONTINUOUS
370
-3
390
F
  0
LAYER
  5
22B
100
AcDbSymbolTableRecord
100
AcDbLayerTableRecord
  2
_1154
 70
0
 62
7
  6
CONTINUOUS
370
-3
390
F
  0
LAYER
  5
22C
100
AcDbSymbolTableRecord
100
AcDbLayerTableRecord
  2
_1186
 70
0
 62
7
  6
CONTINUOUS
370
-3
390
F
  0
LAYER
  5
22D
100
AcDbSymbolTableRecord
100
AcDbLayerTableRecord
  2
_1217
 70
0
 62
7
  6
CONTINUOUS
370
-3
390
F
  0
LAYER
  5
22E
100
AcDbSymbolTableRecord
100
AcDbLayerTableRecord
  2
_1244
 70
0
 62
7
  6
CONTINUOUS
370
-3
390
F
  0
LAYER
  5
22F
100
AcDbSymbolTableRecord
100
AcDbLayerTableRecord
  2
_1267
 70
0
 62
7
  6
CONTINUOUS
370
-3
390
F
  0
LAYER
  5
230
100
AcDbSymbolTableRecord
100
AcDbLayerTableRecord
  2
_1317
 70
0
 62
7
  6
CONTINUOUS
370
-3
390
F
  0
LAYER
  5
231
100
AcDbSymbolTableRecord
100
AcDbLayerTableRecord
  2
_1344
 70
0
 62
7
  6
CONTINUOUS
370
-3
390
F
  0
LAYER
  5
232
100
AcDbSymbolTableRecord
100
AcDbLayerTableRecord
  2
_1359
 70
0
 62
7
  6
CONTINUOUS
370
-3
390
F
  0
LAYER
  5
233
100
AcDbSymbolTableRecord
100
AcDbLayerTableRecord
  2
_1381
 70
0
 62
7
  6
CONTINUOUS
370
-3
390
F
  0
LAYER
  5
234
100
AcDbSymbolTableRecord
100
AcDbLayerTableRecord
  2
_1393
 70
0
 62
7
  6
CONTINUOUS
370
-3
390
F
  0
LAYER
  5
235
100
AcDbSymbolTableRecord
100
AcDbLayerTableRecord
  2
_1422
 70
0
 62
7
  6
CONTINUOUS
370
-3
390
F
  0
LAYER
  5
236
100
AcDbSymbolTableRecord
100
AcDbLayerTableRecord
  2
_1445
 70
0
 62
7
  6
CONTINUOUS
370
-3
390
F
  0
LAYER
  5
237
100
AcDbSymbolTableRecord
100
AcDbLayerTableRecord
  2
_1474
 70
0
 62
7
  6
CONTINUOUS
370
-3
390
F
  0
LAYER
  5
238
100
AcDbSymbolTableRecord
100
AcDbLayerTableRecord
  2
_1505
 70
0
 62
7
  6
CONTINUOUS
370
-3
390
F
  0
LAYER
  5
239
100
AcDbSymbolTableRecord
100
AcDbLayerTableRecord
  2
_1558
 70
0
 62
7
  6
CONTINUOUS
370
-3
390
F
  0
LAYER
  5
23A
100
AcDbSymbolTableRecord
100
AcDbLayerTableRecord
  2
_1610
 70
0
 62
7
  6
CONTINUOUS
370
-3
390
F
  0
LAYER
  5
23B
100
AcDbSymbolTableRecord
100
AcDbLayerTableRecord
  2
_1640
 70
0
 62
7
  6
CONTINUOUS
370
-3
390
F
  0
LAYER
  5
23C
100
AcDbSymbolTableRecord
100
AcDbLayerTableRecord
  2
_1670
 70
0
 62
7
  6
CONTINUOUS
370
-3
390
F
  0
LAYER
  5
23D
100
AcDbSymbolTableRecord
100
AcDbLayerTableRecord
  2
_1691
 70
0
 62
7
  6
CONTINUOUS
370
-3
390
F
  0
LAYER
  5
23E
100
AcDbSymbolTableRecord
100
AcDbLayerTableRecord
  2
_1733
 70
0
 62
7
  6
CONTINUOUS
370
-3
390
F
  0
LAYER
  5
23F
100
AcDbSymbolTableRecord
100
AcDbLayerTableRecord
  2
_1754
 70
0
 62
7
  6
CONTINUOUS
370
-3
390
F
  0
LAYER
  5
240
100
AcDbSymbolTableRecord
100
AcDbLayerTableRecord
  2
_177
 70
0
 62
7
  6
CONTINUOUS
370
-3
390
F
  0
LAYER
  5
241
100
AcDbSymbolTableRecord
100
AcDbLayerTableRecord
  2
_1790
 70
0
 62
7
  6
CONTINUOUS
370
-3
390
F
  0
LAYER
  5
242
100
AcDbSymbolTableRecord
100
AcDbLayerTableRecord
  2
_1798
 70
0
 62
7
  6
CONTINUOUS
370
-3
390
F
  0
LAYER
  5
243
100
AcDbSymbolTableRecord
100
AcDbLayerTableRecord
  2
_1860
 70
0
 62
7
  6
CONTINUOUS
370
-3
390
F
  0
LAYER
  5
244
100
AcDbSymbolTableRecord
100
AcDbLayerTableRecord
  2
_1905
 70
0
 62
7
  6
CONTINUOUS
370
-3
390
F
  0
LAYER
  5
245
100
AcDbSymbolTableRecord
100
AcDbLayerTableRecord
  2
_1928
 70
0
 62
7
  6
CONTINUOUS
370
-3
390
F
  0
LAYER
  5
246
100
AcDbSymbolTableRecord
100
AcDbLayerTableRecord
  2
_1949
 70
0
 62
7
  6
CONTINUOUS
370
-3
390
F
  0
LAYER
  5
247
100
AcDbSymbolTableRecord
100
AcDbLayerTableRecord
  2
_1975
 70
0
 62
7
  6
CONTINUOUS
370
-3
390
F
  0
LAYER
  5
248
100
AcDbSymbolTableRecord
100
AcDbLayerTableRecord
  2
_200
 70
0
 62
7
  6
CONTINUOUS
370
-3
390
F
  0
LAYER
  5
249
100
AcDbSymbolTableRecord
100
AcDbLayerTableRecord
  2
_2064
 70
0
 62
7
  6
CONTINUOUS
370
-3
390
F
  0
LAYER
  5
24A
100
AcDbSymbolTableRecord
100
AcDbLayerTableRecord
  2
_2096
 70
0
 62
7
  6
CONTINUOUS
370
-3
390
F
  0
LAYER
  5
24B
100
AcDbSymbolTableRecord
100
AcDbLayerTableRecord
  2
_2150
 70
0
 62
7
  6
CONTINUOUS
370
-3
390
F
  0
LAYER
  5
24C
100
AcDbSymbolTableRecord
100
AcDbLayerTableRecord
  2
_222
 70
0
 62
7
  6
CONTINUOUS
370
-3
390
F
  0
LAYER
  5
24D
100
AcDbSymbolTableRecord
100
AcDbLayerTableRecord
  2
_312
 70
0
 62
7
  6
CONTINUOUS
370
-3
390
F
  0
LAYER
  5
24E
100
AcDbSymbolTableRecord
100
AcDbLayerTableRecord
  2
_372
 70
0
 62
7
  6
CONTINUOUS
370
-3
390
F
  0
LAYER
  5
24F
100
AcDbSymbolTableRecord
100
AcDbLayerTableRecord
  2
_454
 70
0
 62
7
  6
CONTINUOUS
370
-3
390
F
  0
LAYER
  5
250
100
AcDbSymbolTableRecord
100
AcDbLayerTableRecord
  2
_521
 70
0
 62
7
  6
CONTINUOUS
370
-3
390
F
  0
LAYER
  5
251
100
AcDbSymbolTableRecord
100
AcDbLayerTableRecord
  2
_570
 70
0
 62
7
  6
CONTINUOUS
370
-3
390
F
  0
LAYER
  5
252
100
AcDbSymbolTableRecord
100
AcDbLayerTableRecord
  2
_592
 70
0
 62
7
  6
CONTINUOUS
370
-3
390
F
  0
LAYER
  5
253
100
AcDbSymbolTableRecord
100
AcDbLayerTableRecord
  2
_666
 70
0
 62
7
  6
CONTINUOUS
370
-3
390
F
  0
LAYER
  5
254
100
AcDbSymbolTableRecord
100
AcDbLayerTableRecord
  2
_691
 70
0
 62
7
  6
CONTINUOUS
370
-3
390
F
  0
LAYER
  5
255
100
AcDbSymbolTableRecord
100
AcDbLayerTableRecord
  2
_854
 70
0
 62
7
  6
CONTINUOUS
370
-3
390
F
  0
LAYER
  5
256
100
AcDbSymbolTableRecord
100
AcDbLayerTableRecord
  2
_866
 70
0
 62
7
  6
CONTINUOUS
370
-3
390
F
  0
LAYER
  5
257
100
AcDbSymbolTableRecord
100
AcDbLayerTableRecord
  2
_946
 70
0
 62
7
  6
CONTINUOUS
370
-3
390
F
  0
LAYER
  5
258
100
AcDbSymbolTableRecord
100
AcDbLayerTableRecord
  2
___SHELL
 70
0
 62
7
  6
CONTINUOUS
370
-3
390
F
  0
ENDTAB
  0
TABLE
  2
STYLE
  5
3
100
AcDbSymbolTable
 70
1
  0
STYLE
  5
11
100
AcDbSymbolTableRecord
100
AcDbTextStyleTableRecord
  2
STANDARD
 70
0
 40
0.0
 41
0.8
 50
0.0
 71
0
 42
0.2
  3
txt
  4

  0
STYLE
  5
259
100
AcDbSymbolTableRecord
100
AcDbTextStyleTableRecord
  2
TEXTSTYLE_1
 70
0
 40
0.0
 41
0.8
 50
0.0
 71
0
 42
0.2
  3
gdt
  4

  0
ENDTAB
  0
TABLE
  2
VIEW
  5
6
100
AcDbSymbolTable
 70
0
  0
ENDTAB
  0
TABLE
  2
UCS
  5
7
100
AcDbSymbolTable
 70
0
  0
ENDTAB
  0
TABLE
  2
APPID
  5
9
100
AcDbSymbolTable
 70
1
  0
APPID
  5
25A
100
AcDbSymbolTableRecord
100
AcDbRegAppTableRecord
  2
ACAD
 70
0
  0
ENDTAB
  0
TABLE
  2
BLOCK_RECORD
  5
1
100
AcDbSymbolTable
 70
0
  0
BLOCK_RECORD
  5
25B
100
AcDbSymbolTableRecord
100
AcDbBlockTableRecord
  2
*Model_Space
  0
BLOCK_RECORD
  5
25C
100
AcDbSymbolTableRecord
100
AcDbBlockTableRecord
  2
*Paper_Space
  0
BLOCK_RECORD
  5
25D
100
AcDbSymbolTableRecord
100
AcDbBlockTableRecord
  2
_FILLED
  0
ENDTAB
  0
TABLE
  2
DIMSTYLE
  5
A
100
AcDbSymbolTable
 70
1
100
AcDbDimStyleTable
 71
0
  0
DIMSTYLE
105
25E
100
AcDbSymbolTableRecord
100
AcDbDimStyleTableRecord
  2
STANDARD
 70
0
  3

  4

 40
1.0
 41
3.0
 42
0.5
 43
0.38
 44
1.5
 45
0.0
 46
0.0
 47
0.01
 48
0.01
140
3.0
141
0.09
142
0.0
143
25.4
144
1.0
145
0.0
146
1.0
147
0.625
 71
1
 72
0
 73
0
 74
0
 75
0
 76
0
 77
1
 78
8
 79
2
170
0
171
1
172
0
173
0
174
0
175
0
176
0
177
0
178
0
270
2
179
2
271
2
272
2
273
2
274
2
275
0
280
0
281
0
282
0
283
1
284
8
285
0
286
0
287
3
288
0
340
11
278
44
341
25D
342
25D
343
25D
344
25D
  0
ENDTAB
  0
ENDSEC
  0
SECTION
  2
BLOCKS
  0
BLOCK
  5
20
100
AcDbEntity
  8
0
100
AcDbBlockBegin
  2
*Model_Space
 70
0
 10
0.0
 20
0.0
 30
0.0
  3
*Model_Space
  1

  0
ENDBLK
  5
21
100
AcDbEntity
  8
0
100
AcDbBlockEnd
  0
BLOCK
  5
1C
100
AcDbEntity
  8
0
100
AcDbBlockBegin
  2
*Paper_Space
 70
0
 10
0.0
 20
0.0
 30
0.0
  3
*Paper_Space
  1

  0
ENDBLK
  5
1D
100
AcDbEntity
  8
0
100
AcDbBlockEnd
  0
BLOCK
  5
25F
100
AcDbEntity
  8
0
100
AcDbBlockBegin
  2
_FILLED
 70
64
 10
0.0
 20
0.0
  3
_FILLED
  1

  0
SOLID
  5
260
100
AcDbEntity
  8
0
  6
BYBLOCK
 62
0
100
AcDbTrace
 10
0.0
 20
0.0
 11
-1.0
 21
0.3166666667
 12
-1.0
 22
-0.3166666667
 13
-1.0
 23
-0.3166666667
  0
ENDBLK
  5
261
100
AcDbEntity
  8
0
  6
BYBLOCK
 62
0
100
AcDbBlockEnd
  0
ENDSEC
  0
SECTION
  2
ENTITIES
  0
LINE
  5
262
100
AcDbEntity
  8
RACCORDO
100
AcDbLine
 62
7
  6
CONTINUOUS
 10
-40.937259782
 20
-86.1271166181
 11
-40.6399179501
 21
-86.1971036107
  0
LINE
  5
263
100
AcDbEntity
  8
RACCORDO
100
AcDbLine
 62
250
  6
CONTINUOUS
 10
-40.8913519117
 20
-86.1324491068
 11
-40.5940950648
 21
-86.202416096
  0
LINE
  5
264
100
AcDbEntity
  8
RACCORDO
100
AcDbLine
 62
250
  6
CONTINUOUS
 10
-38.3636985245
 20
-86.115
 11
-38.1187490605
 21
-86.172655111
  0
LINE
  5
265
100
AcDbEntity
  8
0
100
AcDbLine
 62
250
  6
CONTINUOUS
 10
-38.1636258157
 20
-85.915057052
 11
-37.9355808788
 21
-85.9687332509
  0
LWPOLYLINE
  5
266
100
AcDbEntity
  8
RACCORDO
100
AcDbPolyline
 62
7
  6
CONTINUOUS
 90
13
 70
0
 10
-40.6432971324
 20
-86.196277107
 10
-40.6395540721
 20
-86.1971808149
 10
-40.6236399804
 20
-86.2004097001
 10
-40.6087752686
 20
-86.2026951792
 10
-40.595597118
 20
-86.204303462
 10
-40.5833660709
 20
-86.2055623861
 10
-40.5699979229
 20
-86.2067547571
 10
-40.5548503592
 20
-86.2079403938
 10
-40.5383902125
 20
-86.2090843885
 10
-40.5202263703
 20
-86.2102177313
 10
-40.5002302942
 20
-86.2113473372
 10
-40.4783894671
 20
-86.2124727033
 10
-40.4284624012
 20
-86.2147386482
  0
LWPOLYLINE
  5
267
100
AcDbEntity
  8
RACCORDO
100
AcDbPolyline
 62
7
  6
CONTINUOUS
 90
10
 70
0
 10
-23.509845199
 20
-86.2118789001
 10
-23.4881490033
 20
-86.2107040985
 10
-23.4684969578
 20
-86.2095280437
 10
-23.4507488878
 20
-86.2083441931
 10
-23.4345079879
 20
-86.2071233461
 10
-23.4202265991
 20
-86.205898968
 10
-23.4072596886
 20
-86.2046145381
 10
-23.3935321978
 20
-86.2030006279
 10
-23.3782964563
 20
-86.2007413096
 10
-23.36216786
 20
-86.1975765716
  0
LINE
  5
268
100
AcDbEntity
  8
RACCORDO
100
AcDbLine
 62
7
  6
CONTINUOUS
 10
-23.5596359974
 20
-86.2142303035
 11
-23.509845199
 21
-86.2118789001
  0
LINE
  5
269
100
AcDbEntity
  8
RACCORDO
100
AcDbLine
 62
7
  6
CONTINUOUS
 10
-23.6189044617
 20
-86.2166098666
 11
-23.5596359974
 21
-86.2142303035
  0
LINE
  5
26A
100
AcDbEntity
  8
RACCORDO
100
AcDbLine
 62
7
  6
CONTINUOUS
 10
-23.6883337108
 20
-86.2190203923
 11
-23.6189044617
 21
-86.2166098666
  0
LINE
  5
26B
100
AcDbEntity
  8
RACCORDO
100
AcDbLine
 62
7
  6
CONTINUOUS
 10
-23.8129896849
 20
-86.2226940934
 11
-23.6883337108
 21
-86.2190203923
  0
LINE
  5
26C
100
AcDbEntity
  8
RACCORDO
100
AcDbLine
 62
7
  6
CONTINUOUS
 10
-24.0207483872
 20
-86.2276861015
 11
-23.8129896849
 21
-86.2226940934
  0
LWPOLYLINE
  5
26D
100
AcDbEntity
  8
RACCORDO
100
AcDbPolyline
 62
7
  6
CONTINUOUS
 90
24
 70
0
 10
48.866027746
 20
-85.0463886513
 10
48.8832196636
 20
-85.046092367
 10
48.9186908306
 20
-85.0436130543
 10
48.953872653
 20
-85.0386414681
 10
48.9885866706
 20
-85.031201801
 10
49.022648814
 20
-85.0213329859
 10
49.0558973419
 20
-85.0090958341
 10
49.0881916403
 20
-84.994543734
 10
49.1193756537
 20
-84.9777432741
 10
49.1492936075
 20
-84.9587862583
 10
49.1778031894
 20
-84.9377587069
 10
49.2047633674
 20
-84.9147500845
 10
49.2300319699
 20
-84.8898856346
 10
49.2534667576
 20
-84.8633059877
 10
49.2749386048
 20
-84.835151301
 10
49.2943546006
 20
-84.805560192
 10
49.3116286246
 20
-84.7746724003
 10
49.3266650907
 20
-84.7426432155
 10
49.3393920964
 20
-84.7096300012
 10
49.3497559816
 20
-84.6757729568
 10
49.3576931061
 20
-84.6412348388
 10
49.3631596542
 20
-84.6061980788
 10
49.3661327056
 20
-84.5708409329
 10
49.3667156301
 20
-84.5467993466
  0
LINE
  5
26E
100
AcDbEntity
  8
RACCORDO
100
AcDbLine
 62
7
  6
CONTINUOUS
 10
-24.354038216
 20
-86.234028553
 11
-24.0207483872
 21
-86.2276861015
  0
LINE
  5
26F
100
AcDbEntity
  8
RACCORDO
100
AcDbLine
 62
7
  6
CONTINUOUS
 10
-24.9730430719
 20
-86.2429261886
 11
-24.354038216
 21
-86.234028553
  0
LINE
  5
270
100
AcDbEntity
  8
RACCORDO
100
AcDbLine
 62
7
  6
CONTINUOUS
 10
-26.072763602
 20
-86.2540258129
 11
-24.9730430719
 21
-86.2429261886
  0
LWPOLYLINE
  5
271
100
AcDbEntity
  8
RACCORDO
100
AcDbPolyline
 62
7
  6
CONTINUOUS
 90
23
 70
0
 10
48.7955259609
 20
-85.0078918809
 10
48.7998962805
 20
-85.007868828
 10
48.8296634173
 20
-85.0064377576
 10
48.8592275177
 20
-85.0027982794
 10
48.888436746
 20
-84.996974469
 10
48.9171338431
 20
-84.9889922826
 10
48.9451621124
 20
-84.9788974115
 10
48.9723704551
 20
-84.9667460573
 10
48.9986032115
 20
-84.9525971777
 10
49.0237140265
 20
-84.9365290952
 10
49.047567787
 20
-84.9186309609
 10
49.0700276524
 20
-84.8989938871
 10
49.0909658981
 20
-84.8777277548
 10
49.1102653706
 20
-84.8549555204
 10
49.1278104979
 20
-84.8308015084
 10
49.1435038122
 20
-84.8053991135
 10
49.1572618732
 20
-84.7788902378
 10
49.1690002066
 20
-84.7514208024
 10
49.1786526886
 20
-84.7231447134
 10
49.1861708593
 20
-84.6942198719
 10
49.1915055723
 20
-84.6648090191
 10
49.1946249946
 20
-84.6350746986
 10
49.1955264957
 20
-84.6082592207
  0
LINE
  5
272
100
AcDbEntity
  8
RACCORDO
100
AcDbLine
 62
7
  6
CONTINUOUS
 10
-26.272763602
 20
-86.815
 11
-37.727236398
 21
-86.815
  0
LINE
  5
273
100
AcDbEntity
  8
RACCORDO
100
AcDbLine
 62
250
  6
CONTINUOUS
 10
-26.072763602
 20
-86.615
 11
-37.927236398
 21
-86.615
  0
LINE
  5
274
100
AcDbEntity
  8
RACCORDO
100
AcDbLine
 62
7
  6
CONTINUOUS
 10
-37.9355808788
 20
-86.1686761989
 11
-37.8383999674
 21
-86.1686761989
  0
LINE
  5
275
100
AcDbEntity
  8
RACCORDO
100
AcDbLine
 62
7
  6
CONTINUOUS
 10
-23.2345993776
 20
-86.115
 11
-25.8363741843
 21
-86.115
  0
LINE
  5
276
100
AcDbEntity
  8
RACCORDO
100
AcDbLine
 62
7
  6
CONTINUOUS
 10
-38.3636985245
 20
-86.115
 11
-40.7654006224
 21
-86.115
  0
LINE
  5
277
100
AcDbEntity
  8
RACCORDO
100
AcDbLine
 62
7
  6
CONTINUOUS
 10
-22.9084147109
 20
-85.915
 11
49.1432209602
 21
-85.915
  0
LINE
  5
278
100
AcDbEntity
  8
RACCORDO
100
AcDbLine
 62
7
  6
CONTINUOUS
 10
-41.0915852891
 20
-85.915
 11
-49.1432214241
 21
-85.915
  0
LINE
  5
279
100
AcDbEntity
  8
RACCORDO
100
AcDbLine
 62
250
  6
CONTINUOUS
 10
49.6431811459
 20
-85.415
 11
48.825
 21
-85.415
  0
LINE
  5
27A
100
AcDbEntity
  8
RACCORDO
100
AcDbLine
 62
250
  6
CONTINUOUS
 10
-48.825
 20
-85.415
 11
-49.6431811459
 21
-85.415
  0
LINE
  5
27B
100
AcDbEntity
  8
RACCORDO
100
AcDbLine
 62
7
  6
CONTINUOUS
 10
-48.8660277452
 20
-85.0463581903
 11
-41.0788534491
 21
-85.0463581903
  0
LINE
  5
27C
100
AcDbEntity
  8
RACCORDO
100
AcDbLine
 62
7
  6
CONTINUOUS
 10
-22.9211465509
 20
-85.0463581903
 11
48.8660277452
 21
-85.0463581903
  0
LINE
  5
27D
100
AcDbEntity
  8
SMUSSO
100
AcDbLine
 62
7
  6
CONTINUOUS
 10
-48.7088535284
 20
-85.015
 11
-40.9656870921
 21
-85.015
  0
LINE
  5
27E
100
AcDbEntity
  8
SMUSSO
100
AcDbLine
 62
7
  6
CONTINUOUS
 10
-23.0343129079
 20
-85.015
 11
48.7088535284
 21
-85.015
  0
LINE
  5
27F
100
AcDbEntity
  8
RACCORDO
100
AcDbLine
 62
7
  6
CONTINUOUS
 10
48.7955259605
 20
-85.0078939372
 11
-48.7955259605
 21
-85.0078939372
  0
LINE
  5
280
100
AcDbEntity
  8
RACCORDO
100
AcDbLine
 62
250
  6
CONTINUOUS
 10
-49.195526258
 20
-84.6082592183
 11
-49.195039068
 21
-84.6082592183
  0
LINE
  5
281
100
AcDbEntity
  8
RACCORDO
100
AcDbLine
 62
250
  6
CONTINUOUS
 10
49.195526258
 20
-84.6082592207
 11
49.195039068
 21
-84.6082592183
  0
LINE
  5
282
100
AcDbEntity
  8
RACCORDO
100
AcDbLine
 62
250
  6
CONTINUOUS
 10
49.3659545698
 20
-84.5467993456
 11
49.3667156301
 21
-84.546799346
  0
LINE
  5
283
100
AcDbEntity
  8
RACCORDO
100
AcDbLine
 62
250
  6
CONTINUOUS
 10
-49.3659545698
 20
-84.5467993456
 11
-49.3667156301
 21
-84.5467993487
  0
LINE
  5
284
100
AcDbEntity
  8
RACCORDO
100
AcDbLine
 62
250
  6
CONTINUOUS
 10
43.5614565209
 20
-84.5360979711
 11
-43.5614565209
 21
-84.5360979711
  0
LINE
  5
285
100
AcDbEntity
  8
RACCORDO
100
AcDbLine
 62
250
  6
CONTINUOUS
 10
43.5614565209
 20
-84.1363416402
 11
-43.5614565209
 21
-84.1363416402
  0
LINE
  5
286
100
AcDbEntity
  8
ASSI
100
AcDbLine
 62
7
  6
CONTINUOUS
 10
-49.64052771
 20
-83.815
 11
-49.3667156301
 21
-83.815
  0
LINE
  5
287
100
AcDbEntity
  8
CURVE
100
AcDbLine
 62
7
  6
CONTINUOUS
 10
-49.3667156301
 20
-83.815
 11
-49.6431149694
 21
-83.815
  0
LINE
  5
288
100
AcDbEntity
  8
CURVE
100
AcDbLine
 62
7
  6
CONTINUOUS
 10
49.3667156301
 20
-83.815
 11
49.6431149694
 21
-83.815
  0
LINE
  5
289
100
AcDbEntity
  8
ASSI
100
AcDbLine
 62
7
  6
CONTINUOUS
 10
49.3667156301
 20
-83.815
 11
49.64052771
 21
-83.815
  0
LINE
  5
28A
100
AcDbEntity
  8
DRAFT
100
AcDbLine
 62
7
  6
CONTINUOUS
 10
41.2
 20
-83.4449291517
 11
39.2
 21
-83.4449291517
  0
LINE
  5
28B
100
AcDbEntity
  8
DRAFT
100
AcDbLine
 62
7
  6
CONTINUOUS
 10
27.8
 20
-83.4449291517
 11
25.8
 21
-83.4449291517
  0
LINE
  5
28C
100
AcDbEntity
  8
DRAFT
100
AcDbLine
 62
7
  6
CONTINUOUS
 10
14.4
 20
-83.4449291517
 11
12.4
 21
-83.4449291517
  0
LINE
  5
28D
100
AcDbEntity
  8
DRAFT
100
AcDbLine
 62
7
  6
CONTINUOUS
 10
1.0
 20
-83.4449291517
 11
-1.0
 21
-83.4449291517
  0
LINE
  5
28E
100
AcDbEntity
  8
DRAFT
100
AcDbLine
 62
7
  6
CONTINUOUS
 10
-12.4
 20
-83.4449291517
 11
-14.4
 21
-83.4449291517
  0
LINE
  5
28F
100
AcDbEntity
  8
DRAFT
100
AcDbLine
 62
7
  6
CONTINUOUS
 10
-25.8
 20
-83.4449291517
 11
-27.8
 21
-83.4449291517
  0
LINE
  5
290
100
AcDbEntity
  8
DRAFT
100
AcDbLine
 62
7
  6
CONTINUOUS
 10
-39.2
 20
-83.4449291517
 11
-41.2
 21
-83.4449291517
  0
LINE
  5
291
100
AcDbEntity
  8
RACCORDO
100
AcDbLine
 62
7
  6
CONTINUOUS
 10
-39.0757009025
 20
-86.2423175781
 11
-37.9279815408
 21
-86.2540225587
  0
LINE
  5
292
100
AcDbEntity
  8
RACCORDO
100
AcDbLine
 62
7
  6
CONTINUOUS
 10
-39.6608333451
 20
-86.2337758573
 11
-39.0757009025
 21
-86.2423175781
  0
LINE
  5
293
100
AcDbEntity
  8
RACCORDO
100
AcDbLine
 62
7
  6
CONTINUOUS
 10
-39.979296625
 20
-86.2276851272
 11
-39.6608333451
 21
-86.2337758573
  0
LINE
  5
294
100
AcDbEntity
  8
RACCORDO
100
AcDbLine
 62
7
  6
CONTINUOUS
 10
-40.179853004
 20
-86.2228860775
 11
-39.979296625
 21
-86.2276851272
  0
LINE
  5
295
100
AcDbEntity
  8
RACCORDO
100
AcDbLine
 62
7
  6
CONTINUOUS
 10
-40.3013833254
 20
-86.2193512345
 11
-40.179853004
 21
-86.2228860775
  0
LINE
  5
296
100
AcDbEntity
  8
RACCORDO
100
AcDbLine
 62
7
  6
CONTINUOUS
 10
-40.3696811019
 20
-86.2170300633
 11
-40.3013833254
 21
-86.2193512345
  0
LINE
  5
297
100
AcDbEntity
  8
RACCORDO
100
AcDbLine
 62
7
  6
CONTINUOUS
 10
-40.4284624012
 20
-86.2147386482
 11
-40.3696811019
 21
-86.2170300633
  0
LINE
  5
298
100
AcDbEntity
  8
RACCORDO
100
AcDbLine
 62
250
  6
CONTINUOUS
 10
-23.1086480883
 20
-86.1324491068
 11
-23.2345993776
 21
-86.115
  0
LINE
  5
299
100
AcDbEntity
  8
RACCORDO
100
AcDbLine
 62
250
  6
CONTINUOUS
 10
-22.9084147192
 20
-85.9325438624
 11
-23.0343129079
 21
-85.915102112
  0
LINE
  5
29A
100
AcDbEntity
  8
RACCORDO
100
AcDbLine
 62
7
  6
CONTINUOUS
 10
-23.0343129079
 20
-85.015
 11
-22.9211465509
 21
-85.0463581903
  0
LINE
  5
29B
100
AcDbEntity
  8
DRAFT
100
AcDbLine
 62
7
  6
CONTINUOUS
 10
-41.1799282041
 20
-79.4350717959
 11
-41.2
 21
-79.415
  0
LINE
  5
29C
100
AcDbEntity
  8
RACCORDO
100
AcDbLine
 62
7
  6
CONTINUOUS
 10
-23.3600820499
 20
-86.1971036107
 11
-23.3568290219
 21
-86.196309086
  0
LINE
  5
29D
100
AcDbEntity
  8
RACCORDO
100
AcDbLine
 62
7
  6
CONTINUOUS
 10
-23.36216786
 20
-86.1975765716
 11
-23.062740218
 21
-86.1271166181
  0
LINE
  5
29E
100
AcDbEntity
  8
RACCORDO
100
AcDbLine
 62
250
  6
CONTINUOUS
 10
-23.4059049352
 20
-86.202416096
 11
-23.1086480883
 21
-86.1324491068
  0
LINE
  5
29F
100
AcDbEntity
  8
RACCORDO
100
AcDbLine
 62
7
  6
CONTINUOUS
 10
-25.8363741843
 20
-86.115
 11
-26.0729009261
 21
-86.1706726083
  0
LINE
  5
2A0
100
AcDbEntity
  8
RACCORDO
100
AcDbLine
 62
250
  6
CONTINUOUS
 10
-40.7654006224
 20
-86.115
 11
-40.8913519117
 21
-86.1324491068
  0
LINE
  5
2A1
100
AcDbEntity
  8
RACCORDO
100
AcDbLine
 62
250
  6
CONTINUOUS
 10
-40.9656870921
 20
-85.915102112
 11
-41.0915852891
 21
-85.9325438635
  0
LINE
  5
2A2
100
AcDbEntity
  8
ASSI
100
AcDbLine
 62
7
  6
CONTINUOUS
 10
41.1798069812
 20
-81.503344261
 11
39.2201930188
 21
-81.503344261
  0
LINE
  5
2A3
100
AcDbEntity
  8
ASSI
100
AcDbLine
 62
7
  6
CONTINUOUS
 10
27.7798069812
 20
-81.503344261
 11
25.8201930188
 21
-81.503344261
  0
LINE
  5
2A4
100
AcDbEntity
  8
ASSI
100
AcDbLine
 62
7
  6
CONTINUOUS
 10
14.3798069812
 20
-81.503344261
 11
12.4201930188
 21
-81.503344261
  0
LINE
  5
2A5
100
AcDbEntity
  8
ASSI
100
AcDbLine
 62
7
  6
CONTINUOUS
 10
0.9798069812
 20
-81.503344261
 11
-0.9798069812
 21
-81.503344261
  0
LINE
  5
2A6
100
AcDbEntity
  8
ASSI
100
AcDbLine
 62
7
  6
CONTINUOUS
 10
-12.4201930188
 20
-81.503344261
 11
-14.3798069812
 21
-81.503344261
  0
LINE
  5
2A7
100
AcDbEntity
  8
ASSI
100
AcDbLine
 62
7
  6
CONTINUOUS
 10
-25.8201930188
 20
-81.503344261
 11
-27.7798069812
 21
-81.503344261
  0
LINE
  5
2A8
100
AcDbEntity
  8
ASSI
100
AcDbLine
 62
7
  6
CONTINUOUS
 10
-39.2201930188
 20
-81.503344261
 11
-41.1798069812
 21
-81.503344261
  0
LINE
  5
2A9
100
AcDbEntity
  8
DRAFT
100
AcDbLine
 62
7
  6
CONTINUOUS
 10
-14.3799282041
 20
-80.515
 11
-12.4200717959
 21
-80.515
  0
LINE
  5
2AA
100
AcDbEntity
  8
DRAFT
100
AcDbLine
 62
7
  6
CONTINUOUS
 10
12.4200717959
 20
-80.515
 11
14.3799282041
 21
-80.515
  0
LINE
  5
2AB
100
AcDbEntity
  8
DRAFT
100
AcDbLine
 62
7
  6
CONTINUOUS
 10
-14.3799282041
 20
-80.4800898701
 11
-12.4200717959
 21
-80.4800898701
  0
LINE
  5
2AC
100
AcDbEntity
  8
DRAFT
100
AcDbLine
 62
7
  6
CONTINUOUS
 10
12.4200717959
 20
-80.4800898701
 11
14.3799282041
 21
-80.4800898701
  0
LINE
  5
2AD
100
AcDbEntity
  8
RACCORDO
100
AcDbLine
 62
7
  6
CONTINUOUS
 10
41.1799282041
 20
-80.015
 11
39.2200717959
 21
-80.015
  0
LINE
  5
2AE
100
AcDbEntity
  8
RACCORDO
100
AcDbLine
 62
7
  6
CONTINUOUS
 10
27.7799282041
 20
-80.015
 11
25.8200717959
 21
-80.015
  0
LINE
  5
2AF
100
AcDbEntity
  8
RACCORDO
100
AcDbLine
 62
7
  6
CONTINUOUS
 10
0.9799282041
 20
-80.015
 11
-0.9799282041
 21
-80.015
  0
LINE
  5
2B0
100
AcDbEntity
  8
RACCORDO
100
AcDbLine
 62
7
  6
CONTINUOUS
 10
-25.8200717959
 20
-80.015
 11
-27.4001368981
 21
-80.015
  0
LINE
  5
2B1
100
AcDbEntity
  8
RACCORDO
100
AcDbLine
 62
7
  6
CONTINUOUS
 10
-27.6000152328
 20
-80.015
 11
-27.7799282041
 21
-80.015
  0
LINE
  5
2B2
100
AcDbEntity
  8
RACCORDO
100
AcDbLine
 62
7
  6
CONTINUOUS
 10
-39.2200717959
 20
-80.015
 11
-41.1799282041
 21
-80.015
  0
LINE
  5
2B3
100
AcDbEntity
  8
RACCORDO
100
AcDbLine
 62
250
  6
CONTINUOUS
 10
-27.7799282041
 20
-79.915
 11
-27.5000457472
 21
-79.915
  0
LINE
  5
2B4
100
AcDbEntity
  8
DRAFT
100
AcDbLine
 62
7
  6
CONTINUOUS
 10
-41.1799282041
 20
-79.4350717959
 11
-39.2200717959
 21
-79.4350717959
  0
LINE
  5
2B5
100
AcDbEntity
  8
DRAFT
100
AcDbLine
 62
7
  6
CONTINUOUS
 10
-27.7799282041
 20
-79.4350717959
 11
-25.8200717959
 21
-79.4350717959
  0
LINE
  5
2B6
100
AcDbEntity
  8
DRAFT
100
AcDbLine
 62
7
  6
CONTINUOUS
 10
-14.3799282041
 20
-79.4350717959
 11
-12.4200717959
 21
-79.4350717959
  0
LINE
  5
2B7
100
AcDbEntity
  8
DRAFT
100
AcDbLine
 62
7
  6
CONTINUOUS
 10
-0.9799282041
 20
-79.4350717959
 11
0.9799282041
 21
-79.4350717959
  0
LINE
  5
2B8
100
AcDbEntity
  8
DRAFT
100
AcDbLine
 62
7
  6
CONTINUOUS
 10
12.4200717959
 20
-79.4350717959
 11
14.3799282041
 21
-79.4350717959
  0
LINE
  5
2B9
100
AcDbEntity
  8
DRAFT
100
AcDbLine
 62
7
  6
CONTINUOUS
 10
25.8200717959
 20
-79.4350717959
 11
27.7799282041
 21
-79.4350717959
  0
LINE
  5
2BA
100
AcDbEntity
  8
DRAFT
100
AcDbLine
 62
7
  6
CONTINUOUS
 10
39.2200717959
 20
-79.4350717959
 11
41.1799282041
 21
-79.4350717959
  0
LINE
  5
2BB
100
AcDbEntity
  8
DRAFT
100
AcDbLine
 62
7
  6
CONTINUOUS
 10
-41.2
 20
-79.415
 11
-39.2
 21
-79.415
  0
LINE
  5
2BC
100
AcDbEntity
  8
DRAFT
100
AcDbLine
 62
7
  6
CONTINUOUS
 10
-27.8
 20
-79.415
 11
-25.8
 21
-79.415
  0
LINE
  5
2BD
100
AcDbEntity
  8
DRAFT
100
AcDbLine
 62
7
  6
CONTINUOUS
 10
-14.4
 20
-79.415
 11
-12.4
 21
-79.415
  0
LINE
  5
2BE
100
AcDbEntity
  8
DRAFT
100
AcDbLine
 62
7
  6
CONTINUOUS
 10
-1.0
 20
-79.415
 11
1.0
 21
-79.415
  0
LINE
  5
2BF
100
AcDbEntity
  8
DRAFT
100
AcDbLine
 62
7
  6
CONTINUOUS
 10
12.4
 20
-79.415
 11
14.4
 21
-79.415
  0
LINE
  5
2C0
100
AcDbEntity
  8
DRAFT
100
AcDbLine
 62
7
  6
CONTINUOUS
 10
25.8
 20
-79.415
 11
27.8
 21
-79.415
  0
LINE
  5
2C1
100
AcDbEntity
  8
DRAFT
100
AcDbLine
 62
7
  6
CONTINUOUS
 10
39.2
 20
-79.415
 11
41.2
 21
-79.415
  0
LINE
  5
2C2
100
AcDbEntity
  8
DRAFT
100
AcDbLine
 62
7
  6
CONTINUOUS
 10
-27.7799282041
 20
-79.4350717959
 11
-27.8
 21
-79.415
  0
LWPOLYLINE
  5
2C3
100
AcDbEntity
  8
0
100
AcDbPolyline
 62
7
  6
CONTINUOUS
 90
10
 70
0
 10
1.7480113447
 20
-73.7879273355
 10
1.678962572
 20
-73.807077522
 10
1.6004533104
 20
-73.8269308441
 10
1.5119835699
 20
-73.8475336637
 10
1.4140573637
 20
-73.8687206643
 10
1.306932829
 20
-73.8904296254
 10
1.1905721484
 20
-73.9126816486
 10
1.0650807237
 20
-73.9354839593
 10
0.9303175322
 20
-73.9589018522
 10
0.7870854973
 20
-73.9828550586
  0
LINE
  5
2C4
100
AcDbEntity
  8
RACCORDO
100
AcDbLine
 62
7
  6
CONTINUOUS
 10
-41.0788534491
 20
-85.0463581903
 11
-40.9656870921
 21
-85.015
  0
LWPOLYLINE
  5
2C5
100
AcDbEntity
  8
0
100
AcDbPolyline
 62
7
  6
CONTINUOUS
 90
8
 70
0
 10
-1.5583385793
 20
-74.7741351392
 10
-1.5029097723
 20
-74.76139126
 10
-1.4187952699
 20
-74.7432243116
 10
-1.328158733
 20
-74.724720807
 10
-1.2311988012
 20
-74.7059039516
 10
-1.1281486142
 20
-74.6867918405
 10
-1.0191802187
 20
-74.6673815812
 10
-0.9043984037
 20
-74.6476516545
  0
LINE
  5
2C6
100
AcDbEntity
  8
RACCORDO
100
AcDbLine
 62
250
  6
CONTINUOUS
 10
-48.7088535284
 20
-85.015
 11
-48.8660277452
 21
-85.0463581903
  0
LINE
  5
2C7
100
AcDbEntity
  8
RACCORDO
100
AcDbLine
 62
250
  6
CONTINUOUS
 10
-49.2100000033
 20
-84.5156844906
 11
-49.3659545698
 21
-84.5467993456
  0
LINE
  5
2C8
100
AcDbEntity
  8
DRAFT
100
AcDbLine
 62
7
  6
CONTINUOUS
 10
-49.6167724049
 20
-83.9450402337
 11
-49.3667156301
 21
-83.8951508302
  0
LWPOLYLINE
  5
2C9
100
AcDbEntity
  8
0
100
AcDbPolyline
 62
7
  6
CONTINUOUS
 90
10
 70
0
 10
-0.7894676724
 20
-74.2279153593
 10
-0.9277868881
 20
-74.2507724654
 10
-1.0587943856
 20
-74.2731602382
 10
-1.1826163627
 20
-74.295161706
 10
-1.2989548319
 20
-74.3167764823
 10
-1.4076718381
 20
-74.3380192773
 10
-1.5091869179
 20
-74.3590099693
 10
-1.6033319503
 20
-74.3797500991
 10
-1.6901438624
 20
-74.4002755899
 10
-1.7302696529
 20
-74.4105438843
  0
LWPOLYLINE
  5
2CA
100
AcDbEntity
  8
0
100
AcDbPolyline
 62
7
  6
CONTINUOUS
 90
10
 70
0
 10
0.7781899167
 20
-74.3848710269
 10
0.9216581433
 20
-74.3612082289
 10
1.0610820246
 20
-74.3373936885
 10
1.1948691684
 20
-74.3135610836
 10
1.3226363758
 20
-74.2896431013
 10
1.4434239058
 20
-74.2656821976
 10
1.5553174806
 20
-74.2419530501
 10
1.6579610946
 20
-74.218466575
 10
1.7514600449
 20
-74.19514459
 10
1.7916880157
 20
-74.1840808156
  0
LINE
  5
2CB
100
AcDbEntity
  8
0
100
AcDbLine
 62
7
  6
CONTINUOUS
 10
-0.9043984037
 20
-74.6476516545
 11
-0.6586275869
 21
-74.6072492882
  0
LINE
  5
2CC
100
AcDbEntity
  8
0
100
AcDbLine
 62
7
  6
CONTINUOUS
 10
0.7870854973
 20
-73.9828550586
 11
0.4807784683
 21
-74.0318274155
  0
LINE
  5
2CD
100
AcDbEntity
  8
0
100
AcDbLine
 62
7
  6
CONTINUOUS
 10
-0.4917855103
 20
-74.1806439149
 11
-0.7894676724
 21
-74.2279153593
  0
LINE
  5
2CE
100
AcDbEntity
  8
0
100
AcDbLine
 62
7
  6
CONTINUOUS
 10
0.4824702291
 20
-74.4317565909
 11
0.7781899167
 21
-74.3848710269
  0
LINE
  5
2CF
100
AcDbEntity
  8
0
100
AcDbLine
 62
7
  6
CONTINUOUS
 10
-0.6586275869
 20
-74.6072492882
 11
-0.3930709962
 21
-74.5654938323
  0
LINE
  5
2D0
100
AcDbEntity
  8
0
100
AcDbLine
 62
7
  6
CONTINUOUS
 10
0.4807784683
 20
-74.0318274155
 11
-0.4917855103
 21
-74.1806439149
  0
LINE
  5
2D1
100
AcDbEntity
  8
0
100
AcDbLine
 62
7
  6
CONTINUOUS
 10
-0.3930709962
 20
-74.5654938323
 11
0.4824702291
 21
-74.4317565909
  0
LINE
  5
2D2
100
AcDbEntity
  8
0
100
AcDbLine
 62
7
  6
CONTINUOUS
 10
-1.8051374602
 20
-73.515
 11
1.8051374602
 21
-73.515
  0
LINE
  5
2D3
100
AcDbEntity
  8
0
100
AcDbLine
 62
7
  6
CONTINUOUS
 10
-0.3268081427
 20
-72.015
 11
0.3268081427
 21
-72.015
  0
LINE
  5
2D4
100
AcDbEntity
  8
RACCORDO
100
AcDbLine
 62
250
  6
CONTINUOUS
 10
48.8660277452
 20
-85.0463581903
 11
48.7088535284
 21
-85.015
  0
LINE
  5
2D5
100
AcDbEntity
  8
RACCORDO
100
AcDbLine
 62
250
  6
CONTINUOUS
 10
49.3659545698
 20
-84.5467993456
 11
49.2100000033
 21
-84.5156844906
  0
LINE
  5
2D6
100
AcDbEntity
  8
DRAFT
100
AcDbLine
 62
7
  6
CONTINUOUS
 10
49.3667156301
 20
-83.8951508302
 11
49.6167724049
 21
-83.9450402337
  0
LWPOLYLINE
  5
2D7
100
AcDbEntity
  8
0
100
AcDbPolyline
 62
7
  6
CONTINUOUS
 90
4
 70
0
 10
1.54
 20
-73.7698127733
 10
1.5457731451
 20
-73.7711003869
 10
1.6219155428
 20
-73.7892814415
 10
1.6847546568
 20
-73.8054711284
  0
LINE
  5
2D8
100
AcDbEntity
  8
0
100
AcDbLine
 62
7
  6
CONTINUOUS
 10
1.5651606787
 20
-66.2397799489
 11
1.5776053701
 21
-66.2369178342
  0
LWPOLYLINE
  5
2D9
100
AcDbEntity
  8
0
100
AcDbPolyline
 62
7
  6
CONTINUOUS
 90
7
 70
0
 10
1.5089533085
 20
-65.8480496522
 10
1.4450194234
 20
-65.8621780604
 10
1.3419046835
 20
-65.8834872597
 10
1.2294077376
 20
-65.9053878459
 10
1.1084210209
 20
-65.927730461
 10
0.9792928238
 20
-65.9505025069
 10
0.8424248822
 20
-65.9736994005
  0
LWPOLYLINE
  5
2DA
100
AcDbEntity
  8
0
100
AcDbPolyline
 62
7
  6
CONTINUOUS
 90
8
 70
0
 10
-1.5146086203
 20
-66.7640798875
 10
-1.4489133219
 20
-66.7496067552
 10
-1.3645293483
 20
-66.7320280686
 10
-1.2748659604
 20
-66.714267127
 10
-1.1801870469
 20
-66.6963408203
 10
-1.0806949251
 20
-66.6782480581
 10
-0.9768353844
 20
-66.6600255668
 10
-0.869131682
 20
-66.6417143488
  0
LINE
  5
2DB
100
AcDbEntity
  8
0
100
AcDbLine
 62
7
  6
CONTINUOUS
 10
-1.4832860414
 20
-66.3535324374
 11
-1.5781696906
 21
-66.3741125069
  0
LWPOLYLINE
  5
2DC
100
AcDbEntity
  8
0
100
AcDbPolyline
 62
7
  6
CONTINUOUS
 90
6
 70
0
 10
-0.8582863162
 20
-66.2391993409
 10
-0.9983556855
 20
-66.262730781
 10
-1.1312941124
 20
-66.2859301424
 10
-1.2565709573
 20
-66.3087818365
 10
-1.3740000227
 20
-66.3313169362
 10
-1.4832860414
 20
-66.3535324374
  0
LWPOLYLINE
  5
2DD
100
AcDbEntity
  8
0
100
AcDbPolyline
 62
7
  6
CONTINUOUS
 90
7
 70
0
 10
0.8201860794
 20
-66.3780203956
 10
0.9586537365
 20
-66.3549766427
 10
1.0933139301
 20
-66.3317493345
 10
1.223218598
 20
-66.3083622668
 10
1.3454167075
 20
-66.285235385
 10
1.4594079459
 20
-66.2623926351
 10
1.5651606787
 20
-66.2397799489
  0
LINE
  5
2DE
100
AcDbEntity
  8
0
100
AcDbLine
 62
7
  6
CONTINUOUS
 10
-0.869131682
 20
-66.6417143488
 11
-0.6423536859
 21
-66.6046435816
  0
LINE
  5
2DF
100
AcDbEntity
  8
0
100
AcDbLine
 62
7
  6
CONTINUOUS
 10
0.8424248822
 20
-65.9736994005
 11
0.5496940678
 21
-66.0210155067
  0
LINE
  5
2E0
100
AcDbEntity
  8
0
100
AcDbLine
 62
7
  6
CONTINUOUS
 10
-0.5604645688
 20
-66.1913692738
 11
-0.8582863162
 21
-66.2391993409
  0
LINE
  5
2E1
100
AcDbEntity
  8
0
100
AcDbLine
 62
7
  6
CONTINUOUS
 10
0.536517712
 20
-66.4233329665
 11
0.8201860794
 21
-66.3780203956
  0
LINE
  5
2E2
100
AcDbEntity
  8
0
100
AcDbLine
 62
7
  6
CONTINUOUS
 10
-0.6423536859
 20
-66.6046435816
 11
-0.2757619823
 21
-66.5474410813
  0
LINE
  5
2E3
100
AcDbEntity
  8
0
100
AcDbLine
 62
7
  6
CONTINUOUS
 10
-0.2757619823
 20
-66.5474410813
 11
0.536517712
 21
-66.4233329665
  0
LINE
  5
2E4
100
AcDbEntity
  8
0
100
AcDbLine
 62
7
  6
CONTINUOUS
 10
0.5496940678
 20
-66.0210155067
 11
-0.5604645688
 21
-66.1913692738
  0
LINE
  5
2E5
100
AcDbEntity
  8
ASSI
100
AcDbLine
 62
7
  6
CONTINUOUS
 10
-1.2225984045
 20
-65.3150098942
 11
1.2225984045
 21
-65.3150098942
  0
LINE
  5
2E6
100
AcDbEntity
  8
DRAFT
100
AcDbLine
 62
7
  6
CONTINUOUS
 10
1.1817344097
 20
-65.2673651948
 11
-1.1817344097
 21
-65.2673651948
  0
LINE
  5
2E7
100
AcDbEntity
  8
0
100
AcDbLine
 62
7
  6
CONTINUOUS
 10
-0.5164906404
 20
-67.4264605059
 11
0.4696990466
 21
-67.5773955828
  0
LINE
  5
2E8
100
AcDbEntity
  8
0
100
AcDbLine
 62
7
  6
CONTINUOUS
 10
0.5773677057
 20
-67.1940231436
 11
-0.3880550975
 21
-67.0462342811
  0
LINE
  5
2E9
100
AcDbEntity
  8
0
100
AcDbLine
 62
7
  6
CONTINUOUS
 10
-0.5808397077
 20
-65.4163833771
 11
0.5189439358
 21
-65.5851004711
  0
LWPOLYLINE
  5
2EA
100
AcDbEntity
  8
0
100
AcDbPolyline
 62
7
  6
CONTINUOUS
 90
9
 70
0
 10
-0.3880550975
 20
-67.0462342811
 10
-0.694914695
 20
-66.9978659736
 10
-0.8387795502
 20
-66.9743061187
 10
-0.9756554859
 20
-66.9511304304
 10
-1.104639328
 20
-66.9284118144
 10
-1.2252851358
 20
-66.9061680603
 10
-1.3373557754
 20
-66.8843977193
 10
-1.4404103235
 20
-66.8631605527
 10
-1.4853432483
 20
-66.8532643983
  0
LWPOLYLINE
  5
2EB
100
AcDbEntity
  8
0
100
AcDbPolyline
 62
7
  6
CONTINUOUS
 90
4
 70
0
 10
0.4696990466
 20
-67.5773955828
 10
0.7227640141
 20
-67.6175928792
 10
0.8433768546
 20
-67.6374115109
 10
0.8597611226
 20
-67.6401812821
  0
LWPOLYLINE
  5
2EC
100
AcDbEntity
  8
0
100
AcDbPolyline
 62
7
  6
CONTINUOUS
 90
9
 70
0
 10
0.5189439358
 20
-65.5851004711
 10
0.7698629682
 20
-65.6252708801
 10
0.8884466283
 20
-65.6449594295
 10
1.0016062989
 20
-65.6643170272
 10
1.1089743849
 20
-65.6833216998
 10
1.2104467435
 20
-65.7019879535
 10
1.3057938001
 20
-65.720298809
 10
1.3948261346
 20
-65.7382331118
 10
1.4771226661
 20
-65.7557079744
  0
LWPOLYLINE
  5
2ED
100
AcDbEntity
  8
0
100
AcDbPolyline
 62
7
  6
CONTINUOUS
 90
5
 70
0
 10
-1.2286779435
 20
-67.3072971226
 10
-1.1053428939
 20
-67.3296279047
 10
-0.9611467438
 20
-67.3545545818
 10
-0.8138886059
 20
-67.3790514162
 10
-0.5164906404
 20
-67.4264605059
  0
LWPOLYLINE
  5
2EE
100
AcDbEntity
  8
0
100
AcDbPolyline
 62
7
  6
CONTINUOUS
 90
5
 70
0
 10
-1.1861281186
 20
-65.3150098942
 10
-1.121558651
 20
-65.3267547438
 10
-0.9889677655
 20
-65.3498254791
 10
-0.8542942143
 20
-65.3724121675
 10
-0.5808397077
 20
-65.4163833771
  0
LWPOLYLINE
  5
2EF
100
AcDbEntity
  8
0
100
AcDbPolyline
 62
7
  6
CONTINUOUS
 90
5
 70
0
 10
1.2311507938
 20
-67.3041680045
 10
1.1440950807
 20
-67.2882170132
 10
1.0129760075
 20
-67.2652369789
 10
0.8743769215
 20
-67.2418620342
 10
0.5773677057
 20
-67.1940231436
  0
LINE
  5
2F0
100
AcDbEntity
  8
DRAFT
100
AcDbLine
 62
7
  6
CONTINUOUS
 10
-14.3799282041
 20
-79.4350717959
 11
-14.4
 21
-79.415
  0
LINE
  5
2F1
100
AcDbEntity
  8
DRAFT
100
AcDbLine
 62
7
  6
CONTINUOUS
 10
13.05
 20
-55.815
 11
-13.05
 21
-55.815
  0
LINE
  5
2F2
100
AcDbEntity
  8
DRAFT
100
AcDbLine
 62
7
  6
CONTINUOUS
 10
13.0322886568
 20
-54.5972886568
 11
-13.0322886568
 21
-54.5972886568
  0
LINE
  5
2F3
100
AcDbEntity
  8
RACCORDO
100
AcDbLine
 62
250
  6
CONTINUOUS
 10
48.7955259605
 20
-85.0077721026
 11
48.1502511521
 21
-84.6855281419
  0
LINE
  5
2F4
100
AcDbEntity
  8
DRAFT
100
AcDbLine
 62
7
  6
CONTINUOUS
 10
-0.9799282041
 20
-79.4350717959
 11
-1.0
 21
-79.415
  0
LWPOLYLINE
  5
2F5
100
AcDbEntity
  8
RACCORDO
100
AcDbPolyline
 62
7
  6
CONTINUOUS
 90
24
 70
0
 10
-49.3667156301
 20
-84.5467993493
 10
-49.3664495527
 20
-84.5630341851
 10
-49.3640412978
 20
-84.5983203525
 10
-49.3591479262
 20
-84.6333408495
 10
-49.351789732
 20
-84.667919067
 10
-49.3420018473
 20
-84.7018674929
 10
-49.3298435491
 20
-84.7350222925
 10
-49.3153654714
 20
-84.7672444119
 10
-49.2986320182
 20
-84.7983746922
 10
-49.2797337254
 20
-84.8282564917
 10
-49.2587533602
 20
-84.8567502304
 10
-49.2357778033
 20
-84.8837131345
 10
-49.210931134
 20
-84.9090002084
 10
-49.1843529508
 20
-84.9324685367
 10
-49.1561809845
 20
-84.9539880511
 10
-49.1265522503
 20
-84.9734627254
 10
-49.0956089886
 20
-84.990803207
 10
-49.0635058054
 20
-85.0059129379
 10
-49.0303973404
 20
-85.0187177038
 10
-48.9964251967
 20
-85.0291609956
 10
-48.9617501985
 20
-85.0371779232
 10
-48.9265514976
 20
-85.0427211356
 10
-48.8910089771
 20
-85.045763616
 10
-48.8660277464
 20
-85.0463886513
  0
LWPOLYLINE
  5
2F6
100
AcDbEntity
  8
RACCORDO
100
AcDbPolyline
 62
7
  6
CONTINUOUS
 90
23
 70
0
 10
-49.1955264958
 20
-84.6082592183
 10
-49.1954979137
 20
-84.6130214869
 10
-49.1940176958
 20
-84.6429449248
 10
-49.1903044807
 20
-84.6726560486
 10
-49.184375528
 20
-84.7019956534
 10
-49.1762707043
 20
-84.7308005393
 10
-49.166040842
 20
-84.758907633
 10
-49.1537375469
 20
-84.7861589081
 10
-49.1394353148
 20
-84.812403928
 10
-49.1232205468
 20
-84.8374973265
 10
-49.1051797368
 20
-84.86129784
 10
-49.0854178521
 20
-84.8836771563
 10
-49.0640521802
 20
-84.9045124947
 10
-49.0412020856
 20
-84.9236828954
 10
-49.0170013488
 20
-84.941085412
 10
-48.9915876765
 20
-84.956631348
 10
-48.9650961608
 20
-84.9702346005
 10
-48.9376770074
 20
-84.9818249676
 10
-48.9094864157
 20
-84.9913458132
 10
-48.880674041
 20
-84.9987434225
 10
-48.8513963397
 20
-85.003979958
 10
-48.8218101246
 20
-85.0070316543
 10
-48.7955259606
 20
-85.0078918809
  0
LINE
  5
2F7
100
AcDbEntity
  8
ASSI
100
AcDbLine
 62
7
  6
CONTINUOUS
 10
-50.3675206953
 20
80.9860227546
 11
-50.3675206953
 21
78.9312753145
  0
LINE
  5
2F8
100
AcDbEntity
  8
RACCORDO
100
AcDbLine
 62
7
  6
CONTINUOUS
 10
-50.3561012756
 20
80.9878579005
 11
-50.3561014955
 21
78.9335104325
  0
LINE
  5
2F9
100
AcDbEntity
  8
ASSI
100
AcDbLine
 62
7
  6
CONTINUOUS
 10
-49.6431811459
 20
-85.415
 11
-49.6431811459
 21
-83.9548556231
  0
LINE
  5
2FA
100
AcDbEntity
  8
ASSI
100
AcDbLine
 62
7
  6
CONTINUOUS
 10
-49.6405941807
 20
-83.815
 11
-49.6405941807
 21
78.8726324601
  0
LINE
  5
2FB
100
AcDbEntity
  8
ASSI
100
AcDbLine
 62
7
  6
CONTINUOUS
 10
-49.6186215945
 20
-83.815
 11
-49.6186215945
 21
78.8768759187
  0
LINE
  5
2FC
100
AcDbEntity
  8
0
100
AcDbLine
 62
7
  6
CONTINUOUS
 10
-49.6186215945
 20
-83.815
 11
-49.6186215945
 21
78.8768759187
  0
LINE
  5
2FD
100
AcDbEntity
  8
RACCORDO
100
AcDbLine
 62
7
  6
CONTINUOUS
 10
-49.6167724049
 20
-83.9450402337
 11
-49.6167724049
 21
-85.415
  0
LINE
  5
2FE
100
AcDbEntity
  8
RACCORDO
100
AcDbLine
 62
7
  6
CONTINUOUS
 10
-49.3667156301
 20
79.1254025243
 11
-49.3667156301
 21
-84.5467993487
  0
LINE
  5
2FF
100
AcDbEntity
  8
RACCORDO
100
AcDbLine
 62
7
  6
CONTINUOUS
 10
-49.2100000033
 20
81.2066473804
 11
-49.2100000033
 21
-84.5156844906
  0
LINE
  5
300
100
AcDbEntity
  8
RACCORDO
100
AcDbLine
 62
7
  6
CONTINUOUS
 10
-49.195526258
 20
-84.6082592183
 11
-49.195526258
 21
81.2782871298
  0
LINE
  5
301
100
AcDbEntity
  8
RACCORDO
100
AcDbLine
 62
250
  6
CONTINUOUS
 10
-48.8660277452
 20
-85.0463581903
 11
-48.8660277453
 21
-85.0463886513
  0
LINE
  5
302
100
AcDbEntity
  8
RACCORDO
100
AcDbLine
 62
7
  6
CONTINUOUS
 10
-48.825
 20
-85.0463886513
 11
-48.825
 21
-85.415
  0
LINE
  5
303
100
AcDbEntity
  8
RACCORDO
100
AcDbLine
 62
250
  6
CONTINUOUS
 10
-48.7955259605
 20
-85.0078939372
 11
-48.7955259609
 21
-85.0077721026
  0
LINE
  5
304
100
AcDbEntity
  8
RACCORDO
100
AcDbLine
 62
250
  6
CONTINUOUS
 10
-48.5492767722
 20
80.7427119061
 11
-48.5492767722
 21
-84.2857718111
  0
LINE
  5
305
100
AcDbEntity
  8
RACCORDO
100
AcDbLine
 62
7
  6
CONTINUOUS
 10
12.8084747893
 20
-52.4910217028
 11
-12.8084747893
 21
-52.4910217028
  0
LINE
  5
306
100
AcDbEntity
  8
RACCORDO
100
AcDbLine
 62
250
  6
CONTINUOUS
 10
13.0076017143
 20
-49.1553124237
 11
-13.0076017143
 21
-49.1553124237
  0
LINE
  5
307
100
AcDbEntity
  8
RACCORDO
100
AcDbLine
 62
250
  6
CONTINUOUS
 10
13.0076017143
 20
-48.764878019
 11
-13.0076017143
 21
-48.764878019
  0
LINE
  5
308
100
AcDbEntity
  8
RACCORDO
100
AcDbLine
 62
250
  6
CONTINUOUS
 10
13.0076017143
 20
-48.065121981
 11
-13.0076017143
 21
-48.065121981
  0
LINE
  5
309
100
AcDbEntity
  8
RACCORDO
100
AcDbLine
 62
250
  6
CONTINUOUS
 10
13.0076017143
 20
-47.6746875763
 11
-13.0076017143
 21
-47.6746875763
  0
LINE
  5
30A
100
AcDbEntity
  8
RACCORDO
100
AcDbLine
 62
250
  6
CONTINUOUS
 10
49.195039068
 20
-84.6082592183
 11
48.5492767722
 21
-84.2857718111
  0
LINE
  5
30B
100
AcDbEntity
  8
DRAFT
100
AcDbLine
 62
7
  6
CONTINUOUS
 10
12.4200717959
 20
-79.4350717959
 11
12.4
 21
-79.415
  0
LINE
  5
30C
100
AcDbEntity
  8
RACCORDO
100
AcDbLine
 62
250
  6
CONTINUOUS
 10
-43.5614565209
 20
-84.5360979711
 11
-43.5614565209
 21
81.2612684788
  0
LINE
  5
30D
100
AcDbEntity
  8
DRAFT
100
AcDbLine
 62
7
  6
CONTINUOUS
 10
-41.2
 20
-83.4449291517
 11
-41.2
 21
-79.415
  0
LINE
  5
30E
100
AcDbEntity
  8
RACCORDO
100
AcDbLine
 62
7
  6
CONTINUOUS
 10
-41.1799282041
 20
-81.3372461452
 11
-41.1799282041
 21
-79.4350717959
  0
LINE
  5
30F
100
AcDbEntity
  8
RACCORDO
100
AcDbLine
 62
7
  6
CONTINUOUS
 10
-41.0915852891
 20
-85.9323694682
 11
-41.0915852891
 21
-85.4812188694
  0
LINE
  5
310
100
AcDbEntity
  8
RACCORDO
100
AcDbLine
 62
7
  6
CONTINUOUS
 10
-40.9656870921
 20
-85.915102112
 11
-40.9656870921
 21
-85.015
  0
LINE
  5
311
100
AcDbEntity
  8
RACCORDO
100
AcDbLine
 62
7
  6
CONTINUOUS
 10
-12.8076321752
 20
-46.6573982857
 11
12.8076321752
 21
-46.6573982857
  0
LINE
  5
312
100
AcDbEntity
  8
RACCORDO
100
AcDbLine
 62
250
  6
CONTINUOUS
 10
-12.9490791277
 20
-46.5159513332
 11
12.9490791277
 21
-46.5159513332
  0
LINE
  5
313
100
AcDbEntity
  8
DRAFT
100
AcDbLine
 62
7
  6
CONTINUOUS
 10
-13.0299282041
 20
-46.4350717959
 11
13.0299282041
 21
-46.4350717959
  0
LINE
  5
314
100
AcDbEntity
  8
DRAFT
100
AcDbLine
 62
7
  6
CONTINUOUS
 10
-13.05
 20
-46.415
 11
13.05
 21
-46.415
  0
LINE
  5
315
100
AcDbEntity
  8
RACCORDO
100
AcDbLine
 62
250
  6
CONTINUOUS
 10
-13.0076017143
 20
-46.8573678248
 11
-13.0299282041
 21
-46.835041335
  0
LINE
  5
316
100
AcDbEntity
  8
RACCORDO
100
AcDbLine
 62
250
  6
CONTINUOUS
 10
-12.8076321752
 20
-46.6573982857
 11
-12.9490791277
 21
-46.5159513332
  0
LINE
  5
317
100
AcDbEntity
  8
DRAFT
100
AcDbLine
 62
7
  6
CONTINUOUS
 10
-13.0299282041
 20
-46.4350717959
 11
-13.05
 21
-46.415
  0
LINE
  5
318
100
AcDbEntity
  8
ASSI
100
AcDbLine
 62
7
  6
CONTINUOUS
 10
-39.2201930188
 20
-81.503344261
 11
-39.2
 21
-83.4449291517
  0
LINE
  5
319
100
AcDbEntity
  8
RACCORDO
100
AcDbLine
 62
7
  6
CONTINUOUS
 10
-39.2200717959
 20
-79.4350717959
 11
-39.2200717959
 21
-81.3372461452
  0
LINE
  5
31A
100
AcDbEntity
  8
DRAFT
100
AcDbLine
 62
7
  6
CONTINUOUS
 10
-39.2
 20
-79.415
 11
-39.2
 21
-83.4449291517
  0
LINE
  5
31B
100
AcDbEntity
  8
RACCORDO
100
AcDbLine
 62
7
  6
CONTINUOUS
 10
-38.1636258157
 20
-85.915057052
 11
-38.1636258157
 21
-85.0078939372
  0
LINE
  5
31C
100
AcDbEntity
  8
RACCORDO
100
AcDbLine
 62
7
  6
CONTINUOUS
 10
-37.9355808788
 20
-86.1686761989
 11
-37.9355806996
 21
-85.0078939372
  0
LINE
  5
31D
100
AcDbEntity
  8
RACCORDO
100
AcDbLine
 62
7
  6
CONTINUOUS
 10
-37.927236398
 20
-86.615
 11
-37.927236398
 21
-86.1706079406
  0
LINE
  5
31E
100
AcDbEntity
  8
RACCORDO
100
AcDbLine
 62
250
  6
CONTINUOUS
 10
-37.8383999674
 20
-85.0078939372
 11
-37.8383999674
 21
-86.1686761989
  0
LINE
  5
31F
100
AcDbEntity
  8
RACCORDO
100
AcDbLine
 62
250
  6
CONTINUOUS
 10
-37.6531273518
 20
-86.615
 11
-37.6531273518
 21
-86.1689868125
  0
LINE
  5
320
100
AcDbEntity
  8
RACCORDO
100
AcDbLine
 62
250
  6
CONTINUOUS
 10
-37.3384761198
 20
-85.0078939372
 11
-37.3384761198
 21
-86.615
  0
LINE
  5
321
100
AcDbEntity
  8
RACCORDO
100
AcDbLine
 62
250
  6
CONTINUOUS
 10
-37.2991927843
 20
-86.615
 11
-37.2991927843
 21
-85.0078939372
  0
LINE
  5
322
100
AcDbEntity
  8
RACCORDO
100
AcDbLine
 62
250
  6
CONTINUOUS
 10
-37.2127304891
 20
-86.615
 11
-37.2127304891
 21
-85.0078939372
  0
LINE
  5
323
100
AcDbEntity
  8
RACCORDO
100
AcDbLine
 62
250
  6
CONTINUOUS
 10
-34.931841477
 20
-85.0078939372
 11
-34.931841477
 21
-86.615
  0
LINE
  5
324
100
AcDbEntity
  8
RACCORDO
100
AcDbLine
 62
250
  6
CONTINUOUS
 10
-34.8257356899
 20
-85.0078939372
 11
-34.8257356899
 21
-86.615
  0
LINE
  5
325
100
AcDbEntity
  8
RACCORDO
100
AcDbLine
 62
250
  6
CONTINUOUS
 10
-34.3258118423
 20
-85.0078939372
 11
-34.3258118423
 21
-86.815
  0
LINE
  5
326
100
AcDbEntity
  8
ASSI
100
AcDbLine
 62
7
  6
CONTINUOUS
 10
-41.2
 20
-83.4449291517
 11
-41.1798069812
 21
-81.503344261
  0
LINE
  5
327
100
AcDbEntity
  8
0
100
AcDbLine
 62
7
  6
CONTINUOUS
 10
-9.344810896
 20
44.7765563084
 11
-9.341320149
 21
44.7800470557
  0
LINE
  5
328
100
AcDbEntity
  8
DRAFT
100
AcDbLine
 62
7
  6
CONTINUOUS
 10
25.8200717959
 20
-79.4350717959
 11
25.8
 21
-79.415
  0
LINE
  5
329
100
AcDbEntity
  8
ASSI
100
AcDbLine
 62
7
  6
CONTINUOUS
 10
-25.8201930188
 20
-81.503344261
 11
-25.8
 21
-83.4449291517
  0
LINE
  5
32A
100
AcDbEntity
  8
RACCORDO
100
AcDbLine
 62
250
  6
CONTINUOUS
 10
-29.6741881577
 20
-86.815
 11
-29.6741881577
 21
-85.0078939372
  0
LINE
  5
32B
100
AcDbEntity
  8
RACCORDO
100
AcDbLine
 62
250
  6
CONTINUOUS
 10
-29.1742643101
 20
-86.615
 11
-29.1742643101
 21
-85.0078939372
  0
LINE
  5
32C
100
AcDbEntity
  8
RACCORDO
100
AcDbLine
 62
250
  6
CONTINUOUS
 10
-29.068158523
 20
-85.0078939372
 11
-29.068158523
 21
-86.615
  0
LINE
  5
32D
100
AcDbEntity
  8
DRAFT
100
AcDbLine
 62
7
  6
CONTINUOUS
 10
-27.8
 20
-83.4449291517
 11
-27.8
 21
-79.415
  0
LINE
  5
32E
100
AcDbEntity
  8
RACCORDO
100
AcDbLine
 62
7
  6
CONTINUOUS
 10
-27.7799282041
 20
-81.3372461452
 11
-27.7799282041
 21
-79.4350717959
  0
LINE
  5
32F
100
AcDbEntity
  8
RACCORDO
100
AcDbLine
 62
250
  6
CONTINUOUS
 10
-27.5385059156
 20
-79.915
 11
-27.5385059156
 21
-79.4350717959
  0
LINE
  5
330
100
AcDbEntity
  8
RACCORDO
100
AcDbLine
 62
250
  6
CONTINUOUS
 10
-26.7872695109
 20
-85.0078939372
 11
-26.7872695109
 21
-86.615
  0
LINE
  5
331
100
AcDbEntity
  8
RACCORDO
100
AcDbLine
 62
250
  6
CONTINUOUS
 10
-26.7008072157
 20
-86.615
 11
-26.7008072157
 21
-85.0078939372
  0
LINE
  5
332
100
AcDbEntity
  8
RACCORDO
100
AcDbLine
 62
250
  6
CONTINUOUS
 10
-26.6615238802
 20
-86.615
 11
-26.6615238802
 21
-85.0078939372
  0
LINE
  5
333
100
AcDbEntity
  8
ASSI
100
AcDbLine
 62
7
  6
CONTINUOUS
 10
-27.8
 20
-83.4449291517
 11
-27.7798069812
 21
-81.503344261
  0
LINE
  5
334
100
AcDbEntity
  8
DRAFT
100
AcDbLine
 62
7
  6
CONTINUOUS
 10
13.0299282041
 20
-54.5949282041
 11
13.0322886568
 21
-54.5972886568
  0
LINE
  5
335
100
AcDbEntity
  8
DRAFT
100
AcDbLine
 62
7
  6
CONTINUOUS
 10
39.2200717959
 20
-79.4350717959
 11
39.2
 21
-79.415
  0
LINE
  5
336
100
AcDbEntity
  8
RACCORDO
100
AcDbLine
 62
250
  6
CONTINUOUS
 10
-48.8702508171
 20
81.6708419631
 11
-48.8701602876
 21
81.6703632581
  0
LINE
  5
337
100
AcDbEntity
  8
RACCORDO
100
AcDbLine
 62
250
  6
CONTINUOUS
 10
-43.5614565209
 20
81.2612684788
 11
-43.628816622
 21
81.6545674266
  0
LINE
  5
338
100
AcDbEntity
  8
RACCORDO
100
AcDbLine
 62
250
  6
CONTINUOUS
 10
-26.3468726482
 20
-85.0078939372
 11
-26.3468726482
 21
-86.615
  0
LINE
  5
339
100
AcDbEntity
  8
RACCORDO
100
AcDbLine
 62
7
  6
CONTINUOUS
 10
-26.0729009261
 20
-85.0078939372
 11
-26.072763602
 21
-86.615
  0
LINE
  5
33A
100
AcDbEntity
  8
RACCORDO
100
AcDbLine
 62
7
  6
CONTINUOUS
 10
-25.8363741843
 20
-86.115
 11
-25.8363741843
 21
-85.0078939372
  0
LINE
  5
33B
100
AcDbEntity
  8
RACCORDO
100
AcDbLine
 62
7
  6
CONTINUOUS
 10
-25.8200717959
 20
-79.4350717959
 11
-25.8200717959
 21
-81.3372461452
  0
LINE
  5
33C
100
AcDbEntity
  8
DRAFT
100
AcDbLine
 62
7
  6
CONTINUOUS
 10
-25.8
 20
-79.415
 11
-25.8
 21
-83.4449291517
  0
LINE
  5
33D
100
AcDbEntity
  8
RACCORDO
100
AcDbLine
 62
7
  6
CONTINUOUS
 10
-23.0343129079
 20
-85.915102112
 11
-23.0343129079
 21
-85.015
  0
LINE
  5
33E
100
AcDbEntity
  8
RACCORDO
100
AcDbLine
 62
7
  6
CONTINUOUS
 10
-22.9083286114
 20
-85.0463581936
 11
-22.9083282072
 21
-85.0574340296
  0
LINE
  5
33F
100
AcDbEntity
  8
RACCORDO
100
AcDbLine
 62
7
  6
CONTINUOUS
 10
-22.9084147109
 20
-85.9323694682
 11
-22.9084147109
 21
-85.4812188694
  0
LINE
  5
340
100
AcDbEntity
  8
0
100
AcDbLine
 62
7
  6
CONTINUOUS
 10
-3.1026249967
 20
44.7765564696
 11
-3.1008075183
 21
44.7800472167
  0
LINE
  5
341
100
AcDbEntity
  8
0
100
AcDbLine
 62
7
  6
CONTINUOUS
 10
-2.3141573349
 20
46.2909315397
 11
-2.3159748094
 21
46.2874407926
  0
LINE
  5
342
100
AcDbEntity
  8
0
100
AcDbLine
 62
7
  6
CONTINUOUS
 10
2.314157175
 20
46.2909316745
 11
0.0
 21
42.985
  0
LINE
  5
343
100
AcDbEntity
  8
0
100
AcDbLine
 62
7
  6
CONTINUOUS
 10
2.3159746497
 20
46.2874409274
 11
0.0000000002
 21
42.9789128664
  0
LINE
  5
344
100
AcDbEntity
  8
0
100
AcDbLine
 62
7
  6
CONTINUOUS
 10
-0.0000037304
 20
40.3503208457
 11
3.1008036266
 21
44.7800473768
  0
LINE
  5
345
100
AcDbEntity
  8
0
100
AcDbLine
 62
7
  6
CONTINUOUS
 10
-0.000003732
 20
40.3442336992
 11
3.1026211039
 21
44.7765566297
  0
LINE
  5
346
100
AcDbEntity
  8
0
100
AcDbLine
 62
7
  6
CONTINUOUS
 10
5.3372472794
 20
41.830908787
 11
5.3337565324
 21
41.8274180398
  0
LINE
  5
347
100
AcDbEntity
  8
0
100
AcDbLine
 62
7
  6
CONTINUOUS
 10
9.1047211585
 20
42.6804387843
 11
9.1082119055
 21
42.6839295315
  0
LINE
  5
348
100
AcDbEntity
  8
ASSI
100
AcDbLine
 62
7
  6
CONTINUOUS
 10
-12.4201930188
 20
-81.503344261
 11
-12.4
 21
-83.4449291517
  0
LINE
  5
349
100
AcDbEntity
  8
0
100
AcDbLine
 62
7
  6
CONTINUOUS
 10
-17.4153278086
 20
46.290931233
 11
-17.4153278086
 21
40.344233344
  0
LINE
  5
34A
100
AcDbEntity
  8
0
100
AcDbLine
 62
7
  6
CONTINUOUS
 10
-15.0514228296
 20
41.858609375
 11
-15.0514228296
 21
42.560393336
  0
LINE
  5
34B
100
AcDbEntity
  8
0
100
AcDbLine
 62
7
  6
CONTINUOUS
 10
-15.0514228866
 20
44.074774086
 11
-15.0514228866
 21
44.776556214
  0
LINE
  5
34C
100
AcDbEntity
  8
DRAFT
100
AcDbLine
 62
7
  6
CONTINUOUS
 10
-14.4
 20
-83.4449291517
 11
-14.4
 21
-79.415
  0
LINE
  5
34D
100
AcDbEntity
  8
RACCORDO
100
AcDbLine
 62
7
  6
CONTINUOUS
 10
-14.3799282041
 20
-81.3372461452
 11
-14.3799282041
 21
-79.4350717959
  0
LINE
  5
34E
100
AcDbEntity
  8
DRAFT
100
AcDbLine
 62
7
  6
CONTINUOUS
 10
-13.05
 20
-55.815
 11
-13.05
 21
-46.415
  0
LINE
  5
34F
100
AcDbEntity
  8
DRAFT
100
AcDbLine
 62
7
  6
CONTINUOUS
 10
-13.0299282041
 20
-54.5949282041
 11
-13.0299282041
 21
-46.4350717959
  0
LINE
  5
350
100
AcDbEntity
  8
RACCORDO
100
AcDbLine
 62
7
  6
CONTINUOUS
 10
-13.0076017143
 20
-52.2849017384
 11
-13.0076017143
 21
-46.8573678248
  0
LINE
  5
351
100
AcDbEntity
  8
RACCORDO
100
AcDbLine
 62
250
  6
CONTINUOUS
 10
-12.9490791277
 20
-46.4350717959
 11
-12.9490791277
 21
-46.5159513332
  0
LINE
  5
352
100
AcDbEntity
  8
ASSI
100
AcDbLine
 62
7
  6
CONTINUOUS
 10
-14.4
 20
-83.4449291517
 11
-14.3798069812
 21
-81.503344261
  0
LINE
  5
353
100
AcDbEntity
  8
0
100
AcDbLine
 62
7
  6
CONTINUOUS
 10
15.8297454319
 20
46.290932023
 11
14.6543570071
 21
44.6453866185
  0
LINE
  5
354
100
AcDbEntity
  8
0
100
AcDbLine
 62
7
  6
CONTINUOUS
 10
13.7059226412
 20
43.3175867929
 11
11.5821036858
 21
40.344234013
  0
LINE
  5
355
100
AcDbEntity
  8
DRAFT
100
AcDbLine
 62
7
  6
CONTINUOUS
 10
0.4711500415
 20
-85.0852434653
 11
0.4967323412
 21
-85.3776504888
  0
LINE
  5
356
100
AcDbEntity
  8
RACCORDO
100
AcDbLine
 62
7
  6
CONTINUOUS
 10
-12.4200717959
 20
-79.4350717959
 11
-12.4200717959
 21
-81.3372461452
  0
LINE
  5
357
100
AcDbEntity
  8
DRAFT
100
AcDbLine
 62
7
  6
CONTINUOUS
 10
-12.4
 20
-79.415
 11
-12.4
 21
-83.4449291517
  0
LINE
  5
358
100
AcDbEntity
  8
0
100
AcDbLine
 62
7
  6
CONTINUOUS
 10
-12.3181579076
 20
42.560393336
 11
-12.3181579076
 21
44.074774086
  0
LINE
  5
359
100
AcDbEntity
  8
0
100
AcDbLine
 62
7
  6
CONTINUOUS
 10
-10.1943408156
 20
44.776556214
 11
-10.1943408156
 21
46.290931233
  0
LINE
  5
35A
100
AcDbEntity
  8
0
100
AcDbLine
 62
7
  6
CONTINUOUS
 10
-9.3448108006
 20
40.344233344
 11
-9.3448108006
 21
41.858609375
  0
LINE
  5
35B
100
AcDbEntity
  8
0
100
AcDbLine
 62
7
  6
CONTINUOUS
 10
-9.3448109351
 20
46.2909313583
 11
-9.344810896
 21
44.7765563084
  0
LINE
  5
35C
100
AcDbEntity
  8
0
100
AcDbLine
 62
7
  6
CONTINUOUS
 10
-9.3413201879
 20
46.2874406112
 11
-9.341320149
 21
44.7800470557
  0
LINE
  5
35D
100
AcDbEntity
  8
0
100
AcDbLine
 62
7
  6
CONTINUOUS
 10
-8.4952847286
 20
43.98243139
 11
-8.4952847286
 21
40.344233553
  0
LINE
  5
35E
100
AcDbEntity
  8
0
100
AcDbLine
 62
7
  6
CONTINUOUS
 10
-6.9809049476
 20
41.858609572
 11
-6.9809049476
 21
43.98243139
  0
LINE
  5
35F
100
AcDbEntity
  8
DRAFT
100
AcDbLine
 62
7
  6
CONTINUOUS
 10
-13.05
 20
-55.815
 11
-13.0322886568
 21
-54.5972886568
  0
LINE
  5
360
100
AcDbEntity
  8
RACCORDO
100
AcDbLine
 62
250
  6
CONTINUOUS
 10
-13.0076017143
 20
-52.2849017384
 11
-13.0299282041
 21
-52.6276311949
  0
LINE
  5
361
100
AcDbEntity
  8
RACCORDO
100
AcDbLine
 62
250
  6
CONTINUOUS
 10
-12.8084747893
 20
-52.4910217028
 11
-12.9455299685
 21
-54.5949282041
  0
LINE
  5
362
100
AcDbEntity
  8
RACCORDO
100
AcDbLine
 62
250
  6
CONTINUOUS
 10
-27.5000457472
 20
-79.915
 11
-27.4042941649
 21
-79.4350717959
  0
LINE
  5
363
100
AcDbEntity
  8
RACCORDO
100
AcDbLine
 62
250
  6
CONTINUOUS
 10
-27.4001368981
 20
-80.015
 11
-27.2844340853
 21
-79.4350717959
  0
LINE
  5
364
100
AcDbEntity
  8
0
100
AcDbLine
 62
7
  6
CONTINUOUS
 10
10.6190999035
 20
46.2909318888
 11
10.6173035065
 21
46.2874411417
  0
LINE
  5
365
100
AcDbEntity
  8
0
100
AcDbLine
 62
7
  6
CONTINUOUS
 10
13.4789686509
 20
40.344234013
 11
14.6543608757
 21
41.9897765675
  0
LINE
  5
366
100
AcDbEntity
  8
0
100
AcDbLine
 62
7
  6
CONTINUOUS
 10
15.6027838413
 20
43.3175868428
 11
17.726606597
 21
46.290932023
  0
LINE
  5
367
100
AcDbEntity
  8
ASSI
100
AcDbLine
 62
7
  6
CONTINUOUS
 10
0.9798069812
 20
-81.503344261
 11
1.0
 21
-83.4449291517
  0
LINE
  5
368
100
AcDbEntity
  8
DRAFT
100
AcDbLine
 62
250
  6
CONTINUOUS
 10
-3.0
 20
15.892854181
 11
-3.0
 21
15.885
  0
LINE
  5
369
100
AcDbEntity
  8
DRAFT
100
AcDbLine
 62
250
  6
CONTINUOUS
 10
-3.0
 20
18.877145819
 11
-3.0
 21
18.885
  0
LINE
  5
36A
100
AcDbEntity
  8
0
100
AcDbLine
 62
7
  6
CONTINUOUS
 10
-2.1238228006
 20
40.344233553
 11
-2.1238228006
 21
41.858609572
  0
LINE
  5
36B
100
AcDbEntity
  8
RACCORDO
100
AcDbLine
 62
7
  6
CONTINUOUS
 10
-1.54
 20
-73.515
 11
-1.54
 21
-74.3657980845
  0
LINE
  5
36C
100
AcDbEntity
  8
RACCORDO
100
AcDbLine
 62
7
  6
CONTINUOUS
 10
-1.54
 20
-74.7699188363
 11
-1.54
 21
-74.8022016422
  0
LINE
  5
36D
100
AcDbEntity
  8
0
100
AcDbLine
 62
7
  6
CONTINUOUS
 10
-1.18
 20
-73.515
 11
-1.18
 21
-74.2946968142
  0
LINE
  5
36E
100
AcDbEntity
  8
0
100
AcDbLine
 62
7
  6
CONTINUOUS
 10
-1.18
 20
-74.6964084115
 11
-1.18
 21
-75.2129831309
  0
LINE
  5
36F
100
AcDbEntity
  8
DRAFT
100
AcDbLine
 62
7
  6
CONTINUOUS
 10
-1.0
 20
-83.4449291517
 11
-1.0
 21
-79.415
  0
LINE
  5
370
100
AcDbEntity
  8
RACCORDO
100
AcDbLine
 62
7
  6
CONTINUOUS
 10
-0.9799282041
 20
-81.3372461452
 11
-0.9799282041
 21
-79.4350717959
  0
LINE
  5
371
100
AcDbEntity
  8
0
100
AcDbLine
 62
7
  6
CONTINUOUS
 10
-0.000003732
 20
40.3442336992
 11
-0.0000037304
 21
40.3503208457
  0
LINE
  5
372
100
AcDbEntity
  8
RACCORDO
100
AcDbLine
 62
7
  6
CONTINUOUS
 10
-0.0
 20
85.4556876926
 11
-0.0
 21
86.8000353613
  0
LINE
  5
373
100
AcDbEntity
  8
0
100
AcDbLine
 62
7
  6
CONTINUOUS
 10
0.0
 20
42.985
 11
0.0000000002
 21
42.9789128664
  0
LINE
  5
374
100
AcDbEntity
  8
ASSI
100
AcDbLine
 62
7
  6
CONTINUOUS
 10
-1.0
 20
-83.4449291517
 11
-0.9798069812
 21
-81.503344261
  0
LINE
  5
375
100
AcDbEntity
  8
RACCORDO
100
AcDbLine
 62
7
  6
CONTINUOUS
 10
0.9799282041
 20
-81.3372461452
 11
0.9799282041
 21
-79.4350717959
  0
LINE
  5
376
100
AcDbEntity
  8
DRAFT
100
AcDbLine
 62
7
  6
CONTINUOUS
 10
1.0
 20
-79.415
 11
1.0
 21
-83.4449291517
  0
LINE
  5
377
100
AcDbEntity
  8
0
100
AcDbLine
 62
7
  6
CONTINUOUS
 10
1.18
 20
-73.515
 11
1.18
 21
-73.9146026517
  0
LINE
  5
378
100
AcDbEntity
  8
0
100
AcDbLine
 62
7
  6
CONTINUOUS
 10
1.18
 20
-74.3162098509
 11
1.18
 21
-75.2129831309
  0
LINE
  5
379
100
AcDbEntity
  8
RACCORDO
100
AcDbLine
 62
7
  6
CONTINUOUS
 10
1.54
 20
-73.515
 11
1.54
 21
-73.8410092018
  0
LINE
  5
37A
100
AcDbEntity
  8
RACCORDO
100
AcDbLine
 62
7
  6
CONTINUOUS
 10
1.54
 20
-74.2452014114
 11
1.54
 21
-74.8022016422
  0
LINE
  5
37B
100
AcDbEntity
  8
DRAFT
100
AcDbLine
 62
250
  6
CONTINUOUS
 10
3.0
 20
15.892854181
 11
3.0
 21
15.885
  0
LINE
  5
37C
100
AcDbEntity
  8
DRAFT
100
AcDbLine
 62
250
  6
CONTINUOUS
 10
3.0
 20
18.877145819
 11
3.0
 21
18.885
  0
LINE
  5
37D
100
AcDbEntity
  8
0
100
AcDbLine
 62
7
  6
CONTINUOUS
 10
3.8228722214
 20
43.982431776
 11
3.8228722214
 21
40.344233876
  0
LINE
  5
37E
100
AcDbEntity
  8
0
100
AcDbLine
 62
7
  6
CONTINUOUS
 10
5.3337565324
 20
41.8274180398
 11
5.3337565103
 21
42.6839294341
  0
LINE
  5
37F
100
AcDbEntity
  8
0
100
AcDbLine
 62
7
  6
CONTINUOUS
 10
5.3372472794
 20
41.830908787
 11
5.3372472575
 21
42.680438687
  0
LINE
  5
380
100
AcDbEntity
  8
DRAFT
100
AcDbLine
 62
7
  6
CONTINUOUS
 10
-0.4967323412
 20
-85.3776504888
 11
-0.4711500415
 21
-85.0852434653
  0
LINE
  5
381
100
AcDbEntity
  8
RACCORDO
100
AcDbLine
 62
250
  6
CONTINUOUS
 10
12.8084747893
 20
-52.4910217028
 11
12.9455299685
 21
-54.5949282041
  0
LINE
  5
382
100
AcDbEntity
  8
RACCORDO
100
AcDbLine
 62
250
  6
CONTINUOUS
 10
13.0076017143
 20
-52.2849017384
 11
13.0299282041
 21
-52.6276311949
  0
LINE
  5
383
100
AcDbEntity
  8
DRAFT
100
AcDbLine
 62
7
  6
CONTINUOUS
 10
13.0322886568
 20
-54.5972886568
 11
13.05
 21
-55.815
  0
LINE
  5
384
100
AcDbEntity
  8
ASSI
100
AcDbLine
 62
7
  6
CONTINUOUS
 10
14.3798069812
 20
-81.503344261
 11
14.4
 21
-83.4449291517
  0
LINE
  5
385
100
AcDbEntity
  8
0
100
AcDbLine
 62
7
  6
CONTINUOUS
 10
9.1047211585
 20
42.6804387843
 11
9.1047211804
 21
41.8309088843
  0
LINE
  5
386
100
AcDbEntity
  8
0
100
AcDbLine
 62
7
  6
CONTINUOUS
 10
9.1082119055
 20
42.6839295315
 11
9.1082119276
 21
41.8274181373
  0
LINE
  5
387
100
AcDbEntity
  8
0
100
AcDbLine
 62
7
  6
CONTINUOUS
 10
10.6190962214
 20
40.344233876
 11
10.6190962214
 21
43.982431776
  0
LINE
  5
388
100
AcDbEntity
  8
DRAFT
100
AcDbLine
 62
7
  6
CONTINUOUS
 10
12.4
 20
-83.4449291517
 11
12.4
 21
-79.415
  0
LINE
  5
389
100
AcDbEntity
  8
RACCORDO
100
AcDbLine
 62
7
  6
CONTINUOUS
 10
12.4200717959
 20
-81.3372461452
 11
12.4200717959
 21
-79.4350717959
  0
LINE
  5
38A
100
AcDbEntity
  8
RACCORDO
100
AcDbLine
 62
250
  6
CONTINUOUS
 10
12.9490791275
 20
-46.4350717959
 11
12.9490791277
 21
-46.5159513332
  0
LINE
  5
38B
100
AcDbEntity
  8
RACCORDO
100
AcDbLine
 62
7
  6
CONTINUOUS
 10
13.0076017143
 20
-46.8573678248
 11
13.0076017143
 21
-52.2849017384
  0
LINE
  5
38C
100
AcDbEntity
  8
DRAFT
100
AcDbLine
 62
7
  6
CONTINUOUS
 10
13.0299282041
 20
-46.4350717959
 11
13.0299282041
 21
-54.5949282041
  0
LINE
  5
38D
100
AcDbEntity
  8
DRAFT
100
AcDbLine
 62
7
  6
CONTINUOUS
 10
13.05
 20
-46.415
 11
13.05
 21
-55.815
  0
LINE
  5
38E
100
AcDbEntity
  8
RACCORDO
100
AcDbLine
 62
7
  6
CONTINUOUS
 10
14.3799282041
 20
-79.4350717959
 11
14.3799282041
 21
-81.3372461452
  0
LINE
  5
38F
100
AcDbEntity
  8
DRAFT
100
AcDbLine
 62
7
  6
CONTINUOUS
 10
14.4
 20
-79.415
 11
14.4
 21
-83.4449291517
  0
LINE
  5
390
100
AcDbEntity
  8
ASSI
100
AcDbLine
 62
7
  6
CONTINUOUS
 10
12.4
 20
-83.4449291517
 11
12.4201930188
 21
-81.503344261
  0
LINE
  5
391
100
AcDbEntity
  8
DRAFT
100
AcDbLine
 62
7
  6
CONTINUOUS
 10
3.0
 20
15.885
 11
-3.0
 21
15.885
  0
LINE
  5
392
100
AcDbEntity
  8
DRAFT
100
AcDbLine
 62
7
  6
CONTINUOUS
 10
3.0
 20
15.892854181
 11
-3.0
 21
15.892854181
  0
LINE
  5
393
100
AcDbEntity
  8
DRAFT
100
AcDbLine
 62
7
  6
CONTINUOUS
 10
-3.0
 20
18.877145819
 11
3.0
 21
18.877145819
  0
LINE
  5
394
100
AcDbEntity
  8
DRAFT
100
AcDbLine
 62
7
  6
CONTINUOUS
 10
-3.0
 20
18.885
 11
3.0
 21
18.885
  0
LINE
  5
395
100
AcDbEntity
  8
ASSI
100
AcDbLine
 62
7
  6
CONTINUOUS
 10
27.7798069812
 20
-81.503344261
 11
27.8
 21
-83.4449291517
  0
LINE
  5
396
100
AcDbEntity
  8
DRAFT
100
AcDbLine
 62
7
  6
CONTINUOUS
 10
25.8
 20
-83.4449291517
 11
25.8
 21
-79.415
  0
LINE
  5
397
100
AcDbEntity
  8
RACCORDO
100
AcDbLine
 62
7
  6
CONTINUOUS
 10
25.8200717959
 20
-81.3372461452
 11
25.8200717959
 21
-79.4350717959
  0
LINE
  5
398
100
AcDbEntity
  8
RACCORDO
100
AcDbLine
 62
7
  6
CONTINUOUS
 10
27.7799282041
 20
-79.4350717959
 11
27.7799282041
 21
-81.3372461452
  0
LINE
  5
399
100
AcDbEntity
  8
DRAFT
100
AcDbLine
 62
7
  6
CONTINUOUS
 10
27.8
 20
-79.415
 11
27.8
 21
-83.4449291517
  0
LINE
  5
39A
100
AcDbEntity
  8
ASSI
100
AcDbLine
 62
7
  6
CONTINUOUS
 10
25.8
 20
-83.4449291517
 11
25.8201930188
 21
-81.503344261
  0
LINE
  5
39B
100
AcDbEntity
  8
DRAFT
100
AcDbLine
 62
7
  6
CONTINUOUS
 10
-39.2200717959
 20
-79.4350717959
 11
-39.2
 21
-79.415
  0
LINE
  5
39C
100
AcDbEntity
  8
0
100
AcDbLine
 62
7
  6
CONTINUOUS
 10
-9.3448109351
 20
46.2909313583
 11
-9.3413201879
 21
46.2874406112
  0
LINE
  5
39D
100
AcDbEntity
  8
0
100
AcDbLine
 62
7
  6
CONTINUOUS
 10
-3.1026249967
 20
44.7765564696
 11
-0.000003732
 21
40.3442336992
  0
LINE
  5
39E
100
AcDbEntity
  8
0
100
AcDbLine
 62
7
  6
CONTINUOUS
 10
-3.1008075183
 20
44.7800472167
 11
-0.0000037304
 21
40.3503208457
  0
LINE
  5
39F
100
AcDbEntity
  8
0
100
AcDbLine
 62
7
  6
CONTINUOUS
 10
0.0000000002
 20
42.9789128664
 11
-2.3159748094
 21
46.2874407926
  0
LINE
  5
3A0
100
AcDbEntity
  8
0
100
AcDbLine
 62
7
  6
CONTINUOUS
 10
0.0
 20
42.985
 11
-2.3141573349
 21
46.2909315397
  0
LINE
  5
3A1
100
AcDbEntity
  8
0
100
AcDbLine
 62
7
  6
CONTINUOUS
 10
2.314157175
 20
46.2909316745
 11
2.3159746497
 21
46.2874409274
  0
LINE
  5
3A2
100
AcDbEntity
  8
0
100
AcDbLine
 62
7
  6
CONTINUOUS
 10
3.1026211039
 20
44.7765566297
 11
3.1008036266
 21
44.7800473768
  0
LINE
  5
3A3
100
AcDbEntity
  8
RACCORDO
100
AcDbLine
 62
250
  6
CONTINUOUS
 10
43.5614565209
 20
81.2612684788
 11
43.628816622
 21
81.6545674266
  0
LINE
  5
3A4
100
AcDbEntity
  8
RACCORDO
100
AcDbLine
 62
250
  6
CONTINUOUS
 10
48.8702508206
 20
81.6708419625
 11
48.8701602876
 21
81.6703632581
  0
LINE
  5
3A5
100
AcDbEntity
  8
0
100
AcDbLine
 62
7
  6
CONTINUOUS
 10
5.3372472575
 20
42.680438687
 11
5.3337565103
 21
42.6839294341
  0
LINE
  5
3A6
100
AcDbEntity
  8
ASSI
100
AcDbLine
 62
7
  6
CONTINUOUS
 10
41.1798069812
 20
-81.503344261
 11
41.2
 21
-83.4449291517
  0
LINE
  5
3A7
100
AcDbEntity
  8
DRAFT
100
AcDbLine
 62
7
  6
CONTINUOUS
 10
39.2
 20
-83.4449291517
 11
39.2
 21
-79.415
  0
LINE
  5
3A8
100
AcDbEntity
  8
RACCORDO
100
AcDbLine
 62
7
  6
CONTINUOUS
 10
39.2200717959
 20
-81.3372461452
 11
39.2200717959
 21
-79.4350717959
  0
LINE
  5
3A9
100
AcDbEntity
  8
RACCORDO
100
AcDbLine
 62
7
  6
CONTINUOUS
 10
41.1799282041
 20
-79.4350717959
 11
41.1799282041
 21
-81.3372461452
  0
LINE
  5
3AA
100
AcDbEntity
  8
DRAFT
100
AcDbLine
 62
7
  6
CONTINUOUS
 10
41.2
 20
-79.415
 11
41.2
 21
-83.4449291517
  0
LINE
  5
3AB
100
AcDbEntity
  8
ASSI
100
AcDbLine
 62
7
  6
CONTINUOUS
 10
39.2
 20
-83.4449291517
 11
39.2201930188
 21
-81.503344261
  0
LINE
  5
3AC
100
AcDbEntity
  8
DRAFT
100
AcDbLine
 62
7
  6
CONTINUOUS
 10
-25.8200717959
 20
-79.4350717959
 11
-25.8
 21
-79.415
  0
LINE
  5
3AD
100
AcDbEntity
  8
DRAFT
100
AcDbLine
 62
7
  6
CONTINUOUS
 10
13.0299282041
 20
-46.4350717959
 11
13.05
 21
-46.415
  0
LINE
  5
3AE
100
AcDbEntity
  8
RACCORDO
100
AcDbLine
 62
250
  6
CONTINUOUS
 10
12.8076321752
 20
-46.6573982857
 11
12.9490791277
 21
-46.5159513332
  0
LINE
  5
3AF
100
AcDbEntity
  8
0
100
AcDbLine
 62
7
  6
CONTINUOUS
 10
-17.4153278086
 20
40.344233344
 11
-9.3448108006
 21
40.344233344
  0
LINE
  5
3B0
100
AcDbEntity
  8
0
100
AcDbLine
 62
7
  6
CONTINUOUS
 10
-8.4952847286
 20
40.344233553
 11
-2.1238228006
 21
40.344233553
  0
LINE
  5
3B1
100
AcDbEntity
  8
0
100
AcDbLine
 62
7
  6
CONTINUOUS
 10
3.8228722214
 20
40.344233876
 11
10.6190962214
 21
40.344233876
  0
LINE
  5
3B2
100
AcDbEntity
  8
0
100
AcDbLine
 62
7
  6
CONTINUOUS
 10
11.5821036858
 20
40.344234013
 11
13.4789686509
 21
40.344234013
  0
LINE
  5
3B3
100
AcDbEntity
  8
0
100
AcDbLine
 62
7
  6
CONTINUOUS
 10
15.8297417502
 20
40.344234123
 11
17.7266067856
 21
40.344234123
  0
LINE
  5
3B4
100
AcDbEntity
  8
0
100
AcDbLine
 62
7
  6
CONTINUOUS
 10
9.1082119276
 20
41.8274181373
 11
5.3337565324
 21
41.8274180398
  0
LINE
  5
3B5
100
AcDbEntity
  8
0
100
AcDbLine
 62
7
  6
CONTINUOUS
 10
9.1047211804
 20
41.8309088843
 11
5.3372472794
 21
41.830908787
  0
LINE
  5
3B6
100
AcDbEntity
  8
0
100
AcDbLine
 62
7
  6
CONTINUOUS
 10
-2.1238228006
 20
41.858609572
 11
-6.9809049476
 21
41.858609572
  0
LINE
  5
3B7
100
AcDbEntity
  8
0
100
AcDbLine
 62
7
  6
CONTINUOUS
 10
-9.3448108006
 20
41.858609375
 11
-15.0514228296
 21
41.858609375
  0
LINE
  5
3B8
100
AcDbEntity
  8
0
100
AcDbLine
 62
7
  6
CONTINUOUS
 10
9.1047211804
 20
41.8309088843
 11
9.1082119276
 21
41.8274181373
  0
LINE
  5
3B9
100
AcDbEntity
  8
0
100
AcDbLine
 62
7
  6
CONTINUOUS
 10
11.6940171564
 20
44.7800475986
 11
10.6173035065
 21
46.2874411417
  0
LINE
  5
3BA
100
AcDbEntity
  8
0
100
AcDbLine
 62
7
  6
CONTINUOUS
 10
11.7008003534
 20
44.7765568516
 11
10.6190999035
 21
46.2909318888
  0
LINE
  5
3BB
100
AcDbEntity
  8
0
100
AcDbLine
 62
7
  6
CONTINUOUS
 10
14.6543608757
 20
41.9897765675
 11
15.8297417502
 21
40.344234123
  0
LINE
  5
3BC
100
AcDbEntity
  8
0
100
AcDbLine
 62
7
  6
CONTINUOUS
 10
11.5821034967
 20
46.290931913
 11
13.7059226412
 21
43.3175867929
  0
LINE
  5
3BD
100
AcDbEntity
  8
0
100
AcDbLine
 62
7
  6
CONTINUOUS
 10
14.6543570071
 20
44.6453866185
 11
13.4789723326
 21
46.290931913
  0
LINE
  5
3BE
100
AcDbEntity
  8
0
100
AcDbLine
 62
7
  6
CONTINUOUS
 10
17.7266067856
 20
40.344234123
 11
15.6027838413
 21
43.3175868428
  0
LINE
  5
3BF
100
AcDbEntity
  8
RACCORDO
100
AcDbLine
 62
250
  6
CONTINUOUS
 10
43.5614565209
 20
-84.5360979711
 11
43.5614565209
 21
81.2612684788
  0
LINE
  5
3C0
100
AcDbEntity
  8
RACCORDO
100
AcDbLine
 62
250
  6
CONTINUOUS
 10
48.5492767722
 20
-84.2857718111
 11
48.5492767722
 21
80.7427119061
  0
LINE
  5
3C1
100
AcDbEntity
  8
RACCORDO
100
AcDbLine
 62
250
  6
CONTINUOUS
 10
48.7955259605
 20
-85.0078939372
 11
48.7955259605
 21
-85.0077721026
  0
LINE
  5
3C2
100
AcDbEntity
  8
RACCORDO
100
AcDbLine
 62
7
  6
CONTINUOUS
 10
48.825
 20
-85.0463886513
 11
48.825
 21
-85.415
  0
LINE
  5
3C3
100
AcDbEntity
  8
RACCORDO
100
AcDbLine
 62
250
  6
CONTINUOUS
 10
48.8660277452
 20
-85.0463581903
 11
48.8660277448
 21
-85.0463886513
  0
LINE
  5
3C4
100
AcDbEntity
  8
RACCORDO
100
AcDbLine
 62
250
  6
CONTINUOUS
 10
13.0076017143
 20
-46.8573678248
 11
13.0299282041
 21
-46.835041335
  0
LINE
  5
3C5
100
AcDbEntity
  8
DRAFT
100
AcDbLine
 62
7
  6
CONTINUOUS
 10
-12.4200717959
 20
-79.4350717959
 11
-12.4
 21
-79.415
  0
LINE
  5
3C6
100
AcDbEntity
  8
0
100
AcDbLine
 62
7
  6
CONTINUOUS
 10
-15.0514228296
 20
42.560393336
 11
-12.3181579076
 21
42.560393336
  0
LINE
  5
3C7
100
AcDbEntity
  8
0
100
AcDbLine
 62
7
  6
CONTINUOUS
 10
5.3372472575
 20
42.680438687
 11
9.1047211585
 21
42.6804387843
  0
LINE
  5
3C8
100
AcDbEntity
  8
0
100
AcDbLine
 62
7
  6
CONTINUOUS
 10
5.3337565103
 20
42.6839294341
 11
9.1082119055
 21
42.6839295315
  0
LINE
  5
3C9
100
AcDbEntity
  8
0
100
AcDbLine
 62
7
  6
CONTINUOUS
 10
10.6190962214
 20
43.982431776
 11
3.8228722214
 21
43.982431776
  0
LINE
  5
3CA
100
AcDbEntity
  8
0
100
AcDbLine
 62
7
  6
CONTINUOUS
 10
-6.9809049476
 20
43.98243139
 11
-8.4952847286
 21
43.98243139
  0
LINE
  5
3CB
100
AcDbEntity
  8
0
100
AcDbLine
 62
7
  6
CONTINUOUS
 10
-12.3181579076
 20
44.074774086
 11
-15.0514228866
 21
44.074774086
  0
LINE
  5
3CC
100
AcDbEntity
  8
0
100
AcDbLine
 62
7
  6
CONTINUOUS
 10
-15.0514228866
 20
44.776556214
 11
-10.1943408156
 21
44.776556214
  0
LINE
  5
3CD
100
AcDbEntity
  8
0
100
AcDbLine
 62
7
  6
CONTINUOUS
 10
-9.344810896
 20
44.7765563084
 11
-3.1026249967
 21
44.7765564696
  0
LINE
  5
3CE
100
AcDbEntity
  8
0
100
AcDbLine
 62
7
  6
CONTINUOUS
 10
3.1026211039
 20
44.7765566297
 11
11.7008003534
 21
44.7765568516
  0
LINE
  5
3CF
100
AcDbEntity
  8
0
100
AcDbLine
 62
7
  6
CONTINUOUS
 10
-9.341320149
 20
44.7800470557
 11
-3.1008075183
 21
44.7800472167
  0
LINE
  5
3D0
100
AcDbEntity
  8
0
100
AcDbLine
 62
7
  6
CONTINUOUS
 10
3.1008036266
 20
44.7800473768
 11
11.6940171564
 21
44.7800475986
  0
LINE
  5
3D1
100
AcDbEntity
  8
0
100
AcDbLine
 62
7
  6
CONTINUOUS
 10
10.6173035065
 20
46.2874411417
 11
2.3159746497
 21
46.2874409274
  0
LINE
  5
3D2
100
AcDbEntity
  8
0
100
AcDbLine
 62
7
  6
CONTINUOUS
 10
-2.3159748094
 20
46.2874407926
 11
-9.3413201879
 21
46.2874406112
  0
LINE
  5
3D3
100
AcDbEntity
  8
0
100
AcDbLine
 62
7
  6
CONTINUOUS
 10
17.726606597
 20
46.290932023
 11
15.8297454319
 21
46.290932023
  0
LINE
  5
3D4
100
AcDbEntity
  8
0
100
AcDbLine
 62
7
  6
CONTINUOUS
 10
13.4789723326
 20
46.290931913
 11
11.5821034967
 21
46.290931913
  0
LINE
  5
3D5
100
AcDbEntity
  8
0
100
AcDbLine
 62
7
  6
CONTINUOUS
 10
10.6190999035
 20
46.2909318888
 11
2.314157175
 21
46.2909316745
  0
LINE
  5
3D6
100
AcDbEntity
  8
0
100
AcDbLine
 62
7
  6
CONTINUOUS
 10
-2.3141573349
 20
46.2909315397
 11
-9.3448109351
 21
46.2909313583
  0
LINE
  5
3D7
100
AcDbEntity
  8
0
100
AcDbLine
 62
7
  6
CONTINUOUS
 10
-10.1943408156
 20
46.290931233
 11
-17.4153278086
 21
46.290931233
  0
LINE
  5
3D8
100
AcDbEntity
  8
0
100
AcDbLine
 62
7
  6
CONTINUOUS
 10
11.7008003534
 20
44.7765568516
 11
11.6940171564
 21
44.7800475986
  0
LWPOLYLINE
  5
3D9
100
AcDbEntity
  8
RACCORDO
100
AcDbPolyline
 62
7
  6
CONTINUOUS
 90
20
 70
0
 10
49.1955236789
 20
81.2782871287
 10
49.195477114
 20
81.2844689078
 10
49.1938588056
 20
81.3147791465
 10
49.1899460801
 20
81.3448666107
 10
49.1837643836
 20
81.3745732387
 10
49.1753412975
 20
81.4037309138
 10
49.1647264031
 20
81.4321725696
 10
49.1519795806
 20
81.4597410655
 10
49.1371638789
 20
81.4862715234
 10
49.1203650457
 20
81.5116066804
 10
49.1016814811
 20
81.5356030427
 10
49.0812141342
 20
81.5581150856
 10
49.059081724
 20
81.579009629
 10
49.0354159505
 20
81.5981668761
 10
49.0103515796
 20
81.6154667562
 10
48.9840335617
 20
81.6308086724
 10
48.9566153948
 20
81.6441097291
 10
48.9282560563
 20
81.6552849065
 10
48.8991176779
 20
81.6642672543
 10
48.8702508802
 20
81.6708422782
  0
LINE
  5
3DA
100
AcDbEntity
  8
RACCORDO
100
AcDbLine
 62
7
  6
CONTINUOUS
 10
49.195526258
 20
81.2782871282
 11
49.195526258
 21
-84.6082592207
  0
LINE
  5
3DB
100
AcDbEntity
  8
RACCORDO
100
AcDbLine
 62
7
  6
CONTINUOUS
 10
49.2100000033
 20
81.2066473804
 11
49.2100000033
 21
-84.5156844906
  0
LINE
  5
3DC
100
AcDbEntity
  8
RACCORDO
100
AcDbLine
 62
7
  6
CONTINUOUS
 10
49.3667156301
 20
-84.546799346
 11
49.3667156301
 21
79.1254025243
  0
LINE
  5
3DD
100
AcDbEntity
  8
RACCORDO
100
AcDbLine
 62
7
  6
CONTINUOUS
 10
49.6167724049
 20
-83.9450402337
 11
49.6167724049
 21
-85.415
  0
LINE
  5
3DE
100
AcDbEntity
  8
ASSI
100
AcDbLine
 62
7
  6
CONTINUOUS
 10
49.6186215945
 20
-83.815
 11
49.6186215945
 21
78.8768759187
  0
LINE
  5
3DF
100
AcDbEntity
  8
0
100
AcDbLine
 62
7
  6
CONTINUOUS
 10
49.6186215945
 20
-83.815
 11
49.6186215945
 21
78.8768759187
  0
LINE
  5
3E0
100
AcDbEntity
  8
ASSI
100
AcDbLine
 62
7
  6
CONTINUOUS
 10
49.6405941807
 20
-83.815
 11
49.6405941807
 21
78.8726324601
  0
LINE
  5
3E1
100
AcDbEntity
  8
ASSI
100
AcDbLine
 62
7
  6
CONTINUOUS
 10
49.6431811459
 20
-85.415
 11
49.6431811459
 21
-83.9548556231
  0
LINE
  5
3E2
100
AcDbEntity
  8
RACCORDO
100
AcDbLine
 62
7
  6
CONTINUOUS
 10
50.3561004365
 20
80.9878580619
 11
50.3561014955
 21
78.9335104325
  0
LINE
  5
3E3
100
AcDbEntity
  8
ASSI
100
AcDbLine
 62
7
  6
CONTINUOUS
 10
50.3675206953
 20
80.9860226852
 11
50.3675206953
 21
78.9312753145
  0
LINE
  5
3E4
100
AcDbEntity
  8
RACCORDO
100
AcDbLine
 62
250
  6
CONTINUOUS
 10
-48.5492767722
 20
-84.2857718111
 11
-49.195039068
 21
-84.6082592183
  0
LINE
  5
3E5
100
AcDbEntity
  8
RACCORDO
100
AcDbLine
 62
250
  6
CONTINUOUS
 10
-48.1502511521
 20
-84.6855281419
 11
-48.7955259605
 21
-85.0077721026
  0
LINE
  5
3E6
100
AcDbEntity
  8
DRAFT
100
AcDbLine
 62
7
  6
CONTINUOUS
 10
0.9799282041
 20
-79.4350717959
 11
1.0
 21
-79.415
  0
LINE
  5
3E7
100
AcDbEntity
  8
DRAFT
100
AcDbLine
 62
7
  6
CONTINUOUS
 10
14.3799282041
 20
-79.4350717959
 11
14.4
 21
-79.415
  0
LINE
  5
3E8
100
AcDbEntity
  8
DRAFT
100
AcDbLine
 62
7
  6
CONTINUOUS
 10
27.7799282041
 20
-79.4350717959
 11
27.8
 21
-79.415
  0
LINE
  5
3E9
100
AcDbEntity
  8
0
100
AcDbLine
 62
7
  6
CONTINUOUS
 10
1.8284523739
 20
-73.7623663244
 11
1.8073703337
 21
-73.7696575484
  0
LINE
  5
3EA
100
AcDbEntity
  8
0
100
AcDbLine
 62
7
  6
CONTINUOUS
 10
1.8073703337
 20
-73.7696575484
 11
1.7480113447
 21
-73.7879273355
  0
LINE
  5
3EB
100
AcDbEntity
  8
RACCORDO
100
AcDbLine
 62
250
  6
CONTINUOUS
 10
-49.195526258
 20
81.2782871298
 11
-49.195039068
 21
81.2782871287
  0
LINE
  5
3EC
100
AcDbEntity
  8
RACCORDO
100
AcDbLine
 62
250
  6
CONTINUOUS
 10
49.195526258
 20
81.2782871282
 11
49.195039068
 21
81.2782871282
  0
LINE
  5
3ED
100
AcDbEntity
  8
DRAFT
100
AcDbLine
 62
7
  6
CONTINUOUS
 10
41.1799282041
 20
-79.4350717959
 11
41.2
 21
-79.415
  0
LWPOLYLINE
  5
3EE
100
AcDbEntity
  8
RACCORDO
100
AcDbPolyline
 62
7
  6
CONTINUOUS
 90
20
 70
0
 10
-48.8702508769
 20
81.6708422791
 10
-48.8770322705
 20
81.6694987318
 10
-48.9066968564
 20
81.6621635355
 10
-48.9356941289
 20
81.6525945851
 10
-48.963862931
 20
81.640842461
 10
-48.9910420712
 20
81.6269827023
 10
-49.0170727282
 20
81.6111022163
 10
-49.0418019632
 20
81.5932874328
 10
-49.0650901885
 20
81.5736472256
 10
-49.0868039426
 20
81.5523035921
 10
-49.106813187
 20
81.5293793425
 10
-49.1250061172
 20
81.5050147502
 10
-49.1412843166
 20
81.4793563778
 10
-49.1555526888
 20
81.4525482335
 10
-49.1677343219
 20
81.4247523696
 10
-49.1777687562
 20
81.3961342278
 10
-49.1855989547
 20
81.366849319
 10
-49.1911840421
 20
81.3370647235
 10
-49.1944988708
 20
81.3069481907
 10
-49.1955236791
 20
81.2782871299
  0
LINE
  5
3EF
100
AcDbEntity
  8
RACCORDO
100
AcDbLine
 62
250
  6
CONTINUOUS
 10
-50.3675206953
 20
80.985991734
 11
-50.3561013398
 21
80.9880413403
  0
LINE
  5
3F0
100
AcDbEntity
  8
RACCORDO
100
AcDbLine
 62
250
  6
CONTINUOUS
 10
50.3561007459
 20
80.9880413417
 11
50.3675112677
 21
80.98602392
  0
ARC
  5
3F1
100
AcDbEntity
  8
RACCORDO
100
AcDbCircle
 62
7
  6
CONTINUOUS
 10
-49.1431811459
 20
-85.415
 40
0.5
100
AcDbArc
 50
180.0
 51
270.0
  0
ARC
  5
3F2
100
AcDbEntity
  8
RACCORDO
100
AcDbCircle
 62
250
  6
CONTINUOUS
 10
-48.8663065153
 20
-84.547919107
 40
0.4983662899
100
AcDbArc
 50
180.043144913
 51
269.9605460389
  0
ARC
  5
3F3
100
AcDbEntity
  8
RACCORDO
100
AcDbCircle
 62
7
  6
CONTINUOUS
 10
-49.118616295
 20
-85.4178506174
 40
0.4971493861
100
AcDbArc
 50
264.9713227924
 51
269.9932278934
  0
ARC
  5
3F4
100
AcDbEntity
  8
RACCORDO
100
AcDbCircle
 62
250
  6
CONTINUOUS
 10
-48.7950361934
 20
-84.6077692277
 40
0.4000036868
100
AcDbArc
 50
180.0701854452
 51
269.9298465716
  0
ARC
  5
3F5
100
AcDbEntity
  8
RACCORDO
100
AcDbCircle
 62
250
  6
CONTINUOUS
 10
-40.5940294895
 20
-86.0019413638
 40
0.200474743
100
AcDbArc
 50
256.7824397243
 51
269.9812585499
  0
ARC
  5
3F6
100
AcDbEntity
  8
RACCORDO
100
AcDbCircle
 62
7
  6
CONTINUOUS
 10
-40.8915137879
 20
-85.9323329338
 40
0.2000771162
100
AcDbArc
 50
180.0604053044
 51
269.9610536511
  0
ARC
  5
3F7
100
AcDbEntity
  8
RACCORDO
100
AcDbCircle
 62
7
  6
CONTINUOUS
 10
-26.272763602
 20
-86.615
 40
0.2
100
AcDbArc
 50
269.9999999999
 51
360.0
  0
ARC
  5
3F8
100
AcDbEntity
  8
RACCORDO
100
AcDbCircle
 62
7
  6
CONTINUOUS
 10
-37.727236398
 20
-86.615
 40
0.2
100
AcDbArc
 50
180.0
 51
270.0
  0
ARC
  5
3F9
100
AcDbEntity
  8
RACCORDO
100
AcDbCircle
 62
250
  6
CONTINUOUS
 10
-26.461538052
 20
-86.6150162871
 40
0.1999847713
100
AcDbArc
 50
179.9953337636
 51
269.9953331014
  0
ARC
  5
3FA
100
AcDbEntity
  8
RACCORDO
100
AcDbCircle
 62
250
  6
CONTINUOUS
 10
-26.5008213874
 20
-86.6150162871
 40
0.1999847713
100
AcDbArc
 50
179.9953337636
 51
269.9953331014
  0
ARC
  5
3FB
100
AcDbEntity
  8
RACCORDO
100
AcDbCircle
 62
250
  6
CONTINUOUS
 10
-29.2681443513
 20
-86.6150162871
 40
0.1999847713
100
AcDbArc
 50
270.0046668986
 51
0.0046662364
  0
ARC
  5
3FC
100
AcDbEntity
  8
RACCORDO
100
AcDbCircle
 62
250
  6
CONTINUOUS
 10
-29.3742501384
 20
-86.6150162871
 40
0.1999847713
100
AcDbArc
 50
270.0046668986
 51
0.0046662364
  0
ARC
  5
3FD
100
AcDbEntity
  8
RACCORDO
100
AcDbCircle
 62
250
  6
CONTINUOUS
 10
-34.6257498616
 20
-86.6150162871
 40
0.1999847713
100
AcDbArc
 50
179.9953337636
 51
269.9953331014
  0
ARC
  5
3FE
100
AcDbEntity
  8
RACCORDO
100
AcDbCircle
 62
250
  6
CONTINUOUS
 10
-34.7318556487
 20
-86.6150162871
 40
0.1999847713
100
AcDbArc
 50
179.9953337636
 51
269.9953331014
  0
ARC
  5
3FF
100
AcDbEntity
  8
RACCORDO
100
AcDbCircle
 62
250
  6
CONTINUOUS
 10
-37.4991786126
 20
-86.6150162871
 40
0.1999847713
100
AcDbArc
 50
270.0046668986
 51
0.0046662364
  0
ARC
  5
400
100
AcDbEntity
  8
RACCORDO
100
AcDbCircle
 62
250
  6
CONTINUOUS
 10
-37.538461948
 20
-86.6150162871
 40
0.1999847713
100
AcDbArc
 50
270.0046668986
 51
0.0046662364
  0
ARC
  5
401
100
AcDbEntity
  8
RACCORDO
100
AcDbCircle
 62
7
  6
CONTINUOUS
 10
-27.3999539935
 20
-79.9149741793
 40
0.1000400874
100
AcDbArc
 50
179.9816021518
 51
269.9388228055
  0
ARC
  5
402
100
AcDbEntity
  8
RACCORDO
100
AcDbCircle
 62
7
  6
CONTINUOUS
 10
-27.6000021163
 20
-79.9150030066
 40
0.0999957639
100
AcDbArc
 50
269.9924845575
 51
0.0349271553
  0
ARC
  5
403
100
AcDbEntity
  8
RACCORDO
100
AcDbCircle
 62
250
  6
CONTINUOUS
 10
-27.6384928178
 20
-79.9150186716
 40
0.0999813284
100
AcDbArc
 50
270.0012221668
 51
330.00609824
  0
ARC
  5
404
100
AcDbEntity
  8
RACCORDO
100
AcDbCircle
 62
7
  6
CONTINUOUS
 10
-6.65
 20
-211.910990667
 40
298.8
100
AcDbArc
 50
79.0784094273
 51
88.7247376348
  0
ARC
  5
405
100
AcDbEntity
  8
RACCORDO
100
AcDbCircle
 62
7
  6
CONTINUOUS
 10
-6.65
 20
-211.910990667
 40
298.785526258
100
AcDbArc
 50
79.291070837
 51
88.7246758485
  0
ARC
  5
406
100
AcDbEntity
  8
RACCORDO
100
AcDbCircle
 62
250
  6
CONTINUOUS
 10
-6.1519051985
 20
-211.9110032351
 40
298.3000128225
100
AcDbArc
 50
79.0802761652
 51
79.304388055
  0
ARC
  5
407
100
AcDbEntity
  8
RACCORDO
100
AcDbCircle
 62
250
  6
CONTINUOUS
 10
-6.65
 20
-211.910990667
 40
297.8400515372
100
AcDbArc
 50
80.2812774525
 51
88.7206267393
  0
ARC
  5
408
100
AcDbEntity
  8
RACCORDO
100
AcDbCircle
 62
250
  6
CONTINUOUS
 10
-6.65
 20
-211.910990667
 40
297.4410259171
100
AcDbArc
 50
80.2812774525
 51
88.7189101377
  0
ARC
  5
409
100
AcDbEntity
  8
ASSI
100
AcDbCircle
 62
7
  6
CONTINUOUS
 10
-6.65
 20
-212.540491827
 40
296.8
100
AcDbArc
 50
79.0671545469
 51
79.1209975064
  0
ARC
  5
40A
100
AcDbEntity
  8
0
100
AcDbCircle
 62
7
  6
CONTINUOUS
 10
-6.65
 20
-212.540491827
 40
296.8
100
AcDbArc
 50
79.0671545469
 51
79.1209975064
  0
ARC
  5
40B
100
AcDbEntity
  8
ASSI
100
AcDbCircle
 62
7
  6
CONTINUOUS
 10
-6.65
 20
-212.340491827
 40
296.8
100
AcDbArc
 50
78.9241966784
 51
78.9264422566
  0
ARC
  5
40C
100
AcDbEntity
  8
RACCORDO
100
AcDbCircle
 62
7
  6
CONTINUOUS
 10
-6.65
 20
-212.340491827
 40
296.8
100
AcDbArc
 50
78.9264422566
 51
79.1209975904
  0
ARC
  5
40D
100
AcDbEntity
  8
DRAFT
100
AcDbCircle
 62
7
  6
CONTINUOUS
 10
-0.0
 20
-77.6223046854
 40
7.477796306
100
AcDbArc
 50
266.3875986174
 51
273.6124013826
  0
ARC
  5
40E
100
AcDbEntity
  8
DRAFT
100
AcDbCircle
 62
7
  6
CONTINUOUS
 10
-0.0003607476
 20
-78.7495860489
 40
6.6466249314
100
AcDbArc
 50
251.3299823264
 51
265.7171496994
  0
CIRCLE
  5
40F
100
AcDbEntity
  8
DRAFT
100
AcDbCircle
 62
7
  6
CONTINUOUS
 10
-0.0
 20
-73.815
 40
1.85
  0
CIRCLE
  5
410
100
AcDbEntity
  8
DRAFT
100
AcDbCircle
 62
7
  6
CONTINUOUS
 10
-0.0
 20
-73.815
 40
1.8299282041
  0
CIRCLE
  5
411
100
AcDbEntity
  8
DRAFT
100
AcDbCircle
 62
7
  6
CONTINUOUS
 10
0.0
 20
-66.315
 40
1.6
  0
CIRCLE
  5
412
100
AcDbEntity
  8
DRAFT
100
AcDbCircle
 62
7
  6
CONTINUOUS
 10
0.0
 20
-66.315
 40
1.5799282041
  0
ARC
  5
413
100
AcDbEntity
  8
RACCORDO
100
AcDbCircle
 62
250
  6
CONTINUOUS
 10
-23.4059729595
 20
-86.0019132722
 40
0.2005028354
100
AcDbArc
 50
270.0194386336
 51
283.2176233759
  0
ARC
  5
414
100
AcDbEntity
  8
RACCORDO
100
AcDbCircle
 62
7
  6
CONTINUOUS
 10
-23.108486776
 20
-85.9323317776
 40
0.2000783628
100
AcDbArc
 50
270.0389538346
 51
359.9892063493
  0
CIRCLE
  5
415
100
AcDbEntity
  8
ASSI
100
AcDbCircle
 62
7
  6
CONTINUOUS
 10
0.0
 20
1.185
 40
4.5
  0
ARC
  5
416
100
AcDbEntity
  8
DRAFT
100
AcDbCircle
 62
7
  6
CONTINUOUS
 10
-3.0
 20
17.385
 40
1.5
100
AcDbArc
 50
90.0
 51
270.0
  0
ARC
  5
417
100
AcDbEntity
  8
DRAFT
100
AcDbCircle
 62
7
  6
CONTINUOUS
 10
-3.0
 20
17.385
 40
1.492145819
100
AcDbArc
 50
90.0
 51
270.0
  0
ARC
  5
418
100
AcDbEntity
  8
RACCORDO
100
AcDbCircle
 62
7
  6
CONTINUOUS
 10
-48.7069736342
 20
81.2021852005
 40
0.5052994332
100
AcDbArc
 50
100.7102132256
 51
111.9292119089
  0
ARC
  5
419
100
AcDbEntity
  8
RACCORDO
100
AcDbCircle
 62
7
  6
CONTINUOUS
 10
-48.7076101408
 20
81.2041047944
 40
0.5032810353
100
AcDbArc
 50
111.9436064364
 51
116.8418983167
  0
ARC
  5
41A
100
AcDbEntity
  8
RACCORDO
100
AcDbCircle
 62
7
  6
CONTINUOUS
 10
-48.7094674004
 20
81.2063014312
 40
0.5005472385
100
AcDbArc
 50
163.4563739549
 51
176.2034568373
  0
ARC
  5
41B
100
AcDbEntity
  8
RACCORDO
100
AcDbCircle
 62
7
  6
CONTINUOUS
 10
-49.8675170872
 20
80.9860225843
 40
0.5000000003
100
AcDbArc
 50
100.9217387658
 51
179.999980491
  0
ARC
  5
41C
100
AcDbEntity
  8
RACCORDO
100
AcDbCircle
 62
250
  6
CONTINUOUS
 10
-49.8572460349
 20
80.9892225998
 40
0.4988281613
100
AcDbArc
 50
100.9682391862
 51
180.1356728233
  0
ARC
  5
41D
100
AcDbEntity
  8
RACCORDO
100
AcDbCircle
 62
7
  6
CONTINUOUS
 10
-48.7123785256
 20
81.2066191729
 40
0.4976214785
100
AcDbArc
 50
176.2177672679
 51
179.9967522071
  0
ARC
  5
41E
100
AcDbEntity
  8
RACCORDO
100
AcDbCircle
 62
250
  6
CONTINUOUS
 10
-48.1480157932
 20
80.7408562724
 40
0.4012712902
100
AcDbArc
 50
100.8709398556
 51
179.7350372171
  0
ARC
  5
41F
100
AcDbEntity
  8
RACCORDO
100
AcDbCircle
 62
250
  6
CONTINUOUS
 10
-48.7950424364
 20
81.2774825369
 40
0.3999974409
100
AcDbArc
 50
100.824179196
 51
179.8847499663
  0
ARC
  5
420
100
AcDbEntity
  8
RACCORDO
100
AcDbCircle
 62
7
  6
CONTINUOUS
 10
6.65
 20
-211.910990667
 40
298.8
100
AcDbArc
 50
91.2752623652
 51
100.9216133911
  0
ARC
  5
421
100
AcDbEntity
  8
RACCORDO
100
AcDbCircle
 62
7
  6
CONTINUOUS
 10
6.65
 20
-211.910990667
 40
298.785526258
100
AcDbArc
 50
91.2753241515
 51
100.7089291624
  0
ARC
  5
422
100
AcDbEntity
  8
RACCORDO
100
AcDbCircle
 62
250
  6
CONTINUOUS
 10
6.1519451553
 20
-211.9112131815
 40
298.3002265371
100
AcDbArc
 50
100.6956120023
 51
100.9197238957
  0
ARC
  5
423
100
AcDbEntity
  8
RACCORDO
100
AcDbCircle
 62
250
  6
CONTINUOUS
 10
6.65
 20
-211.910990667
 40
297.8400515372
100
AcDbArc
 50
91.2793732607
 51
99.7187225475
  0
ARC
  5
424
100
AcDbEntity
  8
RACCORDO
100
AcDbCircle
 62
250
  6
CONTINUOUS
 10
6.65
 20
-211.910990667
 40
297.4410259171
100
AcDbArc
 50
91.2810898623
 51
99.7187225475
  0
ARC
  5
425
100
AcDbEntity
  8
ASSI
100
AcDbCircle
 62
7
  6
CONTINUOUS
 10
6.65
 20
-212.540491827
 40
296.8
100
AcDbArc
 50
100.8790024936
 51
100.9328454464
  0
ARC
  5
426
100
AcDbEntity
  8
0
100
AcDbCircle
 62
7
  6
CONTINUOUS
 10
6.65
 20
-212.540491827
 40
296.8
100
AcDbArc
 50
100.8790024936
 51
100.9328454464
  0
ARC
  5
427
100
AcDbEntity
  8
RACCORDO
100
AcDbCircle
 62
7
  6
CONTINUOUS
 10
6.65
 20
-212.340491827
 40
296.8
100
AcDbArc
 50
100.8790024096
 51
101.0735577434
  0
ARC
  5
428
100
AcDbEntity
  8
ASSI
100
AcDbCircle
 62
7
  6
CONTINUOUS
 10
6.65
 20
-212.340491827
 40
296.8
100
AcDbArc
 50
101.0735577434
 51
101.0758033327
  0
ARC
  5
429
100
AcDbEntity
  8
DRAFT
100
AcDbCircle
 62
7
  6
CONTINUOUS
 10
0.0003609
 20
-78.7495868363
 40
6.6466241347
100
AcDbArc
 50
274.2828494974
 51
288.671803142
  0
ARC
  5
42A
100
AcDbEntity
  8
RACCORDO
100
AcDbCircle
 62
7
  6
CONTINUOUS
 10
49.1431811459
 20
-85.415
 40
0.5
100
AcDbArc
 50
270.0
 51
360.0
  0
ARC
  5
42B
100
AcDbEntity
  8
RACCORDO
100
AcDbCircle
 62
250
  6
CONTINUOUS
 10
48.8662749127
 20
-84.5478011912
 40
0.4984883899
100
AcDbArc
 50
270.0387651846
 51
359.9543227669
  0
ARC
  5
42C
100
AcDbEntity
  8
RACCORDO
100
AcDbCircle
 62
7
  6
CONTINUOUS
 10
49.1186108289
 20
-85.4200072118
 40
0.4949927924
100
AcDbArc
 50
270.0074343195
 51
275.0387990469
  0
ARC
  5
42D
100
AcDbEntity
  8
RACCORDO
100
AcDbCircle
 62
250
  6
CONTINUOUS
 10
48.7950361935
 20
-84.6077692278
 40
0.4000036867
100
AcDbArc
 50
270.0701534186
 51
359.9298145646
  0
ARC
  5
42E
100
AcDbEntity
  8
DRAFT
100
AcDbCircle
 62
7
  6
CONTINUOUS
 10
3.0
 20
17.385
 40
1.5
100
AcDbArc
 50
270.0
 51
90.0
  0
ARC
  5
42F
100
AcDbEntity
  8
DRAFT
100
AcDbCircle
 62
7
  6
CONTINUOUS
 10
3.0
 20
17.385
 40
1.492145819
100
AcDbArc
 50
270.0
 51
90.0
  0
ARC
  5
430
100
AcDbEntity
  8
RACCORDO
100
AcDbCircle
 62
7
  6
CONTINUOUS
 10
48.706817316
 20
81.2020547826
 40
0.5054675331
100
AcDbArc
 50
63.0059009098
 51
75.5243831383
  0
ARC
  5
431
100
AcDbEntity
  8
RACCORDO
100
AcDbCircle
 62
7
  6
CONTINUOUS
 10
48.707454808
 20
81.2041474939
 40
0.5032819129
100
AcDbArc
 50
75.5351008339
 51
79.3020951118
  0
ARC
  5
432
100
AcDbEntity
  8
RACCORDO
100
AcDbCircle
 62
7
  6
CONTINUOUS
 10
49.8675173124
 20
80.9860225261
 40
0.5000000003
100
AcDbArc
 50
0.0000182012
 51
79.0784150359
  0
ARC
  5
433
100
AcDbEntity
  8
RACCORDO
100
AcDbCircle
 62
7
  6
CONTINUOUS
 10
48.7112587591
 20
81.2066108813
 40
0.4987419345
100
AcDbArc
 50
0.0171420227
 51
16.3892630761
  0
ARC
  5
434
100
AcDbEntity
  8
RACCORDO
100
AcDbCircle
 62
250
  6
CONTINUOUS
 10
48.1480139911
 20
80.740856627
 40
0.4012712315
100
AcDbArc
 50
0.2649121407
 51
79.1287979059
  0
ARC
  5
435
100
AcDbEntity
  8
RACCORDO
100
AcDbCircle
 62
250
  6
CONTINUOUS
 10
48.7950424364
 20
81.2774825369
 40
0.3999974409
100
AcDbArc
 50
0.1152500334
 51
79.1758208042
  0
SPLINE
  5
436
100
AcDbEntity
  8
RACCORDO
100
AcDbSpline
 62
250
  6
CONTINUOUS
 70
0
 71
3
 72
11
 73
7
 74
0
 42
0.0000001
 43
0.0000001
 44
0.0000000001
 40
0.0
 40
0.0
 40
0.0
 40
0.0
 40
0.2495985902
 40
0.4993966398
 40
0.7495406199
 40
1.0
 40
1.0
 40
1.0
 40
1.0
 10
-5.9771681886
 20
-85.915
 30
0.0
 10
-5.8583372554
 20
-85.915
 30
0.0
 10
-5.6183808454
 20
-85.8713687127
 30
0.0
 10
-5.3062584093
 20
-85.6833089625
 30
0.0
 10
-5.0797120195
 20
-85.3974101377
 30
0.0
 10
-5.0052353606
 20
-85.1646379168
 30
0.0
 10
-4.9896289461
 20
-85.0464228792
 30
0.0
  0
SPLINE
  5
437
100
AcDbEntity
  8
RACCORDO
100
AcDbSpline
 62
250
  6
CONTINUOUS
 70
0
 71
3
 72
11
 73
7
 74
0
 42
0.0000001
 43
0.0000001
 44
0.0000000001
 40
0.0
 40
0.0
 40
0.0
 40
0.0
 40
0.2495985902
 40
0.4993966398
 40
0.7495406199
 40
1.0
 40
1.0
 40
1.0
 40
1.0
 10
5.9771681886
 20
-85.915
 30
0.0
 10
5.8583372554
 20
-85.915
 30
0.0
 10
5.6183808454
 20
-85.8713687127
 30
0.0
 10
5.3062584093
 20
-85.6833089625
 30
0.0
 10
5.0797120195
 20
-85.3974101377
 30
0.0
 10
5.0052353606
 20
-85.1646379168
 30
0.0
 10
4.9896289461
 20
-85.0464228792
 30
0.0
  0
SPLINE
  5
438
100
AcDbEntity
  8
RACCORDO
100
AcDbSpline
 62
7
  6
CONTINUOUS
 70
0
 71
3
 72
11
 73
7
 74
0
 42
0.0000001
 43
0.0000001
 44
0.0000000001
 40
0.0
 40
0.0
 40
0.0
 40
0.0
 40
0.2496353892
 40
0.4994441322
 40
0.7495838458
 40
1.0
 40
1.0
 40
1.0
 40
1.0
 10
49.1620862027
 20
-85.9130870799
 30
0.0
 10
49.2231104202
 20
-85.9077118844
 30
0.0
 10
49.3443777454
 20
-85.8737909376
 30
0.0
 10
49.4944878982
 20
-85.7604590308
 30
0.0
 10
49.5937136191
 20
-85.6004839387
 30
0.0
 10
49.6167724059
 20
-85.4764520913
 30
0.0
 10
49.6167724049
 20
-85.415
 30
0.0
  0
SPLINE
  5
439
100
AcDbEntity
  8
RACCORDO
100
AcDbSpline
 62
7
  6
CONTINUOUS
 70
0
 71
3
 72
11
 73
7
 74
0
 42
0.0000001
 43
0.0000001
 44
0.0000000001
 40
0.0
 40
0.0
 40
0.0
 40
0.0
 40
0.2497279409
 40
0.4994517435
 40
0.7495689131
 40
1.0
 40
1.0
 40
1.0
 40
1.0
 10
-49.1621935958
 20
-85.913086451
 30
0.0
 10
-49.223237327
 20
-85.9077197078
 30
0.0
 10
-49.3445160905
 20
-85.8738304832
 30
0.0
 10
-49.4945703095
 20
-85.760440989
 30
0.0
 10
-49.5937301517
 20
-85.60047347
 30
0.0
 10
-49.6167725621
 20
-85.47645173
 30
0.0
 10
-49.616772407
 20
-85.415
 30
0.0
  0
LINE
  5
43A
100
AcDbEntity
  8
RACCORDO
100
AcDbLine
 62
250
  6
CONTINUOUS
 10
49.195039068
 20
81.2782871282
 11
48.5492767722
 21
80.7427119061
  0
SPLINE
  5
43B
100
AcDbEntity
  8
RACCORDO
100
AcDbSpline
 62
250
  6
CONTINUOUS
 70
0
 71
3
 72
21
 73
17
 74
0
 42
0.0000001
 43
0.0000001
 44
0.0000000001
 40
0.0
 40
0.0
 40
0.0
 40
0.0
 40
0.1867716338
 40
0.3669801443
 40
0.5343099004
 40
0.6828950933
 40
0.7485035626
 40
0.8075409719
 40
0.8594941406
 40
0.9039133276
 40
0.9404182115
 40
0.968708369
 40
0.9797052702
 40
0.9885803559
 40
0.9953344985
 40
1.0
 40
1.0
 40
1.0
 40
1.0
 10
-43.5614565209
 20
-84.5360979711
 30
0.0
 10
-43.8475448298
 20
-84.5360982986
 30
0.0
 10
-44.4096700984
 20
-84.5379139061
 30
0.0
 10
-45.2280682472
 20
-84.5460227453
 30
0.0
 10
-45.9879006149
 20
-84.5591955646
 30
0.0
 10
-46.5721131348
 20
-84.5744803713
 30
0.0
 10
-46.9903761956
 20
-84.5893048702
 30
0.0
 10
-47.2606389181
 20
-84.6008623837
 30
0.0
 10
-47.4983713069
 20
-84.6132077514
 30
0.0
 10
-47.7015019577
 20
-84.626187873
 30
0.0
 10
-47.8682485855
 20
-84.6396881637
 30
0.0
 10
-47.9837347324
 20
-84.651904762
 30
0.0
 10
-48.0567594811
 20
-84.6623905756
 30
0.0
 10
-48.0969347164
 20
-84.6695797617
 30
0.0
 10
-48.1271659365
 20
-84.676751144
 30
0.0
 10
-48.1438570123
 20
-84.6823365817
 30
0.0
 10
-48.1502511521
 20
-84.6855281419
 30
0.0
  0
SPLINE
  5
43C
100
AcDbEntity
  8
RACCORDO
100
AcDbSpline
 62
250
  6
CONTINUOUS
 70
0
 71
3
 72
21
 73
17
 74
0
 42
0.0000001
 43
0.0000001
 44
0.0000000001
 40
0.0
 40
0.0
 40
0.0
 40
0.0
 40
0.0046655012
 40
0.0114196438
 40
0.0202947296
 40
0.031291631
 40
0.0595817886
 40
0.0960866724
 40
0.1405058594
 40
0.1924590282
 40
0.2514964374
 40
0.3171049067
 40
0.4656900996
 40
0.6330198557
 40
0.8132283662
 40
1.0
 40
1.0
 40
1.0
 40
1.0
 10
48.1502511521
 20
-84.6855281419
 30
0.0
 10
48.1438570128
 20
-84.6823365815
 30
0.0
 10
48.1271659373
 20
-84.6767511438
 30
0.0
 10
48.0969347175
 20
-84.6695797617
 30
0.0
 10
48.0567594818
 20
-84.6623905756
 30
0.0
 10
47.9837347325
 20
-84.6519047621
 30
0.0
 10
47.8682485854
 20
-84.6396881638
 30
0.0
 10
47.7015019576
 20
-84.6261878729
 30
0.0
 10
47.498371307
 20
-84.6132077514
 30
0.0
 10
47.2606389181
 20
-84.6008623837
 30
0.0
 10
46.9903761956
 20
-84.5893048702
 30
0.0
 10
46.5721131349
 20
-84.5744803713
 30
0.0
 10
45.9879006149
 20
-84.5591955646
 30
0.0
 10
45.2280682472
 20
-84.5460227454
 30
0.0
 10
44.4096700984
 20
-84.5379139059
 30
0.0
 10
43.8475448299
 20
-84.5360982989
 30
0.0
 10
43.5614565209
 20
-84.5360979711
 30
0.0
  0
LINE
  5
43D
100
AcDbEntity
  8
RACCORDO
100
AcDbLine
 62
250
  6
CONTINUOUS
 10
-48.5492767722
 20
80.7427119061
 11
-49.195039068
 21
81.2782871282
  0
LINE
  5
43E
100
AcDbEntity
  8
RACCORDO
100
AcDbLine
 62
250
  6
CONTINUOUS
 10
48.8701602876
 20
81.6703632581
 11
48.2236933693
 21
81.134920634
  0
SPLINE
  5
43F
100
AcDbEntity
  8
RACCORDO
100
AcDbSpline
 62
250
  6
CONTINUOUS
 70
0
 71
3
 72
20
 73
16
 74
0
 42
0.0000001
 43
0.0000001
 44
0.0000000001
 40
0.0
 40
0.0
 40
0.0
 40
0.0
 40
0.0050217446
 40
0.0118912814
 40
0.0317182414
 40
0.0599047037
 40
0.0963616285
 40
0.1408206414
 40
0.1928956289
 40
0.2521108113
 40
0.3179170788
 40
0.4668064473
 40
0.6341252366
 40
0.813921966
 40
1.0
 40
1.0
 40
1.0
 40
1.0
 10
48.2236933693
 20
81.134920634
 30
0.0
 10
48.2177131633
 20
81.1299659
 30
0.0
 10
48.2010575465
 20
81.1214310812
 30
0.0
 10
48.1539134884
 20
81.1077229581
 30
0.0
 10
48.0691073413
 20
81.0981097117
 30
0.0
 10
47.9386014379
 20
81.0941848425
 30
0.0
 10
47.7698103102
 20
81.0980699578
 30
0.0
 10
47.5644610178
 20
81.109571883
 30
0.0
 10
47.3243344251
 20
81.128727499
 30
0.0
 10
47.051737114
 20
81.1552702953
 30
0.0
 10
46.6307202622
 20
81.2020929131
 30
0.0
 10
46.044700533
 20
81.2772597181
 30
0.0
 10
45.2853978212
 20
81.3862674179
 30
0.0
 10
44.4706254722
 20
81.5131787533
 30
0.0
 10
43.9124552567
 20
81.6059892576
 30
0.0
 10
43.628816622
 20
81.6545674266
 30
0.0
  0
SPLINE
  5
440
100
AcDbEntity
  8
RACCORDO
100
AcDbSpline
 62
250
  6
CONTINUOUS
 70
0
 71
3
 72
20
 73
16
 74
0
 42
0.0000001
 43
0.0000001
 44
0.0000000001
 40
0.0
 40
0.0
 40
0.0
 40
0.0
 40
0.186078034
 40
0.3658747634
 40
0.5331935528
 40
0.6820829213
 40
0.7478891888
 40
0.8071043712
 40
0.8591793587
 40
0.9036383716
 40
0.9400952965
 40
0.9682817588
 40
0.9881087183
 40
0.9949782549
 40
1.0
 40
1.0
 40
1.0
 40
1.0
 10
-43.628816622
 20
81.6545674266
 30
0.0
 10
-43.9124552567
 20
81.6059892575
 30
0.0
 10
-44.4706254722
 20
81.5131787534
 30
0.0
 10
-45.2853978212
 20
81.3862674179
 30
0.0
 10
-46.044700533
 20
81.2772597181
 30
0.0
 10
-46.6307202622
 20
81.2020929131
 30
0.0
 10
-47.051737114
 20
81.1552702953
 30
0.0
 10
-47.3243344251
 20
81.128727499
 30
0.0
 10
-47.5644610177
 20
81.109571883
 30
0.0
 10
-47.7698103102
 20
81.0980699578
 30
0.0
 10
-47.9386014381
 20
81.0941848424
 30
0.0
 10
-48.069107341
 20
81.0981097115
 30
0.0
 10
-48.1539134868
 20
81.107722958
 30
0.0
 10
-48.2010575445
 20
81.1214310825
 30
0.0
 10
-48.2177131614
 20
81.129965901
 30
0.0
 10
-48.2236933693
 20
81.134920634
 30
0.0
  0
LINE
  5
441
100
AcDbEntity
  8
RACCORDO
100
AcDbLine
 62
250
  6
CONTINUOUS
 10
-48.2236933693
 20
81.134920634
 11
-48.8701602876
 21
81.6703632581
  0
SPLINE
  5
442
100
AcDbEntity
  8
RACCORDO
100
AcDbSpline
 62
250
  6
CONTINUOUS
 70
0
 71
3
 72
21
 73
17
 74
0
 42
0.0000001
 43
0.0000001
 44
0.0000000001
 40
0.0
 40
0.0
 40
0.0
 40
0.0
 40
0.0046224525
 40
0.0113487656
 40
0.0202041481
 40
0.0311863356
 40
0.0594577797
 40
0.095953994
 40
0.1403709283
 40
0.1923267469
 40
0.2513706102
 40
0.316988357
 40
0.4655980478
 40
0.6329568585
 40
0.813196421
 40
1.0
 40
1.0
 40
1.0
 40
1.0
 10
48.5492767722
 20
-84.2857718111
 30
0.0
 10
48.5422845938
 20
-84.2825601344
 30
0.0
 10
48.5241262358
 20
-84.2769840481
 30
0.0
 10
48.4912853969
 20
-84.2698149914
 30
0.0
 10
48.4476267963
 20
-84.2626308771
 30
0.0
 10
48.3682341531
 20
-84.2521424538
 30
0.0
 10
48.2427007514
 20
-84.2399278144
 30
0.0
 10
48.0614524086
 20
-84.2264279128
 30
0.0
 10
47.8406517594
 20
-84.2134482913
 30
0.0
 10
47.5822381048
 20
-84.2011030516
 30
0.0
 10
47.2884659837
 20
-84.1895457862
 30
0.0
 10
46.8338193394
 20
-84.1747215439
 30
0.0
 10
46.1988058903
 20
-84.1594375121
 30
0.0
 10
45.3729194221
 20
-84.1462655958
 30
0.0
 10
44.4833880024
 20
-84.1381573972
 30
0.0
 10
43.8724086203
 20
-84.1363419921
 30
0.0
 10
43.5614565209
 20
-84.1363416402
 30
0.0
  0
SPLINE
  5
443
100
AcDbEntity
  8
RACCORDO
100
AcDbSpline
 62
250
  6
CONTINUOUS
 70
0
 71
3
 72
21
 73
17
 74
0
 42
0.0000001
 43
0.0000001
 44
0.0000000001
 40
0.0
 40
0.0
 40
0.0
 40
0.0
 40
0.0049279502
 40
0.0117487347
 40
0.0315322947
 40
0.0596913836
 40
0.0961164718
 40
0.1405340353
 40
0.1925607296
 40
0.2517269458
 40
0.3174910608
 40
0.3892497922
 40
0.4663470439
 40
0.6337287122
 40
0.8136905859
 40
1.0
 40
1.0
 40
1.0
 40
1.0
 10
48.5492767722
 20
80.7427119061
 30
0.0
 10
48.5427108126
 20
80.7376992365
 30
0.0
 10
48.5245910518
 20
80.7291952798
 30
0.0
 10
48.4735159478
 20
80.7154932182
 30
0.0
 10
48.3817638636
 20
80.7058990756
 30
0.0
 10
48.2404679743
 20
80.7019090683
 30
0.0
 10
48.0576839957
 20
80.7057149868
 30
0.0
 10
47.8352480858
 20
80.7171053067
 30
0.0
 10
47.5750716913
 20
80.7361321166
 30
0.0
 10
47.2796110013
 20
80.7625377336
 30
0.0
 10
46.9516005289
 20
80.7960260612
 30
0.0
 10
46.5940800263
 20
80.8361974149
 30
0.0
 10
46.067803534
 20
80.8998417831
 30
0.0
 10
45.3624190953
 20
80.9929829775
 30
0.0
 10
44.4768869326
 20
81.119821946
 30
0.0
 10
43.869958889
 20
81.2126589225
 30
0.0
 10
43.5614565209
 20
81.2612684788
 30
0.0
  0
SPLINE
  5
444
100
AcDbEntity
  8
RACCORDO
100
AcDbSpline
 62
250
  6
CONTINUOUS
 70
0
 71
3
 72
21
 73
17
 74
0
 42
0.0000001
 43
0.0000001
 44
0.0000000001
 40
0.0
 40
0.0
 40
0.0
 40
0.0
 40
0.1863094141
 40
0.3662712878
 40
0.5336529561
 40
0.6107502078
 40
0.6825089392
 40
0.7482730542
 40
0.8074392704
 40
0.8594659647
 40
0.9038835283
 40
0.9403086165
 40
0.9684677054
 40
0.9882512653
 40
0.9950720496
 40
1.0
 40
1.0
 40
1.0
 40
1.0
 10
-43.5614565209
 20
81.2612684788
 30
0.0
 10
-43.869958889
 20
81.2126589226
 30
0.0
 10
-44.4768869326
 20
81.119821946
 30
0.0
 10
-45.3624190953
 20
80.9929829775
 30
0.0
 10
-46.067803534
 20
80.8998417831
 30
0.0
 10
-46.5940800263
 20
80.8361974149
 30
0.0
 10
-46.9516005289
 20
80.7960260612
 30
0.0
 10
-47.2796110013
 20
80.7625377336
 30
0.0
 10
-47.5750716913
 20
80.7361321166
 30
0.0
 10
-47.8352480858
 20
80.7171053067
 30
0.0
 10
-48.0576839956
 20
80.705714987
 30
0.0
 10
-48.2404679744
 20
80.7019090681
 30
0.0
 10
-48.3817638636
 20
80.7058990755
 30
0.0
 10
-48.4735159473
 20
80.7154932183
 30
0.0
 10
-48.5245910511
 20
80.7291952805
 30
0.0
 10
-48.5427108118
 20
80.7376992371
 30
0.0
 10
-48.5492767722
 20
80.7427119061
 30
0.0
  0
SPLINE
  5
445
100
AcDbEntity
  8
RACCORDO
100
AcDbSpline
 62
250
  6
CONTINUOUS
 70
0
 71
3
 72
21
 73
17
 74
0
 42
0.0000001
 43
0.0000001
 44
0.0000000001
 40
0.0
 40
0.0
 40
0.0
 40
0.0
 40
0.186803579
 40
0.3670431415
 40
0.5344019522
 40
0.683011643
 40
0.7486293898
 40
0.8076732531
 40
0.8596290717
 40
0.904046006
 40
0.9405422203
 40
0.9688136644
 40
0.9797958519
 40
0.9886512343
 40
0.9953775474
 40
1.0
 40
1.0
 40
1.0
 40
1.0
 10
-43.5614565209
 20
-84.1363416402
 30
0.0
 10
-43.8724086203
 20
-84.1363419919
 30
0.0
 10
-44.4833880024
 20
-84.1381573973
 30
0.0
 10
-45.3729194221
 20
-84.1462655958
 30
0.0
 10
-46.1988058903
 20
-84.1594375121
 30
0.0
 10
-46.8338193394
 20
-84.1747215439
 30
0.0
 10
-47.2884659837
 20
-84.1895457862
 30
0.0
 10
-47.5822381048
 20
-84.2011030516
 30
0.0
 10
-47.8406517594
 20
-84.2134482913
 30
0.0
 10
-48.0614524086
 20
-84.2264279129
 30
0.0
 10
-48.2427007515
 20
-84.2399278143
 30
0.0
 10
-48.3682341531
 20
-84.2521424538
 30
0.0
 10
-48.4476267963
 20
-84.2626308771
 30
0.0
 10
-48.4912853967
 20
-84.2698149914
 30
0.0
 10
-48.5241262356
 20
-84.2769840481
 30
0.0
 10
-48.5422845936
 20
-84.2825601344
 30
0.0
 10
-48.5492767722
 20
-84.2857718111
 30
0.0
  0
SPLINE
  5
446
100
AcDbEntity
  8
RACCORDO
100
AcDbSpline
 62
250
  6
CONTINUOUS
 70
0
 71
3
 72
11
 73
7
 74
0
 42
0.0000001
 43
0.0000001
 44
0.0000000001
 40
0.0
 40
0.0
 40
0.0
 40
0.0
 40
0.2497254416
 40
0.4997019181
 40
0.7498528144
 40
1.0
 40
1.0
 40
1.0
 40
1.0
 10
-48.1502511521
 20
-84.6855281419
 30
0.0
 10
-48.2021008216
 20
-84.6854016845
 30
0.0
 10
-48.3069289669
 20
-84.6643687023
 30
0.0
 10
-48.4393711756
 20
-84.5753392965
 30
0.0
 10
-48.5281826396
 20
-84.4426571773
 30
0.0
 10
-48.5491505639
 20
-84.337709047
 30
0.0
 10
-48.5492767722
 20
-84.2857718111
 30
0.0
  0
SPLINE
  5
447
100
AcDbEntity
  8
RACCORDO
100
AcDbSpline
 62
250
  6
CONTINUOUS
 70
0
 71
3
 72
11
 73
7
 74
0
 42
0.0000001
 43
0.0000001
 44
0.0000000001
 40
0.0
 40
0.0
 40
0.0
 40
0.0
 40
0.2497254366
 40
0.4997019124
 40
0.7498528105
 40
1.0
 40
1.0
 40
1.0
 40
1.0
 10
48.1502511521
 20
-84.6855281419
 30
0.0
 10
48.2021008206
 20
-84.6854016845
 30
0.0
 10
48.3069289646
 20
-84.6643687028
 30
0.0
 10
48.4393711733
 20
-84.5753392988
 30
0.0
 10
48.528182639
 20
-84.4426571793
 30
0.0
 10
48.5491505639
 20
-84.3377090478
 30
0.0
 10
48.5492767722
 20
-84.2857718111
 30
0.0
  0
LINE
  5
448
100
AcDbEntity
  8
RACCORDO
100
AcDbLine
 62
7
  6
CONTINUOUS
 10
-22.9083282072
 20
-85.0574340296
 11
-22.9083715952
 21
-85.4812248803
  0
LINE
  5
449
100
AcDbEntity
  8
RACCORDO
100
AcDbLine
 62
7
  6
CONTINUOUS
 10
-41.0916284048
 20
-85.4812248803
 11
-41.0916712787
 21
-85.0463581944
  0
SPLINE
  5
44A
100
AcDbEntity
  8
0
100
AcDbSpline
 62
7
  6
CONTINUOUS
 70
0
 71
3
 72
12
 73
8
 74
0
 42
0.0000001
 43
0.0000001
 44
0.0000000001
 40
0.0
 40
0.0
 40
0.0
 40
0.0
 40
0.2202174473
 40
0.3909859499
 40
0.6406813524
 40
0.8334392818
 40
1.0
 40
1.0
 40
1.0
 40
1.0
 10
-37.9355808788
 20
-85.9687332509
 30
0.0
 10
-37.9355808788
 20
-85.9908723104
 30
0.0
 10
-37.9417153113
 20
-86.0304896427
 30
0.0
 10
-37.968583254
 20
-86.0895590199
 30
0.0
 10
-38.0108614722
 20
-86.1366611907
 30
0.0
 10
-38.0658315378
 20
-86.1657873572
 30
0.0
 10
-38.102009218
 20
-86.1722475817
 30
0.0
 10
-38.1187490605
 20
-86.172655111
 30
0.0
  0
SPLINE
  5
44B
100
AcDbEntity
  8
RACCORDO
100
AcDbSpline
 62
250
  6
CONTINUOUS
 70
0
 71
3
 72
8
 73
4
 74
0
 42
0.0000001
 43
0.0000001
 44
0.0000000001
 40
0.0
 40
0.0
 40
0.0
 40
0.0
 40
1.0
 40
1.0
 40
1.0
 40
1.0
 10
-27.5519011273
 20
-79.9650001198
 30
0.0
 10
-27.5432755116
 20
-79.9500564014
 30
0.0
 10
-27.5385059156
 20
-79.9322544476
 30
0.0
 10
-27.5385059156
 20
-79.915
 30
0.0
  0
SPLINE
  5
44C
100
AcDbEntity
  8
RACCORDO
100
AcDbSpline
 62
250
  6
CONTINUOUS
 70
0
 71
3
 72
8
 73
4
 74
0
 42
0.0000001
 43
0.0000001
 44
0.0000000001
 40
0.0
 40
0.0
 40
0.0
 40
0.0
 40
1.0
 40
1.0
 40
1.0
 40
1.0
 10
-13.0299774349
 20
-46.5330143686
 30
0.0
 10
-13.0047696362
 20
-46.5218749196
 30
0.0
 10
-12.9766385198
 20
-46.5159442227
 30
0.0
 10
-12.9490791223
 20
-46.5159513386
 30
0.0
  0
SPLINE
  5
44D
100
AcDbEntity
  8
RACCORDO
100
AcDbSpline
 62
250
  6
CONTINUOUS
 70
0
 71
3
 72
8
 73
4
 74
0
 42
0.0000001
 43
0.0000001
 44
0.0000000001
 40
0.0
 40
0.0
 40
0.0
 40
0.0
 40
1.0
 40
1.0
 40
1.0
 40
1.0
 10
12.9490791236
 20
-46.5159513374
 30
0.0
 10
12.9766384473
 20
-46.5159439309
 30
0.0
 10
13.0047699721
 20
-46.5218736882
 30
0.0
 10
13.0299772681
 20
-46.5330140924
 30
0.0
  0
SPLINE
  5
44E
100
AcDbEntity
  8
RACCORDO
100
AcDbSpline
 62
250
  6
CONTINUOUS
 70
0
 71
3
 72
11
 73
7
 74
0
 42
0.0000001
 43
0.0000001
 44
0.0000000001
 40
0.0
 40
0.0
 40
0.0
 40
0.0
 40
0.2503723768
 40
0.5004930255
 40
0.7503271744
 40
1.0
 40
1.0
 40
1.0
 40
1.0
 10
50.3561014955
 20
80.9878578582
 30
0.0
 10
50.3561517858
 20
81.0451034116
 30
0.0
 10
50.3362644022
 20
81.1605189774
 30
0.0
 10
50.2499356554
 20
81.3125977971
 30
0.0
 10
50.1174954601
 20
81.426571488
 30
0.0
 10
50.0082028746
 20
81.4681007928
 30
0.0
 10
49.9521508422
 20
81.4789146127
 30
0.0
  0
SPLINE
  5
44F
100
AcDbEntity
  8
RACCORDO
100
AcDbSpline
 62
250
  6
CONTINUOUS
 70
0
 71
3
 72
13
 73
9
 74
0
 42
0.0000001
 43
0.0000001
 44
0.0000000001
 40
0.0
 40
0.0
 40
0.0
 40
0.0
 40
0.3391617344
 40
0.6345250867
 40
0.7551213056
 40
0.854487252
 40
0.9339092839
 40
1.0
 40
1.0
 40
1.0
 40
1.0
 10
-26.3468726482
 20
-86.615
 30
0.0
 10
-26.3468726482
 20
-86.6405832276
 30
0.0
 10
-26.3435363796
 20
-86.6884820989
 30
0.0
 10
-26.3309206101
 20
-86.7444584855
 30
0.0
 10
-26.3153473008
 20
-86.7802205336
 30
0.0
 10
-26.3028119351
 20
-86.7991823362
 30
0.0
 10
-26.2887852915
 20
-86.8117121286
 30
0.0
 10
-26.277748875
 20
-86.815
 30
0.0
 10
-26.272763602
 20
-86.815
 30
0.0
  0
SPLINE
  5
450
100
AcDbEntity
  8
RACCORDO
100
AcDbSpline
 62
250
  6
CONTINUOUS
 70
0
 71
3
 72
9
 73
5
 74
0
 42
0.0000001
 43
0.0000001
 44
0.0000000001
 40
0.0
 40
0.0
 40
0.0
 40
0.0
 40
0.3756186625
 40
1.0
 40
1.0
 40
1.0
 40
1.0
 10
-40.5940950648
 20
-86.202416096
 30
0.0
 10
-40.5881017227
 20
-86.2038264281
 30
0.0
 10
-40.5717820056
 20
-86.2058280287
 30
0.0
 10
-40.5554748509
 20
-86.207302552
 30
0.0
 10
-40.5452703631
 20
-86.2080883291
 30
0.0
  0
SPLINE
  5
451
100
AcDbEntity
  8
RACCORDO
100
AcDbSpline
 62
250
  6
CONTINUOUS
 70
0
 71
3
 72
14
 73
10
 74
0
 42
0.0000001
 43
0.0000001
 44
0.0000000001
 40
0.0
 40
0.0
 40
0.0
 40
0.0
 40
0.0446837766
 40
0.1137898206
 40
0.2068096852
 40
0.3230433284
 40
0.461609459
 40
0.6214572981
 40
1.0
 40
1.0
 40
1.0
 40
1.0
 10
-40.5452703631
 20
-86.2080883291
 30
0.0
 10
-40.5064084912
 20
-86.2110808132
 30
0.0
 10
-40.4072372614
 20
-86.2157570951
 30
0.0
 10
-40.2269514726
 20
-86.2218359402
 30
0.0
 10
-39.9842081847
 20
-86.2277563928
 30
0.0
 10
-39.680868389
 20
-86.2336034051
 30
0.0
 10
-39.3192203866
 20
-86.239217257
 30
0.0
 10
-38.7287706131
 20
-86.2467822796
 30
0.0
 10
-38.2591612973
 20
-86.251257274
 30
0.0
 10
-37.9289761692
 20
-86.2539997925
 30
0.0
  0
SPLINE
  5
452
100
AcDbEntity
  8
RACCORDO
100
AcDbSpline
 62
250
  6
CONTINUOUS
 70
0
 71
3
 72
14
 73
10
 74
0
 42
0.0000001
 43
0.0000001
 44
0.0000000001
 40
0.0
 40
0.0
 40
0.0
 40
0.0
 40
0.3784349059
 40
0.5382539812
 40
0.6768092618
 40
0.7930506886
 40
0.886097848
 40
0.955250559
 40
1.0
 40
1.0
 40
1.0
 40
1.0
 10
-26.0717503385
 20
-86.2540058239
 30
0.0
 10
-25.7416060582
 20
-86.2512642843
 30
0.0
 10
-25.2720402217
 20
-86.2467908246
 30
0.0
 10
-24.6816238904
 20
-86.2392290589
 30
0.0
 10
-24.3199453691
 20
-86.2336172642
 30
0.0
 10
-24.0165354862
 20
-86.2277724535
 30
0.0
 10
-23.7736817664
 20
-86.221853404
 30
0.0
 10
-23.5932448322
 20
-86.2157767325
 30
0.0
 10
-23.4939596725
 20
-86.2111007498
 30
0.0
 10
-23.4550337829
 20
-86.2081117037
 30
0.0
  0
SPLINE
  5
453
100
AcDbEntity
  8
RACCORDO
100
AcDbSpline
 62
250
  6
CONTINUOUS
 70
0
 71
3
 72
9
 73
5
 74
0
 42
0.0000001
 43
0.0000001
 44
0.0000000001
 40
0.0
 40
0.0
 40
0.0
 40
0.0
 40
0.6246408346
 40
1.0
 40
1.0
 40
1.0
 40
1.0
 10
-23.4550337829
 20
-86.2081117037
 30
0.0
 10
-23.4447615766
 20
-86.2073229203
 30
0.0
 10
-23.4283531654
 20
-86.2058424504
 30
0.0
 10
-23.4119312809
 20
-86.2038341831
 30
0.0
 10
-23.4059049352
 20
-86.202416096
 30
0.0
  0
SPLINE
  5
454
100
AcDbEntity
  8
RACCORDO
100
AcDbSpline
 62
250
  6
CONTINUOUS
 70
0
 71
3
 72
11
 73
7
 74
0
 42
0.0000001
 43
0.0000001
 44
0.0000000001
 40
0.0
 40
0.0
 40
0.0
 40
0.0
 40
0.2480979201
 40
0.4972885226
 40
0.7480672288
 40
1.0
 40
1.0
 40
1.0
 40
1.0
 10
-26.5905627
 20
-86.815
 30
0.0
 10
-26.6161647366
 20
-86.815
 30
0.0
 10
-26.6680556876
 20
-86.8045298055
 30
0.0
 10
-26.7334394788
 20
-86.7598947852
 30
0.0
 10
-26.7770901451
 20
-86.693429204
 30
0.0
 10
-26.7872695109
 20
-86.6409977675
 30
0.0
 10
-26.7872695109
 20
-86.615
 30
0.0
  0
SPLINE
  5
455
100
AcDbEntity
  8
RACCORDO
100
AcDbSpline
 62
250
  6
CONTINUOUS
 70
0
 71
3
 72
11
 73
7
 74
0
 42
0.0000001
 43
0.0000001
 44
0.0000000001
 40
0.0
 40
0.0
 40
0.0
 40
0.0
 40
0.2480979201
 40
0.4972885226
 40
0.7480672288
 40
1.0
 40
1.0
 40
1.0
 40
1.0
 10
-37.4094373
 20
-86.815
 30
0.0
 10
-37.3838352634
 20
-86.815
 30
0.0
 10
-37.3319443124
 20
-86.8045298055
 30
0.0
 10
-37.2665605212
 20
-86.7598947852
 30
0.0
 10
-37.2229098549
 20
-86.693429204
 30
0.0
 10
-37.2127304891
 20
-86.6409977675
 30
0.0
 10
-37.2127304891
 20
-86.615
 30
0.0
  0
SPLINE
  5
456
100
AcDbEntity
  8
RACCORDO
100
AcDbSpline
 62
250
  6
CONTINUOUS
 70
0
 71
3
 72
13
 73
9
 74
0
 42
0.0000001
 43
0.0000001
 44
0.0000000001
 40
0.0
 40
0.0
 40
0.0
 40
0.0
 40
0.0660907127
 40
0.1455127361
 40
0.2448786766
 40
0.3654748913
 40
0.6608382435
 40
1.0
 40
1.0
 40
1.0
 40
1.0
 10
-37.727236398
 20
-86.815
 30
0.0
 10
-37.7222511253
 20
-86.815
 30
0.0
 10
-37.7112147095
 20
-86.8117121295
 30
0.0
 10
-37.6971880667
 20
-86.7991823381
 30
0.0
 10
-37.6846527013
 20
-86.7802205371
 30
0.0
 10
-37.6690793912
 20
-86.7444584901
 30
0.0
 10
-37.6564636208
 20
-86.6884821022
 30
0.0
 10
-37.6531273517
 20
-86.6405832293
 30
0.0
 10
-37.6531273518
 20
-86.615
 30
0.0
  0
ELLIPSE
  5
457
100
AcDbEntity
  8
DRAFT
100
AcDbEllipse
 62
7
  6
CONTINUOUS
 10
-43.6431811459
 20
-83.9548556231
 30
0.0
 11
6.0
 21
-0.0
 31
0.0
 40
0.0174550649
 41
3.0477343621
 42
3.1415926594
  0
ELLIPSE
  5
458
100
AcDbEntity
  8
DRAFT
100
AcDbEllipse
 62
7
  6
CONTINUOUS
 10
43.6431811459
 20
-83.9548556231
 30
0.0
 11
6.0
 21
0.0
 31
0.0
 40
0.0174550649
 41
-0.0000000058
 42
0.0938582915
  0
ELLIPSE
  5
459
100
AcDbEntity
  8
RACCORDO
100
AcDbEllipse
 62
7
  6
CONTINUOUS
 10
6.6965817344
 20
-84.915
 30
0.0
 11
-1.0038198375
 21
0.0
 31
0.0
 40
0.9961946981
 41
0.1318119746
 42
1.5707963268
  0
ELLIPSE
  5
45A
100
AcDbEntity
  8
RACCORDO
100
AcDbEllipse
 62
7
  6
CONTINUOUS
 10
-6.6965817344
 20
-84.915
 30
0.0
 11
-1.0038198375
 21
0.0
 31
0.0
 40
0.9961946981
 41
1.5707963268
 42
3.009780679
  0
ELLIPSE
  5
45B
100
AcDbEntity
  8
RACCORDO
100
AcDbEllipse
 62
7
  6
CONTINUOUS
 10
-48.3230900812
 20
-85.415
 30
0.0
 11
-0.5019099188
 21
0.0
 31
0.0
 40
0.9961946981
 41
-0.0
 42
1.5707963268
  0
ELLIPSE
  5
45C
100
AcDbEntity
  8
RACCORDO
100
AcDbEllipse
 62
7
  6
CONTINUOUS
 10
48.3230900812
 20
-85.415
 30
0.0
 11
-0.5019099188
 21
0.0
 31
0.0
 40
0.9961946981
 41
1.5707963268
 42
3.1415926536
  0
ELLIPSE
  5
45D
100
AcDbEntity
  8
ASSI
100
AcDbEllipse
 62
7
  6
CONTINUOUS
 10
-39.2287986637
 20
-81.3372461452
 30
0.0
 11
-0.0
 21
1.0
 31
0.0
 40
0.0087268678
 41
-1.7376678183
 42
-1.5707963268
  0
ELLIPSE
  5
45E
100
AcDbEntity
  8
ASSI
100
AcDbEllipse
 62
7
  6
CONTINUOUS
 10
-27.7712013363
 20
-81.3372461452
 30
0.0
 11
0.0
 21
1.0
 31
0.0
 40
0.0087268678
 41
-4.7123889804
 42
-4.5455174889
  0
ELLIPSE
  5
45F
100
AcDbEntity
  8
ASSI
100
AcDbEllipse
 62
7
  6
CONTINUOUS
 10
-25.8287986637
 20
-81.3372461452
 30
0.0
 11
0.0
 21
1.0
 31
0.0
 40
0.0087268678
 41
-1.7376678183
 42
-1.5707963268
  0
ELLIPSE
  5
460
100
AcDbEntity
  8
ASSI
100
AcDbEllipse
 62
7
  6
CONTINUOUS
 10
-14.3712013363
 20
-81.3372461452
 30
0.0
 11
-0.0
 21
1.0
 31
0.0
 40
0.0087268678
 41
-4.7123889804
 42
-4.5455174889
  0
ELLIPSE
  5
461
100
AcDbEntity
  8
ASSI
100
AcDbEllipse
 62
7
  6
CONTINUOUS
 10
-12.4287986637
 20
-81.3372461452
 30
0.0
 11
0.0
 21
1.0
 31
0.0
 40
0.0087268678
 41
-1.7376678183
 42
-1.5707963268
  0
ELLIPSE
  5
462
100
AcDbEntity
  8
ASSI
100
AcDbEllipse
 62
7
  6
CONTINUOUS
 10
-0.9712013363
 20
-81.3372461452
 30
0.0
 11
0.0
 21
1.0
 31
0.0
 40
0.0087268678
 41
-4.7123889804
 42
-4.5455174889
  0
ELLIPSE
  5
463
100
AcDbEntity
  8
ASSI
100
AcDbEllipse
 62
7
  6
CONTINUOUS
 10
0.9712013363
 20
-81.3372461452
 30
0.0
 11
0.0
 21
1.0
 31
0.0
 40
0.0087268678
 41
-1.7376678183
 42
-1.5707963268
  0
ELLIPSE
  5
464
100
AcDbEntity
  8
ASSI
100
AcDbEllipse
 62
7
  6
CONTINUOUS
 10
12.4287986637
 20
-81.3372461452
 30
0.0
 11
0.0
 21
1.0
 31
0.0
 40
0.0087268678
 41
1.5707963268
 42
1.7376678183
  0
ELLIPSE
  5
465
100
AcDbEntity
  8
ASSI
100
AcDbEllipse
 62
7
  6
CONTINUOUS
 10
14.3712013363
 20
-81.3372461452
 30
0.0
 11
0.0
 21
1.0
 31
0.0
 40
0.0087268678
 41
-1.7376678183
 42
-1.5707963268
  0
ELLIPSE
  5
466
100
AcDbEntity
  8
ASSI
100
AcDbEllipse
 62
7
  6
CONTINUOUS
 10
25.8287986637
 20
-81.3372461452
 30
0.0
 11
0.0
 21
1.0
 31
0.0
 40
0.0087268678
 41
-4.7123889804
 42
-4.5455174889
  0
ELLIPSE
  5
467
100
AcDbEntity
  8
ASSI
100
AcDbEllipse
 62
7
  6
CONTINUOUS
 10
27.7712013363
 20
-81.3372461452
 30
0.0
 11
-0.0
 21
1.0
 31
0.0
 40
0.0087268678
 41
-1.7376678183
 42
-1.5707963268
  0
ELLIPSE
  5
468
100
AcDbEntity
  8
ASSI
100
AcDbEllipse
 62
7
  6
CONTINUOUS
 10
39.2287986637
 20
-81.3372461452
 30
0.0
 11
0.0
 21
1.0
 31
0.0
 40
0.0087268678
 41
-4.7123889804
 42
-4.5455174889
  0
ELLIPSE
  5
469
100
AcDbEntity
  8
ASSI
100
AcDbEllipse
 62
7
  6
CONTINUOUS
 10
41.1712013363
 20
-81.3372461452
 30
0.0
 11
-0.0
 21
1.0
 31
0.0
 40
0.0087268678
 41
-1.7376678183
 42
-1.5707963268
  0
ELLIPSE
  5
46A
100
AcDbEntity
  8
ASSI
100
AcDbEllipse
 62
7
  6
CONTINUOUS
 10
-41.1712013363
 20
-81.3372461452
 30
0.0
 11
-0.0
 21
1.0
 31
0.0
 40
0.0087268678
 41
-4.7123889804
 42
-4.5455174889
  0
ELLIPSE
  5
46B
100
AcDbEntity
  8
RACCORDO
100
AcDbEllipse
 62
7
  6
CONTINUOUS
 10
-12.8075712487
 20
-52.2839664667
 30
0.0
 11
0.0134616226
 21
0.2066466614
 31
0.0
 40
0.9657885639
 41
1.6381450907
 42
3.204424387
  0
ELLIPSE
  5
46C
100
AcDbEntity
  8
RACCORDO
100
AcDbEllipse
 62
7
  6
CONTINUOUS
 10
-12.8075712487
 20
-46.8574287513
 30
0.0
 11
0.1414644378
 21
-0.1414644378
 31
0.0
 40
0.9996954599
 41
2.3563467834
 42
3.9268385237
  0
ELLIPSE
  5
46D
100
AcDbEntity
  8
RACCORDO
100
AcDbEllipse
 62
7
  6
CONTINUOUS
 10
12.8075712487
 20
-52.2839664667
 30
0.0
 11
-0.0134616226
 21
0.2066466614
 31
0.0
 40
0.9657885639
 41
3.0787609202
 42
4.6450402165
  0
ELLIPSE
  5
46E
100
AcDbEntity
  8
RACCORDO
100
AcDbEllipse
 62
7
  6
CONTINUOUS
 10
12.8075712487
 20
-46.8574287513
 30
0.0
 11
-0.1414644378
 21
-0.1414644378
 31
0.0
 40
0.9996954599
 41
2.3563467834
 42
3.9268385237
  0
ELLIPSE
  5
46F
100
AcDbEntity
  8
RACCORDO
100
AcDbEllipse
 62
7
  6
CONTINUOUS
 10
-32.0
 20
-86.1917964366
 30
0.0
 11
6.5
 21
-0.0
 31
0.0
 40
0.0087268678
 41
2.7217823855
 42
2.7973935442
  0
ELLIPSE
  5
470
100
AcDbEntity
  8
RACCORDO
100
AcDbEllipse
 62
7
  6
CONTINUOUS
 10
-37.8383999674
 20
-86.1730396328
 30
0.0
 11
0.5
 21
0.0
 31
0.0
 40
0.0087268678
 41
1.1912003564
 42
1.5707963268
  0
ELLIPSE
  5
471
100
AcDbEntity
  8
RACCORDO
100
AcDbEllipse
 62
7
  6
CONTINUOUS
 10
48.7080900845
 20
-84.514923836
 30
0.0
 11
-0.492283684
 21
0.0982166525
 31
0.0
 40
0.9960441251
 41
1.7684848362
 42
1.9343922034
  0
ELLIPSE
  5
472
100
AcDbEntity
  8
RACCORDO
100
AcDbEllipse
 62
7
  6
CONTINUOUS
 10
48.7080900845
 20
-84.514923836
 30
0.0
 11
-0.492283684
 21
0.0982166525
 31
0.0
 40
0.9960441251
 41
9.3722085316
 42
9.6209453921
  0
ELLIPSE
  5
473
100
AcDbEntity
  8
RACCORDO
100
AcDbEllipse
 62
7
  6
CONTINUOUS
 10
-48.7080900845
 20
-84.514923836
 30
0.0
 11
-0.492283684
 21
-0.0982166525
 31
0.0
 40
0.9960441251
 41
6.0870178758
 42
6.3359198052
  0
ELLIPSE
  5
474
100
AcDbEntity
  8
RACCORDO
100
AcDbEllipse
 62
7
  6
CONTINUOUS
 10
-48.7080900845
 20
-84.514923836
 30
0.0
 11
-0.492283684
 21
-0.0982166525
 31
0.0
 40
0.9960441251
 41
1.2974795739
 42
1.3731078174
  0
ELLIPSE
  5
475
100
AcDbEntity
  8
RACCORDO
100
AcDbEllipse
 62
7
  6
CONTINUOUS
 10
-40.7652906814
 20
-85.9149923843
 30
0.0
 11
-0.1985080898
 21
-0.0275010195
 31
0.0
 40
0.9979840155
 41
-0.1373882392
 42
1.43285947
  0
ELLIPSE
  5
476
100
AcDbEntity
  8
RACCORDO
100
AcDbEllipse
 62
7
  6
CONTINUOUS
 10
-38.3637632341
 20
-85.9149923843
 30
0.0
 11
0.1948210703
 21
-0.0458561136
 31
0.0
 40
0.9992753811
 41
-1.3394667998
 42
0.231006201
  0
ELLIPSE
  5
477
100
AcDbEntity
  8
RACCORDO
100
AcDbEllipse
 62
7
  6
CONTINUOUS
 10
-23.2347093186
 20
-85.9149923843
 30
0.0
 11
-0.1985080898
 21
0.0275010195
 31
0.0
 40
0.9979840155
 41
1.7087331836
 42
3.2789808928
  0
ENDSEC
  0
SECTION
  2
OBJECTS
  0
DICTIONARY
  5
C
100
AcDbDictionary
280
0
281
1
  3
ACAD_GROUP
350
D
  3
ACAD_MLINESTYLE
350
17
  3
ACAD_LAYOUT
350
1A
  3
ACAD_PLOTSETTINGS
350
19
  3
ACAD_PLOTSTYLENAME
350
E
  0
DICTIONARY
  5
D
102
{ACAD_REACTORS
330
C
102
}
100
AcDbDictionary
280
0
281
1
  0
ACDBDICTIONARYWDFLT
  5
E
102
{ACAD_REACTORS
330
C
102
}
100
AcDbDictionary
281
1
  3
Normal
350
F
100
AcDbDictionaryWithDefault
340
F
  0
DICTIONARY
  5
17
102
{ACAD_REACTORS
330
C
102
}
100
AcDbDictionary
280
0
281
1
  3
Standard
350
18
  0
DICTIONARY
  5
19
102
{ACAD_REACTORS
330
C
102
}
100
AcDbDictionary
281
1
  0
DICTIONARY
  5
1A
102
{ACAD_REACTORS
330
C
102
}
100
AcDbDictionary
281
1
  3
Model
350
478
  3
Layout1
350
479
  0
ACDBPLACEHOLDER
  5
F
102
{ACAD_REACTORS
330
E
102
}
  0
MLINESTYLE
  5
18
102
{ACAD_REACTORS
330
17
102
}
100
AcDbMlineStyle
  2
STANDARD
 70
0
  3

 62
256
 51
90.0
 52
90.0
 71
2
 49
0.5
 62
256
  6
BYLAYER
 49
-0.5
 62
256
  6
BYLAYER
  0
LAYOUT
  5
478
102
{ACAD_REACTORS
330
1A
102
}
100
AcDbPlotSettings
  1

  2
none_device
  4
ISO_A4_(297.00_x_210.00_MM)
  6

 40
0.0
 41
0.0
 42
0.0
 43
0.0
 44
297.0
 45
210.0
 46
0.0
 47
0.0
 48
0.0
 49
0.0
140
0.0
141
0.0
142
1.0
143
1.0
 70
1024
 72
1
 73
0
 74
0
  7

 75
0
147
1.0
148
0.0
149
0.0
100
AcDbLayout
  1
Model
 70
0
 71
0
 10
0.0
 20
0.0
 11
297.0
 21
210.0
 12
0.0
 22
0.0
 32
0.0
 14
0.0
 24
0.0
 34
0.0
 15
0.0
 25
0.0
 35
0.0
146
0.0
 13
0.0
 23
0.0
 33
0.0
 16
1.0
 26
0.0
 36
0.0
 17
0.0
 27
1.0
 37
0.0
 76
0
330
25B
345
0
346
0
  0
LAYOUT
  5
479
102
{ACAD_REACTORS
330
1A
102
}
100
AcDbPlotSettings
  1

  2
none_device
  4
ISO_A4_(297.00_x_210.00_MM)
  6

 40
0.0
 41
0.0
 42
0.0
 43
0.0
 44
297.0
 45
210.0
 46
0.0
 47
0.0
 48
0.0
 49
0.0
140
0.0
141
0.0
142
1.0
143
1.0
 70
0
 72
1
 73
0
 74
0
  7

 75
0
147
1.0
148
0.0
149
0.0
100
AcDbLayout
  1
Layout1
 70
0
 71
1
 10
0.0
 20
0.0
 11
297.0
 21
210.0
 12
0.0
 22
0.0
 32
0.0
 14
0.0
 24
0.0
 34
0.0
 15
0.0
 25
0.0
 35
0.0
146
0.0
 13
0.0
 23
0.0
 33
0.0
 16
1.0
 26
0.0
 36
0.0
 17
0.0
 27
1.0
 37
0.0
 76
0
330
25C
345
0
346
0
  0
ENDSEC
  0
EOF
