  0
SECTION
  2
HEADER
  9
$ACADVER
  1
AC1021
  9
$DWGCODEPAGE
  3
ANSI_1252
  9
$EXTMAX
 10
297.0
 20
210.0
 30
0.0
  9
$EXTMIN
 10
0.0
 20
0.0
 30
0.0
  9
$LIMMIN
 10
0.0
 20
0.0
  9
$LIMMAX
 10
297.0
 20
210.0
  9
$VIEWCTR
 10
148.5
 20
105.0
  9
$VIEWSIZE
 40
210.0
  9
$CLAYER
  8
0
  9
$LTSCALE
 40
16.335
  9
$CELTYPE
  6
BYLAYER
  9
$DIMSCALE
 40
1.0
  9
$DIMASZ
 40
3.0
  9
$DIMEXO
 40
0.5
  9
$DIMDLI
 40
11.286
  9
$DIMEXE
 40
1.5
  9
$DIMCEN
 40
2.673
  9
$DIMLFAC
 40
1.0
  9
$DIMBLK
  1
_FILLED
  9
$DIMALT
 70
0
  9
$DIMALTF
 40
0.0393700787
  9
$DIMTXT
 40
3.0
  9
$DIMTOL
 70
1
  9
$DIMLIM
 70
0
  9
$DIMTFAC
 40
1.0
  9
$DIMTP
 40
0.01
  9
$DIMTM
 40
0.01
  9
$DIMGAP
 40
0.625
  9
$DIMDSEP
 70
44
  9
$AUNITS
 70
0
  9
$PDMODE
 70
3
  9
$PDSIZE
 40
3.0
  9
$HANDSEED
  5
485
  9
$TILEMODE
 70
1
  9
$MEASUREMENT
 70
1
  9
$INSUNITS
 70
4
  0
ENDSEC
  0
SECTION
  2
CLASSES
  0
CLASS
  1
ACDBDICTIONARYWDFLT
  2
AcDbDictionaryWithDefault
  3
AutoCAD 2000
 90
0
 91
1
280
0
281
0
  0
CLASS
  1
ACDBPLACEHOLDER
  2
AcDbPlaceHolder
  3
AutoCAD 2000
 90
0
 91
1
280
0
281
0
  0
CLASS
  1
LAYOUT
  2
AcDbLayout
  3
AutoCAD 2000
 90
0
 91
0
280
0
281
0
  0
ENDSEC
  0
SECTION
  2
TABLES
  0
TABLE
  2
VPORT
  5
8
100
AcDbSymbolTable
 70
2
  0
VPORT
  5
1F4
100
AcDbSymbolTableRecord
100
AcDbViewportTableRecord
  2
*ACTIVE
 70
0
 10
0.0
 20
0.0
 11
1.0
 21
1.0
 12
148.5
 22
105.0
 13
0.0
 23
0.0
 14
1.0
 24
1.0
 15
0.0
 25
0.0
 16
0.0
 26
0.0
 36
1.0
 17
0.0
 27
0.0
 37
0.0
 40
210.0
 41
1.4142857143
 42
50.0
 43
0.0
 44
0.0
 50
0.0
 51
0.0
 71
0
 72
100
 73
1
 74
1
 75
0
 76
0
 77
0
 78
0
  0
ENDTAB
  0
TABLE
  2
LTYPE
  5
5
100
AcDbSymbolTable
 70
6
  0
LTYPE
  5
14
100
AcDbSymbolTableRecord
100
AcDbLinetypeTableRecord
  2
BYBLOCK
 70
0
  3

 72
65
 73
0
 40
0.0
  0
LTYPE
  5
15
100
AcDbSymbolTableRecord
100
AcDbLinetypeTableRecord
  2
BYLAYER
 70
0
  3

 72
65
 73
0
 40
0.0
  0
LTYPE
  5
16
100
AcDbSymbolTableRecord
100
AcDbLinetypeTableRecord
  2
CONTINUOUS
 70
64
  3
Solid line
 72
65
 73
0
 40
0.0
  0
LTYPE
  5
1F5
100
AcDbSymbolTableRecord
100
AcDbLinetypeTableRecord
  2
CENTER
 70
64
  3
____ _ ____ _ ____ _ ____ _ ____ _ ____ _ ____
 72
65
 73
4
 40
0.6
 49
0.375
 74
0
 49
-0.075
 74
0
 49
0.075
 74
0
 49
-0.075
 74
0
  0
LTYPE
  5
1F6
100
AcDbSymbolTableRecord
100
AcDbLinetypeTableRecord
  2
HIDDEN
 70
64
  3
- - - - - - - - - - - - - - - - - - - -
 72
65
 73
2
 40
0.2
 49
0.1
 74
0
 49
-0.1
 74
0
  0
LTYPE
  5
1F7
100
AcDbSymbolTableRecord
100
AcDbLinetypeTableRecord
  2
PHANTOM
 70
64
  3
_____ _ _ _____ _ _ _____ _ _ _____
 72
65
 73
6
 40
0.8
 49
0.45
 74
0
 49
-0.05
 74
0
 49
0.1
 74
0
 49
-0.05
 74
0
 49
0.1
 74
0
 49
-0.05
 74
0
  0
LTYPE
  5
1F8
100
AcDbSymbolTableRecord
100
AcDbLinetypeTableRecord
  2
DOT
 70
64
  3
. . . . . . . . . . . . . . . . . . . .
 72
65
 73
2
 40
0.2
 49
0.1
 74
0
 49
-0.1
 74
0
  0
LTYPE
  5
1F9
100
AcDbSymbolTableRecord
100
AcDbLinetypeTableRecord
  2
DASHED
 70
64
  3
- - - - - - - - - - - - - - - - - - - -
 72
65
 73
2
 40
0.2
 49
0.1
 74
0
 49
-0.1
 74
0
  0
ENDTAB
  0
TABLE
  2
LAYER
  5
2
100
AcDbSymbolTable
 70
36
  0
LAYER
  5
10
100
AcDbSymbolTableRecord
100
AcDbLayerTableRecord
  2
0
 70
0
 62
7
  6
CONTINUOUS
370
-3
390
F
  0
LAYER
  5
1FA
100
AcDbSymbolTableRecord
100
AcDbLayerTableRecord
  2
DEFAULT_1
 70
0
 62
7
  6
CENTER
370
-3
390
F
  0
LAYER
  5
1FB
100
AcDbSymbolTableRecord
100
AcDbLayerTableRecord
  2
DEFAULT_2
 70
0
 62
7
  6
HIDDEN
370
-3
390
F
  0
LAYER
  5
1FC
100
AcDbSymbolTableRecord
100
AcDbLayerTableRecord
  2
DEFAULT_3
 70
0
 62
7
  6
PHANTOM
370
-3
390
F
  0
LAYER
  5
1FD
100
AcDbSymbolTableRecord
100
AcDbLayerTableRecord
  2
06___PRT_ALL_SURFS
 70
0
 62
7
  6
CONTINUOUS
370
-3
390
F
  0
LAYER
  5
1FE
100
AcDbSymbolTableRecord
100
AcDbLayerTableRecord
  2
0805_LED_REF_60000
 70
0
 62
7
  6
CONTINUOUS
370
-3
390
F
  0
LAYER
  5
1FF
100
AcDbSymbolTableRecord
100
AcDbLayerTableRecord
  2
0805_LED_REF_60000_1
 70
0
 62
7
  6
CONTINUOUS
370
-3
390
F
  0
LAYER
  5
200
100
AcDbSymbolTableRecord
100
AcDbLayerTableRecord
  2
0805_LED_REF_60000_2
 70
0
 62
7
  6
CONTINUOUS
370
-3
390
F
  0
LAYER
  5
201
100
AcDbSymbolTableRecord
100
AcDbLayerTableRecord
  2
1206_R_REF_65000
 70
0
 62
7
  6
CONTINUOUS
370
-3
390
F
  0
LAYER
  5
202
100
AcDbSymbolTableRecord
100
AcDbLayerTableRecord
  2
1206_R_REF_65000_1
 70
0
 62
7
  6
CONTINUOUS
370
-3
390
F
  0
LAYER
  5
203
100
AcDbSymbolTableRecord
100
AcDbLayerTableRecord
  2
ASSI
 70
0
 62
7
  6
CONTINUOUS
370
-3
390
F
  0
LAYER
  5
204
100
AcDbSymbolTableRecord
100
AcDbLayerTableRecord
  2
COLOR24
 70
0
 62
7
  6
CONTINUOUS
370
-3
390
F
  0
LAYER
  5
205
100
AcDbSymbolTableRecord
100
AcDbLayerTableRecord
  2
COLOR26
 70
0
 62
7
  6
CONTINUOUS
370
-3
390
F
  0
LAYER
  5
206
100
AcDbSymbolTableRecord
100
AcDbLayerTableRecord
  2
COORDINATE
 70
0
 62
7
  6
CONTINUOUS
370
-3
390
F
  0
LAYER
  5
207
100
AcDbSymbolTableRecord
100
AcDbLayerTableRecord
  2
COPY_PUBLISH
 70
0
 62
7
  6
CONTINUOUS
370
-3
390
F
  0
LAYER
  5
208
100
AcDbSymbolTableRecord
100
AcDbLayerTableRecord
  2
COSMETICI
 70
0
 62
7
  6
CONTINUOUS
370
-3
390
F
  0
LAYER
  5
209
100
AcDbSymbolTableRecord
100
AcDbLayerTableRecord
  2
CR_CN2MP2_5_H6_EH-A_TET__810000
 70
0
 62
7
  6
CONTINUOUS
370
-3
390
F
  0
LAYER
  5
20A
100
AcDbSymbolTableRecord
100
AcDbLayerTableRecord
  2
CR_CN2MP2_5_H6_EH-A_TET__8100_1
 70
0
 62
7
  6
CONTINUOUS
370
-3
390
F
  0
LAYER
  5
20B
100
AcDbSymbolTableRecord
100
AcDbLayerTableRecord
  2
CR_FIDUCIAL75__10000
 70
0
 62
7
  6
CONTINUOUS
370
-3
390
F
  0
LAYER
  5
20C
100
AcDbSymbolTableRecord
100
AcDbLayerTableRecord
  2
CR_FIDUCIAL75__10000_1
 70
0
 62
7
  6
CONTINUOUS
370
-3
390
F
  0
LAYER
  5
20D
100
AcDbSymbolTableRecord
100
AcDbLayerTableRecord
  2
CR_SWITCH_LF201__650000
 70
0
 62
7
  6
CONTINUOUS
370
-3
390
F
  0
LAYER
  5
20E
100
AcDbSymbolTableRecord
100
AcDbLayerTableRecord
  2
CS3484R01
 70
0
 62
7
  6
CONTINUOUS
370
-3
390
F
  0
LAYER
  5
20F
100
AcDbSymbolTableRecord
100
AcDbLayerTableRecord
  2
CS3484R02
 70
0
 62
7
  6
CONTINUOUS
370
-3
390
F
  0
LAYER
  5
210
100
AcDbSymbolTableRecord
100
AcDbLayerTableRecord
  2
CURVE
 70
0
 62
7
  6
CONTINUOUS
370
-3
390
F
  0
LAYER
  5
211
100
AcDbSymbolTableRecord
100
AcDbLayerTableRecord
  2
DRAFT
 70
0
 62
7
  6
CONTINUOUS
370
-3
390
F
  0
LAYER
  5
212
100
AcDbSymbolTableRecord
100
AcDbLayerTableRecord
  2
GEOMETRIA_SOLIDA
 70
0
 62
7
  6
CONTINUOUS
370
-3
390
F
  0
LAYER
  5
213
100
AcDbSymbolTableRecord
100
AcDbLayerTableRecord
  2
GEOMETRIA_SOLIDA_1
 70
0
 62
7
  6
CONTINUOUS
370
-3
390
F
  0
LAYER
  5
214
100
AcDbSymbolTableRecord
100
AcDbLayerTableRecord
  2
GEOMETRIA_SOLIDA_2
 70
0
 62
7
  6
CONTINUOUS
370
-3
390
F
  0
LAYER
  5
215
100
AcDbSymbolTableRecord
100
AcDbLayerTableRecord
  2
IMPORT_IGES
 70
0
 62
7
  6
CONTINUOUS
370
-3
390
F
  0
LAYER
  5
216
100
AcDbSymbolTableRecord
100
AcDbLayerTableRecord
  2
INTF_7
 70
0
 62
7
  6
CONTINUOUS
370
-3
390
F
  0
LAYER
  5
217
100
AcDbSymbolTableRecord
100
AcDbLayerTableRecord
  2
INTF_RED
 70
0
 62
7
  6
CONTINUOUS
370
-3
390
F
  0
LAYER
  5
218
100
AcDbSymbolTableRecord
100
AcDbLayerTableRecord
  2
LAYER_102
 70
0
 62
7
  6
CONTINUOUS
370
-3
390
F
  0
LAYER
  5
219
100
AcDbSymbolTableRecord
100
AcDbLayerTableRecord
  2
NONE
 70
0
 62
7
  6
CONTINUOUS
370
-3
390
F
  0
LAYER
  5
21A
100
AcDbSymbolTableRecord
100
AcDbLayerTableRecord
  2
NOTE
 70
0
 62
7
  6
CONTINUOUS
370
-3
390
F
  0
LAYER
  5
21B
100
AcDbSymbolTableRecord
100
AcDbLayerTableRecord
  2
PIANI
 70
0
 62
7
  6
CONTINUOUS
370
-3
390
F
  0
LAYER
  5
21C
100
AcDbSymbolTableRecord
100
AcDbLayerTableRecord
  2
PUNTI
 70
0
 62
7
  6
CONTINUOUS
370
-3
390
F
  0
LAYER
  5
21D
100
AcDbSymbolTableRecord
100
AcDbLayerTableRecord
  2
RACCORDO
 70
0
 62
7
  6
CONTINUOUS
370
-3
390
F
  0
LAYER
  5
21E
100
AcDbSymbolTableRecord
100
AcDbLayerTableRecord
  2
SIMBOLI
 70
0
 62
7
  6
CONTINUOUS
370
-3
390
F
  0
LAYER
  5
21F
100
AcDbSymbolTableRecord
100
AcDbLayerTableRecord
  2
SMUSSO
 70
0
 62
7
  6
CONTINUOUS
370
-3
390
F
  0
LAYER
  5
220
100
AcDbSymbolTableRecord
100
AcDbLayerTableRecord
  2
SNAPLINE
 70
0
 62
7
  6
CONTINUOUS
370
-3
390
F
  0
LAYER
  5
221
100
AcDbSymbolTableRecord
100
AcDbLayerTableRecord
  2
SUPERFICI
 70
0
 62
7
  6
CONTINUOUS
370
-3
390
F
  0
LAYER
  5
222
100
AcDbSymbolTableRecord
100
AcDbLayerTableRecord
  2
TRASH
 70
0
 62
7
  6
CONTINUOUS
370
-3
390
F
  0
LAYER
  5
223
100
AcDbSymbolTableRecord
100
AcDbLayerTableRecord
  2
_1054
 70
0
 62
7
  6
CONTINUOUS
370
-3
390
F
  0
LAYER
  5
224
100
AcDbSymbolTableRecord
100
AcDbLayerTableRecord
  2
_1066
 70
0
 62
7
  6
CONTINUOUS
370
-3
390
F
  0
LAYER
  5
225
100
AcDbSymbolTableRecord
100
AcDbLayerTableRecord
  2
_1101
 70
0
 62
7
  6
CONTINUOUS
370
-3
390
F
  0
LAYER
  5
226
100
AcDbSymbolTableRecord
100
AcDbLayerTableRecord
  2
_1154
 70
0
 62
7
  6
CONTINUOUS
370
-3
390
F
  0
LAYER
  5
227
100
AcDbSymbolTableRecord
100
AcDbLayerTableRecord
  2
_1186
 70
0
 62
7
  6
CONTINUOUS
370
-3
390
F
  0
LAYER
  5
228
100
AcDbSymbolTableRecord
100
AcDbLayerTableRecord
  2
_1217
 70
0
 62
7
  6
CONTINUOUS
370
-3
390
F
  0
LAYER
  5
229
100
AcDbSymbolTableRecord
100
AcDbLayerTableRecord
  2
_1244
 70
0
 62
7
  6
CONTINUOUS
370
-3
390
F
  0
LAYER
  5
22A
100
AcDbSymbolTableRecord
100
AcDbLayerTableRecord
  2
_1267
 70
0
 62
7
  6
CONTINUOUS
370
-3
390
F
  0
LAYER
  5
22B
100
AcDbSymbolTableRecord
100
AcDbLayerTableRecord
  2
_1317
 70
0
 62
7
  6
CONTINUOUS
370
-3
390
F
  0
LAYER
  5
22C
100
AcDbSymbolTableRecord
100
AcDbLayerTableRecord
  2
_1344
 70
0
 62
7
  6
CONTINUOUS
370
-3
390
F
  0
LAYER
  5
22D
100
AcDbSymbolTableRecord
100
AcDbLayerTableRecord
  2
_1359
 70
0
 62
7
  6
CONTINUOUS
370
-3
390
F
  0
LAYER
  5
22E
100
AcDbSymbolTableRecord
100
AcDbLayerTableRecord
  2
_1381
 70
0
 62
7
  6
CONTINUOUS
370
-3
390
F
  0
LAYER
  5
22F
100
AcDbSymbolTableRecord
100
AcDbLayerTableRecord
  2
_1393
 70
0
 62
7
  6
CONTINUOUS
370
-3
390
F
  0
LAYER
  5
230
100
AcDbSymbolTableRecord
100
AcDbLayerTableRecord
  2
_1422
 70
0
 62
7
  6
CONTINUOUS
370
-3
390
F
  0
LAYER
  5
231
100
AcDbSymbolTableRecord
100
AcDbLayerTableRecord
  2
_1445
 70
0
 62
7
  6
CONTINUOUS
370
-3
390
F
  0
LAYER
  5
232
100
AcDbSymbolTableRecord
100
AcDbLayerTableRecord
  2
_1474
 70
0
 62
7
  6
CONTINUOUS
370
-3
390
F
  0
LAYER
  5
233
100
AcDbSymbolTableRecord
100
AcDbLayerTableRecord
  2
_1505
 70
0
 62
7
  6
CONTINUOUS
370
-3
390
F
  0
LAYER
  5
234
100
AcDbSymbolTableRecord
100
AcDbLayerTableRecord
  2
_1558
 70
0
 62
7
  6
CONTINUOUS
370
-3
390
F
  0
LAYER
  5
235
100
AcDbSymbolTableRecord
100
AcDbLayerTableRecord
  2
_1610
 70
0
 62
7
  6
CONTINUOUS
370
-3
390
F
  0
LAYER
  5
236
100
AcDbSymbolTableRecord
100
AcDbLayerTableRecord
  2
_1640
 70
0
 62
7
  6
CONTINUOUS
370
-3
390
F
  0
LAYER
  5
237
100
AcDbSymbolTableRecord
100
AcDbLayerTableRecord
  2
_1670
 70
0
 62
7
  6
CONTINUOUS
370
-3
390
F
  0
LAYER
  5
238
100
AcDbSymbolTableRecord
100
AcDbLayerTableRecord
  2
_1691
 70
0
 62
7
  6
CONTINUOUS
370
-3
390
F
  0
LAYER
  5
239
100
AcDbSymbolTableRecord
100
AcDbLayerTableRecord
  2
_1733
 70
0
 62
7
  6
CONTINUOUS
370
-3
390
F
  0
LAYER
  5
23A
100
AcDbSymbolTableRecord
100
AcDbLayerTableRecord
  2
_1754
 70
0
 62
7
  6
CONTINUOUS
370
-3
390
F
  0
LAYER
  5
23B
100
AcDbSymbolTableRecord
100
AcDbLayerTableRecord
  2
_177
 70
0
 62
7
  6
CONTINUOUS
370
-3
390
F
  0
LAYER
  5
23C
100
AcDbSymbolTableRecord
100
AcDbLayerTableRecord
  2
_1790
 70
0
 62
7
  6
CONTINUOUS
370
-3
390
F
  0
LAYER
  5
23D
100
AcDbSymbolTableRecord
100
AcDbLayerTableRecord
  2
_1798
 70
0
 62
7
  6
CONTINUOUS
370
-3
390
F
  0
LAYER
  5
23E
100
AcDbSymbolTableRecord
100
AcDbLayerTableRecord
  2
_1860
 70
0
 62
7
  6
CONTINUOUS
370
-3
390
F
  0
LAYER
  5
23F
100
AcDbSymbolTableRecord
100
AcDbLayerTableRecord
  2
_1905
 70
0
 62
7
  6
CONTINUOUS
370
-3
390
F
  0
LAYER
  5
240
100
AcDbSymbolTableRecord
100
AcDbLayerTableRecord
  2
_1928
 70
0
 62
7
  6
CONTINUOUS
370
-3
390
F
  0
LAYER
  5
241
100
AcDbSymbolTableRecord
100
AcDbLayerTableRecord
  2
_1949
 70
0
 62
7
  6
CONTINUOUS
370
-3
390
F
  0
LAYER
  5
242
100
AcDbSymbolTableRecord
100
AcDbLayerTableRecord
  2
_1975
 70
0
 62
7
  6
CONTINUOUS
370
-3
390
F
  0
LAYER
  5
243
100
AcDbSymbolTableRecord
100
AcDbLayerTableRecord
  2
_200
 70
0
 62
7
  6
CONTINUOUS
370
-3
390
F
  0
LAYER
  5
244
100
AcDbSymbolTableRecord
100
AcDbLayerTableRecord
  2
_2064
 70
0
 62
7
  6
CONTINUOUS
370
-3
390
F
  0
LAYER
  5
245
100
AcDbSymbolTableRecord
100
AcDbLayerTableRecord
  2
_2096
 70
0
 62
7
  6
CONTINUOUS
370
-3
390
F
  0
LAYER
  5
246
100
AcDbSymbolTableRecord
100
AcDbLayerTableRecord
  2
_2150
 70
0
 62
7
  6
CONTINUOUS
370
-3
390
F
  0
LAYER
  5
247
100
AcDbSymbolTableRecord
100
AcDbLayerTableRecord
  2
_222
 70
0
 62
7
  6
CONTINUOUS
370
-3
390
F
  0
LAYER
  5
248
100
AcDbSymbolTableRecord
100
AcDbLayerTableRecord
  2
_312
 70
0
 62
7
  6
CONTINUOUS
370
-3
390
F
  0
LAYER
  5
249
100
AcDbSymbolTableRecord
100
AcDbLayerTableRecord
  2
_372
 70
0
 62
7
  6
CONTINUOUS
370
-3
390
F
  0
LAYER
  5
24A
100
AcDbSymbolTableRecord
100
AcDbLayerTableRecord
  2
_454
 70
0
 62
7
  6
CONTINUOUS
370
-3
390
F
  0
LAYER
  5
24B
100
AcDbSymbolTableRecord
100
AcDbLayerTableRecord
  2
_521
 70
0
 62
7
  6
CONTINUOUS
370
-3
390
F
  0
LAYER
  5
24C
100
AcDbSymbolTableRecord
100
AcDbLayerTableRecord
  2
_570
 70
0
 62
7
  6
CONTINUOUS
370
-3
390
F
  0
LAYER
  5
24D
100
AcDbSymbolTableRecord
100
AcDbLayerTableRecord
  2
_592
 70
0
 62
7
  6
CONTINUOUS
370
-3
390
F
  0
LAYER
  5
24E
100
AcDbSymbolTableRecord
100
AcDbLayerTableRecord
  2
_666
 70
0
 62
7
  6
CONTINUOUS
370
-3
390
F
  0
LAYER
  5
24F
100
AcDbSymbolTableRecord
100
AcDbLayerTableRecord
  2
_691
 70
0
 62
7
  6
CONTINUOUS
370
-3
390
F
  0
LAYER
  5
250
100
AcDbSymbolTableRecord
100
AcDbLayerTableRecord
  2
_854
 70
0
 62
7
  6
CONTINUOUS
370
-3
390
F
  0
LAYER
  5
251
100
AcDbSymbolTableRecord
100
AcDbLayerTableRecord
  2
_866
 70
0
 62
7
  6
CONTINUOUS
370
-3
390
F
  0
LAYER
  5
252
100
AcDbSymbolTableRecord
100
AcDbLayerTableRecord
  2
_946
 70
0
 62
7
  6
CONTINUOUS
370
-3
390
F
  0
LAYER
  5
253
100
AcDbSymbolTableRecord
100
AcDbLayerTableRecord
  2
___SHELL
 70
0
 62
7
  6
CONTINUOUS
370
-3
390
F
  0
ENDTAB
  0
TABLE
  2
STYLE
  5
3
100
AcDbSymbolTable
 70
1
  0
STYLE
  5
11
100
AcDbSymbolTableRecord
100
AcDbTextStyleTableRecord
  2
STANDARD
 70
0
 40
0.0
 41
0.8
 50
0.0
 71
0
 42
0.2
  3
txt
  4

  0
STYLE
  5
254
100
AcDbSymbolTableRecord
100
AcDbTextStyleTableRecord
  2
TEXTSTYLE_1
 70
0
 40
0.0
 41
0.8
 50
0.0
 71
0
 42
0.2
  3
gdt
  4

  0
ENDTAB
  0
TABLE
  2
VIEW
  5
6
100
AcDbSymbolTable
 70
0
  0
ENDTAB
  0
TABLE
  2
UCS
  5
7
100
AcDbSymbolTable
 70
0
  0
ENDTAB
  0
TABLE
  2
APPID
  5
9
100
AcDbSymbolTable
 70
1
  0
APPID
  5
255
100
AcDbSymbolTableRecord
100
AcDbRegAppTableRecord
  2
ACAD
 70
0
  0
ENDTAB
  0
TABLE
  2
BLOCK_RECORD
  5
1
100
AcDbSymbolTable
 70
0
  0
BLOCK_RECORD
  5
256
100
AcDbSymbolTableRecord
100
AcDbBlockTableRecord
  2
*Model_Space
  0
BLOCK_RECORD
  5
257
100
AcDbSymbolTableRecord
100
AcDbBlockTableRecord
  2
*Paper_Space
  0
BLOCK_RECORD
  5
258
100
AcDbSymbolTableRecord
100
AcDbBlockTableRecord
  2
_FILLED
  0
ENDTAB
  0
TABLE
  2
DIMSTYLE
  5
A
100
AcDbSymbolTable
 70
1
100
AcDbDimStyleTable
 71
0
  0
DIMSTYLE
105
259
100
AcDbSymbolTableRecord
100
AcDbDimStyleTableRecord
  2
STANDARD
 70
0
  3

  4

 40
1.0
 41
3.0
 42
0.5
 43
0.38
 44
1.5
 45
0.0
 46
0.0
 47
0.01
 48
0.01
140
3.0
141
0.09
142
0.0
143
25.4
144
1.0
145
0.0
146
1.0
147
0.625
 71
1.0
 72
0.0
 73
0
 74
0
 75
0
 76
0
 77
1
 78
8
 79
2
170
0
171
1
172
0
173
0
174
0
175
0
176
0
177
0
178
0
270
2
179
2
271
2
272
2
273
2
274
2
275
0
280
0
281
0
282
0
283
1
284
8
285
0
286
0
287
3
288
0
340
11
278
44
341
258
342
258
343
258
344
258
  0
ENDTAB
  0
ENDSEC
  0
SECTION
  2
BLOCKS
  0
BLOCK
  5
20
100
AcDbEntity
  8
0
100
AcDbBlockBegin
  2
*Model_Space
 70
0
 10
0.0
 20
0.0
 30
0.0
  3
*Model_Space
  1

  0
ENDBLK
  5
21
100
AcDbEntity
  8
0
100
AcDbBlockEnd
  0
BLOCK
  5
1C
100
AcDbEntity
  8
0
100
AcDbBlockBegin
  2
*Paper_Space
 70
0
 10
0.0
 20
0.0
 30
0.0
  3
*Paper_Space
  1

  0
ENDBLK
  5
1D
100
AcDbEntity
  8
0
100
AcDbBlockEnd
  0
BLOCK
  5
25A
100
AcDbEntity
  8
0
100
AcDbBlockBegin
  2
_FILLED
 70
64
 10
0.0
 20
0.0
  3
_FILLED
  1

  0
SOLID
  5
25B
100
AcDbEntity
  8
0
  6
BYBLOCK
 62
0
100
AcDbTrace
 10
0.0
 20
0.0
 11
-1.0
 21
0.3166666667
 12
-1.0
 22
-0.3166666667
 13
-1.0
 23
-0.3166666667
  0
ENDBLK
  5
25C
100
AcDbEntity
  8
0
  6
BYBLOCK
 62
0
100
AcDbBlockEnd
  0
ENDSEC
  0
SECTION
  2
ENTITIES
  0
LWPOLYLINE
  5
25D
100
AcDbEntity
  8
RACCORDO
100
AcDbPolyline
 62
7
  6
CONTINUOUS
 90
12
 70
0
 10
-39.6437183834
 20
-83.8517570767
 10
-39.6293730235
 20
-83.8548949147
 10
-39.6163708052
 20
-83.85708791
 10
-39.6054062236
 20
-83.8585695441
 10
-39.5958155728
 20
-83.8596676799
 10
-39.5856663355
 20
-83.8606793868
 10
-39.5743826996
 20
-83.8616694891
 10
-39.5624154736
 20
-83.8626040968
 10
-39.5493947193
 20
-83.8635190508
 10
-39.5352183731
 20
-83.864422709
 10
-39.5199007729
 20
-83.8653148911
 10
-39.4852367586
 20
-83.8670979546
  0
LINE
  5
25E
100
AcDbEntity
  8
RACCORDO
100
AcDbLine
 62
7
  6
CONTINUOUS
 10
-40.0106854669
 20
-83.7654084244
 11
-39.6406045705
 21
-83.8525164132
  0
LINE
  5
25F
100
AcDbEntity
  8
RACCORDO
100
AcDbLine
 62
250
  6
CONTINUOUS
 10
-39.9647978719
 20
-83.7707361408
 11
-39.5947816851
 21
-83.8578288986
  0
LINE
  5
260
100
AcDbEntity
  8
RACCORDO
100
AcDbLine
 62
250
  6
CONTINUOUS
 10
-37.9958802777
 20
-83.8573115572
 11
-38.3636985245
 21
-83.7707361408
  0
LINE
  5
261
100
AcDbEntity
  8
RACCORDO
100
AcDbLine
 62
7
  6
CONTINUOUS
 10
-39.6406045705
 20
-83.8525164132
 11
-39.6437183834
 21
-83.8517570767
  0
LINE
  5
262
100
AcDbEntity
  8
RACCORDO
100
AcDbLine
 62
250
  6
CONTINUOUS
 10
-40.3652668328
 20
-82.6707361408
 11
-40.291114115
 21
-82.7056462707
  0
LWPOLYLINE
  5
263
100
AcDbEntity
  8
0
100
AcDbPolyline
 62
7
  6
CONTINUOUS
 90
10
 70
0
 10
2.0220982589
 20
-87.6707361408
 10
2.0084719959
 20
-87.6732281803
 10
1.9626547474
 20
-87.6811071295
 10
1.9138926652
 20
-87.6890240609
 10
1.862335322
 20
-87.696958027
 10
1.8079411613
 20
-87.704919623
 10
1.7507883584
 20
-87.7129015054
 10
1.6909974446
 20
-87.7208924353
 10
1.6285694206
 20
-87.7288984122
 10
1.5633775973
 20
-87.7369404379
  0
LWPOLYLINE
  5
264
100
AcDbEntity
  8
0
100
AcDbPolyline
 62
7
  6
CONTINUOUS
 90
16
 70
0
 10
2.3646110962
 20
-89.0026357835
 10
2.3788814252
 20
-89.0001518603
 10
2.3922379128
 20
-88.9975549816
 10
2.4049905491
 20
-88.9947627185
 10
2.4182358605
 20
-88.9914521992
 10
2.4315423833
 20
-88.9875956233
 10
2.4454507554
 20
-88.9828632078
 10
2.4625079644
 20
-88.9758814907
 10
2.4835832344
 20
-88.9651248633
 10
2.5070642462
 20
-88.9498476398
 10
2.5314399008
 20
-88.9294216359
 10
2.5557374816
 20
-88.9026149884
 10
2.5774055389
 20
-88.8693506134
 10
2.5928034169
 20
-88.8320939128
 10
2.5997704739
 20
-88.7926639286
 10
2.5999998184
 20
-88.7842060373
  0
LWPOLYLINE
  5
265
100
AcDbEntity
  8
0
100
AcDbPolyline
 62
7
  6
CONTINUOUS
 90
23
 70
0
 10
1.1650276661
 20
-84.4193307359
 10
1.2876823733
 20
-84.4005266302
 10
1.4044817913
 20
-84.3819624494
 10
1.5152269772
 20
-84.3636362642
 10
1.6197863309
 20
-84.3455418872
 10
1.7185335321
 20
-84.3275857182
 10
1.8112619918
 20
-84.3097752805
 10
1.897973876
 20
-84.2920837333
 10
1.9792881349
 20
-84.2743457808
 10
2.0553561522
 20
-84.2564663693
 10
2.1257431754
 20
-84.2384821684
 10
2.1903714861
 20
-84.220353777
 10
2.2490485768
 20
-84.2020823608
 10
2.3022224461
 20
-84.1834662293
 10
2.3513215076
 20
-84.1638245558
 10
2.3960770039
 20
-84.1429561107
 10
2.4373561802
 20
-84.1200309251
 10
2.4783054161
 20
-84.0920699371
 10
2.5202240399
 20
-84.0549716285
 10
2.5579683296
 20
-84.0084799385
 10
2.5850929809
 20
-83.9566449773
 10
2.5986944917
 20
-83.9025195851
 10
2.599985304
 20
-83.8791897184
  0
LWPOLYLINE
  5
266
100
AcDbEntity
  8
0
100
AcDbPolyline
 62
7
  6
CONTINUOUS
 90
21
 70
0
 10
-1.1175653262
 20
-84.3340745513
 10
-1.2593724039
 20
-84.3555953001
 10
-1.3942240119
 20
-84.3768978862
 10
-1.5217918049
 20
-84.3979953991
 10
-1.6412739633
 20
-84.4188072857
 10
-1.7523728053
 20
-84.4393163058
 10
-1.8551661237
 20
-84.4595620599
 10
-1.9496904984
 20
-84.4795712808
 10
-2.0358896087
 20
-84.4993407913
 10
-2.1140483455
 20
-84.5189363605
 10
-2.1849527669
 20
-84.5385744112
 10
-2.2484080829
 20
-84.5582267669
 10
-2.3051462406
 20
-84.5781499873
 10
-2.3576817697
 20
-84.5994626538
 10
-2.4068457474
 20
-84.6231487185
 10
-2.4521414182
 20
-84.6498690049
 10
-2.4945035225
 20
-84.681522237
 10
-2.5348970947
 20
-84.721599256
 10
-2.5691598175
 20
-84.7702707416
 10
-2.5914575455
 20
-84.8225805446
 10
-2.599923082
 20
-84.8750141901
  0
LINE
  5
267
100
AcDbEntity
  8
0
100
AcDbLine
 62
7
  6
CONTINUOUS
 10
-1.132699157
 20
-84.7370989239
 11
-0.8901093147
 21
-84.7014172168
  0
LINE
  5
268
100
AcDbEntity
  8
0
100
AcDbLine
 62
7
  6
CONTINUOUS
 10
0.9014763762
 20
-84.4579083869
 11
1.1650276661
 21
-84.4193307359
  0
LINE
  5
269
100
AcDbEntity
  8
0
100
AcDbLine
 62
7
  6
CONTINUOUS
 10
1.0903093331
 20
-84.0298007441
 11
0.7995424623
 21
-84.0719838599
  0
LINE
  5
26A
100
AcDbEntity
  8
0
100
AcDbLine
 62
7
  6
CONTINUOUS
 10
-0.8159144155
 20
-84.2905023361
 11
-1.1175653262
 21
-84.3340745513
  0
LINE
  5
26B
100
AcDbEntity
  8
0
100
AcDbLine
 62
7
  6
CONTINUOUS
 10
-0.8901093147
 20
-84.7014172168
 11
-0.621978379
 21
-84.6638008602
  0
LINE
  5
26C
100
AcDbEntity
  8
0
100
AcDbLine
 62
7
  6
CONTINUOUS
 10
0.6151656407
 20
-84.4978430647
 11
0.9014763762
 21
-84.4579083869
  0
LINE
  5
26D
100
AcDbEntity
  8
0
100
AcDbLine
 62
7
  6
CONTINUOUS
 10
0.7995424623
 20
-84.0719838599
 11
0.4885708174
 21
-84.1149476201
  0
LINE
  5
26E
100
AcDbEntity
  8
0
100
AcDbLine
 62
7
  6
CONTINUOUS
 10
-0.4964112186
 20
-84.2465182368
 11
-0.8159144155
 21
-84.2905023361
  0
LINE
  5
26F
100
AcDbEntity
  8
0
100
AcDbLine
 62
7
  6
CONTINUOUS
 10
-0.621978379
 20
-84.6638008602
 11
0.6151656407
 21
-84.4978430647
  0
LINE
  5
270
100
AcDbEntity
  8
0
100
AcDbLine
 62
7
  6
CONTINUOUS
 10
0.4885708174
 20
-84.1149476201
 11
-0.4964112186
 21
-84.2465182368
  0
LINE
  5
271
100
AcDbEntity
  8
0
100
AcDbLine
 62
7
  6
CONTINUOUS
 10
-1.9399980621
 20
-88.4675694873
 11
-1.8594992111
 21
-88.4574532785
  0
LWPOLYLINE
  5
272
100
AcDbEntity
  8
0
100
AcDbPolyline
 62
7
  6
CONTINUOUS
 90
26
 70
0
 10
-1.889927746
 20
-88.0597767069
 10
-1.9412315829
 20
-88.0660970204
 10
-1.9899061471
 20
-88.07234682
 10
-2.0359564661
 20
-88.0785276994
 10
-2.0794109168
 20
-88.0846438925
 10
-2.1203822129
 20
-88.0907122303
 10
-2.1588859677
 20
-88.0967365761
 10
-2.194958598
 20
-88.1027239423
 10
-2.2287565468
 20
-88.108703512
 10
-2.2603362288
 20
-88.1146913814
 10
-2.2897140791
 20
-88.1206975866
 10
-2.3170583099
 20
-88.1267668126
 10
-2.3423026338
 20
-88.132895698
 10
-2.3657121898
 20
-88.139163498
 10
-2.3880729436
 20
-88.1458362696
 10
-2.4090694649
 20
-88.1529034929
 10
-2.4292689997
 20
-88.1606633238
 10
-2.4508412975
 20
-88.1703055815
 10
-2.474029058
 20
-88.1826991564
 10
-2.4982831364
 20
-88.1985630679
 10
-2.5241321059
 20
-88.2197678546
 10
-2.5513320252
 20
-88.2489420368
 10
-2.5758984826
 20
-88.2859417653
 10
-2.5929044789
 20
-88.327257994
 10
-2.5999086477
 20
-88.3704239775
 10
-2.5999993109
 20
-88.3759529686
  0
LWPOLYLINE
  5
273
100
AcDbEntity
  8
0
100
AcDbPolyline
 62
7
  6
CONTINUOUS
 90
24
 70
0
 10
1.5078261942
 20
-88.1443830478
 10
1.5928282042
 20
-88.1343394473
 10
1.6750155392
 20
-88.1241861674
 10
1.7538653181
 20
-88.1139616822
 10
1.8292484562
 20
-88.1036585662
 10
1.9009884532
 20
-88.0932761119
 10
1.96863546
 20
-88.082858721
 10
2.032095324
 20
-88.0724052967
 10
2.091371958
 20
-88.0618996285
 10
2.1463511718
 20
-88.0513478414
 10
2.1969636765
 20
-88.0407540962
 10
2.2434212319
 20
-88.0300642081
 10
2.2862369514
 20
-88.0191298844
 10
2.3251517039
 20
-88.0079795475
 10
2.3607502313
 20
-87.9963968218
 10
2.3950497612
 20
-87.9835047072
 10
2.4279418362
 20
-87.9688875941
 10
2.4597538799
 20
-87.9517829632
 10
2.49304821
 20
-87.9294385963
 10
2.5288680713
 20
-87.8979022842
 10
2.5621590225
 20
-87.8568237017
 10
2.5864647356
 20
-87.8102116604
 10
2.5987978371
 20
-87.7611309639
 10
2.599991255
 20
-87.7401004256
  0
LINE
  5
274
100
AcDbEntity
  8
0
100
AcDbLine
 62
7
  6
CONTINUOUS
 10
-1.8594992111
 20
-88.4574532785
 11
-1.7714644193
 21
-88.4470832466
  0
LINE
  5
275
100
AcDbEntity
  8
0
100
AcDbLine
 62
7
  6
CONTINUOUS
 10
1.5633775973
 20
-87.7369404379
 11
1.4249098952
 21
-87.7531243213
  0
LINE
  5
276
100
AcDbEntity
  8
0
100
AcDbLine
 62
7
  6
CONTINUOUS
 10
-1.7791997283
 20
-88.0468915095
 11
-1.889927746
 21
-88.0597767069
  0
LINE
  5
277
100
AcDbEntity
  8
0
100
AcDbLine
 62
7
  6
CONTINUOUS
 10
-1.7714644193
 20
-88.4470832466
 11
-1.6759165837
 21
-88.4364582385
  0
LINE
  5
278
100
AcDbEntity
  8
0
100
AcDbLine
 62
7
  6
CONTINUOUS
 10
1.3304104484
 20
-88.1641326662
 11
1.5078261942
 21
-88.1443830478
  0
LINE
  5
279
100
AcDbEntity
  8
0
100
AcDbLine
 62
7
  6
CONTINUOUS
 10
1.4249098952
 20
-87.7531243213
 11
1.2753526081
 21
-87.7695056953
  0
LINE
  5
27A
100
AcDbEntity
  8
0
100
AcDbLine
 62
7
  6
CONTINUOUS
 10
-1.6575787933
 20
-88.0336619569
 11
-1.7791997283
 21
-88.0468915095
  0
LWPOLYLINE
  5
27B
100
AcDbEntity
  8
0
100
AcDbPolyline
 62
7
  6
CONTINUOUS
 90
7
 70
0
 10
-2.373207272
 20
-89.1629310749
 10
-2.3730111421
 20
-89.1629101752
 10
-2.3720093537
 20
-89.1628100503
 10
-2.3702946159
 20
-89.1626534689
 10
-2.3680866401
 20
-89.1624681677
 10
-2.3654229765
 20
-89.1622609481
 10
-2.3622434405
 20
-89.1620303087
  0
LINE
  5
27C
100
AcDbEntity
  8
0
100
AcDbLine
 62
7
  6
CONTINUOUS
 10
-1.6759165837
 20
-88.4364582385
 11
-1.5728728551
 21
-88.4255717755
  0
LINE
  5
27D
100
AcDbEntity
  8
0
100
AcDbLine
 62
7
  6
CONTINUOUS
 10
1.1447298289
 20
-88.1834326906
 11
1.3304104484
 21
-88.1641326662
  0
LINE
  5
27E
100
AcDbEntity
  8
0
100
AcDbLine
 62
7
  6
CONTINUOUS
 10
1.2753526081
 20
-87.7695056953
 11
1.1146741614
 21
-87.7861217536
  0
LINE
  5
27F
100
AcDbEntity
  8
0
100
AcDbLine
 62
7
  6
CONTINUOUS
 10
-1.5249653962
 20
-88.0200576204
 11
-1.6575787933
 21
-88.0336619569
  0
LINE
  5
280
100
AcDbEntity
  8
0
100
AcDbLine
 62
7
  6
CONTINUOUS
 10
-1.5728728551
 20
-88.4255717755
 11
-1.4043370131
 21
-88.4087322375
  0
LINE
  5
281
100
AcDbEntity
  8
0
100
AcDbLine
 62
7
  6
CONTINUOUS
 10
1.1146741614
 20
-87.7861217536
 11
0.9426274312
 21
-87.8030352714
  0
LINE
  5
282
100
AcDbEntity
  8
0
100
AcDbLine
 62
7
  6
CONTINUOUS
 10
0.9528562714
 20
-88.2022706846
 11
1.1447298289
 21
-88.1834326906
  0
LINE
  5
283
100
AcDbEntity
  8
0
100
AcDbLine
 62
7
  6
CONTINUOUS
 10
-1.3055412317
 20
-87.9988959608
 11
-1.5249653962
 21
-88.0200576204
  0
LINE
  5
284
100
AcDbEntity
  8
0
100
AcDbLine
 62
7
  6
CONTINUOUS
 10
-1.4043370131
 20
-88.4087322375
 11
-1.2192619975
 21
-88.391248487
  0
LINE
  5
285
100
AcDbEntity
  8
0
100
AcDbLine
 62
7
  6
CONTINUOUS
 10
0.9426274312
 20
-87.8030352714
 11
0.6628887842
 21
-87.8290931056
  0
LINE
  5
286
100
AcDbEntity
  8
0
100
AcDbLine
 62
7
  6
CONTINUOUS
 10
0.6583356402
 20
-88.2295979397
 11
0.9528562714
 21
-88.2022706846
  0
LINE
  5
287
100
AcDbEntity
  8
0
100
AcDbLine
 62
7
  6
CONTINUOUS
 10
-0.9756423372
 20
-87.9691381536
 11
-1.3055412317
 21
-87.9988959608
  0
LINE
  5
288
100
AcDbEntity
  8
0
100
AcDbLine
 62
7
  6
CONTINUOUS
 10
-1.2192619975
 20
-88.391248487
 11
-0.8724596714
 21
-88.3603130651
  0
LINE
  5
289
100
AcDbEntity
  8
0
100
AcDbLine
 62
7
  6
CONTINUOUS
 10
0.6628887842
 20
-87.8290931056
 11
0.251667168
 21
-87.8652423596
  0
LINE
  5
28A
100
AcDbEntity
  8
0
100
AcDbLine
 62
7
  6
CONTINUOUS
 10
0.1672767212
 20
-88.2724581469
 11
0.6583356402
 21
-88.2295979397
  0
LINE
  5
28B
100
AcDbEntity
  8
0
100
AcDbLine
 62
7
  6
CONTINUOUS
 10
-0.8724596714
 20
-88.3603130651
 11
0.1672767212
 21
-88.2724581469
  0
LINE
  5
28C
100
AcDbEntity
  8
0
100
AcDbLine
 62
7
  6
CONTINUOUS
 10
0.251667168
 20
-87.8652423596
 11
-0.9756423372
 21
-87.9691381536
  0
LWPOLYLINE
  5
28D
100
AcDbEntity
  8
0
100
AcDbPolyline
 62
7
  6
CONTINUOUS
 90
11
 70
0
 10
2.1585360346
 20
-89.024759186
 10
2.185311142
 20
-89.0226196834
 10
2.2106337406
 20
-89.0204718396
 10
2.2345140738
 20
-89.0183153068
 10
2.2569841608
 20
-89.0161477366
 10
2.2780804443
 20
-89.0139659661
 10
2.2978147078
 20
-89.0117691718
 10
2.3162454208
 20
-89.0095510964
 10
2.3335067089
 20
-89.0072939061
 10
2.3495957461
 20
-89.0049948636
 10
2.3646110962
 20
-89.0026357835
  0
LINE
  5
28E
100
AcDbEntity
  8
0
100
AcDbLine
 62
7
  6
CONTINUOUS
 10
2.1625833496
 20
-88.6236471016
 11
2.1158201807
 21
-88.6273127575
  0
LINE
  5
28F
100
AcDbEntity
  8
0
100
AcDbLine
 62
7
  6
CONTINUOUS
 10
2.1006814089
 20
-89.0290084232
 11
2.1585360346
 21
-89.024759186
  0
LWPOLYLINE
  5
290
100
AcDbEntity
  8
0
100
AcDbPolyline
 62
7
  6
CONTINUOUS
 90
24
 70
0
 10
-2.3820502005
 20
-88.7626914185
 10
-2.3868644359
 20
-88.7630329583
 10
-2.3914273297
 20
-88.7633798829
 10
-2.3957811898
 20
-88.7637367122
 10
-2.4000967772
 20
-88.7641209906
 10
-2.4042500537
 20
-88.7645262973
 10
-2.4083786363
 20
-88.7649716414
 10
-2.4130520739
 20
-88.7655380673
 10
-2.4180070351
 20
-88.7662263032
 10
-2.4235160621
 20
-88.7671165481
 10
-2.4310057328
 20
-88.7685677394
 10
-2.440912283
 20
-88.7709585269
 10
-2.4528152662
 20
-88.7745862285
 10
-2.4668534713
 20
-88.7799716755
 10
-2.483275953
 20
-88.7878649738
 10
-2.5013493813
 20
-88.7986843556
 10
-2.519671794
 20
-88.8122164686
 10
-2.5375235148
 20
-88.8283751911
 10
-2.5546373207
 20
-88.8474640078
 10
-2.5702608077
 20
-88.8694162988
 10
-2.5835904033
 20
-88.8941532483
 10
-2.5936367549
 20
-88.9214311662
 10
-2.5992398651
 20
-88.9507193076
 10
-2.599999999
 20
-88.9659450814
  0
LINE
  5
291
100
AcDbEntity
  8
0
100
AcDbLine
 62
7
  6
CONTINUOUS
 10
2.1158201807
 20
-88.6273127575
 11
2.0637157233
 21
-88.6310094198
  0
LINE
  5
292
100
AcDbEntity
  8
0
100
AcDbLine
 62
7
  6
CONTINUOUS
 10
2.0371154958
 20
-89.0332172882
 11
2.1006814089
 21
-89.0290084232
  0
LINE
  5
293
100
AcDbEntity
  8
0
100
AcDbLine
 62
7
  6
CONTINUOUS
 10
-2.3622434405
 20
-89.1620303087
 11
-2.3545635159
 21
-89.1615243977
  0
LINE
  5
294
100
AcDbEntity
  8
0
100
AcDbLine
 62
7
  6
CONTINUOUS
 10
2.0637157233
 20
-88.6310094198
 11
2.0067151695
 21
-88.6346983845
  0
LINE
  5
295
100
AcDbEntity
  8
0
100
AcDbLine
 62
7
  6
CONTINUOUS
 10
-2.3716793387
 20
-88.7620215614
 11
-2.3820502005
 21
-88.7626914185
  0
LINE
  5
296
100
AcDbEntity
  8
0
100
AcDbLine
 62
7
  6
CONTINUOUS
 10
1.9680510306
 20
-89.0373761662
 11
2.0371154958
 21
-89.0332172882
  0
LINE
  5
297
100
AcDbEntity
  8
0
100
AcDbLine
 62
7
  6
CONTINUOUS
 10
2.0067151695
 20
-88.6346983845
 11
1.9452149489
 21
-88.6383556391
  0
LINE
  5
298
100
AcDbEntity
  8
0
100
AcDbLine
 62
7
  6
CONTINUOUS
 10
-2.3545635159
 20
-89.1615243977
 11
-2.3450882829
 21
-89.1609664509
  0
LINE
  5
299
100
AcDbEntity
  8
0
100
AcDbLine
 62
7
  6
CONTINUOUS
 10
-2.3600850913
 20
-88.7613509286
 11
-2.3716793387
 21
-88.7620215614
  0
LINE
  5
29A
100
AcDbEntity
  8
0
100
AcDbLine
 62
7
  6
CONTINUOUS
 10
1.8938312176
 20
-89.0414727751
 11
1.9680510306
 21
-89.0373761662
  0
LINE
  5
29B
100
AcDbEntity
  8
0
100
AcDbLine
 62
7
  6
CONTINUOUS
 10
-2.3450882829
 20
-89.1609664509
 11
-2.3338575911
 21
-89.1603672246
  0
LINE
  5
29C
100
AcDbEntity
  8
0
100
AcDbLine
 62
7
  6
CONTINUOUS
 10
1.9452149489
 20
-88.6383556391
 11
1.8459935861
 21
-88.6437157512
  0
LINE
  5
29D
100
AcDbEntity
  8
0
100
AcDbLine
 62
7
  6
CONTINUOUS
 10
-2.3471465148
 20
-88.7606714394
 11
-2.3600850913
 21
-88.7613509286
  0
LINE
  5
29E
100
AcDbEntity
  8
0
100
AcDbLine
 62
7
  6
CONTINUOUS
 10
1.7736624219
 20
-89.0474813391
 11
1.8938312176
 21
-89.0414727751
  0
LINE
  5
29F
100
AcDbEntity
  8
0
100
AcDbLine
 62
7
  6
CONTINUOUS
 10
1.8459935861
 20
-88.6437157512
 11
1.7395182028
 21
-88.6489049885
  0
LINE
  5
2A0
100
AcDbEntity
  8
0
100
AcDbLine
 62
7
  6
CONTINUOUS
 10
-2.3338575911
 20
-89.1603672246
 11
-2.3136137873
 21
-89.1593978647
  0
LINE
  5
2A1
100
AcDbEntity
  8
0
100
AcDbLine
 62
7
  6
CONTINUOUS
 10
-2.3250042468
 20
-88.7596248409
 11
-2.3471465148
 21
-88.7606714394
  0
LINE
  5
2A2
100
AcDbEntity
  8
0
100
AcDbLine
 62
7
  6
CONTINUOUS
 10
1.5997560431
 20
-89.0551775172
 11
1.7736624219
 21
-89.0474813391
  0
LINE
  5
2A3
100
AcDbEntity
  8
0
100
AcDbLine
 62
7
  6
CONTINUOUS
 10
1.7395182028
 20
-88.6489049885
 11
1.5877415949
 21
-88.6555618669
  0
LINE
  5
2A4
100
AcDbEntity
  8
0
100
AcDbLine
 62
7
  6
CONTINUOUS
 10
-2.3136137873
 20
-89.1593978647
 11
-2.2799593948
 21
-89.1579811979
  0
LINE
  5
2A5
100
AcDbEntity
  8
0
100
AcDbLine
 62
7
  6
CONTINUOUS
 10
-2.2899643938
 20
-88.7581630668
 11
-2.3250042468
 21
-88.7596248409
  0
LINE
  5
2A6
100
AcDbEntity
  8
0
100
AcDbLine
 62
7
  6
CONTINUOUS
 10
1.5877415949
 20
-88.6555618669
 11
1.3849054565
 21
-88.6634755581
  0
LINE
  5
2A7
100
AcDbEntity
  8
0
100
AcDbLine
 62
7
  6
CONTINUOUS
 10
1.3675732329
 20
-89.0641752131
 11
1.5997560431
 21
-89.0551775172
  0
LINE
  5
2A8
100
AcDbEntity
  8
0
100
AcDbLine
 62
7
  6
CONTINUOUS
 10
-2.2799593948
 20
-89.1579811979
 11
-2.2263052955
 21
-89.156010778
  0
LINE
  5
2A9
100
AcDbEntity
  8
0
100
AcDbLine
 62
7
  6
CONTINUOUS
 10
-2.2366581313
 20
-88.7562127016
 11
-2.2899643938
 21
-88.7581630668
  0
LINE
  5
2AA
100
AcDbEntity
  8
0
100
AcDbLine
 62
7
  6
CONTINUOUS
 10
1.3849054565
 20
-88.6634755581
 11
1.0825313835
 21
-88.673835584
  0
LINE
  5
2AB
100
AcDbEntity
  8
0
100
AcDbLine
 62
7
  6
CONTINUOUS
 10
1.027532709
 20
-89.0756073193
 11
1.3675732329
 21
-89.0641752131
  0
LINE
  5
2AC
100
AcDbEntity
  8
0
100
AcDbLine
 62
7
  6
CONTINUOUS
 10
-2.1430114825
 20
-88.7532263464
 11
-2.2366581313
 21
-88.7562127016
  0
LINE
  5
2AD
100
AcDbEntity
  8
0
100
AcDbLine
 62
7
  6
CONTINUOUS
 10
-2.2263052955
 20
-89.156010778
 11
-2.1275408238
 21
-89.1528712554
  0
LINE
  5
2AE
100
AcDbEntity
  8
0
100
AcDbLine
 62
7
  6
CONTINUOUS
 10
1.0825313835
 20
-88.673835584
 11
0.5822659668
 21
-88.6885648525
  0
LINE
  5
2AF
100
AcDbEntity
  8
0
100
AcDbLine
 62
7
  6
CONTINUOUS
 10
0.479721736
 20
-89.0913291234
 11
1.027532709
 21
-89.0756073193
  0
LINE
  5
2B0
100
AcDbEntity
  8
0
100
AcDbLine
 62
7
  6
CONTINUOUS
 10
-1.9238387323
 20
-88.7472554098
 11
-2.1430114825
 21
-88.7532263464
  0
LINE
  5
2B1
100
AcDbEntity
  8
0
100
AcDbLine
 62
7
  6
CONTINUOUS
 10
-2.1275408238
 20
-89.1528712554
 11
-1.8886507204
 21
-89.1464287042
  0
LINE
  5
2B2
100
AcDbEntity
  8
0
100
AcDbLine
 62
7
  6
CONTINUOUS
 10
0.5822659668
 20
-88.6885648525
 11
-0.4145953223
 21
-88.7131259634
  0
LINE
  5
2B3
100
AcDbEntity
  8
0
100
AcDbLine
 62
7
  6
CONTINUOUS
 10
-1.8886507204
 20
-89.1464287042
 11
0.479721736
 21
-89.0913291234
  0
LINE
  5
2B4
100
AcDbEntity
  8
0
100
AcDbLine
 62
7
  6
CONTINUOUS
 10
-0.4145953223
 20
-88.7131259634
 11
-1.9238387323
 21
-88.7472554098
  0
LINE
  5
2B5
100
AcDbEntity
  8
RACCORDO
100
AcDbLine
 62
7
  6
CONTINUOUS
 10
-24.9743402258
 20
-83.880716729
 11
-24.8007691064
 21
-83.8766983326
  0
LINE
  5
2B6
100
AcDbEntity
  8
RACCORDO
100
AcDbLine
 62
7
  6
CONTINUOUS
 10
-25.3071844833
 20
-83.8868296567
 11
-24.9743402258
 21
-83.880716729
  0
LINE
  5
2B7
100
AcDbEntity
  8
RACCORDO
100
AcDbLine
 62
7
  6
CONTINUOUS
 10
-25.9877406162
 20
-83.895962598
 11
-25.3071844833
 21
-83.8868296567
  0
LINE
  5
2B8
100
AcDbEntity
  8
RACCORDO
100
AcDbLine
 62
7
  6
CONTINUOUS
 10
-27.3893361026
 20
-83.9081084084
 11
-25.9877406162
 21
-83.895962598
  0
LINE
  5
2B9
100
AcDbEntity
  8
RACCORDO
100
AcDbLine
 62
7
  6
CONTINUOUS
 10
-30.2559655022
 20
-83.9199337924
 11
-27.3893361026
 21
-83.9081084084
  0
LINE
  5
2BA
100
AcDbEntity
  8
SMUSSO
100
AcDbLine
 62
7
  6
CONTINUOUS
 10
2.0220982589
 20
-87.6707361408
 11
-2.35
 21
-87.6707361408
  0
LINE
  5
2BB
100
AcDbEntity
  8
SMUSSO
100
AcDbLine
 62
7
  6
CONTINUOUS
 10
3.35
 20
-87.1707361408
 11
-3.35
 21
-87.1707361408
  0
LINE
  5
2BC
100
AcDbEntity
  8
0
100
AcDbLine
 62
7
  6
CONTINUOUS
 10
-3.35
 20
-85.6707361408
 11
3.35
 21
-85.6707361408
  0
LINE
  5
2BD
100
AcDbEntity
  8
RACCORDO
100
AcDbLine
 62
250
  6
CONTINUOUS
 10
-1.649651543
 20
-85.4710852065
 11
1.649651543
 21
-85.4710852065
  0
LINE
  5
2BE
100
AcDbEntity
  8
RACCORDO
100
AcDbLine
 62
7
  6
CONTINUOUS
 10
-24.0352021281
 20
-83.7707361408
 11
-25.6363014755
 21
-83.7707361408
  0
LINE
  5
2BF
100
AcDbEntity
  8
RACCORDO
100
AcDbLine
 62
7
  6
CONTINUOUS
 10
-38.3636985245
 20
-83.7707361408
 11
-39.9647978719
 21
-83.7707361408
  0
LINE
  5
2C0
100
AcDbEntity
  8
RACCORDO
100
AcDbLine
 62
7
  6
CONTINUOUS
 10
-33.9653648004
 20
-83.9194478067
 11
-30.2559655022
 21
-83.9199337924
  0
LINE
  5
2C1
100
AcDbEntity
  8
RACCORDO
100
AcDbLine
 62
7
  6
CONTINUOUS
 10
-36.7062705153
 20
-83.907461402
 11
-33.9653648004
 21
-83.9194478067
  0
LINE
  5
2C2
100
AcDbEntity
  8
RACCORDO
100
AcDbLine
 62
7
  6
CONTINUOUS
 10
-38.005139764
 20
-83.8960427396
 11
-36.7062705153
 21
-83.907461402
  0
LINE
  5
2C3
100
AcDbEntity
  8
RACCORDO
100
AcDbLine
 62
7
  6
CONTINUOUS
 10
-38.6468073792
 20
-83.8875632208
 11
-38.005139764
 21
-83.8960427396
  0
LINE
  5
2C4
100
AcDbEntity
  8
RACCORDO
100
AcDbLine
 62
7
  6
CONTINUOUS
 10
-38.9701998219
 20
-83.881855081
 11
-38.6468073792
 21
-83.8875632208
  0
LINE
  5
2C5
100
AcDbEntity
  8
RACCORDO
100
AcDbLine
 62
7
  6
CONTINUOUS
 10
-39.1816481146
 20
-83.8771436809
 11
-38.9701998219
 21
-83.881855081
  0
LINE
  5
2C6
100
AcDbEntity
  8
0
100
AcDbLine
 62
7
  6
CONTINUOUS
 10
-2.3426443163
 20
-89.1702308026
 11
-2.3265252627
 21
-89.1706870516
  0
LINE
  5
2C7
100
AcDbEntity
  8
RACCORDO
100
AcDbLine
 62
7
  6
CONTINUOUS
 10
-39.3160703429
 20
-83.8734336106
 11
-39.1816481146
 21
-83.8771436809
  0
LINE
  5
2C8
100
AcDbEntity
  8
0
100
AcDbLine
 62
7
  6
CONTINUOUS
 10
-2.354710993
 20
-89.1698380407
 11
-2.3426443163
 21
-89.1702308026
  0
LINE
  5
2C9
100
AcDbEntity
  8
RACCORDO
100
AcDbLine
 62
7
  6
CONTINUOUS
 10
-39.398286404
 20
-83.8706934685
 11
-39.3160703429
 21
-83.8734336106
  0
LINE
  5
2CA
100
AcDbEntity
  8
0
100
AcDbLine
 62
7
  6
CONTINUOUS
 10
-2.3661544601
 20
-89.1694101673
 11
-2.354710993
 21
-89.1698380407
  0
LINE
  5
2CB
100
AcDbEntity
  8
RACCORDO
100
AcDbLine
 62
7
  6
CONTINUOUS
 10
-39.444857497
 20
-83.8688877557
 11
-39.398286404
 21
-83.8706934685
  0
LINE
  5
2CC
100
AcDbEntity
  8
RACCORDO
100
AcDbLine
 62
7
  6
CONTINUOUS
 10
-39.4852367586
 20
-83.8670979546
 11
-39.444857497
 21
-83.8688877557
  0
LINE
  5
2CD
100
AcDbEntity
  8
0
100
AcDbLine
 62
7
  6
CONTINUOUS
 10
1.3125486595
 20
-88.4796783819
 11
-0.3695755143
 21
-88.3879957441
  0
LWPOLYLINE
  5
2CE
100
AcDbEntity
  8
0
100
AcDbPolyline
 62
7
  6
CONTINUOUS
 90
3
 70
0
 10
-0.3695755143
 20
-88.3879957441
 10
-0.8198547621
 20
-88.3616242975
 10
-0.8593672585
 20
-88.3591818541
  0
LINE
  5
2CF
100
AcDbEntity
  8
0
100
AcDbLine
 62
7
  6
CONTINUOUS
 10
1.5917014362
 20
-88.4964681339
 11
1.3125486595
 21
-88.4796783819
  0
LINE
  5
2D0
100
AcDbEntity
  8
0
100
AcDbLine
 62
7
  6
CONTINUOUS
 10
1.7837471673
 20
-88.5090400975
 11
1.5917014362
 21
-88.4964681339
  0
LINE
  5
2D1
100
AcDbEntity
  8
0
100
AcDbLine
 62
7
  6
CONTINUOUS
 10
1.9112507606
 20
-88.5181232764
 11
1.7837471673
 21
-88.5090400975
  0
LINE
  5
2D2
100
AcDbEntity
  8
0
100
AcDbLine
 62
7
  6
CONTINUOUS
 10
-1.4776062652
 20
-88.7172692298
 11
-1.2733591676
 21
-88.7321760913
  0
LINE
  5
2D3
100
AcDbEntity
  8
0
100
AcDbLine
 62
7
  6
CONTINUOUS
 10
1.9882989382
 20
-88.5240245885
 11
1.9112507606
 21
-88.5181232764
  0
LINE
  5
2D4
100
AcDbEntity
  8
0
100
AcDbLine
 62
7
  6
CONTINUOUS
 10
-1.606885034
 20
-88.707055625
 11
-1.4776062652
 21
-88.7172692298
  0
LINE
  5
2D5
100
AcDbEntity
  8
0
100
AcDbLine
 62
7
  6
CONTINUOUS
 10
2.0588746803
 20
-88.5298012211
 11
1.9882989382
 21
-88.5240245885
  0
LINE
  5
2D6
100
AcDbEntity
  8
0
100
AcDbLine
 62
7
  6
CONTINUOUS
 10
-1.7270497253
 20
-88.696851386
 11
-1.606885034
 21
-88.707055625
  0
LINE
  5
2D7
100
AcDbEntity
  8
0
100
AcDbLine
 62
7
  6
CONTINUOUS
 10
2.1229851871
 20
-88.5354565841
 11
2.0588746803
 21
-88.5298012211
  0
LINE
  5
2D8
100
AcDbEntity
  8
0
100
AcDbLine
 62
7
  6
CONTINUOUS
 10
1.1346237273
 20
-87.6707361408
 11
1.2720836596
 21
-87.6881679254
  0
LWPOLYLINE
  5
2D9
100
AcDbEntity
  8
0
100
AcDbPolyline
 62
7
  6
CONTINUOUS
 90
7
 70
0
 10
2.2981921619
 20
-88.554456748
 10
2.2776036378
 20
-88.5517930427
 10
2.2555856617
 20
-88.5491184856
 10
2.2321390566
 20
-88.5464326579
 10
2.2071835378
 20
-88.5437261659
 10
2.1806829971
 20
-88.5409954911
 10
2.1229851871
 20
-88.5354565841
  0
LINE
  5
2DA
100
AcDbEntity
  8
0
100
AcDbLine
 62
7
  6
CONTINUOUS
 10
1.2720836596
 20
-87.6881679254
 11
1.434107635
 21
-87.7096244644
  0
LWPOLYLINE
  5
2DB
100
AcDbEntity
  8
0
100
AcDbPolyline
 62
7
  6
CONTINUOUS
 90
3
 70
0
 10
1.434107635
 20
-87.7096244644
 10
1.5838073814
 20
-87.7305799075
 10
1.598017081
 20
-87.7326673312
  0
LINE
  5
2DC
100
AcDbEntity
  8
0
100
AcDbLine
 62
7
  6
CONTINUOUS
 10
1.7314457453
 20
-85.4353544951
 11
1.6495630693
 21
-85.4203935496
  0
LWPOLYLINE
  5
2DD
100
AcDbEntity
  8
0
100
AcDbPolyline
 62
7
  6
CONTINUOUS
 90
6
 70
0
 10
-1.6487208942
 20
-84.9378632569
 10
-1.6804357417
 20
-84.9320348085
 10
-1.7699427771
 20
-84.9146193989
 10
-1.8525394752
 20
-84.8975024559
 10
-1.9284098311
 20
-84.8806409745
 10
-1.9297726933
 20
-84.8803136088
  0
LINE
  5
2DE
100
AcDbEntity
  8
RACCORDO
100
AcDbLine
 62
250
  6
CONTINUOUS
 10
-37.7960176018
 20
-83.6573191726
 11
-38.1636258157
 21
-83.5707931928
  0
LINE
  5
2DF
100
AcDbEntity
  8
DRAFT
100
AcDbLine
 62
7
  6
CONTINUOUS
 10
-40.8790555173
 20
-78.3916806235
 11
-40.9
 21
-78.3707361408
  0
LWPOLYLINE
  5
2E0
100
AcDbEntity
  8
0
100
AcDbPolyline
 62
7
  6
CONTINUOUS
 90
3
 70
0
 10
-1.1716463702
 20
-82.7430234928
 10
-0.9512078904
 20
-82.7102287422
 10
-0.9192656067
 20
-82.7056462707
  0
LWPOLYLINE
  5
2E1
100
AcDbEntity
  8
RACCORDO
100
AcDbPolyline
 62
7
  6
CONTINUOUS
 90
12
 70
0
 10
-24.4935582334
 20
-83.8660411009
 10
-24.476206896
 20
-83.8650953535
 10
-24.4602207999
 20
-83.8641410478
 10
-24.4456040006
 20
-83.8631784018
 10
-24.4322495616
 20
-83.8622000059
 10
-24.4197875223
 20
-83.8611731544
 10
-24.4086760119
 20
-83.8601316963
 10
-24.3983168932
 20
-83.8590143205
 10
-24.3867299917
 20
-83.8575362788
 10
-24.3732265836
 20
-83.8553763667
 10
-24.358435174
 20
-83.8522823668
 10
-24.3561934236
 20
-83.8517347973
  0
LINE
  5
2E2
100
AcDbEntity
  8
RACCORDO
100
AcDbLine
 62
7
  6
CONTINUOUS
 10
-24.5329992108
 20
-83.8679375806
 11
-24.4935582334
 21
-83.8660411009
  0
LINE
  5
2E3
100
AcDbEntity
  8
RACCORDO
100
AcDbLine
 62
7
  6
CONTINUOUS
 10
-24.5791618879
 20
-83.8698477122
 11
-24.5329992108
 21
-83.8679375806
  0
LINE
  5
2E4
100
AcDbEntity
  8
RACCORDO
100
AcDbLine
 62
7
  6
CONTINUOUS
 10
-24.6325906398
 20
-83.8717788188
 11
-24.5791618879
 21
-83.8698477122
  0
LINE
  5
2E5
100
AcDbEntity
  8
RACCORDO
100
AcDbLine
 62
7
  6
CONTINUOUS
 10
-24.7273001678
 20
-83.8747152747
 11
-24.6325906398
 21
-83.8717788188
  0
LINE
  5
2E6
100
AcDbEntity
  8
RACCORDO
100
AcDbLine
 62
7
  6
CONTINUOUS
 10
-24.8007691064
 20
-83.8766983326
 11
-24.7273001678
 21
-83.8747152747
  0
LWPOLYLINE
  5
2E7
100
AcDbEntity
  8
RACCORDO
100
AcDbPolyline
 62
7
  6
CONTINUOUS
 90
23
 70
0
 10
48.7960134483
 20
-82.6562603714
 10
48.8005221222
 20
-82.6562357846
 10
48.8302151642
 20
-82.6547991398
 10
48.8597073237
 20
-82.6511621687
 10
48.8888487939
 20
-82.6453476459
 10
48.917481939
 20
-82.6373803119
 10
48.9454495418
 20
-82.6273053491
 10
48.972602035
 20
-82.6151778148
 10
48.9987828014
 20
-82.6010561771
 10
49.0238449591
 20
-82.5850186893
 10
49.0476551358
 20
-82.5671533117
 10
49.0700755697
 20
-82.5475513364
 10
49.0909782663
 20
-82.5263227396
 10
49.110248223
 20
-82.5035886006
 10
49.1277699878
 20
-82.4794726447
 10
49.1434452035
 20
-82.454108939
 10
49.157190985
 20
-82.4276393415
 10
49.1689232981
 20
-82.4002098324
 10
49.1785761975
 20
-82.371973931
 10
49.186101996
 20
-82.3430890656
 10
49.191452396
 20
-82.3137174214
 10
49.1945957866
 20
-82.2840204706
 10
49.1955264987
 20
-82.2567495931
  0
LINE
  5
2E8
100
AcDbEntity
  8
RACCORDO
100
AcDbLine
 62
7
  6
CONTINUOUS
 10
48.8838308554
 20
-82.7056462707
 11
-23.708885885
 21
-82.7056462707
  0
LINE
  5
2E9
100
AcDbEntity
  8
RACCORDO
100
AcDbLine
 62
7
  6
CONTINUOUS
 10
-40.291114115
 20
-82.7056462707
 11
-48.8838308554
 21
-82.7056462707
  0
LINE
  5
2EA
100
AcDbEntity
  8
RACCORDO
100
AcDbLine
 62
7
  6
CONTINUOUS
 10
49.225705081
 20
-82.6707361408
 11
49.0678989179
 21
-82.6707361408
  0
LINE
  5
2EB
100
AcDbEntity
  8
RACCORDO
100
AcDbLine
 62
7
  6
CONTINUOUS
 10
48.7088535284
 20
-82.6707361408
 11
-23.6347331672
 21
-82.6707361408
  0
LINE
  5
2EC
100
AcDbEntity
  8
RACCORDO
100
AcDbLine
 62
7
  6
CONTINUOUS
 10
-40.3652668328
 20
-82.6707361408
 11
-48.7088535284
 21
-82.6707361408
  0
LINE
  5
2ED
100
AcDbEntity
  8
RACCORDO
100
AcDbLine
 62
7
  6
CONTINUOUS
 10
-49.0678989179
 20
-82.6707361408
 11
-49.2257055609
 21
-82.6707361408
  0
LINE
  5
2EE
100
AcDbEntity
  8
RACCORDO
100
AcDbLine
 62
7
  6
CONTINUOUS
 10
48.7960134479
 20
-82.6562623988
 11
-48.7960134492
 21
-82.6562623988
  0
LINE
  5
2EF
100
AcDbEntity
  8
RACCORDO
100
AcDbLine
 62
250
  6
CONTINUOUS
 10
49.6256042279
 20
-82.2777171034
 11
49.3797073153
 21
-82.2777171034
  0
LINE
  5
2F0
100
AcDbEntity
  8
RACCORDO
100
AcDbLine
 62
250
  6
CONTINUOUS
 10
-49.3797073153
 20
-82.2777171034
 11
-49.6256042279
 21
-82.2777171034
  0
LINE
  5
2F1
100
AcDbEntity
  8
RACCORDO
100
AcDbLine
 62
250
  6
CONTINUOUS
 10
-49.195526258
 20
-82.2567495888
 11
-49.195039068
 21
-82.2567495888
  0
LINE
  5
2F2
100
AcDbEntity
  8
RACCORDO
100
AcDbLine
 62
250
  6
CONTINUOUS
 10
49.195526258
 20
-82.2567495932
 11
49.195039068
 21
-82.2567495888
  0
LINE
  5
2F3
100
AcDbEntity
  8
RACCORDO
100
AcDbLine
 62
250
  6
CONTINUOUS
 10
44.4869789259
 20
-81.7037949969
 11
-44.4869789259
 21
-81.7037949969
  0
LINE
  5
2F4
100
AcDbEntity
  8
RACCORDO
100
AcDbLine
 62
250
  6
CONTINUOUS
 10
44.4869789259
 20
-81.3047693768
 11
-44.4869789259
 21
-81.3047693768
  0
LINE
  5
2F5
100
AcDbEntity
  8
DRAFT
100
AcDbLine
 62
7
  6
CONTINUOUS
 10
-49.6430855729
 20
-81.2707361408
 11
-49.3849773304
 21
-81.2707361408
  0
LINE
  5
2F6
100
AcDbEntity
  8
ASSI
100
AcDbLine
 62
7
  6
CONTINUOUS
 10
-49.6207285688
 20
-81.2707361408
 11
-49.3849773304
 21
-81.2707361408
  0
LINE
  5
2F7
100
AcDbEntity
  8
DRAFT
100
AcDbLine
 62
7
  6
CONTINUOUS
 10
49.3849773304
 20
-81.2707361408
 11
49.6430855729
 21
-81.2707361408
  0
LINE
  5
2F8
100
AcDbEntity
  8
CURVE
100
AcDbLine
 62
7
  6
CONTINUOUS
 10
-49.3849773304
 20
-81.2707361408
 11
-49.6431149694
 21
-81.2707361408
  0
LINE
  5
2F9
100
AcDbEntity
  8
CURVE
100
AcDbLine
 62
7
  6
CONTINUOUS
 10
49.3849773304
 20
-81.2707361408
 11
49.6431149694
 21
-81.2707361408
  0
LINE
  5
2FA
100
AcDbEntity
  8
ASSI
100
AcDbLine
 62
7
  6
CONTINUOUS
 10
49.3849773304
 20
-81.2707361408
 11
49.6207285688
 21
-81.2707361408
  0
LINE
  5
2FB
100
AcDbEntity
  8
DRAFT
100
AcDbLine
 62
7
  6
CONTINUOUS
 10
40.9
 20
-81.1707361408
 11
38.9
 21
-81.1707361408
  0
LINE
  5
2FC
100
AcDbEntity
  8
DRAFT
100
AcDbLine
 62
7
  6
CONTINUOUS
 10
27.6
 20
-81.1707361408
 11
25.6
 21
-81.1707361408
  0
LINE
  5
2FD
100
AcDbEntity
  8
DRAFT
100
AcDbLine
 62
7
  6
CONTINUOUS
 10
14.3
 20
-81.1707361408
 11
12.3
 21
-81.1707361408
  0
LINE
  5
2FE
100
AcDbEntity
  8
DRAFT
100
AcDbLine
 62
7
  6
CONTINUOUS
 10
1.0
 20
-81.1707361408
 11
-1.0
 21
-81.1707361408
  0
LINE
  5
2FF
100
AcDbEntity
  8
DRAFT
100
AcDbLine
 62
7
  6
CONTINUOUS
 10
-12.3
 20
-81.1707361408
 11
-14.3
 21
-81.1707361408
  0
LINE
  5
300
100
AcDbEntity
  8
DRAFT
100
AcDbLine
 62
7
  6
CONTINUOUS
 10
-25.6
 20
-81.1707361408
 11
-27.6
 21
-81.1707361408
  0
LINE
  5
301
100
AcDbEntity
  8
DRAFT
100
AcDbLine
 62
7
  6
CONTINUOUS
 10
-38.9
 20
-81.1707361408
 11
-40.9
 21
-81.1707361408
  0
LINE
  5
302
100
AcDbEntity
  8
DRAFT
100
AcDbLine
 62
7
  6
CONTINUOUS
 10
40.8928977068
 20
-80.3568939513
 11
38.9071022932
 21
-80.3568939513
  0
LINE
  5
303
100
AcDbEntity
  8
DRAFT
100
AcDbLine
 62
7
  6
CONTINUOUS
 10
27.5928977068
 20
-80.3568939513
 11
25.6071022932
 21
-80.3568939513
  0
LINE
  5
304
100
AcDbEntity
  8
DRAFT
100
AcDbLine
 62
7
  6
CONTINUOUS
 10
14.2928977068
 20
-80.3568939513
 11
12.3071022932
 21
-80.3568939513
  0
LINE
  5
305
100
AcDbEntity
  8
DRAFT
100
AcDbLine
 62
7
  6
CONTINUOUS
 10
0.9928977068
 20
-80.3568939513
 11
-0.9928977068
 21
-80.3568939513
  0
LINE
  5
306
100
AcDbEntity
  8
DRAFT
100
AcDbLine
 62
7
  6
CONTINUOUS
 10
-12.3071022932
 20
-80.3568939513
 11
-14.2928977068
 21
-80.3568939513
  0
LINE
  5
307
100
AcDbEntity
  8
DRAFT
100
AcDbLine
 62
7
  6
CONTINUOUS
 10
-25.6071022932
 20
-80.3568939513
 11
-27.5928977068
 21
-80.3568939513
  0
LINE
  5
308
100
AcDbEntity
  8
DRAFT
100
AcDbLine
 62
7
  6
CONTINUOUS
 10
-38.9071022932
 20
-80.3568939513
 11
-40.8928977068
 21
-80.3568939513
  0
LINE
  5
309
100
AcDbEntity
  8
DRAFT
100
AcDbLine
 62
7
  6
CONTINUOUS
 10
40.8734511734
 20
-80.3126410642
 11
38.9265488266
 21
-80.3126410642
  0
LINE
  5
30A
100
AcDbEntity
  8
DRAFT
100
AcDbLine
 62
7
  6
CONTINUOUS
 10
27.5734511734
 20
-80.3126410642
 11
25.6265488266
 21
-80.3126410642
  0
LINE
  5
30B
100
AcDbEntity
  8
DRAFT
100
AcDbLine
 62
7
  6
CONTINUOUS
 10
14.2734511734
 20
-80.3126410642
 11
12.3265488266
 21
-80.3126410642
  0
LINE
  5
30C
100
AcDbEntity
  8
DRAFT
100
AcDbLine
 62
7
  6
CONTINUOUS
 10
0.9734511734
 20
-80.3126410642
 11
-0.9734511734
 21
-80.3126410642
  0
LINE
  5
30D
100
AcDbEntity
  8
DRAFT
100
AcDbLine
 62
7
  6
CONTINUOUS
 10
-12.3265488266
 20
-80.3126410642
 11
-14.2734511734
 21
-80.3126410642
  0
LINE
  5
30E
100
AcDbEntity
  8
DRAFT
100
AcDbLine
 62
7
  6
CONTINUOUS
 10
-25.6265488266
 20
-80.3126410642
 11
-27.5734511734
 21
-80.3126410642
  0
LINE
  5
30F
100
AcDbEntity
  8
DRAFT
100
AcDbLine
 62
7
  6
CONTINUOUS
 10
-38.9265488266
 20
-80.3126410642
 11
-40.8734511734
 21
-80.3126410642
  0
LINE
  5
310
100
AcDbEntity
  8
DRAFT
100
AcDbLine
 62
7
  6
CONTINUOUS
 10
40.874281441
 20
-80.2707361408
 11
38.925718559
 21
-80.2707361408
  0
LINE
  5
311
100
AcDbEntity
  8
DRAFT
100
AcDbLine
 62
7
  6
CONTINUOUS
 10
27.574281441
 20
-80.2707361408
 11
25.625718559
 21
-80.2707361408
  0
LINE
  5
312
100
AcDbEntity
  8
DRAFT
100
AcDbLine
 62
7
  6
CONTINUOUS
 10
14.274281441
 20
-80.2707361408
 11
12.325718559
 21
-80.2707361408
  0
LINE
  5
313
100
AcDbEntity
  8
DRAFT
100
AcDbLine
 62
7
  6
CONTINUOUS
 10
0.974281441
 20
-80.2707361408
 11
-0.974281441
 21
-80.2707361408
  0
LINE
  5
314
100
AcDbEntity
  8
DRAFT
100
AcDbLine
 62
7
  6
CONTINUOUS
 10
-12.325718559
 20
-80.2707361408
 11
-14.274281441
 21
-80.2707361408
  0
LINE
  5
315
100
AcDbEntity
  8
DRAFT
100
AcDbLine
 62
7
  6
CONTINUOUS
 10
-25.625718559
 20
-80.2707361408
 11
-27.574281441
 21
-80.2707361408
  0
LINE
  5
316
100
AcDbEntity
  8
DRAFT
100
AcDbLine
 62
7
  6
CONTINUOUS
 10
-38.925718559
 20
-80.2707361408
 11
-40.874281441
 21
-80.2707361408
  0
LINE
  5
317
100
AcDbEntity
  8
DRAFT
100
AcDbLine
 62
7
  6
CONTINUOUS
 10
-40.8790555173
 20
-78.3916806235
 11
-38.9209444827
 21
-78.3916806235
  0
LINE
  5
318
100
AcDbEntity
  8
DRAFT
100
AcDbLine
 62
7
  6
CONTINUOUS
 10
-27.5790555173
 20
-78.3916806235
 11
-25.6209444827
 21
-78.3916806235
  0
LINE
  5
319
100
AcDbEntity
  8
DRAFT
100
AcDbLine
 62
7
  6
CONTINUOUS
 10
-14.2790555173
 20
-78.3916806235
 11
-12.3209444827
 21
-78.3916806235
  0
LINE
  5
31A
100
AcDbEntity
  8
DRAFT
100
AcDbLine
 62
7
  6
CONTINUOUS
 10
-0.9790555173
 20
-78.3916806235
 11
0.9790555173
 21
-78.3916806235
  0
LINE
  5
31B
100
AcDbEntity
  8
DRAFT
100
AcDbLine
 62
7
  6
CONTINUOUS
 10
12.3209444827
 20
-78.3916806235
 11
14.2790555173
 21
-78.3916806235
  0
LINE
  5
31C
100
AcDbEntity
  8
DRAFT
100
AcDbLine
 62
7
  6
CONTINUOUS
 10
25.6209444827
 20
-78.3916806235
 11
27.5790555173
 21
-78.3916806235
  0
LINE
  5
31D
100
AcDbEntity
  8
DRAFT
100
AcDbLine
 62
7
  6
CONTINUOUS
 10
38.9209444827
 20
-78.3916806235
 11
40.8790555173
 21
-78.3916806235
  0
LINE
  5
31E
100
AcDbEntity
  8
DRAFT
100
AcDbLine
 62
7
  6
CONTINUOUS
 10
-40.9
 20
-78.3707361408
 11
-38.9
 21
-78.3707361408
  0
LINE
  5
31F
100
AcDbEntity
  8
DRAFT
100
AcDbLine
 62
7
  6
CONTINUOUS
 10
-27.6
 20
-78.3707361408
 11
-25.6
 21
-78.3707361408
  0
LINE
  5
320
100
AcDbEntity
  8
DRAFT
100
AcDbLine
 62
7
  6
CONTINUOUS
 10
-14.3
 20
-78.3707361408
 11
-12.3
 21
-78.3707361408
  0
LINE
  5
321
100
AcDbEntity
  8
DRAFT
100
AcDbLine
 62
7
  6
CONTINUOUS
 10
-1.0
 20
-78.3707361408
 11
1.0
 21
-78.3707361408
  0
LINE
  5
322
100
AcDbEntity
  8
DRAFT
100
AcDbLine
 62
7
  6
CONTINUOUS
 10
12.3
 20
-78.3707361408
 11
14.3
 21
-78.3707361408
  0
LINE
  5
323
100
AcDbEntity
  8
DRAFT
100
AcDbLine
 62
7
  6
CONTINUOUS
 10
25.6
 20
-78.3707361408
 11
27.6
 21
-78.3707361408
  0
LINE
  5
324
100
AcDbEntity
  8
DRAFT
100
AcDbLine
 62
7
  6
CONTINUOUS
 10
38.9
 20
-78.3707361408
 11
40.9
 21
-78.3707361408
  0
LWPOLYLINE
  5
325
100
AcDbEntity
  8
0
100
AcDbPolyline
 62
7
  6
CONTINUOUS
 90
5
 70
0
 10
-1.6452313909
 20
-82.9385271656
 10
-1.7104545436
 20
-82.9263088846
 10
-1.7946783287
 20
-82.9096103445
 10
-1.8723573391
 20
-82.8932154656
 10
-1.9297087567
 20
-82.880247143
  0
LWPOLYLINE
  5
326
100
AcDbEntity
  8
0
100
AcDbPolyline
 62
7
  6
CONTINUOUS
 90
5
 70
0
 10
1.6467737134
 20
-83.8222119439
 10
1.7274712204
 20
-83.8375064024
 10
1.8073716752
 20
-83.8535171002
 10
1.8811920867
 20
-83.8692408144
 10
1.9294418913
 20
-83.8802293793
  0
LINE
  5
327
100
AcDbEntity
  8
SMUSSO
100
AcDbLine
 62
7
  6
CONTINUOUS
 10
-2.3499999988
 20
-87.6707361414
 11
-3.3499999983
 21
-87.1707361417
  0
LINE
  5
328
100
AcDbEntity
  8
RACCORDO
100
AcDbLine
 62
7
  6
CONTINUOUS
 10
-24.3593954295
 20
-83.8525164132
 11
-24.3561934236
 21
-83.8517347973
  0
LINE
  5
329
100
AcDbEntity
  8
RACCORDO
100
AcDbLine
 62
7
  6
CONTINUOUS
 10
-24.3593954295
 20
-83.8525164132
 11
-23.9893145331
 21
-83.7654084244
  0
LINE
  5
32A
100
AcDbEntity
  8
RACCORDO
100
AcDbLine
 62
250
  6
CONTINUOUS
 10
-24.4052183149
 20
-83.8578288986
 11
-24.0352021281
 21
-83.7707361408
  0
LINE
  5
32B
100
AcDbEntity
  8
RACCORDO
100
AcDbLine
 62
250
  6
CONTINUOUS
 10
-25.6363014755
 20
-83.7707361408
 11
-26.0041197223
 21
-83.8573115572
  0
LINE
  5
32C
100
AcDbEntity
  8
RACCORDO
100
AcDbLine
 62
250
  6
CONTINUOUS
 10
-25.8363741843
 20
-83.5707931928
 11
-26.2039823982
 21
-83.6573191726
  0
LINE
  5
32D
100
AcDbEntity
  8
RACCORDO
100
AcDbLine
 62
250
  6
CONTINUOUS
 10
-48.7088535284
 20
-82.6707361408
 11
-48.8838308554
 21
-82.7056462707
  0
LINE
  5
32E
100
AcDbEntity
  8
RACCORDO
100
AcDbLine
 62
250
  6
CONTINUOUS
 10
-49.2100000033
 20
-82.1714206314
 11
-49.3849773304
 21
-82.2063307612
  0
LWPOLYLINE
  5
32F
100
AcDbEntity
  8
0
100
AcDbPolyline
 62
7
  6
CONTINUOUS
 90
5
 70
0
 10
-1.5446050469
 20
-72.8284899236
 10
-1.4933361637
 20
-72.8204735481
 10
-1.3956216602
 20
-72.8058872497
 10
-1.2928317736
 20
-72.7911823484
 10
-1.1856280466
 20
-72.7764298319
  0
LINE
  5
330
100
AcDbEntity
  8
0
100
AcDbLine
 62
7
  6
CONTINUOUS
 10
1.6726954107
 20
-72.0332484908
 11
1.63844206
 21
-72.038298566
  0
LINE
  5
331
100
AcDbEntity
  8
0
100
AcDbLine
 62
7
  6
CONTINUOUS
 10
1.5845493336
 20
-72.4473017861
 11
1.6572435989
 21
-72.437052319
  0
LWPOLYLINE
  5
332
100
AcDbEntity
  8
0
100
AcDbPolyline
 62
7
  6
CONTINUOUS
 90
6
 70
0
 10
-1.2481123019
 20
-72.3841904979
 10
-1.3509761263
 20
-72.3984521125
 10
-1.4523590595
 20
-72.4130513973
 10
-1.5520155468
 20
-72.4280259626
 10
-1.6492676382
 20
-72.4433539287
 10
-1.6561533639
 20
-72.4444987811
  0
LINE
  5
333
100
AcDbEntity
  8
0
100
AcDbLine
 62
7
  6
CONTINUOUS
 10
1.63844206
 20
-72.038298566
 11
1.4983637299
 21
-72.0579485102
  0
LINE
  5
334
100
AcDbEntity
  8
0
100
AcDbLine
 62
7
  6
CONTINUOUS
 10
1.403399281
 20
-72.4715315308
 11
1.5845493336
 21
-72.4473017861
  0
LINE
  5
335
100
AcDbEntity
  8
0
100
AcDbLine
 62
7
  6
CONTINUOUS
 10
1.4983637299
 20
-72.0579485102
 11
1.3464276172
 21
-72.0780679229
  0
LINE
  5
336
100
AcDbEntity
  8
0
100
AcDbLine
 62
7
  6
CONTINUOUS
 10
-1.0385763001
 20
-72.3565228187
 11
-1.2481123019
 21
-72.3841904979
  0
LINE
  5
337
100
AcDbEntity
  8
0
100
AcDbLine
 62
7
  6
CONTINUOUS
 10
-1.1856280466
 20
-72.7764298319
 11
-0.9589873347
 21
-72.746798015
  0
LINE
  5
338
100
AcDbEntity
  8
0
100
AcDbLine
 62
7
  6
CONTINUOUS
 10
1.3464276172
 20
-72.0780679229
 11
1.1833315324
 21
-72.0986446147
  0
LINE
  5
339
100
AcDbEntity
  8
0
100
AcDbLine
 62
7
  6
CONTINUOUS
 10
1.2064133342
 20
-72.4963702386
 11
1.403399281
 21
-72.4715315308
  0
LINE
  5
33A
100
AcDbEntity
  8
0
100
AcDbLine
 62
7
  6
CONTINUOUS
 10
-0.8260616955
 20
-72.3299248534
 11
-1.0385763001
 21
-72.3565228187
  0
LINE
  5
33B
100
AcDbEntity
  8
0
100
AcDbLine
 62
7
  6
CONTINUOUS
 10
-0.9589873347
 20
-72.746798015
 11
-0.7193563114
 21
-72.7171938182
  0
LINE
  5
33C
100
AcDbEntity
  8
0
100
AcDbLine
 62
7
  6
CONTINUOUS
 10
0.9947372107
 20
-72.521839675
 11
1.2064133342
 21
-72.4963702386
  0
LINE
  5
33D
100
AcDbEntity
  8
0
100
AcDbLine
 62
7
  6
CONTINUOUS
 10
1.1833315324
 20
-72.0986446147
 11
0.9195955434
 21
-72.1303513183
  0
LINE
  5
33E
100
AcDbEntity
  8
0
100
AcDbLine
 62
7
  6
CONTINUOUS
 10
-0.5050803151
 20
-72.2917007184
 11
-0.8260616955
 21
-72.3299248534
  0
LINE
  5
33F
100
AcDbEntity
  8
0
100
AcDbLine
 62
7
  6
CONTINUOUS
 10
-0.7193563114
 20
-72.7171938182
 11
-0.3438317406
 21
-72.6731557074
  0
LINE
  5
340
100
AcDbEntity
  8
0
100
AcDbLine
 62
7
  6
CONTINUOUS
 10
0.5340711235
 20
-72.5746769772
 11
0.9947372107
 21
-72.521839675
  0
LINE
  5
341
100
AcDbEntity
  8
0
100
AcDbLine
 62
7
  6
CONTINUOUS
 10
0.9195955434
 20
-72.1303513183
 11
0.4377836116
 21
-72.1854066793
  0
LINE
  5
342
100
AcDbEntity
  8
0
100
AcDbLine
 62
7
  6
CONTINUOUS
 10
0.4377836116
 20
-72.1854066793
 11
-0.5050803151
 21
-72.2917007184
  0
LINE
  5
343
100
AcDbEntity
  8
0
100
AcDbLine
 62
7
  6
CONTINUOUS
 10
-0.3438317406
 20
-72.6731557074
 11
0.5340711235
 21
-72.5746769772
  0
LINE
  5
344
100
AcDbEntity
  8
0
100
AcDbLine
 62
7
  6
CONTINUOUS
 10
-1.6518028661
 20
-71.8707361408
 11
1.6518028661
 21
-71.8707361408
  0
LINE
  5
345
100
AcDbEntity
  8
RACCORDO
100
AcDbLine
 62
250
  6
CONTINUOUS
 10
48.8838308554
 20
-82.7056462707
 11
48.7088535284
 21
-82.6707361408
  0
LINE
  5
346
100
AcDbEntity
  8
RACCORDO
100
AcDbLine
 62
250
  6
CONTINUOUS
 10
49.3849773304
 20
-82.2063307612
 11
49.2100000033
 21
-82.1714206314
  0
LINE
  5
347
100
AcDbEntity
  8
DRAFT
100
AcDbLine
 62
7
  6
CONTINUOUS
 10
-27.5790555173
 20
-78.3916806235
 11
-27.6
 21
-78.3707361408
  0
LINE
  5
348
100
AcDbEntity
  8
DRAFT
100
AcDbLine
 62
7
  6
CONTINUOUS
 10
0.9292191522
 20
-63.7207361408
 11
-0.9292191522
 21
-63.7207361408
  0
LWPOLYLINE
  5
349
100
AcDbEntity
  8
0
100
AcDbPolyline
 62
7
  6
CONTINUOUS
 90
13
 70
0
 10
2.4800463625
 20
-85.6707361408
 10
2.4603734948
 20
-85.6554187517
 10
2.419370691
 20
-85.6299729666
 10
2.375171528
 20
-85.6073907888
 10
2.3276054658
 20
-85.5868574411
 10
2.2762797978
 20
-85.5676818983
 10
2.2190585897
 20
-85.5488474686
 10
2.1552579798
 20
-85.5300958269
 10
2.0849516714
 20
-85.5114235698
 10
2.0075493779
 20
-85.4926539426
 10
1.9228743479
 20
-85.4737372078
 10
1.8308804181
 20
-85.4546511845
 10
1.7314457453
 20
-85.4353544951
  0
LINE
  5
34A
100
AcDbEntity
  8
DRAFT
100
AcDbLine
 62
7
  6
CONTINUOUS
 10
-14.2790555173
 20
-78.3916806235
 11
-14.3
 21
-78.3707361408
  0
LINE
  5
34B
100
AcDbEntity
  8
DRAFT
100
AcDbLine
 62
7
  6
CONTINUOUS
 10
-0.9790555173
 20
-78.3916806235
 11
-1.0
 21
-78.3707361408
  0
LINE
  5
34C
100
AcDbEntity
  8
DRAFT
100
AcDbLine
 62
7
  6
CONTINUOUS
 10
-49.6256042279
 20
-82.2777171034
 11
-49.6431811459
 21
-81.2707361408
  0
LINE
  5
34D
100
AcDbEntity
  8
RACCORDO
100
AcDbLine
 62
7
  6
CONTINUOUS
 10
-49.6167724049
 20
-81.2707361408
 11
-49.5992674251
 21
-82.2777171034
  0
LWPOLYLINE
  5
34E
100
AcDbEntity
  8
RACCORDO
100
AcDbPolyline
 62
7
  6
CONTINUOUS
 90
23
 70
0
 10
-49.195526499
 20
-82.2567495887
 10
-49.195492543
 20
-82.2619472297
 10
-49.1939854255
 20
-82.2918346489
 10
-49.1902540256
 20
-82.3215072945
 10
-49.1843152068
 20
-82.350807384
 10
-49.1762084097
 20
-82.3795725469
 10
-49.1659834961
 20
-82.4076403079
 10
-49.1536913109
 20
-82.4348532494
 10
-49.1394061456
 20
-82.4610610205
 10
-49.1232138245
 20
-82.4861181692
 10
-49.1052002354
 20
-82.5098836088
 10
-49.0854713485
 20
-82.5322281856
 10
-49.0641442095
 20
-82.5530296203
 10
-49.0413359167
 20
-82.5721688467
 10
-49.0171806378
 20
-82.5895427921
 10
-48.9918169658
 20
-82.6050624552
 10
-48.9653782224
 20
-82.6186428305
 10
-48.938015208
 20
-82.6302138674
 10
-48.9098850687
 20
-82.6397193355
 10
-48.8811359356
 20
-82.6471065345
 10
-48.8519247395
 20
-82.6523382499
 10
-48.8224086901
 20
-82.6553918813
 10
-48.7960134493
 20
-82.6562603716
  0
LINE
  5
34F
100
AcDbEntity
  8
ASSI
100
AcDbLine
 62
7
  6
CONTINUOUS
 10
-50.3675206953
 20
83.3302866137
 11
-50.3675206953
 21
81.2755391737
  0
LINE
  5
350
100
AcDbEntity
  8
RACCORDO
100
AcDbLine
 62
7
  6
CONTINUOUS
 10
-50.3561012762
 20
83.3321217595
 11
-50.3561014955
 21
81.2777742917
  0
LINE
  5
351
100
AcDbEntity
  8
ASSI
100
AcDbLine
 62
7
  6
CONTINUOUS
 10
-49.6405941807
 20
-81.2707361408
 11
-49.6405941807
 21
81.4168963193
  0
LINE
  5
352
100
AcDbEntity
  8
ASSI
100
AcDbLine
 62
7
  6
CONTINUOUS
 10
-49.6186215945
 20
-81.2707361408
 11
-49.6186215945
 21
81.4211397779
  0
LINE
  5
353
100
AcDbEntity
  8
0
100
AcDbLine
 62
7
  6
CONTINUOUS
 10
-49.6186215945
 20
-81.2707361408
 11
-49.6186215945
 21
81.4211397779
  0
LINE
  5
354
100
AcDbEntity
  8
RACCORDO
100
AcDbLine
 62
7
  6
CONTINUOUS
 10
-49.3849773304
 20
81.4661560813
 11
-49.3849773304
 21
-82.2063307612
  0
LINE
  5
355
100
AcDbEntity
  8
RACCORDO
100
AcDbLine
 62
7
  6
CONTINUOUS
 10
-49.2100000033
 20
83.5509112396
 11
-49.2100000033
 21
-82.1714206314
  0
LINE
  5
356
100
AcDbEntity
  8
RACCORDO
100
AcDbLine
 62
7
  6
CONTINUOUS
 10
-49.195526258
 20
-82.2567495888
 11
-49.195526258
 21
83.622550989
  0
LINE
  5
357
100
AcDbEntity
  8
RACCORDO
100
AcDbLine
 62
250
  6
CONTINUOUS
 10
-48.7960134492
 20
-82.6562623988
 11
-48.7960134483
 21
-82.6557752089
  0
LINE
  5
358
100
AcDbEntity
  8
RACCORDO
100
AcDbLine
 62
250
  6
CONTINUOUS
 10
-48.4772351269
 20
83.0271658747
 11
-48.4772351269
 21
-81.5389456476
  0
LINE
  5
359
100
AcDbEntity
  8
DRAFT
100
AcDbLine
 62
7
  6
CONTINUOUS
 10
13.05
 20
-52.3707361408
 11
-13.05
 21
-52.3707361408
  0
LINE
  5
35A
100
AcDbEntity
  8
DRAFT
100
AcDbLine
 62
7
  6
CONTINUOUS
 10
13.0367360695
 20
-51.3574722103
 11
-13.0367360695
 21
-51.3574722103
  0
LINE
  5
35B
100
AcDbEntity
  8
DRAFT
100
AcDbLine
 62
7
  6
CONTINUOUS
 10
13.0290555173
 20
-51.3497916581
 11
-13.0290555173
 21
-51.3497916581
  0
LINE
  5
35C
100
AcDbEntity
  8
RACCORDO
100
AcDbLine
 62
7
  6
CONTINUOUS
 10
13.0160814009
 20
-50.0467578436
 11
-13.0160814009
 21
-50.0467578436
  0
LINE
  5
35D
100
AcDbEntity
  8
RACCORDO
100
AcDbLine
 62
250
  6
CONTINUOUS
 10
-44.4869789259
 20
-81.7037949969
 11
-44.4869789259
 21
83.4384156612
  0
LINE
  5
35E
100
AcDbEntity
  8
DRAFT
100
AcDbLine
 62
7
  6
CONTINUOUS
 10
-13.0290555173
 20
-45.3207361408
 11
13.0290555173
 21
-45.3207361408
  0
LINE
  5
35F
100
AcDbEntity
  8
DRAFT
100
AcDbLine
 62
7
  6
CONTINUOUS
 10
-13.0290555173
 20
-44.1207361408
 11
13.0290555173
 21
-44.1207361408
  0
LINE
  5
360
100
AcDbEntity
  8
RACCORDO
100
AcDbLine
 62
7
  6
CONTINUOUS
 10
-13.0152994566
 20
-43.8554976015
 11
13.0152994566
 21
-43.8554976015
  0
LINE
  5
361
100
AcDbEntity
  8
RACCORDO
100
AcDbLine
 62
7
  6
CONTINUOUS
 10
-13.0290555173
 20
-43.5656552147
 11
13.0290555173
 21
-43.5656552147
  0
LINE
  5
362
100
AcDbEntity
  8
DRAFT
100
AcDbLine
 62
7
  6
CONTINUOUS
 10
-13.0290555173
 20
-42.8916806235
 11
13.0290555173
 21
-42.8916806235
  0
LINE
  5
363
100
AcDbEntity
  8
DRAFT
100
AcDbLine
 62
7
  6
CONTINUOUS
 10
-13.05
 20
-42.8707361408
 11
13.05
 21
-42.8707361408
  0
LINE
  5
364
100
AcDbEntity
  8
DRAFT
100
AcDbLine
 62
7
  6
CONTINUOUS
 10
12.3209444827
 20
-78.3916806235
 11
12.3
 21
-78.3707361408
  0
LINE
  5
365
100
AcDbEntity
  8
DRAFT
100
AcDbLine
 62
7
  6
CONTINUOUS
 10
-38.9071022932
 20
-80.3568939513
 11
-38.9
 21
-81.1707361408
  0
LINE
  5
366
100
AcDbEntity
  8
DRAFT
100
AcDbLine
 62
7
  6
CONTINUOUS
 10
-40.9
 20
-81.1707361408
 11
-40.9
 21
-78.3707361408
  0
LINE
  5
367
100
AcDbEntity
  8
RACCORDO
100
AcDbLine
 62
7
  6
CONTINUOUS
 10
-40.8790555173
 20
-79.3794249302
 11
-40.8790555173
 21
-78.3916806235
  0
LINE
  5
368
100
AcDbEntity
  8
RACCORDO
100
AcDbLine
 62
7
  6
CONTINUOUS
 10
-40.165
 20
-82.8708959516
 11
-40.165
 21
-83.5706638575
  0
LINE
  5
369
100
AcDbEntity
  8
RACCORDO
100
AcDbLine
 62
7
  6
CONTINUOUS
 10
-38.9209444827
 20
-79.3794249302
 11
-38.9209444827
 21
-78.3916806235
  0
LINE
  5
36A
100
AcDbEntity
  8
DRAFT
100
AcDbLine
 62
7
  6
CONTINUOUS
 10
-38.9
 20
-78.3707361408
 11
-38.9
 21
-81.1707361408
  0
LINE
  5
36B
100
AcDbEntity
  8
RACCORDO
100
AcDbLine
 62
7
  6
CONTINUOUS
 10
-38.1636258157
 20
-83.5707931928
 11
-38.1636258157
 21
-82.6562623988
  0
LINE
  5
36C
100
AcDbEntity
  8
RACCORDO
100
AcDbLine
 62
250
  6
CONTINUOUS
 10
-37.7960176018
 20
-82.6562623988
 11
-37.7960176018
 21
-83.6573191726
  0
LINE
  5
36D
100
AcDbEntity
  8
DRAFT
100
AcDbLine
 62
7
  6
CONTINUOUS
 10
-40.9
 20
-81.1707361408
 11
-40.8928977068
 21
-80.3568939513
  0
LINE
  5
36E
100
AcDbEntity
  8
RACCORDO
100
AcDbLine
 62
250
  6
CONTINUOUS
 10
-13.0152994566
 20
-43.8554976015
 11
-13.0290555173
 21
-43.8417415408
  0
LINE
  5
36F
100
AcDbEntity
  8
DRAFT
100
AcDbLine
 62
7
  6
CONTINUOUS
 10
-13.0290555173
 20
-42.8916806235
 11
-13.05
 21
-42.8707361408
  0
LINE
  5
370
100
AcDbEntity
  8
DRAFT
100
AcDbLine
 62
7
  6
CONTINUOUS
 10
25.6209444827
 20
-78.3916806235
 11
25.6
 21
-78.3707361408
  0
LINE
  5
371
100
AcDbEntity
  8
DRAFT
100
AcDbLine
 62
7
  6
CONTINUOUS
 10
-27.6
 20
-81.1707361408
 11
-27.6
 21
-78.3707361408
  0
LINE
  5
372
100
AcDbEntity
  8
RACCORDO
100
AcDbLine
 62
7
  6
CONTINUOUS
 10
-27.5790555173
 20
-79.3794249302
 11
-27.5790555173
 21
-78.3916806235
  0
LINE
  5
373
100
AcDbEntity
  8
DRAFT
100
AcDbLine
 62
7
  6
CONTINUOUS
 10
38.9209444827
 20
-78.3916806235
 11
38.9
 21
-78.3707361408
  0
LINE
  5
374
100
AcDbEntity
  8
RACCORDO
100
AcDbLine
 62
250
  6
CONTINUOUS
 10
-48.8702508171
 20
84.0151058223
 11
-48.8701602876
 21
84.0146271173
  0
LINE
  5
375
100
AcDbEntity
  8
RACCORDO
100
AcDbLine
 62
250
  6
CONTINUOUS
 10
-44.4869789259
 20
83.4384156612
 11
-44.5555822545
 21
83.8314996584
  0
LINE
  5
376
100
AcDbEntity
  8
DRAFT
100
AcDbLine
 62
7
  6
CONTINUOUS
 10
-25.6071022932
 20
-80.3568939513
 11
-25.6
 21
-81.1707361408
  0
LINE
  5
377
100
AcDbEntity
  8
RACCORDO
100
AcDbLine
 62
250
  6
CONTINUOUS
 10
-26.2039823982
 20
-82.6562623988
 11
-26.2039823982
 21
-83.6573191726
  0
LINE
  5
378
100
AcDbEntity
  8
RACCORDO
100
AcDbLine
 62
7
  6
CONTINUOUS
 10
-25.8363741843
 20
-83.5707931928
 11
-25.8363741843
 21
-82.6562623988
  0
LINE
  5
379
100
AcDbEntity
  8
RACCORDO
100
AcDbLine
 62
7
  6
CONTINUOUS
 10
-25.6209444827
 20
-79.3794249302
 11
-25.6209444827
 21
-78.3916806235
  0
LINE
  5
37A
100
AcDbEntity
  8
DRAFT
100
AcDbLine
 62
7
  6
CONTINUOUS
 10
-25.6
 20
-78.3707361408
 11
-25.6
 21
-81.1707361408
  0
LINE
  5
37B
100
AcDbEntity
  8
RACCORDO
100
AcDbLine
 62
7
  6
CONTINUOUS
 10
-23.835
 20
-82.8708959516
 11
-23.835
 21
-83.5706638575
  0
LINE
  5
37C
100
AcDbEntity
  8
DRAFT
100
AcDbLine
 62
7
  6
CONTINUOUS
 10
-27.6
 20
-81.1707361408
 11
-27.5928977068
 21
-80.3568939513
  0
LINE
  5
37D
100
AcDbEntity
  8
0
100
AcDbLine
 62
7
  6
CONTINUOUS
 10
2.314157175
 20
45.0351955337
 11
0.0
 21
41.7292638592
  0
LINE
  5
37E
100
AcDbEntity
  8
0
100
AcDbLine
 62
7
  6
CONTINUOUS
 10
-0.000003732
 20
39.0884975583
 11
3.1026211039
 21
43.5208204889
  0
LINE
  5
37F
100
AcDbEntity
  8
DRAFT
100
AcDbLine
 62
7
  6
CONTINUOUS
 10
13.0290555173
 20
-51.3497916581
 11
13.0367360695
 21
-51.3574722103
  0
LINE
  5
380
100
AcDbEntity
  8
RACCORDO
100
AcDbLine
 62
250
  6
CONTINUOUS
 10
48.7960134479
 20
-82.6557752089
 11
48.0782095068
 21
-81.9379712677
  0
LINE
  5
381
100
AcDbEntity
  8
RACCORDO
100
AcDbLine
 62
250
  6
CONTINUOUS
 10
49.195039068
 20
-82.2567495888
 11
48.4772351269
 21
-81.5389456476
  0
LINE
  5
382
100
AcDbEntity
  8
0
100
AcDbLine
 62
7
  6
CONTINUOUS
 10
-17.4153278086
 20
45.0351950922
 11
-17.4153278086
 21
39.0884972032
  0
LINE
  5
383
100
AcDbEntity
  8
0
100
AcDbLine
 62
7
  6
CONTINUOUS
 10
-15.0514228296
 20
40.6028732342
 11
-15.0514228296
 21
41.3046571952
  0
LINE
  5
384
100
AcDbEntity
  8
0
100
AcDbLine
 62
7
  6
CONTINUOUS
 10
-15.0514228866
 20
42.8190379452
 11
-15.0514228866
 21
43.5208200732
  0
LINE
  5
385
100
AcDbEntity
  8
DRAFT
100
AcDbLine
 62
7
  6
CONTINUOUS
 10
-14.3
 20
-81.1707361408
 11
-14.3
 21
-78.3707361408
  0
LINE
  5
386
100
AcDbEntity
  8
RACCORDO
100
AcDbLine
 62
7
  6
CONTINUOUS
 10
-14.2790555173
 20
-79.3794249302
 11
-14.2790555173
 21
-78.3916806235
  0
LINE
  5
387
100
AcDbEntity
  8
DRAFT
100
AcDbLine
 62
7
  6
CONTINUOUS
 10
-14.3
 20
-81.1707361408
 11
-14.2928977068
 21
-80.3568939513
  0
LINE
  5
388
100
AcDbEntity
  8
0
100
AcDbLine
 62
7
  6
CONTINUOUS
 10
15.8297454319
 20
45.0351958822
 11
14.6543570071
 21
43.3896504777
  0
LINE
  5
389
100
AcDbEntity
  8
0
100
AcDbLine
 62
7
  6
CONTINUOUS
 10
13.7059226412
 20
42.0618506521
 11
11.5821036858
 21
39.0884978722
  0
LWPOLYLINE
  5
38A
100
AcDbEntity
  8
0
100
AcDbPolyline
 62
7
  6
CONTINUOUS
 90
19
 70
0
 10
-2.5999819948
 20
-84.8790753333
 10
-2.5983921891
 20
-84.9049827045
 10
-2.5838134895
 20
-84.9598797683
 10
-2.555554753
 20
-85.0120490926
 10
-2.5167090593
 20
-85.0585323675
 10
-2.4737006256
 20
-85.0955494177
 10
-2.4315859492
 20
-85.1235044456
 10
-2.3889328948
 20
-85.1465257807
 10
-2.3423837168
 20
-85.1676179135
 10
-2.2909430397
 20
-85.1876143473
 10
-2.2348948021
 20
-85.2066793859
 10
-2.172926344
 20
-85.2254276964
 10
-2.1047945586
 20
-85.2440034899
 10
-2.0305462677
 20
-85.2624552027
 10
-1.9497999118
 20
-85.2809245361
 10
-1.862594756
 20
-85.2994383823
 10
-1.7689813649
 20
-85.3180234926
 10
-1.6687652614
 20
-85.3367523968
 10
-1.6494230621
 20
-85.3401754059
  0
LWPOLYLINE
  5
38B
100
AcDbEntity
  8
0
100
AcDbPolyline
 62
7
  6
CONTINUOUS
 90
19
 70
0
 10
-2.5999855088
 20
-82.8791972001
 10
-2.5986802991
 20
-82.9026434943
 10
-2.585057618
 20
-82.95673622
 10
-2.5579752964
 20
-83.0084695951
 10
-2.5203664837
 20
-83.0548251263
 10
-2.4786640587
 20
-83.0917948106
 10
-2.4380339572
 20
-83.1196163076
 10
-2.3972081236
 20
-83.1423814958
 10
-2.3530093371
 20
-83.163095853
 10
-2.3045873762
 20
-83.1825811564
 10
-2.252219317
 20
-83.2010339807
 10
-2.194354699
 20
-83.2191743981
 10
-2.1303911923
 20
-83.2372356457
 10
-2.0605796454
 20
-83.2551841273
 10
-1.9851965492
 20
-83.2730057691
 10
-1.9047099081
 20
-83.2906602773
 10
-1.8189629615
 20
-83.3082480565
 10
-1.7275640574
 20
-83.3258949055
 10
-1.6459335204
 20
-83.3408172926
  0
LWPOLYLINE
  5
38C
100
AcDbEntity
  8
0
100
AcDbPolyline
 62
7
  6
CONTINUOUS
 90
27
 70
0
 10
-2.599999999
 20
-88.9659463083
 10
-2.5993338492
 20
-88.9801933537
 10
-2.594619214
 20
-89.0068399869
 10
-2.5862396099
 20
-89.031656212
 10
-2.574991297
 20
-89.0545524436
 10
-2.5615404613
 20
-89.0753919888
 10
-2.5465313751
 20
-89.0939849071
 10
-2.5305060718
 20
-89.1102613708
 10
-2.513706703
 20
-89.124386207
 10
-2.4966943682
 20
-89.1362152339
 10
-2.4804827995
 20
-89.1454878636
 10
-2.4654320763
 20
-89.1525106183
 10
-2.4516969112
 20
-89.1576659217
 10
-2.4399668396
 20
-89.161159127
 10
-2.4308723827
 20
-89.1633110262
 10
-2.4238597215
 20
-89.1646538281
 10
-2.4177962158
 20
-89.1656083905
 10
-2.4125462807
 20
-89.166295875
 10
-2.4081934881
 20
-89.1667813251
 10
-2.4039645281
 20
-89.1671908636
 10
-2.3996698548
 20
-89.1675549769
 10
-2.3954593979
 20
-89.1678707121
 10
-2.3910982606
 20
-89.1681628918
 10
-2.3865217314
 20
-89.168438663
 10
-2.381772451
 20
-89.1686977776
 10
-2.37680022
 20
-89.1689449667
 10
-2.3661544601
 20
-89.1694101673
  0
LWPOLYLINE
  5
38D
100
AcDbEntity
  8
0
100
AcDbPolyline
 62
7
  6
CONTINUOUS
 90
28
 70
0
 10
-2.5999979369
 20
-88.3756228121
 10
-2.5994065943
 20
-88.3896978781
 10
-2.5900139489
 20
-88.4335498928
 10
-2.5702774358
 20
-88.4755508734
 10
-2.5427521865
 20
-88.5128181486
 10
-2.5132746495
 20
-88.5412885176
 10
-2.4865462717
 20
-88.5609593199
 10
-2.4622740763
 20
-88.5751747798
 10
-2.4390743452
 20
-88.5862690689
 10
-2.4171206201
 20
-88.5950307591
 10
-2.3964073446
 20
-88.602116067
 10
-2.3749493462
 20
-88.6085321782
 10
-2.3523732728
 20
-88.6145085402
 10
-2.3289915337
 20
-88.6200571643
 10
-2.3039556156
 20
-88.6254380704
 10
-2.2770475737
 20
-88.6307155891
 10
-2.248383374
 20
-88.6358813437
 10
-2.2176381812
 20
-88.6410033788
 10
-2.1847051359
 20
-88.6461009033
 10
-2.1495989434
 20
-88.6511727188
 10
-2.1121959848
 20
-88.6562371982
 10
-2.0724457445
 20
-88.6613003312
 10
-2.0303383547
 20
-88.6663627478
 10
-1.985832795
 20
-88.6714289863
 10
-1.9389062249
 20
-88.6765012891
 10
-1.8895565852
 20
-88.681579849
 10
-1.8377948583
 20
-88.6866639943
 10
-1.7270497253
 20
-88.696851386
  0
LINE
  5
38E
100
AcDbEntity
  8
DRAFT
100
AcDbLine
 62
7
  6
CONTINUOUS
 10
-12.3071022932
 20
-80.3568939513
 11
-12.3
 21
-81.1707361408
  0
LINE
  5
38F
100
AcDbEntity
  8
DRAFT
100
AcDbLine
 62
7
  6
CONTINUOUS
 10
-13.05
 20
-52.3707361408
 11
-13.05
 21
-42.8707361408
  0
LINE
  5
390
100
AcDbEntity
  8
DRAFT
100
AcDbLine
 62
7
  6
CONTINUOUS
 10
-13.0290555173
 20
-51.3497916581
 11
-13.0290555173
 21
-42.8916806235
  0
LINE
  5
391
100
AcDbEntity
  8
RACCORDO
100
AcDbLine
 62
7
  6
CONTINUOUS
 10
-12.3209444827
 20
-79.3794249302
 11
-12.3209444827
 21
-78.3916806235
  0
LINE
  5
392
100
AcDbEntity
  8
0
100
AcDbLine
 62
7
  6
CONTINUOUS
 10
-12.3181579076
 20
41.3046571952
 11
-12.3181579076
 21
42.8190379452
  0
LINE
  5
393
100
AcDbEntity
  8
DRAFT
100
AcDbLine
 62
7
  6
CONTINUOUS
 10
-12.3
 20
-78.3707361408
 11
-12.3
 21
-81.1707361408
  0
LINE
  5
394
100
AcDbEntity
  8
0
100
AcDbLine
 62
7
  6
CONTINUOUS
 10
-10.1943408156
 20
43.5208200732
 11
-10.1943408156
 21
45.0351950922
  0
LINE
  5
395
100
AcDbEntity
  8
0
100
AcDbLine
 62
7
  6
CONTINUOUS
 10
-9.3448108006
 20
39.0884972032
 11
-9.3448108006
 21
40.6028732342
  0
LINE
  5
396
100
AcDbEntity
  8
0
100
AcDbLine
 62
7
  6
CONTINUOUS
 10
-9.3448109351
 20
45.0351952174
 11
-9.344810896
 21
43.5208201676
  0
LINE
  5
397
100
AcDbEntity
  8
0
100
AcDbLine
 62
7
  6
CONTINUOUS
 10
-8.4952847286
 20
42.7266952492
 11
-8.4952847286
 21
39.0884974122
  0
LINE
  5
398
100
AcDbEntity
  8
0
100
AcDbLine
 62
7
  6
CONTINUOUS
 10
-6.9809049476
 20
40.6028734312
 11
-6.9809049476
 21
42.7266952492
  0
LINE
  5
399
100
AcDbEntity
  8
DRAFT
100
AcDbLine
 62
7
  6
CONTINUOUS
 10
-13.05
 20
-52.3707361408
 11
-13.0367360695
 21
-51.3574722103
  0
LINE
  5
39A
100
AcDbEntity
  8
RACCORDO
100
AcDbLine
 62
250
  6
CONTINUOUS
 10
-13.0160814009
 20
-50.0467578436
 11
-13.0290555173
 21
-50.1463090294
  0
LINE
  5
39B
100
AcDbEntity
  8
0
100
AcDbLine
 62
7
  6
CONTINUOUS
 10
13.4789686509
 20
39.0884978722
 11
14.6543608757
 21
40.7340404267
  0
LINE
  5
39C
100
AcDbEntity
  8
0
100
AcDbLine
 62
7
  6
CONTINUOUS
 10
15.6027838413
 20
42.0618507019
 11
17.726606597
 21
45.0351958822
  0
LWPOLYLINE
  5
39D
100
AcDbEntity
  8
0
100
AcDbPolyline
 62
7
  6
CONTINUOUS
 90
5
 70
0
 10
2.5999983919
 20
-87.7409833809
 10
2.5930582423
 20
-87.691093191
 10
2.5745258492
 20
-87.6452199855
 10
2.5463640931
 20
-87.6030249439
 10
2.526731727
 20
-87.5823702773
  0
LINE
  5
39E
100
AcDbEntity
  8
DRAFT
100
AcDbLine
 62
7
  6
CONTINUOUS
 10
0.9928977068
 20
-80.3568939513
 11
1.0
 21
-81.1707361408
  0
LINE
  5
39F
100
AcDbEntity
  8
SMUSSO
100
AcDbLine
 62
7
  6
CONTINUOUS
 10
-3.35
 20
-85.6707361408
 11
-3.35
 21
-87.1707361408
  0
LINE
  5
3A0
100
AcDbEntity
  8
DRAFT
100
AcDbLine
 62
250
  6
CONTINUOUS
 10
-3.05
 20
17.987990727
 11
-3.05
 21
17.9792638592
  0
LINE
  5
3A1
100
AcDbEntity
  8
DRAFT
100
AcDbLine
 62
250
  6
CONTINUOUS
 10
-3.05
 20
20.8705369914
 11
-3.05
 21
20.8792638592
  0
LINE
  5
3A2
100
AcDbEntity
  8
0
100
AcDbLine
 62
7
  6
CONTINUOUS
 10
-2.1238228006
 20
39.0884974122
 11
-2.1238228006
 21
40.6028734312
  0
LINE
  5
3A3
100
AcDbEntity
  8
DRAFT
100
AcDbLine
 62
7
  6
CONTINUOUS
 10
-1.0
 20
-81.1707361408
 11
-1.0
 21
-78.3707361408
  0
LINE
  5
3A4
100
AcDbEntity
  8
RACCORDO
100
AcDbLine
 62
7
  6
CONTINUOUS
 10
-0.9790555173
 20
-79.3794249302
 11
-0.9790555173
 21
-78.3916806235
  0
LINE
  5
3A5
100
AcDbEntity
  8
RACCORDO
100
AcDbLine
 62
7
  6
CONTINUOUS
 10
-0.0
 20
87.7929571222
 11
-0.0
 21
89.1442992205
  0
LINE
  5
3A6
100
AcDbEntity
  8
RACCORDO
100
AcDbLine
 62
7
  6
CONTINUOUS
 10
-1.6259144319
 20
-71.8707361408
 11
-1.6269076886
 21
-72.4398297623
  0
LINE
  5
3A7
100
AcDbEntity
  8
RACCORDO
100
AcDbLine
 62
7
  6
CONTINUOUS
 10
-1.645027777
 20
-82.8218650835
 11
-1.6478170779
 21
-84.4200151549
  0
LINE
  5
3A8
100
AcDbEntity
  8
RACCORDO
100
AcDbLine
 62
7
  6
CONTINUOUS
 10
-1.6485196045
 20
-84.8225328823
 11
-1.649651543
 21
-85.4710852065
  0
LINE
  5
3A9
100
AcDbEntity
  8
DRAFT
100
AcDbLine
 62
7
  6
CONTINUOUS
 10
-1.0
 20
-81.1707361408
 11
-0.9928977068
 21
-80.3568939513
  0
LINE
  5
3AA
100
AcDbEntity
  8
0
100
AcDbLine
 62
7
  6
CONTINUOUS
 10
-2.599923082
 20
-84.8750141901
 11
-2.5999949898
 21
-84.880884847
  0
LWPOLYLINE
  5
3AB
100
AcDbEntity
  8
0
100
AcDbPolyline
 62
7
  6
CONTINUOUS
 90
20
 70
0
 10
2.5999999538
 20
-88.7842588436
 10
2.5999061176
 20
-88.7788615715
 10
2.5937185802
 20
-88.7395662809
 10
2.5801147029
 20
-88.7043823538
 10
2.5617576789
 20
-88.6739157561
 10
2.5406576818
 20
-88.6482900663
 10
2.5179575343
 20
-88.6270651018
 10
2.4950600719
 20
-88.6102715778
 10
2.4738505069
 20
-88.5979483034
 10
2.455773335
 20
-88.5894852933
 10
2.4400944498
 20
-88.5834265258
 10
2.4252004391
 20
-88.5785829776
 10
2.4109175495
 20
-88.5746084193
 10
2.3972820003
 20
-88.5712918962
 10
2.3830758907
 20
-88.5682216625
 10
2.3680208984
 20
-88.5652988958
 10
2.3522931553
 20
-88.5625267803
 10
2.3354593503
 20
-88.5598081162
 10
2.3174142513
 20
-88.5571184418
 10
2.2981921619
 20
-88.554456748
  0
LWPOLYLINE
  5
3AC
100
AcDbEntity
  8
0
100
AcDbPolyline
 62
7
  6
CONTINUOUS
 90
18
 70
0
 10
2.5999957668
 20
-83.8808343457
 10
2.599936993
 20
-83.8755182649
 10
2.5917213615
 20
-83.8234868172
 10
2.5699223139
 20
-83.7716341339
 10
2.5364328717
 20
-83.7234051841
 10
2.4971003964
 20
-83.6837504985
 10
2.4565084754
 20
-83.6527815739
 10
2.4137351028
 20
-83.6268549198
 10
2.3668171226
 20
-83.6035429296
 10
2.3151345929
 20
-83.5819551078
 10
2.2580950842
 20
-83.5614474824
 10
2.1938349405
 20
-83.5411911531
 10
2.1217353379
 20
-83.5209693905
 10
2.0416517004
 20
-83.5007251953
 10
1.9531482371
 20
-83.4803335246
 10
1.8559488943
 20
-83.4597217827
 10
1.7501425192
 20
-83.4388917159
 10
1.6460712269
 20
-83.4197172465
  0
LINE
  5
3AD
100
AcDbEntity
  8
0
100
AcDbLine
 62
7
  6
CONTINUOUS
 10
1.2820287593
 20
-71.8707361408
 11
1.2825057035
 21
-72.0862227997
  0
LINE
  5
3AE
100
AcDbEntity
  8
RACCORDO
100
AcDbLine
 62
7
  6
CONTINUOUS
 10
1.6259144319
 20
-71.8707361408
 11
1.6262099265
 21
-72.0400419079
  0
LINE
  5
3AF
100
AcDbEntity
  8
RACCORDO
100
AcDbLine
 62
7
  6
CONTINUOUS
 10
1.6269103055
 20
-72.4413291363
 11
1.6271568852
 21
-72.5826087452
  0
LINE
  5
3B0
100
AcDbEntity
  8
RACCORDO
100
AcDbLine
 62
7
  6
CONTINUOUS
 10
1.6448249367
 20
-82.7056462707
 11
1.6469760634
 21
-83.9381498295
  0
LINE
  5
3B1
100
AcDbEntity
  8
RACCORDO
100
AcDbLine
 62
7
  6
CONTINUOUS
 10
1.6476782453
 20
-84.3404700277
 11
1.649651543
 21
-85.4710852065
  0
LINE
  5
3B2
100
AcDbEntity
  8
RACCORDO
100
AcDbLine
 62
7
  6
CONTINUOUS
 10
0.9790555173
 20
-79.3794249302
 11
0.9790555173
 21
-78.3916806235
  0
LINE
  5
3B3
100
AcDbEntity
  8
DRAFT
100
AcDbLine
 62
7
  6
CONTINUOUS
 10
1.0
 20
-78.3707361408
 11
1.0
 21
-81.1707361408
  0
LINE
  5
3B4
100
AcDbEntity
  8
DRAFT
100
AcDbLine
 62
250
  6
CONTINUOUS
 10
3.05
 20
17.987990727
 11
3.05
 21
17.9792638592
  0
LINE
  5
3B5
100
AcDbEntity
  8
DRAFT
100
AcDbLine
 62
250
  6
CONTINUOUS
 10
3.05
 20
20.8705369914
 11
3.05
 21
20.8792638592
  0
LINE
  5
3B6
100
AcDbEntity
  8
SMUSSO
100
AcDbLine
 62
7
  6
CONTINUOUS
 10
3.35
 20
-85.6707361408
 11
3.35
 21
-87.1707361408
  0
LINE
  5
3B7
100
AcDbEntity
  8
0
100
AcDbLine
 62
7
  6
CONTINUOUS
 10
3.8228722214
 20
42.7266956352
 11
3.8228722214
 21
39.0884977352
  0
LINE
  5
3B8
100
AcDbEntity
  8
0
100
AcDbLine
 62
7
  6
CONTINUOUS
 10
5.3372472794
 20
40.5751726462
 11
5.3372472575
 21
41.4247025462
  0
LINE
  5
3B9
100
AcDbEntity
  8
RACCORDO
100
AcDbLine
 62
250
  6
CONTINUOUS
 10
13.0160814009
 20
-50.0467578436
 11
13.0290555173
 21
-50.1463090294
  0
LINE
  5
3BA
100
AcDbEntity
  8
DRAFT
100
AcDbLine
 62
7
  6
CONTINUOUS
 10
13.0367360695
 20
-51.3574722103
 11
13.05
 21
-52.3707361408
  0
LINE
  5
3BB
100
AcDbEntity
  8
DRAFT
100
AcDbLine
 62
7
  6
CONTINUOUS
 10
14.2928977068
 20
-80.3568939513
 11
14.3
 21
-81.1707361408
  0
LINE
  5
3BC
100
AcDbEntity
  8
0
100
AcDbLine
 62
7
  6
CONTINUOUS
 10
9.1047211585
 20
41.4247026435
 11
9.1047211804
 21
40.5751727435
  0
LINE
  5
3BD
100
AcDbEntity
  8
0
100
AcDbLine
 62
7
  6
CONTINUOUS
 10
10.6190962214
 20
39.0884977352
 11
10.6190962214
 21
42.7266956352
  0
LINE
  5
3BE
100
AcDbEntity
  8
DRAFT
100
AcDbLine
 62
7
  6
CONTINUOUS
 10
12.3
 20
-81.1707361408
 11
12.3
 21
-78.3707361408
  0
LINE
  5
3BF
100
AcDbEntity
  8
RACCORDO
100
AcDbLine
 62
7
  6
CONTINUOUS
 10
12.3209444827
 20
-79.3794249302
 11
12.3209444827
 21
-78.3916806235
  0
LINE
  5
3C0
100
AcDbEntity
  8
DRAFT
100
AcDbLine
 62
7
  6
CONTINUOUS
 10
13.0290555173
 20
-42.8916806235
 11
13.0290555173
 21
-51.3497916581
  0
LINE
  5
3C1
100
AcDbEntity
  8
DRAFT
100
AcDbLine
 62
7
  6
CONTINUOUS
 10
13.05
 20
-42.8707361408
 11
13.05
 21
-52.3707361408
  0
LINE
  5
3C2
100
AcDbEntity
  8
RACCORDO
100
AcDbLine
 62
7
  6
CONTINUOUS
 10
14.2790555173
 20
-79.3794249302
 11
14.2790555173
 21
-78.3916806235
  0
LINE
  5
3C3
100
AcDbEntity
  8
DRAFT
100
AcDbLine
 62
7
  6
CONTINUOUS
 10
14.3
 20
-78.3707361408
 11
14.3
 21
-81.1707361408
  0
LINE
  5
3C4
100
AcDbEntity
  8
DRAFT
100
AcDbLine
 62
7
  6
CONTINUOUS
 10
12.3
 20
-81.1707361408
 11
12.3071022932
 21
-80.3568939513
  0
LINE
  5
3C5
100
AcDbEntity
  8
DRAFT
100
AcDbLine
 62
7
  6
CONTINUOUS
 10
3.05
 20
17.9792638592
 11
-3.05
 21
17.9792638592
  0
LINE
  5
3C6
100
AcDbEntity
  8
DRAFT
100
AcDbLine
 62
7
  6
CONTINUOUS
 10
3.05
 20
17.987990727
 11
-3.05
 21
17.987990727
  0
LINE
  5
3C7
100
AcDbEntity
  8
DRAFT
100
AcDbLine
 62
7
  6
CONTINUOUS
 10
-3.05
 20
20.8705369914
 11
3.05
 21
20.8705369914
  0
LINE
  5
3C8
100
AcDbEntity
  8
DRAFT
100
AcDbLine
 62
7
  6
CONTINUOUS
 10
-3.05
 20
20.8792638592
 11
3.05
 21
20.8792638592
  0
LINE
  5
3C9
100
AcDbEntity
  8
DRAFT
100
AcDbLine
 62
7
  6
CONTINUOUS
 10
27.5928977068
 20
-80.3568939513
 11
27.6
 21
-81.1707361408
  0
LINE
  5
3CA
100
AcDbEntity
  8
DRAFT
100
AcDbLine
 62
7
  6
CONTINUOUS
 10
25.6
 20
-81.1707361408
 11
25.6
 21
-78.3707361408
  0
LINE
  5
3CB
100
AcDbEntity
  8
RACCORDO
100
AcDbLine
 62
7
  6
CONTINUOUS
 10
25.6209444827
 20
-79.3794249302
 11
25.6209444827
 21
-78.3916806235
  0
LINE
  5
3CC
100
AcDbEntity
  8
RACCORDO
100
AcDbLine
 62
7
  6
CONTINUOUS
 10
27.5790555173
 20
-79.3794249302
 11
27.5790555173
 21
-78.3916806235
  0
LINE
  5
3CD
100
AcDbEntity
  8
DRAFT
100
AcDbLine
 62
7
  6
CONTINUOUS
 10
27.6
 20
-78.3707361408
 11
27.6
 21
-81.1707361408
  0
LINE
  5
3CE
100
AcDbEntity
  8
DRAFT
100
AcDbLine
 62
7
  6
CONTINUOUS
 10
25.6
 20
-81.1707361408
 11
25.6071022932
 21
-80.3568939513
  0
LINE
  5
3CF
100
AcDbEntity
  8
RACCORDO
100
AcDbLine
 62
250
  6
CONTINUOUS
 10
-48.4772351269
 20
-81.5389456476
 11
-49.195039068
 21
-82.2567495888
  0
LINE
  5
3D0
100
AcDbEntity
  8
RACCORDO
100
AcDbLine
 62
250
  6
CONTINUOUS
 10
-48.0782095068
 20
-81.9379712677
 11
-48.7960134479
 21
-82.6557752089
  0
LINE
  5
3D1
100
AcDbEntity
  8
DRAFT
100
AcDbLine
 62
7
  6
CONTINUOUS
 10
-13.0290555173
 20
-51.3497916581
 11
-13.0367360695
 21
-51.3574722103
  0
LINE
  5
3D2
100
AcDbEntity
  8
DRAFT
100
AcDbLine
 62
7
  6
CONTINUOUS
 10
-38.9209444827
 20
-78.3916806235
 11
-38.9
 21
-78.3707361408
  0
LINE
  5
3D3
100
AcDbEntity
  8
0
100
AcDbLine
 62
7
  6
CONTINUOUS
 10
-3.1026249967
 20
43.5208203287
 11
-0.000003732
 21
39.0884975583
  0
LINE
  5
3D4
100
AcDbEntity
  8
0
100
AcDbLine
 62
7
  6
CONTINUOUS
 10
0.0
 20
41.7292638592
 11
-2.3141573349
 21
45.0351953989
  0
LINE
  5
3D5
100
AcDbEntity
  8
RACCORDO
100
AcDbLine
 62
250
  6
CONTINUOUS
 10
44.4869789259
 20
83.4384156612
 11
44.5555822545
 21
83.8314996584
  0
LINE
  5
3D6
100
AcDbEntity
  8
RACCORDO
100
AcDbLine
 62
250
  6
CONTINUOUS
 10
48.8702508206
 20
84.0151058216
 11
48.8701602876
 21
84.0146271173
  0
LINE
  5
3D7
100
AcDbEntity
  8
0
100
AcDbLine
 62
7
  6
CONTINUOUS
 10
11.7008003534
 20
43.5208207108
 11
10.6190999035
 21
45.035195748
  0
LINE
  5
3D8
100
AcDbEntity
  8
0
100
AcDbLine
 62
7
  6
CONTINUOUS
 10
14.6543608757
 20
40.7340404267
 11
15.8297417502
 21
39.0884979822
  0
LINE
  5
3D9
100
AcDbEntity
  8
0
100
AcDbLine
 62
7
  6
CONTINUOUS
 10
11.5821034967
 20
45.0351957722
 11
13.7059226412
 21
42.0618506521
  0
LINE
  5
3DA
100
AcDbEntity
  8
DRAFT
100
AcDbLine
 62
7
  6
CONTINUOUS
 10
38.9
 20
-81.1707361408
 11
38.9
 21
-78.3707361408
  0
LINE
  5
3DB
100
AcDbEntity
  8
RACCORDO
100
AcDbLine
 62
7
  6
CONTINUOUS
 10
38.9209444827
 20
-79.3794249302
 11
38.9209444827
 21
-78.3916806235
  0
LINE
  5
3DC
100
AcDbEntity
  8
RACCORDO
100
AcDbLine
 62
7
  6
CONTINUOUS
 10
40.8790555173
 20
-79.3794249302
 11
40.8790555173
 21
-78.3916806235
  0
LINE
  5
3DD
100
AcDbEntity
  8
DRAFT
100
AcDbLine
 62
7
  6
CONTINUOUS
 10
40.9
 20
-78.3707361408
 11
40.9
 21
-81.1707361408
  0
LINE
  5
3DE
100
AcDbEntity
  8
DRAFT
100
AcDbLine
 62
7
  6
CONTINUOUS
 10
-25.6209444827
 20
-78.3916806235
 11
-25.6
 21
-78.3707361408
  0
LINE
  5
3DF
100
AcDbEntity
  8
DRAFT
100
AcDbLine
 62
7
  6
CONTINUOUS
 10
13.0290555173
 20
-42.8916806235
 11
13.05
 21
-42.8707361408
  0
LINE
  5
3E0
100
AcDbEntity
  8
RACCORDO
100
AcDbLine
 62
250
  6
CONTINUOUS
 10
13.0152994566
 20
-43.8554976015
 11
13.0290555173
 21
-43.8417415408
  0
LINE
  5
3E1
100
AcDbEntity
  8
0
100
AcDbLine
 62
7
  6
CONTINUOUS
 10
-17.4153278086
 20
39.0884972032
 11
-9.3448108006
 21
39.0884972032
  0
LINE
  5
3E2
100
AcDbEntity
  8
0
100
AcDbLine
 62
7
  6
CONTINUOUS
 10
-8.4952847286
 20
39.0884974122
 11
-2.1238228006
 21
39.0884974122
  0
LINE
  5
3E3
100
AcDbEntity
  8
0
100
AcDbLine
 62
7
  6
CONTINUOUS
 10
3.8228722214
 20
39.0884977352
 11
10.6190962214
 21
39.0884977352
  0
LINE
  5
3E4
100
AcDbEntity
  8
0
100
AcDbLine
 62
7
  6
CONTINUOUS
 10
11.5821036858
 20
39.0884978722
 11
13.4789686509
 21
39.0884978722
  0
LINE
  5
3E5
100
AcDbEntity
  8
0
100
AcDbLine
 62
7
  6
CONTINUOUS
 10
15.8297417502
 20
39.0884979822
 11
17.7266067856
 21
39.0884979822
  0
LINE
  5
3E6
100
AcDbEntity
  8
0
100
AcDbLine
 62
7
  6
CONTINUOUS
 10
9.1047211804
 20
40.5751727435
 11
5.3372472794
 21
40.5751726462
  0
LINE
  5
3E7
100
AcDbEntity
  8
0
100
AcDbLine
 62
7
  6
CONTINUOUS
 10
-2.1238228006
 20
40.6028734312
 11
-6.9809049476
 21
40.6028734312
  0
LINE
  5
3E8
100
AcDbEntity
  8
0
100
AcDbLine
 62
7
  6
CONTINUOUS
 10
-9.3448108006
 20
40.6028732342
 11
-15.0514228296
 21
40.6028732342
  0
LINE
  5
3E9
100
AcDbEntity
  8
0
100
AcDbLine
 62
7
  6
CONTINUOUS
 10
-15.0514228296
 20
41.3046571952
 11
-12.3181579076
 21
41.3046571952
  0
LINE
  5
3EA
100
AcDbEntity
  8
0
100
AcDbLine
 62
7
  6
CONTINUOUS
 10
5.3372472575
 20
41.4247025462
 11
9.1047211585
 21
41.4247026435
  0
LINE
  5
3EB
100
AcDbEntity
  8
0
100
AcDbLine
 62
7
  6
CONTINUOUS
 10
10.6190962214
 20
42.7266956352
 11
3.8228722214
 21
42.7266956352
  0
LINE
  5
3EC
100
AcDbEntity
  8
0
100
AcDbLine
 62
7
  6
CONTINUOUS
 10
-6.9809049476
 20
42.7266952492
 11
-8.4952847286
 21
42.7266952492
  0
LINE
  5
3ED
100
AcDbEntity
  8
0
100
AcDbLine
 62
7
  6
CONTINUOUS
 10
-12.3181579076
 20
42.8190379452
 11
-15.0514228866
 21
42.8190379452
  0
LINE
  5
3EE
100
AcDbEntity
  8
0
100
AcDbLine
 62
7
  6
CONTINUOUS
 10
14.6543570071
 20
43.3896504777
 11
13.4789723326
 21
45.0351957722
  0
LINE
  5
3EF
100
AcDbEntity
  8
0
100
AcDbLine
 62
7
  6
CONTINUOUS
 10
17.7266067856
 20
39.0884979822
 11
15.6027838413
 21
42.0618507019
  0
LWPOLYLINE
  5
3F0
100
AcDbEntity
  8
RACCORDO
100
AcDbPolyline
 62
7
  6
CONTINUOUS
 90
20
 70
0
 10
49.1955236761
 20
83.6225509879
 10
49.1954771228
 20
83.6287320459
 10
49.1938588896
 20
83.6590420959
 10
49.1899462606
 20
83.6891293979
 10
49.183764682
 20
83.718835893
 10
49.1753417313
 20
83.7479934669
 10
49.164726973
 20
83.7764350555
 10
49.1519802904
 20
83.804003523
 10
49.1371647316
 20
83.830533989
 10
49.1203660211
 20
83.8558691806
 10
49.1016825599
 20
83.879865614
 10
49.0812152964
 20
83.9023777659
 10
49.0590829281
 20
83.9232724327
 10
49.0354171628
 20
83.9424298222
 10
49.0103527686
 20
83.9597298671
 10
48.9840346766
 20
83.9750719359
 10
48.9566164011
 20
83.9883731375
 10
48.9282569304
 20
83.9995484616
 10
48.8991183978
 20
84.0085309203
 10
48.8702508797
 20
84.015106135
  0
LINE
  5
3F1
100
AcDbEntity
  8
RACCORDO
100
AcDbLine
 62
250
  6
CONTINUOUS
 10
44.4869789259
 20
-81.7037949969
 11
44.4869789259
 21
83.4384156612
  0
LINE
  5
3F2
100
AcDbEntity
  8
RACCORDO
100
AcDbLine
 62
250
  6
CONTINUOUS
 10
48.4772351269
 20
-81.5389456476
 11
48.4772351269
 21
83.0271658747
  0
LINE
  5
3F3
100
AcDbEntity
  8
RACCORDO
100
AcDbLine
 62
250
  6
CONTINUOUS
 10
48.7960134479
 20
-82.6562623988
 11
48.7960134479
 21
-82.6557752089
  0
LINE
  5
3F4
100
AcDbEntity
  8
RACCORDO
100
AcDbLine
 62
7
  6
CONTINUOUS
 10
49.195526258
 20
83.6225509874
 11
49.195526258
 21
-82.2567495932
  0
LINE
  5
3F5
100
AcDbEntity
  8
RACCORDO
100
AcDbLine
 62
7
  6
CONTINUOUS
 10
49.2100000033
 20
83.5509112396
 11
49.2100000033
 21
-82.1714206314
  0
LINE
  5
3F6
100
AcDbEntity
  8
RACCORDO
100
AcDbLine
 62
7
  6
CONTINUOUS
 10
49.3849773304
 20
81.4661560813
 11
49.3849773304
 21
-82.2063307612
  0
LINE
  5
3F7
100
AcDbEntity
  8
ASSI
100
AcDbLine
 62
7
  6
CONTINUOUS
 10
49.6186215945
 20
-81.2707361408
 11
49.6186215945
 21
81.4211397779
  0
LINE
  5
3F8
100
AcDbEntity
  8
0
100
AcDbLine
 62
7
  6
CONTINUOUS
 10
49.6186215945
 20
-81.2707361408
 11
49.6186215945
 21
81.4211397779
  0
LINE
  5
3F9
100
AcDbEntity
  8
ASSI
100
AcDbLine
 62
7
  6
CONTINUOUS
 10
49.6405941807
 20
-81.2707361408
 11
49.6405941807
 21
81.4168963193
  0
LINE
  5
3FA
100
AcDbEntity
  8
DRAFT
100
AcDbLine
 62
7
  6
CONTINUOUS
 10
-12.3209444827
 20
-78.3916806235
 11
-12.3
 21
-78.3707361408
  0
LINE
  5
3FB
100
AcDbEntity
  8
0
100
AcDbLine
 62
7
  6
CONTINUOUS
 10
-15.0514228866
 20
43.5208200732
 11
-10.1943408156
 21
43.5208200732
  0
LINE
  5
3FC
100
AcDbEntity
  8
0
100
AcDbLine
 62
7
  6
CONTINUOUS
 10
-9.344810896
 20
43.5208201676
 11
-3.1026249967
 21
43.5208203287
  0
LINE
  5
3FD
100
AcDbEntity
  8
0
100
AcDbLine
 62
7
  6
CONTINUOUS
 10
3.1026211039
 20
43.5208204889
 11
11.7008003534
 21
43.5208207108
  0
LINE
  5
3FE
100
AcDbEntity
  8
0
100
AcDbLine
 62
7
  6
CONTINUOUS
 10
17.726606597
 20
45.0351958822
 11
15.8297454319
 21
45.0351958822
  0
LINE
  5
3FF
100
AcDbEntity
  8
0
100
AcDbLine
 62
7
  6
CONTINUOUS
 10
13.4789723326
 20
45.0351957722
 11
11.5821034967
 21
45.0351957722
  0
LINE
  5
400
100
AcDbEntity
  8
0
100
AcDbLine
 62
7
  6
CONTINUOUS
 10
10.6190999035
 20
45.035195748
 11
2.314157175
 21
45.0351955337
  0
LINE
  5
401
100
AcDbEntity
  8
0
100
AcDbLine
 62
7
  6
CONTINUOUS
 10
-2.3141573349
 20
45.0351953989
 11
-9.3448109351
 21
45.0351952174
  0
LINE
  5
402
100
AcDbEntity
  8
0
100
AcDbLine
 62
7
  6
CONTINUOUS
 10
-10.1943408156
 20
45.0351950922
 11
-17.4153278086
 21
45.0351950922
  0
LINE
  5
403
100
AcDbEntity
  8
RACCORDO
100
AcDbLine
 62
7
  6
CONTINUOUS
 10
50.3561004315
 20
83.332121922
 11
50.3561014955
 21
81.2777742917
  0
LINE
  5
404
100
AcDbEntity
  8
ASSI
100
AcDbLine
 62
7
  6
CONTINUOUS
 10
50.3675206953
 20
83.330286543
 11
50.3675206953
 21
81.2755391737
  0
LINE
  5
405
100
AcDbEntity
  8
RACCORDO
100
AcDbLine
 62
7
  6
CONTINUOUS
 10
49.6167724049
 20
-81.2707361408
 11
49.5992674251
 21
-82.2777171034
  0
LINE
  5
406
100
AcDbEntity
  8
DRAFT
100
AcDbLine
 62
7
  6
CONTINUOUS
 10
49.6256042279
 20
-82.2777171034
 11
49.6431811459
 21
-81.2707361408
  0
LWPOLYLINE
  5
407
100
AcDbEntity
  8
0
100
AcDbPolyline
 62
7
  6
CONTINUOUS
 90
5
 70
0
 10
-2.5188005168
 20
-82.7056462707
 10
-2.5387092897
 20
-82.726131373
 10
-2.5717345425
 20
-82.7749503377
 10
-2.5926832803
 20
-82.8269190337
 10
-2.5999967803
 20
-82.8807608899
  0
LINE
  5
408
100
AcDbEntity
  8
DRAFT
100
AcDbLine
 62
7
  6
CONTINUOUS
 10
0.9790555173
 20
-78.3916806235
 11
1.0
 21
-78.3707361408
  0
LINE
  5
409
100
AcDbEntity
  8
DRAFT
100
AcDbLine
 62
7
  6
CONTINUOUS
 10
14.2790555173
 20
-78.3916806235
 11
14.3
 21
-78.3707361408
  0
LWPOLYLINE
  5
40A
100
AcDbEntity
  8
0
100
AcDbPolyline
 62
7
  6
CONTINUOUS
 90
20
 70
0
 10
-2.2476333423
 20
-84.97990678
 10
-2.2492991753
 20
-84.9812385615
 10
-2.2487643505
 20
-84.9809785483
 10
-2.2384076259
 20
-84.9752034019
 10
-2.2201731437
 20
-84.9665433643
 10
-2.1937731218
 20
-84.9556504621
 10
-2.1585001807
 20
-84.9428513011
 10
-2.1164125076
 20
-84.9292379698
 10
-2.0680189022
 20
-84.9150931742
 10
-2.0127307572
 20
-84.9003356698
 10
-1.9511725573
 20
-84.8851992154
 10
-1.8834746204
 20
-84.8697437206
 10
-1.8095435671
 20
-84.8539658814
 10
-1.7296672254
 20
-84.8379343973
 10
-1.6439743014
 20
-84.8216702008
 10
-1.5525210213
 20
-84.8051734987
 10
-1.455496756
 20
-84.7884627286
 10
-1.3533033547
 20
-84.7715834113
 10
-1.2458885866
 20
-84.7544992746
 10
-1.132699157
 20
-84.7370989239
  0
LWPOLYLINE
  5
40B
100
AcDbEntity
  8
0
100
AcDbPolyline
 62
7
  6
CONTINUOUS
 90
20
 70
0
 10
-2.2495810116
 20
-82.9814758497
 10
-2.2498455608
 20
-82.9816689201
 10
-2.2443187226
 20
-82.9783628413
 10
-2.2294437439
 20
-82.9707845908
 10
-2.2078856158
 20
-82.961291364
 10
-2.1797603383
 20
-82.9503743242
 10
-2.1442016528
 20
-82.9380583708
 10
-2.1024398294
 20
-82.9250120974
 10
-2.0545735691
 20
-82.9113838729
 10
-2.0002458614
 20
-82.8971676749
 10
-1.9401631471
 20
-82.8826092107
 10
-1.8744065686
 20
-82.8677521519
 10
-1.802922789
 20
-82.85260023
 10
-1.7263662296
 20
-82.8372912819
 10
-1.6450327082
 20
-82.8218659747
 10
-1.558921287
 20
-82.8063027123
 10
-1.4683236203
 20
-82.7906307359
 10
-1.373738754
 20
-82.7749060778
 10
-1.2750717929
 20
-82.7590811478
 10
-1.1716463702
 20
-82.7430234928
  0
LINE
  5
40C
100
AcDbEntity
  8
RACCORDO
100
AcDbLine
 62
250
  6
CONTINUOUS
 10
-23.708885885
 20
-82.7056462707
 11
-23.6347331672
 21
-82.6707361408
  0
LINE
  5
40D
100
AcDbEntity
  8
DRAFT
100
AcDbLine
 62
7
  6
CONTINUOUS
 10
27.5790555173
 20
-78.3916806235
 11
27.6
 21
-78.3707361408
  0
LWPOLYLINE
  5
40E
100
AcDbEntity
  8
0
100
AcDbPolyline
 62
7
  6
CONTINUOUS
 90
17
 70
0
 10
2.2493422539
 20
-83.7791921784
 10
2.2489873473
 20
-83.7794018041
 10
2.2388905726
 20
-83.7850705063
 10
2.2161281946
 20
-83.7957465823
 10
2.183739389
 20
-83.8086753349
 10
2.1417619017
 20
-83.8232615467
 10
2.0890419664
 20
-83.839446391
 10
2.0273991074
 20
-83.8563902863
 10
1.9572635244
 20
-83.8738737908
 10
1.8780250836
 20
-83.8919750617
 10
1.7901791572
 20
-83.9105284233
 10
1.6938282116
 20
-83.9294936684
 10
1.588954351
 20
-83.9488696217
 10
1.4759201422
 20
-83.9685995784
 10
1.3548530047
 20
-83.9886853928
 10
1.2260643256
 20
-84.0091095567
 10
1.0903093331
 20
-84.0298007441
  0
LWPOLYLINE
  5
40F
100
AcDbEntity
  8
0
100
AcDbPolyline
 62
7
  6
CONTINUOUS
 90
20
 70
0
 10
-2.2950983895
 20
-88.5308062355
 10
-2.2968564137
 20
-88.5317306029
 10
-2.2999056466
 20
-88.5331824464
 10
-2.2981047796
 20
-88.5324428463
 10
-2.293288962
 20
-88.5307088913
 10
-2.2857260927
 20
-88.5282690235
 10
-2.2749034958
 20
-88.5251168971
 10
-2.261682496
 20
-88.5216128446
 10
-2.2461924074
 20
-88.5178422134
 10
-2.2282168274
 20
-88.5137958143
 10
-2.2081781216
 20
-88.5095991145
 10
-2.1861823114
 20
-88.5052878644
 10
-2.1621217374
 20
-88.5008523132
 10
-2.1361233684
 20
-88.4963251001
 10
-2.1082105876
 20
-88.4917158111
 10
-2.0783565618
 20
-88.4870245836
 10
-2.0466046726
 20
-88.482261769
 10
-2.0129636084
 20
-88.4774309613
 10
-1.9774246649
 20
-88.4725326504
 10
-1.9399980621
 20
-88.4675694873
  0
LINE
  5
410
100
AcDbEntity
  8
DRAFT
100
AcDbLine
 62
7
  6
CONTINUOUS
 10
40.8790555173
 20
-78.3916806235
 11
40.9
 21
-78.3707361408
  0
LINE
  5
411
100
AcDbEntity
  8
SMUSSO
100
AcDbLine
 62
7
  6
CONTINUOUS
 10
2.3499999988
 20
-87.6707361414
 11
3.3499999983
 21
-87.1707361417
  0
LWPOLYLINE
  5
412
100
AcDbEntity
  8
0
100
AcDbPolyline
 62
7
  6
CONTINUOUS
 90
18
 70
0
 10
2.3312184209
 20
-88.6039808188
 10
2.3320551163
 20
-88.6037004831
 10
2.334419704
 20
-88.6029784325
 10
2.3334474936
 20
-88.6032398446
 10
2.3306563284
 20
-88.6038905606
 10
2.3263839591
 20
-88.6047824558
 10
2.3202347555
 20
-88.6059409188
 10
2.312700091
 20
-88.6072299121
 10
2.3038628697
 20
-88.6086136104
 10
2.293577465
 20
-88.6100959103
 10
2.2819826534
 20
-88.6116411399
 10
2.2690777149
 20
-88.6132386454
 10
2.2547948593
 20
-88.6148871191
 10
2.239162138
 20
-88.6165748806
 10
2.2221383993
 20
-88.6182993124
 10
2.2036895529
 20
-88.6200573604
 10
2.1838548332
 20
-88.6218399352
 10
2.1625833496
 20
-88.6236471016
  0
LINE
  5
413
100
AcDbEntity
  8
RACCORDO
100
AcDbLine
 62
250
  6
CONTINUOUS
 10
-49.195526258
 20
83.622550989
 11
-49.195039068
 21
83.6225509879
  0
LINE
  5
414
100
AcDbEntity
  8
RACCORDO
100
AcDbLine
 62
250
  6
CONTINUOUS
 10
49.195526258
 20
83.6225509874
 11
49.195039068
 21
83.6225509874
  0
LWPOLYLINE
  5
415
100
AcDbEntity
  8
RACCORDO
100
AcDbPolyline
 62
7
  6
CONTINUOUS
 90
20
 70
0
 10
-48.8702508764
 20
84.0151061359
 10
-48.8770327002
 20
84.0137624984
 10
-48.9066974099
 20
84.0064272359
 10
-48.935694806
 20
83.9968581919
 10
-48.9638637157
 20
83.9851059482
 10
-48.9910429442
 20
83.9712460756
 10
-49.0170736584
 20
83.9553654633
 10
-49.0418029111
 20
83.9375505456
 10
-49.0650911309
 20
83.9179102269
 10
-49.0868048487
 20
83.896566494
 10
-49.1068140247
 20
83.8736421575
 10
-49.125006873
 20
83.8492775126
 10
-49.1412849721
 20
83.8236191154
 10
-49.1555532288
 20
83.7968109674
 10
-49.1677347528
 20
83.7690151312
 10
-49.1777690792
 20
83.7403970475
 10
-49.1855991707
 20
83.7111122226
 10
-49.191184168
 20
83.6813277348
 10
-49.1944989228
 20
83.6512113319
 10
-49.1955236764
 20
83.6225509891
  0
LINE
  5
416
100
AcDbEntity
  8
RACCORDO
100
AcDbLine
 62
250
  6
CONTINUOUS
 10
-50.3675206953
 20
83.330255594
 11
-50.3561013403
 21
83.3323051995
  0
LINE
  5
417
100
AcDbEntity
  8
RACCORDO
100
AcDbLine
 62
250
  6
CONTINUOUS
 10
50.3561007424
 20
83.3323052009
 11
50.3675112687
 21
83.3302877795
  0
ARC
  5
418
100
AcDbEntity
  8
RACCORDO
100
AcDbCircle
 62
7
  6
CONTINUOUS
 10
-6.65
 20
-209.5667268079
 40
298.8
100
AcDbArc
 50
79.0784094234
 51
88.7247376348
  0
ARC
  5
419
100
AcDbEntity
  8
RACCORDO
100
AcDbCircle
 62
7
  6
CONTINUOUS
 10
-6.65
 20
-209.5667268079
 40
298.785526258
100
AcDbArc
 50
79.291070837
 51
88.7246758485
  0
ARC
  5
41A
100
AcDbEntity
  8
RACCORDO
100
AcDbCircle
 62
250
  6
CONTINUOUS
 10
-6.1519049574
 20
-209.5667381093
 40
298.3000115331
100
AcDbArc
 50
79.0802761655
 51
79.3043880554
  0
ARC
  5
41B
100
AcDbEntity
  8
RACCORDO
100
AcDbCircle
 62
250
  6
CONTINUOUS
 10
-6.65
 20
-209.5667268079
 40
297.8330588561
100
AcDbArc
 50
80.1001147462
 51
88.7205966965
  0
ARC
  5
41C
100
AcDbEntity
  8
RACCORDO
100
AcDbCircle
 62
250
  6
CONTINUOUS
 10
-6.65
 20
-209.5667268079
 40
297.4340332359
100
AcDbArc
 50
80.1001147462
 51
88.7188800143
  0
ARC
  5
41D
100
AcDbEntity
  8
ASSI
100
AcDbCircle
 62
7
  6
CONTINUOUS
 10
-6.65
 20
-209.9962279678
 40
296.8
100
AcDbArc
 50
78.9241966784
 51
79.1174077286
  0
CIRCLE
  5
41E
100
AcDbEntity
  8
DRAFT
100
AcDbCircle
 62
7
  6
CONTINUOUS
 10
0.0
 20
-72.1707361408
 40
1.7
  0
CIRCLE
  5
41F
100
AcDbEntity
  8
DRAFT
100
AcDbCircle
 62
7
  6
CONTINUOUS
 10
0.0
 20
-72.1707361408
 40
1.6790555173
  0
CIRCLE
  5
420
100
AcDbEntity
  8
DRAFT
100
AcDbCircle
 62
7
  6
CONTINUOUS
 10
0.0
 20
-64.6707361408
 40
1.35
  0
CIRCLE
  5
421
100
AcDbEntity
  8
DRAFT
100
AcDbCircle
 62
7
  6
CONTINUOUS
 10
0.0
 20
-64.6707361408
 40
1.3290555173
  0
ARC
  5
422
100
AcDbEntity
  8
RACCORDO
100
AcDbCircle
 62
250
  6
CONTINUOUS
 10
-48.0759005784
 20
-81.5366367192
 40
0.4013449246
100
AcDbArc
 50
180.3296262256
 51
269.6703737744
  0
ARC
  5
423
100
AcDbEntity
  8
RACCORDO
100
AcDbCircle
 62
250
  6
CONTINUOUS
 10
-48.7950394694
 20
-82.2557756102
 40
0.4000012764
100
AcDbArc
 50
180.1395120201
 51
269.8604879799
  0
ARC
  5
424
100
AcDbEntity
  8
RACCORDO
100
AcDbCircle
 62
7
  6
CONTINUOUS
 10
-49.2256651498
 20
-82.2707361408
 40
0.4
100
AcDbArc
 50
181.0
 51
270.0
  0
ARC
  5
425
100
AcDbEntity
  8
RACCORDO
100
AcDbCircle
 62
7
  6
CONTINUOUS
 10
-49.2007681733
 20
-82.2737822393
 40
0.39695391
100
AcDbArc
 50
264.020249238
 51
269.9881551809
  0
ARC
  5
426
100
AcDbEntity
  8
RACCORDO
100
AcDbCircle
 62
7
  6
CONTINUOUS
 10
-40.2912465971
 20
-82.9068892462
 40
0.2012467562
100
AcDbArc
 50
76.6972902483
 51
86.9812386821
  0
ARC
  5
427
100
AcDbEntity
  8
RACCORDO
100
AcDbCircle
 62
7
  6
CONTINUOUS
 10
-23.708779407
 20
-82.9068061054
 40
0.2011598629
100
AcDbArc
 50
90.030327838
 51
103.3009506664
  0
ARC
  5
428
100
AcDbEntity
  8
RACCORDO
100
AcDbCircle
 62
250
  6
CONTINUOUS
 10
-39.5947147881
 20
-83.6573389284
 40
0.2004899813
100
AcDbArc
 50
256.7824051408
 51
269.9808822474
  0
ARC
  5
429
100
AcDbEntity
  8
RACCORDO
100
AcDbCircle
 62
250
  6
CONTINUOUS
 10
-24.4052841105
 20
-83.6573516237
 40
0.2004772857
100
AcDbArc
 50
270.0188041887
 51
283.2175660369
  0
ARC
  5
42A
100
AcDbEntity
  8
RACCORDO
100
AcDbCircle
 62
250
  6
CONTINUOUS
 10
-26.0039626416
 20
-83.6573008556
 40
0.2000163866
100
AcDbArc
 50
180.0052469261
 51
269.9550021158
  0
ARC
  5
42B
100
AcDbEntity
  8
RACCORDO
100
AcDbCircle
 62
250
  6
CONTINUOUS
 10
-37.9960373585
 20
-83.6573008555
 40
0.2000163867
100
AcDbArc
 50
270.0449979095
 51
359.9947530607
  0
ARC
  5
42C
100
AcDbEntity
  8
RACCORDO
100
AcDbCircle
 62
7
  6
CONTINUOUS
 10
-1.8496512384
 20
-85.4707361408
 40
0.2
100
AcDbArc
 50
270.0000001927
 51
359.8999999982
  0
ARC
  5
42D
100
AcDbEntity
  8
RACCORDO
100
AcDbCircle
 62
7
  6
CONTINUOUS
 10
-40.2911235593
 20
-82.9049449376
 40
0.1992986672
100
AcDbArc
 50
86.9871247096
 51
89.997284887
  0
ARC
  5
42E
100
AcDbEntity
  8
0
100
AcDbCircle
 62
7
  6
CONTINUOUS
 10
-2.3228028179
 20
-88.9861902263
 40
0.1830474328
100
AcDbArc
 50
268.8417293461
 51
276.4912286387
  0
ARC
  5
42F
100
AcDbEntity
  8
DRAFT
100
AcDbCircle
 62
7
  6
CONTINUOUS
 10
-3.05
 20
19.4292638592
 40
1.45
100
AcDbArc
 50
90.0
 51
270.0
  0
ARC
  5
430
100
AcDbEntity
  8
DRAFT
100
AcDbCircle
 62
7
  6
CONTINUOUS
 10
-3.05
 20
19.4292638592
 40
1.4412731322
100
AcDbArc
 50
90.0
 51
270.0
  0
ARC
  5
431
100
AcDbEntity
  8
RACCORDO
100
AcDbCircle
 62
7
  6
CONTINUOUS
 10
-48.7069736342
 20
83.5464490597
 40
0.5052994332
100
AcDbArc
 50
100.7102132256
 51
111.9292119089
  0
ARC
  5
432
100
AcDbEntity
  8
RACCORDO
100
AcDbCircle
 62
7
  6
CONTINUOUS
 10
-48.707610139
 20
83.5483686495
 40
0.5032810397
100
AcDbArc
 50
111.9436064561
 51
116.841916369
  0
ARC
  5
433
100
AcDbEntity
  8
RACCORDO
100
AcDbCircle
 62
7
  6
CONTINUOUS
 10
-48.7094673987
 20
83.55056529
 40
0.5005472402
100
AcDbArc
 50
163.4563682298
 51
176.2034568055
  0
ARC
  5
434
100
AcDbEntity
  8
RACCORDO
100
AcDbCircle
 62
7
  6
CONTINUOUS
 10
-49.8675170873
 20
83.3302864434
 40
0.5000000003
100
AcDbArc
 50
100.9217392076
 51
179.9999804917
  0
ARC
  5
435
100
AcDbEntity
  8
RACCORDO
100
AcDbCircle
 62
250
  6
CONTINUOUS
 10
-49.8572460357
 20
83.3334864588
 40
0.4988281613
100
AcDbArc
 50
100.9682390896
 51
180.1356728038
  0
ARC
  5
436
100
AcDbEntity
  8
RACCORDO
100
AcDbCircle
 62
7
  6
CONTINUOUS
 10
-48.7123785256
 20
83.5508830321
 40
0.4976214786
100
AcDbArc
 50
176.2177672679
 51
179.996752207
  0
ARC
  5
437
100
AcDbEntity
  8
RACCORDO
100
AcDbCircle
 62
250
  6
CONTINUOUS
 10
-48.0759740473
 20
83.0253097782
 40
0.4012713971
100
AcDbArc
 50
100.8594949349
 51
179.7349712007
  0
ARC
  5
438
100
AcDbEntity
  8
RACCORDO
100
AcDbCircle
 62
250
  6
CONTINUOUS
 10
-48.7950424362
 20
83.6217463959
 40
0.3999974411
100
AcDbArc
 50
100.8241792171
 51
179.8847499453
  0
ARC
  5
439
100
AcDbEntity
  8
RACCORDO
100
AcDbCircle
 62
7
  6
CONTINUOUS
 10
6.65
 20
-209.5667268079
 40
298.8
100
AcDbArc
 50
91.2752623652
 51
100.921613391
  0
ARC
  5
43A
100
AcDbEntity
  8
RACCORDO
100
AcDbCircle
 62
7
  6
CONTINUOUS
 10
6.65
 20
-209.5667268079
 40
298.785526258
100
AcDbArc
 50
91.2753241515
 51
100.7089291624
  0
ARC
  5
43B
100
AcDbEntity
  8
RACCORDO
100
AcDbCircle
 62
250
  6
CONTINUOUS
 10
6.1519451892
 20
-209.5669494999
 40
298.3002267179
100
AcDbArc
 50
100.6956120023
 51
100.9197238958
  0
ARC
  5
43C
100
AcDbEntity
  8
RACCORDO
100
AcDbCircle
 62
250
  6
CONTINUOUS
 10
6.65
 20
-209.5667268079
 40
297.8330588561
100
AcDbArc
 50
91.2794033035
 51
99.8998852538
  0
ARC
  5
43D
100
AcDbEntity
  8
RACCORDO
100
AcDbCircle
 62
250
  6
CONTINUOUS
 10
6.65
 20
-209.5667268079
 40
297.4340332359
100
AcDbArc
 50
91.2811199857
 51
99.8998852538
  0
ARC
  5
43E
100
AcDbEntity
  8
ASSI
100
AcDbCircle
 62
7
  6
CONTINUOUS
 10
6.65
 20
-209.9962279678
 40
296.8
100
AcDbArc
 50
100.8825922714
 51
101.0758033327
  0
ARC
  5
43F
100
AcDbEntity
  8
RACCORDO
100
AcDbCircle
 62
250
  6
CONTINUOUS
 10
48.0759005781
 20
-81.5366367189
 40
0.4013449249
100
AcDbArc
 50
270.3296262671
 51
359.6703737293
  0
ARC
  5
440
100
AcDbEntity
  8
RACCORDO
100
AcDbCircle
 62
250
  6
CONTINUOUS
 10
48.7950394694
 20
-82.2557756102
 40
0.4000012764
100
AcDbArc
 50
270.1395120145
 51
359.8604879856
  0
ARC
  5
441
100
AcDbEntity
  8
RACCORDO
100
AcDbCircle
 62
7
  6
CONTINUOUS
 10
49.2256651498
 20
-82.2707361408
 40
0.4
100
AcDbArc
 50
270.0
 51
359.0
  0
ARC
  5
442
100
AcDbEntity
  8
RACCORDO
100
AcDbCircle
 62
7
  6
CONTINUOUS
 10
49.2007636693
 20
-82.2751671341
 40
0.3955690162
100
AcDbArc
 50
270.0125386642
 51
275.9894805028
  0
ARC
  5
443
100
AcDbEntity
  8
RACCORDO
100
AcDbCircle
 62
7
  6
CONTINUOUS
 10
1.8496512384
 20
-85.4707361408
 40
0.2
100
AcDbArc
 50
180.1000000018
 51
269.9999998073
  0
ARC
  5
444
100
AcDbEntity
  8
DRAFT
100
AcDbCircle
 62
7
  6
CONTINUOUS
 10
3.05
 20
19.4292638592
 40
1.45
100
AcDbArc
 50
270.0
 51
90.0
  0
ARC
  5
445
100
AcDbEntity
  8
DRAFT
100
AcDbCircle
 62
7
  6
CONTINUOUS
 10
3.05
 20
19.4292638592
 40
1.4412731322
100
AcDbArc
 50
270.0
 51
90.0
  0
ARC
  5
446
100
AcDbEntity
  8
RACCORDO
100
AcDbCircle
 62
7
  6
CONTINUOUS
 10
48.7068173174
 20
83.5463186447
 40
0.5054675299
100
AcDbArc
 50
63.0059148705
 51
75.5243832056
  0
ARC
  5
447
100
AcDbEntity
  8
RACCORDO
100
AcDbCircle
 62
7
  6
CONTINUOUS
 10
48.707454808
 20
83.5484113531
 40
0.5032819129
100
AcDbArc
 50
75.5351008339
 51
79.3020951117
  0
ARC
  5
448
100
AcDbEntity
  8
RACCORDO
100
AcDbCircle
 62
7
  6
CONTINUOUS
 10
49.8675173171
 20
83.3302863842
 40
0.5000000003
100
AcDbArc
 50
0.0000181757
 51
79.0784150349
  0
ARC
  5
449
100
AcDbEntity
  8
RACCORDO
100
AcDbCircle
 62
7
  6
CONTINUOUS
 10
48.7112587459
 20
83.5508747373
 40
0.4987419481
100
AcDbArc
 50
0.0171420227
 51
16.3893065311
  0
ARC
  5
44A
100
AcDbEntity
  8
RACCORDO
100
AcDbCircle
 62
250
  6
CONTINUOUS
 10
48.0759716183
 20
83.0253103086
 40
0.401271286
100
AcDbArc
 50
0.2649530775
 51
79.1401501895
  0
ARC
  5
44B
100
AcDbEntity
  8
RACCORDO
100
AcDbCircle
 62
250
  6
CONTINUOUS
 10
48.7950424362
 20
83.6217463959
 40
0.3999974411
100
AcDbArc
 50
0.1152500544
 51
79.1758207832
  0
SPLINE
  5
44C
100
AcDbEntity
  8
0
100
AcDbSpline
 62
7
  6
CONTINUOUS
 70
0
 71
3
 72
8
 73
4
 74
0
 42
0.0000001
 43
0.0000001
 44
0.0000000001
 40
0.0
 40
0.0
 40
0.0
 40
0.0
 40
1.0
 40
1.0
 40
1.0
 40
1.0
 10
-2.2592471966
 20
-89.1576654102
 30
0.0
 10
-2.272976157
 20
-89.1629244565
 30
0.0
 10
-2.2875019002
 20
-89.1663993764
 30
0.0
 10
-2.3021091029
 20
-89.1680641739
 30
0.0
  0
LINE
  5
44D
100
AcDbEntity
  8
0
100
AcDbLine
 62
7
  6
CONTINUOUS
 10
1.2833921134
 20
-72.4867893533
 11
1.2850832532
 21
-73.251301289
  0
LINE
  5
44E
100
AcDbEntity
  8
0
100
AcDbLine
 62
7
  6
CONTINUOUS
 10
-1.2850832532
 20
-73.251301289
 11
-1.2840628777
 21
-72.7899756404
  0
LINE
  5
44F
100
AcDbEntity
  8
0
100
AcDbLine
 62
7
  6
CONTINUOUS
 10
-1.2831758525
 20
-72.3890519013
 11
-1.2820287593
 21
-71.8707361408
  0
LINE
  5
450
100
AcDbEntity
  8
RACCORDO
100
AcDbLine
 62
250
  6
CONTINUOUS
 10
-0.8764897332
 20
-65.6692264548
 11
0.8764907691
 21
-65.6692393904
  0
SPLINE
  5
451
100
AcDbEntity
  8
RACCORDO
100
AcDbSpline
 62
7
  6
CONTINUOUS
 70
0
 71
3
 72
11
 73
7
 74
0
 42
0.0000001
 43
0.0000001
 44
0.0000000001
 40
0.0
 40
0.0
 40
0.0
 40
0.0
 40
0.2498159317
 40
0.4994929172
 40
0.7495851191
 40
1.0
 40
1.0
 40
1.0
 40
1.0
 10
-49.2421216316
 20
-82.6685762339
 30
0.0
 10
-49.2897989244
 20
-82.6635887393
 30
0.0
 10
-49.3842171349
 20
-82.6360013467
 30
0.0
 10
-49.501086653
 20
-82.5469448559
 30
0.0
 10
-49.5791701611
 20
-82.4223854043
 30
0.0
 10
-49.5984326889
 20
-82.3257622381
 30
0.0
 10
-49.5992674272
 20
-82.2777171034
 30
0.0
  0
SPLINE
  5
452
100
AcDbEntity
  8
RACCORDO
100
AcDbSpline
 62
7
  6
CONTINUOUS
 70
0
 71
3
 72
11
 73
7
 74
0
 42
0.0000001
 43
0.0000001
 44
0.0000000001
 40
0.0
 40
0.0
 40
0.0
 40
0.0
 40
0.2497047449
 40
0.4994833445
 40
0.7495970547
 40
1.0
 40
1.0
 40
1.0
 40
1.0
 10
49.2420396614
 20
-82.6685767667
 30
0.0
 10
49.2896978237
 20
-82.6635836595
 30
0.0
 10
49.3841022196
 20
-82.6359634242
 30
0.0
 10
49.5010244726
 20
-82.546965448
 30
0.0
 10
49.5791535868
 20
-82.4223918044
 30
0.0
 10
49.5984319758
 20
-82.3257628371
 30
0.0
 10
49.5992674251
 20
-82.2777171034
 30
0.0
  0
SPLINE
  5
453
100
AcDbEntity
  8
RACCORDO
100
AcDbSpline
 62
250
  6
CONTINUOUS
 70
0
 71
3
 72
20
 73
16
 74
0
 42
0.0000001
 43
0.0000001
 44
0.0000000001
 40
0.0
 40
0.0
 40
0.0
 40
0.0
 40
0.1863279066
 40
0.3663015775
 40
0.5336918918
 40
0.6825464583
 40
0.7483099751
 40
0.8074750128
 40
0.8595001601
 40
0.9039184736
 40
0.9403459672
 40
0.968505453
 40
0.9882836959
 40
0.9950941809
 40
1.0
 40
1.0
 40
1.0
 40
1.0
 10
-44.4869789259
 20
83.4384156612
 30
0.0
 10
-44.7337828244
 20
83.3996500164
 30
0.0
 10
-45.2193345425
 20
83.3257150336
 30
0.0
 10
-45.9277992449
 20
83.2249750836
 30
0.0
 10
-46.5875422168
 20
83.138790551
 30
0.0
 10
-47.0963396145
 20
83.0796067079
 30
0.0
 10
-47.4615948663
 20
83.042864275
 30
0.0
 10
-47.6979499914
 20
83.0220880803
 30
0.0
 10
-47.9060723894
 20
83.007134363
 30
0.0
 10
-48.0840020348
 20
82.9981938591
 30
0.0
 10
-48.230208202
 20
82.9952082301
 30
0.0
 10
-48.3432249327
 20
82.9983390909
 30
0.0
 10
-48.416599084
 20
83.0058499775
 30
0.0
 10
-48.4574564793
 20
83.0165791824
 30
0.0
 10
-48.4719650419
 20
83.0232297463
 30
0.0
 10
-48.4772351269
 20
83.0271658747
 30
0.0
  0
SPLINE
  5
454
100
AcDbEntity
  8
RACCORDO
100
AcDbSpline
 62
250
  6
CONTINUOUS
 70
0
 71
3
 72
20
 73
16
 74
0
 42
0.0000001
 43
0.0000001
 44
0.0000000001
 40
0.0
 40
0.0
 40
0.0
 40
0.0
 40
0.1863241017
 40
0.3660907079
 40
0.5330103342
 40
0.681248763
 40
0.7467276428
 40
0.8056765518
 40
0.8575939606
 40
0.9020492979
 40
0.9386868799
 40
0.9672443493
 40
0.9876021897
 40
0.9947529194
 40
1.0
 40
1.0
 40
1.0
 40
1.0
 10
-44.4869789259
 20
-81.3047693768
 30
0.0
 10
-44.7359134644
 20
-81.3047701646
 30
0.0
 10
-45.2250264962
 20
-81.3076184116
 30
0.0
 10
-45.9370492563
 20
-81.3203424217
 30
0.0
 10
-46.597980895
 20
-81.3410048786
 30
0.0
 10
-47.1059915698
 20
-81.3649777099
 30
0.0
 10
-47.4695487336
 20
-81.3882138625
 30
0.0
 10
-47.7044600531
 20
-81.4063339423
 30
0.0
 10
-47.9110878794
 20
-81.4256751715
 30
0.0
 10
-48.0876250033
 20
-81.4460556042
 30
0.0
 10
-48.2326650639
 20
-81.4671446207
 30
0.0
 10
-48.3448576975
 20
-81.4888139994
 30
0.0
 10
-48.417492112
 20
-81.5082812218
 30
0.0
 10
-48.4577774671
 20
-81.5254346913
 30
0.0
 10
-48.4720236726
 20
-81.534256892
 30
0.0
 10
-48.4772351269
 20
-81.5389456476
 30
0.0
  0
SPLINE
  5
455
100
AcDbEntity
  8
RACCORDO
100
AcDbSpline
 62
250
  6
CONTINUOUS
 70
0
 71
3
 72
20
 73
16
 74
0
 42
0.0000001
 43
0.0000001
 44
0.0000000001
 40
0.0
 40
0.0
 40
0.0
 40
0.0
 40
0.004905819
 40
0.0117163041
 40
0.0314945471
 40
0.0596540328
 40
0.0960815265
 40
0.1404998399
 40
0.1925249873
 40
0.251690025
 40
0.3174535417
 40
0.4663081083
 40
0.6336984225
 40
0.8136720934
 40
1.0
 40
1.0
 40
1.0
 40
1.0
 10
48.4772351269
 20
83.0271658747
 30
0.0
 10
48.4719650423
 20
83.023229746
 30
0.0
 10
48.4574564797
 20
83.0165791821
 30
0.0
 10
48.4165990844
 20
83.0058499773
 30
0.0
 10
48.3432249328
 20
82.9983390908
 30
0.0
 10
48.230208202
 20
82.9952082303
 30
0.0
 10
48.0840020348
 20
82.9981938591
 30
0.0
 10
47.9060723894
 20
83.0071343629
 30
0.0
 10
47.6979499914
 20
83.0220880804
 30
0.0
 10
47.4615948663
 20
83.042864275
 30
0.0
 10
47.0963396145
 20
83.0796067079
 30
0.0
 10
46.5875422168
 20
83.138790551
 30
0.0
 10
45.927799245
 20
83.2249750837
 30
0.0
 10
45.2193345425
 20
83.3257150333
 30
0.0
 10
44.7337828244
 20
83.3996500167
 30
0.0
 10
44.4869789259
 20
83.4384156612
 30
0.0
  0
SPLINE
  5
456
100
AcDbEntity
  8
RACCORDO
100
AcDbSpline
 62
250
  6
CONTINUOUS
 70
0
 71
3
 72
20
 73
16
 74
0
 42
0.0000001
 43
0.0000001
 44
0.0000000001
 40
0.0
 40
0.0
 40
0.0
 40
0.0
 40
0.0052470806
 40
0.0123978103
 40
0.0327556507
 40
0.0613131201
 40
0.0979507021
 40
0.1424060394
 40
0.1943234482
 40
0.2532723572
 40
0.318751237
 40
0.4669896658
 40
0.6339092921
 40
0.8136758983
 40
1.0
 40
1.0
 40
1.0
 40
1.0
 10
48.4772351269
 20
-81.5389456476
 30
0.0
 10
48.4720236726
 20
-81.534256892
 30
0.0
 10
48.4577774671
 20
-81.5254346913
 30
0.0
 10
48.4174921121
 20
-81.5082812217
 30
0.0
 10
48.3448576975
 20
-81.4888139993
 30
0.0
 10
48.2326650638
 20
-81.4671446208
 30
0.0
 10
48.0876250033
 20
-81.4460556042
 30
0.0
 10
47.9110878794
 20
-81.4256751715
 30
0.0
 10
47.7044600531
 20
-81.4063339423
 30
0.0
 10
47.4695487336
 20
-81.3882138625
 30
0.0
 10
47.1059915698
 20
-81.3649777099
 30
0.0
 10
46.597980895
 20
-81.3410048786
 30
0.0
 10
45.9370492563
 20
-81.3203424217
 30
0.0
 10
45.2250264962
 20
-81.3076184116
 30
0.0
 10
44.7359134644
 20
-81.3047701648
 30
0.0
 10
44.4869789259
 20
-81.3047693768
 30
0.0
  0
SPLINE
  5
457
100
AcDbEntity
  8
RACCORDO
100
AcDbSpline
 62
250
  6
CONTINUOUS
 70
0
 71
3
 72
20
 73
16
 74
0
 42
0.0000001
 43
0.0000001
 44
0.0000000001
 40
0.0
 40
0.0
 40
0.0
 40
0.0
 40
0.0050218746
 40
0.0118916255
 40
0.0317190026
 40
0.0599057595
 40
0.0963644579
 40
0.1408251362
 40
0.1929015989
 40
0.2521199935
 40
0.3179304452
 40
0.4668256672
 40
0.6341472706
 40
0.8139350933
 40
1.0
 40
1.0
 40
1.0
 40
1.0
 10
48.1515729263
 20
83.4193893495
 30
0.0
 10
48.1468915566
 20
83.4155108079
 30
0.0
 10
48.1338536877
 20
83.4088294888
 30
0.0
 10
48.0969507295
 20
83.3980938271
 30
0.0
 10
48.0305655243
 20
83.3905594329
 30
0.0
 10
47.9284043755
 20
83.3874844533
 30
0.0
 10
47.7962728867
 20
83.3905362235
 30
0.0
 10
47.6355243838
 20
83.3995725237
 30
0.0
 10
47.447554654
 20
83.4146360674
 30
0.0
 10
47.2341704367
 20
83.4355327149
 30
0.0
 10
46.9046170887
 20
83.4724390046
 30
0.0
 10
46.4459395255
 20
83.5317960114
 30
0.0
 10
45.8517107089
 20
83.61811224
 30
0.0
 10
45.2141655683
 20
83.7188815095
 30
0.0
 10
44.7774731092
 20
83.7927745035
 30
0.0
 10
44.5555822545
 20
83.8314996584
 30
0.0
  0
SPLINE
  5
458
100
AcDbEntity
  8
RACCORDO
100
AcDbSpline
 62
250
  6
CONTINUOUS
 70
0
 71
3
 72
8
 73
4
 74
0
 42
0.0000001
 43
0.0000001
 44
0.0000000001
 40
0.0
 40
0.0
 40
0.0
 40
0.0
 40
1.0
 40
1.0
 40
1.0
 40
1.0
 10
48.8701602876
 20
84.0146271173
 30
0.0
 10
48.6305323429
 20
83.816333892
 30
0.0
 10
48.3910030439
 20
83.6179213971
 30
0.0
 10
48.1515729263
 20
83.4193893495
 30
0.0
  0
SPLINE
  5
459
100
AcDbEntity
  8
RACCORDO
100
AcDbSpline
 62
250
  6
CONTINUOUS
 70
0
 71
3
 72
8
 73
4
 74
0
 42
0.0000001
 43
0.0000001
 44
0.0000000001
 40
0.0
 40
0.0
 40
0.0
 40
0.0
 40
1.0
 40
1.0
 40
1.0
 40
1.0
 10
-48.1515729263
 20
83.4193893495
 30
0.0
 10
-48.3910030439
 20
83.6179213971
 30
0.0
 10
-48.6305323429
 20
83.816333892
 30
0.0
 10
-48.8701602876
 20
84.0146271173
 30
0.0
  0
SPLINE
  5
45A
100
AcDbEntity
  8
RACCORDO
100
AcDbSpline
 62
250
  6
CONTINUOUS
 70
0
 71
3
 72
20
 73
16
 74
0
 42
0.0000001
 43
0.0000001
 44
0.0000000001
 40
0.0
 40
0.0
 40
0.0
 40
0.0
 40
0.1860649068
 40
0.3658527295
 40
0.5331743329
 40
0.6820695548
 40
0.7478800066
 40
0.8070984012
 40
0.8591748638
 40
0.9036355422
 40
0.9400942407
 40
0.9682809975
 40
0.9881083741
 40
0.9949781249
 40
1.0
 40
1.0
 40
1.0
 40
1.0
 10
-44.5555822545
 20
83.8314996584
 30
0.0
 10
-44.7774731092
 20
83.7927745036
 30
0.0
 10
-45.2141655683
 20
83.7188815095
 30
0.0
 10
-45.8517107089
 20
83.61811224
 30
0.0
 10
-46.4459395255
 20
83.5317960114
 30
0.0
 10
-46.9046170887
 20
83.4724390046
 30
0.0
 10
-47.2341704367
 20
83.4355327149
 30
0.0
 10
-47.4475546539
 20
83.4146360674
 30
0.0
 10
-47.6355243838
 20
83.3995725237
 30
0.0
 10
-47.7962728868
 20
83.3905362235
 30
0.0
 10
-47.9284043756
 20
83.3874844532
 30
0.0
 10
-48.030565524
 20
83.3905594327
 30
0.0
 10
-48.0969507283
 20
83.3980938272
 30
0.0
 10
-48.1338536862
 20
83.4088294897
 30
0.0
 10
-48.1468915554
 20
83.4155108085
 30
0.0
 10
-48.1515729263
 20
83.4193893495
 30
0.0
  0
SPLINE
  5
45B
100
AcDbEntity
  8
RACCORDO
100
AcDbSpline
 62
250
  6
CONTINUOUS
 70
0
 71
3
 72
8
 73
4
 74
0
 42
0.0000001
 43
0.0000001
 44
0.0000000001
 40
0.0
 40
0.0
 40
0.0
 40
0.0
 40
1.0
 40
1.0
 40
1.0
 40
1.0
 10
-48.4772351269
 20
83.0271658747
 30
0.0
 10
-48.7164038982
 20
83.2257471259
 30
0.0
 10
-48.9556720576
 20
83.4242087357
 30
0.0
 10
-49.195039068
 20
83.6225509874
 30
0.0
  0
SPLINE
  5
45C
100
AcDbEntity
  8
RACCORDO
100
AcDbSpline
 62
250
  6
CONTINUOUS
 70
0
 71
3
 72
20
 73
16
 74
0
 42
0.0000001
 43
0.0000001
 44
0.0000000001
 40
0.0
 40
0.0
 40
0.0
 40
0.0
 40
0.0054288365
 40
0.0127075142
 40
0.0332269724
 40
0.0618750333
 40
0.0985573276
 40
0.1430256321
 40
0.1949325754
 40
0.2538528873
 40
0.3192894726
 40
0.4674149728
 40
0.6342001775
 40
0.8138230256
 40
1.0
 40
1.0
 40
1.0
 40
1.0
 10
48.0782095068
 20
-81.9379712677
 30
0.0
 10
48.0735874653
 20
-81.9333523404
 30
0.0
 10
48.060856261
 20
-81.9245398546
 30
0.0
 10
48.0246783518
 20
-81.9074047373
 30
0.0
 10
47.959287322
 20
-81.8878815539
 30
0.0
 10
47.8582823952
 20
-81.8662085766
 30
0.0
 10
47.7277476151
 20
-81.8451064077
 30
0.0
 10
47.5688904686
 20
-81.8247259428
 30
0.0
 10
47.3829564726
 20
-81.8053824665
 30
0.0
 10
47.171566337
 20
-81.7872609545
 30
0.0
 10
46.8444108832
 20
-81.7640226321
 30
0.0
 10
46.3872014053
 20
-81.7400439023
 30
0.0
 10
45.7922984077
 20
-81.7193744338
 30
0.0
 10
45.1513645063
 20
-81.7066453391
 30
0.0
 10
44.7110685446
 20
-81.7037957096
 30
0.0
 10
44.4869789259
 20
-81.7037949969
 30
0.0
  0
SPLINE
  5
45D
100
AcDbEntity
  8
RACCORDO
100
AcDbSpline
 62
250
  6
CONTINUOUS
 70
0
 71
3
 72
20
 73
16
 74
0
 42
0.0000001
 43
0.0000001
 44
0.0000000001
 40
0.0
 40
0.0
 40
0.0
 40
0.0
 40
0.1861769744
 40
0.3657998225
 40
0.5325850272
 40
0.6807105274
 40
0.7461471128
 40
0.8050674246
 40
0.8569743679
 40
0.9014426724
 40
0.9381249668
 40
0.9667730276
 40
0.9872924857
 40
0.9945711634
 40
1.0
 40
1.0
 40
1.0
 40
1.0
 10
-44.4869789259
 20
-81.7037949969
 30
0.0
 10
-44.7110685446
 20
-81.7037957094
 30
0.0
 10
-45.1513645063
 20
-81.7066453392
 30
0.0
 10
-45.7922984076
 20
-81.7193744338
 30
0.0
 10
-46.3872014053
 20
-81.7400439023
 30
0.0
 10
-46.8444108832
 20
-81.7640226321
 30
0.0
 10
-47.171566337
 20
-81.7872609545
 30
0.0
 10
-47.3829564725
 20
-81.8053824664
 30
0.0
 10
-47.5688904685
 20
-81.8247259428
 30
0.0
 10
-47.7277476152
 20
-81.8451064078
 30
0.0
 10
-47.8582823952
 20
-81.8662085765
 30
0.0
 10
-47.9592873219
 20
-81.8878815538
 30
0.0
 10
-48.0246783513
 20
-81.9074047375
 30
0.0
 10
-48.0608562606
 20
-81.9245398546
 30
0.0
 10
-48.0735874651
 20
-81.9333523404
 30
0.0
 10
-48.0782095068
 20
-81.9379712677
 30
0.0
  0
SPLINE
  5
45E
100
AcDbEntity
  8
RACCORDO
100
AcDbSpline
 62
250
  6
CONTINUOUS
 70
0
 71
3
 72
8
 73
4
 74
0
 42
0.0000001
 43
0.0000001
 44
0.0000000001
 40
0.0
 40
0.0
 40
0.0
 40
0.0
 40
1.0
 40
1.0
 40
1.0
 40
1.0
 10
49.195039068
 20
83.6225509874
 30
0.0
 10
48.9556720576
 20
83.4242087357
 30
0.0
 10
48.7164038982
 20
83.2257471259
 30
0.0
 10
48.4772351269
 20
83.0271658747
 30
0.0
  0
SPLINE
  5
45F
100
AcDbEntity
  8
RACCORDO
100
AcDbSpline
 62
250
  6
CONTINUOUS
 70
0
 71
3
 72
11
 73
7
 74
0
 42
0.0000001
 43
0.0000001
 44
0.0000000001
 40
0.0
 40
0.0
 40
0.0
 40
0.0
 40
0.2503723768
 40
0.5004930255
 40
0.7503271744
 40
1.0
 40
1.0
 40
1.0
 40
1.0
 10
50.3561014955
 20
83.3321217173
 30
0.0
 10
50.3561517858
 20
83.3893672708
 30
0.0
 10
50.3362644022
 20
83.5047828365
 30
0.0
 10
50.2499356554
 20
83.6568616563
 30
0.0
 10
50.1174954601
 20
83.7708353471
 30
0.0
 10
50.0082028746
 20
83.812364652
 30
0.0
 10
49.9521508422
 20
83.8231784719
 30
0.0
  0
SPLINE
  5
460
100
AcDbEntity
  8
RACCORDO
100
AcDbSpline
 62
250
  6
CONTINUOUS
 70
0
 71
3
 72
39
 73
35
 74
0
 42
0.0000001
 43
0.0000001
 44
0.0000000001
 40
0.0
 40
0.0
 40
0.0
 40
0.0
 40
0.0014781207
 40
0.0040939774
 40
0.0078459855
 40
0.0127268637
 40
0.0187253802
 40
0.0258290775
 40
0.0432827522
 40
0.0649286485
 40
0.0905684506
 40
0.1199667827
 40
0.1528539302
 40
0.1889282552
 40
0.2278587952
 40
0.3128353908
 40
0.4046701278
 40
0.4999982218
 40
0.5953263602
 40
0.6871613114
 40
0.7721382203
 40
0.8110689588
 40
0.8471434857
 40
0.8800308471
 40
0.9094294857
 40
0.9350696587
 40
0.9567159026
 40
0.9741699842
 40
0.9812738866
 40
0.98727264
 40
0.992153784
 40
0.9959059247
 40
0.9985218507
 40
1.0
 40
1.0
 40
1.0
 40
1.0
 10
-26.2039823982
 20
-83.6573191726
 30
0.0
 10
-26.2095324478
 20
-83.6586703487
 30
0.0
 10
-26.2253326654
 20
-83.6603366368
 30
0.0
 10
-26.2555137573
 20
-83.6627889393
 30
0.0
 10
-26.2989467192
 20
-83.665092503
 30
0.0
 10
-26.355429461
 20
-83.6675113542
 30
0.0
 10
-26.4248878334
 20
-83.6698871608
 30
0.0
 10
-26.5429203362
 20
-83.6732809408
 30
0.0
 10
-26.7214297335
 20
-83.6772585575
 30
0.0
 10
-26.9715750328
 20
-83.6816318166
 30
0.0
 10
-27.2678897749
 20
-83.6857907426
 30
0.0
 10
-27.6076523335
 20
-83.6896954582
 30
0.0
 10
-27.9877441829
 20
-83.6932997477
 30
0.0
 10
-28.4046771852
 20
-83.6965680972
 30
0.0
 10
-29.0229084026
 20
-83.7005493697
 30
0.0
 10
-29.8566288295
 20
-83.7043689308
 30
0.0
 10
-30.9083009637
 20
-83.7071241912
 30
0.0
 10
-31.9999795549
 20
-83.7080541165
 30
0.0
 10
-33.0916589739
 20
-83.7071242539
 30
0.0
 10
-34.1433333183
 20
-83.7043690757
 30
0.0
 10
-34.9770565509
 20
-83.7005495475
 30
0.0
 10
-35.5952905268
 20
-83.6965683279
 30
0.0
 10
-36.0122259033
 20
-83.6933000131
 30
0.0
 10
-36.3923205446
 20
-83.6896957459
 30
0.0
 10
-36.7320865478
 20
-83.6857910332
 30
0.0
 10
-37.0284052517
 20
-83.6816321178
 30
0.0
 10
-37.2785549006
 20
-83.6772588687
 30
0.0
 10
-37.457068007
 20
-83.6732812416
 30
0.0
 10
-37.5751037912
 20
-83.6698874354
 30
0.0
 10
-37.644564898
 20
-83.667511551
 30
0.0
 10
-37.701050095
 20
-83.6650926702
 30
0.0
 10
-37.7444848623
 20
-83.6627890037
 30
0.0
 10
-37.7746668424
 20
-83.6603366495
 30
0.0
 10
-37.7904674413
 20
-83.6586703596
 30
0.0
 10
-37.7960176018
 20
-83.6573191726
 30
0.0
  0
SPLINE
  5
461
100
AcDbEntity
  8
RACCORDO
100
AcDbSpline
 62
250
  6
CONTINUOUS
 70
0
 71
3
 72
39
 73
35
 74
0
 42
0.0000001
 43
0.0000001
 44
0.0000000001
 40
0.0
 40
0.0
 40
0.0
 40
0.0
 40
0.0014771603
 40
0.0040924284
 40
0.007844037
 40
0.0127246611
 40
0.0187230107
 40
0.0258265874
 40
0.0432801241
 40
0.0649260031
 40
0.0905658731
 40
0.1199643378
 40
0.1528516689
 40
0.1889262161
 40
0.2278570077
 40
0.3128341654
 40
0.404669507
 40
0.4999982218
 40
0.595326981
 40
0.6871625368
 40
0.7721400078
 40
0.8110709979
 40
0.847145747
 40
0.880033292
 40
0.9094320632
 40
0.9350723042
 40
0.9567185306
 40
0.9741724741
 40
0.9812762574
 40
0.9872748447
 40
0.9921557329
 40
0.9959074699
 40
0.9985228058
 40
1.0
 40
1.0
 40
1.0
 40
1.0
 10
-26.0041197223
 20
-83.8573115572
 30
0.0
 10
-26.0098679805
 20
-83.8586641117
 30
0.0
 10
-26.0262085285
 20
-83.8603284708
 30
0.0
 10
-26.0574314829
 20
-83.8627818658
 30
0.0
 10
-26.1023594959
 20
-83.8650847863
 30
0.0
 10
-26.1607901887
 20
-83.8675038451
 30
0.0
 10
-26.2326434665
 20
-83.8698795513
 30
0.0
 10
-26.3547467751
 20
-83.8732733781
 30
0.0
 10
-26.5394119694
 20
-83.8772509716
 30
0.0
 10
-26.7981831894
 20
-83.8816242357
 30
0.0
 10
-27.1047159605
 20
-83.8857831558
 30
0.0
 10
-27.4561947718
 20
-83.8896878704
 30
0.0
 10
-27.8493934676
 20
-83.8932921567
 30
0.0
 10
-28.2807035942
 20
-83.8965605028
 30
0.0
 10
-28.9202531435
 20
-83.90054177
 30
0.0
 10
-29.7827220396
 20
-83.9043613235
 30
0.0
 10
-30.8706576026
 20
-83.9071165774
 30
0.0
 10
-31.9999788499
 20
-83.9080465003
 30
0.0
 10
-33.1293009535
 20
-83.9071166401
 30
0.0
 10
-34.2172388029
 20
-83.9043614684
 30
0.0
 10
-35.0797106014
 20
-83.9005419478
 30
0.0
 10
-35.7192630044
 20
-83.8965607334
 30
0.0
 10
-36.150575587
 20
-83.8932924221
 30
0.0
 10
-36.5437771708
 20
-83.889688158
 30
0.0
 10
-36.8952595461
 20
-83.8857834464
 30
0.0
 10
-37.2017964148
 20
-83.8816245368
 30
0.0
 10
-37.4605721337
 20
-83.8772512831
 30
0.0
 10
-37.6452411691
 20
-83.8732736779
 30
0.0
 10
-37.7673478811
 20
-83.8698798263
 30
0.0
 10
-37.8392039898
 20
-83.8675040426
 30
0.0
 10
-37.8976372031
 20
-83.8650849565
 30
0.0
 10
-37.9425670524
 20
-83.8627819262
 30
0.0
 10
-37.9737909269
 20
-83.8603284834
 30
0.0
 10
-37.9901318796
 20
-83.8586641099
 30
0.0
 10
-37.9958802777
 20
-83.8573115572
 30
0.0
  0
SPLINE
  5
462
100
AcDbEntity
  8
RACCORDO
100
AcDbSpline
 62
250
  6
CONTINUOUS
 70
0
 71
3
 72
9
 73
5
 74
0
 42
0.0000001
 43
0.0000001
 44
0.0000000001
 40
0.0
 40
0.0
 40
0.0
 40
0.0
 40
0.3747931592
 40
1.0
 40
1.0
 40
1.0
 40
1.0
 10
-39.5947816851
 20
-83.8578288986
 30
0.0
 10
-39.5893917747
 20
-83.8590972303
 30
0.0
 10
-39.574680106
 20
-83.8608847966
 30
0.0
 10
-39.5599821602
 20
-83.8622047069
 30
0.0
 10
-39.5507722464
 20
-83.8629076082
 30
0.0
  0
SPLINE
  5
463
100
AcDbEntity
  8
RACCORDO
100
AcDbSpline
 62
250
  6
CONTINUOUS
 70
0
 71
3
 72
29
 73
25
 74
0
 42
0.0000001
 43
0.0000001
 44
0.0000000001
 40
0.0
 40
0.0
 40
0.0
 40
0.0
 40
0.007276773
 40
0.0186269483
 40
0.0339591072
 40
0.0531473115
 40
0.0760331602
 40
0.10242738
 40
0.1648406915
 40
0.2383270263
 40
0.3204590139
 40
0.4085237932
 40
0.4996122458
 40
0.5907151514
 40
0.6788228631
 40
0.7610247661
 40
0.8346057835
 40
0.8971353251
 40
0.9235945759
 40
0.9465493632
 40
0.9658098487
 40
0.9812171854
 40
0.9926446608
 40
1.0
 40
1.0
 40
1.0
 40
1.0
 10
-39.5507722464
 20
-83.8629076082
 30
0.0
 10
-39.51424937
 20
-83.8656950368
 30
0.0
 10
-39.42056167
 20
-83.8699920649
 30
0.0
 10
-39.2497221065
 20
-83.8755912975
 30
0.0
 10
-39.0188805668
 20
-83.8810233145
 30
0.0
 10
-38.7299658583
 20
-83.8863811587
 30
0.0
 10
-38.3853539288
 20
-83.8915043583
 30
0.0
 10
-37.8231647617
 20
-83.8983707201
 30
0.0
 10
-37.0062573277
 20
-83.9057346264
 30
0.0
 10
-35.9087727279
 20
-83.9126680952
 30
0.0
 10
-34.6821550983
 20
-83.91780991
 30
0.0
 10
-33.3669269923
 20
-83.9209791749
 30
0.0
 10
-32.0065386048
 20
-83.9220547736
 30
0.0
 10
-30.6459340933
 20
-83.9209994772
 30
0.0
 10
-29.3300651441
 20
-83.9178498195
 30
0.0
 10
-28.1024027885
 20
-83.9127260381
 30
0.0
 10
-27.0035044525
 20
-83.9058085329
 30
0.0
 10
-26.185207858
 20
-83.8984567124
 30
0.0
 10
-25.6217590347
 20
-83.8915999803
 30
0.0
 10
-25.2761087679
 20
-83.886481183
 30
0.0
 10
-24.9861044068
 20
-83.8811275683
 30
0.0
 10
-24.7541315037
 20
-83.8756951216
 30
0.0
 10
-24.5821276597
 20
-83.8700989798
 30
0.0
 10
-24.4876557282
 20
-83.8657969282
 30
0.0
 10
-24.450735315
 20
-83.8630217192
 30
0.0
  0
SPLINE
  5
464
100
AcDbEntity
  8
RACCORDO
100
AcDbSpline
 62
250
  6
CONTINUOUS
 70
0
 71
3
 72
9
 73
5
 74
0
 42
0.0000001
 43
0.0000001
 44
0.0000000001
 40
0.0
 40
0.0
 40
0.0
 40
0.0
 40
0.6266087418
 40
1.0
 40
1.0
 40
1.0
 40
1.0
 10
-24.450735315
 20
-83.8630217192
 30
0.0
 10
-24.4411891415
 20
-83.8623041588
 30
0.0
 10
-24.425989384
 20
-83.8609549934
 30
0.0
 10
-24.4107711918
 20
-83.8591355398
 30
0.0
 10
-24.4052183149
 20
-83.8578288986
 30
0.0
  0
ELLIPSE
  5
465
100
AcDbEntity
  8
RACCORDO
100
AcDbEllipse
 62
7
  6
CONTINUOUS
 10
38.9296713505
 20
-79.3794249302
 30
0.0
 11
0.0
 21
1.0
 31
0.0
 40
0.0087268678
 41
-4.7123889804
 42
-3.3532374336
  0
ELLIPSE
  5
466
100
AcDbEntity
  8
RACCORDO
100
AcDbEllipse
 62
7
  6
CONTINUOUS
 10
27.5703286495
 20
-79.3794249302
 30
0.0
 11
0.0
 21
1.0
 31
0.0
 40
0.0087268678
 41
-2.9299478736
 42
-1.5707963268
  0
ELLIPSE
  5
467
100
AcDbEntity
  8
RACCORDO
100
AcDbEllipse
 62
7
  6
CONTINUOUS
 10
25.6296713505
 20
-79.3794249302
 30
0.0
 11
0.0
 21
1.0
 31
0.0
 40
0.0087268678
 41
-4.7123889804
 42
-3.3532374336
  0
ELLIPSE
  5
468
100
AcDbEntity
  8
RACCORDO
100
AcDbEllipse
 62
7
  6
CONTINUOUS
 10
14.2703286495
 20
-79.3794249302
 30
0.0
 11
-0.0
 21
1.0
 31
0.0
 40
0.0087268678
 41
-2.9299478736
 42
-1.5707963268
  0
ELLIPSE
  5
469
100
AcDbEntity
  8
RACCORDO
100
AcDbEllipse
 62
7
  6
CONTINUOUS
 10
12.3296713505
 20
-79.3794249302
 30
0.0
 11
0.0
 21
1.0
 31
0.0
 40
0.0087268678
 41
-4.7123889804
 42
-3.3532374336
  0
ELLIPSE
  5
46A
100
AcDbEntity
  8
RACCORDO
100
AcDbEllipse
 62
7
  6
CONTINUOUS
 10
0.9703286495
 20
-79.3794249302
 30
0.0
 11
0.0
 21
1.0
 31
0.0
 40
0.0087268678
 41
-2.9299478736
 42
-1.5707963268
  0
ELLIPSE
  5
46B
100
AcDbEntity
  8
RACCORDO
100
AcDbEllipse
 62
7
  6
CONTINUOUS
 10
-0.9703286495
 20
-79.3794249302
 30
0.0
 11
0.0
 21
1.0
 31
0.0
 40
0.0087268678
 41
-4.7123889804
 42
-3.3532374336
  0
ELLIPSE
  5
46C
100
AcDbEntity
  8
RACCORDO
100
AcDbEllipse
 62
7
  6
CONTINUOUS
 10
-12.3296713505
 20
-79.3794249302
 30
0.0
 11
-0.0
 21
1.0
 31
0.0
 40
0.0087268678
 41
-2.9299478736
 42
-1.5707963268
  0
ELLIPSE
  5
46D
100
AcDbEntity
  8
RACCORDO
100
AcDbEllipse
 62
7
  6
CONTINUOUS
 10
-14.2703286495
 20
-79.3794249302
 30
0.0
 11
0.0
 21
1.0
 31
0.0
 40
0.0087268678
 41
-4.7123889804
 42
-3.3532374336
  0
ELLIPSE
  5
46E
100
AcDbEntity
  8
RACCORDO
100
AcDbEllipse
 62
7
  6
CONTINUOUS
 10
-25.6296713505
 20
-79.3794249302
 30
0.0
 11
-0.0
 21
1.0
 31
0.0
 40
0.0087268678
 41
-2.9299478736
 42
-1.5707963268
  0
ELLIPSE
  5
46F
100
AcDbEntity
  8
RACCORDO
100
AcDbEllipse
 62
7
  6
CONTINUOUS
 10
-27.5703286495
 20
-79.3794249302
 30
0.0
 11
0.0
 21
1.0
 31
0.0
 40
0.0087268678
 41
-4.7123889804
 42
-3.3532374336
  0
ELLIPSE
  5
470
100
AcDbEntity
  8
RACCORDO
100
AcDbEllipse
 62
7
  6
CONTINUOUS
 10
-38.9296713505
 20
-79.3794249302
 30
0.0
 11
0.0
 21
1.0
 31
0.0
 40
0.0087268678
 41
-2.9299478736
 42
-1.5707963268
  0
ELLIPSE
  5
471
100
AcDbEntity
  8
RACCORDO
100
AcDbEllipse
 62
7
  6
CONTINUOUS
 10
-40.8703286495
 20
-79.3794249302
 30
0.0
 11
-0.0
 21
1.0
 31
0.0
 40
0.0087268678
 41
-4.7123889804
 42
-3.3532374336
  0
ELLIPSE
  5
472
100
AcDbEntity
  8
RACCORDO
100
AcDbEllipse
 62
7
  6
CONTINUOUS
 10
40.8703286495
 20
-79.3794249302
 30
0.0
 11
0.0
 21
1.0
 31
0.0
 40
0.0087268678
 41
-2.9299478736
 42
-1.5707963268
  0
ELLIPSE
  5
473
100
AcDbEntity
  8
RACCORDO
100
AcDbEllipse
 62
7
  6
CONTINUOUS
 10
48.8830674116
 20
-82.2055701067
 30
0.0
 11
0.492283684
 21
-0.0982166525
 31
0.0
 40
0.9960441251
 41
-1.3731078174
 42
0.1961674313
  0
ELLIPSE
  5
474
100
AcDbEntity
  8
RACCORDO
100
AcDbEllipse
 62
7
  6
CONTINUOUS
 10
-48.8830674116
 20
-82.2055701067
 30
0.0
 11
0.492283684
 21
0.0982166525
 31
0.0
 40
0.9960441251
 41
2.9454252223
 42
4.514700471
  0
ELLIPSE
  5
475
100
AcDbEntity
  8
RACCORDO
100
AcDbEllipse
 62
7
  6
CONTINUOUS
 10
-13.0151775849
 20
-49.9432302256
 30
0.0
 11
0.0133868146
 21
0.1027178441
 31
0.0
 40
0.9653767932
 41
3.1364763448
 42
3.266748827
  0
ELLIPSE
  5
476
100
AcDbEntity
  8
RACCORDO
100
AcDbEllipse
 62
7
  6
CONTINUOUS
 10
-13.0151775849
 20
-43.9555585559
 30
0.0
 11
0.0707968545
 21
-0.0707968545
 31
0.0
 40
0.998782766
 41
2.3568034778
 42
2.4949228443
  0
ELLIPSE
  5
477
100
AcDbEntity
  8
RACCORDO
100
AcDbEllipse
 62
7
  6
CONTINUOUS
 10
13.0151775849
 20
-49.9432302256
 30
0.0
 11
-0.0133868146
 21
0.1027178441
 31
0.0
 40
0.9653767932
 41
3.0164364802
 42
3.1467091038
  0
ELLIPSE
  5
478
100
AcDbEntity
  8
RACCORDO
100
AcDbEllipse
 62
7
  6
CONTINUOUS
 10
13.0151775849
 20
-43.9555585559
 30
0.0
 11
-0.0707968545
 21
-0.0707968545
 31
0.0
 40
0.998782766
 41
3.7882624615
 42
3.9263818294
  0
ELLIPSE
  5
479
100
AcDbEntity
  8
RACCORDO
100
AcDbEllipse
 62
7
  6
CONTINUOUS
 10
-40.3651374184
 20
-82.8707666064
 30
0.0
 11
0.1811017607
 21
-0.0852603407
 31
0.0
 40
0.9991613882
 41
6.7228673154
 42
8.2943102697
  0
ELLIPSE
  5
47A
100
AcDbEntity
  8
RACCORDO
100
AcDbEllipse
 62
7
  6
CONTINUOUS
 10
-39.9648625816
 20
-83.5707285251
 30
0.0
 11
0.1948210703
 21
-0.0458561136
 31
0.0
 40
0.9992753811
 41
3.3725988546
 42
4.9437185074
  0
ELLIPSE
  5
47B
100
AcDbEntity
  8
RACCORDO
100
AcDbEllipse
 62
7
  6
CONTINUOUS
 10
-23.6348625816
 20
-82.8707666064
 30
0.0
 11
0.1811017607
 21
0.0852603407
 31
0.0
 40
0.9991613882
 41
1.1304676911
 42
2.7019106453
  0
ELLIPSE
  5
47C
100
AcDbEntity
  8
RACCORDO
100
AcDbEllipse
 62
7
  6
CONTINUOUS
 10
48.7080900845
 20
-82.1706599768
 30
0.0
 11
-0.492283684
 21
0.0982166525
 31
0.0
 40
0.9960441251
 41
8.0516701433
 42
8.3075840608
  0
ELLIPSE
  5
47D
100
AcDbEntity
  8
RACCORDO
100
AcDbEllipse
 62
7
  6
CONTINUOUS
 10
48.7080900845
 20
-82.1706599768
 30
0.0
 11
-0.492283684
 21
0.0982166525
 31
0.0
 40
0.9960441251
 41
9.3626560112
 42
9.6209453921
  0
ELLIPSE
  5
47E
100
AcDbEntity
  8
RACCORDO
100
AcDbEllipse
 62
7
  6
CONTINUOUS
 10
-48.7080900845
 20
-82.1706599768
 30
0.0
 11
-0.492283684
 21
-0.0982166525
 31
0.0
 40
0.9960441251
 41
6.0870178758
 42
6.3442440104
  0
ELLIPSE
  5
47F
100
AcDbEntity
  8
RACCORDO
100
AcDbEllipse
 62
7
  6
CONTINUOUS
 10
-48.7080900845
 20
-82.1706599768
 30
0.0
 11
-0.492283684
 21
-0.0982166525
 31
0.0
 40
0.9960441251
 41
7.3990720865
 42
7.6562931246
  0
ELLIPSE
  5
480
100
AcDbEntity
  8
RACCORDO
100
AcDbEllipse
 62
7
  6
CONTINUOUS
 10
-38.3637632341
 20
-83.5707285251
 30
0.0
 11
-0.1948210703
 21
0.0458561136
 31
0.0
 40
0.9992753811
 41
1.8021258538
 42
3.3725988546
  0
ELLIPSE
  5
481
100
AcDbEntity
  8
RACCORDO
100
AcDbEllipse
 62
7
  6
CONTINUOUS
 10
-25.6362367659
 20
-83.5707285251
 30
0.0
 11
-0.1948210703
 21
-0.0458561136
 31
0.0
 40
0.9992753811
 41
-0.231006201
 42
1.3394667998
  0
ELLIPSE
  5
482
100
AcDbEntity
  8
RACCORDO
100
AcDbEllipse
 62
7
  6
CONTINUOUS
 10
-24.0351374184
 20
-83.5707285251
 30
0.0
 11
0.1948210703
 21
0.0458561136
 31
0.0
 40
0.9992753811
 41
-1.8021258538
 42
-0.231006201
  0
ENDSEC
  0
SECTION
  2
OBJECTS
  0
DICTIONARY
  5
C
100
AcDbDictionary
280
0
281
1
  3
ACAD_GROUP
350
D
  3
ACAD_MLINESTYLE
350
17
  3
ACAD_LAYOUT
350
1A
  3
ACAD_PLOTSETTINGS
350
19
  3
ACAD_PLOTSTYLENAME
350
E
  0
DICTIONARY
  5
D
102
{ACAD_REACTORS
330
C
102
}
100
AcDbDictionary
280
0
281
1
  0
ACDBDICTIONARYWDFLT
  5
E
102
{ACAD_REACTORS
330
C
102
}
100
AcDbDictionary
281
1
  3
Normal
350
F
100
AcDbDictionaryWithDefault
340
F
  0
DICTIONARY
  5
17
102
{ACAD_REACTORS
330
C
102
}
100
AcDbDictionary
280
0
281
1
  3
Standard
350
18
  0
DICTIONARY
  5
19
102
{ACAD_REACTORS
330
C
102
}
100
AcDbDictionary
281
1
  0
DICTIONARY
  5
1A
102
{ACAD_REACTORS
330
C
102
}
100
AcDbDictionary
281
1
  3
Model
350
483
  3
Layout1
350
484
  0
ACDBPLACEHOLDER
  5
F
102
{ACAD_REACTORS
330
E
102
}
  0
MLINESTYLE
  5
18
102
{ACAD_REACTORS
330
17
102
}
100
AcDbMlineStyle
  2
STANDARD
 70
0
  3

 62
256
 51
90.0
 52
90.0
 71
2
 49
0.5
 62
256
  6
BYLAYER
 49
-0.5
 62
256
  6
BYLAYER
  0
LAYOUT
  5
483
102
{ACAD_REACTORS
330
1A
102
}
100
AcDbPlotSettings
  1

  2
none_device
  4
ISO_A4_(297.00_x_210.00_MM)
  6

 40
0.0
 41
0.0
 42
0.0
 43
0.0
 44
297.0
 45
210.0
 46
0.0
 47
0.0
 48
0.0
 49
0.0
140
0.0
141
0.0
142
1.0
143
1.0
 70
1024
 72
1
 73
0
 74
0
  7

 75
0
147
1.0
148
0.0
149
0.0
100
AcDbLayout
  1
Model
 70
0
 71
0
 10
0.0
 20
0.0
 11
297.0
 21
210.0
 12
0.0
 22
0.0
 32
0.0
 14
0.0
 24
0.0
 34
0.0
 15
0.0
 25
0.0
 35
0.0
146
0.0
 13
0.0
 23
0.0
 33
0.0
 16
1.0
 26
0.0
 36
0.0
 17
0.0
 27
1.0
 37
0.0
 76
0
330
256
345
0
346
0
  0
LAYOUT
  5
484
102
{ACAD_REACTORS
330
1A
102
}
100
AcDbPlotSettings
  1

  2
none_device
  4
ISO_A4_(297.00_x_210.00_MM)
  6

 40
0.0
 41
0.0
 42
0.0
 43
0.0
 44
297.0
 45
210.0
 46
0.0
 47
0.0
 48
0.0
 49
0.0
140
0.0
141
0.0
142
1.0
143
1.0
 70
0
 72
1
 73
0
 74
0
  7

 75
0
147
1.0
148
0.0
149
0.0
100
AcDbLayout
  1
Layout1
 70
0
 71
1
 10
0.0
 20
0.0
 11
297.0
 21
210.0
 12
0.0
 22
0.0
 32
0.0
 14
0.0
 24
0.0
 34
0.0
 15
0.0
 25
0.0
 35
0.0
146
0.0
 13
0.0
 23
0.0
 33
0.0
 16
1.0
 26
0.0
 36
0.0
 17
0.0
 27
1.0
 37
0.0
 76
0
330
257
345
0
346
0
  0
ENDSEC
  0
EOF
