  0
SECTION
  2
HEADER
  9
$ACADVER
  1
AC1024
  9
$DWGCODEPAGE
  3
ANSI_1252
  9
$EXTMAX
 10
297.0
 20
210.0
 30
0.0
  9
$EXTMIN
 10
0.0
 20
0.0
 30
0.0
  9
$LIMMIN
 10
0.0
 20
0.0
  9
$LIMMAX
 10
297.0
 20
210.0
  9
$VIEWCTR
 10
148.5
 20
105.0
  9
$VIEWSIZE
 40
210.0
  9
$CLAYER
  8
0
  9
$LTSCALE
 40
16.335
  9
$CELTYPE
  6
BYLAYER
  9
$DIMSCALE
 40
1.0
  9
$DIMASZ
 40
3.0
  9
$DIMEXO
 40
0.5
  9
$DIMDLI
 40
11.286
  9
$DIMEXE
 40
1.5
  9
$DIMCEN
 40
2.673
  9
$DIMLFAC
 40
1.0
  9
$DIMBLK
  1
_FILLED
  9
$DIMALT
 70
0
  9
$DIMALTF
 40
0.0393700787
  9
$DIMTXT
 40
3.0
  9
$DIMTOL
 70
1
  9
$DIMLIM
 70
0
  9
$DIMTFAC
 40
1.0
  9
$DIMTP
 40
0.01
  9
$DIMTM
 40
0.01
  9
$DIMGAP
 40
0.625
  9
$DIMDSEP
 70
44
  9
$AUNITS
 70
0
  9
$PDMODE
 70
3
  9
$PDSIZE
 40
3.0
  9
$HANDSEED
  5
33F
  9
$TILEMODE
 70
1
  9
$MEASUREMENT
 70
1
  9
$INSUNITS
 70
4
  0
ENDSEC
  0
SECTION
  2
CLASSES
  0
CLASS
  1
ACDBDICTIONARYWDFLT
  2
AcDbDictionaryWithDefault
  3
AutoCAD 2000
 90
0
 91
1
280
0
281
0
  0
CLASS
  1
ACDBPLACEHOLDER
  2
AcDbPlaceHolder
  3
AutoCAD 2000
 90
0
 91
1
280
0
281
0
  0
CLASS
  1
LAYOUT
  2
AcDbLayout
  3
AutoCAD 2000
 90
0
 91
0
280
0
281
0
  0
ENDSEC
  0
SECTION
  2
TABLES
  0
TABLE
  2
VPORT
  5
8
100
AcDbSymbolTable
 70
2
  0
VPORT
  5
1F4
100
AcDbSymbolTableRecord
100
AcDbViewportTableRecord
  2
*ACTIVE
 70
0
 10
0.0
 20
0.0
 11
1.0
 21
1.0
 12
148.5
 22
105.0
 13
0.0
 23
0.0
 14
1.0
 24
1.0
 15
0.0
 25
0.0
 16
0.0
 26
0.0
 36
1.0
 17
0.0
 27
0.0
 37
0.0
 40
210.0
 41
1.4142857143
 42
50.0
 43
0.0
 44
0.0
 50
0.0
 51
0.0
 71
0
 72
100
 73
1
 74
1
 75
0
 76
0
 77
0
 78
0
  0
ENDTAB
  0
TABLE
  2
LTYPE
  5
5
100
AcDbSymbolTable
 70
6
  0
LTYPE
  5
14
100
AcDbSymbolTableRecord
100
AcDbLinetypeTableRecord
  2
BYBLOCK
 70
0
  3

 72
65
 73
0
 40
0.0
  0
LTYPE
  5
15
100
AcDbSymbolTableRecord
100
AcDbLinetypeTableRecord
  2
BYLAYER
 70
0
  3

 72
65
 73
0
 40
0.0
  0
LTYPE
  5
16
100
AcDbSymbolTableRecord
100
AcDbLinetypeTableRecord
  2
CONTINUOUS
 70
64
  3
Solid line
 72
65
 73
0
 40
0.0
  0
LTYPE
  5
1F5
100
AcDbSymbolTableRecord
100
AcDbLinetypeTableRecord
  2
CENTER
 70
64
  3
____ _ ____ _ ____ _ ____ _ ____ _ ____ _ ____
 72
65
 73
4
 40
0.6
 49
0.375
 74
0
 49
-0.075
 74
0
 49
0.075
 74
0
 49
-0.075
 74
0
  0
LTYPE
  5
1F6
100
AcDbSymbolTableRecord
100
AcDbLinetypeTableRecord
  2
HIDDEN
 70
64
  3
- - - - - - - - - - - - - - - - - - - -
 72
65
 73
2
 40
0.2
 49
0.1
 74
0
 49
-0.1
 74
0
  0
LTYPE
  5
1F7
100
AcDbSymbolTableRecord
100
AcDbLinetypeTableRecord
  2
PHANTOM
 70
64
  3
_____ _ _ _____ _ _ _____ _ _ _____
 72
65
 73
6
 40
0.8
 49
0.45
 74
0
 49
-0.05
 74
0
 49
0.1
 74
0
 49
-0.05
 74
0
 49
0.1
 74
0
 49
-0.05
 74
0
  0
LTYPE
  5
1F8
100
AcDbSymbolTableRecord
100
AcDbLinetypeTableRecord
  2
DOT
 70
64
  3
. . . . . . . . . . . . . . . . . . . .
 72
65
 73
2
 40
0.2
 49
0.1
 74
0
 49
-0.1
 74
0
  0
LTYPE
  5
1F9
100
AcDbSymbolTableRecord
100
AcDbLinetypeTableRecord
  2
DASHED
 70
64
  3
- - - - - - - - - - - - - - - - - - - -
 72
65
 73
2
 40
0.2
 49
0.1
 74
0
 49
-0.1
 74
0
  0
ENDTAB
  0
TABLE
  2
LAYER
  5
2
100
AcDbSymbolTable
 70
36
  0
LAYER
  5
10
100
AcDbSymbolTableRecord
100
AcDbLayerTableRecord
  2
0
 70
0
 62
7
  6
CONTINUOUS
370
-3
390
F
  0
LAYER
  5
1FA
100
AcDbSymbolTableRecord
100
AcDbLayerTableRecord
  2
DEFAULT_1
 70
0
 62
7
  6
CENTER
370
-3
390
F
  0
LAYER
  5
1FB
100
AcDbSymbolTableRecord
100
AcDbLayerTableRecord
  2
DEFAULT_2
 70
0
 62
7
  6
HIDDEN
370
-3
390
F
  0
LAYER
  5
1FC
100
AcDbSymbolTableRecord
100
AcDbLayerTableRecord
  2
DEFAULT_3
 70
0
 62
7
  6
PHANTOM
370
-3
390
F
  0
LAYER
  5
1FD
100
AcDbSymbolTableRecord
100
AcDbLayerTableRecord
  2
ASSI
 70
0
 62
7
  6
CONTINUOUS
370
-3
390
F
  0
LAYER
  5
1FE
100
AcDbSymbolTableRecord
100
AcDbLayerTableRecord
  2
COORDINATE
 70
0
 62
7
  6
CONTINUOUS
370
-3
390
F
  0
LAYER
  5
1FF
100
AcDbSymbolTableRecord
100
AcDbLayerTableRecord
  2
COPY_PUBLISH
 70
0
 62
7
  6
CONTINUOUS
370
-3
390
F
  0
LAYER
  5
200
100
AcDbSymbolTableRecord
100
AcDbLayerTableRecord
  2
COSMETICI
 70
0
 62
7
  6
CONTINUOUS
370
-3
390
F
  0
LAYER
  5
201
100
AcDbSymbolTableRecord
100
AcDbLayerTableRecord
  2
CURVE
 70
0
 62
7
  6
CONTINUOUS
370
-3
390
F
  0
LAYER
  5
202
100
AcDbSymbolTableRecord
100
AcDbLayerTableRecord
  2
DRAFT
 70
0
 62
7
  6
CONTINUOUS
370
-3
390
F
  0
LAYER
  5
203
100
AcDbSymbolTableRecord
100
AcDbLayerTableRecord
  2
IMPORT_IGES
 70
0
 62
7
  6
CONTINUOUS
370
-3
390
F
  0
LAYER
  5
204
100
AcDbSymbolTableRecord
100
AcDbLayerTableRecord
  2
NOTE
 70
0
 62
7
  6
CONTINUOUS
370
-3
390
F
  0
LAYER
  5
205
100
AcDbSymbolTableRecord
100
AcDbLayerTableRecord
  2
PIANI
 70
0
 62
7
  6
CONTINUOUS
370
-3
390
F
  0
LAYER
  5
206
100
AcDbSymbolTableRecord
100
AcDbLayerTableRecord
  2
PUNTI
 70
0
 62
7
  6
CONTINUOUS
370
-3
390
F
  0
LAYER
  5
207
100
AcDbSymbolTableRecord
100
AcDbLayerTableRecord
  2
RACCORDO
 70
0
 62
7
  6
CONTINUOUS
370
-3
390
F
  0
LAYER
  5
208
100
AcDbSymbolTableRecord
100
AcDbLayerTableRecord
  2
SIMBOLI
 70
0
 62
7
  6
CONTINUOUS
370
-3
390
F
  0
LAYER
  5
209
100
AcDbSymbolTableRecord
100
AcDbLayerTableRecord
  2
SMUSSO
 70
0
 62
7
  6
CONTINUOUS
370
-3
390
F
  0
LAYER
  5
20A
100
AcDbSymbolTableRecord
100
AcDbLayerTableRecord
  2
SNAPLINE
 70
0
 62
7
  6
CONTINUOUS
370
-3
390
F
  0
LAYER
  5
20B
100
AcDbSymbolTableRecord
100
AcDbLayerTableRecord
  2
SUPERFICI
 70
0
 62
7
  6
CONTINUOUS
370
-3
390
F
  0
LAYER
  5
20C
100
AcDbSymbolTableRecord
100
AcDbLayerTableRecord
  2
TRASH
 70
0
 62
7
  6
CONTINUOUS
370
-3
390
F
  0
ENDTAB
  0
TABLE
  2
STYLE
  5
3
100
AcDbSymbolTable
 70
1
  0
STYLE
  5
11
100
AcDbSymbolTableRecord
100
AcDbTextStyleTableRecord
  2
STANDARD
 70
0
 40
0.0
 41
0.8
 50
0.0
 71
0
 42
0.2
  3
txt
  4

  0
STYLE
  5
20D
100
AcDbSymbolTableRecord
100
AcDbTextStyleTableRecord
  2
TEXTSTYLE_1
 70
0
 40
0.0
 41
0.8
 50
0.0
 71
0
 42
0.2
  3
gdt
  4

  0
ENDTAB
  0
TABLE
  2
VIEW
  5
6
100
AcDbSymbolTable
 70
0
  0
ENDTAB
  0
TABLE
  2
UCS
  5
7
100
AcDbSymbolTable
 70
0
  0
ENDTAB
  0
TABLE
  2
APPID
  5
9
100
AcDbSymbolTable
 70
1
  0
APPID
  5
20E
100
AcDbSymbolTableRecord
100
AcDbRegAppTableRecord
  2
ACAD
 70
0
  0
ENDTAB
  0
TABLE
  2
BLOCK_RECORD
  5
1
100
AcDbSymbolTable
 70
0
  0
BLOCK_RECORD
  5
20F
100
AcDbSymbolTableRecord
100
AcDbBlockTableRecord
  2
*Model_Space
  0
BLOCK_RECORD
  5
210
100
AcDbSymbolTableRecord
100
AcDbBlockTableRecord
  2
*Paper_Space
  0
BLOCK_RECORD
  5
211
100
AcDbSymbolTableRecord
100
AcDbBlockTableRecord
  2
_FILLED
  0
ENDTAB
  0
TABLE
  2
DIMSTYLE
  5
A
100
AcDbSymbolTable
 70
1
100
AcDbDimStyleTable
 71
0
  0
DIMSTYLE
105
212
100
AcDbSymbolTableRecord
100
AcDbDimStyleTableRecord
  2
STANDARD
 70
0
  3

  4

 40
1.0
 41
3.0
 42
0.5
 43
0.38
 44
1.5
 45
0.0
 46
0.0
 47
0.01
 48
0.01
140
3.0
141
0.09
142
0.0
143
25.4
144
1.0
145
0.0
146
1.0
147
0.625
 71
1
 72
0
 73
0
 74
0
 75
0
 76
0
 77
1
 78
8
 79
2
170
0
171
1
172
0
173
0
174
0
175
0
176
0
177
0
178
0
270
2
179
2
271
2
272
2
273
2
274
2
275
0
280
0
281
0
282
0
283
1
284
8
285
0
286
0
287
3
288
0
340
11
278
44
341
211
342
211
343
211
344
211
  0
ENDTAB
  0
ENDSEC
  0
SECTION
  2
BLOCKS
  0
BLOCK
  5
20
100
AcDbEntity
  8
0
100
AcDbBlockBegin
  2
*Model_Space
 70
0
 10
0.0
 20
0.0
 30
0.0
  3
*Model_Space
  1

  0
ENDBLK
  5
21
100
AcDbEntity
  8
0
100
AcDbBlockEnd
  0
BLOCK
  5
1C
100
AcDbEntity
  8
0
100
AcDbBlockBegin
  2
*Paper_Space
 70
0
 10
0.0
 20
0.0
 30
0.0
  3
*Paper_Space
  1

  0
ENDBLK
  5
1D
100
AcDbEntity
  8
0
100
AcDbBlockEnd
  0
BLOCK
  5
213
100
AcDbEntity
  8
0
100
AcDbBlockBegin
  2
_FILLED
 70
64
 10
0.0
 20
0.0
  3
_FILLED
  1

  0
SOLID
  5
214
100
AcDbEntity
  8
0
  6
BYBLOCK
 62
0
100
AcDbTrace
 10
0.0
 20
0.0
 11
-1.0
 21
0.3166666667
 12
-1.0
 22
-0.3166666667
 13
-1.0
 23
-0.3166666667
  0
ENDBLK
  5
215
100
AcDbEntity
  8
0
  6
BYBLOCK
 62
0
100
AcDbBlockEnd
  0
ENDSEC
  0
SECTION
  2
ENTITIES
  0
LINE
  5
216
100
AcDbEntity
  8
DRAFT
100
AcDbLine
 62
7
  6
CONTINUOUS
 10
-43.0
 20
-6.5
 11
-43.0
 21
6.5
  0
LINE
  5
217
100
AcDbEntity
  8
DRAFT
100
AcDbLine
 62
7
  6
CONTINUOUS
 10
-42.9720718961
 20
-6.4724513599
 11
-42.9720718961
 21
-1.5
  0
LINE
  5
218
100
AcDbEntity
  8
DRAFT
100
AcDbLine
 62
7
  6
CONTINUOUS
 10
-42.9720718961
 20
1.5
 11
-42.9720718961
 21
6.4724513599
  0
LINE
  5
219
100
AcDbEntity
  8
DRAFT
100
AcDbLine
 62
7
  6
CONTINUOUS
 10
-42.9633443637
 20
1.4912724675
 11
-42.9633443637
 21
-1.4912724675
  0
LINE
  5
21A
100
AcDbEntity
  8
DRAFT
100
AcDbLine
 62
7
  6
CONTINUOUS
 10
-42.2087275325
 20
-1.4912724675
 11
-42.2087275325
 21
1.4912724675
  0
LINE
  5
21B
100
AcDbEntity
  8
DRAFT
100
AcDbLine
 62
7
  6
CONTINUOUS
 10
-42.2
 20
-1.5
 11
-42.2
 21
1.5
  0
LINE
  5
21C
100
AcDbEntity
  8
DRAFT
100
AcDbLine
 62
7
  6
CONTINUOUS
 10
-39.0114931534
 20
3.6084423187
 11
-39.0051466838
 21
3.2448533162
  0
LINE
  5
21D
100
AcDbEntity
  8
DRAFT
100
AcDbLine
 62
7
  6
CONTINUOUS
 10
-40.0227665238
 20
-2.0179624328
 11
-40.0222212442
 21
-2.0483452694
  0
LINE
  5
21E
100
AcDbEntity
  8
DRAFT
100
AcDbLine
 62
7
  6
CONTINUOUS
 10
-40.0142121255
 20
-2.6590280662
 11
-40.0222212442
 21
-2.0483452694
  0
LINE
  5
21F
100
AcDbEntity
  8
DRAFT
100
AcDbLine
 62
7
  6
CONTINUOUS
 10
-40.0
 20
-5.25
 11
-40.0
 21
-4.3084219849
  0
LINE
  5
220
100
AcDbEntity
  8
DRAFT
100
AcDbLine
 62
7
  6
CONTINUOUS
 10
-40.0
 20
4.3084219849
 11
-40.0
 21
5.25
  0
LINE
  5
221
100
AcDbEntity
  8
DRAFT
100
AcDbLine
 62
7
  6
CONTINUOUS
 10
-39.9860359481
 20
-4.2994997051
 11
-39.9860359481
 21
-2.7151271344
  0
LINE
  5
222
100
AcDbEntity
  8
DRAFT
100
AcDbLine
 62
7
  6
CONTINUOUS
 10
-39.9860359481
 20
2.7151271344
 11
-39.9860359481
 21
4.2994997051
  0
LINE
  5
223
100
AcDbEntity
  8
DRAFT
100
AcDbLine
 62
7
  6
CONTINUOUS
 10
-39.0139640519
 20
4.6262202069
 11
-39.0139640519
 21
3.6103153465
  0
LINE
  5
224
100
AcDbEntity
  8
DRAFT
100
AcDbLine
 62
7
  6
CONTINUOUS
 10
-39.0139640519
 20
-4.6262202069
 11
-39.0139640519
 21
-3.6103153465
  0
LINE
  5
225
100
AcDbEntity
  8
DRAFT
100
AcDbLine
 62
7
  6
CONTINUOUS
 10
-39.0
 20
5.25
 11
-39.0
 21
4.6435439053
  0
LINE
  5
226
100
AcDbEntity
  8
DRAFT
100
AcDbLine
 62
7
  6
CONTINUOUS
 10
-39.0
 20
-4.6435439053
 11
-39.0
 21
-5.25
  0
LWPOLYLINE
  5
227
100
AcDbEntity
  8
DRAFT
100
AcDbPolyline
 62
7
  6
CONTINUOUS
 90
9
 70
0
 10
-40.0142121255
 20
2.6590280662
 10
-40.0224882844
 20
2.0319795965
 10
-40.0227683442
 20
2.0178801897
 10
-40.0230628457
 20
2.0059376206
 10
-40.0233708163
 20
1.9962263037
 10
-40.0236893377
 20
1.9889694824
 10
-40.0240221706
 20
1.9841732795
 10
-40.0243655543
 20
1.9818315722
 10
-40.0244371313
 20
1.9816716038
  0
LINE
  5
228
100
AcDbEntity
  8
DRAFT
100
AcDbLine
 62
7
  6
CONTINUOUS
 10
-39.0051466838
 20
-3.2448533162
 11
-39.0114931534
 21
-3.6084423186
  0
LWPOLYLINE
  5
229
100
AcDbEntity
  8
DRAFT
100
AcDbPolyline
 62
7
  6
CONTINUOUS
 90
7
 70
0
 10
-40.0244371161
 20
-1.9816394343
 10
-40.0243535816
 20
-1.9818327634
 10
-40.0240140068
 20
-1.9842321802
 10
-40.0236842811
 20
-1.9890655731
 10
-40.0233673587
 20
-1.9963339914
 10
-40.0230602854
 20
-2.0060363858
 10
-40.0227665238
 20
-2.0179624328
  0
LINE
  5
22A
100
AcDbEntity
  8
DRAFT
100
AcDbLine
 62
7
  6
CONTINUOUS
 10
-36.9948533162
 20
-3.2448533162
 11
-36.9885068466
 21
-3.6084423186
  0
LINE
  5
22B
100
AcDbEntity
  8
DRAFT
100
AcDbLine
 62
7
  6
CONTINUOUS
 10
-35.9772334762
 20
2.0179624328
 11
-35.9777787558
 21
2.0483452694
  0
LINE
  5
22C
100
AcDbEntity
  8
DRAFT
100
AcDbLine
 62
7
  6
CONTINUOUS
 10
-35.9857878745
 20
2.6590280662
 11
-35.9777787558
 21
2.0483452694
  0
LINE
  5
22D
100
AcDbEntity
  8
DRAFT
100
AcDbLine
 62
7
  6
CONTINUOUS
 10
-37.0
 20
-5.25
 11
-37.0
 21
-4.6435439053
  0
LINE
  5
22E
100
AcDbEntity
  8
DRAFT
100
AcDbLine
 62
7
  6
CONTINUOUS
 10
-37.0
 20
4.6435439053
 11
-37.0
 21
5.25
  0
LINE
  5
22F
100
AcDbEntity
  8
DRAFT
100
AcDbLine
 62
7
  6
CONTINUOUS
 10
-36.9860359481
 20
4.6262202069
 11
-36.9860359481
 21
3.6103153465
  0
LINE
  5
230
100
AcDbEntity
  8
DRAFT
100
AcDbLine
 62
7
  6
CONTINUOUS
 10
-36.9860359481
 20
-4.6262202069
 11
-36.9860359481
 21
-3.6103153465
  0
LINE
  5
231
100
AcDbEntity
  8
DRAFT
100
AcDbLine
 62
7
  6
CONTINUOUS
 10
-36.0139640519
 20
4.2994997051
 11
-36.0139640519
 21
2.7151271344
  0
LINE
  5
232
100
AcDbEntity
  8
DRAFT
100
AcDbLine
 62
7
  6
CONTINUOUS
 10
-36.0139640519
 20
-2.7151271344
 11
-36.0139640519
 21
-4.2994997051
  0
LINE
  5
233
100
AcDbEntity
  8
DRAFT
100
AcDbLine
 62
7
  6
CONTINUOUS
 10
-36.0
 20
5.25
 11
-36.0
 21
4.3084219849
  0
LINE
  5
234
100
AcDbEntity
  8
DRAFT
100
AcDbLine
 62
7
  6
CONTINUOUS
 10
-36.0
 20
-4.3084219849
 11
-36.0
 21
-5.25
  0
LWPOLYLINE
  5
235
100
AcDbEntity
  8
DRAFT
100
AcDbPolyline
 62
7
  6
CONTINUOUS
 90
9
 70
0
 10
-35.9857878745
 20
-2.6590280662
 10
-35.9775117156
 20
-2.0319795965
 10
-35.9772316558
 20
-2.0178801897
 10
-35.9769371543
 20
-2.0059376206
 10
-35.9766291837
 20
-1.9962263037
 10
-35.9763106623
 20
-1.9889694824
 10
-35.9759778294
 20
-1.9841732795
 10
-35.9756344457
 20
-1.9818315722
 10
-35.9755628687
 20
-1.9816716038
  0
LINE
  5
236
100
AcDbEntity
  8
DRAFT
100
AcDbLine
 62
7
  6
CONTINUOUS
 10
-36.9885068466
 20
3.6084423187
 11
-36.9948533162
 21
3.2448533162
  0
LINE
  5
237
100
AcDbEntity
  8
DRAFT
100
AcDbLine
 62
7
  6
CONTINUOUS
 10
-40.2299103121
 20
-2.5
 11
-40.2352268091
 21
-2.5139640519
  0
LINE
  5
238
100
AcDbEntity
  8
DRAFT
100
AcDbLine
 62
7
  6
CONTINUOUS
 10
-39.998592255
 20
2.6902718783
 11
-40.0142121255
 21
2.6590280662
  0
LINE
  5
239
100
AcDbEntity
  8
DRAFT
100
AcDbLine
 62
7
  6
CONTINUOUS
 10
-39.9860359481
 20
2.7151271344
 11
-39.998592255
 21
2.6902718783
  0
LWPOLYLINE
  5
23A
100
AcDbEntity
  8
RACCORDO
100
AcDbPolyline
 62
7
  6
CONTINUOUS
 90
25
 70
0
 10
-41.6612699098
 20
3.0041869364
 10
-41.6782048824
 20
2.9813283834
 10
-41.692747067
 20
2.9574506768
 10
-41.7048964636
 20
2.9325538167
 10
-41.7147166922
 20
2.9064187345
 10
-41.7221441327
 20
2.8792644986
 10
-41.7269879256
 20
2.851748315
 10
-41.7292153692
 20
2.823896917
 10
-41.728859165
 20
2.7956835711
 10
-41.7258265587
 20
2.7676852829
 10
-41.7200131963
 20
2.7397694059
 10
-41.7115234317
 20
2.7120685865
 10
-41.7005775722
 20
2.6855577694
 10
-41.6870541295
 20
2.6603214869
 10
-41.671074592
 20
2.6362752068
 10
-41.6532237319
 20
2.6141402766
 10
-41.6335315944
 20
2.5940546802
 10
-41.6119681343
 20
2.5758804338
 10
-41.5890279889
 20
2.559924933
 10
-41.5646568022
 20
2.5461956918
 10
-41.5389089302
 20
2.5346851962
 10
-41.5124420769
 20
2.5256782991
 10
-41.4854754773
 20
2.5192699515
 10
-41.4577898965
 20
2.5153652025
 10
-41.4293853346
 20
2.5139640519
  0
LWPOLYLINE
  5
23B
100
AcDbEntity
  8
RACCORDO
100
AcDbPolyline
 62
7
  6
CONTINUOUS
 90
25
 70
0
 10
-41.6919188026
 20
-2.9886845861
 10
-41.7086537753
 20
-2.965787153
 10
-41.7230043268
 20
-2.9418922538
 10
-41.7349704571
 20
-2.9169998888
 10
-41.7446138526
 20
-2.8908947634
 10
-41.7518728268
 20
-2.8637921721
 10
-41.7565623206
 20
-2.836337998
 10
-41.758651574
 20
-2.8085565665
 10
-41.7581713471
 20
-2.7804235522
 10
-41.7550288603
 20
-2.7525118628
 10
-41.7491174322
 20
-2.724686806
 10
-41.7405437443
 20
-2.6970830739
 10
-41.7295350617
 20
-2.6706776506
 10
-41.7159743001
 20
-2.6455614247
 10
-41.6999785439
 20
-2.6216435076
 10
-41.6821263104
 20
-2.5996282162
 10
-41.6624468268
 20
-2.5796486013
 10
-41.6409108661
 20
-2.5615716122
 10
-41.6180092645
 20
-2.5457024147
 10
-41.5936879442
 20
-2.5320487008
 10
-41.5680009831
 20
-2.5206027785
 10
-41.5416014508
 20
-2.5116467383
 10
-41.5147070373
 20
-2.5052746102
 10
-41.4871000527
 20
-2.5013923641
 10
-41.4587804969
 20
-2.5
  0
LINE
  5
23C
100
AcDbEntity
  8
DRAFT
100
AcDbLine
 62
7
  6
CONTINUOUS
 10
-39.9860359481
 20
-2.7151271344
 11
-40.0017229427
 21
-2.6840388625
  0
LINE
  5
23D
100
AcDbEntity
  8
DRAFT
100
AcDbLine
 62
7
  6
CONTINUOUS
 10
-40.0017229427
 20
-2.6840388625
 11
-40.0142121255
 21
-2.6590280662
  0
LINE
  5
23E
100
AcDbEntity
  8
DRAFT
100
AcDbLine
 62
7
  6
CONTINUOUS
 10
-40.2299103121
 20
2.5
 11
-40.2352268091
 21
2.5139640519
  0
LINE
  5
23F
100
AcDbEntity
  8
DRAFT
100
AcDbLine
 62
7
  6
CONTINUOUS
 10
-32.2
 20
7.3720718961
 11
-32.2
 21
-7.3720718961
  0
LINE
  5
240
100
AcDbEntity
  8
DRAFT
100
AcDbLine
 62
7
  6
CONTINUOUS
 10
-31.9
 20
-7.3773084156
 11
-31.9
 21
7.3773084156
  0
LINE
  5
241
100
AcDbEntity
  8
DRAFT
100
AcDbLine
 62
7
  6
CONTINUOUS
 10
-35.7700896879
 20
2.5
 11
-35.7647731909
 21
2.5139640519
  0
LINE
  5
242
100
AcDbEntity
  8
DRAFT
100
AcDbLine
 62
7
  6
CONTINUOUS
 10
-39.0
 20
4.6435439053
 11
-39.0139640519
 21
4.6262202069
  0
LINE
  5
243
100
AcDbEntity
  8
DRAFT
100
AcDbLine
 62
7
  6
CONTINUOUS
 10
-39.0139640519
 20
-4.6262202069
 11
-39.0
 21
-4.6435439053
  0
LWPOLYLINE
  5
244
100
AcDbEntity
  8
DRAFT
100
AcDbPolyline
 62
7
  6
CONTINUOUS
 90
7
 70
0
 10
-35.9755628839
 20
1.9816394343
 10
-35.9756464184
 20
1.9818327634
 10
-35.9759859932
 20
1.9842321802
 10
-35.9763157189
 20
1.9890655731
 10
-35.9766326413
 20
1.9963339914
 10
-35.9769397146
 20
2.0060363858
 10
-35.9772334762
 20
2.0179624328
  0
LINE
  5
245
100
AcDbEntity
  8
DRAFT
100
AcDbLine
 62
7
  6
CONTINUOUS
 10
-35.7700896879
 20
-2.5
 11
-35.7647731909
 21
-2.5139640519
  0
LINE
  5
246
100
AcDbEntity
  8
DRAFT
100
AcDbLine
 62
7
  6
CONTINUOUS
 10
-31.6
 20
-4.5
 11
-31.6
 21
4.5
  0
LINE
  5
247
100
AcDbEntity
  8
DRAFT
100
AcDbLine
 62
7
  6
CONTINUOUS
 10
-31.5808230831
 20
-4.4808230831
 11
-31.5808230831
 21
4.4808230831
  0
LINE
  5
248
100
AcDbEntity
  8
DRAFT
100
AcDbLine
 62
7
  6
CONTINUOUS
 10
-36.001407745
 20
-2.6902718783
 11
-35.9857878745
 21
-2.6590280662
  0
LINE
  5
249
100
AcDbEntity
  8
DRAFT
100
AcDbLine
 62
7
  6
CONTINUOUS
 10
-36.0139640519
 20
-2.7151271344
 11
-36.001407745
 21
-2.6902718783
  0
LINE
  5
24A
100
AcDbEntity
  8
DRAFT
100
AcDbLine
 62
7
  6
CONTINUOUS
 10
-42.2
 20
1.5
 11
-42.2087275325
 21
1.4912724675
  0
LINE
  5
24B
100
AcDbEntity
  8
DRAFT
100
AcDbLine
 62
7
  6
CONTINUOUS
 10
-42.9720718961
 20
-1.5
 11
-42.9633443637
 21
-1.4912724675
  0
LINE
  5
24C
100
AcDbEntity
  8
DRAFT
100
AcDbLine
 62
7
  6
CONTINUOUS
 10
-42.2
 20
-1.5
 11
-42.2087275325
 21
-1.4912724675
  0
LINE
  5
24D
100
AcDbEntity
  8
DRAFT
100
AcDbLine
 62
7
  6
CONTINUOUS
 10
-42.9720718961
 20
1.5
 11
-42.9633443637
 21
1.4912724675
  0
LINE
  5
24E
100
AcDbEntity
  8
DRAFT
100
AcDbLine
 62
7
  6
CONTINUOUS
 10
-36.0139640519
 20
2.7151271344
 11
-35.9982770573
 21
2.6840388625
  0
LINE
  5
24F
100
AcDbEntity
  8
DRAFT
100
AcDbLine
 62
7
  6
CONTINUOUS
 10
-35.9982770573
 20
2.6840388625
 11
-35.9857878745
 21
2.6590280662
  0
LWPOLYLINE
  5
250
100
AcDbEntity
  8
RACCORDO
100
AcDbPolyline
 62
7
  6
CONTINUOUS
 90
25
 70
0
 10
-34.3387300902
 20
-3.0041869364
 10
-34.3217951176
 20
-2.9813283834
 10
-34.307252933
 20
-2.9574506768
 10
-34.2951035364
 20
-2.9325538167
 10
-34.2852833078
 20
-2.9064187345
 10
-34.2778558673
 20
-2.8792644986
 10
-34.2730120744
 20
-2.851748315
 10
-34.2707846308
 20
-2.823896917
 10
-34.271140835
 20
-2.7956835711
 10
-34.2741734413
 20
-2.7676852829
 10
-34.2799868037
 20
-2.7397694059
 10
-34.2884765683
 20
-2.7120685865
 10
-34.2994224278
 20
-2.6855577694
 10
-34.3129458705
 20
-2.6603214869
 10
-34.328925408
 20
-2.6362752068
 10
-34.3467762681
 20
-2.6141402766
 10
-34.3664684056
 20
-2.5940546802
 10
-34.3880318657
 20
-2.5758804338
 10
-34.4109720111
 20
-2.559924933
 10
-34.4353431978
 20
-2.5461956918
 10
-34.4610910698
 20
-2.5346851962
 10
-34.4875579231
 20
-2.5256782991
 10
-34.5145245227
 20
-2.5192699515
 10
-34.5422101035
 20
-2.5153652025
 10
-34.5706146654
 20
-2.5139640519
  0
LINE
  5
251
100
AcDbEntity
  8
DRAFT
100
AcDbLine
 62
7
  6
CONTINUOUS
 10
-37.0
 20
-4.6435439053
 11
-36.9860359481
 21
-4.6262202069
  0
LINE
  5
252
100
AcDbEntity
  8
DRAFT
100
AcDbLine
 62
7
  6
CONTINUOUS
 10
-41.9800634397
 20
-7.3720718961
 11
-41.9911022132
 21
-7.3845140165
  0
LWPOLYLINE
  5
253
100
AcDbEntity
  8
DRAFT
100
AcDbPolyline
 62
7
  6
CONTINUOUS
 90
3
 70
0
 10
-41.9911022132
 20
-7.3845140165
 10
-42.002220402
 20
-7.3969087409
 10
-42.0050125629
 20
-7.4
  0
LINE
  5
254
100
AcDbEntity
  8
DRAFT
100
AcDbLine
 62
7
  6
CONTINUOUS
 10
-41.9938741845
 20
7.3876171514
 11
-42.0050125629
 21
7.4
  0
LWPOLYLINE
  5
255
100
AcDbEntity
  8
DRAFT
100
AcDbPolyline
 62
7
  6
CONTINUOUS
 90
3
 70
0
 10
-41.9800634397
 20
7.3720718961
 10
-41.9828157586
 20
7.3751868639
 10
-41.9938741845
 20
7.3876171514
  0
LINE
  5
256
100
AcDbEntity
  8
DRAFT
100
AcDbLine
 62
7
  6
CONTINUOUS
 10
-36.9860359481
 20
4.6262202069
 11
-37.0
 21
4.6435439053
  0
LWPOLYLINE
  5
257
100
AcDbEntity
  8
RACCORDO
100
AcDbPolyline
 62
7
  6
CONTINUOUS
 90
25
 70
0
 10
-34.3080811974
 20
2.9886845861
 10
-34.2913462247
 20
2.965787153
 10
-34.2769956732
 20
2.9418922538
 10
-34.2650295429
 20
2.9169998888
 10
-34.2553861474
 20
2.8908947634
 10
-34.2481271732
 20
2.8637921721
 10
-34.2434376794
 20
2.836337998
 10
-34.241348426
 20
2.8085565665
 10
-34.2418286529
 20
2.7804235522
 10
-34.2449711397
 20
2.7525118628
 10
-34.2508825678
 20
2.724686806
 10
-34.2594562557
 20
2.6970830739
 10
-34.2704649383
 20
2.6706776506
 10
-34.2840256999
 20
2.6455614247
 10
-34.3000214561
 20
2.6216435076
 10
-34.3178736896
 20
2.5996282162
 10
-34.3375531732
 20
2.5796486013
 10
-34.3590891339
 20
2.5615716122
 10
-34.3819907355
 20
2.5457024147
 10
-34.4063120558
 20
2.5320487008
 10
-34.4319990169
 20
2.5206027785
 10
-34.4583985492
 20
2.5116467383
 10
-34.4852929627
 20
2.5052746102
 10
-34.5128999473
 20
2.5013923641
 10
-34.5412195031
 20
2.5
  0
LINE
  5
258
100
AcDbEntity
  8
DRAFT
100
AcDbLine
 62
7
  6
CONTINUOUS
 10
-42.9907193249
 20
-6.4907619952
 11
-43.0
 21
-6.5
  0
LINE
  5
259
100
AcDbEntity
  8
DRAFT
100
AcDbLine
 62
7
  6
CONTINUOUS
 10
-42.9814099263
 20
-6.4815795821
 11
-42.9907193249
 21
-6.4907619952
  0
LINE
  5
25A
100
AcDbEntity
  8
DRAFT
100
AcDbLine
 62
7
  6
CONTINUOUS
 10
-42.9720718961
 20
-6.4724513599
 11
-42.9814099263
 21
-6.4815795821
  0
LINE
  5
25B
100
AcDbEntity
  8
DRAFT
100
AcDbLine
 62
7
  6
CONTINUOUS
 10
-36.0139640519
 20
4.2994997051
 11
-36.0
 21
4.3084219849
  0
LINE
  5
25C
100
AcDbEntity
  8
DRAFT
100
AcDbLine
 62
7
  6
CONTINUOUS
 10
-36.0
 20
-4.3084219849
 11
-36.0139640519
 21
-4.2994997051
  0
LINE
  5
25D
100
AcDbEntity
  8
DRAFT
100
AcDbLine
 62
7
  6
CONTINUOUS
 10
-42.9720718961
 20
6.4724513599
 11
-42.9814099263
 21
6.4815795821
  0
LINE
  5
25E
100
AcDbEntity
  8
DRAFT
100
AcDbLine
 62
7
  6
CONTINUOUS
 10
-42.9814099263
 20
6.4815795821
 11
-42.9907193249
 21
6.4907619952
  0
LINE
  5
25F
100
AcDbEntity
  8
DRAFT
100
AcDbLine
 62
7
  6
CONTINUOUS
 10
-42.9907193249
 20
6.4907619952
 11
-43.0
 21
6.5
  0
LINE
  5
260
100
AcDbEntity
  8
RACCORDO
100
AcDbLine
 62
250
  6
CONTINUOUS
 10
-41.6919188026
 20
2.9886845861
 11
-41.6612699098
 21
3.0041869364
  0
LINE
  5
261
100
AcDbEntity
  8
RACCORDO
100
AcDbLine
 62
250
  6
CONTINUOUS
 10
-41.4587804969
 20
2.5
 11
-41.4293853346
 21
2.5139640519
  0
LINE
  5
262
100
AcDbEntity
  8
RACCORDO
100
AcDbLine
 62
250
  6
CONTINUOUS
 10
-41.4293853346
 20
-2.5139640519
 11
-41.4587804969
 21
-2.5
  0
LINE
  5
263
100
AcDbEntity
  8
RACCORDO
100
AcDbLine
 62
250
  6
CONTINUOUS
 10
-41.6612699098
 20
-3.0041869364
 11
-41.6919188026
 21
-2.9886845861
  0
LINE
  5
264
100
AcDbEntity
  8
DRAFT
100
AcDbLine
 62
7
  6
CONTINUOUS
 10
-31.5808230831
 20
-4.4808230831
 11
-31.6
 21
-4.5
  0
LINE
  5
265
100
AcDbEntity
  8
DRAFT
100
AcDbLine
 62
7
  6
CONTINUOUS
 10
-39.9860359481
 20
-4.2994997051
 11
-40.0
 21
-4.3084219849
  0
LINE
  5
266
100
AcDbEntity
  8
DRAFT
100
AcDbLine
 62
7
  6
CONTINUOUS
 10
-40.0
 20
4.3084219849
 11
-39.9860359481
 21
4.2994997051
  0
LINE
  5
267
100
AcDbEntity
  8
DRAFT
100
AcDbLine
 62
7
  6
CONTINUOUS
 10
-31.5808230831
 20
4.4808230831
 11
-31.6
 21
4.5
  0
LINE
  5
268
100
AcDbEntity
  8
RACCORDO
100
AcDbLine
 62
250
  6
CONTINUOUS
 10
-34.3080811974
 20
-2.9886845861
 11
-34.3387300902
 21
-3.0041869364
  0
LINE
  5
269
100
AcDbEntity
  8
RACCORDO
100
AcDbLine
 62
250
  6
CONTINUOUS
 10
-34.5412195031
 20
-2.5
 11
-34.5706146654
 21
-2.5139640519
  0
LINE
  5
26A
100
AcDbEntity
  8
RACCORDO
100
AcDbLine
 62
250
  6
CONTINUOUS
 10
-34.5706146654
 20
2.5139640519
 11
-34.5412195031
 21
2.5
  0
LINE
  5
26B
100
AcDbEntity
  8
RACCORDO
100
AcDbLine
 62
250
  6
CONTINUOUS
 10
-34.3387300902
 20
3.0041869364
 11
-34.3080811974
 21
2.9886845861
  0
LINE
  5
26C
100
AcDbEntity
  8
DRAFT
100
AcDbLine
 62
7
  6
CONTINUOUS
 10
32.2
 20
-7.3720718961
 11
31.9
 21
-7.3773084156
  0
LINE
  5
26D
100
AcDbEntity
  8
RACCORDO
100
AcDbLine
 62
7
  6
CONTINUOUS
 10
-34.0000761524
 20
-7.4
 11
34.0000761524
 21
-7.4
  0
LINE
  5
26E
100
AcDbEntity
  8
DRAFT
100
AcDbLine
 62
7
  6
CONTINUOUS
 10
42.0050125629
 20
-7.4
 11
-42.0050125629
 21
-7.4
  0
LINE
  5
26F
100
AcDbEntity
  8
DRAFT
100
AcDbLine
 62
7
  6
CONTINUOUS
 10
31.9
 20
-7.3773084156
 11
-31.9
 21
-7.3773084156
  0
LINE
  5
270
100
AcDbEntity
  8
DRAFT
100
AcDbLine
 62
7
  6
CONTINUOUS
 10
41.9800634397
 20
-7.3720718961
 11
32.2
 21
-7.3720718961
  0
LINE
  5
271
100
AcDbEntity
  8
DRAFT
100
AcDbLine
 62
7
  6
CONTINUOUS
 10
-32.2
 20
-7.3720718961
 11
-41.9800634397
 21
-7.3720718961
  0
LINE
  5
272
100
AcDbEntity
  8
DRAFT
100
AcDbLine
 62
7
  6
CONTINUOUS
 10
-31.9
 20
-7.3773084156
 11
-32.2
 21
-7.3720718961
  0
LWPOLYLINE
  5
273
100
AcDbEntity
  8
RACCORDO
100
AcDbPolyline
 62
7
  6
CONTINUOUS
 90
25
 70
0
 10
34.5706146654
 20
-2.5139640519
 10
34.5422101035
 20
-2.5153652025
 10
34.5145245227
 20
-2.5192699515
 10
34.4875579231
 20
-2.5256782991
 10
34.4610910698
 20
-2.5346851962
 10
34.4353431978
 20
-2.5461956918
 10
34.4109720111
 20
-2.559924933
 10
34.3880318657
 20
-2.5758804338
 10
34.3664684056
 20
-2.5940546802
 10
34.3467762681
 20
-2.6141402766
 10
34.3289254081
 20
-2.6362752068
 10
34.3129458705
 20
-2.6603214869
 10
34.2994224278
 20
-2.6855577694
 10
34.2884765683
 20
-2.7120685865
 10
34.2799868037
 20
-2.7397694059
 10
34.2741734413
 20
-2.7676852829
 10
34.271140835
 20
-2.7956835711
 10
34.2707846308
 20
-2.823896917
 10
34.2730120744
 20
-2.851748315
 10
34.2778558673
 20
-2.8792644986
 10
34.2852833078
 20
-2.9064187344
 10
34.2951035364
 20
-2.9325538167
 10
34.307252933
 20
-2.9574506768
 10
34.3217951176
 20
-2.9813283834
 10
34.3387300902
 20
-3.0041869364
  0
LINE
  5
274
100
AcDbEntity
  8
DRAFT
100
AcDbLine
 62
7
  6
CONTINUOUS
 10
-31.6
 20
-4.5
 11
31.6
 21
-4.5
  0
LINE
  5
275
100
AcDbEntity
  8
DRAFT
100
AcDbLine
 62
7
  6
CONTINUOUS
 10
-39.0051466838
 20
-3.2448533162
 11
-36.9948533162
 21
-3.2448533162
  0
LINE
  5
276
100
AcDbEntity
  8
DRAFT
100
AcDbLine
 62
7
  6
CONTINUOUS
 10
39.0051466838
 20
-3.2448533162
 11
36.9948533162
 21
-3.2448533162
  0
LWPOLYLINE
  5
277
100
AcDbEntity
  8
RACCORDO
100
AcDbPolyline
 62
7
  6
CONTINUOUS
 90
25
 70
0
 10
-34.5412195031
 20
-2.5
 10
-34.5128999473
 20
-2.5013923641
 10
-34.4852929627
 20
-2.5052746102
 10
-34.4583985492
 20
-2.5116467383
 10
-34.4319990169
 20
-2.5206027785
 10
-34.4063120558
 20
-2.5320487008
 10
-34.3819907355
 20
-2.5457024147
 10
-34.3590891339
 20
-2.5615716122
 10
-34.3375531732
 20
-2.5796486013
 10
-34.3178736896
 20
-2.5996282163
 10
-34.3000214562
 20
-2.6216435076
 10
-34.2840256999
 20
-2.6455614247
 10
-34.2704649384
 20
-2.6706776506
 10
-34.2594562557
 20
-2.6970830739
 10
-34.2508825678
 20
-2.724686806
 10
-34.2449711397
 20
-2.7525118628
 10
-34.2418286529
 20
-2.7804235522
 10
-34.241348426
 20
-2.8085565665
 10
-34.2434376794
 20
-2.836337998
 10
-34.2481271732
 20
-2.8637921721
 10
-34.2553861474
 20
-2.8908947634
 10
-34.2650295429
 20
-2.9169998888
 10
-34.2769956732
 20
-2.9418922538
 10
-34.2913462247
 20
-2.965787153
 10
-34.3080811974
 20
-2.9886845861
  0
LWPOLYLINE
  5
278
100
AcDbEntity
  8
RACCORDO
100
AcDbPolyline
 62
7
  6
CONTINUOUS
 90
25
 70
0
 10
-41.4293853346
 20
-2.5139640519
 10
-41.4577898965
 20
-2.5153652025
 10
-41.4854754773
 20
-2.5192699515
 10
-41.5124420769
 20
-2.5256782991
 10
-41.5389089302
 20
-2.5346851962
 10
-41.5646568022
 20
-2.5461956918
 10
-41.5890279889
 20
-2.559924933
 10
-41.6119681343
 20
-2.5758804338
 10
-41.6335315944
 20
-2.5940546802
 10
-41.6532237319
 20
-2.6141402766
 10
-41.6710745919
 20
-2.6362752068
 10
-41.6870541295
 20
-2.6603214869
 10
-41.7005775722
 20
-2.6855577694
 10
-41.7115234317
 20
-2.7120685865
 10
-41.7200131963
 20
-2.7397694059
 10
-41.7258265587
 20
-2.7676852829
 10
-41.728859165
 20
-2.7956835711
 10
-41.7292153692
 20
-2.823896917
 10
-41.7269879256
 20
-2.851748315
 10
-41.7221441327
 20
-2.8792644986
 10
-41.7147166922
 20
-2.9064187344
 10
-41.7048964636
 20
-2.9325538167
 10
-41.692747067
 20
-2.9574506768
 10
-41.6782048824
 20
-2.9813283834
 10
-41.6612699098
 20
-3.0041869364
  0
LINE
  5
279
100
AcDbEntity
  8
DRAFT
100
AcDbLine
 62
7
  6
CONTINUOUS
 10
41.4293853346
 20
-2.5139640519
 11
40.2352268091
 21
-2.5139640519
  0
LINE
  5
27A
100
AcDbEntity
  8
DRAFT
100
AcDbLine
 62
7
  6
CONTINUOUS
 10
35.7647731909
 20
-2.5139640519
 11
34.5706146654
 21
-2.5139640519
  0
LINE
  5
27B
100
AcDbEntity
  8
DRAFT
100
AcDbLine
 62
7
  6
CONTINUOUS
 10
-34.5706146654
 20
-2.5139640519
 11
-35.7647731909
 21
-2.5139640519
  0
LINE
  5
27C
100
AcDbEntity
  8
DRAFT
100
AcDbLine
 62
7
  6
CONTINUOUS
 10
-40.2352268091
 20
-2.5139640519
 11
-41.4293853346
 21
-2.5139640519
  0
LINE
  5
27D
100
AcDbEntity
  8
DRAFT
100
AcDbLine
 62
7
  6
CONTINUOUS
 10
-41.4587804969
 20
-2.5
 11
-40.2299103121
 21
-2.5
  0
LINE
  5
27E
100
AcDbEntity
  8
DRAFT
100
AcDbLine
 62
7
  6
CONTINUOUS
 10
-35.7700896879
 20
-2.5
 11
-34.5412195031
 21
-2.5
  0
LINE
  5
27F
100
AcDbEntity
  8
DRAFT
100
AcDbLine
 62
7
  6
CONTINUOUS
 10
34.5412195031
 20
-2.5
 11
35.7700896879
 21
-2.5
  0
LINE
  5
280
100
AcDbEntity
  8
DRAFT
100
AcDbLine
 62
7
  6
CONTINUOUS
 10
40.2299103121
 20
-2.5
 11
41.4587804969
 21
-2.5
  0
LINE
  5
281
100
AcDbEntity
  8
DRAFT
100
AcDbLine
 62
7
  6
CONTINUOUS
 10
-42.9720718961
 20
-1.5
 11
-42.2
 21
-1.5
  0
LINE
  5
282
100
AcDbEntity
  8
DRAFT
100
AcDbLine
 62
7
  6
CONTINUOUS
 10
42.9720718961
 20
-1.5
 11
42.2
 21
-1.5
  0
LINE
  5
283
100
AcDbEntity
  8
DRAFT
100
AcDbLine
 62
7
  6
CONTINUOUS
 10
-42.9633443637
 20
-1.4912724675
 11
-42.2087275325
 21
-1.4912724675
  0
LINE
  5
284
100
AcDbEntity
  8
DRAFT
100
AcDbLine
 62
7
  6
CONTINUOUS
 10
42.2087275325
 20
-1.4912724675
 11
42.9633443637
 21
-1.4912724675
  0
LWPOLYLINE
  5
285
100
AcDbEntity
  8
RACCORDO
100
AcDbPolyline
 62
7
  6
CONTINUOUS
 90
25
 70
0
 10
41.4587804969
 20
-2.5
 10
41.4871000527
 20
-2.5013923641
 10
41.5147070373
 20
-2.5052746102
 10
41.5416014508
 20
-2.5116467383
 10
41.5680009831
 20
-2.5206027785
 10
41.5936879442
 20
-2.5320487008
 10
41.6180092645
 20
-2.5457024147
 10
41.6409108661
 20
-2.5615716122
 10
41.6624468268
 20
-2.5796486013
 10
41.6821263104
 20
-2.5996282163
 10
41.6999785438
 20
-2.6216435076
 10
41.7159743001
 20
-2.6455614247
 10
41.7295350616
 20
-2.6706776506
 10
41.7405437443
 20
-2.6970830739
 10
41.7491174322
 20
-2.724686806
 10
41.7550288603
 20
-2.7525118628
 10
41.7581713471
 20
-2.7804235522
 10
41.758651574
 20
-2.8085565665
 10
41.7565623206
 20
-2.836337998
 10
41.7518728268
 20
-2.8637921721
 10
41.7446138526
 20
-2.8908947634
 10
41.7349704571
 20
-2.9169998888
 10
41.7230043268
 20
-2.9418922538
 10
41.7086537753
 20
-2.965787153
 10
41.6919188026
 20
-2.9886845861
  0
LWPOLYLINE
  5
286
100
AcDbEntity
  8
RACCORDO
100
AcDbPolyline
 62
7
  6
CONTINUOUS
 90
25
 70
0
 10
41.4293853346
 20
2.5139640519
 10
41.4577898965
 20
2.5153652025
 10
41.4854754773
 20
2.5192699515
 10
41.5124420769
 20
2.5256782991
 10
41.5389089302
 20
2.5346851962
 10
41.5646568022
 20
2.5461956918
 10
41.5890279889
 20
2.559924933
 10
41.6119681343
 20
2.5758804338
 10
41.6335315944
 20
2.5940546802
 10
41.6532237319
 20
2.6141402766
 10
41.6710745919
 20
2.6362752068
 10
41.6870541295
 20
2.6603214869
 10
41.7005775722
 20
2.6855577694
 10
41.7115234317
 20
2.7120685865
 10
41.7200131963
 20
2.7397694059
 10
41.7258265587
 20
2.7676852829
 10
41.728859165
 20
2.7956835711
 10
41.7292153692
 20
2.823896917
 10
41.7269879256
 20
2.851748315
 10
41.7221441327
 20
2.8792644986
 10
41.7147166922
 20
2.9064187344
 10
41.7048964636
 20
2.9325538167
 10
41.692747067
 20
2.9574506768
 10
41.6782048824
 20
2.9813283834
 10
41.6612699098
 20
3.0041869364
  0
LINE
  5
287
100
AcDbEntity
  8
DRAFT
100
AcDbLine
 62
7
  6
CONTINUOUS
 10
42.9633443637
 20
1.4912724675
 11
42.2087275325
 21
1.4912724675
  0
LINE
  5
288
100
AcDbEntity
  8
DRAFT
100
AcDbLine
 62
7
  6
CONTINUOUS
 10
-42.2087275325
 20
1.4912724675
 11
-42.9633443637
 21
1.4912724675
  0
LINE
  5
289
100
AcDbEntity
  8
DRAFT
100
AcDbLine
 62
7
  6
CONTINUOUS
 10
-42.9720718961
 20
1.5
 11
-42.2
 21
1.5
  0
LINE
  5
28A
100
AcDbEntity
  8
DRAFT
100
AcDbLine
 62
7
  6
CONTINUOUS
 10
42.9720718961
 20
1.5
 11
42.2
 21
1.5
  0
LINE
  5
28B
100
AcDbEntity
  8
DRAFT
100
AcDbLine
 62
7
  6
CONTINUOUS
 10
41.4587804969
 20
2.5
 11
40.2299103121
 21
2.5
  0
LINE
  5
28C
100
AcDbEntity
  8
DRAFT
100
AcDbLine
 62
7
  6
CONTINUOUS
 10
35.7700896879
 20
2.5
 11
34.5412195031
 21
2.5
  0
LINE
  5
28D
100
AcDbEntity
  8
DRAFT
100
AcDbLine
 62
7
  6
CONTINUOUS
 10
-34.5412195031
 20
2.5
 11
-35.7700896879
 21
2.5
  0
LINE
  5
28E
100
AcDbEntity
  8
DRAFT
100
AcDbLine
 62
7
  6
CONTINUOUS
 10
-40.2299103121
 20
2.5
 11
-41.4587804969
 21
2.5
  0
LINE
  5
28F
100
AcDbEntity
  8
DRAFT
100
AcDbLine
 62
7
  6
CONTINUOUS
 10
41.4293853346
 20
2.5139640519
 11
40.2352268091
 21
2.5139640519
  0
LINE
  5
290
100
AcDbEntity
  8
DRAFT
100
AcDbLine
 62
7
  6
CONTINUOUS
 10
35.7647731909
 20
2.5139640519
 11
34.5706146654
 21
2.5139640519
  0
LINE
  5
291
100
AcDbEntity
  8
DRAFT
100
AcDbLine
 62
7
  6
CONTINUOUS
 10
-34.5706146654
 20
2.5139640519
 11
-35.7647731909
 21
2.5139640519
  0
LINE
  5
292
100
AcDbEntity
  8
DRAFT
100
AcDbLine
 62
7
  6
CONTINUOUS
 10
-40.2352268091
 20
2.5139640519
 11
-41.4293853346
 21
2.5139640519
  0
LINE
  5
293
100
AcDbEntity
  8
DRAFT
100
AcDbLine
 62
7
  6
CONTINUOUS
 10
-39.0051466838
 20
3.2448533162
 11
-36.9948533162
 21
3.2448533162
  0
LINE
  5
294
100
AcDbEntity
  8
DRAFT
100
AcDbLine
 62
7
  6
CONTINUOUS
 10
39.0051466838
 20
3.2448533162
 11
36.9948533162
 21
3.2448533162
  0
LWPOLYLINE
  5
295
100
AcDbEntity
  8
RACCORDO
100
AcDbPolyline
 62
7
  6
CONTINUOUS
 90
25
 70
0
 10
-41.4587804969
 20
2.5
 10
-41.4871000527
 20
2.5013923641
 10
-41.5147070373
 20
2.5052746102
 10
-41.5416014508
 20
2.5116467383
 10
-41.5680009831
 20
2.5206027785
 10
-41.5936879442
 20
2.5320487008
 10
-41.6180092645
 20
2.5457024147
 10
-41.6409108661
 20
2.5615716122
 10
-41.6624468268
 20
2.5796486013
 10
-41.6821263104
 20
2.5996282163
 10
-41.6999785438
 20
2.6216435076
 10
-41.7159743001
 20
2.6455614247
 10
-41.7295350616
 20
2.6706776506
 10
-41.7405437443
 20
2.6970830739
 10
-41.7491174322
 20
2.724686806
 10
-41.7550288603
 20
2.7525118628
 10
-41.7581713471
 20
2.7804235522
 10
-41.758651574
 20
2.8085565665
 10
-41.7565623206
 20
2.836337998
 10
-41.7518728268
 20
2.8637921721
 10
-41.7446138526
 20
2.8908947634
 10
-41.7349704571
 20
2.9169998888
 10
-41.7230043268
 20
2.9418922538
 10
-41.7086537753
 20
2.965787153
 10
-41.6919188026
 20
2.9886845861
  0
LWPOLYLINE
  5
296
100
AcDbEntity
  8
RACCORDO
100
AcDbPolyline
 62
7
  6
CONTINUOUS
 90
25
 70
0
 10
-34.5706146654
 20
2.5139640519
 10
-34.5422101035
 20
2.5153652025
 10
-34.5145245227
 20
2.5192699515
 10
-34.4875579231
 20
2.5256782991
 10
-34.4610910698
 20
2.5346851962
 10
-34.4353431978
 20
2.5461956918
 10
-34.4109720111
 20
2.559924933
 10
-34.3880318657
 20
2.5758804338
 10
-34.3664684056
 20
2.5940546802
 10
-34.3467762681
 20
2.6141402766
 10
-34.3289254081
 20
2.6362752068
 10
-34.3129458705
 20
2.6603214869
 10
-34.2994224278
 20
2.6855577694
 10
-34.2884765683
 20
2.7120685865
 10
-34.2799868037
 20
2.7397694059
 10
-34.2741734413
 20
2.7676852829
 10
-34.271140835
 20
2.7956835711
 10
-34.2707846308
 20
2.823896917
 10
-34.2730120744
 20
2.851748315
 10
-34.2778558673
 20
2.8792644986
 10
-34.2852833078
 20
2.9064187344
 10
-34.2951035364
 20
2.9325538167
 10
-34.307252933
 20
2.9574506768
 10
-34.3217951176
 20
2.9813283834
 10
-34.3387300902
 20
3.0041869364
  0
LINE
  5
297
100
AcDbEntity
  8
DRAFT
100
AcDbLine
 62
7
  6
CONTINUOUS
 10
-31.6
 20
4.5
 11
31.6
 21
4.5
  0
LWPOLYLINE
  5
298
100
AcDbEntity
  8
RACCORDO
100
AcDbPolyline
 62
7
  6
CONTINUOUS
 90
25
 70
0
 10
34.5412195031
 20
2.5
 10
34.5128999473
 20
2.5013923641
 10
34.4852929627
 20
2.5052746102
 10
34.4583985492
 20
2.5116467383
 10
34.4319990169
 20
2.5206027785
 10
34.4063120558
 20
2.5320487008
 10
34.3819907355
 20
2.5457024147
 10
34.3590891339
 20
2.5615716122
 10
34.3375531732
 20
2.5796486013
 10
34.3178736896
 20
2.5996282163
 10
34.3000214562
 20
2.6216435076
 10
34.2840256999
 20
2.6455614247
 10
34.2704649384
 20
2.6706776506
 10
34.2594562557
 20
2.6970830739
 10
34.2508825678
 20
2.724686806
 10
34.2449711397
 20
2.7525118628
 10
34.2418286529
 20
2.7804235522
 10
34.241348426
 20
2.8085565665
 10
34.2434376794
 20
2.836337998
 10
34.2481271732
 20
2.8637921721
 10
34.2553861474
 20
2.8908947634
 10
34.2650295429
 20
2.9169998888
 10
34.2769956732
 20
2.9418922538
 10
34.2913462247
 20
2.965787153
 10
34.3080811974
 20
2.9886845861
  0
LINE
  5
299
100
AcDbEntity
  8
DRAFT
100
AcDbLine
 62
7
  6
CONTINUOUS
 10
-31.9
 20
7.3773084156
 11
-32.2
 21
7.3720718961
  0
LINE
  5
29A
100
AcDbEntity
  8
DRAFT
100
AcDbLine
 62
7
  6
CONTINUOUS
 10
-41.9800634397
 20
7.3720718961
 11
-32.2
 21
7.3720718961
  0
LINE
  5
29B
100
AcDbEntity
  8
DRAFT
100
AcDbLine
 62
7
  6
CONTINUOUS
 10
32.2
 20
7.3720718961
 11
41.9800634397
 21
7.3720718961
  0
LINE
  5
29C
100
AcDbEntity
  8
DRAFT
100
AcDbLine
 62
7
  6
CONTINUOUS
 10
31.9
 20
7.3773084156
 11
-31.9
 21
7.3773084156
  0
LINE
  5
29D
100
AcDbEntity
  8
RACCORDO
100
AcDbLine
 62
7
  6
CONTINUOUS
 10
-34.0000761524
 20
7.4
 11
34.0000761524
 21
7.4
  0
LINE
  5
29E
100
AcDbEntity
  8
DRAFT
100
AcDbLine
 62
7
  6
CONTINUOUS
 10
-42.0050125629
 20
7.4
 11
42.0050125629
 21
7.4
  0
LINE
  5
29F
100
AcDbEntity
  8
DRAFT
100
AcDbLine
 62
7
  6
CONTINUOUS
 10
32.2
 20
7.3720718961
 11
31.9
 21
7.3773084156
  0
LINE
  5
2A0
100
AcDbEntity
  8
RACCORDO
100
AcDbLine
 62
250
  6
CONTINUOUS
 10
34.3080811974
 20
2.9886845861
 11
34.3387300902
 21
3.0041869364
  0
LINE
  5
2A1
100
AcDbEntity
  8
RACCORDO
100
AcDbLine
 62
250
  6
CONTINUOUS
 10
34.5412195031
 20
2.5
 11
34.5706146654
 21
2.5139640519
  0
LINE
  5
2A2
100
AcDbEntity
  8
RACCORDO
100
AcDbLine
 62
250
  6
CONTINUOUS
 10
34.5706146654
 20
-2.5139640519
 11
34.5412195031
 21
-2.5
  0
LINE
  5
2A3
100
AcDbEntity
  8
RACCORDO
100
AcDbLine
 62
250
  6
CONTINUOUS
 10
34.3387300902
 20
-3.0041869364
 11
34.3080811974
 21
-2.9886845861
  0
LINE
  5
2A4
100
AcDbEntity
  8
DRAFT
100
AcDbLine
 62
7
  6
CONTINUOUS
 10
31.6
 20
4.5
 11
31.5808230831
 21
4.4808230831
  0
LINE
  5
2A5
100
AcDbEntity
  8
DRAFT
100
AcDbLine
 62
7
  6
CONTINUOUS
 10
39.9860359481
 20
4.2994997051
 11
40.0
 21
4.3084219849
  0
LINE
  5
2A6
100
AcDbEntity
  8
RACCORDO
100
AcDbLine
 62
250
  6
CONTINUOUS
 10
41.4587804969
 20
-2.5
 11
41.4293853346
 21
-2.5139640519
  0
LINE
  5
2A7
100
AcDbEntity
  8
RACCORDO
100
AcDbLine
 62
250
  6
CONTINUOUS
 10
41.4293853346
 20
2.5139640519
 11
41.4587804969
 21
2.5
  0
LINE
  5
2A8
100
AcDbEntity
  8
DRAFT
100
AcDbLine
 62
7
  6
CONTINUOUS
 10
40.0
 20
-4.3084219849
 11
39.9860359481
 21
-4.2994997051
  0
LINE
  5
2A9
100
AcDbEntity
  8
DRAFT
100
AcDbLine
 62
7
  6
CONTINUOUS
 10
31.6
 20
-4.5
 11
31.5808230831
 21
-4.4808230831
  0
LINE
  5
2AA
100
AcDbEntity
  8
DRAFT
100
AcDbLine
 62
7
  6
CONTINUOUS
 10
36.0139640519
 20
-4.2994997051
 11
36.0
 21
-4.3084219849
  0
LINE
  5
2AB
100
AcDbEntity
  8
RACCORDO
100
AcDbLine
 62
250
  6
CONTINUOUS
 10
41.6919188026
 20
-2.9886845861
 11
41.6612699098
 21
-3.0041869364
  0
LINE
  5
2AC
100
AcDbEntity
  8
RACCORDO
100
AcDbLine
 62
250
  6
CONTINUOUS
 10
41.6612699098
 20
3.0041869364
 11
41.6919188026
 21
2.9886845861
  0
LINE
  5
2AD
100
AcDbEntity
  8
DRAFT
100
AcDbLine
 62
7
  6
CONTINUOUS
 10
36.0
 20
4.3084219849
 11
36.0139640519
 21
4.2994997051
  0
LWPOLYLINE
  5
2AE
100
AcDbEntity
  8
RACCORDO
100
AcDbPolyline
 62
7
  6
CONTINUOUS
 90
25
 70
0
 10
34.3387300902
 20
3.0041869364
 10
34.3217951176
 20
2.9813283834
 10
34.307252933
 20
2.9574506768
 10
34.2951035364
 20
2.9325538167
 10
34.2852833078
 20
2.9064187345
 10
34.2778558673
 20
2.8792644986
 10
34.2730120744
 20
2.851748315
 10
34.2707846308
 20
2.823896917
 10
34.271140835
 20
2.7956835711
 10
34.2741734413
 20
2.7676852829
 10
34.2799868037
 20
2.7397694059
 10
34.2884765683
 20
2.7120685865
 10
34.2994224278
 20
2.6855577694
 10
34.3129458705
 20
2.6603214869
 10
34.328925408
 20
2.6362752068
 10
34.3467762681
 20
2.6141402766
 10
34.3664684056
 20
2.5940546802
 10
34.3880318657
 20
2.5758804338
 10
34.4109720111
 20
2.559924933
 10
34.4353431978
 20
2.5461956918
 10
34.4610910698
 20
2.5346851962
 10
34.4875579231
 20
2.5256782991
 10
34.5145245227
 20
2.5192699515
 10
34.5422101035
 20
2.5153652025
 10
34.5706146654
 20
2.5139640519
  0
LINE
  5
2AF
100
AcDbEntity
  8
DRAFT
100
AcDbLine
 62
7
  6
CONTINUOUS
 10
37.0
 20
4.6435439053
 11
36.9860359481
 21
4.6262202069
  0
LINE
  5
2B0
100
AcDbEntity
  8
DRAFT
100
AcDbLine
 62
7
  6
CONTINUOUS
 10
41.9828157586
 20
7.3751868639
 11
41.9938741845
 21
7.3876171514
  0
LINE
  5
2B1
100
AcDbEntity
  8
DRAFT
100
AcDbLine
 62
7
  6
CONTINUOUS
 10
41.9938741845
 20
7.3876171514
 11
42.0050125629
 21
7.4
  0
LINE
  5
2B2
100
AcDbEntity
  8
DRAFT
100
AcDbLine
 62
7
  6
CONTINUOUS
 10
42.9907193249
 20
6.4907619952
 11
43.0
 21
6.5
  0
LINE
  5
2B3
100
AcDbEntity
  8
DRAFT
100
AcDbLine
 62
7
  6
CONTINUOUS
 10
42.9814099263
 20
6.4815795821
 11
42.9907193249
 21
6.4907619952
  0
LINE
  5
2B4
100
AcDbEntity
  8
DRAFT
100
AcDbLine
 62
7
  6
CONTINUOUS
 10
42.9720718961
 20
6.4724513599
 11
42.9814099263
 21
6.4815795821
  0
LINE
  5
2B5
100
AcDbEntity
  8
DRAFT
100
AcDbLine
 62
7
  6
CONTINUOUS
 10
42.9720718961
 20
-6.4724513599
 11
42.9814099263
 21
-6.4815795821
  0
LINE
  5
2B6
100
AcDbEntity
  8
DRAFT
100
AcDbLine
 62
7
  6
CONTINUOUS
 10
42.9814099263
 20
-6.4815795821
 11
42.9907193249
 21
-6.4907619952
  0
LINE
  5
2B7
100
AcDbEntity
  8
DRAFT
100
AcDbLine
 62
7
  6
CONTINUOUS
 10
42.9907193249
 20
-6.4907619952
 11
43.0
 21
-6.5
  0
LINE
  5
2B8
100
AcDbEntity
  8
DRAFT
100
AcDbLine
 62
7
  6
CONTINUOUS
 10
41.9938741845
 20
-7.3876171514
 11
42.0050125629
 21
-7.4
  0
LINE
  5
2B9
100
AcDbEntity
  8
DRAFT
100
AcDbLine
 62
7
  6
CONTINUOUS
 10
36.9860359481
 20
-4.6262202069
 11
37.0
 21
-4.6435439053
  0
LWPOLYLINE
  5
2BA
100
AcDbEntity
  8
RACCORDO
100
AcDbPolyline
 62
7
  6
CONTINUOUS
 90
25
 70
0
 10
34.3080811974
 20
-2.9886845861
 10
34.2913462247
 20
-2.965787153
 10
34.2769956732
 20
-2.9418922538
 10
34.2650295429
 20
-2.9169998888
 10
34.2553861474
 20
-2.8908947634
 10
34.2481271732
 20
-2.8637921721
 10
34.2434376794
 20
-2.836337998
 10
34.241348426
 20
-2.8085565665
 10
34.2418286529
 20
-2.7804235522
 10
34.2449711397
 20
-2.7525118628
 10
34.2508825678
 20
-2.724686806
 10
34.2594562557
 20
-2.6970830739
 10
34.2704649383
 20
-2.6706776506
 10
34.2840256999
 20
-2.6455614247
 10
34.3000214561
 20
-2.6216435076
 10
34.3178736896
 20
-2.5996282162
 10
34.3375531732
 20
-2.5796486013
 10
34.3590891339
 20
-2.5615716122
 10
34.3819907355
 20
-2.5457024147
 10
34.4063120558
 20
-2.5320487008
 10
34.4319990169
 20
-2.5206027785
 10
34.4583985492
 20
-2.5116467383
 10
34.4852929627
 20
-2.5052746102
 10
34.5128999473
 20
-2.5013923641
 10
34.5412195031
 20
-2.5
  0
LINE
  5
2BB
100
AcDbEntity
  8
DRAFT
100
AcDbLine
 62
7
  6
CONTINUOUS
 10
41.9800634397
 20
7.3720718961
 11
41.9828157586
 21
7.3751868639
  0
LINE
  5
2BC
100
AcDbEntity
  8
DRAFT
100
AcDbLine
 62
7
  6
CONTINUOUS
 10
42.9720718961
 20
1.5
 11
42.9633443637
 21
1.4912724675
  0
LINE
  5
2BD
100
AcDbEntity
  8
DRAFT
100
AcDbLine
 62
7
  6
CONTINUOUS
 10
42.9720718961
 20
-1.5
 11
42.9633443637
 21
-1.4912724675
  0
LWPOLYLINE
  5
2BE
100
AcDbEntity
  8
DRAFT
100
AcDbPolyline
 62
7
  6
CONTINUOUS
 90
3
 70
0
 10
41.9800634397
 20
-7.3720718961
 10
41.9828157586
 20
-7.3751868639
 10
41.9938741845
 20
-7.3876171514
  0
LINE
  5
2BF
100
AcDbEntity
  8
DRAFT
100
AcDbLine
 62
7
  6
CONTINUOUS
 10
31.5808230831
 20
-4.4808230831
 11
31.5808230831
 21
4.4808230831
  0
LINE
  5
2C0
100
AcDbEntity
  8
DRAFT
100
AcDbLine
 62
7
  6
CONTINUOUS
 10
31.6
 20
-4.5
 11
31.6
 21
4.5
  0
LINE
  5
2C1
100
AcDbEntity
  8
DRAFT
100
AcDbLine
 62
7
  6
CONTINUOUS
 10
31.9
 20
-7.3773084156
 11
31.9
 21
7.3773084156
  0
LINE
  5
2C2
100
AcDbEntity
  8
DRAFT
100
AcDbLine
 62
7
  6
CONTINUOUS
 10
32.2
 20
7.3720718961
 11
32.2
 21
-7.3720718961
  0
LINE
  5
2C3
100
AcDbEntity
  8
DRAFT
100
AcDbLine
 62
7
  6
CONTINUOUS
 10
36.001407745
 20
2.6902718783
 11
35.9857878745
 21
2.6590280662
  0
LINE
  5
2C4
100
AcDbEntity
  8
DRAFT
100
AcDbLine
 62
7
  6
CONTINUOUS
 10
36.0139640519
 20
2.7151271344
 11
36.001407745
 21
2.6902718783
  0
LINE
  5
2C5
100
AcDbEntity
  8
DRAFT
100
AcDbLine
 62
7
  6
CONTINUOUS
 10
42.2
 20
-1.5
 11
42.2087275325
 21
-1.4912724675
  0
LINE
  5
2C6
100
AcDbEntity
  8
DRAFT
100
AcDbLine
 62
7
  6
CONTINUOUS
 10
42.2
 20
1.5
 11
42.2087275325
 21
1.4912724675
  0
LINE
  5
2C7
100
AcDbEntity
  8
DRAFT
100
AcDbLine
 62
7
  6
CONTINUOUS
 10
36.0139640519
 20
-2.7151271344
 11
35.9982770573
 21
-2.6840388625
  0
LINE
  5
2C8
100
AcDbEntity
  8
DRAFT
100
AcDbLine
 62
7
  6
CONTINUOUS
 10
35.9982770573
 20
-2.6840388625
 11
35.9857878745
 21
-2.6590280662
  0
LWPOLYLINE
  5
2C9
100
AcDbEntity
  8
DRAFT
100
AcDbPolyline
 62
7
  6
CONTINUOUS
 90
7
 70
0
 10
35.9755628842
 20
-1.9816388479
 10
35.9756465373
 20
-1.9818324226
 10
35.9759860141
 20
-1.9842316299
 10
35.9763156683
 20
-1.9890646076
 10
35.9766325666
 20
-1.996332381
 10
35.9769396422
 20
-2.0060339247
 10
35.9772334143
 20
-2.0179596356
  0
LINE
  5
2CA
100
AcDbEntity
  8
DRAFT
100
AcDbLine
 62
7
  6
CONTINUOUS
 10
35.7700896879
 20
-2.5
 11
35.7647731909
 21
-2.5139640519
  0
LWPOLYLINE
  5
2CB
100
AcDbEntity
  8
RACCORDO
100
AcDbPolyline
 62
7
  6
CONTINUOUS
 90
25
 70
0
 10
41.6612699098
 20
-3.0041869364
 10
41.6782048824
 20
-2.9813283834
 10
41.692747067
 20
-2.9574506768
 10
41.7048964636
 20
-2.9325538167
 10
41.7147166922
 20
-2.9064187345
 10
41.7221441327
 20
-2.8792644986
 10
41.7269879256
 20
-2.851748315
 10
41.7292153692
 20
-2.823896917
 10
41.728859165
 20
-2.7956835711
 10
41.7258265587
 20
-2.7676852829
 10
41.7200131963
 20
-2.7397694059
 10
41.7115234317
 20
-2.7120685865
 10
41.7005775722
 20
-2.6855577694
 10
41.6870541295
 20
-2.6603214869
 10
41.671074592
 20
-2.6362752068
 10
41.6532237319
 20
-2.6141402766
 10
41.6335315944
 20
-2.5940546802
 10
41.6119681343
 20
-2.5758804338
 10
41.5890279889
 20
-2.559924933
 10
41.5646568022
 20
-2.5461956918
 10
41.5389089302
 20
-2.5346851962
 10
41.5124420769
 20
-2.5256782991
 10
41.4854754773
 20
-2.5192699515
 10
41.4577898965
 20
-2.5153652025
 10
41.4293853346
 20
-2.5139640519
  0
LINE
  5
2CC
100
AcDbEntity
  8
DRAFT
100
AcDbLine
 62
7
  6
CONTINUOUS
 10
39.0
 20
-4.6435439053
 11
39.0139640519
 21
-4.6262202069
  0
LINE
  5
2CD
100
AcDbEntity
  8
DRAFT
100
AcDbLine
 62
7
  6
CONTINUOUS
 10
39.0139640519
 20
4.6262202069
 11
39.0
 21
4.6435439053
  0
LINE
  5
2CE
100
AcDbEntity
  8
DRAFT
100
AcDbLine
 62
7
  6
CONTINUOUS
 10
35.7700896879
 20
2.5
 11
35.7647731909
 21
2.5139640519
  0
LINE
  5
2CF
100
AcDbEntity
  8
DRAFT
100
AcDbLine
 62
7
  6
CONTINUOUS
 10
36.9948533162
 20
3.2448533162
 11
36.9885068466
 21
3.6084423186
  0
LINE
  5
2D0
100
AcDbEntity
  8
DRAFT
100
AcDbLine
 62
7
  6
CONTINUOUS
 10
35.9772334143
 20
-2.0179596356
 11
35.977778727
 21
-2.0483438226
  0
LINE
  5
2D1
100
AcDbEntity
  8
DRAFT
100
AcDbLine
 62
7
  6
CONTINUOUS
 10
35.977778727
 20
-2.0483438226
 11
35.9857878745
 21
-2.6590280662
  0
LINE
  5
2D2
100
AcDbEntity
  8
DRAFT
100
AcDbLine
 62
7
  6
CONTINUOUS
 10
36.0
 20
-5.25
 11
36.0
 21
-4.3084219849
  0
LINE
  5
2D3
100
AcDbEntity
  8
DRAFT
100
AcDbLine
 62
7
  6
CONTINUOUS
 10
36.0
 20
4.3084219849
 11
36.0
 21
5.25
  0
LINE
  5
2D4
100
AcDbEntity
  8
DRAFT
100
AcDbLine
 62
7
  6
CONTINUOUS
 10
36.0139640519
 20
-4.2994997051
 11
36.0139640519
 21
-2.7151271344
  0
LINE
  5
2D5
100
AcDbEntity
  8
DRAFT
100
AcDbLine
 62
7
  6
CONTINUOUS
 10
36.0139640519
 20
2.7151271344
 11
36.0139640519
 21
4.2994997051
  0
LINE
  5
2D6
100
AcDbEntity
  8
DRAFT
100
AcDbLine
 62
7
  6
CONTINUOUS
 10
36.9860359481
 20
4.6262202069
 11
36.9860359481
 21
3.6103153465
  0
LINE
  5
2D7
100
AcDbEntity
  8
DRAFT
100
AcDbLine
 62
7
  6
CONTINUOUS
 10
36.9860359481
 20
-4.6262202069
 11
36.9860359481
 21
-3.6103153465
  0
LINE
  5
2D8
100
AcDbEntity
  8
DRAFT
100
AcDbLine
 62
7
  6
CONTINUOUS
 10
37.0
 20
5.25
 11
37.0
 21
4.6435439053
  0
LINE
  5
2D9
100
AcDbEntity
  8
DRAFT
100
AcDbLine
 62
7
  6
CONTINUOUS
 10
37.0
 20
-4.6435439053
 11
37.0
 21
-5.25
  0
LWPOLYLINE
  5
2DA
100
AcDbEntity
  8
DRAFT
100
AcDbPolyline
 62
7
  6
CONTINUOUS
 90
9
 70
0
 10
35.9857878745
 20
2.6590280662
 10
35.9775123271
 20
2.0320125316
 10
35.977232572
 20
2.017921569
 10
35.9769383594
 20
2.0059819533
 10
35.9766306771
 20
1.996268241
 10
35.9763124879
 20
1.9890041014
 10
35.975980141
 20
1.9841942121
 10
35.9756372872
 20
1.9818338956
 10
35.9755628715
 20
1.9816656345
  0
LINE
  5
2DB
100
AcDbEntity
  8
DRAFT
100
AcDbLine
 62
7
  6
CONTINUOUS
 10
36.9885068466
 20
-3.6084423186
 11
36.9948533162
 21
-3.2448533162
  0
LINE
  5
2DC
100
AcDbEntity
  8
DRAFT
100
AcDbLine
 62
7
  6
CONTINUOUS
 10
40.2299103121
 20
2.5
 11
40.2352268091
 21
2.5139640519
  0
LINE
  5
2DD
100
AcDbEntity
  8
DRAFT
100
AcDbLine
 62
7
  6
CONTINUOUS
 10
39.998592255
 20
-2.6902718783
 11
40.0142121255
 21
-2.6590280662
  0
LINE
  5
2DE
100
AcDbEntity
  8
DRAFT
100
AcDbLine
 62
7
  6
CONTINUOUS
 10
39.9860359481
 20
-2.7151271344
 11
39.998592255
 21
-2.6902718783
  0
LWPOLYLINE
  5
2DF
100
AcDbEntity
  8
RACCORDO
100
AcDbPolyline
 62
7
  6
CONTINUOUS
 90
25
 70
0
 10
41.6919188026
 20
2.9886845861
 10
41.7086537753
 20
2.965787153
 10
41.7230043268
 20
2.9418922538
 10
41.7349704571
 20
2.9169998888
 10
41.7446138526
 20
2.8908947634
 10
41.7518728268
 20
2.8637921721
 10
41.7565623206
 20
2.836337998
 10
41.758651574
 20
2.8085565665
 10
41.7581713471
 20
2.7804235522
 10
41.7550288603
 20
2.7525118628
 10
41.7491174322
 20
2.724686806
 10
41.7405437443
 20
2.6970830739
 10
41.7295350617
 20
2.6706776506
 10
41.7159743001
 20
2.6455614247
 10
41.6999785439
 20
2.6216435076
 10
41.6821263104
 20
2.5996282162
 10
41.6624468268
 20
2.5796486013
 10
41.6409108661
 20
2.5615716122
 10
41.6180092645
 20
2.5457024147
 10
41.5936879442
 20
2.5320487008
 10
41.5680009831
 20
2.5206027785
 10
41.5416014508
 20
2.5116467383
 10
41.5147070373
 20
2.5052746102
 10
41.4871000527
 20
2.5013923641
 10
41.4587804969
 20
2.5
  0
LINE
  5
2E0
100
AcDbEntity
  8
DRAFT
100
AcDbLine
 62
7
  6
CONTINUOUS
 10
39.9860359481
 20
2.7151271344
 11
40.0017229427
 21
2.6840388625
  0
LINE
  5
2E1
100
AcDbEntity
  8
DRAFT
100
AcDbLine
 62
7
  6
CONTINUOUS
 10
40.0017229427
 20
2.6840388625
 11
40.0142121255
 21
2.6590280662
  0
LWPOLYLINE
  5
2E2
100
AcDbEntity
  8
DRAFT
100
AcDbPolyline
 62
7
  6
CONTINUOUS
 90
7
 70
0
 10
40.0244371158
 20
1.9816388479
 10
40.0243534627
 20
1.9818324226
 10
40.0240139859
 20
1.9842316299
 10
40.0236843317
 20
1.9890646076
 10
40.0233674334
 20
1.996332381
 10
40.0230603578
 20
2.0060339248
 10
40.0227665857
 20
2.0179596356
  0
LINE
  5
2E3
100
AcDbEntity
  8
DRAFT
100
AcDbLine
 62
7
  6
CONTINUOUS
 10
40.2299103121
 20
-2.5
 11
40.2352268091
 21
-2.5139640519
  0
LINE
  5
2E4
100
AcDbEntity
  8
DRAFT
100
AcDbLine
 62
7
  6
CONTINUOUS
 10
39.0114931534
 20
-3.6084423186
 11
39.0051466838
 21
-3.2448533162
  0
LINE
  5
2E5
100
AcDbEntity
  8
DRAFT
100
AcDbLine
 62
7
  6
CONTINUOUS
 10
40.0227665857
 20
2.0179596356
 11
40.022221273
 21
2.0483438226
  0
LINE
  5
2E6
100
AcDbEntity
  8
DRAFT
100
AcDbLine
 62
7
  6
CONTINUOUS
 10
40.022221273
 20
2.0483438226
 11
40.0142121255
 21
2.6590280662
  0
LINE
  5
2E7
100
AcDbEntity
  8
DRAFT
100
AcDbLine
 62
7
  6
CONTINUOUS
 10
39.0
 20
-5.25
 11
39.0
 21
-4.6435439053
  0
LINE
  5
2E8
100
AcDbEntity
  8
DRAFT
100
AcDbLine
 62
7
  6
CONTINUOUS
 10
39.0
 20
4.6435439053
 11
39.0
 21
5.25
  0
LINE
  5
2E9
100
AcDbEntity
  8
DRAFT
100
AcDbLine
 62
7
  6
CONTINUOUS
 10
39.0139640519
 20
4.6262202069
 11
39.0139640519
 21
3.6103153465
  0
LINE
  5
2EA
100
AcDbEntity
  8
DRAFT
100
AcDbLine
 62
7
  6
CONTINUOUS
 10
39.0139640519
 20
-4.6262202069
 11
39.0139640519
 21
-3.6103153465
  0
LINE
  5
2EB
100
AcDbEntity
  8
DRAFT
100
AcDbLine
 62
7
  6
CONTINUOUS
 10
39.9860359481
 20
4.2994997051
 11
39.9860359481
 21
2.7151271344
  0
LINE
  5
2EC
100
AcDbEntity
  8
DRAFT
100
AcDbLine
 62
7
  6
CONTINUOUS
 10
39.9860359481
 20
-2.7151271344
 11
39.9860359481
 21
-4.2994997051
  0
LINE
  5
2ED
100
AcDbEntity
  8
DRAFT
100
AcDbLine
 62
7
  6
CONTINUOUS
 10
40.0
 20
5.25
 11
40.0
 21
4.3084219849
  0
LINE
  5
2EE
100
AcDbEntity
  8
DRAFT
100
AcDbLine
 62
7
  6
CONTINUOUS
 10
40.0
 20
-4.3084219849
 11
40.0
 21
-5.25
  0
LINE
  5
2EF
100
AcDbEntity
  8
DRAFT
100
AcDbLine
 62
7
  6
CONTINUOUS
 10
42.2
 20
1.5
 11
42.2
 21
-1.5
  0
LINE
  5
2F0
100
AcDbEntity
  8
DRAFT
100
AcDbLine
 62
7
  6
CONTINUOUS
 10
42.2087275325
 20
1.4912724675
 11
42.2087275325
 21
-1.4912724675
  0
LINE
  5
2F1
100
AcDbEntity
  8
DRAFT
100
AcDbLine
 62
7
  6
CONTINUOUS
 10
42.9633443637
 20
-1.4912724675
 11
42.9633443637
 21
1.4912724675
  0
LINE
  5
2F2
100
AcDbEntity
  8
DRAFT
100
AcDbLine
 62
7
  6
CONTINUOUS
 10
42.9720718961
 20
6.4724513599
 11
42.9720718961
 21
1.5
  0
LINE
  5
2F3
100
AcDbEntity
  8
DRAFT
100
AcDbLine
 62
7
  6
CONTINUOUS
 10
42.9720718961
 20
-1.5
 11
42.9720718961
 21
-6.4724513599
  0
LINE
  5
2F4
100
AcDbEntity
  8
DRAFT
100
AcDbLine
 62
7
  6
CONTINUOUS
 10
43.0
 20
6.5
 11
43.0
 21
-6.5
  0
LWPOLYLINE
  5
2F5
100
AcDbEntity
  8
DRAFT
100
AcDbPolyline
 62
7
  6
CONTINUOUS
 90
9
 70
0
 10
40.0142121255
 20
-2.6590280662
 10
40.0224876729
 20
-2.0320125316
 10
40.022767428
 20
-2.017921569
 10
40.0230616406
 20
-2.0059819533
 10
40.0233693229
 20
-1.996268241
 10
40.0236875121
 20
-1.9890041014
 10
40.024019859
 20
-1.9841942121
 10
40.0243627128
 20
-1.9818338956
 10
40.0244371285
 20
-1.9816656345
  0
LINE
  5
2F6
100
AcDbEntity
  8
DRAFT
100
AcDbLine
 62
7
  6
CONTINUOUS
 10
39.0051466838
 20
3.2448533162
 11
39.0114931534
 21
3.6084423186
  0
ARC
  5
2F7
100
AcDbEntity
  8
DRAFT
100
AcDbCircle
 62
7
  6
CONTINUOUS
 10
-43.0
 20
-7.5
 40
1.0279281039
100
AcDbArc
 50
7.1491328012
 51
88.4431212576
  0
ARC
  5
2F8
100
AcDbEntity
  8
DRAFT
100
AcDbCircle
 62
7
  6
CONTINUOUS
 10
-43.0
 20
-7.5
 40
1.0
100
AcDbArc
 50
5.7391704773
 51
90.0
  0
ARC
  5
2F9
100
AcDbEntity
  8
DRAFT
100
AcDbCircle
 62
7
  6
CONTINUOUS
 10
-39.5
 20
-5.25
 40
0.5
100
AcDbArc
 50
180.0
 51
360.0
  0
ARC
  5
2FA
100
AcDbEntity
  8
DRAFT
100
AcDbCircle
 62
7
  6
CONTINUOUS
 10
-36.5
 20
-5.25
 40
0.5
100
AcDbArc
 50
180.0
 51
360.0
  0
ARC
  5
2FB
100
AcDbEntity
  8
DRAFT
100
AcDbCircle
 62
7
  6
CONTINUOUS
 10
-38.0
 20
0.0
 40
4.75
100
AcDbArc
 50
257.846802531
 51
282.153197469
  0
ARC
  5
2FC
100
AcDbEntity
  8
DRAFT
100
AcDbCircle
 62
7
  6
CONTINUOUS
 10
-38.0
 20
0.0
 40
4.75
100
AcDbArc
 50
77.846802531
 51
102.153197469
  0
ARC
  5
2FD
100
AcDbEntity
  8
DRAFT
100
AcDbCircle
 62
7
  6
CONTINUOUS
 10
-38.0
 20
0.0
 40
4.75
100
AcDbArc
 50
294.9010623704
 51
321.009114593
  0
ARC
  5
2FE
100
AcDbEntity
  8
DRAFT
100
AcDbCircle
 62
7
  6
CONTINUOUS
 10
-38.0
 20
0.0
 40
4.75
100
AcDbArc
 50
218.9908854069
 51
245.0989376296
  0
ARC
  5
2FF
100
AcDbEntity
  8
DRAFT
100
AcDbCircle
 62
7
  6
CONTINUOUS
 10
-38.0
 20
0.0
 40
4.75
100
AcDbArc
 50
38.9908854069
 51
65.0989376296
  0
ARC
  5
300
100
AcDbEntity
  8
DRAFT
100
AcDbCircle
 62
7
  6
CONTINUOUS
 10
-38.0
 20
0.0
 40
4.75
100
AcDbArc
 50
114.9010623704
 51
141.009114593
  0
ARC
  5
301
100
AcDbEntity
  8
DRAFT
100
AcDbCircle
 62
7
  6
CONTINUOUS
 10
-38.0
 20
0.0
 40
4.7360359481
100
AcDbArc
 50
257.6375314647
 51
282.3624685353
  0
ARC
  5
302
100
AcDbEntity
  8
DRAFT
100
AcDbCircle
 62
7
  6
CONTINUOUS
 10
-38.0
 20
0.0
 40
4.7360359481
100
AcDbArc
 50
77.6375314647
 51
102.3624685353
  0
ARC
  5
303
100
AcDbEntity
  8
DRAFT
100
AcDbCircle
 62
7
  6
CONTINUOUS
 10
-38.0
 20
0.0
 40
4.7360359481
100
AcDbArc
 50
294.7932808677
 51
320.6300464496
  0
ARC
  5
304
100
AcDbEntity
  8
DRAFT
100
AcDbCircle
 62
7
  6
CONTINUOUS
 10
-38.0
 20
0.0
 40
4.7360359481
100
AcDbArc
 50
219.3699535503
 51
245.2067191323
  0
ARC
  5
305
100
AcDbEntity
  8
DRAFT
100
AcDbCircle
 62
7
  6
CONTINUOUS
 10
-38.0
 20
0.0
 40
4.7360359481
100
AcDbArc
 50
39.3699535503
 51
65.2067191323
  0
ARC
  5
306
100
AcDbEntity
  8
DRAFT
100
AcDbCircle
 62
7
  6
CONTINUOUS
 10
-38.0
 20
0.0
 40
4.7360359481
100
AcDbArc
 50
114.7932808677
 51
140.6300464496
  0
ARC
  5
307
100
AcDbEntity
  8
DRAFT
100
AcDbCircle
 62
7
  6
CONTINUOUS
 10
-38.0
 20
0.0
 40
3.75
100
AcDbArc
 50
254.3124999362
 51
285.6875000638
  0
ARC
  5
308
100
AcDbEntity
  8
DRAFT
100
AcDbCircle
 62
7
  6
CONTINUOUS
 10
-38.0
 20
0.0
 40
3.75
100
AcDbArc
 50
74.3124999362
 51
105.6875000638
  0
ARC
  5
309
100
AcDbEntity
  8
DRAFT
100
AcDbCircle
 62
7
  6
CONTINUOUS
 10
-38.0
 20
0.0
 40
3.3639640519
100
AcDbArc
 50
306.1843765939
 51
311.6410767467
  0
ARC
  5
30A
100
AcDbEntity
  8
DRAFT
100
AcDbCircle
 62
7
  6
CONTINUOUS
 10
-38.0
 20
0.0
 40
3.3639640519
100
AcDbArc
 50
228.3589232533
 51
233.8156234061
  0
ARC
  5
30B
100
AcDbEntity
  8
DRAFT
100
AcDbCircle
 62
7
  6
CONTINUOUS
 10
-38.0
 20
0.0
 40
3.3639640519
100
AcDbArc
 50
48.3589232533
 51
53.8156234061
  0
ARC
  5
30C
100
AcDbEntity
  8
DRAFT
100
AcDbCircle
 62
7
  6
CONTINUOUS
 10
-38.0
 20
0.0
 40
3.3639640519
100
AcDbArc
 50
126.1843765939
 51
131.6410767467
  0
ARC
  5
30D
100
AcDbEntity
  8
DRAFT
100
AcDbCircle
 62
7
  6
CONTINUOUS
 10
-38.0
 20
0.0
 40
3.35
100
AcDbArc
 50
311.7318170398
 51
48.2681829602
  0
ARC
  5
30E
100
AcDbEntity
  8
DRAFT
100
AcDbCircle
 62
7
  6
CONTINUOUS
 10
-38.0
 20
0.0
 40
3.35
100
AcDbArc
 50
131.7318170398
 51
228.2681829602
  0
ARC
  5
30F
100
AcDbEntity
  8
DRAFT
100
AcDbCircle
 62
7
  6
CONTINUOUS
 10
-38.0
 20
0.0
 40
3.3357878745
100
AcDbArc
 50
127.1439063978
 51
232.8560936022
  0
ARC
  5
310
100
AcDbEntity
  8
DRAFT
100
AcDbCircle
 62
7
  6
CONTINUOUS
 10
-38.0
 20
0.0
 40
3.3357878745
100
AcDbArc
 50
307.1439063978
 51
52.8560936022
  0
ARC
  5
311
100
AcDbEntity
  8
DRAFT
100
AcDbCircle
 62
250
  6
CONTINUOUS
 10
-38.0
 20
0.0
 40
2.8914213562
100
AcDbArc
 50
134.3708038034
 51
225.6291961966
  0
ARC
  5
312
100
AcDbEntity
  8
DRAFT
100
AcDbCircle
 62
250
  6
CONTINUOUS
 10
-38.0
 20
0.0
 40
2.8914213562
100
AcDbArc
 50
314.3708038034
 51
45.6291961966
  0
ARC
  5
313
100
AcDbEntity
  8
RACCORDO
100
AcDbCircle
 62
7
  6
CONTINUOUS
 10
-38.0
 20
0.0
 40
2.8328427125
100
AcDbArc
 50
315.612962686
 51
44.387037314
  0
ARC
  5
314
100
AcDbEntity
  8
RACCORDO
100
AcDbCircle
 62
7
  6
CONTINUOUS
 10
-38.0
 20
0.0
 40
2.8328427125
100
AcDbArc
 50
135.612962686
 51
224.387037314
  0
ARC
  5
315
100
AcDbEntity
  8
DRAFT
100
AcDbCircle
 62
7
  6
CONTINUOUS
 10
-43.0
 20
7.5
 40
1.0279281039
100
AcDbArc
 50
271.5568787424
 51
352.8508671988
  0
ARC
  5
316
100
AcDbEntity
  8
DRAFT
100
AcDbCircle
 62
7
  6
CONTINUOUS
 10
-43.0
 20
7.5
 40
1.0
100
AcDbArc
 50
270.0
 51
354.2608295227
  0
ARC
  5
317
100
AcDbEntity
  8
DRAFT
100
AcDbCircle
 62
7
  6
CONTINUOUS
 10
-36.5
 20
5.25
 40
0.5
100
AcDbArc
 50
0.0
 51
180.0
  0
ARC
  5
318
100
AcDbEntity
  8
DRAFT
100
AcDbCircle
 62
7
  6
CONTINUOUS
 10
-39.5
 20
5.25
 40
0.5
100
AcDbArc
 50
0.0
 51
180.0
  0
ARC
  5
319
100
AcDbEntity
  8
DRAFT
100
AcDbCircle
 62
7
  6
CONTINUOUS
 10
43.0
 20
-7.5
 40
1.0279281039
100
AcDbArc
 50
91.5568787424
 51
172.8508671988
  0
ARC
  5
31A
100
AcDbEntity
  8
DRAFT
100
AcDbCircle
 62
7
  6
CONTINUOUS
 10
43.0
 20
-7.5
 40
1.0
100
AcDbArc
 50
90.0
 51
174.2608295227
  0
ARC
  5
31B
100
AcDbEntity
  8
DRAFT
100
AcDbCircle
 62
7
  6
CONTINUOUS
 10
36.5
 20
-5.25
 40
0.5
100
AcDbArc
 50
180.0
 51
360.0
  0
ARC
  5
31C
100
AcDbEntity
  8
DRAFT
100
AcDbCircle
 62
7
  6
CONTINUOUS
 10
39.5
 20
-5.25
 40
0.5
100
AcDbArc
 50
180.0
 51
360.0
  0
ARC
  5
31D
100
AcDbEntity
  8
DRAFT
100
AcDbCircle
 62
7
  6
CONTINUOUS
 10
38.0
 20
0.0
 40
4.75
100
AcDbArc
 50
257.846802531
 51
282.153197469
  0
ARC
  5
31E
100
AcDbEntity
  8
DRAFT
100
AcDbCircle
 62
7
  6
CONTINUOUS
 10
38.0
 20
0.0
 40
4.75
100
AcDbArc
 50
77.846802531
 51
102.153197469
  0
ARC
  5
31F
100
AcDbEntity
  8
DRAFT
100
AcDbCircle
 62
7
  6
CONTINUOUS
 10
38.0
 20
0.0
 40
4.75
100
AcDbArc
 50
294.9010623704
 51
321.009114593
  0
ARC
  5
320
100
AcDbEntity
  8
DRAFT
100
AcDbCircle
 62
7
  6
CONTINUOUS
 10
38.0
 20
0.0
 40
4.75
100
AcDbArc
 50
218.9908854069
 51
245.0989376296
  0
ARC
  5
321
100
AcDbEntity
  8
DRAFT
100
AcDbCircle
 62
7
  6
CONTINUOUS
 10
38.0
 20
0.0
 40
4.75
100
AcDbArc
 50
114.9010623704
 51
141.009114593
  0
ARC
  5
322
100
AcDbEntity
  8
DRAFT
100
AcDbCircle
 62
7
  6
CONTINUOUS
 10
38.0
 20
0.0
 40
4.75
100
AcDbArc
 50
38.9908854069
 51
65.0989376296
  0
ARC
  5
323
100
AcDbEntity
  8
DRAFT
100
AcDbCircle
 62
7
  6
CONTINUOUS
 10
38.0
 20
0.0
 40
4.7360359481
100
AcDbArc
 50
257.6375314647
 51
282.3624685353
  0
ARC
  5
324
100
AcDbEntity
  8
DRAFT
100
AcDbCircle
 62
7
  6
CONTINUOUS
 10
38.0
 20
0.0
 40
4.7360359481
100
AcDbArc
 50
77.6375314647
 51
102.3624685353
  0
ARC
  5
325
100
AcDbEntity
  8
DRAFT
100
AcDbCircle
 62
7
  6
CONTINUOUS
 10
38.0
 20
0.0
 40
4.7360359481
100
AcDbArc
 50
294.7932808677
 51
320.6300464496
  0
ARC
  5
326
100
AcDbEntity
  8
DRAFT
100
AcDbCircle
 62
7
  6
CONTINUOUS
 10
38.0
 20
0.0
 40
4.7360359481
100
AcDbArc
 50
219.3699535503
 51
245.2067191323
  0
ARC
  5
327
100
AcDbEntity
  8
DRAFT
100
AcDbCircle
 62
7
  6
CONTINUOUS
 10
38.0
 20
0.0
 40
4.7360359481
100
AcDbArc
 50
114.7932808677
 51
140.6300464496
  0
ARC
  5
328
100
AcDbEntity
  8
DRAFT
100
AcDbCircle
 62
7
  6
CONTINUOUS
 10
38.0
 20
0.0
 40
4.7360359481
100
AcDbArc
 50
39.3699535503
 51
65.2067191323
  0
ARC
  5
329
100
AcDbEntity
  8
DRAFT
100
AcDbCircle
 62
7
  6
CONTINUOUS
 10
38.0
 20
0.0
 40
3.75
100
AcDbArc
 50
254.3124999362
 51
285.6875000638
  0
ARC
  5
32A
100
AcDbEntity
  8
DRAFT
100
AcDbCircle
 62
7
  6
CONTINUOUS
 10
38.0
 20
0.0
 40
3.75
100
AcDbArc
 50
74.3124999362
 51
105.6875000638
  0
ARC
  5
32B
100
AcDbEntity
  8
DRAFT
100
AcDbCircle
 62
7
  6
CONTINUOUS
 10
38.0
 20
0.0
 40
3.3639640519
100
AcDbArc
 50
306.1843765939
 51
311.6410767467
  0
ARC
  5
32C
100
AcDbEntity
  8
DRAFT
100
AcDbCircle
 62
7
  6
CONTINUOUS
 10
38.0
 20
0.0
 40
3.3639640519
100
AcDbArc
 50
228.3589232533
 51
233.8156234061
  0
ARC
  5
32D
100
AcDbEntity
  8
DRAFT
100
AcDbCircle
 62
7
  6
CONTINUOUS
 10
38.0
 20
0.0
 40
3.3639640519
100
AcDbArc
 50
48.3589232533
 51
53.8156234061
  0
ARC
  5
32E
100
AcDbEntity
  8
DRAFT
100
AcDbCircle
 62
7
  6
CONTINUOUS
 10
38.0
 20
0.0
 40
3.3639640519
100
AcDbArc
 50
126.1843765939
 51
131.6410767467
  0
ARC
  5
32F
100
AcDbEntity
  8
DRAFT
100
AcDbCircle
 62
7
  6
CONTINUOUS
 10
38.0
 20
0.0
 40
3.35
100
AcDbArc
 50
131.7318170398
 51
228.2681829602
  0
ARC
  5
330
100
AcDbEntity
  8
DRAFT
100
AcDbCircle
 62
7
  6
CONTINUOUS
 10
38.0
 20
0.0
 40
3.35
100
AcDbArc
 50
311.7318170398
 51
48.2681829602
  0
ARC
  5
331
100
AcDbEntity
  8
DRAFT
100
AcDbCircle
 62
7
  6
CONTINUOUS
 10
38.0
 20
0.0
 40
3.3357878745
100
AcDbArc
 50
307.1439063978
 51
52.8560936022
  0
ARC
  5
332
100
AcDbEntity
  8
DRAFT
100
AcDbCircle
 62
7
  6
CONTINUOUS
 10
38.0
 20
0.0
 40
3.3357878745
100
AcDbArc
 50
127.1439063978
 51
232.8560936022
  0
ARC
  5
333
100
AcDbEntity
  8
DRAFT
100
AcDbCircle
 62
250
  6
CONTINUOUS
 10
38.0
 20
0.0
 40
2.8914213562
100
AcDbArc
 50
314.3708038034
 51
45.6291961966
  0
ARC
  5
334
100
AcDbEntity
  8
DRAFT
100
AcDbCircle
 62
250
  6
CONTINUOUS
 10
38.0
 20
0.0
 40
2.8914213562
100
AcDbArc
 50
134.3708038034
 51
225.6291961966
  0
ARC
  5
335
100
AcDbEntity
  8
RACCORDO
100
AcDbCircle
 62
7
  6
CONTINUOUS
 10
38.0
 20
0.0
 40
2.8328427125
100
AcDbArc
 50
315.612962686
 51
44.387037314
  0
ARC
  5
336
100
AcDbEntity
  8
RACCORDO
100
AcDbCircle
 62
7
  6
CONTINUOUS
 10
38.0
 20
0.0
 40
2.8328427125
100
AcDbArc
 50
135.612962686
 51
224.387037314
  0
ARC
  5
337
100
AcDbEntity
  8
DRAFT
100
AcDbCircle
 62
7
  6
CONTINUOUS
 10
43.0
 20
7.5
 40
1.0279281039
100
AcDbArc
 50
187.1491328012
 51
268.4431212576
  0
ARC
  5
338
100
AcDbEntity
  8
DRAFT
100
AcDbCircle
 62
7
  6
CONTINUOUS
 10
43.0
 20
7.5
 40
1.0
100
AcDbArc
 50
185.7391704773
 51
270.0
  0
ARC
  5
339
100
AcDbEntity
  8
DRAFT
100
AcDbCircle
 62
7
  6
CONTINUOUS
 10
39.5
 20
5.25
 40
0.5
100
AcDbArc
 50
0.0
 51
180.0
  0
ARC
  5
33A
100
AcDbEntity
  8
DRAFT
100
AcDbCircle
 62
7
  6
CONTINUOUS
 10
36.5
 20
5.25
 40
0.5
100
AcDbArc
 50
0.0
 51
180.0
  0
ELLIPSE
  5
33B
100
AcDbEntity
  8
DRAFT
100
AcDbEllipse
 62
7
  6
CONTINUOUS
 10
-0.0
 20
-13.1646942304
 30
0.0
 11
498.5
 21
-0.0
 31
0.0
 40
0.0174550649
 41
1.5074021725
 42
1.6341904811
  0
ELLIPSE
  5
33C
100
AcDbEntity
  8
DRAFT
100
AcDbEllipse
 62
7
  6
CONTINUOUS
 10
-0.0
 20
13.1646942304
 30
0.0
 11
498.5
 21
-0.0
 31
0.0
 40
0.0174550649
 41
-1.6341904811
 42
-1.5074021725
  0
ENDSEC
  0
SECTION
  2
OBJECTS
  0
DICTIONARY
  5
C
100
AcDbDictionary
280
0
281
1
  3
ACAD_GROUP
350
D
  3
ACAD_MLINESTYLE
350
17
  3
ACAD_LAYOUT
350
1A
  3
ACAD_PLOTSETTINGS
350
19
  3
ACAD_PLOTSTYLENAME
350
E
  0
DICTIONARY
  5
D
102
{ACAD_REACTORS
330
C
102
}
100
AcDbDictionary
280
0
281
1
  0
ACDBDICTIONARYWDFLT
  5
E
102
{ACAD_REACTORS
330
C
102
}
100
AcDbDictionary
281
1
  3
Normal
350
F
100
AcDbDictionaryWithDefault
340
F
  0
DICTIONARY
  5
17
102
{ACAD_REACTORS
330
C
102
}
100
AcDbDictionary
280
0
281
1
  3
Standard
350
18
  0
DICTIONARY
  5
19
102
{ACAD_REACTORS
330
C
102
}
100
AcDbDictionary
281
1
  0
DICTIONARY
  5
1A
102
{ACAD_REACTORS
330
C
102
}
100
AcDbDictionary
281
1
  3
Model
350
33D
  3
Layout1
350
33E
  0
ACDBPLACEHOLDER
  5
F
102
{ACAD_REACTORS
330
E
102
}
  0
MLINESTYLE
  5
18
102
{ACAD_REACTORS
330
17
102
}
100
AcDbMlineStyle
  2
STANDARD
 70
0
  3

 62
256
 51
90.0
 52
90.0
 71
2
 49
0.5
 62
256
  6
BYLAYER
 49
-0.5
 62
256
  6
BYLAYER
  0
LAYOUT
  5
33D
102
{ACAD_REACTORS
330
1A
102
}
100
AcDbPlotSettings
  1

  2
none_device
  4
ISO_A4_(297.00_x_210.00_MM)
  6

 40
0.0
 41
0.0
 42
0.0
 43
0.0
 44
297.0
 45
210.0
 46
0.0
 47
0.0
 48
0.0
 49
0.0
140
0.0
141
0.0
142
1.0
143
1.0
 70
1024
 72
1
 73
0
 74
0
  7

 75
0
147
1.0
148
0.0
149
0.0
100
AcDbLayout
  1
Model
 70
0
 71
0
 10
0.0
 20
0.0
 11
297.0
 21
210.0
 12
0.0
 22
0.0
 32
0.0
 14
0.0
 24
0.0
 34
0.0
 15
0.0
 25
0.0
 35
0.0
146
0.0
 13
0.0
 23
0.0
 33
0.0
 16
1.0
 26
0.0
 36
0.0
 17
0.0
 27
1.0
 37
0.0
 76
0
330
20F
345
0
346
0
  0
LAYOUT
  5
33E
102
{ACAD_REACTORS
330
1A
102
}
100
AcDbPlotSettings
  1

  2
none_device
  4
ISO_A4_(297.00_x_210.00_MM)
  6

 40
0.0
 41
0.0
 42
0.0
 43
0.0
 44
297.0
 45
210.0
 46
0.0
 47
0.0
 48
0.0
 49
0.0
140
0.0
141
0.0
142
1.0
143
1.0
 70
0
 72
1
 73
0
 74
0
  7

 75
0
147
1.0
148
0.0
149
0.0
100
AcDbLayout
  1
Layout1
 70
0
 71
1
 10
0.0
 20
0.0
 11
297.0
 21
210.0
 12
0.0
 22
0.0
 32
0.0
 14
0.0
 24
0.0
 34
0.0
 15
0.0
 25
0.0
 35
0.0
146
0.0
 13
0.0
 23
0.0
 33
0.0
 16
1.0
 26
0.0
 36
0.0
 17
0.0
 27
1.0
 37
0.0
 76
0
330
210
345
0
346
0
  0
ENDSEC
  0
EOF
