  0
SECTION
  2
HEADER
  9
$ACADVER
  1
AC1024
  9
$DWGCODEPAGE
  3
ANSI_1252
  9
$EXTMAX
 10
297.0
 20
210.0
 30
0.0
  9
$EXTMIN
 10
0.0
 20
0.0
 30
0.0
  9
$LIMMIN
 10
0.0
 20
0.0
  9
$LIMMAX
 10
297.0
 20
210.0
  9
$VIEWCTR
 10
148.5
 20
105.0
  9
$VIEWSIZE
 40
210.0
  9
$CLAYER
  8
0
  9
$LTSCALE
 40
16.335
  9
$CELTYPE
  6
BYLAYER
  9
$DIMSCALE
 40
1.0
  9
$DIMASZ
 40
3.5
  9
$DIMEXO
 40
1.0
  9
$DIMDLI
 40
11.286
  9
$DIMEXE
 40
1.5
  9
$DIMCEN
 40
2.673
  9
$DIMLFAC
 40
1.0
  9
$DIMBLK
  1
_FILLED
  9
$DIMALT
 70
0
  9
$DIMALTF
 40
0.0393700787
  9
$DIMTXT
 40
3.5
  9
$DIMTOL
 70
1
  9
$DIMLIM
 70
0
  9
$DIMTFAC
 40
1.0
  9
$DIMTP
 40
0.01
  9
$DIMTM
 40
0.01
  9
$DIMGAP
 40
0.625
  9
$DIMDSEP
 70
44
  9
$AUNITS
 70
0
  9
$PDMODE
 70
3
  9
$PDSIZE
 40
8.0
  9
$HANDSEED
  5
6AE
  9
$TILEMODE
 70
1
  9
$MEASUREMENT
 70
1
  9
$INSUNITS
 70
4
  0
ENDSEC
  0
SECTION
  2
CLASSES
  0
CLASS
  1
ACDBDICTIONARYWDFLT
  2
AcDbDictionaryWithDefault
  3
AutoCAD 2000
 90
0
 91
1
280
0
281
0
  0
CLASS
  1
ACDBPLACEHOLDER
  2
AcDbPlaceHolder
  3
AutoCAD 2000
 90
0
 91
1
280
0
281
0
  0
CLASS
  1
LAYOUT
  2
AcDbLayout
  3
AutoCAD 2000
 90
0
 91
0
280
0
281
0
  0
ENDSEC
  0
SECTION
  2
TABLES
  0
TABLE
  2
VPORT
  5
8
100
AcDbSymbolTable
 70
2
  0
VPORT
  5
1F4
100
AcDbSymbolTableRecord
100
AcDbViewportTableRecord
  2
*ACTIVE
 70
0
 10
0.0
 20
0.0
 11
1.0
 21
1.0
 12
148.5
 22
105.0
 13
0.0
 23
0.0
 14
1.0
 24
1.0
 15
0.0
 25
0.0
 16
0.0
 26
0.0
 36
1.0
 17
0.0
 27
0.0
 37
0.0
 40
210.0
 41
1.4142857143
 42
50.0
 43
0.0
 44
0.0
 50
0.0
 51
0.0
 71
0
 72
100
 73
1
 74
1
 75
0
 76
0
 77
0
 78
0
  0
ENDTAB
  0
TABLE
  2
LTYPE
  5
5
100
AcDbSymbolTable
 70
6
  0
LTYPE
  5
14
100
AcDbSymbolTableRecord
100
AcDbLinetypeTableRecord
  2
BYBLOCK
 70
0
  3

 72
65
 73
0
 40
0.0
  0
LTYPE
  5
15
100
AcDbSymbolTableRecord
100
AcDbLinetypeTableRecord
  2
BYLAYER
 70
0
  3

 72
65
 73
0
 40
0.0
  0
LTYPE
  5
16
100
AcDbSymbolTableRecord
100
AcDbLinetypeTableRecord
  2
CONTINUOUS
 70
64
  3
Solid line
 72
65
 73
0
 40
0.0
  0
LTYPE
  5
1F5
100
AcDbSymbolTableRecord
100
AcDbLinetypeTableRecord
  2
CENTER
 70
64
  3
____ _ ____ _ ____ _ ____ _ ____ _ ____ _ ____
 72
65
 73
4
 40
0.6
 49
0.375
 74
0
 49
-0.075
 74
0
 49
0.075
 74
0
 49
-0.075
 74
0
  0
LTYPE
  5
1F6
100
AcDbSymbolTableRecord
100
AcDbLinetypeTableRecord
  2
HIDDEN
 70
64
  3
- - - - - - - - - - - - - - - - - - - -
 72
65
 73
2
 40
0.2
 49
0.1
 74
0
 49
-0.1
 74
0
  0
LTYPE
  5
1F7
100
AcDbSymbolTableRecord
100
AcDbLinetypeTableRecord
  2
PHANTOM
 70
64
  3
_____ _ _ _____ _ _ _____ _ _ _____
 72
65
 73
6
 40
0.8
 49
0.45
 74
0
 49
-0.05
 74
0
 49
0.1
 74
0
 49
-0.05
 74
0
 49
0.1
 74
0
 49
-0.05
 74
0
  0
LTYPE
  5
1F8
100
AcDbSymbolTableRecord
100
AcDbLinetypeTableRecord
  2
DOT
 70
64
  3
. . . . . . . . . . . . . . . . . . . .
 72
65
 73
2
 40
0.2
 49
0.1
 74
0
 49
-0.1
 74
0
  0
LTYPE
  5
1F9
100
AcDbSymbolTableRecord
100
AcDbLinetypeTableRecord
  2
DASHED
 70
64
  3
- - - - - - - - - - - - - - - - - - - -
 72
65
 73
2
 40
0.2
 49
0.1
 74
0
 49
-0.1
 74
0
  0
ENDTAB
  0
TABLE
  2
LAYER
  5
2
100
AcDbSymbolTable
 70
36
  0
LAYER
  5
10
100
AcDbSymbolTableRecord
100
AcDbLayerTableRecord
  2
0
 70
0
 62
7
  6
CONTINUOUS
370
-3
390
F
  0
LAYER
  5
1FA
100
AcDbSymbolTableRecord
100
AcDbLayerTableRecord
  2
DEFAULT_1
 70
0
 62
7
  6
CENTER
370
-3
390
F
  0
LAYER
  5
1FB
100
AcDbSymbolTableRecord
100
AcDbLayerTableRecord
  2
DEFAULT_2
 70
0
 62
7
  6
HIDDEN
370
-3
390
F
  0
LAYER
  5
1FC
100
AcDbSymbolTableRecord
100
AcDbLayerTableRecord
  2
DEFAULT_3
 70
0
 62
7
  6
PHANTOM
370
-3
390
F
  0
LAYER
  5
1FD
100
AcDbSymbolTableRecord
100
AcDbLayerTableRecord
  2
3_ALL_SYMBOLS
 70
0
 62
7
  6
CONTINUOUS
370
-3
390
F
  0
LAYER
  5
1FE
100
AcDbSymbolTableRecord
100
AcDbLayerTableRecord
  2
ASSI
 70
0
 62
7
  6
CONTINUOUS
370
-3
390
F
  0
LAYER
  5
1FF
100
AcDbSymbolTableRecord
100
AcDbLayerTableRecord
  2
COLOR5
 70
0
 62
7
  6
CONTINUOUS
370
-3
390
F
  0
LAYER
  5
200
100
AcDbSymbolTableRecord
100
AcDbLayerTableRecord
  2
COORDINATE
 70
0
 62
7
  6
CONTINUOUS
370
-3
390
F
  0
LAYER
  5
201
100
AcDbSymbolTableRecord
100
AcDbLayerTableRecord
  2
COORD_ORIGINE
 70
0
 62
7
  6
CONTINUOUS
370
-3
390
F
  0
LAYER
  5
202
100
AcDbSymbolTableRecord
100
AcDbLayerTableRecord
  2
COPY_PUBLISH
 70
0
 62
7
  6
CONTINUOUS
370
-3
390
F
  0
LAYER
  5
203
100
AcDbSymbolTableRecord
100
AcDbLayerTableRecord
  2
COSMETICI
 70
0
 62
7
  6
CONTINUOUS
370
-3
390
F
  0
LAYER
  5
204
100
AcDbSymbolTableRecord
100
AcDbLayerTableRecord
  2
CURVE
 70
0
 62
7
  6
CONTINUOUS
370
-3
390
F
  0
LAYER
  5
205
100
AcDbSymbolTableRecord
100
AcDbLayerTableRecord
  2
DRAFT
 70
0
 62
7
  6
CONTINUOUS
370
-3
390
F
  0
LAYER
  5
206
100
AcDbSymbolTableRecord
100
AcDbLayerTableRecord
  2
IMPORT_IGES
 70
0
 62
7
  6
CONTINUOUS
370
-3
390
F
  0
LAYER
  5
207
100
AcDbSymbolTableRecord
100
AcDbLayerTableRecord
  2
NOTE
 70
0
 62
7
  6
CONTINUOUS
370
-3
390
F
  0
LAYER
  5
208
100
AcDbSymbolTableRecord
100
AcDbLayerTableRecord
  2
PIANI
 70
0
 62
7
  6
CONTINUOUS
370
-3
390
F
  0
LAYER
  5
209
100
AcDbSymbolTableRecord
100
AcDbLayerTableRecord
  2
PIANI_ORIGINE
 70
0
 62
7
  6
CONTINUOUS
370
-3
390
F
  0
LAYER
  5
20A
100
AcDbSymbolTableRecord
100
AcDbLayerTableRecord
  2
PUNTI
 70
0
 62
7
  6
CONTINUOUS
370
-3
390
F
  0
LAYER
  5
20B
100
AcDbSymbolTableRecord
100
AcDbLayerTableRecord
  2
RACCORDO
 70
0
 62
7
  6
CONTINUOUS
370
-3
390
F
  0
LAYER
  5
20C
100
AcDbSymbolTableRecord
100
AcDbLayerTableRecord
  2
SIMBOLI
 70
0
 62
7
  6
CONTINUOUS
370
-3
390
F
  0
LAYER
  5
20D
100
AcDbSymbolTableRecord
100
AcDbLayerTableRecord
  2
SMUSSO
 70
0
 62
7
  6
CONTINUOUS
370
-3
390
F
  0
LAYER
  5
20E
100
AcDbSymbolTableRecord
100
AcDbLayerTableRecord
  2
SNAPLINE
 70
0
 62
7
  6
CONTINUOUS
370
-3
390
F
  0
LAYER
  5
20F
100
AcDbSymbolTableRecord
100
AcDbLayerTableRecord
  2
SUPERFICI
 70
0
 62
7
  6
CONTINUOUS
370
-3
390
F
  0
LAYER
  5
210
100
AcDbSymbolTableRecord
100
AcDbLayerTableRecord
  2
TRASH
 70
0
 62
7
  6
CONTINUOUS
370
-3
390
F
  0
ENDTAB
  0
TABLE
  2
STYLE
  5
3
100
AcDbSymbolTable
 70
1
  0
STYLE
  5
11
100
AcDbSymbolTableRecord
100
AcDbTextStyleTableRecord
  2
STANDARD
 70
0
 40
0.0
 41
0.85
 50
0.0
 71
0
 42
0.2
  3
txt
  4

  0
STYLE
  5
211
100
AcDbSymbolTableRecord
100
AcDbTextStyleTableRecord
  2
TEXTSTYLE_1
 70
0
 40
0.0
 41
0.8
 50
0.0
 71
0
 42
0.2
  3
gdt
  4

  0
ENDTAB
  0
TABLE
  2
VIEW
  5
6
100
AcDbSymbolTable
 70
0
  0
ENDTAB
  0
TABLE
  2
UCS
  5
7
100
AcDbSymbolTable
 70
0
  0
ENDTAB
  0
TABLE
  2
APPID
  5
9
100
AcDbSymbolTable
 70
1
  0
APPID
  5
212
100
AcDbSymbolTableRecord
100
AcDbRegAppTableRecord
  2
ACAD
 70
0
  0
ENDTAB
  0
TABLE
  2
BLOCK_RECORD
  5
1
100
AcDbSymbolTable
 70
0
  0
BLOCK_RECORD
  5
213
100
AcDbSymbolTableRecord
100
AcDbBlockTableRecord
  2
*Model_Space
  0
BLOCK_RECORD
  5
214
100
AcDbSymbolTableRecord
100
AcDbBlockTableRecord
  2
*Paper_Space
  0
BLOCK_RECORD
  5
215
100
AcDbSymbolTableRecord
100
AcDbBlockTableRecord
  2
_FILLED
  0
ENDTAB
  0
TABLE
  2
DIMSTYLE
  5
A
100
AcDbSymbolTable
 70
1
100
AcDbDimStyleTable
 71
0
  0
DIMSTYLE
105
216
100
AcDbSymbolTableRecord
100
AcDbDimStyleTableRecord
  2
STANDARD
 70
0
  3

  4

 40
1.0
 41
3.5
 42
1.0
 43
0.38
 44
1.5
 45
0.0
 46
0.0
 47
0.01
 48
0.01
140
3.5
141
0.09
142
0.0
143
25.4
144
1.0
145
0.0
146
1.0
147
0.625
 71
1
 72
0
 73
0
 74
0
 75
0
 76
0
 77
1
 78
8
 79
2
170
0
171
1
172
0
173
0
174
0
175
0
176
0
177
0
178
0
270
2
179
2
271
2
272
2
273
2
274
2
275
0
280
0
281
0
282
0
283
1
284
8
285
0
286
0
287
3
288
0
340
11
278
44
341
215
342
215
343
215
344
215
  0
ENDTAB
  0
ENDSEC
  0
SECTION
  2
BLOCKS
  0
BLOCK
  5
20
100
AcDbEntity
  8
0
100
AcDbBlockBegin
  2
*Model_Space
 70
0
 10
0.0
 20
0.0
 30
0.0
  3
*Model_Space
  1

  0
ENDBLK
  5
21
100
AcDbEntity
  8
0
100
AcDbBlockEnd
  0
BLOCK
  5
1C
100
AcDbEntity
  8
0
100
AcDbBlockBegin
  2
*Paper_Space
 70
0
 10
0.0
 20
0.0
 30
0.0
  3
*Paper_Space
  1

  0
ENDBLK
  5
1D
100
AcDbEntity
  8
0
100
AcDbBlockEnd
  0
BLOCK
  5
217
100
AcDbEntity
  8
0
100
AcDbBlockBegin
  2
_FILLED
 70
64
 10
0.0
 20
0.0
  3
_FILLED
  1

  0
SOLID
  5
218
100
AcDbEntity
  8
0
  6
BYBLOCK
 62
0
100
AcDbTrace
 10
0.0
 20
0.0
 11
-1.0
 21
0.2142857143
 12
-1.0
 22
-0.2142857143
 13
-1.0
 23
-0.2142857143
  0
ENDBLK
  5
219
100
AcDbEntity
  8
0
  6
BYBLOCK
 62
0
100
AcDbBlockEnd
  0
ENDSEC
  0
SECTION
  2
ENTITIES
  0
LWPOLYLINE
  5
21A
100
AcDbEntity
  8
RACCORDO
100
AcDbPolyline
 62
250
  6
CONTINUOUS
 90
14
 70
0
 10
-15.1063764544
 20
16.5054013898
 10
-15.1079480789
 20
16.5037558516
 10
-15.1095071891
 20
16.5020984415
 10
-15.1110536954
 20
16.5004292549
 10
-15.1125875086
 20
16.4987483879
 10
-15.1141085407
 20
16.4970559371
 10
-15.115616704
 20
16.495352
 10
-15.1171119118
 20
16.4936366745
 10
-15.1185940781
 20
16.4919100595
 10
-15.1200631175
 20
16.4901722541
 10
-15.1215189456
 20
16.4884233585
 10
-15.1229614785
 20
16.4866634732
 10
-15.1243906334
 20
16.4848926995
 10
-15.1258063278
 20
16.4831111393
  0
LWPOLYLINE
  5
21B
100
AcDbEntity
  8
RACCORDO
100
AcDbPolyline
 62
250
  6
CONTINUOUS
 90
13
 70
0
 10
-15.0848486421
 20
16.5256709221
 10
-15.0865744682
 20
16.5241880782
 10
-15.0882890099
 20
16.5226921869
 10
-15.0899921684
 20
16.5211833341
 10
-15.0916838458
 20
16.5196616067
 10
-15.0933639448
 20
16.5181270923
 10
-15.0950323687
 20
16.5165798791
 10
-15.0966890214
 20
16.5150200561
 10
-15.0983338077
 20
16.5134477131
 10
-15.0999666329
 20
16.5118629406
 10
-15.1015874031
 20
16.5102658298
 10
-15.103196025
 20
16.5086564725
 10
-15.104792406
 20
16.5070349614
  0
LWPOLYLINE
  5
21C
100
AcDbEntity
  8
RACCORDO
100
AcDbPolyline
 62
250
  6
CONTINUOUS
 90
14
 70
0
 10
-15.1453729937
 20
16.4551644878
 10
-15.1465627849
 20
16.4532246884
 10
-15.14773784
 20
16.4512759247
 10
-15.1488980913
 20
16.4493183087
 10
-15.1500434722
 20
16.4473519531
 10
-15.1511739167
 20
16.445376971
 10
-15.1522893597
 20
16.4433934762
 10
-15.1533897371
 20
16.4414015826
 10
-15.1544749856
 20
16.4394014049
 10
-15.1555450428
 20
16.4373930583
 10
-15.156599847
 20
16.4353766582
 10
-15.1576393375
 20
16.4333523207
 10
-15.1586634546
 20
16.4313201622
 10
-15.1596721394
 20
16.4292802998
  0
LWPOLYLINE
  5
21D
100
AcDbEntity
  8
RACCORDO
100
AcDbPolyline
 62
250
  6
CONTINUOUS
 90
14
 70
0
 10
-15.1272084805
 20
16.4813188952
 10
-15.1285970106
 20
16.4795160701
 10
-15.1299718384
 20
16.4777027679
 10
-15.1313328847
 20
16.4758790929
 10
-15.1326800712
 20
16.47404515
 10
-15.1340133203
 20
16.4722010448
 10
-15.1353325555
 20
16.4703468833
 10
-15.1366377006
 20
16.4684827723
 10
-15.1379286808
 20
16.466608819
 10
-15.1392054216
 20
16.4647251312
 10
-15.1404678497
 20
16.4628318173
 10
-15.1417158923
 20
16.4609289863
 10
-15.1429494777
 20
16.4590167476
 10
-15.1441685349
 20
16.4570952112
  0
LINE
  5
21E
100
AcDbEntity
  8
RACCORDO
100
AcDbLine
 62
250
  6
CONTINUOUS
 10
-13.8814530542
 20
16.5973818225
 11
-13.9058901451
 21
16.5729447316
  0
LINE
  5
21F
100
AcDbEntity
  8
RACCORDO
100
AcDbLine
 62
250
  6
CONTINUOUS
 10
-13.5814987457
 20
16.297427514
 11
-13.6059358366
 21
16.2729904231
  0
LWPOLYLINE
  5
220
100
AcDbEntity
  8
RACCORDO
100
AcDbPolyline
 62
250
  6
CONTINUOUS
 90
14
 70
0
 10
-15.0595589627
 20
16.5450143635
 10
-15.0614320598
 20
16.5437227932
 10
-15.063295319
 20
16.5424170514
 10
-15.0651486332
 20
16.5410972132
 10
-15.0669918958
 20
16.5397633545
 10
-15.0688250007
 20
16.5384155522
 10
-15.0706478424
 20
16.5370538837
 10
-15.072460316
 20
16.5356784274
 10
-15.0742623173
 20
16.5342892625
 10
-15.0760537425
 20
16.5328864689
 10
-15.0778344887
 20
16.5314701272
 10
-15.0796044532
 20
16.5300403191
 10
-15.0813635343
 20
16.5285971267
 10
-15.0831116308
 20
16.5271406331
  0
LWPOLYLINE
  5
221
100
AcDbEntity
  8
RACCORDO
100
AcDbPolyline
 62
250
  6
CONTINUOUS
 90
14
 70
0
 10
-15.0323639807
 20
16.5615682324
 10
-15.0343632444
 20
16.5604824878
 10
-15.0363542278
 20
16.5593816074
 10
-15.0383368164
 20
16.5582656544
 10
-15.040310896
 20
16.5571346931
 10
-15.0422763531
 20
16.5559887887
 10
-15.0442330746
 20
16.5548280069
 10
-15.0461809479
 20
16.5536524147
 10
-15.0481198609
 20
16.5524620796
 10
-15.0500497021
 20
16.5512570701
 10
-15.0519703604
 20
16.5500374557
 10
-15.0538817253
 20
16.5488033063
 10
-15.0557836869
 20
16.5475546932
 10
-15.0576761357
 20
16.546291688
  0
LWPOLYLINE
  5
222
100
AcDbEntity
  8
RACCORDO
100
AcDbPolyline
 62
250
  6
CONTINUOUS
 90
14
 70
0
 10
-15.0035701033
 20
16.5751460156
 10
-15.0056730078
 20
16.5742783299
 10
-15.0077692829
 20
16.5733947144
 10
-15.0098588078
 20
16.5724952202
 10
-15.0119414624
 20
16.5715798989
 10
-15.0140171269
 20
16.5706488033
 10
-15.0160856817
 20
16.5697019869
 10
-15.0181470079
 20
16.5687395041
 10
-15.0202009868
 20
16.5677614104
 10
-15.0222475003
 20
16.566767762
 10
-15.0242864307
 20
16.5657586162
 10
-15.0263176606
 20
16.5647340309
 10
-15.0283410731
 20
16.5636940651
 10
-15.0303565518
 20
16.5626387787
  0
LWPOLYLINE
  5
223
100
AcDbEntity
  8
RACCORDO
100
AcDbPolyline
 62
250
  6
CONTINUOUS
 90
14
 70
0
 10
-15.1729132009
 20
16.3978386908
 10
-15.1736676881
 20
16.3956918072
 10
-15.1744058795
 20
16.3935392696
 10
-15.1751277328
 20
16.3913812019
 10
-15.1758332065
 20
16.3892177282
 10
-15.1765222598
 20
16.387048973
 10
-15.1771948531
 20
16.3848750611
 10
-15.1778509479
 20
16.3826961176
 10
-15.1784905062
 20
16.3805122678
 10
-15.1791134913
 20
16.3783236374
 10
-15.1797198674
 20
16.3761303524
 10
-15.1803095996
 20
16.3739325389
 10
-15.1808826539
 20
16.3717303234
 10
-15.1814389974
 20
16.3695238327
  0
LWPOLYLINE
  5
224
100
AcDbEntity
  8
RACCORDO
100
AcDbPolyline
 62
250
  6
CONTINUOUS
 90
14
 70
0
 10
-15.1606653337
 20
16.4272328507
 10
-15.1616429805
 20
16.4251779328
 10
-15.1626050234
 20
16.4231156643
 10
-15.1635514072
 20
16.4210461638
 10
-15.1644820774
 20
16.4189695505
 10
-15.1653969804
 20
16.4168859438
 10
-15.1662960637
 20
16.4147954637
 10
-15.1671792753
 20
16.4126982303
 10
-15.1680465646
 20
16.4105943644
 10
-15.1688978817
 20
16.4084839871
 10
-15.1697331775
 20
16.4063672197
 10
-15.170552404
 20
16.404244184
 10
-15.171355514
 20
16.4021150022
 10
-15.1721424614
 20
16.3999797969
  0
LWPOLYLINE
  5
225
100
AcDbEntity
  8
RACCORDO
100
AcDbPolyline
 62
250
  6
CONTINUOUS
 90
14
 70
0
 10
-15.181978598
 20
16.3673131936
 10
-15.1825014247
 20
16.3650985334
 10
-15.1830074475
 20
16.3628799794
 10
-15.1834966372
 20
16.3606576594
 10
-15.1839689656
 20
16.3584317013
 10
-15.1844244056
 20
16.356202233
 10
-15.184862931
 20
16.3539693829
 10
-15.1852845165
 20
16.3517332795
 10
-15.1856891379
 20
16.3494940514
 10
-15.1860767719
 20
16.3472518274
 10
-15.1864473963
 20
16.3450067366
 10
-15.1868009896
 20
16.3427589082
 10
-15.1871375315
 20
16.3405084715
 10
-15.1874570027
 20
16.3382555559
  0
LWPOLYLINE
  5
226
100
AcDbEntity
  8
RACCORDO
100
AcDbPolyline
 62
250
  6
CONTINUOUS
 90
13
 70
0
 10
-15.1877593848
 20
16.3360002911
 10
-15.1880446604
 20
16.3337428069
 10
-15.188312813
 20
16.3314832332
 10
-15.1885638273
 20
16.3292217
 10
-15.1887976888
 20
16.3269583373
 10
-15.1890143841
 20
16.3246932755
 10
-15.1892139006
 20
16.3224266449
 10
-15.1893962269
 20
16.3201585758
 10
-15.1895613525
 20
16.3178891989
 10
-15.1897092679
 20
16.3156186445
 10
-15.1898399647
 20
16.3133470435
 10
-15.1899534351
 20
16.3110745265
 10
-15.1900496729
 20
16.3088012243
  0
LINE
  5
227
100
AcDbEntity
  8
RACCORDO
100
AcDbLine
 62
250
  6
CONTINUOUS
 10
-15.1413831338
 20
12.8331932258
 11
-15.2011140571
 21
12.3770679327
  0
LINE
  5
228
100
AcDbEntity
  8
RACCORDO
100
AcDbLine
 62
250
  6
CONTINUOUS
 10
-14.8415658857
 20
12.5433227439
 11
-14.9010226464
 21
12.0892910484
  0
LINE
  5
229
100
AcDbEntity
  8
0
100
AcDbLine
 62
7
  6
CONTINUOUS
 10
11.5632506519
 20
-14.657362634
 11
11.5770524931
 21
-14.6534621758
  0
LWPOLYLINE
  5
22A
100
AcDbEntity
  8
0
100
AcDbPolyline
 62
7
  6
CONTINUOUS
 90
7
 70
0
 10
13.1720649499
 20
-14.611881955
 10
13.1426087726
 20
-14.6195859196
 10
13.1136759611
 20
-14.6269803131
 10
13.0852665155
 20
-14.6340651354
 10
13.0573804357
 20
-14.6408403867
 10
13.0300177218
 20
-14.6473060668
 10
13.0031783738
 20
-14.6534621758
  0
LINE
  5
22B
100
AcDbEntity
  8
0
100
AcDbLine
 62
7
  6
CONTINUOUS
 10
13.0031783738
 20
-14.6534621758
 11
12.9557662551
 21
-14.6628884235
  0
LWPOLYLINE
  5
22C
100
AcDbEntity
  8
RACCORDO
100
AcDbPolyline
 62
250
  6
CONTINUOUS
 90
7
 70
0
 10
-14.8574306964
 20
-8.3597045262
 10
-14.8566576763
 20
-8.3711719442
 10
-14.8558508558
 20
-8.3809400354
 10
-14.8550102349
 20
-8.3888463204
 10
-14.8541358137
 20
-8.3947350076
 10
-14.8532275922
 20
-8.3984595726
 10
-14.8522855703
 20
-8.3998854819
  0
LWPOLYLINE
  5
22D
100
AcDbEntity
  8
RACCORDO
100
AcDbPolyline
 62
250
  6
CONTINUOUS
 90
13
 70
0
 10
-14.9706158102
 20
-10.3730914099
 10
-14.9680365369
 20
-10.4122316888
 10
-14.9603714426
 20
-10.450702573
 10
-14.9477516195
 20
-10.4878461192
 10
-14.9303928919
 20
-10.5230270947
 10
-14.9085921393
 20
-10.5556438101
 10
-14.882722232
 20
-10.5851384179
 10
-14.8532256361
 20
-10.6110064859
 10
-14.8206068063
 20
-10.6328056406
 10
-14.785423572
 20
-10.6501630936
 10
-14.748277634
 20
-10.6627819963
 10
-14.7098042832
 20
-10.6704465305
 10
-14.6706615017
 20
-10.673025615
  0
LWPOLYLINE
  5
22E
100
AcDbEntity
  8
RACCORDO
100
AcDbPolyline
 62
7
  6
CONTINUOUS
 90
13
 70
0
 10
-15.1574763948
 20
-10.5973341315
 10
-15.1549350475
 20
-10.6363011987
 10
-15.1473360805
 20
-10.6746775213
 10
-15.1347808743
 20
-10.7118053632
 10
-15.1174465537
 20
-10.7470609638
 10
-15.095609868
 20
-10.7798064604
 10
-15.069666668
 20
-10.8094163038
 10
-15.0400524952
 20
-10.8353840124
 10
-15.0072817142
 20
-10.8572513518
 10
-14.9720038523
 20
-10.8746017684
 10
-14.9348692871
 20
-10.8871584936
 10
-14.8964952947
 20
-10.8947537547
 10
-14.8575403618
 20
-10.8972902682
  0
LWPOLYLINE
  5
22F
100
AcDbEntity
  8
RACCORDO
100
AcDbPolyline
 62
250
  6
CONTINUOUS
 90
5
 70
0
 10
-15.1558541142
 20
-8.6613515852
 10
-15.1550030615
 20
-8.677184109
 10
-15.1541170047
 20
-8.6888820292
 10
-15.1531959438
 20
-8.6964453458
 10
-15.1522398788
 20
-8.6998740588
  0
LWPOLYLINE
  5
230
100
AcDbEntity
  8
RACCORDO
100
AcDbPolyline
 62
250
  6
CONTINUOUS
 90
3
 70
0
 10
-15.1574512072
 20
-8.617282727
 10
-15.1566701627
 20
-8.6413844579
 10
-15.1558541142
 20
-8.6613515852
  0
LINE
  5
231
100
AcDbEntity
  8
RACCORDO
100
AcDbLine
 62
7
  6
CONTINUOUS
 10
-15.1572156853
 20
11.6801485227
 11
-15.1564561658
 21
11.6518754756
  0
LINE
  5
232
100
AcDbEntity
  8
RACCORDO
100
AcDbLine
 62
7
  6
CONTINUOUS
 10
-15.1564561658
 20
11.6518754756
 11
-15.1555463388
 21
11.6094366179
  0
LINE
  5
233
100
AcDbEntity
  8
RACCORDO
100
AcDbLine
 62
7
  6
CONTINUOUS
 10
-15.1555463388
 20
11.6094366179
 11
-15.154530604
 21
11.5481552172
  0
LINE
  5
234
100
AcDbEntity
  8
RACCORDO
100
AcDbLine
 62
7
  6
CONTINUOUS
 10
-15.154530604
 20
11.5481552172
 11
-15.1533936471
 21
11.4502534514
  0
LINE
  5
235
100
AcDbEntity
  8
RACCORDO
100
AcDbLine
 62
7
  6
CONTINUOUS
 10
-15.1533936471
 20
11.4502534514
 11
-15.1526651445
 21
11.3512839376
  0
LINE
  5
236
100
AcDbEntity
  8
RACCORDO
100
AcDbLine
 62
7
  6
CONTINUOUS
 10
-15.1526651445
 20
11.3512839376
 11
-15.1521946008
 21
11.1722270433
  0
LINE
  5
237
100
AcDbEntity
  8
RACCORDO
100
AcDbLine
 62
7
  6
CONTINUOUS
 10
-15.2011140571
 20
14.3692870684
 11
-15.2011140571
 21
12.381256085
  0
LINE
  5
238
100
AcDbEntity
  8
RACCORDO
100
AcDbLine
 62
7
  6
CONTINUOUS
 10
-15.190454963
 20
16.297427514
 11
-15.190454963
 21
14.473649106
  0
LINE
  5
239
100
AcDbEntity
  8
RACCORDO
100
AcDbLine
 62
7
  6
CONTINUOUS
 10
-15.1574763948
 20
-10.5973341315
 11
-15.1574730125
 21
-8.6217876469
  0
LINE
  5
23A
100
AcDbEntity
  8
RACCORDO
100
AcDbLine
 62
250
  6
CONTINUOUS
 10
-15.1413831338
 20
16.2729904231
 11
-15.1413831338
 21
12.8331932258
  0
LINE
  5
23B
100
AcDbEntity
  8
RACCORDO
100
AcDbLine
 62
250
  6
CONTINUOUS
 10
-14.9706158102
 20
-8.790679177
 11
-14.9706158102
 21
-10.3730914099
  0
LINE
  5
23C
100
AcDbEntity
  8
RACCORDO
100
AcDbLine
 62
250
  6
CONTINUOUS
 10
-14.890454963
 20
16.5973818225
 11
-14.890454963
 21
16.597427514
  0
LINE
  5
23D
100
AcDbEntity
  8
RACCORDO
100
AcDbLine
 62
250
  6
CONTINUOUS
 10
-14.8522760799
 20
11.2059911512
 11
-14.8521941769
 21
-8.099896905
  0
LINE
  5
23E
100
AcDbEntity
  8
RACCORDO
100
AcDbLine
 62
250
  6
CONTINUOUS
 10
-14.8415658857
 20
12.5433227439
 11
-14.8415658857
 21
16.5729447316
  0
LINE
  5
23F
100
AcDbEntity
  8
RACCORDO
100
AcDbLine
 62
7
  6
CONTINUOUS
 10
-15.1521941769
 20
11.1722268862
 11
-15.152402586
 21
-8.2168098595
  0
LINE
  5
240
100
AcDbEntity
  8
RACCORDO
100
AcDbLine
 62
250
  6
CONTINUOUS
 10
-14.8521941769
 20
-8.099896905
 11
-14.852356243
 21
-8.1521081051
  0
LINE
  5
241
100
AcDbEntity
  8
RACCORDO
100
AcDbLine
 62
7
  6
CONTINUOUS
 10
-15.1574512072
 20
-8.617282727
 11
-15.1574730125
 21
-8.6217876469
  0
LINE
  5
242
100
AcDbEntity
  8
RACCORDO
100
AcDbLine
 62
7
  6
CONTINUOUS
 10
-15.152402586
 20
-8.2168098595
 11
-15.1534118256
 21
-8.3813594617
  0
LINE
  5
243
100
AcDbEntity
  8
RACCORDO
100
AcDbLine
 62
7
  6
CONTINUOUS
 10
-15.1534118256
 20
-8.3813594617
 11
-15.1545350458
 21
-8.4760220604
  0
LINE
  5
244
100
AcDbEntity
  8
RACCORDO
100
AcDbLine
 62
250
  6
CONTINUOUS
 10
-15.1901732748
 20
16.3048845701
 11
-15.1902722111
 21
16.297427514
  0
LWPOLYLINE
  5
245
100
AcDbEntity
  8
RACCORDO
100
AcDbPolyline
 62
7
  6
CONTINUOUS
 90
4
 70
0
 10
-15.1545350458
 20
-8.4760220604
 10
-15.1559012463
 20
-8.554874168
 10
-15.1566499793
 20
-8.5873727742
 10
-15.1573369234
 20
-8.6122938499
  0
LINE
  5
246
100
AcDbEntity
  8
RACCORDO
100
AcDbLine
 62
7
  6
CONTINUOUS
 10
-15.1573329418
 20
-8.612422581
 11
-15.1574335832
 21
-8.617282727
  0
LINE
  5
247
100
AcDbEntity
  8
RACCORDO
100
AcDbLine
 62
250
  6
CONTINUOUS
 10
-15.1901286723
 20
16.3065272677
 11
-15.1901732748
 21
16.3048845701
  0
LWPOLYLINE
  5
248
100
AcDbEntity
  8
0
100
AcDbPolyline
 62
7
  6
CONTINUOUS
 90
13
 70
0
 10
12.6940940474
 20
-14.7051450746
 10
12.712072741
 20
-14.7028124652
 10
12.7305659104
 20
-14.7003276653
 10
12.7495715661
 20
-14.6976846032
 10
12.7692555967
 20
-14.6948446143
 10
12.7896098871
 20
-14.6918031531
 10
12.8106356667
 20
-14.6885510907
 10
12.8325150566
 20
-14.6850391663
 10
12.8552407916
 20
-14.6812590426
 10
12.8788068609
 20
-14.6771988615
 10
12.9034006801
 20
-14.6727989529
 10
12.9290795845
 20
-14.6680285376
 10
12.9557662551
 20
-14.6628884235
  0
LWPOLYLINE
  5
249
100
AcDbEntity
  8
0
100
AcDbPolyline
 62
7
  6
CONTINUOUS
 90
16
 70
0
 10
11.2677898634
 20
-14.730784198
 10
11.286889903
 20
-14.7283423295
 10
11.3061947889
 20
-14.7255633861
 10
11.3256961122
 20
-14.7224302852
 10
11.3453766651
 20
-14.7189010669
 10
11.3652542066
 20
-14.7149770988
 10
11.3852998184
 20
-14.7107087337
 10
11.4053358174
 20
-14.7060755794
 10
11.4253546079
 20
-14.7010600162
 10
11.4454685842
 20
-14.6957265712
 10
11.4655017754
 20
-14.6900589163
 10
11.4853531241
 20
-14.6840438672
 10
11.50518704
 20
-14.6777640533
 10
11.5249414925
 20
-14.6712451316
 10
11.5443500671
 20
-14.6644473417
 10
11.5632506519
 20
-14.657362634
  0
LINE
  5
24A
100
AcDbEntity
  8
0
100
AcDbLine
 62
7
  6
CONTINUOUS
 10
12.6595121138
 20
-14.7093949565
 11
12.6940940474
 21
-14.7051450746
  0
LINE
  5
24B
100
AcDbEntity
  8
0
100
AcDbLine
 62
7
  6
CONTINUOUS
 10
12.6263158652
 20
-14.713190587
 11
12.6595121138
 21
-14.7093949565
  0
LINE
  5
24C
100
AcDbEntity
  8
0
100
AcDbLine
 62
7
  6
CONTINUOUS
 10
12.5939556853
 20
-14.7166228756
 11
12.6263158652
 21
-14.713190587
  0
LINE
  5
24D
100
AcDbEntity
  8
0
100
AcDbLine
 62
7
  6
CONTINUOUS
 10
12.5620767089
 20
-14.7197463373
 11
12.5939556853
 21
-14.7166228756
  0
LINE
  5
24E
100
AcDbEntity
  8
0
100
AcDbLine
 62
7
  6
CONTINUOUS
 10
12.5300924818
 20
-14.7226272663
 11
12.5620767089
 21
-14.7197463373
  0
LINE
  5
24F
100
AcDbEntity
  8
0
100
AcDbLine
 62
7
  6
CONTINUOUS
 10
12.4979898183
 20
-14.7252637229
 11
12.5300924818
 21
-14.7226272663
  0
LINE
  5
250
100
AcDbEntity
  8
0
100
AcDbLine
 62
7
  6
CONTINUOUS
 10
12.465737801
 20
-14.7276593542
 11
12.4979898183
 21
-14.7252637229
  0
LWPOLYLINE
  5
251
100
AcDbEntity
  8
0
100
AcDbPolyline
 62
7
  6
CONTINUOUS
 90
3
 70
0
 10
12.4172573651
 20
-14.7307841828
 10
12.4334503818
 20
-14.7298026592
 10
12.465737801
 20
-14.7276593542
  0
LINE
  5
252
100
AcDbEntity
  8
RACCORDO
100
AcDbLine
 62
7
  6
CONTINUOUS
 10
-15.200523948
 20
12.3614048266
 11
-15.1982758537
 21
12.3399327387
  0
LWPOLYLINE
  5
253
100
AcDbEntity
  8
RACCORDO
100
AcDbPolyline
 62
250
  6
CONTINUOUS
 90
13
 70
0
 10
-15.1413831338
 20
12.8331932258
 10
-15.1384974824
 20
12.7955713864
 10
-15.1305891708
 20
12.7585859283
 10
-15.1177919698
 20
12.7228624683
 10
-15.1003223466
 20
12.6890052762
 10
-15.0784758036
 20
12.6575870535
 10
-15.0526218796
 20
12.6291392461
 10
-15.0231978993
 20
12.6041430544
 10
-14.9907015754
 20
12.5830212945
 10
-14.9556825901
 20
12.5661312452
 10
-14.9187332967
 20
12.5537586053
 10
-14.8804787004
 20
12.5461126606
 10
-14.8415658857
 20
12.5433227439
  0
LWPOLYLINE
  5
254
100
AcDbEntity
  8
RACCORDO
100
AcDbPolyline
 62
250
  6
CONTINUOUS
 90
13
 70
0
 10
-13.4626215244
 20
-8.0623713735
 10
-13.4600499084
 20
-8.1015239658
 10
-13.4523909773
 20
-8.1400067762
 10
-13.4397757521
 20
-8.1771614805
 10
-13.4224200412
 20
-8.2123524745
 10
-13.4006207479
 20
-8.2449777472
 10
-13.3747507921
 20
-8.2744791792
 10
-13.3452527301
 20
-8.3003520905
 10
-13.3126311842
 20
-8.3221538743
 10
-13.2774442101
 20
-8.3395115681
 10
-13.2402937501
 20
-8.3521282344
 10
-13.2018153357
 20
-8.3597880406
 10
-13.1626672159
 20
-8.3623599504
  0
LINE
  5
255
100
AcDbEntity
  8
RACCORDO
100
AcDbLine
 62
250
  6
CONTINUOUS
 10
-14.8599687049
 20
11.4620967198
 11
-14.9010226464
 21
12.0892910484
  0
LINE
  5
256
100
AcDbEntity
  8
RACCORDO
100
AcDbLine
 62
7
  6
CONTINUOUS
 10
-15.2005097681
 20
12.3615181437
 11
-15.1592505131
 21
11.7311649202
  0
LINE
  5
257
100
AcDbEntity
  8
RACCORDO
100
AcDbLine
 62
7
  6
CONTINUOUS
 10
-15.1592505131
 20
11.7311649202
 11
-15.1589761314
 21
11.7264576184
  0
LINE
  5
258
100
AcDbEntity
  8
RACCORDO
100
AcDbLine
 62
7
  6
CONTINUOUS
 10
-15.1589761314
 20
11.7264576184
 11
-15.1586605036
 21
11.72022018
  0
LINE
  5
259
100
AcDbEntity
  8
RACCORDO
100
AcDbLine
 62
7
  6
CONTINUOUS
 10
-15.1586605036
 20
11.72022018
 11
-15.1583184839
 21
11.71245068
  0
LINE
  5
25A
100
AcDbEntity
  8
RACCORDO
100
AcDbLine
 62
7
  6
CONTINUOUS
 10
-15.2011140571
 20
12.3770679327
 11
-15.200523948
 21
12.3614048266
  0
LINE
  5
25B
100
AcDbEntity
  8
RACCORDO
100
AcDbLine
 62
7
  6
CONTINUOUS
 10
-15.1583184839
 20
11.71245068
 11
-15.1579608372
 21
11.7031679398
  0
LWPOLYLINE
  5
25C
100
AcDbEntity
  8
RACCORDO
100
AcDbPolyline
 62
7
  6
CONTINUOUS
 90
3
 70
0
 10
-15.1579608372
 20
11.7031679398
 10
-15.1574049688
 20
11.6864271559
 10
-15.1572156853
 20
11.6801485227
  0
LINE
  5
25D
100
AcDbEntity
  8
RACCORDO
100
AcDbLine
 62
250
  6
CONTINUOUS
 10
-13.8302650108
 20
11.3801215118
 11
-13.8292756901
 21
11.3460911891
  0
LINE
  5
25E
100
AcDbEntity
  8
RACCORDO
100
AcDbLine
 62
250
  6
CONTINUOUS
 10
-13.8292756901
 20
11.3460911891
 11
-13.8284266966
 21
11.3050946246
  0
LINE
  5
25F
100
AcDbEntity
  8
RACCORDO
100
AcDbLine
 62
250
  6
CONTINUOUS
 10
-13.5311521199
 20
11.6328536879
 11
-13.5298474355
 21
11.5583797335
  0
LWPOLYLINE
  5
260
100
AcDbEntity
  8
RACCORDO
100
AcDbPolyline
 62
250
  6
CONTINUOUS
 90
10
 70
0
 10
-14.8527709053
 20
11.270390869
 10
-14.8531881541
 20
11.3001183071
 10
-14.8537157427
 20
11.3279534499
 10
-14.8543406917
 20
11.3541826891
 10
-14.8550638702
 20
11.3785780394
 10
-14.855884409
 20
11.4007199349
 10
-14.8567867206
 20
11.4204691363
 10
-14.8577656092
 20
11.4375249673
 10
-14.8588262707
 20
11.4515018484
 10
-14.8599687049
 20
11.4620967198
  0
LINE
  5
261
100
AcDbEntity
  8
RACCORDO
100
AcDbLine
 62
250
  6
CONTINUOUS
 10
-13.8284266966
 20
11.3050946246
 11
-13.8277694202
 21
11.2570195088
  0
LINE
  5
262
100
AcDbEntity
  8
RACCORDO
100
AcDbLine
 62
250
  6
CONTINUOUS
 10
-13.5298474355
 20
11.5583797335
 11
-13.528783868
 21
11.471500958
  0
LINE
  5
263
100
AcDbEntity
  8
RACCORDO
100
AcDbLine
 62
250
  6
CONTINUOUS
 10
-14.8522760799
 20
11.2059911512
 11
-14.8527709053
 21
11.270390869
  0
LINE
  5
264
100
AcDbEntity
  8
RACCORDO
100
AcDbLine
 62
250
  6
CONTINUOUS
 10
-13.528783868
 20
11.471500958
 11
-13.5277363919
 21
11.3256861338
  0
LINE
  5
265
100
AcDbEntity
  8
RACCORDO
100
AcDbLine
 62
250
  6
CONTINUOUS
 10
-13.8277694202
 20
11.2570195088
 11
-13.8274141152
 21
11.2019348499
  0
LINE
  5
266
100
AcDbEntity
  8
RACCORDO
100
AcDbLine
 62
250
  6
CONTINUOUS
 10
-14.6706615017
 20
-10.673025615
 11
-14.6706615017
 21
-8.4906906001
  0
LINE
  5
267
100
AcDbEntity
  8
RACCORDO
100
AcDbLine
 62
250
  6
CONTINUOUS
 10
-13.9058901451
 20
12.5433227439
 11
-13.9058901451
 21
16.5729447316
  0
LINE
  5
268
100
AcDbEntity
  8
RACCORDO
100
AcDbLine
 62
250
  6
CONTINUOUS
 10
-13.8814530542
 20
16.5974274297
 11
-13.8814530542
 21
16.5973818225
  0
LINE
  5
269
100
AcDbEntity
  8
RACCORDO
100
AcDbLine
 62
250
  6
CONTINUOUS
 10
-13.827342353
 20
-8.3998854819
 11
-13.8274141152
 21
11.2019348499
  0
LINE
  5
26A
100
AcDbEntity
  8
RACCORDO
100
AcDbLine
 62
250
  6
CONTINUOUS
 10
-13.6059358366
 20
12.8331932258
 11
-13.6059358366
 21
16.2729904231
  0
LINE
  5
26B
100
AcDbEntity
  8
RACCORDO
100
AcDbLine
 62
250
  6
CONTINUOUS
 10
-13.5814530542
 20
14.3822312474
 11
-13.5814987457
 21
14.3771330132
  0
LINE
  5
26C
100
AcDbEntity
  8
RACCORDO
100
AcDbLine
 62
7
  6
CONTINUOUS
 10
-13.5814530542
 20
16.297427514
 11
-13.5814530542
 21
14.3822312474
  0
LINE
  5
26D
100
AcDbEntity
  8
RACCORDO
100
AcDbLine
 62
250
  6
CONTINUOUS
 10
-13.5277363919
 20
11.3256861338
 11
-13.5273880444
 21
-8.0947521672
  0
LINE
  5
26E
100
AcDbEntity
  8
RACCORDO
100
AcDbLine
 62
250
  6
CONTINUOUS
 10
-13.4626215244
 20
14.1958539816
 11
-13.4626215244
 21
-8.0623713735
  0
LINE
  5
26F
100
AcDbEntity
  8
RACCORDO
100
AcDbLine
 62
7
  6
CONTINUOUS
 10
-13.5814987457
 20
14.3771330132
 11
-13.5814530623
 21
14.382301141
  0
LINE
  5
270
100
AcDbEntity
  8
RACCORDO
100
AcDbLine
 62
250
  6
CONTINUOUS
 10
-14.852356243
 20
-8.1521081051
 11
-14.8528273434
 21
-8.2026255127
  0
LWPOLYLINE
  5
271
100
AcDbEntity
  8
RACCORDO
100
AcDbPolyline
 62
250
  6
CONTINUOUS
 90
8
 70
0
 10
-14.8528273434
 20
-8.2026255127
 10
-14.8535992107
 20
-8.2499481354
 10
-14.8540887987
 20
-8.2719898673
 10
-14.854646689
 20
-8.2927244041
 10
-14.855261011
 20
-8.3120053255
 10
-14.8559278078
 20
-8.3296869313
 10
-14.8566510363
 20
-8.3456281064
 10
-14.8574306964
 20
-8.3597045262
  0
LWPOLYLINE
  5
272
100
AcDbEntity
  8
0
100
AcDbPolyline
 62
7
  6
CONTINUOUS
 90
8
 70
0
 10
12.639585176
 20
-10.7226207828
 10
12.6263163989
 20
-10.7257352287
 10
12.5745642153
 20
-10.7371074717
 10
12.5195849132
 20
-10.7485078507
 10
12.4614681531
 20
-10.7599597197
 10
12.4002503831
 20
-10.7714953542
 10
12.3363229497
 20
-10.7830824787
 10
12.2703604517
 20
-10.7946476214
  0
LINE
  5
273
100
AcDbEntity
  8
0
100
AcDbLine
 62
7
  6
CONTINUOUS
 10
13.1914887229
 20
-14.611881955
 11
13.1720649499
 21
-14.611881955
  0
LINE
  5
274
100
AcDbEntity
  8
0
100
AcDbLine
 62
7
  6
CONTINUOUS
 10
12.0706377676
 20
-14.611881955
 11
11.6144299811
 21
-14.611881955
  0
LINE
  5
275
100
AcDbEntity
  8
0
100
AcDbLine
 62
7
  6
CONTINUOUS
 10
10.5129857848
 20
-14.611881955
 11
10.4935584875
 21
-14.611881955
  0
LINE
  5
276
100
AcDbEntity
  8
0
100
AcDbLine
 62
250
  6
CONTINUOUS
 10
14.5508569385
 20
-14.0002571435
 11
9.1341902718
 21
-14.0002571435
  0
LINE
  5
277
100
AcDbEntity
  8
0
100
AcDbLine
 62
250
  6
CONTINUOUS
 10
14.6425236052
 20
-13.8321384685
 11
9.0425236052
 21
-13.8321384685
  0
LINE
  5
278
100
AcDbEntity
  8
RACCORDO
100
AcDbLine
 62
250
  6
CONTINUOUS
 10
-15.1522398788
 20
-8.6998740588
 11
-14.9706158102
 21
-8.790679177
  0
LINE
  5
279
100
AcDbEntity
  8
RACCORDO
100
AcDbLine
 62
250
  6
CONTINUOUS
 10
-14.8522855703
 20
-8.3998854819
 11
-14.6706615017
 21
-8.4906906001
  0
LINE
  5
27A
100
AcDbEntity
  8
RACCORDO
100
AcDbLine
 62
250
  6
CONTINUOUS
 10
-13.8351168809
 20
11.4620967198
 11
-13.9058901451
 21
12.5433227439
  0
LINE
  5
27B
100
AcDbEntity
  8
RACCORDO
100
AcDbLine
 62
250
  6
CONTINUOUS
 10
-13.5351625724
 20
11.7519672017
 11
-13.6059358366
 21
12.8331932258
  0
LWPOLYLINE
  5
27C
100
AcDbEntity
  8
RACCORDO
100
AcDbPolyline
 62
250
  6
CONTINUOUS
 90
6
 70
0
 10
-13.5351625724
 20
11.7519672017
 10
-13.5342943395
 20
11.7364160593
 10
-13.5334606095
 20
11.716778155
 10
-13.5326613825
 20
11.6930534888
 10
-13.5318894997
 20
11.6649969693
 10
-13.5311521199
 20
11.6328536879
  0
LWPOLYLINE
  5
27D
100
AcDbEntity
  8
RACCORDO
100
AcDbPolyline
 62
250
  6
CONTINUOUS
 90
16
 70
0
 10
-13.6059358366
 20
16.2729904231
 10
-13.6076045004
 20
16.3044949741
 10
-13.6125710528
 20
16.3356426572
 10
-13.6207779296
 20
16.3660895212
 10
-13.6321241039
 20
16.3954825198
 10
-13.6464858785
 20
16.4235169229
 10
-13.6637360805
 20
16.4499307946
 10
-13.683742486
 20
16.4744742653
 10
-13.7062597838
 20
16.4968052752
 10
-13.7309270525
 20
16.516577248
 10
-13.7574256443
 20
16.5335807361
 10
-13.7854684297
 20
16.5476739637
 10
-13.8146764089
 20
16.5587119054
 10
-13.8446956008
 20
16.566617515
 10
-13.8752105131
 20
16.5713622901
 10
-13.9058901451
 20
16.5729447316
  0
LWPOLYLINE
  5
27E
100
AcDbEntity
  8
RACCORDO
100
AcDbPolyline
 62
250
  6
CONTINUOUS
 90
15
 70
0
 10
-13.5814987457
 20
16.297427514
 10
-13.5831004747
 20
16.3282936061
 10
-13.5878982139
 20
16.3589672414
 10
-13.5958828073
 20
16.3891132352
 10
-13.6070281729
 20
16.4184371925
 10
-13.6212432824
 20
16.446557735
 10
-13.6383285748
 20
16.4730323737
 10
-13.6580612855
 20
16.4975311719
 10
-13.6802496382
 20
16.5198292076
 10
-13.7046608909
 20
16.5396898248
 10
-13.7310369601
 20
16.5568958375
 10
-13.7590826829
 20
16.5712480164
 10
-13.7884779728
 20
16.5825802292
 10
-13.8188942822
 20
16.5907665812
 10
-13.850000299
 20
16.5957186404
  0
LINE
  5
27F
100
AcDbEntity
  8
RACCORDO
100
AcDbLine
 62
250
  6
CONTINUOUS
 10
-13.1626672159
 20
-8.3623599504
 11
-13.1626672159
 21
14.4801620911
  0
LWPOLYLINE
  5
280
100
AcDbEntity
  8
0
100
AcDbPolyline
 62
7
  6
CONTINUOUS
 90
15
 70
0
 10
12.2703604517
 20
-11.2987928098
 10
12.3363229497
 20
-11.2872276672
 10
12.4002503831
 20
-11.2756405426
 10
12.4614681531
 20
-11.2641049081
 10
12.5195849132
 20
-11.2526530391
 10
12.5745642153
 20
-11.2412526602
 10
12.6263163989
 20
-11.2298804171
 10
12.6746489459
 20
-11.2185358071
 10
12.7193818318
 20
-11.207219333
 10
12.7604304633
 20
-11.1959091491
 10
12.7976151711
 20
-11.1846099553
 10
12.8308054534
 20
-11.1733170517
 10
12.8599558778
 20
-11.161994493
 10
12.8849628702
 20
-11.1506167404
 10
12.9029714835
 20
-11.1408202883
  0
LWPOLYLINE
  5
281
100
AcDbEntity
  8
0
100
AcDbPolyline
 62
7
  6
CONTINUOUS
 90
15
 70
0
 10
11.4274854262
 20
-10.9323178679
 10
11.3603928826
 20
-10.9440160856
 10
11.2954290596
 20
-10.9557185509
 10
11.2332831999
 20
-10.9673494461
 10
11.1743548116
 20
-10.9788742364
 10
11.1186594383
 20
-10.9903274566
 10
11.0662558857
 20
-11.0017368933
 10
11.0174557698
 20
-11.0130722807
 10
10.972281574
 20
-11.0243638845
 10
10.9304634465
 20
-11.0357302889
 10
10.8920685704
 20
-11.0472293726
 10
10.8575633409
 20
-11.0588032569
 10
10.8273135519
 20
-11.0703968895
 10
10.8014604857
 20
-11.08201703
 10
10.7820755803
 20
-11.0924956775
  0
LINE
  5
282
100
AcDbEntity
  8
0
100
AcDbLine
 62
7
  6
CONTINUOUS
 10
12.1336462377
 20
-11.3218382723
 11
12.2703604517
 21
-11.2987928098
  0
LINE
  5
283
100
AcDbEntity
  8
0
100
AcDbLine
 62
7
  6
CONTINUOUS
 10
12.2703604517
 20
-10.7946476214
 11
12.1336462377
 21
-10.8176930839
  0
LINE
  5
284
100
AcDbEntity
  8
0
100
AcDbLine
 62
7
  6
CONTINUOUS
 10
11.4274854262
 20
-11.4364630563
 11
11.5668298228
 21
-11.4130814562
  0
LINE
  5
285
100
AcDbEntity
  8
0
100
AcDbLine
 62
7
  6
CONTINUOUS
 10
11.5668298228
 20
-10.9089362677
 11
11.4274854262
 21
-10.9323178679
  0
LWPOLYLINE
  5
286
100
AcDbEntity
  8
0
100
AcDbPolyline
 62
7
  6
CONTINUOUS
 90
3
 70
0
 10
11.5668298228
 20
-11.4130814562
 10
11.8523370021
 20
-11.3671686951
 10
12.1336462377
 20
-11.3218382723
  0
LINE
  5
287
100
AcDbEntity
  8
0
100
AcDbLine
 62
7
  6
CONTINUOUS
 10
12.1336462377
 20
-10.8176930839
 11
11.5668298228
 21
-10.9089362677
  0
LWPOLYLINE
  5
288
100
AcDbEntity
  8
0
100
AcDbPolyline
 62
7
  6
CONTINUOUS
 90
15
 70
0
 10
12.5437336376
 20
-11.0782902682
 10
12.6220420942
 20
-11.0672902682
 10
12.6972741469
 20
-11.0562902682
 10
12.7691328895
 20
-11.0452902682
 10
12.8373347286
 20
-11.0342902682
 10
12.9016105028
 20
-11.0232902682
 10
12.9617065453
 20
-11.0122902682
 10
13.0173856846
 20
-11.0012902682
 10
13.0684281809
 20
-10.9902902682
 10
13.114632593
 20
-10.9792902682
 10
13.1558165735
 20
-10.9682902682
 10
13.1918175881
 20
-10.9572902682
 10
13.2224935577
 20
-10.9462902682
 10
13.2477234184
 20
-10.9352902682
 10
13.261821184
 20
-10.9277489898
  0
LWPOLYLINE
  5
289
100
AcDbEntity
  8
0
100
AcDbPolyline
 62
7
  6
CONTINUOUS
 90
18
 70
0
 10
12.5437336376
 20
-10.9782902682
 10
12.6220420942
 20
-10.9672902682
 10
12.6972741469
 20
-10.9562902682
 10
12.7691328895
 20
-10.9452902682
 10
12.8373347286
 20
-10.9342902682
 10
12.9016105028
 20
-10.9232902682
 10
12.9617065453
 20
-10.9122902682
 10
13.0173856846
 20
-10.9012902682
 10
13.0684281809
 20
-10.8902902682
 10
13.114632593
 20
-10.8792902682
 10
13.1558165735
 20
-10.8682902682
 10
13.1918175881
 20
-10.8572902682
 10
13.2224935577
 20
-10.8462902682
 10
13.2477234184
 20
-10.8352902682
 10
13.2674075996
 20
-10.8242902682
 10
13.2814684172
 20
-10.8132902682
 10
13.2898503797
 20
-10.8022902682
 10
13.2925236052
 20
-10.7916579377
  0
LINE
  5
28A
100
AcDbEntity
  8
0
100
AcDbLine
 62
7
  6
CONTINUOUS
 10
12.3791346248
 20
-11.1002902682
 11
12.5437336376
 21
-11.0782902682
  0
LINE
  5
28B
100
AcDbEntity
  8
0
100
AcDbLine
 62
7
  6
CONTINUOUS
 10
12.3791346248
 20
-11.0002902682
 11
12.5437336376
 21
-10.9782902682
  0
LINE
  5
28C
100
AcDbEntity
  8
0
100
AcDbLine
 62
7
  6
CONTINUOUS
 10
11.1466510195
 20
-11.2542902682
 11
11.3115757419
 21
-11.2322902682
  0
LINE
  5
28D
100
AcDbEntity
  8
0
100
AcDbLine
 62
7
  6
CONTINUOUS
 10
11.1466510195
 20
-11.1542902682
 11
11.3115757419
 21
-11.1322902682
  0
LINE
  5
28E
100
AcDbEntity
  8
0
100
AcDbLine
 62
7
  6
CONTINUOUS
 10
12.2060729321
 20
-11.1222902682
 11
12.3791346248
 21
-11.1002902682
  0
LINE
  5
28F
100
AcDbEntity
  8
0
100
AcDbLine
 62
7
  6
CONTINUOUS
 10
12.2060729321
 20
-11.0222902682
 11
12.3791346248
 21
-11.0002902682
  0
LINE
  5
290
100
AcDbEntity
  8
0
100
AcDbLine
 62
7
  6
CONTINUOUS
 10
11.3115757419
 20
-11.2322902682
 11
11.4848738262
 21
-11.2102902682
  0
LINE
  5
291
100
AcDbEntity
  8
0
100
AcDbLine
 62
7
  6
CONTINUOUS
 10
11.3115757419
 20
-11.1322902682
 11
11.4848738262
 21
-11.1102902682
  0
LWPOLYLINE
  5
292
100
AcDbEntity
  8
0
100
AcDbPolyline
 62
7
  6
CONTINUOUS
 90
3
 70
0
 10
11.4848738262
 20
-11.2102902682
 10
11.8455690679
 20
-11.1662902682
 10
12.2060729321
 20
-11.1222902682
  0
LWPOLYLINE
  5
293
100
AcDbEntity
  8
0
100
AcDbPolyline
 62
7
  6
CONTINUOUS
 90
3
 70
0
 10
11.4848738262
 20
-11.1102902682
 10
11.8455690679
 20
-11.0662902682
 10
12.2060729321
 20
-11.0222902682
  0
LINE
  5
294
100
AcDbEntity
  8
0
100
AcDbLine
 62
250
  6
CONTINUOUS
 10
14.6425236052
 20
-12.7972902682
 11
9.0425236052
 21
-12.7972902682
  0
LINE
  5
295
100
AcDbEntity
  8
0
100
AcDbLine
 62
7
  6
CONTINUOUS
 10
14.4425236052
 20
-12.5972902682
 11
9.2425236052
 21
-12.5972902682
  0
LINE
  5
296
100
AcDbEntity
  8
RACCORDO
100
AcDbLine
 62
250
  6
CONTINUOUS
 10
10.5425236052
 20
-12.4972902682
 11
13.1425236052
 21
-12.4972902682
  0
LINE
  5
297
100
AcDbEntity
  8
0
100
AcDbLine
 62
7
  6
CONTINUOUS
 10
10.5425236052
 20
-12.212760322
 11
13.1425236052
 21
-12.212760322
  0
LINE
  5
298
100
AcDbEntity
  8
0
100
AcDbLine
 62
7
  6
CONTINUOUS
 10
10.7425236052
 20
-12.0972902682
 11
12.9425236052
 21
-12.0972902682
  0
LINE
  5
299
100
AcDbEntity
  8
0
100
AcDbLine
 62
7
  6
CONTINUOUS
 10
12.9019371905
 20
-12.0393628624
 11
12.9425236052
 21
-12.0393628624
  0
LWPOLYLINE
  5
29A
100
AcDbEntity
  8
0
100
AcDbPolyline
 62
7
  6
CONTINUOUS
 90
25
 70
0
 10
10.6815595683
 20
-14.653400076
 10
10.7224290286
 20
-14.6615475309
 10
10.7432762955
 20
-14.6656164582
 10
10.764149219
 20
-14.6695718011
 10
10.7850691494
 20
-14.6734201074
 10
10.8060250655
 20
-14.6771593541
 10
10.8269749304
 20
-14.6807795788
 10
10.8478955219
 20
-14.6842789732
 10
10.8688208919
 20
-14.6876650611
 10
10.8897986793
 20
-14.6909422991
 10
10.9107781349
 20
-14.6941061721
 10
10.9318242553
 20
-14.6971665523
 10
10.9531683662
 20
-14.70014831
 10
10.9748036655
 20
-14.7030540726
 10
10.9967628737
 20
-14.7058840959
 10
11.0193570748
 20
-14.7086578124
 10
11.0426204826
 20
-14.7113832569
 10
11.066565398
 20
-14.7140533653
 10
11.0915065964
 20
-14.7166642974
 10
11.1175168531
 20
-14.7192290536
 10
11.1446068982
 20
-14.721735855
 10
11.1730655166
 20
-14.7241458667
 10
11.2030665196
 20
-14.726448798
 10
11.2346151677
 20
-14.728660716
 10
11.2677898634
 20
-14.730784198
  0
LWPOLYLINE
  5
29B
100
AcDbEntity
  8
RACCORDO
100
AcDbPolyline
 62
7
  6
CONTINUOUS
 90
12
 70
0
 10
-15.1982758537
 20
12.3399327387
 10
-15.1905023518
 20
12.3033654799
 10
-15.1778972441
 20
12.2679799012
 10
-15.1606391636
 20
12.23436056
 10
-15.1389969608
 20
12.2030994044
 10
-15.113341666
 20
12.1747758665
 10
-15.0841611129
 20
12.1499291734
 10
-15.0518892167
 20
12.128916968
 10
-15.016877851
 20
12.1120170892
 10
-14.9796178449
 20
12.0995751176
 10
-14.9407797894
 20
12.0919259434
 10
-14.9010226464
 20
12.0892910484
  0
LWPOLYLINE
  5
29C
100
AcDbEntity
  8
RACCORDO
100
AcDbPolyline
 62
250
  6
CONTINUOUS
 90
10
 70
0
 10
-13.8351168809
 20
11.4620967198
 10
-13.8345893474
 20
11.4576920009
 10
-13.834056437
 20
11.4522938894
 10
-13.8335181495
 20
11.4458228397
 10
-13.8329711703
 20
11.4382131713
 10
-13.8324188141
 20
11.4293844041
 10
-13.8318710256
 20
11.419230467
 10
-13.831326241
 20
11.4076884809
 10
-13.8307860241
 20
11.3946928974
 10
-13.8302650108
 20
11.3801215118
  0
LWPOLYLINE
  5
29D
100
AcDbEntity
  8
RACCORDO
100
AcDbPolyline
 62
250
  6
CONTINUOUS
 90
5
 70
0
 10
13.8425236052
 20
-8.4540529865
 10
13.8360626432
 20
-8.4554106808
 10
13.8184227204
 20
-8.4567401675
 10
13.7896038366
 20
-8.4580414466
 10
13.7596275431
 20
-8.4587648469
  0
LWPOLYLINE
  5
29E
100
AcDbEntity
  8
RACCORDO
100
AcDbPolyline
 62
7
  6
CONTINUOUS
 90
7
 70
0
 10
9.9318094737
 20
-10.7502616587
 10
9.9333576662
 20
-10.7500941589
 10
9.9367868754
 20
-10.7497561454
 10
9.9415660831
 20
-10.7493252141
 10
9.9475942056
 20
-10.748824104
 10
9.9550056841
 20
-10.7482541321
 10
9.9635403049
 20
-10.7476449531
  0
LWPOLYLINE
  5
29F
100
AcDbEntity
  8
RACCORDO
100
AcDbPolyline
 62
250
  6
CONTINUOUS
 90
13
 70
0
 10
14.355708712
 20
-10.673025615
 10
14.3948516001
 20
-10.6704465164
 10
14.4333250564
 20
-10.6627819395
 10
14.4704710931
 20
-10.6501629648
 10
14.5056544374
 20
-10.6328053976
 10
14.5382733542
 20
-10.6110060962
 10
14.5677699483
 20
-10.5851379119
 10
14.593639752
 20
-10.5556432858
 10
14.6154403661
 20
-10.5230266379
 10
14.6327989783
 20
-10.4878457611
 10
14.6454187216
 20
-10.450702317
 10
14.6530837651
 20
-10.4122315541
 10
14.6556630206
 20
-10.3730914099
  0
LINE
  5
2A0
100
AcDbEntity
  8
RACCORDO
100
AcDbLine
 62
7
  6
CONTINUOUS
 10
9.9635403049
 20
-10.7476449531
 11
9.9839189032
 21
-10.7463367171
  0
LINE
  5
2A1
100
AcDbEntity
  8
RACCORDO
100
AcDbLine
 62
7
  6
CONTINUOUS
 10
9.9839189032
 20
-10.7463367171
 11
10.008586765
 21
-10.7449459389
  0
LINE
  5
2A2
100
AcDbEntity
  8
RACCORDO
100
AcDbLine
 62
7
  6
CONTINUOUS
 10
10.008586765
 20
-10.7449459389
 11
10.0374534428
 21
-10.7435025662
  0
LWPOLYLINE
  5
2A3
100
AcDbEntity
  8
RACCORDO
100
AcDbPolyline
 62
250
  6
CONTINUOUS
 90
4
 70
0
 10
13.700422064
 20
-10.7764239444
 10
13.6397227165
 20
-10.7792971666
 10
13.5686901245
 20
-10.7820701238
 10
13.4875086973
 20
-10.7847398735
  0
LWPOLYLINE
  5
2A4
100
AcDbEntity
  8
RACCORDO
100
AcDbPolyline
 62
250
  6
CONTINUOUS
 90
3
 70
0
 10
9.9846251464
 20
-10.7454067299
 10
10.0453244943
 20
-10.7425335077
 10
10.0704147777
 20
-10.7420273138
  0
LINE
  5
2A5
100
AcDbEntity
  8
RACCORDO
100
AcDbLine
 62
7
  6
CONTINUOUS
 10
10.0374534428
 20
-10.7435025662
 11
10.0704147777
 21
-10.7420273138
  0
LWPOLYLINE
  5
2A6
100
AcDbEntity
  8
RACCORDO
100
AcDbPolyline
 62
250
  6
CONTINUOUS
 90
3
 70
0
 10
10.1073311126
 20
-10.7405371666
 10
10.1163570862
 20
-10.7397605505
 10
10.1272581693
 20
-10.7397914968
  0
LINE
  5
2A7
100
AcDbEntity
  8
RACCORDO
100
AcDbLine
 62
7
  6
CONTINUOUS
 10
10.0704147777
 20
-10.7420273138
 11
10.1272581693
 21
-10.7397914968
  0
LINE
  5
2A8
100
AcDbEntity
  8
RACCORDO
100
AcDbLine
 62
250
  6
CONTINUOUS
 10
10.1699918278
 20
-10.7383086149
 11
10.1975385131
 21
-10.7370908008
  0
LINE
  5
2A9
100
AcDbEntity
  8
RACCORDO
100
AcDbLine
 62
7
  6
CONTINUOUS
 10
10.1272581693
 20
-10.7397914968
 11
10.1928007121
 21
-10.7375734839
  0
LINE
  5
2AA
100
AcDbEntity
  8
RACCORDO
100
AcDbLine
 62
7
  6
CONTINUOUS
 10
10.1928007121
 20
-10.7375734839
 11
10.2935085978
 21
-10.7346920753
  0
LINE
  5
2AB
100
AcDbEntity
  8
RACCORDO
100
AcDbLine
 62
250
  6
CONTINUOUS
 10
13.4875086973
 20
-10.7847398735
 11
13.298720673
 21
-10.7896297381
  0
LINE
  5
2AC
100
AcDbEntity
  8
RACCORDO
100
AcDbLine
 62
250
  6
CONTINUOUS
 10
10.2874825778
 20
-10.7345699604
 11
10.2935085978
 21
-10.7346920753
  0
LWPOLYLINE
  5
2AD
100
AcDbEntity
  8
RACCORDO
100
AcDbPolyline
 62
250
  6
CONTINUOUS
 90
3
 70
0
 10
10.3789010201
 20
-10.7325992577
 10
10.3863265372
 20
-10.7322009362
 10
10.4404619501
 20
-10.7312510362
  0
LINE
  5
2AE
100
AcDbEntity
  8
RACCORDO
100
AcDbLine
 62
7
  6
CONTINUOUS
 10
10.2935085978
 20
-10.7346920753
 11
10.4404619501
 21
-10.7312510362
  0
LINE
  5
2AF
100
AcDbEntity
  8
RACCORDO
100
AcDbLine
 62
250
  6
CONTINUOUS
 10
13.298720673
 20
-10.7896297381
 11
13.2924844144
 21
-10.7897584032
  0
LINE
  5
2B0
100
AcDbEntity
  8
RACCORDO
100
AcDbLine
 62
250
  6
CONTINUOUS
 10
10.4726377589
 20
-10.7305939655
 11
10.4939331345
 21
-10.7299808212
  0
LINE
  5
2B1
100
AcDbEntity
  8
RACCORDO
100
AcDbLine
 62
7
  6
CONTINUOUS
 10
10.4404619501
 20
-10.7312510362
 11
10.6474233761
 21
-10.7274938175
  0
LINE
  5
2B2
100
AcDbEntity
  8
RACCORDO
100
AcDbLine
 62
250
  6
CONTINUOUS
 10
10.6085044012
 20
-10.7279465964
 11
10.6474233761
 21
-10.7274938175
  0
LINE
  5
2B3
100
AcDbEntity
  8
RACCORDO
100
AcDbLine
 62
7
  6
CONTINUOUS
 10
10.6474233761
 20
-10.7274938175
 11
10.8872056088
 21
-10.724247552
  0
LINE
  5
2B4
100
AcDbEntity
  8
RACCORDO
100
AcDbLine
 62
250
  6
CONTINUOUS
 10
10.8587905501
 20
-10.7244417814
 11
10.8872056088
 21
-10.724247552
  0
LINE
  5
2B5
100
AcDbEntity
  8
RACCORDO
100
AcDbLine
 62
7
  6
CONTINUOUS
 10
10.8872056088
 20
-10.724247552
 11
11.1583889168
 21
-10.7216669737
  0
LINE
  5
2B6
100
AcDbEntity
  8
RACCORDO
100
AcDbLine
 62
250
  6
CONTINUOUS
 10
11.1304953427
 20
-10.721768309
 11
11.1583889168
 21
-10.7216669737
  0
LINE
  5
2B7
100
AcDbEntity
  8
RACCORDO
100
AcDbLine
 62
7
  6
CONTINUOUS
 10
11.1583889168
 20
-10.7216669737
 11
11.4574031992
 21
-10.7199186453
  0
LINE
  5
2B8
100
AcDbEntity
  8
RACCORDO
100
AcDbLine
 62
250
  6
CONTINUOUS
 10
11.4190427213
 20
-10.7199712172
 11
11.4574031992
 21
-10.7199186453
  0
LINE
  5
2B9
100
AcDbEntity
  8
RACCORDO
100
AcDbLine
 62
7
  6
CONTINUOUS
 10
11.4574031992
 20
-10.7199186453
 11
11.7735411917
 21
-10.7191531336
  0
LINE
  5
2BA
100
AcDbEntity
  8
RACCORDO
100
AcDbLine
 62
250
  6
CONTINUOUS
 10
11.7172251576
 20
-10.7191055987
 11
11.7735411917
 21
-10.7191531336
  0
LINE
  5
2BB
100
AcDbEntity
  8
RACCORDO
100
AcDbLine
 62
7
  6
CONTINUOUS
 10
-14.8575403618
 20
-10.8972902682
 11
10.7425236052
 21
-10.8972902682
  0
LINE
  5
2BC
100
AcDbEntity
  8
RACCORDO
100
AcDbLine
 62
7
  6
CONTINUOUS
 10
13.2925236052
 20
-10.8972902682
 11
14.5425875722
 21
-10.8972902682
  0
LINE
  5
2BD
100
AcDbEntity
  8
RACCORDO
100
AcDbLine
 62
250
  6
CONTINUOUS
 10
-14.6706615017
 20
-10.673025615
 11
14.355708712
 21
-10.673025615
  0
LINE
  5
2BE
100
AcDbEntity
  8
RACCORDO
100
AcDbLine
 62
250
  6
CONTINUOUS
 10
14.6556630206
 20
-10.3730914099
 11
-14.9706158102
 21
-10.3730914099
  0
LINE
  5
2BF
100
AcDbEntity
  8
RACCORDO
100
AcDbLine
 62
7
  6
CONTINUOUS
 10
11.7735411917
 20
-10.7191531336
 11
12.0920405305
 21
-10.7194534687
  0
LINE
  5
2C0
100
AcDbEntity
  8
RACCORDO
100
AcDbLine
 62
250
  6
CONTINUOUS
 10
12.0173900007
 20
-10.7191837902
 11
12.0920405305
 21
-10.7194534687
  0
LINE
  5
2C1
100
AcDbEntity
  8
RACCORDO
100
AcDbLine
 62
250
  6
CONTINUOUS
 10
12.1442738302
 20
-10.7196072823
 11
12.1672693196
 21
-10.7195793268
  0
LINE
  5
2C2
100
AcDbEntity
  8
RACCORDO
100
AcDbLine
 62
7
  6
CONTINUOUS
 10
12.0920405305
 20
-10.7194534687
 11
12.3978645386
 21
-10.7207849082
  0
LINE
  5
2C3
100
AcDbEntity
  8
RACCORDO
100
AcDbLine
 62
7
  6
CONTINUOUS
 10
12.3978645386
 20
-10.7207849082
 11
12.6781382496
 21
-10.7229846525
  0
LINE
  5
2C4
100
AcDbEntity
  8
RACCORDO
100
AcDbLine
 62
7
  6
CONTINUOUS
 10
12.6781382496
 20
-10.7229846525
 11
12.9659718804
 21
-10.7264104089
  0
LINE
  5
2C5
100
AcDbEntity
  8
RACCORDO
100
AcDbLine
 62
250
  6
CONTINUOUS
 10
10.7425236052
 20
-10.7958665445
 11
10.5697037653
 21
-10.7932303387
  0
LINE
  5
2C6
100
AcDbEntity
  8
RACCORDO
100
AcDbLine
 62
7
  6
CONTINUOUS
 10
12.9659718804
 20
-10.7264104089
 11
13.1780233746
 21
-10.7299259393
  0
LINE
  5
2C7
100
AcDbEntity
  8
RACCORDO
100
AcDbLine
 62
250
  6
CONTINUOUS
 10
10.5697037653
 20
-10.7932303387
 11
10.3516686165
 21
-10.7888208045
  0
LINE
  5
2C8
100
AcDbEntity
  8
RACCORDO
100
AcDbLine
 62
7
  6
CONTINUOUS
 10
13.1780233746
 20
-10.7299259393
 11
13.330129124
 21
-10.7331564658
  0
LINE
  5
2C9
100
AcDbEntity
  8
RACCORDO
100
AcDbLine
 62
7
  6
CONTINUOUS
 10
13.330129124
 20
-10.7331564658
 11
13.4359118861
 21
-10.735899737
  0
LWPOLYLINE
  5
2CA
100
AcDbEntity
  8
RACCORDO
100
AcDbPolyline
 62
250
  6
CONTINUOUS
 90
5
 70
0
 10
10.3516686165
 20
-10.7888208045
 10
10.1726493862
 20
-10.7839888519
 10
10.0990677286
 20
-10.7814531266
 10
10.0346053705
 20
-10.7788300147
 10
9.9787170578
 20
-10.7761331617
  0
LINE
  5
2CB
100
AcDbEntity
  8
RACCORDO
100
AcDbLine
 62
250
  6
CONTINUOUS
 10
13.4286482531
 20
-10.7353959881
 11
13.4359118861
 21
-10.735899737
  0
LINE
  5
2CC
100
AcDbEntity
  8
RACCORDO
100
AcDbLine
 62
250
  6
CONTINUOUS
 10
13.4601476196
 20
-10.736599476
 11
13.5123978239
 21
-10.7378418224
  0
LINE
  5
2CD
100
AcDbEntity
  8
RACCORDO
100
AcDbLine
 62
7
  6
CONTINUOUS
 10
13.4359118861
 20
-10.735899737
 11
13.5059419284
 21
-10.7380135716
  0
LWPOLYLINE
  5
2CE
100
AcDbEntity
  8
0
100
AcDbPolyline
 62
7
  6
CONTINUOUS
 90
7
 70
0
 10
10.5129857848
 20
-14.611881955
 10
10.5408811535
 20
-14.6192024947
 10
10.5688566236
 20
-14.6263626915
 10
10.5969121978
 20
-14.6333625468
 10
10.6250478783
 20
-14.6402020618
 10
10.6532636677
 20
-14.6468812378
 10
10.6815595683
 20
-14.653400076
  0
LINE
  5
2CF
100
AcDbEntity
  8
0
100
AcDbLine
 62
7
  6
CONTINUOUS
 10
12.1217966082
 20
-14.6573626527
 11
12.1077782674
 21
-14.6534000743
  0
LWPOLYLINE
  5
2D0
100
AcDbEntity
  8
RACCORDO
100
AcDbPolyline
 62
250
  6
CONTINUOUS
 90
3
 70
0
 10
-13.4667924508
 20
14.2458289877
 10
-13.4651710038
 20
14.2350094852
 10
-13.4626215244
 20
14.1958539816
  0
LWPOLYLINE
  5
2D1
100
AcDbEntity
  8
RACCORDO
100
AcDbPolyline
 62
250
  6
CONTINUOUS
 90
6
 70
0
 10
9.8425236052
 20
-8.4540529865
 10
9.8489845674
 20
-8.4526952921
 10
9.8666244905
 20
-8.4513658054
 10
9.8954433742
 20
-8.4500645263
 10
9.9357337955
 20
-8.4487860865
 10
9.9872031775
 20
-8.4475358544
  0
LWPOLYLINE
  5
2D2
100
AcDbEntity
  8
0
100
AcDbPolyline
 62
7
  6
CONTINUOUS
 90
15
 70
0
 10
12.2703604517
 20
-7.9987928098
 10
12.3363229497
 20
-7.9872276672
 10
12.4002503831
 20
-7.9756405426
 10
12.4614681531
 20
-7.9641049081
 10
12.5195849132
 20
-7.9526530391
 10
12.5745642153
 20
-7.9412526602
 10
12.6263163989
 20
-7.9298804171
 10
12.6746489459
 20
-7.9185358071
 10
12.7193818318
 20
-7.907219333
 10
12.7604304633
 20
-7.8959091491
 10
12.7976151711
 20
-7.8846099553
 10
12.8308054534
 20
-7.8733170517
 10
12.8599558778
 20
-7.861994493
 10
12.8849628702
 20
-7.8506167404
 10
12.9029714835
 20
-7.8408202883
  0
LWPOLYLINE
  5
2D3
100
AcDbEntity
  8
0
100
AcDbPolyline
 62
7
  6
CONTINUOUS
 90
15
 70
0
 10
11.4274854262
 20
-7.6323178679
 10
11.3603928826
 20
-7.6440160856
 10
11.2954290596
 20
-7.6557185509
 10
11.2332831999
 20
-7.6673494461
 10
11.1743548116
 20
-7.6788742364
 10
11.1186594383
 20
-7.6903274566
 10
11.0662558857
 20
-7.7017368933
 10
11.0174557698
 20
-7.7130722807
 10
10.972281574
 20
-7.7243638845
 10
10.9304634465
 20
-7.7357302889
 10
10.8920685704
 20
-7.7472293726
 10
10.8575633409
 20
-7.7588032569
 10
10.8273135519
 20
-7.7703968895
 10
10.8014604857
 20
-7.78201703
 10
10.7820800824
 20
-7.7924929812
  0
LWPOLYLINE
  5
2D4
100
AcDbEntity
  8
0
100
AcDbPolyline
 62
7
  6
CONTINUOUS
 90
15
 70
0
 10
12.2540677562
 20
-6.9015976421
 10
12.3212498488
 20
-6.8899016847
 10
12.3863226201
 20
-6.8782008698
 10
12.4485951901
 20
-6.866571012
 10
12.5076298071
 20
-6.8550539618
 10
12.5634504095
 20
-6.8436078687
 10
12.6160957019
 20
-6.8321829956
 10
12.6652920411
 20
-6.8207954654
 10
12.7109267231
 20
-6.8094291552
 10
12.7531733072
 20
-6.7979859596
 10
12.7919492523
 20
-6.786410924
 10
12.8267921954
 20
-6.774759003
 10
12.8573013461
 20
-6.7630969548
 10
12.8833361312
 20
-6.7514216819
 10
12.9029714619
 20
-6.7408197514
  0
LINE
  5
2D5
100
AcDbEntity
  8
0
100
AcDbLine
 62
7
  6
CONTINUOUS
 10
11.4129589306
 20
-7.0389665198
 11
11.548631096
 21
-7.0160797462
  0
LINE
  5
2D6
100
AcDbEntity
  8
0
100
AcDbLine
 62
7
  6
CONTINUOUS
 10
12.1336462377
 20
-8.0218382723
 11
12.2703604517
 21
-7.9987928098
  0
LINE
  5
2D7
100
AcDbEntity
  8
0
100
AcDbLine
 62
7
  6
CONTINUOUS
 10
12.2703604517
 20
-7.4946476214
 11
12.1336462377
 21
-7.5176930839
  0
LINE
  5
2D8
100
AcDbEntity
  8
0
100
AcDbLine
 62
7
  6
CONTINUOUS
 10
11.4274854262
 20
-8.1364630563
 11
11.5668298228
 21
-8.1130814562
  0
LINE
  5
2D9
100
AcDbEntity
  8
0
100
AcDbLine
 62
7
  6
CONTINUOUS
 10
11.5668298228
 20
-7.6089362677
 11
11.4274854262
 21
-7.6323178679
  0
LINE
  5
2DA
100
AcDbEntity
  8
0
100
AcDbLine
 62
7
  6
CONTINUOUS
 10
12.114603479
 20
-6.9249730768
 11
12.2540677562
 21
-6.9015976421
  0
LWPOLYLINE
  5
2DB
100
AcDbEntity
  8
0
100
AcDbPolyline
 62
7
  6
CONTINUOUS
 90
3
 70
0
 10
11.5668298228
 20
-8.1130814562
 10
11.8523370021
 20
-8.0671686951
 10
12.1336462377
 20
-8.0218382723
  0
LINE
  5
2DC
100
AcDbEntity
  8
0
100
AcDbLine
 62
7
  6
CONTINUOUS
 10
12.1336462377
 20
-7.5176930839
 11
11.5668298228
 21
-7.6089362677
  0
LWPOLYLINE
  5
2DD
100
AcDbEntity
  8
0
100
AcDbPolyline
 62
7
  6
CONTINUOUS
 90
15
 70
0
 10
12.5437336376
 20
-7.7782902682
 10
12.6220420942
 20
-7.7672902682
 10
12.6972741469
 20
-7.7562902682
 10
12.7691328895
 20
-7.7452902682
 10
12.8373347286
 20
-7.7342902682
 10
12.9016105028
 20
-7.7232902682
 10
12.9617065453
 20
-7.7122902682
 10
13.0173856846
 20
-7.7012902682
 10
13.0684281809
 20
-7.6902902682
 10
13.114632593
 20
-7.6792902682
 10
13.1558165735
 20
-7.6682902682
 10
13.1918175881
 20
-7.6572902682
 10
13.2224935577
 20
-7.6462902682
 10
13.2477234184
 20
-7.6352902682
 10
13.261821184
 20
-7.6277489898
  0
LWPOLYLINE
  5
2DE
100
AcDbEntity
  8
0
100
AcDbPolyline
 62
7
  6
CONTINUOUS
 90
18
 70
0
 10
12.5437336376
 20
-7.6782902682
 10
12.6220420942
 20
-7.6672902682
 10
12.6972741469
 20
-7.6562902682
 10
12.7691328895
 20
-7.6452902682
 10
12.8373347286
 20
-7.6342902682
 10
12.9016105028
 20
-7.6232902682
 10
12.9617065453
 20
-7.6122902682
 10
13.0173856846
 20
-7.6012902682
 10
13.0684281809
 20
-7.5902902682
 10
13.114632593
 20
-7.5792902682
 10
13.1558165735
 20
-7.5682902682
 10
13.1918175881
 20
-7.5572902682
 10
13.2224935577
 20
-7.5462902682
 10
13.2477234184
 20
-7.5352902682
 10
13.2674075996
 20
-7.5242902682
 10
13.2814684172
 20
-7.5132902682
 10
13.2898503797
 20
-7.5022902682
 10
13.2925236052
 20
-7.4916579377
  0
LINE
  5
2DF
100
AcDbEntity
  8
0
100
AcDbLine
 62
7
  6
CONTINUOUS
 10
12.3791346248
 20
-7.8002902682
 11
12.5437336376
 21
-7.7782902682
  0
LINE
  5
2E0
100
AcDbEntity
  8
0
100
AcDbLine
 62
7
  6
CONTINUOUS
 10
12.3791346248
 20
-7.7002902682
 11
12.5437336376
 21
-7.6782902682
  0
LINE
  5
2E1
100
AcDbEntity
  8
0
100
AcDbLine
 62
7
  6
CONTINUOUS
 10
11.1466510195
 20
-7.9542902682
 11
11.3115757419
 21
-7.9322902682
  0
LINE
  5
2E2
100
AcDbEntity
  8
0
100
AcDbLine
 62
7
  6
CONTINUOUS
 10
11.1466510195
 20
-7.8542902682
 11
11.3115757419
 21
-7.8322902682
  0
LINE
  5
2E3
100
AcDbEntity
  8
0
100
AcDbLine
 62
7
  6
CONTINUOUS
 10
12.2060729321
 20
-7.8222902682
 11
12.3791346248
 21
-7.8002902682
  0
LINE
  5
2E4
100
AcDbEntity
  8
0
100
AcDbLine
 62
7
  6
CONTINUOUS
 10
12.2060729321
 20
-7.7222902682
 11
12.3791346248
 21
-7.7002902682
  0
LINE
  5
2E5
100
AcDbEntity
  8
0
100
AcDbLine
 62
7
  6
CONTINUOUS
 10
11.3115757419
 20
-7.9322902682
 11
11.4848738262
 21
-7.9102902682
  0
LINE
  5
2E6
100
AcDbEntity
  8
0
100
AcDbLine
 62
7
  6
CONTINUOUS
 10
11.3115757419
 20
-7.8322902682
 11
11.4848738262
 21
-7.8102902682
  0
LWPOLYLINE
  5
2E7
100
AcDbEntity
  8
0
100
AcDbPolyline
 62
7
  6
CONTINUOUS
 90
3
 70
0
 10
11.4848738262
 20
-7.9102902682
 10
11.8455690679
 20
-7.8662902682
 10
12.2060729321
 20
-7.8222902682
  0
LWPOLYLINE
  5
2E8
100
AcDbEntity
  8
0
100
AcDbPolyline
 62
7
  6
CONTINUOUS
 90
3
 70
0
 10
11.4848738262
 20
-7.8102902682
 10
11.8455690679
 20
-7.7662902682
 10
12.2060729321
 20
-7.7222902682
  0
LWPOLYLINE
  5
2E9
100
AcDbEntity
  8
RACCORDO
100
AcDbPolyline
 62
7
  6
CONTINUOUS
 90
3
 70
0
 10
13.7923421369
 20
-8.4574199756
 10
13.7915495516
 20
-8.4574679244
 10
13.7898389457
 20
-8.4575624128
  0
LINE
  5
2EA
100
AcDbEntity
  8
RACCORDO
100
AcDbLine
 62
7
  6
CONTINUOUS
 10
13.7898389457
 20
-8.4575624128
 11
13.7843843324
 21
-8.457827224
  0
LINE
  5
2EB
100
AcDbEntity
  8
RACCORDO
100
AcDbLine
 62
7
  6
CONTINUOUS
 10
13.7843843324
 20
-8.457827224
 11
13.77625652
 21
-8.4581684735
  0
LINE
  5
2EC
100
AcDbEntity
  8
RACCORDO
100
AcDbLine
 62
7
  6
CONTINUOUS
 10
13.77625652
 20
-8.4581684735
 11
13.7596275431
 21
-8.4587648469
  0
LWPOLYLINE
  5
2ED
100
AcDbEntity
  8
RACCORDO
100
AcDbPolyline
 62
250
  6
CONTINUOUS
 90
3
 70
0
 10
13.7530050153
 20
-8.4589774688
 10
13.7493134152
 20
-8.4593198864
 10
13.7211879351
 20
-8.4598703228
  0
LINE
  5
2EE
100
AcDbEntity
  8
RACCORDO
100
AcDbLine
 62
7
  6
CONTINUOUS
 10
13.7596275431
 20
-8.4587648469
 11
13.7381435428
 21
-8.4594174322
  0
LINE
  5
2EF
100
AcDbEntity
  8
RACCORDO
100
AcDbLine
 62
7
  6
CONTINUOUS
 10
13.7381435428
 20
-8.4594174322
 11
13.7211879351
 21
-8.4598703228
  0
LINE
  5
2F0
100
AcDbEntity
  8
RACCORDO
100
AcDbLine
 62
7
  6
CONTINUOUS
 10
13.5059419284
 20
-10.7380135716
 11
13.5678764622
 21
-10.7401643165
  0
LINE
  5
2F1
100
AcDbEntity
  8
RACCORDO
100
AcDbLine
 62
250
  6
CONTINUOUS
 10
13.6376266925
 20
-10.7430396283
 11
13.6504418394
 21
-10.7430006596
  0
LINE
  5
2F2
100
AcDbEntity
  8
RACCORDO
100
AcDbLine
 62
7
  6
CONTINUOUS
 10
13.5678764622
 20
-10.7401643165
 11
13.6215849311
 21
-10.7423251662
  0
LINE
  5
2F3
100
AcDbEntity
  8
RACCORDO
100
AcDbLine
 62
7
  6
CONTINUOUS
 10
13.6215849311
 20
-10.7423251662
 11
13.6527376234
 21
-10.7437486405
  0
LWPOLYLINE
  5
2F4
100
AcDbEntity
  8
RACCORDO
100
AcDbPolyline
 62
250
  6
CONTINUOUS
 90
7
 70
0
 10
13.6504418394
 20
-10.7430006596
 10
13.7063301526
 20
-10.7456975126
 10
13.7530991666
 20
-10.7484817522
 10
13.7901617336
 20
-10.7513918112
 10
13.8173221377
 20
-10.7544405005
 10
13.8347760949
 20
-10.7576150091
 10
13.8425236052
 20
-10.7609153372
  0
LINE
  5
2F5
100
AcDbEntity
  8
RACCORDO
100
AcDbLine
 62
7
  6
CONTINUOUS
 10
13.6527376234
 20
-10.7437486405
 11
13.6800208303
 21
-10.7451378916
  0
LINE
  5
2F6
100
AcDbEntity
  8
RACCORDO
100
AcDbLine
 62
7
  6
CONTINUOUS
 10
13.6800208303
 20
-10.7451378916
 11
13.7033782922
 21
-10.7464746233
  0
LWPOLYLINE
  5
2F7
100
AcDbEntity
  8
RACCORDO
100
AcDbPolyline
 62
250
  6
CONTINUOUS
 90
6
 70
0
 10
9.9787170578
 20
-10.7761331617
 10
9.9319480445
 20
-10.7733489221
 10
9.8948854779
 20
-10.7704388631
 10
9.8677250736
 20
-10.7673901738
 10
9.8502711161
 20
-10.7642156652
 10
9.8425236052
 20
-10.7609153372
  0
LWPOLYLINE
  5
2F8
100
AcDbEntity
  8
RACCORDO
100
AcDbPolyline
 62
250
  6
CONTINUOUS
 90
13
 70
0
 10
-13.2274337359
 20
-8.3947407441
 10
-13.2665818557
 20
-8.3921688343
 10
-13.3050602701
 20
-8.3845090282
 10
-13.3422107301
 20
-8.3718923618
 10
-13.3773977042
 20
-8.354534668
 10
-13.41001925
 20
-8.3327328843
 10
-13.439517312
 20
-8.3068599729
 10
-13.4653872679
 20
-8.2773585409
 10
-13.4871865611
 20
-8.2447332682
 10
-13.5045422721
 20
-8.2095422742
 10
-13.5171574972
 20
-8.1723875699
 10
-13.5248164284
 20
-8.1339047596
 10
-13.5273880444
 20
-8.0947521672
  0
LWPOLYLINE
  5
2F9
100
AcDbEntity
  8
RACCORDO
100
AcDbPolyline
 62
7
  6
CONTINUOUS
 90
7
 70
0
 10
13.7033782922
 20
-10.7464746233
 10
13.7227219003
 20
-10.7477303899
 10
13.7307709045
 20
-10.7483093437
 10
13.737784326
 20
-10.74885124
 10
13.7437022206
 20
-10.7493444834
 10
13.7481988222
 20
-10.7497500204
 10
13.7499308483
 20
-10.7499162738
  0
LWPOLYLINE
  5
2FA
100
AcDbEntity
  8
0
100
AcDbPolyline
 62
7
  6
CONTINUOUS
 90
16
 70
0
 10
12.1217966082
 20
-14.6573626527
 10
12.1408713108
 20
-14.6645031701
 10
12.1603968024
 20
-14.6713396187
 10
12.180219416
 20
-14.6778812258
 10
12.2000813017
 20
-14.6841658311
 10
12.2199320422
 20
-14.6901721129
 10
12.2399446449
 20
-14.6958272186
 10
12.260020046
 20
-14.7011458448
 10
12.2799908409
 20
-14.7061433544
 10
12.2999781485
 20
-14.7107601166
 10
12.3199732159
 20
-14.7150147011
 10
12.3398011087
 20
-14.7189262654
 10
12.3594401836
 20
-14.7224455811
 10
12.3789082834
 20
-14.7255714929
 10
12.3981840608
 20
-14.7283453789
 10
12.4172573651
 20
-14.7307841828
  0
LINE
  5
2FB
100
AcDbEntity
  8
0
100
AcDbLine
 62
7
  6
CONTINUOUS
 10
-5.5840388927
 20
6.3878160749
 11
-5.6559138948
 21
6.2920714054
  0
LINE
  5
2FC
100
AcDbEntity
  8
RACCORDO
100
AcDbLine
 62
250
  6
CONTINUOUS
 10
14.5266130961
 20
16.5729447316
 11
14.5755021734
 21
16.5973818225
  0
LINE
  5
2FD
100
AcDbEntity
  8
RACCORDO
100
AcDbLine
 62
250
  6
CONTINUOUS
 10
14.8264303442
 20
16.2729904231
 11
14.8753194215
 21
16.297427514
  0
LINE
  5
2FE
100
AcDbEntity
  8
0
100
AcDbLine
 62
7
  6
CONTINUOUS
 10
-5.5840388927
 20
5.7495182339
 11
-4.9012263948
 21
6.0686671768
  0
LINE
  5
2FF
100
AcDbEntity
  8
0
100
AcDbLine
 62
7
  6
CONTINUOUS
 10
-5.152788912
 20
6.0686671768
 11
-5.6559138948
 21
5.8452629034
  0
LWPOLYLINE
  5
300
100
AcDbEntity
  8
0
100
AcDbPolyline
 62
7
  6
CONTINUOUS
 90
14
 70
0
 10
11.3888293356
 20
-5.4390142915
 10
11.3223798455
 20
-5.4508123453
 10
11.2582919017
 20
-5.4626103562
 10
11.1968564845
 20
-5.4744083112
 10
11.1383523864
 20
-5.4862062233
 10
11.0830445584
 20
-5.4980042251
 10
11.0311841518
 20
-5.5098023179
 10
10.9830066879
 20
-5.5216005004
 10
10.9387305096
 20
-5.5333989015
 10
10.8985564075
 20
-5.5451976591
 10
10.8626675575
 20
-5.5569966353
 10
10.8312278594
 20
-5.5687955444
 10
10.8043799985
 20
-5.5805943796
 10
10.7820801054
 20
-5.5924922602
  0
LWPOLYLINE
  5
301
100
AcDbEntity
  8
0
100
AcDbPolyline
 62
7
  6
CONTINUOUS
 90
15
 70
0
 10
11.4129589306
 20
-6.5348213314
 10
11.3473644745
 20
-6.5463301527
 10
11.2837405282
 20
-6.5578701164
 10
11.2227599231
 20
-6.5693683992
 10
11.1648172602
 20
-6.5807928195
 10
11.109954832
 20
-6.5921755588
 10
11.0582672546
 20
-6.6035403385
 10
11.0099421085
 20
-6.6148908164
 10
10.9651834851
 20
-6.6262233346
 10
10.9241177634
 20
-6.637550641
 10
10.8869135978
 20
-6.6488720977
 10
10.8537186964
 20
-6.6601883426
 10
10.8246311696
 20
-6.6715140372
 10
10.7997652155
 20
-6.6828581751
 10
10.782080153
 20
-6.69249267
  0
LWPOLYLINE
  5
302
100
AcDbEntity
  8
0
100
AcDbPolyline
 62
7
  6
CONTINUOUS
 90
15
 70
0
 10
12.2624467611
 20
-5.8001570546
 10
12.3276533648
 20
-5.7887677531
 10
12.3906012337
 20
-5.7774163194
 10
12.4512308795
 20
-5.7660677215
 10
12.5092849019
 20
-5.7547228682
 10
12.5645265593
 20
-5.7433808508
 10
12.6168947723
 20
-5.7320039109
 10
12.6661574727
 20
-5.7205877083
 10
12.7120535338
 20
-5.7091365832
 10
12.7544404945
 20
-5.6976257978
 10
12.7931759849
 20
-5.6860235265
 10
12.827904416
 20
-5.674361595
 10
12.8582353406
 20
-5.6627107425
 10
12.8840406368
 20
-5.6510741686
 10
12.9029715585
 20
-5.640819694
  0
LINE
  5
303
100
AcDbEntity
  8
0
100
AcDbLine
 62
7
  6
CONTINUOUS
 10
11.548631096
 20
-6.5119345577
 11
11.4129589306
 21
-6.5348213314
  0
LINE
  5
304
100
AcDbEntity
  8
0
100
AcDbLine
 62
7
  6
CONTINUOUS
 10
12.1259191999
 20
-5.8231115963
 11
12.2624467611
 21
-5.8001570546
  0
LINE
  5
305
100
AcDbEntity
  8
0
100
AcDbLine
 62
7
  6
CONTINUOUS
 10
11.4217061756
 20
-5.9374566982
 11
11.5580264605
 21
-5.9145296012
  0
LINE
  5
306
100
AcDbEntity
  8
0
100
AcDbLine
 62
7
  6
CONTINUOUS
 10
12.2540677562
 20
-6.3974524537
 11
12.114603479
 21
-6.4208278883
  0
LWPOLYLINE
  5
307
100
AcDbEntity
  8
0
100
AcDbPolyline
 62
7
  6
CONTINUOUS
 90
3
 70
0
 10
11.5580264605
 20
-5.9145296012
 10
11.8418823987
 20
-5.8688319147
 10
12.1259191999
 20
-5.8231115963
  0
LINE
  5
308
100
AcDbEntity
  8
0
100
AcDbLine
 62
7
  6
CONTINUOUS
 10
11.548631096
 20
-7.0160797462
 11
12.114603479
 21
-6.9249730768
  0
LWPOLYLINE
  5
309
100
AcDbEntity
  8
0
100
AcDbPolyline
 62
7
  6
CONTINUOUS
 90
3
 70
0
 10
12.114603479
 20
-6.4208278883
 10
11.8291215822
 20
-6.4667179835
 10
11.548631096
 20
-6.5119345577
  0
LWPOLYLINE
  5
30A
100
AcDbEntity
  8
0
100
AcDbPolyline
 62
7
  6
CONTINUOUS
 90
15
 70
0
 10
12.5437300451
 20
-6.6782902682
 10
12.6220385964
 20
-6.6672902682
 10
12.6972707618
 20
-6.6562902682
 10
12.7691296346
 20
-6.6452902682
 10
12.8373316211
 20
-6.6342902682
 10
12.9016075595
 20
-6.6232902682
 10
12.961703782
 20
-6.6122902682
 10
13.0173831168
 20
-6.6012902682
 10
13.068425823
 20
-6.5902902682
 10
13.1146304586
 20
-6.5792902682
 10
13.1558146752
 20
-6.5682902682
 10
13.1918159375
 20
-6.5572902682
 10
13.2224921651
 20
-6.5462902682
 10
13.247722293
 20
-6.5352902682
 10
13.2618211677
 20
-6.5277484464
  0
LWPOLYLINE
  5
30B
100
AcDbEntity
  8
0
100
AcDbPolyline
 62
7
  6
CONTINUOUS
 90
18
 70
0
 10
12.5437300451
 20
-6.5782902682
 10
12.6220385964
 20
-6.5672902682
 10
12.6972707618
 20
-6.5562902682
 10
12.7691296346
 20
-6.5452902682
 10
12.8373316211
 20
-6.5342902682
 10
12.9016075595
 20
-6.5232902682
 10
12.961703782
 20
-6.5122902682
 10
13.0173831168
 20
-6.5012902682
 10
13.068425823
 20
-6.4902902682
 10
13.1146304586
 20
-6.4792902682
 10
13.1558146752
 20
-6.4682902682
 10
13.1918159375
 20
-6.4572902682
 10
13.2224921651
 20
-6.4462902682
 10
13.247722293
 20
-6.4352902682
 10
13.2674067494
 20
-6.4242902682
 10
13.2814678488
 20
-6.4132902682
 10
13.2898500985
 20
-6.4022902682
 10
13.2925236052
 20
-6.3916573757
  0
LINE
  5
30C
100
AcDbEntity
  8
0
100
AcDbLine
 62
7
  6
CONTINUOUS
 10
12.3791308974
 20
-6.7002902682
 11
12.5437300451
 21
-6.6782902682
  0
LINE
  5
30D
100
AcDbEntity
  8
0
100
AcDbLine
 62
7
  6
CONTINUOUS
 10
12.3791308974
 20
-6.6002902682
 11
12.5437300451
 21
-6.5782902682
  0
LINE
  5
30E
100
AcDbEntity
  8
0
100
AcDbLine
 62
7
  6
CONTINUOUS
 10
11.1466482063
 20
-6.8542902682
 11
11.3115726349
 21
-6.8322902682
  0
LINE
  5
30F
100
AcDbEntity
  8
0
100
AcDbLine
 62
7
  6
CONTINUOUS
 10
11.1466482063
 20
-6.7542902682
 11
11.3115726349
 21
-6.7322902682
  0
LINE
  5
310
100
AcDbEntity
  8
0
100
AcDbLine
 62
7
  6
CONTINUOUS
 10
12.2060691427
 20
-6.7222902682
 11
12.3791308974
 21
-6.7002902682
  0
LINE
  5
311
100
AcDbEntity
  8
0
100
AcDbLine
 62
7
  6
CONTINUOUS
 10
12.2060691427
 20
-6.6222902682
 11
12.3791308974
 21
-6.6002902682
  0
LINE
  5
312
100
AcDbEntity
  8
0
100
AcDbLine
 62
7
  6
CONTINUOUS
 10
11.3115726349
 20
-6.8322902682
 11
11.4848704678
 21
-6.8102902682
  0
LINE
  5
313
100
AcDbEntity
  8
0
100
AcDbLine
 62
7
  6
CONTINUOUS
 10
11.3115726349
 20
-6.7322902682
 11
11.4848704678
 21
-6.7102902682
  0
LWPOLYLINE
  5
314
100
AcDbEntity
  8
0
100
AcDbPolyline
 62
7
  6
CONTINUOUS
 90
3
 70
0
 10
11.4848704678
 20
-6.8102902682
 10
11.8455653664
 20
-6.7662902682
 10
12.2060691427
 20
-6.7222902682
  0
LWPOLYLINE
  5
315
100
AcDbEntity
  8
0
100
AcDbPolyline
 62
7
  6
CONTINUOUS
 90
3
 70
0
 10
11.4848704678
 20
-6.7102902682
 10
11.8455653664
 20
-6.6662902682
 10
12.2060691427
 20
-6.6222902682
  0
LWPOLYLINE
  5
316
100
AcDbEntity
  8
RACCORDO
100
AcDbPolyline
 62
250
  6
CONTINUOUS
 90
13
 70
0
 10
-14.8522855703
 20
-8.3998854819
 10
-14.891433691
 20
-8.4024573918
 10
-14.9299121059
 20
-8.4101171981
 10
-14.967062566
 20
-8.4227338647
 10
-15.0022495399
 20
-8.4400915586
 10
-15.0348710852
 20
-8.4618933422
 10
-15.0643691466
 20
-8.4877662532
 10
-15.0902391017
 20
-8.5172676842
 10
-15.1120383945
 20
-8.5498929556
 10
-15.1293941055
 20
-8.5850839489
 10
-15.1420093311
 20
-8.6222386534
 10
-15.1496682626
 20
-8.6607214647
 10
-15.1522398788
 20
-8.6998740588
  0
LINE
  5
317
100
AcDbEntity
  8
RACCORDO
100
AcDbLine
 62
7
  6
CONTINUOUS
 10
-14.8574306964
 20
-8.3596967722
 11
-14.8962581198
 21
-8.3618841425
  0
LWPOLYLINE
  5
318
100
AcDbEntity
  8
RACCORDO
100
AcDbPolyline
 62
250
  6
CONTINUOUS
 90
16
 70
0
 10
-14.6706615017
 20
-8.4906906001
 10
-14.7021707405
 20
-8.4923551523
 10
-14.733323022
 20
-8.4973190177
 10
-14.7637742367
 20
-8.5055246658
 10
-14.7931709979
 20
-8.5168709933
 10
-14.8212086266
 20
-8.5312343236
 10
-14.8476255334
 20
-8.548487795
 10
-14.8721723051
 20
-8.5684999144
 10
-14.8945057533
 20
-8.5910248925
 10
-14.9142776825
 20
-8.615699877
 10
-14.9312786479
 20
-8.6422051343
 10
-14.9453677181
 20
-8.6702536004
 10
-14.9564002558
 20
-8.6994656123
 10
-14.9642998242
 20
-8.7294868106
 10
-14.9690386204
 20
-8.7600016702
 10
-14.9706158102
 20
-8.790679177
  0
LINE
  5
319
100
AcDbEntity
  8
RACCORDO
100
AcDbLine
 62
250
  6
CONTINUOUS
 10
13.7119235414
 20
-8.460100223
 11
13.6978440328
 21
-8.4605701185
  0
LINE
  5
31A
100
AcDbEntity
  8
RACCORDO
100
AcDbLine
 62
7
  6
CONTINUOUS
 10
13.7211879351
 20
-8.4598703228
 11
13.6695835726
 21
-8.4610345477
  0
LINE
  5
31B
100
AcDbEntity
  8
RACCORDO
100
AcDbLine
 62
250
  6
CONTINUOUS
 10
13.6978440328
 20
-8.4605701185
 11
13.6695835726
 21
-8.4610345477
  0
LINE
  5
31C
100
AcDbEntity
  8
RACCORDO
100
AcDbLine
 62
250
  6
CONTINUOUS
 10
13.6451552037
 20
-8.4615090347
 11
13.6360734202
 21
-8.4617760379
  0
LINE
  5
31D
100
AcDbEntity
  8
RACCORDO
100
AcDbLine
 62
250
  6
CONTINUOUS
 10
-13.5866343654
 20
-8.0977855519
 11
-13.6284222201
 21
-8.0985812374
  0
LINE
  5
31E
100
AcDbEntity
  8
RACCORDO
100
AcDbLine
 62
250
  6
CONTINUOUS
 10
9.9872031775
 20
-8.4475358544
 11
10.1212276495
 21
-8.4451672784
  0
LINE
  5
31F
100
AcDbEntity
  8
RACCORDO
100
AcDbLine
 62
7
  6
CONTINUOUS
 10
13.6695835726
 20
-8.4610345477
 11
13.5742423202
 21
-8.4627138165
  0
LINE
  5
320
100
AcDbEntity
  8
RACCORDO
100
AcDbLine
 62
250
  6
CONTINUOUS
 10
-13.2826060961
 20
-8.3968423063
 11
-13.3459263639
 21
-8.3977744897
  0
LINE
  5
321
100
AcDbEntity
  8
RACCORDO
100
AcDbLine
 62
250
  6
CONTINUOUS
 10
-13.6284222201
 20
-8.0985812374
 11
-13.6787425339
 21
-8.0992077266
  0
LINE
  5
322
100
AcDbEntity
  8
RACCORDO
100
AcDbLine
 62
7
  6
CONTINUOUS
 10
13.5742423202
 20
-8.4627138165
 11
13.387184528
 21
-8.465092593
  0
LINE
  5
323
100
AcDbEntity
  8
RACCORDO
100
AcDbLine
 62
250
  6
CONTINUOUS
 10
13.3898319309
 20
-8.4651118149
 11
13.387184528
 21
-8.465092593
  0
LINE
  5
324
100
AcDbEntity
  8
RACCORDO
100
AcDbLine
 62
250
  6
CONTINUOUS
 10
10.1212276495
 20
-8.4451672784
 11
10.3956711339
 21
-8.4420041149
  0
LINE
  5
325
100
AcDbEntity
  8
RACCORDO
100
AcDbLine
 62
7
  6
CONTINUOUS
 10
13.387184528
 20
-8.465092593
 11
13.0745110689
 21
-8.467771545
  0
LINE
  5
326
100
AcDbEntity
  8
RACCORDO
100
AcDbLine
 62
250
  6
CONTINUOUS
 10
-13.3459263639
 20
-8.3977744897
 11
-13.4795413029
 21
-8.3989160128
  0
LINE
  5
327
100
AcDbEntity
  8
RACCORDO
100
AcDbLine
 62
250
  6
CONTINUOUS
 10
10.3956711339
 20
-8.4420041149
 11
10.7425236052
 21
-8.4394783866
  0
LINE
  5
328
100
AcDbEntity
  8
RACCORDO
100
AcDbLine
 62
250
  6
CONTINUOUS
 10
-13.6787425339
 20
-8.0992077266
 11
-13.7655734166
 21
-8.0997822263
  0
LINE
  5
329
100
AcDbEntity
  8
RACCORDO
100
AcDbLine
 62
7
  6
CONTINUOUS
 10
13.0745110689
 20
-8.467771545
 11
12.6593317691
 21
-8.4699620062
  0
LINE
  5
32A
100
AcDbEntity
  8
RACCORDO
100
AcDbLine
 62
250
  6
CONTINUOUS
 10
12.6744101691
 20
-8.4699252488
 11
12.6593317691
 21
-8.4699620062
  0
LINE
  5
32B
100
AcDbEntity
  8
RACCORDO
100
AcDbLine
 62
7
  6
CONTINUOUS
 10
12.6593317691
 20
-8.4699620062
 11
12.1457461705
 21
-8.4712886455
  0
LINE
  5
32C
100
AcDbEntity
  8
RACCORDO
100
AcDbLine
 62
250
  6
CONTINUOUS
 10
12.2421675567
 20
-8.4711547189
 11
12.1457461705
 21
-8.4712886455
  0
LINE
  5
32D
100
AcDbEntity
  8
RACCORDO
100
AcDbLine
 62
7
  6
CONTINUOUS
 10
-13.4795413029
 20
-8.3989160128
 11
-13.7641616454
 21
-8.3998547748
  0
LINE
  5
32E
100
AcDbEntity
  8
RACCORDO
100
AcDbLine
 62
250
  6
CONTINUOUS
 10
-14.9706158102
 20
-8.790679177
 11
14.6556630206
 21
-8.790679177
  0
LINE
  5
32F
100
AcDbEntity
  8
RACCORDO
100
AcDbLine
 62
7
  6
CONTINUOUS
 10
-14.6706615017
 20
-8.4906906001
 11
14.355708712
 21
-8.4906906001
  0
LINE
  5
330
100
AcDbEntity
  8
RACCORDO
100
AcDbLine
 62
7
  6
CONTINUOUS
 10
-13.7641616454
 20
-8.3998547748
 11
-14.8522855703
 21
-8.3998854819
  0
LINE
  5
331
100
AcDbEntity
  8
RACCORDO
100
AcDbLine
 62
7
  6
CONTINUOUS
 10
-13.1626672159
 20
-8.3623599504
 11
10.734477301
 21
-8.3623599504
  0
LINE
  5
332
100
AcDbEntity
  8
RACCORDO
100
AcDbLine
 62
250
  6
CONTINUOUS
 10
-13.7655734166
 20
-8.0997822263
 11
-15.1521941755
 21
-8.0998969072
  0
LINE
  5
333
100
AcDbEntity
  8
RACCORDO
100
AcDbLine
 62
250
  6
CONTINUOUS
 10
13.1476687348
 20
-8.0623713735
 11
12.9425236052
 21
-8.0623713735
  0
LINE
  5
334
100
AcDbEntity
  8
RACCORDO
100
AcDbLine
 62
250
  6
CONTINUOUS
 10
10.3925236052
 20
-8.0623713735
 11
-13.4626215244
 21
-8.0623713735
  0
LINE
  5
335
100
AcDbEntity
  8
RACCORDO
100
AcDbLine
 62
7
  6
CONTINUOUS
 10
12.1457461705
 20
-8.4712886455
 11
11.6309476873
 21
-8.4713952748
  0
LINE
  5
336
100
AcDbEntity
  8
RACCORDO
100
AcDbLine
 62
250
  6
CONTINUOUS
 10
11.6380486442
 20
-8.4714143919
 11
11.6309476873
 21
-8.4713952748
  0
LINE
  5
337
100
AcDbEntity
  8
RACCORDO
100
AcDbLine
 62
250
  6
CONTINUOUS
 10
14.8372413844
 20
-8.0998969056
 11
13.4504760982
 21
-8.0997815082
  0
LINE
  5
338
100
AcDbEntity
  8
RACCORDO
100
AcDbLine
 62
7
  6
CONTINUOUS
 10
11.6309476873
 20
-8.4713952748
 11
11.1423894821
 21
-8.4703875801
  0
LINE
  5
339
100
AcDbEntity
  8
RACCORDO
100
AcDbLine
 62
7
  6
CONTINUOUS
 10
14.5373327806
 20
-8.3998854819
 11
13.2705877987
 21
-8.3994405637
  0
LINE
  5
33A
100
AcDbEntity
  8
RACCORDO
100
AcDbLine
 62
250
  6
CONTINUOUS
 10
11.1940303178
 20
-8.4705628253
 11
11.1423894821
 21
-8.4703875801
  0
LINE
  5
33B
100
AcDbEntity
  8
RACCORDO
100
AcDbLine
 62
7
  6
CONTINUOUS
 10
13.2705877987
 20
-8.3994405637
 11
13.1645489379
 21
-8.3989157671
  0
LINE
  5
33C
100
AcDbEntity
  8
RACCORDO
100
AcDbLine
 62
250
  6
CONTINUOUS
 10
10.7834463281
 20
-8.4688571932
 11
10.6953919189
 21
-8.4683284123
  0
LINE
  5
33D
100
AcDbEntity
  8
RACCORDO
100
AcDbLine
 62
7
  6
CONTINUOUS
 10
11.1423894821
 20
-8.4703875801
 11
10.6953919189
 21
-8.4683284123
  0
LINE
  5
33E
100
AcDbEntity
  8
RACCORDO
100
AcDbLine
 62
250
  6
CONTINUOUS
 10
13.4504760982
 20
-8.0997815082
 11
13.3636511624
 21
-8.0992064397
  0
LINE
  5
33F
100
AcDbEntity
  8
RACCORDO
100
AcDbLine
 62
250
  6
CONTINUOUS
 10
10.4278465921
 20
-8.4663845191
 11
10.3473822944
 21
-8.4656086375
  0
LINE
  5
340
100
AcDbEntity
  8
RACCORDO
100
AcDbLine
 62
250
  6
CONTINUOUS
 10
13.066974726
 20
-8.4402679401
 11
13.3603964408
 21
-8.442698606
  0
LINE
  5
341
100
AcDbEntity
  8
RACCORDO
100
AcDbLine
 62
7
  6
CONTINUOUS
 10
10.6953919189
 20
-8.4683284123
 11
10.3473822944
 21
-8.4656086375
  0
LINE
  5
342
100
AcDbEntity
  8
RACCORDO
100
AcDbLine
 62
250
  6
CONTINUOUS
 10
13.1645489379
 20
-8.3989157671
 11
13.0308040276
 21
-8.3977724997
  0
LINE
  5
343
100
AcDbEntity
  8
RACCORDO
100
AcDbLine
 62
250
  6
CONTINUOUS
 10
13.3636511624
 20
-8.0992064397
 11
13.3133691237
 21
-8.0985796862
  0
LINE
  5
344
100
AcDbEntity
  8
RACCORDO
100
AcDbLine
 62
7
  6
CONTINUOUS
 10
10.3473822944
 20
-8.4656086375
 11
10.1310536536
 21
-8.4630179402
  0
LINE
  5
345
100
AcDbEntity
  8
RACCORDO
100
AcDbLine
 62
250
  6
CONTINUOUS
 10
10.1519954477
 20
-8.4633884837
 11
10.1310536536
 21
-8.4630179402
  0
LINE
  5
346
100
AcDbEntity
  8
RACCORDO
100
AcDbLine
 62
250
  6
CONTINUOUS
 10
13.3603964408
 20
-8.442698606
 11
13.6025112621
 21
-8.4457592202
  0
LINE
  5
347
100
AcDbEntity
  8
RACCORDO
100
AcDbLine
 62
250
  6
CONTINUOUS
 10
13.0308040276
 20
-8.3977724997
 11
12.9947161798
 21
-8.3972908987
  0
LINE
  5
348
100
AcDbEntity
  8
RACCORDO
100
AcDbLine
 62
7
  6
CONTINUOUS
 10
10.1310536536
 20
-8.4630179402
 11
10.0334590361
 21
-8.4613882383
  0
LINE
  5
349
100
AcDbEntity
  8
RACCORDO
100
AcDbLine
 62
250
  6
CONTINUOUS
 10
9.9710646824
 20
-8.460047507
 11
9.9699627766
 21
-8.4602006485
  0
LINE
  5
34A
100
AcDbEntity
  8
RACCORDO
100
AcDbLine
 62
250
  6
CONTINUOUS
 10
13.6025112621
 20
-8.4457592202
 11
13.7150844338
 21
-8.4479053244
  0
LWPOLYLINE
  5
34B
100
AcDbEntity
  8
RACCORDO
100
AcDbPolyline
 62
250
  6
CONTINUOUS
 90
8
 70
0
 10
13.3133691237
 20
-8.0985796862
 10
13.2715968038
 20
-8.0977835685
 10
13.2543919845
 20
-8.0973338373
 10
13.2399320237
 20
-8.0968505682
 10
13.2284006304
 20
-8.0963492208
 10
13.2199237024
 20
-8.095834948
 10
13.2145834148
 20
-8.0953025968
 10
13.2124352548
 20
-8.0947521672
  0
LINE
  5
34C
100
AcDbEntity
  8
RACCORDO
100
AcDbLine
 62
7
  6
CONTINUOUS
 10
10.0334590361
 20
-8.4613882383
 11
9.9710646824
 21
-8.460047507
  0
LINE
  5
34D
100
AcDbEntity
  8
RACCORDO
100
AcDbLine
 62
250
  6
CONTINUOUS
 10
9.9336268535
 20
-8.4590253316
 11
9.926849104
 21
-8.4590962753
  0
LWPOLYLINE
  5
34E
100
AcDbEntity
  8
RACCORDO
100
AcDbPolyline
 62
250
  6
CONTINUOUS
 90
6
 70
0
 10
13.7150844338
 20
-8.4479053244
 10
13.7581981061
 20
-8.4490096976
 10
13.7924853024
 20
-8.4501732225
 10
13.8179912127
 20
-8.4514073255
 10
13.8346706469
 20
-8.4527005802
 10
13.8425236052
 20
-8.4540529865
  0
LINE
  5
34F
100
AcDbEntity
  8
RACCORDO
100
AcDbLine
 62
7
  6
CONTINUOUS
 10
9.9710646824
 20
-8.460047507
 11
9.9419569302
 21
-8.4592743101
  0
LINE
  5
350
100
AcDbEntity
  8
RACCORDO
100
AcDbLine
 62
7
  6
CONTINUOUS
 10
9.9419569302
 20
-8.4592743101
 11
9.9190706286
 21
-8.4585483256
  0
LWPOLYLINE
  5
351
100
AcDbEntity
  8
RACCORDO
100
AcDbPolyline
 62
250
  6
CONTINUOUS
 90
5
 70
0
 10
9.9128183849
 20
-8.458322227
 10
9.8925619076
 20
-8.4579327504
 10
9.8670559973
 20
-8.4566986474
 10
9.8503765632
 20
-8.4554053928
 10
9.8425236052
 20
-8.4540529865
  0
LINE
  5
352
100
AcDbEntity
  8
RACCORDO
100
AcDbLine
 62
7
  6
CONTINUOUS
 10
9.9190706286
 20
-8.4585483256
 11
9.9073735126
 21
-8.458111399
  0
LINE
  5
353
100
AcDbEntity
  8
RACCORDO
100
AcDbLine
 62
7
  6
CONTINUOUS
 10
9.9073735126
 20
-8.458111399
 11
9.8987803998
 21
-8.4577397636
  0
LINE
  5
354
100
AcDbEntity
  8
RACCORDO
100
AcDbLine
 62
7
  6
CONTINUOUS
 10
9.8987803998
 20
-8.4577397636
 11
9.894744079
 21
-8.4575372482
  0
LINE
  5
355
100
AcDbEntity
  8
RACCORDO
100
AcDbLine
 62
7
  6
CONTINUOUS
 10
14.5424779067
 20
-8.3597005208
 11
14.5813047536
 21
-8.361942829
  0
LWPOLYLINE
  5
356
100
AcDbEntity
  8
RACCORDO
100
AcDbPolyline
 62
250
  6
CONTINUOUS
 90
13
 70
0
 10
14.5373327806
 20
-8.3998854819
 10
14.5764800957
 20
-8.4024572856
 10
14.6149578598
 20
-8.4101168077
 10
14.6521078496
 20
-8.4227330664
 10
14.6872945274
 20
-8.440090275
 10
14.7199159706
 20
-8.461891558
 10
14.7494141548
 20
-8.4877640508
 10
14.7752844196
 20
-8.5172652178
 10
14.7970841432
 20
-8.5498904242
 10
14.8144403502
 20
-8.5850816181
 10
14.8270560504
 20
-8.6222368215
 10
14.8347153351
 20
-8.660720418
 10
14.8372870892
 20
-8.6998740584
  0
LINE
  5
357
100
AcDbEntity
  8
0
100
AcDbLine
 62
7
  6
CONTINUOUS
 10
-4.8262263948
 20
4.3516459439
 11
-4.7699763881
 21
4.4473906133
  0
LINE
  5
358
100
AcDbEntity
  8
0
100
AcDbLine
 62
7
  6
CONTINUOUS
 10
-2.7449763948
 20
6.4197309647
 11
-2.6731014634
 21
6.5154757235
  0
LINE
  5
359
100
AcDbEntity
  8
0
100
AcDbLine
 62
7
  6
CONTINUOUS
 10
-3.4277889634
 20
6.1005820666
 11
-3.3199764634
 21
6.2282416258
  0
LINE
  5
35A
100
AcDbEntity
  8
0
100
AcDbLine
 62
7
  6
CONTINUOUS
 10
-4.8262263948
 20
4.6069650624
 11
-4.9387263931
 21
4.4793055032
  0
LINE
  5
35B
100
AcDbEntity
  8
0
100
AcDbLine
 62
7
  6
CONTINUOUS
 10
-4.2074764216
 20
4.1601565156
 11
-4.9949763948
 21
3.3622842033
  0
LINE
  5
35C
100
AcDbEntity
  8
0
100
AcDbLine
 62
7
  6
CONTINUOUS
 10
-3.5356014634
 20
6.2601565156
 11
-3.6074763948
 21
6.196326736
  0
LINE
  5
35D
100
AcDbEntity
  8
0
100
AcDbLine
 62
7
  6
CONTINUOUS
 10
-2.7449763948
 20
6.7069650624
 11
-2.8887264634
 21
6.5793055032
  0
LINE
  5
35E
100
AcDbEntity
  8
0
100
AcDbLine
 62
7
  6
CONTINUOUS
 10
-4.7699763881
 20
4.4473906133
 11
-4.6856013881
 21
4.511220393
  0
LINE
  5
35F
100
AcDbEntity
  8
0
100
AcDbLine
 62
7
  6
CONTINUOUS
 10
-3.4481013412
 20
4.670794842
 11
-3.5887264485
 21
4.5750501726
  0
LINE
  5
360
100
AcDbEntity
  8
0
100
AcDbLine
 62
7
  6
CONTINUOUS
 10
-3.5715388263
 20
6.0048373971
 11
-3.4277889634
 21
6.1005820666
  0
LINE
  5
361
100
AcDbEntity
  8
0
100
AcDbLine
 62
7
  6
CONTINUOUS
 10
-2.6731014634
 20
6.5154757235
 11
-2.5652889634
 21
6.5793055032
  0
LINE
  5
362
100
AcDbEntity
  8
0
100
AcDbLine
 62
7
  6
CONTINUOUS
 10
-4.7137264015
 20
4.670794842
 11
-4.8262263948
 21
4.6069650624
  0
LINE
  5
363
100
AcDbEntity
  8
0
100
AcDbLine
 62
7
  6
CONTINUOUS
 10
-2.6012263263
 20
6.770794842
 11
-2.7449763948
 21
6.7069650624
  0
LINE
  5
364
100
AcDbEntity
  8
0
100
AcDbLine
 62
7
  6
CONTINUOUS
 10
-3.6074763948
 20
6.196326736
 11
-3.7152888948
 21
6.1644118462
  0
LINE
  5
365
100
AcDbEntity
  8
0
100
AcDbLine
 62
7
  6
CONTINUOUS
 10
11.2329673793
 20
-4.5954746139
 11
11.3274286376
 21
-4.5750287402
  0
LINE
  5
366
100
AcDbEntity
  8
0
100
AcDbLine
 62
7
  6
CONTINUOUS
 10
11.5737590324
 20
-4.5239140558
 11
11.7205945485
 21
-4.4932452452
  0
LWPOLYLINE
  5
367
100
AcDbEntity
  8
0
100
AcDbPolyline
 62
7
  6
CONTINUOUS
 90
3
 70
0
 10
11.3274286376
 20
-4.5750287402
 10
11.4744929664
 20
-4.5443599296
 10
11.5737590324
 20
-4.5239140558
  0
LINE
  5
368
100
AcDbEntity
  8
0
100
AcDbLine
 62
7
  6
CONTINUOUS
 10
11.5275992397
 20
-5.4154176904
 11
11.3888293356
 21
-5.4390142915
  0
LINE
  5
369
100
AcDbEntity
  8
0
100
AcDbLine
 62
7
  6
CONTINUOUS
 10
12.2541821267
 20
-5.2974326368
 11
12.1133717863
 21
-5.3210299622
  0
LINE
  5
36A
100
AcDbEntity
  8
0
100
AcDbLine
 62
7
  6
CONTINUOUS
 10
11.7456522714
 20
-5.3800222192
 11
11.5275992397
 21
-5.4154176904
  0
LINE
  5
36B
100
AcDbEntity
  8
0
100
AcDbLine
 62
7
  6
CONTINUOUS
 10
12.1133717863
 20
-5.3210299622
 11
11.7456522714
 21
-5.3800222192
  0
LWPOLYLINE
  5
36C
100
AcDbEntity
  8
0
100
AcDbPolyline
 62
7
  6
CONTINUOUS
 90
14
 70
0
 10
11.3990896193
 20
-4.5387586806
 10
11.3494615795
 20
-4.5463423146
 10
11.3017708892
 20
-4.5539066185
 10
11.2563181669
 20
-4.5614398724
 10
11.2133719728
 20
-4.5689314658
 10
11.1730612933
 20
-4.5763920092
 10
11.1354681971
 20
-4.583841615
 10
11.1007748666
 20
-4.5912816541
 10
11.0691638187
 20
-4.5987107556
 10
11.0407389156
 20
-4.6061449191
 10
11.0156344219
 20
-4.6135952475
 10
10.9940514889
 20
-4.621050638
 10
10.9761690894
 20
-4.6284937812
 10
10.9639417989
 20
-4.6348176342
  0
LINE
  5
36D
100
AcDbEntity
  8
0
100
AcDbLine
 62
7
  6
CONTINUOUS
 10
11.5033199917
 20
-4.5235137644
 11
11.3990896193
 21
-4.5387586806
  0
LWPOLYLINE
  5
36E
100
AcDbEntity
  8
0
100
AcDbPolyline
 62
7
  6
CONTINUOUS
 90
15
 70
0
 10
12.5437288452
 20
-5.5782902682
 10
12.6220375248
 20
-5.5672902682
 10
12.6972698171
 20
-5.5562902682
 10
12.7691288143
 20
-5.5452902682
 10
12.8373309211
 20
-5.5342902682
 10
12.9016069745
 20
-5.5232902682
 10
12.9617033056
 20
-5.5122902682
 10
13.0173827413
 20
-5.5012902682
 10
13.0684255396
 20
-5.4902902682
 10
13.1146302575
 20
-5.4792902682
 10
13.1558145454
 20
-5.4682902682
 10
13.1918158672
 20
-5.4572902682
 10
13.2224921417
 20
-5.4462902682
 10
13.2477223032
 20
-5.4352902682
 10
13.2618212454
 20
-5.4277484154
  0
LWPOLYLINE
  5
36F
100
AcDbEntity
  8
0
100
AcDbPolyline
 62
7
  6
CONTINUOUS
 90
18
 70
0
 10
12.5437288452
 20
-5.4782902682
 10
12.6220375248
 20
-5.4672902682
 10
12.6972698171
 20
-5.4562902682
 10
12.7691288143
 20
-5.4452902682
 10
12.8373309211
 20
-5.4342902682
 10
12.9016069745
 20
-5.4232902682
 10
12.9617033056
 20
-5.4122902682
 10
13.0173827413
 20
-5.4012902682
 10
13.0684255396
 20
-5.3902902682
 10
13.1146302575
 20
-5.3792902682
 10
13.1558145454
 20
-5.3682902682
 10
13.1918158672
 20
-5.3572902682
 10
13.2224921417
 20
-5.3462902682
 10
13.2477223032
 20
-5.3352902682
 10
13.2674067791
 20
-5.3242902682
 10
13.2814678834
 20
-5.3132902682
 10
13.2898501228
 20
-5.3022902682
 10
13.2925236052
 20
-5.2916574386
  0
LINE
  5
370
100
AcDbEntity
  8
0
100
AcDbLine
 62
7
  6
CONTINUOUS
 10
11.7205945485
 20
-4.4932452452
 11
11.5033199917
 21
-4.5235137644
  0
LINE
  5
371
100
AcDbEntity
  8
0
100
AcDbLine
 62
7
  6
CONTINUOUS
 10
12.3791294421
 20
-5.6002902682
 11
12.5437288452
 21
-5.5782902682
  0
LINE
  5
372
100
AcDbEntity
  8
0
100
AcDbLine
 62
7
  6
CONTINUOUS
 10
12.3791294421
 20
-5.5002902682
 11
12.5437288452
 21
-5.4782902682
  0
LINE
  5
373
100
AcDbEntity
  8
0
100
AcDbLine
 62
7
  6
CONTINUOUS
 10
11.1466457718
 20
-5.7542902682
 11
11.3115701972
 21
-5.7322902682
  0
LINE
  5
374
100
AcDbEntity
  8
0
100
AcDbLine
 62
7
  6
CONTINUOUS
 10
11.1466457718
 20
-5.6542902682
 11
11.3115701972
 21
-5.6322902682
  0
LINE
  5
375
100
AcDbEntity
  8
0
100
AcDbLine
 62
7
  6
CONTINUOUS
 10
12.2060674424
 20
-5.6222902682
 11
12.3791294421
 21
-5.6002902682
  0
LINE
  5
376
100
AcDbEntity
  8
0
100
AcDbLine
 62
7
  6
CONTINUOUS
 10
12.2060674424
 20
-5.5222902682
 11
12.3791294421
 21
-5.5002902682
  0
LINE
  5
377
100
AcDbEntity
  8
0
100
AcDbLine
 62
7
  6
CONTINUOUS
 10
11.3115701972
 20
-5.7322902682
 11
11.4848680852
 21
-5.7102902682
  0
LINE
  5
378
100
AcDbEntity
  8
0
100
AcDbLine
 62
7
  6
CONTINUOUS
 10
11.3115701972
 20
-5.6322902682
 11
11.4848680852
 21
-5.6102902682
  0
LWPOLYLINE
  5
379
100
AcDbEntity
  8
0
100
AcDbPolyline
 62
7
  6
CONTINUOUS
 90
3
 70
0
 10
11.4848680852
 20
-5.7102902682
 10
11.8455632475
 20
-5.6662902682
 10
12.2060674424
 20
-5.6222902682
  0
LWPOLYLINE
  5
37A
100
AcDbEntity
  8
0
100
AcDbPolyline
 62
7
  6
CONTINUOUS
 90
3
 70
0
 10
11.4848680852
 20
-5.6102902682
 10
11.8455632475
 20
-5.5662902682
 10
12.2060674424
 20
-5.5222902682
  0
LWPOLYLINE
  5
37B
100
AcDbEntity
  8
RACCORDO
100
AcDbPolyline
 62
250
  6
CONTINUOUS
 90
5
 70
0
 10
-13.2274337359
 20
-8.3947407441
 10
-13.2320903322
 20
-8.3952926438
 10
-13.2427837985
 20
-8.3958260333
 10
-13.2595141348
 20
-8.3963409127
 10
-13.2826060961
 20
-8.3968423063
  0
LINE
  5
37C
100
AcDbEntity
  8
0
100
AcDbLine
 62
7
  6
CONTINUOUS
 10
-4.9949763948
 20
3.3622842033
 11
-4.9949763948
 21
3.2027097318
  0
LINE
  5
37D
100
AcDbEntity
  8
0
100
AcDbLine
 62
7
  6
CONTINUOUS
 10
-4.6137263606
 20
6.8027097318
 11
-4.6137263606
 21
5.3027097318
  0
LINE
  5
37E
100
AcDbEntity
  8
0
100
AcDbLine
 62
7
  6
CONTINUOUS
 10
-4.3981013606
 20
5.3027097318
 11
-4.3981013606
 21
5.9729225073
  0
LINE
  5
37F
100
AcDbEntity
  8
0
100
AcDbLine
 62
7
  6
CONTINUOUS
 10
-4.3981013606
 20
6.1644118462
 11
-4.3981013606
 21
6.6431352828
  0
LINE
  5
380
100
AcDbEntity
  8
0
100
AcDbLine
 62
7
  6
CONTINUOUS
 10
-4.9387263931
 20
4.4793055032
 11
-4.966851394
 21
4.3516459439
  0
LINE
  5
381
100
AcDbEntity
  8
0
100
AcDbLine
 62
7
  6
CONTINUOUS
 10
-4.010601368
 20
4.1601565156
 11
-3.9824763948
 21
4.2878160749
  0
LINE
  5
382
100
AcDbEntity
  8
0
100
AcDbLine
 62
7
  6
CONTINUOUS
 10
-2.9606013948
 20
6.4516459439
 11
-2.9965389634
 21
6.2920714054
  0
LINE
  5
383
100
AcDbEntity
  8
0
100
AcDbLine
 62
7
  6
CONTINUOUS
 10
-2.7809139634
 20
6.2920714054
 11
-2.7449763948
 21
6.4197309647
  0
LINE
  5
384
100
AcDbEntity
  8
0
100
AcDbLine
 62
7
  6
CONTINUOUS
 10
-3.5887264485
 20
4.2559011851
 11
-3.5606013948
 21
4.3516459439
  0
LINE
  5
385
100
AcDbEntity
  8
0
100
AcDbLine
 62
7
  6
CONTINUOUS
 10
-3.5887264485
 20
3.7452629034
 11
-3.5606013948
 21
3.8410076175
  0
LINE
  5
386
100
AcDbEntity
  8
0
100
AcDbLine
 62
7
  6
CONTINUOUS
 10
-3.673101368
 20
4.4473906133
 11
-3.7293513948
 21
4.2878160749
  0
LINE
  5
387
100
AcDbEntity
  8
0
100
AcDbLine
 62
7
  6
CONTINUOUS
 10
-3.4996638948
 20
6.3559011851
 11
-3.5356014634
 21
6.2601565156
  0
LINE
  5
388
100
AcDbEntity
  8
0
100
AcDbLine
 62
7
  6
CONTINUOUS
 10
-3.3199764634
 20
6.2282416258
 11
-3.2840388948
 21
6.3239862953
  0
LINE
  5
389
100
AcDbEntity
  8
0
100
AcDbLine
 62
7
  6
CONTINUOUS
 10
-4.1512263948
 20
4.2878160749
 11
-4.2074764216
 21
4.1601565156
  0
LINE
  5
38A
100
AcDbEntity
  8
0
100
AcDbLine
 62
7
  6
CONTINUOUS
 10
-2.8887264634
 20
6.5793055032
 11
-2.9606013948
 21
6.4516459439
  0
LINE
  5
38B
100
AcDbEntity
  8
0
100
AcDbLine
 62
7
  6
CONTINUOUS
 10
-4.0668513948
 20
4.0644118462
 11
-4.010601368
 21
4.1601565156
  0
LINE
  5
38C
100
AcDbEntity
  8
0
100
AcDbLine
 62
7
  6
CONTINUOUS
 10
-3.5606013948
 20
4.3516459439
 11
-3.5043514485
 21
4.4473906133
  0
LINE
  5
38D
100
AcDbEntity
  8
0
100
AcDbLine
 62
7
  6
CONTINUOUS
 10
-2.9137264485
 20
3.5537735645
 11
-2.9699763948
 21
3.4580288727
  0
LINE
  5
38E
100
AcDbEntity
  8
0
100
AcDbLine
 62
7
  6
CONTINUOUS
 10
-3.5887264485
 20
4.5750501726
 11
-3.673101368
 21
4.4473906133
  0
LINE
  5
38F
100
AcDbEntity
  8
0
100
AcDbLine
 62
7
  6
CONTINUOUS
 10
-2.3793513948
 20
4.5750501726
 11
-2.4637263948
 21
4.4473906133
  0
LINE
  5
390
100
AcDbEntity
  8
RACCORDO
100
AcDbLine
 62
250
  6
CONTINUOUS
 10
-14.9706158102
 20
-10.3730914099
 11
-15.1574763948
 21
-10.5973341315
  0
LINE
  5
391
100
AcDbEntity
  8
RACCORDO
100
AcDbLine
 62
250
  6
CONTINUOUS
 10
-14.6706615017
 20
-10.673025615
 11
-14.8575403618
 21
-10.8972902682
  0
LINE
  5
392
100
AcDbEntity
  8
0
100
AcDbLine
 62
7
  6
CONTINUOUS
 10
-0.1574763948
 20
8.7027097318
 11
-0.3449763948
 21
8.4793055032
  0
LINE
  5
393
100
AcDbEntity
  8
0
100
AcDbLine
 62
7
  6
CONTINUOUS
 10
-0.3449763948
 20
8.2239862953
 11
-0.1574763948
 21
8.4473906133
  0
LINE
  5
394
100
AcDbEntity
  8
0
100
AcDbLine
 62
7
  6
CONTINUOUS
 10
-3.5606013948
 20
3.8410076175
 11
-3.5043514485
 21
3.9048373971
  0
LINE
  5
395
100
AcDbEntity
  8
0
100
AcDbLine
 62
7
  6
CONTINUOUS
 10
-4.7699763881
 20
3.3622842033
 11
-4.0668513948
 21
4.0644118462
  0
LINE
  5
396
100
AcDbEntity
  8
0
100
AcDbLine
 62
7
  6
CONTINUOUS
 10
-1.7746638948
 20
5.3984544125
 11
-1.6309140319
 21
5.5261139829
  0
LINE
  5
397
100
AcDbEntity
  8
0
100
AcDbLine
 62
7
  6
CONTINUOUS
 10
-3.5043514485
 20
4.4473906133
 11
-3.4199764485
 21
4.511220393
  0
LINE
  5
398
100
AcDbEntity
  8
0
100
AcDbLine
 62
7
  6
CONTINUOUS
 10
-3.4481013412
 20
4.1282416258
 11
-3.6168513412
 21
4.0005820666
  0
LINE
  5
399
100
AcDbEntity
  8
0
100
AcDbLine
 62
7
  6
CONTINUOUS
 10
-3.5043514485
 20
3.9048373971
 11
-3.4199764485
 21
3.9686671768
  0
LINE
  5
39A
100
AcDbEntity
  8
0
100
AcDbLine
 62
7
  6
CONTINUOUS
 10
-2.2949763948
 20
4.4473906133
 11
-2.2106013948
 21
4.511220393
  0
LINE
  5
39B
100
AcDbEntity
  8
0
100
AcDbLine
 62
7
  6
CONTINUOUS
 10
-2.9699763948
 20
3.4580288727
 11
-3.0543513948
 21
3.3941990931
  0
LINE
  5
39C
100
AcDbEntity
  8
0
100
AcDbLine
 62
7
  6
CONTINUOUS
 10
-2.2387262875
 20
4.670794842
 11
-2.3793513948
 21
4.5750501726
  0
LINE
  5
39D
100
AcDbEntity
  8
0
100
AcDbLine
 62
7
  6
CONTINUOUS
 10
-0.9449763948
 20
4.670794842
 11
-1.0856015021
 21
4.5750501726
  0
LINE
  5
39E
100
AcDbEntity
  8
0
100
AcDbLine
 62
7
  6
CONTINUOUS
 10
-3.0262263412
 20
3.2346246245
 11
-2.8856013948
 21
3.3303693023
  0
LINE
  5
39F
100
AcDbEntity
  8
0
100
AcDbLine
 62
7
  6
CONTINUOUS
 10
-1.8465390319
 20
5.5899437849
 11
-1.9543515319
 21
5.5261139829
  0
LINE
  5
3A0
100
AcDbEntity
  8
0
100
AcDbLine
 62
7
  6
CONTINUOUS
 10
-1.9184137577
 20
5.3346246245
 11
-1.7746638948
 21
5.3984544125
  0
LINE
  5
3A1
100
AcDbEntity
  8
0
100
AcDbLine
 62
7
  6
CONTINUOUS
 10
3.4003361052
 20
6.770794842
 11
3.256585831
 21
6.7069650624
  0
LINE
  5
3A2
100
AcDbEntity
  8
0
100
AcDbLine
 62
7
  6
CONTINUOUS
 10
2.4659613794
 20
6.0686671768
 11
2.5378361052
 21
6.1005820666
  0
LINE
  5
3A3
100
AcDbEntity
  8
0
100
AcDbLine
 62
7
  6
CONTINUOUS
 10
-3.4199764485
 20
4.511220393
 11
-3.3356014485
 21
4.5431352828
  0
LINE
  5
3A4
100
AcDbEntity
  8
0
100
AcDbLine
 62
7
  6
CONTINUOUS
 10
-2.2106013948
 20
4.511220393
 11
-2.1262263948
 21
4.5431352828
  0
LINE
  5
3A5
100
AcDbEntity
  8
0
100
AcDbLine
 62
7
  6
CONTINUOUS
 10
-3.4199764485
 20
3.9686671768
 11
-3.3356014485
 21
4.0005820666
  0
LINE
  5
3A6
100
AcDbEntity
  8
0
100
AcDbLine
 62
7
  6
CONTINUOUS
 10
-1.8449765021
 20
3.9367522869
 11
-1.9293515021
 21
3.9048373971
  0
LINE
  5
3A7
100
AcDbEntity
  8
0
100
AcDbLine
 62
7
  6
CONTINUOUS
 10
3.4362738794
 20
6.5793055032
 11
3.5440863794
 21
6.611220393
  0
LINE
  5
3A8
100
AcDbEntity
  8
0
100
AcDbLine
 62
7
  6
CONTINUOUS
 10
2.3581488794
 20
6.196326736
 11
2.2503363794
 21
6.1644118462
  0
LINE
  5
3A9
100
AcDbEntity
  8
0
100
AcDbLine
 62
7
  6
CONTINUOUS
 10
2.3581488794
 20
5.5261139829
 11
2.2503363794
 21
5.4941990931
  0
LWPOLYLINE
  5
3AA
100
AcDbEntity
  8
RACCORDO
100
AcDbPolyline
 62
250
  6
CONTINUOUS
 90
7
 70
0
 10
-13.5273880444
 20
-8.0947521672
 10
-13.5295498664
 20
-8.0953045127
 10
-13.5349189252
 20
-8.0958381457
 10
-13.5434282245
 20
-8.0963530661
 10
-13.5549780072
 20
-8.0968541676
 10
-13.5694353537
 20
-8.0973365564
 10
-13.5866343654
 20
-8.0977855519
  0
LWPOLYLINE
  5
3AB
100
AcDbEntity
  8
RACCORDO
100
AcDbPolyline
 62
7
  6
CONTINUOUS
 90
12
 70
0
 10
-14.8962581198
 20
-8.3618841425
 10
-14.9344600622
 20
-8.3684242228
 10
-14.9713912957
 20
-8.379202089
 10
-15.0064284363
 20
-8.3940319847
 10
-15.0389715049
 20
-8.4126684424
 10
-15.0684564181
 20
-8.4348098334
 10
-15.0943820519
 20
-8.4601049344
 10
-15.1162982043
 20
-8.4881261214
 10
-15.1338158816
 20
-8.5183741876
 10
-15.1466380505
 20
-8.5503323735
 10
-15.1545544422
 20
-8.5834842507
 10
-15.1573329418
 20
-8.612422581
  0
LINE
  5
3AC
100
AcDbEntity
  8
0
100
AcDbLine
 62
7
  6
CONTINUOUS
 10
10.7425236052
 20
-5.0025461565
 11
12.9425236052
 21
-5.0025461565
  0
LWPOLYLINE
  5
3AD
100
AcDbEntity
  8
RACCORDO
100
AcDbPolyline
 62
7
  6
CONTINUOUS
 90
12
 70
0
 10
14.5813047536
 20
-8.361942829
 10
14.6195063669
 20
-8.3684853599
 10
14.6564375765
 20
-8.3792435987
 10
14.6914748303
 20
-8.3940486962
 10
14.7240178766
 20
-8.4126672046
 10
14.7535027147
 20
-8.4348061818
 10
14.7794281978
 20
-8.4600930455
 10
14.8013443527
 20
-8.4880930888
 10
14.8188630354
 20
-8.5183372379
 10
14.831687505
 20
-8.5503106305
 10
14.8396072796
 20
-8.5834594394
 10
14.84239032
 20
-8.6123872622
  0
LINE
  5
3AE
100
AcDbEntity
  8
0
100
AcDbLine
 62
7
  6
CONTINUOUS
 10
10.423225983
 20
-11.4777489108
 11
10.6823350645
 21
-11.6312578999
  0
LINE
  5
3AF
100
AcDbEntity
  8
0
100
AcDbLine
 62
7
  6
CONTINUOUS
 10
10.6823350645
 20
-11.6312578999
 11
10.7425236052
 21
-11.667168203
  0
LINE
  5
3B0
100
AcDbEntity
  8
0
100
AcDbLine
 62
7
  6
CONTINUOUS
 10
-4.1512263948
 20
4.3516459439
 11
-4.1512263948
 21
4.2878160749
  0
LINE
  5
3B1
100
AcDbEntity
  8
0
100
AcDbLine
 62
7
  6
CONTINUOUS
 10
-3.9824763948
 20
3.2027097318
 11
-3.9824763948
 21
3.3622842033
  0
LINE
  5
3B2
100
AcDbEntity
  8
0
100
AcDbLine
 62
7
  6
CONTINUOUS
 10
-3.9824763948
 20
4.2878160749
 11
-3.9824763948
 21
4.3516459439
  0
LINE
  5
3B3
100
AcDbEntity
  8
0
100
AcDbLine
 62
7
  6
CONTINUOUS
 10
-3.757476368
 20
4.0644118462
 11
-3.757476368
 21
3.8410076175
  0
LINE
  5
3B4
100
AcDbEntity
  8
0
100
AcDbLine
 62
7
  6
CONTINUOUS
 10
-3.6168513412
 20
4.0005820666
 11
-3.6168513412
 21
4.0644118462
  0
LINE
  5
3B5
100
AcDbEntity
  8
0
100
AcDbLine
 62
7
  6
CONTINUOUS
 10
-3.5887264485
 20
3.6495182339
 11
-3.5887264485
 21
3.7452629034
  0
LINE
  5
3B6
100
AcDbEntity
  8
0
100
AcDbLine
 62
7
  6
CONTINUOUS
 10
-3.4996638948
 20
6.4516459439
 11
-3.4996638948
 21
6.3559011851
  0
LINE
  5
3B7
100
AcDbEntity
  8
0
100
AcDbLine
 62
7
  6
CONTINUOUS
 10
-3.2840388948
 20
6.3239862953
 11
-3.2840388948
 21
6.4516459439
  0
LINE
  5
3B8
100
AcDbEntity
  8
0
100
AcDbLine
 62
7
  6
CONTINUOUS
 10
-2.9965389634
 20
6.2920714054
 11
-2.9965389634
 21
5.8133480136
  0
LINE
  5
3B9
100
AcDbEntity
  8
0
100
AcDbLine
 62
7
  6
CONTINUOUS
 10
-2.8856013948
 20
3.7452629034
 11
-2.8856013948
 21
3.6495182339
  0
LINE
  5
3BA
100
AcDbEntity
  8
0
100
AcDbLine
 62
7
  6
CONTINUOUS
 10
-3.7293513948
 20
4.2878160749
 11
-3.757476368
 21
4.0644118462
  0
LINE
  5
3BB
100
AcDbEntity
  8
0
100
AcDbLine
 62
7
  6
CONTINUOUS
 10
-3.6168513412
 20
4.0644118462
 11
-3.5887264485
 21
4.2559011851
  0
LINE
  5
3BC
100
AcDbEntity
  8
0
100
AcDbLine
 62
7
  6
CONTINUOUS
 10
-1.6309140319
 20
5.5261139829
 11
-1.5949762577
 21
5.6856884543
  0
LINE
  5
3BD
100
AcDbEntity
  8
0
100
AcDbLine
 62
7
  6
CONTINUOUS
 10
-2.8856013948
 20
3.6495182339
 11
-2.9137264485
 21
3.5537735645
  0
LINE
  5
3BE
100
AcDbEntity
  8
0
100
AcDbLine
 62
7
  6
CONTINUOUS
 10
-2.3793513948
 20
4.2559011851
 11
-2.3512263412
 21
4.3516459439
  0
LINE
  5
3BF
100
AcDbEntity
  8
0
100
AcDbLine
 62
7
  6
CONTINUOUS
 10
-2.4637263948
 20
4.4473906133
 11
-2.5199763412
 21
4.2878160749
  0
LINE
  5
3C0
100
AcDbEntity
  8
0
100
AcDbLine
 62
7
  6
CONTINUOUS
 10
-2.8012263948
 20
3.4580288727
 11
-2.7449764485
 21
3.6176033441
  0
LINE
  5
3C1
100
AcDbEntity
  8
0
100
AcDbLine
 62
7
  6
CONTINUOUS
 10
-1.8106012577
 20
5.6856884543
 11
-1.8465390319
 21
5.5899437849
  0
LINE
  5
3C2
100
AcDbEntity
  8
0
100
AcDbLine
 62
7
  6
CONTINUOUS
 10
-1.1699765021
 20
4.4793055032
 11
-1.2262262875
 21
4.3516459439
  0
LINE
  5
3C3
100
AcDbEntity
  8
0
100
AcDbLine
 62
7
  6
CONTINUOUS
 10
-2.3512263412
 20
4.3516459439
 11
-2.2949763948
 21
4.4473906133
  0
LINE
  5
3C4
100
AcDbEntity
  8
0
100
AcDbLine
 62
7
  6
CONTINUOUS
 10
-1.7043513948
 20
4.096326736
 11
-1.7606015021
 21
4.0005820666
  0
LINE
  5
3C5
100
AcDbEntity
  8
0
100
AcDbLine
 62
7
  6
CONTINUOUS
 10
-1.7043513948
 20
3.5537735645
 11
-1.7606015021
 21
3.4580288727
  0
LINE
  5
3C6
100
AcDbEntity
  8
0
100
AcDbLine
 62
7
  6
CONTINUOUS
 10
-1.1137263948
 20
4.2559011851
 11
-1.0012265021
 21
4.4473906133
  0
LINE
  5
3C7
100
AcDbEntity
  8
0
100
AcDbLine
 62
7
  6
CONTINUOUS
 10
-2.8856013948
 20
3.3303693023
 11
-2.8012263948
 21
3.4580288727
  0
LINE
  5
3C8
100
AcDbEntity
  8
0
100
AcDbLine
 62
7
  6
CONTINUOUS
 10
-1.6762265021
 20
3.3303693023
 11
-1.5918515021
 21
3.4580288727
  0
LINE
  5
3C9
100
AcDbEntity
  8
0
100
AcDbLine
 62
7
  6
CONTINUOUS
 10
-1.0856015021
 20
4.5750501726
 11
-1.1699765021
 21
4.4793055032
  0
LINE
  5
3CA
100
AcDbEntity
  8
0
100
AcDbLine
 62
7
  6
CONTINUOUS
 10
0.1518986052
 20
4.5750501726
 11
0.0675236052
 21
4.4793055032
  0
LINE
  5
3CB
100
AcDbEntity
  8
0
100
AcDbLine
 62
7
  6
CONTINUOUS
 10
2.4300236052
 20
6.2601565156
 11
2.3581488794
 21
6.196326736
  0
LINE
  5
3CC
100
AcDbEntity
  8
0
100
AcDbLine
 62
7
  6
CONTINUOUS
 10
3.256585831
 20
6.7069650624
 11
3.1128363794
 21
6.5793055032
  0
LINE
  5
3CD
100
AcDbEntity
  8
0
100
AcDbLine
 62
7
  6
CONTINUOUS
 10
-1.7606015021
 20
4.0005820666
 11
-1.8449765021
 21
3.9367522869
  0
LINE
  5
3CE
100
AcDbEntity
  8
0
100
AcDbLine
 62
7
  6
CONTINUOUS
 10
-1.0012265021
 20
4.4473906133
 11
-0.9168515021
 21
4.511220393
  0
LINE
  5
3CF
100
AcDbEntity
  8
0
100
AcDbLine
 62
7
  6
CONTINUOUS
 10
-1.8168512875
 20
3.7771778379
 11
-1.6481012875
 21
3.9048373971
  0
LINE
  5
3D0
100
AcDbEntity
  8
0
100
AcDbLine
 62
7
  6
CONTINUOUS
 10
-1.7606015021
 20
3.4580288727
 11
-1.8449765021
 21
3.3941990931
  0
LINE
  5
3D1
100
AcDbEntity
  8
0
100
AcDbLine
 62
7
  6
CONTINUOUS
 10
0.2362736052
 20
4.4473906133
 11
0.3206486052
 21
4.511220393
  0
LINE
  5
3D2
100
AcDbEntity
  8
0
100
AcDbLine
 62
7
  6
CONTINUOUS
 10
-0.5512262875
 20
3.4580288727
 11
-0.6356012875
 21
3.3941990931
  0
LINE
  5
3D3
100
AcDbEntity
  8
0
100
AcDbLine
 62
7
  6
CONTINUOUS
 10
0.2925237125
 20
4.670794842
 11
0.1518986052
 21
4.5750501726
  0
LINE
  5
3D4
100
AcDbEntity
  8
0
100
AcDbLine
 62
7
  6
CONTINUOUS
 10
-1.8168512875
 20
3.2346246245
 11
-1.6762265021
 21
3.3303693023
  0
LINE
  5
3D5
100
AcDbEntity
  8
0
100
AcDbLine
 62
7
  6
CONTINUOUS
 10
-0.6074763948
 20
3.2346246245
 11
-0.4668512875
 21
3.3303693023
  0
LINE
  5
3D6
100
AcDbEntity
  8
0
100
AcDbLine
 62
7
  6
CONTINUOUS
 10
1.5300238198
 20
4.670794842
 11
1.3893983906
 21
4.5750501726
  0
LINE
  5
3D7
100
AcDbEntity
  8
0
100
AcDbLine
 62
7
  6
CONTINUOUS
 10
2.394085831
 20
5.3346246245
 11
2.5378361052
 21
5.4303693023
  0
LINE
  5
3D8
100
AcDbEntity
  8
0
100
AcDbLine
 62
7
  6
CONTINUOUS
 10
3.3284613794
 20
6.5154757235
 11
3.4362738794
 21
6.5793055032
  0
LINE
  5
3D9
100
AcDbEntity
  8
0
100
AcDbLine
 62
7
  6
CONTINUOUS
 10
5.2690863794
 20
6.3878160749
 11
4.5862736052
 21
6.0686671768
  0
LINE
  5
3DA
100
AcDbEntity
  8
0
100
AcDbLine
 62
7
  6
CONTINUOUS
 10
4.8378363794
 20
6.0686671768
 11
5.3409611052
 21
6.2920714054
  0
LINE
  5
3DB
100
AcDbEntity
  8
0
100
AcDbLine
 62
7
  6
CONTINUOUS
 10
3.9393986052
 20
5.3346246245
 11
4.0831488794
 21
5.3984544125
  0
LINE
  5
3DC
100
AcDbEntity
  8
0
100
AcDbLine
 62
7
  6
CONTINUOUS
 10
-3.0543513948
 20
3.3941990931
 11
-3.1387263948
 21
3.3622842033
  0
LINE
  5
3DD
100
AcDbEntity
  8
0
100
AcDbLine
 62
7
  6
CONTINUOUS
 10
-1.8449765021
 20
3.3941990931
 11
-1.9293515021
 21
3.3622842033
  0
LINE
  5
3DE
100
AcDbEntity
  8
0
100
AcDbLine
 62
7
  6
CONTINUOUS
 10
12.9425236052
 20
-12.0972902682
 11
13.1425236052
 21
-12.212760322
  0
LINE
  5
3DF
100
AcDbEntity
  8
0
100
AcDbLine
 62
250
  6
CONTINUOUS
 10
12.9425236052
 20
-11.7671217549
 11
13.058245635
 21
-11.8372902682
  0
LWPOLYLINE
  5
3E0
100
AcDbEntity
  8
0
100
AcDbPolyline
 62
7
  6
CONTINUOUS
 90
5
 70
0
 10
10.423225983
 20
-11.4777489108
 10
10.4176396889
 20
-11.4742902682
 10
10.403578837
 20
-11.4632902682
 10
10.3951968483
 20
-11.4522902682
 10
10.3925236052
 20
-11.4416579101
  0
LWPOLYLINE
  5
3E1
100
AcDbEntity
  8
0
100
AcDbPolyline
 62
7
  6
CONTINUOUS
 90
3
 70
0
 10
13.0353330063
 20
-11.8159431694
 10
12.9692142224
 20
-11.7737164767
 10
12.9425236052
 20
-11.7565413111
  0
LINE
  5
3E2
100
AcDbEntity
  8
RACCORDO
100
AcDbLine
 62
250
  6
CONTINUOUS
 10
-13.5814987457
 20
14.3771330132
 11
-13.4626215244
 21
14.1958539816
  0
LINE
  5
3E3
100
AcDbEntity
  8
RACCORDO
100
AcDbLine
 62
7
  6
CONTINUOUS
 10
-13.5814530542
 20
14.4667255081
 11
-13.511706156
 21
14.3603666107
  0
LWPOLYLINE
  5
3E4
100
AcDbEntity
  8
RACCORDO
100
AcDbPolyline
 62
7
  6
CONTINUOUS
 90
5
 70
0
 10
-13.511706156
 20
14.3603666107
 10
-13.5027613355
 20
14.3458410887
 10
-13.4854141949
 20
14.3106505406
 10
-13.4728121672
 20
14.2734946316
 10
-13.4667924508
 20
14.2458289877
  0
LINE
  5
3E5
100
AcDbEntity
  8
0
100
AcDbLine
 62
7
  6
CONTINUOUS
 10
-3.9824763948
 20
4.3516459439
 11
-4.010601368
 21
4.4793055032
  0
LINE
  5
3E6
100
AcDbEntity
  8
0
100
AcDbLine
 62
7
  6
CONTINUOUS
 10
-3.757476368
 20
3.8410076175
 11
-3.7293513948
 21
3.6176033441
  0
LINE
  5
3E7
100
AcDbEntity
  8
0
100
AcDbLine
 62
7
  6
CONTINUOUS
 10
-2.7809139634
 20
5.8133480136
 11
-2.7809139634
 21
6.2920714054
  0
LINE
  5
3E8
100
AcDbEntity
  8
0
100
AcDbLine
 62
7
  6
CONTINUOUS
 10
-2.7449764485
 20
3.6176033441
 11
-2.7449764485
 21
3.7771778379
  0
LINE
  5
3E9
100
AcDbEntity
  8
0
100
AcDbLine
 62
7
  6
CONTINUOUS
 10
-2.5199763412
 20
4.2878160749
 11
-2.5199763412
 21
4.1601565156
  0
LINE
  5
3EA
100
AcDbEntity
  8
0
100
AcDbLine
 62
7
  6
CONTINUOUS
 10
-2.3793513948
 20
4.1920714054
 11
-2.3793513948
 21
4.2559011851
  0
LINE
  5
3EB
100
AcDbEntity
  8
0
100
AcDbLine
 62
7
  6
CONTINUOUS
 10
-1.6762265021
 20
4.2559011851
 11
-1.6762265021
 21
4.1920714054
  0
LINE
  5
3EC
100
AcDbEntity
  8
0
100
AcDbLine
 62
7
  6
CONTINUOUS
 10
-1.6481012875
 20
3.9048373971
 11
-1.6481012875
 21
3.8410076175
  0
LINE
  5
3ED
100
AcDbEntity
  8
0
100
AcDbLine
 62
7
  6
CONTINUOUS
 10
-1.5074765021
 20
3.8410076175
 11
-1.5074765021
 21
4.0644118462
  0
LINE
  5
3EE
100
AcDbEntity
  8
0
100
AcDbLine
 62
7
  6
CONTINUOUS
 10
-1.3074765319
 20
6.1005820666
 11
-1.3074765319
 21
6.0367522869
  0
LINE
  5
3EF
100
AcDbEntity
  8
0
100
AcDbLine
 62
7
  6
CONTINUOUS
 10
-1.5356013948
 20
3.6176033441
 11
-1.5074765021
 21
3.8410076175
  0
LINE
  5
3F0
100
AcDbEntity
  8
0
100
AcDbLine
 62
7
  6
CONTINUOUS
 10
-1.6481012875
 20
3.8410076175
 11
-1.6762265021
 21
3.6495182339
  0
LINE
  5
3F1
100
AcDbEntity
  8
0
100
AcDbLine
 62
7
  6
CONTINUOUS
 10
-1.1418512875
 20
4.0644118462
 11
-1.1137263948
 21
4.2559011851
  0
LINE
  5
3F2
100
AcDbEntity
  8
0
100
AcDbLine
 62
7
  6
CONTINUOUS
 10
-1.2543515021
 20
4.2559011851
 11
-1.2824763948
 21
4.096326736
  0
LINE
  5
3F3
100
AcDbEntity
  8
0
100
AcDbLine
 62
7
  6
CONTINUOUS
 10
-1.6762265021
 20
4.1920714054
 11
-1.7043513948
 21
4.096326736
  0
LINE
  5
3F4
100
AcDbEntity
  8
0
100
AcDbLine
 62
7
  6
CONTINUOUS
 10
-1.6762265021
 20
3.6495182339
 11
-1.7043513948
 21
3.5537735645
  0
LINE
  5
3F5
100
AcDbEntity
  8
0
100
AcDbLine
 62
7
  6
CONTINUOUS
 10
-1.2262262875
 20
4.3516459439
 11
-1.2543515021
 21
4.2559011851
  0
LINE
  5
3F6
100
AcDbEntity
  8
0
100
AcDbLine
 62
7
  6
CONTINUOUS
 10
-0.3262265021
 20
3.5537735645
 11
-0.2981012875
 21
3.6495182339
  0
LINE
  5
3F7
100
AcDbEntity
  8
0
100
AcDbLine
 62
7
  6
CONTINUOUS
 10
-1.5918515021
 20
3.4580288727
 11
-1.5356013948
 21
3.6176033441
  0
LINE
  5
3F8
100
AcDbEntity
  8
0
100
AcDbLine
 62
7
  6
CONTINUOUS
 10
0.0222112423
 20
5.8133480136
 11
0.3456487423
 21
6.6750501726
  0
LINE
  5
3F9
100
AcDbEntity
  8
0
100
AcDbLine
 62
7
  6
CONTINUOUS
 10
-0.1574763948
 20
5.3027097318
 11
-0.0137265319
 21
5.6856884543
  0
LINE
  5
3FA
100
AcDbEntity
  8
0
100
AcDbLine
 62
7
  6
CONTINUOUS
 10
0.2018984681
 20
6.8027097318
 11
-0.3731013948
 21
5.3027097318
  0
LINE
  5
3FB
100
AcDbEntity
  8
0
100
AcDbLine
 62
7
  6
CONTINUOUS
 10
0.0675236052
 20
4.4793055032
 11
0.0112734979
 21
4.3516459439
  0
LINE
  5
3FC
100
AcDbEntity
  8
0
100
AcDbLine
 62
7
  6
CONTINUOUS
 10
-0.3824762875
 20
3.4261139829
 11
-0.3262265021
 21
3.5537735645
  0
LINE
  5
3FD
100
AcDbEntity
  8
0
100
AcDbLine
 62
7
  6
CONTINUOUS
 10
-0.4387263948
 20
3.6495182339
 11
-0.5512262875
 21
3.4580288727
  0
LINE
  5
3FE
100
AcDbEntity
  8
0
100
AcDbLine
 62
7
  6
CONTINUOUS
 10
0.1237737125
 20
4.2559011851
 11
0.2362736052
 21
4.4473906133
  0
LINE
  5
3FF
100
AcDbEntity
  8
0
100
AcDbLine
 62
7
  6
CONTINUOUS
 10
2.5378361052
 20
6.1005820666
 11
2.6456486052
 21
6.2282416258
  0
LINE
  5
400
100
AcDbEntity
  8
0
100
AcDbLine
 62
7
  6
CONTINUOUS
 10
2.5378361052
 20
5.4303693023
 11
2.6456486052
 21
5.5580288727
  0
LINE
  5
401
100
AcDbEntity
  8
0
100
AcDbLine
 62
7
  6
CONTINUOUS
 10
-0.4668512875
 20
3.3303693023
 11
-0.3824762875
 21
3.4261139829
  0
LINE
  5
402
100
AcDbEntity
  8
0
100
AcDbLine
 62
7
  6
CONTINUOUS
 10
1.3893983906
 20
4.5750501726
 11
1.3050233906
 21
4.4793055032
  0
LINE
  5
403
100
AcDbEntity
  8
0
100
AcDbLine
 62
7
  6
CONTINUOUS
 10
0.7706488198
 20
3.3303693023
 11
0.8550238198
 21
3.4261139829
  0
LINE
  5
404
100
AcDbEntity
  8
0
100
AcDbLine
 62
7
  6
CONTINUOUS
 10
2.4300236052
 20
5.5899437849
 11
2.3581488794
 21
5.5261139829
  0
LINE
  5
405
100
AcDbEntity
  8
0
100
AcDbLine
 62
7
  6
CONTINUOUS
 10
4.0831488794
 20
5.3984544125
 11
4.226898331
 21
5.5261139829
  0
LINE
  5
406
100
AcDbEntity
  8
0
100
AcDbLine
 62
7
  6
CONTINUOUS
 10
1.4737733906
 20
4.4473906133
 11
1.5581483906
 21
4.511220393
  0
LINE
  5
407
100
AcDbEntity
  8
0
100
AcDbLine
 62
7
  6
CONTINUOUS
 10
0.6862738198
 20
3.4580288727
 11
0.6018988198
 21
3.3941990931
  0
LINE
  5
408
100
AcDbEntity
  8
0
100
AcDbLine
 62
7
  6
CONTINUOUS
 10
2.7112738198
 20
4.4473906133
 11
2.7956488198
 21
4.511220393
  0
LINE
  5
409
100
AcDbEntity
  8
0
100
AcDbLine
 62
7
  6
CONTINUOUS
 10
1.9237736052
 20
3.4580288727
 11
1.8393986052
 21
3.3941990931
  0
LINE
  5
40A
100
AcDbEntity
  8
0
100
AcDbLine
 62
7
  6
CONTINUOUS
 10
0.6300233906
 20
3.2346246245
 11
0.7706488198
 21
3.3303693023
  0
LINE
  5
40B
100
AcDbEntity
  8
0
100
AcDbLine
 62
7
  6
CONTINUOUS
 10
2.7675236052
 20
4.670794842
 11
2.6268988198
 21
4.5750501726
  0
LINE
  5
40C
100
AcDbEntity
  8
0
100
AcDbLine
 62
7
  6
CONTINUOUS
 10
1.8675238198
 20
3.2346246245
 11
2.0081486052
 21
3.3303693023
  0
LINE
  5
40D
100
AcDbEntity
  8
0
100
AcDbLine
 62
7
  6
CONTINUOUS
 10
4.011273331
 20
5.5899437849
 11
3.903460831
 21
5.5261139829
  0
LINE
  5
40E
100
AcDbEntity
  8
0
100
AcDbLine
 62
7
  6
CONTINUOUS
 10
3.9487736052
 20
4.670794842
 11
3.8362733906
 21
4.6069650624
  0
LINE
  5
40F
100
AcDbEntity
  8
RACCORDO
100
AcDbLine
 62
250
  6
CONTINUOUS
 10
13.2124352548
 20
-8.0947521672
 11
13.1476687348
 21
-8.0623713735
  0
LINE
  5
410
100
AcDbEntity
  8
0
100
AcDbLine
 62
7
  6
CONTINUOUS
 10
13.2618211608
 20
-10.7555668706
 11
13.2197715629
 21
-10.7307446323
  0
LINE
  5
411
100
AcDbEntity
  8
0
100
AcDbLine
 62
7
  6
CONTINUOUS
 10
10.423225983
 20
-8.1777489108
 11
10.6823350645
 21
-8.3312578999
  0
LINE
  5
412
100
AcDbEntity
  8
0
100
AcDbLine
 62
7
  6
CONTINUOUS
 10
10.6823350645
 20
-8.3312578999
 11
10.7425236052
 21
-8.367168203
  0
LWPOLYLINE
  5
413
100
AcDbEntity
  8
0
100
AcDbPolyline
 62
7
  6
CONTINUOUS
 90
5
 70
0
 10
10.423225983
 20
-8.1777489108
 10
10.4176396889
 20
-8.1742902682
 10
10.403578837
 20
-8.1632902682
 10
10.3951968483
 20
-8.1522902682
 10
10.3925236052
 20
-8.1416579101
  0
LINE
  5
414
100
AcDbEntity
  8
0
100
AcDbLine
 62
7
  6
CONTINUOUS
 10
13.0421773556
 20
-11.8206236015
 11
13.0353330063
 21
-11.8159431694
  0
LINE
  5
415
100
AcDbEntity
  8
0
100
AcDbLine
 62
7
  6
CONTINUOUS
 10
-4.2074764216
 20
4.4473906133
 11
-4.1512263948
 21
4.3516459439
  0
LINE
  5
416
100
AcDbEntity
  8
0
100
AcDbLine
 62
7
  6
CONTINUOUS
 10
-3.7293513948
 20
3.6176033441
 11
-3.673101368
 21
3.4580288727
  0
LINE
  5
417
100
AcDbEntity
  8
0
100
AcDbLine
 62
7
  6
CONTINUOUS
 10
-2.7449764485
 20
3.7771778379
 11
-2.8012263948
 21
3.9367522869
  0
LINE
  5
418
100
AcDbEntity
  8
0
100
AcDbLine
 62
7
  6
CONTINUOUS
 10
-3.5606013948
 20
3.5537735645
 11
-3.5887264485
 21
3.6495182339
  0
LINE
  5
419
100
AcDbEntity
  8
0
100
AcDbLine
 62
7
  6
CONTINUOUS
 10
-2.9137264485
 20
3.8410076175
 11
-2.8856013948
 21
3.7452629034
  0
LINE
  5
41A
100
AcDbEntity
  8
0
100
AcDbLine
 62
7
  6
CONTINUOUS
 10
-2.8012263948
 20
4.3516459439
 11
-2.8293514485
 21
4.4473906133
  0
LINE
  5
41B
100
AcDbEntity
  8
0
100
AcDbLine
 62
7
  6
CONTINUOUS
 10
-2.4637263948
 20
3.5537735645
 11
-2.4356013412
 21
3.4580288727
  0
LINE
  5
41C
100
AcDbEntity
  8
0
100
AcDbLine
 62
7
  6
CONTINUOUS
 10
-2.9965389634
 20
5.8133480136
 11
-2.9606013948
 21
5.6537735645
  0
LINE
  5
41D
100
AcDbEntity
  8
0
100
AcDbLine
 62
7
  6
CONTINUOUS
 10
-1.2824763948
 20
4.096326736
 11
-1.2824763948
 21
3.8090927277
  0
LINE
  5
41E
100
AcDbEntity
  8
0
100
AcDbLine
 62
7
  6
CONTINUOUS
 10
-1.1418512875
 20
3.8410076175
 11
-1.1418512875
 21
4.0644118462
  0
LINE
  5
41F
100
AcDbEntity
  8
0
100
AcDbLine
 62
7
  6
CONTINUOUS
 10
-1.0199763948
 20
6.3559011851
 11
-1.0199763948
 21
6.1005820666
  0
LINE
  5
420
100
AcDbEntity
  8
0
100
AcDbLine
 62
7
  6
CONTINUOUS
 10
-1.0199763948
 20
6.0367522869
 11
-1.0199763948
 21
5.7814331237
  0
LINE
  5
421
100
AcDbEntity
  8
0
100
AcDbLine
 62
7
  6
CONTINUOUS
 10
-0.9481012577
 20
5.7814331237
 11
-0.9481012577
 21
6.0367522869
  0
LINE
  5
422
100
AcDbEntity
  8
0
100
AcDbLine
 62
7
  6
CONTINUOUS
 10
-0.9481012577
 20
6.1005820666
 11
-0.9481012577
 21
6.3559011851
  0
LINE
  5
423
100
AcDbEntity
  8
0
100
AcDbLine
 62
7
  6
CONTINUOUS
 10
-0.6606015319
 20
6.0367522869
 11
-0.6606015319
 21
6.1005820666
  0
LINE
  5
424
100
AcDbEntity
  8
0
100
AcDbLine
 62
7
  6
CONTINUOUS
 10
-0.4106015021
 20
4.0644118462
 11
-0.4106015021
 21
3.8410076175
  0
LINE
  5
425
100
AcDbEntity
  8
0
100
AcDbLine
 62
7
  6
CONTINUOUS
 10
-0.3449763948
 20
8.4793055032
 11
-0.3449763948
 21
8.2239862953
  0
LINE
  5
426
100
AcDbEntity
  8
0
100
AcDbLine
 62
7
  6
CONTINUOUS
 10
-0.2699763948
 20
3.8090927277
 11
-0.2699763948
 21
4.096326736
  0
LINE
  5
427
100
AcDbEntity
  8
0
100
AcDbLine
 62
7
  6
CONTINUOUS
 10
-0.1574763948
 20
8.4473906133
 11
-0.1574763948
 21
7.2027097318
  0
LINE
  5
428
100
AcDbEntity
  8
0
100
AcDbLine
 62
7
  6
CONTINUOUS
 10
-0.0449762875
 20
4.096326736
 11
-0.0449762875
 21
3.8090927277
  0
LINE
  5
429
100
AcDbEntity
  8
0
100
AcDbLine
 62
7
  6
CONTINUOUS
 10
0.0300236052
 20
7.2027097318
 11
0.0300236052
 21
8.7027097318
  0
LINE
  5
42A
100
AcDbEntity
  8
0
100
AcDbLine
 62
7
  6
CONTINUOUS
 10
0.0956484979
 20
3.8410076175
 11
0.0956484979
 21
4.0644118462
  0
LINE
  5
42B
100
AcDbEntity
  8
0
100
AcDbLine
 62
7
  6
CONTINUOUS
 10
-0.4106015021
 20
3.8410076175
 11
-0.4387263948
 21
3.6495182339
  0
LINE
  5
42C
100
AcDbEntity
  8
0
100
AcDbLine
 62
7
  6
CONTINUOUS
 10
0.0956484979
 20
4.0644118462
 11
0.1237737125
 21
4.2559011851
  0
LINE
  5
42D
100
AcDbEntity
  8
0
100
AcDbLine
 62
7
  6
CONTINUOUS
 10
-0.2981012875
 20
3.6495182339
 11
-0.2699763948
 21
3.8090927277
  0
LINE
  5
42E
100
AcDbEntity
  8
0
100
AcDbLine
 62
7
  6
CONTINUOUS
 10
-0.0168513948
 20
4.2559011851
 11
-0.0449762875
 21
4.096326736
  0
LINE
  5
42F
100
AcDbEntity
  8
0
100
AcDbLine
 62
7
  6
CONTINUOUS
 10
0.0112734979
 20
4.3516459439
 11
-0.0168513948
 21
4.2559011851
  0
LINE
  5
430
100
AcDbEntity
  8
0
100
AcDbLine
 62
7
  6
CONTINUOUS
 10
0.9112736052
 20
3.5537735645
 11
0.9393988198
 21
3.6495182339
  0
LINE
  5
431
100
AcDbEntity
  8
0
100
AcDbLine
 62
7
  6
CONTINUOUS
 10
1.2487736052
 20
4.3516459439
 11
1.2206483906
 21
4.2559011851
  0
LINE
  5
432
100
AcDbEntity
  8
0
100
AcDbLine
 62
7
  6
CONTINUOUS
 10
2.4659613794
 20
6.3559011851
 11
2.4300236052
 21
6.2601565156
  0
LINE
  5
433
100
AcDbEntity
  8
0
100
AcDbLine
 62
7
  6
CONTINUOUS
 10
1.3050233906
 20
4.4793055032
 11
1.2487736052
 21
4.3516459439
  0
LINE
  5
434
100
AcDbEntity
  8
0
100
AcDbLine
 62
7
  6
CONTINUOUS
 10
0.8550238198
 20
3.4261139829
 11
0.9112736052
 21
3.5537735645
  0
LINE
  5
435
100
AcDbEntity
  8
0
100
AcDbLine
 62
7
  6
CONTINUOUS
 10
0.7987733906
 20
3.6495182339
 11
0.6862738198
 21
3.4580288727
  0
LINE
  5
436
100
AcDbEntity
  8
0
100
AcDbLine
 62
7
  6
CONTINUOUS
 10
1.3612738198
 20
4.2559011851
 11
1.4737733906
 21
4.4473906133
  0
LINE
  5
437
100
AcDbEntity
  8
0
100
AcDbLine
 62
7
  6
CONTINUOUS
 10
2.0362738198
 20
3.6495182339
 11
1.9237736052
 21
3.4580288727
  0
LINE
  5
438
100
AcDbEntity
  8
0
100
AcDbLine
 62
7
  6
CONTINUOUS
 10
2.5987736052
 20
4.2559011851
 11
2.7112738198
 21
4.4473906133
  0
LINE
  5
439
100
AcDbEntity
  8
0
100
AcDbLine
 62
7
  6
CONTINUOUS
 10
4.0831488794
 20
5.6856884543
 11
4.011273331
 21
5.5899437849
  0
LINE
  5
43A
100
AcDbEntity
  8
0
100
AcDbLine
 62
7
  6
CONTINUOUS
 10
2.6268988198
 20
4.5750501726
 11
2.5425238198
 21
4.4793055032
  0
LINE
  5
43B
100
AcDbEntity
  8
0
100
AcDbLine
 62
7
  6
CONTINUOUS
 10
2.0081486052
 20
3.3303693023
 11
2.0925236052
 21
3.4261139829
  0
LINE
  5
43C
100
AcDbEntity
  8
0
100
AcDbLine
 62
7
  6
CONTINUOUS
 10
3.8362733906
 20
4.6069650624
 11
3.7237738198
 21
4.4793055032
  0
LINE
  5
43D
100
AcDbEntity
  8
0
100
AcDbLine
 62
7
  6
CONTINUOUS
 10
3.8925238198
 20
4.4473906133
 11
3.9768988198
 21
4.511220393
  0
LINE
  5
43E
100
AcDbEntity
  8
0
100
AcDbLine
 62
7
  6
CONTINUOUS
 10
3.1612733906
 20
3.4580288727
 11
3.0768983906
 21
3.3941990931
  0
LINE
  5
43F
100
AcDbEntity
  8
0
100
AcDbLine
 62
7
  6
CONTINUOUS
 10
3.1050236052
 20
3.2346246245
 11
3.2456483906
 21
3.3303693023
  0
LINE
  5
440
100
AcDbEntity
  8
0
100
AcDbLine
 62
7
  6
CONTINUOUS
 10
10.4232260462
 20
-7.0777487627
 11
10.6823351411
 21
-7.2312577679
  0
LINE
  5
441
100
AcDbEntity
  8
0
100
AcDbLine
 62
7
  6
CONTINUOUS
 10
10.4232260156
 20
-5.9777482583
 11
10.6823351053
 21
-6.1312572566
  0
LINE
  5
442
100
AcDbEntity
  8
0
100
AcDbLine
 62
7
  6
CONTINUOUS
 10
10.6823351411
 20
-7.2312577679
 11
10.7425236052
 21
-7.2671680277
  0
LINE
  5
443
100
AcDbEntity
  8
0
100
AcDbLine
 62
7
  6
CONTINUOUS
 10
13.1128784172
 20
-8.4675023658
 11
12.9425236052
 21
-8.3661473869
  0
LWPOLYLINE
  5
444
100
AcDbEntity
  8
0
100
AcDbPolyline
 62
7
  6
CONTINUOUS
 90
5
 70
0
 10
10.4232260462
 20
-7.0777487627
 10
10.4176399792
 20
-7.0742902682
 10
10.4035790419
 20
-7.0632902682
 10
10.3951969549
 20
-7.0522902682
 10
10.3925236052
 20
-7.0416576872
  0
LINE
  5
445
100
AcDbEntity
  8
0
100
AcDbLine
 62
7
  6
CONTINUOUS
 10
-4.010601368
 20
4.4793055032
 11
-4.1231014216
 21
4.6069650624
  0
LWPOLYLINE
  5
446
100
AcDbEntity
  8
0
100
AcDbPolyline
 62
7
  6
CONTINUOUS
 90
7
 70
0
 10
12.0706377676
 20
-14.611881955
 10
12.0768322608
 20
-14.6192024944
 10
12.0830250072
 20
-14.6263626909
 10
12.0892159938
 20
-14.6333625459
 10
12.095405208
 20
-14.6402020606
 10
12.1015926368
 20
-14.6468812363
 10
12.1077782674
 20
-14.6534000743
  0
LINE
  5
447
100
AcDbEntity
  8
0
100
AcDbLine
 62
7
  6
CONTINUOUS
 10
-5.6559138948
 20
5.8452629034
 11
-5.5840388927
 21
5.7495182339
  0
LINE
  5
448
100
AcDbEntity
  8
0
100
AcDbLine
 62
7
  6
CONTINUOUS
 10
-3.673101368
 20
3.4580288727
 11
-3.5887264485
 21
3.3303693023
  0
LINE
  5
449
100
AcDbEntity
  8
0
100
AcDbLine
 62
7
  6
CONTINUOUS
 10
-2.4356013412
 20
3.4580288727
 11
-2.3512263412
 21
3.3303693023
  0
LINE
  5
44A
100
AcDbEntity
  8
0
100
AcDbLine
 62
7
  6
CONTINUOUS
 10
-2.8293514485
 20
4.4473906133
 11
-2.9137264485
 21
4.5750501726
  0
LINE
  5
44B
100
AcDbEntity
  8
0
100
AcDbLine
 62
7
  6
CONTINUOUS
 10
-2.4637263948
 20
4.0005820666
 11
-2.3793513948
 21
3.8729225073
  0
LINE
  5
44C
100
AcDbEntity
  8
0
100
AcDbLine
 62
7
  6
CONTINUOUS
 10
-3.5043514485
 20
3.4580288727
 11
-3.5606013948
 21
3.5537735645
  0
LINE
  5
44D
100
AcDbEntity
  8
0
100
AcDbLine
 62
7
  6
CONTINUOUS
 10
-2.9981014485
 20
4.4473906133
 11
-2.9418513412
 21
4.3516459439
  0
LINE
  5
44E
100
AcDbEntity
  8
0
100
AcDbLine
 62
7
  6
CONTINUOUS
 10
-2.2668515021
 20
3.4580288727
 11
-2.3231014485
 21
3.5537735645
  0
LINE
  5
44F
100
AcDbEntity
  8
0
100
AcDbLine
 62
7
  6
CONTINUOUS
 10
-2.2949763948
 20
4.0005820666
 11
-2.3512263412
 21
4.096326736
  0
LINE
  5
450
100
AcDbEntity
  8
0
100
AcDbLine
 62
7
  6
CONTINUOUS
 10
-2.9606013948
 20
5.6537735645
 11
-2.8887264634
 21
5.5261139829
  0
LINE
  5
451
100
AcDbEntity
  8
0
100
AcDbLine
 62
7
  6
CONTINUOUS
 10
-3.5356014634
 20
6.5473906133
 11
-3.4996638948
 21
6.4516459439
  0
LINE
  5
452
100
AcDbEntity
  8
0
100
AcDbLine
 62
7
  6
CONTINUOUS
 10
-3.2840388948
 20
6.4516459439
 11
-3.3199764634
 21
6.5473906133
  0
LINE
  5
453
100
AcDbEntity
  8
0
100
AcDbLine
 62
7
  6
CONTINUOUS
 10
-2.5199763412
 20
4.1601565156
 11
-2.4637263948
 21
4.0005820666
  0
LINE
  5
454
100
AcDbEntity
  8
0
100
AcDbLine
 62
7
  6
CONTINUOUS
 10
-1.5356013948
 20
4.2878160749
 11
-1.5918515021
 21
4.4473906133
  0
LINE
  5
455
100
AcDbEntity
  8
0
100
AcDbLine
 62
7
  6
CONTINUOUS
 10
-2.3512263412
 20
4.096326736
 11
-2.3793513948
 21
4.1920714054
  0
LINE
  5
456
100
AcDbEntity
  8
0
100
AcDbLine
 62
7
  6
CONTINUOUS
 10
-1.7043513948
 20
4.3516459439
 11
-1.6762265021
 21
4.2559011851
  0
LINE
  5
457
100
AcDbEntity
  8
0
100
AcDbLine
 62
7
  6
CONTINUOUS
 10
-1.2543515021
 20
3.6495182339
 11
-1.2262262875
 21
3.5537735645
  0
LINE
  5
458
100
AcDbEntity
  8
0
100
AcDbLine
 62
7
  6
CONTINUOUS
 10
-2.7449763948
 20
5.6856884543
 11
-2.7809139634
 21
5.8133480136
  0
LINE
  5
459
100
AcDbEntity
  8
0
100
AcDbLine
 62
7
  6
CONTINUOUS
 10
-1.5949762577
 20
6.4197309647
 11
-1.6309140319
 21
6.5793055032
  0
LINE
  5
45A
100
AcDbEntity
  8
0
100
AcDbLine
 62
7
  6
CONTINUOUS
 10
-1.2824763948
 20
3.8090927277
 11
-1.2543515021
 21
3.6495182339
  0
LINE
  5
45B
100
AcDbEntity
  8
0
100
AcDbLine
 62
7
  6
CONTINUOUS
 10
-1.1137263948
 20
3.6495182339
 11
-1.1418512875
 21
3.8410076175
  0
LINE
  5
45C
100
AcDbEntity
  8
0
100
AcDbLine
 62
7
  6
CONTINUOUS
 10
-0.4387263948
 20
4.2559011851
 11
-0.4106015021
 21
4.0644118462
  0
LINE
  5
45D
100
AcDbEntity
  8
0
100
AcDbLine
 62
7
  6
CONTINUOUS
 10
-1.5074765021
 20
4.0644118462
 11
-1.5356013948
 21
4.2878160749
  0
LINE
  5
45E
100
AcDbEntity
  8
0
100
AcDbLine
 62
7
  6
CONTINUOUS
 10
0.8268986052
 20
4.0644118462
 11
0.8268986052
 21
3.8410076175
  0
LINE
  5
45F
100
AcDbEntity
  8
0
100
AcDbLine
 62
7
  6
CONTINUOUS
 10
0.9675233906
 20
3.8090927277
 11
0.9675233906
 21
4.096326736
  0
LINE
  5
460
100
AcDbEntity
  8
0
100
AcDbLine
 62
7
  6
CONTINUOUS
 10
1.1925238198
 20
4.096326736
 11
1.1925238198
 21
3.8090927277
  0
LINE
  5
461
100
AcDbEntity
  8
0
100
AcDbLine
 62
7
  6
CONTINUOUS
 10
1.3331486052
 20
3.8410076175
 11
1.3331486052
 21
4.0644118462
  0
LINE
  5
462
100
AcDbEntity
  8
0
100
AcDbLine
 62
7
  6
CONTINUOUS
 10
1.3518986052
 20
6.8027097318
 11
1.3518986052
 21
5.3027097318
  0
LINE
  5
463
100
AcDbEntity
  8
0
100
AcDbLine
 62
7
  6
CONTINUOUS
 10
1.5675236052
 20
5.4941990931
 11
1.5675236052
 21
5.9729225073
  0
LINE
  5
464
100
AcDbEntity
  8
0
100
AcDbLine
 62
7
  6
CONTINUOUS
 10
1.5675236052
 20
6.1644118462
 11
1.5675236052
 21
6.611220393
  0
LINE
  5
465
100
AcDbEntity
  8
0
100
AcDbLine
 62
7
  6
CONTINUOUS
 10
0.8268986052
 20
3.8410076175
 11
0.7987733906
 21
3.6495182339
  0
LINE
  5
466
100
AcDbEntity
  8
0
100
AcDbLine
 62
7
  6
CONTINUOUS
 10
1.3331486052
 20
4.0644118462
 11
1.3612738198
 21
4.2559011851
  0
LINE
  5
467
100
AcDbEntity
  8
0
100
AcDbLine
 62
7
  6
CONTINUOUS
 10
2.0643983906
 20
3.8410076175
 11
2.0362738198
 21
3.6495182339
  0
LINE
  5
468
100
AcDbEntity
  8
0
100
AcDbLine
 62
7
  6
CONTINUOUS
 10
0.9393988198
 20
3.6495182339
 11
0.9675233906
 21
3.8090927277
  0
LINE
  5
469
100
AcDbEntity
  8
0
100
AcDbLine
 62
7
  6
CONTINUOUS
 10
1.2206483906
 20
4.2559011851
 11
1.1925238198
 21
4.096326736
  0
LINE
  5
46A
100
AcDbEntity
  8
0
100
AcDbLine
 62
7
  6
CONTINUOUS
 10
2.1768986052
 20
3.6495182339
 11
2.2050238198
 21
3.8090927277
  0
LINE
  5
46B
100
AcDbEntity
  8
0
100
AcDbLine
 62
7
  6
CONTINUOUS
 10
2.4581488198
 20
4.2559011851
 11
2.4300236052
 21
4.096326736
  0
LINE
  5
46C
100
AcDbEntity
  8
0
100
AcDbLine
 62
7
  6
CONTINUOUS
 10
3.1128363794
 20
6.5793055032
 11
3.0768986052
 21
6.4516459439
  0
LINE
  5
46D
100
AcDbEntity
  8
0
100
AcDbLine
 62
7
  6
CONTINUOUS
 10
2.1487733906
 20
3.5537735645
 11
2.1768986052
 21
3.6495182339
  0
LINE
  5
46E
100
AcDbEntity
  8
0
100
AcDbLine
 62
7
  6
CONTINUOUS
 10
2.4862733906
 20
4.3516459439
 11
2.4581488198
 21
4.2559011851
  0
LINE
  5
46F
100
AcDbEntity
  8
0
100
AcDbLine
 62
7
  6
CONTINUOUS
 10
2.6456486052
 20
6.2282416258
 11
2.6815863794
 21
6.3239862953
  0
LINE
  5
470
100
AcDbEntity
  8
0
100
AcDbLine
 62
7
  6
CONTINUOUS
 10
2.4659613794
 20
5.6856884543
 11
2.4300236052
 21
5.5899437849
  0
LINE
  5
471
100
AcDbEntity
  8
0
100
AcDbLine
 62
7
  6
CONTINUOUS
 10
2.6456486052
 20
5.5580288727
 11
2.6815863794
 21
5.6537735645
  0
LINE
  5
472
100
AcDbEntity
  8
0
100
AcDbLine
 62
7
  6
CONTINUOUS
 10
3.2925236052
 20
6.4197309647
 11
3.3284613794
 21
6.5154757235
  0
LINE
  5
473
100
AcDbEntity
  8
0
100
AcDbLine
 62
7
  6
CONTINUOUS
 10
2.5425238198
 20
4.4793055032
 11
2.4862733906
 21
4.3516459439
  0
LINE
  5
474
100
AcDbEntity
  8
0
100
AcDbLine
 62
7
  6
CONTINUOUS
 10
2.0925236052
 20
3.4261139829
 11
2.1487733906
 21
3.5537735645
  0
LINE
  5
475
100
AcDbEntity
  8
0
100
AcDbLine
 62
7
  6
CONTINUOUS
 10
3.3300233906
 20
3.4261139829
 11
3.3862738198
 21
3.5537735645
  0
LINE
  5
476
100
AcDbEntity
  8
0
100
AcDbLine
 62
7
  6
CONTINUOUS
 10
4.226898331
 20
5.5261139829
 11
4.2987738794
 21
5.6537735645
  0
LINE
  5
477
100
AcDbEntity
  8
0
100
AcDbLine
 62
7
  6
CONTINUOUS
 10
3.2737736052
 20
3.6495182339
 11
3.1612733906
 21
3.4580288727
  0
LINE
  5
478
100
AcDbEntity
  8
0
100
AcDbLine
 62
7
  6
CONTINUOUS
 10
3.8362733906
 20
4.3516459439
 11
3.8925238198
 21
4.4473906133
  0
LINE
  5
479
100
AcDbEntity
  8
0
100
AcDbLine
 62
7
  6
CONTINUOUS
 10
5.2690863794
 20
5.7495182339
 11
5.3409611052
 21
5.8452629034
  0
LINE
  5
47A
100
AcDbEntity
  8
0
100
AcDbLine
 62
7
  6
CONTINUOUS
 10
3.2456483906
 20
3.3303693023
 11
3.3300233906
 21
3.4261139829
  0
LINE
  5
47B
100
AcDbEntity
  8
0
100
AcDbLine
 62
7
  6
CONTINUOUS
 10
4.4550236052
 20
4.1601565156
 11
3.6675233906
 21
3.3622842033
  0
LINE
  5
47C
100
AcDbEntity
  8
0
100
AcDbLine
 62
7
  6
CONTINUOUS
 10
3.8925238198
 20
3.3622842033
 11
4.5956483906
 21
4.0644118462
  0
LINE
  5
47D
100
AcDbEntity
  8
RACCORDO
100
AcDbLine
 62
250
  6
CONTINUOUS
 10
-13.4626215244
 20
-8.0623713735
 11
-13.5273880444
 21
-8.0947521672
  0
LINE
  5
47E
100
AcDbEntity
  8
RACCORDO
100
AcDbLine
 62
250
  6
CONTINUOUS
 10
-13.1626672159
 20
-8.3623599504
 11
-13.2274337359
 21
-8.3947407441
  0
LINE
  5
47F
100
AcDbEntity
  8
0
100
AcDbLine
 62
7
  6
CONTINUOUS
 10
13.2618240253
 20
-7.4555685603
 11
13.008650145
 21
-7.3055940289
  0
LINE
  5
480
100
AcDbEntity
  8
0
100
AcDbLine
 62
7
  6
CONTINUOUS
 10
13.2618240152
 20
-6.3555679853
 11
13.0086501338
 21
-6.205593452
  0
LINE
  5
481
100
AcDbEntity
  8
0
100
AcDbLine
 62
7
  6
CONTINUOUS
 10
10.6823351053
 20
-6.1312572566
 11
10.7425236052
 21
-6.1671675366
  0
LINE
  5
482
100
AcDbEntity
  8
0
100
AcDbLine
 62
7
  6
CONTINUOUS
 10
13.008650145
 20
-7.3055940289
 11
12.9425236052
 21
-7.2661456773
  0
LINE
  5
483
100
AcDbEntity
  8
0
100
AcDbLine
 62
7
  6
CONTINUOUS
 10
13.0086501338
 20
-6.205593452
 11
12.9425236052
 21
-6.1661451068
  0
LWPOLYLINE
  5
484
100
AcDbEntity
  8
0
100
AcDbPolyline
 62
7
  6
CONTINUOUS
 90
5
 70
0
 10
10.4232260156
 20
-5.9777482583
 10
10.4176407227
 20
-5.9742902682
 10
10.4035795304
 20
-5.9632902682
 10
10.3951971925
 20
-5.9522902682
 10
10.3925236052
 20
-5.9416572205
  0
LINE
  5
485
100
AcDbEntity
  8
0
100
AcDbLine
 62
7
  6
CONTINUOUS
 10
-3.5887264485
 20
3.3303693023
 11
-3.4481013412
 21
3.2346246245
  0
LINE
  5
486
100
AcDbEntity
  8
0
100
AcDbLine
 62
7
  6
CONTINUOUS
 10
-2.3512263412
 20
3.3303693023
 11
-2.2106013948
 21
3.2346246245
  0
LINE
  5
487
100
AcDbEntity
  8
0
100
AcDbLine
 62
7
  6
CONTINUOUS
 10
-3.4199764485
 20
3.3941990931
 11
-3.5043514485
 21
3.4580288727
  0
LINE
  5
488
100
AcDbEntity
  8
0
100
AcDbLine
 62
7
  6
CONTINUOUS
 10
-4.2918514216
 20
4.511220393
 11
-4.2074764216
 21
4.4473906133
  0
LINE
  5
489
100
AcDbEntity
  8
0
100
AcDbLine
 62
7
  6
CONTINUOUS
 10
-3.0543513948
 20
3.9686671768
 11
-2.9699763948
 21
3.9048373971
  0
LINE
  5
48A
100
AcDbEntity
  8
0
100
AcDbLine
 62
7
  6
CONTINUOUS
 10
-2.1824765021
 20
3.3941990931
 11
-2.2668515021
 21
3.4580288727
  0
LINE
  5
48B
100
AcDbEntity
  8
0
100
AcDbLine
 62
7
  6
CONTINUOUS
 10
-2.9699763948
 20
3.9048373971
 11
-2.9137264485
 21
3.8410076175
  0
LINE
  5
48C
100
AcDbEntity
  8
0
100
AcDbLine
 62
7
  6
CONTINUOUS
 10
-2.8012263948
 20
3.9367522869
 11
-2.8856013948
 21
4.0324969564
  0
LINE
  5
48D
100
AcDbEntity
  8
0
100
AcDbLine
 62
7
  6
CONTINUOUS
 10
-1.1699765021
 20
3.4261139829
 11
-1.0856015021
 21
3.3303693023
  0
LINE
  5
48E
100
AcDbEntity
  8
0
100
AcDbLine
 62
7
  6
CONTINUOUS
 10
-3.3199764634
 20
6.5473906133
 11
-3.4277889634
 21
6.6750501726
  0
LINE
  5
48F
100
AcDbEntity
  8
0
100
AcDbLine
 62
7
  6
CONTINUOUS
 10
-2.6731014634
 20
5.5899437849
 11
-2.7449763948
 21
5.6856884543
  0
LINE
  5
490
100
AcDbEntity
  8
0
100
AcDbLine
 62
7
  6
CONTINUOUS
 10
-1.5918515021
 20
4.4473906133
 11
-1.6762265021
 21
4.5750501726
  0
LINE
  5
491
100
AcDbEntity
  8
0
100
AcDbLine
 62
7
  6
CONTINUOUS
 10
-1.7606015021
 20
4.4473906133
 11
-1.7043513948
 21
4.3516459439
  0
LINE
  5
492
100
AcDbEntity
  8
0
100
AcDbLine
 62
7
  6
CONTINUOUS
 10
-1.0012265021
 20
3.4580288727
 11
-1.1137263948
 21
3.6495182339
  0
LINE
  5
493
100
AcDbEntity
  8
0
100
AcDbLine
 62
7
  6
CONTINUOUS
 10
-1.2262262875
 20
3.5537735645
 11
-1.1699765021
 21
3.4261139829
  0
LINE
  5
494
100
AcDbEntity
  8
0
100
AcDbLine
 62
7
  6
CONTINUOUS
 10
0.0112734979
 20
3.5537735645
 11
0.0675236052
 21
3.4261139829
  0
LINE
  5
495
100
AcDbEntity
  8
0
100
AcDbLine
 62
7
  6
CONTINUOUS
 10
-0.3262265021
 20
4.3516459439
 11
-0.3824762875
 21
4.4793055032
  0
LINE
  5
496
100
AcDbEntity
  8
0
100
AcDbLine
 62
7
  6
CONTINUOUS
 10
-1.8465390319
 20
6.5154757235
 11
-1.8106012577
 21
6.4197309647
  0
LINE
  5
497
100
AcDbEntity
  8
0
100
AcDbLine
 62
7
  6
CONTINUOUS
 10
-0.2981012875
 20
4.2559011851
 11
-0.3262265021
 21
4.3516459439
  0
LINE
  5
498
100
AcDbEntity
  8
0
100
AcDbLine
 62
7
  6
CONTINUOUS
 10
-0.0168513948
 20
3.6495182339
 11
0.0112734979
 21
3.5537735645
  0
LINE
  5
499
100
AcDbEntity
  8
0
100
AcDbLine
 62
7
  6
CONTINUOUS
 10
-0.2699763948
 20
4.096326736
 11
-0.2981012875
 21
4.2559011851
  0
LINE
  5
49A
100
AcDbEntity
  8
0
100
AcDbLine
 62
7
  6
CONTINUOUS
 10
-0.0449762875
 20
3.8090927277
 11
-0.0168513948
 21
3.6495182339
  0
LINE
  5
49B
100
AcDbEntity
  8
0
100
AcDbLine
 62
7
  6
CONTINUOUS
 10
0.9675233906
 20
4.096326736
 11
0.9393988198
 21
4.2559011851
  0
LINE
  5
49C
100
AcDbEntity
  8
0
100
AcDbLine
 62
7
  6
CONTINUOUS
 10
0.1237737125
 20
3.6495182339
 11
0.0956484979
 21
3.8410076175
  0
LINE
  5
49D
100
AcDbEntity
  8
0
100
AcDbLine
 62
7
  6
CONTINUOUS
 10
0.7987733906
 20
4.2559011851
 11
0.8268986052
 21
4.0644118462
  0
LINE
  5
49E
100
AcDbEntity
  8
0
100
AcDbLine
 62
7
  6
CONTINUOUS
 10
2.0643983906
 20
4.0644118462
 11
2.0643983906
 21
3.8410076175
  0
LINE
  5
49F
100
AcDbEntity
  8
0
100
AcDbLine
 62
7
  6
CONTINUOUS
 10
2.2050238198
 20
3.8090927277
 11
2.2050238198
 21
4.096326736
  0
LINE
  5
4A0
100
AcDbEntity
  8
0
100
AcDbLine
 62
7
  6
CONTINUOUS
 10
2.4300236052
 20
4.096326736
 11
2.4300236052
 21
3.8090927277
  0
LINE
  5
4A1
100
AcDbEntity
  8
0
100
AcDbLine
 62
7
  6
CONTINUOUS
 10
2.4659613794
 20
6.4197309647
 11
2.4659613794
 21
6.3559011851
  0
LINE
  5
4A2
100
AcDbEntity
  8
0
100
AcDbLine
 62
7
  6
CONTINUOUS
 10
2.4659613794
 20
5.7814331237
 11
2.4659613794
 21
5.6856884543
  0
LINE
  5
4A3
100
AcDbEntity
  8
0
100
AcDbLine
 62
7
  6
CONTINUOUS
 10
2.5706483906
 20
3.8410076175
 11
2.5706483906
 21
4.0644118462
  0
LINE
  5
4A4
100
AcDbEntity
  8
0
100
AcDbLine
 62
7
  6
CONTINUOUS
 10
2.6815863794
 20
5.6537735645
 11
2.6815863794
 21
5.8133480136
  0
LINE
  5
4A5
100
AcDbEntity
  8
0
100
AcDbLine
 62
7
  6
CONTINUOUS
 10
2.6815863794
 20
6.3239862953
 11
2.6815863794
 21
6.4516459439
  0
LINE
  5
4A6
100
AcDbEntity
  8
0
100
AcDbLine
 62
7
  6
CONTINUOUS
 10
3.0768986052
 20
6.4516459439
 11
3.0768986052
 21
6.3239862953
  0
LINE
  5
4A7
100
AcDbEntity
  8
0
100
AcDbLine
 62
7
  6
CONTINUOUS
 10
2.5706483906
 20
4.0644118462
 11
2.5987736052
 21
4.2559011851
  0
LINE
  5
4A8
100
AcDbEntity
  8
0
100
AcDbLine
 62
7
  6
CONTINUOUS
 10
3.3018988198
 20
3.8410076175
 11
3.2737736052
 21
3.6495182339
  0
LINE
  5
4A9
100
AcDbEntity
  8
0
100
AcDbLine
 62
7
  6
CONTINUOUS
 10
3.4143983906
 20
3.6495182339
 11
3.4425236052
 21
3.8090927277
  0
LINE
  5
4AA
100
AcDbEntity
  8
0
100
AcDbLine
 62
7
  6
CONTINUOUS
 10
3.7237738198
 20
4.4793055032
 11
3.6956486052
 21
4.3516459439
  0
LINE
  5
4AB
100
AcDbEntity
  8
0
100
AcDbLine
 62
7
  6
CONTINUOUS
 10
3.3862738198
 20
3.5537735645
 11
3.4143983906
 21
3.6495182339
  0
LINE
  5
4AC
100
AcDbEntity
  8
0
100
AcDbLine
 62
7
  6
CONTINUOUS
 10
4.5112733906
 20
4.2878160749
 11
4.4550236052
 21
4.1601565156
  0
LINE
  5
4AD
100
AcDbEntity
  8
0
100
AcDbLine
 62
7
  6
CONTINUOUS
 10
4.5956483906
 20
4.0644118462
 11
4.6518988198
 21
4.1601565156
  0
LINE
  5
4AE
100
AcDbEntity
  8
RACCORDO
100
AcDbLine
 62
7
  6
CONTINUOUS
 10
13.1967533663
 20
14.3603666107
 11
13.2665002646
 21
14.4667255081
  0
LINE
  5
4AF
100
AcDbEntity
  8
0
100
AcDbLine
 62
7
  6
CONTINUOUS
 10
3.0768983906
 20
3.3941990931
 11
2.9362736052
 21
3.3622842033
  0
LINE
  5
4B0
100
AcDbEntity
  8
0
100
AcDbLine
 62
7
  6
CONTINUOUS
 10
1.8393986052
 20
3.3941990931
 11
1.6987738198
 21
3.3622842033
  0
LINE
  5
4B1
100
AcDbEntity
  8
0
100
AcDbLine
 62
7
  6
CONTINUOUS
 10
0.6018988198
 20
3.3941990931
 11
0.4612733906
 21
3.3622842033
  0
LINE
  5
4B2
100
AcDbEntity
  8
0
100
AcDbLine
 62
7
  6
CONTINUOUS
 10
2.9362736052
 20
3.2027097318
 11
3.1050236052
 21
3.2346246245
  0
LINE
  5
4B3
100
AcDbEntity
  8
0
100
AcDbLine
 62
7
  6
CONTINUOUS
 10
1.6987738198
 20
3.2027097318
 11
1.8675238198
 21
3.2346246245
  0
LINE
  5
4B4
100
AcDbEntity
  8
0
100
AcDbLine
 62
7
  6
CONTINUOUS
 10
0.4612733906
 20
3.2027097318
 11
0.6300233906
 21
3.2346246245
  0
LINE
  5
4B5
100
AcDbEntity
  8
0
100
AcDbLine
 62
7
  6
CONTINUOUS
 10
-0.9449763948
 20
3.2346246245
 11
-0.7762263948
 21
3.2027097318
  0
LINE
  5
4B6
100
AcDbEntity
  8
0
100
AcDbLine
 62
7
  6
CONTINUOUS
 10
-3.4481013412
 20
3.2346246245
 11
-3.3074763948
 21
3.2027097318
  0
LINE
  5
4B7
100
AcDbEntity
  8
0
100
AcDbLine
 62
7
  6
CONTINUOUS
 10
-2.2106013948
 20
3.2346246245
 11
-2.0699762875
 21
3.2027097318
  0
LINE
  5
4B8
100
AcDbEntity
  8
0
100
AcDbLine
 62
7
  6
CONTINUOUS
 10
-0.7762263948
 20
3.3622842033
 11
-0.9168515021
 21
3.3941990931
  0
LINE
  5
4B9
100
AcDbEntity
  8
0
100
AcDbLine
 62
7
  6
CONTINUOUS
 10
-2.2387262875
 20
3.7771778379
 11
-2.0981015021
 21
3.7452629034
  0
LINE
  5
4BA
100
AcDbEntity
  8
0
100
AcDbLine
 62
7
  6
CONTINUOUS
 10
-3.3356014485
 20
3.3622842033
 11
-3.4199764485
 21
3.3941990931
  0
LINE
  5
4BB
100
AcDbEntity
  8
0
100
AcDbLine
 62
7
  6
CONTINUOUS
 10
-2.0981015021
 20
3.3622842033
 11
-2.1824765021
 21
3.3941990931
  0
LINE
  5
4BC
100
AcDbEntity
  8
0
100
AcDbLine
 62
7
  6
CONTINUOUS
 10
-3.1387263948
 20
4.0005820666
 11
-3.0543513948
 21
3.9686671768
  0
LINE
  5
4BD
100
AcDbEntity
  8
0
100
AcDbLine
 62
7
  6
CONTINUOUS
 10
-2.1262263948
 20
3.9048373971
 11
-2.2106013948
 21
3.9367522869
  0
LINE
  5
4BE
100
AcDbEntity
  8
0
100
AcDbLine
 62
7
  6
CONTINUOUS
 10
-3.1668514485
 20
4.5431352828
 11
-3.0824764485
 21
4.511220393
  0
LINE
  5
4BF
100
AcDbEntity
  8
0
100
AcDbLine
 62
7
  6
CONTINUOUS
 10
-4.1231014216
 20
4.6069650624
 11
-4.2356013948
 21
4.670794842
  0
LINE
  5
4C0
100
AcDbEntity
  8
0
100
AcDbLine
 62
7
  6
CONTINUOUS
 10
13.261824099
 20
-5.2555681475
 11
13.0086502358
 21
-5.1055936357
  0
LINE
  5
4C1
100
AcDbEntity
  8
0
100
AcDbLine
 62
7
  6
CONTINUOUS
 10
13.0086502358
 20
-5.1055936357
 11
12.9425236052
 21
-5.066145233
  0
LINE
  5
4C2
100
AcDbEntity
  8
0
100
AcDbLine
 62
7
  6
CONTINUOUS
 10
-2.8856013948
 20
4.0324969564
 11
-3.0262263412
 21
4.1282416258
  0
LINE
  5
4C3
100
AcDbEntity
  8
0
100
AcDbLine
 62
7
  6
CONTINUOUS
 10
-2.3793513948
 20
3.8729225073
 11
-2.2387262875
 21
3.7771778379
  0
LINE
  5
4C4
100
AcDbEntity
  8
0
100
AcDbLine
 62
7
  6
CONTINUOUS
 10
-2.9137264485
 20
4.5750501726
 11
-3.0543513948
 21
4.670794842
  0
LINE
  5
4C5
100
AcDbEntity
  8
0
100
AcDbLine
 62
7
  6
CONTINUOUS
 10
-1.0856015021
 20
3.3303693023
 11
-0.9449763948
 21
3.2346246245
  0
LINE
  5
4C6
100
AcDbEntity
  8
0
100
AcDbLine
 62
7
  6
CONTINUOUS
 10
-1.6762265021
 20
4.5750501726
 11
-1.8168512875
 21
4.670794842
  0
LINE
  5
4C7
100
AcDbEntity
  8
0
100
AcDbLine
 62
7
  6
CONTINUOUS
 10
0.1518986052
 20
3.3303693023
 11
0.2925237125
 21
3.2346246245
  0
LINE
  5
4C8
100
AcDbEntity
  8
0
100
AcDbLine
 62
7
  6
CONTINUOUS
 10
-3.0824764485
 20
4.511220393
 11
-2.9981014485
 21
4.4473906133
  0
LINE
  5
4C9
100
AcDbEntity
  8
0
100
AcDbLine
 62
7
  6
CONTINUOUS
 10
-2.2106013948
 20
3.9367522869
 11
-2.2949763948
 21
4.0005820666
  0
LINE
  5
4CA
100
AcDbEntity
  8
0
100
AcDbLine
 62
7
  6
CONTINUOUS
 10
-0.9168515021
 20
3.3941990931
 11
-1.0012265021
 21
3.4580288727
  0
LINE
  5
4CB
100
AcDbEntity
  8
0
100
AcDbLine
 62
7
  6
CONTINUOUS
 10
-1.8449765021
 20
4.511220393
 11
-1.7606015021
 21
4.4473906133
  0
LINE
  5
4CC
100
AcDbEntity
  8
0
100
AcDbLine
 62
7
  6
CONTINUOUS
 10
0.3206486052
 20
3.3941990931
 11
0.2362736052
 21
3.4580288727
  0
LINE
  5
4CD
100
AcDbEntity
  8
0
100
AcDbLine
 62
7
  6
CONTINUOUS
 10
10.7984903207
 20
-4.9056089616
 11
10.7899106717
 21
-4.8989953331
  0
LWPOLYLINE
  5
4CE
100
AcDbEntity
  8
RACCORDO
100
AcDbPolyline
 62
250
  6
CONTINUOUS
 90
16
 70
0
 10
-13.4626215244
 20
14.1958539816
 10
-13.4605220067
 20
14.194195947
 10
-13.455281575
 20
14.192585648
 10
-13.4469112764
 20
14.1910230845
 10
-13.4354295914
 20
14.1894897107
 10
-13.4209325779
 20
14.1880040723
 10
-13.4036544532
 20
14.186621807
 10
-13.3838575917
 20
14.1853498417
 10
-13.3617200977
 20
14.1841812494
 10
-13.3374257625
 20
14.183150886
 10
-13.3111806703
 20
14.18226219
 10
-13.2833055707
 20
14.1815117229
 10
-13.254184095
 20
14.1809240255
 10
-13.224166259
 20
14.180507278
 10
-13.1935507885
 20
14.1802533002
 10
-13.1626672159
 20
14.180162092
  0
LINE
  5
4CF
100
AcDbEntity
  8
0
100
AcDbLine
 62
7
  6
CONTINUOUS
 10
-2.8887264634
 20
5.5261139829
 11
-2.7449763948
 21
5.3984544125
  0
LINE
  5
4D0
100
AcDbEntity
  8
0
100
AcDbLine
 62
7
  6
CONTINUOUS
 10
-3.6074763948
 20
6.611220393
 11
-3.5356014634
 21
6.5473906133
  0
LINE
  5
4D1
100
AcDbEntity
  8
0
100
AcDbLine
 62
7
  6
CONTINUOUS
 10
0.0675236052
 20
3.4261139829
 11
0.1518986052
 21
3.3303693023
  0
LINE
  5
4D2
100
AcDbEntity
  8
0
100
AcDbLine
 62
7
  6
CONTINUOUS
 10
-0.3824762875
 20
4.4793055032
 11
-0.4668512875
 21
4.5750501726
  0
LWPOLYLINE
  5
4D3
100
AcDbEntity
  8
0
100
AcDbPolyline
 62
7
  6
CONTINUOUS
 90
3
 70
0
 10
13.058245635
 20
-11.8372902682
 10
13.0518219646
 20
-11.8289569348
 10
13.0421773556
 20
-11.8206236015
  0
LINE
  5
4D4
100
AcDbEntity
  8
0
100
AcDbLine
 62
7
  6
CONTINUOUS
 10
-0.5512262875
 20
4.4473906133
 11
-0.4387263948
 21
4.2559011851
  0
LINE
  5
4D5
100
AcDbEntity
  8
0
100
AcDbLine
 62
7
  6
CONTINUOUS
 10
0.2362736052
 20
3.4580288727
 11
0.1237737125
 21
3.6495182339
  0
LINE
  5
4D6
100
AcDbEntity
  8
0
100
AcDbLine
 62
7
  6
CONTINUOUS
 10
0.6862738198
 20
4.4473906133
 11
0.7987733906
 21
4.2559011851
  0
LINE
  5
4D7
100
AcDbEntity
  8
0
100
AcDbLine
 62
7
  6
CONTINUOUS
 10
1.4737733906
 20
3.4580288727
 11
1.3612738198
 21
3.6495182339
  0
LINE
  5
4D8
100
AcDbEntity
  8
0
100
AcDbLine
 62
7
  6
CONTINUOUS
 10
1.2487736052
 20
3.5537735645
 11
1.3050233906
 21
3.4261139829
  0
LINE
  5
4D9
100
AcDbEntity
  8
0
100
AcDbLine
 62
7
  6
CONTINUOUS
 10
0.9112736052
 20
4.3516459439
 11
0.8550238198
 21
4.4793055032
  0
LINE
  5
4DA
100
AcDbEntity
  8
0
100
AcDbLine
 62
7
  6
CONTINUOUS
 10
1.0643984681
 20
5.3027097318
 11
0.4893986052
 21
6.8027097318
  0
LINE
  5
4DB
100
AcDbEntity
  8
0
100
AcDbLine
 62
7
  6
CONTINUOUS
 10
0.7050236052
 20
5.6856884543
 11
0.8487734681
 21
5.3027097318
  0
LINE
  5
4DC
100
AcDbEntity
  8
0
100
AcDbLine
 62
7
  6
CONTINUOUS
 10
0.3456487423
 20
6.6750501726
 11
0.6690862423
 21
5.8133480136
  0
LINE
  5
4DD
100
AcDbEntity
  8
0
100
AcDbLine
 62
7
  6
CONTINUOUS
 10
0.9393988198
 20
4.2559011851
 11
0.9112736052
 21
4.3516459439
  0
LINE
  5
4DE
100
AcDbEntity
  8
0
100
AcDbLine
 62
7
  6
CONTINUOUS
 10
1.2206483906
 20
3.6495182339
 11
1.2487736052
 21
3.5537735645
  0
LINE
  5
4DF
100
AcDbEntity
  8
0
100
AcDbLine
 62
7
  6
CONTINUOUS
 10
1.1925238198
 20
3.8090927277
 11
1.2206483906
 21
3.6495182339
  0
LINE
  5
4E0
100
AcDbEntity
  8
0
100
AcDbLine
 62
7
  6
CONTINUOUS
 10
2.2050238198
 20
4.096326736
 11
2.1768986052
 21
4.2559011851
  0
LINE
  5
4E1
100
AcDbEntity
  8
0
100
AcDbLine
 62
7
  6
CONTINUOUS
 10
2.4300236052
 20
3.8090927277
 11
2.4581488198
 21
3.6495182339
  0
LINE
  5
4E2
100
AcDbEntity
  8
0
100
AcDbLine
 62
7
  6
CONTINUOUS
 10
1.3612738198
 20
3.6495182339
 11
1.3331486052
 21
3.8410076175
  0
LINE
  5
4E3
100
AcDbEntity
  8
0
100
AcDbLine
 62
7
  6
CONTINUOUS
 10
2.0362738198
 20
4.2559011851
 11
2.0643983906
 21
4.0644118462
  0
LINE
  5
4E4
100
AcDbEntity
  8
0
100
AcDbLine
 62
7
  6
CONTINUOUS
 10
2.5987736052
 20
3.6495182339
 11
2.5706483906
 21
3.8410076175
  0
LINE
  5
4E5
100
AcDbEntity
  8
0
100
AcDbLine
 62
7
  6
CONTINUOUS
 10
3.2925236052
 20
6.3559011851
 11
3.2925236052
 21
6.4197309647
  0
LINE
  5
4E6
100
AcDbEntity
  8
0
100
AcDbLine
 62
7
  6
CONTINUOUS
 10
3.3018988198
 20
4.0644118462
 11
3.3018988198
 21
3.8410076175
  0
LINE
  5
4E7
100
AcDbEntity
  8
0
100
AcDbLine
 62
7
  6
CONTINUOUS
 10
3.4425236052
 20
3.8090927277
 11
3.4425236052
 21
4.096326736
  0
LINE
  5
4E8
100
AcDbEntity
  8
0
100
AcDbLine
 62
7
  6
CONTINUOUS
 10
3.6675233906
 20
3.3622842033
 11
3.6675233906
 21
3.2027097318
  0
LINE
  5
4E9
100
AcDbEntity
  8
0
100
AcDbLine
 62
7
  6
CONTINUOUS
 10
4.0831488794
 20
5.7814331237
 11
4.0831488794
 21
5.6856884543
  0
LINE
  5
4EA
100
AcDbEntity
  8
0
100
AcDbLine
 62
7
  6
CONTINUOUS
 10
4.2987738794
 20
5.6537735645
 11
4.2987738794
 21
5.8133480136
  0
LINE
  5
4EB
100
AcDbEntity
  8
0
100
AcDbLine
 62
7
  6
CONTINUOUS
 10
4.5112733906
 20
4.3516459439
 11
4.5112733906
 21
4.2878160749
  0
LINE
  5
4EC
100
AcDbEntity
  8
0
100
AcDbLine
 62
7
  6
CONTINUOUS
 10
4.6800233906
 20
3.2027097318
 11
4.6800233906
 21
3.3622842033
  0
LINE
  5
4ED
100
AcDbEntity
  8
0
100
AcDbLine
 62
7
  6
CONTINUOUS
 10
4.6800233906
 20
4.2878160749
 11
4.6800233906
 21
4.3516459439
  0
LINE
  5
4EE
100
AcDbEntity
  8
0
100
AcDbLine
 62
7
  6
CONTINUOUS
 10
4.6518988198
 20
4.1601565156
 11
4.6800233906
 21
4.2878160749
  0
LINE
  5
4EF
100
AcDbEntity
  8
RACCORDO
100
AcDbLine
 62
250
  6
CONTINUOUS
 10
13.1476687348
 20
14.1958539816
 11
13.266545956
 21
14.3771330132
  0
LINE
  5
4F0
100
AcDbEntity
  8
0
100
AcDbLine
 62
7
  6
CONTINUOUS
 10
-0.6356012875
 20
3.3941990931
 11
-0.7762263948
 21
3.3622842033
  0
LINE
  5
4F1
100
AcDbEntity
  8
0
100
AcDbLine
 62
7
  6
CONTINUOUS
 10
3.9768988198
 20
4.511220393
 11
4.1175236052
 21
4.5431352828
  0
LINE
  5
4F2
100
AcDbEntity
  8
0
100
AcDbLine
 62
7
  6
CONTINUOUS
 10
-1.9574763948
 20
3.2027097318
 11
-1.8168512875
 21
3.2346246245
  0
LINE
  5
4F3
100
AcDbEntity
  8
0
100
AcDbLine
 62
7
  6
CONTINUOUS
 10
2.7956488198
 20
4.511220393
 11
2.9362736052
 21
4.5431352828
  0
LINE
  5
4F4
100
AcDbEntity
  8
0
100
AcDbLine
 62
7
  6
CONTINUOUS
 10
-3.1668514485
 20
3.2027097318
 11
-3.0262263412
 21
3.2346246245
  0
LINE
  5
4F5
100
AcDbEntity
  8
0
100
AcDbLine
 62
7
  6
CONTINUOUS
 10
1.5581483906
 20
4.511220393
 11
1.6987738198
 21
4.5431352828
  0
LINE
  5
4F6
100
AcDbEntity
  8
0
100
AcDbLine
 62
7
  6
CONTINUOUS
 10
-1.9574763948
 20
3.7452629034
 11
-1.8168512875
 21
3.7771778379
  0
LINE
  5
4F7
100
AcDbEntity
  8
0
100
AcDbLine
 62
7
  6
CONTINUOUS
 10
0.3206486052
 20
4.511220393
 11
0.4612733906
 21
4.5431352828
  0
LINE
  5
4F8
100
AcDbEntity
  8
0
100
AcDbLine
 62
7
  6
CONTINUOUS
 10
-0.9168515021
 20
4.511220393
 11
-0.7762263948
 21
4.5431352828
  0
LINE
  5
4F9
100
AcDbEntity
  8
0
100
AcDbLine
 62
7
  6
CONTINUOUS
 10
3.903460831
 20
5.5261139829
 11
3.7597113794
 21
5.4941990931
  0
LINE
  5
4FA
100
AcDbEntity
  8
0
100
AcDbLine
 62
7
  6
CONTINUOUS
 10
-0.7762263948
 20
3.2027097318
 11
-0.6074763948
 21
3.2346246245
  0
LINE
  5
4FB
100
AcDbEntity
  8
0
100
AcDbLine
 62
7
  6
CONTINUOUS
 10
2.9362736052
 20
4.7027097318
 11
2.7675236052
 21
4.670794842
  0
LINE
  5
4FC
100
AcDbEntity
  8
0
100
AcDbLine
 62
7
  6
CONTINUOUS
 10
1.6987738198
 20
4.7027097318
 11
1.5300238198
 21
4.670794842
  0
LINE
  5
4FD
100
AcDbEntity
  8
0
100
AcDbLine
 62
7
  6
CONTINUOUS
 10
0.4612733906
 20
4.7027097318
 11
0.2925237125
 21
4.670794842
  0
LINE
  5
4FE
100
AcDbEntity
  8
0
100
AcDbLine
 62
7
  6
CONTINUOUS
 10
3.7597113794
 20
5.3027097318
 11
3.9393986052
 21
5.3346246245
  0
LINE
  5
4FF
100
AcDbEntity
  8
0
100
AcDbLine
 62
7
  6
CONTINUOUS
 10
4.1456488198
 20
4.7027097318
 11
3.9487736052
 21
4.670794842
  0
LINE
  5
500
100
AcDbEntity
  8
0
100
AcDbLine
 62
7
  6
CONTINUOUS
 10
-4.9949763948
 20
3.2027097318
 11
-3.9824763948
 21
3.2027097318
  0
LINE
  5
501
100
AcDbEntity
  8
0
100
AcDbLine
 62
7
  6
CONTINUOUS
 10
-3.3074763948
 20
3.2027097318
 11
-3.1668514485
 21
3.2027097318
  0
LINE
  5
502
100
AcDbEntity
  8
0
100
AcDbLine
 62
7
  6
CONTINUOUS
 10
-2.0699762875
 20
3.2027097318
 11
-1.9574763948
 21
3.2027097318
  0
LINE
  5
503
100
AcDbEntity
  8
0
100
AcDbLine
 62
7
  6
CONTINUOUS
 10
3.6675233906
 20
3.2027097318
 11
4.6800233906
 21
3.2027097318
  0
LINE
  5
504
100
AcDbEntity
  8
0
100
AcDbLine
 62
7
  6
CONTINUOUS
 10
4.6800233906
 20
3.3622842033
 11
3.8925238198
 21
3.3622842033
  0
LINE
  5
505
100
AcDbEntity
  8
0
100
AcDbLine
 62
7
  6
CONTINUOUS
 10
-1.9293515021
 20
3.3622842033
 11
-2.0981015021
 21
3.3622842033
  0
LINE
  5
506
100
AcDbEntity
  8
0
100
AcDbLine
 62
7
  6
CONTINUOUS
 10
-3.1387263948
 20
3.3622842033
 11
-3.3356014485
 21
3.3622842033
  0
LINE
  5
507
100
AcDbEntity
  8
0
100
AcDbLine
 62
7
  6
CONTINUOUS
 10
-3.9824763948
 20
3.3622842033
 11
-4.7699763881
 21
3.3622842033
  0
LINE
  5
508
100
AcDbEntity
  8
0
100
AcDbLine
 62
7
  6
CONTINUOUS
 10
-2.3231014485
 20
3.5537735645
 11
-2.4637263948
 21
3.5537735645
  0
LINE
  5
509
100
AcDbEntity
  8
0
100
AcDbLine
 62
7
  6
CONTINUOUS
 10
-2.0981015021
 20
3.7452629034
 11
-1.9574763948
 21
3.7452629034
  0
LINE
  5
50A
100
AcDbEntity
  8
0
100
AcDbLine
 62
7
  6
CONTINUOUS
 10
-1.9293515021
 20
3.9048373971
 11
-2.1262263948
 21
3.9048373971
  0
LINE
  5
50B
100
AcDbEntity
  8
0
100
AcDbLine
 62
7
  6
CONTINUOUS
 10
-3.3356014485
 20
4.0005820666
 11
-3.1387263948
 21
4.0005820666
  0
LINE
  5
50C
100
AcDbEntity
  8
0
100
AcDbLine
 62
7
  6
CONTINUOUS
 10
-3.1668514485
 20
4.1601565156
 11
-3.3074763948
 21
4.1601565156
  0
LINE
  5
50D
100
AcDbEntity
  8
0
100
AcDbLine
 62
7
  6
CONTINUOUS
 10
-4.966851394
 20
4.3516459439
 11
-4.8262263948
 21
4.3516459439
  0
LINE
  5
50E
100
AcDbEntity
  8
0
100
AcDbLine
 62
7
  6
CONTINUOUS
 10
-2.9418513412
 20
4.3516459439
 11
-2.8012263948
 21
4.3516459439
  0
LINE
  5
50F
100
AcDbEntity
  8
0
100
AcDbLine
 62
7
  6
CONTINUOUS
 10
3.6956486052
 20
4.3516459439
 11
3.8362733906
 21
4.3516459439
  0
LINE
  5
510
100
AcDbEntity
  8
0
100
AcDbLine
 62
7
  6
CONTINUOUS
 10
-4.5449763814
 20
4.5431352828
 11
-4.4324764082
 21
4.5431352828
  0
LINE
  5
511
100
AcDbEntity
  8
0
100
AcDbLine
 62
7
  6
CONTINUOUS
 10
-3.3356014485
 20
4.5431352828
 11
-3.1668514485
 21
4.5431352828
  0
LINE
  5
512
100
AcDbEntity
  8
0
100
AcDbLine
 62
7
  6
CONTINUOUS
 10
-2.1262263948
 20
4.5431352828
 11
-1.9293515021
 21
4.5431352828
  0
LINE
  5
513
100
AcDbEntity
  8
0
100
AcDbLine
 62
7
  6
CONTINUOUS
 10
4.1175236052
 20
4.5431352828
 11
4.2300238198
 21
4.5431352828
  0
LINE
  5
514
100
AcDbEntity
  8
0
100
AcDbLine
 62
7
  6
CONTINUOUS
 10
0.2925237125
 20
3.2346246245
 11
0.4612733906
 21
3.2027097318
  0
LINE
  5
515
100
AcDbEntity
  8
0
100
AcDbLine
 62
7
  6
CONTINUOUS
 10
1.5300238198
 20
3.2346246245
 11
1.6987738198
 21
3.2027097318
  0
LINE
  5
516
100
AcDbEntity
  8
0
100
AcDbLine
 62
7
  6
CONTINUOUS
 10
2.7675236052
 20
3.2346246245
 11
2.9362736052
 21
3.2027097318
  0
LINE
  5
517
100
AcDbEntity
  8
0
100
AcDbLine
 62
7
  6
CONTINUOUS
 10
-4.2356013948
 20
4.670794842
 11
-4.4043513948
 21
4.7027097318
  0
LINE
  5
518
100
AcDbEntity
  8
0
100
AcDbLine
 62
7
  6
CONTINUOUS
 10
-0.6074763948
 20
4.670794842
 11
-0.7762263948
 21
4.7027097318
  0
LINE
  5
519
100
AcDbEntity
  8
0
100
AcDbLine
 62
7
  6
CONTINUOUS
 10
-3.0262263412
 20
4.1282416258
 11
-3.1668514485
 21
4.1601565156
  0
LINE
  5
51A
100
AcDbEntity
  8
0
100
AcDbLine
 62
7
  6
CONTINUOUS
 10
0.4612733906
 20
3.3622842033
 11
0.3206486052
 21
3.3941990931
  0
LINE
  5
51B
100
AcDbEntity
  8
0
100
AcDbLine
 62
7
  6
CONTINUOUS
 10
-4.4324764082
 20
4.5431352828
 11
-4.2918514216
 21
4.511220393
  0
LINE
  5
51C
100
AcDbEntity
  8
0
100
AcDbLine
 62
7
  6
CONTINUOUS
 10
1.6987738198
 20
3.3622842033
 11
1.5581483906
 21
3.3941990931
  0
LINE
  5
51D
100
AcDbEntity
  8
0
100
AcDbLine
 62
7
  6
CONTINUOUS
 10
-3.0543513948
 20
4.670794842
 11
-3.1949763412
 21
4.7027097318
  0
LINE
  5
51E
100
AcDbEntity
  8
0
100
AcDbLine
 62
7
  6
CONTINUOUS
 10
2.9362736052
 20
3.3622842033
 11
2.7956488198
 21
3.3941990931
  0
LINE
  5
51F
100
AcDbEntity
  8
0
100
AcDbLine
 62
7
  6
CONTINUOUS
 10
-1.8168512875
 20
4.670794842
 11
-1.9574763948
 21
4.7027097318
  0
LINE
  5
520
100
AcDbEntity
  8
0
100
AcDbLine
 62
7
  6
CONTINUOUS
 10
-0.7762263948
 20
4.5431352828
 11
-0.6356012875
 21
4.511220393
  0
LINE
  5
521
100
AcDbEntity
  8
0
100
AcDbLine
 62
7
  6
CONTINUOUS
 10
0.4612733906
 20
4.5431352828
 11
0.6018988198
 21
4.511220393
  0
LINE
  5
522
100
AcDbEntity
  8
0
100
AcDbLine
 62
7
  6
CONTINUOUS
 10
-1.9293515021
 20
4.5431352828
 11
-1.8449765021
 21
4.511220393
  0
LINE
  5
523
100
AcDbEntity
  8
0
100
AcDbLine
 62
7
  6
CONTINUOUS
 10
-5.6559138948
 20
6.2920714054
 11
-5.152788912
 21
6.0686671768
  0
LINE
  5
524
100
AcDbEntity
  8
0
100
AcDbLine
 62
7
  6
CONTINUOUS
 10
-2.7449763948
 20
5.3984544125
 11
-2.6012263263
 21
5.3346246245
  0
LINE
  5
525
100
AcDbEntity
  8
0
100
AcDbLine
 62
7
  6
CONTINUOUS
 10
-4.9012263948
 20
6.0686671768
 11
-5.5840388927
 21
6.3878160749
  0
LINE
  5
526
100
AcDbEntity
  8
0
100
AcDbLine
 62
7
  6
CONTINUOUS
 10
-2.5652889634
 20
5.5261139829
 11
-2.6731014634
 21
5.5899437849
  0
LINE
  5
527
100
AcDbEntity
  8
0
100
AcDbLine
 62
7
  6
CONTINUOUS
 10
-1.9543515319
 20
6.5793055032
 11
-1.8465390319
 21
6.5154757235
  0
LINE
  5
528
100
AcDbEntity
  8
0
100
AcDbLine
 62
7
  6
CONTINUOUS
 10
-3.4277889634
 20
6.6750501726
 11
-3.5715388263
 21
6.770794842
  0
LINE
  5
529
100
AcDbEntity
  8
0
100
AcDbLine
 62
7
  6
CONTINUOUS
 10
-0.4668512875
 20
4.5750501726
 11
-0.6074763948
 21
4.670794842
  0
LINE
  5
52A
100
AcDbEntity
  8
0
100
AcDbLine
 62
7
  6
CONTINUOUS
 10
1.3893983906
 20
3.3303693023
 11
1.5300238198
 21
3.2346246245
  0
LINE
  5
52B
100
AcDbEntity
  8
0
100
AcDbLine
 62
7
  6
CONTINUOUS
 10
0.7706488198
 20
4.5750501726
 11
0.6300233906
 21
4.670794842
  0
LINE
  5
52C
100
AcDbEntity
  8
0
100
AcDbLine
 62
7
  6
CONTINUOUS
 10
2.6268988198
 20
3.3303693023
 11
2.7675236052
 21
3.2346246245
  0
LINE
  5
52D
100
AcDbEntity
  8
0
100
AcDbLine
 62
7
  6
CONTINUOUS
 10
-0.6356012875
 20
4.511220393
 11
-0.5512262875
 21
4.4473906133
  0
LINE
  5
52E
100
AcDbEntity
  8
0
100
AcDbLine
 62
7
  6
CONTINUOUS
 10
1.5581483906
 20
3.3941990931
 11
1.4737733906
 21
3.4580288727
  0
LINE
  5
52F
100
AcDbEntity
  8
0
100
AcDbLine
 62
7
  6
CONTINUOUS
 10
0.6018988198
 20
4.511220393
 11
0.6862738198
 21
4.4473906133
  0
LINE
  5
530
100
AcDbEntity
  8
0
100
AcDbLine
 62
7
  6
CONTINUOUS
 10
2.7956488198
 20
3.3941990931
 11
2.7112738198
 21
3.4580288727
  0
LINE
  5
531
100
AcDbEntity
  8
0
100
AcDbLine
 62
7
  6
CONTINUOUS
 10
-1.6309140319
 20
6.5793055032
 11
-1.7746638948
 21
6.7069650624
  0
LINE
  5
532
100
AcDbEntity
  8
0
100
AcDbLine
 62
7
  6
CONTINUOUS
 10
1.3050233906
 20
3.4261139829
 11
1.3893983906
 21
3.3303693023
  0
LINE
  5
533
100
AcDbEntity
  8
0
100
AcDbLine
 62
7
  6
CONTINUOUS
 10
0.8550238198
 20
4.4793055032
 11
0.7706488198
 21
4.5750501726
  0
LINE
  5
534
100
AcDbEntity
  8
0
100
AcDbLine
 62
7
  6
CONTINUOUS
 10
2.5425238198
 20
3.4261139829
 11
2.6268988198
 21
3.3303693023
  0
LINE
  5
535
100
AcDbEntity
  8
0
100
AcDbLine
 62
7
  6
CONTINUOUS
 10
2.0925236052
 20
4.4793055032
 11
2.0081486052
 21
4.5750501726
  0
LINE
  5
536
100
AcDbEntity
  8
RACCORDO
100
AcDbLine
 62
250
  6
CONTINUOUS
 10
14.5425875722
 20
-10.8972902682
 11
14.355708712
 21
-10.673025615
  0
LINE
  5
537
100
AcDbEntity
  8
RACCORDO
100
AcDbLine
 62
250
  6
CONTINUOUS
 10
14.8425236052
 20
-10.5973341315
 11
14.6556630206
 21
-10.3730914099
  0
LINE
  5
538
100
AcDbEntity
  8
0
100
AcDbLine
 62
7
  6
CONTINUOUS
 10
1.9237736052
 20
4.4473906133
 11
2.0362738198
 21
4.2559011851
  0
LINE
  5
539
100
AcDbEntity
  8
0
100
AcDbLine
 62
7
  6
CONTINUOUS
 10
2.7112738198
 20
3.4580288727
 11
2.5987736052
 21
3.6495182339
  0
LINE
  5
53A
100
AcDbEntity
  8
0
100
AcDbLine
 62
7
  6
CONTINUOUS
 10
2.4862733906
 20
3.5537735645
 11
2.5425238198
 21
3.4261139829
  0
LINE
  5
53B
100
AcDbEntity
  8
0
100
AcDbLine
 62
7
  6
CONTINUOUS
 10
2.1487733906
 20
4.3516459439
 11
2.0925236052
 21
4.4793055032
  0
LINE
  5
53C
100
AcDbEntity
  8
0
100
AcDbLine
 62
7
  6
CONTINUOUS
 10
2.4300236052
 20
5.8771778379
 11
2.4659613794
 21
5.7814331237
  0
LINE
  5
53D
100
AcDbEntity
  8
0
100
AcDbLine
 62
7
  6
CONTINUOUS
 10
2.6815863794
 20
5.8133480136
 11
2.6456486052
 21
5.9090927277
  0
LINE
  5
53E
100
AcDbEntity
  8
0
100
AcDbLine
 62
7
  6
CONTINUOUS
 10
2.4300236052
 20
6.5154757235
 11
2.4659613794
 21
6.4197309647
  0
LINE
  5
53F
100
AcDbEntity
  8
0
100
AcDbLine
 62
7
  6
CONTINUOUS
 10
2.1768986052
 20
4.2559011851
 11
2.1487733906
 21
4.3516459439
  0
LINE
  5
540
100
AcDbEntity
  8
0
100
AcDbLine
 62
7
  6
CONTINUOUS
 10
2.4581488198
 20
3.6495182339
 11
2.4862733906
 21
3.5537735645
  0
LINE
  5
541
100
AcDbEntity
  8
0
100
AcDbLine
 62
7
  6
CONTINUOUS
 10
3.4143983906
 20
4.2559011851
 11
3.3862738198
 21
4.3516459439
  0
LINE
  5
542
100
AcDbEntity
  8
0
100
AcDbLine
 62
7
  6
CONTINUOUS
 10
2.9690861052
 20
5.7176033441
 11
3.0050238794
 21
5.5899437849
  0
LINE
  5
543
100
AcDbEntity
  8
0
100
AcDbLine
 62
7
  6
CONTINUOUS
 10
3.0768986052
 20
6.3239862953
 11
3.1128363794
 21
6.196326736
  0
LINE
  5
544
100
AcDbEntity
  8
0
100
AcDbLine
 62
7
  6
CONTINUOUS
 10
3.4425236052
 20
4.096326736
 11
3.4143983906
 21
4.2559011851
  0
LINE
  5
545
100
AcDbEntity
  8
0
100
AcDbLine
 62
7
  6
CONTINUOUS
 10
3.2737736052
 20
4.2559011851
 11
3.3018988198
 21
4.0644118462
  0
LINE
  5
546
100
AcDbEntity
  8
0
100
AcDbLine
 62
7
  6
CONTINUOUS
 10
-3.3074763948
 20
4.1601565156
 11
-3.4481013412
 21
4.1282416258
  0
LINE
  5
547
100
AcDbEntity
  8
0
100
AcDbLine
 62
7
  6
CONTINUOUS
 10
-2.0981015021
 20
4.7027097318
 11
-2.2387262875
 21
4.670794842
  0
LINE
  5
548
100
AcDbEntity
  8
0
100
AcDbLine
 62
7
  6
CONTINUOUS
 10
-3.3074763948
 20
4.7027097318
 11
-3.4481013412
 21
4.670794842
  0
LINE
  5
549
100
AcDbEntity
  8
0
100
AcDbLine
 62
7
  6
CONTINUOUS
 10
-4.6856013881
 20
4.511220393
 11
-4.5449763814
 21
4.5431352828
  0
LINE
  5
54A
100
AcDbEntity
  8
0
100
AcDbLine
 62
7
  6
CONTINUOUS
 10
-1.9543515319
 20
5.5261139829
 11
-2.0981013948
 21
5.4941990931
  0
LINE
  5
54B
100
AcDbEntity
  8
0
100
AcDbLine
 62
7
  6
CONTINUOUS
 10
3.5440863794
 20
6.8027097318
 11
3.4003361052
 21
6.770794842
  0
LINE
  5
54C
100
AcDbEntity
  8
0
100
AcDbLine
 62
7
  6
CONTINUOUS
 10
-0.7762263948
 20
4.7027097318
 11
-0.9449763948
 21
4.670794842
  0
LINE
  5
54D
100
AcDbEntity
  8
0
100
AcDbLine
 62
7
  6
CONTINUOUS
 10
2.2143986052
 20
5.3027097318
 11
2.394085831
 21
5.3346246245
  0
LINE
  5
54E
100
AcDbEntity
  8
0
100
AcDbLine
 62
7
  6
CONTINUOUS
 10
-2.0981013948
 20
5.3027097318
 11
-1.9184137577
 21
5.3346246245
  0
LINE
  5
54F
100
AcDbEntity
  8
0
100
AcDbLine
 62
7
  6
CONTINUOUS
 10
-4.5168514082
 20
4.7027097318
 11
-4.7137264015
 21
4.670794842
  0
LINE
  5
550
100
AcDbEntity
  8
0
100
AcDbLine
 62
7
  6
CONTINUOUS
 10
4.2581483906
 20
4.7027097318
 11
4.1456488198
 21
4.7027097318
  0
LINE
  5
551
100
AcDbEntity
  8
0
100
AcDbLine
 62
7
  6
CONTINUOUS
 10
-1.9574763948
 20
4.7027097318
 11
-2.0981015021
 21
4.7027097318
  0
LINE
  5
552
100
AcDbEntity
  8
0
100
AcDbLine
 62
7
  6
CONTINUOUS
 10
-3.1949763412
 20
4.7027097318
 11
-3.3074763948
 21
4.7027097318
  0
LINE
  5
553
100
AcDbEntity
  8
0
100
AcDbLine
 62
7
  6
CONTINUOUS
 10
-4.4043513948
 20
4.7027097318
 11
-4.5168514082
 21
4.7027097318
  0
LINE
  5
554
100
AcDbEntity
  8
0
100
AcDbLine
 62
7
  6
CONTINUOUS
 10
-4.6137263606
 20
5.3027097318
 11
-4.3981013606
 21
5.3027097318
  0
LINE
  5
555
100
AcDbEntity
  8
0
100
AcDbLine
 62
7
  6
CONTINUOUS
 10
-2.4215388948
 20
5.3027097318
 11
-2.0981013948
 21
5.3027097318
  0
LINE
  5
556
100
AcDbEntity
  8
0
100
AcDbLine
 62
7
  6
CONTINUOUS
 10
-0.3731013948
 20
5.3027097318
 11
-0.1574763948
 21
5.3027097318
  0
LINE
  5
557
100
AcDbEntity
  8
0
100
AcDbLine
 62
7
  6
CONTINUOUS
 10
0.8487734681
 20
5.3027097318
 11
1.0643984681
 21
5.3027097318
  0
LINE
  5
558
100
AcDbEntity
  8
0
100
AcDbLine
 62
7
  6
CONTINUOUS
 10
1.3518986052
 20
5.3027097318
 11
2.2143986052
 21
5.3027097318
  0
LINE
  5
559
100
AcDbEntity
  8
0
100
AcDbLine
 62
7
  6
CONTINUOUS
 10
3.472210831
 20
5.3027097318
 11
3.7597113794
 21
5.3027097318
  0
LINE
  5
55A
100
AcDbEntity
  8
0
100
AcDbLine
 62
7
  6
CONTINUOUS
 10
3.7597113794
 20
5.4941990931
 11
3.472210831
 21
5.4941990931
  0
LINE
  5
55B
100
AcDbEntity
  8
0
100
AcDbLine
 62
7
  6
CONTINUOUS
 10
2.2503363794
 20
5.4941990931
 11
1.5675236052
 21
5.4941990931
  0
LINE
  5
55C
100
AcDbEntity
  8
0
100
AcDbLine
 62
7
  6
CONTINUOUS
 10
-2.0981013948
 20
5.4941990931
 11
-2.4215388948
 21
5.4941990931
  0
LINE
  5
55D
100
AcDbEntity
  8
0
100
AcDbLine
 62
7
  6
CONTINUOUS
 10
-0.0137265319
 20
5.6856884543
 11
0.7050236052
 21
5.6856884543
  0
LINE
  5
55E
100
AcDbEntity
  8
0
100
AcDbLine
 62
7
  6
CONTINUOUS
 10
-1.5949762577
 20
5.6856884543
 11
-1.8106012577
 21
5.6856884543
  0
LINE
  5
55F
100
AcDbEntity
  8
0
100
AcDbLine
 62
7
  6
CONTINUOUS
 10
3.1847111052
 20
5.7176033441
 11
2.9690861052
 21
5.7176033441
  0
LINE
  5
560
100
AcDbEntity
  8
0
100
AcDbLine
 62
7
  6
CONTINUOUS
 10
-1.0199763948
 20
5.7814331237
 11
-0.9481012577
 21
5.7814331237
  0
LINE
  5
561
100
AcDbEntity
  8
0
100
AcDbLine
 62
7
  6
CONTINUOUS
 10
0.6690862423
 20
5.8133480136
 11
0.0222112423
 21
5.8133480136
  0
LINE
  5
562
100
AcDbEntity
  8
0
100
AcDbLine
 62
7
  6
CONTINUOUS
 10
-4.3981013606
 20
5.9729225073
 11
-3.7512264634
 21
5.9729225073
  0
LINE
  5
563
100
AcDbEntity
  8
0
100
AcDbLine
 62
7
  6
CONTINUOUS
 10
1.5675236052
 20
5.9729225073
 11
2.2503363794
 21
5.9729225073
  0
LINE
  5
564
100
AcDbEntity
  8
0
100
AcDbLine
 62
7
  6
CONTINUOUS
 10
3.5440863794
 20
5.9729225073
 11
3.7597113794
 21
5.9729225073
  0
LINE
  5
565
100
AcDbEntity
  8
0
100
AcDbLine
 62
7
  6
CONTINUOUS
 10
-1.3074765319
 20
6.0367522869
 11
-1.0199763948
 21
6.0367522869
  0
LINE
  5
566
100
AcDbEntity
  8
0
100
AcDbLine
 62
7
  6
CONTINUOUS
 10
-0.9481012577
 20
6.0367522869
 11
-0.6606015319
 21
6.0367522869
  0
LINE
  5
567
100
AcDbEntity
  8
0
100
AcDbLine
 62
7
  6
CONTINUOUS
 10
-0.6606015319
 20
6.1005820666
 11
-0.9481012577
 21
6.1005820666
  0
LINE
  5
568
100
AcDbEntity
  8
0
100
AcDbLine
 62
7
  6
CONTINUOUS
 10
-1.0199763948
 20
6.1005820666
 11
-1.3074765319
 21
6.1005820666
  0
LINE
  5
569
100
AcDbEntity
  8
0
100
AcDbLine
 62
7
  6
CONTINUOUS
 10
3.7597113794
 20
6.1644118462
 11
3.5440863794
 21
6.1644118462
  0
LINE
  5
56A
100
AcDbEntity
  8
0
100
AcDbLine
 62
7
  6
CONTINUOUS
 10
2.2503363794
 20
6.1644118462
 11
1.5675236052
 21
6.1644118462
  0
LINE
  5
56B
100
AcDbEntity
  8
0
100
AcDbLine
 62
7
  6
CONTINUOUS
 10
-3.7152888948
 20
6.1644118462
 11
-4.3981013606
 21
6.1644118462
  0
LINE
  5
56C
100
AcDbEntity
  8
0
100
AcDbLine
 62
7
  6
CONTINUOUS
 10
-2.6012263263
 20
5.3346246245
 11
-2.4215388948
 21
5.3027097318
  0
LINE
  5
56D
100
AcDbEntity
  8
0
100
AcDbLine
 62
7
  6
CONTINUOUS
 10
3.2925236052
 20
5.3346246245
 11
3.472210831
 21
5.3027097318
  0
LINE
  5
56E
100
AcDbEntity
  8
0
100
AcDbLine
 62
7
  6
CONTINUOUS
 10
-3.5715388263
 20
6.770794842
 11
-3.7512264634
 21
6.8027097318
  0
LINE
  5
56F
100
AcDbEntity
  8
0
100
AcDbLine
 62
7
  6
CONTINUOUS
 10
0.6300233906
 20
4.670794842
 11
0.4612733906
 21
4.7027097318
  0
LINE
  5
570
100
AcDbEntity
  8
0
100
AcDbLine
 62
7
  6
CONTINUOUS
 10
1.8675238198
 20
4.670794842
 11
1.6987738198
 21
4.7027097318
  0
LINE
  5
571
100
AcDbEntity
  8
0
100
AcDbLine
 62
7
  6
CONTINUOUS
 10
3.1050236052
 20
4.670794842
 11
2.9362736052
 21
4.7027097318
  0
LINE
  5
572
100
AcDbEntity
  8
0
100
AcDbLine
 62
7
  6
CONTINUOUS
 10
4.4268983906
 20
4.670794842
 11
4.2581483906
 21
4.7027097318
  0
LINE
  5
573
100
AcDbEntity
  8
0
100
AcDbLine
 62
7
  6
CONTINUOUS
 10
-2.4215388948
 20
5.4941990931
 11
-2.5652889634
 21
5.5261139829
  0
LINE
  5
574
100
AcDbEntity
  8
0
100
AcDbLine
 62
7
  6
CONTINUOUS
 10
-2.0981013948
 20
6.611220393
 11
-1.9543515319
 21
6.5793055032
  0
LINE
  5
575
100
AcDbEntity
  8
0
100
AcDbLine
 62
7
  6
CONTINUOUS
 10
3.472210831
 20
5.4941990931
 11
3.3284613794
 21
5.5261139829
  0
LINE
  5
576
100
AcDbEntity
  8
0
100
AcDbLine
 62
7
  6
CONTINUOUS
 10
1.6987738198
 20
4.5431352828
 11
1.8393986052
 21
4.511220393
  0
LINE
  5
577
100
AcDbEntity
  8
0
100
AcDbLine
 62
7
  6
CONTINUOUS
 10
2.9362736052
 20
4.5431352828
 11
3.0768983906
 21
4.511220393
  0
LINE
  5
578
100
AcDbEntity
  8
0
100
AcDbLine
 62
7
  6
CONTINUOUS
 10
4.2300238198
 20
4.5431352828
 11
4.3706486052
 21
4.511220393
  0
LINE
  5
579
100
AcDbEntity
  8
0
100
AcDbLine
 62
7
  6
CONTINUOUS
 10
-3.7152888948
 20
6.6431352828
 11
-3.6074763948
 21
6.611220393
  0
LINE
  5
57A
100
AcDbEntity
  8
0
100
AcDbLine
 62
7
  6
CONTINUOUS
 10
-1.7746638948
 20
6.7069650624
 11
-1.9184137577
 21
6.770794842
  0
LINE
  5
57B
100
AcDbEntity
  8
0
100
AcDbLine
 62
7
  6
CONTINUOUS
 10
2.0081486052
 20
4.5750501726
 11
1.8675238198
 21
4.670794842
  0
LINE
  5
57C
100
AcDbEntity
  8
0
100
AcDbLine
 62
7
  6
CONTINUOUS
 10
3.2456483906
 20
4.5750501726
 11
3.1050236052
 21
4.670794842
  0
LINE
  5
57D
100
AcDbEntity
  8
0
100
AcDbLine
 62
7
  6
CONTINUOUS
 10
1.8393986052
 20
4.511220393
 11
1.9237736052
 21
4.4473906133
  0
LINE
  5
57E
100
AcDbEntity
  8
0
100
AcDbLine
 62
7
  6
CONTINUOUS
 10
3.0768983906
 20
4.511220393
 11
3.1612733906
 21
4.4473906133
  0
LINE
  5
57F
100
AcDbEntity
  8
0
100
AcDbLine
 62
7
  6
CONTINUOUS
 10
2.3581488794
 20
5.9410076175
 11
2.4300236052
 21
5.8771778379
  0
LWPOLYLINE
  5
580
100
AcDbEntity
  8
0
100
AcDbPolyline
 62
7
  6
CONTINUOUS
 90
4
 70
0
 10
10.7899106717
 20
-4.8989953331
 10
10.780443881
 20
-4.8884236163
 10
10.7751854999
 20
-4.8778518996
 10
10.7739698897
 20
-4.8697298709
  0
LINE
  5
581
100
AcDbEntity
  8
0
100
AcDbLine
 62
7
  6
CONTINUOUS
 10
3.3300233906
 20
4.4793055032
 11
3.2456483906
 21
4.5750501726
  0
LINE
  5
582
100
AcDbEntity
  8
0
100
AcDbLine
 62
7
  6
CONTINUOUS
 10
2.6456486052
 20
5.9090927277
 11
2.5378361052
 21
6.0367522869
  0
LINE
  5
583
100
AcDbEntity
  8
0
100
AcDbLine
 62
7
  6
CONTINUOUS
 10
3.0050238794
 20
5.5899437849
 11
3.1128363794
 21
5.4303693023
  0
LINE
  5
584
100
AcDbEntity
  8
0
100
AcDbLine
 62
7
  6
CONTINUOUS
 10
3.1612733906
 20
4.4473906133
 11
3.2737736052
 21
4.2559011851
  0
LINE
  5
585
100
AcDbEntity
  8
0
100
AcDbLine
 62
7
  6
CONTINUOUS
 10
4.4550236052
 20
4.4473906133
 11
4.5112733906
 21
4.3516459439
  0
LINE
  5
586
100
AcDbEntity
  8
0
100
AcDbLine
 62
7
  6
CONTINUOUS
 10
3.3862738198
 20
4.3516459439
 11
3.3300233906
 21
4.4793055032
  0
LINE
  5
587
100
AcDbEntity
  8
0
100
AcDbLine
 62
7
  6
CONTINUOUS
 10
2.6815863794
 20
6.4516459439
 11
2.6456486052
 21
6.5473906133
  0
LINE
  5
588
100
AcDbEntity
  8
0
100
AcDbLine
 62
7
  6
CONTINUOUS
 10
3.2206488794
 20
5.6218586747
 11
3.1847111052
 21
5.7176033441
  0
LINE
  5
589
100
AcDbEntity
  8
0
100
AcDbLine
 62
7
  6
CONTINUOUS
 10
3.3284613794
 20
6.2601565156
 11
3.2925236052
 21
6.3559011851
  0
LINE
  5
58A
100
AcDbEntity
  8
0
100
AcDbLine
 62
7
  6
CONTINUOUS
 10
4.1909613794
 20
6.4516459439
 11
4.1550236052
 21
6.5473906133
  0
LINE
  5
58B
100
AcDbEntity
  8
0
100
AcDbLine
 62
7
  6
CONTINUOUS
 10
4.6800233906
 20
4.3516459439
 11
4.6518988198
 21
4.4793055032
  0
LINE
  5
58C
100
AcDbEntity
  8
0
100
AcDbLine
 62
7
  6
CONTINUOUS
 10
-2.5652889634
 20
6.5793055032
 11
-2.4215388948
 21
6.611220393
  0
LINE
  5
58D
100
AcDbEntity
  8
0
100
AcDbLine
 62
7
  6
CONTINUOUS
 10
-3.7512264634
 20
5.9729225073
 11
-3.5715388263
 21
6.0048373971
  0
LINE
  5
58E
100
AcDbEntity
  8
0
100
AcDbLine
 62
7
  6
CONTINUOUS
 10
-2.4215388948
 20
6.8027097318
 11
-2.6012263263
 21
6.770794842
  0
LINE
  5
58F
100
AcDbEntity
  8
0
100
AcDbLine
 62
7
  6
CONTINUOUS
 10
-0.9481012577
 20
6.3559011851
 11
-1.0199763948
 21
6.3559011851
  0
LINE
  5
590
100
AcDbEntity
  8
0
100
AcDbLine
 62
7
  6
CONTINUOUS
 10
-1.8106012577
 20
6.4197309647
 11
-1.5949762577
 21
6.4197309647
  0
LINE
  5
591
100
AcDbEntity
  8
0
100
AcDbLine
 62
7
  6
CONTINUOUS
 10
3.9753363794
 20
6.4516459439
 11
4.1909613794
 21
6.4516459439
  0
LINE
  5
592
100
AcDbEntity
  8
0
100
AcDbLine
 62
7
  6
CONTINUOUS
 10
-2.4215388948
 20
6.611220393
 11
-2.0981013948
 21
6.611220393
  0
LINE
  5
593
100
AcDbEntity
  8
0
100
AcDbLine
 62
7
  6
CONTINUOUS
 10
1.5675236052
 20
6.611220393
 11
2.2503363794
 21
6.611220393
  0
LINE
  5
594
100
AcDbEntity
  8
0
100
AcDbLine
 62
7
  6
CONTINUOUS
 10
3.5440863794
 20
6.611220393
 11
3.7597113794
 21
6.611220393
  0
LINE
  5
595
100
AcDbEntity
  8
0
100
AcDbLine
 62
7
  6
CONTINUOUS
 10
-4.3981013606
 20
6.6431352828
 11
-3.7152888948
 21
6.6431352828
  0
LINE
  5
596
100
AcDbEntity
  8
0
100
AcDbLine
 62
7
  6
CONTINUOUS
 10
3.7237736052
 20
6.8027097318
 11
3.5440863794
 21
6.8027097318
  0
LINE
  5
597
100
AcDbEntity
  8
0
100
AcDbLine
 62
7
  6
CONTINUOUS
 10
2.2143986052
 20
6.8027097318
 11
1.3518986052
 21
6.8027097318
  0
LINE
  5
598
100
AcDbEntity
  8
0
100
AcDbLine
 62
7
  6
CONTINUOUS
 10
0.4893986052
 20
6.8027097318
 11
0.2018984681
 21
6.8027097318
  0
LINE
  5
599
100
AcDbEntity
  8
0
100
AcDbLine
 62
7
  6
CONTINUOUS
 10
-2.0981013948
 20
6.8027097318
 11
-2.4215388948
 21
6.8027097318
  0
LINE
  5
59A
100
AcDbEntity
  8
0
100
AcDbLine
 62
7
  6
CONTINUOUS
 10
-3.7512264634
 20
6.8027097318
 11
-4.6137263606
 21
6.8027097318
  0
LINE
  5
59B
100
AcDbEntity
  8
0
100
AcDbLine
 62
7
  6
CONTINUOUS
 10
-0.1574763948
 20
7.2027097318
 11
0.0300236052
 21
7.2027097318
  0
LINE
  5
59C
100
AcDbEntity
  8
0
100
AcDbLine
 62
7
  6
CONTINUOUS
 10
-1.9184137577
 20
6.770794842
 11
-2.0981013948
 21
6.8027097318
  0
LINE
  5
59D
100
AcDbEntity
  8
0
100
AcDbLine
 62
7
  6
CONTINUOUS
 10
3.9393986052
 20
6.1324969564
 11
3.7597113794
 21
6.1644118462
  0
LINE
  5
59E
100
AcDbEntity
  8
0
100
AcDbLine
 62
7
  6
CONTINUOUS
 10
2.394085831
 20
6.770794842
 11
2.2143986052
 21
6.8027097318
  0
LINE
  5
59F
100
AcDbEntity
  8
0
100
AcDbLine
 62
7
  6
CONTINUOUS
 10
3.903460831
 20
6.770794842
 11
3.7237736052
 21
6.8027097318
  0
LINE
  5
5A0
100
AcDbEntity
  8
0
100
AcDbLine
 62
7
  6
CONTINUOUS
 10
3.4003361052
 20
6.0048373971
 11
3.5440863794
 21
5.9729225073
  0
LINE
  5
5A1
100
AcDbEntity
  8
0
100
AcDbLine
 62
7
  6
CONTINUOUS
 10
3.7597113794
 20
5.9729225073
 11
3.903460831
 21
5.9410076175
  0
LINE
  5
5A2
100
AcDbEntity
  8
0
100
AcDbLine
 62
7
  6
CONTINUOUS
 10
2.2503363794
 20
5.9729225073
 11
2.3581488794
 21
5.9410076175
  0
LINE
  5
5A3
100
AcDbEntity
  8
0
100
AcDbLine
 62
7
  6
CONTINUOUS
 10
3.5440863794
 20
6.1644118462
 11
3.4362738794
 21
6.196326736
  0
LINE
  5
5A4
100
AcDbEntity
  8
0
100
AcDbLine
 62
7
  6
CONTINUOUS
 10
2.2503363794
 20
6.611220393
 11
2.3581488794
 21
6.5793055032
  0
LINE
  5
5A5
100
AcDbEntity
  8
0
100
AcDbLine
 62
7
  6
CONTINUOUS
 10
3.7597113794
 20
6.611220393
 11
3.8675238794
 21
6.5793055032
  0
LINE
  5
5A6
100
AcDbEntity
  8
0
100
AcDbLine
 62
7
  6
CONTINUOUS
 10
2.5378361052
 20
6.0367522869
 11
2.4659613794
 21
6.0686671768
  0
LINE
  5
5A7
100
AcDbEntity
  8
0
100
AcDbLine
 62
7
  6
CONTINUOUS
 10
3.256585831
 20
6.0686671768
 11
3.4003361052
 21
6.0048373971
  0
LINE
  5
5A8
100
AcDbEntity
  8
0
100
AcDbLine
 62
7
  6
CONTINUOUS
 10
4.0831488794
 20
6.0686671768
 11
3.9393986052
 21
6.1324969564
  0
LINE
  5
5A9
100
AcDbEntity
  8
0
100
AcDbLine
 62
7
  6
CONTINUOUS
 10
5.3409611052
 20
5.8452629034
 11
4.8378363794
 21
6.0686671768
  0
LINE
  5
5AA
100
AcDbEntity
  8
0
100
AcDbLine
 62
7
  6
CONTINUOUS
 10
4.5862736052
 20
6.0686671768
 11
5.2690863794
 21
5.7495182339
  0
LINE
  5
5AB
100
AcDbEntity
  8
0
100
AcDbLine
 62
7
  6
CONTINUOUS
 10
3.1128363794
 20
5.4303693023
 11
3.2925236052
 21
5.3346246245
  0
LINE
  5
5AC
100
AcDbEntity
  8
0
100
AcDbLine
 62
7
  6
CONTINUOUS
 10
4.5393986052
 20
4.6069650624
 11
4.4268983906
 21
4.670794842
  0
LINE
  5
5AD
100
AcDbEntity
  8
0
100
AcDbLine
 62
7
  6
CONTINUOUS
 10
3.4362738794
 20
6.196326736
 11
3.3284613794
 21
6.2601565156
  0
LINE
  5
5AE
100
AcDbEntity
  8
0
100
AcDbLine
 62
7
  6
CONTINUOUS
 10
3.903460831
 20
5.9410076175
 11
4.011273331
 21
5.8771778379
  0
LINE
  5
5AF
100
AcDbEntity
  8
0
100
AcDbLine
 62
7
  6
CONTINUOUS
 10
2.5378361052
 20
6.6750501726
 11
2.394085831
 21
6.770794842
  0
LINE
  5
5B0
100
AcDbEntity
  8
0
100
AcDbLine
 62
7
  6
CONTINUOUS
 10
4.3706486052
 20
4.511220393
 11
4.4550236052
 21
4.4473906133
  0
LINE
  5
5B1
100
AcDbEntity
  8
0
100
AcDbLine
 62
7
  6
CONTINUOUS
 10
3.3284613794
 20
5.5261139829
 11
3.2206488794
 21
5.6218586747
  0
LINE
  5
5B2
100
AcDbEntity
  8
0
100
AcDbLine
 62
7
  6
CONTINUOUS
 10
2.3581488794
 20
6.5793055032
 11
2.4300236052
 21
6.5154757235
  0
LINE
  5
5B3
100
AcDbEntity
  8
0
100
AcDbLine
 62
7
  6
CONTINUOUS
 10
3.1128363794
 20
6.196326736
 11
3.256585831
 21
6.0686671768
  0
LINE
  5
5B4
100
AcDbEntity
  8
0
100
AcDbLine
 62
7
  6
CONTINUOUS
 10
4.226898331
 20
5.9410076175
 11
4.0831488794
 21
6.0686671768
  0
LINE
  5
5B5
100
AcDbEntity
  8
0
100
AcDbLine
 62
7
  6
CONTINUOUS
 10
3.8675238794
 20
6.5793055032
 11
3.9393986052
 21
6.5154757235
  0
LINE
  5
5B6
100
AcDbEntity
  8
0
100
AcDbLine
 62
7
  6
CONTINUOUS
 10
4.6518988198
 20
4.4793055032
 11
4.5393986052
 21
4.6069650624
  0
LINE
  5
5B7
100
AcDbEntity
  8
0
100
AcDbLine
 62
7
  6
CONTINUOUS
 10
2.6456486052
 20
6.5473906133
 11
2.5378361052
 21
6.6750501726
  0
LINE
  5
5B8
100
AcDbEntity
  8
0
100
AcDbLine
 62
7
  6
CONTINUOUS
 10
4.1550236052
 20
6.5473906133
 11
4.0472111052
 21
6.6750501726
  0
LINE
  5
5B9
100
AcDbEntity
  8
0
100
AcDbLine
 62
7
  6
CONTINUOUS
 10
4.011273331
 20
5.8771778379
 11
4.0831488794
 21
5.7814331237
  0
LINE
  5
5BA
100
AcDbEntity
  8
0
100
AcDbLine
 62
7
  6
CONTINUOUS
 10
4.2987738794
 20
5.8133480136
 11
4.226898331
 21
5.9410076175
  0
LINE
  5
5BB
100
AcDbEntity
  8
0
100
AcDbLine
 62
7
  6
CONTINUOUS
 10
3.9393986052
 20
6.5154757235
 11
3.9753363794
 21
6.4516459439
  0
LINE
  5
5BC
100
AcDbEntity
  8
0
100
AcDbLine
 62
7
  6
CONTINUOUS
 10
9.0425236052
 20
-12.7972902682
 11
9.0425236052
 21
-13.8321384685
  0
LWPOLYLINE
  5
5BD
100
AcDbEntity
  8
0
100
AcDbPolyline
 62
7
  6
CONTINUOUS
 90
6
 70
0
 10
11.0857461923
 20
-4.7298478655
 10
11.1314668703
 20
-4.7105708
 10
11.1794064406
 20
-4.6911907261
 10
11.229330802
 20
-4.6717076438
 10
11.2810207721
 20
-4.6521117213
 10
11.3341955318
 20
-4.6324127904
  0
LINE
  5
5BE
100
AcDbEntity
  8
0
100
AcDbLine
 62
7
  6
CONTINUOUS
 10
11.6110397883
 20
-4.5330157325
 11
11.7205945485
 21
-4.4932452452
  0
LINE
  5
5BF
100
AcDbEntity
  8
0
100
AcDbLine
 62
7
  6
CONTINUOUS
 10
11.3341955318
 20
-4.6324127904
 11
11.443732203
 21
-4.5927773934
  0
LINE
  5
5C0
100
AcDbEntity
  8
0
100
AcDbLine
 62
7
  6
CONTINUOUS
 10
11.443732203
 20
-4.5927773934
 11
11.6110397883
 21
-4.5330157325
  0
LINE
  5
5C1
100
AcDbEntity
  8
0
100
AcDbLine
 62
7
  6
CONTINUOUS
 10
0.0300236052
 20
8.7027097318
 11
-0.1574763948
 21
8.7027097318
  0
LINE
  5
5C2
100
AcDbEntity
  8
RACCORDO
100
AcDbLine
 62
250
  6
CONTINUOUS
 10
-15.1902722111
 20
16.297427514
 11
-15.1413831338
 21
16.2729904231
  0
LINE
  5
5C3
100
AcDbEntity
  8
RACCORDO
100
AcDbLine
 62
250
  6
CONTINUOUS
 10
-14.890454963
 20
16.5973818225
 11
-14.8415658857
 21
16.5729447316
  0
LINE
  5
5C4
100
AcDbEntity
  8
0
100
AcDbLine
 62
7
  6
CONTINUOUS
 10
4.0472111052
 20
6.6750501726
 11
3.903460831
 21
6.770794842
  0
LINE
  5
5C5
100
AcDbEntity
  8
0
100
AcDbLine
 62
7
  6
CONTINUOUS
 10
5.3409611052
 20
6.2920714054
 11
5.2690863794
 21
6.3878160749
  0
LINE
  5
5C6
100
AcDbEntity
  8
0
100
AcDbLine
 62
7
  6
CONTINUOUS
 10
12.9425236052
 20
-5.0025461565
 11
11.8425236052
 21
-3.0972902682
  0
LINE
  5
5C7
100
AcDbEntity
  8
0
100
AcDbLine
 62
7
  6
CONTINUOUS
 10
10.3925236052
 20
-5.8416572205
 11
10.3925236052
 21
-5.9416572205
  0
LINE
  5
5C8
100
AcDbEntity
  8
0
100
AcDbLine
 62
7
  6
CONTINUOUS
 10
10.3925236052
 20
-6.9416576872
 11
10.3925236052
 21
-7.0416576872
  0
LINE
  5
5C9
100
AcDbEntity
  8
0
100
AcDbLine
 62
7
  6
CONTINUOUS
 10
10.3925236052
 20
-8.0416579101
 11
10.3925236052
 21
-8.1416579101
  0
LINE
  5
5CA
100
AcDbEntity
  8
0
100
AcDbLine
 62
7
  6
CONTINUOUS
 10
10.3925236052
 20
-11.3416579101
 11
10.3925236052
 21
-11.4416579101
  0
LINE
  5
5CB
100
AcDbEntity
  8
RACCORDO
100
AcDbLine
 62
7
  6
CONTINUOUS
 10
10.5425236052
 20
-12.212760322
 11
10.5425236052
 21
-12.4972902682
  0
LWPOLYLINE
  5
5CC
100
AcDbEntity
  8
RACCORDO
100
AcDbPolyline
 62
7
  6
CONTINUOUS
 90
5
 70
0
 10
13.1540556079
 20
14.2575470588
 10
13.1578593775
 20
14.2734946316
 10
13.1704614053
 20
14.3106505406
 10
13.1878085458
 20
14.3458410887
 10
13.1967533663
 20
14.3603666107
  0
LINE
  5
5CD
100
AcDbEntity
  8
0
100
AcDbLine
 62
7
  6
CONTINUOUS
 10
10.7820801054
 20
-5.5924922602
 11
10.5710792569
 21
-5.7181540902
  0
LINE
  5
5CE
100
AcDbEntity
  8
0
100
AcDbLine
 62
7
  6
CONTINUOUS
 10
10.5710792569
 20
-5.7181540902
 11
10.423223165
 21
-5.8055678657
  0
LINE
  5
5CF
100
AcDbEntity
  8
0
100
AcDbLine
 62
7
  6
CONTINUOUS
 10
10.9639417989
 20
-4.6348176342
 11
10.8176275951
 21
-4.7200455805
  0
LWPOLYLINE
  5
5D0
100
AcDbEntity
  8
0
100
AcDbPolyline
 62
7
  6
CONTINUOUS
 90
14
 70
0
 10
10.8176275951
 20
-4.7200455805
 10
10.8209433288
 20
-4.7181498564
 10
10.8407722224
 20
-4.7079269195
 10
10.8637874141
 20
-4.6977039827
 10
10.889842491
 20
-4.6874810458
 10
10.9187816881
 20
-4.6772581089
 10
10.950440648
 20
-4.667035172
 10
10.9846472045
 20
-4.6568122352
 10
11.0212221891
 20
-4.6465892983
 10
11.0599802547
 20
-4.6363663614
 10
11.1007307143
 20
-4.6261434246
 10
11.1432783905
 20
-4.6159204877
 10
11.187424473
 20
-4.6056975508
 10
11.2329673793
 20
-4.5954746139
  0
LWPOLYLINE
  5
5D1
100
AcDbEntity
  8
0
100
AcDbPolyline
 62
7
  6
CONTINUOUS
 90
15
 70
0
 10
10.423223165
 20
-5.8055678657
 10
10.4388369359
 20
-5.7972902682
 10
10.4644338654
 20
-5.7862902682
 10
10.4954694866
 20
-5.7752902682
 10
10.5318213163
 20
-5.7642902682
 10
10.5733458907
 20
-5.7532902682
 10
10.6198793313
 20
-5.7422902682
 10
10.6712379923
 20
-5.7312902682
 10
10.7272191845
 20
-5.7202902682
 10
10.7876019759
 20
-5.7092902682
 10
10.8521480634
 20
-5.6982902682
 10
10.9206027132
 20
-5.6872902682
 10
10.9926957661
 20
-5.6762902682
 10
11.0681427038
 20
-5.6652902682
 10
11.1466457718
 20
-5.6542902682
  0
LWPOLYLINE
  5
5D2
100
AcDbEntity
  8
0
100
AcDbPolyline
 62
7
  6
CONTINUOUS
 90
5
 70
0
 10
13.2925236052
 20
-10.7916579377
 10
13.2894679635
 20
-10.7802902682
 10
13.2807050944
 20
-10.7692902682
 10
13.2662663834
 20
-10.7582902682
 10
13.2618211608
 20
-10.7555668706
  0
LWPOLYLINE
  5
5D3
100
AcDbEntity
  8
0
100
AcDbPolyline
 62
7
  6
CONTINUOUS
 90
3
 70
0
 10
13.0619500618
 20
-11.850138248
 10
13.061529737
 20
-11.8457963171
 10
13.058245635
 20
-11.8372902682
  0
LINE
  5
5D4
100
AcDbEntity
  8
0
100
AcDbLine
 62
7
  6
CONTINUOUS
 10
10.7425236052
 20
-5.0025461565
 11
10.7425236052
 21
-5.6161449742
  0
LINE
  5
5D5
100
AcDbEntity
  8
0
100
AcDbLine
 62
7
  6
CONTINUOUS
 10
10.7425236052
 20
-6.1437298147
 11
10.7425236052
 21
-6.7161454135
  0
LINE
  5
5D6
100
AcDbEntity
  8
0
100
AcDbLine
 62
7
  6
CONTINUOUS
 10
10.7425236052
 20
-7.2437302814
 11
10.7425236052
 21
-7.816145681
  0
LINE
  5
5D7
100
AcDbEntity
  8
0
100
AcDbLine
 62
7
  6
CONTINUOUS
 10
10.7425236052
 20
-8.3437305043
 11
10.7425236052
 21
-8.4686078461
  0
LINE
  5
5D8
100
AcDbEntity
  8
0
100
AcDbLine
 62
7
  6
CONTINUOUS
 10
10.7425236052
 20
-10.7260826203
 11
10.7425236052
 21
-11.116147835
  0
LINE
  5
5D9
100
AcDbEntity
  8
0
100
AcDbLine
 62
7
  6
CONTINUOUS
 10
10.7425236052
 20
-11.6437305043
 11
10.7425236052
 21
-12.0972902682
  0
LINE
  5
5DA
100
AcDbEntity
  8
0
100
AcDbLine
 62
7
  6
CONTINUOUS
 10
10.7739698897
 20
-4.7697298709
 11
10.7739698897
 21
-4.8697298709
  0
LWPOLYLINE
  5
5DB
100
AcDbEntity
  8
0
100
AcDbPolyline
 62
7
  6
CONTINUOUS
 90
4
 70
0
 10
10.7739698897
 20
-4.8697298709
 10
10.7740798102
 20
-4.8672801829
 10
10.7770550008
 20
-4.8567084662
 10
10.7840237063
 20
-4.8461367494
  0
LWPOLYLINE
  5
5DC
100
AcDbEntity
  8
RACCORDO
100
AcDbPolyline
 62
250
  6
CONTINUOUS
 90
3
 70
0
 10
13.1476687348
 20
14.1958539816
 10
13.1502182142
 20
14.2350094852
 10
13.1540556079
 20
14.2575470588
  0
LWPOLYLINE
  5
5DD
100
AcDbEntity
  8
0
100
AcDbPolyline
 62
7
  6
CONTINUOUS
 90
6
 70
0
 10
10.7739698897
 20
-4.7697298709
 10
10.7760516723
 20
-4.7590416039
 10
10.7818831687
 20
-4.748818667
 10
10.7913789762
 20
-4.7385957302
 10
10.8044370639
 20
-4.7283727933
 10
10.8176275951
 20
-4.7200455805
  0
LWPOLYLINE
  5
5DE
100
AcDbEntity
  8
0
100
AcDbPolyline
 62
7
  6
CONTINUOUS
 90
19
 70
0
 10
10.7425236052
 20
-6.1437298147
 10
10.7448168934
 20
-6.1324231041
 10
10.7517433957
 20
-6.1210470596
 10
10.763358264
 20
-6.1096016811
 10
10.7797260794
 20
-6.0980684341
 10
10.8008445239
 20
-6.0864658532
 10
10.8265696436
 20
-6.074849542
 10
10.8568179286
 20
-6.0632146012
 10
10.8914615716
 20
-6.0515659302
 10
10.9301155996
 20
-6.0399738298
 10
10.9724297646
 20
-6.0284697967
 10
11.0182641571
 20
-6.0170223344
 10
11.0674770738
 20
-6.0056072536
 10
11.1198174783
 20
-5.9942272953
 10
11.1750487143
 20
-5.9828797185
 10
11.2330833709
 20
-5.9715321115
 10
11.2936730228
 20
-5.9601853397
 10
11.3565675823
 20
-5.9488385377
 10
11.4217061756
 20
-5.9374566982
  0
LWPOLYLINE
  5
5DF
100
AcDbEntity
  8
0
100
AcDbPolyline
 62
7
  6
CONTINUOUS
 90
19
 70
0
 10
10.7425236052
 20
-7.2437302814
 10
10.7448295968
 20
-7.2323922805
 10
10.7517402327
 20
-7.2210514096
 10
10.7632300062
 20
-7.2097076687
 10
10.7792607617
 20
-7.1983569511
 10
10.7997652155
 20
-7.1870033636
 10
10.8246311696
 20
-7.1756592256
 10
10.8537186964
 20
-7.1643335311
 10
10.8869135978
 20
-7.1530172862
 10
10.9241177634
 20
-7.1416958294
 10
10.9651834851
 20
-7.130368523
 10
11.0099421085
 20
-7.1190360048
 10
11.0582672546
 20
-7.107685527
 10
11.109954832
 20
-7.0963207473
 10
11.1648172602
 20
-7.0849380079
 10
11.2227599231
 20
-7.0735135876
 10
11.2837405282
 20
-7.0620153048
 10
11.3473644745
 20
-7.0504753411
 10
11.4129589306
 20
-7.0389665198
  0
LWPOLYLINE
  5
5E0
100
AcDbEntity
  8
0
100
AcDbPolyline
 62
7
  6
CONTINUOUS
 90
19
 70
0
 10
10.7425236052
 20
-8.3437305043
 10
10.7448517942
 20
-8.3323380568
 10
10.7518718847
 20
-8.3208900265
 10
10.7636219425
 20
-8.3093864135
 10
10.7801599758
 20
-8.2978021073
 10
10.8014604857
 20
-8.2861622185
 10
10.8273135519
 20
-8.2745420779
 10
10.8575633409
 20
-8.2629484453
 10
10.8920685704
 20
-8.251374561
 10
10.9304634465
 20
-8.2398754773
 10
10.972281574
 20
-8.2285090729
 10
11.0174557698
 20
-8.2172174691
 10
11.0662558857
 20
-8.2058820818
 10
11.1186594383
 20
-8.1944726451
 10
11.1743548116
 20
-8.1830194249
 10
11.2332831999
 20
-8.1714946345
 10
11.2954290596
 20
-8.1598637393
 10
11.3603928826
 20
-8.148161274
 10
11.4274854262
 20
-8.1364630563
  0
LWPOLYLINE
  5
5E1
100
AcDbEntity
  8
RACCORDO
100
AcDbPolyline
 62
7
  6
CONTINUOUS
 90
12
 70
0
 10
14.8836335398
 20
12.3423464477
 10
14.8758316003
 20
12.3044343629
 10
14.8630241757
 20
12.2681644995
 10
14.8456199551
 20
12.234228629
 10
14.8240006182
 20
12.2030310288
 10
14.7983797033
 20
12.1747669756
 10
14.7691211373
 20
12.1498655426
 10
14.7367555642
 20
12.1288118358
 10
14.7016910055
 20
12.1119220696
 10
14.6644484646
 20
12.0995284857
 10
14.6256883026
 20
12.0919211312
 10
14.5860698567
 20
12.0892910484
  0
LWPOLYLINE
  5
5E2
100
AcDbEntity
  8
0
100
AcDbPolyline
 62
7
  6
CONTINUOUS
 90
5
 70
0
 10
10.3925236052
 20
-5.8416572205
 10
10.3955788631
 20
-5.8302902682
 10
10.4043413658
 20
-5.8192902682
 10
10.4187797172
 20
-5.8082902682
 10
10.423223165
 20
-5.8055678657
  0
LWPOLYLINE
  5
5E3
100
AcDbEntity
  8
0
100
AcDbPolyline
 62
7
  6
CONTINUOUS
 90
18
 70
0
 10
10.3925236052
 20
-5.9416572205
 10
10.3955788631
 20
-5.9302902682
 10
10.4043413658
 20
-5.9192902682
 10
10.4187797172
 20
-5.9082902682
 10
10.4388369359
 20
-5.8972902682
 10
10.4644338654
 20
-5.8862902682
 10
10.4954694866
 20
-5.8752902682
 10
10.5318213163
 20
-5.8642902682
 10
10.5733458907
 20
-5.8532902682
 10
10.6198793313
 20
-5.8422902682
 10
10.6712379923
 20
-5.8312902682
 10
10.7272191845
 20
-5.8202902682
 10
10.7876019759
 20
-5.8092902682
 10
10.8521480634
 20
-5.7982902682
 10
10.9206027132
 20
-5.7872902682
 10
10.9926957661
 20
-5.7762902682
 10
11.0681427038
 20
-5.7652902682
 10
11.1466457718
 20
-5.7542902682
  0
LWPOLYLINE
  5
5E4
100
AcDbEntity
  8
0
100
AcDbPolyline
 62
7
  6
CONTINUOUS
 90
5
 70
0
 10
10.3925236052
 20
-6.9416576872
 10
10.3955791103
 20
-6.9302902682
 10
10.4043418445
 20
-6.9192902682
 10
10.4187804184
 20
-6.9082902682
 10
10.4232232019
 20
-6.9055682892
  0
LWPOLYLINE
  5
5E5
100
AcDbEntity
  8
0
100
AcDbPolyline
 62
7
  6
CONTINUOUS
 90
18
 70
0
 10
10.3925236052
 20
-7.0416576872
 10
10.3955791103
 20
-7.0302902682
 10
10.4043418445
 20
-7.0192902682
 10
10.4187804184
 20
-7.0082902682
 10
10.4388378497
 20
-6.9972902682
 10
10.4644349808
 20
-6.9862902682
 10
10.4954707918
 20
-6.9752902682
 10
10.5318227985
 20
-6.9642902682
 10
10.5733475363
 20
-6.9532902682
 10
10.6198811263
 20
-6.9422902682
 10
10.6712399219
 20
-6.9312902682
 10
10.7272212336
 20
-6.9202902682
 10
10.787604129
 20
-6.9092902682
 10
10.8521503046
 20
-6.8982902682
 10
10.9206050266
 20
-6.8872902682
 10
10.9926981357
 20
-6.8762902682
 10
11.0681451138
 20
-6.8652902682
 10
11.1466482063
 20
-6.8542902682
  0
LWPOLYLINE
  5
5E6
100
AcDbEntity
  8
0
100
AcDbPolyline
 62
7
  6
CONTINUOUS
 90
5
 70
0
 10
10.3925236052
 20
-8.0416579101
 10
10.3955792363
 20
-8.0302902682
 10
10.4043421032
 20
-8.0192902682
 10
10.4187808198
 20
-8.0082902682
 10
10.4232231448
 20
-8.0055685813
  0
LWPOLYLINE
  5
5E7
100
AcDbEntity
  8
0
100
AcDbPolyline
 62
7
  6
CONTINUOUS
 90
18
 70
0
 10
10.3925236052
 20
-8.1416579101
 10
10.3955792363
 20
-8.1302902682
 10
10.4043421032
 20
-8.1192902682
 10
10.4187808198
 20
-8.1082902682
 10
10.4388384028
 20
-8.0972902682
 10
10.4644356935
 20
-8.0862902682
 10
10.495471671
 20
-8.0752902682
 10
10.5318238499
 20
-8.0642902682
 10
10.5733487645
 20
-8.0532902682
 10
10.6198825346
 20
-8.0422902682
 10
10.6712415124
 20
-8.0312902682
 10
10.7272230069
 20
-8.0202902682
 10
10.7876060847
 20
-8.0092902682
 10
10.8521524408
 20
-7.9982902682
 10
10.9206073401
 20
-7.9872902682
 10
10.992700622
 20
-7.9762902682
 10
11.068147767
 20
-7.9652902682
 10
11.1466510195
 20
-7.9542902682
  0
LINE
  5
5E8
100
AcDbEntity
  8
0
100
AcDbLine
 62
7
  6
CONTINUOUS
 10
10.8235985639
 20
-4.8621202088
 11
10.7425236052
 21
-5.0025461565
  0
LINE
  5
5E9
100
AcDbEntity
  8
0
100
AcDbLine
 62
7
  6
CONTINUOUS
 10
10.9502087091
 20
-4.6428250045
 11
11.8425236052
 21
-3.0972902682
  0
LWPOLYLINE
  5
5EA
100
AcDbEntity
  8
0
100
AcDbPolyline
 62
7
  6
CONTINUOUS
 90
11
 70
0
 10
10.8235985639
 20
-4.8621202088
 10
10.8341154351
 20
-4.8479819788
 10
10.8479019136
 20
-4.8349532189
 10
10.8655343951
 20
-4.8219010567
 10
10.8869057414
 20
-4.8088245492
 10
10.9118927755
 20
-4.7957235485
 10
10.9403568553
 20
-4.7825982024
 10
10.9721465051
 20
-4.769448011
 10
11.0070961449
 20
-4.7562728078
 10
11.0450264102
 20
-4.7430727593
 10
11.0857461923
 20
-4.7298478655
  0
LWPOLYLINE
  5
5EB
100
AcDbEntity
  8
0
100
AcDbPolyline
 62
7
  6
CONTINUOUS
 90
12
 70
0
 10
10.7840237063
 20
-4.8461367494
 10
10.7948836046
 20
-4.8355650327
 10
10.8095180696
 20
-4.824993316
 10
10.8277968781
 20
-4.8144215993
 10
10.8495769638
 20
-4.8038498826
 10
10.8747032183
 20
-4.7932781658
 10
10.9030093318
 20
-4.7827064491
 10
10.9343186722
 20
-4.7721347324
 10
10.9684451965
 20
-4.7615630157
 10
11.0051943911
 20
-4.750991299
 10
11.0443642367
 20
-4.7404195822
 10
11.0857461923
 20
-4.7298478655
  0
LWPOLYLINE
  5
5EC
100
AcDbEntity
  8
0
100
AcDbPolyline
 62
7
  6
CONTINUOUS
 90
5
 70
0
 10
13.2618212454
 20
-5.4277484154
 10
13.2674067791
 20
-5.4242902682
 10
13.2814678834
 20
-5.4132902682
 10
13.2898501228
 20
-5.4022902682
 10
13.2925236052
 20
-5.3916574386
  0
LINE
  5
5ED
100
AcDbEntity
  8
0
100
AcDbLine
 62
7
  6
CONTINUOUS
 10
10.782080153
 20
-6.69249267
 11
10.5710792989
 21
-6.8181545081
  0
LINE
  5
5EE
100
AcDbEntity
  8
0
100
AcDbLine
 62
7
  6
CONTINUOUS
 10
12.9029715585
 20
-5.640819694
 11
13.1380874789
 21
-5.5008707973
  0
LINE
  5
5EF
100
AcDbEntity
  8
0
100
AcDbLine
 62
7
  6
CONTINUOUS
 10
10.5710792989
 20
-6.8181545081
 11
10.4232232019
 21
-6.9055682892
  0
LINE
  5
5F0
100
AcDbEntity
  8
0
100
AcDbLine
 62
7
  6
CONTINUOUS
 10
13.1380874789
 20
-5.5008707973
 11
13.2618212454
 21
-5.4277484154
  0
LINE
  5
5F1
100
AcDbEntity
  8
0
100
AcDbLine
 62
7
  6
CONTINUOUS
 10
10.6245633121
 20
-7.8864197042
 11
10.4232231448
 21
-8.0055685813
  0
LWPOLYLINE
  5
5F2
100
AcDbEntity
  8
0
100
AcDbPolyline
 62
7
  6
CONTINUOUS
 90
15
 70
0
 10
10.4232232019
 20
-6.9055682892
 10
10.4388378497
 20
-6.8972902682
 10
10.4644349808
 20
-6.8862902682
 10
10.4954707918
 20
-6.8752902682
 10
10.5318227985
 20
-6.8642902682
 10
10.5733475363
 20
-6.8532902682
 10
10.6198811263
 20
-6.8422902682
 10
10.6712399219
 20
-6.8312902682
 10
10.7272212336
 20
-6.8202902682
 10
10.787604129
 20
-6.8092902682
 10
10.8521503046
 20
-6.7982902682
 10
10.9206050266
 20
-6.7872902682
 10
10.9926981357
 20
-6.7762902682
 10
11.0681451138
 20
-6.7652902682
 10
11.1466482063
 20
-6.7542902682
  0
LWPOLYLINE
  5
5F3
100
AcDbEntity
  8
0
100
AcDbPolyline
 62
7
  6
CONTINUOUS
 90
15
 70
0
 10
10.4232231448
 20
-8.0055685813
 10
10.4388384028
 20
-7.9972902682
 10
10.4644356935
 20
-7.9862902682
 10
10.495471671
 20
-7.9752902682
 10
10.5318238499
 20
-7.9642902682
 10
10.5733487645
 20
-7.9532902682
 10
10.6198825346
 20
-7.9422902682
 10
10.6712415124
 20
-7.9312902682
 10
10.7272230069
 20
-7.9202902682
 10
10.7876060847
 20
-7.9092902682
 10
10.8521524408
 20
-7.8982902682
 10
10.9206073401
 20
-7.8872902682
 10
10.992700622
 20
-7.8762902682
 10
11.068147767
 20
-7.8652902682
 10
11.1466510195
 20
-7.8542902682
  0
LWPOLYLINE
  5
5F4
100
AcDbEntity
  8
RACCORDO
100
AcDbPolyline
 62
250
  6
CONTINUOUS
 90
13
 70
0
 10
14.5266130961
 20
12.5433227439
 10
14.5656267684
 20
12.5461263171
 10
14.6039791008
 20
12.5538115396
 10
14.6410177454
 20
12.5662484943
 10
14.6761134028
 20
12.5832269061
 10
14.7086677665
 20
12.6044584199
 10
14.7381244295
 20
12.629580414
 10
14.7640108233
 20
12.6582009461
 10
14.7858490881
 20
12.6898043182
 10
14.8032124808
 20
12.7237245011
 10
14.8158442865
 20
12.7593197389
 10
14.8236086908
 20
12.79601624
 10
14.8264303442
 20
12.8331932258
  0
LWPOLYLINE
  5
5F5
100
AcDbEntity
  8
RACCORDO
100
AcDbPolyline
 62
250
  6
CONTINUOUS
 90
16
 70
0
 10
14.5450159153
 20
11.4620967198
 10
14.5764594148
 20
11.4635569533
 10
14.6075564422
 20
11.4681952141
 10
14.63796434
 20
11.4759603919
 10
14.6673480449
 20
11.4867669303
 10
14.6953837783
 20
11.5004957435
 10
14.7217626133
 20
11.5169955286
 10
14.7461938825
 20
11.5360844753
 10
14.7684083784
 20
11.5575522439
 10
14.7881613184
 20
11.5811622574
 10
14.8052350456
 20
11.606654357
 10
14.819441425
 20
11.6337476482
 10
14.8306239157
 20
11.6621435702
 10
14.8386592976
 20
11.6915292224
 10
14.8434590297
 20
11.7215808122
 10
14.8443708013
 20
11.7323037358
  0
LINE
  5
5F6
100
AcDbEntity
  8
RACCORDO
100
AcDbLine
 62
250
  6
CONTINUOUS
 10
13.2124352548
 20
11.1722262379
 11
14.837241386
 21
11.1722262379
  0
LINE
  5
5F7
100
AcDbEntity
  8
RACCORDO
100
AcDbLine
 62
250
  6
CONTINUOUS
 10
-13.5273880444
 20
11.1722262379
 11
-15.1521941769
 21
11.1722268863
  0
LINE
  5
5F8
100
AcDbEntity
  8
RACCORDO
100
AcDbLine
 62
250
  6
CONTINUOUS
 10
-14.8599687049
 20
11.4620967198
 11
-13.8351168809
 21
11.4620967198
  0
LINE
  5
5F9
100
AcDbEntity
  8
RACCORDO
100
AcDbLine
 62
250
  6
CONTINUOUS
 10
13.5201640913
 20
11.4620967198
 11
14.5450159153
 21
11.4620967198
  0
LWPOLYLINE
  5
5FA
100
AcDbEntity
  8
RACCORDO
100
AcDbPolyline
 62
250
  6
CONTINUOUS
 90
16
 70
0
 10
-14.8599687049
 20
11.4620967198
 10
-14.891412215
 20
11.4635571144
 10
-14.92250925
 20
11.4681954915
 10
-14.9529171524
 20
11.4759607412
 10
-14.9823008585
 20
11.4867672982
 10
-15.0103365901
 20
11.5004960855
 10
-15.0367154222
 20
11.5169958259
 10
-15.0611466872
 20
11.5360847093
 10
-15.0833611776
 20
11.5575523958
 10
-15.1031141128
 20
11.5811623336
 10
-15.1201878355
 20
11.6066543654
 10
-15.1343942109
 20
11.6337475952
 10
-15.1455766995
 20
11.6621434836
 10
-15.1536120816
 20
11.6915291369
 10
-15.1584118157
 20
11.7215807556
 10
-15.1593243531
 20
11.7323153394
  0
LWPOLYLINE
  5
5FB
100
AcDbEntity
  8
0
100
AcDbPolyline
 62
7
  6
CONTINUOUS
 90
5
 70
0
 10
13.2925236052
 20
-7.4916579377
 10
13.2894679635
 20
-7.4802902682
 10
13.2807050944
 20
-7.4692902682
 10
13.2662663834
 20
-7.4582902682
 10
13.2618240253
 20
-7.4555685603
  0
LWPOLYLINE
  5
5FC
100
AcDbEntity
  8
0
100
AcDbPolyline
 62
7
  6
CONTINUOUS
 90
5
 70
0
 10
13.2925236052
 20
-6.3916573757
 10
13.2894682668
 20
-6.3802902682
 10
13.2807056923
 20
-6.3692902682
 10
13.2662672754
 20
-6.3582902682
 10
13.2618240152
 20
-6.3555679853
  0
LWPOLYLINE
  5
5FD
100
AcDbEntity
  8
0
100
AcDbPolyline
 62
7
  6
CONTINUOUS
 90
5
 70
0
 10
13.2925236052
 20
-5.2916574386
 10
13.2894682247
 20
-5.2802902682
 10
13.2807055935
 20
-5.2692902682
 10
13.2662671045
 20
-5.2582902682
 10
13.261824099
 20
-5.2555681475
  0
LINE
  5
5FE
100
AcDbEntity
  8
RACCORDO
100
AcDbLine
 62
7
  6
CONTINUOUS
 10
13.266545956
 20
14.3771330132
 11
13.2664978684
 21
14.3821596638
  0
LINE
  5
5FF
100
AcDbEntity
  8
RACCORDO
100
AcDbLine
 62
250
  6
CONTINUOUS
 10
12.8477144262
 20
-4.8383318415
 11
12.8477144262
 21
14.4801620914
  0
LINE
  5
600
100
AcDbEntity
  8
0
100
AcDbLine
 62
7
  6
CONTINUOUS
 10
12.9019371905
 20
-11.9393628557
 11
12.9019371905
 21
-12.0393628624
  0
LINE
  5
601
100
AcDbEntity
  8
0
100
AcDbLine
 62
7
  6
CONTINUOUS
 10
12.9425236052
 20
-5.6171677155
 11
12.9425236052
 21
-6.1895847815
  0
LINE
  5
602
100
AcDbEntity
  8
0
100
AcDbLine
 62
7
  6
CONTINUOUS
 10
12.9425236052
 20
-6.7171677131
 11
12.9425236052
 21
-7.2895853434
  0
LINE
  5
603
100
AcDbEntity
  8
0
100
AcDbLine
 62
7
  6
CONTINUOUS
 10
12.9425236052
 20
-7.8171682634
 11
12.9425236052
 21
-8.3895848444
  0
LINE
  5
604
100
AcDbEntity
  8
0
100
AcDbLine
 62
7
  6
CONTINUOUS
 10
12.9425236052
 20
-11.1171682634
 11
12.9425236052
 21
-11.843952332
  0
LINE
  5
605
100
AcDbEntity
  8
0
100
AcDbLine
 62
7
  6
CONTINUOUS
 10
12.9425236052
 20
-12.0393628624
 11
12.9425236052
 21
-12.0972902682
  0
LINE
  5
606
100
AcDbEntity
  8
0
100
AcDbLine
 62
7
  6
CONTINUOUS
 10
12.9425236052
 20
-5.0895848444
 11
12.9425236052
 21
-5.0025461565
  0
LINE
  5
607
100
AcDbEntity
  8
0
100
AcDbLine
 62
7
  6
CONTINUOUS
 10
13.0619500618
 20
-11.9501382495
 11
13.0619500618
 21
-11.850138248
  0
LINE
  5
608
100
AcDbEntity
  8
RACCORDO
100
AcDbLine
 62
7
  6
CONTINUOUS
 10
13.1425236052
 20
-12.212760322
 11
13.1425236052
 21
-12.4972902682
  0
LINE
  5
609
100
AcDbEntity
  8
RACCORDO
100
AcDbLine
 62
250
  6
CONTINUOUS
 10
13.1476687348
 20
-8.0623713735
 11
13.1476687348
 21
-7.6952021986
  0
LINE
  5
60A
100
AcDbEntity
  8
RACCORDO
100
AcDbLine
 62
250
  6
CONTINUOUS
 10
13.1476687348
 20
-7.3881097867
 11
13.1476687348
 21
-6.5952016464
  0
LINE
  5
60B
100
AcDbEntity
  8
RACCORDO
100
AcDbLine
 62
250
  6
CONTINUOUS
 10
13.1476687348
 20
-6.2881092173
 11
13.1476687348
 21
-5.4952016574
  0
LINE
  5
60C
100
AcDbEntity
  8
RACCORDO
100
AcDbLine
 62
250
  6
CONTINUOUS
 10
13.1476687348
 20
-5.1881093342
 11
13.1476687348
 21
14.1958539816
  0
LINE
  5
60D
100
AcDbEntity
  8
RACCORDO
100
AcDbLine
 62
250
  6
CONTINUOUS
 10
13.2124352548
 20
-8.0947521672
 11
13.2124352548
 21
-7.6569054667
  0
LINE
  5
60E
100
AcDbEntity
  8
RACCORDO
100
AcDbLine
 62
250
  6
CONTINUOUS
 10
13.2124352548
 20
-7.4264105402
 11
13.2124352548
 21
-6.5569049141
  0
LINE
  5
60F
100
AcDbEntity
  8
RACCORDO
100
AcDbLine
 62
250
  6
CONTINUOUS
 10
13.2124352548
 20
-6.326409971
 11
13.2124352548
 21
-5.4569049272
  0
LINE
  5
610
100
AcDbEntity
  8
RACCORDO
100
AcDbLine
 62
7
  6
CONTINUOUS
 10
13.2665002646
 20
14.3822312474
 11
13.2665002646
 21
16.297427514
  0
LINE
  5
611
100
AcDbEntity
  8
RACCORDO
100
AcDbLine
 62
250
  6
CONTINUOUS
 10
13.266545956
 20
14.3771330132
 11
13.266545956
 21
14.3822312474
  0
LINE
  5
612
100
AcDbEntity
  8
RACCORDO
100
AcDbLine
 62
250
  6
CONTINUOUS
 10
13.2909830469
 20
16.2729904231
 11
13.2909830469
 21
12.8331932258
  0
LINE
  5
613
100
AcDbEntity
  8
0
100
AcDbLine
 62
7
  6
CONTINUOUS
 10
13.2925236052
 20
-10.8916579377
 11
13.2925236052
 21
-10.7916579377
  0
LINE
  5
614
100
AcDbEntity
  8
0
100
AcDbLine
 62
7
  6
CONTINUOUS
 10
13.2925236052
 20
-7.5916579377
 11
13.2925236052
 21
-7.4916579377
  0
LINE
  5
615
100
AcDbEntity
  8
0
100
AcDbLine
 62
7
  6
CONTINUOUS
 10
13.2925236052
 20
-6.4916573757
 11
13.2925236052
 21
-6.3916573757
  0
LINE
  5
616
100
AcDbEntity
  8
0
100
AcDbLine
 62
7
  6
CONTINUOUS
 10
13.2925236052
 20
-5.3916574386
 11
13.2925236052
 21
-5.2916574386
  0
LINE
  5
617
100
AcDbEntity
  8
RACCORDO
100
AcDbLine
 62
250
  6
CONTINUOUS
 10
13.5665002646
 20
16.5973818225
 11
13.5665002646
 21
16.597427489
  0
LINE
  5
618
100
AcDbEntity
  8
RACCORDO
100
AcDbLine
 62
250
  6
CONTINUOUS
 10
13.5909373555
 20
12.5433227439
 11
13.5909373555
 21
16.5729447316
  0
LINE
  5
619
100
AcDbEntity
  8
RACCORDO
100
AcDbLine
 62
250
  6
CONTINUOUS
 10
13.5123895633
 20
-8.3998854819
 11
13.5124418392
 21
11.1979875463
  0
LINE
  5
61A
100
AcDbEntity
  8
RACCORDO
100
AcDbLine
 62
250
  6
CONTINUOUS
 10
13.2124352548
 20
-5.2264100855
 11
13.2127834782
 21
11.3256593387
  0
LINE
  5
61B
100
AcDbEntity
  8
RACCORDO
100
AcDbLine
 62
250
  6
CONTINUOUS
 10
13.5124418392
 20
11.1979875463
 11
13.512713801
 21
11.2462690319
  0
LINE
  5
61C
100
AcDbEntity
  8
RACCORDO
100
AcDbLine
 62
250
  6
CONTINUOUS
 10
13.2127834782
 20
11.3256593387
 11
13.2138307844
 21
11.4714716753
  0
LINE
  5
61D
100
AcDbEntity
  8
RACCORDO
100
AcDbLine
 62
250
  6
CONTINUOUS
 10
13.2138307844
 20
11.4714716753
 11
13.2148941633
 21
11.5583468452
  0
LINE
  5
61E
100
AcDbEntity
  8
RACCORDO
100
AcDbLine
 62
250
  6
CONTINUOUS
 10
13.512713801
 20
11.2462690319
 11
13.5132225837
 21
11.2893669924
  0
LWPOLYLINE
  5
61F
100
AcDbEntity
  8
RACCORDO
100
AcDbPolyline
 62
250
  6
CONTINUOUS
 90
7
 70
0
 10
13.2148941633
 20
11.5583468452
 10
13.2161985432
 20
11.6328180766
 10
13.2169357203
 20
11.664960573
 10
13.2177075628
 20
11.6930199581
 10
13.2185069708
 20
11.7167521505
 10
13.2193410441
 20
11.7364012317
 10
13.2202097827
 20
11.7519672017
  0
LINE
  5
620
100
AcDbEntity
  8
RACCORDO
100
AcDbLine
 62
250
  6
CONTINUOUS
 10
13.5132225837
 20
11.2893669924
 11
13.5138917702
 21
11.3271627868
  0
LINE
  5
621
100
AcDbEntity
  8
RACCORDO
100
AcDbLine
 62
250
  6
CONTINUOUS
 10
13.5138917702
 20
11.3271627868
 11
13.514685266
 21
11.3596477109
  0
LWPOLYLINE
  5
622
100
AcDbEntity
  8
RACCORDO
100
AcDbPolyline
 62
250
  6
CONTINUOUS
 90
12
 70
0
 10
13.514685266
 20
11.3596477109
 10
13.5155545453
 20
11.3870961613
 10
13.516007642
 20
11.3990410717
 10
13.5164684409
 20
11.4098656718
 10
13.5169378424
 20
11.4196015344
 10
13.5174074422
 20
11.4283198197
 10
13.5178762277
 20
11.4360630991
 10
13.5183452115
 20
11.4428801506
 10
13.5188090264
 20
11.4488435895
 10
13.5192658835
 20
11.4540059002
 10
13.5197175718
 20
11.4584071193
 10
13.5201640913
 20
11.4620967198
  0
LWPOLYLINE
  5
623
100
AcDbEntity
  8
RACCORDO
100
AcDbPolyline
 62
7
  6
CONTINUOUS
 90
16
 70
0
 10
13.2665002646
 20
16.297427514
 10
13.26836839
 20
16.3308502328
 10
13.2737041257
 20
16.362774611
 10
13.2822322916
 20
16.39330097
 10
13.2938766227
 20
16.4226327347
 10
13.3085906302
 20
16.4506678097
 10
13.3260471276
 20
16.4768217417
 10
13.3457366393
 20
16.5005614248
 10
13.3675937251
 20
16.5220075383
 10
13.3917710381
 20
16.5412916102
 10
13.4180848974
 20
16.558143579
 10
13.4461723589
 20
16.5722387021
 10
13.47594275
 20
16.583433347
 10
13.507105089
 20
16.591488863
 10
13.539156708
 20
16.5961784373
 10
13.5665002646
 20
16.597427489
  0
LINE
  5
624
100
AcDbEntity
  8
RACCORDO
100
AcDbLine
 62
250
  6
CONTINUOUS
 10
13.2909830469
 20
12.8331932258
 11
13.2202097827
 21
11.7519672017
  0
LINE
  5
625
100
AcDbEntity
  8
RACCORDO
100
AcDbLine
 62
250
  6
CONTINUOUS
 10
13.5909373555
 20
12.5433227439
 11
13.5201640913
 21
11.4620967198
  0
LINE
  5
626
100
AcDbEntity
  8
RACCORDO
100
AcDbLine
 62
7
  6
CONTINUOUS
 10
14.8855635564
 20
12.3616186363
 11
14.8836335398
 21
12.3423464477
  0
LWPOLYLINE
  5
627
100
AcDbEntity
  8
RACCORDO
100
AcDbPolyline
 62
250
  6
CONTINUOUS
 90
12
 70
0
 10
14.5450159153
 20
11.4620967198
 10
14.5438745707
 20
11.4515156116
 10
14.542814436
 20
11.437550504
 10
14.5418355112
 20
11.4204977991
 10
14.5409322379
 20
11.4007283248
 10
14.5401101745
 20
11.3785447708
 10
14.5393859954
 20
11.3541159402
 10
14.5387611278
 20
11.3278850116
 10
14.5382341446
 20
11.3000680813
 10
14.5378174396
 20
11.2703597063
 10
14.5375151439
 20
11.23881902
 10
14.5372413873
 20
11.1722262379
  0
LWPOLYLINE
  5
628
100
AcDbEntity
  8
0
100
AcDbPolyline
 62
7
  6
CONTINUOUS
 90
19
 70
0
 10
12.9425236052
 20
-5.0895848444
 10
12.9415749948
 20
-5.0968560472
 10
12.9360060192
 20
-5.1086521425
 10
12.9254726117
 20
-5.1204500056
 10
12.9100206627
 20
-5.1322494442
 10
12.8897212522
 20
-5.1440489662
 10
12.8646674686
 20
-5.1558481355
 10
12.8349723106
 20
-5.1676473882
 10
12.8007710841
 20
-5.1794465407
 10
12.7622193797
 20
-5.1912455396
 10
12.7194922048
 20
-5.2030444383
 10
12.6727837588
 20
-5.2148432131
 10
12.6223064026
 20
-5.226641826
 10
12.5682892833
 20
-5.2384403151
 10
12.5109773008
 20
-5.2502387705
 10
12.4506307162
 20
-5.2620371855
 10
12.3875234983
 20
-5.2738355669
 10
12.3219415553
 20
-5.2856340242
 10
12.2541821267
 20
-5.2974326368
  0
LWPOLYLINE
  5
629
100
AcDbEntity
  8
0
100
AcDbPolyline
 62
7
  6
CONTINUOUS
 90
19
 70
0
 10
10.7425236052
 20
-11.6437305043
 10
10.7448517942
 20
-11.6323380568
 10
10.7518718847
 20
-11.6208900265
 10
10.7636219425
 20
-11.6093864135
 10
10.7801599758
 20
-11.5978021073
 10
10.8014604857
 20
-11.5861622185
 10
10.8273135519
 20
-11.5745420779
 10
10.8575633409
 20
-11.5629484453
 10
10.8920685704
 20
-11.551374561
 10
10.9304634465
 20
-11.5398754773
 10
10.972281574
 20
-11.5285090729
 10
11.0174557698
 20
-11.5172174691
 10
11.0662558857
 20
-11.5058820818
 10
11.1186594383
 20
-11.4944726451
 10
11.1743548116
 20
-11.4830194249
 10
11.2332831999
 20
-11.4714946345
 10
11.2954290596
 20
-11.4598637393
 10
11.3603928826
 20
-11.448161274
 10
11.4274854262
 20
-11.4364630563
  0
LWPOLYLINE
  5
62A
100
AcDbEntity
  8
0
100
AcDbPolyline
 62
7
  6
CONTINUOUS
 90
5
 70
0
 10
10.3925236052
 20
-11.3416579101
 10
10.3955792363
 20
-11.3302902682
 10
10.4043421032
 20
-11.3192902682
 10
10.4187808198
 20
-11.3082902682
 10
10.4232260093
 20
-11.3055668917
  0
LWPOLYLINE
  5
62B
100
AcDbEntity
  8
0
100
AcDbPolyline
 62
7
  6
CONTINUOUS
 90
18
 70
0
 10
10.3925236052
 20
-11.4416579101
 10
10.3955792363
 20
-11.4302902682
 10
10.4043421032
 20
-11.4192902682
 10
10.4187808198
 20
-11.4082902682
 10
10.4388384028
 20
-11.3972902682
 10
10.4644356935
 20
-11.3862902682
 10
10.495471671
 20
-11.3752902682
 10
10.5318238499
 20
-11.3642902682
 10
10.5733487645
 20
-11.3532902682
 10
10.6198825346
 20
-11.3422902682
 10
10.6712415124
 20
-11.3312902682
 10
10.7272230069
 20
-11.3202902682
 10
10.7876060847
 20
-11.3092902682
 10
10.8521524408
 20
-11.2982902682
 10
10.9206073401
 20
-11.2872902682
 10
10.992700622
 20
-11.2762902682
 10
11.068147767
 20
-11.2652902682
 10
11.1466510195
 20
-11.2542902682
  0
LWPOLYLINE
  5
62C
100
AcDbEntity
  8
0
100
AcDbPolyline
 62
7
  6
CONTINUOUS
 90
5
 70
0
 10
13.2618211677
 20
-6.5277484464
 10
13.2674067494
 20
-6.5242902682
 10
13.2814678488
 20
-6.5132902682
 10
13.2898500985
 20
-6.5022902682
 10
13.2925236052
 20
-6.4916573757
  0
LWPOLYLINE
  5
62D
100
AcDbEntity
  8
0
100
AcDbPolyline
 62
7
  6
CONTINUOUS
 90
5
 70
0
 10
13.261821184
 20
-7.6277489898
 10
13.2674075996
 20
-7.6242902682
 10
13.2814684172
 20
-7.6132902682
 10
13.2898503797
 20
-7.6022902682
 10
13.2925236052
 20
-7.5916579377
  0
LINE
  5
62E
100
AcDbEntity
  8
0
100
AcDbLine
 62
7
  6
CONTINUOUS
 10
10.7820800823
 20
-7.7924929813
 11
10.6245633121
 21
-7.8864197042
  0
LINE
  5
62F
100
AcDbEntity
  8
0
100
AcDbLine
 62
7
  6
CONTINUOUS
 10
12.9029714619
 20
-6.7408197514
 11
13.1380873939
 21
-6.6008708369
  0
LINE
  5
630
100
AcDbEntity
  8
0
100
AcDbLine
 62
7
  6
CONTINUOUS
 10
12.9029714835
 20
-7.8408202883
 11
13.1380874123
 21
-7.7008713782
  0
LINE
  5
631
100
AcDbEntity
  8
0
100
AcDbLine
 62
7
  6
CONTINUOUS
 10
13.1380873939
 20
-6.6008708369
 11
13.2618211677
 21
-6.5277484464
  0
LINE
  5
632
100
AcDbEntity
  8
0
100
AcDbLine
 62
7
  6
CONTINUOUS
 10
13.1380874123
 20
-7.7008713782
 11
13.261821184
 21
-7.6277489898
  0
LWPOLYLINE
  5
633
100
AcDbEntity
  8
RACCORDO
100
AcDbPolyline
 62
250
  6
CONTINUOUS
 90
12
 70
0
 10
12.9702239225
 20
-8.3361795572
 10
12.9982615512
 20
-8.3218162269
 10
13.024678458
 20
-8.3045627555
 10
13.0492252296
 20
-8.2845506361
 10
13.0715586779
 20
-8.262025658
 10
13.0913306071
 20
-8.2373506735
 10
13.1083315725
 20
-8.2108454162
 10
13.1224206427
 20
-8.1827969501
 10
13.1334531804
 20
-8.1535849382
 10
13.1413527487
 20
-8.1235637399
 10
13.146091545
 20
-8.0930488803
 10
13.1476687348
 20
-8.0623713735
  0
LINE
  5
634
100
AcDbEntity
  8
RACCORDO
100
AcDbLine
 62
250
  6
CONTINUOUS
 10
12.9408271613
 20
-8.3475258847
 11
12.9702239225
 21
-8.3361795572
  0
LWPOLYLINE
  5
635
100
AcDbEntity
  8
RACCORDO
100
AcDbPolyline
 62
250
  6
CONTINUOUS
 90
13
 70
0
 10
-13.9058901451
 20
12.5433227439
 10
-13.8667455195
 20
12.5459717603
 10
-13.8282680024
 20
12.5535339162
 10
-13.7911159687
 20
12.5658807748
 10
-13.7559243125
 20
12.5828025627
 10
-13.7232967569
 20
12.6040102729
 10
-13.693794679
 20
12.6291393485
 10
-13.6678934879
 20
12.6577963671
 10
-13.6460752098
 20
12.6894611561
 10
-13.6287700963
 20
12.7234586005
 10
-13.6162337206
 20
12.7591396159
 10
-13.6085984362
 20
12.7959264563
 10
-13.6059358366
 20
12.8331932258
  0
LWPOLYLINE
  5
636
100
AcDbEntity
  8
RACCORDO
100
AcDbPolyline
 62
250
  6
CONTINUOUS
 90
13
 70
0
 10
-13.8351168809
 20
11.4620967198
 10
-13.7960762005
 20
11.4647346266
 10
-13.7576996486
 20
11.4722583102
 10
-13.7206401121
 20
11.484539803
 10
-13.6855280538
 20
11.5013699433
 10
-13.652960839
 20
11.5224626412
 10
-13.6234925717
 20
11.5474597476
 10
-13.5976245839
 20
11.5759360016
 10
-13.575796952
 20
11.6074068989
 10
-13.5583810603
 20
11.6413376433
 10
-13.5456732088
 20
11.6771511788
 10
-13.5378895737
 20
11.7142380107
 10
-13.5351625724
 20
11.7519672017
  0
LINE
  5
637
100
AcDbEntity
  8
RACCORDO
100
AcDbLine
 62
250
  6
CONTINUOUS
 10
-14.8415658857
 20
12.5433227439
 11
-13.9058901451
 21
12.5433227439
  0
LINE
  5
638
100
AcDbEntity
  8
RACCORDO
100
AcDbLine
 62
250
  6
CONTINUOUS
 10
13.5909373555
 20
12.5433227439
 11
14.5266130961
 21
12.5433227439
  0
LINE
  5
639
100
AcDbEntity
  8
RACCORDO
100
AcDbLine
 62
250
  6
CONTINUOUS
 10
13.2909830469
 20
12.8331932258
 11
14.8264303442
 21
12.8331932258
  0
LINE
  5
63A
100
AcDbEntity
  8
RACCORDO
100
AcDbLine
 62
250
  6
CONTINUOUS
 10
-13.6059358366
 20
12.8331932258
 11
-15.1413831338
 21
12.8331932258
  0
LWPOLYLINE
  5
63B
100
AcDbEntity
  8
RACCORDO
100
AcDbPolyline
 62
250
  6
CONTINUOUS
 90
13
 70
0
 10
13.5201640913
 20
11.4620967198
 10
13.4811232484
 20
11.4647321018
 10
13.4427465913
 20
11.4722540969
 10
13.4056870064
 20
11.4845347364
 10
13.3705749733
 20
11.5013650947
 10
13.3380078386
 20
11.5224588439
 10
13.3085396534
 20
11.5474571249
 10
13.282671748
 20
11.5759346519
 10
13.2608442025
 20
11.6074069487
 10
13.2434283599
 20
11.6413385901
 10
13.2307205088
 20
11.6771523111
 10
13.2229368429
 20
11.7142388275
 10
13.2202097827
 20
11.7519672017
  0
LWPOLYLINE
  5
63C
100
AcDbEntity
  8
RACCORDO
100
AcDbPolyline
 62
250
  6
CONTINUOUS
 90
13
 70
0
 10
13.2909830469
 20
12.8331932258
 10
13.293710107
 20
12.7954648527
 10
13.3014937725
 20
12.758378337
 10
13.3142016231
 20
12.7225646164
 10
13.3316174654
 20
12.688632975
 10
13.3534450107
 20
12.6571606779
 10
13.3793129161
 20
12.6286831504
 10
13.4087811013
 20
12.6036848691
 10
13.4413482363
 20
12.5825911195
 10
13.4764602697
 20
12.5657607608
 10
13.5135198548
 20
12.5534801212
 10
13.5518965122
 20
12.545958126
 10
13.5909373555
 20
12.5433227439
  0
LWPOLYLINE
  5
63D
100
AcDbEntity
  8
RACCORDO
100
AcDbPolyline
 62
250
  6
CONTINUOUS
 90
13
 70
0
 10
14.6556630206
 20
-8.790679177
 10
14.6530914045
 20
-8.7515265847
 10
14.6454324734
 20
-8.7130437743
 10
14.6328172483
 20
-8.67588907
 10
14.6154615373
 20
-8.640698076
 10
14.593662244
 20
-8.6080728033
 10
14.5677922882
 20
-8.5785713713
 10
14.5382942262
 20
-8.55269846
 10
14.5056726804
 20
-8.5308966762
 10
14.4704857063
 20
-8.5135389824
 10
14.4333352463
 20
-8.5009223161
 10
14.3948568319
 20
-8.4932625099
 10
14.355708712
 20
-8.4906906001
  0
LWPOLYLINE
  5
63E
100
AcDbEntity
  8
RACCORDO
100
AcDbPolyline
 62
250
  6
CONTINUOUS
 90
6
 70
0
 10
14.5424779068
 20
-8.3597045259
 10
14.5417121216
 20
-8.3459019735
 10
14.5410004506
 20
-8.3302961596
 10
14.5403428936
 20
-8.3130032495
 10
14.5397359103
 20
-8.2941782264
 10
14.5391830411
 20
-8.2739377775
  0
LINE
  5
63F
100
AcDbEntity
  8
RACCORDO
100
AcDbLine
 62
7
  6
CONTINUOUS
 10
14.8423858354
 20
-8.6122399653
 11
14.8410965365
 21
-8.5618929245
  0
LINE
  5
640
100
AcDbEntity
  8
RACCORDO
100
AcDbLine
 62
7
  6
CONTINUOUS
 10
14.84239032
 20
-8.6123872622
 11
14.8424909333
 21
-8.6172141854
  0
LINE
  5
641
100
AcDbEntity
  8
RACCORDO
100
AcDbLine
 62
250
  6
CONTINUOUS
 10
14.5391830411
 20
-8.2739377775
 11
14.5382715449
 21
-8.2296052173
  0
LINE
  5
642
100
AcDbEntity
  8
RACCORDO
100
AcDbLine
 62
7
  6
CONTINUOUS
 10
14.8410965365
 20
-8.5618929245
 11
14.8397117039
 21
-8.4848617364
  0
LINE
  5
643
100
AcDbEntity
  8
RACCORDO
100
AcDbLine
 62
250
  6
CONTINUOUS
 10
14.5382715449
 20
-8.2296052173
 11
14.5376295374
 21
-8.180825103
  0
LINE
  5
644
100
AcDbEntity
  8
RACCORDO
100
AcDbLine
 62
7
  6
CONTINUOUS
 10
14.8397117039
 20
-8.4848617364
 11
14.8385590529
 21
-8.3915684371
  0
LINE
  5
645
100
AcDbEntity
  8
RACCORDO
100
AcDbLine
 62
250
  6
CONTINUOUS
 10
14.5376295374
 20
-8.180825103
 11
14.537295524
 21
-8.1276136833
  0
LINE
  5
646
100
AcDbEntity
  8
RACCORDO
100
AcDbLine
 62
7
  6
CONTINUOUS
 10
14.8385590529
 20
-8.3915684371
 11
14.8374885927
 21
-8.2279472378
  0
LINE
  5
647
100
AcDbEntity
  8
RACCORDO
100
AcDbLine
 62
7
  6
CONTINUOUS
 10
14.8425210398
 20
-8.6218646899
 11
14.8425004099
 21
-8.6172141854
  0
LINE
  5
648
100
AcDbEntity
  8
RACCORDO
100
AcDbLine
 62
250
  6
CONTINUOUS
 10
14.355708712
 20
-10.673025615
 11
14.355708712
 21
-8.4906906001
  0
LINE
  5
649
100
AcDbEntity
  8
RACCORDO
100
AcDbLine
 62
250
  6
CONTINUOUS
 10
14.5266130961
 20
12.5433227439
 11
14.5266130961
 21
16.5729447316
  0
LINE
  5
64A
100
AcDbEntity
  8
RACCORDO
100
AcDbLine
 62
250
  6
CONTINUOUS
 10
14.537295524
 20
-8.1276136833
 11
14.5372413873
 21
11.1722262379
  0
LINE
  5
64B
100
AcDbEntity
  8
RACCORDO
100
AcDbLine
 62
250
  6
CONTINUOUS
 10
14.5755021734
 20
16.5973818225
 11
14.5755021734
 21
16.597427514
  0
LINE
  5
64C
100
AcDbEntity
  8
0
100
AcDbLine
 62
7
  6
CONTINUOUS
 10
14.6425236052
 20
-12.7972902682
 11
14.6425236052
 21
-13.8321384685
  0
LINE
  5
64D
100
AcDbEntity
  8
RACCORDO
100
AcDbLine
 62
250
  6
CONTINUOUS
 10
14.6556630206
 20
-10.3730914099
 11
14.6556630206
 21
-8.790679177
  0
LINE
  5
64E
100
AcDbEntity
  8
RACCORDO
100
AcDbLine
 62
250
  6
CONTINUOUS
 10
14.8264303442
 20
12.8331932258
 11
14.8264303442
 21
16.2729904231
  0
LINE
  5
64F
100
AcDbEntity
  8
RACCORDO
100
AcDbLine
 62
7
  6
CONTINUOUS
 10
14.8374885927
 20
-8.2279472378
 11
14.8372413873
 21
11.1722262379
  0
LINE
  5
650
100
AcDbEntity
  8
RACCORDO
100
AcDbLine
 62
7
  6
CONTINUOUS
 10
14.8425210398
 20
-8.6218646899
 11
14.8425236052
 21
-10.5973341315
  0
LINE
  5
651
100
AcDbEntity
  8
RACCORDO
100
AcDbLine
 62
7
  6
CONTINUOUS
 10
14.8755021734
 20
16.297427514
 11
14.8755021734
 21
14.473649106
  0
LINE
  5
652
100
AcDbEntity
  8
RACCORDO
100
AcDbLine
 62
7
  6
CONTINUOUS
 10
14.8861612675
 20
14.3692870684
 11
14.8861612675
 21
12.381256085
  0
LINE
  5
653
100
AcDbEntity
  8
RACCORDO
100
AcDbLine
 62
7
  6
CONTINUOUS
 10
14.8372413615
 20
11.1722262379
 11
14.8375743323
 21
11.3217021076
  0
LINE
  5
654
100
AcDbEntity
  8
RACCORDO
100
AcDbLine
 62
7
  6
CONTINUOUS
 10
14.8375743323
 20
11.3217021076
 11
14.8385069485
 21
11.4566470332
  0
LINE
  5
655
100
AcDbEntity
  8
RACCORDO
100
AcDbLine
 62
7
  6
CONTINUOUS
 10
14.8385069485
 20
11.4566470332
 11
14.8395771006
 21
11.5486069007
  0
LINE
  5
656
100
AcDbEntity
  8
RACCORDO
100
AcDbLine
 62
7
  6
CONTINUOUS
 10
14.8395771006
 20
11.5486069007
 11
14.8408723191
 21
11.6234309224
  0
LINE
  5
657
100
AcDbEntity
  8
RACCORDO
100
AcDbLine
 62
7
  6
CONTINUOUS
 10
14.8408723191
 20
11.6234309224
 11
14.8419045569
 21
11.6674094902
  0
LINE
  5
658
100
AcDbEntity
  8
RACCORDO
100
AcDbLine
 62
7
  6
CONTINUOUS
 10
14.8419045569
 20
11.6674094902
 11
14.84259163
 21
11.6909003408
  0
LINE
  5
659
100
AcDbEntity
  8
RACCORDO
100
AcDbLine
 62
7
  6
CONTINUOUS
 10
14.8861612675
 20
12.381256085
 11
14.8855635564
 21
12.3616186363
  0
LWPOLYLINE
  5
65A
100
AcDbEntity
  8
RACCORDO
100
AcDbPolyline
 62
7
  6
CONTINUOUS
 90
6
 70
0
 10
14.84259163
 20
11.6909003408
 10
14.8432421859
 20
11.7094242242
 10
14.8435514513
 20
11.7168374965
 10
14.8438434262
 20
11.7230307115
 10
14.8441105568
 20
11.7280340864
 10
14.8443390983
 20
11.7318162974
  0
LINE
  5
65B
100
AcDbEntity
  8
RACCORDO
100
AcDbLine
 62
250
  6
CONTINUOUS
 10
14.5860698567
 20
12.0892910484
 11
14.5450159153
 21
11.4620967198
  0
LINE
  5
65C
100
AcDbEntity
  8
RACCORDO
100
AcDbLine
 62
7
  6
CONTINUOUS
 10
14.8855569785
 20
12.3615181437
 11
14.8443752928
 21
11.7323722262
  0
LWPOLYLINE
  5
65D
100
AcDbEntity
  8
RACCORDO
100
AcDbPolyline
 62
250
  6
CONTINUOUS
 90
12
 70
0
 10
13.2124352548
 20
-8.0947521672
 10
13.2098636387
 20
-8.1339047596
 10
13.2022047076
 20
-8.1723875699
 10
13.1895894824
 20
-8.2095422742
 10
13.1722337715
 20
-8.2447332682
 10
13.1504344782
 20
-8.2773585409
 10
13.1245645224
 20
-8.3068599729
 10
13.0950664604
 20
-8.3327328843
 10
13.0624449146
 20
-8.354534668
 10
13.0272579405
 20
-8.3718923618
 10
12.9901074804
 20
-8.3845090282
 10
12.9774921649
 20
-8.3870203289
  0
LWPOLYLINE
  5
65E
100
AcDbEntity
  8
0
100
AcDbPolyline
 62
7
  6
CONTINUOUS
 90
7
 70
0
 10
12.9425236052
 20
-11.843952332
 10
12.9413928189
 20
-11.8598300813
 10
12.9380000527
 20
-11.8757174324
 10
12.9323481967
 20
-11.8916143854
 10
12.9244448203
 20
-11.9075209403
 10
12.9143021752
 20
-11.9234370971
 10
12.9019371905
 20
-11.9393628557
  0
LWPOLYLINE
  5
65F
100
AcDbEntity
  8
0
100
AcDbPolyline
 62
7
  6
CONTINUOUS
 90
8
 70
0
 10
12.9425236052
 20
-8.3895848444
 10
12.9402264489
 20
-8.4009010798
 10
12.9332859834
 20
-8.4122895351
 10
12.9216435726
 20
-8.4237502101
 10
12.9052282388
 20
-8.4353034852
 10
12.8840406368
 20
-8.4469289801
 10
12.8582353406
 20
-8.4585655541
 10
12.8305281606
 20
-8.4692085619
  0
LWPOLYLINE
  5
660
100
AcDbEntity
  8
0
100
AcDbPolyline
 62
7
  6
CONTINUOUS
 90
19
 70
0
 10
12.9425236052
 20
-7.2895853434
 10
12.940212817
 20
-7.3009351305
 10
12.9332812095
 20
-7.3122959334
 10
12.9217445721
 20
-7.3236677523
 10
12.905616397
 20
-7.3350641441
 10
12.8849628702
 20
-7.3464715519
 10
12.8599558778
 20
-7.3578493046
 10
12.8308054534
 20
-7.3691718633
 10
12.7976151711
 20
-7.3804647668
 10
12.7604304633
 20
-7.3917639606
 10
12.7193818318
 20
-7.4030741445
 10
12.6746489459
 20
-7.4143906187
 10
12.6263163989
 20
-7.4257352287
 10
12.5745642153
 20
-7.4371074717
 10
12.5195849132
 20
-7.4485078507
 10
12.4614681531
 20
-7.4599597197
 10
12.4002503831
 20
-7.4714953542
 10
12.3363229497
 20
-7.4830824787
 10
12.2703604517
 20
-7.4946476214
  0
LWPOLYLINE
  5
661
100
AcDbEntity
  8
0
100
AcDbPolyline
 62
7
  6
CONTINUOUS
 90
19
 70
0
 10
12.9425236052
 20
-6.1895847815
 10
12.9401938238
 20
-6.2009811362
 10
12.9331604965
 20
-6.2124434147
 10
12.9213729245
 20
-6.2239716169
 10
12.9047602343
 20
-6.2355910933
 10
12.8833361312
 20
-6.2472764934
 10
12.8573013461
 20
-6.2589517664
 10
12.8267921954
 20
-6.2706138146
 10
12.7919492523
 20
-6.2822657356
 10
12.7531733072
 20
-6.2938407711
 10
12.7109267231
 20
-6.3052839667
 10
12.6652920411
 20
-6.3166502769
 10
12.6160957019
 20
-6.3280378072
 10
12.5634504095
 20
-6.3394626803
 10
12.5076298071
 20
-6.3509087734
 10
12.4485951901
 20
-6.3624258236
 10
12.3863226201
 20
-6.3740556814
 10
12.3212498488
 20
-6.3857564963
 10
12.2540677562
 20
-6.3974524537
  0
LINE
  5
662
100
AcDbEntity
  8
0
100
AcDbLine
 62
7
  6
CONTINUOUS
 10
10.7820755802
 20
-11.0924956775
 11
10.5489971672
 21
-11.2312379393
  0
LINE
  5
663
100
AcDbEntity
  8
0
100
AcDbLine
 62
7
  6
CONTINUOUS
 10
10.5489971672
 20
-11.2312379393
 11
10.4232260093
 21
-11.3055668917
  0
LWPOLYLINE
  5
664
100
AcDbEntity
  8
0
100
AcDbPolyline
 62
7
  6
CONTINUOUS
 90
15
 70
0
 10
10.4232260093
 20
-11.3055668917
 10
10.4388384028
 20
-11.2972902682
 10
10.4644356935
 20
-11.2862902682
 10
10.495471671
 20
-11.2752902682
 10
10.5318238499
 20
-11.2642902682
 10
10.5733487645
 20
-11.2532902682
 10
10.6198825346
 20
-11.2422902682
 10
10.6712415124
 20
-11.2312902682
 10
10.7272230069
 20
-11.2202902682
 10
10.7876060847
 20
-11.2092902682
 10
10.8521524408
 20
-11.1982902682
 10
10.9206073401
 20
-11.1872902682
 10
10.992700622
 20
-11.1762902682
 10
11.068147767
 20
-11.1652902682
 10
11.1466510195
 20
-11.1542902682
  0
LWPOLYLINE
  5
665
100
AcDbEntity
  8
RACCORDO
100
AcDbPolyline
 62
250
  6
CONTINUOUS
 90
6
 70
0
 10
9.8425236052
 20
-10.7609153372
 10
9.8488692401
 20
-10.7576858657
 10
9.8661966803
 20
-10.7545227276
 10
9.8945059258
 20
-10.7514259227
 10
9.9340746334
 20
-10.7483831597
 10
9.9846251464
 20
-10.7454067299
  0
LINE
  5
666
100
AcDbEntity
  8
RACCORDO
100
AcDbLine
 62
250
  6
CONTINUOUS
 10
14.355708712
 20
-8.4906906001
 11
14.5373327806
 21
-8.3998854819
  0
LINE
  5
667
100
AcDbEntity
  8
RACCORDO
100
AcDbLine
 62
250
  6
CONTINUOUS
 10
14.6556630206
 20
-8.790679177
 11
14.8372870892
 21
-8.6998740588
  0
LINE
  5
668
100
AcDbEntity
  8
RACCORDO
100
AcDbLine
 62
7
  6
CONTINUOUS
 10
13.2665002646
 20
14.4847811742
 11
13.217827706
 21
14.4836203255
  0
LINE
  5
669
100
AcDbEntity
  8
RACCORDO
100
AcDbLine
 62
7
  6
CONTINUOUS
 10
13.217827706
 20
14.4836203255
 11
13.1384926988
 21
14.4821933125
  0
LINE
  5
66A
100
AcDbEntity
  8
RACCORDO
100
AcDbLine
 62
7
  6
CONTINUOUS
 10
13.1384926988
 20
14.4821933125
 11
13.0471407046
 21
14.4810858099
  0
LWPOLYLINE
  5
66B
100
AcDbEntity
  8
RACCORDO
100
AcDbPolyline
 62
250
  6
CONTINUOUS
 90
15
 70
0
 10
12.8785979988
 20
14.1802533
 10
12.9092134694
 20
14.1805072777
 10
12.9392313054
 20
14.1809240252
 10
12.968352781
 20
14.1815117229
 10
12.9962278807
 20
14.1822621902
 10
13.0224729728
 20
14.1831508862
 10
13.0467673081
 20
14.1841812489
 10
13.0689048021
 20
14.1853498402
 10
13.0887016636
 20
14.1866218049
 10
13.1059797883
 20
14.1880040709
 10
13.1204768018
 20
14.1894897103
 10
13.1319584867
 20
14.1910230849
 10
13.1403287853
 20
14.1925856486
 10
13.145569217
 20
14.1941959475
 10
13.1476687348
 20
14.1958539816
  0
LINE
  5
66C
100
AcDbEntity
  8
RACCORDO
100
AcDbLine
 62
7
  6
CONTINUOUS
 10
13.0471407046
 20
14.4810858099
 11
12.9457810935
 21
14.4803510377
  0
LINE
  5
66D
100
AcDbEntity
  8
RACCORDO
100
AcDbLine
 62
250
  6
CONTINUOUS
 10
-13.1626672159
 20
14.180162092
 11
12.8785979988
 21
14.1802533
  0
LINE
  5
66E
100
AcDbEntity
  8
RACCORDO
100
AcDbLine
 62
7
  6
CONTINUOUS
 10
12.9457810935
 20
14.4803510377
 11
-13.165798549
 21
14.4801620399
  0
LINE
  5
66F
100
AcDbEntity
  8
RACCORDO
100
AcDbLine
 62
7
  6
CONTINUOUS
 10
-13.165798549
 20
14.4801620399
 11
-13.2763172854
 21
14.4804284861
  0
LINE
  5
670
100
AcDbEntity
  8
RACCORDO
100
AcDbLine
 62
7
  6
CONTINUOUS
 10
-13.2763172854
 20
14.4804284861
 11
-13.3786604599
 21
14.4812502981
  0
LINE
  5
671
100
AcDbEntity
  8
RACCORDO
100
AcDbLine
 62
7
  6
CONTINUOUS
 10
-13.3786604599
 20
14.4812502981
 11
-13.448296966
 21
14.4821163162
  0
LINE
  5
672
100
AcDbEntity
  8
RACCORDO
100
AcDbLine
 62
7
  6
CONTINUOUS
 10
-13.448296966
 20
14.4821163162
 11
-13.510950087
 21
14.4831825082
  0
LWPOLYLINE
  5
673
100
AcDbEntity
  8
RACCORDO
100
AcDbPolyline
 62
7
  6
CONTINUOUS
 90
3
 70
0
 10
-13.510950087
 20
14.4831825082
 10
-13.5659579939
 20
14.484377358
 10
-13.5814530542
 20
14.4847802838
  0
LWPOLYLINE
  5
674
100
AcDbEntity
  8
RACCORDO
100
AcDbPolyline
 62
250
  6
CONTINUOUS
 90
12
 70
0
 10
14.8753194215
 20
16.297427514
 10
14.8727326027
 20
16.3365643205
 10
14.8650640265
 20
16.3750320038
 10
14.8524448027
 20
16.4121728809
 10
14.8350906825
 20
16.4473519531
 10
14.8132983699
 20
16.4799677627
 10
14.7874404487
 20
16.5094626762
 10
14.7579590125
 20
16.5353324183
 10
14.7253581064
 20
16.5571346931
 10
14.6901951088
 20
16.5744967467
 10
14.6530712028
 20
16.5871217393
 10
14.6146210968
 20
16.5947938212
  0
LWPOLYLINE
  5
675
100
AcDbEntity
  8
RACCORDO
100
AcDbPolyline
 62
250
  6
CONTINUOUS
 90
16
 70
0
 10
14.8264303442
 20
16.2729904231
 10
14.8247538589
 20
16.3044855155
 10
14.8197831028
 20
16.3356239261
 10
14.8115756917
 20
16.3660620226
 10
14.8002324654
 20
16.3954474617
 10
14.7858771361
 20
16.4234753899
 10
14.7686375072
 20
16.4498831244
 10
14.7486472948
 20
16.4744198435
 10
14.7261507717
 20
16.4967458234
 10
14.7015048083
 20
16.51651783
 10
14.6750257659
 20
16.5335264082
 10
14.6470008409
 20
16.5476280563
 10
14.6178075434
 20
16.5586769704
 10
14.5877989837
 20
16.566594846
 10
14.5572905329
 20
16.5713517251
 10
14.5266130961
 20
16.5729447316
  0
LWPOLYLINE
  5
676
100
AcDbEntity
  8
RACCORDO
100
AcDbPolyline
 62
7
  6
CONTINUOUS
 90
13
 70
0
 10
14.8425236052
 20
-10.5972902403
 10
14.8399829767
 20
-10.6362820778
 10
14.8323829587
 20
-10.6746735485
 10
14.8198272041
 20
-10.7118074967
 10
14.8024967577
 20
-10.747056992
 10
14.7806693889
 20
-10.7797906918
 10
14.7547341746
 20
-10.8093959967
 10
14.7251162622
 20
-10.8353714031
 10
14.6923342927
 20
-10.8572480632
 10
14.6570532619
 20
-10.8746008605
 10
14.6199311948
 20
-10.8871551371
 10
14.5815809227
 20
-10.8947494373
 10
14.5426606587
 20
-10.8972902682
  0
LWPOLYLINE
  5
677
100
AcDbEntity
  8
0
100
AcDbPolyline
 62
7
  6
CONTINUOUS
 90
5
 70
0
 10
13.261821184
 20
-10.9277489898
 10
13.2674075996
 20
-10.9242902682
 10
13.2814684172
 20
-10.9132902682
 10
13.2898503797
 20
-10.9022902682
 10
13.2925236052
 20
-10.8916579377
  0
LINE
  5
678
100
AcDbEntity
  8
0
100
AcDbLine
 62
7
  6
CONTINUOUS
 10
12.9029714835
 20
-11.1408202883
 11
13.1380874123
 21
-11.0008713782
  0
LINE
  5
679
100
AcDbEntity
  8
0
100
AcDbLine
 62
7
  6
CONTINUOUS
 10
13.1380874123
 20
-11.0008713782
 11
13.261821184
 21
-10.9277489898
  0
LINE
  5
67A
100
AcDbEntity
  8
0
100
AcDbLine
 62
7
  6
CONTINUOUS
 10
10.7425236052
 20
-12.0972902682
 11
10.5425236052
 21
-12.212760322
  0
LWPOLYLINE
  5
67B
100
AcDbEntity
  8
RACCORDO
100
AcDbPolyline
 62
250
  6
CONTINUOUS
 90
6
 70
0
 10
13.8425236052
 20
-10.7609153372
 10
13.8361779696
 20
-10.7641448086
 10
13.818850529
 20
-10.7673079467
 10
13.7905412834
 20
-10.7704047516
 10
13.7509725762
 20
-10.7734475146
 10
13.700422064
 20
-10.7764239444
  0
LWPOLYLINE
  5
67C
100
AcDbEntity
  8
0
100
AcDbPolyline
 62
7
  6
CONTINUOUS
 90
5
 70
0
 10
12.9546757961
 20
-12.022350764
 10
12.9775460648
 20
-12.0138447147
 10
12.9979183576
 20
-12.0053386654
 10
13.0156754329
 20
-11.996832616
 10
13.0251515437
 20
-11.9916575998
  0
LWPOLYLINE
  5
67D
100
AcDbEntity
  8
0
100
AcDbPolyline
 62
7
  6
CONTINUOUS
 90
12
 70
0
 10
12.9019371905
 20
-11.9393628557
 10
12.9294302621
 20
-11.9308568067
 10
12.954675796
 20
-11.9223507578
 10
12.9775460647
 20
-11.9138447088
 10
12.9979183576
 20
-11.9053386598
 10
13.0156754329
 20
-11.8968326109
 10
13.0307059574
 20
-11.8883265619
 10
13.0429049333
 20
-11.879820513
 10
13.0521741101
 20
-11.871314464
 10
13.0584223802
 20
-11.862808415
 10
13.0615661574
 20
-11.8543023661
 10
13.0619500618
 20
-11.850138248
  0
LWPOLYLINE
  5
67E
100
AcDbEntity
  8
0
100
AcDbPolyline
 62
7
  6
CONTINUOUS
 90
3
 70
0
 10
12.9019371905
 20
-12.0393628624
 10
12.9294302621
 20
-12.0308568132
 10
12.9546757961
 20
-12.022350764
  0
LWPOLYLINE
  5
67F
100
AcDbEntity
  8
RACCORDO
100
AcDbPolyline
 62
250
  6
CONTINUOUS
 90
13
 70
0
 10
13.5909373555
 20
16.5729447316
 10
13.5517930083
 20
16.5703676517
 10
13.5133181724
 20
16.5627043353
 10
13.476170908
 20
16.550085853
 10
13.440986569
 20
16.5327280269
 10
13.408366936
 20
16.5109277393
 10
13.3788699238
 20
16.4850578547
 10
13.3530000392
 20
16.4555608426
 10
13.3311997516
 20
16.4229412096
 10
13.3138419256
 20
16.3877568705
 10
13.3012234432
 20
16.3506096061
 10
13.2935601268
 20
16.3121347702
 10
13.2909830469
 20
16.2729904231
  0
LWPOLYLINE
  5
680
100
AcDbEntity
  8
RACCORDO
100
AcDbPolyline
 62
250
  6
CONTINUOUS
 90
15
 70
0
 10
13.5665002646
 20
16.5973818225
 10
13.5350475095
 20
16.5957186404
 10
13.5039414929
 20
16.5907665813
 10
13.4735251837
 20
16.5825802294
 10
13.4441298939
 20
16.5712480167
 10
13.4160841712
 20
16.5568958379
 10
13.3897081021
 20
16.5396898255
 10
13.3652968495
 20
16.5198292085
 10
13.3431084968
 20
16.4975311729
 10
13.323375786
 20
16.473032375
 10
13.3062904937
 20
16.4465577366
 10
13.2920753841
 20
16.4184371943
 10
13.2809300182
 20
16.3891132371
 10
13.2729454246
 20
16.358967243
 10
13.2681476851
 20
16.328293607
  0
LWPOLYLINE
  5
681
100
AcDbEntity
  8
RACCORDO
100
AcDbPolyline
 62
250
  6
CONTINUOUS
 90
8
 70
0
 10
-14.890454963
 20
16.5973818225
 10
-14.8927291891
 20
16.5973718072
 10
-14.8950032842
 20
16.5973445335
 10
-14.8972771177
 20
16.5973000029
 10
-14.8995505587
 20
16.5972382181
 10
-14.9018234763
 20
16.5971591825
 10
-14.9040957398
 20
16.5970629008
 10
-14.9063672184
 20
16.5969493784
  0
LINE
  5
682
100
AcDbEntity
  8
RACCORDO
100
AcDbLine
 62
250
  6
CONTINUOUS
 10
-15.1413831338
 20
16.2729904231
 11
-13.6059358366
 21
16.2729904231
  0
LINE
  5
683
100
AcDbEntity
  8
RACCORDO
100
AcDbLine
 62
250
  6
CONTINUOUS
 10
13.2909830469
 20
16.2729904231
 11
14.8264303442
 21
16.2729904231
  0
LINE
  5
684
100
AcDbEntity
  8
RACCORDO
100
AcDbLine
 62
250
  6
CONTINUOUS
 10
13.2665002646
 20
16.297427514
 11
13.266545956
 21
16.297427514
  0
LINE
  5
685
100
AcDbEntity
  8
RACCORDO
100
AcDbLine
 62
250
  6
CONTINUOUS
 10
-13.5814530542
 20
16.297427514
 11
-13.5814987457
 21
16.297427514
  0
LINE
  5
686
100
AcDbEntity
  8
RACCORDO
100
AcDbLine
 62
250
  6
CONTINUOUS
 10
14.8753194215
 20
16.297427514
 11
14.8755020857
 21
16.297427514
  0
LINE
  5
687
100
AcDbEntity
  8
RACCORDO
100
AcDbLine
 62
250
  6
CONTINUOUS
 10
-15.1902722111
 20
16.297427514
 11
-15.1904548753
 21
16.297427514
  0
LINE
  5
688
100
AcDbEntity
  8
RACCORDO
100
AcDbLine
 62
250
  6
CONTINUOUS
 10
-14.8415658857
 20
16.5729447316
 11
-13.9058901451
 21
16.5729447316
  0
LINE
  5
689
100
AcDbEntity
  8
RACCORDO
100
AcDbLine
 62
250
  6
CONTINUOUS
 10
13.5909373555
 20
16.5729447316
 11
14.5266130961
 21
16.5729447316
  0
LINE
  5
68A
100
AcDbEntity
  8
RACCORDO
100
AcDbLine
 62
7
  6
CONTINUOUS
 10
-14.890454963
 20
16.597427514
 11
-13.8814530542
 21
16.597427514
  0
LINE
  5
68B
100
AcDbEntity
  8
RACCORDO
100
AcDbLine
 62
7
  6
CONTINUOUS
 10
14.5755021734
 20
16.597427514
 11
13.5665002646
 21
16.597427514
  0
LWPOLYLINE
  5
68C
100
AcDbEntity
  8
RACCORDO
100
AcDbPolyline
 62
7
  6
CONTINUOUS
 90
13
 70
0
 10
-13.8814530542
 20
16.5974274297
 10
-13.8484487429
 20
16.5956048137
 10
-13.8101131233
 20
16.5888206128
 10
-13.7724370546
 20
16.5769190377
 10
-13.7363501609
 20
16.5600015654
 10
-13.7026767596
 20
16.5383402081
 10
-13.6720203279
 20
16.5122249374
 10
-13.6446840031
 20
16.4816560815
 10
-13.6217711874
 20
16.4476450475
 10
-13.6041724985
 20
16.4119504087
 10
-13.5917149902
 20
16.3752200054
 10
-13.5840887922
 20
16.3371033279
 10
-13.5814530542
 20
16.297427514
  0
LINE
  5
68D
100
AcDbEntity
  8
RACCORDO
100
AcDbLine
 62
250
  6
CONTINUOUS
 10
14.5860698567
 20
12.0892910484
 11
14.5266130961
 21
12.5433227439
  0
LINE
  5
68E
100
AcDbEntity
  8
RACCORDO
100
AcDbLine
 62
250
  6
CONTINUOUS
 10
14.8861612675
 20
12.3770679327
 11
14.8264303442
 21
12.8331932258
  0
LWPOLYLINE
  5
68F
100
AcDbEntity
  8
RACCORDO
100
AcDbPolyline
 62
250
  6
CONTINUOUS
 90
7
 70
0
 10
14.8372870892
 20
-8.6998740588
 10
14.8382136272
 20
-8.6969247427
 10
14.8391171047
 20
-8.6896444948
 10
14.8399975217
 20
-8.6780333151
 10
14.8408548782
 20
-8.6620912036
 10
14.8416891743
 20
-8.6418181604
 10
14.8425004099
 20
-8.6172141854
  0
LWPOLYLINE
  5
690
100
AcDbEntity
  8
RACCORDO
100
AcDbPolyline
 62
250
  6
CONTINUOUS
 90
7
 70
0
 10
14.5373327806
 20
-8.3998854819
 10
14.538245795
 20
-8.398542678
 10
14.539136612
 20
-8.3949868178
 10
14.5400052317
 20
-8.3892599934
 10
14.540851654
 20
-8.3814199032
 10
14.5416758791
 20
-8.3715391644
 10
14.5424779068
 20
-8.3597045259
  0
LWPOLYLINE
  5
691
100
AcDbEntity
  8
0
100
AcDbPolyline
 62
7
  6
CONTINUOUS
 90
7
 70
0
 10
13.0251515437
 20
-11.9916575998
 10
13.0307059574
 20
-11.9883265665
 10
13.0429049334
 20
-11.979820517
 10
13.0521741101
 20
-11.9713144674
 10
13.0584223802
 20
-11.9628084177
 10
13.0615661574
 20
-11.9543023679
 10
13.0619500618
 20
-11.9501382495
  0
LINE
  5
692
100
AcDbEntity
  8
0
100
AcDbLine
 62
7
  6
CONTINUOUS
 10
12.9425236052
 20
-12.0393628624
 11
13.0251515437
 21
-11.9916575998
  0
LWPOLYLINE
  5
693
100
AcDbEntity
  8
RACCORDO
100
AcDbPolyline
 62
250
  6
CONTINUOUS
 90
13
 70
0
 10
-14.8415658857
 20
16.5729447316
 10
-14.8806848091
 20
16.5703567303
 10
-14.9191349152
 20
16.5626846484
 10
-14.9562588212
 20
16.5500596558
 10
-14.9914218187
 20
16.5326976022
 10
-15.0240227249
 20
16.5108953274
 10
-15.0535041611
 20
16.4850255853
 10
-15.0793620823
 20
16.4555306718
 10
-15.1011543949
 20
16.4229148622
 10
-15.1185085151
 20
16.38773579
 10
-15.1311277389
 20
16.3505949129
 10
-15.1387963151
 20
16.3121272296
 10
-15.1413831338
 20
16.2729904231
  0
LWPOLYLINE
  5
694
100
AcDbEntity
  8
RACCORDO
100
AcDbPolyline
 62
250
  6
CONTINUOUS
 90
14
 70
0
 10
-14.9086377814
 20
16.596818622
 10
-14.9109072982
 20
16.5966706389
 10
-14.9131756382
 20
16.5965054378
 10
-14.9154426709
 20
16.5963230282
 10
-14.9177082658
 20
16.5961234204
 10
-14.9199722926
 20
16.5959066261
 10
-14.9222346211
 20
16.5956726577
 10
-14.9244951209
 20
16.5954215287
 10
-14.9267536622
 20
16.5951532535
 10
-14.9290101148
 20
16.5948678475
 10
-14.9312643491
 20
16.5945653271
 10
-14.9335162352
 20
16.5942457099
 10
-14.9357656436
 20
16.5939090141
 10
-14.9380124449
 20
16.5935552592
  0
LWPOLYLINE
  5
695
100
AcDbEntity
  8
RACCORDO
100
AcDbPolyline
 62
7
  6
CONTINUOUS
 90
16
 70
0
 10
-14.890454963
 20
16.597427514
 10
-14.9242322678
 20
16.5955193861
 10
-14.9564763499
 20
16.5900723249
 10
-14.9872866795
 20
16.5813704989
 10
-15.0168632404
 20
16.569495418
 10
-15.045102554
 20
16.5544957716
 10
-15.0714154479
 20
16.5367041382
 10
-15.0952557727
 20
16.5166456474
 10
-15.1167405958
 20
16.4943914982
 10
-15.1360030949
 20
16.4697821337
 10
-15.152763791
 20
16.4430093327
 10
-15.1666894888
 20
16.4144509319
 10
-15.1776320897
 20
16.384199041
 10
-15.1853460267
 20
16.3525556913
 10
-15.1896007639
 20
16.320045215
 10
-15.1904548753
 20
16.297427514
  0
LWPOLYLINE
  5
696
100
AcDbEntity
  8
RACCORDO
100
AcDbPolyline
 62
7
  6
CONTINUOUS
 90
16
 70
0
 10
14.5755021734
 20
16.597427514
 10
14.6092794781
 20
16.5955193861
 10
14.6415235602
 20
16.5900723249
 10
14.6723338898
 20
16.5813704989
 10
14.7019104507
 20
16.569495418
 10
14.7301497644
 20
16.5544957716
 10
14.7564626582
 20
16.5367041382
 10
14.7803029831
 20
16.5166456474
 10
14.8017878062
 20
16.4943914982
 10
14.8210503052
 20
16.4697821337
 10
14.8378110014
 20
16.4430093327
 10
14.8517366991
 20
16.4144509319
 10
14.8626793
 20
16.384199041
 10
14.870393237
 20
16.3525556913
 10
14.8746479743
 20
16.320045215
 10
14.8755020857
 20
16.297427514
  0
LINE
  5
697
100
AcDbEntity
  8
RACCORDO
100
AcDbLine
 62
250
  6
CONTINUOUS
 10
14.6146210968
 20
16.5947938212
 11
14.5755021734
 21
16.5973818225
  0
LWPOLYLINE
  5
698
100
AcDbEntity
  8
0
100
AcDbPolyline
 62
7
  6
CONTINUOUS
 90
7
 70
0
 10
11.5770524931
 20
-14.6534621758
 10
11.5832861896
 20
-14.6469299085
 10
11.58951824
 20
-14.6402385333
 10
11.5957486444
 20
-14.6333880504
 10
11.6019774027
 20
-14.6263784597
 10
11.6082045149
 20
-14.6192097613
 10
11.6144299811
 20
-14.611881955
  0
LWPOLYLINE
  5
699
100
AcDbEntity
  8
RACCORDO
100
AcDbPolyline
 62
250
  6
CONTINUOUS
 90
28
 70
0
 10
-14.9424977093
 20
16.5927966542
 10
-14.9447359142
 20
16.5923918478
 10
-14.9469709959
 20
16.5919700695
 10
-14.9492028257
 20
16.5915313437
 10
-14.9514312752
 20
16.5910756955
 10
-14.9536562163
 20
16.5906031511
 10
-14.9558775208
 20
16.5901137378
 10
-14.958095061
 20
16.5896074837
 10
-14.9603087092
 20
16.589084418
 10
-14.9625183382
 20
16.5885445707
 10
-14.9647238207
 20
16.5879879729
 10
-14.9669250299
 20
16.5874146566
 10
-14.9691218392
 20
16.5868246548
 10
-14.971314122
 20
16.5862180015
 10
-14.9735017523
 20
16.5855947316
 10
-14.9756846042
 20
16.5849548809
 10
-14.9778625521
 20
16.5842984863
 10
-14.9800354706
 20
16.5836255854
 10
-14.9822032348
 20
16.5829362171
 10
-14.98436572
 20
16.582230421
 10
-14.9865228016
 20
16.5815082377
 10
-14.9886743556
 20
16.5807697087
 10
-14.9908202582
 20
16.5800148767
 10
-14.9929603859
 20
16.5792437849
 10
-14.9950946156
 20
16.5784564777
 10
-14.9972228245
 20
16.5776530005
 10
-14.99934489
 20
16.5768333995
 10
-15.0014606902
 20
16.5759977219
  0
LINE
  5
69A
100
AcDbEntity
  8
RACCORDO
100
AcDbLine
 62
250
  6
CONTINUOUS
 10
13.266545956
 20
16.297427514
 11
13.2909830469
 21
16.2729904231
  0
LINE
  5
69B
100
AcDbEntity
  8
RACCORDO
100
AcDbLine
 62
250
  6
CONTINUOUS
 10
13.5665002646
 20
16.5973818225
 11
13.5909373555
 21
16.5729447316
  0
ARC
  5
69C
100
AcDbEntity
  8
0
100
AcDbCircle
 62
7
  6
CONTINUOUS
 10
11.8425236052
 20
-9.7972902682
 40
5.0
100
AcDbArc
 50
237.2028317042
 51
254.3480490786
  0
ARC
  5
69D
100
AcDbEntity
  8
0
100
AcDbCircle
 62
7
  6
CONTINUOUS
 10
11.8425236052
 20
-9.7972902682
 40
5.0
100
AcDbArc
 50
285.6519509214
 51
302.7971682958
  0
CIRCLE
  5
69E
100
AcDbEntity
  8
ASSI
100
AcDbCircle
 62
7
  6
CONTINUOUS
 10
8.7925236052
 20
10.3527097318
 40
2.5
  0
ARC
  5
69F
100
AcDbEntity
  8
ASSI
100
AcDbCircle
 62
7
  6
CONTINUOUS
 10
8.7925236052
 20
-4.6472902682
 40
2.5
100
AcDbArc
 50
11.6719585832
 51
321.2687571515
  0
CIRCLE
  5
6A0
100
AcDbEntity
  8
ASSI
100
AcDbCircle
 62
7
  6
CONTINUOUS
 10
-9.1074763948
 20
10.3527097318
 40
2.5
  0
CIRCLE
  5
6A1
100
AcDbEntity
  8
ASSI
100
AcDbCircle
 62
7
  6
CONTINUOUS
 10
-9.1074763948
 20
-4.6472902682
 40
2.5
  0
CIRCLE
  5
6A2
100
AcDbEntity
  8
ASSI
100
AcDbCircle
 62
7
  6
CONTINUOUS
 10
-3.1574763948
 20
-0.5972902682
 40
2.0
  0
CIRCLE
  5
6A3
100
AcDbEntity
  8
ASSI
100
AcDbCircle
 62
7
  6
CONTINUOUS
 10
2.8425236052
 20
-0.5972902682
 40
2.0
  0
ARC
  5
6A4
100
AcDbEntity
  8
0
100
AcDbCircle
 62
7
  6
CONTINUOUS
 10
14.4425236052
 20
-13.8321384685
 40
0.2
100
AcDbArc
 50
302.797168295
 51
360.0
  0
ARC
  5
6A5
100
AcDbEntity
  8
0
100
AcDbCircle
 62
7
  6
CONTINUOUS
 10
9.2425236052
 20
-13.8321384685
 40
0.2
100
AcDbArc
 50
180.0
 51
237.202831705
  0
ARC
  5
6A6
100
AcDbEntity
  8
0
100
AcDbCircle
 62
7
  6
CONTINUOUS
 10
14.4425236052
 20
-12.7972902682
 40
0.2
100
AcDbArc
 50
0.0
 51
90.0
  0
ARC
  5
6A7
100
AcDbEntity
  8
0
100
AcDbCircle
 62
7
  6
CONTINUOUS
 10
9.2425236052
 20
-12.7972902682
 40
0.2
100
AcDbArc
 50
90.0
 51
180.0
  0
ARC
  5
6A8
100
AcDbEntity
  8
RACCORDO
100
AcDbCircle
 62
7
  6
CONTINUOUS
 10
13.2425236052
 20
-12.4972902682
 40
0.1
100
AcDbArc
 50
180.0
 51
270.0
  0
ARC
  5
6A9
100
AcDbEntity
  8
RACCORDO
100
AcDbCircle
 62
7
  6
CONTINUOUS
 10
10.4425236052
 20
-12.4972902682
 40
0.1
100
AcDbArc
 50
270.0
 51
360.0
  0
ELLIPSE
  5
6AA
100
AcDbEntity
  8
RACCORDO
100
AcDbEllipse
 62
7
  6
CONTINUOUS
 10
14.6861104848
 20
14.521632608
 30
0.0
 11
-0.1198979374
 21
0.3315403603
 31
0.0
 40
0.4830179333
 41
-2.2134695765
 42
-1.8827364686
  0
ELLIPSE
  5
6AB
100
AcDbEntity
  8
RACCORDO
100
AcDbEllipse
 62
7
  6
CONTINUOUS
 10
-15.0010632744
 20
14.521632608
 30
0.0
 11
0.1198979374
 21
0.3315403603
 31
0.0
 40
0.4830179333
 41
-4.4004488386
 42
-4.0697157307
  0
ENDSEC
  0
SECTION
  2
OBJECTS
  0
DICTIONARY
  5
C
100
AcDbDictionary
280
0
281
1
  3
ACAD_GROUP
350
D
  3
ACAD_MLINESTYLE
350
17
  3
ACAD_LAYOUT
350
1A
  3
ACAD_PLOTSETTINGS
350
19
  3
ACAD_PLOTSTYLENAME
350
E
  0
DICTIONARY
  5
D
102
{ACAD_REACTORS
330
C
102
}
100
AcDbDictionary
280
0
281
1
  0
ACDBDICTIONARYWDFLT
  5
E
102
{ACAD_REACTORS
330
C
102
}
100
AcDbDictionary
281
1
  3
Normal
350
F
100
AcDbDictionaryWithDefault
340
F
  0
DICTIONARY
  5
17
102
{ACAD_REACTORS
330
C
102
}
100
AcDbDictionary
280
0
281
1
  3
Standard
350
18
  0
DICTIONARY
  5
19
102
{ACAD_REACTORS
330
C
102
}
100
AcDbDictionary
281
1
  0
DICTIONARY
  5
1A
102
{ACAD_REACTORS
330
C
102
}
100
AcDbDictionary
281
1
  3
Model
350
6AC
  3
Layout1
350
6AD
  0
ACDBPLACEHOLDER
  5
F
102
{ACAD_REACTORS
330
E
102
}
  0
MLINESTYLE
  5
18
102
{ACAD_REACTORS
330
17
102
}
100
AcDbMlineStyle
  2
STANDARD
 70
0
  3

 62
256
 51
90.0
 52
90.0
 71
2
 49
0.5
 62
256
  6
BYLAYER
 49
-0.5
 62
256
  6
BYLAYER
  0
LAYOUT
  5
6AC
102
{ACAD_REACTORS
330
1A
102
}
100
AcDbPlotSettings
  1

  2
none_device
  4
ISO_A4_(297.00_x_210.00_MM)
  6

 40
0.0
 41
0.0
 42
0.0
 43
0.0
 44
297.0
 45
210.0
 46
0.0
 47
0.0
 48
0.0
 49
0.0
140
0.0
141
0.0
142
1.0
143
1.0
 70
1024
 72
1
 73
0
 74
0
  7

 75
0
147
1.0
148
0.0
149
0.0
100
AcDbLayout
  1
Model
 70
0
 71
0
 10
0.0
 20
0.0
 11
297.0
 21
210.0
 12
0.0
 22
0.0
 32
0.0
 14
0.0
 24
0.0
 34
0.0
 15
0.0
 25
0.0
 35
0.0
146
0.0
 13
0.0
 23
0.0
 33
0.0
 16
1.0
 26
0.0
 36
0.0
 17
0.0
 27
1.0
 37
0.0
 76
0
330
213
345
0
346
0
  0
LAYOUT
  5
6AD
102
{ACAD_REACTORS
330
1A
102
}
100
AcDbPlotSettings
  1

  2
none_device
  4
ISO_A4_(297.00_x_210.00_MM)
  6

 40
0.0
 41
0.0
 42
0.0
 43
0.0
 44
297.0
 45
210.0
 46
0.0
 47
0.0
 48
0.0
 49
0.0
140
0.0
141
0.0
142
1.0
143
1.0
 70
0
 72
1
 73
0
 74
0
  7

 75
0
147
1.0
148
0.0
149
0.0
100
AcDbLayout
  1
Layout1
 70
0
 71
1
 10
0.0
 20
0.0
 11
297.0
 21
210.0
 12
0.0
 22
0.0
 32
0.0
 14
0.0
 24
0.0
 34
0.0
 15
0.0
 25
0.0
 35
0.0
146
0.0
 13
0.0
 23
0.0
 33
0.0
 16
1.0
 26
0.0
 36
0.0
 17
0.0
 27
1.0
 37
0.0
 76
0
330
214
345
0
346
0
  0
ENDSEC
  0
EOF
