  0
SECTION
  2
HEADER
  9
$ACADVER
  1
AC1024
  9
$DWGCODEPAGE
  3
ANSI_1252
  9
$EXTMAX
 10
558.8
 20
431.8
 30
0.0
  9
$EXTMIN
 10
0.0
 20
0.0
 30
0.0
  9
$LIMMIN
 10
0.0
 20
0.0
  9
$LIMMAX
 10
558.8
 20
431.8
  9
$VIEWCTR
 10
279.4
 20
215.9
  9
$VIEWSIZE
 40
431.8
  9
$CLAYER
  8
0
  9
$LTSCALE
 40
30.734
  9
$CELTYPE
  6
BYLAYER
  9
$DIMSCALE
 40
1.0
  9
$DIMASZ
 40
3.0
  9
$DIMEXO
 40
0.5
  9
$DIMDLI
 40
21.2344
  9
$DIMEXE
 40
1.5
  9
$DIMCEN
 40
5.0292
  9
$DIMLFAC
 40
1.0
  9
$DIMBLK
  1
_FILLED
  9
$DIMALT
 70
0
  9
$DIMALTF
 40
0.0393700787
  9
$DIMTXT
 40
3.0
  9
$DIMTOL
 70
1
  9
$DIMLIM
 70
0
  9
$DIMTFAC
 40
1.0
  9
$DIMTP
 40
0.01
  9
$DIMTM
 40
0.01
  9
$DIMGAP
 40
0.625
  9
$DIMDSEP
 70
44
  9
$AUNITS
 70
0
  9
$PDMODE
 70
3
  9
$PDSIZE
 40
3.0
  9
$HANDSEED
  5
32C
  9
$TILEMODE
 70
1
  9
$MEASUREMENT
 70
1
  9
$INSUNITS
 70
4
  0
ENDSEC
  0
SECTION
  2
CLASSES
  0
CLASS
  1
ACDBDICTIONARYWDFLT
  2
AcDbDictionaryWithDefault
  3
AutoCAD 2000
 90
0
 91
1
280
0
281
0
  0
CLASS
  1
ACDBPLACEHOLDER
  2
AcDbPlaceHolder
  3
AutoCAD 2000
 90
0
 91
1
280
0
281
0
  0
CLASS
  1
LAYOUT
  2
AcDbLayout
  3
AutoCAD 2000
 90
0
 91
0
280
0
281
0
  0
ENDSEC
  0
SECTION
  2
TABLES
  0
TABLE
  2
VPORT
  5
8
100
AcDbSymbolTable
 70
2
  0
VPORT
  5
1F4
100
AcDbSymbolTableRecord
100
AcDbViewportTableRecord
  2
*ACTIVE
 70
0
 10
0.0
 20
0.0
 11
1.0
 21
1.0
 12
279.4
 22
215.9
 13
0.0
 23
0.0
 14
1.0
 24
1.0
 15
0.0
 25
0.0
 16
0.0
 26
0.0
 36
1.0
 17
0.0
 27
0.0
 37
0.0
 40
431.8
 41
1.2941176471
 42
50.0
 43
0.0
 44
0.0
 50
0.0
 51
0.0
 71
0
 72
100
 73
1
 74
1
 75
0
 76
0
 77
0
 78
0
  0
ENDTAB
  0
TABLE
  2
LTYPE
  5
5
100
AcDbSymbolTable
 70
6
  0
LTYPE
  5
14
100
AcDbSymbolTableRecord
100
AcDbLinetypeTableRecord
  2
BYBLOCK
 70
0
  3

 72
65
 73
0
 40
0.0
  0
LTYPE
  5
15
100
AcDbSymbolTableRecord
100
AcDbLinetypeTableRecord
  2
BYLAYER
 70
0
  3

 72
65
 73
0
 40
0.0
  0
LTYPE
  5
16
100
AcDbSymbolTableRecord
100
AcDbLinetypeTableRecord
  2
CONTINUOUS
 70
64
  3
Solid line
 72
65
 73
0
 40
0.0
  0
LTYPE
  5
1F5
100
AcDbSymbolTableRecord
100
AcDbLinetypeTableRecord
  2
CENTER
 70
64
  3
____ _ ____ _ ____ _ ____ _ ____ _ ____ _ ____
 72
65
 73
4
 40
0.6
 49
0.375
 74
0
 49
-0.075
 74
0
 49
0.075
 74
0
 49
-0.075
 74
0
  0
LTYPE
  5
1F6
100
AcDbSymbolTableRecord
100
AcDbLinetypeTableRecord
  2
HIDDEN
 70
64
  3
- - - - - - - - - - - - - - - - - - - -
 72
65
 73
2
 40
0.2
 49
0.1
 74
0
 49
-0.1
 74
0
  0
LTYPE
  5
1F7
100
AcDbSymbolTableRecord
100
AcDbLinetypeTableRecord
  2
PHANTOM
 70
64
  3
_____ _ _ _____ _ _ _____ _ _ _____
 72
65
 73
6
 40
0.8
 49
0.45
 74
0
 49
-0.05
 74
0
 49
0.1
 74
0
 49
-0.05
 74
0
 49
0.1
 74
0
 49
-0.05
 74
0
  0
LTYPE
  5
1F8
100
AcDbSymbolTableRecord
100
AcDbLinetypeTableRecord
  2
DOT
 70
64
  3
. . . . . . . . . . . . . . . . . . . .
 72
65
 73
2
 40
0.2
 49
0.1
 74
0
 49
-0.1
 74
0
  0
LTYPE
  5
1F9
100
AcDbSymbolTableRecord
100
AcDbLinetypeTableRecord
  2
DASHED
 70
64
  3
- - - - - - - - - - - - - - - - - - - -
 72
65
 73
2
 40
0.2
 49
0.1
 74
0
 49
-0.1
 74
0
  0
ENDTAB
  0
TABLE
  2
LAYER
  5
2
100
AcDbSymbolTable
 70
36
  0
LAYER
  5
10
100
AcDbSymbolTableRecord
100
AcDbLayerTableRecord
  2
0
 70
0
 62
7
  6
CONTINUOUS
370
-3
390
F
  0
LAYER
  5
1FA
100
AcDbSymbolTableRecord
100
AcDbLayerTableRecord
  2
DEFAULT_1
 70
0
 62
7
  6
CENTER
370
-3
390
F
  0
LAYER
  5
1FB
100
AcDbSymbolTableRecord
100
AcDbLayerTableRecord
  2
DEFAULT_2
 70
0
 62
7
  6
HIDDEN
370
-3
390
F
  0
LAYER
  5
1FC
100
AcDbSymbolTableRecord
100
AcDbLayerTableRecord
  2
DEFAULT_3
 70
0
 62
7
  6
PHANTOM
370
-3
390
F
  0
LAYER
  5
1FD
100
AcDbSymbolTableRecord
100
AcDbLayerTableRecord
  2
ASSI
 70
0
 62
7
  6
CONTINUOUS
370
-3
390
F
  0
LAYER
  5
1FE
100
AcDbSymbolTableRecord
100
AcDbLayerTableRecord
  2
COLOR5
 70
0
 62
7
  6
CONTINUOUS
370
-3
390
F
  0
LAYER
  5
1FF
100
AcDbSymbolTableRecord
100
AcDbLayerTableRecord
  2
COORDINATE
 70
0
 62
7
  6
CONTINUOUS
370
-3
390
F
  0
LAYER
  5
200
100
AcDbSymbolTableRecord
100
AcDbLayerTableRecord
  2
COORD_ORIGINE
 70
0
 62
7
  6
CONTINUOUS
370
-3
390
F
  0
LAYER
  5
201
100
AcDbSymbolTableRecord
100
AcDbLayerTableRecord
  2
COPY_PUBLISH
 70
0
 62
7
  6
CONTINUOUS
370
-3
390
F
  0
LAYER
  5
202
100
AcDbSymbolTableRecord
100
AcDbLayerTableRecord
  2
COSMETICI
 70
0
 62
7
  6
CONTINUOUS
370
-3
390
F
  0
LAYER
  5
203
100
AcDbSymbolTableRecord
100
AcDbLayerTableRecord
  2
CURVE
 70
0
 62
7
  6
CONTINUOUS
370
-3
390
F
  0
LAYER
  5
204
100
AcDbSymbolTableRecord
100
AcDbLayerTableRecord
  2
DRAFT
 70
0
 62
7
  6
CONTINUOUS
370
-3
390
F
  0
LAYER
  5
205
100
AcDbSymbolTableRecord
100
AcDbLayerTableRecord
  2
IMPORT_IGES
 70
0
 62
7
  6
CONTINUOUS
370
-3
390
F
  0
LAYER
  5
206
100
AcDbSymbolTableRecord
100
AcDbLayerTableRecord
  2
NOTE
 70
0
 62
7
  6
CONTINUOUS
370
-3
390
F
  0
LAYER
  5
207
100
AcDbSymbolTableRecord
100
AcDbLayerTableRecord
  2
PIANI
 70
0
 62
7
  6
CONTINUOUS
370
-3
390
F
  0
LAYER
  5
208
100
AcDbSymbolTableRecord
100
AcDbLayerTableRecord
  2
PIANI_ORIGINE
 70
0
 62
7
  6
CONTINUOUS
370
-3
390
F
  0
LAYER
  5
209
100
AcDbSymbolTableRecord
100
AcDbLayerTableRecord
  2
PUNTI
 70
0
 62
7
  6
CONTINUOUS
370
-3
390
F
  0
LAYER
  5
20A
100
AcDbSymbolTableRecord
100
AcDbLayerTableRecord
  2
RACCORDO
 70
0
 62
7
  6
CONTINUOUS
370
-3
390
F
  0
LAYER
  5
20B
100
AcDbSymbolTableRecord
100
AcDbLayerTableRecord
  2
SIMBOLI
 70
0
 62
7
  6
CONTINUOUS
370
-3
390
F
  0
LAYER
  5
20C
100
AcDbSymbolTableRecord
100
AcDbLayerTableRecord
  2
SMUSSO
 70
0
 62
7
  6
CONTINUOUS
370
-3
390
F
  0
LAYER
  5
20D
100
AcDbSymbolTableRecord
100
AcDbLayerTableRecord
  2
SNAPLINE
 70
0
 62
7
  6
CONTINUOUS
370
-3
390
F
  0
LAYER
  5
20E
100
AcDbSymbolTableRecord
100
AcDbLayerTableRecord
  2
SUPERFICI
 70
0
 62
7
  6
CONTINUOUS
370
-3
390
F
  0
LAYER
  5
20F
100
AcDbSymbolTableRecord
100
AcDbLayerTableRecord
  2
TRASH
 70
0
 62
7
  6
CONTINUOUS
370
-3
390
F
  0
ENDTAB
  0
TABLE
  2
STYLE
  5
3
100
AcDbSymbolTable
 70
1
  0
STYLE
  5
11
100
AcDbSymbolTableRecord
100
AcDbTextStyleTableRecord
  2
STANDARD
 70
0
 40
0.0
 41
0.8
 50
0.0
 71
0
 42
0.2
  3
txt
  4

  0
STYLE
  5
210
100
AcDbSymbolTableRecord
100
AcDbTextStyleTableRecord
  2
TEXTSTYLE_1
 70
0
 40
0.0
 41
0.8
 50
0.0
 71
0
 42
0.2
  3
gdt
  4

  0
ENDTAB
  0
TABLE
  2
VIEW
  5
6
100
AcDbSymbolTable
 70
0
  0
ENDTAB
  0
TABLE
  2
UCS
  5
7
100
AcDbSymbolTable
 70
0
  0
ENDTAB
  0
TABLE
  2
APPID
  5
9
100
AcDbSymbolTable
 70
1
  0
APPID
  5
211
100
AcDbSymbolTableRecord
100
AcDbRegAppTableRecord
  2
ACAD
 70
0
  0
ENDTAB
  0
TABLE
  2
BLOCK_RECORD
  5
1
100
AcDbSymbolTable
 70
0
  0
BLOCK_RECORD
  5
212
100
AcDbSymbolTableRecord
100
AcDbBlockTableRecord
  2
*Model_Space
  0
BLOCK_RECORD
  5
213
100
AcDbSymbolTableRecord
100
AcDbBlockTableRecord
  2
*Paper_Space
  0
BLOCK_RECORD
  5
214
100
AcDbSymbolTableRecord
100
AcDbBlockTableRecord
  2
_FILLED
  0
ENDTAB
  0
TABLE
  2
DIMSTYLE
  5
A
100
AcDbSymbolTable
 70
1
100
AcDbDimStyleTable
 71
0
  0
DIMSTYLE
105
215
100
AcDbSymbolTableRecord
100
AcDbDimStyleTableRecord
  2
STANDARD
 70
0
  3

  4

 40
1.0
 41
3.0
 42
0.5
 43
0.38
 44
1.5
 45
0.0
 46
0.0
 47
0.01
 48
0.01
140
3.0
141
0.09
142
0.0
143
25.4
144
1.0
145
0.0
146
1.0
147
0.625
 71
1
 72
0
 73
0
 74
0
 75
0
 76
0
 77
1
 78
8
 79
2
170
0
171
1
172
0
173
0
174
0
175
0
176
0
177
0
178
0
270
2
179
2
271
2
272
2
273
2
274
2
275
0
280
0
281
0
282
0
283
1
284
8
285
0
286
0
287
3
288
0
340
11
278
44
341
214
342
214
343
214
344
214
  0
ENDTAB
  0
ENDSEC
  0
SECTION
  2
BLOCKS
  0
BLOCK
  5
20
100
AcDbEntity
  8
0
100
AcDbBlockBegin
  2
*Model_Space
 70
0
 10
0.0
 20
0.0
 30
0.0
  3
*Model_Space
  1

  0
ENDBLK
  5
21
100
AcDbEntity
  8
0
100
AcDbBlockEnd
  0
BLOCK
  5
1C
100
AcDbEntity
  8
0
100
AcDbBlockBegin
  2
*Paper_Space
 70
0
 10
0.0
 20
0.0
 30
0.0
  3
*Paper_Space
  1

  0
ENDBLK
  5
1D
100
AcDbEntity
  8
0
100
AcDbBlockEnd
  0
BLOCK
  5
216
100
AcDbEntity
  8
0
100
AcDbBlockBegin
  2
_FILLED
 70
64
 10
0.0
 20
0.0
  3
_FILLED
  1

  0
SOLID
  5
217
100
AcDbEntity
  8
0
  6
BYBLOCK
 62
0
100
AcDbTrace
 10
0.0
 20
0.0
 11
-1.0
 21
0.3166666667
 12
-1.0
 22
-0.3166666667
 13
-1.0
 23
-0.3166666667
  0
ENDBLK
  5
218
100
AcDbEntity
  8
0
  6
BYBLOCK
 62
0
100
AcDbBlockEnd
  0
ENDSEC
  0
SECTION
  2
ENTITIES
  0
LINE
  5
219
100
AcDbEntity
  8
SMUSSO
100
AcDbLine
 62
7
  6
CONTINUOUS
 10
-69.6999923849
 20
47.7
 11
-69.9
 21
47.4999923849
  0
LINE
  5
21A
100
AcDbEntity
  8
SMUSSO
100
AcDbLine
 62
7
  6
CONTINUOUS
 10
-69.9
 20
-47.4999923849
 11
-69.6999923849
 21
-47.7
  0
LINE
  5
21B
100
AcDbEntity
  8
SMUSSO
100
AcDbLine
 62
7
  6
CONTINUOUS
 10
-68.1000228473
 20
35.7
 11
-67.9
 21
35.9000152311
  0
LINE
  5
21C
100
AcDbEntity
  8
SMUSSO
100
AcDbLine
 62
7
  6
CONTINUOUS
 10
-67.8137511205
 20
35.7
 11
-67.6137435054
 21
35.9000152311
  0
LINE
  5
21D
100
AcDbEntity
  8
SMUSSO
100
AcDbLine
 62
7
  6
CONTINUOUS
 10
-67.9
 20
-35.9000152311
 11
-68.1000228473
 21
-35.7
  0
LINE
  5
21E
100
AcDbEntity
  8
SMUSSO
100
AcDbLine
 62
7
  6
CONTINUOUS
 10
-67.6137435054
 20
-35.9000152311
 11
-67.8137511205
 21
-35.7
  0
LINE
  5
21F
100
AcDbEntity
  8
RACCORDO
100
AcDbLine
 62
250
  6
CONTINUOUS
 10
-67.6172767372
 20
45.1162800548
 11
-67.616191797
 21
45.0290721305
  0
LINE
  5
220
100
AcDbEntity
  8
RACCORDO
100
AcDbLine
 62
250
  6
CONTINUOUS
 10
-67.4169072674
 20
45.2572287527
 11
-67.4152818994
 21
45.0457032313
  0
LINE
  5
221
100
AcDbEntity
  8
RACCORDO
100
AcDbLine
 62
250
  6
CONTINUOUS
 10
-67.616191797
 20
45.0290721305
 11
-67.6147659721
 21
44.8375560374
  0
LINE
  5
222
100
AcDbEntity
  8
RACCORDO
100
AcDbLine
 62
250
  6
CONTINUOUS
 10
-67.4152818994
 20
45.0457032313
 11
-67.4140276288
 21
44.6994645729
  0
LINE
  5
223
100
AcDbEntity
  8
RACCORDO
100
AcDbLine
 62
250
  6
CONTINUOUS
 10
-67.6147659721
 20
44.8375560374
 11
-67.61381707
 21
44.5350172444
  0
LINE
  5
224
100
AcDbEntity
  8
RACCORDO
100
AcDbLine
 62
250
  6
CONTINUOUS
 10
-67.61381707
 20
44.5350172444
 11
-67.6137435054
 21
44.4207021523
  0
LINE
  5
225
100
AcDbEntity
  8
RACCORDO
100
AcDbLine
 62
250
  6
CONTINUOUS
 10
-67.4140276288
 20
44.6994645729
 11
-67.413751121
 21
44.4207021523
  0
LINE
  5
226
100
AcDbEntity
  8
SMUSSO
100
AcDbLine
 62
7
  6
CONTINUOUS
 10
-69.9
 20
47.4999923849
 11
-69.9
 21
35.7
  0
LINE
  5
227
100
AcDbEntity
  8
SMUSSO
100
AcDbLine
 62
7
  6
CONTINUOUS
 10
-69.9
 20
-35.7
 11
-69.9
 21
-47.4999923849
  0
LINE
  5
228
100
AcDbEntity
  8
SMUSSO
100
AcDbLine
 62
7
  6
CONTINUOUS
 10
-69.6120133629
 20
-25.4879942522
 11
-69.6120133629
 21
-35.7
  0
LINE
  5
229
100
AcDbEntity
  8
SMUSSO
100
AcDbLine
 62
7
  6
CONTINUOUS
 10
-69.6120133629
 20
25.4879942522
 11
-69.6120133629
 21
35.7
  0
LINE
  5
22A
100
AcDbEntity
  8
SMUSSO
100
AcDbLine
 62
7
  6
CONTINUOUS
 10
-67.9
 20
45.5000076154
 11
-67.9
 21
35.9000152311
  0
LINE
  5
22B
100
AcDbEntity
  8
SMUSSO
100
AcDbLine
 62
7
  6
CONTINUOUS
 10
-67.9
 20
-35.9000152311
 11
-67.9
 21
-45.5000076154
  0
LINE
  5
22C
100
AcDbEntity
  8
SMUSSO
100
AcDbLine
 62
7
  6
CONTINUOUS
 10
-67.6137435054
 20
44.4207021523
 11
-67.6137435054
 21
35.9000152311
  0
LINE
  5
22D
100
AcDbEntity
  8
SMUSSO
100
AcDbLine
 62
7
  6
CONTINUOUS
 10
-67.6137435054
 20
-44.4207021523
 11
-67.6137435054
 21
-35.9000152311
  0
LINE
  5
22E
100
AcDbEntity
  8
SMUSSO
100
AcDbLine
 62
250
  6
CONTINUOUS
 10
-67.4137511208
 20
44.4207021523
 11
-67.4137511208
 21
35.9000152311
  0
LINE
  5
22F
100
AcDbEntity
  8
SMUSSO
100
AcDbLine
 62
250
  6
CONTINUOUS
 10
-67.4137511208
 20
-44.4207021523
 11
-67.4137511208
 21
-35.9000152311
  0
LINE
  5
230
100
AcDbEntity
  8
RACCORDO
100
AcDbLine
 62
250
  6
CONTINUOUS
 10
-67.6144619853
 20
-44.7741440571
 11
-67.6137435054
 21
-44.4207021523
  0
LINE
  5
231
100
AcDbEntity
  8
RACCORDO
100
AcDbLine
 62
250
  6
CONTINUOUS
 10
-67.4149232124
 20
-44.9753055009
 11
-67.4137511208
 21
-44.4207021523
  0
LINE
  5
232
100
AcDbEntity
  8
RACCORDO
100
AcDbLine
 62
250
  6
CONTINUOUS
 10
-67.6157744552
 20
-44.9847923088
 11
-67.6144619853
 21
-44.7741440571
  0
LWPOLYLINE
  5
233
100
AcDbEntity
  8
RACCORDO
100
AcDbPolyline
 62
250
  6
CONTINUOUS
 90
3
 70
0
 10
-67.4168281677
 20
-45.2496970286
 10
-67.4164615891
 20
-45.2116744635
 10
-67.4149232124
 20
-44.9753055009
  0
LWPOLYLINE
  5
234
100
AcDbEntity
  8
RACCORDO
100
AcDbPolyline
 62
250
  6
CONTINUOUS
 90
3
 70
0
 10
-67.6172037864
 20
-45.1114690765
 10
-67.6168205557
 20
-45.0838980534
 10
-67.6157744552
 20
-44.9847923088
  0
LWPOLYLINE
  5
235
100
AcDbEntity
  8
RACCORDO
100
AcDbPolyline
 62
250
  6
CONTINUOUS
 90
16
 70
0
 10
-67.6206640754
 20
45.2206716908
 10
-67.6195670617
 20
45.2415750898
 10
-67.6162912049
 20
45.2622495793
 10
-67.610872366
 20
45.2824686719
 10
-67.6033698814
 20
45.3020108678
 10
-67.5938659169
 20
45.3206620721
 10
-67.5824645714
 20
45.3382179418
 10
-67.5692907269
 20
45.3544861409
 10
-67.5544886882
 20
45.3692884332
 10
-67.5382206126
 20
45.3824626309
 10
-67.5206647086
 20
45.3938643946
 10
-67.5020132988
 20
45.4033687989
 10
-67.4824707297
 20
45.4108716973
 10
-67.4622511018
 20
45.4162908812
 10
-67.4415759205
 20
45.4195669744
 10
-67.4206716908
 20
45.4206640754
  0
LWPOLYLINE
  5
236
100
AcDbEntity
  8
SMUSSO
100
AcDbPolyline
 62
7
  6
CONTINUOUS
 90
6
 70
0
 10
-67.6342799635
 20
35.8023671939
 10
-67.6580760724
 20
35.7842740146
 10
-67.6825381988
 20
35.7649831531
 10
-67.707752405
 20
35.7445197842
 10
-67.7336326286
 20
35.7228587332
 10
-67.7601788695
 20
35.7
  0
LWPOLYLINE
  5
237
100
AcDbEntity
  8
SMUSSO
100
AcDbPolyline
 62
7
  6
CONTINUOUS
 90
4
 70
0
 10
-67.6353876276
 20
-35.8015487991
 10
-67.6120085387
 20
-35.8184020145
 10
-67.5889560053
 20
-35.8341135574
 10
-67.5662550668
 20
-35.8485960757
  0
LWPOLYLINE
  5
238
100
AcDbEntity
  8
SMUSSO
100
AcDbPolyline
 62
7
  6
CONTINUOUS
 90
6
 70
0
 10
-67.7601788695
 20
-35.7
 10
-67.7340089468
 20
-35.7225442653
 10
-67.7084289711
 20
-35.7439642921
 10
-67.6834389424
 20
-35.7642600805
 10
-67.6591183115
 20
-35.783466559
 10
-67.6353876276
 20
-35.8015487991
  0
LWPOLYLINE
  5
239
100
AcDbEntity
  8
RACCORDO
100
AcDbPolyline
 62
250
  6
CONTINUOUS
 90
3
 70
0
 10
-67.6184827095
 20
45.1783387022
 10
-67.6176690955
 20
45.1399583443
 10
-67.6172767372
 20
45.1162800548
  0
LINE
  5
23A
100
AcDbEntity
  8
RACCORDO
100
AcDbLine
 62
250
  6
CONTINUOUS
 10
-67.4184903259
 20
45.3677501538
 11
-67.4176767205
 21
45.319771335
  0
LINE
  5
23B
100
AcDbEntity
  8
RACCORDO
100
AcDbLine
 62
250
  6
CONTINUOUS
 10
-67.4176767205
 20
45.319771335
 11
-67.4169072674
 21
45.2572287527
  0
LINE
  5
23C
100
AcDbEntity
  8
RACCORDO
100
AcDbLine
 62
250
  6
CONTINUOUS
 10
-67.4180220181
 20
-45.3422536525
 11
-67.4168281677
 21
-45.2496970286
  0
LINE
  5
23D
100
AcDbEntity
  8
0
100
AcDbLine
 62
7
  6
CONTINUOUS
 10
-54.7376861756
 20
31.3040287641
 11
-54.4780814214
 21
31.6191810106
  0
LWPOLYLINE
  5
23E
100
AcDbEntity
  8
SMUSSO
100
AcDbPolyline
 62
7
  6
CONTINUOUS
 90
4
 70
0
 10
-67.5652979148
 20
35.8491731948
 10
-67.5878908847
 20
35.834816784
 10
-67.6108916844
 20
35.8191871665
 10
-67.6342799635
 20
35.8023671939
  0
LWPOLYLINE
  5
23F
100
AcDbEntity
  8
SMUSSO
100
AcDbPolyline
 62
7
  6
CONTINUOUS
 90
8
 70
0
 10
-67.5662550668
 20
-35.8485960757
 10
-67.5437424901
 20
-35.8614827258
 10
-67.5213099762
 20
-35.8728193925
 10
-67.499065824
 20
-35.882560191
 10
-67.4771716961
 20
-35.8902006239
 10
-67.45568148
 20
-35.8955725253
 10
-67.4345412882
 20
-35.898844061
 10
-67.4137511208
 20
-35.9000152311
  0
LWPOLYLINE
  5
240
100
AcDbEntity
  8
0
100
AcDbPolyline
 62
7
  6
CONTINUOUS
 90
37
 70
0
 10
-56.2968802431
 20
-30.5
 10
-56.2991342122
 20
-30.4427355778
 10
-56.2977175929
 20
-30.3851567655
 10
-56.2925977301
 20
-30.3274995328
 10
-56.2837387949
 20
-30.2699044655
 10
-56.2711444065
 20
-30.2127128296
 10
-56.2549215632
 20
-30.1564561041
 10
-56.2352168648
 20
-30.1015156999
 10
-56.2120889741
 20
-30.0479496617
 10
-56.1855564954
 20
-29.9957958218
 10
-56.1557024653
 20
-29.9452557602
 10
-56.1226386264
 20
-29.8965525177
 10
-56.0863882232
 20
-29.8497729946
 10
-56.0470555302
 20
-29.8051238231
 10
-56.0047664366
 20
-29.7628149569
 10
-55.9595547445
 20
-29.7229601334
 10
-55.9114190956
 20
-29.6856717492
 10
-55.8606288714
 20
-29.6512673281
 10
-55.8076710142
 20
-29.620120153
 10
-55.7528071929
 20
-29.5923797034
 10
-55.6962169067
 20
-29.5681321036
 10
-55.6383356875
 20
-29.5475419675
 10
-55.5796218547
 20
-29.5307070097
 10
-55.5201169794
 20
-29.5175747558
 10
-55.4596259568
 20
-29.5081007234
 10
-55.3983222816
 20
-29.5023564246
 10
-55.3364873394
 20
-29.5004123877
 10
-55.2740687225
 20
-29.5023332331
 10
-55.2111142437
 20
-29.5082296569
 10
-55.1480714285
 20
-29.5181737814
 10
-55.0854919267
 20
-29.5321476384
 10
-55.0236000456
 20
-29.5501461206
 10
-54.9626901432
 20
-29.5721294902
 10
-54.9033918059
 20
-29.5978724306
 10
-54.8460500475
 20
-29.627170465
 10
-54.7907488531
 20
-29.6599239106
 10
-54.7376861756
 20
-29.6959712359
  0
LWPOLYLINE
  5
241
100
AcDbEntity
  8
RACCORDO
100
AcDbPolyline
 62
250
  6
CONTINUOUS
 90
6
 70
0
 10
-67.4206716908
 20
-45.4206640754
 10
-67.4202138496
 20
-45.417970984
 10
-67.4197625
 20
-45.4110511088
 10
-67.4193176421
 20
-45.3999489752
 10
-67.4188776703
 20
-45.3847344569
 10
-67.4180220181
 20
-45.3422536525
  0
LWPOLYLINE
  5
242
100
AcDbEntity
  8
RACCORDO
100
AcDbPolyline
 62
250
  6
CONTINUOUS
 90
8
 70
0
 10
-67.6206640754
 20
-45.2206716908
 10
-67.6202062489
 20
-45.2184347949
 10
-67.6197549075
 20
-45.2129107682
 10
-67.619310051
 20
-45.2040996106
 10
-67.61887007
 20
-45.1919385393
 10
-67.6184365739
 20
-45.1764903371
 10
-67.6180143916
 20
-45.1579433525
 10
-67.6172037864
 20
-45.1114690765
  0
LWPOLYLINE
  5
243
100
AcDbEntity
  8
0
100
AcDbPolyline
 62
7
  6
CONTINUOUS
 90
3
 70
0
 10
-56.1743809014
 20
-31.7259013906
 10
-56.0958778334
 20
-31.7721061438
 10
-56.0146284508
 20
-31.8132904734
  0
LINE
  5
244
100
AcDbEntity
  8
0
100
AcDbLine
 62
7
  6
CONTINUOUS
 10
-56.0550991322
 20
-31.1436746235
 11
-56.0095562258
 21
-31.173230997
  0
LINE
  5
245
100
AcDbEntity
  8
0
100
AcDbLine
 62
7
  6
CONTINUOUS
 10
-56.0992452147
 20
-31.1110729632
 11
-56.0550991322
 21
-31.1436746235
  0
LINE
  5
246
100
AcDbEntity
  8
0
100
AcDbLine
 62
7
  6
CONTINUOUS
 10
-54.4780795707
 20
-29.3808205139
 11
-54.5501726026
 21
-29.3251411172
  0
LINE
  5
247
100
AcDbEntity
  8
0
100
AcDbLine
 62
7
  6
CONTINUOUS
 10
-56.1417928909
 20
-31.0754897943
 11
-56.0992452147
 21
-31.1110729632
  0
LINE
  5
248
100
AcDbEntity
  8
0
100
AcDbLine
 62
7
  6
CONTINUOUS
 10
-56.1825433504
 20
-31.0370021206
 11
-56.1417928909
 21
-31.0754897943
  0
LWPOLYLINE
  5
249
100
AcDbEntity
  8
RACCORDO
100
AcDbPolyline
 62
250
  6
CONTINUOUS
 90
6
 70
0
 10
-67.6206640754
 20
45.2206716908
 10
-67.6202126354
 20
45.2184318396
 10
-67.6197689282
 20
45.2130873394
 10
-67.6193329537
 20
45.2046381901
 10
-67.6189039653
 20
45.1930407707
 10
-67.6184827095
 20
45.1783387022
  0
LWPOLYLINE
  5
24A
100
AcDbEntity
  8
RACCORDO
100
AcDbPolyline
 62
250
  6
CONTINUOUS
 90
6
 70
0
 10
-67.4206716908
 20
45.4206640754
 10
-67.420220236
 20
45.4180353955
 10
-67.4197765207
 20
45.4113254449
 10
-67.4193405448
 20
45.4006221996
 10
-67.4189115656
 20
45.3860644467
 10
-67.4184903259
 20
45.3677501538
  0
LWPOLYLINE
  5
24B
100
AcDbEntity
  8
0
100
AcDbPolyline
 62
7
  6
CONTINUOUS
 90
37
 70
0
 10
-56.2968802431
 20
30.5
 10
-56.2991342122
 20
30.5572644222
 10
-56.2977175929
 20
30.6148432345
 10
-56.2925977301
 20
30.6725004672
 10
-56.2837387949
 20
30.7300955345
 10
-56.2711444065
 20
30.7872871704
 10
-56.2549215632
 20
30.8435438959
 10
-56.2352168648
 20
30.8984843001
 10
-56.2120889741
 20
30.9520503383
 10
-56.1855564954
 20
31.0042041782
 10
-56.1557024653
 20
31.0547442398
 10
-56.1226386264
 20
31.1034474823
 10
-56.0863882232
 20
31.1502270054
 10
-56.0470555302
 20
31.1948761769
 10
-56.0047664366
 20
31.2371850431
 10
-55.9595547445
 20
31.2770398666
 10
-55.9114190956
 20
31.3143282508
 10
-55.8606288714
 20
31.3487326719
 10
-55.8076710142
 20
31.379879847
 10
-55.7528071929
 20
31.4076202966
 10
-55.6962169067
 20
31.4318678964
 10
-55.6383356875
 20
31.4524580325
 10
-55.5796218547
 20
31.4692929903
 10
-55.5201169794
 20
31.4824252442
 10
-55.4596259568
 20
31.4918992766
 10
-55.3983222816
 20
31.4976435754
 10
-55.3364873394
 20
31.4995876123
 10
-55.2740687225
 20
31.4976667669
 10
-55.2111142437
 20
31.4917703431
 10
-55.1480714285
 20
31.4818262186
 10
-55.0854919267
 20
31.4678523616
 10
-55.0236000456
 20
31.4498538794
 10
-54.9626901432
 20
31.4278705098
 10
-54.9033918059
 20
31.4021275694
 10
-54.8460500475
 20
31.372829535
 10
-54.7907488531
 20
31.3400760894
 10
-54.7376861756
 20
31.3040287641
  0
LWPOLYLINE
  5
24C
100
AcDbEntity
  8
0
100
AcDbPolyline
 62
7
  6
CONTINUOUS
 90
47
 70
0
 10
-56.0146284508
 20
-31.8132904734
 10
-55.930953408
 20
-31.8492918434
 10
-55.845182932
 20
-31.8799681725
 10
-55.7576555199
 20
-31.9051983949
 10
-55.6687166025
 20
-31.9248829382
 10
-55.5787171812
 20
-31.9389441161
 10
-55.4880124429
 20
-31.9473264352
 10
-55.3969603577
 20
-31.949996814
 10
-55.3059202671
 20
-31.9469447135
 10
-55.2152514649
 20
-31.9381821786
 10
-55.1253117797
 20
-31.9237437907
 10
-55.0364561628
 20
-31.9036865314
 10
-54.949035287
 20
-31.8780895572
 10
-54.8633941631
 20
-31.8470538875
 10
-54.7798707777
 20
-31.8107020056
 10
-54.69879476
 20
-31.7691773758
 10
-54.6204860804
 20
-31.7226438767
 10
-54.545253788
 20
-31.6712851545
 10
-54.4733947909
 20
-31.6153038987
 10
-54.4051926841
 20
-31.5549210417
 10
-54.3409166307
 20
-31.4903748871
 10
-54.2808202996
 20
-31.4219201691
 10
-54.2251408639
 20
-31.3498270473
 10
-54.1740980655
 20
-31.2743800405
 10
-54.1278933477
 20
-31.1958769037
 10
-54.0867090598
 20
-31.1146274533
 10
-54.0507077379
 20
-31.0309523439
 10
-54.0200314634
 20
-30.9451818034
 10
-53.994801302
 20
-30.8576543292
 10
-53.9751168261
 20
-30.7687153527
 10
-53.9610557218
 20
-30.6787158759
 10
-53.9526734823
 20
-30.5880110861
 10
-53.950003189
 20
-30.4969589542
 10
-53.9530553805
 20
-30.405918822
 10
-53.9618180117
 20
-30.315249984
 10
-53.9762565007
 20
-30.2253102692
 10
-53.9963138658
 20
-30.1364546294
 10
-54.0219109498
 20
-30.0490337378
 10
-54.052946733
 20
-29.9633926056
 10
-54.0892987313
 20
-29.87986922
 10
-54.1308234803
 20
-29.7987932104
 10
-54.1773571006
 20
-29.7204845476
 10
-54.2287159453
 20
-29.645252281
 10
-54.2846973243
 20
-29.5733933188
 10
-54.3450803047
 20
-29.5051912564
 10
-54.409626582
 20
-29.4409152569
 10
-54.4780814214
 20
-29.3808189894
  0
LWPOLYLINE
  5
24D
100
AcDbEntity
  8
0
100
AcDbPolyline
 62
7
  6
CONTINUOUS
 90
50
 70
0
 10
-54.7041225477
 20
-29.2278936478
 10
-54.7853718914
 20
-29.1867093665
 10
-54.8690468904
 20
-29.1507080392
 10
-54.9548173181
 20
-29.1200317468
 10
-55.0423446779
 20
-29.0948015547
 10
-55.1312835398
 20
-29.075117035
 10
-55.2212829029
 20
-29.0610558735
 10
-55.3119875811
 20
-29.0526735634
 10
-55.4030396048
 20
-29.0500031859
 10
-55.4940796334
 20
-29.0530552801
 10
-55.5847483738
 20
-29.0618178007
 10
-55.674687998
 20
-29.0762561664
 10
-55.7635435557
 20
-29.0963133957
 10
-55.8509643748
 20
-29.1219103321
 10
-55.9366054452
 20
-29.1529459565
 10
-56.020128781
 20
-29.1892977856
 10
-56.1012047539
 20
-29.2308223556
 10
-56.1795133939
 20
-29.2773557882
 10
-56.2547456529
 20
-29.3287144375
 10
-56.3266046234
 20
-29.3846956146
 10
-56.3948067108
 20
-29.4450783877
 10
-56.4590827528
 20
-29.5096244537
 10
-56.5191790811
 20
-29.5780790791
 10
-56.5748585228
 20
-29.6501721049
 10
-56.6259013366
 20
-29.7256190131
 10
-56.6721060797
 20
-29.8041220495
 10
-56.7132904029
 20
-29.8853713986
 10
-56.7492917704
 20
-29.9690464065
 10
-56.779968101
 20
-30.0548168464
 10
-56.8051983292
 20
-30.1423442217
 10
-56.8248828824
 20
-30.2312831019
 10
-56.8389440747
 20
-30.321282486
 10
-56.8473264127
 20
-30.4119871877
 10
-56.8499968148
 20
-30.5030392369
 10
-56.8469447421
 20
-30.5940792928
 10
-56.8381822393
 20
-30.684748062
 10
-56.823743888
 20
-30.7746877163
 10
-56.8036866693
 20
-30.8635433048
 10
-56.7780897398
 20
-30.950964155
 10
-56.7470541186
 20
-31.0366052568
 10
-56.7107022889
 20
-31.1201286237
 10
-56.6691777145
 20
-31.201204627
 10
-56.6226442738
 20
-31.2795132966
 10
-56.5712856129
 20
-31.3547455838
 10
-56.5153044207
 20
-31.4266045808
 10
-56.4549216293
 20
-31.4948066928
 10
-56.3903755418
 20
-31.559082757
 10
-56.321920892
 20
-31.6191791049
 10
-56.2498278391
 20
-31.6748585633
 10
-56.1743809014
 20
-31.7259013906
  0
LWPOLYLINE
  5
24E
100
AcDbEntity
  8
0
100
AcDbPolyline
 62
7
  6
CONTINUOUS
 90
49
 70
0
 10
-54.5509965035
 20
-29.3371797044
 10
-54.6258419799
 20
-29.2982078668
 10
-54.702323296
 20
-29.2639788834
 10
-54.7801437407
 20
-29.2345497908
 10
-54.85900558
 20
-29.2099592644
 10
-54.9386111829
 20
-29.1902276965
 10
-55.0186641339
 20
-29.1753573432
 10
-55.0988703292
 20
-29.1653325384
 10
-55.1789390511
 20
-29.1601199728
 10
-55.2585840186
 20
-29.1596690384
 10
-55.3375244082
 20
-29.1639122332
 10
-55.4154858432
 20
-29.1727656273
 10
-55.4922013469
 20
-29.1861293854
 10
-55.5674122573
 20
-29.2038883449
 10
-55.6408690985
 20
-29.2259126452
 10
-55.7123324078
 20
-29.2520584074
 10
-55.7815735149
 20
-29.2821684588
 10
-55.8483752702
 20
-29.3160731006
 10
-55.9125327208
 20
-29.3535909152
 10
-55.9738537318
 20
-29.3945296092
 10
-56.03215955
 20
-29.438686888
 10
-56.0872853109
 20
-29.4858513593
 10
-56.1390804843
 20
-29.5358034617
 10
-56.1874092608
 20
-29.588316413
 10
-56.2321508753
 20
-29.6431571761
 10
-56.2731998688
 20
-29.7000874375
 10
-56.3104662879
 20
-29.7588645947
 10
-56.3438758205
 20
-29.819242749
 10
-56.3733698698
 20
-29.8809736984
 10
-56.3989055654
 20
-29.9438079286
 10
-56.4204557129
 20
-30.0074955966
 10
-56.4380086826
 20
-30.0717875039
 10
-56.4515682384
 20
-30.1364360555
 10
-56.461153308
 20
-30.2011962007
 10
-56.4667976965
 20
-30.2658263526
 10
-56.4685497445
 20
-30.3300892825
 10
-56.4664719329
 20
-30.3937529866
 10
-56.4606404365
 20
-30.4565915206
 10
-56.451144629
 20
-30.5183858006
 10
-56.4380865413
 20
-30.5789243663
 10
-56.4215802763
 20
-30.6380041047
 10
-56.4017513828
 20
-30.6954309317
 10
-56.3787361911
 20
-30.751020428
 10
-56.3526811142
 20
-30.8045984302
 10
-56.3237419171
 20
-30.8560015712
 10
-56.2920829572
 20
-30.905077772
 10
-56.2578764007
 20
-30.951686681
 10
-56.221301416
 20
-30.9957000608
 10
-56.1825433504
 20
-31.0370021206
  0
LWPOLYLINE
  5
24F
100
AcDbEntity
  8
0
100
AcDbPolyline
 62
7
  6
CONTINUOUS
 90
11
 70
0
 10
-56.0095562258
 20
-31.173230997
 10
-55.962819989
 20
-31.1996915882
 10
-55.9150949676
 20
-31.2230191842
 10
-55.8665859088
 20
-31.2431898012
 10
-55.8174969194
 20
-31.2601925772
 10
-55.7680306387
 20
-31.2740296114
 10
-55.7183874266
 20
-31.2847157523
 10
-55.6687645727
 20
-31.2922783358
 10
-55.6193555285
 20
-31.2967568748
 10
-55.5703491643
 20
-31.2982027016
 10
-55.5219290567
 20
-31.2966785662
  0
LINE
  5
250
100
AcDbEntity
  8
0
100
AcDbLine
 62
7
  6
CONTINUOUS
 10
-54.4780814214
 20
-29.3808189894
 11
-54.5509965035
 21
-29.3371797044
  0
LWPOLYLINE
  5
251
100
AcDbEntity
  8
0
100
AcDbPolyline
 62
7
  6
CONTINUOUS
 90
10
 70
0
 10
-54.7376861756
 20
-29.6959712359
 10
-54.6995161221
 20
-29.7202439648
 10
-54.6622316905
 20
-29.7463093909
 10
-54.6259165049
 20
-29.7741350485
 10
-54.5906401583
 20
-29.8036958135
 10
-54.5564973403
 20
-29.834941512
 10
-54.5236033752
 20
-29.8677907927
 10
-54.4920431165
 20
-29.9021776374
 10
-54.46187508
 20
-29.9380576572
 10
-54.4331676059
 20
-29.975371444
  0
LWPOLYLINE
  5
252
100
AcDbEntity
  8
0
100
AcDbPolyline
 62
7
  6
CONTINUOUS
 90
3
 70
0
 10
-54.5501726026
 20
-29.3251411172
 10
-54.625619513
 20
-29.2740983476
 10
-54.7041225477
 20
-29.2278936478
  0
LINE
  5
253
100
AcDbEntity
  8
RACCORDO
100
AcDbLine
 62
7
  6
CONTINUOUS
 10
-45.1
 20
46.75
 11
-45.1
 21
45.5708423567
  0
LINE
  5
254
100
AcDbEntity
  8
RACCORDO
100
AcDbLine
 62
7
  6
CONTINUOUS
 10
-45.1
 20
-46.75
 11
-45.1
 21
-45.5708423567
  0
LINE
  5
255
100
AcDbEntity
  8
RACCORDO
100
AcDbLine
 62
250
  6
CONTINUOUS
 10
-44.9
 20
46.95
 11
-44.9
 21
45.5690969831
  0
LINE
  5
256
100
AcDbEntity
  8
RACCORDO
100
AcDbLine
 62
250
  6
CONTINUOUS
 10
-44.9
 20
-45.5690969831
 11
-44.9
 21
-46.95
  0
LINE
  5
257
100
AcDbEntity
  8
SMUSSO
100
AcDbLine
 62
7
  6
CONTINUOUS
 10
-69.6999923849
 20
-47.7
 11
69.6999923849
 21
-47.7
  0
LINE
  5
258
100
AcDbEntity
  8
RACCORDO
100
AcDbLine
 62
7
  6
CONTINUOUS
 10
-44.9
 20
-46.95
 11
-44.0
 21
-46.95
  0
LINE
  5
259
100
AcDbEntity
  8
RACCORDO
100
AcDbLine
 62
7
  6
CONTINUOUS
 10
44.9
 20
-46.95
 11
44.0
 21
-46.95
  0
LINE
  5
25A
100
AcDbEntity
  8
RACCORDO
100
AcDbLine
 62
7
  6
CONTINUOUS
 10
-33.5
 20
-46.95
 11
-32.6
 21
-46.95
  0
LINE
  5
25B
100
AcDbEntity
  8
RACCORDO
100
AcDbLine
 62
7
  6
CONTINUOUS
 10
33.5
 20
-46.95
 11
32.6
 21
-46.95
  0
LINE
  5
25C
100
AcDbEntity
  8
RACCORDO
100
AcDbLine
 62
250
  6
CONTINUOUS
 10
-45.1
 20
-46.75
 11
-43.8
 21
-46.75
  0
LINE
  5
25D
100
AcDbEntity
  8
RACCORDO
100
AcDbLine
 62
250
  6
CONTINUOUS
 10
-33.7
 20
-46.75
 11
-32.4
 21
-46.75
  0
LINE
  5
25E
100
AcDbEntity
  8
RACCORDO
100
AcDbLine
 62
250
  6
CONTINUOUS
 10
32.4
 20
-46.75
 11
33.7
 21
-46.75
  0
LINE
  5
25F
100
AcDbEntity
  8
RACCORDO
100
AcDbLine
 62
250
  6
CONTINUOUS
 10
43.8
 20
-46.75
 11
45.1
 21
-46.75
  0
LINE
  5
260
100
AcDbEntity
  8
0
100
AcDbLine
 62
7
  6
CONTINUOUS
 10
-43.8
 20
-46.7
 11
-33.7
 21
-46.7
  0
LINE
  5
261
100
AcDbEntity
  8
0
100
AcDbLine
 62
7
  6
CONTINUOUS
 10
33.7
 20
-46.7
 11
43.8
 21
-46.7
  0
LINE
  5
262
100
AcDbEntity
  8
RACCORDO
100
AcDbLine
 62
7
  6
CONTINUOUS
 10
-67.7000076154
 20
-45.7
 11
-45.1
 21
-45.7
  0
LINE
  5
263
100
AcDbEntity
  8
DRAFT
100
AcDbLine
 62
7
  6
CONTINUOUS
 10
-32.4
 20
-45.7
 11
32.4
 21
-45.7
  0
LINE
  5
264
100
AcDbEntity
  8
RACCORDO
100
AcDbLine
 62
7
  6
CONTINUOUS
 10
45.1
 20
-45.7
 11
67.7000076154
 21
-45.7
  0
LINE
  5
265
100
AcDbEntity
  8
RACCORDO
100
AcDbLine
 62
7
  6
CONTINUOUS
 10
32.6
 20
-45.5690969831
 11
44.9
 21
-45.5690969831
  0
LINE
  5
266
100
AcDbEntity
  8
RACCORDO
100
AcDbLine
 62
7
  6
CONTINUOUS
 10
-32.6
 20
-45.5690969831
 11
-44.9
 21
-45.5690969831
  0
LINE
  5
267
100
AcDbEntity
  8
RACCORDO
100
AcDbLine
 62
250
  6
CONTINUOUS
 10
67.4206716908
 20
-45.4206640754
 11
-67.4206716908
 21
-45.4206640754
  0
LINE
  5
268
100
AcDbEntity
  8
RACCORDO
100
AcDbLine
 62
250
  6
CONTINUOUS
 10
67.6137435054
 20
-44.4207021523
 11
-67.6137435054
 21
-44.4207021523
  0
LWPOLYLINE
  5
269
100
AcDbEntity
  8
RACCORDO
100
AcDbPolyline
 62
250
  6
CONTINUOUS
 90
16
 70
0
 10
-67.4206716908
 20
-45.4206640754
 10
-67.4415759874
 20
-45.4195669673
 10
-67.4622512275
 20
-45.4162908545
 10
-67.4824709044
 20
-45.4108716405
 10
-67.502013513
 20
-45.4033687035
 10
-67.5206649504
 20
-45.393864255
 10
-67.538220866
 20
-45.3824624468
 10
-67.554488938
 20
-45.3692882083
 10
-67.5692909598
 20
-45.3544858822
 10
-67.5824647747
 20
-45.338217662
 10
-67.5938660812
 20
-45.3206617876
 10
-67.6033700021
 20
-45.3020105967
 10
-67.6108724427
 20
-45.2824684358
 10
-67.6162912428
 20
-45.2622494011
 10
-67.6195670721
 20
-45.2415749909
 10
-67.6206640754
 20
-45.2206716908
  0
LINE
  5
26A
100
AcDbEntity
  8
RACCORDO
100
AcDbLine
 62
7
  6
CONTINUOUS
 10
-43.8
 20
46.75
 11
-43.8
 21
46.7
  0
LINE
  5
26B
100
AcDbEntity
  8
RACCORDO
100
AcDbLine
 62
7
  6
CONTINUOUS
 10
-43.8
 20
-46.75
 11
-43.8
 21
-46.7
  0
LWPOLYLINE
  5
26C
100
AcDbEntity
  8
SMUSSO
100
AcDbPolyline
 62
7
  6
CONTINUOUS
 90
8
 70
0
 10
67.4137511208
 20
-35.9000152311
 10
67.4344465738
 20
-35.8988503699
 10
67.4554748135
 20
-35.8956125924
 10
67.4768358399
 20
-35.8903018987
 10
67.4985703504
 20
-35.8827597452
 10
67.5206376477
 20
-35.8731446754
 10
67.5429156389
 20
-35.8619323196
 10
67.5652979148
 20
-35.8491731948
  0
LINE
  5
26D
100
AcDbEntity
  8
RACCORDO
100
AcDbLine
 62
7
  6
CONTINUOUS
 10
-33.7
 20
46.75
 11
-33.7
 21
46.7
  0
LINE
  5
26E
100
AcDbEntity
  8
RACCORDO
100
AcDbLine
 62
7
  6
CONTINUOUS
 10
-33.7
 20
-46.75
 11
-33.7
 21
-46.7
  0
LINE
  5
26F
100
AcDbEntity
  8
SMUSSO
100
AcDbLine
 62
7
  6
CONTINUOUS
 10
67.4137511208
 20
-35.9000152311
 11
67.9
 21
-35.9000152311
  0
LINE
  5
270
100
AcDbEntity
  8
SMUSSO
100
AcDbLine
 62
7
  6
CONTINUOUS
 10
-67.4137511208
 20
-35.9000152311
 11
-67.9
 21
-35.9000152311
  0
LINE
  5
271
100
AcDbEntity
  8
SMUSSO
100
AcDbLine
 62
7
  6
CONTINUOUS
 10
67.7601788695
 20
-35.7
 11
69.9
 21
-35.7
  0
LINE
  5
272
100
AcDbEntity
  8
SMUSSO
100
AcDbLine
 62
7
  6
CONTINUOUS
 10
-67.7601788695
 20
-35.7
 11
-69.9
 21
-35.7
  0
LWPOLYLINE
  5
273
100
AcDbEntity
  8
0
100
AcDbPolyline
 62
7
  6
CONTINUOUS
 90
22
 70
0
 10
-55.5219290567
 20
-31.2966785662
 10
-55.5766107069
 20
-31.2908220466
 10
-55.6312125424
 20
-31.2811641431
 10
-55.6854684695
 20
-31.2676776257
 10
-55.7392036135
 20
-31.2503190848
 10
-55.7920429546
 20
-31.2291202238
 10
-55.8434339859
 20
-31.2042561287
 10
-55.8930620256
 20
-31.1758750747
 10
-55.940752716
 20
-31.1440731564
 10
-55.9862054383
 20
-31.1090494277
 10
-56.0291516324
 20
-31.0710319562
 10
-56.0694623119
 20
-31.0301580266
 10
-56.1070554081
 20
-30.986502092
 10
-56.1417487386
 20
-30.9402411036
 10
-56.1733597865
 20
-30.8915811546
 10
-56.2017846896
 20
-30.8406201658
 10
-56.2268891833
 20
-30.7874854351
 10
-56.2484721163
 20
-30.7324728432
 10
-56.2663545157
 20
-30.6759486265
 10
-56.2804273361
 20
-30.6182105559
 10
-56.2906239616
 20
-30.5594733885
 10
-56.2968802431
 20
-30.5
  0
LINE
  5
274
100
AcDbEntity
  8
RACCORDO
100
AcDbLine
 62
250
  6
CONTINUOUS
 10
-32.6
 20
46.95
 11
-32.6
 21
45.5690969831
  0
LINE
  5
275
100
AcDbEntity
  8
RACCORDO
100
AcDbLine
 62
250
  6
CONTINUOUS
 10
-32.6
 20
-45.5690969831
 11
-32.6
 21
-46.95
  0
LINE
  5
276
100
AcDbEntity
  8
RACCORDO
100
AcDbLine
 62
7
  6
CONTINUOUS
 10
-32.4
 20
46.75
 11
-32.4
 21
45.5708423567
  0
LINE
  5
277
100
AcDbEntity
  8
RACCORDO
100
AcDbLine
 62
7
  6
CONTINUOUS
 10
-32.4
 20
-46.75
 11
-32.4
 21
-45.5708423567
  0
LINE
  5
278
100
AcDbEntity
  8
SMUSSO
100
AcDbLine
 62
7
  6
CONTINUOUS
 10
-69.4102450091
 20
-25.2897473758
 11
-69.6120133629
 21
-25.4897549909
  0
LINE
  5
279
100
AcDbEntity
  8
SMUSSO
100
AcDbLine
 62
7
  6
CONTINUOUS
 10
-69.4102450091
 20
25.2897473758
 11
-69.6120133629
 21
25.4879942522
  0
LINE
  5
27A
100
AcDbEntity
  8
0
100
AcDbLine
 62
7
  6
CONTINUOUS
 10
-54.7376861756
 20
-29.6959712359
 11
-54.4780814214
 21
-29.3808189894
  0
LINE
  5
27B
100
AcDbEntity
  8
SMUSSO
100
AcDbLine
 62
7
  6
CONTINUOUS
 10
-69.6120133629
 20
-25.4897549909
 11
69.6120133629
 21
-25.4897549909
  0
LINE
  5
27C
100
AcDbEntity
  8
SMUSSO
100
AcDbLine
 62
7
  6
CONTINUOUS
 10
-69.4102450091
 20
-25.2897473758
 11
69.4102450091
 21
-25.2897473758
  0
LWPOLYLINE
  5
27D
100
AcDbEntity
  8
0
100
AcDbPolyline
 62
7
  6
CONTINUOUS
 90
22
 70
0
 10
55.2780709433
 20
-31.2966785662
 10
55.2233892931
 20
-31.2908220466
 10
55.1687874576
 20
-31.2811641431
 10
55.1145315305
 20
-31.2676776257
 10
55.0607963865
 20
-31.2503190848
 10
55.0079570454
 20
-31.2291202238
 10
54.9565660141
 20
-31.2042561287
 10
54.9069379744
 20
-31.1758750747
 10
54.859247284
 20
-31.1440731564
 10
54.8137945617
 20
-31.1090494277
 10
54.7708483676
 20
-31.0710319562
 10
54.7305376881
 20
-31.0301580266
 10
54.6929445919
 20
-30.986502092
 10
54.6582512614
 20
-30.9402411036
 10
54.6266402135
 20
-30.8915811546
 10
54.5982153104
 20
-30.8406201658
 10
54.5731108167
 20
-30.7874854351
 10
54.5515278837
 20
-30.7324728432
 10
54.5336454843
 20
-30.6759486265
 10
54.5195726639
 20
-30.6182105559
 10
54.5093760384
 20
-30.5594733885
 10
54.5031197569
 20
-30.5
  0
LINE
  5
27E
100
AcDbEntity
  8
0
100
AcDbLine
 62
7
  6
CONTINUOUS
 10
-56.1825433504
 20
29.9629978794
 11
-56.1417928909
 21
29.9245102057
  0
LINE
  5
27F
100
AcDbEntity
  8
RACCORDO
100
AcDbLine
 62
250
  6
CONTINUOUS
 10
-67.9
 20
-45.5000076154
 11
-67.6206640754
 21
-45.2206716908
  0
LINE
  5
280
100
AcDbEntity
  8
RACCORDO
100
AcDbLine
 62
250
  6
CONTINUOUS
 10
-67.7000076154
 20
-45.7
 11
-67.4206716908
 21
-45.4206640754
  0
LINE
  5
281
100
AcDbEntity
  8
0
100
AcDbLine
 62
7
  6
CONTINUOUS
 10
-56.1417928909
 20
29.9245102057
 11
-56.0992452147
 21
29.8889270368
  0
LINE
  5
282
100
AcDbEntity
  8
RACCORDO
100
AcDbLine
 62
250
  6
CONTINUOUS
 10
-67.9
 20
45.5000076154
 11
-67.6206640754
 21
45.2206716908
  0
LINE
  5
283
100
AcDbEntity
  8
RACCORDO
100
AcDbLine
 62
250
  6
CONTINUOUS
 10
-67.7000076154
 20
45.7
 11
-67.4206716908
 21
45.4206640754
  0
LWPOLYLINE
  5
284
100
AcDbEntity
  8
0
100
AcDbPolyline
 62
7
  6
CONTINUOUS
 90
47
 70
0
 10
54.7853715492
 20
-31.8132904734
 10
54.869046592
 20
-31.8492918434
 10
54.954817068
 20
-31.8799681725
 10
55.0423444801
 20
-31.9051983949
 10
55.1312833975
 20
-31.9248829382
 10
55.2212828188
 20
-31.9389441161
 10
55.3119875571
 20
-31.9473264352
 10
55.4030396423
 20
-31.949996814
 10
55.4940797329
 20
-31.9469447135
 10
55.5847485351
 20
-31.9381821786
 10
55.6746882203
 20
-31.9237437907
 10
55.7635438372
 20
-31.9036865314
 10
55.850964713
 20
-31.8780895572
 10
55.9366058369
 20
-31.8470538875
 10
56.0201292223
 20
-31.8107020056
 10
56.10120524
 20
-31.7691773758
 10
56.1795139196
 20
-31.7226438767
 10
56.254746212
 20
-31.6712851545
 10
56.3266052091
 20
-31.6153038987
 10
56.3948073159
 20
-31.5549210417
 10
56.4590833693
 20
-31.4903748871
 10
56.5191797004
 20
-31.4219201691
 10
56.5748591361
 20
-31.3498270473
 10
56.6259019345
 20
-31.2743800405
 10
56.6721066523
 20
-31.1958769037
 10
56.7132909402
 20
-31.1146274533
 10
56.7492922621
 20
-31.0309523439
 10
56.7799685366
 20
-30.9451818034
 10
56.805198698
 20
-30.8576543292
 10
56.8248831739
 20
-30.7687153527
 10
56.8389442782
 20
-30.6787158759
 10
56.8473265177
 20
-30.5880110861
 10
56.849996811
 20
-30.4969589542
 10
56.8469446195
 20
-30.405918822
 10
56.8381819883
 20
-30.315249984
 10
56.8237434993
 20
-30.2253102692
 10
56.8036861342
 20
-30.1364546294
 10
56.7780890502
 20
-30.0490337378
 10
56.747053267
 20
-29.9633926056
 10
56.7107012687
 20
-29.87986922
 10
56.6691765197
 20
-29.7987932104
 10
56.6226428994
 20
-29.7204845476
 10
56.5712840547
 20
-29.645252281
 10
56.5153026757
 20
-29.5733933188
 10
56.4549196953
 20
-29.5051912564
 10
56.390373418
 20
-29.4409152569
 10
56.3219185786
 20
-29.3808189894
  0
LINE
  5
285
100
AcDbEntity
  8
0
100
AcDbLine
 62
7
  6
CONTINUOUS
 10
-56.0550991322
 20
29.8563253765
 11
-56.0095562258
 21
29.826769003
  0
LINE
  5
286
100
AcDbEntity
  8
0
100
AcDbLine
 62
7
  6
CONTINUOUS
 10
-56.0992452147
 20
29.8889270368
 11
-56.0550991322
 21
29.8563253765
  0
LINE
  5
287
100
AcDbEntity
  8
0
100
AcDbLine
 62
7
  6
CONTINUOUS
 10
-54.4780795707
 20
31.6191794861
 11
-54.5501726026
 21
31.6748588828
  0
LWPOLYLINE
  5
288
100
AcDbEntity
  8
0
100
AcDbPolyline
 62
7
  6
CONTINUOUS
 90
50
 70
0
 10
56.0958774523
 20
-29.2278936478
 10
56.0146281086
 20
-29.1867093665
 10
55.9309531096
 20
-29.1507080392
 10
55.8451826819
 20
-29.1200317468
 10
55.7576553221
 20
-29.0948015547
 10
55.6687164602
 20
-29.075117035
 10
55.5787170971
 20
-29.0610558735
 10
55.4880124189
 20
-29.0526735634
 10
55.3969603952
 20
-29.0500031859
 10
55.3059203666
 20
-29.0530552801
 10
55.2152516262
 20
-29.0618178007
 10
55.125312002
 20
-29.0762561664
 10
55.0364564443
 20
-29.0963133957
 10
54.9490356252
 20
-29.1219103321
 10
54.8633945548
 20
-29.1529459565
 10
54.779871219
 20
-29.1892977856
 10
54.6987952461
 20
-29.2308223556
 10
54.6204866061
 20
-29.2773557882
 10
54.5452543471
 20
-29.3287144375
 10
54.4733953766
 20
-29.3846956146
 10
54.4051932892
 20
-29.4450783877
 10
54.3409172472
 20
-29.5096244537
 10
54.2808209189
 20
-29.5780790791
 10
54.2251414772
 20
-29.6501721049
 10
54.1740986634
 20
-29.7256190131
 10
54.1278939203
 20
-29.8041220495
 10
54.0867095971
 20
-29.8853713986
 10
54.0507082296
 20
-29.9690464065
 10
54.020031899
 20
-30.0548168464
 10
53.9948016708
 20
-30.1423442217
 10
53.9751171176
 20
-30.2312831019
 10
53.9610559253
 20
-30.321282486
 10
53.9526735873
 20
-30.4119871877
 10
53.9500031852
 20
-30.5030392369
 10
53.9530552579
 20
-30.5940792928
 10
53.9618177607
 20
-30.684748062
 10
53.976256112
 20
-30.7746877163
 10
53.9963133307
 20
-30.8635433048
 10
54.0219102602
 20
-30.950964155
 10
54.0529458814
 20
-31.0366052568
 10
54.0892977111
 20
-31.1201286237
 10
54.1308222855
 20
-31.201204627
 10
54.1773557262
 20
-31.2795132966
 10
54.2287143871
 20
-31.3547455838
 10
54.2846955793
 20
-31.4266045808
 10
54.3450783707
 20
-31.4948066928
 10
54.4096244582
 20
-31.559082757
 10
54.478079108
 20
-31.6191791049
 10
54.5501721609
 20
-31.6748585633
 10
54.6256190986
 20
-31.7259013906
  0
LWPOLYLINE
  5
289
100
AcDbEntity
  8
0
100
AcDbPolyline
 62
7
  6
CONTINUOUS
 90
49
 70
0
 10
56.2490034965
 20
-29.3371797044
 10
56.1741580201
 20
-29.2982078668
 10
56.097676704
 20
-29.2639788834
 10
56.0198562593
 20
-29.2345497908
 10
55.94099442
 20
-29.2099592644
 10
55.8613888171
 20
-29.1902276965
 10
55.7813358661
 20
-29.1753573432
 10
55.7011296708
 20
-29.1653325384
 10
55.6210609489
 20
-29.1601199728
 10
55.5414159814
 20
-29.1596690384
 10
55.4624755918
 20
-29.1639122332
 10
55.3845141568
 20
-29.1727656273
 10
55.3077986531
 20
-29.1861293854
 10
55.2325877427
 20
-29.2038883449
 10
55.1591309015
 20
-29.2259126452
 10
55.0876675922
 20
-29.2520584074
 10
55.0184264851
 20
-29.2821684588
 10
54.9516247298
 20
-29.3160731006
 10
54.8874672792
 20
-29.3535909152
 10
54.8261462682
 20
-29.3945296092
 10
54.76784045
 20
-29.438686888
 10
54.7127146891
 20
-29.4858513593
 10
54.6609195157
 20
-29.5358034617
 10
54.6125907392
 20
-29.588316413
 10
54.5678491247
 20
-29.6431571761
 10
54.5268001312
 20
-29.7000874375
 10
54.4895337121
 20
-29.7588645947
 10
54.4561241795
 20
-29.819242749
 10
54.4266301302
 20
-29.8809736984
 10
54.4010944346
 20
-29.9438079286
 10
54.3795442871
 20
-30.0074955966
 10
54.3619913174
 20
-30.0717875039
 10
54.3484317616
 20
-30.1364360555
 10
54.338846692
 20
-30.2011962007
 10
54.3332023035
 20
-30.2658263526
 10
54.3314502555
 20
-30.3300892825
 10
54.3335280671
 20
-30.3937529866
 10
54.3393595635
 20
-30.4565915206
 10
54.348855371
 20
-30.5183858006
 10
54.3619134587
 20
-30.5789243663
 10
54.3784197237
 20
-30.6380041047
 10
54.3982486172
 20
-30.6954309317
 10
54.4212638089
 20
-30.751020428
 10
54.4473188858
 20
-30.8045984302
 10
54.4762580829
 20
-30.8560015712
 10
54.5079170428
 20
-30.905077772
 10
54.5421235993
 20
-30.951686681
 10
54.578698584
 20
-30.9957000608
 10
54.6174566496
 20
-31.0370021206
  0
LWPOLYLINE
  5
28A
100
AcDbEntity
  8
0
100
AcDbPolyline
 62
7
  6
CONTINUOUS
 90
11
 70
0
 10
-56.0095562258
 20
29.826769003
 10
-55.962819989
 20
29.8003084118
 10
-55.9150949676
 20
29.7769808158
 10
-55.8665859088
 20
29.7568101988
 10
-55.8174969194
 20
29.7398074228
 10
-55.7680306387
 20
29.7259703886
 10
-55.7183874266
 20
29.7152842477
 10
-55.6687645727
 20
29.7077216642
 10
-55.6193555285
 20
29.7032431252
 10
-55.5703491643
 20
29.7017972984
 10
-55.5219290567
 20
29.7033214338
  0
LWPOLYLINE
  5
28B
100
AcDbEntity
  8
0
100
AcDbPolyline
 62
7
  6
CONTINUOUS
 90
11
 70
0
 10
54.7904437742
 20
-31.173230997
 10
54.837180011
 20
-31.1996915882
 10
54.8849050324
 20
-31.2230191842
 10
54.9334140912
 20
-31.2431898012
 10
54.9825030806
 20
-31.2601925772
 10
55.0319693613
 20
-31.2740296114
 10
55.0816125734
 20
-31.2847157523
 10
55.1312354273
 20
-31.2922783358
 10
55.1806444715
 20
-31.2967568748
 10
55.2296508357
 20
-31.2982027016
 10
55.2780709433
 20
-31.2966785662
  0
LWPOLYLINE
  5
28C
100
AcDbEntity
  8
0
100
AcDbPolyline
 62
7
  6
CONTINUOUS
 90
3
 70
0
 10
-56.1743809014
 20
29.2740986094
 10
-56.0958778334
 20
29.2278938562
 10
-56.0146284508
 20
29.1867095266
  0
LWPOLYLINE
  5
28D
100
AcDbEntity
  8
0
100
AcDbPolyline
 62
7
  6
CONTINUOUS
 90
3
 70
0
 10
54.6256190986
 20
-31.7259013906
 10
54.7041221666
 20
-31.7721061438
 10
54.7853715492
 20
-31.8132904734
  0
LINE
  5
28E
100
AcDbEntity
  8
0
100
AcDbLine
 62
7
  6
CONTINUOUS
 10
-54.4780814214
 20
31.6191810106
 11
-54.5509965035
 21
31.6628202956
  0
LWPOLYLINE
  5
28F
100
AcDbEntity
  8
0
100
AcDbPolyline
 62
7
  6
CONTINUOUS
 90
10
 70
0
 10
-54.7376861756
 20
31.3040287641
 10
-54.6995161221
 20
31.2797560352
 10
-54.6622316905
 20
31.2536906091
 10
-54.6259165049
 20
31.2258649515
 10
-54.5906401583
 20
31.1963041865
 10
-54.5564973403
 20
31.165058488
 10
-54.5236033752
 20
31.1322092073
 10
-54.4920431165
 20
31.0978223626
 10
-54.46187508
 20
31.0619423428
 10
-54.4331676059
 20
31.024628556
  0
LWPOLYLINE
  5
290
100
AcDbEntity
  8
0
100
AcDbPolyline
 62
7
  6
CONTINUOUS
 90
3
 70
0
 10
-54.5501726026
 20
31.6748588828
 10
-54.625619513
 20
31.7259016524
 10
-54.7041225477
 20
31.7721063522
  0
LWPOLYLINE
  5
291
100
AcDbEntity
  8
0
100
AcDbPolyline
 62
7
  6
CONTINUOUS
 90
47
 70
0
 10
-56.0146284508
 20
29.1867095266
 10
-55.930953408
 20
29.1507081566
 10
-55.845182932
 20
29.1200318275
 10
-55.7576555199
 20
29.0948016051
 10
-55.6687166025
 20
29.0751170618
 10
-55.5787171812
 20
29.0610558839
 10
-55.4880124428
 20
29.0526735648
 10
-55.3969603577
 20
29.050003186
 10
-55.3059202671
 20
29.0530552865
 10
-55.2152514649
 20
29.0618178214
 10
-55.1253117797
 20
29.0762562093
 10
-55.0364561628
 20
29.0963134686
 10
-54.949035287
 20
29.1219104428
 10
-54.8633941631
 20
29.1529461125
 10
-54.7798707777
 20
29.1892979944
 10
-54.69879476
 20
29.2308226242
 10
-54.6204860804
 20
29.2773561233
 10
-54.545253788
 20
29.3287148455
 10
-54.4733947909
 20
29.3846961013
 10
-54.4051926841
 20
29.4450789583
 10
-54.3409166307
 20
29.5096251129
 10
-54.2808202996
 20
29.5780798309
 10
-54.2251408639
 20
29.6501729527
 10
-54.1740980655
 20
29.7256199595
 10
-54.1278933477
 20
29.8041230963
 10
-54.0867090598
 20
29.8853725467
 10
-54.0507077379
 20
29.9690476561
 10
-54.0200314634
 20
30.0548181966
 10
-53.994801302
 20
30.1423456708
 10
-53.9751168261
 20
30.2312846473
 10
-53.9610557218
 20
30.3212841241
 10
-53.9526734823
 20
30.4119889139
 10
-53.950003189
 20
30.5030410458
 10
-53.9530553805
 20
30.594081178
 10
-53.9618180117
 20
30.684750016
 10
-53.9762565007
 20
30.7746897308
 10
-53.9963138658
 20
30.8635453706
 10
-54.0219109498
 20
30.9509662622
 10
-54.052946733
 20
31.0366073944
 10
-54.0892987313
 20
31.12013078
 10
-54.1308234803
 20
31.2012067896
 10
-54.1773571006
 20
31.2795154524
 10
-54.2287159453
 20
31.354747719
 10
-54.2846973243
 20
31.4266066812
 10
-54.3450803047
 20
31.4948087436
 10
-54.409626582
 20
31.5590847431
 10
-54.4780814214
 20
31.6191810106
  0
LWPOLYLINE
  5
292
100
AcDbEntity
  8
0
100
AcDbPolyline
 62
7
  6
CONTINUOUS
 90
50
 70
0
 10
-54.7041225477
 20
31.7721063522
 10
-54.7853718914
 20
31.8132906335
 10
-54.8690468904
 20
31.8492919608
 10
-54.9548173181
 20
31.8799682532
 10
-55.0423446779
 20
31.9051984453
 10
-55.1312835398
 20
31.924882965
 10
-55.2212829029
 20
31.9389441265
 10
-55.3119875811
 20
31.9473264366
 10
-55.4030396048
 20
31.9499968141
 10
-55.4940796334
 20
31.9469447199
 10
-55.5847483738
 20
31.9381821993
 10
-55.674687998
 20
31.9237438336
 10
-55.7635435557
 20
31.9036866043
 10
-55.8509643748
 20
31.8780896679
 10
-55.9366054452
 20
31.8470540435
 10
-56.020128781
 20
31.8107022144
 10
-56.1012047539
 20
31.7691776444
 10
-56.1795133939
 20
31.7226442118
 10
-56.2547456529
 20
31.6712855625
 10
-56.3266046234
 20
31.6153043854
 10
-56.3948067108
 20
31.5549216123
 10
-56.4590827528
 20
31.4903755463
 10
-56.5191790811
 20
31.4219209209
 10
-56.5748585228
 20
31.3498278951
 10
-56.6259013366
 20
31.2743809869
 10
-56.6721060797
 20
31.1958779505
 10
-56.7132904029
 20
31.1146286014
 10
-56.7492917704
 20
31.0309535935
 10
-56.779968101
 20
30.9451831536
 10
-56.8051983292
 20
30.8576557783
 10
-56.8248828824
 20
30.7687168981
 10
-56.8389440747
 20
30.678717514
 10
-56.8473264127
 20
30.5880128123
 10
-56.8499968148
 20
30.4969607631
 10
-56.8469447421
 20
30.4059207072
 10
-56.8381822393
 20
30.315251938
 10
-56.823743888
 20
30.2253122837
 10
-56.8036866693
 20
30.1364566952
 10
-56.7780897398
 20
30.049035845
 10
-56.7470541186
 20
29.9633947432
 10
-56.7107022889
 20
29.8798713763
 10
-56.6691777145
 20
29.798795373
 10
-56.6226442738
 20
29.7204867034
 10
-56.5712856129
 20
29.6452544162
 10
-56.5153044207
 20
29.5733954192
 10
-56.4549216293
 20
29.5051933072
 10
-56.3903755418
 20
29.440917243
 10
-56.321920892
 20
29.3808208951
 10
-56.2498278391
 20
29.3251414367
 10
-56.1743809014
 20
29.2740986094
  0
LWPOLYLINE
  5
293
100
AcDbEntity
  8
0
100
AcDbPolyline
 62
7
  6
CONTINUOUS
 90
49
 70
0
 10
-54.5509965035
 20
31.6628202956
 10
-54.6258419799
 20
31.7017921332
 10
-54.702323296
 20
31.7360211166
 10
-54.7801437407
 20
31.7654502092
 10
-54.85900558
 20
31.7900407356
 10
-54.9386111829
 20
31.8097723035
 10
-55.0186641339
 20
31.8246426568
 10
-55.0988703292
 20
31.8346674616
 10
-55.1789390511
 20
31.8398800272
 10
-55.2585840186
 20
31.8403309616
 10
-55.3375244082
 20
31.8360877668
 10
-55.4154858432
 20
31.8272343727
 10
-55.4922013469
 20
31.8138706146
 10
-55.5674122573
 20
31.7961116551
 10
-55.6408690985
 20
31.7740873548
 10
-55.7123324078
 20
31.7479415926
 10
-55.7815735149
 20
31.7178315412
 10
-55.8483752702
 20
31.6839268994
 10
-55.9125327208
 20
31.6464090848
 10
-55.9738537318
 20
31.6054703908
 10
-56.03215955
 20
31.561313112
 10
-56.0872853109
 20
31.5141486407
 10
-56.1390804843
 20
31.4641965383
 10
-56.1874092608
 20
31.411683587
 10
-56.2321508753
 20
31.3568428239
 10
-56.2731998688
 20
31.2999125625
 10
-56.3104662879
 20
31.2411354053
 10
-56.3438758205
 20
31.180757251
 10
-56.3733698698
 20
31.1190263016
 10
-56.3989055654
 20
31.0561920714
 10
-56.4204557129
 20
30.9925044034
 10
-56.4380086826
 20
30.9282124961
 10
-56.4515682384
 20
30.8635639445
 10
-56.461153308
 20
30.7988037993
 10
-56.4667976965
 20
30.7341736474
 10
-56.4685497445
 20
30.6699107175
 10
-56.4664719329
 20
30.6062470134
 10
-56.4606404365
 20
30.5434084794
 10
-56.451144629
 20
30.4816141994
 10
-56.4380865413
 20
30.4210756337
 10
-56.4215802763
 20
30.3619958953
 10
-56.4017513828
 20
30.3045690683
 10
-56.3787361911
 20
30.248979572
 10
-56.3526811142
 20
30.1954015698
 10
-56.3237419171
 20
30.1439984288
 10
-56.2920829572
 20
30.094922228
 10
-56.2578764007
 20
30.048313319
 10
-56.221301416
 20
30.0042999392
 10
-56.1825433504
 20
29.9629978794
  0
LINE
  5
294
100
AcDbEntity
  8
0
100
AcDbLine
 62
7
  6
CONTINUOUS
 10
56.3219185786
 20
-29.3808189894
 11
56.2490034965
 21
-29.3371797044
  0
LWPOLYLINE
  5
295
100
AcDbEntity
  8
0
100
AcDbPolyline
 62
7
  6
CONTINUOUS
 90
10
 70
0
 10
56.0623138244
 20
-29.6959712359
 10
56.1004838779
 20
-29.7202439648
 10
56.1377683095
 20
-29.7463093909
 10
56.1740834951
 20
-29.7741350485
 10
56.2093598417
 20
-29.8036958135
 10
56.2435026597
 20
-29.834941512
 10
56.2763966248
 20
-29.8677907927
 10
56.3079568835
 20
-29.9021776374
 10
56.33812492
 20
-29.9380576572
 10
56.3668323941
 20
-29.975371444
  0
LINE
  5
296
100
AcDbEntity
  8
0
100
AcDbLine
 62
7
  6
CONTINUOUS
 10
54.7449008678
 20
-31.1436746235
 11
54.7904437742
 21
-31.173230997
  0
LWPOLYLINE
  5
297
100
AcDbEntity
  8
0
100
AcDbPolyline
 62
7
  6
CONTINUOUS
 90
3
 70
0
 10
56.2498273974
 20
-29.3251411172
 10
56.174380487
 20
-29.2740983476
 10
56.0958774523
 20
-29.2278936478
  0
LINE
  5
298
100
AcDbEntity
  8
0
100
AcDbLine
 62
7
  6
CONTINUOUS
 10
54.7007547853
 20
-31.1110729632
 11
54.7449008678
 21
-31.1436746235
  0
LINE
  5
299
100
AcDbEntity
  8
0
100
AcDbLine
 62
7
  6
CONTINUOUS
 10
56.3219204293
 20
-29.3808205139
 11
56.2498273974
 21
-29.3251411172
  0
LINE
  5
29A
100
AcDbEntity
  8
0
100
AcDbLine
 62
7
  6
CONTINUOUS
 10
54.6582071091
 20
-31.0754897943
 11
54.7007547853
 21
-31.1110729632
  0
LINE
  5
29B
100
AcDbEntity
  8
RACCORDO
100
AcDbLine
 62
250
  6
CONTINUOUS
 10
67.7000076154
 20
45.7
 11
67.4206716908
 21
45.4206640754
  0
LINE
  5
29C
100
AcDbEntity
  8
RACCORDO
100
AcDbLine
 62
250
  6
CONTINUOUS
 10
67.9
 20
45.5000076154
 11
67.6206640754
 21
45.2206716908
  0
LINE
  5
29D
100
AcDbEntity
  8
0
100
AcDbLine
 62
7
  6
CONTINUOUS
 10
54.6174566496
 20
-31.0370021206
 11
54.6582071091
 21
-31.0754897943
  0
LINE
  5
29E
100
AcDbEntity
  8
RACCORDO
100
AcDbLine
 62
250
  6
CONTINUOUS
 10
67.7000076154
 20
-45.7
 11
67.4206716908
 21
-45.4206640754
  0
LINE
  5
29F
100
AcDbEntity
  8
RACCORDO
100
AcDbLine
 62
250
  6
CONTINUOUS
 10
67.9
 20
-45.5000076154
 11
67.6206640754
 21
-45.2206716908
  0
LINE
  5
2A0
100
AcDbEntity
  8
0
100
AcDbLine
 62
7
  6
CONTINUOUS
 10
56.0623138244
 20
31.3040287641
 11
56.3219185786
 21
31.6191810106
  0
LINE
  5
2A1
100
AcDbEntity
  8
SMUSSO
100
AcDbLine
 62
7
  6
CONTINUOUS
 10
69.4102450091
 20
25.2897473758
 11
-69.4102450091
 21
25.2897473758
  0
LINE
  5
2A2
100
AcDbEntity
  8
SMUSSO
100
AcDbLine
 62
7
  6
CONTINUOUS
 10
69.6120133629
 20
25.4897549909
 11
-69.6120133629
 21
25.4897549909
  0
LWPOLYLINE
  5
2A3
100
AcDbEntity
  8
0
100
AcDbPolyline
 62
7
  6
CONTINUOUS
 90
22
 70
0
 10
-55.5219290567
 20
29.7033214338
 10
-55.5766107069
 20
29.7091779534
 10
-55.6312125424
 20
29.7188358569
 10
-55.6854684695
 20
29.7323223743
 10
-55.7392036135
 20
29.7496809152
 10
-55.7920429546
 20
29.7708797762
 10
-55.8434339859
 20
29.7957438713
 10
-55.8930620256
 20
29.8241249253
 10
-55.940752716
 20
29.8559268436
 10
-55.9862054383
 20
29.8909505723
 10
-56.0291516324
 20
29.9289680438
 10
-56.0694623119
 20
29.9698419734
 10
-56.1070554081
 20
30.013497908
 10
-56.1417487386
 20
30.0597588964
 10
-56.1733597865
 20
30.1084188454
 10
-56.2017846896
 20
30.1593798342
 10
-56.2268891833
 20
30.2125145649
 10
-56.2484721163
 20
30.2675271568
 10
-56.2663545157
 20
30.3240513735
 10
-56.2804273361
 20
30.3817894441
 10
-56.2906239616
 20
30.4405266115
 10
-56.2968802431
 20
30.5
  0
LINE
  5
2A4
100
AcDbEntity
  8
RACCORDO
100
AcDbLine
 62
7
  6
CONTINUOUS
 10
32.4
 20
46.75
 11
32.4
 21
45.5708423567
  0
LINE
  5
2A5
100
AcDbEntity
  8
RACCORDO
100
AcDbLine
 62
7
  6
CONTINUOUS
 10
32.4
 20
-46.75
 11
32.4
 21
-45.5708423567
  0
LINE
  5
2A6
100
AcDbEntity
  8
RACCORDO
100
AcDbLine
 62
250
  6
CONTINUOUS
 10
32.6
 20
-46.95
 11
32.6
 21
-45.5690969831
  0
LINE
  5
2A7
100
AcDbEntity
  8
RACCORDO
100
AcDbLine
 62
250
  6
CONTINUOUS
 10
32.6
 20
45.5690969831
 11
32.6
 21
46.95
  0
LINE
  5
2A8
100
AcDbEntity
  8
RACCORDO
100
AcDbLine
 62
7
  6
CONTINUOUS
 10
33.7
 20
46.75
 11
33.7
 21
46.7
  0
LINE
  5
2A9
100
AcDbEntity
  8
RACCORDO
100
AcDbLine
 62
7
  6
CONTINUOUS
 10
33.7
 20
-46.75
 11
33.7
 21
-46.7
  0
LINE
  5
2AA
100
AcDbEntity
  8
SMUSSO
100
AcDbLine
 62
7
  6
CONTINUOUS
 10
69.4102450091
 20
25.2897473758
 11
69.6120133629
 21
25.4897549909
  0
LINE
  5
2AB
100
AcDbEntity
  8
SMUSSO
100
AcDbLine
 62
7
  6
CONTINUOUS
 10
69.4102450091
 20
-25.2897473758
 11
69.6120133629
 21
-25.4879942522
  0
LWPOLYLINE
  5
2AC
100
AcDbEntity
  8
SMUSSO
100
AcDbPolyline
 62
7
  6
CONTINUOUS
 90
8
 70
0
 10
-67.4137511208
 20
35.9000152311
 10
-67.4344465738
 20
35.8988503699
 10
-67.4554748135
 20
35.8956125924
 10
-67.4768358399
 20
35.8903018987
 10
-67.4985703504
 20
35.8827597452
 10
-67.5206376477
 20
35.8731446754
 10
-67.5429156389
 20
35.8619323196
 10
-67.5652979148
 20
35.8491731948
  0
LINE
  5
2AD
100
AcDbEntity
  8
SMUSSO
100
AcDbLine
 62
7
  6
CONTINUOUS
 10
-67.7601788695
 20
35.7
 11
-69.9
 21
35.7
  0
LINE
  5
2AE
100
AcDbEntity
  8
SMUSSO
100
AcDbLine
 62
7
  6
CONTINUOUS
 10
67.7601788695
 20
35.7
 11
69.9
 21
35.7
  0
LINE
  5
2AF
100
AcDbEntity
  8
SMUSSO
100
AcDbLine
 62
7
  6
CONTINUOUS
 10
67.4137511208
 20
35.9000152311
 11
67.9
 21
35.9000152311
  0
LINE
  5
2B0
100
AcDbEntity
  8
SMUSSO
100
AcDbLine
 62
7
  6
CONTINUOUS
 10
-67.4137511208
 20
35.9000152311
 11
-67.9
 21
35.9000152311
  0
LWPOLYLINE
  5
2B1
100
AcDbEntity
  8
0
100
AcDbPolyline
 62
7
  6
CONTINUOUS
 90
22
 70
0
 10
55.2780709433
 20
29.7033214338
 10
55.2233892931
 20
29.7091779534
 10
55.1687874576
 20
29.7188358569
 10
55.1145315305
 20
29.7323223743
 10
55.0607963865
 20
29.7496809152
 10
55.0079570454
 20
29.7708797762
 10
54.9565660141
 20
29.7957438713
 10
54.9069379744
 20
29.8241249253
 10
54.859247284
 20
29.8559268436
 10
54.8137945617
 20
29.8909505723
 10
54.7708483676
 20
29.9289680438
 10
54.7305376881
 20
29.9698419734
 10
54.6929445919
 20
30.013497908
 10
54.6582512614
 20
30.0597588964
 10
54.6266402135
 20
30.1084188454
 10
54.5982153104
 20
30.1593798342
 10
54.5731108167
 20
30.2125145649
 10
54.5515278837
 20
30.2675271568
 10
54.5336454843
 20
30.3240513735
 10
54.5195726639
 20
30.3817894441
 10
54.5093760384
 20
30.4405266115
 10
54.5031197569
 20
30.5
  0
LINE
  5
2B2
100
AcDbEntity
  8
RACCORDO
100
AcDbLine
 62
7
  6
CONTINUOUS
 10
43.8
 20
46.75
 11
43.8
 21
46.7
  0
LINE
  5
2B3
100
AcDbEntity
  8
RACCORDO
100
AcDbLine
 62
7
  6
CONTINUOUS
 10
43.8
 20
-46.75
 11
43.8
 21
-46.7
  0
LINE
  5
2B4
100
AcDbEntity
  8
RACCORDO
100
AcDbLine
 62
250
  6
CONTINUOUS
 10
44.9
 20
-46.95
 11
44.9
 21
-45.5690969831
  0
LINE
  5
2B5
100
AcDbEntity
  8
RACCORDO
100
AcDbLine
 62
250
  6
CONTINUOUS
 10
44.9
 20
45.5690969831
 11
44.9
 21
46.95
  0
LINE
  5
2B6
100
AcDbEntity
  8
RACCORDO
100
AcDbLine
 62
7
  6
CONTINUOUS
 10
45.1
 20
46.75
 11
45.1
 21
45.5708423567
  0
LINE
  5
2B7
100
AcDbEntity
  8
RACCORDO
100
AcDbLine
 62
7
  6
CONTINUOUS
 10
45.1
 20
-46.75
 11
45.1
 21
-45.5708423567
  0
LINE
  5
2B8
100
AcDbEntity
  8
RACCORDO
100
AcDbLine
 62
250
  6
CONTINUOUS
 10
-67.6137435054
 20
44.4207021523
 11
67.6137435054
 21
44.4207021523
  0
LINE
  5
2B9
100
AcDbEntity
  8
RACCORDO
100
AcDbLine
 62
250
  6
CONTINUOUS
 10
-67.4206716908
 20
45.4206640754
 11
67.4206716908
 21
45.4206640754
  0
LINE
  5
2BA
100
AcDbEntity
  8
RACCORDO
100
AcDbLine
 62
7
  6
CONTINUOUS
 10
32.6
 20
45.5690969831
 11
44.9
 21
45.5690969831
  0
LINE
  5
2BB
100
AcDbEntity
  8
RACCORDO
100
AcDbLine
 62
7
  6
CONTINUOUS
 10
-32.6
 20
45.5690969831
 11
-44.9
 21
45.5690969831
  0
LINE
  5
2BC
100
AcDbEntity
  8
RACCORDO
100
AcDbLine
 62
7
  6
CONTINUOUS
 10
67.7000076154
 20
45.7
 11
45.1
 21
45.7
  0
LINE
  5
2BD
100
AcDbEntity
  8
DRAFT
100
AcDbLine
 62
7
  6
CONTINUOUS
 10
32.4
 20
45.7
 11
-32.4
 21
45.7
  0
LINE
  5
2BE
100
AcDbEntity
  8
RACCORDO
100
AcDbLine
 62
7
  6
CONTINUOUS
 10
-45.1
 20
45.7
 11
-67.7000076154
 21
45.7
  0
LINE
  5
2BF
100
AcDbEntity
  8
0
100
AcDbLine
 62
7
  6
CONTINUOUS
 10
43.8
 20
46.7
 11
33.7
 21
46.7
  0
LINE
  5
2C0
100
AcDbEntity
  8
0
100
AcDbLine
 62
7
  6
CONTINUOUS
 10
-33.7
 20
46.7
 11
-43.8
 21
46.7
  0
LINE
  5
2C1
100
AcDbEntity
  8
RACCORDO
100
AcDbLine
 62
250
  6
CONTINUOUS
 10
45.1
 20
46.75
 11
43.8
 21
46.75
  0
LINE
  5
2C2
100
AcDbEntity
  8
RACCORDO
100
AcDbLine
 62
250
  6
CONTINUOUS
 10
33.7
 20
46.75
 11
32.4
 21
46.75
  0
LINE
  5
2C3
100
AcDbEntity
  8
RACCORDO
100
AcDbLine
 62
250
  6
CONTINUOUS
 10
-32.4
 20
46.75
 11
-33.7
 21
46.75
  0
LINE
  5
2C4
100
AcDbEntity
  8
RACCORDO
100
AcDbLine
 62
250
  6
CONTINUOUS
 10
-43.8
 20
46.75
 11
-45.1
 21
46.75
  0
LINE
  5
2C5
100
AcDbEntity
  8
RACCORDO
100
AcDbLine
 62
7
  6
CONTINUOUS
 10
-44.9
 20
46.95
 11
-44.0
 21
46.95
  0
LINE
  5
2C6
100
AcDbEntity
  8
RACCORDO
100
AcDbLine
 62
7
  6
CONTINUOUS
 10
44.9
 20
46.95
 11
44.0
 21
46.95
  0
LINE
  5
2C7
100
AcDbEntity
  8
RACCORDO
100
AcDbLine
 62
7
  6
CONTINUOUS
 10
-33.5
 20
46.95
 11
-32.6
 21
46.95
  0
LINE
  5
2C8
100
AcDbEntity
  8
RACCORDO
100
AcDbLine
 62
7
  6
CONTINUOUS
 10
33.5
 20
46.95
 11
32.6
 21
46.95
  0
LINE
  5
2C9
100
AcDbEntity
  8
SMUSSO
100
AcDbLine
 62
7
  6
CONTINUOUS
 10
69.6999923849
 20
47.7
 11
-69.6999923849
 21
47.7
  0
LWPOLYLINE
  5
2CA
100
AcDbEntity
  8
RACCORDO
100
AcDbPolyline
 62
250
  6
CONTINUOUS
 90
16
 70
0
 10
67.4206716908
 20
45.4206640754
 10
67.4415759874
 20
45.4195669673
 10
67.4622512275
 20
45.4162908545
 10
67.4824709044
 20
45.4108716405
 10
67.502013513
 20
45.4033687035
 10
67.5206649504
 20
45.393864255
 10
67.538220866
 20
45.3824624468
 10
67.554488938
 20
45.3692882083
 10
67.5692909598
 20
45.3544858822
 10
67.5824647747
 20
45.338217662
 10
67.5938660812
 20
45.3206617876
 10
67.6033700021
 20
45.3020105967
 10
67.6108724427
 20
45.2824684358
 10
67.6162912428
 20
45.2622494011
 10
67.6195670721
 20
45.2415749909
 10
67.6206640754
 20
45.2206716908
  0
LWPOLYLINE
  5
2CB
100
AcDbEntity
  8
0
100
AcDbPolyline
 62
7
  6
CONTINUOUS
 90
47
 70
0
 10
54.7853715492
 20
29.1867095266
 10
54.869046592
 20
29.1507081566
 10
54.954817068
 20
29.1200318275
 10
55.0423444801
 20
29.0948016051
 10
55.1312833975
 20
29.0751170618
 10
55.2212828188
 20
29.0610558839
 10
55.3119875571
 20
29.0526735648
 10
55.4030396423
 20
29.050003186
 10
55.4940797329
 20
29.0530552865
 10
55.5847485351
 20
29.0618178214
 10
55.6746882203
 20
29.0762562093
 10
55.7635438372
 20
29.0963134686
 10
55.850964713
 20
29.1219104428
 10
55.9366058369
 20
29.1529461125
 10
56.0201292223
 20
29.1892979944
 10
56.10120524
 20
29.2308226242
 10
56.1795139196
 20
29.2773561233
 10
56.254746212
 20
29.3287148455
 10
56.3266052091
 20
29.3846961013
 10
56.3948073159
 20
29.4450789583
 10
56.4590833693
 20
29.5096251129
 10
56.5191797004
 20
29.5780798309
 10
56.5748591361
 20
29.6501729527
 10
56.6259019345
 20
29.7256199595
 10
56.6721066523
 20
29.8041230963
 10
56.7132909402
 20
29.8853725467
 10
56.7492922621
 20
29.9690476561
 10
56.7799685366
 20
30.0548181966
 10
56.805198698
 20
30.1423456708
 10
56.8248831739
 20
30.2312846473
 10
56.8389442782
 20
30.3212841241
 10
56.8473265177
 20
30.4119889139
 10
56.849996811
 20
30.5030410458
 10
56.8469446195
 20
30.594081178
 10
56.8381819883
 20
30.684750016
 10
56.8237434993
 20
30.7746897308
 10
56.8036861342
 20
30.8635453706
 10
56.7780890502
 20
30.9509662622
 10
56.747053267
 20
31.0366073944
 10
56.7107012687
 20
31.12013078
 10
56.6691765197
 20
31.2012067896
 10
56.6226428994
 20
31.2795154524
 10
56.5712840547
 20
31.354747719
 10
56.5153026757
 20
31.4266066812
 10
56.4549196953
 20
31.4948087436
 10
56.390373418
 20
31.5590847431
 10
56.3219185786
 20
31.6191810106
  0
LWPOLYLINE
  5
2CC
100
AcDbEntity
  8
0
100
AcDbPolyline
 62
7
  6
CONTINUOUS
 90
37
 70
0
 10
54.5031197569
 20
-30.5
 10
54.5008657878
 20
-30.4427355778
 10
54.5022824071
 20
-30.3851567655
 10
54.5074022699
 20
-30.3274995328
 10
54.5162612051
 20
-30.2699044655
 10
54.5288555935
 20
-30.2127128296
 10
54.5450784368
 20
-30.1564561041
 10
54.5647831352
 20
-30.1015156999
 10
54.5879110259
 20
-30.0479496617
 10
54.6144435046
 20
-29.9957958218
 10
54.6442975347
 20
-29.9452557602
 10
54.6773613736
 20
-29.8965525177
 10
54.7136117768
 20
-29.8497729946
 10
54.7529444698
 20
-29.8051238231
 10
54.7952335634
 20
-29.7628149569
 10
54.8404452555
 20
-29.7229601334
 10
54.8885809044
 20
-29.6856717492
 10
54.9393711286
 20
-29.6512673281
 10
54.9923289858
 20
-29.620120153
 10
55.0471928071
 20
-29.5923797034
 10
55.1037830933
 20
-29.5681321036
 10
55.1616643125
 20
-29.5475419675
 10
55.2203781453
 20
-29.5307070097
 10
55.2798830206
 20
-29.5175747558
 10
55.3403740432
 20
-29.5081007234
 10
55.4016777184
 20
-29.5023564246
 10
55.4635126606
 20
-29.5004123877
 10
55.5259312775
 20
-29.5023332331
 10
55.5888857563
 20
-29.5082296569
 10
55.6519285715
 20
-29.5181737814
 10
55.7145080733
 20
-29.5321476384
 10
55.7763999544
 20
-29.5501461206
 10
55.8373098568
 20
-29.5721294902
 10
55.8966081941
 20
-29.5978724306
 10
55.9539499525
 20
-29.627170465
 10
56.0092511469
 20
-29.6599239106
 10
56.0623138244
 20
-29.6959712359
  0
LWPOLYLINE
  5
2CD
100
AcDbEntity
  8
0
100
AcDbPolyline
 62
7
  6
CONTINUOUS
 90
37
 70
0
 10
54.5031197569
 20
30.5
 10
54.5008657878
 20
30.5572644222
 10
54.5022824071
 20
30.6148432345
 10
54.5074022699
 20
30.6725004672
 10
54.5162612051
 20
30.7300955345
 10
54.5288555935
 20
30.7872871704
 10
54.5450784368
 20
30.8435438959
 10
54.5647831352
 20
30.8984843001
 10
54.5879110259
 20
30.9520503383
 10
54.6144435046
 20
31.0042041782
 10
54.6442975347
 20
31.0547442398
 10
54.6773613736
 20
31.1034474823
 10
54.7136117768
 20
31.1502270054
 10
54.7529444698
 20
31.1948761769
 10
54.7952335634
 20
31.2371850431
 10
54.8404452555
 20
31.2770398666
 10
54.8885809044
 20
31.3143282508
 10
54.9393711286
 20
31.3487326719
 10
54.9923289858
 20
31.379879847
 10
55.0471928071
 20
31.4076202966
 10
55.1037830933
 20
31.4318678964
 10
55.1616643125
 20
31.4524580325
 10
55.2203781453
 20
31.4692929903
 10
55.2798830206
 20
31.4824252442
 10
55.3403740432
 20
31.4918992766
 10
55.4016777184
 20
31.4976435754
 10
55.4635126606
 20
31.4995876123
 10
55.5259312775
 20
31.4976667669
 10
55.5888857563
 20
31.4917703431
 10
55.6519285715
 20
31.4818262186
 10
55.7145080733
 20
31.4678523616
 10
55.7763999544
 20
31.4498538794
 10
55.8373098568
 20
31.4278705098
 10
55.8966081941
 20
31.4021275694
 10
55.9539499525
 20
31.372829535
 10
56.0092511469
 20
31.3400760894
 10
56.0623138244
 20
31.3040287641
  0
LWPOLYLINE
  5
2CE
100
AcDbEntity
  8
0
100
AcDbPolyline
 62
7
  6
CONTINUOUS
 90
50
 70
0
 10
56.0958774523
 20
31.7721063522
 10
56.0146281086
 20
31.8132906335
 10
55.9309531096
 20
31.8492919608
 10
55.8451826819
 20
31.8799682532
 10
55.7576553221
 20
31.9051984453
 10
55.6687164602
 20
31.924882965
 10
55.5787170971
 20
31.9389441265
 10
55.4880124189
 20
31.9473264366
 10
55.3969603952
 20
31.9499968141
 10
55.3059203666
 20
31.9469447199
 10
55.2152516262
 20
31.9381821993
 10
55.125312002
 20
31.9237438336
 10
55.0364564443
 20
31.9036866043
 10
54.9490356252
 20
31.8780896679
 10
54.8633945548
 20
31.8470540435
 10
54.779871219
 20
31.8107022144
 10
54.6987952461
 20
31.7691776444
 10
54.6204866061
 20
31.7226442118
 10
54.5452543471
 20
31.6712855625
 10
54.4733953766
 20
31.6153043854
 10
54.4051932892
 20
31.5549216123
 10
54.3409172472
 20
31.4903755463
 10
54.2808209189
 20
31.4219209209
 10
54.2251414772
 20
31.3498278951
 10
54.1740986634
 20
31.2743809869
 10
54.1278939203
 20
31.1958779505
 10
54.0867095971
 20
31.1146286014
 10
54.0507082296
 20
31.0309535935
 10
54.020031899
 20
30.9451831536
 10
53.9948016708
 20
30.8576557783
 10
53.9751171176
 20
30.7687168981
 10
53.9610559253
 20
30.678717514
 10
53.9526735873
 20
30.5880128123
 10
53.9500031852
 20
30.4969607631
 10
53.9530552579
 20
30.4059207072
 10
53.9618177607
 20
30.315251938
 10
53.976256112
 20
30.2253122837
 10
53.9963133307
 20
30.1364566952
 10
54.0219102602
 20
30.049035845
 10
54.0529458814
 20
29.9633947432
 10
54.0892977111
 20
29.8798713763
 10
54.1308222855
 20
29.798795373
 10
54.1773557262
 20
29.7204867034
 10
54.2287143871
 20
29.6452544162
 10
54.2846955793
 20
29.5733954192
 10
54.3450783707
 20
29.5051933072
 10
54.4096244582
 20
29.440917243
 10
54.478079108
 20
29.3808208951
 10
54.5501721609
 20
29.3251414367
 10
54.6256190986
 20
29.2740986094
  0
LWPOLYLINE
  5
2CF
100
AcDbEntity
  8
0
100
AcDbPolyline
 62
7
  6
CONTINUOUS
 90
49
 70
0
 10
56.2490034965
 20
31.6628202956
 10
56.1741580201
 20
31.7017921332
 10
56.097676704
 20
31.7360211166
 10
56.0198562593
 20
31.7654502092
 10
55.94099442
 20
31.7900407356
 10
55.8613888171
 20
31.8097723035
 10
55.7813358661
 20
31.8246426568
 10
55.7011296708
 20
31.8346674616
 10
55.6210609489
 20
31.8398800272
 10
55.5414159814
 20
31.8403309616
 10
55.4624755918
 20
31.8360877668
 10
55.3845141568
 20
31.8272343727
 10
55.3077986531
 20
31.8138706146
 10
55.2325877427
 20
31.7961116551
 10
55.1591309015
 20
31.7740873548
 10
55.0876675922
 20
31.7479415926
 10
55.0184264851
 20
31.7178315412
 10
54.9516247298
 20
31.6839268994
 10
54.8874672792
 20
31.6464090848
 10
54.8261462682
 20
31.6054703908
 10
54.76784045
 20
31.561313112
 10
54.7127146891
 20
31.5141486407
 10
54.6609195157
 20
31.4641965383
 10
54.6125907392
 20
31.411683587
 10
54.5678491247
 20
31.3568428239
 10
54.5268001312
 20
31.2999125625
 10
54.4895337121
 20
31.2411354053
 10
54.4561241795
 20
31.180757251
 10
54.4266301302
 20
31.1190263016
 10
54.4010944346
 20
31.0561920714
 10
54.3795442871
 20
30.9925044034
 10
54.3619913174
 20
30.9282124961
 10
54.3484317616
 20
30.8635639445
 10
54.338846692
 20
30.7988037993
 10
54.3332023035
 20
30.7341736474
 10
54.3314502555
 20
30.6699107175
 10
54.3335280671
 20
30.6062470134
 10
54.3393595635
 20
30.5434084794
 10
54.348855371
 20
30.4816141994
 10
54.3619134587
 20
30.4210756337
 10
54.3784197237
 20
30.3619958953
 10
54.3982486172
 20
30.3045690683
 10
54.4212638089
 20
30.248979572
 10
54.4473188858
 20
30.1954015698
 10
54.4762580829
 20
30.1439984288
 10
54.5079170428
 20
30.094922228
 10
54.5421235993
 20
30.048313319
 10
54.578698584
 20
30.0042999392
 10
54.6174566496
 20
29.9629978794
  0
LWPOLYLINE
  5
2D0
100
AcDbEntity
  8
0
100
AcDbPolyline
 62
7
  6
CONTINUOUS
 90
11
 70
0
 10
54.7904437742
 20
29.826769003
 10
54.837180011
 20
29.8003084118
 10
54.8849050324
 20
29.7769808158
 10
54.9334140912
 20
29.7568101988
 10
54.9825030806
 20
29.7398074228
 10
55.0319693613
 20
29.7259703886
 10
55.0816125734
 20
29.7152842477
 10
55.1312354273
 20
29.7077216642
 10
55.1806444715
 20
29.7032431252
 10
55.2296508357
 20
29.7017972984
 10
55.2780709433
 20
29.7033214338
  0
LWPOLYLINE
  5
2D1
100
AcDbEntity
  8
0
100
AcDbPolyline
 62
7
  6
CONTINUOUS
 90
3
 70
0
 10
54.6256190986
 20
29.2740986094
 10
54.7041221666
 20
29.2278938562
 10
54.7853715492
 20
29.1867095266
  0
LINE
  5
2D2
100
AcDbEntity
  8
0
100
AcDbLine
 62
7
  6
CONTINUOUS
 10
56.3219185786
 20
31.6191810106
 11
56.2490034965
 21
31.6628202956
  0
LWPOLYLINE
  5
2D3
100
AcDbEntity
  8
0
100
AcDbPolyline
 62
7
  6
CONTINUOUS
 90
10
 70
0
 10
56.0623138244
 20
31.3040287641
 10
56.1004838779
 20
31.2797560352
 10
56.1377683095
 20
31.2536906091
 10
56.1740834951
 20
31.2258649515
 10
56.2093598417
 20
31.1963041865
 10
56.2435026597
 20
31.165058488
 10
56.2763966248
 20
31.1322092073
 10
56.3079568835
 20
31.0978223626
 10
56.33812492
 20
31.0619423428
 10
56.3668323941
 20
31.024628556
  0
LINE
  5
2D4
100
AcDbEntity
  8
0
100
AcDbLine
 62
7
  6
CONTINUOUS
 10
54.7449008678
 20
29.8563253765
 11
54.7904437742
 21
29.826769003
  0
LINE
  5
2D5
100
AcDbEntity
  8
0
100
AcDbLine
 62
7
  6
CONTINUOUS
 10
54.7007547853
 20
29.8889270368
 11
54.7449008678
 21
29.8563253765
  0
LWPOLYLINE
  5
2D6
100
AcDbEntity
  8
RACCORDO
100
AcDbPolyline
 62
250
  6
CONTINUOUS
 90
7
 70
0
 10
67.4206716908
 20
45.4206640754
 10
67.4202138496
 20
45.417970984
 10
67.4197625
 20
45.4110511088
 10
67.4193176421
 20
45.3999489752
 10
67.4188776703
 20
45.3847344569
 10
67.4184441901
 20
45.3654823775
 10
67.4176110569
 20
45.3151287812
  0
LWPOLYLINE
  5
2D7
100
AcDbEntity
  8
RACCORDO
100
AcDbPolyline
 62
250
  6
CONTINUOUS
 90
7
 70
0
 10
67.6206640754
 20
45.2206716908
 10
67.6202062489
 20
45.2184347949
 10
67.6197549075
 20
45.2129107682
 10
67.619310051
 20
45.2040996106
 10
67.61887007
 20
45.1919385393
 10
67.6184365739
 20
45.1764903371
 10
67.6176034321
 20
45.1362556057
  0
LINE
  5
2D8
100
AcDbEntity
  8
0
100
AcDbLine
 62
7
  6
CONTINUOUS
 10
56.0623138244
 20
-29.6959712359
 11
56.3219185786
 21
-29.3808189894
  0
LWPOLYLINE
  5
2D9
100
AcDbEntity
  8
0
100
AcDbPolyline
 62
7
  6
CONTINUOUS
 90
3
 70
0
 10
56.2498273974
 20
31.6748588828
 10
56.174380487
 20
31.7259016524
 10
56.0958774523
 20
31.7721063522
  0
LINE
  5
2DA
100
AcDbEntity
  8
0
100
AcDbLine
 62
7
  6
CONTINUOUS
 10
56.3219204293
 20
31.6191794861
 11
56.2498273974
 21
31.6748588828
  0
LINE
  5
2DB
100
AcDbEntity
  8
0
100
AcDbLine
 62
7
  6
CONTINUOUS
 10
54.6582071091
 20
29.9245102057
 11
54.7007547853
 21
29.8889270368
  0
LINE
  5
2DC
100
AcDbEntity
  8
0
100
AcDbLine
 62
7
  6
CONTINUOUS
 10
54.6174566496
 20
29.9629978794
 11
54.6582071091
 21
29.9245102057
  0
LWPOLYLINE
  5
2DD
100
AcDbEntity
  8
RACCORDO
100
AcDbPolyline
 62
250
  6
CONTINUOUS
 90
6
 70
0
 10
67.6206640754
 20
-45.2206716908
 10
67.6202126354
 20
-45.2184318396
 10
67.6197689282
 20
-45.2130873394
 10
67.6193329537
 20
-45.2046381901
 10
67.6189039653
 20
-45.1930407707
 10
67.6184827095
 20
-45.1783387022
  0
LWPOLYLINE
  5
2DE
100
AcDbEntity
  8
RACCORDO
100
AcDbPolyline
 62
250
  6
CONTINUOUS
 90
6
 70
0
 10
67.4206716908
 20
-45.4206640754
 10
67.420220236
 20
-45.4180353955
 10
67.4197765207
 20
-45.4113254449
 10
67.4193405448
 20
-45.4006221996
 10
67.4189115656
 20
-45.3860644467
 10
67.4184903259
 20
-45.3677501538
  0
LINE
  5
2DF
100
AcDbEntity
  8
RACCORDO
100
AcDbLine
 62
250
  6
CONTINUOUS
 10
67.6184827095
 20
-45.1783387022
 11
67.6176690955
 21
-45.1399583443
  0
LINE
  5
2E0
100
AcDbEntity
  8
RACCORDO
100
AcDbLine
 62
250
  6
CONTINUOUS
 10
67.4184903259
 20
-45.3677501538
 11
67.4176767205
 21
-45.319771335
  0
LINE
  5
2E1
100
AcDbEntity
  8
RACCORDO
100
AcDbLine
 62
250
  6
CONTINUOUS
 10
67.6176690955
 20
-45.1399583443
 11
67.6165380879
 21
-45.0608369479
  0
LINE
  5
2E2
100
AcDbEntity
  8
RACCORDO
100
AcDbLine
 62
250
  6
CONTINUOUS
 10
67.4176767205
 20
-45.319771335
 11
67.4165456996
 21
-45.2208472757
  0
LINE
  5
2E3
100
AcDbEntity
  8
RACCORDO
100
AcDbLine
 62
250
  6
CONTINUOUS
 10
67.6165380879
 20
-45.0608369479
 11
67.6152742814
 21
-44.9206810481
  0
LINE
  5
2E4
100
AcDbEntity
  8
RACCORDO
100
AcDbLine
 62
250
  6
CONTINUOUS
 10
67.4165456996
 20
-45.2208472757
 11
67.4147735882
 21
-44.9417078937
  0
LINE
  5
2E5
100
AcDbEntity
  8
RACCORDO
100
AcDbLine
 62
250
  6
CONTINUOUS
 10
67.6152742814
 20
-44.9206810481
 11
67.6140200093
 21
-44.6435923541
  0
LINE
  5
2E6
100
AcDbEntity
  8
RACCORDO
100
AcDbLine
 62
250
  6
CONTINUOUS
 10
67.4147735882
 20
-44.9417078937
 11
67.4138246926
 21
-44.5631977534
  0
LINE
  5
2E7
100
AcDbEntity
  8
RACCORDO
100
AcDbLine
 62
250
  6
CONTINUOUS
 10
67.6140200093
 20
-44.6435923541
 11
67.6137435054
 21
-44.4207021523
  0
LINE
  5
2E8
100
AcDbEntity
  8
RACCORDO
100
AcDbLine
 62
250
  6
CONTINUOUS
 10
67.4138246926
 20
-44.5631977534
 11
67.413751121
 21
-44.4207021523
  0
LINE
  5
2E9
100
AcDbEntity
  8
SMUSSO
100
AcDbLine
 62
250
  6
CONTINUOUS
 10
67.4137511208
 20
44.4207021523
 11
67.4137511208
 21
35.9000152311
  0
LINE
  5
2EA
100
AcDbEntity
  8
SMUSSO
100
AcDbLine
 62
250
  6
CONTINUOUS
 10
67.4137511208
 20
-44.4207021523
 11
67.4137511208
 21
-35.9000152311
  0
LINE
  5
2EB
100
AcDbEntity
  8
SMUSSO
100
AcDbLine
 62
7
  6
CONTINUOUS
 10
67.6137435054
 20
44.4207021523
 11
67.6137435054
 21
35.9000152311
  0
LINE
  5
2EC
100
AcDbEntity
  8
SMUSSO
100
AcDbLine
 62
7
  6
CONTINUOUS
 10
67.6137435054
 20
-44.4207021523
 11
67.6137435054
 21
-35.9000152311
  0
LINE
  5
2ED
100
AcDbEntity
  8
SMUSSO
100
AcDbLine
 62
7
  6
CONTINUOUS
 10
67.9
 20
-45.5000076154
 11
67.9
 21
-35.9000152311
  0
LINE
  5
2EE
100
AcDbEntity
  8
SMUSSO
100
AcDbLine
 62
7
  6
CONTINUOUS
 10
67.9
 20
35.9000152311
 11
67.9
 21
45.5000076154
  0
LINE
  5
2EF
100
AcDbEntity
  8
RACCORDO
100
AcDbLine
 62
250
  6
CONTINUOUS
 10
67.6144619853
 20
44.7741440571
 11
67.6137435054
 21
44.4207021523
  0
LINE
  5
2F0
100
AcDbEntity
  8
RACCORDO
100
AcDbLine
 62
250
  6
CONTINUOUS
 10
67.4149232124
 20
44.9753055009
 11
67.4137511208
 21
44.4207021523
  0
LINE
  5
2F1
100
AcDbEntity
  8
RACCORDO
100
AcDbLine
 62
250
  6
CONTINUOUS
 10
67.6157744552
 20
44.9847923088
 11
67.6144619853
 21
44.7741440571
  0
LINE
  5
2F2
100
AcDbEntity
  8
RACCORDO
100
AcDbLine
 62
250
  6
CONTINUOUS
 10
67.4164615891
 20
45.2116744635
 11
67.4149232124
 21
44.9753055009
  0
LINE
  5
2F3
100
AcDbEntity
  8
RACCORDO
100
AcDbLine
 62
250
  6
CONTINUOUS
 10
67.6168205557
 20
45.0838980534
 11
67.6157744552
 21
44.9847923088
  0
LINE
  5
2F4
100
AcDbEntity
  8
RACCORDO
100
AcDbLine
 62
250
  6
CONTINUOUS
 10
67.4176110569
 20
45.3151287812
 11
67.4164615891
 21
45.2116744635
  0
LINE
  5
2F5
100
AcDbEntity
  8
RACCORDO
100
AcDbLine
 62
250
  6
CONTINUOUS
 10
67.6176034321
 20
45.1362556057
 11
67.6168205557
 21
45.0838980534
  0
LWPOLYLINE
  5
2F6
100
AcDbEntity
  8
SMUSSO
100
AcDbPolyline
 62
7
  6
CONTINUOUS
 90
4
 70
0
 10
67.5652979148
 20
-35.8491731948
 10
67.5878908847
 20
-35.834816784
 10
67.6108916844
 20
-35.8191871665
 10
67.6342799635
 20
-35.8023671939
  0
LWPOLYLINE
  5
2F7
100
AcDbEntity
  8
SMUSSO
100
AcDbPolyline
 62
7
  6
CONTINUOUS
 90
8
 70
0
 10
67.5662550668
 20
35.8485960757
 10
67.5437424901
 20
35.8614827258
 10
67.5213099762
 20
35.8728193925
 10
67.499065824
 20
35.882560191
 10
67.4771716961
 20
35.8902006239
 10
67.45568148
 20
35.8955725253
 10
67.4345412882
 20
35.898844061
 10
67.4137511208
 20
35.9000152311
  0
LINE
  5
2F8
100
AcDbEntity
  8
SMUSSO
100
AcDbLine
 62
7
  6
CONTINUOUS
 10
69.6120133629
 20
-25.4879942522
 11
69.6120133629
 21
-35.7
  0
LINE
  5
2F9
100
AcDbEntity
  8
SMUSSO
100
AcDbLine
 62
7
  6
CONTINUOUS
 10
69.6120133629
 20
25.4879942522
 11
69.6120133629
 21
35.7
  0
LINE
  5
2FA
100
AcDbEntity
  8
SMUSSO
100
AcDbLine
 62
7
  6
CONTINUOUS
 10
69.9
 20
-47.4999923849
 11
69.9
 21
-35.7
  0
LINE
  5
2FB
100
AcDbEntity
  8
SMUSSO
100
AcDbLine
 62
7
  6
CONTINUOUS
 10
69.9
 20
35.7
 11
69.9
 21
47.4999923849
  0
LWPOLYLINE
  5
2FC
100
AcDbEntity
  8
RACCORDO
100
AcDbPolyline
 62
250
  6
CONTINUOUS
 90
16
 70
0
 10
67.6206640754
 20
-45.2206716908
 10
67.6195670617
 20
-45.2415750898
 10
67.6162912049
 20
-45.2622495793
 10
67.610872366
 20
-45.2824686719
 10
67.6033698814
 20
-45.3020108678
 10
67.5938659169
 20
-45.3206620721
 10
67.5824645714
 20
-45.3382179418
 10
67.5692907269
 20
-45.3544861409
 10
67.5544886882
 20
-45.3692884332
 10
67.5382206126
 20
-45.3824626309
 10
67.5206647086
 20
-45.3938643946
 10
67.5020132988
 20
-45.4033687989
 10
67.4824707297
 20
-45.4108716973
 10
67.4622511018
 20
-45.4162908812
 10
67.4415759205
 20
-45.4195669744
 10
67.4206716908
 20
-45.4206640754
  0
LINE
  5
2FD
100
AcDbEntity
  8
SMUSSO
100
AcDbLine
 62
7
  6
CONTINUOUS
 10
67.8137511205
 20
-35.7
 11
67.6137435054
 21
-35.9000152311
  0
LINE
  5
2FE
100
AcDbEntity
  8
SMUSSO
100
AcDbLine
 62
7
  6
CONTINUOUS
 10
68.1000228473
 20
-35.7
 11
67.9
 21
-35.9000152311
  0
LWPOLYLINE
  5
2FF
100
AcDbEntity
  8
SMUSSO
100
AcDbPolyline
 62
7
  6
CONTINUOUS
 90
6
 70
0
 10
67.6342799635
 20
-35.8023671939
 10
67.6580760724
 20
-35.7842740146
 10
67.6825381988
 20
-35.7649831531
 10
67.707752405
 20
-35.7445197842
 10
67.7336326286
 20
-35.7228587332
 10
67.7601788695
 20
-35.7
  0
LWPOLYLINE
  5
300
100
AcDbEntity
  8
SMUSSO
100
AcDbPolyline
 62
7
  6
CONTINUOUS
 90
4
 70
0
 10
67.6353876276
 20
35.8015487991
 10
67.6120085387
 20
35.8184020145
 10
67.5889560053
 20
35.8341135574
 10
67.5662550668
 20
35.8485960757
  0
LWPOLYLINE
  5
301
100
AcDbEntity
  8
SMUSSO
100
AcDbPolyline
 62
7
  6
CONTINUOUS
 90
6
 70
0
 10
67.7601788695
 20
35.7
 10
67.7340089468
 20
35.7225442653
 10
67.7084289711
 20
35.7439642921
 10
67.6834389424
 20
35.7642600805
 10
67.6591183115
 20
35.783466559
 10
67.6353876276
 20
35.8015487991
  0
LINE
  5
302
100
AcDbEntity
  8
SMUSSO
100
AcDbLine
 62
7
  6
CONTINUOUS
 10
67.6137435054
 20
35.9000152311
 11
67.8137511205
 21
35.7
  0
LINE
  5
303
100
AcDbEntity
  8
SMUSSO
100
AcDbLine
 62
7
  6
CONTINUOUS
 10
67.9
 20
35.9000152311
 11
68.1000228473
 21
35.7
  0
LINE
  5
304
100
AcDbEntity
  8
SMUSSO
100
AcDbLine
 62
7
  6
CONTINUOUS
 10
69.6999923849
 20
-47.7
 11
69.9
 21
-47.4999923849
  0
LINE
  5
305
100
AcDbEntity
  8
SMUSSO
100
AcDbLine
 62
7
  6
CONTINUOUS
 10
69.9
 20
47.4999923849
 11
69.6999923849
 21
47.7
  0
CIRCLE
  5
306
100
AcDbEntity
  8
ASSI
100
AcDbCircle
 62
7
  6
CONTINUOUS
 10
55.4
 20
30.5
 40
1.65
  0
CIRCLE
  5
307
100
AcDbEntity
  8
ASSI
100
AcDbCircle
 62
7
  6
CONTINUOUS
 10
-55.4
 20
30.5
 40
1.65
  0
CIRCLE
  5
308
100
AcDbEntity
  8
ASSI
100
AcDbCircle
 62
7
  6
CONTINUOUS
 10
-55.4
 20
-30.5
 40
1.65
  0
CIRCLE
  5
309
100
AcDbEntity
  8
ASSI
100
AcDbCircle
 62
7
  6
CONTINUOUS
 10
55.4
 20
-30.5
 40
1.65
  0
ARC
  5
30A
100
AcDbEntity
  8
0
100
AcDbCircle
 62
7
  6
CONTINUOUS
 10
-55.4
 20
-30.5
 40
1.1
100
AcDbArc
 50
165.1285330383
 51
28.485415945
  0
ARC
  5
30B
100
AcDbEntity
  8
0
100
AcDbCircle
 62
7
  6
CONTINUOUS
 10
55.4
 20
-30.5
 40
1.1
100
AcDbArc
 50
165.1285330383
 51
28.485415945
  0
ARC
  5
30C
100
AcDbEntity
  8
0
100
AcDbCircle
 62
7
  6
CONTINUOUS
 10
-55.4
 20
30.5
 40
1.1
100
AcDbArc
 50
165.1285330383
 51
28.485415945
  0
ARC
  5
30D
100
AcDbEntity
  8
0
100
AcDbCircle
 62
7
  6
CONTINUOUS
 10
55.4
 20
30.5
 40
1.1
100
AcDbArc
 50
165.1285330383
 51
28.485415945
  0
ARC
  5
30E
100
AcDbEntity
  8
RACCORDO
100
AcDbCircle
 62
7
  6
CONTINUOUS
 10
44.9
 20
46.75
 40
0.2
100
AcDbArc
 50
0.0
 51
90.0
  0
ARC
  5
30F
100
AcDbEntity
  8
RACCORDO
100
AcDbCircle
 62
7
  6
CONTINUOUS
 10
32.6
 20
46.75
 40
0.2
100
AcDbArc
 50
90.0
 51
180.0
  0
ARC
  5
310
100
AcDbEntity
  8
RACCORDO
100
AcDbCircle
 62
7
  6
CONTINUOUS
 10
33.5
 20
46.75
 40
0.2
100
AcDbArc
 50
0.0
 51
90.0
  0
ARC
  5
311
100
AcDbEntity
  8
RACCORDO
100
AcDbCircle
 62
7
  6
CONTINUOUS
 10
44.0
 20
46.75
 40
0.2
100
AcDbArc
 50
90.0
 51
180.0
  0
ARC
  5
312
100
AcDbEntity
  8
RACCORDO
100
AcDbCircle
 62
7
  6
CONTINUOUS
 10
-44.0
 20
46.75
 40
0.2
100
AcDbArc
 50
0.0
 51
90.0
  0
ARC
  5
313
100
AcDbEntity
  8
RACCORDO
100
AcDbCircle
 62
7
  6
CONTINUOUS
 10
-33.5
 20
46.75
 40
0.2
100
AcDbArc
 50
90.0
 51
180.0
  0
ARC
  5
314
100
AcDbEntity
  8
RACCORDO
100
AcDbCircle
 62
7
  6
CONTINUOUS
 10
-32.6
 20
46.75
 40
0.2
100
AcDbArc
 50
0.0
 51
90.0
  0
ARC
  5
315
100
AcDbEntity
  8
RACCORDO
100
AcDbCircle
 62
7
  6
CONTINUOUS
 10
-44.9
 20
46.75
 40
0.2
100
AcDbArc
 50
90.0
 51
180.0
  0
ARC
  5
316
100
AcDbEntity
  8
RACCORDO
100
AcDbCircle
 62
7
  6
CONTINUOUS
 10
-44.9
 20
-46.75
 40
0.2
100
AcDbArc
 50
180.0
 51
270.0
  0
ARC
  5
317
100
AcDbEntity
  8
RACCORDO
100
AcDbCircle
 62
7
  6
CONTINUOUS
 10
-32.6
 20
-46.75
 40
0.2
100
AcDbArc
 50
270.0
 51
360.0
  0
ARC
  5
318
100
AcDbEntity
  8
RACCORDO
100
AcDbCircle
 62
7
  6
CONTINUOUS
 10
-33.5
 20
-46.75
 40
0.2
100
AcDbArc
 50
180.0
 51
270.0
  0
ARC
  5
319
100
AcDbEntity
  8
RACCORDO
100
AcDbCircle
 62
7
  6
CONTINUOUS
 10
-44.0
 20
-46.75
 40
0.2
100
AcDbArc
 50
270.0
 51
360.0
  0
ARC
  5
31A
100
AcDbEntity
  8
RACCORDO
100
AcDbCircle
 62
7
  6
CONTINUOUS
 10
44.0
 20
-46.75
 40
0.2
100
AcDbArc
 50
180.0
 51
270.0
  0
ARC
  5
31B
100
AcDbEntity
  8
RACCORDO
100
AcDbCircle
 62
7
  6
CONTINUOUS
 10
33.5
 20
-46.75
 40
0.2
100
AcDbArc
 50
270.0
 51
360.0
  0
ARC
  5
31C
100
AcDbEntity
  8
RACCORDO
100
AcDbCircle
 62
7
  6
CONTINUOUS
 10
32.6
 20
-46.75
 40
0.2
100
AcDbArc
 50
180.0
 51
270.0
  0
ARC
  5
31D
100
AcDbEntity
  8
RACCORDO
100
AcDbCircle
 62
7
  6
CONTINUOUS
 10
44.9
 20
-46.75
 40
0.2
100
AcDbArc
 50
270.0
 51
360.0
  0
ELLIPSE
  5
31E
100
AcDbEntity
  8
RACCORDO
100
AcDbEllipse
 62
7
  6
CONTINUOUS
 10
-67.6999923843
 20
45.4999923843
 30
0.0
 11
0.1414321262
 21
-0.1414321262
 31
0.0
 40
0.9999238505
 41
2.3562325664
 42
3.9269527408
  0
ELLIPSE
  5
31F
100
AcDbEntity
  8
RACCORDO
100
AcDbEllipse
 62
7
  6
CONTINUOUS
 10
-44.9
 20
45.5708423567
 30
0.0
 11
0.2
 21
-0.0
 31
0.0
 40
0.0087268678
 41
-3.1415926536
 42
-1.5707963268
  0
ELLIPSE
  5
320
100
AcDbEntity
  8
RACCORDO
100
AcDbEllipse
 62
7
  6
CONTINUOUS
 10
-32.6
 20
45.5708423567
 30
0.0
 11
0.2
 21
-0.0
 31
0.0
 40
0.0087268678
 41
-1.5707963268
 42
-0.0
  0
ELLIPSE
  5
321
100
AcDbEntity
  8
RACCORDO
100
AcDbEllipse
 62
7
  6
CONTINUOUS
 10
32.6
 20
45.5708423567
 30
0.0
 11
0.2
 21
0.0
 31
0.0
 40
0.0087268678
 41
3.1415926536
 42
4.7123889804
  0
ELLIPSE
  5
322
100
AcDbEntity
  8
RACCORDO
100
AcDbEllipse
 62
7
  6
CONTINUOUS
 10
44.9
 20
45.5708423567
 30
0.0
 11
0.2
 21
0.0
 31
0.0
 40
0.0087268678
 41
-1.5707963268
 42
0.0
  0
ELLIPSE
  5
323
100
AcDbEntity
  8
RACCORDO
100
AcDbEllipse
 62
7
  6
CONTINUOUS
 10
67.6999923843
 20
45.4999923843
 30
0.0
 11
0.1414321262
 21
0.1414321262
 31
0.0
 40
0.9999238505
 41
-0.7853600872
 42
0.7853600872
  0
ELLIPSE
  5
324
100
AcDbEntity
  8
RACCORDO
100
AcDbEllipse
 62
7
  6
CONTINUOUS
 10
67.6999923843
 20
-45.4999923843
 30
0.0
 11
0.1414321262
 21
-0.1414321262
 31
0.0
 40
0.9999238505
 41
-0.7853600872
 42
0.7853600872
  0
ELLIPSE
  5
325
100
AcDbEntity
  8
RACCORDO
100
AcDbEllipse
 62
7
  6
CONTINUOUS
 10
44.9
 20
-45.5708423567
 30
0.0
 11
0.2
 21
0.0
 31
0.0
 40
0.0087268678
 41
0.0
 42
1.5707963268
  0
ELLIPSE
  5
326
100
AcDbEntity
  8
RACCORDO
100
AcDbEllipse
 62
7
  6
CONTINUOUS
 10
32.6
 20
-45.5708423567
 30
0.0
 11
0.2
 21
0.0
 31
0.0
 40
0.0087268678
 41
1.5707963268
 42
3.1415926536
  0
ELLIPSE
  5
327
100
AcDbEntity
  8
RACCORDO
100
AcDbEllipse
 62
7
  6
CONTINUOUS
 10
-32.6
 20
-45.5708423567
 30
0.0
 11
0.2
 21
0.0
 31
0.0
 40
0.0087268678
 41
-0.0
 42
1.5707963268
  0
ELLIPSE
  5
328
100
AcDbEntity
  8
RACCORDO
100
AcDbEllipse
 62
7
  6
CONTINUOUS
 10
-44.9
 20
-45.5708423567
 30
0.0
 11
0.2
 21
0.0
 31
0.0
 40
0.0087268678
 41
1.5707963268
 42
3.1415926536
  0
ELLIPSE
  5
329
100
AcDbEntity
  8
RACCORDO
100
AcDbEllipse
 62
7
  6
CONTINUOUS
 10
-67.6999923843
 20
-45.4999923843
 30
0.0
 11
0.1414321262
 21
0.1414321262
 31
0.0
 40
0.9999238505
 41
2.3562325664
 42
3.9269527408
  0
ENDSEC
  0
SECTION
  2
OBJECTS
  0
DICTIONARY
  5
C
100
AcDbDictionary
280
0
281
1
  3
ACAD_GROUP
350
D
  3
ACAD_MLINESTYLE
350
17
  3
ACAD_LAYOUT
350
1A
  3
ACAD_PLOTSETTINGS
350
19
  3
ACAD_PLOTSTYLENAME
350
E
  0
DICTIONARY
  5
D
102
{ACAD_REACTORS
330
C
102
}
100
AcDbDictionary
280
0
281
1
  0
ACDBDICTIONARYWDFLT
  5
E
102
{ACAD_REACTORS
330
C
102
}
100
AcDbDictionary
281
1
  3
Normal
350
F
100
AcDbDictionaryWithDefault
340
F
  0
DICTIONARY
  5
17
102
{ACAD_REACTORS
330
C
102
}
100
AcDbDictionary
280
0
281
1
  3
Standard
350
18
  0
DICTIONARY
  5
19
102
{ACAD_REACTORS
330
C
102
}
100
AcDbDictionary
281
1
  0
DICTIONARY
  5
1A
102
{ACAD_REACTORS
330
C
102
}
100
AcDbDictionary
281
1
  3
Model
350
32A
  3
Layout1
350
32B
  0
ACDBPLACEHOLDER
  5
F
102
{ACAD_REACTORS
330
E
102
}
  0
MLINESTYLE
  5
18
102
{ACAD_REACTORS
330
17
102
}
100
AcDbMlineStyle
  2
STANDARD
 70
0
  3

 62
256
 51
90.0
 52
90.0
 71
2
 49
0.5
 62
256
  6
BYLAYER
 49
-0.5
 62
256
  6
BYLAYER
  0
LAYOUT
  5
32A
102
{ACAD_REACTORS
330
1A
102
}
100
AcDbPlotSettings
  1

  2
none_device
  4
ANSI_C_(22.00_x_17.00_Inches)
  6

 40
0.0
 41
0.0
 42
0.0
 43
0.0
 44
558.8
 45
431.8
 46
0.0
 47
0.0
 48
0.0
 49
0.0
140
0.0
141
0.0
142
1.0
143
1.0
 70
1024
 72
1
 73
0
 74
0
  7

 75
0
147
1.0
148
0.0
149
0.0
100
AcDbLayout
  1
Model
 70
0
 71
0
 10
0.0
 20
0.0
 11
558.8
 21
431.8
 12
0.0
 22
0.0
 32
0.0
 14
0.0
 24
0.0
 34
0.0
 15
0.0
 25
0.0
 35
0.0
146
0.0
 13
0.0
 23
0.0
 33
0.0
 16
1.0
 26
0.0
 36
0.0
 17
0.0
 27
1.0
 37
0.0
 76
0
330
212
345
0
346
0
  0
LAYOUT
  5
32B
102
{ACAD_REACTORS
330
1A
102
}
100
AcDbPlotSettings
  1

  2
none_device
  4
ANSI_C_(22.00_x_17.00_Inches)
  6

 40
0.0
 41
0.0
 42
0.0
 43
0.0
 44
558.8
 45
431.8
 46
0.0
 47
0.0
 48
0.0
 49
0.0
140
0.0
141
0.0
142
1.0
143
1.0
 70
0
 72
1
 73
0
 74
0
  7

 75
0
147
1.0
148
0.0
149
0.0
100
AcDbLayout
  1
Layout1
 70
0
 71
1
 10
0.0
 20
0.0
 11
558.8
 21
431.8
 12
0.0
 22
0.0
 32
0.0
 14
0.0
 24
0.0
 34
0.0
 15
0.0
 25
0.0
 35
0.0
146
0.0
 13
0.0
 23
0.0
 33
0.0
 16
1.0
 26
0.0
 36
0.0
 17
0.0
 27
1.0
 37
0.0
 76
0
330
213
345
0
346
0
  0
ENDSEC
  0
EOF
