  0
SECTION
  2
HEADER
  9
$ACADVER
  1
AC1024
  9
$DWGCODEPAGE
  3
ANSI_1252
  9
$EXTMAX
 10
558.8
 20
431.8
 30
0.0
  9
$EXTMIN
 10
0.0
 20
0.0
 30
0.0
  9
$LIMMIN
 10
0.0
 20
0.0
  9
$LIMMAX
 10
558.8
 20
431.8
  9
$VIEWCTR
 10
279.4
 20
215.9
  9
$VIEWSIZE
 40
431.8
  9
$CLAYER
  8
0
  9
$LTSCALE
 40
30.734
  9
$CELTYPE
  6
BYLAYER
  9
$DIMSCALE
 40
1.0
  9
$DIMASZ
 40
3.0
  9
$DIMEXO
 40
0.5
  9
$DIMDLI
 40
21.2344
  9
$DIMEXE
 40
1.5
  9
$DIMCEN
 40
5.0292
  9
$DIMLFAC
 40
1.0
  9
$DIMBLK
  1
_FILLED
  9
$DIMALT
 70
0
  9
$DIMALTF
 40
0.0393700787
  9
$DIMTXT
 40
3.0
  9
$DIMTOL
 70
1
  9
$DIMLIM
 70
0
  9
$DIMTFAC
 40
1.0
  9
$DIMTP
 40
0.01
  9
$DIMTM
 40
0.01
  9
$DIMGAP
 40
0.625
  9
$DIMDSEP
 70
44
  9
$AUNITS
 70
0
  9
$PDMODE
 70
3
  9
$PDSIZE
 40
3.0
  9
$HANDSEED
  5
2C5
  9
$TILEMODE
 70
1
  9
$MEASUREMENT
 70
1
  9
$INSUNITS
 70
4
  0
ENDSEC
  0
SECTION
  2
CLASSES
  0
CLASS
  1
ACDBDICTIONARYWDFLT
  2
AcDbDictionaryWithDefault
  3
AutoCAD 2000
 90
0
 91
1
280
0
281
0
  0
CLASS
  1
ACDBPLACEHOLDER
  2
AcDbPlaceHolder
  3
AutoCAD 2000
 90
0
 91
1
280
0
281
0
  0
CLASS
  1
LAYOUT
  2
AcDbLayout
  3
AutoCAD 2000
 90
0
 91
0
280
0
281
0
  0
ENDSEC
  0
SECTION
  2
TABLES
  0
TABLE
  2
VPORT
  5
8
100
AcDbSymbolTable
 70
2
  0
VPORT
  5
1F4
100
AcDbSymbolTableRecord
100
AcDbViewportTableRecord
  2
*ACTIVE
 70
0
 10
0.0
 20
0.0
 11
1.0
 21
1.0
 12
279.4
 22
215.9
 13
0.0
 23
0.0
 14
1.0
 24
1.0
 15
0.0
 25
0.0
 16
0.0
 26
0.0
 36
1.0
 17
0.0
 27
0.0
 37
0.0
 40
431.8
 41
1.2941176471
 42
50.0
 43
0.0
 44
0.0
 50
0.0
 51
0.0
 71
0
 72
100
 73
1
 74
1
 75
0
 76
0
 77
0
 78
0
  0
ENDTAB
  0
TABLE
  2
LTYPE
  5
5
100
AcDbSymbolTable
 70
6
  0
LTYPE
  5
14
100
AcDbSymbolTableRecord
100
AcDbLinetypeTableRecord
  2
BYBLOCK
 70
0
  3

 72
65
 73
0
 40
0.0
  0
LTYPE
  5
15
100
AcDbSymbolTableRecord
100
AcDbLinetypeTableRecord
  2
BYLAYER
 70
0
  3

 72
65
 73
0
 40
0.0
  0
LTYPE
  5
16
100
AcDbSymbolTableRecord
100
AcDbLinetypeTableRecord
  2
CONTINUOUS
 70
64
  3
Solid line
 72
65
 73
0
 40
0.0
  0
LTYPE
  5
1F5
100
AcDbSymbolTableRecord
100
AcDbLinetypeTableRecord
  2
CENTER
 70
64
  3
____ _ ____ _ ____ _ ____ _ ____ _ ____ _ ____
 72
65
 73
4
 40
0.6
 49
0.375
 74
0
 49
-0.075
 74
0
 49
0.075
 74
0
 49
-0.075
 74
0
  0
LTYPE
  5
1F6
100
AcDbSymbolTableRecord
100
AcDbLinetypeTableRecord
  2
HIDDEN
 70
64
  3
- - - - - - - - - - - - - - - - - - - -
 72
65
 73
2
 40
0.2
 49
0.1
 74
0
 49
-0.1
 74
0
  0
LTYPE
  5
1F7
100
AcDbSymbolTableRecord
100
AcDbLinetypeTableRecord
  2
PHANTOM
 70
64
  3
_____ _ _ _____ _ _ _____ _ _ _____
 72
65
 73
6
 40
0.8
 49
0.45
 74
0
 49
-0.05
 74
0
 49
0.1
 74
0
 49
-0.05
 74
0
 49
0.1
 74
0
 49
-0.05
 74
0
  0
LTYPE
  5
1F8
100
AcDbSymbolTableRecord
100
AcDbLinetypeTableRecord
  2
DOT
 70
64
  3
. . . . . . . . . . . . . . . . . . . .
 72
65
 73
2
 40
0.2
 49
0.1
 74
0
 49
-0.1
 74
0
  0
LTYPE
  5
1F9
100
AcDbSymbolTableRecord
100
AcDbLinetypeTableRecord
  2
DASHED
 70
64
  3
- - - - - - - - - - - - - - - - - - - -
 72
65
 73
2
 40
0.2
 49
0.1
 74
0
 49
-0.1
 74
0
  0
ENDTAB
  0
TABLE
  2
LAYER
  5
2
100
AcDbSymbolTable
 70
36
  0
LAYER
  5
10
100
AcDbSymbolTableRecord
100
AcDbLayerTableRecord
  2
0
 70
0
 62
7
  6
CONTINUOUS
370
-3
390
F
  0
LAYER
  5
1FA
100
AcDbSymbolTableRecord
100
AcDbLayerTableRecord
  2
DEFAULT_1
 70
0
 62
7
  6
CENTER
370
-3
390
F
  0
LAYER
  5
1FB
100
AcDbSymbolTableRecord
100
AcDbLayerTableRecord
  2
DEFAULT_2
 70
0
 62
7
  6
HIDDEN
370
-3
390
F
  0
LAYER
  5
1FC
100
AcDbSymbolTableRecord
100
AcDbLayerTableRecord
  2
DEFAULT_3
 70
0
 62
7
  6
PHANTOM
370
-3
390
F
  0
LAYER
  5
1FD
100
AcDbSymbolTableRecord
100
AcDbLayerTableRecord
  2
ASSI
 70
0
 62
7
  6
CONTINUOUS
370
-3
390
F
  0
LAYER
  5
1FE
100
AcDbSymbolTableRecord
100
AcDbLayerTableRecord
  2
COLOR5
 70
0
 62
7
  6
CONTINUOUS
370
-3
390
F
  0
LAYER
  5
1FF
100
AcDbSymbolTableRecord
100
AcDbLayerTableRecord
  2
COORDINATE
 70
0
 62
7
  6
CONTINUOUS
370
-3
390
F
  0
LAYER
  5
200
100
AcDbSymbolTableRecord
100
AcDbLayerTableRecord
  2
COORD_ORIGINE
 70
0
 62
7
  6
CONTINUOUS
370
-3
390
F
  0
LAYER
  5
201
100
AcDbSymbolTableRecord
100
AcDbLayerTableRecord
  2
COPY_PUBLISH
 70
0
 62
7
  6
CONTINUOUS
370
-3
390
F
  0
LAYER
  5
202
100
AcDbSymbolTableRecord
100
AcDbLayerTableRecord
  2
COSMETICI
 70
0
 62
7
  6
CONTINUOUS
370
-3
390
F
  0
LAYER
  5
203
100
AcDbSymbolTableRecord
100
AcDbLayerTableRecord
  2
CURVE
 70
0
 62
7
  6
CONTINUOUS
370
-3
390
F
  0
LAYER
  5
204
100
AcDbSymbolTableRecord
100
AcDbLayerTableRecord
  2
DRAFT
 70
0
 62
7
  6
CONTINUOUS
370
-3
390
F
  0
LAYER
  5
205
100
AcDbSymbolTableRecord
100
AcDbLayerTableRecord
  2
IMPORT_IGES
 70
0
 62
7
  6
CONTINUOUS
370
-3
390
F
  0
LAYER
  5
206
100
AcDbSymbolTableRecord
100
AcDbLayerTableRecord
  2
NOTE
 70
0
 62
7
  6
CONTINUOUS
370
-3
390
F
  0
LAYER
  5
207
100
AcDbSymbolTableRecord
100
AcDbLayerTableRecord
  2
PIANI
 70
0
 62
7
  6
CONTINUOUS
370
-3
390
F
  0
LAYER
  5
208
100
AcDbSymbolTableRecord
100
AcDbLayerTableRecord
  2
PIANI_ORIGINE
 70
0
 62
7
  6
CONTINUOUS
370
-3
390
F
  0
LAYER
  5
209
100
AcDbSymbolTableRecord
100
AcDbLayerTableRecord
  2
PUNTI
 70
0
 62
7
  6
CONTINUOUS
370
-3
390
F
  0
LAYER
  5
20A
100
AcDbSymbolTableRecord
100
AcDbLayerTableRecord
  2
RACCORDO
 70
0
 62
7
  6
CONTINUOUS
370
-3
390
F
  0
LAYER
  5
20B
100
AcDbSymbolTableRecord
100
AcDbLayerTableRecord
  2
SIMBOLI
 70
0
 62
7
  6
CONTINUOUS
370
-3
390
F
  0
LAYER
  5
20C
100
AcDbSymbolTableRecord
100
AcDbLayerTableRecord
  2
SMUSSO
 70
0
 62
7
  6
CONTINUOUS
370
-3
390
F
  0
LAYER
  5
20D
100
AcDbSymbolTableRecord
100
AcDbLayerTableRecord
  2
SNAPLINE
 70
0
 62
7
  6
CONTINUOUS
370
-3
390
F
  0
LAYER
  5
20E
100
AcDbSymbolTableRecord
100
AcDbLayerTableRecord
  2
SUPERFICI
 70
0
 62
7
  6
CONTINUOUS
370
-3
390
F
  0
LAYER
  5
20F
100
AcDbSymbolTableRecord
100
AcDbLayerTableRecord
  2
TRASH
 70
0
 62
7
  6
CONTINUOUS
370
-3
390
F
  0
ENDTAB
  0
TABLE
  2
STYLE
  5
3
100
AcDbSymbolTable
 70
1
  0
STYLE
  5
11
100
AcDbSymbolTableRecord
100
AcDbTextStyleTableRecord
  2
STANDARD
 70
0
 40
0.0
 41
0.8
 50
0.0
 71
0
 42
0.2
  3
txt
  4

  0
STYLE
  5
210
100
AcDbSymbolTableRecord
100
AcDbTextStyleTableRecord
  2
TEXTSTYLE_1
 70
0
 40
0.0
 41
0.8
 50
0.0
 71
0
 42
0.2
  3
gdt
  4

  0
ENDTAB
  0
TABLE
  2
VIEW
  5
6
100
AcDbSymbolTable
 70
0
  0
ENDTAB
  0
TABLE
  2
UCS
  5
7
100
AcDbSymbolTable
 70
0
  0
ENDTAB
  0
TABLE
  2
APPID
  5
9
100
AcDbSymbolTable
 70
1
  0
APPID
  5
211
100
AcDbSymbolTableRecord
100
AcDbRegAppTableRecord
  2
ACAD
 70
0
  0
ENDTAB
  0
TABLE
  2
BLOCK_RECORD
  5
1
100
AcDbSymbolTable
 70
0
  0
BLOCK_RECORD
  5
212
100
AcDbSymbolTableRecord
100
AcDbBlockTableRecord
  2
*Model_Space
  0
BLOCK_RECORD
  5
213
100
AcDbSymbolTableRecord
100
AcDbBlockTableRecord
  2
*Paper_Space
  0
BLOCK_RECORD
  5
214
100
AcDbSymbolTableRecord
100
AcDbBlockTableRecord
  2
_FILLED
  0
ENDTAB
  0
TABLE
  2
DIMSTYLE
  5
A
100
AcDbSymbolTable
 70
1
100
AcDbDimStyleTable
 71
0
  0
DIMSTYLE
105
215
100
AcDbSymbolTableRecord
100
AcDbDimStyleTableRecord
  2
STANDARD
 70
0
  3

  4

 40
1.0
 41
3.0
 42
0.5
 43
0.38
 44
1.5
 45
0.0
 46
0.0
 47
0.01
 48
0.01
140
3.0
141
0.09
142
0.0
143
25.4
144
1.0
145
0.0
146
1.0
147
0.625
 71
1
 72
0
 73
0
 74
0
 75
0
 76
0
 77
1
 78
8
 79
2
170
0
171
1
172
0
173
0
174
0
175
0
176
0
177
0
178
0
270
2
179
2
271
2
272
2
273
2
274
2
275
0
280
0
281
0
282
0
283
1
284
8
285
0
286
0
287
3
288
0
340
11
278
44
341
214
342
214
343
214
344
214
  0
ENDTAB
  0
ENDSEC
  0
SECTION
  2
BLOCKS
  0
BLOCK
  5
20
100
AcDbEntity
  8
0
100
AcDbBlockBegin
  2
*Model_Space
 70
0
 10
0.0
 20
0.0
 30
0.0
  3
*Model_Space
  1

  0
ENDBLK
  5
21
100
AcDbEntity
  8
0
100
AcDbBlockEnd
  0
BLOCK
  5
1C
100
AcDbEntity
  8
0
100
AcDbBlockBegin
  2
*Paper_Space
 70
0
 10
0.0
 20
0.0
 30
0.0
  3
*Paper_Space
  1

  0
ENDBLK
  5
1D
100
AcDbEntity
  8
0
100
AcDbBlockEnd
  0
BLOCK
  5
216
100
AcDbEntity
  8
0
100
AcDbBlockBegin
  2
_FILLED
 70
64
 10
0.0
 20
0.0
  3
_FILLED
  1

  0
SOLID
  5
217
100
AcDbEntity
  8
0
  6
BYBLOCK
 62
0
100
AcDbTrace
 10
0.0
 20
0.0
 11
-1.0
 21
0.3166666667
 12
-1.0
 22
-0.3166666667
 13
-1.0
 23
-0.3166666667
  0
ENDBLK
  5
218
100
AcDbEntity
  8
0
  6
BYBLOCK
 62
0
100
AcDbBlockEnd
  0
ENDSEC
  0
SECTION
  2
ENTITIES
  0
LINE
  5
219
100
AcDbEntity
  8
RACCORDO
100
AcDbLine
 62
7
  6
CONTINUOUS
 10
-51.25
 20
-27.9250190385
 11
-51.25
 21
-17.175
  0
LINE
  5
21A
100
AcDbEntity
  8
RACCORDO
100
AcDbLine
 62
7
  6
CONTINUOUS
 10
-51.0929163798
 20
-12.232074101
 11
-51.0929163798
 21
-17.175
  0
LINE
  5
21B
100
AcDbEntity
  8
DRAFT
100
AcDbLine
 62
7
  6
CONTINUOUS
 10
-49.95
 20
-17.175
 11
-49.95
 21
-26.675
  0
LINE
  5
21C
100
AcDbEntity
  8
DRAFT
100
AcDbLine
 62
7
  6
CONTINUOUS
 10
-49.299067263
 20
-17.374067263
 11
-49.299067263
 21
-18.275932737
  0
LINE
  5
21D
100
AcDbEntity
  8
DRAFT
100
AcDbLine
 62
7
  6
CONTINUOUS
 10
-49.25
 20
-18.325
 11
-49.25
 21
-17.325
  0
LINE
  5
21E
100
AcDbEntity
  8
DRAFT
100
AcDbLine
 62
7
  6
CONTINUOUS
 10
-49.299067263
 20
-18.275932737
 11
-49.25
 21
-18.325
  0
LWPOLYLINE
  5
21F
100
AcDbEntity
  8
0
100
AcDbPolyline
 62
7
  6
CONTINUOUS
 90
37
 70
0
 10
-45.3734401215
 20
-15.7
 10
-45.3745671061
 20
-15.6713677889
 10
-45.3738587964
 20
-15.6425783828
 10
-45.3712988651
 20
-15.6137497664
 10
-45.3668693975
 20
-15.5849522328
 10
-45.3605722033
 20
-15.5563564148
 10
-45.3524607816
 20
-15.5282280521
 10
-45.3426084324
 20
-15.50075785
 10
-45.331044487
 20
-15.4739748309
 10
-45.3177782477
 20
-15.4478979109
 10
-45.3028512326
 20
-15.4226278801
 10
-45.2863193132
 20
-15.3982762588
 10
-45.2681941116
 20
-15.3748864973
 10
-45.2485277651
 20
-15.3525619115
 10
-45.2273832183
 20
-15.3314074784
 10
-45.2047773723
 20
-15.3114800667
 10
-45.1807095478
 20
-15.2928358746
 10
-45.1553144357
 20
-15.2756336641
 10
-45.1288355071
 20
-15.2600600765
 10
-45.1014035965
 20
-15.2461898517
 10
-45.0731084533
 20
-15.2340660518
 10
-45.0441678438
 20
-15.2237709838
 10
-45.0148109273
 20
-15.2153535049
 10
-44.9850584897
 20
-15.2087873779
 10
-44.9548129784
 20
-15.2040503617
 10
-44.9241611408
 20
-15.2011782123
 10
-44.8932436697
 20
-15.2002061938
 10
-44.8620343612
 20
-15.2011666166
 10
-44.8305571218
 20
-15.2041148285
 10
-44.7990357143
 20
-15.2090868907
 10
-44.7677459634
 20
-15.2160738192
 10
-44.7368000228
 20
-15.2250730603
 10
-44.7063450716
 20
-15.2360647451
 10
-44.6766959029
 20
-15.2489362153
 10
-44.6480250237
 20
-15.2635852325
 10
-44.6203744266
 20
-15.2799619553
 10
-44.5938430878
 20
-15.2979856179
  0
LINE
  5
220
100
AcDbEntity
  8
0
100
AcDbLine
 62
7
  6
CONTINUOUS
 10
-45.3162716752
 20
-15.9685010603
 11
-45.2958964454
 21
-15.9877448971
  0
LINE
  5
221
100
AcDbEntity
  8
0
100
AcDbLine
 62
7
  6
CONTINUOUS
 10
-45.2746226073
 20
-16.0055364816
 11
-45.2525495661
 21
-16.0218373117
  0
LINE
  5
222
100
AcDbEntity
  8
0
100
AcDbLine
 62
7
  6
CONTINUOUS
 10
-44.4640397853
 20
-15.140410257
 11
-44.5000863013
 21
-15.1125705586
  0
LINE
  5
223
100
AcDbEntity
  8
0
100
AcDbLine
 62
7
  6
CONTINUOUS
 10
-45.2958964454
 20
-15.9877448971
 11
-45.2746226073
 21
-16.0055364816
  0
LWPOLYLINE
  5
224
100
AcDbEntity
  8
0
100
AcDbPolyline
 62
7
  6
CONTINUOUS
 90
11
 70
0
 10
-45.2297781129
 20
-16.0366154985
 10
-45.2064099945
 20
-16.0498457941
 10
-45.1825474838
 20
-16.0615095921
 10
-45.1582929544
 20
-16.0715949006
 10
-45.1337484597
 20
-16.0800962886
 10
-45.1090153194
 20
-16.0870148057
 10
-45.0841937133
 20
-16.0923578761
 10
-45.0593822864
 20
-16.0961391679
 10
-45.0346777642
 20
-16.0983784374
 10
-45.0101745822
 20
-16.0991013508
 10
-44.9859645283
 20
-16.0983392831
  0
LWPOLYLINE
  5
225
100
AcDbEntity
  8
0
100
AcDbPolyline
 62
7
  6
CONTINUOUS
 90
3
 70
0
 10
-45.3121904507
 20
-16.3129506953
 10
-45.2729389167
 20
-16.3360530719
 10
-45.2323142254
 20
-16.3566452367
  0
LINE
  5
226
100
AcDbEntity
  8
0
100
AcDbLine
 62
7
  6
CONTINUOUS
 10
-44.4640407107
 20
-15.1404094947
 11
-44.5011510266
 21
-15.1182499541
  0
LWPOLYLINE
  5
227
100
AcDbEntity
  8
0
100
AcDbPolyline
 62
7
  6
CONTINUOUS
 90
10
 70
0
 10
-44.5938430878
 20
-15.2979856179
 10
-44.574758061
 20
-15.3101219824
 10
-44.5561158453
 20
-15.3231546954
 10
-44.5379582525
 20
-15.3370675243
 10
-44.5203200792
 20
-15.3518479067
 10
-44.5032486701
 20
-15.367470756
 10
-44.4868016876
 20
-15.3838953964
 10
-44.4710215583
 20
-15.4010888187
 10
-44.45593754
 20
-15.4190288286
 10
-44.441583803
 20
-15.437685722
  0
LINE
  5
228
100
AcDbEntity
  8
0
100
AcDbLine
 62
7
  6
CONTINUOUS
 10
-45.2525495661
 20
-16.0218373117
 11
-45.2297781129
 21
-16.0366154985
  0
LWPOLYLINE
  5
229
100
AcDbEntity
  8
0
100
AcDbPolyline
 62
7
  6
CONTINUOUS
 90
3
 70
0
 10
-44.5000863013
 20
-15.1125705586
 10
-44.5378097565
 20
-15.0870491738
 10
-44.5770612738
 20
-15.0639468239
  0
LWPOLYLINE
  5
22A
100
AcDbEntity
  8
0
100
AcDbPolyline
 62
7
  6
CONTINUOUS
 90
47
 70
0
 10
-45.2323142254
 20
-16.3566452367
 10
-45.190476704
 20
-16.3746459217
 10
-45.147591466
 20
-16.3899840862
 10
-45.10382776
 20
-16.4025991975
 10
-45.0593583013
 20
-16.4124414691
 10
-45.0143585906
 20
-16.419472058
 10
-44.9690062214
 20
-16.4236632176
 10
-44.9234801789
 20
-16.424998407
 10
-44.8779601335
 20
-16.4234723567
 10
-44.8326257324
 20
-16.4190910893
 10
-44.7876558899
 20
-16.4118718954
 10
-44.7432280814
 20
-16.4018432657
 10
-44.6995176435
 20
-16.3890447786
 10
-44.6566970815
 20
-16.3735269437
 10
-44.6149353888
 20
-16.3553510028
 10
-44.57439738
 20
-16.3345886879
 10
-44.5352430402
 20
-16.3113219383
 10
-44.497626894
 20
-16.2856425772
 10
-44.4616973954
 20
-16.2576519493
 10
-44.427596342
 20
-16.2274605208
 10
-44.3954583154
 20
-16.1951874435
 10
-44.3654101498
 20
-16.1609600845
 10
-44.3375704319
 20
-16.1249135236
 10
-44.3120490328
 20
-16.0871900202
 10
-44.2889466738
 20
-16.0479384519
 10
-44.2683545299
 20
-16.0073137267
 10
-44.250353869
 20
-15.965476172
 10
-44.2350157317
 20
-15.9225909017
 10
-44.222400651
 20
-15.8788271646
 10
-44.2125584131
 20
-15.8343576764
 10
-44.2055278609
 20
-15.7893579379
 10
-44.2013367412
 20
-15.744005543
 10
-44.2000015945
 20
-15.6984794771
 10
-44.2015276902
 20
-15.652959411
 10
-44.2059090058
 20
-15.607624992
 10
-44.2131282504
 20
-15.5626551346
 10
-44.2231569329
 20
-15.5182273147
 10
-44.2359554749
 20
-15.4745168689
 10
-44.2514733665
 20
-15.4316963028
 10
-44.2696493657
 20
-15.38993461
 10
-44.2904117401
 20
-15.3493966052
 10
-44.3136785503
 20
-15.3102422738
 10
-44.3393579726
 20
-15.2726261405
 10
-44.3673486622
 20
-15.2366966594
 10
-44.3975401523
 20
-15.2025956282
 10
-44.429813291
 20
-15.1704576285
 10
-44.4640407107
 20
-15.1404094947
  0
LWPOLYLINE
  5
22B
100
AcDbEntity
  8
0
100
AcDbPolyline
 62
7
  6
CONTINUOUS
 90
50
 70
0
 10
-44.5770612738
 20
-15.0639468239
 10
-44.6176859457
 20
-15.0433546832
 10
-44.6595234452
 20
-15.0253540196
 10
-44.702408659
 20
-15.0100158734
 10
-44.746172339
 20
-14.9974007774
 10
-44.7906417699
 20
-14.9875585175
 10
-44.8356414514
 20
-14.9805279367
 10
-44.8809937905
 20
-14.9763367817
 10
-44.9265198024
 20
-14.975001593
 10
-44.9720398167
 20
-14.97652764
 10
-45.0173741869
 20
-14.9809089003
 10
-45.062343999
 20
-14.9881280832
 10
-45.1067717779
 20
-14.9981566979
 10
-45.1504821874
 20
-15.0109551661
 10
-45.1933027226
 20
-15.0264729782
 10
-45.2350643905
 20
-15.0446488928
 10
-45.2756023769
 20
-15.0654111778
 10
-45.314756697
 20
-15.0886778941
 10
-45.3523728264
 20
-15.1143572188
 10
-45.3883023117
 20
-15.1423478073
 10
-45.4224033554
 20
-15.1725391939
 10
-45.4545413764
 20
-15.2048122269
 10
-45.4845895406
 20
-15.2390395395
 10
-45.5124292614
 20
-15.2750860524
 10
-45.5379506683
 20
-15.3128095066
 10
-45.5610530398
 20
-15.3520610247
 10
-45.5816452014
 20
-15.3926856993
 10
-45.5996458852
 20
-15.4345232033
 10
-45.6149840505
 20
-15.4774084232
 10
-45.6275991646
 20
-15.5211721109
 10
-45.6374414412
 20
-15.565641551
 10
-45.6444720374
 20
-15.610641243
 10
-45.6486632063
 20
-15.6559935938
 10
-45.6499984074
 20
-15.7015196184
 10
-45.648472371
 20
-15.7470396464
 10
-45.6440911197
 20
-15.792374031
 10
-45.636871944
 20
-15.8373438581
 10
-45.6268433346
 20
-15.8817716524
 10
-45.6140448699
 20
-15.9254820775
 10
-45.5985270593
 20
-15.9683026284
 10
-45.5803511444
 20
-16.0100643119
 10
-45.5595888573
 20
-16.0506023135
 10
-45.5363221369
 20
-16.0897566483
 10
-45.5106428065
 20
-16.1273727919
 10
-45.4826522104
 20
-16.1633022904
 10
-45.4524608146
 20
-16.1974033464
 10
-45.4201877709
 20
-16.2295413785
 10
-45.385960446
 20
-16.2595895525
 10
-45.3499139196
 20
-16.2874292817
 10
-45.3121904507
 20
-16.3129506953
  0
LWPOLYLINE
  5
22C
100
AcDbEntity
  8
0
100
AcDbPolyline
 62
7
  6
CONTINUOUS
 90
49
 70
0
 10
-44.5011510266
 20
-15.1182499541
 10
-44.5379209899
 20
-15.0991039334
 10
-44.576161648
 20
-15.0819894417
 10
-44.6150718704
 20
-15.0672748954
 10
-44.65450279
 20
-15.0549796322
 10
-44.6943055914
 20
-15.0451138482
 10
-44.7343320669
 20
-15.0376786716
 10
-44.7744351646
 20
-15.0326662692
 10
-44.8144695256
 20
-15.0300599864
 10
-44.8542920093
 20
-15.0298345192
 10
-44.8937622041
 20
-15.0319561166
 10
-44.9327429216
 20
-15.0363828136
 10
-44.9711006735
 20
-15.0430646927
 10
-45.0087061287
 20
-15.0519441724
 10
-45.0454345492
 20
-15.0629563226
 10
-45.0811662039
 20
-15.0760292037
 10
-45.1157867574
 20
-15.0910842294
 10
-45.1491876351
 20
-15.1080365503
 10
-45.1812663604
 20
-15.1267954576
 10
-45.2119268659
 20
-15.1472648046
 10
-45.241079775
 20
-15.169343444
 10
-45.2686426554
 20
-15.1929256797
 10
-45.2945402422
 20
-15.2179017309
 10
-45.3187046304
 20
-15.2441582065
 10
-45.3410754376
 20
-15.2715785881
 10
-45.3615999344
 20
-15.3000437187
 10
-45.380233144
 20
-15.3294322974
 10
-45.3969379103
 20
-15.3596213745
 10
-45.4116849349
 20
-15.3904868492
 10
-45.4244527827
 20
-15.4219039643
 10
-45.4352278565
 20
-15.4537477983
 10
-45.4440043413
 20
-15.485893752
 10
-45.4507841192
 20
-15.5182180278
 10
-45.455576654
 20
-15.5505981004
 10
-45.4583988483
 20
-15.5829131763
 10
-45.4592748723
 20
-15.6150446412
 10
-45.4582359665
 20
-15.6468764933
 10
-45.4553202183
 20
-15.6782957603
 10
-45.4505723145
 20
-15.7091929003
 10
-45.4440432707
 20
-15.7394621832
 10
-45.4357901382
 20
-15.7690020524
 10
-45.4258756914
 20
-15.7977154658
 10
-45.4143680956
 20
-15.825510214
 10
-45.4013405571
 20
-15.8522992151
 10
-45.3868709585
 20
-15.8780007856
 10
-45.3710414786
 20
-15.902538886
 10
-45.3539382003
 20
-15.9258433405
 10
-45.335650708
 20
-15.9478500304
 10
-45.3162716752
 20
-15.9685010603
  0
LINE
  5
22D
100
AcDbEntity
  8
RACCORDO
100
AcDbLine
 62
7
  6
CONTINUOUS
 10
50.7500190385
 20
-28.425
 11
-50.7500190385
 21
-28.425
  0
LINE
  5
22E
100
AcDbEntity
  8
0
100
AcDbLine
 62
7
  6
CONTINUOUS
 10
-44.5938430878
 20
-15.2979856179
 11
-44.4640407107
 21
-15.1404094947
  0
LINE
  5
22F
100
AcDbEntity
  8
DRAFT
100
AcDbLine
 62
7
  6
CONTINUOUS
 10
-49.95
 20
-26.675
 11
49.95
 21
-26.675
  0
LINE
  5
230
100
AcDbEntity
  8
DRAFT
100
AcDbLine
 62
7
  6
CONTINUOUS
 10
-49.299067263
 20
-17.374067263
 11
-49.25
 21
-17.325
  0
LINE
  5
231
100
AcDbEntity
  8
DRAFT
100
AcDbLine
 62
7
  6
CONTINUOUS
 10
49.299067263
 20
-18.275932737
 11
49.95
 21
-18.2660936424
  0
LINE
  5
232
100
AcDbEntity
  8
DRAFT
100
AcDbLine
 62
7
  6
CONTINUOUS
 10
-49.95
 20
-18.2660936424
 11
-49.299067263
 21
-18.275932737
  0
LWPOLYLINE
  5
233
100
AcDbEntity
  8
0
100
AcDbPolyline
 62
7
  6
CONTINUOUS
 90
22
 70
0
 10
-44.9859645283
 20
-16.0983392831
 10
-45.0133053535
 20
-16.0954110233
 10
-45.0406062712
 20
-16.0905820715
 10
-45.0677342347
 20
-16.0838388129
 10
-45.0946018068
 20
-16.0751595424
 10
-45.1210214773
 20
-16.0645601119
 10
-45.146716993
 20
-16.0521280644
 10
-45.1715310128
 20
-16.0379375374
 10
-45.195376358
 20
-16.0220365782
 10
-45.2181027191
 20
-16.0045247139
 10
-45.2395758162
 20
-15.9855159781
 10
-45.2597311559
 20
-15.9650790133
 10
-45.278527704
 20
-15.943251046
 10
-45.2958743693
 20
-15.9201205518
 10
-45.3116798932
 20
-15.8957905773
 10
-45.3258923448
 20
-15.8703100829
 10
-45.3384445917
 20
-15.8437427175
 10
-45.3492360581
 20
-15.8162364216
 10
-45.3581772579
 20
-15.7879743132
 10
-45.3652136681
 20
-15.7591052779
 10
-45.3703119808
 20
-15.7297366942
 10
-45.3734401215
 20
-15.7
  0
LINE
  5
234
100
AcDbEntity
  8
DRAFT
100
AcDbLine
 62
7
  6
CONTINUOUS
 10
-49.95
 20
-17.3839063576
 11
-49.299067263
 21
-17.374067263
  0
LINE
  5
235
100
AcDbEntity
  8
DRAFT
100
AcDbLine
 62
7
  6
CONTINUOUS
 10
-49.95
 20
-18.325
 11
-49.25
 21
-18.325
  0
LINE
  5
236
100
AcDbEntity
  8
DRAFT
100
AcDbLine
 62
7
  6
CONTINUOUS
 10
49.25
 20
-18.325
 11
49.95
 21
-18.325
  0
LINE
  5
237
100
AcDbEntity
  8
DRAFT
100
AcDbLine
 62
7
  6
CONTINUOUS
 10
-49.95
 20
-17.325
 11
-49.25
 21
-17.325
  0
LINE
  5
238
100
AcDbEntity
  8
DRAFT
100
AcDbLine
 62
7
  6
CONTINUOUS
 10
49.25
 20
-17.325
 11
49.95
 21
-17.325
  0
LINE
  5
239
100
AcDbEntity
  8
DRAFT
100
AcDbLine
 62
7
  6
CONTINUOUS
 10
51.25
 20
-17.175
 11
49.95
 21
-17.175
  0
LINE
  5
23A
100
AcDbEntity
  8
DRAFT
100
AcDbLine
 62
7
  6
CONTINUOUS
 10
-49.95
 20
-17.175
 11
-51.25
 21
-17.175
  0
LINE
  5
23B
100
AcDbEntity
  8
DRAFT
100
AcDbLine
 62
7
  6
CONTINUOUS
 10
49.299067263
 20
-17.374067263
 11
49.95
 21
-17.3839063576
  0
LINE
  5
23C
100
AcDbEntity
  8
RACCORDO
100
AcDbLine
 62
7
  6
CONTINUOUS
 10
50.842925899
 20
-11.9820836202
 11
-50.842925899
 21
-11.9820836202
  0
LWPOLYLINE
  5
23D
100
AcDbEntity
  8
0
100
AcDbPolyline
 62
7
  6
CONTINUOUS
 90
22
 70
0
 10
44.8640354717
 20
-16.0983392831
 10
44.8366946465
 20
-16.0954110233
 10
44.8093937288
 20
-16.0905820715
 10
44.7822657653
 20
-16.0838388129
 10
44.7553981932
 20
-16.0751595424
 10
44.7289785227
 20
-16.0645601119
 10
44.703283007
 20
-16.0521280644
 10
44.6784689872
 20
-16.0379375374
 10
44.654623642
 20
-16.0220365782
 10
44.6318972809
 20
-16.0045247139
 10
44.6104241838
 20
-15.9855159781
 10
44.5902688441
 20
-15.9650790133
 10
44.571472296
 20
-15.943251046
 10
44.5541256307
 20
-15.9201205518
 10
44.5383201068
 20
-15.8957905773
 10
44.5241076552
 20
-15.8703100829
 10
44.5115554083
 20
-15.8437427175
 10
44.5007639419
 20
-15.8162364216
 10
44.4918227421
 20
-15.7879743132
 10
44.4847863319
 20
-15.7591052779
 10
44.4796880192
 20
-15.7297366942
 10
44.4765598785
 20
-15.7
  0
LINE
  5
23E
100
AcDbEntity
  8
RACCORDO
100
AcDbLine
 62
7
  6
CONTINUOUS
 10
21.2165867876
 20
21.4415867876
 11
21.2
 21
21.425
  0
LWPOLYLINE
  5
23F
100
AcDbEntity
  8
0
100
AcDbPolyline
 62
7
  6
CONTINUOUS
 90
47
 70
0
 10
44.6176857746
 20
-16.3566452367
 10
44.659523296
 20
-16.3746459217
 10
44.702408534
 20
-16.3899840862
 10
44.74617224
 20
-16.4025991975
 10
44.7906416987
 20
-16.4124414691
 10
44.8356414094
 20
-16.419472058
 10
44.8809937786
 20
-16.4236632176
 10
44.9265198211
 20
-16.424998407
 10
44.9720398665
 20
-16.4234723567
 10
45.0173742676
 20
-16.4190910893
 10
45.0623441101
 20
-16.4118718954
 10
45.1067719186
 20
-16.4018432657
 10
45.1504823565
 20
-16.3890447786
 10
45.1933029185
 20
-16.3735269437
 10
45.2350646112
 20
-16.3553510028
 10
45.27560262
 20
-16.3345886879
 10
45.3147569598
 20
-16.3113219383
 10
45.352373106
 20
-16.2856425772
 10
45.3883026046
 20
-16.2576519493
 10
45.422403658
 20
-16.2274605208
 10
45.4545416846
 20
-16.1951874435
 10
45.4845898502
 20
-16.1609600845
 10
45.5124295681
 20
-16.1249135236
 10
45.5379509672
 20
-16.0871900202
 10
45.5610533262
 20
-16.0479384519
 10
45.5816454701
 20
-16.0073137267
 10
45.599646131
 20
-15.965476172
 10
45.6149842683
 20
-15.9225909017
 10
45.627599349
 20
-15.8788271646
 10
45.6374415869
 20
-15.8343576764
 10
45.6444721391
 20
-15.7893579379
 10
45.6486632588
 20
-15.744005543
 10
45.6499984055
 20
-15.6984794771
 10
45.6484723098
 20
-15.652959411
 10
45.6440909942
 20
-15.607624992
 10
45.6368717496
 20
-15.5626551346
 10
45.6268430671
 20
-15.5182273147
 10
45.6140445251
 20
-15.4745168689
 10
45.5985266335
 20
-15.4316963028
 10
45.5803506343
 20
-15.38993461
 10
45.5595882599
 20
-15.3493966052
 10
45.5363214497
 20
-15.3102422738
 10
45.5106420274
 20
-15.2726261405
 10
45.4826513378
 20
-15.2366966594
 10
45.4524598477
 20
-15.2025956282
 10
45.420186709
 20
-15.1704576285
 10
45.3859592893
 20
-15.1404094947
  0
LINE
  5
240
100
AcDbEntity
  8
0
100
AcDbLine
 62
7
  6
CONTINUOUS
 10
22.8311569122
 20
18.3270143821
 11
22.9609592893
 21
18.4845905053
  0
LINE
  5
241
100
AcDbEntity
  8
RACCORDO
100
AcDbLine
 62
250
  6
CONTINUOUS
 10
37.2886073742
 20
28.3386058511
 11
37.3750015231
 21
28.425
  0
LINE
  5
242
100
AcDbEntity
  8
RACCORDO
100
AcDbLine
 62
250
  6
CONTINUOUS
 10
37.5386058511
 20
28.0886073742
 11
37.625
 21
28.1750015231
  0
LINE
  5
243
100
AcDbEntity
  8
DRAFT
100
AcDbLine
 62
7
  6
CONTINUOUS
 10
36.95
 20
27.425
 11
37.0363941489
 21
27.5113941489
  0
LWPOLYLINE
  5
244
100
AcDbEntity
  8
0
100
AcDbPolyline
 62
7
  6
CONTINUOUS
 90
50
 70
0
 10
45.2729387262
 20
-15.0639468239
 10
45.2323140543
 20
-15.0433546832
 10
45.1904765548
 20
-15.0253540196
 10
45.147591341
 20
-15.0100158734
 10
45.103827661
 20
-14.9974007774
 10
45.0593582301
 20
-14.9875585175
 10
45.0143585486
 20
-14.9805279367
 10
44.9690062095
 20
-14.9763367817
 10
44.9234801976
 20
-14.975001593
 10
44.8779601833
 20
-14.97652764
 10
44.8326258131
 20
-14.9809089003
 10
44.787656001
 20
-14.9881280832
 10
44.7432282221
 20
-14.9981566979
 10
44.6995178126
 20
-15.0109551661
 10
44.6566972774
 20
-15.0264729782
 10
44.6149356095
 20
-15.0446488928
 10
44.5743976231
 20
-15.0654111778
 10
44.535243303
 20
-15.0886778941
 10
44.4976271736
 20
-15.1143572188
 10
44.4616976883
 20
-15.1423478073
 10
44.4275966446
 20
-15.1725391939
 10
44.3954586236
 20
-15.2048122269
 10
44.3654104594
 20
-15.2390395395
 10
44.3375707386
 20
-15.2750860524
 10
44.3120493317
 20
-15.3128095066
 10
44.2889469602
 20
-15.3520610247
 10
44.2683547986
 20
-15.3926856993
 10
44.2503541148
 20
-15.4345232033
 10
44.2350159495
 20
-15.4774084232
 10
44.2224008354
 20
-15.5211721109
 10
44.2125585588
 20
-15.565641551
 10
44.2055279626
 20
-15.610641243
 10
44.2013367937
 20
-15.6559935938
 10
44.2000015926
 20
-15.7015196184
 10
44.201527629
 20
-15.7470396464
 10
44.2059088803
 20
-15.792374031
 10
44.213128056
 20
-15.8373438581
 10
44.2231566654
 20
-15.8817716524
 10
44.2359551301
 20
-15.9254820775
 10
44.2514729407
 20
-15.9683026284
 10
44.2696488556
 20
-16.0100643119
 10
44.2904111427
 20
-16.0506023135
 10
44.3136778631
 20
-16.0897566483
 10
44.3393571935
 20
-16.1273727919
 10
44.3673477896
 20
-16.1633022904
 10
44.3975391854
 20
-16.1974033464
 10
44.4298122291
 20
-16.2295413785
 10
44.464039554
 20
-16.2595895525
 10
44.5000860804
 20
-16.2874292817
 10
44.5378095493
 20
-16.3129506953
  0
LWPOLYLINE
  5
245
100
AcDbEntity
  8
0
100
AcDbPolyline
 62
7
  6
CONTINUOUS
 90
49
 70
0
 10
45.3488489734
 20
-15.1182499541
 10
45.3120790101
 20
-15.0991039334
 10
45.273838352
 20
-15.0819894417
 10
45.2349281296
 20
-15.0672748954
 10
45.19549721
 20
-15.0549796322
 10
45.1556944086
 20
-15.0451138482
 10
45.1156679331
 20
-15.0376786716
 10
45.0755648354
 20
-15.0326662692
 10
45.0355304744
 20
-15.0300599864
 10
44.9957079907
 20
-15.0298345192
 10
44.9562377959
 20
-15.0319561166
 10
44.9172570784
 20
-15.0363828136
 10
44.8788993265
 20
-15.0430646927
 10
44.8412938713
 20
-15.0519441724
 10
44.8045654508
 20
-15.0629563226
 10
44.7688337961
 20
-15.0760292037
 10
44.7342132426
 20
-15.0910842294
 10
44.7008123649
 20
-15.1080365503
 10
44.6687336396
 20
-15.1267954576
 10
44.6380731341
 20
-15.1472648046
 10
44.608920225
 20
-15.169343444
 10
44.5813573446
 20
-15.1929256797
 10
44.5554597578
 20
-15.2179017309
 10
44.5312953696
 20
-15.2441582065
 10
44.5089245624
 20
-15.2715785881
 10
44.4884000656
 20
-15.3000437187
 10
44.469766856
 20
-15.3294322974
 10
44.4530620897
 20
-15.3596213745
 10
44.4383150651
 20
-15.3904868492
 10
44.4255472173
 20
-15.4219039643
 10
44.4147721435
 20
-15.4537477983
 10
44.4059956587
 20
-15.485893752
 10
44.3992158808
 20
-15.5182180278
 10
44.394423346
 20
-15.5505981004
 10
44.3916011517
 20
-15.5829131763
 10
44.3907251277
 20
-15.6150446412
 10
44.3917640335
 20
-15.6468764933
 10
44.3946797817
 20
-15.6782957603
 10
44.3994276855
 20
-15.7091929003
 10
44.4059567293
 20
-15.7394621832
 10
44.4142098618
 20
-15.7690020524
 10
44.4241243086
 20
-15.7977154658
 10
44.4356319044
 20
-15.825510214
 10
44.4486594429
 20
-15.8522992151
 10
44.4631290415
 20
-15.8780007856
 10
44.4789585214
 20
-15.902538886
 10
44.4960617997
 20
-15.9258433405
 10
44.514349292
 20
-15.9478500304
 10
44.5337283248
 20
-15.9685010603
  0
LWPOLYLINE
  5
246
100
AcDbEntity
  8
0
100
AcDbPolyline
 62
7
  6
CONTINUOUS
 90
11
 70
0
 10
44.6202218871
 20
-16.0366154985
 10
44.6435900055
 20
-16.0498457941
 10
44.6674525162
 20
-16.0615095921
 10
44.6917070456
 20
-16.0715949006
 10
44.7162515403
 20
-16.0800962886
 10
44.7409846806
 20
-16.0870148057
 10
44.7658062867
 20
-16.0923578761
 10
44.7906177136
 20
-16.0961391679
 10
44.8153222358
 20
-16.0983784374
 10
44.8398254178
 20
-16.0991013508
 10
44.8640354717
 20
-16.0983392831
  0
LINE
  5
247
100
AcDbEntity
  8
DRAFT
100
AcDbLine
 62
7
  6
CONTINUOUS
 10
37.6066739684
 20
22.1066739684
 11
37.625
 21
22.125
  0
LINE
  5
248
100
AcDbEntity
  8
DRAFT
100
AcDbLine
 62
7
  6
CONTINUOUS
 10
36.95
 20
21.425
 11
36.9683260316
 21
21.4433260316
  0
LINE
  5
249
100
AcDbEntity
  8
RACCORDO
100
AcDbLine
 62
7
  6
CONTINUOUS
 10
38.8
 20
22.125
 11
38.7834132124
 21
22.1084132124
  0
LWPOLYLINE
  5
24A
100
AcDbEntity
  8
0
100
AcDbPolyline
 62
7
  6
CONTINUOUS
 90
3
 70
0
 10
44.5378095493
 20
-16.3129506953
 10
44.5770610833
 20
-16.3360530719
 10
44.6176857746
 20
-16.3566452367
  0
LINE
  5
24B
100
AcDbEntity
  8
0
100
AcDbLine
 62
7
  6
CONTINUOUS
 10
45.3859592893
 20
-15.1404094947
 11
45.3488489734
 21
-15.1182499541
  0
LWPOLYLINE
  5
24C
100
AcDbEntity
  8
0
100
AcDbPolyline
 62
7
  6
CONTINUOUS
 90
10
 70
0
 10
45.2561569122
 20
-15.2979856179
 10
45.275241939
 20
-15.3101219824
 10
45.2938841547
 20
-15.3231546954
 10
45.3120417475
 20
-15.3370675243
 10
45.3296799208
 20
-15.3518479067
 10
45.3467513299
 20
-15.367470756
 10
45.3631983124
 20
-15.3838953964
 10
45.3789784417
 20
-15.4010888187
 10
45.39406246
 20
-15.4190288286
 10
45.408416197
 20
-15.437685722
  0
LINE
  5
24D
100
AcDbEntity
  8
0
100
AcDbLine
 62
7
  6
CONTINUOUS
 10
44.5974504339
 20
-16.0218373117
 11
44.6202218871
 21
-16.0366154985
  0
LWPOLYLINE
  5
24E
100
AcDbEntity
  8
0
100
AcDbPolyline
 62
7
  6
CONTINUOUS
 90
3
 70
0
 10
45.3499136987
 20
-15.1125705586
 10
45.3121902435
 20
-15.0870491738
 10
45.2729387262
 20
-15.0639468239
  0
LINE
  5
24F
100
AcDbEntity
  8
0
100
AcDbLine
 62
7
  6
CONTINUOUS
 10
44.5753773927
 20
-16.0055364816
 11
44.5974504339
 21
-16.0218373117
  0
LINE
  5
250
100
AcDbEntity
  8
0
100
AcDbLine
 62
7
  6
CONTINUOUS
 10
45.3859602147
 20
-15.140410257
 11
45.3499136987
 21
-15.1125705586
  0
LINE
  5
251
100
AcDbEntity
  8
0
100
AcDbLine
 62
7
  6
CONTINUOUS
 10
37.8311569122
 20
18.3270143821
 11
37.9609592893
 21
18.4845905053
  0
LINE
  5
252
100
AcDbEntity
  8
DRAFT
100
AcDbLine
 62
7
  6
CONTINUOUS
 10
39.125
 20
16.675
 11
20.875
 21
16.675
  0
LWPOLYLINE
  5
253
100
AcDbEntity
  8
0
100
AcDbPolyline
 62
7
  6
CONTINUOUS
 90
22
 70
0
 10
22.4390354717
 20
17.5266607169
 10
22.4116946465
 20
17.5295889767
 10
22.3843937288
 20
17.5344179285
 10
22.3572657653
 20
17.5411611871
 10
22.3303981932
 20
17.5498404576
 10
22.3039785227
 20
17.5604398881
 10
22.278283007
 20
17.5728719356
 10
22.2534689872
 20
17.5870624626
 10
22.229623642
 20
17.6029634218
 10
22.2068972809
 20
17.6204752861
 10
22.1854241838
 20
17.6394840219
 10
22.1652688441
 20
17.6599209867
 10
22.146472296
 20
17.681748954
 10
22.1291256307
 20
17.7048794482
 10
22.1133201068
 20
17.7292094227
 10
22.0991076552
 20
17.7546899171
 10
22.0865554083
 20
17.7812572825
 10
22.0757639419
 20
17.8087635784
 10
22.0668227421
 20
17.8370256868
 10
22.0597863319
 20
17.8658947221
 10
22.0546880192
 20
17.8952633058
 10
22.0515598785
 20
17.925
  0
LINE
  5
254
100
AcDbEntity
  8
0
100
AcDbLine
 62
7
  6
CONTINUOUS
 10
44.5541035546
 20
-15.9877448971
 11
44.5753773927
 21
-16.0055364816
  0
LINE
  5
255
100
AcDbEntity
  8
0
100
AcDbLine
 62
7
  6
CONTINUOUS
 10
44.5337283248
 20
-15.9685010603
 11
44.5541035546
 21
-15.9877448971
  0
LWPOLYLINE
  5
256
100
AcDbEntity
  8
0
100
AcDbPolyline
 62
7
  6
CONTINUOUS
 90
37
 70
0
 10
22.0515598785
 20
17.925
 10
22.0504328939
 20
17.9536322111
 10
22.0511412036
 20
17.9824216172
 10
22.0537011349
 20
18.0112502336
 10
22.0581306025
 20
18.0400477672
 10
22.0644277967
 20
18.0686435852
 10
22.0725392184
 20
18.0967719479
 10
22.0823915676
 20
18.12424215
 10
22.093955513
 20
18.1510251691
 10
22.1072217523
 20
18.1771020891
 10
22.1221487674
 20
18.2023721199
 10
22.1386806868
 20
18.2267237412
 10
22.1568058884
 20
18.2501135027
 10
22.1764722349
 20
18.2724380885
 10
22.1976167817
 20
18.2935925216
 10
22.2202226277
 20
18.3135199333
 10
22.2442904522
 20
18.3321641254
 10
22.2696855643
 20
18.3493663359
 10
22.2961644929
 20
18.3649399235
 10
22.3235964035
 20
18.3788101483
 10
22.3518915467
 20
18.3909339482
 10
22.3808321562
 20
18.4012290162
 10
22.4101890727
 20
18.4096464951
 10
22.4399415103
 20
18.4162126221
 10
22.4701870216
 20
18.4209496383
 10
22.5008388592
 20
18.4238217877
 10
22.5317563303
 20
18.4247938062
 10
22.5629656388
 20
18.4238333834
 10
22.5944428782
 20
18.4208851715
 10
22.6259642857
 20
18.4159131093
 10
22.6572540366
 20
18.4089261808
 10
22.6881999772
 20
18.3999269397
 10
22.7186549284
 20
18.3889352549
 10
22.7483040971
 20
18.3760637847
 10
22.7769749763
 20
18.3614147675
 10
22.8046255734
 20
18.3450380447
 10
22.8311569122
 20
18.3270143821
  0
LINE
  5
257
100
AcDbEntity
  8
RACCORDO
100
AcDbLine
 62
7
  6
CONTINUOUS
 10
20.875
 20
16.675
 11
20.875
 21
22.6750380762
  0
LINE
  5
258
100
AcDbEntity
  8
DRAFT
100
AcDbLine
 62
7
  6
CONTINUOUS
 10
21.2
 20
22.125
 11
21.2
 21
21.425
  0
LINE
  5
259
100
AcDbEntity
  8
RACCORDO
100
AcDbLine
 62
7
  6
CONTINUOUS
 10
21.2165867876
 20
21.4415867876
 11
21.2165867876
 21
22.1084132124
  0
LINE
  5
25A
100
AcDbEntity
  8
RACCORDO
100
AcDbLine
 62
250
  6
CONTINUOUS
 10
21.7165837414
 20
21.4433260316
 11
21.7165837414
 21
22.1066739684
  0
LINE
  5
25B
100
AcDbEntity
  8
RACCORDO
100
AcDbLine
 62
7
  6
CONTINUOUS
 10
22.375
 20
28.1750015231
 11
22.375
 21
22.925
  0
LINE
  5
25C
100
AcDbEntity
  8
DRAFT
100
AcDbLine
 62
7
  6
CONTINUOUS
 10
22.375
 20
22.925
 11
22.375
 21
22.125
  0
LINE
  5
25D
100
AcDbEntity
  8
DRAFT
100
AcDbLine
 62
7
  6
CONTINUOUS
 10
22.3933260316
 20
22.1066739684
 11
22.3933260316
 21
23.325
  0
LINE
  5
25E
100
AcDbEntity
  8
RACCORDO
100
AcDbLine
 62
7
  6
CONTINUOUS
 10
22.4613941489
 20
28.0886073742
 11
22.4613941489
 21
23.325
  0
LINE
  5
25F
100
AcDbEntity
  8
DRAFT
100
AcDbLine
 62
7
  6
CONTINUOUS
 10
22.9636058511
 20
23.325
 11
22.9636058511
 21
27.5113941489
  0
LINE
  5
260
100
AcDbEntity
  8
DRAFT
100
AcDbLine
 62
7
  6
CONTINUOUS
 10
23.0316739684
 20
21.4433260316
 11
23.0316739684
 21
23.325
  0
LINE
  5
261
100
AcDbEntity
  8
DRAFT
100
AcDbLine
 62
7
  6
CONTINUOUS
 10
23.05
 20
21.425
 11
23.05
 21
27.425
  0
LWPOLYLINE
  5
262
100
AcDbEntity
  8
RACCORDO
100
AcDbPolyline
 62
7
  6
CONTINUOUS
 90
16
 70
0
 10
22.375
 20
28.1750380762
 10
22.3763518847
 20
28.200972445
 10
22.3804095217
 20
28.2267336281
 10
22.3871624649
 20
28.2520360366
 10
22.396609965
 20
28.2766837167
 10
22.4086584985
 20
28.3002926411
 10
22.4230283697
 20
28.3223416898
 10
22.4393607857
 20
28.3424523976
 10
22.4575476024
 20
28.3606392143
 10
22.4776583102
 20
28.3769716303
 10
22.4997073589
 20
28.3913415015
 10
22.5233162833
 20
28.403390035
 10
22.5479639634
 20
28.4128375351
 10
22.5732663719
 20
28.4195904783
 10
22.599027555
 20
28.4236481153
 10
22.6249619238
 20
28.425
  0
LINE
  5
263
100
AcDbEntity
  8
DRAFT
100
AcDbLine
 62
7
  6
CONTINUOUS
 10
38.8
 20
21.425
 11
36.95
 21
21.425
  0
LINE
  5
264
100
AcDbEntity
  8
DRAFT
100
AcDbLine
 62
7
  6
CONTINUOUS
 10
23.05
 20
21.425
 11
21.2
 21
21.425
  0
LINE
  5
265
100
AcDbEntity
  8
RACCORDO
100
AcDbLine
 62
7
  6
CONTINUOUS
 10
38.2834162586
 20
21.4433260316
 11
36.9683260316
 21
21.4433260316
  0
LINE
  5
266
100
AcDbEntity
  8
RACCORDO
100
AcDbLine
 62
7
  6
CONTINUOUS
 10
23.0316739684
 20
21.4433260316
 11
21.7165837414
 21
21.4433260316
  0
LINE
  5
267
100
AcDbEntity
  8
RACCORDO
100
AcDbLine
 62
7
  6
CONTINUOUS
 10
38.2834162586
 20
22.1066739684
 11
37.6066739684
 21
22.1066739684
  0
LINE
  5
268
100
AcDbEntity
  8
RACCORDO
100
AcDbLine
 62
7
  6
CONTINUOUS
 10
22.3933260316
 20
22.1066739684
 11
21.7165837414
 21
22.1066739684
  0
LINE
  5
269
100
AcDbEntity
  8
DRAFT
100
AcDbLine
 62
7
  6
CONTINUOUS
 10
38.8
 20
22.125
 11
37.625
 21
22.125
  0
LINE
  5
26A
100
AcDbEntity
  8
DRAFT
100
AcDbLine
 62
7
  6
CONTINUOUS
 10
22.375
 20
22.125
 11
21.2
 21
22.125
  0
LINE
  5
26B
100
AcDbEntity
  8
RACCORDO
100
AcDbLine
 62
7
  6
CONTINUOUS
 10
38.8750380762
 20
22.925
 11
37.625
 21
22.925
  0
LINE
  5
26C
100
AcDbEntity
  8
RACCORDO
100
AcDbLine
 62
7
  6
CONTINUOUS
 10
22.375
 20
22.925
 11
21.1249619238
 21
22.925
  0
LINE
  5
26D
100
AcDbEntity
  8
DRAFT
100
AcDbLine
 62
7
  6
CONTINUOUS
 10
22.3933260316
 20
23.325
 11
23.0316739684
 21
23.325
  0
LINE
  5
26E
100
AcDbEntity
  8
DRAFT
100
AcDbLine
 62
7
  6
CONTINUOUS
 10
36.9683260316
 20
23.325
 11
37.6066739684
 21
23.325
  0
LWPOLYLINE
  5
26F
100
AcDbEntity
  8
0
100
AcDbPolyline
 62
7
  6
CONTINUOUS
 90
22
 70
0
 10
37.4390354717
 20
17.5266607169
 10
37.4116946465
 20
17.5295889767
 10
37.3843937288
 20
17.5344179285
 10
37.3572657653
 20
17.5411611871
 10
37.3303981932
 20
17.5498404576
 10
37.3039785227
 20
17.5604398881
 10
37.278283007
 20
17.5728719356
 10
37.2534689872
 20
17.5870624626
 10
37.229623642
 20
17.6029634218
 10
37.2068972809
 20
17.6204752861
 10
37.1854241838
 20
17.6394840219
 10
37.1652688441
 20
17.6599209867
 10
37.146472296
 20
17.681748954
 10
37.1291256307
 20
17.7048794482
 10
37.1133201068
 20
17.7292094227
 10
37.0991076552
 20
17.7546899171
 10
37.0865554083
 20
17.7812572825
 10
37.0757639419
 20
17.8087635784
 10
37.0668227421
 20
17.8370256868
 10
37.0597863319
 20
17.8658947221
 10
37.0546880192
 20
17.8952633058
 10
37.0515598785
 20
17.925
  0
LINE
  5
270
100
AcDbEntity
  8
DRAFT
100
AcDbLine
 62
7
  6
CONTINUOUS
 10
49.25
 20
-17.325
 11
49.299067263
 21
-17.374067263
  0
LINE
  5
271
100
AcDbEntity
  8
DRAFT
100
AcDbLine
 62
7
  6
CONTINUOUS
 10
23.05
 20
27.425
 11
36.95
 21
27.425
  0
LINE
  5
272
100
AcDbEntity
  8
DRAFT
100
AcDbLine
 62
7
  6
CONTINUOUS
 10
37.0363941489
 20
27.5113941489
 11
22.9636058511
 21
27.5113941489
  0
LWPOLYLINE
  5
273
100
AcDbEntity
  8
0
100
AcDbPolyline
 62
7
  6
CONTINUOUS
 90
47
 70
0
 10
22.1926857746
 20
17.2683547633
 10
22.234523296
 20
17.2503540783
 10
22.277408534
 20
17.2350159138
 10
22.32117224
 20
17.2224008025
 10
22.3656416987
 20
17.2125585309
 10
22.4106414094
 20
17.205527942
 10
22.4559937786
 20
17.2013367824
 10
22.5015198211
 20
17.200001593
 10
22.5470398665
 20
17.2015276433
 10
22.5923742676
 20
17.2059089107
 10
22.6373441101
 20
17.2131281046
 10
22.6817719186
 20
17.2231567343
 10
22.7254823565
 20
17.2359552214
 10
22.7683029185
 20
17.2514730563
 10
22.8100646112
 20
17.2696489972
 10
22.85060262
 20
17.2904113121
 10
22.8897569598
 20
17.3136780617
 10
22.927373106
 20
17.3393574228
 10
22.9633026046
 20
17.3673480507
 10
22.997403658
 20
17.3975394792
 10
23.0295416846
 20
17.4298125565
 10
23.0595898502
 20
17.4640399155
 10
23.0874295681
 20
17.5000864764
 10
23.1129509672
 20
17.5378099798
 10
23.1360533262
 20
17.5770615481
 10
23.1566454701
 20
17.6176862733
 10
23.174646131
 20
17.659523828
 10
23.1899842683
 20
17.7024090983
 10
23.202599349
 20
17.7461728354
 10
23.2124415869
 20
17.7906423236
 10
23.2194721391
 20
17.8356420621
 10
23.2236632588
 20
17.880994457
 10
23.2249984055
 20
17.9265205229
 10
23.2234723098
 20
17.972040589
 10
23.2190909942
 20
18.017375008
 10
23.2118717496
 20
18.0623448654
 10
23.2018430671
 20
18.1067726853
 10
23.1890445251
 20
18.1504831311
 10
23.1735266335
 20
18.1933036972
 10
23.1553506343
 20
18.23506539
 10
23.1345882599
 20
18.2756033948
 10
23.1113214497
 20
18.3147577262
 10
23.0856420274
 20
18.3523738595
 10
23.0576513378
 20
18.3883033406
 10
23.0274598477
 20
18.4224043718
 10
22.995186709
 20
18.4545423715
 10
22.9609592893
 20
18.4845905053
  0
LWPOLYLINE
  5
274
100
AcDbEntity
  8
0
100
AcDbPolyline
 62
7
  6
CONTINUOUS
 90
50
 70
0
 10
22.8479387262
 20
18.5610531761
 10
22.8073140543
 20
18.5816453168
 10
22.7654765548
 20
18.5996459804
 10
22.722591341
 20
18.6149841266
 10
22.678827661
 20
18.6275992226
 10
22.6343582301
 20
18.6374414825
 10
22.5893585486
 20
18.6444720633
 10
22.5440062095
 20
18.6486632183
 10
22.4984801976
 20
18.649998407
 10
22.4529601833
 20
18.64847236
 10
22.4076258131
 20
18.6440910997
 10
22.362656001
 20
18.6368719168
 10
22.3182282221
 20
18.6268433021
 10
22.2745178126
 20
18.6140448339
 10
22.2316972774
 20
18.5985270218
 10
22.1899356095
 20
18.5803511072
 10
22.1493976231
 20
18.5595888222
 10
22.110243303
 20
18.5363221059
 10
22.0726271736
 20
18.5106427812
 10
22.0366976883
 20
18.4826521927
 10
22.0025966446
 20
18.4524608061
 10
21.9704586236
 20
18.4201877731
 10
21.9404104594
 20
18.3859604605
 10
21.9125707386
 20
18.3499139476
 10
21.8870493317
 20
18.3121904934
 10
21.8639469602
 20
18.2729389753
 10
21.8433547986
 20
18.2323143007
 10
21.8253541148
 20
18.1904767967
 10
21.8100159495
 20
18.1475915768
 10
21.7974008354
 20
18.1038278891
 10
21.7875585588
 20
18.059358449
 10
21.7805279626
 20
18.014358757
 10
21.7763367937
 20
17.9690064062
 10
21.7750015926
 20
17.9234803816
 10
21.776527629
 20
17.8779603536
 10
21.7809088803
 20
17.832625969
 10
21.788128056
 20
17.7876561419
 10
21.7981566654
 20
17.7432283476
 10
21.8109551301
 20
17.6995179225
 10
21.8264729407
 20
17.6566973716
 10
21.8446488556
 20
17.6149356881
 10
21.8654111427
 20
17.5743976865
 10
21.8886778631
 20
17.5352433517
 10
21.9143571935
 20
17.4976272081
 10
21.9423477896
 20
17.4616977096
 10
21.9725391854
 20
17.4275966536
 10
22.0048122291
 20
17.3954586215
 10
22.039039554
 20
17.3654104475
 10
22.0750860804
 20
17.3375707183
 10
22.1128095493
 20
17.3120493047
  0
LWPOLYLINE
  5
275
100
AcDbEntity
  8
0
100
AcDbPolyline
 62
7
  6
CONTINUOUS
 90
49
 70
0
 10
22.9238489734
 20
18.5067500459
 10
22.8870790101
 20
18.5258960666
 10
22.848838352
 20
18.5430105583
 10
22.8099281296
 20
18.5577251046
 10
22.77049721
 20
18.5700203678
 10
22.7306944086
 20
18.5798861518
 10
22.6906679331
 20
18.5873213284
 10
22.6505648354
 20
18.5923337308
 10
22.6105304744
 20
18.5949400136
 10
22.5707079907
 20
18.5951654808
 10
22.5312377959
 20
18.5930438834
 10
22.4922570784
 20
18.5886171864
 10
22.4538993265
 20
18.5819353073
 10
22.4162938713
 20
18.5730558276
 10
22.3795654508
 20
18.5620436774
 10
22.3438337961
 20
18.5489707963
 10
22.3092132426
 20
18.5339157706
 10
22.2758123649
 20
18.5169634497
 10
22.2437336396
 20
18.4982045424
 10
22.2130731341
 20
18.4777351954
 10
22.183920225
 20
18.455656556
 10
22.1563573446
 20
18.4320743203
 10
22.1304597578
 20
18.4070982691
 10
22.1062953696
 20
18.3808417935
 10
22.0839245624
 20
18.3534214119
 10
22.0634000656
 20
18.3249562813
 10
22.044766856
 20
18.2955677026
 10
22.0280620897
 20
18.2653786255
 10
22.0133150651
 20
18.2345131508
 10
22.0005472173
 20
18.2030960357
 10
21.9897721435
 20
18.1712522017
 10
21.9809956587
 20
18.139106248
 10
21.9742158808
 20
18.1067819722
 10
21.969423346
 20
18.0744018996
 10
21.9666011517
 20
18.0420868237
 10
21.9657251277
 20
18.0099553588
 10
21.9667640335
 20
17.9781235067
 10
21.9696797817
 20
17.9467042397
 10
21.9744276855
 20
17.9158070997
 10
21.9809567293
 20
17.8855378168
 10
21.9892098618
 20
17.8559979476
 10
21.9991243086
 20
17.8272845342
 10
22.0106319044
 20
17.799489786
 10
22.0236594429
 20
17.7727007849
 10
22.0381290415
 20
17.7469992144
 10
22.0539585214
 20
17.722461114
 10
22.0710617997
 20
17.6991566595
 10
22.089349292
 20
17.6771499696
 10
22.1087283248
 20
17.6564989397
  0
LWPOLYLINE
  5
276
100
AcDbEntity
  8
0
100
AcDbPolyline
 62
7
  6
CONTINUOUS
 90
11
 70
0
 10
22.1952218871
 20
17.5883845015
 10
22.2185900055
 20
17.5751542059
 10
22.2424525162
 20
17.5634904079
 10
22.2667070456
 20
17.5534050994
 10
22.2912515403
 20
17.5449037114
 10
22.3159846806
 20
17.5379851943
 10
22.3408062867
 20
17.5326421239
 10
22.3656177136
 20
17.5288608321
 10
22.3903222358
 20
17.5266215626
 10
22.4148254178
 20
17.5258986492
 10
22.4390354717
 20
17.5266607169
  0
LWPOLYLINE
  5
277
100
AcDbEntity
  8
0
100
AcDbPolyline
 62
7
  6
CONTINUOUS
 90
3
 70
0
 10
22.1128095493
 20
17.3120493047
 10
22.1520610833
 20
17.2889469281
 10
22.1926857746
 20
17.2683547633
  0
LINE
  5
278
100
AcDbEntity
  8
0
100
AcDbLine
 62
7
  6
CONTINUOUS
 10
22.9609592893
 20
18.4845905053
 11
22.9238489734
 21
18.5067500459
  0
LWPOLYLINE
  5
279
100
AcDbEntity
  8
0
100
AcDbPolyline
 62
7
  6
CONTINUOUS
 90
10
 70
0
 10
22.8311569122
 20
18.3270143821
 10
22.850241939
 20
18.3148780176
 10
22.8688841547
 20
18.3018453046
 10
22.8870417475
 20
18.2879324757
 10
22.9046799208
 20
18.2731520933
 10
22.9217513299
 20
18.257529244
 10
22.9381983124
 20
18.2411046036
 10
22.9539784417
 20
18.2239111813
 10
22.96906246
 20
18.2059711714
 10
22.983416197
 20
18.187314278
  0
LINE
  5
27A
100
AcDbEntity
  8
0
100
AcDbLine
 62
7
  6
CONTINUOUS
 10
22.1724504339
 20
17.6031626883
 11
22.1952218871
 21
17.5883845015
  0
LINE
  5
27B
100
AcDbEntity
  8
0
100
AcDbLine
 62
7
  6
CONTINUOUS
 10
22.1503773927
 20
17.6194635184
 11
22.1724504339
 21
17.6031626883
  0
LINE
  5
27C
100
AcDbEntity
  8
0
100
AcDbLine
 62
7
  6
CONTINUOUS
 10
22.1291035546
 20
17.6372551029
 11
22.1503773927
 21
17.6194635184
  0
LINE
  5
27D
100
AcDbEntity
  8
RACCORDO
100
AcDbLine
 62
7
  6
CONTINUOUS
 10
22.7113926258
 20
28.3386058511
 11
37.2886073742
 21
28.3386058511
  0
LINE
  5
27E
100
AcDbEntity
  8
RACCORDO
100
AcDbLine
 62
7
  6
CONTINUOUS
 10
22.6249619238
 20
28.425
 11
37.3750380762
 21
28.425
  0
LWPOLYLINE
  5
27F
100
AcDbEntity
  8
0
100
AcDbPolyline
 62
7
  6
CONTINUOUS
 90
47
 70
0
 10
37.1926857746
 20
17.2683547633
 10
37.234523296
 20
17.2503540783
 10
37.277408534
 20
17.2350159138
 10
37.32117224
 20
17.2224008025
 10
37.3656416987
 20
17.2125585309
 10
37.4106414094
 20
17.205527942
 10
37.4559937786
 20
17.2013367824
 10
37.5015198211
 20
17.200001593
 10
37.5470398665
 20
17.2015276433
 10
37.5923742676
 20
17.2059089107
 10
37.6373441101
 20
17.2131281046
 10
37.6817719186
 20
17.2231567343
 10
37.7254823565
 20
17.2359552214
 10
37.7683029185
 20
17.2514730563
 10
37.8100646112
 20
17.2696489972
 10
37.85060262
 20
17.2904113121
 10
37.8897569598
 20
17.3136780617
 10
37.927373106
 20
17.3393574228
 10
37.9633026046
 20
17.3673480507
 10
37.997403658
 20
17.3975394792
 10
38.0295416846
 20
17.4298125565
 10
38.0595898502
 20
17.4640399155
 10
38.0874295681
 20
17.5000864764
 10
38.1129509672
 20
17.5378099798
 10
38.1360533262
 20
17.5770615481
 10
38.1566454701
 20
17.6176862733
 10
38.174646131
 20
17.659523828
 10
38.1899842683
 20
17.7024090983
 10
38.202599349
 20
17.7461728354
 10
38.2124415869
 20
17.7906423236
 10
38.2194721391
 20
17.8356420621
 10
38.2236632588
 20
17.880994457
 10
38.2249984055
 20
17.9265205229
 10
38.2234723098
 20
17.972040589
 10
38.2190909942
 20
18.017375008
 10
38.2118717496
 20
18.0623448654
 10
38.2018430671
 20
18.1067726853
 10
38.1890445251
 20
18.1504831311
 10
38.1735266335
 20
18.1933036972
 10
38.1553506343
 20
18.23506539
 10
38.1345882599
 20
18.2756033948
 10
38.1113214497
 20
18.3147577262
 10
38.0856420274
 20
18.3523738595
 10
38.0576513378
 20
18.3883033406
 10
38.0274598477
 20
18.4224043718
 10
37.995186709
 20
18.4545423715
 10
37.9609592893
 20
18.4845905053
  0
LWPOLYLINE
  5
280
100
AcDbEntity
  8
0
100
AcDbPolyline
 62
7
  6
CONTINUOUS
 90
3
 70
0
 10
22.9249136987
 20
18.5124294414
 10
22.8871902435
 20
18.5379508262
 10
22.8479387262
 20
18.5610531761
  0
LINE
  5
281
100
AcDbEntity
  8
0
100
AcDbLine
 62
7
  6
CONTINUOUS
 10
22.9609602147
 20
18.484589743
 11
22.9249136987
 21
18.5124294414
  0
LINE
  5
282
100
AcDbEntity
  8
0
100
AcDbLine
 62
7
  6
CONTINUOUS
 10
22.1087283248
 20
17.6564989397
 11
22.1291035546
 21
17.6372551029
  0
LINE
  5
283
100
AcDbEntity
  8
RACCORDO
100
AcDbLine
 62
7
  6
CONTINUOUS
 10
21.2165867876
 20
22.1084132124
 11
21.2
 21
22.125
  0
LINE
  5
284
100
AcDbEntity
  8
DRAFT
100
AcDbLine
 62
7
  6
CONTINUOUS
 10
23.05
 20
21.425
 11
23.0316739684
 21
21.4433260316
  0
LINE
  5
285
100
AcDbEntity
  8
DRAFT
100
AcDbLine
 62
7
  6
CONTINUOUS
 10
22.3933260316
 20
22.1066739684
 11
22.375
 21
22.125
  0
LWPOLYLINE
  5
286
100
AcDbEntity
  8
0
100
AcDbPolyline
 62
7
  6
CONTINUOUS
 90
50
 70
0
 10
37.8479387262
 20
18.5610531761
 10
37.8073140543
 20
18.5816453168
 10
37.7654765548
 20
18.5996459804
 10
37.722591341
 20
18.6149841266
 10
37.678827661
 20
18.6275992226
 10
37.6343582301
 20
18.6374414825
 10
37.5893585486
 20
18.6444720633
 10
37.5440062095
 20
18.6486632183
 10
37.4984801976
 20
18.649998407
 10
37.4529601833
 20
18.64847236
 10
37.4076258131
 20
18.6440910997
 10
37.362656001
 20
18.6368719168
 10
37.3182282221
 20
18.6268433021
 10
37.2745178126
 20
18.6140448339
 10
37.2316972774
 20
18.5985270218
 10
37.1899356095
 20
18.5803511072
 10
37.1493976231
 20
18.5595888222
 10
37.110243303
 20
18.5363221059
 10
37.0726271736
 20
18.5106427812
 10
37.0366976883
 20
18.4826521927
 10
37.0025966446
 20
18.4524608061
 10
36.9704586236
 20
18.4201877731
 10
36.9404104594
 20
18.3859604605
 10
36.9125707386
 20
18.3499139476
 10
36.8870493317
 20
18.3121904934
 10
36.8639469602
 20
18.2729389753
 10
36.8433547986
 20
18.2323143007
 10
36.8253541148
 20
18.1904767967
 10
36.8100159495
 20
18.1475915768
 10
36.7974008354
 20
18.1038278891
 10
36.7875585588
 20
18.059358449
 10
36.7805279626
 20
18.014358757
 10
36.7763367937
 20
17.9690064062
 10
36.7750015926
 20
17.9234803816
 10
36.776527629
 20
17.8779603536
 10
36.7809088803
 20
17.832625969
 10
36.788128056
 20
17.7876561419
 10
36.7981566654
 20
17.7432283476
 10
36.8109551301
 20
17.6995179225
 10
36.8264729407
 20
17.6566973716
 10
36.8446488556
 20
17.6149356881
 10
36.8654111427
 20
17.5743976865
 10
36.8886778631
 20
17.5352433517
 10
36.9143571935
 20
17.4976272081
 10
36.9423477896
 20
17.4616977096
 10
36.9725391854
 20
17.4275966536
 10
37.0048122291
 20
17.3954586215
 10
37.039039554
 20
17.3654104475
 10
37.0750860804
 20
17.3375707183
 10
37.1128095493
 20
17.3120493047
  0
LWPOLYLINE
  5
287
100
AcDbEntity
  8
0
100
AcDbPolyline
 62
7
  6
CONTINUOUS
 90
49
 70
0
 10
37.9238489734
 20
18.5067500459
 10
37.8870790101
 20
18.5258960666
 10
37.848838352
 20
18.5430105583
 10
37.8099281296
 20
18.5577251046
 10
37.77049721
 20
18.5700203678
 10
37.7306944086
 20
18.5798861518
 10
37.6906679331
 20
18.5873213284
 10
37.6505648354
 20
18.5923337308
 10
37.6105304744
 20
18.5949400136
 10
37.5707079907
 20
18.5951654808
 10
37.5312377959
 20
18.5930438834
 10
37.4922570784
 20
18.5886171864
 10
37.4538993265
 20
18.5819353073
 10
37.4162938713
 20
18.5730558276
 10
37.3795654508
 20
18.5620436774
 10
37.3438337961
 20
18.5489707963
 10
37.3092132426
 20
18.5339157706
 10
37.2758123649
 20
18.5169634497
 10
37.2437336396
 20
18.4982045424
 10
37.2130731341
 20
18.4777351954
 10
37.183920225
 20
18.455656556
 10
37.1563573446
 20
18.4320743203
 10
37.1304597578
 20
18.4070982691
 10
37.1062953696
 20
18.3808417935
 10
37.0839245624
 20
18.3534214119
 10
37.0634000656
 20
18.3249562813
 10
37.044766856
 20
18.2955677026
 10
37.0280620897
 20
18.2653786255
 10
37.0133150651
 20
18.2345131508
 10
37.0005472173
 20
18.2030960357
 10
36.9897721435
 20
18.1712522017
 10
36.9809956587
 20
18.139106248
 10
36.9742158808
 20
18.1067819722
 10
36.969423346
 20
18.0744018996
 10
36.9666011517
 20
18.0420868237
 10
36.9657251277
 20
18.0099553588
 10
36.9667640335
 20
17.9781235067
 10
36.9696797817
 20
17.9467042397
 10
36.9744276855
 20
17.9158070997
 10
36.9809567293
 20
17.8855378168
 10
36.9892098618
 20
17.8559979476
 10
36.9991243086
 20
17.8272845342
 10
37.0106319044
 20
17.799489786
 10
37.0236594429
 20
17.7727007849
 10
37.0381290415
 20
17.7469992144
 10
37.0539585214
 20
17.722461114
 10
37.0710617997
 20
17.6991566595
 10
37.089349292
 20
17.6771499696
 10
37.1087283248
 20
17.6564989397
  0
LWPOLYLINE
  5
288
100
AcDbEntity
  8
0
100
AcDbPolyline
 62
7
  6
CONTINUOUS
 90
11
 70
0
 10
37.1952218871
 20
17.5883845015
 10
37.2185900055
 20
17.5751542059
 10
37.2424525162
 20
17.5634904079
 10
37.2667070456
 20
17.5534050994
 10
37.2912515403
 20
17.5449037114
 10
37.3159846806
 20
17.5379851943
 10
37.3408062867
 20
17.5326421239
 10
37.3656177136
 20
17.5288608321
 10
37.3903222358
 20
17.5266215626
 10
37.4148254178
 20
17.5258986492
 10
37.4390354717
 20
17.5266607169
  0
LWPOLYLINE
  5
289
100
AcDbEntity
  8
0
100
AcDbPolyline
 62
7
  6
CONTINUOUS
 90
3
 70
0
 10
37.1128095493
 20
17.3120493047
 10
37.1520610833
 20
17.2889469281
 10
37.1926857746
 20
17.2683547633
  0
LINE
  5
28A
100
AcDbEntity
  8
0
100
AcDbLine
 62
7
  6
CONTINUOUS
 10
37.9609592893
 20
18.4845905053
 11
37.9238489734
 21
18.5067500459
  0
LINE
  5
28B
100
AcDbEntity
  8
0
100
AcDbLine
 62
7
  6
CONTINUOUS
 10
37.1724504339
 20
17.6031626883
 11
37.1952218871
 21
17.5883845015
  0
LWPOLYLINE
  5
28C
100
AcDbEntity
  8
RACCORDO
100
AcDbPolyline
 62
7
  6
CONTINUOUS
 90
16
 70
0
 10
37.625
 20
28.1750015231
 10
37.623650032
 20
28.2009534419
 10
37.6195917396
 20
28.2267273969
 10
37.6128370357
 20
28.2520375786
 10
37.603388938
 20
28.2766862733
 10
37.5913419546
 20
28.3002919084
 10
37.5769735409
 20
28.3223390706
 10
37.5606402125
 20
28.342451276
 10
37.542451276
 20
28.3606402125
 10
37.5223390706
 20
28.3769735409
 10
37.5002919084
 20
28.3913419546
 10
37.4766862733
 20
28.403388938
 10
37.4520375786
 20
28.4128370357
 10
37.4267273969
 20
28.4195917396
 10
37.4009534419
 20
28.423650032
 10
37.3750015231
 20
28.425
  0
LWPOLYLINE
  5
28D
100
AcDbEntity
  8
0
100
AcDbPolyline
 62
7
  6
CONTINUOUS
 90
37
 70
0
 10
37.0515598785
 20
17.925
 10
37.0504328939
 20
17.9536322111
 10
37.0511412036
 20
17.9824216172
 10
37.0537011349
 20
18.0112502336
 10
37.0581306025
 20
18.0400477672
 10
37.0644277967
 20
18.0686435852
 10
37.0725392184
 20
18.0967719479
 10
37.0823915676
 20
18.12424215
 10
37.093955513
 20
18.1510251691
 10
37.1072217523
 20
18.1771020891
 10
37.1221487674
 20
18.2023721199
 10
37.1386806868
 20
18.2267237412
 10
37.1568058884
 20
18.2501135027
 10
37.1764722349
 20
18.2724380885
 10
37.1976167817
 20
18.2935925216
 10
37.2202226277
 20
18.3135199333
 10
37.2442904522
 20
18.3321641254
 10
37.2696855643
 20
18.3493663359
 10
37.2961644929
 20
18.3649399235
 10
37.3235964035
 20
18.3788101483
 10
37.3518915467
 20
18.3909339482
 10
37.3808321562
 20
18.4012290162
 10
37.4101890727
 20
18.4096464951
 10
37.4399415103
 20
18.4162126221
 10
37.4701870216
 20
18.4209496383
 10
37.5008388592
 20
18.4238217877
 10
37.5317563303
 20
18.4247938062
 10
37.5629656388
 20
18.4238333834
 10
37.5944428782
 20
18.4208851715
 10
37.6259642857
 20
18.4159131093
 10
37.6572540366
 20
18.4089261808
 10
37.6881999772
 20
18.3999269397
 10
37.7186549284
 20
18.3889352549
 10
37.7483040971
 20
18.3760637847
 10
37.7769749763
 20
18.3614147675
 10
37.8046255734
 20
18.3450380447
 10
37.8311569122
 20
18.3270143821
  0
LINE
  5
28E
100
AcDbEntity
  8
DRAFT
100
AcDbLine
 62
7
  6
CONTINUOUS
 10
36.95
 20
21.425
 11
36.95
 21
27.425
  0
LINE
  5
28F
100
AcDbEntity
  8
DRAFT
100
AcDbLine
 62
7
  6
CONTINUOUS
 10
36.9683260316
 20
21.4433260316
 11
36.9683260316
 21
23.325
  0
LINE
  5
290
100
AcDbEntity
  8
DRAFT
100
AcDbLine
 62
7
  6
CONTINUOUS
 10
37.0363941489
 20
23.325
 11
37.0363941489
 21
27.5113941489
  0
LINE
  5
291
100
AcDbEntity
  8
RACCORDO
100
AcDbLine
 62
7
  6
CONTINUOUS
 10
37.5386058511
 20
23.325
 11
37.5386058511
 21
28.0886073742
  0
LINE
  5
292
100
AcDbEntity
  8
DRAFT
100
AcDbLine
 62
7
  6
CONTINUOUS
 10
37.6066739684
 20
22.1066739684
 11
37.6066739684
 21
23.325
  0
LINE
  5
293
100
AcDbEntity
  8
DRAFT
100
AcDbLine
 62
7
  6
CONTINUOUS
 10
37.625
 20
22.925
 11
37.625
 21
22.125
  0
LINE
  5
294
100
AcDbEntity
  8
RACCORDO
100
AcDbLine
 62
7
  6
CONTINUOUS
 10
37.625
 20
22.925
 11
37.625
 21
28.1750015231
  0
LINE
  5
295
100
AcDbEntity
  8
RACCORDO
100
AcDbLine
 62
250
  6
CONTINUOUS
 10
38.2834162586
 20
21.4433260316
 11
38.2834162586
 21
22.1066739684
  0
LINE
  5
296
100
AcDbEntity
  8
RACCORDO
100
AcDbLine
 62
7
  6
CONTINUOUS
 10
38.7834132124
 20
21.4415867876
 11
38.7834132124
 21
22.1084132124
  0
LINE
  5
297
100
AcDbEntity
  8
DRAFT
100
AcDbLine
 62
7
  6
CONTINUOUS
 10
38.8
 20
22.125
 11
38.8
 21
21.425
  0
LINE
  5
298
100
AcDbEntity
  8
RACCORDO
100
AcDbLine
 62
7
  6
CONTINUOUS
 10
39.125
 20
22.6750380762
 11
39.125
 21
16.675
  0
LWPOLYLINE
  5
299
100
AcDbEntity
  8
0
100
AcDbPolyline
 62
7
  6
CONTINUOUS
 90
10
 70
0
 10
37.8311569122
 20
18.3270143821
 10
37.850241939
 20
18.3148780176
 10
37.8688841547
 20
18.3018453046
 10
37.8870417475
 20
18.2879324757
 10
37.9046799208
 20
18.2731520933
 10
37.9217513299
 20
18.257529244
 10
37.9381983124
 20
18.2411046036
 10
37.9539784417
 20
18.2239111813
 10
37.96906246
 20
18.2059711714
 10
37.983416197
 20
18.187314278
  0
LWPOLYLINE
  5
29A
100
AcDbEntity
  8
0
100
AcDbPolyline
 62
7
  6
CONTINUOUS
 90
3
 70
0
 10
37.9249136987
 20
18.5124294414
 10
37.8871902435
 20
18.5379508262
 10
37.8479387262
 20
18.5610531761
  0
LINE
  5
29B
100
AcDbEntity
  8
0
100
AcDbLine
 62
7
  6
CONTINUOUS
 10
37.1503773927
 20
17.6194635184
 11
37.1724504339
 21
17.6031626883
  0
LINE
  5
29C
100
AcDbEntity
  8
0
100
AcDbLine
 62
7
  6
CONTINUOUS
 10
37.9609602147
 20
18.484589743
 11
37.9249136987
 21
18.5124294414
  0
LINE
  5
29D
100
AcDbEntity
  8
0
100
AcDbLine
 62
7
  6
CONTINUOUS
 10
37.1291035546
 20
17.6372551029
 11
37.1503773927
 21
17.6194635184
  0
LINE
  5
29E
100
AcDbEntity
  8
0
100
AcDbLine
 62
7
  6
CONTINUOUS
 10
37.1087283248
 20
17.6564989397
 11
37.1291035546
 21
17.6372551029
  0
LINE
  5
29F
100
AcDbEntity
  8
DRAFT
100
AcDbLine
 62
7
  6
CONTINUOUS
 10
22.9636058511
 20
27.5113941489
 11
23.05
 21
27.425
  0
LINE
  5
2A0
100
AcDbEntity
  8
RACCORDO
100
AcDbLine
 62
250
  6
CONTINUOUS
 10
22.375
 20
28.1750015231
 11
22.4613941489
 21
28.0886073742
  0
LINE
  5
2A1
100
AcDbEntity
  8
RACCORDO
100
AcDbLine
 62
250
  6
CONTINUOUS
 10
22.6249984769
 20
28.425
 11
22.7113926258
 21
28.3386058511
  0
LINE
  5
2A2
100
AcDbEntity
  8
RACCORDO
100
AcDbLine
 62
7
  6
CONTINUOUS
 10
38.8
 20
21.425
 11
38.7834132124
 21
21.4415867876
  0
LWPOLYLINE
  5
2A3
100
AcDbEntity
  8
0
100
AcDbPolyline
 62
7
  6
CONTINUOUS
 90
37
 70
0
 10
44.4765598785
 20
-15.7
 10
44.4754328939
 20
-15.6713677889
 10
44.4761412036
 20
-15.6425783828
 10
44.4787011349
 20
-15.6137497664
 10
44.4831306025
 20
-15.5849522328
 10
44.4894277967
 20
-15.5563564148
 10
44.4975392184
 20
-15.5282280521
 10
44.5073915676
 20
-15.50075785
 10
44.518955513
 20
-15.4739748309
 10
44.5322217523
 20
-15.4478979109
 10
44.5471487674
 20
-15.4226278801
 10
44.5636806868
 20
-15.3982762588
 10
44.5818058884
 20
-15.3748864973
 10
44.6014722349
 20
-15.3525619115
 10
44.6226167817
 20
-15.3314074784
 10
44.6452226277
 20
-15.3114800667
 10
44.6692904522
 20
-15.2928358746
 10
44.6946855643
 20
-15.2756336641
 10
44.7211644929
 20
-15.2600600765
 10
44.7485964035
 20
-15.2461898517
 10
44.7768915467
 20
-15.2340660518
 10
44.8058321562
 20
-15.2237709838
 10
44.8351890727
 20
-15.2153535049
 10
44.8649415103
 20
-15.2087873779
 10
44.8951870216
 20
-15.2040503617
 10
44.9258388592
 20
-15.2011782123
 10
44.9567563303
 20
-15.2002061938
 10
44.9879656388
 20
-15.2011666166
 10
45.0194428782
 20
-15.2041148285
 10
45.0509642857
 20
-15.2090868907
 10
45.0822540366
 20
-15.2160738192
 10
45.1131999772
 20
-15.2250730603
 10
45.1436549284
 20
-15.2360647451
 10
45.1733040971
 20
-15.2489362153
 10
45.2019749763
 20
-15.2635852325
 10
45.2296255734
 20
-15.2799619553
 10
45.2561569122
 20
-15.2979856179
  0
LINE
  5
2A4
100
AcDbEntity
  8
0
100
AcDbLine
 62
7
  6
CONTINUOUS
 10
45.2561569122
 20
-15.2979856179
 11
45.3859592893
 21
-15.1404094947
  0
LINE
  5
2A5
100
AcDbEntity
  8
DRAFT
100
AcDbLine
 62
7
  6
CONTINUOUS
 10
49.25
 20
-18.325
 11
49.25
 21
-17.325
  0
LINE
  5
2A6
100
AcDbEntity
  8
DRAFT
100
AcDbLine
 62
7
  6
CONTINUOUS
 10
49.299067263
 20
-17.374067263
 11
49.299067263
 21
-18.275932737
  0
LINE
  5
2A7
100
AcDbEntity
  8
DRAFT
100
AcDbLine
 62
7
  6
CONTINUOUS
 10
49.95
 20
-17.175
 11
49.95
 21
-26.675
  0
LINE
  5
2A8
100
AcDbEntity
  8
RACCORDO
100
AcDbLine
 62
7
  6
CONTINUOUS
 10
51.0929163798
 20
-12.232074101
 11
51.0929163798
 21
-17.175
  0
LINE
  5
2A9
100
AcDbEntity
  8
RACCORDO
100
AcDbLine
 62
7
  6
CONTINUOUS
 10
51.25
 20
-27.9250190385
 11
51.25
 21
-17.175
  0
LINE
  5
2AA
100
AcDbEntity
  8
DRAFT
100
AcDbLine
 62
7
  6
CONTINUOUS
 10
49.25
 20
-18.325
 11
49.299067263
 21
-18.275932737
  0
CIRCLE
  5
2AB
100
AcDbEntity
  8
ASSI
100
AcDbCircle
 62
7
  6
CONTINUOUS
 10
-44.925
 20
-15.7
 40
0.875
  0
ARC
  5
2AC
100
AcDbEntity
  8
0
100
AcDbCircle
 62
7
  6
CONTINUOUS
 10
-44.925
 20
-15.7
 40
0.55
100
AcDbArc
 50
165.1285330383
 51
28.485415945
  0
CIRCLE
  5
2AD
100
AcDbEntity
  8
ASSI
100
AcDbCircle
 62
7
  6
CONTINUOUS
 10
44.925
 20
-15.7
 40
0.875
  0
ARC
  5
2AE
100
AcDbEntity
  8
0
100
AcDbCircle
 62
7
  6
CONTINUOUS
 10
44.925
 20
-15.7
 40
0.55
100
AcDbArc
 50
165.1285330383
 51
28.485415945
  0
ARC
  5
2AF
100
AcDbEntity
  8
0
100
AcDbCircle
 62
7
  6
CONTINUOUS
 10
22.5
 20
17.925
 40
1.4
100
AcDbArc
 50
243.2456401273
 51
296.7532147894
  0
ARC
  5
2B0
100
AcDbEntity
  8
0
100
AcDbCircle
 62
7
  6
CONTINUOUS
 10
37.5
 20
17.925
 40
1.4
100
AcDbArc
 50
243.2463233318
 51
296.7536766709
  0
ARC
  5
2B1
100
AcDbEntity
  8
0
100
AcDbCircle
 62
250
  6
CONTINUOUS
 10
22.5
 20
17.925
 40
1.3
100
AcDbArc
 50
254.1145721458
 51
285.8854281042
  0
ARC
  5
2B2
100
AcDbEntity
  8
0
100
AcDbCircle
 62
250
  6
CONTINUOUS
 10
37.5
 20
17.925
 40
1.3
100
AcDbArc
 50
254.1145721458
 51
285.8854281042
  0
CIRCLE
  5
2B3
100
AcDbEntity
  8
ASSI
100
AcDbCircle
 62
7
  6
CONTINUOUS
 10
37.5
 20
17.925
 40
0.75
  0
CIRCLE
  5
2B4
100
AcDbEntity
  8
ASSI
100
AcDbCircle
 62
7
  6
CONTINUOUS
 10
22.5
 20
17.925
 40
0.75
  0
ARC
  5
2B5
100
AcDbEntity
  8
0
100
AcDbCircle
 62
7
  6
CONTINUOUS
 10
22.5
 20
17.925
 40
0.55
100
AcDbArc
 50
165.1285330383
 51
28.485415945
  0
ARC
  5
2B6
100
AcDbEntity
  8
0
100
AcDbCircle
 62
7
  6
CONTINUOUS
 10
37.5
 20
17.925
 40
0.55
100
AcDbArc
 50
165.1285330383
 51
28.485415945
  0
ELLIPSE
  5
2B7
100
AcDbEntity
  8
RACCORDO
100
AcDbEllipse
 62
7
  6
CONTINUOUS
 10
38.874961918
 20
22.674961918
 30
0.0
 11
0.1768305473
 21
0.1768305473
 31
0.0
 40
0.9996954599
 41
-0.7852458701
 42
0.7852458701
  0
ELLIPSE
  5
2B8
100
AcDbEntity
  8
RACCORDO
100
AcDbEllipse
 62
7
  6
CONTINUOUS
 10
21.125038082
 20
22.674961918
 30
0.0
 11
-0.1768305473
 21
0.1768305473
 31
0.0
 40
0.9996954599
 41
-0.7852458701
 42
0.7852458701
  0
ELLIPSE
  5
2B9
100
AcDbEntity
  8
RACCORDO
100
AcDbEllipse
 62
7
  6
CONTINUOUS
 10
38.2834162586
 20
22.1084193048
 30
0.0
 11
0.5
 21
-0.0
 31
0.0
 40
0.0034906727
 41
-1.5707963268
 42
-0.0034906585
  0
ELLIPSE
  5
2BA
100
AcDbEntity
  8
RACCORDO
100
AcDbEllipse
 62
7
  6
CONTINUOUS
 10
37.288604328
 20
28.088604328
 30
0.0
 11
-0.1767788493
 21
-0.1767788493
 31
0.0
 40
0.9999878154
 41
2.3562005825
 42
3.9269847247
  0
ELLIPSE
  5
2BB
100
AcDbEntity
  8
RACCORDO
100
AcDbEllipse
 62
7
  6
CONTINUOUS
 10
22.711395672
 20
28.088604328
 30
0.0
 11
-0.1767788493
 21
0.1767788493
 31
0.0
 40
0.9999878154
 41
-0.7853920711
 42
0.7853920711
  0
ELLIPSE
  5
2BC
100
AcDbEntity
  8
RACCORDO
100
AcDbEllipse
 62
7
  6
CONTINUOUS
 10
21.7165837414
 20
22.1084193048
 30
0.0
 11
0.5
 21
-0.0
 31
0.0
 40
0.0034906727
 41
-3.1381019951
 42
-1.5707963268
  0
ELLIPSE
  5
2BD
100
AcDbEntity
  8
RACCORDO
100
AcDbEllipse
 62
7
  6
CONTINUOUS
 10
21.7165837414
 20
21.4415806952
 30
0.0
 11
0.5
 21
-0.0
 31
0.0
 40
0.0034906727
 41
1.5707963268
 42
3.1381019951
  0
ELLIPSE
  5
2BE
100
AcDbEntity
  8
RACCORDO
100
AcDbEllipse
 62
7
  6
CONTINUOUS
 10
38.2834162586
 20
21.4415806952
 30
0.0
 11
0.5
 21
-0.0
 31
0.0
 40
0.0034906727
 41
0.0034906585
 42
1.5707963268
  0
ELLIPSE
  5
2BF
100
AcDbEntity
  8
RACCORDO
100
AcDbEllipse
 62
7
  6
CONTINUOUS
 10
-50.7499809608
 20
-27.9249809608
 30
0.0
 11
-0.3535803156
 21
-0.3535803156
 31
0.0
 40
0.9999238505
 41
-0.7853600872
 42
0.7853600872
  0
ELLIPSE
  5
2C0
100
AcDbEntity
  8
RACCORDO
100
AcDbEllipse
 62
7
  6
CONTINUOUS
 10
50.7499809608
 20
-27.9249809608
 30
0.0
 11
-0.3535803156
 21
0.3535803156
 31
0.0
 40
0.9999238505
 41
2.3562325664
 42
3.9269527408
  0
ELLIPSE
  5
2C1
100
AcDbEntity
  8
RACCORDO
100
AcDbEllipse
 62
7
  6
CONTINUOUS
 10
50.8429068602
 20
-12.2320931398
 30
0.0
 11
-0.1767901578
 21
-0.1767901578
 31
0.0
 40
0.9999238505
 41
2.3562325664
 42
3.9269527408
  0
ELLIPSE
  5
2C2
100
AcDbEntity
  8
RACCORDO
100
AcDbEllipse
 62
7
  6
CONTINUOUS
 10
-50.8429068602
 20
-12.2320931398
 30
0.0
 11
-0.1767901578
 21
0.1767901578
 31
0.0
 40
0.9999238505
 41
-0.7853600872
 42
0.7853600872
  0
ENDSEC
  0
SECTION
  2
OBJECTS
  0
DICTIONARY
  5
C
100
AcDbDictionary
280
0
281
1
  3
ACAD_GROUP
350
D
  3
ACAD_MLINESTYLE
350
17
  3
ACAD_LAYOUT
350
1A
  3
ACAD_PLOTSETTINGS
350
19
  3
ACAD_PLOTSTYLENAME
350
E
  0
DICTIONARY
  5
D
102
{ACAD_REACTORS
330
C
102
}
100
AcDbDictionary
280
0
281
1
  0
ACDBDICTIONARYWDFLT
  5
E
102
{ACAD_REACTORS
330
C
102
}
100
AcDbDictionary
281
1
  3
Normal
350
F
100
AcDbDictionaryWithDefault
340
F
  0
DICTIONARY
  5
17
102
{ACAD_REACTORS
330
C
102
}
100
AcDbDictionary
280
0
281
1
  3
Standard
350
18
  0
DICTIONARY
  5
19
102
{ACAD_REACTORS
330
C
102
}
100
AcDbDictionary
281
1
  0
DICTIONARY
  5
1A
102
{ACAD_REACTORS
330
C
102
}
100
AcDbDictionary
281
1
  3
Model
350
2C3
  3
Layout1
350
2C4
  0
ACDBPLACEHOLDER
  5
F
102
{ACAD_REACTORS
330
E
102
}
  0
MLINESTYLE
  5
18
102
{ACAD_REACTORS
330
17
102
}
100
AcDbMlineStyle
  2
STANDARD
 70
0
  3

 62
256
 51
90.0
 52
90.0
 71
2
 49
0.5
 62
256
  6
BYLAYER
 49
-0.5
 62
256
  6
BYLAYER
  0
LAYOUT
  5
2C3
102
{ACAD_REACTORS
330
1A
102
}
100
AcDbPlotSettings
  1

  2
none_device
  4
ANSI_C_(22.00_x_17.00_Inches)
  6

 40
0.0
 41
0.0
 42
0.0
 43
0.0
 44
558.8
 45
431.8
 46
0.0
 47
0.0
 48
0.0
 49
0.0
140
0.0
141
0.0
142
1.0
143
1.0
 70
1024
 72
1
 73
0
 74
0
  7

 75
0
147
1.0
148
0.0
149
0.0
100
AcDbLayout
  1
Model
 70
0
 71
0
 10
0.0
 20
0.0
 11
558.8
 21
431.8
 12
0.0
 22
0.0
 32
0.0
 14
0.0
 24
0.0
 34
0.0
 15
0.0
 25
0.0
 35
0.0
146
0.0
 13
0.0
 23
0.0
 33
0.0
 16
1.0
 26
0.0
 36
0.0
 17
0.0
 27
1.0
 37
0.0
 76
0
330
212
345
0
346
0
  0
LAYOUT
  5
2C4
102
{ACAD_REACTORS
330
1A
102
}
100
AcDbPlotSettings
  1

  2
none_device
  4
ANSI_C_(22.00_x_17.00_Inches)
  6

 40
0.0
 41
0.0
 42
0.0
 43
0.0
 44
558.8
 45
431.8
 46
0.0
 47
0.0
 48
0.0
 49
0.0
140
0.0
141
0.0
142
1.0
143
1.0
 70
0
 72
1
 73
0
 74
0
  7

 75
0
147
1.0
148
0.0
149
0.0
100
AcDbLayout
  1
Layout1
 70
0
 71
1
 10
0.0
 20
0.0
 11
558.8
 21
431.8
 12
0.0
 22
0.0
 32
0.0
 14
0.0
 24
0.0
 34
0.0
 15
0.0
 25
0.0
 35
0.0
146
0.0
 13
0.0
 23
0.0
 33
0.0
 16
1.0
 26
0.0
 36
0.0
 17
0.0
 27
1.0
 37
0.0
 76
0
330
213
345
0
346
0
  0
ENDSEC
  0
EOF
