  0
SECTION
  2
HEADER
  9
$ACADVER
  1
AC1021
  9
$DWGCODEPAGE
  3
ANSI_1252
  9
$EXTMAX
 10
297.0
 20
210.0
 30
0.0
  9
$EXTMIN
 10
0.0
 20
0.0
 30
0.0
  9
$LIMMIN
 10
0.0
 20
0.0
  9
$LIMMAX
 10
297.0
 20
210.0
  9
$VIEWCTR
 10
148.5
 20
105.0
  9
$VIEWSIZE
 40
210.0
  9
$CLAYER
  8
0
  9
$LTSCALE
 40
16.335
  9
$CELTYPE
  6
BYLAYER
  9
$DIMSCALE
 40
1.0
  9
$DIMASZ
 40
3.0
  9
$DIMEXO
 40
0.5
  9
$DIMDLI
 40
11.286
  9
$DIMEXE
 40
1.5
  9
$DIMCEN
 40
2.673
  9
$DIMLFAC
 40
1.0
  9
$DIMBLK
  1
_FILLED
  9
$DIMALT
 70
0
  9
$DIMALTF
 40
0.0393700787
  9
$DIMTXT
 40
3.0
  9
$DIMTOL
 70
1
  9
$DIMLIM
 70
0
  9
$DIMTFAC
 40
1.0
  9
$DIMTP
 40
0.01
  9
$DIMTM
 40
0.01
  9
$DIMGAP
 40
0.625
  9
$DIMDSEP
 70
44
  9
$AUNITS
 70
0
  9
$PDMODE
 70
3
  9
$PDSIZE
 40
3.0
  9
$HANDSEED
  5
382
  9
$TILEMODE
 70
1
  9
$MEASUREMENT
 70
1
  9
$INSUNITS
 70
4
  0
ENDSEC
  0
SECTION
  2
CLASSES
  0
CLASS
  1
ACDBDICTIONARYWDFLT
  2
AcDbDictionaryWithDefault
  3
AutoCAD 2000
 90
0
 91
1
280
0
281
0
  0
CLASS
  1
ACDBPLACEHOLDER
  2
AcDbPlaceHolder
  3
AutoCAD 2000
 90
0
 91
1
280
0
281
0
  0
CLASS
  1
LAYOUT
  2
AcDbLayout
  3
AutoCAD 2000
 90
0
 91
0
280
0
281
0
  0
ENDSEC
  0
SECTION
  2
TABLES
  0
TABLE
  2
VPORT
  5
8
100
AcDbSymbolTable
 70
2
  0
VPORT
  5
1F4
100
AcDbSymbolTableRecord
100
AcDbViewportTableRecord
  2
*ACTIVE
 70
0
 10
0.0
 20
0.0
 11
1.0
 21
1.0
 12
148.5
 22
105.0
 13
0.0
 23
0.0
 14
1.0
 24
1.0
 15
0.0
 25
0.0
 16
0.0
 26
0.0
 36
1.0
 17
0.0
 27
0.0
 37
0.0
 40
210.0
 41
1.4142857143
 42
50.0
 43
0.0
 44
0.0
 50
0.0
 51
0.0
 71
0
 72
100
 73
1
 74
1
 75
0
 76
0
 77
0
 78
0
  0
ENDTAB
  0
TABLE
  2
LTYPE
  5
5
100
AcDbSymbolTable
 70
6
  0
LTYPE
  5
14
100
AcDbSymbolTableRecord
100
AcDbLinetypeTableRecord
  2
BYBLOCK
 70
0
  3

 72
65
 73
0
 40
0.0
  0
LTYPE
  5
15
100
AcDbSymbolTableRecord
100
AcDbLinetypeTableRecord
  2
BYLAYER
 70
0
  3

 72
65
 73
0
 40
0.0
  0
LTYPE
  5
16
100
AcDbSymbolTableRecord
100
AcDbLinetypeTableRecord
  2
CONTINUOUS
 70
64
  3
Solid line
 72
65
 73
0
 40
0.0
  0
LTYPE
  5
1F5
100
AcDbSymbolTableRecord
100
AcDbLinetypeTableRecord
  2
CENTER
 70
64
  3
____ _ ____ _ ____ _ ____ _ ____ _ ____ _ ____
 72
65
 73
4
 40
0.6
 49
0.375
 74
0
 49
-0.075
 74
0
 49
0.075
 74
0
 49
-0.075
 74
0
  0
LTYPE
  5
1F6
100
AcDbSymbolTableRecord
100
AcDbLinetypeTableRecord
  2
HIDDEN
 70
64
  3
- - - - - - - - - - - - - - - - - - - -
 72
65
 73
2
 40
0.2
 49
0.1
 74
0
 49
-0.1
 74
0
  0
LTYPE
  5
1F7
100
AcDbSymbolTableRecord
100
AcDbLinetypeTableRecord
  2
PHANTOM
 70
64
  3
_____ _ _ _____ _ _ _____ _ _ _____
 72
65
 73
6
 40
0.8
 49
0.45
 74
0
 49
-0.05
 74
0
 49
0.1
 74
0
 49
-0.05
 74
0
 49
0.1
 74
0
 49
-0.05
 74
0
  0
LTYPE
  5
1F8
100
AcDbSymbolTableRecord
100
AcDbLinetypeTableRecord
  2
DOT
 70
64
  3
. . . . . . . . . . . . . . . . . . . .
 72
65
 73
2
 40
0.2
 49
0.1
 74
0
 49
-0.1
 74
0
  0
LTYPE
  5
1F9
100
AcDbSymbolTableRecord
100
AcDbLinetypeTableRecord
  2
DASHED
 70
64
  3
- - - - - - - - - - - - - - - - - - - -
 72
65
 73
2
 40
0.2
 49
0.1
 74
0
 49
-0.1
 74
0
  0
ENDTAB
  0
TABLE
  2
LAYER
  5
2
100
AcDbSymbolTable
 70
36
  0
LAYER
  5
10
100
AcDbSymbolTableRecord
100
AcDbLayerTableRecord
  2
0
 70
0
 62
7
  6
CONTINUOUS
370
-3
390
F
  0
LAYER
  5
1FA
100
AcDbSymbolTableRecord
100
AcDbLayerTableRecord
  2
DEFAULT_1
 70
0
 62
7
  6
CENTER
370
-3
390
F
  0
LAYER
  5
1FB
100
AcDbSymbolTableRecord
100
AcDbLayerTableRecord
  2
DEFAULT_2
 70
0
 62
7
  6
HIDDEN
370
-3
390
F
  0
LAYER
  5
1FC
100
AcDbSymbolTableRecord
100
AcDbLayerTableRecord
  2
DEFAULT_3
 70
0
 62
7
  6
PHANTOM
370
-3
390
F
  0
LAYER
  5
1FD
100
AcDbSymbolTableRecord
100
AcDbLayerTableRecord
  2
ASSI
 70
0
 62
7
  6
CONTINUOUS
370
-3
390
F
  0
LAYER
  5
1FE
100
AcDbSymbolTableRecord
100
AcDbLayerTableRecord
  2
COORDINATE
 70
0
 62
7
  6
CONTINUOUS
370
-3
390
F
  0
LAYER
  5
1FF
100
AcDbSymbolTableRecord
100
AcDbLayerTableRecord
  2
COPY_PUBLISH
 70
0
 62
7
  6
CONTINUOUS
370
-3
390
F
  0
LAYER
  5
200
100
AcDbSymbolTableRecord
100
AcDbLayerTableRecord
  2
COSMETICI
 70
0
 62
7
  6
CONTINUOUS
370
-3
390
F
  0
LAYER
  5
201
100
AcDbSymbolTableRecord
100
AcDbLayerTableRecord
  2
CURVE
 70
0
 62
7
  6
CONTINUOUS
370
-3
390
F
  0
LAYER
  5
202
100
AcDbSymbolTableRecord
100
AcDbLayerTableRecord
  2
DRAFT
 70
0
 62
7
  6
CONTINUOUS
370
-3
390
F
  0
LAYER
  5
203
100
AcDbSymbolTableRecord
100
AcDbLayerTableRecord
  2
IMPORT_IGES
 70
0
 62
7
  6
CONTINUOUS
370
-3
390
F
  0
LAYER
  5
204
100
AcDbSymbolTableRecord
100
AcDbLayerTableRecord
  2
NOTE
 70
0
 62
7
  6
CONTINUOUS
370
-3
390
F
  0
LAYER
  5
205
100
AcDbSymbolTableRecord
100
AcDbLayerTableRecord
  2
PIANI
 70
0
 62
7
  6
CONTINUOUS
370
-3
390
F
  0
LAYER
  5
206
100
AcDbSymbolTableRecord
100
AcDbLayerTableRecord
  2
PUNTI
 70
0
 62
7
  6
CONTINUOUS
370
-3
390
F
  0
LAYER
  5
207
100
AcDbSymbolTableRecord
100
AcDbLayerTableRecord
  2
RACCORDO
 70
0
 62
7
  6
CONTINUOUS
370
-3
390
F
  0
LAYER
  5
208
100
AcDbSymbolTableRecord
100
AcDbLayerTableRecord
  2
SIMBOLI
 70
0
 62
7
  6
CONTINUOUS
370
-3
390
F
  0
LAYER
  5
209
100
AcDbSymbolTableRecord
100
AcDbLayerTableRecord
  2
SMUSSO
 70
0
 62
7
  6
CONTINUOUS
370
-3
390
F
  0
LAYER
  5
20A
100
AcDbSymbolTableRecord
100
AcDbLayerTableRecord
  2
SNAPLINE
 70
0
 62
7
  6
CONTINUOUS
370
-3
390
F
  0
LAYER
  5
20B
100
AcDbSymbolTableRecord
100
AcDbLayerTableRecord
  2
SUPERFICI
 70
0
 62
7
  6
CONTINUOUS
370
-3
390
F
  0
LAYER
  5
20C
100
AcDbSymbolTableRecord
100
AcDbLayerTableRecord
  2
TRASH
 70
0
 62
7
  6
CONTINUOUS
370
-3
390
F
  0
ENDTAB
  0
TABLE
  2
STYLE
  5
3
100
AcDbSymbolTable
 70
1
  0
STYLE
  5
11
100
AcDbSymbolTableRecord
100
AcDbTextStyleTableRecord
  2
STANDARD
 70
0
 40
0.0
 41
0.8
 50
0.0
 71
0
 42
0.2
  3
txt
  4

  0
STYLE
  5
20D
100
AcDbSymbolTableRecord
100
AcDbTextStyleTableRecord
  2
TEXTSTYLE_1
 70
0
 40
0.0
 41
0.8
 50
0.0
 71
0
 42
0.2
  3
gdt
  4

  0
ENDTAB
  0
TABLE
  2
VIEW
  5
6
100
AcDbSymbolTable
 70
0
  0
ENDTAB
  0
TABLE
  2
UCS
  5
7
100
AcDbSymbolTable
 70
0
  0
ENDTAB
  0
TABLE
  2
APPID
  5
9
100
AcDbSymbolTable
 70
1
  0
APPID
  5
20E
100
AcDbSymbolTableRecord
100
AcDbRegAppTableRecord
  2
ACAD
 70
0
  0
ENDTAB
  0
TABLE
  2
BLOCK_RECORD
  5
1
100
AcDbSymbolTable
 70
0
  0
BLOCK_RECORD
  5
20F
100
AcDbSymbolTableRecord
100
AcDbBlockTableRecord
  2
*Model_Space
  0
BLOCK_RECORD
  5
210
100
AcDbSymbolTableRecord
100
AcDbBlockTableRecord
  2
*Paper_Space
  0
BLOCK_RECORD
  5
211
100
AcDbSymbolTableRecord
100
AcDbBlockTableRecord
  2
_FILLED
  0
ENDTAB
  0
TABLE
  2
DIMSTYLE
  5
A
100
AcDbSymbolTable
 70
1
100
AcDbDimStyleTable
 71
0
  0
DIMSTYLE
105
212
100
AcDbSymbolTableRecord
100
AcDbDimStyleTableRecord
  2
STANDARD
 70
0
  3

  4

 40
1.0
 41
3.0
 42
0.5
 43
0.38
 44
1.5
 45
0.0
 46
0.0
 47
0.01
 48
0.01
140
3.0
141
0.09
142
0.0
143
25.4
144
1.0
145
0.0
146
1.0
147
0.625
 71
1.0
 72
0.0
 73
0
 74
0
 75
0
 76
0
 77
1
 78
8
 79
2
170
0
171
1
172
0
173
0
174
0
175
0
176
0
177
0
178
0
270
2
179
2
271
2
272
2
273
2
274
2
275
0
280
0
281
0
282
0
283
1
284
8
285
0
286
0
287
3
288
0
340
11
278
44
341
211
342
211
343
211
344
211
  0
ENDTAB
  0
ENDSEC
  0
SECTION
  2
BLOCKS
  0
BLOCK
  5
20
100
AcDbEntity
  8
0
100
AcDbBlockBegin
  2
*Model_Space
 70
0
 10
0.0
 20
0.0
 30
0.0
  3
*Model_Space
  1

  0
ENDBLK
  5
21
100
AcDbEntity
  8
0
100
AcDbBlockEnd
  0
BLOCK
  5
1C
100
AcDbEntity
  8
0
100
AcDbBlockBegin
  2
*Paper_Space
 70
0
 10
0.0
 20
0.0
 30
0.0
  3
*Paper_Space
  1

  0
ENDBLK
  5
1D
100
AcDbEntity
  8
0
100
AcDbBlockEnd
  0
BLOCK
  5
213
100
AcDbEntity
  8
0
100
AcDbBlockBegin
  2
_FILLED
 70
64
 10
0.0
 20
0.0
  3
_FILLED
  1

  0
SOLID
  5
214
100
AcDbEntity
  8
0
  6
BYBLOCK
 62
0
100
AcDbTrace
 10
0.0
 20
0.0
 11
-1.0
 21
0.1333333333
 12
-1.0
 22
-0.1333333333
 13
-1.0
 23
-0.1333333333
  0
ENDBLK
  5
215
100
AcDbEntity
  8
0
  6
BYBLOCK
 62
0
100
AcDbBlockEnd
  0
ENDSEC
  0
SECTION
  2
ENTITIES
  0
LINE
  5
216
100
AcDbEntity
  8
0
100
AcDbLine
 62
7
  6
CONTINUOUS
 10
0.0
 20
0.525
 11
0.0
 21
17.5
  0
LINE
  5
217
100
AcDbEntity
  8
0
100
AcDbLine
 62
7
  6
CONTINUOUS
 10
0.0
 20
173.55
 11
0.0
 21
190.525
  0
LINE
  5
218
100
AcDbEntity
  8
0
100
AcDbLine
 62
7
  6
CONTINUOUS
 10
0.425
 20
98.275
 11
0.425
 21
97.775
  0
LINE
  5
219
100
AcDbEntity
  8
0
100
AcDbLine
 62
7
  6
CONTINUOUS
 10
0.425
 20
92.775
 11
0.425
 21
93.275
  0
LINE
  5
21A
100
AcDbEntity
  8
0
100
AcDbLine
 62
7
  6
CONTINUOUS
 10
0.5
 20
0.525
 11
0.5
 21
17.5
  0
LINE
  5
21B
100
AcDbEntity
  8
0
100
AcDbLine
 62
7
  6
CONTINUOUS
 10
0.5
 20
173.55
 11
0.5
 21
190.525
  0
LINE
  5
21C
100
AcDbEntity
  8
0
100
AcDbLine
 62
7
  6
CONTINUOUS
 10
0.525
 20
191.05
 11
0.525
 21
190.55
  0
LINE
  5
21D
100
AcDbEntity
  8
0
100
AcDbLine
 62
7
  6
CONTINUOUS
 10
0.525
 20
0.0
 11
0.525
 21
0.5
  0
LINE
  5
21E
100
AcDbEntity
  8
0
100
AcDbLine
 62
7
  6
CONTINUOUS
 10
0.525
 20
0.525
 11
0.525
 21
190.525
  0
LINE
  5
21F
100
AcDbEntity
  8
0
100
AcDbLine
 62
7
  6
CONTINUOUS
 10
1.025
 20
190.525
 11
1.025
 21
189.175
  0
LINE
  5
220
100
AcDbEntity
  8
0
100
AcDbLine
 62
7
  6
CONTINUOUS
 10
1.025
 20
0.525
 11
1.025
 21
1.875
  0
LINE
  5
221
100
AcDbEntity
  8
0
100
AcDbLine
 62
7
  6
CONTINUOUS
 10
1.025
 20
2.775
 11
1.025
 21
25.175
  0
LINE
  5
222
100
AcDbEntity
  8
0
100
AcDbLine
 62
7
  6
CONTINUOUS
 10
1.025
 20
26.075
 11
1.025
 21
48.475
  0
LINE
  5
223
100
AcDbEntity
  8
0
100
AcDbLine
 62
7
  6
CONTINUOUS
 10
1.025
 20
49.375
 11
1.025
 21
71.775
  0
LINE
  5
224
100
AcDbEntity
  8
0
100
AcDbLine
 62
7
  6
CONTINUOUS
 10
1.025
 20
72.675
 11
1.025
 21
95.075
  0
LINE
  5
225
100
AcDbEntity
  8
0
100
AcDbLine
 62
7
  6
CONTINUOUS
 10
1.025
 20
95.975
 11
1.025
 21
118.375
  0
LINE
  5
226
100
AcDbEntity
  8
0
100
AcDbLine
 62
7
  6
CONTINUOUS
 10
1.025
 20
119.275
 11
1.025
 21
141.675
  0
LINE
  5
227
100
AcDbEntity
  8
0
100
AcDbLine
 62
7
  6
CONTINUOUS
 10
1.025
 20
142.575
 11
1.025
 21
164.975
  0
LINE
  5
228
100
AcDbEntity
  8
0
100
AcDbLine
 62
7
  6
CONTINUOUS
 10
1.025
 20
165.875
 11
1.025
 21
188.275
  0
LINE
  5
229
100
AcDbEntity
  8
0
100
AcDbLine
 62
7
  6
CONTINUOUS
 10
1.05
 20
191.05
 11
1.05
 21
190.55
  0
LINE
  5
22A
100
AcDbEntity
  8
0
100
AcDbLine
 62
7
  6
CONTINUOUS
 10
1.05
 20
190.525
 11
1.05
 21
189.175
  0
LINE
  5
22B
100
AcDbEntity
  8
0
100
AcDbLine
 62
7
  6
CONTINUOUS
 10
1.05
 20
188.275
 11
1.05
 21
165.875
  0
LINE
  5
22C
100
AcDbEntity
  8
0
100
AcDbLine
 62
7
  6
CONTINUOUS
 10
1.05
 20
164.975
 11
1.05
 21
142.575
  0
LINE
  5
22D
100
AcDbEntity
  8
0
100
AcDbLine
 62
7
  6
CONTINUOUS
 10
1.05
 20
141.675
 11
1.05
 21
119.275
  0
LINE
  5
22E
100
AcDbEntity
  8
0
100
AcDbLine
 62
7
  6
CONTINUOUS
 10
1.05
 20
118.375
 11
1.05
 21
95.975
  0
LINE
  5
22F
100
AcDbEntity
  8
0
100
AcDbLine
 62
7
  6
CONTINUOUS
 10
1.05
 20
95.075
 11
1.05
 21
72.675
  0
LINE
  5
230
100
AcDbEntity
  8
0
100
AcDbLine
 62
7
  6
CONTINUOUS
 10
1.05
 20
71.775
 11
1.05
 21
49.375
  0
LINE
  5
231
100
AcDbEntity
  8
0
100
AcDbLine
 62
7
  6
CONTINUOUS
 10
1.05
 20
48.475
 11
1.05
 21
26.075
  0
LINE
  5
232
100
AcDbEntity
  8
0
100
AcDbLine
 62
7
  6
CONTINUOUS
 10
1.05
 20
0.0
 11
1.05
 21
0.5
  0
LINE
  5
233
100
AcDbEntity
  8
0
100
AcDbLine
 62
7
  6
CONTINUOUS
 10
1.05
 20
0.525
 11
1.05
 21
1.875
  0
LINE
  5
234
100
AcDbEntity
  8
0
100
AcDbLine
 62
7
420
3355443
  6
CONTINUOUS
 10
1.05
 20
1.875
 11
1.05
 21
2.775
  0
LINE
  5
235
100
AcDbEntity
  8
0
100
AcDbLine
 62
7
  6
CONTINUOUS
 10
1.05
 20
2.775
 11
1.05
 21
25.175
  0
LINE
  5
236
100
AcDbEntity
  8
0
100
AcDbLine
 62
7
420
3355443
  6
CONTINUOUS
 10
1.05
 20
25.175
 11
1.05
 21
26.075
  0
LINE
  5
237
100
AcDbEntity
  8
0
100
AcDbLine
 62
7
420
3355443
  6
CONTINUOUS
 10
1.05
 20
48.475
 11
1.05
 21
49.375
  0
LINE
  5
238
100
AcDbEntity
  8
0
100
AcDbLine
 62
7
420
3355443
  6
CONTINUOUS
 10
1.05
 20
71.775
 11
1.05
 21
72.675
  0
LINE
  5
239
100
AcDbEntity
  8
0
100
AcDbLine
 62
7
420
3355443
  6
CONTINUOUS
 10
1.05
 20
95.075
 11
1.05
 21
95.975
  0
LINE
  5
23A
100
AcDbEntity
  8
0
100
AcDbLine
 62
7
420
3355443
  6
CONTINUOUS
 10
1.05
 20
118.375
 11
1.05
 21
119.275
  0
LINE
  5
23B
100
AcDbEntity
  8
0
100
AcDbLine
 62
7
420
3355443
  6
CONTINUOUS
 10
1.05
 20
141.675
 11
1.05
 21
142.575
  0
LINE
  5
23C
100
AcDbEntity
  8
0
100
AcDbLine
 62
7
420
3355443
  6
CONTINUOUS
 10
1.05
 20
164.975
 11
1.05
 21
165.875
  0
LINE
  5
23D
100
AcDbEntity
  8
0
100
AcDbLine
 62
7
420
3355443
  6
CONTINUOUS
 10
1.05
 20
188.275
 11
1.05
 21
189.175
  0
LINE
  5
23E
100
AcDbEntity
  8
0
100
AcDbLine
 62
7
  6
CONTINUOUS
 10
2.2
 20
0.525
 11
2.2
 21
0.0
  0
LINE
  5
23F
100
AcDbEntity
  8
0
100
AcDbLine
 62
7
  6
CONTINUOUS
 10
2.2
 20
190.525
 11
2.2
 21
191.05
  0
LINE
  5
240
100
AcDbEntity
  8
0
100
AcDbLine
 62
7
  6
CONTINUOUS
 10
3.1
 20
0.525
 11
3.1
 21
0.0
  0
LINE
  5
241
100
AcDbEntity
  8
0
100
AcDbLine
 62
7
  6
CONTINUOUS
 10
3.1
 20
190.525
 11
3.1
 21
191.05
  0
LINE
  5
242
100
AcDbEntity
  8
0
100
AcDbLine
 62
7
  6
CONTINUOUS
 10
13.5
 20
0.525
 11
13.5
 21
0.0
  0
LINE
  5
243
100
AcDbEntity
  8
0
100
AcDbLine
 62
7
  6
CONTINUOUS
 10
13.5
 20
190.525
 11
13.5
 21
191.05
  0
LINE
  5
244
100
AcDbEntity
  8
0
100
AcDbLine
 62
7
  6
CONTINUOUS
 10
14.4
 20
0.525
 11
14.4
 21
0.0
  0
LINE
  5
245
100
AcDbEntity
  8
0
100
AcDbLine
 62
7
  6
CONTINUOUS
 10
14.4
 20
190.525
 11
14.4
 21
191.05
  0
LINE
  5
246
100
AcDbEntity
  8
0
100
AcDbLine
 62
7
  6
CONTINUOUS
 10
24.8
 20
0.525
 11
24.8
 21
0.0
  0
LINE
  5
247
100
AcDbEntity
  8
0
100
AcDbLine
 62
7
  6
CONTINUOUS
 10
24.8
 20
190.525
 11
24.8
 21
191.05
  0
LINE
  5
248
100
AcDbEntity
  8
0
100
AcDbLine
 62
7
  6
CONTINUOUS
 10
25.7
 20
0.525
 11
25.7
 21
0.0
  0
LINE
  5
249
100
AcDbEntity
  8
0
100
AcDbLine
 62
7
  6
CONTINUOUS
 10
25.7
 20
190.525
 11
25.7
 21
191.05
  0
LINE
  5
24A
100
AcDbEntity
  8
ASSI
100
AcDbLine
 62
7
  6
CONTINUOUS
 10
28.125
 20
100.45
 11
28.125
 21
95.6
  0
LINE
  5
24B
100
AcDbEntity
  8
ASSI
100
AcDbLine
 62
7
  6
CONTINUOUS
 10
28.275
 20
95.6
 11
28.275
 21
100.45
  0
LINE
  5
24C
100
AcDbEntity
  8
ASSI
100
AcDbLine
 62
7
  6
CONTINUOUS
 10
29.275
 20
100.45
 11
29.275
 21
97.175
  0
LINE
  5
24D
100
AcDbEntity
  8
ASSI
100
AcDbLine
 62
7
  6
CONTINUOUS
 10
29.425
 20
97.175
 11
29.425
 21
100.45
  0
LINE
  5
24E
100
AcDbEntity
  8
ASSI
100
AcDbLine
 62
7
  6
CONTINUOUS
 10
30.675
 20
36.709691219
 11
30.675
 21
36.960090685
  0
LINE
  5
24F
100
AcDbEntity
  8
ASSI
100
AcDbLine
 62
7
  6
CONTINUOUS
 10
30.675
 20
49.0899093151
 11
30.675
 21
49.3403087811
  0
LINE
  5
250
100
AcDbEntity
  8
ASSI
100
AcDbLine
 62
7
  6
CONTINUOUS
 10
30.675
 20
141.709691219
 11
30.675
 21
141.960090685
  0
LINE
  5
251
100
AcDbEntity
  8
ASSI
100
AcDbLine
 62
7
  6
CONTINUOUS
 10
30.675
 20
154.0899093151
 11
30.675
 21
154.3403087811
  0
LINE
  5
252
100
AcDbEntity
  8
ASSI
100
AcDbLine
 62
7
  6
CONTINUOUS
 10
31.375
 20
154.3403087811
 11
31.375
 21
154.0899093151
  0
LINE
  5
253
100
AcDbEntity
  8
ASSI
100
AcDbLine
 62
7
  6
CONTINUOUS
 10
31.375
 20
141.960090685
 11
31.375
 21
141.709691219
  0
LINE
  5
254
100
AcDbEntity
  8
ASSI
100
AcDbLine
 62
7
  6
CONTINUOUS
 10
31.375
 20
49.3403087811
 11
31.375
 21
49.0899093151
  0
LINE
  5
255
100
AcDbEntity
  8
ASSI
100
AcDbLine
 62
7
  6
CONTINUOUS
 10
31.375
 20
36.960090685
 11
31.375
 21
36.709691219
  0
LINE
  5
256
100
AcDbEntity
  8
ASSI
100
AcDbLine
 62
7
  6
CONTINUOUS
 10
32.625
 20
100.45
 11
32.625
 21
97.175
  0
LINE
  5
257
100
AcDbEntity
  8
ASSI
100
AcDbLine
 62
7
  6
CONTINUOUS
 10
32.775
 20
97.175
 11
32.775
 21
100.45
  0
LINE
  5
258
100
AcDbEntity
  8
ASSI
100
AcDbLine
 62
7
  6
CONTINUOUS
 10
35.95
 20
101.95
 11
35.95
 21
95.6
  0
LINE
  5
259
100
AcDbEntity
  8
0
100
AcDbLine
 62
7
  6
CONTINUOUS
 10
36.1
 20
0.525
 11
36.1
 21
0.0
  0
LINE
  5
25A
100
AcDbEntity
  8
ASSI
100
AcDbLine
 62
7
  6
CONTINUOUS
 10
36.1
 20
95.6
 11
36.1
 21
101.95
  0
LINE
  5
25B
100
AcDbEntity
  8
0
100
AcDbLine
 62
7
  6
CONTINUOUS
 10
36.1
 20
190.525
 11
36.1
 21
191.05
  0
LINE
  5
25C
100
AcDbEntity
  8
0
100
AcDbLine
 62
7
  6
CONTINUOUS
 10
37.0
 20
0.525
 11
37.0
 21
0.0
  0
LINE
  5
25D
100
AcDbEntity
  8
0
100
AcDbLine
 62
7
  6
CONTINUOUS
 10
37.0
 20
190.525
 11
37.0
 21
191.05
  0
LINE
  5
25E
100
AcDbEntity
  8
0
100
AcDbLine
 62
7
  6
CONTINUOUS
 10
61.525
 20
0.0
 11
0.525
 21
0.0
  0
LINE
  5
25F
100
AcDbEntity
  8
0
100
AcDbLine
 62
7
  6
CONTINUOUS
 10
61.525
 20
0.5
 11
59.6
 21
0.5
  0
LINE
  5
260
100
AcDbEntity
  8
0
100
AcDbLine
 62
7
  6
CONTINUOUS
 10
58.7
 20
0.5
 11
48.3
 21
0.5
  0
LINE
  5
261
100
AcDbEntity
  8
0
100
AcDbLine
 62
7
  6
CONTINUOUS
 10
47.4
 20
0.5
 11
37.0
 21
0.5
  0
LINE
  5
262
100
AcDbEntity
  8
0
100
AcDbLine
 62
7
  6
CONTINUOUS
 10
36.1
 20
0.5
 11
25.7
 21
0.5
  0
LINE
  5
263
100
AcDbEntity
  8
0
100
AcDbLine
 62
7
  6
CONTINUOUS
 10
24.8
 20
0.5
 11
14.4
 21
0.5
  0
LINE
  5
264
100
AcDbEntity
  8
0
100
AcDbLine
 62
7
  6
CONTINUOUS
 10
13.5
 20
0.5
 11
3.1
 21
0.5
  0
LINE
  5
265
100
AcDbEntity
  8
0
100
AcDbLine
 62
7
  6
CONTINUOUS
 10
2.2
 20
0.5
 11
0.525
 21
0.5
  0
LINE
  5
266
100
AcDbEntity
  8
0
100
AcDbLine
 62
7
  6
CONTINUOUS
 10
62.05
 20
0.525
 11
59.6
 21
0.525
  0
LINE
  5
267
100
AcDbEntity
  8
0
100
AcDbLine
 62
7
420
3355443
  6
CONTINUOUS
 10
59.6
 20
0.525
 11
58.7
 21
0.525
  0
LINE
  5
268
100
AcDbEntity
  8
0
100
AcDbLine
 62
7
420
3355443
  6
CONTINUOUS
 10
48.3
 20
0.525
 11
47.4
 21
0.525
  0
LINE
  5
269
100
AcDbEntity
  8
0
100
AcDbLine
 62
7
420
3355443
  6
CONTINUOUS
 10
37.0
 20
0.525
 11
36.1
 21
0.525
  0
LINE
  5
26A
100
AcDbEntity
  8
0
100
AcDbLine
 62
7
420
3355443
  6
CONTINUOUS
 10
25.7
 20
0.525
 11
24.8
 21
0.525
  0
LINE
  5
26B
100
AcDbEntity
  8
0
100
AcDbLine
 62
7
420
3355443
  6
CONTINUOUS
 10
14.4
 20
0.525
 11
13.5
 21
0.525
  0
LINE
  5
26C
100
AcDbEntity
  8
0
100
AcDbLine
 62
7
420
3355443
  6
CONTINUOUS
 10
3.1
 20
0.525
 11
2.2
 21
0.525
  0
LINE
  5
26D
100
AcDbEntity
  8
0
100
AcDbLine
 62
7
  6
CONTINUOUS
 10
0.0
 20
0.525
 11
2.2
 21
0.525
  0
LINE
  5
26E
100
AcDbEntity
  8
0
100
AcDbLine
 62
7
  6
CONTINUOUS
 10
3.1
 20
0.525
 11
13.5
 21
0.525
  0
LINE
  5
26F
100
AcDbEntity
  8
0
100
AcDbLine
 62
7
  6
CONTINUOUS
 10
14.4
 20
0.525
 11
24.8
 21
0.525
  0
LINE
  5
270
100
AcDbEntity
  8
0
100
AcDbLine
 62
7
  6
CONTINUOUS
 10
25.7
 20
0.525
 11
36.1
 21
0.525
  0
LINE
  5
271
100
AcDbEntity
  8
0
100
AcDbLine
 62
7
  6
CONTINUOUS
 10
37.0
 20
0.525
 11
47.4
 21
0.525
  0
LINE
  5
272
100
AcDbEntity
  8
0
100
AcDbLine
 62
7
  6
CONTINUOUS
 10
48.3
 20
0.525
 11
58.7
 21
0.525
  0
LINE
  5
273
100
AcDbEntity
  8
0
100
AcDbLine
 62
7
  6
CONTINUOUS
 10
61.55
 20
1.025
 11
61.525
 21
1.025
  0
LINE
  5
274
100
AcDbEntity
  8
0
100
AcDbLine
 62
7
  6
CONTINUOUS
 10
61.025
 20
1.025
 11
61.0
 21
1.025
  0
LINE
  5
275
100
AcDbEntity
  8
0
100
AcDbLine
 62
7
  6
CONTINUOUS
 10
1.05
 20
1.025
 11
1.025
 21
1.025
  0
LINE
  5
276
100
AcDbEntity
  8
0
100
AcDbLine
 62
7
  6
CONTINUOUS
 10
0.525
 20
1.025
 11
0.5
 21
1.025
  0
LINE
  5
277
100
AcDbEntity
  8
0
100
AcDbLine
 62
7
  6
CONTINUOUS
 10
61.025
 20
1.175
 11
61.0
 21
1.175
  0
LINE
  5
278
100
AcDbEntity
  8
0
100
AcDbLine
 62
7
  6
CONTINUOUS
 10
1.025
 20
1.175
 11
1.05
 21
1.175
  0
LINE
  5
279
100
AcDbEntity
  8
0
100
AcDbLine
 62
7
  6
CONTINUOUS
 10
1.05
 20
1.875
 11
0.525
 21
1.875
  0
LINE
  5
27A
100
AcDbEntity
  8
0
100
AcDbLine
 62
7
  6
CONTINUOUS
 10
61.0
 20
1.875
 11
61.525
 21
1.875
  0
LINE
  5
27B
100
AcDbEntity
  8
0
100
AcDbLine
 62
7
  6
CONTINUOUS
 10
47.4
 20
0.525
 11
47.4
 21
0.0
  0
LINE
  5
27C
100
AcDbEntity
  8
0
100
AcDbLine
 62
7
  6
CONTINUOUS
 10
47.4
 20
190.525
 11
47.4
 21
191.05
  0
LINE
  5
27D
100
AcDbEntity
  8
0
100
AcDbLine
 62
7
  6
CONTINUOUS
 10
48.3
 20
0.525
 11
48.3
 21
0.0
  0
LINE
  5
27E
100
AcDbEntity
  8
0
100
AcDbLine
 62
7
  6
CONTINUOUS
 10
48.3
 20
190.525
 11
48.3
 21
191.05
  0
LINE
  5
27F
100
AcDbEntity
  8
ASSI
100
AcDbLine
 62
7
  6
CONTINUOUS
 10
35.9600480947
 20
104.4875
 11
34.4589373948
 21
101.8875
  0
LINE
  5
280
100
AcDbEntity
  8
ASSI
100
AcDbLine
 62
7
  6
CONTINUOUS
 10
34.5888412054
 20
101.8125
 11
36.025
 21
104.3
  0
LINE
  5
281
100
AcDbEntity
  8
0
100
AcDbLine
 62
7
  6
CONTINUOUS
 10
61.525
 20
2.775
 11
61.0
 21
2.775
  0
LINE
  5
282
100
AcDbEntity
  8
0
100
AcDbLine
 62
7
  6
CONTINUOUS
 10
1.05
 20
2.775
 11
0.525
 21
2.775
  0
LINE
  5
283
100
AcDbEntity
  8
0
100
AcDbLine
 62
7
  6
CONTINUOUS
 10
61.025
 20
5.375
 11
61.0
 21
5.375
  0
LINE
  5
284
100
AcDbEntity
  8
0
100
AcDbLine
 62
7
  6
CONTINUOUS
 10
1.025
 20
5.375
 11
1.05
 21
5.375
  0
LINE
  5
285
100
AcDbEntity
  8
0
100
AcDbLine
 62
7
  6
CONTINUOUS
 10
0.5
 20
5.525
 11
0.525
 21
5.525
  0
LINE
  5
286
100
AcDbEntity
  8
0
100
AcDbLine
 62
7
  6
CONTINUOUS
 10
1.025
 20
5.525
 11
1.05
 21
5.525
  0
LINE
  5
287
100
AcDbEntity
  8
0
100
AcDbLine
 62
7
  6
CONTINUOUS
 10
61.0
 20
5.525
 11
61.025
 21
5.525
  0
LINE
  5
288
100
AcDbEntity
  8
0
100
AcDbLine
 62
7
  6
CONTINUOUS
 10
61.525
 20
5.525
 11
61.55
 21
5.525
  0
LINE
  5
289
100
AcDbEntity
  8
0
100
AcDbLine
 62
7
  6
CONTINUOUS
 10
0.5
 20
6.025
 11
0.525
 21
6.025
  0
LINE
  5
28A
100
AcDbEntity
  8
0
100
AcDbLine
 62
7
  6
CONTINUOUS
 10
1.025
 20
6.025
 11
1.05
 21
6.025
  0
LINE
  5
28B
100
AcDbEntity
  8
0
100
AcDbLine
 62
7
  6
CONTINUOUS
 10
61.0
 20
6.025
 11
61.025
 21
6.025
  0
LINE
  5
28C
100
AcDbEntity
  8
0
100
AcDbLine
 62
7
  6
CONTINUOUS
 10
61.525
 20
6.025
 11
61.55
 21
6.025
  0
LINE
  5
28D
100
AcDbEntity
  8
ASSI
100
AcDbLine
 62
7
  6
CONTINUOUS
 10
36.025
 20
104.3
 11
37.4611587946
 21
101.8125
  0
LINE
  5
28E
100
AcDbEntity
  8
ASSI
100
AcDbLine
 62
7
  6
CONTINUOUS
 10
37.5910626052
 20
101.8875
 11
36.0899519053
 21
104.4875
  0
LINE
  5
28F
100
AcDbEntity
  8
0
100
AcDbLine
 62
7
  6
CONTINUOUS
 10
58.7
 20
0.525
 11
58.7
 21
0.0
  0
LINE
  5
290
100
AcDbEntity
  8
0
100
AcDbLine
 62
7
  6
CONTINUOUS
 10
58.7
 20
190.525
 11
58.7
 21
191.05
  0
LINE
  5
291
100
AcDbEntity
  8
0
100
AcDbLine
 62
7
  6
CONTINUOUS
 10
59.6
 20
0.525
 11
59.6
 21
0.0
  0
LINE
  5
292
100
AcDbEntity
  8
0
100
AcDbLine
 62
7
  6
CONTINUOUS
 10
59.6
 20
190.525
 11
59.6
 21
191.05
  0
LINE
  5
293
100
AcDbEntity
  8
0
100
AcDbLine
 62
7
  6
CONTINUOUS
 10
61.0
 20
191.05
 11
61.0
 21
190.55
  0
LINE
  5
294
100
AcDbEntity
  8
0
100
AcDbLine
 62
7
  6
CONTINUOUS
 10
61.0
 20
190.525
 11
61.0
 21
189.175
  0
LINE
  5
295
100
AcDbEntity
  8
0
100
AcDbLine
 62
7
420
3355443
  6
CONTINUOUS
 10
61.0
 20
189.175
 11
61.0
 21
188.275
  0
LINE
  5
296
100
AcDbEntity
  8
0
100
AcDbLine
 62
7
420
3355443
  6
CONTINUOUS
 10
61.0
 20
165.875
 11
61.0
 21
164.975
  0
LINE
  5
297
100
AcDbEntity
  8
0
100
AcDbLine
 62
7
420
3355443
  6
CONTINUOUS
 10
61.0
 20
142.575
 11
61.0
 21
141.675
  0
LINE
  5
298
100
AcDbEntity
  8
0
100
AcDbLine
 62
7
420
3355443
  6
CONTINUOUS
 10
61.0
 20
119.275
 11
61.0
 21
118.375
  0
LINE
  5
299
100
AcDbEntity
  8
0
100
AcDbLine
 62
7
420
3355443
  6
CONTINUOUS
 10
61.0
 20
95.975
 11
61.0
 21
95.075
  0
LINE
  5
29A
100
AcDbEntity
  8
0
100
AcDbLine
 62
7
420
3355443
  6
CONTINUOUS
 10
61.0
 20
72.675
 11
61.0
 21
71.775
  0
LINE
  5
29B
100
AcDbEntity
  8
0
100
AcDbLine
 62
7
420
3355443
  6
CONTINUOUS
 10
61.0
 20
49.375
 11
61.0
 21
48.475
  0
LINE
  5
29C
100
AcDbEntity
  8
0
100
AcDbLine
 62
7
420
3355443
  6
CONTINUOUS
 10
61.0
 20
26.075
 11
61.0
 21
25.175
  0
LINE
  5
29D
100
AcDbEntity
  8
0
100
AcDbLine
 62
7
420
3355443
  6
CONTINUOUS
 10
61.0
 20
2.775
 11
61.0
 21
1.875
  0
LINE
  5
29E
100
AcDbEntity
  8
0
100
AcDbLine
 62
7
  6
CONTINUOUS
 10
61.0
 20
0.0
 11
61.0
 21
0.5
  0
LINE
  5
29F
100
AcDbEntity
  8
0
100
AcDbLine
 62
7
  6
CONTINUOUS
 10
61.0
 20
0.525
 11
61.0
 21
1.875
  0
LINE
  5
2A0
100
AcDbEntity
  8
0
100
AcDbLine
 62
7
  6
CONTINUOUS
 10
61.0
 20
2.775
 11
61.0
 21
25.175
  0
LINE
  5
2A1
100
AcDbEntity
  8
0
100
AcDbLine
 62
7
  6
CONTINUOUS
 10
61.0
 20
26.075
 11
61.0
 21
48.475
  0
LINE
  5
2A2
100
AcDbEntity
  8
0
100
AcDbLine
 62
7
  6
CONTINUOUS
 10
61.0
 20
49.375
 11
61.0
 21
71.775
  0
LINE
  5
2A3
100
AcDbEntity
  8
0
100
AcDbLine
 62
7
  6
CONTINUOUS
 10
61.0
 20
72.675
 11
61.0
 21
95.075
  0
LINE
  5
2A4
100
AcDbEntity
  8
0
100
AcDbLine
 62
7
  6
CONTINUOUS
 10
61.0
 20
95.975
 11
61.0
 21
118.375
  0
LINE
  5
2A5
100
AcDbEntity
  8
0
100
AcDbLine
 62
7
  6
CONTINUOUS
 10
61.0
 20
119.275
 11
61.0
 21
141.675
  0
LINE
  5
2A6
100
AcDbEntity
  8
0
100
AcDbLine
 62
7
  6
CONTINUOUS
 10
61.0
 20
142.575
 11
61.0
 21
164.975
  0
LINE
  5
2A7
100
AcDbEntity
  8
0
100
AcDbLine
 62
7
  6
CONTINUOUS
 10
61.0
 20
165.875
 11
61.0
 21
188.275
  0
LINE
  5
2A8
100
AcDbEntity
  8
0
100
AcDbLine
 62
7
  6
CONTINUOUS
 10
61.025
 20
190.525
 11
61.025
 21
189.175
  0
LINE
  5
2A9
100
AcDbEntity
  8
0
100
AcDbLine
 62
7
  6
CONTINUOUS
 10
61.025
 20
188.275
 11
61.025
 21
165.875
  0
LINE
  5
2AA
100
AcDbEntity
  8
0
100
AcDbLine
 62
7
  6
CONTINUOUS
 10
61.025
 20
164.975
 11
61.025
 21
142.575
  0
LINE
  5
2AB
100
AcDbEntity
  8
0
100
AcDbLine
 62
7
  6
CONTINUOUS
 10
61.025
 20
141.675
 11
61.025
 21
119.275
  0
LINE
  5
2AC
100
AcDbEntity
  8
0
100
AcDbLine
 62
7
  6
CONTINUOUS
 10
61.025
 20
118.375
 11
61.025
 21
95.975
  0
LINE
  5
2AD
100
AcDbEntity
  8
0
100
AcDbLine
 62
7
  6
CONTINUOUS
 10
61.025
 20
95.075
 11
61.025
 21
72.675
  0
LINE
  5
2AE
100
AcDbEntity
  8
0
100
AcDbLine
 62
7
  6
CONTINUOUS
 10
61.025
 20
71.775
 11
61.025
 21
49.375
  0
LINE
  5
2AF
100
AcDbEntity
  8
0
100
AcDbLine
 62
7
  6
CONTINUOUS
 10
61.025
 20
48.475
 11
61.025
 21
26.075
  0
LINE
  5
2B0
100
AcDbEntity
  8
0
100
AcDbLine
 62
7
  6
CONTINUOUS
 10
61.025
 20
25.175
 11
61.025
 21
2.775
  0
LINE
  5
2B1
100
AcDbEntity
  8
0
100
AcDbLine
 62
7
  6
CONTINUOUS
 10
61.025
 20
0.525
 11
61.025
 21
1.875
  0
LINE
  5
2B2
100
AcDbEntity
  8
0
100
AcDbLine
 62
7
  6
CONTINUOUS
 10
61.525
 20
191.05
 11
61.525
 21
190.55
  0
LINE
  5
2B3
100
AcDbEntity
  8
0
100
AcDbLine
 62
7
  6
CONTINUOUS
 10
61.525
 20
0.0
 11
61.525
 21
0.5
  0
LINE
  5
2B4
100
AcDbEntity
  8
0
100
AcDbLine
 62
7
  6
CONTINUOUS
 10
61.525
 20
0.525
 11
61.525
 21
190.525
  0
LINE
  5
2B5
100
AcDbEntity
  8
0
100
AcDbLine
 62
7
  6
CONTINUOUS
 10
61.55
 20
190.525
 11
61.55
 21
173.55
  0
LINE
  5
2B6
100
AcDbEntity
  8
0
100
AcDbLine
 62
7
  6
CONTINUOUS
 10
61.55
 20
17.5
 11
61.55
 21
0.525
  0
LINE
  5
2B7
100
AcDbEntity
  8
0
100
AcDbLine
 62
7
  6
CONTINUOUS
 10
61.625
 20
98.275
 11
61.625
 21
97.775
  0
LINE
  5
2B8
100
AcDbEntity
  8
0
100
AcDbLine
 62
7
  6
CONTINUOUS
 10
61.625
 20
92.775
 11
61.625
 21
93.275
  0
LINE
  5
2B9
100
AcDbEntity
  8
RACCORDO
100
AcDbLine
 62
7
420
3355443
  6
CONTINUOUS
 10
61.644574436
 20
29.775
 11
61.644574436
 21
33.775
  0
LINE
  5
2BA
100
AcDbEntity
  8
RACCORDO
100
AcDbLine
 62
7
420
3355443
  6
CONTINUOUS
 10
61.644574436
 20
132.275
 11
61.644574436
 21
136.275
  0
LINE
  5
2BB
100
AcDbEntity
  8
RACCORDO
100
AcDbLine
 62
7
420
3355443
  6
CONTINUOUS
 10
61.7275030959
 20
29.8191176471
 11
61.7275030959
 21
33.730882353
  0
LINE
  5
2BC
100
AcDbEntity
  8
RACCORDO
100
AcDbLine
 62
7
420
3355443
  6
CONTINUOUS
 10
61.7275030959
 20
132.3191176471
 11
61.7275030959
 21
136.230882353
  0
LINE
  5
2BD
100
AcDbEntity
  8
0
100
AcDbLine
 62
7
  6
CONTINUOUS
 10
62.05
 20
190.525
 11
62.05
 21
173.55
  0
LINE
  5
2BE
100
AcDbEntity
  8
0
100
AcDbLine
 62
7
  6
CONTINUOUS
 10
62.05
 20
17.5
 11
62.05
 21
0.525
  0
LINE
  5
2BF
100
AcDbEntity
  8
RACCORDO
100
AcDbLine
 62
7
420
3355443
  6
CONTINUOUS
 10
62.181688205
 20
30.7837158359
 11
62.181688205
 21
32.7662841642
  0
LINE
  5
2C0
100
AcDbEntity
  8
RACCORDO
100
AcDbLine
 62
7
420
3355443
  6
CONTINUOUS
 10
62.181688205
 20
133.2837158359
 11
62.181688205
 21
135.2662841642
  0
LINE
  5
2C1
100
AcDbEntity
  8
RACCORDO
100
AcDbLine
 62
7
  6
CONTINUOUS
 10
62.1919247618
 20
30.8545218476
 11
62.1919247618
 21
32.6954781524
  0
LINE
  5
2C2
100
AcDbEntity
  8
RACCORDO
100
AcDbLine
 62
7
  6
CONTINUOUS
 10
62.1919247618
 20
133.3545218476
 11
62.1919247618
 21
135.1954781524
  0
LINE
  5
2C3
100
AcDbEntity
  8
0
100
AcDbLine
 62
7
  6
CONTINUOUS
 10
62.05
 20
17.5
 11
61.55
 21
17.5
  0
LINE
  5
2C4
100
AcDbEntity
  8
0
100
AcDbLine
 62
7
  6
CONTINUOUS
 10
0.0
 20
17.5
 11
0.5
 21
17.5
  0
LINE
  5
2C5
100
AcDbEntity
  8
RACCORDO
100
AcDbLine
 62
7
  6
CONTINUOUS
 10
61.025
 20
21.525
 11
61.0
 21
21.525
  0
LINE
  5
2C6
100
AcDbEntity
  8
RACCORDO
100
AcDbLine
 62
7
420
3355443
  6
CONTINUOUS
 10
61.025
 20
23.2823593129
 11
61.0
 21
23.2823593129
  0
LINE
  5
2C7
100
AcDbEntity
  8
0
100
AcDbLine
 62
7
  6
CONTINUOUS
 10
1.05
 20
25.175
 11
0.525
 21
25.175
  0
LINE
  5
2C8
100
AcDbEntity
  8
0
100
AcDbLine
 62
7
  6
CONTINUOUS
 10
61.0
 20
25.175
 11
61.525
 21
25.175
  0
LINE
  5
2C9
100
AcDbEntity
  8
0
100
AcDbLine
 62
7
  6
CONTINUOUS
 10
1.05
 20
26.075
 11
0.525
 21
26.075
  0
LINE
  5
2CA
100
AcDbEntity
  8
0
100
AcDbLine
 62
7
  6
CONTINUOUS
 10
61.0
 20
26.075
 11
61.525
 21
26.075
  0
LINE
  5
2CB
100
AcDbEntity
  8
RACCORDO
100
AcDbLine
 62
7
420
3355443
  6
CONTINUOUS
 10
61.0
 20
27.8785533906
 11
61.025
 21
27.8785533906
  0
LINE
  5
2CC
100
AcDbEntity
  8
RACCORDO
100
AcDbLine
 62
7
420
3355443
  6
CONTINUOUS
 10
61.0
 20
28.2321067812
 11
61.025
 21
28.2321067812
  0
LINE
  5
2CD
100
AcDbEntity
  8
RACCORDO
100
AcDbLine
 62
7
  6
CONTINUOUS
 10
61.644574436
 20
29.775
 11
61.525
 21
29.775
  0
LINE
  5
2CE
100
AcDbEntity
  8
RACCORDO
100
AcDbLine
 62
7
  6
CONTINUOUS
 10
61.644574436
 20
33.775
 11
61.525
 21
33.775
  0
LINE
  5
2CF
100
AcDbEntity
  8
ASSI
100
AcDbLine
 62
7
  6
CONTINUOUS
 10
36.9923591311
 20
44.9
 11
36.8666607228
 21
44.9
  0
LINE
  5
2D0
100
AcDbEntity
  8
ASSI
100
AcDbLine
 62
7
  6
CONTINUOUS
 10
25.1833392772
 20
44.9
 11
25.0576408689
 21
44.9
  0
LINE
  5
2D1
100
AcDbEntity
  8
0
100
AcDbLine
 62
7
  6
CONTINUOUS
 10
1.05
 20
48.475
 11
0.525
 21
48.475
  0
LINE
  5
2D2
100
AcDbEntity
  8
0
100
AcDbLine
 62
7
  6
CONTINUOUS
 10
61.0
 20
48.475
 11
61.525
 21
48.475
  0
LINE
  5
2D3
100
AcDbEntity
  8
0
100
AcDbLine
 62
7
  6
CONTINUOUS
 10
1.05
 20
49.375
 11
0.525
 21
49.375
  0
LINE
  5
2D4
100
AcDbEntity
  8
0
100
AcDbLine
 62
7
  6
CONTINUOUS
 10
61.0
 20
49.375
 11
61.525
 21
49.375
  0
LINE
  5
2D5
100
AcDbEntity
  8
0
100
AcDbLine
 62
7
  6
CONTINUOUS
 10
1.05
 20
71.775
 11
0.525
 21
71.775
  0
LINE
  5
2D6
100
AcDbEntity
  8
0
100
AcDbLine
 62
7
  6
CONTINUOUS
 10
61.0
 20
71.775
 11
61.525
 21
71.775
  0
LINE
  5
2D7
100
AcDbEntity
  8
0
100
AcDbLine
 62
7
  6
CONTINUOUS
 10
1.05
 20
72.675
 11
0.525
 21
72.675
  0
LINE
  5
2D8
100
AcDbEntity
  8
0
100
AcDbLine
 62
7
  6
CONTINUOUS
 10
61.0
 20
72.675
 11
61.525
 21
72.675
  0
LINE
  5
2D9
100
AcDbEntity
  8
RACCORDO
100
AcDbLine
 62
7
420
3355443
  6
CONTINUOUS
 10
61.025
 20
78.3329855281
 11
61.0
 21
78.3329855281
  0
LINE
  5
2DA
100
AcDbEntity
  8
RACCORDO
100
AcDbLine
 62
7
420
3355443
  6
CONTINUOUS
 10
61.025
 20
78.8028318385
 11
61.0
 21
78.8028318385
  0
LINE
  5
2DB
100
AcDbEntity
  8
RACCORDO
100
AcDbLine
 62
7
420
3355443
  6
CONTINUOUS
 10
61.025
 20
79.7448463104
 11
61.0
 21
79.7448463104
  0
LINE
  5
2DC
100
AcDbEntity
  8
RACCORDO
100
AcDbLine
 62
7
  6
CONTINUOUS
 10
61.025
 20
79.775
 11
61.0
 21
79.775
  0
LINE
  5
2DD
100
AcDbEntity
  8
RACCORDO
100
AcDbLine
 62
7
  6
CONTINUOUS
 10
61.025
 20
80.775
 11
61.0
 21
80.775
  0
LINE
  5
2DE
100
AcDbEntity
  8
RACCORDO
100
AcDbLine
 62
7
420
3355443
  6
CONTINUOUS
 10
61.025
 20
80.8051536896
 11
61.0
 21
80.8051536896
  0
LINE
  5
2DF
100
AcDbEntity
  8
RACCORDO
100
AcDbLine
 62
7
420
3355443
  6
CONTINUOUS
 10
61.0
 20
81.2012128101
 11
61.025
 21
81.2012128101
  0
LINE
  5
2E0
100
AcDbEntity
  8
RACCORDO
100
AcDbLine
 62
7
420
3355443
  6
CONTINUOUS
 10
61.0
 20
81.6710591205
 11
61.025
 21
81.6710591205
  0
LINE
  5
2E1
100
AcDbEntity
  8
RACCORDO
100
AcDbLine
 62
7
420
3355443
  6
CONTINUOUS
 10
61.0
 20
82.275
 11
61.025
 21
82.275
  0
LINE
  5
2E2
100
AcDbEntity
  8
RACCORDO
100
AcDbLine
 62
7
  6
CONTINUOUS
 10
61.0
 20
82.775
 11
61.025
 21
82.775
  0
LINE
  5
2E3
100
AcDbEntity
  8
0
100
AcDbLine
 62
7
  6
CONTINUOUS
 10
61.625
 20
92.775
 11
61.525
 21
92.775
  0
LINE
  5
2E4
100
AcDbEntity
  8
0
100
AcDbLine
 62
7
  6
CONTINUOUS
 10
61.025
 20
92.775
 11
61.0
 21
92.775
  0
LINE
  5
2E5
100
AcDbEntity
  8
0
100
AcDbLine
 62
7
  6
CONTINUOUS
 10
1.05
 20
92.775
 11
1.025
 21
92.775
  0
LINE
  5
2E6
100
AcDbEntity
  8
0
100
AcDbLine
 62
7
  6
CONTINUOUS
 10
0.525
 20
92.775
 11
0.425
 21
92.775
  0
LINE
  5
2E7
100
AcDbEntity
  8
0
100
AcDbLine
 62
7
  6
CONTINUOUS
 10
61.625
 20
93.275
 11
61.525
 21
93.275
  0
LINE
  5
2E8
100
AcDbEntity
  8
0
100
AcDbLine
 62
7
  6
CONTINUOUS
 10
61.025
 20
93.275
 11
61.0
 21
93.275
  0
LINE
  5
2E9
100
AcDbEntity
  8
0
100
AcDbLine
 62
7
  6
CONTINUOUS
 10
1.05
 20
93.275
 11
1.025
 21
93.275
  0
LINE
  5
2EA
100
AcDbEntity
  8
0
100
AcDbLine
 62
7
  6
CONTINUOUS
 10
0.525
 20
93.275
 11
0.425
 21
93.275
  0
LINE
  5
2EB
100
AcDbEntity
  8
0
100
AcDbLine
 62
7
  6
CONTINUOUS
 10
61.025
 20
93.425
 11
61.0
 21
93.425
  0
LINE
  5
2EC
100
AcDbEntity
  8
0
100
AcDbLine
 62
7
  6
CONTINUOUS
 10
1.025
 20
93.425
 11
1.05
 21
93.425
  0
LINE
  5
2ED
100
AcDbEntity
  8
0
100
AcDbLine
 62
7
  6
CONTINUOUS
 10
1.05
 20
95.075
 11
0.525
 21
95.075
  0
LINE
  5
2EE
100
AcDbEntity
  8
0
100
AcDbLine
 62
7
  6
CONTINUOUS
 10
61.0
 20
95.075
 11
61.525
 21
95.075
  0
LINE
  5
2EF
100
AcDbEntity
  8
0
100
AcDbLine
 62
7
  6
CONTINUOUS
 10
1.05
 20
95.975
 11
0.525
 21
95.975
  0
LINE
  5
2F0
100
AcDbEntity
  8
0
100
AcDbLine
 62
7
  6
CONTINUOUS
 10
61.0
 20
95.975
 11
61.525
 21
95.975
  0
LINE
  5
2F1
100
AcDbEntity
  8
0
100
AcDbLine
 62
7
  6
CONTINUOUS
 10
61.025
 20
97.625
 11
61.0
 21
97.625
  0
LINE
  5
2F2
100
AcDbEntity
  8
0
100
AcDbLine
 62
7
  6
CONTINUOUS
 10
1.025
 20
97.625
 11
1.05
 21
97.625
  0
LINE
  5
2F3
100
AcDbEntity
  8
0
100
AcDbLine
 62
7
  6
CONTINUOUS
 10
0.425
 20
97.775
 11
0.525
 21
97.775
  0
LINE
  5
2F4
100
AcDbEntity
  8
0
100
AcDbLine
 62
7
  6
CONTINUOUS
 10
1.025
 20
97.775
 11
1.05
 21
97.775
  0
LINE
  5
2F5
100
AcDbEntity
  8
ASSI
100
AcDbLine
 62
7
  6
CONTINUOUS
 10
26.15
 20
97.775
 11
27.625
 21
97.775
  0
LINE
  5
2F6
100
AcDbEntity
  8
0
100
AcDbLine
 62
7
  6
CONTINUOUS
 10
61.0
 20
97.775
 11
61.025
 21
97.775
  0
LINE
  5
2F7
100
AcDbEntity
  8
0
100
AcDbLine
 62
7
  6
CONTINUOUS
 10
61.525
 20
97.775
 11
61.625
 21
97.775
  0
LINE
  5
2F8
100
AcDbEntity
  8
ASSI
100
AcDbLine
 62
7
  6
CONTINUOUS
 10
27.625
 20
97.925
 11
26.15
 21
97.925
  0
LINE
  5
2F9
100
AcDbEntity
  8
0
100
AcDbLine
 62
7
  6
CONTINUOUS
 10
0.425
 20
98.275
 11
0.525
 21
98.275
  0
LINE
  5
2FA
100
AcDbEntity
  8
0
100
AcDbLine
 62
7
  6
CONTINUOUS
 10
1.025
 20
98.275
 11
1.05
 21
98.275
  0
LINE
  5
2FB
100
AcDbEntity
  8
0
100
AcDbLine
 62
7
  6
CONTINUOUS
 10
61.0
 20
98.275
 11
61.025
 21
98.275
  0
LINE
  5
2FC
100
AcDbEntity
  8
0
100
AcDbLine
 62
7
  6
CONTINUOUS
 10
61.525
 20
98.275
 11
61.625
 21
98.275
  0
LINE
  5
2FD
100
AcDbEntity
  8
ASSI
100
AcDbLine
 62
7
  6
CONTINUOUS
 10
26.15
 20
100.375
 11
27.625
 21
100.375
  0
LINE
  5
2FE
100
AcDbEntity
  8
ASSI
100
AcDbLine
 62
7
  6
CONTINUOUS
 10
27.625
 20
100.525
 11
26.15
 21
100.525
  0
LINE
  5
2FF
100
AcDbEntity
  8
0
100
AcDbLine
 62
7
  6
CONTINUOUS
 10
1.05
 20
118.375
 11
0.525
 21
118.375
  0
LINE
  5
300
100
AcDbEntity
  8
0
100
AcDbLine
 62
7
  6
CONTINUOUS
 10
61.0
 20
118.375
 11
61.525
 21
118.375
  0
LINE
  5
301
100
AcDbEntity
  8
0
100
AcDbLine
 62
7
  6
CONTINUOUS
 10
1.05
 20
119.275
 11
0.525
 21
119.275
  0
LINE
  5
302
100
AcDbEntity
  8
0
100
AcDbLine
 62
7
  6
CONTINUOUS
 10
61.0
 20
119.275
 11
61.525
 21
119.275
  0
LINE
  5
303
100
AcDbEntity
  8
RACCORDO
100
AcDbLine
 62
7
  6
CONTINUOUS
 10
61.025
 20
124.025
 11
61.0
 21
124.025
  0
LINE
  5
304
100
AcDbEntity
  8
RACCORDO
100
AcDbLine
 62
7
420
3355443
  6
CONTINUOUS
 10
61.025
 20
125.7823593129
 11
61.0
 21
125.7823593129
  0
LINE
  5
305
100
AcDbEntity
  8
RACCORDO
100
AcDbLine
 62
7
420
3355443
  6
CONTINUOUS
 10
61.0
 20
130.3785533906
 11
61.025
 21
130.3785533906
  0
LINE
  5
306
100
AcDbEntity
  8
RACCORDO
100
AcDbLine
 62
7
420
3355443
  6
CONTINUOUS
 10
61.0
 20
130.7321067812
 11
61.025
 21
130.7321067812
  0
LINE
  5
307
100
AcDbEntity
  8
RACCORDO
100
AcDbLine
 62
7
  6
CONTINUOUS
 10
61.644574436
 20
132.275
 11
61.525
 21
132.275
  0
LINE
  5
308
100
AcDbEntity
  8
RACCORDO
100
AcDbLine
 62
7
  6
CONTINUOUS
 10
61.644574436
 20
136.275
 11
61.525
 21
136.275
  0
LINE
  5
309
100
AcDbEntity
  8
0
100
AcDbLine
 62
7
  6
CONTINUOUS
 10
1.05
 20
141.675
 11
0.525
 21
141.675
  0
LINE
  5
30A
100
AcDbEntity
  8
0
100
AcDbLine
 62
7
  6
CONTINUOUS
 10
61.0
 20
141.675
 11
61.525
 21
141.675
  0
LINE
  5
30B
100
AcDbEntity
  8
0
100
AcDbLine
 62
7
  6
CONTINUOUS
 10
1.05
 20
142.575
 11
0.525
 21
142.575
  0
LINE
  5
30C
100
AcDbEntity
  8
0
100
AcDbLine
 62
7
  6
CONTINUOUS
 10
61.0
 20
142.575
 11
61.525
 21
142.575
  0
LINE
  5
30D
100
AcDbEntity
  8
ASSI
100
AcDbLine
 62
7
  6
CONTINUOUS
 10
25.0576408689
 20
146.15
 11
25.1833392772
 21
146.15
  0
LINE
  5
30E
100
AcDbEntity
  8
ASSI
100
AcDbLine
 62
7
  6
CONTINUOUS
 10
36.8666607228
 20
146.15
 11
36.9923591311
 21
146.15
  0
LINE
  5
30F
100
AcDbEntity
  8
0
100
AcDbLine
 62
7
  6
CONTINUOUS
 10
1.05
 20
164.975
 11
0.525
 21
164.975
  0
LINE
  5
310
100
AcDbEntity
  8
0
100
AcDbLine
 62
7
  6
CONTINUOUS
 10
61.0
 20
164.975
 11
61.525
 21
164.975
  0
LINE
  5
311
100
AcDbEntity
  8
0
100
AcDbLine
 62
7
  6
CONTINUOUS
 10
1.05
 20
165.875
 11
0.525
 21
165.875
  0
LINE
  5
312
100
AcDbEntity
  8
0
100
AcDbLine
 62
7
  6
CONTINUOUS
 10
61.0
 20
165.875
 11
61.525
 21
165.875
  0
LINE
  5
313
100
AcDbEntity
  8
0
100
AcDbLine
 62
7
  6
CONTINUOUS
 10
62.05
 20
173.55
 11
61.55
 21
173.55
  0
LINE
  5
314
100
AcDbEntity
  8
0
100
AcDbLine
 62
7
  6
CONTINUOUS
 10
0.0
 20
173.55
 11
0.5
 21
173.55
  0
LINE
  5
315
100
AcDbEntity
  8
RACCORDO
100
AcDbLine
 62
7
420
3355443
  6
CONTINUOUS
 10
61.025
 20
180.8329855281
 11
61.0
 21
180.8329855281
  0
LINE
  5
316
100
AcDbEntity
  8
RACCORDO
100
AcDbLine
 62
7
420
3355443
  6
CONTINUOUS
 10
61.025
 20
181.3028318385
 11
61.0
 21
181.3028318385
  0
LINE
  5
317
100
AcDbEntity
  8
RACCORDO
100
AcDbLine
 62
7
420
3355443
  6
CONTINUOUS
 10
61.025
 20
182.2448463104
 11
61.0
 21
182.2448463104
  0
LINE
  5
318
100
AcDbEntity
  8
RACCORDO
100
AcDbLine
 62
7
  6
CONTINUOUS
 10
61.025
 20
182.275
 11
61.0
 21
182.275
  0
LINE
  5
319
100
AcDbEntity
  8
RACCORDO
100
AcDbLine
 62
7
  6
CONTINUOUS
 10
61.025
 20
183.275
 11
61.0
 21
183.275
  0
LINE
  5
31A
100
AcDbEntity
  8
RACCORDO
100
AcDbLine
 62
7
420
3355443
  6
CONTINUOUS
 10
61.025
 20
183.3051536896
 11
61.0
 21
183.3051536896
  0
LINE
  5
31B
100
AcDbEntity
  8
RACCORDO
100
AcDbLine
 62
7
420
3355443
  6
CONTINUOUS
 10
61.0
 20
183.7012128101
 11
61.025
 21
183.7012128101
  0
LINE
  5
31C
100
AcDbEntity
  8
RACCORDO
100
AcDbLine
 62
7
420
3355443
  6
CONTINUOUS
 10
61.0
 20
184.1710591205
 11
61.025
 21
184.1710591205
  0
LINE
  5
31D
100
AcDbEntity
  8
RACCORDO
100
AcDbLine
 62
7
420
3355443
  6
CONTINUOUS
 10
61.0
 20
184.775
 11
61.025
 21
184.775
  0
LINE
  5
31E
100
AcDbEntity
  8
0
100
AcDbLine
 62
7
  6
CONTINUOUS
 10
61.55
 20
185.025
 11
61.525
 21
185.025
  0
LINE
  5
31F
100
AcDbEntity
  8
0
100
AcDbLine
 62
7
  6
CONTINUOUS
 10
1.05
 20
185.025
 11
1.025
 21
185.025
  0
LINE
  5
320
100
AcDbEntity
  8
0
100
AcDbLine
 62
7
  6
CONTINUOUS
 10
0.525
 20
185.025
 11
0.5
 21
185.025
  0
LINE
  5
321
100
AcDbEntity
  8
RACCORDO
100
AcDbLine
 62
7
  6
CONTINUOUS
 10
61.0
 20
185.275
 11
61.025
 21
185.275
  0
LINE
  5
322
100
AcDbEntity
  8
0
100
AcDbLine
 62
7
  6
CONTINUOUS
 10
61.55
 20
185.525
 11
61.525
 21
185.525
  0
LINE
  5
323
100
AcDbEntity
  8
0
100
AcDbLine
 62
7
  6
CONTINUOUS
 10
61.025
 20
185.525
 11
61.0
 21
185.525
  0
LINE
  5
324
100
AcDbEntity
  8
0
100
AcDbLine
 62
7
  6
CONTINUOUS
 10
1.05
 20
185.525
 11
1.025
 21
185.525
  0
LINE
  5
325
100
AcDbEntity
  8
0
100
AcDbLine
 62
7
  6
CONTINUOUS
 10
0.525
 20
185.525
 11
0.5
 21
185.525
  0
LINE
  5
326
100
AcDbEntity
  8
0
100
AcDbLine
 62
7
  6
CONTINUOUS
 10
61.025
 20
185.675
 11
61.0
 21
185.675
  0
LINE
  5
327
100
AcDbEntity
  8
0
100
AcDbLine
 62
7
  6
CONTINUOUS
 10
1.025
 20
185.675
 11
1.05
 21
185.675
  0
LINE
  5
328
100
AcDbEntity
  8
0
100
AcDbLine
 62
7
  6
CONTINUOUS
 10
1.05
 20
188.275
 11
0.525
 21
188.275
  0
LINE
  5
329
100
AcDbEntity
  8
0
100
AcDbLine
 62
7
  6
CONTINUOUS
 10
61.0
 20
188.275
 11
61.525
 21
188.275
  0
LINE
  5
32A
100
AcDbEntity
  8
0
100
AcDbLine
 62
7
  6
CONTINUOUS
 10
1.05
 20
189.175
 11
0.525
 21
189.175
  0
LINE
  5
32B
100
AcDbEntity
  8
0
100
AcDbLine
 62
7
  6
CONTINUOUS
 10
61.0
 20
189.175
 11
61.525
 21
189.175
  0
LINE
  5
32C
100
AcDbEntity
  8
0
100
AcDbLine
 62
7
  6
CONTINUOUS
 10
61.025
 20
189.875
 11
61.0
 21
189.875
  0
LINE
  5
32D
100
AcDbEntity
  8
0
100
AcDbLine
 62
7
  6
CONTINUOUS
 10
1.025
 20
189.875
 11
1.05
 21
189.875
  0
LINE
  5
32E
100
AcDbEntity
  8
0
100
AcDbLine
 62
7
  6
CONTINUOUS
 10
0.5
 20
190.025
 11
0.525
 21
190.025
  0
LINE
  5
32F
100
AcDbEntity
  8
0
100
AcDbLine
 62
7
  6
CONTINUOUS
 10
1.025
 20
190.025
 11
1.05
 21
190.025
  0
LINE
  5
330
100
AcDbEntity
  8
0
100
AcDbLine
 62
7
  6
CONTINUOUS
 10
61.0
 20
190.025
 11
61.025
 21
190.025
  0
LINE
  5
331
100
AcDbEntity
  8
0
100
AcDbLine
 62
7
  6
CONTINUOUS
 10
61.525
 20
190.025
 11
61.55
 21
190.025
  0
LINE
  5
332
100
AcDbEntity
  8
0
100
AcDbLine
 62
7
  6
CONTINUOUS
 10
58.7
 20
190.525
 11
48.3
 21
190.525
  0
LINE
  5
333
100
AcDbEntity
  8
0
100
AcDbLine
 62
7
  6
CONTINUOUS
 10
47.4
 20
190.525
 11
37.0
 21
190.525
  0
LINE
  5
334
100
AcDbEntity
  8
0
100
AcDbLine
 62
7
  6
CONTINUOUS
 10
36.1
 20
190.525
 11
25.7
 21
190.525
  0
LINE
  5
335
100
AcDbEntity
  8
0
100
AcDbLine
 62
7
  6
CONTINUOUS
 10
24.8
 20
190.525
 11
14.4
 21
190.525
  0
LINE
  5
336
100
AcDbEntity
  8
0
100
AcDbLine
 62
7
  6
CONTINUOUS
 10
13.5
 20
190.525
 11
3.1
 21
190.525
  0
LINE
  5
337
100
AcDbEntity
  8
0
100
AcDbLine
 62
7
  6
CONTINUOUS
 10
0.0
 20
190.525
 11
2.2
 21
190.525
  0
LINE
  5
338
100
AcDbEntity
  8
0
100
AcDbLine
 62
7
420
3355443
  6
CONTINUOUS
 10
2.2
 20
190.525
 11
3.1
 21
190.525
  0
LINE
  5
339
100
AcDbEntity
  8
0
100
AcDbLine
 62
7
420
3355443
  6
CONTINUOUS
 10
13.5
 20
190.525
 11
14.4
 21
190.525
  0
LINE
  5
33A
100
AcDbEntity
  8
0
100
AcDbLine
 62
7
420
3355443
  6
CONTINUOUS
 10
24.8
 20
190.525
 11
25.7
 21
190.525
  0
LINE
  5
33B
100
AcDbEntity
  8
0
100
AcDbLine
 62
7
420
3355443
  6
CONTINUOUS
 10
36.1
 20
190.525
 11
37.0
 21
190.525
  0
LINE
  5
33C
100
AcDbEntity
  8
0
100
AcDbLine
 62
7
420
3355443
  6
CONTINUOUS
 10
47.4
 20
190.525
 11
48.3
 21
190.525
  0
LINE
  5
33D
100
AcDbEntity
  8
0
100
AcDbLine
 62
7
420
3355443
  6
CONTINUOUS
 10
58.7
 20
190.525
 11
59.6
 21
190.525
  0
LINE
  5
33E
100
AcDbEntity
  8
0
100
AcDbLine
 62
7
  6
CONTINUOUS
 10
59.6
 20
190.525
 11
62.05
 21
190.525
  0
LINE
  5
33F
100
AcDbEntity
  8
0
100
AcDbLine
 62
7
  6
CONTINUOUS
 10
0.525
 20
190.55
 11
2.2
 21
190.55
  0
LINE
  5
340
100
AcDbEntity
  8
0
100
AcDbLine
 62
7
  6
CONTINUOUS
 10
3.1
 20
190.55
 11
13.5
 21
190.55
  0
LINE
  5
341
100
AcDbEntity
  8
0
100
AcDbLine
 62
7
  6
CONTINUOUS
 10
14.4
 20
190.55
 11
24.8
 21
190.55
  0
LINE
  5
342
100
AcDbEntity
  8
0
100
AcDbLine
 62
7
  6
CONTINUOUS
 10
25.7
 20
190.55
 11
36.1
 21
190.55
  0
LINE
  5
343
100
AcDbEntity
  8
0
100
AcDbLine
 62
7
  6
CONTINUOUS
 10
37.0
 20
190.55
 11
47.4
 21
190.55
  0
LINE
  5
344
100
AcDbEntity
  8
0
100
AcDbLine
 62
7
  6
CONTINUOUS
 10
48.3
 20
190.55
 11
58.7
 21
190.55
  0
LINE
  5
345
100
AcDbEntity
  8
0
100
AcDbLine
 62
7
  6
CONTINUOUS
 10
59.6
 20
190.55
 11
61.525
 21
190.55
  0
LINE
  5
346
100
AcDbEntity
  8
0
100
AcDbLine
 62
7
  6
CONTINUOUS
 10
0.525
 20
191.05
 11
61.525
 21
191.05
  0
ARC
  5
347
100
AcDbEntity
  8
ASSI
100
AcDbCircle
 62
7
  6
CONTINUOUS
 10
31.025
 20
43.025
 40
6.325
100
AcDbArc
 50
273.1721377345
 51
86.8278622655
  0
ARC
  5
348
100
AcDbEntity
  8
ASSI
100
AcDbCircle
 62
7
  6
CONTINUOUS
 10
31.025
 20
43.025
 40
6.325
100
AcDbArc
 50
93.1721377345
 51
266.8278622655
  0
ARC
  5
349
100
AcDbEntity
  8
ASSI
100
AcDbCircle
 62
7
  6
CONTINUOUS
 10
31.025
 20
43.025
 40
6.075
100
AcDbArc
 50
273.3028202963
 51
86.6971797037
  0
ARC
  5
34A
100
AcDbEntity
  8
ASSI
100
AcDbCircle
 62
7
  6
CONTINUOUS
 10
31.025
 20
43.025
 40
6.075
100
AcDbArc
 50
93.3028202963
 51
266.6971797037
  0
ARC
  5
34B
100
AcDbEntity
  8
ASSI
100
AcDbCircle
 62
7
  6
CONTINUOUS
 10
31.025
 20
45.525
 40
6.0
100
AcDbArc
 50
349.7386107911
 51
354.0208432037
  0
ARC
  5
34C
100
AcDbEntity
  8
ASSI
100
AcDbCircle
 62
7
  6
CONTINUOUS
 10
31.025
 20
45.525
 40
6.0
100
AcDbArc
 50
185.9791567963
 51
190.2613892089
  0
ARC
  5
34D
100
AcDbEntity
  8
ASSI
100
AcDbCircle
 62
7
  6
CONTINUOUS
 10
31.025
 20
45.525
 40
5.875
100
AcDbArc
 50
352.4487403788
 51
353.8931482701
  0
ARC
  5
34E
100
AcDbEntity
  8
ASSI
100
AcDbCircle
 62
7
  6
CONTINUOUS
 10
31.025
 20
45.525
 40
5.875
100
AcDbArc
 50
186.1068517299
 51
187.5512596212
  0
ARC
  5
34F
100
AcDbEntity
  8
0
100
AcDbCircle
 62
7
  6
CONTINUOUS
 10
0.525
 20
0.525
 40
0.525
100
AcDbArc
 50
180.0
 51
270.0
  0
CIRCLE
  5
350
100
AcDbEntity
  8
0
100
AcDbCircle
 62
7
  6
CONTINUOUS
 10
31.025
 20
43.025
 40
0.375
  0
ARC
  5
351
100
AcDbEntity
  8
0
100
AcDbCircle
 62
7
  6
CONTINUOUS
 10
0.525
 20
0.525
 40
0.025
100
AcDbArc
 50
180.0
 51
270.0
  0
ARC
  5
352
100
AcDbEntity
  8
ASSI
100
AcDbCircle
 62
7
  6
CONTINUOUS
 10
31.025
 20
148.025
 40
6.325
100
AcDbArc
 50
273.1721377345
 51
86.8278622655
  0
ARC
  5
353
100
AcDbEntity
  8
ASSI
100
AcDbCircle
 62
7
  6
CONTINUOUS
 10
31.025
 20
148.025
 40
6.325
100
AcDbArc
 50
93.1721377345
 51
266.8278622655
  0
ARC
  5
354
100
AcDbEntity
  8
ASSI
100
AcDbCircle
 62
7
  6
CONTINUOUS
 10
31.025
 20
148.025
 40
6.075
100
AcDbArc
 50
273.3028202963
 51
86.6971797037
  0
ARC
  5
355
100
AcDbEntity
  8
ASSI
100
AcDbCircle
 62
7
  6
CONTINUOUS
 10
31.025
 20
148.025
 40
6.075
100
AcDbArc
 50
93.3028202963
 51
266.6971797037
  0
ARC
  5
356
100
AcDbEntity
  8
ASSI
100
AcDbCircle
 62
7
  6
CONTINUOUS
 10
31.025
 20
145.525
 40
6.0
100
AcDbArc
 50
5.9791567963
 51
10.2613892089
  0
ARC
  5
357
100
AcDbEntity
  8
ASSI
100
AcDbCircle
 62
7
  6
CONTINUOUS
 10
31.025
 20
145.525
 40
6.0
100
AcDbArc
 50
169.7386107911
 51
174.0208432037
  0
ARC
  5
358
100
AcDbEntity
  8
ASSI
100
AcDbCircle
 62
7
  6
CONTINUOUS
 10
31.025
 20
145.525
 40
5.875
100
AcDbArc
 50
6.1068517299
 51
7.5512596212
  0
ARC
  5
359
100
AcDbEntity
  8
ASSI
100
AcDbCircle
 62
7
  6
CONTINUOUS
 10
31.025
 20
145.525
 40
5.875
100
AcDbArc
 50
172.4487403788
 51
173.8931482701
  0
ARC
  5
35A
100
AcDbEntity
  8
ASSI
100
AcDbCircle
 62
7
  6
CONTINUOUS
 10
31.125
 20
97.175
 40
1.65
100
AcDbArc
 50
282.8395884069
 51
360.0
  0
ARC
  5
35B
100
AcDbEntity
  8
ASSI
100
AcDbCircle
 62
7
  6
CONTINUOUS
 10
30.925
 20
97.175
 40
1.65
100
AcDbArc
 50
180.0
 51
257.1604115931
  0
ARC
  5
35C
100
AcDbEntity
  8
ASSI
100
AcDbCircle
 62
7
  6
CONTINUOUS
 10
31.125
 20
97.175
 40
1.5
100
AcDbArc
 50
282.8395884069
 51
360.0
  0
ARC
  5
35D
100
AcDbEntity
  8
ASSI
100
AcDbCircle
 62
7
  6
CONTINUOUS
 10
30.925
 20
97.175
 40
1.5
100
AcDbArc
 50
180.0
 51
257.1604115931
  0
ARC
  5
35E
100
AcDbEntity
  8
ASSI
100
AcDbCircle
 62
7
  6
CONTINUOUS
 10
26.15
 20
99.15
 40
1.375
100
AcDbArc
 50
90.0
 51
270.0
  0
ARC
  5
35F
100
AcDbEntity
  8
ASSI
100
AcDbCircle
 62
7
  6
CONTINUOUS
 10
26.15
 20
99.15
 40
1.225
100
AcDbArc
 50
90.0
 51
270.0
  0
ARC
  5
360
100
AcDbEntity
  8
0
100
AcDbCircle
 62
7
  6
CONTINUOUS
 10
0.525
 20
190.525
 40
0.525
100
AcDbArc
 50
90.0
 51
180.0
  0
CIRCLE
  5
361
100
AcDbEntity
  8
0
100
AcDbCircle
 62
7
  6
CONTINUOUS
 10
31.025
 20
148.025
 40
0.375
  0
ARC
  5
362
100
AcDbEntity
  8
ASSI
100
AcDbCircle
 62
7
  6
CONTINUOUS
 10
29.35
 20
100.45
 40
0.075
100
AcDbArc
 50
0.0
 51
180.0
  0
ARC
  5
363
100
AcDbEntity
  8
ASSI
100
AcDbCircle
 62
7
  6
CONTINUOUS
 10
30.575
 20
95.6393812322
 40
0.075
100
AcDbArc
 50
257.1604115931
 51
77.1604115931
  0
ARC
  5
364
100
AcDbEntity
  8
ASSI
100
AcDbCircle
 62
7
  6
CONTINUOUS
 10
28.2
 20
95.6
 40
0.075
100
AcDbArc
 50
180.0
 51
360.0
  0
ARC
  5
365
100
AcDbEntity
  8
ASSI
100
AcDbCircle
 62
7
  6
CONTINUOUS
 10
28.2
 20
100.45
 40
0.075
100
AcDbArc
 50
0.0
 51
180.0
  0
ARC
  5
366
100
AcDbEntity
  8
ASSI
100
AcDbCircle
 62
7
  6
CONTINUOUS
 10
27.625
 20
100.45
 40
0.075
100
AcDbArc
 50
270.0
 51
90.0
  0
ARC
  5
367
100
AcDbEntity
  8
ASSI
100
AcDbCircle
 62
7
  6
CONTINUOUS
 10
27.625
 20
97.85
 40
0.075
100
AcDbArc
 50
270.0
 51
90.0
  0
ARC
  5
368
100
AcDbEntity
  8
0
100
AcDbCircle
 62
7
  6
CONTINUOUS
 10
0.525
 20
190.525
 40
0.025
100
AcDbArc
 50
90.0
 51
180.0
  0
ARC
  5
369
100
AcDbEntity
  8
RACCORDO
100
AcDbCircle
 62
7
  6
CONTINUOUS
 10
58.825
 20
31.775
 40
3.5
100
AcDbArc
 50
16.4527205295
 51
33.9744759503
  0
ARC
  5
36A
100
AcDbEntity
  8
RACCORDO
100
AcDbCircle
 62
7
  6
CONTINUOUS
 10
58.825
 20
31.775
 40
3.5
100
AcDbArc
 50
326.0255240497
 51
343.5472794705
  0
ARC
  5
36B
100
AcDbEntity
  8
0
100
AcDbCircle
 62
7
  6
CONTINUOUS
 10
61.525
 20
0.525
 40
0.525
100
AcDbArc
 50
270.0
 51
360.0
  0
ARC
  5
36C
100
AcDbEntity
  8
RACCORDO
100
AcDbCircle
 62
7
  6
CONTINUOUS
 10
61.9419247618
 20
30.8545218476
 40
0.25
100
AcDbArc
 50
343.5472794779
 51
360.0
  0
ARC
  5
36D
100
AcDbEntity
  8
RACCORDO
100
AcDbCircle
 62
7
  6
CONTINUOUS
 10
61.9419247618
 20
32.6954781524
 40
0.25
100
AcDbArc
 50
0.0
 51
16.4527205199
  0
ARC
  5
36E
100
AcDbEntity
  8
RACCORDO
100
AcDbCircle
 62
7
  6
CONTINUOUS
 10
61.644574436
 20
29.875
 40
0.1
100
AcDbArc
 50
270.0000000014
 51
326.0255240868
  0
ARC
  5
36F
100
AcDbEntity
  8
RACCORDO
100
AcDbCircle
 62
7
  6
CONTINUOUS
 10
61.644574436
 20
33.675
 40
0.1
100
AcDbArc
 50
33.9744759132
 51
89.9999999986
  0
ARC
  5
370
100
AcDbEntity
  8
0
100
AcDbCircle
 62
7
  6
CONTINUOUS
 10
61.525
 20
0.525
 40
0.025
100
AcDbArc
 50
270.0
 51
360.0
  0
ARC
  5
371
100
AcDbEntity
  8
RACCORDO
100
AcDbCircle
 62
7
  6
CONTINUOUS
 10
58.825
 20
134.275
 40
3.5
100
AcDbArc
 50
16.4527205295
 51
33.9744759503
  0
ARC
  5
372
100
AcDbEntity
  8
RACCORDO
100
AcDbCircle
 62
7
  6
CONTINUOUS
 10
58.825
 20
134.275
 40
3.5
100
AcDbArc
 50
326.0255240497
 51
343.5472794705
  0
ARC
  5
373
100
AcDbEntity
  8
0
100
AcDbCircle
 62
7
  6
CONTINUOUS
 10
61.525
 20
190.525
 40
0.525
100
AcDbArc
 50
0.0
 51
90.0
  0
ARC
  5
374
100
AcDbEntity
  8
RACCORDO
100
AcDbCircle
 62
7
  6
CONTINUOUS
 10
61.9419247618
 20
133.3545218476
 40
0.25
100
AcDbArc
 50
343.5472794779
 51
360.0
  0
ARC
  5
375
100
AcDbEntity
  8
RACCORDO
100
AcDbCircle
 62
7
  6
CONTINUOUS
 10
61.9419247618
 20
135.1954781524
 40
0.25
100
AcDbArc
 50
0.0
 51
16.4527205199
  0
ARC
  5
376
100
AcDbEntity
  8
RACCORDO
100
AcDbCircle
 62
7
  6
CONTINUOUS
 10
61.644574436
 20
132.375
 40
0.1
100
AcDbArc
 50
270.0000000014
 51
326.0255240868
  0
ARC
  5
377
100
AcDbEntity
  8
RACCORDO
100
AcDbCircle
 62
7
  6
CONTINUOUS
 10
61.644574436
 20
136.175
 40
0.1
100
AcDbArc
 50
33.9744759132
 51
89.9999999986
  0
ARC
  5
378
100
AcDbEntity
  8
ASSI
100
AcDbCircle
 62
7
  6
CONTINUOUS
 10
37.5261106999
 20
101.85
 40
0.075
100
AcDbArc
 50
210.0
 51
30.0
  0
ARC
  5
379
100
AcDbEntity
  8
ASSI
100
AcDbCircle
 62
7
  6
CONTINUOUS
 10
36.025
 20
104.45
 40
0.075
100
AcDbArc
 50
30.0
 51
150.0
  0
ARC
  5
37A
100
AcDbEntity
  8
ASSI
100
AcDbCircle
 62
7
  6
CONTINUOUS
 10
34.5238893001
 20
101.85
 40
0.075
100
AcDbArc
 50
150.0
 51
330.0
  0
ARC
  5
37B
100
AcDbEntity
  8
ASSI
100
AcDbCircle
 62
7
  6
CONTINUOUS
 10
36.025
 20
101.95
 40
0.075
100
AcDbArc
 50
0.0
 51
180.0
  0
ARC
  5
37C
100
AcDbEntity
  8
ASSI
100
AcDbCircle
 62
7
  6
CONTINUOUS
 10
36.025
 20
95.6
 40
0.075
100
AcDbArc
 50
180.0
 51
360.0
  0
ARC
  5
37D
100
AcDbEntity
  8
ASSI
100
AcDbCircle
 62
7
  6
CONTINUOUS
 10
31.475
 20
95.6393812322
 40
0.075
100
AcDbArc
 50
102.8395884069
 51
282.8395884069
  0
ARC
  5
37E
100
AcDbEntity
  8
ASSI
100
AcDbCircle
 62
7
  6
CONTINUOUS
 10
32.7
 20
100.45
 40
0.075
100
AcDbArc
 50
0.0
 51
180.0
  0
ARC
  5
37F
100
AcDbEntity
  8
0
100
AcDbCircle
 62
7
  6
CONTINUOUS
 10
61.525
 20
190.525
 40
0.025
100
AcDbArc
 50
0.0
 51
90.0
  0
ENDSEC
  0
SECTION
  2
OBJECTS
  0
DICTIONARY
  5
C
100
AcDbDictionary
280
0
281
1
  3
ACAD_GROUP
350
D
  3
ACAD_MLINESTYLE
350
17
  3
ACAD_LAYOUT
350
1A
  3
ACAD_PLOTSETTINGS
350
19
  3
ACAD_PLOTSTYLENAME
350
E
  0
DICTIONARY
  5
D
102
{ACAD_REACTORS
330
C
102
}
100
AcDbDictionary
280
0
281
1
  0
ACDBDICTIONARYWDFLT
  5
E
102
{ACAD_REACTORS
330
C
102
}
100
AcDbDictionary
281
1
  3
Normal
350
F
100
AcDbDictionaryWithDefault
340
F
  0
DICTIONARY
  5
17
102
{ACAD_REACTORS
330
C
102
}
100
AcDbDictionary
280
0
281
1
  3
Standard
350
18
  0
DICTIONARY
  5
19
102
{ACAD_REACTORS
330
C
102
}
100
AcDbDictionary
281
1
  0
DICTIONARY
  5
1A
102
{ACAD_REACTORS
330
C
102
}
100
AcDbDictionary
281
1
  3
Model
350
380
  3
Layout1
350
381
  0
ACDBPLACEHOLDER
  5
F
102
{ACAD_REACTORS
330
E
102
}
  0
MLINESTYLE
  5
18
102
{ACAD_REACTORS
330
17
102
}
100
AcDbMlineStyle
  2
STANDARD
 70
0
  3

 62
256
 51
90.0
 52
90.0
 71
2
 49
0.5
 62
256
  6
BYLAYER
 49
-0.5
 62
256
  6
BYLAYER
  0
LAYOUT
  5
380
102
{ACAD_REACTORS
330
1A
102
}
100
AcDbPlotSettings
  1

  2
none_device
  4
ISO_A4_(297.00_x_210.00_MM)
  6

 40
0.0
 41
0.0
 42
0.0
 43
0.0
 44
297.0
 45
210.0
 46
0.0
 47
0.0
 48
0.0
 49
0.0
140
0.0
141
0.0
142
1.0
143
1.0
 70
1024
 72
1
 73
0
 74
0
  7

 75
0
147
1.0
148
0.0
149
0.0
100
AcDbLayout
  1
Model
 70
0
 71
0
 10
0.0
 20
0.0
 11
297.0
 21
210.0
 12
0.0
 22
0.0
 32
0.0
 14
0.0
 24
0.0
 34
0.0
 15
0.0
 25
0.0
 35
0.0
146
0.0
 13
0.0
 23
0.0
 33
0.0
 16
1.0
 26
0.0
 36
0.0
 17
0.0
 27
1.0
 37
0.0
 76
0
330
20F
345
0
346
0
  0
LAYOUT
  5
381
102
{ACAD_REACTORS
330
1A
102
}
100
AcDbPlotSettings
  1

  2
none_device
  4
ISO_A4_(297.00_x_210.00_MM)
  6

 40
0.0
 41
0.0
 42
0.0
 43
0.0
 44
297.0
 45
210.0
 46
0.0
 47
0.0
 48
0.0
 49
0.0
140
0.0
141
0.0
142
1.0
143
1.0
 70
0
 72
1
 73
0
 74
0
  7

 75
0
147
1.0
148
0.0
149
0.0
100
AcDbLayout
  1
Layout1
 70
0
 71
1
 10
0.0
 20
0.0
 11
297.0
 21
210.0
 12
0.0
 22
0.0
 32
0.0
 14
0.0
 24
0.0
 34
0.0
 15
0.0
 25
0.0
 35
0.0
146
0.0
 13
0.0
 23
0.0
 33
0.0
 16
1.0
 26
0.0
 36
0.0
 17
0.0
 27
1.0
 37
0.0
 76
0
330
210
345
0
346
0
  0
ENDSEC
  0
EOF
