  0
SECTION
  2
HEADER
  9
$ACADVER
  1
AC1024
  9
$DWGCODEPAGE
  3
ANSI_1252
  9
$EXTMAX
 10
297.0
 20
210.0
 30
0.0
  9
$EXTMIN
 10
0.0
 20
0.0
 30
0.0
  9
$LIMMIN
 10
0.0
 20
0.0
  9
$LIMMAX
 10
297.0
 20
210.0
  9
$VIEWCTR
 10
148.5
 20
105.0
  9
$VIEWSIZE
 40
210.0
  9
$CLAYER
  8
0
  9
$LTSCALE
 40
16.335
  9
$CELTYPE
  6
BYLAYER
  9
$DIMSCALE
 40
1.0
  9
$DIMASZ
 40
3.0
  9
$DIMEXO
 40
0.5
  9
$DIMDLI
 40
11.286
  9
$DIMEXE
 40
1.5
  9
$DIMCEN
 40
2.673
  9
$DIMLFAC
 40
1.0
  9
$DIMBLK
  1
_FILLED
  9
$DIMALT
 70
0
  9
$DIMALTF
 40
0.0393700787
  9
$DIMTXT
 40
3.0
  9
$DIMTOL
 70
1
  9
$DIMLIM
 70
0
  9
$DIMTFAC
 40
1.0
  9
$DIMTP
 40
0.01
  9
$DIMTM
 40
0.01
  9
$DIMGAP
 40
0.625
  9
$DIMDSEP
 70
44
  9
$AUNITS
 70
0
  9
$PDMODE
 70
3
  9
$PDSIZE
 40
3.0
  9
$HANDSEED
  5
A60
  9
$TILEMODE
 70
1
  9
$MEASUREMENT
 70
1
  9
$INSUNITS
 70
4
  0
ENDSEC
  0
SECTION
  2
CLASSES
  0
CLASS
  1
ACDBDICTIONARYWDFLT
  2
AcDbDictionaryWithDefault
  3
AutoCAD 2000
 90
0
 91
1
280
0
281
0
  0
CLASS
  1
ACDBPLACEHOLDER
  2
AcDbPlaceHolder
  3
AutoCAD 2000
 90
0
 91
1
280
0
281
0
  0
CLASS
  1
LAYOUT
  2
AcDbLayout
  3
AutoCAD 2000
 90
0
 91
0
280
0
281
0
  0
ENDSEC
  0
SECTION
  2
TABLES
  0
TABLE
  2
VPORT
  5
8
100
AcDbSymbolTable
 70
2
  0
VPORT
  5
1F4
100
AcDbSymbolTableRecord
100
AcDbViewportTableRecord
  2
*ACTIVE
 70
0
 10
0.0
 20
0.0
 11
1.0
 21
1.0
 12
148.5
 22
105.0
 13
0.0
 23
0.0
 14
1.0
 24
1.0
 15
0.0
 25
0.0
 16
0.0
 26
0.0
 36
1.0
 17
0.0
 27
0.0
 37
0.0
 40
210.0
 41
1.4142857143
 42
50.0
 43
0.0
 44
0.0
 50
0.0
 51
0.0
 71
0
 72
100
 73
1
 74
1
 75
0
 76
0
 77
0
 78
0
  0
ENDTAB
  0
TABLE
  2
LTYPE
  5
5
100
AcDbSymbolTable
 70
6
  0
LTYPE
  5
14
100
AcDbSymbolTableRecord
100
AcDbLinetypeTableRecord
  2
BYBLOCK
 70
0
  3

 72
65
 73
0
 40
0.0
  0
LTYPE
  5
15
100
AcDbSymbolTableRecord
100
AcDbLinetypeTableRecord
  2
BYLAYER
 70
0
  3

 72
65
 73
0
 40
0.0
  0
LTYPE
  5
16
100
AcDbSymbolTableRecord
100
AcDbLinetypeTableRecord
  2
CONTINUOUS
 70
64
  3
Solid line
 72
65
 73
0
 40
0.0
  0
LTYPE
  5
1F5
100
AcDbSymbolTableRecord
100
AcDbLinetypeTableRecord
  2
CENTER
 70
64
  3
____ _ ____ _ ____ _ ____ _ ____ _ ____ _ ____
 72
65
 73
4
 40
0.6
 49
0.375
 74
0
 49
-0.075
 74
0
 49
0.075
 74
0
 49
-0.075
 74
0
  0
LTYPE
  5
1F6
100
AcDbSymbolTableRecord
100
AcDbLinetypeTableRecord
  2
HIDDEN
 70
64
  3
- - - - - - - - - - - - - - - - - - - -
 72
65
 73
2
 40
0.2
 49
0.1
 74
0
 49
-0.1
 74
0
  0
LTYPE
  5
1F7
100
AcDbSymbolTableRecord
100
AcDbLinetypeTableRecord
  2
PHANTOM
 70
64
  3
_____ _ _ _____ _ _ _____ _ _ _____
 72
65
 73
6
 40
0.8
 49
0.45
 74
0
 49
-0.05
 74
0
 49
0.1
 74
0
 49
-0.05
 74
0
 49
0.1
 74
0
 49
-0.05
 74
0
  0
LTYPE
  5
1F8
100
AcDbSymbolTableRecord
100
AcDbLinetypeTableRecord
  2
DOT
 70
64
  3
. . . . . . . . . . . . . . . . . . . .
 72
65
 73
2
 40
0.2
 49
0.1
 74
0
 49
-0.1
 74
0
  0
LTYPE
  5
1F9
100
AcDbSymbolTableRecord
100
AcDbLinetypeTableRecord
  2
DASHED
 70
64
  3
- - - - - - - - - - - - - - - - - - - -
 72
65
 73
2
 40
0.2
 49
0.1
 74
0
 49
-0.1
 74
0
  0
ENDTAB
  0
TABLE
  2
LAYER
  5
2
100
AcDbSymbolTable
 70
36
  0
LAYER
  5
10
100
AcDbSymbolTableRecord
100
AcDbLayerTableRecord
  2
0
 70
0
 62
7
  6
CONTINUOUS
370
-3
390
F
  0
LAYER
  5
1FA
100
AcDbSymbolTableRecord
100
AcDbLayerTableRecord
  2
DEFAULT_1
 70
0
 62
7
  6
CENTER
370
-3
390
F
  0
LAYER
  5
1FB
100
AcDbSymbolTableRecord
100
AcDbLayerTableRecord
  2
DEFAULT_2
 70
0
 62
7
  6
HIDDEN
370
-3
390
F
  0
LAYER
  5
1FC
100
AcDbSymbolTableRecord
100
AcDbLayerTableRecord
  2
DEFAULT_3
 70
0
 62
7
  6
PHANTOM
370
-3
390
F
  0
LAYER
  5
1FD
100
AcDbSymbolTableRecord
100
AcDbLayerTableRecord
  2
0603_C_REF_90000
 70
0
 62
7
  6
CONTINUOUS
370
-3
390
F
  0
LAYER
  5
1FE
100
AcDbSymbolTableRecord
100
AcDbLayerTableRecord
  2
0603_C_REF_90000_1
 70
0
 62
7
  6
CONTINUOUS
370
-3
390
F
  0
LAYER
  5
1FF
100
AcDbSymbolTableRecord
100
AcDbLayerTableRecord
  2
0603_C_REF_90000_10
 70
0
 62
7
  6
CONTINUOUS
370
-3
390
F
  0
LAYER
  5
200
100
AcDbSymbolTableRecord
100
AcDbLayerTableRecord
  2
0603_C_REF_90000_100
 70
0
 62
7
  6
CONTINUOUS
370
-3
390
F
  0
LAYER
  5
201
100
AcDbSymbolTableRecord
100
AcDbLayerTableRecord
  2
0603_C_REF_90000_101
 70
0
 62
7
  6
CONTINUOUS
370
-3
390
F
  0
LAYER
  5
202
100
AcDbSymbolTableRecord
100
AcDbLayerTableRecord
  2
0603_C_REF_90000_102
 70
0
 62
7
  6
CONTINUOUS
370
-3
390
F
  0
LAYER
  5
203
100
AcDbSymbolTableRecord
100
AcDbLayerTableRecord
  2
0603_C_REF_90000_103
 70
0
 62
7
  6
CONTINUOUS
370
-3
390
F
  0
LAYER
  5
204
100
AcDbSymbolTableRecord
100
AcDbLayerTableRecord
  2
0603_C_REF_90000_104
 70
0
 62
7
  6
CONTINUOUS
370
-3
390
F
  0
LAYER
  5
205
100
AcDbSymbolTableRecord
100
AcDbLayerTableRecord
  2
0603_C_REF_90000_105
 70
0
 62
7
  6
CONTINUOUS
370
-3
390
F
  0
LAYER
  5
206
100
AcDbSymbolTableRecord
100
AcDbLayerTableRecord
  2
0603_C_REF_90000_106
 70
0
 62
7
  6
CONTINUOUS
370
-3
390
F
  0
LAYER
  5
207
100
AcDbSymbolTableRecord
100
AcDbLayerTableRecord
  2
0603_C_REF_90000_107
 70
0
 62
7
  6
CONTINUOUS
370
-3
390
F
  0
LAYER
  5
208
100
AcDbSymbolTableRecord
100
AcDbLayerTableRecord
  2
0603_C_REF_90000_108
 70
0
 62
7
  6
CONTINUOUS
370
-3
390
F
  0
LAYER
  5
209
100
AcDbSymbolTableRecord
100
AcDbLayerTableRecord
  2
0603_C_REF_90000_109
 70
0
 62
7
  6
CONTINUOUS
370
-3
390
F
  0
LAYER
  5
20A
100
AcDbSymbolTableRecord
100
AcDbLayerTableRecord
  2
0603_C_REF_90000_11
 70
0
 62
7
  6
CONTINUOUS
370
-3
390
F
  0
LAYER
  5
20B
100
AcDbSymbolTableRecord
100
AcDbLayerTableRecord
  2
0603_C_REF_90000_110
 70
0
 62
7
  6
CONTINUOUS
370
-3
390
F
  0
LAYER
  5
20C
100
AcDbSymbolTableRecord
100
AcDbLayerTableRecord
  2
0603_C_REF_90000_111
 70
0
 62
7
  6
CONTINUOUS
370
-3
390
F
  0
LAYER
  5
20D
100
AcDbSymbolTableRecord
100
AcDbLayerTableRecord
  2
0603_C_REF_90000_112
 70
0
 62
7
  6
CONTINUOUS
370
-3
390
F
  0
LAYER
  5
20E
100
AcDbSymbolTableRecord
100
AcDbLayerTableRecord
  2
0603_C_REF_90000_113
 70
0
 62
7
  6
CONTINUOUS
370
-3
390
F
  0
LAYER
  5
20F
100
AcDbSymbolTableRecord
100
AcDbLayerTableRecord
  2
0603_C_REF_90000_114
 70
0
 62
7
  6
CONTINUOUS
370
-3
390
F
  0
LAYER
  5
210
100
AcDbSymbolTableRecord
100
AcDbLayerTableRecord
  2
0603_C_REF_90000_115
 70
0
 62
7
  6
CONTINUOUS
370
-3
390
F
  0
LAYER
  5
211
100
AcDbSymbolTableRecord
100
AcDbLayerTableRecord
  2
0603_C_REF_90000_116
 70
0
 62
7
  6
CONTINUOUS
370
-3
390
F
  0
LAYER
  5
212
100
AcDbSymbolTableRecord
100
AcDbLayerTableRecord
  2
0603_C_REF_90000_117
 70
0
 62
7
  6
CONTINUOUS
370
-3
390
F
  0
LAYER
  5
213
100
AcDbSymbolTableRecord
100
AcDbLayerTableRecord
  2
0603_C_REF_90000_118
 70
0
 62
7
  6
CONTINUOUS
370
-3
390
F
  0
LAYER
  5
214
100
AcDbSymbolTableRecord
100
AcDbLayerTableRecord
  2
0603_C_REF_90000_119
 70
0
 62
7
  6
CONTINUOUS
370
-3
390
F
  0
LAYER
  5
215
100
AcDbSymbolTableRecord
100
AcDbLayerTableRecord
  2
0603_C_REF_90000_12
 70
0
 62
7
  6
CONTINUOUS
370
-3
390
F
  0
LAYER
  5
216
100
AcDbSymbolTableRecord
100
AcDbLayerTableRecord
  2
0603_C_REF_90000_120
 70
0
 62
7
  6
CONTINUOUS
370
-3
390
F
  0
LAYER
  5
217
100
AcDbSymbolTableRecord
100
AcDbLayerTableRecord
  2
0603_C_REF_90000_121
 70
0
 62
7
  6
CONTINUOUS
370
-3
390
F
  0
LAYER
  5
218
100
AcDbSymbolTableRecord
100
AcDbLayerTableRecord
  2
0603_C_REF_90000_122
 70
0
 62
7
  6
CONTINUOUS
370
-3
390
F
  0
LAYER
  5
219
100
AcDbSymbolTableRecord
100
AcDbLayerTableRecord
  2
0603_C_REF_90000_123
 70
0
 62
7
  6
CONTINUOUS
370
-3
390
F
  0
LAYER
  5
21A
100
AcDbSymbolTableRecord
100
AcDbLayerTableRecord
  2
0603_C_REF_90000_124
 70
0
 62
7
  6
CONTINUOUS
370
-3
390
F
  0
LAYER
  5
21B
100
AcDbSymbolTableRecord
100
AcDbLayerTableRecord
  2
0603_C_REF_90000_125
 70
0
 62
7
  6
CONTINUOUS
370
-3
390
F
  0
LAYER
  5
21C
100
AcDbSymbolTableRecord
100
AcDbLayerTableRecord
  2
0603_C_REF_90000_126
 70
0
 62
7
  6
CONTINUOUS
370
-3
390
F
  0
LAYER
  5
21D
100
AcDbSymbolTableRecord
100
AcDbLayerTableRecord
  2
0603_C_REF_90000_127
 70
0
 62
7
  6
CONTINUOUS
370
-3
390
F
  0
LAYER
  5
21E
100
AcDbSymbolTableRecord
100
AcDbLayerTableRecord
  2
0603_C_REF_90000_128
 70
0
 62
7
  6
CONTINUOUS
370
-3
390
F
  0
LAYER
  5
21F
100
AcDbSymbolTableRecord
100
AcDbLayerTableRecord
  2
0603_C_REF_90000_129
 70
0
 62
7
  6
CONTINUOUS
370
-3
390
F
  0
LAYER
  5
220
100
AcDbSymbolTableRecord
100
AcDbLayerTableRecord
  2
0603_C_REF_90000_13
 70
0
 62
7
  6
CONTINUOUS
370
-3
390
F
  0
LAYER
  5
221
100
AcDbSymbolTableRecord
100
AcDbLayerTableRecord
  2
0603_C_REF_90000_130
 70
0
 62
7
  6
CONTINUOUS
370
-3
390
F
  0
LAYER
  5
222
100
AcDbSymbolTableRecord
100
AcDbLayerTableRecord
  2
0603_C_REF_90000_131
 70
0
 62
7
  6
CONTINUOUS
370
-3
390
F
  0
LAYER
  5
223
100
AcDbSymbolTableRecord
100
AcDbLayerTableRecord
  2
0603_C_REF_90000_132
 70
0
 62
7
  6
CONTINUOUS
370
-3
390
F
  0
LAYER
  5
224
100
AcDbSymbolTableRecord
100
AcDbLayerTableRecord
  2
0603_C_REF_90000_133
 70
0
 62
7
  6
CONTINUOUS
370
-3
390
F
  0
LAYER
  5
225
100
AcDbSymbolTableRecord
100
AcDbLayerTableRecord
  2
0603_C_REF_90000_134
 70
0
 62
7
  6
CONTINUOUS
370
-3
390
F
  0
LAYER
  5
226
100
AcDbSymbolTableRecord
100
AcDbLayerTableRecord
  2
0603_C_REF_90000_135
 70
0
 62
7
  6
CONTINUOUS
370
-3
390
F
  0
LAYER
  5
227
100
AcDbSymbolTableRecord
100
AcDbLayerTableRecord
  2
0603_C_REF_90000_136
 70
0
 62
7
  6
CONTINUOUS
370
-3
390
F
  0
LAYER
  5
228
100
AcDbSymbolTableRecord
100
AcDbLayerTableRecord
  2
0603_C_REF_90000_137
 70
0
 62
7
  6
CONTINUOUS
370
-3
390
F
  0
LAYER
  5
229
100
AcDbSymbolTableRecord
100
AcDbLayerTableRecord
  2
0603_C_REF_90000_138
 70
0
 62
7
  6
CONTINUOUS
370
-3
390
F
  0
LAYER
  5
22A
100
AcDbSymbolTableRecord
100
AcDbLayerTableRecord
  2
0603_C_REF_90000_139
 70
0
 62
7
  6
CONTINUOUS
370
-3
390
F
  0
LAYER
  5
22B
100
AcDbSymbolTableRecord
100
AcDbLayerTableRecord
  2
0603_C_REF_90000_14
 70
0
 62
7
  6
CONTINUOUS
370
-3
390
F
  0
LAYER
  5
22C
100
AcDbSymbolTableRecord
100
AcDbLayerTableRecord
  2
0603_C_REF_90000_15
 70
0
 62
7
  6
CONTINUOUS
370
-3
390
F
  0
LAYER
  5
22D
100
AcDbSymbolTableRecord
100
AcDbLayerTableRecord
  2
0603_C_REF_90000_16
 70
0
 62
7
  6
CONTINUOUS
370
-3
390
F
  0
LAYER
  5
22E
100
AcDbSymbolTableRecord
100
AcDbLayerTableRecord
  2
0603_C_REF_90000_17
 70
0
 62
7
  6
CONTINUOUS
370
-3
390
F
  0
LAYER
  5
22F
100
AcDbSymbolTableRecord
100
AcDbLayerTableRecord
  2
0603_C_REF_90000_18
 70
0
 62
7
  6
CONTINUOUS
370
-3
390
F
  0
LAYER
  5
230
100
AcDbSymbolTableRecord
100
AcDbLayerTableRecord
  2
0603_C_REF_90000_19
 70
0
 62
7
  6
CONTINUOUS
370
-3
390
F
  0
LAYER
  5
231
100
AcDbSymbolTableRecord
100
AcDbLayerTableRecord
  2
0603_C_REF_90000_2
 70
0
 62
7
  6
CONTINUOUS
370
-3
390
F
  0
LAYER
  5
232
100
AcDbSymbolTableRecord
100
AcDbLayerTableRecord
  2
0603_C_REF_90000_20
 70
0
 62
7
  6
CONTINUOUS
370
-3
390
F
  0
LAYER
  5
233
100
AcDbSymbolTableRecord
100
AcDbLayerTableRecord
  2
0603_C_REF_90000_21
 70
0
 62
7
  6
CONTINUOUS
370
-3
390
F
  0
LAYER
  5
234
100
AcDbSymbolTableRecord
100
AcDbLayerTableRecord
  2
0603_C_REF_90000_22
 70
0
 62
7
  6
CONTINUOUS
370
-3
390
F
  0
LAYER
  5
235
100
AcDbSymbolTableRecord
100
AcDbLayerTableRecord
  2
0603_C_REF_90000_23
 70
0
 62
7
  6
CONTINUOUS
370
-3
390
F
  0
LAYER
  5
236
100
AcDbSymbolTableRecord
100
AcDbLayerTableRecord
  2
0603_C_REF_90000_24
 70
0
 62
7
  6
CONTINUOUS
370
-3
390
F
  0
LAYER
  5
237
100
AcDbSymbolTableRecord
100
AcDbLayerTableRecord
  2
0603_C_REF_90000_25
 70
0
 62
7
  6
CONTINUOUS
370
-3
390
F
  0
LAYER
  5
238
100
AcDbSymbolTableRecord
100
AcDbLayerTableRecord
  2
0603_C_REF_90000_26
 70
0
 62
7
  6
CONTINUOUS
370
-3
390
F
  0
LAYER
  5
239
100
AcDbSymbolTableRecord
100
AcDbLayerTableRecord
  2
0603_C_REF_90000_27
 70
0
 62
7
  6
CONTINUOUS
370
-3
390
F
  0
LAYER
  5
23A
100
AcDbSymbolTableRecord
100
AcDbLayerTableRecord
  2
0603_C_REF_90000_28
 70
0
 62
7
  6
CONTINUOUS
370
-3
390
F
  0
LAYER
  5
23B
100
AcDbSymbolTableRecord
100
AcDbLayerTableRecord
  2
0603_C_REF_90000_29
 70
0
 62
7
  6
CONTINUOUS
370
-3
390
F
  0
LAYER
  5
23C
100
AcDbSymbolTableRecord
100
AcDbLayerTableRecord
  2
0603_C_REF_90000_3
 70
0
 62
7
  6
CONTINUOUS
370
-3
390
F
  0
LAYER
  5
23D
100
AcDbSymbolTableRecord
100
AcDbLayerTableRecord
  2
0603_C_REF_90000_30
 70
0
 62
7
  6
CONTINUOUS
370
-3
390
F
  0
LAYER
  5
23E
100
AcDbSymbolTableRecord
100
AcDbLayerTableRecord
  2
0603_C_REF_90000_31
 70
0
 62
7
  6
CONTINUOUS
370
-3
390
F
  0
LAYER
  5
23F
100
AcDbSymbolTableRecord
100
AcDbLayerTableRecord
  2
0603_C_REF_90000_32
 70
0
 62
7
  6
CONTINUOUS
370
-3
390
F
  0
LAYER
  5
240
100
AcDbSymbolTableRecord
100
AcDbLayerTableRecord
  2
0603_C_REF_90000_33
 70
0
 62
7
  6
CONTINUOUS
370
-3
390
F
  0
LAYER
  5
241
100
AcDbSymbolTableRecord
100
AcDbLayerTableRecord
  2
0603_C_REF_90000_34
 70
0
 62
7
  6
CONTINUOUS
370
-3
390
F
  0
LAYER
  5
242
100
AcDbSymbolTableRecord
100
AcDbLayerTableRecord
  2
0603_C_REF_90000_35
 70
0
 62
7
  6
CONTINUOUS
370
-3
390
F
  0
LAYER
  5
243
100
AcDbSymbolTableRecord
100
AcDbLayerTableRecord
  2
0603_C_REF_90000_36
 70
0
 62
7
  6
CONTINUOUS
370
-3
390
F
  0
LAYER
  5
244
100
AcDbSymbolTableRecord
100
AcDbLayerTableRecord
  2
0603_C_REF_90000_37
 70
0
 62
7
  6
CONTINUOUS
370
-3
390
F
  0
LAYER
  5
245
100
AcDbSymbolTableRecord
100
AcDbLayerTableRecord
  2
0603_C_REF_90000_38
 70
0
 62
7
  6
CONTINUOUS
370
-3
390
F
  0
LAYER
  5
246
100
AcDbSymbolTableRecord
100
AcDbLayerTableRecord
  2
0603_C_REF_90000_39
 70
0
 62
7
  6
CONTINUOUS
370
-3
390
F
  0
LAYER
  5
247
100
AcDbSymbolTableRecord
100
AcDbLayerTableRecord
  2
0603_C_REF_90000_4
 70
0
 62
7
  6
CONTINUOUS
370
-3
390
F
  0
LAYER
  5
248
100
AcDbSymbolTableRecord
100
AcDbLayerTableRecord
  2
0603_C_REF_90000_40
 70
0
 62
7
  6
CONTINUOUS
370
-3
390
F
  0
LAYER
  5
249
100
AcDbSymbolTableRecord
100
AcDbLayerTableRecord
  2
0603_C_REF_90000_41
 70
0
 62
7
  6
CONTINUOUS
370
-3
390
F
  0
LAYER
  5
24A
100
AcDbSymbolTableRecord
100
AcDbLayerTableRecord
  2
0603_C_REF_90000_42
 70
0
 62
7
  6
CONTINUOUS
370
-3
390
F
  0
LAYER
  5
24B
100
AcDbSymbolTableRecord
100
AcDbLayerTableRecord
  2
0603_C_REF_90000_43
 70
0
 62
7
  6
CONTINUOUS
370
-3
390
F
  0
LAYER
  5
24C
100
AcDbSymbolTableRecord
100
AcDbLayerTableRecord
  2
0603_C_REF_90000_44
 70
0
 62
7
  6
CONTINUOUS
370
-3
390
F
  0
LAYER
  5
24D
100
AcDbSymbolTableRecord
100
AcDbLayerTableRecord
  2
0603_C_REF_90000_45
 70
0
 62
7
  6
CONTINUOUS
370
-3
390
F
  0
LAYER
  5
24E
100
AcDbSymbolTableRecord
100
AcDbLayerTableRecord
  2
0603_C_REF_90000_46
 70
0
 62
7
  6
CONTINUOUS
370
-3
390
F
  0
LAYER
  5
24F
100
AcDbSymbolTableRecord
100
AcDbLayerTableRecord
  2
0603_C_REF_90000_47
 70
0
 62
7
  6
CONTINUOUS
370
-3
390
F
  0
LAYER
  5
250
100
AcDbSymbolTableRecord
100
AcDbLayerTableRecord
  2
0603_C_REF_90000_48
 70
0
 62
7
  6
CONTINUOUS
370
-3
390
F
  0
LAYER
  5
251
100
AcDbSymbolTableRecord
100
AcDbLayerTableRecord
  2
0603_C_REF_90000_49
 70
0
 62
7
  6
CONTINUOUS
370
-3
390
F
  0
LAYER
  5
252
100
AcDbSymbolTableRecord
100
AcDbLayerTableRecord
  2
0603_C_REF_90000_5
 70
0
 62
7
  6
CONTINUOUS
370
-3
390
F
  0
LAYER
  5
253
100
AcDbSymbolTableRecord
100
AcDbLayerTableRecord
  2
0603_C_REF_90000_50
 70
0
 62
7
  6
CONTINUOUS
370
-3
390
F
  0
LAYER
  5
254
100
AcDbSymbolTableRecord
100
AcDbLayerTableRecord
  2
0603_C_REF_90000_51
 70
0
 62
7
  6
CONTINUOUS
370
-3
390
F
  0
LAYER
  5
255
100
AcDbSymbolTableRecord
100
AcDbLayerTableRecord
  2
0603_C_REF_90000_52
 70
0
 62
7
  6
CONTINUOUS
370
-3
390
F
  0
LAYER
  5
256
100
AcDbSymbolTableRecord
100
AcDbLayerTableRecord
  2
0603_C_REF_90000_53
 70
0
 62
7
  6
CONTINUOUS
370
-3
390
F
  0
LAYER
  5
257
100
AcDbSymbolTableRecord
100
AcDbLayerTableRecord
  2
0603_C_REF_90000_54
 70
0
 62
7
  6
CONTINUOUS
370
-3
390
F
  0
LAYER
  5
258
100
AcDbSymbolTableRecord
100
AcDbLayerTableRecord
  2
0603_C_REF_90000_55
 70
0
 62
7
  6
CONTINUOUS
370
-3
390
F
  0
LAYER
  5
259
100
AcDbSymbolTableRecord
100
AcDbLayerTableRecord
  2
0603_C_REF_90000_56
 70
0
 62
7
  6
CONTINUOUS
370
-3
390
F
  0
LAYER
  5
25A
100
AcDbSymbolTableRecord
100
AcDbLayerTableRecord
  2
0603_C_REF_90000_57
 70
0
 62
7
  6
CONTINUOUS
370
-3
390
F
  0
LAYER
  5
25B
100
AcDbSymbolTableRecord
100
AcDbLayerTableRecord
  2
0603_C_REF_90000_58
 70
0
 62
7
  6
CONTINUOUS
370
-3
390
F
  0
LAYER
  5
25C
100
AcDbSymbolTableRecord
100
AcDbLayerTableRecord
  2
0603_C_REF_90000_59
 70
0
 62
7
  6
CONTINUOUS
370
-3
390
F
  0
LAYER
  5
25D
100
AcDbSymbolTableRecord
100
AcDbLayerTableRecord
  2
0603_C_REF_90000_6
 70
0
 62
7
  6
CONTINUOUS
370
-3
390
F
  0
LAYER
  5
25E
100
AcDbSymbolTableRecord
100
AcDbLayerTableRecord
  2
0603_C_REF_90000_60
 70
0
 62
7
  6
CONTINUOUS
370
-3
390
F
  0
LAYER
  5
25F
100
AcDbSymbolTableRecord
100
AcDbLayerTableRecord
  2
0603_C_REF_90000_61
 70
0
 62
7
  6
CONTINUOUS
370
-3
390
F
  0
LAYER
  5
260
100
AcDbSymbolTableRecord
100
AcDbLayerTableRecord
  2
0603_C_REF_90000_62
 70
0
 62
7
  6
CONTINUOUS
370
-3
390
F
  0
LAYER
  5
261
100
AcDbSymbolTableRecord
100
AcDbLayerTableRecord
  2
0603_C_REF_90000_63
 70
0
 62
7
  6
CONTINUOUS
370
-3
390
F
  0
LAYER
  5
262
100
AcDbSymbolTableRecord
100
AcDbLayerTableRecord
  2
0603_C_REF_90000_64
 70
0
 62
7
  6
CONTINUOUS
370
-3
390
F
  0
LAYER
  5
263
100
AcDbSymbolTableRecord
100
AcDbLayerTableRecord
  2
0603_C_REF_90000_65
 70
0
 62
7
  6
CONTINUOUS
370
-3
390
F
  0
LAYER
  5
264
100
AcDbSymbolTableRecord
100
AcDbLayerTableRecord
  2
0603_C_REF_90000_66
 70
0
 62
7
  6
CONTINUOUS
370
-3
390
F
  0
LAYER
  5
265
100
AcDbSymbolTableRecord
100
AcDbLayerTableRecord
  2
0603_C_REF_90000_67
 70
0
 62
7
  6
CONTINUOUS
370
-3
390
F
  0
LAYER
  5
266
100
AcDbSymbolTableRecord
100
AcDbLayerTableRecord
  2
0603_C_REF_90000_68
 70
0
 62
7
  6
CONTINUOUS
370
-3
390
F
  0
LAYER
  5
267
100
AcDbSymbolTableRecord
100
AcDbLayerTableRecord
  2
0603_C_REF_90000_69
 70
0
 62
7
  6
CONTINUOUS
370
-3
390
F
  0
LAYER
  5
268
100
AcDbSymbolTableRecord
100
AcDbLayerTableRecord
  2
0603_C_REF_90000_7
 70
0
 62
7
  6
CONTINUOUS
370
-3
390
F
  0
LAYER
  5
269
100
AcDbSymbolTableRecord
100
AcDbLayerTableRecord
  2
0603_C_REF_90000_70
 70
0
 62
7
  6
CONTINUOUS
370
-3
390
F
  0
LAYER
  5
26A
100
AcDbSymbolTableRecord
100
AcDbLayerTableRecord
  2
0603_C_REF_90000_71
 70
0
 62
7
  6
CONTINUOUS
370
-3
390
F
  0
LAYER
  5
26B
100
AcDbSymbolTableRecord
100
AcDbLayerTableRecord
  2
0603_C_REF_90000_72
 70
0
 62
7
  6
CONTINUOUS
370
-3
390
F
  0
LAYER
  5
26C
100
AcDbSymbolTableRecord
100
AcDbLayerTableRecord
  2
0603_C_REF_90000_73
 70
0
 62
7
  6
CONTINUOUS
370
-3
390
F
  0
LAYER
  5
26D
100
AcDbSymbolTableRecord
100
AcDbLayerTableRecord
  2
0603_C_REF_90000_74
 70
0
 62
7
  6
CONTINUOUS
370
-3
390
F
  0
LAYER
  5
26E
100
AcDbSymbolTableRecord
100
AcDbLayerTableRecord
  2
0603_C_REF_90000_75
 70
0
 62
7
  6
CONTINUOUS
370
-3
390
F
  0
LAYER
  5
26F
100
AcDbSymbolTableRecord
100
AcDbLayerTableRecord
  2
0603_C_REF_90000_76
 70
0
 62
7
  6
CONTINUOUS
370
-3
390
F
  0
LAYER
  5
270
100
AcDbSymbolTableRecord
100
AcDbLayerTableRecord
  2
0603_C_REF_90000_77
 70
0
 62
7
  6
CONTINUOUS
370
-3
390
F
  0
LAYER
  5
271
100
AcDbSymbolTableRecord
100
AcDbLayerTableRecord
  2
0603_C_REF_90000_78
 70
0
 62
7
  6
CONTINUOUS
370
-3
390
F
  0
LAYER
  5
272
100
AcDbSymbolTableRecord
100
AcDbLayerTableRecord
  2
0603_C_REF_90000_79
 70
0
 62
7
  6
CONTINUOUS
370
-3
390
F
  0
LAYER
  5
273
100
AcDbSymbolTableRecord
100
AcDbLayerTableRecord
  2
0603_C_REF_90000_8
 70
0
 62
7
  6
CONTINUOUS
370
-3
390
F
  0
LAYER
  5
274
100
AcDbSymbolTableRecord
100
AcDbLayerTableRecord
  2
0603_C_REF_90000_80
 70
0
 62
7
  6
CONTINUOUS
370
-3
390
F
  0
LAYER
  5
275
100
AcDbSymbolTableRecord
100
AcDbLayerTableRecord
  2
0603_C_REF_90000_81
 70
0
 62
7
  6
CONTINUOUS
370
-3
390
F
  0
LAYER
  5
276
100
AcDbSymbolTableRecord
100
AcDbLayerTableRecord
  2
0603_C_REF_90000_82
 70
0
 62
7
  6
CONTINUOUS
370
-3
390
F
  0
LAYER
  5
277
100
AcDbSymbolTableRecord
100
AcDbLayerTableRecord
  2
0603_C_REF_90000_83
 70
0
 62
7
  6
CONTINUOUS
370
-3
390
F
  0
LAYER
  5
278
100
AcDbSymbolTableRecord
100
AcDbLayerTableRecord
  2
0603_C_REF_90000_84
 70
0
 62
7
  6
CONTINUOUS
370
-3
390
F
  0
LAYER
  5
279
100
AcDbSymbolTableRecord
100
AcDbLayerTableRecord
  2
0603_C_REF_90000_85
 70
0
 62
7
  6
CONTINUOUS
370
-3
390
F
  0
LAYER
  5
27A
100
AcDbSymbolTableRecord
100
AcDbLayerTableRecord
  2
0603_C_REF_90000_86
 70
0
 62
7
  6
CONTINUOUS
370
-3
390
F
  0
LAYER
  5
27B
100
AcDbSymbolTableRecord
100
AcDbLayerTableRecord
  2
0603_C_REF_90000_87
 70
0
 62
7
  6
CONTINUOUS
370
-3
390
F
  0
LAYER
  5
27C
100
AcDbSymbolTableRecord
100
AcDbLayerTableRecord
  2
0603_C_REF_90000_88
 70
0
 62
7
  6
CONTINUOUS
370
-3
390
F
  0
LAYER
  5
27D
100
AcDbSymbolTableRecord
100
AcDbLayerTableRecord
  2
0603_C_REF_90000_89
 70
0
 62
7
  6
CONTINUOUS
370
-3
390
F
  0
LAYER
  5
27E
100
AcDbSymbolTableRecord
100
AcDbLayerTableRecord
  2
0603_C_REF_90000_9
 70
0
 62
7
  6
CONTINUOUS
370
-3
390
F
  0
LAYER
  5
27F
100
AcDbSymbolTableRecord
100
AcDbLayerTableRecord
  2
0603_C_REF_90000_90
 70
0
 62
7
  6
CONTINUOUS
370
-3
390
F
  0
LAYER
  5
280
100
AcDbSymbolTableRecord
100
AcDbLayerTableRecord
  2
0603_C_REF_90000_91
 70
0
 62
7
  6
CONTINUOUS
370
-3
390
F
  0
LAYER
  5
281
100
AcDbSymbolTableRecord
100
AcDbLayerTableRecord
  2
0603_C_REF_90000_92
 70
0
 62
7
  6
CONTINUOUS
370
-3
390
F
  0
LAYER
  5
282
100
AcDbSymbolTableRecord
100
AcDbLayerTableRecord
  2
0603_C_REF_90000_93
 70
0
 62
7
  6
CONTINUOUS
370
-3
390
F
  0
LAYER
  5
283
100
AcDbSymbolTableRecord
100
AcDbLayerTableRecord
  2
0603_C_REF_90000_94
 70
0
 62
7
  6
CONTINUOUS
370
-3
390
F
  0
LAYER
  5
284
100
AcDbSymbolTableRecord
100
AcDbLayerTableRecord
  2
0603_C_REF_90000_95
 70
0
 62
7
  6
CONTINUOUS
370
-3
390
F
  0
LAYER
  5
285
100
AcDbSymbolTableRecord
100
AcDbLayerTableRecord
  2
0603_C_REF_90000_96
 70
0
 62
7
  6
CONTINUOUS
370
-3
390
F
  0
LAYER
  5
286
100
AcDbSymbolTableRecord
100
AcDbLayerTableRecord
  2
0603_C_REF_90000_97
 70
0
 62
7
  6
CONTINUOUS
370
-3
390
F
  0
LAYER
  5
287
100
AcDbSymbolTableRecord
100
AcDbLayerTableRecord
  2
0603_C_REF_90000_98
 70
0
 62
7
  6
CONTINUOUS
370
-3
390
F
  0
LAYER
  5
288
100
AcDbSymbolTableRecord
100
AcDbLayerTableRecord
  2
0603_C_REF_90000_99
 70
0
 62
7
  6
CONTINUOUS
370
-3
390
F
  0
LAYER
  5
289
100
AcDbSymbolTableRecord
100
AcDbLayerTableRecord
  2
0603_R_REF_55000
 70
0
 62
7
  6
CONTINUOUS
370
-3
390
F
  0
LAYER
  5
28A
100
AcDbSymbolTableRecord
100
AcDbLayerTableRecord
  2
0603_R_REF_55000_1
 70
0
 62
7
  6
CONTINUOUS
370
-3
390
F
  0
LAYER
  5
28B
100
AcDbSymbolTableRecord
100
AcDbLayerTableRecord
  2
0603_R_REF_55000_10
 70
0
 62
7
  6
CONTINUOUS
370
-3
390
F
  0
LAYER
  5
28C
100
AcDbSymbolTableRecord
100
AcDbLayerTableRecord
  2
0603_R_REF_55000_100
 70
0
 62
7
  6
CONTINUOUS
370
-3
390
F
  0
LAYER
  5
28D
100
AcDbSymbolTableRecord
100
AcDbLayerTableRecord
  2
0603_R_REF_55000_101
 70
0
 62
7
  6
CONTINUOUS
370
-3
390
F
  0
LAYER
  5
28E
100
AcDbSymbolTableRecord
100
AcDbLayerTableRecord
  2
0603_R_REF_55000_102
 70
0
 62
7
  6
CONTINUOUS
370
-3
390
F
  0
LAYER
  5
28F
100
AcDbSymbolTableRecord
100
AcDbLayerTableRecord
  2
0603_R_REF_55000_103
 70
0
 62
7
  6
CONTINUOUS
370
-3
390
F
  0
LAYER
  5
290
100
AcDbSymbolTableRecord
100
AcDbLayerTableRecord
  2
0603_R_REF_55000_104
 70
0
 62
7
  6
CONTINUOUS
370
-3
390
F
  0
LAYER
  5
291
100
AcDbSymbolTableRecord
100
AcDbLayerTableRecord
  2
0603_R_REF_55000_105
 70
0
 62
7
  6
CONTINUOUS
370
-3
390
F
  0
LAYER
  5
292
100
AcDbSymbolTableRecord
100
AcDbLayerTableRecord
  2
0603_R_REF_55000_106
 70
0
 62
7
  6
CONTINUOUS
370
-3
390
F
  0
LAYER
  5
293
100
AcDbSymbolTableRecord
100
AcDbLayerTableRecord
  2
0603_R_REF_55000_107
 70
0
 62
7
  6
CONTINUOUS
370
-3
390
F
  0
LAYER
  5
294
100
AcDbSymbolTableRecord
100
AcDbLayerTableRecord
  2
0603_R_REF_55000_108
 70
0
 62
7
  6
CONTINUOUS
370
-3
390
F
  0
LAYER
  5
295
100
AcDbSymbolTableRecord
100
AcDbLayerTableRecord
  2
0603_R_REF_55000_109
 70
0
 62
7
  6
CONTINUOUS
370
-3
390
F
  0
LAYER
  5
296
100
AcDbSymbolTableRecord
100
AcDbLayerTableRecord
  2
0603_R_REF_55000_11
 70
0
 62
7
  6
CONTINUOUS
370
-3
390
F
  0
LAYER
  5
297
100
AcDbSymbolTableRecord
100
AcDbLayerTableRecord
  2
0603_R_REF_55000_110
 70
0
 62
7
  6
CONTINUOUS
370
-3
390
F
  0
LAYER
  5
298
100
AcDbSymbolTableRecord
100
AcDbLayerTableRecord
  2
0603_R_REF_55000_111
 70
0
 62
7
  6
CONTINUOUS
370
-3
390
F
  0
LAYER
  5
299
100
AcDbSymbolTableRecord
100
AcDbLayerTableRecord
  2
0603_R_REF_55000_112
 70
0
 62
7
  6
CONTINUOUS
370
-3
390
F
  0
LAYER
  5
29A
100
AcDbSymbolTableRecord
100
AcDbLayerTableRecord
  2
0603_R_REF_55000_113
 70
0
 62
7
  6
CONTINUOUS
370
-3
390
F
  0
LAYER
  5
29B
100
AcDbSymbolTableRecord
100
AcDbLayerTableRecord
  2
0603_R_REF_55000_114
 70
0
 62
7
  6
CONTINUOUS
370
-3
390
F
  0
LAYER
  5
29C
100
AcDbSymbolTableRecord
100
AcDbLayerTableRecord
  2
0603_R_REF_55000_115
 70
0
 62
7
  6
CONTINUOUS
370
-3
390
F
  0
LAYER
  5
29D
100
AcDbSymbolTableRecord
100
AcDbLayerTableRecord
  2
0603_R_REF_55000_116
 70
0
 62
7
  6
CONTINUOUS
370
-3
390
F
  0
LAYER
  5
29E
100
AcDbSymbolTableRecord
100
AcDbLayerTableRecord
  2
0603_R_REF_55000_117
 70
0
 62
7
  6
CONTINUOUS
370
-3
390
F
  0
LAYER
  5
29F
100
AcDbSymbolTableRecord
100
AcDbLayerTableRecord
  2
0603_R_REF_55000_118
 70
0
 62
7
  6
CONTINUOUS
370
-3
390
F
  0
LAYER
  5
2A0
100
AcDbSymbolTableRecord
100
AcDbLayerTableRecord
  2
0603_R_REF_55000_119
 70
0
 62
7
  6
CONTINUOUS
370
-3
390
F
  0
LAYER
  5
2A1
100
AcDbSymbolTableRecord
100
AcDbLayerTableRecord
  2
0603_R_REF_55000_12
 70
0
 62
7
  6
CONTINUOUS
370
-3
390
F
  0
LAYER
  5
2A2
100
AcDbSymbolTableRecord
100
AcDbLayerTableRecord
  2
0603_R_REF_55000_120
 70
0
 62
7
  6
CONTINUOUS
370
-3
390
F
  0
LAYER
  5
2A3
100
AcDbSymbolTableRecord
100
AcDbLayerTableRecord
  2
0603_R_REF_55000_121
 70
0
 62
7
  6
CONTINUOUS
370
-3
390
F
  0
LAYER
  5
2A4
100
AcDbSymbolTableRecord
100
AcDbLayerTableRecord
  2
0603_R_REF_55000_122
 70
0
 62
7
  6
CONTINUOUS
370
-3
390
F
  0
LAYER
  5
2A5
100
AcDbSymbolTableRecord
100
AcDbLayerTableRecord
  2
0603_R_REF_55000_123
 70
0
 62
7
  6
CONTINUOUS
370
-3
390
F
  0
LAYER
  5
2A6
100
AcDbSymbolTableRecord
100
AcDbLayerTableRecord
  2
0603_R_REF_55000_124
 70
0
 62
7
  6
CONTINUOUS
370
-3
390
F
  0
LAYER
  5
2A7
100
AcDbSymbolTableRecord
100
AcDbLayerTableRecord
  2
0603_R_REF_55000_125
 70
0
 62
7
  6
CONTINUOUS
370
-3
390
F
  0
LAYER
  5
2A8
100
AcDbSymbolTableRecord
100
AcDbLayerTableRecord
  2
0603_R_REF_55000_126
 70
0
 62
7
  6
CONTINUOUS
370
-3
390
F
  0
LAYER
  5
2A9
100
AcDbSymbolTableRecord
100
AcDbLayerTableRecord
  2
0603_R_REF_55000_127
 70
0
 62
7
  6
CONTINUOUS
370
-3
390
F
  0
LAYER
  5
2AA
100
AcDbSymbolTableRecord
100
AcDbLayerTableRecord
  2
0603_R_REF_55000_128
 70
0
 62
7
  6
CONTINUOUS
370
-3
390
F
  0
LAYER
  5
2AB
100
AcDbSymbolTableRecord
100
AcDbLayerTableRecord
  2
0603_R_REF_55000_129
 70
0
 62
7
  6
CONTINUOUS
370
-3
390
F
  0
LAYER
  5
2AC
100
AcDbSymbolTableRecord
100
AcDbLayerTableRecord
  2
0603_R_REF_55000_13
 70
0
 62
7
  6
CONTINUOUS
370
-3
390
F
  0
LAYER
  5
2AD
100
AcDbSymbolTableRecord
100
AcDbLayerTableRecord
  2
0603_R_REF_55000_130
 70
0
 62
7
  6
CONTINUOUS
370
-3
390
F
  0
LAYER
  5
2AE
100
AcDbSymbolTableRecord
100
AcDbLayerTableRecord
  2
0603_R_REF_55000_131
 70
0
 62
7
  6
CONTINUOUS
370
-3
390
F
  0
LAYER
  5
2AF
100
AcDbSymbolTableRecord
100
AcDbLayerTableRecord
  2
0603_R_REF_55000_132
 70
0
 62
7
  6
CONTINUOUS
370
-3
390
F
  0
LAYER
  5
2B0
100
AcDbSymbolTableRecord
100
AcDbLayerTableRecord
  2
0603_R_REF_55000_133
 70
0
 62
7
  6
CONTINUOUS
370
-3
390
F
  0
LAYER
  5
2B1
100
AcDbSymbolTableRecord
100
AcDbLayerTableRecord
  2
0603_R_REF_55000_134
 70
0
 62
7
  6
CONTINUOUS
370
-3
390
F
  0
LAYER
  5
2B2
100
AcDbSymbolTableRecord
100
AcDbLayerTableRecord
  2
0603_R_REF_55000_135
 70
0
 62
7
  6
CONTINUOUS
370
-3
390
F
  0
LAYER
  5
2B3
100
AcDbSymbolTableRecord
100
AcDbLayerTableRecord
  2
0603_R_REF_55000_136
 70
0
 62
7
  6
CONTINUOUS
370
-3
390
F
  0
LAYER
  5
2B4
100
AcDbSymbolTableRecord
100
AcDbLayerTableRecord
  2
0603_R_REF_55000_137
 70
0
 62
7
  6
CONTINUOUS
370
-3
390
F
  0
LAYER
  5
2B5
100
AcDbSymbolTableRecord
100
AcDbLayerTableRecord
  2
0603_R_REF_55000_138
 70
0
 62
7
  6
CONTINUOUS
370
-3
390
F
  0
LAYER
  5
2B6
100
AcDbSymbolTableRecord
100
AcDbLayerTableRecord
  2
0603_R_REF_55000_139
 70
0
 62
7
  6
CONTINUOUS
370
-3
390
F
  0
LAYER
  5
2B7
100
AcDbSymbolTableRecord
100
AcDbLayerTableRecord
  2
0603_R_REF_55000_14
 70
0
 62
7
  6
CONTINUOUS
370
-3
390
F
  0
LAYER
  5
2B8
100
AcDbSymbolTableRecord
100
AcDbLayerTableRecord
  2
0603_R_REF_55000_140
 70
0
 62
7
  6
CONTINUOUS
370
-3
390
F
  0
LAYER
  5
2B9
100
AcDbSymbolTableRecord
100
AcDbLayerTableRecord
  2
0603_R_REF_55000_141
 70
0
 62
7
  6
CONTINUOUS
370
-3
390
F
  0
LAYER
  5
2BA
100
AcDbSymbolTableRecord
100
AcDbLayerTableRecord
  2
0603_R_REF_55000_142
 70
0
 62
7
  6
CONTINUOUS
370
-3
390
F
  0
LAYER
  5
2BB
100
AcDbSymbolTableRecord
100
AcDbLayerTableRecord
  2
0603_R_REF_55000_143
 70
0
 62
7
  6
CONTINUOUS
370
-3
390
F
  0
LAYER
  5
2BC
100
AcDbSymbolTableRecord
100
AcDbLayerTableRecord
  2
0603_R_REF_55000_144
 70
0
 62
7
  6
CONTINUOUS
370
-3
390
F
  0
LAYER
  5
2BD
100
AcDbSymbolTableRecord
100
AcDbLayerTableRecord
  2
0603_R_REF_55000_145
 70
0
 62
7
  6
CONTINUOUS
370
-3
390
F
  0
LAYER
  5
2BE
100
AcDbSymbolTableRecord
100
AcDbLayerTableRecord
  2
0603_R_REF_55000_146
 70
0
 62
7
  6
CONTINUOUS
370
-3
390
F
  0
LAYER
  5
2BF
100
AcDbSymbolTableRecord
100
AcDbLayerTableRecord
  2
0603_R_REF_55000_147
 70
0
 62
7
  6
CONTINUOUS
370
-3
390
F
  0
LAYER
  5
2C0
100
AcDbSymbolTableRecord
100
AcDbLayerTableRecord
  2
0603_R_REF_55000_148
 70
0
 62
7
  6
CONTINUOUS
370
-3
390
F
  0
LAYER
  5
2C1
100
AcDbSymbolTableRecord
100
AcDbLayerTableRecord
  2
0603_R_REF_55000_149
 70
0
 62
7
  6
CONTINUOUS
370
-3
390
F
  0
LAYER
  5
2C2
100
AcDbSymbolTableRecord
100
AcDbLayerTableRecord
  2
0603_R_REF_55000_15
 70
0
 62
7
  6
CONTINUOUS
370
-3
390
F
  0
LAYER
  5
2C3
100
AcDbSymbolTableRecord
100
AcDbLayerTableRecord
  2
0603_R_REF_55000_150
 70
0
 62
7
  6
CONTINUOUS
370
-3
390
F
  0
LAYER
  5
2C4
100
AcDbSymbolTableRecord
100
AcDbLayerTableRecord
  2
0603_R_REF_55000_151
 70
0
 62
7
  6
CONTINUOUS
370
-3
390
F
  0
LAYER
  5
2C5
100
AcDbSymbolTableRecord
100
AcDbLayerTableRecord
  2
0603_R_REF_55000_152
 70
0
 62
7
  6
CONTINUOUS
370
-3
390
F
  0
LAYER
  5
2C6
100
AcDbSymbolTableRecord
100
AcDbLayerTableRecord
  2
0603_R_REF_55000_153
 70
0
 62
7
  6
CONTINUOUS
370
-3
390
F
  0
LAYER
  5
2C7
100
AcDbSymbolTableRecord
100
AcDbLayerTableRecord
  2
0603_R_REF_55000_154
 70
0
 62
7
  6
CONTINUOUS
370
-3
390
F
  0
LAYER
  5
2C8
100
AcDbSymbolTableRecord
100
AcDbLayerTableRecord
  2
0603_R_REF_55000_155
 70
0
 62
7
  6
CONTINUOUS
370
-3
390
F
  0
LAYER
  5
2C9
100
AcDbSymbolTableRecord
100
AcDbLayerTableRecord
  2
0603_R_REF_55000_156
 70
0
 62
7
  6
CONTINUOUS
370
-3
390
F
  0
LAYER
  5
2CA
100
AcDbSymbolTableRecord
100
AcDbLayerTableRecord
  2
0603_R_REF_55000_157
 70
0
 62
7
  6
CONTINUOUS
370
-3
390
F
  0
LAYER
  5
2CB
100
AcDbSymbolTableRecord
100
AcDbLayerTableRecord
  2
0603_R_REF_55000_158
 70
0
 62
7
  6
CONTINUOUS
370
-3
390
F
  0
LAYER
  5
2CC
100
AcDbSymbolTableRecord
100
AcDbLayerTableRecord
  2
0603_R_REF_55000_159
 70
0
 62
7
  6
CONTINUOUS
370
-3
390
F
  0
LAYER
  5
2CD
100
AcDbSymbolTableRecord
100
AcDbLayerTableRecord
  2
0603_R_REF_55000_16
 70
0
 62
7
  6
CONTINUOUS
370
-3
390
F
  0
LAYER
  5
2CE
100
AcDbSymbolTableRecord
100
AcDbLayerTableRecord
  2
0603_R_REF_55000_160
 70
0
 62
7
  6
CONTINUOUS
370
-3
390
F
  0
LAYER
  5
2CF
100
AcDbSymbolTableRecord
100
AcDbLayerTableRecord
  2
0603_R_REF_55000_161
 70
0
 62
7
  6
CONTINUOUS
370
-3
390
F
  0
LAYER
  5
2D0
100
AcDbSymbolTableRecord
100
AcDbLayerTableRecord
  2
0603_R_REF_55000_162
 70
0
 62
7
  6
CONTINUOUS
370
-3
390
F
  0
LAYER
  5
2D1
100
AcDbSymbolTableRecord
100
AcDbLayerTableRecord
  2
0603_R_REF_55000_163
 70
0
 62
7
  6
CONTINUOUS
370
-3
390
F
  0
LAYER
  5
2D2
100
AcDbSymbolTableRecord
100
AcDbLayerTableRecord
  2
0603_R_REF_55000_164
 70
0
 62
7
  6
CONTINUOUS
370
-3
390
F
  0
LAYER
  5
2D3
100
AcDbSymbolTableRecord
100
AcDbLayerTableRecord
  2
0603_R_REF_55000_165
 70
0
 62
7
  6
CONTINUOUS
370
-3
390
F
  0
LAYER
  5
2D4
100
AcDbSymbolTableRecord
100
AcDbLayerTableRecord
  2
0603_R_REF_55000_166
 70
0
 62
7
  6
CONTINUOUS
370
-3
390
F
  0
LAYER
  5
2D5
100
AcDbSymbolTableRecord
100
AcDbLayerTableRecord
  2
0603_R_REF_55000_167
 70
0
 62
7
  6
CONTINUOUS
370
-3
390
F
  0
LAYER
  5
2D6
100
AcDbSymbolTableRecord
100
AcDbLayerTableRecord
  2
0603_R_REF_55000_168
 70
0
 62
7
  6
CONTINUOUS
370
-3
390
F
  0
LAYER
  5
2D7
100
AcDbSymbolTableRecord
100
AcDbLayerTableRecord
  2
0603_R_REF_55000_169
 70
0
 62
7
  6
CONTINUOUS
370
-3
390
F
  0
LAYER
  5
2D8
100
AcDbSymbolTableRecord
100
AcDbLayerTableRecord
  2
0603_R_REF_55000_17
 70
0
 62
7
  6
CONTINUOUS
370
-3
390
F
  0
LAYER
  5
2D9
100
AcDbSymbolTableRecord
100
AcDbLayerTableRecord
  2
0603_R_REF_55000_170
 70
0
 62
7
  6
CONTINUOUS
370
-3
390
F
  0
LAYER
  5
2DA
100
AcDbSymbolTableRecord
100
AcDbLayerTableRecord
  2
0603_R_REF_55000_171
 70
0
 62
7
  6
CONTINUOUS
370
-3
390
F
  0
LAYER
  5
2DB
100
AcDbSymbolTableRecord
100
AcDbLayerTableRecord
  2
0603_R_REF_55000_172
 70
0
 62
7
  6
CONTINUOUS
370
-3
390
F
  0
LAYER
  5
2DC
100
AcDbSymbolTableRecord
100
AcDbLayerTableRecord
  2
0603_R_REF_55000_173
 70
0
 62
7
  6
CONTINUOUS
370
-3
390
F
  0
LAYER
  5
2DD
100
AcDbSymbolTableRecord
100
AcDbLayerTableRecord
  2
0603_R_REF_55000_174
 70
0
 62
7
  6
CONTINUOUS
370
-3
390
F
  0
LAYER
  5
2DE
100
AcDbSymbolTableRecord
100
AcDbLayerTableRecord
  2
0603_R_REF_55000_175
 70
0
 62
7
  6
CONTINUOUS
370
-3
390
F
  0
LAYER
  5
2DF
100
AcDbSymbolTableRecord
100
AcDbLayerTableRecord
  2
0603_R_REF_55000_176
 70
0
 62
7
  6
CONTINUOUS
370
-3
390
F
  0
LAYER
  5
2E0
100
AcDbSymbolTableRecord
100
AcDbLayerTableRecord
  2
0603_R_REF_55000_177
 70
0
 62
7
  6
CONTINUOUS
370
-3
390
F
  0
LAYER
  5
2E1
100
AcDbSymbolTableRecord
100
AcDbLayerTableRecord
  2
0603_R_REF_55000_178
 70
0
 62
7
  6
CONTINUOUS
370
-3
390
F
  0
LAYER
  5
2E2
100
AcDbSymbolTableRecord
100
AcDbLayerTableRecord
  2
0603_R_REF_55000_179
 70
0
 62
7
  6
CONTINUOUS
370
-3
390
F
  0
LAYER
  5
2E3
100
AcDbSymbolTableRecord
100
AcDbLayerTableRecord
  2
0603_R_REF_55000_18
 70
0
 62
7
  6
CONTINUOUS
370
-3
390
F
  0
LAYER
  5
2E4
100
AcDbSymbolTableRecord
100
AcDbLayerTableRecord
  2
0603_R_REF_55000_19
 70
0
 62
7
  6
CONTINUOUS
370
-3
390
F
  0
LAYER
  5
2E5
100
AcDbSymbolTableRecord
100
AcDbLayerTableRecord
  2
0603_R_REF_55000_2
 70
0
 62
7
  6
CONTINUOUS
370
-3
390
F
  0
LAYER
  5
2E6
100
AcDbSymbolTableRecord
100
AcDbLayerTableRecord
  2
0603_R_REF_55000_20
 70
0
 62
7
  6
CONTINUOUS
370
-3
390
F
  0
LAYER
  5
2E7
100
AcDbSymbolTableRecord
100
AcDbLayerTableRecord
  2
0603_R_REF_55000_21
 70
0
 62
7
  6
CONTINUOUS
370
-3
390
F
  0
LAYER
  5
2E8
100
AcDbSymbolTableRecord
100
AcDbLayerTableRecord
  2
0603_R_REF_55000_22
 70
0
 62
7
  6
CONTINUOUS
370
-3
390
F
  0
LAYER
  5
2E9
100
AcDbSymbolTableRecord
100
AcDbLayerTableRecord
  2
0603_R_REF_55000_23
 70
0
 62
7
  6
CONTINUOUS
370
-3
390
F
  0
LAYER
  5
2EA
100
AcDbSymbolTableRecord
100
AcDbLayerTableRecord
  2
0603_R_REF_55000_24
 70
0
 62
7
  6
CONTINUOUS
370
-3
390
F
  0
LAYER
  5
2EB
100
AcDbSymbolTableRecord
100
AcDbLayerTableRecord
  2
0603_R_REF_55000_25
 70
0
 62
7
  6
CONTINUOUS
370
-3
390
F
  0
LAYER
  5
2EC
100
AcDbSymbolTableRecord
100
AcDbLayerTableRecord
  2
0603_R_REF_55000_26
 70
0
 62
7
  6
CONTINUOUS
370
-3
390
F
  0
LAYER
  5
2ED
100
AcDbSymbolTableRecord
100
AcDbLayerTableRecord
  2
0603_R_REF_55000_27
 70
0
 62
7
  6
CONTINUOUS
370
-3
390
F
  0
LAYER
  5
2EE
100
AcDbSymbolTableRecord
100
AcDbLayerTableRecord
  2
0603_R_REF_55000_28
 70
0
 62
7
  6
CONTINUOUS
370
-3
390
F
  0
LAYER
  5
2EF
100
AcDbSymbolTableRecord
100
AcDbLayerTableRecord
  2
0603_R_REF_55000_29
 70
0
 62
7
  6
CONTINUOUS
370
-3
390
F
  0
LAYER
  5
2F0
100
AcDbSymbolTableRecord
100
AcDbLayerTableRecord
  2
0603_R_REF_55000_3
 70
0
 62
7
  6
CONTINUOUS
370
-3
390
F
  0
LAYER
  5
2F1
100
AcDbSymbolTableRecord
100
AcDbLayerTableRecord
  2
0603_R_REF_55000_30
 70
0
 62
7
  6
CONTINUOUS
370
-3
390
F
  0
LAYER
  5
2F2
100
AcDbSymbolTableRecord
100
AcDbLayerTableRecord
  2
0603_R_REF_55000_31
 70
0
 62
7
  6
CONTINUOUS
370
-3
390
F
  0
LAYER
  5
2F3
100
AcDbSymbolTableRecord
100
AcDbLayerTableRecord
  2
0603_R_REF_55000_32
 70
0
 62
7
  6
CONTINUOUS
370
-3
390
F
  0
LAYER
  5
2F4
100
AcDbSymbolTableRecord
100
AcDbLayerTableRecord
  2
0603_R_REF_55000_33
 70
0
 62
7
  6
CONTINUOUS
370
-3
390
F
  0
LAYER
  5
2F5
100
AcDbSymbolTableRecord
100
AcDbLayerTableRecord
  2
0603_R_REF_55000_34
 70
0
 62
7
  6
CONTINUOUS
370
-3
390
F
  0
LAYER
  5
2F6
100
AcDbSymbolTableRecord
100
AcDbLayerTableRecord
  2
0603_R_REF_55000_35
 70
0
 62
7
  6
CONTINUOUS
370
-3
390
F
  0
LAYER
  5
2F7
100
AcDbSymbolTableRecord
100
AcDbLayerTableRecord
  2
0603_R_REF_55000_36
 70
0
 62
7
  6
CONTINUOUS
370
-3
390
F
  0
LAYER
  5
2F8
100
AcDbSymbolTableRecord
100
AcDbLayerTableRecord
  2
0603_R_REF_55000_37
 70
0
 62
7
  6
CONTINUOUS
370
-3
390
F
  0
LAYER
  5
2F9
100
AcDbSymbolTableRecord
100
AcDbLayerTableRecord
  2
0603_R_REF_55000_38
 70
0
 62
7
  6
CONTINUOUS
370
-3
390
F
  0
LAYER
  5
2FA
100
AcDbSymbolTableRecord
100
AcDbLayerTableRecord
  2
0603_R_REF_55000_39
 70
0
 62
7
  6
CONTINUOUS
370
-3
390
F
  0
LAYER
  5
2FB
100
AcDbSymbolTableRecord
100
AcDbLayerTableRecord
  2
0603_R_REF_55000_4
 70
0
 62
7
  6
CONTINUOUS
370
-3
390
F
  0
LAYER
  5
2FC
100
AcDbSymbolTableRecord
100
AcDbLayerTableRecord
  2
0603_R_REF_55000_40
 70
0
 62
7
  6
CONTINUOUS
370
-3
390
F
  0
LAYER
  5
2FD
100
AcDbSymbolTableRecord
100
AcDbLayerTableRecord
  2
0603_R_REF_55000_41
 70
0
 62
7
  6
CONTINUOUS
370
-3
390
F
  0
LAYER
  5
2FE
100
AcDbSymbolTableRecord
100
AcDbLayerTableRecord
  2
0603_R_REF_55000_42
 70
0
 62
7
  6
CONTINUOUS
370
-3
390
F
  0
LAYER
  5
2FF
100
AcDbSymbolTableRecord
100
AcDbLayerTableRecord
  2
0603_R_REF_55000_43
 70
0
 62
7
  6
CONTINUOUS
370
-3
390
F
  0
LAYER
  5
300
100
AcDbSymbolTableRecord
100
AcDbLayerTableRecord
  2
0603_R_REF_55000_44
 70
0
 62
7
  6
CONTINUOUS
370
-3
390
F
  0
LAYER
  5
301
100
AcDbSymbolTableRecord
100
AcDbLayerTableRecord
  2
0603_R_REF_55000_45
 70
0
 62
7
  6
CONTINUOUS
370
-3
390
F
  0
LAYER
  5
302
100
AcDbSymbolTableRecord
100
AcDbLayerTableRecord
  2
0603_R_REF_55000_46
 70
0
 62
7
  6
CONTINUOUS
370
-3
390
F
  0
LAYER
  5
303
100
AcDbSymbolTableRecord
100
AcDbLayerTableRecord
  2
0603_R_REF_55000_47
 70
0
 62
7
  6
CONTINUOUS
370
-3
390
F
  0
LAYER
  5
304
100
AcDbSymbolTableRecord
100
AcDbLayerTableRecord
  2
0603_R_REF_55000_48
 70
0
 62
7
  6
CONTINUOUS
370
-3
390
F
  0
LAYER
  5
305
100
AcDbSymbolTableRecord
100
AcDbLayerTableRecord
  2
0603_R_REF_55000_49
 70
0
 62
7
  6
CONTINUOUS
370
-3
390
F
  0
LAYER
  5
306
100
AcDbSymbolTableRecord
100
AcDbLayerTableRecord
  2
0603_R_REF_55000_5
 70
0
 62
7
  6
CONTINUOUS
370
-3
390
F
  0
LAYER
  5
307
100
AcDbSymbolTableRecord
100
AcDbLayerTableRecord
  2
0603_R_REF_55000_50
 70
0
 62
7
  6
CONTINUOUS
370
-3
390
F
  0
LAYER
  5
308
100
AcDbSymbolTableRecord
100
AcDbLayerTableRecord
  2
0603_R_REF_55000_51
 70
0
 62
7
  6
CONTINUOUS
370
-3
390
F
  0
LAYER
  5
309
100
AcDbSymbolTableRecord
100
AcDbLayerTableRecord
  2
0603_R_REF_55000_52
 70
0
 62
7
  6
CONTINUOUS
370
-3
390
F
  0
LAYER
  5
30A
100
AcDbSymbolTableRecord
100
AcDbLayerTableRecord
  2
0603_R_REF_55000_53
 70
0
 62
7
  6
CONTINUOUS
370
-3
390
F
  0
LAYER
  5
30B
100
AcDbSymbolTableRecord
100
AcDbLayerTableRecord
  2
0603_R_REF_55000_54
 70
0
 62
7
  6
CONTINUOUS
370
-3
390
F
  0
LAYER
  5
30C
100
AcDbSymbolTableRecord
100
AcDbLayerTableRecord
  2
0603_R_REF_55000_55
 70
0
 62
7
  6
CONTINUOUS
370
-3
390
F
  0
LAYER
  5
30D
100
AcDbSymbolTableRecord
100
AcDbLayerTableRecord
  2
0603_R_REF_55000_56
 70
0
 62
7
  6
CONTINUOUS
370
-3
390
F
  0
LAYER
  5
30E
100
AcDbSymbolTableRecord
100
AcDbLayerTableRecord
  2
0603_R_REF_55000_57
 70
0
 62
7
  6
CONTINUOUS
370
-3
390
F
  0
LAYER
  5
30F
100
AcDbSymbolTableRecord
100
AcDbLayerTableRecord
  2
0603_R_REF_55000_58
 70
0
 62
7
  6
CONTINUOUS
370
-3
390
F
  0
LAYER
  5
310
100
AcDbSymbolTableRecord
100
AcDbLayerTableRecord
  2
0603_R_REF_55000_59
 70
0
 62
7
  6
CONTINUOUS
370
-3
390
F
  0
LAYER
  5
311
100
AcDbSymbolTableRecord
100
AcDbLayerTableRecord
  2
0603_R_REF_55000_6
 70
0
 62
7
  6
CONTINUOUS
370
-3
390
F
  0
LAYER
  5
312
100
AcDbSymbolTableRecord
100
AcDbLayerTableRecord
  2
0603_R_REF_55000_60
 70
0
 62
7
  6
CONTINUOUS
370
-3
390
F
  0
LAYER
  5
313
100
AcDbSymbolTableRecord
100
AcDbLayerTableRecord
  2
0603_R_REF_55000_61
 70
0
 62
7
  6
CONTINUOUS
370
-3
390
F
  0
LAYER
  5
314
100
AcDbSymbolTableRecord
100
AcDbLayerTableRecord
  2
0603_R_REF_55000_62
 70
0
 62
7
  6
CONTINUOUS
370
-3
390
F
  0
LAYER
  5
315
100
AcDbSymbolTableRecord
100
AcDbLayerTableRecord
  2
0603_R_REF_55000_63
 70
0
 62
7
  6
CONTINUOUS
370
-3
390
F
  0
LAYER
  5
316
100
AcDbSymbolTableRecord
100
AcDbLayerTableRecord
  2
0603_R_REF_55000_64
 70
0
 62
7
  6
CONTINUOUS
370
-3
390
F
  0
LAYER
  5
317
100
AcDbSymbolTableRecord
100
AcDbLayerTableRecord
  2
0603_R_REF_55000_65
 70
0
 62
7
  6
CONTINUOUS
370
-3
390
F
  0
LAYER
  5
318
100
AcDbSymbolTableRecord
100
AcDbLayerTableRecord
  2
0603_R_REF_55000_66
 70
0
 62
7
  6
CONTINUOUS
370
-3
390
F
  0
LAYER
  5
319
100
AcDbSymbolTableRecord
100
AcDbLayerTableRecord
  2
0603_R_REF_55000_67
 70
0
 62
7
  6
CONTINUOUS
370
-3
390
F
  0
LAYER
  5
31A
100
AcDbSymbolTableRecord
100
AcDbLayerTableRecord
  2
0603_R_REF_55000_68
 70
0
 62
7
  6
CONTINUOUS
370
-3
390
F
  0
LAYER
  5
31B
100
AcDbSymbolTableRecord
100
AcDbLayerTableRecord
  2
0603_R_REF_55000_69
 70
0
 62
7
  6
CONTINUOUS
370
-3
390
F
  0
LAYER
  5
31C
100
AcDbSymbolTableRecord
100
AcDbLayerTableRecord
  2
0603_R_REF_55000_7
 70
0
 62
7
  6
CONTINUOUS
370
-3
390
F
  0
LAYER
  5
31D
100
AcDbSymbolTableRecord
100
AcDbLayerTableRecord
  2
0603_R_REF_55000_70
 70
0
 62
7
  6
CONTINUOUS
370
-3
390
F
  0
LAYER
  5
31E
100
AcDbSymbolTableRecord
100
AcDbLayerTableRecord
  2
0603_R_REF_55000_71
 70
0
 62
7
  6
CONTINUOUS
370
-3
390
F
  0
LAYER
  5
31F
100
AcDbSymbolTableRecord
100
AcDbLayerTableRecord
  2
0603_R_REF_55000_72
 70
0
 62
7
  6
CONTINUOUS
370
-3
390
F
  0
LAYER
  5
320
100
AcDbSymbolTableRecord
100
AcDbLayerTableRecord
  2
0603_R_REF_55000_73
 70
0
 62
7
  6
CONTINUOUS
370
-3
390
F
  0
LAYER
  5
321
100
AcDbSymbolTableRecord
100
AcDbLayerTableRecord
  2
0603_R_REF_55000_74
 70
0
 62
7
  6
CONTINUOUS
370
-3
390
F
  0
LAYER
  5
322
100
AcDbSymbolTableRecord
100
AcDbLayerTableRecord
  2
0603_R_REF_55000_75
 70
0
 62
7
  6
CONTINUOUS
370
-3
390
F
  0
LAYER
  5
323
100
AcDbSymbolTableRecord
100
AcDbLayerTableRecord
  2
0603_R_REF_55000_76
 70
0
 62
7
  6
CONTINUOUS
370
-3
390
F
  0
LAYER
  5
324
100
AcDbSymbolTableRecord
100
AcDbLayerTableRecord
  2
0603_R_REF_55000_77
 70
0
 62
7
  6
CONTINUOUS
370
-3
390
F
  0
LAYER
  5
325
100
AcDbSymbolTableRecord
100
AcDbLayerTableRecord
  2
0603_R_REF_55000_78
 70
0
 62
7
  6
CONTINUOUS
370
-3
390
F
  0
LAYER
  5
326
100
AcDbSymbolTableRecord
100
AcDbLayerTableRecord
  2
0603_R_REF_55000_79
 70
0
 62
7
  6
CONTINUOUS
370
-3
390
F
  0
LAYER
  5
327
100
AcDbSymbolTableRecord
100
AcDbLayerTableRecord
  2
0603_R_REF_55000_8
 70
0
 62
7
  6
CONTINUOUS
370
-3
390
F
  0
LAYER
  5
328
100
AcDbSymbolTableRecord
100
AcDbLayerTableRecord
  2
0603_R_REF_55000_80
 70
0
 62
7
  6
CONTINUOUS
370
-3
390
F
  0
LAYER
  5
329
100
AcDbSymbolTableRecord
100
AcDbLayerTableRecord
  2
0603_R_REF_55000_81
 70
0
 62
7
  6
CONTINUOUS
370
-3
390
F
  0
LAYER
  5
32A
100
AcDbSymbolTableRecord
100
AcDbLayerTableRecord
  2
0603_R_REF_55000_82
 70
0
 62
7
  6
CONTINUOUS
370
-3
390
F
  0
LAYER
  5
32B
100
AcDbSymbolTableRecord
100
AcDbLayerTableRecord
  2
0603_R_REF_55000_83
 70
0
 62
7
  6
CONTINUOUS
370
-3
390
F
  0
LAYER
  5
32C
100
AcDbSymbolTableRecord
100
AcDbLayerTableRecord
  2
0603_R_REF_55000_84
 70
0
 62
7
  6
CONTINUOUS
370
-3
390
F
  0
LAYER
  5
32D
100
AcDbSymbolTableRecord
100
AcDbLayerTableRecord
  2
0603_R_REF_55000_85
 70
0
 62
7
  6
CONTINUOUS
370
-3
390
F
  0
LAYER
  5
32E
100
AcDbSymbolTableRecord
100
AcDbLayerTableRecord
  2
0603_R_REF_55000_86
 70
0
 62
7
  6
CONTINUOUS
370
-3
390
F
  0
LAYER
  5
32F
100
AcDbSymbolTableRecord
100
AcDbLayerTableRecord
  2
0603_R_REF_55000_87
 70
0
 62
7
  6
CONTINUOUS
370
-3
390
F
  0
LAYER
  5
330
100
AcDbSymbolTableRecord
100
AcDbLayerTableRecord
  2
0603_R_REF_55000_88
 70
0
 62
7
  6
CONTINUOUS
370
-3
390
F
  0
LAYER
  5
331
100
AcDbSymbolTableRecord
100
AcDbLayerTableRecord
  2
0603_R_REF_55000_89
 70
0
 62
7
  6
CONTINUOUS
370
-3
390
F
  0
LAYER
  5
332
100
AcDbSymbolTableRecord
100
AcDbLayerTableRecord
  2
0603_R_REF_55000_9
 70
0
 62
7
  6
CONTINUOUS
370
-3
390
F
  0
LAYER
  5
333
100
AcDbSymbolTableRecord
100
AcDbLayerTableRecord
  2
0603_R_REF_55000_90
 70
0
 62
7
  6
CONTINUOUS
370
-3
390
F
  0
LAYER
  5
334
100
AcDbSymbolTableRecord
100
AcDbLayerTableRecord
  2
0603_R_REF_55000_91
 70
0
 62
7
  6
CONTINUOUS
370
-3
390
F
  0
LAYER
  5
335
100
AcDbSymbolTableRecord
100
AcDbLayerTableRecord
  2
0603_R_REF_55000_92
 70
0
 62
7
  6
CONTINUOUS
370
-3
390
F
  0
LAYER
  5
336
100
AcDbSymbolTableRecord
100
AcDbLayerTableRecord
  2
0603_R_REF_55000_93
 70
0
 62
7
  6
CONTINUOUS
370
-3
390
F
  0
LAYER
  5
337
100
AcDbSymbolTableRecord
100
AcDbLayerTableRecord
  2
0603_R_REF_55000_94
 70
0
 62
7
  6
CONTINUOUS
370
-3
390
F
  0
LAYER
  5
338
100
AcDbSymbolTableRecord
100
AcDbLayerTableRecord
  2
0603_R_REF_55000_95
 70
0
 62
7
  6
CONTINUOUS
370
-3
390
F
  0
LAYER
  5
339
100
AcDbSymbolTableRecord
100
AcDbLayerTableRecord
  2
0603_R_REF_55000_96
 70
0
 62
7
  6
CONTINUOUS
370
-3
390
F
  0
LAYER
  5
33A
100
AcDbSymbolTableRecord
100
AcDbLayerTableRecord
  2
0603_R_REF_55000_97
 70
0
 62
7
  6
CONTINUOUS
370
-3
390
F
  0
LAYER
  5
33B
100
AcDbSymbolTableRecord
100
AcDbLayerTableRecord
  2
0603_R_REF_55000_98
 70
0
 62
7
  6
CONTINUOUS
370
-3
390
F
  0
LAYER
  5
33C
100
AcDbSymbolTableRecord
100
AcDbLayerTableRecord
  2
0603_R_REF_55000_99
 70
0
 62
7
  6
CONTINUOUS
370
-3
390
F
  0
LAYER
  5
33D
100
AcDbSymbolTableRecord
100
AcDbLayerTableRecord
  2
0612_ARRAY_C_YAGEO_130000
 70
0
 62
7
  6
CONTINUOUS
370
-3
390
F
  0
LAYER
  5
33E
100
AcDbSymbolTableRecord
100
AcDbLayerTableRecord
  2
0612_ARRAY_C_YAGEO_130000_1
 70
0
 62
7
  6
CONTINUOUS
370
-3
390
F
  0
LAYER
  5
33F
100
AcDbSymbolTableRecord
100
AcDbLayerTableRecord
  2
06___PRT_ALL_SURFS
 70
0
 62
7
  6
CONTINUOUS
370
-3
390
F
  0
LAYER
  5
340
100
AcDbSymbolTableRecord
100
AcDbLayerTableRecord
  2
06___PRT_ALL_SURFS_1
 70
0
 62
7
  6
CONTINUOUS
370
-3
390
F
  0
LAYER
  5
341
100
AcDbSymbolTableRecord
100
AcDbLayerTableRecord
  2
06___PRT_ALL_SURFS_10
 70
0
 62
7
  6
CONTINUOUS
370
-3
390
F
  0
LAYER
  5
342
100
AcDbSymbolTableRecord
100
AcDbLayerTableRecord
  2
06___PRT_ALL_SURFS_11
 70
0
 62
7
  6
CONTINUOUS
370
-3
390
F
  0
LAYER
  5
343
100
AcDbSymbolTableRecord
100
AcDbLayerTableRecord
  2
06___PRT_ALL_SURFS_13
 70
0
 62
7
  6
CONTINUOUS
370
-3
390
F
  0
LAYER
  5
344
100
AcDbSymbolTableRecord
100
AcDbLayerTableRecord
  2
06___PRT_ALL_SURFS_16
 70
0
 62
7
  6
CONTINUOUS
370
-3
390
F
  0
LAYER
  5
345
100
AcDbSymbolTableRecord
100
AcDbLayerTableRecord
  2
06___PRT_ALL_SURFS_17
 70
0
 62
7
  6
CONTINUOUS
370
-3
390
F
  0
LAYER
  5
346
100
AcDbSymbolTableRecord
100
AcDbLayerTableRecord
  2
06___PRT_ALL_SURFS_2
 70
0
 62
7
  6
CONTINUOUS
370
-3
390
F
  0
LAYER
  5
347
100
AcDbSymbolTableRecord
100
AcDbLayerTableRecord
  2
06___PRT_ALL_SURFS_20
 70
0
 62
7
  6
CONTINUOUS
370
-3
390
F
  0
LAYER
  5
348
100
AcDbSymbolTableRecord
100
AcDbLayerTableRecord
  2
06___PRT_ALL_SURFS_23
 70
0
 62
7
  6
CONTINUOUS
370
-3
390
F
  0
LAYER
  5
349
100
AcDbSymbolTableRecord
100
AcDbLayerTableRecord
  2
06___PRT_ALL_SURFS_27
 70
0
 62
7
  6
CONTINUOUS
370
-3
390
F
  0
LAYER
  5
34A
100
AcDbSymbolTableRecord
100
AcDbLayerTableRecord
  2
06___PRT_ALL_SURFS_29
 70
0
 62
7
  6
CONTINUOUS
370
-3
390
F
  0
LAYER
  5
34B
100
AcDbSymbolTableRecord
100
AcDbLayerTableRecord
  2
06___PRT_ALL_SURFS_3
 70
0
 62
7
  6
CONTINUOUS
370
-3
390
F
  0
LAYER
  5
34C
100
AcDbSymbolTableRecord
100
AcDbLayerTableRecord
  2
06___PRT_ALL_SURFS_31
 70
0
 62
7
  6
CONTINUOUS
370
-3
390
F
  0
LAYER
  5
34D
100
AcDbSymbolTableRecord
100
AcDbLayerTableRecord
  2
06___PRT_ALL_SURFS_32
 70
0
 62
7
  6
CONTINUOUS
370
-3
390
F
  0
LAYER
  5
34E
100
AcDbSymbolTableRecord
100
AcDbLayerTableRecord
  2
06___PRT_ALL_SURFS_33
 70
0
 62
7
  6
CONTINUOUS
370
-3
390
F
  0
LAYER
  5
34F
100
AcDbSymbolTableRecord
100
AcDbLayerTableRecord
  2
06___PRT_ALL_SURFS_37
 70
0
 62
7
  6
CONTINUOUS
370
-3
390
F
  0
LAYER
  5
350
100
AcDbSymbolTableRecord
100
AcDbLayerTableRecord
  2
06___PRT_ALL_SURFS_47
 70
0
 62
7
  6
CONTINUOUS
370
-3
390
F
  0
LAYER
  5
351
100
AcDbSymbolTableRecord
100
AcDbLayerTableRecord
  2
06___PRT_ALL_SURFS_5
 70
0
 62
7
  6
CONTINUOUS
370
-3
390
F
  0
LAYER
  5
352
100
AcDbSymbolTableRecord
100
AcDbLayerTableRecord
  2
06___PRT_ALL_SURFS_51
 70
0
 62
7
  6
CONTINUOUS
370
-3
390
F
  0
LAYER
  5
353
100
AcDbSymbolTableRecord
100
AcDbLayerTableRecord
  2
06___PRT_ALL_SURFS_52
 70
0
 62
7
  6
CONTINUOUS
370
-3
390
F
  0
LAYER
  5
354
100
AcDbSymbolTableRecord
100
AcDbLayerTableRecord
  2
06___PRT_ALL_SURFS_55
 70
0
 62
7
  6
CONTINUOUS
370
-3
390
F
  0
LAYER
  5
355
100
AcDbSymbolTableRecord
100
AcDbLayerTableRecord
  2
06___PRT_ALL_SURFS_57
 70
0
 62
7
  6
CONTINUOUS
370
-3
390
F
  0
LAYER
  5
356
100
AcDbSymbolTableRecord
100
AcDbLayerTableRecord
  2
06___PRT_ALL_SURFS_58
 70
0
 62
7
  6
CONTINUOUS
370
-3
390
F
  0
LAYER
  5
357
100
AcDbSymbolTableRecord
100
AcDbLayerTableRecord
  2
0805_C_REF_145000
 70
0
 62
7
  6
CONTINUOUS
370
-3
390
F
  0
LAYER
  5
358
100
AcDbSymbolTableRecord
100
AcDbLayerTableRecord
  2
0805_C_REF_145000_1
 70
0
 62
7
  6
CONTINUOUS
370
-3
390
F
  0
LAYER
  5
359
100
AcDbSymbolTableRecord
100
AcDbLayerTableRecord
  2
0805_C_REF_145000_2
 70
0
 62
7
  6
CONTINUOUS
370
-3
390
F
  0
LAYER
  5
35A
100
AcDbSymbolTableRecord
100
AcDbLayerTableRecord
  2
0805_C_REF_145000_3
 70
0
 62
7
  6
CONTINUOUS
370
-3
390
F
  0
LAYER
  5
35B
100
AcDbSymbolTableRecord
100
AcDbLayerTableRecord
  2
0805_C_REF_145000_4
 70
0
 62
7
  6
CONTINUOUS
370
-3
390
F
  0
LAYER
  5
35C
100
AcDbSymbolTableRecord
100
AcDbLayerTableRecord
  2
0805_C_REF_145000_5
 70
0
 62
7
  6
CONTINUOUS
370
-3
390
F
  0
LAYER
  5
35D
100
AcDbSymbolTableRecord
100
AcDbLayerTableRecord
  2
0805_R_REF_60000
 70
0
 62
7
  6
CONTINUOUS
370
-3
390
F
  0
LAYER
  5
35E
100
AcDbSymbolTableRecord
100
AcDbLayerTableRecord
  2
0805_R_REF_60000_1
 70
0
 62
7
  6
CONTINUOUS
370
-3
390
F
  0
LAYER
  5
35F
100
AcDbSymbolTableRecord
100
AcDbLayerTableRecord
  2
0805_R_REF_60000_2
 70
0
 62
7
  6
CONTINUOUS
370
-3
390
F
  0
LAYER
  5
360
100
AcDbSymbolTableRecord
100
AcDbLayerTableRecord
  2
0805_R_REF_60000_3
 70
0
 62
7
  6
CONTINUOUS
370
-3
390
F
  0
LAYER
  5
361
100
AcDbSymbolTableRecord
100
AcDbLayerTableRecord
  2
0805_R_REF_60000_4
 70
0
 62
7
  6
CONTINUOUS
370
-3
390
F
  0
LAYER
  5
362
100
AcDbSymbolTableRecord
100
AcDbLayerTableRecord
  2
1206_C_REF_180000
 70
0
 62
7
  6
CONTINUOUS
370
-3
390
F
  0
LAYER
  5
363
100
AcDbSymbolTableRecord
100
AcDbLayerTableRecord
  2
1206_C_REF_180000_1
 70
0
 62
7
  6
CONTINUOUS
370
-3
390
F
  0
LAYER
  5
364
100
AcDbSymbolTableRecord
100
AcDbLayerTableRecord
  2
1206_C_REF_180000_2
 70
0
 62
7
  6
CONTINUOUS
370
-3
390
F
  0
LAYER
  5
365
100
AcDbSymbolTableRecord
100
AcDbLayerTableRecord
  2
1206_C_REF_180000_3
 70
0
 62
7
  6
CONTINUOUS
370
-3
390
F
  0
LAYER
  5
366
100
AcDbSymbolTableRecord
100
AcDbLayerTableRecord
  2
1206_C_REF_180000_4
 70
0
 62
7
  6
CONTINUOUS
370
-3
390
F
  0
LAYER
  5
367
100
AcDbSymbolTableRecord
100
AcDbLayerTableRecord
  2
1206_C_REF_180000_5
 70
0
 62
7
  6
CONTINUOUS
370
-3
390
F
  0
LAYER
  5
368
100
AcDbSymbolTableRecord
100
AcDbLayerTableRecord
  2
1206_C_REF_180000_6
 70
0
 62
7
  6
CONTINUOUS
370
-3
390
F
  0
LAYER
  5
369
100
AcDbSymbolTableRecord
100
AcDbLayerTableRecord
  2
1206_C_REF_180000_7
 70
0
 62
7
  6
CONTINUOUS
370
-3
390
F
  0
LAYER
  5
36A
100
AcDbSymbolTableRecord
100
AcDbLayerTableRecord
  2
1206_C_REF_180000_8
 70
0
 62
7
  6
CONTINUOUS
370
-3
390
F
  0
LAYER
  5
36B
100
AcDbSymbolTableRecord
100
AcDbLayerTableRecord
  2
1206_C_REF_180000_9
 70
0
 62
7
  6
CONTINUOUS
370
-3
390
F
  0
LAYER
  5
36C
100
AcDbSymbolTableRecord
100
AcDbLayerTableRecord
  2
1206_R_REF_65000
 70
0
 62
7
  6
CONTINUOUS
370
-3
390
F
  0
LAYER
  5
36D
100
AcDbSymbolTableRecord
100
AcDbLayerTableRecord
  2
1206_R_REF_65000_1
 70
0
 62
7
  6
CONTINUOUS
370
-3
390
F
  0
LAYER
  5
36E
100
AcDbSymbolTableRecord
100
AcDbLayerTableRecord
  2
1206_R_REF_65000_2
 70
0
 62
7
  6
CONTINUOUS
370
-3
390
F
  0
LAYER
  5
36F
100
AcDbSymbolTableRecord
100
AcDbLayerTableRecord
  2
1206_R_REF_65000_3
 70
0
 62
7
  6
CONTINUOUS
370
-3
390
F
  0
LAYER
  5
370
100
AcDbSymbolTableRecord
100
AcDbLayerTableRecord
  2
1206_R_REF_65000_4
 70
0
 62
7
  6
CONTINUOUS
370
-3
390
F
  0
LAYER
  5
371
100
AcDbSymbolTableRecord
100
AcDbLayerTableRecord
  2
1210_C_REF_250000
 70
0
 62
7
  6
CONTINUOUS
370
-3
390
F
  0
LAYER
  5
372
100
AcDbSymbolTableRecord
100
AcDbLayerTableRecord
  2
1210_C_REF_250000_1
 70
0
 62
7
  6
CONTINUOUS
370
-3
390
F
  0
LAYER
  5
373
100
AcDbSymbolTableRecord
100
AcDbLayerTableRecord
  2
439000999B0
 70
0
 62
7
  6
CONTINUOUS
370
-3
390
F
  0
LAYER
  5
374
100
AcDbSymbolTableRecord
100
AcDbLayerTableRecord
  2
43900999A0
 70
0
 62
7
  6
CONTINUOUS
370
-3
390
F
  0
LAYER
  5
375
100
AcDbSymbolTableRecord
100
AcDbLayerTableRecord
  2
43900999A0_PROVA
 70
0
 62
7
  6
CONTINUOUS
370
-3
390
F
  0
LAYER
  5
376
100
AcDbSymbolTableRecord
100
AcDbLayerTableRecord
  2
4390099A0
 70
0
 62
7
  6
CONTINUOUS
370
-3
390
F
  0
LAYER
  5
377
100
AcDbSymbolTableRecord
100
AcDbLayerTableRecord
  2
ARROTONDAMENTI
 70
0
 62
7
  6
CONTINUOUS
370
-3
390
F
  0
LAYER
  5
378
100
AcDbSymbolTableRecord
100
AcDbLayerTableRecord
  2
ASSI
 70
0
 62
7
  6
CONTINUOUS
370
-3
390
F
  0
LAYER
  5
379
100
AcDbSymbolTableRecord
100
AcDbLayerTableRecord
  2
AUDIOLESI_SYMBOL_10000
 70
0
 62
7
  6
CONTINUOUS
370
-3
390
F
  0
LAYER
  5
37A
100
AcDbSymbolTableRecord
100
AcDbLayerTableRecord
  2
BOARD_PRODUCER_TESTIMONI_3_F0_1
 70
0
 62
7
  6
CONTINUOUS
370
-3
390
F
  0
LAYER
  5
37B
100
AcDbSymbolTableRecord
100
AcDbLayerTableRecord
  2
BOARD_PRODUCER_TESTIMONI_3_F0_2
 70
0
 62
7
  6
CONTINUOUS
370
-3
390
F
  0
LAYER
  5
37C
100
AcDbSymbolTableRecord
100
AcDbLayerTableRecord
  2
BOARD_PRODUCER_TESTIMONI_3_F0_3
 70
0
 62
7
  6
CONTINUOUS
370
-3
390
F
  0
LAYER
  5
37D
100
AcDbSymbolTableRecord
100
AcDbLayerTableRecord
  2
BOARD_PRODUCER_TESTIMONI_3_F0_4
 70
0
 62
7
  6
CONTINUOUS
370
-3
390
F
  0
LAYER
  5
37E
100
AcDbSymbolTableRecord
100
AcDbLayerTableRecord
  2
BOARD_PRODUCER_TESTIMONI_3_F0_5
 70
0
 62
7
  6
CONTINUOUS
370
-3
390
F
  0
LAYER
  5
37F
100
AcDbSymbolTableRecord
100
AcDbLayerTableRecord
  2
BOARD_PRODUCER_TESTIMONI_3_F0_6
 70
0
 62
7
  6
CONTINUOUS
370
-3
390
F
  0
LAYER
  5
380
100
AcDbSymbolTableRecord
100
AcDbLayerTableRecord
  2
BOARD_PRODUCER_TESTIMONI_3_F0_7
 70
0
 62
7
  6
CONTINUOUS
370
-3
390
F
  0
LAYER
  5
381
100
AcDbSymbolTableRecord
100
AcDbLayerTableRecord
  2
BOARD_PRODUCER_TESTIMONI_3_F0_8
 70
0
 62
7
  6
CONTINUOUS
370
-3
390
F
  0
LAYER
  5
382
100
AcDbSymbolTableRecord
100
AcDbLayerTableRecord
  2
CAP-E-SMD-6_6-6_3-5_4_570000
 70
0
 62
7
  6
CONTINUOUS
370
-3
390
F
  0
LAYER
  5
383
100
AcDbSymbolTableRecord
100
AcDbLayerTableRecord
  2
CAP-E-SMD-6_6-6_3-7_7_810000
 70
0
 62
7
  6
CONTINUOUS
370
-3
390
F
  0
LAYER
  5
384
100
AcDbSymbolTableRecord
100
AcDbLayerTableRecord
  2
CAP-E-SMD-8_3-8_0-10_0_1050000
 70
0
 62
7
  6
CONTINUOUS
370
-3
390
F
  0
LAYER
  5
385
100
AcDbSymbolTableRecord
100
AcDbLayerTableRecord
  2
CN_SMD_ZH_B2B-ZR-SM4_2P_P_1_5_1
 70
0
 62
7
  6
CONTINUOUS
370
-3
390
F
  0
LAYER
  5
386
100
AcDbSymbolTableRecord
100
AcDbLayerTableRecord
  2
CN_SMD_ZH_B2B-ZR-SM4_2P_P_1_5_T
 70
0
 62
7
  6
CONTINUOUS
370
-3
390
F
  0
LAYER
  5
387
100
AcDbSymbolTableRecord
100
AcDbLayerTableRecord
  2
COLOR1
 70
0
 62
7
  6
CONTINUOUS
370
-3
390
F
  0
LAYER
  5
388
100
AcDbSymbolTableRecord
100
AcDbLayerTableRecord
  2
COLOR100
 70
0
 62
7
  6
CONTINUOUS
370
-3
390
F
  0
LAYER
  5
389
100
AcDbSymbolTableRecord
100
AcDbLayerTableRecord
  2
COLOR101
 70
0
 62
7
  6
CONTINUOUS
370
-3
390
F
  0
LAYER
  5
38A
100
AcDbSymbolTableRecord
100
AcDbLayerTableRecord
  2
COLOR102
 70
0
 62
7
  6
CONTINUOUS
370
-3
390
F
  0
LAYER
  5
38B
100
AcDbSymbolTableRecord
100
AcDbLayerTableRecord
  2
COLOR103
 70
0
 62
7
  6
CONTINUOUS
370
-3
390
F
  0
LAYER
  5
38C
100
AcDbSymbolTableRecord
100
AcDbLayerTableRecord
  2
COLOR104
 70
0
 62
7
  6
CONTINUOUS
370
-3
390
F
  0
LAYER
  5
38D
100
AcDbSymbolTableRecord
100
AcDbLayerTableRecord
  2
COLOR105
 70
0
 62
7
  6
CONTINUOUS
370
-3
390
F
  0
LAYER
  5
38E
100
AcDbSymbolTableRecord
100
AcDbLayerTableRecord
  2
COLOR107
 70
0
 62
7
  6
CONTINUOUS
370
-3
390
F
  0
LAYER
  5
38F
100
AcDbSymbolTableRecord
100
AcDbLayerTableRecord
  2
COLOR108
 70
0
 62
7
  6
CONTINUOUS
370
-3
390
F
  0
LAYER
  5
390
100
AcDbSymbolTableRecord
100
AcDbLayerTableRecord
  2
COLOR109
 70
0
 62
7
  6
CONTINUOUS
370
-3
390
F
  0
LAYER
  5
391
100
AcDbSymbolTableRecord
100
AcDbLayerTableRecord
  2
COLOR111
 70
0
 62
7
  6
CONTINUOUS
370
-3
390
F
  0
LAYER
  5
392
100
AcDbSymbolTableRecord
100
AcDbLayerTableRecord
  2
COLOR112
 70
0
 62
7
  6
CONTINUOUS
370
-3
390
F
  0
LAYER
  5
393
100
AcDbSymbolTableRecord
100
AcDbLayerTableRecord
  2
COLOR113
 70
0
 62
7
  6
CONTINUOUS
370
-3
390
F
  0
LAYER
  5
394
100
AcDbSymbolTableRecord
100
AcDbLayerTableRecord
  2
COLOR114
 70
0
 62
7
  6
CONTINUOUS
370
-3
390
F
  0
LAYER
  5
395
100
AcDbSymbolTableRecord
100
AcDbLayerTableRecord
  2
COLOR115
 70
0
 62
7
  6
CONTINUOUS
370
-3
390
F
  0
LAYER
  5
396
100
AcDbSymbolTableRecord
100
AcDbLayerTableRecord
  2
COLOR117
 70
0
 62
7
  6
CONTINUOUS
370
-3
390
F
  0
LAYER
  5
397
100
AcDbSymbolTableRecord
100
AcDbLayerTableRecord
  2
COLOR118
 70
0
 62
7
  6
CONTINUOUS
370
-3
390
F
  0
LAYER
  5
398
100
AcDbSymbolTableRecord
100
AcDbLayerTableRecord
  2
COLOR119
 70
0
 62
7
  6
CONTINUOUS
370
-3
390
F
  0
LAYER
  5
399
100
AcDbSymbolTableRecord
100
AcDbLayerTableRecord
  2
COLOR120
 70
0
 62
7
  6
CONTINUOUS
370
-3
390
F
  0
LAYER
  5
39A
100
AcDbSymbolTableRecord
100
AcDbLayerTableRecord
  2
COLOR121
 70
0
 62
7
  6
CONTINUOUS
370
-3
390
F
  0
LAYER
  5
39B
100
AcDbSymbolTableRecord
100
AcDbLayerTableRecord
  2
COLOR122
 70
0
 62
7
  6
CONTINUOUS
370
-3
390
F
  0
LAYER
  5
39C
100
AcDbSymbolTableRecord
100
AcDbLayerTableRecord
  2
COLOR127
 70
0
 62
7
  6
CONTINUOUS
370
-3
390
F
  0
LAYER
  5
39D
100
AcDbSymbolTableRecord
100
AcDbLayerTableRecord
  2
COLOR128
 70
0
 62
7
  6
CONTINUOUS
370
-3
390
F
  0
LAYER
  5
39E
100
AcDbSymbolTableRecord
100
AcDbLayerTableRecord
  2
COLOR129
 70
0
 62
7
  6
CONTINUOUS
370
-3
390
F
  0
LAYER
  5
39F
100
AcDbSymbolTableRecord
100
AcDbLayerTableRecord
  2
COLOR130
 70
0
 62
7
  6
CONTINUOUS
370
-3
390
F
  0
LAYER
  5
3A0
100
AcDbSymbolTableRecord
100
AcDbLayerTableRecord
  2
COLOR131
 70
0
 62
7
  6
CONTINUOUS
370
-3
390
F
  0
LAYER
  5
3A1
100
AcDbSymbolTableRecord
100
AcDbLayerTableRecord
  2
COLOR132
 70
0
 62
7
  6
CONTINUOUS
370
-3
390
F
  0
LAYER
  5
3A2
100
AcDbSymbolTableRecord
100
AcDbLayerTableRecord
  2
COLOR133
 70
0
 62
7
  6
CONTINUOUS
370
-3
390
F
  0
LAYER
  5
3A3
100
AcDbSymbolTableRecord
100
AcDbLayerTableRecord
  2
COLOR134
 70
0
 62
7
  6
CONTINUOUS
370
-3
390
F
  0
LAYER
  5
3A4
100
AcDbSymbolTableRecord
100
AcDbLayerTableRecord
  2
COLOR135
 70
0
 62
7
  6
CONTINUOUS
370
-3
390
F
  0
LAYER
  5
3A5
100
AcDbSymbolTableRecord
100
AcDbLayerTableRecord
  2
COLOR136
 70
0
 62
7
  6
CONTINUOUS
370
-3
390
F
  0
LAYER
  5
3A6
100
AcDbSymbolTableRecord
100
AcDbLayerTableRecord
  2
COLOR137
 70
0
 62
7
  6
CONTINUOUS
370
-3
390
F
  0
LAYER
  5
3A7
100
AcDbSymbolTableRecord
100
AcDbLayerTableRecord
  2
COLOR138
 70
0
 62
7
  6
CONTINUOUS
370
-3
390
F
  0
LAYER
  5
3A8
100
AcDbSymbolTableRecord
100
AcDbLayerTableRecord
  2
COLOR141
 70
0
 62
7
  6
CONTINUOUS
370
-3
390
F
  0
LAYER
  5
3A9
100
AcDbSymbolTableRecord
100
AcDbLayerTableRecord
  2
COLOR142
 70
0
 62
7
  6
CONTINUOUS
370
-3
390
F
  0
LAYER
  5
3AA
100
AcDbSymbolTableRecord
100
AcDbLayerTableRecord
  2
COLOR143
 70
0
 62
7
  6
CONTINUOUS
370
-3
390
F
  0
LAYER
  5
3AB
100
AcDbSymbolTableRecord
100
AcDbLayerTableRecord
  2
COLOR144
 70
0
 62
7
  6
CONTINUOUS
370
-3
390
F
  0
LAYER
  5
3AC
100
AcDbSymbolTableRecord
100
AcDbLayerTableRecord
  2
COLOR145
 70
0
 62
7
  6
CONTINUOUS
370
-3
390
F
  0
LAYER
  5
3AD
100
AcDbSymbolTableRecord
100
AcDbLayerTableRecord
  2
COLOR146
 70
0
 62
7
  6
CONTINUOUS
370
-3
390
F
  0
LAYER
  5
3AE
100
AcDbSymbolTableRecord
100
AcDbLayerTableRecord
  2
COLOR147
 70
0
 62
7
  6
CONTINUOUS
370
-3
390
F
  0
LAYER
  5
3AF
100
AcDbSymbolTableRecord
100
AcDbLayerTableRecord
  2
COLOR148
 70
0
 62
7
  6
CONTINUOUS
370
-3
390
F
  0
LAYER
  5
3B0
100
AcDbSymbolTableRecord
100
AcDbLayerTableRecord
  2
COLOR149
 70
0
 62
7
  6
CONTINUOUS
370
-3
390
F
  0
LAYER
  5
3B1
100
AcDbSymbolTableRecord
100
AcDbLayerTableRecord
  2
COLOR15
 70
0
 62
7
  6
CONTINUOUS
370
-3
390
F
  0
LAYER
  5
3B2
100
AcDbSymbolTableRecord
100
AcDbLayerTableRecord
  2
COLOR150
 70
0
 62
7
  6
CONTINUOUS
370
-3
390
F
  0
LAYER
  5
3B3
100
AcDbSymbolTableRecord
100
AcDbLayerTableRecord
  2
COLOR151
 70
0
 62
7
  6
CONTINUOUS
370
-3
390
F
  0
LAYER
  5
3B4
100
AcDbSymbolTableRecord
100
AcDbLayerTableRecord
  2
COLOR152
 70
0
 62
7
  6
CONTINUOUS
370
-3
390
F
  0
LAYER
  5
3B5
100
AcDbSymbolTableRecord
100
AcDbLayerTableRecord
  2
COLOR153
 70
0
 62
7
  6
CONTINUOUS
370
-3
390
F
  0
LAYER
  5
3B6
100
AcDbSymbolTableRecord
100
AcDbLayerTableRecord
  2
COLOR154
 70
0
 62
7
  6
CONTINUOUS
370
-3
390
F
  0
LAYER
  5
3B7
100
AcDbSymbolTableRecord
100
AcDbLayerTableRecord
  2
COLOR157
 70
0
 62
7
  6
CONTINUOUS
370
-3
390
F
  0
LAYER
  5
3B8
100
AcDbSymbolTableRecord
100
AcDbLayerTableRecord
  2
COLOR158
 70
0
 62
7
  6
CONTINUOUS
370
-3
390
F
  0
LAYER
  5
3B9
100
AcDbSymbolTableRecord
100
AcDbLayerTableRecord
  2
COLOR159
 70
0
 62
7
  6
CONTINUOUS
370
-3
390
F
  0
LAYER
  5
3BA
100
AcDbSymbolTableRecord
100
AcDbLayerTableRecord
  2
COLOR16
 70
0
 62
7
  6
CONTINUOUS
370
-3
390
F
  0
LAYER
  5
3BB
100
AcDbSymbolTableRecord
100
AcDbLayerTableRecord
  2
COLOR163
 70
0
 62
7
  6
CONTINUOUS
370
-3
390
F
  0
LAYER
  5
3BC
100
AcDbSymbolTableRecord
100
AcDbLayerTableRecord
  2
COLOR164
 70
0
 62
7
  6
CONTINUOUS
370
-3
390
F
  0
LAYER
  5
3BD
100
AcDbSymbolTableRecord
100
AcDbLayerTableRecord
  2
COLOR165
 70
0
 62
7
  6
CONTINUOUS
370
-3
390
F
  0
LAYER
  5
3BE
100
AcDbSymbolTableRecord
100
AcDbLayerTableRecord
  2
COLOR170
 70
0
 62
7
  6
CONTINUOUS
370
-3
390
F
  0
LAYER
  5
3BF
100
AcDbSymbolTableRecord
100
AcDbLayerTableRecord
  2
COLOR173
 70
0
 62
7
  6
CONTINUOUS
370
-3
390
F
  0
LAYER
  5
3C0
100
AcDbSymbolTableRecord
100
AcDbLayerTableRecord
  2
COLOR174
 70
0
 62
7
  6
CONTINUOUS
370
-3
390
F
  0
LAYER
  5
3C1
100
AcDbSymbolTableRecord
100
AcDbLayerTableRecord
  2
COLOR178
 70
0
 62
7
  6
CONTINUOUS
370
-3
390
F
  0
LAYER
  5
3C2
100
AcDbSymbolTableRecord
100
AcDbLayerTableRecord
  2
COLOR179
 70
0
 62
7
  6
CONTINUOUS
370
-3
390
F
  0
LAYER
  5
3C3
100
AcDbSymbolTableRecord
100
AcDbLayerTableRecord
  2
COLOR180
 70
0
 62
7
  6
CONTINUOUS
370
-3
390
F
  0
LAYER
  5
3C4
100
AcDbSymbolTableRecord
100
AcDbLayerTableRecord
  2
COLOR181
 70
0
 62
7
  6
CONTINUOUS
370
-3
390
F
  0
LAYER
  5
3C5
100
AcDbSymbolTableRecord
100
AcDbLayerTableRecord
  2
COLOR182
 70
0
 62
7
  6
CONTINUOUS
370
-3
390
F
  0
LAYER
  5
3C6
100
AcDbSymbolTableRecord
100
AcDbLayerTableRecord
  2
COLOR183
 70
0
 62
7
  6
CONTINUOUS
370
-3
390
F
  0
LAYER
  5
3C7
100
AcDbSymbolTableRecord
100
AcDbLayerTableRecord
  2
COLOR184
 70
0
 62
7
  6
CONTINUOUS
370
-3
390
F
  0
LAYER
  5
3C8
100
AcDbSymbolTableRecord
100
AcDbLayerTableRecord
  2
COLOR185
 70
0
 62
7
  6
CONTINUOUS
370
-3
390
F
  0
LAYER
  5
3C9
100
AcDbSymbolTableRecord
100
AcDbLayerTableRecord
  2
COLOR186
 70
0
 62
7
  6
CONTINUOUS
370
-3
390
F
  0
LAYER
  5
3CA
100
AcDbSymbolTableRecord
100
AcDbLayerTableRecord
  2
COLOR187
 70
0
 62
7
  6
CONTINUOUS
370
-3
390
F
  0
LAYER
  5
3CB
100
AcDbSymbolTableRecord
100
AcDbLayerTableRecord
  2
COLOR188
 70
0
 62
7
  6
CONTINUOUS
370
-3
390
F
  0
LAYER
  5
3CC
100
AcDbSymbolTableRecord
100
AcDbLayerTableRecord
  2
COLOR189
 70
0
 62
7
  6
CONTINUOUS
370
-3
390
F
  0
LAYER
  5
3CD
100
AcDbSymbolTableRecord
100
AcDbLayerTableRecord
  2
COLOR190
 70
0
 62
7
  6
CONTINUOUS
370
-3
390
F
  0
LAYER
  5
3CE
100
AcDbSymbolTableRecord
100
AcDbLayerTableRecord
  2
COLOR191
 70
0
 62
7
  6
CONTINUOUS
370
-3
390
F
  0
LAYER
  5
3CF
100
AcDbSymbolTableRecord
100
AcDbLayerTableRecord
  2
COLOR192
 70
0
 62
7
  6
CONTINUOUS
370
-3
390
F
  0
LAYER
  5
3D0
100
AcDbSymbolTableRecord
100
AcDbLayerTableRecord
  2
COLOR193
 70
0
 62
7
  6
CONTINUOUS
370
-3
390
F
  0
LAYER
  5
3D1
100
AcDbSymbolTableRecord
100
AcDbLayerTableRecord
  2
COLOR194
 70
0
 62
7
  6
CONTINUOUS
370
-3
390
F
  0
LAYER
  5
3D2
100
AcDbSymbolTableRecord
100
AcDbLayerTableRecord
  2
COLOR195
 70
0
 62
7
  6
CONTINUOUS
370
-3
390
F
  0
LAYER
  5
3D3
100
AcDbSymbolTableRecord
100
AcDbLayerTableRecord
  2
COLOR196
 70
0
 62
7
  6
CONTINUOUS
370
-3
390
F
  0
LAYER
  5
3D4
100
AcDbSymbolTableRecord
100
AcDbLayerTableRecord
  2
COLOR197
 70
0
 62
7
  6
CONTINUOUS
370
-3
390
F
  0
LAYER
  5
3D5
100
AcDbSymbolTableRecord
100
AcDbLayerTableRecord
  2
COLOR198
 70
0
 62
7
  6
CONTINUOUS
370
-3
390
F
  0
LAYER
  5
3D6
100
AcDbSymbolTableRecord
100
AcDbLayerTableRecord
  2
COLOR199
 70
0
 62
7
  6
CONTINUOUS
370
-3
390
F
  0
LAYER
  5
3D7
100
AcDbSymbolTableRecord
100
AcDbLayerTableRecord
  2
COLOR20
 70
0
 62
7
  6
CONTINUOUS
370
-3
390
F
  0
LAYER
  5
3D8
100
AcDbSymbolTableRecord
100
AcDbLayerTableRecord
  2
COLOR200
 70
0
 62
7
  6
CONTINUOUS
370
-3
390
F
  0
LAYER
  5
3D9
100
AcDbSymbolTableRecord
100
AcDbLayerTableRecord
  2
COLOR201
 70
0
 62
7
  6
CONTINUOUS
370
-3
390
F
  0
LAYER
  5
3DA
100
AcDbSymbolTableRecord
100
AcDbLayerTableRecord
  2
COLOR202
 70
0
 62
7
  6
CONTINUOUS
370
-3
390
F
  0
LAYER
  5
3DB
100
AcDbSymbolTableRecord
100
AcDbLayerTableRecord
  2
COLOR203
 70
0
 62
7
  6
CONTINUOUS
370
-3
390
F
  0
LAYER
  5
3DC
100
AcDbSymbolTableRecord
100
AcDbLayerTableRecord
  2
COLOR204
 70
0
 62
7
  6
CONTINUOUS
370
-3
390
F
  0
LAYER
  5
3DD
100
AcDbSymbolTableRecord
100
AcDbLayerTableRecord
  2
COLOR205
 70
0
 62
7
  6
CONTINUOUS
370
-3
390
F
  0
LAYER
  5
3DE
100
AcDbSymbolTableRecord
100
AcDbLayerTableRecord
  2
COLOR206
 70
0
 62
7
  6
CONTINUOUS
370
-3
390
F
  0
LAYER
  5
3DF
100
AcDbSymbolTableRecord
100
AcDbLayerTableRecord
  2
COLOR207
 70
0
 62
7
  6
CONTINUOUS
370
-3
390
F
  0
LAYER
  5
3E0
100
AcDbSymbolTableRecord
100
AcDbLayerTableRecord
  2
COLOR208
 70
0
 62
7
  6
CONTINUOUS
370
-3
390
F
  0
LAYER
  5
3E1
100
AcDbSymbolTableRecord
100
AcDbLayerTableRecord
  2
COLOR209
 70
0
 62
7
  6
CONTINUOUS
370
-3
390
F
  0
LAYER
  5
3E2
100
AcDbSymbolTableRecord
100
AcDbLayerTableRecord
  2
COLOR21
 70
0
 62
7
  6
CONTINUOUS
370
-3
390
F
  0
LAYER
  5
3E3
100
AcDbSymbolTableRecord
100
AcDbLayerTableRecord
  2
COLOR210
 70
0
 62
7
  6
CONTINUOUS
370
-3
390
F
  0
LAYER
  5
3E4
100
AcDbSymbolTableRecord
100
AcDbLayerTableRecord
  2
COLOR211
 70
0
 62
7
  6
CONTINUOUS
370
-3
390
F
  0
LAYER
  5
3E5
100
AcDbSymbolTableRecord
100
AcDbLayerTableRecord
  2
COLOR212
 70
0
 62
7
  6
CONTINUOUS
370
-3
390
F
  0
LAYER
  5
3E6
100
AcDbSymbolTableRecord
100
AcDbLayerTableRecord
  2
COLOR213
 70
0
 62
7
  6
CONTINUOUS
370
-3
390
F
  0
LAYER
  5
3E7
100
AcDbSymbolTableRecord
100
AcDbLayerTableRecord
  2
COLOR214
 70
0
 62
7
  6
CONTINUOUS
370
-3
390
F
  0
LAYER
  5
3E8
100
AcDbSymbolTableRecord
100
AcDbLayerTableRecord
  2
COLOR216
 70
0
 62
7
  6
CONTINUOUS
370
-3
390
F
  0
LAYER
  5
3E9
100
AcDbSymbolTableRecord
100
AcDbLayerTableRecord
  2
COLOR217
 70
0
 62
7
  6
CONTINUOUS
370
-3
390
F
  0
LAYER
  5
3EA
100
AcDbSymbolTableRecord
100
AcDbLayerTableRecord
  2
COLOR218
 70
0
 62
7
  6
CONTINUOUS
370
-3
390
F
  0
LAYER
  5
3EB
100
AcDbSymbolTableRecord
100
AcDbLayerTableRecord
  2
COLOR219
 70
0
 62
7
  6
CONTINUOUS
370
-3
390
F
  0
LAYER
  5
3EC
100
AcDbSymbolTableRecord
100
AcDbLayerTableRecord
  2
COLOR22
 70
0
 62
7
  6
CONTINUOUS
370
-3
390
F
  0
LAYER
  5
3ED
100
AcDbSymbolTableRecord
100
AcDbLayerTableRecord
  2
COLOR220
 70
0
 62
7
  6
CONTINUOUS
370
-3
390
F
  0
LAYER
  5
3EE
100
AcDbSymbolTableRecord
100
AcDbLayerTableRecord
  2
COLOR221
 70
0
 62
7
  6
CONTINUOUS
370
-3
390
F
  0
LAYER
  5
3EF
100
AcDbSymbolTableRecord
100
AcDbLayerTableRecord
  2
COLOR222
 70
0
 62
7
  6
CONTINUOUS
370
-3
390
F
  0
LAYER
  5
3F0
100
AcDbSymbolTableRecord
100
AcDbLayerTableRecord
  2
COLOR223
 70
0
 62
7
  6
CONTINUOUS
370
-3
390
F
  0
LAYER
  5
3F1
100
AcDbSymbolTableRecord
100
AcDbLayerTableRecord
  2
COLOR224
 70
0
 62
7
  6
CONTINUOUS
370
-3
390
F
  0
LAYER
  5
3F2
100
AcDbSymbolTableRecord
100
AcDbLayerTableRecord
  2
COLOR225
 70
0
 62
7
  6
CONTINUOUS
370
-3
390
F
  0
LAYER
  5
3F3
100
AcDbSymbolTableRecord
100
AcDbLayerTableRecord
  2
COLOR226
 70
0
 62
7
  6
CONTINUOUS
370
-3
390
F
  0
LAYER
  5
3F4
100
AcDbSymbolTableRecord
100
AcDbLayerTableRecord
  2
COLOR227
 70
0
 62
7
  6
CONTINUOUS
370
-3
390
F
  0
LAYER
  5
3F5
100
AcDbSymbolTableRecord
100
AcDbLayerTableRecord
  2
COLOR228
 70
0
 62
7
  6
CONTINUOUS
370
-3
390
F
  0
LAYER
  5
3F6
100
AcDbSymbolTableRecord
100
AcDbLayerTableRecord
  2
COLOR229
 70
0
 62
7
  6
CONTINUOUS
370
-3
390
F
  0
LAYER
  5
3F7
100
AcDbSymbolTableRecord
100
AcDbLayerTableRecord
  2
COLOR23
 70
0
 62
7
  6
CONTINUOUS
370
-3
390
F
  0
LAYER
  5
3F8
100
AcDbSymbolTableRecord
100
AcDbLayerTableRecord
  2
COLOR230
 70
0
 62
7
  6
CONTINUOUS
370
-3
390
F
  0
LAYER
  5
3F9
100
AcDbSymbolTableRecord
100
AcDbLayerTableRecord
  2
COLOR231
 70
0
 62
7
  6
CONTINUOUS
370
-3
390
F
  0
LAYER
  5
3FA
100
AcDbSymbolTableRecord
100
AcDbLayerTableRecord
  2
COLOR232
 70
0
 62
7
  6
CONTINUOUS
370
-3
390
F
  0
LAYER
  5
3FB
100
AcDbSymbolTableRecord
100
AcDbLayerTableRecord
  2
COLOR233
 70
0
 62
7
  6
CONTINUOUS
370
-3
390
F
  0
LAYER
  5
3FC
100
AcDbSymbolTableRecord
100
AcDbLayerTableRecord
  2
COLOR234
 70
0
 62
7
  6
CONTINUOUS
370
-3
390
F
  0
LAYER
  5
3FD
100
AcDbSymbolTableRecord
100
AcDbLayerTableRecord
  2
COLOR235
 70
0
 62
7
  6
CONTINUOUS
370
-3
390
F
  0
LAYER
  5
3FE
100
AcDbSymbolTableRecord
100
AcDbLayerTableRecord
  2
COLOR236
 70
0
 62
7
  6
CONTINUOUS
370
-3
390
F
  0
LAYER
  5
3FF
100
AcDbSymbolTableRecord
100
AcDbLayerTableRecord
  2
COLOR237
 70
0
 62
7
  6
CONTINUOUS
370
-3
390
F
  0
LAYER
  5
400
100
AcDbSymbolTableRecord
100
AcDbLayerTableRecord
  2
COLOR238
 70
0
 62
7
  6
CONTINUOUS
370
-3
390
F
  0
LAYER
  5
401
100
AcDbSymbolTableRecord
100
AcDbLayerTableRecord
  2
COLOR239
 70
0
 62
7
  6
CONTINUOUS
370
-3
390
F
  0
LAYER
  5
402
100
AcDbSymbolTableRecord
100
AcDbLayerTableRecord
  2
COLOR24
 70
0
 62
7
  6
CONTINUOUS
370
-3
390
F
  0
LAYER
  5
403
100
AcDbSymbolTableRecord
100
AcDbLayerTableRecord
  2
COLOR240
 70
0
 62
7
  6
CONTINUOUS
370
-3
390
F
  0
LAYER
  5
404
100
AcDbSymbolTableRecord
100
AcDbLayerTableRecord
  2
COLOR241
 70
0
 62
7
  6
CONTINUOUS
370
-3
390
F
  0
LAYER
  5
405
100
AcDbSymbolTableRecord
100
AcDbLayerTableRecord
  2
COLOR242
 70
0
 62
7
  6
CONTINUOUS
370
-3
390
F
  0
LAYER
  5
406
100
AcDbSymbolTableRecord
100
AcDbLayerTableRecord
  2
COLOR243
 70
0
 62
7
  6
CONTINUOUS
370
-3
390
F
  0
LAYER
  5
407
100
AcDbSymbolTableRecord
100
AcDbLayerTableRecord
  2
COLOR244
 70
0
 62
7
  6
CONTINUOUS
370
-3
390
F
  0
LAYER
  5
408
100
AcDbSymbolTableRecord
100
AcDbLayerTableRecord
  2
COLOR245
 70
0
 62
7
  6
CONTINUOUS
370
-3
390
F
  0
LAYER
  5
409
100
AcDbSymbolTableRecord
100
AcDbLayerTableRecord
  2
COLOR246
 70
0
 62
7
  6
CONTINUOUS
370
-3
390
F
  0
LAYER
  5
40A
100
AcDbSymbolTableRecord
100
AcDbLayerTableRecord
  2
COLOR247
 70
0
 62
7
  6
CONTINUOUS
370
-3
390
F
  0
LAYER
  5
40B
100
AcDbSymbolTableRecord
100
AcDbLayerTableRecord
  2
COLOR248
 70
0
 62
7
  6
CONTINUOUS
370
-3
390
F
  0
LAYER
  5
40C
100
AcDbSymbolTableRecord
100
AcDbLayerTableRecord
  2
COLOR249
 70
0
 62
7
  6
CONTINUOUS
370
-3
390
F
  0
LAYER
  5
40D
100
AcDbSymbolTableRecord
100
AcDbLayerTableRecord
  2
COLOR25
 70
0
 62
7
  6
CONTINUOUS
370
-3
390
F
  0
LAYER
  5
40E
100
AcDbSymbolTableRecord
100
AcDbLayerTableRecord
  2
COLOR250
 70
0
 62
7
  6
CONTINUOUS
370
-3
390
F
  0
LAYER
  5
40F
100
AcDbSymbolTableRecord
100
AcDbLayerTableRecord
  2
COLOR251
 70
0
 62
7
  6
CONTINUOUS
370
-3
390
F
  0
LAYER
  5
410
100
AcDbSymbolTableRecord
100
AcDbLayerTableRecord
  2
COLOR252
 70
0
 62
7
  6
CONTINUOUS
370
-3
390
F
  0
LAYER
  5
411
100
AcDbSymbolTableRecord
100
AcDbLayerTableRecord
  2
COLOR253
 70
0
 62
7
  6
CONTINUOUS
370
-3
390
F
  0
LAYER
  5
412
100
AcDbSymbolTableRecord
100
AcDbLayerTableRecord
  2
COLOR254
 70
0
 62
7
  6
CONTINUOUS
370
-3
390
F
  0
LAYER
  5
413
100
AcDbSymbolTableRecord
100
AcDbLayerTableRecord
  2
COLOR255
 70
0
 62
7
  6
CONTINUOUS
370
-3
390
F
  0
LAYER
  5
414
100
AcDbSymbolTableRecord
100
AcDbLayerTableRecord
  2
COLOR256
 70
0
 62
7
  6
CONTINUOUS
370
-3
390
F
  0
LAYER
  5
415
100
AcDbSymbolTableRecord
100
AcDbLayerTableRecord
  2
COLOR257
 70
0
 62
7
  6
CONTINUOUS
370
-3
390
F
  0
LAYER
  5
416
100
AcDbSymbolTableRecord
100
AcDbLayerTableRecord
  2
COLOR258
 70
0
 62
7
  6
CONTINUOUS
370
-3
390
F
  0
LAYER
  5
417
100
AcDbSymbolTableRecord
100
AcDbLayerTableRecord
  2
COLOR259
 70
0
 62
7
  6
CONTINUOUS
370
-3
390
F
  0
LAYER
  5
418
100
AcDbSymbolTableRecord
100
AcDbLayerTableRecord
  2
COLOR26
 70
0
 62
7
  6
CONTINUOUS
370
-3
390
F
  0
LAYER
  5
419
100
AcDbSymbolTableRecord
100
AcDbLayerTableRecord
  2
COLOR260
 70
0
 62
7
  6
CONTINUOUS
370
-3
390
F
  0
LAYER
  5
41A
100
AcDbSymbolTableRecord
100
AcDbLayerTableRecord
  2
COLOR261
 70
0
 62
7
  6
CONTINUOUS
370
-3
390
F
  0
LAYER
  5
41B
100
AcDbSymbolTableRecord
100
AcDbLayerTableRecord
  2
COLOR262
 70
0
 62
7
  6
CONTINUOUS
370
-3
390
F
  0
LAYER
  5
41C
100
AcDbSymbolTableRecord
100
AcDbLayerTableRecord
  2
COLOR263
 70
0
 62
7
  6
CONTINUOUS
370
-3
390
F
  0
LAYER
  5
41D
100
AcDbSymbolTableRecord
100
AcDbLayerTableRecord
  2
COLOR264
 70
0
 62
7
  6
CONTINUOUS
370
-3
390
F
  0
LAYER
  5
41E
100
AcDbSymbolTableRecord
100
AcDbLayerTableRecord
  2
COLOR265
 70
0
 62
7
  6
CONTINUOUS
370
-3
390
F
  0
LAYER
  5
41F
100
AcDbSymbolTableRecord
100
AcDbLayerTableRecord
  2
COLOR266
 70
0
 62
7
  6
CONTINUOUS
370
-3
390
F
  0
LAYER
  5
420
100
AcDbSymbolTableRecord
100
AcDbLayerTableRecord
  2
COLOR267
 70
0
 62
7
  6
CONTINUOUS
370
-3
390
F
  0
LAYER
  5
421
100
AcDbSymbolTableRecord
100
AcDbLayerTableRecord
  2
COLOR268
 70
0
 62
7
  6
CONTINUOUS
370
-3
390
F
  0
LAYER
  5
422
100
AcDbSymbolTableRecord
100
AcDbLayerTableRecord
  2
COLOR269
 70
0
 62
7
  6
CONTINUOUS
370
-3
390
F
  0
LAYER
  5
423
100
AcDbSymbolTableRecord
100
AcDbLayerTableRecord
  2
COLOR27
 70
0
 62
7
  6
CONTINUOUS
370
-3
390
F
  0
LAYER
  5
424
100
AcDbSymbolTableRecord
100
AcDbLayerTableRecord
  2
COLOR270
 70
0
 62
7
  6
CONTINUOUS
370
-3
390
F
  0
LAYER
  5
425
100
AcDbSymbolTableRecord
100
AcDbLayerTableRecord
  2
COLOR271
 70
0
 62
7
  6
CONTINUOUS
370
-3
390
F
  0
LAYER
  5
426
100
AcDbSymbolTableRecord
100
AcDbLayerTableRecord
  2
COLOR272
 70
0
 62
7
  6
CONTINUOUS
370
-3
390
F
  0
LAYER
  5
427
100
AcDbSymbolTableRecord
100
AcDbLayerTableRecord
  2
COLOR273
 70
0
 62
7
  6
CONTINUOUS
370
-3
390
F
  0
LAYER
  5
428
100
AcDbSymbolTableRecord
100
AcDbLayerTableRecord
  2
COLOR274
 70
0
 62
7
  6
CONTINUOUS
370
-3
390
F
  0
LAYER
  5
429
100
AcDbSymbolTableRecord
100
AcDbLayerTableRecord
  2
COLOR275
 70
0
 62
7
  6
CONTINUOUS
370
-3
390
F
  0
LAYER
  5
42A
100
AcDbSymbolTableRecord
100
AcDbLayerTableRecord
  2
COLOR276
 70
0
 62
7
  6
CONTINUOUS
370
-3
390
F
  0
LAYER
  5
42B
100
AcDbSymbolTableRecord
100
AcDbLayerTableRecord
  2
COLOR277
 70
0
 62
7
  6
CONTINUOUS
370
-3
390
F
  0
LAYER
  5
42C
100
AcDbSymbolTableRecord
100
AcDbLayerTableRecord
  2
COLOR278
 70
0
 62
7
  6
CONTINUOUS
370
-3
390
F
  0
LAYER
  5
42D
100
AcDbSymbolTableRecord
100
AcDbLayerTableRecord
  2
COLOR279
 70
0
 62
7
  6
CONTINUOUS
370
-3
390
F
  0
LAYER
  5
42E
100
AcDbSymbolTableRecord
100
AcDbLayerTableRecord
  2
COLOR28
 70
0
 62
7
  6
CONTINUOUS
370
-3
390
F
  0
LAYER
  5
42F
100
AcDbSymbolTableRecord
100
AcDbLayerTableRecord
  2
COLOR280
 70
0
 62
7
  6
CONTINUOUS
370
-3
390
F
  0
LAYER
  5
430
100
AcDbSymbolTableRecord
100
AcDbLayerTableRecord
  2
COLOR281
 70
0
 62
7
  6
CONTINUOUS
370
-3
390
F
  0
LAYER
  5
431
100
AcDbSymbolTableRecord
100
AcDbLayerTableRecord
  2
COLOR282
 70
0
 62
7
  6
CONTINUOUS
370
-3
390
F
  0
LAYER
  5
432
100
AcDbSymbolTableRecord
100
AcDbLayerTableRecord
  2
COLOR283
 70
0
 62
7
  6
CONTINUOUS
370
-3
390
F
  0
LAYER
  5
433
100
AcDbSymbolTableRecord
100
AcDbLayerTableRecord
  2
COLOR284
 70
0
 62
7
  6
CONTINUOUS
370
-3
390
F
  0
LAYER
  5
434
100
AcDbSymbolTableRecord
100
AcDbLayerTableRecord
  2
COLOR285
 70
0
 62
7
  6
CONTINUOUS
370
-3
390
F
  0
LAYER
  5
435
100
AcDbSymbolTableRecord
100
AcDbLayerTableRecord
  2
COLOR286
 70
0
 62
7
  6
CONTINUOUS
370
-3
390
F
  0
LAYER
  5
436
100
AcDbSymbolTableRecord
100
AcDbLayerTableRecord
  2
COLOR287
 70
0
 62
7
  6
CONTINUOUS
370
-3
390
F
  0
LAYER
  5
437
100
AcDbSymbolTableRecord
100
AcDbLayerTableRecord
  2
COLOR288
 70
0
 62
7
  6
CONTINUOUS
370
-3
390
F
  0
LAYER
  5
438
100
AcDbSymbolTableRecord
100
AcDbLayerTableRecord
  2
COLOR289
 70
0
 62
7
  6
CONTINUOUS
370
-3
390
F
  0
LAYER
  5
439
100
AcDbSymbolTableRecord
100
AcDbLayerTableRecord
  2
COLOR290
 70
0
 62
7
  6
CONTINUOUS
370
-3
390
F
  0
LAYER
  5
43A
100
AcDbSymbolTableRecord
100
AcDbLayerTableRecord
  2
COLOR291
 70
0
 62
7
  6
CONTINUOUS
370
-3
390
F
  0
LAYER
  5
43B
100
AcDbSymbolTableRecord
100
AcDbLayerTableRecord
  2
COLOR292
 70
0
 62
7
  6
CONTINUOUS
370
-3
390
F
  0
LAYER
  5
43C
100
AcDbSymbolTableRecord
100
AcDbLayerTableRecord
  2
COLOR293
 70
0
 62
7
  6
CONTINUOUS
370
-3
390
F
  0
LAYER
  5
43D
100
AcDbSymbolTableRecord
100
AcDbLayerTableRecord
  2
COLOR294
 70
0
 62
7
  6
CONTINUOUS
370
-3
390
F
  0
LAYER
  5
43E
100
AcDbSymbolTableRecord
100
AcDbLayerTableRecord
  2
COLOR295
 70
0
 62
7
  6
CONTINUOUS
370
-3
390
F
  0
LAYER
  5
43F
100
AcDbSymbolTableRecord
100
AcDbLayerTableRecord
  2
COLOR296
 70
0
 62
7
  6
CONTINUOUS
370
-3
390
F
  0
LAYER
  5
440
100
AcDbSymbolTableRecord
100
AcDbLayerTableRecord
  2
COLOR297
 70
0
 62
7
  6
CONTINUOUS
370
-3
390
F
  0
LAYER
  5
441
100
AcDbSymbolTableRecord
100
AcDbLayerTableRecord
  2
COLOR298
 70
0
 62
7
  6
CONTINUOUS
370
-3
390
F
  0
LAYER
  5
442
100
AcDbSymbolTableRecord
100
AcDbLayerTableRecord
  2
COLOR299
 70
0
 62
7
  6
CONTINUOUS
370
-3
390
F
  0
LAYER
  5
443
100
AcDbSymbolTableRecord
100
AcDbLayerTableRecord
  2
COLOR30
 70
0
 62
7
  6
CONTINUOUS
370
-3
390
F
  0
LAYER
  5
444
100
AcDbSymbolTableRecord
100
AcDbLayerTableRecord
  2
COLOR300
 70
0
 62
7
  6
CONTINUOUS
370
-3
390
F
  0
LAYER
  5
445
100
AcDbSymbolTableRecord
100
AcDbLayerTableRecord
  2
COLOR301
 70
0
 62
7
  6
CONTINUOUS
370
-3
390
F
  0
LAYER
  5
446
100
AcDbSymbolTableRecord
100
AcDbLayerTableRecord
  2
COLOR302
 70
0
 62
7
  6
CONTINUOUS
370
-3
390
F
  0
LAYER
  5
447
100
AcDbSymbolTableRecord
100
AcDbLayerTableRecord
  2
COLOR303
 70
0
 62
7
  6
CONTINUOUS
370
-3
390
F
  0
LAYER
  5
448
100
AcDbSymbolTableRecord
100
AcDbLayerTableRecord
  2
COLOR304
 70
0
 62
7
  6
CONTINUOUS
370
-3
390
F
  0
LAYER
  5
449
100
AcDbSymbolTableRecord
100
AcDbLayerTableRecord
  2
COLOR305
 70
0
 62
7
  6
CONTINUOUS
370
-3
390
F
  0
LAYER
  5
44A
100
AcDbSymbolTableRecord
100
AcDbLayerTableRecord
  2
COLOR306
 70
0
 62
7
  6
CONTINUOUS
370
-3
390
F
  0
LAYER
  5
44B
100
AcDbSymbolTableRecord
100
AcDbLayerTableRecord
  2
COLOR307
 70
0
 62
7
  6
CONTINUOUS
370
-3
390
F
  0
LAYER
  5
44C
100
AcDbSymbolTableRecord
100
AcDbLayerTableRecord
  2
COLOR308
 70
0
 62
7
  6
CONTINUOUS
370
-3
390
F
  0
LAYER
  5
44D
100
AcDbSymbolTableRecord
100
AcDbLayerTableRecord
  2
COLOR309
 70
0
 62
7
  6
CONTINUOUS
370
-3
390
F
  0
LAYER
  5
44E
100
AcDbSymbolTableRecord
100
AcDbLayerTableRecord
  2
COLOR310
 70
0
 62
7
  6
CONTINUOUS
370
-3
390
F
  0
LAYER
  5
44F
100
AcDbSymbolTableRecord
100
AcDbLayerTableRecord
  2
COLOR311
 70
0
 62
7
  6
CONTINUOUS
370
-3
390
F
  0
LAYER
  5
450
100
AcDbSymbolTableRecord
100
AcDbLayerTableRecord
  2
COLOR312
 70
0
 62
7
  6
CONTINUOUS
370
-3
390
F
  0
LAYER
  5
451
100
AcDbSymbolTableRecord
100
AcDbLayerTableRecord
  2
COLOR313
 70
0
 62
7
  6
CONTINUOUS
370
-3
390
F
  0
LAYER
  5
452
100
AcDbSymbolTableRecord
100
AcDbLayerTableRecord
  2
COLOR314
 70
0
 62
7
  6
CONTINUOUS
370
-3
390
F
  0
LAYER
  5
453
100
AcDbSymbolTableRecord
100
AcDbLayerTableRecord
  2
COLOR315
 70
0
 62
7
  6
CONTINUOUS
370
-3
390
F
  0
LAYER
  5
454
100
AcDbSymbolTableRecord
100
AcDbLayerTableRecord
  2
COLOR316
 70
0
 62
7
  6
CONTINUOUS
370
-3
390
F
  0
LAYER
  5
455
100
AcDbSymbolTableRecord
100
AcDbLayerTableRecord
  2
COLOR317
 70
0
 62
7
  6
CONTINUOUS
370
-3
390
F
  0
LAYER
  5
456
100
AcDbSymbolTableRecord
100
AcDbLayerTableRecord
  2
COLOR318
 70
0
 62
7
  6
CONTINUOUS
370
-3
390
F
  0
LAYER
  5
457
100
AcDbSymbolTableRecord
100
AcDbLayerTableRecord
  2
COLOR319
 70
0
 62
7
  6
CONTINUOUS
370
-3
390
F
  0
LAYER
  5
458
100
AcDbSymbolTableRecord
100
AcDbLayerTableRecord
  2
COLOR32
 70
0
 62
7
  6
CONTINUOUS
370
-3
390
F
  0
LAYER
  5
459
100
AcDbSymbolTableRecord
100
AcDbLayerTableRecord
  2
COLOR320
 70
0
 62
7
  6
CONTINUOUS
370
-3
390
F
  0
LAYER
  5
45A
100
AcDbSymbolTableRecord
100
AcDbLayerTableRecord
  2
COLOR321
 70
0
 62
7
  6
CONTINUOUS
370
-3
390
F
  0
LAYER
  5
45B
100
AcDbSymbolTableRecord
100
AcDbLayerTableRecord
  2
COLOR323
 70
0
 62
7
  6
CONTINUOUS
370
-3
390
F
  0
LAYER
  5
45C
100
AcDbSymbolTableRecord
100
AcDbLayerTableRecord
  2
COLOR324
 70
0
 62
7
  6
CONTINUOUS
370
-3
390
F
  0
LAYER
  5
45D
100
AcDbSymbolTableRecord
100
AcDbLayerTableRecord
  2
COLOR325
 70
0
 62
7
  6
CONTINUOUS
370
-3
390
F
  0
LAYER
  5
45E
100
AcDbSymbolTableRecord
100
AcDbLayerTableRecord
  2
COLOR326
 70
0
 62
7
  6
CONTINUOUS
370
-3
390
F
  0
LAYER
  5
45F
100
AcDbSymbolTableRecord
100
AcDbLayerTableRecord
  2
COLOR327
 70
0
 62
7
  6
CONTINUOUS
370
-3
390
F
  0
LAYER
  5
460
100
AcDbSymbolTableRecord
100
AcDbLayerTableRecord
  2
COLOR328
 70
0
 62
7
  6
CONTINUOUS
370
-3
390
F
  0
LAYER
  5
461
100
AcDbSymbolTableRecord
100
AcDbLayerTableRecord
  2
COLOR329
 70
0
 62
7
  6
CONTINUOUS
370
-3
390
F
  0
LAYER
  5
462
100
AcDbSymbolTableRecord
100
AcDbLayerTableRecord
  2
COLOR33
 70
0
 62
7
  6
CONTINUOUS
370
-3
390
F
  0
LAYER
  5
463
100
AcDbSymbolTableRecord
100
AcDbLayerTableRecord
  2
COLOR330
 70
0
 62
7
  6
CONTINUOUS
370
-3
390
F
  0
LAYER
  5
464
100
AcDbSymbolTableRecord
100
AcDbLayerTableRecord
  2
COLOR331
 70
0
 62
7
  6
CONTINUOUS
370
-3
390
F
  0
LAYER
  5
465
100
AcDbSymbolTableRecord
100
AcDbLayerTableRecord
  2
COLOR332
 70
0
 62
7
  6
CONTINUOUS
370
-3
390
F
  0
LAYER
  5
466
100
AcDbSymbolTableRecord
100
AcDbLayerTableRecord
  2
COLOR333
 70
0
 62
7
  6
CONTINUOUS
370
-3
390
F
  0
LAYER
  5
467
100
AcDbSymbolTableRecord
100
AcDbLayerTableRecord
  2
COLOR334
 70
0
 62
7
  6
CONTINUOUS
370
-3
390
F
  0
LAYER
  5
468
100
AcDbSymbolTableRecord
100
AcDbLayerTableRecord
  2
COLOR335
 70
0
 62
7
  6
CONTINUOUS
370
-3
390
F
  0
LAYER
  5
469
100
AcDbSymbolTableRecord
100
AcDbLayerTableRecord
  2
COLOR336
 70
0
 62
7
  6
CONTINUOUS
370
-3
390
F
  0
LAYER
  5
46A
100
AcDbSymbolTableRecord
100
AcDbLayerTableRecord
  2
COLOR337
 70
0
 62
7
  6
CONTINUOUS
370
-3
390
F
  0
LAYER
  5
46B
100
AcDbSymbolTableRecord
100
AcDbLayerTableRecord
  2
COLOR338
 70
0
 62
7
  6
CONTINUOUS
370
-3
390
F
  0
LAYER
  5
46C
100
AcDbSymbolTableRecord
100
AcDbLayerTableRecord
  2
COLOR339
 70
0
 62
7
  6
CONTINUOUS
370
-3
390
F
  0
LAYER
  5
46D
100
AcDbSymbolTableRecord
100
AcDbLayerTableRecord
  2
COLOR34
 70
0
 62
7
  6
CONTINUOUS
370
-3
390
F
  0
LAYER
  5
46E
100
AcDbSymbolTableRecord
100
AcDbLayerTableRecord
  2
COLOR340
 70
0
 62
7
  6
CONTINUOUS
370
-3
390
F
  0
LAYER
  5
46F
100
AcDbSymbolTableRecord
100
AcDbLayerTableRecord
  2
COLOR341
 70
0
 62
7
  6
CONTINUOUS
370
-3
390
F
  0
LAYER
  5
470
100
AcDbSymbolTableRecord
100
AcDbLayerTableRecord
  2
COLOR342
 70
0
 62
7
  6
CONTINUOUS
370
-3
390
F
  0
LAYER
  5
471
100
AcDbSymbolTableRecord
100
AcDbLayerTableRecord
  2
COLOR343
 70
0
 62
7
  6
CONTINUOUS
370
-3
390
F
  0
LAYER
  5
472
100
AcDbSymbolTableRecord
100
AcDbLayerTableRecord
  2
COLOR344
 70
0
 62
7
  6
CONTINUOUS
370
-3
390
F
  0
LAYER
  5
473
100
AcDbSymbolTableRecord
100
AcDbLayerTableRecord
  2
COLOR345
 70
0
 62
7
  6
CONTINUOUS
370
-3
390
F
  0
LAYER
  5
474
100
AcDbSymbolTableRecord
100
AcDbLayerTableRecord
  2
COLOR346
 70
0
 62
7
  6
CONTINUOUS
370
-3
390
F
  0
LAYER
  5
475
100
AcDbSymbolTableRecord
100
AcDbLayerTableRecord
  2
COLOR347
 70
0
 62
7
  6
CONTINUOUS
370
-3
390
F
  0
LAYER
  5
476
100
AcDbSymbolTableRecord
100
AcDbLayerTableRecord
  2
COLOR348
 70
0
 62
7
  6
CONTINUOUS
370
-3
390
F
  0
LAYER
  5
477
100
AcDbSymbolTableRecord
100
AcDbLayerTableRecord
  2
COLOR349
 70
0
 62
7
  6
CONTINUOUS
370
-3
390
F
  0
LAYER
  5
478
100
AcDbSymbolTableRecord
100
AcDbLayerTableRecord
  2
COLOR35
 70
0
 62
7
  6
CONTINUOUS
370
-3
390
F
  0
LAYER
  5
479
100
AcDbSymbolTableRecord
100
AcDbLayerTableRecord
  2
COLOR350
 70
0
 62
7
  6
CONTINUOUS
370
-3
390
F
  0
LAYER
  5
47A
100
AcDbSymbolTableRecord
100
AcDbLayerTableRecord
  2
COLOR351
 70
0
 62
7
  6
CONTINUOUS
370
-3
390
F
  0
LAYER
  5
47B
100
AcDbSymbolTableRecord
100
AcDbLayerTableRecord
  2
COLOR352
 70
0
 62
7
  6
CONTINUOUS
370
-3
390
F
  0
LAYER
  5
47C
100
AcDbSymbolTableRecord
100
AcDbLayerTableRecord
  2
COLOR353
 70
0
 62
7
  6
CONTINUOUS
370
-3
390
F
  0
LAYER
  5
47D
100
AcDbSymbolTableRecord
100
AcDbLayerTableRecord
  2
COLOR354
 70
0
 62
7
  6
CONTINUOUS
370
-3
390
F
  0
LAYER
  5
47E
100
AcDbSymbolTableRecord
100
AcDbLayerTableRecord
  2
COLOR355
 70
0
 62
7
  6
CONTINUOUS
370
-3
390
F
  0
LAYER
  5
47F
100
AcDbSymbolTableRecord
100
AcDbLayerTableRecord
  2
COLOR356
 70
0
 62
7
  6
CONTINUOUS
370
-3
390
F
  0
LAYER
  5
480
100
AcDbSymbolTableRecord
100
AcDbLayerTableRecord
  2
COLOR357
 70
0
 62
7
  6
CONTINUOUS
370
-3
390
F
  0
LAYER
  5
481
100
AcDbSymbolTableRecord
100
AcDbLayerTableRecord
  2
COLOR358
 70
0
 62
7
  6
CONTINUOUS
370
-3
390
F
  0
LAYER
  5
482
100
AcDbSymbolTableRecord
100
AcDbLayerTableRecord
  2
COLOR359
 70
0
 62
7
  6
CONTINUOUS
370
-3
390
F
  0
LAYER
  5
483
100
AcDbSymbolTableRecord
100
AcDbLayerTableRecord
  2
COLOR36
 70
0
 62
7
  6
CONTINUOUS
370
-3
390
F
  0
LAYER
  5
484
100
AcDbSymbolTableRecord
100
AcDbLayerTableRecord
  2
COLOR360
 70
0
 62
7
  6
CONTINUOUS
370
-3
390
F
  0
LAYER
  5
485
100
AcDbSymbolTableRecord
100
AcDbLayerTableRecord
  2
COLOR361
 70
0
 62
7
  6
CONTINUOUS
370
-3
390
F
  0
LAYER
  5
486
100
AcDbSymbolTableRecord
100
AcDbLayerTableRecord
  2
COLOR362
 70
0
 62
7
  6
CONTINUOUS
370
-3
390
F
  0
LAYER
  5
487
100
AcDbSymbolTableRecord
100
AcDbLayerTableRecord
  2
COLOR363
 70
0
 62
7
  6
CONTINUOUS
370
-3
390
F
  0
LAYER
  5
488
100
AcDbSymbolTableRecord
100
AcDbLayerTableRecord
  2
COLOR364
 70
0
 62
7
  6
CONTINUOUS
370
-3
390
F
  0
LAYER
  5
489
100
AcDbSymbolTableRecord
100
AcDbLayerTableRecord
  2
COLOR365
 70
0
 62
7
  6
CONTINUOUS
370
-3
390
F
  0
LAYER
  5
48A
100
AcDbSymbolTableRecord
100
AcDbLayerTableRecord
  2
COLOR366
 70
0
 62
7
  6
CONTINUOUS
370
-3
390
F
  0
LAYER
  5
48B
100
AcDbSymbolTableRecord
100
AcDbLayerTableRecord
  2
COLOR367
 70
0
 62
7
  6
CONTINUOUS
370
-3
390
F
  0
LAYER
  5
48C
100
AcDbSymbolTableRecord
100
AcDbLayerTableRecord
  2
COLOR368
 70
0
 62
7
  6
CONTINUOUS
370
-3
390
F
  0
LAYER
  5
48D
100
AcDbSymbolTableRecord
100
AcDbLayerTableRecord
  2
COLOR369
 70
0
 62
7
  6
CONTINUOUS
370
-3
390
F
  0
LAYER
  5
48E
100
AcDbSymbolTableRecord
100
AcDbLayerTableRecord
  2
COLOR37
 70
0
 62
7
  6
CONTINUOUS
370
-3
390
F
  0
LAYER
  5
48F
100
AcDbSymbolTableRecord
100
AcDbLayerTableRecord
  2
COLOR370
 70
0
 62
7
  6
CONTINUOUS
370
-3
390
F
  0
LAYER
  5
490
100
AcDbSymbolTableRecord
100
AcDbLayerTableRecord
  2
COLOR371
 70
0
 62
7
  6
CONTINUOUS
370
-3
390
F
  0
LAYER
  5
491
100
AcDbSymbolTableRecord
100
AcDbLayerTableRecord
  2
COLOR372
 70
0
 62
7
  6
CONTINUOUS
370
-3
390
F
  0
LAYER
  5
492
100
AcDbSymbolTableRecord
100
AcDbLayerTableRecord
  2
COLOR373
 70
0
 62
7
  6
CONTINUOUS
370
-3
390
F
  0
LAYER
  5
493
100
AcDbSymbolTableRecord
100
AcDbLayerTableRecord
  2
COLOR374
 70
0
 62
7
  6
CONTINUOUS
370
-3
390
F
  0
LAYER
  5
494
100
AcDbSymbolTableRecord
100
AcDbLayerTableRecord
  2
COLOR375
 70
0
 62
7
  6
CONTINUOUS
370
-3
390
F
  0
LAYER
  5
495
100
AcDbSymbolTableRecord
100
AcDbLayerTableRecord
  2
COLOR376
 70
0
 62
7
  6
CONTINUOUS
370
-3
390
F
  0
LAYER
  5
496
100
AcDbSymbolTableRecord
100
AcDbLayerTableRecord
  2
COLOR377
 70
0
 62
7
  6
CONTINUOUS
370
-3
390
F
  0
LAYER
  5
497
100
AcDbSymbolTableRecord
100
AcDbLayerTableRecord
  2
COLOR378
 70
0
 62
7
  6
CONTINUOUS
370
-3
390
F
  0
LAYER
  5
498
100
AcDbSymbolTableRecord
100
AcDbLayerTableRecord
  2
COLOR379
 70
0
 62
7
  6
CONTINUOUS
370
-3
390
F
  0
LAYER
  5
499
100
AcDbSymbolTableRecord
100
AcDbLayerTableRecord
  2
COLOR38
 70
0
 62
7
  6
CONTINUOUS
370
-3
390
F
  0
LAYER
  5
49A
100
AcDbSymbolTableRecord
100
AcDbLayerTableRecord
  2
COLOR380
 70
0
 62
7
  6
CONTINUOUS
370
-3
390
F
  0
LAYER
  5
49B
100
AcDbSymbolTableRecord
100
AcDbLayerTableRecord
  2
COLOR381
 70
0
 62
7
  6
CONTINUOUS
370
-3
390
F
  0
LAYER
  5
49C
100
AcDbSymbolTableRecord
100
AcDbLayerTableRecord
  2
COLOR382
 70
0
 62
7
  6
CONTINUOUS
370
-3
390
F
  0
LAYER
  5
49D
100
AcDbSymbolTableRecord
100
AcDbLayerTableRecord
  2
COLOR383
 70
0
 62
7
  6
CONTINUOUS
370
-3
390
F
  0
LAYER
  5
49E
100
AcDbSymbolTableRecord
100
AcDbLayerTableRecord
  2
COLOR384
 70
0
 62
7
  6
CONTINUOUS
370
-3
390
F
  0
LAYER
  5
49F
100
AcDbSymbolTableRecord
100
AcDbLayerTableRecord
  2
COLOR385
 70
0
 62
7
  6
CONTINUOUS
370
-3
390
F
  0
LAYER
  5
4A0
100
AcDbSymbolTableRecord
100
AcDbLayerTableRecord
  2
COLOR386
 70
0
 62
7
  6
CONTINUOUS
370
-3
390
F
  0
LAYER
  5
4A1
100
AcDbSymbolTableRecord
100
AcDbLayerTableRecord
  2
COLOR387
 70
0
 62
7
  6
CONTINUOUS
370
-3
390
F
  0
LAYER
  5
4A2
100
AcDbSymbolTableRecord
100
AcDbLayerTableRecord
  2
COLOR388
 70
0
 62
7
  6
CONTINUOUS
370
-3
390
F
  0
LAYER
  5
4A3
100
AcDbSymbolTableRecord
100
AcDbLayerTableRecord
  2
COLOR389
 70
0
 62
7
  6
CONTINUOUS
370
-3
390
F
  0
LAYER
  5
4A4
100
AcDbSymbolTableRecord
100
AcDbLayerTableRecord
  2
COLOR39
 70
0
 62
7
  6
CONTINUOUS
370
-3
390
F
  0
LAYER
  5
4A5
100
AcDbSymbolTableRecord
100
AcDbLayerTableRecord
  2
COLOR390
 70
0
 62
7
  6
CONTINUOUS
370
-3
390
F
  0
LAYER
  5
4A6
100
AcDbSymbolTableRecord
100
AcDbLayerTableRecord
  2
COLOR392
 70
0
 62
7
  6
CONTINUOUS
370
-3
390
F
  0
LAYER
  5
4A7
100
AcDbSymbolTableRecord
100
AcDbLayerTableRecord
  2
COLOR393
 70
0
 62
7
  6
CONTINUOUS
370
-3
390
F
  0
LAYER
  5
4A8
100
AcDbSymbolTableRecord
100
AcDbLayerTableRecord
  2
COLOR394
 70
0
 62
7
  6
CONTINUOUS
370
-3
390
F
  0
LAYER
  5
4A9
100
AcDbSymbolTableRecord
100
AcDbLayerTableRecord
  2
COLOR395
 70
0
 62
7
  6
CONTINUOUS
370
-3
390
F
  0
LAYER
  5
4AA
100
AcDbSymbolTableRecord
100
AcDbLayerTableRecord
  2
COLOR396
 70
0
 62
7
  6
CONTINUOUS
370
-3
390
F
  0
LAYER
  5
4AB
100
AcDbSymbolTableRecord
100
AcDbLayerTableRecord
  2
COLOR397
 70
0
 62
7
  6
CONTINUOUS
370
-3
390
F
  0
LAYER
  5
4AC
100
AcDbSymbolTableRecord
100
AcDbLayerTableRecord
  2
COLOR398
 70
0
 62
7
  6
CONTINUOUS
370
-3
390
F
  0
LAYER
  5
4AD
100
AcDbSymbolTableRecord
100
AcDbLayerTableRecord
  2
COLOR399
 70
0
 62
7
  6
CONTINUOUS
370
-3
390
F
  0
LAYER
  5
4AE
100
AcDbSymbolTableRecord
100
AcDbLayerTableRecord
  2
COLOR4
 70
0
 62
7
  6
CONTINUOUS
370
-3
390
F
  0
LAYER
  5
4AF
100
AcDbSymbolTableRecord
100
AcDbLayerTableRecord
  2
COLOR40
 70
0
 62
7
  6
CONTINUOUS
370
-3
390
F
  0
LAYER
  5
4B0
100
AcDbSymbolTableRecord
100
AcDbLayerTableRecord
  2
COLOR400
 70
0
 62
7
  6
CONTINUOUS
370
-3
390
F
  0
LAYER
  5
4B1
100
AcDbSymbolTableRecord
100
AcDbLayerTableRecord
  2
COLOR401
 70
0
 62
7
  6
CONTINUOUS
370
-3
390
F
  0
LAYER
  5
4B2
100
AcDbSymbolTableRecord
100
AcDbLayerTableRecord
  2
COLOR402
 70
0
 62
7
  6
CONTINUOUS
370
-3
390
F
  0
LAYER
  5
4B3
100
AcDbSymbolTableRecord
100
AcDbLayerTableRecord
  2
COLOR403
 70
0
 62
7
  6
CONTINUOUS
370
-3
390
F
  0
LAYER
  5
4B4
100
AcDbSymbolTableRecord
100
AcDbLayerTableRecord
  2
COLOR404
 70
0
 62
7
  6
CONTINUOUS
370
-3
390
F
  0
LAYER
  5
4B5
100
AcDbSymbolTableRecord
100
AcDbLayerTableRecord
  2
COLOR405
 70
0
 62
7
  6
CONTINUOUS
370
-3
390
F
  0
LAYER
  5
4B6
100
AcDbSymbolTableRecord
100
AcDbLayerTableRecord
  2
COLOR406
 70
0
 62
7
  6
CONTINUOUS
370
-3
390
F
  0
LAYER
  5
4B7
100
AcDbSymbolTableRecord
100
AcDbLayerTableRecord
  2
COLOR407
 70
0
 62
7
  6
CONTINUOUS
370
-3
390
F
  0
LAYER
  5
4B8
100
AcDbSymbolTableRecord
100
AcDbLayerTableRecord
  2
COLOR408
 70
0
 62
7
  6
CONTINUOUS
370
-3
390
F
  0
LAYER
  5
4B9
100
AcDbSymbolTableRecord
100
AcDbLayerTableRecord
  2
COLOR409
 70
0
 62
7
  6
CONTINUOUS
370
-3
390
F
  0
LAYER
  5
4BA
100
AcDbSymbolTableRecord
100
AcDbLayerTableRecord
  2
COLOR41
 70
0
 62
7
  6
CONTINUOUS
370
-3
390
F
  0
LAYER
  5
4BB
100
AcDbSymbolTableRecord
100
AcDbLayerTableRecord
  2
COLOR410
 70
0
 62
7
  6
CONTINUOUS
370
-3
390
F
  0
LAYER
  5
4BC
100
AcDbSymbolTableRecord
100
AcDbLayerTableRecord
  2
COLOR411
 70
0
 62
7
  6
CONTINUOUS
370
-3
390
F
  0
LAYER
  5
4BD
100
AcDbSymbolTableRecord
100
AcDbLayerTableRecord
  2
COLOR412
 70
0
 62
7
  6
CONTINUOUS
370
-3
390
F
  0
LAYER
  5
4BE
100
AcDbSymbolTableRecord
100
AcDbLayerTableRecord
  2
COLOR413
 70
0
 62
7
  6
CONTINUOUS
370
-3
390
F
  0
LAYER
  5
4BF
100
AcDbSymbolTableRecord
100
AcDbLayerTableRecord
  2
COLOR414
 70
0
 62
7
  6
CONTINUOUS
370
-3
390
F
  0
LAYER
  5
4C0
100
AcDbSymbolTableRecord
100
AcDbLayerTableRecord
  2
COLOR415
 70
0
 62
7
  6
CONTINUOUS
370
-3
390
F
  0
LAYER
  5
4C1
100
AcDbSymbolTableRecord
100
AcDbLayerTableRecord
  2
COLOR416
 70
0
 62
7
  6
CONTINUOUS
370
-3
390
F
  0
LAYER
  5
4C2
100
AcDbSymbolTableRecord
100
AcDbLayerTableRecord
  2
COLOR417
 70
0
 62
7
  6
CONTINUOUS
370
-3
390
F
  0
LAYER
  5
4C3
100
AcDbSymbolTableRecord
100
AcDbLayerTableRecord
  2
COLOR418
 70
0
 62
7
  6
CONTINUOUS
370
-3
390
F
  0
LAYER
  5
4C4
100
AcDbSymbolTableRecord
100
AcDbLayerTableRecord
  2
COLOR419
 70
0
 62
7
  6
CONTINUOUS
370
-3
390
F
  0
LAYER
  5
4C5
100
AcDbSymbolTableRecord
100
AcDbLayerTableRecord
  2
COLOR42
 70
0
 62
7
  6
CONTINUOUS
370
-3
390
F
  0
LAYER
  5
4C6
100
AcDbSymbolTableRecord
100
AcDbLayerTableRecord
  2
COLOR420
 70
0
 62
7
  6
CONTINUOUS
370
-3
390
F
  0
LAYER
  5
4C7
100
AcDbSymbolTableRecord
100
AcDbLayerTableRecord
  2
COLOR421
 70
0
 62
7
  6
CONTINUOUS
370
-3
390
F
  0
LAYER
  5
4C8
100
AcDbSymbolTableRecord
100
AcDbLayerTableRecord
  2
COLOR422
 70
0
 62
7
  6
CONTINUOUS
370
-3
390
F
  0
LAYER
  5
4C9
100
AcDbSymbolTableRecord
100
AcDbLayerTableRecord
  2
COLOR423
 70
0
 62
7
  6
CONTINUOUS
370
-3
390
F
  0
LAYER
  5
4CA
100
AcDbSymbolTableRecord
100
AcDbLayerTableRecord
  2
COLOR424
 70
0
 62
7
  6
CONTINUOUS
370
-3
390
F
  0
LAYER
  5
4CB
100
AcDbSymbolTableRecord
100
AcDbLayerTableRecord
  2
COLOR425
 70
0
 62
7
  6
CONTINUOUS
370
-3
390
F
  0
LAYER
  5
4CC
100
AcDbSymbolTableRecord
100
AcDbLayerTableRecord
  2
COLOR426
 70
0
 62
7
  6
CONTINUOUS
370
-3
390
F
  0
LAYER
  5
4CD
100
AcDbSymbolTableRecord
100
AcDbLayerTableRecord
  2
COLOR427
 70
0
 62
7
  6
CONTINUOUS
370
-3
390
F
  0
LAYER
  5
4CE
100
AcDbSymbolTableRecord
100
AcDbLayerTableRecord
  2
COLOR428
 70
0
 62
7
  6
CONTINUOUS
370
-3
390
F
  0
LAYER
  5
4CF
100
AcDbSymbolTableRecord
100
AcDbLayerTableRecord
  2
COLOR429
 70
0
 62
7
  6
CONTINUOUS
370
-3
390
F
  0
LAYER
  5
4D0
100
AcDbSymbolTableRecord
100
AcDbLayerTableRecord
  2
COLOR43
 70
0
 62
7
  6
CONTINUOUS
370
-3
390
F
  0
LAYER
  5
4D1
100
AcDbSymbolTableRecord
100
AcDbLayerTableRecord
  2
COLOR430
 70
0
 62
7
  6
CONTINUOUS
370
-3
390
F
  0
LAYER
  5
4D2
100
AcDbSymbolTableRecord
100
AcDbLayerTableRecord
  2
COLOR431
 70
0
 62
7
  6
CONTINUOUS
370
-3
390
F
  0
LAYER
  5
4D3
100
AcDbSymbolTableRecord
100
AcDbLayerTableRecord
  2
COLOR432
 70
0
 62
7
  6
CONTINUOUS
370
-3
390
F
  0
LAYER
  5
4D4
100
AcDbSymbolTableRecord
100
AcDbLayerTableRecord
  2
COLOR433
 70
0
 62
7
  6
CONTINUOUS
370
-3
390
F
  0
LAYER
  5
4D5
100
AcDbSymbolTableRecord
100
AcDbLayerTableRecord
  2
COLOR434
 70
0
 62
7
  6
CONTINUOUS
370
-3
390
F
  0
LAYER
  5
4D6
100
AcDbSymbolTableRecord
100
AcDbLayerTableRecord
  2
COLOR435
 70
0
 62
7
  6
CONTINUOUS
370
-3
390
F
  0
LAYER
  5
4D7
100
AcDbSymbolTableRecord
100
AcDbLayerTableRecord
  2
COLOR436
 70
0
 62
7
  6
CONTINUOUS
370
-3
390
F
  0
LAYER
  5
4D8
100
AcDbSymbolTableRecord
100
AcDbLayerTableRecord
  2
COLOR437
 70
0
 62
7
  6
CONTINUOUS
370
-3
390
F
  0
LAYER
  5
4D9
100
AcDbSymbolTableRecord
100
AcDbLayerTableRecord
  2
COLOR438
 70
0
 62
7
  6
CONTINUOUS
370
-3
390
F
  0
LAYER
  5
4DA
100
AcDbSymbolTableRecord
100
AcDbLayerTableRecord
  2
COLOR439
 70
0
 62
7
  6
CONTINUOUS
370
-3
390
F
  0
LAYER
  5
4DB
100
AcDbSymbolTableRecord
100
AcDbLayerTableRecord
  2
COLOR44
 70
0
 62
7
  6
CONTINUOUS
370
-3
390
F
  0
LAYER
  5
4DC
100
AcDbSymbolTableRecord
100
AcDbLayerTableRecord
  2
COLOR440
 70
0
 62
7
  6
CONTINUOUS
370
-3
390
F
  0
LAYER
  5
4DD
100
AcDbSymbolTableRecord
100
AcDbLayerTableRecord
  2
COLOR441
 70
0
 62
7
  6
CONTINUOUS
370
-3
390
F
  0
LAYER
  5
4DE
100
AcDbSymbolTableRecord
100
AcDbLayerTableRecord
  2
COLOR442
 70
0
 62
7
  6
CONTINUOUS
370
-3
390
F
  0
LAYER
  5
4DF
100
AcDbSymbolTableRecord
100
AcDbLayerTableRecord
  2
COLOR443
 70
0
 62
7
  6
CONTINUOUS
370
-3
390
F
  0
LAYER
  5
4E0
100
AcDbSymbolTableRecord
100
AcDbLayerTableRecord
  2
COLOR444
 70
0
 62
7
  6
CONTINUOUS
370
-3
390
F
  0
LAYER
  5
4E1
100
AcDbSymbolTableRecord
100
AcDbLayerTableRecord
  2
COLOR446
 70
0
 62
7
  6
CONTINUOUS
370
-3
390
F
  0
LAYER
  5
4E2
100
AcDbSymbolTableRecord
100
AcDbLayerTableRecord
  2
COLOR447
 70
0
 62
7
  6
CONTINUOUS
370
-3
390
F
  0
LAYER
  5
4E3
100
AcDbSymbolTableRecord
100
AcDbLayerTableRecord
  2
COLOR448
 70
0
 62
7
  6
CONTINUOUS
370
-3
390
F
  0
LAYER
  5
4E4
100
AcDbSymbolTableRecord
100
AcDbLayerTableRecord
  2
COLOR449
 70
0
 62
7
  6
CONTINUOUS
370
-3
390
F
  0
LAYER
  5
4E5
100
AcDbSymbolTableRecord
100
AcDbLayerTableRecord
  2
COLOR45
 70
0
 62
7
  6
CONTINUOUS
370
-3
390
F
  0
LAYER
  5
4E6
100
AcDbSymbolTableRecord
100
AcDbLayerTableRecord
  2
COLOR450
 70
0
 62
7
  6
CONTINUOUS
370
-3
390
F
  0
LAYER
  5
4E7
100
AcDbSymbolTableRecord
100
AcDbLayerTableRecord
  2
COLOR451
 70
0
 62
7
  6
CONTINUOUS
370
-3
390
F
  0
LAYER
  5
4E8
100
AcDbSymbolTableRecord
100
AcDbLayerTableRecord
  2
COLOR452
 70
0
 62
7
  6
CONTINUOUS
370
-3
390
F
  0
LAYER
  5
4E9
100
AcDbSymbolTableRecord
100
AcDbLayerTableRecord
  2
COLOR453
 70
0
 62
7
  6
CONTINUOUS
370
-3
390
F
  0
LAYER
  5
4EA
100
AcDbSymbolTableRecord
100
AcDbLayerTableRecord
  2
COLOR454
 70
0
 62
7
  6
CONTINUOUS
370
-3
390
F
  0
LAYER
  5
4EB
100
AcDbSymbolTableRecord
100
AcDbLayerTableRecord
  2
COLOR455
 70
0
 62
7
  6
CONTINUOUS
370
-3
390
F
  0
LAYER
  5
4EC
100
AcDbSymbolTableRecord
100
AcDbLayerTableRecord
  2
COLOR456
 70
0
 62
7
  6
CONTINUOUS
370
-3
390
F
  0
LAYER
  5
4ED
100
AcDbSymbolTableRecord
100
AcDbLayerTableRecord
  2
COLOR457
 70
0
 62
7
  6
CONTINUOUS
370
-3
390
F
  0
LAYER
  5
4EE
100
AcDbSymbolTableRecord
100
AcDbLayerTableRecord
  2
COLOR458
 70
0
 62
7
  6
CONTINUOUS
370
-3
390
F
  0
LAYER
  5
4EF
100
AcDbSymbolTableRecord
100
AcDbLayerTableRecord
  2
COLOR459
 70
0
 62
7
  6
CONTINUOUS
370
-3
390
F
  0
LAYER
  5
4F0
100
AcDbSymbolTableRecord
100
AcDbLayerTableRecord
  2
COLOR46
 70
0
 62
7
  6
CONTINUOUS
370
-3
390
F
  0
LAYER
  5
4F1
100
AcDbSymbolTableRecord
100
AcDbLayerTableRecord
  2
COLOR460
 70
0
 62
7
  6
CONTINUOUS
370
-3
390
F
  0
LAYER
  5
4F2
100
AcDbSymbolTableRecord
100
AcDbLayerTableRecord
  2
COLOR461
 70
0
 62
7
  6
CONTINUOUS
370
-3
390
F
  0
LAYER
  5
4F3
100
AcDbSymbolTableRecord
100
AcDbLayerTableRecord
  2
COLOR462
 70
0
 62
7
  6
CONTINUOUS
370
-3
390
F
  0
LAYER
  5
4F4
100
AcDbSymbolTableRecord
100
AcDbLayerTableRecord
  2
COLOR463
 70
0
 62
7
  6
CONTINUOUS
370
-3
390
F
  0
LAYER
  5
4F5
100
AcDbSymbolTableRecord
100
AcDbLayerTableRecord
  2
COLOR464
 70
0
 62
7
  6
CONTINUOUS
370
-3
390
F
  0
LAYER
  5
4F6
100
AcDbSymbolTableRecord
100
AcDbLayerTableRecord
  2
COLOR465
 70
0
 62
7
  6
CONTINUOUS
370
-3
390
F
  0
LAYER
  5
4F7
100
AcDbSymbolTableRecord
100
AcDbLayerTableRecord
  2
COLOR466
 70
0
 62
7
  6
CONTINUOUS
370
-3
390
F
  0
LAYER
  5
4F8
100
AcDbSymbolTableRecord
100
AcDbLayerTableRecord
  2
COLOR467
 70
0
 62
7
  6
CONTINUOUS
370
-3
390
F
  0
LAYER
  5
4F9
100
AcDbSymbolTableRecord
100
AcDbLayerTableRecord
  2
COLOR468
 70
0
 62
7
  6
CONTINUOUS
370
-3
390
F
  0
LAYER
  5
4FA
100
AcDbSymbolTableRecord
100
AcDbLayerTableRecord
  2
COLOR469
 70
0
 62
7
  6
CONTINUOUS
370
-3
390
F
  0
LAYER
  5
4FB
100
AcDbSymbolTableRecord
100
AcDbLayerTableRecord
  2
COLOR47
 70
0
 62
7
  6
CONTINUOUS
370
-3
390
F
  0
LAYER
  5
4FC
100
AcDbSymbolTableRecord
100
AcDbLayerTableRecord
  2
COLOR470
 70
0
 62
7
  6
CONTINUOUS
370
-3
390
F
  0
LAYER
  5
4FD
100
AcDbSymbolTableRecord
100
AcDbLayerTableRecord
  2
COLOR471
 70
0
 62
7
  6
CONTINUOUS
370
-3
390
F
  0
LAYER
  5
4FE
100
AcDbSymbolTableRecord
100
AcDbLayerTableRecord
  2
COLOR472
 70
0
 62
7
  6
CONTINUOUS
370
-3
390
F
  0
LAYER
  5
4FF
100
AcDbSymbolTableRecord
100
AcDbLayerTableRecord
  2
COLOR473
 70
0
 62
7
  6
CONTINUOUS
370
-3
390
F
  0
LAYER
  5
500
100
AcDbSymbolTableRecord
100
AcDbLayerTableRecord
  2
COLOR474
 70
0
 62
7
  6
CONTINUOUS
370
-3
390
F
  0
LAYER
  5
501
100
AcDbSymbolTableRecord
100
AcDbLayerTableRecord
  2
COLOR48
 70
0
 62
7
  6
CONTINUOUS
370
-3
390
F
  0
LAYER
  5
502
100
AcDbSymbolTableRecord
100
AcDbLayerTableRecord
  2
COLOR49
 70
0
 62
7
  6
CONTINUOUS
370
-3
390
F
  0
LAYER
  5
503
100
AcDbSymbolTableRecord
100
AcDbLayerTableRecord
  2
COLOR5
 70
0
 62
7
  6
CONTINUOUS
370
-3
390
F
  0
LAYER
  5
504
100
AcDbSymbolTableRecord
100
AcDbLayerTableRecord
  2
COLOR50
 70
0
 62
7
  6
CONTINUOUS
370
-3
390
F
  0
LAYER
  5
505
100
AcDbSymbolTableRecord
100
AcDbLayerTableRecord
  2
COLOR51
 70
0
 62
7
  6
CONTINUOUS
370
-3
390
F
  0
LAYER
  5
506
100
AcDbSymbolTableRecord
100
AcDbLayerTableRecord
  2
COLOR52
 70
0
 62
7
  6
CONTINUOUS
370
-3
390
F
  0
LAYER
  5
507
100
AcDbSymbolTableRecord
100
AcDbLayerTableRecord
  2
COLOR53
 70
0
 62
7
  6
CONTINUOUS
370
-3
390
F
  0
LAYER
  5
508
100
AcDbSymbolTableRecord
100
AcDbLayerTableRecord
  2
COLOR54
 70
0
 62
7
  6
CONTINUOUS
370
-3
390
F
  0
LAYER
  5
509
100
AcDbSymbolTableRecord
100
AcDbLayerTableRecord
  2
COLOR55
 70
0
 62
7
  6
CONTINUOUS
370
-3
390
F
  0
LAYER
  5
50A
100
AcDbSymbolTableRecord
100
AcDbLayerTableRecord
  2
COLOR56
 70
0
 62
7
  6
CONTINUOUS
370
-3
390
F
  0
LAYER
  5
50B
100
AcDbSymbolTableRecord
100
AcDbLayerTableRecord
  2
COLOR57
 70
0
 62
7
  6
CONTINUOUS
370
-3
390
F
  0
LAYER
  5
50C
100
AcDbSymbolTableRecord
100
AcDbLayerTableRecord
  2
COLOR58
 70
0
 62
7
  6
CONTINUOUS
370
-3
390
F
  0
LAYER
  5
50D
100
AcDbSymbolTableRecord
100
AcDbLayerTableRecord
  2
COLOR59
 70
0
 62
7
  6
CONTINUOUS
370
-3
390
F
  0
LAYER
  5
50E
100
AcDbSymbolTableRecord
100
AcDbLayerTableRecord
  2
COLOR60
 70
0
 62
7
  6
CONTINUOUS
370
-3
390
F
  0
LAYER
  5
50F
100
AcDbSymbolTableRecord
100
AcDbLayerTableRecord
  2
COLOR61
 70
0
 62
7
  6
CONTINUOUS
370
-3
390
F
  0
LAYER
  5
510
100
AcDbSymbolTableRecord
100
AcDbLayerTableRecord
  2
COLOR62
 70
0
 62
7
  6
CONTINUOUS
370
-3
390
F
  0
LAYER
  5
511
100
AcDbSymbolTableRecord
100
AcDbLayerTableRecord
  2
COLOR63
 70
0
 62
7
  6
CONTINUOUS
370
-3
390
F
  0
LAYER
  5
512
100
AcDbSymbolTableRecord
100
AcDbLayerTableRecord
  2
COLOR64
 70
0
 62
7
  6
CONTINUOUS
370
-3
390
F
  0
LAYER
  5
513
100
AcDbSymbolTableRecord
100
AcDbLayerTableRecord
  2
COLOR65
 70
0
 62
7
  6
CONTINUOUS
370
-3
390
F
  0
LAYER
  5
514
100
AcDbSymbolTableRecord
100
AcDbLayerTableRecord
  2
COLOR66
 70
0
 62
7
  6
CONTINUOUS
370
-3
390
F
  0
LAYER
  5
515
100
AcDbSymbolTableRecord
100
AcDbLayerTableRecord
  2
COLOR68
 70
0
 62
7
  6
CONTINUOUS
370
-3
390
F
  0
LAYER
  5
516
100
AcDbSymbolTableRecord
100
AcDbLayerTableRecord
  2
COLOR69
 70
0
 62
7
  6
CONTINUOUS
370
-3
390
F
  0
LAYER
  5
517
100
AcDbSymbolTableRecord
100
AcDbLayerTableRecord
  2
COLOR70
 70
0
 62
7
  6
CONTINUOUS
370
-3
390
F
  0
LAYER
  5
518
100
AcDbSymbolTableRecord
100
AcDbLayerTableRecord
  2
COLOR73
 70
0
 62
7
  6
CONTINUOUS
370
-3
390
F
  0
LAYER
  5
519
100
AcDbSymbolTableRecord
100
AcDbLayerTableRecord
  2
COLOR75
 70
0
 62
7
  6
CONTINUOUS
370
-3
390
F
  0
LAYER
  5
51A
100
AcDbSymbolTableRecord
100
AcDbLayerTableRecord
  2
COLOR81
 70
0
 62
7
  6
CONTINUOUS
370
-3
390
F
  0
LAYER
  5
51B
100
AcDbSymbolTableRecord
100
AcDbLayerTableRecord
  2
COLOR82
 70
0
 62
7
  6
CONTINUOUS
370
-3
390
F
  0
LAYER
  5
51C
100
AcDbSymbolTableRecord
100
AcDbLayerTableRecord
  2
COLOR83
 70
0
 62
7
  6
CONTINUOUS
370
-3
390
F
  0
LAYER
  5
51D
100
AcDbSymbolTableRecord
100
AcDbLayerTableRecord
  2
COLOR84
 70
0
 62
7
  6
CONTINUOUS
370
-3
390
F
  0
LAYER
  5
51E
100
AcDbSymbolTableRecord
100
AcDbLayerTableRecord
  2
COLOR85
 70
0
 62
7
  6
CONTINUOUS
370
-3
390
F
  0
LAYER
  5
51F
100
AcDbSymbolTableRecord
100
AcDbLayerTableRecord
  2
COLOR86
 70
0
 62
7
  6
CONTINUOUS
370
-3
390
F
  0
LAYER
  5
520
100
AcDbSymbolTableRecord
100
AcDbLayerTableRecord
  2
COLOR87
 70
0
 62
7
  6
CONTINUOUS
370
-3
390
F
  0
LAYER
  5
521
100
AcDbSymbolTableRecord
100
AcDbLayerTableRecord
  2
COLOR88
 70
0
 62
7
  6
CONTINUOUS
370
-3
390
F
  0
LAYER
  5
522
100
AcDbSymbolTableRecord
100
AcDbLayerTableRecord
  2
COLOR89
 70
0
 62
7
  6
CONTINUOUS
370
-3
390
F
  0
LAYER
  5
523
100
AcDbSymbolTableRecord
100
AcDbLayerTableRecord
  2
COLOR90
 70
0
 62
7
  6
CONTINUOUS
370
-3
390
F
  0
LAYER
  5
524
100
AcDbSymbolTableRecord
100
AcDbLayerTableRecord
  2
COLOR91
 70
0
 62
7
  6
CONTINUOUS
370
-3
390
F
  0
LAYER
  5
525
100
AcDbSymbolTableRecord
100
AcDbLayerTableRecord
  2
COLOR92
 70
0
 62
7
  6
CONTINUOUS
370
-3
390
F
  0
LAYER
  5
526
100
AcDbSymbolTableRecord
100
AcDbLayerTableRecord
  2
COLOR93
 70
0
 62
7
  6
CONTINUOUS
370
-3
390
F
  0
LAYER
  5
527
100
AcDbSymbolTableRecord
100
AcDbLayerTableRecord
  2
COLOR94
 70
0
 62
7
  6
CONTINUOUS
370
-3
390
F
  0
LAYER
  5
528
100
AcDbSymbolTableRecord
100
AcDbLayerTableRecord
  2
COLOR95
 70
0
 62
7
  6
CONTINUOUS
370
-3
390
F
  0
LAYER
  5
529
100
AcDbSymbolTableRecord
100
AcDbLayerTableRecord
  2
COLOR96
 70
0
 62
7
  6
CONTINUOUS
370
-3
390
F
  0
LAYER
  5
52A
100
AcDbSymbolTableRecord
100
AcDbLayerTableRecord
  2
COLOR97
 70
0
 62
7
  6
CONTINUOUS
370
-3
390
F
  0
LAYER
  5
52B
100
AcDbSymbolTableRecord
100
AcDbLayerTableRecord
  2
COLOR98
 70
0
 62
7
  6
CONTINUOUS
370
-3
390
F
  0
LAYER
  5
52C
100
AcDbSymbolTableRecord
100
AcDbLayerTableRecord
  2
COLOR99
 70
0
 62
7
  6
CONTINUOUS
370
-3
390
F
  0
LAYER
  5
52D
100
AcDbSymbolTableRecord
100
AcDbLayerTableRecord
  2
COORDINATE
 70
0
 62
7
  6
CONTINUOUS
370
-3
390
F
  0
LAYER
  5
52E
100
AcDbSymbolTableRecord
100
AcDbLayerTableRecord
  2
COORD_ORIGINE
 70
0
 62
7
  6
CONTINUOUS
370
-3
390
F
  0
LAYER
  5
52F
100
AcDbSymbolTableRecord
100
AcDbLayerTableRecord
  2
COPY_PUBLISH
 70
0
 62
7
  6
CONTINUOUS
370
-3
390
F
  0
LAYER
  5
530
100
AcDbSymbolTableRecord
100
AcDbLayerTableRecord
  2
COSMETIC
 70
0
 62
7
  6
CONTINUOUS
370
-3
390
F
  0
LAYER
  5
531
100
AcDbSymbolTableRecord
100
AcDbLayerTableRecord
  2
COSMETICHE_FILETTO
 70
0
 62
7
  6
CONTINUOUS
370
-3
390
F
  0
LAYER
  5
532
100
AcDbSymbolTableRecord
100
AcDbLayerTableRecord
  2
COSMETICI
 70
0
 62
7
  6
CONTINUOUS
370
-3
390
F
  0
LAYER
  5
533
100
AcDbSymbolTableRecord
100
AcDbLayerTableRecord
  2
CR_CN3MP2_54_H6_STRIP_TET_TYPE_
 70
0
 62
7
  6
CONTINUOUS
370
-3
390
F
  0
LAYER
  5
534
100
AcDbSymbolTableRecord
100
AcDbLayerTableRecord
  2
CR_CN4MP1_5_H6_1_ZR_SM4_TET__50
 70
0
 62
7
  6
CONTINUOUS
370
-3
390
F
  0
LAYER
  5
535
100
AcDbSymbolTableRecord
100
AcDbLayerTableRecord
  2
CR_CN4MP2_54_H6_STRIP_TET_TYPE_
 70
0
 62
7
  6
CONTINUOUS
370
-3
390
F
  0
LAYER
  5
536
100
AcDbSymbolTableRecord
100
AcDbLayerTableRecord
  2
CR_CN8FP2X2_H4_3_STRIP_DUALROW_
 70
0
 62
7
  6
CONTINUOUS
370
-3
390
F
  0
LAYER
  5
537
100
AcDbSymbolTableRecord
100
AcDbLayerTableRecord
  2
CURVE
 70
0
 62
7
  6
CONTINUOUS
370
-3
390
F
  0
LAYER
  5
538
100
AcDbSymbolTableRecord
100
AcDbLayerTableRecord
  2
CURVE_X_DISEGNO
 70
0
 62
7
  6
CONTINUOUS
370
-3
390
F
  0
LAYER
  5
539
100
AcDbSymbolTableRecord
100
AcDbLayerTableRecord
  2
DATAMATRIX_RESIST_1000
 70
0
 62
7
  6
CONTINUOUS
370
-3
390
F
  0
LAYER
  5
53A
100
AcDbSymbolTableRecord
100
AcDbLayerTableRecord
  2
DATAMATRIX_RESIST_1000_1
 70
0
 62
7
  6
CONTINUOUS
370
-3
390
F
  0
LAYER
  5
53B
100
AcDbSymbolTableRecord
100
AcDbLayerTableRecord
  2
DB-SMD-TO-269AA_MBS_300000
 70
0
 62
7
  6
CONTINUOUS
370
-3
390
F
  0
LAYER
  5
53C
100
AcDbSymbolTableRecord
100
AcDbLayerTableRecord
  2
DIPSWITCH_2V_DIPTRONIC_DM-02-V-
 70
0
 62
7
  6
CONTINUOUS
370
-3
390
F
  0
LAYER
  5
53D
100
AcDbSymbolTableRecord
100
AcDbLayerTableRecord
  2
DO-214AB_NP_265000
 70
0
 62
7
  6
CONTINUOUS
370
-3
390
F
  0
LAYER
  5
53E
100
AcDbSymbolTableRecord
100
AcDbLayerTableRecord
  2
DPAK_TO252_240000
 70
0
 62
7
  6
CONTINUOUS
370
-3
390
F
  0
LAYER
  5
53F
100
AcDbSymbolTableRecord
100
AcDbLayerTableRecord
  2
DRAFT
 70
0
 62
7
  6
CONTINUOUS
370
-3
390
F
  0
LAYER
  5
540
100
AcDbSymbolTableRecord
100
AcDbLayerTableRecord
  2
ELEMENTI_DI_ANNOTAZIONE
 70
0
 62
7
  6
CONTINUOUS
370
-3
390
F
  0
LAYER
  5
541
100
AcDbSymbolTableRecord
100
AcDbLayerTableRecord
  2
ESD_SYMBOL_10000
 70
0
 62
7
  6
CONTINUOUS
370
-3
390
F
  0
LAYER
  5
542
100
AcDbSymbolTableRecord
100
AcDbLayerTableRecord
  2
FEATURE_CON_ASSI
 70
0
 62
7
  6
CONTINUOUS
370
-3
390
F
  0
LAYER
  5
543
100
AcDbSymbolTableRecord
100
AcDbLayerTableRecord
  2
FEATURE_DI_GUSCIO
 70
0
 62
7
  6
CONTINUOUS
370
-3
390
F
  0
LAYER
  5
544
100
AcDbSymbolTableRecord
100
AcDbLayerTableRecord
  2
FEATURE_DI_TAGLIO
 70
0
 62
7
  6
CONTINUOUS
370
-3
390
F
  0
LAYER
  5
545
100
AcDbSymbolTableRecord
100
AcDbLayerTableRecord
  2
FIDUCIAL_1MM_0
 70
0
 62
7
  6
CONTINUOUS
370
-3
390
F
  0
LAYER
  5
546
100
AcDbSymbolTableRecord
100
AcDbLayerTableRecord
  2
FIDUCIAL_1MM_0_1
 70
0
 62
7
  6
CONTINUOUS
370
-3
390
F
  0
LAYER
  5
547
100
AcDbSymbolTableRecord
100
AcDbLayerTableRecord
  2
FIDUCIAL_1MM_0_2
 70
0
 62
7
  6
CONTINUOUS
370
-3
390
F
  0
LAYER
  5
548
100
AcDbSymbolTableRecord
100
AcDbLayerTableRecord
  2
FIDUCIAL_1MM_0_3
 70
0
 62
7
  6
CONTINUOUS
370
-3
390
F
  0
LAYER
  5
549
100
AcDbSymbolTableRecord
100
AcDbLayerTableRecord
  2
FIDUCIAL_1_2_MM_RUOTATO_45_1000
 70
0
 62
7
  6
CONTINUOUS
370
-3
390
F
  0
LAYER
  5
54A
100
AcDbSymbolTableRecord
100
AcDbLayerTableRecord
  2
FIDUCIAL_1_2_MM_RUOTATO_45_10_1
 70
0
 62
7
  6
CONTINUOUS
370
-3
390
F
  0
LAYER
  5
54B
100
AcDbSymbolTableRecord
100
AcDbLayerTableRecord
  2
FIDUCIAL_1_2_MM_RUOTATO_45_10_2
 70
0
 62
7
  6
CONTINUOUS
370
-3
390
F
  0
LAYER
  5
54C
100
AcDbSymbolTableRecord
100
AcDbLayerTableRecord
  2
FIDUCIAL_1_2_MM_RUOTATO_45_10_3
 70
0
 62
7
  6
CONTINUOUS
370
-3
390
F
  0
LAYER
  5
54D
100
AcDbSymbolTableRecord
100
AcDbLayerTableRecord
  2
FORI
 70
0
 62
7
  6
CONTINUOUS
370
-3
390
F
  0
LAYER
  5
54E
100
AcDbSymbolTableRecord
100
AcDbLayerTableRecord
  2
FORI_FILETTATI
 70
0
 62
7
  6
CONTINUOUS
370
-3
390
F
  0
LAYER
  5
54F
100
AcDbSymbolTableRecord
100
AcDbLayerTableRecord
  2
GEOMETRIA_SOLIDA
 70
0
 62
7
  6
CONTINUOUS
370
-3
390
F
  0
LAYER
  5
550
100
AcDbSymbolTableRecord
100
AcDbLayerTableRecord
  2
GEOMETRIA_SOLIDA_1
 70
0
 62
7
  6
CONTINUOUS
370
-3
390
F
  0
LAYER
  5
551
100
AcDbSymbolTableRecord
100
AcDbLayerTableRecord
  2
GEOMETRIA_SOLIDA_10
 70
0
 62
7
  6
CONTINUOUS
370
-3
390
F
  0
LAYER
  5
552
100
AcDbSymbolTableRecord
100
AcDbLayerTableRecord
  2
GEOMETRIA_SOLIDA_11
 70
0
 62
7
  6
CONTINUOUS
370
-3
390
F
  0
LAYER
  5
553
100
AcDbSymbolTableRecord
100
AcDbLayerTableRecord
  2
GEOMETRIA_SOLIDA_12
 70
0
 62
7
  6
CONTINUOUS
370
-3
390
F
  0
LAYER
  5
554
100
AcDbSymbolTableRecord
100
AcDbLayerTableRecord
  2
GEOMETRIA_SOLIDA_13
 70
0
 62
7
  6
CONTINUOUS
370
-3
390
F
  0
LAYER
  5
555
100
AcDbSymbolTableRecord
100
AcDbLayerTableRecord
  2
GEOMETRIA_SOLIDA_14
 70
0
 62
7
  6
CONTINUOUS
370
-3
390
F
  0
LAYER
  5
556
100
AcDbSymbolTableRecord
100
AcDbLayerTableRecord
  2
GEOMETRIA_SOLIDA_15
 70
0
 62
7
  6
CONTINUOUS
370
-3
390
F
  0
LAYER
  5
557
100
AcDbSymbolTableRecord
100
AcDbLayerTableRecord
  2
GEOMETRIA_SOLIDA_16
 70
0
 62
7
  6
CONTINUOUS
370
-3
390
F
  0
LAYER
  5
558
100
AcDbSymbolTableRecord
100
AcDbLayerTableRecord
  2
GEOMETRIA_SOLIDA_17
 70
0
 62
7
  6
CONTINUOUS
370
-3
390
F
  0
LAYER
  5
559
100
AcDbSymbolTableRecord
100
AcDbLayerTableRecord
  2
GEOMETRIA_SOLIDA_18
 70
0
 62
7
  6
CONTINUOUS
370
-3
390
F
  0
LAYER
  5
55A
100
AcDbSymbolTableRecord
100
AcDbLayerTableRecord
  2
GEOMETRIA_SOLIDA_19
 70
0
 62
7
  6
CONTINUOUS
370
-3
390
F
  0
LAYER
  5
55B
100
AcDbSymbolTableRecord
100
AcDbLayerTableRecord
  2
GEOMETRIA_SOLIDA_2
 70
0
 62
7
  6
CONTINUOUS
370
-3
390
F
  0
LAYER
  5
55C
100
AcDbSymbolTableRecord
100
AcDbLayerTableRecord
  2
GEOMETRIA_SOLIDA_20
 70
0
 62
7
  6
CONTINUOUS
370
-3
390
F
  0
LAYER
  5
55D
100
AcDbSymbolTableRecord
100
AcDbLayerTableRecord
  2
GEOMETRIA_SOLIDA_21
 70
0
 62
7
  6
CONTINUOUS
370
-3
390
F
  0
LAYER
  5
55E
100
AcDbSymbolTableRecord
100
AcDbLayerTableRecord
  2
GEOMETRIA_SOLIDA_22
 70
0
 62
7
  6
CONTINUOUS
370
-3
390
F
  0
LAYER
  5
55F
100
AcDbSymbolTableRecord
100
AcDbLayerTableRecord
  2
GEOMETRIA_SOLIDA_23
 70
0
 62
7
  6
CONTINUOUS
370
-3
390
F
  0
LAYER
  5
560
100
AcDbSymbolTableRecord
100
AcDbLayerTableRecord
  2
GEOMETRIA_SOLIDA_24
 70
0
 62
7
  6
CONTINUOUS
370
-3
390
F
  0
LAYER
  5
561
100
AcDbSymbolTableRecord
100
AcDbLayerTableRecord
  2
GEOMETRIA_SOLIDA_25
 70
0
 62
7
  6
CONTINUOUS
370
-3
390
F
  0
LAYER
  5
562
100
AcDbSymbolTableRecord
100
AcDbLayerTableRecord
  2
GEOMETRIA_SOLIDA_26
 70
0
 62
7
  6
CONTINUOUS
370
-3
390
F
  0
LAYER
  5
563
100
AcDbSymbolTableRecord
100
AcDbLayerTableRecord
  2
GEOMETRIA_SOLIDA_27
 70
0
 62
7
  6
CONTINUOUS
370
-3
390
F
  0
LAYER
  5
564
100
AcDbSymbolTableRecord
100
AcDbLayerTableRecord
  2
GEOMETRIA_SOLIDA_28
 70
0
 62
7
  6
CONTINUOUS
370
-3
390
F
  0
LAYER
  5
565
100
AcDbSymbolTableRecord
100
AcDbLayerTableRecord
  2
GEOMETRIA_SOLIDA_29
 70
0
 62
7
  6
CONTINUOUS
370
-3
390
F
  0
LAYER
  5
566
100
AcDbSymbolTableRecord
100
AcDbLayerTableRecord
  2
GEOMETRIA_SOLIDA_3
 70
0
 62
7
  6
CONTINUOUS
370
-3
390
F
  0
LAYER
  5
567
100
AcDbSymbolTableRecord
100
AcDbLayerTableRecord
  2
GEOMETRIA_SOLIDA_30
 70
0
 62
7
  6
CONTINUOUS
370
-3
390
F
  0
LAYER
  5
568
100
AcDbSymbolTableRecord
100
AcDbLayerTableRecord
  2
GEOMETRIA_SOLIDA_31
 70
0
 62
7
  6
CONTINUOUS
370
-3
390
F
  0
LAYER
  5
569
100
AcDbSymbolTableRecord
100
AcDbLayerTableRecord
  2
GEOMETRIA_SOLIDA_4
 70
0
 62
7
  6
CONTINUOUS
370
-3
390
F
  0
LAYER
  5
56A
100
AcDbSymbolTableRecord
100
AcDbLayerTableRecord
  2
GEOMETRIA_SOLIDA_5
 70
0
 62
7
  6
CONTINUOUS
370
-3
390
F
  0
LAYER
  5
56B
100
AcDbSymbolTableRecord
100
AcDbLayerTableRecord
  2
GEOMETRIA_SOLIDA_6
 70
0
 62
7
  6
CONTINUOUS
370
-3
390
F
  0
LAYER
  5
56C
100
AcDbSymbolTableRecord
100
AcDbLayerTableRecord
  2
GEOMETRIA_SOLIDA_7
 70
0
 62
7
  6
CONTINUOUS
370
-3
390
F
  0
LAYER
  5
56D
100
AcDbSymbolTableRecord
100
AcDbLayerTableRecord
  2
GEOMETRIA_SOLIDA_8
 70
0
 62
7
  6
CONTINUOUS
370
-3
390
F
  0
LAYER
  5
56E
100
AcDbSymbolTableRecord
100
AcDbLayerTableRecord
  2
GEOMETRIA_SOLIDA_9
 70
0
 62
7
  6
CONTINUOUS
370
-3
390
F
  0
LAYER
  5
56F
100
AcDbSymbolTableRecord
100
AcDbLayerTableRecord
  2
IMPORT_IGES
 70
0
 62
7
  6
CONTINUOUS
370
-3
390
F
  0
LAYER
  5
570
100
AcDbSymbolTableRecord
100
AcDbLayerTableRecord
  2
IND-CM-9_2-6_0-5_0_520000
 70
0
 62
7
  6
CONTINUOUS
370
-3
390
F
  0
LAYER
  5
571
100
AcDbSymbolTableRecord
100
AcDbLayerTableRecord
  2
IND-PS-3_0-1_0_120000
 70
0
 62
7
  6
CONTINUOUS
370
-3
390
F
  0
LAYER
  5
572
100
AcDbSymbolTableRecord
100
AcDbLayerTableRecord
  2
IND-PS-5_8-2_8_300000
 70
0
 62
7
  6
CONTINUOUS
370
-3
390
F
  0
LAYER
  5
573
100
AcDbSymbolTableRecord
100
AcDbLayerTableRecord
  2
IND-PS-5_8-2_8_300000_1
 70
0
 62
7
  6
CONTINUOUS
370
-3
390
F
  0
LAYER
  5
574
100
AcDbSymbolTableRecord
100
AcDbLayerTableRecord
  2
INTF_1
 70
0
 62
7
  6
CONTINUOUS
370
-3
390
F
  0
LAYER
  5
575
100
AcDbSymbolTableRecord
100
AcDbLayerTableRecord
  2
INTF_11
 70
0
 62
7
  6
CONTINUOUS
370
-3
390
F
  0
LAYER
  5
576
100
AcDbSymbolTableRecord
100
AcDbLayerTableRecord
  2
INTF_2
 70
0
 62
7
  6
CONTINUOUS
370
-3
390
F
  0
LAYER
  5
577
100
AcDbSymbolTableRecord
100
AcDbLayerTableRecord
  2
INTF_5
 70
0
 62
7
  6
CONTINUOUS
370
-3
390
F
  0
LAYER
  5
578
100
AcDbSymbolTableRecord
100
AcDbLayerTableRecord
  2
INTF_7
 70
0
 62
7
  6
CONTINUOUS
370
-3
390
F
  0
LAYER
  5
579
100
AcDbSymbolTableRecord
100
AcDbLayerTableRecord
  2
INTF_9
 70
0
 62
7
  6
CONTINUOUS
370
-3
390
F
  0
LAYER
  5
57A
100
AcDbSymbolTableRecord
100
AcDbLayerTableRecord
  2
INTF_BLANK
 70
0
 62
7
  6
CONTINUOUS
370
-3
390
F
  0
LAYER
  5
57B
100
AcDbSymbolTableRecord
100
AcDbLayerTableRecord
  2
INTF_GREEN
 70
0
 62
7
  6
CONTINUOUS
370
-3
390
F
  0
LAYER
  5
57C
100
AcDbSymbolTableRecord
100
AcDbLayerTableRecord
  2
INTF_RED
 70
0
 62
7
  6
CONTINUOUS
370
-3
390
F
  0
LAYER
  5
57D
100
AcDbSymbolTableRecord
100
AcDbLayerTableRecord
  2
LAYER_11
 70
0
 62
7
  6
CONTINUOUS
370
-3
390
F
  0
LAYER
  5
57E
100
AcDbSymbolTableRecord
100
AcDbLayerTableRecord
  2
LED-THT-RND-3_0-5_8-2_54_600000
 70
0
 62
7
  6
CONTINUOUS
370
-3
390
F
  0
LAYER
  5
57F
100
AcDbSymbolTableRecord
100
AcDbLayerTableRecord
  2
LITTELFUSE_449_SERIES_269000
 70
0
 62
7
  6
CONTINUOUS
370
-3
390
F
  0
LAYER
  5
580
100
AcDbSymbolTableRecord
100
AcDbLayerTableRecord
  2
LIVELLO_1
 70
0
 62
7
  6
CONTINUOUS
370
-3
390
F
  0
LAYER
  5
581
100
AcDbSymbolTableRecord
100
AcDbLayerTableRecord
  2
LOGO_RESIST-RESTYLING_10000
 70
0
 62
7
  6
CONTINUOUS
370
-3
390
F
  0
LAYER
  5
582
100
AcDbSymbolTableRecord
100
AcDbLayerTableRecord
  2
LQFP48-7_0-7_0-9_0-9_0-1_6-0_5-
 70
0
 62
7
  6
CONTINUOUS
370
-3
390
F
  0
LAYER
  5
583
100
AcDbSymbolTableRecord
100
AcDbLayerTableRecord
  2
MIC_SMD_ST_MP23AB01DH_REF_11000
 70
0
 62
7
  6
CONTINUOUS
370
-3
390
F
  0
LAYER
  5
584
100
AcDbSymbolTableRecord
100
AcDbLayerTableRecord
  2
MSOP10-3_0-4_9-1_1-EXPAD-REF_11
 70
0
 62
7
  6
CONTINUOUS
370
-3
390
F
  0
LAYER
  5
585
100
AcDbSymbolTableRecord
100
AcDbLayerTableRecord
  2
NONE
 70
0
 62
7
  6
CONTINUOUS
370
-3
390
F
  0
LAYER
  5
586
100
AcDbSymbolTableRecord
100
AcDbLayerTableRecord
  2
NOTE
 70
0
 62
7
  6
CONTINUOUS
370
-3
390
F
  0
LAYER
  5
587
100
AcDbSymbolTableRecord
100
AcDbLayerTableRecord
  2
OPTO_K10104B_SOP4_500000
 70
0
 62
7
  6
CONTINUOUS
370
-3
390
F
  0
LAYER
  5
588
100
AcDbSymbolTableRecord
100
AcDbLayerTableRecord
  2
OPTO_K10104B_SOP4_500000_1
 70
0
 62
7
  6
CONTINUOUS
370
-3
390
F
  0
LAYER
  5
589
100
AcDbSymbolTableRecord
100
AcDbLayerTableRecord
  2
PIANI
 70
0
 62
7
  6
CONTINUOUS
370
-3
390
F
  0
LAYER
  5
58A
100
AcDbSymbolTableRecord
100
AcDbLayerTableRecord
  2
PIANI_DI_DEFAULT
 70
0
 62
7
  6
CONTINUOUS
370
-3
390
F
  0
LAYER
  5
58B
100
AcDbSymbolTableRecord
100
AcDbLayerTableRecord
  2
PIANI_DI_RIFERIMENTO_CREATI
 70
0
 62
7
  6
CONTINUOUS
370
-3
390
F
  0
LAYER
  5
58C
100
AcDbSymbolTableRecord
100
AcDbLayerTableRecord
  2
PIANI_ORIGINE
 70
0
 62
7
  6
CONTINUOUS
370
-3
390
F
  0
LAYER
  5
58D
100
AcDbSymbolTableRecord
100
AcDbLayerTableRecord
  2
PROTUSIONI
 70
0
 62
7
  6
CONTINUOUS
370
-3
390
F
  0
LAYER
  5
58E
100
AcDbSymbolTableRecord
100
AcDbLayerTableRecord
  2
PUNTI
 70
0
 62
7
  6
CONTINUOUS
370
-3
390
F
  0
LAYER
  5
58F
100
AcDbSymbolTableRecord
100
AcDbLayerTableRecord
  2
P_4_5X9_H5_SMD_500000
 70
0
 62
7
  6
CONTINUOUS
370
-3
390
F
  0
LAYER
  5
590
100
AcDbSymbolTableRecord
100
AcDbLayerTableRecord
  2
P_4_5X9_H5_SMD_500000_1
 70
0
 62
7
  6
CONTINUOUS
370
-3
390
F
  0
LAYER
  5
591
100
AcDbSymbolTableRecord
100
AcDbLayerTableRecord
  2
P_4_5X9_H5_SMD_500000_2
 70
0
 62
7
  6
CONTINUOUS
370
-3
390
F
  0
LAYER
  5
592
100
AcDbSymbolTableRecord
100
AcDbLayerTableRecord
  2
P_4_5X9_H5_SMD_500000_3
 70
0
 62
7
  6
CONTINUOUS
370
-3
390
F
  0
LAYER
  5
593
100
AcDbSymbolTableRecord
100
AcDbLayerTableRecord
  2
P_4_5X9_H5_SMD_500000_4
 70
0
 62
7
  6
CONTINUOUS
370
-3
390
F
  0
LAYER
  5
594
100
AcDbSymbolTableRecord
100
AcDbLayerTableRecord
  2
P_4_5X9_H5_SMD_500000_5
 70
0
 62
7
  6
CONTINUOUS
370
-3
390
F
  0
LAYER
  5
595
100
AcDbSymbolTableRecord
100
AcDbLayerTableRecord
  2
P_4_5X9_H5_SMD_500000_6
 70
0
 62
7
  6
CONTINUOUS
370
-3
390
F
  0
LAYER
  5
596
100
AcDbSymbolTableRecord
100
AcDbLayerTableRecord
  2
QFN32-5_0-5_0-5_0-5_0-0_9-0_5-0
 70
0
 62
7
  6
CONTINUOUS
370
-3
390
F
  0
LAYER
  5
597
100
AcDbSymbolTableRecord
100
AcDbLayerTableRecord
  2
QUOTE_AE
 70
0
 62
7
  6
CONTINUOUS
370
-3
390
F
  0
LAYER
  5
598
100
AcDbSymbolTableRecord
100
AcDbLayerTableRecord
  2
QUOTE_DEL_MODELLO
 70
0
 62
7
  6
CONTINUOUS
370
-3
390
F
  0
LAYER
  5
599
100
AcDbSymbolTableRecord
100
AcDbLayerTableRecord
  2
RACCORDO
 70
0
 62
7
  6
CONTINUOUS
370
-3
390
F
  0
LAYER
  5
59A
100
AcDbSymbolTableRecord
100
AcDbLayerTableRecord
  2
RES-A-SMD-CONV-4-0603-B_60000
 70
0
 62
7
  6
CONTINUOUS
370
-3
390
F
  0
LAYER
  5
59B
100
AcDbSymbolTableRecord
100
AcDbLayerTableRecord
  2
RES-A-SMD-CONV-4-0603-B_60000_1
 70
0
 62
7
  6
CONTINUOUS
370
-3
390
F
  0
LAYER
  5
59C
100
AcDbSymbolTableRecord
100
AcDbLayerTableRecord
  2
RES-A-SMD-CONV-4-0603-B_60000_2
 70
0
 62
7
  6
CONTINUOUS
370
-3
390
F
  0
LAYER
  5
59D
100
AcDbSymbolTableRecord
100
AcDbLayerTableRecord
  2
RES-A-SMD-CONV-4-0603-B_60000_3
 70
0
 62
7
  6
CONTINUOUS
370
-3
390
F
  0
LAYER
  5
59E
100
AcDbSymbolTableRecord
100
AcDbLayerTableRecord
  2
RES-A-SMD-CONV-4-0603-B_60000_4
 70
0
 62
7
  6
CONTINUOUS
370
-3
390
F
  0
LAYER
  5
59F
100
AcDbSymbolTableRecord
100
AcDbLayerTableRecord
  2
RES-A-SMD-CONV-4-0603-B_60000_5
 70
0
 62
7
  6
CONTINUOUS
370
-3
390
F
  0
LAYER
  5
5A0
100
AcDbSymbolTableRecord
100
AcDbLayerTableRecord
  2
RES-A-SMD-CONV-4-0603-B_60000_6
 70
0
 62
7
  6
CONTINUOUS
370
-3
390
F
  0
LAYER
  5
5A1
100
AcDbSymbolTableRecord
100
AcDbLayerTableRecord
  2
RES-A-SMD-CONV-4-0603-B_60000_7
 70
0
 62
7
  6
CONTINUOUS
370
-3
390
F
  0
LAYER
  5
5A2
100
AcDbSymbolTableRecord
100
AcDbLayerTableRecord
  2
RES-A-SMD-CONV-4-0603-B_60000_8
 70
0
 62
7
  6
CONTINUOUS
370
-3
390
F
  0
LAYER
  5
5A3
100
AcDbSymbolTableRecord
100
AcDbLayerTableRecord
  2
RES-A-SMD-CONV-4-0603-B_60000_9
 70
0
 62
7
  6
CONTINUOUS
370
-3
390
F
  0
LAYER
  5
5A4
100
AcDbSymbolTableRecord
100
AcDbLayerTableRecord
  2
RES-A-SMD-CONV-4-0603-B_6000_10
 70
0
 62
7
  6
CONTINUOUS
370
-3
390
F
  0
LAYER
  5
5A5
100
AcDbSymbolTableRecord
100
AcDbLayerTableRecord
  2
RES-A-SMD-CONV-4-0603-B_6000_11
 70
0
 62
7
  6
CONTINUOUS
370
-3
390
F
  0
LAYER
  5
5A6
100
AcDbSymbolTableRecord
100
AcDbLayerTableRecord
  2
RES-A-SMD-CONV-4-0603-B_6000_12
 70
0
 62
7
  6
CONTINUOUS
370
-3
390
F
  0
LAYER
  5
5A7
100
AcDbSymbolTableRecord
100
AcDbLayerTableRecord
  2
RES-A-SMD-CONV-4-0603-B_6000_13
 70
0
 62
7
  6
CONTINUOUS
370
-3
390
F
  0
LAYER
  5
5A8
100
AcDbSymbolTableRecord
100
AcDbLayerTableRecord
  2
RES-A-SMD-CONV-4-0603-B_6000_14
 70
0
 62
7
  6
CONTINUOUS
370
-3
390
F
  0
LAYER
  5
5A9
100
AcDbSymbolTableRecord
100
AcDbLayerTableRecord
  2
RGB__255__255__255__
 70
0
 62
7
  6
CONTINUOUS
370
-3
390
F
  0
LAYER
  5
5AA
100
AcDbSymbolTableRecord
100
AcDbLayerTableRecord
  2
SALDATURE
 70
0
 62
7
  6
CONTINUOUS
370
-3
390
F
  0
LAYER
  5
5AB
100
AcDbSymbolTableRecord
100
AcDbLayerTableRecord
  2
SC70-6_REF_H1_1_110000
 70
0
 62
7
  6
CONTINUOUS
370
-3
390
F
  0
LAYER
  5
5AC
100
AcDbSymbolTableRecord
100
AcDbLayerTableRecord
  2
SC70-6_REF_H1_1_110000_1
 70
0
 62
7
  6
CONTINUOUS
370
-3
390
F
  0
LAYER
  5
5AD
100
AcDbSymbolTableRecord
100
AcDbLayerTableRecord
  2
SIMBOLI
 70
0
 62
7
  6
CONTINUOUS
370
-3
390
F
  0
LAYER
  5
5AE
100
AcDbSymbolTableRecord
100
AcDbLayerTableRecord
  2
SMUSSI
 70
0
 62
7
  6
CONTINUOUS
370
-3
390
F
  0
LAYER
  5
5AF
100
AcDbSymbolTableRecord
100
AcDbLayerTableRecord
  2
SMUSSO
 70
0
 62
7
  6
CONTINUOUS
370
-3
390
F
  0
LAYER
  5
5B0
100
AcDbSymbolTableRecord
100
AcDbLayerTableRecord
  2
SNAPLINE
 70
0
 62
7
  6
CONTINUOUS
370
-3
390
F
  0
LAYER
  5
5B1
100
AcDbSymbolTableRecord
100
AcDbLayerTableRecord
  2
SO28-18_0-10_5-2_63-REF_263000
 70
0
 62
7
  6
CONTINUOUS
370
-3
390
F
  0
LAYER
  5
5B2
100
AcDbSymbolTableRecord
100
AcDbLayerTableRecord
  2
SO8-5_0-6_2-1_75-REF_175000
 70
0
 62
7
  6
CONTINUOUS
370
-3
390
F
  0
LAYER
  5
5B3
100
AcDbSymbolTableRecord
100
AcDbLayerTableRecord
  2
SO8-5_0-6_2-1_75-REF_175000_1
 70
0
 62
7
  6
CONTINUOUS
370
-3
390
F
  0
LAYER
  5
5B4
100
AcDbSymbolTableRecord
100
AcDbLayerTableRecord
  2
SO8-5_0-6_2-1_75-REF_175000_2
 70
0
 62
7
  6
CONTINUOUS
370
-3
390
F
  0
LAYER
  5
5B5
100
AcDbSymbolTableRecord
100
AcDbLayerTableRecord
  2
SOD80_SOD-213AA_MINIMELF_REF_16
 70
0
 62
7
  6
CONTINUOUS
370
-3
390
F
  0
LAYER
  5
5B6
100
AcDbSymbolTableRecord
100
AcDbLayerTableRecord
  2
SOD80_SOD-213AA_MINIMELF_REF__1
 70
0
 62
7
  6
CONTINUOUS
370
-3
390
F
  0
LAYER
  5
5B7
100
AcDbSymbolTableRecord
100
AcDbLayerTableRecord
  2
SOD80_SOD-213AA_MINIMELF_REF__2
 70
0
 62
7
  6
CONTINUOUS
370
-3
390
F
  0
LAYER
  5
5B8
100
AcDbSymbolTableRecord
100
AcDbLayerTableRecord
  2
SOD80_SOD-213AA_MINIMELF_REF__3
 70
0
 62
7
  6
CONTINUOUS
370
-3
390
F
  0
LAYER
  5
5B9
100
AcDbSymbolTableRecord
100
AcDbLayerTableRecord
  2
SOD80_SOD-213AA_MINIMELF_REF__4
 70
0
 62
7
  6
CONTINUOUS
370
-3
390
F
  0
LAYER
  5
5BA
100
AcDbSymbolTableRecord
100
AcDbLayerTableRecord
  2
SON8-2_1-2_1-0_8-EXPPAD-REF_800
 70
0
 62
7
  6
CONTINUOUS
370
-3
390
F
  0
LAYER
  5
5BB
100
AcDbSymbolTableRecord
100
AcDbLayerTableRecord
  2
SOT223_REF_H1_8_180000
 70
0
 62
7
  6
CONTINUOUS
370
-3
390
F
  0
LAYER
  5
5BC
100
AcDbSymbolTableRecord
100
AcDbLayerTableRecord
  2
SOT223_REF_H1_8_180000_1
 70
0
 62
7
  6
CONTINUOUS
370
-3
390
F
  0
LAYER
  5
5BD
100
AcDbSymbolTableRecord
100
AcDbLayerTableRecord
  2
SOT23-5_REF_H1_5_150000
 70
0
 62
7
  6
CONTINUOUS
370
-3
390
F
  0
LAYER
  5
5BE
100
AcDbSymbolTableRecord
100
AcDbLayerTableRecord
  2
SOT666-1_7-1_7-0_6_REF_70000
 70
0
 62
7
  6
CONTINUOUS
370
-3
390
F
  0
LAYER
  5
5BF
100
AcDbSymbolTableRecord
100
AcDbLayerTableRecord
  2
SOT89_REF_H1_6_160000
 70
0
 62
7
  6
CONTINUOUS
370
-3
390
F
  0
LAYER
  5
5C0
100
AcDbSymbolTableRecord
100
AcDbLayerTableRecord
  2
SOT89_REF_H1_6_160000_1
 70
0
 62
7
  6
CONTINUOUS
370
-3
390
F
  0
LAYER
  5
5C1
100
AcDbSymbolTableRecord
100
AcDbLayerTableRecord
  2
SOT89_REF_H1_6_160000_2
 70
0
 62
7
  6
CONTINUOUS
370
-3
390
F
  0
LAYER
  5
5C2
100
AcDbSymbolTableRecord
100
AcDbLayerTableRecord
  2
SUPERFICI
 70
0
 62
7
  6
CONTINUOUS
370
-3
390
F
  0
LAYER
  5
5C3
100
AcDbSymbolTableRecord
100
AcDbLayerTableRecord
  2
SUPERFICI_10
 70
0
 62
7
  6
CONTINUOUS
370
-3
390
F
  0
LAYER
  5
5C4
100
AcDbSymbolTableRecord
100
AcDbLayerTableRecord
  2
SUPERFICI_2
 70
0
 62
7
  6
CONTINUOUS
370
-3
390
F
  0
LAYER
  5
5C5
100
AcDbSymbolTableRecord
100
AcDbLayerTableRecord
  2
SUPERFICI_6
 70
0
 62
7
  6
CONTINUOUS
370
-3
390
F
  0
LAYER
  5
5C6
100
AcDbSymbolTableRecord
100
AcDbLayerTableRecord
  2
SWITCH_SKRP_250000
 70
0
 62
7
  6
CONTINUOUS
370
-3
390
F
  0
LAYER
  5
5C7
100
AcDbSymbolTableRecord
100
AcDbLayerTableRecord
  2
SYMBOL_DATA_10000
 70
0
 62
7
  6
CONTINUOUS
370
-3
390
F
  0
LAYER
  5
5C8
100
AcDbSymbolTableRecord
100
AcDbLayerTableRecord
  2
SYMBOL_NO-PB_10000
 70
0
 62
7
  6
CONTINUOUS
370
-3
390
F
  0
LAYER
  5
5C9
100
AcDbSymbolTableRecord
100
AcDbLayerTableRecord
  2
TERNA_DI_RIFERIMENTO_DI_DEFAULT
 70
0
 62
7
  6
CONTINUOUS
370
-3
390
F
  0
LAYER
  5
5CA
100
AcDbSymbolTableRecord
100
AcDbLayerTableRecord
  2
TERNE_DI_RIFERIMENTO_CREATE
 70
0
 62
7
  6
CONTINUOUS
370
-3
390
F
  0
LAYER
  5
5CB
100
AcDbSymbolTableRecord
100
AcDbLayerTableRecord
  2
TP-RND-1_0_3500
 70
0
 62
7
  6
CONTINUOUS
370
-3
390
F
  0
LAYER
  5
5CC
100
AcDbSymbolTableRecord
100
AcDbLayerTableRecord
  2
TP-RND-1_0_3500_1
 70
0
 62
7
  6
CONTINUOUS
370
-3
390
F
  0
LAYER
  5
5CD
100
AcDbSymbolTableRecord
100
AcDbLayerTableRecord
  2
TP-RND-1_0_3500_10
 70
0
 62
7
  6
CONTINUOUS
370
-3
390
F
  0
LAYER
  5
5CE
100
AcDbSymbolTableRecord
100
AcDbLayerTableRecord
  2
TP-RND-1_0_3500_11
 70
0
 62
7
  6
CONTINUOUS
370
-3
390
F
  0
LAYER
  5
5CF
100
AcDbSymbolTableRecord
100
AcDbLayerTableRecord
  2
TP-RND-1_0_3500_12
 70
0
 62
7
  6
CONTINUOUS
370
-3
390
F
  0
LAYER
  5
5D0
100
AcDbSymbolTableRecord
100
AcDbLayerTableRecord
  2
TP-RND-1_0_3500_13
 70
0
 62
7
  6
CONTINUOUS
370
-3
390
F
  0
LAYER
  5
5D1
100
AcDbSymbolTableRecord
100
AcDbLayerTableRecord
  2
TP-RND-1_0_3500_14
 70
0
 62
7
  6
CONTINUOUS
370
-3
390
F
  0
LAYER
  5
5D2
100
AcDbSymbolTableRecord
100
AcDbLayerTableRecord
  2
TP-RND-1_0_3500_15
 70
0
 62
7
  6
CONTINUOUS
370
-3
390
F
  0
LAYER
  5
5D3
100
AcDbSymbolTableRecord
100
AcDbLayerTableRecord
  2
TP-RND-1_0_3500_16
 70
0
 62
7
  6
CONTINUOUS
370
-3
390
F
  0
LAYER
  5
5D4
100
AcDbSymbolTableRecord
100
AcDbLayerTableRecord
  2
TP-RND-1_0_3500_17
 70
0
 62
7
  6
CONTINUOUS
370
-3
390
F
  0
LAYER
  5
5D5
100
AcDbSymbolTableRecord
100
AcDbLayerTableRecord
  2
TP-RND-1_0_3500_18
 70
0
 62
7
  6
CONTINUOUS
370
-3
390
F
  0
LAYER
  5
5D6
100
AcDbSymbolTableRecord
100
AcDbLayerTableRecord
  2
TP-RND-1_0_3500_19
 70
0
 62
7
  6
CONTINUOUS
370
-3
390
F
  0
LAYER
  5
5D7
100
AcDbSymbolTableRecord
100
AcDbLayerTableRecord
  2
TP-RND-1_0_3500_2
 70
0
 62
7
  6
CONTINUOUS
370
-3
390
F
  0
LAYER
  5
5D8
100
AcDbSymbolTableRecord
100
AcDbLayerTableRecord
  2
TP-RND-1_0_3500_20
 70
0
 62
7
  6
CONTINUOUS
370
-3
390
F
  0
LAYER
  5
5D9
100
AcDbSymbolTableRecord
100
AcDbLayerTableRecord
  2
TP-RND-1_0_3500_21
 70
0
 62
7
  6
CONTINUOUS
370
-3
390
F
  0
LAYER
  5
5DA
100
AcDbSymbolTableRecord
100
AcDbLayerTableRecord
  2
TP-RND-1_0_3500_22
 70
0
 62
7
  6
CONTINUOUS
370
-3
390
F
  0
LAYER
  5
5DB
100
AcDbSymbolTableRecord
100
AcDbLayerTableRecord
  2
TP-RND-1_0_3500_23
 70
0
 62
7
  6
CONTINUOUS
370
-3
390
F
  0
LAYER
  5
5DC
100
AcDbSymbolTableRecord
100
AcDbLayerTableRecord
  2
TP-RND-1_0_3500_24
 70
0
 62
7
  6
CONTINUOUS
370
-3
390
F
  0
LAYER
  5
5DD
100
AcDbSymbolTableRecord
100
AcDbLayerTableRecord
  2
TP-RND-1_0_3500_25
 70
0
 62
7
  6
CONTINUOUS
370
-3
390
F
  0
LAYER
  5
5DE
100
AcDbSymbolTableRecord
100
AcDbLayerTableRecord
  2
TP-RND-1_0_3500_26
 70
0
 62
7
  6
CONTINUOUS
370
-3
390
F
  0
LAYER
  5
5DF
100
AcDbSymbolTableRecord
100
AcDbLayerTableRecord
  2
TP-RND-1_0_3500_27
 70
0
 62
7
  6
CONTINUOUS
370
-3
390
F
  0
LAYER
  5
5E0
100
AcDbSymbolTableRecord
100
AcDbLayerTableRecord
  2
TP-RND-1_0_3500_28
 70
0
 62
7
  6
CONTINUOUS
370
-3
390
F
  0
LAYER
  5
5E1
100
AcDbSymbolTableRecord
100
AcDbLayerTableRecord
  2
TP-RND-1_0_3500_29
 70
0
 62
7
  6
CONTINUOUS
370
-3
390
F
  0
LAYER
  5
5E2
100
AcDbSymbolTableRecord
100
AcDbLayerTableRecord
  2
TP-RND-1_0_3500_3
 70
0
 62
7
  6
CONTINUOUS
370
-3
390
F
  0
LAYER
  5
5E3
100
AcDbSymbolTableRecord
100
AcDbLayerTableRecord
  2
TP-RND-1_0_3500_30
 70
0
 62
7
  6
CONTINUOUS
370
-3
390
F
  0
LAYER
  5
5E4
100
AcDbSymbolTableRecord
100
AcDbLayerTableRecord
  2
TP-RND-1_0_3500_31
 70
0
 62
7
  6
CONTINUOUS
370
-3
390
F
  0
LAYER
  5
5E5
100
AcDbSymbolTableRecord
100
AcDbLayerTableRecord
  2
TP-RND-1_0_3500_32
 70
0
 62
7
  6
CONTINUOUS
370
-3
390
F
  0
LAYER
  5
5E6
100
AcDbSymbolTableRecord
100
AcDbLayerTableRecord
  2
TP-RND-1_0_3500_33
 70
0
 62
7
  6
CONTINUOUS
370
-3
390
F
  0
LAYER
  5
5E7
100
AcDbSymbolTableRecord
100
AcDbLayerTableRecord
  2
TP-RND-1_0_3500_34
 70
0
 62
7
  6
CONTINUOUS
370
-3
390
F
  0
LAYER
  5
5E8
100
AcDbSymbolTableRecord
100
AcDbLayerTableRecord
  2
TP-RND-1_0_3500_35
 70
0
 62
7
  6
CONTINUOUS
370
-3
390
F
  0
LAYER
  5
5E9
100
AcDbSymbolTableRecord
100
AcDbLayerTableRecord
  2
TP-RND-1_0_3500_36
 70
0
 62
7
  6
CONTINUOUS
370
-3
390
F
  0
LAYER
  5
5EA
100
AcDbSymbolTableRecord
100
AcDbLayerTableRecord
  2
TP-RND-1_0_3500_37
 70
0
 62
7
  6
CONTINUOUS
370
-3
390
F
  0
LAYER
  5
5EB
100
AcDbSymbolTableRecord
100
AcDbLayerTableRecord
  2
TP-RND-1_0_3500_4
 70
0
 62
7
  6
CONTINUOUS
370
-3
390
F
  0
LAYER
  5
5EC
100
AcDbSymbolTableRecord
100
AcDbLayerTableRecord
  2
TP-RND-1_0_3500_5
 70
0
 62
7
  6
CONTINUOUS
370
-3
390
F
  0
LAYER
  5
5ED
100
AcDbSymbolTableRecord
100
AcDbLayerTableRecord
  2
TP-RND-1_0_3500_6
 70
0
 62
7
  6
CONTINUOUS
370
-3
390
F
  0
LAYER
  5
5EE
100
AcDbSymbolTableRecord
100
AcDbLayerTableRecord
  2
TP-RND-1_0_3500_7
 70
0
 62
7
  6
CONTINUOUS
370
-3
390
F
  0
LAYER
  5
5EF
100
AcDbSymbolTableRecord
100
AcDbLayerTableRecord
  2
TP-RND-1_0_3500_8
 70
0
 62
7
  6
CONTINUOUS
370
-3
390
F
  0
LAYER
  5
5F0
100
AcDbSymbolTableRecord
100
AcDbLayerTableRecord
  2
TP-RND-1_0_3500_9
 70
0
 62
7
  6
CONTINUOUS
370
-3
390
F
  0
LAYER
  5
5F1
100
AcDbSymbolTableRecord
100
AcDbLayerTableRecord
  2
TP-RND-2_0_0
 70
0
 62
7
  6
CONTINUOUS
370
-3
390
F
  0
LAYER
  5
5F2
100
AcDbSymbolTableRecord
100
AcDbLayerTableRecord
  2
TP-RND-2_0_0_1
 70
0
 62
7
  6
CONTINUOUS
370
-3
390
F
  0
LAYER
  5
5F3
100
AcDbSymbolTableRecord
100
AcDbLayerTableRecord
  2
TP-SQR-2_0_0
 70
0
 62
7
  6
CONTINUOUS
370
-3
390
F
  0
LAYER
  5
5F4
100
AcDbSymbolTableRecord
100
AcDbLayerTableRecord
  2
TP-SQR-2_0_0_1
 70
0
 62
7
  6
CONTINUOUS
370
-3
390
F
  0
LAYER
  5
5F5
100
AcDbSymbolTableRecord
100
AcDbLayerTableRecord
  2
TP-SQR-2_0_0_2
 70
0
 62
7
  6
CONTINUOUS
370
-3
390
F
  0
LAYER
  5
5F6
100
AcDbSymbolTableRecord
100
AcDbLayerTableRecord
  2
TP-SQR-2_0_0_3
 70
0
 62
7
  6
CONTINUOUS
370
-3
390
F
  0
LAYER
  5
5F7
100
AcDbSymbolTableRecord
100
AcDbLayerTableRecord
  2
TRASH
 70
0
 62
7
  6
CONTINUOUS
370
-3
390
F
  0
LAYER
  5
5F8
100
AcDbSymbolTableRecord
100
AcDbLayerTableRecord
  2
VG_CN-THT-TIANLI-TL208V-R1-P8-S
 70
0
 62
7
  6
CONTINUOUS
370
-3
390
F
  0
LAYER
  5
5F9
100
AcDbSymbolTableRecord
100
AcDbLayerTableRecord
  2
VG_DIPSW-12-2_54-30_5-6_0-4_2-S
 70
0
 62
7
  6
CONTINUOUS
370
-3
390
F
  0
LAYER
  5
5FA
100
AcDbSymbolTableRecord
100
AcDbLayerTableRecord
  2
VG_DO-214AA_265000
 70
0
 62
7
  6
CONTINUOUS
370
-3
390
F
  0
LAYER
  5
5FB
100
AcDbSymbolTableRecord
100
AcDbLayerTableRecord
  2
VG_IND-PS-5_8-1_8_200000
 70
0
 62
7
  6
CONTINUOUS
370
-3
390
F
  0
LAYER
  5
5FC
100
AcDbSymbolTableRecord
100
AcDbLayerTableRecord
  2
VG_LED-THT-RND-3_2-4_5-2_54-0_1
 70
0
 62
7
  6
CONTINUOUS
370
-3
390
F
  0
LAYER
  5
5FD
100
AcDbSymbolTableRecord
100
AcDbLayerTableRecord
  2
VG_LED-THT-RND-3_2-4_5-2_54-0_5
 70
0
 62
7
  6
CONTINUOUS
370
-3
390
F
  0
LAYER
  5
5FE
100
AcDbSymbolTableRecord
100
AcDbLayerTableRecord
  2
VG_MSOP8-3_1-5_05-1_1-REF_11000
 70
0
 62
7
  6
CONTINUOUS
370
-3
390
F
  0
LAYER
  5
5FF
100
AcDbSymbolTableRecord
100
AcDbLayerTableRecord
  2
VG_SLIDESWITCH-4-RAINBOW-SK_14D
 70
0
 62
7
  6
CONTINUOUS
370
-3
390
F
  0
LAYER
  5
600
100
AcDbSymbolTableRecord
100
AcDbLayerTableRecord
  2
VG_SLIDESWITCH-4-RAINBOW-SK_1_1
 70
0
 62
7
  6
CONTINUOUS
370
-3
390
F
  0
LAYER
  5
601
100
AcDbSymbolTableRecord
100
AcDbLayerTableRecord
  2
VG_SOT23_H1_1_REF_110000
 70
0
 62
7
  6
CONTINUOUS
370
-3
390
F
  0
LAYER
  5
602
100
AcDbSymbolTableRecord
100
AcDbLayerTableRecord
  2
VG_SOT23_H1_1_REF_110000_1
 70
0
 62
7
  6
CONTINUOUS
370
-3
390
F
  0
LAYER
  5
603
100
AcDbSymbolTableRecord
100
AcDbLayerTableRecord
  2
VG_SOT23_H1_1_REF_110000_10
 70
0
 62
7
  6
CONTINUOUS
370
-3
390
F
  0
LAYER
  5
604
100
AcDbSymbolTableRecord
100
AcDbLayerTableRecord
  2
VG_SOT23_H1_1_REF_110000_11
 70
0
 62
7
  6
CONTINUOUS
370
-3
390
F
  0
LAYER
  5
605
100
AcDbSymbolTableRecord
100
AcDbLayerTableRecord
  2
VG_SOT23_H1_1_REF_110000_12
 70
0
 62
7
  6
CONTINUOUS
370
-3
390
F
  0
LAYER
  5
606
100
AcDbSymbolTableRecord
100
AcDbLayerTableRecord
  2
VG_SOT23_H1_1_REF_110000_13
 70
0
 62
7
  6
CONTINUOUS
370
-3
390
F
  0
LAYER
  5
607
100
AcDbSymbolTableRecord
100
AcDbLayerTableRecord
  2
VG_SOT23_H1_1_REF_110000_14
 70
0
 62
7
  6
CONTINUOUS
370
-3
390
F
  0
LAYER
  5
608
100
AcDbSymbolTableRecord
100
AcDbLayerTableRecord
  2
VG_SOT23_H1_1_REF_110000_15
 70
0
 62
7
  6
CONTINUOUS
370
-3
390
F
  0
LAYER
  5
609
100
AcDbSymbolTableRecord
100
AcDbLayerTableRecord
  2
VG_SOT23_H1_1_REF_110000_16
 70
0
 62
7
  6
CONTINUOUS
370
-3
390
F
  0
LAYER
  5
60A
100
AcDbSymbolTableRecord
100
AcDbLayerTableRecord
  2
VG_SOT23_H1_1_REF_110000_17
 70
0
 62
7
  6
CONTINUOUS
370
-3
390
F
  0
LAYER
  5
60B
100
AcDbSymbolTableRecord
100
AcDbLayerTableRecord
  2
VG_SOT23_H1_1_REF_110000_2
 70
0
 62
7
  6
CONTINUOUS
370
-3
390
F
  0
LAYER
  5
60C
100
AcDbSymbolTableRecord
100
AcDbLayerTableRecord
  2
VG_SOT23_H1_1_REF_110000_3
 70
0
 62
7
  6
CONTINUOUS
370
-3
390
F
  0
LAYER
  5
60D
100
AcDbSymbolTableRecord
100
AcDbLayerTableRecord
  2
VG_SOT23_H1_1_REF_110000_4
 70
0
 62
7
  6
CONTINUOUS
370
-3
390
F
  0
LAYER
  5
60E
100
AcDbSymbolTableRecord
100
AcDbLayerTableRecord
  2
VG_SOT23_H1_1_REF_110000_5
 70
0
 62
7
  6
CONTINUOUS
370
-3
390
F
  0
LAYER
  5
60F
100
AcDbSymbolTableRecord
100
AcDbLayerTableRecord
  2
VG_SOT23_H1_1_REF_110000_6
 70
0
 62
7
  6
CONTINUOUS
370
-3
390
F
  0
LAYER
  5
610
100
AcDbSymbolTableRecord
100
AcDbLayerTableRecord
  2
VG_SOT23_H1_1_REF_110000_7
 70
0
 62
7
  6
CONTINUOUS
370
-3
390
F
  0
LAYER
  5
611
100
AcDbSymbolTableRecord
100
AcDbLayerTableRecord
  2
VG_SOT23_H1_1_REF_110000_8
 70
0
 62
7
  6
CONTINUOUS
370
-3
390
F
  0
LAYER
  5
612
100
AcDbSymbolTableRecord
100
AcDbLayerTableRecord
  2
VG_SOT23_H1_1_REF_110000_9
 70
0
 62
7
  6
CONTINUOUS
370
-3
390
F
  0
LAYER
  5
613
100
AcDbSymbolTableRecord
100
AcDbLayerTableRecord
  2
VG_SOT23_H1_2_REF_120000
 70
0
 62
7
  6
CONTINUOUS
370
-3
390
F
  0
LAYER
  5
614
100
AcDbSymbolTableRecord
100
AcDbLayerTableRecord
  2
VG_SOT23_H1_2_REF_120000_1
 70
0
 62
7
  6
CONTINUOUS
370
-3
390
F
  0
LAYER
  5
615
100
AcDbSymbolTableRecord
100
AcDbLayerTableRecord
  2
VG_SOT23_H1_2_REF_120000_2
 70
0
 62
7
  6
CONTINUOUS
370
-3
390
F
  0
LAYER
  5
616
100
AcDbSymbolTableRecord
100
AcDbLayerTableRecord
  2
VG_SOT23_H1_2_REF_120000_3
 70
0
 62
7
  6
CONTINUOUS
370
-3
390
F
  0
LAYER
  5
617
100
AcDbSymbolTableRecord
100
AcDbLayerTableRecord
  2
VG_SOT23_H1_2_REF_120000_4
 70
0
 62
7
  6
CONTINUOUS
370
-3
390
F
  0
LAYER
  5
618
100
AcDbSymbolTableRecord
100
AcDbLayerTableRecord
  2
VG_SOT23_H1_2_REF_120000_5
 70
0
 62
7
  6
CONTINUOUS
370
-3
390
F
  0
LAYER
  5
619
100
AcDbSymbolTableRecord
100
AcDbLayerTableRecord
  2
VG_TR_CA6XVSMD_390000
 70
0
 62
7
  6
CONTINUOUS
370
-3
390
F
  0
LAYER
  5
61A
100
AcDbSymbolTableRecord
100
AcDbLayerTableRecord
  2
WHITE
 70
0
 62
7
  6
CONTINUOUS
370
-3
390
F
  0
LAYER
  5
61B
100
AcDbSymbolTableRecord
100
AcDbLayerTableRecord
  2
WUERTH_744042220_4818_200000
 70
0
 62
7
  6
CONTINUOUS
370
-3
390
F
  0
LAYER
  5
61C
100
AcDbSymbolTableRecord
100
AcDbLayerTableRecord
  2
WUERTH_744042220_4818_200000_1
 70
0
 62
7
  6
CONTINUOUS
370
-3
390
F
  0
LAYER
  5
61D
100
AcDbSymbolTableRecord
100
AcDbLayerTableRecord
  2
WUERTH_744042220_4818_200000_2
 70
0
 62
7
  6
CONTINUOUS
370
-3
390
F
  0
LAYER
  5
61E
100
AcDbSymbolTableRecord
100
AcDbLayerTableRecord
  2
WUERTH_744042220_4818_200000_3
 70
0
 62
7
  6
CONTINUOUS
370
-3
390
F
  0
LAYER
  5
61F
100
AcDbSymbolTableRecord
100
AcDbLayerTableRecord
  2
WUERTH_744242471_350000
 70
0
 62
7
  6
CONTINUOUS
370
-3
390
F
  0
LAYER
  5
620
100
AcDbSymbolTableRecord
100
AcDbLayerTableRecord
  2
X-SMD-3PIN-3_2-2_5_70000
 70
0
 62
7
  6
CONTINUOUS
370
-3
390
F
  0
LAYER
  5
621
100
AcDbSymbolTableRecord
100
AcDbLayerTableRecord
  2
XSEC_DATUMS
 70
0
 62
7
  6
CONTINUOUS
370
-3
390
F
  0
LAYER
  5
622
100
AcDbSymbolTableRecord
100
AcDbLayerTableRecord
  2
_1015
 70
0
 62
7
  6
CONTINUOUS
370
-3
390
F
  0
LAYER
  5
623
100
AcDbSymbolTableRecord
100
AcDbLayerTableRecord
  2
_1046
 70
0
 62
7
  6
CONTINUOUS
370
-3
390
F
  0
LAYER
  5
624
100
AcDbSymbolTableRecord
100
AcDbLayerTableRecord
  2
_1067
 70
0
 62
7
  6
CONTINUOUS
370
-3
390
F
  0
LAYER
  5
625
100
AcDbSymbolTableRecord
100
AcDbLayerTableRecord
  2
_1082
 70
0
 62
7
  6
CONTINUOUS
370
-3
390
F
  0
LAYER
  5
626
100
AcDbSymbolTableRecord
100
AcDbLayerTableRecord
  2
_1110
 70
0
 62
7
  6
CONTINUOUS
370
-3
390
F
  0
LAYER
  5
627
100
AcDbSymbolTableRecord
100
AcDbLayerTableRecord
  2
_1146
 70
0
 62
7
  6
CONTINUOUS
370
-3
390
F
  0
LAYER
  5
628
100
AcDbSymbolTableRecord
100
AcDbLayerTableRecord
  2
_1170
 70
0
 62
7
  6
CONTINUOUS
370
-3
390
F
  0
LAYER
  5
629
100
AcDbSymbolTableRecord
100
AcDbLayerTableRecord
  2
_1179
 70
0
 62
7
  6
CONTINUOUS
370
-3
390
F
  0
LAYER
  5
62A
100
AcDbSymbolTableRecord
100
AcDbLayerTableRecord
  2
_1204
 70
0
 62
7
  6
CONTINUOUS
370
-3
390
F
  0
LAYER
  5
62B
100
AcDbSymbolTableRecord
100
AcDbLayerTableRecord
  2
_1246
 70
0
 62
7
  6
CONTINUOUS
370
-3
390
F
  0
LAYER
  5
62C
100
AcDbSymbolTableRecord
100
AcDbLayerTableRecord
  2
_1284
 70
0
 62
7
  6
CONTINUOUS
370
-3
390
F
  0
LAYER
  5
62D
100
AcDbSymbolTableRecord
100
AcDbLayerTableRecord
  2
_1310
 70
0
 62
7
  6
CONTINUOUS
370
-3
390
F
  0
LAYER
  5
62E
100
AcDbSymbolTableRecord
100
AcDbLayerTableRecord
  2
_1335
 70
0
 62
7
  6
CONTINUOUS
370
-3
390
F
  0
LAYER
  5
62F
100
AcDbSymbolTableRecord
100
AcDbLayerTableRecord
  2
_1356
 70
0
 62
7
  6
CONTINUOUS
370
-3
390
F
  0
LAYER
  5
630
100
AcDbSymbolTableRecord
100
AcDbLayerTableRecord
  2
_1383
 70
0
 62
7
  6
CONTINUOUS
370
-3
390
F
  0
LAYER
  5
631
100
AcDbSymbolTableRecord
100
AcDbLayerTableRecord
  2
_1409
 70
0
 62
7
  6
CONTINUOUS
370
-3
390
F
  0
LAYER
  5
632
100
AcDbSymbolTableRecord
100
AcDbLayerTableRecord
  2
_1439
 70
0
 62
7
  6
CONTINUOUS
370
-3
390
F
  0
LAYER
  5
633
100
AcDbSymbolTableRecord
100
AcDbLayerTableRecord
  2
_1464
 70
0
 62
7
  6
CONTINUOUS
370
-3
390
F
  0
LAYER
  5
634
100
AcDbSymbolTableRecord
100
AcDbLayerTableRecord
  2
_1485
 70
0
 62
7
  6
CONTINUOUS
370
-3
390
F
  0
LAYER
  5
635
100
AcDbSymbolTableRecord
100
AcDbLayerTableRecord
  2
_1507
 70
0
 62
7
  6
CONTINUOUS
370
-3
390
F
  0
LAYER
  5
636
100
AcDbSymbolTableRecord
100
AcDbLayerTableRecord
  2
_1535
 70
0
 62
7
  6
CONTINUOUS
370
-3
390
F
  0
LAYER
  5
637
100
AcDbSymbolTableRecord
100
AcDbLayerTableRecord
  2
_1554
 70
0
 62
7
  6
CONTINUOUS
370
-3
390
F
  0
LAYER
  5
638
100
AcDbSymbolTableRecord
100
AcDbLayerTableRecord
  2
_1586
 70
0
 62
7
  6
CONTINUOUS
370
-3
390
F
  0
LAYER
  5
639
100
AcDbSymbolTableRecord
100
AcDbLayerTableRecord
  2
_159
 70
0
 62
7
  6
CONTINUOUS
370
-3
390
F
  0
LAYER
  5
63A
100
AcDbSymbolTableRecord
100
AcDbLayerTableRecord
  2
_1613
 70
0
 62
7
  6
CONTINUOUS
370
-3
390
F
  0
LAYER
  5
63B
100
AcDbSymbolTableRecord
100
AcDbLayerTableRecord
  2
_1645
 70
0
 62
7
  6
CONTINUOUS
370
-3
390
F
  0
LAYER
  5
63C
100
AcDbSymbolTableRecord
100
AcDbLayerTableRecord
  2
_1666
 70
0
 62
7
  6
CONTINUOUS
370
-3
390
F
  0
LAYER
  5
63D
100
AcDbSymbolTableRecord
100
AcDbLayerTableRecord
  2
_1692
 70
0
 62
7
  6
CONTINUOUS
370
-3
390
F
  0
LAYER
  5
63E
100
AcDbSymbolTableRecord
100
AcDbLayerTableRecord
  2
_1708
 70
0
 62
7
  6
CONTINUOUS
370
-3
390
F
  0
LAYER
  5
63F
100
AcDbSymbolTableRecord
100
AcDbLayerTableRecord
  2
_1755
 70
0
 62
7
  6
CONTINUOUS
370
-3
390
F
  0
LAYER
  5
640
100
AcDbSymbolTableRecord
100
AcDbLayerTableRecord
  2
_1787
 70
0
 62
7
  6
CONTINUOUS
370
-3
390
F
  0
LAYER
  5
641
100
AcDbSymbolTableRecord
100
AcDbLayerTableRecord
  2
_1795
 70
0
 62
7
  6
CONTINUOUS
370
-3
390
F
  0
LAYER
  5
642
100
AcDbSymbolTableRecord
100
AcDbLayerTableRecord
  2
_182
 70
0
 62
7
  6
CONTINUOUS
370
-3
390
F
  0
LAYER
  5
643
100
AcDbSymbolTableRecord
100
AcDbLayerTableRecord
  2
_1833
 70
0
 62
7
  6
CONTINUOUS
370
-3
390
F
  0
LAYER
  5
644
100
AcDbSymbolTableRecord
100
AcDbLayerTableRecord
  2
_1858
 70
0
 62
7
  6
CONTINUOUS
370
-3
390
F
  0
LAYER
  5
645
100
AcDbSymbolTableRecord
100
AcDbLayerTableRecord
  2
_1901
 70
0
 62
7
  6
CONTINUOUS
370
-3
390
F
  0
LAYER
  5
646
100
AcDbSymbolTableRecord
100
AcDbLayerTableRecord
  2
_1922
 70
0
 62
7
  6
CONTINUOUS
370
-3
390
F
  0
LAYER
  5
647
100
AcDbSymbolTableRecord
100
AcDbLayerTableRecord
  2
_1941
 70
0
 62
7
  6
CONTINUOUS
370
-3
390
F
  0
LAYER
  5
648
100
AcDbSymbolTableRecord
100
AcDbLayerTableRecord
  2
_1966
 70
0
 62
7
  6
CONTINUOUS
370
-3
390
F
  0
LAYER
  5
649
100
AcDbSymbolTableRecord
100
AcDbLayerTableRecord
  2
_2026
 70
0
 62
7
  6
CONTINUOUS
370
-3
390
F
  0
LAYER
  5
64A
100
AcDbSymbolTableRecord
100
AcDbLayerTableRecord
  2
_2078
 70
0
 62
7
  6
CONTINUOUS
370
-3
390
F
  0
LAYER
  5
64B
100
AcDbSymbolTableRecord
100
AcDbLayerTableRecord
  2
_220
 70
0
 62
7
  6
CONTINUOUS
370
-3
390
F
  0
LAYER
  5
64C
100
AcDbSymbolTableRecord
100
AcDbLayerTableRecord
  2
_265
 70
0
 62
7
  6
CONTINUOUS
370
-3
390
F
  0
LAYER
  5
64D
100
AcDbSymbolTableRecord
100
AcDbLayerTableRecord
  2
_299
 70
0
 62
7
  6
CONTINUOUS
370
-3
390
F
  0
LAYER
  5
64E
100
AcDbSymbolTableRecord
100
AcDbLayerTableRecord
  2
_3033
 70
0
 62
7
  6
CONTINUOUS
370
-3
390
F
  0
LAYER
  5
64F
100
AcDbSymbolTableRecord
100
AcDbLayerTableRecord
  2
_3107
 70
0
 62
7
  6
CONTINUOUS
370
-3
390
F
  0
LAYER
  5
650
100
AcDbSymbolTableRecord
100
AcDbLayerTableRecord
  2
_3169
 70
0
 62
7
  6
CONTINUOUS
370
-3
390
F
  0
LAYER
  5
651
100
AcDbSymbolTableRecord
100
AcDbLayerTableRecord
  2
_3199
 70
0
 62
7
  6
CONTINUOUS
370
-3
390
F
  0
LAYER
  5
652
100
AcDbSymbolTableRecord
100
AcDbLayerTableRecord
  2
_3230
 70
0
 62
7
  6
CONTINUOUS
370
-3
390
F
  0
LAYER
  5
653
100
AcDbSymbolTableRecord
100
AcDbLayerTableRecord
  2
_3302
 70
0
 62
7
  6
CONTINUOUS
370
-3
390
F
  0
LAYER
  5
654
100
AcDbSymbolTableRecord
100
AcDbLayerTableRecord
  2
_3317
 70
0
 62
7
  6
CONTINUOUS
370
-3
390
F
  0
LAYER
  5
655
100
AcDbSymbolTableRecord
100
AcDbLayerTableRecord
  2
_339
 70
0
 62
7
  6
CONTINUOUS
370
-3
390
F
  0
LAYER
  5
656
100
AcDbSymbolTableRecord
100
AcDbLayerTableRecord
  2
_3393
 70
0
 62
7
  6
CONTINUOUS
370
-3
390
F
  0
LAYER
  5
657
100
AcDbSymbolTableRecord
100
AcDbLayerTableRecord
  2
_3406
 70
0
 62
7
  6
CONTINUOUS
370
-3
390
F
  0
LAYER
  5
658
100
AcDbSymbolTableRecord
100
AcDbLayerTableRecord
  2
_3436
 70
0
 62
7
  6
CONTINUOUS
370
-3
390
F
  0
LAYER
  5
659
100
AcDbSymbolTableRecord
100
AcDbLayerTableRecord
  2
_3525
 70
0
 62
7
  6
CONTINUOUS
370
-3
390
F
  0
LAYER
  5
65A
100
AcDbSymbolTableRecord
100
AcDbLayerTableRecord
  2
_3594
 70
0
 62
7
  6
CONTINUOUS
370
-3
390
F
  0
LAYER
  5
65B
100
AcDbSymbolTableRecord
100
AcDbLayerTableRecord
  2
_3633
 70
0
 62
7
  6
CONTINUOUS
370
-3
390
F
  0
LAYER
  5
65C
100
AcDbSymbolTableRecord
100
AcDbLayerTableRecord
  2
_3639
 70
0
 62
7
  6
CONTINUOUS
370
-3
390
F
  0
LAYER
  5
65D
100
AcDbSymbolTableRecord
100
AcDbLayerTableRecord
  2
_366
 70
0
 62
7
  6
CONTINUOUS
370
-3
390
F
  0
LAYER
  5
65E
100
AcDbSymbolTableRecord
100
AcDbLayerTableRecord
  2
_3704
 70
0
 62
7
  6
CONTINUOUS
370
-3
390
F
  0
LAYER
  5
65F
100
AcDbSymbolTableRecord
100
AcDbLayerTableRecord
  2
_3728
 70
0
 62
7
  6
CONTINUOUS
370
-3
390
F
  0
LAYER
  5
660
100
AcDbSymbolTableRecord
100
AcDbLayerTableRecord
  2
_3754
 70
0
 62
7
  6
CONTINUOUS
370
-3
390
F
  0
LAYER
  5
661
100
AcDbSymbolTableRecord
100
AcDbLayerTableRecord
  2
_3777
 70
0
 62
7
  6
CONTINUOUS
370
-3
390
F
  0
LAYER
  5
662
100
AcDbSymbolTableRecord
100
AcDbLayerTableRecord
  2
_3894
 70
0
 62
7
  6
CONTINUOUS
370
-3
390
F
  0
LAYER
  5
663
100
AcDbSymbolTableRecord
100
AcDbLayerTableRecord
  2
_500
 70
0
 62
7
  6
CONTINUOUS
370
-3
390
F
  0
LAYER
  5
664
100
AcDbSymbolTableRecord
100
AcDbLayerTableRecord
  2
_539
 70
0
 62
7
  6
CONTINUOUS
370
-3
390
F
  0
LAYER
  5
665
100
AcDbSymbolTableRecord
100
AcDbLayerTableRecord
  2
_57
 70
0
 62
7
  6
CONTINUOUS
370
-3
390
F
  0
LAYER
  5
666
100
AcDbSymbolTableRecord
100
AcDbLayerTableRecord
  2
_595
 70
0
 62
7
  6
CONTINUOUS
370
-3
390
F
  0
LAYER
  5
667
100
AcDbSymbolTableRecord
100
AcDbLayerTableRecord
  2
_618
 70
0
 62
7
  6
CONTINUOUS
370
-3
390
F
  0
LAYER
  5
668
100
AcDbSymbolTableRecord
100
AcDbLayerTableRecord
  2
_639
 70
0
 62
7
  6
CONTINUOUS
370
-3
390
F
  0
LAYER
  5
669
100
AcDbSymbolTableRecord
100
AcDbLayerTableRecord
  2
_659
 70
0
 62
7
  6
CONTINUOUS
370
-3
390
F
  0
LAYER
  5
66A
100
AcDbSymbolTableRecord
100
AcDbLayerTableRecord
  2
_684
 70
0
 62
7
  6
CONTINUOUS
370
-3
390
F
  0
LAYER
  5
66B
100
AcDbSymbolTableRecord
100
AcDbLayerTableRecord
  2
_704
 70
0
 62
7
  6
CONTINUOUS
370
-3
390
F
  0
LAYER
  5
66C
100
AcDbSymbolTableRecord
100
AcDbLayerTableRecord
  2
_742
 70
0
 62
7
  6
CONTINUOUS
370
-3
390
F
  0
LAYER
  5
66D
100
AcDbSymbolTableRecord
100
AcDbLayerTableRecord
  2
_765
 70
0
 62
7
  6
CONTINUOUS
370
-3
390
F
  0
LAYER
  5
66E
100
AcDbSymbolTableRecord
100
AcDbLayerTableRecord
  2
_770
 70
0
 62
7
  6
CONTINUOUS
370
-3
390
F
  0
LAYER
  5
66F
100
AcDbSymbolTableRecord
100
AcDbLayerTableRecord
  2
_789
 70
0
 62
7
  6
CONTINUOUS
370
-3
390
F
  0
LAYER
  5
670
100
AcDbSymbolTableRecord
100
AcDbLayerTableRecord
  2
_808
 70
0
 62
7
  6
CONTINUOUS
370
-3
390
F
  0
LAYER
  5
671
100
AcDbSymbolTableRecord
100
AcDbLayerTableRecord
  2
_829
 70
0
 62
7
  6
CONTINUOUS
370
-3
390
F
  0
LAYER
  5
672
100
AcDbSymbolTableRecord
100
AcDbLayerTableRecord
  2
_898
 70
0
 62
7
  6
CONTINUOUS
370
-3
390
F
  0
LAYER
  5
673
100
AcDbSymbolTableRecord
100
AcDbLayerTableRecord
  2
_903
 70
0
 62
7
  6
CONTINUOUS
370
-3
390
F
  0
LAYER
  5
674
100
AcDbSymbolTableRecord
100
AcDbLayerTableRecord
  2
_916
 70
0
 62
7
  6
CONTINUOUS
370
-3
390
F
  0
LAYER
  5
675
100
AcDbSymbolTableRecord
100
AcDbLayerTableRecord
  2
_989
 70
0
 62
7
  6
CONTINUOUS
370
-3
390
F
  0
LAYER
  5
676
100
AcDbSymbolTableRecord
100
AcDbLayerTableRecord
  2
___SHELL
 70
0
 62
7
  6
CONTINUOUS
370
-3
390
F
  0
ENDTAB
  0
TABLE
  2
STYLE
  5
3
100
AcDbSymbolTable
 70
1
  0
STYLE
  5
11
100
AcDbSymbolTableRecord
100
AcDbTextStyleTableRecord
  2
STANDARD
 70
0
 40
0.0
 41
0.8
 50
0.0
 71
0
 42
0.2
  3
txt
  4

  0
STYLE
  5
677
100
AcDbSymbolTableRecord
100
AcDbTextStyleTableRecord
  2
TEXTSTYLE_1
 70
0
 40
0.0
 41
0.8
 50
0.0
 71
0
 42
0.2
  3
gdt
  4

  0
ENDTAB
  0
TABLE
  2
VIEW
  5
6
100
AcDbSymbolTable
 70
0
  0
ENDTAB
  0
TABLE
  2
UCS
  5
7
100
AcDbSymbolTable
 70
0
  0
ENDTAB
  0
TABLE
  2
APPID
  5
9
100
AcDbSymbolTable
 70
1
  0
APPID
  5
678
100
AcDbSymbolTableRecord
100
AcDbRegAppTableRecord
  2
ACAD
 70
0
  0
ENDTAB
  0
TABLE
  2
BLOCK_RECORD
  5
1
100
AcDbSymbolTable
 70
0
  0
BLOCK_RECORD
  5
679
100
AcDbSymbolTableRecord
100
AcDbBlockTableRecord
  2
*Model_Space
  0
BLOCK_RECORD
  5
67A
100
AcDbSymbolTableRecord
100
AcDbBlockTableRecord
  2
*Paper_Space
  0
BLOCK_RECORD
  5
67B
100
AcDbSymbolTableRecord
100
AcDbBlockTableRecord
  2
_FILLED
  0
ENDTAB
  0
TABLE
  2
DIMSTYLE
  5
A
100
AcDbSymbolTable
 70
1
100
AcDbDimStyleTable
 71
0
  0
DIMSTYLE
105
67C
100
AcDbSymbolTableRecord
100
AcDbDimStyleTableRecord
  2
STANDARD
 70
0
  3

  4

 40
1.0
 41
3.0
 42
0.5
 43
0.38
 44
1.5
 45
0.0
 46
0.0
 47
0.01
 48
0.01
140
3.0
141
0.09
142
0.0
143
25.4
144
1.0
145
0.0
146
1.0
147
0.625
 71
1
 72
0
 73
0
 74
0
 75
0
 76
0
 77
1
 78
8
 79
2
170
0
171
1
172
0
173
0
174
0
175
0
176
0
177
0
178
0
270
2
179
2
271
2
272
2
273
2
274
2
275
0
280
0
281
0
282
0
283
1
284
8
285
0
286
0
287
3
288
0
340
11
278
44
341
67B
342
67B
343
67B
344
67B
  0
ENDTAB
  0
ENDSEC
  0
SECTION
  2
BLOCKS
  0
BLOCK
  5
20
100
AcDbEntity
  8
0
100
AcDbBlockBegin
  2
*Model_Space
 70
0
 10
0.0
 20
0.0
 30
0.0
  3
*Model_Space
  1

  0
ENDBLK
  5
21
100
AcDbEntity
  8
0
100
AcDbBlockEnd
  0
BLOCK
  5
1C
100
AcDbEntity
  8
0
100
AcDbBlockBegin
  2
*Paper_Space
 70
0
 10
0.0
 20
0.0
 30
0.0
  3
*Paper_Space
  1

  0
ENDBLK
  5
1D
100
AcDbEntity
  8
0
100
AcDbBlockEnd
  0
BLOCK
  5
67D
100
AcDbEntity
  8
0
100
AcDbBlockBegin
  2
_FILLED
 70
64
 10
0.0
 20
0.0
  3
_FILLED
  1

  0
SOLID
  5
67E
100
AcDbEntity
  8
0
  6
BYBLOCK
 62
0
100
AcDbTrace
 10
0.0
 20
0.0
 11
-1.0
 21
0.3166666667
 12
-1.0
 22
-0.3166666667
 13
-1.0
 23
-0.3166666667
  0
ENDBLK
  5
67F
100
AcDbEntity
  8
0
  6
BYBLOCK
 62
0
100
AcDbBlockEnd
  0
ENDSEC
  0
SECTION
  2
ENTITIES
  0
LINE
  5
680
100
AcDbEntity
  8
RACCORDO
100
AcDbLine
 62
7
  6
CONTINUOUS
 10
-32.7843721659
 20
68.4659256088
 11
-32.7523789361
 21
68.4979188387
  0
LINE
  5
681
100
AcDbEntity
  8
ASSI
100
AcDbLine
 62
7
  6
CONTINUOUS
 10
16.0976786417
 20
-73.0
 11
16.3213335748
 21
-72.9562556682
  0
LINE
  5
682
100
AcDbEntity
  8
DRAFT
100
AcDbLine
 62
7
  6
CONTINUOUS
 10
16.0976786417
 20
-73.0
 11
16.3213335748
 21
-72.9562556682
  0
LINE
  5
683
100
AcDbEntity
  8
RACCORDO
100
AcDbLine
 62
7
  6
CONTINUOUS
 10
46.1415415936
 20
-73.0
 11
30.1404146236
 21
-73.0
  0
LINE
  5
684
100
AcDbEntity
  8
ASSI
100
AcDbLine
 62
7
  6
CONTINUOUS
 10
46.1415415936
 20
-73.0
 11
30.1404146236
 21
-73.0
  0
LINE
  5
685
100
AcDbEntity
  8
ASSI
100
AcDbLine
 62
7
  6
CONTINUOUS
 10
28.9682594487
 20
-73.0
 11
24.1335770265
 21
-73.0
  0
LINE
  5
686
100
AcDbEntity
  8
RACCORDO
100
AcDbLine
 62
7
  6
CONTINUOUS
 10
28.9682594487
 20
-73.0
 11
24.1335770265
 21
-73.0
  0
LINE
  5
687
100
AcDbEntity
  8
ASSI
100
AcDbLine
 62
7
  6
CONTINUOUS
 10
16.0976786417
 20
-73.0
 11
-15.8664229735
 21
-73.0
  0
LINE
  5
688
100
AcDbEntity
  8
DRAFT
100
AcDbLine
 62
7
  6
CONTINUOUS
 10
16.0976786417
 20
-73.0
 11
-15.8664229735
 21
-73.0
  0
LINE
  5
689
100
AcDbEntity
  8
ASSI
100
AcDbLine
 62
7
  6
CONTINUOUS
 10
-23.9023213583
 20
-73.0
 11
-28.7370037805
 21
-73.0
  0
LINE
  5
68A
100
AcDbEntity
  8
RACCORDO
100
AcDbLine
 62
7
  6
CONTINUOUS
 10
-23.9023213583
 20
-73.0
 11
-28.7370037805
 21
-73.0
  0
LINE
  5
68B
100
AcDbEntity
  8
ASSI
100
AcDbLine
 62
7
  6
CONTINUOUS
 10
-29.9091589553
 20
-73.0
 11
-45.9102859254
 21
-73.0
  0
LINE
  5
68C
100
AcDbEntity
  8
RACCORDO
100
AcDbLine
 62
7
  6
CONTINUOUS
 10
-29.9091589553
 20
-73.0
 11
-45.9102859254
 21
-73.0
  0
LINE
  5
68D
100
AcDbEntity
  8
0
100
AcDbLine
 62
7
  6
CONTINUOUS
 10
46.0775914552
 20
-72.9562556682
 11
-45.846335787
 21
-72.9562556682
  0
LINE
  5
68E
100
AcDbEntity
  8
RACCORDO
100
AcDbLine
 62
7
  6
CONTINUOUS
 10
-44.8987679027
 20
-72.0531249093
 11
45.1628754288
 21
-72.0531249093
  0
LINE
  5
68F
100
AcDbEntity
  8
RACCORDO
100
AcDbLine
 62
7
  6
CONTINUOUS
 10
-42.3051440296
 20
-69.2659256088
 11
42.5337776817
 21
-69.2659256088
  0
LINE
  5
690
100
AcDbEntity
  8
ASSI
100
AcDbLine
 62
7
  6
CONTINUOUS
 10
-15.8664229735
 20
-73.0
 11
-16.0900779065
 21
-72.9562556682
  0
LINE
  5
691
100
AcDbEntity
  8
DRAFT
100
AcDbLine
 62
7
  6
CONTINUOUS
 10
-15.8664229735
 20
-73.0
 11
-16.0900779065
 21
-72.9562556682
  0
LINE
  5
692
100
AcDbEntity
  8
RACCORDO
100
AcDbLine
 62
7
  6
CONTINUOUS
 10
-32.7843721659
 20
-68.4659256088
 11
-32.7523789361
 21
-68.4979188387
  0
LINE
  5
693
100
AcDbEntity
  8
RACCORDO
100
AcDbLine
 62
7
  6
CONTINUOUS
 10
-42.8502977747
 20
-55.2659256088
 11
-42.8822910045
 21
-55.233932379
  0
LINE
  5
694
100
AcDbEntity
  8
RACCORDO
100
AcDbLine
 62
7
  6
CONTINUOUS
 10
-42.8502977747
 20
49.9
 11
-42.8822910045
 21
49.8680067702
  0
LINE
  5
695
100
AcDbEntity
  8
ASSI
100
AcDbLine
 62
7
  6
CONTINUOUS
 10
-23.9023213583
 20
-73.0
 11
-23.6786664252
 21
-72.9562556682
  0
LINE
  5
696
100
AcDbEntity
  8
DRAFT
100
AcDbLine
 62
7
  6
CONTINUOUS
 10
-23.9023213583
 20
-73.0
 11
-23.6786664252
 21
-72.9562556682
  0
LINE
  5
697
100
AcDbEntity
  8
RACCORDO
100
AcDbLine
 62
7
  6
CONTINUOUS
 10
43.1234796664
 20
-68.5078518323
 11
32.7839086973
 21
-68.5078518323
  0
LINE
  5
698
100
AcDbEntity
  8
RACCORDO
100
AcDbLine
 62
7
  6
CONTINUOUS
 10
32.4473469709
 20
-68.5078518323
 11
0.2839086973
 21
-68.5078518323
  0
LINE
  5
699
100
AcDbEntity
  8
RACCORDO
100
AcDbLine
 62
7
  6
CONTINUOUS
 10
-0.0526530291
 20
-68.5078518323
 11
-32.2160913027
 21
-68.5078518323
  0
LINE
  5
69A
100
AcDbEntity
  8
RACCORDO
100
AcDbLine
 62
7
  6
CONTINUOUS
 10
-32.5526530291
 20
-68.5078518323
 11
-42.8922239982
 21
-68.5078518323
  0
LINE
  5
69B
100
AcDbEntity
  8
DRAFT
100
AcDbLine
 62
7
  6
CONTINUOUS
 10
-42.8502977747
 20
-68.4659256088
 11
-32.7843721659
 21
-68.4659256088
  0
LINE
  5
69C
100
AcDbEntity
  8
DRAFT
100
AcDbLine
 62
7
  6
CONTINUOUS
 10
-31.9843721659
 20
-68.4659256088
 11
-0.2843721659
 21
-68.4659256088
  0
LINE
  5
69D
100
AcDbEntity
  8
DRAFT
100
AcDbLine
 62
7
  6
CONTINUOUS
 10
0.5156278341
 20
-68.4659256088
 11
32.2156278341
 21
-68.4659256088
  0
LINE
  5
69E
100
AcDbEntity
  8
DRAFT
100
AcDbLine
 62
7
  6
CONTINUOUS
 10
33.0156278341
 20
-68.4659256088
 11
43.081553443
 21
-68.4659256088
  0
LINE
  5
69F
100
AcDbEntity
  8
RACCORDO
100
AcDbLine
 62
250
  6
CONTINUOUS
 10
32.4473469709
 20
-67.8659256088
 11
32.2156278341
 21
-67.8659256088
  0
LINE
  5
6A0
100
AcDbEntity
  8
RACCORDO
100
AcDbLine
 62
250
  6
CONTINUOUS
 10
-31.9843721659
 20
-67.8659256088
 11
-32.2160913027
 21
-67.8659256088
  0
LINE
  5
6A1
100
AcDbEntity
  8
RACCORDO
100
AcDbLine
 62
250
  6
CONTINUOUS
 10
-32.5526530291
 20
-67.8659256088
 11
-32.7843721659
 21
-67.8659256088
  0
LINE
  5
6A2
100
AcDbEntity
  8
RACCORDO
100
AcDbLine
 62
250
  6
CONTINUOUS
 10
32.7839086973
 20
-67.8659256088
 11
33.0156278341
 21
-67.8659256088
  0
LINE
  5
6A3
100
AcDbEntity
  8
ASSI
100
AcDbLine
 62
7
  6
CONTINUOUS
 10
24.1335770265
 20
-73.0
 11
23.9099220935
 21
-72.9562556682
  0
LINE
  5
6A4
100
AcDbEntity
  8
DRAFT
100
AcDbLine
 62
7
  6
CONTINUOUS
 10
24.1335770265
 20
-73.0
 11
23.9099220935
 21
-72.9562556682
  0
LINE
  5
6A5
100
AcDbEntity
  8
RACCORDO
100
AcDbLine
 62
7
  6
CONTINUOUS
 10
-42.8502977747
 20
-50.9
 11
-42.8822910045
 21
-50.8680067702
  0
LINE
  5
6A6
100
AcDbEntity
  8
0
100
AcDbLine
 62
7
  6
CONTINUOUS
 10
-47.2772901735
 20
-61.4577576439
 11
-47.3406278341
 21
-61.4577576439
  0
LINE
  5
6A7
100
AcDbEntity
  8
0
100
AcDbLine
 62
7
  6
CONTINUOUS
 10
-47.2772901735
 20
-60.5422423561
 11
-47.3406278341
 21
-60.5422423561
  0
LINE
  5
6A8
100
AcDbEntity
  8
0
100
AcDbLine
 62
7
  6
CONTINUOUS
 10
-47.3406278341
 20
-58.4577576439
 11
-47.2772901735
 21
-58.4577576439
  0
LINE
  5
6A9
100
AcDbEntity
  8
0
100
AcDbLine
 62
7
  6
CONTINUOUS
 10
-47.3406278341
 20
-57.5422423561
 11
-47.2772901735
 21
-57.5422423561
  0
LINE
  5
6AA
100
AcDbEntity
  8
RACCORDO
100
AcDbLine
 62
250
  6
CONTINUOUS
 10
-28.3800692859
 20
-55.2431843029
 11
-28.2045120205
 21
-55.338421294
  0
LINE
  5
6AB
100
AcDbEntity
  8
RACCORDO
100
AcDbLine
 62
7
  6
CONTINUOUS
 10
-42.3592197568
 20
-39.8251524091
 11
-42.3603180727
 21
-39.8241005591
  0
LWPOLYLINE
  5
6AC
100
AcDbEntity
  8
RACCORDO
100
AcDbPolyline
 62
7
  6
CONTINUOUS
 90
3
 70
0
 10
-42.484132295
 20
-39.7001852299
 10
-42.5391534556
 20
-39.6454383416
 10
-42.5590979222
 20
-39.6252742437
  0
LINE
  5
6AD
100
AcDbEntity
  8
DRAFT
100
AcDbLine
 62
7
  6
CONTINUOUS
 10
-42.1843721659
 20
-40.0
 11
-42.2961186283
 21
-39.8882535376
  0
LINE
  5
6AE
100
AcDbEntity
  8
RACCORDO
100
AcDbLine
 62
7
  6
CONTINUOUS
 10
-42.2961186283
 20
-39.8882535376
 11
-42.5590979222
 21
-39.6252742437
  0
LINE
  5
6AF
100
AcDbEntity
  8
RACCORDO
100
AcDbLine
 62
7
  6
CONTINUOUS
 10
-42.362592607
 20
-39.8218140258
 11
-42.3660793566
 21
-39.8182928092
  0
LINE
  5
6B0
100
AcDbEntity
  8
RACCORDO
100
AcDbLine
 62
250
  6
CONTINUOUS
 10
-0.0526530291
 20
-55.433658286
 11
-0.2523789361
 21
-55.433658286
  0
LINE
  5
6B1
100
AcDbEntity
  8
RACCORDO
100
AcDbLine
 62
250
  6
CONTINUOUS
 10
0.2839086973
 20
-55.433658286
 11
0.4836346043
 21
-55.433658286
  0
LINE
  5
6B2
100
AcDbEntity
  8
RACCORDO
100
AcDbLine
 62
7
  6
CONTINUOUS
 10
-42.8502977747
 20
-55.2659256088
 11
-31.8587372333
 21
-55.2659256088
  0
LINE
  5
6B3
100
AcDbEntity
  8
RACCORDO
100
AcDbLine
 62
7
  6
CONTINUOUS
 10
-28.0100070985
 20
-55.2659256088
 11
-0.4840980728
 21
-55.2659256088
  0
LINE
  5
6B4
100
AcDbEntity
  8
RACCORDO
100
AcDbLine
 62
7
  6
CONTINUOUS
 10
0.7153537411
 20
-55.2659256088
 11
43.081553443
 21
-55.2659256088
  0
LINE
  5
6B5
100
AcDbEntity
  8
RACCORDO
100
AcDbLine
 62
250
  6
CONTINUOUS
 10
-42.8822910045
 20
-55.233932379
 11
-31.8397895762
 21
-55.233932379
  0
LINE
  5
6B6
100
AcDbEntity
  8
RACCORDO
100
AcDbLine
 62
250
  6
CONTINUOUS
 10
-28.0289547556
 20
-55.233932379
 11
-0.452104843
 21
-55.233932379
  0
LINE
  5
6B7
100
AcDbEntity
  8
RACCORDO
100
AcDbLine
 62
250
  6
CONTINUOUS
 10
0.6833605113
 20
-55.233932379
 11
43.1135466728
 21
-55.233932379
  0
LINE
  5
6B8
100
AcDbEntity
  8
RACCORDO
100
AcDbLine
 62
250
  6
CONTINUOUS
 10
-42.8922239982
 20
-55.0342064721
 11
-31.8397895762
 21
-55.0342064721
  0
LINE
  5
6B9
100
AcDbEntity
  8
RACCORDO
100
AcDbLine
 62
250
  6
CONTINUOUS
 10
-28.0289547556
 20
-55.0342064721
 11
-0.452104843
 21
-55.0342064721
  0
LINE
  5
6BA
100
AcDbEntity
  8
RACCORDO
100
AcDbLine
 62
250
  6
CONTINUOUS
 10
0.6833605113
 20
-55.0342064721
 11
43.1234796664
 21
-55.0342064721
  0
LINE
  5
6BB
100
AcDbEntity
  8
RACCORDO
100
AcDbLine
 62
250
  6
CONTINUOUS
 10
43.1234796664
 20
-54.6976447456
 11
-42.8922239982
 21
-54.6976447456
  0
LINE
  5
6BC
100
AcDbEntity
  8
RACCORDO
100
AcDbLine
 62
250
  6
CONTINUOUS
 10
43.1135466728
 20
-54.4979188387
 11
-42.8822910045
 21
-54.4979188387
  0
LINE
  5
6BD
100
AcDbEntity
  8
DRAFT
100
AcDbLine
 62
7
  6
CONTINUOUS
 10
43.081553443
 20
-54.4659256088
 11
-42.8502977747
 21
-54.4659256088
  0
LINE
  5
6BE
100
AcDbEntity
  8
RACCORDO
100
AcDbLine
 62
250
  6
CONTINUOUS
 10
-38.2725038689
 20
-42.1117464624
 11
-38.2094027404
 21
-42.1748475909
  0
LINE
  5
6BF
100
AcDbEntity
  8
RACCORDO
100
AcDbLine
 62
250
  6
CONTINUOUS
 10
-38.0726257035
 20
-41.911868297
 11
-38.009524575
 21
-41.9749694255
  0
LINE
  5
6C0
100
AcDbEntity
  8
DRAFT
100
AcDbLine
 62
7
  6
CONTINUOUS
 10
-47.4843721659
 20
61.25
 11
-47.4843721659
 21
60.75
  0
LINE
  5
6C1
100
AcDbEntity
  8
DRAFT
100
AcDbLine
 62
7
  6
CONTINUOUS
 10
-47.4843721659
 20
60.25
 11
-47.4843721659
 21
59.75
  0
LINE
  5
6C2
100
AcDbEntity
  8
DRAFT
100
AcDbLine
 62
7
  6
CONTINUOUS
 10
-47.4843721659
 20
27.25
 11
-47.4843721659
 21
26.75
  0
LINE
  5
6C3
100
AcDbEntity
  8
ASSI
100
AcDbLine
 62
7
  6
CONTINUOUS
 10
-47.4843721659
 20
27.25
 11
-47.4843721659
 21
26.75
  0
LINE
  5
6C4
100
AcDbEntity
  8
DRAFT
100
AcDbLine
 62
7
  6
CONTINUOUS
 10
-47.4843721659
 20
26.25
 11
-47.4843721659
 21
25.75
  0
LINE
  5
6C5
100
AcDbEntity
  8
ASSI
100
AcDbLine
 62
7
  6
CONTINUOUS
 10
-47.4843721659
 20
26.25
 11
-47.4843721659
 21
25.75
  0
LINE
  5
6C6
100
AcDbEntity
  8
RACCORDO
100
AcDbLine
 62
7
  6
CONTINUOUS
 10
-47.4843721659
 20
25.0
 11
-47.4843721659
 21
25.25
  0
LINE
  5
6C7
100
AcDbEntity
  8
ASSI
100
AcDbLine
 62
7
  6
CONTINUOUS
 10
-47.4843721659
 20
25.0
 11
-47.4843721659
 21
25.25
  0
LINE
  5
6C8
100
AcDbEntity
  8
RACCORDO
100
AcDbLine
 62
7
  6
CONTINUOUS
 10
-47.4843721659
 20
27.75
 11
-47.4843721659
 21
28.0
  0
LINE
  5
6C9
100
AcDbEntity
  8
ASSI
100
AcDbLine
 62
7
  6
CONTINUOUS
 10
-47.4843721659
 20
27.75
 11
-47.4843721659
 21
28.0
  0
LINE
  5
6CA
100
AcDbEntity
  8
RACCORDO
100
AcDbLine
 62
7
  6
CONTINUOUS
 10
-47.4843721659
 20
59.0
 11
-47.4843721659
 21
59.25
  0
LINE
  5
6CB
100
AcDbEntity
  8
RACCORDO
100
AcDbLine
 62
7
  6
CONTINUOUS
 10
-47.4843721659
 20
61.75
 11
-47.4843721659
 21
62.0
  0
LINE
  5
6CC
100
AcDbEntity
  8
ASSI
100
AcDbLine
 62
7
  6
CONTINUOUS
 10
-47.4093721659
 20
-71.5009137595
 11
-47.4093721659
 21
-61.4210384686
  0
LINE
  5
6CD
100
AcDbEntity
  8
RACCORDO
100
AcDbLine
 62
7
  6
CONTINUOUS
 10
-47.4093721659
 20
-71.5009137595
 11
-47.4093721659
 21
-61.4210384686
  0
LINE
  5
6CE
100
AcDbEntity
  8
ASSI
100
AcDbLine
 62
7
  6
CONTINUOUS
 10
-47.4093721659
 20
-60.5789615315
 11
-47.4093721659
 21
-58.4210384685
  0
LINE
  5
6CF
100
AcDbEntity
  8
RACCORDO
100
AcDbLine
 62
7
  6
CONTINUOUS
 10
-47.4093721659
 20
-60.5789615315
 11
-47.4093721659
 21
-58.4210384685
  0
LINE
  5
6D0
100
AcDbEntity
  8
ASSI
100
AcDbLine
 62
7
  6
CONTINUOUS
 10
-47.4093721659
 20
-57.5789615314
 11
-47.4093721659
 21
-46.3497867895
  0
LINE
  5
6D1
100
AcDbEntity
  8
RACCORDO
100
AcDbLine
 62
7
  6
CONTINUOUS
 10
-47.4093721659
 20
-57.5789615314
 11
-47.4093721659
 21
-46.3497867895
  0
LINE
  5
6D2
100
AcDbEntity
  8
RACCORDO
100
AcDbLine
 62
7
  6
CONTINUOUS
 10
-47.4093721659
 20
-45.1502132105
 11
-47.4093721659
 21
-32.4210384686
  0
LINE
  5
6D3
100
AcDbEntity
  8
ASSI
100
AcDbLine
 62
7
  6
CONTINUOUS
 10
-47.4093721659
 20
-45.1502132105
 11
-47.4093721659
 21
-32.4210384686
  0
LINE
  5
6D4
100
AcDbEntity
  8
RACCORDO
100
AcDbLine
 62
7
  6
CONTINUOUS
 10
-47.4093721659
 20
-31.5789615315
 11
-47.4093721659
 21
-18.8497867895
  0
LINE
  5
6D5
100
AcDbEntity
  8
ASSI
100
AcDbLine
 62
7
  6
CONTINUOUS
 10
-47.4093721659
 20
-31.5789615315
 11
-47.4093721659
 21
-18.8497867895
  0
LINE
  5
6D6
100
AcDbEntity
  8
RACCORDO
100
AcDbLine
 62
7
  6
CONTINUOUS
 10
-47.4093721659
 20
-17.6502132105
 11
-47.4093721659
 21
8.6502132105
  0
LINE
  5
6D7
100
AcDbEntity
  8
ASSI
100
AcDbLine
 62
7
  6
CONTINUOUS
 10
-47.4093721659
 20
-17.6502132105
 11
-47.4093721659
 21
8.6502132105
  0
LINE
  5
6D8
100
AcDbEntity
  8
ASSI
100
AcDbLine
 62
7
  6
CONTINUOUS
 10
-47.3569910116
 20
9.8521679437
 11
-47.3569910116
 21
25.0
  0
LINE
  5
6D9
100
AcDbEntity
  8
0
100
AcDbLine
 62
7
  6
CONTINUOUS
 10
-47.3569910116
 20
9.8521679437
 11
-47.3569910116
 21
25.0
  0
LINE
  5
6DA
100
AcDbEntity
  8
ASSI
100
AcDbLine
 62
7
  6
CONTINUOUS
 10
-47.3569910116
 20
25.2611444069
 11
-47.3569910116
 21
25.7388555931
  0
LINE
  5
6DB
100
AcDbEntity
  8
0
100
AcDbLine
 62
7
  6
CONTINUOUS
 10
-47.3569910116
 20
25.2611444069
 11
-47.3569910116
 21
25.7388555931
  0
LINE
  5
6DC
100
AcDbEntity
  8
ASSI
100
AcDbLine
 62
7
  6
CONTINUOUS
 10
-47.3569910116
 20
26.2611444069
 11
-47.3569910116
 21
26.7388555931
  0
LINE
  5
6DD
100
AcDbEntity
  8
0
100
AcDbLine
 62
7
  6
CONTINUOUS
 10
-47.3569910116
 20
26.2611444069
 11
-47.3569910116
 21
26.7388555931
  0
LINE
  5
6DE
100
AcDbEntity
  8
ASSI
100
AcDbLine
 62
7
  6
CONTINUOUS
 10
-47.3569910116
 20
27.2611444069
 11
-47.3569910116
 21
27.7388555931
  0
LINE
  5
6DF
100
AcDbEntity
  8
0
100
AcDbLine
 62
7
  6
CONTINUOUS
 10
-47.3569910116
 20
27.2611444069
 11
-47.3569910116
 21
27.7388555931
  0
LINE
  5
6E0
100
AcDbEntity
  8
ASSI
100
AcDbLine
 62
7
  6
CONTINUOUS
 10
-47.3569910116
 20
28.0
 11
-47.3569910116
 21
59.0
  0
LINE
  5
6E1
100
AcDbEntity
  8
0
100
AcDbLine
 62
7
  6
CONTINUOUS
 10
-47.3569910116
 20
28.0
 11
-47.3569910116
 21
59.0
  0
LINE
  5
6E2
100
AcDbEntity
  8
ASSI
100
AcDbLine
 62
7
  6
CONTINUOUS
 10
-47.3569910116
 20
59.2611444069
 11
-47.3569910116
 21
59.7388555931
  0
LINE
  5
6E3
100
AcDbEntity
  8
0
100
AcDbLine
 62
7
  6
CONTINUOUS
 10
-47.3569910116
 20
59.2611444069
 11
-47.3569910116
 21
59.7388555931
  0
LINE
  5
6E4
100
AcDbEntity
  8
ASSI
100
AcDbLine
 62
7
  6
CONTINUOUS
 10
-47.3569910116
 20
60.2611444069
 11
-47.3569910116
 21
60.7388555931
  0
LINE
  5
6E5
100
AcDbEntity
  8
0
100
AcDbLine
 62
7
  6
CONTINUOUS
 10
-47.3569910116
 20
60.2611444069
 11
-47.3569910116
 21
60.7388555931
  0
LINE
  5
6E6
100
AcDbEntity
  8
ASSI
100
AcDbLine
 62
7
  6
CONTINUOUS
 10
-47.3569910116
 20
61.2611444069
 11
-47.3569910116
 21
61.7388555931
  0
LINE
  5
6E7
100
AcDbEntity
  8
0
100
AcDbLine
 62
7
  6
CONTINUOUS
 10
-47.3569910116
 20
61.2611444069
 11
-47.3569910116
 21
61.7388555931
  0
LINE
  5
6E8
100
AcDbEntity
  8
ASSI
100
AcDbLine
 62
7
  6
CONTINUOUS
 10
-47.3569910116
 20
62.0
 11
-47.3569910116
 21
71.4985326052
  0
LINE
  5
6E9
100
AcDbEntity
  8
0
100
AcDbLine
 62
7
  6
CONTINUOUS
 10
-47.3569910116
 20
62.0
 11
-47.3569910116
 21
71.4985326052
  0
LINE
  5
6EA
100
AcDbEntity
  8
0
100
AcDbLine
 62
7
  6
CONTINUOUS
 10
-47.3406278341
 20
-71.4619636211
 11
-47.3406278341
 21
-61.4577576439
  0
LINE
  5
6EB
100
AcDbEntity
  8
0
100
AcDbLine
 62
7
  6
CONTINUOUS
 10
-47.3406278341
 20
-60.5422423561
 11
-47.3406278341
 21
-58.4577576439
  0
LINE
  5
6EC
100
AcDbEntity
  8
0
100
AcDbLine
 62
7
  6
CONTINUOUS
 10
-47.3406278341
 20
-57.5422423561
 11
-47.3406278341
 21
-32.4577576439
  0
LINE
  5
6ED
100
AcDbEntity
  8
0
100
AcDbLine
 62
7
  6
CONTINUOUS
 10
-47.3406278341
 20
-31.5422423561
 11
-47.3406278341
 21
25.0
  0
LINE
  5
6EE
100
AcDbEntity
  8
0
100
AcDbLine
 62
7
  6
CONTINUOUS
 10
-47.3406278341
 20
25.2625759995
 11
-47.3406278341
 21
25.7374240005
  0
LINE
  5
6EF
100
AcDbEntity
  8
0
100
AcDbLine
 62
7
  6
CONTINUOUS
 10
-47.3406278341
 20
26.2625759995
 11
-47.3406278341
 21
26.7374240005
  0
LINE
  5
6F0
100
AcDbEntity
  8
0
100
AcDbLine
 62
7
  6
CONTINUOUS
 10
-47.3406278341
 20
27.2625759995
 11
-47.3406278341
 21
27.7374240005
  0
LINE
  5
6F1
100
AcDbEntity
  8
0
100
AcDbLine
 62
7
  6
CONTINUOUS
 10
-47.3406278341
 20
28.0
 11
-47.3406278341
 21
59.0
  0
LINE
  5
6F2
100
AcDbEntity
  8
0
100
AcDbLine
 62
7
  6
CONTINUOUS
 10
-47.3406278341
 20
59.2625759995
 11
-47.3406278341
 21
59.7374240005
  0
LINE
  5
6F3
100
AcDbEntity
  8
0
100
AcDbLine
 62
7
  6
CONTINUOUS
 10
-47.3406278341
 20
60.2625759995
 11
-47.3406278341
 21
60.7374240005
  0
LINE
  5
6F4
100
AcDbEntity
  8
0
100
AcDbLine
 62
7
  6
CONTINUOUS
 10
-47.3406278341
 20
61.2625759995
 11
-47.3406278341
 21
61.7374240005
  0
LINE
  5
6F5
100
AcDbEntity
  8
0
100
AcDbLine
 62
7
  6
CONTINUOUS
 10
-47.3406278341
 20
62.0
 11
-47.3406278341
 21
71.4619636211
  0
LINE
  5
6F6
100
AcDbEntity
  8
RACCORDO
100
AcDbLine
 62
7
  6
CONTINUOUS
 10
-47.0843721659
 20
61.8000101566
 11
-47.0843721659
 21
61.7150045346
  0
LINE
  5
6F7
100
AcDbEntity
  8
RACCORDO
100
AcDbLine
 62
7
  6
CONTINUOUS
 10
-47.0843721659
 20
59.2849954654
 11
-47.0843721659
 21
59.1999898434
  0
LINE
  5
6F8
100
AcDbEntity
  8
RACCORDO
100
AcDbLine
 62
7
  6
CONTINUOUS
 10
-47.0843721659
 20
27.8000101566
 11
-47.0843721659
 21
27.7150045346
  0
LINE
  5
6F9
100
AcDbEntity
  8
RACCORDO
100
AcDbLine
 62
7
  6
CONTINUOUS
 10
-47.0843721659
 20
25.2849954654
 11
-47.0843721659
 21
25.1999898434
  0
LINE
  5
6FA
100
AcDbEntity
  8
DRAFT
100
AcDbLine
 62
7
  6
CONTINUOUS
 10
-47.0843721659
 20
25.2849954654
 11
-47.0843721659
 21
27.7150045346
  0
LINE
  5
6FB
100
AcDbEntity
  8
ASSI
100
AcDbLine
 62
7
  6
CONTINUOUS
 10
-47.0843721659
 20
25.1999898434
 11
-47.0843721659
 21
27.8000101566
  0
LINE
  5
6FC
100
AcDbEntity
  8
DRAFT
100
AcDbLine
 62
7
  6
CONTINUOUS
 10
-47.0843721659
 20
59.2849954654
 11
-47.0843721659
 21
61.7150045346
  0
LINE
  5
6FD
100
AcDbEntity
  8
RACCORDO
100
AcDbLine
 62
7
  6
CONTINUOUS
 10
-47.0837903747
 20
25.0
 11
-47.0837903747
 21
25.2
  0
LINE
  5
6FE
100
AcDbEntity
  8
ASSI
100
AcDbLine
 62
7
  6
CONTINUOUS
 10
-47.0837903747
 20
25.0
 11
-47.0837903747
 21
25.2
  0
LINE
  5
6FF
100
AcDbEntity
  8
RACCORDO
100
AcDbLine
 62
7
  6
CONTINUOUS
 10
-47.0837903747
 20
59.0
 11
-47.0837903747
 21
59.2
  0
LINE
  5
700
100
AcDbEntity
  8
RACCORDO
100
AcDbLine
 62
7
  6
CONTINUOUS
 10
-46.7500793553
 20
58.9941648973
 11
-46.7500793553
 21
53.2019313008
  0
LINE
  5
701
100
AcDbEntity
  8
RACCORDO
100
AcDbLine
 62
7
  6
CONTINUOUS
 10
-46.7500793553
 20
24.9941648973
 11
-46.7500793553
 21
19.2019313008
  0
LINE
  5
702
100
AcDbEntity
  8
RACCORDO
100
AcDbLine
 62
7
  6
CONTINUOUS
 10
-46.4876133647
 20
19.1964367374
 11
-46.4876133647
 21
27.8035632626
  0
LINE
  5
703
100
AcDbEntity
  8
RACCORDO
100
AcDbLine
 62
7
  6
CONTINUOUS
 10
-46.4876133647
 20
53.1964367374
 11
-46.4876133647
 21
61.8035632626
  0
LINE
  5
704
100
AcDbEntity
  8
RACCORDO
100
AcDbLine
 62
7
  6
CONTINUOUS
 10
-46.4374970751
 20
70.5143957368
 11
-46.4374970751
 21
-70.5143957368
  0
LINE
  5
705
100
AcDbEntity
  8
RACCORDO
100
AcDbLine
 62
7
  6
CONTINUOUS
 10
-0.2843721659
 20
68.4659256088
 11
-0.2523789361
 21
68.4979188387
  0
LINE
  5
706
100
AcDbEntity
  8
RACCORDO
100
AcDbLine
 62
7
  6
CONTINUOUS
 10
-42.8502977747
 20
-50.9
 11
-42.2502977747
 21
-50.9
  0
LINE
  5
707
100
AcDbEntity
  8
RACCORDO
100
AcDbLine
 62
7
  6
CONTINUOUS
 10
43.081553443
 20
-50.9
 11
42.481553443
 21
-50.9
  0
LINE
  5
708
100
AcDbEntity
  8
RACCORDO
100
AcDbLine
 62
250
  6
CONTINUOUS
 10
-42.8822910045
 20
-50.8680067702
 11
-42.2502977747
 21
-50.8680067702
  0
LINE
  5
709
100
AcDbEntity
  8
RACCORDO
100
AcDbLine
 62
250
  6
CONTINUOUS
 10
42.481553443
 20
-50.8680067702
 11
43.1135466728
 21
-50.8680067702
  0
LINE
  5
70A
100
AcDbEntity
  8
RACCORDO
100
AcDbLine
 62
250
  6
CONTINUOUS
 10
-42.8922239982
 20
-50.6682808632
 11
-42.2502977747
 21
-50.6682808632
  0
LINE
  5
70B
100
AcDbEntity
  8
RACCORDO
100
AcDbLine
 62
250
  6
CONTINUOUS
 10
42.481553443
 20
-50.6682808632
 11
43.1234796664
 21
-50.6682808632
  0
LINE
  5
70C
100
AcDbEntity
  8
RACCORDO
100
AcDbLine
 62
250
  6
CONTINUOUS
 10
43.1234796664
 20
-50.3317191368
 11
42.481553443
 21
-50.3317191368
  0
LINE
  5
70D
100
AcDbEntity
  8
RACCORDO
100
AcDbLine
 62
250
  6
CONTINUOUS
 10
-42.2502977747
 20
-50.3317191368
 11
-42.8922239982
 21
-50.3317191368
  0
LINE
  5
70E
100
AcDbEntity
  8
RACCORDO
100
AcDbLine
 62
250
  6
CONTINUOUS
 10
43.1135466728
 20
-50.1319932298
 11
42.481553443
 21
-50.1319932298
  0
LINE
  5
70F
100
AcDbEntity
  8
RACCORDO
100
AcDbLine
 62
250
  6
CONTINUOUS
 10
-42.2502977747
 20
-50.1319932298
 11
-42.8822910045
 21
-50.1319932298
  0
LINE
  5
710
100
AcDbEntity
  8
RACCORDO
100
AcDbLine
 62
7
  6
CONTINUOUS
 10
-42.8502977747
 20
-50.1
 11
-42.2502977747
 21
-50.1
  0
LINE
  5
711
100
AcDbEntity
  8
RACCORDO
100
AcDbLine
 62
7
  6
CONTINUOUS
 10
43.081553443
 20
-50.1
 11
42.481553443
 21
-50.1
  0
LINE
  5
712
100
AcDbEntity
  8
RACCORDO
100
AcDbLine
 62
7
  6
CONTINUOUS
 10
-0.2843721659
 20
-68.4659256088
 11
-0.2523789361
 21
-68.4979188387
  0
LINE
  5
713
100
AcDbEntity
  8
RACCORDO
100
AcDbLine
 62
7
  6
CONTINUOUS
 10
-43.6502977747
 20
67.9207718637
 11
-43.6502977747
 21
-67.9207718637
  0
LINE
  5
714
100
AcDbEntity
  8
RACCORDO
100
AcDbLine
 62
7
  6
CONTINUOUS
 10
-42.8922239982
 20
-68.5078518323
 11
-42.8922239982
 21
-55.0342064721
  0
LINE
  5
715
100
AcDbEntity
  8
RACCORDO
100
AcDbLine
 62
7
  6
CONTINUOUS
 10
-42.8922239982
 20
-54.6976447456
 11
-42.8922239982
 21
-50.6682808632
  0
LINE
  5
716
100
AcDbEntity
  8
RACCORDO
100
AcDbLine
 62
7
  6
CONTINUOUS
 10
-42.8922239982
 20
-50.3317191368
 11
-42.8922239982
 21
-0.6682808632
  0
LINE
  5
717
100
AcDbEntity
  8
RACCORDO
100
AcDbLine
 62
7
  6
CONTINUOUS
 10
-42.8922239982
 20
-0.3317191368
 11
-42.8922239982
 21
49.3317191368
  0
LINE
  5
718
100
AcDbEntity
  8
RACCORDO
100
AcDbLine
 62
7
  6
CONTINUOUS
 10
-42.8922239982
 20
49.6682808632
 11
-42.8922239982
 21
68.5078518323
  0
LINE
  5
719
100
AcDbEntity
  8
DRAFT
100
AcDbLine
 62
7
  6
CONTINUOUS
 10
-42.8502977747
 20
68.4659256088
 11
-42.8502977747
 21
49.9
  0
LINE
  5
71A
100
AcDbEntity
  8
DRAFT
100
AcDbLine
 62
7
  6
CONTINUOUS
 10
-42.8502977747
 20
49.1
 11
-42.8502977747
 21
-0.1
  0
LINE
  5
71B
100
AcDbEntity
  8
DRAFT
100
AcDbLine
 62
7
  6
CONTINUOUS
 10
-42.8502977747
 20
-0.9
 11
-42.8502977747
 21
-50.1
  0
LINE
  5
71C
100
AcDbEntity
  8
DRAFT
100
AcDbLine
 62
7
  6
CONTINUOUS
 10
-42.8502977747
 20
-50.9
 11
-42.8502977747
 21
-54.4659256088
  0
LINE
  5
71D
100
AcDbEntity
  8
DRAFT
100
AcDbLine
 62
7
  6
CONTINUOUS
 10
-42.8502977747
 20
-55.2659256088
 11
-42.8502977747
 21
-68.4659256088
  0
LINE
  5
71E
100
AcDbEntity
  8
RACCORDO
100
AcDbLine
 62
250
  6
CONTINUOUS
 10
-42.5590979222
 20
-42.3747257563
 11
-42.5590979222
 21
-39.6252742437
  0
LINE
  5
71F
100
AcDbEntity
  8
RACCORDO
100
AcDbLine
 62
250
  6
CONTINUOUS
 10
-42.5590979222
 20
8.1252742437
 11
-42.5590979222
 21
10.8747257563
  0
LINE
  5
720
100
AcDbEntity
  8
RACCORDO
100
AcDbLine
 62
250
  6
CONTINUOUS
 10
-42.3592197568
 20
-42.1748475909
 11
-42.3592197568
 21
-39.8251524091
  0
LINE
  5
721
100
AcDbEntity
  8
RACCORDO
100
AcDbLine
 62
250
  6
CONTINUOUS
 10
-42.3592197568
 20
8.3251524091
 11
-42.3592197568
 21
10.6748475909
  0
LINE
  5
722
100
AcDbEntity
  8
RACCORDO
100
AcDbLine
 62
250
  6
CONTINUOUS
 10
-42.2502977747
 20
49.3317191368
 11
-42.2502977747
 21
49.1
  0
LINE
  5
723
100
AcDbEntity
  8
RACCORDO
100
AcDbLine
 62
250
  6
CONTINUOUS
 10
-42.2502977747
 20
-50.3317191368
 11
-42.2502977747
 21
-50.1
  0
LINE
  5
724
100
AcDbEntity
  8
RACCORDO
100
AcDbLine
 62
250
  6
CONTINUOUS
 10
-42.2502977747
 20
-0.6682808632
 11
-42.2502977747
 21
-0.9
  0
LINE
  5
725
100
AcDbEntity
  8
RACCORDO
100
AcDbLine
 62
250
  6
CONTINUOUS
 10
-42.2502977747
 20
-0.3317191368
 11
-42.2502977747
 21
-0.1
  0
LINE
  5
726
100
AcDbEntity
  8
RACCORDO
100
AcDbLine
 62
250
  6
CONTINUOUS
 10
-42.2502977747
 20
-50.6682808632
 11
-42.2502977747
 21
-50.9
  0
LINE
  5
727
100
AcDbEntity
  8
RACCORDO
100
AcDbLine
 62
250
  6
CONTINUOUS
 10
-42.2502977747
 20
49.6682808632
 11
-42.2502977747
 21
49.9
  0
LINE
  5
728
100
AcDbEntity
  8
DRAFT
100
AcDbLine
 62
7
  6
CONTINUOUS
 10
-42.1843721659
 20
10.5
 11
-42.1843721659
 21
8.5
  0
LINE
  5
729
100
AcDbEntity
  8
DRAFT
100
AcDbLine
 62
7
  6
CONTINUOUS
 10
-42.1843721659
 20
-40.0
 11
-42.1843721659
 21
-42.0
  0
LINE
  5
72A
100
AcDbEntity
  8
IMPORT_IGES
100
AcDbLine
 62
7
  6
CONTINUOUS
 10
-41.8343721659
 20
10.6117464624
 11
-41.8343721659
 21
8.3882535376
  0
LINE
  5
72B
100
AcDbEntity
  8
IMPORT_IGES
100
AcDbLine
 62
7
  6
CONTINUOUS
 10
-41.8343721659
 20
-39.8882535376
 11
-41.8343721659
 21
-42.1117464624
  0
LINE
  5
72C
100
AcDbEntity
  8
IMPORT_IGES
100
AcDbLine
 62
7
  6
CONTINUOUS
 10
-3.9343721659
 20
-43.55
 11
-3.2343721659
 21
-43.55
  0
LINE
  5
72D
100
AcDbEntity
  8
IMPORT_IGES
100
AcDbLine
 62
7
  6
CONTINUOUS
 10
-3.5843721659
 20
-42.85
 11
-3.9343721659
 21
-42.85
  0
LINE
  5
72E
100
AcDbEntity
  8
RACCORDO
100
AcDbLine
 62
250
  6
CONTINUOUS
 10
-38.2094027404
 20
-42.3747257563
 11
-42.5590979222
 21
-42.3747257563
  0
LINE
  5
72F
100
AcDbEntity
  8
RACCORDO
100
AcDbLine
 62
250
  6
CONTINUOUS
 10
-38.2094027404
 20
-42.1748475909
 11
-42.3592197568
 21
-42.1748475909
  0
LINE
  5
730
100
AcDbEntity
  8
RACCORDO
100
AcDbLine
 62
7
  6
CONTINUOUS
 10
-38.2725038689
 20
-42.1117464624
 11
-42.2961186283
 21
-42.1117464624
  0
LINE
  5
731
100
AcDbEntity
  8
RACCORDO
100
AcDbLine
 62
7
  6
CONTINUOUS
 10
-41.8343721659
 20
-42.0
 11
-42.1843721659
 21
-42.0
  0
LINE
  5
732
100
AcDbEntity
  8
RACCORDO
100
AcDbLine
 62
250
  6
CONTINUOUS
 10
-37.8096464096
 20
-41.9749694255
 11
-38.009524575
 21
-41.9749694255
  0
LINE
  5
733
100
AcDbEntity
  8
IMPORT_IGES
100
AcDbLine
 62
7
  6
CONTINUOUS
 10
-3.9343721659
 20
-41.95
 11
-3.5843721659
 21
-41.95
  0
LINE
  5
734
100
AcDbEntity
  8
RACCORDO
100
AcDbLine
 62
250
  6
CONTINUOUS
 10
-37.8096464096
 20
-40.0250305745
 11
-38.009524575
 21
-40.0250305745
  0
LINE
  5
735
100
AcDbEntity
  8
RACCORDO
100
AcDbLine
 62
7
  6
CONTINUOUS
 10
-41.8343721659
 20
-40.0
 11
-42.1843721659
 21
-40.0
  0
LINE
  5
736
100
AcDbEntity
  8
RACCORDO
100
AcDbLine
 62
250
  6
CONTINUOUS
 10
-34.1442255165
 20
-13.7925659495
 11
-34.1549219403
 21
-13.4213453778
  0
LINE
  5
737
100
AcDbEntity
  8
ASSI
100
AcDbLine
 62
250
  6
CONTINUOUS
 10
-34.1442255165
 20
-13.7925659495
 11
-34.1549219403
 21
-13.4213453778
  0
LINE
  5
738
100
AcDbEntity
  8
RACCORDO
100
AcDbLine
 62
250
  6
CONTINUOUS
 10
-38.2094027404
 20
10.8747257563
 11
-38.2094027406
 21
10.6748475909
  0
LINE
  5
739
100
AcDbEntity
  8
RACCORDO
100
AcDbLine
 62
250
  6
CONTINUOUS
 10
-38.2094027404
 20
-42.3747257563
 11
-38.2094027404
 21
-42.1748475909
  0
LINE
  5
73A
100
AcDbEntity
  8
RACCORDO
100
AcDbLine
 62
250
  6
CONTINUOUS
 10
-38.2094027404
 20
-39.6252742437
 11
-38.2094027406
 21
-39.8251524091
  0
LINE
  5
73B
100
AcDbEntity
  8
RACCORDO
100
AcDbLine
 62
250
  6
CONTINUOUS
 10
-38.2094027404
 20
8.1252742437
 11
-38.2094027404
 21
8.3251524091
  0
LINE
  5
73C
100
AcDbEntity
  8
RACCORDO
100
AcDbLine
 62
7
  6
CONTINUOUS
 10
-38.0726257035
 20
10.411868297
 11
-38.0726257035
 21
8.588131703
  0
LINE
  5
73D
100
AcDbEntity
  8
RACCORDO
100
AcDbLine
 62
7
  6
CONTINUOUS
 10
-38.0726257035
 20
-40.088131703
 11
-38.0726257035
 21
-41.911868297
  0
LINE
  5
73E
100
AcDbEntity
  8
RACCORDO
100
AcDbLine
 62
250
  6
CONTINUOUS
 10
-38.009524575
 20
10.4749694255
 11
-38.009524575
 21
8.5250305745
  0
LINE
  5
73F
100
AcDbEntity
  8
RACCORDO
100
AcDbLine
 62
250
  6
CONTINUOUS
 10
-38.009524575
 20
-40.0250305745
 11
-38.009524575
 21
-41.9749694255
  0
LINE
  5
740
100
AcDbEntity
  8
RACCORDO
100
AcDbLine
 62
250
  6
CONTINUOUS
 10
-37.8096464096
 20
10.4749694255
 11
-37.8096464096
 21
8.5250305745
  0
LINE
  5
741
100
AcDbEntity
  8
RACCORDO
100
AcDbLine
 62
250
  6
CONTINUOUS
 10
-37.8096464096
 20
-40.0250305745
 11
-37.8096464096
 21
-41.9749694255
  0
LINE
  5
742
100
AcDbEntity
  8
RACCORDO
100
AcDbLine
 62
7
  6
CONTINUOUS
 10
-34.1442255165
 20
-13.412992402
 11
-34.1442255165
 21
-13.7925659495
  0
LINE
  5
743
100
AcDbEntity
  8
ASSI
100
AcDbLine
 62
7
  6
CONTINUOUS
 10
-34.1442255165
 20
-13.412992402
 11
-34.1442255165
 21
-13.7925659495
  0
LINE
  5
744
100
AcDbEntity
  8
RACCORDO
100
AcDbLine
 62
7
  6
CONTINUOUS
 10
-42.3592197568
 20
8.3251524091
 11
-42.3602716068
 21
8.3240540932
  0
LWPOLYLINE
  5
745
100
AcDbEntity
  8
RACCORDO
100
AcDbPolyline
 62
7
  6
CONTINUOUS
 90
3
 70
0
 10
-42.4841869359
 20
8.2002398709
 10
-42.5389338242
 20
8.1452187102
 10
-42.5590979222
 20
8.1252742437
  0
LINE
  5
746
100
AcDbEntity
  8
DRAFT
100
AcDbLine
 62
7
  6
CONTINUOUS
 10
-42.1843721659
 20
8.5
 11
-42.2961186283
 21
8.3882535376
  0
LINE
  5
747
100
AcDbEntity
  8
RACCORDO
100
AcDbLine
 62
7
  6
CONTINUOUS
 10
-42.2961186283
 20
8.3882535376
 11
-42.5590979222
 21
8.1252742437
  0
LINE
  5
748
100
AcDbEntity
  8
RACCORDO
100
AcDbLine
 62
250
  6
CONTINUOUS
 10
-38.2725038689
 20
10.6117464624
 11
-38.2094027404
 21
10.6748475909
  0
LINE
  5
749
100
AcDbEntity
  8
RACCORDO
100
AcDbLine
 62
250
  6
CONTINUOUS
 10
-38.0726257035
 20
10.411868297
 11
-38.009524575
 21
10.4749694255
  0
LINE
  5
74A
100
AcDbEntity
  8
RACCORDO
100
AcDbLine
 62
7
  6
CONTINUOUS
 10
-42.3625581401
 20
8.3217795589
 11
-42.3660793566
 21
8.3182928092
  0
LINE
  5
74B
100
AcDbEntity
  8
0
100
AcDbLine
 62
7
  6
CONTINUOUS
 10
-0.2457983974
 20
45.7184590148
 11
-1.0657490572
 21
45.0624984869
  0
LINE
  5
74C
100
AcDbEntity
  8
RACCORDO
100
AcDbLine
 62
7
  6
CONTINUOUS
 10
-42.2961186283
 20
-39.8882535376
 11
-38.2725038689
 21
-39.8882535376
  0
LINE
  5
74D
100
AcDbEntity
  8
RACCORDO
100
AcDbLine
 62
250
  6
CONTINUOUS
 10
-42.3592197568
 20
-39.8251524091
 11
-38.2094027404
 21
-39.8251524091
  0
LINE
  5
74E
100
AcDbEntity
  8
RACCORDO
100
AcDbLine
 62
250
  6
CONTINUOUS
 10
-42.5590979222
 20
-39.6252742437
 11
-38.2094027404
 21
-39.6252742437
  0
LINE
  5
74F
100
AcDbEntity
  8
ASSI
100
AcDbLine
 62
7
  6
CONTINUOUS
 10
-5.3116637514
 20
-37.8
 11
-3.6189223363
 21
-37.8
  0
LINE
  5
750
100
AcDbEntity
  8
DRAFT
100
AcDbLine
 62
7
  6
CONTINUOUS
 10
-5.3116637514
 20
-37.8
 11
-3.6189223363
 21
-37.8
  0
LINE
  5
751
100
AcDbEntity
  8
ASSI
100
AcDbLine
 62
7
  6
CONTINUOUS
 10
3.8501740981
 20
-37.8
 11
5.5429194196
 21
-37.8
  0
LINE
  5
752
100
AcDbEntity
  8
DRAFT
100
AcDbLine
 62
7
  6
CONTINUOUS
 10
3.8501740981
 20
-37.8
 11
5.5429194196
 21
-37.8
  0
LINE
  5
753
100
AcDbEntity
  8
ASSI
100
AcDbLine
 62
7
  6
CONTINUOUS
 10
-5.3500480211
 20
-37.7737534009
 11
-3.6525188468
 21
-37.7737534009
  0
LINE
  5
754
100
AcDbEntity
  8
DRAFT
100
AcDbLine
 62
7
  6
CONTINUOUS
 10
-5.3500480211
 20
-37.7737534009
 11
-3.6525188468
 21
-37.7737534009
  0
LINE
  5
755
100
AcDbEntity
  8
ASSI
100
AcDbLine
 62
7
  6
CONTINUOUS
 10
3.8837754593
 20
-37.7737534009
 11
5.5813036893
 21
-37.7737534009
  0
LINE
  5
756
100
AcDbEntity
  8
DRAFT
100
AcDbLine
 62
7
  6
CONTINUOUS
 10
3.8837754593
 20
-37.7737534009
 11
5.5813036893
 21
-37.7737534009
  0
LINE
  5
757
100
AcDbEntity
  8
ASSI
100
AcDbLine
 62
7
  6
CONTINUOUS
 10
6.0123677813
 20
-37.0262465991
 11
5.2432411804
 21
-37.0262465991
  0
LINE
  5
758
100
AcDbEntity
  8
DRAFT
100
AcDbLine
 62
7
  6
CONTINUOUS
 10
6.0123677813
 20
-37.0262465991
 11
5.2432411804
 21
-37.0262465991
  0
LINE
  5
759
100
AcDbEntity
  8
ASSI
100
AcDbLine
 62
7
  6
CONTINUOUS
 10
-5.0119855122
 20
-37.0262465991
 11
-5.7815651523
 21
-37.0262465991
  0
LINE
  5
75A
100
AcDbEntity
  8
DRAFT
100
AcDbLine
 62
7
  6
CONTINUOUS
 10
-5.0119855122
 20
-37.0262465991
 11
-5.7815651523
 21
-37.0262465991
  0
LINE
  5
75B
100
AcDbEntity
  8
ASSI
100
AcDbLine
 62
7
  6
CONTINUOUS
 10
6.0238806805
 20
-37.0
 11
5.2773205005
 21
-37.0
  0
LINE
  5
75C
100
AcDbEntity
  8
DRAFT
100
AcDbLine
 62
7
  6
CONTINUOUS
 10
6.0238806805
 20
-37.0
 11
5.2773205005
 21
-37.0
  0
LINE
  5
75D
100
AcDbEntity
  8
ASSI
100
AcDbLine
 62
7
  6
CONTINUOUS
 10
-5.0460648323
 20
-37.0
 11
-5.7930106103
 21
-37.0
  0
LINE
  5
75E
100
AcDbEntity
  8
DRAFT
100
AcDbLine
 62
7
  6
CONTINUOUS
 10
-5.0460648323
 20
-37.0
 11
-5.7930106103
 21
-37.0
  0
LINE
  5
75F
100
AcDbEntity
  8
RACCORDO
100
AcDbLine
 62
250
  6
CONTINUOUS
 10
0.4836346043
 20
-55.433658286
 11
0.5156278341
 21
-55.4656515158
  0
LINE
  5
760
100
AcDbEntity
  8
RACCORDO
100
AcDbLine
 62
250
  6
CONTINUOUS
 10
0.6833605113
 20
-55.233932379
 11
0.7153537411
 21
-55.2659256088
  0
LINE
  5
761
100
AcDbEntity
  8
ASSI
100
AcDbLine
 62
250
  6
CONTINUOUS
 10
-34.0626293315
 20
-12.725
 11
-34.0626293315
 21
-11.9931236927
  0
LINE
  5
762
100
AcDbEntity
  8
RACCORDO
100
AcDbLine
 62
250
  6
CONTINUOUS
 10
-34.0626293315
 20
-12.725
 11
-34.0626293315
 21
-11.9931236927
  0
LINE
  5
763
100
AcDbEntity
  8
ASSI
100
AcDbLine
 62
250
  6
CONTINUOUS
 10
-33.8633903919
 20
-12.725
 11
-33.8633903919
 21
-11.3640415444
  0
LINE
  5
764
100
AcDbEntity
  8
RACCORDO
100
AcDbLine
 62
250
  6
CONTINUOUS
 10
-33.8633903919
 20
-12.725
 11
-33.8633903919
 21
-11.3640415444
  0
LINE
  5
765
100
AcDbEntity
  8
ASSI
100
AcDbLine
 62
7
  6
CONTINUOUS
 10
-33.8093721659
 20
-11.2329836202
 11
-33.8093721659
 21
-12.725
  0
LINE
  5
766
100
AcDbEntity
  8
RACCORDO
100
AcDbLine
 62
7
  6
CONTINUOUS
 10
-33.8093721659
 20
-11.2329836202
 11
-33.8093721659
 21
-12.725
  0
LINE
  5
767
100
AcDbEntity
  8
RACCORDO
100
AcDbLine
 62
7
  6
CONTINUOUS
 10
-32.7843721659
 20
68.4659256088
 11
-32.7843721659
 21
67.8659256088
  0
LINE
  5
768
100
AcDbEntity
  8
RACCORDO
100
AcDbLine
 62
7
  6
CONTINUOUS
 10
-32.7843721659
 20
-68.4659256088
 11
-32.7843721659
 21
-67.8659256088
  0
LINE
  5
769
100
AcDbEntity
  8
ASSI
100
AcDbLine
 62
7
  6
CONTINUOUS
 10
-32.7843721659
 20
-9.7867729364
 11
-32.7843721659
 21
-11.0182283459
  0
LINE
  5
76A
100
AcDbEntity
  8
RACCORDO
100
AcDbLine
 62
7
  6
CONTINUOUS
 10
-32.7843721659
 20
-9.7867729364
 11
-32.7843721659
 21
-11.0182283459
  0
LINE
  5
76B
100
AcDbEntity
  8
ASSI
100
AcDbLine
 62
250
  6
CONTINUOUS
 10
-32.7546071656
 20
-10.9741882383
 11
-32.7546071656
 21
-9.758395083
  0
LINE
  5
76C
100
AcDbEntity
  8
RACCORDO
100
AcDbLine
 62
250
  6
CONTINUOUS
 10
-32.7546071656
 20
-10.9741882383
 11
-32.7546071656
 21
-9.758395083
  0
LINE
  5
76D
100
AcDbEntity
  8
RACCORDO
100
AcDbLine
 62
250
  6
CONTINUOUS
 10
-32.7523789361
 20
68.4979188387
 11
-32.7523789361
 21
67.8659256088
  0
LINE
  5
76E
100
AcDbEntity
  8
RACCORDO
100
AcDbLine
 62
250
  6
CONTINUOUS
 10
-32.7523789361
 20
-67.8659256088
 11
-32.7523789361
 21
-68.4979188387
  0
LINE
  5
76F
100
AcDbEntity
  8
RACCORDO
100
AcDbLine
 62
250
  6
CONTINUOUS
 10
-32.5526530291
 20
68.5078518323
 11
-32.5526530291
 21
67.8659256088
  0
LINE
  5
770
100
AcDbEntity
  8
RACCORDO
100
AcDbLine
 62
250
  6
CONTINUOUS
 10
-32.5526530291
 20
-67.8659256088
 11
-32.5526530291
 21
-68.5078518323
  0
LINE
  5
771
100
AcDbEntity
  8
ASSI
100
AcDbLine
 62
250
  6
CONTINUOUS
 10
-32.4546528571
 20
-10.5918141036
 11
-32.4546528571
 21
-9.5348722884
  0
LINE
  5
772
100
AcDbEntity
  8
RACCORDO
100
AcDbLine
 62
250
  6
CONTINUOUS
 10
-32.4546528571
 20
-10.5918141036
 11
-32.4546528571
 21
-9.5348722884
  0
LINE
  5
773
100
AcDbEntity
  8
RACCORDO
100
AcDbLine
 62
250
  6
CONTINUOUS
 10
-32.2160913027
 20
-68.5078518323
 11
-32.2160913027
 21
-67.8659256088
  0
LINE
  5
774
100
AcDbEntity
  8
RACCORDO
100
AcDbLine
 62
250
  6
CONTINUOUS
 10
-32.2160913027
 20
67.8659256088
 11
-32.2160913027
 21
68.5078518323
  0
LINE
  5
775
100
AcDbEntity
  8
RACCORDO
100
AcDbLine
 62
250
  6
CONTINUOUS
 10
-32.0163653957
 20
-68.4979188387
 11
-32.0163653957
 21
-67.8659256088
  0
LINE
  5
776
100
AcDbEntity
  8
RACCORDO
100
AcDbLine
 62
250
  6
CONTINUOUS
 10
-32.0163653957
 20
67.8659256088
 11
-32.0163653957
 21
68.4979188387
  0
LINE
  5
777
100
AcDbEntity
  8
RACCORDO
100
AcDbLine
 62
7
  6
CONTINUOUS
 10
-31.9843721659
 20
68.4659256088
 11
-31.9843721659
 21
67.8659256088
  0
LINE
  5
778
100
AcDbEntity
  8
RACCORDO
100
AcDbLine
 62
7
  6
CONTINUOUS
 10
-31.9843721659
 20
-68.4659256088
 11
-31.9843721659
 21
-67.8659256088
  0
LINE
  5
779
100
AcDbEntity
  8
RACCORDO
100
AcDbLine
 62
250
  6
CONTINUOUS
 10
-31.8397895762
 20
-55.0342064721
 11
-31.8397895762
 21
-55.233932379
  0
LINE
  5
77A
100
AcDbEntity
  8
ASSI
100
AcDbLine
 62
7
  6
CONTINUOUS
 10
-30.9811779896
 20
-12.8731768704
 11
-30.9811779896
 21
-12.9381423903
  0
LINE
  5
77B
100
AcDbEntity
  8
ASSI
100
AcDbLine
 62
7
  6
CONTINUOUS
 10
-30.9811779896
 20
-14.0618576097
 11
-30.9811779896
 21
-14.1268231296
  0
LINE
  5
77C
100
AcDbEntity
  8
ASSI
100
AcDbLine
 62
7
  6
CONTINUOUS
 10
-30.9602255279
 20
-12.8574707261
 11
-30.9602255279
 21
-12.9202900916
  0
LINE
  5
77D
100
AcDbEntity
  8
ASSI
100
AcDbLine
 62
7
  6
CONTINUOUS
 10
-30.9602255279
 20
-14.0797099084
 11
-30.9602255279
 21
-14.1425292739
  0
LINE
  5
77E
100
AcDbEntity
  8
RACCORDO
100
AcDbLine
 62
7
  6
CONTINUOUS
 10
-42.8502977747
 20
-0.1
 11
-42.8822910045
 21
-0.1319932298
  0
LINE
  5
77F
100
AcDbEntity
  8
0
100
AcDbLine
 62
7
  6
CONTINUOUS
 10
-47.2772901735
 20
-32.4577576439
 11
-47.3406278341
 21
-32.4577576439
  0
LINE
  5
780
100
AcDbEntity
  8
0
100
AcDbLine
 62
7
  6
CONTINUOUS
 10
-47.2772901735
 20
-31.5422423561
 11
-47.3406278341
 21
-31.5422423561
  0
LINE
  5
781
100
AcDbEntity
  8
RACCORDO
100
AcDbLine
 62
7
  6
CONTINUOUS
 10
-42.8502977747
 20
-0.9
 11
-42.8822910045
 21
-0.8680067702
  0
LINE
  5
782
100
AcDbEntity
  8
RACCORDO
100
AcDbLine
 62
250
  6
CONTINUOUS
 10
-28.0289547556
 20
-55.0342064721
 11
-28.0289547556
 21
-55.233932379
  0
LINE
  5
783
100
AcDbEntity
  8
ASSI
100
AcDbLine
 62
250
  6
CONTINUOUS
 10
-27.3920195786
 20
-21.4988119002
 11
-27.3920195786
 21
-20.6925202424
  0
LINE
  5
784
100
AcDbEntity
  8
RACCORDO
100
AcDbLine
 62
250
  6
CONTINUOUS
 10
-27.3920195786
 20
-21.4988119002
 11
-27.3920195786
 21
-20.6925202424
  0
LINE
  5
785
100
AcDbEntity
  8
ASSI
100
AcDbLine
 62
250
  6
CONTINUOUS
 10
-27.3920195786
 20
-10.3074797576
 11
-27.3920195786
 21
-9.5006444719
  0
LINE
  5
786
100
AcDbEntity
  8
RACCORDO
100
AcDbLine
 62
250
  6
CONTINUOUS
 10
-27.3920195786
 20
-10.3074797576
 11
-27.3920195786
 21
-9.5006444719
  0
LINE
  5
787
100
AcDbEntity
  8
ASSI
100
AcDbLine
 62
250
  6
CONTINUOUS
 10
-27.09206527
 20
-21.3691241867
 11
-27.09206527
 21
-20.3941887248
  0
LINE
  5
788
100
AcDbEntity
  8
RACCORDO
100
AcDbLine
 62
250
  6
CONTINUOUS
 10
-27.09206527
 20
-21.3691241867
 11
-27.09206527
 21
-20.3941887248
  0
LINE
  5
789
100
AcDbEntity
  8
ASSI
100
AcDbLine
 62
250
  6
CONTINUOUS
 10
-27.09206527
 20
-10.6058112752
 11
-27.09206527
 21
-9.6321851956
  0
LINE
  5
78A
100
AcDbEntity
  8
RACCORDO
100
AcDbLine
 62
250
  6
CONTINUOUS
 10
-27.09206527
 20
-10.6058112752
 11
-27.09206527
 21
-9.6321851956
  0
LINE
  5
78B
100
AcDbEntity
  8
ASSI
100
AcDbLine
 62
7
  6
CONTINUOUS
 10
-27.0343721659
 20
-21.3398857971
 11
-27.0343721659
 21
-20.3267804674
  0
LINE
  5
78C
100
AcDbEntity
  8
DRAFT
100
AcDbLine
 62
7
  6
CONTINUOUS
 10
-27.0343721659
 20
-21.3398857971
 11
-27.0343721659
 21
-20.3267804674
  0
LINE
  5
78D
100
AcDbEntity
  8
ASSI
100
AcDbLine
 62
7
  6
CONTINUOUS
 10
-27.0343721659
 20
-10.6732195326
 11
-27.0343721659
 21
-9.6587902261
  0
LINE
  5
78E
100
AcDbEntity
  8
DRAFT
100
AcDbLine
 62
7
  6
CONTINUOUS
 10
-27.0343721659
 20
-10.6732195326
 11
-27.0343721659
 21
-9.6587902261
  0
LINE
  5
78F
100
AcDbEntity
  8
ASSI
100
AcDbLine
 62
7
  6
CONTINUOUS
 10
-23.9023213583
 20
-73.0
 11
-23.9023213583
 21
-72.9562556682
  0
LINE
  5
790
100
AcDbEntity
  8
RACCORDO
100
AcDbLine
 62
7
  6
CONTINUOUS
 10
-23.9023213583
 20
-73.0
 11
-23.9023213583
 21
-72.9562556682
  0
LINE
  5
791
100
AcDbEntity
  8
RACCORDO
100
AcDbLine
 62
7
  6
CONTINUOUS
 10
32.2156278341
 20
68.4659256088
 11
32.2476210639
 21
68.4979188387
  0
LINE
  5
792
100
AcDbEntity
  8
RACCORDO
100
AcDbLine
 62
7
  6
CONTINUOUS
 10
32.2156278341
 20
-68.4659256088
 11
32.2476210639
 21
-68.4979188387
  0
LINE
  5
793
100
AcDbEntity
  8
RACCORDO
100
AcDbLine
 62
7
  6
CONTINUOUS
 10
-42.4678489541
 20
10.7834689002
 11
-42.484132295
 21
10.7998147701
  0
LINE
  5
794
100
AcDbEntity
  8
RACCORDO
100
AcDbLine
 62
7
  6
CONTINUOUS
 10
-42.3603180727
 20
10.6758994409
 11
-42.3708083047
 21
10.6864575109
  0
LINE
  5
795
100
AcDbEntity
  8
IMPORT_IGES
100
AcDbLine
 62
7
  6
CONTINUOUS
 10
-17.8843721659
 20
-0.75
 11
-17.8843721659
 21
-1.25
  0
LINE
  5
796
100
AcDbEntity
  8
IMPORT_IGES
100
AcDbLine
 62
7
  6
CONTINUOUS
 10
-17.6843721659
 20
-1.25
 11
-17.6843721659
 21
-0.75
  0
LINE
  5
797
100
AcDbEntity
  8
IMPORT_IGES
100
AcDbLine
 62
7
  6
CONTINUOUS
 10
-17.0843721659
 20
-0.75
 11
-17.0843721659
 21
-1.25
  0
LINE
  5
798
100
AcDbEntity
  8
IMPORT_IGES
100
AcDbLine
 62
7
  6
CONTINUOUS
 10
-16.8843721659
 20
-0.75
 11
-16.8843721659
 21
-1.25
  0
LINE
  5
799
100
AcDbEntity
  8
0
100
AcDbLine
 62
250
  6
CONTINUOUS
 10
46.0775914552
 20
72.9562556682
 11
45.1745866696
 21
72.0532508826
  0
LINE
  5
79A
100
AcDbEntity
  8
DRAFT
100
AcDbLine
 62
7
  6
CONTINUOUS
 10
43.1234796664
 20
68.5078518323
 11
43.081553443
 21
68.4659256088
  0
LINE
  5
79B
100
AcDbEntity
  8
0
100
AcDbLine
 62
250
  6
CONTINUOUS
 10
47.5718835024
 20
71.4619636211
 11
46.6688787167
 21
70.5589588355
  0
LINE
  5
79C
100
AcDbEntity
  8
RACCORDO
100
AcDbLine
 62
250
  6
CONTINUOUS
 10
46.6687527434
 20
70.5143957368
 11
43.881553443
 21
67.9207718637
  0
LINE
  5
79D
100
AcDbEntity
  8
RACCORDO
100
AcDbLine
 62
7
  6
CONTINUOUS
 10
30.1156278341
 20
-19.9
 11
22.0156278341
 21
-19.9
  0
LINE
  5
79E
100
AcDbEntity
  8
RACCORDO
100
AcDbLine
 62
7
  6
CONTINUOUS
 10
-20.1800240236
 20
-19.55
 11
-25.526418264
 21
-19.55
  0
LINE
  5
79F
100
AcDbEntity
  8
RACCORDO
100
AcDbLine
 62
7
  6
CONTINUOUS
 10
22.0156278341
 20
-19.1
 11
30.1156278341
 21
-19.1
  0
LINE
  5
7A0
100
AcDbEntity
  8
RACCORDO
100
AcDbLine
 62
7
  6
CONTINUOUS
 10
-25.332631224
 20
-18.75
 11
-20.1800240236
 21
-18.75
  0
LINE
  5
7A1
100
AcDbEntity
  8
RACCORDO
100
AcDbLine
 62
250
  6
CONTINUOUS
 10
46.6687527434
 20
-70.5472475947
 11
43.881553443
 21
-67.9181498476
  0
LINE
  5
7A2
100
AcDbEntity
  8
RACCORDO
100
AcDbLine
 62
7
  6
CONTINUOUS
 10
-42.3592197568
 20
10.6748475909
 11
-42.3603180727
 21
10.6758994409
  0
LWPOLYLINE
  5
7A3
100
AcDbEntity
  8
RACCORDO
100
AcDbPolyline
 62
7
  6
CONTINUOUS
 90
3
 70
0
 10
-42.484132295
 20
10.7998147701
 10
-42.5391534556
 20
10.8545616584
 10
-42.5590979222
 20
10.8747257563
  0
LINE
  5
7A4
100
AcDbEntity
  8
DRAFT
100
AcDbLine
 62
7
  6
CONTINUOUS
 10
-42.1843721659
 20
10.5
 11
-42.2961186283
 21
10.6117464624
  0
LINE
  5
7A5
100
AcDbEntity
  8
RACCORDO
100
AcDbLine
 62
7
  6
CONTINUOUS
 10
-42.2961186283
 20
10.6117464624
 11
-42.5590979222
 21
10.8747257563
  0
LINE
  5
7A6
100
AcDbEntity
  8
RACCORDO
100
AcDbLine
 62
250
  6
CONTINUOUS
 10
-38.2725038689
 20
8.3882535376
 11
-38.2094027404
 21
8.3251524091
  0
LINE
  5
7A7
100
AcDbEntity
  8
RACCORDO
100
AcDbLine
 62
250
  6
CONTINUOUS
 10
-38.0726257035
 20
8.588131703
 11
-38.009524575
 21
8.5250305745
  0
LINE
  5
7A8
100
AcDbEntity
  8
0
100
AcDbLine
 62
250
  6
CONTINUOUS
 10
46.0775914552
 20
-72.9562556682
 11
45.1744695321
 21
-72.0531337451
  0
LINE
  5
7A9
100
AcDbEntity
  8
DRAFT
100
AcDbLine
 62
7
  6
CONTINUOUS
 10
43.1234796664
 20
-68.5078518323
 11
43.081553443
 21
-68.4659256088
  0
LINE
  5
7AA
100
AcDbEntity
  8
0
100
AcDbLine
 62
250
  6
CONTINUOUS
 10
47.5718835024
 20
-71.4619636211
 11
46.6687615792
 21
-70.558841698
  0
LINE
  5
7AB
100
AcDbEntity
  8
ASSI
100
AcDbLine
 62
7
  6
CONTINUOUS
 10
-15.8664229735
 20
-73.0
 11
-15.8664229735
 21
-72.9562556682
  0
LINE
  5
7AC
100
AcDbEntity
  8
RACCORDO
100
AcDbLine
 62
7
  6
CONTINUOUS
 10
-15.8664229735
 20
-73.0
 11
-15.8664229735
 21
-72.9562556682
  0
LINE
  5
7AD
100
AcDbEntity
  8
RACCORDO
100
AcDbLine
 62
7
  6
CONTINUOUS
 10
-14.8843721659
 20
-14.501218346
 11
-14.8843721659
 21
-7.498781654
  0
LINE
  5
7AE
100
AcDbEntity
  8
IMPORT_IGES
100
AcDbLine
 62
7
  6
CONTINUOUS
 10
-12.8843721659
 20
-0.75
 11
-12.8843721659
 21
-1.25
  0
LINE
  5
7AF
100
AcDbEntity
  8
IMPORT_IGES
100
AcDbLine
 62
7
  6
CONTINUOUS
 10
-12.6843721659
 20
-1.25
 11
-12.6843721659
 21
-0.75
  0
LINE
  5
7B0
100
AcDbEntity
  8
IMPORT_IGES
100
AcDbLine
 62
7
  6
CONTINUOUS
 10
-12.0843721659
 20
-0.75
 11
-12.0843721659
 21
-1.25
  0
LINE
  5
7B1
100
AcDbEntity
  8
IMPORT_IGES
100
AcDbLine
 62
7
  6
CONTINUOUS
 10
-11.8843721659
 20
-0.75
 11
-11.8843721659
 21
-1.25
  0
LINE
  5
7B2
100
AcDbEntity
  8
RACCORDO
100
AcDbLine
 62
250
  6
CONTINUOUS
 10
45.130023571
 20
72.0531249093
 11
42.5363996979
 21
69.2659256088
  0
LINE
  5
7B3
100
AcDbEntity
  8
RACCORDO
100
AcDbLine
 62
7
  6
CONTINUOUS
 10
13.1168461801
 20
-16.5
 11
-12.8855905118
 21
-16.5
  0
LINE
  5
7B4
100
AcDbEntity
  8
DRAFT
100
AcDbLine
 62
7
  6
CONTINUOUS
 10
34.5016852893
 20
-15.85
 11
33.6985735496
 21
-15.85
  0
LINE
  5
7B5
100
AcDbEntity
  8
DRAFT
100
AcDbLine
 62
7
  6
CONTINUOUS
 10
-33.4825491998
 20
-15.85
 11
-34.2825915965
 21
-15.85
  0
LINE
  5
7B6
100
AcDbEntity
  8
DRAFT
100
AcDbLine
 62
7
  6
CONTINUOUS
 10
-34.2825915965
 20
-15.15
 11
-33.4825491998
 21
-15.15
  0
LINE
  5
7B7
100
AcDbEntity
  8
DRAFT
100
AcDbLine
 62
7
  6
CONTINUOUS
 10
33.6985735496
 20
-15.15
 11
34.5016852893
 21
-15.15
  0
LINE
  5
7B8
100
AcDbEntity
  8
ASSI
100
AcDbLine
 62
250
  6
CONTINUOUS
 10
-34.0626293315
 20
-12.725
 11
-33.8093721659
 21
-12.725
  0
LINE
  5
7B9
100
AcDbEntity
  8
RACCORDO
100
AcDbLine
 62
250
  6
CONTINUOUS
 10
-34.0626293315
 20
-12.725
 11
-33.8093721659
 21
-12.725
  0
LINE
  5
7BA
100
AcDbEntity
  8
ASSI
100
AcDbLine
 62
250
  6
CONTINUOUS
 10
32.6859085253
 20
-12.6
 11
33.0156278341
 21
-12.6
  0
LINE
  5
7BB
100
AcDbEntity
  8
RACCORDO
100
AcDbLine
 62
250
  6
CONTINUOUS
 10
32.6859085253
 20
-12.6
 11
33.0156278341
 21
-12.6
  0
LINE
  5
7BC
100
AcDbEntity
  8
RACCORDO
100
AcDbLine
 62
7
  6
CONTINUOUS
 10
-20.1800240236
 20
-12.25
 11
-25.332631224
 21
-12.25
  0
LINE
  5
7BD
100
AcDbEntity
  8
RACCORDO
100
AcDbLine
 62
7
  6
CONTINUOUS
 10
30.1156278341
 20
-11.9
 11
22.0156278341
 21
-11.9
  0
LINE
  5
7BE
100
AcDbEntity
  8
RACCORDO
100
AcDbLine
 62
7
  6
CONTINUOUS
 10
-25.5264182639
 20
-11.45
 11
-20.1800240236
 21
-11.45
  0
LINE
  5
7BF
100
AcDbEntity
  8
RACCORDO
100
AcDbLine
 62
7
  6
CONTINUOUS
 10
22.0156278341
 20
-11.1
 11
30.1156278341
 21
-11.1
  0
LINE
  5
7C0
100
AcDbEntity
  8
RACCORDO
100
AcDbLine
 62
250
  6
CONTINUOUS
 10
45.1628754288
 20
-72.0531249093
 11
42.5337776817
 21
-69.2659256088
  0
LINE
  5
7C1
100
AcDbEntity
  8
IMPORT_IGES
100
AcDbLine
 62
7
  6
CONTINUOUS
 10
-7.8843721659
 20
-0.75
 11
-7.8843721659
 21
-1.25
  0
LINE
  5
7C2
100
AcDbEntity
  8
IMPORT_IGES
100
AcDbLine
 62
7
  6
CONTINUOUS
 10
-7.6843721659
 20
-1.25
 11
-7.6843721659
 21
-0.75
  0
LINE
  5
7C3
100
AcDbEntity
  8
IMPORT_IGES
100
AcDbLine
 62
7
  6
CONTINUOUS
 10
-7.0843721659
 20
-0.75
 11
-7.0843721659
 21
-1.25
  0
LINE
  5
7C4
100
AcDbEntity
  8
IMPORT_IGES
100
AcDbLine
 62
7
  6
CONTINUOUS
 10
-6.8843721659
 20
-0.75
 11
-6.8843721659
 21
-1.25
  0
LINE
  5
7C5
100
AcDbEntity
  8
IMPORT_IGES
100
AcDbLine
 62
7
  6
CONTINUOUS
 10
-6.8843721659
 20
60.5506855812
 11
-6.8843721659
 21
62.0493144188
  0
LINE
  5
7C6
100
AcDbEntity
  8
ASSI
100
AcDbLine
 62
7
  6
CONTINUOUS
 10
-14.8843721659
 20
-10.0
 11
15.1156278341
 21
-10.0
  0
LINE
  5
7C7
100
AcDbEntity
  8
DRAFT
100
AcDbLine
 62
7
  6
CONTINUOUS
 10
-14.8843721659
 20
-10.0
 11
15.1156278341
 21
-10.0
  0
LINE
  5
7C8
100
AcDbEntity
  8
ASSI
100
AcDbLine
 62
7
  6
CONTINUOUS
 10
-14.8843721659
 20
-9.9737534009
 11
15.1156278341
 21
-9.9737534009
  0
LINE
  5
7C9
100
AcDbEntity
  8
DRAFT
100
AcDbLine
 62
7
  6
CONTINUOUS
 10
-14.8843721659
 20
-9.9737534009
 11
15.1156278341
 21
-9.9737534009
  0
LINE
  5
7CA
100
AcDbEntity
  8
ASSI
100
AcDbLine
 62
7
  6
CONTINUOUS
 10
15.1156278341
 20
-9.2262465991
 11
-14.8843721659
 21
-9.2262465991
  0
LINE
  5
7CB
100
AcDbEntity
  8
DRAFT
100
AcDbLine
 62
7
  6
CONTINUOUS
 10
15.1156278341
 20
-9.2262465991
 11
-14.8843721659
 21
-9.2262465991
  0
LINE
  5
7CC
100
AcDbEntity
  8
ASSI
100
AcDbLine
 62
7
  6
CONTINUOUS
 10
15.1156278341
 20
-9.2
 11
-14.8843721659
 21
-9.2
  0
LINE
  5
7CD
100
AcDbEntity
  8
DRAFT
100
AcDbLine
 62
7
  6
CONTINUOUS
 10
15.1156278341
 20
-9.2
 11
-14.8843721659
 21
-9.2
  0
LINE
  5
7CE
100
AcDbEntity
  8
RACCORDO
100
AcDbLine
 62
7
  6
CONTINUOUS
 10
-12.8855905118
 20
-5.5
 11
13.1168461801
 21
-5.5
  0
LINE
  5
7CF
100
AcDbEntity
  8
RACCORDO
100
AcDbLine
 62
7
  6
CONTINUOUS
 10
43.081553443
 20
-54.4659256088
 11
43.1135466728
 21
-54.4979188387
  0
LINE
  5
7D0
100
AcDbEntity
  8
IMPORT_IGES
100
AcDbLine
 62
7
  6
CONTINUOUS
 10
-4.8843721659
 20
62.0493144188
 11
-4.8843721659
 21
60.5506855812
  0
LINE
  5
7D1
100
AcDbEntity
  8
RACCORDO
100
AcDbLine
 62
7
  6
CONTINUOUS
 10
-4.2843721659
 20
49.3
 11
-4.2843721659
 21
56.1
  0
LINE
  5
7D2
100
AcDbEntity
  8
RACCORDO
100
AcDbLine
 62
7
  6
CONTINUOUS
 10
-3.9343721659
 20
-43.7992805693
 11
-3.9343721658
 21
-38.5961604983
  0
LINE
  5
7D3
100
AcDbEntity
  8
IMPORT_IGES
100
AcDbLine
 62
7
  6
CONTINUOUS
 10
-3.5843721659
 20
-41.95
 11
-3.5843721659
 21
-42.85
  0
LINE
  5
7D4
100
AcDbEntity
  8
RACCORDO
100
AcDbLine
 62
7
  6
CONTINUOUS
 10
-3.4843721659
 20
56.1
 11
-3.4843721659
 21
49.3
  0
LINE
  5
7D5
100
AcDbEntity
  8
IMPORT_IGES
100
AcDbLine
 62
7
  6
CONTINUOUS
 10
-3.2343721659
 20
-43.55
 11
-3.2343721659
 21
-44.0637996299
  0
LINE
  5
7D6
100
AcDbEntity
  8
RACCORDO
100
AcDbLine
 62
7
  6
CONTINUOUS
 10
-3.1343721659
 20
-38.8096325298
 11
-3.1343721659
 21
-43.7992805693
  0
LINE
  5
7D7
100
AcDbEntity
  8
IMPORT_IGES
100
AcDbLine
 62
7
  6
CONTINUOUS
 10
-2.8843721659
 20
-0.75
 11
-2.8843721659
 21
-1.25
  0
LINE
  5
7D8
100
AcDbEntity
  8
IMPORT_IGES
100
AcDbLine
 62
7
  6
CONTINUOUS
 10
-2.8843721659
 20
60.5506855812
 11
-2.8843721659
 21
62.0493144188
  0
LINE
  5
7D9
100
AcDbEntity
  8
IMPORT_IGES
100
AcDbLine
 62
7
  6
CONTINUOUS
 10
-2.6843721659
 20
-1.25
 11
-2.6843721659
 21
-0.75
  0
LINE
  5
7DA
100
AcDbEntity
  8
IMPORT_IGES
100
AcDbLine
 62
7
  6
CONTINUOUS
 10
-2.0843721659
 20
-0.75
 11
-2.0843721659
 21
-1.25
  0
LINE
  5
7DB
100
AcDbEntity
  8
IMPORT_IGES
100
AcDbLine
 62
7
  6
CONTINUOUS
 10
-1.8843721659
 20
-0.75
 11
-1.8843721659
 21
-1.25
  0
LINE
  5
7DC
100
AcDbEntity
  8
IMPORT_IGES
100
AcDbLine
 62
7
  6
CONTINUOUS
 10
-0.8843721659
 20
62.0493144188
 11
-0.8843721659
 21
60.5506855812
  0
LINE
  5
7DD
100
AcDbEntity
  8
RACCORDO
100
AcDbLine
 62
250
  6
CONTINUOUS
 10
-0.452104843
 20
-55.0342064721
 11
-0.452104843
 21
-55.233932379
  0
LINE
  5
7DE
100
AcDbEntity
  8
0
100
AcDbLine
 62
7
  6
CONTINUOUS
 10
-0.3843721659
 20
45.0076
 11
-0.3843721659
 21
44.9293638772
  0
LINE
  5
7DF
100
AcDbEntity
  8
RACCORDO
100
AcDbLine
 62
7
  6
CONTINUOUS
 10
-0.2843721659
 20
68.4659256088
 11
-0.2843721659
 21
68.0659256088
  0
LINE
  5
7E0
100
AcDbEntity
  8
RACCORDO
100
AcDbLine
 62
7
  6
CONTINUOUS
 10
-0.2843721659
 20
-68.4659256088
 11
-0.2843721659
 21
-55.4656515158
  0
LINE
  5
7E1
100
AcDbEntity
  8
RACCORDO
100
AcDbLine
 62
250
  6
CONTINUOUS
 10
-0.2523789361
 20
68.4979188387
 11
-0.2523789361
 21
68.0659256088
  0
LINE
  5
7E2
100
AcDbEntity
  8
RACCORDO
100
AcDbLine
 62
250
  6
CONTINUOUS
 10
-0.2523789361
 20
-55.433658286
 11
-0.2523789361
 21
-68.4979188387
  0
LINE
  5
7E3
100
AcDbEntity
  8
DRAFT
100
AcDbLine
 62
7
  6
CONTINUOUS
 10
-0.2343721659
 20
-30.3192392843
 11
-0.2343721659
 21
-29.5191032064
  0
LINE
  5
7E4
100
AcDbEntity
  8
DRAFT
100
AcDbLine
 62
7
  6
CONTINUOUS
 10
-0.2343721659
 20
44.9139425448
 11
-0.2343721659
 21
45.7170542845
  0
LINE
  5
7E5
100
AcDbEntity
  8
RACCORDO
100
AcDbLine
 62
250
  6
CONTINUOUS
 10
-0.0526530291
 20
68.5078518323
 11
-0.0526530291
 21
68.0659256088
  0
LINE
  5
7E6
100
AcDbEntity
  8
RACCORDO
100
AcDbLine
 62
250
  6
CONTINUOUS
 10
-0.0526530291
 20
-55.433658286
 11
-0.0526530291
 21
-68.5078518323
  0
LINE
  5
7E7
100
AcDbEntity
  8
RACCORDO
100
AcDbLine
 62
250
  6
CONTINUOUS
 10
0.2839086973
 20
-68.5078518323
 11
0.2839086973
 21
-55.433658286
  0
LINE
  5
7E8
100
AcDbEntity
  8
RACCORDO
100
AcDbLine
 62
250
  6
CONTINUOUS
 10
0.2839086973
 20
68.0659256088
 11
0.2839086973
 21
68.5078518323
  0
LINE
  5
7E9
100
AcDbEntity
  8
DRAFT
100
AcDbLine
 62
7
  6
CONTINUOUS
 10
0.4656278341
 20
45.7170542845
 11
0.4656278341
 21
44.9139425448
  0
LINE
  5
7EA
100
AcDbEntity
  8
DRAFT
100
AcDbLine
 62
7
  6
CONTINUOUS
 10
0.4656278341
 20
-29.5191032064
 11
0.4656278341
 21
-30.3192392843
  0
LINE
  5
7EB
100
AcDbEntity
  8
RACCORDO
100
AcDbLine
 62
250
  6
CONTINUOUS
 10
0.4836346043
 20
-68.4979188387
 11
0.4836346043
 21
-55.433658286
  0
LINE
  5
7EC
100
AcDbEntity
  8
RACCORDO
100
AcDbLine
 62
250
  6
CONTINUOUS
 10
0.4836346043
 20
68.0659256088
 11
0.4836346043
 21
68.4979188387
  0
LINE
  5
7ED
100
AcDbEntity
  8
RACCORDO
100
AcDbLine
 62
7
  6
CONTINUOUS
 10
0.5156278341
 20
68.4659256088
 11
0.5156278341
 21
68.0659256088
  0
LINE
  5
7EE
100
AcDbEntity
  8
RACCORDO
100
AcDbLine
 62
7
  6
CONTINUOUS
 10
0.5156278341
 20
-68.4659256088
 11
0.5156278341
 21
-55.4656515158
  0
LINE
  5
7EF
100
AcDbEntity
  8
0
100
AcDbLine
 62
7
  6
CONTINUOUS
 10
0.6156278341
 20
44.9293638772
 11
0.6156278341
 21
45.0076
  0
LINE
  5
7F0
100
AcDbEntity
  8
RACCORDO
100
AcDbLine
 62
250
  6
CONTINUOUS
 10
0.6833605113
 20
-55.0342064721
 11
0.6833605113
 21
-55.233932379
  0
LINE
  5
7F1
100
AcDbEntity
  8
RACCORDO
100
AcDbLine
 62
7
  6
CONTINUOUS
 10
-42.3592197568
 20
-42.1748475909
 11
-42.3602716068
 21
-42.1759459068
  0
LWPOLYLINE
  5
7F2
100
AcDbEntity
  8
RACCORDO
100
AcDbPolyline
 62
7
  6
CONTINUOUS
 90
3
 70
0
 10
-42.4841869359
 20
-42.2997601291
 10
-42.5389338242
 20
-42.3547812898
 10
-42.5590979222
 20
-42.3747257563
  0
LINE
  5
7F3
100
AcDbEntity
  8
RACCORDO
100
AcDbLine
 62
7
  6
CONTINUOUS
 10
43.081553443
 20
49.1
 11
43.1135466728
 21
49.1319932298
  0
LINE
  5
7F4
100
AcDbEntity
  8
DRAFT
100
AcDbLine
 62
7
  6
CONTINUOUS
 10
-42.1843721659
 20
-42.0
 11
-42.2961186283
 21
-42.1117464624
  0
LINE
  5
7F5
100
AcDbEntity
  8
RACCORDO
100
AcDbLine
 62
7
  6
CONTINUOUS
 10
-42.2961186283
 20
-42.1117464624
 11
-42.5590979222
 21
-42.3747257563
  0
LINE
  5
7F6
100
AcDbEntity
  8
RACCORDO
100
AcDbLine
 62
7
  6
CONTINUOUS
 10
-42.3625581401
 20
-42.1782204411
 11
-42.3660793566
 21
-42.1817071908
  0
LINE
  5
7F7
100
AcDbEntity
  8
IMPORT_IGES
100
AcDbLine
 62
7
  6
CONTINUOUS
 10
-1.8843721659
 20
-1.25
 11
-2.8843721659
 21
-1.25
  0
LINE
  5
7F8
100
AcDbEntity
  8
IMPORT_IGES
100
AcDbLine
 62
7
  6
CONTINUOUS
 10
2.1156278341
 20
-1.25
 11
3.1156278341
 21
-1.25
  0
LINE
  5
7F9
100
AcDbEntity
  8
IMPORT_IGES
100
AcDbLine
 62
7
  6
CONTINUOUS
 10
-6.8843721659
 20
-1.25
 11
-7.8843721659
 21
-1.25
  0
LINE
  5
7FA
100
AcDbEntity
  8
IMPORT_IGES
100
AcDbLine
 62
7
  6
CONTINUOUS
 10
7.1156278341
 20
-1.25
 11
8.1156278341
 21
-1.25
  0
LINE
  5
7FB
100
AcDbEntity
  8
IMPORT_IGES
100
AcDbLine
 62
7
  6
CONTINUOUS
 10
-11.8843721659
 20
-1.25
 11
-12.8843721659
 21
-1.25
  0
LINE
  5
7FC
100
AcDbEntity
  8
IMPORT_IGES
100
AcDbLine
 62
7
  6
CONTINUOUS
 10
12.1156278341
 20
-1.25
 11
13.1156278341
 21
-1.25
  0
LINE
  5
7FD
100
AcDbEntity
  8
IMPORT_IGES
100
AcDbLine
 62
7
  6
CONTINUOUS
 10
-16.8843721659
 20
-1.25
 11
-17.8843721659
 21
-1.25
  0
LINE
  5
7FE
100
AcDbEntity
  8
IMPORT_IGES
100
AcDbLine
 62
7
  6
CONTINUOUS
 10
17.1156278341
 20
-1.25
 11
18.1156278341
 21
-1.25
  0
LINE
  5
7FF
100
AcDbEntity
  8
RACCORDO
100
AcDbLine
 62
7
  6
CONTINUOUS
 10
-42.8502977747
 20
-0.9
 11
-42.2502977747
 21
-0.9
  0
LINE
  5
800
100
AcDbEntity
  8
RACCORDO
100
AcDbLine
 62
7
  6
CONTINUOUS
 10
43.081553443
 20
-0.9
 11
42.481553443
 21
-0.9
  0
LINE
  5
801
100
AcDbEntity
  8
RACCORDO
100
AcDbLine
 62
250
  6
CONTINUOUS
 10
-42.8822910045
 20
-0.8680067702
 11
-42.2502977747
 21
-0.8680067702
  0
LINE
  5
802
100
AcDbEntity
  8
RACCORDO
100
AcDbLine
 62
250
  6
CONTINUOUS
 10
42.481553443
 20
-0.8680067702
 11
43.1135466728
 21
-0.8680067702
  0
LINE
  5
803
100
AcDbEntity
  8
IMPORT_IGES
100
AcDbLine
 62
7
  6
CONTINUOUS
 10
2.1156278341
 20
-0.75
 11
3.1156278341
 21
-0.75
  0
LINE
  5
804
100
AcDbEntity
  8
IMPORT_IGES
100
AcDbLine
 62
7
  6
CONTINUOUS
 10
-1.8843721659
 20
-0.75
 11
-2.8843721659
 21
-0.75
  0
LINE
  5
805
100
AcDbEntity
  8
IMPORT_IGES
100
AcDbLine
 62
7
  6
CONTINUOUS
 10
7.1156278341
 20
-0.75
 11
8.1156278341
 21
-0.75
  0
LINE
  5
806
100
AcDbEntity
  8
IMPORT_IGES
100
AcDbLine
 62
7
  6
CONTINUOUS
 10
-6.8843721659
 20
-0.75
 11
-7.8843721659
 21
-0.75
  0
LINE
  5
807
100
AcDbEntity
  8
IMPORT_IGES
100
AcDbLine
 62
7
  6
CONTINUOUS
 10
12.1156278341
 20
-0.75
 11
13.1156278341
 21
-0.75
  0
LINE
  5
808
100
AcDbEntity
  8
IMPORT_IGES
100
AcDbLine
 62
7
  6
CONTINUOUS
 10
-11.8843721659
 20
-0.75
 11
-12.8843721659
 21
-0.75
  0
LINE
  5
809
100
AcDbEntity
  8
IMPORT_IGES
100
AcDbLine
 62
7
  6
CONTINUOUS
 10
17.1156278341
 20
-0.75
 11
18.1156278341
 21
-0.75
  0
LINE
  5
80A
100
AcDbEntity
  8
IMPORT_IGES
100
AcDbLine
 62
7
  6
CONTINUOUS
 10
-16.8843721659
 20
-0.75
 11
-17.8843721659
 21
-0.75
  0
LINE
  5
80B
100
AcDbEntity
  8
RACCORDO
100
AcDbLine
 62
250
  6
CONTINUOUS
 10
-42.8922239982
 20
-0.6682808632
 11
-42.2502977747
 21
-0.6682808632
  0
LINE
  5
80C
100
AcDbEntity
  8
RACCORDO
100
AcDbLine
 62
250
  6
CONTINUOUS
 10
42.481553443
 20
-0.6682808632
 11
43.1234796664
 21
-0.6682808632
  0
LINE
  5
80D
100
AcDbEntity
  8
RACCORDO
100
AcDbLine
 62
250
  6
CONTINUOUS
 10
43.1234796664
 20
-0.3317191368
 11
42.481553443
 21
-0.3317191368
  0
LINE
  5
80E
100
AcDbEntity
  8
RACCORDO
100
AcDbLine
 62
250
  6
CONTINUOUS
 10
-42.2502977747
 20
-0.3317191368
 11
-42.8922239982
 21
-0.3317191368
  0
LINE
  5
80F
100
AcDbEntity
  8
RACCORDO
100
AcDbLine
 62
250
  6
CONTINUOUS
 10
43.1135466728
 20
-0.1319932298
 11
42.481553443
 21
-0.1319932298
  0
LINE
  5
810
100
AcDbEntity
  8
RACCORDO
100
AcDbLine
 62
250
  6
CONTINUOUS
 10
-42.2502977747
 20
-0.1319932298
 11
-42.8822910045
 21
-0.1319932298
  0
LINE
  5
811
100
AcDbEntity
  8
RACCORDO
100
AcDbLine
 62
7
  6
CONTINUOUS
 10
-42.8502977747
 20
-0.1
 11
-42.2502977747
 21
-0.1
  0
LINE
  5
812
100
AcDbEntity
  8
RACCORDO
100
AcDbLine
 62
7
  6
CONTINUOUS
 10
43.081553443
 20
-0.1
 11
42.481553443
 21
-0.1
  0
LINE
  5
813
100
AcDbEntity
  8
RACCORDO
100
AcDbLine
 62
7
  6
CONTINUOUS
 10
43.081553443
 20
-50.1
 11
43.1135466728
 21
-50.1319932298
  0
LINE
  5
814
100
AcDbEntity
  8
IMPORT_IGES
100
AcDbLine
 62
7
  6
CONTINUOUS
 10
1.1156278341
 20
60.5506855812
 11
1.1156278341
 21
62.0493144188
  0
LINE
  5
815
100
AcDbEntity
  8
IMPORT_IGES
100
AcDbLine
 62
7
  6
CONTINUOUS
 10
2.1156278341
 20
-0.75
 11
2.1156278341
 21
-1.25
  0
LINE
  5
816
100
AcDbEntity
  8
IMPORT_IGES
100
AcDbLine
 62
7
  6
CONTINUOUS
 10
2.3156278341
 20
-1.25
 11
2.3156278341
 21
-0.75
  0
LINE
  5
817
100
AcDbEntity
  8
IMPORT_IGES
100
AcDbLine
 62
7
  6
CONTINUOUS
 10
2.9156278341
 20
-0.75
 11
2.9156278341
 21
-1.25
  0
LINE
  5
818
100
AcDbEntity
  8
IMPORT_IGES
100
AcDbLine
 62
7
  6
CONTINUOUS
 10
3.1156278341
 20
62.0493144188
 11
3.1156278341
 21
60.5506855812
  0
LINE
  5
819
100
AcDbEntity
  8
IMPORT_IGES
100
AcDbLine
 62
7
  6
CONTINUOUS
 10
3.1156278341
 20
-0.75
 11
3.1156278341
 21
-1.25
  0
LINE
  5
81A
100
AcDbEntity
  8
RACCORDO
100
AcDbLine
 62
7
  6
CONTINUOUS
 10
3.3656278341
 20
-43.7992805693
 11
3.3656278341
 21
-38.8096325298
  0
LINE
  5
81B
100
AcDbEntity
  8
RACCORDO
100
AcDbLine
 62
7
  6
CONTINUOUS
 10
3.7156278341
 20
49.3
 11
3.7156278341
 21
56.1
  0
LINE
  5
81C
100
AcDbEntity
  8
RACCORDO
100
AcDbLine
 62
7
  6
CONTINUOUS
 10
4.1656278341
 20
-38.5961604984
 11
4.1656278341
 21
-43.7992805693
  0
LINE
  5
81D
100
AcDbEntity
  8
RACCORDO
100
AcDbLine
 62
7
  6
CONTINUOUS
 10
4.5156278341
 20
56.1
 11
4.5156278341
 21
49.3
  0
LINE
  5
81E
100
AcDbEntity
  8
IMPORT_IGES
100
AcDbLine
 62
7
  6
CONTINUOUS
 10
5.1156278341
 20
60.5506855812
 11
5.1156278341
 21
62.0493144188
  0
LINE
  5
81F
100
AcDbEntity
  8
RACCORDO
100
AcDbLine
 62
250
  6
CONTINUOUS
 10
-38.2725038689
 20
-39.8882535376
 11
-38.2094027404
 21
-39.8251524091
  0
LINE
  5
820
100
AcDbEntity
  8
RACCORDO
100
AcDbLine
 62
250
  6
CONTINUOUS
 10
-38.0726257035
 20
-40.088131703
 11
-38.009524575
 21
-40.0250305745
  0
LINE
  5
821
100
AcDbEntity
  8
RACCORDO
100
AcDbLine
 62
7
  6
CONTINUOUS
 10
-42.8502977747
 20
-50.1
 11
-42.8822910045
 21
-50.1319932298
  0
LINE
  5
822
100
AcDbEntity
  8
RACCORDO
100
AcDbLine
 62
7
  6
CONTINUOUS
 10
-42.8502977747
 20
49.1
 11
-42.8822910045
 21
49.1319932298
  0
LINE
  5
823
100
AcDbEntity
  8
IMPORT_IGES
100
AcDbLine
 62
7
  6
CONTINUOUS
 10
7.1156278341
 20
62.0493144188
 11
7.1156278341
 21
60.5506855812
  0
LINE
  5
824
100
AcDbEntity
  8
IMPORT_IGES
100
AcDbLine
 62
7
  6
CONTINUOUS
 10
7.1156278341
 20
-0.75
 11
7.1156278341
 21
-1.25
  0
LINE
  5
825
100
AcDbEntity
  8
IMPORT_IGES
100
AcDbLine
 62
7
  6
CONTINUOUS
 10
7.3156278341
 20
-1.25
 11
7.3156278341
 21
-0.75
  0
LINE
  5
826
100
AcDbEntity
  8
IMPORT_IGES
100
AcDbLine
 62
7
  6
CONTINUOUS
 10
7.9156278341
 20
-0.75
 11
7.9156278341
 21
-1.25
  0
LINE
  5
827
100
AcDbEntity
  8
IMPORT_IGES
100
AcDbLine
 62
7
  6
CONTINUOUS
 10
8.1156278341
 20
-0.75
 11
8.1156278341
 21
-1.25
  0
LINE
  5
828
100
AcDbEntity
  8
IMPORT_IGES
100
AcDbLine
 62
7
  6
CONTINUOUS
 10
12.1156278341
 20
-0.75
 11
12.1156278341
 21
-1.25
  0
LINE
  5
829
100
AcDbEntity
  8
IMPORT_IGES
100
AcDbLine
 62
7
  6
CONTINUOUS
 10
12.3156278341
 20
-1.25
 11
12.3156278341
 21
-0.75
  0
LINE
  5
82A
100
AcDbEntity
  8
RACCORDO
100
AcDbLine
 62
7
  6
CONTINUOUS
 10
-42.8502977747
 20
-54.4659256088
 11
-42.8822910045
 21
-54.4979188387
  0
LINE
  5
82B
100
AcDbEntity
  8
RACCORDO
100
AcDbLine
 62
250
  6
CONTINUOUS
 10
-38.2094027404
 20
8.1252742437
 11
-42.5590979222
 21
8.1252742437
  0
LINE
  5
82C
100
AcDbEntity
  8
RACCORDO
100
AcDbLine
 62
250
  6
CONTINUOUS
 10
-38.2094027404
 20
8.3251524091
 11
-42.3592197568
 21
8.3251524091
  0
LINE
  5
82D
100
AcDbEntity
  8
RACCORDO
100
AcDbLine
 62
7
  6
CONTINUOUS
 10
-38.2725038689
 20
8.3882535376
 11
-42.2961186283
 21
8.3882535376
  0
LINE
  5
82E
100
AcDbEntity
  8
RACCORDO
100
AcDbLine
 62
7
  6
CONTINUOUS
 10
-41.8343721659
 20
8.5
 11
-42.1843721659
 21
8.5
  0
LINE
  5
82F
100
AcDbEntity
  8
RACCORDO
100
AcDbLine
 62
250
  6
CONTINUOUS
 10
-37.8096464096
 20
8.5250305745
 11
-38.009524575
 21
8.5250305745
  0
LINE
  5
830
100
AcDbEntity
  8
RACCORDO
100
AcDbLine
 62
250
  6
CONTINUOUS
 10
-37.8096464096
 20
10.4749694255
 11
-38.009524575
 21
10.4749694255
  0
LINE
  5
831
100
AcDbEntity
  8
RACCORDO
100
AcDbLine
 62
7
  6
CONTINUOUS
 10
-41.8343721659
 20
10.5
 11
-42.1843721659
 21
10.5
  0
LINE
  5
832
100
AcDbEntity
  8
ASSI
100
AcDbLine
 62
250
  6
CONTINUOUS
 10
-42.2636172676
 20
10.5792451017
 11
-41.8343721659
 21
10.5792451017
  0
LINE
  5
833
100
AcDbEntity
  8
RACCORDO
100
AcDbLine
 62
250
  6
CONTINUOUS
 10
-42.2636172676
 20
10.5792451017
 11
-41.8343721659
 21
10.5792451017
  0
LINE
  5
834
100
AcDbEntity
  8
RACCORDO
100
AcDbLine
 62
7
  6
CONTINUOUS
 10
-42.2961186283
 20
10.6117464624
 11
-38.2725038689
 21
10.6117464624
  0
LINE
  5
835
100
AcDbEntity
  8
RACCORDO
100
AcDbLine
 62
250
  6
CONTINUOUS
 10
-42.3592197568
 20
10.6748475909
 11
-38.2094027404
 21
10.6748475909
  0
LINE
  5
836
100
AcDbEntity
  8
RACCORDO
100
AcDbLine
 62
250
  6
CONTINUOUS
 10
-42.5590979222
 20
10.8747257563
 11
-38.2094027404
 21
10.8747257563
  0
LINE
  5
837
100
AcDbEntity
  8
IMPORT_IGES
100
AcDbLine
 62
7
  6
CONTINUOUS
 10
12.9156278341
 20
-0.75
 11
12.9156278341
 21
-1.25
  0
LINE
  5
838
100
AcDbEntity
  8
IMPORT_IGES
100
AcDbLine
 62
7
  6
CONTINUOUS
 10
13.1156278341
 20
-0.75
 11
13.1156278341
 21
-1.25
  0
LINE
  5
839
100
AcDbEntity
  8
RACCORDO
100
AcDbLine
 62
7
  6
CONTINUOUS
 10
15.1156278341
 20
-7.498781654
 11
15.1156278341
 21
-14.501218346
  0
LINE
  5
83A
100
AcDbEntity
  8
ASSI
100
AcDbLine
 62
7
  6
CONTINUOUS
 10
16.0976786417
 20
-73.0
 11
16.0976786417
 21
-72.9562556682
  0
LINE
  5
83B
100
AcDbEntity
  8
RACCORDO
100
AcDbLine
 62
7
  6
CONTINUOUS
 10
16.0976786417
 20
-73.0
 11
16.0976786417
 21
-72.9562556682
  0
LINE
  5
83C
100
AcDbEntity
  8
IMPORT_IGES
100
AcDbLine
 62
7
  6
CONTINUOUS
 10
17.1156278341
 20
-0.75
 11
17.1156278341
 21
-1.25
  0
LINE
  5
83D
100
AcDbEntity
  8
IMPORT_IGES
100
AcDbLine
 62
7
  6
CONTINUOUS
 10
17.3156278341
 20
-1.25
 11
17.3156278341
 21
-0.75
  0
LINE
  5
83E
100
AcDbEntity
  8
IMPORT_IGES
100
AcDbLine
 62
7
  6
CONTINUOUS
 10
17.9156278341
 20
-0.75
 11
17.9156278341
 21
-1.25
  0
LINE
  5
83F
100
AcDbEntity
  8
IMPORT_IGES
100
AcDbLine
 62
7
  6
CONTINUOUS
 10
18.1156278341
 20
-0.75
 11
18.1156278341
 21
-1.25
  0
LINE
  5
840
100
AcDbEntity
  8
RACCORDO
100
AcDbLine
 62
250
  6
CONTINUOUS
 10
-44.8987679027
 20
-72.0531249093
 11
-42.3051440296
 21
-69.2659256088
  0
LINE
  5
841
100
AcDbEntity
  8
0
100
AcDbLine
 62
250
  6
CONTINUOUS
 10
-47.3406278341
 20
-71.4619636211
 11
-46.4376230485
 21
-70.5589588355
  0
LINE
  5
842
100
AcDbEntity
  8
DRAFT
100
AcDbLine
 62
7
  6
CONTINUOUS
 10
-42.8922239982
 20
-68.5078518323
 11
-42.8502977747
 21
-68.4659256088
  0
LINE
  5
843
100
AcDbEntity
  8
RACCORDO
100
AcDbLine
 62
250
  6
CONTINUOUS
 10
-46.7500793553
 20
19.2019313008
 11
-46.4880503836
 21
19.1881359802
  0
LINE
  5
844
100
AcDbEntity
  8
0
100
AcDbLine
 62
250
  6
CONTINUOUS
 10
-47.3406278341
 20
71.4619636211
 11
-46.4376230485
 21
70.5589588355
  0
LINE
  5
845
100
AcDbEntity
  8
DRAFT
100
AcDbLine
 62
7
  6
CONTINUOUS
 10
-42.8922239982
 20
68.5078518323
 11
-42.8502977747
 21
68.4659256088
  0
LINE
  5
846
100
AcDbEntity
  8
RACCORDO
100
AcDbLine
 62
250
  6
CONTINUOUS
 10
-44.8987679027
 20
72.0531249093
 11
-42.3051440296
 21
69.2659256088
  0
LINE
  5
847
100
AcDbEntity
  8
0
100
AcDbLine
 62
250
  6
CONTINUOUS
 10
-45.846335787
 20
-72.9562556682
 11
-44.9433310014
 21
-72.0532508826
  0
LINE
  5
848
100
AcDbEntity
  8
RACCORDO
100
AcDbLine
 62
250
  6
CONTINUOUS
 10
-46.4374970751
 20
-70.5143957368
 11
-43.6502977747
 21
-67.9207718637
  0
LINE
  5
849
100
AcDbEntity
  8
RACCORDO
100
AcDbLine
 62
7
  6
CONTINUOUS
 10
-46.6976580983
 20
18.6
 11
-46.5400346268
 21
18.6
  0
LINE
  5
84A
100
AcDbEntity
  8
DRAFT
100
AcDbLine
 62
7
  6
CONTINUOUS
 10
-47.0843721659
 20
25.7150045346
 11
-47.4843721659
 21
25.75
  0
LINE
  5
84B
100
AcDbEntity
  8
ASSI
100
AcDbLine
 62
7
  6
CONTINUOUS
 10
-47.0843721659
 20
25.7150045346
 11
-47.4843721659
 21
25.75
  0
LINE
  5
84C
100
AcDbEntity
  8
DRAFT
100
AcDbLine
 62
7
  6
CONTINUOUS
 10
-47.4843721659
 20
26.75
 11
-47.0843721659
 21
26.7150045346
  0
LINE
  5
84D
100
AcDbEntity
  8
ASSI
100
AcDbLine
 62
7
  6
CONTINUOUS
 10
-47.4843721659
 20
26.75
 11
-47.0843721659
 21
26.7150045346
  0
LINE
  5
84E
100
AcDbEntity
  8
DRAFT
100
AcDbLine
 62
7
  6
CONTINUOUS
 10
-47.4843721659
 20
27.75
 11
-47.0843721659
 21
27.7150045346
  0
LINE
  5
84F
100
AcDbEntity
  8
ASSI
100
AcDbLine
 62
7
  6
CONTINUOUS
 10
-47.4843721659
 20
27.75
 11
-47.0843721659
 21
27.7150045346
  0
LINE
  5
850
100
AcDbEntity
  8
RACCORDO
100
AcDbLine
 62
250
  6
CONTINUOUS
 10
-46.4374970751
 20
70.5143957368
 11
-43.6502977747
 21
67.9207718637
  0
LINE
  5
851
100
AcDbEntity
  8
0
100
AcDbLine
 62
250
  6
CONTINUOUS
 10
-45.846335787
 20
72.9562556682
 11
-44.9433310014
 21
72.0532508826
  0
LINE
  5
852
100
AcDbEntity
  8
ASSI
100
AcDbLine
 62
7
  6
CONTINUOUS
 10
24.1335770265
 20
-73.0
 11
24.1335770265
 21
-72.9562556682
  0
LINE
  5
853
100
AcDbEntity
  8
RACCORDO
100
AcDbLine
 62
7
  6
CONTINUOUS
 10
24.1335770265
 20
-73.0
 11
24.1335770265
 21
-72.9562556682
  0
LINE
  5
854
100
AcDbEntity
  8
ASSI
100
AcDbLine
 62
7
  6
CONTINUOUS
 10
27.2656278341
 20
-11.1
 11
27.2656278341
 21
-11.9
  0
LINE
  5
855
100
AcDbEntity
  8
DRAFT
100
AcDbLine
 62
7
  6
CONTINUOUS
 10
27.2656278341
 20
-11.1
 11
27.2656278341
 21
-11.9
  0
LINE
  5
856
100
AcDbEntity
  8
ASSI
100
AcDbLine
 62
7
  6
CONTINUOUS
 10
27.2656278341
 20
-19.1
 11
27.2656278341
 21
-19.9
  0
LINE
  5
857
100
AcDbEntity
  8
DRAFT
100
AcDbLine
 62
7
  6
CONTINUOUS
 10
27.2656278341
 20
-19.1
 11
27.2656278341
 21
-19.9
  0
LINE
  5
858
100
AcDbEntity
  8
ASSI
100
AcDbLine
 62
250
  6
CONTINUOUS
 10
27.3233209382
 20
-19.9
 11
27.3233209382
 21
-19.1
  0
LINE
  5
859
100
AcDbEntity
  8
RACCORDO
100
AcDbLine
 62
250
  6
CONTINUOUS
 10
27.3233209382
 20
-19.9
 11
27.3233209382
 21
-19.1
  0
LINE
  5
85A
100
AcDbEntity
  8
ASSI
100
AcDbLine
 62
250
  6
CONTINUOUS
 10
27.3233209382
 20
-11.9
 11
27.3233209382
 21
-11.1
  0
LINE
  5
85B
100
AcDbEntity
  8
RACCORDO
100
AcDbLine
 62
250
  6
CONTINUOUS
 10
27.3233209382
 20
-11.9
 11
27.3233209382
 21
-11.1
  0
LINE
  5
85C
100
AcDbEntity
  8
ASSI
100
AcDbLine
 62
250
  6
CONTINUOUS
 10
27.6232752468
 20
-11.1
 11
27.6232752468
 21
-11.9
  0
LINE
  5
85D
100
AcDbEntity
  8
RACCORDO
100
AcDbLine
 62
250
  6
CONTINUOUS
 10
27.6232752468
 20
-11.1
 11
27.6232752468
 21
-11.9
  0
LINE
  5
85E
100
AcDbEntity
  8
ASSI
100
AcDbLine
 62
250
  6
CONTINUOUS
 10
27.6232752468
 20
-19.1
 11
27.6232752468
 21
-19.9
  0
LINE
  5
85F
100
AcDbEntity
  8
RACCORDO
100
AcDbLine
 62
250
  6
CONTINUOUS
 10
27.6232752468
 20
-19.1
 11
27.6232752468
 21
-19.9
  0
LINE
  5
860
100
AcDbEntity
  8
RACCORDO
100
AcDbLine
 62
7
  6
CONTINUOUS
 10
-31.9843721659
 20
-68.4659256088
 11
-32.0163653957
 21
-68.4979188387
  0
LINE
  5
861
100
AcDbEntity
  8
DRAFT
100
AcDbLine
 62
7
  6
CONTINUOUS
 10
-47.4843721659
 20
25.25
 11
-47.0843721659
 21
25.2849954654
  0
LINE
  5
862
100
AcDbEntity
  8
ASSI
100
AcDbLine
 62
7
  6
CONTINUOUS
 10
-47.4843721659
 20
25.25
 11
-47.0843721659
 21
25.2849954654
  0
LINE
  5
863
100
AcDbEntity
  8
RACCORDO
100
AcDbLine
 62
250
  6
CONTINUOUS
 10
-47.0843721659
 20
27.8000101566
 11
-46.4877332757
 21
27.8104296067
  0
LINE
  5
864
100
AcDbEntity
  8
ASSI
100
AcDbLine
 62
250
  6
CONTINUOUS
 10
-47.0843721659
 20
27.8000101566
 11
-46.4877332757
 21
27.8104296067
  0
LINE
  5
865
100
AcDbEntity
  8
RACCORDO
100
AcDbLine
 62
7
  6
CONTINUOUS
 10
-47.0843721659
 20
28.0
 11
-46.4908806755
 21
28.0103594325
  0
LINE
  5
866
100
AcDbEntity
  8
ASSI
100
AcDbLine
 62
7
  6
CONTINUOUS
 10
-47.0843721659
 20
28.0
 11
-46.4908806755
 21
28.0103594325
  0
LINE
  5
867
100
AcDbEntity
  8
RACCORDO
100
AcDbLine
 62
7
  6
CONTINUOUS
 10
-47.0843721659
 20
25.0
 11
-47.4843721659
 21
25.0
  0
LINE
  5
868
100
AcDbEntity
  8
ASSI
100
AcDbLine
 62
7
  6
CONTINUOUS
 10
-47.0843721659
 20
25.0
 11
-47.4843721659
 21
25.0
  0
LINE
  5
869
100
AcDbEntity
  8
RACCORDO
100
AcDbLine
 62
250
  6
CONTINUOUS
 10
-47.0843721659
 20
25.2
 11
-47.4843721659
 21
25.2
  0
LINE
  5
86A
100
AcDbEntity
  8
ASSI
100
AcDbLine
 62
250
  6
CONTINUOUS
 10
-47.0843721659
 20
25.2
 11
-47.4843721659
 21
25.2
  0
LINE
  5
86B
100
AcDbEntity
  8
RACCORDO
100
AcDbLine
 62
250
  6
CONTINUOUS
 10
-47.4843721659
 20
27.8
 11
-47.0843721659
 21
27.8
  0
LINE
  5
86C
100
AcDbEntity
  8
ASSI
100
AcDbLine
 62
250
  6
CONTINUOUS
 10
-47.4843721659
 20
27.8
 11
-47.0843721659
 21
27.8
  0
LINE
  5
86D
100
AcDbEntity
  8
RACCORDO
100
AcDbLine
 62
7
  6
CONTINUOUS
 10
-47.4843721659
 20
28.0
 11
-47.0843721659
 21
28.0
  0
LINE
  5
86E
100
AcDbEntity
  8
ASSI
100
AcDbLine
 62
7
  6
CONTINUOUS
 10
-47.4843721659
 20
28.0
 11
-47.0843721659
 21
28.0
  0
LINE
  5
86F
100
AcDbEntity
  8
RACCORDO
100
AcDbLine
 62
7
  6
CONTINUOUS
 10
-46.5400346268
 20
28.4
 11
-46.6976580983
 21
28.4
  0
LINE
  5
870
100
AcDbEntity
  8
RACCORDO
100
AcDbLine
 62
7
  6
CONTINUOUS
 10
-46.4876133647
 20
24.9895835364
 11
-47.0843721659
 21
25.0
  0
LINE
  5
871
100
AcDbEntity
  8
ASSI
100
AcDbLine
 62
7
  6
CONTINUOUS
 10
-46.4876133647
 20
24.9895835364
 11
-47.0843721659
 21
25.0
  0
LINE
  5
872
100
AcDbEntity
  8
RACCORDO
100
AcDbLine
 62
250
  6
CONTINUOUS
 10
-46.4876133647
 20
25.1895682992
 11
-47.0843721659
 21
25.1999898434
  0
LINE
  5
873
100
AcDbEntity
  8
ASSI
100
AcDbLine
 62
250
  6
CONTINUOUS
 10
-46.4876133647
 20
25.1895682992
 11
-47.0843721659
 21
25.1999898434
  0
LINE
  5
874
100
AcDbEntity
  8
RACCORDO
100
AcDbLine
 62
7
  6
CONTINUOUS
 10
-31.9843721659
 20
68.4659256088
 11
-32.0163653957
 21
68.4979188387
  0
LINE
  5
875
100
AcDbEntity
  8
0
100
AcDbLine
 62
7
  6
CONTINUOUS
 10
35.071303732
 20
-43.1862061846
 11
35.0645929025
 21
-43.0629948554
  0
LINE
  5
876
100
AcDbEntity
  8
ASSI
100
AcDbLine
 62
7
  6
CONTINUOUS
 10
31.1914811961
 20
-14.1425292739
 11
31.1914811961
 21
-14.1207138213
  0
LINE
  5
877
100
AcDbEntity
  8
RACCORDO
100
AcDbLine
 62
7
  6
CONTINUOUS
 10
32.2156278341
 20
68.4659256088
 11
32.2156278341
 21
67.8659256088
  0
LINE
  5
878
100
AcDbEntity
  8
RACCORDO
100
AcDbLine
 62
7
  6
CONTINUOUS
 10
32.2156278341
 20
-68.4659256088
 11
32.2156278341
 21
-67.8659256088
  0
LINE
  5
879
100
AcDbEntity
  8
RACCORDO
100
AcDbLine
 62
250
  6
CONTINUOUS
 10
32.2476210639
 20
68.4979188387
 11
32.2476210639
 21
67.8659256088
  0
LINE
  5
87A
100
AcDbEntity
  8
RACCORDO
100
AcDbLine
 62
250
  6
CONTINUOUS
 10
32.2476210639
 20
-67.8659256088
 11
32.2476210639
 21
-68.4979188387
  0
LINE
  5
87B
100
AcDbEntity
  8
RACCORDO
100
AcDbLine
 62
250
  6
CONTINUOUS
 10
32.4473469709
 20
68.5078518323
 11
32.4473469709
 21
67.8659256088
  0
LINE
  5
87C
100
AcDbEntity
  8
RACCORDO
100
AcDbLine
 62
250
  6
CONTINUOUS
 10
32.4473469709
 20
-67.8659256088
 11
32.4473469709
 21
-68.5078518323
  0
LINE
  5
87D
100
AcDbEntity
  8
ASSI
100
AcDbLine
 62
250
  6
CONTINUOUS
 10
32.6859085253
 20
-12.6
 11
32.6859085253
 21
-11.9296168877
  0
LINE
  5
87E
100
AcDbEntity
  8
RACCORDO
100
AcDbLine
 62
250
  6
CONTINUOUS
 10
32.6859085253
 20
-12.6
 11
32.6859085253
 21
-11.9296168877
  0
LINE
  5
87F
100
AcDbEntity
  8
RACCORDO
100
AcDbLine
 62
250
  6
CONTINUOUS
 10
32.7839086973
 20
-68.5078518323
 11
32.7839086973
 21
-67.8659256088
  0
LINE
  5
880
100
AcDbEntity
  8
RACCORDO
100
AcDbLine
 62
250
  6
CONTINUOUS
 10
32.7839086973
 20
67.8659256088
 11
32.7839086973
 21
68.5078518323
  0
LINE
  5
881
100
AcDbEntity
  8
RACCORDO
100
AcDbLine
 62
250
  6
CONTINUOUS
 10
32.9836346043
 20
-68.4979188387
 11
32.9836346043
 21
-67.8659256088
  0
LINE
  5
882
100
AcDbEntity
  8
RACCORDO
100
AcDbLine
 62
250
  6
CONTINUOUS
 10
32.9836346043
 20
67.8659256088
 11
32.9836346043
 21
68.4979188387
  0
LINE
  5
883
100
AcDbEntity
  8
ASSI
100
AcDbLine
 62
250
  6
CONTINUOUS
 10
32.9858628339
 20
-12.6
 11
32.9858628339
 21
-12.1662967418
  0
LINE
  5
884
100
AcDbEntity
  8
RACCORDO
100
AcDbLine
 62
250
  6
CONTINUOUS
 10
32.9858628339
 20
-12.6
 11
32.9858628339
 21
-12.1662967418
  0
LINE
  5
885
100
AcDbEntity
  8
RACCORDO
100
AcDbLine
 62
7
  6
CONTINUOUS
 10
33.0156278341
 20
68.4659256088
 11
33.0156278341
 21
67.8659256088
  0
LINE
  5
886
100
AcDbEntity
  8
RACCORDO
100
AcDbLine
 62
7
  6
CONTINUOUS
 10
33.0156278341
 20
-68.4659256088
 11
33.0156278341
 21
-67.8659256088
  0
LINE
  5
887
100
AcDbEntity
  8
ASSI
100
AcDbLine
 62
7
  6
CONTINUOUS
 10
33.0156278341
 20
-12.6
 11
33.0156278341
 21
-12.1914000255
  0
LINE
  5
888
100
AcDbEntity
  8
RACCORDO
100
AcDbLine
 62
7
  6
CONTINUOUS
 10
33.0156278341
 20
-12.6
 11
33.0156278341
 21
-12.1914000255
  0
LINE
  5
889
100
AcDbEntity
  8
RACCORDO
100
AcDbLine
 62
7
  6
CONTINUOUS
 10
43.081553443
 20
-0.9
 11
43.1135466728
 21
-0.8680067702
  0
LINE
  5
88A
100
AcDbEntity
  8
RACCORDO
100
AcDbLine
 62
250
  6
CONTINUOUS
 10
-31.4886750459
 20
-55.2431843029
 11
-31.6642323112
 21
-55.338421294
  0
LINE
  5
88B
100
AcDbEntity
  8
DRAFT
100
AcDbLine
 62
7
  6
CONTINUOUS
 10
-47.4843721659
 20
26.25
 11
-47.0843721659
 21
26.2849954654
  0
LINE
  5
88C
100
AcDbEntity
  8
ASSI
100
AcDbLine
 62
7
  6
CONTINUOUS
 10
-47.4843721659
 20
26.25
 11
-47.0843721659
 21
26.2849954654
  0
LINE
  5
88D
100
AcDbEntity
  8
DRAFT
100
AcDbLine
 62
7
  6
CONTINUOUS
 10
-47.4843721659
 20
27.25
 11
-47.0843721659
 21
27.2849954654
  0
LINE
  5
88E
100
AcDbEntity
  8
ASSI
100
AcDbLine
 62
7
  6
CONTINUOUS
 10
-47.4843721659
 20
27.25
 11
-47.0843721659
 21
27.2849954654
  0
LINE
  5
88F
100
AcDbEntity
  8
RACCORDO
100
AcDbLine
 62
7
  6
CONTINUOUS
 10
43.081553443
 20
-0.1
 11
43.1135466728
 21
-0.1319932298
  0
LINE
  5
890
100
AcDbEntity
  8
0
100
AcDbLine
 62
7
  6
CONTINUOUS
 10
35.071303732
 20
12.3137938154
 11
35.0645929025
 21
12.4370051446
  0
LINE
  5
891
100
AcDbEntity
  8
RACCORDO
100
AcDbLine
 62
250
  6
CONTINUOUS
 10
-0.4840980728
 20
-55.2659256088
 11
-0.452104843
 21
-55.233932379
  0
LINE
  5
892
100
AcDbEntity
  8
RACCORDO
100
AcDbLine
 62
250
  6
CONTINUOUS
 10
-0.2843721659
 20
-55.4656515158
 11
-0.2523789361
 21
-55.433658286
  0
LINE
  5
893
100
AcDbEntity
  8
0
100
AcDbLine
 62
7
  6
CONTINUOUS
 10
1.2970047255
 20
45.0624984869
 11
0.4770540656
 21
45.7184590148
  0
LINE
  5
894
100
AcDbEntity
  8
RACCORDO
100
AcDbLine
 62
250
  6
CONTINUOUS
 10
42.481553443
 20
-0.9
 11
42.481553443
 21
-0.6682808632
  0
LINE
  5
895
100
AcDbEntity
  8
RACCORDO
100
AcDbLine
 62
250
  6
CONTINUOUS
 10
42.481553443
 20
-0.3317191368
 11
42.481553443
 21
-0.1
  0
LINE
  5
896
100
AcDbEntity
  8
RACCORDO
100
AcDbLine
 62
250
  6
CONTINUOUS
 10
42.481553443
 20
-50.1
 11
42.481553443
 21
-50.3317191368
  0
LINE
  5
897
100
AcDbEntity
  8
RACCORDO
100
AcDbLine
 62
250
  6
CONTINUOUS
 10
42.481553443
 20
-50.6682808632
 11
42.481553443
 21
-50.9
  0
LINE
  5
898
100
AcDbEntity
  8
RACCORDO
100
AcDbLine
 62
250
  6
CONTINUOUS
 10
42.481553443
 20
49.1
 11
42.481553443
 21
49.3317191368
  0
LINE
  5
899
100
AcDbEntity
  8
RACCORDO
100
AcDbLine
 62
250
  6
CONTINUOUS
 10
42.481553443
 20
49.6682808632
 11
42.481553443
 21
49.9
  0
LINE
  5
89A
100
AcDbEntity
  8
DRAFT
100
AcDbLine
 62
7
  6
CONTINUOUS
 10
43.081553443
 20
-68.4659256088
 11
43.081553443
 21
-55.2659256088
  0
LINE
  5
89B
100
AcDbEntity
  8
DRAFT
100
AcDbLine
 62
7
  6
CONTINUOUS
 10
43.081553443
 20
-54.4659256088
 11
43.081553443
 21
-50.9
  0
LINE
  5
89C
100
AcDbEntity
  8
DRAFT
100
AcDbLine
 62
7
  6
CONTINUOUS
 10
43.081553443
 20
-50.1
 11
43.081553443
 21
-0.9
  0
LINE
  5
89D
100
AcDbEntity
  8
DRAFT
100
AcDbLine
 62
7
  6
CONTINUOUS
 10
43.081553443
 20
-0.1
 11
43.081553443
 21
49.1
  0
LINE
  5
89E
100
AcDbEntity
  8
DRAFT
100
AcDbLine
 62
7
  6
CONTINUOUS
 10
43.081553443
 20
49.9
 11
43.081553443
 21
68.4659256088
  0
LINE
  5
89F
100
AcDbEntity
  8
RACCORDO
100
AcDbLine
 62
7
  6
CONTINUOUS
 10
43.1234796664
 20
68.5078518323
 11
43.1234796664
 21
49.6682808632
  0
LINE
  5
8A0
100
AcDbEntity
  8
RACCORDO
100
AcDbLine
 62
7
  6
CONTINUOUS
 10
43.1234796664
 20
49.3317191368
 11
43.1234796664
 21
-0.3317191368
  0
LINE
  5
8A1
100
AcDbEntity
  8
RACCORDO
100
AcDbLine
 62
7
  6
CONTINUOUS
 10
43.1234796664
 20
-0.6682808632
 11
43.1234796664
 21
-50.3317191368
  0
LINE
  5
8A2
100
AcDbEntity
  8
RACCORDO
100
AcDbLine
 62
7
  6
CONTINUOUS
 10
43.1234796664
 20
-50.6682808632
 11
43.1234796664
 21
-54.6976447456
  0
LINE
  5
8A3
100
AcDbEntity
  8
RACCORDO
100
AcDbLine
 62
7
  6
CONTINUOUS
 10
43.1234796664
 20
-55.0342064721
 11
43.1234796664
 21
-68.5078518323
  0
LINE
  5
8A4
100
AcDbEntity
  8
RACCORDO
100
AcDbLine
 62
7
  6
CONTINUOUS
 10
43.881553443
 20
-67.9181498476
 11
43.881553443
 21
67.9207718637
  0
LINE
  5
8A5
100
AcDbEntity
  8
RACCORDO
100
AcDbLine
 62
7
  6
CONTINUOUS
 10
46.6687527434
 20
-70.5472475947
 11
46.6687527434
 21
70.5143957368
  0
LINE
  5
8A6
100
AcDbEntity
  8
0
100
AcDbLine
 62
7
  6
CONTINUOUS
 10
-0.8491266134
 20
45.0076
 11
-0.3843721659
 21
45.0076
  0
LINE
  5
8A7
100
AcDbEntity
  8
0
100
AcDbLine
 62
7
  6
CONTINUOUS
 10
0.6156278341
 20
45.0076
 11
1.0803822817
 21
45.0076
  0
LINE
  5
8A8
100
AcDbEntity
  8
0
100
AcDbLine
 62
7
  6
CONTINUOUS
 10
47.5718835024
 20
71.4619636211
 11
47.5718835024
 21
-71.4619636211
  0
LINE
  5
8A9
100
AcDbEntity
  8
0
100
AcDbLine
 62
7
  6
CONTINUOUS
 10
47.5882466799
 20
71.4485326052
 11
47.5882466799
 21
37.4021679437
  0
LINE
  5
8AA
100
AcDbEntity
  8
RACCORDO
100
AcDbLine
 62
7
  6
CONTINUOUS
 10
47.6406278341
 20
36.1502132105
 11
47.6406278341
 21
9.8497867895
  0
LINE
  5
8AB
100
AcDbEntity
  8
ASSI
100
AcDbLine
 62
7
  6
CONTINUOUS
 10
47.6406278341
 20
36.1502132105
 11
47.6406278341
 21
9.8497867895
  0
LINE
  5
8AC
100
AcDbEntity
  8
RACCORDO
100
AcDbLine
 62
7
  6
CONTINUOUS
 10
47.6406278341
 20
8.6502132105
 11
47.6406278341
 21
-17.6502132105
  0
LINE
  5
8AD
100
AcDbEntity
  8
ASSI
100
AcDbLine
 62
7
  6
CONTINUOUS
 10
47.6406278341
 20
8.6502132105
 11
47.6406278341
 21
-17.6502132105
  0
LINE
  5
8AE
100
AcDbEntity
  8
RACCORDO
100
AcDbLine
 62
7
  6
CONTINUOUS
 10
47.6406278341
 20
-18.8497867895
 11
47.6406278341
 21
-45.1502132105
  0
LINE
  5
8AF
100
AcDbEntity
  8
ASSI
100
AcDbLine
 62
7
  6
CONTINUOUS
 10
47.6406278341
 20
-18.8497867895
 11
47.6406278341
 21
-45.1502132105
  0
LINE
  5
8B0
100
AcDbEntity
  8
RACCORDO
100
AcDbLine
 62
7
  6
CONTINUOUS
 10
47.6406278341
 20
-46.3497867895
 11
47.6406278341
 21
-71.5009137595
  0
LINE
  5
8B1
100
AcDbEntity
  8
ASSI
100
AcDbLine
 62
7
  6
CONTINUOUS
 10
47.6406278341
 20
-46.3497867895
 11
47.6406278341
 21
-71.5009137595
  0
LINE
  5
8B2
100
AcDbEntity
  8
RACCORDO
100
AcDbLine
 62
7
  6
CONTINUOUS
 10
0.5156278341
 20
-68.4659256088
 11
0.4836346043
 21
-68.4979188387
  0
LINE
  5
8B3
100
AcDbEntity
  8
RACCORDO
100
AcDbLine
 62
250
  6
CONTINUOUS
 10
4.4452327857
 20
48.5173309322
 11
3.6283768574
 21
48.5173309322
  0
LINE
  5
8B4
100
AcDbEntity
  8
RACCORDO
100
AcDbLine
 62
250
  6
CONTINUOUS
 10
1.6807669351
 20
48.5173309322
 11
-1.4495112668
 21
48.5173309322
  0
LINE
  5
8B5
100
AcDbEntity
  8
RACCORDO
100
AcDbLine
 62
250
  6
CONTINUOUS
 10
-3.3971211892
 20
48.5173309322
 11
-4.2139771174
 21
48.5173309322
  0
LINE
  5
8B6
100
AcDbEntity
  8
RACCORDO
100
AcDbLine
 62
7
  6
CONTINUOUS
 10
-42.8502977747
 20
49.1
 11
-42.2502977747
 21
49.1
  0
LINE
  5
8B7
100
AcDbEntity
  8
RACCORDO
100
AcDbLine
 62
7
  6
CONTINUOUS
 10
43.081553443
 20
49.1
 11
42.481553443
 21
49.1
  0
LINE
  5
8B8
100
AcDbEntity
  8
RACCORDO
100
AcDbLine
 62
250
  6
CONTINUOUS
 10
-42.8822910045
 20
49.1319932298
 11
-42.2502977747
 21
49.1319932298
  0
LINE
  5
8B9
100
AcDbEntity
  8
RACCORDO
100
AcDbLine
 62
250
  6
CONTINUOUS
 10
42.481553443
 20
49.1319932298
 11
43.1135466728
 21
49.1319932298
  0
LINE
  5
8BA
100
AcDbEntity
  8
RACCORDO
100
AcDbLine
 62
250
  6
CONTINUOUS
 10
4.5137313188
 20
49.2169045111
 11
3.7135542362
 21
49.2169045111
  0
LINE
  5
8BB
100
AcDbEntity
  8
RACCORDO
100
AcDbLine
 62
250
  6
CONTINUOUS
 10
1.8631736068
 20
49.2169045111
 11
-1.6319179386
 21
49.2169045111
  0
LINE
  5
8BC
100
AcDbEntity
  8
RACCORDO
100
AcDbLine
 62
250
  6
CONTINUOUS
 10
-3.4822985679
 20
49.2169045111
 11
-4.2824756506
 21
49.2169045111
  0
LINE
  5
8BD
100
AcDbEntity
  8
RACCORDO
100
AcDbLine
 62
250
  6
CONTINUOUS
 10
-42.8922239982
 20
49.3317191368
 11
-42.2502977747
 21
49.3317191368
  0
LINE
  5
8BE
100
AcDbEntity
  8
RACCORDO
100
AcDbLine
 62
250
  6
CONTINUOUS
 10
42.481553443
 20
49.3317191368
 11
43.1234796664
 21
49.3317191368
  0
LINE
  5
8BF
100
AcDbEntity
  8
RACCORDO
100
AcDbLine
 62
250
  6
CONTINUOUS
 10
43.1234796664
 20
49.6682808632
 11
42.481553443
 21
49.6682808632
  0
LINE
  5
8C0
100
AcDbEntity
  8
RACCORDO
100
AcDbLine
 62
250
  6
CONTINUOUS
 10
-42.2502977747
 20
49.6682808632
 11
-42.8922239982
 21
49.6682808632
  0
LINE
  5
8C1
100
AcDbEntity
  8
RACCORDO
100
AcDbLine
 62
250
  6
CONTINUOUS
 10
43.1135466728
 20
49.8680067702
 11
42.481553443
 21
49.8680067702
  0
LINE
  5
8C2
100
AcDbEntity
  8
RACCORDO
100
AcDbLine
 62
250
  6
CONTINUOUS
 10
-42.2502977747
 20
49.8680067702
 11
-42.8822910045
 21
49.8680067702
  0
LINE
  5
8C3
100
AcDbEntity
  8
RACCORDO
100
AcDbLine
 62
7
  6
CONTINUOUS
 10
-42.8502977747
 20
49.9
 11
-42.2502977747
 21
49.9
  0
LINE
  5
8C4
100
AcDbEntity
  8
RACCORDO
100
AcDbLine
 62
7
  6
CONTINUOUS
 10
43.081553443
 20
49.9
 11
42.481553443
 21
49.9
  0
LINE
  5
8C5
100
AcDbEntity
  8
0
100
AcDbLine
 62
7
  6
CONTINUOUS
 10
4.5156278341
 20
50.0076
 11
3.7156278341
 21
50.0076
  0
LINE
  5
8C6
100
AcDbEntity
  8
0
100
AcDbLine
 62
7
  6
CONTINUOUS
 10
1.7157698553
 20
50.0076
 11
-1.4845141871
 21
50.0076
  0
LINE
  5
8C7
100
AcDbEntity
  8
0
100
AcDbLine
 62
7
  6
CONTINUOUS
 10
-3.4843721659
 20
50.0076
 11
-4.2843721659
 21
50.0076
  0
LINE
  5
8C8
100
AcDbEntity
  8
RACCORDO
100
AcDbLine
 62
7
  6
CONTINUOUS
 10
-46.6976580983
 20
52.6
 11
-46.5400346268
 21
52.6
  0
LINE
  5
8C9
100
AcDbEntity
  8
RACCORDO
100
AcDbLine
 62
250
  6
CONTINUOUS
 10
-46.7500793553
 20
53.2019313008
 11
-46.4880503836
 21
53.1881359802
  0
LINE
  5
8CA
100
AcDbEntity
  8
RACCORDO
100
AcDbLine
 62
7
  6
CONTINUOUS
 10
0.5156278341
 20
68.4659256088
 11
0.4836346043
 21
68.4979188387
  0
LINE
  5
8CB
100
AcDbEntity
  8
RACCORDO
100
AcDbLine
 62
7
  6
CONTINUOUS
 10
-46.4876133647
 20
58.9895835364
 11
-47.0843721659
 21
59.0
  0
LINE
  5
8CC
100
AcDbEntity
  8
RACCORDO
100
AcDbLine
 62
250
  6
CONTINUOUS
 10
-46.4876133647
 20
59.1895682992
 11
-47.0843721659
 21
59.1999898434
  0
LINE
  5
8CD
100
AcDbEntity
  8
DRAFT
100
AcDbLine
 62
7
  6
CONTINUOUS
 10
-47.0843721659
 20
59.7150045346
 11
-47.4843721659
 21
59.75
  0
LINE
  5
8CE
100
AcDbEntity
  8
DRAFT
100
AcDbLine
 62
7
  6
CONTINUOUS
 10
-47.4843721659
 20
60.75
 11
-47.0843721659
 21
60.7150045346
  0
LINE
  5
8CF
100
AcDbEntity
  8
DRAFT
100
AcDbLine
 62
7
  6
CONTINUOUS
 10
-47.4843721659
 20
61.75
 11
-47.0843721659
 21
61.7150045346
  0
LINE
  5
8D0
100
AcDbEntity
  8
DRAFT
100
AcDbLine
 62
7
  6
CONTINUOUS
 10
-47.4843721659
 20
59.25
 11
-47.0843721659
 21
59.2849954654
  0
LINE
  5
8D1
100
AcDbEntity
  8
DRAFT
100
AcDbLine
 62
7
  6
CONTINUOUS
 10
-47.4843721659
 20
60.25
 11
-47.0843721659
 21
60.2849954654
  0
LINE
  5
8D2
100
AcDbEntity
  8
RACCORDO
100
AcDbLine
 62
250
  6
CONTINUOUS
 10
-47.0843721659
 20
61.8000101566
 11
-46.4877332757
 21
61.8104296067
  0
LINE
  5
8D3
100
AcDbEntity
  8
RACCORDO
100
AcDbLine
 62
7
  6
CONTINUOUS
 10
-47.0843721659
 20
62.0
 11
-46.4908806755
 21
62.0103594325
  0
LINE
  5
8D4
100
AcDbEntity
  8
RACCORDO
100
AcDbLine
 62
7
  6
CONTINUOUS
 10
-47.0843721659
 20
59.0
 11
-47.4843721659
 21
59.0
  0
LINE
  5
8D5
100
AcDbEntity
  8
RACCORDO
100
AcDbLine
 62
250
  6
CONTINUOUS
 10
-47.0843721659
 20
59.2
 11
-47.4843721659
 21
59.2
  0
LINE
  5
8D6
100
AcDbEntity
  8
IMPORT_IGES
100
AcDbLine
 62
7
  6
CONTINUOUS
 10
6.9273209286
 20
60.35
 11
5.3039347396
 21
60.35
  0
LINE
  5
8D7
100
AcDbEntity
  8
IMPORT_IGES
100
AcDbLine
 62
7
  6
CONTINUOUS
 10
2.9273209286
 20
60.35
 11
1.3039347396
 21
60.35
  0
LINE
  5
8D8
100
AcDbEntity
  8
IMPORT_IGES
100
AcDbLine
 62
7
  6
CONTINUOUS
 10
-1.0726790714
 20
60.35
 11
-2.6960652604
 21
60.35
  0
LINE
  5
8D9
100
AcDbEntity
  8
IMPORT_IGES
100
AcDbLine
 62
7
  6
CONTINUOUS
 10
-5.0726790714
 20
60.35
 11
-6.6960652604
 21
60.35
  0
LINE
  5
8DA
100
AcDbEntity
  8
RACCORDO
100
AcDbLine
 62
250
  6
CONTINUOUS
 10
-47.4843721659
 20
61.8
 11
-47.0843721659
 21
61.8
  0
LINE
  5
8DB
100
AcDbEntity
  8
RACCORDO
100
AcDbLine
 62
7
  6
CONTINUOUS
 10
-47.4843721659
 20
62.0
 11
-47.0843721659
 21
62.0
  0
LINE
  5
8DC
100
AcDbEntity
  8
IMPORT_IGES
100
AcDbLine
 62
7
  6
CONTINUOUS
 10
-6.5616732242
 20
62.35
 11
-5.2070711076
 21
62.35
  0
LINE
  5
8DD
100
AcDbEntity
  8
IMPORT_IGES
100
AcDbLine
 62
7
  6
CONTINUOUS
 10
-2.5616732242
 20
62.35
 11
-1.2070711076
 21
62.35
  0
LINE
  5
8DE
100
AcDbEntity
  8
IMPORT_IGES
100
AcDbLine
 62
7
  6
CONTINUOUS
 10
1.4383267758
 20
62.35
 11
2.7929288924
 21
62.35
  0
LINE
  5
8DF
100
AcDbEntity
  8
IMPORT_IGES
100
AcDbLine
 62
7
  6
CONTINUOUS
 10
5.4383267758
 20
62.35
 11
6.7929288924
 21
62.35
  0
LINE
  5
8E0
100
AcDbEntity
  8
RACCORDO
100
AcDbLine
 62
7
  6
CONTINUOUS
 10
-46.5400346268
 20
62.4
 11
-46.6976580983
 21
62.4
  0
LINE
  5
8E1
100
AcDbEntity
  8
RACCORDO
100
AcDbLine
 62
7
  6
CONTINUOUS
 10
43.081553443
 20
-50.9
 11
43.1135466728
 21
-50.8680067702
  0
LINE
  5
8E2
100
AcDbEntity
  8
RACCORDO
100
AcDbLine
 62
7
  6
CONTINUOUS
 10
43.081553443
 20
-55.2659256088
 11
43.1135466728
 21
-55.233932379
  0
LINE
  5
8E3
100
AcDbEntity
  8
DRAFT
100
AcDbLine
 62
7
  6
CONTINUOUS
 10
-47.4843721659
 20
61.25
 11
-47.0843721659
 21
61.2849954654
  0
LINE
  5
8E4
100
AcDbEntity
  8
RACCORDO
100
AcDbLine
 62
250
  6
CONTINUOUS
 10
32.4473469709
 20
67.8659256088
 11
32.2156278341
 21
67.8659256088
  0
LINE
  5
8E5
100
AcDbEntity
  8
RACCORDO
100
AcDbLine
 62
250
  6
CONTINUOUS
 10
-32.2160913027
 20
67.8659256088
 11
-31.9843721659
 21
67.8659256088
  0
LINE
  5
8E6
100
AcDbEntity
  8
RACCORDO
100
AcDbLine
 62
250
  6
CONTINUOUS
 10
-32.5526530291
 20
67.8659256088
 11
-32.7843721659
 21
67.8659256088
  0
LINE
  5
8E7
100
AcDbEntity
  8
RACCORDO
100
AcDbLine
 62
250
  6
CONTINUOUS
 10
32.7839086973
 20
67.8659256088
 11
33.0156278341
 21
67.8659256088
  0
LINE
  5
8E8
100
AcDbEntity
  8
RACCORDO
100
AcDbLine
 62
250
  6
CONTINUOUS
 10
-0.0526530291
 20
68.0659256088
 11
-0.2843721659
 21
68.0659256088
  0
LINE
  5
8E9
100
AcDbEntity
  8
RACCORDO
100
AcDbLine
 62
250
  6
CONTINUOUS
 10
0.2839086973
 20
68.0659256088
 11
0.5156278341
 21
68.0659256088
  0
LINE
  5
8EA
100
AcDbEntity
  8
DRAFT
100
AcDbLine
 62
7
  6
CONTINUOUS
 10
43.081553443
 20
68.4659256088
 11
33.0156278341
 21
68.4659256088
  0
LINE
  5
8EB
100
AcDbEntity
  8
DRAFT
100
AcDbLine
 62
7
  6
CONTINUOUS
 10
32.2156278341
 20
68.4659256088
 11
0.5156278341
 21
68.4659256088
  0
LINE
  5
8EC
100
AcDbEntity
  8
DRAFT
100
AcDbLine
 62
7
  6
CONTINUOUS
 10
-0.2843721659
 20
68.4659256088
 11
-31.9843721659
 21
68.4659256088
  0
LINE
  5
8ED
100
AcDbEntity
  8
DRAFT
100
AcDbLine
 62
7
  6
CONTINUOUS
 10
-32.7843721659
 20
68.4659256088
 11
-42.8502977747
 21
68.4659256088
  0
LINE
  5
8EE
100
AcDbEntity
  8
RACCORDO
100
AcDbLine
 62
7
  6
CONTINUOUS
 10
-42.8922239982
 20
68.5078518323
 11
-32.5526530291
 21
68.5078518323
  0
LINE
  5
8EF
100
AcDbEntity
  8
RACCORDO
100
AcDbLine
 62
7
  6
CONTINUOUS
 10
-32.2160913027
 20
68.5078518323
 11
-0.0526530291
 21
68.5078518323
  0
LINE
  5
8F0
100
AcDbEntity
  8
RACCORDO
100
AcDbLine
 62
7
  6
CONTINUOUS
 10
0.2839086973
 20
68.5078518323
 11
32.4473469709
 21
68.5078518323
  0
LINE
  5
8F1
100
AcDbEntity
  8
RACCORDO
100
AcDbLine
 62
7
  6
CONTINUOUS
 10
32.7839086973
 20
68.5078518323
 11
43.1234796664
 21
68.5078518323
  0
LINE
  5
8F2
100
AcDbEntity
  8
RACCORDO
100
AcDbLine
 62
7
  6
CONTINUOUS
 10
42.5363996979
 20
69.2659256088
 11
-42.3051440296
 21
69.2659256088
  0
LINE
  5
8F3
100
AcDbEntity
  8
RACCORDO
100
AcDbLine
 62
7
  6
CONTINUOUS
 10
43.081553443
 20
49.9
 11
43.1135466728
 21
49.8680067702
  0
LINE
  5
8F4
100
AcDbEntity
  8
RACCORDO
100
AcDbLine
 62
7
  6
CONTINUOUS
 10
33.0156278341
 20
-68.4659256088
 11
32.9836346043
 21
-68.4979188387
  0
LINE
  5
8F5
100
AcDbEntity
  8
RACCORDO
100
AcDbLine
 62
7
  6
CONTINUOUS
 10
45.130023571
 20
72.0531249093
 11
-44.8987679027
 21
72.0531249093
  0
LINE
  5
8F6
100
AcDbEntity
  8
0
100
AcDbLine
 62
7
  6
CONTINUOUS
 10
-45.846335787
 20
72.9562556682
 11
46.0775914552
 21
72.9562556682
  0
LINE
  5
8F7
100
AcDbEntity
  8
ASSI
100
AcDbLine
 62
7
  6
CONTINUOUS
 10
-29.9615401096
 20
72.9976188458
 11
-45.8579047711
 21
72.9976188458
  0
LINE
  5
8F8
100
AcDbEntity
  8
0
100
AcDbLine
 62
7
  6
CONTINUOUS
 10
-29.9615401096
 20
72.9976188458
 11
-45.8579047711
 21
72.9976188458
  0
LINE
  5
8F9
100
AcDbEntity
  8
ASSI
100
AcDbLine
 62
7
  6
CONTINUOUS
 10
-28.7370037805
 20
73.0
 11
28.9682594487
 21
73.0
  0
LINE
  5
8FA
100
AcDbEntity
  8
RACCORDO
100
AcDbLine
 62
7
  6
CONTINUOUS
 10
-28.7370037805
 20
73.0
 11
28.9682594487
 21
73.0
  0
LINE
  5
8FB
100
AcDbEntity
  8
RACCORDO
100
AcDbLine
 62
7
  6
CONTINUOUS
 10
33.0156278341
 20
68.4659256088
 11
32.9836346043
 21
68.4979188387
  0
ARC
  5
8FC
100
AcDbEntity
  8
RACCORDO
100
AcDbCircle
 62
250
  6
CONTINUOUS
 10
-24.4749868317
 20
-59.6172674724
 40
8.5705277554
100
AcDbArc
 50
149.2400152415
 51
149.4885920542
  0
ARC
  5
8FD
100
AcDbEntity
  8
RACCORDO
100
AcDbCircle
 62
250
  6
CONTINUOUS
 10
-35.3937384923
 20
-59.6172562136
 40
8.5705056635
100
AcDbArc
 50
30.5114076161
 51
30.7599850695
  0
ARC
  5
8FE
100
AcDbEntity
  8
RACCORDO
100
AcDbCircle
 62
250
  6
CONTINUOUS
 10
-25.7725222674
 20
-59.1844378363
 40
7.0359143314
100
AcDbArc
 50
146.86412347
 51
147.1599754906
  0
ARC
  5
8FF
100
AcDbEntity
  8
RACCORDO
100
AcDbCircle
 62
250
  6
CONTINUOUS
 10
-34.0962148301
 20
-59.1844331401
 40
7.0359057064
100
AcDbArc
 50
32.8400243257
 51
33.135876709
  0
ARC
  5
900
100
AcDbEntity
  8
RACCORDO
100
AcDbCircle
 62
7
  6
CONTINUOUS
 10
-29.9343721659
 20
-54.4
 40
2.0
100
AcDbArc
 50
208.9762744805
 51
331.0237255167
  0
ARC
  5
901
100
AcDbEntity
  8
RACCORDO
100
AcDbCircle
 62
250
  6
CONTINUOUS
 10
-29.9343721659
 20
-54.4
 40
1.9680067702
100
AcDbArc
 50
208.4791188508
 51
331.5208811492
  0
ARC
  5
902
100
AcDbEntity
  8
ASSI
100
AcDbCircle
 62
250
  6
CONTINUOUS
 10
-42.2843721659
 20
-40.1
 40
1.9297650002
100
AcDbArc
 50
272.1388884543
 51
279.9689329451
  0
ARC
  5
903
100
AcDbEntity
  8
RACCORDO
100
AcDbCircle
 62
250
  6
CONTINUOUS
 10
-42.2843721659
 20
-40.1
 40
1.9297650002
100
AcDbArc
 50
272.1388884543
 51
279.9689329451
  0
ARC
  5
904
100
AcDbEntity
  8
RACCORDO
100
AcDbCircle
 62
250
  6
CONTINUOUS
 10
-29.9343721659
 20
-54.4
 40
1.7682808632
100
AcDbArc
 50
208.4791188503
 51
331.5208811498
  0
CIRCLE
  5
905
100
AcDbEntity
  8
RACCORDO
100
AcDbCircle
 62
250
  6
CONTINUOUS
 10
-32.8843721659
 20
-37.7
 40
1.7657857225
  0
CIRCLE
  5
906
100
AcDbEntity
  8
RACCORDO
100
AcDbCircle
 62
250
  6
CONTINUOUS
 10
-32.8843721659
 20
-37.7
 40
1.2658618749
  0
CIRCLE
  5
907
100
AcDbEntity
  8
DRAFT
100
AcDbCircle
 62
7
  6
CONTINUOUS
 10
-32.8843721659
 20
-37.7
 40
1.25
  0
ARC
  5
908
100
AcDbEntity
  8
DRAFT
100
AcDbCircle
 62
7
  6
CONTINUOUS
 10
-29.9343721659
 20
-54.4
 40
0.9389072728
100
AcDbArc
 50
355.9736494467
 51
184.0263505533
  0
ARC
  5
909
100
AcDbEntity
  8
RACCORDO
100
AcDbCircle
 62
7
  6
CONTINUOUS
 10
-42.2502977747
 20
-50.5
 40
0.4
100
AcDbArc
 50
270.0
 51
90.0
  0
ARC
  5
90A
100
AcDbEntity
  8
RACCORDO
100
AcDbCircle
 62
7
  6
CONTINUOUS
 10
-32.3843721659
 20
-67.8659256088
 40
0.4
100
AcDbArc
 50
0.0
 51
180.0
  0
ARC
  5
90B
100
AcDbEntity
  8
RACCORDO
100
AcDbCircle
 62
250
  6
CONTINUOUS
 10
-38.2093148966
 20
-40.0249427307
 40
0.3996677001
100
AcDbArc
 50
359.9874068651
 51
90.0125931315
  0
ARC
  5
90C
100
AcDbEntity
  8
RACCORDO
100
AcDbCircle
 62
250
  6
CONTINUOUS
 10
-38.2093082103
 20
-41.9750639556
 40
0.3996594759
100
AcDbArc
 50
269.9864481092
 51
0.0135518899
  0
ARC
  5
90D
100
AcDbEntity
  8
RACCORDO
100
AcDbCircle
 62
250
  6
CONTINUOUS
 10
-42.2502977747
 20
-50.5
 40
0.3680067702
100
AcDbArc
 50
270.0
 51
90.0
  0
ARC
  5
90E
100
AcDbEntity
  8
RACCORDO
100
AcDbCircle
 62
250
  6
CONTINUOUS
 10
-32.3843721659
 20
-67.8659256088
 40
0.3680067702
100
AcDbArc
 50
0.0
 51
180.0
  0
ARC
  5
90F
100
AcDbEntity
  8
RACCORDO
100
AcDbCircle
 62
7
  6
CONTINUOUS
 10
-31.8587113421
 20
-55.465607582
 40
0.1996819749
100
AcDbArc
 50
28.9688454183
 51
90.0074291052
  0
ARC
  5
910
100
AcDbEntity
  8
RACCORDO
100
AcDbCircle
 62
7
  6
CONTINUOUS
 10
-28.0100329897
 20
-55.465607582
 40
0.1996819748
100
AcDbArc
 50
89.9925708939
 51
151.0311546102
  0
ARC
  5
911
100
AcDbEntity
  8
RACCORDO
100
AcDbCircle
 62
250
  6
CONTINUOUS
 10
-38.2090267252
 20
-41.9753454388
 40
0.1995011171
100
AcDbArc
 50
269.8920054637
 51
0.1079934623
  0
ARC
  5
912
100
AcDbEntity
  8
RACCORDO
100
AcDbCircle
 62
250
  6
CONTINUOUS
 10
-38.2090267271
 20
-40.0246545593
 40
0.1995011171
100
AcDbArc
 50
359.8920054664
 51
90.1079934595
  0
ARC
  5
913
100
AcDbEntity
  8
RACCORDO
100
AcDbCircle
 62
250
  6
CONTINUOUS
 10
-28.0293505849
 20
-55.4329932363
 40
0.1990612315
100
AcDbArc
 50
89.8860650902
 51
151.6348145078
  0
ARC
  5
914
100
AcDbEntity
  8
RACCORDO
100
AcDbCircle
 62
250
  6
CONTINUOUS
 10
-31.8393924895
 20
-55.4329911228
 40
0.1990591197
100
AcDbArc
 50
28.3648219467
 51
90.1142981683
  0
ARC
  5
915
100
AcDbEntity
  8
RACCORDO
100
AcDbCircle
 62
250
  6
CONTINUOUS
 10
-32.3843721659
 20
-67.8659262208
 40
0.1682808632
100
AcDbArc
 50
0.0002083403
 51
179.9997916597
  0
ARC
  5
916
100
AcDbEntity
  8
RACCORDO
100
AcDbCircle
 62
250
  6
CONTINUOUS
 10
-42.2502983436
 20
-50.5
 40
0.1682808632
100
AcDbArc
 50
270.0001936912
 51
89.9998063088
  0
ARC
  5
917
100
AcDbEntity
  8
ASSI
100
AcDbCircle
 62
250
  6
CONTINUOUS
 10
-34.6843721659
 20
-12.6
 40
2.2297193088
100
AcDbArc
 50
280.5334936082
 51
303.0548376493
  0
ARC
  5
918
100
AcDbEntity
  8
RACCORDO
100
AcDbCircle
 62
250
  6
CONTINUOUS
 10
-34.6843721659
 20
-12.6
 40
2.2297193088
100
AcDbArc
 50
280.5334936082
 51
303.0548376493
  0
ARC
  5
919
100
AcDbEntity
  8
ASSI
100
AcDbCircle
 62
250
  6
CONTINUOUS
 10
-34.6843721659
 20
-12.6
 40
1.9297650002
100
AcDbArc
 50
282.4311039716
 51
309.5989819668
  0
ARC
  5
91A
100
AcDbEntity
  8
RACCORDO
100
AcDbCircle
 62
250
  6
CONTINUOUS
 10
-34.6843721659
 20
-12.6
 40
1.9297650002
100
AcDbArc
 50
282.4311039716
 51
309.5989819668
  0
ARC
  5
91B
100
AcDbEntity
  8
ASSI
100
AcDbCircle
 62
7
  6
CONTINUOUS
 10
-34.6843721659
 20
-12.6
 40
1.9
100
AcDbArc
 50
282.6556594568
 51
310.4111243661
  0
ARC
  5
91C
100
AcDbEntity
  8
DRAFT
100
AcDbCircle
 62
7
  6
CONTINUOUS
 10
-34.6843721659
 20
-12.6
 40
1.9
100
AcDbArc
 50
282.6556594568
 51
310.4111243661
  0
ARC
  5
91D
100
AcDbEntity
  8
ASSI
100
AcDbCircle
 62
7
  6
CONTINUOUS
 10
-34.6843721659
 20
-12.725
 40
0.875
100
AcDbArc
 50
301.741948954
 51
360.0
  0
ARC
  5
91E
100
AcDbEntity
  8
RACCORDO
100
AcDbCircle
 62
7
  6
CONTINUOUS
 10
-34.6843721659
 20
-12.725
 40
0.875
100
AcDbArc
 50
301.741948954
 51
360.0
  0
ARC
  5
91F
100
AcDbEntity
  8
ASSI
100
AcDbCircle
 62
250
  6
CONTINUOUS
 10
-34.6843721659
 20
-12.725
 40
0.820981774
100
AcDbArc
 50
304.4562419629
 51
360.0
  0
ARC
  5
920
100
AcDbEntity
  8
RACCORDO
100
AcDbCircle
 62
250
  6
CONTINUOUS
 10
-34.6843721659
 20
-12.725
 40
0.820981774
100
AcDbArc
 50
304.4562419629
 51
360.0
  0
ARC
  5
921
100
AcDbEntity
  8
ASSI
100
AcDbCircle
 62
250
  6
CONTINUOUS
 10
-34.6843624963
 20
-12.7250022513
 40
0.6217331648
100
AcDbArc
 50
321.0037983772
 51
0.0002074726
  0
ARC
  5
922
100
AcDbEntity
  8
RACCORDO
100
AcDbCircle
 62
250
  6
CONTINUOUS
 10
-34.6843624963
 20
-12.7250022513
 40
0.6217331648
100
AcDbArc
 50
321.0037983772
 51
0.0002074726
  0
ARC
  5
923
100
AcDbEntity
  8
RACCORDO
100
AcDbCircle
 62
7
  6
CONTINUOUS
 10
-42.2502977747
 20
-0.5
 40
0.4
100
AcDbArc
 50
270.0
 51
90.0
  0
ARC
  5
924
100
AcDbEntity
  8
RACCORDO
100
AcDbCircle
 62
250
  6
CONTINUOUS
 10
-42.2502977747
 20
-0.5
 40
0.3680067702
100
AcDbArc
 50
270.0
 51
90.0
  0
ARC
  5
925
100
AcDbEntity
  8
RACCORDO
100
AcDbCircle
 62
250
  6
CONTINUOUS
 10
-42.2502983436
 20
-0.5
 40
0.1682808632
100
AcDbArc
 50
270.0001936912
 51
89.9998063088
  0
ARC
  5
926
100
AcDbEntity
  8
ASSI
100
AcDbCircle
 62
7
  6
CONTINUOUS
 10
-30.4843721659
 20
-23.0
 40
1.15
100
AcDbArc
 50
60.5176552027
 51
110.3019480452
  0
ARC
  5
927
100
AcDbEntity
  8
DRAFT
100
AcDbCircle
 62
7
  6
CONTINUOUS
 10
-30.4843721659
 20
-23.0
 40
1.15
100
AcDbArc
 50
60.5176552027
 51
110.3019480452
  0
ARC
  5
928
100
AcDbEntity
  8
ASSI
100
AcDbCircle
 62
7
  6
CONTINUOUS
 10
-30.4843721659
 20
-23.0
 40
1.0450136038
100
AcDbArc
 50
75.9723573546
 51
94.7231865687
  0
ARC
  5
929
100
AcDbEntity
  8
DRAFT
100
AcDbCircle
 62
7
  6
CONTINUOUS
 10
-30.4843721659
 20
-23.0
 40
1.0450136038
100
AcDbArc
 50
75.9723573546
 51
94.7231865687
  0
ARC
  5
92A
100
AcDbEntity
  8
ASSI
100
AcDbCircle
 62
7
  6
CONTINUOUS
 10
-30.4843721659
 20
-13.5
 40
1.15
100
AcDbArc
 50
196.1257356378
 51
156.4049706597
  0
ARC
  5
92B
100
AcDbEntity
  8
DRAFT
100
AcDbCircle
 62
7
  6
CONTINUOUS
 10
-30.4843721659
 20
-13.5
 40
1.15
100
AcDbArc
 50
196.1257356378
 51
156.4049706597
  0
CIRCLE
  5
92C
100
AcDbEntity
  8
ASSI
100
AcDbCircle
 62
7
  6
CONTINUOUS
 10
-30.4843721659
 20
-13.5
 40
1.0450136038
  0
CIRCLE
  5
92D
100
AcDbEntity
  8
DRAFT
100
AcDbCircle
 62
7
  6
CONTINUOUS
 10
-30.4843721659
 20
-13.5
 40
1.0450136038
  0
CIRCLE
  5
92E
100
AcDbEntity
  8
ASSI
100
AcDbCircle
 62
7
  6
CONTINUOUS
 10
-30.4843721659
 20
-13.5
 40
0.8069814942
  0
CIRCLE
  5
92F
100
AcDbEntity
  8
DRAFT
100
AcDbCircle
 62
7
  6
CONTINUOUS
 10
-30.4843721659
 20
-13.5
 40
0.8069814942
  0
CIRCLE
  5
930
100
AcDbEntity
  8
ASSI
100
AcDbCircle
 62
7
  6
CONTINUOUS
 10
-30.4843721659
 20
-13.5
 40
0.8
  0
CIRCLE
  5
931
100
AcDbEntity
  8
DRAFT
100
AcDbCircle
 62
7
  6
CONTINUOUS
 10
-30.4843721659
 20
-13.5
 40
0.8
  0
CIRCLE
  5
932
100
AcDbEntity
  8
RACCORDO
100
AcDbCircle
 62
7
  6
CONTINUOUS
 10
-30.4843721659
 20
-13.5
 40
0.75
  0
CIRCLE
  5
933
100
AcDbEntity
  8
ASSI
100
AcDbCircle
 62
7
  6
CONTINUOUS
 10
-30.4843721659
 20
-13.5
 40
0.75
  0
CIRCLE
  5
934
100
AcDbEntity
  8
RACCORDO
100
AcDbCircle
 62
250
  6
CONTINUOUS
 10
-30.4843721659
 20
-13.5
 40
0.55
  0
CIRCLE
  5
935
100
AcDbEntity
  8
ASSI
100
AcDbCircle
 62
250
  6
CONTINUOUS
 10
-30.4843721659
 20
-13.5
 40
0.55
  0
ARC
  5
936
100
AcDbEntity
  8
RACCORDO
100
AcDbCircle
 62
7
  6
CONTINUOUS
 10
-29.7800240236
 20
-18.0
 40
4.4
100
AcDbArc
 50
184.7801918472
 51
337.6457349376
  0
ARC
  5
937
100
AcDbEntity
  8
RACCORDO
100
AcDbCircle
 62
7
  6
CONTINUOUS
 10
-29.7800240236
 20
-18.0
 40
3.6
100
AcDbArc
 50
184.7801918472
 51
335.3055192111
  0
ARC
  5
938
100
AcDbEntity
  8
DRAFT
100
AcDbCircle
 62
7
  6
CONTINUOUS
 10
-29.7800240236
 20
-18.0
 40
1.75
100
AcDbArc
 50
184.7801918472
 51
4.7801918472
  0
ARC
  5
939
100
AcDbEntity
  8
IMPORT_IGES
100
AcDbCircle
 62
7
  6
CONTINUOUS
 10
-29.8843821645
 20
-15.4999999888
 40
6.5000000048
100
AcDbArc
 50
30.0021534255
 51
38.5422094618
  0
ARC
  5
93A
100
AcDbEntity
  8
IMPORT_IGES
100
AcDbCircle
 62
7
  6
CONTINUOUS
 10
-29.8843821645
 20
-15.4999999888
 40
6.5000000048
100
AcDbArc
 50
61.1392901044
 51
114.0606163451
  0
ARC
  5
93B
100
AcDbEntity
  8
IMPORT_IGES
100
AcDbCircle
 62
7
  6
CONTINUOUS
 10
-29.8843821645
 20
-15.4999999888
 40
6.5000000048
100
AcDbArc
 50
245.9252326297
 51
298.8433948227
  0
ARC
  5
93C
100
AcDbEntity
  8
IMPORT_IGES
100
AcDbCircle
 62
7
  6
CONTINUOUS
 10
-29.8843821645
 20
-15.4999999888
 40
6.5000000048
100
AcDbArc
 50
321.4491469401
 51
329.9949499379
  0
ARC
  5
93D
100
AcDbEntity
  8
RACCORDO
100
AcDbCircle
 62
7
  6
CONTINUOUS
 10
-29.7800240236
 20
-13.0
 40
4.4
100
AcDbArc
 50
22.3542650598
 51
175.2198081528
  0
ARC
  5
93E
100
AcDbEntity
  8
RACCORDO
100
AcDbCircle
 62
7
  6
CONTINUOUS
 10
-29.7800240236
 20
-13.0
 40
3.6
100
AcDbArc
 50
24.6944808162
 51
175.2198081528
  0
ARC
  5
93F
100
AcDbEntity
  8
DRAFT
100
AcDbCircle
 62
7
  6
CONTINUOUS
 10
-29.7800240236
 20
-13.0
 40
1.75
100
AcDbArc
 50
355.2198081528
 51
175.2198081528
  0
ARC
  5
940
100
AcDbEntity
  8
RACCORDO
100
AcDbCircle
 62
7
  6
CONTINUOUS
 10
-25.3332089067
 20
-20.0441516416
 40
1.2941395639
100
AcDbArc
 50
89.9744243456
 51
155.3310952962
  0
ARC
  5
941
100
AcDbEntity
  8
RACCORDO
100
AcDbCircle
 62
7
  6
CONTINUOUS
 10
-25.5265120938
 20
-19.7490988988
 40
0.199098921
100
AcDbArc
 50
89.9729980623
 51
157.6727358014
  0
ARC
  5
942
100
AcDbEntity
  8
RACCORDO
100
AcDbCircle
 62
7
  6
CONTINUOUS
 10
-25.3332090126
 20
-10.9558485235
 40
1.2941395527
100
AcDbArc
 50
204.668899944
 51
270.0255803491
  0
ARC
  5
943
100
AcDbEntity
  8
RACCORDO
100
AcDbCircle
 62
7
  6
CONTINUOUS
 10
-25.5265120938
 20
-11.2509011011
 40
0.199098921
100
AcDbArc
 50
202.3272642569
 51
270.0270019314
  0
ARC
  5
944
100
AcDbEntity
  8
RACCORDO
100
AcDbCircle
 62
7
  6
CONTINUOUS
 10
-2.7843721659
 20
-34.1992805693
 40
4.4
100
AcDbArc
 50
101.1604763578
 51
252.9406973778
  0
ARC
  5
945
100
AcDbEntity
  8
RACCORDO
100
AcDbCircle
 62
7
  6
CONTINUOUS
 10
-2.7843721659
 20
-34.1992805693
 40
3.6
100
AcDbArc
 50
101.1604763578
 51
250.3627231686
  0
ARC
  5
946
100
AcDbEntity
  8
DRAFT
100
AcDbCircle
 62
7
  6
CONTINUOUS
 10
-2.7843721659
 20
-34.1992805693
 40
1.75
100
AcDbArc
 50
86.0217381624
 51
266.0217381624
  0
ARC
  5
947
100
AcDbEntity
  8
RACCORDO
100
AcDbCircle
 62
7
  6
CONTINUOUS
 10
-4.4284518814
 20
-38.8089463513
 40
1.2940745582
100
AcDbArc
 50
359.9696192413
 51
70.3931039375
  0
ARC
  5
948
100
AcDbEntity
  8
RACCORDO
100
AcDbCircle
 62
7
  6
CONTINUOUS
 10
-3.5343721659
 20
-43.7992805693
 40
0.4
100
AcDbArc
 50
180.0
 51
360.0
  0
ARC
  5
949
100
AcDbEntity
  8
RACCORDO
100
AcDbCircle
 62
250
  6
CONTINUOUS
 10
-0.4519052585
 20
-55.4334587014
 40
0.3992502791
100
AcDbArc
 50
359.9713580679
 51
90.0286419231
  0
ARC
  5
94A
100
AcDbEntity
  8
RACCORDO
100
AcDbCircle
 62
7
  6
CONTINUOUS
 10
-20.1800240236
 20
-11.85
 40
0.4
100
AcDbArc
 50
270.0
 51
90.0
  0
ARC
  5
94B
100
AcDbEntity
  8
RACCORDO
100
AcDbCircle
 62
7
  6
CONTINUOUS
 10
-20.1800240236
 20
-19.15
 40
0.4
100
AcDbArc
 50
270.0
 51
90.0
  0
CIRCLE
  5
94C
100
AcDbEntity
  8
DRAFT
100
AcDbCircle
 62
7
  6
CONTINUOUS
 10
-12.3843721659
 20
-1.0
 40
1.5
  0
CIRCLE
  5
94D
100
AcDbEntity
  8
DRAFT
100
AcDbCircle
 62
7
  6
CONTINUOUS
 10
-17.3843721659
 20
-1.0
 40
1.5
  0
CIRCLE
  5
94E
100
AcDbEntity
  8
IMPORT_IGES
100
AcDbCircle
 62
7
  6
CONTINUOUS
 10
-12.3843721557
 20
-1.0000000074
 40
0.6749999962
  0
CIRCLE
  5
94F
100
AcDbEntity
  8
IMPORT_IGES
100
AcDbCircle
 62
7
  6
CONTINUOUS
 10
-17.3843721633
 20
-1.0000000074
 40
0.6749999962
  0
CIRCLE
  5
950
100
AcDbEntity
  8
DRAFT
100
AcDbCircle
 62
7
  6
CONTINUOUS
 10
-2.3843721659
 20
-1.0
 40
1.5
  0
CIRCLE
  5
951
100
AcDbEntity
  8
DRAFT
100
AcDbCircle
 62
7
  6
CONTINUOUS
 10
-7.3843721659
 20
-1.0
 40
1.5
  0
CIRCLE
  5
952
100
AcDbEntity
  8
IMPORT_IGES
100
AcDbCircle
 62
7
  6
CONTINUOUS
 10
-2.3843721659
 20
-1.0000000074
 40
0.6749999962
  0
CIRCLE
  5
953
100
AcDbEntity
  8
IMPORT_IGES
100
AcDbCircle
 62
7
  6
CONTINUOUS
 10
-7.3843721735
 20
-1.0000000074
 40
0.6749999962
  0
CIRCLE
  5
954
100
AcDbEntity
  8
RACCORDO
100
AcDbCircle
 62
250
  6
CONTINUOUS
 10
-23.8843721659
 20
50.2
 40
1.7657857225
  0
CIRCLE
  5
955
100
AcDbEntity
  8
RACCORDO
100
AcDbCircle
 62
250
  6
CONTINUOUS
 10
-23.8843721659
 20
50.2
 40
1.2658618749
  0
CIRCLE
  5
956
100
AcDbEntity
  8
DRAFT
100
AcDbCircle
 62
7
  6
CONTINUOUS
 10
-1.8843721659
 20
61.3
 40
1.25
  0
CIRCLE
  5
957
100
AcDbEntity
  8
DRAFT
100
AcDbCircle
 62
7
  6
CONTINUOUS
 10
-5.8843721659
 20
61.3
 40
1.25
  0
CIRCLE
  5
958
100
AcDbEntity
  8
DRAFT
100
AcDbCircle
 62
7
  6
CONTINUOUS
 10
-23.8843721659
 20
50.2
 40
1.25
  0
ARC
  5
959
100
AcDbEntity
  8
RACCORDO
100
AcDbCircle
 62
7
  6
CONTINUOUS
 10
-3.8843721659
 20
56.1
 40
0.4
100
AcDbArc
 50
0.0
 51
180.0
  0
ARC
  5
95A
100
AcDbEntity
  8
RACCORDO
100
AcDbCircle
 62
7
  6
CONTINUOUS
 10
-42.2502977747
 20
49.5
 40
0.4
100
AcDbArc
 50
270.0
 51
90.0
  0
ARC
  5
95B
100
AcDbEntity
  8
RACCORDO
100
AcDbCircle
 62
7
  6
CONTINUOUS
 10
-32.3843721659
 20
67.8659256088
 40
0.4
100
AcDbArc
 50
180.0
 51
360.0
  0
ARC
  5
95C
100
AcDbEntity
  8
RACCORDO
100
AcDbCircle
 62
250
  6
CONTINUOUS
 10
-38.2093148966
 20
10.4750572693
 40
0.3996677001
100
AcDbArc
 50
359.987406865
 51
90.0125931316
  0
ARC
  5
95D
100
AcDbEntity
  8
RACCORDO
100
AcDbCircle
 62
250
  6
CONTINUOUS
 10
-38.2093082103
 20
8.5249360444
 40
0.3996594759
100
AcDbArc
 50
269.9864481092
 51
0.0135518899
  0
ARC
  5
95E
100
AcDbEntity
  8
RACCORDO
100
AcDbCircle
 62
250
  6
CONTINUOUS
 10
-42.2502977747
 20
49.5
 40
0.3680067702
100
AcDbArc
 50
270.0
 51
90.0
  0
ARC
  5
95F
100
AcDbEntity
  8
RACCORDO
100
AcDbCircle
 62
250
  6
CONTINUOUS
 10
-32.3843721659
 20
67.8659256088
 40
0.3680067702
100
AcDbArc
 50
180.0
 51
360.0
  0
ARC
  5
960
100
AcDbEntity
  8
RACCORDO
100
AcDbCircle
 62
250
  6
CONTINUOUS
 10
-38.2090267251
 20
8.5246545611
 40
0.1995011171
100
AcDbArc
 50
269.8920054526
 51
0.1079934733
  0
ARC
  5
961
100
AcDbEntity
  8
RACCORDO
100
AcDbCircle
 62
250
  6
CONTINUOUS
 10
-38.2090267271
 20
10.4753454406
 40
0.1995011172
100
AcDbArc
 50
359.8920054806
 51
90.1079934454
  0
ARC
  5
962
100
AcDbEntity
  8
RACCORDO
100
AcDbCircle
 62
250
  6
CONTINUOUS
 10
-32.3843721659
 20
67.8659265446
 40
0.1682810447
100
AcDbArc
 50
180.000318595
 51
359.999681405
  0
ARC
  5
963
100
AcDbEntity
  8
RACCORDO
100
AcDbCircle
 62
250
  6
CONTINUOUS
 10
-42.2502983436
 20
49.5
 40
0.1682808632
100
AcDbArc
 50
270.0001936911
 51
89.9998063088
  0
ARC
  5
964
100
AcDbEntity
  8
DRAFT
100
AcDbCircle
 62
7
  6
CONTINUOUS
 10
0.1156278341
 20
-48.8985611387
 40
19.3826182377
100
AcDbArc
 50
91.0346699581
 51
101.1604763578
  0
ARC
  5
965
100
AcDbEntity
  8
DRAFT
100
AcDbCircle
 62
7
  6
CONTINUOUS
 10
0.1156278341
 20
-48.8985611387
 40
19.3826182377
100
AcDbArc
 50
78.8395236422
 51
88.9653300419
  0
ARC
  5
966
100
AcDbEntity
  8
DRAFT
100
AcDbCircle
 62
7
  6
CONTINUOUS
 10
0.1156278341
 20
-48.8985611387
 40
18.5826182377
100
AcDbArc
 50
91.0792186777
 51
101.1604763578
  0
ARC
  5
967
100
AcDbEntity
  8
DRAFT
100
AcDbCircle
 62
7
  6
CONTINUOUS
 10
0.1156278341
 20
-48.8985611387
 40
18.5826182377
100
AcDbArc
 50
78.8395236422
 51
88.9207813223
  0
ARC
  5
968
100
AcDbEntity
  8
IMPORT_IGES
100
AcDbCircle
 62
7
  6
CONTINUOUS
 10
0.1156178303
 20
-34.3000000062
 40
6.5000000048
100
AcDbArc
 50
3.9120637466
 51
35.9955147111
  0
ARC
  5
969
100
AcDbEntity
  8
IMPORT_IGES
100
AcDbCircle
 62
7
  6
CONTINUOUS
 10
0.1156178303
 20
-34.3000000062
 40
6.5000000048
100
AcDbArc
 50
144.0068070262
 51
176.107182274
  0
ARC
  5
96A
100
AcDbEntity
  8
IMPORT_IGES
100
AcDbCircle
 62
7
  6
CONTINUOUS
 10
0.1156178303
 20
-34.3000000062
 40
6.5000000048
100
AcDbArc
 50
180.0
 51
212.001249039
  0
ARC
  5
96B
100
AcDbEntity
  8
IMPORT_IGES
100
AcDbCircle
 62
7
  6
CONTINUOUS
 10
0.1156178303
 20
-34.3000000062
 40
6.5000000048
100
AcDbArc
 50
231.4533892453
 51
239.9962050745
  0
ARC
  5
96C
100
AcDbEntity
  8
IMPORT_IGES
100
AcDbCircle
 62
7
  6
CONTINUOUS
 10
0.1156178303
 20
-34.3000000062
 40
6.5000000048
100
AcDbArc
 50
300.0055881026
 51
308.5453379121
  0
ARC
  5
96D
100
AcDbEntity
  8
IMPORT_IGES
100
AcDbCircle
 62
7
  6
CONTINUOUS
 10
0.1156178303
 20
-34.3000000062
 40
6.5000000048
100
AcDbArc
 50
327.9974026995
 51
360.0
  0
ARC
  5
96E
100
AcDbEntity
  8
RACCORDO
100
AcDbCircle
 62
7
  6
CONTINUOUS
 10
3.0156278341
 20
-34.1992805693
 40
4.4
100
AcDbArc
 50
287.059302614
 51
78.8395236422
  0
ARC
  5
96F
100
AcDbEntity
  8
RACCORDO
100
AcDbCircle
 62
7
  6
CONTINUOUS
 10
3.0156278341
 20
-34.1992805693
 40
3.6
100
AcDbArc
 50
289.6372768312
 51
78.8395236422
  0
ARC
  5
970
100
AcDbEntity
  8
DRAFT
100
AcDbCircle
 62
7
  6
CONTINUOUS
 10
3.0156278341
 20
-34.1992805693
 40
1.75
100
AcDbArc
 50
273.9782618376
 51
93.9782618376
  0
ARC
  5
971
100
AcDbEntity
  8
RACCORDO
100
AcDbCircle
 62
7
  6
CONTINUOUS
 10
4.6596098821
 20
-38.808877502
 40
1.2939652833
100
AcDbArc
 50
109.6038452164
 51
180.0334316065
  0
ARC
  5
972
100
AcDbEntity
  8
RACCORDO
100
AcDbCircle
 62
7
  6
CONTINUOUS
 10
3.7656278341
 20
-43.7992805693
 40
0.4
100
AcDbArc
 50
180.0
 51
360.0
  0
ARC
  5
973
100
AcDbEntity
  8
RACCORDO
100
AcDbCircle
 62
250
  6
CONTINUOUS
 10
0.6831613391
 20
-55.4334591136
 40
0.3992507659
100
AcDbArc
 50
89.9714172889
 51
180.0285827388
  0
ARC
  5
974
100
AcDbEntity
  8
DRAFT
100
AcDbCircle
 62
7
  6
CONTINUOUS
 10
0.1156278341
 20
-15.5
 40
34.4
100
AcDbArc
 50
175.2198081528
 51
179.4170386968
  0
ARC
  5
975
100
AcDbEntity
  8
DRAFT
100
AcDbCircle
 62
7
  6
CONTINUOUS
 10
0.1156278341
 20
-15.5
 40
34.4
100
AcDbArc
 50
180.5829613032
 51
184.7801918472
  0
ARC
  5
976
100
AcDbEntity
  8
DRAFT
100
AcDbCircle
 62
7
  6
CONTINUOUS
 10
0.1156278341
 20
-15.5
 40
33.6
100
AcDbArc
 50
175.2198081528
 51
179.4031581695
  0
ARC
  5
977
100
AcDbEntity
  8
DRAFT
100
AcDbCircle
 62
7
  6
CONTINUOUS
 10
0.1156278341
 20
-15.5
 40
33.6
100
AcDbArc
 50
180.5968418305
 51
184.7801918472
  0
ARC
  5
978
100
AcDbEntity
  8
DRAFT
100
AcDbCircle
 62
7
  6
CONTINUOUS
 10
0.1156278341
 20
-15.5
 40
31.75
100
AcDbArc
 50
175.2198081528
 51
184.7801918472
  0
ARC
  5
979
100
AcDbEntity
  8
DRAFT
100
AcDbCircle
 62
7
  6
CONTINUOUS
 10
0.1156278341
 20
-15.5
 40
28.25
100
AcDbArc
 50
175.2198081528
 51
184.7801918472
  0
CIRCLE
  5
97A
100
AcDbEntity
  8
DRAFT
100
AcDbCircle
 62
7
  6
CONTINUOUS
 10
7.6156278341
 20
-1.0
 40
1.5
  0
CIRCLE
  5
97B
100
AcDbEntity
  8
DRAFT
100
AcDbCircle
 62
7
  6
CONTINUOUS
 10
2.6156278341
 20
-1.0
 40
1.5
  0
CIRCLE
  5
97C
100
AcDbEntity
  8
IMPORT_IGES
100
AcDbCircle
 62
7
  6
CONTINUOUS
 10
7.6156278239
 20
-1.0000000074
 40
0.6749999962
  0
CIRCLE
  5
97D
100
AcDbEntity
  8
IMPORT_IGES
100
AcDbCircle
 62
7
  6
CONTINUOUS
 10
2.6156278417
 20
-1.0000000074
 40
0.6749999962
  0
CIRCLE
  5
97E
100
AcDbEntity
  8
DRAFT
100
AcDbCircle
 62
7
  6
CONTINUOUS
 10
17.6156278341
 20
-1.0
 40
1.5
  0
CIRCLE
  5
97F
100
AcDbEntity
  8
DRAFT
100
AcDbCircle
 62
7
  6
CONTINUOUS
 10
12.6156278341
 20
-1.0
 40
1.5
  0
CIRCLE
  5
980
100
AcDbEntity
  8
IMPORT_IGES
100
AcDbCircle
 62
7
  6
CONTINUOUS
 10
17.6156278391
 20
-1.0000000074
 40
0.6749999962
  0
CIRCLE
  5
981
100
AcDbEntity
  8
IMPORT_IGES
100
AcDbCircle
 62
7
  6
CONTINUOUS
 10
12.6156278315
 20
-1.0000000074
 40
0.6749999962
  0
CIRCLE
  5
982
100
AcDbEntity
  8
RACCORDO
100
AcDbCircle
 62
250
  6
CONTINUOUS
 10
33.1156278341
 20
-37.7
 40
1.7657857225
  0
CIRCLE
  5
983
100
AcDbEntity
  8
RACCORDO
100
AcDbCircle
 62
250
  6
CONTINUOUS
 10
33.1156278341
 20
-37.7
 40
1.2658618749
  0
CIRCLE
  5
984
100
AcDbEntity
  8
DRAFT
100
AcDbCircle
 62
7
  6
CONTINUOUS
 10
33.1156278341
 20
-37.7
 40
1.25
  0
CIRCLE
  5
985
100
AcDbEntity
  8
DRAFT
100
AcDbCircle
 62
7
  6
CONTINUOUS
 10
35.1156278341
 20
-44.0
 40
0.9389072728
  0
CIRCLE
  5
986
100
AcDbEntity
  8
0
100
AcDbCircle
 62
7
  6
CONTINUOUS
 10
35.1156278341
 20
-44.0
 40
0.815
  0
ARC
  5
987
100
AcDbEntity
  8
0
100
AcDbCircle
 62
7
  6
CONTINUOUS
 10
35.0803304268
 20
-43.826026831
 40
0.807917544
100
AcDbArc
 50
192.0098470901
 51
192.5911466495
  0
ARC
  5
988
100
AcDbEntity
  8
0
100
AcDbCircle
 62
7
  6
CONTINUOUS
 10
35.0729135522
 20
-43.8277366065
 40
0.8003063254
100
AcDbArc
 50
192.5874357664
 51
195.492341722
  0
CIRCLE
  5
989
100
AcDbEntity
  8
0
100
AcDbCircle
 62
7
  6
CONTINUOUS
 10
35.1156278341
 20
-44.0
 40
0.665
  0
ARC
  5
98A
100
AcDbEntity
  8
RACCORDO
100
AcDbCircle
 62
7
  6
CONTINUOUS
 10
42.481553443
 20
-50.5
 40
0.4
100
AcDbArc
 50
90.0
 51
270.0
  0
ARC
  5
98B
100
AcDbEntity
  8
RACCORDO
100
AcDbCircle
 62
7
  6
CONTINUOUS
 10
32.6156278341
 20
-67.8659256088
 40
0.4
100
AcDbArc
 50
0.0
 51
180.0
  0
ARC
  5
98C
100
AcDbEntity
  8
RACCORDO
100
AcDbCircle
 62
250
  6
CONTINUOUS
 10
42.481553443
 20
-50.5
 40
0.3680067702
100
AcDbArc
 50
90.0
 51
270.0
  0
ARC
  5
98D
100
AcDbEntity
  8
RACCORDO
100
AcDbCircle
 62
250
  6
CONTINUOUS
 10
32.6156278341
 20
-67.8659256088
 40
0.3680067702
100
AcDbArc
 50
0.0
 51
180.0
  0
ARC
  5
98E
100
AcDbEntity
  8
RACCORDO
100
AcDbCircle
 62
250
  6
CONTINUOUS
 10
42.4815544322
 20
-50.5
 40
0.1682810586
100
AcDbArc
 50
90.0003368232
 51
269.9996631769
  0
ARC
  5
98F
100
AcDbEntity
  8
RACCORDO
100
AcDbCircle
 62
250
  6
CONTINUOUS
 10
32.6156278341
 20
-67.8659261777
 40
0.1682808632
100
AcDbArc
 50
0.0001936912
 51
179.9998063088
  0
ARC
  5
990
100
AcDbEntity
  8
IMPORT_IGES
100
AcDbCircle
 62
7
  6
CONTINUOUS
 10
30.1156178251
 20
-15.4999999888
 40
6.5000000048
100
AcDbArc
 50
137.3838978902
 51
146.3472071285
  0
ARC
  5
991
100
AcDbEntity
  8
IMPORT_IGES
100
AcDbCircle
 62
7
  6
CONTINUOUS
 10
30.1156178251
 20
-15.4999999888
 40
6.5000000048
100
AcDbArc
 50
213.6485473321
 51
222.6089273254
  0
ARC
  5
992
100
AcDbEntity
  8
DRAFT
100
AcDbCircle
 62
7
  6
CONTINUOUS
 10
30.1156278341
 20
-15.5
 40
4.4
100
AcDbArc
 50
4.5624389353
 51
90.0
  0
ARC
  5
993
100
AcDbEntity
  8
DRAFT
100
AcDbCircle
 62
7
  6
CONTINUOUS
 10
30.1156278341
 20
-15.5
 40
4.4
100
AcDbArc
 50
270.0
 51
355.4375610647
  0
ARC
  5
994
100
AcDbEntity
  8
DRAFT
100
AcDbCircle
 62
7
  6
CONTINUOUS
 10
30.1156278341
 20
-15.5
 40
3.6
100
AcDbArc
 50
5.5792359676
 51
90.0
  0
ARC
  5
995
100
AcDbEntity
  8
DRAFT
100
AcDbCircle
 62
7
  6
CONTINUOUS
 10
30.1156278341
 20
-15.5
 40
3.6
100
AcDbArc
 50
270.0
 51
354.4207640324
  0
ARC
  5
996
100
AcDbEntity
  8
ASSI
100
AcDbCircle
 62
250
  6
CONTINUOUS
 10
34.9156278341
 20
-12.6
 40
2.2297193088
100
AcDbArc
 50
231.3246227144
 51
258.0976774564
  0
ARC
  5
997
100
AcDbEntity
  8
ASSI
100
AcDbCircle
 62
250
  6
CONTINUOUS
 10
34.9156278341
 20
-12.6
 40
2.2297193088
100
AcDbArc
 50
180.0
 51
190.9657178977
  0
ARC
  5
998
100
AcDbEntity
  8
RACCORDO
100
AcDbCircle
 62
250
  6
CONTINUOUS
 10
34.9156278341
 20
-12.6
 40
2.2297193088
100
AcDbArc
 50
231.3246227144
 51
258.0976774564
  0
ARC
  5
999
100
AcDbEntity
  8
RACCORDO
100
AcDbCircle
 62
250
  6
CONTINUOUS
 10
34.9156278341
 20
-12.6
 40
2.2297193088
100
AcDbArc
 50
180.0
 51
190.9657178977
  0
ARC
  5
99A
100
AcDbEntity
  8
ASSI
100
AcDbCircle
 62
250
  6
CONTINUOUS
 10
34.9156278341
 20
-12.6
 40
1.9297650002
100
AcDbArc
 50
180.0
 51
254.1509632734
  0
ARC
  5
99B
100
AcDbEntity
  8
RACCORDO
100
AcDbCircle
 62
250
  6
CONTINUOUS
 10
34.9156278341
 20
-12.6
 40
1.9297650002
100
AcDbArc
 50
180.0
 51
254.1509632734
  0
ARC
  5
99C
100
AcDbEntity
  8
ASSI
100
AcDbCircle
 62
7
  6
CONTINUOUS
 10
34.9156278341
 20
-12.6
 40
1.9
100
AcDbArc
 50
180.0
 51
253.6469530956
  0
ARC
  5
99D
100
AcDbEntity
  8
DRAFT
100
AcDbCircle
 62
7
  6
CONTINUOUS
 10
34.9156278341
 20
-12.6
 40
1.9
100
AcDbArc
 50
180.0
 51
253.6469530956
  0
CIRCLE
  5
99E
100
AcDbEntity
  8
DRAFT
100
AcDbCircle
 62
7
  6
CONTINUOUS
 10
30.1156278341
 20
-15.5
 40
1.75
  0
ARC
  5
99F
100
AcDbEntity
  8
ASSI
100
AcDbCircle
 62
7
  6
CONTINUOUS
 10
30.7156278341
 20
-13.5
 40
1.15
100
AcDbArc
 50
196.3661091853
 51
310.2340263952
  0
ARC
  5
9A0
100
AcDbEntity
  8
DRAFT
100
AcDbCircle
 62
7
  6
CONTINUOUS
 10
30.7156278341
 20
-13.5
 40
1.15
100
AcDbArc
 50
196.3661091853
 51
310.2340263952
  0
ARC
  5
9A1
100
AcDbEntity
  8
ASSI
100
AcDbCircle
 62
7
  6
CONTINUOUS
 10
30.7156278341
 20
-13.5
 40
1.0450136038
100
AcDbArc
 50
196.5078338976
 51
310.1010921215
  0
ARC
  5
9A2
100
AcDbEntity
  8
DRAFT
100
AcDbCircle
 62
7
  6
CONTINUOUS
 10
30.7156278341
 20
-13.5
 40
1.0450136038
100
AcDbArc
 50
196.5078338976
 51
310.1010921215
  0
ARC
  5
9A3
100
AcDbEntity
  8
ASSI
100
AcDbCircle
 62
7
  6
CONTINUOUS
 10
30.7156278341
 20
-13.5
 40
0.8069814942
100
AcDbArc
 50
198.6891214689
 51
307.9207308401
  0
ARC
  5
9A4
100
AcDbEntity
  8
DRAFT
100
AcDbCircle
 62
7
  6
CONTINUOUS
 10
30.7156278341
 20
-13.5
 40
0.8069814942
100
AcDbArc
 50
198.6891214689
 51
307.9207308401
  0
ARC
  5
9A5
100
AcDbEntity
  8
ASSI
100
AcDbCircle
 62
7
  6
CONTINUOUS
 10
30.7156278341
 20
-13.5
 40
0.8
100
AcDbArc
 50
198.8106194956
 51
307.7971244873
  0
ARC
  5
9A6
100
AcDbEntity
  8
DRAFT
100
AcDbCircle
 62
7
  6
CONTINUOUS
 10
30.7156278341
 20
-13.5
 40
0.8
100
AcDbArc
 50
198.8106194956
 51
307.7971244873
  0
ARC
  5
9A7
100
AcDbEntity
  8
RACCORDO
100
AcDbCircle
 62
7
  6
CONTINUOUS
 10
30.7156278341
 20
-13.5
 40
0.75
100
AcDbArc
 50
199.7612542014
 51
306.8426669744
  0
ARC
  5
9A8
100
AcDbEntity
  8
ASSI
100
AcDbCircle
 62
7
  6
CONTINUOUS
 10
30.7156278341
 20
-13.5
 40
0.75
100
AcDbArc
 50
199.7612542014
 51
306.8426669744
  0
ARC
  5
9A9
100
AcDbEntity
  8
RACCORDO
100
AcDbCircle
 62
250
  6
CONTINUOUS
 10
30.7156278341
 20
-13.5
 40
0.55
100
AcDbArc
 50
207.5419850147
 51
299.098293338
  0
ARC
  5
9AA
100
AcDbEntity
  8
ASSI
100
AcDbCircle
 62
250
  6
CONTINUOUS
 10
30.7156278341
 20
-13.5
 40
0.55
100
AcDbArc
 50
207.5419850147
 51
299.098293338
  0
ARC
  5
9AB
100
AcDbEntity
  8
RACCORDO
100
AcDbCircle
 62
7
  6
CONTINUOUS
 10
22.0156278341
 20
-19.5
 40
0.4
100
AcDbArc
 50
90.0
 51
270.0
  0
ARC
  5
9AC
100
AcDbEntity
  8
RACCORDO
100
AcDbCircle
 62
7
  6
CONTINUOUS
 10
22.0156278341
 20
-11.5
 40
0.4
100
AcDbArc
 50
90.0
 51
270.0
  0
ARC
  5
9AD
100
AcDbEntity
  8
RACCORDO
100
AcDbCircle
 62
7
  6
CONTINUOUS
 10
42.481553443
 20
-0.5
 40
0.4
100
AcDbArc
 50
90.0
 51
270.0
  0
ARC
  5
9AE
100
AcDbEntity
  8
RACCORDO
100
AcDbCircle
 62
250
  6
CONTINUOUS
 10
42.481553443
 20
-0.5
 40
0.3680067702
100
AcDbArc
 50
90.0
 51
270.0
  0
ARC
  5
9AF
100
AcDbEntity
  8
RACCORDO
100
AcDbCircle
 62
250
  6
CONTINUOUS
 10
42.4815544322
 20
-0.5
 40
0.1682810586
100
AcDbArc
 50
90.0003368231
 51
269.9996631769
  0
ARC
  5
9B0
100
AcDbEntity
  8
DRAFT
100
AcDbCircle
 62
7
  6
CONTINUOUS
 10
0.1156278341
 20
7.5
 40
43.55
100
AcDbArc
 50
266.0217381624
 51
273.9782618376
  0
ARC
  5
9B1
100
AcDbEntity
  8
DRAFT
100
AcDbCircle
 62
7
  6
CONTINUOUS
 10
0.1156278341
 20
7.5
 40
40.05
100
AcDbArc
 50
266.0217381624
 51
273.9782618376
  0
CIRCLE
  5
9B2
100
AcDbEntity
  8
ASSI
100
AcDbCircle
 62
7
  6
CONTINUOUS
 10
0.1156278341
 20
9.5
 40
3.4
  0
ARC
  5
9B3
100
AcDbEntity
  8
IMPORT_IGES
100
AcDbCircle
 62
7
  6
CONTINUOUS
 10
0.1156178303
 20
49.300000002
 40
6.5000000048
100
AcDbArc
 50
47.3875630514
 51
56.3494098918
  0
ARC
  5
9B4
100
AcDbEntity
  8
IMPORT_IGES
100
AcDbCircle
 62
7
  6
CONTINUOUS
 10
0.1156178303
 20
49.300000002
 40
6.5000000048
100
AcDbArc
 50
123.6440389209
 51
132.6050595133
  0
ARC
  5
9B5
100
AcDbEntity
  8
DRAFT
100
AcDbCircle
 62
7
  6
CONTINUOUS
 10
0.1156278341
 20
49.3
 40
4.4
100
AcDbArc
 50
274.5624389353
 51
360.0
  0
ARC
  5
9B6
100
AcDbEntity
  8
DRAFT
100
AcDbCircle
 62
7
  6
CONTINUOUS
 10
0.1156278341
 20
49.3
 40
4.4
100
AcDbArc
 50
180.0
 51
265.4375610647
  0
ARC
  5
9B7
100
AcDbEntity
  8
DRAFT
100
AcDbCircle
 62
7
  6
CONTINUOUS
 10
0.1156278341
 20
49.3
 40
3.6
100
AcDbArc
 50
275.5792359676
 51
360.0
  0
ARC
  5
9B8
100
AcDbEntity
  8
DRAFT
100
AcDbCircle
 62
7
  6
CONTINUOUS
 10
0.1156278341
 20
49.3
 40
3.6
100
AcDbArc
 50
180.0
 51
264.4207640324
  0
CIRCLE
  5
9B9
100
AcDbEntity
  8
DRAFT
100
AcDbCircle
 62
7
  6
CONTINUOUS
 10
0.1156278341
 20
49.3
 40
1.75
  0
CIRCLE
  5
9BA
100
AcDbEntity
  8
DRAFT
100
AcDbCircle
 62
7
  6
CONTINUOUS
 10
6.1156278341
 20
61.3
 40
1.25
  0
CIRCLE
  5
9BB
100
AcDbEntity
  8
DRAFT
100
AcDbCircle
 62
7
  6
CONTINUOUS
 10
2.1156278341
 20
61.3
 40
1.25
  0
ARC
  5
9BC
100
AcDbEntity
  8
RACCORDO
100
AcDbCircle
 62
7
  6
CONTINUOUS
 10
4.1156278341
 20
56.1
 40
0.4
100
AcDbArc
 50
0.0
 51
180.0
  0
ARC
  5
9BD
100
AcDbEntity
  8
RACCORDO
100
AcDbCircle
 62
7
  6
CONTINUOUS
 10
0.1156278341
 20
68.0659256088
 40
0.4
100
AcDbArc
 50
180.0
 51
360.0
  0
ARC
  5
9BE
100
AcDbEntity
  8
RACCORDO
100
AcDbCircle
 62
250
  6
CONTINUOUS
 10
0.1156278341
 20
68.0659256088
 40
0.3680067702
100
AcDbArc
 50
180.0
 51
360.0
  0
ARC
  5
9BF
100
AcDbEntity
  8
RACCORDO
100
AcDbCircle
 62
250
  6
CONTINUOUS
 10
0.1156278341
 20
68.0659265446
 40
0.1682810447
100
AcDbArc
 50
180.0003185965
 51
359.9996814035
  0
CIRCLE
  5
9C0
100
AcDbEntity
  8
DRAFT
100
AcDbCircle
 62
7
  6
CONTINUOUS
 10
35.1156278341
 20
11.5
 40
0.9389072728
  0
CIRCLE
  5
9C1
100
AcDbEntity
  8
0
100
AcDbCircle
 62
7
  6
CONTINUOUS
 10
35.1156278341
 20
11.5
 40
0.815
  0
ARC
  5
9C2
100
AcDbEntity
  8
0
100
AcDbCircle
 62
7
  6
CONTINUOUS
 10
35.0803304267
 20
11.6739731689
 40
0.8079175439
100
AcDbArc
 50
192.0098470901
 51
192.5911466496
  0
ARC
  5
9C3
100
AcDbEntity
  8
0
100
AcDbCircle
 62
7
  6
CONTINUOUS
 10
35.0729135522
 20
11.6722633935
 40
0.8003063254
100
AcDbArc
 50
192.5874357664
 51
195.4923417219
  0
CIRCLE
  5
9C4
100
AcDbEntity
  8
0
100
AcDbCircle
 62
7
  6
CONTINUOUS
 10
35.1156278341
 20
11.5
 40
0.665
  0
CIRCLE
  5
9C5
100
AcDbEntity
  8
RACCORDO
100
AcDbCircle
 62
250
  6
CONTINUOUS
 10
24.1156278341
 20
50.2
 40
1.7657857225
  0
CIRCLE
  5
9C6
100
AcDbEntity
  8
RACCORDO
100
AcDbCircle
 62
250
  6
CONTINUOUS
 10
24.1156278341
 20
50.2
 40
1.2658618749
  0
CIRCLE
  5
9C7
100
AcDbEntity
  8
DRAFT
100
AcDbCircle
 62
7
  6
CONTINUOUS
 10
24.1156278341
 20
50.2
 40
1.25
  0
ARC
  5
9C8
100
AcDbEntity
  8
RACCORDO
100
AcDbCircle
 62
7
  6
CONTINUOUS
 10
42.481553443
 20
49.5
 40
0.4
100
AcDbArc
 50
90.0
 51
270.0
  0
ARC
  5
9C9
100
AcDbEntity
  8
RACCORDO
100
AcDbCircle
 62
7
  6
CONTINUOUS
 10
32.6156278341
 20
67.8659256088
 40
0.4
100
AcDbArc
 50
180.0
 51
360.0
  0
ARC
  5
9CA
100
AcDbEntity
  8
RACCORDO
100
AcDbCircle
 62
250
  6
CONTINUOUS
 10
42.481553443
 20
49.5
 40
0.3680067702
100
AcDbArc
 50
90.0
 51
270.0
  0
ARC
  5
9CB
100
AcDbEntity
  8
RACCORDO
100
AcDbCircle
 62
250
  6
CONTINUOUS
 10
32.6156278341
 20
67.8659256088
 40
0.3680067702
100
AcDbArc
 50
180.0
 51
360.0
  0
ARC
  5
9CC
100
AcDbEntity
  8
RACCORDO
100
AcDbCircle
 62
250
  6
CONTINUOUS
 10
42.4815544322
 20
49.5
 40
0.1682810586
100
AcDbArc
 50
90.0003368231
 51
269.9996631769
  0
ARC
  5
9CD
100
AcDbEntity
  8
RACCORDO
100
AcDbCircle
 62
250
  6
CONTINUOUS
 10
32.6156278341
 20
67.8659265446
 40
0.1682810447
100
AcDbArc
 50
180.0003185964
 51
359.9996814036
  0
SPLINE
  5
9CE
100
AcDbEntity
  8
0
100
AcDbSpline
 62
7
  6
CONTINUOUS
 70
0
 71
3
 72
11
 73
7
 74
0
 42
0.0000001
 43
0.0000001
 44
0.0000000001
 40
0.0
 40
0.0
 40
0.0
 40
0.0
 40
0.250226624
 40
0.5003092672
 40
0.7502026323
 40
1.0
 40
1.0
 40
1.0
 40
1.0
 10
34.3576506211
 20
-43.4455859919
 30
0.0
 10
34.3376777812
 20
-43.4879857785
 30
0.0
 10
34.3041465959
 20
-43.575961481
 30
0.0
 10
34.2751653647
 20
-43.7140482651
 30
0.0
 10
34.2688131395
 20
-43.8549514962
 30
0.0
 10
34.28036093
 20
-43.9483741796
 30
0.0
 10
34.2900967002
 20
-43.994138149
 30
0.0
  0
SPLINE
  5
9CF
100
AcDbEntity
  8
0
100
AcDbSpline
 62
7
  6
CONTINUOUS
 70
0
 71
3
 72
11
 73
7
 74
0
 42
0.0000001
 43
0.0000001
 44
0.0000000001
 40
0.0
 40
0.0
 40
0.0
 40
0.0
 40
0.250226624
 40
0.5003092672
 40
0.7502026323
 40
1.0
 40
1.0
 40
1.0
 40
1.0
 10
34.3576506211
 20
12.0544140081
 30
0.0
 10
34.3376777812
 20
12.0120142215
 30
0.0
 10
34.3041465959
 20
11.924038519
 30
0.0
 10
34.2751653647
 20
11.7859517349
 30
0.0
 10
34.2688131395
 20
11.6450485038
 30
0.0
 10
34.28036093
 20
11.5516258204
 30
0.0
 10
34.2900967002
 20
11.505861851
 30
0.0
  0
SPLINE
  5
9D0
100
AcDbEntity
  8
RACCORDO
100
AcDbSpline
 62
7
  6
CONTINUOUS
 70
0
 71
3
 72
18
 73
14
 74
0
 42
0.0000001
 43
0.0000001
 44
0.0000000001
 40
0.0
 40
0.0
 40
0.0
 40
0.0
 40
0.0051728664
 40
0.0197778162
 40
0.0436998111
 40
0.0766982004
 40
0.1185178029
 40
0.1688813051
 40
0.2931420429
 40
0.4445884864
 40
0.6179965981
 40
0.8060322297
 40
1.0
 40
1.0
 40
1.0
 40
1.0
 10
-47.0849538684
 20
27.9999898453
 30
0.0
 10
-47.0852988347
 20
27.9999858332
 30
0.0
 10
-47.0852125226
 20
27.9979850459
 30
0.0
 10
-47.0857351061
 20
27.9957277549
 30
0.0
 10
-47.0858031932
 20
27.9906018273
 30
0.0
 10
-47.0860678053
 20
27.9841756627
 30
0.0
 10
-47.0861989129
 20
27.9757690607
 30
0.0
 10
-47.0863724115
 20
27.9613621794
 30
0.0
 10
-47.086424871
 20
27.9395983464
 30
0.0
 10
-47.0863226356
 20
27.9096530194
 30
0.0
 10
-47.0860332468
 20
27.8754460344
 30
0.0
 10
-47.0855790382
 20
27.8384078858
 30
0.0
 10
-47.0851793965
 20
27.8129341606
 30
0.0
 10
-47.0849538684
 20
27.7999999985
 30
0.0
  0
SPLINE
  5
9D1
100
AcDbEntity
  8
RACCORDO
100
AcDbSpline
 62
7
  6
CONTINUOUS
 70
0
 71
3
 72
18
 73
14
 74
0
 42
0.0000001
 43
0.0000001
 44
0.0000000001
 40
0.0
 40
0.0
 40
0.0
 40
0.0
 40
0.0051728664
 40
0.0197778162
 40
0.0436998111
 40
0.0766982004
 40
0.1185178029
 40
0.1688813051
 40
0.2931420429
 40
0.4445884864
 40
0.6179965981
 40
0.8060322297
 40
1.0
 40
1.0
 40
1.0
 40
1.0
 10
-47.0849538684
 20
61.9999898453
 30
0.0
 10
-47.0852988347
 20
61.9999858332
 30
0.0
 10
-47.0852125226
 20
61.9979850459
 30
0.0
 10
-47.0857351061
 20
61.9957277549
 30
0.0
 10
-47.0858031932
 20
61.9906018273
 30
0.0
 10
-47.0860678053
 20
61.9841756627
 30
0.0
 10
-47.0861989129
 20
61.9757690607
 30
0.0
 10
-47.0863724115
 20
61.9613621794
 30
0.0
 10
-47.086424871
 20
61.9395983464
 30
0.0
 10
-47.0863226356
 20
61.9096530194
 30
0.0
 10
-47.0860332468
 20
61.8754460344
 30
0.0
 10
-47.0855790382
 20
61.8384078858
 30
0.0
 10
-47.0851793965
 20
61.8129341606
 30
0.0
 10
-47.0849538684
 20
61.7999999985
 30
0.0
  0
SPLINE
  5
9D2
100
AcDbEntity
  8
ASSI
100
AcDbSpline
 62
7
  6
CONTINUOUS
 70
0
 71
3
 72
18
 73
14
 74
0
 42
0.0000001
 43
0.0000001
 44
0.0000000001
 40
0.0
 40
0.0
 40
0.0
 40
0.0
 40
0.0051728664
 40
0.0197778162
 40
0.0436998111
 40
0.0766982004
 40
0.1185178029
 40
0.1688813051
 40
0.2931420429
 40
0.4445884864
 40
0.6179965981
 40
0.8060322297
 40
1.0
 40
1.0
 40
1.0
 40
1.0
 10
-47.0849538684
 20
27.9999898453
 30
0.0
 10
-47.0852988347
 20
27.9999858332
 30
0.0
 10
-47.0852125226
 20
27.9979850459
 30
0.0
 10
-47.0857351061
 20
27.9957277549
 30
0.0
 10
-47.0858031932
 20
27.9906018273
 30
0.0
 10
-47.0860678053
 20
27.9841756627
 30
0.0
 10
-47.0861989129
 20
27.9757690607
 30
0.0
 10
-47.0863724115
 20
27.9613621794
 30
0.0
 10
-47.086424871
 20
27.9395983464
 30
0.0
 10
-47.0863226356
 20
27.9096530194
 30
0.0
 10
-47.0860332468
 20
27.8754460344
 30
0.0
 10
-47.0855790382
 20
27.8384078858
 30
0.0
 10
-47.0851793965
 20
27.8129341606
 30
0.0
 10
-47.0849538684
 20
27.7999999985
 30
0.0
  0
SPLINE
  5
9D3
100
AcDbEntity
  8
RACCORDO
100
AcDbSpline
 62
7
  6
CONTINUOUS
 70
0
 71
3
 72
9
 73
5
 74
0
 42
0.0000001
 43
0.0000001
 44
0.0000000001
 40
0.0
 40
0.0
 40
0.0
 40
0.0
 40
0.5000035426
 40
1.0
 40
1.0
 40
1.0
 40
1.0
 10
-3.9343721658
 20
-38.5961604983
 30
0.0
 10
-3.9343721661
 20
-38.5545922758
 30
0.0
 10
-3.9618169522
 20
-38.4691765259
 30
0.0
 10
-4.0354233728
 20
-38.4178820852
 30
0.0
 10
-4.0751620983
 20
-38.4056877482
 30
0.0
  0
SPLINE
  5
9D4
100
AcDbEntity
  8
RACCORDO
100
AcDbSpline
 62
7
  6
CONTINUOUS
 70
0
 71
3
 72
9
 73
5
 74
0
 42
0.0000001
 43
0.0000001
 44
0.0000000001
 40
0.0
 40
0.0
 40
0.0
 40
0.0
 40
0.5000035341
 40
1.0
 40
1.0
 40
1.0
 40
1.0
 10
4.3064177659
 20
-38.4056877484
 30
0.0
 10
4.2666784781
 20
-38.417882258
 30
0.0
 10
4.1930721225
 20
-38.4691772001
 30
0.0
 10
4.1656278343
 20
-38.5545928643
 30
0.0
 10
4.1656278341
 20
-38.5961604984
 30
0.0
  0
SPLINE
  5
9D5
100
AcDbEntity
  8
RACCORDO
100
AcDbSpline
 62
250
  6
CONTINUOUS
 70
0
 71
3
 72
9
 73
5
 74
0
 42
0.0000001
 43
0.0000001
 44
0.0000000001
 40
0.0
 40
0.0
 40
0.0
 40
0.0
 40
0.4999857197
 40
1.0
 40
1.0
 40
1.0
 40
1.0
 10
-28.3800692859
 20
-55.2431843029
 30
0.0
 10
-28.3463880443
 20
-55.1811044123
 30
0.0
 10
-28.243535296
 20
-55.0731353012
 30
0.0
 10
-28.0995869632
 20
-55.034210234
 30
0.0
 10
-28.0289547556
 20
-55.0342064721
 30
0.0
  0
SPLINE
  5
9D6
100
AcDbEntity
  8
RACCORDO
100
AcDbSpline
 62
250
  6
CONTINUOUS
 70
0
 71
3
 72
9
 73
5
 74
0
 42
0.0000001
 43
0.0000001
 44
0.0000000001
 40
0.0
 40
0.0
 40
0.0
 40
0.0
 40
0.5000016838
 40
1.0
 40
1.0
 40
1.0
 40
1.0
 10
-31.8397895762
 20
-55.0342064721
 30
0.0
 10
-31.7691590861
 20
-55.0342104543
 30
0.0
 10
-31.6252101774
 20
-55.0731327585
 30
0.0
 10
-31.5223574512
 20
-55.1811029489
 30
0.0
 10
-31.4886750459
 20
-55.2431843029
 30
0.0
  0
SPLINE
  5
9D7
100
AcDbEntity
  8
0
100
AcDbSpline
 62
250
  6
CONTINUOUS
 70
0
 71
3
 72
15
 73
11
 74
0
 42
0.0000001
 43
0.0000001
 44
0.0000000001
 40
0.0
 40
0.0
 40
0.0
 40
0.0
 40
0.1248270663
 40
0.2497696023
 40
0.3748497326
 40
0.5
 40
0.6251502674
 40
0.7502303977
 40
0.8751729337
 40
1.0
 40
1.0
 40
1.0
 40
1.0
 10
-47.2772901735
 20
-32.4577576439
 30
0.0
 10
-47.3211191574
 20
-32.4384253472
 30
0.0
 10
-47.4036747366
 20
-32.386659599
 30
0.0
 10
-47.4998596823
 20
-32.2771155398
 30
0.0
 10
-47.5610416549
 20
-32.1445480797
 30
0.0
 10
-47.5819887132
 20
-32.0
 30
0.0
 10
-47.5610416549
 20
-31.8554519203
 30
0.0
 10
-47.4998596823
 20
-31.7228844602
 30
0.0
 10
-47.4036747366
 20
-31.613340401
 30
0.0
 10
-47.3211191574
 20
-31.5615746528
 30
0.0
 10
-47.2772901735
 20
-31.5422423561
 30
0.0
  0
SPLINE
  5
9D8
100
AcDbEntity
  8
0
100
AcDbSpline
 62
250
  6
CONTINUOUS
 70
0
 71
3
 72
13
 73
9
 74
0
 42
0.0000001
 43
0.0000001
 44
0.0000000001
 40
0.0
 40
0.0
 40
0.0
 40
0.0
 40
0.1229117949
 40
0.247809763
 40
0.5
 40
0.752190237
 40
0.8770882051
 40
1.0
 40
1.0
 40
1.0
 40
1.0
 10
-47.2614573812
 20
-32.446869881
 30
0.0
 10
-47.3004259563
 20
-32.4261173527
 30
0.0
 10
-47.3733194291
 20
-32.3725593809
 30
0.0
 10
-47.4846442915
 20
-32.22928171
 30
0.0
 10
-47.5458219386
 20
-32.0
 30
0.0
 10
-47.4846442915
 20
-31.77071829
 30
0.0
 10
-47.3733194291
 20
-31.6274406191
 30
0.0
 10
-47.3004259563
 20
-31.5738826473
 30
0.0
 10
-47.2614573812
 20
-31.553130119
 30
0.0
  0
SPLINE
  5
9D9
100
AcDbEntity
  8
0
100
AcDbSpline
 62
250
  6
CONTINUOUS
 70
0
 71
3
 72
15
 73
11
 74
0
 42
0.0000001
 43
0.0000001
 44
0.0000000001
 40
0.0
 40
0.0
 40
0.0
 40
0.0
 40
0.1248270663
 40
0.2497696023
 40
0.3748497326
 40
0.5
 40
0.6251502674
 40
0.7502303977
 40
0.8751729337
 40
1.0
 40
1.0
 40
1.0
 40
1.0
 10
-47.2772901735
 20
-57.5422423561
 30
0.0
 10
-47.3211191574
 20
-57.5615746528
 30
0.0
 10
-47.4036747366
 20
-57.613340401
 30
0.0
 10
-47.4998596823
 20
-57.7228844602
 30
0.0
 10
-47.5610416549
 20
-57.8554519203
 30
0.0
 10
-47.5819887132
 20
-58.0
 30
0.0
 10
-47.5610416549
 20
-58.1445480797
 30
0.0
 10
-47.4998596823
 20
-58.2771155398
 30
0.0
 10
-47.4036747366
 20
-58.386659599
 30
0.0
 10
-47.3211191574
 20
-58.4384253472
 30
0.0
 10
-47.2772901735
 20
-58.4577576439
 30
0.0
  0
SPLINE
  5
9DA
100
AcDbEntity
  8
0
100
AcDbSpline
 62
250
  6
CONTINUOUS
 70
0
 71
3
 72
13
 73
9
 74
0
 42
0.0000001
 43
0.0000001
 44
0.0000000001
 40
0.0
 40
0.0
 40
0.0
 40
0.0
 40
0.1229117949
 40
0.247809763
 40
0.5
 40
0.752190237
 40
0.8770882051
 40
1.0
 40
1.0
 40
1.0
 40
1.0
 10
-47.2614573812
 20
-57.553130119
 30
0.0
 10
-47.3004259563
 20
-57.5738826473
 30
0.0
 10
-47.3733194291
 20
-57.6274406191
 30
0.0
 10
-47.4846442915
 20
-57.77071829
 30
0.0
 10
-47.5458219386
 20
-58.0
 30
0.0
 10
-47.4846442915
 20
-58.22928171
 30
0.0
 10
-47.3733194291
 20
-58.3725593809
 30
0.0
 10
-47.3004259563
 20
-58.4261173527
 30
0.0
 10
-47.2614573812
 20
-58.446869881
 30
0.0
  0
SPLINE
  5
9DB
100
AcDbEntity
  8
0
100
AcDbSpline
 62
250
  6
CONTINUOUS
 70
0
 71
3
 72
15
 73
11
 74
0
 42
0.0000001
 43
0.0000001
 44
0.0000000001
 40
0.0
 40
0.0
 40
0.0
 40
0.0
 40
0.1248270663
 40
0.2497696023
 40
0.3748497326
 40
0.5
 40
0.6251502674
 40
0.7502303977
 40
0.8751729337
 40
1.0
 40
1.0
 40
1.0
 40
1.0
 10
-47.2772901735
 20
-61.4577576439
 30
0.0
 10
-47.3211191574
 20
-61.4384253472
 30
0.0
 10
-47.4036747366
 20
-61.386659599
 30
0.0
 10
-47.4998596823
 20
-61.2771155398
 30
0.0
 10
-47.5610416549
 20
-61.1445480797
 30
0.0
 10
-47.5819887132
 20
-61.0
 30
0.0
 10
-47.5610416549
 20
-60.8554519203
 30
0.0
 10
-47.4998596823
 20
-60.7228844602
 30
0.0
 10
-47.4036747366
 20
-60.613340401
 30
0.0
 10
-47.3211191574
 20
-60.5615746528
 30
0.0
 10
-47.2772901735
 20
-60.5422423561
 30
0.0
  0
SPLINE
  5
9DC
100
AcDbEntity
  8
0
100
AcDbSpline
 62
250
  6
CONTINUOUS
 70
0
 71
3
 72
13
 73
9
 74
0
 42
0.0000001
 43
0.0000001
 44
0.0000000001
 40
0.0
 40
0.0
 40
0.0
 40
0.0
 40
0.1229117949
 40
0.247809763
 40
0.5
 40
0.752190237
 40
0.8770882051
 40
1.0
 40
1.0
 40
1.0
 40
1.0
 10
-47.2614573812
 20
-61.446869881
 30
0.0
 10
-47.3004259563
 20
-61.4261173527
 30
0.0
 10
-47.3733194291
 20
-61.3725593809
 30
0.0
 10
-47.4846442915
 20
-61.22928171
 30
0.0
 10
-47.5458219386
 20
-61.0
 30
0.0
 10
-47.4846442915
 20
-60.77071829
 30
0.0
 10
-47.3733194291
 20
-60.6274406191
 30
0.0
 10
-47.3004259563
 20
-60.5738826473
 30
0.0
 10
-47.2614573812
 20
-60.553130119
 30
0.0
  0
SPLINE
  5
9DD
100
AcDbEntity
  8
RACCORDO
100
AcDbSpline
 62
250
  6
CONTINUOUS
 70
0
 71
3
 72
11
 73
7
 74
0
 42
0.0000001
 43
0.0000001
 44
0.0000000001
 40
0.0
 40
0.0
 40
0.0
 40
0.0
 40
0.2499193987
 40
0.4999824687
 40
0.7500594029
 40
1.0
 40
1.0
 40
1.0
 40
1.0
 10
-0.4521048811
 20
-55.2339324171
 30
0.0
 10
-0.4261091125
 20
-55.2338629486
 30
0.0
 10
-0.3734964459
 20
-55.2440729172
 30
0.0
 10
-0.3069264972
 20
-55.2884738513
 30
0.0
 10
-0.2625213452
 20
-55.355043954
 30
0.0
 10
-0.2523095901
 20
-55.4076603544
 30
0.0
 10
-0.2523789783
 20
-55.4336583282
 30
0.0
  0
SPLINE
  5
9DE
100
AcDbEntity
  8
RACCORDO
100
AcDbSpline
 62
250
  6
CONTINUOUS
 70
0
 71
3
 72
11
 73
7
 74
0
 42
0.0000001
 43
0.0000001
 44
0.0000000001
 40
0.0
 40
0.0
 40
0.0
 40
0.0
 40
0.2499398547
 40
0.5000243494
 40
0.7500632346
 40
1.0
 40
1.0
 40
1.0
 40
1.0
 10
0.4836346447
 20
-55.4336583264
 30
0.0
 10
0.4835652483
 20
-55.4076604306
 30
0.0
 10
0.4937766914
 20
-55.3550431511
 30
0.0
 10
0.5381821004
 20
-55.2884752818
 30
0.0
 10
0.6047507522
 20
-55.2440732741
 30
0.0
 10
0.6573629755
 20
-55.2338630416
 30
0.0
 10
0.68336055
 20
-55.2339324178
 30
0.0
  0
SPLINE
  5
9DF
100
AcDbEntity
  8
0
100
AcDbSpline
 62
7
  6
CONTINUOUS
 70
0
 71
3
 72
9
 73
5
 74
0
 42
0.0000001
 43
0.0000001
 44
0.0000000001
 40
0.0
 40
0.0
 40
0.0
 40
0.0
 40
0.2041292456
 40
1.0
 40
1.0
 40
1.0
 40
1.0
 10
-47.2772901735
 20
-61.4577576439
 30
0.0
 10
-47.2759502538
 20
-61.4577576439
 30
0.0
 10
-47.2693422241
 20
-61.4566052028
 30
0.0
 10
-47.2644310926
 20
-61.4511650923
 30
0.0
 10
-47.2614573812
 20
-61.446869881
 30
0.0
  0
SPLINE
  5
9E0
100
AcDbEntity
  8
0
100
AcDbSpline
 62
7
  6
CONTINUOUS
 70
0
 71
3
 72
9
 73
5
 74
0
 42
0.0000001
 43
0.0000001
 44
0.0000000001
 40
0.0
 40
0.0
 40
0.0
 40
0.0
 40
0.3204021934
 40
1.0
 40
1.0
 40
1.0
 40
1.0
 10
-47.2614573812
 20
-60.553130119
 30
0.0
 10
-47.2626487249
 20
-60.5514093491
 30
0.0
 10
-47.2665657812
 20
-60.5463041823
 30
0.0
 10
-47.2728509109
 20
-60.5422423561
 30
0.0
 10
-47.2772901735
 20
-60.5422423561
 30
0.0
  0
SPLINE
  5
9E1
100
AcDbEntity
  8
0
100
AcDbSpline
 62
7
  6
CONTINUOUS
 70
0
 71
3
 72
9
 73
5
 74
0
 42
0.0000001
 43
0.0000001
 44
0.0000000001
 40
0.0
 40
0.0
 40
0.0
 40
0.0
 40
0.2041292456
 40
1.0
 40
1.0
 40
1.0
 40
1.0
 10
-47.2772901735
 20
-58.4577576439
 30
0.0
 10
-47.2759502538
 20
-58.4577576439
 30
0.0
 10
-47.2693422241
 20
-58.4566052028
 30
0.0
 10
-47.2644310926
 20
-58.4511650923
 30
0.0
 10
-47.2614573812
 20
-58.446869881
 30
0.0
  0
SPLINE
  5
9E2
100
AcDbEntity
  8
0
100
AcDbSpline
 62
7
  6
CONTINUOUS
 70
0
 71
3
 72
9
 73
5
 74
0
 42
0.0000001
 43
0.0000001
 44
0.0000000001
 40
0.0
 40
0.0
 40
0.0
 40
0.0
 40
0.3204021934
 40
1.0
 40
1.0
 40
1.0
 40
1.0
 10
-47.2614573812
 20
-57.553130119
 30
0.0
 10
-47.2626487249
 20
-57.5514093491
 30
0.0
 10
-47.2665657812
 20
-57.5463041823
 30
0.0
 10
-47.2728509109
 20
-57.5422423561
 30
0.0
 10
-47.2772901735
 20
-57.5422423561
 30
0.0
  0
SPLINE
  5
9E3
100
AcDbEntity
  8
0
100
AcDbSpline
 62
7
  6
CONTINUOUS
 70
0
 71
3
 72
9
 73
5
 74
0
 42
0.0000001
 43
0.0000001
 44
0.0000000001
 40
0.0
 40
0.0
 40
0.0
 40
0.0
 40
0.2041292456
 40
1.0
 40
1.0
 40
1.0
 40
1.0
 10
-47.2772901735
 20
-32.4577576439
 30
0.0
 10
-47.2759502538
 20
-32.4577576439
 30
0.0
 10
-47.2693422241
 20
-32.4566052028
 30
0.0
 10
-47.2644310926
 20
-32.4511650923
 30
0.0
 10
-47.2614573812
 20
-32.446869881
 30
0.0
  0
SPLINE
  5
9E4
100
AcDbEntity
  8
0
100
AcDbSpline
 62
7
  6
CONTINUOUS
 70
0
 71
3
 72
9
 73
5
 74
0
 42
0.0000001
 43
0.0000001
 44
0.0000000001
 40
0.0
 40
0.0
 40
0.0
 40
0.0
 40
0.3204021934
 40
1.0
 40
1.0
 40
1.0
 40
1.0
 10
-47.2614573812
 20
-31.553130119
 30
0.0
 10
-47.2626487249
 20
-31.5514093491
 30
0.0
 10
-47.2665657812
 20
-31.5463041823
 30
0.0
 10
-47.2728509109
 20
-31.5422423561
 30
0.0
 10
-47.2772901735
 20
-31.5422423561
 30
0.0
  0
SPLINE
  5
9E5
100
AcDbEntity
  8
RACCORDO
100
AcDbSpline
 62
7
  6
CONTINUOUS
 70
0
 71
3
 72
15
 73
11
 74
0
 42
0.0000001
 43
0.0000001
 44
0.0000000001
 40
0.0
 40
0.0
 40
0.0
 40
0.0
 40
0.1249533401
 40
0.2499631188
 40
0.374975448
 40
0.500000757
 40
0.6250267207
 40
0.7500384915
 40
0.8750468484
 40
1.0
 40
1.0
 40
1.0
 40
1.0
 10
46.6688787167
 20
70.5589588355
 30
0.0
 10
46.6694243417
 20
70.6566253034
 30
0.0
 10
46.6508150806
 20
70.8526723581
 30
0.0
 10
46.5652168062
 20
71.1349135508
 30
0.0
 10
46.4258856955
 20
71.3950110763
 30
0.0
 10
46.2385955547
 20
71.6229710153
 30
0.0
 10
46.0106354033
 20
71.8102602071
 30
0.0
 10
45.7505385064
 20
71.9495902899
 30
0.0
 10
45.4682987582
 20
72.0351873123
 30
0.0
 10
45.2722529902
 20
72.0537965068
 30
0.0
 10
45.1745866696
 20
72.0532508826
 30
0.0
  0
SPLINE
  5
9E6
100
AcDbEntity
  8
RACCORDO
100
AcDbSpline
 62
7
  6
CONTINUOUS
 70
0
 71
3
 72
15
 73
11
 74
0
 42
0.0000001
 43
0.0000001
 44
0.0000000001
 40
0.0
 40
0.0
 40
0.0
 40
0.0
 40
0.1249531745
 40
0.2499615265
 40
0.37497328
 40
0.4999992379
 40
0.6250245457
 40
0.7500368692
 40
0.8750466393
 40
1.0
 40
1.0
 40
1.0
 40
1.0
 10
-46.4376230485
 20
70.5589588355
 30
0.0
 10
-46.4381686728
 20
70.6566251739
 30
0.0
 10
-46.4195594734
 20
70.8526709562
 30
0.0
 10
-46.3339624439
 20
71.134910703
 30
0.0
 10
-46.1946323648
 20
71.3950075765
 30
0.0
 10
-46.0073431869
 20
71.6229677139
 30
0.0
 10
-45.7793832579
 20
71.810257852
 30
0.0
 10
-45.5192857434
 20
71.9495889563
 30
0.0
 10
-45.2370445506
 20
72.0351872472
 30
0.0
 10
-45.0409974853
 20
72.0537965077
 30
0.0
 10
-44.9433310014
 20
72.0532508826
 30
0.0
  0
SPLINE
  5
9E7
100
AcDbEntity
  8
RACCORDO
100
AcDbSpline
 62
7
  6
CONTINUOUS
 70
0
 71
3
 72
15
 73
11
 74
0
 42
0.0000001
 43
0.0000001
 44
0.0000000001
 40
0.0
 40
0.0
 40
0.0
 40
0.0
 40
0.1249533408
 40
0.2499631192
 40
0.3749754482
 40
0.5000007571
 40
0.6250267207
 40
0.7500384908
 40
0.8750468476
 40
1.0
 40
1.0
 40
1.0
 40
1.0
 10
-46.4376230485
 20
-70.5589588355
 30
0.0
 10
-46.4381686735
 20
-70.6566253039
 30
0.0
 10
-46.4195594124
 20
-70.8526723591
 30
0.0
 10
-46.3339611374
 20
-71.1349135518
 30
0.0
 10
-46.1946300269
 20
-71.3950110768
 30
0.0
 10
-46.0073398862
 20
-71.6229710155
 30
0.0
 10
-45.7793797353
 20
-71.8102602068
 30
0.0
 10
-45.5192828393
 20
-71.9495902895
 30
0.0
 10
-45.2370430911
 20
-72.0351873122
 30
0.0
 10
-45.0409973226
 20
-72.0537965068
 30
0.0
 10
-44.9433310014
 20
-72.0532508826
 30
0.0
  0
SPLINE
  5
9E8
100
AcDbEntity
  8
RACCORDO
100
AcDbSpline
 62
7
  6
CONTINUOUS
 70
0
 71
3
 72
13
 73
9
 74
0
 42
0.0000001
 43
0.0000001
 44
0.0000000001
 40
0.0
 40
0.0
 40
0.0
 40
0.0
 40
0.1253198293
 40
0.2505724754
 40
0.5000009253
 40
0.7494292234
 40
0.874680472
 40
1.0
 40
1.0
 40
1.0
 40
1.0
 10
45.1744695321
 20
-72.0531337451
 30
0.0
 10
45.2720657326
 20
-72.053282012
 30
0.0
 10
45.4678423969
 20
-72.0338436145
 30
0.0
 10
45.8420923218
 20
-71.9191773688
 30
0.0
 10
46.2568905763
 20
-71.6412597669
 30
0.0
 10
46.5348065574
 20
-71.2264617093
 30
0.0
 10
46.6494715903
 20
-70.8522129916
 30
0.0
 10
46.6689098458
 20
-70.6564376639
 30
0.0
 10
46.6687615792
 20
-70.558841698
 30
0.0
  0
ELLIPSE
  5
9E9
100
AcDbEntity
  8
ASSI
100
AcDbEllipse
 62
7
  6
CONTINUOUS
 10
-29.9095855064
 20
-72.6497866595
 30
0.0
 11
-0.2477889906
 21
0.2477889906
 31
0.0
 40
0.998782766
 41
2.3568034778
 42
2.8593203269
  0
ELLIPSE
  5
9EA
100
AcDbEntity
  8
ASSI
100
AcDbEllipse
 62
7
  6
CONTINUOUS
 10
-45.9084578494
 20
-71.4990856836
 30
0.0
 11
1.0619528169
 21
1.0619528169
 31
0.0
 40
0.998782766
 41
2.3568034778
 42
3.9263818294
  0
ELLIPSE
  5
9EB
100
AcDbEntity
  8
ASSI
100
AcDbEllipse
 62
7
  6
CONTINUOUS
 10
-47.0591588254
 20
-46.3502133405
 30
0.0
 11
0.2477889906
 21
-0.2477889906
 31
0.0
 40
0.998782766
 41
3.2911598481
 42
3.9263818294
  0
ELLIPSE
  5
9EC
100
AcDbEntity
  8
RACCORDO
100
AcDbEllipse
 62
7
  6
CONTINUOUS
 10
-29.9095855064
 20
-72.6497866595
 30
0.0
 11
-0.2477889906
 21
0.2477889906
 31
0.0
 40
0.998782766
 41
2.3568034778
 42
2.8593203269
  0
ELLIPSE
  5
9ED
100
AcDbEntity
  8
RACCORDO
100
AcDbEllipse
 62
7
  6
CONTINUOUS
 10
-45.9084578494
 20
-71.4990856836
 30
0.0
 11
1.0619528169
 21
1.0619528169
 31
0.0
 40
0.998782766
 41
2.3568034778
 42
3.9263818294
  0
ELLIPSE
  5
9EE
100
AcDbEntity
  8
RACCORDO
100
AcDbEllipse
 62
7
  6
CONTINUOUS
 10
-47.0591588254
 20
-46.3502133405
 30
0.0
 11
0.2477889906
 21
-0.2477889906
 31
0.0
 40
0.998782766
 41
3.2911598481
 42
3.9263818294
  0
ELLIPSE
  5
9EF
100
AcDbEntity
  8
RACCORDO
100
AcDbEllipse
 62
7
  6
CONTINUOUS
 10
47.2904144936
 20
-46.3502133405
 30
0.0
 11
-0.2477889906
 21
-0.2477889906
 31
0.0
 40
0.998782766
 41
2.3568034778
 42
2.9920251926
  0
ELLIPSE
  5
9F0
100
AcDbEntity
  8
RACCORDO
100
AcDbEllipse
 62
7
  6
CONTINUOUS
 10
46.1397135177
 20
-71.4990856836
 30
0.0
 11
-1.0619528169
 21
1.0619528169
 31
0.0
 40
0.998782766
 41
2.3568034778
 42
3.9263818294
  0
ELLIPSE
  5
9F1
100
AcDbEntity
  8
RACCORDO
100
AcDbEllipse
 62
7
  6
CONTINUOUS
 10
30.1408411746
 20
-72.6497866595
 30
0.0
 11
0.2477889906
 21
0.2477889906
 31
0.0
 40
0.998782766
 41
3.4238647482
 42
3.9263818294
  0
ELLIPSE
  5
9F2
100
AcDbEntity
  8
RACCORDO
100
AcDbEllipse
 62
7
  6
CONTINUOUS
 10
-47.0591588254
 20
-17.6497866595
 30
0.0
 11
0.2477889906
 21
0.2477889906
 31
0.0
 40
0.998782766
 41
2.3568034778
 42
2.9920251926
  0
ELLIPSE
  5
9F3
100
AcDbEntity
  8
RACCORDO
100
AcDbEllipse
 62
7
  6
CONTINUOUS
 10
-47.0591588254
 20
8.6497866595
 30
0.0
 11
0.2477889906
 21
-0.2477889906
 31
0.0
 40
0.998782766
 41
3.2911598481
 42
3.9263818294
  0
ELLIPSE
  5
9F4
100
AcDbEntity
  8
RACCORDO
100
AcDbEllipse
 62
7
  6
CONTINUOUS
 10
-34.444271215
 20
-13.789394254
 30
0.0
 11
-0.0101035824
 21
0.350645949
 31
0.0
 40
0.8552089069
 41
-2.4873250068
 42
-1.6044761725
  0
ELLIPSE
  5
9F5
100
AcDbEntity
  8
ASSI
100
AcDbEllipse
 62
7
  6
CONTINUOUS
 10
47.2904144936
 20
-46.3502133405
 30
0.0
 11
-0.2477889906
 21
-0.2477889906
 31
0.0
 40
0.998782766
 41
2.3568034778
 42
2.9920251926
  0
ELLIPSE
  5
9F6
100
AcDbEntity
  8
ASSI
100
AcDbEllipse
 62
7
  6
CONTINUOUS
 10
46.1397135177
 20
-71.4990856836
 30
0.0
 11
-1.0619528169
 21
1.0619528169
 31
0.0
 40
0.998782766
 41
2.3568034778
 42
3.9263818294
  0
ELLIPSE
  5
9F7
100
AcDbEntity
  8
ASSI
100
AcDbEllipse
 62
7
  6
CONTINUOUS
 10
30.1408411746
 20
-72.6497866595
 30
0.0
 11
0.2477889906
 21
0.2477889906
 31
0.0
 40
0.998782766
 41
3.4238647482
 42
3.9263818294
  0
ELLIPSE
  5
9F8
100
AcDbEntity
  8
RACCORDO
100
AcDbEllipse
 62
7
  6
CONTINUOUS
 10
47.2904144936
 20
-18.8502133405
 30
0.0
 11
-0.2477889906
 21
-0.2477889906
 31
0.0
 40
0.998782766
 41
2.3568034778
 42
2.9920251926
  0
ELLIPSE
  5
9F9
100
AcDbEntity
  8
RACCORDO
100
AcDbEllipse
 62
7
  6
CONTINUOUS
 10
47.2904144936
 20
-45.1497866595
 30
0.0
 11
-0.2477889906
 21
0.2477889906
 31
0.0
 40
0.998782766
 41
3.2911598481
 42
3.9263818294
  0
ELLIPSE
  5
9FA
100
AcDbEntity
  8
RACCORDO
100
AcDbEllipse
 62
7
  6
CONTINUOUS
 10
-47.0591588254
 20
-45.1497866595
 30
0.0
 11
0.2477889906
 21
0.2477889906
 31
0.0
 40
0.998782766
 41
2.3568034778
 42
2.9920251926
  0
ELLIPSE
  5
9FB
100
AcDbEntity
  8
RACCORDO
100
AcDbEllipse
 62
7
  6
CONTINUOUS
 10
-47.0591588254
 20
-18.8502133405
 30
0.0
 11
0.2477889906
 21
-0.2477889906
 31
0.0
 40
0.998782766
 41
3.2911598481
 42
3.9263818294
  0
ELLIPSE
  5
9FC
100
AcDbEntity
  8
ASSI
100
AcDbEllipse
 62
7
  6
CONTINUOUS
 10
-47.0591588254
 20
-45.1497866595
 30
0.0
 11
0.2477889906
 21
0.2477889906
 31
0.0
 40
0.998782766
 41
2.3568034778
 42
2.9920251926
  0
ELLIPSE
  5
9FD
100
AcDbEntity
  8
ASSI
100
AcDbEllipse
 62
7
  6
CONTINUOUS
 10
-47.0591588254
 20
-18.8502133405
 30
0.0
 11
0.2477889906
 21
-0.2477889906
 31
0.0
 40
0.998782766
 41
3.2911598481
 42
3.9263818294
  0
ELLIPSE
  5
9FE
100
AcDbEntity
  8
ASSI
100
AcDbEllipse
 62
7
  6
CONTINUOUS
 10
47.2904144936
 20
-45.1497866595
 30
0.0
 11
-0.2477889906
 21
0.2477889906
 31
0.0
 40
0.998782766
 41
3.2911598481
 42
3.9263818294
  0
ELLIPSE
  5
9FF
100
AcDbEntity
  8
ASSI
100
AcDbEllipse
 62
7
  6
CONTINUOUS
 10
47.2904144936
 20
-18.8502133405
 30
0.0
 11
-0.2477889906
 21
-0.2477889906
 31
0.0
 40
0.998782766
 41
2.3568034778
 42
2.9920251926
  0
ELLIPSE
  5
A00
100
AcDbEntity
  8
RACCORDO
100
AcDbEllipse
 62
7
  6
CONTINUOUS
 10
47.2904144936
 20
8.6497866595
 30
0.0
 11
-0.2477889906
 21
-0.2477889906
 31
0.0
 40
0.998782766
 41
2.3568034778
 42
2.9920251926
  0
ELLIPSE
  5
A01
100
AcDbEntity
  8
RACCORDO
100
AcDbEllipse
 62
7
  6
CONTINUOUS
 10
47.2904144936
 20
-17.6497866595
 30
0.0
 11
-0.2477889906
 21
0.2477889906
 31
0.0
 40
0.998782766
 41
3.2911598481
 42
3.9263818294
  0
ELLIPSE
  5
A02
100
AcDbEntity
  8
ASSI
100
AcDbEllipse
 62
7
  6
CONTINUOUS
 10
47.2904144936
 20
8.6497866595
 30
0.0
 11
-0.2477889906
 21
-0.2477889906
 31
0.0
 40
0.998782766
 41
2.3568034778
 42
2.9920251926
  0
ELLIPSE
  5
A03
100
AcDbEntity
  8
ASSI
100
AcDbEllipse
 62
7
  6
CONTINUOUS
 10
47.2904144936
 20
-17.6497866595
 30
0.0
 11
-0.2477889906
 21
0.2477889906
 31
0.0
 40
0.998782766
 41
3.2911598481
 42
3.9263818294
  0
ELLIPSE
  5
A04
100
AcDbEntity
  8
ASSI
100
AcDbEllipse
 62
7
  6
CONTINUOUS
 10
-47.0591588254
 20
-17.6497866595
 30
0.0
 11
0.2477889906
 21
0.2477889906
 31
0.0
 40
0.998782766
 41
2.3568034778
 42
2.9920251926
  0
ELLIPSE
  5
A05
100
AcDbEntity
  8
ASSI
100
AcDbEllipse
 62
7
  6
CONTINUOUS
 10
-47.0591588254
 20
8.6497866595
 30
0.0
 11
0.2477889906
 21
-0.2477889906
 31
0.0
 40
0.998782766
 41
3.2911598481
 42
3.9263818294
  0
ELLIPSE
  5
A06
100
AcDbEntity
  8
ASSI
100
AcDbEllipse
 62
7
  6
CONTINUOUS
 10
-34.444271215
 20
-13.789394254
 30
0.0
 11
-0.0101035824
 21
0.350645949
 31
0.0
 40
0.8552089069
 41
-2.4873250068
 42
-1.6044761725
  0
ELLIPSE
  5
A07
100
AcDbEntity
  8
RACCORDO
100
AcDbEllipse
 62
7
  6
CONTINUOUS
 10
47.2904144936
 20
36.1497866595
 30
0.0
 11
-0.2477889906
 21
-0.2477889906
 31
0.0
 40
0.998782766
 41
2.3568034778
 42
2.9920251926
  0
ELLIPSE
  5
A08
100
AcDbEntity
  8
RACCORDO
100
AcDbEllipse
 62
7
  6
CONTINUOUS
 10
47.2904144936
 20
9.8502133405
 30
0.0
 11
-0.2477889906
 21
0.2477889906
 31
0.0
 40
0.998782766
 41
3.2911598481
 42
3.9263818294
  0
ELLIPSE
  5
A09
100
AcDbEntity
  8
ASSI
100
AcDbEllipse
 62
7
  6
CONTINUOUS
 10
47.2904144936
 20
36.1497866595
 30
0.0
 11
-0.2477889906
 21
-0.2477889906
 31
0.0
 40
0.998782766
 41
2.3568034778
 42
2.9920251926
  0
ELLIPSE
  5
A0A
100
AcDbEntity
  8
ASSI
100
AcDbEllipse
 62
7
  6
CONTINUOUS
 10
47.2904144936
 20
9.8502133405
 30
0.0
 11
-0.2477889906
 21
0.2477889906
 31
0.0
 40
0.998782766
 41
3.2911598481
 42
3.9263818294
  0
ELLIPSE
  5
A0B
100
AcDbEntity
  8
0
100
AcDbEllipse
 62
7
  6
CONTINUOUS
 10
47.2380333394
 20
37.4025944947
 30
0.0
 11
-0.2477889906
 21
0.2477889906
 31
0.0
 40
0.998782766
 41
3.6207772676
 42
3.9263818294
  0
ELLIPSE
  5
A0C
100
AcDbEntity
  8
0
100
AcDbEllipse
 62
7
  6
CONTINUOUS
 10
46.0873323634
 20
71.4467045293
 30
0.0
 11
1.0619528169
 21
1.0619528169
 31
0.0
 40
0.998782766
 41
-0.7847891758
 42
0.1108568984
  0
ELLIPSE
  5
A0D
100
AcDbEntity
  8
ASSI
100
AcDbEllipse
 62
7
  6
CONTINUOUS
 10
-29.9619666606
 20
72.6474055053
 30
0.0
 11
-0.2477889906
 21
-0.2477889906
 31
0.0
 40
0.998782766
 41
3.4381020281
 42
3.9263818294
  0
ELLIPSE
  5
A0E
100
AcDbEntity
  8
ASSI
100
AcDbEllipse
 62
7
  6
CONTINUOUS
 10
-47.0067776711
 20
9.8525944947
 30
0.0
 11
0.2477889906
 21
0.2477889906
 31
0.0
 40
0.998782766
 41
2.3568034778
 42
2.6624079425
  0
ELLIPSE
  5
A0F
100
AcDbEntity
  8
ASSI
100
AcDbEllipse
 62
7
  6
CONTINUOUS
 10
-45.8560766952
 20
71.4967045293
 30
0.0
 11
-1.0619528169
 21
1.0619528169
 31
0.0
 40
0.998782766
 41
-0.7847891758
 42
0.7847891758
  0
ELLIPSE
  5
A10
100
AcDbEntity
  8
0
100
AcDbEllipse
 62
7
  6
CONTINUOUS
 10
-29.9619666606
 20
72.6474055053
 30
0.0
 11
-0.2477889906
 21
-0.2477889906
 31
0.0
 40
0.998782766
 41
3.4381020281
 42
3.9263818294
  0
ELLIPSE
  5
A11
100
AcDbEntity
  8
0
100
AcDbEllipse
 62
7
  6
CONTINUOUS
 10
-47.0067776711
 20
9.8525944947
 30
0.0
 11
0.2477889906
 21
0.2477889906
 31
0.0
 40
0.998782766
 41
2.3568034778
 42
2.6624079425
  0
ELLIPSE
  5
A12
100
AcDbEntity
  8
0
100
AcDbEllipse
 62
7
  6
CONTINUOUS
 10
-45.8560766952
 20
71.4967045293
 30
0.0
 11
-1.0619528169
 21
1.0619528169
 31
0.0
 40
0.998782766
 41
-0.7847891758
 42
0.7847891758
  0
ELLIPSE
  5
A13
100
AcDbEntity
  8
ASSI
100
AcDbEllipse
 62
7
  6
CONTINUOUS
 10
-28.7366840459
 20
72.6495196789
 30
0.0
 11
-0.1107673716
 21
0.3325723501
 31
0.0
 40
0.9984778551
 41
-0.3210503505
 42
0.1827074264
  0
ELLIPSE
  5
A14
100
AcDbEntity
  8
ASSI
100
AcDbEllipse
 62
7
  6
CONTINUOUS
 10
28.9679397141
 20
72.6495196789
 30
0.0
 11
0.1107673716
 21
0.3325723501
 31
0.0
 40
0.9984778551
 41
-0.1827073797
 42
0.3210503505
  0
ELLIPSE
  5
A15
100
AcDbEntity
  8
ASSI
100
AcDbEllipse
 62
7
  6
CONTINUOUS
 10
28.9679397141
 20
-72.6495196789
 30
0.0
 11
-0.1107673716
 21
0.3325723501
 31
0.0
 40
0.9984778551
 41
2.8205423031
 42
3.3243000333
  0
ELLIPSE
  5
A16
100
AcDbEntity
  8
ASSI
100
AcDbEllipse
 62
7
  6
CONTINUOUS
 10
-28.7366840459
 20
-72.6495196789
 30
0.0
 11
0.1107673716
 21
0.3325723501
 31
0.0
 40
0.9984778551
 41
2.9588852272
 42
3.4626430041
  0
ELLIPSE
  5
A17
100
AcDbEntity
  8
RACCORDO
100
AcDbEllipse
 62
7
  6
CONTINUOUS
 10
-28.7366840459
 20
72.6495196789
 30
0.0
 11
-0.1107673716
 21
0.3325723501
 31
0.0
 40
0.9984778551
 41
-0.3210503505
 42
0.1827074264
  0
ELLIPSE
  5
A18
100
AcDbEntity
  8
RACCORDO
100
AcDbEllipse
 62
7
  6
CONTINUOUS
 10
28.9679397141
 20
72.6495196789
 30
0.0
 11
0.1107673716
 21
0.3325723501
 31
0.0
 40
0.9984778551
 41
-0.1827073797
 42
0.3210503505
  0
ELLIPSE
  5
A19
100
AcDbEntity
  8
RACCORDO
100
AcDbEllipse
 62
7
  6
CONTINUOUS
 10
28.9679397141
 20
-72.6495196789
 30
0.0
 11
-0.1107673716
 21
0.3325723501
 31
0.0
 40
0.9984778551
 41
2.8205423031
 42
3.3243000333
  0
ELLIPSE
  5
A1A
100
AcDbEntity
  8
RACCORDO
100
AcDbEllipse
 62
7
  6
CONTINUOUS
 10
-28.7366840459
 20
-72.6495196789
 30
0.0
 11
0.1107673716
 21
0.3325723501
 31
0.0
 40
0.9984778551
 41
2.9588852272
 42
3.4626430041
  0
ELLIPSE
  5
A1B
100
AcDbEntity
  8
0
100
AcDbEllipse
 62
7
  6
CONTINUOUS
 10
-47.1387179153
 20
-32.0
 30
0.0
 11
0.5019099188
 21
0.0
 31
0.0
 40
0.9961946981
 41
1.984805686
 42
4.2983796212
  0
ELLIPSE
  5
A1C
100
AcDbEntity
  8
0
100
AcDbEllipse
 62
7
  6
CONTINUOUS
 10
-47.1387179153
 20
-58.0
 30
0.0
 11
0.5019099188
 21
-0.0
 31
0.0
 40
0.9961946981
 41
1.984805686
 42
4.2983796212
  0
ELLIPSE
  5
A1D
100
AcDbEntity
  8
0
100
AcDbEllipse
 62
7
  6
CONTINUOUS
 10
-47.1387179153
 20
-61.0
 30
0.0
 11
0.5019099188
 21
0.0
 31
0.0
 40
0.9961946981
 41
1.984805686
 42
4.2983796212
  0
ELLIPSE
  5
A1E
100
AcDbEntity
  8
RACCORDO
100
AcDbEllipse
 62
7
  6
CONTINUOUS
 10
-38.2727476124
 20
-41.9116245535
 30
0.0
 11
0.1415937089
 21
-0.1415937089
 31
0.0
 40
0.998782766
 41
-0.7847891758
 42
0.7847891758
  0
ELLIPSE
  5
A1F
100
AcDbEntity
  8
RACCORDO
100
AcDbEllipse
 62
7
  6
CONTINUOUS
 10
-38.2727476124
 20
-40.0883754465
 30
0.0
 11
0.1415937089
 21
0.1415937089
 31
0.0
 40
0.998782766
 41
-0.7847891758
 42
0.7847891758
  0
ELLIPSE
  5
A20
100
AcDbEntity
  8
RACCORDO
100
AcDbEllipse
 62
7
  6
CONTINUOUS
 10
-38.2727476124
 20
8.5883754465
 30
0.0
 11
0.1415937089
 21
-0.1415937089
 31
0.0
 40
0.998782766
 41
-0.7847891758
 42
0.7847891758
  0
ELLIPSE
  5
A21
100
AcDbEntity
  8
RACCORDO
100
AcDbEllipse
 62
7
  6
CONTINUOUS
 10
-38.2727476124
 20
10.4116245535
 30
0.0
 11
0.1415937089
 21
0.1415937089
 31
0.0
 40
0.998782766
 41
-0.7847891758
 42
0.7847891758
  0
ELLIPSE
  5
A22
100
AcDbEntity
  8
RACCORDO
100
AcDbEllipse
 62
7
  6
CONTINUOUS
 10
-46.540420728
 20
61.7991702942
 30
0.0
 11
0.0003891068
 21
0.6008297049
 31
0.0
 40
0.0878883472
 41
-1.5634278403
 42
0.0000569179
  0
ELLIPSE
  5
A23
100
AcDbEntity
  8
RACCORDO
100
AcDbEllipse
 62
7
  6
CONTINUOUS
 10
-46.540420728
 20
53.2008297058
 30
0.0
 11
-0.0003891068
 21
0.6008297049
 31
0.0
 40
0.0878883472
 41
-3.1416495715
 42
-1.5781648133
  0
ELLIPSE
  5
A24
100
AcDbEntity
  8
RACCORDO
100
AcDbEllipse
 62
7
  6
CONTINUOUS
 10
-46.540420728
 20
27.7991702942
 30
0.0
 11
0.0003891068
 21
0.6008297049
 31
0.0
 40
0.0878883472
 41
-1.5634278403
 42
0.0000569179
  0
ELLIPSE
  5
A25
100
AcDbEntity
  8
RACCORDO
100
AcDbEllipse
 62
7
  6
CONTINUOUS
 10
-46.540420728
 20
19.2008297058
 30
0.0
 11
-0.0003891068
 21
0.6008297049
 31
0.0
 40
0.0878883472
 41
-3.1416495715
 42
-1.5781648133
  0
ELLIPSE
  5
A26
100
AcDbEntity
  8
RACCORDO
100
AcDbEllipse
 62
7
  6
CONTINUOUS
 10
-12.8831530773
 20
-7.5012190886
 30
0.0
 11
1.4159370892
 21
-1.4159370892
 31
0.0
 40
0.998782766
 41
2.3568034778
 42
3.9263818294
  0
ELLIPSE
  5
A27
100
AcDbEntity
  8
RACCORDO
100
AcDbEllipse
 62
7
  6
CONTINUOUS
 10
13.1144087455
 20
-7.5012190886
 30
0.0
 11
1.4159370892
 21
1.4159370892
 31
0.0
 40
0.998782766
 41
-0.7847891758
 42
0.7847891758
  0
ELLIPSE
  5
A28
100
AcDbEntity
  8
RACCORDO
100
AcDbEllipse
 62
7
  6
CONTINUOUS
 10
-12.8831530773
 20
-14.4987809114
 30
0.0
 11
1.4159370892
 21
1.4159370892
 31
0.0
 40
0.998782766
 41
-3.9263818294
 42
-2.3568034778
  0
ELLIPSE
  5
A29
100
AcDbEntity
  8
RACCORDO
100
AcDbEllipse
 62
7
  6
CONTINUOUS
 10
13.1144087455
 20
-14.4987809114
 30
0.0
 11
1.4159370892
 21
-1.4159370892
 31
0.0
 40
0.998782766
 41
-0.7847891758
 42
0.7847891758
  0
ELLIPSE
  5
A2A
100
AcDbEntity
  8
0
100
AcDbEllipse
 62
7
  6
CONTINUOUS
 10
46.066153746
 20
71.4505259119
 30
0.0
 11
1.0687479118
 21
1.0687479118
 31
0.0
 40
0.9924325091
 41
-0.7816000651
 42
0.7816000651
  0
ELLIPSE
  5
A2B
100
AcDbEntity
  8
0
100
AcDbEllipse
 62
7
  6
CONTINUOUS
 10
-45.8348980778
 20
71.4505259119
 30
0.0
 11
-1.0687479118
 21
1.0687479118
 31
0.0
 40
0.9924325091
 41
-0.7816000651
 42
0.7816000651
  0
ELLIPSE
  5
A2C
100
AcDbEntity
  8
0
100
AcDbEllipse
 62
7
  6
CONTINUOUS
 10
-45.8348980778
 20
-71.4505259119
 30
0.0
 11
-1.0687479118
 21
-1.0687479118
 31
0.0
 40
0.9924325091
 41
-0.7816000651
 42
0.7816000651
  0
ELLIPSE
  5
A2D
100
AcDbEntity
  8
0
100
AcDbEllipse
 62
7
  6
CONTINUOUS
 10
46.066153746
 20
-71.4505259119
 30
0.0
 11
1.0687479118
 21
-1.0687479118
 31
0.0
 40
0.9924325091
 41
-0.7816000651
 42
0.7816000651
  0
ELLIPSE
  5
A2E
100
AcDbEntity
  8
RACCORDO
100
AcDbEllipse
 62
7
  6
CONTINUOUS
 10
42.2902981659
 20
67.6746703318
 30
0.0
 11
-1.2090706592
 21
-1.2090706592
 31
0.0
 40
0.8556363196
 41
2.4338355028
 42
3.8493498044
  0
ELLIPSE
  5
A2F
100
AcDbEntity
  8
RACCORDO
100
AcDbEllipse
 62
7
  6
CONTINUOUS
 10
42.2791219833
 20
-67.6634941491
 30
0.0
 11
-1.2198063137
 21
1.2198063137
 31
0.0
 40
0.8519079624
 41
2.4359919613
 42
3.8471933459
  0
ELLIPSE
  5
A30
100
AcDbEntity
  8
RACCORDO
100
AcDbEllipse
 62
7
  6
CONTINUOUS
 10
-42.0590424977
 20
-67.6746703318
 30
0.0
 11
1.2090706592
 21
1.2090706592
 31
0.0
 40
0.8556363196
 41
2.4338355028
 42
3.8493498044
  0
ELLIPSE
  5
A31
100
AcDbEntity
  8
RACCORDO
100
AcDbEllipse
 62
7
  6
CONTINUOUS
 10
-42.0590424977
 20
67.6746703318
 30
0.0
 11
1.2090706592
 21
-1.2090706592
 31
0.0
 40
0.8556363196
 41
2.4338355028
 42
3.8493498044
  0
ELLIPSE
  5
A32
100
AcDbEntity
  8
RACCORDO
100
AcDbEllipse
 62
7
  6
CONTINUOUS
 10
-0.0526530291
 20
-68.4973702764
 30
0.0
 11
0.2
 21
-0.0
 31
0.0
 40
0.0524077793
 41
-3.089232776
 42
-1.5707963268
  0
ELLIPSE
  5
A33
100
AcDbEntity
  8
RACCORDO
100
AcDbEllipse
 62
7
  6
CONTINUOUS
 10
-42.8817424423
 20
-55.0342064721
 30
0.0
 11
0.0
 21
0.2
 31
0.0
 40
0.0524077793
 41
1.5707963268
 42
3.089232776
  0
ELLIPSE
  5
A34
100
AcDbEntity
  8
RACCORDO
100
AcDbEllipse
 62
7
  6
CONTINUOUS
 10
-32.2160913027
 20
-68.4973702764
 30
0.0
 11
0.2
 21
0.0
 31
0.0
 40
0.0524077793
 41
-1.5707963268
 42
-0.0523598776
  0
ELLIPSE
  5
A35
100
AcDbEntity
  8
RACCORDO
100
AcDbEllipse
 62
7
  6
CONTINUOUS
 10
-32.5526530291
 20
-68.4973702764
 30
0.0
 11
0.2
 21
0.0
 31
0.0
 40
0.0524077793
 41
-3.089232776
 42
-1.5707963268
  0
ELLIPSE
  5
A36
100
AcDbEntity
  8
RACCORDO
100
AcDbEllipse
 62
7
  6
CONTINUOUS
 10
32.4473469709
 20
-68.4973702764
 30
0.0
 11
0.2
 21
-0.0
 31
0.0
 40
0.0524077793
 41
-3.089232776
 42
-1.5707963268
  0
ELLIPSE
  5
A37
100
AcDbEntity
  8
RACCORDO
100
AcDbEllipse
 62
7
  6
CONTINUOUS
 10
43.1129981105
 20
-50.3317191368
 30
0.0
 11
0.0
 21
0.2
 31
0.0
 40
0.0524077793
 41
-1.5707963268
 42
-0.0523598776
  0
ELLIPSE
  5
A38
100
AcDbEntity
  8
RACCORDO
100
AcDbEllipse
 62
7
  6
CONTINUOUS
 10
43.1129981105
 20
-50.6682808632
 30
0.0
 11
0.0
 21
0.2
 31
0.0
 40
0.0524077793
 41
-3.089232776
 42
-1.5707963268
  0
ELLIPSE
  5
A39
100
AcDbEntity
  8
RACCORDO
100
AcDbEllipse
 62
7
  6
CONTINUOUS
 10
43.1129981105
 20
-0.3317191368
 30
0.0
 11
0.0
 21
0.2
 31
0.0
 40
0.0524077793
 41
-1.5707963268
 42
-0.0523598776
  0
ELLIPSE
  5
A3A
100
AcDbEntity
  8
RACCORDO
100
AcDbEllipse
 62
7
  6
CONTINUOUS
 10
43.1129981105
 20
-0.6682808632
 30
0.0
 11
0.0
 21
0.2
 31
0.0
 40
0.0524077793
 41
-3.089232776
 42
-1.5707963268
  0
ELLIPSE
  5
A3B
100
AcDbEntity
  8
RACCORDO
100
AcDbEllipse
 62
7
  6
CONTINUOUS
 10
43.1129981105
 20
49.6682808632
 30
0.0
 11
0.0
 21
0.2
 31
0.0
 40
0.0524077793
 41
-1.5707963268
 42
-0.0523598776
  0
ELLIPSE
  5
A3C
100
AcDbEntity
  8
RACCORDO
100
AcDbEllipse
 62
7
  6
CONTINUOUS
 10
43.1129981105
 20
49.3317191368
 30
0.0
 11
-0.0
 21
0.2
 31
0.0
 40
0.0524077793
 41
-3.089232776
 42
-1.5707963268
  0
ELLIPSE
  5
A3D
100
AcDbEntity
  8
RACCORDO
100
AcDbEllipse
 62
7
  6
CONTINUOUS
 10
32.4473469709
 20
68.4973702764
 30
0.0
 11
0.2
 21
0.0
 31
0.0
 40
0.0524077793
 41
1.5707963268
 42
3.089232776
  0
ELLIPSE
  5
A3E
100
AcDbEntity
  8
RACCORDO
100
AcDbEllipse
 62
7
  6
CONTINUOUS
 10
32.7839086973
 20
68.4973702764
 30
0.0
 11
0.2
 21
0.0
 31
0.0
 40
0.0524077793
 41
0.0523598776
 42
1.5707963268
  0
ELLIPSE
  5
A3F
100
AcDbEntity
  8
RACCORDO
100
AcDbEllipse
 62
7
  6
CONTINUOUS
 10
-0.0526530291
 20
68.4973702764
 30
0.0
 11
0.2
 21
0.0
 31
0.0
 40
0.0524077793
 41
1.5707963268
 42
3.089232776
  0
ELLIPSE
  5
A40
100
AcDbEntity
  8
RACCORDO
100
AcDbEllipse
 62
7
  6
CONTINUOUS
 10
0.2839086973
 20
68.4973702764
 30
0.0
 11
0.2
 21
0.0
 31
0.0
 40
0.0524077793
 41
0.0523598776
 42
1.5707963268
  0
ELLIPSE
  5
A41
100
AcDbEntity
  8
RACCORDO
100
AcDbEllipse
 62
7
  6
CONTINUOUS
 10
-32.5526530291
 20
68.4973702764
 30
0.0
 11
0.2
 21
0.0
 31
0.0
 40
0.0524077793
 41
1.5707963268
 42
3.089232776
  0
ELLIPSE
  5
A42
100
AcDbEntity
  8
RACCORDO
100
AcDbEllipse
 62
7
  6
CONTINUOUS
 10
-32.2160913027
 20
68.4973702764
 30
0.0
 11
0.2
 21
0.0
 31
0.0
 40
0.0524077793
 41
0.0523598776
 42
1.5707963268
  0
ELLIPSE
  5
A43
100
AcDbEntity
  8
RACCORDO
100
AcDbEllipse
 62
7
  6
CONTINUOUS
 10
-42.8817424423
 20
49.3317191368
 30
0.0
 11
-0.0
 21
0.2
 31
0.0
 40
0.0524077793
 41
-4.7123889804
 42
-3.1939525311
  0
ELLIPSE
  5
A44
100
AcDbEntity
  8
RACCORDO
100
AcDbEllipse
 62
7
  6
CONTINUOUS
 10
-42.8817424423
 20
49.6682808632
 30
0.0
 11
0.0
 21
0.2
 31
0.0
 40
0.0524077793
 41
0.0523598776
 42
1.5707963268
  0
ELLIPSE
  5
A45
100
AcDbEntity
  8
RACCORDO
100
AcDbEllipse
 62
7
  6
CONTINUOUS
 10
-42.8817424423
 20
-0.6682808632
 30
0.0
 11
0.0
 21
0.2
 31
0.0
 40
0.0524077793
 41
1.5707963268
 42
3.089232776
  0
ELLIPSE
  5
A46
100
AcDbEntity
  8
RACCORDO
100
AcDbEllipse
 62
7
  6
CONTINUOUS
 10
-42.8817424423
 20
-0.3317191368
 30
0.0
 11
0.0
 21
0.2
 31
0.0
 40
0.0524077793
 41
0.0523598776
 42
1.5707963268
  0
ELLIPSE
  5
A47
100
AcDbEntity
  8
RACCORDO
100
AcDbEllipse
 62
7
  6
CONTINUOUS
 10
-42.8817424423
 20
-50.6682808632
 30
0.0
 11
0.0
 21
0.2
 31
0.0
 40
0.0524077793
 41
1.5707963268
 42
3.089232776
  0
ELLIPSE
  5
A48
100
AcDbEntity
  8
RACCORDO
100
AcDbEllipse
 62
7
  6
CONTINUOUS
 10
-42.8817424423
 20
-50.3317191368
 30
0.0
 11
0.0
 21
0.2
 31
0.0
 40
0.0524077793
 41
0.0523598776
 42
1.5707963268
  0
ELLIPSE
  5
A49
100
AcDbEntity
  8
RACCORDO
100
AcDbEllipse
 62
7
  6
CONTINUOUS
 10
0.2839086973
 20
-68.4973702764
 30
0.0
 11
0.2
 21
0.0
 31
0.0
 40
0.0524077793
 41
-1.5707963268
 42
-0.0523598776
  0
ELLIPSE
  5
A4A
100
AcDbEntity
  8
RACCORDO
100
AcDbEllipse
 62
7
  6
CONTINUOUS
 10
43.1129981105
 20
-55.0342064721
 30
0.0
 11
0.0
 21
0.2
 31
0.0
 40
0.0524077793
 41
-3.089232776
 42
-1.5707963268
  0
ELLIPSE
  5
A4B
100
AcDbEntity
  8
RACCORDO
100
AcDbEllipse
 62
7
  6
CONTINUOUS
 10
-42.8817424423
 20
-54.6976447456
 30
0.0
 11
-0.0
 21
0.2
 31
0.0
 40
0.0524077793
 41
0.0523598776
 42
1.5707963268
  0
ELLIPSE
  5
A4C
100
AcDbEntity
  8
RACCORDO
100
AcDbEllipse
 62
7
  6
CONTINUOUS
 10
43.1129981105
 20
-54.6976447456
 30
0.0
 11
0.0
 21
0.2
 31
0.0
 40
0.0524077793
 41
-1.5707963268
 42
-0.0523598776
  0
ELLIPSE
  5
A4D
100
AcDbEntity
  8
RACCORDO
100
AcDbEllipse
 62
7
  6
CONTINUOUS
 10
-46.6977540345
 20
61.7991702942
 30
0.0
 11
0.0000966694
 21
0.6008297058
 31
0.0
 40
0.0870882898
 41
0.0000140119
 42
1.2193437489
  0
ELLIPSE
  5
A4E
100
AcDbEntity
  8
RACCORDO
100
AcDbEllipse
 62
7
  6
CONTINUOUS
 10
-46.6977540345
 20
53.2008297058
 30
0.0
 11
-0.0000966694
 21
0.6008297058
 31
0.0
 40
0.0870882898
 41
1.5689488576
 42
3.1415786417
  0
ELLIPSE
  5
A4F
100
AcDbEntity
  8
RACCORDO
100
AcDbEllipse
 62
7
  6
CONTINUOUS
 10
47.1645725119
 20
-72.6988485034
 30
0.0
 11
-0.3733925323
 21
2.8938368081
 31
0.0
 40
0.112726992
 41
0.7180635689
 42
0.7240336192
  0
ELLIPSE
  5
A50
100
AcDbEntity
  8
RACCORDO
100
AcDbEllipse
 62
7
  6
CONTINUOUS
 10
-46.6977540345
 20
27.7991702942
 30
0.0
 11
0.0000966694
 21
0.6008297058
 31
0.0
 40
0.0870882898
 41
0.0000140119
 42
1.2193437489
  0
ELLIPSE
  5
A51
100
AcDbEntity
  8
RACCORDO
100
AcDbEllipse
 62
7
  6
CONTINUOUS
 10
47.1957296166
 20
72.7751735972
 30
0.0
 11
0.3987416479
 21
3.0270596998
 31
0.0
 40
0.1138209379
 41
-3.8760674549
 42
-3.8542015614
  0
ELLIPSE
  5
A52
100
AcDbEntity
  8
RACCORDO
100
AcDbEllipse
 62
7
  6
CONTINUOUS
 10
-46.6977540345
 20
19.2008297058
 30
0.0
 11
-0.0000966694
 21
0.6008297058
 31
0.0
 40
0.0870882898
 41
1.5689488576
 42
3.1415786417
  0
ELLIPSE
  5
A53
100
AcDbEntity
  8
RACCORDO
100
AcDbEllipse
 62
7
  6
CONTINUOUS
 10
-47.1595457631
 20
-72.5801017825
 30
0.0
 11
3.0270596998
 21
0.3987416479
 31
0.0
 40
0.1138209379
 41
0.7126089078
 42
0.7344748013
  0
ELLIPSE
  5
A54
100
AcDbEntity
  8
RACCORDO
100
AcDbEllipse
 62
7
  6
CONTINUOUS
 10
47.3144763376
 20
-72.5489446778
 30
0.0
 11
2.8938368081
 21
-0.3733925323
 31
0.0
 40
0.112726992
 41
2.4175590344
 42
2.4235290847
  0
ELLIPSE
  5
A55
100
AcDbEntity
  8
0
100
AcDbEllipse
 62
7
  6
CONTINUOUS
 10
-47.3393980776
 20
-61.0
 30
0.0
 11
-0.0
 21
0.5
 31
0.0
 40
0.3474951411
 41
-2.6764102616
 42
-0.465182392
  0
ELLIPSE
  5
A56
100
AcDbEntity
  8
0
100
AcDbEllipse
 62
7
  6
CONTINUOUS
 10
-47.3393980776
 20
-58.0
 30
0.0
 11
0.0
 21
0.5
 31
0.0
 40
0.3474951411
 41
-2.6764102616
 42
-0.465182392
  0
ELLIPSE
  5
A57
100
AcDbEntity
  8
0
100
AcDbEllipse
 62
7
  6
CONTINUOUS
 10
-47.3393980776
 20
-32.0
 30
0.0
 11
-0.0
 21
0.5
 31
0.0
 40
0.3474951411
 41
-2.6764102616
 42
-0.465182392
  0
ELLIPSE
  5
A58
100
AcDbEntity
  8
RACCORDO
100
AcDbEllipse
 62
7
  6
CONTINUOUS
 10
-46.9644739484
 20
72.7751735972
 30
0.0
 11
-0.3987416479
 21
3.0270596998
 31
0.0
 40
0.1138209379
 41
-2.4289837458
 42
-2.4071178523
  0
ELLIPSE
  5
A59
100
AcDbEntity
  8
RACCORDO
100
AcDbEllipse
 62
7
  6
CONTINUOUS
 10
-46.9644739484
 20
-72.7751735972
 30
0.0
 11
0.3987416479
 21
3.0270596998
 31
0.0
 40
0.1138209379
 41
-0.7344748013
 42
-0.7126089078
  0
ELLIPSE
  5
A5A
100
AcDbEntity
  8
RACCORDO
100
AcDbEllipse
 62
7
  6
CONTINUOUS
 10
47.3908014314
 20
72.5801017825
 30
0.0
 11
3.0270596998
 21
0.3987416479
 31
0.0
 40
0.1138209379
 41
-2.4289837458
 42
-2.4071178523
  0
ELLIPSE
  5
A5B
100
AcDbEntity
  8
RACCORDO
100
AcDbEllipse
 62
7
  6
CONTINUOUS
 10
-47.1595457631
 20
72.5801017825
 30
0.0
 11
3.0270596998
 21
-0.3987416479
 31
0.0
 40
0.1138209379
 41
-0.7344748013
 42
-0.7126089078
  0
ELLIPSE
  5
A5C
100
AcDbEntity
  8
RACCORDO
100
AcDbEllipse
 62
7
  6
CONTINUOUS
 10
0.7159023033
 20
-55.466200078
 30
0.0
 11
0.1418092487
 21
-0.1418092487
 31
0.0
 40
0.9972646886
 41
2.3575640181
 42
3.9256212891
  0
ELLIPSE
  5
A5D
100
AcDbEntity
  8
RACCORDO
100
AcDbEllipse
 62
7
  6
CONTINUOUS
 10
-0.4846466351
 20
-55.466200078
 30
0.0
 11
0.1418092487
 21
0.1418092487
 31
0.0
 40
0.9972646886
 41
-0.7840286355
 42
0.7840286355
  0
ENDSEC
  0
SECTION
  2
OBJECTS
  0
DICTIONARY
  5
C
100
AcDbDictionary
280
0
281
1
  3
ACAD_GROUP
350
D
  3
ACAD_MLINESTYLE
350
17
  3
ACAD_LAYOUT
350
1A
  3
ACAD_PLOTSETTINGS
350
19
  3
ACAD_PLOTSTYLENAME
350
E
  0
DICTIONARY
  5
D
102
{ACAD_REACTORS
330
C
102
}
100
AcDbDictionary
280
0
281
1
  0
ACDBDICTIONARYWDFLT
  5
E
102
{ACAD_REACTORS
330
C
102
}
100
AcDbDictionary
281
1
  3
Normal
350
F
100
AcDbDictionaryWithDefault
340
F
  0
DICTIONARY
  5
17
102
{ACAD_REACTORS
330
C
102
}
100
AcDbDictionary
280
0
281
1
  3
Standard
350
18
  0
DICTIONARY
  5
19
102
{ACAD_REACTORS
330
C
102
}
100
AcDbDictionary
281
1
  0
DICTIONARY
  5
1A
102
{ACAD_REACTORS
330
C
102
}
100
AcDbDictionary
281
1
  3
Model
350
A5E
  3
Layout1
350
A5F
  0
ACDBPLACEHOLDER
  5
F
102
{ACAD_REACTORS
330
E
102
}
  0
MLINESTYLE
  5
18
102
{ACAD_REACTORS
330
17
102
}
100
AcDbMlineStyle
  2
STANDARD
 70
0
  3

 62
256
 51
90.0
 52
90.0
 71
2
 49
0.5
 62
256
  6
BYLAYER
 49
-0.5
 62
256
  6
BYLAYER
  0
LAYOUT
  5
A5E
102
{ACAD_REACTORS
330
1A
102
}
100
AcDbPlotSettings
  1

  2
none_device
  4
ISO_A4_(297.00_x_210.00_MM)
  6

 40
0.0
 41
0.0
 42
0.0
 43
0.0
 44
297.0
 45
210.0
 46
0.0
 47
0.0
 48
0.0
 49
0.0
140
0.0
141
0.0
142
1.0
143
1.0
 70
1024
 72
1
 73
0
 74
0
  7

 75
0
147
1.0
148
0.0
149
0.0
100
AcDbLayout
  1
Model
 70
0
 71
0
 10
0.0
 20
0.0
 11
297.0
 21
210.0
 12
0.0
 22
0.0
 32
0.0
 14
0.0
 24
0.0
 34
0.0
 15
0.0
 25
0.0
 35
0.0
146
0.0
 13
0.0
 23
0.0
 33
0.0
 16
1.0
 26
0.0
 36
0.0
 17
0.0
 27
1.0
 37
0.0
 76
0
330
679
345
0
346
0
  0
LAYOUT
  5
A5F
102
{ACAD_REACTORS
330
1A
102
}
100
AcDbPlotSettings
  1

  2
none_device
  4
ISO_A4_(297.00_x_210.00_MM)
  6

 40
0.0
 41
0.0
 42
0.0
 43
0.0
 44
297.0
 45
210.0
 46
0.0
 47
0.0
 48
0.0
 49
0.0
140
0.0
141
0.0
142
1.0
143
1.0
 70
0
 72
1
 73
0
 74
0
  7

 75
0
147
1.0
148
0.0
149
0.0
100
AcDbLayout
  1
Layout1
 70
0
 71
1
 10
0.0
 20
0.0
 11
297.0
 21
210.0
 12
0.0
 22
0.0
 32
0.0
 14
0.0
 24
0.0
 34
0.0
 15
0.0
 25
0.0
 35
0.0
146
0.0
 13
0.0
 23
0.0
 33
0.0
 16
1.0
 26
0.0
 36
0.0
 17
0.0
 27
1.0
 37
0.0
 76
0
330
67A
345
0
346
0
  0
ENDSEC
  0
EOF
