  0
SECTION
  2
HEADER
  9
$ACADVER
  1
AC1024
  9
$DWGCODEPAGE
  3
ANSI_1252
  9
$EXTMAX
 10
297.0
 20
210.0
 30
0.0
  9
$EXTMIN
 10
0.0
 20
0.0
 30
0.0
  9
$LIMMIN
 10
0.0
 20
0.0
  9
$LIMMAX
 10
297.0
 20
210.0
  9
$VIEWCTR
 10
148.5
 20
105.0
  9
$VIEWSIZE
 40
210.0
  9
$CLAYER
  8
0
  9
$LTSCALE
 40
16.335
  9
$CELTYPE
  6
BYLAYER
  9
$DIMSCALE
 40
1.0
  9
$DIMASZ
 40
3.0
  9
$DIMEXO
 40
0.5
  9
$DIMDLI
 40
11.286
  9
$DIMEXE
 40
1.5
  9
$DIMCEN
 40
2.673
  9
$DIMLFAC
 40
1.0
  9
$DIMBLK
  1
_FILLED
  9
$DIMALT
 70
0
  9
$DIMALTF
 40
0.0393700787
  9
$DIMTXT
 40
3.0
  9
$DIMTOL
 70
1
  9
$DIMLIM
 70
0
  9
$DIMTFAC
 40
1.0
  9
$DIMTP
 40
0.01
  9
$DIMTM
 40
0.01
  9
$DIMGAP
 40
0.625
  9
$DIMDSEP
 70
44
  9
$AUNITS
 70
0
  9
$PDMODE
 70
3
  9
$PDSIZE
 40
3.0
  9
$HANDSEED
  5
377
  9
$TILEMODE
 70
1
  9
$MEASUREMENT
 70
1
  9
$INSUNITS
 70
4
  0
ENDSEC
  0
SECTION
  2
CLASSES
  0
CLASS
  1
ACDBDICTIONARYWDFLT
  2
AcDbDictionaryWithDefault
  3
AutoCAD 2000
 90
0
 91
1
280
0
281
0
  0
CLASS
  1
ACDBPLACEHOLDER
  2
AcDbPlaceHolder
  3
AutoCAD 2000
 90
0
 91
1
280
0
281
0
  0
CLASS
  1
LAYOUT
  2
AcDbLayout
  3
AutoCAD 2000
 90
0
 91
0
280
0
281
0
  0
ENDSEC
  0
SECTION
  2
TABLES
  0
TABLE
  2
VPORT
  5
8
100
AcDbSymbolTable
 70
2
  0
VPORT
  5
1F4
100
AcDbSymbolTableRecord
100
AcDbViewportTableRecord
  2
*ACTIVE
 70
0
 10
0.0
 20
0.0
 11
1.0
 21
1.0
 12
148.5
 22
105.0
 13
0.0
 23
0.0
 14
1.0
 24
1.0
 15
0.0
 25
0.0
 16
0.0
 26
0.0
 36
1.0
 17
0.0
 27
0.0
 37
0.0
 40
210.0
 41
1.4142857143
 42
50.0
 43
0.0
 44
0.0
 50
0.0
 51
0.0
 71
0
 72
100
 73
1
 74
1
 75
0
 76
0
 77
0
 78
0
  0
ENDTAB
  0
TABLE
  2
LTYPE
  5
5
100
AcDbSymbolTable
 70
6
  0
LTYPE
  5
14
100
AcDbSymbolTableRecord
100
AcDbLinetypeTableRecord
  2
BYBLOCK
 70
0
  3

 72
65
 73
0
 40
0.0
  0
LTYPE
  5
15
100
AcDbSymbolTableRecord
100
AcDbLinetypeTableRecord
  2
BYLAYER
 70
0
  3

 72
65
 73
0
 40
0.0
  0
LTYPE
  5
16
100
AcDbSymbolTableRecord
100
AcDbLinetypeTableRecord
  2
CONTINUOUS
 70
64
  3
Solid line
 72
65
 73
0
 40
0.0
  0
LTYPE
  5
1F5
100
AcDbSymbolTableRecord
100
AcDbLinetypeTableRecord
  2
CENTER
 70
64
  3
____ _ ____ _ ____ _ ____ _ ____ _ ____ _ ____
 72
65
 73
4
 40
0.6
 49
0.375
 74
0
 49
-0.075
 74
0
 49
0.075
 74
0
 49
-0.075
 74
0
  0
LTYPE
  5
1F6
100
AcDbSymbolTableRecord
100
AcDbLinetypeTableRecord
  2
HIDDEN
 70
64
  3
- - - - - - - - - - - - - - - - - - - -
 72
65
 73
2
 40
0.2
 49
0.1
 74
0
 49
-0.1
 74
0
  0
LTYPE
  5
1F7
100
AcDbSymbolTableRecord
100
AcDbLinetypeTableRecord
  2
PHANTOM
 70
64
  3
_____ _ _ _____ _ _ _____ _ _ _____
 72
65
 73
6
 40
0.8
 49
0.45
 74
0
 49
-0.05
 74
0
 49
0.1
 74
0
 49
-0.05
 74
0
 49
0.1
 74
0
 49
-0.05
 74
0
  0
LTYPE
  5
1F8
100
AcDbSymbolTableRecord
100
AcDbLinetypeTableRecord
  2
DOT
 70
64
  3
. . . . . . . . . . . . . . . . . . . .
 72
65
 73
2
 40
0.2
 49
0.1
 74
0
 49
-0.1
 74
0
  0
LTYPE
  5
1F9
100
AcDbSymbolTableRecord
100
AcDbLinetypeTableRecord
  2
DASHED
 70
64
  3
- - - - - - - - - - - - - - - - - - - -
 72
65
 73
2
 40
0.2
 49
0.1
 74
0
 49
-0.1
 74
0
  0
ENDTAB
  0
TABLE
  2
LAYER
  5
2
100
AcDbSymbolTable
 70
36
  0
LAYER
  5
10
100
AcDbSymbolTableRecord
100
AcDbLayerTableRecord
  2
0
 70
0
 62
7
  6
CONTINUOUS
370
-3
390
F
  0
LAYER
  5
1FA
100
AcDbSymbolTableRecord
100
AcDbLayerTableRecord
  2
DEFAULT_1
 70
0
 62
7
  6
CENTER
370
-3
390
F
  0
LAYER
  5
1FB
100
AcDbSymbolTableRecord
100
AcDbLayerTableRecord
  2
DEFAULT_2
 70
0
 62
7
  6
HIDDEN
370
-3
390
F
  0
LAYER
  5
1FC
100
AcDbSymbolTableRecord
100
AcDbLayerTableRecord
  2
DEFAULT_3
 70
0
 62
7
  6
PHANTOM
370
-3
390
F
  0
LAYER
  5
1FD
100
AcDbSymbolTableRecord
100
AcDbLayerTableRecord
  2
ASSI
 70
0
 62
7
  6
CONTINUOUS
370
-3
390
F
  0
LAYER
  5
1FE
100
AcDbSymbolTableRecord
100
AcDbLayerTableRecord
  2
COLOR5
 70
0
 62
7
  6
CONTINUOUS
370
-3
390
F
  0
LAYER
  5
1FF
100
AcDbSymbolTableRecord
100
AcDbLayerTableRecord
  2
COORDINATE
 70
0
 62
7
  6
CONTINUOUS
370
-3
390
F
  0
LAYER
  5
200
100
AcDbSymbolTableRecord
100
AcDbLayerTableRecord
  2
COORD_ORIGINE
 70
0
 62
7
  6
CONTINUOUS
370
-3
390
F
  0
LAYER
  5
201
100
AcDbSymbolTableRecord
100
AcDbLayerTableRecord
  2
COPY_PUBLISH
 70
0
 62
7
  6
CONTINUOUS
370
-3
390
F
  0
LAYER
  5
202
100
AcDbSymbolTableRecord
100
AcDbLayerTableRecord
  2
COSMETICI
 70
0
 62
7
  6
CONTINUOUS
370
-3
390
F
  0
LAYER
  5
203
100
AcDbSymbolTableRecord
100
AcDbLayerTableRecord
  2
CURVE
 70
0
 62
7
  6
CONTINUOUS
370
-3
390
F
  0
LAYER
  5
204
100
AcDbSymbolTableRecord
100
AcDbLayerTableRecord
  2
DRAFT
 70
0
 62
7
  6
CONTINUOUS
370
-3
390
F
  0
LAYER
  5
205
100
AcDbSymbolTableRecord
100
AcDbLayerTableRecord
  2
IMPORT_IGES
 70
0
 62
7
  6
CONTINUOUS
370
-3
390
F
  0
LAYER
  5
206
100
AcDbSymbolTableRecord
100
AcDbLayerTableRecord
  2
NOTE
 70
0
 62
7
  6
CONTINUOUS
370
-3
390
F
  0
LAYER
  5
207
100
AcDbSymbolTableRecord
100
AcDbLayerTableRecord
  2
PIANI
 70
0
 62
7
  6
CONTINUOUS
370
-3
390
F
  0
LAYER
  5
208
100
AcDbSymbolTableRecord
100
AcDbLayerTableRecord
  2
PIANI_ORIGINE
 70
0
 62
7
  6
CONTINUOUS
370
-3
390
F
  0
LAYER
  5
209
100
AcDbSymbolTableRecord
100
AcDbLayerTableRecord
  2
PUNTI
 70
0
 62
7
  6
CONTINUOUS
370
-3
390
F
  0
LAYER
  5
20A
100
AcDbSymbolTableRecord
100
AcDbLayerTableRecord
  2
RACCORDO
 70
0
 62
7
  6
CONTINUOUS
370
-3
390
F
  0
LAYER
  5
20B
100
AcDbSymbolTableRecord
100
AcDbLayerTableRecord
  2
SIMBOLI
 70
0
 62
7
  6
CONTINUOUS
370
-3
390
F
  0
LAYER
  5
20C
100
AcDbSymbolTableRecord
100
AcDbLayerTableRecord
  2
SMUSSO
 70
0
 62
7
  6
CONTINUOUS
370
-3
390
F
  0
LAYER
  5
20D
100
AcDbSymbolTableRecord
100
AcDbLayerTableRecord
  2
SNAPLINE
 70
0
 62
7
  6
CONTINUOUS
370
-3
390
F
  0
LAYER
  5
20E
100
AcDbSymbolTableRecord
100
AcDbLayerTableRecord
  2
SUPERFICI
 70
0
 62
7
  6
CONTINUOUS
370
-3
390
F
  0
LAYER
  5
20F
100
AcDbSymbolTableRecord
100
AcDbLayerTableRecord
  2
TRASH
 70
0
 62
7
  6
CONTINUOUS
370
-3
390
F
  0
LAYER
  5
210
100
AcDbSymbolTableRecord
100
AcDbLayerTableRecord
  2
XSEC_DATUMS
 70
0
 62
7
  6
CONTINUOUS
370
-3
390
F
  0
ENDTAB
  0
TABLE
  2
STYLE
  5
3
100
AcDbSymbolTable
 70
1
  0
STYLE
  5
11
100
AcDbSymbolTableRecord
100
AcDbTextStyleTableRecord
  2
STANDARD
 70
0
 40
0.0
 41
0.8
 50
0.0
 71
0
 42
0.2
  3
txt
  4

  0
STYLE
  5
211
100
AcDbSymbolTableRecord
100
AcDbTextStyleTableRecord
  2
TEXTSTYLE_1
 70
0
 40
0.0
 41
0.8
 50
0.0
 71
0
 42
0.2
  3
gdt
  4

  0
ENDTAB
  0
TABLE
  2
VIEW
  5
6
100
AcDbSymbolTable
 70
0
  0
ENDTAB
  0
TABLE
  2
UCS
  5
7
100
AcDbSymbolTable
 70
0
  0
ENDTAB
  0
TABLE
  2
APPID
  5
9
100
AcDbSymbolTable
 70
1
  0
APPID
  5
212
100
AcDbSymbolTableRecord
100
AcDbRegAppTableRecord
  2
ACAD
 70
0
  0
ENDTAB
  0
TABLE
  2
BLOCK_RECORD
  5
1
100
AcDbSymbolTable
 70
0
  0
BLOCK_RECORD
  5
213
100
AcDbSymbolTableRecord
100
AcDbBlockTableRecord
  2
*Model_Space
  0
BLOCK_RECORD
  5
214
100
AcDbSymbolTableRecord
100
AcDbBlockTableRecord
  2
*Paper_Space
  0
BLOCK_RECORD
  5
215
100
AcDbSymbolTableRecord
100
AcDbBlockTableRecord
  2
_FILLED
  0
ENDTAB
  0
TABLE
  2
DIMSTYLE
  5
A
100
AcDbSymbolTable
 70
1
100
AcDbDimStyleTable
 71
0
  0
DIMSTYLE
105
216
100
AcDbSymbolTableRecord
100
AcDbDimStyleTableRecord
  2
STANDARD
 70
0
  3

  4

 40
1.0
 41
3.0
 42
0.5
 43
0.38
 44
1.5
 45
0.0
 46
0.0
 47
0.01
 48
0.01
140
3.0
141
0.09
142
0.0
143
25.4
144
1.0
145
0.0
146
1.0
147
0.625
 71
1
 72
0
 73
0
 74
0
 75
0
 76
0
 77
1
 78
8
 79
2
170
0
171
1
172
0
173
0
174
0
175
0
176
0
177
0
178
0
270
2
179
2
271
2
272
2
273
2
274
2
275
0
280
0
281
0
282
0
283
1
284
8
285
0
286
0
287
3
288
0
340
11
278
44
341
215
342
215
343
215
344
215
  0
ENDTAB
  0
ENDSEC
  0
SECTION
  2
BLOCKS
  0
BLOCK
  5
20
100
AcDbEntity
  8
0
100
AcDbBlockBegin
  2
*Model_Space
 70
0
 10
0.0
 20
0.0
 30
0.0
  3
*Model_Space
  1

  0
ENDBLK
  5
21
100
AcDbEntity
  8
0
100
AcDbBlockEnd
  0
BLOCK
  5
1C
100
AcDbEntity
  8
0
100
AcDbBlockBegin
  2
*Paper_Space
 70
0
 10
0.0
 20
0.0
 30
0.0
  3
*Paper_Space
  1

  0
ENDBLK
  5
1D
100
AcDbEntity
  8
0
100
AcDbBlockEnd
  0
BLOCK
  5
217
100
AcDbEntity
  8
0
100
AcDbBlockBegin
  2
_FILLED
 70
64
 10
0.0
 20
0.0
  3
_FILLED
  1

  0
SOLID
  5
218
100
AcDbEntity
  8
0
  6
BYBLOCK
 62
0
100
AcDbTrace
 10
0.0
 20
0.0
 11
-1.0
 21
0.3166666667
 12
-1.0
 22
-0.3166666667
 13
-1.0
 23
-0.3166666667
  0
ENDBLK
  5
219
100
AcDbEntity
  8
0
  6
BYBLOCK
 62
0
100
AcDbBlockEnd
  0
ENDSEC
  0
SECTION
  2
ENTITIES
  0
LINE
  5
21A
100
AcDbEntity
  8
ASSI
100
AcDbLine
 62
7
  6
CONTINUOUS
 10
-69.5040921633
 20
-38.1284318517
 11
-84.4271919351
 21
65.9921671272
  0
LINE
  5
21B
100
AcDbEntity
  8
0
100
AcDbLine
 62
7
  6
CONTINUOUS
 10
-69.5040921633
 20
-38.1284318517
 11
-84.4271919351
 21
65.9921671272
  0
LINE
  5
21C
100
AcDbEntity
  8
ASSI
100
AcDbLine
 62
7
  6
CONTINUOUS
 10
-45.0
 20
-70.1112691742
 11
45.0
 21
-70.1112691742
  0
LINE
  5
21D
100
AcDbEntity
  8
0
100
AcDbLine
 62
7
  6
CONTINUOUS
 10
-45.0
 20
-70.1112691742
 11
45.0
 21
-70.1112691742
  0
LINE
  5
21E
100
AcDbEntity
  8
ASSI
100
AcDbLine
 62
7
  6
CONTINUOUS
 10
-47.1643238015
 20
-49.2114004408
 11
-67.3751724989
 21
-40.8669831576
  0
LINE
  5
21F
100
AcDbEntity
  8
0
100
AcDbLine
 62
7
  6
CONTINUOUS
 10
-47.1643238015
 20
-49.2114004408
 11
-67.3751724989
 21
-40.8669831576
  0
LINE
  5
220
100
AcDbEntity
  8
ASSI
100
AcDbLine
 62
7
  6
CONTINUOUS
 10
-57.5
 20
-44.944128126
 11
-57.5
 21
-49.180908451
  0
LINE
  5
221
100
AcDbEntity
  8
0
100
AcDbLine
 62
7
  6
CONTINUOUS
 10
-57.5
 20
-44.944128126
 11
-57.5
 21
-49.180908451
  0
LINE
  5
222
100
AcDbEntity
  8
ASSI
100
AcDbLine
 62
250
  6
CONTINUOUS
 10
-54.0
 20
-46.3891669232
 11
-54.0
 21
-51.6557821852
  0
LINE
  5
223
100
AcDbEntity
  8
0
100
AcDbLine
 62
250
  6
CONTINUOUS
 10
-54.0
 20
-46.3891669232
 11
-54.0
 21
-51.6557821852
  0
LINE
  5
224
100
AcDbEntity
  8
ASSI
100
AcDbLine
 62
250
  6
CONTINUOUS
 10
-45.0160927197
 20
-52.1112691742
 11
45.0160927197
 21
-52.1112691742
  0
LINE
  5
225
100
AcDbEntity
  8
0
100
AcDbLine
 62
250
  6
CONTINUOUS
 10
-45.0160927197
 20
-52.1112691742
 11
45.0160927197
 21
-52.1112691742
  0
LINE
  5
226
100
AcDbEntity
  8
ASSI
100
AcDbLine
 62
7
  6
CONTINUOUS
 10
-54.0
 20
-51.6557821852
 11
-48.5
 21
-51.6557821852
  0
LINE
  5
227
100
AcDbEntity
  8
0
100
AcDbLine
 62
7
  6
CONTINUOUS
 10
-54.0
 20
-51.6557821852
 11
-48.5
 21
-51.6557821852
  0
LINE
  5
228
100
AcDbEntity
  8
ASSI
100
AcDbLine
 62
7
  6
CONTINUOUS
 10
54.0
 20
-51.6557821852
 11
48.5
 21
-51.6557821852
  0
LINE
  5
229
100
AcDbEntity
  8
0
100
AcDbLine
 62
7
  6
CONTINUOUS
 10
54.0
 20
-51.6557821852
 11
48.5
 21
-51.6557821852
  0
LINE
  5
22A
100
AcDbEntity
  8
ASSI
100
AcDbLine
 62
250
  6
CONTINUOUS
 10
-48.5
 20
-51.6557821852
 11
-48.5
 21
-48.6599421758
  0
LINE
  5
22B
100
AcDbEntity
  8
0
100
AcDbLine
 62
250
  6
CONTINUOUS
 10
-48.5
 20
-51.6557821852
 11
-48.5
 21
-48.6599421758
  0
LINE
  5
22C
100
AcDbEntity
  8
ASSI
100
AcDbLine
 62
7
  6
CONTINUOUS
 10
-45.0
 20
-70.1112981115
 11
-45.0
 21
-52.6507912835
  0
LINE
  5
22D
100
AcDbEntity
  8
0
100
AcDbLine
 62
7
  6
CONTINUOUS
 10
-45.0
 20
-70.1112981115
 11
-45.0
 21
-52.6507912835
  0
LINE
  5
22E
100
AcDbEntity
  8
ASSI
100
AcDbLine
 62
7
  6
CONTINUOUS
 10
-42.4271919351
 20
15.9921671272
 11
-40.2773147852
 21
0.9921671272
  0
LINE
  5
22F
100
AcDbEntity
  8
0
100
AcDbLine
 62
7
  6
CONTINUOUS
 10
-42.4271919351
 20
15.9921671272
 11
-40.2773147852
 21
0.9921671272
  0
LINE
  5
230
100
AcDbEntity
  8
0
100
AcDbLine
 62
7
  6
CONTINUOUS
 10
-35.0
 20
-1.5926220772
 11
-35.0
 21
-2.0112691742
  0
LINE
  5
231
100
AcDbEntity
  8
0
100
AcDbLine
 62
7
  6
CONTINUOUS
 10
-25.5520985711
 20
-0.4860882249
 11
-25.5732627974
 21
-0.2694537319
  0
LINE
  5
232
100
AcDbEntity
  8
0
100
AcDbLine
 62
7
  6
CONTINUOUS
 10
-27.75
 20
-1.5926054162
 11
-27.75
 21
-1.3804900428
  0
LINE
  5
233
100
AcDbEntity
  8
0
100
AcDbLine
 62
7
  6
CONTINUOUS
 10
-22.25
 20
-1.5926054162
 11
-22.25
 21
-1.3804900428
  0
LINE
  5
234
100
AcDbEntity
  8
0
100
AcDbLine
 62
7
  6
CONTINUOUS
 10
-24.4506897864
 20
-0.4933701684
 11
-24.4287574822
 21
-0.2680252652
  0
LINE
  5
235
100
AcDbEntity
  8
0
100
AcDbLine
 62
7
  6
CONTINUOUS
 10
-24.7631586338
 20
-0.2261194346
 11
-24.6215187274
 21
0.9365227587
  0
LINE
  5
236
100
AcDbEntity
  8
0
100
AcDbLine
 62
7
  6
CONTINUOUS
 10
-27.6523019773
 20
-0.5086701202
 11
-27.7394551669
 21
-1.2103645179
  0
LINE
  5
237
100
AcDbEntity
  8
0
100
AcDbLine
 62
7
  6
CONTINUOUS
 10
-22.3476980227
 20
-0.5086701202
 11
-22.2605448331
 21
-1.2103645179
  0
LINE
  5
238
100
AcDbEntity
  8
0
100
AcDbLine
 62
7
  6
CONTINUOUS
 10
-25.3826756819
 20
0.9355728001
 11
-25.2408026448
 21
-0.2267155872
  0
LINE
  5
239
100
AcDbEntity
  8
RACCORDO
100
AcDbLine
 62
7
  6
CONTINUOUS
 10
-14.0
 20
-1.4512007209
 11
-14.0
 21
-0.4452652032
  0
LINE
  5
23A
100
AcDbEntity
  8
RACCORDO
100
AcDbLine
 62
250
  6
CONTINUOUS
 10
-11.8431951599
 20
0.970775252
 11
-11.8419367889
 21
0.9535514327
  0
LINE
  5
23B
100
AcDbEntity
  8
RACCORDO
100
AcDbLine
 62
250
  6
CONTINUOUS
 10
-11.8431893991
 20
0.9707753915
 11
-11.8423375667
 21
0.9535412375
  0
LINE
  5
23C
100
AcDbEntity
  8
RACCORDO
100
AcDbLine
 62
7
  6
CONTINUOUS
 10
-11.85
 20
0.9529623351
 11
-11.85
 21
1.2547016573
  0
LINE
  5
23D
100
AcDbEntity
  8
RACCORDO
100
AcDbLine
 62
7
  6
CONTINUOUS
 10
-10.1
 20
2.2257545412
 11
-10.1
 21
2.5559141671
  0
LINE
  5
23E
100
AcDbEntity
  8
RACCORDO
100
AcDbLine
 62
7
  6
CONTINUOUS
 10
-8.35
 20
3.4985467474
 11
-8.35
 21
3.8097595041
  0
LINE
  5
23F
100
AcDbEntity
  8
0
100
AcDbLine
 62
7
  6
CONTINUOUS
 10
-25.6445503612
 20
-0.2944296571
 11
-25.7081235608
 21
-0.3169332384
  0
LINE
  5
240
100
AcDbEntity
  8
0
100
AcDbLine
 62
7
  6
CONTINUOUS
 10
-24.2917545522
 20
-0.3158358516
 11
-24.357727149
 21
-0.2926901718
  0
LINE
  5
241
100
AcDbEntity
  8
RACCORDO
100
AcDbLine
 62
7
  6
CONTINUOUS
 10
-4.1
 20
4.7713389535
 11
-4.1
 21
5.0111608701
  0
LINE
  5
242
100
AcDbEntity
  8
0
100
AcDbLine
 62
7
  6
CONTINUOUS
 10
-22.2722021964
 20
-1.7356644599
 11
-22.2966190191
 21
-1.735694935
  0
LINE
  5
243
100
AcDbEntity
  8
0
100
AcDbLine
 62
7
  6
CONTINUOUS
 10
-27.7015907893
 20
-1.7424409827
 11
-27.7265496856
 21
-1.7424721344
  0
LINE
  5
244
100
AcDbEntity
  8
0
100
AcDbLine
 62
7
  6
CONTINUOUS
 10
-22.4070379268
 20
-0.2458822069
 11
-24.4424454962
 21
-0.2484226377
  0
LINE
  5
245
100
AcDbEntity
  8
0
100
AcDbLine
 62
7
  6
CONTINUOUS
 10
-25.5596729985
 20
-0.2498170705
 11
-27.595080198
 21
-0.2523575008
  0
LINE
  5
246
100
AcDbEntity
  8
ASSI
100
AcDbLine
 62
7
  6
CONTINUOUS
 10
-36.8127189223
 20
-2.0112691742
 11
36.8127189223
 21
-2.0112691742
  0
LINE
  5
247
100
AcDbEntity
  8
0
100
AcDbLine
 62
7
  6
CONTINUOUS
 10
-36.8127189223
 20
-2.0112691742
 11
36.8127189223
 21
-2.0112691742
  0
LINE
  5
248
100
AcDbEntity
  8
0
100
AcDbLine
 62
7
  6
CONTINUOUS
 10
27.727177993
 20
-1.7390686866
 11
27.7024900507
 21
-1.7390686866
  0
LINE
  5
249
100
AcDbEntity
  8
0
100
AcDbLine
 62
7
  6
CONTINUOUS
 10
22.2975099493
 20
-1.7390686866
 11
22.272822007
 21
-1.7390686866
  0
LINE
  5
24A
100
AcDbEntity
  8
0
100
AcDbLine
 62
7
  6
CONTINUOUS
 10
27.5940251766
 20
-0.2491191929
 11
25.5586144364
 21
-0.2491191929
  0
LINE
  5
24B
100
AcDbEntity
  8
0
100
AcDbLine
 62
7
  6
CONTINUOUS
 10
24.4413851937
 20
-0.2491191929
 11
22.4059748234
 21
-0.2491191929
  0
LINE
  5
24C
100
AcDbEntity
  8
RACCORDO
100
AcDbLine
 62
7
  6
CONTINUOUS
 10
4.1
 20
4.7713389535
 11
4.1
 21
5.0111608701
  0
LINE
  5
24D
100
AcDbEntity
  8
RACCORDO
100
AcDbLine
 62
7
  6
CONTINUOUS
 10
25.0
 20
5.4784457347
 11
20.0
 21
5.4784457347
  0
LINE
  5
24E
100
AcDbEntity
  8
RACCORDO
100
AcDbLine
 62
7
  6
CONTINUOUS
 10
-20.0
 20
5.4784457347
 11
-25.0
 21
5.4784457347
  0
LINE
  5
24F
100
AcDbEntity
  8
0
100
AcDbLine
 62
7
  6
CONTINUOUS
 10
25.7081869628
 20
-0.3163841395
 11
25.6432221495
 21
-0.2934923965
  0
LINE
  5
250
100
AcDbEntity
  8
RACCORDO
100
AcDbLine
 62
7
  6
CONTINUOUS
 10
8.35
 20
3.4985467474
 11
8.35
 21
3.8097595041
  0
LINE
  5
251
100
AcDbEntity
  8
RACCORDO
100
AcDbLine
 62
7
  6
CONTINUOUS
 10
10.1
 20
2.2257545412
 11
10.1
 21
2.5559141671
  0
LINE
  5
252
100
AcDbEntity
  8
RACCORDO
100
AcDbLine
 62
7
  6
CONTINUOUS
 10
11.85
 20
0.9529623351
 11
11.85
 21
1.2547016573
  0
LINE
  5
253
100
AcDbEntity
  8
RACCORDO
100
AcDbLine
 62
7
  6
CONTINUOUS
 10
14.0
 20
-1.4512007209
 11
14.0
 21
-0.4452652032
  0
LINE
  5
254
100
AcDbEntity
  8
RACCORDO
100
AcDbLine
 62
250
  6
CONTINUOUS
 10
11.8423375708
 20
0.9535403532
 11
11.8432274894
 21
0.9715696039
  0
LINE
  5
255
100
AcDbEntity
  8
RACCORDO
100
AcDbLine
 62
250
  6
CONTINUOUS
 10
11.8419204623
 20
0.953550964
 11
11.8432331872
 21
0.9715694665
  0
LINE
  5
256
100
AcDbEntity
  8
0
100
AcDbLine
 62
7
  6
CONTINUOUS
 10
24.3563965998
 20
-0.2936257731
 11
24.291822209
 21
-0.3163842532
  0
LINE
  5
257
100
AcDbEntity
  8
0
100
AcDbLine
 62
7
  6
CONTINUOUS
 10
22.2500042839
 20
-1.5891730944
 11
22.2500042839
 21
-1.377057721
  0
LINE
  5
258
100
AcDbEntity
  8
0
100
AcDbLine
 62
7
  6
CONTINUOUS
 10
22.348113317
 20
-0.5053599936
 11
22.2609737737
 21
-1.2069456223
  0
LINE
  5
259
100
AcDbEntity
  8
ASSI
100
AcDbLine
 62
7
  6
CONTINUOUS
 10
38.9625960722
 20
19.9887308258
 11
-38.9625960722
 21
19.9887308258
  0
LINE
  5
25A
100
AcDbEntity
  8
0
100
AcDbLine
 62
7
  6
CONTINUOUS
 10
38.9625960722
 20
19.9887308258
 11
-38.9625960722
 21
19.9887308258
  0
LINE
  5
25B
100
AcDbEntity
  8
0
100
AcDbLine
 62
7
  6
CONTINUOUS
 10
24.449295191
 20
-0.4897237417
 11
24.4277463982
 21
-0.2687388621
  0
LINE
  5
25C
100
AcDbEntity
  8
0
100
AcDbLine
 62
7
  6
CONTINUOUS
 10
27.7499957161
 20
-1.596037738
 11
27.7499957161
 21
-1.3839223646
  0
LINE
  5
25D
100
AcDbEntity
  8
0
100
AcDbLine
 62
7
  6
CONTINUOUS
 10
25.5507070121
 20
-0.4897021446
 11
25.5722534963
 21
-0.2687388742
  0
LINE
  5
25E
100
AcDbEntity
  8
0
100
AcDbLine
 62
7
  6
CONTINUOUS
 10
25.2388223726
 20
-0.2264162769
 11
25.3805790946
 21
0.9360490603
  0
LINE
  5
25F
100
AcDbEntity
  8
0
100
AcDbLine
 62
7
  6
CONTINUOUS
 10
27.6527090081
 20
-0.5119807601
 11
27.7398755725
 21
-1.2137839435
  0
LINE
  5
260
100
AcDbEntity
  8
0
100
AcDbLine
 62
7
  6
CONTINUOUS
 10
24.6194209546
 20
0.936049116
 11
24.7611776175
 21
-0.2264162729
  0
LINE
  5
261
100
AcDbEntity
  8
0
100
AcDbLine
 62
7
  6
CONTINUOUS
 10
35.0
 20
-1.5926220772
 11
35.0
 21
-2.0112691742
  0
LINE
  5
262
100
AcDbEntity
  8
ASSI
100
AcDbLine
 62
7
  6
CONTINUOUS
 10
40.2773147852
 20
0.9921671272
 11
42.4271919351
 21
15.9921671272
  0
LINE
  5
263
100
AcDbEntity
  8
0
100
AcDbLine
 62
7
  6
CONTINUOUS
 10
40.2773147852
 20
0.9921671272
 11
42.4271919351
 21
15.9921671272
  0
LINE
  5
264
100
AcDbEntity
  8
ASSI
100
AcDbLine
 62
7
  6
CONTINUOUS
 10
45.0
 20
-52.6507912835
 11
45.0
 21
-70.1112981115
  0
LINE
  5
265
100
AcDbEntity
  8
0
100
AcDbLine
 62
7
  6
CONTINUOUS
 10
45.0
 20
-52.6507912835
 11
45.0
 21
-70.1112981115
  0
LINE
  5
266
100
AcDbEntity
  8
ASSI
100
AcDbLine
 62
250
  6
CONTINUOUS
 10
48.5
 20
-51.6557821852
 11
48.5
 21
-48.6599421758
  0
LINE
  5
267
100
AcDbEntity
  8
0
100
AcDbLine
 62
250
  6
CONTINUOUS
 10
48.5
 20
-51.6557821852
 11
48.5
 21
-48.6599421758
  0
LINE
  5
268
100
AcDbEntity
  8
ASSI
100
AcDbLine
 62
250
  6
CONTINUOUS
 10
54.0
 20
-46.3891669232
 11
54.0
 21
-51.6557821852
  0
LINE
  5
269
100
AcDbEntity
  8
0
100
AcDbLine
 62
250
  6
CONTINUOUS
 10
54.0
 20
-46.3891669232
 11
54.0
 21
-51.6557821852
  0
LINE
  5
26A
100
AcDbEntity
  8
ASSI
100
AcDbLine
 62
7
  6
CONTINUOUS
 10
57.5
 20
-44.944128126
 11
57.5
 21
-49.180908451
  0
LINE
  5
26B
100
AcDbEntity
  8
0
100
AcDbLine
 62
7
  6
CONTINUOUS
 10
57.5
 20
-44.944128126
 11
57.5
 21
-49.180908451
  0
LINE
  5
26C
100
AcDbEntity
  8
ASSI
100
AcDbLine
 62
7
  6
CONTINUOUS
 10
67.3751724989
 20
-40.8669831576
 11
47.1643238015
 21
-49.2114004408
  0
LINE
  5
26D
100
AcDbEntity
  8
0
100
AcDbLine
 62
7
  6
CONTINUOUS
 10
67.3751724989
 20
-40.8669831576
 11
47.1643238015
 21
-49.2114004408
  0
LINE
  5
26E
100
AcDbEntity
  8
ASSI
100
AcDbLine
 62
7
  6
CONTINUOUS
 10
-80.9625960722
 20
69.9887308258
 11
-76.3654489782
 21
69.9887308258
  0
LINE
  5
26F
100
AcDbEntity
  8
0
100
AcDbLine
 62
7
  6
CONTINUOUS
 10
-80.9625960722
 20
69.9887308258
 11
-76.3654489782
 21
69.9887308258
  0
LINE
  5
270
100
AcDbEntity
  8
ASSI
100
AcDbLine
 62
7
  6
CONTINUOUS
 10
-73.6345510218
 20
69.9887308258
 11
73.6345510218
 21
69.9887308258
  0
LINE
  5
271
100
AcDbEntity
  8
0
100
AcDbLine
 62
7
  6
CONTINUOUS
 10
-73.6345510218
 20
69.9887308258
 11
73.6345510218
 21
69.9887308258
  0
LINE
  5
272
100
AcDbEntity
  8
ASSI
100
AcDbLine
 62
7
  6
CONTINUOUS
 10
76.3654489782
 20
69.9887308258
 11
80.9625960722
 21
69.9887308258
  0
LINE
  5
273
100
AcDbEntity
  8
0
100
AcDbLine
 62
7
  6
CONTINUOUS
 10
76.3654489782
 20
69.9887308258
 11
80.9625960722
 21
69.9887308258
  0
LINE
  5
274
100
AcDbEntity
  8
ASSI
100
AcDbLine
 62
7
  6
CONTINUOUS
 10
84.4271919351
 20
65.9921671272
 11
69.5040921633
 21
-38.1284318517
  0
LINE
  5
275
100
AcDbEntity
  8
0
100
AcDbLine
 62
7
  6
CONTINUOUS
 10
84.4271919351
 20
65.9921671272
 11
69.5040921633
 21
-38.1284318517
  0
ARC
  5
276
100
AcDbEntity
  8
ASSI
100
AcDbCircle
 62
7
  6
CONTINUOUS
 10
-54.0586482723
 20
-52.6508026411
 40
9.0586482723
100
AcDbArc
 50
0.0000718363
 51
1.5193432806
  0
ARC
  5
277
100
AcDbEntity
  8
0
100
AcDbCircle
 62
7
  6
CONTINUOUS
 10
-54.0586482723
 20
-52.6508026411
 40
9.0586482723
100
AcDbArc
 50
0.0000718363
 51
1.5193432806
  0
ARC
  5
278
100
AcDbEntity
  8
ASSI
100
AcDbCircle
 62
7
  6
CONTINUOUS
 10
-54.027106593
 20
-52.6497786829
 40
9.0270905344
100
AcDbArc
 50
1.518154544
 51
3.4200002243
  0
ARC
  5
279
100
AcDbEntity
  8
0
100
AcDbCircle
 62
7
  6
CONTINUOUS
 10
-54.027106593
 20
-52.6497786829
 40
9.0270905344
100
AcDbArc
 50
1.518154544
 51
3.4200002243
  0
CIRCLE
  5
27A
100
AcDbEntity
  8
DRAFT
100
AcDbCircle
 62
7
  6
CONTINUOUS
 10
-60.0
 20
-36.3612691742
 40
6.5
  0
CIRCLE
  5
27B
100
AcDbEntity
  8
RACCORDO
100
AcDbCircle
 62
250
  6
CONTINUOUS
 10
-60.0
 20
-36.3612691742
 40
6.2177487349
  0
CIRCLE
  5
27C
100
AcDbEntity
  8
RACCORDO
100
AcDbCircle
 62
250
  6
CONTINUOUS
 10
-60.0
 20
-36.3612691742
 40
5.9188903255
  0
ARC
  5
27D
100
AcDbEntity
  8
ASSI
100
AcDbCircle
 62
7
  6
CONTINUOUS
 10
-66.0394963004
 20
-37.6318681531
 40
3.5
100
AcDbArc
 50
188.1563787933
 51
247.5658248793
  0
ARC
  5
27E
100
AcDbEntity
  8
0
100
AcDbCircle
 62
7
  6
CONTINUOUS
 10
-66.0394963004
 20
-37.6318681531
 40
3.5
100
AcDbArc
 50
188.1563787933
 51
247.5658248793
  0
ARC
  5
27F
100
AcDbEntity
  8
0
100
AcDbCircle
 62
7
  6
CONTINUOUS
 10
-97.4782155889
 20
-19.4899954483
 40
74.504934352
100
AcDbArc
 50
14.1219011444
 51
14.5608700811
  0
ARC
  5
280
100
AcDbEntity
  8
ASSI
100
AcDbCircle
 62
7
  6
CONTINUOUS
 10
-48.5
 20
-52.4465154453
 40
3.5
100
AcDbArc
 50
5.4964828389
 51
67.5658248793
  0
ARC
  5
281
100
AcDbEntity
  8
0
100
AcDbCircle
 62
7
  6
CONTINUOUS
 10
-48.5
 20
-52.4465154453
 40
3.5
100
AcDbArc
 50
5.4964828389
 51
67.5658248793
  0
ARC
  5
282
100
AcDbEntity
  8
0
100
AcDbCircle
 62
7
  6
CONTINUOUS
 10
-49.0253881335
 20
-19.7270124346
 40
76.0602216596
100
AcDbArc
 50
14.0114958967
 51
14.4414057477
  0
ARC
  5
283
100
AcDbEntity
  8
0
100
AcDbCircle
 62
7
  6
CONTINUOUS
 10
-31.3828619787
 20
-20.409159439
 40
21.3078589998
100
AcDbArc
 50
70.749621056
 51
70.9518056739
  0
ARC
  5
284
100
AcDbEntity
  8
0
100
AcDbCircle
 62
7
  6
CONTINUOUS
 10
-18.5987086644
 20
-20.2908073561
 40
21.2013916123
100
AcDbArc
 50
109.2060769715
 51
109.4102100935
  0
ARC
  5
285
100
AcDbEntity
  8
0
100
AcDbCircle
 62
7
  6
CONTINUOUS
 10
-31.7773860733
 20
-19.6115539068
 40
20.226675104
100
AcDbArc
 50
72.3818341283
 51
72.7150805386
  0
ARC
  5
286
100
AcDbEntity
  8
0
100
AcDbCircle
 62
7
  6
CONTINUOUS
 10
-18.3634914129
 20
-18.9725609683
 40
19.5759561219
100
AcDbArc
 50
107.4393215661
 51
107.7833296456
  0
ARC
  5
287
100
AcDbEntity
  8
TRASH
100
AcDbCircle
 62
7
  6
CONTINUOUS
 10
-43.3043500867
 20
4.0710162569
 40
18.5677743737
100
AcDbArc
 50
346.6168463626
 51
346.7593564292
  0
ARC
  5
288
100
AcDbEntity
  8
TRASH
100
AcDbCircle
 62
7
  6
CONTINUOUS
 10
-6.7960915259
 20
4.0836383543
 40
18.4767289491
100
AcDbArc
 50
193.3454926219
 51
193.4886824515
  0
ARC
  5
289
100
AcDbEntity
  8
0
100
AcDbCircle
 62
7
  6
CONTINUOUS
 10
-33.4785381408
 20
-6.5726755727
 40
11.0293764769
100
AcDbArc
 50
34.8635120916
 51
34.9877137121
  0
ARC
  5
28A
100
AcDbEntity
  8
0
100
AcDbCircle
 62
7
  6
CONTINUOUS
 10
-16.5295833069
 20
-6.5137252384
 40
10.9899529287
100
AcDbArc
 50
145.2520902071
 51
145.376590788
  0
ARC
  5
28B
100
AcDbEntity
  8
RACCORDO
100
AcDbCircle
 62
250
  6
CONTINUOUS
 10
-6.8403480591
 20
-0.4275100656
 40
7.1607154229
100
AcDbArc
 50
188.1250669975
 51
192.7812710507
  0
ARC
  5
28C
100
AcDbEntity
  8
RACCORDO
100
AcDbCircle
 62
250
  6
CONTINUOUS
 10
-6.9745339808
 20
-0.444566953
 40
7.0254660539
100
AcDbArc
 50
180.0056945389
 51
188.1420255193
  0
ARC
  5
28D
100
AcDbEntity
  8
0
100
AcDbCircle
 62
7
  6
CONTINUOUS
 10
-6.9849959908
 20
-1.4506602842
 40
7.0150040301
100
AcDbArc
 50
180.0044140733
 51
184.5845322133
  0
ARC
  5
28E
100
AcDbEntity
  8
0
100
AcDbCircle
 62
7
  6
CONTINUOUS
 10
-26.7397543011
 20
-5.6304295053
 40
6.6716150851
100
AcDbArc
 50
67.9250697518
 51
68.9613836007
  0
ARC
  5
28F
100
AcDbEntity
  8
0
100
AcDbCircle
 62
7
  6
CONTINUOUS
 10
-23.2478819699
 20
-5.6188239418
 40
6.6645499475
100
AcDbArc
 50
111.1972982607
 51
112.2339863951
  0
ARC
  5
290
100
AcDbEntity
  8
0
100
AcDbCircle
 62
7
  6
CONTINUOUS
 10
-28.9086251627
 20
-3.9285473249
 40
6.4844574566
100
AcDbArc
 50
48.6134532923
 51
48.7567753985
  0
ARC
  5
291
100
AcDbEntity
  8
0
100
AcDbCircle
 62
7
  6
CONTINUOUS
 10
-21.0782140744
 20
-3.9106414278
 40
6.4818347767
100
AcDbArc
 50
131.4703676185
 51
131.6118405401
  0
ARC
  5
292
100
AcDbEntity
  8
RACCORDO
100
AcDbCircle
 62
250
  6
CONTINUOUS
 10
-5.9236002823
 20
1.2548146752
 40
5.9263997188
100
AcDbArc
 50
180.0010926445
 51
182.7471129048
  0
ARC
  5
293
100
AcDbEntity
  8
RACCORDO
100
AcDbCircle
 62
250
  6
CONTINUOUS
 10
-5.0435776703
 20
2.5561023569
 40
5.0564223332
100
AcDbArc
 50
180.0021324325
 51
183.7375084891
  0
ARC
  5
294
100
AcDbEntity
  8
0
100
AcDbCircle
 62
7
  6
CONTINUOUS
 10
-29.9880740181
 20
-1.5924084909
 40
5.0119168789
100
AcDbArc
 50
180.0024416988
 51
184.794766762
  0
ARC
  5
295
100
AcDbEntity
  8
RACCORDO
100
AcDbCircle
 62
250
  6
CONTINUOUS
 10
-4.1684790993
 20
3.8099983962
 40
4.1815209076
100
AcDbArc
 50
180.0032733322
 51
184.2580391648
  0
ARC
  5
296
100
AcDbEntity
  8
ASSI
100
AcDbCircle
 62
7
  6
CONTINUOUS
 10
-36.8127189223
 20
1.4887308258
 40
3.5
100
AcDbArc
 50
188.1563787933
 51
270.0
  0
ARC
  5
297
100
AcDbEntity
  8
0
100
AcDbCircle
 62
7
  6
CONTINUOUS
 10
-36.8127189223
 20
1.4887308258
 40
3.5
100
AcDbArc
 50
188.1563787933
 51
270.0
  0
ARC
  5
298
100
AcDbEntity
  8
0
100
AcDbCircle
 62
7
  6
CONTINUOUS
 10
-25.0000044537
 20
1.3081702623
 40
2.6296604772
100
AcDbArc
 50
265.093744306
 51
275.0451395263
  0
ARC
  5
299
100
AcDbEntity
  8
0
100
AcDbCircle
 62
7
  6
CONTINUOUS
 10
-24.9999955463
 20
-1.315253277
 40
2.6296604772
100
AcDbArc
 50
85.0937443249
 51
95.0451395263
  0
ARC
  5
29A
100
AcDbEntity
  8
RACCORDO
100
AcDbCircle
 62
250
  6
CONTINUOUS
 10
-2.0413310923
 20
5.0116958737
 40
2.0586689772
100
AcDbArc
 50
180.014889934
 51
186.6504567823
  0
ARC
  5
29B
100
AcDbEntity
  8
TRASH
100
AcDbCircle
 62
7
  6
CONTINUOUS
 10
-25.0000030214
 20
-1.8211546905
 40
1.6125191791
100
AcDbArc
 50
81.5537950842
 51
98.5882625575
  0
ARC
  5
29C
100
AcDbEntity
  8
0
100
AcDbCircle
 62
7
  6
CONTINUOUS
 10
-23.6686301065
 20
-1.3745499087
 40
1.4190770635
100
AcDbArc
 50
346.6944393686
 51
349.6466668285
  0
ARC
  5
29D
100
AcDbEntity
  8
0
100
AcDbCircle
 62
7
  6
CONTINUOUS
 10
-26.3328340546
 20
-1.3749339403
 40
1.4175641752
100
AcDbArc
 50
188.7260625441
 51
193.5853597279
  0
ARC
  5
29E
100
AcDbEntity
  8
0
100
AcDbCircle
 62
7
  6
CONTINUOUS
 10
-26.365809323
 20
-1.3800671652
 40
1.3841918341
100
AcDbArc
 50
180.017504156
 51
188.7231188856
  0
ARC
  5
29F
100
AcDbEntity
  8
0
100
AcDbCircle
 62
7
  6
CONTINUOUS
 10
-23.6322517776
 20
-1.380327985
 40
1.3822528797
100
AcDbArc
 50
349.6112742584
 51
359.9932825377
  0
ARC
  5
2A0
100
AcDbEntity
  8
0
100
AcDbCircle
 62
7
  6
CONTINUOUS
 10
-26.3693914717
 20
-1.3807029798
 40
1.3806096373
100
AcDbArc
 50
172.9128422131
 51
179.9911630448
  0
ARC
  5
2A1
100
AcDbEntity
  8
0
100
AcDbCircle
 62
7
  6
CONTINUOUS
 10
-23.6305157523
 20
-1.3806956058
 40
1.3805168602
100
AcDbArc
 50
0.0085315042
 51
7.0873286379
  0
ARC
  5
2A2
100
AcDbEntity
  8
0
100
AcDbCircle
 62
7
  6
CONTINUOUS
 10
-138.4301449348
 20
36.21854769
 40
119.637834813
100
AcDbArc
 50
342.3864110658
 51
342.6552761761
  0
ARC
  5
2A3
100
AcDbEntity
  8
0
100
AcDbCircle
 62
7
  6
CONTINUOUS
 10
-88.3025034998
 20
36.1920030128
 40
119.5093825289
100
AcDbArc
 50
342.3798353074
 51
342.6488931994
  0
CIRCLE
  5
2A4
100
AcDbEntity
  8
DRAFT
100
AcDbCircle
 62
7
  6
CONTINUOUS
 10
-75.0
 20
63.6387308258
 40
6.5
  0
CIRCLE
  5
2A5
100
AcDbEntity
  8
RACCORDO
100
AcDbCircle
 62
250
  6
CONTINUOUS
 10
-75.0
 20
63.6387308258
 40
6.2177487349
  0
CIRCLE
  5
2A6
100
AcDbEntity
  8
RACCORDO
100
AcDbCircle
 62
250
  6
CONTINUOUS
 10
-75.0
 20
63.6387308258
 40
5.9188903255
  0
ARC
  5
2A7
100
AcDbEntity
  8
ASSI
100
AcDbCircle
 62
7
  6
CONTINUOUS
 10
-80.9625960722
 20
66.4887308258
 40
3.5
100
AcDbArc
 50
90.0
 51
188.1563787933
  0
ARC
  5
2A8
100
AcDbEntity
  8
ASSI
100
AcDbCircle
 62
7
  6
CONTINUOUS
 10
-38.9625960722
 20
16.4887308258
 40
3.5
100
AcDbArc
 50
90.0
 51
188.1563787933
  0
ARC
  5
2A9
100
AcDbEntity
  8
0
100
AcDbCircle
 62
7
  6
CONTINUOUS
 10
-80.9625960722
 20
66.4887308258
 40
3.5
100
AcDbArc
 50
90.0
 51
188.1563787933
  0
ARC
  5
2AA
100
AcDbEntity
  8
0
100
AcDbCircle
 62
7
  6
CONTINUOUS
 10
-38.9625960722
 20
16.4887308258
 40
3.5
100
AcDbArc
 50
90.0
 51
188.1563787933
  0
ARC
  5
2AB
100
AcDbEntity
  8
0
100
AcDbCircle
 62
7
  6
CONTINUOUS
 10
38.4074360088
 20
-16.9316893897
 40
65.0786221326
100
AcDbArc
 50
165.6094978745
 51
166.1120830346
  0
ARC
  5
2AC
100
AcDbEntity
  8
0
100
AcDbCircle
 62
7
  6
CONTINUOUS
 10
18.5984389163
 20
-20.3768618865
 40
21.2831083462
100
AcDbArc
 50
70.670305175
 51
70.8726465077
  0
ARC
  5
2AD
100
AcDbEntity
  8
0
100
AcDbCircle
 62
7
  6
CONTINUOUS
 10
31.3827184388
 20
-20.3230931087
 40
21.2261338998
100
AcDbArc
 50
109.126856997
 51
109.3308314606
  0
ARC
  5
2AE
100
AcDbEntity
  8
0
100
AcDbCircle
 62
7
  6
CONTINUOUS
 10
18.191996108
 20
-19.6107559565
 40
20.2356304298
100
AcDbArc
 50
72.3023558269
 51
72.635305083
  0
ARC
  5
2AF
100
AcDbEntity
  8
0
100
AcDbCircle
 62
7
  6
CONTINUOUS
 10
31.6071601242
 20
-18.9744438168
 40
19.5683769882
100
AcDbArc
 50
107.3594849673
 51
107.7037814844
  0
ARC
  5
2B0
100
AcDbEntity
  8
TRASH
100
AcDbCircle
 62
7
  6
CONTINUOUS
 10
6.745985212
 20
4.0773471043
 40
18.5221363944
100
AcDbArc
 50
346.5640732288
 51
346.7069232582
  0
ARC
  5
2B1
100
AcDbEntity
  8
TRASH
100
AcDbCircle
 62
7
  6
CONTINUOUS
 10
43.2540146228
 20
4.0773470829
 40
18.5221362393
100
AcDbArc
 50
193.2930767996
 51
193.4359268301
  0
ARC
  5
2B2
100
AcDbEntity
  8
0
100
AcDbCircle
 62
7
  6
CONTINUOUS
 10
16.5252209264
 20
-6.5434351707
 40
11.0100232486
100
AcDbArc
 50
34.7437850219
 51
34.8681321457
  0
ARC
  5
2B3
100
AcDbEntity
  8
0
100
AcDbCircle
 62
7
  6
CONTINUOUS
 10
33.4741916166
 20
-6.5429089779
 40
11.0092407427
100
AcDbArc
 50
145.1323679587
 51
145.2567230836
  0
ARC
  5
2B4
100
AcDbEntity
  8
RACCORDO
100
AcDbCircle
 62
250
  6
CONTINUOUS
 10
6.8176946613
 20
-0.4233306537
 40
7.1837321793
100
AcDbArc
 50
347.2261923128
 51
351.8674696661
  0
ARC
  5
2B5
100
AcDbEntity
  8
RACCORDO
100
AcDbCircle
 62
250
  6
CONTINUOUS
 10
6.9521580713
 20
-0.4429732873
 40
7.0478423014
100
AcDbArc
 50
351.8709121957
 51
359.9813677573
  0
ARC
  5
2B6
100
AcDbEntity
  8
0
100
AcDbCircle
 62
7
  6
CONTINUOUS
 10
6.9849959908
 20
-1.4506602842
 40
7.0150040301
100
AcDbArc
 50
355.4154677867
 51
359.9955859267
  0
ARC
  5
2B7
100
AcDbEntity
  8
0
100
AcDbCircle
 62
7
  6
CONTINUOUS
 10
23.2539425439
 20
-5.6249887079
 40
6.668458436
100
AcDbArc
 50
67.8457764841
 51
68.8822284035
  0
ARC
  5
2B8
100
AcDbEntity
  8
0
100
AcDbCircle
 62
7
  6
CONTINUOUS
 10
26.7458231178
 20
-5.6242822855
 40
6.6677152343
100
AcDbArc
 50
111.118082679
 51
112.154632411
  0
ARC
  5
2B9
100
AcDbEntity
  8
0
100
AcDbCircle
 62
7
  6
CONTINUOUS
 10
28.9152717291
 20
-3.919679239
 40
6.4832423782
100
AcDbArc
 50
131.3575504597
 51
131.4991079099
  0
ARC
  5
2BA
100
AcDbEntity
  8
0
100
AcDbCircle
 62
7
  6
CONTINUOUS
 10
21.0848872921
 20
-3.919499205
 40
6.4830021609
100
AcDbArc
 50
48.5008897537
 51
48.6441273387
  0
ARC
  5
2BB
100
AcDbEntity
  8
RACCORDO
100
AcDbCircle
 62
250
  6
CONTINUOUS
 10
5.9236088638
 20
1.2548137378
 40
5.9263911373
100
AcDbArc
 50
357.2605793664
 51
359.9989164171
  0
ARC
  5
2BC
100
AcDbEntity
  8
RACCORDO
100
AcDbCircle
 62
250
  6
CONTINUOUS
 10
5.0435648683
 20
2.5561020528
 40
5.0564351352
100
AcDbArc
 50
356.2624761854
 51
359.9978710182
  0
ARC
  5
2BD
100
AcDbEntity
  8
0
100
AcDbCircle
 62
7
  6
CONTINUOUS
 10
29.9880740181
 20
-1.5924084909
 40
5.0119168789
100
AcDbArc
 50
355.205233238
 51
359.9975583012
  0
ARC
  5
2BE
100
AcDbEntity
  8
RACCORDO
100
AcDbCircle
 62
250
  6
CONTINUOUS
 10
4.1684641155
 20
3.8099980759
 40
4.1815358913
100
AcDbArc
 50
355.7419424845
 51
359.9967310676
  0
ARC
  5
2BF
100
AcDbEntity
  8
ASSI
100
AcDbCircle
 62
7
  6
CONTINUOUS
 10
36.8127189223
 20
1.4887308258
 40
3.5
100
AcDbArc
 50
270.0
 51
351.8436212067
  0
ARC
  5
2C0
100
AcDbEntity
  8
0
100
AcDbCircle
 62
7
  6
CONTINUOUS
 10
36.8127189223
 20
1.4887308258
 40
3.5
100
AcDbArc
 50
270.0
 51
351.8436212067
  0
ARC
  5
2C1
100
AcDbEntity
  8
0
100
AcDbCircle
 62
7
  6
CONTINUOUS
 10
25.0000001378
 20
1.3083103996
 40
2.6298000983
100
AcDbArc
 50
265.0224935723
 51
274.9733664427
  0
ARC
  5
2C2
100
AcDbEntity
  8
0
100
AcDbCircle
 62
7
  6
CONTINUOUS
 10
24.9999998622
 20
-1.3153934143
 40
2.6298000983
100
AcDbArc
 50
85.0224935914
 51
94.9733664426
  0
ARC
  5
2C3
100
AcDbEntity
  8
RACCORDO
100
AcDbCircle
 62
250
  6
CONTINUOUS
 10
2.0314811636
 20
5.0122292522
 40
2.0685191123
100
AcDbArc
 50
350.6984488513
 51
359.9704069511
  0
ARC
  5
2C4
100
AcDbEntity
  8
TRASH
100
AcDbCircle
 62
7
  6
CONTINUOUS
 10
24.9999871911
 20
-1.8213083594
 40
1.6126711906
100
AcDbArc
 50
81.4830853273
 51
98.5159484919
  0
ARC
  5
2C5
100
AcDbEntity
  8
0
100
AcDbCircle
 62
7
  6
CONTINUOUS
 10
26.3303207897
 20
-1.3743304765
 40
1.420148652
100
AcDbArc
 50
346.5551985628
 51
349.5059410356
  0
ARC
  5
2C6
100
AcDbEntity
  8
0
100
AcDbCircle
 62
7
  6
CONTINUOUS
 10
23.6661612809
 20
-1.3751365348
 40
1.4165397186
100
AcDbArc
 50
188.588670311
 51
193.4461758778
  0
ARC
  5
2C7
100
AcDbEntity
  8
0
100
AcDbCircle
 62
7
  6
CONTINUOUS
 10
23.6337508593
 20
-1.3801032749
 40
1.3837510195
100
AcDbArc
 50
179.8738952339
 51
188.5857356043
  0
ARC
  5
2C8
100
AcDbEntity
  8
0
100
AcDbCircle
 62
7
  6
CONTINUOUS
 10
26.3673536499
 20
-1.380301851
 40
1.382647899
100
AcDbArc
 50
349.4697467788
 51
359.8499686926
  0
ARC
  5
2C9
100
AcDbEntity
  8
0
100
AcDbCircle
 62
7
  6
CONTINUOUS
 10
23.6309857605
 20
-1.3807277627
 40
1.3809874458
100
AcDbArc
 50
172.7707943696
 51
179.8477334319
  0
ARC
  5
2CA
100
AcDbEntity
  8
0
100
AcDbCircle
 62
7
  6
CONTINUOUS
 10
26.3698487401
 20
-1.3806729053
 40
1.3801518939
100
AcDbArc
 50
359.8651013986
 51
6.9452372478
  0
ARC
  5
2CB
100
AcDbEntity
  8
ASSI
100
AcDbCircle
 62
7
  6
CONTINUOUS
 10
54.0586482722
 20
-52.6508026411
 40
9.0586482722
100
AcDbArc
 50
178.4806567191
 51
179.9999281637
  0
ARC
  5
2CC
100
AcDbEntity
  8
0
100
AcDbCircle
 62
7
  6
CONTINUOUS
 10
54.0586482722
 20
-52.6508026411
 40
9.0586482722
100
AcDbArc
 50
178.4806567191
 51
179.9999281637
  0
ARC
  5
2CD
100
AcDbEntity
  8
ASSI
100
AcDbCircle
 62
7
  6
CONTINUOUS
 10
54.027106593
 20
-52.6497786829
 40
9.0270905344
100
AcDbArc
 50
176.5799997757
 51
178.4818454558
  0
ARC
  5
2CE
100
AcDbEntity
  8
0
100
AcDbCircle
 62
7
  6
CONTINUOUS
 10
54.027106593
 20
-52.6497786829
 40
9.0270905344
100
AcDbArc
 50
176.5799997757
 51
178.4818454558
  0
CIRCLE
  5
2CF
100
AcDbEntity
  8
DRAFT
100
AcDbCircle
 62
7
  6
CONTINUOUS
 10
60.0
 20
-36.3612691742
 40
6.5
  0
CIRCLE
  5
2D0
100
AcDbEntity
  8
RACCORDO
100
AcDbCircle
 62
250
  6
CONTINUOUS
 10
60.0
 20
-36.3612691742
 40
6.2177487349
  0
CIRCLE
  5
2D1
100
AcDbEntity
  8
RACCORDO
100
AcDbCircle
 62
250
  6
CONTINUOUS
 10
60.0
 20
-36.3612691742
 40
5.9188903255
  0
ARC
  5
2D2
100
AcDbEntity
  8
ASSI
100
AcDbCircle
 62
7
  6
CONTINUOUS
 10
66.0394963004
 20
-37.6318681531
 40
3.5
100
AcDbArc
 50
292.4341751207
 51
351.8436212067
  0
ARC
  5
2D3
100
AcDbEntity
  8
ASSI
100
AcDbCircle
 62
7
  6
CONTINUOUS
 10
48.5
 20
-52.4465154453
 40
3.5
100
AcDbArc
 50
112.4341751207
 51
174.5035171611
  0
ARC
  5
2D4
100
AcDbEntity
  8
0
100
AcDbCircle
 62
7
  6
CONTINUOUS
 10
66.0394963004
 20
-37.6318681531
 40
3.5
100
AcDbArc
 50
292.4341751207
 51
351.8436212067
  0
ARC
  5
2D5
100
AcDbEntity
  8
0
100
AcDbCircle
 62
7
  6
CONTINUOUS
 10
48.5
 20
-52.4465154453
 40
3.5
100
AcDbArc
 50
112.4341751207
 51
174.5035171611
  0
ARC
  5
2D6
100
AcDbEntity
  8
0
100
AcDbCircle
 62
7
  6
CONTINUOUS
 10
87.2691845942
 20
-16.7783248019
 40
63.9400534278
100
AcDbArc
 50
165.4899952246
 51
166.001628068
  0
ARC
  5
2D7
100
AcDbEntity
  8
0
100
AcDbCircle
 62
7
  6
CONTINUOUS
 10
138.2649219291
 20
36.1796949458
 40
119.4698387009
100
AcDbArc
 50
197.3508479402
 51
197.619994892
  0
ARC
  5
2D8
100
AcDbEntity
  8
0
100
AcDbCircle
 62
7
  6
CONTINUOUS
 10
88.1377113527
 20
36.1531474412
 40
119.3417963464
100
AcDbArc
 50
197.3571844351
 51
197.6265237469
  0
CIRCLE
  5
2D9
100
AcDbEntity
  8
DRAFT
100
AcDbCircle
 62
7
  6
CONTINUOUS
 10
75.0
 20
63.6387308258
 40
6.5
  0
CIRCLE
  5
2DA
100
AcDbEntity
  8
RACCORDO
100
AcDbCircle
 62
250
  6
CONTINUOUS
 10
75.0
 20
63.6387308258
 40
6.2177487349
  0
CIRCLE
  5
2DB
100
AcDbEntity
  8
RACCORDO
100
AcDbCircle
 62
250
  6
CONTINUOUS
 10
75.0
 20
63.6387308258
 40
5.9188903255
  0
ARC
  5
2DC
100
AcDbEntity
  8
ASSI
100
AcDbCircle
 62
7
  6
CONTINUOUS
 10
80.9625960722
 20
66.4887308258
 40
3.5
100
AcDbArc
 50
351.8436212067
 51
90.0
  0
ARC
  5
2DD
100
AcDbEntity
  8
ASSI
100
AcDbCircle
 62
7
  6
CONTINUOUS
 10
38.9625960722
 20
16.4887308258
 40
3.5
100
AcDbArc
 50
351.8436212067
 51
90.0
  0
ARC
  5
2DE
100
AcDbEntity
  8
0
100
AcDbCircle
 62
7
  6
CONTINUOUS
 10
80.9625960722
 20
66.4887308258
 40
3.5
100
AcDbArc
 50
351.8436212067
 51
90.0
  0
ARC
  5
2DF
100
AcDbEntity
  8
0
100
AcDbCircle
 62
7
  6
CONTINUOUS
 10
38.9625960722
 20
16.4887308258
 40
3.5
100
AcDbArc
 50
351.8436212067
 51
90.0
  0
SPLINE
  5
2E0
100
AcDbEntity
  8
0
100
AcDbSpline
 62
7
  6
CONTINUOUS
 70
0
 71
3
 72
8
 73
4
 74
0
 42
0.0000001
 43
0.0000001
 44
0.0000000001
 40
0.0
 40
0.0
 40
0.0
 40
0.0
 40
1.0
 40
1.0
 40
1.0
 40
1.0
 10
-22.4632214562
 20
0.1801938669
 30
0.0
 10
-22.4610781803
 20
0.1738342467
 30
0.0
 10
-22.4595371216
 20
0.1672345722
 30
0.0
 10
-22.4586906477
 20
0.160577104
 30
0.0
  0
SPLINE
  5
2E1
100
AcDbEntity
  8
0
100
AcDbSpline
 62
7
  6
CONTINUOUS
 70
0
 71
3
 72
21
 73
17
 74
0
 42
0.0000001
 43
0.0000001
 44
0.0000000001
 40
0.0
 40
0.0
 40
0.0
 40
0.0
 40
0.0543418549
 40
0.1107564903
 40
0.1697614553
 40
0.2315643302
 40
0.3625114868
 40
0.4309152324
 40
0.5001744145
 40
0.5694240402
 40
0.6377997479
 40
0.7686468269
 40
0.8303882684
 40
0.8893334216
 40
0.9456952332
 40
1.0
 40
1.0
 40
1.0
 40
1.0
 10
-22.4632206312
 20
0.1801898269
 30
0.0
 10
-22.4991271377
 20
0.2867572955
 30
0.0
 10
-22.5971316177
 20
0.4962451015
 30
0.0
 10
-22.808662522
 20
0.7792774817
 30
0.0
 10
-23.079259909
 20
1.0296167787
 30
0.0
 10
-23.5154507632
 20
1.3177353244
 30
0.0
 10
-24.0282454604
 20
1.5119254429
 30
0.0
 10
-24.5760912605
 20
1.6106315875
 30
0.0
 10
-25.004649864
 20
1.6355752486
 30
0.0
 10
-25.4330861676
 20
1.6095330665
 30
0.0
 10
-25.9803882981
 20
1.5094319103
 30
0.0
 10
-26.4922832461
 20
1.3139209864
 30
0.0
 10
-26.9271401843
 20
1.0246045044
 30
0.0
 10
-27.1965453368
 20
0.7735008877
 30
0.0
 10
-27.4067203161
 20
0.4898339059
 30
0.0
 10
-27.5036726146
 20
0.2800565793
 30
0.0
 10
-27.5390523741
 20
0.173393936
 30
0.0
  0
SPLINE
  5
2E2
100
AcDbEntity
  8
0
100
AcDbSpline
 62
7
  6
CONTINUOUS
 70
0
 71
3
 72
9
 73
5
 74
0
 42
0.0000001
 43
0.0000001
 44
0.0000000001
 40
0.0
 40
0.0
 40
0.0
 40
0.0
 40
0.2468617931
 40
1.0
 40
1.0
 40
1.0
 40
1.0
 10
-22.2876459792
 20
-1.701142242
 30
0.0
 10
-22.2938912156
 20
-1.7275560513
 30
0.0
 10
-22.3222250147
 20
-1.8338218292
 30
0.0
 10
-22.3625935114
 20
-1.9368147065
 30
0.0
 10
-22.3987297731
 20
-2.0113202045
 30
0.0
  0
SPLINE
  5
2E3
100
AcDbEntity
  8
0
100
AcDbSpline
 62
7
  6
CONTINUOUS
 70
0
 71
3
 72
9
 73
5
 74
0
 42
0.0000001
 43
0.0000001
 44
0.0000000001
 40
0.0
 40
0.0
 40
0.0
 40
0.0
 40
0.2468993061
 40
1.0
 40
1.0
 40
1.0
 40
1.0
 10
-27.7107362763
 20
-1.7079109039
 30
0.0
 10
-27.7044965181
 20
-1.7337405633
 30
0.0
 10
-27.6763231282
 20
-1.8376418251
 30
0.0
 10
-27.6366522016
 20
-1.9383666337
 30
0.0
 10
-27.601282459
 20
-2.0112949541
 30
0.0
  0
SPLINE
  5
2E4
100
AcDbEntity
  8
0
100
AcDbSpline
 62
7
  6
CONTINUOUS
 70
0
 71
3
 72
16
 73
12
 74
0
 42
0.0000001
 43
0.0000001
 44
0.0000000001
 40
0.0
 40
0.0
 40
0.0
 40
0.0
 40
0.21753735
 40
0.4106485901
 40
0.5776796353
 40
0.7172512923
 40
0.828518187
 40
0.9111955544
 40
0.9421092499
 40
0.966542208
 40
1.0
 40
1.0
 40
1.0
 40
1.0
 10
-27.7499981149
 20
-1.5926034357
 30
0.0
 10
-27.7499979066
 20
-1.603857384
 30
0.0
 10
-27.7497489235
 20
-1.6251032726
 30
0.0
 10
-27.7484761486
 20
-1.6549673106
 30
0.0
 10
-27.7463947376
 20
-1.6807424997
 30
0.0
 10
-27.7435994334
 20
-1.7021921001
 30
0.0
 10
-27.7401838058
 20
-1.7191206894
 30
0.0
 10
-27.7367896087
 20
-1.7302798715
 30
0.0
 10
-27.7336015896
 20
-1.7367283704
 30
0.0
 10
-27.7310729652
 20
-1.740480845
 30
0.0
 10
-27.7282806531
 20
-1.7424747893
 30
0.0
 10
-27.726549769
 20
-1.7424725481
 30
0.0
  0
SPLINE
  5
2E5
100
AcDbEntity
  8
0
100
AcDbSpline
 62
7
  6
CONTINUOUS
 70
0
 71
3
 72
15
 73
11
 74
0
 42
0.0000001
 43
0.0000001
 44
0.0000000001
 40
0.0
 40
0.0
 40
0.0
 40
0.0
 40
0.0333175143
 40
0.0576810609
 40
0.0885227339
 40
0.171045674
 40
0.2821734944
 40
0.421650465
 40
0.5887051674
 40
1.0
 40
1.0
 40
1.0
 40
1.0
 10
-22.272202112
 20
-1.7356648733
 30
0.0
 10
-22.2705575887
 20
-1.7356628998
 30
0.0
 10
-22.2679099765
 20
-1.7337557165
 30
0.0
 10
-22.2655176677
 20
-1.7301792181
 30
0.0
 10
-22.2625003515
 20
-1.7240309078
 30
0.0
 10
-22.2592904194
 20
-1.7133948535
 30
0.0
 10
-22.2560619102
 20
-1.6972567486
 30
0.0
 10
-22.2534155812
 20
-1.6767994588
 30
0.0
 10
-22.2505922136
 20
-1.6414719043
 30
0.0
 10
-22.2500015021
 20
-1.6129045642
 30
0.0
 10
-22.2500018851
 20
-1.5926033978
 30
0.0
  0
SPLINE
  5
2E6
100
AcDbEntity
  8
0
100
AcDbSpline
 62
7
  6
CONTINUOUS
 70
0
 71
3
 72
9
 73
5
 74
0
 42
0.0000001
 43
0.0000001
 44
0.0000000001
 40
0.0
 40
0.0
 40
0.0
 40
0.0
 40
0.2484234843
 40
1.0
 40
1.0
 40
1.0
 40
1.0
 10
-27.6522995916
 20
-0.5086702687
 30
0.0
 10
-27.6496146171
 20
-0.4870708204
 30
0.0
 10
-27.636702853
 20
-0.4003966723
 30
0.0
 10
-27.6154039222
 20
-0.3149922597
 30
0.0
 10
-27.595080198
 20
-0.2523575008
 30
0.0
  0
LINE
  5
2E7
100
AcDbEntity
  8
0
100
AcDbLine
 62
7
  6
CONTINUOUS
 10
-24.6293035461
 20
-0.7577435211
 11
-24.6173243181
 21
-0.7437892368
  0
SPLINE
  5
2E8
100
AcDbEntity
  8
0
100
AcDbSpline
 62
7
  6
CONTINUOUS
 70
0
 71
3
 72
9
 73
5
 74
0
 42
0.0000001
 43
0.0000001
 44
0.0000000001
 40
0.0
 40
0.0
 40
0.0
 40
0.0
 40
0.4924923017
 40
1.0
 40
1.0
 40
1.0
 40
1.0
 10
-24.342346017
 20
-0.3319774016
 30
0.0
 10
-24.3876064695
 20
-0.3995028256
 30
0.0
 10
-24.4797838148
 20
-0.5364265782
 30
0.0
 10
-24.5712477021
 20
-0.6738304741
 30
0.0
 10
-24.6173243181
 20
-0.7437892368
 30
0.0
  0
SPLINE
  5
2E9
100
AcDbEntity
  8
0
100
AcDbSpline
 62
7
  6
CONTINUOUS
 70
0
 71
3
 72
9
 73
5
 74
0
 42
0.0000001
 43
0.0000001
 44
0.0000000001
 40
0.0
 40
0.0
 40
0.0
 40
0.0
 40
0.2472806984
 40
1.0
 40
1.0
 40
1.0
 40
1.0
 10
-22.5885551488
 20
-0.5682219654
 30
0.0
 10
-22.721432766
 20
-0.5337818768
 30
0.0
 10
-23.2619231096
 20
-0.4068275562
 30
0.0
 10
-23.8137148777
 20
-0.3285609287
 30
0.0
 10
-24.2303194877
 20
-0.2964161192
 30
0.0
  0
SPLINE
  5
2EA
100
AcDbEntity
  8
0
100
AcDbSpline
 62
7
  6
CONTINUOUS
 70
0
 71
3
 72
9
 73
5
 74
0
 42
0.0000001
 43
0.0000001
 44
0.0000000001
 40
0.0
 40
0.0
 40
0.0
 40
0.0
 40
0.2524894463
 40
1.0
 40
1.0
 40
1.0
 40
1.0
 10
-25.7675642398
 20
-0.2983349287
 30
0.0
 10
-25.9073362784
 20
-0.3094685353
 30
0.0
 10
-26.4598827585
 20
-0.3654573989
 30
0.0
 10
-27.0077347036
 20
-0.4691491497
 30
0.0
 10
-27.4093267264
 20
-0.5742388618
 30
0.0
  0
SPLINE
  5
2EB
100
AcDbEntity
  8
0
100
AcDbSpline
 62
7
  6
CONTINUOUS
 70
0
 71
3
 72
9
 73
5
 74
0
 42
0.0000001
 43
0.0000001
 44
0.0000000001
 40
0.0
 40
0.0
 40
0.0
 40
0.0
 40
0.5074837482
 40
1.0
 40
1.0
 40
1.0
 40
1.0
 10
-25.3784812726
 20
-0.7447391769
 30
0.0
 10
-25.4248653845
 20
-0.6748925486
 30
0.0
 10
-25.5169464391
 20
-0.5377113857
 30
0.0
 10
-25.6097558044
 20
-0.401024543
 30
0.0
 10
-25.6553360716
 20
-0.3336160103
 30
0.0
  0
LINE
  5
2EC
100
AcDbEntity
  8
0
100
AcDbLine
 62
7
  6
CONTINUOUS
 10
-25.3662981803
 20
-0.7588286281
 11
-25.3784812726
 21
-0.7447391769
  0
SPLINE
  5
2ED
100
AcDbEntity
  8
0
100
AcDbSpline
 62
7
  6
CONTINUOUS
 70
0
 71
3
 72
11
 73
7
 74
0
 42
0.0000001
 43
0.0000001
 44
0.0000000001
 40
0.0
 40
0.0
 40
0.0
 40
0.0
 40
0.2831547472
 40
0.54487959
 40
0.7821315762
 40
1.0
 40
1.0
 40
1.0
 40
1.0
 10
-27.4093267264
 20
-0.5742388618
 30
0.0
 10
-27.4265206321
 20
-0.5787382106
 30
0.0
 10
-27.4588971766
 20
-0.590667585
 30
0.0
 10
-27.5002657969
 20
-0.618054928
 30
0.0
 10
-27.5298056523
 20
-0.6529694167
 30
0.0
 10
-27.5395850468
 20
-0.6807302009
 30
0.0
 10
-27.5413093523
 20
-0.6942960681
 30
0.0
  0
SPLINE
  5
2EE
100
AcDbEntity
  8
0
100
AcDbSpline
 62
7
  6
CONTINUOUS
 70
0
 71
3
 72
11
 73
7
 74
0
 42
0.0000001
 43
0.0000001
 44
0.0000000001
 40
0.0
 40
0.0
 40
0.0
 40
0.0
 40
0.2179218467
 40
0.4551207952
 40
0.7168003011
 40
1.0
 40
1.0
 40
1.0
 40
1.0
 10
-22.4565725229
 20
-0.6879497116
 30
0.0
 10
-22.4582960797
 20
-0.674394037
 30
0.0
 10
-22.468070453
 20
-0.6466595126
 30
0.0
 10
-22.4976176999
 20
-0.6118087296
 30
0.0
 10
-22.5389931036
 20
-0.5845226145
 30
0.0
 10
-22.5713650975
 20
-0.5726773951
 30
0.0
 10
-22.5885551488
 20
-0.5682219654
 30
0.0
  0
SPLINE
  5
2EF
100
AcDbEntity
  8
0
100
AcDbSpline
 62
7
  6
CONTINUOUS
 70
0
 71
3
 72
8
 73
4
 74
0
 42
0.0000001
 43
0.0000001
 44
0.0000000001
 40
0.0
 40
0.0
 40
0.0
 40
0.0
 40
1.0
 40
1.0
 40
1.0
 40
1.0
 10
-27.5434274771
 20
0.1542307475
 30
0.0
 10
-27.5426013117
 20
0.1607305532
 30
0.0
 10
-27.5411141013
 20
0.1671747276
 30
0.0
 10
-27.5390520137
 20
0.1733938769
 30
0.0
  0
LINE
  5
2F0
100
AcDbEntity
  8
0
100
AcDbLine
 62
7
  6
CONTINUOUS
 10
-27.595080198
 20
-0.2523575008
 11
-27.5434274771
 21
0.1542307475
  0
LINE
  5
2F1
100
AcDbEntity
  8
0
100
AcDbLine
 62
7
  6
CONTINUOUS
 10
-22.4586906477
 20
0.160577104
 11
-22.4070379268
 21
-0.2458822069
  0
LINE
  5
2F2
100
AcDbEntity
  8
0
100
AcDbLine
 62
7
  6
CONTINUOUS
 10
-27.5413093523
 20
-0.6942960681
 11
-27.5929620732
 21
-1.1008843164
  0
LINE
  5
2F3
100
AcDbEntity
  8
0
100
AcDbLine
 62
7
  6
CONTINUOUS
 10
-22.404919802
 20
-1.0944090225
 11
-22.4565725229
 21
-0.6879497116
  0
SPLINE
  5
2F4
100
AcDbEntity
  8
0
100
AcDbSpline
 62
7
  6
CONTINUOUS
 70
0
 71
3
 72
9
 73
5
 74
0
 42
0.0000001
 43
0.0000001
 44
0.0000000001
 40
0.0
 40
0.0
 40
0.0
 40
0.0
 40
0.2521516318
 40
1.0
 40
1.0
 40
1.0
 40
1.0
 10
-22.4070379268
 20
-0.2458822069
 30
0.0
 10
-22.3999407093
 20
-0.2674059147
 30
0.0
 10
-22.373823721
 20
-0.3534198762
 30
0.0
 10
-22.3559913343
 20
-0.4419662411
 30
0.0
 10
-22.3476997369
 20
-0.508670227
 30
0.0
  0
SPLINE
  5
2F5
100
AcDbEntity
  8
0
100
AcDbSpline
 62
7
  6
CONTINUOUS
 70
0
 71
3
 72
12
 73
8
 74
0
 42
0.0000001
 43
0.0000001
 44
0.0000000001
 40
0.0
 40
0.0
 40
0.0
 40
0.0
 40
0.1223766721
 40
0.2095862596
 40
0.3191193288
 40
0.6102300171
 40
1.0
 40
1.0
 40
1.0
 40
1.0
 10
-27.726549769
 20
-1.7424725481
 30
0.0
 10
-27.7249375878
 20
-1.7424704605
 30
0.0
 10
-27.7223263357
 20
-1.740743767
 30
0.0
 10
-27.7198972646
 20
-1.7373743365
 30
0.0
 10
-27.7168809819
 20
-1.7316494472
 30
0.0
 10
-27.7136211512
 20
-1.7217249452
 30
0.0
 10
-27.7116800259
 20
-1.7129582358
 30
0.0
 10
-27.7107362763
 20
-1.7079109039
 30
0.0
  0
SPLINE
  5
2F6
100
AcDbEntity
  8
0
100
AcDbSpline
 62
7
  6
CONTINUOUS
 70
0
 71
3
 72
11
 73
7
 74
0
 42
0.0000001
 43
0.0000001
 44
0.0000000001
 40
0.0
 40
0.0
 40
0.0
 40
0.0
 40
0.2205257734
 40
0.4603738827
 40
0.7212660828
 40
1.0
 40
1.0
 40
1.0
 40
1.0
 10
-27.5390520137
 20
0.1733938769
 30
0.0
 10
-27.5351451363
 20
0.1851768162
 30
0.0
 10
-27.5225120499
 20
0.2084088721
 30
0.0
 10
-27.4933144313
 20
0.2372498976
 30
0.0
 10
-27.4554354915
 20
0.2600610561
 30
0.0
 10
-27.4266241224
 20
0.2703158001
 30
0.0
 10
-27.4114448512
 20
0.2742879538
 30
0.0
  0
SPLINE
  5
2F7
100
AcDbEntity
  8
0
100
AcDbSpline
 62
7
  6
CONTINUOUS
 70
0
 71
3
 72
12
 73
8
 74
0
 42
0.0000001
 43
0.0000001
 44
0.0000000001
 40
0.0
 40
0.0
 40
0.0
 40
0.0
 40
0.3914120955
 40
0.6832500997
 40
0.7927296995
 40
0.8795494073
 40
1.0
 40
1.0
 40
1.0
 40
1.0
 10
-22.2876459792
 20
-1.701142242
 30
0.0
 10
-22.2867221578
 20
-1.7061849583
 30
0.0
 10
-22.2848228101
 20
-1.7149397017
 30
0.0
 10
-22.2816388008
 20
-1.7248539882
 30
0.0
 10
-22.278689396
 20
-1.7305775939
 30
0.0
 10
-22.2763340149
 20
-1.7339255897
 30
0.0
 10
-22.2737797493
 20
-1.7356667667
 30
0.0
 10
-22.272202112
 20
-1.7356648733
 30
0.0
  0
SPLINE
  5
2F8
100
AcDbEntity
  8
0
100
AcDbSpline
 62
7
  6
CONTINUOUS
 70
0
 71
3
 72
9
 73
5
 74
0
 42
0.0000001
 43
0.0000001
 44
0.0000000001
 40
0.0
 40
0.0
 40
0.0
 40
0.0
 40
0.2525289453
 40
1.0
 40
1.0
 40
1.0
 40
1.0
 10
-24.2324357602
 20
0.5521105535
 30
0.0
 10
-24.0926711382
 20
0.5413264235
 30
0.0
 10
-23.5402113325
 20
0.4867267049
 30
0.0
 10
-22.9923263243
 20
0.3844079107
 30
0.0
 10
-22.5906732736
 20
0.2803048502
 30
0.0
  0
SPLINE
  5
2F9
100
AcDbEntity
  8
0
100
AcDbSpline
 62
7
  6
CONTINUOUS
 70
0
 71
3
 72
9
 73
5
 74
0
 42
0.0000001
 43
0.0000001
 44
0.0000000001
 40
0.0
 40
0.0
 40
0.0
 40
0.0
 40
0.2444933199
 40
1.0
 40
1.0
 40
1.0
 40
1.0
 10
-24.6215187274
 20
0.9365227587
 30
0.0
 10
-24.5978164057
 20
0.9097673465
 30
0.0
 10
-24.5019690577
 20
0.7993719641
 30
0.0
 10
-24.4105717703
 20
0.6850811503
 30
0.0
 10
-24.3446639284
 20
0.5964469147
 30
0.0
  0
SPLINE
  5
2FA
100
AcDbEntity
  8
0
100
AcDbSpline
 62
7
  6
CONTINUOUS
 70
0
 71
3
 72
9
 73
5
 74
0
 42
0.0000001
 43
0.0000001
 44
0.0000000001
 40
0.0
 40
0.0
 40
0.0
 40
0.0
 40
0.2379201498
 40
1.0
 40
1.0
 40
1.0
 40
1.0
 10
-24.7750919782
 20
1.3047720302
 30
0.0
 10
-24.7629349786
 20
1.2768051456
 30
0.0
 10
-24.7129097148
 20
1.1587925778
 30
0.0
 10
-24.6669320458
 20
1.0390831768
 30
0.0
 10
-24.6337018212
 20
0.9472314775
 30
0.0
  0
SPLINE
  5
2FB
100
AcDbEntity
  8
0
100
AcDbSpline
 62
7
  6
CONTINUOUS
 70
0
 71
3
 72
9
 73
5
 74
0
 42
0.0000001
 43
0.0000001
 44
0.0000000001
 40
0.0
 40
0.0
 40
0.0
 40
0.0
 40
0.2621230557
 40
1.0
 40
1.0
 40
1.0
 40
1.0
 10
-25.3706964539
 20
0.9461864562
 30
0.0
 10
-25.3594006632
 20
0.9778038783
 30
0.0
 10
-25.315516072
 20
1.0981378293
 30
0.0
 10
-25.2683674518
 20
1.2173002954
 30
0.0
 10
-25.2312493377
 20
1.3042191717
 30
0.0
  0
SPLINE
  5
2FC
100
AcDbEntity
  8
0
100
AcDbSpline
 62
7
  6
CONTINUOUS
 70
0
 71
3
 72
9
 73
5
 74
0
 42
0.0000001
 43
0.0000001
 44
0.0000000001
 40
0.0
 40
0.0
 40
0.0
 40
0.0
 40
0.2553862893
 40
1.0
 40
1.0
 40
1.0
 40
1.0
 10
-25.657653983
 20
0.5948082365
 30
0.0
 10
-25.6355356041
 20
0.6248206071
 30
0.0
 10
-25.5475084161
 20
0.7412880924
 30
0.0
 10
-25.4544003986
 20
0.8538931002
 30
0.0
 10
-25.3826756819
 20
0.9355728001
 30
0.0
  0
SPLINE
  5
2FD
100
AcDbEntity
  8
0
100
AcDbSpline
 62
7
  6
CONTINUOUS
 70
0
 71
3
 72
9
 73
5
 74
0
 42
0.0000001
 43
0.0000001
 44
0.0000000001
 40
0.0
 40
0.0
 40
0.0
 40
0.0
 40
0.247319015
 40
1.0
 40
1.0
 40
1.0
 40
1.0
 10
-27.4114448512
 20
0.2742879538
 30
0.0
 10
-27.2785738808
 20
0.3090579971
 30
0.0
 10
-26.7381677594
 20
0.4373428277
 30
0.0
 10
-26.1863511246
 20
0.5170020232
 30
0.0
 10
-25.7696805123
 20
0.5501920344
 30
0.0
  0
SPLINE
  5
2FE
100
AcDbEntity
  8
0
100
AcDbSpline
 62
250
  6
CONTINUOUS
 70
0
 71
3
 72
13
 73
9
 74
0
 42
0.0000001
 43
0.0000001
 44
0.0000000001
 40
0.0
 40
0.0
 40
0.0
 40
0.0
 40
0.2789543884
 40
0.5395526303
 40
0.6620880581
 40
0.779303256
 40
0.8916700374
 40
1.0
 40
1.0
 40
1.0
 40
1.0
 10
-24.1428623572
 20
-2.0117027739
 30
0.0
 10
-23.9413850019
 20
-1.9622103524
 30
0.0
 10
-23.5592511086
 20
-1.8307582726
 30
0.0
 10
-23.1327276678
 20
-1.5756733565
 30
0.0
 10
-22.8535987235
 20
-1.3281542761
 30
0.0
 10
-22.6820530588
 20
-1.1291110501
 30
0.0
 10
-22.547033381
 20
-0.916057065
 30
0.0
 10
-22.4818981023
 20
-0.7644342391
 30
0.0
 10
-22.4565725229
 20
-0.6879497116
 30
0.0
  0
SPLINE
  5
2FF
100
AcDbEntity
  8
0
100
AcDbSpline
 62
250
  6
CONTINUOUS
 70
0
 71
3
 72
13
 73
9
 74
0
 42
0.0000001
 43
0.0000001
 44
0.0000000001
 40
0.0
 40
0.0
 40
0.0
 40
0.0
 40
0.1083672669
 40
0.2207803577
 40
0.3380345807
 40
0.4605912638
 40
0.7211628241
 40
1.0
 40
1.0
 40
1.0
 40
1.0
 10
-27.5413093523
 20
-0.6942960681
 30
0.0
 10
-27.5156934063
 20
-0.7704454259
 30
0.0
 10
-27.4500920747
 20
-0.9213585285
 30
0.0
 10
-27.3147274266
 20
-1.1333479532
 30
0.0
 10
-27.1431547977
 20
-1.3313670066
 30
0.0
 10
-26.8644169441
 20
-1.5775787548
 30
0.0
 10
-26.4390886821
 20
-1.8313546096
 30
0.0
 10
-26.0582528634
 20
-1.9622760712
 30
0.0
 10
-25.8574995541
 20
-2.0116136088
 30
0.0
  0
SPLINE
  5
300
100
AcDbEntity
  8
0
100
AcDbSpline
 62
250
  6
CONTINUOUS
 70
0
 71
3
 72
23
 73
19
 74
0
 42
0.0000001
 43
0.0000001
 44
0.0000000001
 40
0.0
 40
0.0
 40
0.0
 40
0.0
 40
0.0523668103
 40
0.1075297636
 40
0.1659935537
 40
0.2278529227
 40
0.2928460591
 40
0.360427515
 40
0.4298436965
 40
0.5002053572
 40
0.5705567315
 40
0.6399427654
 40
0.7074763701
 40
0.7724076134
 40
0.8341962925
 40
0.8925874541
 40
0.9476841272
 40
1.0
 40
1.0
 40
1.0
 40
1.0
 10
-27.4093267264
 20
-0.5742388618
 30
0.0
 10
-27.3752575183
 20
-0.6702946312
 30
0.0
 10
-27.2826192746
 20
-0.8600563085
 30
0.0
 10
-27.0841450204
 20
-1.1173069946
 30
0.0
 10
-26.8292127051
 20
-1.3470956216
 30
0.0
 10
-26.5250750155
 20
-1.5434962058
 30
0.0
 10
-26.1799812618
 20
-1.7016394408
 30
0.0
 10
-25.8032072506
 20
-1.8174722649
 30
0.0
 10
-25.404856795
 20
-1.887999527
 30
0.0
 10
-24.9956257557
 20
-1.9113750712
 30
0.0
 10
-24.5865122968
 20
-1.8869850664
 30
0.0
 10
-24.1885112964
 20
-1.8154699711
 30
0.0
 10
-23.8123089368
 20
-1.6987014938
 30
0.0
 10
-23.4679936271
 20
-1.5396981993
 30
0.0
 10
-23.1648211724
 20
-1.3425336977
 30
0.0
 10
-22.9110186448
 20
-1.1120947375
 30
0.0
 10
-22.71381485
 20
-0.8543244647
 30
0.0
 10
-22.622138164
 20
-0.6643437884
 30
0.0
 10
-22.5885551488
 20
-0.5682219654
 30
0.0
  0
SPLINE
  5
301
100
AcDbEntity
  8
0
100
AcDbSpline
 62
250
  6
CONTINUOUS
 70
0
 71
3
 72
23
 73
19
 74
0
 42
0.0000001
 43
0.0000001
 44
0.0000000001
 40
0.0
 40
0.0
 40
0.0
 40
0.0
 40
0.0523668103
 40
0.1075297636
 40
0.1659935537
 40
0.2278529227
 40
0.2928460591
 40
0.360427515
 40
0.4298436965
 40
0.5002053572
 40
0.5705567315
 40
0.6399427654
 40
0.7074763701
 40
0.7724076134
 40
0.8341962925
 40
0.8925874541
 40
0.9476841272
 40
1.0
 40
1.0
 40
1.0
 40
1.0
 10
-22.5906732736
 20
0.2803048502
 30
0.0
 10
-22.6247424817
 20
0.3763606197
 30
0.0
 10
-22.7173807254
 20
0.566122297
 30
0.0
 10
-22.9158549796
 20
0.823372983
 30
0.0
 10
-23.1707872949
 20
1.0531616101
 30
0.0
 10
-23.4749249845
 20
1.2495621942
 30
0.0
 10
-23.8200187382
 20
1.4077054292
 30
0.0
 10
-24.1967927494
 20
1.5235382534
 30
0.0
 10
-24.595143205
 20
1.5940655154
 30
0.0
 10
-25.0043742443
 20
1.6174410597
 30
0.0
 10
-25.4134877032
 20
1.5930510549
 30
0.0
 10
-25.8114887036
 20
1.5215359596
 30
0.0
 10
-26.1876910632
 20
1.4047674822
 30
0.0
 10
-26.5320063729
 20
1.2457641878
 30
0.0
 10
-26.8351788276
 20
1.0485996861
 30
0.0
 10
-27.0889813552
 20
0.8181607259
 30
0.0
 10
-27.28618515
 20
0.5603904531
 30
0.0
 10
-27.377861836
 20
0.3704097768
 30
0.0
 10
-27.4114448512
 20
0.2742879538
 30
0.0
  0
SPLINE
  5
302
100
AcDbEntity
  8
0
100
AcDbSpline
 62
7
  6
CONTINUOUS
 70
0
 71
3
 72
9
 73
5
 74
0
 42
0.0000001
 43
0.0000001
 44
0.0000000001
 40
0.0
 40
0.0
 40
0.0
 40
0.0
 40
0.4973498185
 40
1.0
 40
1.0
 40
1.0
 40
1.0
 10
-22.3476997369
 20
-0.508670227
 30
0.0
 10
-22.335591092
 20
-0.6060814782
 30
0.0
 10
-22.3328945027
 20
-0.805279774
 30
0.0
 10
-22.3743006673
 20
-1.0000453071
 30
0.0
 10
-22.404919802
 20
-1.0944090225
 30
0.0
  0
SPLINE
  5
303
100
AcDbEntity
  8
0
100
AcDbSpline
 62
7
  6
CONTINUOUS
 70
0
 71
3
 72
11
 73
7
 74
0
 42
0.0000001
 43
0.0000001
 44
0.0000000001
 40
0.0
 40
0.0
 40
0.0
 40
0.0
 40
0.2786899265
 40
0.5395364109
 40
0.7793927925
 40
1.0
 40
1.0
 40
1.0
 40
1.0
 10
-22.5906732736
 20
0.2803048502
 30
0.0
 10
-22.575546497
 20
0.2763841935
 30
0.0
 10
-22.5468275434
 20
0.2662440188
 30
0.0
 10
-22.5090358636
 20
0.2436346554
 30
0.0
 10
-22.4798546756
 20
0.2150049968
 30
0.0
 10
-22.4671719354
 20
0.1919158983
 30
0.0
 10
-22.4632214562
 20
0.1801938669
 30
0.0
  0
LINE
  5
304
100
AcDbEntity
  8
0
100
AcDbLine
 62
7
  6
CONTINUOUS
 10
-24.4010601389
 20
0.0166231646
 11
-24.3446639284
 21
0.5964469147
  0
LINE
  5
305
100
AcDbEntity
  8
0
100
AcDbLine
 62
7
  6
CONTINUOUS
 10
-24.4424454962
 20
-0.2484226377
 11
-24.4010601389
 21
0.0166231646
  0
LINE
  5
306
100
AcDbEntity
  8
0
100
AcDbLine
 62
7
  6
CONTINUOUS
 10
-24.7738731765
 20
-0.1812039147
 11
-24.6337018212
 21
0.9472314775
  0
LINE
  5
307
100
AcDbEntity
  8
0
100
AcDbLine
 62
7
  6
CONTINUOUS
 10
-24.7738286687
 20
-0.1811995004
 11
-24.7750919782
 21
1.3047720302
  0
SPLINE
  5
308
100
AcDbEntity
  8
0
100
AcDbSpline
 62
7
  6
CONTINUOUS
 70
0
 71
3
 72
9
 73
5
 74
0
 42
0.0000001
 43
0.0000001
 44
0.0000000001
 40
0.0
 40
0.0
 40
0.0
 40
0.0
 40
0.2501629907
 40
1.0
 40
1.0
 40
1.0
 40
1.0
 10
-25.2303740294
 20
-0.1817581867
 30
0.0
 10
-25.2303573091
 20
-0.057845982
 30
0.0
 10
-25.2304465359
 20
0.4374799213
 30
0.0
 10
-25.2308725094
 20
0.9328056794
 30
0.0
 10
-25.2312493377
 20
1.3042191717
 30
0.0
  0
SPLINE
  5
309
100
AcDbEntity
  8
0
100
AcDbSpline
 62
7
  6
CONTINUOUS
 70
0
 71
3
 72
9
 73
5
 74
0
 42
0.0000001
 43
0.0000001
 44
0.0000000001
 40
0.0
 40
0.0
 40
0.0
 40
0.0
 40
0.5001257487
 40
1.0
 40
1.0
 40
1.0
 40
1.0
 10
-25.3706964539
 20
0.9461864562
 30
0.0
 10
-25.3473255614
 20
0.7581388547
 30
0.0
 10
-25.3007645245
 20
0.3821171606
 30
0.0
 10
-25.253528052
 20
0.0061796161
 30
0.0
 10
-25.230168912
 20
-0.1817734221
 30
0.0
  0
LINE
  5
30A
100
AcDbEntity
  8
0
100
AcDbLine
 62
7
  6
CONTINUOUS
 10
-25.6010581341
 20
0.0151249329
 11
-25.5596729985
 21
-0.2498170705
  0
LINE
  5
30B
100
AcDbEntity
  8
0
100
AcDbLine
 62
7
  6
CONTINUOUS
 10
-25.6010581341
 20
0.0151249329
 11
-25.657653983
 21
0.5948082365
  0
SPLINE
  5
30C
100
AcDbEntity
  8
0
100
AcDbSpline
 62
7
  6
CONTINUOUS
 70
0
 71
3
 72
9
 73
5
 74
0
 42
0.0000001
 43
0.0000001
 44
0.0000000001
 40
0.0
 40
0.0
 40
0.0
 40
0.0
 40
0.5027463772
 40
1.0
 40
1.0
 40
1.0
 40
1.0
 10
-27.5929620732
 20
-1.1008843164
 30
0.0
 10
-27.6243905942
 20
-1.0055711447
 30
0.0
 10
-27.6670209918
 20
-0.8087002204
 30
0.0
 10
-27.664544688
 20
-0.6071767234
 30
0.0
 10
-27.6522995916
 20
-0.5086702687
 30
0.0
  0
SPLINE
  5
30D
100
AcDbEntity
  8
TRASH
100
AcDbSpline
 62
7
  6
CONTINUOUS
 70
0
 71
3
 72
9
 73
5
 74
0
 42
0.0000001
 43
0.0000001
 44
0.0000000001
 40
0.0
 40
0.0
 40
0.0
 40
0.0
 40
0.5055279173
 40
1.0
 40
1.0
 40
1.0
 40
1.0
 10
-24.7631549824
 20
-0.2261245624
 30
0.0
 10
-24.7301485133
 20
-0.2993033566
 30
0.0
 10
-24.6640907303
 20
-0.4437145735
 30
0.0
 10
-24.5952732944
 20
-0.5868581044
 30
0.0
 10
-24.5599130353
 20
-0.6569681161
 30
0.0
  0
SPLINE
  5
30E
100
AcDbEntity
  8
TRASH
100
AcDbSpline
 62
7
  6
CONTINUOUS
 70
0
 71
3
 72
9
 73
5
 74
0
 42
0.0000001
 43
0.0000001
 44
0.0000000001
 40
0.0
 40
0.0
 40
0.0
 40
0.0
 40
0.494581925
 40
1.0
 40
1.0
 40
1.0
 40
1.0
 10
-25.4398628237
 20
-0.6527717522
 30
0.0
 10
-25.4052361982
 20
-0.5834019603
 30
0.0
 10
-25.3379032276
 20
-0.4418091541
 30
0.0
 10
-25.2731459697
 20
-0.29904598
 30
0.0
 10
-25.2408050039
 20
-0.2267166992
 30
0.0
  0
SPLINE
  5
30F
100
AcDbEntity
  8
0
100
AcDbSpline
 62
7
  6
CONTINUOUS
 70
0
 71
3
 72
9
 73
5
 74
0
 42
0.0000001
 43
0.0000001
 44
0.0000000001
 40
0.0
 40
0.0
 40
0.0
 40
0.0
 40
0.2525001308
 40
1.0
 40
1.0
 40
1.0
 40
1.0
 10
27.5378415597
 20
0.1770270046
 30
0.0
 10
27.5383831789
 20
0.1754192154
 30
0.0
 10
27.5403748289
 20
0.169001306
 30
0.0
 10
27.5417389792
 20
0.162386992
 30
0.0
 10
27.5423723752
 20
0.1574045867
 30
0.0
  0
SPLINE
  5
310
100
AcDbEntity
  8
0
100
AcDbSpline
 62
7
  6
CONTINUOUS
 70
0
 71
3
 72
21
 73
17
 74
0
 42
0.0000001
 43
0.0000001
 44
0.0000000001
 40
0.0
 40
0.0
 40
0.0
 40
0.0
 40
0.0543192947
 40
0.1107039978
 40
0.1696756919
 40
0.2314458287
 40
0.3623412782
 40
0.4307308342
 40
0.4999851939
 40
0.5692397246
 40
0.6376296963
 40
0.7685285748
 40
0.8303027544
 40
0.8892811394
 40
0.9456727993
 40
1.0
 40
1.0
 40
1.0
 40
1.0
 10
27.5378423856
 20
0.1770229636
 30
0.0
 10
27.5021875389
 20
0.2836256847
 30
0.0
 10
27.4046807107
 20
0.4932282253
 30
0.0
 10
27.1938115313
 20
0.7765370113
 30
0.0
 10
26.9238010541
 20
1.0272220148
 30
0.0
 10
26.4882698965
 20
1.3159025115
 30
0.0
 10
25.9759228682
 20
1.5107239312
 30
0.0
 10
25.4283478828
 20
1.6101031647
 30
0.0
 10
24.999849167
 20
1.635578224
 30
0.0
 10
24.5713516592
 20
1.6100673675
 30
0.0
 10
24.0237771203
 20
1.5106389331
 30
0.0
 10
23.5114330062
 20
1.3157588509
 30
0.0
 10
23.0759149058
 20
1.0270035031
 30
0.0
 10
22.8059219249
 20
0.776244909
 30
0.0
 10
22.5950846606
 20
0.4928534531
 30
0.0
 10
22.4976339523
 20
0.2831901858
 30
0.0
 10
22.4620027346
 20
0.1765623144
 30
0.0
  0
SPLINE
  5
311
100
AcDbEntity
  8
0
100
AcDbSpline
 62
7
  6
CONTINUOUS
 70
0
 71
3
 72
9
 73
5
 74
0
 42
0.0000001
 43
0.0000001
 44
0.0000000001
 40
0.0
 40
0.0
 40
0.0
 40
0.0
 40
0.2468803693
 40
1.0
 40
1.0
 40
1.0
 40
1.0
 10
27.7115493726
 20
-1.7045270777
 30
0.0
 10
27.7053061335
 20
-1.7306488619
 30
0.0
 10
27.6770498896
 20
-1.8357324923
 30
0.0
 10
27.6370290898
 20
-1.9375913036
 30
0.0
 10
27.6012758607
 20
-2.0113085734
 30
0.0
  0
SPLINE
  5
312
100
AcDbEntity
  8
0
100
AcDbSpline
 62
7
  6
CONTINUOUS
 70
0
 71
3
 72
9
 73
5
 74
0
 42
0.0000001
 43
0.0000001
 44
0.0000000001
 40
0.0
 40
0.0
 40
0.0
 40
0.0
 40
0.2468803693
 40
1.0
 40
1.0
 40
1.0
 40
1.0
 10
22.2884506274
 20
-1.7045270777
 30
0.0
 10
22.2946938665
 20
-1.7306488619
 30
0.0
 10
22.3229501104
 20
-1.8357324923
 30
0.0
 10
22.3629709102
 20
-1.9375913036
 30
0.0
 10
22.3987241393
 20
-2.0113085734
 30
0.0
  0
SPLINE
  5
313
100
AcDbEntity
  8
0
100
AcDbSpline
 62
7
  6
CONTINUOUS
 70
0
 71
3
 72
16
 73
12
 74
0
 42
0.0000001
 43
0.0000001
 44
0.0000000001
 40
0.0
 40
0.0
 40
0.0
 40
0.0
 40
0.2177177894
 40
0.4109785568
 40
0.5781228511
 40
0.7177646542
 40
0.8290491638
 40
0.91167517
 40
0.9425267769
 40
0.9668644023
 40
1.0
 40
1.0
 40
1.0
 40
1.0
 10
22.250006169
 20
-1.5891711163
 30
0.0
 10
22.2499785548
 20
-1.6004248485
 30
0.0
 10
22.2501725899
 20
-1.6216703612
 30
0.0
 10
22.2513591856
 20
-1.6515354719
 30
0.0
 10
22.2533563671
 20
-1.6773125907
 30
0.0
 10
22.2560699168
 20
-1.6987642938
 30
0.0
 10
22.2594078846
 20
-1.7156956008
 30
0.0
 10
22.2627350387
 20
-1.726857535
 30
0.0
 10
22.2658719104
 20
-1.7333134003
 30
0.0
 10
22.2683526357
 20
-1.7370598211
 30
0.0
 10
22.2711091542
 20
-1.7390691959
 30
0.0
 10
22.2728219231
 20
-1.7390691002
 30
0.0
  0
SPLINE
  5
314
100
AcDbEntity
  8
0
100
AcDbSpline
 62
7
  6
CONTINUOUS
 70
0
 71
3
 72
15
 73
11
 74
0
 42
0.0000001
 43
0.0000001
 44
0.0000000001
 40
0.0
 40
0.0
 40
0.0
 40
0.0
 40
0.0336469834
 40
0.058108492
 40
0.0890141474
 40
0.1715904543
 40
0.2827008224
 40
0.4221063597
 40
0.5890451738
 40
1.0
 40
1.0
 40
1.0
 40
1.0
 10
27.7271780769
 20
-1.7390691002
 30
0.0
 10
27.7288403127
 20
-1.739069193
 30
0.0
 10
27.7315226569
 20
-1.7371768528
 30
0.0
 10
27.733961674
 20
-1.7335945874
 30
0.0
 10
27.7370287288
 20
-1.7274533811
 30
0.0
 10
27.7403038657
 20
-1.7168200252
 30
0.0
 10
27.7436078595
 20
-1.7006845053
 30
0.0
 10
27.7463336729
 20
-1.6802292749
 30
0.0
 10
27.7492744541
 20
-1.6449063092
 30
0.0
 10
27.7499430396
 20
-1.6163377365
 30
0.0
 10
27.749993831
 20
-1.5960357173
 30
0.0
  0
SPLINE
  5
315
100
AcDbEntity
  8
0
100
AcDbSpline
 62
7
  6
CONTINUOUS
 70
0
 71
3
 72
9
 73
5
 74
0
 42
0.0000001
 43
0.0000001
 44
0.0000000001
 40
0.0
 40
0.0
 40
0.0
 40
0.0
 40
0.2484029625
 40
1.0
 40
1.0
 40
1.0
 40
1.0
 10
22.3481157023
 20
-0.505360145
 30
0.0
 10
22.3508546694
 20
-0.4837634549
 30
0.0
 10
22.3639839929
 20
-0.3970984111
 30
0.0
 10
22.3854963033
 20
-0.3117238306
 30
0.0
 10
22.4059748234
 20
-0.2491191929
 30
0.0
  0
LINE
  5
316
100
AcDbEntity
  8
0
100
AcDbLine
 62
7
  6
CONTINUOUS
 10
25.3685691724
 20
-0.7582048665
 11
25.3805790454
 21
-0.7442655528
  0
SPLINE
  5
317
100
AcDbEntity
  8
0
100
AcDbSpline
 62
7
  6
CONTINUOUS
 70
0
 71
3
 72
9
 73
5
 74
0
 42
0.0000001
 43
0.0000001
 44
0.0000000001
 40
0.0
 40
0.0
 40
0.0
 40
0.0
 40
0.4925042487
 40
1.0
 40
1.0
 40
1.0
 40
1.0
 10
25.6564962216
 20
-0.3327975088
 30
0.0
 10
25.6110759883
 20
-0.4002647381
 30
0.0
 10
25.5185819703
 20
-0.5370699211
 30
0.0
 10
25.4268094848
 20
-0.6743627501
 30
0.0
 10
25.3805790454
 20
-0.7442655528
 30
0.0
  0
SPLINE
  5
318
100
AcDbEntity
  8
0
100
AcDbSpline
 62
7
  6
CONTINUOUS
 70
0
 71
3
 72
9
 73
5
 74
0
 42
0.0000001
 43
0.0000001
 44
0.0000000001
 40
0.0
 40
0.0
 40
0.0
 40
0.0
 40
0.2472998602
 40
1.0
 40
1.0
 40
1.0
 40
1.0
 10
27.4103895437
 20
-0.5712310745
 30
0.0
 10
27.2775150438
 20
-0.5366260046
 30
0.0
 10
26.7370659799
 20
-0.4090063787
 30
0.0
 10
26.1852609105
 20
-0.3300434805
 30
0.0
 10
25.7686226472
 20
-0.2973761111
 30
0.0
  0
SPLINE
  5
319
100
AcDbEntity
  8
0
100
AcDbSpline
 62
7
  6
CONTINUOUS
 70
0
 71
3
 72
9
 73
5
 74
0
 42
0.0000001
 43
0.0000001
 44
0.0000000001
 40
0.0
 40
0.0
 40
0.0
 40
0.0
 40
0.2525091919
 40
1.0
 40
1.0
 40
1.0
 40
1.0
 10
24.2313755005
 20
-0.2973762563
 30
0.0
 10
24.091606952
 20
-0.30833512
 30
0.0
 10
23.5391029425
 20
-0.3636293575
 30
0.0
 10
22.9912336103
 20
-0.4666346523
 30
0.0
 10
22.5896104563
 20
-0.5712310745
 30
0.0
  0
SPLINE
  5
31A
100
AcDbEntity
  8
0
100
AcDbSpline
 62
7
  6
CONTINUOUS
 70
0
 71
3
 72
9
 73
5
 74
0
 42
0.0000001
 43
0.0000001
 44
0.0000000001
 40
0.0
 40
0.0
 40
0.0
 40
0.0
 40
0.5074957252
 40
1.0
 40
1.0
 40
1.0
 40
1.0
 10
24.6194209054
 20
-0.7442654784
 30
0.0
 10
24.5731904822
 20
-0.6743627004
 30
0.0
 10
24.4814177605
 20
-0.5370700909
 30
0.0
 10
24.3889247617
 20
-0.4002642811
 30
0.0
 10
24.3435041219
 20
-0.3327973497
 30
0.0
  0
LINE
  5
31B
100
AcDbEntity
  8
0
100
AcDbLine
 62
7
  6
CONTINUOUS
 10
24.6315730276
 20
-0.7583701162
 11
24.6194209054
 21
-0.7442654784
  0
SPLINE
  5
31C
100
AcDbEntity
  8
0
100
AcDbSpline
 62
7
  6
CONTINUOUS
 70
0
 71
3
 72
11
 73
7
 74
0
 42
0.0000001
 43
0.0000001
 44
0.0000000001
 40
0.0
 40
0.0
 40
0.0
 40
0.0
 40
0.2831787323
 40
0.5448815818
 40
0.7821061974
 40
1.0
 40
1.0
 40
1.0
 40
1.0
 10
22.5896104563
 20
-0.5712310745
 30
0.0
 10
22.5724183618
 20
-0.5757084846
 30
0.0
 10
22.5400439204
 20
-0.5875958433
 30
0.0
 10
22.498671824
 20
-0.6149326892
 30
0.0
 10
22.4691283674
 20
-0.6498153171
 30
0.0
 10
22.4593515492
 20
-0.6775628546
 30
0.0
 10
22.4576276248
 20
-0.6911235508
 30
0.0
  0
SPLINE
  5
31D
100
AcDbEntity
  8
0
100
AcDbSpline
 62
7
  6
CONTINUOUS
 70
0
 71
3
 72
11
 73
7
 74
0
 42
0.0000001
 43
0.0000001
 44
0.0000000001
 40
0.0
 40
0.0
 40
0.0
 40
0.0
 40
0.2178962684
 40
0.4551225895
 40
0.7168241882
 40
1.0
 40
1.0
 40
1.0
 40
1.0
 10
27.5423723752
 20
-0.6911235508
 30
0.0
 10
27.5406484313
 20
-0.6775627015
 30
0.0
 10
27.5308714402
 20
-0.6498149213
 30
0.0
 10
27.5013277072
 20
-0.6149322841
 30
0.0
 10
27.4599556591
 20
-0.5875956684
 30
0.0
 10
27.4275814605
 20
-0.5757084383
 30
0.0
 10
27.4103895437
 20
-0.5712310745
 30
0.0
  0
SPLINE
  5
31E
100
AcDbEntity
  8
0
100
AcDbSpline
 62
7
  6
CONTINUOUS
 70
0
 71
3
 72
8
 73
4
 74
0
 42
0.0000001
 43
0.0000001
 44
0.0000000001
 40
0.0
 40
0.0
 40
0.0
 40
0.0
 40
1.0
 40
1.0
 40
1.0
 40
1.0
 10
22.4576276248
 20
0.1574045867
 30
0.0
 10
22.4584536968
 20
0.1639026158
 30
0.0
 10
22.459940794
 20
0.1703450457
 30
0.0
 10
22.4620030951
 20
0.176562255
 30
0.0
  0
LINE
  5
31F
100
AcDbEntity
  8
0
100
AcDbLine
 62
7
  6
CONTINUOUS
 10
22.4059748234
 20
-0.2491191929
 11
22.4576276248
 21
0.1574045867
  0
LINE
  5
320
100
AcDbEntity
  8
0
100
AcDbLine
 62
7
  6
CONTINUOUS
 10
27.5423723752
 20
0.1574045867
 11
27.5940251766
 21
-0.2491191929
  0
LINE
  5
321
100
AcDbEntity
  8
0
100
AcDbLine
 62
7
  6
CONTINUOUS
 10
22.4576276248
 20
-0.6911235508
 11
22.4059748234
 21
-1.0976473303
  0
LINE
  5
322
100
AcDbEntity
  8
0
100
AcDbLine
 62
7
  6
CONTINUOUS
 10
27.5940251766
 20
-1.0976473303
 11
27.5423723752
 21
-0.6911235508
  0
SPLINE
  5
323
100
AcDbEntity
  8
0
100
AcDbSpline
 62
7
  6
CONTINUOUS
 70
0
 71
3
 72
9
 73
5
 74
0
 42
0.0000001
 43
0.0000001
 44
0.0000000001
 40
0.0
 40
0.0
 40
0.0
 40
0.0
 40
0.2521315231
 40
1.0
 40
1.0
 40
1.0
 40
1.0
 10
27.5940251766
 20
-0.2491191929
 30
0.0
 10
27.6010688271
 20
-0.2706522521
 30
0.0
 10
27.6269730552
 20
-0.3567056275
 30
0.0
 10
27.6445829297
 20
-0.4452724787
 30
0.0
 10
27.6527072936
 20
-0.5119808647
 30
0.0
  0
SPLINE
  5
324
100
AcDbEntity
  8
0
100
AcDbSpline
 62
7
  6
CONTINUOUS
 70
0
 71
3
 72
12
 73
8
 74
0
 42
0.0000001
 43
0.0000001
 44
0.0000000001
 40
0.0
 40
0.0
 40
0.0
 40
0.0
 40
0.1214160526
 40
0.2084304158
 40
0.3179362544
 40
0.6094096528
 40
1.0
 40
1.0
 40
1.0
 40
1.0
 10
22.2728219231
 20
-1.7390691002
 30
0.0
 10
22.2744168156
 20
-1.7390690111
 30
0.0
 10
22.2769996446
 20
-1.7373351869
 30
0.0
 10
22.2793918509
 20
-1.7339763954
 30
0.0
 10
22.2823747045
 20
-1.7282521815
 30
0.0
 10
22.2855966192
 20
-1.7183327804
 30
0.0
 10
22.2875168436
 20
-1.7095720906
 30
0.0
 10
22.2884506274
 20
-1.7045270777
 30
0.0
  0
SPLINE
  5
325
100
AcDbEntity
  8
0
100
AcDbSpline
 62
7
  6
CONTINUOUS
 70
0
 71
3
 72
11
 73
7
 74
0
 42
0.0000001
 43
0.0000001
 44
0.0000000001
 40
0.0
 40
0.0
 40
0.0
 40
0.0
 40
0.2205266174
 40
0.4603497039
 40
0.7212323884
 40
1.0
 40
1.0
 40
1.0
 40
1.0
 10
22.4620030951
 20
0.176562255
 30
0.0
 10
22.4659094225
 20
0.188338642
 30
0.0
 10
22.4785416481
 20
0.2115552177
 30
0.0
 10
22.507741941
 20
0.2403622774
 30
0.0
 10
22.5456230577
 20
0.2631266747
 30
0.0
 10
22.5744325949
 20
0.2733442281
 30
0.0
 10
22.5896104563
 20
0.2772970629
 30
0.0
  0
SPLINE
  5
326
100
AcDbEntity
  8
0
100
AcDbSpline
 62
7
  6
CONTINUOUS
 70
0
 71
3
 72
12
 73
8
 74
0
 42
0.0000001
 43
0.0000001
 44
0.0000000001
 40
0.0
 40
0.0
 40
0.0
 40
0.0
 40
0.3905903479
 40
0.6820637461
 40
0.7915695842
 40
0.8785839473
 40
1.0
 40
1.0
 40
1.0
 40
1.0
 10
27.7115493726
 20
-1.7045270777
 30
0.0
 10
27.7124831564
 20
-1.7095720906
 30
0.0
 10
27.7144033808
 20
-1.7183327804
 30
0.0
 10
27.7176252955
 20
-1.7282521815
 30
0.0
 10
27.7206081491
 20
-1.7339763954
 30
0.0
 10
27.7230003554
 20
-1.7373351869
 30
0.0
 10
27.7255831844
 20
-1.7390690111
 30
0.0
 10
27.7271780769
 20
-1.7390691002
 30
0.0
  0
SPLINE
  5
327
100
AcDbEntity
  8
0
100
AcDbSpline
 62
7
  6
CONTINUOUS
 70
0
 71
3
 72
9
 73
5
 74
0
 42
0.0000001
 43
0.0000001
 44
0.0000000001
 40
0.0
 40
0.0
 40
0.0
 40
0.0
 40
0.2525091919
 40
1.0
 40
1.0
 40
1.0
 40
1.0
 10
25.7686244995
 20
0.5511518811
 30
0.0
 10
25.908393048
 20
0.5401930174
 30
0.0
 10
26.4608970575
 20
0.4848987799
 30
0.0
 10
27.0087663897
 20
0.3818934851
 30
0.0
 10
27.4103895437
 20
0.2772970629
 30
0.0
  0
SPLINE
  5
328
100
AcDbEntity
  8
0
100
AcDbSpline
 62
7
  6
CONTINUOUS
 70
0
 71
3
 72
9
 73
5
 74
0
 42
0.0000001
 43
0.0000001
 44
0.0000000001
 40
0.0
 40
0.0
 40
0.0
 40
0.0
 40
0.2444774348
 40
1.0
 40
1.0
 40
1.0
 40
1.0
 10
25.3805790946
 20
0.9360490603
 30
0.0
 10
25.4042039709
 20
0.9092635094
 30
0.0
 10
25.4997403198
 20
0.7987415194
 30
0.0
 10
25.5908244105
 20
0.6843392149
 30
0.0
 10
25.6564958781
 20
0.5956282542
 30
0.0
  0
SPLINE
  5
329
100
AcDbEntity
  8
0
100
AcDbSpline
 62
7
  6
CONTINUOUS
 70
0
 71
3
 72
9
 73
5
 74
0
 42
0.0000001
 43
0.0000001
 44
0.0000000001
 40
0.0
 40
0.0
 40
0.0
 40
0.0
 40
0.2378981478
 40
1.0
 40
1.0
 40
1.0
 40
1.0
 10
25.2281735282
 20
1.3044892806
 30
0.0
 10
25.2402357223
 20
1.276506316
 30
0.0
 10
25.2898709346
 20
1.1584207853
 30
0.0
 10
25.3354735135
 20
1.0386589675
 30
0.0
 10
25.3684269708
 20
0.9467729657
 30
0.0
  0
SPLINE
  5
32A
100
AcDbEntity
  8
0
100
AcDbSpline
 62
7
  6
CONTINUOUS
 70
0
 71
3
 72
9
 73
5
 74
0
 42
0.0000001
 43
0.0000001
 44
0.0000000001
 40
0.0
 40
0.0
 40
0.0
 40
0.0
 40
0.2621021751
 40
1.0
 40
1.0
 40
1.0
 40
1.0
 10
24.6314308276
 20
0.9466478015
 30
0.0
 10
24.6428212348
 20
0.9782518185
 30
0.0
 10
24.6870738326
 20
1.0985404149
 30
0.0
 10
24.7346052645
 20
1.2176418184
 30
0.0
 10
24.7720154992
 20
1.3045057607
 30
0.0
  0
SPLINE
  5
32B
100
AcDbEntity
  8
0
100
AcDbSpline
 62
7
  6
CONTINUOUS
 70
0
 71
3
 72
9
 73
5
 74
0
 42
0.0000001
 43
0.0000001
 44
0.0000000001
 40
0.0
 40
0.0
 40
0.0
 40
0.0
 40
0.2553705007
 40
1.0
 40
1.0
 40
1.0
 40
1.0
 10
24.3435037784
 20
0.5956283438
 30
0.0
 10
24.365701214
 20
0.6256136606
 30
0.0
 10
24.4540426769
 20
0.7419782555
 30
0.0
 10
24.5474632648
 20
0.8544645069
 30
0.0
 10
24.6194209546
 20
0.936049116
 30
0.0
  0
SPLINE
  5
32C
100
AcDbEntity
  8
0
100
AcDbSpline
 62
7
  6
CONTINUOUS
 70
0
 71
3
 72
9
 73
5
 74
0
 42
0.0000001
 43
0.0000001
 44
0.0000000001
 40
0.0
 40
0.0
 40
0.0
 40
0.0
 40
0.2472998602
 40
1.0
 40
1.0
 40
1.0
 40
1.0
 10
22.5896104563
 20
0.2772970629
 30
0.0
 10
22.7224849562
 20
0.3119021328
 30
0.0
 10
23.2629340201
 20
0.4395217588
 30
0.0
 10
23.8147390895
 20
0.5184846569
 30
0.0
 10
24.2313773528
 20
0.5511520263
 30
0.0
  0
SPLINE
  5
32D
100
AcDbEntity
  8
0
100
AcDbSpline
 62
250
  6
CONTINUOUS
 70
0
 71
3
 72
13
 73
9
 74
0
 42
0.0000001
 43
0.0000001
 44
0.0000000001
 40
0.0
 40
0.0
 40
0.0
 40
0.0
 40
0.2788962809
 40
0.5394816727
 40
0.6620277367
 40
0.7792622053
 40
0.891651729
 40
1.0
 40
1.0
 40
1.0
 40
1.0
 10
25.8572894397
 20
-2.0116653644
 30
0.0
 10
26.0584082526
 20
-1.9622513624
 30
0.0
 10
26.4399000908
 20
-1.8310657434
 30
0.0
 10
26.8658342032
 20
-1.5766344602
 30
0.0
 10
27.1447734557
 20
-1.3297673548
 30
0.0
 10
27.3163359606
 20
-1.131234608
 30
0.0
 10
27.4515310857
 20
-0.9187110506
 30
0.0
 10
27.5169009429
 20
-0.7674414274
 30
0.0
 10
27.5423723752
 20
-0.6911235508
 30
0.0
  0
SPLINE
  5
32E
100
AcDbEntity
  8
0
100
AcDbSpline
 62
250
  6
CONTINUOUS
 70
0
 71
3
 72
13
 73
9
 74
0
 42
0.0000001
 43
0.0000001
 44
0.0000000001
 40
0.0
 40
0.0
 40
0.0
 40
0.0
 40
0.1083486387
 40
0.2207388193
 40
0.3379737339
 40
0.460519833
 40
0.721104493
 40
1.0
 40
1.0
 40
1.0
 40
1.0
 10
22.4576276248
 20
-0.6911235508
 30
0.0
 10
22.4830987943
 20
-0.7674406401
 30
0.0
 10
22.5484680105
 20
-0.918708887
 30
0.0
 10
22.6836612749
 20
-1.1312308256
 30
0.0
 10
22.8552215052
 20
-1.3297618863
 30
0.0
 10
23.1341554991
 20
-1.5766269085
 30
0.0
 10
23.560081361
 20
-1.8310564794
 30
0.0
 10
23.9415657441
 20
-1.9622430774
 30
0.0
 10
24.142680805
 20
-2.0116580421
 30
0.0
  0
SPLINE
  5
32F
100
AcDbEntity
  8
0
100
AcDbSpline
 62
250
  6
CONTINUOUS
 70
0
 71
3
 72
23
 73
19
 74
0
 42
0.0000001
 43
0.0000001
 44
0.0000000001
 40
0.0
 40
0.0
 40
0.0
 40
0.0
 40
0.0523412778
 40
0.1074710504
 40
0.1658985084
 40
0.2277225341
 40
0.2926847411
 40
0.3602422998
 40
0.4296434432
 40
0.5
 40
0.5703565568
 40
0.6397577002
 40
0.7073152589
 40
0.7722774659
 40
0.8341014917
 40
0.8925289496
 40
0.9476587222
 40
1.0
 40
1.0
 40
1.0
 40
1.0
 10
22.5896104563
 20
-0.5712310745
 30
0.0
 10
22.6234366065
 20
-0.6673200493
 30
0.0
 10
22.7155942391
 20
-0.8571915806
 30
0.0
 10
22.9134336085
 20
-1.1147024303
 30
0.0
 10
23.1678014367
 20
-1.3448165484
 30
0.0
 10
23.4714569766
 20
-1.5415993714
 30
0.0
 10
23.8161620335
 20
-1.700172866
 30
0.0
 10
24.192650792
 20
-1.8164736879
 30
0.0
 10
24.5908271267
 20
-1.887494972
 30
0.0
 10
25.0000000001
 20
-1.9113777822
 30
0.0
 10
25.4091728734
 20
-1.887494972
 30
0.0
 10
25.8073492082
 20
-1.8164736878
 30
0.0
 10
26.1838379666
 20
-1.7001728659
 30
0.0
 10
26.5285430236
 20
-1.5415993713
 30
0.0
 10
26.8321985636
 20
-1.3448165483
 30
0.0
 10
27.0865663917
 20
-1.1147024301
 30
0.0
 10
27.284405761
 20
-0.8571915805
 30
0.0
 10
27.3765633935
 20
-0.6673200493
 30
0.0
 10
27.4103895437
 20
-0.5712310745
 30
0.0
  0
SPLINE
  5
330
100
AcDbEntity
  8
0
100
AcDbSpline
 62
250
  6
CONTINUOUS
 70
0
 71
3
 72
23
 73
19
 74
0
 42
0.0000001
 43
0.0000001
 44
0.0000000001
 40
0.0
 40
0.0
 40
0.0
 40
0.0
 40
0.0523412778
 40
0.1074710504
 40
0.1658985084
 40
0.2277225341
 40
0.2926847411
 40
0.3602422998
 40
0.4296434432
 40
0.5
 40
0.5703565568
 40
0.6397577002
 40
0.7073152589
 40
0.7722774659
 40
0.8341014917
 40
0.8925289496
 40
0.9476587222
 40
1.0
 40
1.0
 40
1.0
 40
1.0
 10
27.4103895437
 20
0.2772970629
 30
0.0
 10
27.3765633935
 20
0.3733860377
 30
0.0
 10
27.2844057609
 20
0.5632575691
 30
0.0
 10
27.0865663915
 20
0.8207684188
 30
0.0
 10
26.8321985633
 20
1.0508825369
 30
0.0
 10
26.5285430234
 20
1.2476653599
 30
0.0
 10
26.1838379665
 20
1.4062388544
 30
0.0
 10
25.807349208
 20
1.5225396763
 30
0.0
 10
25.4091728733
 20
1.5935609605
 30
0.0
 10
24.9999999999
 20
1.6174437707
 30
0.0
 10
24.5908271266
 20
1.5935609605
 30
0.0
 10
24.1926507918
 20
1.5225396763
 30
0.0
 10
23.8161620334
 20
1.4062388544
 30
0.0
 10
23.4714569764
 20
1.2476653597
 30
0.0
 10
23.1678014364
 20
1.0508825367
 30
0.0
 10
22.9134336083
 20
0.8207684185
 30
0.0
 10
22.715594239
 20
0.563257569
 30
0.0
 10
22.6234366065
 20
0.3733860377
 30
0.0
 10
22.5896104563
 20
0.2772970629
 30
0.0
  0
SPLINE
  5
331
100
AcDbEntity
  8
0
100
AcDbSpline
 62
7
  6
CONTINUOUS
 70
0
 71
3
 72
9
 73
5
 74
0
 42
0.0000001
 43
0.0000001
 44
0.0000000001
 40
0.0
 40
0.0
 40
0.0
 40
0.0
 40
0.4972830528
 40
1.0
 40
1.0
 40
1.0
 40
1.0
 10
27.6527072936
 20
-0.5119808647
 30
0.0
 10
27.6645743769
 20
-0.6094203663
 30
0.0
 10
27.6667677725
 20
-0.808648931
 30
0.0
 10
27.6248762561
 20
-1.0033328659
 30
0.0
 10
27.5940251766
 20
-1.0976473303
 30
0.0
  0
SPLINE
  5
332
100
AcDbEntity
  8
0
100
AcDbSpline
 62
7
  6
CONTINUOUS
 70
0
 71
3
 72
11
 73
7
 74
0
 42
0.0000001
 43
0.0000001
 44
0.0000000001
 40
0.0
 40
0.0
 40
0.0
 40
0.0
 40
0.2786561139
 40
0.5395119224
 40
0.7793932665
 40
1.0
 40
1.0
 40
1.0
 40
1.0
 10
27.4103895437
 20
0.2772970629
 30
0.0
 10
27.4255177686
 20
0.2733571552
 30
0.0
 10
27.4542386371
 20
0.2631799133
 30
0.0
 10
27.492028279
 20
0.240523889
 30
0.0
 10
27.5212069039
 20
0.2118602475
 30
0.0
 10
27.5338905182
 20
0.1887556176
 30
0.0
 10
27.5378415597
 20
0.1770270046
 30
0.0
  0
LINE
  5
333
100
AcDbEntity
  8
0
100
AcDbLine
 62
7
  6
CONTINUOUS
 10
25.5999998582
 20
0.0158749555
 11
25.6564958781
 21
0.5956282542
  0
LINE
  5
334
100
AcDbEntity
  8
0
100
AcDbLine
 62
7
  6
CONTINUOUS
 10
25.5586144364
 20
-0.2491191929
 11
25.5999998582
 21
0.0158749555
  0
LINE
  5
335
100
AcDbEntity
  8
0
100
AcDbLine
 62
7
  6
CONTINUOUS
 10
25.2281482181
 20
-0.1814874091
 11
25.3684269708
 21
0.9467729657
  0
LINE
  5
336
100
AcDbEntity
  8
0
100
AcDbLine
 62
7
  6
CONTINUOUS
 10
25.2281927449
 20
-0.1814830504
 11
25.2281735282
 21
1.3044892806
  0
SPLINE
  5
337
100
AcDbEntity
  8
0
100
AcDbSpline
 62
7
  6
CONTINUOUS
 70
0
 71
3
 72
9
 73
5
 74
0
 42
0.0000001
 43
0.0000001
 44
0.0000000001
 40
0.0
 40
0.0
 40
0.0
 40
0.0
 40
0.2501629437
 40
1.0
 40
1.0
 40
1.0
 40
1.0
 10
24.7716467289
 20
-0.1814719138
 30
0.0
 10
24.7717677282
 20
-0.0575597816
 30
0.0
 10
24.7720944094
 20
0.4377660572
 30
0.0
 10
24.7720823237
 20
0.9330920337
 30
0.0
 10
24.7720154992
 20
1.3045057607
 30
0.0
  0
SPLINE
  5
338
100
AcDbEntity
  8
0
100
AcDbSpline
 62
7
  6
CONTINUOUS
 70
0
 71
3
 72
9
 73
5
 74
0
 42
0.0000001
 43
0.0000001
 44
0.0000000001
 40
0.0
 40
0.0
 40
0.0
 40
0.0
 40
0.5001255395
 40
1.0
 40
1.0
 40
1.0
 40
1.0
 10
24.6314308276
 20
0.9466478015
 30
0.0
 10
24.6547838214
 20
0.7585710417
 30
0.0
 10
24.7013087344
 20
0.3824908632
 30
0.0
 10
24.7485105021
 20
0.0064949341
 30
0.0
 10
24.7718517719
 20
-0.1814874052
 30
0.0
  0
LINE
  5
339
100
AcDbEntity
  8
0
100
AcDbLine
 62
7
  6
CONTINUOUS
 10
24.3999999936
 20
0.015874464
 11
24.4413851937
 21
-0.2491191929
  0
LINE
  5
33A
100
AcDbEntity
  8
0
100
AcDbLine
 62
7
  6
CONTINUOUS
 10
24.3999999936
 20
0.015874464
 11
24.3435037784
 21
0.5956283438
  0
SPLINE
  5
33B
100
AcDbEntity
  8
0
100
AcDbSpline
 62
7
  6
CONTINUOUS
 70
0
 71
3
 72
9
 73
5
 74
0
 42
0.0000001
 43
0.0000001
 44
0.0000000001
 40
0.0
 40
0.0
 40
0.0
 40
0.0
 40
0.5026788727
 40
1.0
 40
1.0
 40
1.0
 40
1.0
 10
22.4059748234
 20
-1.0976473303
 30
0.0
 10
22.3747806436
 20
-1.0022839781
 30
0.0
 10
22.3326410525
 20
-0.8053298094
 30
0.0
 10
22.3356264514
 20
-0.6038375886
 30
0.0
 10
22.3481157023
 20
-0.505360145
 30
0.0
  0
SPLINE
  5
33C
100
AcDbEntity
  8
TRASH
100
AcDbSpline
 62
7
  6
CONTINUOUS
 70
0
 71
3
 72
9
 73
5
 74
0
 42
0.0000001
 43
0.0000001
 44
0.0000000001
 40
0.0
 40
0.0
 40
0.0
 40
0.0
 40
0.5054723292
 40
1.0
 40
1.0
 40
1.0
 40
1.0
 10
25.2388260178
 20
-0.2264214092
 30
0.0
 10
25.2714969257
 20
-0.2991711564
 30
0.0
 10
25.3368862818
 20
-0.442756329
 30
0.0
 10
25.4049836079
 20
-0.5851028452
 30
0.0
 10
25.4399607817
 20
-0.6548457939
 30
0.0
  0
SPLINE
  5
33D
100
AcDbEntity
  8
TRASH
100
AcDbSpline
 62
7
  6
CONTINUOUS
 70
0
 71
3
 72
9
 73
5
 74
0
 42
0.0000001
 43
0.0000001
 44
0.0000000001
 40
0.0
 40
0.0
 40
0.0
 40
0.0
 40
0.4945269127
 40
1.0
 40
1.0
 40
1.0
 40
1.0
 10
24.5600254324
 20
-0.6548851702
 30
0.0
 10
24.5950325871
 20
-0.5851490001
 30
0.0
 10
24.6630802375
 20
-0.4427609467
 30
0.0
 10
24.7285011749
 20
-0.2991742444
 30
0.0
 10
24.761175259
 20
-0.2264173819
 30
0.0
  0
SPLINE
  5
33E
100
AcDbEntity
  8
0
100
AcDbSpline
 62
7
  6
CONTINUOUS
 70
0
 71
3
 72
11
 73
7
 74
0
 42
0.0000001
 43
0.0000001
 44
0.0000000001
 40
0.0
 40
0.0
 40
0.0
 40
0.0
 40
0.2451991319
 40
0.4924182428
 40
0.7434485236
 40
1.0
 40
1.0
 40
1.0
 40
1.0
 10
11.85
 20
0.9529623351
 30
0.0
 10
11.85
 20
0.7003181118
 30
0.0
 10
11.8173747087
 20
0.1923653703
 30
0.0
 10
11.6713142725
 20
-0.5615865383
 30
0.0
 10
11.4293865599
 20
-1.3026951556
 30
0.0
 10
11.2083828146
 20
-1.7782294892
 30
0.0
 10
11.083706
 20
-2.0113217366
 30
0.0
  0
SPLINE
  5
33F
100
AcDbEntity
  8
0
100
AcDbSpline
 62
7
  6
CONTINUOUS
 70
0
 71
3
 72
11
 73
7
 74
0
 42
0.0000001
 43
0.0000001
 44
0.0000000001
 40
0.0
 40
0.0
 40
0.0
 40
0.0
 40
0.2565514764
 40
0.5075817572
 40
0.7548008681
 40
1.0
 40
1.0
 40
1.0
 40
1.0
 10
-11.083706
 20
-2.0113217366
 30
0.0
 10
-11.2083828146
 20
-1.7782294892
 30
0.0
 10
-11.4293865599
 20
-1.3026951556
 30
0.0
 10
-11.6713142725
 20
-0.5615865383
 30
0.0
 10
-11.8173747087
 20
0.1923653703
 30
0.0
 10
-11.85
 20
0.7003181118
 30
0.0
 10
-11.85
 20
0.9529623351
 30
0.0
  0
SPLINE
  5
340
100
AcDbEntity
  8
0
100
AcDbSpline
 62
7
  6
CONTINUOUS
 70
0
 71
3
 72
11
 73
7
 74
0
 42
0.0000001
 43
0.0000001
 44
0.0000000001
 40
0.0
 40
0.0
 40
0.0
 40
0.0
 40
0.236960427
 40
0.4796553205
 40
0.7329168726
 40
1.0
 40
1.0
 40
1.0
 40
1.0
 10
10.1
 20
2.2257545412
 30
0.0
 10
10.1
 20
1.8468634864
 30
0.0
 10
10.0124052888
 20
1.0772724299
 30
0.0
 10
9.6245344792
 20
-0.0376945538
 30
0.0
 10
8.993247344
 20
-1.0906720191
 30
0.0
 10
8.4376713356
 20
-1.716658566
 30
0.0
 10
8.1294668171
 20
-2.0122713718
 30
0.0
  0
SPLINE
  5
341
100
AcDbEntity
  8
0
100
AcDbSpline
 62
7
  6
CONTINUOUS
 70
0
 71
3
 72
11
 73
7
 74
0
 42
0.0000001
 43
0.0000001
 44
0.0000000001
 40
0.0
 40
0.0
 40
0.0
 40
0.0
 40
0.2670831274
 40
0.5203446795
 40
0.763039573
 40
1.0
 40
1.0
 40
1.0
 40
1.0
 10
-8.1294668171
 20
-2.0122713718
 30
0.0
 10
-8.4376713356
 20
-1.716658566
 30
0.0
 10
-8.993247344
 20
-1.0906720191
 30
0.0
 10
-9.6245344792
 20
-0.0376945538
 30
0.0
 10
-10.0124052888
 20
1.0772724299
 30
0.0
 10
-10.1
 20
1.8468634864
 30
0.0
 10
-10.1
 20
2.2257545412
 30
0.0
  0
SPLINE
  5
342
100
AcDbEntity
  8
0
100
AcDbSpline
 62
7
  6
CONTINUOUS
 70
0
 71
3
 72
14
 73
10
 74
0
 42
0.0000001
 43
0.0000001
 44
0.0000000001
 40
0.0
 40
0.0
 40
0.0
 40
0.0
 40
0.108106982
 40
0.218572669
 40
0.3334196507
 40
0.4540734598
 40
0.5812880545
 40
0.7151606489
 40
1.0
 40
1.0
 40
1.0
 40
1.0
 10
8.35
 20
3.4985467474
 30
0.0
 10
8.35
 20
3.2018262199
 30
0.0
 10
8.2851880779
 20
2.6000385807
 30
0.0
 10
7.997699821
 20
1.7248733167
 30
0.0
 10
7.5282576086
 20
0.8929281516
 30
0.0
 10
6.8894739117
 20
0.1232050128
 30
0.0
 10
6.0967124699
 20
-0.5683147943
 30
0.0
 10
4.8343846035
 20
-1.3825753212
 30
0.0
 10
3.7502443198
 20
-1.8076337048
 30
0.0
 10
2.9958194244
 20
-2.0126926406
 30
0.0
  0
SPLINE
  5
343
100
AcDbEntity
  8
0
100
AcDbSpline
 62
7
  6
CONTINUOUS
 70
0
 71
3
 72
14
 73
10
 74
0
 42
0.0000001
 43
0.0000001
 44
0.0000000001
 40
0.0
 40
0.0
 40
0.0
 40
0.0
 40
0.2848393511
 40
0.4187119455
 40
0.5459265402
 40
0.6665803493
 40
0.781427331
 40
0.891893018
 40
1.0
 40
1.0
 40
1.0
 40
1.0
 10
-2.9958194244
 20
-2.0126926406
 30
0.0
 10
-3.7502443198
 20
-1.8076337048
 30
0.0
 10
-4.8343846035
 20
-1.3825753212
 30
0.0
 10
-6.0967124699
 20
-0.5683147943
 30
0.0
 10
-6.8894739117
 20
0.1232050128
 30
0.0
 10
-7.5282576086
 20
0.8929281516
 30
0.0
 10
-7.997699821
 20
1.7248733167
 30
0.0
 10
-8.2851880779
 20
2.6000385807
 30
0.0
 10
-8.35
 20
3.2018262199
 30
0.0
 10
-8.35
 20
3.4985467474
 30
0.0
  0
SPLINE
  5
344
100
AcDbEntity
  8
RACCORDO
100
AcDbSpline
 62
7
  6
CONTINUOUS
 70
0
 71
3
 72
23
 73
19
 74
0
 42
0.0000001
 43
0.0000001
 44
0.0000000001
 40
0.0
 40
0.0
 40
0.0
 40
0.0
 40
0.0539078771
 40
0.1091582349
 40
0.1668802723
 40
0.2277971333
 40
0.2921046005
 40
0.3594704331
 40
0.4291267207
 40
0.5000041278
 40
0.5708812461
 40
0.6405366768
 40
0.707901221
 40
0.77220713
 40
0.8331224139
 40
0.8908430565
 40
0.9460924002
 40
1.0
 40
1.0
 40
1.0
 40
1.0
 10
-4.1
 20
5.0111608701
 30
0.0
 10
-4.1
 20
5.2122228756
 30
0.0
 10
-4.0430003245
 20
5.6214019091
 30
0.0
 10
-3.7945681405
 20
6.1991455354
 30
0.0
 10
-3.399854873
 20
6.7208587377
 30
0.0
 10
-2.8794913764
 20
7.1690440046
 30
0.0
 10
-2.2551352843
 20
7.5314857271
 30
0.0
 10
-1.5499265167
 20
7.7982255056
 30
0.0
 10
-0.7891240471
 20
7.9615858709
 30
0.0
 10
0.0000452941
 20
8.016606623
 30
0.0
 10
0.7892105295
 20
7.9615732414
 30
0.0
 10
1.5500014884
 20
7.7982027565
 30
0.0
 10
2.2551931844
 20
7.5314571537
 30
0.0
 10
2.879529895
 20
7.1690152614
 30
0.0
 10
3.3998753484
 20
6.7208352543
 30
0.0
 10
3.7945750334
 20
6.1991308943
 30
0.0
 10
4.0430015501
 20
5.6213960934
 30
0.0
 10
4.1000000001
 20
5.2122218408
 30
0.0
 10
4.1
 20
5.0111608696
 30
0.0
  0
SPLINE
  5
345
100
AcDbEntity
  8
0
100
AcDbSpline
 62
7
  6
CONTINUOUS
 70
0
 71
3
 72
23
 73
19
 74
0
 42
0.0000001
 43
0.0000001
 44
0.0000000001
 40
0.0
 40
0.0
 40
0.0
 40
0.0
 40
0.0516457867
 40
0.1051631704
 40
0.1619859257
 40
0.222853644
 40
0.2878172349
 40
0.3563477249
 40
0.4274874252
 40
0.5
 40
0.5725125748
 40
0.6436522751
 40
0.7121827651
 40
0.777146356
 40
0.8380140743
 40
0.8948368296
 40
0.9483542133
 40
1.0
 40
1.0
 40
1.0
 40
1.0
 10
4.1
 20
4.7713389535
 30
0.0
 10
4.1
 20
4.5809814093
 30
0.0
 10
4.0447656003
 20
4.1913913997
 30
0.0
 10
3.8030110585
 20
3.6385668855
 30
0.0
 10
3.41528404
 20
3.1337376469
 30
0.0
 10
2.8989355725
 20
2.6950302102
 30
0.0
 10
2.2743684057
 20
2.3369472204
 30
0.0
 10
1.5650563384
 20
2.0717619152
 30
0.0
 10
0.7974032565
 20
1.9087550196
 30
0.0
 10
0.0
 20
1.8537580928
 30
0.0
 10
-0.7974032565
 20
1.9087550196
 30
0.0
 10
-1.5650563384
 20
2.0717619152
 30
0.0
 10
-2.2743684057
 20
2.3369472204
 30
0.0
 10
-2.8989355725
 20
2.6950302102
 30
0.0
 10
-3.41528404
 20
3.1337376469
 30
0.0
 10
-3.8030110585
 20
3.6385668855
 30
0.0
 10
-4.0447656003
 20
4.1913913997
 30
0.0
 10
-4.1
 20
4.5809814093
 30
0.0
 10
-4.1
 20
4.7713389535
 30
0.0
  0
SPLINE
  5
346
100
AcDbEntity
  8
RACCORDO
100
AcDbSpline
 62
7
  6
CONTINUOUS
 70
0
 71
3
 72
27
 73
23
 74
0
 42
0.0000001
 43
0.0000001
 44
0.0000000001
 40
0.0
 40
0.0
 40
0.0
 40
0.0
 40
0.02634184
 40
0.0528935426
 40
0.0798449984
 40
0.1073733259
 40
0.1646204326
 40
0.2254802767
 40
0.2900794985
 40
0.357988962
 40
0.428346943
 40
0.5000013902
 40
0.5716557386
 40
0.6420134246
 40
0.7099224362
 40
0.7745211268
 40
0.8353804385
 40
0.8926270847
 40
0.9201552366
 40
0.947106549
 40
0.9736582037
 40
1.0
 40
1.0
 40
1.0
 40
1.0
 10
-8.35
 20
3.8097595041
 30
0.0
 10
-8.35
 20
4.0087442096
 30
0.0
 10
-8.3222375564
 20
4.4088370588
 30
0.0
 10
-8.1983136591
 20
5.0008983099
 30
0.0
 10
-7.9936832792
 20
5.5797096598
 30
0.0
 10
-7.6124448454
 20
6.3348657015
 30
0.0
 10
-6.9391308567
 20
7.2182041935
 30
0.0
 10
-5.883521524
 20
8.1205852236
 30
0.0
 10
-4.6117761852
 20
8.8540063006
 30
0.0
 10
-3.1715475064
 20
9.3953544221
 30
0.0
 10
-1.6153372402
 20
9.7275415201
 30
0.0
 10
0.0000309984
 20
9.8395244987
 30
0.0
 10
1.6153965387
 20
9.7275340286
 30
0.0
 10
3.1715986725
 20
9.3953393299
 30
0.0
 10
4.611815249
 20
8.8539867629
 30
0.0
 10
5.8835473765
 20
8.1205660483
 30
0.0
 10
6.9391449549
 20
7.2181891471
 30
0.0
 10
7.6124508501
 20
6.3348558112
 30
0.0
 10
7.9936854358
 20
5.5797044839
 30
0.0
 10
8.1983144761
 20
5.0008956159
 30
0.0
 10
8.3222375492
 20
4.4088360199
 30
0.0
 10
8.35
 20
4.0087438795
 30
0.0
 10
8.35
 20
3.8097595041
 30
0.0
  0
SPLINE
  5
347
100
AcDbEntity
  8
RACCORDO
100
AcDbSpline
 62
7
  6
CONTINUOUS
 70
0
 71
3
 72
17
 73
13
 74
0
 42
0.0000001
 43
0.0000001
 44
0.0000000001
 40
0.0
 40
0.0
 40
0.0
 40
0.0
 40
0.0532967734
 40
0.1069589579
 40
0.1613100869
 40
0.2166643969
 40
0.3312388216
 40
0.4523409581
 40
0.5804985019
 40
0.7153376236
 40
0.855733116
 40
1.0
 40
1.0
 40
1.0
 40
1.0
 10
-10.1
 20
2.5559141671
 30
0.0
 10
-10.1
 20
2.7729354287
 30
0.0
 10
-10.0725682497
 20
3.2089495084
 30
0.0
 10
-9.9499966295
 20
3.8558593052
 30
0.0
 10
-9.747124513
 20
4.4911296414
 30
0.0
 10
-9.3686608932
 20
5.3242298847
 30
0.0
 10
-8.6973681549
 20
6.3128361291
 30
0.0
 10
-7.632218011
 20
7.3545140632
 30
0.0
 10
-6.334171971
 20
8.2398615703
 30
0.0
 10
-4.8440422381
 20
8.9452704566
 30
0.0
 10
-3.2074371167
 20
9.452051021
 30
0.0
 10
-2.0608755299
 20
9.6465381993
 30
0.0
 10
-1.4766674289
 20
9.7081320665
 30
0.0
  0
SPLINE
  5
348
100
AcDbEntity
  8
RACCORDO
100
AcDbSpline
 62
7
  6
CONTINUOUS
 70
0
 71
3
 72
17
 73
13
 74
0
 42
0.0000001
 43
0.0000001
 44
0.0000000001
 40
0.0
 40
0.0
 40
0.0
 40
0.0
 40
0.1442675231
 40
0.2846617546
 40
0.4194987841
 40
0.5476543914
 40
0.6687555816
 40
0.7833305454
 40
0.8386856843
 40
0.8930379687
 40
0.9467016355
 40
1.0
 40
1.0
 40
1.0
 40
1.0
 10
1.4790364548
 20
9.7078821722
 30
0.0
 10
2.0631228149
 20
9.6461991181
 30
0.0
 10
3.209426434
 20
9.4515652869
 30
0.0
 10
4.845625827
 20
8.9446418206
 30
0.0
 10
6.3353481277
 20
8.2391749149
 30
0.0
 10
7.6330121941
 20
7.3538480569
 30
0.0
 10
8.6978308184
 20
6.3122616478
 30
0.0
 10
9.3689029674
 20
5.3237875862
 30
0.0
 10
9.7472413035
 20
4.4908152845
 30
0.0
 10
9.9500463893
 20
3.8556454276
 30
0.0
 10
10.0725772849
 20
3.2088412748
 30
0.0
 10
10.1
 20
2.7728996762
 30
0.0
 10
10.1
 20
2.5559141671
 30
0.0
  0
SPLINE
  5
349
100
AcDbEntity
  8
RACCORDO
100
AcDbSpline
 62
7
  6
CONTINUOUS
 70
0
 71
3
 72
17
 73
13
 74
0
 42
0.0000001
 43
0.0000001
 44
0.0000000001
 40
0.0
 40
0.0
 40
0.0
 40
0.0
 40
0.0540635159
 40
0.1084411443
 40
0.163404588
 40
0.21922745
 40
0.3342320184
 40
0.4550283784
 40
0.5823172903
 40
0.716086575
 40
0.8556958309
 40
1.0
 40
1.0
 40
1.0
 40
1.0
 10
-11.85
 20
1.2547016573
 30
0.0
 10
-11.85
 20
1.4839129217
 30
0.0
 10
-11.8238371674
 20
1.9440851858
 30
0.0
 10
-11.7068442586
 20
2.6282994449
 30
0.0
 10
-11.5128503501
 20
3.3026396473
 30
0.0
 10
-11.150688291
 20
4.1904459814
 30
0.0
 10
-10.5063430038
 20
5.2560753143
 30
0.0
 10
-9.4733038776
 20
6.4077579743
 30
0.0
 10
-8.2020112635
 20
7.4210241298
 30
0.0
 10
-6.7259126412
 20
8.2731892276
 30
0.0
 10
-5.0824939033
 20
8.9454587464
 30
0.0
 10
-3.9169121595
 20
9.2596054818
 30
0.0
 10
-3.3179093872
 20
9.3840915272
 30
0.0
  0
SPLINE
  5
34A
100
AcDbEntity
  8
RACCORDO
100
AcDbSpline
 62
7
  6
CONTINUOUS
 70
0
 71
3
 72
17
 73
13
 74
0
 42
0.0000001
 43
0.0000001
 44
0.0000000001
 40
0.0
 40
0.0
 40
0.0
 40
0.0
 40
0.1443000908
 40
0.2839007706
 40
0.4176608531
 40
0.5449433261
 40
0.6657384713
 40
0.7807481071
 40
0.8365756265
 40
0.8915449238
 40
0.9459293113
 40
1.0
 40
1.0
 40
1.0
 40
1.0
 10
3.3292751766
 20
9.3817250276
 30
0.0
 10
3.9276231768
 20
9.2569134557
 30
0.0
 10
5.0918644936
 20
8.9422390443
 30
0.0
 10
6.7332525286
 20
8.2695336128
 30
0.0
 10
8.2073909889
 20
7.4172934997
 30
0.0
 10
9.4768983426
 20
6.4042876587
 30
0.0
 10
10.5084202967
 20
5.2531621116
 30
0.0
 10
11.1517747029
 20
4.1882295747
 30
0.0
 10
11.5133749212
 20
3.3010685726
 30
0.0
 10
11.7070678515
 20
2.6272328846
 30
0.0
 10
11.8238780236
 20
1.9435459047
 30
0.0
 10
11.85
 20
1.4837344759
 30
0.0
 10
11.85
 20
1.2547016573
 30
0.0
  0
SPLINE
  5
34B
100
AcDbEntity
  8
RACCORDO
100
AcDbSpline
 62
7
  6
CONTINUOUS
 70
0
 71
3
 72
18
 73
14
 74
0
 42
0.0000001
 43
0.0000001
 44
0.0000000001
 40
0.0
 40
0.0
 40
0.0
 40
0.0
 40
0.0545096794
 40
0.1093028933
 40
0.164668555
 40
0.2208625904
 40
0.2781218503
 40
0.3366452353
 40
0.4579138511
 40
0.5854489936
 40
0.7190392798
 40
0.8577320921
 40
1.0
 40
1.0
 40
1.0
 40
1.0
 10
-14.0
 20
-0.4452652032
 30
0.0
 10
-14.0
 20
-0.1340931639
 30
0.0
 10
-13.9609872893
 20
0.490558169
 30
0.0
 10
-13.7865101693
 20
1.4165263855
 30
0.0
 10
-13.4985636826
 20
2.3238537321
 30
0.0
 10
-13.1008826645
 20
3.2039810825
 30
0.0
 10
-12.5983280173
 20
4.0496561289
 30
0.0
 10
-11.7865746719
 20
5.1350397706
 30
0.0
 10
-10.527323075
 20
6.3731731911
 30
0.0
 10
-8.7178299567
 20
7.6113265815
 30
0.0
 10
-6.6477586278
 20
8.5930783875
 30
0.0
 10
-4.3801167469
 20
9.2943754414
 30
0.0
 10
-2.7931657093
 20
9.5613333196
 30
0.0
 10
-1.9853333903
 20
9.6449238819
 30
0.0
  0
SPLINE
  5
34C
100
AcDbEntity
  8
RACCORDO
100
AcDbSpline
 62
7
  6
CONTINUOUS
 70
0
 71
3
 72
18
 73
14
 74
0
 42
0.0000001
 43
0.0000001
 44
0.0000000001
 40
0.0
 40
0.0
 40
0.0
 40
0.0
 40
0.1422691696
 40
0.2809576613
 40
0.4145413616
 40
0.5420708471
 40
0.6633371172
 40
0.7218609678
 40
0.7791218455
 40
0.8353185865
 40
0.8906878273
 40
0.9454855939
 40
1.0
 40
1.0
 40
1.0
 40
1.0
 10
1.9962724911
 20
9.6437884927
 30
0.0
 10
2.8035455784
 20
9.5597829449
 30
0.0
 10
4.3893118672
 20
9.292135044
 30
0.0
 10
6.6550919788
 20
8.590168853
 30
0.0
 10
8.7232910607
 20
7.6081288425
 30
0.0
 10
10.5310251907
 20
6.3700510804
 30
0.0
 10
11.7889721422
 20
5.1322781608
 30
0.0
 10
12.599857666
 20
4.0473345799
 30
0.0
 10
13.1018721789
 20
3.2020422273
 30
0.0
 10
13.4991177824
 20
2.3223501541
 30
0.0
 10
13.7867481822
 20
1.4155001377
 30
0.0
 10
13.9610301152
 20
0.4900373944
 30
0.0
 10
14.0
 20
-0.1342656698
 30
0.0
 10
14.0
 20
-0.4452652032
 30
0.0
  0
SPLINE
  5
34D
100
AcDbEntity
  8
RACCORDO
100
AcDbSpline
 62
250
  6
CONTINUOUS
 70
0
 71
3
 72
16
 73
12
 74
0
 42
0.0000001
 43
0.0000001
 44
0.0000000001
 40
0.0
 40
0.0
 40
0.0
 40
0.0
 40
0.0523267104
 40
0.1052402171
 40
0.2139710381
 40
0.328462222
 40
0.4499106747
 40
0.5786027904
 40
0.7140259516
 40
0.8550313529
 40
1.0
 40
1.0
 40
1.0
 40
1.0
 10
-8.3384580772
 20
3.4995271026
 30
0.0
 10
-8.3260683358
 20
3.3330480624
 30
0.0
 10
-8.2810392504
 20
2.9993621913
 30
0.0
 10
-8.110780182
 20
2.3369815411
 30
0.0
 10
-7.7443990344
 20
1.5271524198
 30
0.0
 10
-7.0883601108
 20
0.6360671535
 30
0.0
 10
-6.2330107215
 20
-0.1611882032
 30
0.0
 10
-5.2036427043
 20
-0.8435763857
 30
0.0
 10
-4.0292799103
 20
-1.3935346386
 30
0.0
 10
-2.7429182299
 20
-1.7964841694
 30
0.0
 10
-1.8423134065
 20
-1.9584771377
 30
0.0
 10
-1.3830427863
 20
-2.0130174613
 30
0.0
  0
SPLINE
  5
34E
100
AcDbEntity
  8
RACCORDO
100
AcDbSpline
 62
250
  6
CONTINUOUS
 70
0
 71
3
 72
16
 73
12
 74
0
 42
0.0000001
 43
0.0000001
 44
0.0000000001
 40
0.0
 40
0.0
 40
0.0
 40
0.0
 40
0.1449686992
 40
0.2859745505
 40
0.4213983419
 40
0.5500910108
 40
0.6715397335
 40
0.7860306764
 40
0.8947608095
 40
0.9476738221
 40
1.0
 40
1.0
 40
1.0
 40
1.0
 10
1.3825380884
 20
-2.0130773234
 30
0.0
 10
1.8418354168
 20
-1.9585538935
 30
0.0
 10
2.7424962484
 20
-1.7965901285
 30
0.0
 10
4.0289446535
 20
-1.3936670558
 30
0.0
 10
5.2033934921
 20
-0.8437187267
 30
0.0
 10
6.232841465
 20
-0.1613245489
 30
0.0
 10
7.0882595928
 20
0.6359505682
 30
0.0
 10
7.7443524138
 20
1.5270664472
 30
0.0
 10
8.1107634141
 20
2.3369291303
 30
0.0
 10
8.2810353136
 20
2.9993381165
 30
0.0
 10
8.3260676022
 20
3.3330382233
 30
0.0
 10
8.3384579364
 20
3.4995243343
 30
0.0
  0
SPLINE
  5
34F
100
AcDbEntity
  8
RACCORDO
100
AcDbSpline
 62
250
  6
CONTINUOUS
 70
0
 71
3
 72
9
 73
5
 74
0
 42
0.0000001
 43
0.0000001
 44
0.0000000001
 40
0.0
 40
0.0
 40
0.0
 40
0.0
 40
0.4964212756
 40
1.0
 40
1.0
 40
1.0
 40
1.0
 10
-13.2588190451
 20
0.2377474987
 30
0.0
 10
-13.2588190451
 20
-0.1413159301
 30
0.0
 10
-13.1928081917
 20
-0.9063001468
 30
0.0
 10
-12.998377145
 20
-1.6487938771
 30
0.0
 10
-12.8714988932
 20
-2.0117874144
 30
0.0
  0
SPLINE
  5
350
100
AcDbEntity
  8
RACCORDO
100
AcDbSpline
 62
250
  6
CONTINUOUS
 70
0
 71
3
 72
9
 73
5
 74
0
 42
0.0000001
 43
0.0000001
 44
0.0000000001
 40
0.0
 40
0.0
 40
0.0
 40
0.0
 40
0.5035787276
 40
1.0
 40
1.0
 40
1.0
 40
1.0
 10
12.8714989339
 20
-2.0117874204
 30
0.0
 10
12.9983771477
 20
-1.6487938699
 30
0.0
 10
13.1928080659
 20
-0.9063001221
 30
0.0
 10
13.2588190451
 20
-0.1413159251
 30
0.0
 10
13.2588190451
 20
0.2377474987
 30
0.0
  0
SPLINE
  5
351
100
AcDbEntity
  8
RACCORDO
100
AcDbSpline
 62
250
  6
CONTINUOUS
 70
0
 71
3
 72
27
 73
23
 74
0
 42
0.0000001
 43
0.0000001
 44
0.0000000001
 40
0.0
 40
0.0
 40
0.0
 40
0.0
 40
0.0257376601
 40
0.051724685
 40
0.0781859139
 40
0.1053229729
 40
0.1621193592
 40
0.2229624049
 40
0.2878998853
 40
0.3564034942
 40
0.4275154765
 40
0.5000002595
 40
0.5724850342
 40
0.6435970059
 40
0.7121005978
 40
0.7770380467
 40
0.8378810515
 40
0.8946773337
 40
0.9218143113
 40
0.9482754718
 40
0.9742623907
 40
1.0
 40
1.0
 40
1.0
 40
1.0
 10
-8.1276457135
 20
4.0146633147
 30
0.0
 10
-8.1276457135
 20
3.826520971
 30
0.0
 10
-8.1012317865
 20
3.4478967571
 30
0.0
 10
-7.9830462106
 20
2.8869959349
 30
0.0
 10
-7.7874314164
 20
2.3372602059
 30
0.0
 10
-7.4211298938
 20
1.6160794843
 30
0.0
 10
-6.7705294254
 20
0.768460383
 30
0.0
 10
-5.7471023014
 20
-0.1009937564
 30
0.0
 10
-4.508898501
 20
-0.8110362326
 30
0.0
 10
-3.1027255067
 20
-1.336788671
 30
0.0
 10
-1.5808517712
 20
-1.6599810016
 30
0.0
 10
0.0000057233
 20
-1.7690182321
 30
0.0
 10
1.5808630009
 20
-1.6599791848
 30
0.0
 10
3.1027361751
 20
-1.3367855855
 30
0.0
 10
4.5089083499
 20
-0.8110321055
 30
0.0
 10
5.7471105688
 20
-0.1009881009
 30
0.0
 10
6.7705352828
 20
0.7684668326
 30
0.0
 10
7.4211337351
 20
1.6160853479
 30
0.0
 10
7.7874335813
 20
2.337264828
 30
0.0
 10
7.983047245
 20
2.8869989731
 30
0.0
 10
8.1012319016
 20
3.4478982871
 30
0.0
 10
8.1276457135
 20
3.8265213424
 30
0.0
 10
8.1276457135
 20
4.0146633147
 30
0.0
  0
SPLINE
  5
352
100
AcDbEntity
  8
0
100
AcDbSpline
 62
7
  6
CONTINUOUS
 70
0
 71
3
 72
27
 73
23
 74
0
 42
0.0000001
 43
0.0000001
 44
0.0000000001
 40
0.0
 40
0.0
 40
0.0
 40
0.0
 40
0.0257446478
 40
0.0517436854
 40
0.0782084438
 40
0.1053463192
 40
0.1621423208
 40
0.2229820878
 40
0.2879157093
 40
0.3564143282
 40
0.4275210015
 40
0.5
 40
0.5724789985
 40
0.6435856718
 40
0.7120842907
 40
0.7770179122
 40
0.8378576792
 40
0.8946536808
 40
0.9217915562
 40
0.9482563146
 40
0.9742553522
 40
1.0
 40
1.0
 40
1.0
 40
1.0
 10
6.0
 20
4.4177855629
 30
0.0
 10
6.0
 20
4.556713951
 30
0.0
 10
5.9804624817
 20
4.8363229515
 30
0.0
 10
5.893193074
 20
5.2505107956
 30
0.0
 10
5.7487231176
 20
5.6564120688
 30
0.0
 10
5.4782069504
 20
6.1887728183
 30
0.0
 10
4.9979094034
 20
6.8144689468
 30
0.0
 10
4.2423696555
 20
7.4562322593
 30
0.0
 10
3.3283333009
 20
7.9803179438
 30
0.0
 10
2.2903283321
 20
8.368383477
 30
0.0
 10
1.1669315815
 20
8.6069394672
 30
0.0
 10
0.0
 20
8.6874168679
 30
0.0
 10
-1.1669315815
 20
8.6069394672
 30
0.0
 10
-2.2903283321
 20
8.368383477
 30
0.0
 10
-3.3283333009
 20
7.9803179438
 30
0.0
 10
-4.2423696555
 20
7.4562322593
 30
0.0
 10
-4.9979094034
 20
6.8144689468
 30
0.0
 10
-5.4782069504
 20
6.1887728183
 30
0.0
 10
-5.7487231176
 20
5.6564120688
 30
0.0
 10
-5.893193074
 20
5.2505107956
 30
0.0
 10
-5.9804624817
 20
4.8363229515
 30
0.0
 10
-6.0
 20
4.556713951
 30
0.0
 10
-6.0
 20
4.4177855629
 30
0.0
  0
SPLINE
  5
353
100
AcDbEntity
  8
0
100
AcDbSpline
 62
7
  6
CONTINUOUS
 70
0
 71
3
 72
27
 73
23
 74
0
 42
0.0000001
 43
0.0000001
 44
0.0000000001
 40
0.0
 40
0.0
 40
0.0
 40
0.0
 40
0.0257446478
 40
0.0517436854
 40
0.0782084438
 40
0.1053463192
 40
0.1621423208
 40
0.2229820878
 40
0.2879157093
 40
0.3564143282
 40
0.4275210015
 40
0.5
 40
0.5724789985
 40
0.6435856718
 40
0.7120842907
 40
0.7770179122
 40
0.8378576792
 40
0.8946536808
 40
0.9217915562
 40
0.9482563146
 40
0.9742553522
 40
1.0
 40
1.0
 40
1.0
 40
1.0
 10
6.0
 20
4.4177855629
 30
0.0
 10
6.0
 20
4.2788571748
 30
0.0
 10
5.9804624817
 20
3.9992481744
 30
0.0
 10
5.893193074
 20
3.5850603303
 30
0.0
 10
5.7487231176
 20
3.179159057
 30
0.0
 10
5.4782069504
 20
2.6467983076
 30
0.0
 10
4.9979094034
 20
2.0211021791
 30
0.0
 10
4.2423696555
 20
1.3793388665
 30
0.0
 10
3.3283333009
 20
0.855253182
 30
0.0
 10
2.2903283321
 20
0.4671876488
 30
0.0
 10
1.1669315815
 20
0.2286316586
 30
0.0
 10
0.0
 20
0.1481542579
 30
0.0
 10
-1.1669315815
 20
0.2286316586
 30
0.0
 10
-2.2903283321
 20
0.4671876488
 30
0.0
 10
-3.3283333009
 20
0.855253182
 30
0.0
 10
-4.2423696555
 20
1.3793388665
 30
0.0
 10
-4.9979094034
 20
2.0211021791
 30
0.0
 10
-5.4782069504
 20
2.6467983076
 30
0.0
 10
-5.7487231176
 20
3.179159057
 30
0.0
 10
-5.893193074
 20
3.5850603303
 30
0.0
 10
-5.9804624817
 20
3.9992481744
 30
0.0
 10
-6.0
 20
4.2788571748
 30
0.0
 10
-6.0
 20
4.4177855629
 30
0.0
  0
SPLINE
  5
354
100
AcDbEntity
  8
RACCORDO
100
AcDbSpline
 62
250
  6
CONTINUOUS
 70
0
 71
3
 72
15
 73
11
 74
0
 42
0.0000001
 43
0.0000001
 44
0.0000000001
 40
0.0
 40
0.0
 40
0.0
 40
0.0
 40
0.1087202224
 40
0.2196549563
 40
0.3347222327
 40
0.4553114518
 40
0.5822067575
 40
0.7155917258
 40
0.8551185185
 40
1.0
 40
1.0
 40
1.0
 40
1.0
 10
13.2588190451
 20
0.2377474987
 30
0.0
 10
13.2588190451
 20
0.6922746914
 30
0.0
 10
13.1632014298
 20
1.6132651111
 30
0.0
 10
12.7385530466
 20
2.955730987
 30
0.0
 10
12.0440049584
 20
4.2367406387
 30
0.0
 10
11.0968209615
 20
5.4289226434
 30
0.0
 10
9.9186428463
 20
6.5088428036
 30
0.0
 10
8.5347643472
 20
7.4553501259
 30
0.0
 10
6.9744444859
 20
8.2498068585
 30
0.0
 10
5.8555673704
 20
8.6611294282
 30
0.0
 10
5.2764903391
 20
8.8387539303
 30
0.0
  0
SPLINE
  5
355
100
AcDbEntity
  8
RACCORDO
100
AcDbSpline
 62
250
  6
CONTINUOUS
 70
0
 71
3
 72
15
 73
11
 74
0
 42
0.0000001
 43
0.0000001
 44
0.0000000001
 40
0.0
 40
0.0
 40
0.0
 40
0.0
 40
0.1448780653
 40
0.2844006521
 40
0.4177819088
 40
0.54467505
 40
0.6652643773
 40
0.7803342594
 40
0.8912737594
 40
1.0
 40
1.0
 40
1.0
 40
1.0
 10
-5.2810396865
 20
8.837357767
 30
0.0
 10
-5.8598328769
 20
8.6596385556
 30
0.0
 10
-6.9781413545
 20
8.2481725255
 30
0.0
 10
-8.5376208074
 20
7.4536334911
 30
0.0
 10
-9.9207109399
 20
6.5071753719
 30
0.0
 10
-11.0981872976
 20
5.4274237921
 30
0.0
 10
-12.0447861284
 20
4.2355137733
 30
0.0
 10
-12.7388925864
 20
2.9548610779
 30
0.0
 10
-13.1632644523
 20
1.6128130986
 30
0.0
 10
-13.2588190451
 20
0.6921277833
 30
0.0
 10
-13.2588190451
 20
0.2377474987
 30
0.0
  0
SPLINE
  5
356
100
AcDbEntity
  8
RACCORDO
100
AcDbSpline
 62
250
  6
CONTINUOUS
 70
0
 71
3
 72
23
 73
19
 74
0
 42
0.0000001
 43
0.0000001
 44
0.0000000001
 40
0.0
 40
0.0
 40
0.0
 40
0.0
 40
0.0515643416
 40
0.1053841688
 40
0.162541494
 40
0.2235128168
 40
0.2882318325
 40
0.3561801352
 40
0.4265031438
 40
0.4981243153
 40
0.5698545448
 40
0.6404944197
 40
0.7089403477
 40
0.7742891984
 40
0.8359538489
 40
0.8937777213
 40
0.9481370377
 40
1.0
 40
1.0
 40
1.0
 40
1.0
 10
-4.0861476205
 20
4.7732774944
 30
0.0
 10
-4.0652874199
 20
4.594218228
 30
0.0
 10
-3.9738955176
 20
4.2324514624
 30
0.0
 10
-3.7023249205
 20
3.7277581047
 30
0.0
 10
-3.3066702841
 20
3.2695221314
 30
0.0
 10
-2.8015789361
 20
2.872167206
 30
0.0
 10
-2.2043299465
 20
2.5474283639
 30
0.0
 10
-1.5346383174
 20
2.3052805058
 30
0.0
 10
-0.8144938229
 20
2.1532582751
 30
0.0
 10
-0.067550156
 20
2.0962014298
 30
0.0
 10
0.6816155998
 20
2.1359213293
 30
0.0
 10
1.4083542343
 20
2.2711600466
 30
0.0
 10
2.08878522
 20
2.4976030933
 30
0.0
 10
2.7005743699
 20
2.8081815826
 30
0.0
 10
3.2235586188
 20
3.1933158386
 30
0.0
 10
3.640043441
 20
3.641606554
 30
0.0
 10
3.9348267596
 20
4.1390232516
 30
0.0
 10
4.0435317568
 20
4.4989573472
 30
0.0
 10
4.0728020235
 20
4.6778933956
 30
0.0
  0
SPLINE
  5
357
100
AcDbEntity
  8
RACCORDO
100
AcDbSpline
 62
250
  6
CONTINUOUS
 70
0
 71
3
 72
23
 73
19
 74
0
 42
0.0000001
 43
0.0000001
 44
0.0000000001
 40
0.0
 40
0.0
 40
0.0
 40
0.0
 40
0.0516450777
 40
0.105163171
 40
0.1619858997
 40
0.2228539882
 40
0.2878179714
 40
0.3563491113
 40
0.4274898341
 40
0.5000033201
 40
0.572516781
 40
0.6436572111
 40
0.7121882456
 40
0.7771524947
 40
0.8380206309
 40
0.8948436246
 40
0.9483617933
 40
1.0
 40
1.0
 40
1.0
 40
1.0
 10
-3.8776457135
 20
5.2160646807
 30
0.0
 10
-3.8776457135
 20
5.0360333089
 30
0.0
 10
-3.8254118408
 20
4.6675712571
 30
0.0
 10
-3.5967653117
 20
4.1447293393
 30
0.0
 10
-3.2300682818
 20
3.6672721788
 30
0.0
 10
-2.741714192
 20
3.2523627949
 30
0.0
 10
-2.1510145119
 20
2.9136991172
 30
0.0
 10
-1.4801624855
 20
2.6628972741
 30
0.0
 10
-0.7541336447
 20
2.5087251495
 30
0.0
 10
0.0000343391
 20
2.4567161554
 30
0.0
 10
0.7542006174
 20
2.5087347488
 30
0.0
 10
1.4802260949
 20
2.6629158822
 30
0.0
 10
2.1510739511
 20
2.91372745
 30
0.0
 10
2.7417692236
 20
3.2524010772
 30
0.0
 10
3.2301144642
 20
3.6673235927
 30
0.0
 10
3.5968041266
 20
4.1447891116
 30
0.0
 10
3.8254179135
 20
4.6676205353
 30
0.0
 10
3.8776457135
 20
5.0360572608
 30
0.0
 10
3.8776457135
 20
5.2160646807
 30
0.0
  0
SPLINE
  5
358
100
AcDbEntity
  8
0
100
AcDbSpline
 62
7
  6
CONTINUOUS
 70
0
 71
3
 72
19
 73
15
 74
0
 42
0.0000001
 43
0.0000001
 44
0.0000000001
 40
0.0
 40
0.0
 40
0.0
 40
0.0
 40
0.0517190809
 40
0.105339288
 40
0.1622479039
 40
0.2232156281
 40
0.356475455
 40
0.5
 40
0.643524545
 40
0.7767843719
 40
0.8377520961
 40
0.894660712
 40
0.9482809191
 40
1.0
 40
1.0
 40
1.0
 40
1.0
 10
1.0
 20
5.7612884472
 30
0.0
 10
1.0
 20
5.8077073463
 30
0.0
 10
0.9865092289
 20
5.9027292375
 30
0.0
 10
0.9275795078
 20
6.037574228
 30
0.0
 10
0.8329734336
 20
6.1607062049
 30
0.0
 10
0.6601551175
 20
6.3075228023
 30
0.0
 10
0.3783350017
 20
6.4348519251
 30
0.0
 10
0.0
 20
6.4857791167
 30
0.0
 10
-0.3783350017
 20
6.4348519251
 30
0.0
 10
-0.6601551175
 20
6.3075228023
 30
0.0
 10
-0.8329734336
 20
6.1607062049
 30
0.0
 10
-0.9275795078
 20
6.037574228
 30
0.0
 10
-0.9865092289
 20
5.9027292375
 30
0.0
 10
-1.0
 20
5.8077073463
 30
0.0
 10
-1.0
 20
5.7612884472
 30
0.0
  0
SPLINE
  5
359
100
AcDbEntity
  8
RACCORDO
100
AcDbSpline
 62
250
  6
CONTINUOUS
 70
0
 71
3
 72
15
 73
11
 74
0
 42
0.0000001
 43
0.0000001
 44
0.0000000001
 40
0.0
 40
0.0
 40
0.0
 40
0.0
 40
0.1082424282
 40
0.2188127434
 40
0.3336913476
 40
0.4542835192
 40
0.5813525502
 40
0.7150237327
 40
0.8548681866
 40
1.0
 40
1.0
 40
1.0
 40
1.0
 10
11.6276457135
 20
1.4596054679
 30
0.0
 10
11.6276457135
 20
1.8677905824
 30
0.0
 10
11.5396067846
 20
2.695455871
 30
0.0
 10
11.148876561
 20
3.9001637586
 30
0.0
 10
10.5103967744
 20
5.0469943508
 30
0.0
 10
9.6407984366
 20
6.1102629982
 30
0.0
 10
8.5608863197
 20
7.0681175672
 30
0.0
 10
7.2949071154
 20
7.9009378636
 30
0.0
 10
5.8708749795
 20
8.5915649476
 30
0.0
 10
4.852065694
 20
8.9422861664
 30
0.0
 10
4.325506971
 20
9.0915135147
 30
0.0
  0
SPLINE
  5
35A
100
AcDbEntity
  8
RACCORDO
100
AcDbSpline
 62
250
  6
CONTINUOUS
 70
0
 71
3
 72
15
 73
11
 74
0
 42
0.0000001
 43
0.0000001
 44
0.0000000001
 40
0.0
 40
0.0
 40
0.0
 40
0.0
 40
0.1451337029
 40
0.284980638
 40
0.4186540972
 40
0.5457245589
 40
0.6663167787
 40
0.7811937675
 40
0.891761195
 40
1.0
 40
1.0
 40
1.0
 40
1.0
 10
-4.3231483611
 20
9.0921819747
 30
0.0
 10
-4.8498525982
 20
8.9430080012
 30
0.0
 10
-5.8689543894
 20
8.59236835
 30
0.0
 10
-7.2934209506
 20
7.9017938284
 30
0.0
 10
-8.5598096499
 20
7.0689558395
 30
0.0
 10
-9.6400874015
 20
6.1110201465
 30
0.0
 10
-10.5099902533
 20
5.0476156738
 30
0.0
 10
-11.1487002843
 20
3.9006053217
 30
0.0
 10
-11.539573753
 20
2.6956855992
 30
0.0
 10
-11.6276457135
 20
1.8678651677
 30
0.0
 10
-11.6276457135
 20
1.4596054679
 30
0.0
  0
SPLINE
  5
35B
100
AcDbEntity
  8
0
100
AcDbSpline
 62
7
  6
CONTINUOUS
 70
0
 71
3
 72
19
 73
15
 74
0
 42
0.0000001
 43
0.0000001
 44
0.0000000001
 40
0.0
 40
0.0
 40
0.0
 40
0.0
 40
0.0517190809
 40
0.105339288
 40
0.1622479039
 40
0.2232156281
 40
0.356475455
 40
0.5
 40
0.643524545
 40
0.7767843719
 40
0.8377520961
 40
0.894660712
 40
0.9482809191
 40
1.0
 40
1.0
 40
1.0
 40
1.0
 10
1.0
 20
5.7612884472
 30
0.0
 10
1.0
 20
5.714869548
 30
0.0
 10
0.9865092289
 20
5.6198476568
 30
0.0
 10
0.9275795078
 20
5.4850026664
 30
0.0
 10
0.8329734336
 20
5.3618706894
 30
0.0
 10
0.6601551175
 20
5.215054092
 30
0.0
 10
0.3783350017
 20
5.0877249692
 30
0.0
 10
0.0
 20
5.0367977776
 30
0.0
 10
-0.3783350017
 20
5.0877249692
 30
0.0
 10
-0.6601551175
 20
5.215054092
 30
0.0
 10
-0.8329734336
 20
5.3618706894
 30
0.0
 10
-0.9275795078
 20
5.4850026664
 30
0.0
 10
-0.9865092289
 20
5.6198476568
 30
0.0
 10
-1.0
 20
5.714869548
 30
0.0
 10
-1.0
 20
5.7612884472
 30
0.0
  0
SPLINE
  5
35C
100
AcDbEntity
  8
RACCORDO
100
AcDbSpline
 62
250
  6
CONTINUOUS
 70
0
 71
3
 72
11
 73
7
 74
0
 42
0.0000001
 43
0.0000001
 44
0.0000000001
 40
0.0
 40
0.0
 40
0.0
 40
0.0
 40
0.2440923177
 40
0.4909407851
 40
0.7423915467
 40
1.0
 40
1.0
 40
1.0
 40
1.0
 10
-11.8423375667
 20
0.9535412375
 30
0.0
 10
-11.8293664016
 20
0.6986215294
 30
0.0
 10
-11.7700502945
 20
0.1870060231
 30
0.0
 10
-11.5829806478
 20
-0.5684629605
 30
0.0
 10
-11.2993321788
 20
-1.3082839212
 30
0.0
 10
-11.0508834544
 20
-1.7806299196
 30
0.0
 10
-10.9125086532
 20
-2.0117572768
 30
0.0
  0
SPLINE
  5
35D
100
AcDbEntity
  8
RACCORDO
100
AcDbSpline
 62
250
  6
CONTINUOUS
 70
0
 71
3
 72
11
 73
7
 74
0
 42
0.0000001
 43
0.0000001
 44
0.0000000001
 40
0.0
 40
0.0
 40
0.0
 40
0.0
 40
0.2576082606
 40
0.5090590694
 40
0.7559075618
 40
1.0
 40
1.0
 40
1.0
 40
1.0
 10
10.9125410414
 20
-2.0117027941
 30
0.0
 10
11.050910812
 20
-1.7805790789
 30
0.0
 10
11.2993515424
 20
-1.3082414184
 30
0.0
 10
11.5829889558
 20
-0.5684337215
 30
0.0
 10
11.770052241
 20
0.1870205211
 30
0.0
 10
11.8293666904
 20
0.6986257296
 30
0.0
 10
11.8423375708
 20
0.9535403532
 30
0.0
  0
SPLINE
  5
35E
100
AcDbEntity
  8
RACCORDO
100
AcDbSpline
 62
250
  6
CONTINUOUS
 70
0
 71
3
 72
11
 73
7
 74
0
 42
0.0000001
 43
0.0000001
 44
0.0000000001
 40
0.0
 40
0.0
 40
0.0
 40
0.0
 40
0.2431961086
 40
0.4892569952
 40
0.7407972955
 40
1.0
 40
1.0
 40
1.0
 40
1.0
 10
-11.6276457135
 20
1.4596054679
 30
0.0
 10
-11.6276457135
 20
1.1606782043
 30
0.0
 10
-11.5809441294
 20
0.55830157
 30
0.0
 10
-11.3721603885
 20
-0.3314042537
 30
0.0
 10
-11.0275380219
 20
-1.1988276804
 30
0.0
 10
-10.7154456392
 20
-1.7461241865
 30
0.0
 10
-10.5401744778
 20
-2.0121828727
 30
0.0
  0
SPLINE
  5
35F
100
AcDbEntity
  8
RACCORDO
100
AcDbSpline
 62
250
  6
CONTINUOUS
 70
0
 71
3
 72
11
 73
7
 74
0
 42
0.0000001
 43
0.0000001
 44
0.0000000001
 40
0.0
 40
0.0
 40
0.0
 40
0.0
 40
0.2592026567
 40
0.5107429493
 40
0.7568037059
 40
1.0
 40
1.0
 40
1.0
 40
1.0
 10
10.5401879181
 20
-2.0121626472
 30
0.0
 10
10.7154567562
 20
-1.7461049999
 30
0.0
 10
11.0275463053
 20
-1.1988117466
 30
0.0
 10
11.3721635168
 20
-0.33139306
 30
0.0
 10
11.5809447063
 20
0.5583071732
 30
0.0
 10
11.6276457135
 20
1.1606799342
 30
0.0
 10
11.6276457135
 20
1.4596054679
 30
0.0
  0
SPLINE
  5
360
100
AcDbEntity
  8
RACCORDO
100
AcDbSpline
 62
250
  6
CONTINUOUS
 70
0
 71
3
 72
17
 73
13
 74
0
 42
0.0000001
 43
0.0000001
 44
0.0000000001
 40
0.0
 40
0.0
 40
0.0
 40
0.0
 40
0.0532376775
 40
0.1068253291
 40
0.1610861124
 40
0.2163239213
 40
0.3305738798
 40
0.4512179021
 40
0.5789104898
 40
0.7135300615
 40
0.8543157601
 40
1.0
 40
1.0
 40
1.0
 40
1.0
 10
9.8776457135
 20
2.7608179777
 30
0.0
 10
9.8776457135
 20
2.9487891857
 30
0.0
 10
9.8560259149
 20
3.3263185797
 30
0.0
 10
9.7591041162
 20
3.8879177301
 30
0.0
 10
9.5982764063
 20
4.4420830428
 30
0.0
 10
9.2971101164
 20
5.1738479474
 30
0.0
 10
8.759408307
 20
6.0545249668
 30
0.0
 10
7.8955291241
 20
7.0080628137
 30
0.0
 10
6.8293593279
 20
7.8488313864
 30
0.0
 10
5.5889245382
 20
8.5563915873
 30
0.0
 10
4.2062732459
 20
9.1137930242
 30
0.0
 10
3.2255324264
 20
9.3728699444
 30
0.0
 10
2.7214012468
 20
9.4750434594
 30
0.0
  0
SPLINE
  5
361
100
AcDbEntity
  8
RACCORDO
100
AcDbSpline
 62
250
  6
CONTINUOUS
 70
0
 71
3
 72
17
 73
13
 74
0
 42
0.0000001
 43
0.0000001
 44
0.0000000001
 40
0.0
 40
0.0
 40
0.0
 40
0.0
 40
0.1456893706
 40
0.2864872411
 40
0.4211203196
 40
0.5488227427
 40
0.6694690502
 40
0.7837118929
 40
0.8389429114
 40
0.8931951283
 40
0.9467728416
 40
1.0
 40
1.0
 40
1.0
 40
1.0
 10
-2.7078131185
 20
9.4777902059
 30
0.0
 10
-3.2127277839
 20
9.3760096607
 30
0.0
 10
-4.195073876
 20
9.1175684309
 30
0.0
 10
-5.5801588334
 20
8.5606935634
 30
0.0
 10
-6.8229433988
 20
7.853224958
 30
0.0
 10
-7.8912506578
 20
7.0121462341
 30
0.0
 10
-8.7569413367
 20
6.0579468446
 30
0.0
 10
-9.2958239081
 20
5.1764453995
 30
0.0
 10
-9.597657072
 20
4.4439203536
 30
0.0
 10
-9.7588403631
 20
3.8891641231
 30
0.0
 10
-9.8559777037
 20
3.3269485107
 30
0.0
 10
-9.8776457135
 20
2.9489975525
 30
0.0
 10
-9.8776457135
 20
2.7608179777
 30
0.0
  0
SPLINE
  5
362
100
AcDbEntity
  8
RACCORDO
100
AcDbSpline
 62
250
  6
CONTINUOUS
 70
0
 71
3
 72
13
 73
9
 74
0
 42
0.0000001
 43
0.0000001
 44
0.0000000001
 40
0.0
 40
0.0
 40
0.0
 40
0.0
 40
0.1169092281
 40
0.2349897599
 40
0.3549477341
 40
0.477390847
 40
0.7313675802
 40
1.0
 40
1.0
 40
1.0
 40
1.0
 10
-10.0892457951
 20
2.2264965522
 30
0.0
 10
-10.0766439832
 20
2.033526621
 30
0.0
 10
-10.0290063256
 20
1.6467549729
 30
0.0
 10
-9.8917138829
 20
1.074723858
 30
0.0
 10
-9.6893234236
 20
0.5125655393
 30
0.0
 10
-9.3304552318
 20
-0.2273983739
 30
0.0
 10
-8.7191565704
 20
-1.1105943771
 30
0.0
 10
-8.1030335686
 20
-1.723726407
 30
0.0
 10
-7.7644704436
 20
-2.0115115372
 30
0.0
  0
SPLINE
  5
363
100
AcDbEntity
  8
RACCORDO
100
AcDbSpline
 62
250
  6
CONTINUOUS
 70
0
 71
3
 72
13
 73
9
 74
0
 42
0.0000001
 43
0.0000001
 44
0.0000000001
 40
0.0
 40
0.0
 40
0.0
 40
0.0
 40
0.2686315687
 40
0.5226078876
 40
0.6450510768
 40
0.7650093233
 40
0.8830902964
 40
1.0
 40
1.0
 40
1.0
 40
1.0
 10
7.7646704349
 20
-2.0113419085
 30
0.0
 10
8.1032052113
 20
-1.7235621111
 30
0.0
 10
8.7192764399
 20
-1.1104469588
 30
0.0
 10
9.3305194724
 20
-0.2272850278
 30
0.0
 10
9.6893563282
 20
0.5126451939
 30
0.0
 10
9.8917286376
 20
1.0747775503
 30
0.0
 10
10.0290099551
 20
1.6467810265
 30
0.0
 10
10.0766444238
 20
2.0335336209
 30
0.0
 10
10.0892456797
 20
2.226494064
 30
0.0
  0
SPLINE
  5
364
100
AcDbEntity
  8
RACCORDO
100
AcDbSpline
 62
250
  6
CONTINUOUS
 70
0
 71
3
 72
27
 73
23
 74
0
 42
0.0000001
 43
0.0000001
 44
0.0000000001
 40
0.0
 40
0.0
 40
0.0
 40
0.0
 40
0.0257376526
 40
0.0517246991
 40
0.0781859366
 40
0.1053229784
 40
0.1621193692
 40
0.2229624093
 40
0.2878998892
 40
0.3564034964
 40
0.427515478
 40
0.5000002603
 40
0.5724850343
 40
0.6435970054
 40
0.7121005959
 40
0.7770380443
 40
0.8378810443
 40
0.89467733
 40
0.9218142928
 40
0.9482754603
 40
0.9742623975
 40
1.0
 40
1.0
 40
1.0
 40
1.0
 10
8.1276457135
 20
4.0146633147
 30
0.0
 10
8.1276457135
 20
4.2028056052
 30
0.0
 10
8.1012317272
 20
4.5814299201
 30
0.0
 10
7.9830462408
 20
5.1423309258
 30
0.0
 10
7.7874315624
 20
5.6920668223
 30
0.0
 10
7.4211296504
 20
6.4132473154
 30
0.0
 10
6.770529584
 20
7.2608665309
 30
0.0
 10
5.7471022122
 20
8.130320435
 30
0.0
 10
4.5088985319
 20
8.8403629819
 30
0.0
 10
3.1027254858
 20
9.3661152939
 30
0.0
 10
1.5808517761
 20
9.6893076744
 30
0.0
 10
-0.0000057243
 20
9.7983448376
 30
0.0
 10
-1.5808630042
 20
9.6893058368
 30
0.0
 10
-3.1027361599
 20
9.3661121993
 30
0.0
 10
-4.5089083733
 20
8.8403588095
 30
0.0
 10
-5.7471104946
 20
8.13031475
 30
0.0
 10
-6.7705354152
 20
7.2608600128
 30
0.0
 10
-7.4211335274
 20
6.413241405
 30
0.0
 10
-7.7874337046
 20
5.6920621249
 30
0.0
 10
-7.9830472715
 20
5.1423278428
 30
0.0
 10
-8.1012318506
 20
4.5814283777
 30
0.0
 10
-8.1276457135
 20
4.2028052396
 30
0.0
 10
-8.1276457135
 20
4.0146633147
 30
0.0
  0
SPLINE
  5
365
100
AcDbEntity
  8
RACCORDO
100
AcDbSpline
 62
250
  6
CONTINUOUS
 70
0
 71
3
 72
13
 73
9
 74
0
 42
0.0000001
 43
0.0000001
 44
0.0000000001
 40
0.0
 40
0.0
 40
0.0
 40
0.0
 40
0.1160480066
 40
0.2331184972
 40
0.3521637349
 40
0.4740245448
 40
0.7283715984
 40
1.0
 40
1.0
 40
1.0
 40
1.0
 10
-9.8776457135
 20
2.7608179777
 30
0.0
 10
-9.8776457135
 20
2.5417891543
 30
0.0
 10
-9.8482226765
 20
2.1012483371
 30
0.0
 10
-9.7164754527
 20
1.4479310953
 30
0.0
 10
-9.4983159295
 20
0.8065123713
 30
0.0
 10
-9.0896470157
 20
-0.0364581947
 30
0.0
 10
-8.3630846315
 20
-1.0332838313
 30
0.0
 10
-7.6208706422
 20
-1.7028490122
 30
0.0
 10
-7.2118189558
 20
-2.0118931611
 30
0.0
  0
SPLINE
  5
366
100
AcDbEntity
  8
RACCORDO
100
AcDbSpline
 62
250
  6
CONTINUOUS
 70
0
 71
3
 72
13
 73
9
 74
0
 42
0.0000001
 43
0.0000001
 44
0.0000000001
 40
0.0
 40
0.0
 40
0.0
 40
0.0
 40
0.2716299208
 40
0.5259771609
 40
0.6478377215
 40
0.766882567
 40
0.8839524967
 40
1.0
 40
1.0
 40
1.0
 40
1.0
 10
7.2116295186
 20
-2.0120361994
 30
0.0
 10
7.6207096725
 20
-1.702989401
 30
0.0
 10
8.3629741446
 20
-1.0334121486
 30
0.0
 10
9.0895888878
 20
-0.0365569414
 30
0.0
 10
9.4982883756
 20
0.8064415568
 30
0.0
 10
9.7164634668
 20
1.4478826601
 30
0.0
 10
9.8482204695
 20
2.1012236653
 30
0.0
 10
9.8776457135
 20
2.541780943
 30
0.0
 10
9.8776457135
 20
2.7608179777
 30
0.0
  0
SPLINE
  5
367
100
AcDbEntity
  8
RACCORDO
100
AcDbSpline
 62
250
  6
CONTINUOUS
 70
0
 71
3
 72
23
 73
19
 74
0
 42
0.0000001
 43
0.0000001
 44
0.0000000001
 40
0.0
 40
0.0
 40
0.0
 40
0.0
 40
0.0516449947
 40
0.1051632703
 40
0.1619859103
 40
0.2228540161
 40
0.2878179853
 40
0.3563491231
 40
0.4274898418
 40
0.5000033257
 40
0.5725167848
 40
0.6436572122
 40
0.7121882449
 40
0.7771524854
 40
0.8380206279
 40
0.8948435763
 40
0.9483618214
 40
1.0
 40
1.0
 40
1.0
 40
1.0
 10
3.8776457135
 20
5.2160646807
 30
0.0
 10
3.8776457135
 20
5.3960957684
 30
0.0
 10
3.8254111986
 20
5.764557961
 30
0.0
 10
3.5967663176
 20
6.2874007391
 30
0.0
 10
3.2300676653
 20
6.7648572632
 30
0.0
 10
2.7417144605
 20
7.1797670861
 30
0.0
 10
2.1510143881
 20
7.518430283
 30
0.0
 10
1.4801625227
 20
7.7692322873
 30
0.0
 10
0.7541336239
 20
7.9234041966
 30
0.0
 10
-0.0000343391
 20
7.9754132621
 30
0.0
 10
-0.7542006072
 20
7.9233945655
 30
0.0
 10
-1.4802261145
 20
7.7692135413
 30
0.0
 10
-2.1510738832
 20
7.5184018746
 30
0.0
 10
-2.7417693533
 20
7.1797285105
 30
0.0
 10
-3.2301141673
 20
6.7648057983
 30
0.0
 10
-3.5968045778
 20
6.2873406281
 30
0.0
 10
-3.8254176521
 20
5.7645088205
 30
0.0
 10
-3.8776457135
 20
5.396072008
 30
0.0
 10
-3.8776457135
 20
5.2160646807
 30
0.0
  0
SPLINE
  5
368
100
AcDbEntity
  8
RACCORDO
100
AcDbSpline
 62
7
  6
CONTINUOUS
 70
0
 71
3
 72
23
 73
19
 74
0
 42
0.0000001
 43
0.0000001
 44
0.0000000001
 40
0.0
 40
0.0
 40
0.0
 40
0.0
 40
0.114447145
 40
0.1750136049
 40
0.2374999576
 40
0.2693828939
 40
0.3016310955
 40
0.3670218346
 40
0.4332882226
 40
0.5
 40
0.5667117774
 40
0.6329781654
 40
0.6983689045
 40
0.7306171061
 40
0.7625000424
 40
0.8249863951
 40
0.885552855
 40
1.0
 40
1.0
 40
1.0
 40
1.0
 10
-16.0
 20
6.8926592971
 30
0.0
 10
-15.0367738091
 20
7.8007976589
 30
0.0
 10
-13.3853384716
 20
9.0091755581
 30
0.0
 10
-10.9476254686
 20
10.2803454719
 30
0.0
 10
-9.283436215
 20
10.9541519197
 30
0.0
 10
-7.8914439618
 20
11.4106840757
 30
0.0
 10
-6.4481127741
 20
11.8140958348
 30
0.0
 10
-4.5902445245
 20
12.2044290135
 30
0.0
 10
-2.3105107025
 20
12.4865983479
 30
0.0
 10
0.0
 20
12.5810765082
 30
0.0
 10
2.3105107025
 20
12.4865983479
 30
0.0
 10
4.5902445245
 20
12.2044290135
 30
0.0
 10
6.4481127741
 20
11.8140958348
 30
0.0
 10
7.8914439618
 20
11.4106840757
 30
0.0
 10
9.283436215
 20
10.9541519197
 30
0.0
 10
10.9476254686
 20
10.2803454719
 30
0.0
 10
13.3853384716
 20
9.0091755581
 30
0.0
 10
15.0367738091
 20
7.8007976589
 30
0.0
 10
16.0
 20
6.8926592971
 30
0.0
  0
SPLINE
  5
369
100
AcDbEntity
  8
0
100
AcDbSpline
 62
7
  6
CONTINUOUS
 70
0
 71
3
 72
17
 73
13
 74
0
 42
0.0000001
 43
0.0000001
 44
0.0000000001
 40
0.0
 40
0.0
 40
0.0
 40
0.0
 40
0.1449614088
 40
0.2871711856
 40
0.4241685933
 40
0.5540358456
 40
0.6757152436
 40
0.7893068336
 40
0.8435830888
 40
0.8965156526
 40
0.94850229
 40
1.0
 40
1.0
 40
1.0
 40
1.0
 10
25.0
 20
5.4784457347
 30
0.0
 10
25.651891516
 20
5.4784457347
 30
0.0
 10
26.9451459785
 20
5.3893024482
 30
0.0
 10
28.8171643203
 20
4.9916999003
 30
0.0
 10
30.5472394748
 20
4.3449376654
 30
0.0
 10
32.0706158845
 20
3.4714587785
 30
0.0
 10
33.329838465
 20
2.4018440876
 30
0.0
 10
34.1303618034
 20
1.3590361694
 30
0.0
 10
34.5812008174
 20
0.4717392735
 30
0.0
 10
34.821966936
 20
-0.2047277179
 30
0.0
 10
34.967478437
 20
-0.8950301511
 30
0.0
 10
34.9999908925
 20
-1.3610368539
 30
0.0
 10
34.9999908925
 20
-1.5926220772
 30
0.0
  0
SPLINE
  5
36A
100
AcDbEntity
  8
0
100
AcDbSpline
 62
7
  6
CONTINUOUS
 70
0
 71
3
 72
17
 73
13
 74
0
 42
0.0000001
 43
0.0000001
 44
0.0000000001
 40
0.0
 40
0.0
 40
0.0
 40
0.0
 40
0.05149771
 40
0.1034843474
 40
0.1564169112
 40
0.2106931664
 40
0.3242847564
 40
0.4459641544
 40
0.5758314067
 40
0.7128288144
 40
0.8550385912
 40
1.0
 40
1.0
 40
1.0
 40
1.0
 10
-34.9999908925
 20
-1.5926220772
 30
0.0
 10
-34.9999908925
 20
-1.3610368539
 30
0.0
 10
-34.967478437
 20
-0.8950301511
 30
0.0
 10
-34.821966936
 20
-0.2047277179
 30
0.0
 10
-34.5812008174
 20
0.4717392735
 30
0.0
 10
-34.1303618034
 20
1.3590361694
 30
0.0
 10
-33.329838465
 20
2.4018440876
 30
0.0
 10
-32.0706158845
 20
3.4714587785
 30
0.0
 10
-30.5472394748
 20
4.3449376654
 30
0.0
 10
-28.8171643203
 20
4.9916999003
 30
0.0
 10
-26.9451459785
 20
5.3893024482
 30
0.0
 10
-25.651891516
 20
5.4784457347
 30
0.0
 10
-25.0
 20
5.4784457347
 30
0.0
  0
SPLINE
  5
36B
100
AcDbEntity
  8
RACCORDO
100
AcDbSpline
 62
7
  6
CONTINUOUS
 70
0
 71
3
 72
11
 73
7
 74
0
 42
0.0000001
 43
0.0000001
 44
0.0000000001
 40
0.0
 40
0.0
 40
0.0
 40
0.0
 40
0.4736397607
 40
0.6022681796
 40
0.7334433341
 40
1.0
 40
1.0
 40
1.0
 40
1.0
 10
-16.0
 20
6.8926592971
 30
0.0
 10
-16.4967570311
 20
6.4243122767
 30
0.0
 10
-17.2865450249
 20
5.9869105863
 30
0.0
 10
-18.2974870038
 20
5.6813902611
 30
0.0
 10
-19.0410525914
 20
5.5250291589
 30
0.0
 10
-19.6157723422
 20
5.4784457347
 30
0.0
 10
-20.0
 20
5.4784457347
 30
0.0
  0
SPLINE
  5
36C
100
AcDbEntity
  8
RACCORDO
100
AcDbSpline
 62
7
  6
CONTINUOUS
 70
0
 71
3
 72
11
 73
7
 74
0
 42
0.0000001
 43
0.0000001
 44
0.0000000001
 40
0.0
 40
0.0
 40
0.0
 40
0.0
 40
0.2665566659
 40
0.3977318204
 40
0.5263602393
 40
1.0
 40
1.0
 40
1.0
 40
1.0
 10
20.0
 20
5.4784457347
 30
0.0
 10
19.6157723422
 20
5.4784457347
 30
0.0
 10
19.0410525914
 20
5.5250291589
 30
0.0
 10
18.2974870038
 20
5.6813902611
 30
0.0
 10
17.2865450249
 20
5.9869105863
 30
0.0
 10
16.4967570311
 20
6.4243122767
 30
0.0
 10
16.0
 20
6.8926592971
 30
0.0
  0
SPLINE
  5
36D
100
AcDbEntity
  8
ASSI
100
AcDbSpline
 62
7
  6
CONTINUOUS
 70
0
 71
3
 72
14
 73
10
 74
0
 42
0.0000001
 43
0.0000001
 44
0.0000000001
 40
0.0
 40
0.0
 40
0.0
 40
0.0
 40
0.2867901052
 40
0.4239498713
 40
0.5539709089
 40
0.6757947105
 40
0.789520972
 40
0.8966360126
 40
1.0
 40
1.0
 40
1.0
 40
1.0
 10
-54.0
 20
-51.6557821852
 30
0.0
 10
-54.4508587106
 20
-51.6557821852
 30
0.0
 10
-55.1232406283
 20
-51.5650480538
 30
0.0
 10
-55.9414107013
 20
-51.2590810166
 30
0.0
 10
-56.4747335947
 20
-50.9533595437
 30
0.0
 10
-56.9154807978
 20
-50.5788651853
 30
0.0
 10
-57.2464872599
 20
-50.1479126011
 30
0.0
 10
-57.4528426357
 20
-49.67598205
 30
0.0
 10
-57.5
 20
-49.3434055289
 30
0.0
 10
-57.5
 20
-49.180908451
 30
0.0
  0
SPLINE
  5
36E
100
AcDbEntity
  8
ASSI
100
AcDbSpline
 62
7
  6
CONTINUOUS
 70
0
 71
3
 72
14
 73
10
 74
0
 42
0.0000001
 43
0.0000001
 44
0.0000000001
 40
0.0
 40
0.0
 40
0.0
 40
0.0
 40
0.1033639874
 40
0.210479028
 40
0.3242052895
 40
0.4460290911
 40
0.5760501287
 40
0.7132098948
 40
1.0
 40
1.0
 40
1.0
 40
1.0
 10
57.5
 20
-49.180908451
 30
0.0
 10
57.5
 20
-49.3434055289
 30
0.0
 10
57.4528426357
 20
-49.67598205
 30
0.0
 10
57.2464872599
 20
-50.1479126011
 30
0.0
 10
56.9154807978
 20
-50.5788651853
 30
0.0
 10
56.4747335947
 20
-50.9533595437
 30
0.0
 10
55.9414107013
 20
-51.2590810166
 30
0.0
 10
55.1232406283
 20
-51.5650480538
 30
0.0
 10
54.4508587106
 20
-51.6557821852
 30
0.0
 10
54.0
 20
-51.6557821852
 30
0.0
  0
SPLINE
  5
36F
100
AcDbEntity
  8
ASSI
100
AcDbSpline
 62
7
  6
CONTINUOUS
 70
0
 71
3
 72
14
 73
10
 74
0
 42
0.0000001
 43
0.0000001
 44
0.0000000001
 40
0.0
 40
0.0
 40
0.0
 40
0.0
 40
0.1033639874
 40
0.210479028
 40
0.3242052895
 40
0.4460290911
 40
0.5760501287
 40
0.7132098948
 40
1.0
 40
1.0
 40
1.0
 40
1.0
 10
-45.0
 20
-54.1306559193
 30
0.0
 10
-45.0
 20
-53.9681588415
 30
0.0
 10
-45.0471573643
 20
-53.6355823203
 30
0.0
 10
-45.2535127401
 20
-53.1636517692
 30
0.0
 10
-45.5845192022
 20
-52.7326991851
 30
0.0
 10
-46.0252664053
 20
-52.3582048266
 30
0.0
 10
-46.5585892987
 20
-52.0524833538
 30
0.0
 10
-47.3767593717
 20
-51.7465163166
 30
0.0
 10
-48.0491412894
 20
-51.6557821852
 30
0.0
 10
-48.5
 20
-51.6557821852
 30
0.0
  0
SPLINE
  5
370
100
AcDbEntity
  8
ASSI
100
AcDbSpline
 62
7
  6
CONTINUOUS
 70
0
 71
3
 72
14
 73
10
 74
0
 42
0.0000001
 43
0.0000001
 44
0.0000000001
 40
0.0
 40
0.0
 40
0.0
 40
0.0
 40
0.2867901052
 40
0.4239498713
 40
0.5539709089
 40
0.6757947105
 40
0.789520972
 40
0.8966360126
 40
1.0
 40
1.0
 40
1.0
 40
1.0
 10
48.5
 20
-51.6557821852
 30
0.0
 10
48.0491412894
 20
-51.6557821852
 30
0.0
 10
47.3767593717
 20
-51.7465163166
 30
0.0
 10
46.5585892987
 20
-52.0524833538
 30
0.0
 10
46.0252664053
 20
-52.3582048266
 30
0.0
 10
45.5845192022
 20
-52.7326991851
 30
0.0
 10
45.2535127401
 20
-53.1636517692
 30
0.0
 10
45.0471573643
 20
-53.6355823203
 30
0.0
 10
45.0
 20
-53.9681588415
 30
0.0
 10
45.0
 20
-54.1306559193
 30
0.0
  0
SPLINE
  5
371
100
AcDbEntity
  8
0
100
AcDbSpline
 62
7
  6
CONTINUOUS
 70
0
 71
3
 72
14
 73
10
 74
0
 42
0.0000001
 43
0.0000001
 44
0.0000000001
 40
0.0
 40
0.0
 40
0.0
 40
0.0
 40
0.2867901052
 40
0.4239498713
 40
0.5539709089
 40
0.6757947105
 40
0.789520972
 40
0.8966360126
 40
1.0
 40
1.0
 40
1.0
 40
1.0
 10
-54.0
 20
-51.6557821852
 30
0.0
 10
-54.4508587106
 20
-51.6557821852
 30
0.0
 10
-55.1232406283
 20
-51.5650480538
 30
0.0
 10
-55.9414107013
 20
-51.2590810166
 30
0.0
 10
-56.4747335947
 20
-50.9533595437
 30
0.0
 10
-56.9154807978
 20
-50.5788651853
 30
0.0
 10
-57.2464872599
 20
-50.1479126011
 30
0.0
 10
-57.4528426357
 20
-49.67598205
 30
0.0
 10
-57.5
 20
-49.3434055289
 30
0.0
 10
-57.5
 20
-49.180908451
 30
0.0
  0
SPLINE
  5
372
100
AcDbEntity
  8
0
100
AcDbSpline
 62
7
  6
CONTINUOUS
 70
0
 71
3
 72
14
 73
10
 74
0
 42
0.0000001
 43
0.0000001
 44
0.0000000001
 40
0.0
 40
0.0
 40
0.0
 40
0.0
 40
0.1033639874
 40
0.210479028
 40
0.3242052895
 40
0.4460290911
 40
0.5760501287
 40
0.7132098948
 40
1.0
 40
1.0
 40
1.0
 40
1.0
 10
57.5
 20
-49.180908451
 30
0.0
 10
57.5
 20
-49.3434055289
 30
0.0
 10
57.4528426357
 20
-49.67598205
 30
0.0
 10
57.2464872599
 20
-50.1479126011
 30
0.0
 10
56.9154807978
 20
-50.5788651853
 30
0.0
 10
56.4747335947
 20
-50.9533595437
 30
0.0
 10
55.9414107013
 20
-51.2590810166
 30
0.0
 10
55.1232406283
 20
-51.5650480538
 30
0.0
 10
54.4508587106
 20
-51.6557821852
 30
0.0
 10
54.0
 20
-51.6557821852
 30
0.0
  0
SPLINE
  5
373
100
AcDbEntity
  8
0
100
AcDbSpline
 62
7
  6
CONTINUOUS
 70
0
 71
3
 72
14
 73
10
 74
0
 42
0.0000001
 43
0.0000001
 44
0.0000000001
 40
0.0
 40
0.0
 40
0.0
 40
0.0
 40
0.1033639874
 40
0.210479028
 40
0.3242052895
 40
0.4460290911
 40
0.5760501287
 40
0.7132098948
 40
1.0
 40
1.0
 40
1.0
 40
1.0
 10
-45.0
 20
-54.1306559193
 30
0.0
 10
-45.0
 20
-53.9681588415
 30
0.0
 10
-45.0471573643
 20
-53.6355823203
 30
0.0
 10
-45.2535127401
 20
-53.1636517692
 30
0.0
 10
-45.5845192022
 20
-52.7326991851
 30
0.0
 10
-46.0252664053
 20
-52.3582048266
 30
0.0
 10
-46.5585892987
 20
-52.0524833538
 30
0.0
 10
-47.3767593717
 20
-51.7465163166
 30
0.0
 10
-48.0491412894
 20
-51.6557821852
 30
0.0
 10
-48.5
 20
-51.6557821852
 30
0.0
  0
SPLINE
  5
374
100
AcDbEntity
  8
0
100
AcDbSpline
 62
7
  6
CONTINUOUS
 70
0
 71
3
 72
14
 73
10
 74
0
 42
0.0000001
 43
0.0000001
 44
0.0000000001
 40
0.0
 40
0.0
 40
0.0
 40
0.0
 40
0.2867901052
 40
0.4239498713
 40
0.5539709089
 40
0.6757947105
 40
0.789520972
 40
0.8966360126
 40
1.0
 40
1.0
 40
1.0
 40
1.0
 10
48.5
 20
-51.6557821852
 30
0.0
 10
48.0491412894
 20
-51.6557821852
 30
0.0
 10
47.3767593717
 20
-51.7465163166
 30
0.0
 10
46.5585892987
 20
-52.0524833538
 30
0.0
 10
46.0252664053
 20
-52.3582048266
 30
0.0
 10
45.5845192022
 20
-52.7326991851
 30
0.0
 10
45.2535127401
 20
-53.1636517692
 30
0.0
 10
45.0471573643
 20
-53.6355823203
 30
0.0
 10
45.0
 20
-53.9681588415
 30
0.0
 10
45.0
 20
-54.1306559193
 30
0.0
  0
ENDSEC
  0
SECTION
  2
OBJECTS
  0
DICTIONARY
  5
C
100
AcDbDictionary
280
0
281
1
  3
ACAD_GROUP
350
D
  3
ACAD_MLINESTYLE
350
17
  3
ACAD_LAYOUT
350
1A
  3
ACAD_PLOTSETTINGS
350
19
  3
ACAD_PLOTSTYLENAME
350
E
  0
DICTIONARY
  5
D
102
{ACAD_REACTORS
330
C
102
}
100
AcDbDictionary
280
0
281
1
  0
ACDBDICTIONARYWDFLT
  5
E
102
{ACAD_REACTORS
330
C
102
}
100
AcDbDictionary
281
1
  3
Normal
350
F
100
AcDbDictionaryWithDefault
340
F
  0
DICTIONARY
  5
17
102
{ACAD_REACTORS
330
C
102
}
100
AcDbDictionary
280
0
281
1
  3
Standard
350
18
  0
DICTIONARY
  5
19
102
{ACAD_REACTORS
330
C
102
}
100
AcDbDictionary
281
1
  0
DICTIONARY
  5
1A
102
{ACAD_REACTORS
330
C
102
}
100
AcDbDictionary
281
1
  3
Model
350
375
  3
Layout1
350
376
  0
ACDBPLACEHOLDER
  5
F
102
{ACAD_REACTORS
330
E
102
}
  0
MLINESTYLE
  5
18
102
{ACAD_REACTORS
330
17
102
}
100
AcDbMlineStyle
  2
STANDARD
 70
0
  3

 62
256
 51
90.0
 52
90.0
 71
2
 49
0.5
 62
256
  6
BYLAYER
 49
-0.5
 62
256
  6
BYLAYER
  0
LAYOUT
  5
375
102
{ACAD_REACTORS
330
1A
102
}
100
AcDbPlotSettings
  1

  2
none_device
  4
ISO_A4_(297.00_x_210.00_MM)
  6

 40
0.0
 41
0.0
 42
0.0
 43
0.0
 44
297.0
 45
210.0
 46
0.0
 47
0.0
 48
0.0
 49
0.0
140
0.0
141
0.0
142
1.0
143
1.0
 70
1024
 72
1
 73
0
 74
0
  7

 75
0
147
1.0
148
0.0
149
0.0
100
AcDbLayout
  1
Model
 70
0
 71
0
 10
0.0
 20
0.0
 11
297.0
 21
210.0
 12
0.0
 22
0.0
 32
0.0
 14
0.0
 24
0.0
 34
0.0
 15
0.0
 25
0.0
 35
0.0
146
0.0
 13
0.0
 23
0.0
 33
0.0
 16
1.0
 26
0.0
 36
0.0
 17
0.0
 27
1.0
 37
0.0
 76
0
330
213
345
0
346
0
  0
LAYOUT
  5
376
102
{ACAD_REACTORS
330
1A
102
}
100
AcDbPlotSettings
  1

  2
none_device
  4
ISO_A4_(297.00_x_210.00_MM)
  6

 40
0.0
 41
0.0
 42
0.0
 43
0.0
 44
297.0
 45
210.0
 46
0.0
 47
0.0
 48
0.0
 49
0.0
140
0.0
141
0.0
142
1.0
143
1.0
 70
0
 72
1
 73
0
 74
0
  7

 75
0
147
1.0
148
0.0
149
0.0
100
AcDbLayout
  1
Layout1
 70
0
 71
1
 10
0.0
 20
0.0
 11
297.0
 21
210.0
 12
0.0
 22
0.0
 32
0.0
 14
0.0
 24
0.0
 34
0.0
 15
0.0
 25
0.0
 35
0.0
146
0.0
 13
0.0
 23
0.0
 33
0.0
 16
1.0
 26
0.0
 36
0.0
 17
0.0
 27
1.0
 37
0.0
 76
0
330
214
345
0
346
0
  0
ENDSEC
  0
EOF
