  0
SECTION
  2
HEADER
  9
$ACADVER
  1
AC1024
  9
$DWGCODEPAGE
  3
ANSI_1252
  9
$EXTMAX
 10
420.0
 20
297.0
 30
0.0
  9
$EXTMIN
 10
0.0
 20
-0.0
 30
0.0
  9
$LIMMIN
 10
0.0
 20
-0.0
  9
$LIMMAX
 10
420.0
 20
297.0
  9
$VIEWCTR
 10
210.0
 20
148.5
  9
$VIEWSIZE
 40
297.0
  9
$CLAYER
  8
0
  9
$LTSCALE
 40
23.1
  9
$CELTYPE
  6
BYLAYER
  9
$DIMSCALE
 40
1.0
  9
$DIMASZ
 40
3.0
  9
$DIMEXO
 40
0.5
  9
$DIMDLI
 40
15.96
  9
$DIMEXE
 40
1.5
  9
$DIMCEN
 40
3.78
  9
$DIMLFAC
 40
1.0
  9
$DIMBLK
  1
_FILLED
  9
$DIMALT
 70
0
  9
$DIMALTF
 40
0.0393700787
  9
$DIMTXT
 40
3.0
  9
$DIMTOL
 70
1
  9
$DIMLIM
 70
0
  9
$DIMTFAC
 40
1.0
  9
$DIMTP
 40
0.01
  9
$DIMTM
 40
0.01
  9
$DIMGAP
 40
0.625
  9
$DIMDSEP
 70
44
  9
$AUNITS
 70
0
  9
$PDMODE
 70
3
  9
$PDSIZE
 40
3.0
  9
$HANDSEED
  5
25B
  9
$TILEMODE
 70
1
  9
$MEASUREMENT
 70
1
  9
$INSUNITS
 70
4
  0
ENDSEC
  0
SECTION
  2
CLASSES
  0
CLASS
  1
ACDBDICTIONARYWDFLT
  2
AcDbDictionaryWithDefault
  3
AutoCAD 2000
 90
0
 91
1
280
0
281
0
  0
CLASS
  1
ACDBPLACEHOLDER
  2
AcDbPlaceHolder
  3
AutoCAD 2000
 90
0
 91
1
280
0
281
0
  0
CLASS
  1
LAYOUT
  2
AcDbLayout
  3
AutoCAD 2000
 90
0
 91
0
280
0
281
0
  0
ENDSEC
  0
SECTION
  2
TABLES
  0
TABLE
  2
VPORT
  5
8
100
AcDbSymbolTable
 70
2
  0
VPORT
  5
1F4
100
AcDbSymbolTableRecord
100
AcDbViewportTableRecord
  2
*ACTIVE
 70
0
 10
0.0
 20
0.0
 11
1.0
 21
1.0
 12
210.0
 22
148.5
 13
0.0
 23
0.0
 14
1.0
 24
1.0
 15
0.0
 25
0.0
 16
0.0
 26
0.0
 36
1.0
 17
0.0
 27
0.0
 37
0.0
 40
297.0
 41
1.4141414141
 42
50.0
 43
0.0
 44
0.0
 50
0.0
 51
0.0
 71
0
 72
100
 73
1
 74
1
 75
0
 76
0
 77
0
 78
0
  0
ENDTAB
  0
TABLE
  2
LTYPE
  5
5
100
AcDbSymbolTable
 70
6
  0
LTYPE
  5
14
100
AcDbSymbolTableRecord
100
AcDbLinetypeTableRecord
  2
BYBLOCK
 70
0
  3

 72
65
 73
0
 40
0.0
  0
LTYPE
  5
15
100
AcDbSymbolTableRecord
100
AcDbLinetypeTableRecord
  2
BYLAYER
 70
0
  3

 72
65
 73
0
 40
0.0
  0
LTYPE
  5
16
100
AcDbSymbolTableRecord
100
AcDbLinetypeTableRecord
  2
CONTINUOUS
 70
64
  3
Solid line
 72
65
 73
0
 40
0.0
  0
LTYPE
  5
1F5
100
AcDbSymbolTableRecord
100
AcDbLinetypeTableRecord
  2
CENTER
 70
64
  3
____ _ ____ _ ____ _ ____ _ ____ _ ____ _ ____
 72
65
 73
4
 40
0.6
 49
0.375
 74
0
 49
-0.075
 74
0
 49
0.075
 74
0
 49
-0.075
 74
0
  0
LTYPE
  5
1F6
100
AcDbSymbolTableRecord
100
AcDbLinetypeTableRecord
  2
HIDDEN
 70
64
  3
- - - - - - - - - - - - - - - - - - - -
 72
65
 73
2
 40
0.2
 49
0.1
 74
0
 49
-0.1
 74
0
  0
LTYPE
  5
1F7
100
AcDbSymbolTableRecord
100
AcDbLinetypeTableRecord
  2
PHANTOM
 70
64
  3
_____ _ _ _____ _ _ _____ _ _ _____
 72
65
 73
6
 40
0.8
 49
0.45
 74
0
 49
-0.05
 74
0
 49
0.1
 74
0
 49
-0.05
 74
0
 49
0.1
 74
0
 49
-0.05
 74
0
  0
LTYPE
  5
1F8
100
AcDbSymbolTableRecord
100
AcDbLinetypeTableRecord
  2
DOT
 70
64
  3
. . . . . . . . . . . . . . . . . . . .
 72
65
 73
2
 40
0.2
 49
0.1
 74
0
 49
-0.1
 74
0
  0
LTYPE
  5
1F9
100
AcDbSymbolTableRecord
100
AcDbLinetypeTableRecord
  2
DASHED
 70
64
  3
- - - - - - - - - - - - - - - - - - - -
 72
65
 73
2
 40
0.2
 49
0.1
 74
0
 49
-0.1
 74
0
  0
ENDTAB
  0
TABLE
  2
LAYER
  5
2
100
AcDbSymbolTable
 70
36
  0
LAYER
  5
10
100
AcDbSymbolTableRecord
100
AcDbLayerTableRecord
  2
0
 70
0
 62
7
  6
CONTINUOUS
370
-3
390
F
  0
LAYER
  5
1FA
100
AcDbSymbolTableRecord
100
AcDbLayerTableRecord
  2
DEFAULT_1
 70
0
 62
7
  6
CENTER
370
-3
390
F
  0
LAYER
  5
1FB
100
AcDbSymbolTableRecord
100
AcDbLayerTableRecord
  2
DEFAULT_2
 70
0
 62
7
  6
HIDDEN
370
-3
390
F
  0
LAYER
  5
1FC
100
AcDbSymbolTableRecord
100
AcDbLayerTableRecord
  2
DEFAULT_3
 70
0
 62
7
  6
PHANTOM
370
-3
390
F
  0
LAYER
  5
1FD
100
AcDbSymbolTableRecord
100
AcDbLayerTableRecord
  2
ASSI
 70
0
 62
7
  6
CONTINUOUS
370
-3
390
F
  0
LAYER
  5
1FE
100
AcDbSymbolTableRecord
100
AcDbLayerTableRecord
  2
COLOR5
 70
0
 62
7
  6
CONTINUOUS
370
-3
390
F
  0
LAYER
  5
1FF
100
AcDbSymbolTableRecord
100
AcDbLayerTableRecord
  2
COORDINATE
 70
0
 62
7
  6
CONTINUOUS
370
-3
390
F
  0
LAYER
  5
200
100
AcDbSymbolTableRecord
100
AcDbLayerTableRecord
  2
COORD_ORIGINE
 70
0
 62
7
  6
CONTINUOUS
370
-3
390
F
  0
LAYER
  5
201
100
AcDbSymbolTableRecord
100
AcDbLayerTableRecord
  2
COPY_PUBLISH
 70
0
 62
7
  6
CONTINUOUS
370
-3
390
F
  0
LAYER
  5
202
100
AcDbSymbolTableRecord
100
AcDbLayerTableRecord
  2
COSMETICI
 70
0
 62
7
  6
CONTINUOUS
370
-3
390
F
  0
LAYER
  5
203
100
AcDbSymbolTableRecord
100
AcDbLayerTableRecord
  2
CURVE
 70
0
 62
7
  6
CONTINUOUS
370
-3
390
F
  0
LAYER
  5
204
100
AcDbSymbolTableRecord
100
AcDbLayerTableRecord
  2
DRAFT
 70
0
 62
7
  6
CONTINUOUS
370
-3
390
F
  0
LAYER
  5
205
100
AcDbSymbolTableRecord
100
AcDbLayerTableRecord
  2
IMPORT_IGES
 70
0
 62
7
  6
CONTINUOUS
370
-3
390
F
  0
LAYER
  5
206
100
AcDbSymbolTableRecord
100
AcDbLayerTableRecord
  2
NOTE
 70
0
 62
7
  6
CONTINUOUS
370
-3
390
F
  0
LAYER
  5
207
100
AcDbSymbolTableRecord
100
AcDbLayerTableRecord
  2
PIANI
 70
0
 62
7
  6
CONTINUOUS
370
-3
390
F
  0
LAYER
  5
208
100
AcDbSymbolTableRecord
100
AcDbLayerTableRecord
  2
PIANI_ORIGINE
 70
0
 62
7
  6
CONTINUOUS
370
-3
390
F
  0
LAYER
  5
209
100
AcDbSymbolTableRecord
100
AcDbLayerTableRecord
  2
PUNTI
 70
0
 62
7
  6
CONTINUOUS
370
-3
390
F
  0
LAYER
  5
20A
100
AcDbSymbolTableRecord
100
AcDbLayerTableRecord
  2
RACCORDO
 70
0
 62
7
  6
CONTINUOUS
370
-3
390
F
  0
LAYER
  5
20B
100
AcDbSymbolTableRecord
100
AcDbLayerTableRecord
  2
SIMBOLI
 70
0
 62
7
  6
CONTINUOUS
370
-3
390
F
  0
LAYER
  5
20C
100
AcDbSymbolTableRecord
100
AcDbLayerTableRecord
  2
SMUSSO
 70
0
 62
7
  6
CONTINUOUS
370
-3
390
F
  0
LAYER
  5
20D
100
AcDbSymbolTableRecord
100
AcDbLayerTableRecord
  2
SUPERFICI
 70
0
 62
7
  6
CONTINUOUS
370
-3
390
F
  0
LAYER
  5
20E
100
AcDbSymbolTableRecord
100
AcDbLayerTableRecord
  2
TRASH
 70
0
 62
7
  6
CONTINUOUS
370
-3
390
F
  0
ENDTAB
  0
TABLE
  2
STYLE
  5
3
100
AcDbSymbolTable
 70
1
  0
STYLE
  5
11
100
AcDbSymbolTableRecord
100
AcDbTextStyleTableRecord
  2
STANDARD
 70
0
 40
0.0
 41
0.8
 50
0.0
 71
0
 42
0.2
  3
txt
  4

  0
STYLE
  5
20F
100
AcDbSymbolTableRecord
100
AcDbTextStyleTableRecord
  2
TEXTSTYLE_1
 70
0
 40
0.0
 41
0.8
 50
0.0
 71
0
 42
0.2
  3
gdt
  4

  0
ENDTAB
  0
TABLE
  2
VIEW
  5
6
100
AcDbSymbolTable
 70
0
  0
ENDTAB
  0
TABLE
  2
UCS
  5
7
100
AcDbSymbolTable
 70
0
  0
ENDTAB
  0
TABLE
  2
APPID
  5
9
100
AcDbSymbolTable
 70
1
  0
APPID
  5
210
100
AcDbSymbolTableRecord
100
AcDbRegAppTableRecord
  2
ACAD
 70
0
  0
ENDTAB
  0
TABLE
  2
BLOCK_RECORD
  5
1
100
AcDbSymbolTable
 70
0
  0
BLOCK_RECORD
  5
211
100
AcDbSymbolTableRecord
100
AcDbBlockTableRecord
  2
*Model_Space
  0
BLOCK_RECORD
  5
212
100
AcDbSymbolTableRecord
100
AcDbBlockTableRecord
  2
*Paper_Space
  0
BLOCK_RECORD
  5
213
100
AcDbSymbolTableRecord
100
AcDbBlockTableRecord
  2
_FILLED
  0
ENDTAB
  0
TABLE
  2
DIMSTYLE
  5
A
100
AcDbSymbolTable
 70
1
100
AcDbDimStyleTable
 71
0
  0
DIMSTYLE
105
214
100
AcDbSymbolTableRecord
100
AcDbDimStyleTableRecord
  2
STANDARD
 70
0
  3

  4

 40
1.0
 41
3.0
 42
0.5
 43
0.38
 44
1.5
 45
0.0
 46
0.0
 47
0.01
 48
0.01
140
3.0
141
0.09
142
0.0
143
25.4
144
1.0
145
0.0
146
1.0
147
0.625
 71
1
 72
0
 73
0
 74
0
 75
0
 76
0
 77
1
 78
8
 79
2
170
0
171
1
172
0
173
0
174
0
175
0
176
0
177
0
178
0
270
2
179
2
271
2
272
2
273
2
274
2
275
0
280
0
281
0
282
0
283
1
284
8
285
0
286
0
287
3
288
0
340
11
278
44
341
213
342
213
343
213
344
213
  0
ENDTAB
  0
ENDSEC
  0
SECTION
  2
BLOCKS
  0
BLOCK
  5
20
100
AcDbEntity
  8
0
100
AcDbBlockBegin
  2
*Model_Space
 70
0
 10
0.0
 20
0.0
 30
0.0
  3
*Model_Space
  1

  0
ENDBLK
  5
21
100
AcDbEntity
  8
0
100
AcDbBlockEnd
  0
BLOCK
  5
1C
100
AcDbEntity
  8
0
100
AcDbBlockBegin
  2
*Paper_Space
 70
0
 10
0.0
 20
0.0
 30
0.0
  3
*Paper_Space
  1

  0
ENDBLK
  5
1D
100
AcDbEntity
  8
0
100
AcDbBlockEnd
  0
BLOCK
  5
215
100
AcDbEntity
  8
0
100
AcDbBlockBegin
  2
_FILLED
 70
64
 10
0.0
 20
0.0
  3
_FILLED
  1

  0
SOLID
  5
216
100
AcDbEntity
  8
0
  6
BYBLOCK
 62
0
100
AcDbTrace
 10
0.0
 20
0.0
 11
-1.0
 21
0.3166666667
 12
-1.0
 22
-0.3166666667
 13
-1.0
 23
-0.3166666667
  0
ENDBLK
  5
217
100
AcDbEntity
  8
0
  6
BYBLOCK
 62
0
100
AcDbBlockEnd
  0
ENDSEC
  0
SECTION
  2
ENTITIES
  0
LINE
  5
218
100
AcDbEntity
  8
RACCORDO
100
AcDbLine
 62
7
  6
CONTINUOUS
 10
-86.2177487349
 20
-72.0277258157
 11
-86.5
 21
-68.8015790929
  0
LINE
  5
219
100
AcDbEntity
  8
ASSI
100
AcDbLine
 62
7
  6
CONTINUOUS
 10
-89.6986864425
 20
-68.8015790929
 11
-89.6986864425
 21
-58.8015790929
  0
LINE
  5
21A
100
AcDbEntity
  8
ASSI
100
AcDbLine
 62
250
  6
CONTINUOUS
 10
-86.1986864425
 20
-68.8015790929
 11
-86.1986864425
 21
-58.8015790929
  0
LWPOLYLINE
  5
21B
100
AcDbEntity
  8
ASSI
100
AcDbPolyline
 62
7
  6
CONTINUOUS
 90
43
 70
0
 10
-69.6591
 20
-19.2248148832
 10
-69.6554213682
 20
-19.3626195864
 10
-69.644522532
 20
-19.499849043
 10
-69.6264034914
 20
-19.6365032528
 10
-69.6010187516
 20
-19.7727715535
 10
-69.5684138073
 20
-19.9084646075
 10
-69.5287251433
 20
-20.0430144023
 10
-69.4819230657
 20
-20.1764161453
 10
-69.4280372682
 20
-20.3086746291
 10
-69.3672933176
 20
-20.4392362181
 10
-69.2996624654
 20
-20.5680937991
 10
-69.2251734599
 20
-20.6952544854
 10
-69.1441381131
 20
-20.8201859809
 10
-69.0565289835
 20
-20.9428789412
 10
-68.9623735125
 20
-21.0633427106
 10
-68.862065836
 20
-21.1810730266
 10
-68.7555801647
 20
-21.2960584309
 10
-68.6429422879
 20
-21.4083103816
 10
-68.5246237088
 20
-21.5173589911
 10
-68.4006006149
 20
-21.6231908312
 10
-68.2708968189
 20
-21.7258193299
 10
-68.1360552622
 20
-21.8248148832
 10
-67.996054408
 20
-21.9201622623
 10
-67.8509157933
 20
-22.0118766961
 10
-67.7012469697
 20
-22.0995742668
 10
-67.5470289473
 20
-22.1832381364
 10
-67.3882807161
 20
-22.2628851429
 10
-67.2256667979
 20
-22.3381818832
 10
-67.0591709883
 20
-22.4091101215
 10
-66.8888094918
 20
-22.4756880935
 10
-66.7152954434
 20
-22.5376371031
 10
-66.5386156281
 20
-22.5949377464
 10
-66.3587832609
 20
-22.6476094272
 10
-66.1765511222
 20
-22.6954316615
 10
-65.9919091523
 20
-22.7383841209
 10
-65.8048674108
 20
-22.7764871336
 10
-65.6162088566
 20
-22.8095812001
 10
-65.425926712
 20
-22.8376453236
 10
-65.2340277547
 20
-22.8607005008
 10
-65.0413152757
 20
-22.8786502225
 10
-64.8480570388
 20
-22.8914623189
 10
-64.6539852802
 20
-22.8991689599
 10
-64.4591
 20
-22.9017701454
  0
LINE
  5
21C
100
AcDbEntity
  8
ASSI
100
AcDbLine
 62
7
  6
CONTINUOUS
 10
-69.6591
 20
68.6246238307
 11
-69.6591
 21
-19.2248148832
  0
LWPOLYLINE
  5
21D
100
AcDbEntity
  8
ASSI
100
AcDbPolyline
 62
7
  6
CONTINUOUS
 90
43
 70
0
 10
-69.6591
 20
68.6246238307
 10
-69.6554213682
 20
68.7624285339
 10
-69.644522532
 20
68.8996579905
 10
-69.6264034914
 20
69.0363122003
 10
-69.6010187516
 20
69.172580501
 10
-69.5684138073
 20
69.308273555
 10
-69.5287251433
 20
69.4428233498
 10
-69.4819230657
 20
69.5762250928
 10
-69.4280372682
 20
69.7084835766
 10
-69.3672933176
 20
69.8390451656
 10
-69.2996624654
 20
69.9679027466
 10
-69.2251734599
 20
70.0950634329
 10
-69.1441381131
 20
70.2199949284
 10
-69.0565289835
 20
70.3426878887
 10
-68.9623735125
 20
70.4631516581
 10
-68.862065836
 20
70.5808819741
 10
-68.7555801647
 20
70.6958673784
 10
-68.6429422879
 20
70.8081193292
 10
-68.5246237088
 20
70.9171679386
 10
-68.4006006149
 20
71.0229997787
 10
-68.2708968189
 20
71.1256282774
 10
-68.1360552622
 20
71.2246238307
 10
-67.996054408
 20
71.3199712099
 10
-67.8509157933
 20
71.4116856436
 10
-67.7012469697
 20
71.4993832143
 10
-67.5470289473
 20
71.5830470839
 10
-67.3882807161
 20
71.6626940904
 10
-67.2256667979
 20
71.7379908307
 10
-67.0591709883
 20
71.808919069
 10
-66.8888094918
 20
71.875497041
 10
-66.7152954434
 20
71.9374460506
 10
-66.5386156281
 20
71.9947466939
 10
-66.3587832609
 20
72.0474183747
 10
-66.1765511222
 20
72.095240609
 10
-65.9919091523
 20
72.1381930684
 10
-65.8048674108
 20
72.1762960811
 10
-65.6162088566
 20
72.2093901477
 10
-65.425926712
 20
72.2374542711
 10
-65.2340277547
 20
72.2605094483
 10
-65.0413152757
 20
72.27845917
 10
-64.8480570388
 20
72.2912712664
 10
-64.6539852802
 20
72.2989779074
 10
-64.4591
 20
72.3015790929
  0
LWPOLYLINE
  5
21E
100
AcDbEntity
  8
ASSI
100
AcDbPolyline
 62
7
  6
CONTINUOUS
 90
7
 70
0
 10
-69.6552524227
 20
61.6949773751
 10
-69.6564270751
 20
61.6714492019
 10
-69.6573883717
 20
61.6479042076
 10
-69.6581363125
 20
61.6243423922
 10
-69.6586708975
 20
61.6007637555
 10
-69.6589921266
 20
61.5771682978
 10
-69.6591
 20
61.5535560189
  0
LINE
  5
21F
100
AcDbEntity
  8
RACCORDO
100
AcDbLine
 62
7
  6
CONTINUOUS
 10
85.9188903255
 20
-72.3015790929
 11
67.0811096745
 21
-72.3015790929
  0
LINE
  5
220
100
AcDbEntity
  8
RACCORDO
100
AcDbLine
 62
7
  6
CONTINUOUS
 10
-67.0811096745
 20
-72.3015790929
 11
-85.9188903255
 21
-72.3015790929
  0
LINE
  5
221
100
AcDbEntity
  8
RACCORDO
100
AcDbLine
 62
250
  6
CONTINUOUS
 10
86.2177487349
 20
-72.0277258157
 11
66.7822512651
 21
-72.0277258157
  0
LINE
  5
222
100
AcDbEntity
  8
RACCORDO
100
AcDbLine
 62
250
  6
CONTINUOUS
 10
-66.7822512651
 20
-72.0277258157
 11
-86.2177487349
 21
-72.0277258157
  0
LINE
  5
223
100
AcDbEntity
  8
ASSI
100
AcDbLine
 62
7
  6
CONTINUOUS
 10
89.6986864326
 20
-68.8015790929
 11
-89.6986864326
 21
-68.8015790929
  0
LINE
  5
224
100
AcDbEntity
  8
ASSI
100
AcDbLine
 62
250
  6
CONTINUOUS
 10
-64.4591
 20
72.3015790929
 11
-64.4591
 21
68.766045187
  0
LINE
  5
225
100
AcDbEntity
  8
RACCORDO
100
AcDbLine
 62
7
  6
CONTINUOUS
 10
-73.7822512651
 20
-72.0277258157
 11
-73.5
 21
-68.8015790929
  0
LINE
  5
226
100
AcDbEntity
  8
ASSI
100
AcDbLine
 62
7
  6
CONTINUOUS
 10
-57.5
 20
-25.3766438795
 11
-57.5
 21
-58.8015790929
  0
LINE
  5
227
100
AcDbEntity
  8
RACCORDO
100
AcDbLine
 62
7
  6
CONTINUOUS
 10
-66.7822512651
 20
-72.0277258157
 11
-66.5
 21
-68.8015790929
  0
LINE
  5
228
100
AcDbEntity
  8
ASSI
100
AcDbLine
 62
7
  6
CONTINUOUS
 10
-89.6986864326
 20
-58.8015790929
 11
89.6986864326
 21
-58.8015790929
  0
LINE
  5
229
100
AcDbEntity
  8
ASSI
100
AcDbLine
 62
250
  6
CONTINUOUS
 10
57.5
 20
-45.1447248434
 11
-57.5
 21
-45.1447248434
  0
LWPOLYLINE
  5
22A
100
AcDbEntity
  8
ASSI
100
AcDbPolyline
 62
7
  6
CONTINUOUS
 90
61
 70
0
 10
-41.35
 20
53.9698357906
 10
-41.348107778
 20
54.0200214921
 10
-41.3425675313
 20
54.069798634
 10
-41.3333792598
 20
54.1191672165
 10
-41.3204978637
 20
54.1682600727
 10
-41.303968443
 20
54.2169443693
 10
-41.283926297
 20
54.2648216071
 10
-41.2603425942
 20
54.3118851619
 10
-41.2332461663
 20
54.3581416578
 10
-41.2028588077
 20
54.4032124679
 10
-41.1691535072
 20
54.4470878604
 10
-41.132157276
 20
54.4897775671
 10
-41.0921729424
 20
54.5309321566
 10
-41.0491759806
 20
54.5705390291
 10
-41.0031909163
 20
54.6086107843
 10
-40.9545941546
 20
54.6448357906
 10
-40.9033642594
 20
54.6791988903
 10
-40.8495226667
 20
54.7117152412
 10
-40.7935100906
 20
54.7421186844
 10
-40.735308712
 20
54.7703918779
 10
-40.6749363498
 20
54.7965521638
 10
-40.6128871746
 20
54.8203854103
 10
-40.5491474237
 20
54.8418725177
 10
-40.4837308599
 20
54.8610325856
 10
-40.4171729424
 20
54.8777087818
 10
-40.3494643034
 20
54.8918807191
 10
-40.2806143108
 20
54.9035687846
 10
-40.2111865278
 20
54.9126773071
 10
-40.1411762121
 20
54.9191851143
 10
-40.0705881061
 20
54.9231133784
 10
-40.0
 20
54.9244299452
 10
-39.9294118939
 20
54.9231133784
 10
-39.8588237879
 20
54.9191851143
 10
-39.7888134722
 20
54.9126773071
 10
-39.7193856892
 20
54.9035687846
 10
-39.6505356966
 20
54.8918807191
 10
-39.5828270576
 20
54.8777087818
 10
-39.5162691401
 20
54.8610325856
 10
-39.4508525763
 20
54.8418725177
 10
-39.3871128254
 20
54.8203854103
 10
-39.3250636502
 20
54.7965521638
 10
-39.264691288
 20
54.7703918779
 10
-39.2064899094
 20
54.7421186844
 10
-39.1504773333
 20
54.7117152412
 10
-39.0966357406
 20
54.6791988903
 10
-39.0454058454
 20
54.6448357906
 10
-38.9968090837
 20
54.6086107843
 10
-38.9508240194
 20
54.5705390291
 10
-38.9078270576
 20
54.5309321566
 10
-38.867842724
 20
54.4897775671
 10
-38.8308464928
 20
54.4470878604
 10
-38.7971411923
 20
54.4032124679
 10
-38.7667538337
 20
54.3581416578
 10
-38.7396574058
 20
54.3118851619
 10
-38.716073703
 20
54.2648216071
 10
-38.696031557
 20
54.2169443693
 10
-38.6795021363
 20
54.1682600727
 10
-38.6666207402
 20
54.1191672165
 10
-38.6574324687
 20
54.069798634
 10
-38.651892222
 20
54.0200214921
 10
-38.65
 20
53.9698357906
  0
LWPOLYLINE
  5
22B
100
AcDbEntity
  8
ASSI
100
AcDbPolyline
 62
7
  6
CONTINUOUS
 90
61
 70
0
 10
-41.35
 20
12.2505357006
 10
-41.348107778
 20
12.3007214021
 10
-41.3425675313
 20
12.350498544
 10
-41.3333792598
 20
12.3998671265
 10
-41.3204978637
 20
12.4489599827
 10
-41.303968443
 20
12.4976442793
 10
-41.283926297
 20
12.5455215171
 10
-41.2603425942
 20
12.5925850719
 10
-41.2332461663
 20
12.6388415678
 10
-41.2028588077
 20
12.6839123779
 10
-41.1691535072
 20
12.7277877704
 10
-41.132157276
 20
12.7704774771
 10
-41.0921729424
 20
12.8116320666
 10
-41.0491759806
 20
12.851238939
 10
-41.0031909163
 20
12.8893106943
 10
-40.9545941546
 20
12.9255357006
 10
-40.9033642594
 20
12.9598988003
 10
-40.8495226667
 20
12.9924151512
 10
-40.7935100906
 20
13.0228185944
 10
-40.735308712
 20
13.0510917879
 10
-40.6749363498
 20
13.0772520738
 10
-40.6128871746
 20
13.1010853203
 10
-40.5491474237
 20
13.1225724277
 10
-40.4837308599
 20
13.1417324956
 10
-40.4171729424
 20
13.1584086918
 10
-40.3494643034
 20
13.1725806291
 10
-40.2806143108
 20
13.1842686946
 10
-40.2111865278
 20
13.1933772171
 10
-40.1411762121
 20
13.1998850243
 10
-40.0705881061
 20
13.2038132884
 10
-40.0
 20
13.2051298552
 10
-39.9294118939
 20
13.2038132884
 10
-39.8588237879
 20
13.1998850243
 10
-39.7888134722
 20
13.1933772171
 10
-39.7193856892
 20
13.1842686946
 10
-39.6505356966
 20
13.1725806291
 10
-39.5828270576
 20
13.1584086918
 10
-39.5162691401
 20
13.1417324956
 10
-39.4508525763
 20
13.1225724277
 10
-39.3871128254
 20
13.1010853203
 10
-39.3250636502
 20
13.0772520738
 10
-39.264691288
 20
13.0510917879
 10
-39.2064899094
 20
13.0228185944
 10
-39.1504773333
 20
12.9924151512
 10
-39.0966357406
 20
12.9598988003
 10
-39.0454058454
 20
12.9255357006
 10
-38.9968090837
 20
12.8893106943
 10
-38.9508240194
 20
12.851238939
 10
-38.9078270576
 20
12.8116320666
 10
-38.867842724
 20
12.7704774771
 10
-38.8308464928
 20
12.7277877704
 10
-38.7971411923
 20
12.6839123779
 10
-38.7667538337
 20
12.6388415678
 10
-38.7396574058
 20
12.5925850719
 10
-38.716073703
 20
12.5455215171
 10
-38.696031557
 20
12.4976442793
 10
-38.6795021363
 20
12.4489599827
 10
-38.6666207402
 20
12.3998671265
 10
-38.6574324687
 20
12.350498544
 10
-38.651892222
 20
12.3007214021
 10
-38.65
 20
12.2505357006
  0
LWPOLYLINE
  5
22C
100
AcDbEntity
  8
ASSI
100
AcDbPolyline
 62
7
  6
CONTINUOUS
 90
61
 70
0
 10
-38.65
 20
53.9698357906
 10
-38.651892222
 20
53.9196500892
 10
-38.6574324687
 20
53.8698729472
 10
-38.6666207402
 20
53.8205043647
 10
-38.6795021363
 20
53.7714115086
 10
-38.696031557
 20
53.7227272119
 10
-38.716073703
 20
53.6748499741
 10
-38.7396574058
 20
53.6277864194
 10
-38.7667538337
 20
53.5815299234
 10
-38.7971411923
 20
53.5364591133
 10
-38.8308464928
 20
53.4925837208
 10
-38.867842724
 20
53.4498940141
 10
-38.9078270576
 20
53.4087394246
 10
-38.9508240194
 20
53.3691325522
 10
-38.9968090837
 20
53.331060797
 10
-39.0454058454
 20
53.2948357906
 10
-39.0966357406
 20
53.2604726909
 10
-39.1504773333
 20
53.2279563401
 10
-39.2064899094
 20
53.1975528968
 10
-39.264691288
 20
53.1692797034
 10
-39.3250636502
 20
53.1431194175
 10
-39.3871128254
 20
53.1192861709
 10
-39.4508525763
 20
53.0977990636
 10
-39.5162691401
 20
53.0786389956
 10
-39.5828270576
 20
53.0619627995
 10
-39.6505356966
 20
53.0477908622
 10
-39.7193856892
 20
53.0361027966
 10
-39.7888134722
 20
53.0269942741
 10
-39.8588237879
 20
53.020486467
 10
-39.9294118939
 20
53.0165582028
 10
-40.0
 20
53.015241636
 10
-40.0705881061
 20
53.0165582028
 10
-40.1411762121
 20
53.020486467
 10
-40.2111865278
 20
53.0269942741
 10
-40.2806143108
 20
53.0361027966
 10
-40.3494643034
 20
53.0477908622
 10
-40.4171729424
 20
53.0619627995
 10
-40.4837308599
 20
53.0786389956
 10
-40.5491474237
 20
53.0977990636
 10
-40.6128871746
 20
53.1192861709
 10
-40.6749363498
 20
53.1431194175
 10
-40.735308712
 20
53.1692797034
 10
-40.7935100906
 20
53.1975528968
 10
-40.8495226667
 20
53.2279563401
 10
-40.9033642594
 20
53.2604726909
 10
-40.9545941546
 20
53.2948357906
 10
-41.0031909163
 20
53.331060797
 10
-41.0491759806
 20
53.3691325522
 10
-41.0921729424
 20
53.4087394246
 10
-41.132157276
 20
53.4498940141
 10
-41.1691535072
 20
53.4925837208
 10
-41.2028588077
 20
53.5364591133
 10
-41.2332461663
 20
53.5815299234
 10
-41.2603425942
 20
53.6277864194
 10
-41.283926297
 20
53.6748499741
 10
-41.303968443
 20
53.7227272119
 10
-41.3204978637
 20
53.7714115086
 10
-41.3333792598
 20
53.8205043647
 10
-41.3425675313
 20
53.8698729472
 10
-41.348107778
 20
53.9196500892
 10
-41.35
 20
53.9698357906
  0
LWPOLYLINE
  5
22D
100
AcDbEntity
  8
ASSI
100
AcDbPolyline
 62
7
  6
CONTINUOUS
 90
61
 70
0
 10
-38.65
 20
12.2505357006
 10
-38.651892222
 20
12.2003499992
 10
-38.6574324687
 20
12.1505728572
 10
-38.6666207402
 20
12.1012042747
 10
-38.6795021363
 20
12.0521114186
 10
-38.696031557
 20
12.0034271219
 10
-38.716073703
 20
11.9555498841
 10
-38.7396574058
 20
11.9084863293
 10
-38.7667538337
 20
11.8622298334
 10
-38.7971411923
 20
11.8171590233
 10
-38.8308464928
 20
11.7732836308
 10
-38.867842724
 20
11.7305939241
 10
-38.9078270576
 20
11.6894393346
 10
-38.9508240194
 20
11.6498324622
 10
-38.9968090837
 20
11.611760707
 10
-39.0454058454
 20
11.5755357006
 10
-39.0966357406
 20
11.5411726009
 10
-39.1504773333
 20
11.5086562501
 10
-39.2064899094
 20
11.4782528068
 10
-39.264691288
 20
11.4499796134
 10
-39.3250636502
 20
11.4238193274
 10
-39.3871128254
 20
11.3999860809
 10
-39.4508525763
 20
11.3784989736
 10
-39.5162691401
 20
11.3593389056
 10
-39.5828270576
 20
11.3426627095
 10
-39.6505356966
 20
11.3284907722
 10
-39.7193856892
 20
11.3168027066
 10
-39.7888134722
 20
11.3076941841
 10
-39.8588237879
 20
11.3011863769
 10
-39.9294118939
 20
11.2972581128
 10
-40.0
 20
11.295941546
 10
-40.0705881061
 20
11.2972581128
 10
-40.1411762121
 20
11.3011863769
 10
-40.2111865278
 20
11.3076941841
 10
-40.2806143108
 20
11.3168027066
 10
-40.3494643034
 20
11.3284907722
 10
-40.4171729424
 20
11.3426627095
 10
-40.4837308599
 20
11.3593389056
 10
-40.5491474237
 20
11.3784989736
 10
-40.6128871746
 20
11.3999860809
 10
-40.6749363498
 20
11.4238193274
 10
-40.735308712
 20
11.4499796134
 10
-40.7935100906
 20
11.4782528068
 10
-40.8495226667
 20
11.5086562501
 10
-40.9033642594
 20
11.5411726009
 10
-40.9545941546
 20
11.5755357006
 10
-41.0031909163
 20
11.611760707
 10
-41.0491759806
 20
11.6498324622
 10
-41.0921729424
 20
11.6894393346
 10
-41.132157276
 20
11.7305939241
 10
-41.1691535072
 20
11.7732836308
 10
-41.2028588077
 20
11.8171590233
 10
-41.2332461663
 20
11.8622298334
 10
-41.2603425942
 20
11.9084863293
 10
-41.283926297
 20
11.9555498841
 10
-41.303968443
 20
12.0034271219
 10
-41.3204978637
 20
12.0521114186
 10
-41.3333792598
 20
12.1012042747
 10
-41.3425675313
 20
12.1505728572
 10
-41.348107778
 20
12.2003499992
 10
-41.35
 20
12.2505357006
  0
LWPOLYLINE
  5
22E
100
AcDbEntity
  8
ASSI
100
AcDbPolyline
 62
7
  6
CONTINUOUS
 90
43
 70
0
 10
64.4591
 20
-22.9017701454
 10
64.6539852802
 20
-22.8991689599
 10
64.8480570388
 20
-22.8914623189
 10
65.0413152757
 20
-22.8786502225
 10
65.2340277547
 20
-22.8607005008
 10
65.425926712
 20
-22.8376453236
 10
65.6162088566
 20
-22.8095812001
 10
65.8048674108
 20
-22.7764871336
 10
65.9919091523
 20
-22.7383841209
 10
66.1765511222
 20
-22.6954316615
 10
66.3587832609
 20
-22.6476094272
 10
66.5386156281
 20
-22.5949377464
 10
66.7152954434
 20
-22.5376371031
 10
66.8888094918
 20
-22.4756880935
 10
67.0591709883
 20
-22.4091101215
 10
67.2256667979
 20
-22.3381818832
 10
67.3882807161
 20
-22.2628851429
 10
67.5470289473
 20
-22.1832381364
 10
67.7012469697
 20
-22.0995742668
 10
67.8509157933
 20
-22.0118766961
 10
67.996054408
 20
-21.9201622624
 10
68.1360552622
 20
-21.8248148832
 10
68.2708968189
 20
-21.7258193299
 10
68.4006006149
 20
-21.6231908312
 10
68.5246237088
 20
-21.5173589911
 10
68.6429422879
 20
-21.4083103816
 10
68.7555801647
 20
-21.2960584309
 10
68.862065836
 20
-21.1810730266
 10
68.9623735125
 20
-21.0633427106
 10
69.0565289835
 20
-20.9428789412
 10
69.1441381131
 20
-20.8201859809
 10
69.2251734599
 20
-20.6952544854
 10
69.2996624654
 20
-20.5680937991
 10
69.3672933176
 20
-20.4392362181
 10
69.4280372682
 20
-20.3086746291
 10
69.4819230657
 20
-20.1764161453
 10
69.5287251433
 20
-20.0430144023
 10
69.5684138073
 20
-19.9084646075
 10
69.6010187516
 20
-19.7727715535
 10
69.6264034914
 20
-19.6365032528
 10
69.644522532
 20
-19.499849043
 10
69.6554213682
 20
-19.3626195864
 10
69.6591
 20
-19.2248148832
  0
LINE
  5
22F
100
AcDbEntity
  8
ASSI
100
AcDbLine
 62
7
  6
CONTINUOUS
 10
-64.4591
 20
-22.9017701454
 11
-61.0
 21
-22.9017701454
  0
LINE
  5
230
100
AcDbEntity
  8
ASSI
100
AcDbLine
 62
7
  6
CONTINUOUS
 10
61.0
 20
-22.9017701454
 11
64.4591
 21
-22.9017701454
  0
LWPOLYLINE
  5
231
100
AcDbEntity
  8
ASSI
100
AcDbPolyline
 62
7
  6
CONTINUOUS
 90
40
 70
0
 10
-61.0
 20
-22.9017701454
 10
-60.8586903245
 20
-22.9038043395
 10
-60.7180641975
 20
-22.9098192115
 10
-60.5781216191
 20
-22.9198147614
 10
-60.4386380623
 20
-22.9338200838
 10
-60.2998380539
 20
-22.9518060841
 10
-60.162395175
 20
-22.9736854782
 10
-60.0263160221
 20
-22.999477191
 10
-59.8915939986
 20
-23.0291622976
 10
-59.7588828954
 20
-23.0625967395
 10
-59.6281924869
 20
-23.0997987414
 10
-59.4995129987
 20
-23.1407500786
 10
-59.3734688978
 20
-23.1852520189
 10
-59.2500729943
 20
-23.2333218209
 10
-59.1293124781
 20
-23.284942226
 10
-59.0117733864
 20
-23.3398627262
 10
-58.8974713779
 20
-23.3980993624
 10
-58.7863907939
 20
-23.4596360937
 10
-58.6790706962
 20
-23.5241742892
 10
-58.5755293633
 20
-23.5917285382
 10
-58.4757485167
 20
-23.6622842516
 10
-58.3802123814
 20
-23.7354990301
 10
-58.28894159
 20
-23.811385799
 10
-58.2019155101
 20
-23.8899316332
 10
-58.1195564694
 20
-23.9707553586
 10
-58.0418871532
 20
-24.0538680473
 10
-57.9688848762
 20
-24.1392586272
 10
-57.9009039102
 20
-24.2265127074
 10
-57.8379686627
 20
-24.3156393458
 10
-57.7800547262
 20
-24.4066294845
 10
-57.7274431506
 20
-24.4990415586
 10
-57.6801597094
 20
-24.5928824796
 10
-57.638178629
 20
-24.688145336
 10
-57.601703639
 20
-24.7843678278
 10
-57.5707615031
 20
-24.8815546195
 10
-57.5453254576
 20
-24.9797010467
 10
-57.5255189407
 20
-25.0783308156
 10
-57.5113830985
 20
-25.1772851618
 10
-57.5028767849
 20
-25.2767228497
 10
-57.5
 20
-25.3766438795
  0
LWPOLYLINE
  5
232
100
AcDbEntity
  8
ASSI
100
AcDbPolyline
 62
7
  6
CONTINUOUS
 90
40
 70
0
 10
-18.0
 20
38.2367099092
 10
-17.9959454068
 20
38.0943556113
 10
-17.9837880496
 20
37.9522308445
 10
-17.9635474162
 20
37.8105661263
 10
-17.9352560613
 20
37.6695910464
 10
-17.8989596659
 20
37.5295344743
 10
-17.8547170731
 20
37.3906241746
 10
-17.8025999419
 20
37.2530855404
 10
-17.742692662
 20
37.1171416189
 10
-17.6750924745
 20
36.9830133042
 10
-17.5999090031
 20
36.8509182288
 10
-17.5172641104
 20
36.7210706122
 10
-17.427291923
 20
36.5936812685
 10
-17.3301384029
 20
36.4689568988
 10
-17.2259610691
 20
36.3470997586
 10
-17.1149288692
 20
36.2283075091
 10
-16.9972218506
 20
36.1127728248
 10
-16.8730309394
 20
36.0006831493
 10
-16.742557636
 20
35.8922203762
 10
-16.6060135276
 20
35.7875604203
 10
-16.4636201188
 20
35.6868730838
 10
-16.3156085774
 20
35.5903218272
 10
-16.1622190417
 20
35.4980632789
 10
-16.0037002911
 20
35.4102470525
 10
-15.8403095565
 20
35.3270156277
 10
-15.6723119195
 20
35.248504009
 10
-15.4999798656
 20
35.174839511
 10
-15.3235929331
 20
35.1061415997
 10
-15.1434371515
 20
35.0425216573
 10
-14.9598048431
 20
34.9840828958
 10
-14.7729941569
 20
34.930920161
 10
-14.5833080455
 20
34.8831196217
 10
-14.3910542883
 20
34.8407587931
 10
-14.1965452924
 20
34.8039064366
 10
-14.0000964997
 20
34.7726222233
 10
-13.8020266597
 20
34.7469568207
 10
-13.6026578809
 20
34.726951835
 10
-13.4023138337
 20
34.7126395652
 10
-13.2013192067
 20
34.7040430287
 10
-13.0
 20
34.7011760033
  0
LINE
  5
233
100
AcDbEntity
  8
ASSI
100
AcDbLine
 62
7
  6
CONTINUOUS
 10
-18.0
 20
31.8727488785
 11
-18.0
 21
48.1892378544
  0
LWPOLYLINE
  5
234
100
AcDbEntity
  8
ASSI
100
AcDbPolyline
 62
7
  6
CONTINUOUS
 90
43
 70
0
 10
-18.0
 20
48.1892378544
 10
-17.996462854
 20
48.3217423767
 10
-17.9859832039
 20
48.4536937772
 10
-17.9685610495
 20
48.5850920559
 10
-17.9441526458
 20
48.7161192682
 10
-17.9128017378
 20
48.8465933586
 10
-17.8746395609
 20
48.9759681612
 10
-17.8296375631
 20
49.104239068
 10
-17.7778242964
 20
49.231410687
 10
-17.7194166515
 20
49.3569506764
 10
-17.6543869859
 20
49.4808521966
 10
-17.5827629422
 20
49.6031220873
 10
-17.5048443395
 20
49.7232485253
 10
-17.4206047918
 20
49.8412225255
 10
-17.3300706851
 20
49.9570530731
 10
-17.2336209961
 20
50.0702553
 10
-17.1312309276
 20
50.1808181887
 10
-17.0229252768
 20
50.2887527568
 10
-16.9091574123
 20
50.3936071889
 10
-16.7899044374
 20
50.4953685736
 10
-16.6651892489
 20
50.5940498224
 10
-16.5355339059
 20
50.6892378544
 10
-16.4009177
 20
50.7809180267
 10
-16.2613613397
 20
50.8691049822
 10
-16.1174490093
 20
50.9534295694
 10
-15.9691624493
 20
51.0338755978
 10
-15.8165199193
 20
51.110459258
 10
-15.6601603826
 20
51.1828599698
 10
-15.500068258
 20
51.2510601989
 10
-15.3362591267
 20
51.3150774797
 10
-15.1694186956
 20
51.3746438351
 10
-14.9995342578
 20
51.4297406075
 10
-14.8266185201
 20
51.4803864544
 10
-14.6513953098
 20
51.526369372
 10
-14.4738549541
 20
51.5676698137
 10
-14.2940071258
 20
51.604307326
 10
-14.1126046698
 20
51.6361285438
 10
-13.9296410693
 20
51.6631132779
 10
-13.7451228411
 20
51.6852817175
 10
-13.5598223805
 20
51.7025410652
 10
-13.3739971527
 20
51.7148603888
 10
-13.1873896925
 20
51.7222706205
 10
-13.0
 20
51.7247717604
  0
LINE
  5
235
100
AcDbEntity
  8
ASSI
100
AcDbLine
 62
250
  6
CONTINUOUS
 10
-13.0
 20
28.3372149726
 11
-13.0
 21
34.7011760033
  0
LINE
  5
236
100
AcDbEntity
  8
ASSI
100
AcDbLine
 62
250
  6
CONTINUOUS
 10
13.0
 20
28.3372149726
 11
13.0
 21
34.7011760033
  0
LINE
  5
237
100
AcDbEntity
  8
ASSI
100
AcDbLine
 62
7
  6
CONTINUOUS
 10
18.0
 20
48.1892378544
 11
18.0
 21
31.8727488785
  0
LWPOLYLINE
  5
238
100
AcDbEntity
  8
ASSI
100
AcDbPolyline
 62
7
  6
CONTINUOUS
 90
43
 70
0
 10
18.0
 20
31.8727488785
 10
17.996462854
 20
31.7402443562
 10
17.9859832039
 20
31.6082929557
 10
17.9685610495
 20
31.476894677
 10
17.9441526458
 20
31.3458674648
 10
17.9128017378
 20
31.2153933744
 10
17.8746395609
 20
31.0860185718
 10
17.8296375631
 20
30.957747665
 10
17.7778242964
 20
30.830576046
 10
17.7194166515
 20
30.7050360566
 10
17.6543869859
 20
30.5811345363
 10
17.5827629422
 20
30.4588646456
 10
17.5048443395
 20
30.3387382077
 10
17.4206047918
 20
30.2207642074
 10
17.3300706851
 20
30.1049336599
 10
17.2336209961
 20
29.991731433
 10
17.1312309276
 20
29.8811685443
 10
17.0229252768
 20
29.7732339762
 10
16.9091574123
 20
29.6683795441
 10
16.7899044374
 20
29.5666181594
 10
16.6651892489
 20
29.4679369106
 10
16.5355339059
 20
29.3727488785
 10
16.4009177
 20
29.2810687063
 10
16.2613613397
 20
29.1928817508
 10
16.1174490093
 20
29.1085571636
 10
15.9691624493
 20
29.0281111351
 10
15.8165199193
 20
28.951527475
 10
15.6601603826
 20
28.8791267632
 10
15.500068258
 20
28.8109265341
 10
15.3362591267
 20
28.7469092533
 10
15.1694186956
 20
28.6873428979
 10
14.9995342578
 20
28.6322461255
 10
14.8266185201
 20
28.5816002785
 10
14.6513953098
 20
28.535617361
 10
14.4738549541
 20
28.4943169193
 10
14.2940071258
 20
28.457679407
 10
14.1126046698
 20
28.4258581892
 10
13.9296410693
 20
28.3988734551
 10
13.7451228411
 20
28.3767050155
 10
13.5598223805
 20
28.3594456677
 10
13.3739971527
 20
28.3471263442
 10
13.1873896925
 20
28.3397161125
 10
13.0
 20
28.3372149726
  0
LINE
  5
239
100
AcDbEntity
  8
ASSI
100
AcDbLine
 62
7
  6
CONTINUOUS
 10
13.0
 20
28.3372149726
 11
-13.0
 21
28.3372149726
  0
LWPOLYLINE
  5
23A
100
AcDbEntity
  8
ASSI
100
AcDbPolyline
 62
7
  6
CONTINUOUS
 90
43
 70
0
 10
-13.0
 20
28.3372149726
 10
-13.1873896925
 20
28.3397161125
 10
-13.3739971527
 20
28.3471263442
 10
-13.5598223805
 20
28.3594456677
 10
-13.7451228411
 20
28.3767050155
 10
-13.9296410693
 20
28.3988734551
 10
-14.1126046698
 20
28.4258581892
 10
-14.2940071258
 20
28.457679407
 10
-14.4738549541
 20
28.4943169193
 10
-14.6513953098
 20
28.535617361
 10
-14.8266185201
 20
28.5816002785
 10
-14.9995342578
 20
28.6322461255
 10
-15.1694186956
 20
28.6873428979
 10
-15.3362591267
 20
28.7469092533
 10
-15.500068258
 20
28.8109265341
 10
-15.6601603826
 20
28.8791267632
 10
-15.8165199193
 20
28.951527475
 10
-15.9691624493
 20
29.0281111351
 10
-16.1174490093
 20
29.1085571636
 10
-16.2613613397
 20
29.1928817508
 10
-16.4009177
 20
29.2810687063
 10
-16.5355339059
 20
29.3727488785
 10
-16.6651892489
 20
29.4679369106
 10
-16.7899044374
 20
29.5666181594
 10
-16.9091574123
 20
29.6683795441
 10
-17.0229252768
 20
29.7732339762
 10
-17.1312309276
 20
29.8811685443
 10
-17.2336209961
 20
29.991731433
 10
-17.3300706851
 20
30.1049336599
 10
-17.4206047918
 20
30.2207642074
 10
-17.5048443395
 20
30.3387382077
 10
-17.5827629422
 20
30.4588646456
 10
-17.6543869859
 20
30.5811345363
 10
-17.7194166515
 20
30.7050360566
 10
-17.7778242964
 20
30.830576046
 10
-17.8296375631
 20
30.957747665
 10
-17.8746395609
 20
31.0860185718
 10
-17.9128017378
 20
31.2153933744
 10
-17.9441526458
 20
31.3458674648
 10
-17.9685610495
 20
31.476894677
 10
-17.9859832039
 20
31.6082929557
 10
-17.996462854
 20
31.7402443562
 10
-18.0
 20
31.8727488785
  0
LWPOLYLINE
  5
23B
100
AcDbEntity
  8
ASSI
100
AcDbPolyline
 62
7
  6
CONTINUOUS
 90
61
 70
0
 10
38.65
 20
53.9698357906
 10
38.651892222
 20
54.0200214921
 10
38.6574324687
 20
54.069798634
 10
38.6666207402
 20
54.1191672165
 10
38.6795021363
 20
54.1682600727
 10
38.696031557
 20
54.2169443693
 10
38.716073703
 20
54.2648216071
 10
38.7396574058
 20
54.3118851619
 10
38.7667538337
 20
54.3581416578
 10
38.7971411923
 20
54.4032124679
 10
38.8308464928
 20
54.4470878604
 10
38.867842724
 20
54.4897775671
 10
38.9078270576
 20
54.5309321566
 10
38.9508240194
 20
54.5705390291
 10
38.9968090837
 20
54.6086107843
 10
39.0454058454
 20
54.6448357906
 10
39.0966357406
 20
54.6791988903
 10
39.1504773333
 20
54.7117152412
 10
39.2064899094
 20
54.7421186844
 10
39.264691288
 20
54.7703918779
 10
39.3250636502
 20
54.7965521638
 10
39.3871128254
 20
54.8203854103
 10
39.4508525763
 20
54.8418725177
 10
39.5162691401
 20
54.8610325856
 10
39.5828270576
 20
54.8777087818
 10
39.6505356966
 20
54.8918807191
 10
39.7193856892
 20
54.9035687846
 10
39.7888134722
 20
54.9126773071
 10
39.8588237879
 20
54.9191851143
 10
39.9294118939
 20
54.9231133784
 10
40.0
 20
54.9244299452
 10
40.0705881061
 20
54.9231133784
 10
40.1411762121
 20
54.9191851143
 10
40.2111865278
 20
54.9126773071
 10
40.2806143108
 20
54.9035687846
 10
40.3494643034
 20
54.8918807191
 10
40.4171729424
 20
54.8777087818
 10
40.4837308599
 20
54.8610325856
 10
40.5491474237
 20
54.8418725177
 10
40.6128871746
 20
54.8203854103
 10
40.6749363498
 20
54.7965521638
 10
40.735308712
 20
54.7703918779
 10
40.7935100906
 20
54.7421186844
 10
40.8495226667
 20
54.7117152412
 10
40.9033642594
 20
54.6791988903
 10
40.9545941546
 20
54.6448357906
 10
41.0031909163
 20
54.6086107843
 10
41.0491759806
 20
54.5705390291
 10
41.0921729424
 20
54.5309321566
 10
41.132157276
 20
54.4897775671
 10
41.1691535072
 20
54.4470878604
 10
41.2028588077
 20
54.4032124679
 10
41.2332461663
 20
54.3581416578
 10
41.2603425942
 20
54.3118851619
 10
41.283926297
 20
54.2648216071
 10
41.303968443
 20
54.2169443693
 10
41.3204978637
 20
54.1682600727
 10
41.3333792598
 20
54.1191672165
 10
41.3425675313
 20
54.069798634
 10
41.348107778
 20
54.0200214921
 10
41.35
 20
53.9698357906
  0
LWPOLYLINE
  5
23C
100
AcDbEntity
  8
ASSI
100
AcDbPolyline
 62
7
  6
CONTINUOUS
 90
61
 70
0
 10
38.65
 20
12.2505357006
 10
38.651892222
 20
12.3007214021
 10
38.6574324687
 20
12.350498544
 10
38.6666207402
 20
12.3998671265
 10
38.6795021363
 20
12.4489599827
 10
38.696031557
 20
12.4976442793
 10
38.716073703
 20
12.5455215171
 10
38.7396574058
 20
12.5925850719
 10
38.7667538337
 20
12.6388415678
 10
38.7971411923
 20
12.6839123779
 10
38.8308464928
 20
12.7277877704
 10
38.867842724
 20
12.7704774771
 10
38.9078270576
 20
12.8116320666
 10
38.9508240194
 20
12.851238939
 10
38.9968090837
 20
12.8893106943
 10
39.0454058454
 20
12.9255357006
 10
39.0966357406
 20
12.9598988003
 10
39.1504773333
 20
12.9924151512
 10
39.2064899094
 20
13.0228185944
 10
39.264691288
 20
13.0510917879
 10
39.3250636502
 20
13.0772520738
 10
39.3871128254
 20
13.1010853203
 10
39.4508525763
 20
13.1225724277
 10
39.5162691401
 20
13.1417324956
 10
39.5828270576
 20
13.1584086918
 10
39.6505356966
 20
13.1725806291
 10
39.7193856892
 20
13.1842686946
 10
39.7888134722
 20
13.1933772171
 10
39.8588237879
 20
13.1998850243
 10
39.9294118939
 20
13.2038132884
 10
40.0
 20
13.2051298552
 10
40.0705881061
 20
13.2038132884
 10
40.1411762121
 20
13.1998850243
 10
40.2111865278
 20
13.1933772171
 10
40.2806143108
 20
13.1842686946
 10
40.3494643034
 20
13.1725806291
 10
40.4171729424
 20
13.1584086918
 10
40.4837308599
 20
13.1417324956
 10
40.5491474237
 20
13.1225724277
 10
40.6128871746
 20
13.1010853203
 10
40.6749363498
 20
13.0772520738
 10
40.735308712
 20
13.0510917879
 10
40.7935100906
 20
13.0228185944
 10
40.8495226667
 20
12.9924151512
 10
40.9033642594
 20
12.9598988003
 10
40.9545941546
 20
12.9255357006
 10
41.0031909163
 20
12.8893106943
 10
41.0491759806
 20
12.851238939
 10
41.0921729424
 20
12.8116320666
 10
41.132157276
 20
12.7704774771
 10
41.1691535072
 20
12.7277877704
 10
41.2028588077
 20
12.6839123779
 10
41.2332461663
 20
12.6388415678
 10
41.2603425942
 20
12.5925850719
 10
41.283926297
 20
12.5455215171
 10
41.303968443
 20
12.4976442793
 10
41.3204978637
 20
12.4489599827
 10
41.3333792598
 20
12.3998671265
 10
41.3425675313
 20
12.350498544
 10
41.348107778
 20
12.3007214021
 10
41.35
 20
12.2505357006
  0
LWPOLYLINE
  5
23D
100
AcDbEntity
  8
ASSI
100
AcDbPolyline
 62
7
  6
CONTINUOUS
 90
61
 70
0
 10
41.35
 20
53.9698357906
 10
41.348107778
 20
53.9196500892
 10
41.3425675313
 20
53.8698729472
 10
41.3333792598
 20
53.8205043647
 10
41.3204978637
 20
53.7714115086
 10
41.303968443
 20
53.7227272119
 10
41.283926297
 20
53.6748499741
 10
41.2603425942
 20
53.6277864194
 10
41.2332461663
 20
53.5815299234
 10
41.2028588077
 20
53.5364591133
 10
41.1691535072
 20
53.4925837208
 10
41.132157276
 20
53.4498940141
 10
41.0921729424
 20
53.4087394246
 10
41.0491759806
 20
53.3691325522
 10
41.0031909163
 20
53.331060797
 10
40.9545941546
 20
53.2948357906
 10
40.9033642594
 20
53.2604726909
 10
40.8495226667
 20
53.2279563401
 10
40.7935100906
 20
53.1975528968
 10
40.735308712
 20
53.1692797034
 10
40.6749363498
 20
53.1431194175
 10
40.6128871746
 20
53.1192861709
 10
40.5491474237
 20
53.0977990636
 10
40.4837308599
 20
53.0786389956
 10
40.4171729424
 20
53.0619627995
 10
40.3494643034
 20
53.0477908622
 10
40.2806143108
 20
53.0361027966
 10
40.2111865278
 20
53.0269942741
 10
40.1411762121
 20
53.020486467
 10
40.0705881061
 20
53.0165582028
 10
40.0
 20
53.015241636
 10
39.9294118939
 20
53.0165582028
 10
39.8588237879
 20
53.020486467
 10
39.7888134722
 20
53.0269942741
 10
39.7193856892
 20
53.0361027966
 10
39.6505356966
 20
53.0477908622
 10
39.5828270576
 20
53.0619627995
 10
39.5162691401
 20
53.0786389956
 10
39.4508525763
 20
53.0977990636
 10
39.3871128254
 20
53.1192861709
 10
39.3250636502
 20
53.1431194175
 10
39.264691288
 20
53.1692797034
 10
39.2064899094
 20
53.1975528968
 10
39.1504773333
 20
53.2279563401
 10
39.0966357406
 20
53.2604726909
 10
39.0454058454
 20
53.2948357906
 10
38.9968090837
 20
53.331060797
 10
38.9508240194
 20
53.3691325522
 10
38.9078270576
 20
53.4087394246
 10
38.867842724
 20
53.4498940141
 10
38.8308464928
 20
53.4925837208
 10
38.7971411923
 20
53.5364591133
 10
38.7667538337
 20
53.5815299234
 10
38.7396574058
 20
53.6277864194
 10
38.716073703
 20
53.6748499741
 10
38.696031557
 20
53.7227272119
 10
38.6795021363
 20
53.7714115086
 10
38.6666207402
 20
53.8205043647
 10
38.6574324687
 20
53.8698729472
 10
38.651892222
 20
53.9196500892
 10
38.65
 20
53.9698357906
  0
LWPOLYLINE
  5
23E
100
AcDbEntity
  8
ASSI
100
AcDbPolyline
 62
7
  6
CONTINUOUS
 90
40
 70
0
 10
13.0
 20
34.7011760033
 10
13.2013193788
 20
34.7040430336
 10
13.4023141516
 20
34.7126395834
 10
13.6026583173
 20
34.7269518725
 10
13.8020271873
 20
34.7469568814
 10
14.000097091
 20
34.7726223087
 10
14.1965459208
 20
34.8039065461
 10
14.3910549226
 20
34.840758923
 10
14.5833086602
 20
34.8831197668
 10
14.7729947419
 20
34.9309203178
 10
14.959805389
 20
34.9840830603
 10
15.1434376495
 20
35.0425218244
 10
15.323593387
 20
35.1061417682
 10
15.4999802822
 20
35.174839681
 10
15.6723123026
 20
35.2485041803
 10
15.840309913
 20
35.3270158017
 10
16.0037006305
 20
35.4102472328
 10
16.1622193698
 20
35.4980634682
 10
16.3156088944
 20
35.5903220258
 10
16.4636204236
 20
35.6868732908
 10
16.6060138203
 20
35.7875606357
 10
16.7425579169
 20
35.8922206004
 10
16.8730312072
 20
36.0006833812
 10
16.9972221056
 20
36.1127730647
 10
17.1149291152
 20
36.2283077612
 10
17.2259613113
 20
36.3471000295
 10
17.3301386435
 20
36.4689571934
 10
17.4272921613
 20
36.5936815895
 10
17.5172643466
 20
36.7210709643
 10
17.5999092357
 20
36.8509186149
 10
17.6750926964
 20
36.9830137179
 10
17.7426928672
 20
37.1171420535
 10
17.8026001256
 20
37.2530859889
 10
17.8547172279
 20
37.3906246189
 10
17.8989597867
 20
37.5295348925
 10
17.9352561471
 20
37.6695914194
 10
17.9635474692
 20
37.8105664349
 10
17.9837880753
 20
37.9522310692
 10
17.9959454137
 20
38.094355733
 10
18.0
 20
38.2367099092
  0
LINE
  5
23F
100
AcDbEntity
  8
ASSI
100
AcDbLine
 62
7
  6
CONTINUOUS
 10
-13.0
 20
34.7011760033
 11
13.0
 21
34.7011760033
  0
LWPOLYLINE
  5
240
100
AcDbEntity
  8
ASSI
100
AcDbPolyline
 62
7
  6
CONTINUOUS
 90
61
 70
0
 10
41.35
 20
12.2505357006
 10
41.348107778
 20
12.2003499992
 10
41.3425675313
 20
12.1505728572
 10
41.3333792598
 20
12.1012042747
 10
41.3204978637
 20
12.0521114186
 10
41.303968443
 20
12.0034271219
 10
41.283926297
 20
11.9555498841
 10
41.2603425942
 20
11.9084863293
 10
41.2332461663
 20
11.8622298334
 10
41.2028588077
 20
11.8171590233
 10
41.1691535072
 20
11.7732836308
 10
41.132157276
 20
11.7305939241
 10
41.0921729424
 20
11.6894393346
 10
41.0491759806
 20
11.6498324622
 10
41.0031909163
 20
11.611760707
 10
40.9545941546
 20
11.5755357006
 10
40.9033642594
 20
11.5411726009
 10
40.8495226667
 20
11.5086562501
 10
40.7935100906
 20
11.4782528068
 10
40.735308712
 20
11.4499796134
 10
40.6749363498
 20
11.4238193274
 10
40.6128871746
 20
11.3999860809
 10
40.5491474237
 20
11.3784989736
 10
40.4837308599
 20
11.3593389056
 10
40.4171729424
 20
11.3426627095
 10
40.3494643034
 20
11.3284907722
 10
40.2806143108
 20
11.3168027066
 10
40.2111865278
 20
11.3076941841
 10
40.1411762121
 20
11.3011863769
 10
40.0705881061
 20
11.2972581128
 10
40.0
 20
11.295941546
 10
39.9294118939
 20
11.2972581128
 10
39.8588237879
 20
11.3011863769
 10
39.7888134722
 20
11.3076941841
 10
39.7193856892
 20
11.3168027066
 10
39.6505356966
 20
11.3284907722
 10
39.5828270576
 20
11.3426627095
 10
39.5162691401
 20
11.3593389056
 10
39.4508525763
 20
11.3784989736
 10
39.3871128254
 20
11.3999860809
 10
39.3250636502
 20
11.4238193274
 10
39.264691288
 20
11.4499796134
 10
39.2064899094
 20
11.4782528068
 10
39.1504773333
 20
11.5086562501
 10
39.0966357406
 20
11.5411726009
 10
39.0454058454
 20
11.5755357006
 10
38.9968090837
 20
11.611760707
 10
38.9508240194
 20
11.6498324622
 10
38.9078270576
 20
11.6894393346
 10
38.867842724
 20
11.7305939241
 10
38.8308464928
 20
11.7732836308
 10
38.7971411923
 20
11.8171590233
 10
38.7667538337
 20
11.8622298334
 10
38.7396574058
 20
11.9084863293
 10
38.716073703
 20
11.9555498841
 10
38.696031557
 20
12.0034271219
 10
38.6795021363
 20
12.0521114186
 10
38.6666207402
 20
12.1012042747
 10
38.6574324687
 20
12.1505728572
 10
38.651892222
 20
12.2003499992
 10
38.65
 20
12.2505357006
  0
LINE
  5
241
100
AcDbEntity
  8
ASSI
100
AcDbLine
 62
7
  6
CONTINUOUS
 10
-13.0
 20
51.7247717604
 11
13.0
 21
51.7247717604
  0
LWPOLYLINE
  5
242
100
AcDbEntity
  8
ASSI
100
AcDbPolyline
 62
7
  6
CONTINUOUS
 90
43
 70
0
 10
13.0
 20
51.7247717604
 10
13.1873896925
 20
51.7222706205
 10
13.3739971527
 20
51.7148603888
 10
13.5598223805
 20
51.7025410652
 10
13.7451228411
 20
51.6852817175
 10
13.9296410693
 20
51.6631132779
 10
14.1126046698
 20
51.6361285438
 10
14.2940071258
 20
51.604307326
 10
14.4738549541
 20
51.5676698137
 10
14.6513953098
 20
51.526369372
 10
14.8266185201
 20
51.4803864544
 10
14.9995342578
 20
51.4297406075
 10
15.1694186956
 20
51.3746438351
 10
15.3362591267
 20
51.3150774797
 10
15.500068258
 20
51.2510601989
 10
15.6601603826
 20
51.1828599698
 10
15.8165199193
 20
51.110459258
 10
15.9691624493
 20
51.0338755978
 10
16.1174490093
 20
50.9534295694
 10
16.2613613397
 20
50.8691049822
 10
16.4009177
 20
50.7809180267
 10
16.5355339059
 20
50.6892378544
 10
16.6651892489
 20
50.5940498224
 10
16.7899044374
 20
50.4953685736
 10
16.9091574123
 20
50.3936071889
 10
17.0229252768
 20
50.2887527568
 10
17.1312309276
 20
50.1808181887
 10
17.2336209961
 20
50.0702553
 10
17.3300706851
 20
49.9570530731
 10
17.4206047918
 20
49.8412225255
 10
17.5048443395
 20
49.7232485253
 10
17.5827629422
 20
49.6031220873
 10
17.6543869859
 20
49.4808521966
 10
17.7194166515
 20
49.3569506764
 10
17.7778242964
 20
49.231410687
 10
17.8296375631
 20
49.104239068
 10
17.8746395609
 20
48.9759681612
 10
17.9128017378
 20
48.8465933586
 10
17.9441526458
 20
48.7161192682
 10
17.9685610495
 20
48.5850920559
 10
17.9859832039
 20
48.4536937772
 10
17.996462854
 20
48.3217423767
 10
18.0
 20
48.1892378544
  0
LINE
  5
243
100
AcDbEntity
  8
RACCORDO
100
AcDbLine
 62
7
  6
CONTINUOUS
 10
66.7822512651
 20
-72.0277258157
 11
66.5
 21
-68.8015790929
  0
LINE
  5
244
100
AcDbEntity
  8
ASSI
100
AcDbLine
 62
7
  6
CONTINUOUS
 10
57.5
 20
-25.3766438795
 11
57.5
 21
-58.8015790929
  0
LWPOLYLINE
  5
245
100
AcDbEntity
  8
ASSI
100
AcDbPolyline
 62
7
  6
CONTINUOUS
 90
40
 70
0
 10
57.5
 20
-25.3766438795
 10
57.5028767849
 20
-25.2767228497
 10
57.5113830985
 20
-25.1772851618
 10
57.5255189407
 20
-25.0783308156
 10
57.5453254576
 20
-24.9797010467
 10
57.5707615031
 20
-24.8815546195
 10
57.601703639
 20
-24.7843678278
 10
57.638178629
 20
-24.688145336
 10
57.6801597094
 20
-24.5928824796
 10
57.7274431506
 20
-24.4990415586
 10
57.7800547262
 20
-24.4066294845
 10
57.8379686627
 20
-24.3156393458
 10
57.9009039102
 20
-24.2265127074
 10
57.9688848762
 20
-24.1392586272
 10
58.0418871532
 20
-24.0538680473
 10
58.1195564694
 20
-23.9707553586
 10
58.2019155101
 20
-23.8899316332
 10
58.28894159
 20
-23.811385799
 10
58.3802123814
 20
-23.7354990301
 10
58.4757485167
 20
-23.6622842516
 10
58.5755293633
 20
-23.5917285382
 10
58.6790706962
 20
-23.5241742892
 10
58.7863907939
 20
-23.4596360937
 10
58.8974713779
 20
-23.3980993624
 10
59.0117733864
 20
-23.3398627262
 10
59.1293124781
 20
-23.284942226
 10
59.2500729943
 20
-23.2333218209
 10
59.3734688978
 20
-23.1852520189
 10
59.4995129987
 20
-23.1407500786
 10
59.6281924869
 20
-23.0997987414
 10
59.7588828954
 20
-23.0625967395
 10
59.8915939986
 20
-23.0291622976
 10
60.0263160221
 20
-22.999477191
 10
60.162395175
 20
-22.9736854782
 10
60.2998380539
 20
-22.9518060841
 10
60.4386380623
 20
-22.9338200838
 10
60.5781216191
 20
-22.9198147614
 10
60.7180641975
 20
-22.9098192115
 10
60.8586903245
 20
-22.9038043395
 10
61.0
 20
-22.9017701454
  0
LINE
  5
246
100
AcDbEntity
  8
ASSI
100
AcDbLine
 62
7
  6
CONTINUOUS
 10
-69.6552524227
 20
61.6949773751
 11
69.6552524227
 21
61.6949773751
  0
LINE
  5
247
100
AcDbEntity
  8
RACCORDO
100
AcDbLine
 62
7
  6
CONTINUOUS
 10
73.7822512651
 20
-72.0277258157
 11
73.5
 21
-68.8015790929
  0
LWPOLYLINE
  5
248
100
AcDbEntity
  8
ASSI
100
AcDbPolyline
 62
7
  6
CONTINUOUS
 90
7
 70
0
 10
69.6591
 20
61.5535560189
 10
69.6589921266
 20
61.5771682978
 10
69.6586708975
 20
61.6007637555
 10
69.6581363125
 20
61.6243423922
 10
69.6573883717
 20
61.6479042076
 10
69.6564270751
 20
61.6714492019
 10
69.6552524227
 20
61.6949773751
  0
LINE
  5
249
100
AcDbEntity
  8
ASSI
100
AcDbLine
 62
250
  6
CONTINUOUS
 10
64.4591
 20
72.3015790929
 11
64.4591
 21
68.766045187
  0
LINE
  5
24A
100
AcDbEntity
  8
ASSI
100
AcDbLine
 62
7
  6
CONTINUOUS
 10
69.6591
 20
68.6246238307
 11
69.6591
 21
-19.2248148832
  0
LINE
  5
24B
100
AcDbEntity
  8
ASSI
100
AcDbLine
 62
7
  6
CONTINUOUS
 10
-64.4591
 20
68.766045187
 11
64.4591
 21
68.766045187
  0
LINE
  5
24C
100
AcDbEntity
  8
ASSI
100
AcDbLine
 62
7
  6
CONTINUOUS
 10
64.4591
 20
72.3015790929
 11
-64.4591
 21
72.3015790929
  0
LWPOLYLINE
  5
24D
100
AcDbEntity
  8
ASSI
100
AcDbPolyline
 62
7
  6
CONTINUOUS
 90
43
 70
0
 10
64.4591
 20
72.3015790929
 10
64.6539852802
 20
72.2989779074
 10
64.8480570388
 20
72.2912712664
 10
65.0413152757
 20
72.27845917
 10
65.2340277547
 20
72.2605094483
 10
65.425926712
 20
72.2374542711
 10
65.6162088566
 20
72.2093901477
 10
65.8048674108
 20
72.1762960811
 10
65.9919091523
 20
72.1381930684
 10
66.1765511222
 20
72.095240609
 10
66.3587832609
 20
72.0474183747
 10
66.5386156281
 20
71.9947466939
 10
66.7152954434
 20
71.9374460506
 10
66.8888094918
 20
71.875497041
 10
67.0591709883
 20
71.808919069
 10
67.2256667979
 20
71.7379908307
 10
67.3882807161
 20
71.6626940904
 10
67.5470289473
 20
71.5830470839
 10
67.7012469697
 20
71.4993832143
 10
67.8509157933
 20
71.4116856436
 10
67.996054408
 20
71.3199712099
 10
68.1360552622
 20
71.2246238307
 10
68.2708968189
 20
71.1256282774
 10
68.4006006149
 20
71.0229997787
 10
68.5246237088
 20
70.9171679386
 10
68.6429422879
 20
70.8081193292
 10
68.7555801647
 20
70.6958673784
 10
68.862065836
 20
70.5808819741
 10
68.9623735125
 20
70.4631516581
 10
69.0565289835
 20
70.3426878887
 10
69.1441381131
 20
70.2199949284
 10
69.2251734599
 20
70.0950634329
 10
69.2996624654
 20
69.9679027466
 10
69.3672933176
 20
69.8390451656
 10
69.4280372682
 20
69.7084835766
 10
69.4819230657
 20
69.5762250928
 10
69.5287251433
 20
69.4428233498
 10
69.5684138073
 20
69.308273555
 10
69.6010187516
 20
69.172580501
 10
69.6264034914
 20
69.0363122003
 10
69.644522532
 20
68.8996579905
 10
69.6554213682
 20
68.7624285339
 10
69.6591
 20
68.6246238307
  0
LINE
  5
24E
100
AcDbEntity
  8
ASSI
100
AcDbLine
 62
250
  6
CONTINUOUS
 10
86.1986864425
 20
-68.8015790929
 11
86.1986864425
 21
-58.8015790929
  0
LINE
  5
24F
100
AcDbEntity
  8
ASSI
100
AcDbLine
 62
7
  6
CONTINUOUS
 10
89.6986864425
 20
-68.8015790929
 11
89.6986864425
 21
-58.8015790929
  0
LINE
  5
250
100
AcDbEntity
  8
RACCORDO
100
AcDbLine
 62
7
  6
CONTINUOUS
 10
86.2177487349
 20
-72.0277258157
 11
86.5
 21
-68.8015790929
  0
ARC
  5
251
100
AcDbEntity
  8
RACCORDO
100
AcDbCircle
 62
7
  6
CONTINUOUS
 10
67.0811096745
 20
-72.0015790929
 40
0.3
100
AcDbArc
 50
185.0000000034
 51
270.0
  0
ARC
  5
252
100
AcDbEntity
  8
RACCORDO
100
AcDbCircle
 62
7
  6
CONTINUOUS
 10
-67.0811096745
 20
-72.0015790929
 40
0.3
100
AcDbArc
 50
270.0
 51
354.9999999966
  0
ARC
  5
253
100
AcDbEntity
  8
RACCORDO
100
AcDbCircle
 62
7
  6
CONTINUOUS
 10
74.0811096745
 20
-72.0015790929
 40
0.3
100
AcDbArc
 50
185.0000000034
 51
270.0
  0
ARC
  5
254
100
AcDbEntity
  8
RACCORDO
100
AcDbCircle
 62
7
  6
CONTINUOUS
 10
85.9188903255
 20
-72.0015790929
 40
0.3
100
AcDbArc
 50
270.0
 51
354.9999999966
  0
ARC
  5
255
100
AcDbEntity
  8
RACCORDO
100
AcDbCircle
 62
7
  6
CONTINUOUS
 10
-74.0811096745
 20
-72.0015790929
 40
0.3
100
AcDbArc
 50
270.0
 51
354.9999999966
  0
ARC
  5
256
100
AcDbEntity
  8
RACCORDO
100
AcDbCircle
 62
7
  6
CONTINUOUS
 10
-85.9188903255
 20
-72.0015790929
 40
0.3
100
AcDbArc
 50
185.0000000034
 51
270.0
  0
ELLIPSE
  5
257
100
AcDbEntity
  8
ASSI
100
AcDbEllipse
 62
7
  6
CONTINUOUS
 10
-64.4591
 20
61.4121346626
 30
0.0
 11
0.0
 21
-7.3539105243
 31
0.0
 40
0.7071067812
 41
3.1415926536
 42
4.673917953
  0
ELLIPSE
  5
258
100
AcDbEntity
  8
ASSI
100
AcDbEllipse
 62
7
  6
CONTINUOUS
 10
64.4591
 20
61.4121346626
 30
0.0
 11
0.0
 21
-7.3539105243
 31
0.0
 40
0.7071067812
 41
1.6092673542
 42
3.1415926536
  0
ENDSEC
  0
SECTION
  2
OBJECTS
  0
DICTIONARY
  5
C
100
AcDbDictionary
280
0
281
1
  3
ACAD_GROUP
350
D
  3
ACAD_MLINESTYLE
350
17
  3
ACAD_LAYOUT
350
1A
  3
ACAD_PLOTSETTINGS
350
19
  3
ACAD_PLOTSTYLENAME
350
E
  0
DICTIONARY
  5
D
102
{ACAD_REACTORS
330
C
102
}
100
AcDbDictionary
280
0
281
1
  0
ACDBDICTIONARYWDFLT
  5
E
102
{ACAD_REACTORS
330
C
102
}
100
AcDbDictionary
281
1
  3
Normal
350
F
100
AcDbDictionaryWithDefault
340
F
  0
DICTIONARY
  5
17
102
{ACAD_REACTORS
330
C
102
}
100
AcDbDictionary
280
0
281
1
  3
Standard
350
18
  0
DICTIONARY
  5
19
102
{ACAD_REACTORS
330
C
102
}
100
AcDbDictionary
281
1
  0
DICTIONARY
  5
1A
102
{ACAD_REACTORS
330
C
102
}
100
AcDbDictionary
281
1
  3
Model
350
259
  3
Layout1
350
25A
  0
ACDBPLACEHOLDER
  5
F
102
{ACAD_REACTORS
330
E
102
}
  0
MLINESTYLE
  5
18
102
{ACAD_REACTORS
330
17
102
}
100
AcDbMlineStyle
  2
STANDARD
 70
0
  3

 62
256
 51
90.0
 52
90.0
 71
2
 49
0.5
 62
256
  6
BYLAYER
 49
-0.5
 62
256
  6
BYLAYER
  0
LAYOUT
  5
259
102
{ACAD_REACTORS
330
1A
102
}
100
AcDbPlotSettings
  1

  2
none_device
  4
ISO_A3_(420.00_x_297.00_MM)
  6

 40
0.0
 41
0.0
 42
0.0
 43
0.0
 44
420.0
 45
297.0
 46
0.0
 47
0.0
 48
0.0
 49
0.0
140
0.0
141
0.0
142
1.0
143
1.0
 70
1024
 72
1
 73
0
 74
0
  7

 75
0
147
1.0
148
0.0
149
0.0
100
AcDbLayout
  1
Model
 70
0
 71
0
 10
0.0
 20
0.0
 11
420.0
 21
297.0
 12
0.0
 22
0.0
 32
0.0
 14
0.0
 24
0.0
 34
0.0
 15
0.0
 25
0.0
 35
0.0
146
0.0
 13
0.0
 23
0.0
 33
0.0
 16
1.0
 26
0.0
 36
0.0
 17
0.0
 27
1.0
 37
0.0
 76
0
330
211
345
0
346
0
  0
LAYOUT
  5
25A
102
{ACAD_REACTORS
330
1A
102
}
100
AcDbPlotSettings
  1

  2
none_device
  4
ISO_A3_(420.00_x_297.00_MM)
  6

 40
0.0
 41
0.0
 42
0.0
 43
0.0
 44
420.0
 45
297.0
 46
0.0
 47
0.0
 48
0.0
 49
0.0
140
0.0
141
0.0
142
1.0
143
1.0
 70
0
 72
1
 73
0
 74
0
  7

 75
0
147
1.0
148
0.0
149
0.0
100
AcDbLayout
  1
Layout1
 70
0
 71
1
 10
0.0
 20
0.0
 11
420.0
 21
297.0
 12
0.0
 22
0.0
 32
0.0
 14
0.0
 24
0.0
 34
0.0
 15
0.0
 25
0.0
 35
0.0
146
0.0
 13
0.0
 23
0.0
 33
0.0
 16
1.0
 26
0.0
 36
0.0
 17
0.0
 27
1.0
 37
0.0
 76
0
330
212
345
0
346
0
  0
ENDSEC
  0
EOF
