  0
SECTION
  2
HEADER
  9
$ACADVER
  1
AC1021
  9
$DWGCODEPAGE
  3
ANSI_1252
  9
$EXTMAX
 10
297.0
 20
210.0
 30
0.0
  9
$EXTMIN
 10
0.0
 20
0.0
 30
0.0
  9
$LIMMIN
 10
0.0
 20
0.0
  9
$LIMMAX
 10
297.0
 20
210.0
  9
$VIEWCTR
 10
148.5
 20
105.0
  9
$VIEWSIZE
 40
210.0
  9
$CLAYER
  8
0
  9
$LTSCALE
 40
16.335
  9
$CELTYPE
  6
BYLAYER
  9
$DIMSCALE
 40
1.0
  9
$DIMASZ
 40
3.0
  9
$DIMEXO
 40
0.5
  9
$DIMDLI
 40
11.286
  9
$DIMEXE
 40
1.5
  9
$DIMCEN
 40
2.673
  9
$DIMLFAC
 40
1.0
  9
$DIMBLK
  1
_FILLED
  9
$DIMALT
 70
0
  9
$DIMALTF
 40
0.0393700787
  9
$DIMTXT
 40
3.0
  9
$DIMTOL
 70
1
  9
$DIMLIM
 70
0
  9
$DIMTFAC
 40
1.0
  9
$DIMTP
 40
0.01
  9
$DIMTM
 40
0.01
  9
$DIMGAP
 40
0.625
  9
$DIMDSEP
 70
44
  9
$AUNITS
 70
0
  9
$PDMODE
 70
3
  9
$PDSIZE
 40
3.0
  9
$HANDSEED
  5
724
  9
$TILEMODE
 70
1
  9
$MEASUREMENT
 70
1
  9
$INSUNITS
 70
4
  0
ENDSEC
  0
SECTION
  2
CLASSES
  0
CLASS
  1
ACDBDICTIONARYWDFLT
  2
AcDbDictionaryWithDefault
  3
AutoCAD 2000
 90
0
 91
1
280
0
281
0
  0
CLASS
  1
ACDBPLACEHOLDER
  2
AcDbPlaceHolder
  3
AutoCAD 2000
 90
0
 91
1
280
0
281
0
  0
CLASS
  1
LAYOUT
  2
AcDbLayout
  3
AutoCAD 2000
 90
0
 91
0
280
0
281
0
  0
ENDSEC
  0
SECTION
  2
TABLES
  0
TABLE
  2
VPORT
  5
8
100
AcDbSymbolTable
 70
2
  0
VPORT
  5
1F4
100
AcDbSymbolTableRecord
100
AcDbViewportTableRecord
  2
*ACTIVE
 70
0
 10
0.0
 20
0.0
 11
1.0
 21
1.0
 12
148.5
 22
105.0
 13
0.0
 23
0.0
 14
1.0
 24
1.0
 15
0.0
 25
0.0
 16
0.0
 26
0.0
 36
1.0
 17
0.0
 27
0.0
 37
0.0
 40
210.0
 41
1.4142857143
 42
50.0
 43
0.0
 44
0.0
 50
0.0
 51
0.0
 71
0
 72
100
 73
1
 74
1
 75
0
 76
0
 77
0
 78
0
  0
ENDTAB
  0
TABLE
  2
LTYPE
  5
5
100
AcDbSymbolTable
 70
6
  0
LTYPE
  5
14
100
AcDbSymbolTableRecord
100
AcDbLinetypeTableRecord
  2
BYBLOCK
 70
0
  3

 72
65
 73
0
 40
0.0
  0
LTYPE
  5
15
100
AcDbSymbolTableRecord
100
AcDbLinetypeTableRecord
  2
BYLAYER
 70
0
  3

 72
65
 73
0
 40
0.0
  0
LTYPE
  5
16
100
AcDbSymbolTableRecord
100
AcDbLinetypeTableRecord
  2
CONTINUOUS
 70
64
  3
Solid line
 72
65
 73
0
 40
0.0
  0
LTYPE
  5
1F5
100
AcDbSymbolTableRecord
100
AcDbLinetypeTableRecord
  2
CENTER
 70
64
  3
____ _ ____ _ ____ _ ____ _ ____ _ ____ _ ____
 72
65
 73
4
 40
0.6
 49
0.375
 74
0
 49
-0.075
 74
0
 49
0.075
 74
0
 49
-0.075
 74
0
  0
LTYPE
  5
1F6
100
AcDbSymbolTableRecord
100
AcDbLinetypeTableRecord
  2
HIDDEN
 70
64
  3
- - - - - - - - - - - - - - - - - - - -
 72
65
 73
2
 40
0.2
 49
0.1
 74
0
 49
-0.1
 74
0
  0
LTYPE
  5
1F7
100
AcDbSymbolTableRecord
100
AcDbLinetypeTableRecord
  2
PHANTOM
 70
64
  3
_____ _ _ _____ _ _ _____ _ _ _____
 72
65
 73
6
 40
0.8
 49
0.45
 74
0
 49
-0.05
 74
0
 49
0.1
 74
0
 49
-0.05
 74
0
 49
0.1
 74
0
 49
-0.05
 74
0
  0
LTYPE
  5
1F8
100
AcDbSymbolTableRecord
100
AcDbLinetypeTableRecord
  2
DOT
 70
64
  3
. . . . . . . . . . . . . . . . . . . .
 72
65
 73
2
 40
0.2
 49
0.1
 74
0
 49
-0.1
 74
0
  0
LTYPE
  5
1F9
100
AcDbSymbolTableRecord
100
AcDbLinetypeTableRecord
  2
DASHED
 70
64
  3
- - - - - - - - - - - - - - - - - - - -
 72
65
 73
2
 40
0.2
 49
0.1
 74
0
 49
-0.1
 74
0
  0
ENDTAB
  0
TABLE
  2
LAYER
  5
2
100
AcDbSymbolTable
 70
36
  0
LAYER
  5
10
100
AcDbSymbolTableRecord
100
AcDbLayerTableRecord
  2
0
 70
0
 62
7
  6
CONTINUOUS
370
-3
390
F
  0
LAYER
  5
1FA
100
AcDbSymbolTableRecord
100
AcDbLayerTableRecord
  2
DEFAULT_1
 70
0
 62
7
  6
CENTER
370
-3
390
F
  0
LAYER
  5
1FB
100
AcDbSymbolTableRecord
100
AcDbLayerTableRecord
  2
DEFAULT_2
 70
0
 62
7
  6
HIDDEN
370
-3
390
F
  0
LAYER
  5
1FC
100
AcDbSymbolTableRecord
100
AcDbLayerTableRecord
  2
DEFAULT_3
 70
0
 62
7
  6
PHANTOM
370
-3
390
F
  0
LAYER
  5
1FD
100
AcDbSymbolTableRecord
100
AcDbLayerTableRecord
  2
0603_C_REF_90000
 70
0
 62
7
  6
CONTINUOUS
370
-3
390
F
  0
LAYER
  5
1FE
100
AcDbSymbolTableRecord
100
AcDbLayerTableRecord
  2
0603_C_REF_90000_1
 70
0
 62
7
  6
CONTINUOUS
370
-3
390
F
  0
LAYER
  5
1FF
100
AcDbSymbolTableRecord
100
AcDbLayerTableRecord
  2
0603_C_REF_90000_10
 70
0
 62
7
  6
CONTINUOUS
370
-3
390
F
  0
LAYER
  5
200
100
AcDbSymbolTableRecord
100
AcDbLayerTableRecord
  2
0603_C_REF_90000_11
 70
0
 62
7
  6
CONTINUOUS
370
-3
390
F
  0
LAYER
  5
201
100
AcDbSymbolTableRecord
100
AcDbLayerTableRecord
  2
0603_C_REF_90000_12
 70
0
 62
7
  6
CONTINUOUS
370
-3
390
F
  0
LAYER
  5
202
100
AcDbSymbolTableRecord
100
AcDbLayerTableRecord
  2
0603_C_REF_90000_13
 70
0
 62
7
  6
CONTINUOUS
370
-3
390
F
  0
LAYER
  5
203
100
AcDbSymbolTableRecord
100
AcDbLayerTableRecord
  2
0603_C_REF_90000_14
 70
0
 62
7
  6
CONTINUOUS
370
-3
390
F
  0
LAYER
  5
204
100
AcDbSymbolTableRecord
100
AcDbLayerTableRecord
  2
0603_C_REF_90000_15
 70
0
 62
7
  6
CONTINUOUS
370
-3
390
F
  0
LAYER
  5
205
100
AcDbSymbolTableRecord
100
AcDbLayerTableRecord
  2
0603_C_REF_90000_16
 70
0
 62
7
  6
CONTINUOUS
370
-3
390
F
  0
LAYER
  5
206
100
AcDbSymbolTableRecord
100
AcDbLayerTableRecord
  2
0603_C_REF_90000_17
 70
0
 62
7
  6
CONTINUOUS
370
-3
390
F
  0
LAYER
  5
207
100
AcDbSymbolTableRecord
100
AcDbLayerTableRecord
  2
0603_C_REF_90000_18
 70
0
 62
7
  6
CONTINUOUS
370
-3
390
F
  0
LAYER
  5
208
100
AcDbSymbolTableRecord
100
AcDbLayerTableRecord
  2
0603_C_REF_90000_19
 70
0
 62
7
  6
CONTINUOUS
370
-3
390
F
  0
LAYER
  5
209
100
AcDbSymbolTableRecord
100
AcDbLayerTableRecord
  2
0603_C_REF_90000_2
 70
0
 62
7
  6
CONTINUOUS
370
-3
390
F
  0
LAYER
  5
20A
100
AcDbSymbolTableRecord
100
AcDbLayerTableRecord
  2
0603_C_REF_90000_20
 70
0
 62
7
  6
CONTINUOUS
370
-3
390
F
  0
LAYER
  5
20B
100
AcDbSymbolTableRecord
100
AcDbLayerTableRecord
  2
0603_C_REF_90000_21
 70
0
 62
7
  6
CONTINUOUS
370
-3
390
F
  0
LAYER
  5
20C
100
AcDbSymbolTableRecord
100
AcDbLayerTableRecord
  2
0603_C_REF_90000_22
 70
0
 62
7
  6
CONTINUOUS
370
-3
390
F
  0
LAYER
  5
20D
100
AcDbSymbolTableRecord
100
AcDbLayerTableRecord
  2
0603_C_REF_90000_23
 70
0
 62
7
  6
CONTINUOUS
370
-3
390
F
  0
LAYER
  5
20E
100
AcDbSymbolTableRecord
100
AcDbLayerTableRecord
  2
0603_C_REF_90000_24
 70
0
 62
7
  6
CONTINUOUS
370
-3
390
F
  0
LAYER
  5
20F
100
AcDbSymbolTableRecord
100
AcDbLayerTableRecord
  2
0603_C_REF_90000_25
 70
0
 62
7
  6
CONTINUOUS
370
-3
390
F
  0
LAYER
  5
210
100
AcDbSymbolTableRecord
100
AcDbLayerTableRecord
  2
0603_C_REF_90000_26
 70
0
 62
7
  6
CONTINUOUS
370
-3
390
F
  0
LAYER
  5
211
100
AcDbSymbolTableRecord
100
AcDbLayerTableRecord
  2
0603_C_REF_90000_27
 70
0
 62
7
  6
CONTINUOUS
370
-3
390
F
  0
LAYER
  5
212
100
AcDbSymbolTableRecord
100
AcDbLayerTableRecord
  2
0603_C_REF_90000_28
 70
0
 62
7
  6
CONTINUOUS
370
-3
390
F
  0
LAYER
  5
213
100
AcDbSymbolTableRecord
100
AcDbLayerTableRecord
  2
0603_C_REF_90000_29
 70
0
 62
7
  6
CONTINUOUS
370
-3
390
F
  0
LAYER
  5
214
100
AcDbSymbolTableRecord
100
AcDbLayerTableRecord
  2
0603_C_REF_90000_3
 70
0
 62
7
  6
CONTINUOUS
370
-3
390
F
  0
LAYER
  5
215
100
AcDbSymbolTableRecord
100
AcDbLayerTableRecord
  2
0603_C_REF_90000_30
 70
0
 62
7
  6
CONTINUOUS
370
-3
390
F
  0
LAYER
  5
216
100
AcDbSymbolTableRecord
100
AcDbLayerTableRecord
  2
0603_C_REF_90000_31
 70
0
 62
7
  6
CONTINUOUS
370
-3
390
F
  0
LAYER
  5
217
100
AcDbSymbolTableRecord
100
AcDbLayerTableRecord
  2
0603_C_REF_90000_32
 70
0
 62
7
  6
CONTINUOUS
370
-3
390
F
  0
LAYER
  5
218
100
AcDbSymbolTableRecord
100
AcDbLayerTableRecord
  2
0603_C_REF_90000_33
 70
0
 62
7
  6
CONTINUOUS
370
-3
390
F
  0
LAYER
  5
219
100
AcDbSymbolTableRecord
100
AcDbLayerTableRecord
  2
0603_C_REF_90000_34
 70
0
 62
7
  6
CONTINUOUS
370
-3
390
F
  0
LAYER
  5
21A
100
AcDbSymbolTableRecord
100
AcDbLayerTableRecord
  2
0603_C_REF_90000_35
 70
0
 62
7
  6
CONTINUOUS
370
-3
390
F
  0
LAYER
  5
21B
100
AcDbSymbolTableRecord
100
AcDbLayerTableRecord
  2
0603_C_REF_90000_36
 70
0
 62
7
  6
CONTINUOUS
370
-3
390
F
  0
LAYER
  5
21C
100
AcDbSymbolTableRecord
100
AcDbLayerTableRecord
  2
0603_C_REF_90000_37
 70
0
 62
7
  6
CONTINUOUS
370
-3
390
F
  0
LAYER
  5
21D
100
AcDbSymbolTableRecord
100
AcDbLayerTableRecord
  2
0603_C_REF_90000_38
 70
0
 62
7
  6
CONTINUOUS
370
-3
390
F
  0
LAYER
  5
21E
100
AcDbSymbolTableRecord
100
AcDbLayerTableRecord
  2
0603_C_REF_90000_39
 70
0
 62
7
  6
CONTINUOUS
370
-3
390
F
  0
LAYER
  5
21F
100
AcDbSymbolTableRecord
100
AcDbLayerTableRecord
  2
0603_C_REF_90000_4
 70
0
 62
7
  6
CONTINUOUS
370
-3
390
F
  0
LAYER
  5
220
100
AcDbSymbolTableRecord
100
AcDbLayerTableRecord
  2
0603_C_REF_90000_40
 70
0
 62
7
  6
CONTINUOUS
370
-3
390
F
  0
LAYER
  5
221
100
AcDbSymbolTableRecord
100
AcDbLayerTableRecord
  2
0603_C_REF_90000_41
 70
0
 62
7
  6
CONTINUOUS
370
-3
390
F
  0
LAYER
  5
222
100
AcDbSymbolTableRecord
100
AcDbLayerTableRecord
  2
0603_C_REF_90000_42
 70
0
 62
7
  6
CONTINUOUS
370
-3
390
F
  0
LAYER
  5
223
100
AcDbSymbolTableRecord
100
AcDbLayerTableRecord
  2
0603_C_REF_90000_43
 70
0
 62
7
  6
CONTINUOUS
370
-3
390
F
  0
LAYER
  5
224
100
AcDbSymbolTableRecord
100
AcDbLayerTableRecord
  2
0603_C_REF_90000_44
 70
0
 62
7
  6
CONTINUOUS
370
-3
390
F
  0
LAYER
  5
225
100
AcDbSymbolTableRecord
100
AcDbLayerTableRecord
  2
0603_C_REF_90000_45
 70
0
 62
7
  6
CONTINUOUS
370
-3
390
F
  0
LAYER
  5
226
100
AcDbSymbolTableRecord
100
AcDbLayerTableRecord
  2
0603_C_REF_90000_46
 70
0
 62
7
  6
CONTINUOUS
370
-3
390
F
  0
LAYER
  5
227
100
AcDbSymbolTableRecord
100
AcDbLayerTableRecord
  2
0603_C_REF_90000_47
 70
0
 62
7
  6
CONTINUOUS
370
-3
390
F
  0
LAYER
  5
228
100
AcDbSymbolTableRecord
100
AcDbLayerTableRecord
  2
0603_C_REF_90000_48
 70
0
 62
7
  6
CONTINUOUS
370
-3
390
F
  0
LAYER
  5
229
100
AcDbSymbolTableRecord
100
AcDbLayerTableRecord
  2
0603_C_REF_90000_49
 70
0
 62
7
  6
CONTINUOUS
370
-3
390
F
  0
LAYER
  5
22A
100
AcDbSymbolTableRecord
100
AcDbLayerTableRecord
  2
0603_C_REF_90000_5
 70
0
 62
7
  6
CONTINUOUS
370
-3
390
F
  0
LAYER
  5
22B
100
AcDbSymbolTableRecord
100
AcDbLayerTableRecord
  2
0603_C_REF_90000_50
 70
0
 62
7
  6
CONTINUOUS
370
-3
390
F
  0
LAYER
  5
22C
100
AcDbSymbolTableRecord
100
AcDbLayerTableRecord
  2
0603_C_REF_90000_51
 70
0
 62
7
  6
CONTINUOUS
370
-3
390
F
  0
LAYER
  5
22D
100
AcDbSymbolTableRecord
100
AcDbLayerTableRecord
  2
0603_C_REF_90000_52
 70
0
 62
7
  6
CONTINUOUS
370
-3
390
F
  0
LAYER
  5
22E
100
AcDbSymbolTableRecord
100
AcDbLayerTableRecord
  2
0603_C_REF_90000_53
 70
0
 62
7
  6
CONTINUOUS
370
-3
390
F
  0
LAYER
  5
22F
100
AcDbSymbolTableRecord
100
AcDbLayerTableRecord
  2
0603_C_REF_90000_54
 70
0
 62
7
  6
CONTINUOUS
370
-3
390
F
  0
LAYER
  5
230
100
AcDbSymbolTableRecord
100
AcDbLayerTableRecord
  2
0603_C_REF_90000_6
 70
0
 62
7
  6
CONTINUOUS
370
-3
390
F
  0
LAYER
  5
231
100
AcDbSymbolTableRecord
100
AcDbLayerTableRecord
  2
0603_C_REF_90000_7
 70
0
 62
7
  6
CONTINUOUS
370
-3
390
F
  0
LAYER
  5
232
100
AcDbSymbolTableRecord
100
AcDbLayerTableRecord
  2
0603_C_REF_90000_8
 70
0
 62
7
  6
CONTINUOUS
370
-3
390
F
  0
LAYER
  5
233
100
AcDbSymbolTableRecord
100
AcDbLayerTableRecord
  2
0603_C_REF_90000_9
 70
0
 62
7
  6
CONTINUOUS
370
-3
390
F
  0
LAYER
  5
234
100
AcDbSymbolTableRecord
100
AcDbLayerTableRecord
  2
0603_R_REF_55000
 70
0
 62
7
  6
CONTINUOUS
370
-3
390
F
  0
LAYER
  5
235
100
AcDbSymbolTableRecord
100
AcDbLayerTableRecord
  2
0603_R_REF_55000_1
 70
0
 62
7
  6
CONTINUOUS
370
-3
390
F
  0
LAYER
  5
236
100
AcDbSymbolTableRecord
100
AcDbLayerTableRecord
  2
0603_R_REF_55000_10
 70
0
 62
7
  6
CONTINUOUS
370
-3
390
F
  0
LAYER
  5
237
100
AcDbSymbolTableRecord
100
AcDbLayerTableRecord
  2
0603_R_REF_55000_11
 70
0
 62
7
  6
CONTINUOUS
370
-3
390
F
  0
LAYER
  5
238
100
AcDbSymbolTableRecord
100
AcDbLayerTableRecord
  2
0603_R_REF_55000_12
 70
0
 62
7
  6
CONTINUOUS
370
-3
390
F
  0
LAYER
  5
239
100
AcDbSymbolTableRecord
100
AcDbLayerTableRecord
  2
0603_R_REF_55000_13
 70
0
 62
7
  6
CONTINUOUS
370
-3
390
F
  0
LAYER
  5
23A
100
AcDbSymbolTableRecord
100
AcDbLayerTableRecord
  2
0603_R_REF_55000_14
 70
0
 62
7
  6
CONTINUOUS
370
-3
390
F
  0
LAYER
  5
23B
100
AcDbSymbolTableRecord
100
AcDbLayerTableRecord
  2
0603_R_REF_55000_15
 70
0
 62
7
  6
CONTINUOUS
370
-3
390
F
  0
LAYER
  5
23C
100
AcDbSymbolTableRecord
100
AcDbLayerTableRecord
  2
0603_R_REF_55000_16
 70
0
 62
7
  6
CONTINUOUS
370
-3
390
F
  0
LAYER
  5
23D
100
AcDbSymbolTableRecord
100
AcDbLayerTableRecord
  2
0603_R_REF_55000_17
 70
0
 62
7
  6
CONTINUOUS
370
-3
390
F
  0
LAYER
  5
23E
100
AcDbSymbolTableRecord
100
AcDbLayerTableRecord
  2
0603_R_REF_55000_18
 70
0
 62
7
  6
CONTINUOUS
370
-3
390
F
  0
LAYER
  5
23F
100
AcDbSymbolTableRecord
100
AcDbLayerTableRecord
  2
0603_R_REF_55000_19
 70
0
 62
7
  6
CONTINUOUS
370
-3
390
F
  0
LAYER
  5
240
100
AcDbSymbolTableRecord
100
AcDbLayerTableRecord
  2
0603_R_REF_55000_2
 70
0
 62
7
  6
CONTINUOUS
370
-3
390
F
  0
LAYER
  5
241
100
AcDbSymbolTableRecord
100
AcDbLayerTableRecord
  2
0603_R_REF_55000_20
 70
0
 62
7
  6
CONTINUOUS
370
-3
390
F
  0
LAYER
  5
242
100
AcDbSymbolTableRecord
100
AcDbLayerTableRecord
  2
0603_R_REF_55000_21
 70
0
 62
7
  6
CONTINUOUS
370
-3
390
F
  0
LAYER
  5
243
100
AcDbSymbolTableRecord
100
AcDbLayerTableRecord
  2
0603_R_REF_55000_22
 70
0
 62
7
  6
CONTINUOUS
370
-3
390
F
  0
LAYER
  5
244
100
AcDbSymbolTableRecord
100
AcDbLayerTableRecord
  2
0603_R_REF_55000_23
 70
0
 62
7
  6
CONTINUOUS
370
-3
390
F
  0
LAYER
  5
245
100
AcDbSymbolTableRecord
100
AcDbLayerTableRecord
  2
0603_R_REF_55000_24
 70
0
 62
7
  6
CONTINUOUS
370
-3
390
F
  0
LAYER
  5
246
100
AcDbSymbolTableRecord
100
AcDbLayerTableRecord
  2
0603_R_REF_55000_25
 70
0
 62
7
  6
CONTINUOUS
370
-3
390
F
  0
LAYER
  5
247
100
AcDbSymbolTableRecord
100
AcDbLayerTableRecord
  2
0603_R_REF_55000_26
 70
0
 62
7
  6
CONTINUOUS
370
-3
390
F
  0
LAYER
  5
248
100
AcDbSymbolTableRecord
100
AcDbLayerTableRecord
  2
0603_R_REF_55000_27
 70
0
 62
7
  6
CONTINUOUS
370
-3
390
F
  0
LAYER
  5
249
100
AcDbSymbolTableRecord
100
AcDbLayerTableRecord
  2
0603_R_REF_55000_28
 70
0
 62
7
  6
CONTINUOUS
370
-3
390
F
  0
LAYER
  5
24A
100
AcDbSymbolTableRecord
100
AcDbLayerTableRecord
  2
0603_R_REF_55000_29
 70
0
 62
7
  6
CONTINUOUS
370
-3
390
F
  0
LAYER
  5
24B
100
AcDbSymbolTableRecord
100
AcDbLayerTableRecord
  2
0603_R_REF_55000_3
 70
0
 62
7
  6
CONTINUOUS
370
-3
390
F
  0
LAYER
  5
24C
100
AcDbSymbolTableRecord
100
AcDbLayerTableRecord
  2
0603_R_REF_55000_30
 70
0
 62
7
  6
CONTINUOUS
370
-3
390
F
  0
LAYER
  5
24D
100
AcDbSymbolTableRecord
100
AcDbLayerTableRecord
  2
0603_R_REF_55000_31
 70
0
 62
7
  6
CONTINUOUS
370
-3
390
F
  0
LAYER
  5
24E
100
AcDbSymbolTableRecord
100
AcDbLayerTableRecord
  2
0603_R_REF_55000_32
 70
0
 62
7
  6
CONTINUOUS
370
-3
390
F
  0
LAYER
  5
24F
100
AcDbSymbolTableRecord
100
AcDbLayerTableRecord
  2
0603_R_REF_55000_33
 70
0
 62
7
  6
CONTINUOUS
370
-3
390
F
  0
LAYER
  5
250
100
AcDbSymbolTableRecord
100
AcDbLayerTableRecord
  2
0603_R_REF_55000_34
 70
0
 62
7
  6
CONTINUOUS
370
-3
390
F
  0
LAYER
  5
251
100
AcDbSymbolTableRecord
100
AcDbLayerTableRecord
  2
0603_R_REF_55000_35
 70
0
 62
7
  6
CONTINUOUS
370
-3
390
F
  0
LAYER
  5
252
100
AcDbSymbolTableRecord
100
AcDbLayerTableRecord
  2
0603_R_REF_55000_36
 70
0
 62
7
  6
CONTINUOUS
370
-3
390
F
  0
LAYER
  5
253
100
AcDbSymbolTableRecord
100
AcDbLayerTableRecord
  2
0603_R_REF_55000_37
 70
0
 62
7
  6
CONTINUOUS
370
-3
390
F
  0
LAYER
  5
254
100
AcDbSymbolTableRecord
100
AcDbLayerTableRecord
  2
0603_R_REF_55000_38
 70
0
 62
7
  6
CONTINUOUS
370
-3
390
F
  0
LAYER
  5
255
100
AcDbSymbolTableRecord
100
AcDbLayerTableRecord
  2
0603_R_REF_55000_39
 70
0
 62
7
  6
CONTINUOUS
370
-3
390
F
  0
LAYER
  5
256
100
AcDbSymbolTableRecord
100
AcDbLayerTableRecord
  2
0603_R_REF_55000_4
 70
0
 62
7
  6
CONTINUOUS
370
-3
390
F
  0
LAYER
  5
257
100
AcDbSymbolTableRecord
100
AcDbLayerTableRecord
  2
0603_R_REF_55000_40
 70
0
 62
7
  6
CONTINUOUS
370
-3
390
F
  0
LAYER
  5
258
100
AcDbSymbolTableRecord
100
AcDbLayerTableRecord
  2
0603_R_REF_55000_41
 70
0
 62
7
  6
CONTINUOUS
370
-3
390
F
  0
LAYER
  5
259
100
AcDbSymbolTableRecord
100
AcDbLayerTableRecord
  2
0603_R_REF_55000_42
 70
0
 62
7
  6
CONTINUOUS
370
-3
390
F
  0
LAYER
  5
25A
100
AcDbSymbolTableRecord
100
AcDbLayerTableRecord
  2
0603_R_REF_55000_43
 70
0
 62
7
  6
CONTINUOUS
370
-3
390
F
  0
LAYER
  5
25B
100
AcDbSymbolTableRecord
100
AcDbLayerTableRecord
  2
0603_R_REF_55000_44
 70
0
 62
7
  6
CONTINUOUS
370
-3
390
F
  0
LAYER
  5
25C
100
AcDbSymbolTableRecord
100
AcDbLayerTableRecord
  2
0603_R_REF_55000_45
 70
0
 62
7
  6
CONTINUOUS
370
-3
390
F
  0
LAYER
  5
25D
100
AcDbSymbolTableRecord
100
AcDbLayerTableRecord
  2
0603_R_REF_55000_46
 70
0
 62
7
  6
CONTINUOUS
370
-3
390
F
  0
LAYER
  5
25E
100
AcDbSymbolTableRecord
100
AcDbLayerTableRecord
  2
0603_R_REF_55000_47
 70
0
 62
7
  6
CONTINUOUS
370
-3
390
F
  0
LAYER
  5
25F
100
AcDbSymbolTableRecord
100
AcDbLayerTableRecord
  2
0603_R_REF_55000_48
 70
0
 62
7
  6
CONTINUOUS
370
-3
390
F
  0
LAYER
  5
260
100
AcDbSymbolTableRecord
100
AcDbLayerTableRecord
  2
0603_R_REF_55000_49
 70
0
 62
7
  6
CONTINUOUS
370
-3
390
F
  0
LAYER
  5
261
100
AcDbSymbolTableRecord
100
AcDbLayerTableRecord
  2
0603_R_REF_55000_5
 70
0
 62
7
  6
CONTINUOUS
370
-3
390
F
  0
LAYER
  5
262
100
AcDbSymbolTableRecord
100
AcDbLayerTableRecord
  2
0603_R_REF_55000_50
 70
0
 62
7
  6
CONTINUOUS
370
-3
390
F
  0
LAYER
  5
263
100
AcDbSymbolTableRecord
100
AcDbLayerTableRecord
  2
0603_R_REF_55000_51
 70
0
 62
7
  6
CONTINUOUS
370
-3
390
F
  0
LAYER
  5
264
100
AcDbSymbolTableRecord
100
AcDbLayerTableRecord
  2
0603_R_REF_55000_52
 70
0
 62
7
  6
CONTINUOUS
370
-3
390
F
  0
LAYER
  5
265
100
AcDbSymbolTableRecord
100
AcDbLayerTableRecord
  2
0603_R_REF_55000_53
 70
0
 62
7
  6
CONTINUOUS
370
-3
390
F
  0
LAYER
  5
266
100
AcDbSymbolTableRecord
100
AcDbLayerTableRecord
  2
0603_R_REF_55000_54
 70
0
 62
7
  6
CONTINUOUS
370
-3
390
F
  0
LAYER
  5
267
100
AcDbSymbolTableRecord
100
AcDbLayerTableRecord
  2
0603_R_REF_55000_55
 70
0
 62
7
  6
CONTINUOUS
370
-3
390
F
  0
LAYER
  5
268
100
AcDbSymbolTableRecord
100
AcDbLayerTableRecord
  2
0603_R_REF_55000_56
 70
0
 62
7
  6
CONTINUOUS
370
-3
390
F
  0
LAYER
  5
269
100
AcDbSymbolTableRecord
100
AcDbLayerTableRecord
  2
0603_R_REF_55000_57
 70
0
 62
7
  6
CONTINUOUS
370
-3
390
F
  0
LAYER
  5
26A
100
AcDbSymbolTableRecord
100
AcDbLayerTableRecord
  2
0603_R_REF_55000_58
 70
0
 62
7
  6
CONTINUOUS
370
-3
390
F
  0
LAYER
  5
26B
100
AcDbSymbolTableRecord
100
AcDbLayerTableRecord
  2
0603_R_REF_55000_59
 70
0
 62
7
  6
CONTINUOUS
370
-3
390
F
  0
LAYER
  5
26C
100
AcDbSymbolTableRecord
100
AcDbLayerTableRecord
  2
0603_R_REF_55000_6
 70
0
 62
7
  6
CONTINUOUS
370
-3
390
F
  0
LAYER
  5
26D
100
AcDbSymbolTableRecord
100
AcDbLayerTableRecord
  2
0603_R_REF_55000_7
 70
0
 62
7
  6
CONTINUOUS
370
-3
390
F
  0
LAYER
  5
26E
100
AcDbSymbolTableRecord
100
AcDbLayerTableRecord
  2
0603_R_REF_55000_8
 70
0
 62
7
  6
CONTINUOUS
370
-3
390
F
  0
LAYER
  5
26F
100
AcDbSymbolTableRecord
100
AcDbLayerTableRecord
  2
0603_R_REF_55000_9
 70
0
 62
7
  6
CONTINUOUS
370
-3
390
F
  0
LAYER
  5
270
100
AcDbSymbolTableRecord
100
AcDbLayerTableRecord
  2
06___PRT_ALL_SURFS
 70
0
 62
7
  6
CONTINUOUS
370
-3
390
F
  0
LAYER
  5
271
100
AcDbSymbolTableRecord
100
AcDbLayerTableRecord
  2
06___PRT_ALL_SURFS_1
 70
0
 62
7
  6
CONTINUOUS
370
-3
390
F
  0
LAYER
  5
272
100
AcDbSymbolTableRecord
100
AcDbLayerTableRecord
  2
06___PRT_ALL_SURFS_10
 70
0
 62
7
  6
CONTINUOUS
370
-3
390
F
  0
LAYER
  5
273
100
AcDbSymbolTableRecord
100
AcDbLayerTableRecord
  2
06___PRT_ALL_SURFS_14
 70
0
 62
7
  6
CONTINUOUS
370
-3
390
F
  0
LAYER
  5
274
100
AcDbSymbolTableRecord
100
AcDbLayerTableRecord
  2
06___PRT_ALL_SURFS_15
 70
0
 62
7
  6
CONTINUOUS
370
-3
390
F
  0
LAYER
  5
275
100
AcDbSymbolTableRecord
100
AcDbLayerTableRecord
  2
06___PRT_ALL_SURFS_16
 70
0
 62
7
  6
CONTINUOUS
370
-3
390
F
  0
LAYER
  5
276
100
AcDbSymbolTableRecord
100
AcDbLayerTableRecord
  2
06___PRT_ALL_SURFS_18
 70
0
 62
7
  6
CONTINUOUS
370
-3
390
F
  0
LAYER
  5
277
100
AcDbSymbolTableRecord
100
AcDbLayerTableRecord
  2
06___PRT_ALL_SURFS_2
 70
0
 62
7
  6
CONTINUOUS
370
-3
390
F
  0
LAYER
  5
278
100
AcDbSymbolTableRecord
100
AcDbLayerTableRecord
  2
06___PRT_ALL_SURFS_21
 70
0
 62
7
  6
CONTINUOUS
370
-3
390
F
  0
LAYER
  5
279
100
AcDbSymbolTableRecord
100
AcDbLayerTableRecord
  2
06___PRT_ALL_SURFS_27
 70
0
 62
7
  6
CONTINUOUS
370
-3
390
F
  0
LAYER
  5
27A
100
AcDbSymbolTableRecord
100
AcDbLayerTableRecord
  2
06___PRT_ALL_SURFS_3
 70
0
 62
7
  6
CONTINUOUS
370
-3
390
F
  0
LAYER
  5
27B
100
AcDbSymbolTableRecord
100
AcDbLayerTableRecord
  2
06___PRT_ALL_SURFS_30
 70
0
 62
7
  6
CONTINUOUS
370
-3
390
F
  0
LAYER
  5
27C
100
AcDbSymbolTableRecord
100
AcDbLayerTableRecord
  2
06___PRT_ALL_SURFS_32
 70
0
 62
7
  6
CONTINUOUS
370
-3
390
F
  0
LAYER
  5
27D
100
AcDbSymbolTableRecord
100
AcDbLayerTableRecord
  2
06___PRT_ALL_SURFS_38
 70
0
 62
7
  6
CONTINUOUS
370
-3
390
F
  0
LAYER
  5
27E
100
AcDbSymbolTableRecord
100
AcDbLayerTableRecord
  2
06___PRT_ALL_SURFS_4
 70
0
 62
7
  6
CONTINUOUS
370
-3
390
F
  0
LAYER
  5
27F
100
AcDbSymbolTableRecord
100
AcDbLayerTableRecord
  2
06___PRT_ALL_SURFS_41
 70
0
 62
7
  6
CONTINUOUS
370
-3
390
F
  0
LAYER
  5
280
100
AcDbSymbolTableRecord
100
AcDbLayerTableRecord
  2
06___PRT_ALL_SURFS_6
 70
0
 62
7
  6
CONTINUOUS
370
-3
390
F
  0
LAYER
  5
281
100
AcDbSymbolTableRecord
100
AcDbLayerTableRecord
  2
06___PRT_ALL_SURFS_8
 70
0
 62
7
  6
CONTINUOUS
370
-3
390
F
  0
LAYER
  5
282
100
AcDbSymbolTableRecord
100
AcDbLayerTableRecord
  2
0805_C_REF_145000
 70
0
 62
7
  6
CONTINUOUS
370
-3
390
F
  0
LAYER
  5
283
100
AcDbSymbolTableRecord
100
AcDbLayerTableRecord
  2
0805_C_REF_145000_1
 70
0
 62
7
  6
CONTINUOUS
370
-3
390
F
  0
LAYER
  5
284
100
AcDbSymbolTableRecord
100
AcDbLayerTableRecord
  2
0805_C_REF_145000_10
 70
0
 62
7
  6
CONTINUOUS
370
-3
390
F
  0
LAYER
  5
285
100
AcDbSymbolTableRecord
100
AcDbLayerTableRecord
  2
0805_C_REF_145000_2
 70
0
 62
7
  6
CONTINUOUS
370
-3
390
F
  0
LAYER
  5
286
100
AcDbSymbolTableRecord
100
AcDbLayerTableRecord
  2
0805_C_REF_145000_3
 70
0
 62
7
  6
CONTINUOUS
370
-3
390
F
  0
LAYER
  5
287
100
AcDbSymbolTableRecord
100
AcDbLayerTableRecord
  2
0805_C_REF_145000_4
 70
0
 62
7
  6
CONTINUOUS
370
-3
390
F
  0
LAYER
  5
288
100
AcDbSymbolTableRecord
100
AcDbLayerTableRecord
  2
0805_C_REF_145000_5
 70
0
 62
7
  6
CONTINUOUS
370
-3
390
F
  0
LAYER
  5
289
100
AcDbSymbolTableRecord
100
AcDbLayerTableRecord
  2
0805_C_REF_145000_6
 70
0
 62
7
  6
CONTINUOUS
370
-3
390
F
  0
LAYER
  5
28A
100
AcDbSymbolTableRecord
100
AcDbLayerTableRecord
  2
0805_C_REF_145000_7
 70
0
 62
7
  6
CONTINUOUS
370
-3
390
F
  0
LAYER
  5
28B
100
AcDbSymbolTableRecord
100
AcDbLayerTableRecord
  2
0805_C_REF_145000_8
 70
0
 62
7
  6
CONTINUOUS
370
-3
390
F
  0
LAYER
  5
28C
100
AcDbSymbolTableRecord
100
AcDbLayerTableRecord
  2
0805_C_REF_145000_9
 70
0
 62
7
  6
CONTINUOUS
370
-3
390
F
  0
LAYER
  5
28D
100
AcDbSymbolTableRecord
100
AcDbLayerTableRecord
  2
0805_LED_REF_60000
 70
0
 62
7
  6
CONTINUOUS
370
-3
390
F
  0
LAYER
  5
28E
100
AcDbSymbolTableRecord
100
AcDbLayerTableRecord
  2
0805_R_REF_60000
 70
0
 62
7
  6
CONTINUOUS
370
-3
390
F
  0
LAYER
  5
28F
100
AcDbSymbolTableRecord
100
AcDbLayerTableRecord
  2
1206_C_REF_180000
 70
0
 62
7
  6
CONTINUOUS
370
-3
390
F
  0
LAYER
  5
290
100
AcDbSymbolTableRecord
100
AcDbLayerTableRecord
  2
1206_C_REF_180000_1
 70
0
 62
7
  6
CONTINUOUS
370
-3
390
F
  0
LAYER
  5
291
100
AcDbSymbolTableRecord
100
AcDbLayerTableRecord
  2
1206_C_REF_180000_2
 70
0
 62
7
  6
CONTINUOUS
370
-3
390
F
  0
LAYER
  5
292
100
AcDbSymbolTableRecord
100
AcDbLayerTableRecord
  2
1206_C_REF_180000_3
 70
0
 62
7
  6
CONTINUOUS
370
-3
390
F
  0
LAYER
  5
293
100
AcDbSymbolTableRecord
100
AcDbLayerTableRecord
  2
1210_C_REF_250000
 70
0
 62
7
  6
CONTINUOUS
370
-3
390
F
  0
LAYER
  5
294
100
AcDbSymbolTableRecord
100
AcDbLayerTableRecord
  2
2220_C_REF_280000
 70
0
 62
7
  6
CONTINUOUS
370
-3
390
F
  0
LAYER
  5
295
100
AcDbSymbolTableRecord
100
AcDbLayerTableRecord
  2
43000726A0
 70
0
 62
7
  6
CONTINUOUS
370
-3
390
F
  0
LAYER
  5
296
100
AcDbSymbolTableRecord
100
AcDbLayerTableRecord
  2
ASM0003
 70
0
 62
7
  6
CONTINUOUS
370
-3
390
F
  0
LAYER
  5
297
100
AcDbSymbolTableRecord
100
AcDbLayerTableRecord
  2
ASSI
 70
0
 62
7
  6
CONTINUOUS
370
-3
390
F
  0
LAYER
  5
298
100
AcDbSymbolTableRecord
100
AcDbLayerTableRecord
  2
CAP-E-SMD-6_6-6_3-5_4_570000
 70
0
 62
7
  6
CONTINUOUS
370
-3
390
F
  0
LAYER
  5
299
100
AcDbSymbolTableRecord
100
AcDbLayerTableRecord
  2
CAP-E-SMD-8_3-8_0-10_0_1050000
 70
0
 62
7
  6
CONTINUOUS
370
-3
390
F
  0
LAYER
  5
29A
100
AcDbSymbolTableRecord
100
AcDbLayerTableRecord
  2
CN8F_P2_SMD_GREENCONN_CSFC210-0
 70
0
 62
7
  6
CONTINUOUS
370
-3
390
F
  0
LAYER
  5
29B
100
AcDbSymbolTableRecord
100
AcDbLayerTableRecord
  2
CN_MINI_USB_B_MUSB5S-BMHF_66500
 70
0
 62
7
  6
CONTINUOUS
370
-3
390
F
  0
LAYER
  5
29C
100
AcDbSymbolTableRecord
100
AcDbLayerTableRecord
  2
CN_TE_5406721_RJ45_8P_SMD_12500
 70
0
 62
7
  6
CONTINUOUS
370
-3
390
F
  0
LAYER
  5
29D
100
AcDbSymbolTableRecord
100
AcDbLayerTableRecord
  2
COLOR1
 70
0
 62
7
  6
CONTINUOUS
370
-3
390
F
  0
LAYER
  5
29E
100
AcDbSymbolTableRecord
100
AcDbLayerTableRecord
  2
COLOR126
 70
0
 62
7
  6
CONTINUOUS
370
-3
390
F
  0
LAYER
  5
29F
100
AcDbSymbolTableRecord
100
AcDbLayerTableRecord
  2
COLOR127
 70
0
 62
7
  6
CONTINUOUS
370
-3
390
F
  0
LAYER
  5
2A0
100
AcDbSymbolTableRecord
100
AcDbLayerTableRecord
  2
COLOR128
 70
0
 62
7
  6
CONTINUOUS
370
-3
390
F
  0
LAYER
  5
2A1
100
AcDbSymbolTableRecord
100
AcDbLayerTableRecord
  2
COLOR129
 70
0
 62
7
  6
CONTINUOUS
370
-3
390
F
  0
LAYER
  5
2A2
100
AcDbSymbolTableRecord
100
AcDbLayerTableRecord
  2
COLOR14
 70
0
 62
7
  6
CONTINUOUS
370
-3
390
F
  0
LAYER
  5
2A3
100
AcDbSymbolTableRecord
100
AcDbLayerTableRecord
  2
COLOR15
 70
0
 62
7
  6
CONTINUOUS
370
-3
390
F
  0
LAYER
  5
2A4
100
AcDbSymbolTableRecord
100
AcDbLayerTableRecord
  2
COLOR16
 70
0
 62
7
  6
CONTINUOUS
370
-3
390
F
  0
LAYER
  5
2A5
100
AcDbSymbolTableRecord
100
AcDbLayerTableRecord
  2
COLOR17
 70
0
 62
7
  6
CONTINUOUS
370
-3
390
F
  0
LAYER
  5
2A6
100
AcDbSymbolTableRecord
100
AcDbLayerTableRecord
  2
COLOR18
 70
0
 62
7
  6
CONTINUOUS
370
-3
390
F
  0
LAYER
  5
2A7
100
AcDbSymbolTableRecord
100
AcDbLayerTableRecord
  2
COORDINATE
 70
0
 62
7
  6
CONTINUOUS
370
-3
390
F
  0
LAYER
  5
2A8
100
AcDbSymbolTableRecord
100
AcDbLayerTableRecord
  2
COPY_PUBLISH
 70
0
 62
7
  6
CONTINUOUS
370
-3
390
F
  0
LAYER
  5
2A9
100
AcDbSymbolTableRecord
100
AcDbLayerTableRecord
  2
COSMETIC
 70
0
 62
7
  6
CONTINUOUS
370
-3
390
F
  0
LAYER
  5
2AA
100
AcDbSymbolTableRecord
100
AcDbLayerTableRecord
  2
COSMETICI
 70
0
 62
7
  6
CONTINUOUS
370
-3
390
F
  0
LAYER
  5
2AB
100
AcDbSymbolTableRecord
100
AcDbLayerTableRecord
  2
CR_DO214AC_NP__230000
 70
0
 62
7
  6
CONTINUOUS
370
-3
390
F
  0
LAYER
  5
2AC
100
AcDbSymbolTableRecord
100
AcDbLayerTableRecord
  2
CR_DO214AC_NP__230000_1
 70
0
 62
7
  6
CONTINUOUS
370
-3
390
F
  0
LAYER
  5
2AD
100
AcDbSymbolTableRecord
100
AcDbLayerTableRecord
  2
CR_DO214AC_NP__230000_2
 70
0
 62
7
  6
CONTINUOUS
370
-3
390
F
  0
LAYER
  5
2AE
100
AcDbSymbolTableRecord
100
AcDbLayerTableRecord
  2
CR_RR4_8P_3_2X1_6__60000
 70
0
 62
7
  6
CONTINUOUS
370
-3
390
F
  0
LAYER
  5
2AF
100
AcDbSymbolTableRecord
100
AcDbLayerTableRecord
  2
CR_RR4_8P_3_2X1_6__60000_1
 70
0
 62
7
  6
CONTINUOUS
370
-3
390
F
  0
LAYER
  5
2B0
100
AcDbSymbolTableRecord
100
AcDbLayerTableRecord
  2
CR_SWITCH_TH635S43__460000
 70
0
 62
7
  6
CONTINUOUS
370
-3
390
F
  0
LAYER
  5
2B1
100
AcDbSymbolTableRecord
100
AcDbLayerTableRecord
  2
CR_TP1_D1_ROUND_TOP__3500
 70
0
 62
7
  6
CONTINUOUS
370
-3
390
F
  0
LAYER
  5
2B2
100
AcDbSymbolTableRecord
100
AcDbLayerTableRecord
  2
CR_TP1_D1_ROUND_TOP__3500_1
 70
0
 62
7
  6
CONTINUOUS
370
-3
390
F
  0
LAYER
  5
2B3
100
AcDbSymbolTableRecord
100
AcDbLayerTableRecord
  2
CR_TP1_D2_TOP__3500
 70
0
 62
7
  6
CONTINUOUS
370
-3
390
F
  0
LAYER
  5
2B4
100
AcDbSymbolTableRecord
100
AcDbLayerTableRecord
  2
CR_TP1_D2_TOP__3500_1
 70
0
 62
7
  6
CONTINUOUS
370
-3
390
F
  0
LAYER
  5
2B5
100
AcDbSymbolTableRecord
100
AcDbLayerTableRecord
  2
CR_TP1_D2_TOP__3500_2
 70
0
 62
7
  6
CONTINUOUS
370
-3
390
F
  0
LAYER
  5
2B6
100
AcDbSymbolTableRecord
100
AcDbLayerTableRecord
  2
CR_TP1_D2_TOP__3500_3
 70
0
 62
7
  6
CONTINUOUS
370
-3
390
F
  0
LAYER
  5
2B7
100
AcDbSymbolTableRecord
100
AcDbLayerTableRecord
  2
CURVE
 70
0
 62
7
  6
CONTINUOUS
370
-3
390
F
  0
LAYER
  5
2B8
100
AcDbSymbolTableRecord
100
AcDbLayerTableRecord
  2
DO214AA_265000
 70
0
 62
7
  6
CONTINUOUS
370
-3
390
F
  0
LAYER
  5
2B9
100
AcDbSymbolTableRecord
100
AcDbLayerTableRecord
  2
DO214AA_265000_1
 70
0
 62
7
  6
CONTINUOUS
370
-3
390
F
  0
LAYER
  5
2BA
100
AcDbSymbolTableRecord
100
AcDbLayerTableRecord
  2
DPAK_STD_240000
 70
0
 62
7
  6
CONTINUOUS
370
-3
390
F
  0
LAYER
  5
2BB
100
AcDbSymbolTableRecord
100
AcDbLayerTableRecord
  2
DRAFT
 70
0
 62
7
  6
CONTINUOUS
370
-3
390
F
  0
LAYER
  5
2BC
100
AcDbSymbolTableRecord
100
AcDbLayerTableRecord
  2
FIDUCIAL_1MM_0
 70
0
 62
7
  6
CONTINUOUS
370
-3
390
F
  0
LAYER
  5
2BD
100
AcDbSymbolTableRecord
100
AcDbLayerTableRecord
  2
FIDUCIAL_1MM_0_1
 70
0
 62
7
  6
CONTINUOUS
370
-3
390
F
  0
LAYER
  5
2BE
100
AcDbSymbolTableRecord
100
AcDbLayerTableRecord
  2
FIDUCIAL_1MM_0_2
 70
0
 62
7
  6
CONTINUOUS
370
-3
390
F
  0
LAYER
  5
2BF
100
AcDbSymbolTableRecord
100
AcDbLayerTableRecord
  2
FIDUCIAL_1MM_0_3
 70
0
 62
7
  6
CONTINUOUS
370
-3
390
F
  0
LAYER
  5
2C0
100
AcDbSymbolTableRecord
100
AcDbLayerTableRecord
  2
FIDUCIAL_1_2_MM_RUOTATO_45_0
 70
0
 62
7
  6
CONTINUOUS
370
-3
390
F
  0
LAYER
  5
2C1
100
AcDbSymbolTableRecord
100
AcDbLayerTableRecord
  2
FIDUCIAL_1_2_MM_RUOTATO_45_0_1
 70
0
 62
7
  6
CONTINUOUS
370
-3
390
F
  0
LAYER
  5
2C2
100
AcDbSymbolTableRecord
100
AcDbLayerTableRecord
  2
GEOMETRIA_SOLIDA
 70
0
 62
7
  6
CONTINUOUS
370
-3
390
F
  0
LAYER
  5
2C3
100
AcDbSymbolTableRecord
100
AcDbLayerTableRecord
  2
GEOMETRIA_SOLIDA_1
 70
0
 62
7
  6
CONTINUOUS
370
-3
390
F
  0
LAYER
  5
2C4
100
AcDbSymbolTableRecord
100
AcDbLayerTableRecord
  2
GEOMETRIA_SOLIDA_10
 70
0
 62
7
  6
CONTINUOUS
370
-3
390
F
  0
LAYER
  5
2C5
100
AcDbSymbolTableRecord
100
AcDbLayerTableRecord
  2
GEOMETRIA_SOLIDA_11
 70
0
 62
7
  6
CONTINUOUS
370
-3
390
F
  0
LAYER
  5
2C6
100
AcDbSymbolTableRecord
100
AcDbLayerTableRecord
  2
GEOMETRIA_SOLIDA_12
 70
0
 62
7
  6
CONTINUOUS
370
-3
390
F
  0
LAYER
  5
2C7
100
AcDbSymbolTableRecord
100
AcDbLayerTableRecord
  2
GEOMETRIA_SOLIDA_13
 70
0
 62
7
  6
CONTINUOUS
370
-3
390
F
  0
LAYER
  5
2C8
100
AcDbSymbolTableRecord
100
AcDbLayerTableRecord
  2
GEOMETRIA_SOLIDA_14
 70
0
 62
7
  6
CONTINUOUS
370
-3
390
F
  0
LAYER
  5
2C9
100
AcDbSymbolTableRecord
100
AcDbLayerTableRecord
  2
GEOMETRIA_SOLIDA_15
 70
0
 62
7
  6
CONTINUOUS
370
-3
390
F
  0
LAYER
  5
2CA
100
AcDbSymbolTableRecord
100
AcDbLayerTableRecord
  2
GEOMETRIA_SOLIDA_16
 70
0
 62
7
  6
CONTINUOUS
370
-3
390
F
  0
LAYER
  5
2CB
100
AcDbSymbolTableRecord
100
AcDbLayerTableRecord
  2
GEOMETRIA_SOLIDA_17
 70
0
 62
7
  6
CONTINUOUS
370
-3
390
F
  0
LAYER
  5
2CC
100
AcDbSymbolTableRecord
100
AcDbLayerTableRecord
  2
GEOMETRIA_SOLIDA_18
 70
0
 62
7
  6
CONTINUOUS
370
-3
390
F
  0
LAYER
  5
2CD
100
AcDbSymbolTableRecord
100
AcDbLayerTableRecord
  2
GEOMETRIA_SOLIDA_19
 70
0
 62
7
  6
CONTINUOUS
370
-3
390
F
  0
LAYER
  5
2CE
100
AcDbSymbolTableRecord
100
AcDbLayerTableRecord
  2
GEOMETRIA_SOLIDA_2
 70
0
 62
7
  6
CONTINUOUS
370
-3
390
F
  0
LAYER
  5
2CF
100
AcDbSymbolTableRecord
100
AcDbLayerTableRecord
  2
GEOMETRIA_SOLIDA_20
 70
0
 62
7
  6
CONTINUOUS
370
-3
390
F
  0
LAYER
  5
2D0
100
AcDbSymbolTableRecord
100
AcDbLayerTableRecord
  2
GEOMETRIA_SOLIDA_3
 70
0
 62
7
  6
CONTINUOUS
370
-3
390
F
  0
LAYER
  5
2D1
100
AcDbSymbolTableRecord
100
AcDbLayerTableRecord
  2
GEOMETRIA_SOLIDA_4
 70
0
 62
7
  6
CONTINUOUS
370
-3
390
F
  0
LAYER
  5
2D2
100
AcDbSymbolTableRecord
100
AcDbLayerTableRecord
  2
GEOMETRIA_SOLIDA_5
 70
0
 62
7
  6
CONTINUOUS
370
-3
390
F
  0
LAYER
  5
2D3
100
AcDbSymbolTableRecord
100
AcDbLayerTableRecord
  2
GEOMETRIA_SOLIDA_6
 70
0
 62
7
  6
CONTINUOUS
370
-3
390
F
  0
LAYER
  5
2D4
100
AcDbSymbolTableRecord
100
AcDbLayerTableRecord
  2
GEOMETRIA_SOLIDA_7
 70
0
 62
7
  6
CONTINUOUS
370
-3
390
F
  0
LAYER
  5
2D5
100
AcDbSymbolTableRecord
100
AcDbLayerTableRecord
  2
GEOMETRIA_SOLIDA_8
 70
0
 62
7
  6
CONTINUOUS
370
-3
390
F
  0
LAYER
  5
2D6
100
AcDbSymbolTableRecord
100
AcDbLayerTableRecord
  2
GEOMETRIA_SOLIDA_9
 70
0
 62
7
  6
CONTINUOUS
370
-3
390
F
  0
LAYER
  5
2D7
100
AcDbSymbolTableRecord
100
AcDbLayerTableRecord
  2
HALO_TG110-RPE5N5RL_635000
 70
0
 62
7
  6
CONTINUOUS
370
-3
390
F
  0
LAYER
  5
2D8
100
AcDbSymbolTableRecord
100
AcDbLayerTableRecord
  2
IGES_HOLGER
 70
0
 62
7
  6
CONTINUOUS
370
-3
390
F
  0
LAYER
  5
2D9
100
AcDbSymbolTableRecord
100
AcDbLayerTableRecord
  2
IMPORT_IGES
 70
0
 62
7
  6
CONTINUOUS
370
-3
390
F
  0
LAYER
  5
2DA
100
AcDbSymbolTableRecord
100
AcDbLayerTableRecord
  2
INTFCLR_1
 70
0
 62
7
  6
CONTINUOUS
370
-3
390
F
  0
LAYER
  5
2DB
100
AcDbSymbolTableRecord
100
AcDbLayerTableRecord
  2
INTFCLR_2
 70
0
 62
7
  6
CONTINUOUS
370
-3
390
F
  0
LAYER
  5
2DC
100
AcDbSymbolTableRecord
100
AcDbLayerTableRecord
  2
INTFCLR_3
 70
0
 62
7
  6
CONTINUOUS
370
-3
390
F
  0
LAYER
  5
2DD
100
AcDbSymbolTableRecord
100
AcDbLayerTableRecord
  2
INTFCLR_4
 70
0
 62
7
  6
CONTINUOUS
370
-3
390
F
  0
LAYER
  5
2DE
100
AcDbSymbolTableRecord
100
AcDbLayerTableRecord
  2
INTFCLR_5
 70
0
 62
7
  6
CONTINUOUS
370
-3
390
F
  0
LAYER
  5
2DF
100
AcDbSymbolTableRecord
100
AcDbLayerTableRecord
  2
INTFCLR_6
 70
0
 62
7
  6
CONTINUOUS
370
-3
390
F
  0
LAYER
  5
2E0
100
AcDbSymbolTableRecord
100
AcDbLayerTableRecord
  2
INTFCLR_7
 70
0
 62
7
  6
CONTINUOUS
370
-3
390
F
  0
LAYER
  5
2E1
100
AcDbSymbolTableRecord
100
AcDbLayerTableRecord
  2
INTF_1
 70
0
 62
7
  6
CONTINUOUS
370
-3
390
F
  0
LAYER
  5
2E2
100
AcDbSymbolTableRecord
100
AcDbLayerTableRecord
  2
INTF_6
 70
0
 62
7
  6
CONTINUOUS
370
-3
390
F
  0
LAYER
  5
2E3
100
AcDbSymbolTableRecord
100
AcDbLayerTableRecord
  2
INTF_8
 70
0
 62
7
  6
CONTINUOUS
370
-3
390
F
  0
LAYER
  5
2E4
100
AcDbSymbolTableRecord
100
AcDbLayerTableRecord
  2
INTF_GREEN
 70
0
 62
7
  6
CONTINUOUS
370
-3
390
F
  0
LAYER
  5
2E5
100
AcDbSymbolTableRecord
100
AcDbLayerTableRecord
  2
INTF_YELLOW
 70
0
 62
7
  6
CONTINUOUS
370
-3
390
F
  0
LAYER
  5
2E6
100
AcDbSymbolTableRecord
100
AcDbLayerTableRecord
  2
K_THT_PANASONIC_ADW1_1COIL_1900
 70
0
 62
7
  6
CONTINUOUS
370
-3
390
F
  0
LAYER
  5
2E7
100
AcDbSymbolTableRecord
100
AcDbLayerTableRecord
  2
K_THT_PANASONIC_ADW1_1COIL_19_1
 70
0
 62
7
  6
CONTINUOUS
370
-3
390
F
  0
LAYER
  5
2E8
100
AcDbSymbolTableRecord
100
AcDbLayerTableRecord
  2
LITTELFUSE_449_SERIES_269000
 70
0
 62
7
  6
CONTINUOUS
370
-3
390
F
  0
LAYER
  5
2E9
100
AcDbSymbolTableRecord
100
AcDbLayerTableRecord
  2
LITTELFUSE_449_SERIES_269000_1
 70
0
 62
7
  6
CONTINUOUS
370
-3
390
F
  0
LAYER
  5
2EA
100
AcDbSymbolTableRecord
100
AcDbLayerTableRecord
  2
LITTELFUSE_449_SERIES_269000_2
 70
0
 62
7
  6
CONTINUOUS
370
-3
390
F
  0
LAYER
  5
2EB
100
AcDbSymbolTableRecord
100
AcDbLayerTableRecord
  2
LIVELLO_1
 70
0
 62
7
  6
CONTINUOUS
370
-3
390
F
  0
LAYER
  5
2EC
100
AcDbSymbolTableRecord
100
AcDbLayerTableRecord
  2
LQFP64-10_0-10_0-12_0-12_0-1_65
 70
0
 62
7
  6
CONTINUOUS
370
-3
390
F
  0
LAYER
  5
2ED
100
AcDbSymbolTableRecord
100
AcDbLayerTableRecord
  2
MR2P5_SAURO_MSM02001_STH_152000
 70
0
 62
7
  6
CONTINUOUS
370
-3
390
F
  0
LAYER
  5
2EE
100
AcDbSymbolTableRecord
100
AcDbLayerTableRecord
  2
MR2P5_SAURO_MSM02001_STH_1520_1
 70
0
 62
7
  6
CONTINUOUS
370
-3
390
F
  0
LAYER
  5
2EF
100
AcDbSymbolTableRecord
100
AcDbLayerTableRecord
  2
MR2P5_SAURO_MSM02001_STH_1520_2
 70
0
 62
7
  6
CONTINUOUS
370
-3
390
F
  0
LAYER
  5
2F0
100
AcDbSymbolTableRecord
100
AcDbLayerTableRecord
  2
MR2P5_SAURO_MSQH02001_STH_19200
 70
0
 62
7
  6
CONTINUOUS
370
-3
390
F
  0
LAYER
  5
2F1
100
AcDbSymbolTableRecord
100
AcDbLayerTableRecord
  2
MR2P5_SAURO_MSQH02001_STH_192_1
 70
0
 62
7
  6
CONTINUOUS
370
-3
390
F
  0
LAYER
  5
2F2
100
AcDbSymbolTableRecord
100
AcDbLayerTableRecord
  2
MR2P5_SAURO_MSQH02001_STH_192_2
 70
0
 62
7
  6
CONTINUOUS
370
-3
390
F
  0
LAYER
  5
2F3
100
AcDbSymbolTableRecord
100
AcDbLayerTableRecord
  2
MR2P5_SAURO_MSQH02001_STH_CLEA_
 70
0
 62
7
  6
CONTINUOUS
370
-3
390
F
  0
LAYER
  5
2F4
100
AcDbSymbolTableRecord
100
AcDbLayerTableRecord
  2
MR2P5_SAURO_MSQH02001_STH_CLE_1
 70
0
 62
7
  6
CONTINUOUS
370
-3
390
F
  0
LAYER
  5
2F5
100
AcDbSymbolTableRecord
100
AcDbLayerTableRecord
  2
MR4P5_SAURO_MSMH04001_STH_15200
 70
0
 62
7
  6
CONTINUOUS
370
-3
390
F
  0
LAYER
  5
2F6
100
AcDbSymbolTableRecord
100
AcDbLayerTableRecord
  2
MR4P5_SAURO_MSQH04001_STH_19200
 70
0
 62
7
  6
CONTINUOUS
370
-3
390
F
  0
LAYER
  5
2F7
100
AcDbSymbolTableRecord
100
AcDbLayerTableRecord
  2
MSOP8-3_0-4_9-1_1-REF_110000
 70
0
 62
7
  6
CONTINUOUS
370
-3
390
F
  0
LAYER
  5
2F8
100
AcDbSymbolTableRecord
100
AcDbLayerTableRecord
  2
MSOP8-3_0-4_9-1_1-REF_110000_1
 70
0
 62
7
  6
CONTINUOUS
370
-3
390
F
  0
LAYER
  5
2F9
100
AcDbSymbolTableRecord
100
AcDbLayerTableRecord
  2
NOTE
 70
0
 62
7
  6
CONTINUOUS
370
-3
390
F
  0
LAYER
  5
2FA
100
AcDbSymbolTableRecord
100
AcDbLayerTableRecord
  2
PIANI
 70
0
 62
7
  6
CONTINUOUS
370
-3
390
F
  0
LAYER
  5
2FB
100
AcDbSymbolTableRecord
100
AcDbLayerTableRecord
  2
PS2501L-1_500000
 70
0
 62
7
  6
CONTINUOUS
370
-3
390
F
  0
LAYER
  5
2FC
100
AcDbSymbolTableRecord
100
AcDbLayerTableRecord
  2
PS2501L-1_500000_1
 70
0
 62
7
  6
CONTINUOUS
370
-3
390
F
  0
LAYER
  5
2FD
100
AcDbSymbolTableRecord
100
AcDbLayerTableRecord
  2
PUNTI
 70
0
 62
7
  6
CONTINUOUS
370
-3
390
F
  0
LAYER
  5
2FE
100
AcDbSymbolTableRecord
100
AcDbLayerTableRecord
  2
QFN20-5_0-5_0-5_0-5_0-0_9-0_8-0
 70
0
 62
7
  6
CONTINUOUS
370
-3
390
F
  0
LAYER
  5
2FF
100
AcDbSymbolTableRecord
100
AcDbLayerTableRecord
  2
QFN24-4_0-4_0-4_0-4_0_0_9-0_5-0
 70
0
 62
7
  6
CONTINUOUS
370
-3
390
F
  0
LAYER
  5
300
100
AcDbSymbolTableRecord
100
AcDbLayerTableRecord
  2
Q_JAUCH_JXS32_SERIES_70000
 70
0
 62
7
  6
CONTINUOUS
370
-3
390
F
  0
LAYER
  5
301
100
AcDbSymbolTableRecord
100
AcDbLayerTableRecord
  2
RACCORDO
 70
0
 62
7
  6
CONTINUOUS
370
-3
390
F
  0
LAYER
  5
302
100
AcDbSymbolTableRecord
100
AcDbLayerTableRecord
  2
RGB____0____0____0__
 70
0
 62
7
  6
CONTINUOUS
370
-3
390
F
  0
LAYER
  5
303
100
AcDbSymbolTableRecord
100
AcDbLayerTableRecord
  2
SC70-6_REF_H1_1_110000
 70
0
 62
7
  6
CONTINUOUS
370
-3
390
F
  0
LAYER
  5
304
100
AcDbSymbolTableRecord
100
AcDbLayerTableRecord
  2
SC70-6_REF_H1_1_110000_1
 70
0
 62
7
  6
CONTINUOUS
370
-3
390
F
  0
LAYER
  5
305
100
AcDbSymbolTableRecord
100
AcDbLayerTableRecord
  2
SC70-6_REF_H1_1_110000_2
 70
0
 62
7
  6
CONTINUOUS
370
-3
390
F
  0
LAYER
  5
306
100
AcDbSymbolTableRecord
100
AcDbLayerTableRecord
  2
SC70-6_REF_H1_1_110000_3
 70
0
 62
7
  6
CONTINUOUS
370
-3
390
F
  0
LAYER
  5
307
100
AcDbSymbolTableRecord
100
AcDbLayerTableRecord
  2
SC70-6_REF_H1_1_110000_4
 70
0
 62
7
  6
CONTINUOUS
370
-3
390
F
  0
LAYER
  5
308
100
AcDbSymbolTableRecord
100
AcDbLayerTableRecord
  2
SIMBOLI
 70
0
 62
7
  6
CONTINUOUS
370
-3
390
F
  0
LAYER
  5
309
100
AcDbSymbolTableRecord
100
AcDbLayerTableRecord
  2
SMUSSO
 70
0
 62
7
  6
CONTINUOUS
370
-3
390
F
  0
LAYER
  5
30A
100
AcDbSymbolTableRecord
100
AcDbLayerTableRecord
  2
SNAPLINE
 70
0
 62
7
  6
CONTINUOUS
370
-3
390
F
  0
LAYER
  5
30B
100
AcDbSymbolTableRecord
100
AcDbLayerTableRecord
  2
SOD80_REF_160000
 70
0
 62
7
  6
CONTINUOUS
370
-3
390
F
  0
LAYER
  5
30C
100
AcDbSymbolTableRecord
100
AcDbLayerTableRecord
  2
SOD80_REF_160000_1
 70
0
 62
7
  6
CONTINUOUS
370
-3
390
F
  0
LAYER
  5
30D
100
AcDbSymbolTableRecord
100
AcDbLayerTableRecord
  2
SOD80_REF_160000_2
 70
0
 62
7
  6
CONTINUOUS
370
-3
390
F
  0
LAYER
  5
30E
100
AcDbSymbolTableRecord
100
AcDbLayerTableRecord
  2
SOT143B_REF_110000
 70
0
 62
7
  6
CONTINUOUS
370
-3
390
F
  0
LAYER
  5
30F
100
AcDbSymbolTableRecord
100
AcDbLayerTableRecord
  2
SOT23_H1_1_REF_110000
 70
0
 62
7
  6
CONTINUOUS
370
-3
390
F
  0
LAYER
  5
310
100
AcDbSymbolTableRecord
100
AcDbLayerTableRecord
  2
SOT23_H1_1_REF_110000_1
 70
0
 62
7
  6
CONTINUOUS
370
-3
390
F
  0
LAYER
  5
311
100
AcDbSymbolTableRecord
100
AcDbLayerTableRecord
  2
SOT23_H1_1_REF_110000_2
 70
0
 62
7
  6
CONTINUOUS
370
-3
390
F
  0
LAYER
  5
312
100
AcDbSymbolTableRecord
100
AcDbLayerTableRecord
  2
SOT23_H1_1_REF_110000_3
 70
0
 62
7
  6
CONTINUOUS
370
-3
390
F
  0
LAYER
  5
313
100
AcDbSymbolTableRecord
100
AcDbLayerTableRecord
  2
SOT23_H1_1_REF_110000_4
 70
0
 62
7
  6
CONTINUOUS
370
-3
390
F
  0
LAYER
  5
314
100
AcDbSymbolTableRecord
100
AcDbLayerTableRecord
  2
SOT23_H1_1_REF_110000_5
 70
0
 62
7
  6
CONTINUOUS
370
-3
390
F
  0
LAYER
  5
315
100
AcDbSymbolTableRecord
100
AcDbLayerTableRecord
  2
SOT666-1_7-1_7-0_6_REF_70000
 70
0
 62
7
  6
CONTINUOUS
370
-3
390
F
  0
LAYER
  5
316
100
AcDbSymbolTableRecord
100
AcDbLayerTableRecord
  2
SOT666-1_7-1_7-0_6_REF_70000_1
 70
0
 62
7
  6
CONTINUOUS
370
-3
390
F
  0
LAYER
  5
317
100
AcDbSymbolTableRecord
100
AcDbLayerTableRecord
  2
SUPERFICI
 70
0
 62
7
  6
CONTINUOUS
370
-3
390
F
  0
LAYER
  5
318
100
AcDbSymbolTableRecord
100
AcDbLayerTableRecord
  2
SUPERFICI_5
 70
0
 62
7
  6
CONTINUOUS
370
-3
390
F
  0
LAYER
  5
319
100
AcDbSymbolTableRecord
100
AcDbLayerTableRecord
  2
SUPERFICI_6
 70
0
 62
7
  6
CONTINUOUS
370
-3
390
F
  0
LAYER
  5
31A
100
AcDbSymbolTableRecord
100
AcDbLayerTableRecord
  2
SUPERFICI_7
 70
0
 62
7
  6
CONTINUOUS
370
-3
390
F
  0
LAYER
  5
31B
100
AcDbSymbolTableRecord
100
AcDbLayerTableRecord
  2
SYMBOL_DATA_10000
 70
0
 62
7
  6
CONTINUOUS
370
-3
390
F
  0
LAYER
  5
31C
100
AcDbSymbolTableRecord
100
AcDbLayerTableRecord
  2
SYMBOL_DATA_10000_1
 70
0
 62
7
  6
CONTINUOUS
370
-3
390
F
  0
LAYER
  5
31D
100
AcDbSymbolTableRecord
100
AcDbLayerTableRecord
  2
SYMBOL_E4_10000
 70
0
 62
7
  6
CONTINUOUS
370
-3
390
F
  0
LAYER
  5
31E
100
AcDbSymbolTableRecord
100
AcDbLayerTableRecord
  2
SYMBOL_NO-PB_10000
 70
0
 62
7
  6
CONTINUOUS
370
-3
390
F
  0
LAYER
  5
31F
100
AcDbSymbolTableRecord
100
AcDbLayerTableRecord
  2
TRASH
 70
0
 62
7
  6
CONTINUOUS
370
-3
390
F
  0
LAYER
  5
320
100
AcDbSymbolTableRecord
100
AcDbLayerTableRecord
  2
TSOT26-2_9-2_8-1_0_REF_120000
 70
0
 62
7
  6
CONTINUOUS
370
-3
390
F
  0
LAYER
  5
321
100
AcDbSymbolTableRecord
100
AcDbLayerTableRecord
  2
TSOT26-2_9-2_8-1_0_REF_120000_1
 70
0
 62
7
  6
CONTINUOUS
370
-3
390
F
  0
LAYER
  5
322
100
AcDbSymbolTableRecord
100
AcDbLayerTableRecord
  2
TSOT26-2_9-2_8-1_0_REF_120000_2
 70
0
 62
7
  6
CONTINUOUS
370
-3
390
F
  0
LAYER
  5
323
100
AcDbSymbolTableRecord
100
AcDbLayerTableRecord
  2
TSOT26-2_9-2_8-1_0_REF_120000_3
 70
0
 62
7
  6
CONTINUOUS
370
-3
390
F
  0
LAYER
  5
324
100
AcDbSymbolTableRecord
100
AcDbLayerTableRecord
  2
WHITE
 70
0
 62
7
  6
CONTINUOUS
370
-3
390
F
  0
LAYER
  5
325
100
AcDbSymbolTableRecord
100
AcDbLayerTableRecord
  2
WUERTH_6050_510000
 70
0
 62
7
  6
CONTINUOUS
370
-3
390
F
  0
LAYER
  5
326
100
AcDbSymbolTableRecord
100
AcDbLayerTableRecord
  2
WUERTH_744242471_350000
 70
0
 62
7
  6
CONTINUOUS
370
-3
390
F
  0
LAYER
  5
327
100
AcDbSymbolTableRecord
100
AcDbLayerTableRecord
  2
WUERTH_744242471_350000_1
 70
0
 62
7
  6
CONTINUOUS
370
-3
390
F
  0
LAYER
  5
328
100
AcDbSymbolTableRecord
100
AcDbLayerTableRecord
  2
WUERTH_744242471_350000_2
 70
0
 62
7
  6
CONTINUOUS
370
-3
390
F
  0
LAYER
  5
329
100
AcDbSymbolTableRecord
100
AcDbLayerTableRecord
  2
WUERTH_744242471_350000_3
 70
0
 62
7
  6
CONTINUOUS
370
-3
390
F
  0
LAYER
  5
32A
100
AcDbSymbolTableRecord
100
AcDbLayerTableRecord
  2
WUERTH_744242471_350000_4
 70
0
 62
7
  6
CONTINUOUS
370
-3
390
F
  0
LAYER
  5
32B
100
AcDbSymbolTableRecord
100
AcDbLayerTableRecord
  2
XSEC_DATUMS
 70
0
 62
7
  6
CONTINUOUS
370
-3
390
F
  0
LAYER
  5
32C
100
AcDbSymbolTableRecord
100
AcDbLayerTableRecord
  2
___SHELL
 70
0
 62
7
  6
CONTINUOUS
370
-3
390
F
  0
ENDTAB
  0
TABLE
  2
STYLE
  5
3
100
AcDbSymbolTable
 70
1
  0
STYLE
  5
11
100
AcDbSymbolTableRecord
100
AcDbTextStyleTableRecord
  2
STANDARD
 70
0
 40
0.0
 41
0.8
 50
0.0
 71
0
 42
0.2
  3
txt
  4

  0
STYLE
  5
32D
100
AcDbSymbolTableRecord
100
AcDbTextStyleTableRecord
  2
TEXTSTYLE_1
 70
0
 40
0.0
 41
0.8
 50
0.0
 71
0
 42
0.2
  3
gdt
  4

  0
ENDTAB
  0
TABLE
  2
VIEW
  5
6
100
AcDbSymbolTable
 70
0
  0
ENDTAB
  0
TABLE
  2
UCS
  5
7
100
AcDbSymbolTable
 70
0
  0
ENDTAB
  0
TABLE
  2
APPID
  5
9
100
AcDbSymbolTable
 70
1
  0
APPID
  5
32E
100
AcDbSymbolTableRecord
100
AcDbRegAppTableRecord
  2
ACAD
 70
0
  0
ENDTAB
  0
TABLE
  2
BLOCK_RECORD
  5
1
100
AcDbSymbolTable
 70
0
  0
BLOCK_RECORD
  5
32F
100
AcDbSymbolTableRecord
100
AcDbBlockTableRecord
  2
*Model_Space
  0
BLOCK_RECORD
  5
330
100
AcDbSymbolTableRecord
100
AcDbBlockTableRecord
  2
*Paper_Space
  0
ENDTAB
  0
TABLE
  2
DIMSTYLE
  5
A
100
AcDbSymbolTable
 70
1
100
AcDbDimStyleTable
 71
0
  0
DIMSTYLE
105
331
100
AcDbSymbolTableRecord
100
AcDbDimStyleTableRecord
  2
STANDARD
 70
0
  3

  4

 40
1.0
 41
3.0
 42
0.5
 43
0.38
 44
1.5
 45
0.0
 46
0.0
 47
0.01
 48
0.01
140
3.0
141
0.09
142
0.0
143
25.4
144
1.0
145
0.0
146
1.0
147
0.625
 71
1.0
 72
0.0
 73
0
 74
0
 75
0
 76
0
 77
1
 78
8
170
0
171
2
172
0
173
0
174
0
175
0
176
0
177
0
178
0
270
2
271
2
272
2
273
2
274
2
275
0
280
0
281
0
282
0
283
1
284
8
285
0
286
0
287
3
288
0
340
11
278
44
  0
ENDTAB
  0
ENDSEC
  0
SECTION
  2
BLOCKS
  0
BLOCK
  5
20
100
AcDbEntity
  8
0
100
AcDbBlockBegin
  2
*Model_Space
 70
0
 10
0.0
 20
0.0
 30
0.0
  3
*Model_Space
  1

  0
ENDBLK
  5
21
100
AcDbEntity
  8
0
100
AcDbBlockEnd
  0
BLOCK
  5
1C
100
AcDbEntity
  8
0
100
AcDbBlockBegin
  2
*Paper_Space
 70
0
 10
0.0
 20
0.0
 30
0.0
  3
*Paper_Space
  1

  0
ENDBLK
  5
1D
100
AcDbEntity
  8
0
100
AcDbBlockEnd
  0
ENDSEC
  0
SECTION
  2
ENTITIES
  0
LINE
  5
332
100
AcDbEntity
  8
RACCORDO
100
AcDbLine
 62
7
  6
CONTINUOUS
 10
34.9001523048
 20
-54.9
 11
-24.4476348052
 21
-54.9
  0
LINE
  5
333
100
AcDbEntity
  8
RACCORDO
100
AcDbLine
 62
7
  6
CONTINUOUS
 10
-34.5523651948
 20
-54.9
 11
-34.9001523048
 21
-54.9
  0
LINE
  5
334
100
AcDbEntity
  8
DRAFT
100
AcDbLine
 62
7
  6
CONTINUOUS
 10
-24.5
 20
-54.8476348052
 11
-34.5
 21
-54.8476348052
  0
LINE
  5
335
100
AcDbEntity
  8
RACCORDO
100
AcDbLine
 62
7
  6
CONTINUOUS
 10
34.7954219153
 20
-54.7952696104
 11
-34.7954219153
 21
-54.7952696104
  0
LINE
  5
336
100
AcDbEntity
  8
0
100
AcDbLine
 62
7
  6
CONTINUOUS
 10
4.5
 20
-54.0
 11
-4.5
 21
-54.0
  0
LINE
  5
337
100
AcDbEntity
  8
0
100
AcDbLine
 62
7
  6
CONTINUOUS
 10
34.45
 20
-53.5
 11
5.5
 21
-53.5
  0
LINE
  5
338
100
AcDbEntity
  8
ASSI
100
AcDbLine
 62
7
  6
CONTINUOUS
 10
-5.5
 20
-53.5
 11
-23.5
 21
-53.5
  0
LINE
  5
339
100
AcDbEntity
  8
0
100
AcDbLine
 62
7
  6
CONTINUOUS
 10
-28.5
 20
-52.9
 11
-30.5
 21
-52.9
  0
LINE
  5
33A
100
AcDbEntity
  8
DRAFT
100
AcDbLine
 62
7
  6
CONTINUOUS
 10
-24.4476348052
 20
-54.9
 11
-24.5
 21
-54.8476348052
  0
LINE
  5
33B
100
AcDbEntity
  8
RACCORDO
100
AcDbLine
 62
7
  6
CONTINUOUS
 10
3.9000761524
 20
-50.1
 11
-3.9000761524
 21
-50.1
  0
LINE
  5
33C
100
AcDbEntity
  8
RACCORDO
100
AcDbLine
 62
7
  6
CONTINUOUS
 10
3.8250193732
 20
-50.0249432208
 11
-3.8250193732
 21
-50.0249432208
  0
LINE
  5
33D
100
AcDbEntity
  8
0
100
AcDbLine
 62
7
  6
CONTINUOUS
 10
-30.5
 20
-48.9
 11
-28.5
 21
-48.9
  0
LINE
  5
33E
100
AcDbEntity
  8
DRAFT
100
AcDbLine
 62
7
  6
CONTINUOUS
 10
-3.3110927272
 20
-48.6
 11
3.3110927272
 21
-48.6
  0
LINE
  5
33F
100
AcDbEntity
  8
0
100
AcDbLine
 62
7
  6
CONTINUOUS
 10
-9.2
 20
-47.2
 11
-7.0
 21
-47.2
  0
LINE
  5
340
100
AcDbEntity
  8
0
100
AcDbLine
 62
7
  6
CONTINUOUS
 10
7.0
 20
-47.2
 11
9.2
 21
-47.2
  0
LINE
  5
341
100
AcDbEntity
  8
0
100
AcDbLine
 62
7
  6
CONTINUOUS
 10
30.0
 20
-47.2
 11
32.2
 21
-47.2
  0
LINE
  5
342
100
AcDbEntity
  8
RACCORDO
100
AcDbLine
 62
7
  6
CONTINUOUS
 10
4.5
 20
-46.75
 11
4.4
 21
-46.75
  0
LINE
  5
343
100
AcDbEntity
  8
RACCORDO
100
AcDbLine
 62
7
  6
CONTINUOUS
 10
3.2360359481
 20
-46.75
 11
-3.2360359481
 21
-46.75
  0
LINE
  5
344
100
AcDbEntity
  8
RACCORDO
100
AcDbLine
 62
7
  6
CONTINUOUS
 10
-4.4
 20
-46.75
 11
-4.5
 21
-46.75
  0
LINE
  5
345
100
AcDbEntity
  8
ASSI
100
AcDbLine
 62
7
  6
CONTINUOUS
 10
-5.5
 20
-46.6
 11
-23.5
 21
-46.6
  0
LINE
  5
346
100
AcDbEntity
  8
DRAFT
100
AcDbLine
 62
7
  6
CONTINUOUS
 10
5.5
 20
-46.6
 11
34.45
 21
-46.6
  0
LINE
  5
347
100
AcDbEntity
  8
DRAFT
100
AcDbLine
 62
7
  6
CONTINUOUS
 10
3.2622185454
 20
-46.4
 11
-3.2622185454
 21
-46.4
  0
LINE
  5
348
100
AcDbEntity
  8
DRAFT
100
AcDbLine
 62
7
  6
CONTINUOUS
 10
4.5
 20
-45.25
 11
4.4
 21
-45.25
  0
LINE
  5
349
100
AcDbEntity
  8
DRAFT
100
AcDbLine
 62
7
  6
CONTINUOUS
 10
-4.4
 20
-45.25
 11
-4.5
 21
-45.25
  0
LINE
  5
34A
100
AcDbEntity
  8
DRAFT
100
AcDbLine
 62
7
  6
CONTINUOUS
 10
4.5
 20
-45.19851148
 11
4.4
 21
-45.19851148
  0
LINE
  5
34B
100
AcDbEntity
  8
DRAFT
100
AcDbLine
 62
7
  6
CONTINUOUS
 10
-4.4
 20
-45.19851148
 11
-4.5
 21
-45.19851148
  0
LINE
  5
34C
100
AcDbEntity
  8
DRAFT
100
AcDbLine
 62
253
  6
CONTINUOUS
 10
30.7150898701
 20
-44.75
 11
30.75
 21
-44.75
  0
LINE
  5
34D
100
AcDbEntity
  8
DRAFT
100
AcDbLine
 62
7
  6
CONTINUOUS
 10
-4.5
 20
-44.7
 11
-4.4
 21
-44.7
  0
LINE
  5
34E
100
AcDbEntity
  8
DRAFT
100
AcDbLine
 62
7
  6
CONTINUOUS
 10
4.4
 20
-44.7
 11
4.5
 21
-44.7
  0
LINE
  5
34F
100
AcDbEntity
  8
0
100
AcDbLine
 62
7
  6
CONTINUOUS
 10
-4.5
 20
-43.7
 11
-3.65
 21
-43.7
  0
LINE
  5
350
100
AcDbEntity
  8
0
100
AcDbLine
 62
7
  6
CONTINUOUS
 10
3.65
 20
-43.7
 11
4.5
 21
-43.7
  0
LINE
  5
351
100
AcDbEntity
  8
DRAFT
100
AcDbLine
 62
7
  6
CONTINUOUS
 10
-35.7952696104
 20
18.0644466757
 11
-35.9
 21
17.75
  0
LINE
  5
352
100
AcDbEntity
  8
DRAFT
100
AcDbLine
 62
7
  6
CONTINUOUS
 10
-3.2622185454
 20
-41.6
 11
3.2622185454
 21
-41.6
  0
LINE
  5
353
100
AcDbEntity
  8
DRAFT
100
AcDbLine
 62
7
  6
CONTINUOUS
 10
-35.7952696104
 20
-20.5644466757
 11
-35.8563623377
 21
-20.3810194482
  0
LINE
  5
354
100
AcDbEntity
  8
SMUSSO
100
AcDbLine
 62
7
  6
CONTINUOUS
 10
-35.8692566451
 20
-17.842305068
 11
-35.9
 21
-17.75
  0
LINE
  5
355
100
AcDbEntity
  8
SMUSSO
100
AcDbLine
 62
7
  6
CONTINUOUS
 10
-35.8563623377
 20
-18.5810194482
 11
-35.8692566451
 21
-17.842305068
  0
LINE
  5
356
100
AcDbEntity
  8
RACCORDO
100
AcDbLine
 62
7
  6
CONTINUOUS
 10
-35.9
 20
-35.9
 11
-35.9
 21
-53.9001523048
  0
LINE
  5
357
100
AcDbEntity
  8
RACCORDO
100
AcDbLine
 62
7
  6
CONTINUOUS
 10
-35.9
 20
35.9
 11
-35.9
 21
53.9001523048
  0
LINE
  5
358
100
AcDbEntity
  8
DRAFT
100
AcDbLine
 62
7
  6
CONTINUOUS
 10
-35.9
 20
-35.9
 11
-35.9
 21
35.9
  0
LINE
  5
359
100
AcDbEntity
  8
DRAFT
100
AcDbLine
 62
7
  6
CONTINUOUS
 10
-35.8877814546
 20
-32.65
 11
-35.8877814546
 21
-27.35
  0
LINE
  5
35A
100
AcDbEntity
  8
DRAFT
100
AcDbLine
 62
7
  6
CONTINUOUS
 10
-35.8877814546
 20
27.35
 11
-35.8877814546
 21
32.65
  0
LINE
  5
35B
100
AcDbEntity
  8
SMUSSO
100
AcDbLine
 62
7
  6
CONTINUOUS
 10
-35.8563623377
 20
-20.3810194482
 11
-35.8563623377
 21
-18.5810194482
  0
LINE
  5
35C
100
AcDbEntity
  8
DRAFT
100
AcDbLine
 62
7
  6
CONTINUOUS
 10
-35.8301797403
 20
32.65
 11
-35.8301797403
 21
27.35
  0
LINE
  5
35D
100
AcDbEntity
  8
DRAFT
100
AcDbLine
 62
7
  6
CONTINUOUS
 10
-35.8301797403
 20
-27.35
 11
-35.8301797403
 21
-32.65
  0
LINE
  5
35E
100
AcDbEntity
  8
RACCORDO
100
AcDbLine
 62
7
  6
CONTINUOUS
 10
-35.7987606234
 20
-34.9
 11
-35.7987606234
 21
-25.1
  0
LINE
  5
35F
100
AcDbEntity
  8
RACCORDO
100
AcDbLine
 62
7
  6
CONTINUOUS
 10
-35.7987606234
 20
25.1
 11
-35.7987606234
 21
34.9
  0
LINE
  5
360
100
AcDbEntity
  8
RACCORDO
100
AcDbLine
 62
7
  6
CONTINUOUS
 10
-35.7952696104
 20
-53.7954219153
 11
-35.7952696104
 21
-36.0
  0
LINE
  5
361
100
AcDbEntity
  8
DRAFT
100
AcDbLine
 62
7
  6
CONTINUOUS
 10
-35.7952696104
 20
-24.0
 11
-35.7952696104
 21
-20.5644466757
  0
LINE
  5
362
100
AcDbEntity
  8
DRAFT
100
AcDbLine
 62
7
  6
CONTINUOUS
 10
-35.7952696104
 20
18.0644466757
 11
-35.7952696104
 21
24.0
  0
LINE
  5
363
100
AcDbEntity
  8
RACCORDO
100
AcDbLine
 62
7
  6
CONTINUOUS
 10
-35.7952696104
 20
36.0
 11
-35.7952696104
 21
53.7954219153
  0
LINE
  5
364
100
AcDbEntity
  8
DRAFT
100
AcDbLine
 62
7
  6
CONTINUOUS
 10
-35.1389072728
 20
-24.0
 11
-35.1389072728
 21
-24.1
  0
LINE
  5
365
100
AcDbEntity
  8
DRAFT
100
AcDbLine
 62
7
  6
CONTINUOUS
 10
-35.1389072728
 20
-35.9
 11
-35.1389072728
 21
-36.0
  0
LINE
  5
366
100
AcDbEntity
  8
DRAFT
100
AcDbLine
 62
7
  6
CONTINUOUS
 10
-35.1389072728
 20
24.0
 11
-35.1389072728
 21
24.1
  0
LINE
  5
367
100
AcDbEntity
  8
DRAFT
100
AcDbLine
 62
7
  6
CONTINUOUS
 10
-35.1389072728
 20
35.9
 11
-35.1389072728
 21
36.0
  0
LINE
  5
368
100
AcDbEntity
  8
DRAFT
100
AcDbLine
 62
7
  6
CONTINUOUS
 10
-35.1214522078
 20
36.0
 11
-35.1214522078
 21
35.9
  0
LINE
  5
369
100
AcDbEntity
  8
DRAFT
100
AcDbLine
 62
7
  6
CONTINUOUS
 10
-35.1214522078
 20
24.1
 11
-35.1214522078
 21
24.0
  0
LINE
  5
36A
100
AcDbEntity
  8
DRAFT
100
AcDbLine
 62
7
  6
CONTINUOUS
 10
-35.1214522078
 20
-24.0
 11
-35.1214522078
 21
-24.1
  0
LINE
  5
36B
100
AcDbEntity
  8
DRAFT
100
AcDbLine
 62
7
  6
CONTINUOUS
 10
-35.1214522078
 20
-35.9
 11
-35.1214522078
 21
-36.0
  0
LINE
  5
36C
100
AcDbEntity
  8
0
100
AcDbLine
 62
7
  6
CONTINUOUS
 10
-35.0321523635
 20
32.7
 11
-35.0321523635
 21
27.3
  0
LINE
  5
36D
100
AcDbEntity
  8
0
100
AcDbLine
 62
7
  6
CONTINUOUS
 10
-35.0321523635
 20
-32.7
 11
-35.0321523635
 21
-27.3
  0
LINE
  5
36E
100
AcDbEntity
  8
RACCORDO
100
AcDbLine
 62
7
  6
CONTINUOUS
 10
-34.6321523635
 20
-34.9
 11
-34.6321523635
 21
-32.7
  0
LINE
  5
36F
100
AcDbEntity
  8
RACCORDO
100
AcDbLine
 62
7
  6
CONTINUOUS
 10
-34.6321523635
 20
-27.3
 11
-34.6321523635
 21
-25.1
  0
LINE
  5
370
100
AcDbEntity
  8
RACCORDO
100
AcDbLine
 62
7
  6
CONTINUOUS
 10
-34.6321523635
 20
25.1
 11
-34.6321523635
 21
27.3
  0
LINE
  5
371
100
AcDbEntity
  8
RACCORDO
100
AcDbLine
 62
7
  6
CONTINUOUS
 10
-34.6321523635
 20
32.7
 11
-34.6321523635
 21
34.9
  0
LINE
  5
372
100
AcDbEntity
  8
0
100
AcDbLine
 62
7
  6
CONTINUOUS
 10
-34.6196821264
 20
32.7
 11
-34.6196821264
 21
27.3
  0
LINE
  5
373
100
AcDbEntity
  8
0
100
AcDbLine
 62
7
  6
CONTINUOUS
 10
-34.6196821264
 20
-32.7
 11
-34.6196821264
 21
-27.3
  0
LINE
  5
374
100
AcDbEntity
  8
DRAFT
100
AcDbLine
 62
7
  6
CONTINUOUS
 10
-34.5988528624
 20
32.5421083448
 11
-34.5988528624
 21
27.4578916552
  0
LINE
  5
375
100
AcDbEntity
  8
DRAFT
100
AcDbLine
 62
7
  6
CONTINUOUS
 10
-34.5988528624
 20
-27.4578916552
 11
-34.5988528624
 21
-32.5421083448
  0
LINE
  5
376
100
AcDbEntity
  8
DRAFT
100
AcDbLine
 62
7
  6
CONTINUOUS
 10
-34.5483680519
 20
36.0
 11
-34.5483680519
 21
35.9
  0
LINE
  5
377
100
AcDbEntity
  8
DRAFT
100
AcDbLine
 62
7
  6
CONTINUOUS
 10
-34.5483680519
 20
24.1
 11
-34.5483680519
 21
24.0
  0
LINE
  5
378
100
AcDbEntity
  8
DRAFT
100
AcDbLine
 62
7
  6
CONTINUOUS
 10
-34.5483680519
 20
-24.0
 11
-34.5483680519
 21
-24.1
  0
LINE
  5
379
100
AcDbEntity
  8
DRAFT
100
AcDbLine
 62
7
  6
CONTINUOUS
 10
-34.5483680519
 20
-35.9
 11
-34.5483680519
 21
-36.0
  0
LINE
  5
37A
100
AcDbEntity
  8
DRAFT
100
AcDbLine
 62
7
  6
CONTINUOUS
 10
-34.5451818435
 20
-32.5327171334
 11
-34.5451818435
 21
-32.3
  0
LINE
  5
37B
100
AcDbEntity
  8
DRAFT
100
AcDbLine
 62
7
  6
CONTINUOUS
 10
-34.5451818435
 20
-27.7
 11
-34.5451818435
 21
-27.4672828666
  0
LINE
  5
37C
100
AcDbEntity
  8
DRAFT
100
AcDbLine
 62
7
  6
CONTINUOUS
 10
-34.5451818435
 20
27.4672828666
 11
-34.5451818435
 21
27.7
  0
LINE
  5
37D
100
AcDbEntity
  8
DRAFT
100
AcDbLine
 62
7
  6
CONTINUOUS
 10
-34.5451818435
 20
32.3
 11
-34.5451818435
 21
32.5327171334
  0
LINE
  5
37E
100
AcDbEntity
  8
DRAFT
100
AcDbLine
 62
7
  6
CONTINUOUS
 10
-34.4884011428
 20
36.0
 11
-34.4884011428
 21
32.3
  0
LINE
  5
37F
100
AcDbEntity
  8
DRAFT
100
AcDbLine
 62
7
  6
CONTINUOUS
 10
-34.4884011428
 20
-36.0
 11
-34.4884011428
 21
-32.3
  0
LINE
  5
380
100
AcDbEntity
  8
DRAFT
100
AcDbLine
 62
7
  6
CONTINUOUS
 10
-34.4884011428
 20
-27.7
 11
-34.4884011428
 21
-24.0
  0
LINE
  5
381
100
AcDbEntity
  8
DRAFT
100
AcDbLine
 62
7
  6
CONTINUOUS
 10
-34.4884011428
 20
24.0
 11
-34.4884011428
 21
27.7
  0
LINE
  5
382
100
AcDbEntity
  8
DRAFT
100
AcDbLine
 62
7
  6
CONTINUOUS
 10
-34.45
 20
-32.3
 11
-34.45
 21
-27.7
  0
LINE
  5
383
100
AcDbEntity
  8
DRAFT
100
AcDbLine
 62
7
  6
CONTINUOUS
 10
-34.45
 20
27.7
 11
-34.45
 21
32.3
  0
LINE
  5
384
100
AcDbEntity
  8
DRAFT
100
AcDbLine
 62
7
  6
CONTINUOUS
 10
-34.45
 20
46.4704650534
 11
-34.45
 21
53.5
  0
LINE
  5
385
100
AcDbEntity
  8
DRAFT
100
AcDbLine
 62
7
  6
CONTINUOUS
 10
-34.4115988572
 20
32.3
 11
-34.4115988572
 21
27.7
  0
LINE
  5
386
100
AcDbEntity
  8
DRAFT
100
AcDbLine
 62
7
  6
CONTINUOUS
 10
-34.4115988572
 20
-32.3
 11
-34.4115988572
 21
-27.7
  0
LINE
  5
387
100
AcDbEntity
  8
DRAFT
100
AcDbLine
 62
7
  6
CONTINUOUS
 10
35.9
 20
-36.0
 11
34.4884011428
 21
-36.0
  0
LINE
  5
388
100
AcDbEntity
  8
DRAFT
100
AcDbLine
 62
7
  6
CONTINUOUS
 10
-34.4884011428
 20
-36.0
 11
-35.9
 21
-36.0
  0
LINE
  5
389
100
AcDbEntity
  8
RACCORDO
100
AcDbLine
 62
7
  6
CONTINUOUS
 10
34.5483680519
 20
-35.9
 11
35.9
 21
-35.9
  0
LINE
  5
38A
100
AcDbEntity
  8
RACCORDO
100
AcDbLine
 62
7
  6
CONTINUOUS
 10
-34.5483680519
 20
-35.9
 11
-35.9
 21
-35.9
  0
LINE
  5
38B
100
AcDbEntity
  8
RACCORDO
100
AcDbLine
 62
253
  6
CONTINUOUS
 10
-35.7987606234
 20
-34.9
 11
-34.6321523635
 21
-34.9
  0
LINE
  5
38C
100
AcDbEntity
  8
RACCORDO
100
AcDbLine
 62
253
  6
CONTINUOUS
 10
34.6321523635
 20
-34.9
 11
35.7987606234
 21
-34.9
  0
LINE
  5
38D
100
AcDbEntity
  8
0
100
AcDbLine
 62
7
  6
CONTINUOUS
 10
-33.0
 20
-10.2971419438
 11
-32.3453027677
 21
-12.0
  0
LINE
  5
38E
100
AcDbEntity
  8
0
100
AcDbLine
 62
7
  6
CONTINUOUS
 10
-32.2
 20
53.5
 11
-32.2
 21
47.2
  0
LINE
  5
38F
100
AcDbEntity
  8
0
100
AcDbLine
 62
7
  6
CONTINUOUS
 10
-31.2311885412
 20
-10.2971419438
 11
-31.2311885412
 21
-12.0
  0
LINE
  5
390
100
AcDbEntity
  8
0
100
AcDbLine
 62
7
  6
CONTINUOUS
 10
-31.0041408003
 20
-12.0
 11
-31.0041408003
 21
-10.2971419438
  0
LINE
  5
391
100
AcDbEntity
  8
DRAFT
100
AcDbLine
 62
7
  6
CONTINUOUS
 10
-30.75
 20
44.75
 11
-30.75
 21
46.6
  0
LINE
  5
392
100
AcDbEntity
  8
DRAFT
100
AcDbLine
 62
7
  6
CONTINUOUS
 10
-30.7150898701
 20
44.75
 11
-30.7150898701
 21
46.6
  0
LINE
  5
393
100
AcDbEntity
  8
0
100
AcDbLine
 62
7
  6
CONTINUOUS
 10
-30.6222877817
 20
-10.2971419438
 11
-30.6222877817
 21
-12.0
  0
LINE
  5
394
100
AcDbEntity
  8
0
100
AcDbLine
 62
7
  6
CONTINUOUS
 10
-30.3952400408
 20
-12.0
 11
-30.3952400408
 21
-10.5551507402
  0
LINE
  5
395
100
AcDbEntity
  8
DRAFT
100
AcDbLine
 62
7
  6
CONTINUOUS
 10
-3.3110927272
 20
-34.011337067
 11
-3.25
 21
-33.99496732
  0
LINE
  5
396
100
AcDbEntity
  8
DRAFT
100
AcDbLine
 62
7
  6
CONTINUOUS
 10
34.5451818435
 20
-27.4672828666
 11
34.5988528624
 21
-27.4578916552
  0
LINE
  5
397
100
AcDbEntity
  8
DRAFT
100
AcDbLine
 62
7
  6
CONTINUOUS
 10
35.8877814546
 20
-27.35
 11
35.8306159648
 21
-27.3549936947
  0
LINE
  5
398
100
AcDbEntity
  8
DRAFT
100
AcDbLine
 62
7
  6
CONTINUOUS
 10
34.5992605626
 20
-27.462558817
 11
34.5451818435
 21
-27.4672828666
  0
LINE
  5
399
100
AcDbEntity
  8
0
100
AcDbLine
 62
7
  6
CONTINUOUS
 10
34.6196821264
 20
-32.7
 11
35.0321523635
 21
-32.7
  0
LINE
  5
39A
100
AcDbEntity
  8
0
100
AcDbLine
 62
7
  6
CONTINUOUS
 10
-34.6196821264
 20
-32.7
 11
-35.0321523635
 21
-32.7
  0
LINE
  5
39B
100
AcDbEntity
  8
DRAFT
100
AcDbLine
 62
7
  6
CONTINUOUS
 10
35.8877814546
 20
-32.65
 11
35.8301797403
 21
-32.65
  0
LINE
  5
39C
100
AcDbEntity
  8
DRAFT
100
AcDbLine
 62
7
  6
CONTINUOUS
 10
-35.8301797403
 20
-32.65
 11
-35.8877814546
 21
-32.65
  0
LINE
  5
39D
100
AcDbEntity
  8
DRAFT
100
AcDbLine
 62
7
  6
CONTINUOUS
 10
34.5988528624
 20
-32.3
 11
34.4115988572
 21
-32.3
  0
LINE
  5
39E
100
AcDbEntity
  8
DRAFT
100
AcDbLine
 62
7
  6
CONTINUOUS
 10
-34.4115988572
 20
-32.3
 11
-34.5988528624
 21
-32.3
  0
LINE
  5
39F
100
AcDbEntity
  8
DRAFT
100
AcDbLine
 62
7
  6
CONTINUOUS
 10
3.2360359481
 20
-32.0
 11
3.15
 21
-32.0
  0
LINE
  5
3A0
100
AcDbEntity
  8
DRAFT
100
AcDbLine
 62
7
  6
CONTINUOUS
 10
-3.15
 20
-32.0
 11
-3.2360359481
 21
-32.0
  0
LINE
  5
3A1
100
AcDbEntity
  8
DRAFT
100
AcDbLine
 62
7
  6
CONTINUOUS
 10
-35.8877814546
 20
-27.35
 11
-35.8306159648
 21
-27.3549936947
  0
LINE
  5
3A2
100
AcDbEntity
  8
DRAFT
100
AcDbLine
 62
7
  6
CONTINUOUS
 10
-34.5451818435
 20
-27.4672828666
 11
-34.5988528624
 21
-27.4578916552
  0
LINE
  5
3A3
100
AcDbEntity
  8
DRAFT
100
AcDbLine
 62
7
  6
CONTINUOUS
 10
3.3110927272
 20
-34.011337067
 11
3.25
 21
-33.99496732
  0
LINE
  5
3A4
100
AcDbEntity
  8
RACCORDO
100
AcDbLine
 62
253
  6
CONTINUOUS
 10
3.9000761524
 20
-50.1
 11
3.8250193732
 21
-50.0249432208
  0
LINE
  5
3A5
100
AcDbEntity
  8
RACCORDO
100
AcDbLine
 62
253
  6
CONTINUOUS
 10
4.4
 20
-49.6000761524
 11
4.3249432208
 21
-49.5250193732
  0
LINE
  5
3A6
100
AcDbEntity
  8
0
100
AcDbLine
 62
7
  6
CONTINUOUS
 10
-30.3952400408
 20
-10.5551507402
 11
-29.9042169592
 21
-12.0
  0
LINE
  5
3A7
100
AcDbEntity
  8
0
100
AcDbLine
 62
7
  6
CONTINUOUS
 10
-29.8541707743
 20
-11.5568723512
 11
-30.2762333998
 21
-10.2971419438
  0
LINE
  5
3A8
100
AcDbEntity
  8
0
100
AcDbLine
 62
7
  6
CONTINUOUS
 10
-29.8266333848
 20
-11.6409984781
 11
-29.8541707743
 21
-11.5568723512
  0
LINE
  5
3A9
100
AcDbEntity
  8
0
100
AcDbLine
 62
7
  6
CONTINUOUS
 10
-29.8088151693
 20
-11.6965494048
 11
-29.8266333848
 21
-11.6409984781
  0
LINE
  5
3AA
100
AcDbEntity
  8
0
100
AcDbLine
 62
7
  6
CONTINUOUS
 10
-29.7914993785
 20
-11.7516665236
 11
-29.8088151693
 21
-11.6965494048
  0
LWPOLYLINE
  5
3AB
100
AcDbEntity
  8
0
100
AcDbPolyline
 62
7
  6
CONTINUOUS
 90
10
 70
0
 10
-32.2271024165
 20
-11.8090734119
 10
-32.2356402602
 20
-11.7788727507
 10
-32.2445317362
 20
-11.7484978398
 10
-32.2537768447
 20
-11.7179486791
 10
-32.2633843214
 20
-11.6872225103
 10
-32.2733454305
 20
-11.6563220918
 10
-32.2836339644
 20
-11.6252556984
 10
-32.2942411875
 20
-11.5940260884
 10
-32.3051758354
 20
-11.5626305035
 10
-32.7586006158
 20
-10.2971419438
  0
LINE
  5
3AC
100
AcDbEntity
  8
0
100
AcDbLine
 62
7
  6
CONTINUOUS
 10
-30.0
 20
53.5
 11
-30.0
 21
47.2
  0
LINE
  5
3AD
100
AcDbEntity
  8
0
100
AcDbLine
 62
7
  6
CONTINUOUS
 10
-29.2083995774
 20
-10.5757914439
 11
-29.2083995774
 21
-12.0
  0
LINE
  5
3AE
100
AcDbEntity
  8
0
100
AcDbLine
 62
7
  6
CONTINUOUS
 10
-28.9813518366
 20
-12.0
 11
-28.9813518366
 21
-10.2971419438
  0
LINE
  5
3AF
100
AcDbEntity
  8
DRAFT
100
AcDbLine
 62
7
  6
CONTINUOUS
 10
-27.5
 20
18.0176397269
 11
-27.5
 21
15.95
  0
LINE
  5
3B0
100
AcDbEntity
  8
0
100
AcDbLine
 62
7
  6
CONTINUOUS
 10
-27.0308053358
 20
-10.2971419438
 11
-27.0308053358
 21
-12.0
  0
LINE
  5
3B1
100
AcDbEntity
  8
0
100
AcDbLine
 62
7
  6
CONTINUOUS
 10
-26.803757595
 20
-12.0
 11
-26.803757595
 21
-11.2466143145
  0
LINE
  5
3B2
100
AcDbEntity
  8
0
100
AcDbLine
 62
7
  6
CONTINUOUS
 10
-26.803757595
 20
-11.0505276293
 11
-26.803757595
 21
-10.493228629
  0
LINE
  5
3B3
100
AcDbEntity
  8
DRAFT
100
AcDbLine
 62
7
  6
CONTINUOUS
 10
-25.75
 20
15.95
 11
-25.75
 21
18.0176397269
  0
LWPOLYLINE
  5
3B4
100
AcDbEntity
  8
0
100
AcDbPolyline
 62
7
  6
CONTINUOUS
 90
9
 70
0
 10
-32.1454075674
 20
-11.5624249938
 10
-32.1568789814
 20
-11.5936678888
 10
-32.1679884599
 20
-11.6247976286
 10
-32.1787338648
 20
-11.6558188946
 10
-32.1891173342
 20
-11.6867270054
 10
-32.1991452826
 20
-11.7175079169
 10
-32.2088198482
 20
-11.7481569478
 10
-32.2181388929
 20
-11.7786787795
 10
-32.2271024165
 20
-11.8090734119
  0
LINE
  5
3B5
100
AcDbEntity
  8
0
100
AcDbLine
 62
7
  6
CONTINUOUS
 10
-31.6646433191
 20
-10.2971419438
 11
-32.1454075674
 21
-11.5624249938
  0
LINE
  5
3B6
100
AcDbEntity
  8
DRAFT
100
AcDbLine
 62
7
  6
CONTINUOUS
 10
3.3110927272
 20
-29.388662933
 11
3.25
 21
-29.40503268
  0
LINE
  5
3B7
100
AcDbEntity
  8
DRAFT
100
AcDbLine
 62
7
  6
CONTINUOUS
 10
-34.5988528624
 20
-32.5421083448
 11
-34.5451818435
 21
-32.5327171334
  0
LINE
  5
3B8
100
AcDbEntity
  8
DRAFT
100
AcDbLine
 62
7
  6
CONTINUOUS
 10
-35.8877814546
 20
-32.65
 11
-35.8306159648
 21
-32.6450063053
  0
LINE
  5
3B9
100
AcDbEntity
  8
DRAFT
100
AcDbLine
 62
7
  6
CONTINUOUS
 10
-34.5992605626
 20
-32.537441183
 11
-34.5451818435
 21
-32.5327171334
  0
LINE
  5
3BA
100
AcDbEntity
  8
DRAFT
100
AcDbLine
 62
7
  6
CONTINUOUS
 10
3.2360359481
 20
-29.5399181573
 11
3.15
 21
-29.5399181573
  0
LINE
  5
3BB
100
AcDbEntity
  8
DRAFT
100
AcDbLine
 62
7
  6
CONTINUOUS
 10
-3.15
 20
-29.5399181573
 11
-3.2360359481
 21
-29.5399181573
  0
LINE
  5
3BC
100
AcDbEntity
  8
RACCORDO
100
AcDbLine
 62
7
  6
CONTINUOUS
 10
3.2360359481
 20
-29.2728556639
 11
3.15
 21
-29.2728556639
  0
LINE
  5
3BD
100
AcDbEntity
  8
RACCORDO
100
AcDbLine
 62
7
  6
CONTINUOUS
 10
-3.15
 20
-29.2728556639
 11
-3.2360359481
 21
-29.2728556639
  0
LINE
  5
3BE
100
AcDbEntity
  8
DRAFT
100
AcDbLine
 62
7
  6
CONTINUOUS
 10
34.5988528624
 20
-27.7
 11
34.4115988572
 21
-27.7
  0
LINE
  5
3BF
100
AcDbEntity
  8
DRAFT
100
AcDbLine
 62
7
  6
CONTINUOUS
 10
-34.4115988572
 20
-27.7
 11
-34.5988528624
 21
-27.7
  0
LINE
  5
3C0
100
AcDbEntity
  8
DRAFT
100
AcDbLine
 62
7
  6
CONTINUOUS
 10
-35.8877814546
 20
-27.35
 11
-35.8301797403
 21
-27.35
  0
LINE
  5
3C1
100
AcDbEntity
  8
DRAFT
100
AcDbLine
 62
7
  6
CONTINUOUS
 10
35.8301797403
 20
-27.35
 11
35.8877814546
 21
-27.35
  0
LINE
  5
3C2
100
AcDbEntity
  8
0
100
AcDbLine
 62
7
  6
CONTINUOUS
 10
34.6196821264
 20
-27.3
 11
35.0321523635
 21
-27.3
  0
LINE
  5
3C3
100
AcDbEntity
  8
0
100
AcDbLine
 62
7
  6
CONTINUOUS
 10
-34.6196821264
 20
-27.3
 11
-35.0321523635
 21
-27.3
  0
LINE
  5
3C4
100
AcDbEntity
  8
0
100
AcDbLine
 62
7
  6
CONTINUOUS
 10
-3.2360359481
 20
-27.25
 11
-3.15
 21
-27.25
  0
LINE
  5
3C5
100
AcDbEntity
  8
0
100
AcDbLine
 62
7
  6
CONTINUOUS
 10
3.15
 20
-27.25
 11
3.2360359481
 21
-27.25
  0
LINE
  5
3C6
100
AcDbEntity
  8
DRAFT
100
AcDbLine
 62
7
  6
CONTINUOUS
 10
35.8877814546
 20
-32.65
 11
35.8306159648
 21
-32.6450063053
  0
LINE
  5
3C7
100
AcDbEntity
  8
DRAFT
100
AcDbLine
 62
7
  6
CONTINUOUS
 10
34.5992605626
 20
-32.537441183
 11
34.5451818435
 21
-32.5327171334
  0
LINE
  5
3C8
100
AcDbEntity
  8
DRAFT
100
AcDbLine
 62
7
  6
CONTINUOUS
 10
34.5988528624
 20
-32.5421083448
 11
34.5451818435
 21
-32.5327171334
  0
LINE
  5
3C9
100
AcDbEntity
  8
DRAFT
100
AcDbLine
 62
7
  6
CONTINUOUS
 10
-3.3110927272
 20
-29.388662933
 11
-3.25
 21
-29.40503268
  0
LWPOLYLINE
  5
3CA
100
AcDbEntity
  8
0
100
AcDbPolyline
 62
7
  6
CONTINUOUS
 90
10
 70
0
 10
-26.0244096932
 20
-11.3133740069
 10
-26.0361746117
 20
-11.3026536174
 10
-26.0486246818
 20
-11.292199214
 10
-26.0617599035
 20
-11.2820107967
 10
-26.0756195964
 20
-11.272106602
 10
-26.090164441
 20
-11.2624683935
 10
-26.1052764782
 20
-11.2530414611
 10
-26.1209163883
 20
-11.2438075682
 10
-26.1371234911
 20
-11.2347849514
 10
-26.1538977865
 20
-11.2259736108
  0
LWPOLYLINE
  5
3CB
100
AcDbEntity
  8
0
100
AcDbPolyline
 62
7
  6
CONTINUOUS
 90
5
 70
0
 10
-25.8148096711
 20
-11.5808582941
 10
-25.8648876627
 20
-11.5060471139
 10
-25.9169206678
 20
-11.4369529847
 10
-25.970094678
 20
-11.3727286157
 10
-26.0244096932
 20
-11.3133740069
  0
LINE
  5
3CC
100
AcDbEntity
  8
0
100
AcDbLine
 62
7
  6
CONTINUOUS
 10
-26.0651493153
 20
-11.6136579505
 11
-25.8213890732
 21
-12.0
  0
LINE
  5
3CD
100
AcDbEntity
  8
0
100
AcDbLine
 62
7
  6
CONTINUOUS
 10
-25.5546725045
 20
-12.0
 11
-25.7156346771
 21
-11.7425480625
  0
LINE
  5
3CE
100
AcDbEntity
  8
0
100
AcDbLine
 62
7
  6
CONTINUOUS
 10
-25.7156346771
 20
-11.7425480625
 11
-25.8148096711
 21
-11.5808582941
  0
LINE
  5
3CF
100
AcDbEntity
  8
0
100
AcDbLine
 62
7
  6
CONTINUOUS
 10
-27.233180924
 20
-12.0
 11
-27.9152916942
 21
-10.2971419438
  0
LINE
  5
3D0
100
AcDbEntity
  8
0
100
AcDbLine
 62
7
  6
CONTINUOUS
 10
-27.8092042056
 20
-11.1044904677
 11
-27.7330728784
 21
-11.2982160738
  0
LINE
  5
3D1
100
AcDbEntity
  8
0
100
AcDbLine
 62
7
  6
CONTINUOUS
 10
-27.6645393485
 20
-11.4839824072
 11
-27.4745804656
 21
-12.0
  0
LWPOLYLINE
  5
3D2
100
AcDbEntity
  8
0
100
AcDbPolyline
 62
7
  6
CONTINUOUS
 90
6
 70
0
 10
-28.037039563
 20
-10.4725879253
 10
-28.0107116083
 20
-10.5583150021
 10
-27.982180005
 20
-10.6455647124
 10
-27.9514447531
 20
-10.7343370564
 10
-27.9180496949
 20
-10.824659084
 10
-27.8092042056
 20
-11.1044904677
  0
LWPOLYLINE
  5
3D3
100
AcDbEntity
  8
0
100
AcDbPolyline
 62
7
  6
CONTINUOUS
 90
12
 70
0
 10
-24.6745607751
 20
-10.7908589219
 10
-24.6681938235
 20
-10.8270774242
 10
-24.6587599413
 20
-10.8618321375
 10
-24.646416067
 20
-10.8949278066
 10
-24.631005262
 20
-10.9265596868
 10
-24.6124018225
 20
-10.9567964678
 10
-24.5906422871
 20
-10.9856429112
 10
-24.5656901171
 20
-11.0130942554
 10
-24.5373099929
 20
-11.0392049056
 10
-24.5054234744
 20
-11.0639929968
 10
-24.4701090015
 20
-11.087440394
 10
-24.4313665743
 20
-11.1095470971
  0
LWPOLYLINE
  5
3D4
100
AcDbEntity
  8
0
100
AcDbPolyline
 62
7
  6
CONTINUOUS
 90
41
 70
0
 10
-23.43932289
 20
-10.7718781292
 10
-23.4435194318
 20
-10.7246819157
 10
-23.4511150525
 20
-10.6793488139
 10
-23.4621097521
 20
-10.6358788238
 10
-23.4767063663
 20
-10.5939913504
 10
-23.4947020594
 20
-10.5539669886
 10
-23.5154883241
 20
-10.5166475235
 10
-23.5387882899
 20
-10.4824223137
 10
-23.5648788272
 20
-10.4509020007
 10
-23.5939820403
 20
-10.4217602934
 10
-23.6260454946
 20
-10.3949003471
 10
-23.6611216245
 20
-10.3704190065
 10
-23.6995898382
 20
-10.3482805154
 10
-23.7416640219
 20
-10.3283114324
 10
-23.7871302894
 20
-10.310685199
 10
-23.83572639
 20
-10.2958863824
 10
-23.8879694945
 20
-10.2839368711
 10
-23.9433424322
 20
-10.2748147768
 10
-24.0000314411
 20
-10.2689390012
 10
-24.0587195695
 20
-10.2664734226
 10
-24.1187237691
 20
-10.2672541628
 10
-24.176181133
 20
-10.2712084892
 10
-24.2299596406
 20
-10.2785054587
 10
-24.2811913126
 20
-10.2889760143
 10
-24.3294093041
 20
-10.3020402522
 10
-24.3745407872
 20
-10.3176311172
 10
-24.4166585897
 20
-10.3358156644
 10
-24.4555143501
 20
-10.3562151554
 10
-24.4909261664
 20
-10.3786883642
 10
-24.5230759405
 20
-10.4033765168
 10
-24.5522610175
 20
-10.430324552
 10
-24.5785858636
 20
-10.4596409799
 10
-24.6019460125
 20
-10.4912172906
 10
-24.6223254103
 20
-10.5247728933
 10
-24.6398838255
 20
-10.5607111747
 10
-24.6544614896
 20
-10.5986287482
 10
-24.6655630435
 20
-10.6370348633
 10
-24.6730020114
 20
-10.675911021
 10
-24.676964869
 20
-10.7152757203
 10
-24.677515684
 20
-10.753693707
 10
-24.6745607751
 20
-10.7908589219
  0
LINE
  5
3D5
100
AcDbEntity
  8
0
100
AcDbLine
 62
7
  6
CONTINUOUS
 10
-22.253316
 20
3.102266
 11
-21.91506
 21
-0.76401
  0
LINE
  5
3D6
100
AcDbEntity
  8
0
100
AcDbLine
 62
7
  6
CONTINUOUS
 10
-21.890756
 20
-1.041808
 11
-21.749134
 21
-2.66056
  0
LINE
  5
3D7
100
AcDbEntity
  8
0
100
AcDbLine
 62
7
  6
CONTINUOUS
 10
-22.4496478716
 20
5.3463445329
 11
-22.417272
 21
4.976288
  0
LINE
  5
3D8
100
AcDbEntity
  8
0
100
AcDbLine
 62
7
  6
CONTINUOUS
 10
-22.379894
 20
4.549052
 11
-22.28228
 21
3.433332
  0
LINE
  5
3D9
100
AcDbEntity
  8
0
100
AcDbLine
 62
7
  6
CONTINUOUS
 10
-22.164784
 20
3.315834
 11
-22.272676
 21
4.549052
  0
LINE
  5
3DA
100
AcDbEntity
  8
0
100
AcDbLine
 62
7
  6
CONTINUOUS
 10
-21.651262
 20
-2.553752
 11
-21.792166
 21
-0.943216
  0
LINE
  5
3DB
100
AcDbEntity
  8
0
100
AcDbLine
 62
7
  6
CONTINUOUS
 10
-21.81647
 20
-0.665418
 11
-22.13582
 21
2.984768
  0
LINE
  5
3DC
100
AcDbEntity
  8
0
100
AcDbLine
 62
7
  6
CONTINUOUS
 10
-22.310054
 20
4.976288
 11
-22.336381996
 21
5.2772179547
  0
LWPOLYLINE
  5
3DD
100
AcDbEntity
  8
0
100
AcDbPolyline
 62
7
  6
CONTINUOUS
 90
22
 70
0
 10
-24.7396872238
 20
-11.4427009998
 10
-24.7361380013
 20
-11.4944080327
 10
-24.7291938808
 20
-11.5439697752
 10
-24.7188548624
 20
-11.5913862275
 10
-24.7049591114
 20
-11.6366841808
 10
-24.6876684625
 20
-11.6798368438
 10
-24.6674684198
 20
-11.7207638425
 10
-24.6443767917
 20
-11.7595832553
 10
-24.6183757699
 20
-11.7961770039
 10
-24.589897433
 20
-11.8301104792
 10
-24.5592690933
 20
-11.8611615812
 10
-24.5261634385
 20
-11.8895524099
 10
-24.4900306098
 20
-11.9155146558
 10
-24.4508259389
 20
-11.9392135511
 10
-24.4085940941
 20
-11.9604838636
 10
-24.3629192221
 20
-11.9790615874
 10
-24.3134627825
 20
-11.9949511092
 10
-24.2605633157
 20
-12.0081480422
 10
-24.20482059
 20
-12.01837522
 10
-24.146434528
 20
-12.0255402537
 10
-24.0852052072
 20
-12.0297355323
 10
-24.0211326274
 20
-12.0309610556
  0
LINE
  5
3DE
100
AcDbEntity
  8
0
100
AcDbLine
 62
7
  6
CONTINUOUS
 10
-25.097226
 20
-4.75746
 11
-25.097226
 21
-5.95746
  0
LINE
  5
3DF
100
AcDbEntity
  8
DRAFT
100
AcDbLine
 62
7
  6
CONTINUOUS
 10
-24.25
 20
18.0176397269
 11
-24.25
 21
15.95
  0
LINE
  5
3E0
100
AcDbEntity
  8
ASSI
100
AcDbLine
 62
7
  6
CONTINUOUS
 10
-23.5
 20
-46.6
 11
-23.5
 21
-53.5
  0
LINE
  5
3E1
100
AcDbEntity
  8
0
100
AcDbLine
 62
7
  6
CONTINUOUS
 10
-23.257676
 20
4.976288
 11
-23.257676
 21
4.549052
  0
LINE
  5
3E2
100
AcDbEntity
  8
0
100
AcDbLine
 62
7
  6
CONTINUOUS
 10
-23.078110575
 20
-10.2971419438
 11
-23.078110575
 21
-12.0
  0
LINE
  5
3E3
100
AcDbEntity
  8
0
100
AcDbLine
 62
7
  6
CONTINUOUS
 10
-22.8510628342
 20
-12.0
 11
-22.8510628342
 21
-11.2982160738
  0
LINE
  5
3E4
100
AcDbEntity
  8
0
100
AcDbLine
 62
7
  6
CONTINUOUS
 10
-22.8510628342
 20
-11.1021293885
 11
-22.8510628342
 21
-10.493228629
  0
LINE
  5
3E5
100
AcDbEntity
  8
DRAFT
100
AcDbLine
 62
7
  6
CONTINUOUS
 10
-22.5
 20
15.95
 11
-22.5
 21
18.0176397269
  0
LINE
  5
3E6
100
AcDbEntity
  8
0
100
AcDbLine
 62
7
  6
CONTINUOUS
 10
-22.136182
 20
5.884166
 11
-22.136182
 21
5.466024
  0
LINE
  5
3E7
100
AcDbEntity
  8
0
100
AcDbLine
 62
7
  6
CONTINUOUS
 10
-22.136182
 20
5.352804
 11
-22.136182
 21
4.976288
  0
LINE
  5
3E8
100
AcDbEntity
  8
0
100
AcDbLine
 62
7
  6
CONTINUOUS
 10
-22.029372
 20
5.083098
 11
-22.029372
 21
5.3895425405
  0
LINE
  5
3E9
100
AcDbEntity
  8
0
100
AcDbLine
 62
7
  6
CONTINUOUS
 10
-22.029372
 20
5.5019841279
 11
-22.029372
 21
5.777356
  0
LINE
  5
3EA
100
AcDbEntity
  8
0
100
AcDbLine
 62
7
  6
CONTINUOUS
 10
-21.749134
 20
-2.66056
 11
-21.749134
 21
-3.515034
  0
LINE
  5
3EB
100
AcDbEntity
  8
0
100
AcDbLine
 62
7
  6
CONTINUOUS
 10
-21.708946
 20
5.777356
 11
-21.708946
 21
5.595832
  0
LINE
  5
3EC
100
AcDbEntity
  8
0
100
AcDbLine
 62
7
  6
CONTINUOUS
 10
-21.708946
 20
5.485376
 11
-21.708946
 21
5.083098
  0
LINE
  5
3ED
100
AcDbEntity
  8
0
100
AcDbLine
 62
7
  6
CONTINUOUS
 10
-21.602136
 20
4.976288
 11
-21.602136
 21
5.5126708292
  0
LINE
  5
3EE
100
AcDbEntity
  8
0
100
AcDbLine
 62
7
  6
CONTINUOUS
 10
-21.602136
 20
5.62257169
 11
-21.602136
 21
5.884166
  0
LINE
  5
3EF
100
AcDbEntity
  8
0
100
AcDbLine
 62
7
  6
CONTINUOUS
 10
-21.58892
 20
-3.35482
 11
-21.58892
 21
-2.713966
  0
LWPOLYLINE
  5
3F0
100
AcDbEntity
  8
0
100
AcDbPolyline
 62
7
  6
CONTINUOUS
 90
3
 70
0
 10
-29.7616126033
 20
-11.6618542164
 10
-29.7717415228
 20
-11.6918981159
 10
-29.7914993785
 20
-11.7516665236
  0
LINE
  5
3F1
100
AcDbEntity
  8
0
100
AcDbLine
 62
7
  6
CONTINUOUS
 10
-29.7408079677
 20
-11.6014506671
 11
-29.7616126033
 21
-11.6618542164
  0
LINE
  5
3F2
100
AcDbEntity
  8
0
100
AcDbLine
 62
7
  6
CONTINUOUS
 10
-28.5685377624
 20
-12.0
 11
-28.3890603318
 21
-11.4839824072
  0
LINE
  5
3F3
100
AcDbEntity
  8
0
100
AcDbLine
 62
7
  6
CONTINUOUS
 10
-29.7110329171
 20
-12.0
 11
-29.2083995774
 21
-10.5757914439
  0
LINE
  5
3F4
100
AcDbEntity
  8
0
100
AcDbLine
 62
7
  6
CONTINUOUS
 10
-29.69797118
 20
-11.4793059264
 11
-29.7408079677
 21
-11.6014506671
  0
LINE
  5
3F5
100
AcDbEntity
  8
0
100
AcDbLine
 62
7
  6
CONTINUOUS
 10
-29.2767718494
 20
-10.2971419438
 11
-29.69797118
 21
-11.4793059264
  0
LINE
  5
3F6
100
AcDbEntity
  8
0
100
AcDbLine
 62
7
  6
CONTINUOUS
 10
-28.3243968354
 20
-11.2982160738
 11
-28.1404043396
 21
-10.8010653472
  0
LINE
  5
3F7
100
AcDbEntity
  8
0
100
AcDbLine
 62
7
  6
CONTINUOUS
 10
-28.1608837853
 20
-10.2971419438
 11
-28.808163309
 21
-12.0
  0
LINE
  5
3F8
100
AcDbEntity
  8
0
100
AcDbLine
 62
7
  6
CONTINUOUS
 10
-32.1010005828
 20
-12.0
 11
-31.4217924558
 21
-10.2971419438
  0
LWPOLYLINE
  5
3F9
100
AcDbEntity
  8
0
100
AcDbPolyline
 62
7
  6
CONTINUOUS
 90
10
 70
0
 10
-28.1404043396
 20
-10.8010653472
 10
-28.1262065868
 20
-10.7660246196
 10
-28.1126736679
 20
-10.7305861174
 10
-28.0998055826
 20
-10.6947498407
 10
-28.0875845169
 20
-10.6584710112
 10
-28.076028285
 20
-10.6217944073
 10
-28.0651903294
 20
-10.5848543632
 10
-28.0550884643
 20
-10.5476956573
 10
-28.0457048755
 20
-10.5102735113
 10
-28.037039563
 20
-10.4725879253
  0
LINE
  5
3FA
100
AcDbEntity
  8
0
100
AcDbLine
 62
7
  6
CONTINUOUS
 10
-24.806408
 20
5.95746
 11
-24.95746
 21
5.806408
  0
LINE
  5
3FB
100
AcDbEntity
  8
RACCORDO
100
AcDbLine
 62
253
  6
CONTINUOUS
 10
-35.7987606234
 20
-25.1
 11
-34.6321523635
 21
-25.1
  0
LINE
  5
3FC
100
AcDbEntity
  8
RACCORDO
100
AcDbLine
 62
253
  6
CONTINUOUS
 10
34.6321523635
 20
-25.1
 11
35.7987606234
 21
-25.1
  0
LINE
  5
3FD
100
AcDbEntity
  8
RACCORDO
100
AcDbLine
 62
7
  6
CONTINUOUS
 10
34.5483680519
 20
-24.1
 11
35.9
 21
-24.1
  0
LINE
  5
3FE
100
AcDbEntity
  8
RACCORDO
100
AcDbLine
 62
7
  6
CONTINUOUS
 10
-34.5483680519
 20
-24.1
 11
-35.9
 21
-24.1
  0
LINE
  5
3FF
100
AcDbEntity
  8
DRAFT
100
AcDbLine
 62
7
  6
CONTINUOUS
 10
35.9
 20
-24.0
 11
34.4884011428
 21
-24.0
  0
LINE
  5
400
100
AcDbEntity
  8
DRAFT
100
AcDbLine
 62
7
  6
CONTINUOUS
 10
-34.4884011428
 20
-24.0
 11
-35.9
 21
-24.0
  0
LINE
  5
401
100
AcDbEntity
  8
RACCORDO
100
AcDbLine
 62
253
  6
CONTINUOUS
 10
3.2360359481
 20
-22.3686662024
 11
3.15
 21
-22.3686662024
  0
LINE
  5
402
100
AcDbEntity
  8
RACCORDO
100
AcDbLine
 62
253
  6
CONTINUOUS
 10
-3.15
 20
-22.3686662024
 11
-3.2360359481
 21
-22.3686662024
  0
LINE
  5
403
100
AcDbEntity
  8
RACCORDO
100
AcDbLine
 62
253
  6
CONTINUOUS
 10
3.2360359481
 20
-22.1602686912
 11
3.15
 21
-22.1602686912
  0
LINE
  5
404
100
AcDbEntity
  8
RACCORDO
100
AcDbLine
 62
253
  6
CONTINUOUS
 10
-3.15
 20
-22.1602686912
 11
-3.2360359481
 21
-22.1602686912
  0
LWPOLYLINE
  5
405
100
AcDbEntity
  8
0
100
AcDbPolyline
 62
7
  6
CONTINUOUS
 90
28
 70
0
 10
-24.3862151334
 20
-10.8725015204
 10
-24.400869037
 20
-10.8575428795
 10
-24.4136653848
 20
-10.8415262432
 10
-24.4246041769
 20
-10.8244516116
 10
-24.4337404224
 20
-10.8062970334
 10
-24.4410191121
 20
-10.7870844598
 10
-24.446275219
 20
-10.7668797445
 10
-24.4494904033
 20
-10.7453380793
 10
-24.4506830048
 20
-10.7228042724
 10
-24.4497430158
 20
-10.7003786019
 10
-24.4466193749
 20
-10.6781849304
 10
-24.4413631436
 20
-10.6560993954
 10
-24.4340174986
 20
-10.6348506879
 10
-24.4246601778
 20
-10.6146699695
 10
-24.4132134435
 20
-10.5953260786
 10
-24.3994872592
 20
-10.5768542205
 10
-24.3834221869
 20
-10.5590782477
 10
-24.3650776647
 20
-10.5421743076
 10
-24.3444419702
 20
-10.5267060483
 10
-24.3213837848
 20
-10.512747612
 10
-24.2960344271
 20
-10.5002248563
 10
-24.2687761302
 20
-10.4894790017
 10
-24.2395907996
 20
-10.4806509612
 10
-24.2084965298
 20
-10.4735998218
 10
-24.1759298376
 20
-10.4682440651
 10
-24.1420362287
 20
-10.4645565184
 10
-24.1066701973
 20
-10.4625643546
 10
-24.0698317435
 20
-10.4622675735
  0
LINE
  5
406
100
AcDbEntity
  8
0
100
AcDbLine
 62
7
  6
CONTINUOUS
 10
-20.1224584953
 20
-12.0
 11
-20.8045692655
 21
-10.2971419438
  0
LINE
  5
407
100
AcDbEntity
  8
0
100
AcDbLine
 62
7
  6
CONTINUOUS
 10
-20.6984817769
 20
-11.1044904677
 11
-20.6223504497
 21
-11.2982160738
  0
LINE
  5
408
100
AcDbEntity
  8
0
100
AcDbLine
 62
7
  6
CONTINUOUS
 10
-19.4287373095
 20
-10.2971419438
 11
-18.7740400773
 21
-12.0
  0
LINE
  5
409
100
AcDbEntity
  8
0
100
AcDbLine
 62
7
  6
CONTINUOUS
 10
-20.5538169198
 20
-11.4839824072
 11
-20.3638580369
 21
-12.0
  0
LWPOLYLINE
  5
40A
100
AcDbEntity
  8
0
100
AcDbPolyline
 62
7
  6
CONTINUOUS
 90
6
 70
0
 10
-20.9263171343
 20
-10.4725879253
 10
-20.8999891796
 20
-10.5583150021
 10
-20.8714575763
 20
-10.6455647124
 10
-20.8407223244
 20
-10.7343370564
 10
-20.8073272662
 20
-10.824659084
 10
-20.6984817769
 20
-11.1044904677
  0
LINE
  5
40B
100
AcDbEntity
  8
0
100
AcDbLine
 62
7
  6
CONTINUOUS
 10
-21.268494
 20
-2.713966
 11
-21.268494
 21
-3.35482
  0
LINE
  5
40C
100
AcDbEntity
  8
0
100
AcDbLine
 62
7
  6
CONTINUOUS
 10
-21.10828
 20
-3.515034
 11
-21.10828
 21
-2.66056
  0
LINE
  5
40D
100
AcDbEntity
  8
0
100
AcDbLine
 62
7
  6
CONTINUOUS
 10
-20.69426
 20
2.946916
 11
-20.69426
 21
2.41287
  0
LINE
  5
40E
100
AcDbEntity
  8
0
100
AcDbLine
 62
7
  6
CONTINUOUS
 10
-20.58745
 20
2.51968
 11
-20.58745
 21
2.840108
  0
LINE
  5
40F
100
AcDbEntity
  8
0
100
AcDbLine
 62
7
  6
CONTINUOUS
 10
-20.48064
 20
6.04438
 11
-20.48064
 21
5.77424
  0
LINE
  5
410
100
AcDbEntity
  8
0
100
AcDbLine
 62
7
  6
CONTINUOUS
 10
-20.48064
 20
5.667372
 11
-20.48064
 21
5.403526
  0
LINE
  5
411
100
AcDbEntity
  8
0
100
AcDbLine
 62
7
  6
CONTINUOUS
 10
-20.373832
 20
5.510334
 11
-20.373832
 21
5.6699630887
  0
LINE
  5
412
100
AcDbEntity
  8
0
100
AcDbLine
 62
7
  6
CONTINUOUS
 10
-20.373832
 20
5.776783715
 11
-20.373832
 21
5.93757
  0
LINE
  5
413
100
AcDbEntity
  8
0
100
AcDbLine
 62
7
  6
CONTINUOUS
 10
-19.145528
 20
5.93757
 11
-19.145528
 21
5.658544
  0
LINE
  5
414
100
AcDbEntity
  8
0
100
AcDbLine
 62
7
  6
CONTINUOUS
 10
-19.145528
 20
5.549376
 11
-19.145528
 21
5.510334
  0
LINE
  5
415
100
AcDbEntity
  8
0
100
AcDbLine
 62
7
  6
CONTINUOUS
 10
-19.038718
 20
5.403526
 11
-19.038718
 21
5.5254658518
  0
LINE
  5
416
100
AcDbEntity
  8
0
100
AcDbLine
 62
7
  6
CONTINUOUS
 10
-19.038718
 20
5.6351113714
 11
-19.038718
 21
6.04438
  0
LINE
  5
417
100
AcDbEntity
  8
0
100
AcDbLine
 62
7
  6
CONTINUOUS
 10
-18.93191
 20
2.840108
 11
-18.93191
 21
2.51968
  0
LINE
  5
418
100
AcDbEntity
  8
0
100
AcDbLine
 62
7
  6
CONTINUOUS
 10
-18.8251
 20
2.41287
 11
-18.8251
 21
2.946916
  0
LINE
  5
419
100
AcDbEntity
  8
0
100
AcDbLine
 62
7
  6
CONTINUOUS
 10
-18.130842
 20
4.121816
 11
-18.130842
 21
3.02021
  0
LINE
  5
41A
100
AcDbEntity
  8
0
100
AcDbLine
 62
7
  6
CONTINUOUS
 10
-18.024032
 20
3.127018
 11
-18.024032
 21
4.015006
  0
LINE
  5
41B
100
AcDbEntity
  8
0
100
AcDbLine
 62
7
  6
CONTINUOUS
 10
-17.6599258507
 20
-10.2971419438
 11
-17.6599258507
 21
-12.0
  0
LINE
  5
41C
100
AcDbEntity
  8
0
100
AcDbLine
 62
7
  6
CONTINUOUS
 10
-17.4328781099
 20
-12.0
 11
-17.4328781099
 21
-10.2971419438
  0
LINE
  5
41D
100
AcDbEntity
  8
0
100
AcDbLine
 62
7
  6
CONTINUOUS
 10
-17.329774
 20
4.549052
 11
-17.329774
 21
4.683454
  0
LINE
  5
41E
100
AcDbEntity
  8
0
100
AcDbLine
 62
7
  6
CONTINUOUS
 10
-16.955942
 20
3.893008
 11
-16.955942
 21
3.053726
  0
LINE
  5
41F
100
AcDbEntity
  8
0
100
AcDbLine
 62
7
  6
CONTINUOUS
 10
-17.771776
 20
4.549052
 11
-17.809156
 21
4.121816
  0
LINE
  5
420
100
AcDbEntity
  8
0
100
AcDbLine
 62
7
  6
CONTINUOUS
 10
-17.8185
 20
4.015006
 11
-17.883932
 21
3.26712
  0
LINE
  5
421
100
AcDbEntity
  8
0
100
AcDbLine
 62
7
  6
CONTINUOUS
 10
-17.912896
 20
2.936054
 11
-18.224408
 21
-0.624542
  0
LINE
  5
422
100
AcDbEntity
  8
0
100
AcDbLine
 62
7
  6
CONTINUOUS
 10
-18.248712
 20
-0.90234
 11
-18.31641
 21
-1.676132
  0
LINE
  5
423
100
AcDbEntity
  8
0
100
AcDbLine
 62
7
  6
CONTINUOUS
 10
-18.2105400598
 20
-1.6915426831
 11
-18.15012
 21
-1.00093
  0
LINE
  5
424
100
AcDbEntity
  8
0
100
AcDbLine
 62
7
  6
CONTINUOUS
 10
-18.125816
 20
-0.723134
 11
-17.804728
 21
2.946916
  0
LINE
  5
425
100
AcDbEntity
  8
0
100
AcDbLine
 62
7
  6
CONTINUOUS
 10
-17.766434
 20
3.384616
 11
-17.711282
 21
4.015006
  0
LINE
  5
426
100
AcDbEntity
  8
0
100
AcDbLine
 62
7
  6
CONTINUOUS
 10
-17.701938
 20
4.121816
 11
-17.66456
 21
4.549052
  0
LINE
  5
427
100
AcDbEntity
  8
0
100
AcDbLine
 62
7
  6
CONTINUOUS
 10
-4.5
 20
-21.25
 11
-3.65
 21
-21.25
  0
LINE
  5
428
100
AcDbEntity
  8
0
100
AcDbLine
 62
7
  6
CONTINUOUS
 10
-3.2360359481
 20
-21.25
 11
-3.15
 21
-21.25
  0
LINE
  5
429
100
AcDbEntity
  8
0
100
AcDbLine
 62
7
  6
CONTINUOUS
 10
3.15
 20
-21.25
 11
3.2360359481
 21
-21.25
  0
LINE
  5
42A
100
AcDbEntity
  8
0
100
AcDbLine
 62
7
  6
CONTINUOUS
 10
3.65
 20
-21.25
 11
4.5
 21
-21.25
  0
LINE
  5
42B
100
AcDbEntity
  8
DRAFT
100
AcDbLine
 62
7
  6
CONTINUOUS
 10
35.7952696104
 20
-20.5644466757
 11
4.5
 21
-20.5644466757
  0
LINE
  5
42C
100
AcDbEntity
  8
DRAFT
100
AcDbLine
 62
7
  6
CONTINUOUS
 10
-4.5
 20
-20.5644466757
 11
-35.7952696104
 21
-20.5644466757
  0
LINE
  5
42D
100
AcDbEntity
  8
DRAFT
100
AcDbLine
 62
7
  6
CONTINUOUS
 10
35.8563623377
 20
-20.3810194482
 11
4.5
 21
-20.3810194482
  0
LINE
  5
42E
100
AcDbEntity
  8
DRAFT
100
AcDbLine
 62
7
  6
CONTINUOUS
 10
-4.5
 20
-20.3810194482
 11
-35.8563623377
 21
-20.3810194482
  0
LINE
  5
42F
100
AcDbEntity
  8
DRAFT
100
AcDbLine
 62
7
  6
CONTINUOUS
 10
3.3110927272
 20
-19.3
 11
-3.3110927272
 21
-19.3
  0
LINE
  5
430
100
AcDbEntity
  8
SMUSSO
100
AcDbLine
 62
7
  6
CONTINUOUS
 10
35.8563623377
 20
-18.5810194482
 11
4.5
 21
-18.5810194482
  0
LINE
  5
431
100
AcDbEntity
  8
SMUSSO
100
AcDbLine
 62
7
  6
CONTINUOUS
 10
-4.5
 20
-18.5810194482
 11
-35.8563623377
 21
-18.5810194482
  0
LINE
  5
432
100
AcDbEntity
  8
SMUSSO
100
AcDbLine
 62
7
  6
CONTINUOUS
 10
35.8692566451
 20
-17.842305068
 11
4.5
 21
-17.842305068
  0
LINE
  5
433
100
AcDbEntity
  8
SMUSSO
100
AcDbLine
 62
7
  6
CONTINUOUS
 10
-4.5
 20
-17.842305068
 11
-35.8692566451
 21
-17.842305068
  0
LINE
  5
434
100
AcDbEntity
  8
DRAFT
100
AcDbLine
 62
7
  6
CONTINUOUS
 10
35.9
 20
-17.75
 11
4.5
 21
-17.75
  0
LINE
  5
435
100
AcDbEntity
  8
DRAFT
100
AcDbLine
 62
7
  6
CONTINUOUS
 10
-4.5
 20
-17.75
 11
-35.9
 21
-17.75
  0
LINE
  5
436
100
AcDbEntity
  8
DRAFT
100
AcDbLine
 62
7
  6
CONTINUOUS
 10
-4.3249432208
 20
-17.6
 11
4.3249432208
 21
-17.6
  0
LWPOLYLINE
  5
437
100
AcDbEntity
  8
0
100
AcDbPolyline
 62
7
  6
CONTINUOUS
 90
5
 70
0
 10
-23.9357883902
 20
-11.260363533
 10
-23.9035229898
 20
-11.269430107
 10
-23.8722039065
 20
-11.2792054416
 10
-23.841744731
 20
-11.2894994959
 10
-23.812145463
 20
-11.3003122698
  0
LWPOLYLINE
  5
438
100
AcDbEntity
  8
0
100
AcDbPolyline
 62
7
  6
CONTINUOUS
 90
34
 70
0
 10
-22.2258751784
 20
-10.5083865622
 10
-22.2032915545
 20
-10.5160570115
 10
-22.1814588156
 20
-10.5261760479
 10
-22.1603769616
 20
-10.5387436715
 10
-22.139651933
 20
-10.5539780164
 10
-22.1196777894
 20
-10.5716609484
 10
-22.1016367094
 20
-10.5911380651
 10
-22.0858438741
 20
-10.6121512908
 10
-22.0719841024
 20
-10.6349587011
 10
-22.06029403
 20
-10.6596801213
 10
-22.0507679216
 20
-10.6866053555
 10
-22.0434115124
 20
-10.7154445995
 10
-22.0384786436
 20
-10.7454482658
 10
-22.0360692788
 20
-10.7771366787
 10
-22.0360834544
 20
-10.8099895138
 10
-22.0384751201
 20
-10.841696211
 10
-22.0433513992
 20
-10.8718145607
 10
-22.0506051685
 20
-10.9007867724
 10
-22.0598690083
 20
-10.9276289136
 10
-22.0711228994
 20
-10.9519748782
 10
-22.0843868611
 20
-10.9741907723
 10
-22.0993535308
 20
-10.9943909815
 10
-22.1157276536
 20
-11.0124678112
 10
-22.1338044845
 20
-11.0285289561
 10
-22.1541624265
 20
-11.0430118853
 10
-22.1771576878
 20
-11.0560962017
 10
-22.2024340603
 20
-11.0676023024
 10
-22.2295013217
 20
-11.0774288488
 10
-22.2583319389
 20
-11.0854970766
 10
-22.2889534451
 20
-11.09188575
 10
-22.3209582173
 20
-11.0967298225
 10
-22.3542103811
 20
-11.1000742787
 10
-22.388845811
 20
-11.1018741341
 10
-22.4248645069
 20
-11.1021293885
  0
LWPOLYLINE
  5
439
100
AcDbEntity
  8
0
100
AcDbPolyline
 62
7
  6
CONTINUOUS
 90
10
 70
0
 10
-23.6868500766
 20
-11.1042255845
 10
-23.7222725843
 20
-11.0899906189
 10
-23.7591350573
 20
-11.0763631663
 10
-23.7974374955
 20
-11.0633432267
 10
-23.8372454328
 20
-11.0510391587
 10
-23.8784933353
 20
-11.0393426036
 10
-23.9209846021
 20
-11.0279284857
 10
-23.9646536995
 20
-11.0166884463
 10
-24.0095661611
 20
-11.0057308441
 10
-24.0557219871
 20
-10.995055679
  0
LWPOLYLINE
  5
43A
100
AcDbEntity
  8
0
100
AcDbPolyline
 62
7
  6
CONTINUOUS
 90
39
 70
0
 10
-23.812145463
 20
-11.3003122698
 10
-23.7864694715
 20
-11.3110387287
 10
-23.7626496311
 20
-11.3226532296
 10
-23.7406859419
 20
-11.3351557725
 10
-23.7205724954
 20
-11.3484006871
 10
-23.7023152001
 20
-11.3625336437
 10
-23.6859317809
 20
-11.3779916535
 10
-23.6714077937
 20
-11.394832406
 10
-23.6587576825
 20
-11.4129982117
 10
-23.6480425049
 20
-11.4327530128
 10
-23.6391362538
 20
-11.4543996356
 10
-23.6321649362
 20
-11.4776352539
 10
-23.6275676309
 20
-11.5018153312
 10
-23.6254425207
 20
-11.5271470127
 10
-23.6256914229
 20
-11.5534231533
 10
-23.6284588683
 20
-11.5793777807
 10
-23.633855526
 20
-11.6048861047
 10
-23.6417707269
 20
-11.6300729157
 10
-23.6520169951
 20
-11.6540466128
 10
-23.6645102088
 20
-11.676544011
 10
-23.6793344897
 20
-11.6978282954
 10
-23.6965547274
 20
-11.7177974207
 10
-23.7161907607
 20
-11.7364566189
 10
-23.7382227508
 20
-11.7538006581
 10
-23.7626560703
 20
-11.7697117965
 10
-23.7896525657
 20
-11.7843109988
 10
-23.8190503905
 20
-11.7974773004
 10
-23.8503693778
 20
-11.8087300655
 10
-23.8834801593
 20
-11.8179606154
 10
-23.9185121033
 20
-11.8252776288
 10
-23.9553731476
 20
-11.8305265064
 10
-23.9943922757
 20
-11.8338413546
 10
-24.0352405041
 20
-11.8350880671
 10
-24.0768388199
 20
-11.8337097247
 10
-24.1197583754
 20
-11.8294810154
 10
-24.1634280182
 20
-11.8226272513
 10
-24.2050552787
 20
-11.8132674504
 10
-24.2439487442
 20
-11.8011857801
 10
-24.2807998273
 20
-11.7865980729
  0
LWPOLYLINE
  5
43B
100
AcDbEntity
  8
0
100
AcDbPolyline
 62
7
  6
CONTINUOUS
 90
10
 70
0
 10
-24.4313665743
 20
-11.1095470971
 10
-24.4006732024
 20
-11.1238106232
 10
-24.3685955414
 20
-11.1374078983
 10
-24.3351335912
 20
-11.1503389224
 10
-24.3002180677
 20
-11.1625071659
 10
-24.2639182551
 20
-11.1740091584
 10
-24.2264420056
 20
-11.1851344891
 10
-24.1878586034
 20
-11.1959796876
 10
-24.1480987643
 20
-11.2064482242
 10
-24.1071624884
 20
-11.216540099
  0
LWPOLYLINE
  5
43C
100
AcDbEntity
  8
0
100
AcDbPolyline
 62
7
  6
CONTINUOUS
 90
14
 70
0
 10
-24.2807998273
 20
-11.7865980729
 10
-24.3148902963
 20
-11.7702708443
 10
-24.3459791112
 20
-11.7524024236
 10
-24.3743073121
 20
-11.7327944815
 10
-24.3998797865
 20
-11.7116185456
 10
-24.4225150243
 20
-11.6891654554
 10
-24.4423945357
 20
-11.6651443713
 10
-24.4600677392
 20
-11.6388543021
 10
-24.4756404964
 20
-11.6100498272
 10
-24.4890069456
 20
-11.578976367
 10
-24.5003989207
 20
-11.545669192
 10
-24.5098936996
 20
-11.5101400589
 10
-24.5174140043
 20
-11.4723772109
 10
-24.5229598349
 20
-11.4323806479
  0
LINE
  5
43D
100
AcDbEntity
  8
0
100
AcDbLine
 62
7
  6
CONTINUOUS
 10
-24.95746
 20
-3.806408
 11
-24.806408
 21
-3.95746
  0
LINE
  5
43E
100
AcDbEntity
  8
DRAFT
100
AcDbLine
 62
7
  6
CONTINUOUS
 10
-3.3110927272
 20
-34.011337067
 11
-3.65
 21
-33.4243324515
  0
LINE
  5
43F
100
AcDbEntity
  8
DRAFT
100
AcDbLine
 62
7
  6
CONTINUOUS
 10
-3.65
 20
-33.302146997
 11
-3.25
 21
-33.99496732
  0
LINE
  5
440
100
AcDbEntity
  8
0
100
AcDbLine
 62
7
  6
CONTINUOUS
 10
-15.6434257899
 20
-12.0
 11
-16.3255365601
 21
-10.2971419438
  0
LINE
  5
441
100
AcDbEntity
  8
0
100
AcDbLine
 62
7
  6
CONTINUOUS
 10
-16.2194490715
 20
-11.1044904677
 11
-16.1433177443
 21
-11.2982160738
  0
LINE
  5
442
100
AcDbEntity
  8
0
100
AcDbLine
 62
7
  6
CONTINUOUS
 10
-16.0747842143
 20
-11.4839824072
 11
-15.8848253315
 21
-12.0
  0
LWPOLYLINE
  5
443
100
AcDbEntity
  8
0
100
AcDbPolyline
 62
7
  6
CONTINUOUS
 90
6
 70
0
 10
-16.4472844289
 20
-10.4725879253
 10
-16.4209564742
 20
-10.5583150021
 10
-16.3924248709
 20
-10.6455647124
 10
-16.361689619
 20
-10.7343370564
 10
-16.3282945608
 20
-10.824659084
 10
-16.2194490715
 20
-11.1044904677
  0
LWPOLYLINE
  5
444
100
AcDbEntity
  8
0
100
AcDbPolyline
 62
7
  6
CONTINUOUS
 90
10
 70
0
 10
-18.6558397261
 20
-11.8090734119
 10
-18.6643775697
 20
-11.7788727507
 10
-18.6732690457
 20
-11.7484978398
 10
-18.6825141542
 20
-11.7179486791
 10
-18.6921216309
 20
-11.6872225103
 10
-18.70208274
 20
-11.6563220918
 10
-18.712371274
 20
-11.6252556984
 10
-18.722978497
 20
-11.5940260884
 10
-18.7339131449
 20
-11.5626305035
 10
-19.1873379254
 20
-10.2971419438
  0
LINE
  5
445
100
AcDbEntity
  8
0
100
AcDbLine
 62
7
  6
CONTINUOUS
 10
-16.849132
 20
2.946916
 11
-16.849132
 21
3.999816
  0
LINE
  5
446
100
AcDbEntity
  8
0
100
AcDbLine
 62
7
  6
CONTINUOUS
 10
-15.4616909054
 20
-10.2971419438
 11
-15.4616909054
 21
-12.0
  0
LINE
  5
447
100
AcDbEntity
  8
0
100
AcDbLine
 62
7
  6
CONTINUOUS
 10
-15.2346431646
 20
-11.8039133147
 11
-15.2346431646
 21
-10.2971419438
  0
LINE
  5
448
100
AcDbEntity
  8
0
100
AcDbLine
 62
7
  6
CONTINUOUS
 10
-14.947226
 20
-5.95746
 11
-14.947226
 21
-4.75746
  0
LINE
  5
449
100
AcDbEntity
  8
0
100
AcDbLine
 62
7
  6
CONTINUOUS
 10
-14.3883743124
 20
-12.0
 11
-14.3883743124
 21
-11.8039133147
  0
LINE
  5
44A
100
AcDbEntity
  8
0
100
AcDbLine
 62
7
  6
CONTINUOUS
 10
-14.1200451641
 20
-10.2971419438
 11
-14.1200451641
 21
-12.0
  0
LINE
  5
44B
100
AcDbEntity
  8
0
100
AcDbLine
 62
7
  6
CONTINUOUS
 10
-13.8929974233
 20
-11.8039133147
 11
-13.8929974233
 21
-11.215653259
  0
LINE
  5
44C
100
AcDbEntity
  8
0
100
AcDbLine
 62
7
  6
CONTINUOUS
 10
-13.8929974233
 20
-11.0195665737
 11
-13.8929974233
 21
-10.493228629
  0
LINE
  5
44D
100
AcDbEntity
  8
0
100
AcDbLine
 62
7
  6
CONTINUOUS
 10
-12.9641657563
 20
-11.215653259
 11
-12.9641657563
 21
-11.0195665737
  0
LINE
  5
44E
100
AcDbEntity
  8
0
100
AcDbLine
 62
7
  6
CONTINUOUS
 10
-12.9022436452
 20
-10.493228629
 11
-12.9022436452
 21
-10.2971419438
  0
LINE
  5
44F
100
AcDbEntity
  8
0
100
AcDbLine
 62
7
  6
CONTINUOUS
 10
-12.8609622377
 20
-12.0
 11
-12.8609622377
 21
-11.8039133147
  0
LINE
  5
450
100
AcDbEntity
  8
0
100
AcDbLine
 62
7
  6
CONTINUOUS
 10
-21.4578153337
 20
-12.0
 11
-21.2783379032
 21
-11.4839824072
  0
LWPOLYLINE
  5
451
100
AcDbEntity
  8
0
100
AcDbPolyline
 62
7
  6
CONTINUOUS
 90
9
 70
0
 10
-18.574144877
 20
-11.5624249938
 10
-18.5856162909
 20
-11.5936678888
 10
-18.5967257695
 20
-11.6247976286
 10
-18.6074711743
 20
-11.6558188946
 10
-18.6178546437
 20
-11.6867270054
 10
-18.6278825922
 20
-11.7175079169
 10
-18.6375571578
 20
-11.7481569478
 10
-18.6468762024
 20
-11.7786787795
 10
-18.6558397261
 20
-11.8090734119
  0
LINE
  5
452
100
AcDbEntity
  8
0
100
AcDbLine
 62
7
  6
CONTINUOUS
 10
-21.2136744067
 20
-11.2982160738
 11
-21.0296819109
 21
-10.8010653472
  0
LINE
  5
453
100
AcDbEntity
  8
0
100
AcDbLine
 62
7
  6
CONTINUOUS
 10
-21.0501613566
 20
-10.2971419438
 11
-21.6974408803
 21
-12.0
  0
LINE
  5
454
100
AcDbEntity
  8
0
100
AcDbLine
 62
7
  6
CONTINUOUS
 10
-18.0933806287
 20
-10.2971419438
 11
-18.574144877
 21
-11.5624249938
  0
LINE
  5
455
100
AcDbEntity
  8
0
100
AcDbLine
 62
7
  6
CONTINUOUS
 10
-18.5297378924
 20
-12.0
 11
-17.8505297654
 21
-10.2971419438
  0
LWPOLYLINE
  5
456
100
AcDbEntity
  8
0
100
AcDbPolyline
 62
7
  6
CONTINUOUS
 90
10
 70
0
 10
-21.0296819109
 20
-10.8010653472
 10
-21.0154841582
 20
-10.7660246196
 10
-21.0019512392
 20
-10.7305861174
 10
-20.9890831539
 20
-10.6947498407
 10
-20.9768620883
 20
-10.6584710112
 10
-20.9653058563
 20
-10.6217944073
 10
-20.9544679007
 20
-10.5848543632
 10
-20.9443660356
 20
-10.5476956573
 10
-20.9349824468
 20
-10.5102735113
 10
-20.9263171343
 20
-10.4725879253
  0
LINE
  5
457
100
AcDbEntity
  8
0
100
AcDbLine
 62
7
  6
CONTINUOUS
 10
-17.883932
 20
3.26712
 11
-18.024032
 21
3.127018
  0
LINE
  5
458
100
AcDbEntity
  8
0
100
AcDbLine
 62
7
  6
CONTINUOUS
 10
-18.130842
 20
3.02021
 11
-20.0
 21
1.15105
  0
LINE
  5
459
100
AcDbEntity
  8
0
100
AcDbLine
 62
7
  6
CONTINUOUS
 10
-15.193592
 20
5.95746
 11
-17.029234
 21
4.121816
  0
LINE
  5
45A
100
AcDbEntity
  8
0
100
AcDbLine
 62
7
  6
CONTINUOUS
 10
-17.136044
 20
4.015006
 11
-17.766434
 21
3.384616
  0
LINE
  5
45B
100
AcDbEntity
  8
0
100
AcDbLine
 62
7
  6
CONTINUOUS
 10
-21.91506
 20
-0.76401
 11
-24.95746
 21
-3.806408
  0
LINE
  5
45C
100
AcDbEntity
  8
0
100
AcDbLine
 62
7
  6
CONTINUOUS
 10
-20.15105
 20
1.0
 11
-21.81647
 21
-0.665418
  0
LINE
  5
45D
100
AcDbEntity
  8
0
100
AcDbLine
 62
7
  6
CONTINUOUS
 10
-21.792166
 20
-0.943216
 11
-20.0
 21
0.84895
  0
LINE
  5
45E
100
AcDbEntity
  8
0
100
AcDbLine
 62
7
  6
CONTINUOUS
 10
-19.84895
 20
1.0
 11
-17.912896
 21
2.936054
  0
LINE
  5
45F
100
AcDbEntity
  8
0
100
AcDbLine
 62
7
  6
CONTINUOUS
 10
-17.795224
 20
3.053726
 11
-16.955942
 21
3.893008
  0
LINE
  5
460
100
AcDbEntity
  8
0
100
AcDbLine
 62
7
  6
CONTINUOUS
 10
-24.806408
 20
-3.95746
 11
-21.890756
 21
-1.041808
  0
LINE
  5
461
100
AcDbEntity
  8
0
100
AcDbLine
 62
7
  6
CONTINUOUS
 10
-16.849132
 20
3.999816
 11
-15.04254
 21
5.806408
  0
LINE
  5
462
100
AcDbEntity
  8
DRAFT
100
AcDbLine
 62
7
  6
CONTINUOUS
 10
34.5523651948
 20
54.9
 11
34.5
 21
54.8476348052
  0
LINE
  5
463
100
AcDbEntity
  8
RACCORDO
100
AcDbLine
 62
253
  6
CONTINUOUS
 10
34.9001523048
 20
54.9
 11
34.7954219153
 21
54.7952696104
  0
LINE
  5
464
100
AcDbEntity
  8
RACCORDO
100
AcDbLine
 62
253
  6
CONTINUOUS
 10
35.9
 20
53.9001523048
 11
35.7952696104
 21
53.7954219153
  0
LWPOLYLINE
  5
465
100
AcDbEntity
  8
0
100
AcDbPolyline
 62
7
  6
CONTINUOUS
 90
10
 70
0
 10
7.957283809
 20
-11.1950125552
 10
7.975018882
 20
-11.1905766341
 10
7.9925397406
 20
-11.1865655874
 10
8.0098463849
 20
-11.1829794151
 10
8.0269567749
 20
-11.1797660069
 10
8.0438529506
 20
-11.1769774731
 10
8.0604810316
 20
-11.1747701448
 10
8.0768230581
 20
-11.1731961324
 10
8.0928969899
 20
-11.1722033255
 10
8.1087028272
 20
-11.1717917242
  0
LINE
  5
466
100
AcDbEntity
  8
0
100
AcDbLine
 62
7
  6
CONTINUOUS
 10
21.5780519053
 20
-10.8170295701
 11
21.8050996461
 21
-10.764782779
  0
LWPOLYLINE
  5
467
100
AcDbEntity
  8
0
100
AcDbPolyline
 62
7
  6
CONTINUOUS
 90
40
 70
0
 10
14.0541930439
 20
-11.2259736108
 10
14.1062967916
 20
-11.2171795985
 10
14.1555342306
 20
-11.2060343139
 10
14.2019053611
 20
-11.1925377572
 10
14.2456129504
 20
-11.1765335564
 10
14.2864542311
 20
-11.1581780834
 10
14.323820901
 20
-11.1379404541
 10
14.3573467354
 20
-11.1159874803
 10
14.387397959
 20
-11.0921523501
 10
14.4144649436
 20
-11.0664037438
 10
14.4386198544
 20
-11.0387539717
 10
14.4597905261
 20
-11.0091907235
 10
14.4782508351
 20
-10.9776457488
 10
14.494227098
 20
-10.944126733
 10
14.5074929982
 20
-10.9086259908
 10
14.5176434623
 20
-10.8710522159
 10
14.5246563075
 20
-10.8307445974
 10
14.5285537165
 20
-10.7883639462
 10
14.5289971643
 20
-10.7458013886
 10
14.5258038186
 20
-10.7030613906
 10
14.5191565116
 20
-10.6601394862
 10
14.5092652142
 20
-10.6189134034
 10
14.4958645444
 20
-10.5796940464
 10
14.4792198842
 20
-10.542170511
 10
14.4603373512
 20
-10.5072878128
 10
14.4394088769
 20
-10.4752339426
 10
14.4162425298
 20
-10.4458209096
 10
14.3912686327
 20
-10.4194297577
 10
14.3648365064
 20
-10.3963494019
 10
14.3365968302
 20
-10.3762909272
 10
14.3059319644
 20
-10.3587686318
 10
14.2725834593
 20
-10.3437425544
 10
14.2368097646
 20
-10.3312526563
 10
14.1987685894
 20
-10.320933119
 10
14.158302221
 20
-10.3129108878
 10
14.1155683721
 20
-10.3070590173
 10
14.0711978908
 20
-10.3026308531
 10
14.0254010597
 20
-10.2993775104
 10
13.9779675961
 20
-10.297547874
 10
13.9288975
 20
-10.2971419438
  0
LINE
  5
468
100
AcDbEntity
  8
0
100
AcDbLine
 62
7
  6
CONTINUOUS
 10
7.7487804184
 20
-11.5252638146
 11
7.5423733813
 21
-11.5562248702
  0
LWPOLYLINE
  5
469
100
AcDbEntity
  8
0
100
AcDbPolyline
 62
7
  6
CONTINUOUS
 90
34
 70
0
 10
17.3737986664
 20
-12.0309610556
 10
17.4363241075
 20
-12.0282326867
 10
17.4955790673
 20
-12.0220987123
 10
17.5515635458
 20
-12.0125591326
 10
17.6043962518
 20
-11.9992906379
 10
17.6539584765
 20
-11.9826165377
 10
17.6998940934
 20
-11.9635067609
 10
17.7419688214
 20
-11.9421537459
 10
17.7804169415
 20
-11.9183650542
 10
17.8155851705
 20
-11.8925332992
 10
17.8474548115
 20
-11.864814544
 10
17.8760445615
 20
-11.8350527254
 10
17.9017572275
 20
-11.8031722676
 10
17.9248451439
 20
-11.7688967468
 10
17.9450559764
 20
-11.7325025867
 10
17.9620355291
 20
-11.6947434827
 10
17.9757606879
 20
-11.655362602
 10
17.986254567
 20
-11.6146167774
 10
17.9932323131
 20
-11.5740302025
 10
17.9965073373
 20
-11.5337724413
 10
17.9962662285
 20
-11.4936739298
 10
17.992783901
 20
-11.45475017
 10
17.986053808
 20
-11.4171868367
 10
17.9760824963
 20
-11.3807982552
 10
17.9631645196
 20
-11.3460429028
 10
17.9474732881
 20
-11.3131123122
 10
17.9288353917
 20
-11.2818149507
 10
17.9070251533
 20
-11.2520346975
 10
17.8820048277
 20
-11.2237607949
 10
17.8538121601
 20
-11.1970040006
 10
17.8223347094
 20
-11.1716804672
 10
17.7875349951
 20
-11.1477622455
 10
17.7494504978
 20
-11.1252772846
 10
17.7080812173
 20
-11.1042255845
  0
LWPOLYLINE
  5
46A
100
AcDbEntity
  8
0
100
AcDbPolyline
 62
7
  6
CONTINUOUS
 90
19
 70
0
 10
21.1407270938
 20
-12.0309610556
 10
21.2025570192
 20
-12.0285675228
 10
21.2613284541
 20
-12.0225829703
 10
21.3170413985
 20
-12.0130073981
 10
21.3694956764
 20
-11.9997165147
 10
21.4188914638
 20
-11.9828346116
 10
21.4658292891
 20
-11.9627345632
 10
21.5104218209
 20
-11.9395713187
 10
21.5525563906
 20
-11.913189929
 10
21.5924955198
 20
-11.8834984215
 10
21.6303871041
 20
-11.8505255673
 10
21.6660832479
 20
-11.8142425953
 10
21.6994027867
 20
-11.7744712202
 10
21.7303841444
 20
-11.7312601496
 10
21.758988897
 20
-11.6845606759
 10
21.7849206079
 20
-11.6340483904
 10
21.8080804648
 20
-11.5796151569
 10
21.8285672801
 20
-11.5213691116
 10
21.8463810535
 20
-11.4593102545
  0
LINE
  5
46B
100
AcDbEntity
  8
DRAFT
100
AcDbLine
 62
7
  6
CONTINUOUS
 10
-4.3598533507
 20
-15.6
 11
4.3598533507
 21
-15.6
  0
LWPOLYLINE
  5
46C
100
AcDbEntity
  8
0
100
AcDbPolyline
 62
7
  6
CONTINUOUS
 90
9
 70
0
 10
-22.1978167661
 20
-10.3132674247
 10
-22.223516054
 20
-10.3093114495
 10
-22.2498373346
 20
-10.3059418527
 10
-22.2767806078
 20
-10.3031586342
 10
-22.3043708931
 20
-10.3010222134
 10
-22.3325831711
 20
-10.2994721709
 10
-22.3613423831
 20
-10.2983272486
 10
-22.3906235099
 20
-10.2975270269
 10
-22.4204515707
 20
-10.2971319253
  0
LWPOLYLINE
  5
46D
100
AcDbEntity
  8
0
100
AcDbPolyline
 62
7
  6
CONTINUOUS
 90
16
 70
0
 10
-24.0557219871
 20
-10.995055679
 10
-24.0835127056
 20
-10.9883910439
 10
-24.1105072612
 20
-10.981613011
 10
-24.1367056539
 20
-10.9747215805
 10
-24.1620662678
 20
-10.9677231448
 10
-24.1866307187
 20
-10.9606113114
 10
-24.210523854
 20
-10.9533669023
 10
-24.2338325614
 20
-10.9460448183
 10
-24.2564699532
 20
-10.9385901586
 10
-24.278300213
 20
-10.9308190425
 10
-24.2994945589
 20
-10.9228434166
 10
-24.3198817729
 20
-10.9145513343
 10
-24.3388123844
 20
-10.9054230755
 10
-24.3560699032
 20
-10.8952854003
 10
-24.3718708195
 20
-10.8843115486
 10
-24.3862151334
 20
-10.8725015204
  0
LINE
  5
46E
100
AcDbEntity
  8
0
100
AcDbLine
 62
7
  6
CONTINUOUS
 10
-8.2168039026
 20
-11.4593102545
 11
-8.4438516434
 21
-11.4023869826
  0
LWPOLYLINE
  5
46F
100
AcDbEntity
  8
0
100
AcDbPolyline
 62
7
  6
CONTINUOUS
 90
3
 70
0
 10
-24.1071624884
 20
-11.216540099
 10
-24.0368799409
 20
-11.2343757172
 10
-23.9357883902
 20
-11.260363533
  0
LINE
  5
470
100
AcDbEntity
  8
RACCORDO
100
AcDbLine
 62
253
  6
CONTINUOUS
 10
34.7954219153
 20
-54.7952696104
 11
34.9001523048
 21
-54.9
  0
LINE
  5
471
100
AcDbEntity
  8
0
100
AcDbLine
 62
7
  6
CONTINUOUS
 10
-20.0
 20
0.84895
 11
-18.248712
 21
-0.90234
  0
LINE
  5
472
100
AcDbEntity
  8
0
100
AcDbLine
 62
7
  6
CONTINUOUS
 10
-18.15012
 20
-1.00093
 11
-15.193592
 21
-3.95746
  0
LINE
  5
473
100
AcDbEntity
  8
0
100
AcDbLine
 62
7
  6
CONTINUOUS
 10
-24.95746
 20
5.806408
 11
-22.253316
 21
3.102266
  0
LINE
  5
474
100
AcDbEntity
  8
0
100
AcDbLine
 62
7
  6
CONTINUOUS
 10
-22.13582
 20
2.984768
 11
-20.15105
 21
1.0
  0
LINE
  5
475
100
AcDbEntity
  8
0
100
AcDbLine
 62
7
  6
CONTINUOUS
 10
-18.224408
 20
-0.624542
 11
-19.84895
 21
1.0
  0
LINE
  5
476
100
AcDbEntity
  8
0
100
AcDbLine
 62
7
  6
CONTINUOUS
 10
-20.0
 20
1.15105
 11
-22.164784
 21
3.315834
  0
LINE
  5
477
100
AcDbEntity
  8
0
100
AcDbLine
 62
7
  6
CONTINUOUS
 10
-22.28228
 20
3.433332
 11
-24.806408
 21
5.95746
  0
LINE
  5
478
100
AcDbEntity
  8
0
100
AcDbLine
 62
7
  6
CONTINUOUS
 10
-15.04254
 20
-3.806408
 11
-18.125816
 21
-0.723134
  0
LINE
  5
479
100
AcDbEntity
  8
RACCORDO
100
AcDbLine
 62
253
  6
CONTINUOUS
 10
35.7952696104
 20
-53.7954219153
 11
35.9
 21
-53.9001523048
  0
LINE
  5
47A
100
AcDbEntity
  8
0
100
AcDbLine
 62
7
  6
CONTINUOUS
 10
-12.0496857326
 20
-10.2971419438
 11
-11.3949885003
 21
-12.0
  0
LWPOLYLINE
  5
47B
100
AcDbEntity
  8
0
100
AcDbPolyline
 62
7
  6
CONTINUOUS
 90
18
 70
0
 10
-9.6635475653
 20
-11.514877009
 10
-9.6405044831
 20
-11.5765518978
 10
-9.6148453264
 20
-11.633988731
 10
-9.5866713654
 20
-11.687138068
 10
-9.5558813301
 20
-11.7360493492
 10
-9.5230102791
 20
-11.7807332298
 10
-9.4883690857
 20
-11.8209701165
 10
-9.4516468765
 20
-11.8569796025
 10
-9.4124460905
 20
-11.8894311225
 10
-9.3709545787
 20
-11.9184239066
 10
-9.32698449
 20
-11.9438587246
 10
-9.2795747097
 20
-11.9661073205
 10
-9.2283494001
 20
-11.9853851153
 10
-9.1736843989
 20
-12.0014766881
 10
-9.1157461047
 20
-12.0141075204
 10
-9.0545899836
 20
-12.0231861059
 10
-8.9901605695
 20
-12.028803951
 10
-8.9224578623
 20
-12.0309610556
  0
LWPOLYLINE
  5
47C
100
AcDbEntity
  8
0
100
AcDbPolyline
 62
7
  6
CONTINUOUS
 90
10
 70
0
 10
-11.2767881491
 20
-11.8090734119
 10
-11.2853259928
 20
-11.7788727507
 10
-11.2942174688
 20
-11.7484978398
 10
-11.3034625772
 20
-11.7179486791
 10
-11.3130700539
 20
-11.6872225103
 10
-11.3230311631
 20
-11.6563220918
 10
-11.333319697
 20
-11.6252556984
 10
-11.3439269201
 20
-11.5940260884
 10
-11.354861568
 20
-11.5626305035
 10
-11.8082863484
 20
-10.2971419438
  0
LINE
  5
47D
100
AcDbEntity
  8
0
100
AcDbLine
 62
7
  6
CONTINUOUS
 10
-10.2808742738
 20
-10.2971419438
 11
-10.2808742738
 21
-12.0
  0
LINE
  5
47E
100
AcDbEntity
  8
0
100
AcDbLine
 62
7
  6
CONTINUOUS
 10
-10.0538265329
 20
-12.0
 11
-10.0538265329
 21
-10.2971419438
  0
LINE
  5
47F
100
AcDbEntity
  8
0
100
AcDbLine
 62
7
  6
CONTINUOUS
 10
-9.2
 20
53.5
 11
-9.2
 21
47.2
  0
LINE
  5
480
100
AcDbEntity
  8
0
100
AcDbLine
 62
7
  6
CONTINUOUS
 10
-9.2
 20
-53.5
 11
-9.2
 21
-47.2
  0
LINE
  5
481
100
AcDbEntity
  8
0
100
AcDbLine
 62
7
  6
CONTINUOUS
 10
-16.9787826282
 20
-12.0
 11
-16.7993051977
 21
-11.4839824072
  0
LINE
  5
482
100
AcDbEntity
  8
0
100
AcDbLine
 62
7
  6
CONTINUOUS
 10
-16.7346417013
 20
-11.2982160738
 11
-16.5506492054
 21
-10.8010653472
  0
LINE
  5
483
100
AcDbEntity
  8
0
100
AcDbLine
 62
7
  6
CONTINUOUS
 10
-16.5711286512
 20
-10.2971419438
 11
-17.2184081748
 21
-12.0
  0
LWPOLYLINE
  5
484
100
AcDbEntity
  8
0
100
AcDbPolyline
 62
7
  6
CONTINUOUS
 90
10
 70
0
 10
-16.5506492054
 20
-10.8010653472
 10
-16.5364514527
 20
-10.7660246196
 10
-16.5229185337
 20
-10.7305861174
 10
-16.5100504485
 20
-10.6947498407
 10
-16.4978293828
 20
-10.6584710112
 10
-16.4862731509
 20
-10.6217944073
 10
-16.4754351952
 20
-10.5848543632
 10
-16.4653333301
 20
-10.5476956573
 10
-16.4559497414
 20
-10.5102735113
 10
-16.4472844289
 20
-10.4725879253
  0
LWPOLYLINE
  5
485
100
AcDbEntity
  8
0
100
AcDbPolyline
 62
7
  6
CONTINUOUS
 90
28
 70
0
 10
-21.9427912419
 20
-11.149215925
 10
-21.9156245437
 20
-11.116401164
 10
-21.8915162654
 20
-11.0820845225
 10
-21.8704664071
 20
-11.0462660006
 10
-21.8524598482
 20
-11.0090213915
 10
-21.8375117092
 20
-10.9702749018
 10
-21.8256673515
 20
-10.9297991521
 10
-21.8169007309
 20
-10.8869176159
 10
-21.8112378915
 20
-10.8423068195
 10
-21.8088023273
 20
-10.797768963
 10
-21.809701558
 20
-10.753287838
 10
-21.813828064
 20
-10.7088796528
 10
-21.8209827798
 20
-10.666395232
 10
-21.8313752095
 20
-10.6263064735
 10
-21.844795849
 20
-10.5881414795
 10
-21.860417121
 20
-10.5523353812
 10
-21.8781590466
 20
-10.5189050188
 10
-21.8981016046
 20
-10.4878335521
 10
-21.9196571546
 20
-10.4595055921
 10
-21.9425095618
 20
-10.4342160415
 10
-21.966974961
 20
-10.4116699976
 10
-21.9934141162
 20
-10.391367363
 10
-22.0218140483
 20
-10.3732301623
 10
-22.0521877364
 20
-10.357336371
 10
-22.084934882
 20
-10.3434198187
 10
-22.1201887191
 20
-10.3313917818
 10
-22.1578160138
 20
-10.3213409837
 10
-22.1978167661
 20
-10.3132674247
  0
LWPOLYLINE
  5
486
100
AcDbEntity
  8
0
100
AcDbPolyline
 62
7
  6
CONTINUOUS
 90
10
 70
0
 10
2.6732636588
 20
-11.1950125552
 10
2.6909987318
 20
-11.1905766341
 10
2.7085195904
 20
-11.1865655874
 10
2.7258262347
 20
-11.1829794151
 10
2.7429366247
 20
-11.1797660069
 10
2.7598328004
 20
-11.1769774731
 10
2.7764608814
 20
-11.1747701448
 10
2.7928029079
 20
-11.1731961324
 10
2.8088768397
 20
-11.1722033255
 10
2.824682677
 20
-11.1717917242
  0
LINE
  5
487
100
AcDbEntity
  8
0
100
AcDbLine
 62
7
  6
CONTINUOUS
 10
-8.4851330508
 20
-10.8170295701
 11
-8.25808531
 21
-10.764782779
  0
LINE
  5
488
100
AcDbEntity
  8
0
100
AcDbLine
 62
7
  6
CONTINUOUS
 10
2.4647602682
 20
-11.5252638146
 11
2.2583532311
 21
-11.5562248702
  0
LINE
  5
489
100
AcDbEntity
  8
0
100
AcDbLine
 62
7
  6
CONTINUOUS
 10
7.0985982515
 20
-10.7305967217
 11
7.3050052886
 21
-10.709956018
  0
LINE
  5
48A
100
AcDbEntity
  8
0
100
AcDbLine
 62
7
  6
CONTINUOUS
 10
4.4565881764
 20
-10.7305967217
 11
4.6629952135
 21
-10.709956018
  0
LINE
  5
48B
100
AcDbEntity
  8
0
100
AcDbLine
 62
7
  6
CONTINUOUS
 10
16.871971459
 20
-11.4323806479
 11
16.65524407
 21
-11.4427009998
  0
LINE
  5
48C
100
AcDbEntity
  8
0
100
AcDbLine
 62
7
  6
CONTINUOUS
 10
-24.5229598349
 20
-11.4323806479
 11
-24.7396872238
 21
-11.4427009998
  0
LINE
  5
48D
100
AcDbEntity
  8
0
100
AcDbLine
 62
7
  6
CONTINUOUS
 10
17.7285606631
 20
-10.782198481
 11
17.9556084039
 21
-10.7718781292
  0
LINE
  5
48E
100
AcDbEntity
  8
0
100
AcDbLine
 62
7
  6
CONTINUOUS
 10
-23.6663706308
 20
-10.782198481
 11
-23.43932289
 21
-10.7718781292
  0
LWPOLYLINE
  5
48F
100
AcDbEntity
  8
0
100
AcDbPolyline
 62
7
  6
CONTINUOUS
 90
34
 70
0
 10
-24.0211326274
 20
-12.0309610556
 10
-23.9586071864
 20
-12.0282326867
 10
-23.8993522266
 20
-12.0220987123
 10
-23.8433677481
 20
-12.0125591326
 10
-23.7905350421
 20
-11.9992906379
 10
-23.7409728173
 20
-11.9826165377
 10
-23.6950372005
 20
-11.9635067609
 10
-23.6529624725
 20
-11.9421537459
 10
-23.6145143524
 20
-11.9183650542
 10
-23.5793461234
 20
-11.8925332992
 10
-23.5474764823
 20
-11.864814544
 10
-23.5188867324
 20
-11.8350527254
 10
-23.4931740663
 20
-11.8031722676
 10
-23.4700861499
 20
-11.7688967468
 10
-23.4498753175
 20
-11.7325025867
 10
-23.4328957647
 20
-11.6947434827
 10
-23.419170606
 20
-11.655362602
 10
-23.4086767269
 20
-11.6146167774
 10
-23.4016989808
 20
-11.5740302025
 10
-23.3984239566
 20
-11.5337724413
 10
-23.3986650654
 20
-11.4936739298
 10
-23.4021473929
 20
-11.45475017
 10
-23.4088774858
 20
-11.4171868367
 10
-23.4188487976
 20
-11.3807982552
 10
-23.4317667743
 20
-11.3460429028
 10
-23.4474580057
 20
-11.3131123122
 10
-23.4660959022
 20
-11.2818149507
 10
-23.4879061405
 20
-11.2520346975
 10
-23.5129264662
 20
-11.2237607949
 10
-23.5411191338
 20
-11.1970040006
 10
-23.5725965845
 20
-11.1716804672
 10
-23.6073962987
 20
-11.1477622455
 10
-23.6454807961
 20
-11.1252772846
 10
-23.6868500766
 20
-11.1042255845
  0
LWPOLYLINE
  5
490
100
AcDbEntity
  8
0
100
AcDbPolyline
 62
7
  6
CONTINUOUS
 90
19
 70
0
 10
-8.9224578623
 20
-12.0309610556
 10
-8.860627937
 20
-12.0285675228
 10
-8.8018565021
 20
-12.0225829703
 10
-8.7461435576
 20
-12.0130073981
 10
-8.6936892797
 20
-11.9997165147
 10
-8.6442934923
 20
-11.9828346116
 10
-8.5973556671
 20
-11.9627345632
 10
-8.5527631352
 20
-11.9395713187
 10
-8.5106285655
 20
-11.913189929
 10
-8.4706894363
 20
-11.8834984215
 10
-8.432797852
 20
-11.8505255673
 10
-8.3971017082
 20
-11.8142425953
 10
-8.3637821694
 20
-11.7744712202
 10
-8.3328008118
 20
-11.7312601496
 10
-8.3041960591
 20
-11.6845606759
 10
-8.2782643482
 20
-11.6340483904
 10
-8.2551044913
 20
-11.5796151569
 10
-8.2346176761
 20
-11.5213691116
 10
-8.2168039026
 20
-11.4593102545
  0
LWPOLYLINE
  5
491
100
AcDbEntity
  8
0
100
AcDbPolyline
 62
7
  6
CONTINUOUS
 90
21
 70
0
 10
13.6631483216
 20
-11.2466143145
 10
13.6994869176
 20
-11.2454764013
 10
13.7340942224
 20
-11.2469813224
 10
13.7669702359
 20
-11.2511290778
 10
13.7982244499
 20
-11.2581124245
 10
13.8277473728
 20
-11.2677386054
 10
13.8552105295
 20
-11.2794293497
 10
13.8801824266
 20
-11.2930707087
 10
13.9030945577
 20
-11.3087766311
 10
13.9249129281
 20
-11.3263106914
 10
13.9456459032
 20
-11.3457223687
 10
13.9652851177
 20
-11.3669621839
 10
13.9847714816
 20
-11.3896452742
 10
14.0043423435
 20
-11.4137747901
 10
14.0237603549
 20
-11.439347581
 10
14.0432543794
 20
-11.4659693331
 10
14.0628543466
 20
-11.4935417662
 10
14.082530327
 20
-11.5221631604
 10
14.1024213957
 20
-11.5517340418
 10
14.1225739113
 20
-11.5822212526
 10
14.1429415152
 20
-11.6136579505
  0
LWPOLYLINE
  5
492
100
AcDbEntity
  8
0
100
AcDbPolyline
 62
7
  6
CONTINUOUS
 90
21
 70
0
 10
-26.5449425088
 20
-11.2466143145
 10
-26.5086039129
 20
-11.2454764013
 10
-26.4739966081
 20
-11.2469813224
 10
-26.4411205945
 20
-11.2511290778
 10
-26.4098663805
 20
-11.2581124245
 10
-26.3803434577
 20
-11.2677386054
 10
-26.352880301
 20
-11.2794293497
 10
-26.3279084038
 20
-11.2930707087
 10
-26.3049962728
 20
-11.3087766311
 10
-26.2831779023
 20
-11.3263106914
 10
-26.2624449272
 20
-11.3457223687
 10
-26.2428057128
 20
-11.3669621839
 10
-26.2233193489
 20
-11.3896452742
 10
-26.2037484869
 20
-11.4137747901
 10
-26.1843304756
 20
-11.439347581
 10
-26.164836451
 20
-11.4659693331
 10
-26.1452364838
 20
-11.4935417662
 10
-26.1255605035
 20
-11.5221631604
 10
-26.1056694347
 20
-11.5517340418
 10
-26.0855169192
 20
-11.5822212526
 10
-26.0651493153
 20
-11.6136579505
  0
LWPOLYLINE
  5
493
100
AcDbEntity
  8
0
100
AcDbPolyline
 62
7
  6
CONTINUOUS
 90
16
 70
0
 10
-22.4272833763
 20
-11.2982160738
 10
-22.3847875277
 20
-11.2978340475
 10
-22.3433359829
 20
-11.2960974364
 10
-22.3029287421
 20
-11.2930062408
 10
-22.2634126837
 20
-11.2885974455
 10
-22.2249409292
 20
-11.2828340656
 10
-22.1879728426
 20
-11.2756051457
 10
-22.1524524668
 20
-11.2668397356
 10
-22.118435759
 20
-11.2566087855
 10
-22.0865499545
 20
-11.2450141909
 10
-22.0569466252
 20
-11.2320083596
 10
-22.0294741992
 20
-11.2176388838
 10
-22.0043051959
 20
-11.2021504352
 10
-21.9814971218
 20
-11.1856245712
 10
-21.9609924705
 20
-11.1679797345
 10
-21.9427912419
 20
-11.149215925
  0
LWPOLYLINE
  5
494
100
AcDbEntity
  8
0
100
AcDbPolyline
 62
7
  6
CONTINUOUS
 90
10
 70
0
 10
-22.4293795723
 20
-10.493228629
 10
-22.4039003324
 20
-10.4931029646
 10
-22.3791186447
 20
-10.4933654269
 10
-22.3550345092
 20
-10.4940160158
 10
-22.3316221152
 20
-10.4949689405
 10
-22.3089072735
 20
-10.4963099919
 10
-22.2869674157
 20
-10.4982965425
 10
-22.2658283526
 20
-10.5010143832
 10
-22.2454642735
 20
-10.5043777231
 10
-22.2258751784
 20
-10.5083865622
  0
LINE
  5
495
100
AcDbEntity
  8
0
100
AcDbLine
 62
7
  6
CONTINUOUS
 10
-32.3453027677
 20
-12.0
 11
-32.1010005828
 21
-12.0
  0
LINE
  5
496
100
AcDbEntity
  8
0
100
AcDbLine
 62
7
  6
CONTINUOUS
 10
-31.2311885412
 20
-12.0
 11
-31.0041408003
 21
-12.0
  0
LINE
  5
497
100
AcDbEntity
  8
0
100
AcDbLine
 62
7
  6
CONTINUOUS
 10
-30.6222877817
 20
-12.0
 11
-30.3952400408
 21
-12.0
  0
LINE
  5
498
100
AcDbEntity
  8
0
100
AcDbLine
 62
7
  6
CONTINUOUS
 10
-29.9042169592
 20
-12.0
 11
-29.7110329171
 21
-12.0
  0
LINE
  5
499
100
AcDbEntity
  8
0
100
AcDbLine
 62
7
  6
CONTINUOUS
 10
-29.2083995774
 20
-12.0
 11
-28.9813518366
 21
-12.0
  0
LINE
  5
49A
100
AcDbEntity
  8
0
100
AcDbLine
 62
7
  6
CONTINUOUS
 10
-28.808163309
 20
-12.0
 11
-28.5685377624
 21
-12.0
  0
LINE
  5
49B
100
AcDbEntity
  8
0
100
AcDbLine
 62
7
  6
CONTINUOUS
 10
-27.4745804656
 20
-12.0
 11
-27.233180924
 21
-12.0
  0
LINE
  5
49C
100
AcDbEntity
  8
0
100
AcDbLine
 62
7
  6
CONTINUOUS
 10
-27.0308053358
 20
-12.0
 11
-26.803757595
 21
-12.0
  0
LINE
  5
49D
100
AcDbEntity
  8
0
100
AcDbLine
 62
7
  6
CONTINUOUS
 10
-25.8213890732
 20
-12.0
 11
-25.5546725045
 21
-12.0
  0
LINE
  5
49E
100
AcDbEntity
  8
0
100
AcDbLine
 62
7
  6
CONTINUOUS
 10
-23.078110575
 20
-12.0
 11
-22.8510628342
 21
-12.0
  0
LINE
  5
49F
100
AcDbEntity
  8
0
100
AcDbLine
 62
7
  6
CONTINUOUS
 10
-21.6974408803
 20
-12.0
 11
-21.4578153337
 21
-12.0
  0
LINE
  5
4A0
100
AcDbEntity
  8
0
100
AcDbLine
 62
7
  6
CONTINUOUS
 10
-20.3638580369
 20
-12.0
 11
-20.1224584953
 21
-12.0
  0
LINE
  5
4A1
100
AcDbEntity
  8
0
100
AcDbLine
 62
7
  6
CONTINUOUS
 10
-18.7740400773
 20
-12.0
 11
-18.5297378924
 21
-12.0
  0
LINE
  5
4A2
100
AcDbEntity
  8
0
100
AcDbLine
 62
7
  6
CONTINUOUS
 10
-17.6599258507
 20
-12.0
 11
-17.4328781099
 21
-12.0
  0
LINE
  5
4A3
100
AcDbEntity
  8
0
100
AcDbLine
 62
7
  6
CONTINUOUS
 10
-17.2184081748
 20
-12.0
 11
-16.9787826282
 21
-12.0
  0
LINE
  5
4A4
100
AcDbEntity
  8
0
100
AcDbLine
 62
7
  6
CONTINUOUS
 10
-15.8848253315
 20
-12.0
 11
-15.6434257899
 21
-12.0
  0
LINE
  5
4A5
100
AcDbEntity
  8
0
100
AcDbLine
 62
7
  6
CONTINUOUS
 10
-15.4616909054
 20
-12.0
 11
-14.3883743124
 21
-12.0
  0
LINE
  5
4A6
100
AcDbEntity
  8
0
100
AcDbLine
 62
7
  6
CONTINUOUS
 10
-14.1200451641
 20
-12.0
 11
-12.8609622377
 21
-12.0
  0
LINE
  5
4A7
100
AcDbEntity
  8
0
100
AcDbLine
 62
7
  6
CONTINUOUS
 10
-11.3949885003
 20
-12.0
 11
-11.1506863154
 21
-12.0
  0
LINE
  5
4A8
100
AcDbEntity
  8
0
100
AcDbLine
 62
7
  6
CONTINUOUS
 10
-10.2808742738
 20
-12.0
 11
-10.0538265329
 21
-12.0
  0
LINE
  5
4A9
100
AcDbEntity
  8
0
100
AcDbLine
 62
7
  6
CONTINUOUS
 10
-7.9278340506
 20
-12.0
 11
-6.6687511242
 21
-12.0
  0
LINE
  5
4AA
100
AcDbEntity
  8
0
100
AcDbLine
 62
7
  6
CONTINUOUS
 10
-6.3488202167
 20
-12.0
 11
-6.1217724758
 21
-12.0
  0
LINE
  5
4AB
100
AcDbEntity
  8
0
100
AcDbLine
 62
7
  6
CONTINUOUS
 10
-5.2692145633
 20
-12.0
 11
-5.0278151791
 21
-12.0
  0
LINE
  5
4AC
100
AcDbEntity
  8
0
100
AcDbLine
 62
7
  6
CONTINUOUS
 10
-4.7904470864
 20
-12.0
 11
-3.4384809933
 21
-12.0
  0
LINE
  5
4AD
100
AcDbEntity
  8
0
100
AcDbLine
 62
7
  6
CONTINUOUS
 10
-3.389136688
 20
-12.0
 11
-3.1495111414
 21
-12.0
  0
LINE
  5
4AE
100
AcDbEntity
  8
0
100
AcDbLine
 62
7
  6
CONTINUOUS
 10
-2.0555538446
 20
-12.0
 11
-1.814154303
 21
-12.0
  0
LINE
  5
4AF
100
AcDbEntity
  8
0
100
AcDbLine
 62
7
  6
CONTINUOUS
 10
-0.4662196588
 20
-12.0
 11
-0.2598126217
 21
-12.0
  0
LINE
  5
4B0
100
AcDbEntity
  8
0
100
AcDbLine
 62
7
  6
CONTINUOUS
 10
0.9579888973
 20
-12.0
 11
1.1643959344
 21
-12.0
  0
LINE
  5
4B1
100
AcDbEntity
  8
0
100
AcDbLine
 62
7
  6
CONTINUOUS
 10
9.5858030488
 20
-12.0
 11
9.8128507896
 21
-12.0
  0
LINE
  5
4B2
100
AcDbEntity
  8
0
100
AcDbLine
 62
7
  6
CONTINUOUS
 10
10.3038738713
 20
-12.0
 11
10.4970579133
 21
-12.0
  0
LINE
  5
4B3
100
AcDbEntity
  8
0
100
AcDbLine
 62
7
  6
CONTINUOUS
 10
10.999691253
 20
-12.0
 11
11.2267389939
 21
-12.0
  0
LINE
  5
4B4
100
AcDbEntity
  8
0
100
AcDbLine
 62
7
  6
CONTINUOUS
 10
11.3999275215
 20
-12.0
 11
11.6395530681
 21
-12.0
  0
LINE
  5
4B5
100
AcDbEntity
  8
0
100
AcDbLine
 62
7
  6
CONTINUOUS
 10
12.7335103648
 20
-12.0
 11
12.9749099065
 21
-12.0
  0
LINE
  5
4B6
100
AcDbEntity
  8
0
100
AcDbLine
 62
7
  6
CONTINUOUS
 10
13.1772854946
 20
-12.0
 11
13.4043332354
 21
-12.0
  0
LINE
  5
4B7
100
AcDbEntity
  8
0
100
AcDbLine
 62
7
  6
CONTINUOUS
 10
14.3867017573
 20
-12.0
 11
14.6534183259
 21
-12.0
  0
LINE
  5
4B8
100
AcDbEntity
  8
0
100
AcDbLine
 62
7
  6
CONTINUOUS
 10
18.7399551449
 20
-12.0
 11
18.9670028858
 21
-12.0
  0
LINE
  5
4B9
100
AcDbEntity
  8
0
100
AcDbLine
 62
7
  6
CONTINUOUS
 10
19.7823106824
 20
-12.0
 11
20.0093584232
 21
-12.0
  0
LINE
  5
4BA
100
AcDbEntity
  8
0
100
AcDbLine
 62
7
  6
CONTINUOUS
 10
21.9370067663
 20
-12.0
 11
22.1766323129
 21
-12.0
  0
LINE
  5
4BB
100
AcDbEntity
  8
0
100
AcDbLine
 62
7
  6
CONTINUOUS
 10
23.2705896097
 20
-12.0
 11
23.5119891513
 21
-12.0
  0
LINE
  5
4BC
100
AcDbEntity
  8
0
100
AcDbLine
 62
7
  6
CONTINUOUS
 10
24.8604075693
 20
-12.0
 11
25.1047097542
 21
-12.0
  0
LINE
  5
4BD
100
AcDbEntity
  8
0
100
AcDbLine
 62
7
  6
CONTINUOUS
 10
25.9745217959
 20
-12.0
 11
26.2015695367
 21
-12.0
  0
LINE
  5
4BE
100
AcDbEntity
  8
0
100
AcDbLine
 62
7
  6
CONTINUOUS
 10
27.2955268334
 20
-12.0
 11
27.5225745743
 21
-12.0
  0
LINE
  5
4BF
100
AcDbEntity
  8
0
100
AcDbLine
 62
7
  6
CONTINUOUS
 10
28.3585230746
 20
-12.0
 11
28.5855708154
 21
-12.0
  0
LINE
  5
4C0
100
AcDbEntity
  8
0
100
AcDbLine
 62
7
  6
CONTINUOUS
 10
29.1818937691
 20
-12.0
 11
29.4215193158
 21
-12.0
  0
LINE
  5
4C1
100
AcDbEntity
  8
0
100
AcDbLine
 62
7
  6
CONTINUOUS
 10
30.5154766125
 20
-12.0
 11
30.7568761541
 21
-12.0
  0
LINE
  5
4C2
100
AcDbEntity
  8
0
100
AcDbLine
 62
7
  6
CONTINUOUS
 10
30.9386110386
 20
-12.0
 11
32.0119276316
 21
-12.0
  0
LINE
  5
4C3
100
AcDbEntity
  8
0
100
AcDbLine
 62
7
  6
CONTINUOUS
 10
32.745962677
 20
-12.0
 11
32.9730104178
 21
-12.0
  0
LINE
  5
4C4
100
AcDbEntity
  8
0
100
AcDbLine
 62
7
  6
CONTINUOUS
 10
32.0119276316
 20
-11.8039133147
 11
31.1656587794
 21
-11.8039133147
  0
LINE
  5
4C5
100
AcDbEntity
  8
0
100
AcDbLine
 62
7
  6
CONTINUOUS
 10
-3.4384809933
 20
-11.8039133147
 11
-4.5332444224
 21
-11.8039133147
  0
LINE
  5
4C6
100
AcDbEntity
  8
0
100
AcDbLine
 62
7
  6
CONTINUOUS
 10
-6.6687511242
 20
-11.8039133147
 11
-7.7007863098
 21
-11.8039133147
  0
LINE
  5
4C7
100
AcDbEntity
  8
0
100
AcDbLine
 62
7
  6
CONTINUOUS
 10
-12.8609622377
 20
-11.8039133147
 11
-13.8929974233
 21
-11.8039133147
  0
LINE
  5
4C8
100
AcDbEntity
  8
0
100
AcDbLine
 62
7
  6
CONTINUOUS
 10
-14.3883743124
 20
-11.8039133147
 11
-15.2346431646
 21
-11.8039133147
  0
LINE
  5
4C9
100
AcDbEntity
  8
0
100
AcDbLine
 62
7
  6
CONTINUOUS
 10
0.2046032118
 20
-11.5975062776
 11
0.9579888973
 21
-11.5975062776
  0
LINE
  5
4CA
100
AcDbEntity
  8
0
100
AcDbLine
 62
7
  6
CONTINUOUS
 10
1.1643959344
 20
-11.5975062776
 11
1.3914436752
 21
-11.5975062776
  0
LINE
  5
4CB
100
AcDbEntity
  8
0
100
AcDbLine
 62
7
  6
CONTINUOUS
 10
-28.3890603318
 20
-11.4839824072
 11
-27.6645393485
 21
-11.4839824072
  0
LINE
  5
4CC
100
AcDbEntity
  8
0
100
AcDbLine
 62
7
  6
CONTINUOUS
 10
-21.2783379032
 20
-11.4839824072
 11
-20.5538169198
 21
-11.4839824072
  0
LINE
  5
4CD
100
AcDbEntity
  8
0
100
AcDbLine
 62
7
  6
CONTINUOUS
 10
-16.7993051977
 20
-11.4839824072
 11
-16.0747842143
 21
-11.4839824072
  0
LINE
  5
4CE
100
AcDbEntity
  8
0
100
AcDbLine
 62
7
  6
CONTINUOUS
 10
-2.9700337109
 20
-11.4839824072
 11
-2.2455127275
 21
-11.4839824072
  0
LINE
  5
4CF
100
AcDbEntity
  8
0
100
AcDbLine
 62
7
  6
CONTINUOUS
 10
11.8190304986
 20
-11.4839824072
 11
12.543551482
 21
-11.4839824072
  0
LINE
  5
4D0
100
AcDbEntity
  8
0
100
AcDbLine
 62
7
  6
CONTINUOUS
 10
22.3561097434
 20
-11.4839824072
 11
23.0806307268
 21
-11.4839824072
  0
LINE
  5
4D1
100
AcDbEntity
  8
0
100
AcDbLine
 62
7
  6
CONTINUOUS
 10
29.6009967463
 20
-11.4839824072
 11
30.3255177296
 21
-11.4839824072
  0
LINE
  5
4D2
100
AcDbEntity
  8
0
100
AcDbLine
 62
7
  6
CONTINUOUS
 10
1.3914436752
 20
-11.4014195924
 11
1.1643959344
 21
-11.4014195924
  0
LINE
  5
4D3
100
AcDbEntity
  8
0
100
AcDbLine
 62
7
  6
CONTINUOUS
 10
0.9579888973
 20
-11.4014195924
 11
0.4113327648
 21
-11.4014195924
  0
LINE
  5
4D4
100
AcDbEntity
  8
0
100
AcDbLine
 62
7
  6
CONTINUOUS
 10
30.2569841997
 20
-11.2982160738
 11
29.6656602427
 21
-11.2982160738
  0
LINE
  5
4D5
100
AcDbEntity
  8
0
100
AcDbLine
 62
7
  6
CONTINUOUS
 10
-22.8510628342
 20
-11.2982160738
 11
-22.4272833763
 21
-11.2982160738
  0
LINE
  5
4D6
100
AcDbEntity
  8
0
100
AcDbLine
 62
7
  6
CONTINUOUS
 10
23.0120971969
 20
-11.2982160738
 11
22.4207732399
 21
-11.2982160738
  0
LINE
  5
4D7
100
AcDbEntity
  8
0
100
AcDbLine
 62
7
  6
CONTINUOUS
 10
12.475017952
 20
-11.2982160738
 11
11.883693995
 21
-11.2982160738
  0
LINE
  5
4D8
100
AcDbEntity
  8
0
100
AcDbLine
 62
7
  6
CONTINUOUS
 10
-2.3140462574
 20
-11.2982160738
 11
-2.9053702144
 21
-11.2982160738
  0
LINE
  5
4D9
100
AcDbEntity
  8
0
100
AcDbLine
 62
7
  6
CONTINUOUS
 10
-16.1433177443
 20
-11.2982160738
 11
-16.7346417013
 21
-11.2982160738
  0
LINE
  5
4DA
100
AcDbEntity
  8
0
100
AcDbLine
 62
7
  6
CONTINUOUS
 10
-20.6223504497
 20
-11.2982160738
 11
-21.2136744067
 21
-11.2982160738
  0
LINE
  5
4DB
100
AcDbEntity
  8
0
100
AcDbLine
 62
7
  6
CONTINUOUS
 10
-27.7330728784
 20
-11.2982160738
 11
-28.3243968354
 21
-11.2982160738
  0
LINE
  5
4DC
100
AcDbEntity
  8
0
100
AcDbLine
 62
7
  6
CONTINUOUS
 10
-26.803757595
 20
-11.2466143145
 11
-26.5449425088
 21
-11.2466143145
  0
LINE
  5
4DD
100
AcDbEntity
  8
0
100
AcDbLine
 62
7
  6
CONTINUOUS
 10
13.4043332354
 20
-11.2466143145
 11
13.6631483216
 21
-11.2466143145
  0
LINE
  5
4DE
100
AcDbEntity
  8
0
100
AcDbLine
 62
7
  6
CONTINUOUS
 10
-13.8929974233
 20
-11.215653259
 11
-12.9641657563
 21
-11.215653259
  0
LINE
  5
4DF
100
AcDbEntity
  8
0
100
AcDbLine
 62
7
  6
CONTINUOUS
 10
-7.7007863098
 20
-11.215653259
 11
-6.7719546428
 21
-11.215653259
  0
LINE
  5
4E0
100
AcDbEntity
  8
0
100
AcDbLine
 62
7
  6
CONTINUOUS
 10
-22.4248645069
 20
-11.1021293885
 11
-22.8510628342
 21
-11.1021293885
  0
LINE
  5
4E1
100
AcDbEntity
  8
0
100
AcDbLine
 62
7
  6
CONTINUOUS
 10
-6.7719546428
 20
-11.0195665737
 11
-7.7007863098
 21
-11.0195665737
  0
LINE
  5
4E2
100
AcDbEntity
  8
0
100
AcDbLine
 62
7
  6
CONTINUOUS
 10
-12.9641657563
 20
-11.0195665737
 11
-13.8929974233
 21
-11.0195665737
  0
LINE
  5
4E3
100
AcDbEntity
  8
0
100
AcDbLine
 62
7
  6
CONTINUOUS
 10
-26.803757595
 20
-10.493228629
 11
-26.2700017843
 21
-10.493228629
  0
LINE
  5
4E4
100
AcDbEntity
  8
0
100
AcDbLine
 62
7
  6
CONTINUOUS
 10
-22.8510628342
 20
-10.493228629
 11
-22.4293795723
 21
-10.493228629
  0
LINE
  5
4E5
100
AcDbEntity
  8
0
100
AcDbLine
 62
7
  6
CONTINUOUS
 10
-13.8929974233
 20
-10.493228629
 11
-12.9022436452
 21
-10.493228629
  0
LINE
  5
4E6
100
AcDbEntity
  8
0
100
AcDbLine
 62
7
  6
CONTINUOUS
 10
-7.7007863098
 20
-10.493228629
 11
-6.7100325316
 21
-10.493228629
  0
LINE
  5
4E7
100
AcDbEntity
  8
0
100
AcDbLine
 62
7
  6
CONTINUOUS
 10
-4.6872435679
 20
-10.493228629
 11
-3.7435763262
 21
-10.493228629
  0
LINE
  5
4E8
100
AcDbEntity
  8
0
100
AcDbLine
 62
7
  6
CONTINUOUS
 10
13.4043332354
 20
-10.493228629
 11
13.9380890462
 21
-10.493228629
  0
LINE
  5
4E9
100
AcDbEntity
  8
0
100
AcDbLine
 62
7
  6
CONTINUOUS
 10
18.1826561447
 20
-10.493228629
 11
18.7399551449
 21
-10.493228629
  0
LINE
  5
4EA
100
AcDbEntity
  8
0
100
AcDbLine
 62
7
  6
CONTINUOUS
 10
18.9670028858
 20
-10.493228629
 11
19.524301886
 21
-10.493228629
  0
LINE
  5
4EB
100
AcDbEntity
  8
0
100
AcDbLine
 62
7
  6
CONTINUOUS
 10
27.8012240744
 20
-10.493228629
 11
28.3585230746
 21
-10.493228629
  0
LINE
  5
4EC
100
AcDbEntity
  8
0
100
AcDbLine
 62
7
  6
CONTINUOUS
 10
28.5855708154
 20
-10.493228629
 11
29.1428698156
 21
-10.493228629
  0
LINE
  5
4ED
100
AcDbEntity
  8
0
100
AcDbLine
 62
7
  6
CONTINUOUS
 10
33.6541536403
 20
-10.2971419438
 11
33.380180621
 21
-10.2971419438
  0
LINE
  5
4EE
100
AcDbEntity
  8
0
100
AcDbLine
 62
7
  6
CONTINUOUS
 10
32.3658834959
 20
-10.2971419438
 11
32.0957805101
 21
-10.2971419438
  0
LINE
  5
4EF
100
AcDbEntity
  8
0
100
AcDbLine
 62
7
  6
CONTINUOUS
 10
31.1656587794
 20
-10.2971419438
 11
30.9386110386
 21
-10.2971419438
  0
LINE
  5
4F0
100
AcDbEntity
  8
0
100
AcDbLine
 62
7
  6
CONTINUOUS
 10
30.0747653839
 20
-10.2971419438
 11
29.8291732928
 21
-10.2971419438
  0
LINE
  5
4F1
100
AcDbEntity
  8
0
100
AcDbLine
 62
7
  6
CONTINUOUS
 10
29.1428698156
 20
-10.2971419438
 11
27.8012240744
 21
-10.2971419438
  0
LINE
  5
4F2
100
AcDbEntity
  8
0
100
AcDbLine
 62
7
  6
CONTINUOUS
 10
27.5225745743
 20
-10.2971419438
 11
27.2955268334
 21
-10.2971419438
  0
LINE
  5
4F3
100
AcDbEntity
  8
0
100
AcDbLine
 62
7
  6
CONTINUOUS
 10
26.2015695367
 20
-10.2971419438
 11
25.9745217959
 21
-10.2971419438
  0
LINE
  5
4F4
100
AcDbEntity
  8
0
100
AcDbLine
 62
7
  6
CONTINUOUS
 10
25.7839178812
 20
-10.2971419438
 11
25.5410670179
 21
-10.2971419438
  0
LINE
  5
4F5
100
AcDbEntity
  8
0
100
AcDbLine
 62
7
  6
CONTINUOUS
 10
24.4471097212
 20
-10.2971419438
 11
24.2057103371
 21
-10.2971419438
  0
LINE
  5
4F6
100
AcDbEntity
  8
0
100
AcDbLine
 62
7
  6
CONTINUOUS
 10
22.8298783811
 20
-10.2971419438
 11
22.58428629
 21
-10.2971419438
  0
LINE
  5
4F7
100
AcDbEntity
  8
0
100
AcDbLine
 62
7
  6
CONTINUOUS
 10
20.0093584232
 20
-10.2971419438
 11
19.7823106824
 21
-10.2971419438
  0
LINE
  5
4F8
100
AcDbEntity
  8
0
100
AcDbLine
 62
7
  6
CONTINUOUS
 10
19.524301886
 20
-10.2971419438
 11
18.1826561447
 21
-10.2971419438
  0
LINE
  5
4F9
100
AcDbEntity
  8
0
100
AcDbLine
 62
7
  6
CONTINUOUS
 10
13.9288975
 20
-10.2971419438
 11
13.1772854946
 21
-10.2971419438
  0
LINE
  5
4FA
100
AcDbEntity
  8
0
100
AcDbLine
 62
7
  6
CONTINUOUS
 10
12.2927991362
 20
-10.2971419438
 11
12.0472070451
 21
-10.2971419438
  0
LINE
  5
4FB
100
AcDbEntity
  8
0
100
AcDbLine
 62
7
  6
CONTINUOUS
 10
11.2267389939
 20
-10.2971419438
 11
10.931318981
 21
-10.2971419438
  0
LINE
  5
4FC
100
AcDbEntity
  8
0
100
AcDbLine
 62
7
  6
CONTINUOUS
 10
9.9318574306
 20
-10.2971419438
 11
9.5858030488
 21
-10.2971419438
  0
LINE
  5
4FD
100
AcDbEntity
  8
0
100
AcDbLine
 62
7
  6
CONTINUOUS
 10
1.1643959344
 20
-10.2971419438
 11
0.9992703047
 21
-10.2971419438
  0
LINE
  5
4FE
100
AcDbEntity
  8
0
100
AcDbLine
 62
7
  6
CONTINUOUS
 10
-2.4962650732
 20
-10.2971419438
 11
-2.7418571643
 21
-10.2971419438
  0
LINE
  5
4FF
100
AcDbEntity
  8
0
100
AcDbLine
 62
7
  6
CONTINUOUS
 10
-3.4797624007
 20
-10.2971419438
 11
-4.6872435679
 21
-10.2971419438
  0
LINE
  5
500
100
AcDbEntity
  8
0
100
AcDbLine
 62
7
  6
CONTINUOUS
 10
-5.0278151791
 20
-10.2971419438
 11
-5.25486292
 21
-10.2971419438
  0
LINE
  5
501
100
AcDbEntity
  8
0
100
AcDbLine
 62
7
  6
CONTINUOUS
 10
-6.107420675
 20
-10.2971419438
 11
-6.3488202167
 21
-10.2971419438
  0
LINE
  5
502
100
AcDbEntity
  8
0
100
AcDbLine
 62
7
  6
CONTINUOUS
 10
-6.7100325316
 20
-10.2971419438
 11
-7.9278340506
 21
-10.2971419438
  0
LINE
  5
503
100
AcDbEntity
  8
0
100
AcDbLine
 62
7
  6
CONTINUOUS
 10
-10.0538265329
 20
-10.2971419438
 11
-10.2808742738
 21
-10.2971419438
  0
LINE
  5
504
100
AcDbEntity
  8
0
100
AcDbLine
 62
7
  6
CONTINUOUS
 10
-10.4714781884
 20
-10.2971419438
 11
-10.7143290517
 21
-10.2971419438
  0
LINE
  5
505
100
AcDbEntity
  8
0
100
AcDbLine
 62
7
  6
CONTINUOUS
 10
-11.8082863484
 20
-10.2971419438
 11
-12.0496857326
 21
-10.2971419438
  0
LINE
  5
506
100
AcDbEntity
  8
0
100
AcDbLine
 62
7
  6
CONTINUOUS
 10
-12.9022436452
 20
-10.2971419438
 11
-14.1200451641
 21
-10.2971419438
  0
LINE
  5
507
100
AcDbEntity
  8
0
100
AcDbLine
 62
7
  6
CONTINUOUS
 10
-15.2346431646
 20
-10.2971419438
 11
-15.4616909054
 21
-10.2971419438
  0
LINE
  5
508
100
AcDbEntity
  8
0
100
AcDbLine
 62
7
  6
CONTINUOUS
 10
-16.3255365601
 20
-10.2971419438
 11
-16.5711286512
 21
-10.2971419438
  0
LINE
  5
509
100
AcDbEntity
  8
0
100
AcDbLine
 62
7
  6
CONTINUOUS
 10
-17.4328781099
 20
-10.2971419438
 11
-17.6599258507
 21
-10.2971419438
  0
LINE
  5
50A
100
AcDbEntity
  8
0
100
AcDbLine
 62
7
  6
CONTINUOUS
 10
-17.8505297654
 20
-10.2971419438
 11
-18.0933806287
 21
-10.2971419438
  0
LINE
  5
50B
100
AcDbEntity
  8
0
100
AcDbLine
 62
7
  6
CONTINUOUS
 10
-19.1873379254
 20
-10.2971419438
 11
-19.4287373095
 21
-10.2971419438
  0
LINE
  5
50C
100
AcDbEntity
  8
0
100
AcDbLine
 62
7
  6
CONTINUOUS
 10
-20.8045692655
 20
-10.2971419438
 11
-21.0501613566
 21
-10.2971419438
  0
LINE
  5
50D
100
AcDbEntity
  8
0
100
AcDbLine
 62
7
  6
CONTINUOUS
 10
-22.4204515707
 20
-10.2971319253
 11
-23.078110575
 21
-10.2971419438
  0
LINE
  5
50E
100
AcDbEntity
  8
0
100
AcDbLine
 62
7
  6
CONTINUOUS
 10
-26.2791933304
 20
-10.2971419438
 11
-27.0308053358
 21
-10.2971419438
  0
LINE
  5
50F
100
AcDbEntity
  8
0
100
AcDbLine
 62
7
  6
CONTINUOUS
 10
-27.9152916942
 20
-10.2971419438
 11
-28.1608837853
 21
-10.2971419438
  0
LINE
  5
510
100
AcDbEntity
  8
0
100
AcDbLine
 62
7
  6
CONTINUOUS
 10
-28.9813518366
 20
-10.2971419438
 11
-29.2767718494
 21
-10.2971419438
  0
LINE
  5
511
100
AcDbEntity
  8
0
100
AcDbLine
 62
7
  6
CONTINUOUS
 10
-30.2762333998
 20
-10.2971419438
 11
-30.6222877817
 21
-10.2971419438
  0
LINE
  5
512
100
AcDbEntity
  8
0
100
AcDbLine
 62
7
  6
CONTINUOUS
 10
-31.0041408003
 20
-10.2971419438
 11
-31.2311885412
 21
-10.2971419438
  0
LINE
  5
513
100
AcDbEntity
  8
0
100
AcDbLine
 62
7
  6
CONTINUOUS
 10
-31.4217924558
 20
-10.2971419438
 11
-31.6646433191
 21
-10.2971419438
  0
LINE
  5
514
100
AcDbEntity
  8
0
100
AcDbLine
 62
7
  6
CONTINUOUS
 10
-32.7586006158
 20
-10.2971419438
 11
-33.0
 21
-10.2971419438
  0
LINE
  5
515
100
AcDbEntity
  8
0
100
AcDbLine
 62
7
  6
CONTINUOUS
 10
-0.2598126217
 20
-10.2868215919
 11
-0.3928483901
 21
-10.2868215919
  0
LWPOLYLINE
  5
516
100
AcDbEntity
  8
0
100
AcDbPolyline
 62
7
  6
CONTINUOUS
 90
10
 70
0
 10
2.7311544785
 20
-11.0116649337
 10
2.7274761773
 20
-11.0116153746
 10
2.7237709124
 20
-11.0115054298
 10
2.7200386839
 20
-11.0113350993
 10
2.7162776234
 20
-11.0110969312
 10
2.7124895991
 20
-11.0107983773
 10
2.7086802163
 20
-11.0104617938
 10
2.7048513434
 20
-11.0100946328
 10
2.7010011118
 20
-11.0096894421
 10
2.6971295217
 20
-11.0092462218
  0
LWPOLYLINE
  5
517
100
AcDbEntity
  8
0
100
AcDbPolyline
 62
7
  6
CONTINUOUS
 90
10
 70
0
 10
8.0151746287
 20
-11.0116649337
 10
8.0114963275
 20
-11.0116153746
 10
8.0077910626
 20
-11.0115054298
 10
8.0040588341
 20
-11.0113350993
 10
8.0002977736
 20
-11.0110969312
 10
7.9965097493
 20
-11.0107983773
 10
7.9927003665
 20
-11.0104617938
 10
7.9888714936
 20
-11.0100946328
 10
7.985021262
 20
-11.0096894421
 10
7.9811496719
 20
-11.0092462218
  0
LWPOLYLINE
  5
518
100
AcDbEntity
  8
0
100
AcDbPolyline
 62
7
  6
CONTINUOUS
 90
40
 70
0
 10
-26.2700017843
 20
-10.493228629
 10
-26.2351008801
 20
-10.4938024358
 10
-26.2015917133
 20
-10.4959899431
 10
-26.1694742838
 20
-10.4997911509
 10
-26.138519769
 20
-10.50522866
 10
-26.1089569915
 20
-10.5122798696
 10
-26.0814724194
 20
-10.5208769776
 10
-26.0563534616
 20
-10.5309961913
 10
-26.0333127092
 20
-10.5426613034
 10
-26.0121744039
 20
-10.5558758896
 10
-25.9929242486
 20
-10.5706509415
 10
-25.9755765404
 20
-10.5869754674
 10
-25.9599984114
 20
-10.6048200679
 10
-25.9460188418
 20
-10.6242919721
 10
-25.9338088514
 20
-10.6452839508
 10
-25.9237486319
 20
-10.6674449175
 10
-25.9158848177
 20
-10.6908135496
 10
-25.9101707744
 20
-10.7153511696
 10
-25.9068467898
 20
-10.7405906584
 10
-25.905994463
 20
-10.7667973742
 10
-25.9075321949
 20
-10.7937059589
 10
-25.9114554773
 20
-10.8200532181
 10
-25.9179233077
 20
-10.8457661805
 10
-25.9267766884
 20
-10.8709178175
 10
-25.9375341183
 20
-10.8944638489
 10
-25.9500291238
 20
-10.9160624294
 10
-25.9644281783
 20
-10.9360554042
 10
-25.9807492009
 20
-10.9544240292
 10
-25.9989137307
 20
-10.9711525428
 10
-26.0190002285
 20
-10.9862567065
 10
-26.0412619957
 20
-10.9997650615
 10
-26.0659413345
 20
-11.0117111835
 10
-26.0927959428
 20
-11.0220614967
 10
-26.1213522158
 20
-11.0307438143
 10
-26.1515742831
 20
-11.0376280668
 10
-26.1834980152
 20
-11.0428443237
 10
-26.2167574193
 20
-11.0467106062
 10
-26.2512304978
 20
-11.0493329215
 10
-26.2870392483
 20
-11.0506052626
 10
-26.803757595
 20
-11.0505276293
  0
LWPOLYLINE
  5
519
100
AcDbEntity
  8
0
100
AcDbPolyline
 62
7
  6
CONTINUOUS
 90
40
 70
0
 10
13.9380890462
 20
-10.493228629
 10
13.9729899503
 20
-10.4938024358
 10
14.0064991171
 20
-10.4959899431
 10
14.0386165466
 20
-10.4997911509
 10
14.0695710615
 20
-10.50522866
 10
14.099133839
 20
-10.5122798696
 10
14.1266184111
 20
-10.5208769776
 10
14.1517373689
 20
-10.5309961913
 10
14.1747781212
 20
-10.5426613034
 10
14.1959164266
 20
-10.5558758896
 10
14.2151665818
 20
-10.5706509415
 10
14.2325142901
 20
-10.5869754674
 10
14.2480924191
 20
-10.6048200679
 10
14.2620719887
 20
-10.6242919721
 10
14.274281979
 20
-10.6452839508
 10
14.2843421986
 20
-10.6674449175
 10
14.2922060127
 20
-10.6908135496
 10
14.2979200561
 20
-10.7153511696
 10
14.3012440406
 20
-10.7405906584
 10
14.3020963675
 20
-10.7667973742
 10
14.3005586355
 20
-10.7937059589
 10
14.2966353532
 20
-10.8200532181
 10
14.2901675228
 20
-10.8457661805
 10
14.281314142
 20
-10.8709178175
 10
14.2705567122
 20
-10.8944638489
 10
14.2580617067
 20
-10.9160624294
 10
14.2436626521
 20
-10.9360554042
 10
14.2273416295
 20
-10.9544240292
 10
14.2091770998
 20
-10.9711525428
 10
14.189090602
 20
-10.9862567065
 10
14.1668288347
 20
-10.9997650615
 10
14.1421494959
 20
-11.0117111835
 10
14.1152948877
 20
-11.0220614967
 10
14.0867386146
 20
-11.0307438143
 10
14.0565165473
 20
-11.0376280668
 10
14.0245928152
 20
-11.0428443237
 10
13.9913334111
 20
-11.0467106062
 10
13.9568603326
 20
-11.0493329215
 10
13.9210515821
 20
-11.0506052626
 10
13.4043332354
 20
-11.0505276293
  0
LWPOLYLINE
  5
51A
100
AcDbEntity
  8
0
100
AcDbPolyline
 62
7
  6
CONTINUOUS
 90
19
 70
0
 10
-24.0698317435
 20
-10.4622675735
 10
-24.0310275368
 20
-10.4630127164
 10
-23.9939179522
 20
-10.4656775736
 10
-23.9585029896
 20
-10.4702621452
 10
-23.9245338004
 20
-10.4767972833
 10
-23.8922592333
 20
-10.4852521358
 10
-23.8624258342
 20
-10.4955341458
 10
-23.8354074316
 20
-10.5075576309
 10
-23.810830197
 20
-10.5214082734
 10
-23.7883191913
 20
-10.537250564
 10
-23.7679513518
 20
-10.5549610988
 10
-23.7496497412
 20
-10.5746632816
 10
-23.7328086076
 20
-10.5968918141
 10
-23.7170352815
 20
-10.6219059407
 10
-23.7027224324
 20
-10.649446417
 10
-23.6904423171
 20
-10.6792702123
 10
-23.6803856879
 20
-10.7112963162
 10
-23.6723617925
 20
-10.7456057391
 10
-23.6663706308
 20
-10.782198481
  0
LWPOLYLINE
  5
51B
100
AcDbEntity
  8
0
100
AcDbPolyline
 62
7
  6
CONTINUOUS
 90
19
 70
0
 10
17.3250995504
 20
-10.4622675735
 10
17.3639037571
 20
-10.4630127164
 10
17.4010133417
 20
-10.4656775736
 10
17.4364283043
 20
-10.4702621452
 10
17.4703974935
 20
-10.4767972833
 10
17.5026720606
 20
-10.4852521358
 10
17.5325054597
 20
-10.4955341458
 10
17.5595238623
 20
-10.5075576309
 10
17.5841010969
 20
-10.5214082734
 10
17.6066121026
 20
-10.537250564
 10
17.626979942
 20
-10.5549610988
 10
17.6452815526
 20
-10.5746632816
 10
17.6621226862
 20
-10.5968918141
 10
17.6778960124
 20
-10.6219059407
 10
17.6922088615
 20
-10.649446417
 10
17.7044889768
 20
-10.6792702123
 10
17.714545606
 20
-10.7112963162
 10
17.7225695014
 20
-10.7456057391
 10
17.7285606631
 20
-10.782198481
  0
LWPOLYLINE
  5
51C
100
AcDbEntity
  8
0
100
AcDbPolyline
 62
7
  6
CONTINUOUS
 90
36
 70
0
 10
2.824682677
 20
-11.1717917242
 10
2.8607111378
 20
-11.1733261422
 10
2.894946128
 20
-11.1775565446
 10
2.9273876476
 20
-11.1844829312
 10
2.9580338918
 20
-11.1942137661
 10
2.9868866654
 20
-11.2066405852
 10
3.0139513829
 20
-11.2214379969
 10
3.0393926958
 20
-11.2387390782
 10
3.0630459526
 20
-11.258410752
 10
3.0844226132
 20
-11.279728396
 10
3.103443658
 20
-11.302500448
 10
3.1201881066
 20
-11.32691847
 10
3.1344044776
 20
-11.3528325261
 10
3.1460581368
 20
-11.3801563314
 10
3.1551837185
 20
-11.4089761707
 10
3.1616336431
 20
-11.4394009625
 10
3.1654031275
 20
-11.4722072163
 10
3.1664969549
 20
-11.5066184225
 10
3.164781896
 20
-11.5404139705
 10
3.1601731528
 20
-11.573146988
 10
3.1527555234
 20
-11.6052643473
 10
3.1426501729
 20
-11.6358860543
 10
3.1298089707
 20
-11.6647450146
 10
3.1142800474
 20
-11.6921083225
 10
3.0963289601
 20
-11.7178972665
 10
3.0757685464
 20
-11.7423778075
 10
3.0527859687
 20
-11.7652839847
 10
3.0282082709
 20
-11.7857392042
 10
3.0023041861
 20
-11.8035132291
 10
2.9748049813
 20
-11.8188362964
 10
2.9457315009
 20
-11.8315225227
 10
2.9147237075
 20
-11.8415276967
 10
2.8821416386
 20
-11.8488960298
 10
2.8490862505
 20
-11.8535742723
 10
2.8152288654
 20
-11.8554911142
 10
2.7808981611
 20
-11.8547178656
  0
LWPOLYLINE
  5
51D
100
AcDbEntity
  8
0
100
AcDbPolyline
 62
7
  6
CONTINUOUS
 90
36
 70
0
 10
8.1087028272
 20
-11.1717917242
 10
8.144731288
 20
-11.1733261422
 10
8.1789662782
 20
-11.1775565446
 10
8.2114077978
 20
-11.1844829312
 10
8.242054042
 20
-11.1942137661
 10
8.2709068156
 20
-11.2066405852
 10
8.2979715331
 20
-11.2214379969
 10
8.323412846
 20
-11.2387390782
 10
8.3470661028
 20
-11.258410752
 10
8.3684427634
 20
-11.279728396
 10
8.3874638082
 20
-11.302500448
 10
8.4042082568
 20
-11.32691847
 10
8.4184246278
 20
-11.3528325261
 10
8.430078287
 20
-11.3801563314
 10
8.4392038687
 20
-11.4089761707
 10
8.4456537933
 20
-11.4394009625
 10
8.4494232777
 20
-11.4722072163
 10
8.4505171051
 20
-11.5066184225
 10
8.4488020462
 20
-11.5404139705
 10
8.444193303
 20
-11.573146988
 10
8.4367756736
 20
-11.6052643473
 10
8.4266703231
 20
-11.6358860543
 10
8.4138291209
 20
-11.6647450146
 10
8.3983001976
 20
-11.6921083225
 10
8.3803491103
 20
-11.7178972665
 10
8.3597886966
 20
-11.7423778075
 10
8.3368061189
 20
-11.7652839847
 10
8.3122284211
 20
-11.7857392042
 10
8.2863243363
 20
-11.8035132291
 10
8.2588251315
 20
-11.8188362964
 10
8.2297516511
 20
-11.8315225227
 10
8.1987438578
 20
-11.8415276967
 10
8.1661617888
 20
-11.8488960298
 10
8.1331064007
 20
-11.8535742723
 10
8.0992490156
 20
-11.8554911142
 10
8.0649183113
 20
-11.8547178656
  0
LWPOLYLINE
  5
51E
100
AcDbEntity
  8
0
100
AcDbPolyline
 62
7
  6
CONTINUOUS
 90
19
 70
0
 10
-8.9356808574
 20
-10.4622675735
 10
-8.8949366378
 20
-10.4640771778
 10
-8.8561706771
 20
-10.4681761685
 10
-8.8193829754
 20
-10.4745645456
 10
-8.7844362146
 20
-10.4834318806
 10
-8.7514677127
 20
-10.494588602
 10
-8.7208894241
 20
-10.5074659951
 10
-8.6931009699
 20
-10.5217964709
 10
-8.6677027289
 20
-10.5378476183
 10
-8.6439077915
 20
-10.5558534901
 10
-8.6216644615
 20
-10.57571819
 10
-8.6010244351
 20
-10.5975376143
 10
-8.5813558922
 20
-10.6218335034
 10
-8.5623500441
 20
-10.6489141604
 10
-8.5443156795
 20
-10.6784712823
 10
-8.5275473434
 20
-10.710101701
 10
-8.5121432174
 20
-10.7436710272
 10
-8.4980051199
 20
-10.7793136502
 10
-8.4851330508
 20
-10.8170295701
  0
LWPOLYLINE
  5
51F
100
AcDbEntity
  8
0
100
AcDbPolyline
 62
7
  6
CONTINUOUS
 90
19
 70
0
 10
21.1275040987
 20
-10.4622675735
 10
21.1682483184
 20
-10.4640771778
 10
21.2070142791
 20
-10.4681761685
 10
21.2438019808
 20
-10.4745645456
 10
21.2787487416
 20
-10.4834318806
 10
21.3117172434
 20
-10.494588602
 10
21.342295532
 20
-10.5074659951
 10
21.3700839863
 20
-10.5217964709
 10
21.3954822273
 20
-10.5378476183
 10
21.4192771646
 20
-10.5558534901
 10
21.4415204947
 20
-10.57571819
 10
21.462160521
 20
-10.5975376143
 10
21.481829064
 20
-10.6218335034
 10
21.500834912
 20
-10.6489141604
 10
21.5188692766
 20
-10.6784712823
 10
21.5356376128
 20
-10.710101701
 10
21.5510417388
 20
-10.7436710272
 10
21.5651798363
 20
-10.7793136502
 10
21.5780519053
 20
-10.8170295701
  0
LWPOLYLINE
  5
520
100
AcDbEntity
  8
0
100
AcDbPolyline
 62
7
  6
CONTINUOUS
 90
17
 70
0
 10
2.7808981611
 20
-11.8547178656
 10
2.7481811274
 20
-11.8514152074
 10
2.7176878404
 20
-11.8455184279
 10
2.6888082239
 20
-11.8370922388
 10
2.6617990391
 20
-11.8264914564
 10
2.6368246917
 20
-11.8138354069
 10
2.6137207759
 20
-11.799004764
 10
2.5922508358
 20
-11.7819963656
 10
2.5724383199
 20
-11.762941496
 10
2.5542597796
 20
-11.7417088708
 10
2.5374084136
 20
-11.7179014747
 10
2.5217373994
 20
-11.6911991567
 10
2.5073935594
 20
-11.6619220679
 10
2.4945105597
 20
-11.6306336455
 10
2.4831329556
 20
-11.5975217021
 10
2.4732161918
 20
-11.5623984251
 10
2.4647602682
 20
-11.5252638146
  0
LWPOLYLINE
  5
521
100
AcDbEntity
  8
0
100
AcDbPolyline
 62
7
  6
CONTINUOUS
 90
17
 70
0
 10
8.0649183113
 20
-11.8547178656
 10
8.0322012776
 20
-11.8514152074
 10
8.0017079906
 20
-11.8455184279
 10
7.9728283741
 20
-11.8370922388
 10
7.9458191893
 20
-11.8264914564
 10
7.9208448419
 20
-11.8138354069
 10
7.8977409261
 20
-11.799004764
 10
7.876270986
 20
-11.7819963656
 10
7.8564584701
 20
-11.762941496
 10
7.8382799298
 20
-11.7417088708
 10
7.8214285638
 20
-11.7179014747
 10
7.8057575496
 20
-11.6911991567
 10
7.7914137096
 20
-11.6619220679
 10
7.7785307099
 20
-11.6306336455
 10
7.7671531058
 20
-11.5975217021
 10
7.757236342
 20
-11.5623984251
 10
7.7487804184
 20
-11.5252638146
  0
LINE
  5
522
100
AcDbEntity
  8
0
100
AcDbLine
 62
7
  6
CONTINUOUS
 10
2.2789939348
 20
-10.7305967217
 11
2.4854009719
 21
-10.7615577773
  0
LINE
  5
523
100
AcDbEntity
  8
0
100
AcDbLine
 62
7
  6
CONTINUOUS
 10
7.563014085
 20
-10.7305967217
 11
7.7694211221
 21
-10.7615577773
  0
LINE
  5
524
100
AcDbEntity
  8
0
100
AcDbLine
 62
7
  6
CONTINUOUS
 10
-6.1217724758
 20
-10.6939916376
 11
-5.2692145633
 21
-12.0
  0
LINE
  5
525
100
AcDbEntity
  8
0
100
AcDbLine
 62
7
  6
CONTINUOUS
 10
-5.25486292
 20
-11.6031501487
 11
-6.107420675
 21
-10.2971419438
  0
LINE
  5
526
100
AcDbEntity
  8
DRAFT
100
AcDbLine
 62
7
  6
CONTINUOUS
 10
3.65
 20
-30.097853003
 11
3.25
 21
-29.40503268
  0
LINE
  5
527
100
AcDbEntity
  8
DRAFT
100
AcDbLine
 62
7
  6
CONTINUOUS
 10
3.65
 20
-29.9756675485
 11
3.3110927272
 21
-29.388662933
  0
LWPOLYLINE
  5
528
100
AcDbEntity
  8
0
100
AcDbPolyline
 62
7
  6
CONTINUOUS
 90
44
 70
0
 10
-8.25808531
 20
-10.764782779
 10
-8.2773032884
 20
-10.7077739756
 10
-8.2995557978
 20
-10.6539839546
 10
-8.3248428383
 20
-10.603412716
 10
-8.3534606855
 20
-10.555844057
 10
-8.3851130638
 20
-10.5114941805
 10
-8.418911146
 20
-10.4710116946
 10
-8.4544635963
 20
-10.4347482143
 10
-8.4921617504
 20
-10.4023521246
 10
-8.5322907887
 20
-10.3734171895
 10
-8.5747025691
 20
-10.3478331572
 10
-8.6195452338
 20
-10.3257102795
 10
-8.667548389
 20
-10.3069730756
 10
-8.7192088567
 20
-10.2914079275
 10
-8.7740298149
 20
-10.2792284531
 10
-8.8312504039
 20
-10.2710000257
 10
-8.8915183829
 20
-10.266781491
 10
-8.9541859926
 20
-10.2665140032
 10
-9.0165490952
 20
-10.2705863982
 10
-9.0784224021
 20
-10.2792648588
 10
-9.139991202
 20
-10.2922832022
 10
-9.1991072223
 20
-10.3092317163
 10
-9.2553304985
 20
-10.3302225877
 10
-9.3091009952
 20
-10.3551436297
 10
-9.359590334
 20
-10.3832485706
 10
-9.4064716103
 20
-10.4142658426
 10
-9.4500717287
 20
-10.4484670136
 10
-9.4905430237
 20
-10.4859205146
 10
-9.5278280714
 20
-10.5263862042
 10
-9.5619842958
 20
-10.5701042239
 10
-9.5933363037
 20
-10.61786343
 10
-9.6222675549
 20
-10.669855249
 10
-9.6483945896
 20
-10.7258882544
 10
-9.6708916351
 20
-10.7861770224
 10
-9.6897671742
 20
-10.8511782108
 10
-9.705012724
 20
-10.9204351617
 10
-9.7157770634
 20
-10.9927924787
 10
-9.7218290274
 20
-11.0693699015
 10
-9.7233997811
 20
-11.1490476902
 10
-9.7203315982
 20
-11.2273112292
 10
-9.712177239
 20
-11.303551026
 10
-9.6993839433
 20
-11.3783765731
 10
-9.6831357048
 20
-11.449101731
 10
-9.6635475653
 20
-11.514877009
  0
LINE
  5
529
100
AcDbEntity
  8
DRAFT
100
AcDbLine
 62
7
  6
CONTINUOUS
 10
-4.3249432208
 20
-17.6
 11
-4.3598533507
 21
-15.6
  0
LINE
  5
52A
100
AcDbEntity
  8
0
100
AcDbLine
 62
7
  6
CONTINUOUS
 10
-7.9278340506
 20
-10.2971419438
 11
-7.9278340506
 21
-12.0
  0
LINE
  5
52B
100
AcDbEntity
  8
0
100
AcDbLine
 62
7
  6
CONTINUOUS
 10
-7.7007863098
 20
-11.8039133147
 11
-7.7007863098
 21
-11.215653259
  0
LINE
  5
52C
100
AcDbEntity
  8
0
100
AcDbLine
 62
7
  6
CONTINUOUS
 10
-7.7007863098
 20
-11.0195665737
 11
-7.7007863098
 21
-10.493228629
  0
LINE
  5
52D
100
AcDbEntity
  8
0
100
AcDbLine
 62
7
  6
CONTINUOUS
 10
-7.0
 20
53.5
 11
-7.0
 21
47.2
  0
LINE
  5
52E
100
AcDbEntity
  8
0
100
AcDbLine
 62
7
  6
CONTINUOUS
 10
-7.0
 20
-53.5
 11
-7.0
 21
-47.2
  0
LINE
  5
52F
100
AcDbEntity
  8
0
100
AcDbLine
 62
7
  6
CONTINUOUS
 10
-6.7719546428
 20
-11.215653259
 11
-6.7719546428
 21
-11.0195665737
  0
LINE
  5
530
100
AcDbEntity
  8
0
100
AcDbLine
 62
7
  6
CONTINUOUS
 10
-6.7100325316
 20
-10.493228629
 11
-6.7100325316
 21
-10.2971419438
  0
LINE
  5
531
100
AcDbEntity
  8
0
100
AcDbLine
 62
7
  6
CONTINUOUS
 10
-6.6687511242
 20
-12.0
 11
-6.6687511242
 21
-11.8039133147
  0
LINE
  5
532
100
AcDbEntity
  8
0
100
AcDbLine
 62
7
  6
CONTINUOUS
 10
-6.3488202167
 20
-10.2971419438
 11
-6.3488202167
 21
-12.0
  0
LINE
  5
533
100
AcDbEntity
  8
0
100
AcDbLine
 62
7
  6
CONTINUOUS
 10
-6.1217724758
 20
-12.0
 11
-6.1217724758
 21
-10.6939916376
  0
LINE
  5
534
100
AcDbEntity
  8
DRAFT
100
AcDbLine
 62
7
  6
CONTINUOUS
 10
-6.0
 20
1.5
 11
-6.0
 21
-1.5
  0
LINE
  5
535
100
AcDbEntity
  8
RACCORDO
100
AcDbLine
 62
7
  6
CONTINUOUS
 10
-5.9371426149
 20
-0.9542982275
 11
-5.9371426149
 21
0.9542982275
  0
LINE
  5
536
100
AcDbEntity
  8
0
100
AcDbLine
 62
7
  6
CONTINUOUS
 10
-5.5
 20
-46.6
 11
-5.5
 21
-53.5
  0
LINE
  5
537
100
AcDbEntity
  8
0
100
AcDbLine
 62
7
  6
CONTINUOUS
 10
-5.25486292
 20
-10.2971419438
 11
-5.25486292
 21
-11.6031501487
  0
LINE
  5
538
100
AcDbEntity
  8
0
100
AcDbLine
 62
7
  6
CONTINUOUS
 10
-5.0278151791
 20
-12.0
 11
-5.0278151791
 21
-10.2971419438
  0
LINE
  5
539
100
AcDbEntity
  8
RACCORDO
100
AcDbLine
 62
7
  6
CONTINUOUS
 10
-4.9823085464
 20
-0.9542982275
 11
-4.9823085464
 21
0.9542982275
  0
LINE
  5
53A
100
AcDbEntity
  8
0
100
AcDbLine
 62
7
  6
CONTINUOUS
 10
-4.7904470864
 20
-11.7956891589
 11
-4.7904470864
 21
-12.0
  0
LINE
  5
53B
100
AcDbEntity
  8
0
100
AcDbLine
 62
7
  6
CONTINUOUS
 10
-4.6872435679
 20
-10.2971419438
 11
-4.6872435679
 21
-10.493228629
  0
LINE
  5
53C
100
AcDbEntity
  8
0
100
AcDbLine
 62
7
  6
CONTINUOUS
 10
-4.5
 20
-54.0
 11
-4.5
 21
-43.7
  0
LINE
  5
53D
100
AcDbEntity
  8
DRAFT
100
AcDbLine
 62
7
  6
CONTINUOUS
 10
-4.5
 20
-21.25
 11
-4.5
 21
-20.3810194482
  0
LINE
  5
53E
100
AcDbEntity
  8
SMUSSO
100
AcDbLine
 62
7
  6
CONTINUOUS
 10
-4.5
 20
-20.3810194482
 11
-4.5
 21
-17.75
  0
LINE
  5
53F
100
AcDbEntity
  8
DRAFT
100
AcDbLine
 62
7
  6
CONTINUOUS
 10
-4.5
 20
-1.5
 11
-4.5
 21
1.5
  0
LINE
  5
540
100
AcDbEntity
  8
RACCORDO
100
AcDbLine
 62
7
  6
CONTINUOUS
 10
-4.4
 20
-49.6000761524
 11
-4.4
 21
-43.7
  0
LINE
  5
541
100
AcDbEntity
  8
RACCORDO
100
AcDbLine
 62
7
  6
CONTINUOUS
 10
-4.4
 20
-21.25
 11
-4.4
 21
-16.7
  0
LINE
  5
542
100
AcDbEntity
  8
RACCORDO
100
AcDbLine
 62
7
  6
CONTINUOUS
 10
-4.3790539221
 20
-15.9
 11
-4.3790539221
 21
-16.4
  0
LINE
  5
543
100
AcDbEntity
  8
RACCORDO
100
AcDbLine
 62
7
  6
CONTINUOUS
 10
-4.3249432208
 20
-49.5250193732
 11
-4.3249432208
 21
-43.7
  0
LINE
  5
544
100
AcDbEntity
  8
RACCORDO
100
AcDbLine
 62
7
  6
CONTINUOUS
 10
-4.3249432208
 20
-21.25
 11
-4.3249432208
 21
-17.6
  0
LINE
  5
545
100
AcDbEntity
  8
DRAFT
100
AcDbLine
 62
7
  6
CONTINUOUS
 10
-4.3776508009
 20
-15.6
 11
-4.3790539221
 21
-15.9
  0
LWPOLYLINE
  5
546
100
AcDbEntity
  8
0
100
AcDbPolyline
 62
7
  6
CONTINUOUS
 90
42
 70
0
 10
-8.4438516434
 20
-11.4023869826
 10
-8.4580377509
 20
-11.4559334908
 10
-8.4747502571
 20
-11.5058495884
 10
-8.4939891618
 20
-11.5521352755
 10
-8.5159857927
 20
-11.5948610615
 10
-8.5405088222
 20
-11.633956437
 10
-8.566864268
 20
-11.669209873
 10
-8.594739171
 20
-11.7003126989
 10
-8.6244464902
 20
-11.7275735853
 10
-8.6562311201
 20
-11.7517070153
 10
-8.6900236083
 20
-11.7729221976
 10
-8.7258934073
 20
-11.7910099236
 10
-8.7642937684
 20
-11.8060570499
 10
-8.8056603942
 20
-11.8183238367
 10
-8.8495575821
 20
-11.8275500238
 10
-8.895131476
 20
-11.8330416871
 10
-8.943002404
 20
-11.8346057335
 10
-8.992550038
 20
-11.8324352561
 10
-9.0410595379
 20
-11.8264156095
 10
-9.0882135211
 20
-11.816230915
 10
-9.1343293703
 20
-11.8021970513
 10
-9.1776443935
 20
-11.7851470096
 10
-9.2176068864
 20
-11.7652358304
 10
-9.2547685534
 20
-11.7423084731
 10
-9.2890218156
 20
-11.7167328073
 10
-9.3202206116
 20
-11.6887670392
 10
-9.348511003
 20
-11.6581529628
 10
-9.3742235954
 20
-11.6244838295
 10
-9.3973926947
 20
-11.587618453
 10
-9.4179839951
 20
-11.5476980198
 10
-9.4362251854
 20
-11.504739341
 10
-9.4522292362
 20
-11.4586453537
 10
-9.4658831769
 20
-11.4095131207
 10
-9.4770757848
 20
-11.3576506422
 10
-9.4859140713
 20
-11.3027064115
 10
-9.4922910251
 20
-11.2450319352
 10
-9.4957743894
 20
-11.1859897332
 10
-9.4962513843
 20
-11.1247727107
 10
-9.4938347896
 20
-11.0621879625
 10
-9.4884306888
 20
-11.0020192927
 10
-9.4798599967
 20
-10.9452687136
 10
-9.4683017985
 20
-10.890934213
  0
LWPOLYLINE
  5
547
100
AcDbEntity
  8
0
100
AcDbPolyline
 62
7
  6
CONTINUOUS
 90
17
 70
0
 10
-9.4683017985
 20
-10.890934213
 10
-9.4541994327
 20
-10.8397935578
 10
-9.4376519009
 20
-10.7920065717
 10
-9.4185602015
 20
-10.7474134311
 10
-9.3970706683
 20
-10.7063124324
 10
-9.373251
 20
-10.6689415405
 10
-9.3470334979
 20
-10.6350627905
 10
-9.3183614
 20
-10.6042605832
 10
-9.2874247718
 20
-10.5764900727
 10
-9.2540335478
 20
-10.551796105
 10
-9.2175607696
 20
-10.5298976195
 10
-9.1776891801
 20
-10.5104928606
 10
-9.1347360364
 20
-10.4938835839
 10
-9.089026151
 20
-10.4806939962
 10
-9.0406677948
 20
-10.4711321663
 10
-8.9895526969
 20
-10.4649900254
 10
-8.9356808574
 20
-10.4622675735
  0
LWPOLYLINE
  5
548
100
AcDbEntity
  8
0
100
AcDbPolyline
 62
7
  6
CONTINUOUS
 90
9
 70
0
 10
-11.1950933
 20
-11.5624249938
 10
-11.206564714
 20
-11.5936678888
 10
-11.2176741925
 20
-11.6247976286
 10
-11.2284195974
 20
-11.6558188946
 10
-11.2388030668
 20
-11.6867270054
 10
-11.2488310152
 20
-11.7175079169
 10
-11.2585055808
 20
-11.7481569478
 10
-11.2678246255
 20
-11.7786787795
 10
-11.2767881491
 20
-11.8090734119
  0
LINE
  5
549
100
AcDbEntity
  8
0
100
AcDbLine
 62
7
  6
CONTINUOUS
 10
-10.7143290517
 20
-10.2971419438
 11
-11.1950933
 21
-11.5624249938
  0
LINE
  5
54A
100
AcDbEntity
  8
0
100
AcDbLine
 62
7
  6
CONTINUOUS
 10
-11.1506863154
 20
-12.0
 11
-10.4714781884
 21
-10.2971419438
  0
LINE
  5
54B
100
AcDbEntity
  8
0
100
AcDbLine
 62
7
  6
CONTINUOUS
 10
-15.193592
 20
-3.95746
 11
-15.04254
 21
-3.806408
  0
LWPOLYLINE
  5
54C
100
AcDbEntity
  8
0
100
AcDbPolyline
 62
7
  6
CONTINUOUS
 90
40
 70
0
 10
-26.1538977865
 20
-11.2259736108
 10
-26.1017940389
 20
-11.2171795985
 10
-26.0525565998
 20
-11.2060343139
 10
-26.0061854693
 20
-11.1925377572
 10
-25.96247788
 20
-11.1765335564
 10
-25.9216365993
 20
-11.1581780834
 10
-25.8842699294
 20
-11.1379404541
 10
-25.850744095
 20
-11.1159874803
 10
-25.8206928714
 20
-11.0921523501
 10
-25.7936258868
 20
-11.0664037438
 10
-25.7694709761
 20
-11.0387539717
 10
-25.7483003044
 20
-11.0091907235
 10
-25.7298399954
 20
-10.9776457488
 10
-25.7138637325
 20
-10.944126733
 10
-25.7005978322
 20
-10.9086259908
 10
-25.6904473682
 20
-10.8710522159
 10
-25.683434523
 20
-10.8307445974
 10
-25.6795371139
 20
-10.7883639462
 10
-25.6790936662
 20
-10.7458013886
 10
-25.6822870119
 20
-10.7030613906
 10
-25.6889343189
 20
-10.6601394862
 10
-25.6988256162
 20
-10.6189134034
 10
-25.7122262861
 20
-10.5796940464
 10
-25.7288709463
 20
-10.542170511
 10
-25.7477534793
 20
-10.5072878128
 10
-25.7686819536
 20
-10.4752339426
 10
-25.7918483007
 20
-10.4458209096
 10
-25.8168221978
 20
-10.4194297577
 10
-25.843254324
 20
-10.3963494019
 10
-25.8714940002
 20
-10.3762909272
 10
-25.9021588661
 20
-10.3587686318
 10
-25.9355073711
 20
-10.3437425544
 10
-25.9712810659
 20
-10.3312526563
 10
-26.009322241
 20
-10.320933119
 10
-26.0497886095
 20
-10.3129108878
 10
-26.0925224583
 20
-10.3070590173
 10
-26.1368929397
 20
-10.3026308531
 10
-26.1826897708
 20
-10.2993775104
 10
-26.2301232344
 20
-10.297547874
 10
-26.2791933304
 20
-10.2971419438
  0
LINE
  5
54D
100
AcDbEntity
  8
0
100
AcDbLine
 62
7
  6
CONTINUOUS
 10
-25.097226
 20
-5.95746
 11
-14.947226
 21
-5.95746
  0
LINE
  5
54E
100
AcDbEntity
  8
0
100
AcDbLine
 62
7
  6
CONTINUOUS
 10
-14.947226
 20
-4.75746
 11
-25.097226
 21
-4.75746
  0
LWPOLYLINE
  5
54F
100
AcDbEntity
  8
0
100
AcDbPolyline
 62
7
  6
CONTINUOUS
 90
16
 70
0
 10
17.3392093068
 20
-10.995055679
 10
17.3114185882
 20
-10.9883910439
 10
17.2844240326
 20
-10.981613011
 10
17.25822564
 20
-10.9747215805
 10
17.2328650261
 20
-10.9677231448
 10
17.2083005751
 20
-10.9606113114
 10
17.1844074399
 20
-10.9533669023
 10
17.1610987324
 20
-10.9460448183
 10
17.1384613407
 20
-10.9385901586
 10
17.1166310809
 20
-10.9308190425
 10
17.095436735
 20
-10.9228434166
 10
17.075049521
 20
-10.9145513343
 10
17.0561189095
 20
-10.9054230755
 10
17.0388613907
 20
-10.8952854003
 10
17.0230604743
 20
-10.8843115486
 10
17.0087161605
 20
-10.8725015204
  0
LINE
  5
550
100
AcDbEntity
  8
0
100
AcDbLine
 62
7
  6
CONTINUOUS
 10
21.8463810535
 20
-11.4593102545
 11
21.6193333127
 21
-11.4023869826
  0
LWPOLYLINE
  5
551
100
AcDbEntity
  8
0
100
AcDbPolyline
 62
7
  6
CONTINUOUS
 90
3
 70
0
 10
17.2877688055
 20
-11.216540099
 10
17.358051353
 20
-11.2343757172
 10
17.4591429036
 20
-11.260363533
  0
LWPOLYLINE
  5
552
100
AcDbEntity
  8
0
100
AcDbPolyline
 62
7
  6
CONTINUOUS
 90
5
 70
0
 10
17.4591429036
 20
-11.260363533
 10
17.4914083041
 20
-11.269430107
 10
17.5227273873
 20
-11.2792054416
 10
17.5531865629
 20
-11.2894994959
 10
17.5827858309
 20
-11.3003122698
  0
LINE
  5
553
100
AcDbEntity
  8
0
100
AcDbLine
 62
7
  6
CONTINUOUS
 10
-15.04254
 20
5.806408
 11
-15.193592
 21
5.95746
  0
LINE
  5
554
100
AcDbEntity
  8
0
100
AcDbLine
 62
7
  6
CONTINUOUS
 10
-1.814154303
 20
-12.0
 11
-2.4962650732
 21
-10.2971419438
  0
LINE
  5
555
100
AcDbEntity
  8
0
100
AcDbLine
 62
7
  6
CONTINUOUS
 10
-2.3901775846
 20
-11.1044904677
 11
-2.3140462574
 21
-11.2982160738
  0
LINE
  5
556
100
AcDbEntity
  8
0
100
AcDbLine
 62
7
  6
CONTINUOUS
 10
-2.2455127275
 20
-11.4839824072
 11
-2.0555538446
 21
-12.0
  0
LWPOLYLINE
  5
557
100
AcDbEntity
  8
0
100
AcDbPolyline
 62
7
  6
CONTINUOUS
 90
6
 70
0
 10
-2.618012942
 20
-10.4725879253
 10
-2.5916849873
 20
-10.5583150021
 10
-2.563153384
 20
-10.6455647124
 10
-2.5324181321
 20
-10.7343370564
 10
-2.4990230739
 20
-10.824659084
 10
-2.3901775846
 20
-11.1044904677
  0
LINE
  5
558
100
AcDbEntity
  8
0
100
AcDbLine
 62
7
  6
CONTINUOUS
 10
-3.65
 20
-43.7
 11
-3.65
 21
-21.25
  0
LINE
  5
559
100
AcDbEntity
  8
0
100
AcDbLine
 62
7
  6
CONTINUOUS
 10
-3.4797624007
 20
-10.493228629
 11
-3.4797624007
 21
-10.2971419438
  0
LINE
  5
55A
100
AcDbEntity
  8
0
100
AcDbLine
 62
7
  6
CONTINUOUS
 10
-3.4384809933
 20
-12.0
 11
-3.4384809933
 21
-11.8039133147
  0
LINE
  5
55B
100
AcDbEntity
  8
DRAFT
100
AcDbLine
 62
7
  6
CONTINUOUS
 10
-3.3110927272
 20
-19.3
 11
-3.3110927272
 21
-29.388662933
  0
LINE
  5
55C
100
AcDbEntity
  8
DRAFT
100
AcDbLine
 62
7
  6
CONTINUOUS
 10
-3.3110927272
 20
-34.011337067
 11
-3.3110927272
 21
-48.6
  0
LINE
  5
55D
100
AcDbEntity
  8
DRAFT
100
AcDbLine
 62
7
  6
CONTINUOUS
 10
-3.2622185454
 20
-46.4
 11
-3.2622185454
 21
-41.6
  0
LINE
  5
55E
100
AcDbEntity
  8
DRAFT
100
AcDbLine
 62
7
  6
CONTINUOUS
 10
-3.25
 20
-29.40503268
 11
-3.25
 21
-33.99496732
  0
LINE
  5
55F
100
AcDbEntity
  8
DRAFT
100
AcDbLine
 62
7
  6
CONTINUOUS
 10
-3.2360359481
 20
-19.3
 11
-3.2360359481
 21
-41.6
  0
LINE
  5
560
100
AcDbEntity
  8
DRAFT
100
AcDbLine
 62
7
  6
CONTINUOUS
 10
-3.2360359481
 20
-46.4
 11
-3.2360359481
 21
-48.6
  0
LINE
  5
561
100
AcDbEntity
  8
0
100
AcDbLine
 62
7
  6
CONTINUOUS
 10
-3.15
 20
-21.25
 11
-3.15
 21
-41.6
  0
LINE
  5
562
100
AcDbEntity
  8
DRAFT
100
AcDbLine
 62
7
  6
CONTINUOUS
 10
-2.5
 20
18.0176397269
 11
-2.5
 21
15.95
  0
LINE
  5
563
100
AcDbEntity
  8
0
100
AcDbLine
 62
7
  6
CONTINUOUS
 10
-0.8893540849
 20
-10.7151161152
 11
-0.8893540849
 21
-10.9176529613
  0
LINE
  5
564
100
AcDbEntity
  8
DRAFT
100
AcDbLine
 62
7
  6
CONTINUOUS
 10
-0.75
 20
15.95
 11
-0.75
 21
18.0176397269
  0
LINE
  5
565
100
AcDbEntity
  8
0
100
AcDbLine
 62
7
  6
CONTINUOUS
 10
-0.4662196588
 20
-10.6651269355
 11
-0.4662196588
 21
-12.0
  0
LINE
  5
566
100
AcDbEntity
  8
0
100
AcDbLine
 62
7
  6
CONTINUOUS
 10
-0.2598126217
 20
-12.0
 11
-0.2598126217
 21
-10.2868215919
  0
LINE
  5
567
100
AcDbEntity
  8
0
100
AcDbLine
 62
7
  6
CONTINUOUS
 10
0.2046032118
 20
-11.4014195924
 11
0.2046032118
 21
-11.5975062776
  0
LINE
  5
568
100
AcDbEntity
  8
RACCORDO
100
AcDbLine
 62
7
  6
CONTINUOUS
 10
-6.0
 20
-1.5
 11
-5.953993641
 21
-1.453993641
  0
LINE
  5
569
100
AcDbEntity
  8
RACCORDO
100
AcDbLine
 62
7
  6
CONTINUOUS
 10
4.5
 20
-1.5
 11
4.8530095961
 21
-1.453993641
  0
LINE
  5
56A
100
AcDbEntity
  8
0
100
AcDbLine
 62
7
  6
CONTINUOUS
 10
-21.749134
 20
-3.515034
 11
-21.10828
 21
-3.515034
  0
LINE
  5
56B
100
AcDbEntity
  8
0
100
AcDbLine
 62
7
  6
CONTINUOUS
 10
-21.268494
 20
-3.35482
 11
-21.58892
 21
-3.35482
  0
LINE
  5
56C
100
AcDbEntity
  8
0
100
AcDbLine
 62
7
  6
CONTINUOUS
 10
-21.58892
 20
-2.713966
 11
-21.268494
 21
-2.713966
  0
LINE
  5
56D
100
AcDbEntity
  8
0
100
AcDbLine
 62
7
  6
CONTINUOUS
 10
-21.10828
 20
-2.66056
 11
-19.330916
 21
-2.66056
  0
LINE
  5
56E
100
AcDbEntity
  8
0
100
AcDbLine
 62
7
  6
CONTINUOUS
 10
-19.3309173058
 20
-2.553752
 11
-21.651262
 21
-2.553752
  0
LINE
  5
56F
100
AcDbEntity
  8
DRAFT
100
AcDbLine
 62
7
  6
CONTINUOUS
 10
-6.0
 20
-1.5
 11
-4.5
 21
-1.5
  0
LINE
  5
570
100
AcDbEntity
  8
DRAFT
100
AcDbLine
 62
7
  6
CONTINUOUS
 10
4.5
 20
-1.5
 11
6.0
 21
-1.5
  0
LINE
  5
571
100
AcDbEntity
  8
RACCORDO
100
AcDbLine
 62
253
  6
CONTINUOUS
 10
-5.953993641
 20
-1.453993641
 11
-4.8530095961
 21
-1.453993641
  0
LINE
  5
572
100
AcDbEntity
  8
RACCORDO
100
AcDbLine
 62
253
  6
CONTINUOUS
 10
4.8530095961
 20
-1.453993641
 11
5.953993641
 21
-1.453993641
  0
LINE
  5
573
100
AcDbEntity
  8
RACCORDO
100
AcDbLine
 62
253
  6
CONTINUOUS
 10
-5.9371426149
 20
-0.9542982275
 11
-4.9823085464
 21
-0.9542982275
  0
LINE
  5
574
100
AcDbEntity
  8
RACCORDO
100
AcDbLine
 62
253
  6
CONTINUOUS
 10
4.9823085464
 20
-0.9542982275
 11
5.9371426149
 21
-0.9542982275
  0
LINE
  5
575
100
AcDbEntity
  8
RACCORDO
100
AcDbLine
 62
7
  6
CONTINUOUS
 10
-4.5
 20
-1.5
 11
-4.8530095961
 21
-1.453993641
  0
LWPOLYLINE
  5
576
100
AcDbEntity
  8
0
100
AcDbPolyline
 62
7
  6
CONTINUOUS
 90
10
 70
0
 10
17.7080812173
 20
-11.1042255845
 10
17.6726587096
 20
-11.0899906189
 10
17.6357962366
 20
-11.0763631663
 10
17.5974937983
 20
-11.0633432267
 10
17.5576858611
 20
-11.0510391587
 10
17.5164379586
 20
-11.0393426036
 10
17.4739466918
 20
-11.0279284857
 10
17.4302775944
 20
-11.0166884463
 10
17.3853651327
 20
-11.0057308441
 10
17.3392093068
 20
-10.995055679
  0
LWPOLYLINE
  5
577
100
AcDbEntity
  8
0
100
AcDbPolyline
 62
7
  6
CONTINUOUS
 90
39
 70
0
 10
17.5827858309
 20
-11.3003122698
 10
17.6084618224
 20
-11.3110387287
 10
17.6322816628
 20
-11.3226532296
 10
17.654245352
 20
-11.3351557725
 10
17.6743587984
 20
-11.3484006871
 10
17.6926160938
 20
-11.3625336437
 10
17.708999513
 20
-11.3779916535
 10
17.7235235002
 20
-11.394832406
 10
17.7361736114
 20
-11.4129982117
 10
17.7468887889
 20
-11.4327530128
 10
17.7557950401
 20
-11.4543996356
 10
17.7627663577
 20
-11.4776352539
 10
17.767363663
 20
-11.5018153312
 10
17.7694887732
 20
-11.5271470127
 10
17.769239871
 20
-11.5534231533
 10
17.7664724256
 20
-11.5793777807
 10
17.7610757679
 20
-11.6048861047
 10
17.7531605669
 20
-11.6300729157
 10
17.7429142987
 20
-11.6540466128
 10
17.7304210851
 20
-11.676544011
 10
17.7155968042
 20
-11.6978282954
 10
17.6983765665
 20
-11.7177974207
 10
17.6787405331
 20
-11.7364566189
 10
17.656708543
 20
-11.7538006581
 10
17.6322752235
 20
-11.7697117965
 10
17.6052787281
 20
-11.7843109988
 10
17.5758809033
 20
-11.7974773004
 10
17.5445619161
 20
-11.8087300655
 10
17.5114511346
 20
-11.8179606154
 10
17.4764191906
 20
-11.8252776288
 10
17.4395581463
 20
-11.8305265064
 10
17.4005390182
 20
-11.8338413546
 10
17.3596907898
 20
-11.8350880671
 10
17.318092474
 20
-11.8337097247
 10
17.2751729185
 20
-11.8294810154
 10
17.2315032756
 20
-11.8226272513
 10
17.1898760151
 20
-11.8132674504
 10
17.1509825497
 20
-11.8011857801
 10
17.1141314666
 20
-11.7865980729
  0
LWPOLYLINE
  5
578
100
AcDbEntity
  8
0
100
AcDbPolyline
 62
7
  6
CONTINUOUS
 90
10
 70
0
 10
16.9635647195
 20
-11.1095470971
 10
16.9942580914
 20
-11.1238106232
 10
17.0263357525
 20
-11.1374078983
 10
17.0597977027
 20
-11.1503389224
 10
17.0947132262
 20
-11.1625071659
 10
17.1310130388
 20
-11.1740091584
 10
17.1684892883
 20
-11.1851344891
 10
17.2070726905
 20
-11.1959796876
 10
17.2468325296
 20
-11.2064482242
 10
17.2877688055
 20
-11.216540099
  0
LWPOLYLINE
  5
579
100
AcDbEntity
  8
0
100
AcDbPolyline
 62
7
  6
CONTINUOUS
 90
14
 70
0
 10
17.1141314666
 20
-11.7865980729
 10
17.0800409976
 20
-11.7702708443
 10
17.0489521826
 20
-11.7524024236
 10
17.0206239818
 20
-11.7327944815
 10
16.9950515074
 20
-11.7116185456
 10
16.9724162696
 20
-11.6891654554
 10
16.9525367582
 20
-11.6651443713
 10
16.9348635547
 20
-11.6388543021
 10
16.9192907975
 20
-11.6100498272
 10
16.9059243482
 20
-11.578976367
 10
16.8945323731
 20
-11.545669192
 10
16.8850375943
 20
-11.5101400589
 10
16.8775172896
 20
-11.4723772109
 10
16.871971459
 20
-11.4323806479
  0
LINE
  5
57A
100
AcDbEntity
  8
RACCORDO
100
AcDbLine
 62
7
  6
CONTINUOUS
 10
-6.0
 20
1.5
 11
-5.953993641
 21
1.453993641
  0
LWPOLYLINE
  5
57B
100
AcDbEntity
  8
0
100
AcDbPolyline
 62
7
  6
CONTINUOUS
 90
19
 70
0
 10
5.2079582162
 20
-11.7193347754
 10
5.1944700141
 20
-11.6993678276
 10
5.1821786335
 20
-11.6777177994
 10
5.1710840743
 20
-11.6543846907
 10
5.1612682019
 20
-11.6292313644
 10
5.152649151
 20
-11.6023949577
 10
5.1449813255
 20
-11.5742868822
 10
5.1382934958
 20
-11.5449118225
 10
5.1325568914
 20
-11.5142650939
 10
5.1274396058
 20
-11.4827440541
 10
5.1228428575
 20
-11.4504959906
 10
5.1188654279
 20
-11.4173736157
 10
5.1154717544
 20
-11.3833324245
 10
5.112669506
 20
-11.3483875773
 10
5.1104510138
 20
-11.3125239138
 10
5.1087577084
 20
-11.2756514474
 10
5.1075700666
 20
-11.2377401828
 10
5.1069076116
 20
-11.1988201153
 10
5.1067703433
 20
-11.158891245
  0
LWPOLYLINE
  5
57C
100
AcDbEntity
  8
0
100
AcDbPolyline
 62
7
  6
CONTINUOUS
 90
34
 70
0
 10
5.7086565391
 20
-10.6004635178
 10
5.7225846103
 20
-10.6225999073
 10
5.7352577793
 20
-10.646473015
 10
5.746676046
 20
-10.672082841
 10
5.7567401067
 20
-10.6995182408
 10
5.7655492652
 20
-10.7286903588
 10
5.7734014323
 20
-10.7593326286
 10
5.7803269011
 20
-10.7913171754
 10
5.7862953784
 20
-10.824771874
 10
5.7915138957
 20
-10.8598137825
 10
5.7960273964
 20
-10.8964007053
 10
5.7997909371
 20
-10.934574838
 10
5.8028767184
 20
-10.9745798257
 10
5.805296998
 20
-11.0170895099
 10
5.8070395182
 20
-11.061430049
 10
5.8081397061
 20
-11.1058235637
 10
5.8085892602
 20
-11.1501287156
 10
5.8083964821
 20
-11.1944868432
 10
5.8076217038
 20
-11.2375440822
 10
5.8063042633
 20
-11.2788316202
 10
5.8044048225
 20
-11.3188182698
 10
5.8018656996
 20
-11.3575566047
 10
5.798702353
 20
-11.3950696998
 10
5.7948993243
 20
-11.4313344803
 10
5.7903525558
 20
-11.4663342948
 10
5.7850989809
 20
-11.5000918312
 10
5.7791016663
 20
-11.5325844016
 10
5.7721457541
 20
-11.5637272918
 10
5.7642516082
 20
-11.5936145431
 10
5.7553988647
 20
-11.6221521142
 10
5.7453115746
 20
-11.6489731666
 10
5.7338977548
 20
-11.6739554206
 10
5.7212493884
 20
-11.697221156
 10
5.7073664755
 20
-11.7187703726
  0
LWPOLYLINE
  5
57D
100
AcDbEntity
  8
0
100
AcDbPolyline
 62
7
  6
CONTINUOUS
 90
39
 70
0
 10
2.2583532311
 20
-11.5562248702
 10
2.2654706712
 20
-11.6055990572
 10
2.2758599989
 20
-11.6522998134
 10
2.2895212142
 20
-11.6963271387
 10
2.3065040908
 20
-11.7375193447
 10
2.3267588551
 20
-11.7760381198
 10
2.3501361859
 20
-11.8123685297
 10
2.3768430333
 20
-11.8469025296
 10
2.4066724473
 20
-11.8792481643
 10
2.4388542568
 20
-11.9087146334
 10
2.4731927416
 20
-11.9351973449
 10
2.509883622
 20
-11.9588008907
 10
2.5487438884
 20
-11.9791482465
 10
2.5895091078
 20
-11.99618144
 10
2.6324437131
 20
-12.0099584434
 10
2.678157993
 20
-12.0202761494
 10
2.7278258063
 20
-12.0271939248
 10
2.7802732942
 20
-12.0306524026
 10
2.8325891682
 20
-12.0302703747
 10
2.8846740411
 20
-12.0258136253
 10
2.9366273001
 20
-12.0175163702
 10
2.9858358184
 20
-12.0057000485
 10
3.0312001048
 20
-11.9904548653
 10
3.0738196505
 20
-11.9716906156
 10
3.1143798024
 20
-11.9494581232
 10
3.1534335403
 20
-11.9233841545
 10
3.1904278844
 20
-11.8938419432
 10
3.2243892417
 20
-11.8620020135
 10
3.2552347886
 20
-11.827910145
 10
3.2830473487
 20
-11.7915205582
 10
3.3071017998
 20
-11.7538664389
 10
3.3270868724
 20
-11.7153710488
 10
3.343313836
 20
-11.6756111263
 10
3.355991377
 20
-11.6343500723
 10
3.3651550112
 20
-11.5907977864
 10
3.3707692227
 20
-11.5457443689
 10
3.3729361514
 20
-11.5013235224
 10
3.3715506667
 20
-11.4575894346
 10
3.3667178992
 20
-11.4144879178
  0
LWPOLYLINE
  5
57E
100
AcDbEntity
  8
0
100
AcDbPolyline
 62
7
  6
CONTINUOUS
 90
49
 70
0
 10
4.9003633062
 20
-11.1595362768
 10
4.9012008258
 20
-11.2262692534
 10
4.9038002821
 20
-11.2906838966
 10
4.9081616752
 20
-11.3527802064
 10
4.9142696182
 20
-11.4125961229
 10
4.9221394979
 20
-11.470093706
 10
4.9318174751
 20
-11.5251591357
 10
4.9432693678
 20
-11.5778680064
 10
4.956529358
 20
-11.6281447237
 10
4.9717461528
 20
-11.6756486843
 10
4.9889260288
 20
-11.7203736324
 10
5.0080627093
 20
-11.7623258237
 10
5.0292860716
 20
-11.8011834215
 10
5.0526900152
 20
-11.8368245851
 10
5.0781806407
 20
-11.8693711552
 10
5.1056061266
 20
-11.8988668177
 10
5.1349153376
 20
-11.9252690352
 10
5.1661594089
 20
-11.9486203452
 10
5.1993399252
 20
-11.969092046
 10
5.234233222
 20
-11.9867761669
 10
5.2710629637
 20
-12.0015806786
 10
5.3105017273
 20
-12.013400792
 10
5.3535227725
 20
-12.0223082425
 10
5.3991528395
 20
-12.0282312948
 10
5.4451447266
 20
-12.0308499533
 10
5.4917079986
 20
-12.0300105671
 10
5.5386330905
 20
-12.0258667872
 10
5.5830441053
 20
-12.0185595706
 10
5.6239012973
 20
-12.0080213387
 10
5.6622444121
 20
-11.9943196701
 10
5.69831679
 20
-11.9777982582
 10
5.7319931223
 20
-11.9586927497
 10
5.7633987176
 20
-11.9367674979
 10
5.7931528424
 20
-11.9116592559
 10
5.8214858389
 20
-11.8833415758
 10
5.8481673648
 20
-11.8518409055
 10
5.8731256598
 20
-11.8168733421
 10
5.8964956609
 20
-11.778217577
 10
5.9181424311
 20
-11.7360949187
 10
5.9375893991
 20
-11.6908853902
 10
5.9546768157
 20
-11.6425859678
 10
5.9695644301
 20
-11.591199675
 10
5.9822549191
 20
-11.5371156052
 10
5.9926492535
 20
-11.4803672865
 10
6.0008464624
 20
-11.4209211908
 10
6.0071463098
 20
-11.3590658259
 10
6.011648717
 20
-11.2948973611
 10
6.0142537627
 20
-11.2283196273
 10
6.0149614468
 20
-11.1593326243
  0
LINE
  5
57F
100
AcDbEntity
  8
DRAFT
100
AcDbLine
 62
7
  6
CONTINUOUS
 10
4.3776508009
 20
-15.6
 11
4.3790539221
 21
-15.9
  0
LINE
  5
580
100
AcDbEntity
  8
DRAFT
100
AcDbLine
 62
7
  6
CONTINUOUS
 10
0.75
 20
18.0176397269
 11
0.75
 21
15.95
  0
LINE
  5
581
100
AcDbEntity
  8
0
100
AcDbLine
 62
7
  6
CONTINUOUS
 10
0.9579888973
 20
-10.6415835885
 11
0.9579888973
 21
-11.4014195924
  0
LINE
  5
582
100
AcDbEntity
  8
0
100
AcDbLine
 62
7
  6
CONTINUOUS
 10
0.9579888973
 20
-11.5975062776
 11
0.9579888973
 21
-12.0
  0
LINE
  5
583
100
AcDbEntity
  8
0
100
AcDbLine
 62
7
  6
CONTINUOUS
 10
1.1643959344
 20
-12.0
 11
1.1643959344
 21
-11.5975062776
  0
LINE
  5
584
100
AcDbEntity
  8
0
100
AcDbLine
 62
7
  6
CONTINUOUS
 10
1.1643959344
 20
-11.4014195924
 11
1.1643959344
 21
-10.2971419438
  0
LINE
  5
585
100
AcDbEntity
  8
0
100
AcDbLine
 62
7
  6
CONTINUOUS
 10
1.3914436752
 20
-11.5975062776
 11
1.3914436752
 21
-11.4014195924
  0
LINE
  5
586
100
AcDbEntity
  8
DRAFT
100
AcDbLine
 62
7
  6
CONTINUOUS
 10
2.5
 20
15.95
 11
2.5
 21
18.0176397269
  0
LINE
  5
587
100
AcDbEntity
  8
0
100
AcDbLine
 62
7
  6
CONTINUOUS
 10
3.15
 20
-41.6
 11
3.15
 21
-21.25
  0
LINE
  5
588
100
AcDbEntity
  8
DRAFT
100
AcDbLine
 62
7
  6
CONTINUOUS
 10
3.2360359481
 20
-48.6
 11
3.2360359481
 21
-46.4
  0
LINE
  5
589
100
AcDbEntity
  8
DRAFT
100
AcDbLine
 62
7
  6
CONTINUOUS
 10
3.2360359481
 20
-41.6
 11
3.2360359481
 21
-19.3
  0
LINE
  5
58A
100
AcDbEntity
  8
DRAFT
100
AcDbLine
 62
7
  6
CONTINUOUS
 10
3.25
 20
-33.99496732
 11
3.25
 21
-29.40503268
  0
LINE
  5
58B
100
AcDbEntity
  8
DRAFT
100
AcDbLine
 62
7
  6
CONTINUOUS
 10
3.2622185454
 20
-46.4
 11
3.2622185454
 21
-41.6
  0
LINE
  5
58C
100
AcDbEntity
  8
DRAFT
100
AcDbLine
 62
7
  6
CONTINUOUS
 10
3.3110927272
 20
-48.6
 11
3.3110927272
 21
-34.011337067
  0
LINE
  5
58D
100
AcDbEntity
  8
DRAFT
100
AcDbLine
 62
7
  6
CONTINUOUS
 10
3.3110927272
 20
-29.388662933
 11
3.3110927272
 21
-19.3
  0
LINE
  5
58E
100
AcDbEntity
  8
0
100
AcDbLine
 62
7
  6
CONTINUOUS
 10
3.65
 20
-21.25
 11
3.65
 21
-43.7
  0
LINE
  5
58F
100
AcDbEntity
  8
RACCORDO
100
AcDbLine
 62
7
  6
CONTINUOUS
 10
4.3249432208
 20
-17.6
 11
4.3249432208
 21
-21.25
  0
LINE
  5
590
100
AcDbEntity
  8
RACCORDO
100
AcDbLine
 62
7
  6
CONTINUOUS
 10
4.3249432208
 20
-43.7
 11
4.3249432208
 21
-49.5250193732
  0
LINE
  5
591
100
AcDbEntity
  8
RACCORDO
100
AcDbLine
 62
7
  6
CONTINUOUS
 10
4.3790539221
 20
-15.9
 11
4.3790539221
 21
-16.4
  0
LINE
  5
592
100
AcDbEntity
  8
RACCORDO
100
AcDbLine
 62
7
  6
CONTINUOUS
 10
4.4
 20
-16.7
 11
4.4
 21
-21.25
  0
LINE
  5
593
100
AcDbEntity
  8
RACCORDO
100
AcDbLine
 62
7
  6
CONTINUOUS
 10
4.4
 20
-43.7
 11
4.4
 21
-49.6000761524
  0
LINE
  5
594
100
AcDbEntity
  8
DRAFT
100
AcDbLine
 62
7
  6
CONTINUOUS
 10
4.5
 20
1.5
 11
4.5
 21
-1.5
  0
LINE
  5
595
100
AcDbEntity
  8
DRAFT
100
AcDbLine
 62
7
  6
CONTINUOUS
 10
4.5
 20
-21.25
 11
4.5
 21
-20.3810194482
  0
LINE
  5
596
100
AcDbEntity
  8
SMUSSO
100
AcDbLine
 62
7
  6
CONTINUOUS
 10
4.5
 20
-20.3810194482
 11
4.5
 21
-17.75
  0
LINE
  5
597
100
AcDbEntity
  8
0
100
AcDbLine
 62
7
  6
CONTINUOUS
 10
4.5
 20
-43.7
 11
4.5
 21
-54.0
  0
LWPOLYLINE
  5
598
100
AcDbEntity
  8
0
100
AcDbPolyline
 62
7
  6
CONTINUOUS
 90
16
 70
0
 10
3.7754449539
 20
-11.1216412865
 10
3.7763194639
 20
-11.0649064569
 10
3.7790333707
 20
-11.0102018034
 10
3.7835866741
 20
-10.9575273261
 10
3.7898679448
 20
-10.9067311192
 10
3.7979886122
 20
-10.8579650885
 10
3.8082829648
 20
-10.8116849511
 10
3.8209534928
 20
-10.7679363777
 10
3.8357977061
 20
-10.7266736976
 10
3.8525424231
 20
-10.6882156162
 10
3.8713310365
 20
-10.6526290809
 10
3.8920201537
 20
-10.6198471443
 10
3.9139064144
 20
-10.5899876698
 10
3.9367553653
 20
-10.5630899451
 10
3.9608014598
 20
-10.5391146826
 10
3.986044698
 20
-10.5180618822
  0
LINE
  5
599
100
AcDbEntity
  8
DRAFT
100
AcDbLine
 62
7
  6
CONTINUOUS
 10
4.3249432208
 20
-17.6
 11
4.3598533507
 21
-15.6
  0
LWPOLYLINE
  5
59A
100
AcDbEntity
  8
0
100
AcDbPolyline
 62
7
  6
CONTINUOUS
 90
37
 70
0
 10
3.8064060095
 20
-11.4481836129
 10
3.8076355231
 20
-11.4122165233
 10
3.8113516215
 20
-11.3779394647
 10
3.8175543048
 20
-11.345352437
 10
3.8262186566
 20
-11.3145834301
 10
3.8373695933
 20
-11.2855044541
 10
3.8510818638
 20
-11.2577315396
 10
3.8675908655
 20
-11.2308771232
 10
3.886661201
 20
-11.2053287684
 10
3.9076614273
 20
-11.1818651963
 10
3.9306107011
 20
-11.1605740919
 10
3.9554898657
 20
-11.1413677702
 10
3.9816100072
 20
-11.1247618972
 10
4.0087381654
 20
-11.1108962916
 10
4.0371073004
 20
-11.0996311346
 10
4.0667273786
 20
-11.091062636
 10
4.098178964
 20
-11.0852581138
 10
4.1308814924
 20
-11.08215025
 10
4.1631032376
 20
-11.0816333003
 10
4.194618093
 20
-11.0837307194
 10
4.2256521652
 20
-11.0884190526
 10
4.2551520467
 20
-11.0955221918
 10
4.2827128129
 20
-11.1049957373
 10
4.3087393885
 20
-11.1168840889
 10
4.3333931398
 20
-11.131144338
 10
4.3568609261
 20
-11.1478067704
 10
4.378955888
 20
-11.1668411002
 10
4.3992788139
 20
-11.1881135616
 10
4.4178272722
 20
-11.2115320832
 10
4.4346036945
 20
-11.2371887364
 10
4.4492161636
 20
-11.2652259693
 10
4.461660442
 20
-11.2958001561
 10
4.4719407672
 20
-11.3287549227
 10
4.4796779348
 20
-11.363763595
 10
4.4847455432
 20
-11.4007172817
 10
4.487269994
 20
-11.439724874
 10
4.4872512871
 20
-11.480786372
  0
LWPOLYLINE
  5
59B
100
AcDbEntity
  8
0
100
AcDbPolyline
 62
7
  6
CONTINUOUS
 90
19
 70
0
 10
3.0736610277
 20
-10.7276940785
 10
3.0726604201
 20
-10.7556108613
 10
3.0696510093
 20
-10.7819056748
 10
3.0646327954
 20
-10.8065785188
 10
3.0576680198
 20
-10.829482825
 10
3.048694441
 20
-10.8507651618
 10
3.0375253349
 20
-10.8708652341
 10
3.0241553532
 20
-10.8898675868
 10
3.0085898442
 20
-10.907687675
 10
2.9906581292
 20
-10.9245115692
 10
2.970214649
 20
-10.9405954572
 10
2.9474049627
 20
-10.9556831511
 10
2.9224950688
 20
-10.9691921585
 10
2.8955109987
 20
-10.9810862362
 10
2.866426721
 20
-10.9914016274
 10
2.8354301397
 20
-10.999664569
 10
2.8025838895
 20
-11.0057171401
 10
2.7678253358
 20
-11.0097172617
 10
2.7311544785
 20
-11.0116649337
  0
LINE
  5
59C
100
AcDbEntity
  8
0
100
AcDbLine
 62
7
  6
CONTINUOUS
 10
2.6971295217
 20
-11.0092462218
 11
2.6732636588
 21
-11.1950125552
  0
LWPOLYLINE
  5
59D
100
AcDbEntity
  8
0
100
AcDbPolyline
 62
7
  6
CONTINUOUS
 90
34
 70
0
 10
2.4854009719
 20
-10.7615577773
 10
2.4920124762
 20
-10.7269466527
 10
2.5003030555
 20
-10.694368533
 10
2.5102727098
 20
-10.663823418
 10
2.5220015296
 20
-10.6352192674
 10
2.5354094245
 20
-10.6086481216
 10
2.5502561232
 20
-10.5843861019
 10
2.5664122252
 20
-10.5626119763
 10
2.584007131
 20
-10.5431469768
 10
2.6031887712
 20
-10.5257309214
 10
2.6240066668
 20
-10.5102441556
 10
2.6464112967
 20
-10.4968063337
 10
2.6704020289
 20
-10.4855162369
 10
2.696246581
 20
-10.4763308847
 10
2.7236772354
 20
-10.4692932574
 10
2.7518902072
 20
-10.464631077
 10
2.7812831178
 20
-10.4624615354
 10
2.8114583457
 20
-10.4626674407
 10
2.8404192422
 20
-10.4651249379
 10
2.8675797578
 20
-10.4698320621
 10
2.8935259418
 20
-10.4767907782
 10
2.9180192931
 20
-10.4858831264
 10
2.9410423656
 20
-10.4971974105
 10
2.9626126053
 20
-10.5106453266
 10
2.9825438493
 20
-10.5258440028
 10
3.0009308785
 20
-10.542824742
 10
3.0176789119
 20
-10.5615562414
 10
3.0323174444
 20
-10.5815617204
 10
3.0447358289
 20
-10.6026711607
 10
3.0550447124
 20
-10.6250545807
 10
3.0631055305
 20
-10.648745255
 10
3.068872095
 20
-10.6737542751
 10
3.0723905941
 20
-10.7000705496
 10
3.0736610277
 20
-10.7276940785
  0
LINE
  5
59E
100
AcDbEntity
  8
0
100
AcDbLine
 62
7
  6
CONTINUOUS
 10
-3.1495111414
 20
-12.0
 11
-2.9700337109
 21
-11.4839824072
  0
LINE
  5
59F
100
AcDbEntity
  8
0
100
AcDbLine
 62
7
  6
CONTINUOUS
 10
-2.9053702144
 20
-11.2982160738
 11
-2.7213777186
 21
-10.8010653472
  0
LINE
  5
5A0
100
AcDbEntity
  8
0
100
AcDbLine
 62
7
  6
CONTINUOUS
 10
-2.7418571643
 20
-10.2971419438
 11
-3.389136688
 21
-12.0
  0
LWPOLYLINE
  5
5A1
100
AcDbEntity
  8
0
100
AcDbPolyline
 62
7
  6
CONTINUOUS
 90
10
 70
0
 10
-2.7213777186
 20
-10.8010653472
 10
-2.7071799658
 20
-10.7660246196
 10
-2.6936470469
 20
-10.7305861174
 10
-2.6807789616
 20
-10.6947498407
 10
-2.668557896
 20
-10.6584710112
 10
-2.657001664
 20
-10.6217944073
 10
-2.6461637084
 20
-10.5848543632
 10
-2.6360618433
 20
-10.5476956573
 10
-2.6266782545
 20
-10.5102735113
 10
-2.618012942
 20
-10.4725879253
  0
LWPOLYLINE
  5
5A2
100
AcDbEntity
  8
0
100
AcDbPolyline
 62
7
  6
CONTINUOUS
 90
16
 70
0
 10
-0.3928483901
 20
-10.2868215919
 10
-0.4096384729
 20
-10.3173650911
 10
-0.4288201979
 20
-10.3477446792
 10
-0.4503935651
 20
-10.3779603561
 10
-0.4744304365
 20
-10.4080377473
 10
-0.5008589501
 20
-10.4379512273
 10
-0.52946352
 20
-10.4676239199
 10
-0.5601353109
 20
-10.4970899186
 10
-0.5929831579
 20
-10.5263151298
 10
-0.6281179811
 20
-10.5551203963
 10
-0.6654960562
 20
-10.5835815074
 10
-0.7051611075
 20
-10.6116226739
 10
-0.7473552267
 20
-10.6388373704
 10
-0.7921591114
 20
-10.6650900886
 10
-0.8394920641
 20
-10.6905163368
 10
-0.8893540849
 20
-10.7151161152
  0
LINE
  5
5A3
100
AcDbEntity
  8
0
100
AcDbLine
 62
7
  6
CONTINUOUS
 10
-3.9207961453
 20
-10.6972167968
 11
-4.7904470864
 21
-11.7956891589
  0
LINE
  5
5A4
100
AcDbEntity
  8
0
100
AcDbLine
 62
7
  6
CONTINUOUS
 10
-4.5332444224
 20
-11.8039133147
 11
-3.4797624007
 21
-10.493228629
  0
LWPOLYLINE
  5
5A5
100
AcDbEntity
  8
0
100
AcDbPolyline
 62
7
  6
CONTINUOUS
 90
10
 70
0
 10
-3.7435763262
 20
-10.493228629
 10
-3.7634358444
 20
-10.5143025263
 10
-3.7832505483
 20
-10.5357834635
 10
-3.8030204379
 20
-10.5576714405
 10
-3.8227419031
 20
-10.5799786924
 10
-3.842418554
 20
-10.6026929842
 10
-3.8620612206
 20
-10.625777611
 10
-3.8816735131
 20
-10.6492203379
 10
-3.9012518213
 20
-10.6730333998
 10
-3.9207961453
 20
-10.6972167968
  0
LINE
  5
5A6
100
AcDbEntity
  8
RACCORDO
100
AcDbLine
 62
7
  6
CONTINUOUS
 10
6.0
 20
1.5
 11
5.953993641
 21
1.453993641
  0
LINE
  5
5A7
100
AcDbEntity
  8
RACCORDO
100
AcDbLine
 62
7
  6
CONTINUOUS
 10
-4.5
 20
1.5
 11
-4.8530095961
 21
1.453993641
  0
LINE
  5
5A8
100
AcDbEntity
  8
RACCORDO
100
AcDbLine
 62
253
  6
CONTINUOUS
 10
5.9371426149
 20
0.9542982275
 11
4.9823085464
 21
0.9542982275
  0
LINE
  5
5A9
100
AcDbEntity
  8
RACCORDO
100
AcDbLine
 62
253
  6
CONTINUOUS
 10
-4.9823085464
 20
0.9542982275
 11
-5.9371426149
 21
0.9542982275
  0
LINE
  5
5AA
100
AcDbEntity
  8
RACCORDO
100
AcDbLine
 62
253
  6
CONTINUOUS
 10
5.953993641
 20
1.453993641
 11
4.8530095961
 21
1.453993641
  0
LINE
  5
5AB
100
AcDbEntity
  8
RACCORDO
100
AcDbLine
 62
253
  6
CONTINUOUS
 10
-4.8530095961
 20
1.453993641
 11
-5.953993641
 21
1.453993641
  0
LINE
  5
5AC
100
AcDbEntity
  8
DRAFT
100
AcDbLine
 62
7
  6
CONTINUOUS
 10
6.0
 20
1.5
 11
4.5
 21
1.5
  0
LINE
  5
5AD
100
AcDbEntity
  8
DRAFT
100
AcDbLine
 62
7
  6
CONTINUOUS
 10
-4.5
 20
1.5
 11
-6.0
 21
1.5
  0
LINE
  5
5AE
100
AcDbEntity
  8
0
100
AcDbLine
 62
7
  6
CONTINUOUS
 10
-20.69426
 20
2.41287
 11
-18.8251
 21
2.41287
  0
LINE
  5
5AF
100
AcDbEntity
  8
0
100
AcDbLine
 62
7
  6
CONTINUOUS
 10
-18.93191
 20
2.51968
 11
-20.58745
 21
2.51968
  0
LINE
  5
5B0
100
AcDbEntity
  8
0
100
AcDbLine
 62
7
  6
CONTINUOUS
 10
-20.58745
 20
2.840108
 11
-18.93191
 21
2.840108
  0
LINE
  5
5B1
100
AcDbEntity
  8
0
100
AcDbLine
 62
7
  6
CONTINUOUS
 10
-17.804728
 20
2.946916
 11
-16.849132
 21
2.946916
  0
LINE
  5
5B2
100
AcDbEntity
  8
0
100
AcDbLine
 62
7
  6
CONTINUOUS
 10
-18.8251
 20
2.946916
 11
-20.69426
 21
2.946916
  0
LINE
  5
5B3
100
AcDbEntity
  8
0
100
AcDbLine
 62
7
  6
CONTINUOUS
 10
-16.955942
 20
3.053726
 11
-17.795224
 21
3.053726
  0
LINE
  5
5B4
100
AcDbEntity
  8
0
100
AcDbLine
 62
7
  6
CONTINUOUS
 10
-18.024032
 20
4.015006
 11
-17.8185
 21
4.015006
  0
LINE
  5
5B5
100
AcDbEntity
  8
0
100
AcDbLine
 62
7
  6
CONTINUOUS
 10
-17.711282
 20
4.015006
 11
-17.136044
 21
4.015006
  0
LINE
  5
5B6
100
AcDbEntity
  8
0
100
AcDbLine
 62
7
  6
CONTINUOUS
 10
-17.029234
 20
4.121816
 11
-17.701938
 21
4.121816
  0
LINE
  5
5B7
100
AcDbEntity
  8
0
100
AcDbLine
 62
7
  6
CONTINUOUS
 10
-17.809156
 20
4.121816
 11
-18.130842
 21
4.121816
  0
LINE
  5
5B8
100
AcDbEntity
  8
0
100
AcDbLine
 62
7
  6
CONTINUOUS
 10
-23.257676
 20
4.549052
 11
-22.379894
 21
4.549052
  0
LINE
  5
5B9
100
AcDbEntity
  8
0
100
AcDbLine
 62
7
  6
CONTINUOUS
 10
-22.272676
 20
4.549052
 11
-17.771776
 21
4.549052
  0
LINE
  5
5BA
100
AcDbEntity
  8
0
100
AcDbLine
 62
7
  6
CONTINUOUS
 10
-17.66456
 20
4.549052
 11
-17.329774
 21
4.549052
  0
LINE
  5
5BB
100
AcDbEntity
  8
RACCORDO
100
AcDbLine
 62
7
  6
CONTINUOUS
 10
4.5
 20
1.5
 11
4.8530095961
 21
1.453993641
  0
LWPOLYLINE
  5
5BC
100
AcDbEntity
  8
0
100
AcDbPolyline
 62
7
  6
CONTINUOUS
 90
10
 70
0
 10
14.1836811373
 20
-11.3133740069
 10
14.1719162188
 20
-11.3026536174
 10
14.1594661487
 20
-11.292199214
 10
14.146330927
 20
-11.2820107967
 10
14.132471234
 20
-11.272106602
 10
14.1179263894
 20
-11.2624683935
 10
14.1028143523
 20
-11.2530414611
 10
14.0871744421
 20
-11.2438075682
 10
14.0709673393
 20
-11.2347849514
 10
14.0541930439
 20
-11.2259736108
  0
LINE
  5
5BD
100
AcDbEntity
  8
RACCORDO
100
AcDbLine
 62
7
  6
CONTINUOUS
 10
6.0
 20
-1.5
 11
5.953993641
 21
-1.453993641
  0
LWPOLYLINE
  5
5BE
100
AcDbEntity
  8
0
100
AcDbPolyline
 62
7
  6
CONTINUOUS
 90
28
 70
0
 10
17.0087161605
 20
-10.8725015204
 10
16.9940622569
 20
-10.8575428795
 10
16.9812659091
 20
-10.8415262432
 10
16.9703271169
 20
-10.8244516116
 10
16.9611908715
 20
-10.8062970334
 10
16.9539121818
 20
-10.7870844598
 10
16.9486560749
 20
-10.7668797445
 10
16.9454408906
 20
-10.7453380793
 10
16.9442482891
 20
-10.7228042724
 10
16.9451882781
 20
-10.7003786019
 10
16.948311919
 20
-10.6781849304
 10
16.9535681503
 20
-10.6560993954
 10
16.9609137952
 20
-10.6348506879
 10
16.970271116
 20
-10.6146699695
 10
16.9817178504
 20
-10.5953260786
 10
16.9954440347
 20
-10.5768542205
 10
17.011509107
 20
-10.5590782477
 10
17.0298536292
 20
-10.5421743076
 10
17.0504893237
 20
-10.5267060483
 10
17.0735475091
 20
-10.512747612
 10
17.0988968668
 20
-10.5002248563
 10
17.1261551636
 20
-10.4894790017
 10
17.1553404942
 20
-10.4806509612
 10
17.186434764
 20
-10.4735998218
 10
17.2190014562
 20
-10.4682440651
 10
17.2528950652
 20
-10.4645565184
 10
17.2882610966
 20
-10.4625643546
 10
17.3250995504
 20
-10.4622675735
  0
LWPOLYLINE
  5
5BF
100
AcDbEntity
  8
0
100
AcDbPolyline
 62
7
  6
CONTINUOUS
 90
14
 70
0
 10
3.3667178992
 20
-11.4144879178
 10
3.3588553795
 20
-11.3739901107
 10
3.3480079769
 20
-11.3368793565
 10
3.3341308221
 20
-11.302372312
 10
3.3175068384
 20
-11.2700900869
 10
3.2983051851
 20
-11.2400010104
 10
3.2763567028
 20
-11.2121367533
 10
3.2514368368
 20
-11.1862134376
 10
3.2232168221
 20
-11.161892301
 10
3.1920254237
 20
-11.1395121058
 10
3.1586243814
 20
-11.1198052608
 10
3.1232676085
 20
-11.1030159023
 10
3.0857011919
 20
-11.088899894
 10
3.0459251313
 20
-11.0774572359
  0
LWPOLYLINE
  5
5C0
100
AcDbEntity
  8
0
100
AcDbPolyline
 62
7
  6
CONTINUOUS
 90
29
 70
0
 10
4.6858206514
 20
-11.3393374262
 10
4.6764669443
 20
-11.2905644659
 10
4.6639292801
 20
-11.2454958351
 10
4.6480379139
 20
-11.2032320598
 10
4.6288019225
 20
-11.1630605225
 10
4.6059898439
 20
-11.1245738544
 10
4.5798331399
 20
-11.0881794244
 10
4.5510352732
 20
-11.0543867218
 10
4.5193599902
 20
-11.0230063595
 10
4.4850435444
 20
-10.9942277247
 10
4.4494981585
 20
-10.9691284684
 10
4.4132448005
 20
-10.9481369219
 10
4.3757625024
 20
-10.930824754
 10
4.3369005832
 20
-10.9169846217
 10
4.2963540044
 20
-10.9065037828
 10
4.2544278044
 20
-10.8994949795
 10
4.211886418
 20
-10.8960890948
 10
4.1682729147
 20
-10.896414665
 10
4.124044225
 20
-10.9003431537
 10
4.0813355744
 20
-10.9076198355
 10
4.0408279083
 20
-10.9181797111
 10
4.0018402814
 20
-10.9320877797
 10
3.9644650839
 20
-10.949284313
 10
3.9286892141
 20
-10.9697405324
 10
3.8945257738
 20
-10.9934852164
 10
3.8621064581
 20
-11.020544973
 10
3.8314751654
 20
-11.0509286716
 10
3.8025879973
 20
-11.0846274428
 10
3.7754449539
 20
-11.1216412865
  0
LWPOLYLINE
  5
5C1
100
AcDbEntity
  8
0
100
AcDbPolyline
 62
7
  6
CONTINUOUS
 90
40
 70
0
 10
3.5891964927
 20
-11.4816993309
 10
3.6000838463
 20
-11.5394939785
 10
3.6134286443
 20
-11.59448358
 10
3.6292423205
 20
-11.646502532
 10
3.6477581782
 20
-11.6951183587
 10
3.6690716617
 20
-11.7400920286
 10
3.6930873267
 20
-11.7816625732
 10
3.7197521427
 20
-11.8201146121
 10
3.7492163504
 20
-11.855536723
 10
3.781329709
 20
-11.8878403282
 10
3.8155884661
 20
-11.9170443136
 10
3.8518636454
 20
-11.9432764064
 10
3.8902842231
 20
-11.9664088794
 10
3.9307333756
 20
-11.9860774366
 10
3.973365255
 20
-12.002223517
 10
4.0180257092
 20
-12.0149056817
 10
4.0641354578
 20
-12.0239353184
 10
4.112482175
 20
-12.029255085
 10
4.1622781867
 20
-12.0309223236
 10
4.2105811897
 20
-12.0289204476
 10
4.2566457124
 20
-12.0231111337
 10
4.3012172266
 20
-12.0136327053
 10
4.3435898437
 20
-12.0008835455
 10
4.3835167697
 20
-11.984892513
 10
4.4212447988
 20
-11.9656307491
 10
4.4568084244
 20
-11.9434100611
 10
4.4902136177
 20
-11.9184210386
 10
4.5214544075
 20
-11.8904730919
 10
4.5505473746
 20
-11.8593062589
 10
4.577625891
 20
-11.8248619418
 10
4.6025565845
 20
-11.7871987383
 10
4.6249559198
 20
-11.7462324801
 10
4.6451211514
 20
-11.701475494
 10
4.6627550247
 20
-11.6534154532
 10
4.676582241
 20
-11.603431209
 10
4.6861994859
 20
-11.5510679608
 10
4.6920100738
 20
-11.4967805092
 10
4.6939486491
 20
-11.4433121086
 10
4.6918206565
 20
-11.3909152419
 10
4.6858206514
 20
-11.3393374262
  0
LWPOLYLINE
  5
5C2
100
AcDbEntity
  8
0
100
AcDbPolyline
 62
7
  6
CONTINUOUS
 90
40
 70
0
 10
6.2312065678
 20
-11.4816993309
 10
6.2420939214
 20
-11.5394939785
 10
6.2554387194
 20
-11.59448358
 10
6.2712523956
 20
-11.646502532
 10
6.2897682533
 20
-11.6951183587
 10
6.3110817369
 20
-11.7400920286
 10
6.3350974018
 20
-11.7816625732
 10
6.3617622178
 20
-11.8201146121
 10
6.3912264255
 20
-11.855536723
 10
6.4233397841
 20
-11.8878403282
 10
6.4575985412
 20
-11.9170443136
 10
6.4938737205
 20
-11.9432764064
 10
6.5322942982
 20
-11.9664088794
 10
6.5727434507
 20
-11.9860774366
 10
6.6153753301
 20
-12.002223517
 10
6.6600357843
 20
-12.0149056817
 10
6.7061455329
 20
-12.0239353184
 10
6.7544922501
 20
-12.029255085
 10
6.8042882618
 20
-12.0309223236
 10
6.8525912648
 20
-12.0289204476
 10
6.8986557875
 20
-12.0231111337
 10
6.9432273017
 20
-12.0136327053
 10
6.9855999188
 20
-12.0008835455
 10
7.0255268448
 20
-11.984892513
 10
7.0632548739
 20
-11.9656307491
 10
7.0988184995
 20
-11.9434100611
 10
7.1322236928
 20
-11.9184210386
 10
7.1634644826
 20
-11.8904730919
 10
7.1925574497
 20
-11.8593062589
 10
7.2196359661
 20
-11.8248619418
 10
7.2445666596
 20
-11.7871987383
 10
7.2669659949
 20
-11.7462324801
 10
7.2871312265
 20
-11.701475494
 10
7.3047650998
 20
-11.6534154532
 10
7.3185923161
 20
-11.603431209
 10
7.328209561
 20
-11.5510679608
 10
7.3340201489
 20
-11.4967805092
 10
7.3359587242
 20
-11.4433121086
 10
7.3338307316
 20
-11.3909152419
 10
7.3278307265
 20
-11.3393374262
  0
LWPOLYLINE
  5
5C3
100
AcDbEntity
  8
0
100
AcDbPolyline
 62
7
  6
CONTINUOUS
 90
45
 70
0
 10
4.6629952135
 20
-10.709956018
 10
4.6549991333
 20
-10.6623496679
 10
4.6441311936
 20
-10.6176447077
 10
4.6303913943
 20
-10.5758411375
 10
4.6136255563
 20
-10.5369773662
 10
4.5939878586
 20
-10.5010149848
 10
4.5719408394
 20
-10.4678387661
 10
4.5475697493
 20
-10.4374448813
 10
4.5207893375
 20
-10.4098371592
 10
4.4918063892
 20
-10.3849118593
 10
4.4606997457
 20
-10.3625688552
 10
4.4273905657
 20
-10.3429082733
 10
4.3918491103
 20
-10.3261267526
 10
4.3541463454
 20
-10.3122049314
 10
4.314211305
 20
-10.3011621714
 10
4.2718013519
 20
-10.2932531965
 10
4.2259243566
 20
-10.2884334469
 10
4.1775724486
 20
-10.2867474824
 10
4.1294793798
 20
-10.2885837073
 10
4.0818201789
 20
-10.2941382008
 10
4.0344198172
 20
-10.3032148835
 10
3.9894869602
 20
-10.315613922
 10
3.9479635371
 20
-10.3312441275
 10
3.9089076187
 20
-10.3501966886
 10
3.8717020826
 20
-10.3725453375
 10
3.8361458618
 20
-10.3981314721
 10
3.8024400233
 20
-10.4271136944
 10
3.7705706456
 20
-10.4600415421
 10
3.740327251
 20
-10.4970742318
 10
3.7119203172
 20
-10.5380525468
 10
3.6859673557
 20
-10.5830483741
 10
3.6625952164
 20
-10.6322900905
 10
3.6416770495
 20
-10.6855493191
 10
3.6234498169
 20
-10.7422128164
 10
3.6080468052
 20
-10.8022612897
 10
3.5953347278
 20
-10.8657140316
 10
3.5851506868
 20
-10.9320156774
 10
3.5775211236
 20
-11.0021443664
 10
3.5724195968
 20
-11.0751219592
 10
3.5696038851
 20
-11.1474586725
 10
3.5689985607
 20
-11.2187892802
 10
3.5706790514
 20
-11.2894790084
 10
3.5746294191
 20
-11.3571337528
 10
3.5807780174
 20
-11.4209340337
 10
3.5891964927
 20
-11.4816993309
  0
LWPOLYLINE
  5
5C4
100
AcDbEntity
  8
0
100
AcDbPolyline
 62
7
  6
CONTINUOUS
 90
49
 70
0
 10
6.0149614468
 20
-11.1593326243
 10
6.0145928909
 20
-11.0920915662
 10
6.0123376942
 20
-11.0271744625
 10
6.008195857
 20
-10.9645813131
 10
6.0022806438
 20
-10.9041928021
 10
5.9944787899
 20
-10.8461282455
 10
5.9844505011
 20
-10.7907455912
 10
5.9719082175
 20
-10.7381562812
 10
5.957139499
 20
-10.6882488735
 10
5.9406672301
 20
-10.6410469899
 10
5.9226506873
 20
-10.5963881829
 10
5.9029305943
 20
-10.5544348999
 10
5.881552006
 20
-10.5156981046
 10
5.8585912907
 20
-10.4803992105
 10
5.8339720803
 20
-10.4483168042
 10
5.807510325
 20
-10.4192976084
 10
5.7793118781
 20
-10.3934452211
 10
5.7492708864
 20
-10.3706560443
 10
5.7168857406
 20
-10.3504660075
 10
5.6820466855
 20
-10.3325731201
 10
5.6448634764
 20
-10.3172793727
 10
5.6051637699
 20
-10.3050266656
 10
5.5621716291
 20
-10.2958566121
 10
5.5166629909
 20
-10.289727599
 10
5.470793324
 20
-10.2869566864
 10
5.424337089
 20
-10.287711288
 10
5.3775198253
 20
-10.2918239902
 10
5.3331736191
 20
-10.2991096123
 10
5.2923118557
 20
-10.3096196545
 10
5.2539211498
 20
-10.3233026165
 10
5.217793432
 20
-10.339818817
 10
5.1840626194
 20
-10.3589360883
 10
5.1525947948
 20
-10.380886598
 10
5.1227801377
 20
-10.4060271677
 10
5.0943933694
 20
-10.4343844866
 10
5.0676597686
 20
-10.4659318654
 10
5.0426453505
 20
-10.5009460584
 10
5.0192080725
 20
-10.5396419097
 10
4.9974899773
 20
-10.5818045751
 10
4.9779832083
 20
-10.6270662763
 10
4.9608558625
 20
-10.6754364704
 10
4.9459398429
 20
-10.7269057003
 10
4.9332230022
 20
-10.7810778165
 10
4.9228019254
 20
-10.8379149377
 10
4.9145800277
 20
-10.8974549452
 10
4.908255407
 20
-10.9594153334
 10
4.9037274296
 20
-11.0237019338
 10
4.9010967293
 20
-11.090408915
 10
4.9003633062
 20
-11.1595362768
  0
LINE
  5
5C5
100
AcDbEntity
  8
RACCORDO
100
AcDbLine
 62
7
  6
CONTINUOUS
 10
4.9823085464
 20
-0.9542982275
 11
4.9823085464
 21
0.9542982275
  0
LINE
  5
5C6
100
AcDbEntity
  8
0
100
AcDbLine
 62
7
  6
CONTINUOUS
 10
5.5
 20
-53.5
 11
5.5
 21
-46.6
  0
LINE
  5
5C7
100
AcDbEntity
  8
RACCORDO
100
AcDbLine
 62
7
  6
CONTINUOUS
 10
5.9371426149
 20
-0.9542982275
 11
5.9371426149
 21
0.9542982275
  0
LINE
  5
5C8
100
AcDbEntity
  8
DRAFT
100
AcDbLine
 62
7
  6
CONTINUOUS
 10
6.0
 20
-1.5
 11
6.0
 21
1.5
  0
LINE
  5
5C9
100
AcDbEntity
  8
0
100
AcDbLine
 62
7
  6
CONTINUOUS
 10
7.0
 20
53.5
 11
7.0
 21
47.2
  0
LINE
  5
5CA
100
AcDbEntity
  8
0
100
AcDbLine
 62
7
  6
CONTINUOUS
 10
7.0
 20
-53.5
 11
7.0
 21
-47.2
  0
LINE
  5
5CB
100
AcDbEntity
  8
0
100
AcDbLine
 62
7
  6
CONTINUOUS
 10
9.2
 20
53.5
 11
9.2
 21
47.2
  0
LINE
  5
5CC
100
AcDbEntity
  8
0
100
AcDbLine
 62
7
  6
CONTINUOUS
 10
9.2
 20
-53.5
 11
9.2
 21
-47.2
  0
LWPOLYLINE
  5
5CD
100
AcDbEntity
  8
0
100
AcDbPolyline
 62
7
  6
CONTINUOUS
 90
37
 70
0
 10
5.1067703433
 20
-11.158891245
 10
5.1070415485
 20
-11.111146512
 10
5.1081417972
 20
-11.0647757058
 10
5.1100710894
 20
-11.0197788265
 10
5.1128158785
 20
-10.976201166
 10
5.1163897111
 20
-10.9339974323
 10
5.1208332271
 20
-10.8930317502
 10
5.1260837861
 20
-10.8531832013
 10
5.1322040283
 20
-10.8145727039
 10
5.1394225148
 20
-10.7774271373
 10
5.1476775058
 20
-10.7415847321
 10
5.1570307411
 20
-10.7072072577
 10
5.1678960009
 20
-10.6750069007
 10
5.1803347328
 20
-10.6452445591
 10
5.1942854893
 20
-10.6176593349
 10
5.2099777081
 20
-10.5921807202
 10
5.2276791331
 20
-10.5686991649
 10
5.2471220205
 20
-10.5473242192
 10
5.2677325766
 20
-10.5283140252
 10
5.2893423796
 20
-10.511744097
 10
5.3121198513
 20
-10.4975389205
 10
5.3359964638
 20
-10.4857300961
 10
5.3610711885
 20
-10.4763289856
 10
5.3872450539
 20
-10.4693242272
 10
5.4141526175
 20
-10.4647133356
 10
5.4421888392
 20
-10.4624944198
 10
5.4709587592
 20
-10.4626693708
 10
5.4989120555
 20
-10.4652413763
 10
5.5255586712
 20
-10.4701877835
 10
5.5513886634
 20
-10.4775312452
 10
5.5763218807
 20
-10.4873429072
 10
5.6002676089
 20
-10.4995621833
 10
5.6233165623
 20
-10.5142496599
 10
5.6456607329
 20
-10.5316582411
 10
5.6673641178
 20
-10.5518722286
 10
5.6883627199
 20
-10.5748073208
 10
5.7086565391
 20
-10.6004635178
  0
LWPOLYLINE
  5
5CE
100
AcDbEntity
  8
0
100
AcDbPolyline
 62
7
  6
CONTINUOUS
 90
16
 70
0
 10
6.417455029
 20
-11.1216412865
 10
6.418329539
 20
-11.0649064569
 10
6.4210434458
 20
-11.0102018034
 10
6.4255967492
 20
-10.9575273261
 10
6.4318780199
 20
-10.9067311192
 10
6.4399986873
 20
-10.8579650885
 10
6.45029304
 20
-10.8116849511
 10
6.4629635679
 20
-10.7679363777
 10
6.4778077812
 20
-10.7266736976
 10
6.4945524982
 20
-10.6882156162
 10
6.5133411116
 20
-10.6526290809
 10
6.5340302288
 20
-10.6198471443
 10
6.5559164895
 20
-10.5899876698
 10
6.5787654404
 20
-10.5630899451
 10
6.6028115349
 20
-10.5391146826
 10
6.6280547731
 20
-10.5180618822
  0
LWPOLYLINE
  5
5CF
100
AcDbEntity
  8
0
100
AcDbPolyline
 62
7
  6
CONTINUOUS
 90
37
 70
0
 10
6.4484160846
 20
-11.4481836129
 10
6.4496455982
 20
-11.4122165233
 10
6.4533616966
 20
-11.3779394647
 10
6.4595643799
 20
-11.345352437
 10
6.4682287317
 20
-11.3145834301
 10
6.4793796684
 20
-11.2855044541
 10
6.4930919389
 20
-11.2577315396
 10
6.5096009406
 20
-11.2308771232
 10
6.5286712761
 20
-11.2053287684
 10
6.5496715024
 20
-11.1818651963
 10
6.5726207762
 20
-11.1605740919
 10
6.5974999408
 20
-11.1413677702
 10
6.6236200823
 20
-11.1247618972
 10
6.6507482405
 20
-11.1108962916
 10
6.6791173755
 20
-11.0996311346
 10
6.7087374537
 20
-11.091062636
 10
6.7401890391
 20
-11.0852581138
 10
6.7728915675
 20
-11.08215025
 10
6.8051133127
 20
-11.0816333003
 10
6.8366281681
 20
-11.0837307194
 10
6.8676622403
 20
-11.0884190526
 10
6.8971621218
 20
-11.0955221918
 10
6.924722888
 20
-11.1049957373
 10
6.9507494636
 20
-11.1168840889
 10
6.9754032149
 20
-11.131144338
 10
6.9988710012
 20
-11.1478067704
 10
7.0209659631
 20
-11.1668411002
 10
7.041288889
 20
-11.1881135616
 10
7.0598373473
 20
-11.2115320832
 10
7.0766137696
 20
-11.2371887364
 10
7.0912262387
 20
-11.2652259693
 10
7.1036705171
 20
-11.2958001561
 10
7.1139508423
 20
-11.3287549227
 10
7.1216880099
 20
-11.363763595
 10
7.1267556183
 20
-11.4007172817
 10
7.1292800691
 20
-11.439724874
 10
7.1292613622
 20
-11.480786372
  0
LWPOLYLINE
  5
5D0
100
AcDbEntity
  8
0
100
AcDbPolyline
 62
7
  6
CONTINUOUS
 90
19
 70
0
 10
8.3576811779
 20
-10.7276940785
 10
8.3566805703
 20
-10.7556108613
 10
8.3536711595
 20
-10.7819056748
 10
8.3486529456
 20
-10.8065785188
 10
8.34168817
 20
-10.829482825
 10
8.3327145912
 20
-10.8507651618
 10
8.3215454851
 20
-10.8708652341
 10
8.3081755034
 20
-10.8898675868
 10
8.2926099944
 20
-10.907687675
 10
8.2746782794
 20
-10.9245115692
 10
8.2542347992
 20
-10.9405954572
 10
8.2314251129
 20
-10.9556831511
 10
8.206515219
 20
-10.9691921585
 10
8.1795311489
 20
-10.9810862362
 10
8.1504468712
 20
-10.9914016274
 10
8.1194502899
 20
-10.999664569
 10
8.0866040397
 20
-11.0057171401
 10
8.051845486
 20
-11.0097172617
 10
8.0151746287
 20
-11.0116649337
  0
LWPOLYLINE
  5
5D1
100
AcDbEntity
  8
0
100
AcDbPolyline
 62
7
  6
CONTINUOUS
 90
37
 70
0
 10
4.4872512871
 20
-11.480786372
 10
4.4847693828
 20
-11.5200453583
 10
4.4799504226
 20
-11.5572871628
 10
4.4727944065
 20
-11.5925117854
 10
4.4632280722
 20
-11.6257547002
 10
4.451324682
 20
-11.6569804331
 10
4.4373040228
 20
-11.6860825622
 10
4.4210229426
 20
-11.7130726224
 10
4.4026245935
 20
-11.7379390787
 10
4.3827582185
 20
-11.7605409045
 10
4.3614523116
 20
-11.7809197241
 10
4.338678379
 20
-11.7990339131
 10
4.3150001814
 20
-11.8146175711
 10
4.2906325318
 20
-11.8275448901
 10
4.2653606173
 20
-11.8379416782
 10
4.2391037607
 20
-11.8459194595
 10
4.2116920035
 20
-11.8515757921
 10
4.1832953042
 20
-11.854813118
 10
4.1543428611
 20
-11.8554502863
 10
4.1244806374
 20
-11.8533839066
 10
4.0940626699
 20
-11.8487173693
 10
4.064580267
 20
-11.8415796953
 10
4.0363417952
 20
-11.8319489235
 10
4.0090388881
 20
-11.819847015
 10
3.9832377536
 20
-11.8054688733
 10
3.9591553431
 20
-11.7889877631
 10
3.9365747052
 20
-11.7702304196
 10
3.9154111953
 20
-11.7488719523
 10
3.8955183809
 20
-11.7247606164
 10
3.8770426944
 20
-11.6980481565
 10
3.8603387882
 20
-11.6688649157
 10
3.8452147329
 20
-11.6370304952
 10
3.8318624579
 20
-11.6027252938
 10
3.821212404
 20
-11.5666208509
 10
3.8135747181
 20
-11.5289410131
 10
3.8086392533
 20
-11.4894619337
 10
3.8064060095
 20
-11.4481836129
  0
LWPOLYLINE
  5
5D2
100
AcDbEntity
  8
0
100
AcDbPolyline
 62
7
  6
CONTINUOUS
 90
37
 70
0
 10
7.1292613622
 20
-11.480786372
 10
7.1267794579
 20
-11.5200453583
 10
7.1219604977
 20
-11.5572871628
 10
7.1148044816
 20
-11.5925117854
 10
7.1052381473
 20
-11.6257547002
 10
7.0933347571
 20
-11.6569804331
 10
7.0793140979
 20
-11.6860825622
 10
7.0630330177
 20
-11.7130726224
 10
7.0446346686
 20
-11.7379390787
 10
7.0247682936
 20
-11.7605409045
 10
7.0034623867
 20
-11.7809197241
 10
6.9806884541
 20
-11.7990339131
 10
6.9570102565
 20
-11.8146175711
 10
6.9326426069
 20
-11.8275448901
 10
6.9073706924
 20
-11.8379416782
 10
6.8811138358
 20
-11.8459194595
 10
6.8537020786
 20
-11.8515757921
 10
6.8253053793
 20
-11.854813118
 10
6.7963529362
 20
-11.8554502863
 10
6.7664907125
 20
-11.8533839066
 10
6.736072745
 20
-11.8487173693
 10
6.7065903421
 20
-11.8415796953
 10
6.6783518703
 20
-11.8319489235
 10
6.6510489632
 20
-11.819847015
 10
6.6252478287
 20
-11.8054688733
 10
6.6011654182
 20
-11.7889877631
 10
6.5785847803
 20
-11.7702304196
 10
6.5574212704
 20
-11.7488719523
 10
6.537528456
 20
-11.7247606164
 10
6.5190527695
 20
-11.6980481565
 10
6.5023488633
 20
-11.6688649157
 10
6.487224808
 20
-11.6370304952
 10
6.473872533
 20
-11.6027252938
 10
6.4632224791
 20
-11.5666208509
 10
6.4555847932
 20
-11.5289410131
 10
6.4506493284
 20
-11.4894619337
 10
6.4484160846
 20
-11.4481836129
  0
LINE
  5
5D3
100
AcDbEntity
  8
0
100
AcDbLine
 62
7
  6
CONTINUOUS
 10
7.9811496719
 20
-11.0092462218
 11
7.957283809
 21
-11.1950125552
  0
LINE
  5
5D4
100
AcDbEntity
  8
0
100
AcDbLine
 62
7
  6
CONTINUOUS
 10
0.9992703047
 20
-10.2971419438
 11
0.2046032118
 21
-11.4014195924
  0
LINE
  5
5D5
100
AcDbEntity
  8
0
100
AcDbLine
 62
7
  6
CONTINUOUS
 10
0.4113327648
 20
-11.4014195924
 11
0.9579888973
 21
-10.6415835885
  0
LINE
  5
5D6
100
AcDbEntity
  8
0
100
AcDbLine
 62
7
  6
CONTINUOUS
 10
-18.0654181694
 20
4.976288
 11
-21.602136
 21
4.976288
  0
LINE
  5
5D7
100
AcDbEntity
  8
0
100
AcDbLine
 62
7
  6
CONTINUOUS
 10
-22.136182
 20
4.976288
 11
-22.310054
 21
4.976288
  0
LINE
  5
5D8
100
AcDbEntity
  8
0
100
AcDbLine
 62
7
  6
CONTINUOUS
 10
-22.417272
 20
4.976288
 11
-23.257676
 21
4.976288
  0
LINE
  5
5D9
100
AcDbEntity
  8
0
100
AcDbLine
 62
7
  6
CONTINUOUS
 10
-21.708946
 20
5.083098
 11
-22.029372
 21
5.083098
  0
LINE
  5
5DA
100
AcDbEntity
  8
0
100
AcDbLine
 62
7
  6
CONTINUOUS
 10
-20.48064
 20
5.403526
 11
-19.038718
 21
5.403526
  0
LINE
  5
5DB
100
AcDbEntity
  8
0
100
AcDbLine
 62
7
  6
CONTINUOUS
 10
-19.145528
 20
5.510334
 11
-20.373832
 21
5.510334
  0
LINE
  5
5DC
100
AcDbEntity
  8
0
100
AcDbLine
 62
7
  6
CONTINUOUS
 10
-22.029372
 20
5.777356
 11
-21.708946
 21
5.777356
  0
LINE
  5
5DD
100
AcDbEntity
  8
0
100
AcDbLine
 62
7
  6
CONTINUOUS
 10
-21.602136
 20
5.884166
 11
-22.136182
 21
5.884166
  0
LINE
  5
5DE
100
AcDbEntity
  8
0
100
AcDbLine
 62
7
  6
CONTINUOUS
 10
-20.373832
 20
5.93757
 11
-19.145528
 21
5.93757
  0
LINE
  5
5DF
100
AcDbEntity
  8
0
100
AcDbLine
 62
7
  6
CONTINUOUS
 10
-19.038718
 20
6.04438
 11
-20.48064
 21
6.04438
  0
LWPOLYLINE
  5
5E0
100
AcDbEntity
  8
0
100
AcDbPolyline
 62
7
  6
CONTINUOUS
 90
5
 70
0
 10
14.3932811594
 20
-11.5808582941
 10
14.3432031678
 20
-11.5060471139
 10
14.2911701626
 20
-11.4369529847
 10
14.2379961524
 20
-11.3727286157
 10
14.1836811373
 20
-11.3133740069
  0
LINE
  5
5E1
100
AcDbEntity
  8
0
100
AcDbLine
 62
7
  6
CONTINUOUS
 10
14.1429415152
 20
-11.6136579505
 11
14.3867017573
 21
-12.0
  0
LINE
  5
5E2
100
AcDbEntity
  8
0
100
AcDbLine
 62
7
  6
CONTINUOUS
 10
14.6534183259
 20
-12.0
 11
14.4924561534
 21
-11.7425480625
  0
LINE
  5
5E3
100
AcDbEntity
  8
0
100
AcDbLine
 62
7
  6
CONTINUOUS
 10
14.4924561534
 20
-11.7425480625
 11
14.3932811594
 21
-11.5808582941
  0
LINE
  5
5E4
100
AcDbEntity
  8
0
100
AcDbLine
 62
7
  6
CONTINUOUS
 10
12.9749099065
 20
-12.0
 11
12.2927991362
 21
-10.2971419438
  0
LINE
  5
5E5
100
AcDbEntity
  8
0
100
AcDbLine
 62
7
  6
CONTINUOUS
 10
12.3988866248
 20
-11.1044904677
 11
12.475017952
 21
-11.2982160738
  0
LINE
  5
5E6
100
AcDbEntity
  8
0
100
AcDbLine
 62
7
  6
CONTINUOUS
 10
12.543551482
 20
-11.4839824072
 11
12.7335103648
 21
-12.0
  0
LINE
  5
5E7
100
AcDbEntity
  8
0
100
AcDbLine
 62
7
  6
CONTINUOUS
 10
9.8128507896
 20
-10.5551507402
 11
10.3038738713
 21
-12.0
  0
LINE
  5
5E8
100
AcDbEntity
  8
0
100
AcDbLine
 62
7
  6
CONTINUOUS
 10
10.3539200562
 20
-11.5568723512
 11
9.9318574306
 21
-10.2971419438
  0
LINE
  5
5E9
100
AcDbEntity
  8
0
100
AcDbLine
 62
7
  6
CONTINUOUS
 10
10.3814574457
 20
-11.6409984781
 11
10.3539200562
 21
-11.5568723512
  0
LINE
  5
5EA
100
AcDbEntity
  8
0
100
AcDbLine
 62
7
  6
CONTINUOUS
 10
10.3992756612
 20
-11.6965494048
 11
10.3814574457
 21
-11.6409984781
  0
LINE
  5
5EB
100
AcDbEntity
  8
0
100
AcDbLine
 62
7
  6
CONTINUOUS
 10
10.4165914519
 20
-11.7516665236
 11
10.3992756612
 21
-11.6965494048
  0
LWPOLYLINE
  5
5EC
100
AcDbEntity
  8
0
100
AcDbPolyline
 62
7
  6
CONTINUOUS
 90
6
 70
0
 10
12.1710512674
 20
-10.4725879253
 10
12.1973792221
 20
-10.5583150021
 10
12.2259108255
 20
-10.6455647124
 10
12.2566460774
 20
-10.7343370564
 10
12.2900411355
 20
-10.824659084
 10
12.3988866248
 20
-11.1044904677
  0
LWPOLYLINE
  5
5ED
100
AcDbEntity
  8
0
100
AcDbPolyline
 62
7
  6
CONTINUOUS
 90
14
 70
0
 10
8.6507380494
 20
-11.4144879178
 10
8.6428755297
 20
-11.3739901107
 10
8.6320281271
 20
-11.3368793565
 10
8.6181509723
 20
-11.302372312
 10
8.6015269886
 20
-11.2700900869
 10
8.5823253353
 20
-11.2400010104
 10
8.560376853
 20
-11.2121367533
 10
8.535456987
 20
-11.1862134376
 10
8.5072369723
 20
-11.161892301
 10
8.4760455739
 20
-11.1395121058
 10
8.4426445316
 20
-11.1198052608
 10
8.4072877588
 20
-11.1030159023
 10
8.3697213421
 20
-11.088899894
 10
8.3299452815
 20
-11.0774572359
  0
LWPOLYLINE
  5
5EE
100
AcDbEntity
  8
0
100
AcDbPolyline
 62
7
  6
CONTINUOUS
 90
29
 70
0
 10
7.3278307265
 20
-11.3393374262
 10
7.3184770194
 20
-11.2905644659
 10
7.3059393552
 20
-11.2454958351
 10
7.290047989
 20
-11.2032320598
 10
7.2708119976
 20
-11.1630605225
 10
7.247999919
 20
-11.1245738544
 10
7.221843215
 20
-11.0881794244
 10
7.1930453483
 20
-11.0543867218
 10
7.1613700653
 20
-11.0230063595
 10
7.1270536195
 20
-10.9942277247
 10
7.0915082336
 20
-10.9691284684
 10
7.0552548756
 20
-10.9481369219
 10
7.0177725775
 20
-10.930824754
 10
6.9789106583
 20
-10.9169846217
 10
6.9383640795
 20
-10.9065037828
 10
6.8964378795
 20
-10.8994949795
 10
6.8538964931
 20
-10.8960890948
 10
6.8102829898
 20
-10.896414665
 10
6.7660543001
 20
-10.9003431537
 10
6.7233456495
 20
-10.9076198355
 10
6.6828379834
 20
-10.9181797111
 10
6.6438503565
 20
-10.9320877797
 10
6.606475159
 20
-10.949284313
 10
6.5706992892
 20
-10.9697405324
 10
6.5365358489
 20
-10.9934852164
 10
6.5041165332
 20
-11.020544973
 10
6.4734852405
 20
-11.0509286716
 10
6.4445980724
 20
-11.0846274428
 10
6.417455029
 20
-11.1216412865
  0
LWPOLYLINE
  5
5EF
100
AcDbEntity
  8
0
100
AcDbPolyline
 62
7
  6
CONTINUOUS
 90
45
 70
0
 10
7.3050052886
 20
-10.709956018
 10
7.2970092084
 20
-10.6623496679
 10
7.2861412687
 20
-10.6176447077
 10
7.2724014694
 20
-10.5758411375
 10
7.2556356314
 20
-10.5369773662
 10
7.2359979337
 20
-10.5010149848
 10
7.2139509145
 20
-10.4678387661
 10
7.1895798244
 20
-10.4374448813
 10
7.1627994126
 20
-10.4098371592
 10
7.1338164643
 20
-10.3849118593
 10
7.1027098208
 20
-10.3625688552
 10
7.0694006408
 20
-10.3429082733
 10
7.0338591854
 20
-10.3261267526
 10
6.9961564205
 20
-10.3122049314
 10
6.9562213801
 20
-10.3011621714
 10
6.9138114271
 20
-10.2932531965
 10
6.8679344317
 20
-10.2884334469
 10
6.8195825237
 20
-10.2867474824
 10
6.7714894549
 20
-10.2885837073
 10
6.723830254
 20
-10.2941382008
 10
6.6764298923
 20
-10.3032148835
 10
6.6314970353
 20
-10.315613922
 10
6.5899736122
 20
-10.3312441275
 10
6.5509176938
 20
-10.3501966886
 10
6.5137121577
 20
-10.3725453375
 10
6.4781559369
 20
-10.3981314721
 10
6.4444500984
 20
-10.4271136944
 10
6.4125807207
 20
-10.4600415421
 10
6.3823373261
 20
-10.4970742318
 10
6.3539303923
 20
-10.5380525468
 10
6.3279774308
 20
-10.5830483741
 10
6.3046052915
 20
-10.6322900905
 10
6.2836871246
 20
-10.6855493191
 10
6.265459892
 20
-10.7422128164
 10
6.2500568803
 20
-10.8022612897
 10
6.2373448029
 20
-10.8657140316
 10
6.2271607619
 20
-10.9320156774
 10
6.2195311987
 20
-11.0021443664
 10
6.2144296719
 20
-11.0751219592
 10
6.2116139602
 20
-11.1474586725
 10
6.2110086358
 20
-11.2187892802
 10
6.2126891265
 20
-11.2894790084
 10
6.2166394942
 20
-11.3571337528
 10
6.2227880925
 20
-11.4209340337
 10
6.2312065678
 20
-11.4816993309
  0
LWPOLYLINE
  5
5F0
100
AcDbEntity
  8
0
100
AcDbPolyline
 62
7
  6
CONTINUOUS
 90
39
 70
0
 10
7.5423733813
 20
-11.5562248702
 10
7.5494908214
 20
-11.6055990572
 10
7.5598801491
 20
-11.6522998134
 10
7.5735413644
 20
-11.6963271387
 10
7.590524241
 20
-11.7375193447
 10
7.6107790053
 20
-11.7760381198
 10
7.6341563361
 20
-11.8123685297
 10
7.6608631835
 20
-11.8469025296
 10
7.6906925975
 20
-11.8792481643
 10
7.722874407
 20
-11.9087146334
 10
7.7572128918
 20
-11.9351973449
 10
7.7939037722
 20
-11.9588008907
 10
7.8327640386
 20
-11.9791482465
 10
7.873529258
 20
-11.99618144
 10
7.9164638633
 20
-12.0099584434
 10
7.9621781432
 20
-12.0202761494
 10
8.0118459565
 20
-12.0271939248
 10
8.0642934444
 20
-12.0306524026
 10
8.1166093184
 20
-12.0302703747
 10
8.1686941913
 20
-12.0258136253
 10
8.2206474503
 20
-12.0175163702
 10
8.2698559686
 20
-12.0057000485
 10
8.315220255
 20
-11.9904548653
 10
8.3578398007
 20
-11.9716906156
 10
8.3983999526
 20
-11.9494581232
 10
8.4374536905
 20
-11.9233841545
 10
8.4744480346
 20
-11.8938419432
 10
8.5084093919
 20
-11.8620020135
 10
8.5392549388
 20
-11.827910145
 10
8.5670674989
 20
-11.7915205582
 10
8.59112195
 20
-11.7538664389
 10
8.6111070226
 20
-11.7153710488
 10
8.6273339862
 20
-11.6756111263
 10
8.6400115272
 20
-11.6343500723
 10
8.6491751614
 20
-11.5907977864
 10
8.6547893729
 20
-11.5457443689
 10
8.6569563016
 20
-11.5013235224
 10
8.6555708169
 20
-11.4575894346
 10
8.6507380494
 20
-11.4144879178
  0
LINE
  5
5F1
100
AcDbEntity
  8
0
100
AcDbLine
 62
7
  6
CONTINUOUS
 10
9.5858030488
 20
-10.2971419438
 11
9.5858030488
 21
-12.0
  0
LINE
  5
5F2
100
AcDbEntity
  8
0
100
AcDbLine
 62
7
  6
CONTINUOUS
 10
9.8128507896
 20
-12.0
 11
9.8128507896
 21
-10.5551507402
  0
LINE
  5
5F3
100
AcDbEntity
  8
0
100
AcDbLine
 62
7
  6
CONTINUOUS
 10
10.999691253
 20
-10.5757914439
 11
10.999691253
 21
-12.0
  0
LINE
  5
5F4
100
AcDbEntity
  8
0
100
AcDbLine
 62
7
  6
CONTINUOUS
 10
11.2267389939
 20
-12.0
 11
11.2267389939
 21
-10.2971419438
  0
LINE
  5
5F5
100
AcDbEntity
  8
0
100
AcDbLine
 62
7
  6
CONTINUOUS
 10
13.1772854946
 20
-10.2971419438
 11
13.1772854946
 21
-12.0
  0
LINE
  5
5F6
100
AcDbEntity
  8
0
100
AcDbLine
 62
7
  6
CONTINUOUS
 10
13.4043332354
 20
-12.0
 11
13.4043332354
 21
-11.2466143145
  0
LINE
  5
5F7
100
AcDbEntity
  8
0
100
AcDbLine
 62
7
  6
CONTINUOUS
 10
13.4043332354
 20
-11.0505276293
 11
13.4043332354
 21
-10.493228629
  0
LWPOLYLINE
  5
5F8
100
AcDbEntity
  8
0
100
AcDbPolyline
 62
7
  6
CONTINUOUS
 90
34
 70
0
 10
7.7694211221
 20
-10.7615577773
 10
7.7760326264
 20
-10.7269466527
 10
7.7843232057
 20
-10.694368533
 10
7.79429286
 20
-10.663823418
 10
7.8060216798
 20
-10.6352192674
 10
7.8194295747
 20
-10.6086481216
 10
7.8342762734
 20
-10.5843861019
 10
7.8504323754
 20
-10.5626119763
 10
7.8680272812
 20
-10.5431469768
 10
7.8872089214
 20
-10.5257309214
 10
7.908026817
 20
-10.5102441556
 10
7.9304314469
 20
-10.4968063337
 10
7.9544221791
 20
-10.4855162369
 10
7.9802667312
 20
-10.4763308847
 10
8.0076973856
 20
-10.4692932574
 10
8.0359103574
 20
-10.464631077
 10
8.065303268
 20
-10.4624615354
 10
8.095478496
 20
-10.4626674407
 10
8.1244393924
 20
-10.4651249379
 10
8.151599908
 20
-10.4698320621
 10
8.177546092
 20
-10.4767907782
 10
8.2020394433
 20
-10.4858831264
 10
8.2250625158
 20
-10.4971974105
 10
8.2466327555
 20
-10.5106453266
 10
8.2665639996
 20
-10.5258440028
 10
8.2849510287
 20
-10.542824742
 10
8.3016990621
 20
-10.5615562414
 10
8.3163375946
 20
-10.5815617204
 10
8.3287559791
 20
-10.6026711607
 10
8.3390648626
 20
-10.6250545807
 10
8.3471256807
 20
-10.648745255
 10
8.3528922452
 20
-10.6737542751
 10
8.3564107443
 20
-10.7000705496
 10
8.3576811779
 20
-10.7276940785
  0
LWPOLYLINE
  5
5F9
100
AcDbEntity
  8
0
100
AcDbPolyline
 62
7
  6
CONTINUOUS
 90
3
 70
0
 10
10.4464782272
 20
-11.6618542164
 10
10.4363493077
 20
-11.6918981159
 10
10.4165914519
 20
-11.7516665236
  0
LWPOLYLINE
  5
5FA
100
AcDbEntity
  8
0
100
AcDbPolyline
 62
7
  6
CONTINUOUS
 90
3
 70
0
 10
10.4778649524
 20
-11.5710837353
 10
10.4672828627
 20
-11.6014506671
 10
10.4464782272
 20
-11.6618542164
  0
LINE
  5
5FB
100
AcDbEntity
  8
DRAFT
100
AcDbLine
 62
7
  6
CONTINUOUS
 10
-3.3110927272
 20
-29.388662933
 11
-3.65
 21
-29.9756675485
  0
LINE
  5
5FC
100
AcDbEntity
  8
DRAFT
100
AcDbLine
 62
7
  6
CONTINUOUS
 10
-3.25
 20
-29.40503268
 11
-3.65
 21
-30.097853003
  0
LWPOLYLINE
  5
5FD
100
AcDbEntity
  8
0
100
AcDbPolyline
 62
7
  6
CONTINUOUS
 90
22
 70
0
 10
5.7073664755
 20
-11.7187703726
 10
5.6870856616
 20
-11.7440078758
 10
5.6661474347
 20
-11.7666059308
 10
5.6445517948
 20
-11.7865645376
 10
5.6223599913
 20
-11.8038180445
 10
5.5995107747
 20
-11.8184321033
 10
5.5758203972
 20
-11.8306036681
 10
5.5512029331
 20
-11.8403980161
 10
5.5257443081
 20
-11.8477498702
 10
5.4995185511
 20
-11.8526603541
 10
5.4720471934
 20
-11.8551306768
 10
5.4438087038
 20
-11.8551596293
 10
5.4163125178
 20
-11.8527447083
 10
5.3900255528
 20
-11.8478835007
 10
5.3644808913
 20
-11.8405784197
 10
5.3397872161
 20
-11.8308342006
 10
5.3160457557
 20
-11.8187198919
 10
5.2931552816
 20
-11.8041664453
 10
5.2709207908
 20
-11.7869714513
 10
5.2492772825
 20
-11.7670674401
 10
5.2282897576
 20
-11.7445218814
 10
5.2079582162
 20
-11.7193347754
  0
LINE
  5
5FE
100
AcDbEntity
  8
RACCORDO
100
AcDbLine
 62
253
  6
CONTINUOUS
 10
-35.9
 20
-53.9001523048
 11
-35.7952696104
 21
-53.7954219153
  0
LWPOLYLINE
  5
5FF
100
AcDbEntity
  8
0
100
AcDbPolyline
 62
7
  6
CONTINUOUS
 90
25
 70
0
 10
3.986044698
 20
-10.5180618822
 10
4.0101747719
 20
-10.5029375257
 10
4.0351194216
 20
-10.4901962464
 10
4.0608786469
 20
-10.4798380443
 10
4.0877132925
 20
-10.4718659508
 10
4.1153625138
 20
-10.4662769346
 10
4.1430437771
 20
-10.4630619017
 10
4.1708845423
 20
-10.4622804152
 10
4.1987573496
 20
-10.4638729121
 10
4.2254972856
 20
-10.4676516091
 10
4.2508467145
 20
-10.4737248797
 10
4.2750632722
 20
-10.4819843504
 10
4.2977549534
 20
-10.4919171168
 10
4.3188092144
 20
-10.5034565967
 10
4.3383385991
 20
-10.5166693723
 10
4.3562887332
 20
-10.5312422861
 10
4.3725429782
 20
-10.5469321773
 10
4.3872179727
 20
-10.5639822067
 10
4.4006092581
 20
-10.5828086993
 10
4.4127413478
 20
-10.6036729974
 10
4.4235897284
 20
-10.6263137587
 10
4.4333764015
 20
-10.650363282
 10
4.4421753674
 20
-10.675699
 10
4.4499126257
 20
-10.7024434799
 10
4.4565881764
 20
-10.7305967217
  0
LWPOLYLINE
  5
600
100
AcDbEntity
  8
0
100
AcDbPolyline
 62
7
  6
CONTINUOUS
 90
25
 70
0
 10
6.6280547731
 20
-10.5180618822
 10
6.652184847
 20
-10.5029375257
 10
6.6771294967
 20
-10.4901962464
 10
6.702888722
 20
-10.4798380443
 10
6.7297233676
 20
-10.4718659508
 10
6.7573725889
 20
-10.4662769346
 10
6.7850538522
 20
-10.4630619017
 10
6.8128946174
 20
-10.4622804152
 10
6.8407674247
 20
-10.4638729121
 10
6.8675073607
 20
-10.4676516091
 10
6.8928567896
 20
-10.4737248797
 10
6.9170733473
 20
-10.4819843504
 10
6.9397650285
 20
-10.4919171168
 10
6.9608192895
 20
-10.5034565967
 10
6.9803486742
 20
-10.5166693723
 10
6.9982988083
 20
-10.5312422861
 10
7.0145530533
 20
-10.5469321773
 10
7.0292280478
 20
-10.5639822067
 10
7.0426193332
 20
-10.5828086993
 10
7.0547514229
 20
-10.6036729974
 10
7.0655998035
 20
-10.6263137587
 10
7.0753864766
 20
-10.650363282
 10
7.0841854425
 20
-10.675699
 10
7.0919227008
 20
-10.7024434799
 10
7.0985982515
 20
-10.7305967217
  0
LWPOLYLINE
  5
601
100
AcDbEntity
  8
0
100
AcDbPolyline
 62
7
  6
CONTINUOUS
 90
12
 70
0
 10
2.5404060794
 20
-10.3423814968
 10
2.5061255325
 20
-10.362069278
 10
2.4739766787
 20
-10.3846007618
 10
2.4440092656
 20
-10.4097430828
 10
2.4161735456
 20
-10.4377291064
 10
2.3901597027
 20
-10.4692124932
 10
2.3655949279
 20
-10.5044951316
 10
2.3428520303
 20
-10.5432751331
 10
2.322739621
 20
-10.5853004934
 10
2.3055272372
 20
-10.6304872108
 10
2.2909453418
 20
-10.6789192869
 10
2.2789939348
 20
-10.7305967217
  0
LWPOLYLINE
  5
602
100
AcDbEntity
  8
0
100
AcDbPolyline
 62
7
  6
CONTINUOUS
 90
12
 70
0
 10
7.8244262296
 20
-10.3423814968
 10
7.7901456827
 20
-10.362069278
 10
7.7579968289
 20
-10.3846007618
 10
7.7280294158
 20
-10.4097430828
 10
7.7001936958
 20
-10.4377291064
 10
7.6741798529
 20
-10.4692124932
 10
7.6496150781
 20
-10.5044951316
 10
7.6268721805
 20
-10.5432751331
 10
7.6067597712
 20
-10.5853004934
 10
7.5895473874
 20
-10.6304872108
 10
7.574965492
 20
-10.6789192869
 10
7.563014085
 20
-10.7305967217
  0
LWPOLYLINE
  5
603
100
AcDbEntity
  8
0
100
AcDbPolyline
 62
7
  6
CONTINUOUS
 90
38
 70
0
 10
3.0459251313
 20
-11.0774572359
 10
3.0817628311
 20
-11.0585563789
 10
3.1144245195
 20
-11.0383136682
 10
3.1439101965
 20
-11.0167291036
 10
3.1700748694
 20
-10.9938418563
 10
3.193063531
 20
-10.9696127551
 10
3.2133111592
 20
-10.943924287
 10
3.2309283029
 20
-10.9167945992
 10
3.2458044132
 20
-10.8882055446
 10
3.2580428213
 20
-10.8579851686
 10
3.2678320784
 20
-10.8258118319
 10
3.2749836333
 20
-10.7920071738
 10
3.2790351638
 20
-10.7573641576
 10
3.2798996425
 20
-10.7218347997
 10
3.2776640968
 20
-10.6854670838
 10
3.2721272863
 20
-10.6491979245
 10
3.2630799325
 20
-10.6128613765
 10
3.250731314
 20
-10.5766233851
 10
3.235508027
 20
-10.5419187006
 10
3.2174481211
 20
-10.5090203534
 10
3.1965135467
 20
-10.4776553132
 10
3.1730167515
 20
-10.4484392387
 10
3.1471629292
 20
-10.4216047617
 10
3.1187468861
 20
-10.3969192505
 10
3.0874654889
 20
-10.374300468
 10
3.0531027832
 20
-10.3534400842
 10
3.0158747234
 20
-10.3346464292
 10
2.9761260388
 20
-10.3187622569
 10
2.9334078899
 20
-10.3058344179
 10
2.8881691162
 20
-10.2958160614
 10
2.8421009661
 20
-10.28940939
 10
2.7948293652
 20
-10.2869461301
 10
2.7467283878
 20
-10.2880945551
 10
2.7006115048
 20
-10.2925616877
 10
2.6573138157
 20
-10.3003932253
 10
2.616000221
 20
-10.3115434704
 10
2.5769788928
 20
-10.3255823536
 10
2.5404060794
 20
-10.3423814968
  0
LWPOLYLINE
  5
604
100
AcDbEntity
  8
0
100
AcDbPolyline
 62
7
  6
CONTINUOUS
 90
38
 70
0
 10
8.3299452815
 20
-11.0774572359
 10
8.3657829813
 20
-11.0585563789
 10
8.3984446697
 20
-11.0383136682
 10
8.4279303467
 20
-11.0167291036
 10
8.4540950196
 20
-10.9938418563
 10
8.4770836812
 20
-10.9696127551
 10
8.4973313094
 20
-10.943924287
 10
8.5149484531
 20
-10.9167945992
 10
8.5298245634
 20
-10.8882055446
 10
8.5420629715
 20
-10.8579851686
 10
8.5518522286
 20
-10.8258118319
 10
8.5590037835
 20
-10.7920071738
 10
8.563055314
 20
-10.7573641576
 10
8.5639197927
 20
-10.7218347997
 10
8.561684247
 20
-10.6854670838
 10
8.5561474365
 20
-10.6491979245
 10
8.5471000827
 20
-10.6128613765
 10
8.5347514642
 20
-10.5766233851
 10
8.5195281772
 20
-10.5419187006
 10
8.5014682713
 20
-10.5090203534
 10
8.4805336969
 20
-10.4776553132
 10
8.4570369017
 20
-10.4484392387
 10
8.4311830794
 20
-10.4216047617
 10
8.4027670363
 20
-10.3969192505
 10
8.3714856391
 20
-10.374300468
 10
8.3371229334
 20
-10.3534400842
 10
8.2998948736
 20
-10.3346464292
 10
8.260146189
 20
-10.3187622569
 10
8.2174280401
 20
-10.3058344179
 10
8.1721892664
 20
-10.2958160614
 10
8.1261211163
 20
-10.28940939
 10
8.0788495154
 20
-10.2869461301
 10
8.030748538
 20
-10.2880945551
 10
7.984631655
 20
-10.2925616877
 10
7.9413339659
 20
-10.3003932253
 10
7.9000203712
 20
-10.3115434704
 10
7.860999043
 20
-10.3255823536
 10
7.8244262296
 20
-10.3423814968
  0
LWPOLYLINE
  5
605
100
AcDbEntity
  8
0
100
AcDbPolyline
 62
7
  6
CONTINUOUS
 90
10
 70
0
 10
-0.8893540849
 20
-10.9176529613
 10
-0.8335584395
 20
-10.8943287278
 10
-0.7797067532
 20
-10.8696593862
 10
-0.7277990262
 20
-10.8436449367
 10
-0.6775003009
 20
-10.8160699731
 10
-0.6291455348
 20
-10.7871499015
 10
-0.5837396003
 20
-10.7575309401
 10
-0.5416174548
 20
-10.727428495
 10
-0.502444141
 20
-10.6966271602
 10
-0.4662196588
 20
-10.6651269355
  0
LINE
  5
606
100
AcDbEntity
  8
RACCORDO
100
AcDbLine
 62
253
  6
CONTINUOUS
 10
-35.7952696104
 20
53.7954219153
 11
-35.9
 21
53.9001523048
  0
LWPOLYLINE
  5
607
100
AcDbEntity
  8
0
100
AcDbPolyline
 62
7
  6
CONTINUOUS
 90
41
 70
0
 10
17.9556084039
 20
-10.7718781292
 10
17.951411862
 20
-10.7246819157
 10
17.9438162413
 20
-10.6793488139
 10
17.9328215417
 20
-10.6358788238
 10
17.9182249275
 20
-10.5939913504
 10
17.9002292345
 20
-10.5539669886
 10
17.8794429698
 20
-10.5166475235
 10
17.856143004
 20
-10.4824223137
 10
17.8300524667
 20
-10.4509020007
 10
17.8009492535
 20
-10.4217602934
 10
17.7688857993
 20
-10.3949003471
 10
17.7338096694
 20
-10.3704190065
 10
17.6953414556
 20
-10.3482805154
 10
17.653267272
 20
-10.3283114324
 10
17.6078010045
 20
-10.310685199
 10
17.5592049038
 20
-10.2958863824
 10
17.5069617994
 20
-10.2839368711
 10
17.4515888617
 20
-10.2748147768
 10
17.3948998528
 20
-10.2689390012
 10
17.3362117244
 20
-10.2664734226
 10
17.2762075248
 20
-10.2672541628
 10
17.2187501609
 20
-10.2712084892
 10
17.1649716532
 20
-10.2785054587
 10
17.1137399812
 20
-10.2889760143
 10
17.0655219898
 20
-10.3020402522
 10
17.0203905067
 20
-10.3176311172
 10
16.9782727042
 20
-10.3358156644
 10
16.9394169437
 20
-10.3562151554
 10
16.9040051275
 20
-10.3786883642
 10
16.8718553534
 20
-10.4033765168
 10
16.8426702764
 20
-10.430324552
 10
16.8163454303
 20
-10.4596409799
 10
16.7929852814
 20
-10.4912172906
 10
16.7726058836
 20
-10.5247728933
 10
16.7550474684
 20
-10.5607111747
 10
16.7404698042
 20
-10.5986287482
 10
16.7293682504
 20
-10.6370348633
 10
16.7219292825
 20
-10.675911021
 10
16.7179664249
 20
-10.7152757203
 10
16.7174156099
 20
-10.753693707
 10
16.7203705188
 20
-10.7908589219
  0
LWPOLYLINE
  5
608
100
AcDbEntity
  8
0
100
AcDbPolyline
 62
7
  6
CONTINUOUS
 90
22
 70
0
 10
16.65524407
 20
-11.4427009998
 10
16.6587932926
 20
-11.4944080327
 10
16.6657374131
 20
-11.5439697752
 10
16.6760764315
 20
-11.5913862275
 10
16.6899721825
 20
-11.6366841808
 10
16.7072628314
 20
-11.6798368438
 10
16.7274628741
 20
-11.7207638425
 10
16.7505545021
 20
-11.7595832553
 10
16.7765555239
 20
-11.7961770039
 10
16.8050338609
 20
-11.8301104792
 10
16.8356622006
 20
-11.8611615812
 10
16.8687678554
 20
-11.8895524099
 10
16.9049006841
 20
-11.9155146558
 10
16.944105355
 20
-11.9392135511
 10
16.9863371998
 20
-11.9604838636
 10
17.0320120717
 20
-11.9790615874
 10
17.0814685114
 20
-11.9949511092
 10
17.1343679782
 20
-12.0081480422
 10
17.1901107039
 20
-12.01837522
 10
17.2484967658
 20
-12.0255402537
 10
17.3097260867
 20
-12.0297355323
 10
17.3737986664
 20
-12.0309610556
  0
LWPOLYLINE
  5
609
100
AcDbEntity
  8
0
100
AcDbPolyline
 62
7
  6
CONTINUOUS
 90
43
 70
0
 10
16.427878277
 20
-11.12233193
 10
16.4228065504
 20
-11.0411478854
 10
16.4133496642
 20
-10.9641822907
 10
16.3995076186
 20
-10.8914351458
 10
16.3808851474
 20
-10.82283528
 10
16.3578775167
 20
-10.758453864
 10
16.3316705243
 20
-10.6985044105
 10
16.3025786421
 20
-10.6432818155
 10
16.2702873982
 20
-10.5924911829
 10
16.2350391756
 20
-10.5454613372
 10
16.197015174
 20
-10.5021571305
 10
16.1560341936
 20
-10.4626137108
 10
16.1117950179
 20
-10.4262653461
 10
16.0638610429
 20
-10.392646531
 10
16.0126688726
 20
-10.3622227709
 10
15.9592271017
 20
-10.3358248506
 10
15.9040512374
 20
-10.3136205328
 10
15.8466257725
 20
-10.2954420548
 10
15.7864127813
 20
-10.2816169128
 10
15.7221845713
 20
-10.2721640172
 10
15.6551688348
 20
-10.2670644576
 10
15.5885107232
 20
-10.2665889993
 10
15.5222240301
 20
-10.2710264043
 10
15.4562949618
 20
-10.2800879105
 10
15.3938272888
 20
-10.2931779969
 10
15.3362197777
 20
-10.3101287308
 10
15.2820736618
 20
-10.331108045
 10
15.2302964115
 20
-10.356024217
 10
15.180447159
 20
-10.3849231096
 10
15.132966772
 20
-10.4177588601
 10
15.0880853236
 20
-10.4543021576
 10
15.0455648913
 20
-10.4947016613
 10
15.0056433975
 20
-10.538808712
 10
14.9692646831
 20
-10.5859480213
 10
14.9367500107
 20
-10.6355708017
 10
14.9077781177
 20
-10.6882258408
 10
14.8823290563
 20
-10.7448842121
 10
14.8602359245
 20
-10.8058525188
 10
14.8416656242
 20
-10.8708241578
 10
14.8270989146
 20
-10.939850394
 10
14.8166960484
 20
-11.0129483156
 10
14.8102967729
 20
-11.0901008344
 10
14.8079010878
 20
-11.1713079503
  0
LWPOLYLINE
  5
60A
100
AcDbEntity
  8
0
100
AcDbPolyline
 62
7
  6
CONTINUOUS
 90
43
 70
0
 10
14.8079010878
 20
-11.1713079503
 10
14.8111156181
 20
-11.2460293482
 10
14.8190677239
 20
-11.3183091655
 10
14.8317574052
 20
-11.3881474022
 10
14.8496483066
 20
-11.4560881435
 10
14.8722767834
 20
-11.5215873041
 10
14.8982519019
 20
-11.5830126285
 10
14.9272570207
 20
-11.6397762864
 10
14.9596087811
 20
-11.692466108
 10
14.9948661733
 20
-11.7412133279
 10
15.032822842
 20
-11.7858634974
 10
15.0736851425
 20
-11.8265710651
 10
15.1176311306
 20
-11.8639306116
 10
15.164943399
 20
-11.8983422102
 10
15.215339355
 20
-11.9294057875
 10
15.2681492773
 20
-11.9565157048
 10
15.3231788002
 20
-11.9796248216
 10
15.3806222894
 20
-11.9987802784
 10
15.4403931195
 20
-12.0135178566
 10
15.5031906331
 20
-12.0238112977
 10
15.5683154876
 20
-12.0296868602
 10
15.6335830305
 20
-12.0307591016
 10
15.6990156338
 20
-12.0267525862
 10
15.7645909255
 20
-12.0179427496
 10
15.8280571371
 20
-12.0047704561
 10
15.8891735333
 20
-11.9870205698
 10
15.9481808495
 20
-11.9649082265
 10
16.0035495232
 20
-11.9395196975
 10
16.0546574099
 20
-11.9111570622
 10
16.1021266543
 20
-11.8795182412
 10
16.1462941273
 20
-11.8447832676
 10
16.1869830061
 20
-11.8074733154
 10
16.2243701137
 20
-11.7670672107
 10
16.2593227898
 20
-11.7221814642
 10
16.2924855166
 20
-11.6722573545
 10
16.323213812
 20
-11.6178536031
 10
16.3504415694
 20
-11.5592628853
 10
16.3741943952
 20
-11.4965103782
 10
16.3944466829
 20
-11.4295709046
 10
16.4100555075
 20
-11.3586616086
 10
16.4206398939
 20
-11.2838548715
 10
16.426580817
 20
-11.205078312
 10
16.427878277
 20
-11.12233193
  0
LWPOLYLINE
  5
60B
100
AcDbEntity
  8
0
100
AcDbPolyline
 62
7
  6
CONTINUOUS
 90
16
 70
0
 10
15.0349488287
 20
-11.1740493356
 10
15.0354407062
 20
-11.1246013153
 10
15.0375471239
 20
-11.07671112
 10
15.0412680818
 20
-11.0303787499
 10
15.0465818116
 20
-10.9854431523
 10
15.0535100816
 20
-10.9420653798
 10
15.0621181961
 20
-10.9007285903
 10
15.0724820562
 20
-10.8615494382
 10
15.0845257608
 20
-10.8244112689
 10
15.0980869113
 20
-10.789447277
 10
15.1132291755
 20
-10.7566738018
 10
15.1298888855
 20
-10.7260745038
 10
15.1477126394
 20
-10.6977335597
 10
15.1665826363
 20
-10.6716790281
 10
15.1866166771
 20
-10.6478828504
 10
15.2078147616
 20
-10.6263450264
  0
LINE
  5
60C
100
AcDbEntity
  8
0
100
AcDbLine
 62
7
  6
CONTINUOUS
 10
11.6395530681
 20
-12.0
 11
11.8190304986
 21
-11.4839824072
  0
LINE
  5
60D
100
AcDbEntity
  8
0
100
AcDbLine
 62
7
  6
CONTINUOUS
 10
10.4970579133
 20
-12.0
 11
10.999691253
 21
-10.5757914439
  0
LINE
  5
60E
100
AcDbEntity
  8
0
100
AcDbLine
 62
7
  6
CONTINUOUS
 10
10.5101196505
 20
-11.4793059264
 11
10.4778649524
 21
-11.5710837353
  0
LINE
  5
60F
100
AcDbEntity
  8
0
100
AcDbLine
 62
7
  6
CONTINUOUS
 10
10.931318981
 20
-10.2971419438
 11
10.5101196505
 21
-11.4793059264
  0
LINE
  5
610
100
AcDbEntity
  8
0
100
AcDbLine
 62
7
  6
CONTINUOUS
 10
11.883693995
 20
-11.2982160738
 11
12.0676864909
 21
-10.8010653472
  0
LINE
  5
611
100
AcDbEntity
  8
0
100
AcDbLine
 62
7
  6
CONTINUOUS
 10
12.0472070451
 20
-10.2971419438
 11
11.3999275215
 21
-12.0
  0
LWPOLYLINE
  5
612
100
AcDbEntity
  8
0
100
AcDbPolyline
 62
7
  6
CONTINUOUS
 90
10
 70
0
 10
12.0676864909
 20
-10.8010653472
 10
12.0818842436
 20
-10.7660246196
 10
12.0954171626
 20
-10.7305861174
 10
12.1082852478
 20
-10.6947498407
 10
12.1205063135
 20
-10.6584710112
 10
12.1320625455
 20
-10.6217944073
 10
12.1429005011
 20
-10.5848543632
 10
12.1530023662
 20
-10.5476956573
 10
12.162385955
 20
-10.5102735113
 10
12.1710512674
 20
-10.4725879253
  0
LINE
  5
613
100
AcDbEntity
  8
RACCORDO
100
AcDbLine
 62
253
  6
CONTINUOUS
 10
-34.9001523048
 20
-54.9
 11
-34.7954219153
 21
-54.7952696104
  0
LINE
  5
614
100
AcDbEntity
  8
DRAFT
100
AcDbLine
 62
7
  6
CONTINUOUS
 10
-34.5523651948
 20
-54.9
 11
-34.5
 21
-54.8476348052
  0
LWPOLYLINE
  5
615
100
AcDbEntity
  8
0
100
AcDbPolyline
 62
7
  6
CONTINUOUS
 90
42
 70
0
 10
15.2078147616
 20
-10.6263450264
 10
15.2466692044
 20
-10.5924817379
 10
15.2868537276
 20
-10.5625621346
 10
15.3283683311
 20
-10.5365862164
 10
15.3711161181
 20
-10.5145979858
 10
15.4151939855
 20
-10.4965534403
 10
15.4608926239
 20
-10.4823205728
 10
15.5088225468
 20
-10.4718360419
 10
15.5583732406
 20
-10.4651631891
 10
15.6080038551
 20
-10.4623600318
 10
15.6578735908
 20
-10.4635052931
 10
15.7078232472
 20
-10.46852025
 10
15.7558343723
 20
-10.4772267513
 10
15.8012829929
 20
-10.4897072806
 10
15.8447930823
 20
-10.5058793542
 10
15.8862181077
 20
-10.52531737
 10
15.9256532474
 20
-10.5479719911
 10
15.9630033231
 20
-10.5738925543
 10
15.9978362674
 20
-10.6028014691
 10
16.0300188273
 20
-10.6344759476
 10
16.0596842557
 20
-10.6691387776
 10
16.0868002445
 20
-10.7071807315
 10
16.111485546
 20
-10.7486325695
 10
16.1336214079
 20
-10.7934635314
 10
16.1528192654
 20
-10.8419721089
 10
16.1691480293
 20
-10.89465437
 10
16.1825387887
 20
-10.9510142466
 10
16.1923962465
 20
-11.0098620271
 10
16.1984947699
 20
-11.0720349941
 10
16.2010599917
 20
-11.136695865
 10
16.2001735118
 20
-11.2001430797
 10
16.1958110927
 20
-11.2618445209
 10
16.1879969721
 20
-11.322332306
 10
16.176885463
 20
-11.3795012275
 10
16.1624299074
 20
-11.4326729262
 10
16.1446769634
 20
-11.4825257614
 10
16.123920919
 20
-11.5289896028
 10
16.1000955863
 20
-11.5719311615
 10
16.0732671531
 20
-11.6114837265
 10
16.0439284713
 20
-11.6479770344
 10
16.0120392005
 20
-11.6816066606
 10
15.9776396811
 20
-11.7121770297
  0
LINE
  5
616
100
AcDbEntity
  8
0
100
AcDbLine
 62
7
  6
CONTINUOUS
 10
27.5
 20
15.95
 11
25.75
 21
15.95
  0
LINE
  5
617
100
AcDbEntity
  8
0
100
AcDbLine
 62
7
  6
CONTINUOUS
 10
24.25
 20
15.95
 11
22.5
 21
15.95
  0
LINE
  5
618
100
AcDbEntity
  8
0
100
AcDbLine
 62
7
  6
CONTINUOUS
 10
2.5
 20
15.95
 11
0.75
 21
15.95
  0
LINE
  5
619
100
AcDbEntity
  8
0
100
AcDbLine
 62
7
  6
CONTINUOUS
 10
-0.75
 20
15.95
 11
-2.5
 21
15.95
  0
LINE
  5
61A
100
AcDbEntity
  8
0
100
AcDbLine
 62
7
  6
CONTINUOUS
 10
-22.5
 20
15.95
 11
-24.25
 21
15.95
  0
LINE
  5
61B
100
AcDbEntity
  8
0
100
AcDbLine
 62
7
  6
CONTINUOUS
 10
-25.75
 20
15.95
 11
-27.5
 21
15.95
  0
LINE
  5
61C
100
AcDbEntity
  8
DRAFT
100
AcDbLine
 62
7
  6
CONTINUOUS
 10
35.9
 20
17.75
 11
27.5
 21
17.75
  0
LINE
  5
61D
100
AcDbEntity
  8
DRAFT
100
AcDbLine
 62
7
  6
CONTINUOUS
 10
25.75
 20
17.75
 11
24.25
 21
17.75
  0
LINE
  5
61E
100
AcDbEntity
  8
DRAFT
100
AcDbLine
 62
7
  6
CONTINUOUS
 10
22.5
 20
17.75
 11
2.5
 21
17.75
  0
LINE
  5
61F
100
AcDbEntity
  8
DRAFT
100
AcDbLine
 62
7
  6
CONTINUOUS
 10
0.75
 20
17.75
 11
-0.75
 21
17.75
  0
LINE
  5
620
100
AcDbEntity
  8
DRAFT
100
AcDbLine
 62
7
  6
CONTINUOUS
 10
-2.5
 20
17.75
 11
-22.5
 21
17.75
  0
LINE
  5
621
100
AcDbEntity
  8
DRAFT
100
AcDbLine
 62
7
  6
CONTINUOUS
 10
-24.25
 20
17.75
 11
-25.75
 21
17.75
  0
LINE
  5
622
100
AcDbEntity
  8
DRAFT
100
AcDbLine
 62
7
  6
CONTINUOUS
 10
-27.5
 20
17.75
 11
-35.9
 21
17.75
  0
LINE
  5
623
100
AcDbEntity
  8
DRAFT
100
AcDbLine
 62
7
  6
CONTINUOUS
 10
27.5
 20
18.0176397269
 11
25.75
 21
18.0176397269
  0
LINE
  5
624
100
AcDbEntity
  8
DRAFT
100
AcDbLine
 62
7
  6
CONTINUOUS
 10
24.25
 20
18.0176397269
 11
22.5
 21
18.0176397269
  0
LINE
  5
625
100
AcDbEntity
  8
DRAFT
100
AcDbLine
 62
7
  6
CONTINUOUS
 10
2.5
 20
18.0176397269
 11
0.75
 21
18.0176397269
  0
LINE
  5
626
100
AcDbEntity
  8
DRAFT
100
AcDbLine
 62
7
  6
CONTINUOUS
 10
-0.75
 20
18.0176397269
 11
-2.5
 21
18.0176397269
  0
LINE
  5
627
100
AcDbEntity
  8
DRAFT
100
AcDbLine
 62
7
  6
CONTINUOUS
 10
-22.5
 20
18.0176397269
 11
-24.25
 21
18.0176397269
  0
LINE
  5
628
100
AcDbEntity
  8
DRAFT
100
AcDbLine
 62
7
  6
CONTINUOUS
 10
-25.75
 20
18.0176397269
 11
-27.5
 21
18.0176397269
  0
LINE
  5
629
100
AcDbEntity
  8
DRAFT
100
AcDbLine
 62
7
  6
CONTINUOUS
 10
35.7952696104
 20
18.0644466757
 11
-35.7952696104
 21
18.0644466757
  0
LINE
  5
62A
100
AcDbEntity
  8
RACCORDO
100
AcDbLine
 62
253
  6
CONTINUOUS
 10
-34.7954219153
 20
54.7952696104
 11
-34.9001523048
 21
54.9
  0
LINE
  5
62B
100
AcDbEntity
  8
0
100
AcDbLine
 62
7
  6
CONTINUOUS
 10
23.5119891513
 20
-12.0
 11
22.8298783811
 21
-10.2971419438
  0
LINE
  5
62C
100
AcDbEntity
  8
0
100
AcDbLine
 62
7
  6
CONTINUOUS
 10
22.9359658697
 20
-11.1044904677
 11
23.0120971969
 21
-11.2982160738
  0
LWPOLYLINE
  5
62D
100
AcDbEntity
  8
0
100
AcDbPolyline
 62
7
  6
CONTINUOUS
 90
18
 70
0
 10
20.3996373908
 20
-11.514877009
 10
20.4226804731
 20
-11.5765518978
 10
20.4483396297
 20
-11.633988731
 10
20.4765135907
 20
-11.687138068
 10
20.507303626
 20
-11.7360493492
 10
20.540174677
 20
-11.7807332298
 10
20.5748158705
 20
-11.8209701165
 10
20.6115380796
 20
-11.8569796025
 10
20.6507388656
 20
-11.8894311225
 10
20.6922303775
 20
-11.9184239066
 10
20.7362004662
 20
-11.9438587246
 10
20.7836102465
 20
-11.9661073205
 10
20.8348355561
 20
-11.9853851153
 10
20.8895005572
 20
-12.0014766881
 10
20.9474388514
 20
-12.0141075204
 10
21.0085949725
 20
-12.0231861059
 10
21.0730243866
 20
-12.028803951
 10
21.1407270938
 20
-12.0309610556
  0
LINE
  5
62E
100
AcDbEntity
  8
0
100
AcDbLine
 62
7
  6
CONTINUOUS
 10
23.0806307268
 20
-11.4839824072
 11
23.2705896097
 21
-12.0
  0
LWPOLYLINE
  5
62F
100
AcDbEntity
  8
0
100
AcDbPolyline
 62
7
  6
CONTINUOUS
 90
44
 70
0
 10
21.8050996461
 20
-10.764782779
 10
21.7858816678
 20
-10.7077739756
 10
21.7636291583
 20
-10.6539839546
 10
21.7383421179
 20
-10.603412716
 10
21.7097242706
 20
-10.555844057
 10
21.6780718923
 20
-10.5114941805
 10
21.6442738101
 20
-10.4710116946
 10
21.6087213599
 20
-10.4347482143
 10
21.5710232058
 20
-10.4023521246
 10
21.5308941675
 20
-10.3734171895
 10
21.488482387
 20
-10.3478331572
 10
21.4436397223
 20
-10.3257102795
 10
21.3956365671
 20
-10.3069730756
 10
21.3439760994
 20
-10.2914079275
 10
21.2891551412
 20
-10.2792284531
 10
21.2319345523
 20
-10.2710000257
 10
21.1716665733
 20
-10.266781491
 10
21.1089989636
 20
-10.2665140032
 10
21.046635861
 20
-10.2705863982
 10
20.984762554
 20
-10.2792648588
 10
20.9231937542
 20
-10.2922832022
 10
20.8640777338
 20
-10.3092317163
 10
20.8078544576
 20
-10.3302225877
 10
20.7540839609
 20
-10.3551436297
 10
20.7035946222
 20
-10.3832485706
 10
20.6567133458
 20
-10.4142658426
 10
20.6131132274
 20
-10.4484670136
 10
20.5726419324
 20
-10.4859205146
 10
20.5353568847
 20
-10.5263862042
 10
20.5012006603
 20
-10.5701042239
 10
20.4698486524
 20
-10.61786343
 10
20.4409174012
 20
-10.669855249
 10
20.4147903665
 20
-10.7258882544
 10
20.392293321
 20
-10.7861770224
 10
20.373417782
 20
-10.8511782108
 10
20.3581722322
 20
-10.9204351617
 10
20.3474078927
 20
-10.9927924787
 10
20.3413559287
 20
-11.0693699015
 10
20.3397851751
 20
-11.1490476902
 10
20.3428533579
 20
-11.2273112292
 10
20.3510077171
 20
-11.303551026
 10
20.3638010128
 20
-11.3783765731
 10
20.3800492513
 20
-11.449101731
 10
20.3996373908
 20
-11.514877009
  0
LWPOLYLINE
  5
630
100
AcDbEntity
  8
0
100
AcDbPolyline
 62
7
  6
CONTINUOUS
 90
12
 70
0
 10
16.7203705188
 20
-10.7908589219
 10
16.7267374703
 20
-10.8270774242
 10
16.7361713525
 20
-10.8618321375
 10
16.7485152269
 20
-10.8949278066
 10
16.7639260319
 20
-10.9265596868
 10
16.7825294714
 20
-10.9567964678
 10
16.8042890068
 20
-10.9856429112
 10
16.8292411767
 20
-11.0130942554
 10
16.857621301
 20
-11.0392049056
 10
16.8895078195
 20
-11.0639929968
 10
16.9248222924
 20
-11.087440394
 10
16.9635647195
 20
-11.1095470971
  0
LINE
  5
631
100
AcDbEntity
  8
0
100
AcDbLine
 62
7
  6
CONTINUOUS
 10
18.1826561447
 20
-10.2971419438
 11
18.1826561447
 21
-10.493228629
  0
LINE
  5
632
100
AcDbEntity
  8
0
100
AcDbLine
 62
7
  6
CONTINUOUS
 10
18.7399551449
 20
-10.493228629
 11
18.7399551449
 21
-12.0
  0
LINE
  5
633
100
AcDbEntity
  8
0
100
AcDbLine
 62
7
  6
CONTINUOUS
 10
18.9670028858
 20
-12.0
 11
18.9670028858
 21
-10.493228629
  0
LINE
  5
634
100
AcDbEntity
  8
0
100
AcDbLine
 62
7
  6
CONTINUOUS
 10
19.524301886
 20
-10.493228629
 11
19.524301886
 21
-10.2971419438
  0
LINE
  5
635
100
AcDbEntity
  8
0
100
AcDbLine
 62
7
  6
CONTINUOUS
 10
19.7823106824
 20
-10.2971419438
 11
19.7823106824
 21
-12.0
  0
LINE
  5
636
100
AcDbEntity
  8
0
100
AcDbLine
 62
7
  6
CONTINUOUS
 10
20.0093584232
 20
-12.0
 11
20.0093584232
 21
-10.2971419438
  0
LINE
  5
637
100
AcDbEntity
  8
DRAFT
100
AcDbLine
 62
7
  6
CONTINUOUS
 10
3.25
 20
-33.99496732
 11
3.65
 21
-33.302146997
  0
LINE
  5
638
100
AcDbEntity
  8
DRAFT
100
AcDbLine
 62
7
  6
CONTINUOUS
 10
3.3110927272
 20
-34.011337067
 11
3.65
 21
-33.4243324515
  0
LWPOLYLINE
  5
639
100
AcDbEntity
  8
0
100
AcDbPolyline
 62
7
  6
CONTINUOUS
 90
29
 70
0
 10
15.9776396811
 20
-11.7121770297
 10
15.9413437853
 20
-11.7394311524
 10
15.9034453287
 20
-11.7633211386
 10
15.8636504957
 20
-11.7838948783
 10
15.8216917125
 20
-11.8010390534
 10
15.7771991103
 20
-11.814799357
 10
15.7305425577
 20
-11.8251300958
 10
15.6825640875
 20
-11.831780872
 10
15.6325675238
 20
-11.834676455
 10
15.5812490423
 20
-11.8338920754
 10
15.5315392031
 20
-11.8294030276
 10
15.4842974613
 20
-11.821149998
 10
15.4386643617
 20
-11.8091923003
 10
15.3949920985
 20
-11.7936831702
 10
15.3533925251
 20
-11.7745994006
 10
15.313753788
 20
-11.7519641987
 10
15.2760925212
 20
-11.7260004216
 10
15.240125277
 20
-11.6965656702
 10
15.2061355032
 20
-11.6638023435
 10
15.1749901773
 20
-11.6283604961
 10
15.1469037628
 20
-11.5906526211
 10
15.1216617964
 20
-11.5502662254
 10
15.0994878653
 20
-11.5066138846
 10
15.080322105
 20
-11.4595327833
 10
15.06422438
 20
-11.4091857368
 10
15.0515978718
 20
-11.3554737666
 10
15.042576974
 20
-11.29836388
 10
15.037027293
 20
-11.2378890696
 10
15.0349488287
 20
-11.1740493356
  0
LINE
  5
63A
100
AcDbEntity
  8
0
100
AcDbLine
 62
7
  6
CONTINUOUS
 10
32.0957805101
 20
-10.2971419438
 11
32.745962677
 21
-11.2787040183
  0
LINE
  5
63B
100
AcDbEntity
  8
0
100
AcDbLine
 62
7
  6
CONTINUOUS
 10
32.6940384018
 20
-10.8167070542
 11
32.3658834959
 21
-10.2971419438
  0
LINE
  5
63C
100
AcDbEntity
  8
0
100
AcDbLine
 62
7
  6
CONTINUOUS
 10
24.2057103371
 20
-10.2971419438
 11
24.8604075693
 21
-12.0
  0
LWPOLYLINE
  5
63D
100
AcDbEntity
  8
0
100
AcDbPolyline
 62
7
  6
CONTINUOUS
 90
6
 70
0
 10
22.7081305122
 20
-10.4725879253
 10
22.734458467
 20
-10.5583150021
 10
22.7629900703
 20
-10.6455647124
 10
22.7937253222
 20
-10.7343370564
 10
22.8271203804
 20
-10.824659084
 10
22.9359658697
 20
-11.1044904677
  0
LWPOLYLINE
  5
63E
100
AcDbEntity
  8
0
100
AcDbPolyline
 62
7
  6
CONTINUOUS
 90
10
 70
0
 10
24.9786079205
 20
-11.8090734119
 10
24.9700700769
 20
-11.7788727507
 10
24.9611786009
 20
-11.7484978398
 10
24.9519334924
 20
-11.7179486791
 10
24.9423260157
 20
-11.6872225103
 10
24.9323649066
 20
-11.6563220918
 10
24.9220763726
 20
-11.6252556984
 10
24.9114691496
 20
-11.5940260884
 10
24.9005345017
 20
-11.5626305035
 10
24.4471097212
 20
-10.2971419438
  0
LINE
  5
63F
100
AcDbEntity
  8
DRAFT
100
AcDbLine
 62
7
  6
CONTINUOUS
 10
22.5
 20
18.0176397269
 11
22.5
 21
15.95
  0
LINE
  5
640
100
AcDbEntity
  8
ASSI
100
AcDbLine
 62
7
  6
CONTINUOUS
 10
23.5
 20
46.6
 11
23.5
 21
53.5
  0
LINE
  5
641
100
AcDbEntity
  8
DRAFT
100
AcDbLine
 62
7
  6
CONTINUOUS
 10
24.25
 20
15.95
 11
24.25
 21
18.0176397269
  0
LINE
  5
642
100
AcDbEntity
  8
DRAFT
100
AcDbLine
 62
7
  6
CONTINUOUS
 10
25.75
 20
18.0176397269
 11
25.75
 21
15.95
  0
LINE
  5
643
100
AcDbEntity
  8
0
100
AcDbLine
 62
7
  6
CONTINUOUS
 10
25.9745217959
 20
-10.2971419438
 11
25.9745217959
 21
-12.0
  0
LINE
  5
644
100
AcDbEntity
  8
0
100
AcDbLine
 62
7
  6
CONTINUOUS
 10
26.2015695367
 20
-12.0
 11
26.2015695367
 21
-10.2971419438
  0
LWPOLYLINE
  5
645
100
AcDbEntity
  8
0
100
AcDbPolyline
 62
7
  6
CONTINUOUS
 90
42
 70
0
 10
21.6193333127
 20
-11.4023869826
 10
21.6051472052
 20
-11.4559334908
 10
21.5884346991
 20
-11.5058495884
 10
21.5691957943
 20
-11.5521352755
 10
21.5471991634
 20
-11.5948610615
 10
21.5226761339
 20
-11.633956437
 10
21.4963206882
 20
-11.669209873
 10
21.4684457852
 20
-11.7003126989
 10
21.438738466
 20
-11.7275735853
 10
21.4069538361
 20
-11.7517070153
 10
21.3731613478
 20
-11.7729221976
 10
21.3372915488
 20
-11.7910099236
 10
21.2988911877
 20
-11.8060570499
 10
21.257524562
 20
-11.8183238367
 10
21.213627374
 20
-11.8275500238
 10
21.1680534801
 20
-11.8330416871
 10
21.1201825521
 20
-11.8346057335
 10
21.0706349182
 20
-11.8324352561
 10
21.0221254182
 20
-11.8264156095
 10
20.974971435
 20
-11.816230915
 10
20.9288555859
 20
-11.8021970513
 10
20.8855405626
 20
-11.7851470096
 10
20.8455780697
 20
-11.7652358304
 10
20.8084164028
 20
-11.7423084731
 10
20.7741631405
 20
-11.7167328073
 10
20.7429643445
 20
-11.6887670392
 10
20.7146739532
 20
-11.6581529628
 10
20.6889613607
 20
-11.6244838295
 10
20.6657922615
 20
-11.587618453
 10
20.6452009611
 20
-11.5476980198
 10
20.6269597708
 20
-11.504739341
 10
20.61095572
 20
-11.4586453537
 10
20.5973017793
 20
-11.4095131207
 10
20.5861091713
 20
-11.3576506422
 10
20.5772708848
 20
-11.3027064115
 10
20.570893931
 20
-11.2450319352
 10
20.5674105667
 20
-11.1859897332
 10
20.5669335719
 20
-11.1247727107
 10
20.5693501665
 20
-11.0621879625
 10
20.5747542674
 20
-11.0020192927
 10
20.5833249594
 20
-10.9452687136
 10
20.5948831577
 20
-10.890934213
  0
LWPOLYLINE
  5
646
100
AcDbEntity
  8
0
100
AcDbPolyline
 62
7
  6
CONTINUOUS
 90
17
 70
0
 10
20.5948831577
 20
-10.890934213
 10
20.6089855235
 20
-10.8397935578
 10
20.6255330553
 20
-10.7920065717
 10
20.6446247546
 20
-10.7474134311
 10
20.6661142878
 20
-10.7063124324
 10
20.6899339561
 20
-10.6689415405
 10
20.7161514583
 20
-10.6350627905
 10
20.7448235562
 20
-10.6042605832
 10
20.7757601844
 20
-10.5764900727
 10
20.8091514083
 20
-10.551796105
 10
20.8456241865
 20
-10.5298976195
 10
20.885495776
 20
-10.5104928606
 10
20.9284489198
 20
-10.4938835839
 10
20.9741588052
 20
-10.4806939962
 10
21.0225171614
 20
-10.4711321663
 10
21.0736322592
 20
-10.4649900254
 10
21.1275040987
 20
-10.4622675735
  0
LINE
  5
647
100
AcDbEntity
  8
0
100
AcDbLine
 62
7
  6
CONTINUOUS
 10
22.1766323129
 20
-12.0
 11
22.3561097434
 21
-11.4839824072
  0
LINE
  5
648
100
AcDbEntity
  8
0
100
AcDbLine
 62
7
  6
CONTINUOUS
 10
22.4207732399
 20
-11.2982160738
 11
22.6047657357
 21
-10.8010653472
  0
LINE
  5
649
100
AcDbEntity
  8
0
100
AcDbLine
 62
7
  6
CONTINUOUS
 10
22.58428629
 20
-10.2971419438
 11
21.9370067663
 21
-12.0
  0
LWPOLYLINE
  5
64A
100
AcDbEntity
  8
0
100
AcDbPolyline
 62
7
  6
CONTINUOUS
 90
10
 70
0
 10
22.6047657357
 20
-10.8010653472
 10
22.6189634884
 20
-10.7660246196
 10
22.6324964074
 20
-10.7305861174
 10
22.6453644927
 20
-10.6947498407
 10
22.6575855583
 20
-10.6584710112
 10
22.6691417903
 20
-10.6217944073
 10
22.6799797459
 20
-10.5848543632
 10
22.690081611
 20
-10.5476956573
 10
22.6994651998
 20
-10.5102735113
 10
22.7081305122
 20
-10.4725879253
  0
LINE
  5
64B
100
AcDbEntity
  8
DRAFT
100
AcDbLine
 62
7
  6
CONTINUOUS
 10
34.5451818435
 20
32.5327171334
 11
34.5988528624
 21
32.5421083448
  0
LINE
  5
64C
100
AcDbEntity
  8
DRAFT
100
AcDbLine
 62
7
  6
CONTINUOUS
 10
35.9
 20
24.0
 11
34.4884011428
 21
24.0
  0
LINE
  5
64D
100
AcDbEntity
  8
DRAFT
100
AcDbLine
 62
7
  6
CONTINUOUS
 10
-34.4884011428
 20
24.0
 11
-35.9
 21
24.0
  0
LINE
  5
64E
100
AcDbEntity
  8
RACCORDO
100
AcDbLine
 62
7
  6
CONTINUOUS
 10
34.5483680519
 20
24.1
 11
35.9
 21
24.1
  0
LINE
  5
64F
100
AcDbEntity
  8
RACCORDO
100
AcDbLine
 62
7
  6
CONTINUOUS
 10
-34.5483680519
 20
24.1
 11
-35.9
 21
24.1
  0
LINE
  5
650
100
AcDbEntity
  8
RACCORDO
100
AcDbLine
 62
253
  6
CONTINUOUS
 10
-35.7987606234
 20
25.1
 11
-34.6321523635
 21
25.1
  0
LINE
  5
651
100
AcDbEntity
  8
RACCORDO
100
AcDbLine
 62
253
  6
CONTINUOUS
 10
34.6321523635
 20
25.1
 11
35.7987606234
 21
25.1
  0
LINE
  5
652
100
AcDbEntity
  8
DRAFT
100
AcDbLine
 62
7
  6
CONTINUOUS
 10
-34.5451818435
 20
32.5327171334
 11
-34.5988528624
 21
32.5421083448
  0
LWPOLYLINE
  5
653
100
AcDbEntity
  8
0
100
AcDbPolyline
 62
7
  6
CONTINUOUS
 90
10
 70
0
 10
32.8672269294
 20
-11.090680231
 10
32.8506733022
 20
-11.0606535391
 10
32.8334437148
 20
-11.0305175433
 10
32.8155381673
 20
-11.0002722434
 10
32.7969518934
 20
-10.9699101583
 10
32.7776896593
 20
-10.9394387691
 10
32.7577657633
 20
-10.9088805197
 10
32.7371849715
 20
-10.8782428914
 10
32.7159425176
 20
-10.8475184029
 10
32.6940384018
 20
-10.8167070542
  0
LINE
  5
654
100
AcDbEntity
  8
0
100
AcDbLine
 62
7
  6
CONTINUOUS
 10
30.7568761541
 20
-12.0
 11
30.0747653839
 21
-10.2971419438
  0
LINE
  5
655
100
AcDbEntity
  8
0
100
AcDbLine
 62
7
  6
CONTINUOUS
 10
30.1808528725
 20
-11.1044904677
 11
30.2569841997
 21
-11.2982160738
  0
LINE
  5
656
100
AcDbEntity
  8
0
100
AcDbLine
 62
7
  6
CONTINUOUS
 10
30.3255177296
 20
-11.4839824072
 11
30.5154766125
 21
-12.0
  0
LWPOLYLINE
  5
657
100
AcDbEntity
  8
0
100
AcDbPolyline
 62
7
  6
CONTINUOUS
 90
6
 70
0
 10
29.9530175151
 20
-10.4725879253
 10
29.9793454698
 20
-10.5583150021
 10
30.0078770731
 20
-10.6455647124
 10
30.038612325
 20
-10.7343370564
 10
30.0720073832
 20
-10.824659084
 10
30.1808528725
 20
-11.1044904677
  0
LINE
  5
658
100
AcDbEntity
  8
0
100
AcDbLine
 62
7
  6
CONTINUOUS
 10
27.2955268334
 20
-10.2971419438
 11
27.2955268334
 21
-12.0
  0
LINE
  5
659
100
AcDbEntity
  8
DRAFT
100
AcDbLine
 62
7
  6
CONTINUOUS
 10
27.5
 20
15.95
 11
27.5
 21
18.0176397269
  0
LINE
  5
65A
100
AcDbEntity
  8
0
100
AcDbLine
 62
7
  6
CONTINUOUS
 10
27.5225745743
 20
-12.0
 11
27.5225745743
 21
-10.2971419438
  0
LINE
  5
65B
100
AcDbEntity
  8
0
100
AcDbLine
 62
7
  6
CONTINUOUS
 10
27.8012240744
 20
-10.2971419438
 11
27.8012240744
 21
-10.493228629
  0
LINE
  5
65C
100
AcDbEntity
  8
0
100
AcDbLine
 62
7
  6
CONTINUOUS
 10
28.3585230746
 20
-10.493228629
 11
28.3585230746
 21
-12.0
  0
LINE
  5
65D
100
AcDbEntity
  8
0
100
AcDbLine
 62
7
  6
CONTINUOUS
 10
28.5855708154
 20
-12.0
 11
28.5855708154
 21
-10.493228629
  0
LINE
  5
65E
100
AcDbEntity
  8
0
100
AcDbLine
 62
7
  6
CONTINUOUS
 10
29.1428698156
 20
-10.493228629
 11
29.1428698156
 21
-10.2971419438
  0
LINE
  5
65F
100
AcDbEntity
  8
0
100
AcDbLine
 62
7
  6
CONTINUOUS
 10
30.0
 20
-53.5
 11
30.0
 21
-47.2
  0
LINE
  5
660
100
AcDbEntity
  8
DRAFT
100
AcDbLine
 62
7
  6
CONTINUOUS
 10
30.7150898701
 20
-44.75
 11
30.7150898701
 21
-46.6
  0
LINE
  5
661
100
AcDbEntity
  8
DRAFT
100
AcDbLine
 62
7
  6
CONTINUOUS
 10
30.75
 20
-44.75
 11
30.75
 21
-46.6
  0
LINE
  5
662
100
AcDbEntity
  8
0
100
AcDbLine
 62
7
  6
CONTINUOUS
 10
30.9386110386
 20
-10.2971419438
 11
30.9386110386
 21
-12.0
  0
LINE
  5
663
100
AcDbEntity
  8
0
100
AcDbLine
 62
7
  6
CONTINUOUS
 10
31.1656587794
 20
-11.8039133147
 11
31.1656587794
 21
-10.2971419438
  0
LWPOLYLINE
  5
664
100
AcDbEntity
  8
0
100
AcDbPolyline
 62
7
  6
CONTINUOUS
 90
9
 70
0
 10
25.0603027696
 20
-11.5624249938
 10
25.0488313556
 20
-11.5936678888
 10
25.0377218771
 20
-11.6247976286
 10
25.0269764723
 20
-11.6558188946
 10
25.0165930029
 20
-11.6867270054
 10
25.0065650544
 20
-11.7175079169
 10
24.9968904888
 20
-11.7481569478
 10
24.9875714442
 20
-11.7786787795
 10
24.9786079205
 20
-11.8090734119
  0
LINE
  5
665
100
AcDbEntity
  8
0
100
AcDbLine
 62
7
  6
CONTINUOUS
 10
25.5410670179
 20
-10.2971419438
 11
25.0603027696
 21
-11.5624249938
  0
LINE
  5
666
100
AcDbEntity
  8
0
100
AcDbLine
 62
7
  6
CONTINUOUS
 10
25.1047097542
 20
-12.0
 11
25.7839178812
 21
-10.2971419438
  0
LINE
  5
667
100
AcDbEntity
  8
DRAFT
100
AcDbLine
 62
7
  6
CONTINUOUS
 10
35.8877814546
 20
32.65
 11
35.8306159648
 21
32.6450063053
  0
LINE
  5
668
100
AcDbEntity
  8
DRAFT
100
AcDbLine
 62
7
  6
CONTINUOUS
 10
34.5992605626
 20
32.537441183
 11
34.5451818435
 21
32.5327171334
  0
LINE
  5
669
100
AcDbEntity
  8
DRAFT
100
AcDbLine
 62
7
  6
CONTINUOUS
 10
-35.8877814546
 20
27.35
 11
-35.8306159648
 21
27.3549936947
  0
LINE
  5
66A
100
AcDbEntity
  8
DRAFT
100
AcDbLine
 62
7
  6
CONTINUOUS
 10
-34.5992605626
 20
27.462558817
 11
-34.5451818435
 21
27.4672828666
  0
LINE
  5
66B
100
AcDbEntity
  8
0
100
AcDbLine
 62
7
  6
CONTINUOUS
 10
34.6196821264
 20
27.3
 11
35.0321523635
 21
27.3
  0
LINE
  5
66C
100
AcDbEntity
  8
0
100
AcDbLine
 62
7
  6
CONTINUOUS
 10
-34.6196821264
 20
27.3
 11
-35.0321523635
 21
27.3
  0
LINE
  5
66D
100
AcDbEntity
  8
DRAFT
100
AcDbLine
 62
7
  6
CONTINUOUS
 10
35.8877814546
 20
27.35
 11
35.8301797403
 21
27.35
  0
LINE
  5
66E
100
AcDbEntity
  8
DRAFT
100
AcDbLine
 62
7
  6
CONTINUOUS
 10
-35.8301797403
 20
27.35
 11
-35.8877814546
 21
27.35
  0
LINE
  5
66F
100
AcDbEntity
  8
DRAFT
100
AcDbLine
 62
7
  6
CONTINUOUS
 10
34.5988528624
 20
27.7
 11
34.4115988572
 21
27.7
  0
LINE
  5
670
100
AcDbEntity
  8
DRAFT
100
AcDbLine
 62
7
  6
CONTINUOUS
 10
-34.4115988572
 20
27.7
 11
-34.5988528624
 21
27.7
  0
LINE
  5
671
100
AcDbEntity
  8
DRAFT
100
AcDbLine
 62
7
  6
CONTINUOUS
 10
-35.8877814546
 20
32.65
 11
-35.8306159648
 21
32.6450063053
  0
LINE
  5
672
100
AcDbEntity
  8
DRAFT
100
AcDbLine
 62
7
  6
CONTINUOUS
 10
35.8877814546
 20
27.35
 11
35.8306159648
 21
27.3549936947
  0
LINE
  5
673
100
AcDbEntity
  8
DRAFT
100
AcDbLine
 62
7
  6
CONTINUOUS
 10
34.5992605626
 20
27.462558817
 11
34.5451818435
 21
27.4672828666
  0
LINE
  5
674
100
AcDbEntity
  8
0
100
AcDbLine
 62
7
  6
CONTINUOUS
 10
32.0119276316
 20
-12.0
 11
32.0119276316
 21
-11.8039133147
  0
LINE
  5
675
100
AcDbEntity
  8
0
100
AcDbLine
 62
7
  6
CONTINUOUS
 10
32.2
 20
-53.5
 11
32.2
 21
-47.2
  0
LINE
  5
676
100
AcDbEntity
  8
0
100
AcDbLine
 62
7
  6
CONTINUOUS
 10
32.745962677
 20
-11.2787040183
 11
32.745962677
 21
-12.0
  0
LINE
  5
677
100
AcDbEntity
  8
0
100
AcDbLine
 62
7
  6
CONTINUOUS
 10
32.9730104178
 20
-12.0
 11
32.9730104178
 21
-11.2787040183
  0
LINE
  5
678
100
AcDbEntity
  8
DRAFT
100
AcDbLine
 62
7
  6
CONTINUOUS
 10
34.4115988572
 20
-27.7
 11
34.4115988572
 21
-32.3
  0
LINE
  5
679
100
AcDbEntity
  8
DRAFT
100
AcDbLine
 62
7
  6
CONTINUOUS
 10
34.4115988572
 20
27.7
 11
34.4115988572
 21
32.3
  0
LINE
  5
67A
100
AcDbEntity
  8
DRAFT
100
AcDbLine
 62
7
  6
CONTINUOUS
 10
34.45
 20
-32.3
 11
34.45
 21
-27.7
  0
LINE
  5
67B
100
AcDbEntity
  8
DRAFT
100
AcDbLine
 62
7
  6
CONTINUOUS
 10
34.45
 20
-46.4704650534
 11
34.45
 21
-53.5
  0
LINE
  5
67C
100
AcDbEntity
  8
DRAFT
100
AcDbLine
 62
7
  6
CONTINUOUS
 10
34.45
 20
27.7
 11
34.45
 21
32.3
  0
LINE
  5
67D
100
AcDbEntity
  8
DRAFT
100
AcDbLine
 62
7
  6
CONTINUOUS
 10
34.4884011428
 20
36.0
 11
34.4884011428
 21
32.3
  0
LINE
  5
67E
100
AcDbEntity
  8
DRAFT
100
AcDbLine
 62
7
  6
CONTINUOUS
 10
34.4884011428
 20
-36.0
 11
34.4884011428
 21
-32.3
  0
LINE
  5
67F
100
AcDbEntity
  8
DRAFT
100
AcDbLine
 62
7
  6
CONTINUOUS
 10
34.4884011428
 20
-27.7
 11
34.4884011428
 21
-24.0
  0
LINE
  5
680
100
AcDbEntity
  8
DRAFT
100
AcDbLine
 62
7
  6
CONTINUOUS
 10
34.4884011428
 20
24.0
 11
34.4884011428
 21
27.7
  0
LINE
  5
681
100
AcDbEntity
  8
DRAFT
100
AcDbLine
 62
7
  6
CONTINUOUS
 10
34.5451818435
 20
-32.5327171334
 11
34.5451818435
 21
-32.3
  0
LINE
  5
682
100
AcDbEntity
  8
DRAFT
100
AcDbLine
 62
7
  6
CONTINUOUS
 10
34.5451818435
 20
-27.7
 11
34.5451818435
 21
-27.4672828666
  0
LINE
  5
683
100
AcDbEntity
  8
DRAFT
100
AcDbLine
 62
7
  6
CONTINUOUS
 10
34.5451818435
 20
27.4672828666
 11
34.5451818435
 21
27.7
  0
LINE
  5
684
100
AcDbEntity
  8
DRAFT
100
AcDbLine
 62
7
  6
CONTINUOUS
 10
34.5451818435
 20
32.3
 11
34.5451818435
 21
32.5327171334
  0
LINE
  5
685
100
AcDbEntity
  8
DRAFT
100
AcDbLine
 62
7
  6
CONTINUOUS
 10
34.5483680519
 20
36.0
 11
34.5483680519
 21
35.9
  0
LINE
  5
686
100
AcDbEntity
  8
DRAFT
100
AcDbLine
 62
7
  6
CONTINUOUS
 10
34.5483680519
 20
24.1
 11
34.5483680519
 21
24.0
  0
LINE
  5
687
100
AcDbEntity
  8
DRAFT
100
AcDbLine
 62
7
  6
CONTINUOUS
 10
34.5483680519
 20
-24.0
 11
34.5483680519
 21
-24.1
  0
LINE
  5
688
100
AcDbEntity
  8
DRAFT
100
AcDbLine
 62
7
  6
CONTINUOUS
 10
34.5483680519
 20
-35.9
 11
34.5483680519
 21
-36.0
  0
LINE
  5
689
100
AcDbEntity
  8
DRAFT
100
AcDbLine
 62
7
  6
CONTINUOUS
 10
34.5988528624
 20
32.5421083448
 11
34.5988528624
 21
27.4578916552
  0
LINE
  5
68A
100
AcDbEntity
  8
DRAFT
100
AcDbLine
 62
7
  6
CONTINUOUS
 10
34.5988528624
 20
-27.4578916552
 11
34.5988528624
 21
-32.5421083448
  0
LINE
  5
68B
100
AcDbEntity
  8
0
100
AcDbLine
 62
7
  6
CONTINUOUS
 10
34.6196821264
 20
32.7
 11
34.6196821264
 21
27.3
  0
LINE
  5
68C
100
AcDbEntity
  8
0
100
AcDbLine
 62
7
  6
CONTINUOUS
 10
34.6196821264
 20
-32.7
 11
34.6196821264
 21
-27.3
  0
LINE
  5
68D
100
AcDbEntity
  8
RACCORDO
100
AcDbLine
 62
7
  6
CONTINUOUS
 10
34.6321523635
 20
-34.9
 11
34.6321523635
 21
-32.7
  0
LINE
  5
68E
100
AcDbEntity
  8
RACCORDO
100
AcDbLine
 62
7
  6
CONTINUOUS
 10
34.6321523635
 20
-27.3
 11
34.6321523635
 21
-25.1
  0
LINE
  5
68F
100
AcDbEntity
  8
RACCORDO
100
AcDbLine
 62
7
  6
CONTINUOUS
 10
34.6321523635
 20
25.1
 11
34.6321523635
 21
27.3
  0
LINE
  5
690
100
AcDbEntity
  8
RACCORDO
100
AcDbLine
 62
7
  6
CONTINUOUS
 10
34.6321523635
 20
32.7
 11
34.6321523635
 21
34.9
  0
LINE
  5
691
100
AcDbEntity
  8
0
100
AcDbLine
 62
7
  6
CONTINUOUS
 10
35.0321523635
 20
32.7
 11
35.0321523635
 21
27.3
  0
LINE
  5
692
100
AcDbEntity
  8
0
100
AcDbLine
 62
7
  6
CONTINUOUS
 10
35.0321523635
 20
-32.7
 11
35.0321523635
 21
-27.3
  0
LINE
  5
693
100
AcDbEntity
  8
DRAFT
100
AcDbLine
 62
7
  6
CONTINUOUS
 10
35.1214522078
 20
36.0
 11
35.1214522078
 21
35.9
  0
LINE
  5
694
100
AcDbEntity
  8
DRAFT
100
AcDbLine
 62
7
  6
CONTINUOUS
 10
35.1214522078
 20
24.1
 11
35.1214522078
 21
24.0
  0
LINE
  5
695
100
AcDbEntity
  8
DRAFT
100
AcDbLine
 62
7
  6
CONTINUOUS
 10
35.1214522078
 20
-24.0
 11
35.1214522078
 21
-24.1
  0
LINE
  5
696
100
AcDbEntity
  8
DRAFT
100
AcDbLine
 62
7
  6
CONTINUOUS
 10
35.1214522078
 20
-35.9
 11
35.1214522078
 21
-36.0
  0
LINE
  5
697
100
AcDbEntity
  8
DRAFT
100
AcDbLine
 62
7
  6
CONTINUOUS
 10
35.1389072728
 20
-24.0
 11
35.1389072728
 21
-24.1
  0
LINE
  5
698
100
AcDbEntity
  8
DRAFT
100
AcDbLine
 62
7
  6
CONTINUOUS
 10
35.1389072728
 20
-35.9
 11
35.1389072728
 21
-36.0
  0
LINE
  5
699
100
AcDbEntity
  8
DRAFT
100
AcDbLine
 62
7
  6
CONTINUOUS
 10
35.1389072728
 20
24.0
 11
35.1389072728
 21
24.1
  0
LINE
  5
69A
100
AcDbEntity
  8
DRAFT
100
AcDbLine
 62
7
  6
CONTINUOUS
 10
35.1389072728
 20
35.9
 11
35.1389072728
 21
36.0
  0
LINE
  5
69B
100
AcDbEntity
  8
0
100
AcDbLine
 62
7
  6
CONTINUOUS
 10
29.4215193158
 20
-12.0
 11
29.6009967463
 21
-11.4839824072
  0
LINE
  5
69C
100
AcDbEntity
  8
0
100
AcDbLine
 62
7
  6
CONTINUOUS
 10
29.6656602427
 20
-11.2982160738
 11
29.8496527385
 21
-10.8010653472
  0
LINE
  5
69D
100
AcDbEntity
  8
0
100
AcDbLine
 62
7
  6
CONTINUOUS
 10
29.8291732928
 20
-10.2971419438
 11
29.1818937691
 21
-12.0
  0
LWPOLYLINE
  5
69E
100
AcDbEntity
  8
0
100
AcDbPolyline
 62
7
  6
CONTINUOUS
 90
10
 70
0
 10
29.8496527385
 20
-10.8010653472
 10
29.8638504913
 20
-10.7660246196
 10
29.8773834102
 20
-10.7305861174
 10
29.8902514955
 20
-10.6947498407
 10
29.9024725612
 20
-10.6584710112
 10
29.9140287931
 20
-10.6217944073
 10
29.9248667487
 20
-10.5848543632
 10
29.9349686138
 20
-10.5476956573
 10
29.9443522026
 20
-10.5102735113
 10
29.9530175151
 20
-10.4725879253
  0
LINE
  5
69F
100
AcDbEntity
  8
0
100
AcDbLine
 62
7
  6
CONTINUOUS
 10
33.380180621
 20
-10.2971419438
 11
32.8672269294
 21
-11.090680231
  0
LINE
  5
6A0
100
AcDbEntity
  8
0
100
AcDbLine
 62
7
  6
CONTINUOUS
 10
32.9730104178
 20
-11.2787040183
 11
33.6541536403
 21
-10.2971419438
  0
LINE
  5
6A1
100
AcDbEntity
  8
RACCORDO
100
AcDbLine
 62
253
  6
CONTINUOUS
 10
-4.4
 20
-49.6000761524
 11
-4.3249432208
 21
-49.5250193732
  0
LINE
  5
6A2
100
AcDbEntity
  8
RACCORDO
100
AcDbLine
 62
253
  6
CONTINUOUS
 10
-3.9000761524
 20
-50.1
 11
-3.8250193732
 21
-50.0249432208
  0
LINE
  5
6A3
100
AcDbEntity
  8
DRAFT
100
AcDbLine
 62
7
  6
CONTINUOUS
 10
-34.5988528624
 20
27.4578916552
 11
-34.5451818435
 21
27.4672828666
  0
LINE
  5
6A4
100
AcDbEntity
  8
DRAFT
100
AcDbLine
 62
7
  6
CONTINUOUS
 10
34.5988528624
 20
32.3
 11
34.4115988572
 21
32.3
  0
LINE
  5
6A5
100
AcDbEntity
  8
DRAFT
100
AcDbLine
 62
7
  6
CONTINUOUS
 10
-34.4115988572
 20
32.3
 11
-34.5988528624
 21
32.3
  0
LINE
  5
6A6
100
AcDbEntity
  8
DRAFT
100
AcDbLine
 62
7
  6
CONTINUOUS
 10
-35.8877814546
 20
32.65
 11
-35.8301797403
 21
32.65
  0
LINE
  5
6A7
100
AcDbEntity
  8
DRAFT
100
AcDbLine
 62
7
  6
CONTINUOUS
 10
35.8301797403
 20
32.65
 11
35.8877814546
 21
32.65
  0
LINE
  5
6A8
100
AcDbEntity
  8
0
100
AcDbLine
 62
7
  6
CONTINUOUS
 10
34.6196821264
 20
32.7
 11
35.0321523635
 21
32.7
  0
LINE
  5
6A9
100
AcDbEntity
  8
0
100
AcDbLine
 62
7
  6
CONTINUOUS
 10
-34.6196821264
 20
32.7
 11
-35.0321523635
 21
32.7
  0
LINE
  5
6AA
100
AcDbEntity
  8
RACCORDO
100
AcDbLine
 62
253
  6
CONTINUOUS
 10
-35.7987606234
 20
34.9
 11
-34.6321523635
 21
34.9
  0
LINE
  5
6AB
100
AcDbEntity
  8
RACCORDO
100
AcDbLine
 62
253
  6
CONTINUOUS
 10
34.6321523635
 20
34.9
 11
35.7987606234
 21
34.9
  0
LINE
  5
6AC
100
AcDbEntity
  8
DRAFT
100
AcDbLine
 62
7
  6
CONTINUOUS
 10
34.5988528624
 20
27.4578916552
 11
34.5451818435
 21
27.4672828666
  0
LINE
  5
6AD
100
AcDbEntity
  8
RACCORDO
100
AcDbLine
 62
7
  6
CONTINUOUS
 10
35.7952696104
 20
-53.7954219153
 11
35.7952696104
 21
-36.0
  0
LINE
  5
6AE
100
AcDbEntity
  8
DRAFT
100
AcDbLine
 62
7
  6
CONTINUOUS
 10
35.7952696104
 20
-24.0
 11
35.7952696104
 21
-20.5644466757
  0
LINE
  5
6AF
100
AcDbEntity
  8
DRAFT
100
AcDbLine
 62
7
  6
CONTINUOUS
 10
35.7952696104
 20
18.0644466757
 11
35.7952696104
 21
24.0
  0
LINE
  5
6B0
100
AcDbEntity
  8
RACCORDO
100
AcDbLine
 62
7
  6
CONTINUOUS
 10
35.7952696104
 20
36.0
 11
35.7952696104
 21
53.7954219153
  0
LINE
  5
6B1
100
AcDbEntity
  8
RACCORDO
100
AcDbLine
 62
7
  6
CONTINUOUS
 10
35.7987606234
 20
-34.9
 11
35.7987606234
 21
-25.1
  0
LINE
  5
6B2
100
AcDbEntity
  8
RACCORDO
100
AcDbLine
 62
7
  6
CONTINUOUS
 10
35.7987606234
 20
25.1
 11
35.7987606234
 21
34.9
  0
LINE
  5
6B3
100
AcDbEntity
  8
DRAFT
100
AcDbLine
 62
7
  6
CONTINUOUS
 10
35.8301797403
 20
-32.65
 11
35.8301797403
 21
-27.35
  0
LINE
  5
6B4
100
AcDbEntity
  8
DRAFT
100
AcDbLine
 62
7
  6
CONTINUOUS
 10
35.8301797403
 20
27.35
 11
35.8301797403
 21
32.65
  0
LINE
  5
6B5
100
AcDbEntity
  8
SMUSSO
100
AcDbLine
 62
7
  6
CONTINUOUS
 10
35.8563623377
 20
-18.5810194482
 11
35.8563623377
 21
-20.3810194482
  0
LINE
  5
6B6
100
AcDbEntity
  8
DRAFT
100
AcDbLine
 62
7
  6
CONTINUOUS
 10
35.8877814546
 20
32.65
 11
35.8877814546
 21
27.35
  0
LINE
  5
6B7
100
AcDbEntity
  8
DRAFT
100
AcDbLine
 62
7
  6
CONTINUOUS
 10
35.8877814546
 20
-27.35
 11
35.8877814546
 21
-32.65
  0
LINE
  5
6B8
100
AcDbEntity
  8
RACCORDO
100
AcDbLine
 62
7
  6
CONTINUOUS
 10
35.9
 20
-53.9001523048
 11
35.9
 21
-35.9
  0
LINE
  5
6B9
100
AcDbEntity
  8
DRAFT
100
AcDbLine
 62
7
  6
CONTINUOUS
 10
35.9
 20
-35.9
 11
35.9
 21
35.9
  0
LINE
  5
6BA
100
AcDbEntity
  8
RACCORDO
100
AcDbLine
 62
7
  6
CONTINUOUS
 10
35.9
 20
35.9
 11
35.9
 21
53.9001523048
  0
LINE
  5
6BB
100
AcDbEntity
  8
SMUSSO
100
AcDbLine
 62
7
  6
CONTINUOUS
 10
35.8692566451
 20
-17.842305068
 11
35.8563623377
 21
-18.5810194482
  0
LINE
  5
6BC
100
AcDbEntity
  8
SMUSSO
100
AcDbLine
 62
7
  6
CONTINUOUS
 10
35.8692566451
 20
-17.842305068
 11
35.9
 21
-17.75
  0
LINE
  5
6BD
100
AcDbEntity
  8
RACCORDO
100
AcDbLine
 62
7
  6
CONTINUOUS
 10
34.5483680519
 20
35.9
 11
35.9
 21
35.9
  0
LINE
  5
6BE
100
AcDbEntity
  8
RACCORDO
100
AcDbLine
 62
7
  6
CONTINUOUS
 10
-34.5483680519
 20
35.9
 11
-35.9
 21
35.9
  0
LINE
  5
6BF
100
AcDbEntity
  8
DRAFT
100
AcDbLine
 62
7
  6
CONTINUOUS
 10
35.9
 20
36.0
 11
34.4884011428
 21
36.0
  0
LINE
  5
6C0
100
AcDbEntity
  8
DRAFT
100
AcDbLine
 62
7
  6
CONTINUOUS
 10
-34.4884011428
 20
36.0
 11
-35.9
 21
36.0
  0
LINE
  5
6C1
100
AcDbEntity
  8
DRAFT
100
AcDbLine
 62
7
  6
CONTINUOUS
 10
35.7952696104
 20
18.0644466757
 11
35.9
 21
17.75
  0
LINE
  5
6C2
100
AcDbEntity
  8
DRAFT
100
AcDbLine
 62
7
  6
CONTINUOUS
 10
35.7952696104
 20
-20.5644466757
 11
35.8563623377
 21
-20.3810194482
  0
LINE
  5
6C3
100
AcDbEntity
  8
DRAFT
100
AcDbLine
 62
253
  6
CONTINUOUS
 10
-30.7150898701
 20
44.75
 11
-30.75
 21
44.75
  0
LINE
  5
6C4
100
AcDbEntity
  8
DRAFT
100
AcDbLine
 62
7
  6
CONTINUOUS
 10
23.5
 20
46.6
 11
-34.45
 21
46.6
  0
LINE
  5
6C5
100
AcDbEntity
  8
0
100
AcDbLine
 62
7
  6
CONTINUOUS
 10
9.2
 20
47.2
 11
7.0
 21
47.2
  0
LINE
  5
6C6
100
AcDbEntity
  8
0
100
AcDbLine
 62
7
  6
CONTINUOUS
 10
-7.0
 20
47.2
 11
-9.2
 21
47.2
  0
LINE
  5
6C7
100
AcDbEntity
  8
0
100
AcDbLine
 62
7
  6
CONTINUOUS
 10
-30.0
 20
47.2
 11
-32.2
 21
47.2
  0
LINE
  5
6C8
100
AcDbEntity
  8
0
100
AcDbLine
 62
7
  6
CONTINUOUS
 10
30.5
 20
48.9
 11
28.5
 21
48.9
  0
LINE
  5
6C9
100
AcDbEntity
  8
0
100
AcDbLine
 62
7
  6
CONTINUOUS
 10
28.5
 20
52.9
 11
30.5
 21
52.9
  0
LINE
  5
6CA
100
AcDbEntity
  8
ASSI
100
AcDbLine
 62
7
  6
CONTINUOUS
 10
23.5
 20
53.5
 11
-34.45
 21
53.5
  0
LINE
  5
6CB
100
AcDbEntity
  8
RACCORDO
100
AcDbLine
 62
7
  6
CONTINUOUS
 10
34.7954219153
 20
54.7952696104
 11
-34.7954219153
 21
54.7952696104
  0
LINE
  5
6CC
100
AcDbEntity
  8
DRAFT
100
AcDbLine
 62
7
  6
CONTINUOUS
 10
34.5
 20
54.8476348052
 11
24.5
 21
54.8476348052
  0
LINE
  5
6CD
100
AcDbEntity
  8
RACCORDO
100
AcDbLine
 62
7
  6
CONTINUOUS
 10
34.9001523048
 20
54.9
 11
34.5523651948
 21
54.9
  0
LINE
  5
6CE
100
AcDbEntity
  8
RACCORDO
100
AcDbLine
 62
7
  6
CONTINUOUS
 10
24.4476348052
 20
54.9
 11
-34.9001523048
 21
54.9
  0
LINE
  5
6CF
100
AcDbEntity
  8
DRAFT
100
AcDbLine
 62
7
  6
CONTINUOUS
 10
24.4476348052
 20
54.9
 11
24.5
 21
54.8476348052
  0
CIRCLE
  5
6D0
100
AcDbEntity
  8
DRAFT
100
AcDbCircle
 62
7
  6
CONTINUOUS
 10
-33.0
 20
-44.75
 40
2.2849101299
  0
CIRCLE
  5
6D1
100
AcDbEntity
  8
DRAFT
100
AcDbCircle
 62
7
  6
CONTINUOUS
 10
-33.0
 20
-44.75
 40
2.25
  0
ARC
  5
6D2
100
AcDbEntity
  8
0
100
AcDbCircle
 62
7
  6
CONTINUOUS
 10
-28.5
 20
-50.9
 40
2.0
100
AcDbArc
 50
270.0
 51
90.0
  0
ARC
  5
6D3
100
AcDbEntity
  8
0
100
AcDbCircle
 62
7
  6
CONTINUOUS
 10
-30.5
 20
-50.9
 40
2.0
100
AcDbArc
 50
90.0
 51
270.0
  0
CIRCLE
  5
6D4
100
AcDbEntity
  8
DRAFT
100
AcDbCircle
 62
7
  6
CONTINUOUS
 10
-33.0
 20
-44.75
 40
1.3198202597
  0
CIRCLE
  5
6D5
100
AcDbEntity
  8
DRAFT
100
AcDbCircle
 62
7
  6
CONTINUOUS
 10
-33.0
 20
-44.75
 40
1.25
  0
CIRCLE
  5
6D6
100
AcDbEntity
  8
DRAFT
100
AcDbCircle
 62
7
  6
CONTINUOUS
 10
-33.0
 20
-44.75
 40
1.0
  0
CIRCLE
  5
6D7
100
AcDbEntity
  8
DRAFT
100
AcDbCircle
 62
7
  6
CONTINUOUS
 10
-33.0
 20
-44.75
 40
0.9520022272
  0
ARC
  5
6D8
100
AcDbEntity
  8
0
100
AcDbCircle
 62
7
  6
CONTINUOUS
 10
-18.397864
 20
-2.607156
 40
0.9345803565
100
AcDbArc
 50
85.000002777
 51
176.7242074107
  0
ARC
  5
6D9
100
AcDbEntity
  8
0
100
AcDbCircle
 62
7
  6
CONTINUOUS
 10
-18.397864
 20
-2.607156
 40
0.9345790614
100
AcDbArc
 50
183.2757971638
 51
78.4375028389
  0
CIRCLE
  5
6DA
100
AcDbEntity
  8
0
100
AcDbCircle
 62
7
  6
CONTINUOUS
 10
-18.397864
 20
-2.607156
 40
0.534046
  0
CIRCLE
  5
6DB
100
AcDbEntity
  8
0
100
AcDbCircle
 62
7
  6
CONTINUOUS
 10
-18.397864
 20
-2.607156
 40
0.320428
  0
ARC
  5
6DC
100
AcDbEntity
  8
0
100
AcDbCircle
 62
7
  6
CONTINUOUS
 10
-20.293724
 20
0.16988
 40
5.6074779015
100
AcDbArc
 50
104.6184641724
 51
108.030536234
  0
ARC
  5
6DD
100
AcDbEntity
  8
0
100
AcDbCircle
 62
7
  6
CONTINUOUS
 10
-20.293724
 20
0.16988
 40
5.6074766208
100
AcDbArc
 50
66.1507510578
 51
77.0671232762
  0
ARC
  5
6DE
100
AcDbEntity
  8
0
100
AcDbCircle
 62
7
  6
CONTINUOUS
 10
-20.293724
 20
0.16988
 40
5.6074765047
100
AcDbArc
 50
109.1821054584
 51
112.6110335093
  0
ARC
  5
6DF
100
AcDbEntity
  8
0
100
AcDbCircle
 62
7
  6
CONTINUOUS
 10
-20.293724
 20
0.16988
 40
5.6074761346
100
AcDbArc
 50
91.9102144889
 51
103.4934082927
  0
ARC
  5
6E0
100
AcDbEntity
  8
0
100
AcDbCircle
 62
7
  6
CONTINUOUS
 10
-20.293724
 20
0.16988
 40
5.6074759526
100
AcDbArc
 50
78.1844536706
 51
90.8185512484
  0
ARC
  5
6E1
100
AcDbEntity
  8
0
100
AcDbCircle
 62
7
  6
CONTINUOUS
 10
-20.293724
 20
0.16988
 40
5.5006686758
100
AcDbArc
 50
91.9473196142
 51
103.7605162941
  0
ARC
  5
6E2
100
AcDbEntity
  8
0
100
AcDbCircle
 62
7
  6
CONTINUOUS
 10
-20.293724
 20
0.16988
 40
5.5006683841
100
AcDbArc
 50
109.5695983715
 51
111.7987287801
  0
ARC
  5
6E3
100
AcDbEntity
  8
0
100
AcDbCircle
 62
7
  6
CONTINUOUS
 10
-20.293724
 20
0.16988
 40
5.5006682353
100
AcDbArc
 50
104.9088365842
 51
108.3930555303
  0
ARC
  5
6E4
100
AcDbEntity
  8
0
100
AcDbCircle
 62
7
  6
CONTINUOUS
 10
-20.293724
 20
0.16988
 40
5.5006672221
100
AcDbArc
 50
66.0805511142
 51
76.8115132283
  0
ARC
  5
6E5
100
AcDbEntity
  8
0
100
AcDbCircle
 62
7
  6
CONTINUOUS
 10
-20.293724
 20
0.16988
 40
5.5006664386
100
AcDbArc
 50
77.9516164098
 51
90.8344466285
  0
ARC
  5
6E6
100
AcDbEntity
  8
DRAFT
100
AcDbCircle
 62
7
  6
CONTINUOUS
 10
-33.0
 20
44.75
 40
2.2849101299
100
AcDbArc
 50
129.3901947656
 51
360.0
  0
ARC
  5
6E7
100
AcDbEntity
  8
DRAFT
100
AcDbCircle
 62
7
  6
CONTINUOUS
 10
-33.0
 20
44.75
 40
2.25
100
AcDbArc
 50
130.1240345935
 51
360.0
  0
CIRCLE
  5
6E8
100
AcDbEntity
  8
DRAFT
100
AcDbCircle
 62
7
  6
CONTINUOUS
 10
-33.0
 20
44.75
 40
1.3198202597
  0
CIRCLE
  5
6E9
100
AcDbEntity
  8
DRAFT
100
AcDbCircle
 62
7
  6
CONTINUOUS
 10
-33.0
 20
44.75
 40
1.25
  0
CIRCLE
  5
6EA
100
AcDbEntity
  8
DRAFT
100
AcDbCircle
 62
7
  6
CONTINUOUS
 10
-33.0
 20
44.75
 40
1.0
  0
CIRCLE
  5
6EB
100
AcDbEntity
  8
DRAFT
100
AcDbCircle
 62
7
  6
CONTINUOUS
 10
-33.0
 20
44.75
 40
0.9520022272
  0
ARC
  5
6EC
100
AcDbEntity
  8
0
100
AcDbCircle
 62
7
  6
CONTINUOUS
 10
-17.596796
 20
5.083098
 40
0.4806413166
100
AcDbArc
 50
303.7488518717
 51
153.3682031715
  0
ARC
  5
6ED
100
AcDbEntity
  8
0
100
AcDbCircle
 62
7
  6
CONTINUOUS
 10
-17.596796
 20
5.083098
 40
0.4806403194
100
AcDbArc
 50
166.1529569329
 51
192.8397156584
  0
ARC
  5
6EE
100
AcDbEntity
  8
DRAFT
100
AcDbCircle
 62
7
  6
CONTINUOUS
 10
33.0
 20
-44.75
 40
2.2849101299
100
AcDbArc
 50
309.3901947656
 51
180.0
  0
ARC
  5
6EF
100
AcDbEntity
  8
DRAFT
100
AcDbCircle
 62
7
  6
CONTINUOUS
 10
33.0
 20
-44.75
 40
2.25
100
AcDbArc
 50
310.1240345935
 51
180.0
  0
CIRCLE
  5
6F0
100
AcDbEntity
  8
DRAFT
100
AcDbCircle
 62
7
  6
CONTINUOUS
 10
33.0
 20
-44.75
 40
1.3198202597
  0
CIRCLE
  5
6F1
100
AcDbEntity
  8
DRAFT
100
AcDbCircle
 62
7
  6
CONTINUOUS
 10
33.0
 20
-44.75
 40
1.25
  0
CIRCLE
  5
6F2
100
AcDbEntity
  8
DRAFT
100
AcDbCircle
 62
7
  6
CONTINUOUS
 10
33.0
 20
-44.75
 40
1.0
  0
CIRCLE
  5
6F3
100
AcDbEntity
  8
DRAFT
100
AcDbCircle
 62
7
  6
CONTINUOUS
 10
33.0
 20
-44.75
 40
0.9520022272
  0
CIRCLE
  5
6F4
100
AcDbEntity
  8
DRAFT
100
AcDbCircle
 62
7
  6
CONTINUOUS
 10
33.0
 20
44.75
 40
2.2849101299
  0
CIRCLE
  5
6F5
100
AcDbEntity
  8
DRAFT
100
AcDbCircle
 62
7
  6
CONTINUOUS
 10
33.0
 20
44.75
 40
2.25
  0
ARC
  5
6F6
100
AcDbEntity
  8
0
100
AcDbCircle
 62
7
  6
CONTINUOUS
 10
30.5
 20
50.9
 40
2.0
100
AcDbArc
 50
270.0
 51
90.0
  0
ARC
  5
6F7
100
AcDbEntity
  8
0
100
AcDbCircle
 62
7
  6
CONTINUOUS
 10
28.5
 20
50.9
 40
2.0
100
AcDbArc
 50
90.0
 51
270.0
  0
CIRCLE
  5
6F8
100
AcDbEntity
  8
DRAFT
100
AcDbCircle
 62
7
  6
CONTINUOUS
 10
33.0
 20
44.75
 40
1.3198202597
  0
CIRCLE
  5
6F9
100
AcDbEntity
  8
DRAFT
100
AcDbCircle
 62
7
  6
CONTINUOUS
 10
33.0
 20
44.75
 40
1.25
  0
CIRCLE
  5
6FA
100
AcDbEntity
  8
DRAFT
100
AcDbCircle
 62
7
  6
CONTINUOUS
 10
33.0
 20
44.75
 40
1.0
  0
CIRCLE
  5
6FB
100
AcDbEntity
  8
DRAFT
100
AcDbCircle
 62
7
  6
CONTINUOUS
 10
33.0
 20
44.75
 40
0.9520022272
  0
ELLIPSE
  5
6FC
100
AcDbEntity
  8
RACCORDO
100
AcDbEllipse
 62
7
  6
CONTINUOUS
 10
-4.3842904416
 20
-16.4
 30
0.0
 11
-0.0
 21
0.3
 31
0.0
 40
0.0174550649
 41
-3.1415926536
 42
-1.5707963268
  0
ELLIPSE
  5
6FD
100
AcDbEntity
  8
RACCORDO
100
AcDbEllipse
 62
7
  6
CONTINUOUS
 10
4.3842904416
 20
-16.4
 30
0.0
 11
0.0
 21
0.3
 31
0.0
 40
0.0174550649
 41
1.5707963268
 42
3.1415926536
  0
ELLIPSE
  5
6FE
100
AcDbEntity
  8
RACCORDO
100
AcDbEllipse
 62
7
  6
CONTINUOUS
 10
-3.899923836
 20
-49.599923836
 30
0.0
 11
0.3536610946
 21
0.3536610946
 31
0.0
 40
0.9996954599
 41
-3.9268385237
 42
-2.3563467834
  0
ELLIPSE
  5
6FF
100
AcDbEntity
  8
RACCORDO
100
AcDbEllipse
 62
7
  6
CONTINUOUS
 10
3.899923836
 20
-49.599923836
 30
0.0
 11
-0.3536610946
 21
0.3536610946
 31
0.0
 40
0.9996954599
 41
-3.9268385237
 42
-2.3563467834
  0
ELLIPSE
  5
700
100
AcDbEntity
  8
RACCORDO
100
AcDbEllipse
 62
7
  6
CONTINUOUS
 10
-3.8248670568
 20
-49.5248670568
 30
0.0
 11
-0.3536610946
 21
-0.3536610946
 31
0.0
 40
0.9996954599
 41
-0.7852458701
 42
0.7852458701
  0
ELLIPSE
  5
701
100
AcDbEntity
  8
RACCORDO
100
AcDbEllipse
 62
7
  6
CONTINUOUS
 10
3.8248670568
 20
-49.5248670568
 30
0.0
 11
0.3536610946
 21
-0.3536610946
 31
0.0
 40
0.9996954599
 41
-0.7852458701
 42
0.7852458701
  0
ELLIPSE
  5
702
100
AcDbEntity
  8
RACCORDO
100
AcDbEllipse
 62
7
  6
CONTINUOUS
 10
-34.6146972986
 20
34.9
 30
0.0
 11
-0.0
 21
1.0
 31
0.0
 40
0.0174550649
 41
-0.0
 42
1.5707963268
  0
ELLIPSE
  5
703
100
AcDbEntity
  8
RACCORDO
100
AcDbEllipse
 62
7
  6
CONTINUOUS
 10
-34.6146972986
 20
25.1
 30
0.0
 11
0.0
 21
1.0
 31
0.0
 40
0.0174550649
 41
-4.7123889804
 42
-3.1415926536
  0
ELLIPSE
  5
704
100
AcDbEntity
  8
RACCORDO
100
AcDbEllipse
 62
7
  6
CONTINUOUS
 10
-34.6146972986
 20
-25.1
 30
0.0
 11
0.0
 21
1.0
 31
0.0
 40
0.0174550649
 41
-0.0
 42
1.5707963268
  0
ELLIPSE
  5
705
100
AcDbEntity
  8
RACCORDO
100
AcDbEllipse
 62
7
  6
CONTINUOUS
 10
-34.6146972986
 20
-34.9
 30
0.0
 11
0.0
 21
1.0
 31
0.0
 40
0.0174550649
 41
-4.7123889804
 42
-3.1415926536
  0
ELLIPSE
  5
706
100
AcDbEntity
  8
RACCORDO
100
AcDbEllipse
 62
7
  6
CONTINUOUS
 10
34.6146972986
 20
-25.1
 30
0.0
 11
0.0
 21
1.0
 31
0.0
 40
0.0174550649
 41
-1.5707963268
 42
0.0
  0
ELLIPSE
  5
707
100
AcDbEntity
  8
RACCORDO
100
AcDbEllipse
 62
7
  6
CONTINUOUS
 10
34.6146972986
 20
25.1
 30
0.0
 11
-0.0
 21
1.0
 31
0.0
 40
0.0174550649
 41
-3.1415926536
 42
-1.5707963268
  0
ELLIPSE
  5
708
100
AcDbEntity
  8
RACCORDO
100
AcDbEllipse
 62
7
  6
CONTINUOUS
 10
34.6146972986
 20
34.9
 30
0.0
 11
0.0
 21
1.0
 31
0.0
 40
0.0174550649
 41
-1.5707963268
 42
0.0
  0
ELLIPSE
  5
709
100
AcDbEntity
  8
RACCORDO
100
AcDbEllipse
 62
7
  6
CONTINUOUS
 10
34.6146972986
 20
-34.9
 30
0.0
 11
-0.0
 21
1.0
 31
0.0
 40
0.0174550649
 41
-3.1415926536
 42
-1.5707963268
  0
ELLIPSE
  5
70A
100
AcDbEntity
  8
RACCORDO
100
AcDbEllipse
 62
7
  6
CONTINUOUS
 10
-35.8162156883
 20
34.9
 30
0.0
 11
-0.0
 21
1.0
 31
0.0
 40
0.0174550649
 41
-1.5707963268
 42
0.0
  0
ELLIPSE
  5
70B
100
AcDbEntity
  8
RACCORDO
100
AcDbEllipse
 62
7
  6
CONTINUOUS
 10
-35.8162156883
 20
25.1
 30
0.0
 11
-0.0
 21
1.0
 31
0.0
 40
0.0174550649
 41
-3.1415926536
 42
-1.5707963268
  0
ELLIPSE
  5
70C
100
AcDbEntity
  8
RACCORDO
100
AcDbEllipse
 62
7
  6
CONTINUOUS
 10
-35.8162156883
 20
-25.1
 30
0.0
 11
0.0
 21
1.0
 31
0.0
 40
0.0174550649
 41
-1.5707963268
 42
0.0
  0
ELLIPSE
  5
70D
100
AcDbEntity
  8
RACCORDO
100
AcDbEllipse
 62
7
  6
CONTINUOUS
 10
-35.8162156883
 20
-34.9
 30
0.0
 11
-0.0
 21
1.0
 31
0.0
 40
0.0174550649
 41
-3.1415926536
 42
-1.5707963268
  0
ELLIPSE
  5
70E
100
AcDbEntity
  8
RACCORDO
100
AcDbEllipse
 62
7
  6
CONTINUOUS
 10
35.8162156883
 20
25.1
 30
0.0
 11
0.0
 21
1.0
 31
0.0
 40
0.0174550649
 41
-4.7123889804
 42
-3.1415926536
  0
ELLIPSE
  5
70F
100
AcDbEntity
  8
RACCORDO
100
AcDbEllipse
 62
7
  6
CONTINUOUS
 10
35.8162156883
 20
34.9
 30
0.0
 11
-0.0
 21
1.0
 31
0.0
 40
0.0174550649
 41
-0.0
 42
1.5707963268
  0
ELLIPSE
  5
710
100
AcDbEntity
  8
RACCORDO
100
AcDbEllipse
 62
7
  6
CONTINUOUS
 10
35.8162156883
 20
-25.1
 30
0.0
 11
0.0
 21
1.0
 31
0.0
 40
0.0174550649
 41
-0.0
 42
1.5707963268
  0
ELLIPSE
  5
711
100
AcDbEntity
  8
RACCORDO
100
AcDbEllipse
 62
7
  6
CONTINUOUS
 10
35.8162156883
 20
-34.9
 30
0.0
 11
0.0
 21
1.0
 31
0.0
 40
0.0174550649
 41
-4.7123889804
 42
-3.1415926536
  0
ELLIPSE
  5
712
100
AcDbEntity
  8
RACCORDO
100
AcDbEllipse
 62
7
  6
CONTINUOUS
 10
-34.899847672
 20
-53.899847672
 30
0.0
 11
0.7073221892
 21
0.7073221892
 31
0.0
 40
0.9996954599
 41
-3.9268385237
 42
-2.3563467834
  0
ELLIPSE
  5
713
100
AcDbEntity
  8
RACCORDO
100
AcDbEllipse
 62
7
  6
CONTINUOUS
 10
34.899847672
 20
-53.899847672
 30
0.0
 11
0.7073221892
 21
-0.7073221892
 31
0.0
 40
0.9996954599
 41
-0.7852458701
 42
0.7852458701
  0
ELLIPSE
  5
714
100
AcDbEntity
  8
RACCORDO
100
AcDbEllipse
 62
7
  6
CONTINUOUS
 10
-34.899847672
 20
53.899847672
 30
0.0
 11
0.7073221892
 21
-0.7073221892
 31
0.0
 40
0.9996954599
 41
2.3563467834
 42
3.9268385237
  0
ELLIPSE
  5
715
100
AcDbEntity
  8
RACCORDO
100
AcDbEllipse
 62
7
  6
CONTINUOUS
 10
34.899847672
 20
53.899847672
 30
0.0
 11
0.7073221892
 21
0.7073221892
 31
0.0
 40
0.9996954599
 41
-0.7852458701
 42
0.7852458701
  0
ELLIPSE
  5
716
100
AcDbEntity
  8
RACCORDO
100
AcDbEllipse
 62
7
  6
CONTINUOUS
 10
34.7951172824
 20
53.7951172824
 30
0.0
 11
-0.7073221892
 21
-0.7073221892
 31
0.0
 40
0.9996954599
 41
2.3563467834
 42
3.9268385237
  0
ELLIPSE
  5
717
100
AcDbEntity
  8
RACCORDO
100
AcDbEllipse
 62
7
  6
CONTINUOUS
 10
-34.7951172824
 20
-53.7951172824
 30
0.0
 11
0.7073221892
 21
0.7073221892
 31
0.0
 40
0.9996954599
 41
2.3563467834
 42
3.9268385237
  0
ELLIPSE
  5
718
100
AcDbEntity
  8
RACCORDO
100
AcDbEllipse
 62
7
  6
CONTINUOUS
 10
-5.9546029997
 20
0.9542982275
 30
0.0
 11
0.0
 21
0.5
 31
0.0
 40
0.0349207695
 41
-1.5707963268
 42
-0.034906585
  0
ELLIPSE
  5
719
100
AcDbEntity
  8
RACCORDO
100
AcDbEllipse
 62
7
  6
CONTINUOUS
 10
-5.9546029997
 20
-0.9542982275
 30
0.0
 11
0.0
 21
0.5
 31
0.0
 40
0.0349207695
 41
-3.1066860685
 42
-1.5707963268
  0
ELLIPSE
  5
71A
100
AcDbEntity
  8
RACCORDO
100
AcDbEllipse
 62
7
  6
CONTINUOUS
 10
5.9546029997
 20
-0.9542982275
 30
0.0
 11
0.0
 21
0.5
 31
0.0
 40
0.0349207695
 41
1.5707963268
 42
3.1066860685
  0
ELLIPSE
  5
71B
100
AcDbEntity
  8
RACCORDO
100
AcDbEllipse
 62
7
  6
CONTINUOUS
 10
5.9546029997
 20
0.9542982275
 30
0.0
 11
0.0
 21
0.5
 31
0.0
 40
0.0349207695
 41
0.034906585
 42
1.5707963268
  0
ELLIPSE
  5
71C
100
AcDbEntity
  8
RACCORDO
100
AcDbEllipse
 62
7
  6
CONTINUOUS
 10
-4.8483339502
 20
0.9542982275
 30
0.0
 11
0.0
 21
0.5
 31
0.0
 40
0.2679491924
 41
0.034906585
 42
1.5707963268
  0
ELLIPSE
  5
71D
100
AcDbEntity
  8
RACCORDO
100
AcDbEllipse
 62
7
  6
CONTINUOUS
 10
-4.8483339502
 20
-0.9542982275
 30
0.0
 11
0.0
 21
0.5
 31
0.0
 40
0.2679491924
 41
1.5707963268
 42
3.1066860685
  0
ELLIPSE
  5
71E
100
AcDbEntity
  8
RACCORDO
100
AcDbEllipse
 62
7
  6
CONTINUOUS
 10
4.8483339502
 20
-0.9542982275
 30
0.0
 11
0.0
 21
0.5
 31
0.0
 40
0.2679491924
 41
-3.1066860685
 42
-1.5707963268
  0
ELLIPSE
  5
71F
100
AcDbEntity
  8
RACCORDO
100
AcDbEllipse
 62
7
  6
CONTINUOUS
 10
4.8483339502
 20
0.9542982275
 30
0.0
 11
0.0
 21
0.5
 31
0.0
 40
0.2679491924
 41
-1.5707963268
 42
-0.034906585
  0
ELLIPSE
  5
720
100
AcDbEntity
  8
RACCORDO
100
AcDbEllipse
 62
7
  6
CONTINUOUS
 10
34.7951172824
 20
-53.7951172824
 30
0.0
 11
0.7073221892
 21
-0.7073221892
 31
0.0
 40
0.9996954599
 41
-0.7852458701
 42
0.7852458701
  0
ELLIPSE
  5
721
100
AcDbEntity
  8
RACCORDO
100
AcDbEllipse
 62
7
  6
CONTINUOUS
 10
-34.7951172824
 20
53.7951172824
 30
0.0
 11
-0.7073221892
 21
0.7073221892
 31
0.0
 40
0.9996954599
 41
-0.7852458701
 42
0.7852458701
  0
ENDSEC
  0
SECTION
  2
OBJECTS
  0
DICTIONARY
  5
C
100
AcDbDictionary
280
0
281
1
  3
ACAD_GROUP
350
D
  3
ACAD_MLINESTYLE
350
17
  3
ACAD_LAYOUT
350
1A
  3
ACAD_PLOTSETTINGS
350
19
  3
ACAD_PLOTSTYLENAME
350
E
  0
DICTIONARY
  5
D
102
{ACAD_REACTORS
330
C
102
}
100
AcDbDictionary
280
0
281
1
  0
ACDBDICTIONARYWDFLT
  5
E
102
{ACAD_REACTORS
330
C
102
}
100
AcDbDictionary
281
1
  3
Normal
350
F
100
AcDbDictionaryWithDefault
340
F
  0
DICTIONARY
  5
17
102
{ACAD_REACTORS
330
C
102
}
100
AcDbDictionary
280
0
281
1
  3
Standard
350
18
  0
DICTIONARY
  5
19
102
{ACAD_REACTORS
330
C
102
}
100
AcDbDictionary
281
1
  0
DICTIONARY
  5
1A
102
{ACAD_REACTORS
330
C
102
}
100
AcDbDictionary
281
1
  3
Model
350
722
  3
Layout1
350
723
  0
ACDBPLACEHOLDER
  5
F
102
{ACAD_REACTORS
330
E
102
}
  0
MLINESTYLE
  5
18
102
{ACAD_REACTORS
330
17
102
}
100
AcDbMlineStyle
  2
STANDARD
 70
0
  3

 62
256
 51
90.0
 52
90.0
 71
2
 49
0.5
 62
256
  6
BYLAYER
 49
-0.5
 62
256
  6
BYLAYER
  0
LAYOUT
  5
722
102
{ACAD_REACTORS
330
1A
102
}
100
AcDbPlotSettings
  1

  2
none_device
  4
ISO_A4_(297.00_x_210.00_MM)
  6

 40
0.0
 41
0.0
 42
0.0
 43
0.0
 44
297.0
 45
210.0
 46
0.0
 47
0.0
 48
0.0
 49
0.0
140
0.0
141
0.0
142
1.0
143
1.0
 70
1024
 72
1
 73
0
 74
0
  7

 75
0
147
1.0
148
0.0
149
0.0
100
AcDbLayout
  1
Model
 70
0
 71
0
 10
0.0
 20
0.0
 11
297.0
 21
210.0
 12
0.0
 22
0.0
 32
0.0
 14
0.0
 24
0.0
 34
0.0
 15
0.0
 25
0.0
 35
0.0
146
0.0
 13
0.0
 23
0.0
 33
0.0
 16
1.0
 26
0.0
 36
0.0
 17
0.0
 27
1.0
 37
0.0
 76
0
330
32F
345
0
346
0
  0
LAYOUT
  5
723
102
{ACAD_REACTORS
330
1A
102
}
100
AcDbPlotSettings
  1

  2
none_device
  4
ISO_A4_(297.00_x_210.00_MM)
  6

 40
0.0
 41
0.0
 42
0.0
 43
0.0
 44
297.0
 45
210.0
 46
0.0
 47
0.0
 48
0.0
 49
0.0
140
0.0
141
0.0
142
1.0
143
1.0
 70
0
 72
1
 73
0
 74
0
  7

 75
0
147
1.0
148
0.0
149
0.0
100
AcDbLayout
  1
Layout1
 70
0
 71
1
 10
0.0
 20
0.0
 11
297.0
 21
210.0
 12
0.0
 22
0.0
 32
0.0
 14
0.0
 24
0.0
 34
0.0
 15
0.0
 25
0.0
 35
0.0
146
0.0
 13
0.0
 23
0.0
 33
0.0
 16
1.0
 26
0.0
 36
0.0
 17
0.0
 27
1.0
 37
0.0
 76
0
330
330
345
0
346
0
  0
ENDSEC
  0
EOF
