  0
SECTION
  2
HEADER
  9
$ACADVER
  1
AC1015
  9
$DWGCODEPAGE
  3
ANSI_1252
  9
$EXTMAX
 10
297.0
 20
210.0
 30
0.0
  9
$EXTMIN
 10
0.0
 20
0.0
 30
0.0
  9
$LIMMIN
 10
0.0
 20
0.0
  9
$LIMMAX
 10
297.0
 20
210.0
  9
$VIEWCTR
 10
148.5
 20
105.0
  9
$VIEWSIZE
 40
210.0
  9
$CLAYER
  8
0
  9
$LTSCALE
 40
16.335
  9
$CELTYPE
  6
BYLAYER
  9
$DIMSCALE
 40
1.0
  9
$DIMASZ
 40
3.0
  9
$DIMEXO
 40
0.5
  9
$DIMDLI
 40
11.286
  9
$DIMEXE
 40
1.5
  9
$DIMCEN
 40
2.673
  9
$DIMLFAC
 40
1.0
  9
$DIMBLK
  1
_FILLED
  9
$DIMALT
 70
0
  9
$DIMALTF
 40
0.0393700787
  9
$DIMTXT
 40
3.0
  9
$DIMTOL
 70
1
  9
$DIMLIM
 70
0
  9
$DIMTFAC
 40
1.0
  9
$DIMTP
 40
0.01
  9
$DIMTM
 40
0.01
  9
$DIMGAP
 40
0.625
  9
$DIMDSEP
 70
44
  9
$AUNITS
 70
0
  9
$PDMODE
 70
3
  9
$PDSIZE
 40
3.0
  9
$HANDSEED
  5
664
  9
$TILEMODE
 70
1
  9
$MEASUREMENT
 70
1
  9
$INSUNITS
 70
4
  0
ENDSEC
  0
SECTION
  2
CLASSES
  0
CLASS
  1
ACDBDICTIONARYWDFLT
  2
AcDbDictionaryWithDefault
  3
AutoCAD 2000
 90
0
280
0
281
0
  0
CLASS
  1
ACDBPLACEHOLDER
  2
AcDbPlaceHolder
  3
AutoCAD 2000
 90
0
280
0
281
0
  0
CLASS
  1
LAYOUT
  2
AcDbLayout
  3
AutoCAD 2000
 90
0
280
0
281
0
  0
ENDSEC
  0
SECTION
  2
TABLES
  0
TABLE
  2
VPORT
  5
8
100
AcDbSymbolTable
 70
2
  0
VPORT
  5
1F4
100
AcDbSymbolTableRecord
100
AcDbViewportTableRecord
  2
*ACTIVE
 70
0
 10
0.0
 20
0.0
 11
1.0
 21
1.0
 12
148.5
 22
105.0
 13
0.0
 23
0.0
 14
1.0
 24
1.0
 15
0.0
 25
0.0
 16
0.0
 26
0.0
 36
1.0
 17
0.0
 27
0.0
 37
0.0
 40
210.0
 41
1.4142857143
 42
50.0
 43
0.0
 44
0.0
 50
0.0
 51
0.0
 71
0
 72
100
 73
1
 74
1
 75
0
 76
0
 77
0
 78
0
  0
ENDTAB
  0
TABLE
  2
LTYPE
  5
5
100
AcDbSymbolTable
 70
6
  0
LTYPE
  5
14
100
AcDbSymbolTableRecord
100
AcDbLinetypeTableRecord
  2
BYBLOCK
 70
0
  3

 72
65
 73
0
 40
0.0
  0
LTYPE
  5
15
100
AcDbSymbolTableRecord
100
AcDbLinetypeTableRecord
  2
BYLAYER
 70
0
  3

 72
65
 73
0
 40
0.0
  0
LTYPE
  5
16
100
AcDbSymbolTableRecord
100
AcDbLinetypeTableRecord
  2
CONTINUOUS
 70
64
  3
Solid line
 72
65
 73
0
 40
0.0
  0
LTYPE
  5
1F5
100
AcDbSymbolTableRecord
100
AcDbLinetypeTableRecord
  2
CENTER
 70
64
  3
____ _ ____ _ ____ _ ____ _ ____ _ ____ _ ____
 72
65
 73
4
 40
0.6
 49
0.375
 74
0
 49
-0.075
 74
0
 49
0.075
 74
0
 49
-0.075
 74
0
  0
LTYPE
  5
1F6
100
AcDbSymbolTableRecord
100
AcDbLinetypeTableRecord
  2
HIDDEN
 70
64
  3
- - - - - - - - - - - - - - - - - - - -
 72
65
 73
2
 40
0.2
 49
0.1
 74
0
 49
-0.1
 74
0
  0
LTYPE
  5
1F7
100
AcDbSymbolTableRecord
100
AcDbLinetypeTableRecord
  2
PHANTOM
 70
64
  3
_____ _ _ _____ _ _ _____ _ _ _____
 72
65
 73
6
 40
0.8
 49
0.45
 74
0
 49
-0.05
 74
0
 49
0.1
 74
0
 49
-0.05
 74
0
 49
0.1
 74
0
 49
-0.05
 74
0
  0
LTYPE
  5
1F8
100
AcDbSymbolTableRecord
100
AcDbLinetypeTableRecord
  2
DOT
 70
64
  3
. . . . . . . . . . . . . . . . . . . .
 72
65
 73
2
 40
0.2
 49
0.1
 74
0
 49
-0.1
 74
0
  0
LTYPE
  5
1F9
100
AcDbSymbolTableRecord
100
AcDbLinetypeTableRecord
  2
DASHED
 70
64
  3
- - - - - - - - - - - - - - - - - - - -
 72
65
 73
2
 40
0.2
 49
0.1
 74
0
 49
-0.1
 74
0
  0
ENDTAB
  0
TABLE
  2
LAYER
  5
2
100
AcDbSymbolTable
 70
36
  0
LAYER
  5
10
100
AcDbSymbolTableRecord
100
AcDbLayerTableRecord
  2
0
 70
0
 62
7
  6
CONTINUOUS
370
-3
390
F
  0
LAYER
  5
1FA
100
AcDbSymbolTableRecord
100
AcDbLayerTableRecord
  2
DEFAULT_1
 70
0
 62
7
  6
CENTER
370
-3
390
F
  0
LAYER
  5
1FB
100
AcDbSymbolTableRecord
100
AcDbLayerTableRecord
  2
DEFAULT_2
 70
0
 62
7
  6
HIDDEN
370
-3
390
F
  0
LAYER
  5
1FC
100
AcDbSymbolTableRecord
100
AcDbLayerTableRecord
  2
DEFAULT_3
 70
0
 62
7
  6
PHANTOM
370
-3
390
F
  0
LAYER
  5
1FD
100
AcDbSymbolTableRecord
100
AcDbLayerTableRecord
  2
ASSI
 70
0
 62
7
  6
CONTINUOUS
370
-3
390
F
  0
LAYER
  5
1FE
100
AcDbSymbolTableRecord
100
AcDbLayerTableRecord
  2
COLOR1
 70
0
 62
7
  6
CONTINUOUS
370
-3
390
F
  0
LAYER
  5
1FF
100
AcDbSymbolTableRecord
100
AcDbLayerTableRecord
  2
COLOR15
 70
0
 62
7
  6
CONTINUOUS
370
-3
390
F
  0
LAYER
  5
200
100
AcDbSymbolTableRecord
100
AcDbLayerTableRecord
  2
COLOR16
 70
0
 62
7
  6
CONTINUOUS
370
-3
390
F
  0
LAYER
  5
201
100
AcDbSymbolTableRecord
100
AcDbLayerTableRecord
  2
COORDINATE
 70
0
 62
7
  6
CONTINUOUS
370
-3
390
F
  0
LAYER
  5
202
100
AcDbSymbolTableRecord
100
AcDbLayerTableRecord
  2
COPY_PUBLISH
 70
0
 62
7
  6
CONTINUOUS
370
-3
390
F
  0
LAYER
  5
203
100
AcDbSymbolTableRecord
100
AcDbLayerTableRecord
  2
COSMETICI
 70
0
 62
7
  6
CONTINUOUS
370
-3
390
F
  0
LAYER
  5
204
100
AcDbSymbolTableRecord
100
AcDbLayerTableRecord
  2
CURVE
 70
0
 62
7
  6
CONTINUOUS
370
-3
390
F
  0
LAYER
  5
205
100
AcDbSymbolTableRecord
100
AcDbLayerTableRecord
  2
DRAFT
 70
0
 62
7
  6
CONTINUOUS
370
-3
390
F
  0
LAYER
  5
206
100
AcDbSymbolTableRecord
100
AcDbLayerTableRecord
  2
IMPORT_IGES
 70
0
 62
7
  6
CONTINUOUS
370
-3
390
F
  0
LAYER
  5
207
100
AcDbSymbolTableRecord
100
AcDbLayerTableRecord
  2
INTF_YELLOW
 70
0
 62
7
  6
CONTINUOUS
370
-3
390
F
  0
LAYER
  5
208
100
AcDbSymbolTableRecord
100
AcDbLayerTableRecord
  2
NOTE
 70
0
 62
7
  6
CONTINUOUS
370
-3
390
F
  0
LAYER
  5
209
100
AcDbSymbolTableRecord
100
AcDbLayerTableRecord
  2
PIANI
 70
0
 62
7
  6
CONTINUOUS
370
-3
390
F
  0
LAYER
  5
20A
100
AcDbSymbolTableRecord
100
AcDbLayerTableRecord
  2
PUNTI
 70
0
 62
7
  6
CONTINUOUS
370
-3
390
F
  0
LAYER
  5
20B
100
AcDbSymbolTableRecord
100
AcDbLayerTableRecord
  2
RACCORDO
 70
0
 62
7
  6
CONTINUOUS
370
-3
390
F
  0
LAYER
  5
20C
100
AcDbSymbolTableRecord
100
AcDbLayerTableRecord
  2
SIMBOLI
 70
0
 62
7
  6
CONTINUOUS
370
-3
390
F
  0
LAYER
  5
20D
100
AcDbSymbolTableRecord
100
AcDbLayerTableRecord
  2
SMUSSO
 70
0
 62
7
  6
CONTINUOUS
370
-3
390
F
  0
LAYER
  5
20E
100
AcDbSymbolTableRecord
100
AcDbLayerTableRecord
  2
SNAPLINE
 70
0
 62
7
  6
CONTINUOUS
370
-3
390
F
  0
LAYER
  5
20F
100
AcDbSymbolTableRecord
100
AcDbLayerTableRecord
  2
SUPERFICI
 70
0
 62
7
  6
CONTINUOUS
370
-3
390
F
  0
LAYER
  5
210
100
AcDbSymbolTableRecord
100
AcDbLayerTableRecord
  2
TRASH
 70
0
 62
7
  6
CONTINUOUS
370
-3
390
F
  0
LAYER
  5
211
100
AcDbSymbolTableRecord
100
AcDbLayerTableRecord
  2
WHITE
 70
0
 62
7
  6
CONTINUOUS
370
-3
390
F
  0
LAYER
  5
212
100
AcDbSymbolTableRecord
100
AcDbLayerTableRecord
  2
XSEC_DATUMS
 70
0
 62
7
  6
CONTINUOUS
370
-3
390
F
  0
ENDTAB
  0
TABLE
  2
STYLE
  5
3
100
AcDbSymbolTable
 70
1
  0
STYLE
  5
11
100
AcDbSymbolTableRecord
100
AcDbTextStyleTableRecord
  2
STANDARD
 70
0
 40
0.0
 41
0.8
 50
0.0
 71
0
 42
0.2
  3
txt
  4

  0
STYLE
  5
213
100
AcDbSymbolTableRecord
100
AcDbTextStyleTableRecord
  2
TEXTSTYLE_1
 70
0
 40
0.0
 41
0.8
 50
0.0
 71
0
 42
0.2
  3
gdt
  4

  0
ENDTAB
  0
TABLE
  2
VIEW
  5
6
100
AcDbSymbolTable
 70
0
  0
ENDTAB
  0
TABLE
  2
UCS
  5
7
100
AcDbSymbolTable
 70
0
  0
ENDTAB
  0
TABLE
  2
APPID
  5
9
100
AcDbSymbolTable
 70
1
  0
APPID
  5
214
100
AcDbSymbolTableRecord
100
AcDbRegAppTableRecord
  2
ACAD
 70
0
  0
ENDTAB
  0
TABLE
  2
BLOCK_RECORD
  5
1
100
AcDbSymbolTable
 70
0
  0
BLOCK_RECORD
  5
215
100
AcDbSymbolTableRecord
100
AcDbBlockTableRecord
  2
*Model_Space
  0
BLOCK_RECORD
  5
216
100
AcDbSymbolTableRecord
100
AcDbBlockTableRecord
  2
*Paper_Space
  0
ENDTAB
  0
TABLE
  2
DIMSTYLE
  5
A
100
AcDbSymbolTable
 70
1
100
AcDbDimStyleTable
 71
0
  0
DIMSTYLE
105
217
100
AcDbSymbolTableRecord
100
AcDbDimStyleTableRecord
  2
STANDARD
 70
0
  3

  4

 40
1.0
 41
3.0
 42
0.5
 43
0.38
 44
1.5
 45
0.0
 46
0.0
 47
0.01
 48
0.01
140
3.0
141
0.09
142
0.0
143
25.4
144
1.0
145
0.0
146
1.0
147
0.625
 71
1.0
 72
0.0
 73
0
 74
0
 75
0
 76
0
 77
1
 78
8
170
0
171
2
172
0
173
0
174
0
175
0
176
0
177
0
178
0
270
2
271
2
272
2
273
2
274
2
275
0
280
0
281
0
282
0
283
1
284
8
285
0
286
0
287
3
288
0
340
11
278
44
  0
ENDTAB
  0
ENDSEC
  0
SECTION
  2
BLOCKS
  0
BLOCK
  5
20
100
AcDbEntity
  8
0
100
AcDbBlockBegin
  2
*Model_Space
 70
0
 10
0.0
 20
0.0
 30
0.0
  3
*Model_Space
  1

  0
ENDBLK
  5
21
100
AcDbEntity
  8
0
100
AcDbBlockEnd
  0
BLOCK
  5
1C
100
AcDbEntity
  8
0
100
AcDbBlockBegin
  2
*Paper_Space
 70
0
 10
0.0
 20
0.0
 30
0.0
  3
*Paper_Space
  1

  0
ENDBLK
  5
1D
100
AcDbEntity
  8
0
100
AcDbBlockEnd
  0
ENDSEC
  0
SECTION
  2
ENTITIES
  0
LINE
  5
218
100
AcDbEntity
  8
DRAFT
100
AcDbLine
 62
7
  6
CONTINUOUS
 10
-66.6313787251
 20
38.6128162701
 11
-66.8421899771
 21
38.402005018
  0
LINE
  5
219
100
AcDbEntity
  8
RACCORDO
100
AcDbLine
 62
253
  6
CONTINUOUS
 10
-68.8302371345
 20
33.5628162701
 11
-69.1276985905
 21
33.2653548141
  0
LINE
  5
21A
100
AcDbEntity
  8
RACCORDO
100
AcDbLine
 62
253
  6
CONTINUOUS
 10
-68.5313787251
 20
33.2639578606
 11
-68.828840181
 21
32.9664964046
  0
LINE
  5
21B
100
AcDbEntity
  8
DRAFT
100
AcDbLine
 62
7
  6
CONTINUOUS
 10
-66.6313787251
 20
-59.8871837299
 11
-66.8421899771
 21
-59.6763724779
  0
LINE
  5
21C
100
AcDbEntity
  8
RACCORDO
100
AcDbLine
 62
253
  6
CONTINUOUS
 10
-68.8302371345
 20
-54.8371837299
 11
-69.1276985905
 21
-54.539722274
  0
LINE
  5
21D
100
AcDbEntity
  8
RACCORDO
100
AcDbLine
 62
253
  6
CONTINUOUS
 10
-70.7313787251
 20
25.4616746795
 11
-70.4339172691
 21
25.7591361355
  0
LINE
  5
21E
100
AcDbEntity
  8
RACCORDO
100
AcDbLine
 62
253
  6
CONTINUOUS
 10
-70.4325203156
 20
25.1628162701
 11
-70.1350588596
 21
25.460277726
  0
LINE
  5
21F
100
AcDbEntity
  8
RACCORDO
100
AcDbLine
 62
7
  6
CONTINUOUS
 10
6.8686974274
 20
-67.8871837299
 11
1.3686212749
 21
-67.8871837299
  0
LINE
  5
220
100
AcDbEntity
  8
DRAFT
100
AcDbLine
 62
7
  6
CONTINUOUS
 10
1.3686212749
 20
-67.8871837299
 11
-14.1313787251
 21
-67.8871837299
  0
LINE
  5
221
100
AcDbEntity
  8
DRAFT
100
AcDbLine
 62
7
  6
CONTINUOUS
 10
-20.1313787251
 20
-67.8871837299
 11
-38.1313787251
 21
-67.8871837299
  0
LINE
  5
222
100
AcDbEntity
  8
DRAFT
100
AcDbLine
 62
7
  6
CONTINUOUS
 10
-44.1313787251
 20
-67.8871837299
 11
-59.6313787251
 21
-67.8871837299
  0
LINE
  5
223
100
AcDbEntity
  8
RACCORDO
100
AcDbLine
 62
7
  6
CONTINUOUS
 10
-59.6313787251
 20
-67.8871837299
 11
-67.6314548775
 21
-67.8871837299
  0
LINE
  5
224
100
AcDbEntity
  8
RACCORDO
100
AcDbLine
 62
7
  6
CONTINUOUS
 10
6.8564788819
 20
-67.8749651845
 11
1.3699788911
 21
-67.8749651845
  0
LINE
  5
225
100
AcDbEntity
  8
DRAFT
100
AcDbLine
 62
7
  6
CONTINUOUS
 10
0.3672636588
 20
-67.8749651845
 11
-14.1435972705
 21
-67.8749651845
  0
LINE
  5
226
100
AcDbEntity
  8
DRAFT
100
AcDbLine
 62
7
  6
CONTINUOUS
 10
-20.1191601796
 20
-67.8749651845
 11
-28.6300211089
 21
-67.8749651845
  0
LINE
  5
227
100
AcDbEntity
  8
DRAFT
100
AcDbLine
 62
7
  6
CONTINUOUS
 10
-29.6327363412
 20
-67.8749651845
 11
-38.1435972705
 21
-67.8749651845
  0
LINE
  5
228
100
AcDbEntity
  8
DRAFT
100
AcDbLine
 62
7
  6
CONTINUOUS
 10
-44.1191601796
 20
-67.8749651845
 11
-58.6300211089
 21
-67.8749651845
  0
LINE
  5
229
100
AcDbEntity
  8
DRAFT
100
AcDbLine
 62
7
  6
CONTINUOUS
 10
-59.6327363412
 20
-67.8749651845
 11
-67.0313787251
 21
-67.8749651845
  0
LINE
  5
22A
100
AcDbEntity
  8
RACCORDO
100
AcDbLine
 62
7
  6
CONTINUOUS
 10
-67.0313787251
 20
-67.8575101196
 11
-67.6017812671
 21
-67.8575101196
  0
LINE
  5
22B
100
AcDbEntity
  8
DRAFT
100
AcDbLine
 62
7
  6
CONTINUOUS
 10
-54.4223981276
 20
-67.0282031325
 11
-49.8403593225
 21
-67.0282031325
  0
LINE
  5
22C
100
AcDbEntity
  8
DRAFT
100
AcDbLine
 62
7
  6
CONTINUOUS
 10
-3.8403593225
 20
-67.0282031325
 11
-8.4223981276
 21
-67.0282031325
  0
LINE
  5
22D
100
AcDbEntity
  8
DRAFT
100
AcDbLine
 62
7
  6
CONTINUOUS
 10
-54.3813787251
 20
-66.9871837299
 11
-49.8813787251
 21
-66.9871837299
  0
LINE
  5
22E
100
AcDbEntity
  8
DRAFT
100
AcDbLine
 62
7
  6
CONTINUOUS
 10
-3.8813787251
 20
-66.9871837299
 11
-8.3813787251
 21
-66.9871837299
  0
LINE
  5
22F
100
AcDbEntity
  8
RACCORDO
100
AcDbLine
 62
7
  6
CONTINUOUS
 10
-31.2252268082
 20
-66.8802707528
 11
-29.7432579447
 21
-66.8802707528
  0
LINE
  5
230
100
AcDbEntity
  8
RACCORDO
100
AcDbLine
 62
7
  6
CONTINUOUS
 10
-28.5194995054
 20
-66.8802707528
 11
-27.0375306419
 21
-66.8802707528
  0
LINE
  5
231
100
AcDbEntity
  8
DRAFT
100
AcDbLine
 62
7
  6
CONTINUOUS
 10
-28.5126948315
 20
-66.8190286883
 11
-29.7500626186
 21
-66.8190286883
  0
LINE
  5
232
100
AcDbEntity
  8
RACCORDO
100
AcDbLine
 62
7
  6
CONTINUOUS
 10
-31.0327517485
 20
-66.687795693
 11
-27.2300057016
 21
-66.687795693
  0
LINE
  5
233
100
AcDbEntity
  8
DRAFT
100
AcDbLine
 62
7
  6
CONTINUOUS
 10
-54.3813787251
 20
-66.2871837299
 11
-49.8813787251
 21
-66.2871837299
  0
LINE
  5
234
100
AcDbEntity
  8
DRAFT
100
AcDbLine
 62
7
  6
CONTINUOUS
 10
-3.8813787251
 20
-66.2871837299
 11
-8.3813787251
 21
-66.2871837299
  0
LINE
  5
235
100
AcDbEntity
  8
0
100
AcDbLine
 62
7
  6
CONTINUOUS
 10
-64.8813787251
 20
-65.6371837299
 11
-58.3813787251
 21
-65.6371837299
  0
LINE
  5
236
100
AcDbEntity
  8
DRAFT
100
AcDbLine
 62
7
  6
CONTINUOUS
 10
-49.8630509069
 20
-65.6371837299
 11
-44.1191601796
 21
-65.6371837299
  0
LINE
  5
237
100
AcDbEntity
  8
DRAFT
100
AcDbLine
 62
7
  6
CONTINUOUS
 10
-26.9520269648
 20
-65.6371837299
 11
-20.1191601796
 21
-65.6371837299
  0
LINE
  5
238
100
AcDbEntity
  8
DRAFT
100
AcDbLine
 62
7
  6
CONTINUOUS
 10
-3.8630509069
 20
-65.6371837299
 11
0.1186212749
 21
-65.6371837299
  0
LINE
  5
239
100
AcDbEntity
  8
0
100
AcDbLine
 62
7
  6
CONTINUOUS
 10
0.1186212749
 20
-65.6371837299
 11
6.6186212749
 21
-65.6371837299
  0
LINE
  5
23A
100
AcDbEntity
  8
DRAFT
100
AcDbLine
 62
7
  6
CONTINUOUS
 10
-8.3997065432
 20
-65.6371837299
 11
-14.1435972705
 21
-65.6371837299
  0
LINE
  5
23B
100
AcDbEntity
  8
DRAFT
100
AcDbLine
 62
7
  6
CONTINUOUS
 10
-31.3107304853
 20
-65.6371837299
 11
-38.1435972705
 21
-65.6371837299
  0
LINE
  5
23C
100
AcDbEntity
  8
DRAFT
100
AcDbLine
 62
7
  6
CONTINUOUS
 10
-54.3997065432
 20
-65.6371837299
 11
-58.3813787251
 21
-65.6371837299
  0
LINE
  5
23D
100
AcDbEntity
  8
DRAFT
100
AcDbLine
 62
7
  6
CONTINUOUS
 10
-31.1313787251
 20
-65.134524845
 11
-27.1313787251
 21
-65.134524845
  0
LINE
  5
23E
100
AcDbEntity
  8
DRAFT
100
AcDbLine
 62
7
  6
CONTINUOUS
 10
-44.141851764
 20
-64.964210691
 11
-38.1209056861
 21
-64.964210691
  0
LINE
  5
23F
100
AcDbEntity
  8
DRAFT
100
AcDbLine
 62
7
  6
CONTINUOUS
 10
-20.141851764
 20
-64.964210691
 11
-14.1209056861
 21
-64.964210691
  0
LINE
  5
240
100
AcDbEntity
  8
RACCORDO
100
AcDbLine
 62
253
  6
CONTINUOUS
 10
-68.5313787251
 20
-54.5383253205
 11
-68.828840181
 21
-54.2408638645
  0
LINE
  5
241
100
AcDbEntity
  8
DRAFT
100
AcDbLine
 62
7
  6
CONTINUOUS
 10
-55.6767757254
 20
-63.2167867296
 11
-55.7178466608
 21
-63.1757157942
  0
LINE
  5
242
100
AcDbEntity
  8
DRAFT
100
AcDbLine
 62
7
  6
CONTINUOUS
 10
-55.6767757254
 20
-61.9167867296
 11
-55.7178466608
 21
-61.8757157942
  0
LINE
  5
243
100
AcDbEntity
  8
RACCORDO
100
AcDbLine
 62
253
  6
CONTINUOUS
 10
-70.7313787251
 20
-46.7360421394
 11
-70.4339172691
 21
-47.0335035954
  0
LINE
  5
244
100
AcDbEntity
  8
RACCORDO
100
AcDbLine
 62
253
  6
CONTINUOUS
 10
-70.4325203156
 20
-46.4371837299
 11
-70.1350588596
 21
-46.7346451859
  0
LINE
  5
245
100
AcDbEntity
  8
DRAFT
100
AcDbLine
 62
7
  6
CONTINUOUS
 10
-49.8813787251
 20
-66.9871837299
 11
-49.8403593225
 21
-67.0282031325
  0
LINE
  5
246
100
AcDbEntity
  8
DRAFT
100
AcDbLine
 62
7
  6
CONTINUOUS
 10
-61.937410467
 20
42.6135081402
 11
-61.9877410627
 21
42.5128162701
  0
LINE
  5
247
100
AcDbEntity
  8
DRAFT
100
AcDbLine
 62
7
  6
CONTINUOUS
 10
-61.937410467
 20
37.6135081402
 11
-61.9877410627
 21
37.5128162701
  0
LINE
  5
248
100
AcDbEntity
  8
DRAFT
100
AcDbLine
 62
7
  6
CONTINUOUS
 10
-68.1017051147
 20
22.9925589921
 11
-68.1313787251
 21
22.9628162701
  0
LINE
  5
249
100
AcDbEntity
  8
DRAFT
100
AcDbLine
 62
7
  6
CONTINUOUS
 10
-54.3997065432
 20
-63.8371837299
 11
-49.8630509069
 21
-63.8371837299
  0
LINE
  5
24A
100
AcDbEntity
  8
DRAFT
100
AcDbLine
 62
7
  6
CONTINUOUS
 10
-3.8630509069
 20
-63.8371837299
 11
-8.3997065432
 21
-63.8371837299
  0
LINE
  5
24B
100
AcDbEntity
  8
DRAFT
100
AcDbLine
 62
7
  6
CONTINUOUS
 10
7.3564027295
 20
-63.597994982
 11
6.6186212749
 21
-63.597994982
  0
LINE
  5
24C
100
AcDbEntity
  8
DRAFT
100
AcDbLine
 62
7
  6
CONTINUOUS
 10
6.6186212749
 20
-63.4152918969
 11
5.590513108
 21
-63.4152918969
  0
LINE
  5
24D
100
AcDbEntity
  8
DRAFT
100
AcDbLine
 62
7
  6
CONTINUOUS
 10
7.354657223
 20
-63.3871837299
 11
5.6186212749
 21
-63.3871837299
  0
LINE
  5
24E
100
AcDbEntity
  8
DRAFT
100
AcDbLine
 62
7
  6
CONTINUOUS
 10
1.5232242746
 20
-63.2167867296
 11
-2.5859817247
 21
-63.2167867296
  0
LINE
  5
24F
100
AcDbEntity
  8
DRAFT
100
AcDbLine
 62
7
  6
CONTINUOUS
 10
-9.6767757254
 20
-63.2167867296
 11
-13.7859817247
 21
-63.2167867296
  0
LINE
  5
250
100
AcDbEntity
  8
DRAFT
100
AcDbLine
 62
7
  6
CONTINUOUS
 10
-20.4767757254
 20
-63.2167867296
 11
-26.9520269648
 21
-63.2167867296
  0
LINE
  5
251
100
AcDbEntity
  8
DRAFT
100
AcDbLine
 62
7
  6
CONTINUOUS
 10
-31.3107304853
 20
-63.2167867296
 11
-37.7859817247
 21
-63.2167867296
  0
LINE
  5
252
100
AcDbEntity
  8
DRAFT
100
AcDbLine
 62
7
  6
CONTINUOUS
 10
-44.4767757254
 20
-63.2167867296
 11
-48.5859817247
 21
-63.2167867296
  0
LINE
  5
253
100
AcDbEntity
  8
DRAFT
100
AcDbLine
 62
7
  6
CONTINUOUS
 10
-55.6767757254
 20
-63.2167867296
 11
-59.7859817247
 21
-63.2167867296
  0
LINE
  5
254
100
AcDbEntity
  8
DRAFT
100
AcDbLine
 62
7
  6
CONTINUOUS
 10
-31.1313787251
 20
-63.1451991521
 11
-27.1313787251
 21
-63.1451991521
  0
LINE
  5
255
100
AcDbEntity
  8
DRAFT
100
AcDbLine
 62
7
  6
CONTINUOUS
 10
-13.7859817247
 20
-62.9167867296
 11
-20.4767757254
 21
-62.9167867296
  0
LINE
  5
256
100
AcDbEntity
  8
DRAFT
100
AcDbLine
 62
7
  6
CONTINUOUS
 10
-37.7859817247
 20
-62.9167867296
 11
-44.4767757254
 21
-62.9167867296
  0
LINE
  5
257
100
AcDbEntity
  8
DRAFT
100
AcDbLine
 62
7
  6
CONTINUOUS
 10
-9.6767757254
 20
-61.9167867296
 11
-2.5859817247
 21
-61.9167867296
  0
LINE
  5
258
100
AcDbEntity
  8
DRAFT
100
AcDbLine
 62
7
  6
CONTINUOUS
 10
-48.5859817247
 20
-61.9167867296
 11
-55.6767757254
 21
-61.9167867296
  0
LINE
  5
259
100
AcDbEntity
  8
DRAFT
100
AcDbLine
 62
7
  6
CONTINUOUS
 10
5.6186212749
 20
-61.8871837299
 11
7.354657223
 21
-61.8871837299
  0
LINE
  5
25A
100
AcDbEntity
  8
DRAFT
100
AcDbLine
 62
7
  6
CONTINUOUS
 10
6.6186212749
 20
-61.859075563
 11
5.590513108
 21
-61.859075563
  0
LINE
  5
25B
100
AcDbEntity
  8
DRAFT
100
AcDbLine
 62
7
  6
CONTINUOUS
 10
7.3564027295
 20
-61.6763724779
 11
6.6186212749
 21
-61.6763724779
  0
LINE
  5
25C
100
AcDbEntity
  8
DRAFT
100
AcDbLine
 62
7
  6
CONTINUOUS
 10
1.5232242746
 20
-61.6371837299
 11
3.1186212749
 21
-61.6371837299
  0
LINE
  5
25D
100
AcDbEntity
  8
DRAFT
100
AcDbLine
 62
7
  6
CONTINUOUS
 10
-59.7859817247
 20
-61.6371837299
 11
-61.3813787251
 21
-61.6371837299
  0
LINE
  5
25E
100
AcDbEntity
  8
DRAFT
100
AcDbLine
 62
7
  6
CONTINUOUS
 10
-66.8421899771
 20
-61.597994982
 11
-64.8813787251
 21
-61.597994982
  0
LINE
  5
25F
100
AcDbEntity
  8
DRAFT
100
AcDbLine
 62
7
  6
CONTINUOUS
 10
-64.8813787251
 20
-61.4152918969
 11
-63.8813787251
 21
-61.4152918969
  0
LINE
  5
260
100
AcDbEntity
  8
DRAFT
100
AcDbLine
 62
7
  6
CONTINUOUS
 10
-66.6313787251
 20
-61.3871837299
 11
-63.8813787251
 21
-61.3871837299
  0
LINE
  5
261
100
AcDbEntity
  8
DRAFT
100
AcDbLine
 62
7
  6
CONTINUOUS
 10
-63.8813787251
 20
-59.8871837299
 11
-66.6313787251
 21
-59.8871837299
  0
LINE
  5
262
100
AcDbEntity
  8
DRAFT
100
AcDbLine
 62
7
  6
CONTINUOUS
 10
-64.8813787251
 20
-59.859075563
 11
-63.8813787251
 21
-59.859075563
  0
LINE
  5
263
100
AcDbEntity
  8
DRAFT
100
AcDbLine
 62
7
  6
CONTINUOUS
 10
-66.8421899771
 20
-59.6763724779
 11
-64.8813787251
 21
-59.6763724779
  0
LINE
  5
264
100
AcDbEntity
  8
0
100
AcDbLine
 62
7
  6
CONTINUOUS
 10
-55.8813787251
 20
-59.5871837299
 11
-53.3813787251
 21
-59.5871837299
  0
LINE
  5
265
100
AcDbEntity
  8
0
100
AcDbLine
 62
7
  6
CONTINUOUS
 10
-4.8813787251
 20
-59.5871837299
 11
-2.3813787251
 21
-59.5871837299
  0
LINE
  5
266
100
AcDbEntity
  8
DRAFT
100
AcDbLine
 62
7
  6
CONTINUOUS
 10
-27.030766762
 20
-65.1746837299
 11
-27.1313787251
 21
-65.134524845
  0
LINE
  5
267
100
AcDbEntity
  8
DRAFT
100
AcDbLine
 62
7
  6
CONTINUOUS
 10
-59.8313787251
 20
-49.9121837299
 11
-59.7554711304
 21
-49.9880913246
  0
LINE
  5
268
100
AcDbEntity
  8
DRAFT
100
AcDbLine
 62
7
  6
CONTINUOUS
 10
-68.1017051147
 20
-44.266926452
 11
-68.1313787251
 21
-44.2371837299
  0
LINE
  5
269
100
AcDbEntity
  8
RACCORDO
100
AcDbLine
 62
7
  6
CONTINUOUS
 10
-70.4621589965
 20
31.2119615065
 11
-70.4339172691
 21
31.5715335189
  0
LINE
  5
26A
100
AcDbEntity
  8
DRAFT
100
AcDbLine
 62
7
  6
CONTINUOUS
 10
-61.3813787251
 20
-58.5871837299
 11
-59.7859817247
 21
-58.5871837299
  0
LINE
  5
26B
100
AcDbEntity
  8
DRAFT
100
AcDbLine
 62
7
  6
CONTINUOUS
 10
1.5232242746
 20
-58.5871837299
 11
3.1186212749
 21
-58.5871837299
  0
LINE
  5
26C
100
AcDbEntity
  8
RACCORDO
100
AcDbLine
 62
7
  6
CONTINUOUS
 10
-70.4325203156
 20
-54.8371837299
 11
-68.8302371345
 21
-54.8371837299
  0
LINE
  5
26D
100
AcDbEntity
  8
DRAFT
100
AcDbLine
 62
7
  6
CONTINUOUS
 10
3.1186212749
 20
-54.5871837299
 11
1.5232242746
 21
-54.5871837299
  0
LINE
  5
26E
100
AcDbEntity
  8
DRAFT
100
AcDbLine
 62
7
  6
CONTINUOUS
 10
-59.7859817247
 20
-54.5871837299
 11
-61.3813787251
 21
-54.5871837299
  0
LINE
  5
26F
100
AcDbEntity
  8
RACCORDO
100
AcDbLine
 62
7
  6
CONTINUOUS
 10
-70.1350588596
 20
-54.539722274
 11
-69.1276985905
 21
-54.539722274
  0
LINE
  5
270
100
AcDbEntity
  8
DRAFT
100
AcDbLine
 62
7
  6
CONTINUOUS
 10
-26.9520269648
 20
-63.2167867296
 11
-27.1313787251
 21
-63.1451991521
  0
LINE
  5
271
100
AcDbEntity
  8
DRAFT
100
AcDbLine
 62
7
  6
CONTINUOUS
 10
-44.4767757254
 20
-63.2167867296
 11
-44.5392820966
 21
-63.1542803584
  0
LINE
  5
272
100
AcDbEntity
  8
DRAFT
100
AcDbLine
 62
7
  6
CONTINUOUS
 10
-44.4767757254
 20
-62.9167867296
 11
-44.5392820966
 21
-62.8542803584
  0
LINE
  5
273
100
AcDbEntity
  8
DRAFT
100
AcDbLine
 62
7
  6
CONTINUOUS
 10
-38.1313787251
 20
-67.8871837299
 11
-38.1435972705
 21
-67.8749651845
  0
LINE
  5
274
100
AcDbEntity
  8
RACCORDO
100
AcDbLine
 62
7
  6
CONTINUOUS
 10
-70.4339172691
 20
-52.8459009788
 11
-70.4747310191
 21
-52.321320523
  0
LINE
  5
275
100
AcDbEntity
  8
RACCORDO
100
AcDbLine
 62
7
  6
CONTINUOUS
 10
-68.828840181
 20
-48.4284664811
 11
-68.788026431
 21
-48.9530469369
  0
LINE
  5
276
100
AcDbEntity
  8
RACCORDO
100
AcDbLine
 62
7
  6
CONTINUOUS
 10
-70.4747310191
 20
-52.321320523
 11
-70.4976128252
 21
-52.0084665481
  0
LINE
  5
277
100
AcDbEntity
  8
RACCORDO
100
AcDbLine
 62
7
  6
CONTINUOUS
 10
-68.788026431
 20
-48.9530469369
 11
-68.7651446249
 21
-49.2659009117
  0
LINE
  5
278
100
AcDbEntity
  8
RACCORDO
100
AcDbLine
 62
7
  6
CONTINUOUS
 10
-70.4976128252
 20
-52.0084665481
 11
-70.5085935145
 21
-51.8495560606
  0
LINE
  5
279
100
AcDbEntity
  8
RACCORDO
100
AcDbLine
 62
7
  6
CONTINUOUS
 10
-68.7651446249
 20
-49.2659009117
 11
-68.7541639357
 21
-49.4248113993
  0
LWPOLYLINE
  5
27A
100
AcDbEntity
  8
RACCORDO
100
AcDbPolyline
 62
7
  6
CONTINUOUS
 90
22
 70
0
 10
-68.1313787251
 20
-67.3872598824
 10
-68.1299872521
 20
-67.4245401023
 10
-68.1258126771
 20
-67.4616624576
 10
-68.1188669878
 20
-67.498418558
 10
-68.1091631457
 20
-67.5346484675
 10
-68.0967521062
 20
-67.5700959317
 10
-68.0817581422
 20
-67.6044219654
 10
-68.0643465452
 20
-67.6373375805
 10
-68.0445889459
 20
-67.6687836938
 10
-68.0224792447
 20
-67.6987663782
 10
-67.9980183129
 20
-67.7272129065
 10
-67.9714079017
 20
-67.7538233178
 10
-67.9429613733
 20
-67.7782842496
 10
-67.9129786889
 20
-67.8003939508
 10
-67.8815325756
 20
-67.8201515501
 10
-67.8486169605
 20
-67.8375631471
 10
-67.8142909268
 20
-67.8525571111
 10
-67.7788434626
 20
-67.8649681505
 10
-67.7426135531
 20
-67.8746719927
 10
-67.7058574527
 20
-67.881617682
 10
-67.6687350974
 20
-67.885792257
 10
-67.6314548775
 20
-67.8871837299
  0
LINE
  5
27B
100
AcDbEntity
  8
RACCORDO
100
AcDbLine
 62
7
  6
CONTINUOUS
 10
-70.7313787251
 20
33.2639578606
 11
-70.7313787251
 21
30.5926536577
  0
LINE
  5
27C
100
AcDbEntity
  8
RACCORDO
100
AcDbLine
 62
7
  6
CONTINUOUS
 10
-70.7313787251
 20
28.1329788824
 11
-70.7313787251
 21
25.4616746795
  0
LINE
  5
27D
100
AcDbEntity
  8
RACCORDO
100
AcDbLine
 62
7
  6
CONTINUOUS
 10
-70.7313787251
 20
-46.7360421394
 11
-70.7313787251
 21
-49.4073463423
  0
LINE
  5
27E
100
AcDbEntity
  8
RACCORDO
100
AcDbLine
 62
7
  6
CONTINUOUS
 10
-70.7313787251
 20
-51.8670211176
 11
-70.7313787251
 21
-54.5383253205
  0
LINE
  5
27F
100
AcDbEntity
  8
DRAFT
100
AcDbLine
 62
7
  6
CONTINUOUS
 10
-70.556401398
 20
30.7291372626
 11
-70.556401398
 21
30.5424604355
  0
LINE
  5
280
100
AcDbEntity
  8
DRAFT
100
AcDbLine
 62
7
  6
CONTINUOUS
 10
-70.556401398
 20
28.1831721046
 11
-70.556401398
 21
27.9964952776
  0
LINE
  5
281
100
AcDbEntity
  8
DRAFT
100
AcDbLine
 62
7
  6
CONTINUOUS
 10
-70.556401398
 20
-52.0035047224
 11
-70.556401398
 21
-51.8168278954
  0
LINE
  5
282
100
AcDbEntity
  8
DRAFT
100
AcDbLine
 62
7
  6
CONTINUOUS
 10
-70.556401398
 20
-49.4575395645
 11
-70.556401398
 21
-49.2708627374
  0
LINE
  5
283
100
AcDbEntity
  8
RACCORDO
100
AcDbLine
 62
7
  6
CONTINUOUS
 10
-70.4339172691
 20
32.9664964046
 11
-70.4339172691
 21
31.5715335189
  0
LINE
  5
284
100
AcDbEntity
  8
RACCORDO
100
AcDbLine
 62
7
  6
CONTINUOUS
 10
-70.4339172691
 20
27.1540990212
 11
-70.4339172691
 21
25.7591361355
  0
LINE
  5
285
100
AcDbEntity
  8
RACCORDO
100
AcDbLine
 62
7
  6
CONTINUOUS
 10
-70.4339172691
 20
-47.0335035954
 11
-70.4339172691
 21
-48.4284664811
  0
LINE
  5
286
100
AcDbEntity
  8
RACCORDO
100
AcDbLine
 62
7
  6
CONTINUOUS
 10
-70.4339172691
 20
-52.8459009788
 11
-70.4339172691
 21
-54.2408638645
  0
LINE
  5
287
100
AcDbEntity
  8
RACCORDO
100
AcDbLine
 62
7
  6
CONTINUOUS
 10
-68.828840181
 20
-54.2408638645
 11
-68.828840181
 21
-52.8459009788
  0
LINE
  5
288
100
AcDbEntity
  8
RACCORDO
100
AcDbLine
 62
7
  6
CONTINUOUS
 10
-68.828840181
 20
-48.4284664811
 11
-68.828840181
 21
-47.0335035954
  0
LINE
  5
289
100
AcDbEntity
  8
RACCORDO
100
AcDbLine
 62
7
  6
CONTINUOUS
 10
-68.828840181
 20
25.7591361355
 11
-68.828840181
 21
27.1540990212
  0
LINE
  5
28A
100
AcDbEntity
  8
RACCORDO
100
AcDbLine
 62
7
  6
CONTINUOUS
 10
-68.828840181
 20
31.5715335189
 11
-68.828840181
 21
32.9664964046
  0
LWPOLYLINE
  5
28B
100
AcDbEntity
  8
RACCORDO
100
AcDbPolyline
 62
7
  6
CONTINUOUS
 90
22
 70
0
 10
-68.1313787251
 20
46.1128924225
 10
-68.1299872521
 20
46.1501726424
 10
-68.1258126771
 20
46.1872949977
 10
-68.1188669878
 20
46.2240510981
 10
-68.1091631457
 20
46.2602810076
 10
-68.0967521062
 20
46.2957284718
 10
-68.0817581422
 20
46.3300545055
 10
-68.0643465452
 20
46.3629701206
 10
-68.0445889459
 20
46.3944162339
 10
-68.0224792447
 20
46.4243989183
 10
-67.9980183129
 20
46.4528454467
 10
-67.9714079017
 20
46.4794558579
 10
-67.9429613733
 20
46.5039167897
 10
-67.9129786889
 20
46.5260264909
 10
-67.8815325756
 20
46.5457840902
 10
-67.8486169605
 20
46.5631956872
 10
-67.8142909268
 20
46.5781896512
 10
-67.7788434626
 20
46.5906006907
 10
-67.7426135531
 20
46.6003045328
 10
-67.7058574527
 20
46.6072502221
 10
-67.6687350974
 20
46.6114247971
 10
-67.6314548775
 20
46.6128162701
  0
LINE
  5
28C
100
AcDbEntity
  8
RACCORDO
100
AcDbLine
 62
7
  6
CONTINUOUS
 10
-70.5085935145
 20
30.5751886007
 11
-70.4916539531
 21
30.8175505821
  0
LINE
  5
28D
100
AcDbEntity
  8
RACCORDO
100
AcDbLine
 62
7
  6
CONTINUOUS
 10
-68.7541639357
 20
28.1504439394
 11
-68.771103497
 21
27.908081958
  0
LWPOLYLINE
  5
28E
100
AcDbEntity
  8
RACCORDO
100
AcDbPolyline
 62
7
  6
CONTINUOUS
 90
3
 70
0
 10
-70.4916539531
 20
30.8175505821
 10
-70.4652806963
 20
31.1713341859
 10
-70.4621589965
 20
31.2119615065
  0
LINE
  5
28F
100
AcDbEntity
  8
RACCORDO
100
AcDbLine
 62
7
  6
CONTINUOUS
 10
-68.771103497
 20
27.908081958
 11
-68.7974767538
 21
27.5542983542
  0
LINE
  5
290
100
AcDbEntity
  8
RACCORDO
100
AcDbLine
 62
7
  6
CONTINUOUS
 10
-68.7974767538
 20
27.5542983542
 11
-68.828840181
 21
27.1540990212
  0
LINE
  5
291
100
AcDbEntity
  8
DRAFT
100
AcDbLine
 62
7
  6
CONTINUOUS
 10
-46.9813787251
 20
26.8128162701
 11
-47.1093617122
 21
26.684833283
  0
LINE
  5
292
100
AcDbEntity
  8
DRAFT
100
AcDbLine
 62
7
  6
CONTINUOUS
 10
-46.2813787251
 20
27.5128162701
 11
-46.15218266
 21
27.6420123351
  0
LINE
  5
293
100
AcDbEntity
  8
0
100
AcDbLine
 62
7
  6
CONTINUOUS
 10
-55.8813787251
 20
-53.5871837299
 11
-53.3813787251
 21
-53.5871837299
  0
LINE
  5
294
100
AcDbEntity
  8
0
100
AcDbLine
 62
7
  6
CONTINUOUS
 10
-4.8813787251
 20
-53.5871837299
 11
-2.3813787251
 21
-53.5871837299
  0
LINE
  5
295
100
AcDbEntity
  8
DRAFT
100
AcDbLine
 62
7
  6
CONTINUOUS
 10
-9.6313787251
 20
-51.2121837299
 11
-2.6313787251
 21
-51.2121837299
  0
LINE
  5
296
100
AcDbEntity
  8
DRAFT
100
AcDbLine
 62
7
  6
CONTINUOUS
 10
-48.6313787251
 20
-51.2121837299
 11
-55.6313787251
 21
-51.2121837299
  0
LINE
  5
297
100
AcDbEntity
  8
DRAFT
100
AcDbLine
 62
7
  6
CONTINUOUS
 10
-31.1313787251
 20
-50.0291683077
 11
-27.1313787251
 21
-50.0291683077
  0
LINE
  5
298
100
AcDbEntity
  8
DRAFT
100
AcDbLine
 62
7
  6
CONTINUOUS
 10
1.5686212749
 20
-49.9121837299
 11
-2.6313787251
 21
-49.9121837299
  0
LINE
  5
299
100
AcDbEntity
  8
DRAFT
100
AcDbLine
 62
7
  6
CONTINUOUS
 10
-9.6313787251
 20
-49.9121837299
 11
-26.8382917022
 21
-49.9121837299
  0
LINE
  5
29A
100
AcDbEntity
  8
DRAFT
100
AcDbLine
 62
7
  6
CONTINUOUS
 10
-31.4244657479
 20
-49.9121837299
 11
-48.6313787251
 21
-49.9121837299
  0
LINE
  5
29B
100
AcDbEntity
  8
DRAFT
100
AcDbLine
 62
7
  6
CONTINUOUS
 10
-55.6313787251
 20
-49.9121837299
 11
-59.8313787251
 21
-49.9121837299
  0
LINE
  5
29C
100
AcDbEntity
  8
DRAFT
100
AcDbLine
 62
7
  6
CONTINUOUS
 10
-54.4223981276
 20
-46.1461643274
 11
-54.3813787251
 21
-46.1871837299
  0
LINE
  5
29D
100
AcDbEntity
  8
DRAFT
100
AcDbLine
 62
7
  6
CONTINUOUS
 10
-48.6313787251
 20
-51.2121837299
 11
-48.5298140345
 21
-51.3137484205
  0
LINE
  5
29E
100
AcDbEntity
  8
DRAFT
100
AcDbLine
 62
7
  6
CONTINUOUS
 10
-48.6313787251
 20
-49.9121837299
 11
-48.5298140345
 21
-50.0137484205
  0
LINE
  5
29F
100
AcDbEntity
  8
DRAFT
100
AcDbLine
 62
7
  6
CONTINUOUS
 10
-55.6313787251
 20
-40.2871837299
 11
-55.7178466608
 21
-40.2007157942
  0
LINE
  5
2A0
100
AcDbEntity
  8
RACCORDO
100
AcDbLine
 62
7
  6
CONTINUOUS
 10
-49.9197515802
 20
-65.0926765142
 11
-49.8873831895
 21
-65.1574330257
  0
LINE
  5
2A1
100
AcDbEntity
  8
RACCORDO
100
AcDbLine
 62
7
  6
CONTINUOUS
 10
-70.4339172691
 20
27.1540990212
 11
-70.4747310191
 21
27.678679477
  0
LINE
  5
2A2
100
AcDbEntity
  8
RACCORDO
100
AcDbLine
 62
7
  6
CONTINUOUS
 10
-68.828840181
 20
31.5715335189
 11
-68.788026431
 21
31.0469530631
  0
LINE
  5
2A3
100
AcDbEntity
  8
RACCORDO
100
AcDbLine
 62
7
  6
CONTINUOUS
 10
-70.4747310191
 20
27.678679477
 11
-70.4976128252
 21
27.9915334519
  0
LINE
  5
2A4
100
AcDbEntity
  8
RACCORDO
100
AcDbLine
 62
7
  6
CONTINUOUS
 10
-68.788026431
 20
31.0469530631
 11
-68.7651446249
 21
30.7340990883
  0
LINE
  5
2A5
100
AcDbEntity
  8
RACCORDO
100
AcDbLine
 62
7
  6
CONTINUOUS
 10
-70.4976128252
 20
27.9915334519
 11
-70.5085935145
 21
28.1504439394
  0
LINE
  5
2A6
100
AcDbEntity
  8
RACCORDO
100
AcDbLine
 62
7
  6
CONTINUOUS
 10
-68.7651446249
 20
30.7340990883
 11
-68.7541639357
 21
30.5751886007
  0
LINE
  5
2A7
100
AcDbEntity
  8
DRAFT
100
AcDbLine
 62
7
  6
CONTINUOUS
 10
-68.7063560521
 20
30.7291372626
 11
-68.7063560521
 21
30.5424604355
  0
LINE
  5
2A8
100
AcDbEntity
  8
DRAFT
100
AcDbLine
 62
7
  6
CONTINUOUS
 10
-68.7063560521
 20
28.1831721046
 11
-68.7063560521
 21
27.9964952776
  0
LINE
  5
2A9
100
AcDbEntity
  8
DRAFT
100
AcDbLine
 62
7
  6
CONTINUOUS
 10
-68.7063560521
 20
-52.0035047224
 11
-68.7063560521
 21
-51.8168278954
  0
LINE
  5
2AA
100
AcDbEntity
  8
DRAFT
100
AcDbLine
 62
7
  6
CONTINUOUS
 10
-68.7063560521
 20
-49.4575395645
 11
-68.7063560521
 21
-49.2708627374
  0
LINE
  5
2AB
100
AcDbEntity
  8
RACCORDO
100
AcDbLine
 62
7
  6
CONTINUOUS
 10
-68.5313787251
 20
-54.5383253205
 11
-68.5313787251
 21
-51.8670211176
  0
LINE
  5
2AC
100
AcDbEntity
  8
RACCORDO
100
AcDbLine
 62
7
  6
CONTINUOUS
 10
-68.5313787251
 20
-49.4073463423
 11
-68.5313787251
 21
-46.7360421394
  0
LINE
  5
2AD
100
AcDbEntity
  8
RACCORDO
100
AcDbLine
 62
7
  6
CONTINUOUS
 10
-68.5313787251
 20
25.4616746795
 11
-68.5313787251
 21
28.1329788824
  0
LINE
  5
2AE
100
AcDbEntity
  8
RACCORDO
100
AcDbLine
 62
7
  6
CONTINUOUS
 10
-68.5313787251
 20
30.5926536577
 11
-68.5313787251
 21
33.2639578606
  0
LINE
  5
2AF
100
AcDbEntity
  8
RACCORDO
100
AcDbLine
 62
7
  6
CONTINUOUS
 10
-68.1313787251
 20
46.1128924225
 11
-68.1313787251
 21
35.7628162701
  0
LINE
  5
2B0
100
AcDbEntity
  8
DRAFT
100
AcDbLine
 62
7
  6
CONTINUOUS
 10
-68.1313787251
 20
22.9628162701
 11
-68.1313787251
 21
-44.2371837299
  0
LINE
  5
2B1
100
AcDbEntity
  8
RACCORDO
100
AcDbLine
 62
7
  6
CONTINUOUS
 10
-68.1313787251
 20
-57.0371837299
 11
-68.1313787251
 21
-67.3872598824
  0
LINE
  5
2B2
100
AcDbEntity
  8
DRAFT
100
AcDbLine
 62
7
  6
CONTINUOUS
 10
-68.1191601796
 20
-6.8871837299
 11
-68.1191601796
 21
-14.3871837299
  0
LINE
  5
2B3
100
AcDbEntity
  8
RACCORDO
100
AcDbLine
 62
7
  6
CONTINUOUS
 10
-68.1017051147
 20
46.0832188121
 11
-68.1017051147
 21
35.733073548
  0
LINE
  5
2B4
100
AcDbEntity
  8
DRAFT
100
AcDbLine
 62
7
  6
CONTINUOUS
 10
-68.1017051147
 20
22.9925589921
 11
-68.1017051147
 21
-6.8871837299
  0
LINE
  5
2B5
100
AcDbEntity
  8
DRAFT
100
AcDbLine
 62
7
  6
CONTINUOUS
 10
-68.1017051147
 20
-14.3871837299
 11
-68.1017051147
 21
-44.266926452
  0
LINE
  5
2B6
100
AcDbEntity
  8
RACCORDO
100
AcDbLine
 62
7
  6
CONTINUOUS
 10
-68.1017051147
 20
-57.0074410079
 11
-68.1017051147
 21
-67.357586272
  0
LINE
  5
2B7
100
AcDbEntity
  8
DRAFT
100
AcDbLine
 62
7
  6
CONTINUOUS
 10
-67.0313787251
 20
-14.3871837299
 11
-67.0313787251
 21
-67.8749651845
  0
LINE
  5
2B8
100
AcDbEntity
  8
DRAFT
100
AcDbLine
 62
7
  6
CONTINUOUS
 10
-67.0313787251
 20
-6.8871837299
 11
-67.0313787251
 21
46.6005977246
  0
LINE
  5
2B9
100
AcDbEntity
  8
DRAFT
100
AcDbLine
 62
7
  6
CONTINUOUS
 10
-66.8421899771
 20
-61.597994982
 11
-66.8421899771
 21
-59.6763724779
  0
LINE
  5
2BA
100
AcDbEntity
  8
DRAFT
100
AcDbLine
 62
7
  6
CONTINUOUS
 10
-66.8421899771
 20
38.402005018
 11
-66.8421899771
 21
40.3236275221
  0
LINE
  5
2BB
100
AcDbEntity
  8
DRAFT
100
AcDbLine
 62
7
  6
CONTINUOUS
 10
-66.6313787251
 20
40.1128162701
 11
-66.6313787251
 21
38.6128162701
  0
LINE
  5
2BC
100
AcDbEntity
  8
DRAFT
100
AcDbLine
 62
7
  6
CONTINUOUS
 10
-66.6313787251
 20
-59.8871837299
 11
-66.6313787251
 21
-61.3871837299
  0
LINE
  5
2BD
100
AcDbEntity
  8
DRAFT
100
AcDbLine
 62
7
  6
CONTINUOUS
 10
-64.8813787251
 20
-59.859075563
 11
-64.8813787251
 21
38.5847081031
  0
LINE
  5
2BE
100
AcDbEntity
  8
DRAFT
100
AcDbLine
 62
7
  6
CONTINUOUS
 10
-64.8813787251
 20
-61.4152918969
 11
-64.8813787251
 21
-65.6371837299
  0
LINE
  5
2BF
100
AcDbEntity
  8
DRAFT
100
AcDbLine
 62
7
  6
CONTINUOUS
 10
-64.8813787251
 20
40.140924437
 11
-64.8813787251
 21
44.9750348155
  0
LINE
  5
2C0
100
AcDbEntity
  8
RACCORDO
100
AcDbLine
 62
7
  6
CONTINUOUS
 10
-70.5085935145
 20
-49.4248113993
 11
-70.4916539531
 21
-49.1824494179
  0
LINE
  5
2C1
100
AcDbEntity
  8
RACCORDO
100
AcDbLine
 62
7
  6
CONTINUOUS
 10
-68.7541639357
 20
-51.8495560606
 11
-68.771103497
 21
-52.091918042
  0
LINE
  5
2C2
100
AcDbEntity
  8
RACCORDO
100
AcDbLine
 62
7
  6
CONTINUOUS
 10
-70.4916539531
 20
-49.1824494179
 11
-70.4652806963
 21
-48.8286658141
  0
LINE
  5
2C3
100
AcDbEntity
  8
RACCORDO
100
AcDbLine
 62
7
  6
CONTINUOUS
 10
-68.771103497
 20
-52.091918042
 11
-68.7974767538
 21
-52.4457016458
  0
LINE
  5
2C4
100
AcDbEntity
  8
RACCORDO
100
AcDbLine
 62
7
  6
CONTINUOUS
 10
-70.4652806963
 20
-48.8286658141
 11
-70.4339172691
 21
-48.4284664811
  0
LINE
  5
2C5
100
AcDbEntity
  8
RACCORDO
100
AcDbLine
 62
7
  6
CONTINUOUS
 10
-68.7974767538
 20
-52.4457016458
 11
-68.828840181
 21
-52.8459009788
  0
LINE
  5
2C6
100
AcDbEntity
  8
DRAFT
100
AcDbLine
 62
7
  6
CONTINUOUS
 10
-60.1256648027
 20
6.7185301924
 11
-60.1154292227
 21
6.7534509619
  0
LINE
  5
2C7
100
AcDbEntity
  8
DRAFT
100
AcDbLine
 62
7
  6
CONTINUOUS
 10
-61.9964685952
 20
7.4953558853
 11
-61.937410467
 21
7.6135081402
  0
LINE
  5
2C8
100
AcDbEntity
  8
DRAFT
100
AcDbLine
 62
7
  6
CONTINUOUS
 10
-46.2813787251
 20
22.5128162701
 11
-46.15218266
 21
22.6420123351
  0
LINE
  5
2C9
100
AcDbEntity
  8
DRAFT
100
AcDbLine
 62
7
  6
CONTINUOUS
 10
-46.9813787251
 20
21.8128162701
 11
-47.021134864
 21
21.7730601311
  0
LINE
  5
2CA
100
AcDbEntity
  8
DRAFT
100
AcDbLine
 62
7
  6
CONTINUOUS
 10
-61.9580674524
 20
4.9108127323
 11
-60.1154292227
 21
6.7534509619
  0
LINE
  5
2CB
100
AcDbEntity
  8
DRAFT
100
AcDbLine
 62
7
  6
CONTINUOUS
 10
-61.9406123874
 20
4.9035826077
 11
-60.1256648027
 21
6.7185301924
  0
LINE
  5
2CC
100
AcDbEntity
  8
DRAFT
100
AcDbLine
 62
7
  6
CONTINUOUS
 10
-54.4223981276
 20
-49.3371837299
 11
-49.8403593225
 21
-49.3371837299
  0
LINE
  5
2CD
100
AcDbEntity
  8
DRAFT
100
AcDbLine
 62
7
  6
CONTINUOUS
 10
-3.8403593225
 20
-49.3371837299
 11
-8.4223981276
 21
-49.3371837299
  0
LINE
  5
2CE
100
AcDbEntity
  8
DRAFT
100
AcDbLine
 62
7
  6
CONTINUOUS
 10
7.6059233182
 20
-48.9371837299
 11
7.3564027295
 21
-48.9371837299
  0
LINE
  5
2CF
100
AcDbEntity
  8
0
100
AcDbLine
 62
7
  6
CONTINUOUS
 10
7.6059233182
 20
-48.9371837299
 11
13.2185730378
 21
-48.9371837299
  0
LINE
  5
2D0
100
AcDbEntity
  8
DRAFT
100
AcDbLine
 62
7
  6
CONTINUOUS
 10
-31.1313787251
 20
-48.0398426149
 11
-27.1313787251
 21
-48.0398426149
  0
LINE
  5
2D1
100
AcDbEntity
  8
DRAFT
100
AcDbLine
 62
7
  6
CONTINUOUS
 10
-54.3813787251
 20
-46.8871837299
 11
-49.8813787251
 21
-46.8871837299
  0
LINE
  5
2D2
100
AcDbEntity
  8
DRAFT
100
AcDbLine
 62
7
  6
CONTINUOUS
 10
-3.8813787251
 20
-46.8871837299
 11
-8.3813787251
 21
-46.8871837299
  0
LINE
  5
2D3
100
AcDbEntity
  8
RACCORDO
100
AcDbLine
 62
7
  6
CONTINUOUS
 10
-69.1276985905
 20
-46.7346451859
 11
-70.1350588596
 21
-46.7346451859
  0
LINE
  5
2D4
100
AcDbEntity
  8
RACCORDO
100
AcDbLine
 62
7
  6
CONTINUOUS
 10
-27.2300057016
 20
-46.4865717669
 11
-31.0327517485
 21
-46.4865717669
  0
LINE
  5
2D5
100
AcDbEntity
  8
RACCORDO
100
AcDbLine
 62
7
  6
CONTINUOUS
 10
-68.8302371345
 20
-46.4371837299
 11
-70.4325203156
 21
-46.4371837299
  0
LINE
  5
2D6
100
AcDbEntity
  8
RACCORDO
100
AcDbLine
 62
7
  6
CONTINUOUS
 10
-31.2252268082
 20
-46.2940967071
 11
-27.0375306419
 21
-46.2940967071
  0
LINE
  5
2D7
100
AcDbEntity
  8
DRAFT
100
AcDbLine
 62
7
  6
CONTINUOUS
 10
-54.3813787251
 20
-46.1871837299
 11
-49.8813787251
 21
-46.1871837299
  0
LINE
  5
2D8
100
AcDbEntity
  8
DRAFT
100
AcDbLine
 62
7
  6
CONTINUOUS
 10
-3.8813787251
 20
-46.1871837299
 11
-8.3813787251
 21
-46.1871837299
  0
LINE
  5
2D9
100
AcDbEntity
  8
DRAFT
100
AcDbLine
 62
7
  6
CONTINUOUS
 10
-54.4223981276
 20
-46.1461643274
 11
-49.8403593225
 21
-46.1461643274
  0
LINE
  5
2DA
100
AcDbEntity
  8
DRAFT
100
AcDbLine
 62
7
  6
CONTINUOUS
 10
-3.8403593225
 20
-46.1461643274
 11
-8.4223981276
 21
-46.1461643274
  0
LINE
  5
2DB
100
AcDbEntity
  8
0
100
AcDbLine
 62
7
  6
CONTINUOUS
 10
13.2185729921
 20
-44.9371837299
 11
7.6059233182
 21
-44.9371837299
  0
LINE
  5
2DC
100
AcDbEntity
  8
DRAFT
100
AcDbLine
 62
7
  6
CONTINUOUS
 10
-31.4244657479
 20
-49.9121837299
 11
-31.1313787251
 21
-50.0291683077
  0
LINE
  5
2DD
100
AcDbEntity
  8
DRAFT
100
AcDbLine
 62
7
  6
CONTINUOUS
 10
-31.2319906881
 20
-47.9996837299
 11
-31.1313787251
 21
-48.0398426149
  0
LINE
  5
2DE
100
AcDbEntity
  8
DRAFT
100
AcDbLine
 62
7
  6
CONTINUOUS
 10
-55.6313787251
 20
-38.9871837299
 11
-55.7178466608
 21
-38.9007157942
  0
LINE
  5
2DF
100
AcDbEntity
  8
RACCORDO
100
AcDbLine
 62
253
  6
CONTINUOUS
 10
-27.0375306419
 20
-66.8802707528
 11
-27.2300057016
 21
-66.687795693
  0
LINE
  5
2E0
100
AcDbEntity
  8
DRAFT
100
AcDbLine
 62
7
  6
CONTINUOUS
 10
-49.8813787251
 20
-44.0121837299
 11
-49.8403593225
 21
-44.0532031325
  0
LINE
  5
2E1
100
AcDbEntity
  8
RACCORDO
100
AcDbLine
 62
253
  6
CONTINUOUS
 10
-26.8382917022
 20
-66.6810318131
 11
-27.030766762
 21
-66.4885567534
  0
LINE
  5
2E2
100
AcDbEntity
  8
RACCORDO
100
AcDbLine
 62
7
  6
CONTINUOUS
 10
-54.3482564078
 20
-48.0711866694
 11
-54.3753742606
 21
-48.0169344342
  0
LINE
  5
2E3
100
AcDbEntity
  8
DRAFT
100
AcDbLine
 62
7
  6
CONTINUOUS
 10
-59.8813787251
 20
-65.6371837299
 11
-59.6313787251
 21
-67.8871837299
  0
LINE
  5
2E4
100
AcDbEntity
  8
DRAFT
100
AcDbLine
 62
7
  6
CONTINUOUS
 10
-63.8813787251
 20
40.140924437
 11
-63.8813787251
 21
38.5847081031
  0
LINE
  5
2E5
100
AcDbEntity
  8
DRAFT
100
AcDbLine
 62
7
  6
CONTINUOUS
 10
-63.8813787251
 20
-59.859075563
 11
-63.8813787251
 21
-61.4152918969
  0
LINE
  5
2E6
100
AcDbEntity
  8
DRAFT
100
AcDbLine
 62
7
  6
CONTINUOUS
 10
-63.6033111445
 20
-65.6371837299
 11
-63.6033111445
 21
44.9523432311
  0
LINE
  5
2E7
100
AcDbEntity
  8
DRAFT
100
AcDbLine
 62
253
  6
CONTINUOUS
 10
-63.5253479871
 20
44.9560821412
 11
-63.5253479871
 21
-65.6371837299
  0
LINE
  5
2E8
100
AcDbEntity
  8
DRAFT
100
AcDbLine
 62
253
  6
CONTINUOUS
 10
-63.337409463
 20
44.9560821412
 11
-63.337409463
 21
-65.6371837299
  0
LINE
  5
2E9
100
AcDbEntity
  8
DRAFT
100
AcDbLine
 62
7
  6
CONTINUOUS
 10
-63.2594463056
 20
-65.6371837299
 11
-63.2594463056
 21
44.9523432311
  0
LINE
  5
2EA
100
AcDbEntity
  8
DRAFT
100
AcDbLine
 62
7
  6
CONTINUOUS
 10
-62.9033111445
 20
-65.6371837299
 11
-62.9033111445
 21
44.9523432311
  0
LINE
  5
2EB
100
AcDbEntity
  8
DRAFT
100
AcDbLine
 62
253
  6
CONTINUOUS
 10
-62.8253479871
 20
44.9560821412
 11
-62.8253479871
 21
-65.6371837299
  0
LINE
  5
2EC
100
AcDbEntity
  8
DRAFT
100
AcDbLine
 62
253
  6
CONTINUOUS
 10
-62.637409463
 20
44.9560821412
 11
-62.637409463
 21
-65.6371837299
  0
LINE
  5
2ED
100
AcDbEntity
  8
DRAFT
100
AcDbLine
 62
7
  6
CONTINUOUS
 10
-62.5594463056
 20
-65.6371837299
 11
-62.5594463056
 21
44.9523432311
  0
LINE
  5
2EE
100
AcDbEntity
  8
DRAFT
100
AcDbLine
 62
7
  6
CONTINUOUS
 10
-62.0209056861
 20
44.9523432311
 11
-62.0209056861
 21
-20.126710691
  0
LINE
  5
2EF
100
AcDbEntity
  8
DRAFT
100
AcDbLine
 62
7
  6
CONTINUOUS
 10
-61.9964685952
 20
6.8302766548
 11
-61.9964685952
 21
7.4953558853
  0
LINE
  5
2F0
100
AcDbEntity
  8
DRAFT
100
AcDbLine
 62
7
  6
CONTINUOUS
 10
-61.9877410627
 20
42.5128162701
 11
-61.9877410627
 21
41.8128162701
  0
LINE
  5
2F1
100
AcDbEntity
  8
DRAFT
100
AcDbLine
 62
7
  6
CONTINUOUS
 10
-61.9877410627
 20
11.8128162701
 11
-61.9877410627
 21
37.5128162701
  0
LINE
  5
2F2
100
AcDbEntity
  8
DRAFT
100
AcDbLine
 62
7
  6
CONTINUOUS
 10
-61.9580674524
 20
4.9108127323
 11
-61.9580674524
 21
6.7534509619
  0
LINE
  5
2F3
100
AcDbEntity
  8
DRAFT
100
AcDbLine
 62
7
  6
CONTINUOUS
 10
-61.9406123874
 20
-20.0464173923
 11
-61.9406123874
 21
4.9035826077
  0
LINE
  5
2F4
100
AcDbEntity
  8
DRAFT
100
AcDbLine
 62
7
  6
CONTINUOUS
 10
-61.937410467
 20
44.868848012
 11
-61.937410467
 21
42.6135081402
  0
LINE
  5
2F5
100
AcDbEntity
  8
DRAFT
100
AcDbLine
 62
7
  6
CONTINUOUS
 10
-61.937410467
 20
41.7121243999
 11
-61.937410467
 21
37.6135081402
  0
LINE
  5
2F6
100
AcDbEntity
  8
DRAFT
100
AcDbLine
 62
7
  6
CONTINUOUS
 10
-61.937410467
 20
11.7121243999
 11
-61.937410467
 21
7.6135081402
  0
LINE
  5
2F7
100
AcDbEntity
  8
ASSI
100
AcDbLine
 62
7
  6
CONTINUOUS
 10
-61.8813787251
 20
44.9128162701
 11
-61.8813787251
 21
7.8128162701
  0
LINE
  5
2F8
100
AcDbEntity
  8
0
100
AcDbLine
 62
7
  6
CONTINUOUS
 10
-61.8313787251
 20
1.6128162701
 11
-61.8313787251
 21
-19.8871837299
  0
LINE
  5
2F9
100
AcDbEntity
  8
0
100
AcDbLine
 62
7
  6
CONTINUOUS
 10
-61.3813787251
 20
-61.6371837299
 11
-61.3813787251
 21
-58.5871837299
  0
LINE
  5
2FA
100
AcDbEntity
  8
0
100
AcDbLine
 62
7
  6
CONTINUOUS
 10
-61.3813787251
 20
-54.5871837299
 11
-61.3813787251
 21
-35.6121837299
  0
LINE
  5
2FB
100
AcDbEntity
  8
DRAFT
100
AcDbLine
 62
7
  6
CONTINUOUS
 10
-61.3813787251
 20
-31.6121837299
 11
-61.3813787251
 21
-20.126710691
  0
LINE
  5
2FC
100
AcDbEntity
  8
RACCORDO
100
AcDbLine
 62
7
  6
CONTINUOUS
 10
-60.3313787251
 20
31.6628162701
 11
-60.3313787251
 21
35.3628162701
  0
LINE
  5
2FD
100
AcDbEntity
  8
DRAFT
100
AcDbLine
 62
7
  6
CONTINUOUS
 10
-60.1313787251
 20
-19.8871837299
 11
-60.1313787251
 21
-20.0464173923
  0
LINE
  5
2FE
100
AcDbEntity
  8
RACCORDO
100
AcDbLine
 62
7
  6
CONTINUOUS
 10
-60.1313787251
 20
3.3128162701
 11
-60.1313787251
 21
3.8139578606
  0
LINE
  5
2FF
100
AcDbEntity
  8
RACCORDO
100
AcDbLine
 62
253
  6
CONTINUOUS
 10
-60.1271732659
 20
3.3170217292
 11
-60.1271732659
 21
3.8097524015
  0
LINE
  5
300
100
AcDbEntity
  8
DRAFT
100
AcDbLine
 62
7
  6
CONTINUOUS
 10
-60.1260818766
 20
-19.8871837299
 11
-60.1260818766
 21
-20.0411205438
  0
LINE
  5
301
100
AcDbEntity
  8
RACCORDO
100
AcDbLine
 62
253
  6
CONTINUOUS
 10
-59.8474129089
 20
3.5967820863
 11
-59.8474129089
 21
3.8097524015
  0
LINE
  5
302
100
AcDbEntity
  8
DRAFT
100
AcDbLine
 62
7
  6
CONTINUOUS
 10
-59.8313787251
 20
-26.9371837299
 11
-59.8313787251
 21
-31.6121837299
  0
LINE
  5
303
100
AcDbEntity
  8
DRAFT
100
AcDbLine
 62
7
  6
CONTINUOUS
 10
-59.8313787251
 20
-35.6121837299
 11
-59.8313787251
 21
-40.2871837299
  0
LINE
  5
304
100
AcDbEntity
  8
DRAFT
100
AcDbLine
 62
7
  6
CONTINUOUS
 10
-59.8313787251
 20
-49.9121837299
 11
-59.8313787251
 21
-54.5871837299
  0
LINE
  5
305
100
AcDbEntity
  8
DRAFT
100
AcDbLine
 62
7
  6
CONTINUOUS
 10
-59.8313787251
 20
-58.5871837299
 11
-59.8313787251
 21
-61.6371837299
  0
LINE
  5
306
100
AcDbEntity
  8
RACCORDO
100
AcDbLine
 62
7
  6
CONTINUOUS
 10
-59.8313787251
 20
15.1628162701
 11
-59.8313787251
 21
19.2628162701
  0
LINE
  5
307
100
AcDbEntity
  8
DRAFT
100
AcDbLine
 62
7
  6
CONTINUOUS
 10
-59.7859817247
 20
-58.5871837299
 11
-59.7859817247
 21
-54.5871837299
  0
LINE
  5
308
100
AcDbEntity
  8
DRAFT
100
AcDbLine
 62
7
  6
CONTINUOUS
 10
-59.7859817247
 20
-35.6121837299
 11
-59.7859817247
 21
-31.6121837299
  0
LINE
  5
309
100
AcDbEntity
  8
DRAFT
100
AcDbLine
 62
7
  6
CONTINUOUS
 10
-59.7859817247
 20
-61.6371837299
 11
-59.7859817247
 21
-63.2167867296
  0
LINE
  5
30A
100
AcDbEntity
  8
DRAFT
100
AcDbLine
 62
7
  6
CONTINUOUS
 10
-59.7554711304
 20
-63.1862761353
 11
-59.7554711304
 21
-49.9880913246
  0
LINE
  5
30B
100
AcDbEntity
  8
DRAFT
100
AcDbLine
 62
7
  6
CONTINUOUS
 10
-59.7554711304
 20
-40.2112761353
 11
-59.7554711304
 21
-27.0130913246
  0
LINE
  5
30C
100
AcDbEntity
  8
RACCORDO
100
AcDbLine
 62
7
  6
CONTINUOUS
 10
-59.1313787251
 20
22.9628162701
 11
-59.1313787251
 21
28.1628162701
  0
LWPOLYLINE
  5
30D
100
AcDbEntity
  8
RACCORDO
100
AcDbPolyline
 62
253
  6
CONTINUOUS
 90
3
 70
0
 10
-59.8474129089
 20
3.8097524015
 10
-59.8467721637
 20
3.8392543674
 10
-59.8460906454
 20
3.8974727346
  0
LWPOLYLINE
  5
30E
100
AcDbEntity
  8
RACCORDO
100
AcDbPolyline
 62
253
  6
CONTINUOUS
 90
3
 70
0
 10
-59.8460906454
 20
3.8974727346
 10
-59.8453491439
 20
3.9254006366
 10
-59.8432145781
 20
3.9775253243
  0
LWPOLYLINE
  5
30F
100
AcDbEntity
  8
RACCORDO
100
AcDbPolyline
 62
253
  6
CONTINUOUS
 90
3
 70
0
 10
-59.8432145781
 20
3.9775253243
 10
-59.8420185536
 20
4.0013046747
 10
-59.8390361076
 20
4.0429126744
  0
LWPOLYLINE
  5
310
100
AcDbEntity
  8
RACCORDO
100
AcDbPolyline
 62
253
  6
CONTINUOUS
 90
19
 70
0
 10
-60.1271732659
 20
3.8097524015
 10
-60.125850075
 20
3.835674742
 10
-60.122284294
 20
3.8614016999
 10
-60.116502799
 20
3.8867393655
 10
-60.108549165
 20
3.9114967671
 10
-60.098483341
 20
3.9354872982
 10
-60.0863812019
 20
3.9585301255
 10
-60.0723339774
 20
3.9804515574
 10
-60.0564475395
 20
4.0010863852
 10
-60.0388416023
 20
4.02027911
 10
-60.0196488378
 20
4.0378850866
 10
-59.999013921
 20
4.0537715867
 10
-59.9770924214
 20
4.0678188395
 10
-59.954049592
 20
4.079920962
 10
-59.9300590944
 20
4.0899867572
 10
-59.9053017302
 20
4.0979403688
 10
-59.8799640932
 20
4.1037218503
 10
-59.8542371656
 20
4.107287623
 10
-59.8283148565
 20
4.1086108109
  0
LWPOLYLINE
  5
311
100
AcDbEntity
  8
RACCORDO
100
AcDbPolyline
 62
253
  6
CONTINUOUS
 90
7
 70
0
 10
-59.8390361076
 20
4.0429126744
 10
-59.8375397512
 20
4.0604736125
 10
-59.8356425815
 20
4.0755394008
 10
-59.8339204793
 20
4.0879191952
 10
-59.8324236304
 20
4.0975852376
 10
-59.8306402659
 20
4.10451472
 10
-59.8283148565
 20
4.1086108109
  0
LINE
  5
312
100
AcDbEntity
  8
0
100
AcDbLine
 62
7
  6
CONTINUOUS
 10
-61.8313787251
 20
1.6128162701
 11
-56.8313787251
 21
6.6128162701
  0
LINE
  5
313
100
AcDbEntity
  8
0
100
AcDbLine
 62
7
  6
CONTINUOUS
 10
-55.5313787251
 20
7.5128162701
 11
-55.416716736
 21
7.6274782591
  0
LINE
  5
314
100
AcDbEntity
  8
DRAFT
100
AcDbLine
 62
7
  6
CONTINUOUS
 10
-54.4223981276
 20
-44.0532031325
 11
-49.8403593225
 21
-44.0532031325
  0
LINE
  5
315
100
AcDbEntity
  8
DRAFT
100
AcDbLine
 62
7
  6
CONTINUOUS
 10
-3.8403593225
 20
-44.0532031325
 11
-8.4223981276
 21
-44.0532031325
  0
LINE
  5
316
100
AcDbEntity
  8
DRAFT
100
AcDbLine
 62
7
  6
CONTINUOUS
 10
-54.3813787251
 20
-44.0121837299
 11
-49.8813787251
 21
-44.0121837299
  0
LINE
  5
317
100
AcDbEntity
  8
DRAFT
100
AcDbLine
 62
7
  6
CONTINUOUS
 10
-3.8813787251
 20
-44.0121837299
 11
-8.3813787251
 21
-44.0121837299
  0
LINE
  5
318
100
AcDbEntity
  8
RACCORDO
100
AcDbLine
 62
7
  6
CONTINUOUS
 10
-27.0375306419
 20
-43.9052707528
 11
-31.2252268082
 21
-43.9052707528
  0
LINE
  5
319
100
AcDbEntity
  8
RACCORDO
100
AcDbLine
 62
7
  6
CONTINUOUS
 10
-31.0327517485
 20
-43.712795693
 11
-27.2300057016
 21
-43.712795693
  0
LINE
  5
31A
100
AcDbEntity
  8
DRAFT
100
AcDbLine
 62
7
  6
CONTINUOUS
 10
-54.3813787251
 20
-43.3121837299
 11
-49.8813787251
 21
-43.3121837299
  0
LINE
  5
31B
100
AcDbEntity
  8
DRAFT
100
AcDbLine
 62
7
  6
CONTINUOUS
 10
-3.8813787251
 20
-43.3121837299
 11
-8.3813787251
 21
-43.3121837299
  0
LINE
  5
31C
100
AcDbEntity
  8
DRAFT
100
AcDbLine
 62
7
  6
CONTINUOUS
 10
-31.1313787251
 20
-42.159524845
 11
-27.1313787251
 21
-42.159524845
  0
LINE
  5
31D
100
AcDbEntity
  8
DRAFT
100
AcDbLine
 62
7
  6
CONTINUOUS
 10
-54.4223981276
 20
-40.8621837299
 11
-49.8403593225
 21
-40.8621837299
  0
LINE
  5
31E
100
AcDbEntity
  8
DRAFT
100
AcDbLine
 62
7
  6
CONTINUOUS
 10
-3.8403593225
 20
-40.8621837299
 11
-8.4223981276
 21
-40.8621837299
  0
LINE
  5
31F
100
AcDbEntity
  8
DRAFT
100
AcDbLine
 62
7
  6
CONTINUOUS
 10
1.5686212749
 20
-40.2871837299
 11
-2.6313787251
 21
-40.2871837299
  0
LINE
  5
320
100
AcDbEntity
  8
DRAFT
100
AcDbLine
 62
7
  6
CONTINUOUS
 10
-9.6313787251
 20
-40.2871837299
 11
-26.8382917022
 21
-40.2871837299
  0
LINE
  5
321
100
AcDbEntity
  8
DRAFT
100
AcDbLine
 62
7
  6
CONTINUOUS
 10
-31.4244657479
 20
-40.2871837299
 11
-48.6313787251
 21
-40.2871837299
  0
LINE
  5
322
100
AcDbEntity
  8
DRAFT
100
AcDbLine
 62
7
  6
CONTINUOUS
 10
-55.6313787251
 20
-40.2871837299
 11
-59.8313787251
 21
-40.2871837299
  0
LINE
  5
323
100
AcDbEntity
  8
DRAFT
100
AcDbLine
 62
7
  6
CONTINUOUS
 10
-31.1313787251
 20
-40.1701991521
 11
-27.1313787251
 21
-40.1701991521
  0
LINE
  5
324
100
AcDbEntity
  8
DRAFT
100
AcDbLine
 62
7
  6
CONTINUOUS
 10
-59.8313787251
 20
-26.9371837299
 11
-59.7554711304
 21
-27.0130913246
  0
LINE
  5
325
100
AcDbEntity
  8
DRAFT
100
AcDbLine
 62
7
  6
CONTINUOUS
 10
-20.4767757254
 20
-63.2167867296
 11
-20.5467492374
 21
-63.1468132175
  0
LINE
  5
326
100
AcDbEntity
  8
DRAFT
100
AcDbLine
 62
7
  6
CONTINUOUS
 10
-20.4767757254
 20
-62.9167867296
 11
-20.5467492374
 21
-62.8468132175
  0
LINE
  5
327
100
AcDbEntity
  8
RACCORDO
100
AcDbLine
 62
7
  6
CONTINUOUS
 10
-49.9197515802
 20
-42.1176765142
 11
-49.8873831895
 21
-42.1824330257
  0
LINE
  5
328
100
AcDbEntity
  8
DRAFT
100
AcDbLine
 62
7
  6
CONTINUOUS
 10
-56.344242298
 20
7.8128162701
 11
-56.344242298
 21
7.625679843
  0
LINE
  5
329
100
AcDbEntity
  8
0
100
AcDbLine
 62
7
  6
CONTINUOUS
 10
-56.2313787251
 20
7.8128162701
 11
-56.2313787251
 21
7.5128162701
  0
LINE
  5
32A
100
AcDbEntity
  8
ASSI
100
AcDbLine
 62
7
  6
CONTINUOUS
 10
-55.8813787251
 20
-30.6121837299
 11
-55.8813787251
 21
-36.6121837299
  0
LINE
  5
32B
100
AcDbEntity
  8
0
100
AcDbLine
 62
7
  6
CONTINUOUS
 10
-55.8813787251
 20
-53.5871837299
 11
-55.8813787251
 21
-59.5871837299
  0
LINE
  5
32C
100
AcDbEntity
  8
DRAFT
100
AcDbLine
 62
7
  6
CONTINUOUS
 10
-55.7178466608
 20
-38.9007157942
 11
-55.7178466608
 21
-40.2007157942
  0
LINE
  5
32D
100
AcDbEntity
  8
DRAFT
100
AcDbLine
 62
7
  6
CONTINUOUS
 10
-55.7178466608
 20
-49.9986516657
 11
-55.7178466608
 21
-51.2986516657
  0
LINE
  5
32E
100
AcDbEntity
  8
DRAFT
100
AcDbLine
 62
7
  6
CONTINUOUS
 10
-55.7178466608
 20
-61.8757157942
 11
-55.7178466608
 21
-63.1757157942
  0
LINE
  5
32F
100
AcDbEntity
  8
DRAFT
100
AcDbLine
 62
7
  6
CONTINUOUS
 10
-55.6767757254
 20
-61.9167867296
 11
-55.6767757254
 21
-63.2167867296
  0
LINE
  5
330
100
AcDbEntity
  8
DRAFT
100
AcDbLine
 62
7
  6
CONTINUOUS
 10
-55.6313787251
 20
-51.2121837299
 11
-55.6313787251
 21
-49.9121837299
  0
LINE
  5
331
100
AcDbEntity
  8
DRAFT
100
AcDbLine
 62
7
  6
CONTINUOUS
 10
-55.6313787251
 20
-40.2871837299
 11
-55.6313787251
 21
-38.9871837299
  0
LINE
  5
332
100
AcDbEntity
  8
DRAFT
100
AcDbLine
 62
7
  6
CONTINUOUS
 10
-55.6313787251
 20
-26.9371837299
 11
-55.6313787251
 21
-28.3238614337
  0
LINE
  5
333
100
AcDbEntity
  8
0
100
AcDbLine
 62
7
  6
CONTINUOUS
 10
-55.5313787251
 20
7.5128162701
 11
-55.5313787251
 21
7.8128162701
  0
LINE
  5
334
100
AcDbEntity
  8
DRAFT
100
AcDbLine
 62
7
  6
CONTINUOUS
 10
-55.416716736
 20
7.8128162701
 11
-55.416716736
 21
7.6274782591
  0
LINE
  5
335
100
AcDbEntity
  8
DRAFT
100
AcDbLine
 62
7
  6
CONTINUOUS
 10
-54.4223981276
 20
-67.0282031325
 11
-54.4223981276
 21
-65.6371837299
  0
LINE
  5
336
100
AcDbEntity
  8
DRAFT
100
AcDbLine
 62
7
  6
CONTINUOUS
 10
-54.4223981276
 20
-49.3371837299
 11
-54.4223981276
 21
-46.1461643274
  0
LINE
  5
337
100
AcDbEntity
  8
DRAFT
100
AcDbLine
 62
7
  6
CONTINUOUS
 10
-54.4223981276
 20
-44.0532031325
 11
-54.4223981276
 21
-40.8621837299
  0
LINE
  5
338
100
AcDbEntity
  8
DRAFT
100
AcDbLine
 62
7
  6
CONTINUOUS
 10
-54.4223981276
 20
-26.3621837299
 11
-54.4223981276
 21
-23.1711643274
  0
LINE
  5
339
100
AcDbEntity
  8
DRAFT
100
AcDbLine
 62
7
  6
CONTINUOUS
 10
-54.3997065432
 20
-65.6371837299
 11
-54.3997065432
 21
-63.8371837299
  0
LINE
  5
33A
100
AcDbEntity
  8
DRAFT
100
AcDbLine
 62
7
  6
CONTINUOUS
 10
-54.3813787251
 20
-23.2121837299
 11
-54.3813787251
 21
-23.9121837299
  0
LINE
  5
33B
100
AcDbEntity
  8
DRAFT
100
AcDbLine
 62
7
  6
CONTINUOUS
 10
-54.3813787251
 20
-43.3121837299
 11
-54.3813787251
 21
-44.0121837299
  0
LINE
  5
33C
100
AcDbEntity
  8
DRAFT
100
AcDbLine
 62
7
  6
CONTINUOUS
 10
-54.3813787251
 20
-46.1871837299
 11
-54.3813787251
 21
-46.8871837299
  0
LINE
  5
33D
100
AcDbEntity
  8
DRAFT
100
AcDbLine
 62
7
  6
CONTINUOUS
 10
-54.3813787251
 20
-66.2871837299
 11
-54.3813787251
 21
-66.9871837299
  0
LINE
  5
33E
100
AcDbEntity
  8
DRAFT
100
AcDbLine
 62
7
  6
CONTINUOUS
 10
-54.3753742606
 20
-23.9121837299
 11
-54.3753742606
 21
-25.0419344342
  0
LINE
  5
33F
100
AcDbEntity
  8
DRAFT
100
AcDbLine
 62
7
  6
CONTINUOUS
 10
-54.3753742606
 20
-42.1824330257
 11
-54.3753742606
 21
-43.3121837299
  0
LINE
  5
340
100
AcDbEntity
  8
DRAFT
100
AcDbLine
 62
7
  6
CONTINUOUS
 10
-54.3753742606
 20
-46.8871837299
 11
-54.3753742606
 21
-48.0169344342
  0
LINE
  5
341
100
AcDbEntity
  8
DRAFT
100
AcDbLine
 62
7
  6
CONTINUOUS
 10
-54.3753742606
 20
-65.1574330257
 11
-54.3753742606
 21
-66.2871837299
  0
LINE
  5
342
100
AcDbEntity
  8
RACCORDO
100
AcDbLine
 62
7
  6
CONTINUOUS
 10
-54.3482107164
 20
-25.0963695048
 11
-54.3482107164
 21
-26.3621837299
  0
LINE
  5
343
100
AcDbEntity
  8
RACCORDO
100
AcDbLine
 62
7
  6
CONTINUOUS
 10
-54.3482107164
 20
-40.8621837299
 11
-54.3482107164
 21
-42.1279979551
  0
LINE
  5
344
100
AcDbEntity
  8
RACCORDO
100
AcDbLine
 62
7
  6
CONTINUOUS
 10
-54.3482107164
 20
-48.0713695048
 11
-54.3482107164
 21
-49.3371837299
  0
LINE
  5
345
100
AcDbEntity
  8
RACCORDO
100
AcDbLine
 62
7
  6
CONTINUOUS
 10
-54.3482107164
 20
-63.8371837299
 11
-54.3482107164
 21
-65.1029979551
  0
LINE
  5
346
100
AcDbEntity
  8
ASSI
100
AcDbLine
 62
7
  6
CONTINUOUS
 10
-46.2813787251
 20
7.5128162701
 11
-46.1836005705
 21
7.6105944246
  0
LINE
  5
347
100
AcDbEntity
  8
DRAFT
100
AcDbLine
 62
7
  6
CONTINUOUS
 10
-55.6313787251
 20
-38.9871837299
 11
-48.6313787251
 21
-38.9871837299
  0
LINE
  5
348
100
AcDbEntity
  8
DRAFT
100
AcDbLine
 62
7
  6
CONTINUOUS
 10
-2.6313787251
 20
-38.9871837299
 11
-9.6313787251
 21
-38.9871837299
  0
LINE
  5
349
100
AcDbEntity
  8
ASSI
100
AcDbLine
 62
7
  6
CONTINUOUS
 10
-55.8813787251
 20
-36.6121837299
 11
-53.3813787251
 21
-36.6121837299
  0
LINE
  5
34A
100
AcDbEntity
  8
ASSI
100
AcDbLine
 62
7
  6
CONTINUOUS
 10
-4.8813787251
 20
-36.6121837299
 11
-2.3813787251
 21
-36.6121837299
  0
LINE
  5
34B
100
AcDbEntity
  8
DRAFT
100
AcDbLine
 62
7
  6
CONTINUOUS
 10
-61.3813787251
 20
-35.6121837299
 11
-59.7859817247
 21
-35.6121837299
  0
LINE
  5
34C
100
AcDbEntity
  8
DRAFT
100
AcDbLine
 62
7
  6
CONTINUOUS
 10
1.5232242746
 20
-35.6121837299
 11
3.1186212749
 21
-35.6121837299
  0
LINE
  5
34D
100
AcDbEntity
  8
DRAFT
100
AcDbLine
 62
7
  6
CONTINUOUS
 10
-27.030766762
 20
-42.1996837299
 11
-27.1313787251
 21
-42.159524845
  0
LINE
  5
34E
100
AcDbEntity
  8
DRAFT
100
AcDbLine
 62
7
  6
CONTINUOUS
 10
-26.8382917022
 20
-40.2871837299
 11
-27.1313787251
 21
-40.1701991521
  0
LINE
  5
34F
100
AcDbEntity
  8
DRAFT
100
AcDbLine
 62
7
  6
CONTINUOUS
 10
-14.1313787251
 20
-67.8871837299
 11
-14.1435972705
 21
-67.8749651845
  0
LINE
  5
350
100
AcDbEntity
  8
RACCORDO
100
AcDbLine
 62
253
  6
CONTINUOUS
 10
-31.4244657479
 20
-46.4933356467
 11
-31.2319906881
 21
-46.6858107065
  0
LINE
  5
351
100
AcDbEntity
  8
DRAFT
100
AcDbLine
 62
7
  6
CONTINUOUS
 10
-54.4223981276
 20
-23.1711643274
 11
-54.3813787251
 21
-23.2121837299
  0
LINE
  5
352
100
AcDbEntity
  8
RACCORDO
100
AcDbLine
 62
253
  6
CONTINUOUS
 10
-31.2252268082
 20
-46.2940967071
 11
-31.0327517485
 21
-46.4865717669
  0
LINE
  5
353
100
AcDbEntity
  8
DRAFT
100
AcDbLine
 62
7
  6
CONTINUOUS
 10
-48.6313787251
 20
-28.2371837299
 11
-48.5298140345
 21
-28.3387484205
  0
LINE
  5
354
100
AcDbEntity
  8
DRAFT
100
AcDbLine
 62
7
  6
CONTINUOUS
 10
-48.6313787251
 20
-26.9371837299
 11
-48.5298140345
 21
-27.0387484205
  0
LINE
  5
355
100
AcDbEntity
  8
RACCORDO
100
AcDbLine
 62
7
  6
CONTINUOUS
 10
-54.3482564078
 20
-25.0961866694
 11
-54.3753742606
 21
-25.0419344342
  0
LINE
  5
356
100
AcDbEntity
  8
RACCORDO
100
AcDbLine
 62
7
  6
CONTINUOUS
 10
-49.9197587231
 20
-65.0926622242
 11
-49.9198044144
 21
-65.0923200597
  0
LINE
  5
357
100
AcDbEntity
  8
RACCORDO
100
AcDbLine
 62
7
  6
CONTINUOUS
 10
-53.6902822274
 20
14.8268474835
 11
-53.6902822274
 21
19.5987850566
  0
LINE
  5
358
100
AcDbEntity
  8
RACCORDO
100
AcDbLine
 62
7
  6
CONTINUOUS
 10
-53.6902822274
 20
22.6268474835
 11
-53.6902822274
 21
28.4987850566
  0
LINE
  5
359
100
AcDbEntity
  8
RACCORDO
100
AcDbLine
 62
7
  6
CONTINUOUS
 10
-53.6902822274
 20
31.3268474835
 11
-53.6902822274
 21
35.6987850566
  0
LINE
  5
35A
100
AcDbEntity
  8
RACCORDO
100
AcDbLine
 62
7
  6
CONTINUOUS
 10
-53.6313787251
 20
35.3628162701
 11
-53.6313787251
 21
31.6628162701
  0
LINE
  5
35B
100
AcDbEntity
  8
RACCORDO
100
AcDbLine
 62
7
  6
CONTINUOUS
 10
-53.6313787251
 20
28.1628162701
 11
-53.6313787251
 21
22.9628162701
  0
LINE
  5
35C
100
AcDbEntity
  8
RACCORDO
100
AcDbLine
 62
7
  6
CONTINUOUS
 10
-53.6313787251
 20
19.2628162701
 11
-53.6313787251
 21
15.1628162701
  0
LINE
  5
35D
100
AcDbEntity
  8
ASSI
100
AcDbLine
 62
7
  6
CONTINUOUS
 10
-53.3813787251
 20
-30.6121837299
 11
-53.3813787251
 21
-36.6121837299
  0
LINE
  5
35E
100
AcDbEntity
  8
0
100
AcDbLine
 62
7
  6
CONTINUOUS
 10
-53.3813787251
 20
-53.5871837299
 11
-53.3813787251
 21
-59.5871837299
  0
LINE
  5
35F
100
AcDbEntity
  8
DRAFT
100
AcDbLine
 62
7
  6
CONTINUOUS
 10
-52.1444853153
 20
-19.8871837299
 11
-52.1444853153
 21
-20.0333108021
  0
LINE
  5
360
100
AcDbEntity
  8
DRAFT
100
AcDbLine
 62
7
  6
CONTINUOUS
 10
-52.1313787251
 20
-19.8871837299
 11
-52.1313787251
 21
-20.0464173923
  0
LINE
  5
361
100
AcDbEntity
  8
DRAFT
100
AcDbLine
 62
7
  6
CONTINUOUS
 10
-50.0079640193
 20
-19.8871837299
 11
-50.0079640193
 21
-20.0464173923
  0
LINE
  5
362
100
AcDbEntity
  8
DRAFT
100
AcDbLine
 62
7
  6
CONTINUOUS
 10
-49.9931483233
 20
-19.8871837299
 11
-49.9931483233
 21
-20.0316016964
  0
LINE
  5
363
100
AcDbEntity
  8
RACCORDO
100
AcDbLine
 62
7
  6
CONTINUOUS
 10
-49.9198044145
 20
-65.0924262415
 11
-49.9198044145
 21
-63.8367517191
  0
LINE
  5
364
100
AcDbEntity
  8
RACCORDO
100
AcDbLine
 62
7
  6
CONTINUOUS
 10
-49.9198044145
 20
-49.3376157408
 11
-49.9198044145
 21
-48.0819412151
  0
LINE
  5
365
100
AcDbEntity
  8
RACCORDO
100
AcDbLine
 62
7
  6
CONTINUOUS
 10
-49.9198044145
 20
-42.117426243
 11
-49.9198044145
 21
-40.8617517191
  0
LINE
  5
366
100
AcDbEntity
  8
RACCORDO
100
AcDbLine
 62
7
  6
CONTINUOUS
 10
-49.9198044145
 20
-26.3626157408
 11
-49.9198044145
 21
-25.1069412151
  0
LINE
  5
367
100
AcDbEntity
  8
DRAFT
100
AcDbLine
 62
7
  6
CONTINUOUS
 10
-49.8873831895
 20
-66.2871837299
 11
-49.8873831895
 21
-65.1574330257
  0
LINE
  5
368
100
AcDbEntity
  8
DRAFT
100
AcDbLine
 62
7
  6
CONTINUOUS
 10
-49.8873831895
 20
-48.0169344342
 11
-49.8873831895
 21
-46.8871837299
  0
LINE
  5
369
100
AcDbEntity
  8
DRAFT
100
AcDbLine
 62
7
  6
CONTINUOUS
 10
-49.8873831895
 20
-43.3121837299
 11
-49.8873831895
 21
-42.1824330257
  0
LINE
  5
36A
100
AcDbEntity
  8
DRAFT
100
AcDbLine
 62
7
  6
CONTINUOUS
 10
-49.8873831895
 20
-25.0419344342
 11
-49.8873831895
 21
-23.9121837299
  0
LINE
  5
36B
100
AcDbEntity
  8
DRAFT
100
AcDbLine
 62
7
  6
CONTINUOUS
 10
-49.8813787251
 20
-23.2121837299
 11
-49.8813787251
 21
-23.9121837299
  0
LINE
  5
36C
100
AcDbEntity
  8
DRAFT
100
AcDbLine
 62
7
  6
CONTINUOUS
 10
-49.8813787251
 20
-43.3121837299
 11
-49.8813787251
 21
-44.0121837299
  0
LINE
  5
36D
100
AcDbEntity
  8
DRAFT
100
AcDbLine
 62
7
  6
CONTINUOUS
 10
-49.8813787251
 20
-46.1871837299
 11
-49.8813787251
 21
-46.8871837299
  0
LINE
  5
36E
100
AcDbEntity
  8
DRAFT
100
AcDbLine
 62
7
  6
CONTINUOUS
 10
-49.8813787251
 20
-66.2871837299
 11
-49.8813787251
 21
-66.9871837299
  0
LINE
  5
36F
100
AcDbEntity
  8
DRAFT
100
AcDbLine
 62
7
  6
CONTINUOUS
 10
-49.8630509069
 20
-65.6371837299
 11
-49.8630509069
 21
-63.8371837299
  0
LINE
  5
370
100
AcDbEntity
  8
DRAFT
100
AcDbLine
 62
7
  6
CONTINUOUS
 10
-49.8403593225
 20
-67.0282031325
 11
-49.8403593225
 21
-65.6371837299
  0
LINE
  5
371
100
AcDbEntity
  8
DRAFT
100
AcDbLine
 62
7
  6
CONTINUOUS
 10
-49.8403593225
 20
-49.3371837299
 11
-49.8403593225
 21
-46.1461643274
  0
LINE
  5
372
100
AcDbEntity
  8
DRAFT
100
AcDbLine
 62
7
  6
CONTINUOUS
 10
-49.8403593225
 20
-44.0532031325
 11
-49.8403593225
 21
-40.8621837299
  0
LINE
  5
373
100
AcDbEntity
  8
DRAFT
100
AcDbLine
 62
7
  6
CONTINUOUS
 10
-49.8403593225
 20
-26.3621837299
 11
-49.8403593225
 21
-23.1711643274
  0
LINE
  5
374
100
AcDbEntity
  8
DRAFT
100
AcDbLine
 62
7
  6
CONTINUOUS
 10
-58.6313787251
 20
-67.8871837299
 11
-58.3813787251
 21
-65.6371837299
  0
LINE
  5
375
100
AcDbEntity
  8
DRAFT
100
AcDbLine
 62
7
  6
CONTINUOUS
 10
3.1186212749
 20
-31.6121837299
 11
1.5232242746
 21
-31.6121837299
  0
LINE
  5
376
100
AcDbEntity
  8
DRAFT
100
AcDbLine
 62
7
  6
CONTINUOUS
 10
-59.7859817247
 20
-31.6121837299
 11
-61.3813787251
 21
-31.6121837299
  0
LINE
  5
377
100
AcDbEntity
  8
ASSI
100
AcDbLine
 62
7
  6
CONTINUOUS
 10
-55.8813787251
 20
-30.6121837299
 11
-53.3813787251
 21
-30.6121837299
  0
LINE
  5
378
100
AcDbEntity
  8
ASSI
100
AcDbLine
 62
7
  6
CONTINUOUS
 10
-4.8813787251
 20
-30.6121837299
 11
-2.3813787251
 21
-30.6121837299
  0
LINE
  5
379
100
AcDbEntity
  8
DRAFT
100
AcDbLine
 62
7
  6
CONTINUOUS
 10
-9.6767757254
 20
-63.2167867296
 11
-9.7329434157
 21
-63.1606190393
  0
LINE
  5
37A
100
AcDbEntity
  8
DRAFT
100
AcDbLine
 62
7
  6
CONTINUOUS
 10
-52.1313787251
 20
-20.0464173923
 11
-52.1444853153
 21
-20.0333108021
  0
LINE
  5
37B
100
AcDbEntity
  8
DRAFT
100
AcDbLine
 62
7
  6
CONTINUOUS
 10
-9.6767757254
 20
-61.9167867296
 11
-9.7329434157
 21
-61.8606190393
  0
LINE
  5
37C
100
AcDbEntity
  8
RACCORDO
100
AcDbLine
 62
253
  6
CONTINUOUS
 10
-27.0375306419
 20
-43.9052707528
 11
-27.2300057016
 21
-43.712795693
  0
LINE
  5
37D
100
AcDbEntity
  8
DRAFT
100
AcDbLine
 62
7
  6
CONTINUOUS
 10
-3.8813787251
 20
-66.9871837299
 11
-3.8403593225
 21
-67.0282031325
  0
LINE
  5
37E
100
AcDbEntity
  8
RACCORDO
100
AcDbLine
 62
253
  6
CONTINUOUS
 10
-26.8382917022
 20
-43.7060318131
 11
-27.030766762
 21
-43.5135567534
  0
LINE
  5
37F
100
AcDbEntity
  8
DRAFT
100
AcDbLine
 62
7
  6
CONTINUOUS
 10
-61.9580674524
 20
6.7534509619
 11
-61.9964685952
 21
6.8302766548
  0
LINE
  5
380
100
AcDbEntity
  8
RACCORDO
100
AcDbLine
 62
7
  6
CONTINUOUS
 10
-49.9197587231
 20
-42.1176622242
 11
-49.9198044144
 21
-42.117320061
  0
LINE
  5
381
100
AcDbEntity
  8
DRAFT
100
AcDbLine
 62
7
  6
CONTINUOUS
 10
-48.6313787251
 20
-26.9371837299
 11
-48.6313787251
 21
-28.2371837299
  0
LINE
  5
382
100
AcDbEntity
  8
DRAFT
100
AcDbLine
 62
7
  6
CONTINUOUS
 10
-48.6313787251
 20
-38.9871837299
 11
-48.6313787251
 21
-40.2871837299
  0
LINE
  5
383
100
AcDbEntity
  8
DRAFT
100
AcDbLine
 62
7
  6
CONTINUOUS
 10
-48.6313787251
 20
-49.9121837299
 11
-48.6313787251
 21
-51.2121837299
  0
LINE
  5
384
100
AcDbEntity
  8
DRAFT
100
AcDbLine
 62
7
  6
CONTINUOUS
 10
-48.5859817247
 20
-63.2167867296
 11
-48.5859817247
 21
-61.9167867296
  0
LINE
  5
385
100
AcDbEntity
  8
DRAFT
100
AcDbLine
 62
7
  6
CONTINUOUS
 10
-48.5298140345
 20
-27.0387484205
 11
-48.5298140345
 21
-28.3387484205
  0
LINE
  5
386
100
AcDbEntity
  8
DRAFT
100
AcDbLine
 62
7
  6
CONTINUOUS
 10
-48.5298140345
 20
-38.8856190393
 11
-48.5298140345
 21
-40.1856190393
  0
LINE
  5
387
100
AcDbEntity
  8
DRAFT
100
AcDbLine
 62
7
  6
CONTINUOUS
 10
-48.5298140345
 20
-50.0137484205
 11
-48.5298140345
 21
-51.3137484205
  0
LINE
  5
388
100
AcDbEntity
  8
DRAFT
100
AcDbLine
 62
7
  6
CONTINUOUS
 10
-48.5298140345
 20
-61.8606190393
 11
-48.5298140345
 21
-63.1606190393
  0
LINE
  5
389
100
AcDbEntity
  8
DRAFT
100
AcDbLine
 62
7
  6
CONTINUOUS
 10
-47.1093617122
 20
28.4876294743
 11
-47.1093617122
 21
27.6407992572
  0
LINE
  5
38A
100
AcDbEntity
  8
DRAFT
100
AcDbLine
 62
7
  6
CONTINUOUS
 10
-47.1093617122
 20
26.684833283
 11
-47.1093617122
 21
22.6407992572
  0
LINE
  5
38B
100
AcDbEntity
  8
ASSI
100
AcDbLine
 62
7
  6
CONTINUOUS
 10
-47.0791568796
 20
7.6105944246
 11
-47.0791568796
 21
7.8128162701
  0
LINE
  5
38C
100
AcDbEntity
  8
DRAFT
100
AcDbLine
 62
7
  6
CONTINUOUS
 10
-46.9813787251
 20
29.1479288425
 11
-46.9813787251
 21
27.5128162701
  0
LINE
  5
38D
100
AcDbEntity
  8
DRAFT
100
AcDbLine
 62
7
  6
CONTINUOUS
 10
-46.9813787251
 20
26.8128162701
 11
-46.9813787251
 21
22.5128162701
  0
LINE
  5
38E
100
AcDbEntity
  8
DRAFT
100
AcDbLine
 62
7
  6
CONTINUOUS
 10
-46.9813787251
 20
21.8128162701
 11
-46.9813787251
 21
21.5777036976
  0
LINE
  5
38F
100
AcDbEntity
  8
0
100
AcDbLine
 62
7
  6
CONTINUOUS
 10
-46.9813787251
 20
7.8128162701
 11
-46.9813787251
 21
7.5128162701
  0
LINE
  5
390
100
AcDbEntity
  8
0
100
AcDbLine
 62
7
  6
CONTINUOUS
 10
-46.2813787251
 20
7.5128162701
 11
-46.2813787251
 21
7.8128162701
  0
LINE
  5
391
100
AcDbEntity
  8
DRAFT
100
AcDbLine
 62
7
  6
CONTINUOUS
 10
-46.2813787251
 20
19.1294069346
 11
-46.2813787251
 21
21.8128162701
  0
LINE
  5
392
100
AcDbEntity
  8
DRAFT
100
AcDbLine
 62
7
  6
CONTINUOUS
 10
-46.2813787251
 20
22.5128162701
 11
-46.2813787251
 21
26.8128162701
  0
LINE
  5
393
100
AcDbEntity
  8
DRAFT
100
AcDbLine
 62
7
  6
CONTINUOUS
 10
-46.2813787251
 20
27.5128162701
 11
-46.2813787251
 21
31.5962256055
  0
LINE
  5
394
100
AcDbEntity
  8
ASSI
100
AcDbLine
 62
7
  6
CONTINUOUS
 10
-46.1836005705
 20
7.8128162701
 11
-46.1836005705
 21
7.6105944246
  0
LINE
  5
395
100
AcDbEntity
  8
DRAFT
100
AcDbLine
 62
7
  6
CONTINUOUS
 10
-46.15218266
 20
31.683620205
 11
-46.15218266
 21
27.6420123351
  0
LINE
  5
396
100
AcDbEntity
  8
DRAFT
100
AcDbLine
 62
7
  6
CONTINUOUS
 10
-46.15218266
 20
26.683620205
 11
-46.15218266
 21
22.6420123351
  0
LINE
  5
397
100
AcDbEntity
  8
DRAFT
100
AcDbLine
 62
7
  6
CONTINUOUS
 10
-46.15218266
 20
21.683620205
 11
-46.15218266
 21
18.7874507022
  0
LINE
  5
398
100
AcDbEntity
  8
DRAFT
100
AcDbLine
 62
7
  6
CONTINUOUS
 10
-44.5392820966
 20
-62.8542803584
 11
-44.5392820966
 21
-63.1542803584
  0
LINE
  5
399
100
AcDbEntity
  8
RACCORDO
100
AcDbLine
 62
7
  6
CONTINUOUS
 10
-49.9197587231
 20
-25.1067052357
 11
-49.9198044144
 21
-25.1070482071
  0
LINE
  5
39A
100
AcDbEntity
  8
RACCORDO
100
AcDbLine
 62
7
  6
CONTINUOUS
 10
-49.9197587231
 20
-48.0817052357
 11
-49.9198044144
 21
-48.0820482071
  0
LINE
  5
39B
100
AcDbEntity
  8
DRAFT
100
AcDbLine
 62
7
  6
CONTINUOUS
 10
-12.0407706918
 20
31.7534243033
 11
-12.1105747901
 21
31.683620205
  0
LINE
  5
39C
100
AcDbEntity
  8
DRAFT
100
AcDbLine
 62
7
  6
CONTINUOUS
 10
-62.0209056861
 20
-20.126710691
 11
-61.9406123874
 21
-20.0464173923
  0
LINE
  5
39D
100
AcDbEntity
  8
DRAFT
100
AcDbLine
 62
7
  6
CONTINUOUS
 10
3.6746530169
 20
44.868848012
 11
3.758148236
 21
44.9523432311
  0
LINE
  5
39E
100
AcDbEntity
  8
DRAFT
100
AcDbLine
 62
7
  6
CONTINUOUS
 10
-60.1260818766
 20
-20.0411205438
 11
-60.1313787251
 21
-20.0464173923
  0
LINE
  5
39F
100
AcDbEntity
  8
DRAFT
100
AcDbLine
 62
7
  6
CONTINUOUS
 10
-9.6313787251
 20
-28.2371837299
 11
-2.6313787251
 21
-28.2371837299
  0
LINE
  5
3A0
100
AcDbEntity
  8
DRAFT
100
AcDbLine
 62
7
  6
CONTINUOUS
 10
-48.6313787251
 20
-28.2371837299
 11
-55.6313787251
 21
-28.2371837299
  0
LINE
  5
3A1
100
AcDbEntity
  8
DRAFT
100
AcDbLine
 62
7
  6
CONTINUOUS
 10
-31.1313787251
 20
-27.0541683077
 11
-27.1313787251
 21
-27.0541683077
  0
LINE
  5
3A2
100
AcDbEntity
  8
DRAFT
100
AcDbLine
 62
7
  6
CONTINUOUS
 10
1.5686212749
 20
-26.9371837299
 11
-2.6313787251
 21
-26.9371837299
  0
LINE
  5
3A3
100
AcDbEntity
  8
DRAFT
100
AcDbLine
 62
7
  6
CONTINUOUS
 10
-9.6313787251
 20
-26.9371837299
 11
-26.8382917022
 21
-26.9371837299
  0
LINE
  5
3A4
100
AcDbEntity
  8
DRAFT
100
AcDbLine
 62
7
  6
CONTINUOUS
 10
-31.4244657479
 20
-26.9371837299
 11
-48.6313787251
 21
-26.9371837299
  0
LINE
  5
3A5
100
AcDbEntity
  8
DRAFT
100
AcDbLine
 62
7
  6
CONTINUOUS
 10
-55.6313787251
 20
-26.9371837299
 11
-59.8313787251
 21
-26.9371837299
  0
LINE
  5
3A6
100
AcDbEntity
  8
DRAFT
100
AcDbLine
 62
7
  6
CONTINUOUS
 10
-54.4223981276
 20
-26.3621837299
 11
-49.8403593225
 21
-26.3621837299
  0
LINE
  5
3A7
100
AcDbEntity
  8
DRAFT
100
AcDbLine
 62
7
  6
CONTINUOUS
 10
-3.8403593225
 20
-26.3621837299
 11
-8.4223981276
 21
-26.3621837299
  0
LINE
  5
3A8
100
AcDbEntity
  8
DRAFT
100
AcDbLine
 62
7
  6
CONTINUOUS
 10
-31.4244657479
 20
-26.9371837299
 11
-31.1313787251
 21
-27.0541683077
  0
LINE
  5
3A9
100
AcDbEntity
  8
DRAFT
100
AcDbLine
 62
7
  6
CONTINUOUS
 10
1.5232242746
 20
-63.2167867296
 11
1.4927136803
 21
-63.1862761353
  0
LINE
  5
3AA
100
AcDbEntity
  8
DRAFT
100
AcDbLine
 62
7
  6
CONTINUOUS
 10
-61.937410467
 20
11.7121243999
 11
-61.9877410627
 21
11.8128162701
  0
LINE
  5
3AB
100
AcDbEntity
  8
DRAFT
100
AcDbLine
 62
7
  6
CONTINUOUS
 10
-44.4767757254
 20
-62.9167867296
 11
-44.4767757254
 21
-63.2167867296
  0
LINE
  5
3AC
100
AcDbEntity
  8
DRAFT
100
AcDbLine
 62
7
  6
CONTINUOUS
 10
-44.141851764
 20
-65.6371837299
 11
-44.141851764
 21
-64.964210691
  0
LINE
  5
3AD
100
AcDbEntity
  8
DRAFT
100
AcDbLine
 62
7
  6
CONTINUOUS
 10
-44.1191601796
 20
-67.8749651845
 11
-44.1191601796
 21
-65.6371837299
  0
LINE
  5
3AE
100
AcDbEntity
  8
RACCORDO
100
AcDbLine
 62
7
  6
CONTINUOUS
 10
-49.8873831895
 20
-25.0419344342
 11
-49.9197515802
 21
-25.1066909456
  0
LINE
  5
3AF
100
AcDbEntity
  8
DRAFT
100
AcDbLine
 62
7
  6
CONTINUOUS
 10
-11.9813787251
 20
26.8128162701
 11
-12.1105747901
 21
26.683620205
  0
LINE
  5
3B0
100
AcDbEntity
  8
DRAFT
100
AcDbLine
 62
7
  6
CONTINUOUS
 10
-11.2813787251
 20
27.5128162701
 11
-11.153395738
 21
27.6407992572
  0
LINE
  5
3B1
100
AcDbEntity
  8
RACCORDO
100
AcDbLine
 62
253
  6
CONTINUOUS
 10
7.8564788819
 20
46.6005977246
 11
7.8686974274
 21
46.6128162701
  0
LINE
  5
3B2
100
AcDbEntity
  8
RACCORDO
100
AcDbLine
 62
253
  6
CONTINUOUS
 10
8.3564027295
 20
46.100673877
 11
8.3686212749
 21
46.1128924225
  0
LINE
  5
3B3
100
AcDbEntity
  8
DRAFT
100
AcDbLine
 62
7
  6
CONTINUOUS
 10
-11.9813787251
 20
21.8128162701
 11
-12.1105747901
 21
21.683620205
  0
LINE
  5
3B4
100
AcDbEntity
  8
DRAFT
100
AcDbLine
 62
7
  6
CONTINUOUS
 10
-11.2813787251
 20
22.5128162701
 11
-11.153395738
 21
22.6407992572
  0
LINE
  5
3B5
100
AcDbEntity
  8
DRAFT
100
AcDbLine
 62
7
  6
CONTINUOUS
 10
-31.1313787251
 20
-25.0648426149
 11
-27.1313787251
 21
-25.0648426149
  0
LINE
  5
3B6
100
AcDbEntity
  8
DRAFT
100
AcDbLine
 62
7
  6
CONTINUOUS
 10
-54.3813787251
 20
-23.9121837299
 11
-49.8813787251
 21
-23.9121837299
  0
LINE
  5
3B7
100
AcDbEntity
  8
DRAFT
100
AcDbLine
 62
7
  6
CONTINUOUS
 10
-3.8813787251
 20
-23.9121837299
 11
-8.3813787251
 21
-23.9121837299
  0
LINE
  5
3B8
100
AcDbEntity
  8
RACCORDO
100
AcDbLine
 62
7
  6
CONTINUOUS
 10
-27.2300057016
 20
-23.5115717669
 11
-31.0327517485
 21
-23.5115717669
  0
LINE
  5
3B9
100
AcDbEntity
  8
RACCORDO
100
AcDbLine
 62
7
  6
CONTINUOUS
 10
-31.2252268082
 20
-23.3190967071
 11
-27.0375306419
 21
-23.3190967071
  0
LINE
  5
3BA
100
AcDbEntity
  8
DRAFT
100
AcDbLine
 62
7
  6
CONTINUOUS
 10
-54.3813787251
 20
-23.2121837299
 11
-49.8813787251
 21
-23.2121837299
  0
LINE
  5
3BB
100
AcDbEntity
  8
DRAFT
100
AcDbLine
 62
7
  6
CONTINUOUS
 10
-3.8813787251
 20
-23.2121837299
 11
-8.3813787251
 21
-23.2121837299
  0
LINE
  5
3BC
100
AcDbEntity
  8
DRAFT
100
AcDbLine
 62
7
  6
CONTINUOUS
 10
-54.4223981276
 20
-23.1711643274
 11
-49.8403593225
 21
-23.1711643274
  0
LINE
  5
3BD
100
AcDbEntity
  8
DRAFT
100
AcDbLine
 62
7
  6
CONTINUOUS
 10
-3.8403593225
 20
-23.1711643274
 11
-8.4223981276
 21
-23.1711643274
  0
LINE
  5
3BE
100
AcDbEntity
  8
DRAFT
100
AcDbLine
 62
7
  6
CONTINUOUS
 10
-31.2319906881
 20
-25.0246837299
 11
-31.1313787251
 21
-25.0648426149
  0
LINE
  5
3BF
100
AcDbEntity
  8
RACCORDO
100
AcDbLine
 62
253
  6
CONTINUOUS
 10
6.8564788819
 20
-67.8749651845
 11
6.8686974274
 21
-67.8871837299
  0
LINE
  5
3C0
100
AcDbEntity
  8
RACCORDO
100
AcDbLine
 62
253
  6
CONTINUOUS
 10
7.3564027295
 20
-67.3750413369
 11
7.3686212749
 21
-67.3872598824
  0
LINE
  5
3C1
100
AcDbEntity
  8
DRAFT
100
AcDbLine
 62
7
  6
CONTINUOUS
 10
-38.752395832
 20
-20.0254002854
 11
-38.7313787251
 21
-20.0464173923
  0
LINE
  5
3C2
100
AcDbEntity
  8
RACCORDO
100
AcDbLine
 62
253
  6
CONTINUOUS
 10
-60.1313787251
 20
3.8139578606
 11
-60.1271732659
 21
3.8097524015
  0
LINE
  5
3C3
100
AcDbEntity
  8
DRAFT
100
AcDbLine
 62
7
  6
CONTINUOUS
 10
5.6186212749
 20
-61.8871837299
 11
5.590513108
 21
-61.859075563
  0
LINE
  5
3C4
100
AcDbEntity
  8
RACCORDO
100
AcDbLine
 62
253
  6
CONTINUOUS
 10
-59.8325203156
 20
4.1128162701
 11
-59.8283148565
 21
4.1086108109
  0
LINE
  5
3C5
100
AcDbEntity
  8
RACCORDO
100
AcDbLine
 62
253
  6
CONTINUOUS
 10
-31.4244657479
 20
-23.5183356467
 11
-31.2319906881
 21
-23.7108107065
  0
LINE
  5
3C6
100
AcDbEntity
  8
DRAFT
100
AcDbLine
 62
7
  6
CONTINUOUS
 10
-38.752395832
 20
-19.8871837299
 11
-38.752395832
 21
-20.0254002854
  0
LINE
  5
3C7
100
AcDbEntity
  8
DRAFT
100
AcDbLine
 62
7
  6
CONTINUOUS
 10
-38.7313787251
 20
-19.8871837299
 11
-38.7313787251
 21
-20.0464173923
  0
LINE
  5
3C8
100
AcDbEntity
  8
DRAFT
100
AcDbLine
 62
7
  6
CONTINUOUS
 10
-38.1435972705
 20
-67.8749651845
 11
-38.1435972705
 21
-65.6371837299
  0
LINE
  5
3C9
100
AcDbEntity
  8
DRAFT
100
AcDbLine
 62
7
  6
CONTINUOUS
 10
-38.1209056861
 20
-64.964210691
 11
-38.1209056861
 21
-65.6371837299
  0
LINE
  5
3CA
100
AcDbEntity
  8
DRAFT
100
AcDbLine
 62
7
  6
CONTINUOUS
 10
-37.7859817247
 20
-63.2167867296
 11
-37.7859817247
 21
-62.9167867296
  0
LINE
  5
3CB
100
AcDbEntity
  8
DRAFT
100
AcDbLine
 62
7
  6
CONTINUOUS
 10
-37.7160082127
 20
-62.8468132175
 11
-37.7160082127
 21
-63.1468132175
  0
LINE
  5
3CC
100
AcDbEntity
  8
DRAFT
100
AcDbLine
 62
7
  6
CONTINUOUS
 10
-37.5313787251
 20
-19.8871837299
 11
-37.5313787251
 21
-20.0464173923
  0
LINE
  5
3CD
100
AcDbEntity
  8
DRAFT
100
AcDbLine
 62
7
  6
CONTINUOUS
 10
-37.5099570349
 20
-19.8871837299
 11
-37.5099570349
 21
-20.0249957022
  0
LINE
  5
3CE
100
AcDbEntity
  8
RACCORDO
100
AcDbLine
 62
7
  6
CONTINUOUS
 10
-54.3753742606
 20
-42.1824330257
 11
-54.3482564078
 21
-42.1281807905
  0
LINE
  5
3CF
100
AcDbEntity
  8
DRAFT
100
AcDbLine
 62
7
  6
CONTINUOUS
 10
-49.9931483233
 20
-20.0316016964
 11
-50.0079640193
 21
-20.0464173923
  0
LINE
  5
3D0
100
AcDbEntity
  8
DRAFT
100
AcDbLine
 62
7
  6
CONTINUOUS
 10
-49.8403593225
 20
-23.1711643274
 11
-49.8813787251
 21
-23.2121837299
  0
LINE
  5
3D1
100
AcDbEntity
  8
DRAFT
100
AcDbLine
 62
7
  6
CONTINUOUS
 10
3.1186212749
 20
-20.1494022754
 11
-61.3813787251
 21
-20.1494022754
  0
LINE
  5
3D2
100
AcDbEntity
  8
DRAFT
100
AcDbLine
 62
7
  6
CONTINUOUS
 10
3.758148236
 20
-20.126710691
 11
3.1186212749
 21
-20.126710691
  0
LINE
  5
3D3
100
AcDbEntity
  8
DRAFT
100
AcDbLine
 62
7
  6
CONTINUOUS
 10
-61.3813787251
 20
-20.126710691
 11
-62.0209056861
 21
-20.126710691
  0
LINE
  5
3D4
100
AcDbEntity
  8
DRAFT
100
AcDbLine
 62
7
  6
CONTINUOUS
 10
-61.9406123874
 20
-20.0464173923
 11
-60.1313787251
 21
-20.0464173923
  0
LINE
  5
3D5
100
AcDbEntity
  8
DRAFT
100
AcDbLine
 62
7
  6
CONTINUOUS
 10
3.6778549373
 20
-20.0464173923
 11
1.8686212749
 21
-20.0464173923
  0
LINE
  5
3D6
100
AcDbEntity
  8
DRAFT
100
AcDbLine
 62
7
  6
CONTINUOUS
 10
-6.1313787251
 20
-20.0464173923
 11
-8.2547934309
 21
-20.0464173923
  0
LINE
  5
3D7
100
AcDbEntity
  8
DRAFT
100
AcDbLine
 62
7
  6
CONTINUOUS
 10
-19.531378725
 20
-20.0464173923
 11
-20.731378725
 21
-20.0464173923
  0
LINE
  5
3D8
100
AcDbEntity
  8
DRAFT
100
AcDbLine
 62
7
  6
CONTINUOUS
 10
-37.5313787251
 20
-20.0464173923
 11
-38.7313787251
 21
-20.0464173923
  0
LINE
  5
3D9
100
AcDbEntity
  8
DRAFT
100
AcDbLine
 62
7
  6
CONTINUOUS
 10
-50.0079640193
 20
-20.0464173923
 11
-52.1313787251
 21
-20.0464173923
  0
LINE
  5
3DA
100
AcDbEntity
  8
0
100
AcDbLine
 62
7
  6
CONTINUOUS
 10
-61.8313787251
 20
-19.8871837299
 11
3.5686212749
 21
-19.8871837299
  0
LINE
  5
3DB
100
AcDbEntity
  8
DRAFT
100
AcDbLine
 62
7
  6
CONTINUOUS
 10
-8.4223981276
 20
-46.1461643274
 11
-8.3813787251
 21
-46.1871837299
  0
LINE
  5
3DC
100
AcDbEntity
  8
RACCORDO
100
AcDbLine
 62
253
  6
CONTINUOUS
 10
-31.2252268082
 20
-23.3190967071
 11
-31.0327517485
 21
-23.5115717669
  0
LINE
  5
3DD
100
AcDbEntity
  8
DRAFT
100
AcDbLine
 62
7
  6
CONTINUOUS
 10
-2.6313787251
 20
-51.2121837299
 11
-2.5449107893
 21
-51.2986516657
  0
LINE
  5
3DE
100
AcDbEntity
  8
DRAFT
100
AcDbLine
 62
7
  6
CONTINUOUS
 10
-2.6313787251
 20
-49.9121837299
 11
-2.5449107893
 21
-49.9986516657
  0
LINE
  5
3DF
100
AcDbEntity
  8
DRAFT
100
AcDbLine
 62
7
  6
CONTINUOUS
 10
-9.6313787251
 20
-40.2871837299
 11
-9.7329434157
 21
-40.1856190393
  0
LINE
  5
3E0
100
AcDbEntity
  8
0
100
AcDbLine
 62
7
  6
CONTINUOUS
 10
-56.2313787251
 20
7.5128162701
 11
-56.344242298
 21
7.625679843
  0
LINE
  5
3E1
100
AcDbEntity
  8
DRAFT
100
AcDbLine
 62
7
  6
CONTINUOUS
 10
-9.6313787251
 20
-38.9871837299
 11
-9.7329434157
 21
-38.8856190393
  0
LINE
  5
3E2
100
AcDbEntity
  8
DRAFT
100
AcDbLine
 62
7
  6
CONTINUOUS
 10
-61.937410467
 20
41.7121243999
 11
-61.9877410627
 21
41.8128162701
  0
LINE
  5
3E3
100
AcDbEntity
  8
DRAFT
100
AcDbLine
 62
7
  6
CONTINUOUS
 10
-29.7500626186
 20
-66.8190286883
 11
-29.6313787251
 21
-67.8871837299
  0
LINE
  5
3E4
100
AcDbEntity
  8
RACCORDO
100
AcDbLine
 62
7
  6
CONTINUOUS
 10
-31.4244657479
 20
-23.5183356467
 11
-31.4244657479
 21
-26.9371837299
  0
LINE
  5
3E5
100
AcDbEntity
  8
RACCORDO
100
AcDbLine
 62
7
  6
CONTINUOUS
 10
-31.4244657479
 20
-40.2871837299
 11
-31.4244657479
 21
-43.7060318131
  0
LINE
  5
3E6
100
AcDbEntity
  8
RACCORDO
100
AcDbLine
 62
7
  6
CONTINUOUS
 10
-31.4244657479
 20
-46.4933356467
 11
-31.4244657479
 21
-49.9121837299
  0
LINE
  5
3E7
100
AcDbEntity
  8
RACCORDO
100
AcDbLine
 62
7
  6
CONTINUOUS
 10
-31.4244657479
 20
-65.6371837299
 11
-31.4244657479
 21
-66.6810318131
  0
LINE
  5
3E8
100
AcDbEntity
  8
DRAFT
100
AcDbLine
 62
7
  6
CONTINUOUS
 10
-31.3107304853
 20
-65.6371837299
 11
-31.3107304853
 21
-63.2167867296
  0
LINE
  5
3E9
100
AcDbEntity
  8
RACCORDO
100
AcDbLine
 62
7
  6
CONTINUOUS
 10
-31.2319906881
 20
-23.7108107065
 11
-31.2319906881
 21
-25.0246837299
  0
LINE
  5
3EA
100
AcDbEntity
  8
RACCORDO
100
AcDbLine
 62
7
  6
CONTINUOUS
 10
-31.2319906881
 20
-42.1996837299
 11
-31.2319906881
 21
-43.5135567534
  0
LINE
  5
3EB
100
AcDbEntity
  8
RACCORDO
100
AcDbLine
 62
7
  6
CONTINUOUS
 10
-31.2319906881
 20
-46.6858107065
 11
-31.2319906881
 21
-47.9996837299
  0
LINE
  5
3EC
100
AcDbEntity
  8
RACCORDO
100
AcDbLine
 62
7
  6
CONTINUOUS
 10
-31.2319906881
 20
-65.1746837299
 11
-31.2319906881
 21
-66.4885567534
  0
LINE
  5
3ED
100
AcDbEntity
  8
DRAFT
100
AcDbLine
 62
7
  6
CONTINUOUS
 10
-31.1313787251
 20
-25.0648426149
 11
-31.1313787251
 21
-27.0541683077
  0
LINE
  5
3EE
100
AcDbEntity
  8
DRAFT
100
AcDbLine
 62
7
  6
CONTINUOUS
 10
-31.1313787251
 20
-40.1701991521
 11
-31.1313787251
 21
-42.159524845
  0
LINE
  5
3EF
100
AcDbEntity
  8
DRAFT
100
AcDbLine
 62
7
  6
CONTINUOUS
 10
-31.1313787251
 20
-48.0398426149
 11
-31.1313787251
 21
-50.0291683077
  0
LINE
  5
3F0
100
AcDbEntity
  8
DRAFT
100
AcDbLine
 62
7
  6
CONTINUOUS
 10
-31.1313787251
 20
-63.1451991521
 11
-31.1313787251
 21
-65.134524845
  0
LINE
  5
3F1
100
AcDbEntity
  8
RACCORDO
100
AcDbLine
 62
7
  6
CONTINUOUS
 10
-49.8873831895
 20
-48.0169344342
 11
-49.9197515802
 21
-48.0816909456
  0
LINE
  5
3F2
100
AcDbEntity
  8
RACCORDO
100
AcDbLine
 62
253
  6
CONTINUOUS
 10
-68.8302371345
 20
-46.4371837299
 11
-69.1276985905
 21
-46.7346451859
  0
LINE
  5
3F3
100
AcDbEntity
  8
RACCORDO
100
AcDbLine
 62
253
  6
CONTINUOUS
 10
-68.5313787251
 20
-46.7360421394
 11
-68.828840181
 21
-47.0335035954
  0
LINE
  5
3F4
100
AcDbEntity
  8
DRAFT
100
AcDbLine
 62
7
  6
CONTINUOUS
 10
-59.7554711304
 20
-40.2112761353
 11
-59.8313787251
 21
-40.2871837299
  0
LINE
  5
3F5
100
AcDbEntity
  8
ASSI
100
AcDbLine
 62
7
  6
CONTINUOUS
 10
-11.2813787251
 20
7.5128162701
 11
-11.1836005705
 21
7.6105944246
  0
LINE
  5
3F6
100
AcDbEntity
  8
DRAFT
100
AcDbLine
 62
7
  6
CONTINUOUS
 10
-67.0313787251
 20
-14.3871837299
 11
-68.1191601796
 21
-14.3871837299
  0
LINE
  5
3F7
100
AcDbEntity
  8
DRAFT
100
AcDbLine
 62
7
  6
CONTINUOUS
 10
-3.8813787251
 20
-44.0121837299
 11
-3.8403593225
 21
-44.0532031325
  0
LINE
  5
3F8
100
AcDbEntity
  8
RACCORDO
100
AcDbLine
 62
253
  6
CONTINUOUS
 10
-68.8302371345
 20
25.1628162701
 11
-69.1276985905
 21
25.460277726
  0
LINE
  5
3F9
100
AcDbEntity
  8
RACCORDO
100
AcDbLine
 62
253
  6
CONTINUOUS
 10
-68.5313787251
 20
25.4616746795
 11
-68.828840181
 21
25.7591361355
  0
LINE
  5
3FA
100
AcDbEntity
  8
RACCORDO
100
AcDbLine
 62
7
  6
CONTINUOUS
 10
-3.9145010423
 20
-65.1031807905
 11
-3.8873831895
 21
-65.1574330257
  0
LINE
  5
3FB
100
AcDbEntity
  8
DRAFT
100
AcDbLine
 62
7
  6
CONTINUOUS
 10
-27.1313787251
 20
-65.134524845
 11
-27.1313787251
 21
-63.1451991521
  0
LINE
  5
3FC
100
AcDbEntity
  8
DRAFT
100
AcDbLine
 62
7
  6
CONTINUOUS
 10
-27.1313787251
 20
-50.0291683077
 11
-27.1313787251
 21
-48.0398426149
  0
LINE
  5
3FD
100
AcDbEntity
  8
DRAFT
100
AcDbLine
 62
7
  6
CONTINUOUS
 10
-27.1313787251
 20
-42.159524845
 11
-27.1313787251
 21
-40.1701991521
  0
LINE
  5
3FE
100
AcDbEntity
  8
DRAFT
100
AcDbLine
 62
7
  6
CONTINUOUS
 10
-27.1313787251
 20
-27.0541683077
 11
-27.1313787251
 21
-25.0648426149
  0
LINE
  5
3FF
100
AcDbEntity
  8
RACCORDO
100
AcDbLine
 62
7
  6
CONTINUOUS
 10
-27.030766762
 20
-66.4885567534
 11
-27.030766762
 21
-65.1746837299
  0
LINE
  5
400
100
AcDbEntity
  8
RACCORDO
100
AcDbLine
 62
7
  6
CONTINUOUS
 10
-27.030766762
 20
-47.9996837299
 11
-27.030766762
 21
-46.6858107065
  0
LINE
  5
401
100
AcDbEntity
  8
RACCORDO
100
AcDbLine
 62
7
  6
CONTINUOUS
 10
-27.030766762
 20
-43.5135567534
 11
-27.030766762
 21
-42.1996837299
  0
LINE
  5
402
100
AcDbEntity
  8
RACCORDO
100
AcDbLine
 62
7
  6
CONTINUOUS
 10
-27.030766762
 20
-25.0246837299
 11
-27.030766762
 21
-23.7108107065
  0
LINE
  5
403
100
AcDbEntity
  8
DRAFT
100
AcDbLine
 62
7
  6
CONTINUOUS
 10
-26.9520269648
 20
-65.6371837299
 11
-26.9520269648
 21
-63.2167867296
  0
LINE
  5
404
100
AcDbEntity
  8
RACCORDO
100
AcDbLine
 62
7
  6
CONTINUOUS
 10
-26.8382917022
 20
-66.6810318131
 11
-26.8382917022
 21
-65.6371837299
  0
LINE
  5
405
100
AcDbEntity
  8
RACCORDO
100
AcDbLine
 62
7
  6
CONTINUOUS
 10
-26.8382917022
 20
-49.9121837299
 11
-26.8382917022
 21
-46.4933356467
  0
LINE
  5
406
100
AcDbEntity
  8
RACCORDO
100
AcDbLine
 62
7
  6
CONTINUOUS
 10
-26.8382917022
 20
-43.7060318131
 11
-26.8382917022
 21
-40.2871837299
  0
LINE
  5
407
100
AcDbEntity
  8
RACCORDO
100
AcDbLine
 62
7
  6
CONTINUOUS
 10
-26.8382917022
 20
-26.9371837299
 11
-26.8382917022
 21
-23.5183356467
  0
LINE
  5
408
100
AcDbEntity
  8
RACCORDO
100
AcDbLine
 62
7
  6
CONTINUOUS
 10
-54.3753742606
 20
-65.1574330257
 11
-54.3482564078
 21
-65.1031807905
  0
LINE
  5
409
100
AcDbEntity
  8
DRAFT
100
AcDbLine
 62
7
  6
CONTINUOUS
 10
-37.5099570349
 20
-20.0249957022
 11
-37.5313787251
 21
-20.0464173923
  0
LINE
  5
40A
100
AcDbEntity
  8
RACCORDO
100
AcDbLine
 62
253
  6
CONTINUOUS
 10
-70.7313787251
 20
-54.5383253205
 11
-70.4339172691
 21
-54.2408638645
  0
LINE
  5
40B
100
AcDbEntity
  8
RACCORDO
100
AcDbLine
 62
253
  6
CONTINUOUS
 10
-70.4325203156
 20
-54.8371837299
 11
-70.1350588596
 21
-54.539722274
  0
LINE
  5
40C
100
AcDbEntity
  8
DRAFT
100
AcDbLine
 62
7
  6
CONTINUOUS
 10
5.6186212749
 20
18.6128162701
 11
5.590513108
 21
18.5847081031
  0
LINE
  5
40D
100
AcDbEntity
  8
DRAFT
100
AcDbLine
 62
7
  6
CONTINUOUS
 10
-67.0313787251
 20
-6.8871837299
 11
-68.1191601796
 21
-6.8871837299
  0
LINE
  5
40E
100
AcDbEntity
  8
DRAFT
100
AcDbLine
 62
7
  6
CONTINUOUS
 10
-61.9406123874
 20
4.9035826077
 11
-61.9580674524
 21
4.9108127323
  0
LINE
  5
40F
100
AcDbEntity
  8
DRAFT
100
AcDbLine
 62
7
  6
CONTINUOUS
 10
-20.7528004152
 20
-20.0249957022
 11
-20.731378725
 21
-20.0464173923
  0
LINE
  5
410
100
AcDbEntity
  8
ASSI
100
AcDbLine
 62
7
  6
CONTINUOUS
 10
-46.9813787251
 20
7.5128162701
 11
-47.0791568796
 21
7.6105944246
  0
LINE
  5
411
100
AcDbEntity
  8
DRAFT
100
AcDbLine
 62
7
  6
CONTINUOUS
 10
1.5686212749
 20
-40.2871837299
 11
1.4927136803
 21
-40.2112761353
  0
LINE
  5
412
100
AcDbEntity
  8
RACCORDO
100
AcDbLine
 62
253
  6
CONTINUOUS
 10
-70.7313787251
 20
33.2639578606
 11
-70.4339172691
 21
32.9664964046
  0
LINE
  5
413
100
AcDbEntity
  8
RACCORDO
100
AcDbLine
 62
253
  6
CONTINUOUS
 10
-70.4325203156
 20
33.5628162701
 11
-70.1350588596
 21
33.2653548141
  0
LINE
  5
414
100
AcDbEntity
  8
RACCORDO
100
AcDbLine
 62
7
  6
CONTINUOUS
 10
-8.3430058699
 20
-48.0816909456
 11
-8.3753742606
 21
-48.0169344342
  0
LINE
  5
415
100
AcDbEntity
  8
DRAFT
100
AcDbLine
 62
7
  6
CONTINUOUS
 10
-20.7528004152
 20
-19.8871837299
 11
-20.7528004152
 21
-20.0249957022
  0
LINE
  5
416
100
AcDbEntity
  8
DRAFT
100
AcDbLine
 62
7
  6
CONTINUOUS
 10
-20.731378725
 20
-19.8871837299
 11
-20.731378725
 21
-20.0464173923
  0
LINE
  5
417
100
AcDbEntity
  8
DRAFT
100
AcDbLine
 62
7
  6
CONTINUOUS
 10
-20.5467492374
 20
-62.8468132175
 11
-20.5467492374
 21
-63.1468132175
  0
LINE
  5
418
100
AcDbEntity
  8
DRAFT
100
AcDbLine
 62
7
  6
CONTINUOUS
 10
-20.4767757254
 20
-62.9167867296
 11
-20.4767757254
 21
-63.2167867296
  0
LINE
  5
419
100
AcDbEntity
  8
DRAFT
100
AcDbLine
 62
7
  6
CONTINUOUS
 10
-28.5126948315
 20
-66.8190286883
 11
-28.6313787251
 21
-67.8871837299
  0
LINE
  5
41A
100
AcDbEntity
  8
DRAFT
100
AcDbLine
 62
7
  6
CONTINUOUS
 10
3.6746530169
 20
41.7121243999
 11
3.7249836126
 21
41.8128162701
  0
LINE
  5
41B
100
AcDbEntity
  8
DRAFT
100
AcDbLine
 62
7
  6
CONTINUOUS
 10
3.6746530169
 20
36.7121243999
 11
3.7249836126
 21
36.8128162701
  0
LINE
  5
41C
100
AcDbEntity
  8
DRAFT
100
AcDbLine
 62
7
  6
CONTINUOUS
 10
-68.1017051147
 20
-57.0074410079
 11
-68.1313787251
 21
-57.0371837299
  0
LINE
  5
41D
100
AcDbEntity
  8
DRAFT
100
AcDbLine
 62
7
  6
CONTINUOUS
 10
7.3686212749
 20
18.0628162701
 11
7.3564027295
 21
18.0505977246
  0
LINE
  5
41E
100
AcDbEntity
  8
DRAFT
100
AcDbLine
 62
7
  6
CONTINUOUS
 10
-54.3813787251
 20
-44.0121837299
 11
-54.4223981276
 21
-44.0532031325
  0
LINE
  5
41F
100
AcDbEntity
  8
DRAFT
100
AcDbLine
 62
7
  6
CONTINUOUS
 10
8.3564027295
 20
18.0505977246
 11
8.3686212749
 21
18.0628162701
  0
LINE
  5
420
100
AcDbEntity
  8
DRAFT
100
AcDbLine
 62
7
  6
CONTINUOUS
 10
-48.6313787251
 20
-38.9871837299
 11
-48.5298140345
 21
-38.8856190393
  0
LINE
  5
421
100
AcDbEntity
  8
0
100
AcDbLine
 62
7
  6
CONTINUOUS
 10
-2.0313787251
 20
7.5128162701
 11
-1.9185151521
 21
7.625679843
  0
LINE
  5
422
100
AcDbEntity
  8
DRAFT
100
AcDbLine
 62
7
  6
CONTINUOUS
 10
-48.6313787251
 20
-40.2871837299
 11
-48.5298140345
 21
-40.1856190393
  0
LINE
  5
423
100
AcDbEntity
  8
DRAFT
100
AcDbLine
 62
7
  6
CONTINUOUS
 10
-55.6313787251
 20
-49.9121837299
 11
-55.7178466608
 21
-49.9986516657
  0
LINE
  5
424
100
AcDbEntity
  8
DRAFT
100
AcDbLine
 62
7
  6
CONTINUOUS
 10
-66.6313787251
 20
-61.3871837299
 11
-66.8421899771
 21
-61.597994982
  0
LINE
  5
425
100
AcDbEntity
  8
DRAFT
100
AcDbLine
 62
7
  6
CONTINUOUS
 10
-8.4223981276
 20
-23.1711643274
 11
-8.3813787251
 21
-23.2121837299
  0
LINE
  5
426
100
AcDbEntity
  8
DRAFT
100
AcDbLine
 62
7
  6
CONTINUOUS
 10
-2.6313787251
 20
-28.2371837299
 11
-2.5449107893
 21
-28.3236516657
  0
LINE
  5
427
100
AcDbEntity
  8
DRAFT
100
AcDbLine
 62
7
  6
CONTINUOUS
 10
-2.6313787251
 20
-26.9371837299
 11
-2.5449107893
 21
-27.0236516657
  0
LINE
  5
428
100
AcDbEntity
  8
DRAFT
100
AcDbLine
 62
7
  6
CONTINUOUS
 10
-8.2547934309
 20
-20.0464173923
 11
-8.2696091268
 21
-20.0316016964
  0
LINE
  5
429
100
AcDbEntity
  8
DRAFT
100
AcDbLine
 62
7
  6
CONTINUOUS
 10
-68.1017051147
 20
35.733073548
 11
-68.1313787251
 21
35.7628162701
  0
LINE
  5
42A
100
AcDbEntity
  8
RACCORDO
100
AcDbLine
 62
7
  6
CONTINUOUS
 10
-3.9145010423
 20
-42.1281807905
 11
-3.8873831895
 21
-42.1824330257
  0
LINE
  5
42B
100
AcDbEntity
  8
DRAFT
100
AcDbLine
 62
7
  6
CONTINUOUS
 10
-20.141851764
 20
-65.6371837299
 11
-20.141851764
 21
-64.964210691
  0
LINE
  5
42C
100
AcDbEntity
  8
DRAFT
100
AcDbLine
 62
7
  6
CONTINUOUS
 10
-20.1191601796
 20
-67.8749651845
 11
-20.1191601796
 21
-65.6371837299
  0
LINE
  5
42D
100
AcDbEntity
  8
DRAFT
100
AcDbLine
 62
7
  6
CONTINUOUS
 10
-19.531378725
 20
-19.8871837299
 11
-19.531378725
 21
-20.0464173923
  0
LINE
  5
42E
100
AcDbEntity
  8
DRAFT
100
AcDbLine
 62
7
  6
CONTINUOUS
 10
-19.5103616181
 20
-19.8871837299
 11
-19.5103616181
 21
-20.0254002854
  0
LINE
  5
42F
100
AcDbEntity
  8
DRAFT
100
AcDbLine
 62
7
  6
CONTINUOUS
 10
3.6746530169
 20
31.7121243999
 11
3.7249836126
 21
31.8128162701
  0
LINE
  5
430
100
AcDbEntity
  8
DRAFT
100
AcDbLine
 62
7
  6
CONTINUOUS
 10
3.6746530169
 20
26.7121243999
 11
3.7249836126
 21
26.8128162701
  0
LINE
  5
431
100
AcDbEntity
  8
DRAFT
100
AcDbLine
 62
7
  6
CONTINUOUS
 10
-55.6313787251
 20
-51.2121837299
 11
-55.7178466608
 21
-51.2986516657
  0
LINE
  5
432
100
AcDbEntity
  8
RACCORDO
100
AcDbLine
 62
253
  6
CONTINUOUS
 10
-27.0375306419
 20
-23.3190967071
 11
-27.2300057016
 21
-23.5115717669
  0
LINE
  5
433
100
AcDbEntity
  8
DRAFT
100
AcDbLine
 62
7
  6
CONTINUOUS
 10
-49.8403593225
 20
-46.1461643274
 11
-49.8813787251
 21
-46.1871837299
  0
LINE
  5
434
100
AcDbEntity
  8
RACCORDO
100
AcDbLine
 62
253
  6
CONTINUOUS
 10
-26.8382917022
 20
-23.5183356467
 11
-27.030766762
 21
-23.7108107065
  0
LINE
  5
435
100
AcDbEntity
  8
RACCORDO
100
AcDbLine
 62
253
  6
CONTINUOUS
 10
-68.1017051147
 20
-67.357586272
 11
-68.1313787251
 21
-67.3872598824
  0
LINE
  5
436
100
AcDbEntity
  8
RACCORDO
100
AcDbLine
 62
253
  6
CONTINUOUS
 10
-67.6017812671
 20
-67.8575101196
 11
-67.6314548775
 21
-67.8871837299
  0
LINE
  5
437
100
AcDbEntity
  8
DRAFT
100
AcDbLine
 62
7
  6
CONTINUOUS
 10
-19.5103616181
 20
-20.0254002854
 11
-19.531378725
 21
-20.0464173923
  0
LINE
  5
438
100
AcDbEntity
  8
DRAFT
100
AcDbLine
 62
7
  6
CONTINUOUS
 10
-27.030766762
 20
-25.0246837299
 11
-27.1313787251
 21
-25.0648426149
  0
LINE
  5
439
100
AcDbEntity
  8
RACCORDO
100
AcDbLine
 62
253
  6
CONTINUOUS
 10
-59.8474129089
 20
3.8097524015
 11
-60.1271732659
 21
3.8097524015
  0
LINE
  5
43A
100
AcDbEntity
  8
RACCORDO
100
AcDbLine
 62
253
  6
CONTINUOUS
 10
-59.8474129089
 20
3.8097524015
 11
-59.6356081303
 21
3.8085868648
  0
LINE
  5
43B
100
AcDbEntity
  8
DRAFT
100
AcDbLine
 62
7
  6
CONTINUOUS
 10
-66.6313787251
 20
40.1128162701
 11
-66.8421899771
 21
40.3236275221
  0
LINE
  5
43C
100
AcDbEntity
  8
DRAFT
100
AcDbLine
 62
7
  6
CONTINUOUS
 10
-46.2813787251
 20
21.8128162701
 11
-46.15218266
 21
21.683620205
  0
LINE
  5
43D
100
AcDbEntity
  8
DRAFT
100
AcDbLine
 62
7
  6
CONTINUOUS
 10
-46.9813787251
 20
22.5128162701
 11
-47.1093617122
 21
22.6407992572
  0
LINE
  5
43E
100
AcDbEntity
  8
RACCORDO
100
AcDbLine
 62
253
  6
CONTINUOUS
 10
-68.1313787251
 20
46.1128924225
 11
-68.1017051147
 21
46.0832188121
  0
LINE
  5
43F
100
AcDbEntity
  8
RACCORDO
100
AcDbLine
 62
253
  6
CONTINUOUS
 10
-67.6314548775
 20
46.6128162701
 11
-67.6017812671
 21
46.5831426597
  0
LINE
  5
440
100
AcDbEntity
  8
RACCORDO
100
AcDbLine
 62
7
  6
CONTINUOUS
 10
-8.3430058699
 20
-25.1066909456
 11
-8.3753742606
 21
-25.0419344342
  0
LINE
  5
441
100
AcDbEntity
  8
DRAFT
100
AcDbLine
 62
7
  6
CONTINUOUS
 10
-14.1435972705
 20
-67.8749651845
 11
-14.1435972705
 21
-65.6371837299
  0
LINE
  5
442
100
AcDbEntity
  8
DRAFT
100
AcDbLine
 62
7
  6
CONTINUOUS
 10
-14.1209056861
 20
-64.964210691
 11
-14.1209056861
 21
-65.6371837299
  0
LINE
  5
443
100
AcDbEntity
  8
DRAFT
100
AcDbLine
 62
7
  6
CONTINUOUS
 10
-13.7859817247
 20
-63.2167867296
 11
-13.7859817247
 21
-62.9167867296
  0
LINE
  5
444
100
AcDbEntity
  8
DRAFT
100
AcDbLine
 62
7
  6
CONTINUOUS
 10
-13.7234753535
 20
-62.8542803584
 11
-13.7234753535
 21
-63.1542803584
  0
LINE
  5
445
100
AcDbEntity
  8
DRAFT
100
AcDbLine
 62
7
  6
CONTINUOUS
 10
-12.1105747901
 20
31.683620205
 11
-12.1105747901
 21
27.6420123351
  0
LINE
  5
446
100
AcDbEntity
  8
DRAFT
100
AcDbLine
 62
7
  6
CONTINUOUS
 10
-12.1105747901
 20
26.683620205
 11
-12.1105747901
 21
22.6420123351
  0
LINE
  5
447
100
AcDbEntity
  8
DRAFT
100
AcDbLine
 62
7
  6
CONTINUOUS
 10
-12.1105747901
 20
21.683620205
 11
-12.1105747901
 21
18.7874507022
  0
LINE
  5
448
100
AcDbEntity
  8
ASSI
100
AcDbLine
 62
7
  6
CONTINUOUS
 10
-12.0791568796
 20
7.6105944246
 11
-12.0791568796
 21
7.8128162701
  0
LINE
  5
449
100
AcDbEntity
  8
DRAFT
100
AcDbLine
 62
7
  6
CONTINUOUS
 10
-11.9813787251
 20
31.5962256055
 11
-11.9813787251
 21
27.5128162701
  0
LINE
  5
44A
100
AcDbEntity
  8
DRAFT
100
AcDbLine
 62
7
  6
CONTINUOUS
 10
-11.9813787251
 20
26.8128162701
 11
-11.9813787251
 21
22.5128162701
  0
LINE
  5
44B
100
AcDbEntity
  8
DRAFT
100
AcDbLine
 62
7
  6
CONTINUOUS
 10
-11.9813787251
 20
21.8128162701
 11
-11.9813787251
 21
19.1294069346
  0
LINE
  5
44C
100
AcDbEntity
  8
0
100
AcDbLine
 62
7
  6
CONTINUOUS
 10
-11.9813787251
 20
7.8128162701
 11
-11.9813787251
 21
7.5128162701
  0
LINE
  5
44D
100
AcDbEntity
  8
0
100
AcDbLine
 62
7
  6
CONTINUOUS
 10
-11.2813787251
 20
7.5128162701
 11
-11.2813787251
 21
7.8128162701
  0
LINE
  5
44E
100
AcDbEntity
  8
DRAFT
100
AcDbLine
 62
7
  6
CONTINUOUS
 10
-11.2813787251
 20
21.5777036976
 11
-11.2813787251
 21
21.8128162701
  0
LINE
  5
44F
100
AcDbEntity
  8
DRAFT
100
AcDbLine
 62
7
  6
CONTINUOUS
 10
-11.2813787251
 20
22.5128162701
 11
-11.2813787251
 21
26.8128162701
  0
LINE
  5
450
100
AcDbEntity
  8
DRAFT
100
AcDbLine
 62
7
  6
CONTINUOUS
 10
-11.2813787251
 20
27.5128162701
 11
-11.2813787251
 21
29.1479288425
  0
LINE
  5
451
100
AcDbEntity
  8
ASSI
100
AcDbLine
 62
7
  6
CONTINUOUS
 10
-11.1836005705
 20
7.8128162701
 11
-11.1836005705
 21
7.6105944246
  0
LINE
  5
452
100
AcDbEntity
  8
DRAFT
100
AcDbLine
 62
7
  6
CONTINUOUS
 10
-11.153395738
 20
28.4876294743
 11
-11.153395738
 21
27.6407992572
  0
LINE
  5
453
100
AcDbEntity
  8
DRAFT
100
AcDbLine
 62
7
  6
CONTINUOUS
 10
-11.153395738
 20
26.684833283
 11
-11.153395738
 21
22.6407992572
  0
LINE
  5
454
100
AcDbEntity
  8
DRAFT
100
AcDbLine
 62
7
  6
CONTINUOUS
 10
3.6746530169
 20
21.7121243999
 11
3.7249836126
 21
21.8128162701
  0
LINE
  5
455
100
AcDbEntity
  8
DRAFT
100
AcDbLine
 62
7
  6
CONTINUOUS
 10
3.6746530169
 20
16.7121243999
 11
3.7249836126
 21
16.8128162701
  0
LINE
  5
456
100
AcDbEntity
  8
DRAFT
100
AcDbLine
 62
7
  6
CONTINUOUS
 10
-59.7554711304
 20
-63.1862761353
 11
-59.7859817247
 21
-63.2167867296
  0
LINE
  5
457
100
AcDbEntity
  8
DRAFT
100
AcDbLine
 62
7
  6
CONTINUOUS
 10
-26.8382917022
 20
-26.9371837299
 11
-27.1313787251
 21
-27.0541683077
  0
LINE
  5
458
100
AcDbEntity
  8
RACCORDO
100
AcDbLine
 62
7
  6
CONTINUOUS
 10
-59.8325203156
 20
4.1128162701
 11
-59.3313787251
 21
4.1128162701
  0
LINE
  5
459
100
AcDbEntity
  8
0
100
AcDbLine
 62
7
  6
CONTINUOUS
 10
3.5686212749
 20
6.6128162701
 11
-56.8313787251
 21
6.6128162701
  0
LINE
  5
45A
100
AcDbEntity
  8
DRAFT
100
AcDbLine
 62
7
  6
CONTINUOUS
 10
3.6778549373
 20
6.7185301924
 11
-60.1256648027
 21
6.7185301924
  0
LINE
  5
45B
100
AcDbEntity
  8
DRAFT
100
AcDbLine
 62
7
  6
CONTINUOUS
 10
-61.9580674524
 20
6.7534509619
 11
-60.1154292227
 21
6.7534509619
  0
LINE
  5
45C
100
AcDbEntity
  8
DRAFT
100
AcDbLine
 62
7
  6
CONTINUOUS
 10
3.7337111451
 20
6.8302766548
 11
-61.9964685952
 21
6.8302766548
  0
LINE
  5
45D
100
AcDbEntity
  8
DRAFT
100
AcDbLine
 62
7
  6
CONTINUOUS
 10
3.7337111451
 20
7.4953558853
 11
-61.9964685952
 21
7.4953558853
  0
LINE
  5
45E
100
AcDbEntity
  8
0
100
AcDbLine
 62
7
  6
CONTINUOUS
 10
-2.0313787251
 20
7.5128162701
 11
-2.7313787251
 21
7.5128162701
  0
LINE
  5
45F
100
AcDbEntity
  8
0
100
AcDbLine
 62
7
  6
CONTINUOUS
 10
-11.2813787251
 20
7.5128162701
 11
-11.9813787251
 21
7.5128162701
  0
LINE
  5
460
100
AcDbEntity
  8
0
100
AcDbLine
 62
7
  6
CONTINUOUS
 10
-46.2813787251
 20
7.5128162701
 11
-46.9813787251
 21
7.5128162701
  0
LINE
  5
461
100
AcDbEntity
  8
0
100
AcDbLine
 62
7
  6
CONTINUOUS
 10
-55.5313787251
 20
7.5128162701
 11
-56.2313787251
 21
7.5128162701
  0
LINE
  5
462
100
AcDbEntity
  8
ASSI
100
AcDbLine
 62
7
  6
CONTINUOUS
 10
-53.6248452535
 20
7.6105944246
 11
-47.0791568796
 21
7.6105944246
  0
LINE
  5
463
100
AcDbEntity
  8
ASSI
100
AcDbLine
 62
7
  6
CONTINUOUS
 10
-46.1836005705
 20
7.6105944246
 11
-45.6379121966
 21
7.6105944246
  0
LINE
  5
464
100
AcDbEntity
  8
ASSI
100
AcDbLine
 62
7
  6
CONTINUOUS
 10
-12.6248452535
 20
7.6105944246
 11
-12.0791568796
 21
7.6105944246
  0
LINE
  5
465
100
AcDbEntity
  8
ASSI
100
AcDbLine
 62
7
  6
CONTINUOUS
 10
-11.1836005705
 20
7.6105944246
 11
-4.6379121966
 21
7.6105944246
  0
LINE
  5
466
100
AcDbEntity
  8
ASSI
100
AcDbLine
 62
7
  6
CONTINUOUS
 10
3.6186212749
 20
7.8128162701
 11
-61.8813787251
 21
7.8128162701
  0
LINE
  5
467
100
AcDbEntity
  8
RACCORDO
100
AcDbLine
 62
253
  6
CONTINUOUS
 10
-59.8283148565
 20
4.1086108109
 11
-59.3382824396
 21
4.1059125556
  0
LINE
  5
468
100
AcDbEntity
  8
DRAFT
100
AcDbLine
 62
7
  6
CONTINUOUS
 10
-46.2813787251
 20
26.8128162701
 11
-46.15218266
 21
26.683620205
  0
LINE
  5
469
100
AcDbEntity
  8
DRAFT
100
AcDbLine
 62
7
  6
CONTINUOUS
 10
-46.9813787251
 20
27.5128162701
 11
-47.1093617122
 21
27.6407992572
  0
LINE
  5
46A
100
AcDbEntity
  8
DRAFT
100
AcDbLine
 62
7
  6
CONTINUOUS
 10
1.8686212749
 20
-20.0464173923
 11
1.8633244265
 21
-20.0411205438
  0
LINE
  5
46B
100
AcDbEntity
  8
DRAFT
100
AcDbLine
 62
7
  6
CONTINUOUS
 10
-62.0209056861
 20
44.9523432311
 11
-61.937410467
 21
44.868848012
  0
LINE
  5
46C
100
AcDbEntity
  8
DRAFT
100
AcDbLine
 62
7
  6
CONTINUOUS
 10
3.6778549373
 20
-20.0464173923
 11
3.758148236
 21
-20.126710691
  0
LINE
  5
46D
100
AcDbEntity
  8
DRAFT
100
AcDbLine
 62
7
  6
CONTINUOUS
 10
-46.2219867583
 20
31.7534243033
 11
-46.15218266
 21
31.683620205
  0
LINE
  5
46E
100
AcDbEntity
  8
RACCORDO
100
AcDbLine
 62
7
  6
CONTINUOUS
 10
-8.3429987271
 20
-48.0817052357
 11
-8.3429530357
 21
-48.0820473989
  0
LINE
  5
46F
100
AcDbEntity
  8
DRAFT
100
AcDbLine
 62
7
  6
CONTINUOUS
 10
-9.7329434157
 20
-27.0387484205
 11
-9.7329434157
 21
-28.3387484205
  0
LINE
  5
470
100
AcDbEntity
  8
DRAFT
100
AcDbLine
 62
7
  6
CONTINUOUS
 10
-9.7329434157
 20
-38.8856190393
 11
-9.7329434157
 21
-40.1856190393
  0
LINE
  5
471
100
AcDbEntity
  8
DRAFT
100
AcDbLine
 62
7
  6
CONTINUOUS
 10
-9.7329434157
 20
-50.0137484205
 11
-9.7329434157
 21
-51.3137484205
  0
LINE
  5
472
100
AcDbEntity
  8
DRAFT
100
AcDbLine
 62
7
  6
CONTINUOUS
 10
-9.7329434157
 20
-61.8606190393
 11
-9.7329434157
 21
-63.1606190393
  0
LINE
  5
473
100
AcDbEntity
  8
DRAFT
100
AcDbLine
 62
7
  6
CONTINUOUS
 10
-9.6767757254
 20
-63.2167867296
 11
-9.6767757254
 21
-61.9167867296
  0
LINE
  5
474
100
AcDbEntity
  8
DRAFT
100
AcDbLine
 62
7
  6
CONTINUOUS
 10
-9.6313787251
 20
-26.9371837299
 11
-9.6313787251
 21
-28.2371837299
  0
LINE
  5
475
100
AcDbEntity
  8
DRAFT
100
AcDbLine
 62
7
  6
CONTINUOUS
 10
-9.6313787251
 20
-38.9871837299
 11
-9.6313787251
 21
-40.2871837299
  0
LINE
  5
476
100
AcDbEntity
  8
DRAFT
100
AcDbLine
 62
7
  6
CONTINUOUS
 10
-9.6313787251
 20
-49.9121837299
 11
-9.6313787251
 21
-51.2121837299
  0
LINE
  5
477
100
AcDbEntity
  8
DRAFT
100
AcDbLine
 62
7
  6
CONTINUOUS
 10
-8.4223981276
 20
-67.0282031325
 11
-8.4223981276
 21
-65.6371837299
  0
LINE
  5
478
100
AcDbEntity
  8
DRAFT
100
AcDbLine
 62
7
  6
CONTINUOUS
 10
-8.4223981276
 20
-49.3371837299
 11
-8.4223981276
 21
-46.1461643274
  0
LINE
  5
479
100
AcDbEntity
  8
DRAFT
100
AcDbLine
 62
7
  6
CONTINUOUS
 10
-8.4223981276
 20
-44.0532031325
 11
-8.4223981276
 21
-40.8621837299
  0
LINE
  5
47A
100
AcDbEntity
  8
DRAFT
100
AcDbLine
 62
7
  6
CONTINUOUS
 10
-8.4223981276
 20
-26.3621837299
 11
-8.4223981276
 21
-23.1711643274
  0
LINE
  5
47B
100
AcDbEntity
  8
DRAFT
100
AcDbLine
 62
7
  6
CONTINUOUS
 10
-8.3997065432
 20
-65.6371837299
 11
-8.3997065432
 21
-63.8371837299
  0
LINE
  5
47C
100
AcDbEntity
  8
DRAFT
100
AcDbLine
 62
7
  6
CONTINUOUS
 10
-8.3813787251
 20
-23.2121837299
 11
-8.3813787251
 21
-23.9121837299
  0
LINE
  5
47D
100
AcDbEntity
  8
DRAFT
100
AcDbLine
 62
7
  6
CONTINUOUS
 10
-8.3813787251
 20
-43.3121837299
 11
-8.3813787251
 21
-44.0121837299
  0
LINE
  5
47E
100
AcDbEntity
  8
DRAFT
100
AcDbLine
 62
7
  6
CONTINUOUS
 10
-8.3813787251
 20
-46.1871837299
 11
-8.3813787251
 21
-46.8871837299
  0
LINE
  5
47F
100
AcDbEntity
  8
DRAFT
100
AcDbLine
 62
7
  6
CONTINUOUS
 10
-8.3813787251
 20
-66.2871837299
 11
-8.3813787251
 21
-66.9871837299
  0
LINE
  5
480
100
AcDbEntity
  8
DRAFT
100
AcDbLine
 62
7
  6
CONTINUOUS
 10
-8.3753742606
 20
-23.9121837299
 11
-8.3753742606
 21
-25.0419344342
  0
LINE
  5
481
100
AcDbEntity
  8
DRAFT
100
AcDbLine
 62
7
  6
CONTINUOUS
 10
-8.3753742606
 20
-42.1824330257
 11
-8.3753742606
 21
-43.3121837299
  0
LINE
  5
482
100
AcDbEntity
  8
DRAFT
100
AcDbLine
 62
7
  6
CONTINUOUS
 10
-8.3753742606
 20
-46.8871837299
 11
-8.3753742606
 21
-48.0169344342
  0
LINE
  5
483
100
AcDbEntity
  8
DRAFT
100
AcDbLine
 62
7
  6
CONTINUOUS
 10
-8.3753742606
 20
-65.1574330257
 11
-8.3753742606
 21
-66.2871837299
  0
LINE
  5
484
100
AcDbEntity
  8
RACCORDO
100
AcDbLine
 62
7
  6
CONTINUOUS
 10
-8.3429530356
 20
-25.1069412169
 11
-8.3429530356
 21
-26.3626157408
  0
LINE
  5
485
100
AcDbEntity
  8
RACCORDO
100
AcDbLine
 62
7
  6
CONTINUOUS
 10
-8.3429530356
 20
-40.8617517191
 11
-8.3429530356
 21
-42.1174262448
  0
LINE
  5
486
100
AcDbEntity
  8
RACCORDO
100
AcDbLine
 62
7
  6
CONTINUOUS
 10
-8.3429530356
 20
-48.0819412169
 11
-8.3429530356
 21
-49.3376157408
  0
LINE
  5
487
100
AcDbEntity
  8
RACCORDO
100
AcDbLine
 62
7
  6
CONTINUOUS
 10
-8.3429530356
 20
-63.8367517191
 11
-8.3429530356
 21
-65.0924262405
  0
LINE
  5
488
100
AcDbEntity
  8
DRAFT
100
AcDbLine
 62
7
  6
CONTINUOUS
 10
-8.2696091268
 20
-19.8871837299
 11
-8.2696091268
 21
-20.0316016964
  0
LINE
  5
489
100
AcDbEntity
  8
DRAFT
100
AcDbLine
 62
7
  6
CONTINUOUS
 10
-8.2547934309
 20
-19.8871837299
 11
-8.2547934309
 21
-20.0464173923
  0
LINE
  5
48A
100
AcDbEntity
  8
DRAFT
100
AcDbLine
 62
7
  6
CONTINUOUS
 10
-6.1313787251
 20
-19.8871837299
 11
-6.1313787251
 21
-20.0464173923
  0
LINE
  5
48B
100
AcDbEntity
  8
DRAFT
100
AcDbLine
 62
7
  6
CONTINUOUS
 10
-6.1182721349
 20
-19.8871837299
 11
-6.1182721349
 21
-20.0333108021
  0
LINE
  5
48C
100
AcDbEntity
  8
DRAFT
100
AcDbLine
 62
7
  6
CONTINUOUS
 10
3.6746530169
 20
11.7121243999
 11
3.7249836126
 21
11.8128162701
  0
LINE
  5
48D
100
AcDbEntity
  8
DRAFT
100
AcDbLine
 62
7
  6
CONTINUOUS
 10
3.7337111451
 20
6.8302766548
 11
3.6778549373
 21
6.7185301924
  0
LINE
  5
48E
100
AcDbEntity
  8
RACCORDO
100
AcDbLine
 62
253
  6
CONTINUOUS
 10
-31.4244657479
 20
-43.7060318131
 11
-31.2319906881
 21
-43.5135567534
  0
LINE
  5
48F
100
AcDbEntity
  8
DRAFT
100
AcDbLine
 62
7
  6
CONTINUOUS
 10
-54.3813787251
 20
-66.9871837299
 11
-54.4223981276
 21
-67.0282031325
  0
LINE
  5
490
100
AcDbEntity
  8
RACCORDO
100
AcDbLine
 62
253
  6
CONTINUOUS
 10
-31.2252268082
 20
-43.9052707528
 11
-31.0327517485
 21
-43.712795693
  0
LINE
  5
491
100
AcDbEntity
  8
DRAFT
100
AcDbLine
 62
7
  6
CONTINUOUS
 10
-48.5859817247
 20
-61.9167867296
 11
-48.5298140345
 21
-61.8606190393
  0
LINE
  5
492
100
AcDbEntity
  8
DRAFT
100
AcDbLine
 62
7
  6
CONTINUOUS
 10
-6.1182721349
 20
-20.0333108021
 11
-6.1313787251
 21
-20.0464173923
  0
LINE
  5
493
100
AcDbEntity
  8
DRAFT
100
AcDbLine
 62
7
  6
CONTINUOUS
 10
-48.5859817247
 20
-63.2167867296
 11
-48.5298140345
 21
-63.1606190393
  0
LINE
  5
494
100
AcDbEntity
  8
DRAFT
100
AcDbLine
 62
7
  6
CONTINUOUS
 10
3.7249836126
 20
11.8128162701
 11
3.6186212749
 21
11.8128162701
  0
LINE
  5
495
100
AcDbEntity
  8
DRAFT
100
AcDbLine
 62
7
  6
CONTINUOUS
 10
-61.8813787251
 20
11.8128162701
 11
-61.9877410627
 21
11.8128162701
  0
LINE
  5
496
100
AcDbEntity
  8
DRAFT
100
AcDbLine
 62
7
  6
CONTINUOUS
 10
3.6186212749
 20
12.5128162701
 11
3.7249836126
 21
12.5128162701
  0
LINE
  5
497
100
AcDbEntity
  8
RACCORDO
100
AcDbLine
 62
7
  6
CONTINUOUS
 10
-8.3429987271
 20
-25.1067052357
 11
-8.3429530357
 21
-25.1070473989
  0
LINE
  5
498
100
AcDbEntity
  8
DRAFT
100
AcDbLine
 62
7
  6
CONTINUOUS
 10
0.1186212749
 20
-65.6371837299
 11
0.3686212749
 21
-67.8871837299
  0
LWPOLYLINE
  5
499
100
AcDbEntity
  8
DRAFT
100
AcDbPolyline
 62
7
  6
CONTINUOUS
 90
52
 70
0
 10
-3.9397120481
 20
17.3628162701
 10
-3.9366849676
 20
17.2665071583
 10
-3.9278670749
 20
17.171246015
 10
-3.9132583866
 20
17.07703284
 10
-3.8927507991
 20
16.9834932617
 10
-3.8664524827
 20
16.8910016517
 10
-3.8346878791
 20
16.8006811255
 10
-3.7974281038
 20
16.7126224566
 10
-3.7547021652
 20
16.6267348715
 10
-3.7069213507
 20
16.5438691646
 10
-3.6539671653
 20
16.4639709935
 10
-3.5959582738
 20
16.3870947007
 10
-3.5336616957
 20
16.3142541078
 10
-3.467125475
 20
16.2455923858
 10
-3.3963017521
 20
16.1809663637
 10
-3.3218136726
 20
16.1209603507
 10
-3.2434830175
 20
16.0655298706
 10
-3.1614881994
 20
16.0147193995
 10
-3.0769872724
 20
15.9692466752
 10
-2.9901230221
 20
15.9292537484
 10
-2.9007528101
 20
15.8945985684
 10
-2.8096065045
 20
15.8655727201
 10
-2.7164623854
 20
15.8421862195
 10
-2.6215422955
 20
15.8244290507
 10
-2.5262413809
 20
15.8125627507
 10
-2.4307712172
 20
15.8066743572
 10
-2.3349202566
 20
15.8066768325
 10
-2.23944889
 20
15.8125706009
 10
-2.1441454181
 20
15.8244426967
 10
-2.0492215271
 20
15.8422060855
 10
-1.9560726146
 20
15.8656000881
 10
-1.8649193501
 20
15.8946353455
 10
-1.7755409511
 20
15.9293012166
 10
-1.6886705685
 20
15.9693050983
 10
-1.6041666479
 20
16.0147887049
 10
-1.5221705994
 20
16.065610322
 10
-1.4438399669
 20
16.1210522041
 10
-1.3693519149
 20
16.1810710973
 10
-1.2985290789
 20
16.2457102555
 10
-1.2319971659
 20
16.3143816939
 10
-1.1697099088
 20
16.3872267758
 10
-1.1117133785
 20
16.4641041379
 10
-1.0587717665
 20
16.5440017064
 10
-1.0110025537
 20
16.6268666051
 10
-0.9682880741
 20
16.7127517102
 10
-0.9310397905
 20
16.8008035759
 10
-0.8992872845
 20
16.8911115566
 10
-0.873000837
 20
16.9835862978
 10
-0.8525029667
 20
17.0771062906
 10
-0.8379011537
 20
17.1712976988
 10
-0.8290878432
 20
17.2665343586
 10
-0.8260630165
 20
17.3628162701
  0
LINE
  5
49A
100
AcDbEntity
  8
ASSI
100
AcDbLine
 62
7
  6
CONTINUOUS
 10
-4.8813787251
 20
-30.6121837299
 11
-4.8813787251
 21
-36.6121837299
  0
LINE
  5
49B
100
AcDbEntity
  8
0
100
AcDbLine
 62
7
  6
CONTINUOUS
 10
-4.8813787251
 20
-53.5871837299
 11
-4.8813787251
 21
-59.5871837299
  0
LINE
  5
49C
100
AcDbEntity
  8
RACCORDO
100
AcDbLine
 62
7
  6
CONTINUOUS
 10
-3.9145467338
 20
-65.1029979551
 11
-3.9145467338
 21
-63.8371837299
  0
LINE
  5
49D
100
AcDbEntity
  8
RACCORDO
100
AcDbLine
 62
7
  6
CONTINUOUS
 10
-3.9145467338
 20
-49.3371837299
 11
-3.9145467338
 21
-48.0713695048
  0
LINE
  5
49E
100
AcDbEntity
  8
RACCORDO
100
AcDbLine
 62
7
  6
CONTINUOUS
 10
-3.9145467338
 20
-42.1279979551
 11
-3.9145467338
 21
-40.8621837299
  0
LINE
  5
49F
100
AcDbEntity
  8
RACCORDO
100
AcDbLine
 62
7
  6
CONTINUOUS
 10
-3.9145467338
 20
-26.3621837299
 11
-3.9145467338
 21
-25.0963695048
  0
LINE
  5
4A0
100
AcDbEntity
  8
DRAFT
100
AcDbLine
 62
7
  6
CONTINUOUS
 10
-3.8873831895
 20
-66.2871837299
 11
-3.8873831895
 21
-65.1574330257
  0
LINE
  5
4A1
100
AcDbEntity
  8
DRAFT
100
AcDbLine
 62
7
  6
CONTINUOUS
 10
-3.8873831895
 20
-48.0169344342
 11
-3.8873831895
 21
-46.8871837299
  0
LINE
  5
4A2
100
AcDbEntity
  8
DRAFT
100
AcDbLine
 62
7
  6
CONTINUOUS
 10
-3.8873831895
 20
-43.3121837299
 11
-3.8873831895
 21
-42.1824330257
  0
LINE
  5
4A3
100
AcDbEntity
  8
DRAFT
100
AcDbLine
 62
7
  6
CONTINUOUS
 10
-3.8873831895
 20
-25.0419344342
 11
-3.8873831895
 21
-23.9121837299
  0
LINE
  5
4A4
100
AcDbEntity
  8
DRAFT
100
AcDbLine
 62
7
  6
CONTINUOUS
 10
-3.8813787251
 20
-23.2121837299
 11
-3.8813787251
 21
-23.9121837299
  0
LINE
  5
4A5
100
AcDbEntity
  8
DRAFT
100
AcDbLine
 62
7
  6
CONTINUOUS
 10
-3.8813787251
 20
-43.3121837299
 11
-3.8813787251
 21
-44.0121837299
  0
LINE
  5
4A6
100
AcDbEntity
  8
DRAFT
100
AcDbLine
 62
7
  6
CONTINUOUS
 10
-3.8813787251
 20
-46.1871837299
 11
-3.8813787251
 21
-46.8871837299
  0
LINE
  5
4A7
100
AcDbEntity
  8
DRAFT
100
AcDbLine
 62
7
  6
CONTINUOUS
 10
-3.8813787251
 20
-66.2871837299
 11
-3.8813787251
 21
-66.9871837299
  0
LINE
  5
4A8
100
AcDbEntity
  8
DRAFT
100
AcDbLine
 62
7
  6
CONTINUOUS
 10
-3.8630509069
 20
-65.6371837299
 11
-3.8630509069
 21
-63.8371837299
  0
LINE
  5
4A9
100
AcDbEntity
  8
DRAFT
100
AcDbLine
 62
7
  6
CONTINUOUS
 10
-3.8403593225
 20
-67.0282031325
 11
-3.8403593225
 21
-65.6371837299
  0
LINE
  5
4AA
100
AcDbEntity
  8
DRAFT
100
AcDbLine
 62
7
  6
CONTINUOUS
 10
-3.8403593225
 20
-49.3371837299
 11
-3.8403593225
 21
-46.1461643274
  0
LINE
  5
4AB
100
AcDbEntity
  8
DRAFT
100
AcDbLine
 62
7
  6
CONTINUOUS
 10
-3.8403593225
 20
-44.0532031325
 11
-3.8403593225
 21
-40.8621837299
  0
LINE
  5
4AC
100
AcDbEntity
  8
DRAFT
100
AcDbLine
 62
7
  6
CONTINUOUS
 10
-3.8403593225
 20
-26.3621837299
 11
-3.8403593225
 21
-23.1711643274
  0
LINE
  5
4AD
100
AcDbEntity
  8
DRAFT
100
AcDbLine
 62
7
  6
CONTINUOUS
 10
-2.8460407141
 20
7.8128162701
 11
-2.8460407141
 21
7.6274782591
  0
LINE
  5
4AE
100
AcDbEntity
  8
0
100
AcDbLine
 62
7
  6
CONTINUOUS
 10
-2.7313787251
 20
7.8128162701
 11
-2.7313787251
 21
7.5128162701
  0
LINE
  5
4AF
100
AcDbEntity
  8
DRAFT
100
AcDbLine
 62
7
  6
CONTINUOUS
 10
-2.6313787251
 20
-51.2121837299
 11
-2.6313787251
 21
-49.9121837299
  0
LINE
  5
4B0
100
AcDbEntity
  8
DRAFT
100
AcDbLine
 62
7
  6
CONTINUOUS
 10
-2.6313787251
 20
-40.2871837299
 11
-2.6313787251
 21
-38.9871837299
  0
LINE
  5
4B1
100
AcDbEntity
  8
DRAFT
100
AcDbLine
 62
7
  6
CONTINUOUS
 10
-2.6313787251
 20
-28.2371837299
 11
-2.6313787251
 21
-26.9371837299
  0
LINE
  5
4B2
100
AcDbEntity
  8
DRAFT
100
AcDbLine
 62
7
  6
CONTINUOUS
 10
-2.5859817247
 20
-61.9167867296
 11
-2.5859817247
 21
-63.2167867296
  0
LINE
  5
4B3
100
AcDbEntity
  8
DRAFT
100
AcDbLine
 62
7
  6
CONTINUOUS
 10
-2.5449107893
 20
-27.0236516657
 11
-2.5449107893
 21
-28.3236516657
  0
LINE
  5
4B4
100
AcDbEntity
  8
DRAFT
100
AcDbLine
 62
7
  6
CONTINUOUS
 10
-2.5449107893
 20
-38.9007157942
 11
-2.5449107893
 21
-40.2007157942
  0
LINE
  5
4B5
100
AcDbEntity
  8
DRAFT
100
AcDbLine
 62
7
  6
CONTINUOUS
 10
-2.5449107893
 20
-49.9986516657
 11
-2.5449107893
 21
-51.2986516657
  0
LINE
  5
4B6
100
AcDbEntity
  8
DRAFT
100
AcDbLine
 62
7
  6
CONTINUOUS
 10
-2.5449107893
 20
-61.8757157942
 11
-2.5449107893
 21
-63.1757157942
  0
LINE
  5
4B7
100
AcDbEntity
  8
ASSI
100
AcDbLine
 62
7
  6
CONTINUOUS
 10
-2.3813787251
 20
-30.6121837299
 11
-2.3813787251
 21
-36.6121837299
  0
LINE
  5
4B8
100
AcDbEntity
  8
0
100
AcDbLine
 62
7
  6
CONTINUOUS
 10
-2.3813787251
 20
-53.5871837299
 11
-2.3813787251
 21
-59.5871837299
  0
LINE
  5
4B9
100
AcDbEntity
  8
0
100
AcDbLine
 62
7
  6
CONTINUOUS
 10
-2.0313787251
 20
7.5128162701
 11
-2.0313787251
 21
7.8128162701
  0
LINE
  5
4BA
100
AcDbEntity
  8
DRAFT
100
AcDbLine
 62
7
  6
CONTINUOUS
 10
-1.9185151521
 20
7.8128162701
 11
-1.9185151521
 21
7.625679843
  0
LINE
  5
4BB
100
AcDbEntity
  8
RACCORDO
100
AcDbLine
 62
7
  6
CONTINUOUS
 10
-8.3429987271
 20
-42.1176622242
 11
-8.3429530357
 21
-42.1173192528
  0
LINE
  5
4BC
100
AcDbEntity
  8
RACCORDO
100
AcDbLine
 62
7
  6
CONTINUOUS
 10
-8.3429987271
 20
-65.0926622242
 11
-8.3429530357
 21
-65.0923192488
  0
LINE
  5
4BD
100
AcDbEntity
  8
DRAFT
100
AcDbLine
 62
7
  6
CONTINUOUS
 10
-9.6313787251
 20
-26.9371837299
 11
-9.7329434157
 21
-27.0387484205
  0
LINE
  5
4BE
100
AcDbEntity
  8
DRAFT
100
AcDbLine
 62
7
  6
CONTINUOUS
 10
-9.6313787251
 20
-28.2371837299
 11
-9.7329434157
 21
-28.3387484205
  0
LINE
  5
4BF
100
AcDbEntity
  8
RACCORDO
100
AcDbLine
 62
253
  6
CONTINUOUS
 10
-27.0375306419
 20
-46.2940967071
 11
-27.2300057016
 21
-46.4865717669
  0
LINE
  5
4C0
100
AcDbEntity
  8
DRAFT
100
AcDbLine
 62
7
  6
CONTINUOUS
 10
-3.8403593225
 20
-23.1711643274
 11
-3.8813787251
 21
-23.2121837299
  0
LINE
  5
4C1
100
AcDbEntity
  8
RACCORDO
100
AcDbLine
 62
253
  6
CONTINUOUS
 10
-26.8382917022
 20
-46.4933356467
 11
-27.030766762
 21
-46.6858107065
  0
LINE
  5
4C2
100
AcDbEntity
  8
DRAFT
100
AcDbLine
 62
7
  6
CONTINUOUS
 10
-31.4244657479
 20
-40.2871837299
 11
-31.1313787251
 21
-40.1701991521
  0
LINE
  5
4C3
100
AcDbEntity
  8
DRAFT
100
AcDbLine
 62
7
  6
CONTINUOUS
 10
-31.2319906881
 20
-42.1996837299
 11
-31.1313787251
 21
-42.159524845
  0
LINE
  5
4C4
100
AcDbEntity
  8
RACCORDO
100
AcDbLine
 62
7
  6
CONTINUOUS
 10
-54.6313787251
 20
14.1628162701
 11
-58.8313787251
 21
14.1628162701
  0
LINE
  5
4C5
100
AcDbEntity
  8
DRAFT
100
AcDbLine
 62
7
  6
CONTINUOUS
 10
3.7249836126
 20
16.8128162701
 11
3.6186212749
 21
16.8128162701
  0
LINE
  5
4C6
100
AcDbEntity
  8
DRAFT
100
AcDbLine
 62
7
  6
CONTINUOUS
 10
-13.0119223782
 20
16.8128162701
 11
-17.651129411
 21
16.8128162701
  0
LINE
  5
4C7
100
AcDbEntity
  8
DRAFT
100
AcDbLine
 62
7
  6
CONTINUOUS
 10
-23.9505684342
 20
16.8128162701
 11
-34.3121890159
 21
16.8128162701
  0
LINE
  5
4C8
100
AcDbEntity
  8
DRAFT
100
AcDbLine
 62
7
  6
CONTINUOUS
 10
-40.6116280391
 20
16.8128162701
 11
-45.2508350719
 21
16.8128162701
  0
LINE
  5
4C9
100
AcDbEntity
  8
DRAFT
100
AcDbLine
 62
7
  6
CONTINUOUS
 10
-45.602865319
 20
17.5128162701
 11
-40.6274893224
 21
17.5128162701
  0
LINE
  5
4CA
100
AcDbEntity
  8
DRAFT
100
AcDbLine
 62
7
  6
CONTINUOUS
 10
-35.3256194158
 20
17.5128162701
 11
-22.9371380343
 21
17.5128162701
  0
LINE
  5
4CB
100
AcDbEntity
  8
DRAFT
100
AcDbLine
 62
7
  6
CONTINUOUS
 10
-17.6352681277
 20
17.5128162701
 11
-12.6598921311
 21
17.5128162701
  0
LINE
  5
4CC
100
AcDbEntity
  8
DRAFT
100
AcDbLine
 62
7
  6
CONTINUOUS
 10
3.6186212749
 20
17.5128162701
 11
3.7249836126
 21
17.5128162701
  0
LINE
  5
4CD
100
AcDbEntity
  8
DRAFT
100
AcDbLine
 62
7
  6
CONTINUOUS
 10
8.3564027295
 20
18.0505977246
 11
7.3564027295
 21
18.0505977246
  0
LINE
  5
4CE
100
AcDbEntity
  8
DRAFT
100
AcDbLine
 62
7
  6
CONTINUOUS
 10
8.3686212749
 20
18.0628162701
 11
7.3686212749
 21
18.0628162701
  0
LINE
  5
4CF
100
AcDbEntity
  8
ASSI
100
AcDbLine
 62
7
  6
CONTINUOUS
 10
-11.9813787251
 20
7.5128162701
 11
-12.0791568796
 21
7.6105944246
  0
LWPOLYLINE
  5
4D0
100
AcDbEntity
  8
DRAFT
100
AcDbPolyline
 62
7
  6
CONTINUOUS
 90
52
 70
0
 10
-0.8260630165
 20
17.3628162701
 10
-0.8290878427
 20
17.4590981826
 10
-0.8379011537
 20
17.5543348452
 10
-0.8525029682
 20
17.6485262577
 10
-0.8730008417
 20
17.7420462584
 10
-0.8992872934
 20
17.834521009
 10
-0.9310398026
 20
17.9248289953
 10
-0.9682880862
 20
18.0128808586
 10
-1.0110025646
 20
18.0987659575
 10
-1.0587717784
 20
18.1816308529
 10
-1.1117133962
 20
18.2615284253
 10
-1.1697099344
 20
18.3384057943
 10
-1.2319971964
 20
18.4112508796
 10
-1.2985291081
 20
18.4799223143
 10
-1.3693519398
 20
18.5445614653
 10
-1.4438399892
 20
18.6045803529
 10
-1.5221706232
 20
18.6600222332
 10
-1.6041666746
 20
18.7108438502
 10
-1.6886705968
 20
18.7563274559
 10
-1.7755409781
 20
18.7963313351
 10
-1.8649193742
 20
18.8309972031
 10
-1.9560726347
 20
18.8600324578
 10
-2.0492215416
 20
18.8834264581
 10
-2.1441454258
 20
18.901189845
 10
-2.2394488924
 20
18.9130619395
 10
-2.3349202572
 20
18.9189557072
 10
-2.4307712173
 20
18.9189581825
 10
-2.5262413791
 20
18.9130697895
 10
-2.6215422884
 20
18.9012034909
 10
-2.7164623714
 20
18.883446324
 10
-2.8096064847
 20
18.8600598257
 10
-2.9007527865
 20
18.8310339801
 10
-2.9901229957
 20
18.7963788031
 10
-3.0769872447
 20
18.7563858787
 10
-3.1614881731
 20
18.7109131553
 10
-3.243482994
 20
18.6601026845
 10
-3.3218136505
 20
18.6046722062
 10
-3.3963017274
 20
18.5446661987
 10
-3.4671254462
 20
18.4800401836
 10
-3.5336616658
 20
18.4113784652
 10
-3.5959582486
 20
18.338537869
 10
-3.6539671479
 20
18.2616615694
 10
-3.706921339
 20
18.1817633945
 10
-3.7547021544
 20
18.0988976909
 10
-3.7974280919
 20
18.0130101119
 10
-3.8346878672
 20
17.9249514453
 10
-3.8664524738
 20
17.8346309136
 10
-3.8927507943
 20
17.7421392943
 10
-3.9132583851
 20
17.6485997082
 10
-3.9278670748
 20
17.554386529
 10
-3.936684968
 20
17.4591253829
 10
-3.9397120481
 20
17.3628162701
  0
LINE
  5
4D1
100
AcDbEntity
  8
DRAFT
100
AcDbLine
 62
7
  6
CONTINUOUS
 10
1.4927136803
 20
-63.1862761353
 11
1.4927136803
 21
-49.9880913246
  0
LINE
  5
4D2
100
AcDbEntity
  8
DRAFT
100
AcDbLine
 62
7
  6
CONTINUOUS
 10
1.4927136803
 20
-40.2112761353
 11
1.4927136803
 21
-27.0130913246
  0
LINE
  5
4D3
100
AcDbEntity
  8
DRAFT
100
AcDbLine
 62
7
  6
CONTINUOUS
 10
1.5232242746
 20
-58.5871837299
 11
1.5232242746
 21
-54.5871837299
  0
LINE
  5
4D4
100
AcDbEntity
  8
DRAFT
100
AcDbLine
 62
7
  6
CONTINUOUS
 10
1.5232242746
 20
-35.6121837299
 11
1.5232242746
 21
-31.6121837299
  0
LINE
  5
4D5
100
AcDbEntity
  8
DRAFT
100
AcDbLine
 62
7
  6
CONTINUOUS
 10
1.5232242746
 20
-61.6371837299
 11
1.5232242746
 21
-63.2167867296
  0
LINE
  5
4D6
100
AcDbEntity
  8
DRAFT
100
AcDbLine
 62
7
  6
CONTINUOUS
 10
1.5686212749
 20
-26.9371837299
 11
1.5686212749
 21
-31.6121837299
  0
LINE
  5
4D7
100
AcDbEntity
  8
DRAFT
100
AcDbLine
 62
7
  6
CONTINUOUS
 10
1.5686212749
 20
-35.6121837299
 11
1.5686212749
 21
-40.2871837299
  0
LINE
  5
4D8
100
AcDbEntity
  8
DRAFT
100
AcDbLine
 62
7
  6
CONTINUOUS
 10
1.5686212749
 20
-49.9121837299
 11
1.5686212749
 21
-54.5871837299
  0
LINE
  5
4D9
100
AcDbEntity
  8
DRAFT
100
AcDbLine
 62
7
  6
CONTINUOUS
 10
1.5686212749
 20
-58.5871837299
 11
1.5686212749
 21
-61.6371837299
  0
LINE
  5
4DA
100
AcDbEntity
  8
DRAFT
100
AcDbLine
 62
7
  6
CONTINUOUS
 10
1.8633244265
 20
-19.8871837299
 11
1.8633244265
 21
-20.0411205438
  0
LINE
  5
4DB
100
AcDbEntity
  8
DRAFT
100
AcDbLine
 62
7
  6
CONTINUOUS
 10
1.8686212749
 20
-19.8871837299
 11
1.8686212749
 21
-20.0464173923
  0
LINE
  5
4DC
100
AcDbEntity
  8
DRAFT
100
AcDbLine
 62
7
  6
CONTINUOUS
 10
3.1186212749
 20
-20.126710691
 11
3.1186212749
 21
-31.6121837299
  0
LINE
  5
4DD
100
AcDbEntity
  8
0
100
AcDbLine
 62
7
  6
CONTINUOUS
 10
3.1186212749
 20
-35.6121837299
 11
3.1186212749
 21
-54.5871837299
  0
LINE
  5
4DE
100
AcDbEntity
  8
0
100
AcDbLine
 62
7
  6
CONTINUOUS
 10
3.1186212749
 20
-58.5871837299
 11
3.1186212749
 21
-61.6371837299
  0
LINE
  5
4DF
100
AcDbEntity
  8
0
100
AcDbLine
 62
7
  6
CONTINUOUS
 10
3.5686212749
 20
-19.8871837299
 11
3.5686212749
 21
6.6128162701
  0
LINE
  5
4E0
100
AcDbEntity
  8
ASSI
100
AcDbLine
 62
7
  6
CONTINUOUS
 10
3.6186212749
 20
44.9128162701
 11
3.6186212749
 21
7.8128162701
  0
LINE
  5
4E1
100
AcDbEntity
  8
DRAFT
100
AcDbLine
 62
7
  6
CONTINUOUS
 10
3.6746530169
 20
44.868848012
 11
3.6746530169
 21
42.6135081402
  0
LINE
  5
4E2
100
AcDbEntity
  8
DRAFT
100
AcDbLine
 62
7
  6
CONTINUOUS
 10
3.6746530169
 20
41.7121243999
 11
3.6746530169
 21
37.6135081402
  0
LINE
  5
4E3
100
AcDbEntity
  8
DRAFT
100
AcDbLine
 62
7
  6
CONTINUOUS
 10
3.6746530169
 20
36.7121243999
 11
3.6746530169
 21
32.6135081402
  0
LINE
  5
4E4
100
AcDbEntity
  8
DRAFT
100
AcDbLine
 62
7
  6
CONTINUOUS
 10
3.6746530169
 20
31.7121243999
 11
3.6746530169
 21
27.6135081402
  0
LINE
  5
4E5
100
AcDbEntity
  8
DRAFT
100
AcDbLine
 62
7
  6
CONTINUOUS
 10
3.6746530169
 20
26.7121243999
 11
3.6746530169
 21
22.6135081402
  0
LINE
  5
4E6
100
AcDbEntity
  8
DRAFT
100
AcDbLine
 62
7
  6
CONTINUOUS
 10
3.6746530169
 20
21.7121243999
 11
3.6746530169
 21
17.6135081402
  0
LINE
  5
4E7
100
AcDbEntity
  8
DRAFT
100
AcDbLine
 62
7
  6
CONTINUOUS
 10
3.6746530169
 20
16.7121243999
 11
3.6746530169
 21
12.6135081402
  0
LINE
  5
4E8
100
AcDbEntity
  8
DRAFT
100
AcDbLine
 62
7
  6
CONTINUOUS
 10
3.6746530169
 20
11.7121243999
 11
3.6746530169
 21
7.6135081402
  0
LINE
  5
4E9
100
AcDbEntity
  8
DRAFT
100
AcDbLine
 62
7
  6
CONTINUOUS
 10
3.6778549373
 20
6.7185301924
 11
3.6778549373
 21
-20.0464173923
  0
LINE
  5
4EA
100
AcDbEntity
  8
DRAFT
100
AcDbLine
 62
7
  6
CONTINUOUS
 10
3.7249836126
 20
42.5128162701
 11
3.7249836126
 21
41.8128162701
  0
LINE
  5
4EB
100
AcDbEntity
  8
DRAFT
100
AcDbLine
 62
7
  6
CONTINUOUS
 10
3.7249836126
 20
37.5128162701
 11
3.7249836126
 21
36.8128162701
  0
LINE
  5
4EC
100
AcDbEntity
  8
DRAFT
100
AcDbLine
 62
7
  6
CONTINUOUS
 10
3.7249836126
 20
32.5128162701
 11
3.7249836126
 21
31.8128162701
  0
LINE
  5
4ED
100
AcDbEntity
  8
DRAFT
100
AcDbLine
 62
7
  6
CONTINUOUS
 10
3.7249836126
 20
27.5128162701
 11
3.7249836126
 21
26.8128162701
  0
LINE
  5
4EE
100
AcDbEntity
  8
DRAFT
100
AcDbLine
 62
7
  6
CONTINUOUS
 10
3.7249836126
 20
22.5128162701
 11
3.7249836126
 21
21.8128162701
  0
LINE
  5
4EF
100
AcDbEntity
  8
DRAFT
100
AcDbLine
 62
7
  6
CONTINUOUS
 10
3.7249836126
 20
17.5128162701
 11
3.7249836126
 21
16.8128162701
  0
LINE
  5
4F0
100
AcDbEntity
  8
DRAFT
100
AcDbLine
 62
7
  6
CONTINUOUS
 10
3.7249836126
 20
12.5128162701
 11
3.7249836126
 21
11.8128162701
  0
LINE
  5
4F1
100
AcDbEntity
  8
DRAFT
100
AcDbLine
 62
7
  6
CONTINUOUS
 10
3.7337111451
 20
6.8302766548
 11
3.7337111451
 21
7.4953558853
  0
LINE
  5
4F2
100
AcDbEntity
  8
DRAFT
100
AcDbLine
 62
7
  6
CONTINUOUS
 10
3.758148236
 20
44.9523432311
 11
3.758148236
 21
-20.126710691
  0
LINE
  5
4F3
100
AcDbEntity
  8
DRAFT
100
AcDbLine
 62
7
  6
CONTINUOUS
 10
7.3686212749
 20
20.2252489378
 11
7.354657223
 21
20.1128162701
  0
LINE
  5
4F4
100
AcDbEntity
  8
DRAFT
100
AcDbLine
 62
7
  6
CONTINUOUS
 10
7.3564027295
 20
18.402005018
 11
7.3686212749
 21
18.5003836023
  0
LINE
  5
4F5
100
AcDbEntity
  8
RACCORDO
100
AcDbLine
 62
7
  6
CONTINUOUS
 10
-3.8873831895
 20
-25.0419344342
 11
-3.9145010423
 21
-25.0961866694
  0
LINE
  5
4F6
100
AcDbEntity
  8
RACCORDO
100
AcDbLine
 62
7
  6
CONTINUOUS
 10
-8.3753742606
 20
-42.1824330257
 11
-8.3430058699
 21
-42.1176765142
  0
LINE
  5
4F7
100
AcDbEntity
  8
DRAFT
100
AcDbLine
 62
7
  6
CONTINUOUS
 10
-44.1313787251
 20
-67.8871837299
 11
-44.1191601796
 21
-67.8749651845
  0
LINE
  5
4F8
100
AcDbEntity
  8
DRAFT
100
AcDbLine
 62
7
  6
CONTINUOUS
 10
-37.7859817247
 20
-62.9167867296
 11
-37.7160082127
 21
-62.8468132175
  0
LINE
  5
4F9
100
AcDbEntity
  8
DRAFT
100
AcDbLine
 62
7
  6
CONTINUOUS
 10
-37.7859817247
 20
-63.2167867296
 11
-37.7160082127
 21
-63.1468132175
  0
LINE
  5
4FA
100
AcDbEntity
  8
DRAFT
100
AcDbLine
 62
7
  6
CONTINUOUS
 10
1.4927136803
 20
-27.0130913246
 11
1.5686212749
 21
-26.9371837299
  0
LINE
  5
4FB
100
AcDbEntity
  8
DRAFT
100
AcDbLine
 62
7
  6
CONTINUOUS
 10
7.3564027295
 20
18.402005018
 11
6.6186212749
 21
18.402005018
  0
LINE
  5
4FC
100
AcDbEntity
  8
DRAFT
100
AcDbLine
 62
7
  6
CONTINUOUS
 10
6.6186212749
 20
18.5847081031
 11
5.590513108
 21
18.5847081031
  0
LINE
  5
4FD
100
AcDbEntity
  8
DRAFT
100
AcDbLine
 62
7
  6
CONTINUOUS
 10
7.354657223
 20
18.6128162701
 11
5.6186212749
 21
18.6128162701
  0
LINE
  5
4FE
100
AcDbEntity
  8
DRAFT
100
AcDbLine
 62
7
  6
CONTINUOUS
 10
5.6186212749
 20
20.1128162701
 11
7.354657223
 21
20.1128162701
  0
LINE
  5
4FF
100
AcDbEntity
  8
DRAFT
100
AcDbLine
 62
7
  6
CONTINUOUS
 10
6.6186212749
 20
20.140924437
 11
5.590513108
 21
20.140924437
  0
LINE
  5
500
100
AcDbEntity
  8
RACCORDO
100
AcDbLine
 62
7
  6
CONTINUOUS
 10
-58.8313787251
 20
20.2628162701
 11
-54.6313787251
 21
20.2628162701
  0
LINE
  5
501
100
AcDbEntity
  8
DRAFT
100
AcDbLine
 62
7
  6
CONTINUOUS
 10
7.3564027295
 20
20.3236275221
 11
6.6186212749
 21
20.3236275221
  0
LINE
  5
502
100
AcDbEntity
  8
ASSI
100
AcDbLine
 62
7
  6
CONTINUOUS
 10
-32.251268873
 20
21.7150381155
 11
-26.0114885772
 21
21.7150381155
  0
LINE
  5
503
100
AcDbEntity
  8
DRAFT
100
AcDbLine
 62
7
  6
CONTINUOUS
 10
3.7249836126
 20
21.8128162701
 11
3.6186212749
 21
21.8128162701
  0
LINE
  5
504
100
AcDbEntity
  8
DRAFT
100
AcDbLine
 62
7
  6
CONTINUOUS
 10
-11.233531987
 20
21.8128162701
 11
-11.2813787251
 21
21.8128162701
  0
LINE
  5
505
100
AcDbEntity
  8
DRAFT
100
AcDbLine
 62
7
  6
CONTINUOUS
 10
-11.9813787251
 20
21.8128162701
 11
-15.847689617
 21
21.8128162701
  0
LINE
  5
506
100
AcDbEntity
  8
DRAFT
100
AcDbLine
 62
7
  6
CONTINUOUS
 10
-19.7856428096
 20
21.8128162701
 11
-38.4771146405
 21
21.8128162701
  0
LINE
  5
507
100
AcDbEntity
  8
DRAFT
100
AcDbLine
 62
7
  6
CONTINUOUS
 10
-42.4150678331
 20
21.8128162701
 11
-46.2813787251
 21
21.8128162701
  0
LINE
  5
508
100
AcDbEntity
  8
DRAFT
100
AcDbLine
 62
7
  6
CONTINUOUS
 10
-46.9813787251
 20
21.8128162701
 11
-47.0292254631
 21
21.8128162701
  0
LINE
  5
509
100
AcDbEntity
  8
RACCORDO
100
AcDbLine
 62
7
  6
CONTINUOUS
 10
-54.6313787251
 20
21.9628162701
 11
-58.1313787251
 21
21.9628162701
  0
LINE
  5
50A
100
AcDbEntity
  8
DRAFT
100
AcDbLine
 62
7
  6
CONTINUOUS
 10
-47.1538395916
 20
22.5128162701
 11
-46.9813787251
 21
22.5128162701
  0
LINE
  5
50B
100
AcDbEntity
  8
DRAFT
100
AcDbLine
 62
7
  6
CONTINUOUS
 10
-46.2813787251
 20
22.5128162701
 11
-42.5803795884
 21
22.5128162701
  0
LINE
  5
50C
100
AcDbEntity
  8
DRAFT
100
AcDbLine
 62
7
  6
CONTINUOUS
 10
-38.7158584101
 20
22.5128162701
 11
-19.54689904
 21
22.5128162701
  0
LINE
  5
50D
100
AcDbEntity
  8
DRAFT
100
AcDbLine
 62
7
  6
CONTINUOUS
 10
-15.6823778617
 20
22.5128162701
 11
-11.9813787251
 21
22.5128162701
  0
LINE
  5
50E
100
AcDbEntity
  8
DRAFT
100
AcDbLine
 62
7
  6
CONTINUOUS
 10
-11.2813787251
 20
22.5128162701
 11
-11.1089178585
 21
22.5128162701
  0
LINE
  5
50F
100
AcDbEntity
  8
DRAFT
100
AcDbLine
 62
7
  6
CONTINUOUS
 10
3.6186212749
 20
22.5128162701
 11
3.7249836126
 21
22.5128162701
  0
LINE
  5
510
100
AcDbEntity
  8
ASSI
100
AcDbLine
 62
7
  6
CONTINUOUS
 10
-33.0639700989
 20
22.6105944246
 11
-25.1987873512
 21
22.6105944246
  0
LINE
  5
511
100
AcDbEntity
  8
0
100
AcDbLine
 62
7
  6
CONTINUOUS
 10
-2.7313787251
 20
7.5128162701
 11
-2.8460407141
 21
7.6274782591
  0
LINE
  5
512
100
AcDbEntity
  8
DRAFT
100
AcDbLine
 62
7
  6
CONTINUOUS
 10
7.3686212749
 20
-63.4996163977
 11
7.354657223
 21
-63.3871837299
  0
LINE
  5
513
100
AcDbEntity
  8
DRAFT
100
AcDbLine
 62
7
  6
CONTINUOUS
 10
7.3564027295
 20
-61.6763724779
 11
7.3686212749
 21
-61.7747510622
  0
LINE
  5
514
100
AcDbEntity
  8
DRAFT
100
AcDbLine
 62
7
  6
CONTINUOUS
 10
4.2966888555
 20
-65.6371837299
 11
4.2966888555
 21
44.9523432311
  0
LINE
  5
515
100
AcDbEntity
  8
DRAFT
100
AcDbLine
 62
253
  6
CONTINUOUS
 10
4.3746520129
 20
44.9560821412
 11
4.3746520129
 21
-65.6371837299
  0
LINE
  5
516
100
AcDbEntity
  8
DRAFT
100
AcDbLine
 62
253
  6
CONTINUOUS
 10
4.562590537
 20
44.9560821412
 11
4.562590537
 21
-65.6371837299
  0
LINE
  5
517
100
AcDbEntity
  8
DRAFT
100
AcDbLine
 62
7
  6
CONTINUOUS
 10
4.6405536944
 20
-65.6371837299
 11
4.6405536944
 21
44.9523432311
  0
LINE
  5
518
100
AcDbEntity
  8
DRAFT
100
AcDbLine
 62
7
  6
CONTINUOUS
 10
4.9966888555
 20
-65.6371837299
 11
4.9966888555
 21
44.9523432311
  0
LINE
  5
519
100
AcDbEntity
  8
DRAFT
100
AcDbLine
 62
253
  6
CONTINUOUS
 10
5.0746520129
 20
44.9560821412
 11
5.0746520129
 21
-65.6371837299
  0
LINE
  5
51A
100
AcDbEntity
  8
DRAFT
100
AcDbLine
 62
253
  6
CONTINUOUS
 10
5.262590537
 20
44.9560821412
 11
5.262590537
 21
-65.6371837299
  0
LINE
  5
51B
100
AcDbEntity
  8
DRAFT
100
AcDbLine
 62
7
  6
CONTINUOUS
 10
5.3405536944
 20
-65.6371837299
 11
5.3405536944
 21
44.9523432311
  0
LINE
  5
51C
100
AcDbEntity
  8
DRAFT
100
AcDbLine
 62
7
  6
CONTINUOUS
 10
5.590513108
 20
-63.4152918969
 11
5.590513108
 21
-61.859075563
  0
LINE
  5
51D
100
AcDbEntity
  8
DRAFT
100
AcDbLine
 62
7
  6
CONTINUOUS
 10
5.590513108
 20
18.5847081031
 11
5.590513108
 21
20.140924437
  0
LINE
  5
51E
100
AcDbEntity
  8
DRAFT
100
AcDbLine
 62
7
  6
CONTINUOUS
 10
5.6186212749
 20
-63.3871837299
 11
5.6186212749
 21
-61.8871837299
  0
LINE
  5
51F
100
AcDbEntity
  8
DRAFT
100
AcDbLine
 62
7
  6
CONTINUOUS
 10
5.6186212749
 20
20.1128162701
 11
5.6186212749
 21
18.6128162701
  0
LINE
  5
520
100
AcDbEntity
  8
DRAFT
100
AcDbLine
 62
7
  6
CONTINUOUS
 10
6.6186212749
 20
-61.859075563
 11
6.6186212749
 21
18.5847081031
  0
LINE
  5
521
100
AcDbEntity
  8
DRAFT
100
AcDbLine
 62
7
  6
CONTINUOUS
 10
6.6186212749
 20
-63.4152918969
 11
6.6186212749
 21
-65.6371837299
  0
LINE
  5
522
100
AcDbEntity
  8
DRAFT
100
AcDbLine
 62
7
  6
CONTINUOUS
 10
6.6186212749
 20
20.140924437
 11
6.6186212749
 21
44.9750348155
  0
LINE
  5
523
100
AcDbEntity
  8
DRAFT
100
AcDbLine
 62
7
  6
CONTINUOUS
 10
7.354657223
 20
20.1128162701
 11
7.354657223
 21
18.6128162701
  0
LINE
  5
524
100
AcDbEntity
  8
DRAFT
100
AcDbLine
 62
7
  6
CONTINUOUS
 10
7.354657223
 20
-61.8871837299
 11
7.354657223
 21
-63.3871837299
  0
LINE
  5
525
100
AcDbEntity
  8
DRAFT
100
AcDbLine
 62
7
  6
CONTINUOUS
 10
7.3564027295
 20
33.0628162701
 11
7.3564027295
 21
20.3236275221
  0
LINE
  5
526
100
AcDbEntity
  8
RACCORDO
100
AcDbLine
 62
7
  6
CONTINUOUS
 10
7.3564027295
 20
-67.3750413369
 11
7.3564027295
 21
-63.597994982
  0
LINE
  5
527
100
AcDbEntity
  8
DRAFT
100
AcDbLine
 62
7
  6
CONTINUOUS
 10
7.3564027295
 20
18.402005018
 11
7.3564027295
 21
18.0505977246
  0
LINE
  5
528
100
AcDbEntity
  8
DRAFT
100
AcDbLine
 62
7
  6
CONTINUOUS
 10
7.3564027295
 20
-61.6763724779
 11
7.3564027295
 21
-48.9371837299
  0
LINE
  5
529
100
AcDbEntity
  8
DRAFT
100
AcDbLine
 62
7
  6
CONTINUOUS
 10
7.3686212749
 20
33.0628162701
 11
7.3686212749
 21
20.2252489378
  0
LINE
  5
52A
100
AcDbEntity
  8
DRAFT
100
AcDbLine
 62
7
  6
CONTINUOUS
 10
7.3686212749
 20
18.5003836023
 11
7.3686212749
 21
18.0628162701
  0
LINE
  5
52B
100
AcDbEntity
  8
DRAFT
100
AcDbLine
 62
7
  6
CONTINUOUS
 10
7.3686212749
 20
-48.9371837299
 11
7.3686212749
 21
-61.7747510622
  0
LINE
  5
52C
100
AcDbEntity
  8
RACCORDO
100
AcDbLine
 62
7
  6
CONTINUOUS
 10
7.3686212749
 20
-63.4996163977
 11
7.3686212749
 21
-67.3872598824
  0
LINE
  5
52D
100
AcDbEntity
  8
0
100
AcDbLine
 62
7
  6
CONTINUOUS
 10
7.6059233182
 20
37.0628162701
 11
7.6059233182
 21
33.0628162701
  0
LINE
  5
52E
100
AcDbEntity
  8
0
100
AcDbLine
 62
7
  6
CONTINUOUS
 10
7.6059233182
 20
-44.9371837299
 11
7.6059233182
 21
-48.9371837299
  0
LINE
  5
52F
100
AcDbEntity
  8
DRAFT
100
AcDbLine
 62
7
  6
CONTINUOUS
 10
8.3564027295
 20
-44.9371837299
 11
8.3564027295
 21
18.0505977246
  0
LINE
  5
530
100
AcDbEntity
  8
RACCORDO
100
AcDbLine
 62
7
  6
CONTINUOUS
 10
8.3564027295
 20
37.0628162701
 11
8.3564027295
 21
46.100673877
  0
LINE
  5
531
100
AcDbEntity
  8
DRAFT
100
AcDbLine
 62
7
  6
CONTINUOUS
 10
8.3686212749
 20
-44.9371837299
 11
8.3686212749
 21
18.0628162701
  0
LINE
  5
532
100
AcDbEntity
  8
RACCORDO
100
AcDbLine
 62
7
  6
CONTINUOUS
 10
8.3686212749
 20
37.0628162701
 11
8.3686212749
 21
46.1128924225
  0
LINE
  5
533
100
AcDbEntity
  8
DRAFT
100
AcDbLine
 62
7
  6
CONTINUOUS
 10
1.3686212749
 20
-67.8871837299
 11
1.6186212749
 21
-65.6371837299
  0
LINE
  5
534
100
AcDbEntity
  8
RACCORDO
100
AcDbLine
 62
253
  6
CONTINUOUS
 10
-31.4244657479
 20
-66.6810318131
 11
-31.2319906881
 21
-66.4885567534
  0
LINE
  5
535
100
AcDbEntity
  8
DRAFT
100
AcDbLine
 62
7
  6
CONTINUOUS
 10
-8.3813787251
 20
-44.0121837299
 11
-8.4223981276
 21
-44.0532031325
  0
LINE
  5
536
100
AcDbEntity
  8
RACCORDO
100
AcDbLine
 62
253
  6
CONTINUOUS
 10
-31.2252268082
 20
-66.8802707528
 11
-31.0327517485
 21
-66.687795693
  0
LINE
  5
537
100
AcDbEntity
  8
DRAFT
100
AcDbLine
 62
7
  6
CONTINUOUS
 10
-2.6313787251
 20
-38.9871837299
 11
-2.5449107893
 21
-38.9007157942
  0
LINE
  5
538
100
AcDbEntity
  8
DRAFT
100
AcDbLine
 62
7
  6
CONTINUOUS
 10
-27.030766762
 20
-47.9996837299
 11
-27.1313787251
 21
-48.0398426149
  0
LINE
  5
539
100
AcDbEntity
  8
DRAFT
100
AcDbLine
 62
7
  6
CONTINUOUS
 10
-26.8382917022
 20
-49.9121837299
 11
-27.1313787251
 21
-50.0291683077
  0
LINE
  5
53A
100
AcDbEntity
  8
RACCORDO
100
AcDbLine
 62
7
  6
CONTINUOUS
 10
-70.4325203156
 20
25.1628162701
 11
-68.8302371345
 21
25.1628162701
  0
LINE
  5
53B
100
AcDbEntity
  8
RACCORDO
100
AcDbLine
 62
7
  6
CONTINUOUS
 10
-70.1350588596
 20
25.460277726
 11
-69.1276985905
 21
25.460277726
  0
LINE
  5
53C
100
AcDbEntity
  8
ASSI
100
AcDbLine
 62
7
  6
CONTINUOUS
 10
-33.7369727237
 20
26.7150381155
 11
-24.5257847264
 21
26.7150381155
  0
LINE
  5
53D
100
AcDbEntity
  8
DRAFT
100
AcDbLine
 62
7
  6
CONTINUOUS
 10
3.7249836126
 20
26.8128162701
 11
3.6186212749
 21
26.8128162701
  0
LINE
  5
53E
100
AcDbEntity
  8
DRAFT
100
AcDbLine
 62
7
  6
CONTINUOUS
 10
-10.9427847438
 20
26.8128162701
 11
-11.2813787251
 21
26.8128162701
  0
LINE
  5
53F
100
AcDbEntity
  8
DRAFT
100
AcDbLine
 62
7
  6
CONTINUOUS
 10
-11.9813787251
 20
26.8128162701
 11
-15.4593910933
 21
26.8128162701
  0
LINE
  5
540
100
AcDbEntity
  8
DRAFT
100
AcDbLine
 62
7
  6
CONTINUOUS
 10
-19.2376835914
 20
26.8128162701
 11
-39.0250738587
 21
26.8128162701
  0
LINE
  5
541
100
AcDbEntity
  8
DRAFT
100
AcDbLine
 62
7
  6
CONTINUOUS
 10
-42.8033663569
 20
26.8128162701
 11
-46.2813787251
 21
26.8128162701
  0
LINE
  5
542
100
AcDbEntity
  8
DRAFT
100
AcDbLine
 62
7
  6
CONTINUOUS
 10
-46.9813787251
 20
26.8128162701
 11
-47.3199727063
 21
26.8128162701
  0
LINE
  5
543
100
AcDbEntity
  8
DRAFT
100
AcDbLine
 62
7
  6
CONTINUOUS
 10
-47.2505611889
 20
27.5128162701
 11
-46.9813787251
 21
27.5128162701
  0
LINE
  5
544
100
AcDbEntity
  8
DRAFT
100
AcDbLine
 62
7
  6
CONTINUOUS
 10
-46.2813787251
 20
27.5128162701
 11
-42.7095013884
 21
27.5128162701
  0
LINE
  5
545
100
AcDbEntity
  8
DRAFT
100
AcDbLine
 62
7
  6
CONTINUOUS
 10
-38.8945652973
 20
27.5128162701
 11
-19.3681921528
 21
27.5128162701
  0
LINE
  5
546
100
AcDbEntity
  8
DRAFT
100
AcDbLine
 62
7
  6
CONTINUOUS
 10
-15.5532560617
 20
27.5128162701
 11
-11.9813787251
 21
27.5128162701
  0
LINE
  5
547
100
AcDbEntity
  8
DRAFT
100
AcDbLine
 62
7
  6
CONTINUOUS
 10
-11.2813787251
 20
27.5128162701
 11
-11.0121962613
 21
27.5128162701
  0
LINE
  5
548
100
AcDbEntity
  8
DRAFT
100
AcDbLine
 62
7
  6
CONTINUOUS
 10
3.6186212749
 20
27.5128162701
 11
3.7249836126
 21
27.5128162701
  0
LINE
  5
549
100
AcDbEntity
  8
ASSI
100
AcDbLine
 62
7
  6
CONTINUOUS
 10
-33.3725452353
 20
27.6105944246
 11
-24.8902122148
 21
27.6105944246
  0
LINE
  5
54A
100
AcDbEntity
  8
DRAFT
100
AcDbLine
 62
7
  6
CONTINUOUS
 10
-11.2813787251
 20
21.8128162701
 11
-11.2416225861
 21
21.7730601311
  0
LINE
  5
54B
100
AcDbEntity
  8
DRAFT
100
AcDbLine
 62
7
  6
CONTINUOUS
 10
-11.9813787251
 20
22.5128162701
 11
-12.1105747901
 21
22.6420123351
  0
LINE
  5
54C
100
AcDbEntity
  8
DRAFT
100
AcDbLine
 62
7
  6
CONTINUOUS
 10
3.6746530169
 20
7.6135081402
 11
3.7337111451
 21
7.4953558853
  0
LWPOLYLINE
  5
54D
100
AcDbEntity
  8
RACCORDO
100
AcDbPolyline
 62
7
  6
CONTINUOUS
 90
22
 70
0
 10
8.3686212749
 20
46.1128924225
 10
8.367229802
 20
46.1501726424
 10
8.363055227
 20
46.1872949977
 10
8.3561095377
 20
46.2240510981
 10
8.3464056955
 20
46.2602810076
 10
8.3339946561
 20
46.2957284718
 10
8.3190006921
 20
46.3300545055
 10
8.3015890951
 20
46.3629701206
 10
8.2818314958
 20
46.3944162339
 10
8.2597217946
 20
46.4243989183
 10
8.2352608628
 20
46.4528454467
 10
8.2086504515
 20
46.4794558579
 10
8.1802039232
 20
46.5039167897
 10
8.1502212388
 20
46.5260264909
 10
8.1187751255
 20
46.5457840902
 10
8.0858595104
 20
46.5631956872
 10
8.0515334767
 20
46.5781896512
 10
8.0160860125
 20
46.5906006907
 10
7.979856103
 20
46.6003045328
 10
7.9431000026
 20
46.6072502221
 10
7.9059776473
 20
46.6114247971
 10
7.8686974274
 20
46.6128162701
  0
LINE
  5
54E
100
AcDbEntity
  8
0
100
AcDbLine
 62
7
  6
CONTINUOUS
 10
13.2186212749
 20
37.0628162701
 11
13.2186212749
 21
33.0628162701
  0
LINE
  5
54F
100
AcDbEntity
  8
0
100
AcDbLine
 62
7
  6
CONTINUOUS
 10
13.2186212749
 20
-44.9371837299
 11
13.2186212749
 21
-48.9371837299
  0
LWPOLYLINE
  5
550
100
AcDbEntity
  8
RACCORDO
100
AcDbPolyline
 62
7
  6
CONTINUOUS
 90
22
 70
0
 10
7.3686212749
 20
-67.3872598824
 10
7.367229802
 20
-67.4245401023
 10
7.363055227
 20
-67.4616624576
 10
7.3561095377
 20
-67.498418558
 10
7.3464056955
 20
-67.5346484675
 10
7.3339946561
 20
-67.5700959317
 10
7.3190006921
 20
-67.6044219654
 10
7.3015890951
 20
-67.6373375805
 10
7.2818314958
 20
-67.6687836938
 10
7.2597217946
 20
-67.6987663782
 10
7.2352608628
 20
-67.7272129065
 10
7.2086504515
 20
-67.7538233178
 10
7.1802039232
 20
-67.7782842496
 10
7.1502212388
 20
-67.8003939508
 10
7.1187751255
 20
-67.8201515501
 10
7.0858595104
 20
-67.8375631471
 10
7.0515334767
 20
-67.8525571111
 10
7.0160860125
 20
-67.8649681505
 10
6.979856103
 20
-67.8746719927
 10
6.9431000026
 20
-67.881617682
 10
6.9059776473
 20
-67.885792257
 10
6.8686974274
 20
-67.8871837299
  0
LINE
  5
551
100
AcDbEntity
  8
DRAFT
100
AcDbLine
 62
7
  6
CONTINUOUS
 10
7.3686212749
 20
-61.7747510622
 11
7.354657223
 21
-61.8871837299
  0
LINE
  5
552
100
AcDbEntity
  8
DRAFT
100
AcDbLine
 62
7
  6
CONTINUOUS
 10
7.3564027295
 20
-63.597994982
 11
7.3686212749
 21
-63.4996163977
  0
LINE
  5
553
100
AcDbEntity
  8
RACCORDO
100
AcDbLine
 62
7
  6
CONTINUOUS
 10
-3.8873831895
 20
-48.0169344342
 11
-3.9145010423
 21
-48.0711866694
  0
LINE
  5
554
100
AcDbEntity
  8
RACCORDO
100
AcDbLine
 62
7
  6
CONTINUOUS
 10
-8.3753742606
 20
-65.1574330257
 11
-8.3430058699
 21
-65.0926765142
  0
LINE
  5
555
100
AcDbEntity
  8
DRAFT
100
AcDbLine
 62
7
  6
CONTINUOUS
 10
-2.6313787251
 20
-40.2871837299
 11
-2.5449107893
 21
-40.2007157942
  0
LINE
  5
556
100
AcDbEntity
  8
DRAFT
100
AcDbLine
 62
7
  6
CONTINUOUS
 10
-9.6313787251
 20
-49.9121837299
 11
-9.7329434157
 21
-50.0137484205
  0
LINE
  5
557
100
AcDbEntity
  8
DRAFT
100
AcDbLine
 62
7
  6
CONTINUOUS
 10
-9.6313787251
 20
-51.2121837299
 11
-9.7329434157
 21
-51.3137484205
  0
LINE
  5
558
100
AcDbEntity
  8
DRAFT
100
AcDbLine
 62
7
  6
CONTINUOUS
 10
-3.8403593225
 20
-46.1461643274
 11
-3.8813787251
 21
-46.1871837299
  0
LINE
  5
559
100
AcDbEntity
  8
RACCORDO
100
AcDbLine
 62
7
  6
CONTINUOUS
 10
-58.1313787251
 20
29.1628162701
 11
-54.6313787251
 21
29.1628162701
  0
LINE
  5
55A
100
AcDbEntity
  8
RACCORDO
100
AcDbLine
 62
7
  6
CONTINUOUS
 10
-54.6313787251
 20
30.6628162701
 11
-59.3313787251
 21
30.6628162701
  0
LINE
  5
55B
100
AcDbEntity
  8
DRAFT
100
AcDbLine
 62
7
  6
CONTINUOUS
 10
3.7249836126
 20
31.8128162701
 11
3.6186212749
 21
31.8128162701
  0
LINE
  5
55C
100
AcDbEntity
  8
DRAFT
100
AcDbLine
 62
7
  6
CONTINUOUS
 10
-12.0632098453
 20
31.8128162701
 11
-16.9909076295
 21
31.8128162701
  0
LINE
  5
55D
100
AcDbEntity
  8
DRAFT
100
AcDbLine
 62
7
  6
CONTINUOUS
 10
-21.492489694
 20
31.8128162701
 11
-36.7702677561
 21
31.8128162701
  0
LINE
  5
55E
100
AcDbEntity
  8
DRAFT
100
AcDbLine
 62
7
  6
CONTINUOUS
 10
-41.2718498206
 20
31.8128162701
 11
-46.1995476048
 21
31.8128162701
  0
LINE
  5
55F
100
AcDbEntity
  8
DRAFT
100
AcDbLine
 62
7
  6
CONTINUOUS
 10
-45.9184293205
 20
32.5128162701
 11
-40.8790781369
 21
32.5128162701
  0
LINE
  5
560
100
AcDbEntity
  8
DRAFT
100
AcDbLine
 62
7
  6
CONTINUOUS
 10
-36.1193884281
 20
32.5128162701
 11
-22.143369022
 21
32.5128162701
  0
LINE
  5
561
100
AcDbEntity
  8
DRAFT
100
AcDbLine
 62
7
  6
CONTINUOUS
 10
-17.3836793133
 20
32.5128162701
 11
-12.3443281296
 21
32.5128162701
  0
LINE
  5
562
100
AcDbEntity
  8
DRAFT
100
AcDbLine
 62
7
  6
CONTINUOUS
 10
3.6186212749
 20
32.5128162701
 11
3.7249836126
 21
32.5128162701
  0
LINE
  5
563
100
AcDbEntity
  8
DRAFT
100
AcDbLine
 62
7
  6
CONTINUOUS
 10
-11.2813787251
 20
26.8128162701
 11
-11.153395738
 21
26.684833283
  0
LINE
  5
564
100
AcDbEntity
  8
DRAFT
100
AcDbLine
 62
7
  6
CONTINUOUS
 10
-11.9813787251
 20
27.5128162701
 11
-12.1105747901
 21
27.6420123351
  0
LINE
  5
565
100
AcDbEntity
  8
DRAFT
100
AcDbLine
 62
7
  6
CONTINUOUS
 10
3.6746530169
 20
12.6135081402
 11
3.7249836126
 21
12.5128162701
  0
LINE
  5
566
100
AcDbEntity
  8
DRAFT
100
AcDbLine
 62
7
  6
CONTINUOUS
 10
3.6746530169
 20
17.6135081402
 11
3.7249836126
 21
17.5128162701
  0
LINE
  5
567
100
AcDbEntity
  8
DRAFT
100
AcDbLine
 62
7
  6
CONTINUOUS
 10
7.3686212749
 20
18.5003836023
 11
7.354657223
 21
18.6128162701
  0
LINE
  5
568
100
AcDbEntity
  8
DRAFT
100
AcDbLine
 62
7
  6
CONTINUOUS
 10
7.3564027295
 20
20.3236275221
 11
7.3686212749
 21
20.2252489378
  0
LINE
  5
569
100
AcDbEntity
  8
DRAFT
100
AcDbLine
 62
7
  6
CONTINUOUS
 10
-20.1313787251
 20
-67.8871837299
 11
-20.1191601796
 21
-67.8749651845
  0
LINE
  5
56A
100
AcDbEntity
  8
DRAFT
100
AcDbLine
 62
7
  6
CONTINUOUS
 10
-13.7859817247
 20
-62.9167867296
 11
-13.7234753535
 21
-62.8542803584
  0
LINE
  5
56B
100
AcDbEntity
  8
DRAFT
100
AcDbLine
 62
7
  6
CONTINUOUS
 10
-13.7859817247
 20
-63.2167867296
 11
-13.7234753535
 21
-63.1542803584
  0
LINE
  5
56C
100
AcDbEntity
  8
DRAFT
100
AcDbLine
 62
7
  6
CONTINUOUS
 10
-31.3107304853
 20
-63.2167867296
 11
-31.1313787251
 21
-63.1451991521
  0
LINE
  5
56D
100
AcDbEntity
  8
DRAFT
100
AcDbLine
 62
7
  6
CONTINUOUS
 10
7.6059233182
 20
33.0628162701
 11
7.3564027295
 21
33.0628162701
  0
LINE
  5
56E
100
AcDbEntity
  8
0
100
AcDbLine
 62
7
  6
CONTINUOUS
 10
7.6059233182
 20
33.0628162701
 11
13.2185729921
 21
33.0628162701
  0
LINE
  5
56F
100
AcDbEntity
  8
RACCORDO
100
AcDbLine
 62
7
  6
CONTINUOUS
 10
-69.1276985905
 20
33.2653548141
 11
-70.1350588596
 21
33.2653548141
  0
LINE
  5
570
100
AcDbEntity
  8
RACCORDO
100
AcDbLine
 62
7
  6
CONTINUOUS
 10
-68.8302371345
 20
33.5628162701
 11
-70.4325203156
 21
33.5628162701
  0
LINE
  5
571
100
AcDbEntity
  8
RACCORDO
100
AcDbLine
 62
7
  6
CONTINUOUS
 10
-59.3313787251
 20
36.3628162701
 11
-54.6313787251
 21
36.3628162701
  0
LINE
  5
572
100
AcDbEntity
  8
DRAFT
100
AcDbLine
 62
7
  6
CONTINUOUS
 10
3.7249836126
 20
36.8128162701
 11
3.6186212749
 21
36.8128162701
  0
LINE
  5
573
100
AcDbEntity
  8
0
100
AcDbLine
 62
7
  6
CONTINUOUS
 10
13.2185729921
 20
37.0628162701
 11
7.6059233182
 21
37.0628162701
  0
LINE
  5
574
100
AcDbEntity
  8
DRAFT
100
AcDbLine
 62
7
  6
CONTINUOUS
 10
-61.9877410627
 20
37.5128162701
 11
-61.8813787251
 21
37.5128162701
  0
LINE
  5
575
100
AcDbEntity
  8
DRAFT
100
AcDbLine
 62
7
  6
CONTINUOUS
 10
3.6186212749
 20
37.5128162701
 11
3.7249836126
 21
37.5128162701
  0
LINE
  5
576
100
AcDbEntity
  8
DRAFT
100
AcDbLine
 62
7
  6
CONTINUOUS
 10
5.6186212749
 20
20.1128162701
 11
5.590513108
 21
20.140924437
  0
LINE
  5
577
100
AcDbEntity
  8
DRAFT
100
AcDbLine
 62
7
  6
CONTINUOUS
 10
3.6746530169
 20
22.6135081402
 11
3.7249836126
 21
22.5128162701
  0
LINE
  5
578
100
AcDbEntity
  8
DRAFT
100
AcDbLine
 62
7
  6
CONTINUOUS
 10
3.6746530169
 20
27.6135081402
 11
3.7249836126
 21
27.5128162701
  0
LINE
  5
579
100
AcDbEntity
  8
DRAFT
100
AcDbLine
 62
7
  6
CONTINUOUS
 10
1.4927136803
 20
-49.9880913246
 11
1.5686212749
 21
-49.9121837299
  0
LINE
  5
57A
100
AcDbEntity
  8
DRAFT
100
AcDbLine
 62
7
  6
CONTINUOUS
 10
-31.2319906881
 20
-65.1746837299
 11
-31.1313787251
 21
-65.134524845
  0
LINE
  5
57B
100
AcDbEntity
  8
DRAFT
100
AcDbLine
 62
7
  6
CONTINUOUS
 10
-66.8421899771
 20
38.402005018
 11
-64.8813787251
 21
38.402005018
  0
LINE
  5
57C
100
AcDbEntity
  8
DRAFT
100
AcDbLine
 62
7
  6
CONTINUOUS
 10
-64.8813787251
 20
38.5847081031
 11
-63.8813787251
 21
38.5847081031
  0
LINE
  5
57D
100
AcDbEntity
  8
DRAFT
100
AcDbLine
 62
7
  6
CONTINUOUS
 10
-66.6313787251
 20
38.6128162701
 11
-63.8813787251
 21
38.6128162701
  0
LINE
  5
57E
100
AcDbEntity
  8
DRAFT
100
AcDbLine
 62
7
  6
CONTINUOUS
 10
-63.8813787251
 20
40.1128162701
 11
-66.6313787251
 21
40.1128162701
  0
LINE
  5
57F
100
AcDbEntity
  8
DRAFT
100
AcDbLine
 62
7
  6
CONTINUOUS
 10
-64.8813787251
 20
40.140924437
 11
-63.8813787251
 21
40.140924437
  0
LINE
  5
580
100
AcDbEntity
  8
DRAFT
100
AcDbLine
 62
7
  6
CONTINUOUS
 10
-66.8421899771
 20
40.3236275221
 11
-64.8813787251
 21
40.3236275221
  0
LINE
  5
581
100
AcDbEntity
  8
DRAFT
100
AcDbLine
 62
7
  6
CONTINUOUS
 10
3.7249836126
 20
41.8128162701
 11
3.6186212749
 21
41.8128162701
  0
LINE
  5
582
100
AcDbEntity
  8
DRAFT
100
AcDbLine
 62
7
  6
CONTINUOUS
 10
-61.8813787251
 20
41.8128162701
 11
-61.9877410627
 21
41.8128162701
  0
LINE
  5
583
100
AcDbEntity
  8
DRAFT
100
AcDbLine
 62
7
  6
CONTINUOUS
 10
-61.9877410627
 20
42.5128162701
 11
-61.8813787251
 21
42.5128162701
  0
LINE
  5
584
100
AcDbEntity
  8
DRAFT
100
AcDbLine
 62
7
  6
CONTINUOUS
 10
3.6186212749
 20
42.5128162701
 11
3.7249836126
 21
42.5128162701
  0
LINE
  5
585
100
AcDbEntity
  8
DRAFT
100
AcDbLine
 62
7
  6
CONTINUOUS
 10
3.6746530169
 20
32.6135081402
 11
3.7249836126
 21
32.5128162701
  0
LINE
  5
586
100
AcDbEntity
  8
DRAFT
100
AcDbLine
 62
7
  6
CONTINUOUS
 10
3.6746530169
 20
37.6135081402
 11
3.7249836126
 21
37.5128162701
  0
LINE
  5
587
100
AcDbEntity
  8
DRAFT
100
AcDbLine
 62
7
  6
CONTINUOUS
 10
-8.3813787251
 20
-66.9871837299
 11
-8.4223981276
 21
-67.0282031325
  0
LINE
  5
588
100
AcDbEntity
  8
DRAFT
100
AcDbLine
 62
7
  6
CONTINUOUS
 10
-2.5859817247
 20
-61.9167867296
 11
-2.5449107893
 21
-61.8757157942
  0
LINE
  5
589
100
AcDbEntity
  8
DRAFT
100
AcDbLine
 62
7
  6
CONTINUOUS
 10
-2.5859817247
 20
-63.2167867296
 11
-2.5449107893
 21
-63.1757157942
  0
LINE
  5
58A
100
AcDbEntity
  8
DRAFT
100
AcDbLine
 62
7
  6
CONTINUOUS
 10
5.0746520129
 20
44.9560821412
 11
4.9966888555
 21
44.9523432311
  0
LINE
  5
58B
100
AcDbEntity
  8
DRAFT
100
AcDbLine
 62
7
  6
CONTINUOUS
 10
4.3746520129
 20
44.9560821412
 11
4.2966888555
 21
44.9523432311
  0
LINE
  5
58C
100
AcDbEntity
  8
DRAFT
100
AcDbLine
 62
7
  6
CONTINUOUS
 10
-62.8253479871
 20
44.9560821412
 11
-62.9033111445
 21
44.9523432311
  0
LINE
  5
58D
100
AcDbEntity
  8
DRAFT
100
AcDbLine
 62
7
  6
CONTINUOUS
 10
-63.5253479871
 20
44.9560821412
 11
-63.6033111445
 21
44.9523432311
  0
LINE
  5
58E
100
AcDbEntity
  8
ASSI
100
AcDbLine
 62
7
  6
CONTINUOUS
 10
3.6186212749
 20
44.9128162701
 11
-61.8813787251
 21
44.9128162701
  0
LINE
  5
58F
100
AcDbEntity
  8
DRAFT
100
AcDbLine
 62
7
  6
CONTINUOUS
 10
-0.7313787251
 20
44.9191786077
 11
-1.5313787251
 21
44.9191786077
  0
LINE
  5
590
100
AcDbEntity
  8
DRAFT
100
AcDbLine
 62
7
  6
CONTINUOUS
 10
-8.7313787251
 20
44.9191786077
 11
-9.5313787251
 21
44.9191786077
  0
LINE
  5
591
100
AcDbEntity
  8
DRAFT
100
AcDbLine
 62
7
  6
CONTINUOUS
 10
-16.7313787251
 20
44.9191786077
 11
-17.5313787251
 21
44.9191786077
  0
LINE
  5
592
100
AcDbEntity
  8
DRAFT
100
AcDbLine
 62
7
  6
CONTINUOUS
 10
-28.7313787251
 20
44.9191786077
 11
-29.5313787251
 21
44.9191786077
  0
LINE
  5
593
100
AcDbEntity
  8
DRAFT
100
AcDbLine
 62
7
  6
CONTINUOUS
 10
-40.7313787251
 20
44.9191786077
 11
-41.5313787251
 21
44.9191786077
  0
LINE
  5
594
100
AcDbEntity
  8
DRAFT
100
AcDbLine
 62
7
  6
CONTINUOUS
 10
-48.7313787251
 20
44.9191786077
 11
-49.5313787251
 21
44.9191786077
  0
LINE
  5
595
100
AcDbEntity
  8
DRAFT
100
AcDbLine
 62
7
  6
CONTINUOUS
 10
-56.7313787251
 20
44.9191786077
 11
-57.5313787251
 21
44.9191786077
  0
LINE
  5
596
100
AcDbEntity
  8
DRAFT
100
AcDbLine
 62
7
  6
CONTINUOUS
 10
6.6186212749
 20
44.9523432311
 11
5.3405536944
 21
44.9523432311
  0
LINE
  5
597
100
AcDbEntity
  8
DRAFT
100
AcDbLine
 62
7
  6
CONTINUOUS
 10
4.9966888555
 20
44.9523432311
 11
4.6405536944
 21
44.9523432311
  0
LINE
  5
598
100
AcDbEntity
  8
DRAFT
100
AcDbLine
 62
7
  6
CONTINUOUS
 10
4.2966888555
 20
44.9523432311
 11
3.758148236
 21
44.9523432311
  0
LINE
  5
599
100
AcDbEntity
  8
DRAFT
100
AcDbLine
 62
7
  6
CONTINUOUS
 10
-62.0209056861
 20
44.9523432311
 11
-62.5594463056
 21
44.9523432311
  0
LINE
  5
59A
100
AcDbEntity
  8
DRAFT
100
AcDbLine
 62
7
  6
CONTINUOUS
 10
-62.9033111445
 20
44.9523432311
 11
-63.2594463056
 21
44.9523432311
  0
LINE
  5
59B
100
AcDbEntity
  8
DRAFT
100
AcDbLine
 62
7
  6
CONTINUOUS
 10
-63.6033111445
 20
44.9523432311
 11
-64.8813787251
 21
44.9523432311
  0
LINE
  5
59C
100
AcDbEntity
  8
DRAFT
100
AcDbLine
 62
7
  6
CONTINUOUS
 10
-64.8813787251
 20
44.9750348155
 11
6.6186212749
 21
44.9750348155
  0
LINE
  5
59D
100
AcDbEntity
  8
RACCORDO
100
AcDbLine
 62
7
  6
CONTINUOUS
 10
-67.0313787251
 20
46.5831426597
 11
-67.6017812671
 21
46.5831426597
  0
LINE
  5
59E
100
AcDbEntity
  8
RACCORDO
100
AcDbLine
 62
7
  6
CONTINUOUS
 10
-67.0313787251
 20
46.6005977246
 11
7.8564788819
 21
46.6005977246
  0
LINE
  5
59F
100
AcDbEntity
  8
RACCORDO
100
AcDbLine
 62
7
  6
CONTINUOUS
 10
7.8686974274
 20
46.6128162701
 11
-67.6314548775
 21
46.6128162701
  0
LINE
  5
5A0
100
AcDbEntity
  8
DRAFT
100
AcDbLine
 62
7
  6
CONTINUOUS
 10
-63.2594463056
 20
44.9523432311
 11
-63.337409463
 21
44.9560821412
  0
LINE
  5
5A1
100
AcDbEntity
  8
DRAFT
100
AcDbLine
 62
7
  6
CONTINUOUS
 10
-62.5594463056
 20
44.9523432311
 11
-62.637409463
 21
44.9560821412
  0
LINE
  5
5A2
100
AcDbEntity
  8
DRAFT
100
AcDbLine
 62
7
  6
CONTINUOUS
 10
4.6405536944
 20
44.9523432311
 11
4.562590537
 21
44.9560821412
  0
LINE
  5
5A3
100
AcDbEntity
  8
DRAFT
100
AcDbLine
 62
7
  6
CONTINUOUS
 10
5.3405536944
 20
44.9523432311
 11
5.262590537
 21
44.9560821412
  0
LINE
  5
5A4
100
AcDbEntity
  8
DRAFT
100
AcDbLine
 62
7
  6
CONTINUOUS
 10
3.6746530169
 20
42.6135081402
 11
3.7249836126
 21
42.5128162701
  0
LINE
  5
5A5
100
AcDbEntity
  8
DRAFT
100
AcDbLine
 62
7
  6
CONTINUOUS
 10
5.6186212749
 20
-63.3871837299
 11
5.590513108
 21
-63.4152918969
  0
ARC
  5
5A6
100
AcDbEntity
  8
DRAFT
100
AcDbCircle
 62
7
  6
CONTINUOUS
 10
-68.1313787251
 20
-50.6371837299
 40
6.4
100
AcDbArc
 50
90.0
 51
270.0
  0
ARC
  5
5A7
100
AcDbEntity
  8
DRAFT
100
AcDbCircle
 62
7
  6
CONTINUOUS
 10
-68.1313787251
 20
-50.6371837299
 40
6.3703263896
100
AcDbArc
 50
89.733109627
 51
270.266890373
  0
ARC
  5
5A8
100
AcDbEntity
  8
DRAFT
100
AcDbCircle
 62
7
  6
CONTINUOUS
 10
-69.6313787251
 20
-50.6371837299
 40
2.35
100
AcDbArc
 50
70.0313601105
 51
109.9686398895
  0
ARC
  5
5A9
100
AcDbEntity
  8
DRAFT
100
AcDbCircle
 62
7
  6
CONTINUOUS
 10
-69.6313787251
 20
-50.6371837299
 40
2.35
100
AcDbArc
 50
250.0313601105
 51
289.9686398895
  0
ARC
  5
5AA
100
AcDbEntity
  8
DRAFT
100
AcDbCircle
 62
7
  6
CONTINUOUS
 10
-69.6313787251
 20
-50.6371837299
 40
1.65
100
AcDbArc
 50
124.0986720093
 51
235.9013279907
  0
ARC
  5
5AB
100
AcDbEntity
  8
DRAFT
100
AcDbCircle
 62
7
  6
CONTINUOUS
 10
-69.6313787251
 20
-50.6371837299
 40
1.65
100
AcDbArc
 50
304.0986720093
 51
55.9013279907
  0
CIRCLE
  5
5AC
100
AcDbEntity
  8
0
100
AcDbCircle
 62
7
  6
CONTINUOUS
 10
-69.6313787251
 20
-50.6371837299
 40
1.5
  0
ARC
  5
5AD
100
AcDbEntity
  8
0
100
AcDbCircle
 62
7
  6
CONTINUOUS
 10
-69.6313787251
 20
-50.6371837299
 40
1.2
100
AcDbArc
 50
255.0
 51
195.0
  0
ARC
  5
5AE
100
AcDbEntity
  8
DRAFT
100
AcDbCircle
 62
7
  6
CONTINUOUS
 10
-68.1313787251
 20
29.3628162701
 40
6.4
100
AcDbArc
 50
90.0
 51
270.0
  0
ARC
  5
5AF
100
AcDbEntity
  8
DRAFT
100
AcDbCircle
 62
7
  6
CONTINUOUS
 10
-68.1313787251
 20
29.3628162701
 40
6.3703263896
100
AcDbArc
 50
89.733109627
 51
270.266890373
  0
ARC
  5
5B0
100
AcDbEntity
  8
ASSI
100
AcDbCircle
 62
7
  6
CONTINUOUS
 10
-49.6313787251
 20
10.3628162701
 40
4.85
100
AcDbArc
 50
211.7245547877
 51
214.5738791013
  0
ARC
  5
5B1
100
AcDbEntity
  8
ASSI
100
AcDbCircle
 62
7
  6
CONTINUOUS
 10
-49.6313787251
 20
10.3628162701
 40
4.85
100
AcDbArc
 50
325.4261208987
 51
328.2754452123
  0
ARC
  5
5B2
100
AcDbEntity
  8
DRAFT
100
AcDbCircle
 62
7
  6
CONTINUOUS
 10
-69.6313787251
 20
29.3628162701
 40
2.35
100
AcDbArc
 50
250.0313601105
 51
289.9686398895
  0
ARC
  5
5B3
100
AcDbEntity
  8
DRAFT
100
AcDbCircle
 62
7
  6
CONTINUOUS
 10
-69.6313787251
 20
29.3628162701
 40
2.35
100
AcDbArc
 50
70.0313601105
 51
109.9686398895
  0
ARC
  5
5B4
100
AcDbEntity
  8
RACCORDO
100
AcDbCircle
 62
7
  6
CONTINUOUS
 10
-42.8404085959
 20
17.1128162701
 40
2.25
100
AcDbArc
 50
211.0392400104
 51
31.0392400104
  0
ARC
  5
5B5
100
AcDbEntity
  8
RACCORDO
100
AcDbCircle
 62
7
  6
CONTINUOUS
 10
-42.8404085959
 20
33.6128162701
 40
2.25
100
AcDbArc
 50
328.9607599896
 51
148.9607599896
  0
ARC
  5
5B6
100
AcDbEntity
  8
DRAFT
100
AcDbCircle
 62
7
  6
CONTINUOUS
 10
-69.6313787251
 20
29.3628162701
 40
1.65
100
AcDbArc
 50
124.0986720093
 51
235.9013279907
  0
ARC
  5
5B7
100
AcDbEntity
  8
DRAFT
100
AcDbCircle
 62
7
  6
CONTINUOUS
 10
-69.6313787251
 20
29.3628162701
 40
1.65
100
AcDbArc
 50
304.0986720093
 51
55.9013279907
  0
CIRCLE
  5
5B8
100
AcDbEntity
  8
0
100
AcDbCircle
 62
7
  6
CONTINUOUS
 10
-69.6313787251
 20
29.3628162701
 40
1.5
  0
ARC
  5
5B9
100
AcDbEntity
  8
0
100
AcDbCircle
 62
7
  6
CONTINUOUS
 10
-69.6313787251
 20
29.3628162701
 40
1.2
100
AcDbArc
 50
255.0
 51
195.0
  0
ARC
  5
5BA
100
AcDbEntity
  8
RACCORDO
100
AcDbCircle
 62
7
  6
CONTINUOUS
 10
-58.1313787251
 20
28.1628162701
 40
1.0
100
AcDbArc
 50
90.0
 51
180.0
  0
ARC
  5
5BB
100
AcDbEntity
  8
RACCORDO
100
AcDbCircle
 62
7
  6
CONTINUOUS
 10
-58.1313787251
 20
22.9628162701
 40
1.0
100
AcDbArc
 50
180.0
 51
270.0
  0
ARC
  5
5BC
100
AcDbEntity
  8
RACCORDO
100
AcDbCircle
 62
7
  6
CONTINUOUS
 10
-58.8313787251
 20
15.1628162701
 40
1.0
100
AcDbArc
 50
180.0
 51
270.0
  0
ARC
  5
5BD
100
AcDbEntity
  8
RACCORDO
100
AcDbCircle
 62
7
  6
CONTINUOUS
 10
-58.8313787251
 20
19.2628162701
 40
1.0
100
AcDbArc
 50
90.0
 51
180.0
  0
ARC
  5
5BE
100
AcDbEntity
  8
RACCORDO
100
AcDbCircle
 62
7
  6
CONTINUOUS
 10
-59.3313787251
 20
31.6628162701
 40
1.0
100
AcDbArc
 50
180.0
 51
270.0
  0
ARC
  5
5BF
100
AcDbEntity
  8
RACCORDO
100
AcDbCircle
 62
7
  6
CONTINUOUS
 10
-59.3313787251
 20
35.3628162701
 40
1.0
100
AcDbArc
 50
90.0
 51
180.0
  0
ARC
  5
5C0
100
AcDbEntity
  8
RACCORDO
100
AcDbCircle
 62
7
  6
CONTINUOUS
 10
-54.6313787251
 20
15.1628162701
 40
1.0
100
AcDbArc
 50
270.0
 51
360.0
  0
ARC
  5
5C1
100
AcDbEntity
  8
RACCORDO
100
AcDbCircle
 62
7
  6
CONTINUOUS
 10
-54.6313787251
 20
19.2628162701
 40
1.0
100
AcDbArc
 50
0.0
 51
90.0
  0
ARC
  5
5C2
100
AcDbEntity
  8
RACCORDO
100
AcDbCircle
 62
7
  6
CONTINUOUS
 10
-54.6313787251
 20
22.9628162701
 40
1.0
100
AcDbArc
 50
270.0
 51
360.0
  0
ARC
  5
5C3
100
AcDbEntity
  8
RACCORDO
100
AcDbCircle
 62
7
  6
CONTINUOUS
 10
-54.6313787251
 20
28.1628162701
 40
1.0
100
AcDbArc
 50
0.0
 51
90.0
  0
ARC
  5
5C4
100
AcDbEntity
  8
RACCORDO
100
AcDbCircle
 62
7
  6
CONTINUOUS
 10
-54.6313787251
 20
31.6628162701
 40
1.0
100
AcDbArc
 50
270.0
 51
360.0
  0
ARC
  5
5C5
100
AcDbEntity
  8
RACCORDO
100
AcDbCircle
 62
7
  6
CONTINUOUS
 10
-54.6313787251
 20
35.3628162701
 40
1.0
100
AcDbArc
 50
0.0
 51
90.0
  0
ARC
  5
5C6
100
AcDbEntity
  8
RACCORDO
100
AcDbCircle
 62
7
  6
CONTINUOUS
 10
-29.1313787251
 20
25.3628162701
 40
18.25
100
AcDbArc
 50
328.9607599896
 51
31.0392400104
  0
ARC
  5
5C7
100
AcDbEntity
  8
RACCORDO
100
AcDbCircle
 62
7
  6
CONTINUOUS
 10
-29.1313787251
 20
25.3628162701
 40
18.25
100
AcDbArc
 50
148.9607599896
 51
211.0392400104
  0
ARC
  5
5C8
100
AcDbEntity
  8
RACCORDO
100
AcDbCircle
 62
7
  6
CONTINUOUS
 10
-29.1313787251
 20
25.3628162701
 40
13.75
100
AcDbArc
 50
328.9607599896
 51
31.0392400104
  0
ARC
  5
5C9
100
AcDbEntity
  8
RACCORDO
100
AcDbCircle
 62
7
  6
CONTINUOUS
 10
-29.1313787251
 20
25.3628162701
 40
13.75
100
AcDbArc
 50
148.9607599896
 51
211.0392400104
  0
CIRCLE
  5
5CA
100
AcDbEntity
  8
0
100
AcDbCircle
 62
7
  6
CONTINUOUS
 10
-29.1313787251
 20
25.3628162701
 40
10.0
  0
ARC
  5
5CB
100
AcDbEntity
  8
ASSI
100
AcDbCircle
 62
7
  6
CONTINUOUS
 10
-8.6313787251
 20
10.3628162701
 40
4.85
100
AcDbArc
 50
211.7245547877
 51
214.5738791013
  0
ARC
  5
5CC
100
AcDbEntity
  8
ASSI
100
AcDbCircle
 62
7
  6
CONTINUOUS
 10
-8.6313787251
 20
10.3628162701
 40
4.85
100
AcDbArc
 50
325.4261208987
 51
328.2754452123
  0
ARC
  5
5CD
100
AcDbEntity
  8
ASSI
100
AcDbCircle
 62
7
  6
CONTINUOUS
 10
-29.1313787251
 20
25.3628162701
 40
4.8
100
AcDbArc
 50
163.6375383619
 51
214.9862299761
  0
ARC
  5
5CE
100
AcDbEntity
  8
ASSI
100
AcDbCircle
 62
7
  6
CONTINUOUS
 10
-29.1313787251
 20
25.3628162701
 40
4.8
100
AcDbArc
 50
325.0137700239
 51
16.3624616381
  0
ARC
  5
5CF
100
AcDbEntity
  8
ASSI
100
AcDbCircle
 62
7
  6
CONTINUOUS
 10
-29.1313787251
 20
25.3628162701
 40
4.8
100
AcDbArc
 50
229.4601235994
 51
310.5398764006
  0
ARC
  5
5D0
100
AcDbEntity
  8
ASSI
100
AcDbCircle
 62
7
  6
CONTINUOUS
 10
-29.1313787251
 20
25.3628162701
 40
4.8
100
AcDbArc
 50
27.9231668291
 51
152.0768331709
  0
CIRCLE
  5
5D1
100
AcDbEntity
  8
ASSI
100
AcDbCircle
 62
7
  6
CONTINUOUS
 10
-2.3813787251
 20
17.3628162701
 40
2.5
  0
ARC
  5
5D2
100
AcDbEntity
  8
RACCORDO
100
AcDbCircle
 62
7
  6
CONTINUOUS
 10
-15.4223488542
 20
17.1128162701
 40
2.25
100
AcDbArc
 50
148.9607599896
 51
328.9607599896
  0
ARC
  5
5D3
100
AcDbEntity
  8
RACCORDO
100
AcDbCircle
 62
7
  6
CONTINUOUS
 10
-15.4223488542
 20
33.6128162701
 40
2.25
100
AcDbArc
 50
31.0392400104
 51
211.0392400104
  0
CIRCLE
  5
5D4
100
AcDbEntity
  8
ASSI
100
AcDbCircle
 62
7
  6
CONTINUOUS
 10
-2.3813787251
 20
33.3628162701
 40
1.5
  0
CIRCLE
  5
5D5
100
AcDbEntity
  8
DRAFT
100
AcDbCircle
 62
7
  6
CONTINUOUS
 10
-2.3813787251
 20
17.3628162701
 40
1.5
  0
ELLIPSE
  5
5D6
100
AcDbEntity
  8
RACCORDO
100
AcDbEllipse
 62
7
  6
CONTINUOUS
 10
-3.6145467338
 20
-25.0963695048
 30
0.0
 11
0.3
 21
-0.0
 31
0.0
 40
0.0349207695
 41
3.1241393611
 42
3.1415926536
  0
ELLIPSE
  5
5D7
100
AcDbEntity
  8
RACCORDO
100
AcDbEllipse
 62
7
  6
CONTINUOUS
 10
-54.6482107164
 20
-42.1279979551
 30
0.0
 11
0.3
 21
-0.0
 31
0.0
 40
0.0349207695
 41
-0.0174532925
 42
0.0
  0
ELLIPSE
  5
5D8
100
AcDbEntity
  8
RACCORDO
100
AcDbEllipse
 62
7
  6
CONTINUOUS
 10
-3.6145467338
 20
-48.0713695048
 30
0.0
 11
0.3
 21
0.0
 31
0.0
 40
0.0349207695
 41
3.1241393611
 42
3.1415926536
  0
ELLIPSE
  5
5D9
100
AcDbEntity
  8
RACCORDO
100
AcDbEllipse
 62
7
  6
CONTINUOUS
 10
-54.6482107164
 20
-65.1029979551
 30
0.0
 11
0.3
 21
-0.0
 31
0.0
 40
0.0349207695
 41
-0.0174532925
 42
-0.0
  0
ELLIPSE
  5
5DA
100
AcDbEntity
  8
RACCORDO
100
AcDbEllipse
 62
7
  6
CONTINUOUS
 10
-27.2315307295
 20
-23.7123357344
 30
0.0
 11
0.1424997216
 21
0.1424997216
 31
0.0
 40
0.9924325091
 41
-0.7816000651
 42
0.7816000651
  0
ELLIPSE
  5
5DB
100
AcDbEntity
  8
RACCORDO
100
AcDbEllipse
 62
7
  6
CONTINUOUS
 10
-31.0312267206
 20
-23.7123357344
 30
0.0
 11
-0.1424997216
 21
0.1424997216
 31
0.0
 40
0.9924325091
 41
-0.7816000651
 42
0.7816000651
  0
ELLIPSE
  5
5DC
100
AcDbEntity
  8
RACCORDO
100
AcDbEllipse
 62
7
  6
CONTINUOUS
 10
-27.2315307295
 20
-43.5120317255
 30
0.0
 11
0.1424997216
 21
-0.1424997216
 31
0.0
 40
0.9924325091
 41
-0.7816000651
 42
0.7816000651
  0
ELLIPSE
  5
5DD
100
AcDbEntity
  8
RACCORDO
100
AcDbEllipse
 62
7
  6
CONTINUOUS
 10
-31.0312267206
 20
-43.5120317255
 30
0.0
 11
-0.1424997216
 21
-0.1424997216
 31
0.0
 40
0.9924325091
 41
-0.7816000651
 42
0.7816000651
  0
ELLIPSE
  5
5DE
100
AcDbEntity
  8
RACCORDO
100
AcDbEllipse
 62
7
  6
CONTINUOUS
 10
-27.2315307295
 20
-46.6873357344
 30
0.0
 11
0.1424997216
 21
0.1424997216
 31
0.0
 40
0.9924325091
 41
-0.7816000651
 42
0.7816000651
  0
ELLIPSE
  5
5DF
100
AcDbEntity
  8
RACCORDO
100
AcDbEllipse
 62
7
  6
CONTINUOUS
 10
-31.0312267206
 20
-46.6873357344
 30
0.0
 11
-0.1424997216
 21
0.1424997216
 31
0.0
 40
0.9924325091
 41
-0.7816000651
 42
0.7816000651
  0
ELLIPSE
  5
5E0
100
AcDbEntity
  8
RACCORDO
100
AcDbEllipse
 62
7
  6
CONTINUOUS
 10
-27.2315307295
 20
-66.4870317255
 30
0.0
 11
0.1424997216
 21
-0.1424997216
 31
0.0
 40
0.9924325091
 41
-0.7816000651
 42
0.7816000651
  0
ELLIPSE
  5
5E1
100
AcDbEntity
  8
RACCORDO
100
AcDbEllipse
 62
7
  6
CONTINUOUS
 10
-31.0312267206
 20
-66.4870317255
 30
0.0
 11
-0.1424997216
 21
-0.1424997216
 31
0.0
 40
0.9924325091
 41
-0.7816000651
 42
0.7816000651
  0
ELLIPSE
  5
5E2
100
AcDbEntity
  8
RACCORDO
100
AcDbEllipse
 62
7
  6
CONTINUOUS
 10
-3.6145467338
 20
-42.1279979551
 30
0.0
 11
0.3
 21
-0.0
 31
0.0
 40
0.0349207695
 41
3.1415926536
 42
3.1590459461
  0
ELLIPSE
  5
5E3
100
AcDbEntity
  8
RACCORDO
100
AcDbEllipse
 62
7
  6
CONTINUOUS
 10
-54.6482107164
 20
-25.0963695048
 30
0.0
 11
0.3
 21
-0.0
 31
0.0
 40
0.0349207695
 41
-0.0
 42
0.0174532925
  0
ELLIPSE
  5
5E4
100
AcDbEntity
  8
RACCORDO
100
AcDbEllipse
 62
7
  6
CONTINUOUS
 10
-3.6145467338
 20
-65.1029979551
 30
0.0
 11
0.3
 21
0.0
 31
0.0
 40
0.0349207695
 41
3.1415926536
 42
3.1590459461
  0
ELLIPSE
  5
5E5
100
AcDbEntity
  8
RACCORDO
100
AcDbEllipse
 62
7
  6
CONTINUOUS
 10
-54.6482107164
 20
-48.0713695048
 30
0.0
 11
0.3
 21
0.0
 31
0.0
 40
0.0349207695
 41
-0.0
 42
0.0174532925
  0
ELLIPSE
  5
5E6
100
AcDbEntity
  8
RACCORDO
100
AcDbEllipse
 62
7
  6
CONTINUOUS
 10
-27.0390556698
 20
-23.5198606746
 30
0.0
 11
0.1424997216
 21
0.1424997216
 31
0.0
 40
0.9924325091
 41
-0.7816000651
 42
0.7816000651
  0
ELLIPSE
  5
5E7
100
AcDbEntity
  8
RACCORDO
100
AcDbEllipse
 62
7
  6
CONTINUOUS
 10
-31.2237017804
 20
-23.5198606746
 30
0.0
 11
-0.1424997216
 21
0.1424997216
 31
0.0
 40
0.9924325091
 41
-0.7816000651
 42
0.7816000651
  0
ELLIPSE
  5
5E8
100
AcDbEntity
  8
RACCORDO
100
AcDbEllipse
 62
7
  6
CONTINUOUS
 10
-27.0390556698
 20
-43.7045067852
 30
0.0
 11
-0.1424997216
 21
0.1424997216
 31
0.0
 40
0.9924325091
 41
-3.9231927187
 42
-2.3599925885
  0
ELLIPSE
  5
5E9
100
AcDbEntity
  8
RACCORDO
100
AcDbEllipse
 62
7
  6
CONTINUOUS
 10
-31.2237017804
 20
-43.7045067852
 30
0.0
 11
0.1424997216
 21
0.1424997216
 31
0.0
 40
0.9924325091
 41
-3.9231927187
 42
-2.3599925885
  0
ELLIPSE
  5
5EA
100
AcDbEntity
  8
RACCORDO
100
AcDbEllipse
 62
7
  6
CONTINUOUS
 10
-27.0390556698
 20
-46.4948606746
 30
0.0
 11
0.1424997216
 21
0.1424997216
 31
0.0
 40
0.9924325091
 41
-0.7816000651
 42
0.7816000651
  0
ELLIPSE
  5
5EB
100
AcDbEntity
  8
RACCORDO
100
AcDbEllipse
 62
7
  6
CONTINUOUS
 10
-70.1327713178
 20
-47.0357911372
 30
0.0
 11
0.2137495824
 21
-0.2137495824
 31
0.0
 40
0.9924325091
 41
2.3599925885
 42
3.9231927187
  0
ELLIPSE
  5
5EC
100
AcDbEntity
  8
RACCORDO
100
AcDbEllipse
 62
7
  6
CONTINUOUS
 10
-69.1299861323
 20
-47.0357911372
 30
0.0
 11
-0.2137495824
 21
-0.2137495824
 31
0.0
 40
0.9924325091
 41
2.3599925885
 42
3.9231927187
  0
ELLIPSE
  5
5ED
100
AcDbEntity
  8
RACCORDO
100
AcDbEllipse
 62
7
  6
CONTINUOUS
 10
-70.1327713178
 20
-54.2385763227
 30
0.0
 11
0.2137495824
 21
0.2137495824
 31
0.0
 40
0.9924325091
 41
2.3599925885
 42
3.9231927187
  0
ELLIPSE
  5
5EE
100
AcDbEntity
  8
RACCORDO
100
AcDbEllipse
 62
7
  6
CONTINUOUS
 10
-69.1299861323
 20
-54.2385763227
 30
0.0
 11
-0.2137495824
 21
0.2137495824
 31
0.0
 40
0.9924325091
 41
2.3599925885
 42
3.9231927187
  0
ELLIPSE
  5
5EF
100
AcDbEntity
  8
RACCORDO
100
AcDbEllipse
 62
7
  6
CONTINUOUS
 10
-70.1327713178
 20
32.9642088628
 30
0.0
 11
0.2137495824
 21
-0.2137495824
 31
0.0
 40
0.9924325091
 41
2.3599925885
 42
3.9231927187
  0
ELLIPSE
  5
5F0
100
AcDbEntity
  8
RACCORDO
100
AcDbEllipse
 62
7
  6
CONTINUOUS
 10
-69.1299861323
 20
32.9642088628
 30
0.0
 11
-0.2137495824
 21
-0.2137495824
 31
0.0
 40
0.9924325091
 41
2.3599925885
 42
3.9231927187
  0
ELLIPSE
  5
5F1
100
AcDbEntity
  8
RACCORDO
100
AcDbEllipse
 62
7
  6
CONTINUOUS
 10
-69.1299861323
 20
25.7614236773
 30
0.0
 11
-0.2137495824
 21
0.2137495824
 31
0.0
 40
0.9924325091
 41
2.3599925885
 42
3.9231927187
  0
ELLIPSE
  5
5F2
100
AcDbEntity
  8
RACCORDO
100
AcDbEllipse
 62
7
  6
CONTINUOUS
 10
-70.1327713178
 20
25.7614236773
 30
0.0
 11
0.2137495824
 21
0.2137495824
 31
0.0
 40
0.9924325091
 41
2.3599925885
 42
3.9231927187
  0
ELLIPSE
  5
5F3
100
AcDbEntity
  8
RACCORDO
100
AcDbEllipse
 62
7
  6
CONTINUOUS
 10
-70.4302327738
 20
-46.7383296812
 30
0.0
 11
0.2137495824
 21
-0.2137495824
 31
0.0
 40
0.9924325091
 41
2.3599925885
 42
3.9231927187
  0
ELLIPSE
  5
5F4
100
AcDbEntity
  8
RACCORDO
100
AcDbEllipse
 62
7
  6
CONTINUOUS
 10
-68.8325246763
 20
-46.7383296812
 30
0.0
 11
0.2137495824
 21
0.2137495824
 31
0.0
 40
0.9924325091
 41
-0.7816000651
 42
0.7816000651
  0
ELLIPSE
  5
5F5
100
AcDbEntity
  8
RACCORDO
100
AcDbEllipse
 62
7
  6
CONTINUOUS
 10
-70.4302327738
 20
-54.5360377787
 30
0.0
 11
0.2137495824
 21
0.2137495824
 31
0.0
 40
0.9924325091
 41
2.3599925885
 42
3.9231927187
  0
ELLIPSE
  5
5F6
100
AcDbEntity
  8
RACCORDO
100
AcDbEllipse
 62
7
  6
CONTINUOUS
 10
-68.8325246763
 20
-54.5360377787
 30
0.0
 11
0.2137495824
 21
-0.2137495824
 31
0.0
 40
0.9924325091
 41
-0.7816000651
 42
0.7816000651
  0
ELLIPSE
  5
5F7
100
AcDbEntity
  8
RACCORDO
100
AcDbEllipse
 62
7
  6
CONTINUOUS
 10
-70.4302327738
 20
33.2616703188
 30
0.0
 11
0.2137495824
 21
-0.2137495824
 31
0.0
 40
0.9924325091
 41
2.3599925885
 42
3.9231927187
  0
ELLIPSE
  5
5F8
100
AcDbEntity
  8
RACCORDO
100
AcDbEllipse
 62
7
  6
CONTINUOUS
 10
-68.8325246763
 20
33.2616703188
 30
0.0
 11
0.2137495824
 21
0.2137495824
 31
0.0
 40
0.9924325091
 41
-0.7816000651
 42
0.7816000651
  0
ELLIPSE
  5
5F9
100
AcDbEntity
  8
RACCORDO
100
AcDbEllipse
 62
7
  6
CONTINUOUS
 10
-68.8325246763
 20
25.4639622213
 30
0.0
 11
0.2137495824
 21
-0.2137495824
 31
0.0
 40
0.9924325091
 41
-0.7816000651
 42
0.7816000651
  0
ELLIPSE
  5
5FA
100
AcDbEntity
  8
RACCORDO
100
AcDbEllipse
 62
7
  6
CONTINUOUS
 10
-70.4302327738
 20
25.4639622213
 30
0.0
 11
0.2137495824
 21
0.2137495824
 31
0.0
 40
0.9924325091
 41
2.3599925885
 42
3.9231927187
  0
ELLIPSE
  5
5FB
100
AcDbEntity
  8
RACCORDO
100
AcDbEllipse
 62
7
  6
CONTINUOUS
 10
-31.2237017804
 20
-46.4948606746
 30
0.0
 11
0.1424997216
 21
-0.1424997216
 31
0.0
 40
0.9924325091
 41
2.3599925885
 42
3.9231927187
  0
ELLIPSE
  5
5FC
100
AcDbEntity
  8
RACCORDO
100
AcDbEllipse
 62
7
  6
CONTINUOUS
 10
-27.0390556698
 20
-66.6795067852
 30
0.0
 11
0.1424997216
 21
-0.1424997216
 31
0.0
 40
0.9924325091
 41
-0.7816000651
 42
0.7816000651
  0
ELLIPSE
  5
5FD
100
AcDbEntity
  8
RACCORDO
100
AcDbEllipse
 62
7
  6
CONTINUOUS
 10
-31.2237017804
 20
-66.6795067852
 30
0.0
 11
0.1424997216
 21
0.1424997216
 31
0.0
 40
0.9924325091
 41
-3.9231927187
 42
-2.3599925885
  0
ELLIPSE
  5
5FE
100
AcDbEntity
  8
RACCORDO
100
AcDbEllipse
 62
7
  6
CONTINUOUS
 10
-29.1313787251
 20
44.7150648382
 30
0.0
 11
482.5
 21
0.0
 31
0.0
 40
0.0174550649
 41
-1.6340903368
 42
-1.622976686
  0
ELLIPSE
  5
5FF
100
AcDbEntity
  8
RACCORDO
100
AcDbEllipse
 62
7
  6
CONTINUOUS
 10
-29.1313787251
 20
22.3105677019
 30
0.0
 11
482.5
 21
0.0
 31
0.0
 40
0.0174550649
 41
1.6229766931
 42
1.6340903365
  0
ELLIPSE
  5
600
100
AcDbEntity
  8
RACCORDO
100
AcDbEllipse
 62
7
  6
CONTINUOUS
 10
-29.1313787251
 20
28.6150648382
 30
0.0
 11
482.5
 21
0.0
 31
0.0
 40
0.0174550649
 41
-1.6330552647
 42
-1.622976686
  0
ELLIPSE
  5
601
100
AcDbEntity
  8
DRAFT
100
AcDbEllipse
 62
7
  6
CONTINUOUS
 10
-29.1313787251
 20
-28.4457946358
 30
0.0
 11
482.5
 21
0.0
 31
0.0
 40
0.0174550649
 41
1.5065143385
 42
1.5230826671
  0
ELLIPSE
  5
602
100
AcDbEntity
  8
DRAFT
100
AcDbEllipse
 62
7
  6
CONTINUOUS
 10
-29.1313787251
 20
-28.4457946358
 30
0.0
 11
482.5
 21
0.0
 31
0.0
 40
0.0174550649
 41
1.5275460159
 42
1.5508550734
  0
ELLIPSE
  5
603
100
AcDbEntity
  8
DRAFT
100
AcDbEllipse
 62
7
  6
CONTINUOUS
 10
-29.1313787251
 20
-28.4457946358
 30
0.0
 11
482.5
 21
0.0
 31
0.0
 40
0.0174550649
 41
1.5534305248
 42
1.5881621288
  0
ELLIPSE
  5
604
100
AcDbEntity
  8
DRAFT
100
AcDbEllipse
 62
7
  6
CONTINUOUS
 10
-29.1313787251
 20
-28.4457946358
 30
0.0
 11
482.5
 21
0.0
 31
0.0
 40
0.0174550649
 41
1.5907375802
 42
1.6140466376
  0
ELLIPSE
  5
605
100
AcDbEntity
  8
DRAFT
100
AcDbEllipse
 62
7
  6
CONTINUOUS
 10
-29.1313787251
 20
-28.4457946358
 30
0.0
 11
482.5
 21
0.0
 31
0.0
 40
0.0174550649
 41
1.6185099865
 42
1.6350783151
  0
ELLIPSE
  5
606
100
AcDbEntity
  8
DRAFT
100
AcDbEllipse
 62
7
  6
CONTINUOUS
 10
-63.4313787251
 20
44.9554851428
 30
0.0
 11
0.1
 21
-0.0
 31
0.0
 40
0.0174550649
 41
0.3490658504
 42
2.7925268032
  0
ELLIPSE
  5
607
100
AcDbEntity
  8
DRAFT
100
AcDbEllipse
 62
7
  6
CONTINUOUS
 10
-62.7313787251
 20
44.9554851428
 30
0.0
 11
0.1
 21
-0.0
 31
0.0
 40
0.0174550649
 41
0.3490658504
 42
2.7925268032
  0
ELLIPSE
  5
608
100
AcDbEntity
  8
DRAFT
100
AcDbEllipse
 62
7
  6
CONTINUOUS
 10
-29.1313787251
 20
-75.218107829
 30
0.0
 11
383.0
 21
0.0
 31
0.0
 40
0.0349207695
 41
1.6214666627
 42
1.640268562
  0
ELLIPSE
  5
609
100
AcDbEntity
  8
DRAFT
100
AcDbEllipse
 62
7
  6
CONTINUOUS
 10
-29.1313787251
 20
-37.9562596309
 30
0.0
 11
383.0
 21
0.0
 31
0.0
 40
0.0349207695
 41
-1.640268562
 42
-1.6214666627
  0
ELLIPSE
  5
60A
100
AcDbEntity
  8
DRAFT
100
AcDbEllipse
 62
7
  6
CONTINUOUS
 10
-29.1313787251
 20
-37.9562596309
 30
0.0
 11
383.0
 21
0.0
 31
0.0
 40
0.0349207695
 41
-1.5201259909
 42
-1.5013240915
  0
ELLIPSE
  5
60B
100
AcDbEntity
  8
DRAFT
100
AcDbEllipse
 62
7
  6
CONTINUOUS
 10
-29.1313787251
 20
-75.218107829
 30
0.0
 11
383.0
 21
0.0
 31
0.0
 40
0.0349207695
 41
1.5013240915
 42
1.5201259909
  0
ELLIPSE
  5
60C
100
AcDbEntity
  8
DRAFT
100
AcDbEllipse
 62
7
  6
CONTINUOUS
 10
-29.1313787251
 20
53.2714271759
 30
0.0
 11
482.5
 21
0.0
 31
0.0
 40
0.0174550649
 41
-1.638840598
 42
-1.6387243127
  0
ELLIPSE
  5
60D
100
AcDbEntity
  8
DRAFT
100
AcDbEllipse
 62
7
  6
CONTINUOUS
 10
-29.1313787251
 20
53.2714271759
 30
0.0
 11
482.5
 21
0.0
 31
0.0
 40
0.0174550649
 41
-1.5028683409
 42
-1.5027520556
  0
ELLIPSE
  5
60E
100
AcDbEntity
  8
DRAFT
100
AcDbEllipse
 62
7
  6
CONTINUOUS
 10
4.4686212749
 20
44.9554851428
 30
0.0
 11
0.1
 21
-0.0
 31
0.0
 40
0.0174550649
 41
0.3490658504
 42
2.7925268032
  0
ELLIPSE
  5
60F
100
AcDbEntity
  8
DRAFT
100
AcDbEllipse
 62
7
  6
CONTINUOUS
 10
5.1686212749
 20
44.9554851428
 30
0.0
 11
0.1
 21
-0.0
 31
0.0
 40
0.0174550649
 41
0.3490658504
 42
2.7925268032
  0
ELLIPSE
  5
610
100
AcDbEntity
  8
DRAFT
100
AcDbEllipse
 62
7
  6
CONTINUOUS
 10
-29.1313787251
 20
-14.9812596309
 30
0.0
 11
383.0
 21
0.0
 31
0.0
 40
0.0349207695
 41
-1.5201259909
 42
-1.5013240915
  0
ELLIPSE
  5
611
100
AcDbEntity
  8
DRAFT
100
AcDbEllipse
 62
7
  6
CONTINUOUS
 10
-29.1313787251
 20
-52.243107829
 30
0.0
 11
383.0
 21
0.0
 31
0.0
 40
0.0349207695
 41
1.5013240915
 42
1.5201259909
  0
ELLIPSE
  5
612
100
AcDbEntity
  8
DRAFT
100
AcDbEllipse
 62
7
  6
CONTINUOUS
 10
-29.1313787251
 20
-52.243107829
 30
0.0
 11
383.0
 21
0.0
 31
0.0
 40
0.0349207695
 41
1.6214666627
 42
1.640268562
  0
ELLIPSE
  5
613
100
AcDbEntity
  8
DRAFT
100
AcDbEllipse
 62
7
  6
CONTINUOUS
 10
-29.1313787251
 20
-14.9812596309
 30
0.0
 11
383.0
 21
0.0
 31
0.0
 40
0.0349207695
 41
-1.6400422531
 42
-1.6214666627
  0
ELLIPSE
  5
614
100
AcDbEntity
  8
RACCORDO
100
AcDbEllipse
 62
7
  6
CONTINUOUS
 10
-59.8302327738
 20
3.8116703188
 30
0.0
 11
0.2137495824
 21
-0.2137495824
 31
0.0
 40
0.9924325091
 41
2.3599925885
 42
3.9231927187
  0
ELLIPSE
  5
615
100
AcDbEntity
  8
RACCORDO
100
AcDbEllipse
 62
7
  6
CONTINUOUS
 10
7.8563265655
 20
46.1005215606
 30
0.0
 11
0.3536610946
 21
0.3536610946
 31
0.0
 40
0.9996954599
 41
-0.7852458701
 42
0.7852458701
  0
ELLIPSE
  5
616
100
AcDbEntity
  8
RACCORDO
100
AcDbEllipse
 62
7
  6
CONTINUOUS
 10
6.8563265655
 20
-67.3748890205
 30
0.0
 11
0.3536610946
 21
-0.3536610946
 31
0.0
 40
0.9996954599
 41
-0.7852458701
 42
0.7852458701
  0
ELLIPSE
  5
617
100
AcDbEntity
  8
DRAFT
100
AcDbEllipse
 62
7
  6
CONTINUOUS
 10
-29.1313787251
 20
20.8032280683
 30
0.0
 11
482.5
 21
0.0
 31
0.0
 40
0.0349207695
 41
1.6387242058
 42
1.638840598
  0
ELLIPSE
  5
618
100
AcDbEntity
  8
DRAFT
100
AcDbEllipse
 62
7
  6
CONTINUOUS
 10
-29.1313787251
 20
58.5224044719
 30
0.0
 11
482.5
 21
0.0
 31
0.0
 40
0.0349207695
 41
-1.638840598
 42
-1.6387242058
  0
ELLIPSE
  5
619
100
AcDbEntity
  8
DRAFT
100
AcDbEllipse
 62
7
  6
CONTINUOUS
 10
-29.1313787251
 20
-9.1967719317
 30
0.0
 11
482.5
 21
0.0
 31
0.0
 40
0.0349207695
 41
1.6272259875
 42
1.638840598
  0
ELLIPSE
  5
61A
100
AcDbEntity
  8
DRAFT
100
AcDbEllipse
 62
7
  6
CONTINUOUS
 10
-29.1313787251
 20
28.5224044719
 30
0.0
 11
482.5
 21
0.0
 31
0.0
 40
0.0349207695
 41
-1.638840598
 42
-1.6387242058
  0
ELLIPSE
  5
61B
100
AcDbEntity
  8
DRAFT
100
AcDbEllipse
 62
7
  6
CONTINUOUS
 10
-29.1313787251
 20
15.8032280683
 30
0.0
 11
482.5
 21
0.0
 31
0.0
 40
0.0349207695
 41
1.5950021157
 42
1.6054812908
  0
ELLIPSE
  5
61C
100
AcDbEntity
  8
DRAFT
100
AcDbEllipse
 62
7
  6
CONTINUOUS
 10
-29.1313787251
 20
15.8032280683
 30
0.0
 11
482.5
 21
0.0
 31
0.0
 40
0.0349207695
 41
1.5566089954
 42
1.5849836582
  0
ELLIPSE
  5
61D
100
AcDbEntity
  8
DRAFT
100
AcDbEllipse
 62
7
  6
CONTINUOUS
 10
-29.1313787251
 20
15.8032280683
 30
0.0
 11
482.5
 21
0.0
 31
0.0
 40
0.0349207695
 41
1.5361113628
 42
1.5465905378
  0
ELLIPSE
  5
61E
100
AcDbEntity
  8
DRAFT
100
AcDbEllipse
 62
7
  6
CONTINUOUS
 10
-29.1313787251
 20
58.5224044719
 30
0.0
 11
482.5
 21
0.0
 31
0.0
 40
0.0349207695
 41
-1.5028684478
 42
-1.5027520556
  0
ELLIPSE
  5
61F
100
AcDbEntity
  8
DRAFT
100
AcDbEllipse
 62
7
  6
CONTINUOUS
 10
-29.1313787251
 20
20.8032280683
 30
0.0
 11
482.5
 21
0.0
 31
0.0
 40
0.0349207695
 41
1.5027520556
 42
1.5028684478
  0
ELLIPSE
  5
620
100
AcDbEntity
  8
DRAFT
100
AcDbEllipse
 62
7
  6
CONTINUOUS
 10
-29.1313787251
 20
43.5224044719
 30
0.0
 11
482.5
 21
0.0
 31
0.0
 40
0.0349207695
 41
-1.5028684478
 42
-1.5027520556
  0
ELLIPSE
  5
621
100
AcDbEntity
  8
DRAFT
100
AcDbEllipse
 62
7
  6
CONTINUOUS
 10
-29.1313787251
 20
5.8032280683
 30
0.0
 11
482.5
 21
0.0
 31
0.0
 40
0.0349207695
 41
1.5027520556
 42
1.5028684478
  0
ELLIPSE
  5
622
100
AcDbEntity
  8
DRAFT
100
AcDbEllipse
 62
7
  6
CONTINUOUS
 10
-29.1313787251
 20
28.5224044719
 30
0.0
 11
482.5
 21
0.0
 31
0.0
 40
0.0349207695
 41
-1.5028684478
 42
-1.5027520556
  0
ELLIPSE
  5
623
100
AcDbEntity
  8
DRAFT
100
AcDbEllipse
 62
7
  6
CONTINUOUS
 10
-29.1313787251
 20
-9.1967719317
 30
0.0
 11
482.5
 21
0.0
 31
0.0
 40
0.0349207695
 41
1.5027520556
 42
1.5143666661
  0
ELLIPSE
  5
624
100
AcDbEntity
  8
DRAFT
100
AcDbEllipse
 62
7
  6
CONTINUOUS
 10
-29.1313787251
 20
5.8032280683
 30
0.0
 11
482.5
 21
0.0
 31
0.0
 40
0.0349207695
 41
1.5333924499
 42
1.5335276316
  0
ELLIPSE
  5
625
100
AcDbEntity
  8
DRAFT
100
AcDbEllipse
 62
7
  6
CONTINUOUS
 10
-29.1313787251
 20
43.5224044719
 30
0.0
 11
482.5
 21
0.0
 31
0.0
 40
0.0349207695
 41
-1.5335276316
 42
-1.533069486
  0
ELLIPSE
  5
626
100
AcDbEntity
  8
DRAFT
100
AcDbEllipse
 62
7
  6
CONTINUOUS
 10
-29.1313787251
 20
53.5224044719
 30
0.0
 11
482.5
 21
0.0
 31
0.0
 40
0.0349207695
 41
-1.5028684478
 42
-1.5027520556
  0
ELLIPSE
  5
627
100
AcDbEntity
  8
DRAFT
100
AcDbEllipse
 62
7
  6
CONTINUOUS
 10
-29.1313787251
 20
15.8032280683
 30
0.0
 11
482.5
 21
0.0
 31
0.0
 40
0.0349207695
 41
1.5027520556
 42
1.5028684491
  0
ELLIPSE
  5
628
100
AcDbEntity
  8
DRAFT
100
AcDbEllipse
 62
7
  6
CONTINUOUS
 10
-29.1313787251
 20
10.8032280683
 30
0.0
 11
482.5
 21
0.0
 31
0.0
 40
0.0349207695
 41
1.5332668507
 42
1.5335276316
  0
ELLIPSE
  5
629
100
AcDbEntity
  8
DRAFT
100
AcDbEllipse
 62
7
  6
CONTINUOUS
 10
-29.1313787251
 20
48.5224044719
 30
0.0
 11
482.5
 21
0.0
 31
0.0
 40
0.0349207695
 41
-1.5028684485
 42
-1.5027520556
  0
ELLIPSE
  5
62A
100
AcDbEntity
  8
DRAFT
100
AcDbEllipse
 62
7
  6
CONTINUOUS
 10
-29.1313787251
 20
10.8032280683
 30
0.0
 11
482.5
 21
0.0
 31
0.0
 40
0.0349207695
 41
1.5027520556
 42
1.5028684478
  0
ELLIPSE
  5
62B
100
AcDbEntity
  8
DRAFT
100
AcDbEllipse
 62
7
  6
CONTINUOUS
 10
-29.1313787251
 20
25.8032280683
 30
0.0
 11
482.5
 21
0.0
 31
0.0
 40
0.0349207695
 41
1.6387242047
 42
1.638840598
  0
ELLIPSE
  5
62C
100
AcDbEntity
  8
DRAFT
100
AcDbEllipse
 62
7
  6
CONTINUOUS
 10
-29.1313787251
 20
25.8032280683
 30
0.0
 11
482.5
 21
0.0
 31
0.0
 40
0.0349207695
 41
1.5027520556
 42
1.5028684489
  0
ELLIPSE
  5
62D
100
AcDbEntity
  8
DRAFT
100
AcDbEllipse
 62
7
  6
CONTINUOUS
 10
-29.1313787251
 20
10.8032280683
 30
0.0
 11
482.5
 21
0.0
 31
0.0
 40
0.0349207695
 41
1.608065022
 42
1.6083257977
  0
ELLIPSE
  5
62E
100
AcDbEntity
  8
DRAFT
100
AcDbEllipse
 62
7
  6
CONTINUOUS
 10
-29.1313787251
 20
43.5224044719
 30
0.0
 11
482.5
 21
0.0
 31
0.0
 40
0.0349207695
 41
-1.6085231601
 42
-1.608065022
  0
ELLIPSE
  5
62F
100
AcDbEntity
  8
DRAFT
100
AcDbEllipse
 62
7
  6
CONTINUOUS
 10
-29.1313787251
 20
5.8032280683
 30
0.0
 11
482.5
 21
0.0
 31
0.0
 40
0.0349207695
 41
1.608065022
 42
1.6082002017
  0
ELLIPSE
  5
630
100
AcDbEntity
  8
ASSI
100
AcDbEllipse
 62
7
  6
CONTINUOUS
 10
-29.1313787251
 20
-9.1967719317
 30
0.0
 11
482.5
 21
0.0
 31
0.0
 40
0.0349207695
 41
1.6216104886
 42
1.6253006935
  0
ELLIPSE
  5
631
100
AcDbEntity
  8
ASSI
100
AcDbEllipse
 62
7
  6
CONTINUOUS
 10
-29.1313787251
 20
-9.1967719317
 30
0.0
 11
482.5
 21
0.0
 31
0.0
 40
0.0349207695
 41
1.5366246583
 42
1.6049679953
  0
ELLIPSE
  5
632
100
AcDbEntity
  8
ASSI
100
AcDbEllipse
 62
7
  6
CONTINUOUS
 10
-29.1313787251
 20
-9.1967719317
 30
0.0
 11
482.5
 21
0.0
 31
0.0
 40
0.0349207695
 41
1.5162919601
 42
1.519982165
  0
ELLIPSE
  5
633
100
AcDbEntity
  8
DRAFT
100
AcDbEllipse
 62
7
  6
CONTINUOUS
 10
-29.1313787251
 20
38.5224044719
 30
0.0
 11
482.5
 21
0.0
 31
0.0
 40
0.0349207695
 41
-1.5028684478
 42
-1.5027520556
  0
ELLIPSE
  5
634
100
AcDbEntity
  8
DRAFT
100
AcDbEllipse
 62
7
  6
CONTINUOUS
 10
-29.1313787251
 20
0.8032280683
 30
0.0
 11
482.5
 21
0.0
 31
0.0
 40
0.0349207695
 41
1.5027520556
 42
1.5028684496
  0
ELLIPSE
  5
635
100
AcDbEntity
  8
DRAFT
100
AcDbEllipse
 62
7
  6
CONTINUOUS
 10
-29.1313787251
 20
33.5224044719
 30
0.0
 11
482.5
 21
0.0
 31
0.0
 40
0.0349207695
 41
-1.5028684495
 42
-1.5027520556
  0
ELLIPSE
  5
636
100
AcDbEntity
  8
DRAFT
100
AcDbEllipse
 62
7
  6
CONTINUOUS
 10
-29.1313787251
 20
-4.1967719317
 30
0.0
 11
482.5
 21
0.0
 31
0.0
 40
0.0349207695
 41
1.5027520556
 42
1.5028684478
  0
ELLIPSE
  5
637
100
AcDbEntity
  8
DRAFT
100
AcDbEllipse
 62
7
  6
CONTINUOUS
 10
-29.1313787251
 20
33.5224044719
 30
0.0
 11
482.5
 21
0.0
 31
0.0
 40
0.0349207695
 41
-1.6040697717
 42
-1.5946379298
  0
ELLIPSE
  5
638
100
AcDbEntity
  8
DRAFT
100
AcDbEllipse
 62
7
  6
CONTINUOUS
 10
-29.1313787251
 20
33.5224044719
 30
0.0
 11
482.5
 21
0.0
 31
0.0
 40
0.0349207695
 41
-1.581050848
 42
-1.5605418056
  0
ELLIPSE
  5
639
100
AcDbEntity
  8
DRAFT
100
AcDbEllipse
 62
7
  6
CONTINUOUS
 10
-29.1313787251
 20
33.5224044719
 30
0.0
 11
482.5
 21
0.0
 31
0.0
 40
0.0349207695
 41
-1.5469547237
 42
-1.5375228819
  0
ELLIPSE
  5
63A
100
AcDbEntity
  8
ASSI
100
AcDbEllipse
 62
7
  6
CONTINUOUS
 10
-29.1313787251
 20
43.5224044719
 30
0.0
 11
482.5
 21
0.0
 31
0.0
 40
0.0349207695
 41
-1.5612262907
 42
-1.5502533402
  0
ELLIPSE
  5
63B
100
AcDbEntity
  8
ASSI
100
AcDbEllipse
 62
7
  6
CONTINUOUS
 10
-29.1313787251
 20
43.5224044719
 30
0.0
 11
482.5
 21
0.0
 31
0.0
 40
0.0349207695
 41
-1.5424284257
 42
-1.5355127287
  0
ELLIPSE
  5
63C
100
AcDbEntity
  8
ASSI
100
AcDbEllipse
 62
7
  6
CONTINUOUS
 10
-29.1313787251
 20
5.8032280683
 30
0.0
 11
482.5
 21
0.0
 31
0.0
 40
0.0349207695
 41
1.5508515823
 42
1.562586494
  0
ELLIPSE
  5
63D
100
AcDbEntity
  8
ASSI
100
AcDbEllipse
 62
7
  6
CONTINUOUS
 10
-29.1313787251
 20
5.8032280683
 30
0.0
 11
482.5
 21
0.0
 31
0.0
 40
0.0349207695
 41
1.5355127287
 42
1.5428629356
  0
ELLIPSE
  5
63E
100
AcDbEntity
  8
ASSI
100
AcDbEllipse
 62
7
  6
CONTINUOUS
 10
-29.1313787251
 20
10.8032280683
 30
0.0
 11
482.5
 21
0.0
 31
0.0
 40
0.0349207695
 41
1.5988966739
 42
1.6060799249
  0
ELLIPSE
  5
63F
100
AcDbEntity
  8
ASSI
100
AcDbEllipse
 62
7
  6
CONTINUOUS
 10
-29.1313787251
 20
10.8032280683
 30
0.0
 11
482.5
 21
0.0
 31
0.0
 40
0.0349207695
 41
1.5795405631
 42
1.5909709142
  0
ELLIPSE
  5
640
100
AcDbEntity
  8
DRAFT
100
AcDbEllipse
 62
7
  6
CONTINUOUS
 10
-29.1313787251
 20
48.5224044719
 30
0.0
 11
482.5
 21
0.0
 31
0.0
 40
0.0349207695
 41
-1.6060799249
 42
-1.5961061102
  0
ELLIPSE
  5
641
100
AcDbEntity
  8
DRAFT
100
AcDbEllipse
 62
7
  6
CONTINUOUS
 10
-29.1313787251
 20
48.5224044719
 30
0.0
 11
482.5
 21
0.0
 31
0.0
 40
0.0349207695
 41
-1.5868640552
 42
-1.5547285984
  0
ELLIPSE
  5
642
100
AcDbEntity
  8
DRAFT
100
AcDbEllipse
 62
7
  6
CONTINUOUS
 10
-29.1313787251
 20
48.5224044719
 30
0.0
 11
482.5
 21
0.0
 31
0.0
 40
0.0349207695
 41
-1.5454865433
 42
-1.5355127287
  0
ELLIPSE
  5
643
100
AcDbEntity
  8
ASSI
100
AcDbEllipse
 62
7
  6
CONTINUOUS
 10
-29.1313787251
 20
10.8032280683
 30
0.0
 11
482.5
 21
0.0
 31
0.0
 40
0.0349207695
 41
1.5506217394
 42
1.5620520904
  0
ELLIPSE
  5
644
100
AcDbEntity
  8
ASSI
100
AcDbEllipse
 62
7
  6
CONTINUOUS
 10
-29.1313787251
 20
10.8032280683
 30
0.0
 11
482.5
 21
0.0
 31
0.0
 40
0.0349207695
 41
1.5355127287
 42
1.5426959797
  0
ELLIPSE
  5
645
100
AcDbEntity
  8
ASSI
100
AcDbEllipse
 62
7
  6
CONTINUOUS
 10
-29.1313787251
 20
5.8032280683
 30
0.0
 11
482.5
 21
0.0
 31
0.0
 40
0.0349207695
 41
1.598729718
 42
1.6060799249
  0
ELLIPSE
  5
646
100
AcDbEntity
  8
ASSI
100
AcDbEllipse
 62
7
  6
CONTINUOUS
 10
-29.1313787251
 20
5.8032280683
 30
0.0
 11
482.5
 21
0.0
 31
0.0
 40
0.0349207695
 41
1.5790061595
 42
1.5907410713
  0
ELLIPSE
  5
647
100
AcDbEntity
  8
ASSI
100
AcDbEllipse
 62
7
  6
CONTINUOUS
 10
-29.1313787251
 20
43.5224044719
 30
0.0
 11
482.5
 21
0.0
 31
0.0
 40
0.0349207695
 41
-1.6060799249
 42
-1.5991642279
  0
ELLIPSE
  5
648
100
AcDbEntity
  8
ASSI
100
AcDbEllipse
 62
7
  6
CONTINUOUS
 10
-29.1313787251
 20
43.5224044719
 30
0.0
 11
482.5
 21
0.0
 31
0.0
 40
0.0349207695
 41
-1.5913393134
 42
-1.5803663629
  0
ELLIPSE
  5
649
100
AcDbEntity
  8
ASSI
100
AcDbEllipse
 62
7
  6
CONTINUOUS
 10
-29.1313787251
 20
38.5224044719
 30
0.0
 11
482.5
 21
0.0
 31
0.0
 40
0.0349207695
 41
4.7187530193
 42
4.7316540945
  0
ELLIPSE
  5
64A
100
AcDbEntity
  8
ASSI
100
AcDbEllipse
 62
7
  6
CONTINUOUS
 10
-29.1313787251
 20
38.5224044719
 30
0.0
 11
482.5
 21
0.0
 31
0.0
 40
0.0349207695
 41
-1.5433415193
 42
-1.5355127287
  0
ELLIPSE
  5
64B
100
AcDbEntity
  8
DRAFT
100
AcDbEllipse
 62
7
  6
CONTINUOUS
 10
-29.1313787251
 20
0.8032280683
 30
0.0
 11
482.5
 21
0.0
 31
0.0
 40
0.0349207695
 41
1.5946842757
 42
1.6050680099
  0
ELLIPSE
  5
64C
100
AcDbEntity
  8
DRAFT
100
AcDbEllipse
 62
7
  6
CONTINUOUS
 10
-29.1313787251
 20
0.8032280683
 30
0.0
 11
482.5
 21
0.0
 31
0.0
 40
0.0349207695
 41
1.5576112252
 42
1.5839814284
  0
ELLIPSE
  5
64D
100
AcDbEntity
  8
DRAFT
100
AcDbEllipse
 62
7
  6
CONTINUOUS
 10
-29.1313787251
 20
0.8032280683
 30
0.0
 11
482.5
 21
0.0
 31
0.0
 40
0.0349207695
 41
1.5365246437
 42
1.5469083779
  0
ELLIPSE
  5
64E
100
AcDbEntity
  8
ASSI
100
AcDbEllipse
 62
7
  6
CONTINUOUS
 10
-29.1313787251
 20
38.5224044719
 30
0.0
 11
482.5
 21
0.0
 31
0.0
 40
0.0349207695
 41
-1.6060799249
 42
-1.5982511343
  0
ELLIPSE
  5
64F
100
AcDbEntity
  8
ASSI
100
AcDbEllipse
 62
7
  6
CONTINUOUS
 10
-29.1313787251
 20
38.5224044719
 30
0.0
 11
482.5
 21
0.0
 31
0.0
 40
0.0349207695
 41
4.6931238662
 42
4.7060249415
  0
ELLIPSE
  5
650
100
AcDbEntity
  8
DRAFT
100
AcDbEllipse
 62
7
  6
CONTINUOUS
 10
-29.1313787251
 20
-76.218107829
 30
0.0
 11
383.0
 21
0.0
 31
0.0
 40
0.0349207695
 41
1.5305559548
 42
1.5483802734
  0
ELLIPSE
  5
651
100
AcDbEntity
  8
DRAFT
100
AcDbEllipse
 62
7
  6
CONTINUOUS
 10
-29.1313787251
 20
-76.218107829
 30
0.0
 11
383.0
 21
0.0
 31
0.0
 40
0.0349207695
 41
1.5932123802
 42
1.6110366988
  0
ELLIPSE
  5
652
100
AcDbEntity
  8
RACCORDO
100
AcDbEllipse
 62
7
  6
CONTINUOUS
 10
-67.6016289507
 20
46.0830664957
 30
0.0
 11
0.3536610946
 21
-0.3536610946
 31
0.0
 40
0.9996954599
 41
2.3563467834
 42
3.9268385237
  0
ELLIPSE
  5
653
100
AcDbEntity
  8
RACCORDO
100
AcDbEllipse
 62
7
  6
CONTINUOUS
 10
-67.6016289507
 20
-67.3574339555
 30
0.0
 11
-0.3536610946
 21
-0.3536610946
 31
0.0
 40
0.9996954599
 41
-0.7852458701
 42
0.7852458701
  0
ELLIPSE
  5
654
100
AcDbEntity
  8
DRAFT
100
AcDbEllipse
 62
7
  6
CONTINUOUS
 10
-29.1313787251
 20
-36.6562596309
 30
0.0
 11
383.0
 21
0.0
 31
0.0
 40
0.0349207695
 41
-1.5013240915
 42
-1.4907524144
  0
ELLIPSE
  5
655
100
AcDbEntity
  8
DRAFT
100
AcDbEllipse
 62
7
  6
CONTINUOUS
 10
-29.1313787251
 20
-36.6562596309
 30
0.0
 11
383.0
 21
0.0
 31
0.0
 40
0.0349207695
 41
-1.6214666627
 42
-1.5201259909
  0
ELLIPSE
  5
656
100
AcDbEntity
  8
DRAFT
100
AcDbEllipse
 62
7
  6
CONTINUOUS
 10
-29.1313787251
 20
-36.6562596309
 30
0.0
 11
383.0
 21
0.0
 31
0.0
 40
0.0349207695
 41
-1.6508402392
 42
-1.640268562
  0
ELLIPSE
  5
657
100
AcDbEntity
  8
DRAFT
100
AcDbEllipse
 62
7
  6
CONTINUOUS
 10
-29.1313787251
 20
-76.518107829
 30
0.0
 11
383.0
 21
0.0
 31
0.0
 40
0.0349207695
 41
1.5483802734
 42
1.5932123802
  0
ELLIPSE
  5
658
100
AcDbEntity
  8
DRAFT
100
AcDbEllipse
 62
7
  6
CONTINUOUS
 10
-29.1313787251
 20
-76.518107829
 30
0.0
 11
383.0
 21
0.0
 31
0.0
 40
0.0349207695
 41
1.4907524144
 42
1.5013240915
  0
ELLIPSE
  5
659
100
AcDbEntity
  8
DRAFT
100
AcDbEllipse
 62
7
  6
CONTINUOUS
 10
-29.1313787251
 20
-76.518107829
 30
0.0
 11
383.0
 21
0.0
 31
0.0
 40
0.0349207695
 41
1.5201259909
 42
1.5305559548
  0
ELLIPSE
  5
65A
100
AcDbEntity
  8
DRAFT
100
AcDbEllipse
 62
7
  6
CONTINUOUS
 10
-29.1313787251
 20
-76.518107829
 30
0.0
 11
383.0
 21
0.0
 31
0.0
 40
0.0349207695
 41
1.640268562
 42
1.6508402392
  0
ELLIPSE
  5
65B
100
AcDbEntity
  8
DRAFT
100
AcDbEllipse
 62
7
  6
CONTINUOUS
 10
-29.1313787251
 20
-76.518107829
 30
0.0
 11
383.0
 21
0.0
 31
0.0
 40
0.0349207695
 41
1.6110366988
 42
1.6214666627
  0
ELLIPSE
  5
65C
100
AcDbEntity
  8
DRAFT
100
AcDbEllipse
 62
7
  6
CONTINUOUS
 10
-29.1313787251
 20
-13.6812596309
 30
0.0
 11
383.0
 21
0.0
 31
0.0
 40
0.0349207695
 41
-1.5013240915
 42
-1.4907524144
  0
ELLIPSE
  5
65D
100
AcDbEntity
  8
DRAFT
100
AcDbEllipse
 62
7
  6
CONTINUOUS
 10
-29.1313787251
 20
-13.6812596309
 30
0.0
 11
383.0
 21
0.0
 31
0.0
 40
0.0349207695
 41
-1.6214666627
 42
-1.5201259909
  0
ELLIPSE
  5
65E
100
AcDbEntity
  8
DRAFT
100
AcDbEllipse
 62
7
  6
CONTINUOUS
 10
-29.1313787251
 20
-13.6812596309
 30
0.0
 11
383.0
 21
0.0
 31
0.0
 40
0.0349207695
 41
-1.6508402392
 42
-1.6400422531
  0
ELLIPSE
  5
65F
100
AcDbEntity
  8
DRAFT
100
AcDbEllipse
 62
7
  6
CONTINUOUS
 10
-29.1313787251
 20
-53.543107829
 30
0.0
 11
383.0
 21
0.0
 31
0.0
 40
0.0349207695
 41
1.4907524144
 42
1.5013240915
  0
ELLIPSE
  5
660
100
AcDbEntity
  8
DRAFT
100
AcDbEllipse
 62
7
  6
CONTINUOUS
 10
-29.1313787251
 20
-53.543107829
 30
0.0
 11
383.0
 21
0.0
 31
0.0
 40
0.0349207695
 41
1.640268562
 42
1.6508402392
  0
ELLIPSE
  5
661
100
AcDbEntity
  8
DRAFT
100
AcDbEllipse
 62
7
  6
CONTINUOUS
 10
-29.1313787251
 20
-53.543107829
 30
0.0
 11
383.0
 21
0.0
 31
0.0
 40
0.0349207695
 41
1.5201259909
 42
1.6214666627
  0
ENDSEC
  0
SECTION
  2
OBJECTS
  0
DICTIONARY
  5
C
100
AcDbDictionary
280
0
281
1
  3
ACAD_GROUP
350
D
  3
ACAD_MLINESTYLE
350
17
  3
ACAD_LAYOUT
350
1A
  3
ACAD_PLOTSETTINGS
350
19
  3
ACAD_PLOTSTYLENAME
350
E
  0
DICTIONARY
  5
D
102
{ACAD_REACTORS
330
C
102
}
100
AcDbDictionary
280
0
281
1
  0
ACDBDICTIONARYWDFLT
  5
E
102
{ACAD_REACTORS
330
C
102
}
100
AcDbDictionary
281
1
  3
Normal
350
F
100
AcDbDictionaryWithDefault
340
F
  0
DICTIONARY
  5
17
102
{ACAD_REACTORS
330
C
102
}
100
AcDbDictionary
280
0
281
1
  3
Standard
350
18
  0
DICTIONARY
  5
19
102
{ACAD_REACTORS
330
C
102
}
100
AcDbDictionary
281
1
  0
DICTIONARY
  5
1A
102
{ACAD_REACTORS
330
C
102
}
100
AcDbDictionary
281
1
  3
Model
350
662
  3
Layout1
350
663
  0
ACDBPLACEHOLDER
  5
F
102
{ACAD_REACTORS
330
E
102
}
  0
MLINESTYLE
  5
18
102
{ACAD_REACTORS
330
17
102
}
100
AcDbMlineStyle
  2
STANDARD
 70
0
  3

 62
256
 51
90.0
 52
90.0
 71
2
 49
0.5
 62
256
  6
BYLAYER
 49
-0.5
 62
256
  6
BYLAYER
  0
LAYOUT
  5
662
102
{ACAD_REACTORS
330
1A
102
}
100
AcDbPlotSettings
  1

  2
none_device
  4
ISO_A4_(297.00_x_210.00_MM)
  6

 40
0.0
 41
0.0
 42
0.0
 43
0.0
 44
297.0
 45
210.0
 46
0.0
 47
0.0
 48
0.0
 49
0.0
140
0.0
141
0.0
142
1.0
143
1.0
 70
1024
 72
1
 73
0
 74
0
  7

 75
0
147
1.0
148
0.0
149
0.0
100
AcDbLayout
  1
Model
 70
0
 71
0
 10
0.0
 20
0.0
 11
297.0
 21
210.0
 12
0.0
 22
0.0
 32
0.0
 14
0.0
 24
0.0
 34
0.0
 15
0.0
 25
0.0
 35
0.0
146
0.0
 13
0.0
 23
0.0
 33
0.0
 16
1.0
 26
0.0
 36
0.0
 17
0.0
 27
1.0
 37
0.0
 76
0
330
215
345
0
346
0
  0
LAYOUT
  5
663
102
{ACAD_REACTORS
330
1A
102
}
100
AcDbPlotSettings
  1

  2
none_device
  4
ISO_A4_(297.00_x_210.00_MM)
  6

 40
0.0
 41
0.0
 42
0.0
 43
0.0
 44
297.0
 45
210.0
 46
0.0
 47
0.0
 48
0.0
 49
0.0
140
0.0
141
0.0
142
1.0
143
1.0
 70
0
 72
1
 73
0
 74
0
  7

 75
0
147
1.0
148
0.0
149
0.0
100
AcDbLayout
  1
Layout1
 70
0
 71
1
 10
0.0
 20
0.0
 11
297.0
 21
210.0
 12
0.0
 22
0.0
 32
0.0
 14
0.0
 24
0.0
 34
0.0
 15
0.0
 25
0.0
 35
0.0
146
0.0
 13
0.0
 23
0.0
 33
0.0
 16
1.0
 26
0.0
 36
0.0
 17
0.0
 27
1.0
 37
0.0
 76
0
330
216
345
0
346
0
  0
ENDSEC
  0
EOF
