  0
SECTION
  2
HEADER
  9
$ACADVER
  1
AC1024
  9
$DWGCODEPAGE
  3
ANSI_1252
  9
$EXTMAX
 10
297.0
 20
210.0
 30
0.0
  9
$EXTMIN
 10
0.0
 20
0.0
 30
0.0
  9
$LIMMIN
 10
0.0
 20
0.0
  9
$LIMMAX
 10
297.0
 20
210.0
  9
$VIEWCTR
 10
148.5
 20
105.0
  9
$VIEWSIZE
 40
210.0
  9
$CLAYER
  8
0
  9
$LTSCALE
 40
16.335
  9
$CELTYPE
  6
BYLAYER
  9
$DIMSCALE
 40
1.0
  9
$DIMASZ
 40
3.0
  9
$DIMEXO
 40
0.5
  9
$DIMDLI
 40
11.286
  9
$DIMEXE
 40
1.5
  9
$DIMCEN
 40
2.673
  9
$DIMLFAC
 40
1.0
  9
$DIMBLK
  1
_FILLED
  9
$DIMALT
 70
0
  9
$DIMALTF
 40
0.0393700787
  9
$DIMTXT
 40
3.0
  9
$DIMTOL
 70
1
  9
$DIMLIM
 70
0
  9
$DIMTFAC
 40
1.0
  9
$DIMTP
 40
0.01
  9
$DIMTM
 40
0.01
  9
$DIMGAP
 40
0.625
  9
$DIMDSEP
 70
44
  9
$AUNITS
 70
0
  9
$PDMODE
 70
3
  9
$PDSIZE
 40
3.0
  9
$HANDSEED
  5
725
  9
$TILEMODE
 70
1
  9
$MEASUREMENT
 70
1
  9
$INSUNITS
 70
4
  0
ENDSEC
  0
SECTION
  2
CLASSES
  0
CLASS
  1
ACDBDICTIONARYWDFLT
  2
AcDbDictionaryWithDefault
  3
AutoCAD 2000
 90
0
 91
1
280
0
281
0
  0
CLASS
  1
ACDBPLACEHOLDER
  2
AcDbPlaceHolder
  3
AutoCAD 2000
 90
0
 91
1
280
0
281
0
  0
CLASS
  1
LAYOUT
  2
AcDbLayout
  3
AutoCAD 2000
 90
0
 91
0
280
0
281
0
  0
ENDSEC
  0
SECTION
  2
TABLES
  0
TABLE
  2
VPORT
  5
8
100
AcDbSymbolTable
 70
2
  0
VPORT
  5
1F4
100
AcDbSymbolTableRecord
100
AcDbViewportTableRecord
  2
*ACTIVE
 70
0
 10
0.0
 20
0.0
 11
1.0
 21
1.0
 12
148.5
 22
105.0
 13
0.0
 23
0.0
 14
1.0
 24
1.0
 15
0.0
 25
0.0
 16
0.0
 26
0.0
 36
1.0
 17
0.0
 27
0.0
 37
0.0
 40
210.0
 41
1.4142857143
 42
50.0
 43
0.0
 44
0.0
 50
0.0
 51
0.0
 71
0
 72
100
 73
1
 74
1
 75
0
 76
0
 77
0
 78
0
  0
ENDTAB
  0
TABLE
  2
LTYPE
  5
5
100
AcDbSymbolTable
 70
6
  0
LTYPE
  5
14
100
AcDbSymbolTableRecord
100
AcDbLinetypeTableRecord
  2
BYBLOCK
 70
0
  3

 72
65
 73
0
 40
0.0
  0
LTYPE
  5
15
100
AcDbSymbolTableRecord
100
AcDbLinetypeTableRecord
  2
BYLAYER
 70
0
  3

 72
65
 73
0
 40
0.0
  0
LTYPE
  5
16
100
AcDbSymbolTableRecord
100
AcDbLinetypeTableRecord
  2
CONTINUOUS
 70
64
  3
Solid line
 72
65
 73
0
 40
0.0
  0
LTYPE
  5
1F5
100
AcDbSymbolTableRecord
100
AcDbLinetypeTableRecord
  2
CENTER
 70
64
  3
____ _ ____ _ ____ _ ____ _ ____ _ ____ _ ____
 72
65
 73
4
 40
0.6
 49
0.375
 74
0
 49
-0.075
 74
0
 49
0.075
 74
0
 49
-0.075
 74
0
  0
LTYPE
  5
1F6
100
AcDbSymbolTableRecord
100
AcDbLinetypeTableRecord
  2
HIDDEN
 70
64
  3
- - - - - - - - - - - - - - - - - - - -
 72
65
 73
2
 40
0.2
 49
0.1
 74
0
 49
-0.1
 74
0
  0
LTYPE
  5
1F7
100
AcDbSymbolTableRecord
100
AcDbLinetypeTableRecord
  2
PHANTOM
 70
64
  3
_____ _ _ _____ _ _ _____ _ _ _____
 72
65
 73
6
 40
0.8
 49
0.45
 74
0
 49
-0.05
 74
0
 49
0.1
 74
0
 49
-0.05
 74
0
 49
0.1
 74
0
 49
-0.05
 74
0
  0
LTYPE
  5
1F8
100
AcDbSymbolTableRecord
100
AcDbLinetypeTableRecord
  2
DOT
 70
64
  3
. . . . . . . . . . . . . . . . . . . .
 72
65
 73
2
 40
0.2
 49
0.1
 74
0
 49
-0.1
 74
0
  0
LTYPE
  5
1F9
100
AcDbSymbolTableRecord
100
AcDbLinetypeTableRecord
  2
DASHED
 70
64
  3
- - - - - - - - - - - - - - - - - - - -
 72
65
 73
2
 40
0.2
 49
0.1
 74
0
 49
-0.1
 74
0
  0
ENDTAB
  0
TABLE
  2
LAYER
  5
2
100
AcDbSymbolTable
 70
36
  0
LAYER
  5
10
100
AcDbSymbolTableRecord
100
AcDbLayerTableRecord
  2
0
 70
0
 62
7
  6
CONTINUOUS
370
-3
390
F
  0
LAYER
  5
1FA
100
AcDbSymbolTableRecord
100
AcDbLayerTableRecord
  2
DEFAULT_1
 70
0
 62
7
  6
CENTER
370
-3
390
F
  0
LAYER
  5
1FB
100
AcDbSymbolTableRecord
100
AcDbLayerTableRecord
  2
DEFAULT_2
 70
0
 62
7
  6
HIDDEN
370
-3
390
F
  0
LAYER
  5
1FC
100
AcDbSymbolTableRecord
100
AcDbLayerTableRecord
  2
DEFAULT_3
 70
0
 62
7
  6
PHANTOM
370
-3
390
F
  0
LAYER
  5
1FD
100
AcDbSymbolTableRecord
100
AcDbLayerTableRecord
  2
ASSI
 70
0
 62
7
  6
CONTINUOUS
370
-3
390
F
  0
LAYER
  5
1FE
100
AcDbSymbolTableRecord
100
AcDbLayerTableRecord
  2
COLOR1
 70
0
 62
7
  6
CONTINUOUS
370
-3
390
F
  0
LAYER
  5
1FF
100
AcDbSymbolTableRecord
100
AcDbLayerTableRecord
  2
COLOR15
 70
0
 62
7
  6
CONTINUOUS
370
-3
390
F
  0
LAYER
  5
200
100
AcDbSymbolTableRecord
100
AcDbLayerTableRecord
  2
COLOR16
 70
0
 62
7
  6
CONTINUOUS
370
-3
390
F
  0
LAYER
  5
201
100
AcDbSymbolTableRecord
100
AcDbLayerTableRecord
  2
COORDINATE
 70
0
 62
7
  6
CONTINUOUS
370
-3
390
F
  0
LAYER
  5
202
100
AcDbSymbolTableRecord
100
AcDbLayerTableRecord
  2
COPY_PUBLISH
 70
0
 62
7
  6
CONTINUOUS
370
-3
390
F
  0
LAYER
  5
203
100
AcDbSymbolTableRecord
100
AcDbLayerTableRecord
  2
COSMETICI
 70
0
 62
7
  6
CONTINUOUS
370
-3
390
F
  0
LAYER
  5
204
100
AcDbSymbolTableRecord
100
AcDbLayerTableRecord
  2
CURVE
 70
0
 62
7
  6
CONTINUOUS
370
-3
390
F
  0
LAYER
  5
205
100
AcDbSymbolTableRecord
100
AcDbLayerTableRecord
  2
DRAFT
 70
0
 62
7
  6
CONTINUOUS
370
-3
390
F
  0
LAYER
  5
206
100
AcDbSymbolTableRecord
100
AcDbLayerTableRecord
  2
IMPORT_IGES
 70
0
 62
7
  6
CONTINUOUS
370
-3
390
F
  0
LAYER
  5
207
100
AcDbSymbolTableRecord
100
AcDbLayerTableRecord
  2
INTF_YELLOW
 70
0
 62
7
  6
CONTINUOUS
370
-3
390
F
  0
LAYER
  5
208
100
AcDbSymbolTableRecord
100
AcDbLayerTableRecord
  2
NOTE
 70
0
 62
7
  6
CONTINUOUS
370
-3
390
F
  0
LAYER
  5
209
100
AcDbSymbolTableRecord
100
AcDbLayerTableRecord
  2
PIANI
 70
0
 62
7
  6
CONTINUOUS
370
-3
390
F
  0
LAYER
  5
20A
100
AcDbSymbolTableRecord
100
AcDbLayerTableRecord
  2
PUNTI
 70
0
 62
7
  6
CONTINUOUS
370
-3
390
F
  0
LAYER
  5
20B
100
AcDbSymbolTableRecord
100
AcDbLayerTableRecord
  2
RACCORDO
 70
0
 62
7
  6
CONTINUOUS
370
-3
390
F
  0
LAYER
  5
20C
100
AcDbSymbolTableRecord
100
AcDbLayerTableRecord
  2
SIMBOLI
 70
0
 62
7
  6
CONTINUOUS
370
-3
390
F
  0
LAYER
  5
20D
100
AcDbSymbolTableRecord
100
AcDbLayerTableRecord
  2
SMUSSO
 70
0
 62
7
  6
CONTINUOUS
370
-3
390
F
  0
LAYER
  5
20E
100
AcDbSymbolTableRecord
100
AcDbLayerTableRecord
  2
SNAPLINE
 70
0
 62
7
  6
CONTINUOUS
370
-3
390
F
  0
LAYER
  5
20F
100
AcDbSymbolTableRecord
100
AcDbLayerTableRecord
  2
SUPERFICI
 70
0
 62
7
  6
CONTINUOUS
370
-3
390
F
  0
LAYER
  5
210
100
AcDbSymbolTableRecord
100
AcDbLayerTableRecord
  2
TRASH
 70
0
 62
7
  6
CONTINUOUS
370
-3
390
F
  0
LAYER
  5
211
100
AcDbSymbolTableRecord
100
AcDbLayerTableRecord
  2
WHITE
 70
0
 62
7
  6
CONTINUOUS
370
-3
390
F
  0
ENDTAB
  0
TABLE
  2
STYLE
  5
3
100
AcDbSymbolTable
 70
1
  0
STYLE
  5
11
100
AcDbSymbolTableRecord
100
AcDbTextStyleTableRecord
  2
STANDARD
 70
0
 40
0.0
 41
0.8
 50
0.0
 71
0
 42
0.2
  3
txt
  4

  0
STYLE
  5
212
100
AcDbSymbolTableRecord
100
AcDbTextStyleTableRecord
  2
TEXTSTYLE_1
 70
0
 40
0.0
 41
0.8
 50
0.0
 71
0
 42
0.2
  3
gdt
  4

  0
ENDTAB
  0
TABLE
  2
VIEW
  5
6
100
AcDbSymbolTable
 70
0
  0
ENDTAB
  0
TABLE
  2
UCS
  5
7
100
AcDbSymbolTable
 70
0
  0
ENDTAB
  0
TABLE
  2
APPID
  5
9
100
AcDbSymbolTable
 70
1
  0
APPID
  5
213
100
AcDbSymbolTableRecord
100
AcDbRegAppTableRecord
  2
ACAD
 70
0
  0
ENDTAB
  0
TABLE
  2
BLOCK_RECORD
  5
1
100
AcDbSymbolTable
 70
0
  0
BLOCK_RECORD
  5
214
100
AcDbSymbolTableRecord
100
AcDbBlockTableRecord
  2
*Model_Space
  0
BLOCK_RECORD
  5
215
100
AcDbSymbolTableRecord
100
AcDbBlockTableRecord
  2
*Paper_Space
  0
BLOCK_RECORD
  5
216
100
AcDbSymbolTableRecord
100
AcDbBlockTableRecord
  2
_FILLED
  0
ENDTAB
  0
TABLE
  2
DIMSTYLE
  5
A
100
AcDbSymbolTable
 70
1
100
AcDbDimStyleTable
 71
0
  0
DIMSTYLE
105
217
100
AcDbSymbolTableRecord
100
AcDbDimStyleTableRecord
  2
STANDARD
 70
0
  3

  4

 40
1.0
 41
3.0
 42
0.5
 43
0.38
 44
1.5
 45
0.0
 46
0.0
 47
0.01
 48
0.01
140
3.0
141
0.09
142
0.0
143
25.4
144
1.0
145
0.0
146
1.0
147
0.625
 71
1.0
 72
0.0
 73
0
 74
0
 75
0
 76
0
 77
1
 78
8
 79
2
170
0
171
1
172
0
173
0
174
0
175
0
176
0
177
0
178
0
270
2
179
2
271
2
272
2
273
2
274
2
275
0
280
0
281
0
282
0
283
1
284
8
285
0
286
0
287
3
288
0
340
11
278
44
341
216
342
216
343
216
344
216
  0
ENDTAB
  0
ENDSEC
  0
SECTION
  2
BLOCKS
  0
BLOCK
  5
20
100
AcDbEntity
  8
0
100
AcDbBlockBegin
  2
*Model_Space
 70
0
 10
0.0
 20
0.0
 30
0.0
  3
*Model_Space
  1

  0
ENDBLK
  5
21
100
AcDbEntity
  8
0
100
AcDbBlockEnd
  0
BLOCK
  5
1C
100
AcDbEntity
  8
0
100
AcDbBlockBegin
  2
*Paper_Space
 70
0
 10
0.0
 20
0.0
 30
0.0
  3
*Paper_Space
  1

  0
ENDBLK
  5
1D
100
AcDbEntity
  8
0
100
AcDbBlockEnd
  0
BLOCK
  5
218
100
AcDbEntity
  8
0
100
AcDbBlockBegin
  2
_FILLED
 70
64
 10
0.0
 20
0.0
  3
_FILLED
  1

  0
SOLID
  5
219
100
AcDbEntity
  8
0
  6
BYBLOCK
 62
0
100
AcDbTrace
 10
0.0
 20
0.0
 11
-1.0
 21
0.3166666667
 12
-1.0
 22
-0.3166666667
 13
-1.0
 23
-0.3166666667
  0
ENDBLK
  5
21A
100
AcDbEntity
  8
0
  6
BYBLOCK
 62
0
100
AcDbBlockEnd
  0
ENDSEC
  0
SECTION
  2
ENTITIES
  0
LINE
  5
21B
100
AcDbEntity
  8
DRAFT
100
AcDbLine
 62
7
  6
CONTINUOUS
 10
-18.1355034575
 20
26.2125
 11
-18.121449374
 21
26.2265540835
  0
LINE
  5
21C
100
AcDbEntity
  8
DRAFT
100
AcDbLine
 62
7
  6
CONTINUOUS
 10
-14.0332019577
 20
26.1273014999
 11
-14.0537374254
 21
26.1067660322
  0
LINE
  5
21D
100
AcDbEntity
  8
DRAFT
100
AcDbLine
 62
7
  6
CONTINUOUS
 10
-14.0332019577
 20
25.4773014999
 11
-14.0537374254
 21
25.4567660322
  0
LINE
  5
21E
100
AcDbEntity
  8
DRAFT
100
AcDbLine
 62
7
  6
CONTINUOUS
 10
-11.1355034575
 20
28.0125
 11
-11.1149937562
 21
28.0330097013
  0
LINE
  5
21F
100
AcDbEntity
  8
DRAFT
100
AcDbLine
 62
7
  6
CONTINUOUS
 10
16.4364811735
 20
-27.9591329355
 11
16.4754627522
 21
-27.9572634805
  0
LINE
  5
220
100
AcDbEntity
  8
DRAFT
100
AcDbLine
 62
7
  6
CONTINUOUS
 10
16.0864811735
 20
-27.9591329355
 11
16.1254627522
 21
-27.9572634805
  0
LINE
  5
221
100
AcDbEntity
  8
DRAFT
100
AcDbLine
 62
7
  6
CONTINUOUS
 10
-17.5135188265
 20
-27.9591329355
 11
-17.4745372478
 21
-27.9572634805
  0
LINE
  5
222
100
AcDbEntity
  8
DRAFT
100
AcDbLine
 62
7
  6
CONTINUOUS
 10
-17.8635188265
 20
-27.9591329355
 11
-17.8245372478
 21
-27.9572634805
  0
LINE
  5
223
100
AcDbEntity
  8
RACCORDO
100
AcDbLine
 62
7
  6
CONTINUOUS
 10
-19.2605415337
 20
-28.7875
 11
18.4895346187
 21
-28.7875
  0
LINE
  5
224
100
AcDbEntity
  8
RACCORDO
100
AcDbLine
 62
7
  6
CONTINUOUS
 10
18.1894965425
 20
-28.7813907273
 11
-19.254432261
 21
-28.7813907273
  0
LINE
  5
225
100
AcDbEntity
  8
RACCORDO
100
AcDbLine
 62
7
  6
CONTINUOUS
 10
18.1894965425
 20
-28.7726631948
 11
18.4746978135
 21
-28.7726631948
  0
LINE
  5
226
100
AcDbEntity
  8
DRAFT
100
AcDbLine
 62
7
  6
CONTINUOUS
 10
17.1144965425
 20
-27.9686092727
 11
-18.6355034575
 21
-27.9686092727
  0
LINE
  5
227
100
AcDbEntity
  8
DRAFT
100
AcDbLine
 62
7
  6
CONTINUOUS
 10
-18.6355034575
 20
-27.9572634805
 11
-17.9964696672
 21
-27.9572634805
  0
LINE
  5
228
100
AcDbEntity
  8
DRAFT
100
AcDbLine
 62
7
  6
CONTINUOUS
 10
-17.8245372478
 20
-27.9572634805
 11
-17.6464696672
 21
-27.9572634805
  0
LINE
  5
229
100
AcDbEntity
  8
DRAFT
100
AcDbLine
 62
7
  6
CONTINUOUS
 10
-17.4745372478
 20
-27.9572634805
 11
-17.205266938
 21
-27.9572634805
  0
LINE
  5
22A
100
AcDbEntity
  8
DRAFT
100
AcDbLine
 62
7
  6
CONTINUOUS
 10
15.684260023
 20
-27.9572634805
 11
15.9535303328
 21
-27.9572634805
  0
LINE
  5
22B
100
AcDbEntity
  8
DRAFT
100
AcDbLine
 62
7
  6
CONTINUOUS
 10
16.1254627522
 20
-27.9572634805
 11
16.3035303328
 21
-27.9572634805
  0
LINE
  5
22C
100
AcDbEntity
  8
DRAFT
100
AcDbLine
 62
7
  6
CONTINUOUS
 10
16.4754627522
 20
-27.9572634805
 11
17.1144965425
 21
-27.9572634805
  0
LINE
  5
22D
100
AcDbEntity
  8
DRAFT
100
AcDbLine
 62
7
  6
CONTINUOUS
 10
-14.9605034575
 20
-27.9406811688
 11
-14.5605034575
 21
-27.9406811688
  0
LINE
  5
22E
100
AcDbEntity
  8
DRAFT
100
AcDbLine
 62
7
  6
CONTINUOUS
 10
-10.9605034575
 20
-27.9406811688
 11
-10.5605034575
 21
-27.9406811688
  0
LINE
  5
22F
100
AcDbEntity
  8
DRAFT
100
AcDbLine
 62
7
  6
CONTINUOUS
 10
-6.9605034575
 20
-27.9406811688
 11
-6.5605034575
 21
-27.9406811688
  0
LINE
  5
230
100
AcDbEntity
  8
DRAFT
100
AcDbLine
 62
7
  6
CONTINUOUS
 10
-0.9605034575
 20
-27.9406811688
 11
-0.5605034575
 21
-27.9406811688
  0
LINE
  5
231
100
AcDbEntity
  8
DRAFT
100
AcDbLine
 62
7
  6
CONTINUOUS
 10
5.0394965425
 20
-27.9406811688
 11
5.4394965425
 21
-27.9406811688
  0
LINE
  5
232
100
AcDbEntity
  8
DRAFT
100
AcDbLine
 62
7
  6
CONTINUOUS
 10
9.0394965425
 20
-27.9406811688
 11
9.4394965425
 21
-27.9406811688
  0
LINE
  5
233
100
AcDbEntity
  8
DRAFT
100
AcDbLine
 62
7
  6
CONTINUOUS
 10
13.0394965425
 20
-27.9406811688
 11
13.4394965425
 21
-27.9406811688
  0
LINE
  5
234
100
AcDbEntity
  8
ASSI
100
AcDbLine
 62
7
  6
CONTINUOUS
 10
-17.1355034575
 20
-27.9375
 11
15.6144965425
 21
-27.9375
  0
LINE
  5
235
100
AcDbEntity
  8
DRAFT
100
AcDbLine
 62
7
  6
CONTINUOUS
 10
15.6676777113
 20
-26.7375
 11
15.6144965425
 21
-26.7375
  0
LINE
  5
236
100
AcDbEntity
  8
DRAFT
100
AcDbLine
 62
7
  6
CONTINUOUS
 10
-17.1355034575
 20
-26.7375
 11
-17.1886846264
 21
-26.7375
  0
LINE
  5
237
100
AcDbEntity
  8
DRAFT
100
AcDbLine
 62
7
  6
CONTINUOUS
 10
-17.9964696672
 20
-27.9572634805
 11
-17.9574880886
 21
-27.9591329355
  0
LINE
  5
238
100
AcDbEntity
  8
DRAFT
100
AcDbLine
 62
7
  6
CONTINUOUS
 10
-17.6464696672
 20
-27.9572634805
 11
-17.6074880886
 21
-27.9591329355
  0
LINE
  5
239
100
AcDbEntity
  8
DRAFT
100
AcDbLine
 62
7
  6
CONTINUOUS
 10
15.9535303328
 20
-27.9572634805
 11
15.9925119114
 21
-27.9591329355
  0
LINE
  5
23A
100
AcDbEntity
  8
DRAFT
100
AcDbLine
 62
7
  6
CONTINUOUS
 10
16.3035303328
 20
-27.9572634805
 11
16.3425119114
 21
-27.9591329355
  0
LINE
  5
23B
100
AcDbEntity
  8
DRAFT
100
AcDbLine
 62
7
  6
CONTINUOUS
 10
-14.3105034575
 20
-23.8875
 11
-14.366935244
 21
-23.8310682135
  0
LINE
  5
23C
100
AcDbEntity
  8
DRAFT
100
AcDbLine
 62
7
  6
CONTINUOUS
 10
-17.1635193285
 20
-26.787845935
 11
-17.1886846264
 21
-26.7375
  0
LINE
  5
23D
100
AcDbEntity
  8
DRAFT
100
AcDbLine
 62
7
  6
CONTINUOUS
 10
-16.0725496602
 20
19.5129537973
 11
-16.1105034575
 21
19.475
  0
LINE
  5
23E
100
AcDbEntity
  8
DRAFT
100
AcDbLine
 62
7
  6
CONTINUOUS
 10
-8.4332019577
 20
26.1273014999
 11
-8.4644551433
 21
26.0960483142
  0
LINE
  5
23F
100
AcDbEntity
  8
DRAFT
100
AcDbLine
 62
7
  6
CONTINUOUS
 10
-8.4332019577
 20
25.9773014999
 11
-8.4644551433
 21
25.9460483142
  0
LINE
  5
240
100
AcDbEntity
  8
DRAFT
100
AcDbLine
 62
7
  6
CONTINUOUS
 10
0.289802524
 20
27.10625
 11
0.2394965425
 21
27.0861705576
  0
LINE
  5
241
100
AcDbEntity
  8
DRAFT
100
AcDbLine
 62
7
  6
CONTINUOUS
 10
0.3291724226
 20
26.1273014999
 11
0.2394965425
 21
26.0915077111
  0
LINE
  5
242
100
AcDbEntity
  8
DRAFT
100
AcDbLine
 62
7
  6
CONTINUOUS
 10
-17.1886846264
 20
-26.3875
 11
-17.1355034575
 21
-26.3875
  0
LINE
  5
243
100
AcDbEntity
  8
DRAFT
100
AcDbLine
 62
7
  6
CONTINUOUS
 10
15.6144965425
 20
-26.3875
 11
15.6676777113
 21
-26.3875
  0
LINE
  5
244
100
AcDbEntity
  8
DRAFT
100
AcDbLine
 62
7
  6
CONTINUOUS
 10
18.0949021685
 20
-25.642905626
 11
17.1144965425
 21
-25.642905626
  0
LINE
  5
245
100
AcDbEntity
  8
DRAFT
100
AcDbLine
 62
7
  6
CONTINUOUS
 10
17.1144965425
 20
-25.5515540834
 11
16.6144965425
 21
-25.5515540834
  0
LINE
  5
246
100
AcDbEntity
  8
DRAFT
100
AcDbLine
 62
7
  6
CONTINUOUS
 10
16.6144965425
 20
-25.5375
 11
17.9894965425
 21
-25.5375
  0
LINE
  5
247
100
AcDbEntity
  8
DRAFT
100
AcDbLine
 62
7
  6
CONTINUOUS
 10
17.9894965425
 20
-24.7875
 11
16.6144965425
 21
-24.7875
  0
LINE
  5
248
100
AcDbEntity
  8
DRAFT
100
AcDbLine
 62
7
  6
CONTINUOUS
 10
17.1144965425
 20
-24.7734459165
 11
16.6144965425
 21
-24.7734459165
  0
LINE
  5
249
100
AcDbEntity
  8
DRAFT
100
AcDbLine
 62
7
  6
CONTINUOUS
 10
18.0949021685
 20
-24.6820943739
 11
17.1144965425
 21
-24.6820943739
  0
LINE
  5
24A
100
AcDbEntity
  8
DRAFT
100
AcDbLine
 62
7
  6
CONTINUOUS
 10
8.7571200935
 20
-24.2863890773
 11
8.5628020694
 21
-24.2863890773
  0
LINE
  5
24B
100
AcDbEntity
  8
ASSI
100
AcDbLine
 62
7
  6
CONTINUOUS
 10
-10.0838089844
 20
-24.2863890773
 11
-10.2781270085
 21
-24.2863890773
  0
LINE
  5
24C
100
AcDbEntity
  8
DRAFT
100
AcDbLine
 62
7
  6
CONTINUOUS
 10
15.6676777113
 20
-24.2375
 11
15.6144965425
 21
-24.2375
  0
LINE
  5
24D
100
AcDbEntity
  8
DRAFT
100
AcDbLine
 62
7
  6
CONTINUOUS
 10
8.7700092339
 20
-24.2375
 11
8.5816325066
 21
-24.2375
  0
LINE
  5
24E
100
AcDbEntity
  8
ASSI
100
AcDbLine
 62
7
  6
CONTINUOUS
 10
7.3973605784
 20
-24.2375
 11
7.2089838511
 21
-24.2375
  0
LINE
  5
24F
100
AcDbEntity
  8
ASSI
100
AcDbLine
 62
7
  6
CONTINUOUS
 10
-8.7299907661
 20
-24.2375
 11
-8.9183674934
 21
-24.2375
  0
LINE
  5
250
100
AcDbEntity
  8
ASSI
100
AcDbLine
 62
7
  6
CONTINUOUS
 10
-10.1026394216
 20
-24.2375
 11
-10.2910161489
 21
-24.2375
  0
LINE
  5
251
100
AcDbEntity
  8
DRAFT
100
AcDbLine
 62
7
  6
CONTINUOUS
 10
-17.1355034575
 20
-24.2375
 11
-17.1886846264
 21
-24.2375
  0
LINE
  5
252
100
AcDbEntity
  8
0
100
AcDbLine
 62
7
  6
CONTINUOUS
 10
-21.9354793161
 20
-24.0125
 11
-19.1291544792
 21
-24.0125
  0
LINE
  5
253
100
AcDbEntity
  8
DRAFT
100
AcDbLine
 62
7
  6
CONTINUOUS
 10
-17.1886846264
 20
-18.9718492646
 11
-17.205266938
 21
-18.9552669529
  0
LINE
  5
254
100
AcDbEntity
  8
RACCORDO
100
AcDbLine
 62
250
  6
CONTINUOUS
 10
-17.1104729965
 20
-18.9552669529
 11
-17.0938906849
 21
-18.9718492646
  0
LINE
  5
255
100
AcDbEntity
  8
RACCORDO
100
AcDbLine
 62
250
  6
CONTINUOUS
 10
-16.9105034575
 20
-18.7552974139
 11
-16.8939211458
 21
-18.7718797256
  0
LINE
  5
256
100
AcDbEntity
  8
DRAFT
100
AcDbLine
 62
7
  6
CONTINUOUS
 10
-17.1635193285
 20
-24.287845935
 11
-17.1886846264
 21
-24.2375
  0
LINE
  5
257
100
AcDbEntity
  8
DRAFT
100
AcDbLine
 62
7
  6
CONTINUOUS
 10
-17.1635193285
 20
-21.787845935
 11
-17.1886846264
 21
-21.7375
  0
LINE
  5
258
100
AcDbEntity
  8
0
100
AcDbLine
 62
7
  6
CONTINUOUS
 10
-21.9355034575
 20
-24.0125
 11
-21.9355034575
 21
-22.0125
  0
LINE
  5
259
100
AcDbEntity
  8
0
100
AcDbLine
 62
7
  6
CONTINUOUS
 10
-21.9355034575
 20
16.9875
 11
-21.9355034575
 21
18.9875
  0
LINE
  5
25A
100
AcDbEntity
  8
DRAFT
100
AcDbLine
 62
7
  6
CONTINUOUS
 10
-19.0043941848
 20
26.3179056261
 11
-19.0105034575
 21
26.2687163339
  0
LINE
  5
25B
100
AcDbEntity
  8
DRAFT
100
AcDbLine
 62
7
  6
CONTINUOUS
 10
-19.0105034575
 20
25.4062836661
 11
-19.0035214315
 21
25.4625
  0
LINE
  5
25C
100
AcDbEntity
  8
RACCORDO
100
AcDbLine
 62
7
  6
CONTINUOUS
 10
-11.1385056897
 20
27.0976246479
 11
-11.1546898851
 21
27.0652463922
  0
LINE
  5
25D
100
AcDbEntity
  8
DRAFT
100
AcDbLine
 62
7
  6
CONTINUOUS
 10
-5.2605034575
 20
28.4625
 11
-5.2666127302
 21
28.4563907273
  0
LINE
  5
25E
100
AcDbEntity
  8
DRAFT
100
AcDbLine
 62
7
  6
CONTINUOUS
 10
-13.4060131588
 20
17.5919902987
 11
-13.3855034575
 21
17.6125
  0
LINE
  5
25F
100
AcDbEntity
  8
DRAFT
100
AcDbLine
 62
7
  6
CONTINUOUS
 10
-10.5105034575
 20
20.125
 11
-10.4597211122
 21
20.1757823453
  0
LINE
  5
260
100
AcDbEntity
  8
DRAFT
100
AcDbLine
 62
7
  6
CONTINUOUS
 10
-17.1886846264
 20
-23.8875
 11
-17.1355034575
 21
-23.8875
  0
LINE
  5
261
100
AcDbEntity
  8
DRAFT
100
AcDbLine
 62
7
  6
CONTINUOUS
 10
-15.1469278606
 20
-23.8875
 11
-14.3105034575
 21
-23.8875
  0
LINE
  5
262
100
AcDbEntity
  8
ASSI
100
AcDbLine
 62
7
  6
CONTINUOUS
 10
-13.9605034575
 20
-23.8875
 11
-13.1240790544
 21
-23.8875
  0
LINE
  5
263
100
AcDbEntity
  8
ASSI
100
AcDbLine
 62
7
  6
CONTINUOUS
 10
-10.2910161489
 20
-23.8875
 11
-10.1172365125
 21
-23.8875
  0
LINE
  5
264
100
AcDbEntity
  8
ASSI
100
AcDbLine
 62
7
  6
CONTINUOUS
 10
-8.9037704025
 20
-23.8875
 11
-8.7299907661
 21
-23.8875
  0
LINE
  5
265
100
AcDbEntity
  8
ASSI
100
AcDbLine
 62
7
  6
CONTINUOUS
 10
7.2089838511
 20
-23.8875
 11
7.3827634875
 21
-23.8875
  0
LINE
  5
266
100
AcDbEntity
  8
DRAFT
100
AcDbLine
 62
7
  6
CONTINUOUS
 10
8.5962295975
 20
-23.8875
 11
8.7700092339
 21
-23.8875
  0
LINE
  5
267
100
AcDbEntity
  8
DRAFT
100
AcDbLine
 62
7
  6
CONTINUOUS
 10
8.7571200935
 20
-23.8386109227
 11
8.5820065719
 21
-23.8386109227
  0
LINE
  5
268
100
AcDbEntity
  8
ASSI
100
AcDbLine
 62
7
  6
CONTINUOUS
 10
-10.1030134869
 20
-23.8386109227
 11
-10.2781270085
 21
-23.8386109227
  0
LINE
  5
269
100
AcDbEntity
  8
RACCORDO
100
AcDbLine
 62
7
  6
CONTINUOUS
 10
14.3394965425
 20
-23.6625
 11
11.9894965425
 21
-23.6625
  0
LINE
  5
26A
100
AcDbEntity
  8
RACCORDO
100
AcDbLine
 62
7
  6
CONTINUOUS
 10
19.0889257472
 20
-22.2625
 11
19.8900673378
 21
-22.2625
  0
LINE
  5
26B
100
AcDbEntity
  8
DRAFT
100
AcDbLine
 62
250
  6
CONTINUOUS
 10
-12.4893107481
 20
-22.1625
 11
-12.4805654343
 21
-22.1625
  0
LINE
  5
26C
100
AcDbEntity
  8
DRAFT
100
AcDbLine
 62
250
  6
CONTINUOUS
 10
-15.7785019272
 20
-22.1625
 11
-15.787236942
 21
-22.1625
  0
LINE
  5
26D
100
AcDbEntity
  8
RACCORDO
100
AcDbLine
 62
7
  6
CONTINUOUS
 10
19.2376564752
 20
-22.113769272
 11
19.7413366098
 21
-22.113769272
  0
LINE
  5
26E
100
AcDbEntity
  8
DRAFT
100
AcDbLine
 62
7
  6
CONTINUOUS
 10
-19.1291544792
 20
-22.0125
 11
-19.0043941848
 21
-22.0125
  0
LINE
  5
26F
100
AcDbEntity
  8
0
100
AcDbLine
 62
7
  6
CONTINUOUS
 10
-19.1291544792
 20
-22.0125
 11
-21.9354793161
 21
-22.0125
  0
LINE
  5
270
100
AcDbEntity
  8
DRAFT
100
AcDbLine
 62
7
  6
CONTINUOUS
 10
7.6330218402
 20
-21.7375
 11
5.1133462484
 21
-21.7375
  0
LINE
  5
271
100
AcDbEntity
  8
DRAFT
100
AcDbLine
 62
7
  6
CONTINUOUS
 10
2.733501394
 20
-21.7375
 11
-4.254508309
 21
-21.7375
  0
LINE
  5
272
100
AcDbEntity
  8
DRAFT
100
AcDbLine
 62
7
  6
CONTINUOUS
 10
-6.6343531634
 20
-21.7375
 11
-9.1540287552
 21
-21.7375
  0
LINE
  5
273
100
AcDbEntity
  8
DRAFT
100
AcDbLine
 62
7
  6
CONTINUOUS
 10
-12.1819536816
 20
-21.7375
 11
-12.5670647434
 21
-21.7375
  0
LINE
  5
274
100
AcDbEntity
  8
DRAFT
100
AcDbLine
 62
7
  6
CONTINUOUS
 10
-15.7039421716
 20
-21.7375
 11
-16.0890532334
 21
-21.7375
  0
LINE
  5
275
100
AcDbEntity
  8
DRAFT
100
AcDbLine
 62
7
  6
CONTINUOUS
 10
-17.1355034575
 20
-21.7375
 11
-17.1886846264
 21
-21.7375
  0
LINE
  5
276
100
AcDbEntity
  8
DRAFT
100
AcDbLine
 62
7
  6
CONTINUOUS
 10
-12.4893107481
 20
-21.7798983366
 11
-12.5344473402
 21
-21.7798213079
  0
LINE
  5
277
100
AcDbEntity
  8
DRAFT
100
AcDbLine
 62
7
  6
CONTINUOUS
 10
-15.731866545
 20
-21.7736095385
 11
-15.7785019272
 21
-21.7735079103
  0
LINE
  5
278
100
AcDbEntity
  8
DRAFT
100
AcDbLine
 62
7
  6
CONTINUOUS
 10
-18.1355034575
 20
-15.5375
 11
-18.121449374
 21
-15.5515540834
  0
LINE
  5
279
100
AcDbEntity
  8
DRAFT
100
AcDbLine
 62
7
  6
CONTINUOUS
 10
-16.5355034575
 20
-16.094733047
 11
-17.205266938
 21
-15.4249695665
  0
LINE
  5
27A
100
AcDbEntity
  8
DRAFT
100
AcDbLine
 62
7
  6
CONTINUOUS
 10
-17.1635193285
 20
-19.287845935
 11
-17.1886846264
 21
-19.2375
  0
LINE
  5
27B
100
AcDbEntity
  8
DRAFT
100
AcDbLine
 62
7
  6
CONTINUOUS
 10
-15.787236942
 20
-21.3340167358
 11
-15.7785019272
 21
-21.3514920897
  0
LINE
  5
27C
100
AcDbEntity
  8
DRAFT
100
AcDbLine
 62
7
  6
CONTINUOUS
 10
-16.8939211458
 20
-16.7375
 11
-16.877165315
 21
-16.7710218751
  0
LINE
  5
27D
100
AcDbEntity
  8
DRAFT
100
AcDbLine
 62
7
  6
CONTINUOUS
 10
-17.1635193285
 20
-14.287845935
 11
-17.1886846264
 21
-14.2375
  0
LINE
  5
27E
100
AcDbEntity
  8
DRAFT
100
AcDbLine
 62
7
  6
CONTINUOUS
 10
-19.5105034575
 20
16.9875
 11
-19.5105034575
 21
-14.5125
  0
LINE
  5
27F
100
AcDbEntity
  8
RACCORDO
100
AcDbLine
 62
7
  6
CONTINUOUS
 10
-19.5105034575
 20
-24.0125
 11
-19.5105034575
 21
-28.5375380762
  0
LINE
  5
280
100
AcDbEntity
  8
DRAFT
100
AcDbLine
 62
7
  6
CONTINUOUS
 10
-19.5043941848
 20
16.9875
 11
-19.5043941848
 21
-14.5063907273
  0
LINE
  5
281
100
AcDbEntity
  8
RACCORDO
100
AcDbLine
 62
7
  6
CONTINUOUS
 10
-19.5043941848
 20
-24.0125
 11
-19.5043941848
 21
-28.5314288035
  0
LINE
  5
282
100
AcDbEntity
  8
RACCORDO
100
AcDbLine
 62
7
  6
CONTINUOUS
 10
-13.3825012253
 20
18.5273753521
 11
-13.3689422989
 21
18.5545014697
  0
LINE
  5
283
100
AcDbEntity
  8
DRAFT
100
AcDbLine
 62
7
  6
CONTINUOUS
 10
-10.5105034575
 20
19.475
 11
-10.4597211122
 21
19.5257823453
  0
LINE
  5
284
100
AcDbEntity
  8
DRAFT
100
AcDbLine
 62
7
  6
CONTINUOUS
 10
-14.0105034575
 20
14.6625
 11
-14.0537374254
 21
14.6192660322
  0
LINE
  5
285
100
AcDbEntity
  8
DRAFT
100
AcDbLine
 62
7
  6
CONTINUOUS
 10
-14.0105034575
 20
14.0125
 11
-14.0537374254
 21
13.9692660322
  0
LINE
  5
286
100
AcDbEntity
  8
RACCORDO
100
AcDbLine
 62
250
  6
CONTINUOUS
 10
0.2864205841
 20
27.9590435114
 11
0.1901830542
 21
27.8628059816
  0
LINE
  5
287
100
AcDbEntity
  8
DRAFT
100
AcDbLine
 62
7
  6
CONTINUOUS
 10
-11.1355034575
 20
16.525
 11
-11.1149937562
 21
16.5455097013
  0
LINE
  5
288
100
AcDbEntity
  8
RACCORDO
100
AcDbLine
 62
250
  6
CONTINUOUS
 10
0.3860400539
 20
27.8594240416
 11
0.289802524
 21
27.7631865117
  0
LINE
  5
289
100
AcDbEntity
  8
0
100
AcDbLine
 62
7
  6
CONTINUOUS
 10
-14.0005034575
 20
-21.4225
 11
-14.2705034575
 21
-21.4225
  0
LINE
  5
28A
100
AcDbEntity
  8
DRAFT
100
AcDbLine
 62
7
  6
CONTINUOUS
 10
-17.1886846264
 20
-21.3875
 11
-17.1355034575
 21
-21.3875
  0
LINE
  5
28B
100
AcDbEntity
  8
DRAFT
100
AcDbLine
 62
7
  6
CONTINUOUS
 10
-15.9787251338
 20
-21.3875
 11
-15.5637891432
 21
-21.3875
  0
LINE
  5
28C
100
AcDbEntity
  8
DRAFT
100
AcDbLine
 62
7
  6
CONTINUOUS
 10
-12.7072177718
 20
-21.3875
 11
-12.2922817812
 21
-21.3875
  0
LINE
  5
28D
100
AcDbEntity
  8
DRAFT
100
AcDbLine
 62
7
  6
CONTINUOUS
 10
-9.2945878974
 20
-21.3875
 11
-6.8307390053
 21
-21.3875
  0
LINE
  5
28E
100
AcDbEntity
  8
DRAFT
100
AcDbLine
 62
7
  6
CONTINUOUS
 10
-4.579947973
 20
-21.3875
 11
3.058941058
 21
-21.3875
  0
LINE
  5
28F
100
AcDbEntity
  8
DRAFT
100
AcDbLine
 62
7
  6
CONTINUOUS
 10
5.3097320903
 20
-21.3875
 11
7.7735809823
 21
-21.3875
  0
LINE
  5
290
100
AcDbEntity
  8
RACCORDO
100
AcDbLine
 62
7
  6
CONTINUOUS
 10
11.9894965425
 20
-20.8125
 11
14.3394965425
 21
-20.8125
  0
LINE
  5
291
100
AcDbEntity
  8
RACCORDO
100
AcDbLine
 62
7
  6
CONTINUOUS
 10
13.7394965425
 20
-20.0625
 11
11.9894965425
 21
-20.0625
  0
LINE
  5
292
100
AcDbEntity
  8
ASSI
100
AcDbLine
 62
7
  6
CONTINUOUS
 10
1.3600797976
 20
-19.2863890773
 11
-2.8810867126
 21
-19.2863890773
  0
LINE
  5
293
100
AcDbEntity
  8
RACCORDO
100
AcDbLine
 62
7
  6
CONTINUOUS
 10
-17.1355034575
 20
-19.2625
 11
-16.9355034575
 21
-19.2625
  0
LINE
  5
294
100
AcDbEntity
  8
DRAFT
100
AcDbLine
 62
7
  6
CONTINUOUS
 10
8.2990877744
 20
-19.2375
 11
8.1644965425
 21
-19.2375
  0
LINE
  5
295
100
AcDbEntity
  8
DRAFT
100
AcDbLine
 62
7
  6
CONTINUOUS
 10
7.8144965425
 20
-19.2375
 11
6.0285578741
 21
-19.2375
  0
LINE
  5
296
100
AcDbEntity
  8
DRAFT
100
AcDbLine
 62
7
  6
CONTINUOUS
 10
4.1210898286
 20
-19.2375
 11
-5.6420967436
 21
-19.2375
  0
LINE
  5
297
100
AcDbEntity
  8
DRAFT
100
AcDbLine
 62
7
  6
CONTINUOUS
 10
-7.5495647892
 20
-19.2375
 11
-9.3355034575
 21
-19.2375
  0
LINE
  5
298
100
AcDbEntity
  8
DRAFT
100
AcDbLine
 62
7
  6
CONTINUOUS
 10
-9.6855034575
 20
-19.2375
 11
-9.8200946894
 21
-19.2375
  0
LINE
  5
299
100
AcDbEntity
  8
DRAFT
100
AcDbLine
 62
7
  6
CONTINUOUS
 10
-16.7966784683
 20
-19.2375
 11
-17.1886846264
 21
-19.2375
  0
LINE
  5
29A
100
AcDbEntity
  8
DRAFT
100
AcDbLine
 62
7
  6
CONTINUOUS
 10
-9.3355034575
 20
-19.2375
 11
-9.270905425
 21
-19.3020980325
  0
LINE
  5
29B
100
AcDbEntity
  8
DRAFT
100
AcDbLine
 62
7
  6
CONTINUOUS
 10
-9.6855034575
 20
-18.8875
 11
-9.7494949511
 21
-18.8235085064
  0
LINE
  5
29C
100
AcDbEntity
  8
DRAFT
100
AcDbLine
 62
7
  6
CONTINUOUS
 10
-12.4805654343
 20
-21.7973942949
 11
-12.4893107481
 21
-21.7798983366
  0
LINE
  5
29D
100
AcDbEntity
  8
DRAFT
100
AcDbLine
 62
7
  6
CONTINUOUS
 10
-17.1635193285
 20
-11.787845935
 11
-17.1886846264
 21
-11.7375
  0
LINE
  5
29E
100
AcDbEntity
  8
DRAFT
100
AcDbLine
 62
7
  6
CONTINUOUS
 10
-17.1635193285
 20
-9.287845935
 11
-17.1930483926
 21
-9.2287698076
  0
LINE
  5
29F
100
AcDbEntity
  8
DRAFT
100
AcDbLine
 62
7
  6
CONTINUOUS
 10
-19.0043941848
 20
-15.642905626
 11
-19.0105034575
 21
-15.5937163339
  0
LINE
  5
2A0
100
AcDbEntity
  8
DRAFT
100
AcDbLine
 62
7
  6
CONTINUOUS
 10
-19.0105034575
 20
-14.7312836661
 11
-19.0035214315
 21
-14.7875
  0
LINE
  5
2A1
100
AcDbEntity
  8
0
100
AcDbLine
 62
7
  6
CONTINUOUS
 10
-19.1291544792
 20
-24.0125
 11
-19.1291544792
 21
-22.0125
  0
LINE
  5
2A2
100
AcDbEntity
  8
0
100
AcDbLine
 62
7
  6
CONTINUOUS
 10
-19.1291544792
 20
16.9875
 11
-19.1291544792
 21
18.9875
  0
LINE
  5
2A3
100
AcDbEntity
  8
DRAFT
100
AcDbLine
 62
7
  6
CONTINUOUS
 10
-19.0105034575
 20
-22.0125
 11
-19.0105034575
 21
-15.5937163339
  0
LINE
  5
2A4
100
AcDbEntity
  8
DRAFT
100
AcDbLine
 62
7
  6
CONTINUOUS
 10
-19.0105034575
 20
-14.7312836661
 11
-19.0105034575
 21
-14.5125
  0
LINE
  5
2A5
100
AcDbEntity
  8
DRAFT
100
AcDbLine
 62
7
  6
CONTINUOUS
 10
-19.0105034575
 20
18.9875
 11
-19.0105034575
 21
25.4062836661
  0
LINE
  5
2A6
100
AcDbEntity
  8
RACCORDO
100
AcDbLine
 62
7
  6
CONTINUOUS
 10
-19.0105034575
 20
26.2687163339
 11
-19.0105034575
 21
28.2125380762
  0
LINE
  5
2A7
100
AcDbEntity
  8
RACCORDO
100
AcDbLine
 62
7
  6
CONTINUOUS
 10
-19.0043941848
 20
28.2064288035
 11
-19.0043941848
 21
26.3179056261
  0
LINE
  5
2A8
100
AcDbEntity
  8
DRAFT
100
AcDbLine
 62
7
  6
CONTINUOUS
 10
-19.0043941848
 20
25.357094374
 11
-19.0043941848
 21
18.9875
  0
LINE
  5
2A9
100
AcDbEntity
  8
DRAFT
100
AcDbLine
 62
7
  6
CONTINUOUS
 10
-19.0043941848
 20
-22.0125
 11
-19.0043941848
 21
-15.642905626
  0
LINE
  5
2AA
100
AcDbEntity
  8
DRAFT
100
AcDbLine
 62
7
  6
CONTINUOUS
 10
-19.0043941848
 20
-14.6820943739
 11
-19.0043941848
 21
-14.5063907273
  0
LINE
  5
2AB
100
AcDbEntity
  8
DRAFT
100
AcDbLine
 62
7
  6
CONTINUOUS
 10
-19.0035214315
 20
-15.5375
 11
-19.0035214315
 21
-14.7875
  0
LINE
  5
2AC
100
AcDbEntity
  8
DRAFT
100
AcDbLine
 62
7
  6
CONTINUOUS
 10
-19.0035214315
 20
25.4625
 11
-19.0035214315
 21
26.2125
  0
LINE
  5
2AD
100
AcDbEntity
  8
DRAFT
100
AcDbLine
 62
7
  6
CONTINUOUS
 10
-18.6355034575
 20
-15.5515540834
 11
-18.6355034575
 21
-27.9686092727
  0
LINE
  5
2AE
100
AcDbEntity
  8
DRAFT
100
AcDbLine
 62
7
  6
CONTINUOUS
 10
-18.6355034575
 20
-14.7734459165
 11
-18.6355034575
 21
25.4484459166
  0
LINE
  5
2AF
100
AcDbEntity
  8
DRAFT
100
AcDbLine
 62
7
  6
CONTINUOUS
 10
-18.6355034575
 20
26.2265540835
 11
-18.6355034575
 21
27.3375
  0
LINE
  5
2B0
100
AcDbEntity
  8
DRAFT
100
AcDbLine
 62
7
  6
CONTINUOUS
 10
-18.1355034575
 20
26.2125
 11
-18.1355034575
 21
25.4625
  0
LINE
  5
2B1
100
AcDbEntity
  8
DRAFT
100
AcDbLine
 62
7
  6
CONTINUOUS
 10
-18.1355034575
 20
-15.5375
 11
-18.1355034575
 21
-14.7875
  0
LINE
  5
2B2
100
AcDbEntity
  8
DRAFT
100
AcDbLine
 62
7
  6
CONTINUOUS
 10
-18.121449374
 20
26.2265540835
 11
-18.121449374
 21
25.4484459166
  0
LINE
  5
2B3
100
AcDbEntity
  8
DRAFT
100
AcDbLine
 62
7
  6
CONTINUOUS
 10
-18.121449374
 20
-14.7734459165
 11
-18.121449374
 21
-15.5515540834
  0
LINE
  5
2B4
100
AcDbEntity
  8
DRAFT
100
AcDbLine
 62
7
  6
CONTINUOUS
 10
-17.9964696672
 20
27.3375
 11
-17.9964696672
 21
-27.9572634805
  0
LINE
  5
2B5
100
AcDbEntity
  8
DRAFT
100
AcDbLine
 62
250
  6
CONTINUOUS
 10
-17.9574880886
 20
-27.9591329355
 11
-17.9574880886
 21
27.3375
  0
LINE
  5
2B6
100
AcDbEntity
  8
DRAFT
100
AcDbLine
 62
250
  6
CONTINUOUS
 10
-17.8635188265
 20
-27.9591329355
 11
-17.8635188265
 21
27.3375
  0
LINE
  5
2B7
100
AcDbEntity
  8
DRAFT
100
AcDbLine
 62
7
  6
CONTINUOUS
 10
-17.8245372478
 20
27.3375
 11
-17.8245372478
 21
-27.9572634805
  0
LINE
  5
2B8
100
AcDbEntity
  8
DRAFT
100
AcDbLine
 62
7
  6
CONTINUOUS
 10
-17.6464696672
 20
27.3375
 11
-17.6464696672
 21
-27.9572634805
  0
LINE
  5
2B9
100
AcDbEntity
  8
DRAFT
100
AcDbLine
 62
250
  6
CONTINUOUS
 10
-17.6074880886
 20
-27.9591329355
 11
-17.6074880886
 21
27.3375
  0
LINE
  5
2BA
100
AcDbEntity
  8
DRAFT
100
AcDbLine
 62
250
  6
CONTINUOUS
 10
-17.5135188265
 20
-27.9591329355
 11
-17.5135188265
 21
27.3375
  0
LINE
  5
2BB
100
AcDbEntity
  8
DRAFT
100
AcDbLine
 62
7
  6
CONTINUOUS
 10
-17.4745372478
 20
27.3375
 11
-17.4745372478
 21
-27.9572634805
  0
LINE
  5
2BC
100
AcDbEntity
  8
DRAFT
100
AcDbLine
 62
7
  6
CONTINUOUS
 10
-17.205266938
 20
-27.9572634805
 11
-17.205266938
 21
-18.9552669529
  0
LINE
  5
2BD
100
AcDbEntity
  8
DRAFT
100
AcDbLine
 62
7
  6
CONTINUOUS
 10
-17.205266938
 20
-15.4249695665
 11
-17.205266938
 21
4.5822634805
  0
LINE
  5
2BE
100
AcDbEntity
  8
DRAFT
100
AcDbLine
 62
7
  6
CONTINUOUS
 10
-17.1930483926
 20
-8.8962301923
 11
-17.1930483926
 21
-9.2287698076
  0
LINE
  5
2BF
100
AcDbEntity
  8
DRAFT
100
AcDbLine
 62
7
  6
CONTINUOUS
 10
-17.1886846264
 20
-26.7375
 11
-17.1886846264
 21
-26.3875
  0
LINE
  5
2C0
100
AcDbEntity
  8
DRAFT
100
AcDbLine
 62
7
  6
CONTINUOUS
 10
-17.1886846264
 20
-24.2375
 11
-17.1886846264
 21
-23.8875
  0
LINE
  5
2C1
100
AcDbEntity
  8
DRAFT
100
AcDbLine
 62
7
  6
CONTINUOUS
 10
-17.1886846264
 20
-21.7375
 11
-17.1886846264
 21
-21.3875
  0
LINE
  5
2C2
100
AcDbEntity
  8
DRAFT
100
AcDbLine
 62
7
  6
CONTINUOUS
 10
-17.1886846264
 20
-19.2375
 11
-17.1886846264
 21
-18.9718492646
  0
LINE
  5
2C3
100
AcDbEntity
  8
DRAFT
100
AcDbLine
 62
7
  6
CONTINUOUS
 10
-17.1886846264
 20
-14.2375
 11
-17.1886846264
 21
-13.8875
  0
LINE
  5
2C4
100
AcDbEntity
  8
DRAFT
100
AcDbLine
 62
7
  6
CONTINUOUS
 10
-17.1886846264
 20
-11.7375
 11
-17.1886846264
 21
-11.3875
  0
LINE
  5
2C5
100
AcDbEntity
  8
DRAFT
100
AcDbLine
 62
7
  6
CONTINUOUS
 10
-17.1651202887
 20
-8.8403569612
 11
-17.1651202887
 21
4.5421168312
  0
LINE
  5
2C6
100
AcDbEntity
  8
DRAFT
100
AcDbLine
 62
7
  6
CONTINUOUS
 10
-17.1635193285
 20
-27.915515871
 11
-17.1635193285
 21
-26.787845935
  0
LINE
  5
2C7
100
AcDbEntity
  8
DRAFT
100
AcDbLine
 62
7
  6
CONTINUOUS
 10
-17.1635193285
 20
-26.3371540649
 11
-17.1635193285
 21
-24.287845935
  0
LINE
  5
2C8
100
AcDbEntity
  8
DRAFT
100
AcDbLine
 62
7
  6
CONTINUOUS
 10
-17.1635193285
 20
-23.8371540649
 11
-17.1635193285
 21
-21.787845935
  0
LINE
  5
2C9
100
AcDbEntity
  8
DRAFT
100
AcDbLine
 62
7
  6
CONTINUOUS
 10
-17.1635193285
 20
-21.3371540649
 11
-17.1635193285
 21
-19.287845935
  0
LINE
  5
2CA
100
AcDbEntity
  8
DRAFT
100
AcDbLine
 62
7
  6
CONTINUOUS
 10
-17.1635193285
 20
-15.466717176
 11
-17.1635193285
 21
-14.287845935
  0
LINE
  5
2CB
100
AcDbEntity
  8
DRAFT
100
AcDbLine
 62
7
  6
CONTINUOUS
 10
-17.1635193285
 20
-13.8371540649
 11
-17.1635193285
 21
-11.787845935
  0
LINE
  5
2CC
100
AcDbEntity
  8
DRAFT
100
AcDbLine
 62
7
  6
CONTINUOUS
 10
-17.1635193285
 20
-11.3371540649
 11
-17.1635193285
 21
-9.287845935
  0
LINE
  5
2CD
100
AcDbEntity
  8
0
100
AcDbLine
 62
7
  6
CONTINUOUS
 10
-17.1355034575
 20
-27.9375
 11
-17.1355034575
 21
-19.2625
  0
LINE
  5
2CE
100
AcDbEntity
  8
0
100
AcDbLine
 62
7
  6
CONTINUOUS
 10
-17.1355034575
 20
-15.1625
 11
-17.1355034575
 21
-9.3875
  0
LINE
  5
2CF
100
AcDbEntity
  8
0
100
AcDbLine
 62
7
  6
CONTINUOUS
 10
-17.1105034575
 20
4.5125
 11
-17.1105034575
 21
-8.7375
  0
LINE
  5
2D0
100
AcDbEntity
  8
RACCORDO
100
AcDbLine
 62
7
  6
CONTINUOUS
 10
-16.9105034575
 20
-18.7552974139
 11
-16.9105034575
 21
-15.719733047
  0
LINE
  5
2D1
100
AcDbEntity
  8
RACCORDO
100
AcDbLine
 62
7
  6
CONTINUOUS
 10
-16.8939211458
 20
-18.7718797256
 11
-16.8939211458
 21
-18.8875
  0
LINE
  5
2D2
100
AcDbEntity
  8
DRAFT
100
AcDbLine
 62
7
  6
CONTINUOUS
 10
-16.8939211458
 20
-16.7375
 11
-16.8939211458
 21
-16.3875
  0
LINE
  5
2D3
100
AcDbEntity
  8
0
100
AcDbLine
 62
7
  6
CONTINUOUS
 10
-16.8855034575
 20
4.3375
 11
-16.8855034575
 21
-8.1625
  0
LINE
  5
2D4
100
AcDbEntity
  8
DRAFT
100
AcDbLine
 62
7
  6
CONTINUOUS
 10
-16.8855034575
 20
4.5822634805
 11
-16.8855034575
 21
10.325
  0
LINE
  5
2D5
100
AcDbEntity
  8
0
100
AcDbLine
 62
7
  6
CONTINUOUS
 10
-16.8855034575
 20
12.325
 11
-16.8855034575
 21
21.8125
  0
LINE
  5
2D6
100
AcDbEntity
  8
0
100
AcDbLine
 62
7
  6
CONTINUOUS
 10
-16.8855034575
 20
23.8125
 11
-16.8855034575
 21
25.3375
  0
LINE
  5
2D7
100
AcDbEntity
  8
DRAFT
100
AcDbLine
 62
7
  6
CONTINUOUS
 10
-16.877165315
 20
-18.8539781248
 11
-16.877165315
 21
-16.7710218751
  0
LINE
  5
2D8
100
AcDbEntity
  8
DRAFT
100
AcDbLine
 62
7
  6
CONTINUOUS
 10
-16.877165315
 20
-16.3539781248
 11
-16.877165315
 21
-15.7530711896
  0
LINE
  5
2D9
100
AcDbEntity
  8
DRAFT
100
AcDbLine
 62
7
  6
CONTINUOUS
 10
-16.0105034575
 20
28.4625
 11
-16.1355034575
 21
27.3375
  0
LINE
  5
2DA
100
AcDbEntity
  8
DRAFT
100
AcDbLine
 62
7
  6
CONTINUOUS
 10
-19.0043941848
 20
-14.6820943739
 11
-19.0105034575
 21
-14.7312836661
  0
LINE
  5
2DB
100
AcDbEntity
  8
DRAFT
100
AcDbLine
 62
7
  6
CONTINUOUS
 10
-19.0105034575
 20
-15.5937163339
 11
-19.0035214315
 21
-15.5375
  0
LINE
  5
2DC
100
AcDbEntity
  8
RACCORDO
100
AcDbLine
 62
7
  6
CONTINUOUS
 10
-11.1385056897
 20
15.6101246479
 11
-11.1546898851
 21
15.5777463922
  0
LINE
  5
2DD
100
AcDbEntity
  8
DRAFT
100
AcDbLine
 62
7
  6
CONTINUOUS
 10
-16.0725496602
 20
8.0254537973
 11
-16.1105034575
 21
7.9875
  0
LINE
  5
2DE
100
AcDbEntity
  8
DRAFT
100
AcDbLine
 62
7
  6
CONTINUOUS
 10
-1.9070469689
 20
19.475
 11
-1.7605034575
 21
19.5334922889
  0
LINE
  5
2DF
100
AcDbEntity
  8
DRAFT
100
AcDbLine
 62
7
  6
CONTINUOUS
 10
-1.810809439
 20
18.51875
 11
-1.7605034575
 21
18.5388294425
  0
LINE
  5
2E0
100
AcDbEntity
  8
RACCORDO
100
AcDbLine
 62
7
  6
CONTINUOUS
 10
-17.1886846264
 20
-18.9718492646
 11
-17.0938906849
 21
-18.9718492646
  0
LINE
  5
2E1
100
AcDbEntity
  8
RACCORDO
100
AcDbLine
 62
7
  6
CONTINUOUS
 10
-17.205266938
 20
-18.9552669529
 11
-17.1104729965
 21
-18.9552669529
  0
LINE
  5
2E2
100
AcDbEntity
  8
RACCORDO
100
AcDbLine
 62
7
  6
CONTINUOUS
 10
-16.8939211458
 20
-18.8875
 11
-16.5366492984
 21
-18.8875
  0
LINE
  5
2E3
100
AcDbEntity
  8
DRAFT
100
AcDbLine
 62
7
  6
CONTINUOUS
 10
-9.8548004481
 20
-18.8875
 11
-9.6855034575
 21
-18.8875
  0
LINE
  5
2E4
100
AcDbEntity
  8
DRAFT
100
AcDbLine
 62
7
  6
CONTINUOUS
 10
-9.3355034575
 20
-18.8875
 11
-7.5964972734
 21
-18.8875
  0
LINE
  5
2E5
100
AcDbEntity
  8
DRAFT
100
AcDbLine
 62
7
  6
CONTINUOUS
 10
-5.7073510243
 20
-18.8875
 11
4.1863441093
 21
-18.8875
  0
LINE
  5
2E6
100
AcDbEntity
  8
DRAFT
100
AcDbLine
 62
7
  6
CONTINUOUS
 10
6.0754903584
 20
-18.8875
 11
7.8144965425
 21
-18.8875
  0
LINE
  5
2E7
100
AcDbEntity
  8
DRAFT
100
AcDbLine
 62
7
  6
CONTINUOUS
 10
8.1644965425
 20
-18.8875
 11
8.3337935331
 21
-18.8875
  0
LINE
  5
2E8
100
AcDbEntity
  8
ASSI
100
AcDbLine
 62
7
  6
CONTINUOUS
 10
1.5422935418
 20
-18.8386109227
 11
-3.0633004569
 21
-18.8386109227
  0
LINE
  5
2E9
100
AcDbEntity
  8
RACCORDO
100
AcDbLine
 62
7
  6
CONTINUOUS
 10
19.7413366098
 20
-18.211230728
 11
19.2376564752
 21
-18.211230728
  0
LINE
  5
2EA
100
AcDbEntity
  8
RACCORDO
100
AcDbLine
 62
7
  6
CONTINUOUS
 10
19.8900673378
 20
-18.0625
 11
19.0889257472
 21
-18.0625
  0
LINE
  5
2EB
100
AcDbEntity
  8
ASSI
100
AcDbLine
 62
7
  6
CONTINUOUS
 10
1.2057922294
 20
-16.7863890773
 11
-2.7267991444
 21
-16.7863890773
  0
LINE
  5
2EC
100
AcDbEntity
  8
DRAFT
100
AcDbLine
 62
7
  6
CONTINUOUS
 10
8.2507269758
 20
-16.7375
 11
8.1644965425
 21
-16.7375
  0
LINE
  5
2ED
100
AcDbEntity
  8
DRAFT
100
AcDbLine
 62
7
  6
CONTINUOUS
 10
7.8144965425
 20
-16.7375
 11
5.9639969742
 21
-16.7375
  0
LINE
  5
2EE
100
AcDbEntity
  8
DRAFT
100
AcDbLine
 62
7
  6
CONTINUOUS
 10
4.031736385
 20
-16.7375
 11
-5.5527433
 21
-16.7375
  0
LINE
  5
2EF
100
AcDbEntity
  8
DRAFT
100
AcDbLine
 62
7
  6
CONTINUOUS
 10
-7.4850038892
 20
-16.7375
 11
-9.3355034575
 21
-16.7375
  0
LINE
  5
2F0
100
AcDbEntity
  8
DRAFT
100
AcDbLine
 62
7
  6
CONTINUOUS
 10
-9.6855034575
 20
-16.7375
 11
-9.7717338908
 21
-16.7375
  0
LINE
  5
2F1
100
AcDbEntity
  8
DRAFT
100
AcDbLine
 62
7
  6
CONTINUOUS
 10
-16.5355034575
 20
-16.7375
 11
-16.8939211458
 21
-16.7375
  0
LINE
  5
2F2
100
AcDbEntity
  8
DRAFT
100
AcDbLine
 62
7
  6
CONTINUOUS
 10
-9.3355034575
 20
-16.7375
 11
-9.270905425
 21
-16.8020980325
  0
LINE
  5
2F3
100
AcDbEntity
  8
DRAFT
100
AcDbLine
 62
7
  6
CONTINUOUS
 10
-9.6855034575
 20
-16.3875
 11
-9.705381527
 21
-16.3676219305
  0
LINE
  5
2F4
100
AcDbEntity
  8
RACCORDO
100
AcDbLine
 62
7
  6
CONTINUOUS
 10
-16.5355034575
 20
-18.8625
 11
-16.5355034575
 21
-15.5625
  0
LINE
  5
2F5
100
AcDbEntity
  8
DRAFT
100
AcDbLine
 62
7
  6
CONTINUOUS
 10
-16.2605034575
 20
4.5125
 11
-16.2605034575
 21
4.5421168312
  0
LINE
  5
2F6
100
AcDbEntity
  8
DRAFT
100
AcDbLine
 62
7
  6
CONTINUOUS
 10
-16.2578550333
 20
4.5125
 11
-16.2578550333
 21
4.539468407
  0
LINE
  5
2F7
100
AcDbEntity
  8
DRAFT
100
AcDbLine
 62
7
  6
CONTINUOUS
 10
-16.1105034575
 20
7.9875
 11
-16.1105034575
 21
10.325
  0
LINE
  5
2F8
100
AcDbEntity
  8
DRAFT
100
AcDbLine
 62
7
  6
CONTINUOUS
 10
-16.1105034575
 20
12.325
 11
-16.1105034575
 21
14.6625
  0
LINE
  5
2F9
100
AcDbEntity
  8
DRAFT
100
AcDbLine
 62
7
  6
CONTINUOUS
 10
-16.1105034575
 20
19.475
 11
-16.1105034575
 21
21.8125
  0
LINE
  5
2FA
100
AcDbEntity
  8
DRAFT
100
AcDbLine
 62
7
  6
CONTINUOUS
 10
-16.1105034575
 20
23.8125
 11
-16.1105034575
 21
25.3375
  0
LINE
  5
2FB
100
AcDbEntity
  8
DRAFT
100
AcDbLine
 62
7
  6
CONTINUOUS
 10
-16.0878049573
 20
23.8125
 11
-16.0878049573
 21
21.8125
  0
LINE
  5
2FC
100
AcDbEntity
  8
DRAFT
100
AcDbLine
 62
7
  6
CONTINUOUS
 10
-16.0878049573
 20
12.325
 11
-16.0878049573
 21
10.325
  0
LINE
  5
2FD
100
AcDbEntity
  8
DRAFT
100
AcDbLine
 62
7
  6
CONTINUOUS
 10
-16.0878049573
 20
25.3375
 11
-16.0878049573
 21
26.1273014999
  0
LINE
  5
2FE
100
AcDbEntity
  8
DRAFT
100
AcDbLine
 62
7
  6
CONTINUOUS
 10
-16.0725496602
 20
26.1120462027
 11
-16.0725496602
 21
19.5129537973
  0
LINE
  5
2FF
100
AcDbEntity
  8
DRAFT
100
AcDbLine
 62
7
  6
CONTINUOUS
 10
-16.0725496602
 20
14.6245462027
 11
-16.0725496602
 21
8.0254537973
  0
LINE
  5
300
100
AcDbEntity
  8
DRAFT
100
AcDbLine
 62
7
  6
CONTINUOUS
 10
-15.787236942
 20
-22.1625
 11
-15.787236942
 21
-21.7909832642
  0
LINE
  5
301
100
AcDbEntity
  8
DRAFT
100
AcDbLine
 62
7
  6
CONTINUOUS
 10
-15.787236942
 20
-21.3340167358
 11
-15.787236942
 21
-21.0360678268
  0
LINE
  5
302
100
AcDbEntity
  8
DRAFT
100
AcDbLine
 62
7
  6
CONTINUOUS
 10
-15.7785019272
 20
-21.0235929328
 11
-15.7785019272
 21
-21.3514920897
  0
LINE
  5
303
100
AcDbEntity
  8
DRAFT
100
AcDbLine
 62
7
  6
CONTINUOUS
 10
-15.7785019272
 20
-21.7735079103
 11
-15.7785019272
 21
-22.1625
  0
LINE
  5
304
100
AcDbEntity
  8
DRAFT
100
AcDbLine
 62
7
  6
CONTINUOUS
 10
-14.366935244
 20
-23.8310682135
 11
-14.366935244
 21
-23.7994281271
  0
LINE
  5
305
100
AcDbEntity
  8
DRAFT
100
AcDbLine
 62
7
  6
CONTINUOUS
 10
-14.366935244
 20
-9.3875
 11
-14.366935244
 21
-9.2939317865
  0
LINE
  5
306
100
AcDbEntity
  8
DRAFT
100
AcDbLine
 62
7
  6
CONTINUOUS
 10
-14.3494814447
 20
-20.5319976413
 11
-14.3494814447
 21
-20.1744685383
  0
LINE
  5
307
100
AcDbEntity
  8
0
100
AcDbLine
 62
7
  6
CONTINUOUS
 10
-14.3105034575
 20
-9.2375
 11
-14.3105034575
 21
-9.3875
  0
LINE
  5
308
100
AcDbEntity
  8
DRAFT
100
AcDbLine
 62
7
  6
CONTINUOUS
 10
-14.3105034575
 20
-20.1710584063
 11
-14.3105034575
 21
-20.5469505578
  0
LINE
  5
309
100
AcDbEntity
  8
DRAFT
100
AcDbLine
 62
7
  6
CONTINUOUS
 10
-14.3105034575
 20
-23.7780494421
 11
-14.3105034575
 21
-23.8875
  0
LINE
  5
30A
100
AcDbEntity
  8
RACCORDO
100
AcDbLine
 62
7
  6
CONTINUOUS
 10
-11.1546934565
 20
27.0652392472
 11
-11.1547163022
 21
27.0650677587
  0
LINE
  5
30B
100
AcDbEntity
  8
RACCORDO
100
AcDbLine
 62
7
  6
CONTINUOUS
 10
-13.3825012253
 20
7.0398753521
 11
-13.3689422989
 21
7.0670014697
  0
LINE
  5
30C
100
AcDbEntity
  8
DRAFT
100
AcDbLine
 62
7
  6
CONTINUOUS
 10
3.5667980423
 20
26.1273014999
 11
3.5318112863
 21
26.0923147438
  0
LINE
  5
30D
100
AcDbEntity
  8
DRAFT
100
AcDbLine
 62
7
  6
CONTINUOUS
 10
3.5667980423
 20
25.9773014999
 11
3.5318112863
 21
25.9423147438
  0
LINE
  5
30E
100
AcDbEntity
  8
DRAFT
100
AcDbLine
 62
7
  6
CONTINUOUS
 10
6.7394965425
 20
28.4625
 11
6.7333872698
 21
28.4563907273
  0
LINE
  5
30F
100
AcDbEntity
  8
DRAFT
100
AcDbLine
 62
7
  6
CONTINUOUS
 10
0.289802524
 20
15.61875
 11
0.2394965425
 21
15.5986705576
  0
LINE
  5
310
100
AcDbEntity
  8
RACCORDO
100
AcDbLine
 62
7
  6
CONTINUOUS
 10
11.9894965425
 20
-16.4625
 11
13.7394965425
 21
-16.4625
  0
LINE
  5
311
100
AcDbEntity
  8
DRAFT
100
AcDbLine
 62
7
  6
CONTINUOUS
 10
-16.8939211458
 20
-16.3875
 11
-16.5355034575
 21
-16.3875
  0
LINE
  5
312
100
AcDbEntity
  8
DRAFT
100
AcDbLine
 62
7
  6
CONTINUOUS
 10
-9.7094268265
 20
-16.3875
 11
-9.6855034575
 21
-16.3875
  0
LINE
  5
313
100
AcDbEntity
  8
DRAFT
100
AcDbLine
 62
7
  6
CONTINUOUS
 10
-9.3355034575
 20
-16.3875
 11
-7.4023480115
 21
-16.3875
  0
LINE
  5
314
100
AcDbEntity
  8
DRAFT
100
AcDbLine
 62
7
  6
CONTINUOUS
 10
-5.4333714152
 20
-16.3875
 11
3.9123645002
 21
-16.3875
  0
LINE
  5
315
100
AcDbEntity
  8
DRAFT
100
AcDbLine
 62
7
  6
CONTINUOUS
 10
5.8813410965
 20
-16.3875
 11
7.8144965425
 21
-16.3875
  0
LINE
  5
316
100
AcDbEntity
  8
DRAFT
100
AcDbLine
 62
7
  6
CONTINUOUS
 10
8.1644965425
 20
-16.3875
 11
8.1884199115
 21
-16.3875
  0
LINE
  5
317
100
AcDbEntity
  8
ASSI
100
AcDbLine
 62
7
  6
CONTINUOUS
 10
0.7994416164
 20
-16.3386109227
 11
-2.3204485315
 21
-16.3386109227
  0
LINE
  5
318
100
AcDbEntity
  8
DRAFT
100
AcDbLine
 62
7
  6
CONTINUOUS
 10
-19.0043941848
 20
-15.642905626
 11
-18.6355034575
 21
-15.642905626
  0
LINE
  5
319
100
AcDbEntity
  8
RACCORDO
100
AcDbLine
 62
7
  6
CONTINUOUS
 10
14.0894965425
 20
-15.6125
 11
11.9894965425
 21
-15.6125
  0
LINE
  5
31A
100
AcDbEntity
  8
DRAFT
100
AcDbLine
 62
7
  6
CONTINUOUS
 10
-18.6355034575
 20
-15.5515540834
 11
-18.121449374
 21
-15.5515540834
  0
LINE
  5
31B
100
AcDbEntity
  8
DRAFT
100
AcDbLine
 62
7
  6
CONTINUOUS
 10
-18.1355034575
 20
-15.5375
 11
-19.0035214315
 21
-15.5375
  0
LINE
  5
31C
100
AcDbEntity
  8
RACCORDO
100
AcDbLine
 62
7
  6
CONTINUOUS
 10
-17.1355034575
 20
-15.1625
 11
-16.9355034575
 21
-15.1625
  0
LINE
  5
31D
100
AcDbEntity
  8
DRAFT
100
AcDbLine
 62
7
  6
CONTINUOUS
 10
-19.0035214315
 20
-14.7875
 11
-18.1355034575
 21
-14.7875
  0
LINE
  5
31E
100
AcDbEntity
  8
DRAFT
100
AcDbLine
 62
7
  6
CONTINUOUS
 10
-18.6355034575
 20
-14.7734459165
 11
-18.121449374
 21
-14.7734459165
  0
LINE
  5
31F
100
AcDbEntity
  8
DRAFT
100
AcDbLine
 62
7
  6
CONTINUOUS
 10
-19.0043941848
 20
-14.6820943739
 11
-18.6355034575
 21
-14.6820943739
  0
LINE
  5
320
100
AcDbEntity
  8
DRAFT
100
AcDbLine
 62
7
  6
CONTINUOUS
 10
-19.5105034575
 20
-14.5125
 11
-19.0105034575
 21
-14.5125
  0
LINE
  5
321
100
AcDbEntity
  8
DRAFT
100
AcDbLine
 62
7
  6
CONTINUOUS
 10
-19.5043941848
 20
-14.5063907273
 11
-19.0043941848
 21
-14.5063907273
  0
LINE
  5
322
100
AcDbEntity
  8
0
100
AcDbLine
 62
7
  6
CONTINUOUS
 10
-13.9605034575
 20
-9.2375
 11
-13.903172463
 21
-9.2948309945
  0
LINE
  5
323
100
AcDbEntity
  8
DRAFT
100
AcDbLine
 62
7
  6
CONTINUOUS
 10
-19.0043941848
 20
25.357094374
 11
-19.0105034575
 21
25.4062836661
  0
LINE
  5
324
100
AcDbEntity
  8
DRAFT
100
AcDbLine
 62
7
  6
CONTINUOUS
 10
-19.0105034575
 20
26.2687163339
 11
-19.0035214315
 21
26.2125
  0
LINE
  5
325
100
AcDbEntity
  8
ASSI
100
AcDbLine
 62
7
  6
CONTINUOUS
 10
-14.1355034575
 20
9.825
 11
-14.1355034575
 21
12.825
  0
LINE
  5
326
100
AcDbEntity
  8
0
100
AcDbLine
 62
7
  6
CONTINUOUS
 10
-14.1355034575
 20
21.3125
 11
-14.1355034575
 21
24.3125
  0
LINE
  5
327
100
AcDbEntity
  8
DRAFT
100
AcDbLine
 62
7
  6
CONTINUOUS
 10
-14.0537374254
 20
8.0307339679
 11
-14.0537374254
 21
8.6807339679
  0
LINE
  5
328
100
AcDbEntity
  8
DRAFT
100
AcDbLine
 62
7
  6
CONTINUOUS
 10
-14.0537374254
 20
13.9692660322
 11
-14.0537374254
 21
14.6192660322
  0
LINE
  5
329
100
AcDbEntity
  8
DRAFT
100
AcDbLine
 62
7
  6
CONTINUOUS
 10
-14.0537374254
 20
19.5182339679
 11
-14.0537374254
 21
20.1682339679
  0
LINE
  5
32A
100
AcDbEntity
  8
DRAFT
100
AcDbLine
 62
7
  6
CONTINUOUS
 10
-14.0537374254
 20
25.4567660322
 11
-14.0537374254
 21
26.1067660322
  0
LINE
  5
32B
100
AcDbEntity
  8
DRAFT
100
AcDbLine
 62
7
  6
CONTINUOUS
 10
-14.0332019577
 20
25.4773014999
 11
-14.0332019577
 21
26.1273014999
  0
LINE
  5
32C
100
AcDbEntity
  8
DRAFT
100
AcDbLine
 62
7
  6
CONTINUOUS
 10
-14.0105034575
 20
20.125
 11
-14.0105034575
 21
19.475
  0
LINE
  5
32D
100
AcDbEntity
  8
DRAFT
100
AcDbLine
 62
7
  6
CONTINUOUS
 10
-14.0105034575
 20
14.6625
 11
-14.0105034575
 21
14.0125
  0
LINE
  5
32E
100
AcDbEntity
  8
DRAFT
100
AcDbLine
 62
7
  6
CONTINUOUS
 10
-14.0105034575
 20
8.6375
 11
-14.0105034575
 21
7.9875
  0
LINE
  5
32F
100
AcDbEntity
  8
DRAFT
100
AcDbLine
 62
7
  6
CONTINUOUS
 10
-13.9605034575
 20
-23.8875
 11
-13.9605034575
 21
-23.7780494421
  0
LINE
  5
330
100
AcDbEntity
  8
DRAFT
100
AcDbLine
 62
7
  6
CONTINUOUS
 10
-13.9605034575
 20
-20.5469505578
 11
-13.9605034575
 21
-20.1710584063
  0
LINE
  5
331
100
AcDbEntity
  8
0
100
AcDbLine
 62
7
  6
CONTINUOUS
 10
-13.9605034575
 20
-9.3875
 11
-13.9605034575
 21
-9.2375
  0
LINE
  5
332
100
AcDbEntity
  8
DRAFT
100
AcDbLine
 62
7
  6
CONTINUOUS
 10
-13.9206923401
 20
-20.531687157
 11
-13.9206923401
 21
-20.1745414278
  0
LINE
  5
333
100
AcDbEntity
  8
DRAFT
100
AcDbLine
 62
7
  6
CONTINUOUS
 10
-13.903172463
 20
-23.8301690055
 11
-13.903172463
 21
-23.7997547145
  0
LINE
  5
334
100
AcDbEntity
  8
DRAFT
100
AcDbLine
 62
7
  6
CONTINUOUS
 10
-13.903172463
 20
-9.3875
 11
-13.903172463
 21
-9.2948309945
  0
LINE
  5
335
100
AcDbEntity
  8
DRAFT
100
AcDbLine
 62
7
  6
CONTINUOUS
 10
-13.4060131588
 20
28.0330097013
 11
-13.4060131588
 21
27.3375
  0
LINE
  5
336
100
AcDbEntity
  8
DRAFT
100
AcDbLine
 62
7
  6
CONTINUOUS
 10
-13.4060131588
 20
19.1875
 11
-13.4060131588
 21
17.5919902987
  0
LINE
  5
337
100
AcDbEntity
  8
DRAFT
100
AcDbLine
 62
7
  6
CONTINUOUS
 10
-13.4060131588
 20
16.5455097013
 11
-13.4060131588
 21
14.95
  0
LINE
  5
338
100
AcDbEntity
  8
DRAFT
100
AcDbLine
 62
7
  6
CONTINUOUS
 10
-13.4060131588
 20
7.7
 11
-13.4060131588
 21
6.1044902987
  0
LINE
  5
339
100
AcDbEntity
  8
DRAFT
100
AcDbLine
 62
7
  6
CONTINUOUS
 10
-13.3946673666
 20
27.3375
 11
-13.3946673666
 21
26.4375
  0
LINE
  5
33A
100
AcDbEntity
  8
DRAFT
100
AcDbLine
 62
7
  6
CONTINUOUS
 10
-13.3855034575
 20
6.125
 11
-13.3855034575
 21
6.475
  0
LINE
  5
33B
100
AcDbEntity
  8
DRAFT
100
AcDbLine
 62
7
  6
CONTINUOUS
 10
-13.3855034575
 20
16.175
 11
-13.3855034575
 21
16.525
  0
LINE
  5
33C
100
AcDbEntity
  8
DRAFT
100
AcDbLine
 62
7
  6
CONTINUOUS
 10
-13.3855034575
 20
17.6125
 11
-13.3855034575
 21
17.9625
  0
LINE
  5
33D
100
AcDbEntity
  8
DRAFT
100
AcDbLine
 62
7
  6
CONTINUOUS
 10
-13.3855034575
 20
27.6625
 11
-13.3855034575
 21
28.0125
  0
LINE
  5
33E
100
AcDbEntity
  8
DRAFT
100
AcDbLine
 62
7
  6
CONTINUOUS
 10
-13.3825012253
 20
27.6625
 11
-13.3825012253
 21
27.0976246479
  0
LINE
  5
33F
100
AcDbEntity
  8
DRAFT
100
AcDbLine
 62
7
  6
CONTINUOUS
 10
-13.3825012253
 20
18.5273753521
 11
-13.3825012253
 21
17.9625
  0
LINE
  5
340
100
AcDbEntity
  8
DRAFT
100
AcDbLine
 62
7
  6
CONTINUOUS
 10
-13.3825012253
 20
16.175
 11
-13.3825012253
 21
15.6101246479
  0
LINE
  5
341
100
AcDbEntity
  8
DRAFT
100
AcDbLine
 62
7
  6
CONTINUOUS
 10
-13.3825012253
 20
7.0398753521
 11
-13.3825012253
 21
6.475
  0
LINE
  5
342
100
AcDbEntity
  8
RACCORDO
100
AcDbLine
 62
7
  6
CONTINUOUS
 10
-13.3689194532
 20
27.0704071126
 11
-13.3689194532
 21
26.4375
  0
LINE
  5
343
100
AcDbEntity
  8
RACCORDO
100
AcDbLine
 62
7
  6
CONTINUOUS
 10
-13.3689194532
 20
19.1875
 11
-13.3689194532
 21
18.5545928875
  0
LINE
  5
344
100
AcDbEntity
  8
RACCORDO
100
AcDbLine
 62
7
  6
CONTINUOUS
 10
-13.3689194532
 20
15.5829071126
 11
-13.3689194532
 21
14.95
  0
LINE
  5
345
100
AcDbEntity
  8
RACCORDO
100
AcDbLine
 62
7
  6
CONTINUOUS
 10
-13.3689194532
 20
7.7
 11
-13.3689194532
 21
7.0670928875
  0
LINE
  5
346
100
AcDbEntity
  8
RACCORDO
100
AcDbLine
 62
7
  6
CONTINUOUS
 10
-12.9855034575
 20
4.5691721818
 11
-12.9855034575
 21
5.4561826714
  0
LINE
  5
347
100
AcDbEntity
  8
RACCORDO
100
AcDbLine
 62
250
  6
CONTINUOUS
 10
-12.8855034575
 20
4.5674266754
 11
-12.8855034575
 21
5.0958668826
  0
LINE
  5
348
100
AcDbEntity
  8
ASSI
100
AcDbLine
 62
7
  6
CONTINUOUS
 10
-12.8855034575
 20
9.825
 11
-12.8855034575
 21
12.825
  0
LINE
  5
349
100
AcDbEntity
  8
0
100
AcDbLine
 62
7
  6
CONTINUOUS
 10
-12.8855034575
 20
21.3125
 11
-12.8855034575
 21
24.3125
  0
LINE
  5
34A
100
AcDbEntity
  8
DRAFT
100
AcDbLine
 62
7
  6
CONTINUOUS
 10
-12.4893107481
 20
-22.1625
 11
-12.4893107481
 21
-21.7798983366
  0
LINE
  5
34B
100
AcDbEntity
  8
DRAFT
100
AcDbLine
 62
7
  6
CONTINUOUS
 10
-12.4893107481
 20
-21.3451016633
 11
-12.4893107481
 21
-21.0281547798
  0
LINE
  5
34C
100
AcDbEntity
  8
DRAFT
100
AcDbLine
 62
7
  6
CONTINUOUS
 10
-12.4805654343
 20
-22.1625
 11
-12.4805654343
 21
-21.7973942949
  0
LINE
  5
34D
100
AcDbEntity
  8
DRAFT
100
AcDbLine
 62
7
  6
CONTINUOUS
 10
-12.4805654343
 20
-21.327605705
 11
-12.4805654343
 21
-21.0406443823
  0
LINE
  5
34E
100
AcDbEntity
  8
DRAFT
100
AcDbLine
 62
7
  6
CONTINUOUS
 10
-12.2670567526
 20
4.5125
 11
-12.2670567526
 21
4.5355635361
  0
LINE
  5
34F
100
AcDbEntity
  8
DRAFT
100
AcDbLine
 62
7
  6
CONTINUOUS
 10
-12.2605034575
 20
4.5125
 11
-12.2605034575
 21
4.5421168312
  0
LINE
  5
350
100
AcDbEntity
  8
RACCORDO
100
AcDbLine
 62
7
  6
CONTINUOUS
 10
-11.1546934565
 20
15.5777392472
 11
-11.1547163022
 21
15.5775677615
  0
LINE
  5
351
100
AcDbEntity
  8
RACCORDO
100
AcDbLine
 62
7
  6
CONTINUOUS
 10
-11.6108839877
 20
5.1954863524
 11
-11.6117735992
 21
5.194577926
  0
LINE
  5
352
100
AcDbEntity
  8
RACCORDO
100
AcDbLine
 62
250
  6
CONTINUOUS
 10
-1.9070469689
 20
17.7655759584
 11
-1.810809439
 21
17.8618134883
  0
LINE
  5
353
100
AcDbEntity
  8
DRAFT
100
AcDbLine
 62
7
  6
CONTINUOUS
 10
-13.4060131588
 20
6.1044902987
 11
-13.3855034575
 21
6.125
  0
LINE
  5
354
100
AcDbEntity
  8
RACCORDO
100
AcDbLine
 62
250
  6
CONTINUOUS
 10
-1.8074274991
 20
17.6659564886
 11
-1.7111899692
 21
17.7621940185
  0
LINE
  5
355
100
AcDbEntity
  8
DRAFT
100
AcDbLine
 62
7
  6
CONTINUOUS
 10
-10.5105034575
 20
8.6375
 11
-10.4597211122
 21
8.6882823453
  0
LINE
  5
356
100
AcDbEntity
  8
DRAFT
100
AcDbLine
 62
7
  6
CONTINUOUS
 10
-10.5105034575
 20
7.9875
 11
-10.4597211122
 21
8.0382823453
  0
LINE
  5
357
100
AcDbEntity
  8
DRAFT
100
AcDbLine
 62
7
  6
CONTINUOUS
 10
8.9667980423
 20
26.1273014999
 11
8.9387141972
 21
26.0992176547
  0
LINE
  5
358
100
AcDbEntity
  8
RACCORDO
100
AcDbLine
 62
7
  6
CONTINUOUS
 10
-11.6108839877
 20
5.1954863524
 11
-11.7105034575
 21
5.0958668826
  0
LINE
  5
359
100
AcDbEntity
  8
DRAFT
100
AcDbLine
 62
7
  6
CONTINUOUS
 10
-12.2670567526
 20
4.5355635361
 11
-12.2605034575
 21
4.5421168312
  0
LINE
  5
35A
100
AcDbEntity
  8
RACCORDO
100
AcDbLine
 62
7
  6
CONTINUOUS
 10
-11.7008763697
 20
5.1053955168
 11
-11.7105034575
 21
5.0958668826
  0
LINE
  5
35B
100
AcDbEntity
  8
DRAFT
100
AcDbLine
 62
7
  6
CONTINUOUS
 10
0.3860400539
 20
14.6625
 11
0.2394965425
 21
14.6040077111
  0
LINE
  5
35C
100
AcDbEntity
  8
DRAFT
100
AcDbLine
 62
7
  6
CONTINUOUS
 10
7.4752398395
 20
-14.2375
 11
4.9875518412
 21
-14.2375
  0
LINE
  5
35D
100
AcDbEntity
  8
DRAFT
100
AcDbLine
 62
7
  6
CONTINUOUS
 10
2.3366168879
 20
-14.2375
 11
-3.8576238029
 21
-14.2375
  0
LINE
  5
35E
100
AcDbEntity
  8
DRAFT
100
AcDbLine
 62
7
  6
CONTINUOUS
 10
-6.5085587562
 20
-14.2375
 11
-8.9962467545
 21
-14.2375
  0
LINE
  5
35F
100
AcDbEntity
  8
DRAFT
100
AcDbLine
 62
7
  6
CONTINUOUS
 10
-17.1355034575
 20
-14.2375
 11
-17.1886846264
 21
-14.2375
  0
LINE
  5
360
100
AcDbEntity
  8
DRAFT
100
AcDbLine
 62
7
  6
CONTINUOUS
 10
-17.1886846264
 20
-13.8875
 11
-17.1355034575
 21
-13.8875
  0
LINE
  5
361
100
AcDbEntity
  8
DRAFT
100
AcDbLine
 62
7
  6
CONTINUOUS
 10
-8.8202316309
 20
-13.8875
 11
-6.5006281145
 21
-13.8875
  0
LINE
  5
362
100
AcDbEntity
  8
DRAFT
100
AcDbLine
 62
7
  6
CONTINUOUS
 10
-3.3509086029
 20
-13.8875
 11
1.8299016879
 21
-13.8875
  0
LINE
  5
363
100
AcDbEntity
  8
DRAFT
100
AcDbLine
 62
7
  6
CONTINUOUS
 10
4.9796211995
 20
-13.8875
 11
7.2992247159
 21
-13.8875
  0
LINE
  5
364
100
AcDbEntity
  8
RACCORDO
100
AcDbLine
 62
7
  6
CONTINUOUS
 10
11.9894965425
 20
-12.5625
 11
14.0894965425
 21
-12.5625
  0
LINE
  5
365
100
AcDbEntity
  8
ASSI
100
AcDbLine
 62
7
  6
CONTINUOUS
 10
-9.3355034575
 20
-9.2375
 11
-9.2866143802
 21
-9.2863890773
  0
LINE
  5
366
100
AcDbEntity
  8
DRAFT
100
AcDbLine
 62
7
  6
CONTINUOUS
 10
-15.3855034575
 20
27.3375
 11
-15.5105034575
 21
28.4625
  0
LINE
  5
367
100
AcDbEntity
  8
RACCORDO
100
AcDbLine
 62
250
  6
CONTINUOUS
 10
-11.7105034575
 20
5.0958668826
 11
-11.7105034575
 21
4.5674266754
  0
LINE
  5
368
100
AcDbEntity
  8
RACCORDO
100
AcDbLine
 62
7
  6
CONTINUOUS
 10
-11.6105034575
 20
4.5691721818
 11
-11.6105034575
 21
5.4561826714
  0
LINE
  5
369
100
AcDbEntity
  8
DRAFT
100
AcDbLine
 62
7
  6
CONTINUOUS
 10
-11.1987961046
 20
4.5125
 11
-11.1987961046
 21
4.5421168312
  0
LINE
  5
36A
100
AcDbEntity
  8
DRAFT
100
AcDbLine
 62
7
  6
CONTINUOUS
 10
-11.1913882566
 20
4.5125
 11
-11.1913882566
 21
4.5347089832
  0
LINE
  5
36B
100
AcDbEntity
  8
RACCORDO
100
AcDbLine
 62
7
  6
CONTINUOUS
 10
-11.1547163022
 20
7.072378744
 11
-11.1547163022
 21
7.7002160055
  0
LINE
  5
36C
100
AcDbEntity
  8
RACCORDO
100
AcDbLine
 62
7
  6
CONTINUOUS
 10
-11.1547163022
 20
14.9497839946
 11
-11.1547163022
 21
15.5776212575
  0
LINE
  5
36D
100
AcDbEntity
  8
RACCORDO
100
AcDbLine
 62
7
  6
CONTINUOUS
 10
-11.1547163022
 20
18.559878744
 11
-11.1547163022
 21
19.1877160055
  0
LINE
  5
36E
100
AcDbEntity
  8
RACCORDO
100
AcDbLine
 62
7
  6
CONTINUOUS
 10
-11.1547163022
 20
26.4372839946
 11
-11.1547163022
 21
27.0651212544
  0
LINE
  5
36F
100
AcDbEntity
  8
DRAFT
100
AcDbLine
 62
7
  6
CONTINUOUS
 10
-11.1385056897
 20
6.475
 11
-11.1385056897
 21
7.0398753521
  0
LINE
  5
370
100
AcDbEntity
  8
DRAFT
100
AcDbLine
 62
7
  6
CONTINUOUS
 10
-11.1385056897
 20
15.6101246479
 11
-11.1385056897
 21
16.175
  0
LINE
  5
371
100
AcDbEntity
  8
DRAFT
100
AcDbLine
 62
7
  6
CONTINUOUS
 10
-11.1385056897
 20
17.9625
 11
-11.1385056897
 21
18.5273753521
  0
LINE
  5
372
100
AcDbEntity
  8
DRAFT
100
AcDbLine
 62
7
  6
CONTINUOUS
 10
-11.1385056897
 20
27.0976246479
 11
-11.1385056897
 21
27.6625
  0
LINE
  5
373
100
AcDbEntity
  8
DRAFT
100
AcDbLine
 62
7
  6
CONTINUOUS
 10
-11.1355034575
 20
6.125
 11
-11.1355034575
 21
6.475
  0
LINE
  5
374
100
AcDbEntity
  8
DRAFT
100
AcDbLine
 62
7
  6
CONTINUOUS
 10
-11.1355034575
 20
16.175
 11
-11.1355034575
 21
16.525
  0
LINE
  5
375
100
AcDbEntity
  8
DRAFT
100
AcDbLine
 62
7
  6
CONTINUOUS
 10
-11.1355034575
 20
17.6125
 11
-11.1355034575
 21
17.9625
  0
LINE
  5
376
100
AcDbEntity
  8
DRAFT
100
AcDbLine
 62
7
  6
CONTINUOUS
 10
-11.1355034575
 20
27.6625
 11
-11.1355034575
 21
28.0125
  0
LINE
  5
377
100
AcDbEntity
  8
DRAFT
100
AcDbLine
 62
7
  6
CONTINUOUS
 10
-11.1263395484
 20
27.3375
 11
-11.1263395484
 21
26.4375
  0
LINE
  5
378
100
AcDbEntity
  8
DRAFT
100
AcDbLine
 62
7
  6
CONTINUOUS
 10
-11.1149937562
 20
28.0330097013
 11
-11.1149937562
 21
27.3375
  0
LINE
  5
379
100
AcDbEntity
  8
DRAFT
100
AcDbLine
 62
7
  6
CONTINUOUS
 10
-11.1149937562
 20
19.1875
 11
-11.1149937562
 21
17.5919902987
  0
LINE
  5
37A
100
AcDbEntity
  8
DRAFT
100
AcDbLine
 62
7
  6
CONTINUOUS
 10
-11.1149937562
 20
16.5455097013
 11
-11.1149937562
 21
14.95
  0
LINE
  5
37B
100
AcDbEntity
  8
DRAFT
100
AcDbLine
 62
7
  6
CONTINUOUS
 10
-11.1149937562
 20
7.7
 11
-11.1149937562
 21
6.1044902987
  0
LINE
  5
37C
100
AcDbEntity
  8
DRAFT
100
AcDbLine
 62
7
  6
CONTINUOUS
 10
-10.5105034575
 20
7.9875
 11
-10.5105034575
 21
8.6375
  0
LINE
  5
37D
100
AcDbEntity
  8
DRAFT
100
AcDbLine
 62
7
  6
CONTINUOUS
 10
-10.5105034575
 20
14.0125
 11
-10.5105034575
 21
14.6625
  0
LINE
  5
37E
100
AcDbEntity
  8
DRAFT
100
AcDbLine
 62
7
  6
CONTINUOUS
 10
-10.5105034575
 20
19.475
 11
-10.5105034575
 21
20.125
  0
LINE
  5
37F
100
AcDbEntity
  8
DRAFT
100
AcDbLine
 62
7
  6
CONTINUOUS
 10
-10.4878049573
 20
26.1273014999
 11
-10.4878049573
 21
25.4773014999
  0
LINE
  5
380
100
AcDbEntity
  8
DRAFT
100
AcDbLine
 62
7
  6
CONTINUOUS
 10
-10.4597211122
 20
8.0382823453
 11
-10.4597211122
 21
8.6882823453
  0
LINE
  5
381
100
AcDbEntity
  8
DRAFT
100
AcDbLine
 62
7
  6
CONTINUOUS
 10
-10.4597211122
 20
13.9617176547
 11
-10.4597211122
 21
14.6117176547
  0
LINE
  5
382
100
AcDbEntity
  8
DRAFT
100
AcDbLine
 62
7
  6
CONTINUOUS
 10
-10.4597211122
 20
19.5257823453
 11
-10.4597211122
 21
20.1757823453
  0
LINE
  5
383
100
AcDbEntity
  8
DRAFT
100
AcDbLine
 62
7
  6
CONTINUOUS
 10
-10.4597211122
 20
25.4492176547
 11
-10.4597211122
 21
26.0992176547
  0
LINE
  5
384
100
AcDbEntity
  8
0
100
AcDbLine
 62
7
  6
CONTINUOUS
 10
-10.0105034575
 20
-6.4125
 11
-10.0105034575
 21
2.5875
  0
LINE
  5
385
100
AcDbEntity
  8
ASSI
100
AcDbLine
 62
7
  6
CONTINUOUS
 10
-9.7494949511
 20
-23.4599984277
 11
-9.7494949511
 21
-23.2992010919
  0
LINE
  5
386
100
AcDbEntity
  8
DRAFT
100
AcDbLine
 62
7
  6
CONTINUOUS
 10
-9.7494949511
 20
-19.7249066021
 11
-9.7494949511
 21
-19.3014914935
  0
LINE
  5
387
100
AcDbEntity
  8
DRAFT
100
AcDbLine
 62
7
  6
CONTINUOUS
 10
-9.7494949511
 20
-18.8235085064
 11
-9.7494949511
 21
-16.8014914935
  0
LINE
  5
388
100
AcDbEntity
  8
ASSI
100
AcDbLine
 62
7
  6
CONTINUOUS
 10
-9.7343925348
 20
-24.830123551
 11
-9.7343925348
 21
-24.6210226483
  0
LINE
  5
389
100
AcDbEntity
  8
ASSI
100
AcDbLine
 62
7
  6
CONTINUOUS
 10
-9.7343925348
 20
-12.330123551
 11
-9.7343925348
 21
-12.1210226483
  0
LINE
  5
38A
100
AcDbEntity
  8
ASSI
100
AcDbLine
 62
7
  6
CONTINUOUS
 10
-9.7343925348
 20
-10.9539773517
 11
-9.7343925348
 21
-10.794876449
  0
LINE
  5
38B
100
AcDbEntity
  8
ASSI
100
AcDbLine
 62
7
  6
CONTINUOUS
 10
-9.7343925348
 20
-9.3875
 11
-9.7343925348
 21
-9.2863890773
  0
LINE
  5
38C
100
AcDbEntity
  8
ASSI
100
AcDbLine
 62
7
  6
CONTINUOUS
 10
-9.6855034575
 20
-9.2375
 11
-9.6855034575
 21
-9.3875
  0
LINE
  5
38D
100
AcDbEntity
  8
ASSI
100
AcDbLine
 62
7
  6
CONTINUOUS
 10
-9.6855034575
 20
-10.7819886071
 11
-9.6855034575
 21
-10.9375
  0
LINE
  5
38E
100
AcDbEntity
  8
ASSI
100
AcDbLine
 62
7
  6
CONTINUOUS
 10
-9.6855034575
 20
-12.1375
 11
-9.6855034575
 21
-12.3430113929
  0
LINE
  5
38F
100
AcDbEntity
  8
DRAFT
100
AcDbLine
 62
7
  6
CONTINUOUS
 10
-9.6855034575
 20
-16.2699437138
 11
-9.6855034575
 21
-16.3875
  0
LINE
  5
390
100
AcDbEntity
  8
DRAFT
100
AcDbLine
 62
7
  6
CONTINUOUS
 10
-9.6855034575
 20
-16.7375
 11
-9.6855034575
 21
-18.8875
  0
LINE
  5
391
100
AcDbEntity
  8
DRAFT
100
AcDbLine
 62
7
  6
CONTINUOUS
 10
-9.6855034575
 20
-19.2375
 11
-9.6855034575
 21
-20.0550562862
  0
LINE
  5
392
100
AcDbEntity
  8
ASSI
100
AcDbLine
 62
7
  6
CONTINUOUS
 10
-9.6855034575
 20
-23.2819886071
 11
-9.6855034575
 21
-23.4375
  0
LINE
  5
393
100
AcDbEntity
  8
ASSI
100
AcDbLine
 62
7
  6
CONTINUOUS
 10
-9.6855034575
 20
-24.6375
 11
-9.6855034575
 21
-24.8430113929
  0
LINE
  5
394
100
AcDbEntity
  8
DRAFT
100
AcDbLine
 62
7
  6
CONTINUOUS
 10
-17.1930483926
 20
-8.8962301923
 11
-17.1651202887
 21
-8.8403569612
  0
LINE
  5
395
100
AcDbEntity
  8
DRAFT
100
AcDbLine
 62
7
  6
CONTINUOUS
 10
-17.1635193285
 20
-11.3371540649
 11
-17.1886846264
 21
-11.3875
  0
LINE
  5
396
100
AcDbEntity
  8
DRAFT
100
AcDbLine
 62
7
  6
CONTINUOUS
 10
8.9667980423
 20
25.4773014999
 11
8.9387141972
 21
25.4492176547
  0
LINE
  5
397
100
AcDbEntity
  8
RACCORDO
100
AcDbLine
 62
250
  6
CONTINUOUS
 10
0.2864205841
 20
16.4715435114
 11
0.1901830542
 21
16.3753059816
  0
LINE
  5
398
100
AcDbEntity
  8
DRAFT
100
AcDbLine
 62
7
  6
CONTINUOUS
 10
11.8644965425
 20
28.0125
 11
11.8850062438
 21
28.0330097013
  0
LINE
  5
399
100
AcDbEntity
  8
RACCORDO
100
AcDbLine
 62
250
  6
CONTINUOUS
 10
0.3860400539
 20
16.3719240416
 11
0.289802524
 21
16.2756865117
  0
LINE
  5
39A
100
AcDbEntity
  8
ASSI
100
AcDbLine
 62
7
  6
CONTINUOUS
 10
7.3492063971
 20
-11.8025803013
 11
7.3406780121
 21
-11.8025903129
  0
LINE
  5
39B
100
AcDbEntity
  8
DRAFT
100
AcDbLine
 62
7
  6
CONTINUOUS
 10
8.7571200935
 20
-11.7863890773
 11
8.5628020694
 21
-11.7863890773
  0
LINE
  5
39C
100
AcDbEntity
  8
ASSI
100
AcDbLine
 62
7
  6
CONTINUOUS
 10
7.4161910156
 20
-11.7863890773
 11
7.3406600336
 21
-11.7863890773
  0
LINE
  5
39D
100
AcDbEntity
  8
ASSI
100
AcDbLine
 62
7
  6
CONTINUOUS
 10
-8.8616669486
 20
-11.7863890773
 11
-8.9371979306
 21
-11.7863890773
  0
LINE
  5
39E
100
AcDbEntity
  8
ASSI
100
AcDbLine
 62
7
  6
CONTINUOUS
 10
-10.0838089844
 20
-11.7863890773
 11
-10.2781270085
 21
-11.7863890773
  0
LINE
  5
39F
100
AcDbEntity
  8
DRAFT
100
AcDbLine
 62
7
  6
CONTINUOUS
 10
8.7700092339
 20
-11.7375
 11
8.5816325066
 21
-11.7375
  0
LINE
  5
3A0
100
AcDbEntity
  8
ASSI
100
AcDbLine
 62
7
  6
CONTINUOUS
 10
7.3973605784
 20
-11.7375
 11
7.2089838511
 21
-11.7375
  0
LINE
  5
3A1
100
AcDbEntity
  8
ASSI
100
AcDbLine
 62
7
  6
CONTINUOUS
 10
-8.7299907661
 20
-11.7375
 11
-8.9183674934
 21
-11.7375
  0
LINE
  5
3A2
100
AcDbEntity
  8
ASSI
100
AcDbLine
 62
7
  6
CONTINUOUS
 10
-10.1026394216
 20
-11.7375
 11
-10.2910161489
 21
-11.7375
  0
LINE
  5
3A3
100
AcDbEntity
  8
DRAFT
100
AcDbLine
 62
7
  6
CONTINUOUS
 10
-17.1355034575
 20
-11.7375
 11
-17.1886846264
 21
-11.7375
  0
LINE
  5
3A4
100
AcDbEntity
  8
DRAFT
100
AcDbLine
 62
7
  6
CONTINUOUS
 10
-17.1886846264
 20
-11.3875
 11
-17.1355034575
 21
-11.3875
  0
LINE
  5
3A5
100
AcDbEntity
  8
ASSI
100
AcDbLine
 62
7
  6
CONTINUOUS
 10
-10.2910161489
 20
-11.3875
 11
-10.1172365125
 21
-11.3875
  0
LINE
  5
3A6
100
AcDbEntity
  8
ASSI
100
AcDbLine
 62
7
  6
CONTINUOUS
 10
-8.9037704025
 20
-11.3875
 11
-8.7299907661
 21
-11.3875
  0
LINE
  5
3A7
100
AcDbEntity
  8
ASSI
100
AcDbLine
 62
7
  6
CONTINUOUS
 10
7.2089838511
 20
-11.3875
 11
7.3827634875
 21
-11.3875
  0
LINE
  5
3A8
100
AcDbEntity
  8
DRAFT
100
AcDbLine
 62
7
  6
CONTINUOUS
 10
8.5962295975
 20
-11.3875
 11
8.7700092339
 21
-11.3875
  0
LINE
  5
3A9
100
AcDbEntity
  8
DRAFT
100
AcDbLine
 62
7
  6
CONTINUOUS
 10
15.6144965425
 20
-11.3875
 11
15.6676777113
 21
-11.3875
  0
LINE
  5
3AA
100
AcDbEntity
  8
DRAFT
100
AcDbLine
 62
7
  6
CONTINUOUS
 10
8.7571200935
 20
-11.3386109227
 11
8.5820065719
 21
-11.3386109227
  0
LINE
  5
3AB
100
AcDbEntity
  8
ASSI
100
AcDbLine
 62
7
  6
CONTINUOUS
 10
7.3969865131
 20
-11.3386109227
 11
7.2218729915
 21
-11.3386109227
  0
LINE
  5
3AC
100
AcDbEntity
  8
ASSI
100
AcDbLine
 62
7
  6
CONTINUOUS
 10
-8.7428799065
 20
-11.3386109227
 11
-8.9179934281
 21
-11.3386109227
  0
LINE
  5
3AD
100
AcDbEntity
  8
ASSI
100
AcDbLine
 62
7
  6
CONTINUOUS
 10
-10.1030134869
 20
-11.3386109227
 11
-10.2781270085
 21
-11.3386109227
  0
LINE
  5
3AE
100
AcDbEntity
  8
ASSI
100
AcDbLine
 62
7
  6
CONTINUOUS
 10
-8.8616849271
 20
-11.8025903129
 11
-8.8702133121
 21
-11.8025803013
  0
LINE
  5
3AF
100
AcDbEntity
  8
DRAFT
100
AcDbLine
 62
7
  6
CONTINUOUS
 10
7.7848005591
 20
-21.3578040166
 11
7.74989851
 21
-21.3229019675
  0
LINE
  5
3B0
100
AcDbEntity
  8
RACCORDO
100
AcDbLine
 62
7
  6
CONTINUOUS
 10
-11.1546934565
 20
7.0722607529
 11
-11.1547163022
 21
7.0724318349
  0
LINE
  5
3B1
100
AcDbEntity
  8
ASSI
100
AcDbLine
 62
7
  6
CONTINUOUS
 10
-9.3355034575
 20
-24.8430113929
 11
-9.3355034575
 21
-24.6375
  0
LINE
  5
3B2
100
AcDbEntity
  8
ASSI
100
AcDbLine
 62
7
  6
CONTINUOUS
 10
-9.3355034575
 20
-23.4375
 11
-9.3355034575
 21
-23.2819886071
  0
LINE
  5
3B3
100
AcDbEntity
  8
DRAFT
100
AcDbLine
 62
7
  6
CONTINUOUS
 10
-9.3355034575
 20
-21.2792046677
 11
-9.3355034575
 21
-19.2375
  0
LINE
  5
3B4
100
AcDbEntity
  8
DRAFT
100
AcDbLine
 62
7
  6
CONTINUOUS
 10
-9.3355034575
 20
-18.8875
 11
-9.3355034575
 21
-16.7375
  0
LINE
  5
3B5
100
AcDbEntity
  8
DRAFT
100
AcDbLine
 62
7
  6
CONTINUOUS
 10
-9.3355034575
 20
-16.3875
 11
-9.3355034575
 21
-15.0457953323
  0
LINE
  5
3B6
100
AcDbEntity
  8
ASSI
100
AcDbLine
 62
7
  6
CONTINUOUS
 10
-9.3355034575
 20
-12.3430113929
 11
-9.3355034575
 21
-12.1375
  0
LINE
  5
3B7
100
AcDbEntity
  8
ASSI
100
AcDbLine
 62
7
  6
CONTINUOUS
 10
-9.3355034575
 20
-10.9375
 11
-9.3355034575
 21
-10.7819886071
  0
LINE
  5
3B8
100
AcDbEntity
  8
ASSI
100
AcDbLine
 62
7
  6
CONTINUOUS
 10
-9.3355034575
 20
-9.3875
 11
-9.3355034575
 21
-9.2375
  0
LINE
  5
3B9
100
AcDbEntity
  8
ASSI
100
AcDbLine
 62
7
  6
CONTINUOUS
 10
-9.2866143802
 20
-9.2863890773
 11
-9.2866143802
 21
-9.3875
  0
LINE
  5
3BA
100
AcDbEntity
  8
ASSI
100
AcDbLine
 62
7
  6
CONTINUOUS
 10
-9.2866143802
 20
-10.794876449
 11
-9.2866143802
 21
-10.9539773517
  0
LINE
  5
3BB
100
AcDbEntity
  8
ASSI
100
AcDbLine
 62
7
  6
CONTINUOUS
 10
-9.2866143802
 20
-12.1210226483
 11
-9.2866143802
 21
-12.330123551
  0
LINE
  5
3BC
100
AcDbEntity
  8
ASSI
100
AcDbLine
 62
7
  6
CONTINUOUS
 10
-9.2866143802
 20
-24.6210226483
 11
-9.2866143802
 21
-24.830123551
  0
LINE
  5
3BD
100
AcDbEntity
  8
ASSI
100
AcDbLine
 62
7
  6
CONTINUOUS
 10
-9.270905425
 20
-23.4602498091
 11
-9.270905425
 21
-23.2994133291
  0
LINE
  5
3BE
100
AcDbEntity
  8
DRAFT
100
AcDbLine
 62
7
  6
CONTINUOUS
 10
-9.270905425
 20
-21.3229019675
 11
-9.270905425
 21
-19.3020980325
  0
LINE
  5
3BF
100
AcDbEntity
  8
DRAFT
100
AcDbLine
 62
7
  6
CONTINUOUS
 10
-9.270905425
 20
-18.8229019675
 11
-9.270905425
 21
-16.8020980325
  0
LINE
  5
3C0
100
AcDbEntity
  8
DRAFT
100
AcDbLine
 62
7
  6
CONTINUOUS
 10
-9.270905425
 20
-16.3229019675
 11
-9.270905425
 21
-14.8748172161
  0
LINE
  5
3C1
100
AcDbEntity
  8
DRAFT
100
AcDbLine
 62
7
  6
CONTINUOUS
 10
-8.4644551433
 20
25.9460483142
 11
-8.4644551433
 21
26.0960483142
  0
LINE
  5
3C2
100
AcDbEntity
  8
DRAFT
100
AcDbLine
 62
7
  6
CONTINUOUS
 10
-8.4332019577
 20
26.1273014999
 11
-8.4332019577
 21
25.9773014999
  0
LINE
  5
3C3
100
AcDbEntity
  8
DRAFT
100
AcDbLine
 62
7
  6
CONTINUOUS
 10
-8.265739977
 20
27.0010134805
 11
-8.265739977
 21
27.3375
  0
LINE
  5
3C4
100
AcDbEntity
  8
DRAFT
100
AcDbLine
 62
7
  6
CONTINUOUS
 10
-8.2543941848
 20
28.4563907273
 11
-8.2543941848
 21
27.3375
  0
LINE
  5
3C5
100
AcDbEntity
  8
DRAFT
100
AcDbLine
 62
7
  6
CONTINUOUS
 10
-17.1635193285
 20
-13.8371540649
 11
-17.1886846264
 21
-13.8875
  0
LINE
  5
3C6
100
AcDbEntity
  8
DRAFT
100
AcDbLine
 62
7
  6
CONTINUOUS
 10
-16.8939211458
 20
-16.3875
 11
-16.877165315
 21
-16.3539781248
  0
LINE
  5
3C7
100
AcDbEntity
  8
DRAFT
100
AcDbLine
 62
7
  6
CONTINUOUS
 10
14.5515427452
 20
26.1120462027
 11
14.5667980423
 21
26.1273014999
  0
LINE
  5
3C8
100
AcDbEntity
  8
DRAFT
100
AcDbLine
 62
7
  6
CONTINUOUS
 10
-5.571012011
 20
4.5316082777
 11
-5.5605034575
 21
4.5421168312
  0
LINE
  5
3C9
100
AcDbEntity
  8
RACCORDO
100
AcDbLine
 62
250
  6
CONTINUOUS
 10
18.4746978135
 20
28.4476631948
 11
18.4895346187
 21
28.4625
  0
LINE
  5
3CA
100
AcDbEntity
  8
DRAFT
100
AcDbLine
 62
7
  6
CONTINUOUS
 10
-1.9070469689
 20
7.9875
 11
-1.7605034575
 21
8.0459922889
  0
LINE
  5
3CB
100
AcDbEntity
  8
DRAFT
100
AcDbLine
 62
7
  6
CONTINUOUS
 10
-1.810809439
 20
7.03125
 11
-1.7605034575
 21
7.0513294425
  0
LINE
  5
3CC
100
AcDbEntity
  8
ASSI
100
AcDbLine
 62
7
  6
CONTINUOUS
 10
-17.1355034575
 20
-9.3875
 11
15.6144965425
 21
-9.3875
  0
LINE
  5
3CD
100
AcDbEntity
  8
ASSI
100
AcDbLine
 62
7
  6
CONTINUOUS
 10
11.4862298067
 20
-9.2863890773
 11
8.2133856198
 21
-9.2863890773
  0
LINE
  5
3CE
100
AcDbEntity
  8
ASSI
100
AcDbLine
 62
7
  6
CONTINUOUS
 10
7.7656074652
 20
-9.2863890773
 11
7.4927632783
 21
-9.2863890773
  0
LINE
  5
3CF
100
AcDbEntity
  8
ASSI
100
AcDbLine
 62
7
  6
CONTINUOUS
 10
-9.0137701933
 20
-9.2863890773
 11
-9.2866143802
 21
-9.2863890773
  0
LINE
  5
3D0
100
AcDbEntity
  8
ASSI
100
AcDbLine
 62
7
  6
CONTINUOUS
 10
-9.7343925348
 20
-9.2863890773
 11
-13.0072367217
 21
-9.2863890773
  0
LINE
  5
3D1
100
AcDbEntity
  8
0
100
AcDbLine
 62
7
  6
CONTINUOUS
 10
-14.3105034575
 20
-9.2375
 11
-13.9605034575
 21
-9.2375
  0
LINE
  5
3D2
100
AcDbEntity
  8
0
100
AcDbLine
 62
7
  6
CONTINUOUS
 10
-9.6855034575
 20
-9.2375
 11
-9.3355034575
 21
-9.2375
  0
LINE
  5
3D3
100
AcDbEntity
  8
0
100
AcDbLine
 62
7
  6
CONTINUOUS
 10
7.8144965425
 20
-9.2375
 11
8.1644965425
 21
-9.2375
  0
LINE
  5
3D4
100
AcDbEntity
  8
0
100
AcDbLine
 62
7
  6
CONTINUOUS
 10
12.4394965425
 20
-9.2375
 11
12.7894965425
 21
-9.2375
  0
LINE
  5
3D5
100
AcDbEntity
  8
DRAFT
100
AcDbLine
 62
7
  6
CONTINUOUS
 10
-17.1930483926
 20
-9.2287698076
 11
15.6720414776
 21
-9.2287698076
  0
LINE
  5
3D6
100
AcDbEntity
  8
DRAFT
100
AcDbLine
 62
7
  6
CONTINUOUS
 10
-17.1930483926
 20
-8.8962301923
 11
15.6720414776
 21
-8.8962301923
  0
LINE
  5
3D7
100
AcDbEntity
  8
DRAFT
100
AcDbLine
 62
7
  6
CONTINUOUS
 10
15.6528409061
 20
-8.8578173459
 11
14.7315217913
 21
-8.8578173459
  0
LINE
  5
3D8
100
AcDbEntity
  8
DRAFT
100
AcDbLine
 62
7
  6
CONTINUOUS
 10
-17.1651202887
 20
-8.8403569612
 11
14.7366395813
 21
-8.8403569612
  0
LINE
  5
3D9
100
AcDbEntity
  8
0
100
AcDbLine
 62
7
  6
CONTINUOUS
 10
-17.1105034575
 20
-8.7375
 11
13.8394965425
 21
-8.7375
  0
LINE
  5
3DA
100
AcDbEntity
  8
0
100
AcDbLine
 62
7
  6
CONTINUOUS
 10
-16.8855034575
 20
-8.1625
 11
15.3644965425
 21
-8.1625
  0
LINE
  5
3DB
100
AcDbEntity
  8
DRAFT
100
AcDbLine
 62
7
  6
CONTINUOUS
 10
-17.1651202887
 20
4.5421168312
 11
-17.205266938
 21
4.5822634805
  0
LINE
  5
3DC
100
AcDbEntity
  8
DRAFT
100
AcDbLine
 62
7
  6
CONTINUOUS
 10
15.684260023
 20
-27.9572634805
 11
15.6425124135
 21
-27.915515871
  0
LINE
  5
3DD
100
AcDbEntity
  8
DRAFT
100
AcDbLine
 62
7
  6
CONTINUOUS
 10
7.8144965425
 20
-18.8875
 11
7.74989851
 21
-18.8229019675
  0
LINE
  5
3DE
100
AcDbEntity
  8
DRAFT
100
AcDbLine
 62
7
  6
CONTINUOUS
 10
8.1644965425
 20
-19.2375
 11
8.228488036
 21
-19.3014914935
  0
LINE
  5
3DF
100
AcDbEntity
  8
RACCORDO
100
AcDbLine
 62
250
  6
CONTINUOUS
 10
18.4895346187
 20
-28.7875
 11
18.4746978135
 21
-28.7726631948
  0
LINE
  5
3E0
100
AcDbEntity
  8
RACCORDO
100
AcDbLine
 62
7
  6
CONTINUOUS
 10
-11.1546934565
 20
18.5597607529
 11
-11.1547163022
 21
18.5599318349
  0
LINE
  5
3E1
100
AcDbEntity
  8
DRAFT
100
AcDbLine
 62
7
  6
CONTINUOUS
 10
-6.2605034575
 20
4.5936092727
 11
-6.2605034575
 21
5.4125
  0
LINE
  5
3E2
100
AcDbEntity
  8
DRAFT
100
AcDbLine
 62
7
  6
CONTINUOUS
 10
-5.571012011
 20
4.5125
 11
-5.571012011
 21
4.5316082777
  0
LINE
  5
3E3
100
AcDbEntity
  8
DRAFT
100
AcDbLine
 62
7
  6
CONTINUOUS
 10
-5.5605034575
 20
4.5125
 11
-5.5605034575
 21
4.5421168312
  0
LINE
  5
3E4
100
AcDbEntity
  8
DRAFT
100
AcDbLine
 62
7
  6
CONTINUOUS
 10
-5.2666127302
 20
28.4563907273
 11
-5.2666127302
 21
27.3375
  0
LINE
  5
3E5
100
AcDbEntity
  8
DRAFT
100
AcDbLine
 62
7
  6
CONTINUOUS
 10
-5.255266938
 20
27.3375
 11
-5.255266938
 21
27.0010134805
  0
LINE
  5
3E6
100
AcDbEntity
  8
DRAFT
100
AcDbLine
 62
7
  6
CONTINUOUS
 10
-5.0878049573
 20
25.9773014999
 11
-5.0878049573
 21
26.1273014999
  0
LINE
  5
3E7
100
AcDbEntity
  8
DRAFT
100
AcDbLine
 62
7
  6
CONTINUOUS
 10
-5.0528182013
 20
25.9423147438
 11
-5.0528182013
 21
26.0923147438
  0
LINE
  5
3E8
100
AcDbEntity
  8
DRAFT
100
AcDbLine
 62
7
  6
CONTINUOUS
 10
-4.9605034575
 20
4.5125
 11
-4.9605034575
 21
4.5421168312
  0
LINE
  5
3E9
100
AcDbEntity
  8
DRAFT
100
AcDbLine
 62
7
  6
CONTINUOUS
 10
-4.9497926125
 20
4.5125
 11
-4.9497926125
 21
4.5314059861
  0
LINE
  5
3EA
100
AcDbEntity
  8
RACCORDO
100
AcDbLine
 62
7
  6
CONTINUOUS
 10
-16.8939211458
 20
-18.8875
 11
-16.877165315
 21
-18.8539781248
  0
LINE
  5
3EB
100
AcDbEntity
  8
DRAFT
100
AcDbLine
 62
7
  6
CONTINUOUS
 10
-17.1635193285
 20
-21.3371540649
 11
-17.1886846264
 21
-21.3875
  0
LINE
  5
3EC
100
AcDbEntity
  8
DRAFT
100
AcDbLine
 62
7
  6
CONTINUOUS
 10
-17.1635193285
 20
-23.8371540649
 11
-17.1886846264
 21
-23.8875
  0
LINE
  5
3ED
100
AcDbEntity
  8
RACCORDO
100
AcDbLine
 62
250
  6
CONTINUOUS
 10
18.7246597373
 20
28.197701271
 11
18.7394965425
 21
28.2125380762
  0
LINE
  5
3EE
100
AcDbEntity
  8
RACCORDO
100
AcDbLine
 62
250
  6
CONTINUOUS
 10
-1.9070469689
 20
6.2780759584
 11
-1.810809439
 21
6.3743134883
  0
LINE
  5
3EF
100
AcDbEntity
  8
DRAFT
100
AcDbLine
 62
7
  6
CONTINUOUS
 10
9.5939868412
 20
17.5919902987
 11
9.6144965425
 21
17.6125
  0
LINE
  5
3F0
100
AcDbEntity
  8
RACCORDO
100
AcDbLine
 62
250
  6
CONTINUOUS
 10
-1.8074274991
 20
6.1784564886
 11
-1.7111899692
 21
6.2746940185
  0
LINE
  5
3F1
100
AcDbEntity
  8
DRAFT
100
AcDbLine
 62
7
  6
CONTINUOUS
 10
12.4894965425
 20
20.125
 11
12.5327305103
 21
20.1682339679
  0
LINE
  5
3F2
100
AcDbEntity
  8
DRAFT
100
AcDbLine
 62
7
  6
CONTINUOUS
 10
17.9894965425
 20
25.2125
 11
18.0949021685
 21
25.3179056261
  0
LINE
  5
3F3
100
AcDbEntity
  8
DRAFT
100
AcDbLine
 62
7
  6
CONTINUOUS
 10
12.4894965425
 20
19.475
 11
12.5327305103
 21
19.5182339679
  0
LINE
  5
3F4
100
AcDbEntity
  8
0
100
AcDbLine
 62
7
  6
CONTINUOUS
 10
8.4894965425
 20
-6.4125
 11
-10.0105034575
 21
-6.4125
  0
LINE
  5
3F5
100
AcDbEntity
  8
RACCORDO
100
AcDbLine
 62
7
  6
CONTINUOUS
 10
-12.9851229273
 20
5.1954863524
 11
-12.9842145009
 21
5.1945967409
  0
LINE
  5
3F6
100
AcDbEntity
  8
RACCORDO
100
AcDbLine
 62
250
  6
CONTINUOUS
 10
18.7394965425
 20
-28.5375380762
 11
18.7246597373
 21
-28.522701271
  0
LINE
  5
3F7
100
AcDbEntity
  8
DRAFT
100
AcDbLine
 62
7
  6
CONTINUOUS
 10
7.8144965425
 20
-16.3875
 11
7.74989851
 21
-16.3229019675
  0
LINE
  5
3F8
100
AcDbEntity
  8
DRAFT
100
AcDbLine
 62
7
  6
CONTINUOUS
 10
8.1644965425
 20
-16.7375
 11
8.228488036
 21
-16.8014914935
  0
LINE
  5
3F9
100
AcDbEntity
  8
RACCORDO
100
AcDbLine
 62
7
  6
CONTINUOUS
 10
-12.9851229273
 20
5.1954863524
 11
-12.8855034575
 21
5.0958668826
  0
LINE
  5
3FA
100
AcDbEntity
  8
DRAFT
100
AcDbLine
 62
7
  6
CONTINUOUS
 10
17.9894965425
 20
-25.5375
 11
18.0949021685
 21
-25.642905626
  0
LINE
  5
3FB
100
AcDbEntity
  8
DRAFT
100
AcDbLine
 62
7
  6
CONTINUOUS
 10
-11.1987961046
 20
4.5421168312
 11
-11.1913882566
 21
4.5347089832
  0
LINE
  5
3FC
100
AcDbEntity
  8
RACCORDO
100
AcDbLine
 62
7
  6
CONTINUOUS
 10
-12.8950320916
 20
5.1054939705
 11
-12.8855034575
 21
5.0958668826
  0
LINE
  5
3FD
100
AcDbEntity
  8
RACCORDO
100
AcDbLine
 62
7
  6
CONTINUOUS
 10
-11.1546898851
 20
7.0722536079
 11
-11.1385056897
 21
7.0398753521
  0
LINE
  5
3FE
100
AcDbEntity
  8
RACCORDO
100
AcDbLine
 62
7
  6
CONTINUOUS
 10
-13.3689422989
 20
15.5829985303
 11
-13.3825012253
 21
15.6101246479
  0
LINE
  5
3FF
100
AcDbEntity
  8
DRAFT
100
AcDbLine
 62
7
  6
CONTINUOUS
 10
-4.5105034575
 20
4.5936092727
 11
-4.5105034575
 21
5.4125
  0
LINE
  5
400
100
AcDbEntity
  8
DRAFT
100
AcDbLine
 62
7
  6
CONTINUOUS
 10
-1.0698454043
 20
27.9284224792
 11
-1.0105034575
 21
28.4625
  0
LINE
  5
401
100
AcDbEntity
  8
DRAFT
100
AcDbLine
 62
7
  6
CONTINUOUS
 10
-15.787236942
 20
-21.7909832642
 11
-15.7785019272
 21
-21.7735079103
  0
LINE
  5
402
100
AcDbEntity
  8
DRAFT
100
AcDbLine
 62
7
  6
CONTINUOUS
 10
-17.1635193285
 20
-26.3371540649
 11
-17.1886846264
 21
-26.3875
  0
LINE
  5
403
100
AcDbEntity
  8
DRAFT
100
AcDbLine
 62
7
  6
CONTINUOUS
 10
8.9894965425
 20
14.6625
 11
8.9387141972
 21
14.6117176547
  0
LINE
  5
404
100
AcDbEntity
  8
0
100
AcDbLine
 62
7
  6
CONTINUOUS
 10
-14.3105034575
 20
-9.2375
 11
-14.366935244
 21
-9.2939317865
  0
LINE
  5
405
100
AcDbEntity
  8
DRAFT
100
AcDbLine
 62
7
  6
CONTINUOUS
 10
8.9894965425
 20
14.0125
 11
8.9387141972
 21
13.9617176547
  0
LINE
  5
406
100
AcDbEntity
  8
DRAFT
100
AcDbLine
 62
7
  6
CONTINUOUS
 10
-19.5043941848
 20
-14.5063907273
 11
-19.5105034575
 21
-14.5125
  0
LINE
  5
407
100
AcDbEntity
  8
DRAFT
100
AcDbLine
 62
7
  6
CONTINUOUS
 10
11.8644965425
 20
16.525
 11
11.8850062438
 21
16.5455097013
  0
LINE
  5
408
100
AcDbEntity
  8
DRAFT
100
AcDbLine
 62
7
  6
CONTINUOUS
 10
-19.0105034575
 20
-14.5125
 11
-19.0043941848
 21
-14.5063907273
  0
LINE
  5
409
100
AcDbEntity
  8
DRAFT
100
AcDbLine
 62
7
  6
CONTINUOUS
 10
-18.1355034575
 20
-14.7875
 11
-18.121449374
 21
-14.7734459165
  0
LINE
  5
40A
100
AcDbEntity
  8
DRAFT
100
AcDbLine
 62
7
  6
CONTINUOUS
 10
-14.0105034575
 20
7.9875
 11
-14.0537374254
 21
8.0307339679
  0
LINE
  5
40B
100
AcDbEntity
  8
DRAFT
100
AcDbLine
 62
7
  6
CONTINUOUS
 10
-14.0105034575
 20
8.6375
 11
-14.0537374254
 21
8.6807339679
  0
LINE
  5
40C
100
AcDbEntity
  8
DRAFT
100
AcDbLine
 62
7
  6
CONTINUOUS
 10
-11.1149937562
 20
6.1044902987
 11
-11.1355034575
 21
6.125
  0
LINE
  5
40D
100
AcDbEntity
  8
RACCORDO
100
AcDbLine
 62
7
  6
CONTINUOUS
 10
-1.9070469689
 20
27.8594240416
 11
-1.9070469689
 21
27.3375
  0
LINE
  5
40E
100
AcDbEntity
  8
RACCORDO
100
AcDbLine
 62
7
  6
CONTINUOUS
 10
-1.9070469689
 20
19.475
 11
-1.9070469689
 21
17.7655759584
  0
LINE
  5
40F
100
AcDbEntity
  8
RACCORDO
100
AcDbLine
 62
7
  6
CONTINUOUS
 10
-1.9070469689
 20
16.3719240416
 11
-1.9070469689
 21
14.6625
  0
LINE
  5
410
100
AcDbEntity
  8
RACCORDO
100
AcDbLine
 62
7
  6
CONTINUOUS
 10
-1.9070469689
 20
7.9875
 11
-1.9070469689
 21
6.2780759584
  0
LINE
  5
411
100
AcDbEntity
  8
DRAFT
100
AcDbLine
 62
7
  6
CONTINUOUS
 10
-1.8501793376
 20
27.3375
 11
-1.8501793376
 21
26.1273014999
  0
LINE
  5
412
100
AcDbEntity
  8
RACCORDO
100
AcDbLine
 62
7
  6
CONTINUOUS
 10
-1.810809439
 20
27.7631865117
 11
-1.810809439
 21
27.10625
  0
LINE
  5
413
100
AcDbEntity
  8
RACCORDO
100
AcDbLine
 62
7
  6
CONTINUOUS
 10
-1.810809439
 20
18.51875
 11
-1.810809439
 21
17.8618134883
  0
LINE
  5
414
100
AcDbEntity
  8
RACCORDO
100
AcDbLine
 62
7
  6
CONTINUOUS
 10
-1.810809439
 20
16.2756865117
 11
-1.810809439
 21
15.61875
  0
LINE
  5
415
100
AcDbEntity
  8
RACCORDO
100
AcDbLine
 62
7
  6
CONTINUOUS
 10
-1.810809439
 20
7.03125
 11
-1.810809439
 21
6.3743134883
  0
LINE
  5
416
100
AcDbEntity
  8
DRAFT
100
AcDbLine
 62
7
  6
CONTINUOUS
 10
-1.7605034575
 20
27.0861705576
 11
-1.7605034575
 21
26.0915077111
  0
LINE
  5
417
100
AcDbEntity
  8
DRAFT
100
AcDbLine
 62
7
  6
CONTINUOUS
 10
-1.7605034575
 20
19.5334922889
 11
-1.7605034575
 21
18.5388294425
  0
LINE
  5
418
100
AcDbEntity
  8
DRAFT
100
AcDbLine
 62
7
  6
CONTINUOUS
 10
-1.7605034575
 20
15.5986705576
 11
-1.7605034575
 21
14.6040077111
  0
LINE
  5
419
100
AcDbEntity
  8
DRAFT
100
AcDbLine
 62
7
  6
CONTINUOUS
 10
-1.7605034575
 20
8.0459922889
 11
-1.7605034575
 21
7.0513294425
  0
LINE
  5
41A
100
AcDbEntity
  8
DRAFT
100
AcDbLine
 62
7
  6
CONTINUOUS
 10
0.2394965425
 20
7.0513294425
 11
0.2394965425
 21
8.0459922889
  0
LINE
  5
41B
100
AcDbEntity
  8
DRAFT
100
AcDbLine
 62
7
  6
CONTINUOUS
 10
0.2394965425
 20
14.6040077111
 11
0.2394965425
 21
15.5986705576
  0
LINE
  5
41C
100
AcDbEntity
  8
DRAFT
100
AcDbLine
 62
7
  6
CONTINUOUS
 10
0.2394965425
 20
18.5388294425
 11
0.2394965425
 21
19.5334922889
  0
LINE
  5
41D
100
AcDbEntity
  8
DRAFT
100
AcDbLine
 62
7
  6
CONTINUOUS
 10
0.2394965425
 20
26.0915077111
 11
0.2394965425
 21
27.0861705576
  0
LINE
  5
41E
100
AcDbEntity
  8
RACCORDO
100
AcDbLine
 62
7
  6
CONTINUOUS
 10
0.289802524
 20
6.3743134883
 11
0.289802524
 21
7.03125
  0
LINE
  5
41F
100
AcDbEntity
  8
RACCORDO
100
AcDbLine
 62
7
  6
CONTINUOUS
 10
0.289802524
 20
15.61875
 11
0.289802524
 21
16.2756865117
  0
LINE
  5
420
100
AcDbEntity
  8
RACCORDO
100
AcDbLine
 62
7
  6
CONTINUOUS
 10
0.289802524
 20
17.8618134883
 11
0.289802524
 21
18.51875
  0
LINE
  5
421
100
AcDbEntity
  8
RACCORDO
100
AcDbLine
 62
7
  6
CONTINUOUS
 10
0.289802524
 20
27.10625
 11
0.289802524
 21
27.7631865117
  0
LINE
  5
422
100
AcDbEntity
  8
DRAFT
100
AcDbLine
 62
7
  6
CONTINUOUS
 10
-12.4805654343
 20
-21.327605705
 11
-12.4893107481
 21
-21.3451016633
  0
LINE
  5
423
100
AcDbEntity
  8
RACCORDO
100
AcDbLine
 62
7
  6
CONTINUOUS
 10
11.8614943103
 20
27.0976246479
 11
11.8479353839
 21
27.0704985303
  0
LINE
  5
424
100
AcDbEntity
  8
RACCORDO
100
AcDbLine
 62
7
  6
CONTINUOUS
 10
9.6174987747
 20
18.5273753521
 11
9.6336829701
 21
18.5597536079
  0
LINE
  5
425
100
AcDbEntity
  8
RACCORDO
100
AcDbLine
 62
250
  6
CONTINUOUS
 10
19.8900673378
 20
21.9375
 11
19.7413366098
 21
21.788769272
  0
LINE
  5
426
100
AcDbEntity
  8
RACCORDO
100
AcDbLine
 62
250
  6
CONTINUOUS
 10
20.0394965425
 20
21.7880707953
 11
19.8907658145
 21
21.6393400673
  0
LINE
  5
427
100
AcDbEntity
  8
DRAFT
100
AcDbLine
 62
7
  6
CONTINUOUS
 10
3.4287856974
 20
4.5314059861
 11
3.4394965425
 21
4.5421168312
  0
LINE
  5
428
100
AcDbEntity
  8
ASSI
100
AcDbLine
 62
7
  6
CONTINUOUS
 10
-9.6855034575
 20
-9.2375
 11
-9.7343925348
 21
-9.2863890773
  0
LINE
  5
429
100
AcDbEntity
  8
DRAFT
100
AcDbLine
 62
7
  6
CONTINUOUS
 10
14.5515427452
 20
14.6245462027
 11
14.5894965425
 21
14.6625
  0
LINE
  5
42A
100
AcDbEntity
  8
DRAFT
100
AcDbLine
 62
7
  6
CONTINUOUS
 10
18.1894965425
 20
-2.0375
 11
18.7333872698
 21
-2.0375
  0
LINE
  5
42B
100
AcDbEntity
  8
DRAFT
100
AcDbLine
 62
7
  6
CONTINUOUS
 10
15.6441133737
 20
-7.9328831688
 11
15.6528409061
 21
-7.9364982311
  0
LINE
  5
42C
100
AcDbEntity
  8
RACCORDO
100
AcDbLine
 62
250
  6
CONTINUOUS
 10
19.8900673378
 20
-22.2625
 11
19.7413366098
 21
-22.113769272
  0
LINE
  5
42D
100
AcDbEntity
  8
RACCORDO
100
AcDbLine
 62
250
  6
CONTINUOUS
 10
20.0394965425
 20
-22.1130707953
 11
19.8907658145
 21
-21.9643400673
  0
LINE
  5
42E
100
AcDbEntity
  8
DRAFT
100
AcDbLine
 62
7
  6
CONTINUOUS
 10
-16.1105034575
 20
14.6625
 11
-16.0725496602
 21
14.6245462027
  0
LINE
  5
42F
100
AcDbEntity
  8
ASSI
100
AcDbLine
 62
7
  6
CONTINUOUS
 10
8.1644965425
 20
-9.2375
 11
8.2133856198
 21
-9.2863890773
  0
LINE
  5
430
100
AcDbEntity
  8
DRAFT
100
AcDbLine
 62
7
  6
CONTINUOUS
 10
-4.9497926125
 20
4.5314059861
 11
-4.9605034575
 21
4.5421168312
  0
LINE
  5
431
100
AcDbEntity
  8
RACCORDO
100
AcDbLine
 62
7
  6
CONTINUOUS
 10
-11.1546898851
 20
18.5597536079
 11
-11.1385056897
 21
18.5273753521
  0
LINE
  5
432
100
AcDbEntity
  8
RACCORDO
100
AcDbLine
 62
7
  6
CONTINUOUS
 10
-13.3689422989
 20
27.0704985303
 11
-13.3825012253
 21
27.0976246479
  0
LINE
  5
433
100
AcDbEntity
  8
DRAFT
100
AcDbLine
 62
7
  6
CONTINUOUS
 10
0.3291724226
 20
27.3375
 11
0.3291724226
 21
26.1273014999
  0
LINE
  5
434
100
AcDbEntity
  8
RACCORDO
100
AcDbLine
 62
7
  6
CONTINUOUS
 10
0.3860400539
 20
6.2780759584
 11
0.3860400539
 21
7.9875
  0
LINE
  5
435
100
AcDbEntity
  8
RACCORDO
100
AcDbLine
 62
7
  6
CONTINUOUS
 10
0.3860400539
 20
14.6625
 11
0.3860400539
 21
16.3719240416
  0
LINE
  5
436
100
AcDbEntity
  8
RACCORDO
100
AcDbLine
 62
7
  6
CONTINUOUS
 10
0.3860400539
 20
17.7655759584
 11
0.3860400539
 21
19.475
  0
LINE
  5
437
100
AcDbEntity
  8
RACCORDO
100
AcDbLine
 62
7
  6
CONTINUOUS
 10
0.3860400539
 20
27.3375
 11
0.3860400539
 21
27.8594240416
  0
LINE
  5
438
100
AcDbEntity
  8
RACCORDO
100
AcDbLine
 62
250
  6
CONTINUOUS
 10
18.9394965425
 20
17.8869292047
 11
19.0882272705
 21
18.0356599327
  0
LINE
  5
439
100
AcDbEntity
  8
RACCORDO
100
AcDbLine
 62
250
  6
CONTINUOUS
 10
19.0889257472
 20
17.7375
 11
19.2376564752
 21
17.886230728
  0
LINE
  5
43A
100
AcDbEntity
  8
DRAFT
100
AcDbLine
 62
7
  6
CONTINUOUS
 10
9.5939868412
 20
6.1044902987
 11
9.6144965425
 21
6.125
  0
LINE
  5
43B
100
AcDbEntity
  8
DRAFT
100
AcDbLine
 62
7
  6
CONTINUOUS
 10
18.1894965425
 20
1.7125
 11
18.7333872698
 21
1.7125
  0
LINE
  5
43C
100
AcDbEntity
  8
0
100
AcDbLine
 62
7
  6
CONTINUOUS
 10
-10.0105034575
 20
2.5875
 11
8.4894965425
 21
2.5875
  0
LINE
  5
43D
100
AcDbEntity
  8
RACCORDO
100
AcDbLine
 62
250
  6
CONTINUOUS
 10
18.9394965425
 20
-18.2119292047
 11
19.0882272705
 21
-18.3606599327
  0
LINE
  5
43E
100
AcDbEntity
  8
RACCORDO
100
AcDbLine
 62
250
  6
CONTINUOUS
 10
19.0889257472
 20
-18.0625
 11
19.2376564752
 21
-18.211230728
  0
LINE
  5
43F
100
AcDbEntity
  8
DRAFT
100
AcDbLine
 62
7
  6
CONTINUOUS
 10
-13.3855034575
 20
16.525
 11
-13.4060131588
 21
16.5455097013
  0
LINE
  5
440
100
AcDbEntity
  8
DRAFT
100
AcDbLine
 62
7
  6
CONTINUOUS
 10
-10.5105034575
 20
14.0125
 11
-10.4597211122
 21
13.9617176547
  0
LINE
  5
441
100
AcDbEntity
  8
0
100
AcDbLine
 62
7
  6
CONTINUOUS
 10
12.7894965425
 20
-9.2375
 11
12.845928329
 21
-9.2939317865
  0
LINE
  5
442
100
AcDbEntity
  8
DRAFT
100
AcDbLine
 62
7
  6
CONTINUOUS
 10
15.6425124135
 20
-26.3371540649
 11
15.6676777113
 21
-26.3875
  0
LINE
  5
443
100
AcDbEntity
  8
DRAFT
100
AcDbLine
 62
7
  6
CONTINUOUS
 10
-0.4511615108
 20
27.9284224792
 11
-0.5105034575
 21
28.4625
  0
LINE
  5
444
100
AcDbEntity
  8
DRAFT
100
AcDbLine
 62
7
  6
CONTINUOUS
 10
2.9894965425
 20
4.5936092727
 11
2.9894965425
 21
5.4125
  0
LINE
  5
445
100
AcDbEntity
  8
DRAFT
100
AcDbLine
 62
7
  6
CONTINUOUS
 10
3.4287856974
 20
4.5125
 11
3.4287856974
 21
4.5314059861
  0
LINE
  5
446
100
AcDbEntity
  8
DRAFT
100
AcDbLine
 62
7
  6
CONTINUOUS
 10
3.4394965425
 20
4.5125
 11
3.4394965425
 21
4.5421168312
  0
LINE
  5
447
100
AcDbEntity
  8
DRAFT
100
AcDbLine
 62
7
  6
CONTINUOUS
 10
3.5318112863
 20
25.9423147438
 11
3.5318112863
 21
26.0923147438
  0
LINE
  5
448
100
AcDbEntity
  8
DRAFT
100
AcDbLine
 62
7
  6
CONTINUOUS
 10
3.5667980423
 20
26.1273014999
 11
3.5667980423
 21
25.9773014999
  0
LINE
  5
449
100
AcDbEntity
  8
DRAFT
100
AcDbLine
 62
7
  6
CONTINUOUS
 10
3.734260023
 20
27.0010134805
 11
3.734260023
 21
27.3375
  0
LINE
  5
44A
100
AcDbEntity
  8
DRAFT
100
AcDbLine
 62
7
  6
CONTINUOUS
 10
3.7456058152
 20
28.4563907273
 11
3.7456058152
 21
27.3375
  0
LINE
  5
44B
100
AcDbEntity
  8
DRAFT
100
AcDbLine
 62
7
  6
CONTINUOUS
 10
4.0394965425
 20
4.5125
 11
4.0394965425
 21
4.5421168312
  0
LINE
  5
44C
100
AcDbEntity
  8
DRAFT
100
AcDbLine
 62
7
  6
CONTINUOUS
 10
4.050005096
 20
4.5125
 11
4.050005096
 21
4.5316082777
  0
LINE
  5
44D
100
AcDbEntity
  8
DRAFT
100
AcDbLine
 62
7
  6
CONTINUOUS
 10
4.7394965425
 20
4.5936092727
 11
4.7394965425
 21
5.4125
  0
LINE
  5
44E
100
AcDbEntity
  8
RACCORDO
100
AcDbLine
 62
7
  6
CONTINUOUS
 10
11.8614943103
 20
15.6101246479
 11
11.8479353839
 21
15.5829985303
  0
LINE
  5
44F
100
AcDbEntity
  8
RACCORDO
100
AcDbLine
 62
7
  6
CONTINUOUS
 10
11.4641160123
 20
5.1954863524
 11
11.4632264008
 21
5.194577926
  0
LINE
  5
450
100
AcDbEntity
  8
DRAFT
100
AcDbLine
 62
7
  6
CONTINUOUS
 10
9.6703813416
 20
4.5347089832
 11
9.6777891896
 21
4.5421168312
  0
LINE
  5
451
100
AcDbEntity
  8
RACCORDO
100
AcDbLine
 62
7
  6
CONTINUOUS
 10
11.4641160123
 20
5.1954863524
 11
11.3644965425
 21
5.0958668826
  0
LINE
  5
452
100
AcDbEntity
  8
DRAFT
100
AcDbLine
 62
7
  6
CONTINUOUS
 10
-9.3355034575
 20
-16.3875
 11
-9.270905425
 21
-16.3229019675
  0
LINE
  5
453
100
AcDbEntity
  8
DRAFT
100
AcDbLine
 62
7
  6
CONTINUOUS
 10
-9.6855034575
 20
-16.7375
 11
-9.7494949511
 21
-16.8014914935
  0
LINE
  5
454
100
AcDbEntity
  8
RACCORDO
100
AcDbLine
 62
7
  6
CONTINUOUS
 10
11.3741236303
 20
5.1053955168
 11
11.3644965425
 21
5.0958668826
  0
LINE
  5
455
100
AcDbEntity
  8
0
100
AcDbLine
 62
7
  6
CONTINUOUS
 10
15.3644965425
 20
4.3375
 11
-16.8855034575
 21
4.3375
  0
LINE
  5
456
100
AcDbEntity
  8
0
100
AcDbLine
 62
7
  6
CONTINUOUS
 10
15.5894965425
 20
4.5125
 11
-17.1105034575
 21
4.5125
  0
LINE
  5
457
100
AcDbEntity
  8
DRAFT
100
AcDbLine
 62
7
  6
CONTINUOUS
 10
-17.1651202887
 20
4.5421168312
 11
-16.2605034575
 21
4.5421168312
  0
LINE
  5
458
100
AcDbEntity
  8
DRAFT
100
AcDbLine
 62
7
  6
CONTINUOUS
 10
15.6441133737
 20
4.5421168312
 11
14.7394965425
 21
4.5421168312
  0
LINE
  5
459
100
AcDbEntity
  8
DRAFT
100
AcDbLine
 62
7
  6
CONTINUOUS
 10
-12.2605034575
 20
4.5421168312
 11
-11.1987961046
 21
4.5421168312
  0
LINE
  5
45A
100
AcDbEntity
  8
DRAFT
100
AcDbLine
 62
7
  6
CONTINUOUS
 10
-5.5605034575
 20
4.5421168312
 11
-4.9605034575
 21
4.5421168312
  0
LINE
  5
45B
100
AcDbEntity
  8
DRAFT
100
AcDbLine
 62
7
  6
CONTINUOUS
 10
3.4394965425
 20
4.5421168312
 11
4.0394965425
 21
4.5421168312
  0
LINE
  5
45C
100
AcDbEntity
  8
DRAFT
100
AcDbLine
 62
7
  6
CONTINUOUS
 10
9.6777891896
 20
4.5421168312
 11
10.7394965425
 21
4.5421168312
  0
LINE
  5
45D
100
AcDbEntity
  8
RACCORDO
100
AcDbLine
 62
7
  6
CONTINUOUS
 10
-12.8855034575
 20
4.5674266754
 11
-11.7105034575
 21
4.5674266754
  0
LINE
  5
45E
100
AcDbEntity
  8
RACCORDO
100
AcDbLine
 62
7
  6
CONTINUOUS
 10
10.1894965425
 20
4.5674266754
 11
11.3644965425
 21
4.5674266754
  0
LINE
  5
45F
100
AcDbEntity
  8
DRAFT
100
AcDbLine
 62
7
  6
CONTINUOUS
 10
-17.205266938
 20
4.5822634805
 11
-16.8855034575
 21
4.5822634805
  0
LINE
  5
460
100
AcDbEntity
  8
DRAFT
100
AcDbLine
 62
7
  6
CONTINUOUS
 10
15.3644965425
 20
4.5822634805
 11
15.684260023
 21
4.5822634805
  0
LINE
  5
461
100
AcDbEntity
  8
DRAFT
100
AcDbLine
 62
7
  6
CONTINUOUS
 10
-16.8855034575
 20
4.5936092727
 11
-12.9855034575
 21
4.5936092727
  0
LINE
  5
462
100
AcDbEntity
  8
DRAFT
100
AcDbLine
 62
7
  6
CONTINUOUS
 10
-11.6105034575
 20
4.5936092727
 11
-6.2605034575
 21
4.5936092727
  0
LINE
  5
463
100
AcDbEntity
  8
DRAFT
100
AcDbLine
 62
7
  6
CONTINUOUS
 10
-4.5105034575
 20
4.5936092727
 11
2.9894965425
 21
4.5936092727
  0
LINE
  5
464
100
AcDbEntity
  8
DRAFT
100
AcDbLine
 62
7
  6
CONTINUOUS
 10
4.7394965425
 20
4.5936092727
 11
10.0894965425
 21
4.5936092727
  0
LINE
  5
465
100
AcDbEntity
  8
DRAFT
100
AcDbLine
 62
7
  6
CONTINUOUS
 10
11.4644965425
 20
4.5936092727
 11
15.3644965425
 21
4.5936092727
  0
LINE
  5
466
100
AcDbEntity
  8
DRAFT
100
AcDbLine
 62
7
  6
CONTINUOUS
 10
-6.2605034575
 20
4.6224101299
 11
-4.5105034575
 21
4.6224101299
  0
LINE
  5
467
100
AcDbEntity
  8
DRAFT
100
AcDbLine
 62
7
  6
CONTINUOUS
 10
2.9894965425
 20
4.6224101299
 11
4.7394965425
 21
4.6224101299
  0
LINE
  5
468
100
AcDbEntity
  8
RACCORDO
100
AcDbLine
 62
250
  6
CONTINUOUS
 10
-12.8855034575
 20
5.0958668826
 11
-11.7105034575
 21
5.0958668826
  0
LINE
  5
469
100
AcDbEntity
  8
RACCORDO
100
AcDbLine
 62
250
  6
CONTINUOUS
 10
10.1894965425
 20
5.0958668826
 11
11.3644965425
 21
5.0958668826
  0
LINE
  5
46A
100
AcDbEntity
  8
DRAFT
100
AcDbLine
 62
7
  6
CONTINUOUS
 10
-10.5105034575
 20
14.6625
 11
-10.4597211122
 21
14.6117176547
  0
LINE
  5
46B
100
AcDbEntity
  8
DRAFT
100
AcDbLine
 62
7
  6
CONTINUOUS
 10
-14.0105034575
 20
19.475
 11
-14.0537374254
 21
19.5182339679
  0
LINE
  5
46C
100
AcDbEntity
  8
DRAFT
100
AcDbLine
 62
7
  6
CONTINUOUS
 10
-14.0105034575
 20
20.125
 11
-14.0537374254
 21
20.1682339679
  0
LINE
  5
46D
100
AcDbEntity
  8
RACCORDO
100
AcDbLine
 62
250
  6
CONTINUOUS
 10
0.2864205841
 20
6.1784564886
 11
0.1901830542
 21
6.2746940185
  0
LINE
  5
46E
100
AcDbEntity
  8
DRAFT
100
AcDbLine
 62
7
  6
CONTINUOUS
 10
-11.1149937562
 20
17.5919902987
 11
-11.1355034575
 21
17.6125
  0
LINE
  5
46F
100
AcDbEntity
  8
RACCORDO
100
AcDbLine
 62
250
  6
CONTINUOUS
 10
0.3860400539
 20
6.2780759584
 11
0.289802524
 21
6.3743134883
  0
LINE
  5
470
100
AcDbEntity
  8
DRAFT
100
AcDbLine
 62
7
  6
CONTINUOUS
 10
-18.1355034575
 20
25.4625
 11
-18.121449374
 21
25.4484459166
  0
LINE
  5
471
100
AcDbEntity
  8
DRAFT
100
AcDbLine
 62
7
  6
CONTINUOUS
 10
6.7333872698
 20
28.4563907273
 11
6.7333872698
 21
27.3375
  0
LINE
  5
472
100
AcDbEntity
  8
DRAFT
100
AcDbLine
 62
7
  6
CONTINUOUS
 10
6.744733062
 20
27.3375
 11
6.744733062
 21
27.0010134805
  0
LINE
  5
473
100
AcDbEntity
  8
DRAFT
100
AcDbLine
 62
7
  6
CONTINUOUS
 10
6.9121950427
 20
25.9773014999
 11
6.9121950427
 21
26.1273014999
  0
LINE
  5
474
100
AcDbEntity
  8
DRAFT
100
AcDbLine
 62
7
  6
CONTINUOUS
 10
6.9434482283
 20
25.9460483142
 11
6.9434482283
 21
26.0960483142
  0
LINE
  5
475
100
AcDbEntity
  8
RACCORDO
100
AcDbLine
 62
7
  6
CONTINUOUS
 10
9.6336865415
 20
18.5597607529
 11
9.6337093872
 21
18.5599322385
  0
LINE
  5
476
100
AcDbEntity
  8
RACCORDO
100
AcDbLine
 62
7
  6
CONTINUOUS
 10
9.6174987747
 20
7.0398753521
 11
9.6336829701
 21
7.0722536079
  0
LINE
  5
477
100
AcDbEntity
  8
RACCORDO
100
AcDbLine
 62
250
  6
CONTINUOUS
 10
-19.5043941848
 20
-28.5314288035
 11
-19.5105034575
 21
-28.5375380762
  0
LINE
  5
478
100
AcDbEntity
  8
RACCORDO
100
AcDbLine
 62
250
  6
CONTINUOUS
 10
-19.254432261
 20
-28.7813907273
 11
-19.2605415337
 21
-28.7875
  0
LINE
  5
479
100
AcDbEntity
  8
DRAFT
100
AcDbLine
 62
7
  6
CONTINUOUS
 10
-9.3355034575
 20
-18.8875
 11
-9.270905425
 21
-18.8229019675
  0
LINE
  5
47A
100
AcDbEntity
  8
DRAFT
100
AcDbLine
 62
7
  6
CONTINUOUS
 10
-9.6855034575
 20
-19.2375
 11
-9.7494949511
 21
-19.3014914935
  0
LINE
  5
47B
100
AcDbEntity
  8
DRAFT
100
AcDbLine
 62
7
  6
CONTINUOUS
 10
-13.9605034575
 20
-23.8875
 11
-13.903172463
 21
-23.8301690055
  0
LINE
  5
47C
100
AcDbEntity
  8
DRAFT
100
AcDbLine
 62
7
  6
CONTINUOUS
 10
-17.1635193285
 20
-27.915515871
 11
-17.205266938
 21
-27.9572634805
  0
LINE
  5
47D
100
AcDbEntity
  8
RACCORDO
100
AcDbLine
 62
250
  6
CONTINUOUS
 10
-12.9851229273
 20
5.1954863524
 11
-11.6108839877
 21
5.1954863524
  0
LINE
  5
47E
100
AcDbEntity
  8
RACCORDO
100
AcDbLine
 62
250
  6
CONTINUOUS
 10
10.0898770727
 20
5.1954863524
 11
11.4641160123
 21
5.1954863524
  0
LINE
  5
47F
100
AcDbEntity
  8
RACCORDO
100
AcDbLine
 62
250
  6
CONTINUOUS
 10
-12.9855034575
 20
5.3067534667
 11
-11.6105034575
 21
5.3067534667
  0
LINE
  5
480
100
AcDbEntity
  8
RACCORDO
100
AcDbLine
 62
250
  6
CONTINUOUS
 10
10.0894965425
 20
5.3067534667
 11
11.4644965425
 21
5.3067534667
  0
LINE
  5
481
100
AcDbEntity
  8
0
100
AcDbLine
 62
7
  6
CONTINUOUS
 10
4.7394965425
 20
5.4125
 11
2.9894965425
 21
5.4125
  0
LINE
  5
482
100
AcDbEntity
  8
0
100
AcDbLine
 62
7
  6
CONTINUOUS
 10
-4.5105034575
 20
5.4125
 11
-6.2605034575
 21
5.4125
  0
LINE
  5
483
100
AcDbEntity
  8
RACCORDO
100
AcDbLine
 62
250
  6
CONTINUOUS
 10
-12.9855034575
 20
5.4561826714
 11
-11.6105034575
 21
5.4561826714
  0
LINE
  5
484
100
AcDbEntity
  8
RACCORDO
100
AcDbLine
 62
250
  6
CONTINUOUS
 10
10.0894965425
 20
5.4561826714
 11
11.4644965425
 21
5.4561826714
  0
LINE
  5
485
100
AcDbEntity
  8
DRAFT
100
AcDbLine
 62
7
  6
CONTINUOUS
 10
-13.4060131588
 20
6.1044902987
 11
-11.1149937562
 21
6.1044902987
  0
LINE
  5
486
100
AcDbEntity
  8
DRAFT
100
AcDbLine
 62
7
  6
CONTINUOUS
 10
11.8850062438
 20
6.1044902987
 11
9.5939868412
 21
6.1044902987
  0
LINE
  5
487
100
AcDbEntity
  8
DRAFT
100
AcDbLine
 62
7
  6
CONTINUOUS
 10
-13.3855034575
 20
6.125
 11
-11.1355034575
 21
6.125
  0
LINE
  5
488
100
AcDbEntity
  8
DRAFT
100
AcDbLine
 62
7
  6
CONTINUOUS
 10
11.8644965425
 20
6.125
 11
9.6144965425
 21
6.125
  0
LINE
  5
489
100
AcDbEntity
  8
RACCORDO
100
AcDbLine
 62
7
  6
CONTINUOUS
 10
0.2864205841
 20
6.1784564886
 11
-1.8074274991
 21
6.1784564886
  0
LINE
  5
48A
100
AcDbEntity
  8
RACCORDO
100
AcDbLine
 62
7
  6
CONTINUOUS
 10
-1.7111899692
 20
6.2746940185
 11
0.1901830542
 21
6.2746940185
  0
LINE
  5
48B
100
AcDbEntity
  8
DRAFT
100
AcDbLine
 62
7
  6
CONTINUOUS
 10
-13.3855034575
 20
6.475
 11
-11.1355034575
 21
6.475
  0
LINE
  5
48C
100
AcDbEntity
  8
DRAFT
100
AcDbLine
 62
7
  6
CONTINUOUS
 10
11.8644965425
 20
6.475
 11
9.6144965425
 21
6.475
  0
LINE
  5
48D
100
AcDbEntity
  8
DRAFT
100
AcDbLine
 62
7
  6
CONTINUOUS
 10
0.2394965425
 20
7.0513294425
 11
-1.7605034575
 21
7.0513294425
  0
LINE
  5
48E
100
AcDbEntity
  8
DRAFT
100
AcDbLine
 62
7
  6
CONTINUOUS
 10
0.289802524
 20
7.03125
 11
0.2394965425
 21
7.0513294425
  0
LINE
  5
48F
100
AcDbEntity
  8
DRAFT
100
AcDbLine
 62
7
  6
CONTINUOUS
 10
0.3860400539
 20
7.9875
 11
0.2394965425
 21
8.0459922889
  0
LINE
  5
490
100
AcDbEntity
  8
DRAFT
100
AcDbLine
 62
7
  6
CONTINUOUS
 10
4.050005096
 20
4.5316082777
 11
4.0394965425
 21
4.5421168312
  0
LINE
  5
491
100
AcDbEntity
  8
RACCORDO
100
AcDbLine
 62
250
  6
CONTINUOUS
 10
-19.0043941848
 20
28.2064288035
 11
-19.0105034575
 21
28.2125380762
  0
LINE
  5
492
100
AcDbEntity
  8
RACCORDO
100
AcDbLine
 62
250
  6
CONTINUOUS
 10
-18.754432261
 20
28.4563907273
 11
-18.7605415337
 21
28.4625
  0
LINE
  5
493
100
AcDbEntity
  8
DRAFT
100
AcDbLine
 62
7
  6
CONTINUOUS
 10
-16.0878049573
 20
26.1273014999
 11
-16.0725496602
 21
26.1120462027
  0
LINE
  5
494
100
AcDbEntity
  8
ASSI
100
AcDbLine
 62
7
  6
CONTINUOUS
 10
7.74989851
 20
-23.4602498091
 11
7.74989851
 21
-23.2994133291
  0
LINE
  5
495
100
AcDbEntity
  8
DRAFT
100
AcDbLine
 62
7
  6
CONTINUOUS
 10
7.74989851
 20
-21.3229019675
 11
7.74989851
 21
-19.3020980325
  0
LINE
  5
496
100
AcDbEntity
  8
DRAFT
100
AcDbLine
 62
7
  6
CONTINUOUS
 10
7.74989851
 20
-18.8229019675
 11
7.74989851
 21
-16.8020980325
  0
LINE
  5
497
100
AcDbEntity
  8
DRAFT
100
AcDbLine
 62
7
  6
CONTINUOUS
 10
7.74989851
 20
-16.3229019675
 11
7.74989851
 21
-14.8748172161
  0
LINE
  5
498
100
AcDbEntity
  8
ASSI
100
AcDbLine
 62
7
  6
CONTINUOUS
 10
7.7656074652
 20
-24.830123551
 11
7.7656074652
 21
-24.6210226483
  0
LINE
  5
499
100
AcDbEntity
  8
ASSI
100
AcDbLine
 62
7
  6
CONTINUOUS
 10
7.7656074652
 20
-12.330123551
 11
7.7656074652
 21
-12.1210226483
  0
LINE
  5
49A
100
AcDbEntity
  8
ASSI
100
AcDbLine
 62
7
  6
CONTINUOUS
 10
7.7656074652
 20
-10.9539773517
 11
7.7656074652
 21
-10.794876449
  0
LINE
  5
49B
100
AcDbEntity
  8
ASSI
100
AcDbLine
 62
7
  6
CONTINUOUS
 10
7.7656074652
 20
-9.3875
 11
7.7656074652
 21
-9.2863890773
  0
LINE
  5
49C
100
AcDbEntity
  8
ASSI
100
AcDbLine
 62
7
  6
CONTINUOUS
 10
7.8144965425
 20
-9.2375
 11
7.8144965425
 21
-9.3875
  0
LINE
  5
49D
100
AcDbEntity
  8
ASSI
100
AcDbLine
 62
7
  6
CONTINUOUS
 10
7.8144965425
 20
-10.7819886071
 11
7.8144965425
 21
-10.9375
  0
LINE
  5
49E
100
AcDbEntity
  8
ASSI
100
AcDbLine
 62
7
  6
CONTINUOUS
 10
7.8144965425
 20
-12.1375
 11
7.8144965425
 21
-12.3430113929
  0
LINE
  5
49F
100
AcDbEntity
  8
DRAFT
100
AcDbLine
 62
7
  6
CONTINUOUS
 10
7.8144965425
 20
-15.0457953323
 11
7.8144965425
 21
-16.3875
  0
LINE
  5
4A0
100
AcDbEntity
  8
DRAFT
100
AcDbLine
 62
7
  6
CONTINUOUS
 10
7.8144965425
 20
-16.7375
 11
7.8144965425
 21
-18.8875
  0
LINE
  5
4A1
100
AcDbEntity
  8
DRAFT
100
AcDbLine
 62
7
  6
CONTINUOUS
 10
7.8144965425
 20
-19.2375
 11
7.8144965425
 21
-21.2792046677
  0
LINE
  5
4A2
100
AcDbEntity
  8
ASSI
100
AcDbLine
 62
7
  6
CONTINUOUS
 10
7.8144965425
 20
-23.2819886071
 11
7.8144965425
 21
-23.4375
  0
LINE
  5
4A3
100
AcDbEntity
  8
ASSI
100
AcDbLine
 62
7
  6
CONTINUOUS
 10
7.8144965425
 20
-24.6375
 11
7.8144965425
 21
-24.8430113929
  0
LINE
  5
4A4
100
AcDbEntity
  8
ASSI
100
AcDbLine
 62
7
  6
CONTINUOUS
 10
8.1644965425
 20
-24.8430113929
 11
8.1644965425
 21
-24.6375
  0
LINE
  5
4A5
100
AcDbEntity
  8
ASSI
100
AcDbLine
 62
7
  6
CONTINUOUS
 10
8.1644965425
 20
-23.4375
 11
8.1644965425
 21
-23.2819886071
  0
LINE
  5
4A6
100
AcDbEntity
  8
DRAFT
100
AcDbLine
 62
7
  6
CONTINUOUS
 10
8.1644965425
 20
-20.0550562862
 11
8.1644965425
 21
-19.2375
  0
LINE
  5
4A7
100
AcDbEntity
  8
DRAFT
100
AcDbLine
 62
7
  6
CONTINUOUS
 10
8.1644965425
 20
-18.8875
 11
8.1644965425
 21
-16.7375
  0
LINE
  5
4A8
100
AcDbEntity
  8
DRAFT
100
AcDbLine
 62
7
  6
CONTINUOUS
 10
8.1644965425
 20
-16.3875
 11
8.1644965425
 21
-16.2699437138
  0
LINE
  5
4A9
100
AcDbEntity
  8
ASSI
100
AcDbLine
 62
7
  6
CONTINUOUS
 10
8.1644965425
 20
-12.3430113929
 11
8.1644965425
 21
-12.1375
  0
LINE
  5
4AA
100
AcDbEntity
  8
ASSI
100
AcDbLine
 62
7
  6
CONTINUOUS
 10
8.1644965425
 20
-10.9375
 11
8.1644965425
 21
-10.7819886071
  0
LINE
  5
4AB
100
AcDbEntity
  8
ASSI
100
AcDbLine
 62
7
  6
CONTINUOUS
 10
8.1644965425
 20
-9.3875
 11
8.1644965425
 21
-9.2375
  0
LINE
  5
4AC
100
AcDbEntity
  8
ASSI
100
AcDbLine
 62
7
  6
CONTINUOUS
 10
8.2133856198
 20
-9.2863890773
 11
8.2133856198
 21
-9.3875
  0
LINE
  5
4AD
100
AcDbEntity
  8
ASSI
100
AcDbLine
 62
7
  6
CONTINUOUS
 10
8.2133856198
 20
-10.794876449
 11
8.2133856198
 21
-10.9539773517
  0
LINE
  5
4AE
100
AcDbEntity
  8
ASSI
100
AcDbLine
 62
7
  6
CONTINUOUS
 10
8.2133856198
 20
-12.1210226483
 11
8.2133856198
 21
-12.330123551
  0
LINE
  5
4AF
100
AcDbEntity
  8
ASSI
100
AcDbLine
 62
7
  6
CONTINUOUS
 10
8.2133856198
 20
-24.6210226483
 11
8.2133856198
 21
-24.830123551
  0
LINE
  5
4B0
100
AcDbEntity
  8
ASSI
100
AcDbLine
 62
7
  6
CONTINUOUS
 10
8.228488036
 20
-23.4599984277
 11
8.228488036
 21
-23.2992010919
  0
LINE
  5
4B1
100
AcDbEntity
  8
DRAFT
100
AcDbLine
 62
7
  6
CONTINUOUS
 10
8.228488036
 20
-19.7249066021
 11
8.228488036
 21
-19.3014914935
  0
LINE
  5
4B2
100
AcDbEntity
  8
DRAFT
100
AcDbLine
 62
7
  6
CONTINUOUS
 10
8.228488036
 20
-18.8235085064
 11
8.228488036
 21
-16.8014914935
  0
LINE
  5
4B3
100
AcDbEntity
  8
0
100
AcDbLine
 62
7
  6
CONTINUOUS
 10
8.4894965425
 20
2.5875
 11
8.4894965425
 21
-6.4125
  0
LINE
  5
4B4
100
AcDbEntity
  8
DRAFT
100
AcDbLine
 62
7
  6
CONTINUOUS
 10
8.9387141972
 20
8.0382823453
 11
8.9387141972
 21
8.6882823453
  0
LINE
  5
4B5
100
AcDbEntity
  8
DRAFT
100
AcDbLine
 62
7
  6
CONTINUOUS
 10
8.9387141972
 20
13.9617176547
 11
8.9387141972
 21
14.6117176547
  0
LINE
  5
4B6
100
AcDbEntity
  8
DRAFT
100
AcDbLine
 62
7
  6
CONTINUOUS
 10
8.9387141972
 20
19.5257823453
 11
8.9387141972
 21
20.1757823453
  0
LINE
  5
4B7
100
AcDbEntity
  8
DRAFT
100
AcDbLine
 62
7
  6
CONTINUOUS
 10
8.9387141972
 20
25.4492176547
 11
8.9387141972
 21
26.0992176547
  0
LINE
  5
4B8
100
AcDbEntity
  8
DRAFT
100
AcDbLine
 62
7
  6
CONTINUOUS
 10
8.9667980423
 20
26.1273014999
 11
8.9667980423
 21
25.4773014999
  0
LINE
  5
4B9
100
AcDbEntity
  8
DRAFT
100
AcDbLine
 62
7
  6
CONTINUOUS
 10
8.9894965425
 20
7.9875
 11
8.9894965425
 21
8.6375
  0
LINE
  5
4BA
100
AcDbEntity
  8
DRAFT
100
AcDbLine
 62
7
  6
CONTINUOUS
 10
8.9894965425
 20
14.0125
 11
8.9894965425
 21
14.6625
  0
LINE
  5
4BB
100
AcDbEntity
  8
DRAFT
100
AcDbLine
 62
7
  6
CONTINUOUS
 10
8.9894965425
 20
19.475
 11
8.9894965425
 21
20.125
  0
LINE
  5
4BC
100
AcDbEntity
  8
DRAFT
100
AcDbLine
 62
7
  6
CONTINUOUS
 10
9.5939868412
 20
28.0330097013
 11
9.5939868412
 21
27.3375
  0
LINE
  5
4BD
100
AcDbEntity
  8
DRAFT
100
AcDbLine
 62
7
  6
CONTINUOUS
 10
9.5939868412
 20
19.1875
 11
9.5939868412
 21
17.5919902987
  0
LINE
  5
4BE
100
AcDbEntity
  8
DRAFT
100
AcDbLine
 62
7
  6
CONTINUOUS
 10
9.5939868412
 20
16.5455097013
 11
9.5939868412
 21
14.95
  0
LINE
  5
4BF
100
AcDbEntity
  8
DRAFT
100
AcDbLine
 62
7
  6
CONTINUOUS
 10
9.5939868412
 20
7.7
 11
9.5939868412
 21
6.1044902987
  0
LINE
  5
4C0
100
AcDbEntity
  8
DRAFT
100
AcDbLine
 62
7
  6
CONTINUOUS
 10
9.6053326334
 20
27.3375
 11
9.6053326334
 21
26.4375
  0
LINE
  5
4C1
100
AcDbEntity
  8
DRAFT
100
AcDbLine
 62
7
  6
CONTINUOUS
 10
9.6144965425
 20
6.125
 11
9.6144965425
 21
6.475
  0
LINE
  5
4C2
100
AcDbEntity
  8
DRAFT
100
AcDbLine
 62
7
  6
CONTINUOUS
 10
9.6144965425
 20
16.175
 11
9.6144965425
 21
16.525
  0
LINE
  5
4C3
100
AcDbEntity
  8
DRAFT
100
AcDbLine
 62
7
  6
CONTINUOUS
 10
9.6144965425
 20
17.6125
 11
9.6144965425
 21
17.9625
  0
LINE
  5
4C4
100
AcDbEntity
  8
DRAFT
100
AcDbLine
 62
7
  6
CONTINUOUS
 10
9.6144965425
 20
27.6625
 11
9.6144965425
 21
28.0125
  0
LINE
  5
4C5
100
AcDbEntity
  8
DRAFT
100
AcDbLine
 62
7
  6
CONTINUOUS
 10
9.6174987747
 20
27.6625
 11
9.6174987747
 21
27.0976246479
  0
LINE
  5
4C6
100
AcDbEntity
  8
DRAFT
100
AcDbLine
 62
7
  6
CONTINUOUS
 10
9.6174987747
 20
18.5273753521
 11
9.6174987747
 21
17.9625
  0
LINE
  5
4C7
100
AcDbEntity
  8
DRAFT
100
AcDbLine
 62
7
  6
CONTINUOUS
 10
9.6174987747
 20
16.175
 11
9.6174987747
 21
15.6101246479
  0
LINE
  5
4C8
100
AcDbEntity
  8
DRAFT
100
AcDbLine
 62
7
  6
CONTINUOUS
 10
9.6174987747
 20
7.0398753521
 11
9.6174987747
 21
6.475
  0
LINE
  5
4C9
100
AcDbEntity
  8
RACCORDO
100
AcDbLine
 62
7
  6
CONTINUOUS
 10
9.6337093872
 20
27.0651212549
 11
9.6337093872
 21
26.4372839946
  0
LINE
  5
4CA
100
AcDbEntity
  8
RACCORDO
100
AcDbLine
 62
7
  6
CONTINUOUS
 10
9.6337093872
 20
19.1877160055
 11
9.6337093872
 21
18.5598787425
  0
LINE
  5
4CB
100
AcDbEntity
  8
RACCORDO
100
AcDbLine
 62
7
  6
CONTINUOUS
 10
9.6337093872
 20
15.5776212561
 11
9.6337093872
 21
14.9497839946
  0
LINE
  5
4CC
100
AcDbEntity
  8
RACCORDO
100
AcDbLine
 62
7
  6
CONTINUOUS
 10
9.6337093872
 20
7.7002160055
 11
9.6337093872
 21
7.0723787425
  0
LINE
  5
4CD
100
AcDbEntity
  8
DRAFT
100
AcDbLine
 62
7
  6
CONTINUOUS
 10
9.6703813416
 20
4.5125
 11
9.6703813416
 21
4.5347089832
  0
LINE
  5
4CE
100
AcDbEntity
  8
DRAFT
100
AcDbLine
 62
7
  6
CONTINUOUS
 10
9.6777891896
 20
4.5125
 11
9.6777891896
 21
4.5421168312
  0
LINE
  5
4CF
100
AcDbEntity
  8
RACCORDO
100
AcDbLine
 62
7
  6
CONTINUOUS
 10
9.6336865415
 20
7.0722607529
 11
9.6337093872
 21
7.0724322385
  0
LINE
  5
4D0
100
AcDbEntity
  8
DRAFT
100
AcDbLine
 62
7
  6
CONTINUOUS
 10
15.684260023
 20
4.5822634805
 11
15.6441133737
 21
4.5421168312
  0
LINE
  5
4D1
100
AcDbEntity
  8
DRAFT
100
AcDbLine
 62
7
  6
CONTINUOUS
 10
-9.3058074741
 20
-21.3578040166
 11
-9.270905425
 21
-21.3229019675
  0
LINE
  5
4D2
100
AcDbEntity
  8
DRAFT
100
AcDbLine
 62
7
  6
CONTINUOUS
 10
-13.4060131588
 20
7.7
 11
-11.1149937562
 21
7.7
  0
LINE
  5
4D3
100
AcDbEntity
  8
DRAFT
100
AcDbLine
 62
7
  6
CONTINUOUS
 10
11.8850062438
 20
7.7
 11
9.5939868412
 21
7.7
  0
LINE
  5
4D4
100
AcDbEntity
  8
DRAFT
100
AcDbLine
 62
7
  6
CONTINUOUS
 10
-16.1105034575
 20
7.9875
 11
-14.0105034575
 21
7.9875
  0
LINE
  5
4D5
100
AcDbEntity
  8
DRAFT
100
AcDbLine
 62
7
  6
CONTINUOUS
 10
-10.5105034575
 20
7.9875
 11
-1.9070469689
 21
7.9875
  0
LINE
  5
4D6
100
AcDbEntity
  8
DRAFT
100
AcDbLine
 62
7
  6
CONTINUOUS
 10
0.3860400539
 20
7.9875
 11
8.9894965425
 21
7.9875
  0
LINE
  5
4D7
100
AcDbEntity
  8
DRAFT
100
AcDbLine
 62
7
  6
CONTINUOUS
 10
12.4894965425
 20
7.9875
 11
14.5894965425
 21
7.9875
  0
LINE
  5
4D8
100
AcDbEntity
  8
DRAFT
100
AcDbLine
 62
7
  6
CONTINUOUS
 10
0.2394965425
 20
8.0459922889
 11
-1.7605034575
 21
8.0459922889
  0
LINE
  5
4D9
100
AcDbEntity
  8
DRAFT
100
AcDbLine
 62
7
  6
CONTINUOUS
 10
8.9894965425
 20
8.6375
 11
12.4894965425
 21
8.6375
  0
LINE
  5
4DA
100
AcDbEntity
  8
DRAFT
100
AcDbLine
 62
7
  6
CONTINUOUS
 10
-10.5105034575
 20
8.6375
 11
-14.0105034575
 21
8.6375
  0
LINE
  5
4DB
100
AcDbEntity
  8
ASSI
100
AcDbLine
 62
7
  6
CONTINUOUS
 10
12.6144965425
 20
9.825
 11
11.3644965425
 21
9.825
  0
LINE
  5
4DC
100
AcDbEntity
  8
ASSI
100
AcDbLine
 62
7
  6
CONTINUOUS
 10
-12.8855034575
 20
9.825
 11
-14.1355034575
 21
9.825
  0
LINE
  5
4DD
100
AcDbEntity
  8
DRAFT
100
AcDbLine
 62
7
  6
CONTINUOUS
 10
15.6425124135
 20
-11.3371540649
 11
15.6676777113
 21
-11.3875
  0
LINE
  5
4DE
100
AcDbEntity
  8
DRAFT
100
AcDbLine
 62
7
  6
CONTINUOUS
 10
15.6528409061
 20
-8.8578173459
 11
15.6720414776
 21
-8.8962301923
  0
LINE
  5
4DF
100
AcDbEntity
  8
RACCORDO
100
AcDbLine
 62
7
  6
CONTINUOUS
 10
10.0894965425
 20
4.5691721818
 11
10.0894965425
 21
5.4561826714
  0
LINE
  5
4E0
100
AcDbEntity
  8
RACCORDO
100
AcDbLine
 62
250
  6
CONTINUOUS
 10
10.1894965425
 20
4.5674266754
 11
10.1894965425
 21
5.0958668826
  0
LINE
  5
4E1
100
AcDbEntity
  8
DRAFT
100
AcDbLine
 62
7
  6
CONTINUOUS
 10
10.7394965425
 20
4.5125
 11
10.7394965425
 21
4.5421168312
  0
LINE
  5
4E2
100
AcDbEntity
  8
DRAFT
100
AcDbLine
 62
7
  6
CONTINUOUS
 10
10.7460498376
 20
4.5125
 11
10.7460498376
 21
4.5355635361
  0
LINE
  5
4E3
100
AcDbEntity
  8
RACCORDO
100
AcDbLine
 62
250
  6
CONTINUOUS
 10
11.3644965425
 20
5.0958668826
 11
11.3644965425
 21
4.5674266754
  0
LINE
  5
4E4
100
AcDbEntity
  8
ASSI
100
AcDbLine
 62
7
  6
CONTINUOUS
 10
11.3644965425
 20
9.825
 11
11.3644965425
 21
12.825
  0
LINE
  5
4E5
100
AcDbEntity
  8
0
100
AcDbLine
 62
7
  6
CONTINUOUS
 10
11.3644965425
 20
21.3125
 11
11.3644965425
 21
24.3125
  0
LINE
  5
4E6
100
AcDbEntity
  8
RACCORDO
100
AcDbLine
 62
7
  6
CONTINUOUS
 10
11.4644965425
 20
4.5691721818
 11
11.4644965425
 21
5.4561826714
  0
LINE
  5
4E7
100
AcDbEntity
  8
RACCORDO
100
AcDbLine
 62
7
  6
CONTINUOUS
 10
11.4894965425
 20
-23.1625
 11
11.4894965425
 21
-21.3125
  0
LINE
  5
4E8
100
AcDbEntity
  8
RACCORDO
100
AcDbLine
 62
7
  6
CONTINUOUS
 10
11.4894965425
 20
-19.5625
 11
11.4894965425
 21
-16.9625
  0
LINE
  5
4E9
100
AcDbEntity
  8
RACCORDO
100
AcDbLine
 62
7
  6
CONTINUOUS
 10
11.4894965425
 20
-15.1125
 11
11.4894965425
 21
-13.0625
  0
LINE
  5
4EA
100
AcDbEntity
  8
RACCORDO
100
AcDbLine
 62
7
  6
CONTINUOUS
 10
11.5189482936
 20
-12.8945156067
 11
11.5189482936
 21
-15.2804843933
  0
LINE
  5
4EB
100
AcDbEntity
  8
RACCORDO
100
AcDbLine
 62
7
  6
CONTINUOUS
 10
11.5189482936
 20
-16.7945156067
 11
11.5189482936
 21
-19.7304843933
  0
LINE
  5
4EC
100
AcDbEntity
  8
RACCORDO
100
AcDbLine
 62
7
  6
CONTINUOUS
 10
11.5189482936
 20
-21.1445156067
 11
11.5189482936
 21
-23.3304843933
  0
LINE
  5
4ED
100
AcDbEntity
  8
RACCORDO
100
AcDbLine
 62
7
  6
CONTINUOUS
 10
11.8479125381
 20
7.0670928875
 11
11.8479125381
 21
7.7
  0
LINE
  5
4EE
100
AcDbEntity
  8
RACCORDO
100
AcDbLine
 62
7
  6
CONTINUOUS
 10
11.8479125381
 20
14.95
 11
11.8479125381
 21
15.5829071126
  0
LINE
  5
4EF
100
AcDbEntity
  8
RACCORDO
100
AcDbLine
 62
7
  6
CONTINUOUS
 10
11.8479125381
 20
18.5545928875
 11
11.8479125381
 21
19.1875
  0
LINE
  5
4F0
100
AcDbEntity
  8
RACCORDO
100
AcDbLine
 62
7
  6
CONTINUOUS
 10
11.8479125381
 20
26.4375
 11
11.8479125381
 21
27.0704071126
  0
LINE
  5
4F1
100
AcDbEntity
  8
DRAFT
100
AcDbLine
 62
7
  6
CONTINUOUS
 10
11.8614943103
 20
6.475
 11
11.8614943103
 21
7.0398753521
  0
LINE
  5
4F2
100
AcDbEntity
  8
DRAFT
100
AcDbLine
 62
7
  6
CONTINUOUS
 10
11.8614943103
 20
15.6101246479
 11
11.8614943103
 21
16.175
  0
LINE
  5
4F3
100
AcDbEntity
  8
DRAFT
100
AcDbLine
 62
7
  6
CONTINUOUS
 10
11.8614943103
 20
17.9625
 11
11.8614943103
 21
18.5273753521
  0
LINE
  5
4F4
100
AcDbEntity
  8
DRAFT
100
AcDbLine
 62
7
  6
CONTINUOUS
 10
11.8614943103
 20
27.0976246479
 11
11.8614943103
 21
27.6625
  0
LINE
  5
4F5
100
AcDbEntity
  8
DRAFT
100
AcDbLine
 62
7
  6
CONTINUOUS
 10
11.8644965425
 20
6.125
 11
11.8644965425
 21
6.475
  0
LINE
  5
4F6
100
AcDbEntity
  8
DRAFT
100
AcDbLine
 62
7
  6
CONTINUOUS
 10
11.8644965425
 20
16.175
 11
11.8644965425
 21
16.525
  0
LINE
  5
4F7
100
AcDbEntity
  8
DRAFT
100
AcDbLine
 62
7
  6
CONTINUOUS
 10
11.8644965425
 20
17.6125
 11
11.8644965425
 21
17.9625
  0
LINE
  5
4F8
100
AcDbEntity
  8
DRAFT
100
AcDbLine
 62
7
  6
CONTINUOUS
 10
11.8644965425
 20
27.6625
 11
11.8644965425
 21
28.0125
  0
LINE
  5
4F9
100
AcDbEntity
  8
DRAFT
100
AcDbLine
 62
7
  6
CONTINUOUS
 10
11.8736604516
 20
27.3375
 11
11.8736604516
 21
26.4375
  0
LINE
  5
4FA
100
AcDbEntity
  8
DRAFT
100
AcDbLine
 62
7
  6
CONTINUOUS
 10
11.8850062438
 20
28.0330097013
 11
11.8850062438
 21
27.3375
  0
LINE
  5
4FB
100
AcDbEntity
  8
DRAFT
100
AcDbLine
 62
7
  6
CONTINUOUS
 10
11.8850062438
 20
19.1875
 11
11.8850062438
 21
17.5919902987
  0
LINE
  5
4FC
100
AcDbEntity
  8
DRAFT
100
AcDbLine
 62
7
  6
CONTINUOUS
 10
11.8850062438
 20
16.5455097013
 11
11.8850062438
 21
14.95
  0
LINE
  5
4FD
100
AcDbEntity
  8
DRAFT
100
AcDbLine
 62
7
  6
CONTINUOUS
 10
11.8850062438
 20
7.7
 11
11.8850062438
 21
6.1044902987
  0
LINE
  5
4FE
100
AcDbEntity
  8
DRAFT
100
AcDbLine
 62
7
  6
CONTINUOUS
 10
12.382165548
 20
-9.3875
 11
12.382165548
 21
-9.2948309945
  0
LINE
  5
4FF
100
AcDbEntity
  8
0
100
AcDbLine
 62
7
  6
CONTINUOUS
 10
12.4394965425
 20
-9.2375
 11
12.4394965425
 21
-9.3875
  0
LINE
  5
500
100
AcDbEntity
  8
DRAFT
100
AcDbLine
 62
7
  6
CONTINUOUS
 10
12.4894965425
 20
20.125
 11
12.4894965425
 21
19.475
  0
LINE
  5
501
100
AcDbEntity
  8
DRAFT
100
AcDbLine
 62
7
  6
CONTINUOUS
 10
12.4894965425
 20
14.6625
 11
12.4894965425
 21
14.0125
  0
LINE
  5
502
100
AcDbEntity
  8
DRAFT
100
AcDbLine
 62
7
  6
CONTINUOUS
 10
12.4894965425
 20
7.9875
 11
12.4894965425
 21
8.6808388519
  0
LINE
  5
503
100
AcDbEntity
  8
DRAFT
100
AcDbLine
 62
7
  6
CONTINUOUS
 10
13.9894965425
 20
28.4625
 11
13.8644965425
 21
27.3375
  0
LINE
  5
504
100
AcDbEntity
  8
ASSI
100
AcDbLine
 62
7
  6
CONTINUOUS
 10
7.8144965425
 20
-9.2375
 11
7.7656074652
 21
-9.2863890773
  0
LINE
  5
505
100
AcDbEntity
  8
DRAFT
100
AcDbLine
 62
7
  6
CONTINUOUS
 10
-16.8855034575
 20
10.325
 11
-16.0878049573
 21
10.325
  0
LINE
  5
506
100
AcDbEntity
  8
DRAFT
100
AcDbLine
 62
7
  6
CONTINUOUS
 10
14.5667980423
 20
10.325
 11
15.3644965425
 21
10.325
  0
LINE
  5
507
100
AcDbEntity
  8
DRAFT
100
AcDbLine
 62
7
  6
CONTINUOUS
 10
15.3644965425
 20
12.325
 11
14.5667980423
 21
12.325
  0
LINE
  5
508
100
AcDbEntity
  8
DRAFT
100
AcDbLine
 62
7
  6
CONTINUOUS
 10
-16.0878049573
 20
12.325
 11
-16.8855034575
 21
12.325
  0
LINE
  5
509
100
AcDbEntity
  8
RACCORDO
100
AcDbLine
 62
7
  6
CONTINUOUS
 10
10.0898770727
 20
5.1954863524
 11
10.0907854991
 21
5.1945967409
  0
LINE
  5
50A
100
AcDbEntity
  8
RACCORDO
100
AcDbLine
 62
250
  6
CONTINUOUS
 10
-1.9070469689
 20
16.3719240416
 11
-1.810809439
 21
16.2756865117
  0
LINE
  5
50B
100
AcDbEntity
  8
DRAFT
100
AcDbLine
 62
7
  6
CONTINUOUS
 10
-13.3855034575
 20
28.0125
 11
-13.4060131588
 21
28.0330097013
  0
LINE
  5
50C
100
AcDbEntity
  8
RACCORDO
100
AcDbLine
 62
250
  6
CONTINUOUS
 10
-1.8074274991
 20
16.4715435114
 11
-1.7111899692
 21
16.3753059816
  0
LINE
  5
50D
100
AcDbEntity
  8
DRAFT
100
AcDbLine
 62
7
  6
CONTINUOUS
 10
-10.4878049573
 20
25.4773014999
 11
-10.4597211122
 21
25.4492176547
  0
LINE
  5
50E
100
AcDbEntity
  8
DRAFT
100
AcDbLine
 62
7
  6
CONTINUOUS
 10
10.7394965425
 20
4.5421168312
 11
10.7460498376
 21
4.5355635361
  0
LINE
  5
50F
100
AcDbEntity
  8
RACCORDO
100
AcDbLine
 62
7
  6
CONTINUOUS
 10
10.0898770727
 20
5.1954863524
 11
10.1894965425
 21
5.0958668826
  0
LINE
  5
510
100
AcDbEntity
  8
DRAFT
100
AcDbLine
 62
7
  6
CONTINUOUS
 10
-10.4878049573
 20
26.1273014999
 11
-10.4597211122
 21
26.0992176547
  0
LINE
  5
511
100
AcDbEntity
  8
DRAFT
100
AcDbLine
 62
7
  6
CONTINUOUS
 10
8.9894965425
 20
7.9875
 11
8.9387141972
 21
8.0382823453
  0
LINE
  5
512
100
AcDbEntity
  8
DRAFT
100
AcDbLine
 62
7
  6
CONTINUOUS
 10
8.9894965425
 20
8.6375
 11
8.9387141972
 21
8.6882823453
  0
LINE
  5
513
100
AcDbEntity
  8
RACCORDO
100
AcDbLine
 62
7
  6
CONTINUOUS
 10
10.1799679084
 20
5.1054939705
 11
10.1894965425
 21
5.0958668826
  0
LINE
  5
514
100
AcDbEntity
  8
RACCORDO
100
AcDbLine
 62
7
  6
CONTINUOUS
 10
9.6336865415
 20
15.5777392472
 11
9.6337093872
 21
15.5775681652
  0
LINE
  5
515
100
AcDbEntity
  8
DRAFT
100
AcDbLine
 62
7
  6
CONTINUOUS
 10
12.5121950427
 20
25.4773014999
 11
12.5121950427
 21
26.1273014999
  0
LINE
  5
516
100
AcDbEntity
  8
DRAFT
100
AcDbLine
 62
7
  6
CONTINUOUS
 10
12.5327305103
 20
13.9692660322
 11
12.5327305103
 21
14.6192660322
  0
LINE
  5
517
100
AcDbEntity
  8
DRAFT
100
AcDbLine
 62
7
  6
CONTINUOUS
 10
12.5327305103
 20
19.5182339679
 11
12.5327305103
 21
20.1682339679
  0
LINE
  5
518
100
AcDbEntity
  8
DRAFT
100
AcDbLine
 62
7
  6
CONTINUOUS
 10
12.5327305103
 20
25.4567660322
 11
12.5327305103
 21
26.1067660322
  0
LINE
  5
519
100
AcDbEntity
  8
ASSI
100
AcDbLine
 62
7
  6
CONTINUOUS
 10
12.6144965425
 20
9.825
 11
12.6144965425
 21
12.825
  0
LINE
  5
51A
100
AcDbEntity
  8
0
100
AcDbLine
 62
7
  6
CONTINUOUS
 10
12.6144965425
 20
21.3125
 11
12.6144965425
 21
24.3125
  0
LINE
  5
51B
100
AcDbEntity
  8
0
100
AcDbLine
 62
7
  6
CONTINUOUS
 10
12.7894965425
 20
-9.3875
 11
12.7894965425
 21
-9.2375
  0
LINE
  5
51C
100
AcDbEntity
  8
DRAFT
100
AcDbLine
 62
7
  6
CONTINUOUS
 10
12.845928329
 20
-9.3875
 11
12.845928329
 21
-9.2939317865
  0
LINE
  5
51D
100
AcDbEntity
  8
RACCORDO
100
AcDbLine
 62
7
  6
CONTINUOUS
 10
14.2394965425
 20
-16.9625
 11
14.2394965425
 21
-19.5625
  0
LINE
  5
51E
100
AcDbEntity
  8
DRAFT
100
AcDbLine
 62
7
  6
CONTINUOUS
 10
14.5515427452
 20
26.1120462027
 11
14.5515427452
 21
19.5129537973
  0
LINE
  5
51F
100
AcDbEntity
  8
DRAFT
100
AcDbLine
 62
7
  6
CONTINUOUS
 10
14.5515427452
 20
14.6245462027
 11
14.5515427452
 21
8.0254537973
  0
LINE
  5
520
100
AcDbEntity
  8
DRAFT
100
AcDbLine
 62
7
  6
CONTINUOUS
 10
14.5667980423
 20
23.8125
 11
14.5667980423
 21
21.8125
  0
LINE
  5
521
100
AcDbEntity
  8
DRAFT
100
AcDbLine
 62
7
  6
CONTINUOUS
 10
14.5667980423
 20
12.325
 11
14.5667980423
 21
10.325
  0
LINE
  5
522
100
AcDbEntity
  8
DRAFT
100
AcDbLine
 62
7
  6
CONTINUOUS
 10
14.5667980423
 20
25.3375
 11
14.5667980423
 21
26.1273014999
  0
LINE
  5
523
100
AcDbEntity
  8
RACCORDO
100
AcDbLine
 62
7
  6
CONTINUOUS
 10
14.5894965425
 20
-13.0625
 11
14.5894965425
 21
-15.1125
  0
LINE
  5
524
100
AcDbEntity
  8
DRAFT
100
AcDbLine
 62
7
  6
CONTINUOUS
 10
14.5894965425
 20
7.9875
 11
14.5894965425
 21
10.325
  0
LINE
  5
525
100
AcDbEntity
  8
DRAFT
100
AcDbLine
 62
7
  6
CONTINUOUS
 10
14.5894965425
 20
12.325
 11
14.5894965425
 21
14.6625
  0
LINE
  5
526
100
AcDbEntity
  8
DRAFT
100
AcDbLine
 62
7
  6
CONTINUOUS
 10
14.5894965425
 20
19.475
 11
14.5894965425
 21
21.8125
  0
LINE
  5
527
100
AcDbEntity
  8
DRAFT
100
AcDbLine
 62
7
  6
CONTINUOUS
 10
14.5894965425
 20
23.8125
 11
14.5894965425
 21
25.3375
  0
LINE
  5
528
100
AcDbEntity
  8
DRAFT
100
AcDbLine
 62
7
  6
CONTINUOUS
 10
14.7368481183
 20
4.5125
 11
14.7368481183
 21
4.539468407
  0
LINE
  5
529
100
AcDbEntity
  8
DRAFT
100
AcDbLine
 62
7
  6
CONTINUOUS
 10
14.7394965425
 20
4.5125
 11
14.7394965425
 21
4.5421168312
  0
LINE
  5
52A
100
AcDbEntity
  8
RACCORDO
100
AcDbLine
 62
7
  6
CONTINUOUS
 10
14.8394965425
 20
-21.3125
 11
14.8394965425
 21
-23.1625
  0
LINE
  5
52B
100
AcDbEntity
  8
ASSI
100
AcDbLine
 62
7
  6
CONTINUOUS
 10
12.6144965425
 20
12.825
 11
11.3644965425
 21
12.825
  0
LINE
  5
52C
100
AcDbEntity
  8
ASSI
100
AcDbLine
 62
7
  6
CONTINUOUS
 10
-12.8855034575
 20
12.825
 11
-14.1355034575
 21
12.825
  0
LINE
  5
52D
100
AcDbEntity
  8
DRAFT
100
AcDbLine
 62
7
  6
CONTINUOUS
 10
-14.0105034575
 20
14.0125
 11
-10.5105034575
 21
14.0125
  0
LINE
  5
52E
100
AcDbEntity
  8
DRAFT
100
AcDbLine
 62
7
  6
CONTINUOUS
 10
12.4894965425
 20
14.0125
 11
8.9894965425
 21
14.0125
  0
LINE
  5
52F
100
AcDbEntity
  8
DRAFT
100
AcDbLine
 62
7
  6
CONTINUOUS
 10
0.2394965425
 20
14.6040077111
 11
-1.7605034575
 21
14.6040077111
  0
LINE
  5
530
100
AcDbEntity
  8
DRAFT
100
AcDbLine
 62
7
  6
CONTINUOUS
 10
-16.1105034575
 20
14.6625
 11
-14.0105034575
 21
14.6625
  0
LINE
  5
531
100
AcDbEntity
  8
DRAFT
100
AcDbLine
 62
7
  6
CONTINUOUS
 10
-10.5105034575
 20
14.6625
 11
-1.9070469689
 21
14.6625
  0
LINE
  5
532
100
AcDbEntity
  8
DRAFT
100
AcDbLine
 62
7
  6
CONTINUOUS
 10
0.3860400539
 20
14.6625
 11
8.9894965425
 21
14.6625
  0
LINE
  5
533
100
AcDbEntity
  8
DRAFT
100
AcDbLine
 62
7
  6
CONTINUOUS
 10
12.4894965425
 20
14.6625
 11
14.5894965425
 21
14.6625
  0
LINE
  5
534
100
AcDbEntity
  8
DRAFT
100
AcDbLine
 62
7
  6
CONTINUOUS
 10
-1.9070469689
 20
14.6625
 11
-1.7605034575
 21
14.6040077111
  0
LINE
  5
535
100
AcDbEntity
  8
DRAFT
100
AcDbLine
 62
7
  6
CONTINUOUS
 10
-1.810809439
 20
15.61875
 11
-1.7605034575
 21
15.5986705576
  0
LINE
  5
536
100
AcDbEntity
  8
RACCORDO
100
AcDbLine
 62
250
  6
CONTINUOUS
 10
0.2864205841
 20
17.6659564886
 11
0.1901830542
 21
17.7621940185
  0
LINE
  5
537
100
AcDbEntity
  8
DRAFT
100
AcDbLine
 62
7
  6
CONTINUOUS
 10
11.8850062438
 20
6.1044902987
 11
11.8644965425
 21
6.125
  0
LINE
  5
538
100
AcDbEntity
  8
RACCORDO
100
AcDbLine
 62
250
  6
CONTINUOUS
 10
0.3860400539
 20
17.7655759584
 11
0.289802524
 21
17.8618134883
  0
LINE
  5
539
100
AcDbEntity
  8
DRAFT
100
AcDbLine
 62
7
  6
CONTINUOUS
 10
-8.2605034575
 20
28.4625
 11
-8.2543941848
 21
28.4563907273
  0
LINE
  5
53A
100
AcDbEntity
  8
DRAFT
100
AcDbLine
 62
7
  6
CONTINUOUS
 10
-5.0878049573
 20
25.9773014999
 11
-5.0528182013
 21
25.9423147438
  0
LINE
  5
53B
100
AcDbEntity
  8
DRAFT
100
AcDbLine
 62
7
  6
CONTINUOUS
 10
-5.0878049573
 20
26.1273014999
 11
-5.0528182013
 21
26.0923147438
  0
LINE
  5
53C
100
AcDbEntity
  8
RACCORDO
100
AcDbLine
 62
7
  6
CONTINUOUS
 10
11.8479353839
 20
7.0670014697
 11
11.8614943103
 21
7.0398753521
  0
LINE
  5
53D
100
AcDbEntity
  8
RACCORDO
100
AcDbLine
 62
7
  6
CONTINUOUS
 10
9.6336865415
 20
27.0652392472
 11
9.6337093872
 21
27.065068164
  0
LINE
  5
53E
100
AcDbEntity
  8
0
100
AcDbLine
 62
7
  6
CONTINUOUS
 10
15.3644965425
 20
25.3375
 11
15.3644965425
 21
23.8125
  0
LINE
  5
53F
100
AcDbEntity
  8
0
100
AcDbLine
 62
7
  6
CONTINUOUS
 10
15.3644965425
 20
21.8125
 11
15.3644965425
 21
12.325
  0
LINE
  5
540
100
AcDbEntity
  8
DRAFT
100
AcDbLine
 62
7
  6
CONTINUOUS
 10
15.3644965425
 20
10.325
 11
15.3644965425
 21
4.5822634805
  0
LINE
  5
541
100
AcDbEntity
  8
0
100
AcDbLine
 62
7
  6
CONTINUOUS
 10
15.3644965425
 20
-8.1625
 11
15.3644965425
 21
4.3375
  0
LINE
  5
542
100
AcDbEntity
  8
0
100
AcDbLine
 62
7
  6
CONTINUOUS
 10
15.5894965425
 20
-6.9875
 11
15.5894965425
 21
4.5125
  0
LINE
  5
543
100
AcDbEntity
  8
ASSI
100
AcDbLine
 62
7
  6
CONTINUOUS
 10
15.6144965425
 20
-27.9375
 11
15.6144965425
 21
-9.3875
  0
LINE
  5
544
100
AcDbEntity
  8
DRAFT
100
AcDbLine
 62
7
  6
CONTINUOUS
 10
15.6425124135
 20
-27.915515871
 11
15.6425124135
 21
-26.787845935
  0
LINE
  5
545
100
AcDbEntity
  8
DRAFT
100
AcDbLine
 62
7
  6
CONTINUOUS
 10
15.6425124135
 20
-26.3371540649
 11
15.6425124135
 21
-24.287845935
  0
LINE
  5
546
100
AcDbEntity
  8
DRAFT
100
AcDbLine
 62
7
  6
CONTINUOUS
 10
15.6425124135
 20
-11.3371540649
 11
15.6425124135
 21
-9.287845935
  0
LINE
  5
547
100
AcDbEntity
  8
DRAFT
100
AcDbLine
 62
7
  6
CONTINUOUS
 10
15.6441133737
 20
4.5421168312
 11
15.6441133737
 21
-7.9328831688
  0
LINE
  5
548
100
AcDbEntity
  8
DRAFT
100
AcDbLine
 62
7
  6
CONTINUOUS
 10
15.6528409061
 20
-7.9364982311
 11
15.6528409061
 21
-8.8578173459
  0
LINE
  5
549
100
AcDbEntity
  8
DRAFT
100
AcDbLine
 62
7
  6
CONTINUOUS
 10
15.6676777113
 20
-11.3875
 11
15.6676777113
 21
-24.2375
  0
LINE
  5
54A
100
AcDbEntity
  8
DRAFT
100
AcDbLine
 62
7
  6
CONTINUOUS
 10
15.6676777113
 20
-26.7375
 11
15.6676777113
 21
-26.3875
  0
LINE
  5
54B
100
AcDbEntity
  8
DRAFT
100
AcDbLine
 62
7
  6
CONTINUOUS
 10
15.6720414776
 20
-8.8962301923
 11
15.6720414776
 21
-9.2287698076
  0
LINE
  5
54C
100
AcDbEntity
  8
DRAFT
100
AcDbLine
 62
7
  6
CONTINUOUS
 10
15.684260023
 20
-27.9572634805
 11
15.684260023
 21
4.5822634805
  0
LINE
  5
54D
100
AcDbEntity
  8
DRAFT
100
AcDbLine
 62
7
  6
CONTINUOUS
 10
15.9535303328
 20
27.3375
 11
15.9535303328
 21
-27.9572634805
  0
LINE
  5
54E
100
AcDbEntity
  8
DRAFT
100
AcDbLine
 62
250
  6
CONTINUOUS
 10
15.9925119114
 20
-27.9591329355
 11
15.9925119114
 21
27.3375
  0
LINE
  5
54F
100
AcDbEntity
  8
DRAFT
100
AcDbLine
 62
250
  6
CONTINUOUS
 10
16.0864811735
 20
-27.9591329355
 11
16.0864811735
 21
27.3375
  0
LINE
  5
550
100
AcDbEntity
  8
DRAFT
100
AcDbLine
 62
7
  6
CONTINUOUS
 10
16.1254627522
 20
27.3375
 11
16.1254627522
 21
-27.9572634805
  0
LINE
  5
551
100
AcDbEntity
  8
DRAFT
100
AcDbLine
 62
7
  6
CONTINUOUS
 10
16.3035303328
 20
27.3375
 11
16.3035303328
 21
-27.9572634805
  0
LINE
  5
552
100
AcDbEntity
  8
DRAFT
100
AcDbLine
 62
250
  6
CONTINUOUS
 10
16.3425119114
 20
-27.9591329355
 11
16.3425119114
 21
27.3375
  0
LINE
  5
553
100
AcDbEntity
  8
DRAFT
100
AcDbLine
 62
250
  6
CONTINUOUS
 10
16.4364811735
 20
-27.9591329355
 11
16.4364811735
 21
27.3375
  0
LINE
  5
554
100
AcDbEntity
  8
DRAFT
100
AcDbLine
 62
7
  6
CONTINUOUS
 10
16.4754627522
 20
27.3375
 11
16.4754627522
 21
-27.9572634805
  0
LINE
  5
555
100
AcDbEntity
  8
DRAFT
100
AcDbLine
 62
7
  6
CONTINUOUS
 10
16.6144965425
 20
-25.5515540834
 11
16.6144965425
 21
-24.7734459165
  0
LINE
  5
556
100
AcDbEntity
  8
DRAFT
100
AcDbLine
 62
7
  6
CONTINUOUS
 10
16.6144965425
 20
24.4484459166
 11
16.6144965425
 21
25.2265540835
  0
LINE
  5
557
100
AcDbEntity
  8
DRAFT
100
AcDbLine
 62
7
  6
CONTINUOUS
 10
17.1144965425
 20
-25.5515540834
 11
17.1144965425
 21
-27.9686092727
  0
LINE
  5
558
100
AcDbEntity
  8
DRAFT
100
AcDbLine
 62
7
  6
CONTINUOUS
 10
17.1144965425
 20
-24.7734459165
 11
17.1144965425
 21
24.4484459166
  0
LINE
  5
559
100
AcDbEntity
  8
DRAFT
100
AcDbLine
 62
7
  6
CONTINUOUS
 10
17.1144965425
 20
25.2265540835
 11
17.1144965425
 21
27.3375
  0
LINE
  5
55A
100
AcDbEntity
  8
DRAFT
100
AcDbLine
 62
7
  6
CONTINUOUS
 10
14.7366395813
 20
-8.8403569612
 11
14.7315217913
 21
-8.8578173459
  0
LINE
  5
55B
100
AcDbEntity
  8
0
100
AcDbLine
 62
7
  6
CONTINUOUS
 10
12.4394965425
 20
-9.2375
 11
12.382165548
 21
-9.2948309945
  0
LINE
  5
55C
100
AcDbEntity
  8
0
100
AcDbLine
 62
7
  6
CONTINUOUS
 10
15.5894965425
 20
-6.9875
 11
15.3644965425
 21
-7.2125
  0
LINE
  5
55D
100
AcDbEntity
  8
0
100
AcDbLine
 62
7
  6
CONTINUOUS
 10
14.4144965425
 20
-8.1625
 11
13.8394965425
 21
-8.7375
  0
LINE
  5
55E
100
AcDbEntity
  8
DRAFT
100
AcDbLine
 62
7
  6
CONTINUOUS
 10
15.6441133737
 20
-7.9328831688
 11
14.7366395813
 21
-8.8403569612
  0
LINE
  5
55F
100
AcDbEntity
  8
DRAFT
100
AcDbLine
 62
7
  6
CONTINUOUS
 10
15.6528409061
 20
-7.9364982311
 11
14.7315217913
 21
-8.8578173459
  0
LINE
  5
560
100
AcDbEntity
  8
DRAFT
100
AcDbLine
 62
7
  6
CONTINUOUS
 10
-13.4060131588
 20
14.95
 11
-11.1149937562
 21
14.95
  0
LINE
  5
561
100
AcDbEntity
  8
DRAFT
100
AcDbLine
 62
7
  6
CONTINUOUS
 10
11.8850062438
 20
14.95
 11
9.5939868412
 21
14.95
  0
LINE
  5
562
100
AcDbEntity
  8
DRAFT
100
AcDbLine
 62
7
  6
CONTINUOUS
 10
0.2394965425
 20
15.5986705576
 11
-1.7605034575
 21
15.5986705576
  0
LINE
  5
563
100
AcDbEntity
  8
DRAFT
100
AcDbLine
 62
7
  6
CONTINUOUS
 10
-13.3855034575
 20
16.175
 11
-11.1355034575
 21
16.175
  0
LINE
  5
564
100
AcDbEntity
  8
DRAFT
100
AcDbLine
 62
7
  6
CONTINUOUS
 10
11.8644965425
 20
16.175
 11
9.6144965425
 21
16.175
  0
LINE
  5
565
100
AcDbEntity
  8
RACCORDO
100
AcDbLine
 62
7
  6
CONTINUOUS
 10
0.1901830542
 20
16.3753059816
 11
-1.7111899692
 21
16.3753059816
  0
LINE
  5
566
100
AcDbEntity
  8
RACCORDO
100
AcDbLine
 62
7
  6
CONTINUOUS
 10
-1.8074274991
 20
16.4715435114
 11
0.2864205841
 21
16.4715435114
  0
LINE
  5
567
100
AcDbEntity
  8
DRAFT
100
AcDbLine
 62
7
  6
CONTINUOUS
 10
-13.3855034575
 20
16.525
 11
-11.1355034575
 21
16.525
  0
LINE
  5
568
100
AcDbEntity
  8
DRAFT
100
AcDbLine
 62
7
  6
CONTINUOUS
 10
11.8644965425
 20
16.525
 11
9.6144965425
 21
16.525
  0
LINE
  5
569
100
AcDbEntity
  8
DRAFT
100
AcDbLine
 62
7
  6
CONTINUOUS
 10
-13.4060131588
 20
16.5455097013
 11
-11.1149937562
 21
16.5455097013
  0
LINE
  5
56A
100
AcDbEntity
  8
DRAFT
100
AcDbLine
 62
7
  6
CONTINUOUS
 10
11.8850062438
 20
16.5455097013
 11
9.5939868412
 21
16.5455097013
  0
LINE
  5
56B
100
AcDbEntity
  8
0
100
AcDbLine
 62
7
  6
CONTINUOUS
 10
-21.9354793161
 20
16.9875
 11
-19.1291544792
 21
16.9875
  0
LINE
  5
56C
100
AcDbEntity
  8
DRAFT
100
AcDbLine
 62
7
  6
CONTINUOUS
 10
0.289802524
 20
18.51875
 11
0.2394965425
 21
18.5388294425
  0
LINE
  5
56D
100
AcDbEntity
  8
DRAFT
100
AcDbLine
 62
7
  6
CONTINUOUS
 10
14.5894965425
 20
7.9875
 11
14.5515427452
 21
8.0254537973
  0
LINE
  5
56E
100
AcDbEntity
  8
RACCORDO
100
AcDbLine
 62
7
  6
CONTINUOUS
 10
9.6336829701
 20
15.5777463922
 11
9.6174987747
 21
15.6101246479
  0
LINE
  5
56F
100
AcDbEntity
  8
DRAFT
100
AcDbLine
 62
7
  6
CONTINUOUS
 10
17.9894965425
 20
-25.5375
 11
17.9894965425
 21
-24.7875
  0
LINE
  5
570
100
AcDbEntity
  8
DRAFT
100
AcDbLine
 62
7
  6
CONTINUOUS
 10
17.9894965425
 20
24.4625
 11
17.9894965425
 21
25.2125
  0
LINE
  5
571
100
AcDbEntity
  8
DRAFT
100
AcDbLine
 62
7
  6
CONTINUOUS
 10
18.0949021685
 20
25.3179056261
 11
18.0949021685
 21
24.357094374
  0
LINE
  5
572
100
AcDbEntity
  8
DRAFT
100
AcDbLine
 62
7
  6
CONTINUOUS
 10
18.0949021685
 20
-24.6820943739
 11
18.0949021685
 21
-25.642905626
  0
LINE
  5
573
100
AcDbEntity
  8
DRAFT
100
AcDbLine
 62
7
  6
CONTINUOUS
 10
18.1894965425
 20
-28.7813907273
 11
18.1894965425
 21
-2.0375
  0
LINE
  5
574
100
AcDbEntity
  8
DRAFT
100
AcDbLine
 62
7
  6
CONTINUOUS
 10
18.1894965425
 20
1.7125
 11
18.1894965425
 21
28.4563907273
  0
LINE
  5
575
100
AcDbEntity
  8
RACCORDO
100
AcDbLine
 62
7
  6
CONTINUOUS
 10
18.7246597373
 20
-28.522701271
 11
18.7246597373
 21
-23.3476286389
  0
LINE
  5
576
100
AcDbEntity
  8
DRAFT
100
AcDbLine
 62
7
  6
CONTINUOUS
 10
18.7246597373
 20
-16.977371361
 11
18.7246597373
 21
-2.0375
  0
LINE
  5
577
100
AcDbEntity
  8
DRAFT
100
AcDbLine
 62
7
  6
CONTINUOUS
 10
18.7246597373
 20
1.7125
 11
18.7246597373
 21
16.6523713611
  0
LINE
  5
578
100
AcDbEntity
  8
RACCORDO
100
AcDbLine
 62
7
  6
CONTINUOUS
 10
18.7246597373
 20
23.022628639
 11
18.7246597373
 21
28.197701271
  0
LINE
  5
579
100
AcDbEntity
  8
DRAFT
100
AcDbLine
 62
7
  6
CONTINUOUS
 10
18.7333872698
 20
-2.0375
 11
18.7333872698
 21
1.7125
  0
LINE
  5
57A
100
AcDbEntity
  8
RACCORDO
100
AcDbLine
 62
7
  6
CONTINUOUS
 10
18.7394965425
 20
-28.5375380762
 11
18.7394965425
 21
-23.3625
  0
LINE
  5
57B
100
AcDbEntity
  8
DRAFT
100
AcDbLine
 62
7
  6
CONTINUOUS
 10
18.7394965425
 20
-16.9625
 11
18.7394965425
 21
16.6375
  0
LINE
  5
57C
100
AcDbEntity
  8
RACCORDO
100
AcDbLine
 62
7
  6
CONTINUOUS
 10
18.7394965425
 20
23.0375
 11
18.7394965425
 21
28.2125380762
  0
LINE
  5
57D
100
AcDbEntity
  8
RACCORDO
100
AcDbLine
 62
7
  6
CONTINUOUS
 10
18.9394965425
 20
21.7880707953
 11
18.9394965425
 21
20.4524186938
  0
LINE
  5
57E
100
AcDbEntity
  8
RACCORDO
100
AcDbLine
 62
7
  6
CONTINUOUS
 10
18.9394965425
 20
19.2225813062
 11
18.9394965425
 21
17.8869292047
  0
LINE
  5
57F
100
AcDbEntity
  8
RACCORDO
100
AcDbLine
 62
7
  6
CONTINUOUS
 10
18.9394965425
 20
-18.2119292047
 11
18.9394965425
 21
-19.5475813062
  0
LINE
  5
580
100
AcDbEntity
  8
RACCORDO
100
AcDbLine
 62
7
  6
CONTINUOUS
 10
18.9394965425
 20
-20.7774186938
 11
18.9394965425
 21
-22.1130707953
  0
LINE
  5
581
100
AcDbEntity
  8
DRAFT
100
AcDbLine
 62
7
  6
CONTINUOUS
 10
19.026985206
 20
20.5206604963
 11
19.026985206
 21
20.4273220828
  0
LINE
  5
582
100
AcDbEntity
  8
DRAFT
100
AcDbLine
 62
7
  6
CONTINUOUS
 10
19.026985206
 20
19.2476779173
 11
19.026985206
 21
19.1543395038
  0
LINE
  5
583
100
AcDbEntity
  8
DRAFT
100
AcDbLine
 62
7
  6
CONTINUOUS
 10
19.026985206
 20
-20.8456604962
 11
19.026985206
 21
-20.7522632189
  0
LINE
  5
584
100
AcDbEntity
  8
DRAFT
100
AcDbLine
 62
7
  6
CONTINUOUS
 10
19.026985206
 20
-19.5726183589
 11
19.026985206
 21
-19.4793395037
  0
LINE
  5
585
100
AcDbEntity
  8
RACCORDO
100
AcDbLine
 62
7
  6
CONTINUOUS
 10
19.0882272705
 20
21.6393400673
 11
19.0882272705
 21
20.9418586245
  0
LINE
  5
586
100
AcDbEntity
  8
RACCORDO
100
AcDbLine
 62
7
  6
CONTINUOUS
 10
19.0882272705
 20
18.7331413756
 11
19.0882272705
 21
18.0356599327
  0
LINE
  5
587
100
AcDbEntity
  8
RACCORDO
100
AcDbLine
 62
7
  6
CONTINUOUS
 10
19.0882272705
 20
-18.3606599327
 11
19.0882272705
 21
-19.0581413755
  0
LINE
  5
588
100
AcDbEntity
  8
RACCORDO
100
AcDbLine
 62
7
  6
CONTINUOUS
 10
19.0882272705
 20
-21.2668586244
 11
19.0882272705
 21
-21.9643400673
  0
LINE
  5
589
100
AcDbEntity
  8
DRAFT
100
AcDbLine
 62
7
  6
CONTINUOUS
 10
15.6720414776
 20
-9.2287698076
 11
15.6425124135
 21
-9.287845935
  0
LINE
  5
58A
100
AcDbEntity
  8
DRAFT
100
AcDbLine
 62
7
  6
CONTINUOUS
 10
7.8144965425
 20
-16.7375
 11
7.74989851
 21
-16.8020980325
  0
LINE
  5
58B
100
AcDbEntity
  8
DRAFT
100
AcDbLine
 62
7
  6
CONTINUOUS
 10
8.1644965425
 20
-16.3875
 11
8.184374612
 21
-16.3676219305
  0
LINE
  5
58C
100
AcDbEntity
  8
DRAFT
100
AcDbLine
 62
7
  6
CONTINUOUS
 10
7.8144965425
 20
-19.2375
 11
7.74989851
 21
-19.3020980325
  0
LINE
  5
58D
100
AcDbEntity
  8
DRAFT
100
AcDbLine
 62
7
  6
CONTINUOUS
 10
8.1644965425
 20
-18.8875
 11
8.228488036
 21
-18.8235085064
  0
LINE
  5
58E
100
AcDbEntity
  8
DRAFT
100
AcDbLine
 62
7
  6
CONTINUOUS
 10
-13.4060131588
 20
17.5919902987
 11
-11.1149937562
 21
17.5919902987
  0
LINE
  5
58F
100
AcDbEntity
  8
DRAFT
100
AcDbLine
 62
7
  6
CONTINUOUS
 10
11.8850062438
 20
17.5919902987
 11
9.5939868412
 21
17.5919902987
  0
LINE
  5
590
100
AcDbEntity
  8
DRAFT
100
AcDbLine
 62
7
  6
CONTINUOUS
 10
-13.3855034575
 20
17.6125
 11
-11.1355034575
 21
17.6125
  0
LINE
  5
591
100
AcDbEntity
  8
DRAFT
100
AcDbLine
 62
7
  6
CONTINUOUS
 10
11.8644965425
 20
17.6125
 11
9.6144965425
 21
17.6125
  0
LINE
  5
592
100
AcDbEntity
  8
RACCORDO
100
AcDbLine
 62
7
  6
CONTINUOUS
 10
0.2864205841
 20
17.6659564886
 11
-1.8074274991
 21
17.6659564886
  0
LINE
  5
593
100
AcDbEntity
  8
RACCORDO
100
AcDbLine
 62
7
  6
CONTINUOUS
 10
19.0889257472
 20
17.7375
 11
19.8900673378
 21
17.7375
  0
LINE
  5
594
100
AcDbEntity
  8
RACCORDO
100
AcDbLine
 62
7
  6
CONTINUOUS
 10
-1.7111899692
 20
17.7621940185
 11
0.1901830542
 21
17.7621940185
  0
LINE
  5
595
100
AcDbEntity
  8
RACCORDO
100
AcDbLine
 62
7
  6
CONTINUOUS
 10
19.2376564752
 20
17.886230728
 11
19.7413366098
 21
17.886230728
  0
LINE
  5
596
100
AcDbEntity
  8
DRAFT
100
AcDbLine
 62
7
  6
CONTINUOUS
 10
-13.3855034575
 20
17.9625
 11
-11.1355034575
 21
17.9625
  0
LINE
  5
597
100
AcDbEntity
  8
DRAFT
100
AcDbLine
 62
7
  6
CONTINUOUS
 10
11.8644965425
 20
17.9625
 11
9.6144965425
 21
17.9625
  0
LINE
  5
598
100
AcDbEntity
  8
DRAFT
100
AcDbLine
 62
7
  6
CONTINUOUS
 10
0.2394965425
 20
18.5388294425
 11
-1.7605034575
 21
18.5388294425
  0
LINE
  5
599
100
AcDbEntity
  8
DRAFT
100
AcDbLine
 62
7
  6
CONTINUOUS
 10
-19.1291544792
 20
18.9875
 11
-19.0043941848
 21
18.9875
  0
LINE
  5
59A
100
AcDbEntity
  8
0
100
AcDbLine
 62
7
  6
CONTINUOUS
 10
-19.1291544792
 20
18.9875
 11
-21.9354793389
 21
18.9875
  0
LINE
  5
59B
100
AcDbEntity
  8
DRAFT
100
AcDbLine
 62
7
  6
CONTINUOUS
 10
-13.4060131588
 20
19.1875
 11
-11.1149937562
 21
19.1875
  0
LINE
  5
59C
100
AcDbEntity
  8
DRAFT
100
AcDbLine
 62
7
  6
CONTINUOUS
 10
11.8850062438
 20
19.1875
 11
9.5939868412
 21
19.1875
  0
LINE
  5
59D
100
AcDbEntity
  8
DRAFT
100
AcDbLine
 62
7
  6
CONTINUOUS
 10
-16.1105034575
 20
19.475
 11
-14.0105034575
 21
19.475
  0
LINE
  5
59E
100
AcDbEntity
  8
DRAFT
100
AcDbLine
 62
7
  6
CONTINUOUS
 10
-10.5105034575
 20
19.475
 11
-1.9070469689
 21
19.475
  0
LINE
  5
59F
100
AcDbEntity
  8
DRAFT
100
AcDbLine
 62
7
  6
CONTINUOUS
 10
0.3860400539
 20
19.475
 11
8.9894965425
 21
19.475
  0
LINE
  5
5A0
100
AcDbEntity
  8
DRAFT
100
AcDbLine
 62
7
  6
CONTINUOUS
 10
12.4894965425
 20
19.475
 11
14.5894965425
 21
19.475
  0
LINE
  5
5A1
100
AcDbEntity
  8
DRAFT
100
AcDbLine
 62
7
  6
CONTINUOUS
 10
0.2394965425
 20
19.5334922889
 11
-1.7605034575
 21
19.5334922889
  0
LINE
  5
5A2
100
AcDbEntity
  8
DRAFT
100
AcDbLine
 62
7
  6
CONTINUOUS
 10
0.3860400539
 20
19.475
 11
0.2394965425
 21
19.5334922889
  0
LINE
  5
5A3
100
AcDbEntity
  8
RACCORDO
100
AcDbLine
 62
250
  6
CONTINUOUS
 10
-1.9070469689
 20
27.8594240416
 11
-1.810809439
 21
27.7631865117
  0
LINE
  5
5A4
100
AcDbEntity
  8
DRAFT
100
AcDbLine
 62
7
  6
CONTINUOUS
 10
9.6144965425
 20
16.525
 11
9.5939868412
 21
16.5455097013
  0
LINE
  5
5A5
100
AcDbEntity
  8
RACCORDO
100
AcDbLine
 62
250
  6
CONTINUOUS
 10
-1.8074274991
 20
27.9590435114
 11
-1.7111899692
 21
27.8628059816
  0
LINE
  5
5A6
100
AcDbEntity
  8
DRAFT
100
AcDbLine
 62
7
  6
CONTINUOUS
 10
12.4894965425
 20
14.0125
 11
12.5327305103
 21
13.9692660322
  0
LINE
  5
5A7
100
AcDbEntity
  8
DRAFT
100
AcDbLine
 62
7
  6
CONTINUOUS
 10
12.4894965425
 20
14.6625
 11
12.5327305103
 21
14.6192660322
  0
LINE
  5
5A8
100
AcDbEntity
  8
RACCORDO
100
AcDbLine
 62
7
  6
CONTINUOUS
 10
11.8479353839
 20
18.5545014697
 11
11.8614943103
 21
18.5273753521
  0
LINE
  5
5A9
100
AcDbEntity
  8
DRAFT
100
AcDbLine
 62
7
  6
CONTINUOUS
 10
14.6144965425
 20
27.3375
 11
14.4894965425
 21
28.4625
  0
LINE
  5
5AA
100
AcDbEntity
  8
RACCORDO
100
AcDbLine
 62
7
  6
CONTINUOUS
 10
19.8907658145
 20
-21.9643400673
 11
19.8907658145
 21
-21.2668586244
  0
LINE
  5
5AB
100
AcDbEntity
  8
RACCORDO
100
AcDbLine
 62
7
  6
CONTINUOUS
 10
19.8907658145
 20
-19.0581413755
 11
19.8907658145
 21
-18.3606599327
  0
LINE
  5
5AC
100
AcDbEntity
  8
RACCORDO
100
AcDbLine
 62
7
  6
CONTINUOUS
 10
19.8907658145
 20
18.0356599327
 11
19.8907658145
 21
18.7331413756
  0
LINE
  5
5AD
100
AcDbEntity
  8
RACCORDO
100
AcDbLine
 62
7
  6
CONTINUOUS
 10
19.8907658145
 20
20.9418586245
 11
19.8907658145
 21
21.6393400673
  0
LINE
  5
5AE
100
AcDbEntity
  8
DRAFT
100
AcDbLine
 62
7
  6
CONTINUOUS
 10
19.952007879
 20
20.5206604963
 11
19.952007879
 21
20.4273220828
  0
LINE
  5
5AF
100
AcDbEntity
  8
DRAFT
100
AcDbLine
 62
7
  6
CONTINUOUS
 10
19.952007879
 20
19.2476779173
 11
19.952007879
 21
19.1543395038
  0
LINE
  5
5B0
100
AcDbEntity
  8
DRAFT
100
AcDbLine
 62
7
  6
CONTINUOUS
 10
19.952007879
 20
-20.8456604962
 11
19.952007879
 21
-20.7523816411
  0
LINE
  5
5B1
100
AcDbEntity
  8
DRAFT
100
AcDbLine
 62
7
  6
CONTINUOUS
 10
19.952007879
 20
-19.5727367811
 11
19.952007879
 21
-19.4793395037
  0
LINE
  5
5B2
100
AcDbEntity
  8
RACCORDO
100
AcDbLine
 62
7
  6
CONTINUOUS
 10
20.0394965425
 20
-22.1130707953
 11
20.0394965425
 21
-20.7774186938
  0
LINE
  5
5B3
100
AcDbEntity
  8
RACCORDO
100
AcDbLine
 62
7
  6
CONTINUOUS
 10
20.0394965425
 20
-19.5475813062
 11
20.0394965425
 21
-18.2119292047
  0
LINE
  5
5B4
100
AcDbEntity
  8
RACCORDO
100
AcDbLine
 62
7
  6
CONTINUOUS
 10
20.0394965425
 20
17.8869292047
 11
20.0394965425
 21
19.2225813062
  0
LINE
  5
5B5
100
AcDbEntity
  8
RACCORDO
100
AcDbLine
 62
7
  6
CONTINUOUS
 10
20.0394965425
 20
20.4524186938
 11
20.0394965425
 21
21.7880707953
  0
LINE
  5
5B6
100
AcDbEntity
  8
DRAFT
100
AcDbLine
 62
7
  6
CONTINUOUS
 10
8.9894965425
 20
20.125
 11
12.4894965425
 21
20.125
  0
LINE
  5
5B7
100
AcDbEntity
  8
DRAFT
100
AcDbLine
 62
7
  6
CONTINUOUS
 10
-10.5105034575
 20
20.125
 11
-14.0105034575
 21
20.125
  0
LINE
  5
5B8
100
AcDbEntity
  8
0
100
AcDbLine
 62
7
  6
CONTINUOUS
 10
12.6144965425
 20
21.3125
 11
11.3644965425
 21
21.3125
  0
LINE
  5
5B9
100
AcDbEntity
  8
0
100
AcDbLine
 62
7
  6
CONTINUOUS
 10
-12.8855034575
 20
21.3125
 11
-14.1355034575
 21
21.3125
  0
LINE
  5
5BA
100
AcDbEntity
  8
RACCORDO
100
AcDbLine
 62
7
  6
CONTINUOUS
 10
19.7413366098
 20
21.788769272
 11
19.2376564752
 21
21.788769272
  0
LINE
  5
5BB
100
AcDbEntity
  8
DRAFT
100
AcDbLine
 62
7
  6
CONTINUOUS
 10
-16.8855034575
 20
21.8125
 11
-16.0878049573
 21
21.8125
  0
LINE
  5
5BC
100
AcDbEntity
  8
DRAFT
100
AcDbLine
 62
7
  6
CONTINUOUS
 10
14.5667980423
 20
21.8125
 11
15.3644965425
 21
21.8125
  0
LINE
  5
5BD
100
AcDbEntity
  8
RACCORDO
100
AcDbLine
 62
7
  6
CONTINUOUS
 10
19.8900673378
 20
21.9375
 11
19.0889257472
 21
21.9375
  0
LINE
  5
5BE
100
AcDbEntity
  8
DRAFT
100
AcDbLine
 62
7
  6
CONTINUOUS
 10
8.9894965425
 20
19.475
 11
8.9387141972
 21
19.5257823453
  0
LINE
  5
5BF
100
AcDbEntity
  8
DRAFT
100
AcDbLine
 62
7
  6
CONTINUOUS
 10
8.9894965425
 20
20.125
 11
8.9387141972
 21
20.1757823453
  0
LINE
  5
5C0
100
AcDbEntity
  8
DRAFT
100
AcDbLine
 62
7
  6
CONTINUOUS
 10
11.8850062438
 20
17.5919902987
 11
11.8644965425
 21
17.6125
  0
LINE
  5
5C1
100
AcDbEntity
  8
RACCORDO
100
AcDbLine
 62
7
  6
CONTINUOUS
 10
9.6336829701
 20
27.0652463922
 11
9.6174987747
 21
27.0976246479
  0
LINE
  5
5C2
100
AcDbEntity
  8
DRAFT
100
AcDbLine
 62
7
  6
CONTINUOUS
 10
15.3644965425
 20
23.8125
 11
14.5667980423
 21
23.8125
  0
LINE
  5
5C3
100
AcDbEntity
  8
DRAFT
100
AcDbLine
 62
7
  6
CONTINUOUS
 10
-16.0878049573
 20
23.8125
 11
-16.8855034575
 21
23.8125
  0
LINE
  5
5C4
100
AcDbEntity
  8
0
100
AcDbLine
 62
7
  6
CONTINUOUS
 10
12.6144965425
 20
24.3125
 11
11.3644965425
 21
24.3125
  0
LINE
  5
5C5
100
AcDbEntity
  8
0
100
AcDbLine
 62
7
  6
CONTINUOUS
 10
-12.8855034575
 20
24.3125
 11
-14.1355034575
 21
24.3125
  0
LINE
  5
5C6
100
AcDbEntity
  8
DRAFT
100
AcDbLine
 62
7
  6
CONTINUOUS
 10
18.0949021685
 20
24.357094374
 11
17.1144965425
 21
24.357094374
  0
LINE
  5
5C7
100
AcDbEntity
  8
DRAFT
100
AcDbLine
 62
7
  6
CONTINUOUS
 10
17.1144965425
 20
24.4484459166
 11
16.6144965425
 21
24.4484459166
  0
LINE
  5
5C8
100
AcDbEntity
  8
DRAFT
100
AcDbLine
 62
7
  6
CONTINUOUS
 10
16.6144965425
 20
24.4625
 11
17.9894965425
 21
24.4625
  0
LINE
  5
5C9
100
AcDbEntity
  8
DRAFT
100
AcDbLine
 62
7
  6
CONTINUOUS
 10
-1.8501793376
 20
26.1273014999
 11
-1.7605034575
 21
26.0915077111
  0
LINE
  5
5CA
100
AcDbEntity
  8
DRAFT
100
AcDbLine
 62
7
  6
CONTINUOUS
 10
-1.810809439
 20
27.10625
 11
-1.7605034575
 21
27.0861705576
  0
LINE
  5
5CB
100
AcDbEntity
  8
DRAFT
100
AcDbLine
 62
7
  6
CONTINUOUS
 10
3.7394965425
 20
28.4625
 11
3.7456058152
 21
28.4563907273
  0
LINE
  5
5CC
100
AcDbEntity
  8
DRAFT
100
AcDbLine
 62
7
  6
CONTINUOUS
 10
6.9121950427
 20
25.9773014999
 11
6.9434482283
 21
25.9460483142
  0
LINE
  5
5CD
100
AcDbEntity
  8
DRAFT
100
AcDbLine
 62
7
  6
CONTINUOUS
 10
6.9121950427
 20
26.1273014999
 11
6.9434482283
 21
26.0960483142
  0
LINE
  5
5CE
100
AcDbEntity
  8
DRAFT
100
AcDbLine
 62
7
  6
CONTINUOUS
 10
14.5894965425
 20
19.475
 11
14.5515427452
 21
19.5129537973
  0
LINE
  5
5CF
100
AcDbEntity
  8
DRAFT
100
AcDbLine
 62
7
  6
CONTINUOUS
 10
15.6425124135
 20
-24.287845935
 11
15.6676777113
 21
-24.2375
  0
LINE
  5
5D0
100
AcDbEntity
  8
DRAFT
100
AcDbLine
 62
7
  6
CONTINUOUS
 10
15.6425124135
 20
-26.787845935
 11
15.6676777113
 21
-26.7375
  0
LINE
  5
5D1
100
AcDbEntity
  8
RACCORDO
100
AcDbLine
 62
250
  6
CONTINUOUS
 10
19.8900673378
 20
-18.0625
 11
19.7413366098
 21
-18.211230728
  0
LINE
  5
5D2
100
AcDbEntity
  8
RACCORDO
100
AcDbLine
 62
250
  6
CONTINUOUS
 10
20.0394965425
 20
-18.2119292047
 11
19.8907658145
 21
-18.3606599327
  0
LINE
  5
5D3
100
AcDbEntity
  8
DRAFT
100
AcDbLine
 62
7
  6
CONTINUOUS
 10
17.9894965425
 20
25.2125
 11
16.6144965425
 21
25.2125
  0
LINE
  5
5D4
100
AcDbEntity
  8
DRAFT
100
AcDbLine
 62
7
  6
CONTINUOUS
 10
17.1144965425
 20
25.2265540835
 11
16.6144965425
 21
25.2265540835
  0
LINE
  5
5D5
100
AcDbEntity
  8
DRAFT
100
AcDbLine
 62
7
  6
CONTINUOUS
 10
18.0949021685
 20
25.3179056261
 11
17.1144965425
 21
25.3179056261
  0
LINE
  5
5D6
100
AcDbEntity
  8
DRAFT
100
AcDbLine
 62
7
  6
CONTINUOUS
 10
14.5667980423
 20
25.3375
 11
15.3644965425
 21
25.3375
  0
LINE
  5
5D7
100
AcDbEntity
  8
DRAFT
100
AcDbLine
 62
7
  6
CONTINUOUS
 10
-16.0878049573
 20
25.3375
 11
-16.8855034575
 21
25.3375
  0
LINE
  5
5D8
100
AcDbEntity
  8
DRAFT
100
AcDbLine
 62
7
  6
CONTINUOUS
 10
-19.0043941848
 20
25.357094374
 11
-18.6355034575
 21
25.357094374
  0
LINE
  5
5D9
100
AcDbEntity
  8
DRAFT
100
AcDbLine
 62
7
  6
CONTINUOUS
 10
-18.6355034575
 20
25.4484459166
 11
-18.121449374
 21
25.4484459166
  0
LINE
  5
5DA
100
AcDbEntity
  8
DRAFT
100
AcDbLine
 62
7
  6
CONTINUOUS
 10
-18.1355034575
 20
25.4625
 11
-19.0035214315
 21
25.4625
  0
LINE
  5
5DB
100
AcDbEntity
  8
DRAFT
100
AcDbLine
 62
7
  6
CONTINUOUS
 10
8.9667980423
 20
25.4773014999
 11
12.5121950427
 21
25.4773014999
  0
LINE
  5
5DC
100
AcDbEntity
  8
DRAFT
100
AcDbLine
 62
7
  6
CONTINUOUS
 10
-10.4878049573
 20
25.4773014999
 11
-14.0332019577
 21
25.4773014999
  0
LINE
  5
5DD
100
AcDbEntity
  8
DRAFT
100
AcDbLine
 62
7
  6
CONTINUOUS
 10
-8.4332019577
 20
25.9773014999
 11
-5.0878049573
 21
25.9773014999
  0
LINE
  5
5DE
100
AcDbEntity
  8
DRAFT
100
AcDbLine
 62
7
  6
CONTINUOUS
 10
3.5667980423
 20
25.9773014999
 11
6.9121950427
 21
25.9773014999
  0
LINE
  5
5DF
100
AcDbEntity
  8
DRAFT
100
AcDbLine
 62
7
  6
CONTINUOUS
 10
0.2394965425
 20
26.0915077111
 11
-1.7605034575
 21
26.0915077111
  0
LINE
  5
5E0
100
AcDbEntity
  8
DRAFT
100
AcDbLine
 62
7
  6
CONTINUOUS
 10
-16.0878049573
 20
26.1273014999
 11
-14.0332019577
 21
26.1273014999
  0
LINE
  5
5E1
100
AcDbEntity
  8
DRAFT
100
AcDbLine
 62
7
  6
CONTINUOUS
 10
-10.4878049573
 20
26.1273014999
 11
-8.4332019577
 21
26.1273014999
  0
LINE
  5
5E2
100
AcDbEntity
  8
DRAFT
100
AcDbLine
 62
7
  6
CONTINUOUS
 10
-5.0878049573
 20
26.1273014999
 11
-1.8501793376
 21
26.1273014999
  0
LINE
  5
5E3
100
AcDbEntity
  8
DRAFT
100
AcDbLine
 62
7
  6
CONTINUOUS
 10
0.3291724226
 20
26.1273014999
 11
3.5667980423
 21
26.1273014999
  0
LINE
  5
5E4
100
AcDbEntity
  8
DRAFT
100
AcDbLine
 62
7
  6
CONTINUOUS
 10
6.9121950427
 20
26.1273014999
 11
8.9667980423
 21
26.1273014999
  0
LINE
  5
5E5
100
AcDbEntity
  8
DRAFT
100
AcDbLine
 62
7
  6
CONTINUOUS
 10
12.5121950427
 20
26.1273014999
 11
14.5667980423
 21
26.1273014999
  0
LINE
  5
5E6
100
AcDbEntity
  8
DRAFT
100
AcDbLine
 62
7
  6
CONTINUOUS
 10
-19.0035214315
 20
26.2125
 11
-18.1355034575
 21
26.2125
  0
LINE
  5
5E7
100
AcDbEntity
  8
DRAFT
100
AcDbLine
 62
7
  6
CONTINUOUS
 10
-18.6355034575
 20
26.2265540835
 11
-18.121449374
 21
26.2265540835
  0
LINE
  5
5E8
100
AcDbEntity
  8
DRAFT
100
AcDbLine
 62
7
  6
CONTINUOUS
 10
-19.0043941848
 20
26.3179056261
 11
-18.6355034575
 21
26.3179056261
  0
LINE
  5
5E9
100
AcDbEntity
  8
DRAFT
100
AcDbLine
 62
7
  6
CONTINUOUS
 10
-13.3946673666
 20
26.4375
 11
-11.1263395484
 21
26.4375
  0
LINE
  5
5EA
100
AcDbEntity
  8
DRAFT
100
AcDbLine
 62
7
  6
CONTINUOUS
 10
11.8736604516
 20
26.4375
 11
9.6053326334
 21
26.4375
  0
LINE
  5
5EB
100
AcDbEntity
  8
DRAFT
100
AcDbLine
 62
7
  6
CONTINUOUS
 10
6.744733062
 20
27.0010134805
 11
3.734260023
 21
27.0010134805
  0
LINE
  5
5EC
100
AcDbEntity
  8
DRAFT
100
AcDbLine
 62
7
  6
CONTINUOUS
 10
-5.255266938
 20
27.0010134805
 11
-8.265739977
 21
27.0010134805
  0
LINE
  5
5ED
100
AcDbEntity
  8
DRAFT
100
AcDbLine
 62
7
  6
CONTINUOUS
 10
9.6144965425
 20
28.0125
 11
9.5939868412
 21
28.0330097013
  0
LINE
  5
5EE
100
AcDbEntity
  8
RACCORDO
100
AcDbLine
 62
250
  6
CONTINUOUS
 10
19.8900673378
 20
17.7375
 11
19.7413366098
 21
17.886230728
  0
LINE
  5
5EF
100
AcDbEntity
  8
RACCORDO
100
AcDbLine
 62
250
  6
CONTINUOUS
 10
20.0394965425
 20
17.8869292047
 11
19.8907658145
 21
18.0356599327
  0
LINE
  5
5F0
100
AcDbEntity
  8
DRAFT
100
AcDbLine
 62
7
  6
CONTINUOUS
 10
12.5121950427
 20
25.4773014999
 11
12.5327305103
 21
25.4567660322
  0
LINE
  5
5F1
100
AcDbEntity
  8
RACCORDO
100
AcDbLine
 62
250
  6
CONTINUOUS
 10
18.9394965425
 20
-22.1130707953
 11
19.0882272705
 21
-21.9643400673
  0
LINE
  5
5F2
100
AcDbEntity
  8
RACCORDO
100
AcDbLine
 62
250
  6
CONTINUOUS
 10
19.0889257472
 20
-22.2625
 11
19.2376564752
 21
-22.113769272
  0
LINE
  5
5F3
100
AcDbEntity
  8
DRAFT
100
AcDbLine
 62
7
  6
CONTINUOUS
 10
0.2394965425
 20
27.0861705576
 11
-1.7605034575
 21
27.0861705576
  0
LINE
  5
5F4
100
AcDbEntity
  8
0
100
AcDbLine
 62
7
  6
CONTINUOUS
 10
17.1144965425
 20
27.3375
 11
13.8644965425
 21
27.3375
  0
LINE
  5
5F5
100
AcDbEntity
  8
DRAFT
100
AcDbLine
 62
7
  6
CONTINUOUS
 10
9.6053326334
 20
27.3375
 11
6.7333872698
 21
27.3375
  0
LINE
  5
5F6
100
AcDbEntity
  8
DRAFT
100
AcDbLine
 62
7
  6
CONTINUOUS
 10
0.3291724226
 20
27.3375
 11
3.7456058152
 21
27.3375
  0
LINE
  5
5F7
100
AcDbEntity
  8
DRAFT
100
AcDbLine
 62
7
  6
CONTINUOUS
 10
-1.8501793376
 20
27.3375
 11
-5.2666127302
 21
27.3375
  0
LINE
  5
5F8
100
AcDbEntity
  8
DRAFT
100
AcDbLine
 62
7
  6
CONTINUOUS
 10
-8.2543941848
 20
27.3375
 11
-11.1263395484
 21
27.3375
  0
LINE
  5
5F9
100
AcDbEntity
  8
DRAFT
100
AcDbLine
 62
7
  6
CONTINUOUS
 10
11.8736604516
 20
27.3375
 11
13.8644965425
 21
27.3375
  0
LINE
  5
5FA
100
AcDbEntity
  8
DRAFT
100
AcDbLine
 62
7
  6
CONTINUOUS
 10
-13.3946673666
 20
27.3375
 11
-15.3855034575
 21
27.3375
  0
LINE
  5
5FB
100
AcDbEntity
  8
0
100
AcDbLine
 62
7
  6
CONTINUOUS
 10
-15.3855034575
 20
27.3375
 11
-18.6355034575
 21
27.3375
  0
LINE
  5
5FC
100
AcDbEntity
  8
DRAFT
100
AcDbLine
 62
7
  6
CONTINUOUS
 10
-13.3855034575
 20
27.6625
 11
-11.1355034575
 21
27.6625
  0
LINE
  5
5FD
100
AcDbEntity
  8
DRAFT
100
AcDbLine
 62
7
  6
CONTINUOUS
 10
11.8644965425
 20
27.6625
 11
9.6144965425
 21
27.6625
  0
LINE
  5
5FE
100
AcDbEntity
  8
RACCORDO
100
AcDbLine
 62
7
  6
CONTINUOUS
 10
0.1901830542
 20
27.8628059816
 11
-1.7111899692
 21
27.8628059816
  0
LINE
  5
5FF
100
AcDbEntity
  8
DRAFT
100
AcDbLine
 62
7
  6
CONTINUOUS
 10
-1.0698454043
 20
27.9284224792
 11
-0.4511615108
 21
27.9284224792
  0
LINE
  5
600
100
AcDbEntity
  8
RACCORDO
100
AcDbLine
 62
7
  6
CONTINUOUS
 10
0.2864205841
 20
27.9590435114
 11
-0.4545638477
 21
27.9590435114
  0
LINE
  5
601
100
AcDbEntity
  8
RACCORDO
100
AcDbLine
 62
7
  6
CONTINUOUS
 10
-1.0664430674
 20
27.9590435114
 11
-1.8074274991
 21
27.9590435114
  0
LINE
  5
602
100
AcDbEntity
  8
DRAFT
100
AcDbLine
 62
7
  6
CONTINUOUS
 10
-13.3855034575
 20
28.0125
 11
-11.1355034575
 21
28.0125
  0
LINE
  5
603
100
AcDbEntity
  8
DRAFT
100
AcDbLine
 62
7
  6
CONTINUOUS
 10
11.8644965425
 20
28.0125
 11
9.6144965425
 21
28.0125
  0
LINE
  5
604
100
AcDbEntity
  8
DRAFT
100
AcDbLine
 62
7
  6
CONTINUOUS
 10
-13.4060131588
 20
28.0330097013
 11
-11.1149937562
 21
28.0330097013
  0
LINE
  5
605
100
AcDbEntity
  8
DRAFT
100
AcDbLine
 62
7
  6
CONTINUOUS
 10
11.8850062438
 20
28.0330097013
 11
9.5939868412
 21
28.0330097013
  0
LINE
  5
606
100
AcDbEntity
  8
RACCORDO
100
AcDbLine
 62
7
  6
CONTINUOUS
 10
18.1894965425
 20
28.4476631948
 11
18.4746978135
 21
28.4476631948
  0
LINE
  5
607
100
AcDbEntity
  8
RACCORDO
100
AcDbLine
 62
7
  6
CONTINUOUS
 10
-18.754432261
 20
28.4563907273
 11
-16.0111822656
 21
28.4563907273
  0
LINE
  5
608
100
AcDbEntity
  8
DRAFT
100
AcDbLine
 62
7
  6
CONTINUOUS
 10
-15.5098246494
 20
28.4563907273
 11
-8.2543941848
 21
28.4563907273
  0
LINE
  5
609
100
AcDbEntity
  8
DRAFT
100
AcDbLine
 62
7
  6
CONTINUOUS
 10
-5.2666127302
 20
28.4563907273
 11
-1.0111822656
 21
28.4563907273
  0
LINE
  5
60A
100
AcDbEntity
  8
DRAFT
100
AcDbLine
 62
7
  6
CONTINUOUS
 10
-0.5098246494
 20
28.4563907273
 11
3.7456058152
 21
28.4563907273
  0
LINE
  5
60B
100
AcDbEntity
  8
DRAFT
100
AcDbLine
 62
7
  6
CONTINUOUS
 10
6.7333872698
 20
28.4563907273
 11
13.9888177344
 21
28.4563907273
  0
LINE
  5
60C
100
AcDbEntity
  8
DRAFT
100
AcDbLine
 62
7
  6
CONTINUOUS
 10
14.4901753506
 20
28.4563907273
 11
18.1894965425
 21
28.4563907273
  0
LINE
  5
60D
100
AcDbEntity
  8
RACCORDO
100
AcDbLine
 62
7
  6
CONTINUOUS
 10
-18.7605415337
 20
28.4625
 11
-16.0105034575
 21
28.4625
  0
LINE
  5
60E
100
AcDbEntity
  8
DRAFT
100
AcDbLine
 62
7
  6
CONTINUOUS
 10
3.7394965425
 20
28.4625
 11
-5.2605034575
 21
28.4625
  0
LINE
  5
60F
100
AcDbEntity
  8
DRAFT
100
AcDbLine
 62
7
  6
CONTINUOUS
 10
6.7394965425
 20
28.4625
 11
14.4894965425
 21
28.4625
  0
LINE
  5
610
100
AcDbEntity
  8
DRAFT
100
AcDbLine
 62
7
  6
CONTINUOUS
 10
-8.2605034575
 20
28.4625
 11
-16.0105034575
 21
28.4625
  0
LINE
  5
611
100
AcDbEntity
  8
RACCORDO
100
AcDbLine
 62
7
  6
CONTINUOUS
 10
14.4894965425
 20
28.4625
 11
18.4895346187
 21
28.4625
  0
LINE
  5
612
100
AcDbEntity
  8
DRAFT
100
AcDbLine
 62
7
  6
CONTINUOUS
 10
12.5121950427
 20
26.1273014999
 11
12.5327305103
 21
26.1067660322
  0
LINE
  5
613
100
AcDbEntity
  8
RACCORDO
100
AcDbLine
 62
250
  6
CONTINUOUS
 10
18.9394965425
 20
21.7880707953
 11
19.0882272705
 21
21.6393400673
  0
LINE
  5
614
100
AcDbEntity
  8
RACCORDO
100
AcDbLine
 62
250
  6
CONTINUOUS
 10
19.0889257472
 20
21.9375
 11
19.2376564752
 21
21.788769272
  0
LINE
  5
615
100
AcDbEntity
  8
DRAFT
100
AcDbLine
 62
7
  6
CONTINUOUS
 10
17.9894965425
 20
-24.7875
 11
18.0949021685
 21
-24.6820943739
  0
LINE
  5
616
100
AcDbEntity
  8
DRAFT
100
AcDbLine
 62
7
  6
CONTINUOUS
 10
17.9894965425
 20
24.4625
 11
18.0949021685
 21
24.357094374
  0
ARC
  5
617
100
AcDbEntity
  8
ASSI
100
AcDbCircle
 62
7
  6
CONTINUOUS
 10
-11.0105034575
 20
-25.6625
 40
2.425
100
AcDbArc
 50
27.7484116854
 51
32.7183549537
  0
ARC
  5
618
100
AcDbEntity
  8
ASSI
100
AcDbCircle
 62
7
  6
CONTINUOUS
 10
-11.0105034575
 20
-25.6625
 40
2.425
100
AcDbArc
 50
61.8628651315
 51
65.9539814441
  0
CIRCLE
  5
619
100
AcDbEntity
  8
ASSI
100
AcDbCircle
 62
7
  6
CONTINUOUS
 10
-14.1355034575
 20
-22.1625
 40
2.0
  0
ARC
  5
61A
100
AcDbEntity
  8
DRAFT
100
AcDbCircle
 62
7
  6
CONTINUOUS
 10
-14.1338212873
 20
-22.1625362234
 40
1.6534121925
100
AcDbArc
 50
179.998744752
 51
261.8948628011
  0
ARC
  5
61B
100
AcDbEntity
  8
DRAFT
100
AcDbCircle
 62
7
  6
CONTINUOUS
 10
-14.1339800502
 20
-22.1625370665
 40
1.6534111544
100
AcDbArc
 50
278.0244210087
 51
0.001284466
  0
ARC
  5
61C
100
AcDbEntity
  8
DRAFT
100
AcDbCircle
 62
7
  6
CONTINUOUS
 10
-14.1278871999
 20
-22.1631987153
 40
1.6506148752
100
AcDbArc
 50
166.347849239
 51
179.9757463461
  0
ARC
  5
61D
100
AcDbEntity
  8
DRAFT
100
AcDbCircle
 62
7
  6
CONTINUOUS
 10
-14.1397385292
 20
-22.16316515
 40
1.6504279151
100
AcDbArc
 50
0.0230911573
 51
13.4307156006
  0
ARC
  5
61E
100
AcDbEntity
  8
DRAFT
100
AcDbCircle
 62
7
  6
CONTINUOUS
 10
-14.1338778538
 20
-22.1623971395
 40
1.6445933942
100
AcDbArc
 50
97.5330702453
 51
150.438638306
  0
ARC
  5
61F
100
AcDbEntity
  8
DRAFT
100
AcDbCircle
 62
7
  6
CONTINUOUS
 10
-14.1339343275
 20
-22.1623963179
 40
1.6445925066
100
AcDbArc
 50
29.7840017752
 51
82.5499096703
  0
ARC
  5
620
100
AcDbEntity
  8
DRAFT
100
AcDbCircle
 62
7
  6
CONTINUOUS
 10
-14.1355034575
 20
-22.1625
 40
1.625
100
AcDbArc
 50
83.8176957636
 51
96.1823042364
  0
ARC
  5
621
100
AcDbEntity
  8
DRAFT
100
AcDbCircle
 62
7
  6
CONTINUOUS
 10
-14.1355034575
 20
-22.1625
 40
1.625
100
AcDbArc
 50
15.1613686066
 51
28.4846353952
  0
ARC
  5
622
100
AcDbEntity
  8
DRAFT
100
AcDbCircle
 62
7
  6
CONTINUOUS
 10
-14.1355034575
 20
-22.1625
 40
1.625
100
AcDbArc
 50
263.8176957636
 51
276.1823042364
  0
ARC
  5
623
100
AcDbEntity
  8
DRAFT
100
AcDbCircle
 62
7
  6
CONTINUOUS
 10
-14.1355034575
 20
-22.1625
 40
1.625
100
AcDbArc
 50
151.5153646048
 51
164.8386313934
  0
CIRCLE
  5
624
100
AcDbEntity
  8
DRAFT
100
AcDbCircle
 62
7
  6
CONTINUOUS
 10
-14.1355034575
 20
-22.1625
 40
1.5970718961
  0
CIRCLE
  5
625
100
AcDbEntity
  8
0
100
AcDbCircle
 62
7
  6
CONTINUOUS
 10
-14.1355034575
 20
-22.1625
 40
1.375
  0
CIRCLE
  5
626
100
AcDbEntity
  8
RACCORDO
100
AcDbCircle
 62
250
  6
CONTINUOUS
 10
-14.1355034575
 20
-22.1625
 40
1.2603553391
  0
CIRCLE
  5
627
100
AcDbEntity
  8
RACCORDO
100
AcDbCircle
 62
250
  6
CONTINUOUS
 10
-14.1355034575
 20
-22.1625
 40
1.1896446609
  0
CIRCLE
  5
628
100
AcDbEntity
  8
0
100
AcDbCircle
 62
7
  6
CONTINUOUS
 10
-14.1355034575
 20
-22.1625
 40
1.075
  0
CIRCLE
  5
629
100
AcDbEntity
  8
DRAFT
100
AcDbCircle
 62
7
  6
CONTINUOUS
 10
-14.1347055162
 20
-22.1625233534
 40
0.8900753782
  0
CIRCLE
  5
62A
100
AcDbEntity
  8
DRAFT
100
AcDbCircle
 62
7
  6
CONTINUOUS
 10
-14.1355034575
 20
-22.1625424836
 40
0.8249953061
  0
ARC
  5
62B
100
AcDbEntity
  8
RACCORDO
100
AcDbCircle
 62
7
  6
CONTINUOUS
 10
-19.2605539578
 20
-28.5375505003
 40
0.2499495
100
AcDbArc
 50
179.9971520285
 51
270.0028479715
  0
ARC
  5
62C
100
AcDbEntity
  8
0
100
AcDbCircle
 62
7
  6
CONTINUOUS
 10
-14.0141724802
 20
-21.3223166437
 40
0.1001901456
100
AcDbArc
 50
275.0155703891
 51
334.4859286007
  0
ARC
  5
62D
100
AcDbEntity
  8
0
100
AcDbCircle
 62
7
  6
CONTINUOUS
 10
-14.2704828096
 20
-21.322470513
 40
0.1000294891
100
AcDbArc
 50
207.3964242686
 51
269.9881731297
  0
ARC
  5
62E
100
AcDbEntity
  8
ASSI
100
AcDbCircle
 62
7
  6
CONTINUOUS
 10
-11.0105034575
 20
-10.6625
 40
2.425
100
AcDbArc
 50
31.7245547877
 51
34.5738791013
  0
ARC
  5
62F
100
AcDbEntity
  8
ASSI
100
AcDbCircle
 62
7
  6
CONTINUOUS
 10
-11.0105034575
 20
-10.6625
 40
2.425
100
AcDbArc
 50
145.4261208987
 51
148.2754452123
  0
ARC
  5
630
100
AcDbEntity
  8
ASSI
100
AcDbCircle
 62
7
  6
CONTINUOUS
 10
-11.0105034575
 20
-10.6625
 40
2.425
100
AcDbArc
 50
317.0952656579
 51
332.3894365895
  0
CIRCLE
  5
631
100
AcDbEntity
  8
ASSI
100
AcDbCircle
 62
7
  6
CONTINUOUS
 10
-14.1355034575
 20
-14.1625
 40
1.25
  0
CIRCLE
  5
632
100
AcDbEntity
  8
DRAFT
100
AcDbCircle
 62
7
  6
CONTINUOUS
 10
-14.1347490539
 20
-14.1625186178
 40
0.7784103842
  0
CIRCLE
  5
633
100
AcDbEntity
  8
DRAFT
100
AcDbCircle
 62
7
  6
CONTINUOUS
 10
-14.1355034575
 20
-14.1625
 40
0.75
  0
ARC
  5
634
100
AcDbEntity
  8
RACCORDO
100
AcDbCircle
 62
7
  6
CONTINUOUS
 10
-16.9355034575
 20
-15.5625
 40
0.4
100
AcDbArc
 50
0.0
 51
90.0
  0
ARC
  5
635
100
AcDbEntity
  8
RACCORDO
100
AcDbCircle
 62
7
  6
CONTINUOUS
 10
-16.9355034575
 20
-18.8625
 40
0.4
100
AcDbArc
 50
270.0
 51
360.0
  0
ARC
  5
636
100
AcDbEntity
  8
RACCORDO
100
AcDbCircle
 62
7
  6
CONTINUOUS
 10
-7.6150183929
 20
-22.2875
 40
1.125
100
AcDbArc
 50
211.0392400104
 51
31.0392400104
  0
CIRCLE
  5
637
100
AcDbEntity
  8
ASSI
100
AcDbCircle
 62
7
  6
CONTINUOUS
 10
-9.5105034575
 20
-24.0625
 40
0.8
  0
CIRCLE
  5
638
100
AcDbEntity
  8
ASSI
100
AcDbCircle
 62
7
  6
CONTINUOUS
 10
-9.5105034575
 20
-24.0375
 40
0.625
  0
ARC
  5
639
100
AcDbEntity
  8
RACCORDO
100
AcDbCircle
 62
7
  6
CONTINUOUS
 10
-0.7605034575
 20
-18.1625
 40
9.125
100
AcDbArc
 50
148.9607599896
 51
211.0392400104
  0
ARC
  5
63A
100
AcDbEntity
  8
RACCORDO
100
AcDbCircle
 62
7
  6
CONTINUOUS
 10
-0.7605034575
 20
-18.1625
 40
9.125
100
AcDbArc
 50
328.9607599896
 51
31.0392400104
  0
ARC
  5
63B
100
AcDbEntity
  8
RACCORDO
100
AcDbCircle
 62
7
  6
CONTINUOUS
 10
-0.7605034575
 20
-18.1625
 40
6.875
100
AcDbArc
 50
148.9607599896
 51
211.0392400104
  0
ARC
  5
63C
100
AcDbEntity
  8
RACCORDO
100
AcDbCircle
 62
7
  6
CONTINUOUS
 10
-0.7605034575
 20
-18.1625
 40
6.875
100
AcDbArc
 50
328.9607599896
 51
31.0392400104
  0
CIRCLE
  5
63D
100
AcDbEntity
  8
0
100
AcDbCircle
 62
7
  6
CONTINUOUS
 10
-0.7605034575
 20
-18.1625
 40
5.0
  0
ARC
  5
63E
100
AcDbEntity
  8
ASSI
100
AcDbCircle
 62
7
  6
CONTINUOUS
 10
-0.7605034575
 20
-18.1625
 40
2.4
100
AcDbArc
 50
343.6375383619
 51
34.9862299761
  0
ARC
  5
63F
100
AcDbEntity
  8
ASSI
100
AcDbCircle
 62
7
  6
CONTINUOUS
 10
-0.7605034575
 20
-18.1625
 40
2.4
100
AcDbArc
 50
145.0137700239
 51
196.3624616381
  0
ARC
  5
640
100
AcDbEntity
  8
ASSI
100
AcDbCircle
 62
7
  6
CONTINUOUS
 10
-0.7605034575
 20
-18.1625
 40
2.4
100
AcDbArc
 50
49.4601235994
 51
130.5398764006
  0
ARC
  5
641
100
AcDbEntity
  8
ASSI
100
AcDbCircle
 62
7
  6
CONTINUOUS
 10
-0.7605034575
 20
-18.1625
 40
2.4
100
AcDbArc
 50
207.9231668291
 51
332.0768331709
  0
ARC
  5
642
100
AcDbEntity
  8
RACCORDO
100
AcDbCircle
 62
7
  6
CONTINUOUS
 10
-7.6150183929
 20
-14.0375
 40
1.125
100
AcDbArc
 50
328.9607599896
 51
148.9607599896
  0
CIRCLE
  5
643
100
AcDbEntity
  8
ASSI
100
AcDbCircle
 62
7
  6
CONTINUOUS
 10
-9.5105034575
 20
-11.5625
 40
0.8
  0
CIRCLE
  5
644
100
AcDbEntity
  8
ASSI
100
AcDbCircle
 62
7
  6
CONTINUOUS
 10
-9.5105034575
 20
-11.5375
 40
0.625
  0
ARC
  5
645
100
AcDbEntity
  8
RACCORDO
100
AcDbCircle
 62
7
  6
CONTINUOUS
 10
-18.7605539578
 20
28.2125505003
 40
0.2499495
100
AcDbArc
 50
89.9971520285
 51
180.0028479715
  0
ARC
  5
646
100
AcDbEntity
  8
ASSI
100
AcDbCircle
 62
7
  6
CONTINUOUS
 10
9.4894965425
 20
-25.6625
 40
2.425
100
AcDbArc
 50
147.2816450463
 51
152.2515883146
  0
ARC
  5
647
100
AcDbEntity
  8
DRAFT
100
AcDbCircle
 62
7
  6
CONTINUOUS
 10
9.4894965425
 20
-25.6625
 40
2.425
100
AcDbArc
 50
114.0447444185
 51
118.1371348685
  0
ARC
  5
648
100
AcDbEntity
  8
RACCORDO
100
AcDbCircle
 62
7
  6
CONTINUOUS
 10
6.0940114779
 20
-22.2875
 40
1.125
100
AcDbArc
 50
148.9607599896
 51
328.9607599896
  0
CIRCLE
  5
649
100
AcDbEntity
  8
ASSI
100
AcDbCircle
 62
7
  6
CONTINUOUS
 10
7.9894965425
 20
-24.0625
 40
0.8
  0
CIRCLE
  5
64A
100
AcDbEntity
  8
ASSI
100
AcDbCircle
 62
7
  6
CONTINUOUS
 10
7.9894965425
 20
-24.0375
 40
0.625
  0
ARC
  5
64B
100
AcDbEntity
  8
RACCORDO
100
AcDbCircle
 62
7
  6
CONTINUOUS
 10
14.3394965425
 20
-21.3125
 40
0.5
100
AcDbArc
 50
0.0
 51
90.0
  0
ARC
  5
64C
100
AcDbEntity
  8
RACCORDO
100
AcDbCircle
 62
7
  6
CONTINUOUS
 10
14.3394965425
 20
-23.1625
 40
0.5
100
AcDbArc
 50
270.0
 51
360.0
  0
ARC
  5
64D
100
AcDbEntity
  8
RACCORDO
100
AcDbCircle
 62
7
  6
CONTINUOUS
 10
11.9894965425
 20
-21.3125
 40
0.5
100
AcDbArc
 50
90.0
 51
180.0
  0
ARC
  5
64E
100
AcDbEntity
  8
RACCORDO
100
AcDbCircle
 62
7
  6
CONTINUOUS
 10
11.9894965425
 20
-23.1625
 40
0.5
100
AcDbArc
 50
180.0
 51
270.0
  0
ARC
  5
64F
100
AcDbEntity
  8
ASSI
100
AcDbCircle
 62
7
  6
CONTINUOUS
 10
9.4894965425
 20
-10.6625
 40
2.425
100
AcDbArc
 50
31.7245547877
 51
34.5738791013
  0
ARC
  5
650
100
AcDbEntity
  8
ASSI
100
AcDbCircle
 62
7
  6
CONTINUOUS
 10
9.4894965425
 20
-10.6625
 40
2.425
100
AcDbArc
 50
145.4261208987
 51
148.2754452123
  0
ARC
  5
651
100
AcDbEntity
  8
ASSI
100
AcDbCircle
 62
7
  6
CONTINUOUS
 10
9.4894965425
 20
-10.6625
 40
2.425
100
AcDbArc
 50
207.6105634105
 51
222.9047343421
  0
ARC
  5
652
100
AcDbEntity
  8
RACCORDO
100
AcDbCircle
 62
7
  6
CONTINUOUS
 10
6.0940114779
 20
-14.0375
 40
1.125
100
AcDbArc
 50
31.0392400104
 51
211.0392400104
  0
CIRCLE
  5
653
100
AcDbEntity
  8
ASSI
100
AcDbCircle
 62
7
  6
CONTINUOUS
 10
7.9894965425
 20
-11.5625
 40
0.8
  0
CIRCLE
  5
654
100
AcDbEntity
  8
ASSI
100
AcDbCircle
 62
7
  6
CONTINUOUS
 10
7.9894965425
 20
-11.5375
 40
0.625
  0
ARC
  5
655
100
AcDbEntity
  8
RACCORDO
100
AcDbCircle
 62
7
  6
CONTINUOUS
 10
13.7394965425
 20
-19.5625
 40
0.5
100
AcDbArc
 50
270.0
 51
360.0
  0
ARC
  5
656
100
AcDbEntity
  8
RACCORDO
100
AcDbCircle
 62
7
  6
CONTINUOUS
 10
13.7394965425
 20
-16.9625
 40
0.5
100
AcDbArc
 50
0.0
 51
90.0
  0
ARC
  5
657
100
AcDbEntity
  8
RACCORDO
100
AcDbCircle
 62
7
  6
CONTINUOUS
 10
14.0894965425
 20
-13.0625
 40
0.5
100
AcDbArc
 50
0.0
 51
90.0
  0
ARC
  5
658
100
AcDbEntity
  8
RACCORDO
100
AcDbCircle
 62
7
  6
CONTINUOUS
 10
14.0894965425
 20
-15.1125
 40
0.5
100
AcDbArc
 50
270.0
 51
360.0
  0
ARC
  5
659
100
AcDbEntity
  8
RACCORDO
100
AcDbCircle
 62
7
  6
CONTINUOUS
 10
11.9894965425
 20
-13.0625
 40
0.5
100
AcDbArc
 50
90.0
 51
180.0
  0
ARC
  5
65A
100
AcDbEntity
  8
RACCORDO
100
AcDbCircle
 62
7
  6
CONTINUOUS
 10
11.9894965425
 20
-15.1125
 40
0.5
100
AcDbArc
 50
180.0
 51
270.0
  0
ARC
  5
65B
100
AcDbEntity
  8
RACCORDO
100
AcDbCircle
 62
7
  6
CONTINUOUS
 10
11.9894965425
 20
-16.9625
 40
0.5
100
AcDbArc
 50
90.0
 51
180.0
  0
ARC
  5
65C
100
AcDbEntity
  8
RACCORDO
100
AcDbCircle
 62
7
  6
CONTINUOUS
 10
11.9894965425
 20
-19.5625
 40
0.5
100
AcDbArc
 50
180.0
 51
270.0
  0
ARC
  5
65D
100
AcDbEntity
  8
DRAFT
100
AcDbCircle
 62
7
  6
CONTINUOUS
 10
25.1172176023
 20
-23.3402383125
 40
9.0194718193
100
AcDbArc
 50
134.9999225029
 51
135.1333676442
  0
ARC
  5
65E
100
AcDbEntity
  8
DRAFT
100
AcDbCircle
 62
7
  6
CONTINUOUS
 10
18.7394965425
 20
-20.1625
 40
3.2
100
AcDbArc
 50
270.0
 51
90.0
  0
ARC
  5
65F
100
AcDbEntity
  8
DRAFT
100
AcDbCircle
 62
7
  6
CONTINUOUS
 10
18.7394965425
 20
-20.1625
 40
3.1851631948
100
AcDbArc
 50
269.733109627
 51
90.266890373
  0
ARC
  5
660
100
AcDbEntity
  8
DRAFT
100
AcDbCircle
 62
7
  6
CONTINUOUS
 10
19.4894965425
 20
-20.1625
 40
1.175
100
AcDbArc
 50
70.0313601105
 51
109.9686398895
  0
ARC
  5
661
100
AcDbEntity
  8
DRAFT
100
AcDbCircle
 62
7
  6
CONTINUOUS
 10
19.4894965425
 20
-20.1625
 40
1.175
100
AcDbArc
 50
250.0313601105
 51
289.9686398895
  0
ARC
  5
662
100
AcDbEntity
  8
DRAFT
100
AcDbCircle
 62
7
  6
CONTINUOUS
 10
19.4894965425
 20
-20.1625
 40
0.825
100
AcDbArc
 50
304.0986720093
 51
55.9013279907
  0
ARC
  5
663
100
AcDbEntity
  8
DRAFT
100
AcDbCircle
 62
7
  6
CONTINUOUS
 10
19.4894965425
 20
-20.1625
 40
0.825
100
AcDbArc
 50
124.0986720093
 51
235.9013279907
  0
CIRCLE
  5
664
100
AcDbEntity
  8
0
100
AcDbCircle
 62
7
  6
CONTINUOUS
 10
19.4894965425
 20
-20.1625
 40
0.75
  0
ARC
  5
665
100
AcDbEntity
  8
0
100
AcDbCircle
 62
7
  6
CONTINUOUS
 10
19.4894965425
 20
-20.1625
 40
0.6
100
AcDbArc
 50
255.0
 51
195.0
  0
ARC
  5
666
100
AcDbEntity
  8
RACCORDO
100
AcDbCircle
 62
7
  6
CONTINUOUS
 10
18.4895470428
 20
-28.5375505003
 40
0.2499495
100
AcDbArc
 50
269.9971520285
 51
0.0028479715
  0
ARC
  5
667
100
AcDbEntity
  8
DRAFT
100
AcDbCircle
 62
7
  6
CONTINUOUS
 10
25.1172176023
 20
-16.9847616874
 40
9.0194718193
100
AcDbArc
 50
224.8666323558
 51
225.0000774971
  0
ARC
  5
668
100
AcDbEntity
  8
DRAFT
100
AcDbCircle
 62
7
  6
CONTINUOUS
 10
25.1172176034
 20
23.0152383137
 40
9.019471821
100
AcDbArc
 50
224.8666323558
 51
225.0000774971
  0
ARC
  5
669
100
AcDbEntity
  8
DRAFT
100
AcDbCircle
 62
7
  6
CONTINUOUS
 10
25.1172176003
 20
16.6597616894
 40
9.0194718166
100
AcDbArc
 50
134.9999225029
 51
135.1333676442
  0
ARC
  5
66A
100
AcDbEntity
  8
DRAFT
100
AcDbCircle
 62
7
  6
CONTINUOUS
 10
18.7394965425
 20
19.8375
 40
3.2
100
AcDbArc
 50
270.0
 51
90.0
  0
ARC
  5
66B
100
AcDbEntity
  8
DRAFT
100
AcDbCircle
 62
7
  6
CONTINUOUS
 10
18.7394965425
 20
19.8375
 40
3.1851631948
100
AcDbArc
 50
269.733109627
 51
90.266890373
  0
ARC
  5
66C
100
AcDbEntity
  8
DRAFT
100
AcDbCircle
 62
7
  6
CONTINUOUS
 10
19.4894965425
 20
19.8375
 40
1.175
100
AcDbArc
 50
250.0313601105
 51
289.9686398895
  0
ARC
  5
66D
100
AcDbEntity
  8
DRAFT
100
AcDbCircle
 62
7
  6
CONTINUOUS
 10
19.4894965425
 20
19.8375
 40
1.175
100
AcDbArc
 50
70.0313601105
 51
109.9686398895
  0
ARC
  5
66E
100
AcDbEntity
  8
DRAFT
100
AcDbCircle
 62
7
  6
CONTINUOUS
 10
19.4894965425
 20
19.8375
 40
0.825
100
AcDbArc
 50
304.0986720093
 51
55.9013279907
  0
ARC
  5
66F
100
AcDbEntity
  8
DRAFT
100
AcDbCircle
 62
7
  6
CONTINUOUS
 10
19.4894965425
 20
19.8375
 40
0.825
100
AcDbArc
 50
124.0986720093
 51
235.9013279907
  0
CIRCLE
  5
670
100
AcDbEntity
  8
0
100
AcDbCircle
 62
7
  6
CONTINUOUS
 10
19.4894965425
 20
19.8375
 40
0.75
  0
ARC
  5
671
100
AcDbEntity
  8
0
100
AcDbCircle
 62
7
  6
CONTINUOUS
 10
19.4894965425
 20
19.8375
 40
0.6
100
AcDbArc
 50
75.0528759535
 51
15.0528759535
  0
ARC
  5
672
100
AcDbEntity
  8
RACCORDO
100
AcDbCircle
 62
7
  6
CONTINUOUS
 10
18.4895470428
 20
28.2125505003
 40
0.2499495
100
AcDbArc
 50
359.9971520285
 51
90.0028479715
  0
SPLINE
  5
673
100
AcDbEntity
  8
RACCORDO
100
AcDbSpline
 62
7
  6
CONTINUOUS
 70
0
 71
3
 72
9
 73
5
 74
0
 42
0.0000001
 43
0.0000001
 44
0.0000000001
 40
0.0
 40
0.0
 40
0.0
 40
0.0
 40
0.2570174074
 40
1.0
 40
1.0
 40
1.0
 40
1.0
 10
19.9281039372
 20
19.2313138347
 30
0.0
 10
19.9252248146
 20
19.1886112316
 30
0.0
 10
19.9135381121
 20
19.0224971443
 30
0.0
 10
19.9006130365
 20
18.8564732739
 30
0.0
 10
19.8907658145
 20
18.7331413756
 30
0.0
  0
SPLINE
  5
674
100
AcDbEntity
  8
RACCORDO
100
AcDbSpline
 62
7
  6
CONTINUOUS
 70
0
 71
3
 72
9
 73
5
 74
0
 42
0.0000001
 43
0.0000001
 44
0.0000000001
 40
0.0
 40
0.0
 40
0.0
 40
0.0
 40
0.2444372726
 40
1.0
 40
1.0
 40
1.0
 40
1.0
 10
19.0882272705
 20
18.7331413756
 30
0.0
 10
19.0849875925
 20
18.7737168437
 30
0.0
 10
19.0718677875
 20
18.9397224479
 30
0.0
 10
19.0593529884
 20
19.1057797472
 30
0.0
 10
19.0508891478
 20
19.2313138347
 30
0.0
  0
SPLINE
  5
675
100
AcDbEntity
  8
RACCORDO
100
AcDbSpline
 62
7
  6
CONTINUOUS
 70
0
 71
3
 72
9
 73
5
 74
0
 42
0.0000001
 43
0.0000001
 44
0.0000000001
 40
0.0
 40
0.0
 40
0.0
 40
0.0
 40
0.2570174074
 40
1.0
 40
1.0
 40
1.0
 40
1.0
 10
19.0508891478
 20
20.4436861653
 30
0.0
 10
19.0537682704
 20
20.4863887685
 30
0.0
 10
19.0654549728
 20
20.6525028557
 30
0.0
 10
19.0783800485
 20
20.8185267262
 30
0.0
 10
19.0882272705
 20
20.9418586245
 30
0.0
  0
SPLINE
  5
676
100
AcDbEntity
  8
RACCORDO
100
AcDbSpline
 62
7
  6
CONTINUOUS
 70
0
 71
3
 72
9
 73
5
 74
0
 42
0.0000001
 43
0.0000001
 44
0.0000000001
 40
0.0
 40
0.0
 40
0.0
 40
0.0
 40
0.2444372726
 40
1.0
 40
1.0
 40
1.0
 40
1.0
 10
19.8907658145
 20
20.9418586245
 30
0.0
 10
19.8940054925
 20
20.9012831563
 30
0.0
 10
19.9071252975
 20
20.7352775521
 30
0.0
 10
19.9196400966
 20
20.5692202528
 30
0.0
 10
19.9281039372
 20
20.4436861653
 30
0.0
  0
SPLINE
  5
677
100
AcDbEntity
  8
RACCORDO
100
AcDbSpline
 62
7
  6
CONTINUOUS
 70
0
 71
3
 72
9
 73
5
 74
0
 42
0.0000001
 43
0.0000001
 44
0.0000000001
 40
0.0
 40
0.0
 40
0.0
 40
0.0
 40
0.2570174074
 40
1.0
 40
1.0
 40
1.0
 40
1.0
 10
19.0508891478
 20
-19.5563138347
 30
0.0
 10
19.0537682704
 20
-19.5136112315
 30
0.0
 10
19.0654549728
 20
-19.3474971443
 30
0.0
 10
19.0783800485
 20
-19.1814732738
 30
0.0
 10
19.0882272705
 20
-19.0581413755
 30
0.0
  0
SPLINE
  5
678
100
AcDbEntity
  8
RACCORDO
100
AcDbSpline
 62
7
  6
CONTINUOUS
 70
0
 71
3
 72
9
 73
5
 74
0
 42
0.0000001
 43
0.0000001
 44
0.0000000001
 40
0.0
 40
0.0
 40
0.0
 40
0.0
 40
0.2444372726
 40
1.0
 40
1.0
 40
1.0
 40
1.0
 10
19.8907658145
 20
-19.0581413755
 30
0.0
 10
19.8940054925
 20
-19.0987168437
 30
0.0
 10
19.9071252975
 20
-19.2647224479
 30
0.0
 10
19.9196400966
 20
-19.4307797472
 30
0.0
 10
19.9281039372
 20
-19.5563138347
 30
0.0
  0
SPLINE
  5
679
100
AcDbEntity
  8
RACCORDO
100
AcDbSpline
 62
7
  6
CONTINUOUS
 70
0
 71
3
 72
9
 73
5
 74
0
 42
0.0000001
 43
0.0000001
 44
0.0000000001
 40
0.0
 40
0.0
 40
0.0
 40
0.0
 40
0.2570174074
 40
1.0
 40
1.0
 40
1.0
 40
1.0
 10
19.9281039372
 20
-20.7686861653
 30
0.0
 10
19.9252248146
 20
-20.8113887684
 30
0.0
 10
19.9135381121
 20
-20.9775028557
 30
0.0
 10
19.9006130365
 20
-21.1435267261
 30
0.0
 10
19.8907658145
 20
-21.2668586244
 30
0.0
  0
SPLINE
  5
67A
100
AcDbEntity
  8
RACCORDO
100
AcDbSpline
 62
7
  6
CONTINUOUS
 70
0
 71
3
 72
9
 73
5
 74
0
 42
0.0000001
 43
0.0000001
 44
0.0000000001
 40
0.0
 40
0.0
 40
0.0
 40
0.0
 40
0.2444372726
 40
1.0
 40
1.0
 40
1.0
 40
1.0
 10
19.0882272705
 20
-21.2668586244
 30
0.0
 10
19.0849875925
 20
-21.2262831563
 30
0.0
 10
19.0718677875
 20
-21.0602775521
 30
0.0
 10
19.0593529884
 20
-20.8942202528
 30
0.0
 10
19.0508891478
 20
-20.7686861653
 30
0.0
  0
SPLINE
  5
67B
100
AcDbEntity
  8
0
100
AcDbSpline
 62
7
  6
CONTINUOUS
 70
0
 71
3
 72
9
 73
5
 74
0
 42
0.0000001
 43
0.0000001
 44
0.0000000001
 40
0.0
 40
0.0
 40
0.0
 40
0.0
 40
0.5023824029
 40
1.0
 40
1.0
 40
1.0
 40
1.0
 10
-13.9116966994
 20
-21.3685027782
 30
0.0
 10
-13.9200552368
 20
-21.3845287598
 30
0.0
 10
-13.9459065273
 20
-21.4124591586
 30
0.0
 10
-13.9826001184
 20
-21.4225
 30
0.0
 10
-14.0005034575
 20
-21.4225
 30
0.0
  0
ELLIPSE
  5
67C
100
AcDbEntity
  8
RACCORDO
100
AcDbEllipse
 62
7
  6
CONTINUOUS
 10
-13.5189194532
 20
7.0670928875
 30
0.0
 11
0.15
 21
0.0
 31
0.0
 40
0.0349207695
 41
-0.0174532925
 42
0.0
  0
ELLIPSE
  5
67D
100
AcDbEntity
  8
RACCORDO
100
AcDbEllipse
 62
7
  6
CONTINUOUS
 10
11.9979125381
 20
15.5829071126
 30
0.0
 11
0.15
 21
0.0
 31
0.0
 40
0.0349207695
 41
3.1241393611
 42
3.1415926536
  0
ELLIPSE
  5
67E
100
AcDbEntity
  8
RACCORDO
100
AcDbEllipse
 62
7
  6
CONTINUOUS
 10
-13.5189194532
 20
18.5545928875
 30
0.0
 11
0.15
 21
0.0
 31
0.0
 40
0.0349207695
 41
-0.0174532925
 42
-0.0
  0
ELLIPSE
  5
67F
100
AcDbEntity
  8
RACCORDO
100
AcDbEllipse
 62
7
  6
CONTINUOUS
 10
11.9979125381
 20
27.0704071126
 30
0.0
 11
0.15
 21
0.0
 31
0.0
 40
0.0349207695
 41
3.1241393611
 42
3.1415926536
  0
ELLIPSE
  5
680
100
AcDbEntity
  8
RACCORDO
100
AcDbEllipse
 62
7
  6
CONTINUOUS
 10
-1.7104274553
 20
6.3750760023
 30
0.0
 11
-0.0712498608
 21
-0.0712498608
 31
0.0
 40
0.9924325091
 41
-0.7816000651
 42
0.7816000651
  0
ELLIPSE
  5
681
100
AcDbEntity
  8
RACCORDO
100
AcDbEllipse
 62
7
  6
CONTINUOUS
 10
0.1894205403
 20
6.3750760023
 30
0.0
 11
0.0712498608
 21
-0.0712498608
 31
0.0
 40
0.9924325091
 41
-0.7816000651
 42
0.7816000651
  0
ELLIPSE
  5
682
100
AcDbEntity
  8
RACCORDO
100
AcDbEllipse
 62
7
  6
CONTINUOUS
 10
-1.7104274553
 20
16.2749239978
 30
0.0
 11
-0.0712498608
 21
0.0712498608
 31
0.0
 40
0.9924325091
 41
-0.7816000651
 42
0.7816000651
  0
ELLIPSE
  5
683
100
AcDbEntity
  8
RACCORDO
100
AcDbEllipse
 62
7
  6
CONTINUOUS
 10
0.1894205403
 20
16.2749239978
 30
0.0
 11
0.0712498608
 21
0.0712498608
 31
0.0
 40
0.9924325091
 41
-0.7816000651
 42
0.7816000651
  0
ELLIPSE
  5
684
100
AcDbEntity
  8
RACCORDO
100
AcDbEllipse
 62
7
  6
CONTINUOUS
 10
-1.7104274553
 20
17.8625760023
 30
0.0
 11
-0.0712498608
 21
-0.0712498608
 31
0.0
 40
0.9924325091
 41
-0.7816000651
 42
0.7816000651
  0
ELLIPSE
  5
685
100
AcDbEntity
  8
RACCORDO
100
AcDbEllipse
 62
7
  6
CONTINUOUS
 10
0.1894205403
 20
17.8625760023
 30
0.0
 11
0.0712498608
 21
-0.0712498608
 31
0.0
 40
0.9924325091
 41
-0.7816000651
 42
0.7816000651
  0
ELLIPSE
  5
686
100
AcDbEntity
  8
RACCORDO
100
AcDbEllipse
 62
7
  6
CONTINUOUS
 10
-1.7104274553
 20
27.7624239978
 30
0.0
 11
-0.0712498608
 21
0.0712498608
 31
0.0
 40
0.9924325091
 41
-0.7816000651
 42
0.7816000651
  0
ELLIPSE
  5
687
100
AcDbEntity
  8
RACCORDO
100
AcDbEllipse
 62
7
  6
CONTINUOUS
 10
0.1894205403
 20
27.7624239978
 30
0.0
 11
0.0712498608
 21
0.0712498608
 31
0.0
 40
0.9924325091
 41
-0.7816000651
 42
0.7816000651
  0
ELLIPSE
  5
688
100
AcDbEntity
  8
RACCORDO
100
AcDbEllipse
 62
7
  6
CONTINUOUS
 10
-13.5189194532
 20
15.5829071126
 30
0.0
 11
0.15
 21
0.0
 31
0.0
 40
0.0349207695
 41
-0.0
 42
0.0174532925
  0
ELLIPSE
  5
689
100
AcDbEntity
  8
RACCORDO
100
AcDbEllipse
 62
7
  6
CONTINUOUS
 10
11.9979125381
 20
7.0670928875
 30
0.0
 11
0.15
 21
-0.0
 31
0.0
 40
0.0349207695
 41
-3.1415926536
 42
-3.1241393611
  0
ELLIPSE
  5
68A
100
AcDbEntity
  8
RACCORDO
100
AcDbEllipse
 62
7
  6
CONTINUOUS
 10
-13.5189194532
 20
27.0704071126
 30
0.0
 11
0.15
 21
0.0
 31
0.0
 40
0.0349207695
 41
-0.0
 42
0.0174532925
  0
ELLIPSE
  5
68B
100
AcDbEntity
  8
RACCORDO
100
AcDbEllipse
 62
7
  6
CONTINUOUS
 10
11.9979125381
 20
18.5545928875
 30
0.0
 11
0.15
 21
-0.0
 31
0.0
 40
0.0349207695
 41
-3.1415926536
 42
-3.1241393611
  0
ELLIPSE
  5
68C
100
AcDbEntity
  8
RACCORDO
100
AcDbEllipse
 62
7
  6
CONTINUOUS
 10
11.3644965425
 20
4.5691721818
 30
0.0
 11
0.1
 21
0.0
 31
0.0
 40
0.0174550649
 41
-1.5707963268
 42
-0.3141854329
  0
ELLIPSE
  5
68D
100
AcDbEntity
  8
RACCORDO
100
AcDbEllipse
 62
7
  6
CONTINUOUS
 10
19.8889235669
 20
17.8880729757
 30
0.0
 11
0.1068747912
 21
-0.1068747912
 31
0.0
 40
0.9924325091
 41
-0.7816000651
 42
0.7816000651
  0
ELLIPSE
  5
68E
100
AcDbEntity
  8
RACCORDO
100
AcDbEllipse
 62
7
  6
CONTINUOUS
 10
19.0900695181
 20
17.8880729757
 30
0.0
 11
0.1068747912
 21
0.1068747912
 31
0.0
 40
0.9924325091
 41
-3.9231927187
 42
-2.3599925885
  0
ELLIPSE
  5
68F
100
AcDbEntity
  8
RACCORDO
100
AcDbEllipse
 62
7
  6
CONTINUOUS
 10
19.8889235669
 20
21.7869270244
 30
0.0
 11
0.1068747912
 21
0.1068747912
 31
0.0
 40
0.9924325091
 41
-0.7816000651
 42
0.7816000651
  0
ELLIPSE
  5
690
100
AcDbEntity
  8
RACCORDO
100
AcDbEllipse
 62
7
  6
CONTINUOUS
 10
19.0900695181
 20
21.7869270244
 30
0.0
 11
0.1068747912
 21
-0.1068747912
 31
0.0
 40
0.9924325091
 41
2.3599925885
 42
3.9231927187
  0
ELLIPSE
  5
691
100
AcDbEntity
  8
RACCORDO
100
AcDbEllipse
 62
7
  6
CONTINUOUS
 10
19.8889235669
 20
-22.1119270243
 30
0.0
 11
0.1068747912
 21
-0.1068747912
 31
0.0
 40
0.9924325091
 41
-0.7816000651
 42
0.7816000651
  0
ELLIPSE
  5
692
100
AcDbEntity
  8
RACCORDO
100
AcDbEllipse
 62
7
  6
CONTINUOUS
 10
19.0900695181
 20
-22.1119270243
 30
0.0
 11
0.1068747912
 21
0.1068747912
 31
0.0
 40
0.9924325091
 41
-3.9231927187
 42
-2.3599925885
  0
ELLIPSE
  5
693
100
AcDbEntity
  8
RACCORDO
100
AcDbEllipse
 62
7
  6
CONTINUOUS
 10
19.0900695181
 20
-18.2130729756
 30
0.0
 11
0.1068747912
 21
-0.1068747912
 31
0.0
 40
0.9924325091
 41
2.3599925885
 42
3.9231927187
  0
ELLIPSE
  5
694
100
AcDbEntity
  8
RACCORDO
100
AcDbEllipse
 62
7
  6
CONTINUOUS
 10
19.8889235669
 20
-18.2130729756
 30
0.0
 11
0.1068747912
 21
0.1068747912
 31
0.0
 40
0.9924325091
 41
-0.7816000651
 42
0.7816000651
  0
ELLIPSE
  5
695
100
AcDbEntity
  8
RACCORDO
100
AcDbEllipse
 62
7
  6
CONTINUOUS
 10
-1.8066649852
 20
6.2788384724
 30
0.0
 11
0.0712498608
 21
0.0712498608
 31
0.0
 40
0.9924325091
 41
2.3599925885
 42
3.9231927187
  0
ELLIPSE
  5
696
100
AcDbEntity
  8
RACCORDO
100
AcDbEllipse
 62
7
  6
CONTINUOUS
 10
0.2856580701
 20
6.2788384724
 30
0.0
 11
0.0712498608
 21
-0.0712498608
 31
0.0
 40
0.9924325091
 41
-0.7816000651
 42
0.7816000651
  0
ELLIPSE
  5
697
100
AcDbEntity
  8
RACCORDO
100
AcDbEllipse
 62
7
  6
CONTINUOUS
 10
-1.8066649852
 20
16.3711615277
 30
0.0
 11
0.0712498608
 21
-0.0712498608
 31
0.0
 40
0.9924325091
 41
2.3599925885
 42
3.9231927187
  0
ELLIPSE
  5
698
100
AcDbEntity
  8
RACCORDO
100
AcDbEllipse
 62
7
  6
CONTINUOUS
 10
0.2856580701
 20
16.3711615277
 30
0.0
 11
0.0712498608
 21
0.0712498608
 31
0.0
 40
0.9924325091
 41
-0.7816000651
 42
0.7816000651
  0
ELLIPSE
  5
699
100
AcDbEntity
  8
RACCORDO
100
AcDbEllipse
 62
7
  6
CONTINUOUS
 10
-1.8066649852
 20
17.7663384724
 30
0.0
 11
0.0712498608
 21
0.0712498608
 31
0.0
 40
0.9924325091
 41
2.3599925885
 42
3.9231927187
  0
ELLIPSE
  5
69A
100
AcDbEntity
  8
RACCORDO
100
AcDbEllipse
 62
7
  6
CONTINUOUS
 10
0.2856580701
 20
17.7663384724
 30
0.0
 11
0.0712498608
 21
-0.0712498608
 31
0.0
 40
0.9924325091
 41
-0.7816000651
 42
0.7816000651
  0
ELLIPSE
  5
69B
100
AcDbEntity
  8
RACCORDO
100
AcDbEllipse
 62
7
  6
CONTINUOUS
 10
-1.8066649852
 20
27.8586615277
 30
0.0
 11
0.0712498608
 21
-0.0712498608
 31
0.0
 40
0.9924325091
 41
2.3599925885
 42
3.9231927187
  0
ELLIPSE
  5
69C
100
AcDbEntity
  8
RACCORDO
100
AcDbEllipse
 62
7
  6
CONTINUOUS
 10
0.2856580701
 20
27.8586615277
 30
0.0
 11
0.0712498608
 21
0.0712498608
 31
0.0
 40
0.9924325091
 41
-0.7816000651
 42
0.7816000651
  0
ELLIPSE
  5
69D
100
AcDbEntity
  8
RACCORDO
100
AcDbEllipse
 62
7
  6
CONTINUOUS
 10
10.1894965425
 20
4.5691721818
 30
0.0
 11
0.1
 21
0.0
 31
0.0
 40
0.0174550649
 41
3.1415926536
 42
4.7123889804
  0
ELLIPSE
  5
69E
100
AcDbEntity
  8
RACCORDO
100
AcDbEllipse
 62
7
  6
CONTINUOUS
 10
-0.7605034575
 20
-27.8386242841
 30
0.0
 11
241.25
 21
-0.0
 31
0.0
 40
0.0174550649
 41
1.5075023168
 42
1.5186159676
  0
ELLIPSE
  5
69F
100
AcDbEntity
  8
RACCORDO
100
AcDbEllipse
 62
7
  6
CONTINUOUS
 10
-0.7605034575
 20
-16.6363757159
 30
0.0
 11
241.25
 21
-0.0
 31
0.0
 40
0.0174550649
 41
-1.5186159605
 42
-1.5075023171
  0
ELLIPSE
  5
6A0
100
AcDbEntity
  8
RACCORDO
100
AcDbEllipse
 62
7
  6
CONTINUOUS
 10
-0.7605034575
 20
-19.7886242841
 30
0.0
 11
241.25
 21
-0.0
 31
0.0
 40
0.0174550649
 41
1.5085373889
 42
1.5186159676
  0
ELLIPSE
  5
6A1
100
AcDbEntity
  8
RACCORDO
100
AcDbEllipse
 62
7
  6
CONTINUOUS
 10
-17.1105339231
 20
-18.7552364873
 30
0.0
 11
0.1414644378
 21
-0.1414644378
 31
0.0
 40
0.9996954599
 41
-0.7852458701
 42
0.7852458701
  0
ELLIPSE
  5
6A2
100
AcDbEntity
  8
DRAFT
100
AcDbEllipse
 62
7
  6
CONTINUOUS
 10
-0.7605034575
 20
8.7418054529
 30
0.0
 11
241.25
 21
-0.0
 31
0.0
 40
0.0174550649
 41
-1.6350783151
 42
-1.6185099865
  0
ELLIPSE
  5
6A3
100
AcDbEntity
  8
DRAFT
100
AcDbEllipse
 62
7
  6
CONTINUOUS
 10
-0.7605034575
 20
32.1279620496
 30
0.0
 11
191.5
 21
-0.0
 31
0.0
 40
0.0349207695
 41
-1.5201259909
 42
-1.5013240915
  0
ELLIPSE
  5
6A4
100
AcDbEntity
  8
DRAFT
100
AcDbEllipse
 62
7
  6
CONTINUOUS
 10
-0.7605034575
 20
13.4970379505
 30
0.0
 11
191.5
 21
-0.0
 31
0.0
 40
0.0349207695
 41
1.5013240915
 42
1.5201259909
  0
ELLIPSE
  5
6A5
100
AcDbEntity
  8
DRAFT
100
AcDbEllipse
 62
7
  6
CONTINUOUS
 10
-0.7605034575
 20
13.4970379505
 30
0.0
 11
191.5
 21
-0.0
 31
0.0
 40
0.0349207695
 41
1.6214666627
 42
1.640268562
  0
ELLIPSE
  5
6A6
100
AcDbEntity
  8
DRAFT
100
AcDbEllipse
 62
7
  6
CONTINUOUS
 10
-0.7605034575
 20
32.1279620496
 30
0.0
 11
191.5
 21
-0.0
 31
0.0
 40
0.0349207695
 41
-1.640268562
 42
-1.6214666627
  0
ELLIPSE
  5
6A7
100
AcDbEntity
  8
DRAFT
100
AcDbEllipse
 62
7
  6
CONTINUOUS
 10
-0.7605034575
 20
8.7418054529
 30
0.0
 11
241.25
 21
-0.0
 31
0.0
 40
0.0174550649
 41
-1.6140466376
 42
-1.5907375802
  0
ELLIPSE
  5
6A8
100
AcDbEntity
  8
DRAFT
100
AcDbEllipse
 62
7
  6
CONTINUOUS
 10
-0.7605034575
 20
8.7418054529
 30
0.0
 11
241.25
 21
-0.0
 31
0.0
 40
0.0174550649
 41
-1.5881621288
 42
-1.5534305248
  0
ELLIPSE
  5
6A9
100
AcDbEntity
  8
DRAFT
100
AcDbEllipse
 62
7
  6
CONTINUOUS
 10
-0.7605034575
 20
8.7418054529
 30
0.0
 11
241.25
 21
-0.0
 31
0.0
 40
0.0174550649
 41
-1.5508550734
 42
-1.5275460159
  0
ELLIPSE
  5
6AA
100
AcDbEntity
  8
DRAFT
100
AcDbEllipse
 62
7
  6
CONTINUOUS
 10
-0.7605034575
 20
8.7418054529
 30
0.0
 11
241.25
 21
-0.0
 31
0.0
 40
0.0174550649
 41
-1.5230826671
 42
-1.5065143385
  0
ELLIPSE
  5
6AB
100
AcDbEntity
  8
DRAFT
100
AcDbEllipse
 62
7
  6
CONTINUOUS
 10
16.3894965425
 20
-27.9588344363
 30
0.0
 11
0.05
 21
-0.0
 31
0.0
 40
0.0174550649
 41
-2.7925268032
 42
-0.3490658504
  0
ELLIPSE
  5
6AC
100
AcDbEntity
  8
DRAFT
100
AcDbEllipse
 62
7
  6
CONTINUOUS
 10
16.0394965425
 20
-27.9588344363
 30
0.0
 11
0.05
 21
-0.0
 31
0.0
 40
0.0174550649
 41
-2.7925268032
 42
-0.3490658504
  0
ELLIPSE
  5
6AD
100
AcDbEntity
  8
DRAFT
100
AcDbEllipse
 62
7
  6
CONTINUOUS
 10
-0.7605034575
 20
-32.1168054529
 30
0.0
 11
241.25
 21
-0.0
 31
0.0
 40
0.0174550649
 41
1.5027520556
 42
1.5028683409
  0
ELLIPSE
  5
6AE
100
AcDbEntity
  8
DRAFT
100
AcDbEllipse
 62
7
  6
CONTINUOUS
 10
-0.7605034575
 20
-32.1168054529
 30
0.0
 11
241.25
 21
-0.0
 31
0.0
 40
0.0174550649
 41
1.6387243127
 42
1.638840598
  0
ELLIPSE
  5
6AF
100
AcDbEntity
  8
DRAFT
100
AcDbEllipse
 62
7
  6
CONTINUOUS
 10
-17.5605034575
 20
-27.9588344363
 30
0.0
 11
0.05
 21
-0.0
 31
0.0
 40
0.0174550649
 41
-2.7925268032
 42
-0.3490658504
  0
ELLIPSE
  5
6B0
100
AcDbEntity
  8
DRAFT
100
AcDbEllipse
 62
7
  6
CONTINUOUS
 10
-17.9105034575
 20
-27.9588344363
 30
0.0
 11
0.05
 21
-0.0
 31
0.0
 40
0.0174550649
 41
-2.7925268032
 42
-0.3490658504
  0
ELLIPSE
  5
6B1
100
AcDbEntity
  8
DRAFT
100
AcDbEllipse
 62
7
  6
CONTINUOUS
 10
-0.7605034575
 20
2.0095379505
 30
0.0
 11
191.5
 21
-0.0
 31
0.0
 40
0.0349207695
 41
1.6214666627
 42
1.640268562
  0
ELLIPSE
  5
6B2
100
AcDbEntity
  8
DRAFT
100
AcDbEllipse
 62
7
  6
CONTINUOUS
 10
-0.7605034575
 20
20.6404620496
 30
0.0
 11
191.5
 21
-0.0
 31
0.0
 40
0.0349207695
 41
-1.640268562
 42
-1.6214666627
  0
ELLIPSE
  5
6B3
100
AcDbEntity
  8
DRAFT
100
AcDbEllipse
 62
7
  6
CONTINUOUS
 10
-0.7605034575
 20
20.6404620496
 30
0.0
 11
191.5
 21
-0.0
 31
0.0
 40
0.0349207695
 41
-1.5201259909
 42
-1.5013240915
  0
ELLIPSE
  5
6B4
100
AcDbEntity
  8
DRAFT
100
AcDbEllipse
 62
7
  6
CONTINUOUS
 10
-0.7605034575
 20
2.0095379505
 30
0.0
 11
191.5
 21
-0.0
 31
0.0
 40
0.0349207695
 41
1.5015504005
 42
1.5201259909
  0
ELLIPSE
  5
6B5
100
AcDbEntity
  8
RACCORDO
100
AcDbEllipse
 62
7
  6
CONTINUOUS
 10
-11.7105034575
 20
4.5691721818
 30
0.0
 11
0.1
 21
0.0
 31
0.0
 40
0.0174550649
 41
-1.5707963268
 42
-0.3141854329
  0
ELLIPSE
  5
6B6
100
AcDbEntity
  8
RACCORDO
100
AcDbEllipse
 62
7
  6
CONTINUOUS
 10
18.4746216553
 20
-28.5226251128
 30
0.0
 11
-0.1768305473
 21
0.1768305473
 31
0.0
 40
0.9996954599
 41
2.3563467834
 42
3.9268385237
  0
ELLIPSE
  5
6B7
100
AcDbEntity
  8
RACCORDO
100
AcDbEllipse
 62
7
  6
CONTINUOUS
 10
18.4746216553
 20
28.1976251128
 30
0.0
 11
0.1768305473
 21
0.1768305473
 31
0.0
 40
0.9996954599
 41
-0.7852458701
 42
0.7852458701
  0
ELLIPSE
  5
6B8
100
AcDbEntity
  8
RACCORDO
100
AcDbEllipse
 62
7
  6
CONTINUOUS
 10
-19.2543561028
 20
-28.5313526452
 30
0.0
 11
-0.1768305473
 21
-0.1768305473
 31
0.0
 40
0.9996954599
 41
-0.7852458701
 42
0.7852458701
  0
ELLIPSE
  5
6B9
100
AcDbEntity
  8
RACCORDO
100
AcDbEllipse
 62
7
  6
CONTINUOUS
 10
-18.7543561028
 20
28.2063526453
 30
0.0
 11
-0.1768305473
 21
0.1768305473
 31
0.0
 40
0.9996954599
 41
-0.7852458701
 42
0.7852458701
  0
ELLIPSE
  5
6BA
100
AcDbEntity
  8
DRAFT
100
AcDbEllipse
 62
7
  6
CONTINUOUS
 10
-0.7605034575
 20
-15.8827058991
 30
0.0
 11
241.25
 21
-0.0
 31
0.0
 40
0.0349207695
 41
-1.5028684478
 42
-1.5027520556
  0
ELLIPSE
  5
6BB
100
AcDbEntity
  8
DRAFT
100
AcDbEllipse
 62
7
  6
CONTINUOUS
 10
-0.7605034575
 20
-34.7422941009
 30
0.0
 11
241.25
 21
-0.0
 31
0.0
 40
0.0349207695
 41
1.5027520556
 42
1.5028684478
  0
ELLIPSE
  5
6BC
100
AcDbEntity
  8
DRAFT
100
AcDbEllipse
 62
7
  6
CONTINUOUS
 10
-0.7605034575
 20
-0.8827058991
 30
0.0
 11
241.25
 21
-0.0
 31
0.0
 40
0.0349207695
 41
-1.5143666661
 42
-1.5027520556
  0
ELLIPSE
  5
6BD
100
AcDbEntity
  8
DRAFT
100
AcDbEllipse
 62
7
  6
CONTINUOUS
 10
-0.7605034575
 20
-19.7422941009
 30
0.0
 11
241.25
 21
-0.0
 31
0.0
 40
0.0349207695
 41
1.5027520556
 42
1.5028684478
  0
ELLIPSE
  5
6BE
100
AcDbEntity
  8
DRAFT
100
AcDbEllipse
 62
7
  6
CONTINUOUS
 10
-0.7605034575
 20
-34.7422941009
 30
0.0
 11
241.25
 21
-0.0
 31
0.0
 40
0.0349207695
 41
1.6387242058
 42
1.638840598
  0
ELLIPSE
  5
6BF
100
AcDbEntity
  8
DRAFT
100
AcDbEllipse
 62
7
  6
CONTINUOUS
 10
-0.7605034575
 20
-15.8827058991
 30
0.0
 11
241.25
 21
-0.0
 31
0.0
 40
0.0349207695
 41
-1.638840598
 42
-1.6387242058
  0
ELLIPSE
  5
6C0
100
AcDbEntity
  8
DRAFT
100
AcDbEllipse
 62
7
  6
CONTINUOUS
 10
-0.7605034575
 20
-19.7422941009
 30
0.0
 11
241.25
 21
-0.0
 31
0.0
 40
0.0349207695
 41
1.6387242058
 42
1.638840598
  0
ELLIPSE
  5
6C1
100
AcDbEntity
  8
DRAFT
100
AcDbEllipse
 62
7
  6
CONTINUOUS
 10
-0.7605034575
 20
-0.8827058991
 30
0.0
 11
241.25
 21
-0.0
 31
0.0
 40
0.0349207695
 41
-1.638840598
 42
-1.6272259875
  0
ELLIPSE
  5
6C2
100
AcDbEntity
  8
DRAFT
100
AcDbEllipse
 62
7
  6
CONTINUOUS
 10
-0.7605034575
 20
-32.2422941009
 30
0.0
 11
241.25
 21
-0.0
 31
0.0
 40
0.0349207695
 41
1.6272259875
 42
1.630831825
  0
ELLIPSE
  5
6C3
100
AcDbEntity
  8
DRAFT
100
AcDbEllipse
 62
7
  6
CONTINUOUS
 10
-0.7605034575
 20
-32.2422941009
 30
0.0
 11
241.25
 21
-0.0
 31
0.0
 40
0.0349207695
 41
1.6387242058
 42
1.638840598
  0
ELLIPSE
  5
6C4
100
AcDbEntity
  8
DRAFT
100
AcDbEllipse
 62
7
  6
CONTINUOUS
 10
-0.7605034575
 20
-13.3827058991
 30
0.0
 11
241.25
 21
-0.0
 31
0.0
 40
0.0349207695
 41
-1.6344225244
 42
-1.6331236509
  0
ELLIPSE
  5
6C5
100
AcDbEntity
  8
DRAFT
100
AcDbEllipse
 62
7
  6
CONTINUOUS
 10
-0.7605034575
 20
-13.3827058991
 30
0.0
 11
241.25
 21
-0.0
 31
0.0
 40
0.0349207695
 41
-1.638840598
 42
-1.6387242032
  0
ELLIPSE
  5
6C6
100
AcDbEntity
  8
DRAFT
100
AcDbEllipse
 62
7
  6
CONTINUOUS
 10
-0.7605034575
 20
-29.7422941009
 30
0.0
 11
241.25
 21
-0.0
 31
0.0
 40
0.0349207695
 41
1.6331236509
 42
1.6338209396
  0
ELLIPSE
  5
6C7
100
AcDbEntity
  8
DRAFT
100
AcDbEllipse
 62
7
  6
CONTINUOUS
 10
-0.7605034575
 20
-29.7422941009
 30
0.0
 11
241.25
 21
-0.0
 31
0.0
 40
0.0349207695
 41
1.6387242032
 42
1.638840598
  0
ELLIPSE
  5
6C8
100
AcDbEntity
  8
DRAFT
100
AcDbEllipse
 62
7
  6
CONTINUOUS
 10
-0.7605034575
 20
-10.8827058991
 30
0.0
 11
241.25
 21
-0.0
 31
0.0
 40
0.0349207695
 41
-1.638840598
 42
-1.6387242012
  0
ELLIPSE
  5
6C9
100
AcDbEntity
  8
0
100
AcDbEllipse
 62
7
  6
CONTINUOUS
 10
-0.7605034575
 20
-10.8827058991
 30
0.0
 11
241.25
 21
-0.0
 31
0.0
 40
0.0349207695
 41
-1.6083258014
 42
-1.608065022
  0
ELLIPSE
  5
6CA
100
AcDbEntity
  8
DRAFT
100
AcDbEllipse
 62
7
  6
CONTINUOUS
 10
-0.7605034575
 20
-29.7422941009
 30
0.0
 11
241.25
 21
-0.0
 31
0.0
 40
0.0349207695
 41
1.6187262442
 42
1.6193960238
  0
ELLIPSE
  5
6CB
100
AcDbEntity
  8
DRAFT
100
AcDbEllipse
 62
7
  6
CONTINUOUS
 10
-0.7605034575
 20
-8.3827058991
 30
0.0
 11
241.25
 21
-0.0
 31
0.0
 40
0.0349207695
 41
-1.6082002037
 42
-1.608065022
  0
ELLIPSE
  5
6CC
100
AcDbEntity
  8
0
100
AcDbEllipse
 62
7
  6
CONTINUOUS
 10
-0.7605034575
 20
-27.2422941009
 30
0.0
 11
241.25
 21
-0.0
 31
0.0
 40
0.0349207695
 41
1.608065022
 42
1.6085231673
  0
ELLIPSE
  5
6CD
100
AcDbEntity
  8
DRAFT
100
AcDbEllipse
 62
7
  6
CONTINUOUS
 10
-0.7605034575
 20
-18.3827058991
 30
0.0
 11
241.25
 21
-0.0
 31
0.0
 40
0.0349207695
 41
-1.5028684489
 42
-1.5027520556
  0
ELLIPSE
  5
6CE
100
AcDbEntity
  8
DRAFT
100
AcDbEllipse
 62
7
  6
CONTINUOUS
 10
-0.7605034575
 20
-18.3827058991
 30
0.0
 11
241.25
 21
-0.0
 31
0.0
 40
0.0349207695
 41
-1.638840598
 42
-1.6387242047
  0
ELLIPSE
  5
6CF
100
AcDbEntity
  8
ASSI
100
AcDbEllipse
 62
7
  6
CONTINUOUS
 10
-0.7605034575
 20
-0.8827058991
 30
0.0
 11
241.25
 21
-0.0
 31
0.0
 40
0.0349207695
 41
-1.519982165
 42
-1.5162919601
  0
ELLIPSE
  5
6D0
100
AcDbEntity
  8
ASSI
100
AcDbEllipse
 62
7
  6
CONTINUOUS
 10
-0.7605034575
 20
-0.8827058991
 30
0.0
 11
241.25
 21
-0.0
 31
0.0
 40
0.0349207695
 41
-1.6049679953
 42
-1.5366246583
  0
ELLIPSE
  5
6D1
100
AcDbEntity
  8
ASSI
100
AcDbEllipse
 62
7
  6
CONTINUOUS
 10
-0.7605034575
 20
-0.8827058991
 30
0.0
 11
241.25
 21
-0.0
 31
0.0
 40
0.0349207695
 41
-1.6253006935
 42
-1.6216104886
  0
ELLIPSE
  5
6D2
100
AcDbEntity
  8
DRAFT
100
AcDbEllipse
 62
7
  6
CONTINUOUS
 10
-0.7605034575
 20
-5.8827058991
 30
0.0
 11
241.25
 21
-0.0
 31
0.0
 40
0.0349207695
 41
-1.638840598
 42
-1.638724204
  0
ELLIPSE
  5
6D3
100
AcDbEntity
  8
DRAFT
100
AcDbEllipse
 62
7
  6
CONTINUOUS
 10
-0.7605034575
 20
-22.2422941009
 30
0.0
 11
241.25
 21
-0.0
 31
0.0
 40
0.0349207695
 41
1.638724204
 42
1.638840598
  0
ELLIPSE
  5
6D4
100
AcDbEntity
  8
DRAFT
100
AcDbEllipse
 62
7
  6
CONTINUOUS
 10
-0.7605034575
 20
-3.3827058991
 30
0.0
 11
241.25
 21
-0.0
 31
0.0
 40
0.0349207695
 41
-1.638840598
 42
-1.6387242058
  0
ELLIPSE
  5
6D5
100
AcDbEntity
  8
ASSI
100
AcDbEllipse
 62
7
  6
CONTINUOUS
 10
-0.7605034575
 20
-3.3827058991
 30
0.0
 11
241.25
 21
-0.0
 31
0.0
 40
0.0349207695
 41
-1.5376829554
 42
-1.5372099859
  0
ELLIPSE
  5
6D6
100
AcDbEntity
  8
ASSI
100
AcDbEllipse
 62
7
  6
CONTINUOUS
 10
-0.7605034575
 20
-3.3827058991
 30
0.0
 11
241.25
 21
-0.0
 31
0.0
 40
0.0349207695
 41
-1.6043826677
 42
-1.6039096982
  0
ELLIPSE
  5
6D7
100
AcDbEntity
  8
DRAFT
100
AcDbEllipse
 62
7
  6
CONTINUOUS
 10
-0.7605034575
 20
-22.2422941009
 30
0.0
 11
241.25
 21
-0.0
 31
0.0
 40
0.0349207695
 41
1.5375228819
 42
1.5469547237
  0
ELLIPSE
  5
6D8
100
AcDbEntity
  8
DRAFT
100
AcDbEllipse
 62
7
  6
CONTINUOUS
 10
-0.7605034575
 20
-22.2422941009
 30
0.0
 11
241.25
 21
-0.0
 31
0.0
 40
0.0349207695
 41
1.5605418056
 42
1.581050848
  0
ELLIPSE
  5
6D9
100
AcDbEntity
  8
DRAFT
100
AcDbEllipse
 62
7
  6
CONTINUOUS
 10
-0.7605034575
 20
-22.2422941009
 30
0.0
 11
241.25
 21
-0.0
 31
0.0
 40
0.0349207695
 41
1.5946379298
 42
1.6040697717
  0
ELLIPSE
  5
6DA
100
AcDbEntity
  8
ASSI
100
AcDbEllipse
 62
7
  6
CONTINUOUS
 10
-0.7605034575
 20
-27.2422941009
 30
0.0
 11
241.25
 21
-0.0
 31
0.0
 40
0.0349207695
 41
1.5803663629
 42
1.5913393134
  0
ELLIPSE
  5
6DB
100
AcDbEntity
  8
ASSI
100
AcDbEllipse
 62
7
  6
CONTINUOUS
 10
-0.7605034575
 20
-27.2422941009
 30
0.0
 11
241.25
 21
-0.0
 31
0.0
 40
0.0349207695
 41
1.5991642279
 42
1.6060799249
  0
ELLIPSE
  5
6DC
100
AcDbEntity
  8
ASSI
100
AcDbEllipse
 62
7
  6
CONTINUOUS
 10
-0.7605034575
 20
-8.3827058991
 30
0.0
 11
241.25
 21
-0.0
 31
0.0
 40
0.0349207695
 41
-1.5907410713
 42
-1.5790061595
  0
ELLIPSE
  5
6DD
100
AcDbEntity
  8
ASSI
100
AcDbEllipse
 62
7
  6
CONTINUOUS
 10
-0.7605034575
 20
-8.3827058991
 30
0.0
 11
241.25
 21
-0.0
 31
0.0
 40
0.0349207695
 41
-1.6060799249
 42
-1.598729718
  0
ELLIPSE
  5
6DE
100
AcDbEntity
  8
ASSI
100
AcDbEllipse
 62
7
  6
CONTINUOUS
 10
-0.7605034575
 20
-10.8827058991
 30
0.0
 11
241.25
 21
-0.0
 31
0.0
 40
0.0349207695
 41
-1.5426959797
 42
-1.5355127287
  0
ELLIPSE
  5
6DF
100
AcDbEntity
  8
ASSI
100
AcDbEllipse
 62
7
  6
CONTINUOUS
 10
-0.7605034575
 20
-10.8827058991
 30
0.0
 11
241.25
 21
-0.0
 31
0.0
 40
0.0349207695
 41
-1.5620520904
 42
-1.5506217394
  0
ELLIPSE
  5
6E0
100
AcDbEntity
  8
DRAFT
100
AcDbEllipse
 62
7
  6
CONTINUOUS
 10
-0.7605034575
 20
-29.7422941009
 30
0.0
 11
241.25
 21
-0.0
 31
0.0
 40
0.0349207695
 41
1.5355127287
 42
1.5454865433
  0
ELLIPSE
  5
6E1
100
AcDbEntity
  8
DRAFT
100
AcDbEllipse
 62
7
  6
CONTINUOUS
 10
-0.7605034575
 20
-29.7422941009
 30
0.0
 11
241.25
 21
-0.0
 31
0.0
 40
0.0349207695
 41
1.5547285984
 42
1.5868640552
  0
ELLIPSE
  5
6E2
100
AcDbEntity
  8
DRAFT
100
AcDbEllipse
 62
7
  6
CONTINUOUS
 10
-0.7605034575
 20
-29.7422941009
 30
0.0
 11
241.25
 21
-0.0
 31
0.0
 40
0.0349207695
 41
1.5961061102
 42
1.6060799249
  0
ELLIPSE
  5
6E3
100
AcDbEntity
  8
ASSI
100
AcDbEllipse
 62
7
  6
CONTINUOUS
 10
-0.7605034575
 20
-10.8827058991
 30
0.0
 11
241.25
 21
-0.0
 31
0.0
 40
0.0349207695
 41
-1.5909709142
 42
-1.5795405631
  0
ELLIPSE
  5
6E4
100
AcDbEntity
  8
ASSI
100
AcDbEllipse
 62
7
  6
CONTINUOUS
 10
-0.7605034575
 20
-10.8827058991
 30
0.0
 11
241.25
 21
-0.0
 31
0.0
 40
0.0349207695
 41
-1.6060799249
 42
-1.5988966739
  0
ELLIPSE
  5
6E5
100
AcDbEntity
  8
ASSI
100
AcDbEllipse
 62
7
  6
CONTINUOUS
 10
-0.7605034575
 20
-8.3827058991
 30
0.0
 11
241.25
 21
-0.0
 31
0.0
 40
0.0349207695
 41
-1.5428629356
 42
-1.5355127287
  0
ELLIPSE
  5
6E6
100
AcDbEntity
  8
ASSI
100
AcDbEllipse
 62
7
  6
CONTINUOUS
 10
-0.7605034575
 20
-8.3827058991
 30
0.0
 11
241.25
 21
-0.0
 31
0.0
 40
0.0349207695
 41
-1.562586494
 42
-1.5508515823
  0
ELLIPSE
  5
6E7
100
AcDbEntity
  8
ASSI
100
AcDbEllipse
 62
7
  6
CONTINUOUS
 10
-0.7605034575
 20
-27.2422941009
 30
0.0
 11
241.25
 21
-0.0
 31
0.0
 40
0.0349207695
 41
1.5355127287
 42
1.5424284257
  0
ELLIPSE
  5
6E8
100
AcDbEntity
  8
ASSI
100
AcDbEllipse
 62
7
  6
CONTINUOUS
 10
-0.7605034575
 20
-27.2422941009
 30
0.0
 11
241.25
 21
-0.0
 31
0.0
 40
0.0349207695
 41
1.5502533402
 42
1.5612262907
  0
ELLIPSE
  5
6E9
100
AcDbEntity
  8
ASSI
100
AcDbEllipse
 62
7
  6
CONTINUOUS
 10
-0.7605034575
 20
-24.7422941009
 30
0.0
 11
241.25
 21
-0.0
 31
0.0
 40
0.0349207695
 41
7.8603456729
 42
7.8732467481
  0
ELLIPSE
  5
6EA
100
AcDbEntity
  8
ASSI
100
AcDbEllipse
 62
7
  6
CONTINUOUS
 10
-0.7605034575
 20
-24.7422941009
 30
0.0
 11
241.25
 21
-0.0
 31
0.0
 40
0.0349207695
 41
1.5982511343
 42
1.6060799249
  0
ELLIPSE
  5
6EB
100
AcDbEntity
  8
DRAFT
100
AcDbEllipse
 62
7
  6
CONTINUOUS
 10
-0.7605034575
 20
-5.8827058991
 30
0.0
 11
241.25
 21
-0.0
 31
0.0
 40
0.0349207695
 41
-1.5469083779
 42
-1.5365246437
  0
ELLIPSE
  5
6EC
100
AcDbEntity
  8
DRAFT
100
AcDbEllipse
 62
7
  6
CONTINUOUS
 10
-0.7605034575
 20
-5.8827058991
 30
0.0
 11
241.25
 21
-0.0
 31
0.0
 40
0.0349207695
 41
-1.5839814284
 42
-1.5576112252
  0
ELLIPSE
  5
6ED
100
AcDbEntity
  8
DRAFT
100
AcDbEllipse
 62
7
  6
CONTINUOUS
 10
-0.7605034575
 20
-5.8827058991
 30
0.0
 11
241.25
 21
-0.0
 31
0.0
 40
0.0349207695
 41
-1.6050680099
 42
-1.5946842757
  0
ELLIPSE
  5
6EE
100
AcDbEntity
  8
ASSI
100
AcDbEllipse
 62
7
  6
CONTINUOUS
 10
-0.7605034575
 20
-24.7422941009
 30
0.0
 11
241.25
 21
-0.0
 31
0.0
 40
0.0349207695
 41
1.5355127287
 42
1.5433415193
  0
ELLIPSE
  5
6EF
100
AcDbEntity
  8
ASSI
100
AcDbEllipse
 62
7
  6
CONTINUOUS
 10
-0.7605034575
 20
-24.7422941009
 30
0.0
 11
241.25
 21
-0.0
 31
0.0
 40
0.0349207695
 41
7.8347165198
 42
7.8476175951
  0
ELLIPSE
  5
6F0
100
AcDbEntity
  8
ASSI
100
AcDbEllipse
 62
7
  6
CONTINUOUS
 10
-0.7605034575
 20
-15.8827058991
 30
0.0
 11
241.25
 21
-0.0
 31
0.0
 40
0.0349207695
 41
-1.537682935
 42
-1.5368666763
  0
ELLIPSE
  5
6F1
100
AcDbEntity
  8
ASSI
100
AcDbEllipse
 62
7
  6
CONTINUOUS
 10
-0.7605034575
 20
-15.8827058991
 30
0.0
 11
241.25
 21
-0.0
 31
0.0
 40
0.0349207695
 41
-1.6047259773
 42
-1.6039097186
  0
ELLIPSE
  5
6F2
100
AcDbEntity
  8
DRAFT
100
AcDbEllipse
 62
7
  6
CONTINUOUS
 10
-0.7605034575
 20
-10.8827058991
 30
0.0
 11
241.25
 21
-0.0
 31
0.0
 40
0.0349207695
 41
-1.5335276316
 42
-1.5332668559
  0
ELLIPSE
  5
6F3
100
AcDbEntity
  8
DRAFT
100
AcDbEllipse
 62
7
  6
CONTINUOUS
 10
-0.7605034575
 20
-27.2422941009
 30
0.0
 11
241.25
 21
-0.0
 31
0.0
 40
0.0349207695
 41
1.5330694935
 42
1.5335276316
  0
ELLIPSE
  5
6F4
100
AcDbEntity
  8
DRAFT
100
AcDbEllipse
 62
7
  6
CONTINUOUS
 10
-0.7605034575
 20
-8.3827058991
 30
0.0
 11
241.25
 21
-0.0
 31
0.0
 40
0.0349207695
 41
-1.5335276316
 42
-1.5333924519
  0
ELLIPSE
  5
6F5
100
AcDbEntity
  8
ASSI
100
AcDbEllipse
 62
7
  6
CONTINUOUS
 10
-0.7605034575
 20
-32.2422941009
 30
0.0
 11
241.25
 21
-0.0
 31
0.0
 40
0.0349207695
 41
1.5369529741
 42
1.5376829406
  0
ELLIPSE
  5
6F6
100
AcDbEntity
  8
ASSI
100
AcDbEllipse
 62
7
  6
CONTINUOUS
 10
-0.7605034575
 20
-32.2422941009
 30
0.0
 11
241.25
 21
-0.0
 31
0.0
 40
0.0349207695
 41
1.603909713
 42
1.6046396795
  0
ELLIPSE
  5
6F7
100
AcDbEntity
  8
DRAFT
100
AcDbEllipse
 62
7
  6
CONTINUOUS
 10
-0.7605034575
 20
-13.3827058991
 30
0.0
 11
241.25
 21
-0.0
 31
0.0
 40
0.0349207695
 41
-1.5465905378
 42
-1.5361113628
  0
ELLIPSE
  5
6F8
100
AcDbEntity
  8
DRAFT
100
AcDbEllipse
 62
7
  6
CONTINUOUS
 10
-0.7605034575
 20
-13.3827058991
 30
0.0
 11
241.25
 21
-0.0
 31
0.0
 40
0.0349207695
 41
-1.5849836582
 42
-1.5566089954
  0
ELLIPSE
  5
6F9
100
AcDbEntity
  8
DRAFT
100
AcDbEllipse
 62
7
  6
CONTINUOUS
 10
-0.7605034575
 20
-13.3827058991
 30
0.0
 11
241.25
 21
-0.0
 31
0.0
 40
0.0349207695
 41
-1.6054812908
 42
-1.5950021157
  0
ELLIPSE
  5
6FA
100
AcDbEntity
  8
ASSI
100
AcDbEllipse
 62
7
  6
CONTINUOUS
 10
-0.7605034575
 20
-32.2422941009
 30
0.0
 11
241.25
 21
-0.0
 31
0.0
 40
0.0349207695
 41
1.6216743501
 42
1.6253006935
  0
ELLIPSE
  5
6FB
100
AcDbEntity
  8
DRAFT
100
AcDbEllipse
 62
7
  6
CONTINUOUS
 10
-0.7605034575
 20
-13.3827058991
 30
0.0
 11
241.25
 21
-0.0
 31
0.0
 40
0.0349207695
 41
-1.6193960238
 42
-1.6181049942
  0
ELLIPSE
  5
6FC
100
AcDbEntity
  8
DRAFT
100
AcDbEllipse
 62
7
  6
CONTINUOUS
 10
-14.1355034575
 20
-23.3868349696
 30
0.0
 11
-0.0
 21
2.4494162257
 31
0.0
 40
0.8661133393
 41
0.8320543179
 42
0.8518179158
  0
ELLIPSE
  5
6FD
100
AcDbEntity
  8
DRAFT
100
AcDbEllipse
 62
7
  6
CONTINUOUS
 10
-14.1355034575
 20
-23.3868349696
 30
0.0
 11
-0.0
 21
2.4494162257
 31
0.0
 40
0.8661133393
 41
-0.8551831869
 42
-0.8320543179
  0
ELLIPSE
  5
6FE
100
AcDbEntity
  8
DRAFT
100
AcDbEllipse
 62
7
  6
CONTINUOUS
 10
-0.7605034575
 20
-29.7422941009
 30
0.0
 11
240.75
 21
-0.0
 31
0.0
 40
0.0349207695
 41
1.6323258495
 42
1.63321691
  0
ELLIPSE
  5
6FF
100
AcDbEntity
  8
DRAFT
100
AcDbEllipse
 62
7
  6
CONTINUOUS
 10
-14.1355034575
 20
-21.3378401546
 30
0.0
 11
0.0
 21
1.6498223575
 31
0.0
 40
0.8661133393
 41
-4.7043953326
 42
-4.6822843167
  0
ELLIPSE
  5
700
100
AcDbEntity
  8
DRAFT
100
AcDbEllipse
 62
7
  6
CONTINUOUS
 10
-14.1355034575
 20
-21.3378401546
 30
0.0
 11
-0.0
 21
1.6498223575
 31
0.0
 40
0.8661133393
 41
-1.6009009905
 42
-1.57542413
  0
ELLIPSE
  5
701
100
AcDbEntity
  8
DRAFT
100
AcDbEllipse
 62
7
  6
CONTINUOUS
 10
-0.7605034575
 20
-29.7422941009
 30
0.0
 11
240.75
 21
-0.0
 31
0.0
 40
0.0349207695
 41
1.619533406
 42
1.6204369906
  0
ELLIPSE
  5
702
100
AcDbEntity
  8
DRAFT
100
AcDbEllipse
 62
7
  6
CONTINUOUS
 10
-0.7605034575
 20
-27.2422941009
 30
0.0
 11
240.75
 21
-0.0
 31
0.0
 40
0.0349207695
 41
1.6363678042
 42
1.6377899876
  0
ELLIPSE
  5
703
100
AcDbEntity
  8
DRAFT
100
AcDbEllipse
 62
7
  6
CONTINUOUS
 10
-0.7605034575
 20
-8.3827058991
 30
0.0
 11
240.75
 21
-0.0
 31
0.0
 40
0.0349207695
 41
-1.6377899876
 42
-1.6363677082
  0
ELLIPSE
  5
704
100
AcDbEntity
  8
DRAFT
100
AcDbEllipse
 62
7
  6
CONTINUOUS
 10
-0.7605034575
 20
-24.7422941009
 30
0.0
 11
240.75
 21
-0.0
 31
0.0
 40
0.0349207695
 41
1.6363677084
 42
1.6377899876
  0
ELLIPSE
  5
705
100
AcDbEntity
  8
DRAFT
100
AcDbEllipse
 62
7
  6
CONTINUOUS
 10
-15.1600008651
 20
-22.1625
 30
0.0
 11
2.0496192916
 21
0.0
 31
0.0
 40
0.8661133393
 41
-1.1734929918
 42
-1.1434404283
  0
ELLIPSE
  5
706
100
AcDbEntity
  8
DRAFT
100
AcDbEllipse
 62
7
  6
CONTINUOUS
 10
-15.1600008651
 20
-22.1625
 30
0.0
 11
2.0496192916
 21
0.0
 31
0.0
 40
0.8661133393
 41
1.1434404283
 42
1.1642399346
  0
ELLIPSE
  5
707
100
AcDbEntity
  8
DRAFT
100
AcDbEllipse
 62
7
  6
CONTINUOUS
 10
-13.11100605
 20
-22.1625
 30
0.0
 11
2.0496192916
 21
-0.0
 31
0.0
 40
0.8661133393
 41
-1.9981522253
 42
-1.9676239302
  0
ELLIPSE
  5
708
100
AcDbEntity
  8
DRAFT
100
AcDbEllipse
 62
7
  6
CONTINUOUS
 10
-13.11100605
 20
-22.1625
 30
0.0
 11
2.0496192916
 21
-0.0
 31
0.0
 40
0.8661133393
 41
1.9769102072
 42
1.9981522253
  0
ELLIPSE
  5
709
100
AcDbEntity
  8
RACCORDO
100
AcDbEllipse
 62
7
  6
CONTINUOUS
 10
-12.8855034575
 20
4.5691721818
 30
0.0
 11
0.1
 21
-0.0
 31
0.0
 40
0.0174550649
 41
3.1415926536
 42
4.7123889804
  0
ELLIPSE
  5
70A
100
AcDbEntity
  8
RACCORDO
100
AcDbEllipse
 62
7
  6
CONTINUOUS
 10
-17.0939516114
 20
-18.771818799
 30
0.0
 11
0.1414644378
 21
-0.1414644378
 31
0.0
 40
0.9996954599
 41
-0.7852458701
 42
0.7852458701
  0
ELLIPSE
  5
70B
100
AcDbEntity
  8
DRAFT
100
AcDbEllipse
 62
7
  6
CONTINUOUS
 10
-0.7605034575
 20
32.6279620496
 30
0.0
 11
191.5
 21
-0.0
 31
0.0
 40
0.0349207695
 41
-1.6110366988
 42
-1.5932123802
  0
ELLIPSE
  5
70C
100
AcDbEntity
  8
DRAFT
100
AcDbEllipse
 62
7
  6
CONTINUOUS
 10
-0.7605034575
 20
32.6279620496
 30
0.0
 11
191.5
 21
-0.0
 31
0.0
 40
0.0349207695
 41
-1.5483802734
 42
-1.5305559548
  0
ELLIPSE
  5
70D
100
AcDbEntity
  8
RACCORDO
100
AcDbEllipse
 62
7
  6
CONTINUOUS
 10
19.7401928389
 20
18.0368037036
 30
0.0
 11
-0.1068747912
 21
0.1068747912
 31
0.0
 40
0.9924325091
 41
2.3599925885
 42
3.9231927187
  0
ELLIPSE
  5
70E
100
AcDbEntity
  8
RACCORDO
100
AcDbEllipse
 62
7
  6
CONTINUOUS
 10
19.2388002461
 20
18.0368037036
 30
0.0
 11
0.1068747912
 21
0.1068747912
 31
0.0
 40
0.9924325091
 41
2.3599925885
 42
3.9231927187
  0
ELLIPSE
  5
70F
100
AcDbEntity
  8
RACCORDO
100
AcDbEllipse
 62
7
  6
CONTINUOUS
 10
19.7401928389
 20
21.6381962964
 30
0.0
 11
-0.1068747912
 21
-0.1068747912
 31
0.0
 40
0.9924325091
 41
2.3599925885
 42
3.9231927187
  0
ELLIPSE
  5
710
100
AcDbEntity
  8
RACCORDO
100
AcDbEllipse
 62
7
  6
CONTINUOUS
 10
19.2388002461
 20
21.6381962964
 30
0.0
 11
0.1068747912
 21
-0.1068747912
 31
0.0
 40
0.9924325091
 41
2.3599925885
 42
3.9231927187
  0
ELLIPSE
  5
711
100
AcDbEntity
  8
RACCORDO
100
AcDbEllipse
 62
7
  6
CONTINUOUS
 10
19.7401928389
 20
-21.9631962964
 30
0.0
 11
-0.1068747912
 21
0.1068747912
 31
0.0
 40
0.9924325091
 41
2.3599925885
 42
3.9231927187
  0
ELLIPSE
  5
712
100
AcDbEntity
  8
RACCORDO
100
AcDbEllipse
 62
7
  6
CONTINUOUS
 10
19.2388002461
 20
-21.9631962964
 30
0.0
 11
0.1068747912
 21
0.1068747912
 31
0.0
 40
0.9924325091
 41
2.3599925885
 42
3.9231927187
  0
ELLIPSE
  5
713
100
AcDbEntity
  8
DRAFT
100
AcDbEllipse
 62
7
  6
CONTINUOUS
 10
-0.7605034575
 20
21.2904620496
 30
0.0
 11
191.5
 21
-0.0
 31
0.0
 40
0.0349207695
 41
-1.6214666627
 42
-1.5201259909
  0
ELLIPSE
  5
714
100
AcDbEntity
  8
DRAFT
100
AcDbEllipse
 62
7
  6
CONTINUOUS
 10
-0.7605034575
 20
21.2904620496
 30
0.0
 11
191.5
 21
-0.0
 31
0.0
 40
0.0349207695
 41
-1.5013240915
 42
-1.4907524144
  0
ELLIPSE
  5
715
100
AcDbEntity
  8
DRAFT
100
AcDbEllipse
 62
7
  6
CONTINUOUS
 10
-0.7605034575
 20
21.2904620496
 30
0.0
 11
191.5
 21
-0.0
 31
0.0
 40
0.0349207695
 41
-1.6508402392
 42
-1.640268562
  0
ELLIPSE
  5
716
100
AcDbEntity
  8
DRAFT
100
AcDbEllipse
 62
7
  6
CONTINUOUS
 10
-0.7605034575
 20
1.3595379505
 30
0.0
 11
191.5
 21
-0.0
 31
0.0
 40
0.0349207695
 41
1.4907524144
 42
1.5015504005
  0
ELLIPSE
  5
717
100
AcDbEntity
  8
DRAFT
100
AcDbEllipse
 62
7
  6
CONTINUOUS
 10
-0.7605034575
 20
1.3595379505
 30
0.0
 11
191.5
 21
-0.0
 31
0.0
 40
0.0349207695
 41
1.5201259909
 42
1.6214666627
  0
ELLIPSE
  5
718
100
AcDbEntity
  8
DRAFT
100
AcDbEllipse
 62
7
  6
CONTINUOUS
 10
-0.7605034575
 20
1.3595379505
 30
0.0
 11
191.5
 21
-0.0
 31
0.0
 40
0.0349207695
 41
1.640268562
 42
1.6508402392
  0
ELLIPSE
  5
719
100
AcDbEntity
  8
RACCORDO
100
AcDbEllipse
 62
7
  6
CONTINUOUS
 10
19.2388002461
 20
-18.3618037036
 30
0.0
 11
0.1068747912
 21
-0.1068747912
 31
0.0
 40
0.9924325091
 41
2.3599925885
 42
3.9231927187
  0
ELLIPSE
  5
71A
100
AcDbEntity
  8
RACCORDO
100
AcDbEllipse
 62
7
  6
CONTINUOUS
 10
19.7401928389
 20
-18.3618037036
 30
0.0
 11
-0.1068747912
 21
-0.1068747912
 31
0.0
 40
0.9924325091
 41
2.3599925885
 42
3.9231927187
  0
ELLIPSE
  5
71B
100
AcDbEntity
  8
DRAFT
100
AcDbEllipse
 62
7
  6
CONTINUOUS
 10
-0.7605034575
 20
32.7779620496
 30
0.0
 11
191.5
 21
-0.0
 31
0.0
 40
0.0349207695
 41
-1.5305559548
 42
-1.5201259909
  0
ELLIPSE
  5
71C
100
AcDbEntity
  8
DRAFT
100
AcDbEllipse
 62
7
  6
CONTINUOUS
 10
-0.7605034575
 20
32.7779620496
 30
0.0
 11
191.5
 21
-0.0
 31
0.0
 40
0.0349207695
 41
-1.5013240915
 42
-1.4907524144
  0
ELLIPSE
  5
71D
100
AcDbEntity
  8
DRAFT
100
AcDbEllipse
 62
7
  6
CONTINUOUS
 10
-0.7605034575
 20
32.7779620496
 30
0.0
 11
191.5
 21
-0.0
 31
0.0
 40
0.0349207695
 41
-1.6214666627
 42
-1.6110366988
  0
ELLIPSE
  5
71E
100
AcDbEntity
  8
DRAFT
100
AcDbEllipse
 62
7
  6
CONTINUOUS
 10
-0.7605034575
 20
32.7779620496
 30
0.0
 11
191.5
 21
-0.0
 31
0.0
 40
0.0349207695
 41
-1.6508402392
 42
-1.640268562
  0
ELLIPSE
  5
71F
100
AcDbEntity
  8
DRAFT
100
AcDbEllipse
 62
7
  6
CONTINUOUS
 10
-0.7605034575
 20
12.8470379505
 30
0.0
 11
191.5
 21
-0.0
 31
0.0
 40
0.0349207695
 41
1.640268562
 42
1.6508402392
  0
ELLIPSE
  5
720
100
AcDbEntity
  8
DRAFT
100
AcDbEllipse
 62
7
  6
CONTINUOUS
 10
-0.7605034575
 20
12.8470379505
 30
0.0
 11
191.5
 21
-0.0
 31
0.0
 40
0.0349207695
 41
1.5201259909
 42
1.6214666627
  0
ELLIPSE
  5
721
100
AcDbEntity
  8
DRAFT
100
AcDbEllipse
 62
7
  6
CONTINUOUS
 10
-0.7605034575
 20
12.8470379505
 30
0.0
 11
191.5
 21
-0.0
 31
0.0
 40
0.0349207695
 41
1.4907524144
 42
1.5013240915
  0
ELLIPSE
  5
722
100
AcDbEntity
  8
DRAFT
100
AcDbEllipse
 62
7
  6
CONTINUOUS
 10
-0.7605034575
 20
32.7779620496
 30
0.0
 11
191.5
 21
-0.0
 31
0.0
 40
0.0349207695
 41
-1.5932123802
 42
-1.5483802734
  0
ENDSEC
  0
SECTION
  2
OBJECTS
  0
DICTIONARY
  5
C
100
AcDbDictionary
280
0
281
1
  3
ACAD_GROUP
350
D
  3
ACAD_MLINESTYLE
350
17
  3
ACAD_LAYOUT
350
1A
  3
ACAD_PLOTSETTINGS
350
19
  3
ACAD_PLOTSTYLENAME
350
E
  0
DICTIONARY
  5
D
102
{ACAD_REACTORS
330
C
102
}
100
AcDbDictionary
280
0
281
1
  0
ACDBDICTIONARYWDFLT
  5
E
102
{ACAD_REACTORS
330
C
102
}
100
AcDbDictionary
281
1
  3
Normal
350
F
100
AcDbDictionaryWithDefault
340
F
  0
DICTIONARY
  5
17
102
{ACAD_REACTORS
330
C
102
}
100
AcDbDictionary
280
0
281
1
  3
Standard
350
18
  0
DICTIONARY
  5
19
102
{ACAD_REACTORS
330
C
102
}
100
AcDbDictionary
281
1
  0
DICTIONARY
  5
1A
102
{ACAD_REACTORS
330
C
102
}
100
AcDbDictionary
281
1
  3
Model
350
723
  3
Layout1
350
724
  0
ACDBPLACEHOLDER
  5
F
102
{ACAD_REACTORS
330
E
102
}
  0
MLINESTYLE
  5
18
102
{ACAD_REACTORS
330
17
102
}
100
AcDbMlineStyle
  2
STANDARD
 70
0
  3

 62
256
 51
90.0
 52
90.0
 71
2
 49
0.5
 62
256
  6
BYLAYER
 49
-0.5
 62
256
  6
BYLAYER
  0
LAYOUT
  5
723
102
{ACAD_REACTORS
330
1A
102
}
100
AcDbPlotSettings
  1

  2
none_device
  4
ISO_A4_(297.00_x_210.00_MM)
  6

 40
0.0
 41
0.0
 42
0.0
 43
0.0
 44
297.0
 45
210.0
 46
0.0
 47
0.0
 48
0.0
 49
0.0
140
0.0
141
0.0
142
1.0
143
1.0
 70
1024
 72
1
 73
0
 74
0
  7

 75
0
147
1.0
148
0.0
149
0.0
100
AcDbLayout
  1
Model
 70
0
 71
0
 10
0.0
 20
0.0
 11
297.0
 21
210.0
 12
0.0
 22
0.0
 32
0.0
 14
0.0
 24
0.0
 34
0.0
 15
0.0
 25
0.0
 35
0.0
146
0.0
 13
0.0
 23
0.0
 33
0.0
 16
1.0
 26
0.0
 36
0.0
 17
0.0
 27
1.0
 37
0.0
 76
0
330
214
345
0
346
0
  0
LAYOUT
  5
724
102
{ACAD_REACTORS
330
1A
102
}
100
AcDbPlotSettings
  1

  2
none_device
  4
ISO_A4_(297.00_x_210.00_MM)
  6

 40
0.0
 41
0.0
 42
0.0
 43
0.0
 44
297.0
 45
210.0
 46
0.0
 47
0.0
 48
0.0
 49
0.0
140
0.0
141
0.0
142
1.0
143
1.0
 70
0
 72
1
 73
0
 74
0
  7

 75
0
147
1.0
148
0.0
149
0.0
100
AcDbLayout
  1
Layout1
 70
0
 71
1
 10
0.0
 20
0.0
 11
297.0
 21
210.0
 12
0.0
 22
0.0
 32
0.0
 14
0.0
 24
0.0
 34
0.0
 15
0.0
 25
0.0
 35
0.0
146
0.0
 13
0.0
 23
0.0
 33
0.0
 16
1.0
 26
0.0
 36
0.0
 17
0.0
 27
1.0
 37
0.0
 76
0
330
215
345
0
346
0
  0
ENDSEC
  0
EOF
