  0
SECTION
  2
HEADER
  9
$ACADVER
  1
AC1024
  9
$DWGCODEPAGE
  3
ANSI_1252
  9
$EXTMAX
 10
297.0
 20
210.0
 30
0.0
  9
$EXTMIN
 10
0.0
 20
0.0
 30
0.0
  9
$LIMMIN
 10
0.0
 20
0.0
  9
$LIMMAX
 10
297.0
 20
210.0
  9
$VIEWCTR
 10
148.5
 20
105.0
  9
$VIEWSIZE
 40
210.0
  9
$CLAYER
  8
0
  9
$LTSCALE
 40
16.335
  9
$CELTYPE
  6
BYLAYER
  9
$DIMSCALE
 40
1.0
  9
$DIMASZ
 40
3.0
  9
$DIMEXO
 40
0.5
  9
$DIMDLI
 40
11.286
  9
$DIMEXE
 40
1.5
  9
$DIMCEN
 40
2.673
  9
$DIMLFAC
 40
1.0
  9
$DIMBLK
  1
_FILLED
  9
$DIMALT
 70
0
  9
$DIMALTF
 40
0.0393700787
  9
$DIMTXT
 40
3.0
  9
$DIMTOL
 70
1
  9
$DIMLIM
 70
0
  9
$DIMTFAC
 40
1.0
  9
$DIMTP
 40
0.01
  9
$DIMTM
 40
0.01
  9
$DIMGAP
 40
0.625
  9
$DIMDSEP
 70
44
  9
$AUNITS
 70
0
  9
$PDMODE
 70
3
  9
$PDSIZE
 40
3.0
  9
$HANDSEED
  5
816
  9
$TILEMODE
 70
1
  9
$MEASUREMENT
 70
1
  9
$INSUNITS
 70
4
  0
ENDSEC
  0
SECTION
  2
CLASSES
  0
CLASS
  1
ACDBDICTIONARYWDFLT
  2
AcDbDictionaryWithDefault
  3
AutoCAD 2000
 90
0
 91
1
280
0
281
0
  0
CLASS
  1
ACDBPLACEHOLDER
  2
AcDbPlaceHolder
  3
AutoCAD 2000
 90
0
 91
1
280
0
281
0
  0
CLASS
  1
LAYOUT
  2
AcDbLayout
  3
AutoCAD 2000
 90
0
 91
0
280
0
281
0
  0
ENDSEC
  0
SECTION
  2
TABLES
  0
TABLE
  2
VPORT
  5
8
100
AcDbSymbolTable
 70
2
  0
VPORT
  5
1F4
100
AcDbSymbolTableRecord
100
AcDbViewportTableRecord
  2
*ACTIVE
 70
0
 10
0.0
 20
0.0
 11
1.0
 21
1.0
 12
148.5
 22
105.0
 13
0.0
 23
0.0
 14
1.0
 24
1.0
 15
0.0
 25
0.0
 16
0.0
 26
0.0
 36
1.0
 17
0.0
 27
0.0
 37
0.0
 40
210.0
 41
1.4142857143
 42
50.0
 43
0.0
 44
0.0
 50
0.0
 51
0.0
 71
0
 72
100
 73
1
 74
1
 75
0
 76
0
 77
0
 78
0
  0
ENDTAB
  0
TABLE
  2
LTYPE
  5
5
100
AcDbSymbolTable
 70
6
  0
LTYPE
  5
14
100
AcDbSymbolTableRecord
100
AcDbLinetypeTableRecord
  2
BYBLOCK
 70
0
  3

 72
65
 73
0
 40
0.0
  0
LTYPE
  5
15
100
AcDbSymbolTableRecord
100
AcDbLinetypeTableRecord
  2
BYLAYER
 70
0
  3

 72
65
 73
0
 40
0.0
  0
LTYPE
  5
16
100
AcDbSymbolTableRecord
100
AcDbLinetypeTableRecord
  2
CONTINUOUS
 70
64
  3
Solid line
 72
65
 73
0
 40
0.0
  0
LTYPE
  5
1F5
100
AcDbSymbolTableRecord
100
AcDbLinetypeTableRecord
  2
CENTER
 70
64
  3
____ _ ____ _ ____ _ ____ _ ____ _ ____ _ ____
 72
65
 73
4
 40
0.6
 49
0.375
 74
0
 49
-0.075
 74
0
 49
0.075
 74
0
 49
-0.075
 74
0
  0
LTYPE
  5
1F6
100
AcDbSymbolTableRecord
100
AcDbLinetypeTableRecord
  2
HIDDEN
 70
64
  3
- - - - - - - - - - - - - - - - - - - -
 72
65
 73
2
 40
0.2
 49
0.1
 74
0
 49
-0.1
 74
0
  0
LTYPE
  5
1F7
100
AcDbSymbolTableRecord
100
AcDbLinetypeTableRecord
  2
PHANTOM
 70
64
  3
_____ _ _ _____ _ _ _____ _ _ _____
 72
65
 73
6
 40
0.8
 49
0.45
 74
0
 49
-0.05
 74
0
 49
0.1
 74
0
 49
-0.05
 74
0
 49
0.1
 74
0
 49
-0.05
 74
0
  0
LTYPE
  5
1F8
100
AcDbSymbolTableRecord
100
AcDbLinetypeTableRecord
  2
DOT
 70
64
  3
. . . . . . . . . . . . . . . . . . . .
 72
65
 73
2
 40
0.2
 49
0.1
 74
0
 49
-0.1
 74
0
  0
LTYPE
  5
1F9
100
AcDbSymbolTableRecord
100
AcDbLinetypeTableRecord
  2
DASHED
 70
64
  3
- - - - - - - - - - - - - - - - - - - -
 72
65
 73
2
 40
0.2
 49
0.1
 74
0
 49
-0.1
 74
0
  0
ENDTAB
  0
TABLE
  2
LAYER
  5
2
100
AcDbSymbolTable
 70
36
  0
LAYER
  5
10
100
AcDbSymbolTableRecord
100
AcDbLayerTableRecord
  2
0
 70
0
 62
7
  6
CONTINUOUS
370
-3
390
F
  0
LAYER
  5
1FA
100
AcDbSymbolTableRecord
100
AcDbLayerTableRecord
  2
DEFAULT_1
 70
0
 62
7
  6
CENTER
370
-3
390
F
  0
LAYER
  5
1FB
100
AcDbSymbolTableRecord
100
AcDbLayerTableRecord
  2
DEFAULT_2
 70
0
 62
7
  6
HIDDEN
370
-3
390
F
  0
LAYER
  5
1FC
100
AcDbSymbolTableRecord
100
AcDbLayerTableRecord
  2
DEFAULT_3
 70
0
 62
7
  6
PHANTOM
370
-3
390
F
  0
LAYER
  5
1FD
100
AcDbSymbolTableRecord
100
AcDbLayerTableRecord
  2
ASSI
 70
0
 62
7
  6
CONTINUOUS
370
-3
390
F
  0
LAYER
  5
1FE
100
AcDbSymbolTableRecord
100
AcDbLayerTableRecord
  2
COLOR1
 70
0
 62
7
  6
CONTINUOUS
370
-3
390
F
  0
LAYER
  5
1FF
100
AcDbSymbolTableRecord
100
AcDbLayerTableRecord
  2
COLOR15
 70
0
 62
7
  6
CONTINUOUS
370
-3
390
F
  0
LAYER
  5
200
100
AcDbSymbolTableRecord
100
AcDbLayerTableRecord
  2
COLOR16
 70
0
 62
7
  6
CONTINUOUS
370
-3
390
F
  0
LAYER
  5
201
100
AcDbSymbolTableRecord
100
AcDbLayerTableRecord
  2
COORDINATE
 70
0
 62
7
  6
CONTINUOUS
370
-3
390
F
  0
LAYER
  5
202
100
AcDbSymbolTableRecord
100
AcDbLayerTableRecord
  2
COPY_PUBLISH
 70
0
 62
7
  6
CONTINUOUS
370
-3
390
F
  0
LAYER
  5
203
100
AcDbSymbolTableRecord
100
AcDbLayerTableRecord
  2
COSMETICI
 70
0
 62
7
  6
CONTINUOUS
370
-3
390
F
  0
LAYER
  5
204
100
AcDbSymbolTableRecord
100
AcDbLayerTableRecord
  2
CURVE
 70
0
 62
7
  6
CONTINUOUS
370
-3
390
F
  0
LAYER
  5
205
100
AcDbSymbolTableRecord
100
AcDbLayerTableRecord
  2
DRAFT
 70
0
 62
7
  6
CONTINUOUS
370
-3
390
F
  0
LAYER
  5
206
100
AcDbSymbolTableRecord
100
AcDbLayerTableRecord
  2
IMPORT_IGES
 70
0
 62
7
  6
CONTINUOUS
370
-3
390
F
  0
LAYER
  5
207
100
AcDbSymbolTableRecord
100
AcDbLayerTableRecord
  2
INTF_1
 70
0
 62
7
  6
CONTINUOUS
370
-3
390
F
  0
LAYER
  5
208
100
AcDbSymbolTableRecord
100
AcDbLayerTableRecord
  2
INTF_YELLOW
 70
0
 62
7
  6
CONTINUOUS
370
-3
390
F
  0
LAYER
  5
209
100
AcDbSymbolTableRecord
100
AcDbLayerTableRecord
  2
NOTE
 70
0
 62
7
  6
CONTINUOUS
370
-3
390
F
  0
LAYER
  5
20A
100
AcDbSymbolTableRecord
100
AcDbLayerTableRecord
  2
PIANI
 70
0
 62
7
  6
CONTINUOUS
370
-3
390
F
  0
LAYER
  5
20B
100
AcDbSymbolTableRecord
100
AcDbLayerTableRecord
  2
PUNTI
 70
0
 62
7
  6
CONTINUOUS
370
-3
390
F
  0
LAYER
  5
20C
100
AcDbSymbolTableRecord
100
AcDbLayerTableRecord
  2
RACCORDO
 70
0
 62
7
  6
CONTINUOUS
370
-3
390
F
  0
LAYER
  5
20D
100
AcDbSymbolTableRecord
100
AcDbLayerTableRecord
  2
SIMBOLI
 70
0
 62
7
  6
CONTINUOUS
370
-3
390
F
  0
LAYER
  5
20E
100
AcDbSymbolTableRecord
100
AcDbLayerTableRecord
  2
SMUSSO
 70
0
 62
7
  6
CONTINUOUS
370
-3
390
F
  0
LAYER
  5
20F
100
AcDbSymbolTableRecord
100
AcDbLayerTableRecord
  2
SNAPLINE
 70
0
 62
7
  6
CONTINUOUS
370
-3
390
F
  0
LAYER
  5
210
100
AcDbSymbolTableRecord
100
AcDbLayerTableRecord
  2
SUPERFICI
 70
0
 62
7
  6
CONTINUOUS
370
-3
390
F
  0
LAYER
  5
211
100
AcDbSymbolTableRecord
100
AcDbLayerTableRecord
  2
TRASH
 70
0
 62
7
  6
CONTINUOUS
370
-3
390
F
  0
LAYER
  5
212
100
AcDbSymbolTableRecord
100
AcDbLayerTableRecord
  2
WHITE
 70
0
 62
7
  6
CONTINUOUS
370
-3
390
F
  0
ENDTAB
  0
TABLE
  2
STYLE
  5
3
100
AcDbSymbolTable
 70
1
  0
STYLE
  5
11
100
AcDbSymbolTableRecord
100
AcDbTextStyleTableRecord
  2
STANDARD
 70
0
 40
0.0
 41
0.8
 50
0.0
 71
0
 42
0.2
  3
txt
  4

  0
STYLE
  5
213
100
AcDbSymbolTableRecord
100
AcDbTextStyleTableRecord
  2
TEXTSTYLE_1
 70
0
 40
0.0
 41
0.8
 50
0.0
 71
0
 42
0.2
  3
gdt
  4

  0
ENDTAB
  0
TABLE
  2
VIEW
  5
6
100
AcDbSymbolTable
 70
0
  0
ENDTAB
  0
TABLE
  2
UCS
  5
7
100
AcDbSymbolTable
 70
0
  0
ENDTAB
  0
TABLE
  2
APPID
  5
9
100
AcDbSymbolTable
 70
1
  0
APPID
  5
214
100
AcDbSymbolTableRecord
100
AcDbRegAppTableRecord
  2
ACAD
 70
0
  0
ENDTAB
  0
TABLE
  2
BLOCK_RECORD
  5
1
100
AcDbSymbolTable
 70
0
  0
BLOCK_RECORD
  5
215
100
AcDbSymbolTableRecord
100
AcDbBlockTableRecord
  2
*Model_Space
  0
BLOCK_RECORD
  5
216
100
AcDbSymbolTableRecord
100
AcDbBlockTableRecord
  2
*Paper_Space
  0
BLOCK_RECORD
  5
217
100
AcDbSymbolTableRecord
100
AcDbBlockTableRecord
  2
_FILLED
  0
ENDTAB
  0
TABLE
  2
DIMSTYLE
  5
A
100
AcDbSymbolTable
 70
1
100
AcDbDimStyleTable
 71
0
  0
DIMSTYLE
105
218
100
AcDbSymbolTableRecord
100
AcDbDimStyleTableRecord
  2
STANDARD
 70
0
  3

  4

 40
1.0
 41
3.0
 42
0.5
 43
0.38
 44
1.5
 45
0.0
 46
0.0
 47
0.01
 48
0.01
140
3.0
141
0.09
142
0.0
143
25.4
144
1.0
145
0.0
146
1.0
147
0.625
 71
1.0
 72
0.0
 73
0
 74
0
 75
0
 76
0
 77
1
 78
8
 79
2
170
0
171
1
172
0
173
0
174
0
175
0
176
0
177
0
178
0
270
2
179
2
271
2
272
2
273
2
274
2
275
0
280
0
281
0
282
0
283
1
284
8
285
0
286
0
287
3
288
0
340
11
278
44
341
217
342
217
343
217
344
217
  0
ENDTAB
  0
ENDSEC
  0
SECTION
  2
BLOCKS
  0
BLOCK
  5
20
100
AcDbEntity
  8
0
100
AcDbBlockBegin
  2
*Model_Space
 70
0
 10
0.0
 20
0.0
 30
0.0
  3
*Model_Space
  1

  0
ENDBLK
  5
21
100
AcDbEntity
  8
0
100
AcDbBlockEnd
  0
BLOCK
  5
1C
100
AcDbEntity
  8
0
100
AcDbBlockBegin
  2
*Paper_Space
 70
0
 10
0.0
 20
0.0
 30
0.0
  3
*Paper_Space
  1

  0
ENDBLK
  5
1D
100
AcDbEntity
  8
0
100
AcDbBlockEnd
  0
BLOCK
  5
219
100
AcDbEntity
  8
0
100
AcDbBlockBegin
  2
_FILLED
 70
64
 10
0.0
 20
0.0
  3
_FILLED
  1

  0
SOLID
  5
21A
100
AcDbEntity
  8
0
  6
BYBLOCK
 62
0
100
AcDbTrace
 10
0.0
 20
0.0
 11
-1.0
 21
0.3166666667
 12
-1.0
 22
-0.3166666667
 13
-1.0
 23
-0.3166666667
  0
ENDBLK
  5
21B
100
AcDbEntity
  8
0
  6
BYBLOCK
 62
0
100
AcDbBlockEnd
  0
ENDSEC
  0
SECTION
  2
ENTITIES
  0
LINE
  5
21C
100
AcDbEntity
  8
DRAFT
100
AcDbLine
 62
7
  6
CONTINUOUS
 10
-18.1355034575
 20
26.2125
 11
-18.121449374
 21
26.2265540835
  0
LINE
  5
21D
100
AcDbEntity
  8
DRAFT
100
AcDbLine
 62
7
  6
CONTINUOUS
 10
-14.0332019577
 20
26.1273014999
 11
-14.0537374254
 21
26.1067660322
  0
LINE
  5
21E
100
AcDbEntity
  8
DRAFT
100
AcDbLine
 62
7
  6
CONTINUOUS
 10
-14.0332019577
 20
25.4773014999
 11
-14.0537374254
 21
25.4567660322
  0
LINE
  5
21F
100
AcDbEntity
  8
DRAFT
100
AcDbLine
 62
7
  6
CONTINUOUS
 10
-11.1355034575
 20
28.0125
 11
-11.1149937562
 21
28.0330097013
  0
LINE
  5
220
100
AcDbEntity
  8
DRAFT
100
AcDbLine
 62
7
  6
CONTINUOUS
 10
16.4364811735
 20
-27.9591329355
 11
16.4754627522
 21
-27.9572634805
  0
LINE
  5
221
100
AcDbEntity
  8
DRAFT
100
AcDbLine
 62
7
  6
CONTINUOUS
 10
16.0864811735
 20
-27.9591329355
 11
16.1254627522
 21
-27.9572634805
  0
LINE
  5
222
100
AcDbEntity
  8
DRAFT
100
AcDbLine
 62
7
  6
CONTINUOUS
 10
-17.5135188265
 20
-27.9591329355
 11
-17.4745372478
 21
-27.9572634805
  0
LINE
  5
223
100
AcDbEntity
  8
DRAFT
100
AcDbLine
 62
7
  6
CONTINUOUS
 10
-17.8635188265
 20
-27.9591329355
 11
-17.8245372478
 21
-27.9572634805
  0
LINE
  5
224
100
AcDbEntity
  8
RACCORDO
100
AcDbLine
 62
7
  6
CONTINUOUS
 10
-19.2605415337
 20
-28.7875
 11
18.4895346187
 21
-28.7875
  0
LINE
  5
225
100
AcDbEntity
  8
RACCORDO
100
AcDbLine
 62
7
  6
CONTINUOUS
 10
18.1894965425
 20
-28.7813907273
 11
-19.254432261
 21
-28.7813907273
  0
LINE
  5
226
100
AcDbEntity
  8
RACCORDO
100
AcDbLine
 62
7
  6
CONTINUOUS
 10
18.1894965425
 20
-28.7726631948
 11
18.4746978135
 21
-28.7726631948
  0
LINE
  5
227
100
AcDbEntity
  8
DRAFT
100
AcDbLine
 62
7
  6
CONTINUOUS
 10
17.1144965425
 20
-27.9686092727
 11
-18.6355034575
 21
-27.9686092727
  0
LINE
  5
228
100
AcDbEntity
  8
DRAFT
100
AcDbLine
 62
7
  6
CONTINUOUS
 10
-18.6355034575
 20
-27.9572634805
 11
-17.9964696672
 21
-27.9572634805
  0
LINE
  5
229
100
AcDbEntity
  8
DRAFT
100
AcDbLine
 62
7
  6
CONTINUOUS
 10
-17.8245372478
 20
-27.9572634805
 11
-17.6464696672
 21
-27.9572634805
  0
LINE
  5
22A
100
AcDbEntity
  8
RACCORDO
100
AcDbLine
 62
7
  6
CONTINUOUS
 10
15.9535303328
 20
-27.9572634805
 11
15.4342980992
 21
-27.9572634805
  0
LINE
  5
22B
100
AcDbEntity
  8
DRAFT
100
AcDbLine
 62
7
  6
CONTINUOUS
 10
16.1254627522
 20
-27.9572634805
 11
16.3035303328
 21
-27.9572634805
  0
LINE
  5
22C
100
AcDbEntity
  8
DRAFT
100
AcDbLine
 62
7
  6
CONTINUOUS
 10
16.4754627522
 20
-27.9572634805
 11
17.1144965425
 21
-27.9572634805
  0
LINE
  5
22D
100
AcDbEntity
  8
RACCORDO
100
AcDbLine
 62
7
  6
CONTINUOUS
 10
-16.9553050142
 20
-27.9572634805
 11
-17.4745372478
 21
-27.9572634805
  0
LINE
  5
22E
100
AcDbEntity
  8
RACCORDO
100
AcDbLine
 62
7
  6
CONTINUOUS
 10
13.6894584663
 20
-27.9406811688
 11
12.7895346187
 21
-27.9406811688
  0
LINE
  5
22F
100
AcDbEntity
  8
RACCORDO
100
AcDbLine
 62
7
  6
CONTINUOUS
 10
9.6894584663
 20
-27.9406811688
 11
8.7895346187
 21
-27.9406811688
  0
LINE
  5
230
100
AcDbEntity
  8
RACCORDO
100
AcDbLine
 62
7
  6
CONTINUOUS
 10
5.6894584663
 20
-27.9406811688
 11
4.7895346187
 21
-27.9406811688
  0
LINE
  5
231
100
AcDbEntity
  8
RACCORDO
100
AcDbLine
 62
7
  6
CONTINUOUS
 10
1.4656056862
 20
-27.9406811688
 11
0.6895193882
 21
-27.9406811688
  0
LINE
  5
232
100
AcDbEntity
  8
RACCORDO
100
AcDbLine
 62
7
  6
CONTINUOUS
 10
-2.2105263032
 20
-27.9406811688
 11
-2.9866126012
 21
-27.9406811688
  0
LINE
  5
233
100
AcDbEntity
  8
RACCORDO
100
AcDbLine
 62
7
  6
CONTINUOUS
 10
-6.3105415337
 20
-27.9406811688
 11
-7.2104653813
 21
-27.9406811688
  0
LINE
  5
234
100
AcDbEntity
  8
RACCORDO
100
AcDbLine
 62
7
  6
CONTINUOUS
 10
-10.3105415337
 20
-27.9406811688
 11
-11.2104653813
 21
-27.9406811688
  0
LINE
  5
235
100
AcDbEntity
  8
RACCORDO
100
AcDbLine
 62
7
  6
CONTINUOUS
 10
-14.3105415337
 20
-27.9406811688
 11
-15.2104653813
 21
-27.9406811688
  0
LINE
  5
236
100
AcDbEntity
  8
ASSI
100
AcDbLine
 62
7
  6
CONTINUOUS
 10
-17.1355034575
 20
-27.9375
 11
15.6144965425
 21
-27.9375
  0
LINE
  5
237
100
AcDbEntity
  8
RACCORDO
100
AcDbLine
 62
250
  6
CONTINUOUS
 10
-17.1675263932
 20
-27.6695610119
 11
-17.1355034575
 21
-27.6695610119
  0
LINE
  5
238
100
AcDbEntity
  8
RACCORDO
100
AcDbLine
 62
250
  6
CONTINUOUS
 10
15.6144965425
 20
-27.6695610119
 11
15.6465194782
 21
-27.6695610119
  0
LINE
  5
239
100
AcDbEntity
  8
RACCORDO
100
AcDbLine
 62
250
  6
CONTINUOUS
 10
-17.1675263932
 20
-27.0298293864
 11
-17.1355034575
 21
-27.0298293864
  0
LINE
  5
23A
100
AcDbEntity
  8
RACCORDO
100
AcDbLine
 62
250
  6
CONTINUOUS
 10
15.6144965425
 20
-27.0298293864
 11
15.6465194782
 21
-27.0298293864
  0
LINE
  5
23B
100
AcDbEntity
  8
DRAFT
100
AcDbLine
 62
7
  6
CONTINUOUS
 10
-17.9964696672
 20
-27.9572634805
 11
-17.9574880886
 21
-27.9591329355
  0
LINE
  5
23C
100
AcDbEntity
  8
DRAFT
100
AcDbLine
 62
7
  6
CONTINUOUS
 10
-17.6464696672
 20
-27.9572634805
 11
-17.6074880886
 21
-27.9591329355
  0
LINE
  5
23D
100
AcDbEntity
  8
DRAFT
100
AcDbLine
 62
7
  6
CONTINUOUS
 10
15.9535303328
 20
-27.9572634805
 11
15.9925119114
 21
-27.9591329355
  0
LINE
  5
23E
100
AcDbEntity
  8
DRAFT
100
AcDbLine
 62
7
  6
CONTINUOUS
 10
16.3035303328
 20
-27.9572634805
 11
16.3425119114
 21
-27.9591329355
  0
LINE
  5
23F
100
AcDbEntity
  8
RACCORDO
100
AcDbLine
 62
250
  6
CONTINUOUS
 10
-17.1886846264
 20
-26.9875000232
 11
-17.1675263932
 21
-27.0298293864
  0
LINE
  5
240
100
AcDbEntity
  8
DRAFT
100
AcDbLine
 62
7
  6
CONTINUOUS
 10
-16.0725496602
 20
19.5129537973
 11
-16.1105034575
 21
19.475
  0
LINE
  5
241
100
AcDbEntity
  8
DRAFT
100
AcDbLine
 62
7
  6
CONTINUOUS
 10
-8.4332019577
 20
26.1273014999
 11
-8.4644551433
 21
26.0960483142
  0
LINE
  5
242
100
AcDbEntity
  8
DRAFT
100
AcDbLine
 62
7
  6
CONTINUOUS
 10
-8.4332019577
 20
25.9773014999
 11
-8.4644551433
 21
25.9460483142
  0
LINE
  5
243
100
AcDbEntity
  8
DRAFT
100
AcDbLine
 62
7
  6
CONTINUOUS
 10
0.289802524
 20
27.10625
 11
0.2394965425
 21
27.0861705576
  0
LINE
  5
244
100
AcDbEntity
  8
DRAFT
100
AcDbLine
 62
7
  6
CONTINUOUS
 10
0.3291724226
 20
26.1273014999
 11
0.2394965425
 21
26.0915077111
  0
LINE
  5
245
100
AcDbEntity
  8
RACCORDO
100
AcDbLine
 62
250
  6
CONTINUOUS
 10
15.6144965425
 20
-26.0951706136
 11
15.6465194782
 21
-26.0951706136
  0
LINE
  5
246
100
AcDbEntity
  8
RACCORDO
100
AcDbLine
 62
250
  6
CONTINUOUS
 10
-17.1355034575
 20
-26.0951706136
 11
-17.1675263932
 21
-26.0951706136
  0
LINE
  5
247
100
AcDbEntity
  8
DRAFT
100
AcDbLine
 62
7
  6
CONTINUOUS
 10
18.0949021685
 20
-25.642905626
 11
17.1144965425
 21
-25.642905626
  0
LINE
  5
248
100
AcDbEntity
  8
DRAFT
100
AcDbLine
 62
7
  6
CONTINUOUS
 10
17.1144965425
 20
-25.5515540834
 11
16.6144965425
 21
-25.5515540834
  0
LINE
  5
249
100
AcDbEntity
  8
DRAFT
100
AcDbLine
 62
7
  6
CONTINUOUS
 10
16.6144965425
 20
-25.5375
 11
17.9894965425
 21
-25.5375
  0
LINE
  5
24A
100
AcDbEntity
  8
DRAFT
100
AcDbLine
 62
7
  6
CONTINUOUS
 10
17.9894965425
 20
-24.7875
 11
16.6144965425
 21
-24.7875
  0
LINE
  5
24B
100
AcDbEntity
  8
DRAFT
100
AcDbLine
 62
7
  6
CONTINUOUS
 10
17.1144965425
 20
-24.7734459165
 11
16.6144965425
 21
-24.7734459165
  0
LINE
  5
24C
100
AcDbEntity
  8
DRAFT
100
AcDbLine
 62
7
  6
CONTINUOUS
 10
18.0949021685
 20
-24.6820943739
 11
17.1144965425
 21
-24.6820943739
  0
LINE
  5
24D
100
AcDbEntity
  8
RACCORDO
100
AcDbLine
 62
250
  6
CONTINUOUS
 10
15.6144965425
 20
-24.5298293864
 11
15.6465194782
 21
-24.5298293864
  0
LINE
  5
24E
100
AcDbEntity
  8
RACCORDO
100
AcDbLine
 62
250
  6
CONTINUOUS
 10
-17.1355034575
 20
-24.5298293864
 11
-17.1675263932
 21
-24.5298293864
  0
LINE
  5
24F
100
AcDbEntity
  8
RACCORDO
100
AcDbLine
 62
7
  6
CONTINUOUS
 10
-10.278127008
 20
-24.286389079
 11
-10.0838089844
 21
-24.2863890773
  0
LINE
  5
250
100
AcDbEntity
  8
DRAFT
100
AcDbLine
 62
7
  6
CONTINUOUS
 10
8.7571200935
 20
-24.2863890773
 11
8.5628020694
 21
-24.2863890773
  0
LINE
  5
251
100
AcDbEntity
  8
RACCORDO
100
AcDbLine
 62
7
  6
CONTINUOUS
 10
7.4161910156
 20
-24.2863890773
 11
7.3933405804
 21
-24.2863890773
  0
LINE
  5
252
100
AcDbEntity
  8
RACCORDO
100
AcDbLine
 62
7
  6
CONTINUOUS
 10
-8.9143474956
 20
-24.2863890773
 11
-8.9371979306
 21
-24.2863890773
  0
LINE
  5
253
100
AcDbEntity
  8
DRAFT
100
AcDbLine
 62
7
  6
CONTINUOUS
 10
8.7700092339
 20
-24.2375
 11
8.5816325066
 21
-24.2375
  0
LINE
  5
254
100
AcDbEntity
  8
RACCORDO
100
AcDbLine
 62
7
  6
CONTINUOUS
 10
7.3973605784
 20
-24.2375
 11
7.2089838511
 21
-24.2375
  0
LINE
  5
255
100
AcDbEntity
  8
RACCORDO
100
AcDbLine
 62
7
  6
CONTINUOUS
 10
-8.7299907661
 20
-24.2375
 11
-8.9183674934
 21
-24.2375
  0
LINE
  5
256
100
AcDbEntity
  8
RACCORDO
100
AcDbLine
 62
7
  6
CONTINUOUS
 10
-10.1026394216
 20
-24.2375
 11
-10.2910161489
 21
-24.2375
  0
LINE
  5
257
100
AcDbEntity
  8
0
100
AcDbLine
 62
7
  6
CONTINUOUS
 10
-21.9354793161
 20
-24.0125
 11
-19.1291544792
 21
-24.0125
  0
LINE
  5
258
100
AcDbEntity
  8
DRAFT
100
AcDbLine
 62
7
  6
CONTINUOUS
 10
-17.1886846264
 20
-18.9718492646
 11
-17.205266938
 21
-18.9552669529
  0
LINE
  5
259
100
AcDbEntity
  8
RACCORDO
100
AcDbLine
 62
250
  6
CONTINUOUS
 10
-17.1104729965
 20
-18.9552669529
 11
-17.0938906849
 21
-18.9718492646
  0
LINE
  5
25A
100
AcDbEntity
  8
RACCORDO
100
AcDbLine
 62
250
  6
CONTINUOUS
 10
-16.9105034575
 20
-18.7552974139
 11
-16.8939211458
 21
-18.7718797256
  0
LINE
  5
25B
100
AcDbEntity
  8
RACCORDO
100
AcDbLine
 62
250
  6
CONTINUOUS
 10
-17.1886846264
 20
-24.4875000232
 11
-17.1675263932
 21
-24.5298293864
  0
LINE
  5
25C
100
AcDbEntity
  8
RACCORDO
100
AcDbLine
 62
250
  6
CONTINUOUS
 10
-17.1886846264
 20
-21.9875000232
 11
-17.1675263932
 21
-22.0298293864
  0
LINE
  5
25D
100
AcDbEntity
  8
RACCORDO
100
AcDbLine
 62
250
  6
CONTINUOUS
 10
-17.1886846264
 20
-19.4875000232
 11
-17.1651216949
 21
-19.5346402487
  0
LINE
  5
25E
100
AcDbEntity
  8
0
100
AcDbLine
 62
7
  6
CONTINUOUS
 10
-21.9355034575
 20
-24.0125
 11
-21.9355034575
 21
-22.0125
  0
LINE
  5
25F
100
AcDbEntity
  8
0
100
AcDbLine
 62
7
  6
CONTINUOUS
 10
-21.9355034575
 20
16.9875
 11
-21.9355034575
 21
18.9875
  0
LINE
  5
260
100
AcDbEntity
  8
DRAFT
100
AcDbLine
 62
7
  6
CONTINUOUS
 10
-19.0043941848
 20
26.3179056261
 11
-19.0105034575
 21
26.2687163339
  0
LINE
  5
261
100
AcDbEntity
  8
DRAFT
100
AcDbLine
 62
7
  6
CONTINUOUS
 10
-19.0105034575
 20
25.4062836661
 11
-19.0035214315
 21
25.4625
  0
LINE
  5
262
100
AcDbEntity
  8
RACCORDO
100
AcDbLine
 62
7
  6
CONTINUOUS
 10
-11.1385056897
 20
27.0976246479
 11
-11.1546898851
 21
27.0652463922
  0
LINE
  5
263
100
AcDbEntity
  8
DRAFT
100
AcDbLine
 62
7
  6
CONTINUOUS
 10
-5.2605034575
 20
28.4625
 11
-5.2666127302
 21
28.4563907273
  0
LINE
  5
264
100
AcDbEntity
  8
DRAFT
100
AcDbLine
 62
7
  6
CONTINUOUS
 10
-13.4060131588
 20
17.5919902987
 11
-13.3855034575
 21
17.6125
  0
LINE
  5
265
100
AcDbEntity
  8
DRAFT
100
AcDbLine
 62
7
  6
CONTINUOUS
 10
-10.5105034575
 20
20.125
 11
-10.4597211122
 21
20.1757823453
  0
LINE
  5
266
100
AcDbEntity
  8
RACCORDO
100
AcDbLine
 62
250
  6
CONTINUOUS
 10
-15.3992851243
 20
-23.5917439315
 11
-15.5331498527
 21
-23.592030299
  0
LINE
  5
267
100
AcDbEntity
  8
RACCORDO
100
AcDbLine
 62
250
  6
CONTINUOUS
 10
-12.732431962
 20
-23.5866051988
 11
-12.8902403337
 21
-23.5868804837
  0
LINE
  5
268
100
AcDbEntity
  8
RACCORDO
100
AcDbLine
 62
250
  6
CONTINUOUS
 10
-8.7852166799
 20
-23.7257495945
 11
-8.9686814966
 21
-23.725965157
  0
LINE
  5
269
100
AcDbEntity
  8
RACCORDO
100
AcDbLine
 62
7
  6
CONTINUOUS
 10
-15.1469278606
 20
-23.8875
 11
-14.5172021273
 21
-23.8875
  0
LINE
  5
26A
100
AcDbEntity
  8
RACCORDO
100
AcDbLine
 62
7
  6
CONTINUOUS
 10
-13.7538047877
 20
-23.8875
 11
-13.1240790544
 21
-23.8875
  0
LINE
  5
26B
100
AcDbEntity
  8
RACCORDO
100
AcDbLine
 62
7
  6
CONTINUOUS
 10
-10.2910161489
 20
-23.8875
 11
-10.1172365125
 21
-23.8875
  0
LINE
  5
26C
100
AcDbEntity
  8
RACCORDO
100
AcDbLine
 62
7
  6
CONTINUOUS
 10
-8.9037704025
 20
-23.8875
 11
-8.7299907661
 21
-23.8875
  0
LINE
  5
26D
100
AcDbEntity
  8
RACCORDO
100
AcDbLine
 62
7
  6
CONTINUOUS
 10
7.2089838511
 20
-23.8875
 11
7.3827634875
 21
-23.8875
  0
LINE
  5
26E
100
AcDbEntity
  8
DRAFT
100
AcDbLine
 62
7
  6
CONTINUOUS
 10
8.5962295975
 20
-23.8875
 11
8.7700092339
 21
-23.8875
  0
LINE
  5
26F
100
AcDbEntity
  8
DRAFT
100
AcDbLine
 62
7
  6
CONTINUOUS
 10
8.7571200935
 20
-23.8386109227
 11
8.5820065719
 21
-23.8386109227
  0
LINE
  5
270
100
AcDbEntity
  8
RACCORDO
100
AcDbLine
 62
7
  6
CONTINUOUS
 10
-10.1030134869
 20
-23.8386109227
 11
-10.2781270085
 21
-23.8386109227
  0
LINE
  5
271
100
AcDbEntity
  8
RACCORDO
100
AcDbLine
 62
7
  6
CONTINUOUS
 10
14.3394965425
 20
-23.6625
 11
11.9894965425
 21
-23.6625
  0
LINE
  5
272
100
AcDbEntity
  8
RACCORDO
100
AcDbLine
 62
250
  6
CONTINUOUS
 10
-17.1355034575
 20
-23.5951706136
 11
-17.1675263932
 21
-23.5951706136
  0
LINE
  5
273
100
AcDbEntity
  8
RACCORDO
100
AcDbLine
 62
7
  6
CONTINUOUS
 10
19.0889257472
 20
-22.2625
 11
19.8900673378
 21
-22.2625
  0
LINE
  5
274
100
AcDbEntity
  8
RACCORDO
100
AcDbLine
 62
250
  6
CONTINUOUS
 10
-12.2465922014
 20
-22.1625
 11
-12.4893107481
 21
-22.1625
  0
LINE
  5
275
100
AcDbEntity
  8
RACCORDO
100
AcDbLine
 62
250
  6
CONTINUOUS
 10
-15.7785019272
 20
-22.1625
 11
-16.0484754259
 21
-22.1625
  0
LINE
  5
276
100
AcDbEntity
  8
RACCORDO
100
AcDbLine
 62
7
  6
CONTINUOUS
 10
19.2376564752
 20
-22.113769272
 11
19.7413366098
 21
-22.113769272
  0
LINE
  5
277
100
AcDbEntity
  8
RACCORDO
100
AcDbLine
 62
250
  6
CONTINUOUS
 10
-17.1355034575
 20
-22.0298293864
 11
-17.1675263932
 21
-22.0298293864
  0
LINE
  5
278
100
AcDbEntity
  8
DRAFT
100
AcDbLine
 62
7
  6
CONTINUOUS
 10
-19.1291544792
 20
-22.0125
 11
-19.0043941848
 21
-22.0125
  0
LINE
  5
279
100
AcDbEntity
  8
0
100
AcDbLine
 62
7
  6
CONTINUOUS
 10
-19.1291544792
 20
-22.0125
 11
-21.9354793161
 21
-22.0125
  0
LINE
  5
27A
100
AcDbEntity
  8
RACCORDO
100
AcDbLine
 62
7
  6
CONTINUOUS
 10
-12.1819536816
 20
-21.7375
 11
-12.2688169827
 21
-21.7375
  0
LINE
  5
27B
100
AcDbEntity
  8
RACCORDO
100
AcDbLine
 62
7
  6
CONTINUOUS
 10
-16.0021899323
 20
-21.7375
 11
-16.0890532334
 21
-21.7375
  0
LINE
  5
27C
100
AcDbEntity
  8
RACCORDO
100
AcDbLine
 62
250
  6
CONTINUOUS
 10
11.9895225729
 20
-23.6377686376
 11
11.8345995745
 21
-23.6376262454
  0
LINE
  5
27D
100
AcDbEntity
  8
RACCORDO
100
AcDbLine
 62
250
  6
CONTINUOUS
 10
14.7840450491
 20
-23.3906581007
 11
11.5433298043
 21
-23.3876003713
  0
LINE
  5
27E
100
AcDbEntity
  8
RACCORDO
100
AcDbLine
 62
250
  6
CONTINUOUS
 10
7.4476745854
 20
-23.725965157
 11
7.2642097645
 21
-23.7257495952
  0
LINE
  5
27F
100
AcDbEntity
  8
RACCORDO
100
AcDbLine
 62
250
  6
CONTINUOUS
 10
14.4867252759
 20
-23.6403048372
 11
14.3395241596
 21
-23.640142743
  0
LINE
  5
280
100
AcDbEntity
  8
RACCORDO
100
AcDbLine
 62
250
  6
CONTINUOUS
 10
-12.4846514426
 20
-22.039219811
 11
-12.1395216452
 21
-22.0393949362
  0
LINE
  5
281
100
AcDbEntity
  8
RACCORDO
100
AcDbLine
 62
250
  6
CONTINUOUS
 10
-12.2346895155
 20
-21.7893721043
 11
-12.1712092438
 21
-21.7894774742
  0
LINE
  5
282
100
AcDbEntity
  8
RACCORDO
100
AcDbLine
 62
250
  6
CONTINUOUS
 10
-16.1308090271
 20
-22.0316654467
 11
-15.7826710441
 21
-22.0318487084
  0
LINE
  5
283
100
AcDbEntity
  8
RACCORDO
100
AcDbLine
 62
250
  6
CONTINUOUS
 10
-16.0982238861
 20
-21.7818548553
 11
-16.0326329679
 21
-21.7820010017
  0
LINE
  5
284
100
AcDbEntity
  8
RACCORDO
100
AcDbLine
 62
250
  6
CONTINUOUS
 10
-16.5355036872
 20
-16.0681601038
 11
-16.7214002088
 21
-15.8825665244
  0
LINE
  5
285
100
AcDbEntity
  8
DRAFT
100
AcDbLine
 62
7
  6
CONTINUOUS
 10
-18.1355034575
 20
-15.5375
 11
-18.121449374
 21
-15.5515540834
  0
LINE
  5
286
100
AcDbEntity
  8
RACCORDO
100
AcDbLine
 62
7
  6
CONTINUOUS
 10
-16.9397883185
 20
-15.7138991161
 11
-17.1759820771
 21
-15.4777053575
  0
LINE
  5
287
100
AcDbEntity
  8
RACCORDO
100
AcDbLine
 62
250
  6
CONTINUOUS
 10
-12.2346895155
 20
-21.7893721043
 11
-12.2415280334
 21
-21.7803159124
  0
LINE
  5
288
100
AcDbEntity
  8
RACCORDO
100
AcDbLine
 62
250
  6
CONTINUOUS
 10
-16.9387988376
 20
-19.2375
 11
-16.9281419113
 21
-19.2588203483
  0
LINE
  5
289
100
AcDbEntity
  8
RACCORDO
100
AcDbLine
 62
250
  6
CONTINUOUS
 10
-15.8853912748
 20
-21.3376177983
 11
-15.880312002
 21
-21.3477794401
  0
LINE
  5
28A
100
AcDbEntity
  8
RACCORDO
100
AcDbLine
 62
250
  6
CONTINUOUS
 10
-15.7854111779
 20
-21.2376693676
 11
-15.7803270687
 21
-21.2478406849
  0
LINE
  5
28B
100
AcDbEntity
  8
RACCORDO
100
AcDbLine
 62
250
  6
CONTINUOUS
 10
-16.8787693728
 20
-16.8678127911
 11
-16.8939211458
 21
-16.8375000093
  0
LINE
  5
28C
100
AcDbEntity
  8
RACCORDO
100
AcDbLine
 62
250
  6
CONTINUOUS
 10
-16.7787852934
 20
-16.7678723277
 11
-16.7939668303
 21
-16.7375
  0
LINE
  5
28D
100
AcDbEntity
  8
RACCORDO
100
AcDbLine
 62
250
  6
CONTINUOUS
 10
-17.1886846264
 20
-14.4875000232
 11
-17.1675263932
 21
-14.5298293864
  0
LINE
  5
28E
100
AcDbEntity
  8
DRAFT
100
AcDbLine
 62
7
  6
CONTINUOUS
 10
-19.5105034575
 20
16.9875
 11
-19.5105034575
 21
-14.5125
  0
LINE
  5
28F
100
AcDbEntity
  8
RACCORDO
100
AcDbLine
 62
7
  6
CONTINUOUS
 10
-19.5105034575
 20
-24.0125
 11
-19.5105034575
 21
-28.5375380762
  0
LINE
  5
290
100
AcDbEntity
  8
DRAFT
100
AcDbLine
 62
7
  6
CONTINUOUS
 10
-19.5043941848
 20
16.9875
 11
-19.5043941848
 21
-14.5063907273
  0
LINE
  5
291
100
AcDbEntity
  8
RACCORDO
100
AcDbLine
 62
7
  6
CONTINUOUS
 10
-19.5043941848
 20
-24.0125
 11
-19.5043941848
 21
-28.5314288035
  0
LINE
  5
292
100
AcDbEntity
  8
RACCORDO
100
AcDbLine
 62
7
  6
CONTINUOUS
 10
-13.3825012253
 20
18.5273753521
 11
-13.3689422989
 21
18.5545014697
  0
LINE
  5
293
100
AcDbEntity
  8
DRAFT
100
AcDbLine
 62
7
  6
CONTINUOUS
 10
-10.5105034575
 20
19.475
 11
-10.4597211122
 21
19.5257823453
  0
LINE
  5
294
100
AcDbEntity
  8
DRAFT
100
AcDbLine
 62
7
  6
CONTINUOUS
 10
-14.0105034575
 20
14.6625
 11
-14.0537374254
 21
14.6192660322
  0
LINE
  5
295
100
AcDbEntity
  8
DRAFT
100
AcDbLine
 62
7
  6
CONTINUOUS
 10
-14.0105034575
 20
14.0125
 11
-14.0537374254
 21
13.9692660322
  0
LINE
  5
296
100
AcDbEntity
  8
RACCORDO
100
AcDbLine
 62
250
  6
CONTINUOUS
 10
0.2864205841
 20
27.9590435114
 11
0.1901830542
 21
27.8628059816
  0
LINE
  5
297
100
AcDbEntity
  8
DRAFT
100
AcDbLine
 62
7
  6
CONTINUOUS
 10
-11.1355034575
 20
16.525
 11
-11.1149937562
 21
16.5455097013
  0
LINE
  5
298
100
AcDbEntity
  8
RACCORDO
100
AcDbLine
 62
250
  6
CONTINUOUS
 10
0.3860400539
 20
27.8594240416
 11
0.289802524
 21
27.7631865117
  0
LINE
  5
299
100
AcDbEntity
  8
RACCORDO
100
AcDbLine
 62
250
  6
CONTINUOUS
 10
-15.8853912748
 20
-21.3376177983
 11
-15.956707338
 21
-21.3377733257
  0
LINE
  5
29A
100
AcDbEntity
  8
RACCORDO
100
AcDbLine
 62
250
  6
CONTINUOUS
 10
-12.3152366016
 20
-21.3357638701
 11
-12.3847466606
 21
-21.3358793093
  0
LINE
  5
29B
100
AcDbEntity
  8
RACCORDO
100
AcDbLine
 62
250
  6
CONTINUOUS
 10
11.7773888056
 20
-21.0873996286
 11
14.784044587
 21
-21.084341026
  0
LINE
  5
29C
100
AcDbEntity
  8
RACCORDO
100
AcDbLine
 62
250
  6
CONTINUOUS
 10
14.3395314181
 20
-20.834857249
 11
14.4867251671
 21
-20.8346951629
  0
LINE
  5
29D
100
AcDbEntity
  8
RACCORDO
100
AcDbLine
 62
250
  6
CONTINUOUS
 10
11.8345951026
 20
-20.8373738277
 11
11.9895195416
 21
-20.8372308898
  0
LINE
  5
29E
100
AcDbEntity
  8
RACCORDO
100
AcDbLine
 62
7
  6
CONTINUOUS
 10
-15.9787251338
 20
-21.3875
 11
-15.7054983298
 21
-21.3875
  0
LINE
  5
29F
100
AcDbEntity
  8
RACCORDO
100
AcDbLine
 62
7
  6
CONTINUOUS
 10
-12.5655085853
 20
-21.3875
 11
-12.2922817812
 21
-21.3875
  0
LINE
  5
2A0
100
AcDbEntity
  8
RACCORDO
100
AcDbLine
 62
250
  6
CONTINUOUS
 10
-15.7854111779
 20
-21.2376693676
 11
-15.9080841233
 21
-21.2377144647
  0
LINE
  5
2A1
100
AcDbEntity
  8
RACCORDO
100
AcDbLine
 62
250
  6
CONTINUOUS
 10
-17.1355034575
 20
-21.0903597512
 11
-17.1651216949
 21
-21.0903597512
  0
LINE
  5
2A2
100
AcDbEntity
  8
RACCORDO
100
AcDbLine
 62
250
  6
CONTINUOUS
 10
-12.4506568634
 20
-21.0860151494
 11
-12.4821993625
 21
-21.0860151494
  0
LINE
  5
2A3
100
AcDbEntity
  8
RACCORDO
100
AcDbLine
 62
7
  6
CONTINUOUS
 10
11.9894965425
 20
-20.8125
 11
14.3394965425
 21
-20.8125
  0
LINE
  5
2A4
100
AcDbEntity
  8
RACCORDO
100
AcDbLine
 62
250
  6
CONTINUOUS
 10
-14.3459146438
 20
-20.3267321848
 11
-14.4515405539
 21
-20.3267321848
  0
LINE
  5
2A5
100
AcDbEntity
  8
RACCORDO
100
AcDbLine
 62
250
  6
CONTINUOUS
 10
-13.9238834243
 20
-20.3264126493
 11
-13.82937274
 21
-20.3264126493
  0
LINE
  5
2A6
100
AcDbEntity
  8
RACCORDO
100
AcDbLine
 62
7
  6
CONTINUOUS
 10
13.7394965425
 20
-20.0625
 11
11.9894965425
 21
-20.0625
  0
LINE
  5
2A7
100
AcDbEntity
  8
RACCORDO
100
AcDbLine
 62
250
  6
CONTINUOUS
 10
-17.1355034575
 20
-19.5346402361
 11
-17.1651216949
 21
-19.5346402487
  0
LINE
  5
2A8
100
AcDbEntity
  8
RACCORDO
100
AcDbLine
 62
7
  6
CONTINUOUS
 10
-17.1355034575
 20
-19.2625
 11
-16.9355034575
 21
-19.2625
  0
LINE
  5
2A9
100
AcDbEntity
  8
RACCORDO
100
AcDbLine
 62
7
  6
CONTINUOUS
 10
-16.7966784683
 20
-19.2375
 11
-16.9387988376
 21
-19.2375
  0
LINE
  5
2AA
100
AcDbEntity
  8
RACCORDO
100
AcDbLine
 62
250
  6
CONTINUOUS
 10
14.1169048681
 20
-19.8899231729
 11
11.6100870367
 21
-19.8876003713
  0
LINE
  5
2AB
100
AcDbEntity
  8
RACCORDO
100
AcDbLine
 62
250
  6
CONTINUOUS
 10
-12.4846514426
 20
-22.039219811
 11
-12.4893107481
 21
-22.0298983598
  0
LINE
  5
2AC
100
AcDbEntity
  8
RACCORDO
100
AcDbLine
 62
250
  6
CONTINUOUS
 10
-17.1886846264
 20
-11.9875000232
 11
-17.1675263932
 21
-12.0298293864
  0
LINE
  5
2AD
100
AcDbEntity
  8
RACCORDO
100
AcDbLine
 62
250
  6
CONTINUOUS
 10
-17.1675263932
 20
-9.5298293864
 11
-17.1930483926
 21
-9.4787698308
  0
LINE
  5
2AE
100
AcDbEntity
  8
RACCORDO
100
AcDbLine
 62
250
  6
CONTINUOUS
 10
-16.9175644694
 20
-9.2799816796
 11
-16.9431626038
 21
-9.2287698076
  0
LINE
  5
2AF
100
AcDbEntity
  8
DRAFT
100
AcDbLine
 62
7
  6
CONTINUOUS
 10
-19.0043941848
 20
-15.642905626
 11
-19.0105034575
 21
-15.5937163339
  0
LINE
  5
2B0
100
AcDbEntity
  8
DRAFT
100
AcDbLine
 62
7
  6
CONTINUOUS
 10
-19.0105034575
 20
-14.7312836661
 11
-19.0035214315
 21
-14.7875
  0
LINE
  5
2B1
100
AcDbEntity
  8
0
100
AcDbLine
 62
7
  6
CONTINUOUS
 10
-19.1291544792
 20
-24.0125
 11
-19.1291544792
 21
-22.0125
  0
LINE
  5
2B2
100
AcDbEntity
  8
0
100
AcDbLine
 62
7
  6
CONTINUOUS
 10
-19.1291544792
 20
16.9875
 11
-19.1291544792
 21
18.9875
  0
LINE
  5
2B3
100
AcDbEntity
  8
DRAFT
100
AcDbLine
 62
7
  6
CONTINUOUS
 10
-19.0105034575
 20
-22.0125
 11
-19.0105034575
 21
-15.5937163339
  0
LINE
  5
2B4
100
AcDbEntity
  8
DRAFT
100
AcDbLine
 62
7
  6
CONTINUOUS
 10
-19.0105034575
 20
-14.7312836661
 11
-19.0105034575
 21
-14.5125
  0
LINE
  5
2B5
100
AcDbEntity
  8
DRAFT
100
AcDbLine
 62
7
  6
CONTINUOUS
 10
-19.0105034575
 20
18.9875
 11
-19.0105034575
 21
25.4062836661
  0
LINE
  5
2B6
100
AcDbEntity
  8
RACCORDO
100
AcDbLine
 62
7
  6
CONTINUOUS
 10
-19.0105034575
 20
26.2687163339
 11
-19.0105034575
 21
28.2125380762
  0
LINE
  5
2B7
100
AcDbEntity
  8
RACCORDO
100
AcDbLine
 62
7
  6
CONTINUOUS
 10
-19.0043941848
 20
28.2064288035
 11
-19.0043941848
 21
26.3179056261
  0
LINE
  5
2B8
100
AcDbEntity
  8
DRAFT
100
AcDbLine
 62
7
  6
CONTINUOUS
 10
-19.0043941848
 20
25.357094374
 11
-19.0043941848
 21
18.9875
  0
LINE
  5
2B9
100
AcDbEntity
  8
DRAFT
100
AcDbLine
 62
7
  6
CONTINUOUS
 10
-19.0043941848
 20
-22.0125
 11
-19.0043941848
 21
-15.642905626
  0
LINE
  5
2BA
100
AcDbEntity
  8
DRAFT
100
AcDbLine
 62
7
  6
CONTINUOUS
 10
-19.0043941848
 20
-14.6820943739
 11
-19.0043941848
 21
-14.5063907273
  0
LINE
  5
2BB
100
AcDbEntity
  8
DRAFT
100
AcDbLine
 62
7
  6
CONTINUOUS
 10
-19.0035214315
 20
-15.5375
 11
-19.0035214315
 21
-14.7875
  0
LINE
  5
2BC
100
AcDbEntity
  8
DRAFT
100
AcDbLine
 62
7
  6
CONTINUOUS
 10
-19.0035214315
 20
25.4625
 11
-19.0035214315
 21
26.2125
  0
LINE
  5
2BD
100
AcDbEntity
  8
DRAFT
100
AcDbLine
 62
7
  6
CONTINUOUS
 10
-18.6355034575
 20
-15.5515540834
 11
-18.6355034575
 21
-27.9686092727
  0
LINE
  5
2BE
100
AcDbEntity
  8
DRAFT
100
AcDbLine
 62
7
  6
CONTINUOUS
 10
-18.6355034575
 20
-14.7734459165
 11
-18.6355034575
 21
25.4484459166
  0
LINE
  5
2BF
100
AcDbEntity
  8
DRAFT
100
AcDbLine
 62
7
  6
CONTINUOUS
 10
-18.6355034575
 20
26.2265540835
 11
-18.6355034575
 21
27.3375
  0
LINE
  5
2C0
100
AcDbEntity
  8
DRAFT
100
AcDbLine
 62
7
  6
CONTINUOUS
 10
-18.1355034575
 20
26.2125
 11
-18.1355034575
 21
25.4625
  0
LINE
  5
2C1
100
AcDbEntity
  8
DRAFT
100
AcDbLine
 62
7
  6
CONTINUOUS
 10
-18.1355034575
 20
-15.5375
 11
-18.1355034575
 21
-14.7875
  0
LINE
  5
2C2
100
AcDbEntity
  8
DRAFT
100
AcDbLine
 62
7
  6
CONTINUOUS
 10
-18.121449374
 20
26.2265540835
 11
-18.121449374
 21
25.4484459166
  0
LINE
  5
2C3
100
AcDbEntity
  8
DRAFT
100
AcDbLine
 62
7
  6
CONTINUOUS
 10
-18.121449374
 20
-14.7734459165
 11
-18.121449374
 21
-15.5515540834
  0
LINE
  5
2C4
100
AcDbEntity
  8
DRAFT
100
AcDbLine
 62
7
  6
CONTINUOUS
 10
-17.9964696672
 20
27.3375
 11
-17.9964696672
 21
-27.9572634805
  0
LINE
  5
2C5
100
AcDbEntity
  8
DRAFT
100
AcDbLine
 62
250
  6
CONTINUOUS
 10
-17.9574880886
 20
-27.9591329355
 11
-17.9574880886
 21
27.3375
  0
LINE
  5
2C6
100
AcDbEntity
  8
DRAFT
100
AcDbLine
 62
250
  6
CONTINUOUS
 10
-17.8635188265
 20
-27.9591329355
 11
-17.8635188265
 21
27.3375
  0
LINE
  5
2C7
100
AcDbEntity
  8
DRAFT
100
AcDbLine
 62
7
  6
CONTINUOUS
 10
-17.8245372478
 20
27.3375
 11
-17.8245372478
 21
-27.9572634805
  0
LINE
  5
2C8
100
AcDbEntity
  8
DRAFT
100
AcDbLine
 62
7
  6
CONTINUOUS
 10
-17.6464696672
 20
27.3375
 11
-17.6464696672
 21
-27.9572634805
  0
LINE
  5
2C9
100
AcDbEntity
  8
DRAFT
100
AcDbLine
 62
250
  6
CONTINUOUS
 10
-17.6074880886
 20
-27.9591329355
 11
-17.6074880886
 21
27.3375
  0
LINE
  5
2CA
100
AcDbEntity
  8
DRAFT
100
AcDbLine
 62
250
  6
CONTINUOUS
 10
-17.5135188265
 20
-27.9591329355
 11
-17.5135188265
 21
27.3375
  0
LINE
  5
2CB
100
AcDbEntity
  8
DRAFT
100
AcDbLine
 62
7
  6
CONTINUOUS
 10
-17.4745372478
 20
27.3375
 11
-17.4745372478
 21
-27.9572634805
  0
LINE
  5
2CC
100
AcDbEntity
  8
RACCORDO
100
AcDbLine
 62
7
  6
CONTINUOUS
 10
-17.205266938
 20
-27.7073015567
 11
-17.205266938
 21
-18.9552669529
  0
LINE
  5
2CD
100
AcDbEntity
  8
RACCORDO
100
AcDbLine
 62
7
  6
CONTINUOUS
 10
-17.205266938
 20
-15.407005449
 11
-17.205266938
 21
4.5822634805
  0
LINE
  5
2CE
100
AcDbEntity
  8
RACCORDO
100
AcDbLine
 62
7
  6
CONTINUOUS
 10
-17.1930483926
 20
-9.4787698308
 11
-17.1930483926
 21
-8.8962301923
  0
LINE
  5
2CF
100
AcDbEntity
  8
RACCORDO
100
AcDbLine
 62
7
  6
CONTINUOUS
 10
-17.1886846264
 20
-26.9875000232
 11
-17.1886846264
 21
-26.1374999768
  0
LINE
  5
2D0
100
AcDbEntity
  8
RACCORDO
100
AcDbLine
 62
7
  6
CONTINUOUS
 10
-17.1886846264
 20
-24.4875000232
 11
-17.1886846264
 21
-23.6374999768
  0
LINE
  5
2D1
100
AcDbEntity
  8
RACCORDO
100
AcDbLine
 62
7
  6
CONTINUOUS
 10
-17.1886846264
 20
-21.9875000232
 11
-17.1886846264
 21
-21.1374999768
  0
LINE
  5
2D2
100
AcDbEntity
  8
RACCORDO
100
AcDbLine
 62
7
  6
CONTINUOUS
 10
-17.1886846264
 20
-19.4875000232
 11
-17.1886846264
 21
-18.9718492646
  0
LINE
  5
2D3
100
AcDbEntity
  8
RACCORDO
100
AcDbLine
 62
7
  6
CONTINUOUS
 10
-17.1886846264
 20
-14.4875000232
 11
-17.1886846264
 21
-13.6374999768
  0
LINE
  5
2D4
100
AcDbEntity
  8
RACCORDO
100
AcDbLine
 62
7
  6
CONTINUOUS
 10
-17.1886846264
 20
-11.9875000232
 11
-17.1886846264
 21
-11.1374999768
  0
LINE
  5
2D5
100
AcDbEntity
  8
RACCORDO
100
AcDbLine
 62
250
  6
CONTINUOUS
 10
-17.1675263932
 20
-26.0951706136
 11
-17.1675263932
 21
-24.5298293864
  0
LINE
  5
2D6
100
AcDbEntity
  8
RACCORDO
100
AcDbLine
 62
250
  6
CONTINUOUS
 10
-17.1675263932
 20
-23.5951706136
 11
-17.1675263932
 21
-22.0298293864
  0
LINE
  5
2D7
100
AcDbEntity
  8
RACCORDO
100
AcDbLine
 62
250
  6
CONTINUOUS
 10
-17.1675263932
 20
-15.3913728035
 11
-17.1675263932
 21
-14.5298293864
  0
LINE
  5
2D8
100
AcDbEntity
  8
RACCORDO
100
AcDbLine
 62
250
  6
CONTINUOUS
 10
-17.1675263932
 20
-27.0298293864
 11
-17.1675263932
 21
-27.6695610119
  0
LINE
  5
2D9
100
AcDbEntity
  8
RACCORDO
100
AcDbLine
 62
250
  6
CONTINUOUS
 10
-17.1675263932
 20
-13.5951706136
 11
-17.1675263932
 21
-12.0298293864
  0
LINE
  5
2DA
100
AcDbEntity
  8
RACCORDO
100
AcDbLine
 62
250
  6
CONTINUOUS
 10
-17.1675263932
 20
-11.0951706136
 11
-17.1675263932
 21
-9.5298293864
  0
LINE
  5
2DB
100
AcDbEntity
  8
RACCORDO
100
AcDbLine
 62
250
  6
CONTINUOUS
 10
-17.1651216949
 20
-21.0903597512
 11
-17.1651216949
 21
-19.5346402487
  0
LINE
  5
2DC
100
AcDbEntity
  8
DRAFT
100
AcDbLine
 62
7
  6
CONTINUOUS
 10
-17.1651202887
 20
-8.8403569612
 11
-17.1651202887
 21
4.5421168312
  0
LINE
  5
2DD
100
AcDbEntity
  8
0
100
AcDbLine
 62
7
  6
CONTINUOUS
 10
-17.1355034575
 20
-27.9375
 11
-17.1355034575
 21
-19.2625
  0
LINE
  5
2DE
100
AcDbEntity
  8
0
100
AcDbLine
 62
7
  6
CONTINUOUS
 10
-17.1355034575
 20
-15.1625
 11
-17.1355034575
 21
-9.3875
  0
LINE
  5
2DF
100
AcDbEntity
  8
0
100
AcDbLine
 62
7
  6
CONTINUOUS
 10
-17.1105034575
 20
4.5125
 11
-17.1105034575
 21
-8.7375
  0
LINE
  5
2E0
100
AcDbEntity
  8
RACCORDO
100
AcDbLine
 62
250
  6
CONTINUOUS
 10
-16.9343249061
 20
-15.5276638703
 11
-16.9343249061
 21
-15.1625
  0
LINE
  5
2E1
100
AcDbEntity
  8
RACCORDO
100
AcDbLine
 62
7
  6
CONTINUOUS
 10
-16.9105034575
 20
-18.7552974139
 11
-16.9105034575
 21
-15.7845990246
  0
LINE
  5
2E2
100
AcDbEntity
  8
RACCORDO
100
AcDbLine
 62
7
  6
CONTINUOUS
 10
-16.8939211458
 20
-16.8375000093
 11
-16.8939211458
 21
-16.2874999907
  0
LINE
  5
2E3
100
AcDbEntity
  8
0
100
AcDbLine
 62
7
  6
CONTINUOUS
 10
-16.8855034575
 20
4.3375
 11
-16.8855034575
 21
-8.1625
  0
LINE
  5
2E4
100
AcDbEntity
  8
DRAFT
100
AcDbLine
 62
7
  6
CONTINUOUS
 10
-16.8855034575
 20
4.5822634805
 11
-16.8855034575
 21
10.325
  0
LINE
  5
2E5
100
AcDbEntity
  8
0
100
AcDbLine
 62
7
  6
CONTINUOUS
 10
-16.8855034575
 20
12.325
 11
-16.8855034575
 21
21.8125
  0
LINE
  5
2E6
100
AcDbEntity
  8
0
100
AcDbLine
 62
7
  6
CONTINUOUS
 10
-16.8855034575
 20
23.8125
 11
-16.8855034575
 21
25.3375
  0
LINE
  5
2E7
100
AcDbEntity
  8
RACCORDO
100
AcDbLine
 62
250
  6
CONTINUOUS
 10
-16.8787693728
 20
-18.7571872089
 11
-16.8787693728
 21
-16.8678127911
  0
LINE
  5
2E8
100
AcDbEntity
  8
RACCORDO
100
AcDbLine
 62
250
  6
CONTINUOUS
 10
-16.8787693728
 20
-16.2571872089
 11
-16.8787693728
 21
-15.7714543364
  0
LINE
  5
2E9
100
AcDbEntity
  8
RACCORDO
100
AcDbLine
 62
250
  6
CONTINUOUS
 10
-16.7854408597
 20
-18.7571841128
 11
-16.7854408597
 21
-16.8678201058
  0
LINE
  5
2EA
100
AcDbEntity
  8
RACCORDO
100
AcDbLine
 62
250
  6
CONTINUOUS
 10
-16.7854408597
 20
-16.2571853382
 11
-16.7854408597
 21
-15.9532528074
  0
LINE
  5
2EB
100
AcDbEntity
  8
DRAFT
100
AcDbLine
 62
7
  6
CONTINUOUS
 10
-16.0105034575
 20
28.4625
 11
-16.1355034575
 21
27.3375
  0
LINE
  5
2EC
100
AcDbEntity
  8
DRAFT
100
AcDbLine
 62
7
  6
CONTINUOUS
 10
-19.0043941848
 20
-14.6820943739
 11
-19.0105034575
 21
-14.7312836661
  0
LINE
  5
2ED
100
AcDbEntity
  8
DRAFT
100
AcDbLine
 62
7
  6
CONTINUOUS
 10
-19.0105034575
 20
-15.5937163339
 11
-19.0035214315
 21
-15.5375
  0
LINE
  5
2EE
100
AcDbEntity
  8
RACCORDO
100
AcDbLine
 62
7
  6
CONTINUOUS
 10
-11.1385056897
 20
15.6101246479
 11
-11.1546898851
 21
15.5777463922
  0
LINE
  5
2EF
100
AcDbEntity
  8
DRAFT
100
AcDbLine
 62
7
  6
CONTINUOUS
 10
-16.0725496602
 20
8.0254537973
 11
-16.1105034575
 21
7.9875
  0
LINE
  5
2F0
100
AcDbEntity
  8
DRAFT
100
AcDbLine
 62
7
  6
CONTINUOUS
 10
-1.9070469689
 20
19.475
 11
-1.7605034575
 21
19.5334922889
  0
LINE
  5
2F1
100
AcDbEntity
  8
DRAFT
100
AcDbLine
 62
7
  6
CONTINUOUS
 10
-1.810809439
 20
18.51875
 11
-1.7605034575
 21
18.5388294425
  0
LINE
  5
2F2
100
AcDbEntity
  8
RACCORDO
100
AcDbLine
 62
250
  6
CONTINUOUS
 10
-16.7787830493
 20
-18.8571231828
 11
-16.53551715
 21
-18.8565622149
  0
LINE
  5
2F3
100
AcDbEntity
  8
RACCORDO
100
AcDbLine
 62
7
  6
CONTINUOUS
 10
-17.1886846264
 20
-18.9718492646
 11
-17.0938906849
 21
-18.9718492646
  0
LINE
  5
2F4
100
AcDbEntity
  8
RACCORDO
100
AcDbLine
 62
7
  6
CONTINUOUS
 10
-17.205266938
 20
-18.9552669529
 11
-17.1104729965
 21
-18.9552669529
  0
LINE
  5
2F5
100
AcDbEntity
  8
RACCORDO
100
AcDbLine
 62
7
  6
CONTINUOUS
 10
-16.7939668303
 20
-18.8875
 11
-16.5355034575
 21
-18.8875
  0
LINE
  5
2F6
100
AcDbEntity
  8
RACCORDO
100
AcDbLine
 62
250
  6
CONTINUOUS
 10
-16.5355034575
 20
-18.7566080009
 11
-16.8787693728
 21
-18.7571872089
  0
LINE
  5
2F7
100
AcDbEntity
  8
RACCORDO
100
AcDbLine
 62
7
  6
CONTINUOUS
 10
19.7413366098
 20
-18.211230728
 11
19.2376564752
 21
-18.211230728
  0
LINE
  5
2F8
100
AcDbEntity
  8
0
100
AcDbLine
 62
250
  6
CONTINUOUS
 10
-9.0808934244
 20
-18.1625
 11
-8.9828651247
 21
-18.1625
  0
LINE
  5
2F9
100
AcDbEntity
  8
RACCORDO
100
AcDbLine
 62
250
  6
CONTINUOUS
 10
-9.1754639688
 20
-18.1625
 11
-9.0808934244
 21
-18.1625
  0
LINE
  5
2FA
100
AcDbEntity
  8
0
100
AcDbLine
 62
250
  6
CONTINUOUS
 10
-8.781060014
 20
-18.1625
 11
-8.6830276041
 21
-18.1625
  0
LINE
  5
2FB
100
AcDbEntity
  8
RACCORDO
100
AcDbLine
 62
250
  6
CONTINUOUS
 10
-8.8751051274
 20
-18.1625
 11
-8.781060014
 21
-18.1625
  0
LINE
  5
2FC
100
AcDbEntity
  8
0
100
AcDbLine
 62
250
  6
CONTINUOUS
 10
-8.4811602392
 20
-18.1625
 11
-8.3831238711
 21
-18.1625
  0
LINE
  5
2FD
100
AcDbEntity
  8
RACCORDO
100
AcDbLine
 62
250
  6
CONTINUOUS
 10
-8.5754755899
 20
-18.1625
 11
-8.4811602392
 21
-18.1625
  0
LINE
  5
2FE
100
AcDbEntity
  8
0
100
AcDbLine
 62
250
  6
CONTINUOUS
 10
7.5598865093
 20
-18.1625
 11
7.4618582097
 21
-18.1625
  0
LINE
  5
2FF
100
AcDbEntity
  8
RACCORDO
100
AcDbLine
 62
250
  6
CONTINUOUS
 10
7.6544570537
 20
-18.1625
 11
7.5598865093
 21
-18.1625
  0
LINE
  5
300
100
AcDbEntity
  8
0
100
AcDbLine
 62
250
  6
CONTINUOUS
 10
7.260053099
 20
-18.1625
 11
7.1620206891
 21
-18.1625
  0
LINE
  5
301
100
AcDbEntity
  8
RACCORDO
100
AcDbLine
 62
250
  6
CONTINUOUS
 10
7.3540982124
 20
-18.1625
 11
7.260053099
 21
-18.1625
  0
LINE
  5
302
100
AcDbEntity
  8
0
100
AcDbLine
 62
250
  6
CONTINUOUS
 10
6.9601533242
 20
-18.1625
 11
6.862116956
 21
-18.1625
  0
LINE
  5
303
100
AcDbEntity
  8
RACCORDO
100
AcDbLine
 62
250
  6
CONTINUOUS
 10
7.0544686749
 20
-18.1625
 11
6.9601533242
 21
-18.1625
  0
LINE
  5
304
100
AcDbEntity
  8
RACCORDO
100
AcDbLine
 62
250
  6
CONTINUOUS
 10
6.7745218239
 20
-18.1625
 11
6.862116956
 21
-18.1625
  0
LINE
  5
305
100
AcDbEntity
  8
RACCORDO
100
AcDbLine
 62
250
  6
CONTINUOUS
 10
7.0748921994
 20
-18.1625
 11
7.1620206891
 21
-18.1625
  0
LINE
  5
306
100
AcDbEntity
  8
RACCORDO
100
AcDbLine
 62
250
  6
CONTINUOUS
 10
7.3745332428
 20
-18.1625
 11
7.4618582097
 21
-18.1625
  0
LINE
  5
307
100
AcDbEntity
  8
RACCORDO
100
AcDbLine
 62
250
  6
CONTINUOUS
 10
-8.295528739
 20
-18.1625
 11
-8.3831238711
 21
-18.1625
  0
LINE
  5
308
100
AcDbEntity
  8
RACCORDO
100
AcDbLine
 62
250
  6
CONTINUOUS
 10
-8.5958991144
 20
-18.1625
 11
-8.6830276041
 21
-18.1625
  0
LINE
  5
309
100
AcDbEntity
  8
RACCORDO
100
AcDbLine
 62
250
  6
CONTINUOUS
 10
-8.8955401578
 20
-18.1625
 11
-8.9828651247
 21
-18.1625
  0
LINE
  5
30A
100
AcDbEntity
  8
RACCORDO
100
AcDbLine
 62
7
  6
CONTINUOUS
 10
19.8900673378
 20
-18.0625
 11
19.0889257472
 21
-18.0625
  0
LINE
  5
30B
100
AcDbEntity
  8
RACCORDO
100
AcDbLine
 62
7
  6
CONTINUOUS
 10
-16.5355034575
 20
-16.7375
 11
-16.7939668303
 21
-16.7375
  0
LINE
  5
30C
100
AcDbEntity
  8
RACCORDO
100
AcDbLine
 62
250
  6
CONTINUOUS
 10
-16.5355034575
 20
-16.8683930538
 11
-16.8787693728
 21
-16.8678127911
  0
LINE
  5
30D
100
AcDbEntity
  8
RACCORDO
100
AcDbLine
 62
250
  6
CONTINUOUS
 10
-16.5355034575
 20
-16.7684354603
 11
-16.7787852934
 21
-16.7678723277
  0
LINE
  5
30E
100
AcDbEntity
  8
RACCORDO
100
AcDbLine
 62
7
  6
CONTINUOUS
 10
-16.5355034575
 20
-18.8625
 11
-16.5355034575
 21
-15.5625
  0
LINE
  5
30F
100
AcDbEntity
  8
DRAFT
100
AcDbLine
 62
7
  6
CONTINUOUS
 10
-16.2605034575
 20
4.5125
 11
-16.2605034575
 21
4.5421168312
  0
LINE
  5
310
100
AcDbEntity
  8
DRAFT
100
AcDbLine
 62
7
  6
CONTINUOUS
 10
-16.2578550333
 20
4.5125
 11
-16.2578550333
 21
4.539468407
  0
LINE
  5
311
100
AcDbEntity
  8
DRAFT
100
AcDbLine
 62
7
  6
CONTINUOUS
 10
-16.1105034575
 20
7.9875
 11
-16.1105034575
 21
10.325
  0
LINE
  5
312
100
AcDbEntity
  8
DRAFT
100
AcDbLine
 62
7
  6
CONTINUOUS
 10
-16.1105034575
 20
12.325
 11
-16.1105034575
 21
14.6625
  0
LINE
  5
313
100
AcDbEntity
  8
DRAFT
100
AcDbLine
 62
7
  6
CONTINUOUS
 10
-16.1105034575
 20
19.475
 11
-16.1105034575
 21
21.8125
  0
LINE
  5
314
100
AcDbEntity
  8
DRAFT
100
AcDbLine
 62
7
  6
CONTINUOUS
 10
-16.1105034575
 20
23.8125
 11
-16.1105034575
 21
25.3375
  0
LINE
  5
315
100
AcDbEntity
  8
DRAFT
100
AcDbLine
 62
7
  6
CONTINUOUS
 10
-16.0878049573
 20
23.8125
 11
-16.0878049573
 21
21.8125
  0
LINE
  5
316
100
AcDbEntity
  8
DRAFT
100
AcDbLine
 62
7
  6
CONTINUOUS
 10
-16.0878049573
 20
12.325
 11
-16.0878049573
 21
10.325
  0
LINE
  5
317
100
AcDbEntity
  8
DRAFT
100
AcDbLine
 62
7
  6
CONTINUOUS
 10
-16.0878049573
 20
25.3375
 11
-16.0878049573
 21
26.1273014999
  0
LINE
  5
318
100
AcDbEntity
  8
DRAFT
100
AcDbLine
 62
7
  6
CONTINUOUS
 10
-16.0725496602
 20
26.1120462027
 11
-16.0725496602
 21
19.5129537973
  0
LINE
  5
319
100
AcDbEntity
  8
DRAFT
100
AcDbLine
 62
7
  6
CONTINUOUS
 10
-16.0725496602
 20
14.6245462027
 11
-16.0725496602
 21
8.0254537973
  0
LINE
  5
31A
100
AcDbEntity
  8
RACCORDO
100
AcDbLine
 62
250
  6
CONTINUOUS
 10
-16.0484754259
 20
-22.0318487084
 11
-16.0484754259
 21
-22.1625
  0
LINE
  5
31B
100
AcDbEntity
  8
RACCORDO
100
AcDbLine
 62
250
  6
CONTINUOUS
 10
-15.8916679326
 20
-21.2072496409
 11
-15.8916679326
 21
-21.2376786766
  0
LINE
  5
31C
100
AcDbEntity
  8
RACCORDO
100
AcDbLine
 62
250
  6
CONTINUOUS
 10
-15.7854111779
 20
-21.0334603653
 11
-15.7854111779
 21
-21.2376693676
  0
LINE
  5
31D
100
AcDbEntity
  8
RACCORDO
100
AcDbLine
 62
250
  6
CONTINUOUS
 10
-15.7826710441
 20
-22.0318487084
 11
-15.7826710441
 21
-22.1625
  0
LINE
  5
31E
100
AcDbEntity
  8
RACCORDO
100
AcDbLine
 62
250
  6
CONTINUOUS
 10
-15.7803270687
 20
-21.026199505
 11
-15.7803270687
 21
-21.2478406849
  0
LINE
  5
31F
100
AcDbEntity
  8
RACCORDO
100
AcDbLine
 62
7
  6
CONTINUOUS
 10
-15.7785019272
 20
-22.0235079335
 11
-15.7785019272
 21
-22.1625
  0
LINE
  5
320
100
AcDbEntity
  8
RACCORDO
100
AcDbLine
 62
250
  6
CONTINUOUS
 10
-15.6741476391
 20
-20.8852197673
 11
-15.6741476391
 21
-21.2504476668
  0
LINE
  5
321
100
AcDbEntity
  8
RACCORDO
100
AcDbLine
 62
250
  6
CONTINUOUS
 10
-14.4515405539
 20
-20.3267321848
 11
-14.4515405539
 21
-20.1883140484
  0
LINE
  5
322
100
AcDbEntity
  8
RACCORDO
100
AcDbLine
 62
250
  6
CONTINUOUS
 10
-14.3459146438
 20
-20.3267321848
 11
-14.3459146438
 21
-20.1741564837
  0
LINE
  5
323
100
AcDbEntity
  8
RACCORDO
100
AcDbLine
 62
7
  6
CONTINUOUS
 10
-14.3105034575
 20
-20.1710584063
 11
-14.3105034575
 21
-20.3363835889
  0
LINE
  5
324
100
AcDbEntity
  8
RACCORDO
100
AcDbLine
 62
7
  6
CONTINUOUS
 10
-11.1546934565
 20
27.0652392472
 11
-11.1547163022
 21
27.0650677587
  0
LINE
  5
325
100
AcDbEntity
  8
RACCORDO
100
AcDbLine
 62
7
  6
CONTINUOUS
 10
-13.3825012253
 20
7.0398753521
 11
-13.3689422989
 21
7.0670014697
  0
LINE
  5
326
100
AcDbEntity
  8
DRAFT
100
AcDbLine
 62
7
  6
CONTINUOUS
 10
3.5667980423
 20
26.1273014999
 11
3.5318112863
 21
26.0923147438
  0
LINE
  5
327
100
AcDbEntity
  8
DRAFT
100
AcDbLine
 62
7
  6
CONTINUOUS
 10
3.5667980423
 20
25.9773014999
 11
3.5318112863
 21
25.9423147438
  0
LINE
  5
328
100
AcDbEntity
  8
DRAFT
100
AcDbLine
 62
7
  6
CONTINUOUS
 10
6.7394965425
 20
28.4625
 11
6.7333872698
 21
28.4563907273
  0
LINE
  5
329
100
AcDbEntity
  8
DRAFT
100
AcDbLine
 62
7
  6
CONTINUOUS
 10
0.289802524
 20
15.61875
 11
0.2394965425
 21
15.5986705576
  0
LINE
  5
32A
100
AcDbEntity
  8
RACCORDO
100
AcDbLine
 62
250
  6
CONTINUOUS
 10
14.1552215465
 20
-16.6850356112
 11
11.5722861279
 21
-16.6873996286
  0
LINE
  5
32B
100
AcDbEntity
  8
RACCORDO
100
AcDbLine
 62
7
  6
CONTINUOUS
 10
11.9894965425
 20
-16.4625
 11
13.7394965425
 21
-16.4625
  0
LINE
  5
32C
100
AcDbEntity
  8
RACCORDO
100
AcDbLine
 62
7
  6
CONTINUOUS
 10
-16.7939668303
 20
-16.3875
 11
-16.5355034575
 21
-16.3875
  0
LINE
  5
32D
100
AcDbEntity
  8
RACCORDO
100
AcDbLine
 62
250
  6
CONTINUOUS
 10
-16.5355034575
 20
-16.2566079383
 11
-16.8787693728
 21
-16.2571872089
  0
LINE
  5
32E
100
AcDbEntity
  8
DRAFT
100
AcDbLine
 62
7
  6
CONTINUOUS
 10
-19.0043941848
 20
-15.642905626
 11
-18.6355034575
 21
-15.642905626
  0
LINE
  5
32F
100
AcDbEntity
  8
RACCORDO
100
AcDbLine
 62
7
  6
CONTINUOUS
 10
14.0894965425
 20
-15.6125
 11
11.9894965425
 21
-15.6125
  0
LINE
  5
330
100
AcDbEntity
  8
DRAFT
100
AcDbLine
 62
7
  6
CONTINUOUS
 10
-18.6355034575
 20
-15.5515540834
 11
-18.121449374
 21
-15.5515540834
  0
LINE
  5
331
100
AcDbEntity
  8
DRAFT
100
AcDbLine
 62
7
  6
CONTINUOUS
 10
-18.1355034575
 20
-15.5375
 11
-19.0035214315
 21
-15.5375
  0
LINE
  5
332
100
AcDbEntity
  8
RACCORDO
100
AcDbLine
 62
7
  6
CONTINUOUS
 10
-17.1355034575
 20
-15.1625
 11
-16.9355034575
 21
-15.1625
  0
LINE
  5
333
100
AcDbEntity
  8
DRAFT
100
AcDbLine
 62
7
  6
CONTINUOUS
 10
-19.0035214315
 20
-14.7875
 11
-18.1355034575
 21
-14.7875
  0
LINE
  5
334
100
AcDbEntity
  8
DRAFT
100
AcDbLine
 62
7
  6
CONTINUOUS
 10
-18.6355034575
 20
-14.7734459165
 11
-18.121449374
 21
-14.7734459165
  0
LINE
  5
335
100
AcDbEntity
  8
DRAFT
100
AcDbLine
 62
7
  6
CONTINUOUS
 10
-19.0043941848
 20
-14.6820943739
 11
-18.6355034575
 21
-14.6820943739
  0
LINE
  5
336
100
AcDbEntity
  8
RACCORDO
100
AcDbLine
 62
250
  6
CONTINUOUS
 10
-17.1355034575
 20
-14.5298293864
 11
-17.1675263932
 21
-14.5298293864
  0
LINE
  5
337
100
AcDbEntity
  8
DRAFT
100
AcDbLine
 62
7
  6
CONTINUOUS
 10
-19.5105034575
 20
-14.5125
 11
-19.0105034575
 21
-14.5125
  0
LINE
  5
338
100
AcDbEntity
  8
DRAFT
100
AcDbLine
 62
7
  6
CONTINUOUS
 10
-19.5043941848
 20
-14.5063907273
 11
-19.0043941848
 21
-14.5063907273
  0
LINE
  5
339
100
AcDbEntity
  8
RACCORDO
100
AcDbLine
 62
250
  6
CONTINUOUS
 10
11.9895225729
 20
-15.5877686376
 11
11.8345995745
 21
-15.5876262454
  0
LINE
  5
33A
100
AcDbEntity
  8
RACCORDO
100
AcDbLine
 62
250
  6
CONTINUOUS
 10
14.237523727
 20
-15.5900315782
 11
14.0895209077
 21
-15.5898722115
  0
LINE
  5
33B
100
AcDbEntity
  8
RACCORDO
100
AcDbLine
 62
250
  6
CONTINUOUS
 10
14.5341928465
 20
-15.3403788303
 11
11.5433298043
 21
-15.3376003713
  0
LINE
  5
33C
100
AcDbEntity
  8
RACCORDO
100
AcDbLine
 62
250
  6
CONTINUOUS
 10
-8.9736673282
 20
-11.8575499495
 11
-8.9189281086
 21
-11.889666476
  0
LINE
  5
33D
100
AcDbEntity
  8
RACCORDO
100
AcDbLine
 62
250
  6
CONTINUOUS
 10
-9.2290512672
 20
-12.3078124607
 11
-9.2862929356
 21
-12.2549452377
  0
LINE
  5
33E
100
AcDbEntity
  8
RACCORDO
100
AcDbLine
 62
250
  6
CONTINUOUS
 10
-13.6613062352
 20
-9.2868495155
 11
-13.7106557508
 21
-9.2375
  0
LINE
  5
33F
100
AcDbEntity
  8
DRAFT
100
AcDbLine
 62
7
  6
CONTINUOUS
 10
-19.0043941848
 20
25.357094374
 11
-19.0105034575
 21
25.4062836661
  0
LINE
  5
340
100
AcDbEntity
  8
DRAFT
100
AcDbLine
 62
7
  6
CONTINUOUS
 10
-19.0105034575
 20
26.2687163339
 11
-19.0035214315
 21
26.2125
  0
LINE
  5
341
100
AcDbEntity
  8
ASSI
100
AcDbLine
 62
7
  6
CONTINUOUS
 10
-14.1355034575
 20
9.825
 11
-14.1355034575
 21
12.825
  0
LINE
  5
342
100
AcDbEntity
  8
0
100
AcDbLine
 62
7
  6
CONTINUOUS
 10
-14.1355034575
 20
21.3125
 11
-14.1355034575
 21
24.3125
  0
LINE
  5
343
100
AcDbEntity
  8
DRAFT
100
AcDbLine
 62
7
  6
CONTINUOUS
 10
-14.0537374254
 20
8.0307339679
 11
-14.0537374254
 21
8.6807339679
  0
LINE
  5
344
100
AcDbEntity
  8
DRAFT
100
AcDbLine
 62
7
  6
CONTINUOUS
 10
-14.0537374254
 20
13.9692660322
 11
-14.0537374254
 21
14.6192660322
  0
LINE
  5
345
100
AcDbEntity
  8
DRAFT
100
AcDbLine
 62
7
  6
CONTINUOUS
 10
-14.0537374254
 20
19.5182339679
 11
-14.0537374254
 21
20.1682339679
  0
LINE
  5
346
100
AcDbEntity
  8
DRAFT
100
AcDbLine
 62
7
  6
CONTINUOUS
 10
-14.0537374254
 20
25.4567660322
 11
-14.0537374254
 21
26.1067660322
  0
LINE
  5
347
100
AcDbEntity
  8
DRAFT
100
AcDbLine
 62
7
  6
CONTINUOUS
 10
-14.0332019577
 20
25.4773014999
 11
-14.0332019577
 21
26.1273014999
  0
LINE
  5
348
100
AcDbEntity
  8
DRAFT
100
AcDbLine
 62
7
  6
CONTINUOUS
 10
-14.0105034575
 20
20.125
 11
-14.0105034575
 21
19.475
  0
LINE
  5
349
100
AcDbEntity
  8
DRAFT
100
AcDbLine
 62
7
  6
CONTINUOUS
 10
-14.0105034575
 20
14.6625
 11
-14.0105034575
 21
14.0125
  0
LINE
  5
34A
100
AcDbEntity
  8
DRAFT
100
AcDbLine
 62
7
  6
CONTINUOUS
 10
-14.0105034575
 20
8.6375
 11
-14.0105034575
 21
7.9875
  0
LINE
  5
34B
100
AcDbEntity
  8
RACCORDO
100
AcDbLine
 62
7
  6
CONTINUOUS
 10
-13.9605034575
 20
-20.3363835889
 11
-13.9605034575
 21
-20.1710584063
  0
LINE
  5
34C
100
AcDbEntity
  8
RACCORDO
100
AcDbLine
 62
250
  6
CONTINUOUS
 10
-13.9238834243
 20
-20.1742622441
 11
-13.9238834243
 21
-20.3264126493
  0
LINE
  5
34D
100
AcDbEntity
  8
RACCORDO
100
AcDbLine
 62
250
  6
CONTINUOUS
 10
-13.82937274
 20
-20.1868656274
 11
-13.82937274
 21
-20.3264126493
  0
LINE
  5
34E
100
AcDbEntity
  8
DRAFT
100
AcDbLine
 62
7
  6
CONTINUOUS
 10
-13.4060131588
 20
28.0330097013
 11
-13.4060131588
 21
27.3375
  0
LINE
  5
34F
100
AcDbEntity
  8
DRAFT
100
AcDbLine
 62
7
  6
CONTINUOUS
 10
-13.4060131588
 20
19.1875
 11
-13.4060131588
 21
17.5919902987
  0
LINE
  5
350
100
AcDbEntity
  8
DRAFT
100
AcDbLine
 62
7
  6
CONTINUOUS
 10
-13.4060131588
 20
16.5455097013
 11
-13.4060131588
 21
14.95
  0
LINE
  5
351
100
AcDbEntity
  8
DRAFT
100
AcDbLine
 62
7
  6
CONTINUOUS
 10
-13.4060131588
 20
7.7
 11
-13.4060131588
 21
6.1044902987
  0
LINE
  5
352
100
AcDbEntity
  8
DRAFT
100
AcDbLine
 62
7
  6
CONTINUOUS
 10
-13.3946673666
 20
27.3375
 11
-13.3946673666
 21
26.4375
  0
LINE
  5
353
100
AcDbEntity
  8
DRAFT
100
AcDbLine
 62
7
  6
CONTINUOUS
 10
-13.3855034575
 20
6.125
 11
-13.3855034575
 21
6.475
  0
LINE
  5
354
100
AcDbEntity
  8
DRAFT
100
AcDbLine
 62
7
  6
CONTINUOUS
 10
-13.3855034575
 20
16.175
 11
-13.3855034575
 21
16.525
  0
LINE
  5
355
100
AcDbEntity
  8
DRAFT
100
AcDbLine
 62
7
  6
CONTINUOUS
 10
-13.3855034575
 20
17.6125
 11
-13.3855034575
 21
17.9625
  0
LINE
  5
356
100
AcDbEntity
  8
DRAFT
100
AcDbLine
 62
7
  6
CONTINUOUS
 10
-13.3855034575
 20
27.6625
 11
-13.3855034575
 21
28.0125
  0
LINE
  5
357
100
AcDbEntity
  8
DRAFT
100
AcDbLine
 62
7
  6
CONTINUOUS
 10
-13.3825012253
 20
27.6625
 11
-13.3825012253
 21
27.0976246479
  0
LINE
  5
358
100
AcDbEntity
  8
DRAFT
100
AcDbLine
 62
7
  6
CONTINUOUS
 10
-13.3825012253
 20
18.5273753521
 11
-13.3825012253
 21
17.9625
  0
LINE
  5
359
100
AcDbEntity
  8
DRAFT
100
AcDbLine
 62
7
  6
CONTINUOUS
 10
-13.3825012253
 20
16.175
 11
-13.3825012253
 21
15.6101246479
  0
LINE
  5
35A
100
AcDbEntity
  8
DRAFT
100
AcDbLine
 62
7
  6
CONTINUOUS
 10
-13.3825012253
 20
7.0398753521
 11
-13.3825012253
 21
6.475
  0
LINE
  5
35B
100
AcDbEntity
  8
RACCORDO
100
AcDbLine
 62
7
  6
CONTINUOUS
 10
-13.3689194532
 20
27.0704071126
 11
-13.3689194532
 21
26.4375
  0
LINE
  5
35C
100
AcDbEntity
  8
RACCORDO
100
AcDbLine
 62
7
  6
CONTINUOUS
 10
-13.3689194532
 20
19.1875
 11
-13.3689194532
 21
18.5545928875
  0
LINE
  5
35D
100
AcDbEntity
  8
RACCORDO
100
AcDbLine
 62
7
  6
CONTINUOUS
 10
-13.3689194532
 20
15.5829071126
 11
-13.3689194532
 21
14.95
  0
LINE
  5
35E
100
AcDbEntity
  8
RACCORDO
100
AcDbLine
 62
7
  6
CONTINUOUS
 10
-13.3689194532
 20
7.7
 11
-13.3689194532
 21
7.0670928875
  0
LINE
  5
35F
100
AcDbEntity
  8
RACCORDO
100
AcDbLine
 62
7
  6
CONTINUOUS
 10
-12.9855034575
 20
4.5691721818
 11
-12.9855034575
 21
5.4561826714
  0
LINE
  5
360
100
AcDbEntity
  8
RACCORDO
100
AcDbLine
 62
250
  6
CONTINUOUS
 10
-12.8855034575
 20
4.5674266754
 11
-12.8855034575
 21
5.0958668826
  0
LINE
  5
361
100
AcDbEntity
  8
ASSI
100
AcDbLine
 62
7
  6
CONTINUOUS
 10
-12.8855034575
 20
9.825
 11
-12.8855034575
 21
12.825
  0
LINE
  5
362
100
AcDbEntity
  8
0
100
AcDbLine
 62
7
  6
CONTINUOUS
 10
-12.8855034575
 20
21.3125
 11
-12.8855034575
 21
24.3125
  0
LINE
  5
363
100
AcDbEntity
  8
RACCORDO
100
AcDbLine
 62
250
  6
CONTINUOUS
 10
-12.5827518609
 20
-21.2482753938
 11
-12.5827518609
 21
-20.9030711094
  0
LINE
  5
364
100
AcDbEntity
  8
RACCORDO
100
AcDbLine
 62
7
  6
CONTINUOUS
 10
-12.4893107481
 20
-22.1625
 11
-12.4893107481
 21
-22.0298983598
  0
LINE
  5
365
100
AcDbEntity
  8
RACCORDO
100
AcDbLine
 62
250
  6
CONTINUOUS
 10
-12.4876776826
 20
-21.2418345275
 11
-12.4876776826
 21
-21.0304870391
  0
LINE
  5
366
100
AcDbEntity
  8
RACCORDO
100
AcDbLine
 62
250
  6
CONTINUOUS
 10
-12.4846514426
 20
-22.1625
 11
-12.4846514426
 21
-22.039219811
  0
LINE
  5
367
100
AcDbEntity
  8
RACCORDO
100
AcDbLine
 62
250
  6
CONTINUOUS
 10
-12.4821993625
 20
-21.0860151494
 11
-12.4821993624
 21
-21.0383108912
  0
LINE
  5
368
100
AcDbEntity
  8
DRAFT
100
AcDbLine
 62
7
  6
CONTINUOUS
 10
-12.2670567526
 20
4.5125
 11
-12.2670567526
 21
4.5355635361
  0
LINE
  5
369
100
AcDbEntity
  8
DRAFT
100
AcDbLine
 62
7
  6
CONTINUOUS
 10
-12.2605034575
 20
4.5125
 11
-12.2605034575
 21
4.5421168312
  0
LINE
  5
36A
100
AcDbEntity
  8
RACCORDO
100
AcDbLine
 62
250
  6
CONTINUOUS
 10
-12.2465922014
 20
-22.1625
 11
-12.2465922014
 21
-22.039219811
  0
LINE
  5
36B
100
AcDbEntity
  8
RACCORDO
100
AcDbLine
 62
7
  6
CONTINUOUS
 10
-11.1546934565
 20
15.5777392472
 11
-11.1547163022
 21
15.5775677615
  0
LINE
  5
36C
100
AcDbEntity
  8
RACCORDO
100
AcDbLine
 62
7
  6
CONTINUOUS
 10
-11.6108839877
 20
5.1954863524
 11
-11.61177358
 21
5.1945779428
  0
LINE
  5
36D
100
AcDbEntity
  8
RACCORDO
100
AcDbLine
 62
250
  6
CONTINUOUS
 10
-1.9070469689
 20
17.7655759584
 11
-1.810809439
 21
17.8618134883
  0
LINE
  5
36E
100
AcDbEntity
  8
DRAFT
100
AcDbLine
 62
7
  6
CONTINUOUS
 10
-13.4060131588
 20
6.1044902987
 11
-13.3855034575
 21
6.125
  0
LINE
  5
36F
100
AcDbEntity
  8
RACCORDO
100
AcDbLine
 62
250
  6
CONTINUOUS
 10
-1.8074274991
 20
17.6659564886
 11
-1.7111899692
 21
17.7621940185
  0
LINE
  5
370
100
AcDbEntity
  8
DRAFT
100
AcDbLine
 62
7
  6
CONTINUOUS
 10
-10.5105034575
 20
8.6375
 11
-10.4597211122
 21
8.6882823453
  0
LINE
  5
371
100
AcDbEntity
  8
DRAFT
100
AcDbLine
 62
7
  6
CONTINUOUS
 10
-10.5105034575
 20
7.9875
 11
-10.4597211122
 21
8.0382823453
  0
LINE
  5
372
100
AcDbEntity
  8
DRAFT
100
AcDbLine
 62
7
  6
CONTINUOUS
 10
8.9667980423
 20
26.1273014999
 11
8.9387141972
 21
26.0992176547
  0
LINE
  5
373
100
AcDbEntity
  8
RACCORDO
100
AcDbLine
 62
7
  6
CONTINUOUS
 10
-11.6108839877
 20
5.1954863524
 11
-11.7105034575
 21
5.0958668826
  0
LINE
  5
374
100
AcDbEntity
  8
DRAFT
100
AcDbLine
 62
7
  6
CONTINUOUS
 10
-12.2670567526
 20
4.5355635361
 11
-12.2605034575
 21
4.5421168312
  0
LINE
  5
375
100
AcDbEntity
  8
RACCORDO
100
AcDbLine
 62
7
  6
CONTINUOUS
 10
-11.7008762133
 20
5.1053956716
 11
-11.7105034575
 21
5.0958668826
  0
LINE
  5
376
100
AcDbEntity
  8
DRAFT
100
AcDbLine
 62
7
  6
CONTINUOUS
 10
0.3860400539
 20
14.6625
 11
0.2394965425
 21
14.6040077111
  0
LINE
  5
377
100
AcDbEntity
  8
RACCORDO
100
AcDbLine
 62
250
  6
CONTINUOUS
 10
-17.1355034575
 20
-13.5951706136
 11
-17.1675263932
 21
-13.5951706136
  0
LINE
  5
378
100
AcDbEntity
  8
RACCORDO
100
AcDbLine
 62
7
  6
CONTINUOUS
 10
11.9894965425
 20
-12.5625
 11
14.0894965425
 21
-12.5625
  0
LINE
  5
379
100
AcDbEntity
  8
RACCORDO
100
AcDbLine
 62
250
  6
CONTINUOUS
 10
-17.1355034575
 20
-12.0298293864
 11
-17.1675263932
 21
-12.0298293864
  0
LINE
  5
37A
100
AcDbEntity
  8
RACCORDO
100
AcDbLine
 62
250
  6
CONTINUOUS
 10
-9.0367666735
 20
-9.2863890773
 11
-9.0856557508
 21
-9.2375
  0
LINE
  5
37B
100
AcDbEntity
  8
DRAFT
100
AcDbLine
 62
7
  6
CONTINUOUS
 10
-15.3855034575
 20
27.3375
 11
-15.5105034575
 21
28.4625
  0
LINE
  5
37C
100
AcDbEntity
  8
RACCORDO
100
AcDbLine
 62
250
  6
CONTINUOUS
 10
-11.7105034575
 20
5.0958668826
 11
-11.7105034575
 21
4.5674266754
  0
LINE
  5
37D
100
AcDbEntity
  8
RACCORDO
100
AcDbLine
 62
7
  6
CONTINUOUS
 10
-11.6105034575
 20
4.5691721818
 11
-11.6105034575
 21
5.4561826714
  0
LINE
  5
37E
100
AcDbEntity
  8
DRAFT
100
AcDbLine
 62
7
  6
CONTINUOUS
 10
-11.1987961046
 20
4.5125
 11
-11.1987961046
 21
4.5421168312
  0
LINE
  5
37F
100
AcDbEntity
  8
DRAFT
100
AcDbLine
 62
7
  6
CONTINUOUS
 10
-11.1913882566
 20
4.5125
 11
-11.1913882566
 21
4.5347089832
  0
LINE
  5
380
100
AcDbEntity
  8
RACCORDO
100
AcDbLine
 62
7
  6
CONTINUOUS
 10
-11.1547163022
 20
7.0723787441
 11
-11.1547163022
 21
7.7002160055
  0
LINE
  5
381
100
AcDbEntity
  8
RACCORDO
100
AcDbLine
 62
7
  6
CONTINUOUS
 10
-11.1547163022
 20
14.9497839946
 11
-11.1547163022
 21
15.5776212576
  0
LINE
  5
382
100
AcDbEntity
  8
RACCORDO
100
AcDbLine
 62
7
  6
CONTINUOUS
 10
-11.1547163022
 20
18.5598787441
 11
-11.1547163022
 21
19.1877160055
  0
LINE
  5
383
100
AcDbEntity
  8
RACCORDO
100
AcDbLine
 62
7
  6
CONTINUOUS
 10
-11.1547163022
 20
26.4372839946
 11
-11.1547163022
 21
27.0651212544
  0
LINE
  5
384
100
AcDbEntity
  8
DRAFT
100
AcDbLine
 62
7
  6
CONTINUOUS
 10
-11.1385056897
 20
6.475
 11
-11.1385056897
 21
7.0398753521
  0
LINE
  5
385
100
AcDbEntity
  8
DRAFT
100
AcDbLine
 62
7
  6
CONTINUOUS
 10
-11.1385056897
 20
15.6101246479
 11
-11.1385056897
 21
16.175
  0
LINE
  5
386
100
AcDbEntity
  8
DRAFT
100
AcDbLine
 62
7
  6
CONTINUOUS
 10
-11.1385056897
 20
17.9625
 11
-11.1385056897
 21
18.5273753521
  0
LINE
  5
387
100
AcDbEntity
  8
DRAFT
100
AcDbLine
 62
7
  6
CONTINUOUS
 10
-11.1385056897
 20
27.0976246479
 11
-11.1385056897
 21
27.6625
  0
LINE
  5
388
100
AcDbEntity
  8
DRAFT
100
AcDbLine
 62
7
  6
CONTINUOUS
 10
-11.1355034575
 20
6.125
 11
-11.1355034575
 21
6.475
  0
LINE
  5
389
100
AcDbEntity
  8
DRAFT
100
AcDbLine
 62
7
  6
CONTINUOUS
 10
-11.1355034575
 20
16.175
 11
-11.1355034575
 21
16.525
  0
LINE
  5
38A
100
AcDbEntity
  8
DRAFT
100
AcDbLine
 62
7
  6
CONTINUOUS
 10
-11.1355034575
 20
17.6125
 11
-11.1355034575
 21
17.9625
  0
LINE
  5
38B
100
AcDbEntity
  8
DRAFT
100
AcDbLine
 62
7
  6
CONTINUOUS
 10
-11.1355034575
 20
27.6625
 11
-11.1355034575
 21
28.0125
  0
LINE
  5
38C
100
AcDbEntity
  8
DRAFT
100
AcDbLine
 62
7
  6
CONTINUOUS
 10
-11.1263395484
 20
27.3375
 11
-11.1263395484
 21
26.4375
  0
LINE
  5
38D
100
AcDbEntity
  8
DRAFT
100
AcDbLine
 62
7
  6
CONTINUOUS
 10
-11.1149937562
 20
28.0330097013
 11
-11.1149937562
 21
27.3375
  0
LINE
  5
38E
100
AcDbEntity
  8
DRAFT
100
AcDbLine
 62
7
  6
CONTINUOUS
 10
-11.1149937562
 20
19.1875
 11
-11.1149937562
 21
17.5919902987
  0
LINE
  5
38F
100
AcDbEntity
  8
DRAFT
100
AcDbLine
 62
7
  6
CONTINUOUS
 10
-11.1149937562
 20
16.5455097013
 11
-11.1149937562
 21
14.95
  0
LINE
  5
390
100
AcDbEntity
  8
DRAFT
100
AcDbLine
 62
7
  6
CONTINUOUS
 10
-11.1149937562
 20
7.7
 11
-11.1149937562
 21
6.1044902987
  0
LINE
  5
391
100
AcDbEntity
  8
DRAFT
100
AcDbLine
 62
7
  6
CONTINUOUS
 10
-10.5105034575
 20
7.9875
 11
-10.5105034575
 21
8.6375
  0
LINE
  5
392
100
AcDbEntity
  8
DRAFT
100
AcDbLine
 62
7
  6
CONTINUOUS
 10
-10.5105034575
 20
14.0125
 11
-10.5105034575
 21
14.6625
  0
LINE
  5
393
100
AcDbEntity
  8
DRAFT
100
AcDbLine
 62
7
  6
CONTINUOUS
 10
-10.5105034575
 20
19.475
 11
-10.5105034575
 21
20.125
  0
LINE
  5
394
100
AcDbEntity
  8
DRAFT
100
AcDbLine
 62
7
  6
CONTINUOUS
 10
-10.4878049573
 20
26.1273014999
 11
-10.4878049573
 21
25.4773014999
  0
LINE
  5
395
100
AcDbEntity
  8
DRAFT
100
AcDbLine
 62
7
  6
CONTINUOUS
 10
-10.4597211122
 20
8.0382823453
 11
-10.4597211122
 21
8.6882823453
  0
LINE
  5
396
100
AcDbEntity
  8
DRAFT
100
AcDbLine
 62
7
  6
CONTINUOUS
 10
-10.4597211122
 20
13.9617176547
 11
-10.4597211122
 21
14.6117176547
  0
LINE
  5
397
100
AcDbEntity
  8
DRAFT
100
AcDbLine
 62
7
  6
CONTINUOUS
 10
-10.4597211122
 20
19.5257823453
 11
-10.4597211122
 21
20.1757823453
  0
LINE
  5
398
100
AcDbEntity
  8
DRAFT
100
AcDbLine
 62
7
  6
CONTINUOUS
 10
-10.4597211122
 20
25.4492176547
 11
-10.4597211122
 21
26.0992176547
  0
LINE
  5
399
100
AcDbEntity
  8
0
100
AcDbLine
 62
7
  6
CONTINUOUS
 10
-10.0105034575
 20
-6.4125
 11
-10.0105034575
 21
2.5875
  0
LINE
  5
39A
100
AcDbEntity
  8
RACCORDO
100
AcDbLine
 62
7
  6
CONTINUOUS
 10
-9.7343925348
 20
-24.830123551
 11
-9.7343925348
 21
-24.6210226483
  0
LINE
  5
39B
100
AcDbEntity
  8
RACCORDO
100
AcDbLine
 62
7
  6
CONTINUOUS
 10
-9.7343925348
 20
-10.9539773517
 11
-9.7343925348
 21
-10.794876449
  0
LINE
  5
39C
100
AcDbEntity
  8
RACCORDO
100
AcDbLine
 62
7
  6
CONTINUOUS
 10
-9.7343925348
 20
-12.1210226483
 11
-9.7343925453
 21
-12.3301235481
  0
LINE
  5
39D
100
AcDbEntity
  8
RACCORDO
100
AcDbLine
 62
7
  6
CONTINUOUS
 10
-9.6855034575
 20
-10.7819886071
 11
-9.6855034575
 21
-10.9375
  0
LINE
  5
39E
100
AcDbEntity
  8
RACCORDO
100
AcDbLine
 62
7
  6
CONTINUOUS
 10
-9.6855034575
 20
-12.1375
 11
-9.6855034575
 21
-12.3430113929
  0
LINE
  5
39F
100
AcDbEntity
  8
RACCORDO
100
AcDbLine
 62
7
  6
CONTINUOUS
 10
-9.6855034575
 20
-23.2819886071
 11
-9.6855034575
 21
-23.4375
  0
LINE
  5
3A0
100
AcDbEntity
  8
RACCORDO
100
AcDbLine
 62
7
  6
CONTINUOUS
 10
-9.6855034575
 20
-24.6375
 11
-9.6855034575
 21
-24.8430113929
  0
LINE
  5
3A1
100
AcDbEntity
  8
DRAFT
100
AcDbLine
 62
7
  6
CONTINUOUS
 10
-17.1930483926
 20
-8.8962301923
 11
-17.1651202887
 21
-8.8403569612
  0
LINE
  5
3A2
100
AcDbEntity
  8
RACCORDO
100
AcDbLine
 62
250
  6
CONTINUOUS
 10
-17.1675263932
 20
-11.0951706136
 11
-17.1886846264
 21
-11.1374999768
  0
LINE
  5
3A3
100
AcDbEntity
  8
DRAFT
100
AcDbLine
 62
7
  6
CONTINUOUS
 10
8.9667980423
 20
25.4773014999
 11
8.9387141972
 21
25.4492176547
  0
LINE
  5
3A4
100
AcDbEntity
  8
RACCORDO
100
AcDbLine
 62
250
  6
CONTINUOUS
 10
0.2864205841
 20
16.4715435114
 11
0.1901830542
 21
16.3753059816
  0
LINE
  5
3A5
100
AcDbEntity
  8
DRAFT
100
AcDbLine
 62
7
  6
CONTINUOUS
 10
11.8644965425
 20
28.0125
 11
11.8850062438
 21
28.0330097013
  0
LINE
  5
3A6
100
AcDbEntity
  8
RACCORDO
100
AcDbLine
 62
250
  6
CONTINUOUS
 10
0.3860400539
 20
16.3719240416
 11
0.289802524
 21
16.2756865117
  0
LINE
  5
3A7
100
AcDbEntity
  8
RACCORDO
100
AcDbLine
 62
7
  6
CONTINUOUS
 10
-10.2781270083
 20
-11.7863890779
 11
-10.0838089844
 21
-11.7863890773
  0
LINE
  5
3A8
100
AcDbEntity
  8
DRAFT
100
AcDbLine
 62
7
  6
CONTINUOUS
 10
8.7571200935
 20
-11.7863890773
 11
8.5628020694
 21
-11.7863890773
  0
LINE
  5
3A9
100
AcDbEntity
  8
DRAFT
100
AcDbLine
 62
7
  6
CONTINUOUS
 10
8.7700092339
 20
-11.7375
 11
8.5816325066
 21
-11.7375
  0
LINE
  5
3AA
100
AcDbEntity
  8
RACCORDO
100
AcDbLine
 62
7
  6
CONTINUOUS
 10
7.3973605784
 20
-11.7375
 11
7.2089838511
 21
-11.7375
  0
LINE
  5
3AB
100
AcDbEntity
  8
RACCORDO
100
AcDbLine
 62
7
  6
CONTINUOUS
 10
-8.7299907661
 20
-11.7375
 11
-8.9183674934
 21
-11.7375
  0
LINE
  5
3AC
100
AcDbEntity
  8
RACCORDO
100
AcDbLine
 62
7
  6
CONTINUOUS
 10
-10.1026394216
 20
-11.7375
 11
-10.2910161489
 21
-11.7375
  0
LINE
  5
3AD
100
AcDbEntity
  8
RACCORDO
100
AcDbLine
 62
7
  6
CONTINUOUS
 10
-10.2910161489
 20
-11.3875
 11
-10.1172365125
 21
-11.3875
  0
LINE
  5
3AE
100
AcDbEntity
  8
RACCORDO
100
AcDbLine
 62
7
  6
CONTINUOUS
 10
-8.9037704025
 20
-11.3875
 11
-8.7299907661
 21
-11.3875
  0
LINE
  5
3AF
100
AcDbEntity
  8
RACCORDO
100
AcDbLine
 62
7
  6
CONTINUOUS
 10
7.2089838511
 20
-11.3875
 11
7.3827634875
 21
-11.3875
  0
LINE
  5
3B0
100
AcDbEntity
  8
DRAFT
100
AcDbLine
 62
7
  6
CONTINUOUS
 10
8.5962295975
 20
-11.3875
 11
8.7700092339
 21
-11.3875
  0
LINE
  5
3B1
100
AcDbEntity
  8
DRAFT
100
AcDbLine
 62
7
  6
CONTINUOUS
 10
8.7571200935
 20
-11.3386109227
 11
8.5820065719
 21
-11.3386109227
  0
LINE
  5
3B2
100
AcDbEntity
  8
RACCORDO
100
AcDbLine
 62
7
  6
CONTINUOUS
 10
7.3969865131
 20
-11.3386109227
 11
7.2218729984
 21
-11.338610897
  0
LINE
  5
3B3
100
AcDbEntity
  8
RACCORDO
100
AcDbLine
 62
7
  6
CONTINUOUS
 10
-10.1030134869
 20
-11.3386109227
 11
-10.2781270085
 21
-11.3386109227
  0
LINE
  5
3B4
100
AcDbEntity
  8
RACCORDO
100
AcDbLine
 62
7
  6
CONTINUOUS
 10
-8.7428799136
 20
-11.3386108963
 11
-8.9179934281
 21
-11.3386109227
  0
LINE
  5
3B5
100
AcDbEntity
  8
RACCORDO
100
AcDbLine
 62
250
  6
CONTINUOUS
 10
15.6144965425
 20
-11.0951706136
 11
15.6465194782
 21
-11.0951706136
  0
LINE
  5
3B6
100
AcDbEntity
  8
RACCORDO
100
AcDbLine
 62
250
  6
CONTINUOUS
 10
-17.1355034575
 20
-11.0951706136
 11
-17.1675263932
 21
-11.0951706136
  0
LINE
  5
3B7
100
AcDbEntity
  8
RACCORDO
100
AcDbLine
 62
250
  6
CONTINUOUS
 10
15.6144965425
 20
-9.5298293864
 11
15.6465194782
 21
-9.5298293864
  0
LINE
  5
3B8
100
AcDbEntity
  8
RACCORDO
100
AcDbLine
 62
250
  6
CONTINUOUS
 10
-17.1355034575
 20
-9.5298293864
 11
-17.1675263932
 21
-9.5298293864
  0
LINE
  5
3B9
100
AcDbEntity
  8
RACCORDO
100
AcDbLine
 62
7
  6
CONTINUOUS
 10
-11.1546934565
 20
7.0722607529
 11
-11.1547163022
 21
7.072431835
  0
LINE
  5
3BA
100
AcDbEntity
  8
RACCORDO
100
AcDbLine
 62
7
  6
CONTINUOUS
 10
-9.3355034575
 20
-24.8430113929
 11
-9.3355034575
 21
-24.6375
  0
LINE
  5
3BB
100
AcDbEntity
  8
RACCORDO
100
AcDbLine
 62
7
  6
CONTINUOUS
 10
-9.3355034575
 20
-23.4375
 11
-9.3355034575
 21
-23.2819886071
  0
LINE
  5
3BC
100
AcDbEntity
  8
RACCORDO
100
AcDbLine
 62
7
  6
CONTINUOUS
 10
-9.3355034575
 20
-12.3430113929
 11
-9.3355034575
 21
-12.1375
  0
LINE
  5
3BD
100
AcDbEntity
  8
RACCORDO
100
AcDbLine
 62
7
  6
CONTINUOUS
 10
-9.3355034575
 20
-10.9375
 11
-9.3355034575
 21
-10.7819886071
  0
LINE
  5
3BE
100
AcDbEntity
  8
RACCORDO
100
AcDbLine
 62
7
  6
CONTINUOUS
 10
-9.2866143802
 20
-10.794876449
 11
-9.2866143802
 21
-10.9539773517
  0
LINE
  5
3BF
100
AcDbEntity
  8
RACCORDO
100
AcDbLine
 62
7
  6
CONTINUOUS
 10
-9.2866143802
 20
-24.6210226483
 11
-9.2866143802
 21
-24.830123551
  0
LINE
  5
3C0
100
AcDbEntity
  8
RACCORDO
100
AcDbLine
 62
7
  6
CONTINUOUS
 10
-9.2866143802
 20
-12.1850657454
 11
-9.2866143802
 21
-12.1210226483
  0
LINE
  5
3C1
100
AcDbEntity
  8
RACCORDO
100
AcDbLine
 62
250
  6
CONTINUOUS
 10
-9.2741592563
 20
-23.4589099737
 11
-9.2741592563
 21
-23.2982747643
  0
LINE
  5
3C2
100
AcDbEntity
  8
RACCORDO
100
AcDbLine
 62
250
  6
CONTINUOUS
 10
-9.1777091707
 20
-23.5084697903
 11
-9.1777091708
 21
-23.3354898016
  0
LINE
  5
3C3
100
AcDbEntity
  8
DRAFT
100
AcDbLine
 62
7
  6
CONTINUOUS
 10
-8.4644551433
 20
25.9460483142
 11
-8.4644551433
 21
26.0960483142
  0
LINE
  5
3C4
100
AcDbEntity
  8
DRAFT
100
AcDbLine
 62
7
  6
CONTINUOUS
 10
-8.4332019577
 20
26.1273014999
 11
-8.4332019577
 21
25.9773014999
  0
LINE
  5
3C5
100
AcDbEntity
  8
DRAFT
100
AcDbLine
 62
7
  6
CONTINUOUS
 10
-8.265739977
 20
27.0010134805
 11
-8.265739977
 21
27.3375
  0
LINE
  5
3C6
100
AcDbEntity
  8
DRAFT
100
AcDbLine
 62
7
  6
CONTINUOUS
 10
-8.2543941848
 20
28.4563907273
 11
-8.2543941848
 21
27.3375
  0
LINE
  5
3C7
100
AcDbEntity
  8
RACCORDO
100
AcDbLine
 62
250
  6
CONTINUOUS
 10
-17.1675263932
 20
-13.5951706136
 11
-17.1886846264
 21
-13.6374999768
  0
LINE
  5
3C8
100
AcDbEntity
  8
RACCORDO
100
AcDbLine
 62
250
  6
CONTINUOUS
 10
-16.8939211458
 20
-16.2874999907
 11
-16.8787693728
 21
-16.2571872089
  0
LINE
  5
3C9
100
AcDbEntity
  8
RACCORDO
100
AcDbLine
 62
250
  6
CONTINUOUS
 10
-16.7939668303
 20
-16.3875
 11
-16.7787836832
 21
-16.3571244509
  0
LINE
  5
3CA
100
AcDbEntity
  8
DRAFT
100
AcDbLine
 62
7
  6
CONTINUOUS
 10
14.5515427452
 20
26.1120462027
 11
14.5667980423
 21
26.1273014999
  0
LINE
  5
3CB
100
AcDbEntity
  8
DRAFT
100
AcDbLine
 62
7
  6
CONTINUOUS
 10
-5.571012011
 20
4.5316082777
 11
-5.5605034575
 21
4.5421168312
  0
LINE
  5
3CC
100
AcDbEntity
  8
RACCORDO
100
AcDbLine
 62
250
  6
CONTINUOUS
 10
18.4746978135
 20
28.4476631948
 11
18.4895346187
 21
28.4625
  0
LINE
  5
3CD
100
AcDbEntity
  8
DRAFT
100
AcDbLine
 62
7
  6
CONTINUOUS
 10
-1.9070469689
 20
7.9875
 11
-1.7605034575
 21
8.0459922889
  0
LINE
  5
3CE
100
AcDbEntity
  8
DRAFT
100
AcDbLine
 62
7
  6
CONTINUOUS
 10
-1.810809439
 20
7.03125
 11
-1.7605034575
 21
7.0513294425
  0
LINE
  5
3CF
100
AcDbEntity
  8
ASSI
100
AcDbLine
 62
7
  6
CONTINUOUS
 10
-17.1355034575
 20
-9.3875
 11
15.6144965425
 21
-9.3875
  0
LINE
  5
3D0
100
AcDbEntity
  8
RACCORDO
100
AcDbLine
 62
7
  6
CONTINUOUS
 10
7.3933405932
 20
-9.2863890959
 11
7.5157597584
 21
-9.2863890773
  0
LINE
  5
3D1
100
AcDbEntity
  8
RACCORDO
100
AcDbLine
 62
7
  6
CONTINUOUS
 10
-9.0367666735
 20
-9.2863890773
 11
-8.9143475018
 21
-9.2863890861
  0
LINE
  5
3D2
100
AcDbEntity
  8
RACCORDO
100
AcDbLine
 62
7
  6
CONTINUOUS
 10
-13.1214890459
 20
-9.2863890899
 11
-9.9842402416
 21
-9.2863890773
  0
LINE
  5
3D3
100
AcDbEntity
  8
RACCORDO
100
AcDbLine
 62
7
  6
CONTINUOUS
 10
8.4632333265
 20
-9.2863890773
 11
11.6004821792
 21
-9.2863890777
  0
LINE
  5
3D4
100
AcDbEntity
  8
RACCORDO
100
AcDbLine
 62
7
  6
CONTINUOUS
 10
-14.5603511643
 20
-9.2375
 11
-13.7106557508
 21
-9.2375
  0
LINE
  5
3D5
100
AcDbEntity
  8
RACCORDO
100
AcDbLine
 62
7
  6
CONTINUOUS
 10
-9.9353511643
 20
-9.2375
 11
-9.0856557508
 21
-9.2375
  0
LINE
  5
3D6
100
AcDbEntity
  8
RACCORDO
100
AcDbLine
 62
7
  6
CONTINUOUS
 10
-5.4780348077
 20
-9.2375
 11
3.9570278983
 21
-9.2375
  0
LINE
  5
3D7
100
AcDbEntity
  8
RACCORDO
100
AcDbLine
 62
7
  6
CONTINUOUS
 10
7.5646488357
 20
-9.2375
 11
8.4143442492
 21
-9.2375
  0
LINE
  5
3D8
100
AcDbEntity
  8
RACCORDO
100
AcDbLine
 62
7
  6
CONTINUOUS
 10
12.1896488357
 20
-9.2375
 11
13.0393442492
 21
-9.2375
  0
LINE
  5
3D9
100
AcDbEntity
  8
RACCORDO
100
AcDbLine
 62
7
  6
CONTINUOUS
 10
-16.9431626038
 20
-9.2287698076
 11
15.4221556888
 21
-9.2287698076
  0
LINE
  5
3DA
100
AcDbEntity
  8
DRAFT
100
AcDbLine
 62
7
  6
CONTINUOUS
 10
-17.1930483926
 20
-8.8962301923
 11
15.6720414776
 21
-8.8962301923
  0
LINE
  5
3DB
100
AcDbEntity
  8
DRAFT
100
AcDbLine
 62
7
  6
CONTINUOUS
 10
15.6528409061
 20
-8.8578173459
 11
14.7315217913
 21
-8.8578173459
  0
LINE
  5
3DC
100
AcDbEntity
  8
DRAFT
100
AcDbLine
 62
7
  6
CONTINUOUS
 10
-17.1651202887
 20
-8.8403569612
 11
14.7366395813
 21
-8.8403569612
  0
LINE
  5
3DD
100
AcDbEntity
  8
0
100
AcDbLine
 62
7
  6
CONTINUOUS
 10
-17.1105034575
 20
-8.7375
 11
13.8394965425
 21
-8.7375
  0
LINE
  5
3DE
100
AcDbEntity
  8
0
100
AcDbLine
 62
7
  6
CONTINUOUS
 10
-16.8855034575
 20
-8.1625
 11
15.3644965425
 21
-8.1625
  0
LINE
  5
3DF
100
AcDbEntity
  8
DRAFT
100
AcDbLine
 62
7
  6
CONTINUOUS
 10
-17.1651202887
 20
4.5421168312
 11
-17.205266938
 21
4.5822634805
  0
LINE
  5
3E0
100
AcDbEntity
  8
RACCORDO
100
AcDbLine
 62
250
  6
CONTINUOUS
 10
15.4145346187
 20
-27.9375
 11
15.4342980992
 21
-27.9572634805
  0
LINE
  5
3E1
100
AcDbEntity
  8
RACCORDO
100
AcDbLine
 62
250
  6
CONTINUOUS
 10
15.6465194782
 20
-27.6695610119
 11
15.684260023
 21
-27.7073015567
  0
LINE
  5
3E2
100
AcDbEntity
  8
RACCORDO
100
AcDbLine
 62
250
  6
CONTINUOUS
 10
18.4895346187
 20
-28.7875
 11
18.4746978135
 21
-28.7726631948
  0
LINE
  5
3E3
100
AcDbEntity
  8
RACCORDO
100
AcDbLine
 62
7
  6
CONTINUOUS
 10
-11.1546934565
 20
18.5597607529
 11
-11.1547163022
 21
18.559931835
  0
LINE
  5
3E4
100
AcDbEntity
  8
DRAFT
100
AcDbLine
 62
7
  6
CONTINUOUS
 10
-6.2605034575
 20
4.5936092727
 11
-6.2605034575
 21
5.4125
  0
LINE
  5
3E5
100
AcDbEntity
  8
DRAFT
100
AcDbLine
 62
7
  6
CONTINUOUS
 10
-5.571012011
 20
4.5125
 11
-5.571012011
 21
4.5316082777
  0
LINE
  5
3E6
100
AcDbEntity
  8
DRAFT
100
AcDbLine
 62
7
  6
CONTINUOUS
 10
-5.5605034575
 20
4.5125
 11
-5.5605034575
 21
4.5421168312
  0
LINE
  5
3E7
100
AcDbEntity
  8
DRAFT
100
AcDbLine
 62
7
  6
CONTINUOUS
 10
-5.2666127302
 20
28.4563907273
 11
-5.2666127302
 21
27.3375
  0
LINE
  5
3E8
100
AcDbEntity
  8
DRAFT
100
AcDbLine
 62
7
  6
CONTINUOUS
 10
-5.255266938
 20
27.3375
 11
-5.255266938
 21
27.0010134805
  0
LINE
  5
3E9
100
AcDbEntity
  8
DRAFT
100
AcDbLine
 62
7
  6
CONTINUOUS
 10
-5.0878049573
 20
25.9773014999
 11
-5.0878049573
 21
26.1273014999
  0
LINE
  5
3EA
100
AcDbEntity
  8
DRAFT
100
AcDbLine
 62
7
  6
CONTINUOUS
 10
-5.0528182013
 20
25.9423147438
 11
-5.0528182013
 21
26.0923147438
  0
LINE
  5
3EB
100
AcDbEntity
  8
DRAFT
100
AcDbLine
 62
7
  6
CONTINUOUS
 10
-4.9605034575
 20
4.5125
 11
-4.9605034575
 21
4.5421168312
  0
LINE
  5
3EC
100
AcDbEntity
  8
DRAFT
100
AcDbLine
 62
7
  6
CONTINUOUS
 10
-4.9497926125
 20
4.5125
 11
-4.9497926125
 21
4.5314059861
  0
LINE
  5
3ED
100
AcDbEntity
  8
RACCORDO
100
AcDbLine
 62
250
  6
CONTINUOUS
 10
-16.8939213316
 20
-18.7875003624
 11
-16.8787693728
 21
-18.7571872089
  0
LINE
  5
3EE
100
AcDbEntity
  8
RACCORDO
100
AcDbLine
 62
250
  6
CONTINUOUS
 10
-16.7939668303
 20
-18.8875
 11
-16.7787830493
 21
-18.8571231828
  0
LINE
  5
3EF
100
AcDbEntity
  8
RACCORDO
100
AcDbLine
 62
250
  6
CONTINUOUS
 10
-17.1651216949
 20
-21.0903597512
 11
-17.1886846264
 21
-21.1374999768
  0
LINE
  5
3F0
100
AcDbEntity
  8
RACCORDO
100
AcDbLine
 62
250
  6
CONTINUOUS
 10
-17.1675263932
 20
-23.5951706136
 11
-17.1886846264
 21
-23.6374999768
  0
LINE
  5
3F1
100
AcDbEntity
  8
RACCORDO
100
AcDbLine
 62
250
  6
CONTINUOUS
 10
-16.0281131249
 20
-21.7729585608
 11
-16.0326329679
 21
-21.7820010017
  0
LINE
  5
3F2
100
AcDbEntity
  8
RACCORDO
100
AcDbLine
 62
250
  6
CONTINUOUS
 10
18.7246597373
 20
28.197701271
 11
18.7394965425
 21
28.2125380762
  0
LINE
  5
3F3
100
AcDbEntity
  8
RACCORDO
100
AcDbLine
 62
250
  6
CONTINUOUS
 10
-1.9070469689
 20
6.2780759584
 11
-1.810809439
 21
6.3743134883
  0
LINE
  5
3F4
100
AcDbEntity
  8
DRAFT
100
AcDbLine
 62
7
  6
CONTINUOUS
 10
9.5939868412
 20
17.5919902987
 11
9.6144965425
 21
17.6125
  0
LINE
  5
3F5
100
AcDbEntity
  8
RACCORDO
100
AcDbLine
 62
250
  6
CONTINUOUS
 10
-1.8074274991
 20
6.1784564886
 11
-1.7111899692
 21
6.2746940185
  0
LINE
  5
3F6
100
AcDbEntity
  8
DRAFT
100
AcDbLine
 62
7
  6
CONTINUOUS
 10
12.4894965425
 20
20.125
 11
12.5327305103
 21
20.1682339679
  0
LINE
  5
3F7
100
AcDbEntity
  8
DRAFT
100
AcDbLine
 62
7
  6
CONTINUOUS
 10
17.9894965425
 20
25.2125
 11
18.0949021685
 21
25.3179056261
  0
LINE
  5
3F8
100
AcDbEntity
  8
DRAFT
100
AcDbLine
 62
7
  6
CONTINUOUS
 10
12.4894965425
 20
19.475
 11
12.5327305103
 21
19.5182339679
  0
LINE
  5
3F9
100
AcDbEntity
  8
0
100
AcDbLine
 62
7
  6
CONTINUOUS
 10
8.4894965425
 20
-6.4125
 11
-10.0105034575
 21
-6.4125
  0
LINE
  5
3FA
100
AcDbEntity
  8
RACCORDO
100
AcDbLine
 62
7
  6
CONTINUOUS
 10
-12.9851229273
 20
5.1954863524
 11
-12.9842145177
 21
5.1945967602
  0
LINE
  5
3FB
100
AcDbEntity
  8
RACCORDO
100
AcDbLine
 62
250
  6
CONTINUOUS
 10
18.7394965425
 20
-28.5375380762
 11
18.7246597373
 21
-28.522701271
  0
LINE
  5
3FC
100
AcDbEntity
  8
RACCORDO
100
AcDbLine
 62
7
  6
CONTINUOUS
 10
-12.9851229273
 20
5.1954863524
 11
-12.8855034575
 21
5.0958668826
  0
LINE
  5
3FD
100
AcDbEntity
  8
DRAFT
100
AcDbLine
 62
7
  6
CONTINUOUS
 10
17.9894965425
 20
-25.5375
 11
18.0949021685
 21
-25.642905626
  0
LINE
  5
3FE
100
AcDbEntity
  8
DRAFT
100
AcDbLine
 62
7
  6
CONTINUOUS
 10
-11.1987961046
 20
4.5421168312
 11
-11.1913882566
 21
4.5347089832
  0
LINE
  5
3FF
100
AcDbEntity
  8
RACCORDO
100
AcDbLine
 62
7
  6
CONTINUOUS
 10
-12.8950322465
 20
5.1054941268
 11
-12.8855034575
 21
5.0958668826
  0
LINE
  5
400
100
AcDbEntity
  8
RACCORDO
100
AcDbLine
 62
7
  6
CONTINUOUS
 10
-11.1546898851
 20
7.0722536079
 11
-11.1385056897
 21
7.0398753521
  0
LINE
  5
401
100
AcDbEntity
  8
RACCORDO
100
AcDbLine
 62
7
  6
CONTINUOUS
 10
-13.3689422989
 20
15.5829985303
 11
-13.3825012253
 21
15.6101246479
  0
LINE
  5
402
100
AcDbEntity
  8
DRAFT
100
AcDbLine
 62
7
  6
CONTINUOUS
 10
-4.5105034575
 20
4.5936092727
 11
-4.5105034575
 21
5.4125
  0
LINE
  5
403
100
AcDbEntity
  8
DRAFT
100
AcDbLine
 62
7
  6
CONTINUOUS
 10
-1.0698454043
 20
27.9284224792
 11
-1.0105034575
 21
28.4625
  0
LINE
  5
404
100
AcDbEntity
  8
RACCORDO
100
AcDbLine
 62
250
  6
CONTINUOUS
 10
-15.7785019272
 20
-22.0235079335
 11
-15.7826710441
 21
-22.0318487084
  0
LINE
  5
405
100
AcDbEntity
  8
RACCORDO
100
AcDbLine
 62
250
  6
CONTINUOUS
 10
-17.1675263932
 20
-26.0951706136
 11
-17.1886846264
 21
-26.1374999768
  0
LINE
  5
406
100
AcDbEntity
  8
DRAFT
100
AcDbLine
 62
7
  6
CONTINUOUS
 10
8.9894965425
 20
14.6625
 11
8.9387141972
 21
14.6117176547
  0
LINE
  5
407
100
AcDbEntity
  8
RACCORDO
100
AcDbLine
 62
250
  6
CONTINUOUS
 10
-14.5603511643
 20
-9.2375
 11
-14.6078635146
 21
-9.2850123503
  0
LINE
  5
408
100
AcDbEntity
  8
DRAFT
100
AcDbLine
 62
7
  6
CONTINUOUS
 10
8.9894965425
 20
14.0125
 11
8.9387141972
 21
13.9617176547
  0
LINE
  5
409
100
AcDbEntity
  8
DRAFT
100
AcDbLine
 62
7
  6
CONTINUOUS
 10
-19.5043941848
 20
-14.5063907273
 11
-19.5105034575
 21
-14.5125
  0
LINE
  5
40A
100
AcDbEntity
  8
DRAFT
100
AcDbLine
 62
7
  6
CONTINUOUS
 10
11.8644965425
 20
16.525
 11
11.8850062438
 21
16.5455097013
  0
LINE
  5
40B
100
AcDbEntity
  8
DRAFT
100
AcDbLine
 62
7
  6
CONTINUOUS
 10
-19.0105034575
 20
-14.5125
 11
-19.0043941848
 21
-14.5063907273
  0
LINE
  5
40C
100
AcDbEntity
  8
DRAFT
100
AcDbLine
 62
7
  6
CONTINUOUS
 10
-18.1355034575
 20
-14.7875
 11
-18.121449374
 21
-14.7734459165
  0
LINE
  5
40D
100
AcDbEntity
  8
DRAFT
100
AcDbLine
 62
7
  6
CONTINUOUS
 10
-14.0105034575
 20
7.9875
 11
-14.0537374254
 21
8.0307339679
  0
LINE
  5
40E
100
AcDbEntity
  8
DRAFT
100
AcDbLine
 62
7
  6
CONTINUOUS
 10
-14.0105034575
 20
8.6375
 11
-14.0537374254
 21
8.6807339679
  0
LINE
  5
40F
100
AcDbEntity
  8
DRAFT
100
AcDbLine
 62
7
  6
CONTINUOUS
 10
-11.1149937562
 20
6.1044902987
 11
-11.1355034575
 21
6.125
  0
LINE
  5
410
100
AcDbEntity
  8
RACCORDO
100
AcDbLine
 62
7
  6
CONTINUOUS
 10
-1.9070469689
 20
27.8594240416
 11
-1.9070469689
 21
27.3375
  0
LINE
  5
411
100
AcDbEntity
  8
RACCORDO
100
AcDbLine
 62
7
  6
CONTINUOUS
 10
-1.9070469689
 20
19.475
 11
-1.9070469689
 21
17.7655759584
  0
LINE
  5
412
100
AcDbEntity
  8
RACCORDO
100
AcDbLine
 62
7
  6
CONTINUOUS
 10
-1.9070469689
 20
16.3719240416
 11
-1.9070469689
 21
14.6625
  0
LINE
  5
413
100
AcDbEntity
  8
RACCORDO
100
AcDbLine
 62
7
  6
CONTINUOUS
 10
-1.9070469689
 20
7.9875
 11
-1.9070469689
 21
6.2780759584
  0
LINE
  5
414
100
AcDbEntity
  8
DRAFT
100
AcDbLine
 62
7
  6
CONTINUOUS
 10
-1.8501793376
 20
27.3375
 11
-1.8501793376
 21
26.1273014999
  0
LINE
  5
415
100
AcDbEntity
  8
RACCORDO
100
AcDbLine
 62
7
  6
CONTINUOUS
 10
-1.810809439
 20
27.7631865117
 11
-1.810809439
 21
27.10625
  0
LINE
  5
416
100
AcDbEntity
  8
RACCORDO
100
AcDbLine
 62
7
  6
CONTINUOUS
 10
-1.810809439
 20
18.51875
 11
-1.810809439
 21
17.8618134883
  0
LINE
  5
417
100
AcDbEntity
  8
RACCORDO
100
AcDbLine
 62
7
  6
CONTINUOUS
 10
-1.810809439
 20
16.2756865117
 11
-1.810809439
 21
15.61875
  0
LINE
  5
418
100
AcDbEntity
  8
RACCORDO
100
AcDbLine
 62
7
  6
CONTINUOUS
 10
-1.810809439
 20
7.03125
 11
-1.810809439
 21
6.3743134883
  0
LINE
  5
419
100
AcDbEntity
  8
DRAFT
100
AcDbLine
 62
7
  6
CONTINUOUS
 10
-1.7605034575
 20
27.0861705576
 11
-1.7605034575
 21
26.0915077111
  0
LINE
  5
41A
100
AcDbEntity
  8
DRAFT
100
AcDbLine
 62
7
  6
CONTINUOUS
 10
-1.7605034575
 20
19.5334922889
 11
-1.7605034575
 21
18.5388294425
  0
LINE
  5
41B
100
AcDbEntity
  8
DRAFT
100
AcDbLine
 62
7
  6
CONTINUOUS
 10
-1.7605034575
 20
15.5986705576
 11
-1.7605034575
 21
14.6040077111
  0
LINE
  5
41C
100
AcDbEntity
  8
DRAFT
100
AcDbLine
 62
7
  6
CONTINUOUS
 10
-1.7605034575
 20
8.0459922889
 11
-1.7605034575
 21
7.0513294425
  0
LINE
  5
41D
100
AcDbEntity
  8
DRAFT
100
AcDbLine
 62
7
  6
CONTINUOUS
 10
0.2394965425
 20
7.0513294425
 11
0.2394965425
 21
8.0459922889
  0
LINE
  5
41E
100
AcDbEntity
  8
DRAFT
100
AcDbLine
 62
7
  6
CONTINUOUS
 10
0.2394965425
 20
14.6040077111
 11
0.2394965425
 21
15.5986705576
  0
LINE
  5
41F
100
AcDbEntity
  8
DRAFT
100
AcDbLine
 62
7
  6
CONTINUOUS
 10
0.2394965425
 20
18.5388294425
 11
0.2394965425
 21
19.5334922889
  0
LINE
  5
420
100
AcDbEntity
  8
DRAFT
100
AcDbLine
 62
7
  6
CONTINUOUS
 10
0.2394965425
 20
26.0915077111
 11
0.2394965425
 21
27.0861705576
  0
LINE
  5
421
100
AcDbEntity
  8
RACCORDO
100
AcDbLine
 62
7
  6
CONTINUOUS
 10
0.289802524
 20
6.3743134883
 11
0.289802524
 21
7.03125
  0
LINE
  5
422
100
AcDbEntity
  8
RACCORDO
100
AcDbLine
 62
7
  6
CONTINUOUS
 10
0.289802524
 20
15.61875
 11
0.289802524
 21
16.2756865117
  0
LINE
  5
423
100
AcDbEntity
  8
RACCORDO
100
AcDbLine
 62
7
  6
CONTINUOUS
 10
0.289802524
 20
17.8618134883
 11
0.289802524
 21
18.51875
  0
LINE
  5
424
100
AcDbEntity
  8
RACCORDO
100
AcDbLine
 62
7
  6
CONTINUOUS
 10
0.289802524
 20
27.10625
 11
0.289802524
 21
27.7631865117
  0
LINE
  5
425
100
AcDbEntity
  8
RACCORDO
100
AcDbLine
 62
250
  6
CONTINUOUS
 10
-12.3876926892
 20
-21.3417731624
 11
-12.3847466606
 21
-21.3358793093
  0
LINE
  5
426
100
AcDbEntity
  8
RACCORDO
100
AcDbLine
 62
7
  6
CONTINUOUS
 10
11.8614943103
 20
27.0976246479
 11
11.8479353839
 21
27.0704985303
  0
LINE
  5
427
100
AcDbEntity
  8
RACCORDO
100
AcDbLine
 62
7
  6
CONTINUOUS
 10
9.6174987747
 20
18.5273753521
 11
9.6336829701
 21
18.5597536079
  0
LINE
  5
428
100
AcDbEntity
  8
RACCORDO
100
AcDbLine
 62
250
  6
CONTINUOUS
 10
19.8900673378
 20
21.9375
 11
19.7413366098
 21
21.788769272
  0
LINE
  5
429
100
AcDbEntity
  8
RACCORDO
100
AcDbLine
 62
250
  6
CONTINUOUS
 10
20.0394965425
 20
21.7880707953
 11
19.8907658145
 21
21.6393400673
  0
LINE
  5
42A
100
AcDbEntity
  8
DRAFT
100
AcDbLine
 62
7
  6
CONTINUOUS
 10
3.4287856974
 20
4.5314059861
 11
3.4394965425
 21
4.5421168312
  0
LINE
  5
42B
100
AcDbEntity
  8
RACCORDO
100
AcDbLine
 62
250
  6
CONTINUOUS
 10
-9.9353511643
 20
-9.2375
 11
-9.9842402416
 21
-9.2863890773
  0
LINE
  5
42C
100
AcDbEntity
  8
DRAFT
100
AcDbLine
 62
7
  6
CONTINUOUS
 10
14.5515427452
 20
14.6245462027
 11
14.5894965425
 21
14.6625
  0
LINE
  5
42D
100
AcDbEntity
  8
DRAFT
100
AcDbLine
 62
7
  6
CONTINUOUS
 10
18.1894965425
 20
-2.0375
 11
18.7333872698
 21
-2.0375
  0
LINE
  5
42E
100
AcDbEntity
  8
DRAFT
100
AcDbLine
 62
7
  6
CONTINUOUS
 10
15.6441133737
 20
-7.9328831688
 11
15.6528409061
 21
-7.9364982311
  0
LINE
  5
42F
100
AcDbEntity
  8
RACCORDO
100
AcDbLine
 62
250
  6
CONTINUOUS
 10
19.8900673378
 20
-22.2625
 11
19.7413366098
 21
-22.113769272
  0
LINE
  5
430
100
AcDbEntity
  8
RACCORDO
100
AcDbLine
 62
250
  6
CONTINUOUS
 10
20.0394965425
 20
-22.1130707953
 11
19.8907658145
 21
-21.9643400673
  0
LINE
  5
431
100
AcDbEntity
  8
DRAFT
100
AcDbLine
 62
7
  6
CONTINUOUS
 10
-16.1105034575
 20
14.6625
 11
-16.0725496602
 21
14.6245462027
  0
LINE
  5
432
100
AcDbEntity
  8
RACCORDO
100
AcDbLine
 62
250
  6
CONTINUOUS
 10
8.4632333265
 20
-9.2863890773
 11
8.4143442492
 21
-9.2375
  0
LINE
  5
433
100
AcDbEntity
  8
DRAFT
100
AcDbLine
 62
7
  6
CONTINUOUS
 10
-4.9497926125
 20
4.5314059861
 11
-4.9605034575
 21
4.5421168312
  0
LINE
  5
434
100
AcDbEntity
  8
RACCORDO
100
AcDbLine
 62
7
  6
CONTINUOUS
 10
-11.1546898851
 20
18.5597536079
 11
-11.1385056897
 21
18.5273753521
  0
LINE
  5
435
100
AcDbEntity
  8
RACCORDO
100
AcDbLine
 62
7
  6
CONTINUOUS
 10
-13.3689422989
 20
27.0704985303
 11
-13.3825012253
 21
27.0976246479
  0
LINE
  5
436
100
AcDbEntity
  8
RACCORDO
100
AcDbLine
 62
250
  6
CONTINUOUS
 10
8.4995201614
 20
-23.4487764931
 11
8.5505498718
 21
-23.5628859522
  0
LINE
  5
437
100
AcDbEntity
  8
DRAFT
100
AcDbLine
 62
7
  6
CONTINUOUS
 10
0.3291724226
 20
27.3375
 11
0.3291724226
 21
26.1273014999
  0
LINE
  5
438
100
AcDbEntity
  8
RACCORDO
100
AcDbLine
 62
7
  6
CONTINUOUS
 10
0.3860400539
 20
6.2780759584
 11
0.3860400539
 21
7.9875
  0
LINE
  5
439
100
AcDbEntity
  8
RACCORDO
100
AcDbLine
 62
7
  6
CONTINUOUS
 10
0.3860400539
 20
14.6625
 11
0.3860400539
 21
16.3719240416
  0
LINE
  5
43A
100
AcDbEntity
  8
RACCORDO
100
AcDbLine
 62
7
  6
CONTINUOUS
 10
0.3860400539
 20
17.7655759584
 11
0.3860400539
 21
19.475
  0
LINE
  5
43B
100
AcDbEntity
  8
RACCORDO
100
AcDbLine
 62
7
  6
CONTINUOUS
 10
0.3860400539
 20
27.3375
 11
0.3860400539
 21
27.8594240416
  0
LINE
  5
43C
100
AcDbEntity
  8
RACCORDO
100
AcDbLine
 62
250
  6
CONTINUOUS
 10
-10.0205270765
 20
-23.4487764931
 11
-10.0715567865
 21
-23.5628859523
  0
LINE
  5
43D
100
AcDbEntity
  8
RACCORDO
100
AcDbLine
 62
7
  6
CONTINUOUS
 10
-9.2290512672
 20
-12.3078124607
 11
-9.2263138611
 21
-12.304843595
  0
LINE
  5
43E
100
AcDbEntity
  8
RACCORDO
100
AcDbLine
 62
250
  6
CONTINUOUS
 10
18.9394965425
 20
17.8869292047
 11
19.0882272705
 21
18.0356599327
  0
LINE
  5
43F
100
AcDbEntity
  8
RACCORDO
100
AcDbLine
 62
250
  6
CONTINUOUS
 10
19.0889257472
 20
17.7375
 11
19.2376564752
 21
17.886230728
  0
LINE
  5
440
100
AcDbEntity
  8
DRAFT
100
AcDbLine
 62
7
  6
CONTINUOUS
 10
9.5939868412
 20
6.1044902987
 11
9.6144965425
 21
6.125
  0
LINE
  5
441
100
AcDbEntity
  8
DRAFT
100
AcDbLine
 62
7
  6
CONTINUOUS
 10
18.1894965425
 20
1.7125
 11
18.7333872698
 21
1.7125
  0
LINE
  5
442
100
AcDbEntity
  8
0
100
AcDbLine
 62
7
  6
CONTINUOUS
 10
-10.0105034575
 20
2.5875
 11
8.4894965425
 21
2.5875
  0
LINE
  5
443
100
AcDbEntity
  8
RACCORDO
100
AcDbLine
 62
250
  6
CONTINUOUS
 10
18.9394965425
 20
-18.2119292047
 11
19.0882272705
 21
-18.3606599327
  0
LINE
  5
444
100
AcDbEntity
  8
RACCORDO
100
AcDbLine
 62
250
  6
CONTINUOUS
 10
19.0889257472
 20
-18.0625
 11
19.2376564752
 21
-18.211230728
  0
LINE
  5
445
100
AcDbEntity
  8
DRAFT
100
AcDbLine
 62
7
  6
CONTINUOUS
 10
-13.3855034575
 20
16.525
 11
-13.4060131588
 21
16.5455097013
  0
LINE
  5
446
100
AcDbEntity
  8
DRAFT
100
AcDbLine
 62
7
  6
CONTINUOUS
 10
-10.5105034575
 20
14.0125
 11
-10.4597211122
 21
13.9617176547
  0
LINE
  5
447
100
AcDbEntity
  8
RACCORDO
100
AcDbLine
 62
250
  6
CONTINUOUS
 10
13.0868565995
 20
-9.2850123503
 11
13.0393442492
 21
-9.2375
  0
LINE
  5
448
100
AcDbEntity
  8
RACCORDO
100
AcDbLine
 62
250
  6
CONTINUOUS
 10
15.6676777113
 20
-26.1374999768
 11
15.6465194782
 21
-26.0951706136
  0
LINE
  5
449
100
AcDbEntity
  8
DRAFT
100
AcDbLine
 62
7
  6
CONTINUOUS
 10
-0.4511615108
 20
27.9284224792
 11
-0.5105034575
 21
28.4625
  0
LINE
  5
44A
100
AcDbEntity
  8
DRAFT
100
AcDbLine
 62
7
  6
CONTINUOUS
 10
2.9894965425
 20
4.5936092727
 11
2.9894965425
 21
5.4125
  0
LINE
  5
44B
100
AcDbEntity
  8
DRAFT
100
AcDbLine
 62
7
  6
CONTINUOUS
 10
3.4287856974
 20
4.5125
 11
3.4287856974
 21
4.5314059861
  0
LINE
  5
44C
100
AcDbEntity
  8
DRAFT
100
AcDbLine
 62
7
  6
CONTINUOUS
 10
3.4394965425
 20
4.5125
 11
3.4394965425
 21
4.5421168312
  0
LINE
  5
44D
100
AcDbEntity
  8
DRAFT
100
AcDbLine
 62
7
  6
CONTINUOUS
 10
3.5318112863
 20
25.9423147438
 11
3.5318112863
 21
26.0923147438
  0
LINE
  5
44E
100
AcDbEntity
  8
DRAFT
100
AcDbLine
 62
7
  6
CONTINUOUS
 10
3.5667980423
 20
26.1273014999
 11
3.5667980423
 21
25.9773014999
  0
LINE
  5
44F
100
AcDbEntity
  8
DRAFT
100
AcDbLine
 62
7
  6
CONTINUOUS
 10
3.734260023
 20
27.0010134805
 11
3.734260023
 21
27.3375
  0
LINE
  5
450
100
AcDbEntity
  8
DRAFT
100
AcDbLine
 62
7
  6
CONTINUOUS
 10
3.7456058152
 20
28.4563907273
 11
3.7456058152
 21
27.3375
  0
LINE
  5
451
100
AcDbEntity
  8
DRAFT
100
AcDbLine
 62
7
  6
CONTINUOUS
 10
4.0394965425
 20
4.5125
 11
4.0394965425
 21
4.5421168312
  0
LINE
  5
452
100
AcDbEntity
  8
DRAFT
100
AcDbLine
 62
7
  6
CONTINUOUS
 10
4.050005096
 20
4.5125
 11
4.050005096
 21
4.5316082777
  0
LINE
  5
453
100
AcDbEntity
  8
DRAFT
100
AcDbLine
 62
7
  6
CONTINUOUS
 10
4.7394965425
 20
4.5936092727
 11
4.7394965425
 21
5.4125
  0
LINE
  5
454
100
AcDbEntity
  8
RACCORDO
100
AcDbLine
 62
7
  6
CONTINUOUS
 10
11.8614943103
 20
15.6101246479
 11
11.8479353839
 21
15.5829985303
  0
LINE
  5
455
100
AcDbEntity
  8
RACCORDO
100
AcDbLine
 62
7
  6
CONTINUOUS
 10
11.4641160123
 20
5.1954863524
 11
11.46322642
 21
5.1945779428
  0
LINE
  5
456
100
AcDbEntity
  8
DRAFT
100
AcDbLine
 62
7
  6
CONTINUOUS
 10
9.6703813416
 20
4.5347089832
 11
9.6777891896
 21
4.5421168312
  0
LINE
  5
457
100
AcDbEntity
  8
RACCORDO
100
AcDbLine
 62
7
  6
CONTINUOUS
 10
11.4641160123
 20
5.1954863524
 11
11.3644965425
 21
5.0958668826
  0
LINE
  5
458
100
AcDbEntity
  8
RACCORDO
100
AcDbLine
 62
7
  6
CONTINUOUS
 10
11.3741237867
 20
5.1053956716
 11
11.3644965425
 21
5.0958668826
  0
LINE
  5
459
100
AcDbEntity
  8
0
100
AcDbLine
 62
7
  6
CONTINUOUS
 10
15.3644965425
 20
4.3375
 11
-16.8855034575
 21
4.3375
  0
LINE
  5
45A
100
AcDbEntity
  8
0
100
AcDbLine
 62
7
  6
CONTINUOUS
 10
15.5894965425
 20
4.5125
 11
-17.1105034575
 21
4.5125
  0
LINE
  5
45B
100
AcDbEntity
  8
DRAFT
100
AcDbLine
 62
7
  6
CONTINUOUS
 10
-17.1651202887
 20
4.5421168312
 11
-16.2605034575
 21
4.5421168312
  0
LINE
  5
45C
100
AcDbEntity
  8
DRAFT
100
AcDbLine
 62
7
  6
CONTINUOUS
 10
15.6441133737
 20
4.5421168312
 11
14.7394965425
 21
4.5421168312
  0
LINE
  5
45D
100
AcDbEntity
  8
DRAFT
100
AcDbLine
 62
7
  6
CONTINUOUS
 10
-12.2605034575
 20
4.5421168312
 11
-11.1987961046
 21
4.5421168312
  0
LINE
  5
45E
100
AcDbEntity
  8
DRAFT
100
AcDbLine
 62
7
  6
CONTINUOUS
 10
-5.5605034575
 20
4.5421168312
 11
-4.9605034575
 21
4.5421168312
  0
LINE
  5
45F
100
AcDbEntity
  8
DRAFT
100
AcDbLine
 62
7
  6
CONTINUOUS
 10
3.4394965425
 20
4.5421168312
 11
4.0394965425
 21
4.5421168312
  0
LINE
  5
460
100
AcDbEntity
  8
DRAFT
100
AcDbLine
 62
7
  6
CONTINUOUS
 10
9.6777891896
 20
4.5421168312
 11
10.7394965425
 21
4.5421168312
  0
LINE
  5
461
100
AcDbEntity
  8
RACCORDO
100
AcDbLine
 62
7
  6
CONTINUOUS
 10
-12.8855034575
 20
4.5674266754
 11
-11.7105034575
 21
4.5674266754
  0
LINE
  5
462
100
AcDbEntity
  8
RACCORDO
100
AcDbLine
 62
7
  6
CONTINUOUS
 10
10.1894965425
 20
4.5674266754
 11
11.3644965425
 21
4.5674266754
  0
LINE
  5
463
100
AcDbEntity
  8
DRAFT
100
AcDbLine
 62
7
  6
CONTINUOUS
 10
-17.205266938
 20
4.5822634805
 11
-16.8855034575
 21
4.5822634805
  0
LINE
  5
464
100
AcDbEntity
  8
DRAFT
100
AcDbLine
 62
7
  6
CONTINUOUS
 10
15.3644965425
 20
4.5822634805
 11
15.684260023
 21
4.5822634805
  0
LINE
  5
465
100
AcDbEntity
  8
DRAFT
100
AcDbLine
 62
7
  6
CONTINUOUS
 10
-16.8855034575
 20
4.5936092727
 11
-12.9855034575
 21
4.5936092727
  0
LINE
  5
466
100
AcDbEntity
  8
DRAFT
100
AcDbLine
 62
7
  6
CONTINUOUS
 10
-11.6105034575
 20
4.5936092727
 11
-6.2605034575
 21
4.5936092727
  0
LINE
  5
467
100
AcDbEntity
  8
DRAFT
100
AcDbLine
 62
7
  6
CONTINUOUS
 10
-4.5105034575
 20
4.5936092727
 11
2.9894965425
 21
4.5936092727
  0
LINE
  5
468
100
AcDbEntity
  8
DRAFT
100
AcDbLine
 62
7
  6
CONTINUOUS
 10
4.7394965425
 20
4.5936092727
 11
10.0894965425
 21
4.5936092727
  0
LINE
  5
469
100
AcDbEntity
  8
DRAFT
100
AcDbLine
 62
7
  6
CONTINUOUS
 10
11.4644965425
 20
4.5936092727
 11
15.3644965425
 21
4.5936092727
  0
LINE
  5
46A
100
AcDbEntity
  8
DRAFT
100
AcDbLine
 62
7
  6
CONTINUOUS
 10
-6.2605034575
 20
4.6224101299
 11
-4.5105034575
 21
4.6224101299
  0
LINE
  5
46B
100
AcDbEntity
  8
DRAFT
100
AcDbLine
 62
7
  6
CONTINUOUS
 10
2.9894965425
 20
4.6224101299
 11
4.7394965425
 21
4.6224101299
  0
LINE
  5
46C
100
AcDbEntity
  8
RACCORDO
100
AcDbLine
 62
250
  6
CONTINUOUS
 10
-12.8855034575
 20
5.0958668826
 11
-11.7105034575
 21
5.0958668826
  0
LINE
  5
46D
100
AcDbEntity
  8
RACCORDO
100
AcDbLine
 62
250
  6
CONTINUOUS
 10
10.1894965425
 20
5.0958668826
 11
11.3644965425
 21
5.0958668826
  0
LINE
  5
46E
100
AcDbEntity
  8
DRAFT
100
AcDbLine
 62
7
  6
CONTINUOUS
 10
-10.5105034575
 20
14.6625
 11
-10.4597211122
 21
14.6117176547
  0
LINE
  5
46F
100
AcDbEntity
  8
DRAFT
100
AcDbLine
 62
7
  6
CONTINUOUS
 10
-14.0105034575
 20
19.475
 11
-14.0537374254
 21
19.5182339679
  0
LINE
  5
470
100
AcDbEntity
  8
DRAFT
100
AcDbLine
 62
7
  6
CONTINUOUS
 10
-14.0105034575
 20
20.125
 11
-14.0537374254
 21
20.1682339679
  0
LINE
  5
471
100
AcDbEntity
  8
RACCORDO
100
AcDbLine
 62
250
  6
CONTINUOUS
 10
0.2864205841
 20
6.1784564886
 11
0.1901830542
 21
6.2746940185
  0
LINE
  5
472
100
AcDbEntity
  8
DRAFT
100
AcDbLine
 62
7
  6
CONTINUOUS
 10
-11.1149937562
 20
17.5919902987
 11
-11.1355034575
 21
17.6125
  0
LINE
  5
473
100
AcDbEntity
  8
RACCORDO
100
AcDbLine
 62
250
  6
CONTINUOUS
 10
0.3860400539
 20
6.2780759584
 11
0.289802524
 21
6.3743134883
  0
LINE
  5
474
100
AcDbEntity
  8
DRAFT
100
AcDbLine
 62
7
  6
CONTINUOUS
 10
-18.1355034575
 20
25.4625
 11
-18.121449374
 21
25.4484459166
  0
LINE
  5
475
100
AcDbEntity
  8
DRAFT
100
AcDbLine
 62
7
  6
CONTINUOUS
 10
6.7333872698
 20
28.4563907273
 11
6.7333872698
 21
27.3375
  0
LINE
  5
476
100
AcDbEntity
  8
DRAFT
100
AcDbLine
 62
7
  6
CONTINUOUS
 10
6.744733062
 20
27.3375
 11
6.744733062
 21
27.0010134805
  0
LINE
  5
477
100
AcDbEntity
  8
DRAFT
100
AcDbLine
 62
7
  6
CONTINUOUS
 10
6.9121950427
 20
25.9773014999
 11
6.9121950427
 21
26.1273014999
  0
LINE
  5
478
100
AcDbEntity
  8
DRAFT
100
AcDbLine
 62
7
  6
CONTINUOUS
 10
6.9434482283
 20
25.9460483142
 11
6.9434482283
 21
26.0960483142
  0
LINE
  5
479
100
AcDbEntity
  8
RACCORDO
100
AcDbLine
 62
7
  6
CONTINUOUS
 10
9.6336865415
 20
18.5597607529
 11
9.6337093872
 21
18.5599322385
  0
LINE
  5
47A
100
AcDbEntity
  8
RACCORDO
100
AcDbLine
 62
7
  6
CONTINUOUS
 10
9.6174987747
 20
7.0398753521
 11
9.6336829701
 21
7.0722536079
  0
LINE
  5
47B
100
AcDbEntity
  8
RACCORDO
100
AcDbLine
 62
250
  6
CONTINUOUS
 10
-19.5043941848
 20
-28.5314288035
 11
-19.5105034575
 21
-28.5375380762
  0
LINE
  5
47C
100
AcDbEntity
  8
RACCORDO
100
AcDbLine
 62
250
  6
CONTINUOUS
 10
-19.254432261
 20
-28.7813907273
 11
-19.2605415337
 21
-28.7875
  0
LINE
  5
47D
100
AcDbEntity
  8
RACCORDO
100
AcDbLine
 62
250
  6
CONTINUOUS
 10
-17.205266938
 20
-27.7073015567
 11
-17.1675263932
 21
-27.6695610119
  0
LINE
  5
47E
100
AcDbEntity
  8
RACCORDO
100
AcDbLine
 62
250
  6
CONTINUOUS
 10
-12.9851229273
 20
5.1954863524
 11
-11.6108839877
 21
5.1954863524
  0
LINE
  5
47F
100
AcDbEntity
  8
RACCORDO
100
AcDbLine
 62
250
  6
CONTINUOUS
 10
10.0898770727
 20
5.1954863524
 11
11.4641160123
 21
5.1954863524
  0
LINE
  5
480
100
AcDbEntity
  8
RACCORDO
100
AcDbLine
 62
250
  6
CONTINUOUS
 10
-12.9855034575
 20
5.3067534667
 11
-11.6105034575
 21
5.3067534667
  0
LINE
  5
481
100
AcDbEntity
  8
RACCORDO
100
AcDbLine
 62
250
  6
CONTINUOUS
 10
10.0894965425
 20
5.3067534667
 11
11.4644965425
 21
5.3067534667
  0
LINE
  5
482
100
AcDbEntity
  8
0
100
AcDbLine
 62
7
  6
CONTINUOUS
 10
4.7394965425
 20
5.4125
 11
2.9894965425
 21
5.4125
  0
LINE
  5
483
100
AcDbEntity
  8
0
100
AcDbLine
 62
7
  6
CONTINUOUS
 10
-4.5105034575
 20
5.4125
 11
-6.2605034575
 21
5.4125
  0
LINE
  5
484
100
AcDbEntity
  8
RACCORDO
100
AcDbLine
 62
250
  6
CONTINUOUS
 10
-12.9855034575
 20
5.4561826714
 11
-11.6105034575
 21
5.4561826714
  0
LINE
  5
485
100
AcDbEntity
  8
RACCORDO
100
AcDbLine
 62
250
  6
CONTINUOUS
 10
10.0894965425
 20
5.4561826714
 11
11.4644965425
 21
5.4561826714
  0
LINE
  5
486
100
AcDbEntity
  8
DRAFT
100
AcDbLine
 62
7
  6
CONTINUOUS
 10
-13.4060131588
 20
6.1044902987
 11
-11.1149937562
 21
6.1044902987
  0
LINE
  5
487
100
AcDbEntity
  8
DRAFT
100
AcDbLine
 62
7
  6
CONTINUOUS
 10
11.8850062438
 20
6.1044902987
 11
9.5939868412
 21
6.1044902987
  0
LINE
  5
488
100
AcDbEntity
  8
DRAFT
100
AcDbLine
 62
7
  6
CONTINUOUS
 10
-13.3855034575
 20
6.125
 11
-11.1355034575
 21
6.125
  0
LINE
  5
489
100
AcDbEntity
  8
DRAFT
100
AcDbLine
 62
7
  6
CONTINUOUS
 10
11.8644965425
 20
6.125
 11
9.6144965425
 21
6.125
  0
LINE
  5
48A
100
AcDbEntity
  8
RACCORDO
100
AcDbLine
 62
7
  6
CONTINUOUS
 10
0.2864205841
 20
6.1784564886
 11
-1.8074274991
 21
6.1784564886
  0
LINE
  5
48B
100
AcDbEntity
  8
RACCORDO
100
AcDbLine
 62
7
  6
CONTINUOUS
 10
-1.7111899692
 20
6.2746940185
 11
0.1901830542
 21
6.2746940185
  0
LINE
  5
48C
100
AcDbEntity
  8
DRAFT
100
AcDbLine
 62
7
  6
CONTINUOUS
 10
-13.3855034575
 20
6.475
 11
-11.1355034575
 21
6.475
  0
LINE
  5
48D
100
AcDbEntity
  8
DRAFT
100
AcDbLine
 62
7
  6
CONTINUOUS
 10
11.8644965425
 20
6.475
 11
9.6144965425
 21
6.475
  0
LINE
  5
48E
100
AcDbEntity
  8
DRAFT
100
AcDbLine
 62
7
  6
CONTINUOUS
 10
0.2394965425
 20
7.0513294425
 11
-1.7605034575
 21
7.0513294425
  0
LINE
  5
48F
100
AcDbEntity
  8
DRAFT
100
AcDbLine
 62
7
  6
CONTINUOUS
 10
0.289802524
 20
7.03125
 11
0.2394965425
 21
7.0513294425
  0
LINE
  5
490
100
AcDbEntity
  8
DRAFT
100
AcDbLine
 62
7
  6
CONTINUOUS
 10
0.3860400539
 20
7.9875
 11
0.2394965425
 21
8.0459922889
  0
LINE
  5
491
100
AcDbEntity
  8
DRAFT
100
AcDbLine
 62
7
  6
CONTINUOUS
 10
4.050005096
 20
4.5316082777
 11
4.0394965425
 21
4.5421168312
  0
LINE
  5
492
100
AcDbEntity
  8
RACCORDO
100
AcDbLine
 62
250
  6
CONTINUOUS
 10
-19.0043941848
 20
28.2064288035
 11
-19.0105034575
 21
28.2125380762
  0
LINE
  5
493
100
AcDbEntity
  8
RACCORDO
100
AcDbLine
 62
250
  6
CONTINUOUS
 10
-18.754432261
 20
28.4563907273
 11
-18.7605415337
 21
28.4625
  0
LINE
  5
494
100
AcDbEntity
  8
DRAFT
100
AcDbLine
 62
7
  6
CONTINUOUS
 10
-16.0878049573
 20
26.1273014999
 11
-16.0725496602
 21
26.1120462027
  0
LINE
  5
495
100
AcDbEntity
  8
RACCORDO
100
AcDbLine
 62
250
  6
CONTINUOUS
 10
7.6567022557
 20
-23.3354898016
 11
7.6567022557
 21
-23.5084697903
  0
LINE
  5
496
100
AcDbEntity
  8
RACCORDO
100
AcDbLine
 62
250
  6
CONTINUOUS
 10
7.7531523412
 20
-23.2982747643
 11
7.7531523412
 21
-23.4589099737
  0
LINE
  5
497
100
AcDbEntity
  8
RACCORDO
100
AcDbLine
 62
7
  6
CONTINUOUS
 10
7.7656074652
 20
-12.1210226483
 11
7.7656074652
 21
-12.1850657454
  0
LINE
  5
498
100
AcDbEntity
  8
RACCORDO
100
AcDbLine
 62
7
  6
CONTINUOUS
 10
7.7656074652
 20
-24.830123551
 11
7.7656074652
 21
-24.6210226483
  0
LINE
  5
499
100
AcDbEntity
  8
RACCORDO
100
AcDbLine
 62
7
  6
CONTINUOUS
 10
7.7656074652
 20
-10.9539773517
 11
7.7656074652
 21
-10.794876449
  0
LINE
  5
49A
100
AcDbEntity
  8
RACCORDO
100
AcDbLine
 62
7
  6
CONTINUOUS
 10
7.8144965425
 20
-10.7819886071
 11
7.8144965425
 21
-10.9375
  0
LINE
  5
49B
100
AcDbEntity
  8
RACCORDO
100
AcDbLine
 62
7
  6
CONTINUOUS
 10
7.8144965425
 20
-12.1375
 11
7.8144965425
 21
-12.3430113929
  0
LINE
  5
49C
100
AcDbEntity
  8
RACCORDO
100
AcDbLine
 62
7
  6
CONTINUOUS
 10
7.8144965425
 20
-23.2819886071
 11
7.8144965425
 21
-23.4375
  0
LINE
  5
49D
100
AcDbEntity
  8
RACCORDO
100
AcDbLine
 62
7
  6
CONTINUOUS
 10
7.8144965425
 20
-24.6375
 11
7.8144965425
 21
-24.8430113929
  0
LINE
  5
49E
100
AcDbEntity
  8
RACCORDO
100
AcDbLine
 62
7
  6
CONTINUOUS
 10
8.1644965425
 20
-24.8430113929
 11
8.1644965425
 21
-24.6375
  0
LINE
  5
49F
100
AcDbEntity
  8
RACCORDO
100
AcDbLine
 62
7
  6
CONTINUOUS
 10
8.1644965425
 20
-23.4375
 11
8.1644965425
 21
-23.2819886071
  0
LINE
  5
4A0
100
AcDbEntity
  8
RACCORDO
100
AcDbLine
 62
7
  6
CONTINUOUS
 10
8.1644965425
 20
-12.3430113929
 11
8.1644965425
 21
-12.1375
  0
LINE
  5
4A1
100
AcDbEntity
  8
RACCORDO
100
AcDbLine
 62
7
  6
CONTINUOUS
 10
8.1644965425
 20
-10.9375
 11
8.1644965425
 21
-10.7819886071
  0
LINE
  5
4A2
100
AcDbEntity
  8
RACCORDO
100
AcDbLine
 62
7
  6
CONTINUOUS
 10
8.2133856304
 20
-12.3301235481
 11
8.2133856198
 21
-12.1210226483
  0
LINE
  5
4A3
100
AcDbEntity
  8
RACCORDO
100
AcDbLine
 62
7
  6
CONTINUOUS
 10
8.2133856198
 20
-10.794876449
 11
8.2133856198
 21
-10.9539773517
  0
LINE
  5
4A4
100
AcDbEntity
  8
RACCORDO
100
AcDbLine
 62
7
  6
CONTINUOUS
 10
8.2133856198
 20
-24.6210226483
 11
8.2133856198
 21
-24.830123551
  0
LINE
  5
4A5
100
AcDbEntity
  8
0
100
AcDbLine
 62
7
  6
CONTINUOUS
 10
8.4894965425
 20
2.5875
 11
8.4894965425
 21
-6.4125
  0
LINE
  5
4A6
100
AcDbEntity
  8
DRAFT
100
AcDbLine
 62
7
  6
CONTINUOUS
 10
8.9387141972
 20
8.0382823453
 11
8.9387141972
 21
8.6882823453
  0
LINE
  5
4A7
100
AcDbEntity
  8
DRAFT
100
AcDbLine
 62
7
  6
CONTINUOUS
 10
8.9387141972
 20
13.9617176547
 11
8.9387141972
 21
14.6117176547
  0
LINE
  5
4A8
100
AcDbEntity
  8
DRAFT
100
AcDbLine
 62
7
  6
CONTINUOUS
 10
8.9387141972
 20
19.5257823453
 11
8.9387141972
 21
20.1757823453
  0
LINE
  5
4A9
100
AcDbEntity
  8
DRAFT
100
AcDbLine
 62
7
  6
CONTINUOUS
 10
8.9387141972
 20
25.4492176547
 11
8.9387141972
 21
26.0992176547
  0
LINE
  5
4AA
100
AcDbEntity
  8
DRAFT
100
AcDbLine
 62
7
  6
CONTINUOUS
 10
8.9667980423
 20
26.1273014999
 11
8.9667980423
 21
25.4773014999
  0
LINE
  5
4AB
100
AcDbEntity
  8
DRAFT
100
AcDbLine
 62
7
  6
CONTINUOUS
 10
8.9894965425
 20
7.9875
 11
8.9894965425
 21
8.6375
  0
LINE
  5
4AC
100
AcDbEntity
  8
DRAFT
100
AcDbLine
 62
7
  6
CONTINUOUS
 10
8.9894965425
 20
14.0125
 11
8.9894965425
 21
14.6625
  0
LINE
  5
4AD
100
AcDbEntity
  8
DRAFT
100
AcDbLine
 62
7
  6
CONTINUOUS
 10
8.9894965425
 20
19.475
 11
8.9894965425
 21
20.125
  0
LINE
  5
4AE
100
AcDbEntity
  8
DRAFT
100
AcDbLine
 62
7
  6
CONTINUOUS
 10
9.5939868412
 20
28.0330097013
 11
9.5939868412
 21
27.3375
  0
LINE
  5
4AF
100
AcDbEntity
  8
DRAFT
100
AcDbLine
 62
7
  6
CONTINUOUS
 10
9.5939868412
 20
19.1875
 11
9.5939868412
 21
17.5919902987
  0
LINE
  5
4B0
100
AcDbEntity
  8
DRAFT
100
AcDbLine
 62
7
  6
CONTINUOUS
 10
9.5939868412
 20
16.5455097013
 11
9.5939868412
 21
14.95
  0
LINE
  5
4B1
100
AcDbEntity
  8
DRAFT
100
AcDbLine
 62
7
  6
CONTINUOUS
 10
9.5939868412
 20
7.7
 11
9.5939868412
 21
6.1044902987
  0
LINE
  5
4B2
100
AcDbEntity
  8
DRAFT
100
AcDbLine
 62
7
  6
CONTINUOUS
 10
9.6053326334
 20
27.3375
 11
9.6053326334
 21
26.4375
  0
LINE
  5
4B3
100
AcDbEntity
  8
DRAFT
100
AcDbLine
 62
7
  6
CONTINUOUS
 10
9.6144965425
 20
6.125
 11
9.6144965425
 21
6.475
  0
LINE
  5
4B4
100
AcDbEntity
  8
DRAFT
100
AcDbLine
 62
7
  6
CONTINUOUS
 10
9.6144965425
 20
16.175
 11
9.6144965425
 21
16.525
  0
LINE
  5
4B5
100
AcDbEntity
  8
DRAFT
100
AcDbLine
 62
7
  6
CONTINUOUS
 10
9.6144965425
 20
17.6125
 11
9.6144965425
 21
17.9625
  0
LINE
  5
4B6
100
AcDbEntity
  8
DRAFT
100
AcDbLine
 62
7
  6
CONTINUOUS
 10
9.6144965425
 20
27.6625
 11
9.6144965425
 21
28.0125
  0
LINE
  5
4B7
100
AcDbEntity
  8
DRAFT
100
AcDbLine
 62
7
  6
CONTINUOUS
 10
9.6174987747
 20
27.6625
 11
9.6174987747
 21
27.0976246479
  0
LINE
  5
4B8
100
AcDbEntity
  8
DRAFT
100
AcDbLine
 62
7
  6
CONTINUOUS
 10
9.6174987747
 20
18.5273753521
 11
9.6174987747
 21
17.9625
  0
LINE
  5
4B9
100
AcDbEntity
  8
DRAFT
100
AcDbLine
 62
7
  6
CONTINUOUS
 10
9.6174987747
 20
16.175
 11
9.6174987747
 21
15.6101246479
  0
LINE
  5
4BA
100
AcDbEntity
  8
DRAFT
100
AcDbLine
 62
7
  6
CONTINUOUS
 10
9.6174987747
 20
7.0398753521
 11
9.6174987747
 21
6.475
  0
LINE
  5
4BB
100
AcDbEntity
  8
RACCORDO
100
AcDbLine
 62
7
  6
CONTINUOUS
 10
9.6337093872
 20
27.0651212547
 11
9.6337093872
 21
26.4372839946
  0
LINE
  5
4BC
100
AcDbEntity
  8
RACCORDO
100
AcDbLine
 62
7
  6
CONTINUOUS
 10
9.6337093872
 20
19.1877160055
 11
9.6337093872
 21
18.5598787425
  0
LINE
  5
4BD
100
AcDbEntity
  8
RACCORDO
100
AcDbLine
 62
7
  6
CONTINUOUS
 10
9.6337093872
 20
15.577621256
 11
9.6337093872
 21
14.9497839946
  0
LINE
  5
4BE
100
AcDbEntity
  8
RACCORDO
100
AcDbLine
 62
7
  6
CONTINUOUS
 10
9.6337093872
 20
7.7002160055
 11
9.6337093872
 21
7.0723787425
  0
LINE
  5
4BF
100
AcDbEntity
  8
DRAFT
100
AcDbLine
 62
7
  6
CONTINUOUS
 10
9.6703813416
 20
4.5125
 11
9.6703813416
 21
4.5347089832
  0
LINE
  5
4C0
100
AcDbEntity
  8
DRAFT
100
AcDbLine
 62
7
  6
CONTINUOUS
 10
9.6777891896
 20
4.5125
 11
9.6777891896
 21
4.5421168312
  0
LINE
  5
4C1
100
AcDbEntity
  8
RACCORDO
100
AcDbLine
 62
7
  6
CONTINUOUS
 10
9.6336865415
 20
7.0722607529
 11
9.6337093872
 21
7.0724322385
  0
LINE
  5
4C2
100
AcDbEntity
  8
RACCORDO
100
AcDbLine
 62
250
  6
CONTINUOUS
 10
-16.9553050142
 20
-27.9572634805
 11
-16.9355415337
 21
-27.9375
  0
LINE
  5
4C3
100
AcDbEntity
  8
DRAFT
100
AcDbLine
 62
7
  6
CONTINUOUS
 10
15.684260023
 20
4.5822634805
 11
15.6441133737
 21
4.5421168312
  0
LINE
  5
4C4
100
AcDbEntity
  8
RACCORDO
100
AcDbLine
 62
250
  6
CONTINUOUS
 10
-17.205266938
 20
-15.407005449
 11
-17.1675263932
 21
-15.3913728035
  0
LINE
  5
4C5
100
AcDbEntity
  8
RACCORDO
100
AcDbLine
 62
250
  6
CONTINUOUS
 10
-17.1759820771
 20
-15.4777053575
 11
-17.1382415322
 21
-15.462072712
  0
LINE
  5
4C6
100
AcDbEntity
  8
RACCORDO
100
AcDbLine
 62
250
  6
CONTINUOUS
 10
-16.9397883185
 20
-15.7138991161
 11
-16.9080542337
 21
-15.7007544278
  0
LINE
  5
4C7
100
AcDbEntity
  8
RACCORDO
100
AcDbLine
 62
250
  6
CONTINUOUS
 10
-16.9105034575
 20
-15.7845990246
 11
-16.8787693728
 21
-15.7714543364
  0
LINE
  5
4C8
100
AcDbEntity
  8
DRAFT
100
AcDbLine
 62
7
  6
CONTINUOUS
 10
-13.4060131588
 20
7.7
 11
-11.1149937562
 21
7.7
  0
LINE
  5
4C9
100
AcDbEntity
  8
DRAFT
100
AcDbLine
 62
7
  6
CONTINUOUS
 10
11.8850062438
 20
7.7
 11
9.5939868412
 21
7.7
  0
LINE
  5
4CA
100
AcDbEntity
  8
DRAFT
100
AcDbLine
 62
7
  6
CONTINUOUS
 10
-16.1105034575
 20
7.9875
 11
-14.0105034575
 21
7.9875
  0
LINE
  5
4CB
100
AcDbEntity
  8
DRAFT
100
AcDbLine
 62
7
  6
CONTINUOUS
 10
-10.5105034575
 20
7.9875
 11
-1.9070469689
 21
7.9875
  0
LINE
  5
4CC
100
AcDbEntity
  8
DRAFT
100
AcDbLine
 62
7
  6
CONTINUOUS
 10
0.3860400539
 20
7.9875
 11
8.9894965425
 21
7.9875
  0
LINE
  5
4CD
100
AcDbEntity
  8
DRAFT
100
AcDbLine
 62
7
  6
CONTINUOUS
 10
12.4894965425
 20
7.9875
 11
14.5894965425
 21
7.9875
  0
LINE
  5
4CE
100
AcDbEntity
  8
DRAFT
100
AcDbLine
 62
7
  6
CONTINUOUS
 10
0.2394965425
 20
8.0459922889
 11
-1.7605034575
 21
8.0459922889
  0
LINE
  5
4CF
100
AcDbEntity
  8
DRAFT
100
AcDbLine
 62
7
  6
CONTINUOUS
 10
8.9894965425
 20
8.6375
 11
12.4894965425
 21
8.6375
  0
LINE
  5
4D0
100
AcDbEntity
  8
DRAFT
100
AcDbLine
 62
7
  6
CONTINUOUS
 10
-10.5105034575
 20
8.6375
 11
-14.0105034575
 21
8.6375
  0
LINE
  5
4D1
100
AcDbEntity
  8
ASSI
100
AcDbLine
 62
7
  6
CONTINUOUS
 10
12.6144965425
 20
9.825
 11
11.3644965425
 21
9.825
  0
LINE
  5
4D2
100
AcDbEntity
  8
ASSI
100
AcDbLine
 62
7
  6
CONTINUOUS
 10
-12.8855034575
 20
9.825
 11
-14.1355034575
 21
9.825
  0
LINE
  5
4D3
100
AcDbEntity
  8
RACCORDO
100
AcDbLine
 62
250
  6
CONTINUOUS
 10
15.6676777113
 20
-11.1374999768
 11
15.6465194782
 21
-11.0951706136
  0
LINE
  5
4D4
100
AcDbEntity
  8
DRAFT
100
AcDbLine
 62
7
  6
CONTINUOUS
 10
15.6528409061
 20
-8.8578173459
 11
15.6720414776
 21
-8.8962301923
  0
LINE
  5
4D5
100
AcDbEntity
  8
RACCORDO
100
AcDbLine
 62
7
  6
CONTINUOUS
 10
10.0894965425
 20
4.5691721818
 11
10.0894965425
 21
5.4561826714
  0
LINE
  5
4D6
100
AcDbEntity
  8
RACCORDO
100
AcDbLine
 62
250
  6
CONTINUOUS
 10
10.1894965425
 20
4.5674266754
 11
10.1894965425
 21
5.0958668826
  0
LINE
  5
4D7
100
AcDbEntity
  8
DRAFT
100
AcDbLine
 62
7
  6
CONTINUOUS
 10
10.7394965425
 20
4.5125
 11
10.7394965425
 21
4.5421168312
  0
LINE
  5
4D8
100
AcDbEntity
  8
DRAFT
100
AcDbLine
 62
7
  6
CONTINUOUS
 10
10.7460498376
 20
4.5125
 11
10.7460498376
 21
4.5355635361
  0
LINE
  5
4D9
100
AcDbEntity
  8
RACCORDO
100
AcDbLine
 62
250
  6
CONTINUOUS
 10
11.3644965425
 20
5.0958668826
 11
11.3644965425
 21
4.5674266754
  0
LINE
  5
4DA
100
AcDbEntity
  8
ASSI
100
AcDbLine
 62
7
  6
CONTINUOUS
 10
11.3644965425
 20
9.825
 11
11.3644965425
 21
12.825
  0
LINE
  5
4DB
100
AcDbEntity
  8
0
100
AcDbLine
 62
7
  6
CONTINUOUS
 10
11.3644965425
 20
21.3125
 11
11.3644965425
 21
24.3125
  0
LINE
  5
4DC
100
AcDbEntity
  8
RACCORDO
100
AcDbLine
 62
7
  6
CONTINUOUS
 10
11.4644965425
 20
4.5691721818
 11
11.4644965425
 21
5.4561826714
  0
LINE
  5
4DD
100
AcDbEntity
  8
RACCORDO
100
AcDbLine
 62
7
  6
CONTINUOUS
 10
11.4894965425
 20
-23.1625
 11
11.4894965425
 21
-21.3125
  0
LINE
  5
4DE
100
AcDbEntity
  8
RACCORDO
100
AcDbLine
 62
7
  6
CONTINUOUS
 10
11.4894965425
 20
-19.5625
 11
11.4894965425
 21
-16.9625
  0
LINE
  5
4DF
100
AcDbEntity
  8
RACCORDO
100
AcDbLine
 62
7
  6
CONTINUOUS
 10
11.4894965425
 20
-15.1125
 11
11.4894965425
 21
-13.0625
  0
LINE
  5
4E0
100
AcDbEntity
  8
RACCORDO
100
AcDbLine
 62
250
  6
CONTINUOUS
 10
11.5144342474
 20
-23.3175839902
 11
11.5144342474
 21
-21.1574160098
  0
LINE
  5
4E1
100
AcDbEntity
  8
RACCORDO
100
AcDbLine
 62
250
  6
CONTINUOUS
 10
11.5144342474
 20
-19.7175839902
 11
11.5144342474
 21
-16.8074160098
  0
LINE
  5
4E2
100
AcDbEntity
  8
RACCORDO
100
AcDbLine
 62
250
  6
CONTINUOUS
 10
11.5144342474
 20
-15.2675839902
 11
11.5144342474
 21
-12.9074160098
  0
LINE
  5
4E3
100
AcDbEntity
  8
RACCORDO
100
AcDbLine
 62
250
  6
CONTINUOUS
 10
11.7773888056
 20
-23.3876003713
 11
11.7773888056
 21
-21.0873996286
  0
LINE
  5
4E4
100
AcDbEntity
  8
RACCORDO
100
AcDbLine
 62
250
  6
CONTINUOUS
 10
11.7773888056
 20
-19.8876003713
 11
11.7773888056
 21
-16.6873996286
  0
LINE
  5
4E5
100
AcDbEntity
  8
RACCORDO
100
AcDbLine
 62
250
  6
CONTINUOUS
 10
11.7773888056
 20
-15.3376003713
 11
11.7773888056
 21
-12.6099096523
  0
LINE
  5
4E6
100
AcDbEntity
  8
RACCORDO
100
AcDbLine
 62
7
  6
CONTINUOUS
 10
11.8479125381
 20
7.0670928875
 11
11.8479125381
 21
7.7
  0
LINE
  5
4E7
100
AcDbEntity
  8
RACCORDO
100
AcDbLine
 62
7
  6
CONTINUOUS
 10
11.8479125381
 20
14.95
 11
11.8479125381
 21
15.5829071126
  0
LINE
  5
4E8
100
AcDbEntity
  8
RACCORDO
100
AcDbLine
 62
7
  6
CONTINUOUS
 10
11.8479125381
 20
18.5545928875
 11
11.8479125381
 21
19.1875
  0
LINE
  5
4E9
100
AcDbEntity
  8
RACCORDO
100
AcDbLine
 62
7
  6
CONTINUOUS
 10
11.8479125381
 20
26.4375
 11
11.8479125381
 21
27.0704071126
  0
LINE
  5
4EA
100
AcDbEntity
  8
DRAFT
100
AcDbLine
 62
7
  6
CONTINUOUS
 10
11.8614943103
 20
6.475
 11
11.8614943103
 21
7.0398753521
  0
LINE
  5
4EB
100
AcDbEntity
  8
DRAFT
100
AcDbLine
 62
7
  6
CONTINUOUS
 10
11.8614943103
 20
15.6101246479
 11
11.8614943103
 21
16.175
  0
LINE
  5
4EC
100
AcDbEntity
  8
DRAFT
100
AcDbLine
 62
7
  6
CONTINUOUS
 10
11.8614943103
 20
17.9625
 11
11.8614943103
 21
18.5273753521
  0
LINE
  5
4ED
100
AcDbEntity
  8
DRAFT
100
AcDbLine
 62
7
  6
CONTINUOUS
 10
11.8614943103
 20
27.0976246479
 11
11.8614943103
 21
27.6625
  0
LINE
  5
4EE
100
AcDbEntity
  8
DRAFT
100
AcDbLine
 62
7
  6
CONTINUOUS
 10
11.8644965425
 20
6.125
 11
11.8644965425
 21
6.475
  0
LINE
  5
4EF
100
AcDbEntity
  8
DRAFT
100
AcDbLine
 62
7
  6
CONTINUOUS
 10
11.8644965425
 20
16.175
 11
11.8644965425
 21
16.525
  0
LINE
  5
4F0
100
AcDbEntity
  8
DRAFT
100
AcDbLine
 62
7
  6
CONTINUOUS
 10
11.8644965425
 20
17.6125
 11
11.8644965425
 21
17.9625
  0
LINE
  5
4F1
100
AcDbEntity
  8
DRAFT
100
AcDbLine
 62
7
  6
CONTINUOUS
 10
11.8644965425
 20
27.6625
 11
11.8644965425
 21
28.0125
  0
LINE
  5
4F2
100
AcDbEntity
  8
DRAFT
100
AcDbLine
 62
7
  6
CONTINUOUS
 10
11.8736604516
 20
27.3375
 11
11.8736604516
 21
26.4375
  0
LINE
  5
4F3
100
AcDbEntity
  8
DRAFT
100
AcDbLine
 62
7
  6
CONTINUOUS
 10
11.8850062438
 20
28.0330097013
 11
11.8850062438
 21
27.3375
  0
LINE
  5
4F4
100
AcDbEntity
  8
DRAFT
100
AcDbLine
 62
7
  6
CONTINUOUS
 10
11.8850062438
 20
19.1875
 11
11.8850062438
 21
17.5919902987
  0
LINE
  5
4F5
100
AcDbEntity
  8
DRAFT
100
AcDbLine
 62
7
  6
CONTINUOUS
 10
11.8850062438
 20
16.5455097013
 11
11.8850062438
 21
14.95
  0
LINE
  5
4F6
100
AcDbEntity
  8
DRAFT
100
AcDbLine
 62
7
  6
CONTINUOUS
 10
11.8850062438
 20
7.7
 11
11.8850062438
 21
6.1044902987
  0
LINE
  5
4F7
100
AcDbEntity
  8
DRAFT
100
AcDbLine
 62
7
  6
CONTINUOUS
 10
12.4894965425
 20
20.125
 11
12.4894965425
 21
19.475
  0
LINE
  5
4F8
100
AcDbEntity
  8
DRAFT
100
AcDbLine
 62
7
  6
CONTINUOUS
 10
12.4894965425
 20
14.6625
 11
12.4894965425
 21
14.0125
  0
LINE
  5
4F9
100
AcDbEntity
  8
DRAFT
100
AcDbLine
 62
7
  6
CONTINUOUS
 10
12.4894965425
 20
7.9875
 11
12.4894965425
 21
8.6808388519
  0
LINE
  5
4FA
100
AcDbEntity
  8
DRAFT
100
AcDbLine
 62
7
  6
CONTINUOUS
 10
13.9894965425
 20
28.4625
 11
13.8644965425
 21
27.3375
  0
LINE
  5
4FB
100
AcDbEntity
  8
RACCORDO
100
AcDbLine
 62
250
  6
CONTINUOUS
 10
7.5646488357
 20
-9.2375
 11
7.5157597584
 21
-9.2863890773
  0
LINE
  5
4FC
100
AcDbEntity
  8
DRAFT
100
AcDbLine
 62
7
  6
CONTINUOUS
 10
-16.8855034575
 20
10.325
 11
-16.0878049573
 21
10.325
  0
LINE
  5
4FD
100
AcDbEntity
  8
DRAFT
100
AcDbLine
 62
7
  6
CONTINUOUS
 10
14.5667980423
 20
10.325
 11
15.3644965425
 21
10.325
  0
LINE
  5
4FE
100
AcDbEntity
  8
DRAFT
100
AcDbLine
 62
7
  6
CONTINUOUS
 10
15.3644965425
 20
12.325
 11
14.5667980423
 21
12.325
  0
LINE
  5
4FF
100
AcDbEntity
  8
DRAFT
100
AcDbLine
 62
7
  6
CONTINUOUS
 10
-16.0878049573
 20
12.325
 11
-16.8855034575
 21
12.325
  0
LINE
  5
500
100
AcDbEntity
  8
RACCORDO
100
AcDbLine
 62
7
  6
CONTINUOUS
 10
10.0898770727
 20
5.1954863524
 11
10.0907854823
 21
5.1945967602
  0
LINE
  5
501
100
AcDbEntity
  8
RACCORDO
100
AcDbLine
 62
250
  6
CONTINUOUS
 10
-1.9070469689
 20
16.3719240416
 11
-1.810809439
 21
16.2756865117
  0
LINE
  5
502
100
AcDbEntity
  8
DRAFT
100
AcDbLine
 62
7
  6
CONTINUOUS
 10
-13.3855034575
 20
28.0125
 11
-13.4060131588
 21
28.0330097013
  0
LINE
  5
503
100
AcDbEntity
  8
RACCORDO
100
AcDbLine
 62
250
  6
CONTINUOUS
 10
-1.8074274991
 20
16.4715435114
 11
-1.7111899692
 21
16.3753059816
  0
LINE
  5
504
100
AcDbEntity
  8
DRAFT
100
AcDbLine
 62
7
  6
CONTINUOUS
 10
-10.4878049573
 20
25.4773014999
 11
-10.4597211122
 21
25.4492176547
  0
LINE
  5
505
100
AcDbEntity
  8
DRAFT
100
AcDbLine
 62
7
  6
CONTINUOUS
 10
10.7394965425
 20
4.5421168312
 11
10.7460498376
 21
4.5355635361
  0
LINE
  5
506
100
AcDbEntity
  8
RACCORDO
100
AcDbLine
 62
7
  6
CONTINUOUS
 10
10.0898770727
 20
5.1954863524
 11
10.1894965425
 21
5.0958668826
  0
LINE
  5
507
100
AcDbEntity
  8
DRAFT
100
AcDbLine
 62
7
  6
CONTINUOUS
 10
-10.4878049573
 20
26.1273014999
 11
-10.4597211122
 21
26.0992176547
  0
LINE
  5
508
100
AcDbEntity
  8
DRAFT
100
AcDbLine
 62
7
  6
CONTINUOUS
 10
8.9894965425
 20
7.9875
 11
8.9387141972
 21
8.0382823453
  0
LINE
  5
509
100
AcDbEntity
  8
DRAFT
100
AcDbLine
 62
7
  6
CONTINUOUS
 10
8.9894965425
 20
8.6375
 11
8.9387141972
 21
8.6882823453
  0
LINE
  5
50A
100
AcDbEntity
  8
RACCORDO
100
AcDbLine
 62
7
  6
CONTINUOUS
 10
10.1799677535
 20
5.1054941268
 11
10.1894965425
 21
5.0958668826
  0
LINE
  5
50B
100
AcDbEntity
  8
RACCORDO
100
AcDbLine
 62
7
  6
CONTINUOUS
 10
9.6336865415
 20
15.5777392472
 11
9.6337093872
 21
15.577568165
  0
LINE
  5
50C
100
AcDbEntity
  8
DRAFT
100
AcDbLine
 62
7
  6
CONTINUOUS
 10
12.5121950427
 20
25.4773014999
 11
12.5121950427
 21
26.1273014999
  0
LINE
  5
50D
100
AcDbEntity
  8
DRAFT
100
AcDbLine
 62
7
  6
CONTINUOUS
 10
12.5327305103
 20
13.9692660322
 11
12.5327305103
 21
14.6192660322
  0
LINE
  5
50E
100
AcDbEntity
  8
DRAFT
100
AcDbLine
 62
7
  6
CONTINUOUS
 10
12.5327305103
 20
19.5182339679
 11
12.5327305103
 21
20.1682339679
  0
LINE
  5
50F
100
AcDbEntity
  8
DRAFT
100
AcDbLine
 62
7
  6
CONTINUOUS
 10
12.5327305103
 20
25.4567660322
 11
12.5327305103
 21
26.1067660322
  0
LINE
  5
510
100
AcDbEntity
  8
ASSI
100
AcDbLine
 62
7
  6
CONTINUOUS
 10
12.6144965425
 20
9.825
 11
12.6144965425
 21
12.825
  0
LINE
  5
511
100
AcDbEntity
  8
0
100
AcDbLine
 62
7
  6
CONTINUOUS
 10
12.6144965425
 20
21.3125
 11
12.6144965425
 21
24.3125
  0
LINE
  5
512
100
AcDbEntity
  8
RACCORDO
100
AcDbLine
 62
7
  6
CONTINUOUS
 10
14.2394965425
 20
-16.9625
 11
14.2394965425
 21
-19.5625
  0
LINE
  5
513
100
AcDbEntity
  8
DRAFT
100
AcDbLine
 62
7
  6
CONTINUOUS
 10
14.5515427452
 20
26.1120462027
 11
14.5515427452
 21
19.5129537973
  0
LINE
  5
514
100
AcDbEntity
  8
DRAFT
100
AcDbLine
 62
7
  6
CONTINUOUS
 10
14.5515427452
 20
14.6245462027
 11
14.5515427452
 21
8.0254537973
  0
LINE
  5
515
100
AcDbEntity
  8
DRAFT
100
AcDbLine
 62
7
  6
CONTINUOUS
 10
14.5667980423
 20
23.8125
 11
14.5667980423
 21
21.8125
  0
LINE
  5
516
100
AcDbEntity
  8
DRAFT
100
AcDbLine
 62
7
  6
CONTINUOUS
 10
14.5667980423
 20
12.325
 11
14.5667980423
 21
10.325
  0
LINE
  5
517
100
AcDbEntity
  8
DRAFT
100
AcDbLine
 62
7
  6
CONTINUOUS
 10
14.5667980423
 20
25.3375
 11
14.5667980423
 21
26.1273014999
  0
LINE
  5
518
100
AcDbEntity
  8
RACCORDO
100
AcDbLine
 62
7
  6
CONTINUOUS
 10
14.5894965425
 20
-13.0625
 11
14.5894965425
 21
-15.1125
  0
LINE
  5
519
100
AcDbEntity
  8
DRAFT
100
AcDbLine
 62
7
  6
CONTINUOUS
 10
14.5894965425
 20
7.9875
 11
14.5894965425
 21
10.325
  0
LINE
  5
51A
100
AcDbEntity
  8
DRAFT
100
AcDbLine
 62
7
  6
CONTINUOUS
 10
14.5894965425
 20
12.325
 11
14.5894965425
 21
14.6625
  0
LINE
  5
51B
100
AcDbEntity
  8
DRAFT
100
AcDbLine
 62
7
  6
CONTINUOUS
 10
14.5894965425
 20
19.475
 11
14.5894965425
 21
21.8125
  0
LINE
  5
51C
100
AcDbEntity
  8
DRAFT
100
AcDbLine
 62
7
  6
CONTINUOUS
 10
14.5894965425
 20
23.8125
 11
14.5894965425
 21
25.3375
  0
LINE
  5
51D
100
AcDbEntity
  8
DRAFT
100
AcDbLine
 62
7
  6
CONTINUOUS
 10
14.7368481183
 20
4.5125
 11
14.7368481183
 21
4.539468407
  0
LINE
  5
51E
100
AcDbEntity
  8
DRAFT
100
AcDbLine
 62
7
  6
CONTINUOUS
 10
14.7394965425
 20
4.5125
 11
14.7394965425
 21
4.5421168312
  0
LINE
  5
51F
100
AcDbEntity
  8
RACCORDO
100
AcDbLine
 62
7
  6
CONTINUOUS
 10
14.8394965425
 20
-21.3125
 11
14.8394965425
 21
-23.1625
  0
LINE
  5
520
100
AcDbEntity
  8
RACCORDO
100
AcDbLine
 62
250
  6
CONTINUOUS
 10
7.7652860206
 20
-12.2549452377
 11
7.7080443521
 21
-12.3078124607
  0
LINE
  5
521
100
AcDbEntity
  8
RACCORDO
100
AcDbLine
 62
250
  6
CONTINUOUS
 10
7.3979211936
 20
-11.889666476
 11
7.4526604131
 21
-11.8575499495
  0
LINE
  5
522
100
AcDbEntity
  8
ASSI
100
AcDbLine
 62
7
  6
CONTINUOUS
 10
12.6144965425
 20
12.825
 11
11.3644965425
 21
12.825
  0
LINE
  5
523
100
AcDbEntity
  8
ASSI
100
AcDbLine
 62
7
  6
CONTINUOUS
 10
-12.8855034575
 20
12.825
 11
-14.1355034575
 21
12.825
  0
LINE
  5
524
100
AcDbEntity
  8
DRAFT
100
AcDbLine
 62
7
  6
CONTINUOUS
 10
-14.0105034575
 20
14.0125
 11
-10.5105034575
 21
14.0125
  0
LINE
  5
525
100
AcDbEntity
  8
DRAFT
100
AcDbLine
 62
7
  6
CONTINUOUS
 10
12.4894965425
 20
14.0125
 11
8.9894965425
 21
14.0125
  0
LINE
  5
526
100
AcDbEntity
  8
DRAFT
100
AcDbLine
 62
7
  6
CONTINUOUS
 10
0.2394965425
 20
14.6040077111
 11
-1.7605034575
 21
14.6040077111
  0
LINE
  5
527
100
AcDbEntity
  8
DRAFT
100
AcDbLine
 62
7
  6
CONTINUOUS
 10
-16.1105034575
 20
14.6625
 11
-14.0105034575
 21
14.6625
  0
LINE
  5
528
100
AcDbEntity
  8
DRAFT
100
AcDbLine
 62
7
  6
CONTINUOUS
 10
-10.5105034575
 20
14.6625
 11
-1.9070469689
 21
14.6625
  0
LINE
  5
529
100
AcDbEntity
  8
DRAFT
100
AcDbLine
 62
7
  6
CONTINUOUS
 10
0.3860400539
 20
14.6625
 11
8.9894965425
 21
14.6625
  0
LINE
  5
52A
100
AcDbEntity
  8
DRAFT
100
AcDbLine
 62
7
  6
CONTINUOUS
 10
12.4894965425
 20
14.6625
 11
14.5894965425
 21
14.6625
  0
LINE
  5
52B
100
AcDbEntity
  8
DRAFT
100
AcDbLine
 62
7
  6
CONTINUOUS
 10
-1.9070469689
 20
14.6625
 11
-1.7605034575
 21
14.6040077111
  0
LINE
  5
52C
100
AcDbEntity
  8
DRAFT
100
AcDbLine
 62
7
  6
CONTINUOUS
 10
-1.810809439
 20
15.61875
 11
-1.7605034575
 21
15.5986705576
  0
LINE
  5
52D
100
AcDbEntity
  8
RACCORDO
100
AcDbLine
 62
250
  6
CONTINUOUS
 10
0.2864205841
 20
17.6659564886
 11
0.1901830542
 21
17.7621940185
  0
LINE
  5
52E
100
AcDbEntity
  8
DRAFT
100
AcDbLine
 62
7
  6
CONTINUOUS
 10
11.8850062438
 20
6.1044902987
 11
11.8644965425
 21
6.125
  0
LINE
  5
52F
100
AcDbEntity
  8
RACCORDO
100
AcDbLine
 62
250
  6
CONTINUOUS
 10
0.3860400539
 20
17.7655759584
 11
0.289802524
 21
17.8618134883
  0
LINE
  5
530
100
AcDbEntity
  8
DRAFT
100
AcDbLine
 62
7
  6
CONTINUOUS
 10
-8.2605034575
 20
28.4625
 11
-8.2543941848
 21
28.4563907273
  0
LINE
  5
531
100
AcDbEntity
  8
DRAFT
100
AcDbLine
 62
7
  6
CONTINUOUS
 10
-5.0878049573
 20
25.9773014999
 11
-5.0528182013
 21
25.9423147438
  0
LINE
  5
532
100
AcDbEntity
  8
DRAFT
100
AcDbLine
 62
7
  6
CONTINUOUS
 10
-5.0878049573
 20
26.1273014999
 11
-5.0528182013
 21
26.0923147438
  0
LINE
  5
533
100
AcDbEntity
  8
RACCORDO
100
AcDbLine
 62
7
  6
CONTINUOUS
 10
11.8479353839
 20
7.0670014697
 11
11.8614943103
 21
7.0398753521
  0
LINE
  5
534
100
AcDbEntity
  8
RACCORDO
100
AcDbLine
 62
7
  6
CONTINUOUS
 10
9.6336865415
 20
27.0652392472
 11
9.6337093872
 21
27.0650681639
  0
LINE
  5
535
100
AcDbEntity
  8
0
100
AcDbLine
 62
7
  6
CONTINUOUS
 10
15.3644965425
 20
25.3375
 11
15.3644965425
 21
23.8125
  0
LINE
  5
536
100
AcDbEntity
  8
0
100
AcDbLine
 62
7
  6
CONTINUOUS
 10
15.3644965425
 20
21.8125
 11
15.3644965425
 21
12.325
  0
LINE
  5
537
100
AcDbEntity
  8
DRAFT
100
AcDbLine
 62
7
  6
CONTINUOUS
 10
15.3644965425
 20
10.325
 11
15.3644965425
 21
4.5822634805
  0
LINE
  5
538
100
AcDbEntity
  8
0
100
AcDbLine
 62
7
  6
CONTINUOUS
 10
15.3644965425
 20
-8.1625
 11
15.3644965425
 21
4.3375
  0
LINE
  5
539
100
AcDbEntity
  8
0
100
AcDbLine
 62
7
  6
CONTINUOUS
 10
15.5894965425
 20
-6.9875
 11
15.5894965425
 21
4.5125
  0
LINE
  5
53A
100
AcDbEntity
  8
ASSI
100
AcDbLine
 62
7
  6
CONTINUOUS
 10
15.6144965425
 20
-27.9375
 11
15.6144965425
 21
-9.3875
  0
LINE
  5
53B
100
AcDbEntity
  8
DRAFT
100
AcDbLine
 62
7
  6
CONTINUOUS
 10
15.6441133737
 20
4.5421168312
 11
15.6441133737
 21
-7.9328831688
  0
LINE
  5
53C
100
AcDbEntity
  8
RACCORDO
100
AcDbLine
 62
250
  6
CONTINUOUS
 10
15.6465194782
 20
-9.5298293864
 11
15.6465194782
 21
-11.0951706136
  0
LINE
  5
53D
100
AcDbEntity
  8
RACCORDO
100
AcDbLine
 62
250
  6
CONTINUOUS
 10
15.6465194782
 20
-24.5298293864
 11
15.6465194782
 21
-26.0951706136
  0
LINE
  5
53E
100
AcDbEntity
  8
RACCORDO
100
AcDbLine
 62
250
  6
CONTINUOUS
 10
15.6465194782
 20
-27.0298293864
 11
15.6465194782
 21
-27.6695610119
  0
LINE
  5
53F
100
AcDbEntity
  8
DRAFT
100
AcDbLine
 62
7
  6
CONTINUOUS
 10
15.6528409061
 20
-7.9364982311
 11
15.6528409061
 21
-8.8578173459
  0
LINE
  5
540
100
AcDbEntity
  8
RACCORDO
100
AcDbLine
 62
7
  6
CONTINUOUS
 10
15.6676777113
 20
-11.1374999768
 11
15.6676777113
 21
-24.4875000232
  0
LINE
  5
541
100
AcDbEntity
  8
RACCORDO
100
AcDbLine
 62
7
  6
CONTINUOUS
 10
15.6676777113
 20
-26.1374999768
 11
15.6676777113
 21
-26.9875000232
  0
LINE
  5
542
100
AcDbEntity
  8
RACCORDO
100
AcDbLine
 62
7
  6
CONTINUOUS
 10
15.6720414776
 20
-8.8962301923
 11
15.6720414776
 21
-9.4787698308
  0
LINE
  5
543
100
AcDbEntity
  8
RACCORDO
100
AcDbLine
 62
7
  6
CONTINUOUS
 10
15.684260023
 20
-27.7073015567
 11
15.684260023
 21
4.5822634805
  0
LINE
  5
544
100
AcDbEntity
  8
DRAFT
100
AcDbLine
 62
7
  6
CONTINUOUS
 10
15.9535303328
 20
27.3375
 11
15.9535303328
 21
-27.9572634805
  0
LINE
  5
545
100
AcDbEntity
  8
DRAFT
100
AcDbLine
 62
250
  6
CONTINUOUS
 10
15.9925119114
 20
-27.9591329355
 11
15.9925119114
 21
27.3375
  0
LINE
  5
546
100
AcDbEntity
  8
DRAFT
100
AcDbLine
 62
250
  6
CONTINUOUS
 10
16.0864811735
 20
-27.9591329355
 11
16.0864811735
 21
27.3375
  0
LINE
  5
547
100
AcDbEntity
  8
DRAFT
100
AcDbLine
 62
7
  6
CONTINUOUS
 10
16.1254627522
 20
27.3375
 11
16.1254627522
 21
-27.9572634805
  0
LINE
  5
548
100
AcDbEntity
  8
DRAFT
100
AcDbLine
 62
7
  6
CONTINUOUS
 10
16.3035303328
 20
27.3375
 11
16.3035303328
 21
-27.9572634805
  0
LINE
  5
549
100
AcDbEntity
  8
DRAFT
100
AcDbLine
 62
250
  6
CONTINUOUS
 10
16.3425119114
 20
-27.9591329355
 11
16.3425119114
 21
27.3375
  0
LINE
  5
54A
100
AcDbEntity
  8
DRAFT
100
AcDbLine
 62
250
  6
CONTINUOUS
 10
16.4364811735
 20
-27.9591329355
 11
16.4364811735
 21
27.3375
  0
LINE
  5
54B
100
AcDbEntity
  8
DRAFT
100
AcDbLine
 62
7
  6
CONTINUOUS
 10
16.4754627522
 20
27.3375
 11
16.4754627522
 21
-27.9572634805
  0
LINE
  5
54C
100
AcDbEntity
  8
DRAFT
100
AcDbLine
 62
7
  6
CONTINUOUS
 10
16.6144965425
 20
-25.5515540834
 11
16.6144965425
 21
-24.7734459165
  0
LINE
  5
54D
100
AcDbEntity
  8
DRAFT
100
AcDbLine
 62
7
  6
CONTINUOUS
 10
16.6144965425
 20
24.4484459166
 11
16.6144965425
 21
25.2265540835
  0
LINE
  5
54E
100
AcDbEntity
  8
DRAFT
100
AcDbLine
 62
7
  6
CONTINUOUS
 10
17.1144965425
 20
-25.5515540834
 11
17.1144965425
 21
-27.9686092727
  0
LINE
  5
54F
100
AcDbEntity
  8
DRAFT
100
AcDbLine
 62
7
  6
CONTINUOUS
 10
17.1144965425
 20
-24.7734459165
 11
17.1144965425
 21
24.4484459166
  0
LINE
  5
550
100
AcDbEntity
  8
DRAFT
100
AcDbLine
 62
7
  6
CONTINUOUS
 10
17.1144965425
 20
25.2265540835
 11
17.1144965425
 21
27.3375
  0
LINE
  5
551
100
AcDbEntity
  8
DRAFT
100
AcDbLine
 62
7
  6
CONTINUOUS
 10
14.7366395813
 20
-8.8403569612
 11
14.7315217913
 21
-8.8578173459
  0
LINE
  5
552
100
AcDbEntity
  8
RACCORDO
100
AcDbLine
 62
250
  6
CONTINUOUS
 10
12.1896488357
 20
-9.2375
 11
12.1402993202
 21
-9.2868495155
  0
LINE
  5
553
100
AcDbEntity
  8
0
100
AcDbLine
 62
7
  6
CONTINUOUS
 10
15.5894965425
 20
-6.9875
 11
15.3644965425
 21
-7.2125
  0
LINE
  5
554
100
AcDbEntity
  8
0
100
AcDbLine
 62
7
  6
CONTINUOUS
 10
14.4144965425
 20
-8.1625
 11
13.8394965425
 21
-8.7375
  0
LINE
  5
555
100
AcDbEntity
  8
DRAFT
100
AcDbLine
 62
7
  6
CONTINUOUS
 10
15.6441133737
 20
-7.9328831688
 11
14.7366395813
 21
-8.8403569612
  0
LINE
  5
556
100
AcDbEntity
  8
DRAFT
100
AcDbLine
 62
7
  6
CONTINUOUS
 10
15.6528409061
 20
-7.9364982311
 11
14.7315217913
 21
-8.8578173459
  0
LINE
  5
557
100
AcDbEntity
  8
DRAFT
100
AcDbLine
 62
7
  6
CONTINUOUS
 10
-13.4060131588
 20
14.95
 11
-11.1149937562
 21
14.95
  0
LINE
  5
558
100
AcDbEntity
  8
DRAFT
100
AcDbLine
 62
7
  6
CONTINUOUS
 10
11.8850062438
 20
14.95
 11
9.5939868412
 21
14.95
  0
LINE
  5
559
100
AcDbEntity
  8
DRAFT
100
AcDbLine
 62
7
  6
CONTINUOUS
 10
0.2394965425
 20
15.5986705576
 11
-1.7605034575
 21
15.5986705576
  0
LINE
  5
55A
100
AcDbEntity
  8
DRAFT
100
AcDbLine
 62
7
  6
CONTINUOUS
 10
-13.3855034575
 20
16.175
 11
-11.1355034575
 21
16.175
  0
LINE
  5
55B
100
AcDbEntity
  8
DRAFT
100
AcDbLine
 62
7
  6
CONTINUOUS
 10
11.8644965425
 20
16.175
 11
9.6144965425
 21
16.175
  0
LINE
  5
55C
100
AcDbEntity
  8
RACCORDO
100
AcDbLine
 62
7
  6
CONTINUOUS
 10
0.1901830542
 20
16.3753059816
 11
-1.7111899692
 21
16.3753059816
  0
LINE
  5
55D
100
AcDbEntity
  8
RACCORDO
100
AcDbLine
 62
7
  6
CONTINUOUS
 10
-1.8074274991
 20
16.4715435114
 11
0.2864205841
 21
16.4715435114
  0
LINE
  5
55E
100
AcDbEntity
  8
DRAFT
100
AcDbLine
 62
7
  6
CONTINUOUS
 10
-13.3855034575
 20
16.525
 11
-11.1355034575
 21
16.525
  0
LINE
  5
55F
100
AcDbEntity
  8
DRAFT
100
AcDbLine
 62
7
  6
CONTINUOUS
 10
11.8644965425
 20
16.525
 11
9.6144965425
 21
16.525
  0
LINE
  5
560
100
AcDbEntity
  8
DRAFT
100
AcDbLine
 62
7
  6
CONTINUOUS
 10
-13.4060131588
 20
16.5455097013
 11
-11.1149937562
 21
16.5455097013
  0
LINE
  5
561
100
AcDbEntity
  8
DRAFT
100
AcDbLine
 62
7
  6
CONTINUOUS
 10
11.8850062438
 20
16.5455097013
 11
9.5939868412
 21
16.5455097013
  0
LINE
  5
562
100
AcDbEntity
  8
0
100
AcDbLine
 62
7
  6
CONTINUOUS
 10
-21.9354793161
 20
16.9875
 11
-19.1291544792
 21
16.9875
  0
LINE
  5
563
100
AcDbEntity
  8
DRAFT
100
AcDbLine
 62
7
  6
CONTINUOUS
 10
0.289802524
 20
18.51875
 11
0.2394965425
 21
18.5388294425
  0
LINE
  5
564
100
AcDbEntity
  8
DRAFT
100
AcDbLine
 62
7
  6
CONTINUOUS
 10
14.5894965425
 20
7.9875
 11
14.5515427452
 21
8.0254537973
  0
LINE
  5
565
100
AcDbEntity
  8
RACCORDO
100
AcDbLine
 62
7
  6
CONTINUOUS
 10
9.6336829701
 20
15.5777463922
 11
9.6174987747
 21
15.6101246479
  0
LINE
  5
566
100
AcDbEntity
  8
DRAFT
100
AcDbLine
 62
7
  6
CONTINUOUS
 10
17.9894965425
 20
-25.5375
 11
17.9894965425
 21
-24.7875
  0
LINE
  5
567
100
AcDbEntity
  8
DRAFT
100
AcDbLine
 62
7
  6
CONTINUOUS
 10
17.9894965425
 20
24.4625
 11
17.9894965425
 21
25.2125
  0
LINE
  5
568
100
AcDbEntity
  8
DRAFT
100
AcDbLine
 62
7
  6
CONTINUOUS
 10
18.0949021685
 20
25.3179056261
 11
18.0949021685
 21
24.357094374
  0
LINE
  5
569
100
AcDbEntity
  8
DRAFT
100
AcDbLine
 62
7
  6
CONTINUOUS
 10
18.0949021685
 20
-24.6820943739
 11
18.0949021685
 21
-25.642905626
  0
LINE
  5
56A
100
AcDbEntity
  8
DRAFT
100
AcDbLine
 62
7
  6
CONTINUOUS
 10
18.1894965425
 20
-28.7813907273
 11
18.1894965425
 21
-2.0375
  0
LINE
  5
56B
100
AcDbEntity
  8
DRAFT
100
AcDbLine
 62
7
  6
CONTINUOUS
 10
18.1894965425
 20
1.7125
 11
18.1894965425
 21
28.4563907273
  0
LINE
  5
56C
100
AcDbEntity
  8
RACCORDO
100
AcDbLine
 62
7
  6
CONTINUOUS
 10
18.7246597373
 20
-28.522701271
 11
18.7246597373
 21
-23.3476286389
  0
LINE
  5
56D
100
AcDbEntity
  8
DRAFT
100
AcDbLine
 62
7
  6
CONTINUOUS
 10
18.7246597373
 20
-16.977371361
 11
18.7246597373
 21
-2.0375
  0
LINE
  5
56E
100
AcDbEntity
  8
DRAFT
100
AcDbLine
 62
7
  6
CONTINUOUS
 10
18.7246597373
 20
1.7125
 11
18.7246597373
 21
16.6523713611
  0
LINE
  5
56F
100
AcDbEntity
  8
RACCORDO
100
AcDbLine
 62
7
  6
CONTINUOUS
 10
18.7246597373
 20
23.022628639
 11
18.7246597373
 21
28.197701271
  0
LINE
  5
570
100
AcDbEntity
  8
DRAFT
100
AcDbLine
 62
7
  6
CONTINUOUS
 10
18.7333872698
 20
-2.0375
 11
18.7333872698
 21
1.7125
  0
LINE
  5
571
100
AcDbEntity
  8
RACCORDO
100
AcDbLine
 62
7
  6
CONTINUOUS
 10
18.7394965425
 20
-28.5375380762
 11
18.7394965425
 21
-23.3625
  0
LINE
  5
572
100
AcDbEntity
  8
DRAFT
100
AcDbLine
 62
7
  6
CONTINUOUS
 10
18.7394965425
 20
-16.9625
 11
18.7394965425
 21
16.6375
  0
LINE
  5
573
100
AcDbEntity
  8
RACCORDO
100
AcDbLine
 62
7
  6
CONTINUOUS
 10
18.7394965425
 20
23.0375
 11
18.7394965425
 21
28.2125380762
  0
LINE
  5
574
100
AcDbEntity
  8
RACCORDO
100
AcDbLine
 62
7
  6
CONTINUOUS
 10
18.9394965425
 20
21.7880707953
 11
18.9394965425
 21
20.4524186938
  0
LINE
  5
575
100
AcDbEntity
  8
RACCORDO
100
AcDbLine
 62
7
  6
CONTINUOUS
 10
18.9394965425
 20
19.2225813062
 11
18.9394965425
 21
17.8869292047
  0
LINE
  5
576
100
AcDbEntity
  8
RACCORDO
100
AcDbLine
 62
7
  6
CONTINUOUS
 10
18.9394965425
 20
-18.2119292047
 11
18.9394965425
 21
-19.5475813062
  0
LINE
  5
577
100
AcDbEntity
  8
RACCORDO
100
AcDbLine
 62
7
  6
CONTINUOUS
 10
18.9394965425
 20
-20.7774186938
 11
18.9394965425
 21
-22.1130707953
  0
LINE
  5
578
100
AcDbEntity
  8
DRAFT
100
AcDbLine
 62
7
  6
CONTINUOUS
 10
19.026985206
 20
20.5206604963
 11
19.026985206
 21
20.4273220828
  0
LINE
  5
579
100
AcDbEntity
  8
DRAFT
100
AcDbLine
 62
7
  6
CONTINUOUS
 10
19.026985206
 20
19.2476779173
 11
19.026985206
 21
19.1543395038
  0
LINE
  5
57A
100
AcDbEntity
  8
DRAFT
100
AcDbLine
 62
7
  6
CONTINUOUS
 10
19.026985206
 20
-20.8456604962
 11
19.026985206
 21
-20.7522632189
  0
LINE
  5
57B
100
AcDbEntity
  8
DRAFT
100
AcDbLine
 62
7
  6
CONTINUOUS
 10
19.026985206
 20
-19.5726183589
 11
19.026985206
 21
-19.4793395037
  0
LINE
  5
57C
100
AcDbEntity
  8
RACCORDO
100
AcDbLine
 62
7
  6
CONTINUOUS
 10
19.0882272705
 20
21.6393400673
 11
19.0882272705
 21
20.9418586245
  0
LINE
  5
57D
100
AcDbEntity
  8
RACCORDO
100
AcDbLine
 62
7
  6
CONTINUOUS
 10
19.0882272705
 20
18.7331413756
 11
19.0882272705
 21
18.0356599327
  0
LINE
  5
57E
100
AcDbEntity
  8
RACCORDO
100
AcDbLine
 62
7
  6
CONTINUOUS
 10
19.0882272705
 20
-18.3606599327
 11
19.0882272705
 21
-19.0581413755
  0
LINE
  5
57F
100
AcDbEntity
  8
RACCORDO
100
AcDbLine
 62
7
  6
CONTINUOUS
 10
19.0882272705
 20
-21.2668586244
 11
19.0882272705
 21
-21.9643400673
  0
LINE
  5
580
100
AcDbEntity
  8
RACCORDO
100
AcDbLine
 62
250
  6
CONTINUOUS
 10
15.4221556888
 20
-9.2287698076
 11
15.3965575544
 21
-9.2799816796
  0
LINE
  5
581
100
AcDbEntity
  8
RACCORDO
100
AcDbLine
 62
250
  6
CONTINUOUS
 10
15.6720414776
 20
-9.4787698308
 11
15.6465194782
 21
-9.5298293864
  0
LINE
  5
582
100
AcDbEntity
  8
DRAFT
100
AcDbLine
 62
7
  6
CONTINUOUS
 10
-13.4060131588
 20
17.5919902987
 11
-11.1149937562
 21
17.5919902987
  0
LINE
  5
583
100
AcDbEntity
  8
DRAFT
100
AcDbLine
 62
7
  6
CONTINUOUS
 10
11.8850062438
 20
17.5919902987
 11
9.5939868412
 21
17.5919902987
  0
LINE
  5
584
100
AcDbEntity
  8
DRAFT
100
AcDbLine
 62
7
  6
CONTINUOUS
 10
-13.3855034575
 20
17.6125
 11
-11.1355034575
 21
17.6125
  0
LINE
  5
585
100
AcDbEntity
  8
DRAFT
100
AcDbLine
 62
7
  6
CONTINUOUS
 10
11.8644965425
 20
17.6125
 11
9.6144965425
 21
17.6125
  0
LINE
  5
586
100
AcDbEntity
  8
RACCORDO
100
AcDbLine
 62
7
  6
CONTINUOUS
 10
0.2864205841
 20
17.6659564886
 11
-1.8074274991
 21
17.6659564886
  0
LINE
  5
587
100
AcDbEntity
  8
RACCORDO
100
AcDbLine
 62
7
  6
CONTINUOUS
 10
19.0889257472
 20
17.7375
 11
19.8900673378
 21
17.7375
  0
LINE
  5
588
100
AcDbEntity
  8
RACCORDO
100
AcDbLine
 62
7
  6
CONTINUOUS
 10
-1.7111899692
 20
17.7621940185
 11
0.1901830542
 21
17.7621940185
  0
LINE
  5
589
100
AcDbEntity
  8
RACCORDO
100
AcDbLine
 62
7
  6
CONTINUOUS
 10
19.2376564752
 20
17.886230728
 11
19.7413366098
 21
17.886230728
  0
LINE
  5
58A
100
AcDbEntity
  8
DRAFT
100
AcDbLine
 62
7
  6
CONTINUOUS
 10
-13.3855034575
 20
17.9625
 11
-11.1355034575
 21
17.9625
  0
LINE
  5
58B
100
AcDbEntity
  8
DRAFT
100
AcDbLine
 62
7
  6
CONTINUOUS
 10
11.8644965425
 20
17.9625
 11
9.6144965425
 21
17.9625
  0
LINE
  5
58C
100
AcDbEntity
  8
DRAFT
100
AcDbLine
 62
7
  6
CONTINUOUS
 10
0.2394965425
 20
18.5388294425
 11
-1.7605034575
 21
18.5388294425
  0
LINE
  5
58D
100
AcDbEntity
  8
DRAFT
100
AcDbLine
 62
7
  6
CONTINUOUS
 10
-19.1291544792
 20
18.9875
 11
-19.0043941848
 21
18.9875
  0
LINE
  5
58E
100
AcDbEntity
  8
0
100
AcDbLine
 62
7
  6
CONTINUOUS
 10
-19.1291544792
 20
18.9875
 11
-21.9354793389
 21
18.9875
  0
LINE
  5
58F
100
AcDbEntity
  8
DRAFT
100
AcDbLine
 62
7
  6
CONTINUOUS
 10
-13.4060131588
 20
19.1875
 11
-11.1149937562
 21
19.1875
  0
LINE
  5
590
100
AcDbEntity
  8
DRAFT
100
AcDbLine
 62
7
  6
CONTINUOUS
 10
11.8850062438
 20
19.1875
 11
9.5939868412
 21
19.1875
  0
LINE
  5
591
100
AcDbEntity
  8
DRAFT
100
AcDbLine
 62
7
  6
CONTINUOUS
 10
-16.1105034575
 20
19.475
 11
-14.0105034575
 21
19.475
  0
LINE
  5
592
100
AcDbEntity
  8
DRAFT
100
AcDbLine
 62
7
  6
CONTINUOUS
 10
-10.5105034575
 20
19.475
 11
-1.9070469689
 21
19.475
  0
LINE
  5
593
100
AcDbEntity
  8
DRAFT
100
AcDbLine
 62
7
  6
CONTINUOUS
 10
0.3860400539
 20
19.475
 11
8.9894965425
 21
19.475
  0
LINE
  5
594
100
AcDbEntity
  8
DRAFT
100
AcDbLine
 62
7
  6
CONTINUOUS
 10
12.4894965425
 20
19.475
 11
14.5894965425
 21
19.475
  0
LINE
  5
595
100
AcDbEntity
  8
DRAFT
100
AcDbLine
 62
7
  6
CONTINUOUS
 10
0.2394965425
 20
19.5334922889
 11
-1.7605034575
 21
19.5334922889
  0
LINE
  5
596
100
AcDbEntity
  8
DRAFT
100
AcDbLine
 62
7
  6
CONTINUOUS
 10
0.3860400539
 20
19.475
 11
0.2394965425
 21
19.5334922889
  0
LINE
  5
597
100
AcDbEntity
  8
RACCORDO
100
AcDbLine
 62
250
  6
CONTINUOUS
 10
-1.9070469689
 20
27.8594240416
 11
-1.810809439
 21
27.7631865117
  0
LINE
  5
598
100
AcDbEntity
  8
DRAFT
100
AcDbLine
 62
7
  6
CONTINUOUS
 10
9.6144965425
 20
16.525
 11
9.5939868412
 21
16.5455097013
  0
LINE
  5
599
100
AcDbEntity
  8
RACCORDO
100
AcDbLine
 62
250
  6
CONTINUOUS
 10
-1.8074274991
 20
27.9590435114
 11
-1.7111899692
 21
27.8628059816
  0
LINE
  5
59A
100
AcDbEntity
  8
DRAFT
100
AcDbLine
 62
7
  6
CONTINUOUS
 10
12.4894965425
 20
14.0125
 11
12.5327305103
 21
13.9692660322
  0
LINE
  5
59B
100
AcDbEntity
  8
DRAFT
100
AcDbLine
 62
7
  6
CONTINUOUS
 10
12.4894965425
 20
14.6625
 11
12.5327305103
 21
14.6192660322
  0
LINE
  5
59C
100
AcDbEntity
  8
RACCORDO
100
AcDbLine
 62
7
  6
CONTINUOUS
 10
11.8479353839
 20
18.5545014697
 11
11.8614943103
 21
18.5273753521
  0
LINE
  5
59D
100
AcDbEntity
  8
DRAFT
100
AcDbLine
 62
7
  6
CONTINUOUS
 10
14.6144965425
 20
27.3375
 11
14.4894965425
 21
28.4625
  0
LINE
  5
59E
100
AcDbEntity
  8
RACCORDO
100
AcDbLine
 62
7
  6
CONTINUOUS
 10
19.8907658145
 20
-21.9643400673
 11
19.8907658145
 21
-21.2668586244
  0
LINE
  5
59F
100
AcDbEntity
  8
RACCORDO
100
AcDbLine
 62
7
  6
CONTINUOUS
 10
19.8907658145
 20
-19.0581413755
 11
19.8907658145
 21
-18.3606599327
  0
LINE
  5
5A0
100
AcDbEntity
  8
RACCORDO
100
AcDbLine
 62
7
  6
CONTINUOUS
 10
19.8907658145
 20
18.0356599327
 11
19.8907658145
 21
18.7331413756
  0
LINE
  5
5A1
100
AcDbEntity
  8
RACCORDO
100
AcDbLine
 62
7
  6
CONTINUOUS
 10
19.8907658145
 20
20.9418586245
 11
19.8907658145
 21
21.6393400673
  0
LINE
  5
5A2
100
AcDbEntity
  8
DRAFT
100
AcDbLine
 62
7
  6
CONTINUOUS
 10
19.952007879
 20
20.5206604963
 11
19.952007879
 21
20.4273220828
  0
LINE
  5
5A3
100
AcDbEntity
  8
DRAFT
100
AcDbLine
 62
7
  6
CONTINUOUS
 10
19.952007879
 20
19.2476779173
 11
19.952007879
 21
19.1543395038
  0
LINE
  5
5A4
100
AcDbEntity
  8
DRAFT
100
AcDbLine
 62
7
  6
CONTINUOUS
 10
19.952007879
 20
-20.8456604962
 11
19.952007879
 21
-20.7523816411
  0
LINE
  5
5A5
100
AcDbEntity
  8
DRAFT
100
AcDbLine
 62
7
  6
CONTINUOUS
 10
19.952007879
 20
-19.5727367811
 11
19.952007879
 21
-19.4793395037
  0
LINE
  5
5A6
100
AcDbEntity
  8
RACCORDO
100
AcDbLine
 62
7
  6
CONTINUOUS
 10
20.0394965425
 20
-22.1130707953
 11
20.0394965425
 21
-20.7774186938
  0
LINE
  5
5A7
100
AcDbEntity
  8
RACCORDO
100
AcDbLine
 62
7
  6
CONTINUOUS
 10
20.0394965425
 20
-19.5475813062
 11
20.0394965425
 21
-18.2119292047
  0
LINE
  5
5A8
100
AcDbEntity
  8
RACCORDO
100
AcDbLine
 62
7
  6
CONTINUOUS
 10
20.0394965425
 20
17.8869292047
 11
20.0394965425
 21
19.2225813062
  0
LINE
  5
5A9
100
AcDbEntity
  8
RACCORDO
100
AcDbLine
 62
7
  6
CONTINUOUS
 10
20.0394965425
 20
20.4524186938
 11
20.0394965425
 21
21.7880707953
  0
LINE
  5
5AA
100
AcDbEntity
  8
DRAFT
100
AcDbLine
 62
7
  6
CONTINUOUS
 10
8.9894965425
 20
20.125
 11
12.4894965425
 21
20.125
  0
LINE
  5
5AB
100
AcDbEntity
  8
DRAFT
100
AcDbLine
 62
7
  6
CONTINUOUS
 10
-10.5105034575
 20
20.125
 11
-14.0105034575
 21
20.125
  0
LINE
  5
5AC
100
AcDbEntity
  8
0
100
AcDbLine
 62
7
  6
CONTINUOUS
 10
12.6144965425
 20
21.3125
 11
11.3644965425
 21
21.3125
  0
LINE
  5
5AD
100
AcDbEntity
  8
0
100
AcDbLine
 62
7
  6
CONTINUOUS
 10
-12.8855034575
 20
21.3125
 11
-14.1355034575
 21
21.3125
  0
LINE
  5
5AE
100
AcDbEntity
  8
RACCORDO
100
AcDbLine
 62
7
  6
CONTINUOUS
 10
19.7413366098
 20
21.788769272
 11
19.2376564752
 21
21.788769272
  0
LINE
  5
5AF
100
AcDbEntity
  8
DRAFT
100
AcDbLine
 62
7
  6
CONTINUOUS
 10
-16.8855034575
 20
21.8125
 11
-16.0878049573
 21
21.8125
  0
LINE
  5
5B0
100
AcDbEntity
  8
DRAFT
100
AcDbLine
 62
7
  6
CONTINUOUS
 10
14.5667980423
 20
21.8125
 11
15.3644965425
 21
21.8125
  0
LINE
  5
5B1
100
AcDbEntity
  8
RACCORDO
100
AcDbLine
 62
7
  6
CONTINUOUS
 10
19.8900673378
 20
21.9375
 11
19.0889257472
 21
21.9375
  0
LINE
  5
5B2
100
AcDbEntity
  8
DRAFT
100
AcDbLine
 62
7
  6
CONTINUOUS
 10
8.9894965425
 20
19.475
 11
8.9387141972
 21
19.5257823453
  0
LINE
  5
5B3
100
AcDbEntity
  8
DRAFT
100
AcDbLine
 62
7
  6
CONTINUOUS
 10
8.9894965425
 20
20.125
 11
8.9387141972
 21
20.1757823453
  0
LINE
  5
5B4
100
AcDbEntity
  8
DRAFT
100
AcDbLine
 62
7
  6
CONTINUOUS
 10
11.8850062438
 20
17.5919902987
 11
11.8644965425
 21
17.6125
  0
LINE
  5
5B5
100
AcDbEntity
  8
RACCORDO
100
AcDbLine
 62
7
  6
CONTINUOUS
 10
9.6336829701
 20
27.0652463922
 11
9.6174987747
 21
27.0976246479
  0
LINE
  5
5B6
100
AcDbEntity
  8
DRAFT
100
AcDbLine
 62
7
  6
CONTINUOUS
 10
15.3644965425
 20
23.8125
 11
14.5667980423
 21
23.8125
  0
LINE
  5
5B7
100
AcDbEntity
  8
DRAFT
100
AcDbLine
 62
7
  6
CONTINUOUS
 10
-16.0878049573
 20
23.8125
 11
-16.8855034575
 21
23.8125
  0
LINE
  5
5B8
100
AcDbEntity
  8
0
100
AcDbLine
 62
7
  6
CONTINUOUS
 10
12.6144965425
 20
24.3125
 11
11.3644965425
 21
24.3125
  0
LINE
  5
5B9
100
AcDbEntity
  8
0
100
AcDbLine
 62
7
  6
CONTINUOUS
 10
-12.8855034575
 20
24.3125
 11
-14.1355034575
 21
24.3125
  0
LINE
  5
5BA
100
AcDbEntity
  8
DRAFT
100
AcDbLine
 62
7
  6
CONTINUOUS
 10
18.0949021685
 20
24.357094374
 11
17.1144965425
 21
24.357094374
  0
LINE
  5
5BB
100
AcDbEntity
  8
DRAFT
100
AcDbLine
 62
7
  6
CONTINUOUS
 10
17.1144965425
 20
24.4484459166
 11
16.6144965425
 21
24.4484459166
  0
LINE
  5
5BC
100
AcDbEntity
  8
DRAFT
100
AcDbLine
 62
7
  6
CONTINUOUS
 10
16.6144965425
 20
24.4625
 11
17.9894965425
 21
24.4625
  0
LINE
  5
5BD
100
AcDbEntity
  8
DRAFT
100
AcDbLine
 62
7
  6
CONTINUOUS
 10
-1.8501793376
 20
26.1273014999
 11
-1.7605034575
 21
26.0915077111
  0
LINE
  5
5BE
100
AcDbEntity
  8
DRAFT
100
AcDbLine
 62
7
  6
CONTINUOUS
 10
-1.810809439
 20
27.10625
 11
-1.7605034575
 21
27.0861705576
  0
LINE
  5
5BF
100
AcDbEntity
  8
DRAFT
100
AcDbLine
 62
7
  6
CONTINUOUS
 10
3.7394965425
 20
28.4625
 11
3.7456058152
 21
28.4563907273
  0
LINE
  5
5C0
100
AcDbEntity
  8
DRAFT
100
AcDbLine
 62
7
  6
CONTINUOUS
 10
6.9121950427
 20
25.9773014999
 11
6.9434482283
 21
25.9460483142
  0
LINE
  5
5C1
100
AcDbEntity
  8
DRAFT
100
AcDbLine
 62
7
  6
CONTINUOUS
 10
6.9121950427
 20
26.1273014999
 11
6.9434482283
 21
26.0960483142
  0
LINE
  5
5C2
100
AcDbEntity
  8
DRAFT
100
AcDbLine
 62
7
  6
CONTINUOUS
 10
14.5894965425
 20
19.475
 11
14.5515427452
 21
19.5129537973
  0
LINE
  5
5C3
100
AcDbEntity
  8
RACCORDO
100
AcDbLine
 62
250
  6
CONTINUOUS
 10
15.6465194782
 20
-24.5298293864
 11
15.6676777113
 21
-24.4875000232
  0
LINE
  5
5C4
100
AcDbEntity
  8
RACCORDO
100
AcDbLine
 62
250
  6
CONTINUOUS
 10
15.6465194782
 20
-27.0298293864
 11
15.6676777113
 21
-26.9875000232
  0
LINE
  5
5C5
100
AcDbEntity
  8
RACCORDO
100
AcDbLine
 62
250
  6
CONTINUOUS
 10
19.8900673378
 20
-18.0625
 11
19.7413366098
 21
-18.211230728
  0
LINE
  5
5C6
100
AcDbEntity
  8
RACCORDO
100
AcDbLine
 62
250
  6
CONTINUOUS
 10
20.0394965425
 20
-18.2119292047
 11
19.8907658145
 21
-18.3606599327
  0
LINE
  5
5C7
100
AcDbEntity
  8
DRAFT
100
AcDbLine
 62
7
  6
CONTINUOUS
 10
17.9894965425
 20
25.2125
 11
16.6144965425
 21
25.2125
  0
LINE
  5
5C8
100
AcDbEntity
  8
DRAFT
100
AcDbLine
 62
7
  6
CONTINUOUS
 10
17.1144965425
 20
25.2265540835
 11
16.6144965425
 21
25.2265540835
  0
LINE
  5
5C9
100
AcDbEntity
  8
DRAFT
100
AcDbLine
 62
7
  6
CONTINUOUS
 10
18.0949021685
 20
25.3179056261
 11
17.1144965425
 21
25.3179056261
  0
LINE
  5
5CA
100
AcDbEntity
  8
DRAFT
100
AcDbLine
 62
7
  6
CONTINUOUS
 10
14.5667980423
 20
25.3375
 11
15.3644965425
 21
25.3375
  0
LINE
  5
5CB
100
AcDbEntity
  8
DRAFT
100
AcDbLine
 62
7
  6
CONTINUOUS
 10
-16.0878049573
 20
25.3375
 11
-16.8855034575
 21
25.3375
  0
LINE
  5
5CC
100
AcDbEntity
  8
DRAFT
100
AcDbLine
 62
7
  6
CONTINUOUS
 10
-19.0043941848
 20
25.357094374
 11
-18.6355034575
 21
25.357094374
  0
LINE
  5
5CD
100
AcDbEntity
  8
DRAFT
100
AcDbLine
 62
7
  6
CONTINUOUS
 10
-18.6355034575
 20
25.4484459166
 11
-18.121449374
 21
25.4484459166
  0
LINE
  5
5CE
100
AcDbEntity
  8
DRAFT
100
AcDbLine
 62
7
  6
CONTINUOUS
 10
-18.1355034575
 20
25.4625
 11
-19.0035214315
 21
25.4625
  0
LINE
  5
5CF
100
AcDbEntity
  8
DRAFT
100
AcDbLine
 62
7
  6
CONTINUOUS
 10
8.9667980423
 20
25.4773014999
 11
12.5121950427
 21
25.4773014999
  0
LINE
  5
5D0
100
AcDbEntity
  8
DRAFT
100
AcDbLine
 62
7
  6
CONTINUOUS
 10
-10.4878049573
 20
25.4773014999
 11
-14.0332019577
 21
25.4773014999
  0
LINE
  5
5D1
100
AcDbEntity
  8
DRAFT
100
AcDbLine
 62
7
  6
CONTINUOUS
 10
-8.4332019577
 20
25.9773014999
 11
-5.0878049573
 21
25.9773014999
  0
LINE
  5
5D2
100
AcDbEntity
  8
DRAFT
100
AcDbLine
 62
7
  6
CONTINUOUS
 10
3.5667980423
 20
25.9773014999
 11
6.9121950427
 21
25.9773014999
  0
LINE
  5
5D3
100
AcDbEntity
  8
DRAFT
100
AcDbLine
 62
7
  6
CONTINUOUS
 10
0.2394965425
 20
26.0915077111
 11
-1.7605034575
 21
26.0915077111
  0
LINE
  5
5D4
100
AcDbEntity
  8
DRAFT
100
AcDbLine
 62
7
  6
CONTINUOUS
 10
-16.0878049573
 20
26.1273014999
 11
-14.0332019577
 21
26.1273014999
  0
LINE
  5
5D5
100
AcDbEntity
  8
DRAFT
100
AcDbLine
 62
7
  6
CONTINUOUS
 10
-10.4878049573
 20
26.1273014999
 11
-8.4332019577
 21
26.1273014999
  0
LINE
  5
5D6
100
AcDbEntity
  8
DRAFT
100
AcDbLine
 62
7
  6
CONTINUOUS
 10
-5.0878049573
 20
26.1273014999
 11
-1.8501793376
 21
26.1273014999
  0
LINE
  5
5D7
100
AcDbEntity
  8
DRAFT
100
AcDbLine
 62
7
  6
CONTINUOUS
 10
0.3291724226
 20
26.1273014999
 11
3.5667980423
 21
26.1273014999
  0
LINE
  5
5D8
100
AcDbEntity
  8
DRAFT
100
AcDbLine
 62
7
  6
CONTINUOUS
 10
6.9121950427
 20
26.1273014999
 11
8.9667980423
 21
26.1273014999
  0
LINE
  5
5D9
100
AcDbEntity
  8
DRAFT
100
AcDbLine
 62
7
  6
CONTINUOUS
 10
12.5121950427
 20
26.1273014999
 11
14.5667980423
 21
26.1273014999
  0
LINE
  5
5DA
100
AcDbEntity
  8
DRAFT
100
AcDbLine
 62
7
  6
CONTINUOUS
 10
-19.0035214315
 20
26.2125
 11
-18.1355034575
 21
26.2125
  0
LINE
  5
5DB
100
AcDbEntity
  8
DRAFT
100
AcDbLine
 62
7
  6
CONTINUOUS
 10
-18.6355034575
 20
26.2265540835
 11
-18.121449374
 21
26.2265540835
  0
LINE
  5
5DC
100
AcDbEntity
  8
DRAFT
100
AcDbLine
 62
7
  6
CONTINUOUS
 10
-19.0043941848
 20
26.3179056261
 11
-18.6355034575
 21
26.3179056261
  0
LINE
  5
5DD
100
AcDbEntity
  8
DRAFT
100
AcDbLine
 62
7
  6
CONTINUOUS
 10
-13.3946673666
 20
26.4375
 11
-11.1263395484
 21
26.4375
  0
LINE
  5
5DE
100
AcDbEntity
  8
DRAFT
100
AcDbLine
 62
7
  6
CONTINUOUS
 10
11.8736604516
 20
26.4375
 11
9.6053326334
 21
26.4375
  0
LINE
  5
5DF
100
AcDbEntity
  8
DRAFT
100
AcDbLine
 62
7
  6
CONTINUOUS
 10
6.744733062
 20
27.0010134805
 11
3.734260023
 21
27.0010134805
  0
LINE
  5
5E0
100
AcDbEntity
  8
DRAFT
100
AcDbLine
 62
7
  6
CONTINUOUS
 10
-5.255266938
 20
27.0010134805
 11
-8.265739977
 21
27.0010134805
  0
LINE
  5
5E1
100
AcDbEntity
  8
DRAFT
100
AcDbLine
 62
7
  6
CONTINUOUS
 10
9.6144965425
 20
28.0125
 11
9.5939868412
 21
28.0330097013
  0
LINE
  5
5E2
100
AcDbEntity
  8
RACCORDO
100
AcDbLine
 62
250
  6
CONTINUOUS
 10
19.8900673378
 20
17.7375
 11
19.7413366098
 21
17.886230728
  0
LINE
  5
5E3
100
AcDbEntity
  8
RACCORDO
100
AcDbLine
 62
250
  6
CONTINUOUS
 10
20.0394965425
 20
17.8869292047
 11
19.8907658145
 21
18.0356599327
  0
LINE
  5
5E4
100
AcDbEntity
  8
DRAFT
100
AcDbLine
 62
7
  6
CONTINUOUS
 10
12.5121950427
 20
25.4773014999
 11
12.5327305103
 21
25.4567660322
  0
LINE
  5
5E5
100
AcDbEntity
  8
RACCORDO
100
AcDbLine
 62
250
  6
CONTINUOUS
 10
18.9394965425
 20
-22.1130707953
 11
19.0882272705
 21
-21.9643400673
  0
LINE
  5
5E6
100
AcDbEntity
  8
RACCORDO
100
AcDbLine
 62
250
  6
CONTINUOUS
 10
19.0889257472
 20
-22.2625
 11
19.2376564752
 21
-22.113769272
  0
LINE
  5
5E7
100
AcDbEntity
  8
DRAFT
100
AcDbLine
 62
7
  6
CONTINUOUS
 10
0.2394965425
 20
27.0861705576
 11
-1.7605034575
 21
27.0861705576
  0
LINE
  5
5E8
100
AcDbEntity
  8
0
100
AcDbLine
 62
7
  6
CONTINUOUS
 10
17.1144965425
 20
27.3375
 11
13.8644965425
 21
27.3375
  0
LINE
  5
5E9
100
AcDbEntity
  8
DRAFT
100
AcDbLine
 62
7
  6
CONTINUOUS
 10
9.6053326334
 20
27.3375
 11
6.7333872698
 21
27.3375
  0
LINE
  5
5EA
100
AcDbEntity
  8
DRAFT
100
AcDbLine
 62
7
  6
CONTINUOUS
 10
0.3291724226
 20
27.3375
 11
3.7456058152
 21
27.3375
  0
LINE
  5
5EB
100
AcDbEntity
  8
DRAFT
100
AcDbLine
 62
7
  6
CONTINUOUS
 10
-1.8501793376
 20
27.3375
 11
-5.2666127302
 21
27.3375
  0
LINE
  5
5EC
100
AcDbEntity
  8
DRAFT
100
AcDbLine
 62
7
  6
CONTINUOUS
 10
-8.2543941848
 20
27.3375
 11
-11.1263395484
 21
27.3375
  0
LINE
  5
5ED
100
AcDbEntity
  8
DRAFT
100
AcDbLine
 62
7
  6
CONTINUOUS
 10
11.8736604516
 20
27.3375
 11
13.8644965425
 21
27.3375
  0
LINE
  5
5EE
100
AcDbEntity
  8
DRAFT
100
AcDbLine
 62
7
  6
CONTINUOUS
 10
-13.3946673666
 20
27.3375
 11
-15.3855034575
 21
27.3375
  0
LINE
  5
5EF
100
AcDbEntity
  8
0
100
AcDbLine
 62
7
  6
CONTINUOUS
 10
-15.3855034575
 20
27.3375
 11
-18.6355034575
 21
27.3375
  0
LINE
  5
5F0
100
AcDbEntity
  8
DRAFT
100
AcDbLine
 62
7
  6
CONTINUOUS
 10
-13.3855034575
 20
27.6625
 11
-11.1355034575
 21
27.6625
  0
LINE
  5
5F1
100
AcDbEntity
  8
DRAFT
100
AcDbLine
 62
7
  6
CONTINUOUS
 10
11.8644965425
 20
27.6625
 11
9.6144965425
 21
27.6625
  0
LINE
  5
5F2
100
AcDbEntity
  8
RACCORDO
100
AcDbLine
 62
7
  6
CONTINUOUS
 10
0.1901830542
 20
27.8628059816
 11
-1.7111899692
 21
27.8628059816
  0
LINE
  5
5F3
100
AcDbEntity
  8
DRAFT
100
AcDbLine
 62
7
  6
CONTINUOUS
 10
-1.0698454043
 20
27.9284224792
 11
-0.4511615108
 21
27.9284224792
  0
LINE
  5
5F4
100
AcDbEntity
  8
RACCORDO
100
AcDbLine
 62
7
  6
CONTINUOUS
 10
0.2864205841
 20
27.9590435114
 11
-0.4545638477
 21
27.9590435114
  0
LINE
  5
5F5
100
AcDbEntity
  8
RACCORDO
100
AcDbLine
 62
7
  6
CONTINUOUS
 10
-1.0664430674
 20
27.9590435114
 11
-1.8074274991
 21
27.9590435114
  0
LINE
  5
5F6
100
AcDbEntity
  8
DRAFT
100
AcDbLine
 62
7
  6
CONTINUOUS
 10
-13.3855034575
 20
28.0125
 11
-11.1355034575
 21
28.0125
  0
LINE
  5
5F7
100
AcDbEntity
  8
DRAFT
100
AcDbLine
 62
7
  6
CONTINUOUS
 10
11.8644965425
 20
28.0125
 11
9.6144965425
 21
28.0125
  0
LINE
  5
5F8
100
AcDbEntity
  8
DRAFT
100
AcDbLine
 62
7
  6
CONTINUOUS
 10
-13.4060131588
 20
28.0330097013
 11
-11.1149937562
 21
28.0330097013
  0
LINE
  5
5F9
100
AcDbEntity
  8
DRAFT
100
AcDbLine
 62
7
  6
CONTINUOUS
 10
11.8850062438
 20
28.0330097013
 11
9.5939868412
 21
28.0330097013
  0
LINE
  5
5FA
100
AcDbEntity
  8
RACCORDO
100
AcDbLine
 62
7
  6
CONTINUOUS
 10
18.1894965425
 20
28.4476631948
 11
18.4746978135
 21
28.4476631948
  0
LINE
  5
5FB
100
AcDbEntity
  8
RACCORDO
100
AcDbLine
 62
7
  6
CONTINUOUS
 10
-18.754432261
 20
28.4563907273
 11
-16.0111822656
 21
28.4563907273
  0
LINE
  5
5FC
100
AcDbEntity
  8
DRAFT
100
AcDbLine
 62
7
  6
CONTINUOUS
 10
-15.5098246494
 20
28.4563907273
 11
-8.2543941848
 21
28.4563907273
  0
LINE
  5
5FD
100
AcDbEntity
  8
DRAFT
100
AcDbLine
 62
7
  6
CONTINUOUS
 10
-5.2666127302
 20
28.4563907273
 11
-1.0111822656
 21
28.4563907273
  0
LINE
  5
5FE
100
AcDbEntity
  8
DRAFT
100
AcDbLine
 62
7
  6
CONTINUOUS
 10
-0.5098246494
 20
28.4563907273
 11
3.7456058152
 21
28.4563907273
  0
LINE
  5
5FF
100
AcDbEntity
  8
DRAFT
100
AcDbLine
 62
7
  6
CONTINUOUS
 10
6.7333872698
 20
28.4563907273
 11
13.9888177344
 21
28.4563907273
  0
LINE
  5
600
100
AcDbEntity
  8
DRAFT
100
AcDbLine
 62
7
  6
CONTINUOUS
 10
14.4901753506
 20
28.4563907273
 11
18.1894965425
 21
28.4563907273
  0
LINE
  5
601
100
AcDbEntity
  8
RACCORDO
100
AcDbLine
 62
7
  6
CONTINUOUS
 10
-18.7605415337
 20
28.4625
 11
-16.0105034575
 21
28.4625
  0
LINE
  5
602
100
AcDbEntity
  8
DRAFT
100
AcDbLine
 62
7
  6
CONTINUOUS
 10
3.7394965425
 20
28.4625
 11
-5.2605034575
 21
28.4625
  0
LINE
  5
603
100
AcDbEntity
  8
DRAFT
100
AcDbLine
 62
7
  6
CONTINUOUS
 10
6.7394965425
 20
28.4625
 11
14.4894965425
 21
28.4625
  0
LINE
  5
604
100
AcDbEntity
  8
DRAFT
100
AcDbLine
 62
7
  6
CONTINUOUS
 10
-8.2605034575
 20
28.4625
 11
-16.0105034575
 21
28.4625
  0
LINE
  5
605
100
AcDbEntity
  8
RACCORDO
100
AcDbLine
 62
7
  6
CONTINUOUS
 10
14.4894965425
 20
28.4625
 11
18.4895346187
 21
28.4625
  0
LINE
  5
606
100
AcDbEntity
  8
DRAFT
100
AcDbLine
 62
7
  6
CONTINUOUS
 10
12.5121950427
 20
26.1273014999
 11
12.5327305103
 21
26.1067660322
  0
LINE
  5
607
100
AcDbEntity
  8
RACCORDO
100
AcDbLine
 62
250
  6
CONTINUOUS
 10
18.9394965425
 20
21.7880707953
 11
19.0882272705
 21
21.6393400673
  0
LINE
  5
608
100
AcDbEntity
  8
RACCORDO
100
AcDbLine
 62
250
  6
CONTINUOUS
 10
19.0889257472
 20
21.9375
 11
19.2376564752
 21
21.788769272
  0
LINE
  5
609
100
AcDbEntity
  8
DRAFT
100
AcDbLine
 62
7
  6
CONTINUOUS
 10
17.9894965425
 20
-24.7875
 11
18.0949021685
 21
-24.6820943739
  0
LINE
  5
60A
100
AcDbEntity
  8
DRAFT
100
AcDbLine
 62
7
  6
CONTINUOUS
 10
17.9894965425
 20
24.4625
 11
18.0949021685
 21
24.357094374
  0
ARC
  5
60B
100
AcDbEntity
  8
RACCORDO
100
AcDbCircle
 62
250
  6
CONTINUOUS
 10
-16.9175577466
 20
-27.6694892235
 40
0.2499686569
100
AcDbArc
 50
180.0164547557
 51
209.2810500867
  0
ARC
  5
60C
100
AcDbEntity
  8
RACCORDO
100
AcDbCircle
 62
7
  6
CONTINUOUS
 10
-19.2605539578
 20
-28.5375505003
 40
0.2499495
100
AcDbArc
 50
179.9971520285
 51
270.0028479715
  0
ARC
  5
60D
100
AcDbEntity
  8
RACCORDO
100
AcDbCircle
 62
250
  6
CONTINUOUS
 10
-16.9176906435
 20
-27.0299886549
 40
0.2498358005
100
AcDbArc
 50
150.711496993
 51
179.9634743455
  0
ARC
  5
60E
100
AcDbEntity
  8
RACCORDO
100
AcDbCircle
 62
250
  6
CONTINUOUS
 10
-16.9176906435
 20
-26.095011345
 40
0.2498358005
100
AcDbArc
 50
180.0365256547
 51
209.2885029936
  0
ARC
  5
60F
100
AcDbEntity
  8
RACCORDO
100
AcDbCircle
 62
250
  6
CONTINUOUS
 10
-16.9176906435
 20
-24.5299886549
 40
0.2498358005
100
AcDbArc
 50
150.7114970064
 51
179.9634743453
  0
ARC
  5
610
100
AcDbEntity
  8
RACCORDO
100
AcDbCircle
 62
250
  6
CONTINUOUS
 10
-15.703826743
 20
-21.1042523403
 40
0.2504673008
100
AcDbArc
 50
283.7436742729
 51
325.9989512491
  0
ARC
  5
611
100
AcDbEntity
  8
RACCORDO
100
AcDbCircle
 62
7
  6
CONTINUOUS
 10
-16.0289606984
 20
-22.0233852002
 40
0.2504471774
100
AcDbArc
 50
359.9719231257
 51
88.6266438009
  0
ARC
  5
612
100
AcDbEntity
  8
RACCORDO
100
AcDbCircle
 62
250
  6
CONTINUOUS
 10
-16.0327537769
 20
-22.0320917398
 40
0.2500872253
100
AcDbArc
 50
0.0556802422
 51
89.9723226532
  0
ARC
  5
613
100
AcDbEntity
  8
RACCORDO
100
AcDbCircle
 62
7
  6
CONTINUOUS
 10
-15.7055326849
 20
-21.1375048405
 40
0.2499951618
100
AcDbArc
 50
270.0078737805
 51
326.8669124051
  0
ARC
  5
614
100
AcDbEntity
  8
RACCORDO
100
AcDbCircle
 62
7
  6
CONTINUOUS
 10
-16.0022202223
 20
-21.9874015035
 40
0.2499054802
100
AcDbArc
 50
354.6207086689
 51
89.9930553077
  0
ARC
  5
615
100
AcDbEntity
  8
RACCORDO
100
AcDbCircle
 62
250
  6
CONTINUOUS
 10
-16.9176906435
 20
-22.0299886549
 40
0.2498358005
100
AcDbArc
 50
150.7114970064
 51
179.9634743453
  0
ARC
  5
616
100
AcDbEntity
  8
RACCORDO
100
AcDbCircle
 62
250
  6
CONTINUOUS
 10
-16.9176906435
 20
-23.595011345
 40
0.2498358005
100
AcDbArc
 50
180.0365256547
 51
209.2885029936
  0
ARC
  5
617
100
AcDbEntity
  8
RACCORDO
100
AcDbCircle
 62
250
  6
CONTINUOUS
 10
-15.70289458
 20
-21.1076671919
 40
0.2469287782
100
AcDbArc
 50
269.8826288337
 51
283.7218218584
  0
ARC
  5
618
100
AcDbEntity
  8
RACCORDO
100
AcDbCircle
 62
250
  6
CONTINUOUS
 10
-15.7100955464
 20
-21.1041927358
 40
0.1506079576
100
AcDbArc
 50
283.8089593938
 51
326.0106700093
  0
ARC
  5
619
100
AcDbEntity
  8
RACCORDO
100
AcDbCircle
 62
250
  6
CONTINUOUS
 10
-15.8854493101
 20
-21.237567194
 40
0.1000403298
100
AcDbArc
 50
270.0305619517
 51
359.941481123
  0
ARC
  5
61A
100
AcDbEntity
  8
RACCORDO
100
AcDbCircle
 62
250
  6
CONTINUOUS
 10
-15.8803650967
 20
-21.2477385348
 40
0.1000402825
100
AcDbArc
 50
270.0305022504
 51
359.9414946018
  0
ARC
  5
61B
100
AcDbEntity
  8
RACCORDO
100
AcDbCircle
 62
7
  6
CONTINUOUS
 10
-14.5366143949
 20
-23.9940505949
 40
0.2499580171
100
AcDbArc
 50
42.4650963072
 51
77.6475206539
  0
ARC
  5
61C
100
AcDbEntity
  8
RACCORDO
100
AcDbCircle
 62
7
  6
CONTINUOUS
 10
-14.5171993258
 20
-23.6376317783
 40
0.2498682217
100
AcDbArc
 50
269.9993576034
 51
311.3191425705
  0
ARC
  5
61D
100
AcDbEntity
  8
RACCORDO
100
AcDbCircle
 62
250
  6
CONTINUOUS
 10
-14.9784773585
 20
-22.7174047577
 40
2.47294378
100
AcDbArc
 50
74.3290175982
 51
75.179396682
  0
ARC
  5
61E
100
AcDbEntity
  8
RACCORDO
100
AcDbCircle
 62
250
  6
CONTINUOUS
 10
-14.4661035548
 20
-23.3303148173
 40
2.3532354838
100
AcDbArc
 50
33.0371151072
 51
34.1049683603
  0
ARC
  5
61F
100
AcDbEntity
  8
RACCORDO
100
AcDbCircle
 62
250
  6
CONTINUOUS
 10
-15.2140862135
 20
-22.6133040979
 40
2.1539722154
100
AcDbArc
 50
70.7472547674
 51
71.6187183391
  0
ARC
  5
620
100
AcDbEntity
  8
RACCORDO
100
AcDbCircle
 62
250
  6
CONTINUOUS
 10
-14.655085951
 20
-21.5042076414
 40
2.0928340213
100
AcDbArc
 50
3.1967780771
 51
4.263964665
  0
CIRCLE
  5
621
100
AcDbEntity
  8
ASSI
100
AcDbCircle
 62
7
  6
CONTINUOUS
 10
-14.1355034575
 20
-22.1625
 40
2.0
  0
ARC
  5
622
100
AcDbEntity
  8
RACCORDO
100
AcDbCircle
 62
250
  6
CONTINUOUS
 10
-14.1501685776
 20
-22.1622901984
 40
1.89831427
100
AcDbArc
 50
180.0063323493
 51
228.8516780118
  0
ARC
  5
623
100
AcDbEntity
  8
RACCORDO
100
AcDbCircle
 62
250
  6
CONTINUOUS
 10
-14.1448938737
 20
-22.1622906942
 40
1.8983092189
100
AcDbArc
 50
311.3707646676
 51
359.9936825974
  0
ARC
  5
624
100
AcDbEntity
  8
RACCORDO
100
AcDbCircle
 62
250
  6
CONTINUOUS
 10
-14.587689077
 20
-21.2594406086
 40
1.8129277587
100
AcDbArc
 50
359.5351632483
 51
0.6385198592
  0
ARC
  5
625
100
AcDbEntity
  8
RACCORDO
100
AcDbCircle
 62
250
  6
CONTINUOUS
 10
-14.13919494
 20
-22.1631944263
 40
1.7436284039
100
AcDbArc
 50
34.2013234313
 51
75.9429659094
  0
ARC
  5
626
100
AcDbEntity
  8
RACCORDO
100
AcDbCircle
 62
250
  6
CONTINUOUS
 10
-14.1395416071
 20
-22.163191093
 40
1.7436246568
100
AcDbArc
 50
104.119752081
 51
146.008712632
  0
ARC
  5
627
100
AcDbEntity
  8
RACCORDO
100
AcDbCircle
 62
250
  6
CONTINUOUS
 10
-14.1337696894
 20
-22.162539734
 40
1.6491182473
100
AcDbArc
 50
281.9615833053
 51
0.0013804919
  0
ARC
  5
628
100
AcDbEntity
  8
RACCORDO
100
AcDbCircle
 62
250
  6
CONTINUOUS
 10
-14.1335610406
 20
-22.162546562
 40
1.6491100041
100
AcDbArc
 50
179.9983822733
 51
257.873375822
  0
ARC
  5
629
100
AcDbEntity
  8
RACCORDO
100
AcDbCircle
 62
7
  6
CONTINUOUS
 10
-14.1331578258
 20
-22.1625203215
 40
1.6453441016
100
AcDbArc
 50
175.7948196059
 51
179.9992923425
  0
ARC
  5
62A
100
AcDbEntity
  8
RACCORDO
100
AcDbCircle
 62
7
  6
CONTINUOUS
 10
-14.1346057024
 20
-22.1625176612
 40
1.6452949543
100
AcDbArc
 50
0.0006150349
 51
4.0130895013
  0
ARC
  5
62B
100
AcDbEntity
  8
RACCORDO
100
AcDbCircle
 62
250
  6
CONTINUOUS
 10
-14.1337396088
 20
-22.1624325575
 40
1.6429209483
100
AcDbArc
 50
104.1314615061
 51
146.0249355272
  0
ARC
  5
62C
100
AcDbEntity
  8
RACCORDO
100
AcDbCircle
 62
250
  6
CONTINUOUS
 10
-14.1338801628
 20
-22.1624317637
 40
1.6429199983
100
AcDbArc
 50
34.1888891747
 51
75.9378751082
  0
ARC
  5
62D
100
AcDbEntity
  8
RACCORDO
100
AcDbCircle
 62
7
  6
CONTINUOUS
 10
-14.1355034575
 20
-22.1625
 40
1.625
100
AcDbArc
 50
146.8606079852
 51
174.6444910256
  0
ARC
  5
62E
100
AcDbEntity
  8
RACCORDO
100
AcDbCircle
 62
7
  6
CONTINUOUS
 10
-14.1355034575
 20
-22.1625
 40
1.625
100
AcDbArc
 50
257.6471542558
 51
282.3528453972
  0
ARC
  5
62F
100
AcDbEntity
  8
RACCORDO
100
AcDbCircle
 62
7
  6
CONTINUOUS
 10
-14.1355034575
 20
-22.1625
 40
1.625
100
AcDbArc
 50
5.3555089737
 51
33.1393920163
  0
ARC
  5
630
100
AcDbEntity
  8
RACCORDO
100
AcDbCircle
 62
7
  6
CONTINUOUS
 10
-14.1355034575
 20
-22.1625
 40
1.625
100
AcDbArc
 50
76.8988249529
 51
103.1011750478
  0
CIRCLE
  5
631
100
AcDbEntity
  8
DRAFT
100
AcDbCircle
 62
7
  6
CONTINUOUS
 10
-14.1355034575
 20
-22.1625
 40
1.5970718961
  0
CIRCLE
  5
632
100
AcDbEntity
  8
0
100
AcDbCircle
 62
7
  6
CONTINUOUS
 10
-14.1355034575
 20
-22.1625
 40
1.375
  0
CIRCLE
  5
633
100
AcDbEntity
  8
RACCORDO
100
AcDbCircle
 62
250
  6
CONTINUOUS
 10
-14.1355034575
 20
-22.1625
 40
1.2603553391
  0
CIRCLE
  5
634
100
AcDbEntity
  8
RACCORDO
100
AcDbCircle
 62
250
  6
CONTINUOUS
 10
-14.1355034575
 20
-22.1625
 40
1.1896446609
  0
CIRCLE
  5
635
100
AcDbEntity
  8
0
100
AcDbCircle
 62
7
  6
CONTINUOUS
 10
-14.1355034575
 20
-22.1625
 40
1.075
  0
CIRCLE
  5
636
100
AcDbEntity
  8
DRAFT
100
AcDbCircle
 62
7
  6
CONTINUOUS
 10
-14.1347055162
 20
-22.1625233534
 40
0.8900753782
  0
CIRCLE
  5
637
100
AcDbEntity
  8
DRAFT
100
AcDbCircle
 62
7
  6
CONTINUOUS
 10
-14.1355034575
 20
-22.1625424836
 40
0.8249953061
  0
ARC
  5
638
100
AcDbEntity
  8
RACCORDO
100
AcDbCircle
 62
7
  6
CONTINUOUS
 10
-14.4640996665
 20
-23.4160460982
 40
0.3919256968
100
AcDbArc
 50
263.8550518991
 51
265.6501907534
  0
ARC
  5
639
100
AcDbEntity
  8
RACCORDO
100
AcDbCircle
 62
7
  6
CONTINUOUS
 10
-8.9179712268
 20
-31.5288750722
 40
7.2424869014
100
AcDbArc
 50
88.6187682881
 51
89.9713324278
  0
ARC
  5
63A
100
AcDbEntity
  8
RACCORDO
100
AcDbCircle
 62
250
  6
CONTINUOUS
 10
-13.7063624815
 20
-23.1054983437
 40
2.6724975495
100
AcDbArc
 50
149.2108556332
 51
150.0920607056
  0
ARC
  5
63B
100
AcDbEntity
  8
RACCORDO
100
AcDbCircle
 62
250
  6
CONTINUOUS
 10
-13.2924888742
 20
-22.7175526632
 40
2.4730971765
100
AcDbArc
 50
104.7916699716
 51
105.6709643052
  0
ARC
  5
63C
100
AcDbEntity
  8
RACCORDO
100
AcDbCircle
 62
250
  6
CONTINUOUS
 10
-13.8060757753
 20
-23.3295307712
 40
2.3518250872
100
AcDbArc
 50
145.8948321977
 51
146.8032630432
  0
ARC
  5
63D
100
AcDbEntity
  8
RACCORDO
100
AcDbCircle
 62
250
  6
CONTINUOUS
 10
-11.0105034575
 20
-25.6625
 40
2.3
100
AcDbArc
 50
65.9058232221
 51
67.170519757
  0
ARC
  5
63E
100
AcDbEntity
  8
RACCORDO
100
AcDbCircle
 62
250
  6
CONTINUOUS
 10
-13.056843868
 20
-22.6135278445
 40
2.1542087833
100
AcDbArc
 50
108.3404687475
 51
109.2527122317
  0
ARC
  5
63F
100
AcDbEntity
  8
RACCORDO
100
AcDbCircle
 62
250
  6
CONTINUOUS
 10
-13.6157309316
 20
-21.5042192875
 40
2.0930244075
100
AcDbArc
 50
175.9006056556
 51
176.8031937061
  0
ARC
  5
640
100
AcDbEntity
  8
RACCORDO
100
AcDbCircle
 62
250
  6
CONTINUOUS
 10
-13.6833360652
 20
-21.2594405929
 40
1.8129095323
100
AcDbArc
 50
179.5219818158
 51
180.464841923
  0
CIRCLE
  5
641
100
AcDbEntity
  8
ASSI
100
AcDbCircle
 62
7
  6
CONTINUOUS
 10
-9.5105034575
 20
-24.0625
 40
0.8
  0
CIRCLE
  5
642
100
AcDbEntity
  8
ASSI
100
AcDbCircle
 62
7
  6
CONTINUOUS
 10
-9.5105034575
 20
-24.0375
 40
0.625
  0
ARC
  5
643
100
AcDbEntity
  8
RACCORDO
100
AcDbCircle
 62
7
  6
CONTINUOUS
 10
-13.8214470824
 20
-23.4261560987
 40
0.3816352753
100
AcDbArc
 50
274.4797456785
 51
276.3147513046
  0
ARC
  5
644
100
AcDbEntity
  8
RACCORDO
100
AcDbCircle
 62
250
  6
CONTINUOUS
 10
-12.2345687085
 20
-22.0394628412
 40
0.2500872254
100
AcDbArc
 50
90.0276776295
 51
179.9443200339
  0
ARC
  5
645
100
AcDbEntity
  8
RACCORDO
100
AcDbCircle
 62
7
  6
CONTINUOUS
 10
-12.5654742302
 20
-21.1375048407
 40
0.2499951616
100
AcDbArc
 50
213.1330875633
 51
269.9921262413
  0
ARC
  5
646
100
AcDbEntity
  8
RACCORDO
100
AcDbCircle
 62
7
  6
CONTINUOUS
 10
-13.7343924705
 20
-23.994050673
 40
0.249958104
100
AcDbArc
 50
102.3524888759
 51
137.5348986066
  0
ARC
  5
647
100
AcDbEntity
  8
RACCORDO
100
AcDbCircle
 62
7
  6
CONTINUOUS
 10
-12.2687866924
 20
-21.9874015037
 40
0.2499054804
100
AcDbArc
 50
90.0069447642
 51
185.3792912703
  0
ARC
  5
648
100
AcDbEntity
  8
RACCORDO
100
AcDbCircle
 62
7
  6
CONTINUOUS
 10
-13.7538076246
 20
-23.6376318642
 40
0.2498681358
100
AcDbArc
 50
228.6808510647
 51
270.000650519
  0
ARC
  5
649
100
AcDbEntity
  8
RACCORDO
100
AcDbCircle
 62
250
  6
CONTINUOUS
 10
-12.5683486931
 20
-21.0989332245
 40
0.2496755542
100
AcDbArc
 50
214.190444808
 51
266.2919123908
  0
ARC
  5
64A
100
AcDbEntity
  8
RACCORDO
100
AcDbCircle
 62
7
  6
CONTINUOUS
 10
-12.2397882143
 20
-22.0298484096
 40
0.2495250518
100
AcDbArc
 50
89.8682637835
 51
180.0114696656
  0
ARC
  5
64B
100
AcDbEntity
  8
RACCORDO
100
AcDbCircle
 62
250
  6
CONTINUOUS
 10
-12.5685374646
 20
-21.1018549906
 40
0.2467476964
100
AcDbArc
 50
266.2917768893
 51
270.1144220948
  0
ARC
  5
64C
100
AcDbEntity
  8
RACCORDO
100
AcDbCircle
 62
250
  6
CONTINUOUS
 10
-9.9386265292
 20
-23.2662204822
 40
0.200068087
100
AcDbArc
 50
245.8374487965
 51
351.2530506796
  0
ARC
  5
64D
100
AcDbEntity
  8
RACCORDO
100
AcDbCircle
 62
250
  6
CONTINUOUS
 10
-9.9407357332
 20
-23.2654242087
 40
0.1999601426
100
AcDbArc
 50
245.9767773176
 51
350.8113977836
  0
ARC
  5
64E
100
AcDbEntity
  8
RACCORDO
100
AcDbCircle
 62
250
  6
CONTINUOUS
 10
-12.3876396541
 20
-21.2417323779
 40
0.1000402826
100
AcDbArc
 50
180.0585051277
 51
269.9694974574
  0
ARC
  5
64F
100
AcDbEntity
  8
RACCORDO
100
AcDbCircle
 62
250
  6
CONTINUOUS
 10
-12.3846934023
 20
-21.2358380777
 40
0.1000402819
100
AcDbArc
 50
180.0585047215
 51
269.9694978253
  0
ARC
  5
650
100
AcDbEntity
  8
RACCORDO
100
AcDbCircle
 62
250
  6
CONTINUOUS
 10
-12.5780972394
 20
-21.2120301479
 40
0.0366337737
100
AcDbArc
 50
262.7003699806
 51
270.3810964194
  0
ARC
  5
651
100
AcDbEntity
  8
RACCORDO
100
AcDbCircle
 62
7
  6
CONTINUOUS
 10
-16.9355034575
 20
-15.5625
 40
0.4
100
AcDbArc
 50
0.0
 51
90.0
  0
ARC
  5
652
100
AcDbEntity
  8
RACCORDO
100
AcDbCircle
 62
7
  6
CONTINUOUS
 10
-16.9355034575
 20
-18.8625
 40
0.4
100
AcDbArc
 50
270.0
 51
360.0
  0
ARC
  5
653
100
AcDbEntity
  8
RACCORDO
100
AcDbCircle
 62
250
  6
CONTINUOUS
 10
-14.5959511713
 20
-20.3267829657
 40
0.2500318089
100
AcDbArc
 50
284.1440270312
 51
0.0116364598
  0
ARC
  5
654
100
AcDbEntity
  8
RACCORDO
100
AcDbCircle
 62
250
  6
CONTINUOUS
 10
-13.6739410082
 20
-20.3262866671
 40
0.2499479209
100
AcDbArc
 50
180.0288796042
 51
255.9330895226
  0
ARC
  5
655
100
AcDbEntity
  8
RACCORDO
100
AcDbCircle
 62
7
  6
CONTINUOUS
 10
-13.7105710403
 20
-20.3363501486
 40
0.2499345598
100
AcDbArc
 50
180.0076660165
 51
256.9134370468
  0
ARC
  5
656
100
AcDbEntity
  8
RACCORDO
100
AcDbCircle
 62
7
  6
CONTINUOUS
 10
-14.5604359902
 20
-20.3363500569
 40
0.2499345597
100
AcDbArc
 50
283.086583976
 51
359.9923129616
  0
ARC
  5
657
100
AcDbEntity
  8
RACCORDO
100
AcDbCircle
 62
250
  6
CONTINUOUS
 10
-14.6015582144
 20
-20.3267756025
 40
0.1500176668
100
AcDbArc
 50
284.1448769955
 51
0.0165823949
  0
ARC
  5
658
100
AcDbEntity
  8
RACCORDO
100
AcDbCircle
 62
250
  6
CONTINUOUS
 10
-13.679438266
 20
-20.326293773
 40
0.1499345212
100
AcDbArc
 50
180.0454272218
 51
256.0084898111
  0
ARC
  5
659
100
AcDbEntity
  8
RACCORDO
100
AcDbCircle
 62
250
  6
CONTINUOUS
 10
-16.7787312643
 20
-16.8679149597
 40
0.1000403195
100
AcDbArc
 50
90.0305483665
 51
179.9414840312
  0
ARC
  5
65A
100
AcDbEntity
  8
RACCORDO
100
AcDbCircle
 62
250
  6
CONTINUOUS
 10
-16.7787313444
 20
-18.7570850593
 40
0.1000402825
100
AcDbArc
 50
180.0585050983
 51
269.969497506
  0
ARC
  5
65B
100
AcDbEntity
  8
RACCORDO
100
AcDbCircle
 62
250
  6
CONTINUOUS
 10
-16.7787313444
 20
-16.2570850593
 40
0.1000402825
100
AcDbArc
 50
180.0585051021
 51
269.9694975022
  0
ARC
  5
65C
100
AcDbEntity
  8
RACCORDO
100
AcDbCircle
 62
250
  6
CONTINUOUS
 10
-16.9787723427
 20
-15.7714618752
 40
0.1000029702
100
AcDbArc
 50
0.0043193223
 51
44.9956806828
  0
ARC
  5
65D
100
AcDbEntity
  8
RACCORDO
100
AcDbCircle
 62
250
  6
CONTINUOUS
 10
-17.0675234786
 20
-15.3913652875
 40
0.1000029149
100
AcDbArc
 50
180.0043061881
 51
224.9956938118
  0
CIRCLE
  5
65E
100
AcDbEntity
  8
ASSI
100
AcDbCircle
 62
7
  6
CONTINUOUS
 10
-14.1355034575
 20
-14.1625
 40
1.25
  0
CIRCLE
  5
65F
100
AcDbEntity
  8
DRAFT
100
AcDbCircle
 62
7
  6
CONTINUOUS
 10
-14.1347490539
 20
-14.1625186178
 40
0.7784103842
  0
CIRCLE
  5
660
100
AcDbEntity
  8
DRAFT
100
AcDbCircle
 62
7
  6
CONTINUOUS
 10
-14.1355034575
 20
-14.1625
 40
0.75
  0
ARC
  5
661
100
AcDbEntity
  8
RACCORDO
100
AcDbCircle
 62
250
  6
CONTINUOUS
 10
-14.6082179623
 20
-9.5352018188
 40
0.2501897196
100
AcDbArc
 50
36.2112253731
 51
89.9188281404
  0
ARC
  5
662
100
AcDbEntity
  8
RACCORDO
100
AcDbCircle
 62
250
  6
CONTINUOUS
 10
-13.6609526405
 20
-9.5370374086
 40
0.2501881429
100
AcDbArc
 50
90.0809770147
 51
143.2655680213
  0
ARC
  5
663
100
AcDbEntity
  8
RACCORDO
100
AcDbCircle
 62
250
  6
CONTINUOUS
 10
-16.9176517055
 20
-9.5300199506
 40
0.2498850712
100
AcDbArc
 50
150.7096061935
 51
154.2513028452
  0
ARC
  5
664
100
AcDbEntity
  8
RACCORDO
100
AcDbCircle
 62
250
  6
CONTINUOUS
 10
-16.9176321557
 20
-9.5299373884
 40
0.2498577839
100
AcDbArc
 50
90.0369904068
 51
145.2341465097
  0
ARC
  5
665
100
AcDbEntity
  8
RACCORDO
100
AcDbCircle
 62
250
  6
CONTINUOUS
 10
-16.9176906435
 20
-11.095011345
 40
0.2498358005
100
AcDbArc
 50
180.0365256547
 51
209.2885029936
  0
ARC
  5
666
100
AcDbEntity
  8
RACCORDO
100
AcDbCircle
 62
250
  6
CONTINUOUS
 10
-16.9176906435
 20
-12.0299886549
 40
0.2498358005
100
AcDbArc
 50
150.7114970064
 51
179.9634743453
  0
ARC
  5
667
100
AcDbEntity
  8
RACCORDO
100
AcDbCircle
 62
250
  6
CONTINUOUS
 10
-16.9176906435
 20
-13.595011345
 40
0.2498358005
100
AcDbArc
 50
180.0365256547
 51
209.2885029936
  0
ARC
  5
668
100
AcDbEntity
  8
RACCORDO
100
AcDbCircle
 62
250
  6
CONTINUOUS
 10
-16.9176906435
 20
-14.5299886549
 40
0.2498358005
100
AcDbArc
 50
150.7114970064
 51
179.9634743453
  0
ARC
  5
669
100
AcDbEntity
  8
RACCORDO
100
AcDbCircle
 62
250
  6
CONTINUOUS
 10
-13.358071214
 20
-9.4879616801
 40
0.1908029968
100
AcDbArc
 50
31.7882045755
 51
90.9658014855
  0
ARC
  5
66A
100
AcDbEntity
  8
RACCORDO
100
AcDbCircle
 62
7
  6
CONTINUOUS
 10
-11.0105034575
 20
-10.6625
 40
2.425
100
AcDbArc
 50
317.2750707424
 51
329.599052239
  0
ARC
  5
66B
100
AcDbEntity
  8
RACCORDO
100
AcDbCircle
 62
250
  6
CONTINUOUS
 10
-11.0105034575
 20
-10.6625
 40
2.3
100
AcDbArc
 50
318.5485553934
 51
321.9834281977
  0
CIRCLE
  5
66C
100
AcDbEntity
  8
ASSI
100
AcDbCircle
 62
7
  6
CONTINUOUS
 10
-9.5105034575
 20
-11.5625
 40
0.8
  0
CIRCLE
  5
66D
100
AcDbEntity
  8
ASSI
100
AcDbCircle
 62
7
  6
CONTINUOUS
 10
-9.5105034575
 20
-11.5375
 40
0.625
  0
ARC
  5
66E
100
AcDbEntity
  8
RACCORDO
100
AcDbCircle
 62
250
  6
CONTINUOUS
 10
-9.0808919092
 20
-12.4387005132
 40
0.1976492003
100
AcDbArc
 50
137.37128304
 51
138.5406933177
  0
ARC
  5
66F
100
AcDbEntity
  8
RACCORDO
100
AcDbCircle
 62
250
  6
CONTINUOUS
 10
-0.8987172401
 20
-23.2471656702
 40
14.8273056569
100
AcDbArc
 50
70.1914799149
 51
70.8837018554
  0
ARC
  5
670
100
AcDbEntity
  8
RACCORDO
100
AcDbCircle
 62
250
  6
CONTINUOUS
 10
-0.6247216513
 20
-23.2402846692
 40
14.8200076615
100
AcDbArc
 50
109.1161263499
 51
109.8086892192
  0
ARC
  5
671
100
AcDbEntity
  8
RACCORDO
100
AcDbCircle
 62
7
  6
CONTINUOUS
 10
-7.6150183929
 20
-22.2875
 40
1.125
100
AcDbArc
 50
211.0392400104
 51
31.0392400104
  0
ARC
  5
672
100
AcDbEntity
  8
RACCORDO
100
AcDbCircle
 62
250
  6
CONTINUOUS
 10
-8.6612575993
 20
-24.490709572
 40
0.3252712103
100
AcDbArc
 50
141.0859225218
 51
206.517599097
  0
ARC
  5
673
100
AcDbEntity
  8
RACCORDO
100
AcDbCircle
 62
7
  6
CONTINUOUS
 10
1.4656056862
 20
-27.7363908563
 40
0.2042903125
100
AcDbArc
 50
260.0235375661
 51
270.0
  0
ARC
  5
674
100
AcDbEntity
  8
RACCORDO
100
AcDbCircle
 62
7
  6
CONTINUOUS
 10
-2.9866126012
 20
-27.7363908563
 40
0.2042903125
100
AcDbArc
 50
270.0
 51
279.9922067175
  0
ARC
  5
675
100
AcDbEntity
  8
RACCORDO
100
AcDbCircle
 62
250
  6
CONTINUOUS
 10
-8.661509713
 20
-24.4905543
 40
0.2000456123
100
AcDbArc
 50
116.4981074574
 51
189.993699287
  0
ARC
  5
676
100
AcDbEntity
  8
RACCORDO
100
AcDbCircle
 62
250
  6
CONTINUOUS
 10
-8.659763742
 20
-24.4944191294
 40
0.1999873692
100
AcDbArc
 50
117.7115493181
 51
188.4584759863
  0
ARC
  5
677
100
AcDbEntity
  8
RACCORDO
100
AcDbCircle
 62
250
  6
CONTINUOUS
 10
-8.7749405162
 20
-23.7251041106
 40
0.1005765118
100
AcDbArc
 50
270.1475706139
 51
285.6777014193
  0
ARC
  5
678
100
AcDbEntity
  8
RACCORDO
100
AcDbCircle
 62
7
  6
CONTINUOUS
 10
-7.6150183929
 20
-14.0375
 40
1.125
100
AcDbArc
 50
328.9607599896
 51
148.9607599896
  0
ARC
  5
679
100
AcDbEntity
  8
RACCORDO
100
AcDbCircle
 62
250
  6
CONTINUOUS
 10
-5.6480120592
 20
-9.5465172366
 40
0.2493336133
100
AcDbArc
 50
39.6262765478
 51
89.7524564485
  0
ARC
  5
67A
100
AcDbEntity
  8
RACCORDO
100
AcDbCircle
 62
250
  6
CONTINUOUS
 10
-8.7460789036
 20
-11.9907996606
 40
0.2001978603
100
AcDbArc
 50
90.0331421928
 51
122.4836943972
  0
ARC
  5
67B
100
AcDbEntity
  8
RACCORDO
100
AcDbCircle
 62
250
  6
CONTINUOUS
 10
-8.6596627536
 20
-9.494514888
 40
0.2001208907
100
AcDbArc
 50
90.0355148237
 51
147.6328546869
  0
ARC
  5
67C
100
AcDbEntity
  8
RACCORDO
100
AcDbCircle
 62
250
  6
CONTINUOUS
 10
-8.7485684945
 20
-11.9940444349
 40
0.199752684
100
AcDbArc
 50
89.9539421839
 51
148.4797558181
  0
ARC
  5
67D
100
AcDbEntity
  8
RACCORDO
100
AcDbCircle
 62
250
  6
CONTINUOUS
 10
-8.6617617685
 20
-9.4903098181
 40
0.199708003
100
AcDbArc
 50
89.975167687
 51
149.0006129702
  0
ARC
  5
67E
100
AcDbEntity
  8
RACCORDO
100
AcDbCircle
 62
250
  6
CONTINUOUS
 10
-8.750169738
 20
-11.9931079803
 40
0.1979041387
100
AcDbArc
 50
148.4946725316
 51
149.5153102797
  0
ARC
  5
67F
100
AcDbEntity
  8
RACCORDO
100
AcDbCircle
 62
250
  6
CONTINUOUS
 10
-0.7598371226
 20
-18.1614924948
 40
9.759706882
100
AcDbArc
 50
213.5091930843
 51
214.4727949663
  0
ARC
  5
680
100
AcDbEntity
  8
RACCORDO
100
AcDbCircle
 62
250
  6
CONTINUOUS
 10
-0.7559234555
 20
-18.1649578384
 40
9.7534210808
100
AcDbArc
 50
325.52636985
 51
326.4911344407
  0
ARC
  5
681
100
AcDbEntity
  8
RACCORDO
100
AcDbCircle
 62
7
  6
CONTINUOUS
 10
-0.7605034575
 20
-18.1625
 40
9.125
100
AcDbArc
 50
148.9607599896
 51
211.0392400104
  0
ARC
  5
682
100
AcDbEntity
  8
RACCORDO
100
AcDbCircle
 62
7
  6
CONTINUOUS
 10
-0.7605034575
 20
-18.1625
 40
9.125
100
AcDbArc
 50
328.9607599896
 51
31.0392400104
  0
ARC
  5
683
100
AcDbEntity
  8
SMUSSO
100
AcDbCircle
 62
7
  6
CONTINUOUS
 10
-0.7615697535
 20
-18.1600939963
 40
9.0967849148
100
AcDbArc
 50
211.0570658384
 51
212.7727518975
  0
ARC
  5
684
100
AcDbEntity
  8
SMUSSO
100
AcDbCircle
 62
7
  6
CONTINUOUS
 10
-0.7594136861
 20
-18.1601082924
 40
9.096757444
100
AcDbArc
 50
327.227241936
 51
328.9429353779
  0
ARC
  5
685
100
AcDbEntity
  8
SMUSSO
100
AcDbCircle
 62
7
  6
CONTINUOUS
 10
-0.7592873765
 20
-18.1648153139
 40
9.0966099007
100
AcDbArc
 50
31.0570628395
 51
32.7727841512
  0
ARC
  5
686
100
AcDbEntity
  8
SMUSSO
100
AcDbCircle
 62
7
  6
CONTINUOUS
 10
-0.7617430257
 20
-18.1648010851
 40
9.0965824526
100
AcDbArc
 50
147.2272105921
 51
148.9429377527
  0
ARC
  5
687
100
AcDbEntity
  8
SMUSSO
100
AcDbCircle
 62
7
  6
CONTINUOUS
 10
-0.7552385209
 20
-18.162499931
 40
9.0919401023
100
AcDbArc
 50
328.9422728941
 51
31.0577263474
  0
ARC
  5
688
100
AcDbEntity
  8
SMUSSO
100
AcDbCircle
 62
7
  6
CONTINUOUS
 10
-0.7657685266
 20
-18.1624999043
 40
9.0919400991
100
AcDbArc
 50
148.9422735028
 51
211.0577280399
  0
ARC
  5
689
100
AcDbEntity
  8
SMUSSO
100
AcDbCircle
 62
7
  6
CONTINUOUS
 10
-0.7821579634
 20
-18.1624999866
 40
8.8347197415
100
AcDbArc
 50
143.8727739206
 51
216.1272253007
  0
ARC
  5
68A
100
AcDbEntity
  8
SMUSSO
100
AcDbCircle
 62
7
  6
CONTINUOUS
 10
-0.7388493569
 20
-18.1624999899
 40
8.8347197403
100
AcDbArc
 50
323.8727733748
 51
36.1272217461
  0
ARC
  5
68B
100
AcDbEntity
  8
DRAFT
100
AcDbCircle
 62
250
  6
CONTINUOUS
 10
-0.7603833317
 20
-18.1625001267
 40
8.7148583905
100
AcDbArc
 50
323.0013117537
 51
36.998565216
  0
ARC
  5
68C
100
AcDbEntity
  8
DRAFT
100
AcDbCircle
 62
250
  6
CONTINUOUS
 10
-0.7606280605
 20
-18.1624990528
 40
8.7148543234
100
AcDbArc
 50
143.0013434897
 51
216.9985403673
  0
ARC
  5
68D
100
AcDbEntity
  8
RACCORDO
100
AcDbCircle
 62
250
  6
CONTINUOUS
 10
-0.7634766067
 20
-18.1625006381
 40
8.6457304696
100
AcDbArc
 50
322.6138482227
 51
37.3862980291
  0
ARC
  5
68E
100
AcDbEntity
  8
RACCORDO
100
AcDbCircle
 62
250
  6
CONTINUOUS
 10
-0.7575390931
 20
-18.162500413
 40
8.6457220678
100
AcDbArc
 50
142.6147807407
 51
217.3862755598
  0
ARC
  5
68F
100
AcDbEntity
  8
0
100
AcDbCircle
 62
250
  6
CONTINUOUS
 10
-0.7669745855
 20
-18.1624999083
 40
8.6267754411
100
AcDbArc
 50
322.5138485319
 51
37.4861556164
  0
ARC
  5
690
100
AcDbEntity
  8
0
100
AcDbCircle
 62
250
  6
CONTINUOUS
 10
-0.7540323295
 20
-18.1625000917
 40
8.6267754411
100
AcDbArc
 50
142.5138485319
 51
217.4861556164
  0
ARC
  5
691
100
AcDbEntity
  8
0
100
AcDbCircle
 62
250
  6
CONTINUOUS
 10
-0.7668009906
 20
-18.1624999285
 40
8.5285737537
100
AcDbArc
 50
322.0739950034
 51
37.9260058763
  0
ARC
  5
692
100
AcDbEntity
  8
0
100
AcDbCircle
 62
250
  6
CONTINUOUS
 10
-0.7542062817
 20
-18.1625000715
 40
8.5285737537
100
AcDbArc
 50
142.0739935281
 51
217.9260073516
  0
ARC
  5
693
100
AcDbEntity
  8
RACCORDO
100
AcDbCircle
 62
250
  6
CONTINUOUS
 10
-0.7631832438
 20
-18.1625028874
 40
8.506476549
100
AcDbArc
 50
321.9825787565
 51
38.0159195761
  0
ARC
  5
694
100
AcDbEntity
  8
RACCORDO
100
AcDbCircle
 62
250
  6
CONTINUOUS
 10
-0.7578335758
 20
-18.1625003529
 40
8.5064672366
100
AcDbArc
 50
141.9825476539
 51
218.0158938316
  0
ARC
  5
695
100
AcDbEntity
  8
RACCORDO
100
AcDbCircle
 62
250
  6
CONTINUOUS
 10
-0.760027754
 20
-18.1625012258
 40
8.4345878674
100
AcDbArc
 50
321.7167317623
 51
38.2811177163
  0
ARC
  5
696
100
AcDbEntity
  8
RACCORDO
100
AcDbCircle
 62
250
  6
CONTINUOUS
 10
-0.7609802923
 20
-18.1624980771
 40
8.4345877412
100
AcDbArc
 50
141.7173321933
 51
218.2812954768
  0
ARC
  5
697
100
AcDbEntity
  8
RACCORDO
100
AcDbCircle
 62
250
  6
CONTINUOUS
 10
-0.7611602812
 20
-18.162596978
 40
8.4156089078
100
AcDbArc
 50
321.6579986366
 51
38.3446440442
  0
ARC
  5
698
100
AcDbEntity
  8
RACCORDO
100
AcDbCircle
 62
250
  6
CONTINUOUS
 10
-0.759885762
 20
-18.1624087352
 40
8.4155696861
100
AcDbArc
 50
141.6595296302
 51
218.3430700236
  0
ARC
  5
699
100
AcDbEntity
  8
RACCORDO
100
AcDbCircle
 62
250
  6
CONTINUOUS
 10
-0.7639568757
 20
-18.1625244086
 40
8.3462322658
100
AcDbArc
 50
321.4588778612
 51
38.5410254909
  0
ARC
  5
69A
100
AcDbEntity
  8
RACCORDO
100
AcDbCircle
 62
250
  6
CONTINUOUS
 10
-0.7571008338
 20
-18.1624830854
 40
8.3461813318
100
AcDbArc
 50
141.4607611292
 51
218.5412754192
  0
ARC
  5
69B
100
AcDbEntity
  8
0
100
AcDbCircle
 62
250
  6
CONTINUOUS
 10
-0.767218654
 20
-18.1624520467
 40
8.3270933218
100
AcDbArc
 50
321.4162938759
 51
38.5837248051
  0
ARC
  5
69C
100
AcDbEntity
  8
0
100
AcDbCircle
 62
250
  6
CONTINUOUS
 10
-0.7537883314
 20
-18.1625479498
 40
8.3270933221
100
AcDbArc
 50
141.4162939019
 51
218.5837251274
  0
ARC
  5
69D
100
AcDbEntity
  8
0
100
AcDbCircle
 62
250
  6
CONTINUOUS
 10
-0.767135662
 20
-18.1624841157
 40
8.2289829023
100
AcDbArc
 50
321.1938237985
 51
38.8061947993
  0
ARC
  5
69E
100
AcDbEntity
  8
0
100
AcDbCircle
 62
250
  6
CONTINUOUS
 10
-0.7538713215
 20
-18.1625158901
 40
8.2289829024
100
AcDbArc
 50
141.1938238222
 51
218.8061950666
  0
ARC
  5
69F
100
AcDbEntity
  8
RACCORDO
100
AcDbCircle
 62
250
  6
CONTINUOUS
 10
-0.7638178423
 20
-18.1625794624
 40
8.2071289493
100
AcDbArc
 50
321.1482549317
 51
38.8520677472
  0
ARC
  5
6A0
100
AcDbEntity
  8
RACCORDO
100
AcDbCircle
 62
250
  6
CONTINUOUS
 10
-0.7572239045
 20
-18.1624286997
 40
8.207093842
100
AcDbArc
 50
141.1480719716
 51
218.8528619406
  0
ARC
  5
6A1
100
AcDbEntity
  8
RACCORDO
100
AcDbCircle
 62
250
  6
CONTINUOUS
 10
-0.7610511844
 20
-18.1626936052
 40
8.1355793703
100
AcDbArc
 50
321.0267100057
 51
38.9735417883
  0
ARC
  5
6A2
100
AcDbEntity
  8
RACCORDO
100
AcDbCircle
 62
250
  6
CONTINUOUS
 10
-0.7599926789
 20
-18.1623156897
 40
8.135541973
100
AcDbArc
 50
141.0258503455
 51
218.9746221825
  0
ARC
  5
6A3
100
AcDbEntity
  8
RACCORDO
100
AcDbCircle
 62
250
  6
CONTINUOUS
 10
-0.7613670945
 20
-18.1626644154
 40
8.1154608774
100
AcDbArc
 50
321.0032874331
 51
38.9968279175
  0
ARC
  5
6A4
100
AcDbEntity
  8
RACCORDO
100
AcDbCircle
 62
250
  6
CONTINUOUS
 10
-0.7596403274
 20
-18.1623358082
 40
8.1154603988
100
AcDbArc
 50
141.0032009128
 51
218.996782949
  0
ARC
  5
6A5
100
AcDbEntity
  8
RACCORDO
100
AcDbCircle
 62
250
  6
CONTINUOUS
 10
-0.7640047116
 20
-18.1625747936
 40
8.0459826873
100
AcDbArc
 50
320.9442523669
 51
39.0558095715
  0
ARC
  5
6A6
100
AcDbEntity
  8
RACCORDO
100
AcDbCircle
 62
250
  6
CONTINUOUS
 10
-0.7570027097
 20
-18.1624253602
 40
8.0459821976
100
AcDbArc
 50
140.9441968537
 51
219.0558082229
  0
ARC
  5
6A7
100
AcDbEntity
  8
0
100
AcDbCircle
 62
250
  6
CONTINUOUS
 10
-0.7669306017
 20
-18.162470966
 40
8.0269734797
100
AcDbArc
 50
320.9408420515
 51
39.0591769972
  0
ARC
  5
6A8
100
AcDbEntity
  8
0
100
AcDbCircle
 62
250
  6
CONTINUOUS
 10
-0.7540763774
 20
-18.1625290569
 40
8.0269734799
100
AcDbArc
 50
140.9408419703
 51
219.059177158
  0
ARC
  5
6A9
100
AcDbEntity
  8
0
100
AcDbCircle
 62
250
  6
CONTINUOUS
 10
-0.766848332
 20
-18.1624952395
 40
7.9288591791
100
AcDbArc
 50
320.9078265391
 51
39.0921931518
  0
ARC
  5
6AA
100
AcDbEntity
  8
0
100
AcDbCircle
 62
250
  6
CONTINUOUS
 10
-0.7541586467
 20
-18.1625047832
 40
7.9288591791
100
AcDbArc
 50
140.9078264574
 51
219.0921933144
  0
ARC
  5
6AB
100
AcDbEntity
  8
RACCORDO
100
AcDbCircle
 62
250
  6
CONTINUOUS
 10
-0.7637395787
 20
-18.1624088085
 40
7.907474394
100
AcDbArc
 50
320.8960406579
 51
39.1035960223
  0
ARC
  5
6AC
100
AcDbEntity
  8
RACCORDO
100
AcDbCircle
 62
250
  6
CONTINUOUS
 10
-0.7573183604
 20
-18.1625803093
 40
7.9074236568
100
AcDbArc
 50
140.895963902
 51
219.1037619629
  0
ARC
  5
6AD
100
AcDbEntity
  8
RACCORDO
100
AcDbCircle
 62
250
  6
CONTINUOUS
 10
-0.7610815735
 20
-18.162301576
 40
7.8359692979
100
AcDbArc
 50
320.9056043859
 51
39.0939284292
  0
ARC
  5
6AE
100
AcDbEntity
  8
RACCORDO
100
AcDbCircle
 62
250
  6
CONTINUOUS
 10
-0.7599775203
 20
-18.1626877708
 40
7.8359173087
100
AcDbArc
 50
140.9061253332
 51
219.0935399759
  0
ARC
  5
6AF
100
AcDbEntity
  8
RACCORDO
100
AcDbCircle
 62
250
  6
CONTINUOUS
 10
-0.7609691806
 20
-18.1624496469
 40
7.8154291418
100
AcDbArc
 50
320.9194149641
 51
39.0805560072
  0
ARC
  5
6B0
100
AcDbEntity
  8
RACCORDO
100
AcDbCircle
 62
250
  6
CONTINUOUS
 10
-0.7600431302
 20
-18.1624507144
 40
7.8154237453
100
AcDbArc
 50
140.9194895521
 51
219.0805201179
  0
ARC
  5
6B1
100
AcDbEntity
  8
RACCORDO
100
AcDbCircle
 62
250
  6
CONTINUOUS
 10
-0.7635016292
 20
-18.1625408802
 40
7.7459048384
100
AcDbArc
 50
320.999264186
 51
39.0006732228
  0
ARC
  5
6B2
100
AcDbEntity
  8
RACCORDO
100
AcDbCircle
 62
250
  6
CONTINUOUS
 10
-0.7575103562
 20
-18.1625419276
 40
7.7458990209
100
AcDbArc
 50
140.9995101626
 51
219.0005310285
  0
ARC
  5
6B3
100
AcDbEntity
  8
0
100
AcDbCircle
 62
250
  6
CONTINUOUS
 10
-0.7546301402
 20
-18.1626409845
 40
7.7265153124
100
AcDbArc
 50
141.0390886529
 51
218.9609219274
  0
ARC
  5
6B4
100
AcDbEntity
  8
0
100
AcDbCircle
 62
250
  6
CONTINUOUS
 10
-0.7663768255
 20
-18.1623588739
 40
7.7265153117
100
AcDbArc
 50
321.0390882037
 51
38.9609208736
  0
ARC
  5
6B5
100
AcDbEntity
  8
0
100
AcDbCircle
 62
250
  6
CONTINUOUS
 10
-0.7547356015
 20
-18.1626286222
 40
7.6283736427
100
AcDbArc
 50
141.2094102533
 51
218.790608066
  0
ARC
  5
6B6
100
AcDbEntity
  8
0
100
AcDbCircle
 62
250
  6
CONTINUOUS
 10
-0.7662717969
 20
-18.1623702059
 40
7.6283736418
100
AcDbArc
 50
321.209401864
 51
38.7905989287
  0
ARC
  5
6B7
100
AcDbEntity
  8
RACCORDO
100
AcDbCircle
 62
250
  6
CONTINUOUS
 10
-0.7576934867
 20
-18.1625186562
 40
7.6067392186
100
AcDbArc
 50
141.2367233433
 51
218.7635348884
  0
ARC
  5
6B8
100
AcDbEntity
  8
RACCORDO
100
AcDbCircle
 62
250
  6
CONTINUOUS
 10
-0.7633121925
 20
-18.1624807971
 40
7.6067379774
100
AcDbArc
 50
321.2368277594
 51
38.7633739293
  0
ARC
  5
6B9
100
AcDbEntity
  8
RACCORDO
100
AcDbCircle
 62
250
  6
CONTINUOUS
 10
-0.760282504
 20
-18.1624270164
 40
7.5352371049
100
AcDbArc
 50
141.4015569355
 51
218.5984660456
  0
ARC
  5
6BA
100
AcDbEntity
  8
RACCORDO
100
AcDbCircle
 62
250
  6
CONTINUOUS
 10
-0.7607231918
 20
-18.1625724496
 40
7.535235883
100
AcDbArc
 50
321.4016111463
 51
38.5983351693
  0
ARC
  5
6BB
100
AcDbEntity
  8
SMUSSO
100
AcDbCircle
 62
7
  6
CONTINUOUS
 10
-0.7335598432
 20
-18.1633102457
 40
7.5052324622
100
AcDbArc
 50
179.9932612264
 51
218.307861552
  0
ARC
  5
6BC
100
AcDbEntity
  8
SMUSSO
100
AcDbCircle
 62
7
  6
CONTINUOUS
 10
-0.7874465497
 20
-18.1616894986
 40
7.505231891
100
AcDbArc
 50
359.9935308282
 51
38.3078623097
  0
ARC
  5
6BD
100
AcDbEntity
  8
SMUSSO
100
AcDbCircle
 62
7
  6
CONTINUOUS
 10
-0.7873791456
 20
-18.163343933
 40
7.50515815
100
AcDbArc
 50
321.6920162897
 51
0.0061611193
  0
ARC
  5
6BE
100
AcDbEntity
  8
SMUSSO
100
AcDbCircle
 62
7
  6
CONTINUOUS
 10
-0.7336283252
 20
-18.161655791
 40
7.5051575407
100
AcDbArc
 50
141.6920154672
 51
180.0058916692
  0
ARC
  5
6BF
100
AcDbEntity
  8
SMUSSO
100
AcDbCircle
 62
7
  6
CONTINUOUS
 10
-0.7283512339
 20
-18.1634613811
 40
7.4087104858
100
AcDbArc
 50
179.9920287525
 51
217.893136635
  0
ARC
  5
6C0
100
AcDbEntity
  8
SMUSSO
100
AcDbCircle
 62
7
  6
CONTINUOUS
 10
-0.7926551507
 20
-18.1615383617
 40
7.4087099064
100
AcDbArc
 50
359.9922982295
 51
37.8931382557
  0
ARC
  5
6C1
100
AcDbEntity
  8
SMUSSO
100
AcDbCircle
 62
7
  6
CONTINUOUS
 10
-0.7925844221
 20
-18.1635066841
 40
7.4086366261
100
AcDbArc
 50
322.1068044385
 51
0.007520538
  0
ARC
  5
6C2
100
AcDbEntity
  8
SMUSSO
100
AcDbCircle
 62
7
  6
CONTINUOUS
 10
-0.7284225327
 20
-18.1614915181
 40
7.4086360072
100
AcDbArc
 50
142.1068145331
 51
180.0072629729
  0
ARC
  5
6C3
100
AcDbEntity
  8
RACCORDO
100
AcDbCircle
 62
250
  6
CONTINUOUS
 10
-0.7605035755
 20
-18.1625062728
 40
7.1099598407
100
AcDbArc
 50
323.7494632476
 51
36.2505339879
  0
ARC
  5
6C4
100
AcDbEntity
  8
RACCORDO
100
AcDbCircle
 62
250
  6
CONTINUOUS
 10
-0.7605035755
 20
-18.1625062728
 40
7.1099598407
100
AcDbArc
 50
143.749463723
 51
216.2505344846
  0
ARC
  5
6C5
100
AcDbEntity
  8
RACCORDO
100
AcDbCircle
 62
7
  6
CONTINUOUS
 10
-0.7605034575
 20
-18.1625
 40
6.875
100
AcDbArc
 50
148.9607599896
 51
211.0392400104
  0
ARC
  5
6C6
100
AcDbEntity
  8
RACCORDO
100
AcDbCircle
 62
7
  6
CONTINUOUS
 10
-0.7605034575
 20
-18.1625
 40
6.875
100
AcDbArc
 50
328.9607599896
 51
31.0392400104
  0
CIRCLE
  5
6C7
100
AcDbEntity
  8
CURVE
100
AcDbCircle
 62
7
  6
CONTINUOUS
 10
-0.7605034575
 20
-18.1625
 40
5.125
  0
CIRCLE
  5
6C8
100
AcDbEntity
  8
0
100
AcDbCircle
 62
7
  6
CONTINUOUS
 10
-0.7605034575
 20
-18.1625
 40
5.0
  0
CIRCLE
  5
6C9
100
AcDbEntity
  8
DRAFT
100
AcDbCircle
 62
7
  6
CONTINUOUS
 10
-0.7605034575
 20
-18.1625
 40
4.8937087397
  0
CIRCLE
  5
6CA
100
AcDbEntity
  8
DRAFT
100
AcDbCircle
 62
7
  6
CONTINUOUS
 10
-0.7605034575
 20
-18.1625
 40
4.875
  0
CIRCLE
  5
6CB
100
AcDbEntity
  8
DRAFT
100
AcDbCircle
 62
7
  6
CONTINUOUS
 10
-0.7605034575
 20
-18.1625
 40
4.5
  0
CIRCLE
  5
6CC
100
AcDbEntity
  8
CURVE
100
AcDbCircle
 62
7
  6
CONTINUOUS
 10
-0.7605034575
 20
-18.1625
 40
4.0
  0
ARC
  5
6CD
100
AcDbEntity
  8
RACCORDO
100
AcDbCircle
 62
250
  6
CONTINUOUS
 10
0.0523047721
 20
-12.3271995324
 40
14.4958872052
100
AcDbArc
 50
232.4877967063
 51
232.6652517134
  0
ARC
  5
6CE
100
AcDbEntity
  8
RACCORDO
100
AcDbCircle
 62
250
  6
CONTINUOUS
 10
-1.5733089399
 20
-12.3272030755
 40
14.4958827219
100
AcDbArc
 50
307.3347481596
 51
307.5122032081
  0
ARC
  5
6CF
100
AcDbEntity
  8
RACCORDO
100
AcDbCircle
 62
7
  6
CONTINUOUS
 10
0.0937996039
 20
-12.1797000744
 40
7.6718554259
100
AcDbArc
 50
358.8790476269
 51
359.4380369325
  0
ARC
  5
6D0
100
AcDbEntity
  8
RACCORDO
100
AcDbCircle
 62
7
  6
CONTINUOUS
 10
-1.6150229275
 20
-12.1797028687
 40
7.6716390003
100
AcDbArc
 50
180.5619580512
 51
181.1209269658
  0
ARC
  5
6D1
100
AcDbEntity
  8
RACCORDO
100
AcDbCircle
 62
7
  6
CONTINUOUS
 10
0.3224799313
 20
-12.1857679541
 40
7.4431275671
100
AcDbArc
 50
359.4674787698
 51
0.005405469
  0
ARC
  5
6D2
100
AcDbEntity
  8
RACCORDO
100
AcDbCircle
 62
7
  6
CONTINUOUS
 10
-2.237594223
 20
-12.1875808422
 40
7.0490206059
100
AcDbArc
 50
179.9795568144
 51
180.5475589468
  0
ARC
  5
6D3
100
AcDbEntity
  8
RACCORDO
100
AcDbCircle
 62
7
  6
CONTINUOUS
 10
-18.7605539578
 20
28.2125505003
 40
0.2499495
100
AcDbArc
 50
89.9971520285
 51
180.0028479715
  0
ARC
  5
6D4
100
AcDbEntity
  8
RACCORDO
100
AcDbCircle
 62
7
  6
CONTINUOUS
 10
3.5334996348
 20
-29.3200050565
 40
11.6506437931
100
AcDbArc
 50
44.9607616327
 51
45.8976295293
  0
ARC
  5
6D5
100
AcDbEntity
  8
RACCORDO
100
AcDbCircle
 62
7
  6
CONTINUOUS
 10
7.4035505207
 20
-32.0641750733
 40
7.7777926973
100
AcDbArc
 50
90.0752124261
 51
91.3346078386
  0
ARC
  5
6D6
100
AcDbEntity
  8
RACCORDO
100
AcDbCircle
 62
250
  6
CONTINUOUS
 10
9.4894965425
 20
-25.6625
 40
2.3
100
AcDbArc
 50
112.8298803612
 51
114.0941767779
  0
ARC
  5
6D7
100
AcDbEntity
  8
RACCORDO
100
AcDbCircle
 62
7
  6
CONTINUOUS
 10
6.0940114779
 20
-22.2875
 40
1.125
100
AcDbArc
 50
148.9607599896
 51
328.9607599896
  0
CIRCLE
  5
6D8
100
AcDbEntity
  8
ASSI
100
AcDbCircle
 62
7
  6
CONTINUOUS
 10
7.9894965425
 20
-24.0625
 40
0.8
  0
CIRCLE
  5
6D9
100
AcDbEntity
  8
ASSI
100
AcDbCircle
 62
7
  6
CONTINUOUS
 10
7.9894965425
 20
-24.0375
 40
0.625
  0
ARC
  5
6DA
100
AcDbEntity
  8
RACCORDO
100
AcDbCircle
 62
7
  6
CONTINUOUS
 10
11.9894965425
 20
-21.3125
 40
0.5
100
AcDbArc
 50
90.0
 51
180.0
  0
ARC
  5
6DB
100
AcDbEntity
  8
RACCORDO
100
AcDbCircle
 62
7
  6
CONTINUOUS
 10
11.9894965425
 20
-23.1625
 40
0.5
100
AcDbArc
 50
180.0
 51
270.0
  0
ARC
  5
6DC
100
AcDbEntity
  8
RACCORDO
100
AcDbCircle
 62
250
  6
CONTINUOUS
 10
7.1402519355
 20
-24.4907094362
 40
0.3252701514
100
AcDbArc
 50
333.4822810939
 51
38.9141971783
  0
ARC
  5
6DD
100
AcDbEntity
  8
RACCORDO
100
AcDbCircle
 62
250
  6
CONTINUOUS
 10
8.4176195923
 20
-23.2662207551
 40
0.2000678441
100
AcDbArc
 50
188.7448462883
 51
294.1625888893
  0
ARC
  5
6DE
100
AcDbEntity
  8
RACCORDO
100
AcDbCircle
 62
250
  6
CONTINUOUS
 10
7.1405032553
 20
-24.4905539163
 40
0.2000450446
100
AcDbArc
 50
350.0167486248
 51
63.498783177
  0
ARC
  5
6DF
100
AcDbEntity
  8
RACCORDO
100
AcDbCircle
 62
250
  6
CONTINUOUS
 10
7.1387558468
 20
-24.4944253543
 40
0.199986622
100
AcDbArc
 50
351.543583466
 51
62.2870411821
  0
ARC
  5
6E0
100
AcDbEntity
  8
RACCORDO
100
AcDbCircle
 62
250
  6
CONTINUOUS
 10
8.4197288196
 20
-23.2654242095
 40
0.1999601426
100
AcDbArc
 50
189.1886019327
 51
294.0232223955
  0
ARC
  5
6E1
100
AcDbEntity
  8
RACCORDO
100
AcDbCircle
 62
250
  6
CONTINUOUS
 10
7.2539336013
 20
-23.7251041106
 40
0.1005765118
100
AcDbArc
 50
254.3222985465
 51
269.852429385
  0
ARC
  5
6E2
100
AcDbEntity
  8
RACCORDO
100
AcDbCircle
 62
7
  6
CONTINUOUS
 10
6.0940114779
 20
-14.0375
 40
1.125
100
AcDbArc
 50
31.0392400104
 51
211.0392400104
  0
CIRCLE
  5
6E3
100
AcDbEntity
  8
ASSI
100
AcDbCircle
 62
7
  6
CONTINUOUS
 10
7.9894965425
 20
-11.5625
 40
0.8
  0
CIRCLE
  5
6E4
100
AcDbEntity
  8
ASSI
100
AcDbCircle
 62
7
  6
CONTINUOUS
 10
7.9894965425
 20
-11.5375
 40
0.625
  0
ARC
  5
6E5
100
AcDbEntity
  8
RACCORDO
100
AcDbCircle
 62
250
  6
CONTINUOUS
 10
4.1270051364
 20
-9.5465172385
 40
0.249333615
100
AcDbArc
 50
90.2475433449
 51
140.3737232172
  0
ARC
  5
6E6
100
AcDbEntity
  8
RACCORDO
100
AcDbCircle
 62
250
  6
CONTINUOUS
 10
7.2250719878
 20
-11.9907996632
 40
0.2001978629
100
AcDbArc
 50
57.5163021146
 51
89.9668575862
  0
ARC
  5
6E7
100
AcDbEntity
  8
RACCORDO
100
AcDbCircle
 62
250
  6
CONTINUOUS
 10
7.1386492517
 20
-9.4945279939
 40
0.2001273168
100
AcDbArc
 50
32.3704074807
 51
89.9626008223
  0
ARC
  5
6E8
100
AcDbEntity
  8
RACCORDO
100
AcDbCircle
 62
250
  6
CONTINUOUS
 10
7.2275752457
 20
-11.9940377721
 40
0.1997375276
100
AcDbArc
 50
31.5205993378
 51
90.0485477078
  0
ARC
  5
6E9
100
AcDbEntity
  8
RACCORDO
100
AcDbCircle
 62
250
  6
CONTINUOUS
 10
7.1407545744
 20
-9.4903103645
 40
0.1997085493
100
AcDbArc
 50
30.9959351086
 51
90.0247521757
  0
ARC
  5
6EA
100
AcDbEntity
  8
RACCORDO
100
AcDbCircle
 62
250
  6
CONTINUOUS
 10
7.2291781266
 20
-11.993100014
 40
0.1978868868
100
AcDbArc
 50
30.4849504693
 51
31.5056759752
  0
ARC
  5
6EB
100
AcDbEntity
  8
RACCORDO
100
AcDbCircle
 62
250
  6
CONTINUOUS
 10
7.5598333308
 20
-12.4387496465
 40
0.1977205184
100
AcDbArc
 50
41.4600634966
 51
42.6290535353
  0
ARC
  5
6EC
100
AcDbEntity
  8
RACCORDO
100
AcDbCircle
 62
7
  6
CONTINUOUS
 10
13.7394965425
 20
-19.5625
 40
0.5
100
AcDbArc
 50
270.0
 51
360.0
  0
ARC
  5
6ED
100
AcDbEntity
  8
RACCORDO
100
AcDbCircle
 62
7
  6
CONTINUOUS
 10
13.7394965425
 20
-16.9625
 40
0.5
100
AcDbArc
 50
0.0
 51
90.0
  0
ARC
  5
6EE
100
AcDbEntity
  8
RACCORDO
100
AcDbCircle
 62
7
  6
CONTINUOUS
 10
14.0894965425
 20
-15.1125
 40
0.5
100
AcDbArc
 50
270.0
 51
360.0
  0
ARC
  5
6EF
100
AcDbEntity
  8
RACCORDO
100
AcDbCircle
 62
7
  6
CONTINUOUS
 10
11.9894965425
 20
-15.1125
 40
0.5
100
AcDbArc
 50
180.0
 51
270.0
  0
ARC
  5
6F0
100
AcDbEntity
  8
RACCORDO
100
AcDbCircle
 62
7
  6
CONTINUOUS
 10
11.9894965425
 20
-16.9625
 40
0.5
100
AcDbArc
 50
90.0
 51
180.0
  0
ARC
  5
6F1
100
AcDbEntity
  8
RACCORDO
100
AcDbCircle
 62
7
  6
CONTINUOUS
 10
11.9894965425
 20
-19.5625
 40
0.5
100
AcDbArc
 50
180.0
 51
270.0
  0
ARC
  5
6F2
100
AcDbEntity
  8
RACCORDO
100
AcDbCircle
 62
7
  6
CONTINUOUS
 10
9.4894965425
 20
-10.6625
 40
2.425
100
AcDbArc
 50
210.400947761
 51
222.7249292575
  0
ARC
  5
6F3
100
AcDbEntity
  8
RACCORDO
100
AcDbCircle
 62
250
  6
CONTINUOUS
 10
9.4894965425
 20
-10.6625
 40
2.3
100
AcDbArc
 50
218.0165718023
 51
221.4514446066
  0
ARC
  5
6F4
100
AcDbEntity
  8
RACCORDO
100
AcDbCircle
 62
7
  6
CONTINUOUS
 10
14.0894965425
 20
-13.0625
 40
0.5
100
AcDbArc
 50
0.0
 51
90.0
  0
ARC
  5
6F5
100
AcDbEntity
  8
RACCORDO
100
AcDbCircle
 62
7
  6
CONTINUOUS
 10
11.9894965425
 20
-13.0625
 40
0.5
100
AcDbArc
 50
90.0
 51
180.0
  0
ARC
  5
6F6
100
AcDbEntity
  8
RACCORDO
100
AcDbCircle
 62
250
  6
CONTINUOUS
 10
13.0872110473
 20
-9.5352018188
 40
0.2501897196
100
AcDbArc
 50
90.0811718596
 51
143.7887746269
  0
ARC
  5
6F7
100
AcDbEntity
  8
RACCORDO
100
AcDbCircle
 62
250
  6
CONTINUOUS
 10
12.1399457255
 20
-9.5370374086
 40
0.2501881429
100
AcDbArc
 50
36.7344319787
 51
89.9190229853
  0
ARC
  5
6F8
100
AcDbEntity
  8
RACCORDO
100
AcDbCircle
 62
250
  6
CONTINUOUS
 10
11.8370654474
 20
-9.4879640877
 40
0.1908053662
100
AcDbArc
 50
89.0345513205
 51
148.2166627655
  0
ARC
  5
6F9
100
AcDbEntity
  8
DRAFT
100
AcDbCircle
 62
7
  6
CONTINUOUS
 10
25.1172176023
 20
-23.3402383125
 40
9.0194718193
100
AcDbArc
 50
134.9999225029
 51
135.1333676442
  0
ARC
  5
6FA
100
AcDbEntity
  8
RACCORDO
100
AcDbCircle
 62
7
  6
CONTINUOUS
 10
14.3394965425
 20
-21.3125
 40
0.5
100
AcDbArc
 50
0.0
 51
90.0
  0
ARC
  5
6FB
100
AcDbEntity
  8
RACCORDO
100
AcDbCircle
 62
7
  6
CONTINUOUS
 10
14.3394965425
 20
-23.1625
 40
0.5
100
AcDbArc
 50
270.0
 51
360.0
  0
ARC
  5
6FC
100
AcDbEntity
  8
RACCORDO
100
AcDbCircle
 62
250
  6
CONTINUOUS
 10
15.3965508316
 20
-27.6694892235
 40
0.2499686569
100
AcDbArc
 50
330.718949905
 51
359.9835452433
  0
ARC
  5
6FD
100
AcDbEntity
  8
RACCORDO
100
AcDbCircle
 62
7
  6
CONTINUOUS
 10
18.4895470428
 20
-28.5375505003
 40
0.2499495
100
AcDbArc
 50
269.9971520285
 51
0.0028479715
  0
ARC
  5
6FE
100
AcDbEntity
  8
RACCORDO
100
AcDbCircle
 62
250
  6
CONTINUOUS
 10
15.3966837284
 20
-27.0299886549
 40
0.2498358005
100
AcDbArc
 50
0.0365256547
 51
29.2885029936
  0
ARC
  5
6FF
100
AcDbEntity
  8
RACCORDO
100
AcDbCircle
 62
250
  6
CONTINUOUS
 10
15.3966837284
 20
-26.095011345
 40
0.2498358005
100
AcDbArc
 50
330.7114970064
 51
359.9634743453
  0
ARC
  5
700
100
AcDbEntity
  8
RACCORDO
100
AcDbCircle
 62
250
  6
CONTINUOUS
 10
15.3966837284
 20
-24.5299886549
 40
0.2498358005
100
AcDbArc
 50
0.0365256547
 51
29.2885029936
  0
ARC
  5
701
100
AcDbEntity
  8
DRAFT
100
AcDbCircle
 62
7
  6
CONTINUOUS
 10
25.1172176023
 20
-16.9847616874
 40
9.0194718193
100
AcDbArc
 50
224.8666323558
 51
225.0000774971
  0
ARC
  5
702
100
AcDbEntity
  8
DRAFT
100
AcDbCircle
 62
7
  6
CONTINUOUS
 10
18.7394965425
 20
-20.1625
 40
3.2
100
AcDbArc
 50
270.0
 51
90.0
  0
ARC
  5
703
100
AcDbEntity
  8
DRAFT
100
AcDbCircle
 62
7
  6
CONTINUOUS
 10
18.7394965425
 20
-20.1625
 40
3.1851631948
100
AcDbArc
 50
269.733109627
 51
90.266890373
  0
ARC
  5
704
100
AcDbEntity
  8
DRAFT
100
AcDbCircle
 62
7
  6
CONTINUOUS
 10
19.4894965425
 20
-20.1625
 40
1.175
100
AcDbArc
 50
70.0313601105
 51
109.9686398895
  0
ARC
  5
705
100
AcDbEntity
  8
DRAFT
100
AcDbCircle
 62
7
  6
CONTINUOUS
 10
19.4894965425
 20
-20.1625
 40
1.175
100
AcDbArc
 50
250.0313601105
 51
289.9686398895
  0
ARC
  5
706
100
AcDbEntity
  8
DRAFT
100
AcDbCircle
 62
7
  6
CONTINUOUS
 10
19.4894965425
 20
-20.1625
 40
0.825
100
AcDbArc
 50
304.0986720093
 51
55.9013279907
  0
ARC
  5
707
100
AcDbEntity
  8
DRAFT
100
AcDbCircle
 62
7
  6
CONTINUOUS
 10
19.4894965425
 20
-20.1625
 40
0.825
100
AcDbArc
 50
124.0986720093
 51
235.9013279907
  0
CIRCLE
  5
708
100
AcDbEntity
  8
0
100
AcDbCircle
 62
7
  6
CONTINUOUS
 10
19.4894965425
 20
-20.1625
 40
0.75
  0
ARC
  5
709
100
AcDbEntity
  8
0
100
AcDbCircle
 62
7
  6
CONTINUOUS
 10
19.4894965425
 20
-20.1625
 40
0.6
100
AcDbArc
 50
255.0
 51
195.0
  0
ARC
  5
70A
100
AcDbEntity
  8
RACCORDO
100
AcDbCircle
 62
250
  6
CONTINUOUS
 10
15.3963949898
 20
-9.5301495329
 40
0.2501679061
100
AcDbArc
 50
34.7756971181
 51
89.9627679416
  0
ARC
  5
70B
100
AcDbEntity
  8
RACCORDO
100
AcDbCircle
 62
250
  6
CONTINUOUS
 10
15.3966447905
 20
-9.5300199506
 40
0.2498850712
100
AcDbArc
 50
25.7486971548
 51
29.2903938064
  0
ARC
  5
70C
100
AcDbEntity
  8
RACCORDO
100
AcDbCircle
 62
250
  6
CONTINUOUS
 10
15.3966837284
 20
-11.095011345
 40
0.2498358005
100
AcDbArc
 50
330.7114970064
 51
359.9634743453
  0
ARC
  5
70D
100
AcDbEntity
  8
DRAFT
100
AcDbCircle
 62
7
  6
CONTINUOUS
 10
25.1172176034
 20
23.0152383137
 40
9.019471821
100
AcDbArc
 50
224.8666323558
 51
225.0000774971
  0
ARC
  5
70E
100
AcDbEntity
  8
DRAFT
100
AcDbCircle
 62
7
  6
CONTINUOUS
 10
25.1172176003
 20
16.6597616894
 40
9.0194718166
100
AcDbArc
 50
134.9999225029
 51
135.1333676442
  0
ARC
  5
70F
100
AcDbEntity
  8
DRAFT
100
AcDbCircle
 62
7
  6
CONTINUOUS
 10
18.7394965425
 20
19.8375
 40
3.2
100
AcDbArc
 50
270.0
 51
90.0
  0
ARC
  5
710
100
AcDbEntity
  8
DRAFT
100
AcDbCircle
 62
7
  6
CONTINUOUS
 10
18.7394965425
 20
19.8375
 40
3.1851631948
100
AcDbArc
 50
269.733109627
 51
90.266890373
  0
ARC
  5
711
100
AcDbEntity
  8
DRAFT
100
AcDbCircle
 62
7
  6
CONTINUOUS
 10
19.4894965425
 20
19.8375
 40
1.175
100
AcDbArc
 50
250.0313601105
 51
289.9686398895
  0
ARC
  5
712
100
AcDbEntity
  8
DRAFT
100
AcDbCircle
 62
7
  6
CONTINUOUS
 10
19.4894965425
 20
19.8375
 40
1.175
100
AcDbArc
 50
70.0313601105
 51
109.9686398895
  0
ARC
  5
713
100
AcDbEntity
  8
DRAFT
100
AcDbCircle
 62
7
  6
CONTINUOUS
 10
19.4894965425
 20
19.8375
 40
0.825
100
AcDbArc
 50
304.0986720093
 51
55.9013279907
  0
ARC
  5
714
100
AcDbEntity
  8
DRAFT
100
AcDbCircle
 62
7
  6
CONTINUOUS
 10
19.4894965425
 20
19.8375
 40
0.825
100
AcDbArc
 50
124.0986720093
 51
235.9013279907
  0
CIRCLE
  5
715
100
AcDbEntity
  8
0
100
AcDbCircle
 62
7
  6
CONTINUOUS
 10
19.4894965425
 20
19.8375
 40
0.75
  0
ARC
  5
716
100
AcDbEntity
  8
0
100
AcDbCircle
 62
7
  6
CONTINUOUS
 10
19.4894965425
 20
19.8375
 40
0.6
100
AcDbArc
 50
75.0528759535
 51
15.0528759535
  0
ARC
  5
717
100
AcDbEntity
  8
RACCORDO
100
AcDbCircle
 62
7
  6
CONTINUOUS
 10
18.4895470428
 20
28.2125505003
 40
0.2499495
100
AcDbArc
 50
359.9971520285
 51
90.0028479715
  0
SPLINE
  5
718
100
AcDbEntity
  8
RACCORDO
100
AcDbSpline
 62
7
  6
CONTINUOUS
 70
0
 71
3
 72
8
 73
4
 74
0
 42
0.0000001
 43
0.0000001
 44
0.0000000001
 40
0.0
 40
0.0
 40
0.0
 40
0.0
 40
1.0
 40
1.0
 40
1.0
 40
1.0
 10
7.332590176
 20
-11.8219238996
 30
0.0
 10
7.3590576696
 20
-11.8387644741
 30
0.0
 10
7.3820454696
 20
-11.8626092301
 30
0.0
 10
7.3979211936
 20
-11.889666476
 30
0.0
  0
SPLINE
  5
719
100
AcDbEntity
  8
RACCORDO
100
AcDbSpline
 62
7
  6
CONTINUOUS
 70
0
 71
3
 72
9
 73
5
 74
0
 42
0.0000001
 43
0.0000001
 44
0.0000000001
 40
0.0
 40
0.0
 40
0.0
 40
0.0
 40
0.2570174074
 40
1.0
 40
1.0
 40
1.0
 40
1.0
 10
19.9281039372
 20
19.2313138347
 30
0.0
 10
19.9252248146
 20
19.1886112316
 30
0.0
 10
19.9135381121
 20
19.0224971443
 30
0.0
 10
19.9006130365
 20
18.8564732739
 30
0.0
 10
19.8907658145
 20
18.7331413756
 30
0.0
  0
SPLINE
  5
71A
100
AcDbEntity
  8
RACCORDO
100
AcDbSpline
 62
7
  6
CONTINUOUS
 70
0
 71
3
 72
9
 73
5
 74
0
 42
0.0000001
 43
0.0000001
 44
0.0000000001
 40
0.0
 40
0.0
 40
0.0
 40
0.0
 40
0.2444372726
 40
1.0
 40
1.0
 40
1.0
 40
1.0
 10
19.0882272705
 20
18.7331413756
 30
0.0
 10
19.0849875925
 20
18.7737168437
 30
0.0
 10
19.0718677875
 20
18.9397224479
 30
0.0
 10
19.0593529884
 20
19.1057797472
 30
0.0
 10
19.0508891478
 20
19.2313138347
 30
0.0
  0
SPLINE
  5
71B
100
AcDbEntity
  8
RACCORDO
100
AcDbSpline
 62
7
  6
CONTINUOUS
 70
0
 71
3
 72
9
 73
5
 74
0
 42
0.0000001
 43
0.0000001
 44
0.0000000001
 40
0.0
 40
0.0
 40
0.0
 40
0.0
 40
0.2570174074
 40
1.0
 40
1.0
 40
1.0
 40
1.0
 10
19.0508891478
 20
20.4436861653
 30
0.0
 10
19.0537682704
 20
20.4863887685
 30
0.0
 10
19.0654549728
 20
20.6525028557
 30
0.0
 10
19.0783800485
 20
20.8185267262
 30
0.0
 10
19.0882272705
 20
20.9418586245
 30
0.0
  0
SPLINE
  5
71C
100
AcDbEntity
  8
RACCORDO
100
AcDbSpline
 62
7
  6
CONTINUOUS
 70
0
 71
3
 72
9
 73
5
 74
0
 42
0.0000001
 43
0.0000001
 44
0.0000000001
 40
0.0
 40
0.0
 40
0.0
 40
0.0
 40
0.2444372726
 40
1.0
 40
1.0
 40
1.0
 40
1.0
 10
19.8907658145
 20
20.9418586245
 30
0.0
 10
19.8940054925
 20
20.9012831563
 30
0.0
 10
19.9071252975
 20
20.7352775521
 30
0.0
 10
19.9196400966
 20
20.5692202528
 30
0.0
 10
19.9281039372
 20
20.4436861653
 30
0.0
  0
SPLINE
  5
71D
100
AcDbEntity
  8
RACCORDO
100
AcDbSpline
 62
7
  6
CONTINUOUS
 70
0
 71
3
 72
9
 73
5
 74
0
 42
0.0000001
 43
0.0000001
 44
0.0000000001
 40
0.0
 40
0.0
 40
0.0
 40
0.0
 40
0.2570174074
 40
1.0
 40
1.0
 40
1.0
 40
1.0
 10
19.0508891478
 20
-19.5563138347
 30
0.0
 10
19.0537682704
 20
-19.5136112315
 30
0.0
 10
19.0654549728
 20
-19.3474971443
 30
0.0
 10
19.0783800485
 20
-19.1814732738
 30
0.0
 10
19.0882272705
 20
-19.0581413755
 30
0.0
  0
SPLINE
  5
71E
100
AcDbEntity
  8
RACCORDO
100
AcDbSpline
 62
7
  6
CONTINUOUS
 70
0
 71
3
 72
9
 73
5
 74
0
 42
0.0000001
 43
0.0000001
 44
0.0000000001
 40
0.0
 40
0.0
 40
0.0
 40
0.0
 40
0.2444372726
 40
1.0
 40
1.0
 40
1.0
 40
1.0
 10
19.8907658145
 20
-19.0581413755
 30
0.0
 10
19.8940054925
 20
-19.0987168437
 30
0.0
 10
19.9071252975
 20
-19.2647224479
 30
0.0
 10
19.9196400966
 20
-19.4307797472
 30
0.0
 10
19.9281039372
 20
-19.5563138347
 30
0.0
  0
SPLINE
  5
71F
100
AcDbEntity
  8
RACCORDO
100
AcDbSpline
 62
7
  6
CONTINUOUS
 70
0
 71
3
 72
9
 73
5
 74
0
 42
0.0000001
 43
0.0000001
 44
0.0000000001
 40
0.0
 40
0.0
 40
0.0
 40
0.0
 40
0.2570174074
 40
1.0
 40
1.0
 40
1.0
 40
1.0
 10
19.9281039372
 20
-20.7686861653
 30
0.0
 10
19.9252248146
 20
-20.8113887684
 30
0.0
 10
19.9135381121
 20
-20.9775028557
 30
0.0
 10
19.9006130365
 20
-21.1435267261
 30
0.0
 10
19.8907658145
 20
-21.2668586244
 30
0.0
  0
SPLINE
  5
720
100
AcDbEntity
  8
RACCORDO
100
AcDbSpline
 62
7
  6
CONTINUOUS
 70
0
 71
3
 72
9
 73
5
 74
0
 42
0.0000001
 43
0.0000001
 44
0.0000000001
 40
0.0
 40
0.0
 40
0.0
 40
0.0
 40
0.2444372726
 40
1.0
 40
1.0
 40
1.0
 40
1.0
 10
19.0882272705
 20
-21.2668586244
 30
0.0
 10
19.0849875925
 20
-21.2262831563
 30
0.0
 10
19.0718677875
 20
-21.0602775521
 30
0.0
 10
19.0593529884
 20
-20.8942202528
 30
0.0
 10
19.0508891478
 20
-20.7686861653
 30
0.0
  0
SPLINE
  5
721
100
AcDbEntity
  8
RACCORDO
100
AcDbSpline
 62
7
  6
CONTINUOUS
 70
0
 71
3
 72
8
 73
4
 74
0
 42
0.0000001
 43
0.0000001
 44
0.0000000001
 40
0.0
 40
0.0
 40
0.0
 40
0.0
 40
1.0
 40
1.0
 40
1.0
 40
1.0
 10
-8.9189281086
 20
-11.889666476
 30
0.0
 10
-8.9030523845
 20
-11.8626092253
 30
0.0
 10
-8.8800645784
 20
-11.8387644677
 30
0.0
 10
-8.8535970801
 20
-11.8219238927
 30
0.0
  0
SPLINE
  5
722
100
AcDbEntity
  8
RACCORDO
100
AcDbSpline
 62
7
  6
CONTINUOUS
 70
0
 71
3
 72
9
 73
5
 74
0
 42
0.0000001
 43
0.0000001
 44
0.0000000001
 40
0.0
 40
0.0
 40
0.0
 40
0.0
 40
0.2400218466
 40
1.0
 40
1.0
 40
1.0
 40
1.0
 10
-13.2568875358
 20
-9.287594659
 30
0.0
 10
-13.2460554851
 20
-9.2874271349
 30
0.0
 10
-13.2009256466
 20
-9.2867636063
 30
0.0
 10
-13.1557905464
 20
-9.2863890068
 30
0.0
 10
-13.1214890591
 20
-9.2863890773
 30
0.0
  0
SPLINE
  5
723
100
AcDbEntity
  8
RACCORDO
100
AcDbSpline
 62
7
  6
CONTINUOUS
 70
0
 71
3
 72
9
 73
5
 74
0
 42
0.0000001
 43
0.0000001
 44
0.0000000001
 40
0.0
 40
0.0
 40
0.0
 40
0.0
 40
0.2447372314
 40
1.0
 40
1.0
 40
1.0
 40
1.0
 10
-13.36128715
 20
-9.2971859553
 30
0.0
 10
-13.3528756341
 20
-9.2956029924
 30
0.0
 10
-13.3183306563
 20
-9.290051469
 30
0.0
 10
-13.2832981012
 20
-9.2880031141
 30
0.0
 10
-13.2568875358
 20
-9.287594659
 30
0.0
  0
SPLINE
  5
724
100
AcDbEntity
  8
RACCORDO
100
AcDbSpline
 62
7
  6
CONTINUOUS
 70
0
 71
3
 72
9
 73
5
 74
0
 42
0.0000001
 43
0.0000001
 44
0.0000000001
 40
0.0
 40
0.0
 40
0.0
 40
0.0
 40
0.2734356224
 40
1.0
 40
1.0
 40
1.0
 40
1.0
 10
7.4163210847
 20
-11.7866884719
 30
0.0
 10
7.3988971373
 20
-11.786852547
 30
0.0
 10
7.3351766737
 20
-11.7876799863
 30
0.0
 10
7.2714704666
 20
-11.7893205518
 30
0.0
 10
7.2251877911
 20
-11.7906018338
 30
0.0
  0
SPLINE
  5
725
100
AcDbEntity
  8
RACCORDO
100
AcDbSpline
 62
250
  6
CONTINUOUS
 70
0
 71
3
 72
13
 73
9
 74
0
 42
0.0000001
 43
0.0000001
 44
0.0000000001
 40
0.0
 40
0.0
 40
0.0
 40
0.0
 40
0.3728856248
 40
0.6916336889
 40
0.8159375958
 40
0.9105043231
 40
0.9724943997
 40
1.0
 40
1.0
 40
1.0
 40
1.0
 10
-16.7854408597
 20
-16.8678127911
 30
0.0
 10
-16.7856366406
 20
-16.8553238668
 30
0.0
 10
-16.7849230132
 20
-16.8321712678
 30
0.0
 10
-16.7840020924
 20
-16.8048052502
 30
0.0
 10
-16.7825186812
 20
-16.7869230927
 30
0.0
 10
-16.781674264
 20
-16.7774272525
 30
0.0
 10
-16.7802637055
 20
-16.7716273258
 30
0.0
 10
-16.7794914576
 20
-16.7684646734
 30
0.0
 10
-16.7787846032
 20
-16.7678737084
 30
0.0
  0
SPLINE
  5
726
100
AcDbEntity
  8
RACCORDO
100
AcDbSpline
 62
250
  6
CONTINUOUS
 70
0
 71
3
 72
13
 73
9
 74
0
 42
0.0000001
 43
0.0000001
 44
0.0000000001
 40
0.0
 40
0.0
 40
0.0
 40
0.0
 40
0.4280200238
 40
0.741107122
 40
0.8522995915
 40
0.9324005626
 40
0.981295409
 40
1.0
 40
1.0
 40
1.0
 40
1.0
 10
-9.1570618667
 20
-12.279918978
 30
0.0
 10
-9.1607306881
 20
-12.2765052762
 30
0.0
 10
-9.1670358169
 20
-12.2705800387
 30
0.0
 10
-9.1742644288
 20
-12.2635979841
 30
0.0
 10
-9.1783178133
 20
-12.259431439
 30
0.0
 10
-9.1803475188
 20
-12.2572664349
 30
0.0
 10
-9.18121498
 20
-12.2560993867
 30
0.0
 10
-9.1818800511
 20
-12.2552215787
 30
0.0
 10
-9.1817362298
 20
-12.2550564265
 30
0.0
  0
SPLINE
  5
727
100
AcDbEntity
  8
RACCORDO
100
AcDbSpline
 62
250
  6
CONTINUOUS
 70
0
 71
3
 72
17
 73
13
 74
0
 42
0.0000001
 43
0.0000001
 44
0.0000000001
 40
0.0
 40
0.0
 40
0.0
 40
0.0
 40
0.2126772276
 40
0.4073509169
 40
0.5798404124
 40
0.7263504493
 40
0.8437493017
 40
0.929526249
 40
0.9599513205
 40
0.9818372665
 40
0.9951346766
 40
1.0
 40
1.0
 40
1.0
 40
1.0
 10
-8.8454347336
 20
-12.0064857119
 30
0.0
 10
-8.8528407358
 20
-12.0018265366
 30
0.0
 10
-8.8670125908
 20
-11.9928822771
 30
0.0
 10
-8.8871434696
 20
-11.980080524
 30
0.0
 10
-8.9049233279
 20
-11.9686665908
 30
0.0
 10
-8.9199928877
 20
-11.9588819472
 30
0.0
 10
-8.9319581546
 20
-11.9509600255
 30
0.0
 10
-8.9399889054
 20
-11.9455406347
 30
0.0
 10
-8.9445154602
 20
-11.9422831133
 30
0.0
 10
-8.9468510286
 20
-11.9406093783
 30
0.0
 10
-8.9478109343
 20
-11.9396652556
 30
0.0
 10
-8.9486734033
 20
-11.9390116143
 30
0.0
 10
-8.9485680883
 20
-11.9388413975
 30
0.0
  0
SPLINE
  5
728
100
AcDbEntity
  8
RACCORDO
100
AcDbSpline
 62
250
  6
CONTINUOUS
 70
0
 71
3
 72
14
 73
10
 74
0
 42
0.0000001
 43
0.0000001
 44
0.0000000001
 40
0.0
 40
0.0
 40
0.0
 40
0.0
 40
0.0283486972
 40
0.0898218575
 40
0.1843990954
 40
0.3086584369
 40
0.4580689602
 40
0.6272906657
 40
1.0
 40
1.0
 40
1.0
 40
1.0
 10
-16.7787846032
 20
-18.8571262916
 30
0.0
 10
-16.7796722234
 20
-18.8567876456
 30
0.0
 10
-16.7804803751
 20
-18.8532288584
 30
0.0
 10
-16.7814556626
 20
-18.8476302312
 30
0.0
 10
-16.7825877695
 20
-18.8380474436
 30
0.0
 10
-16.7835146772
 20
-18.8258414162
 30
0.0
 10
-16.7843112305
 20
-18.8109845455
 30
0.0
 10
-16.7852730292
 20
-18.7878480781
 30
0.0
 10
-16.7850982848
 20
-18.7696728125
 30
0.0
 10
-16.7854408597
 20
-18.7571872089
 30
0.0
  0
SPLINE
  5
729
100
AcDbEntity
  8
RACCORDO
100
AcDbSpline
 62
250
  6
CONTINUOUS
 70
0
 71
3
 72
17
 73
13
 74
0
 42
0.0000001
 43
0.0000001
 44
0.0000000001
 40
0.0
 40
0.0
 40
0.0
 40
0.0
 40
0.212677399
 40
0.4073514076
 40
0.5798412786
 40
0.726351639
 40
0.8437506537
 40
0.9295275002
 40
0.9599523968
 40
0.9818380739
 40
0.9951351191
 40
1.0
 40
1.0
 40
1.0
 40
1.0
 10
7.3244278087
 20
-12.0064857054
 30
0.0
 10
7.331833884
 20
-12.0018264816
 30
0.0
 10
7.3460058846
 20
-11.9928821258
 30
0.0
 10
7.3661369776
 20
-11.9800802326
 30
0.0
 10
7.3839170339
 20
-11.9686661725
 30
0.0
 10
7.3989867669
 20
-11.9588814188
 30
0.0
 10
7.410952153
 20
-11.9509594287
 30
0.0
 10
7.4189829942
 20
-11.9455399791
 30
0.0
 10
7.4235095552
 20
-11.9422824708
 30
0.0
 10
7.4258451549
 20
-11.9406087038
 30
0.0
 10
7.4268049824
 20
-11.9396646726
 30
0.0
 10
7.4276674822
 20
-11.9390109772
 30
0.0
 10
7.4275621347
 20
-11.9388407998
 30
0.0
  0
SPLINE
  5
72A
100
AcDbEntity
  8
RACCORDO
100
AcDbSpline
 62
250
  6
CONTINUOUS
 70
0
 71
3
 72
13
 73
9
 74
0
 42
0.0000001
 43
0.0000001
 44
0.0000000001
 40
0.0
 40
0.0
 40
0.0
 40
0.0
 40
0.4280188858
 40
0.7411053636
 40
0.8522978489
 40
0.9323991108
 40
0.9812945454
 40
1.0
 40
1.0
 40
1.0
 40
1.0
 10
7.6360550089
 20
-12.2799190046
 30
0.0
 10
7.6397238341
 20
-12.2765052966
 30
0.0
 10
7.6460289722
 20
-12.2705800426
 30
0.0
 10
7.6532575868
 20
-12.2635979767
 30
0.0
 10
7.6573109854
 20
-12.2594313981
 30
0.0
 10
7.659340691
 20
-12.2572663941
 30
0.0
 10
7.6602081819
 20
-12.2560992867
 30
0.0
 10
7.660873249
 20
-12.255221495
 30
0.0
 10
7.660729438
 20
-12.2550563193
 30
0.0
  0
SPLINE
  5
72B
100
AcDbEntity
  8
RACCORDO
100
AcDbSpline
 62
250
  6
CONTINUOUS
 70
0
 71
3
 72
16
 73
12
 74
0
 42
0.0000001
 43
0.0000001
 44
0.0000000001
 40
0.0
 40
0.0
 40
0.0
 40
0.0
 40
0.1983603809
 40
0.3849016931
 40
0.554374781
 40
0.7019892391
 40
0.8232928418
 40
0.9148910004
 40
0.974852376
 40
0.9919358699
 40
1.0
 40
1.0
 40
1.0
 40
1.0
 10
7.2570653234
 20
-23.742140013
 30
0.0
 10
7.2569913244
 20
-23.7476751831
 30
0.0
 10
7.2567324644
 20
-23.7584141571
 30
0.0
 10
7.2565294205
 20
-23.7738826484
 30
0.0
 10
7.2562369584
 20
-23.7879385629
 30
0.0
 10
7.2557888183
 20
-23.8001537847
 30
0.0
 10
7.2554042991
 20
-23.8102379611
 30
0.0
 10
7.2551458041
 20
-23.8177734194
 30
0.0
 10
7.2541872349
 20
-23.82257626
 30
0.0
 10
7.2535899431
 20
-23.8246763322
 30
0.0
 10
7.2534931797
 20
-23.8255470669
 30
0.0
 10
7.2536745574
 20
-23.8256802889
 30
0.0
  0
SPLINE
  5
72C
100
AcDbEntity
  8
RACCORDO
100
AcDbSpline
 62
250
  6
CONTINUOUS
 70
0
 71
3
 72
16
 73
12
 74
0
 42
0.0000001
 43
0.0000001
 44
0.0000000001
 40
0.0
 40
0.0
 40
0.0
 40
0.0
 40
0.1983603858
 40
0.3849017016
 40
0.5543747912
 40
0.7019892499
 40
0.8232928536
 40
0.9148910105
 40
0.9748523798
 40
0.9919358748
 40
1.0
 40
1.0
 40
1.0
 40
1.0
 10
-8.7780722389
 20
-23.7421400121
 30
0.0
 10
-8.77799824
 20
-23.7476751823
 30
0.0
 10
-8.7777393795
 20
-23.7584141566
 30
0.0
 10
-8.777536335
 20
-23.7738826482
 30
0.0
 10
-8.7772438735
 20
-23.7879385629
 30
0.0
 10
-8.7767957337
 20
-23.8001537848
 30
0.0
 10
-8.7764112126
 20
-23.8102379612
 30
0.0
 10
-8.776152719
 20
-23.8177734192
 30
0.0
 10
-8.7751941512
 20
-23.82257626
 30
0.0
 10
-8.7745968622
 20
-23.8246763324
 30
0.0
 10
-8.7745000953
 20
-23.8255470662
 30
0.0
 10
-8.7746814723
 20
-23.8256802889
 30
0.0
  0
SPLINE
  5
72D
100
AcDbEntity
  8
RACCORDO
100
AcDbSpline
 62
250
  6
CONTINUOUS
 70
0
 71
3
 72
11
 73
7
 74
0
 42
0.0000001
 43
0.0000001
 44
0.0000000001
 40
0.0
 40
0.0
 40
0.0
 40
0.0
 40
0.0943172578
 40
0.2937093161
 40
0.5968544646
 40
1.0
 40
1.0
 40
1.0
 40
1.0
 10
7.2273560733
 20
-11.7942920256
 30
0.0
 10
7.2279531367
 20
-11.7949757079
 30
0.0
 10
7.2286269119
 20
-11.797867276
 30
0.0
 10
7.2300955683
 20
-11.8033096096
 30
0.0
 10
7.2316928559
 20
-11.8119413476
 30
0.0
 10
7.2328915145
 20
-11.8186125999
 30
0.0
 10
7.2335410335
 20
-11.8224376472
 30
0.0
  0
LINE
  5
72E
100
AcDbEntity
  8
RACCORDO
100
AcDbLine
 62
250
  6
CONTINUOUS
 10
-8.6597867985
 20
-9.2943940362
 11
-8.6616752139
 21
-9.2906018338
  0
LINE
  5
72F
100
AcDbEntity
  8
RACCORDO
100
AcDbLine
 62
250
  6
CONTINUOUS
 10
-16.9175644694
 20
-9.2799816796
 11
-14.6078635146
 21
-9.2850123503
  0
LINE
  5
730
100
AcDbEntity
  8
RACCORDO
100
AcDbLine
 62
250
  6
CONTINUOUS
 10
13.0868565995
 20
-9.2850123503
 11
15.3965575544
 21
-9.2799816796
  0
LINE
  5
731
100
AcDbEntity
  8
RACCORDO
100
AcDbLine
 62
250
  6
CONTINUOUS
 10
11.9696911935
 20
-9.2871667421
 11
12.1402993202
 21
-9.2868495155
  0
LINE
  5
732
100
AcDbEntity
  8
RACCORDO
100
AcDbLine
 62
250
  6
CONTINUOUS
 10
7.1406682989
 20
-9.2906018338
 11
7.1387798826
 21
-9.294394038
  0
SPLINE
  5
733
100
AcDbEntity
  8
RACCORDO
100
AcDbSpline
 62
250
  6
CONTINUOUS
 70
0
 71
3
 72
8
 73
4
 74
0
 42
0.0000001
 43
0.0000001
 44
0.0000000001
 40
0.0
 40
0.0
 40
0.0
 40
0.0
 40
1.0
 40
1.0
 40
1.0
 40
1.0
 10
4.1259279078
 20
-9.2971859506
 30
0.0
 10
5.1302120788
 20
-9.296474725
 30
0.0
 10
6.1344961184
 20
-9.2955441567
 30
0.0
 10
7.1387798826
 20
-9.294394038
 30
0.0
  0
SPLINE
  5
734
100
AcDbEntity
  8
RACCORDO
100
AcDbSpline
 62
250
  6
CONTINUOUS
 70
0
 71
3
 72
8
 73
4
 74
0
 42
0.0000001
 43
0.0000001
 44
0.0000000001
 40
0.0
 40
0.0
 40
0.0
 40
0.0
 40
1.0
 40
1.0
 40
1.0
 40
1.0
 10
-8.6597867985
 20
-9.2943940362
 30
0.0
 10
-7.6555030362
 20
-9.2955441557
 30
0.0
 10
-6.6512189986
 20
-9.296474725
 30
0.0
 10
-5.6469348297
 20
-9.2971859506
 30
0.0
  0
SPLINE
  5
735
100
AcDbEntity
  8
RACCORDO
100
AcDbSpline
 62
250
  6
CONTINUOUS
 70
0
 71
3
 72
13
 73
9
 74
0
 42
0.0000001
 43
0.0000001
 44
0.0000000001
 40
0.0
 40
0.0
 40
0.0
 40
0.0
 40
0.4000151792
 40
0.7089448875
 40
0.8240702349
 40
0.9108757195
 40
0.9685729141
 40
1.0
 40
1.0
 40
1.0
 40
1.0
 10
15.4099859659
 20
-9.3874555299
 30
0.0
 10
15.4092754131
 20
-9.3729385488
 30
0.0
 10
15.4077955378
 20
-9.3472350502
 30
0.0
 10
15.4051060558
 20
-9.3173581311
 30
0.0
 10
15.4025031681
 20
-9.2990334293
 30
0.0
 10
15.4007196963
 20
-9.2896580616
 30
0.0
 10
15.399275994
 20
-9.2836562211
 30
0.0
 10
15.3976106863
 20
-9.2804230665
 30
0.0
 10
15.3965575547
 20
-9.2799816796
 30
0.0
  0
SPLINE
  5
736
100
AcDbEntity
  8
RACCORDO
100
AcDbSpline
 62
250
  6
CONTINUOUS
 70
0
 71
3
 72
13
 73
9
 74
0
 42
0.0000001
 43
0.0000001
 44
0.0000000001
 40
0.0
 40
0.0
 40
0.0
 40
0.0
 40
0.4020869424
 40
0.7115034619
 40
0.8264996533
 40
0.9133095409
 40
0.9712071942
 40
1.0
 40
1.0
 40
1.0
 40
1.0
 10
13.098175208
 20
-9.3873741559
 30
0.0
 10
13.0975640322
 20
-9.3735253553
 30
0.0
 10
13.0962263126
 20
-9.34904316
 30
0.0
 10
13.0940065546
 20
-9.3205926089
 30
0.0
 10
13.0918951667
 20
-9.3031399443
 30
0.0
 10
13.0904264807
 20
-9.2942147679
 30
0.0
 10
13.0887372857
 20
-9.2886252202
 30
0.0
 10
13.0876390846
 20
-9.2856231548
 30
0.0
 10
13.0868565992
 20
-9.2850123503
 30
0.0
  0
LINE
  5
737
100
AcDbEntity
  8
RACCORDO
100
AcDbLine
 62
250
  6
CONTINUOUS
 10
-14.4992881373
 20
-23.8397702945
 11
-15.2218681983
 21
-23.8412491349
  0
SPLINE
  5
738
100
AcDbEntity
  8
RACCORDO
100
AcDbSpline
 62
250
  6
CONTINUOUS
 70
0
 71
3
 72
9
 73
5
 74
0
 42
0.0000001
 43
0.0000001
 44
0.0000000001
 40
0.0
 40
0.0
 40
0.0
 40
0.0
 40
0.5390849233
 40
1.0
 40
1.0
 40
1.0
 40
1.0
 10
-14.4992881373
 20
-23.8397702945
 30
0.0
 10
-14.5059111532
 20
-23.8464107803
 30
0.0
 10
-14.5157289552
 20
-23.8617191986
 30
0.0
 10
-14.5176317158
 20
-23.8794927538
 30
0.0
 10
-14.5172021273
 20
-23.8875
 30
0.0
  0
LINE
  5
739
100
AcDbEntity
  8
RACCORDO
100
AcDbLine
 62
250
  6
CONTINUOUS
 10
-8.7746814723
 20
-23.8256802889
 11
-8.9224297115
 21
-23.8258534328
  0
LINE
  5
73A
100
AcDbEntity
  8
RACCORDO
100
AcDbLine
 62
250
  6
CONTINUOUS
 10
7.4014227964
 20
-23.8258534328
 11
7.2536745574
 21
-23.8256802889
  0
LINE
  5
73B
100
AcDbEntity
  8
RACCORDO
100
AcDbLine
 62
250
  6
CONTINUOUS
 10
-13.0422870854
 20
-23.8370195701
 11
-13.773165775
 21
-23.8383607954
  0
SPLINE
  5
73C
100
AcDbEntity
  8
RACCORDO
100
AcDbSpline
 62
250
  6
CONTINUOUS
 70
0
 71
3
 72
9
 73
5
 74
0
 42
0.0000001
 43
0.0000001
 44
0.0000000001
 40
0.0
 40
0.0
 40
0.0
 40
0.0
 40
0.4575859223
 40
1.0
 40
1.0
 40
1.0
 40
1.0
 10
-13.7538047877
 20
-23.8875
 30
0.0
 10
-13.7533621906
 20
-23.8792498106
 30
0.0
 10
-13.7554365574
 20
-23.8607751394
 30
0.0
 10
-13.7660531885
 20
-23.8450933609
 30
0.0
 10
-13.773165775
 20
-23.8383607954
 30
0.0
  0
LINE
  5
73D
100
AcDbEntity
  8
RACCORDO
100
AcDbLine
 62
250
  6
CONTINUOUS
 10
7.2251877911
 20
-11.7906018338
 11
7.2273560733
 21
-11.7942920256
  0
LINE
  5
73E
100
AcDbEntity
  8
RACCORDO
100
AcDbLine
 62
250
  6
CONTINUOUS
 10
-8.7483629894
 20
-11.7942920275
 11
-8.7461947061
 21
-11.7906018338
  0
SPLINE
  5
73F
100
AcDbEntity
  8
RACCORDO
100
AcDbSpline
 62
250
  6
CONTINUOUS
 70
0
 71
3
 72
10
 73
6
 74
0
 42
0.0000001
 43
0.0000001
 44
0.0000000001
 40
0.0
 40
0.0
 40
0.0
 40
0.0
 40
0.305783611
 40
0.5881517149
 40
1.0
 40
1.0
 40
1.0
 40
1.0
 10
11.7773888056
 20
-15.3376003713
 30
0.0
 10
11.7777852233
 20
-15.3604523794
 30
0.0
 10
11.7768279383
 20
-15.4044222928
 30
0.0
 10
11.7753161034
 20
-15.4791278488
 30
0.0
 10
11.7731380946
 20
-15.5310365933
 30
0.0
 10
11.7699798874
 20
-15.5616572849
 30
0.0
  0
SPLINE
  5
740
100
AcDbEntity
  8
RACCORDO
100
AcDbSpline
 62
250
  6
CONTINUOUS
 70
0
 71
3
 72
9
 73
5
 74
0
 42
0.0000001
 43
0.0000001
 44
0.0000000001
 40
0.0
 40
0.0
 40
0.0
 40
0.0
 40
0.5404918266
 40
1.0
 40
1.0
 40
1.0
 40
1.0
 10
11.7773888056
 20
-16.6873996286
 30
0.0
 10
11.7779383524
 20
-16.6557204223
 30
0.0
 10
11.7763782204
 20
-16.5970959952
 30
0.0
 10
11.7749033223
 20
-16.5384915633
 30
0.0
 10
11.7734737292
 20
-16.5115928664
 30
0.0
  0
SPLINE
  5
741
100
AcDbEntity
  8
RACCORDO
100
AcDbSpline
 62
250
  6
CONTINUOUS
 70
0
 71
3
 72
9
 73
5
 74
0
 42
0.0000001
 43
0.0000001
 44
0.0000000001
 40
0.0
 40
0.0
 40
0.0
 40
0.0
 40
0.518151439
 40
1.0
 40
1.0
 40
1.0
 40
1.0
 10
11.7773888056
 20
-19.8876003713
 30
0.0
 10
11.7777684646
 20
-19.9094863053
 30
0.0
 10
11.7768570355
 20
-19.9517363243
 30
0.0
 10
11.7760988669
 20
-19.9939708541
 30
0.0
 10
11.7754856502
 20
-20.0143172327
 30
0.0
  0
SPLINE
  5
742
100
AcDbEntity
  8
RACCORDO
100
AcDbSpline
 62
250
  6
CONTINUOUS
 70
0
 71
3
 72
10
 73
6
 74
0
 42
0.0000001
 43
0.0000001
 44
0.0000000001
 40
0.0
 40
0.0
 40
0.0
 40
0.0
 40
0.305783611
 40
0.5881517149
 40
1.0
 40
1.0
 40
1.0
 40
1.0
 10
11.7773888056
 20
-23.3876003713
 30
0.0
 10
11.7777852233
 20
-23.4104523794
 30
0.0
 10
11.7768279383
 20
-23.4544222928
 30
0.0
 10
11.7753161034
 20
-23.5291278488
 30
0.0
 10
11.7731380946
 20
-23.5810365933
 30
0.0
 10
11.7699798874
 20
-23.6116572849
 30
0.0
  0
SPLINE
  5
743
100
AcDbEntity
  8
RACCORDO
100
AcDbSpline
 62
250
  6
CONTINUOUS
 70
0
 71
3
 72
13
 73
9
 74
0
 42
0.0000001
 43
0.0000001
 44
0.0000000001
 40
0.0
 40
0.0
 40
0.0
 40
0.0
 40
0.4020869412
 40
0.7115034707
 40
0.8264996751
 40
0.9133095921
 40
0.9712072833
 40
1.0
 40
1.0
 40
1.0
 40
1.0
 10
-14.6191821223
 20
-9.3873741469
 30
0.0
 10
-14.6185709457
 20
-9.3735253483
 30
0.0
 10
-14.6172332236
 20
-9.3490431556
 30
0.0
 10
-14.6150134719
 20
-9.3205926084
 30
0.0
 10
-14.6129020884
 20
-9.3031399419
 30
0.0
 10
-14.6114333932
 20
-9.2942147685
 30
0.0
 10
-14.6097441769
 20
-9.2886252203
 30
0.0
 10
-14.6086459866
 20
-9.2856231662
 30
0.0
 10
-14.6078635142
 20
-9.2850123503
 30
0.0
  0
SPLINE
  5
744
100
AcDbEntity
  8
RACCORDO
100
AcDbSpline
 62
250
  6
CONTINUOUS
 70
0
 71
3
 72
13
 73
9
 74
0
 42
0.0000001
 43
0.0000001
 44
0.0000000001
 40
0.0
 40
0.0
 40
0.0
 40
0.0
 40
0.4000152174
 40
0.7089449399
 40
0.8240702879
 40
0.9108757933
 40
0.9685730136
 40
1.0
 40
1.0
 40
1.0
 40
1.0
 10
-16.9309928826
 20
-9.3874555623
 30
0.0
 10
-16.9302823287
 20
-9.3729385763
 30
0.0
 10
-16.9288024507
 20
-9.34723507
 30
0.0
 10
-16.9261129745
 20
-9.3173581408
 30
0.0
 10
-16.9235100895
 20
-9.2990334333
 30
0.0
 10
-16.9217266114
 20
-9.2896580613
 30
0.0
 10
-16.9202828853
 20
-9.2836562287
 30
0.0
 10
-16.9186175957
 20
-9.2804230714
 30
0.0
 10
-16.9175644698
 20
-9.2799816796
 30
0.0
  0
SPLINE
  5
745
100
AcDbEntity
  8
RACCORDO
100
AcDbSpline
 62
7
  6
CONTINUOUS
 70
0
 71
3
 72
11
 73
7
 74
0
 42
0.0000001
 43
0.0000001
 44
0.0000000001
 40
0.0
 40
0.0
 40
0.0
 40
0.0
 40
0.2499936611
 40
0.4999409932
 40
0.7498568857
 40
1.0
 40
1.0
 40
1.0
 40
1.0
 10
-16.7939668303
 20
-18.8875
 30
0.0
 10
-16.8071128161
 20
-18.8875
 30
0.0
 10
-16.8336946914
 20
-18.8821777738
 30
0.0
 10
-16.8671616724
 20
-18.8594533253
 30
0.0
 10
-16.8892445471
 20
-18.8255487424
 30
0.0
 10
-16.8941902798
 20
-18.7989539425
 30
0.0
 10
-16.8941902798
 20
-18.7858000976
 30
0.0
  0
SPLINE
  5
746
100
AcDbEntity
  8
RACCORDO
100
AcDbSpline
 62
250
  6
CONTINUOUS
 70
0
 71
3
 72
14
 73
10
 74
0
 42
0.0000001
 43
0.0000001
 44
0.0000000001
 40
0.0
 40
0.0
 40
0.0
 40
0.0
 40
0.0283487799
 40
0.0898219568
 40
0.1843991939
 40
0.3086585233
 40
0.4580690284
 40
0.6272907121
 40
1.0
 40
1.0
 40
1.0
 40
1.0
 10
-16.7787846032
 20
-16.3571262916
 30
0.0
 10
-16.7796722274
 20
-16.356787648
 30
0.0
 10
-16.7804804039
 20
-16.3532288643
 30
0.0
 10
-16.7814556936
 20
-16.3476302306
 30
0.0
 10
-16.7825878122
 20
-16.3380474448
 30
0.0
 10
-16.7835147202
 20
-16.3258414162
 30
0.0
 10
-16.784311271
 20
-16.3109845457
 30
0.0
 10
-16.7852730577
 20
-16.2878480779
 30
0.0
 10
-16.7850982983
 20
-16.2696728127
 30
0.0
 10
-16.7854408597
 20
-16.2571872089
 30
0.0
  0
SPLINE
  5
747
100
AcDbEntity
  8
RACCORDO
100
AcDbSpline
 62
250
  6
CONTINUOUS
 70
0
 71
3
 72
20
 73
16
 74
0
 42
0.0000001
 43
0.0000001
 44
0.0000000001
 40
0.0
 40
0.0
 40
0.0
 40
0.0
 40
0.0031402494
 40
0.0122254876
 40
0.0266763369
 40
0.0455963253
 40
0.0931438219
 40
0.1495035062
 40
0.2113211274
 40
0.2767820614
 40
0.4144330433
 40
0.5574490857
 40
0.7034923288
 40
0.8513060046
 40
1.0
 40
1.0
 40
1.0
 40
1.0
 10
-16.8787693728
 20
-15.7714543364
 30
0.0
 10
-16.8786019364
 20
-15.7713211261
 30
0.0
 10
-16.8780824951
 20
-15.772622409
 30
0.0
 10
-16.8771906883
 20
-15.7736095269
 30
0.0
 10
-16.8757501668
 20
-15.7764365193
 30
0.0
 10
-16.8731209967
 20
-15.7811134675
 30
0.0
 10
-16.8691847822
 20
-15.7886075861
 30
0.0
 10
-16.8639484724
 20
-15.7985688535
 30
0.0
 10
-16.8581879797
 20
-15.8096895921
 30
0.0
 10
-16.8499235668
 20
-15.825732851
 30
0.0
 10
-16.8391897502
 20
-15.846734749
 30
0.0
 10
-16.8260235567
 20
-15.872656006
 30
0.0
 10
-16.8125944978
 20
-15.8992214191
 30
0.0
 10
-16.7990372206
 20
-15.9261551487
 30
0.0
 10
-16.7899790813
 20
-15.9442133744
 30
0.0
 10
-16.7854408597
 20
-15.9532714369
 30
0.0
  0
SPLINE
  5
748
100
AcDbEntity
  8
RACCORDO
100
AcDbSpline
 62
250
  6
CONTINUOUS
 70
0
 71
3
 72
11
 73
7
 74
0
 42
0.0000001
 43
0.0000001
 44
0.0000000001
 40
0.0
 40
0.0
 40
0.0
 40
0.0
 40
0.4031455398
 40
0.7062906851
 40
0.905682742
 40
1.0
 40
1.0
 40
1.0
 40
1.0
 10
-8.7545479207
 20
-11.8224375708
 30
0.0
 10
-8.7538984043
 20
-11.8186125342
 30
0.0
 10
-8.7526997508
 20
-11.8119413008
 30
0.0
 10
-8.7511024705
 20
-11.8033095877
 30
0.0
 10
-8.7496338209
 20
-11.7978672683
 30
0.0
 10
-8.7489600495
 20
-11.7949757091
 30
0.0
 10
-8.7483629894
 20
-11.7942920275
 30
0.0
  0
SPLINE
  5
749
100
AcDbEntity
  8
RACCORDO
100
AcDbSpline
 62
7
  6
CONTINUOUS
 70
0
 71
3
 72
11
 73
7
 74
0
 42
0.0000001
 43
0.0000001
 44
0.0000000001
 40
0.0
 40
0.0
 40
0.0
 40
0.0
 40
0.2500682755
 40
0.5000277485
 40
0.7499964281
 40
1.0
 40
1.0
 40
1.0
 40
1.0
 10
-16.8941902798
 20
-18.7858000976
 30
0.0
 10
-16.8961273097
 20
-18.8106044874
 30
0.0
 10
-16.9091003005
 20
-18.8600081031
 30
0.0
 10
-16.9542576443
 20
-18.9215737208
 30
0.0
 10
-17.0187768687
 20
-18.9623534673
 30
0.0
 10
-17.0690172141
 20
-18.9718492646
 30
0.0
 10
-17.0938906849
 20
-18.9718492646
 30
0.0
  0
SPLINE
  5
74A
100
AcDbEntity
  8
RACCORDO
100
AcDbSpline
 62
250
  6
CONTINUOUS
 70
0
 71
3
 72
14
 73
10
 74
0
 42
0.0000001
 43
0.0000001
 44
0.0000000001
 40
0.0
 40
0.0
 40
0.0
 40
0.0
 40
0.0238030344
 40
0.0825699767
 40
0.1751594898
 40
0.2985089092
 40
0.4482270662
 40
0.6191379596
 40
1.0
 40
1.0
 40
1.0
 40
1.0
 10
-16.99832064
 20
-15.5983637788
 30
0.0
 10
-16.9986392877
 20
-15.5976757021
 30
0.0
 10
-16.9964802627
 20
-15.5951295029
 30
0.0
 10
-16.99377442
 20
-15.5909312962
 30
0.0
 10
-16.9877653891
 20
-15.5841206244
 30
0.0
 10
-16.9801635506
 20
-15.5754750583
 30
0.0
 10
-16.9705190592
 20
-15.5650614031
 30
0.0
 10
-16.9551757197
 20
-15.5488427644
 30
0.0
 10
-16.9428776641
 20
-15.5362695169
 30
0.0
 10
-16.9343249061
 20
-15.5276638703
 30
0.0
  0
SPLINE
  5
74B
100
AcDbEntity
  8
RACCORDO
100
AcDbSpline
 62
250
  6
CONTINUOUS
 70
0
 71
3
 72
14
 73
10
 74
0
 42
0.0000001
 43
0.0000001
 44
0.0000000001
 40
0.0
 40
0.0
 40
0.0
 40
0.0
 40
0.3808565391
 40
0.5517750262
 40
0.7015032717
 40
0.8248620586
 40
0.9174568959
 40
0.9762209952
 40
1.0
 40
1.0
 40
1.0
 40
1.0
 10
-16.7854408597
 20
-15.9532714369
 30
0.0
 10
-16.7768852724
 20
-15.9446635986
 30
0.0
 10
-16.7645821652
 20
-15.932087667
 30
0.0
 10
-16.7492305695
 20
-15.9158668992
 30
0.0
 10
-16.7395790998
 20
-15.9054525558
 30
0.0
 10
-16.7319714764
 20
-15.8968064506
 30
0.0
 10
-16.7259543034
 20
-15.8899984587
 30
0.0
 10
-16.7232472688
 20
-15.8857998874
 30
0.0
 10
-16.7210803913
 20
-15.8832598638
 30
0.0
 10
-16.7213972074
 20
-15.8825715285
 30
0.0
  0
SPLINE
  5
74C
100
AcDbEntity
  8
RACCORDO
100
AcDbSpline
 62
250
  6
CONTINUOUS
 70
0
 71
3
 72
18
 73
14
 74
0
 42
0.0000001
 43
0.0000001
 44
0.0000000001
 40
0.0
 40
0.0
 40
0.0
 40
0.0
 40
0.0067060194
 40
0.0240230951
 40
0.0516430879
 40
0.0889505903
 40
0.1352265085
 40
0.1896124221
 40
0.3192026258
 40
0.4708410623
 40
0.6382878245
 40
0.8162904887
 40
1.0
 40
1.0
 40
1.0
 40
1.0
 10
-17.1675263932
 20
-15.3913728035
 30
0.0
 10
-17.1669406024
 20
-15.3912261217
 30
0.0
 10
-17.1649455492
 20
-15.3927545067
 30
0.0
 10
-17.1608539277
 20
-15.3943723671
 30
0.0
 10
-17.1543477578
 20
-15.3982283657
 30
0.0
 10
-17.1456269152
 20
-15.4030172638
 30
0.0
 10
-17.1348357804
 20
-15.4092234663
 30
0.0
 10
-17.11687567
 20
-15.419562443
 30
0.0
 10
-17.0907672719
 20
-15.434798238
 30
0.0
 10
-17.0559427217
 20
-15.4552790186
 30
0.0
 10
-17.0174244589
 20
-15.4780851397
 30
0.0
 10
-16.9764722052
 20
-15.5024465875
 30
0.0
 10
-16.9485128825
 20
-15.5191566547
 30
0.0
 10
-16.9343249061
 20
-15.5276638703
 30
0.0
  0
SPLINE
  5
74D
100
AcDbEntity
  8
RACCORDO
100
AcDbSpline
 62
250
  6
CONTINUOUS
 70
0
 71
3
 72
13
 73
9
 74
0
 42
0.0000001
 43
0.0000001
 44
0.0000000001
 40
0.0
 40
0.0
 40
0.0
 40
0.0
 40
0.0247331696
 40
0.0815430224
 40
0.1694188747
 40
0.2867651259
 40
0.6006190088
 40
1.0
 40
1.0
 40
1.0
 40
1.0
 10
-12.38474673
 20
-21.3358793094
 30
0.0
 10
-12.3850359255
 20
-21.3347419692
 30
0.0
 10
-12.3850191594
 20
-21.3308234092
 30
0.0
 10
-12.3854709955
 20
-21.3228335075
 30
0.0
 10
-12.3856425762
 20
-21.3103807332
 30
0.0
 10
-12.3860829884
 20
-21.2857673799
 30
0.0
 10
-12.3864342335
 20
-21.2463510275
 30
0.0
 10
-12.3866563973
 20
-21.2125132652
 30
0.0
 10
-12.3867483598
 20
-21.1935637828
 30
0.0
  0
SPLINE
  5
74E
100
AcDbEntity
  8
RACCORDO
100
AcDbSpline
 62
7
  6
CONTINUOUS
 70
0
 71
3
 72
11
 73
7
 74
0
 42
0.0000001
 43
0.0000001
 44
0.0000000001
 40
0.0
 40
0.0
 40
0.0
 40
0.0
 40
0.3850675006
 40
0.7021652634
 40
0.9152645766
 40
1.0
 40
1.0
 40
1.0
 40
1.0
 10
-14.4938255009
 20
-23.8068428825
 30
0.0
 10
-14.4803997651
 20
-23.8078623158
 30
0.0
 10
-14.4559169654
 20
-23.8096464604
 30
0.0
 10
-14.4239989335
 20
-23.8121889095
 30
0.0
 10
-14.4025512843
 20
-23.8133039102
 30
0.0
 10
-14.3921574304
 20
-23.8144457257
 30
0.0
 10
-14.3891963852
 20
-23.8143413635
 30
0.0
  0
SPLINE
  5
74F
100
AcDbEntity
  8
RACCORDO
100
AcDbSpline
 62
250
  6
CONTINUOUS
 70
0
 71
3
 72
16
 73
12
 74
0
 42
0.0000001
 43
0.0000001
 44
0.0000000001
 40
0.0
 40
0.0
 40
0.0
 40
0.0
 40
0.3729063863
 40
0.5421919336
 40
0.6917211997
 40
0.8159826775
 40
0.9105049575
 40
0.9456008591
 40
0.9722558105
 40
0.9903596043
 40
1.0
 40
1.0
 40
1.0
 40
1.0
 10
-16.0484754259
 20
-22.0318487084
 30
0.0
 10
-16.04897117
 20
-22.0006284033
 30
0.0
 10
-16.047559691
 20
-21.9552244626
 30
0.0
 10
-16.045854576
 20
-21.8973355285
 30
0.0
 10
-16.043907944
 20
-21.8602782648
 30
0.0
 10
-16.0416052102
 20
-21.8295338044
 30
0.0
 10
-16.0394317959
 20
-21.808357304
 30
0.0
 10
-16.0373750748
 20
-21.7954584107
 30
0.0
 10
-16.0358944465
 20
-21.7888782804
 30
0.0
 10
-16.0343883118
 20
-21.7846728903
 30
0.0
 10
-16.0333001914
 20
-21.7824553158
 30
0.0
 10
-16.0326329675
 20
-21.7820010017
 30
0.0
  0
SPLINE
  5
750
100
AcDbEntity
  8
RACCORDO
100
AcDbSpline
 62
250
  6
CONTINUOUS
 70
0
 71
3
 72
11
 73
7
 74
0
 42
0.0000001
 43
0.0000001
 44
0.0000000001
 40
0.0
 40
0.0
 40
0.0
 40
0.0
 40
0.4000298654
 40
0.701881618
 40
0.9009773315
 40
1.0
 40
1.0
 40
1.0
 40
1.0
 10
-14.5060529957
 20
-23.8057198977
 30
0.0
 10
-14.5055877281
 20
-23.8103605676
 30
0.0
 10
-14.5046705665
 20
-23.8184466187
 30
0.0
 10
-14.5031309424
 20
-23.8289921776
 30
0.0
 10
-14.5015214927
 20
-23.8355174661
 30
0.0
 10
-14.5002777549
 20
-23.8391757099
 30
0.0
 10
-14.4992881374
 20
-23.8397702958
 30
0.0
  0
SPLINE
  5
751
100
AcDbEntity
  8
RACCORDO
100
AcDbSpline
 62
7
  6
CONTINUOUS
 70
0
 71
3
 72
9
 73
5
 74
0
 42
0.0000001
 43
0.0000001
 44
0.0000000001
 40
0.0
 40
0.0
 40
0.0
 40
0.0
 40
0.2491099059
 40
1.0
 40
1.0
 40
1.0
 40
1.0
 10
-14.5060544382
 20
-23.8057218916
 30
0.0
 10
-14.5820010432
 20
-23.7975565352
 30
0.0
 10
-14.8857453087
 20
-23.7547560356
 30
0.0
 10
-15.1836569666
 20
-23.6724723213
 30
0.0
 10
-15.3992851107
 20
-23.5917439315
 30
0.0
  0
SPLINE
  5
752
100
AcDbEntity
  8
RACCORDO
100
AcDbSpline
 62
250
  6
CONTINUOUS
 70
0
 71
3
 72
11
 73
7
 74
0
 42
0.0000001
 43
0.0000001
 44
0.0000000001
 40
0.0
 40
0.0
 40
0.0
 40
0.0
 40
0.0897303098
 40
0.2850172972
 40
0.5897196187
 40
1.0
 40
1.0
 40
1.0
 40
1.0
 10
-14.4799943535
 20
-23.7748578646
 30
0.0
 10
-14.4810423665
 20
-23.7749500644
 30
0.0
 10
-14.4831348122
 20
-23.7783428137
 30
0.0
 10
-14.4859513421
 20
-23.7841163689
 30
0.0
 10
-14.4897617593
 20
-23.7943770855
 30
0.0
 10
-14.4923692404
 20
-23.8022562162
 30
0.0
 10
-14.4938235778
 20
-23.8068415171
 30
0.0
  0
SPLINE
  5
753
100
AcDbEntity
  8
RACCORDO
100
AcDbSpline
 62
7
  6
CONTINUOUS
 70
0
 71
3
 72
14
 73
10
 74
0
 42
0.0000001
 43
0.0000001
 44
0.0000000001
 40
0.0
 40
0.0
 40
0.0
 40
0.0
 40
0.3971963436
 40
0.5685029237
 40
0.7156663239
 40
0.835032343
 40
0.9234631844
 40
0.978624002
 40
1.0
 40
1.0
 40
1.0
 40
1.0
 10
-13.7916463388
 20
-23.8066280358
 30
0.0
 10
-13.8034926925
 20
-23.8075546688
 30
0.0
 10
-13.8204487829
 20
-23.8088859193
 30
0.0
 10
-13.841787331
 20
-23.8106063516
 30
0.0
 10
-13.8548487463
 20
-23.8116508898
 30
0.0
 10
-13.8654130368
 20
-23.8125933157
 30
0.0
 10
-13.8732930378
 20
-23.8131310555
 30
0.0
 10
-13.8781312177
 20
-23.8138098372
 30
0.0
 10
-13.8804984814
 20
-23.8137560992
 30
0.0
 10
-13.8810884085
 20
-23.8140029336
 30
0.0
  0
SPLINE
  5
754
100
AcDbEntity
  8
RACCORDO
100
AcDbSpline
 62
7
  6
CONTINUOUS
 70
0
 71
3
 72
9
 73
5
 74
0
 42
0.0000001
 43
0.0000001
 44
0.0000000001
 40
0.0
 40
0.0
 40
0.0
 40
0.0
 40
0.4955536979
 40
1.0
 40
1.0
 40
1.0
 40
1.0
 10
-13.7794635716
 20
-23.8054768465
 30
0.0
 10
-13.6288184952
 20
-23.7888262957
 30
0.0
 10
-13.3268380525
 20
-23.7341652332
 30
0.0
 10
-13.0345210271
 20
-23.6415255115
 30
0.0
 10
-12.890240316
 20
-23.5868804837
 30
0.0
  0
SPLINE
  5
755
100
AcDbEntity
  8
RACCORDO
100
AcDbSpline
 62
250
  6
CONTINUOUS
 70
0
 71
3
 72
11
 73
7
 74
0
 42
0.0000001
 43
0.0000001
 44
0.0000000001
 40
0.0
 40
0.0
 40
0.0
 40
0.0
 40
0.0986207735
 40
0.2976264833
 40
0.5995373238
 40
1.0
 40
1.0
 40
1.0
 40
1.0
 10
-13.7731657759
 20
-23.8383607979
 30
0.0
 10
-13.7741035795
 20
-23.8377698802
 30
0.0
 10
-13.7752406135
 20
-23.8342365155
 30
0.0
 10
-13.7767451862
 20
-23.8279364147
 30
0.0
 10
-13.7781579807
 20
-23.8177573194
 30
0.0
 10
-13.779024463
 20
-23.8099546725
 30
0.0
 10
-13.7794709378
 20
-23.805475867
 30
0.0
  0
SPLINE
  5
756
100
AcDbEntity
  8
RACCORDO
100
AcDbSpline
 62
250
  6
CONTINUOUS
 70
0
 71
3
 72
17
 73
13
 74
0
 42
0.0000001
 43
0.0000001
 44
0.0000000001
 40
0.0
 40
0.0
 40
0.0
 40
0.0
 40
0.1902249761
 40
0.3736180279
 40
0.5432055305
 40
0.6929348519
 40
0.8172793144
 40
0.9117627907
 40
0.9467096143
 40
0.9729857758
 40
0.9905151745
 40
1.0
 40
1.0
 40
1.0
 40
1.0
 10
-12.2465922014
 20
-22.039219811
 30
0.0
 10
-12.2462926039
 20
-22.0233261914
 30
0.0
 10
-12.2462953284
 20
-21.9921023616
 30
0.0
 10
-12.2457716941
 20
-21.9467096398
 30
0.0
 10
-12.2445418868
 20
-21.9047180207
 30
0.0
 10
-12.2431547146
 20
-21.8676635315
 30
0.0
 10
-12.2414962444
 20
-21.8369200258
 30
0.0
 10
-12.2397321963
 20
-21.8157518368
 30
0.0
 10
-12.2381773486
 20
-21.8028725107
 30
0.0
 10
-12.237214825
 20
-21.7962876759
 30
0.0
 10
-12.2363483988
 20
-21.7920694034
 30
0.0
 10
-12.2353830923
 20
-21.7897557621
 30
0.0
 10
-12.2346895191
 20
-21.7893721043
 30
0.0
  0
SPLINE
  5
757
100
AcDbEntity
  8
RACCORDO
100
AcDbSpline
 62
250
  6
CONTINUOUS
 70
0
 71
3
 72
11
 73
7
 74
0
 42
0.0000001
 43
0.0000001
 44
0.0000000001
 40
0.0
 40
0.0
 40
0.0
 40
0.0
 40
0.4099292942
 40
0.7145123617
 40
0.9096930123
 40
1.0
 40
1.0
 40
1.0
 40
1.0
 10
-13.7916463388
 20
-23.8066280358
 30
0.0
 10
-13.7921067957
 20
-23.8024079529
 30
0.0
 10
-13.7928230944
 20
-23.7951148046
 30
0.0
 10
-13.7934496789
 20
-23.7854836455
 30
0.0
 10
-13.7932652899
 20
-23.7797913737
 30
0.0
 10
-13.7927907751
 20
-23.7763170509
 30
0.0
 10
-13.791980371
 20
-23.7758503183
 30
0.0
  0
SPLINE
  5
758
100
AcDbEntity
  8
RACCORDO
100
AcDbSpline
 62
7
  6
CONTINUOUS
 70
0
 71
3
 72
9
 73
5
 74
0
 42
0.0000001
 43
0.0000001
 44
0.0000000001
 40
0.0
 40
0.0
 40
0.0
 40
0.0
 40
0.2601416416
 40
1.0
 40
1.0
 40
1.0
 40
1.0
 10
11.9696911935
 20
-9.2871667421
 30
0.0
 10
11.9584313371
 20
-9.2873165147
 30
0.0
 10
11.9151684356
 20
-9.2882659593
 30
0.0
 10
11.8718488106
 20
-9.2917858761
 30
0.0
 10
11.8402802101
 20
-9.2971824032
 30
0.0
  0
SPLINE
  5
759
100
AcDbEntity
  8
RACCORDO
100
AcDbSpline
 62
250
  6
CONTINUOUS
 70
0
 71
3
 72
9
 73
5
 74
0
 42
0.0000001
 43
0.0000001
 44
0.0000000001
 40
0.0
 40
0.0
 40
0.0
 40
0.0
 40
0.6155196569
 40
1.0
 40
1.0
 40
1.0
 40
1.0
 10
11.8547947241
 20
-9.3874859813
 30
0.0
 10
11.8523613542
 20
-9.3688743646
 30
0.0
 10
11.8480552005
 20
-9.3387014385
 30
0.0
 10
11.8430751221
 20
-9.3085689738
 30
0.0
 10
11.8402802101
 20
-9.2971824032
 30
0.0
  0
SPLINE
  5
75A
100
AcDbEntity
  8
RACCORDO
100
AcDbSpline
 62
250
  6
CONTINUOUS
 70
0
 71
3
 72
14
 73
10
 74
0
 42
0.0000001
 43
0.0000001
 44
0.0000000001
 40
0.0
 40
0.0
 40
0.0
 40
0.0
 40
0.4023854431
 40
0.5697565059
 40
0.7117454773
 40
0.8266446395
 40
0.9130231889
 40
0.9700863175
 40
1.0
 40
1.0
 40
1.0
 40
1.0
 10
12.1507376712
 20
-9.3873665772
 30
0.0
 10
12.150172706
 20
-9.3737609202
 30
0.0
 10
12.1492433284
 20
-9.3544960852
 30
0.0
 10
12.1475479192
 20
-9.3304760934
 30
0.0
 10
12.146227681
 20
-9.3161599876
 30
0.0
 10
12.1448576886
 20
-9.304671609
 30
0.0
 10
12.1435266564
 20
-9.2959091061
 30
0.0
 10
12.1424250391
 20
-9.2903905748
 30
0.0
 10
12.1412046389
 20
-9.2873025127
 30
0.0
 10
12.1402993205
 20
-9.2868495155
 30
0.0
  0
SPLINE
  5
75B
100
AcDbEntity
  8
RACCORDO
100
AcDbSpline
 62
250
  6
CONTINUOUS
 70
0
 71
3
 72
14
 73
10
 74
0
 42
0.0000001
 43
0.0000001
 44
0.0000000001
 40
0.0
 40
0.0
 40
0.0
 40
0.0
 40
0.4023854904
 40
0.5697565609
 40
0.7117455385
 40
0.8266447009
 40
0.913023272
 40
0.9700864238
 40
1.0
 40
1.0
 40
1.0
 40
1.0
 10
-13.6717445858
 20
-9.387366576
 30
0.0
 10
-13.6711796197
 20
-9.3737609185
 30
0.0
 10
-13.6702502415
 20
-9.3544960831
 30
0.0
 10
-13.6685548326
 20
-9.3304760912
 30
0.0
 10
-13.6672346012
 20
-9.3161599853
 30
0.0
 10
-13.6658646091
 20
-9.3046716067
 30
0.0
 10
-13.6645335696
 20
-9.2959091037
 30
0.0
 10
-13.6634319254
 20
-9.2903905799
 30
0.0
 10
-13.6622115466
 20
-9.2873025192
 30
0.0
 10
-13.6613062355
 20
-9.2868495155
 30
0.0
  0
SPLINE
  5
75C
100
AcDbEntity
  8
RACCORDO
100
AcDbSpline
 62
250
  6
CONTINUOUS
 70
0
 71
3
 72
9
 73
5
 74
0
 42
0.0000001
 43
0.0000001
 44
0.0000000001
 40
0.0
 40
0.0
 40
0.0
 40
0.0
 40
0.3844801385
 40
1.0
 40
1.0
 40
1.0
 40
1.0
 10
-13.3612870965
 20
-9.2971823545
 30
0.0
 10
-13.3640820168
 20
-9.3085689239
 30
0.0
 10
-13.3690621316
 20
-9.3387014012
 30
0.0
 10
-13.3733682724
 20
-9.3688743479
 30
0.0
 10
-13.3758016452
 20
-9.3874859818
 30
0.0
  0
LINE
  5
75D
100
AcDbEntity
  8
RACCORDO
100
AcDbLine
 62
250
  6
CONTINUOUS
 10
-13.6613062352
 20
-9.2868495155
 11
-13.2568875358
 21
-9.287594659
  0
SPLINE
  5
75E
100
AcDbEntity
  8
RACCORDO
100
AcDbSpline
 62
250
  6
CONTINUOUS
 70
0
 71
3
 72
15
 73
11
 74
0
 42
0.0000001
 43
0.0000001
 44
0.0000000001
 40
0.0
 40
0.0
 40
0.0
 40
0.0
 40
0.4008323142
 40
0.7066512864
 40
0.8196661343
 40
0.9063036669
 40
0.9400587024
 40
0.9653323001
 40
0.9817245929
 40
1.0
 40
1.0
 40
1.0
 40
1.0
 10
-5.6507685257
 20
-9.3874401269
 30
0.0
 10
-5.6505387805
 20
-9.3751897546
 30
0.0
 10
-5.6497222727
 20
-9.3535936283
 30
0.0
 10
-5.6493958133
 20
-9.3285645869
 30
0.0
 10
-5.6494104552
 20
-9.3130763034
 30
0.0
 10
-5.6479636626
 20
-9.3060320451
 30
0.0
 10
-5.6462174623
 20
-9.3018904851
 30
0.0
 10
-5.6453082916
 20
-9.2998477409
 30
0.0
 10
-5.6451687763
 20
-9.297755373
 30
0.0
 10
-5.6463865619
 20
-9.2972930898
 30
0.0
 10
-5.6469348291
 20
-9.2971859504
 30
0.0
  0
SPLINE
  5
75F
100
AcDbEntity
  8
RACCORDO
100
AcDbSpline
 62
250
  6
CONTINUOUS
 70
0
 71
3
 72
14
 73
10
 74
0
 42
0.0000001
 43
0.0000001
 44
0.0000000001
 40
0.0
 40
0.0
 40
0.0
 40
0.0
 40
0.406460637
 40
0.5748268278
 40
0.7172749688
 40
0.8320896614
 40
0.9180147541
 40
0.9740601175
 40
1.0
 40
1.0
 40
1.0
 40
1.0
 10
-8.6555837113
 20
-9.38742071
 30
0.0
 10
-8.6565353048
 20
-9.3748258877
 30
0.0
 10
-8.6578252133
 20
-9.3570069537
 30
0.0
 10
-8.6591923441
 20
-9.3347648959
 30
0.0
 10
-8.659903638
 20
-9.3215456411
 30
0.0
 10
-8.6602853251
 20
-9.3109188278
 30
0.0
 10
-8.660537441
 20
-9.3028678327
 30
0.0
 10
-8.660244085
 20
-9.2977914651
 30
0.0
 10
-8.6602273789
 20
-9.295069056
 30
0.0
 10
-8.6597867987
 20
-9.2943940357
 30
0.0
  0
SPLINE
  5
760
100
AcDbEntity
  8
RACCORDO
100
AcDbSpline
 62
250
  6
CONTINUOUS
 70
0
 71
3
 72
15
 73
11
 74
0
 42
0.0000001
 43
0.0000001
 44
0.0000000001
 40
0.0
 40
0.0
 40
0.0
 40
0.0
 40
0.4008327041
 40
0.7066519764
 40
0.8196669083
 40
0.9063043032
 40
0.9400592833
 40
0.9653329266
 40
0.981725205
 40
1.0
 40
1.0
 40
1.0
 40
1.0
 10
4.1297616058
 20
-9.3874401657
 30
0.0
 10
4.1295318645
 20
-9.3751897877
 30
0.0
 10
4.1287153908
 20
-9.3535936532
 30
0.0
 10
4.1283888405
 20
-9.328564596
 30
0.0
 10
4.1284035032
 20
-9.3130763217
 30
0.0
 10
4.1269568233
 20
-9.3060320504
 30
0.0
 10
4.1252106447
 20
-9.3018904822
 30
0.0
 10
4.1243014891
 20
-9.2998477433
 30
0.0
 10
4.1241619084
 20
-9.2977554006
 30
0.0
 10
4.1253796595
 20
-9.2972930901
 30
0.0
 10
4.1259279072
 20
-9.2971859506
 30
0.0
  0
SPLINE
  5
761
100
AcDbEntity
  8
RACCORDO
100
AcDbSpline
 62
250
  6
CONTINUOUS
 70
0
 71
3
 72
8
 73
4
 74
0
 42
0.0000001
 43
0.0000001
 44
0.0000000001
 40
0.0
 40
0.0
 40
0.0
 40
0.0
 40
1.0
 40
1.0
 40
1.0
 40
1.0
 10
-15.6741476391
 20
-21.2504398102
 30
0.0
 10
-15.6795971066
 20
-21.2531197644
 30
0.0
 10
-15.6857987494
 20
-21.2547040548
 30
0.0
 10
-15.6918713581
 20
-21.2546563768
 30
0.0
  0
SPLINE
  5
762
100
AcDbEntity
  8
RACCORDO
100
AcDbSpline
 62
250
  6
CONTINUOUS
 70
0
 71
3
 72
14
 73
10
 74
0
 42
0.0000001
 43
0.0000001
 44
0.0000000001
 40
0.0
 40
0.0
 40
0.0
 40
0.0
 40
0.0259398814
 40
0.0819852458
 40
0.1679103387
 40
0.2827250311
 40
0.425173172
 40
0.5935393628
 40
1.0
 40
1.0
 40
1.0
 40
1.0
 10
7.1387798828
 20
-9.2943940375
 30
0.0
 10
7.1392204627
 20
-9.295069058
 30
0.0
 10
7.1392371692
 20
-9.2977914667
 30
0.0
 10
7.1395305252
 20
-9.3028678344
 30
0.0
 10
7.139278408
 20
-9.3109188292
 30
0.0
 10
7.1388967194
 20
-9.3215456423
 30
0.0
 10
7.1381854254
 20
-9.3347648968
 30
0.0
 10
7.1368182949
 20
-9.3570069543
 30
0.0
 10
7.1355283859
 20
-9.3748258879
 30
0.0
 10
7.1345767921
 20
-9.3874207099
 30
0.0
  0
SPLINE
  5
763
100
AcDbEntity
  8
RACCORDO
100
AcDbSpline
 62
250
  6
CONTINUOUS
 70
0
 71
3
 72
13
 73
9
 74
0
 42
0.0000001
 43
0.0000001
 44
0.0000000001
 40
0.0
 40
0.0
 40
0.0
 40
0.0
 40
0.0327869625
 40
0.0961897503
 40
0.1910951825
 40
0.3148761475
 40
0.6309385436
 40
1.0
 40
1.0
 40
1.0
 40
1.0
 10
-15.7034003919
 20
-21.354595452
 30
0.0
 10
-15.7023373785
 20
-21.3542759881
 30
0.0
 10
-15.7005139992
 20
-21.3510329522
 30
0.0
 10
-15.6987095473
 20
-21.3451090052
 30
0.0
 10
-15.6968326536
 20
-21.3355924212
 30
0.0
 10
-15.6944653031
 20
-21.3177122215
 30
0.0
 10
-15.6925022375
 20
-21.2903290401
 30
0.0
 10
-15.6919213266
 20
-21.2671505925
 30
0.0
 10
-15.6918713581
 20
-21.2546563768
 30
0.0
  0
SPLINE
  5
764
100
AcDbEntity
  8
RACCORDO
100
AcDbSpline
 62
250
  6
CONTINUOUS
 70
0
 71
3
 72
14
 73
10
 74
0
 42
0.0000001
 43
0.0000001
 44
0.0000000001
 40
0.0
 40
0.0
 40
0.0
 40
0.0
 40
0.384253392
 40
0.5544687231
 40
0.7027928437
 40
0.8245037926
 40
0.9158522816
 40
0.9743345446
 40
1.0
 40
1.0
 40
1.0
 40
1.0
 10
-15.6918713581
 20
-21.2546563768
 30
0.0
 10
-15.703288175
 20
-21.2545641673
 30
0.0
 10
-15.719769308
 20
-21.2542400404
 30
0.0
 10
-15.7406164192
 20
-21.2533364787
 30
0.0
 10
-15.7537104614
 20
-21.2525210374
 30
0.0
 10
-15.764303207
 20
-21.2515624993
 30
0.0
 10
-15.7725614283
 20
-21.2505441132
 30
0.0
 10
-15.7771869776
 20
-21.2494638202
 30
0.0
 10
-15.7801413077
 20
-21.2485797159
 30
0.0
 10
-15.7803270687
 20
-21.247840098
 30
0.0
  0
SPLINE
  5
765
100
AcDbEntity
  8
RACCORDO
100
AcDbSpline
 62
250
  6
CONTINUOUS
 70
0
 71
3
 72
20
 73
16
 74
0
 42
0.0000001
 43
0.0000001
 44
0.0000000001
 40
0.0
 40
0.0
 40
0.0
 40
0.0
 40
0.0021571666
 40
0.0075727381
 40
0.0162515574
 40
0.028112645
 40
0.0606774898
 40
0.103754287
 40
0.155704494
 40
0.2149825723
 40
0.3502980187
 40
0.5013156806
 40
0.6623626483
 40
0.8295791516
 40
1.0
 40
1.0
 40
1.0
 40
1.0
 10
-16.9080542337
 20
-15.7007544278
 30
0.0
 10
-16.9078787378
 20
-15.7006886769
 30
0.0
 10
-16.9072764921
 20
-15.7012530435
 30
0.0
 10
-16.9062052394
 20
-15.7019441395
 30
0.0
 10
-16.9044674091
 20
-15.7035035241
 30
0.0
 10
-16.901032488
 20
-15.7065140415
 30
0.0
 10
-16.8954409474
 20
-15.7117141282
 30
0.0
 10
-16.8873817449
 20
-15.7193027835
 30
0.0
 10
-16.8776910974
 20
-15.7285736438
 30
0.0
 10
-16.8622765859
 20
-15.7434421524
 30
0.0
 10
-16.8407702837
 20
-15.7643971616
 30
0.0
 10
-16.8130367373
 20
-15.791627141
 30
0.0
 10
-16.7834114105
 20
-15.8208868611
 30
0.0
 10
-16.7526575584
 20
-15.8514023634
 30
0.0
 10
-16.7318776955
 20
-15.8721056062
 30
0.0
 10
-16.7214002088
 20
-15.8825665244
 30
0.0
  0
LINE
  5
766
100
AcDbEntity
  8
RACCORDO
100
AcDbLine
 62
250
  6
CONTINUOUS
 10
-16.99832064
 20
-15.5983637788
 11
-16.5355034955
 21
-16.0604242986
  0
SPLINE
  5
767
100
AcDbEntity
  8
RACCORDO
100
AcDbSpline
 62
250
  6
CONTINUOUS
 70
0
 71
3
 72
20
 73
16
 74
0
 42
0.0000001
 43
0.0000001
 44
0.0000000001
 40
0.0
 40
0.0
 40
0.0
 40
0.0
 40
0.0021547874
 40
0.0075856644
 40
0.0162689572
 40
0.0281247845
 40
0.0607047521
 40
0.1037756871
 40
0.1557407339
 40
0.2150236436
 40
0.3503505565
 40
0.5013608359
 40
0.6623774161
 40
0.8295997376
 40
1.0
 40
1.0
 40
1.0
 40
1.0
 10
-17.1382415322
 20
-15.462072712
 30
0.0
 10
-17.1381116633
 20
-15.462019542
 30
0.0
 10
-17.137655219
 20
-15.4624500998
 30
0.0
 10
-17.1368556457
 20
-15.4629634116
 30
0.0
 10
-17.1355503165
 20
-15.4641362649
 30
0.0
 10
-17.1329757353
 20
-15.4663917279
 30
0.0
 10
-17.1287831014
 20
-15.4702912461
 30
0.0
 10
-17.1227407551
 20
-15.4759802322
 30
0.0
 10
-17.1154758248
 20
-15.4829309804
 30
0.0
 10
-17.1039190721
 20
-15.4940779236
 30
0.0
 10
-17.0877969504
 20
-15.5097868612
 30
0.0
 10
-17.0670084131
 20
-15.5301980275
 30
0.0
 10
-17.0448014465
 20
-15.5521299557
 30
0.0
 10
-17.0217499609
 20
-15.5750034904
 30
0.0
 10
-17.0061742096
 20
-15.5905232464
 30
0.0
 10
-16.99832064
 20
-15.5983637788
 30
0.0
  0
SPLINE
  5
768
100
AcDbEntity
  8
RACCORDO
100
AcDbSpline
 62
7
  6
CONTINUOUS
 70
0
 71
3
 72
9
 73
5
 74
0
 42
0.0000001
 43
0.0000001
 44
0.0000000001
 40
0.0
 40
0.0
 40
0.0
 40
0.0
 40
0.2702244792
 40
1.0
 40
1.0
 40
1.0
 40
1.0
 10
8.2137166298
 20
-23.4541044631
 30
0.0
 10
8.2138575606
 20
-23.439848203
 30
0.0
 10
8.2145334886
 20
-23.3870925131
 30
0.0
 10
8.2157664716
 20
-23.3343456504
 30
0.0
 10
8.2167946556
 20
-23.2958566594
 30
0.0
  0
SPLINE
  5
769
100
AcDbEntity
  8
RACCORDO
100
AcDbSpline
 62
250
  6
CONTINUOUS
 70
0
 71
3
 72
14
 73
10
 74
0
 42
0.0000001
 43
0.0000001
 44
0.0000000001
 40
0.0
 40
0.0
 40
0.0
 40
0.0
 40
0.3729284429
 40
0.5422384837
 40
0.691712776
 40
0.8160039553
 40
0.9105644548
 40
0.9719360261
 40
1.0
 40
1.0
 40
1.0
 40
1.0
 10
-15.8916679326
 20
-21.2376693676
 30
0.0
 10
-15.8913446547
 20
-21.2501552588
 30
0.0
 10
-15.8915105321
 20
-21.2683292479
 30
0.0
 10
-15.8906027051
 20
-21.2914653087
 30
0.0
 10
-15.8898554763
 20
-21.3063234202
 30
0.0
 10
-15.8889793647
 20
-21.3185239234
 30
0.0
 10
-15.8879093683
 20
-21.3281150436
 30
0.0
 10
-15.886989617
 20
-21.333686238
 30
0.0
 10
-15.8862719949
 20
-21.3372678898
 30
0.0
 10
-15.8853959474
 20
-21.3376084503
 30
0.0
  0
SPLINE
  5
76A
100
AcDbEntity
  8
RACCORDO
100
AcDbSpline
 62
250
  6
CONTINUOUS
 70
0
 71
3
 72
9
 73
5
 74
0
 42
0.0000001
 43
0.0000001
 44
0.0000000001
 40
0.0
 40
0.0
 40
0.0
 40
0.0
 40
0.5000830054
 40
1.0
 40
1.0
 40
1.0
 40
1.0
 10
-12.6970963965
 20
-21.1830965731
 30
0.0
 10
-12.6844362454
 20
-21.201725492
 30
0.0
 10
-12.65014966
 20
-21.2336496472
 30
0.0
 10
-12.6052221949
 20
-21.2468389526
 30
0.0
 10
-12.5827518609
 20
-21.2482753938
 30
0.0
  0
LINE
  5
76B
100
AcDbEntity
  8
RACCORDO
100
AcDbLine
 62
250
  6
CONTINUOUS
 10
-16.5355046997
 20
-16.2029149893
 11
-16.7854408597
 21
-15.9532528074
  0
SPLINE
  5
76C
100
AcDbEntity
  8
RACCORDO
100
AcDbSpline
 62
7
  6
CONTINUOUS
 70
0
 71
3
 72
12
 73
8
 74
0
 42
0.0000001
 43
0.0000001
 44
0.0000000001
 40
0.0
 40
0.0
 40
0.0
 40
0.0
 40
0.2498051782
 40
0.4995217089
 40
0.7491404888
 40
0.8745761308
 40
1.0
 40
1.0
 40
1.0
 40
1.0
 10
-12.4933448665
 20
-22.0473727298
 30
0.0
 10
-12.4957346566
 20
-22.0133142139
 30
0.0
 10
-12.4862098305
 20
-21.9433725202
 30
0.0
 10
-12.4312342807
 20
-21.853690295
 30
0.0
 10
-12.358892865
 20
-21.8034657492
 30
0.0
 10
-12.2930998512
 20
-21.7832964681
 30
0.0
 10
-12.2586701847
 20
-21.7802980236
 30
0.0
 10
-12.2415278346
 20
-21.7803266037
 30
0.0
  0
SPLINE
  5
76D
100
AcDbEntity
  8
RACCORDO
100
AcDbSpline
 62
7
  6
CONTINUOUS
 70
0
 71
3
 72
11
 73
7
 74
0
 42
0.0000001
 43
0.0000001
 44
0.0000000001
 40
0.0
 40
0.0
 40
0.0
 40
0.0
 40
0.2498340659
 40
0.499710324
 40
0.7497889953
 40
1.0
 40
1.0
 40
1.0
 40
1.0
 10
-16.025432847
 20
-21.7726819208
 30
0.0
 10
-15.9912380846
 20
-21.7727577867
 30
0.0
 10
-15.92199392
 20
-21.7866135183
 30
0.0
 10
-15.835724785
 20
-21.8473947978
 30
0.0
 10
-15.7808776585
 20
-21.9375419896
 30
0.0
 10
-15.7715607587
 20
-22.0077157115
 30
0.0
 10
-15.7740724164
 20
-22.0418699222
 30
0.0
  0
LINE
  5
76E
100
AcDbEntity
  8
RACCORDO
100
AcDbLine
 62
250
  6
CONTINUOUS
 10
-16.9343249061
 20
-15.5276638703
 11
-16.5355034957
 21
-15.9256669156
  0
SPLINE
  5
76F
100
AcDbEntity
  8
RACCORDO
100
AcDbSpline
 62
250
  6
CONTINUOUS
 70
0
 71
3
 72
11
 73
7
 74
0
 42
0.0000001
 43
0.0000001
 44
0.0000000001
 40
0.0
 40
0.0
 40
0.0
 40
0.0
 40
0.2623848583
 40
0.5139035605
 40
0.7544141655
 40
1.0
 40
1.0
 40
1.0
 40
1.0
 10
-12.2415280334
 20
-21.7803159124
 30
0.0
 10
-12.2437328546
 20
-21.7764547753
 30
0.0
 10
-12.249701438
 20
-21.7699852702
 30
0.0
 10
-12.2565543167
 20
-21.7591611457
 30
0.0
 10
-12.2622724212
 20
-21.7480377379
 30
0.0
 10
-12.2666866972
 20
-21.7410750614
 30
0.0
 10
-12.2688169827
 20
-21.7375
 30
0.0
  0
SPLINE
  5
770
100
AcDbEntity
  8
RACCORDO
100
AcDbSpline
 62
250
  6
CONTINUOUS
 70
0
 71
3
 72
17
 73
13
 74
0
 42
0.0000001
 43
0.0000001
 44
0.0000000001
 40
0.0
 40
0.0
 40
0.0
 40
0.0
 40
0.0072307642
 40
0.0230175535
 40
0.047622454
 40
0.080913655
 40
0.1725025833
 40
0.2948808862
 40
0.4440688227
 40
0.615145597
 40
0.8025421988
 40
1.0
 40
1.0
 40
1.0
 40
1.0
 10
-12.3876926892
 20
-21.3417731624
 30
0.0
 10
-12.3878880952
 20
-21.3421625188
 30
0.0
 10
-12.3894415162
 20
-21.3425670021
 30
0.0
 10
-12.3920701376
 20
-21.3431809762
 30
0.0
 10
-12.3965695625
 20
-21.3437315326
 30
0.0
 10
-12.4054800365
 20
-21.3446117169
 30
0.0
 10
-12.4203895339
 20
-21.3455364639
 30
0.0
 10
-12.442230123
 20
-21.3465025701
 30
0.0
 10
-12.4688933209
 20
-21.3473161647
 30
0.0
 10
-12.4994702579
 20
-21.3479624117
 30
0.0
 10
-12.5329620526
 20
-21.3484086349
 30
0.0
 10
-12.5561483161
 20
-21.3485610969
 30
0.0
 10
-12.5680446994
 20
-21.3486021939
 30
0.0
  0
SPLINE
  5
771
100
AcDbEntity
  8
RACCORDO
100
AcDbSpline
 62
250
  6
CONTINUOUS
 70
0
 71
3
 72
17
 73
13
 74
0
 42
0.0000001
 43
0.0000001
 44
0.0000000001
 40
0.0
 40
0.0
 40
0.0
 40
0.0
 40
0.1982439356
 40
0.3860158935
 40
0.5570021787
 40
0.7059411648
 40
0.8280109866
 40
0.919307648
 40
0.9524955875
 40
0.9770117296
 40
0.9927589857
 40
1.0
 40
1.0
 40
1.0
 40
1.0
 10
-15.7034004171
 20
-21.3545954595
 30
0.0
 10
-15.715116794
 20
-21.3545478064
 30
0.0
 10
-15.7379302707
 20
-21.3543842618
 30
0.0
 10
-15.7708476072
 20
-21.3539276138
 30
0.0
 10
-15.8008443176
 20
-21.3532764155
 30
0.0
 10
-15.8269611308
 20
-21.3524636625
 30
0.0
 10
-15.8483354966
 20
-21.3515032812
 30
0.0
 10
-15.8629181657
 20
-21.350586005
 30
0.0
 10
-15.8716306913
 20
-21.3497160637
 30
0.0
 10
-15.8760280475
 20
-21.3491691912
 30
0.0
 10
-15.8786020337
 20
-21.3485638436
 30
0.0
 10
-15.880119177
 20
-21.3481614906
 30
0.0
 10
-15.880312002
 20
-21.3477794401
 30
0.0
  0
LINE
  5
772
100
AcDbEntity
  8
RACCORDO
100
AcDbLine
 62
250
  6
CONTINUOUS
 10
-16.7787836832
 20
-16.3571244509
 11
-16.5355044921
 21
-16.3565626158
  0
SPLINE
  5
773
100
AcDbEntity
  8
RACCORDO
100
AcDbSpline
 62
250
  6
CONTINUOUS
 70
0
 71
3
 72
14
 73
10
 74
0
 42
0.0000001
 43
0.0000001
 44
0.0000000001
 40
0.0
 40
0.0
 40
0.0
 40
0.0
 40
0.0272150587
 40
0.0887830758
 40
0.1835163032
 40
0.3081380256
 40
0.4579666432
 40
0.6275117162
 40
1.0
 40
1.0
 40
1.0
 40
1.0
 10
-15.6443201262
 20
-21.3475482628
 30
0.0
 10
-15.6452119186
 20
-21.3473054824
 30
0.0
 10
-15.6465927305
 20
-21.344047507
 30
0.0
 10
-15.6491071934
 20
-21.3388010083
 30
0.0
 10
-15.6522234838
 20
-21.3295422005
 30
0.0
 10
-15.6560409479
 20
-21.3176958407
 30
0.0
 10
-15.6602944859
 20
-21.3031942475
 30
0.0
 10
-15.6665772939
 20
-21.2805673146
 30
0.0
 10
-15.6711429375
 20
-21.2627260632
 30
0.0
 10
-15.6741476105
 20
-21.2504380311
 30
0.0
  0
SPLINE
  5
774
100
AcDbEntity
  8
RACCORDO
100
AcDbSpline
 62
250
  6
CONTINUOUS
 70
0
 71
3
 72
16
 73
12
 74
0
 42
0.0000001
 43
0.0000001
 44
0.0000000001
 40
0.0
 40
0.0
 40
0.0
 40
0.0
 40
0.0072272831
 40
0.0234667089
 40
0.0488706588
 40
0.0833062616
 40
0.1777731452
 40
0.3032124238
 40
0.4545177718
 40
0.6257279719
 40
1.0
 40
1.0
 40
1.0
 40
1.0
 10
-15.4961825037
 20
-21.2443156801
 30
0.0
 10
-15.4964040216
 20
-21.2444391999
 30
0.0
 10
-15.4972974127
 20
-21.2440722744
 30
0.0
 10
-15.4987894212
 20
-21.2434893679
 30
0.0
 10
-15.5012039493
 20
-21.2422095514
 30
0.0
 10
-15.505914348
 20
-21.2396109567
 30
0.0
 10
-15.5135983805
 20
-21.2350162583
 30
0.0
 10
-15.524661502
 20
-21.2281601674
 30
0.0
 10
-15.537919766
 20
-21.2197051561
 30
0.0
 10
-15.5584155671
 20
-21.2063721626
 30
0.0
 10
-15.5743412962
 20
-21.195747839
 30
0.0
 10
-15.5852202092
 20
-21.1883883832
 30
0.0
  0
SPLINE
  5
775
100
AcDbEntity
  8
RACCORDO
100
AcDbSpline
 62
7
  6
CONTINUOUS
 70
0
 71
3
 72
11
 73
7
 74
0
 42
0.0000001
 43
0.0000001
 44
0.0000000001
 40
0.0
 40
0.0
 40
0.0
 40
0.0
 40
0.2580949824
 40
0.5006408776
 40
0.7573244471
 40
1.0
 40
1.0
 40
1.0
 40
1.0
 10
11.6004821796
 20
-9.2863890773
 30
0.0
 10
11.6322477422
 20
-9.2863890615
 30
0.0
 10
11.6938664651
 20
-9.2867994507
 30
0.0
 10
11.7870577219
 20
-9.288646271
 30
0.0
 10
11.8783782014
 20
-9.2888838806
 30
0.0
 10
11.9398260503
 20
-9.2875639924
 30
0.0
 10
11.9696911935
 20
-9.2871667421
 30
0.0
  0
SPLINE
  5
776
100
AcDbEntity
  8
RACCORDO
100
AcDbSpline
 62
7
  6
CONTINUOUS
 70
0
 71
3
 72
9
 73
5
 74
0
 42
0.0000001
 43
0.0000001
 44
0.0000000001
 40
0.0
 40
0.0
 40
0.0
 40
0.0
 40
0.2245173108
 40
1.0
 40
1.0
 40
1.0
 40
1.0
 10
7.1406682989
 20
-9.2906018338
 30
0.0
 10
7.1595737729
 20
-9.2900803267
 30
0.0
 10
7.2437782822
 20
-9.2877759667
 30
0.0
 10
7.3280162364
 20
-9.286389118
 30
0.0
 10
7.3933405744
 20
-9.2863890773
 30
0.0
  0
SPLINE
  5
777
100
AcDbEntity
  8
RACCORDO
100
AcDbSpline
 62
7
  6
CONTINUOUS
 70
0
 71
3
 72
9
 73
5
 74
0
 42
0.0000001
 43
0.0000001
 44
0.0000000001
 40
0.0
 40
0.0
 40
0.0
 40
0.0
 40
0.2320758143
 40
1.0
 40
1.0
 40
1.0
 40
1.0
 10
-9.7378016927
 20
-23.2958579662
 30
0.0
 10
-9.7374745887
 20
-23.3080977102
 30
0.0
 10
-9.736109744
 20
-23.3608390214
 30
0.0
 10
-9.7351240603
 20
-23.4135914464
 30
0.0
 10
-9.7347235507
 20
-23.4541044654
 30
0.0
  0
SPLINE
  5
778
100
AcDbEntity
  8
RACCORDO
100
AcDbSpline
 62
250
  6
CONTINUOUS
 70
0
 71
3
 72
8
 73
4
 74
0
 42
0.0000001
 43
0.0000001
 44
0.0000000001
 40
0.0
 40
0.0
 40
0.0
 40
0.0
 40
1.0
 40
1.0
 40
1.0
 40
1.0
 10
-13.0635592138
 20
-9.3874809922
 30
0.0
 10
-13.0762918198
 20
-9.3507895386
 30
0.0
 10
-13.0962552178
 20
-9.3159125709
 30
0.0
 10
-13.1214890459
 20
-9.2863890899
 30
0.0
  0
SPLINE
  5
779
100
AcDbEntity
  8
RACCORDO
100
AcDbSpline
 62
250
  6
CONTINUOUS
 70
0
 71
3
 72
8
 73
4
 74
0
 42
0.0000001
 43
0.0000001
 44
0.0000000001
 40
0.0
 40
0.0
 40
0.0
 40
0.0
 40
1.0
 40
1.0
 40
1.0
 40
1.0
 10
-8.9143475018
 20
-9.2863890861
 30
0.0
 10
-8.9384860777
 20
-9.3162704403
 30
0.0
 10
-8.957521597
 20
-9.3510300206
 30
0.0
 10
-8.9697130781
 20
-9.3874571255
 30
0.0
  0
SPLINE
  5
77A
100
AcDbEntity
  8
RACCORDO
100
AcDbSpline
 62
250
  6
CONTINUOUS
 70
0
 71
3
 72
8
 73
4
 74
0
 42
0.0000001
 43
0.0000001
 44
0.0000000001
 40
0.0
 40
0.0
 40
0.0
 40
0.0
 40
1.0
 40
1.0
 40
1.0
 40
1.0
 10
-10.0715567868
 20
-23.5628859522
 30
0.0
 10
-10.0329797576
 20
-23.5801465096
 30
0.0
 10
-9.9901960883
 20
-23.5899075088
 30
0.0
 10
-9.9479507445
 20
-23.5911095683
 30
0.0
  0
SPLINE
  5
77B
100
AcDbEntity
  8
RACCORDO
100
AcDbSpline
 62
250
  6
CONTINUOUS
 70
0
 71
3
 72
8
 73
4
 74
0
 42
0.0000001
 43
0.0000001
 44
0.0000000001
 40
0.0
 40
0.0
 40
0.0
 40
0.0
 40
1.0
 40
1.0
 40
1.0
 40
1.0
 10
7.4487041162
 20
-9.3874517471
 30
0.0
 10
7.4365124335
 20
-9.3510267176
 30
0.0
 10
7.4174776171
 20
-9.3162692563
 30
0.0
 10
7.3933405932
 20
-9.2863890959
 30
0.0
  0
SPLINE
  5
77C
100
AcDbEntity
  8
RACCORDO
100
AcDbSpline
 62
250
  6
CONTINUOUS
 70
0
 71
3
 72
8
 73
4
 74
0
 42
0.0000001
 43
0.0000001
 44
0.0000000001
 40
0.0
 40
0.0
 40
0.0
 40
0.0
 40
1.0
 40
1.0
 40
1.0
 40
1.0
 10
11.6004821792
 20
-9.2863890777
 30
0.0
 10
11.5752448471
 20
-9.3159118038
 30
0.0
 10
11.5552839198
 20
-9.3507929512
 30
0.0
 10
11.5425510112
 20
-9.3874861021
 30
0.0
  0
SPLINE
  5
77D
100
AcDbEntity
  8
RACCORDO
100
AcDbSpline
 62
250
  6
CONTINUOUS
 70
0
 71
3
 72
8
 73
4
 74
0
 42
0.0000001
 43
0.0000001
 44
0.0000000001
 40
0.0
 40
0.0
 40
0.0
 40
0.0
 40
1.0
 40
1.0
 40
1.0
 40
1.0
 10
8.426943845
 20
-23.5911095662
 30
0.0
 10
8.4691892406
 20
-23.5899095106
 30
0.0
 10
8.5119728081
 20
-23.5801464197
 30
0.0
 10
8.5505498718
 20
-23.5628859522
 30
0.0
  0
SPLINE
  5
77E
100
AcDbEntity
  8
RACCORDO
100
AcDbSpline
 62
250
  6
CONTINUOUS
 70
0
 71
3
 72
14
 73
10
 74
0
 42
0.0000001
 43
0.0000001
 44
0.0000000001
 40
0.0
 40
0.0
 40
0.0
 40
0.0
 40
0.0245549538
 40
0.0842719916
 40
0.178054608
 40
0.302577156
 40
0.4530573356
 40
0.6238686047
 40
1.0
 40
1.0
 40
1.0
 40
1.0
 10
-14.5348547119
 20
-20.5692295212
 30
0.0
 10
-14.5356866806
 20
-20.5691811977
 30
0.0
 10
-14.5370299413
 20
-20.5658054021
 30
0.0
 10
-14.5394342167
 20
-20.5609692761
 30
0.0
 10
-14.5425342549
 20
-20.5516789285
 30
0.0
 10
-14.5463616292
 20
-20.5399159035
 30
0.0
 10
-14.5506750968
 20
-20.5253573079
 30
0.0
 10
-14.5570934994
 20
-20.5025968086
 30
0.0
 10
-14.5617916544
 20
-20.4846267569
 30
0.0
 10
-14.5648977085
 20
-20.4722448695
 30
0.0
  0
LINE
  5
77F
100
AcDbEntity
  8
RACCORDO
100
AcDbLine
 62
7
  6
CONTINUOUS
 10
-16.8939211458
 20
-18.7718797256
 11
-16.8939213316
 21
-18.7875003624
  0
SPLINE
  5
780
100
AcDbEntity
  8
RACCORDO
100
AcDbSpline
 62
250
  6
CONTINUOUS
 70
0
 71
3
 72
8
 73
4
 74
0
 42
0.0000001
 43
0.0000001
 44
0.0000000001
 40
0.0
 40
0.0
 40
0.0
 40
0.0
 40
1.0
 40
1.0
 40
1.0
 40
1.0
 10
15.6217183026
 20
-9.4214636845
 30
0.0
 10
15.6378151419
 20
-9.4548407384
 30
0.0
 10
15.6464968979
 20
-9.492773544
 30
0.0
 10
15.6465194782
 20
-9.5298293864
 30
0.0
  0
SPLINE
  5
781
100
AcDbEntity
  8
RACCORDO
100
AcDbSpline
 62
250
  6
CONTINUOUS
 70
0
 71
3
 72
8
 73
4
 74
0
 42
0.0000001
 43
0.0000001
 44
0.0000000001
 40
0.0
 40
0.0
 40
0.0
 40
0.0
 40
1.0
 40
1.0
 40
1.0
 40
1.0
 10
-17.1675263932
 20
-9.5298293864
 30
0.0
 10
-17.1675038129
 20
-9.492773544
 30
0.0
 10
-17.1588220569
 20
-9.4548407384
 30
0.0
 10
-17.1427252176
 20
-9.4214636845
 30
0.0
  0
SPLINE
  5
782
100
AcDbEntity
  8
RACCORDO
100
AcDbSpline
 62
7
  6
CONTINUOUS
 70
0
 71
3
 72
9
 73
5
 74
0
 42
0.0000001
 43
0.0000001
 44
0.0000000001
 40
0.0
 40
0.0
 40
0.0
 40
0.0
 40
0.4999451008
 40
1.0
 40
1.0
 40
1.0
 40
1.0
 10
3.7273446845
 20
-9.3874159116
 30
0.0
 10
3.7464057171
 20
-9.3436898743
 30
0.0
 10
3.8117643576
 20
-9.265786451
 30
0.0
 10
3.9093174297
 20
-9.2375
 30
0.0
 10
3.9570278983
 20
-9.2375
 30
0.0
  0
SPLINE
  5
783
100
AcDbEntity
  8
RACCORDO
100
AcDbSpline
 62
7
  6
CONTINUOUS
 70
0
 71
3
 72
9
 73
5
 74
0
 42
0.0000001
 43
0.0000001
 44
0.0000000001
 40
0.0
 40
0.0
 40
0.0
 40
0.0
 40
0.5000378524
 40
1.0
 40
1.0
 40
1.0
 40
1.0
 10
-5.4780348077
 20
-9.2375
 30
0.0
 10
-5.4303248669
 20
-9.2375
 30
0.0
 10
-5.3327699972
 20
-9.2657866692
 30
0.0
 10
-5.2674089414
 20
-9.343692649
 30
0.0
 10
-5.2483486602
 20
-9.3874219864
 30
0.0
  0
SPLINE
  5
784
100
AcDbEntity
  8
RACCORDO
100
AcDbSpline
 62
250
  6
CONTINUOUS
 70
0
 71
3
 72
8
 73
4
 74
0
 42
0.0000001
 43
0.0000001
 44
0.0000000001
 40
0.0
 40
0.0
 40
0.0
 40
0.0
 40
1.0
 40
1.0
 40
1.0
 40
1.0
 10
-13.8810884085
 20
-23.8140029336
 30
0.0
 10
-13.8544189146
 20
-23.7957622365
 30
0.0
 10
-13.8235863621
 20
-23.7825619691
 30
0.0
 10
-13.791980371
 20
-23.7758503183
 30
0.0
  0
SPLINE
  5
785
100
AcDbEntity
  8
RACCORDO
100
AcDbSpline
 62
7
  6
CONTINUOUS
 70
0
 71
3
 72
9
 73
5
 74
0
 42
0.0000001
 43
0.0000001
 44
0.0000000001
 40
0.0
 40
0.0
 40
0.0
 40
0.0
 40
0.2881431338
 40
1.0
 40
1.0
 40
1.0
 40
1.0
 10
-13.9187837391
 20
-23.8252937062
 30
0.0
 10
-13.9151079195
 20
-23.8243996352
 30
0.0
 10
-13.9023996007
 20
-23.8211436734
 30
0.0
 10
-13.8896890312
 20
-23.817602439
 30
0.0
 10
-13.8810674769
 20
-23.8139949431
 30
0.0
  0
SPLINE
  5
786
100
AcDbEntity
  8
RACCORDO
100
AcDbSpline
 62
250
  6
CONTINUOUS
 70
0
 71
3
 72
8
 73
4
 74
0
 42
0.0000001
 43
0.0000001
 44
0.0000000001
 40
0.0
 40
0.0
 40
0.0
 40
0.0
 40
1.0
 40
1.0
 40
1.0
 40
1.0
 10
-13.7731657759
 20
-23.8383607979
 30
0.0
 10
-13.8100389187
 20
-23.8384082436
 30
0.0
 10
-13.8477954362
 20
-23.829886189
 30
0.0
 10
-13.8810683391
 20
-23.8139945294
 30
0.0
  0
SPLINE
  5
787
100
AcDbEntity
  8
RACCORDO
100
AcDbSpline
 62
250
  6
CONTINUOUS
 70
0
 71
3
 72
14
 73
10
 74
0
 42
0.0000001
 43
0.0000001
 44
0.0000000001
 40
0.0
 40
0.0
 40
0.0
 40
0.0
 40
0.0256535996
 40
0.0843088306
 40
0.1759464596
 40
0.2979666634
 40
0.4465467007
 40
0.6168679596
 40
1.0
 40
1.0
 40
1.0
 40
1.0
 10
-12.4876776826
 20
-21.2418342819
 30
0.0
 10
-12.4878662619
 20
-21.2425879839
 30
0.0
 10
-12.4908955393
 20
-21.2434743936
 30
0.0
 10
-12.4956170533
 20
-21.2445702869
 30
0.0
 10
-12.5040641505
 20
-21.2455954062
 30
0.0
 10
-12.5148864128
 20
-21.2465601401
 30
0.0
 10
-12.5282548799
 20
-21.2473758105
 30
0.0
 10
-12.5494817921
 20
-21.2482726171
 30
0.0
 10
-12.5662504521
 20
-21.2485834084
 30
0.0
 10
-12.5778535758
 20
-21.2486631112
 30
0.0
  0
SPLINE
  5
788
100
AcDbEntity
  8
RACCORDO
100
AcDbSpline
 62
250
  6
CONTINUOUS
 70
0
 71
3
 72
14
 73
10
 74
0
 42
0.0000001
 43
0.0000001
 44
0.0000000001
 40
0.0
 40
0.0
 40
0.0
 40
0.0
 40
0.0308837208
 40
0.0935941973
 40
0.188351711
 40
0.3123227946
 40
0.4611061581
 40
0.6294511522
 40
1.0
 40
1.0
 40
1.0
 40
1.0
 10
-12.5680446994
 20
-21.3486021939
 30
0.0
 10
-12.5690262676
 20
-21.3482548527
 30
0.0
 10
-12.5704867082
 20
-21.3449169421
 30
0.0
 10
-12.5720591252
 20
-21.3391096065
 30
0.0
 10
-12.5736264983
 20
-21.3295695498
 30
0.0
 10
-12.5750201217
 20
-21.3173246708
 30
0.0
 10
-12.5761988461
 20
-21.3024734994
 30
0.0
 10
-12.5774306328
 20
-21.2793304737
 30
0.0
 10
-12.5778109907
 20
-21.2611556992
 30
0.0
 10
-12.5778535758
 20
-21.2486631112
 30
0.0
  0
SPLINE
  5
789
100
AcDbEntity
  8
RACCORDO
100
AcDbSpline
 62
250
  6
CONTINUOUS
 70
0
 71
3
 72
14
 73
10
 74
0
 42
0.0000001
 43
0.0000001
 44
0.0000000001
 40
0.0
 40
0.0
 40
0.0
 40
0.0
 40
0.3740086136
 40
0.5436599952
 40
0.6933458692
 40
0.8176995495
 40
0.9121339284
 40
0.9733916857
 40
1.0
 40
1.0
 40
1.0
 40
1.0
 10
-12.5827518366
 20
-21.2483670178
 30
0.0
 10
-12.5835429754
 20
-21.2608001796
 30
0.0
 10
-12.5845395943
 20
-21.2788889101
 30
0.0
 10
-12.5854227894
 20
-21.3019555377
 30
0.0
 10
-12.5858258703
 20
-21.3167594817
 30
0.0
 10
-12.5858629424
 20
-21.3289522875
 30
0.0
 10
-12.5858693352
 20
-21.3384819569
 30
0.0
 10
-12.5851548621
 20
-21.3441513072
 30
0.0
 10
-12.5850623535
 20
-21.3475320718
 30
0.0
 10
-12.5843732894
 20
-21.3480895386
 30
0.0
  0
SPLINE
  5
78A
100
AcDbEntity
  8
RACCORDO
100
AcDbSpline
 62
250
  6
CONTINUOUS
 70
0
 71
3
 72
8
 73
4
 74
0
 42
0.0000001
 43
0.0000001
 44
0.0000000001
 40
0.0
 40
0.0
 40
0.0
 40
0.0
 40
1.0
 40
1.0
 40
1.0
 40
1.0
 10
-17.1651216949
 20
-19.5346402487
 30
0.0
 10
-17.1651110881
 20
-19.4942132222
 30
0.0
 10
-17.1547039023
 20
-19.4526468062
 30
0.0
 10
-17.1356397807
 20
-19.4169970677
 30
0.0
  0
SPLINE
  5
78B
100
AcDbEntity
  8
RACCORDO
100
AcDbSpline
 62
250
  6
CONTINUOUS
 70
0
 71
3
 72
8
 73
4
 74
0
 42
0.0000001
 43
0.0000001
 44
0.0000000001
 40
0.0
 40
0.0
 40
0.0
 40
0.0
 40
1.0
 40
1.0
 40
1.0
 40
1.0
 10
-17.1356419684
 20
-21.208000007
 30
0.0
 10
-17.1547055479
 20
-21.1723512522
 30
0.0
 10
-17.1651110532
 20
-21.1307856547
 30
0.0
 10
-17.1651216949
 20
-21.0903597512
 30
0.0
  0
LINE
  5
78C
100
AcDbEntity
  8
RACCORDO
100
AcDbLine
 62
7
  6
CONTINUOUS
 10
-16.0281131249
 20
-21.7729585608
 11
-16.0229572967
 21
-21.7729700647
  0
SPLINE
  5
78D
100
AcDbEntity
  8
RACCORDO
100
AcDbSpline
 62
250
  6
CONTINUOUS
 70
0
 71
3
 72
8
 73
4
 74
0
 42
0.0000001
 43
0.0000001
 44
0.0000000001
 40
0.0
 40
0.0
 40
0.0
 40
0.0
 40
1.0
 40
1.0
 40
1.0
 40
1.0
 10
-14.3891963852
 20
-23.8143413635
 30
0.0
 10
-14.4230226448
 20
-23.8309039785
 30
0.0
 10
-14.4616247074
 20
-23.8398160482
 30
0.0
 10
-14.4992881374
 20
-23.8397702958
 30
0.0
  0
SPLINE
  5
78E
100
AcDbEntity
  8
RACCORDO
100
AcDbSpline
 62
7
  6
CONTINUOUS
 70
0
 71
3
 72
9
 73
5
 74
0
 42
0.0000001
 43
0.0000001
 44
0.0000000001
 40
0.0
 40
0.0
 40
0.0
 40
0.0
 40
0.2861380273
 40
1.0
 40
1.0
 40
1.0
 40
1.0
 10
-14.3522231755
 20
-23.8252937032
 30
0.0
 10
-14.3557853748
 20
-23.8244272778
 30
0.0
 10
-14.3681916828
 20
-23.8212595121
 30
0.0
 10
-14.3805800543
 20
-23.8177887551
 30
0.0
 10
-14.3890579654
 20
-23.8143570201
 30
0.0
  0
SPLINE
  5
78F
100
AcDbEntity
  8
RACCORDO
100
AcDbSpline
 62
250
  6
CONTINUOUS
 70
0
 71
3
 72
8
 73
4
 74
0
 42
0.0000001
 43
0.0000001
 44
0.0000000001
 40
0.0
 40
0.0
 40
0.0
 40
0.0
 40
1.0
 40
1.0
 40
1.0
 40
1.0
 10
-14.4799943535
 20
-23.7748578646
 30
0.0
 10
-14.4476721606
 20
-23.7817466048
 30
0.0
 10
-14.4161536116
 20
-23.7954360064
 30
0.0
 10
-14.3890579672
 20
-23.814357025
 30
0.0
  0
SPLINE
  5
790
100
AcDbEntity
  8
RACCORDO
100
AcDbSpline
 62
250
  6
CONTINUOUS
 70
0
 71
3
 72
16
 73
12
 74
0
 42
0.0000001
 43
0.0000001
 44
0.0000000001
 40
0.0
 40
0.0
 40
0.0
 40
0.0
 40
0.006939239
 40
0.0227824571
 40
0.0476140003
 40
0.0813078086
 40
0.1739634386
 40
0.2975494552
 40
0.447583855
 40
0.6188114476
 40
1.0
 40
1.0
 40
1.0
 40
1.0
 10
-12.774873895
 20
-21.2392372635
 30
0.0
 10
-12.7748821477
 20
-21.2390153407
 30
0.0
 10
-12.7742562046
 20
-21.2384468562
 30
0.0
 10
-12.7732610803
 20
-21.2374186973
 30
0.0
 10
-12.7713732557
 20
-21.2358849045
 30
0.0
 10
-12.7676183001
 20
-21.2328812782
 30
0.0
 10
-12.7611986426
 20
-21.2280718315
 30
0.0
 10
-12.7517382093
 20
-21.2211674188
 30
0.0
 10
-12.7401435488
 20
-21.2128999775
 30
0.0
 10
-12.7217453445
 20
-21.1999842997
 30
0.0
 10
-12.7071797953
 20
-21.1899627698
 30
0.0
 10
-12.6970963965
 20
-21.1830965731
 30
0.0
  0
SPLINE
  5
791
100
AcDbEntity
  8
RACCORDO
100
AcDbSpline
 62
7
  6
CONTINUOUS
 70
0
 71
3
 72
9
 73
5
 74
0
 42
0.0000001
 43
0.0000001
 44
0.0000000001
 40
0.0
 40
0.0
 40
0.0
 40
0.0
 40
0.2782490071
 40
1.0
 40
1.0
 40
1.0
 40
1.0
 10
-8.914347493
 20
-9.2863890773
 30
0.0
 10
-8.8909084009
 20
-9.2863891011
 30
0.0
 10
-8.8066697313
 20
-9.2868616082
 30
0.0
 10
-8.722450797
 20
-9.2889240835
 30
0.0
 10
-8.6616752139
 20
-9.2906018338
 30
0.0
  0
SPLINE
  5
792
100
AcDbEntity
  8
RACCORDO
100
AcDbSpline
 62
250
  6
CONTINUOUS
 70
0
 71
3
 72
14
 73
10
 74
0
 42
0.0000001
 43
0.0000001
 44
0.0000000001
 40
0.0
 40
0.0
 40
0.0
 40
0.0
 40
0.0242295868
 40
0.0835234116
 40
0.1767715893
 40
0.3007677409
 40
0.4509052561
 40
0.6217593455
 40
1.0
 40
1.0
 40
1.0
 40
1.0
 10
-13.7346935997
 20
-20.5687454054
 30
0.0
 10
-13.7353678018
 20
-20.5683146334
 30
0.0
 10
-13.7349002502
 20
-20.5648427533
 30
0.0
 10
-13.734734753
 20
-20.559626817
 30
0.0
 10
-13.7330797028
 20
-20.5502940226
 30
0.0
 10
-13.730941811
 20
-20.5384971603
 30
0.0
 10
-13.7279328627
 20
-20.5240615185
 30
0.0
 10
-13.7229526539
 20
-20.5015378998
 30
0.0
 10
-13.7187159722
 20
-20.4838973099
 30
0.0
 10
-13.7156891525
 20
-20.4717799712
 30
0.0
  0
LINE
  5
793
100
AcDbEntity
  8
RACCORDO
100
AcDbLine
 62
250
  6
CONTINUOUS
 10
14.089524956
 20
-15.5898710673
 11
11.9895225729
 21
-15.5877686376
  0
LINE
  5
794
100
AcDbEntity
  8
RACCORDO
100
AcDbLine
 62
250
  6
CONTINUOUS
 10
14.3395241596
 20
-23.640142743
 11
11.9895225729
 21
-23.6377686376
  0
LINE
  5
795
100
AcDbEntity
  8
RACCORDO
100
AcDbLine
 62
250
  6
CONTINUOUS
 10
11.9895209808
 20
-20.8372313638
 11
14.3395314181
 21
-20.834857249
  0
SPLINE
  5
796
100
AcDbEntity
  8
RACCORDO
100
AcDbSpline
 62
250
  6
CONTINUOUS
 70
0
 71
3
 72
9
 73
5
 74
0
 42
0.0000001
 43
0.0000001
 44
0.0000000001
 40
0.0
 40
0.0
 40
0.0
 40
0.0
 40
0.4335855076
 40
1.0
 40
1.0
 40
1.0
 40
1.0
 10
-13.7878648509
 20
-23.7498790975
 30
0.0
 10
-13.7856258354
 20
-23.753308349
 30
0.0
 10
-13.7822420924
 20
-23.7631639359
 30
0.0
 10
-13.7881773484
 20
-23.7720872224
 30
0.0
 10
-13.7919803706
 20
-23.7758503226
 30
0.0
  0
SPLINE
  5
797
100
AcDbEntity
  8
RACCORDO
100
AcDbSpline
 62
250
  6
CONTINUOUS
 70
0
 71
3
 72
9
 73
5
 74
0
 42
0.0000001
 43
0.0000001
 44
0.0000000001
 40
0.0
 40
0.0
 40
0.0
 40
0.0
 40
0.5589362673
 40
1.0
 40
1.0
 40
1.0
 40
1.0
 10
-14.4799943552
 20
-23.7748578732
 30
0.0
 10
-14.4834401639
 20
-23.7711917521
 30
0.0
 10
-14.4886387266
 20
-23.7624875882
 30
0.0
 10
-14.4853125598
 20
-23.7532035527
 30
0.0
 10
-14.4831420738
 20
-23.7498790954
 30
0.0
  0
SPLINE
  5
798
100
AcDbEntity
  8
RACCORDO
100
AcDbSpline
 62
250
  6
CONTINUOUS
 70
0
 71
3
 72
14
 73
10
 74
0
 42
0.0000001
 43
0.0000001
 44
0.0000000001
 40
0.0
 40
0.0
 40
0.0
 40
0.0
 40
0.0252097409
 40
0.0860214583
 40
0.1803405457
 40
0.3047589554
 40
0.4547671112
 40
0.6248647459
 40
1.0
 40
1.0
 40
1.0
 40
1.0
 10
-12.4847314301
 20
-21.2359402266
 30
0.0
 10
-12.4841686976
 20
-21.2348124694
 30
0.0
 10
-12.4843700095
 20
-21.2302962423
 30
0.0
 10
-12.4834912171
 20
-21.221480028
 30
0.0
 10
-12.4833291867
 20
-21.2074108804
 30
0.0
 10
-12.482868034
 20
-21.1890190065
 30
0.0
 10
-12.482602203
 20
-21.1667827723
 30
0.0
 10
-12.482278373
 20
-21.1320314837
 30
0.0
 10
-12.4821993904
 20
-21.1047700032
 30
0.0
 10
-12.4821993625
 20
-21.0860151494
 30
0.0
  0
SPLINE
  5
799
100
AcDbEntity
  8
RACCORDO
100
AcDbSpline
 62
7
  6
CONTINUOUS
 70
0
 71
3
 72
9
 73
5
 74
0
 42
0.0000001
 43
0.0000001
 44
0.0000000001
 40
0.0
 40
0.0
 40
0.0
 40
0.0
 40
0.2733855732
 40
1.0
 40
1.0
 40
1.0
 40
1.0
 10
-8.9373279997
 20
-11.786688472
 30
0.0
 10
-8.9199072416
 20
-11.786852517
 30
0.0
 10
-8.8561867781
 20
-11.7876799331
 30
0.0
 10
-8.7924805697
 20
-11.7893204639
 30
0.0
 10
-8.7461947061
 20
-11.7906018338
 30
0.0
  0
ELLIPSE
  5
79A
100
AcDbEntity
  8
RACCORDO
100
AcDbEllipse
 62
7
  6
CONTINUOUS
 10
-13.5189194532
 20
7.0670928875
 30
0.0
 11
0.15
 21
0.0
 31
0.0
 40
0.0349207695
 41
-0.0174532925
 42
0.0
  0
ELLIPSE
  5
79B
100
AcDbEntity
  8
RACCORDO
100
AcDbEllipse
 62
7
  6
CONTINUOUS
 10
11.9979125381
 20
15.5829071126
 30
0.0
 11
0.15
 21
0.0
 31
0.0
 40
0.0349207695
 41
3.1241393611
 42
3.1415926536
  0
ELLIPSE
  5
79C
100
AcDbEntity
  8
RACCORDO
100
AcDbEllipse
 62
7
  6
CONTINUOUS
 10
-13.5189194532
 20
18.5545928875
 30
0.0
 11
0.15
 21
0.0
 31
0.0
 40
0.0349207695
 41
-0.0174532925
 42
-0.0
  0
ELLIPSE
  5
79D
100
AcDbEntity
  8
RACCORDO
100
AcDbEllipse
 62
7
  6
CONTINUOUS
 10
11.9979125381
 20
27.0704071126
 30
0.0
 11
0.15
 21
0.0
 31
0.0
 40
0.0349207695
 41
3.1241393611
 42
3.1415926536
  0
ELLIPSE
  5
79E
100
AcDbEntity
  8
RACCORDO
100
AcDbEllipse
 62
7
  6
CONTINUOUS
 10
11.9979125381
 20
18.5545928875
 30
0.0
 11
0.15
 21
-0.0
 31
0.0
 40
0.0349207695
 41
-3.1415926536
 42
-3.1241393611
  0
ELLIPSE
  5
79F
100
AcDbEntity
  8
RACCORDO
100
AcDbEllipse
 62
7
  6
CONTINUOUS
 10
-13.5189194532
 20
27.0704071126
 30
0.0
 11
0.15
 21
-0.0
 31
0.0
 40
0.0349207695
 41
-0.0
 42
0.0174532925
  0
ELLIPSE
  5
7A0
100
AcDbEntity
  8
RACCORDO
100
AcDbEllipse
 62
7
  6
CONTINUOUS
 10
11.9979125381
 20
7.0670928875
 30
0.0
 11
0.15
 21
0.0
 31
0.0
 40
0.0349207695
 41
-3.1415926536
 42
-3.1241393611
  0
ELLIPSE
  5
7A1
100
AcDbEntity
  8
RACCORDO
100
AcDbEllipse
 62
7
  6
CONTINUOUS
 10
-13.5189194532
 20
15.5829071126
 30
0.0
 11
0.15
 21
0.0
 31
0.0
 40
0.0349207695
 41
0.0
 42
0.0174532925
  0
ELLIPSE
  5
7A2
100
AcDbEntity
  8
RACCORDO
100
AcDbEllipse
 62
7
  6
CONTINUOUS
 10
-1.7104274553
 20
6.3750760023
 30
0.0
 11
-0.0712498608
 21
-0.0712498608
 31
0.0
 40
0.9924325091
 41
-0.7816000651
 42
0.7816000651
  0
ELLIPSE
  5
7A3
100
AcDbEntity
  8
RACCORDO
100
AcDbEllipse
 62
7
  6
CONTINUOUS
 10
0.1894205403
 20
6.3750760023
 30
0.0
 11
0.0712498608
 21
-0.0712498608
 31
0.0
 40
0.9924325091
 41
-0.7816000651
 42
0.7816000651
  0
ELLIPSE
  5
7A4
100
AcDbEntity
  8
RACCORDO
100
AcDbEllipse
 62
7
  6
CONTINUOUS
 10
-1.7104274553
 20
16.2749239978
 30
0.0
 11
-0.0712498608
 21
0.0712498608
 31
0.0
 40
0.9924325091
 41
-0.7816000651
 42
0.7816000651
  0
ELLIPSE
  5
7A5
100
AcDbEntity
  8
RACCORDO
100
AcDbEllipse
 62
7
  6
CONTINUOUS
 10
0.1894205403
 20
16.2749239978
 30
0.0
 11
0.0712498608
 21
0.0712498608
 31
0.0
 40
0.9924325091
 41
-0.7816000651
 42
0.7816000651
  0
ELLIPSE
  5
7A6
100
AcDbEntity
  8
RACCORDO
100
AcDbEllipse
 62
7
  6
CONTINUOUS
 10
-1.7104274553
 20
17.8625760023
 30
0.0
 11
-0.0712498608
 21
-0.0712498608
 31
0.0
 40
0.9924325091
 41
-0.7816000651
 42
0.7816000651
  0
ELLIPSE
  5
7A7
100
AcDbEntity
  8
RACCORDO
100
AcDbEllipse
 62
7
  6
CONTINUOUS
 10
0.1894205403
 20
17.8625760023
 30
0.0
 11
0.0712498608
 21
-0.0712498608
 31
0.0
 40
0.9924325091
 41
-0.7816000651
 42
0.7816000651
  0
ELLIPSE
  5
7A8
100
AcDbEntity
  8
RACCORDO
100
AcDbEllipse
 62
7
  6
CONTINUOUS
 10
-1.7104274553
 20
27.7624239978
 30
0.0
 11
-0.0712498608
 21
0.0712498608
 31
0.0
 40
0.9924325091
 41
-0.7816000651
 42
0.7816000651
  0
ELLIPSE
  5
7A9
100
AcDbEntity
  8
RACCORDO
100
AcDbEllipse
 62
7
  6
CONTINUOUS
 10
0.1894205403
 20
27.7624239978
 30
0.0
 11
0.0712498608
 21
0.0712498608
 31
0.0
 40
0.9924325091
 41
-0.7816000651
 42
0.7816000651
  0
ELLIPSE
  5
7AA
100
AcDbEntity
  8
RACCORDO
100
AcDbEllipse
 62
7
  6
CONTINUOUS
 10
-2.2104806083
 20
-27.7906583196
 30
0.0
 11
0.1060983284
 21
0.1060983284
 31
0.0
 40
0.9996954599
 41
-2.5585947191
 42
-2.3563467834
  0
ELLIPSE
  5
7AB
100
AcDbEntity
  8
RACCORDO
100
AcDbEllipse
 62
7
  6
CONTINUOUS
 10
0.6894736933
 20
-27.7906583196
 30
0.0
 11
0.1060983284
 21
-0.1060983284
 31
0.0
 40
0.9996954599
 41
-0.7852458701
 42
-0.5829979419
  0
ELLIPSE
  5
7AC
100
AcDbEntity
  8
RACCORDO
100
AcDbEllipse
 62
7
  6
CONTINUOUS
 10
-16.793905913
 20
-16.8375609544
 30
0.0
 11
-0.0447445175
 21
0.0895163088
 31
0.0
 40
0.9992388003
 41
-0.4632212593
 42
1.1069659872
  0
ELLIPSE
  5
7AD
100
AcDbEntity
  8
RACCORDO
100
AcDbEllipse
 62
7
  6
CONTINUOUS
 10
-17.1105339231
 20
-18.7552364873
 30
0.0
 11
0.1414644378
 21
-0.1414644378
 31
0.0
 40
0.9996954599
 41
-0.7852458701
 42
0.7852458701
  0
ELLIPSE
  5
7AE
100
AcDbEntity
  8
RACCORDO
100
AcDbEllipse
 62
7
  6
CONTINUOUS
 10
-17.0105186903
 20
-15.784611643
 30
0.0
 11
0.0924044409
 21
0.0382751726
 31
0.0
 40
0.9998215708
 41
-0.3926359958
 42
0.3926359958
  0
ELLIPSE
  5
7AF
100
AcDbEntity
  8
RACCORDO
100
AcDbEllipse
 62
7
  6
CONTINUOUS
 10
11.3644965425
 20
4.5691721818
 30
0.0
 11
0.1
 21
0.0
 31
0.0
 40
0.0174550649
 41
-1.5707963268
 42
-0.3141854329
  0
ELLIPSE
  5
7B0
100
AcDbEntity
  8
RACCORDO
100
AcDbEllipse
 62
7
  6
CONTINUOUS
 10
10.1894965425
 20
4.5691721818
 30
0.0
 11
0.1
 21
0.0
 31
0.0
 40
0.0174550649
 41
3.1415926536
 42
4.7123889804
  0
ELLIPSE
  5
7B1
100
AcDbEntity
  8
RACCORDO
100
AcDbEllipse
 62
7
  6
CONTINUOUS
 10
-11.7105034575
 20
4.5691721818
 30
0.0
 11
0.1
 21
0.0
 31
0.0
 40
0.0174550649
 41
-1.5707963268
 42
-0.3141854329
  0
ELLIPSE
  5
7B2
100
AcDbEntity
  8
RACCORDO
100
AcDbEllipse
 62
7
  6
CONTINUOUS
 10
-12.8855034575
 20
4.5691721818
 30
0.0
 11
0.1
 21
-0.0
 31
0.0
 40
0.0174550649
 41
3.1415926536
 42
4.7123889804
  0
ELLIPSE
  5
7B3
100
AcDbEntity
  8
RACCORDO
100
AcDbEllipse
 62
7
  6
CONTINUOUS
 10
-17.1052517052
 20
-15.4069928307
 30
0.0
 11
0.0924044409
 21
0.0382751726
 31
0.0
 40
0.9998215708
 41
2.7489566578
 42
3.5342286494
  0
ELLIPSE
  5
7B4
100
AcDbEntity
  8
RACCORDO
100
AcDbEllipse
 62
7
  6
CONTINUOUS
 10
-16.793905913
 20
-16.2874390455
 30
0.0
 11
0.0447445175
 21
0.0895163088
 31
0.0
 40
0.9992388003
 41
-4.2485586408
 42
-2.6783713943
  0
ELLIPSE
  5
7B5
100
AcDbEntity
  8
DRAFT
100
AcDbEllipse
 62
7
  6
CONTINUOUS
 10
-0.7605034575
 20
32.1279620496
 30
0.0
 11
191.5
 21
-0.0
 31
0.0
 40
0.0349207695
 41
-1.5201259909
 42
-1.5013240915
  0
ELLIPSE
  5
7B6
100
AcDbEntity
  8
DRAFT
100
AcDbEllipse
 62
7
  6
CONTINUOUS
 10
-0.7605034575
 20
13.4970379505
 30
0.0
 11
191.5
 21
-0.0
 31
0.0
 40
0.0349207695
 41
1.5013240915
 42
1.5201259909
  0
ELLIPSE
  5
7B7
100
AcDbEntity
  8
DRAFT
100
AcDbEllipse
 62
7
  6
CONTINUOUS
 10
-0.7605034575
 20
13.4970379505
 30
0.0
 11
191.5
 21
-0.0
 31
0.0
 40
0.0349207695
 41
1.6214666627
 42
1.640268562
  0
ELLIPSE
  5
7B8
100
AcDbEntity
  8
DRAFT
100
AcDbEllipse
 62
7
  6
CONTINUOUS
 10
-0.7605034575
 20
32.1279620496
 30
0.0
 11
191.5
 21
-0.0
 31
0.0
 40
0.0349207695
 41
-1.640268562
 42
-1.6214666627
  0
ELLIPSE
  5
7B9
100
AcDbEntity
  8
DRAFT
100
AcDbEllipse
 62
7
  6
CONTINUOUS
 10
-0.7605034575
 20
2.0095379505
 30
0.0
 11
191.5
 21
-0.0
 31
0.0
 40
0.0349207695
 41
1.6214666627
 42
1.640268562
  0
ELLIPSE
  5
7BA
100
AcDbEntity
  8
DRAFT
100
AcDbEllipse
 62
7
  6
CONTINUOUS
 10
-0.7605034575
 20
20.6404620496
 30
0.0
 11
191.5
 21
-0.0
 31
0.0
 40
0.0349207695
 41
-1.640268562
 42
-1.6214666627
  0
ELLIPSE
  5
7BB
100
AcDbEntity
  8
DRAFT
100
AcDbEllipse
 62
7
  6
CONTINUOUS
 10
-0.7605034575
 20
20.6404620496
 30
0.0
 11
191.5
 21
-0.0
 31
0.0
 40
0.0349207695
 41
-1.5201259909
 42
-1.5013240915
  0
ELLIPSE
  5
7BC
100
AcDbEntity
  8
DRAFT
100
AcDbEllipse
 62
7
  6
CONTINUOUS
 10
-0.7605034575
 20
2.0095379505
 30
0.0
 11
191.5
 21
-0.0
 31
0.0
 40
0.0349207695
 41
1.5015504005
 42
1.5201259909
  0
ELLIPSE
  5
7BD
100
AcDbEntity
  8
RACCORDO
100
AcDbEllipse
 62
7
  6
CONTINUOUS
 10
-19.2543561028
 20
-28.5313526452
 30
0.0
 11
-0.1768305473
 21
-0.1768305473
 31
0.0
 40
0.9996954599
 41
-0.7852458701
 42
0.7852458701
  0
ELLIPSE
  5
7BE
100
AcDbEntity
  8
RACCORDO
100
AcDbEllipse
 62
7
  6
CONTINUOUS
 10
-18.7543561028
 20
28.2063526453
 30
0.0
 11
-0.1768305473
 21
0.1768305473
 31
0.0
 40
0.9996954599
 41
-0.7852458701
 42
0.7852458701
  0
ELLIPSE
  5
7BF
100
AcDbEntity
  8
RACCORDO
100
AcDbEllipse
 62
7
  6
CONTINUOUS
 10
18.4746216553
 20
-28.5226251128
 30
0.0
 11
-0.1768305473
 21
0.1768305473
 31
0.0
 40
0.9996954599
 41
2.3563467834
 42
3.9268385237
  0
ELLIPSE
  5
7C0
100
AcDbEntity
  8
RACCORDO
100
AcDbEllipse
 62
7
  6
CONTINUOUS
 10
18.4746216553
 20
28.1976251128
 30
0.0
 11
0.1768305473
 21
0.1768305473
 31
0.0
 40
0.9996954599
 41
-0.7852458701
 42
0.7852458701
  0
ELLIPSE
  5
7C1
100
AcDbEntity
  8
RACCORDO
100
AcDbEllipse
 62
7
  6
CONTINUOUS
 10
-9.9845449209
 20
-9.5365414633
 30
0.0
 11
-0.1769921361
 21
-0.1769921361
 31
0.0
 40
0.998782766
 41
2.994380686
 42
3.9263818294
  0
ELLIPSE
  5
7C2
100
AcDbEntity
  8
RACCORDO
100
AcDbEllipse
 62
7
  6
CONTINUOUS
 10
-9.0364619941
 20
-9.5365414633
 30
0.0
 11
-0.1769921361
 21
0.1769921361
 31
0.0
 40
0.998782766
 41
-0.7847891758
 42
0.1472119676
  0
ELLIPSE
  5
7C3
100
AcDbEntity
  8
RACCORDO
100
AcDbEllipse
 62
7
  6
CONTINUOUS
 10
7.5154550791
 20
-9.5365414633
 30
0.0
 11
-0.1769921361
 21
-0.1769921361
 31
0.0
 40
0.998782766
 41
2.994380686
 42
3.9263818294
  0
ELLIPSE
  5
7C4
100
AcDbEntity
  8
RACCORDO
100
AcDbEllipse
 62
7
  6
CONTINUOUS
 10
8.4635380059
 20
-9.5365414633
 30
0.0
 11
-0.1769921361
 21
0.1769921361
 31
0.0
 40
0.998782766
 41
-0.7847891758
 42
0.1472119676
  0
ELLIPSE
  5
7C5
100
AcDbEntity
  8
RACCORDO
100
AcDbEllipse
 62
7
  6
CONTINUOUS
 10
-9.0853510714
 20
-9.4876523861
 30
0.0
 11
0.1769921361
 21
-0.1769921361
 31
0.0
 40
0.998782766
 41
2.3568034778
 42
3.5153703537
  0
ELLIPSE
  5
7C6
100
AcDbEntity
  8
RACCORDO
100
AcDbEllipse
 62
7
  6
CONTINUOUS
 10
-9.9356558436
 20
-9.4876523861
 30
0.0
 11
0.1769921361
 21
0.1769921361
 31
0.0
 40
0.998782766
 41
-0.3737777001
 42
0.7847891758
  0
ELLIPSE
  5
7C7
100
AcDbEntity
  8
RACCORDO
100
AcDbEllipse
 62
7
  6
CONTINUOUS
 10
8.4146489286
 20
-9.4876523861
 30
0.0
 11
0.1769921361
 21
-0.1769921361
 31
0.0
 40
0.998782766
 41
2.3568034778
 42
3.5153703537
  0
ELLIPSE
  5
7C8
100
AcDbEntity
  8
RACCORDO
100
AcDbEllipse
 62
7
  6
CONTINUOUS
 10
7.5643441564
 20
-9.4876523861
 30
0.0
 11
0.1769921361
 21
0.1769921361
 31
0.0
 40
0.998782766
 41
-0.3737777001
 42
0.7847891758
  0
ELLIPSE
  5
7C9
100
AcDbEntity
  8
RACCORDO
100
AcDbEllipse
 62
7
  6
CONTINUOUS
 10
-13.7103510714
 20
-9.4876523861
 30
0.0
 11
0.1769921361
 21
-0.1769921361
 31
0.0
 40
0.998782766
 41
2.3568034778
 42
3.5153703537
  0
ELLIPSE
  5
7CA
100
AcDbEntity
  8
RACCORDO
100
AcDbEllipse
 62
7
  6
CONTINUOUS
 10
15.434221941
 20
-27.7072253985
 30
0.0
 11
0.1768305473
 21
-0.1768305473
 31
0.0
 40
0.9996954599
 41
0.0202458672
 42
0.7852458701
  0
ELLIPSE
  5
7CB
100
AcDbEntity
  8
RACCORDO
100
AcDbEllipse
 62
7
  6
CONTINUOUS
 10
15.434221941
 20
-27.7072253985
 30
0.0
 11
0.1768305473
 21
-0.1768305473
 31
0.0
 40
0.9996954599
 41
-0.7852458701
 42
-0.386515704
  0
ELLIPSE
  5
7CC
100
AcDbEntity
  8
RACCORDO
100
AcDbEllipse
 62
7
  6
CONTINUOUS
 10
15.4176396293
 20
-26.9876523861
 30
0.0
 11
0.1118612938
 21
0.2237907721
 31
0.0
 40
0.9992388003
 41
-1.1069659872
 42
-0.4429886296
  0
ELLIPSE
  5
7CD
100
AcDbEntity
  8
RACCORDO
100
AcDbEllipse
 62
7
  6
CONTINUOUS
 10
15.4176396293
 20
-26.1373476139
 30
0.0
 11
-0.1118612938
 21
0.2237907721
 31
0.0
 40
0.9992388003
 41
-2.6986040239
 42
-2.0346266664
  0
ELLIPSE
  5
7CE
100
AcDbEntity
  8
RACCORDO
100
AcDbEllipse
 62
7
  6
CONTINUOUS
 10
15.4176396293
 20
-24.4876523861
 30
0.0
 11
0.1118612938
 21
0.2237907721
 31
0.0
 40
0.9992388003
 41
-1.1069659872
 42
-0.4429886296
  0
ELLIPSE
  5
7CF
100
AcDbEntity
  8
RACCORDO
100
AcDbEllipse
 62
7
  6
CONTINUOUS
 10
13.0396489286
 20
-9.4876523861
 30
0.0
 11
0.1769921361
 21
-0.1769921361
 31
0.0
 40
0.998782766
 41
2.3568034778
 42
3.5153703537
  0
ELLIPSE
  5
7D0
100
AcDbEntity
  8
RACCORDO
100
AcDbEllipse
 62
7
  6
CONTINUOUS
 10
12.1893441564
 20
-9.4876523861
 30
0.0
 11
0.1769921361
 21
0.1769921361
 31
0.0
 40
0.998782766
 41
-0.3737777001
 42
0.7847891758
  0
ELLIPSE
  5
7D1
100
AcDbEntity
  8
RACCORDO
100
AcDbEllipse
 62
7
  6
CONTINUOUS
 10
15.4176396293
 20
-11.1373476139
 30
0.0
 11
-0.1118612938
 21
0.2237907721
 31
0.0
 40
0.9992388003
 41
-2.6986040239
 42
-2.0346266664
  0
ELLIPSE
  5
7D2
100
AcDbEntity
  8
RACCORDO
100
AcDbEllipse
 62
7
  6
CONTINUOUS
 10
15.4220033955
 20
-9.4789221937
 30
0.0
 11
0.1118612938
 21
0.2237907721
 31
0.0
 40
0.9992388003
 41
-1.1069659872
 42
0.4632212593
  0
ELLIPSE
  5
7D3
100
AcDbEntity
  8
RACCORDO
100
AcDbEllipse
 62
7
  6
CONTINUOUS
 10
-14.5606558436
 20
-9.4876523861
 30
0.0
 11
0.1769921361
 21
0.1769921361
 31
0.0
 40
0.998782766
 41
-0.3737777001
 42
0.7847891758
  0
ELLIPSE
  5
7D4
100
AcDbEntity
  8
RACCORDO
100
AcDbEllipse
 62
7
  6
CONTINUOUS
 10
-16.9430103106
 20
-9.4789221937
 30
0.0
 11
-0.1118612938
 21
0.2237907721
 31
0.0
 40
0.9992388003
 41
-0.4632212593
 42
1.1069659872
  0
ELLIPSE
  5
7D5
100
AcDbEntity
  8
RACCORDO
100
AcDbEllipse
 62
7
  6
CONTINUOUS
 10
-16.9386465443
 20
-11.1373476139
 30
0.0
 11
0.1118612938
 21
0.2237907721
 31
0.0
 40
0.9992388003
 41
-4.2485586408
 42
-3.5845812832
  0
ELLIPSE
  5
7D6
100
AcDbEntity
  8
RACCORDO
100
AcDbEllipse
 62
7
  6
CONTINUOUS
 10
-16.9386465443
 20
-11.9876523861
 30
0.0
 11
-0.1118612938
 21
0.2237907721
 31
0.0
 40
0.9992388003
 41
0.4429886296
 42
1.1069659872
  0
ELLIPSE
  5
7D7
100
AcDbEntity
  8
RACCORDO
100
AcDbEllipse
 62
7
  6
CONTINUOUS
 10
-16.9386465443
 20
-26.1373476139
 30
0.0
 11
0.1118612938
 21
0.2237907721
 31
0.0
 40
0.9992388003
 41
-4.2485586408
 42
-3.5845812832
  0
ELLIPSE
  5
7D8
100
AcDbEntity
  8
RACCORDO
100
AcDbEllipse
 62
7
  6
CONTINUOUS
 10
-16.9386465443
 20
-26.9876523861
 30
0.0
 11
-0.1118612938
 21
0.2237907721
 31
0.0
 40
0.9992388003
 41
0.4429886296
 42
1.1069659872
  0
ELLIPSE
  5
7D9
100
AcDbEntity
  8
RACCORDO
100
AcDbEllipse
 62
7
  6
CONTINUOUS
 10
-16.955228856
 20
-27.7072253985
 30
0.0
 11
0.1768305473
 21
0.1768305473
 31
0.0
 40
0.9996954599
 41
-2.7550769496
 42
-2.3563467834
  0
ELLIPSE
  5
7DA
100
AcDbEntity
  8
RACCORDO
100
AcDbEllipse
 62
7
  6
CONTINUOUS
 10
-16.955228856
 20
-27.7072253985
 30
0.0
 11
0.1768305473
 21
0.1768305473
 31
0.0
 40
0.9996954599
 41
-3.9268385237
 42
-3.1618385208
  0
ELLIPSE
  5
7DB
100
AcDbEntity
  8
RACCORDO
100
AcDbEllipse
 62
7
  6
CONTINUOUS
 10
-16.9386465443
 20
-13.6373476139
 30
0.0
 11
0.1118612938
 21
0.2237907721
 31
0.0
 40
0.9992388003
 41
-4.2485586408
 42
-3.5845812832
  0
ELLIPSE
  5
7DC
100
AcDbEntity
  8
RACCORDO
100
AcDbEllipse
 62
7
  6
CONTINUOUS
 10
-16.9386465443
 20
-14.4876523861
 30
0.0
 11
-0.1118612938
 21
0.2237907721
 31
0.0
 40
0.9992388003
 41
0.4429886296
 42
1.1069659872
  0
ELLIPSE
  5
7DD
100
AcDbEntity
  8
RACCORDO
100
AcDbEllipse
 62
7
  6
CONTINUOUS
 10
-16.9386465443
 20
-19.4876523861
 30
0.0
 11
-0.1118612938
 21
0.2237907721
 31
0.0
 40
0.9992388003
 41
0.4429886296
 42
1.1069659872
  0
ELLIPSE
  5
7DE
100
AcDbEntity
  8
RACCORDO
100
AcDbEllipse
 62
7
  6
CONTINUOUS
 10
-16.9386465443
 20
-19.4876523861
 30
0.0
 11
-0.1118612938
 21
0.2237907721
 31
0.0
 40
0.9992388003
 41
-0.4632212593
 42
-0.0124994061
  0
ELLIPSE
  5
7DF
100
AcDbEntity
  8
RACCORDO
100
AcDbEllipse
 62
7
  6
CONTINUOUS
 10
-16.9386465443
 20
-21.1373476139
 30
0.0
 11
0.1118612938
 21
0.2237907721
 31
0.0
 40
0.9992388003
 41
-4.2485586408
 42
-3.5845812832
  0
ELLIPSE
  5
7E0
100
AcDbEntity
  8
RACCORDO
100
AcDbEllipse
 62
7
  6
CONTINUOUS
 10
-16.9386465443
 20
-21.9876523861
 30
0.0
 11
-0.1118612938
 21
0.2237907721
 31
0.0
 40
0.9992388003
 41
0.4429886296
 42
1.1069659872
  0
ELLIPSE
  5
7E1
100
AcDbEntity
  8
RACCORDO
100
AcDbEllipse
 62
7
  6
CONTINUOUS
 10
-16.9386465443
 20
-23.6373476139
 30
0.0
 11
0.1118612938
 21
0.2237907721
 31
0.0
 40
0.9992388003
 41
-4.2485586408
 42
-3.5845812832
  0
ELLIPSE
  5
7E2
100
AcDbEntity
  8
RACCORDO
100
AcDbEllipse
 62
7
  6
CONTINUOUS
 10
-16.9386465443
 20
-24.4876523861
 30
0.0
 11
-0.1118612938
 21
0.2237907721
 31
0.0
 40
0.9992388003
 41
0.4429886296
 42
1.1069659872
  0
ELLIPSE
  5
7E3
100
AcDbEntity
  8
DRAFT
100
AcDbEllipse
 62
7
  6
CONTINUOUS
 10
-0.7605034575
 20
12.8470379505
 30
0.0
 11
191.5
 21
-0.0
 31
0.0
 40
0.0349207695
 41
1.640268562
 42
1.6508402392
  0
ELLIPSE
  5
7E4
100
AcDbEntity
  8
DRAFT
100
AcDbEllipse
 62
7
  6
CONTINUOUS
 10
-0.7605034575
 20
12.8470379505
 30
0.0
 11
191.5
 21
-0.0
 31
0.0
 40
0.0349207695
 41
1.5201259909
 42
1.6214666627
  0
ELLIPSE
  5
7E5
100
AcDbEntity
  8
DRAFT
100
AcDbEllipse
 62
7
  6
CONTINUOUS
 10
-0.7605034575
 20
12.8470379505
 30
0.0
 11
191.5
 21
-0.0
 31
0.0
 40
0.0349207695
 41
1.4907524144
 42
1.5013240915
  0
ELLIPSE
  5
7E6
100
AcDbEntity
  8
DRAFT
100
AcDbEllipse
 62
7
  6
CONTINUOUS
 10
-0.7605034575
 20
32.7779620496
 30
0.0
 11
191.5
 21
-0.0
 31
0.0
 40
0.0349207695
 41
-1.5932123802
 42
-1.5483802734
  0
ELLIPSE
  5
7E7
100
AcDbEntity
  8
DRAFT
100
AcDbEllipse
 62
7
  6
CONTINUOUS
 10
-0.7605034575
 20
32.7779620496
 30
0.0
 11
191.5
 21
-0.0
 31
0.0
 40
0.0349207695
 41
-1.6508402392
 42
-1.640268562
  0
ELLIPSE
  5
7E8
100
AcDbEntity
  8
DRAFT
100
AcDbEllipse
 62
7
  6
CONTINUOUS
 10
-0.7605034575
 20
32.7779620496
 30
0.0
 11
191.5
 21
-0.0
 31
0.0
 40
0.0349207695
 41
-1.6214666627
 42
-1.6110366988
  0
ELLIPSE
  5
7E9
100
AcDbEntity
  8
DRAFT
100
AcDbEllipse
 62
7
  6
CONTINUOUS
 10
-0.7605034575
 20
32.7779620496
 30
0.0
 11
191.5
 21
-0.0
 31
0.0
 40
0.0349207695
 41
-1.5013240915
 42
-1.4907524144
  0
ELLIPSE
  5
7EA
100
AcDbEntity
  8
DRAFT
100
AcDbEllipse
 62
7
  6
CONTINUOUS
 10
-0.7605034575
 20
32.7779620496
 30
0.0
 11
191.5
 21
-0.0
 31
0.0
 40
0.0349207695
 41
-1.5305559548
 42
-1.5201259909
  0
ELLIPSE
  5
7EB
100
AcDbEntity
  8
DRAFT
100
AcDbEllipse
 62
7
  6
CONTINUOUS
 10
-0.7605034575
 20
1.3595379505
 30
0.0
 11
191.5
 21
-0.0
 31
0.0
 40
0.0349207695
 41
1.640268562
 42
1.6508402392
  0
ELLIPSE
  5
7EC
100
AcDbEntity
  8
DRAFT
100
AcDbEllipse
 62
7
  6
CONTINUOUS
 10
-0.7605034575
 20
1.3595379505
 30
0.0
 11
191.5
 21
-0.0
 31
0.0
 40
0.0349207695
 41
1.5201259909
 42
1.6214666627
  0
ELLIPSE
  5
7ED
100
AcDbEntity
  8
DRAFT
100
AcDbEllipse
 62
7
  6
CONTINUOUS
 10
-0.7605034575
 20
1.3595379505
 30
0.0
 11
191.5
 21
-0.0
 31
0.0
 40
0.0349207695
 41
1.4907524144
 42
1.5015504005
  0
ELLIPSE
  5
7EE
100
AcDbEntity
  8
DRAFT
100
AcDbEllipse
 62
7
  6
CONTINUOUS
 10
-0.7605034575
 20
21.2904620496
 30
0.0
 11
191.5
 21
-0.0
 31
0.0
 40
0.0349207695
 41
-1.6508402392
 42
-1.640268562
  0
ELLIPSE
  5
7EF
100
AcDbEntity
  8
DRAFT
100
AcDbEllipse
 62
7
  6
CONTINUOUS
 10
-0.7605034575
 20
21.2904620496
 30
0.0
 11
191.5
 21
-0.0
 31
0.0
 40
0.0349207695
 41
-1.5013240915
 42
-1.4907524144
  0
ELLIPSE
  5
7F0
100
AcDbEntity
  8
DRAFT
100
AcDbEllipse
 62
7
  6
CONTINUOUS
 10
-0.7605034575
 20
21.2904620496
 30
0.0
 11
191.5
 21
-0.0
 31
0.0
 40
0.0349207695
 41
-1.6214666627
 42
-1.5201259909
  0
ELLIPSE
  5
7F1
100
AcDbEntity
  8
RACCORDO
100
AcDbEllipse
 62
7
  6
CONTINUOUS
 10
19.7401928389
 20
18.0368037036
 30
0.0
 11
-0.1068747912
 21
0.1068747912
 31
0.0
 40
0.9924325091
 41
2.3599925885
 42
3.9231927187
  0
ELLIPSE
  5
7F2
100
AcDbEntity
  8
RACCORDO
100
AcDbEllipse
 62
7
  6
CONTINUOUS
 10
19.2388002461
 20
18.0368037036
 30
0.0
 11
0.1068747912
 21
0.1068747912
 31
0.0
 40
0.9924325091
 41
2.3599925885
 42
3.9231927187
  0
ELLIPSE
  5
7F3
100
AcDbEntity
  8
RACCORDO
100
AcDbEllipse
 62
7
  6
CONTINUOUS
 10
19.7401928389
 20
21.6381962964
 30
0.0
 11
-0.1068747912
 21
-0.1068747912
 31
0.0
 40
0.9924325091
 41
2.3599925885
 42
3.9231927187
  0
ELLIPSE
  5
7F4
100
AcDbEntity
  8
RACCORDO
100
AcDbEllipse
 62
7
  6
CONTINUOUS
 10
19.2388002461
 20
21.6381962964
 30
0.0
 11
0.1068747912
 21
-0.1068747912
 31
0.0
 40
0.9924325091
 41
2.3599925885
 42
3.9231927187
  0
ELLIPSE
  5
7F5
100
AcDbEntity
  8
RACCORDO
100
AcDbEllipse
 62
7
  6
CONTINUOUS
 10
19.7401928389
 20
-21.9631962964
 30
0.0
 11
-0.1068747912
 21
0.1068747912
 31
0.0
 40
0.9924325091
 41
2.3599925885
 42
3.9231927187
  0
ELLIPSE
  5
7F6
100
AcDbEntity
  8
RACCORDO
100
AcDbEllipse
 62
7
  6
CONTINUOUS
 10
19.2388002461
 20
-21.9631962964
 30
0.0
 11
0.1068747912
 21
0.1068747912
 31
0.0
 40
0.9924325091
 41
2.3599925885
 42
3.9231927187
  0
ELLIPSE
  5
7F7
100
AcDbEntity
  8
RACCORDO
100
AcDbEllipse
 62
7
  6
CONTINUOUS
 10
19.2388002461
 20
-18.3618037036
 30
0.0
 11
0.1068747912
 21
-0.1068747912
 31
0.0
 40
0.9924325091
 41
2.3599925885
 42
3.9231927187
  0
ELLIPSE
  5
7F8
100
AcDbEntity
  8
RACCORDO
100
AcDbEllipse
 62
7
  6
CONTINUOUS
 10
19.7401928389
 20
-18.3618037036
 30
0.0
 11
-0.1068747912
 21
-0.1068747912
 31
0.0
 40
0.9924325091
 41
2.3599925885
 42
3.9231927187
  0
ELLIPSE
  5
7F9
100
AcDbEntity
  8
DRAFT
100
AcDbEllipse
 62
7
  6
CONTINUOUS
 10
-0.7605034575
 20
32.6279620496
 30
0.0
 11
191.5
 21
-0.0
 31
0.0
 40
0.0349207695
 41
-1.5483802734
 42
-1.5305559548
  0
ELLIPSE
  5
7FA
100
AcDbEntity
  8
DRAFT
100
AcDbEllipse
 62
7
  6
CONTINUOUS
 10
-0.7605034575
 20
32.6279620496
 30
0.0
 11
191.5
 21
-0.0
 31
0.0
 40
0.0349207695
 41
-1.6110366988
 42
-1.5932123802
  0
ELLIPSE
  5
7FB
100
AcDbEntity
  8
RACCORDO
100
AcDbEllipse
 62
7
  6
CONTINUOUS
 10
19.8889235669
 20
17.8880729757
 30
0.0
 11
0.1068747912
 21
-0.1068747912
 31
0.0
 40
0.9924325091
 41
-0.7816000651
 42
0.7816000651
  0
ELLIPSE
  5
7FC
100
AcDbEntity
  8
RACCORDO
100
AcDbEllipse
 62
7
  6
CONTINUOUS
 10
19.0900695181
 20
17.8880729757
 30
0.0
 11
0.1068747912
 21
0.1068747912
 31
0.0
 40
0.9924325091
 41
-3.9231927187
 42
-2.3599925885
  0
ELLIPSE
  5
7FD
100
AcDbEntity
  8
RACCORDO
100
AcDbEllipse
 62
7
  6
CONTINUOUS
 10
19.8889235669
 20
21.7869270244
 30
0.0
 11
0.1068747912
 21
0.1068747912
 31
0.0
 40
0.9924325091
 41
-0.7816000651
 42
0.7816000651
  0
ELLIPSE
  5
7FE
100
AcDbEntity
  8
RACCORDO
100
AcDbEllipse
 62
7
  6
CONTINUOUS
 10
19.0900695181
 20
21.7869270244
 30
0.0
 11
0.1068747912
 21
-0.1068747912
 31
0.0
 40
0.9924325091
 41
2.3599925885
 42
3.9231927187
  0
ELLIPSE
  5
7FF
100
AcDbEntity
  8
RACCORDO
100
AcDbEllipse
 62
7
  6
CONTINUOUS
 10
19.8889235669
 20
-22.1119270243
 30
0.0
 11
0.1068747912
 21
-0.1068747912
 31
0.0
 40
0.9924325091
 41
-0.7816000651
 42
0.7816000651
  0
ELLIPSE
  5
800
100
AcDbEntity
  8
RACCORDO
100
AcDbEllipse
 62
7
  6
CONTINUOUS
 10
19.0900695181
 20
-22.1119270243
 30
0.0
 11
0.1068747912
 21
0.1068747912
 31
0.0
 40
0.9924325091
 41
-3.9231927187
 42
-2.3599925885
  0
ELLIPSE
  5
801
100
AcDbEntity
  8
RACCORDO
100
AcDbEllipse
 62
7
  6
CONTINUOUS
 10
19.0900695181
 20
-18.2130729756
 30
0.0
 11
0.1068747912
 21
-0.1068747912
 31
0.0
 40
0.9924325091
 41
2.3599925885
 42
3.9231927187
  0
ELLIPSE
  5
802
100
AcDbEntity
  8
RACCORDO
100
AcDbEllipse
 62
7
  6
CONTINUOUS
 10
19.8889235669
 20
-18.2130729756
 30
0.0
 11
0.1068747912
 21
0.1068747912
 31
0.0
 40
0.9924325091
 41
-0.7816000651
 42
0.7816000651
  0
ELLIPSE
  5
803
100
AcDbEntity
  8
RACCORDO
100
AcDbEllipse
 62
7
  6
CONTINUOUS
 10
-1.8066649852
 20
6.2788384724
 30
0.0
 11
0.0712498608
 21
0.0712498608
 31
0.0
 40
0.9924325091
 41
2.3599925885
 42
3.9231927187
  0
ELLIPSE
  5
804
100
AcDbEntity
  8
RACCORDO
100
AcDbEllipse
 62
7
  6
CONTINUOUS
 10
0.2856580701
 20
6.2788384724
 30
0.0
 11
0.0712498608
 21
-0.0712498608
 31
0.0
 40
0.9924325091
 41
-0.7816000651
 42
0.7816000651
  0
ELLIPSE
  5
805
100
AcDbEntity
  8
RACCORDO
100
AcDbEllipse
 62
7
  6
CONTINUOUS
 10
-1.8066649852
 20
16.3711615277
 30
0.0
 11
0.0712498608
 21
-0.0712498608
 31
0.0
 40
0.9924325091
 41
2.3599925885
 42
3.9231927187
  0
ELLIPSE
  5
806
100
AcDbEntity
  8
RACCORDO
100
AcDbEllipse
 62
7
  6
CONTINUOUS
 10
0.2856580701
 20
16.3711615277
 30
0.0
 11
0.0712498608
 21
0.0712498608
 31
0.0
 40
0.9924325091
 41
-0.7816000651
 42
0.7816000651
  0
ELLIPSE
  5
807
100
AcDbEntity
  8
RACCORDO
100
AcDbEllipse
 62
7
  6
CONTINUOUS
 10
-1.8066649852
 20
17.7663384724
 30
0.0
 11
0.0712498608
 21
0.0712498608
 31
0.0
 40
0.9924325091
 41
2.3599925885
 42
3.9231927187
  0
ELLIPSE
  5
808
100
AcDbEntity
  8
DRAFT
100
AcDbEllipse
 62
7
  6
CONTINUOUS
 10
16.0394965425
 20
-27.9588344363
 30
0.0
 11
0.05
 21
-0.0
 31
0.0
 40
0.0174550649
 41
-2.7925268032
 42
-0.3490658504
  0
ELLIPSE
  5
809
100
AcDbEntity
  8
DRAFT
100
AcDbEllipse
 62
7
  6
CONTINUOUS
 10
16.3894965425
 20
-27.9588344363
 30
0.0
 11
0.05
 21
-0.0
 31
0.0
 40
0.0174550649
 41
-2.7925268032
 42
-0.3490658504
  0
ELLIPSE
  5
80A
100
AcDbEntity
  8
RACCORDO
100
AcDbEllipse
 62
7
  6
CONTINUOUS
 10
0.2856580701
 20
17.7663384724
 30
0.0
 11
0.0712498608
 21
-0.0712498608
 31
0.0
 40
0.9924325091
 41
-0.7816000651
 42
0.7816000651
  0
ELLIPSE
  5
80B
100
AcDbEntity
  8
DRAFT
100
AcDbEllipse
 62
7
  6
CONTINUOUS
 10
-17.9105034575
 20
-27.9588344363
 30
0.0
 11
0.05
 21
-0.0
 31
0.0
 40
0.0174550649
 41
-2.7925268032
 42
-0.3490658504
  0
ELLIPSE
  5
80C
100
AcDbEntity
  8
DRAFT
100
AcDbEllipse
 62
7
  6
CONTINUOUS
 10
-17.5605034575
 20
-27.9588344363
 30
0.0
 11
0.05
 21
-0.0
 31
0.0
 40
0.0174550649
 41
-2.7925268032
 42
-0.3490658504
  0
ELLIPSE
  5
80D
100
AcDbEntity
  8
DRAFT
100
AcDbEllipse
 62
7
  6
CONTINUOUS
 10
-0.7605034575
 20
8.7418054529
 30
0.0
 11
241.25
 21
-0.0
 31
0.0
 40
0.0174550649
 41
-1.5230826671
 42
-1.5065143385
  0
ELLIPSE
  5
80E
100
AcDbEntity
  8
DRAFT
100
AcDbEllipse
 62
7
  6
CONTINUOUS
 10
-0.7605034575
 20
8.7418054529
 30
0.0
 11
241.25
 21
-0.0
 31
0.0
 40
0.0174550649
 41
-1.5508550734
 42
-1.5275460159
  0
ELLIPSE
  5
80F
100
AcDbEntity
  8
DRAFT
100
AcDbEllipse
 62
7
  6
CONTINUOUS
 10
-0.7605034575
 20
8.7418054529
 30
0.0
 11
241.25
 21
-0.0
 31
0.0
 40
0.0174550649
 41
-1.5881621288
 42
-1.5534305248
  0
ELLIPSE
  5
810
100
AcDbEntity
  8
DRAFT
100
AcDbEllipse
 62
7
  6
CONTINUOUS
 10
-0.7605034575
 20
8.7418054529
 30
0.0
 11
241.25
 21
-0.0
 31
0.0
 40
0.0174550649
 41
-1.6140466376
 42
-1.5907375802
  0
ELLIPSE
  5
811
100
AcDbEntity
  8
DRAFT
100
AcDbEllipse
 62
7
  6
CONTINUOUS
 10
-0.7605034575
 20
8.7418054529
 30
0.0
 11
241.25
 21
-0.0
 31
0.0
 40
0.0174550649
 41
-1.6350783151
 42
-1.6185099865
  0
ELLIPSE
  5
812
100
AcDbEntity
  8
RACCORDO
100
AcDbEllipse
 62
7
  6
CONTINUOUS
 10
-1.8066649852
 20
27.8586615277
 30
0.0
 11
0.0712498608
 21
-0.0712498608
 31
0.0
 40
0.9924325091
 41
2.3599925885
 42
3.9231927187
  0
ELLIPSE
  5
813
100
AcDbEntity
  8
RACCORDO
100
AcDbEllipse
 62
7
  6
CONTINUOUS
 10
0.2856580701
 20
27.8586615277
 30
0.0
 11
0.0712498608
 21
0.0712498608
 31
0.0
 40
0.9924325091
 41
-0.7816000651
 42
0.7816000651
  0
ENDSEC
  0
SECTION
  2
OBJECTS
  0
DICTIONARY
  5
C
100
AcDbDictionary
280
0
281
1
  3
ACAD_GROUP
350
D
  3
ACAD_MLINESTYLE
350
17
  3
ACAD_LAYOUT
350
1A
  3
ACAD_PLOTSETTINGS
350
19
  3
ACAD_PLOTSTYLENAME
350
E
  0
DICTIONARY
  5
D
102
{ACAD_REACTORS
330
C
102
}
100
AcDbDictionary
280
0
281
1
  0
ACDBDICTIONARYWDFLT
  5
E
102
{ACAD_REACTORS
330
C
102
}
100
AcDbDictionary
281
1
  3
Normal
350
F
100
AcDbDictionaryWithDefault
340
F
  0
DICTIONARY
  5
17
102
{ACAD_REACTORS
330
C
102
}
100
AcDbDictionary
280
0
281
1
  3
Standard
350
18
  0
DICTIONARY
  5
19
102
{ACAD_REACTORS
330
C
102
}
100
AcDbDictionary
281
1
  0
DICTIONARY
  5
1A
102
{ACAD_REACTORS
330
C
102
}
100
AcDbDictionary
281
1
  3
Model
350
814
  3
Layout1
350
815
  0
ACDBPLACEHOLDER
  5
F
102
{ACAD_REACTORS
330
E
102
}
  0
MLINESTYLE
  5
18
102
{ACAD_REACTORS
330
17
102
}
100
AcDbMlineStyle
  2
STANDARD
 70
0
  3

 62
256
 51
90.0
 52
90.0
 71
2
 49
0.5
 62
256
  6
BYLAYER
 49
-0.5
 62
256
  6
BYLAYER
  0
LAYOUT
  5
814
102
{ACAD_REACTORS
330
1A
102
}
100
AcDbPlotSettings
  1

  2
none_device
  4
ISO_A4_(297.00_x_210.00_MM)
  6

 40
0.0
 41
0.0
 42
0.0
 43
0.0
 44
297.0
 45
210.0
 46
0.0
 47
0.0
 48
0.0
 49
0.0
140
0.0
141
0.0
142
1.0
143
1.0
 70
1024
 72
1
 73
0
 74
0
  7

 75
0
147
1.0
148
0.0
149
0.0
100
AcDbLayout
  1
Model
 70
0
 71
0
 10
0.0
 20
0.0
 11
297.0
 21
210.0
 12
0.0
 22
0.0
 32
0.0
 14
0.0
 24
0.0
 34
0.0
 15
0.0
 25
0.0
 35
0.0
146
0.0
 13
0.0
 23
0.0
 33
0.0
 16
1.0
 26
0.0
 36
0.0
 17
0.0
 27
1.0
 37
0.0
 76
0
330
215
345
0
346
0
  0
LAYOUT
  5
815
102
{ACAD_REACTORS
330
1A
102
}
100
AcDbPlotSettings
  1

  2
none_device
  4
ISO_A4_(297.00_x_210.00_MM)
  6

 40
0.0
 41
0.0
 42
0.0
 43
0.0
 44
297.0
 45
210.0
 46
0.0
 47
0.0
 48
0.0
 49
0.0
140
0.0
141
0.0
142
1.0
143
1.0
 70
0
 72
1
 73
0
 74
0
  7

 75
0
147
1.0
148
0.0
149
0.0
100
AcDbLayout
  1
Layout1
 70
0
 71
1
 10
0.0
 20
0.0
 11
297.0
 21
210.0
 12
0.0
 22
0.0
 32
0.0
 14
0.0
 24
0.0
 34
0.0
 15
0.0
 25
0.0
 35
0.0
146
0.0
 13
0.0
 23
0.0
 33
0.0
 16
1.0
 26
0.0
 36
0.0
 17
0.0
 27
1.0
 37
0.0
 76
0
330
216
345
0
346
0
  0
ENDSEC
  0
EOF
