  0
SECTION
  2
HEADER
  9
$ACADVER
  1
AC1015
  9
$DWGCODEPAGE
  3
ANSI_1252
  9
$EXTMAX
 10
297.0
 20
210.0
 30
0.0
  9
$EXTMIN
 10
0.0
 20
0.0
 30
0.0
  9
$LIMMIN
 10
0.0
 20
0.0
  9
$LIMMAX
 10
297.0
 20
210.0
  9
$VIEWCTR
 10
148.5
 20
105.0
  9
$VIEWSIZE
 40
210.0
  9
$CLAYER
  8
0
  9
$LTSCALE
 40
16.335
  9
$CELTYPE
  6
BYLAYER
  9
$DIMSCALE
 40
1.0
  9
$DIMASZ
 40
3.0
  9
$DIMEXO
 40
0.5
  9
$DIMDLI
 40
11.286
  9
$DIMEXE
 40
1.5
  9
$DIMCEN
 40
2.673
  9
$DIMLFAC
 40
1.0
  9
$DIMBLK
  1
_FILLED
  9
$DIMALT
 70
0
  9
$DIMALTF
 40
0.0393700787
  9
$DIMTXT
 40
3.0
  9
$DIMTOL
 70
1
  9
$DIMLIM
 70
0
  9
$DIMTFAC
 40
1.0
  9
$DIMTP
 40
0.01
  9
$DIMTM
 40
0.01
  9
$DIMGAP
 40
0.625
  9
$DIMDSEP
 70
44
  9
$AUNITS
 70
0
  9
$PDMODE
 70
3
  9
$PDSIZE
 40
3.0
  9
$HANDSEED
  5
2E4
  9
$TILEMODE
 70
1
  9
$MEASUREMENT
 70
1
  9
$INSUNITS
 70
4
  0
ENDSEC
  0
SECTION
  2
CLASSES
  0
CLASS
  1
ACDBDICTIONARYWDFLT
  2
AcDbDictionaryWithDefault
  3
AutoCAD 2000
 90
0
280
0
281
0
  0
CLASS
  1
ACDBPLACEHOLDER
  2
AcDbPlaceHolder
  3
AutoCAD 2000
 90
0
280
0
281
0
  0
CLASS
  1
LAYOUT
  2
AcDbLayout
  3
AutoCAD 2000
 90
0
280
0
281
0
  0
ENDSEC
  0
SECTION
  2
TABLES
  0
TABLE
  2
VPORT
  5
8
100
AcDbSymbolTable
 70
2
  0
VPORT
  5
1F4
100
AcDbSymbolTableRecord
100
AcDbViewportTableRecord
  2
*ACTIVE
 70
0
 10
0.0
 20
0.0
 11
1.0
 21
1.0
 12
148.5
 22
105.0
 13
0.0
 23
0.0
 14
1.0
 24
1.0
 15
0.0
 25
0.0
 16
0.0
 26
0.0
 36
1.0
 17
0.0
 27
0.0
 37
0.0
 40
210.0
 41
1.4142857143
 42
50.0
 43
0.0
 44
0.0
 50
0.0
 51
0.0
 71
0
 72
100
 73
1
 74
1
 75
0
 76
0
 77
0
 78
0
  0
ENDTAB
  0
TABLE
  2
LTYPE
  5
5
100
AcDbSymbolTable
 70
6
  0
LTYPE
  5
14
100
AcDbSymbolTableRecord
100
AcDbLinetypeTableRecord
  2
BYBLOCK
 70
0
  3

 72
65
 73
0
 40
0.0
  0
LTYPE
  5
15
100
AcDbSymbolTableRecord
100
AcDbLinetypeTableRecord
  2
BYLAYER
 70
0
  3

 72
65
 73
0
 40
0.0
  0
LTYPE
  5
16
100
AcDbSymbolTableRecord
100
AcDbLinetypeTableRecord
  2
CONTINUOUS
 70
64
  3
Solid line
 72
65
 73
0
 40
0.0
  0
LTYPE
  5
1F5
100
AcDbSymbolTableRecord
100
AcDbLinetypeTableRecord
  2
CENTER
 70
64
  3
____ _ ____ _ ____ _ ____ _ ____ _ ____ _ ____
 72
65
 73
4
 40
0.6
 49
0.375
 74
0
 49
-0.075
 74
0
 49
0.075
 74
0
 49
-0.075
 74
0
  0
LTYPE
  5
1F6
100
AcDbSymbolTableRecord
100
AcDbLinetypeTableRecord
  2
HIDDEN
 70
64
  3
- - - - - - - - - - - - - - - - - - - -
 72
65
 73
2
 40
0.2
 49
0.1
 74
0
 49
-0.1
 74
0
  0
LTYPE
  5
1F7
100
AcDbSymbolTableRecord
100
AcDbLinetypeTableRecord
  2
PHANTOM
 70
64
  3
_____ _ _ _____ _ _ _____ _ _ _____
 72
65
 73
6
 40
0.8
 49
0.45
 74
0
 49
-0.05
 74
0
 49
0.1
 74
0
 49
-0.05
 74
0
 49
0.1
 74
0
 49
-0.05
 74
0
  0
LTYPE
  5
1F8
100
AcDbSymbolTableRecord
100
AcDbLinetypeTableRecord
  2
DOT
 70
64
  3
. . . . . . . . . . . . . . . . . . . .
 72
65
 73
2
 40
0.2
 49
0.1
 74
0
 49
-0.1
 74
0
  0
LTYPE
  5
1F9
100
AcDbSymbolTableRecord
100
AcDbLinetypeTableRecord
  2
DASHED
 70
64
  3
- - - - - - - - - - - - - - - - - - - -
 72
65
 73
2
 40
0.2
 49
0.1
 74
0
 49
-0.1
 74
0
  0
ENDTAB
  0
TABLE
  2
LAYER
  5
2
100
AcDbSymbolTable
 70
36
  0
LAYER
  5
10
100
AcDbSymbolTableRecord
100
AcDbLayerTableRecord
  2
0
 70
0
 62
7
  6
CONTINUOUS
370
-3
390
F
  0
LAYER
  5
1FA
100
AcDbSymbolTableRecord
100
AcDbLayerTableRecord
  2
DEFAULT_1
 70
0
 62
7
  6
CENTER
370
-3
390
F
  0
LAYER
  5
1FB
100
AcDbSymbolTableRecord
100
AcDbLayerTableRecord
  2
DEFAULT_2
 70
0
 62
7
  6
HIDDEN
370
-3
390
F
  0
LAYER
  5
1FC
100
AcDbSymbolTableRecord
100
AcDbLayerTableRecord
  2
DEFAULT_3
 70
0
 62
7
  6
PHANTOM
370
-3
390
F
  0
LAYER
  5
1FD
100
AcDbSymbolTableRecord
100
AcDbLayerTableRecord
  2
ASSI
 70
0
 62
7
  6
CONTINUOUS
370
-3
390
F
  0
LAYER
  5
1FE
100
AcDbSymbolTableRecord
100
AcDbLayerTableRecord
  2
COORDINATE
 70
0
 62
7
  6
CONTINUOUS
370
-3
390
F
  0
LAYER
  5
1FF
100
AcDbSymbolTableRecord
100
AcDbLayerTableRecord
  2
COPY_PUBLISH
 70
0
 62
7
  6
CONTINUOUS
370
-3
390
F
  0
LAYER
  5
200
100
AcDbSymbolTableRecord
100
AcDbLayerTableRecord
  2
COSMETICI
 70
0
 62
7
  6
CONTINUOUS
370
-3
390
F
  0
LAYER
  5
201
100
AcDbSymbolTableRecord
100
AcDbLayerTableRecord
  2
CURVE
 70
0
 62
7
  6
CONTINUOUS
370
-3
390
F
  0
LAYER
  5
202
100
AcDbSymbolTableRecord
100
AcDbLayerTableRecord
  2
DRAFT
 70
0
 62
7
  6
CONTINUOUS
370
-3
390
F
  0
LAYER
  5
203
100
AcDbSymbolTableRecord
100
AcDbLayerTableRecord
  2
IMPORT_IGES
 70
0
 62
7
  6
CONTINUOUS
370
-3
390
F
  0
LAYER
  5
204
100
AcDbSymbolTableRecord
100
AcDbLayerTableRecord
  2
NOTE
 70
0
 62
7
  6
CONTINUOUS
370
-3
390
F
  0
LAYER
  5
205
100
AcDbSymbolTableRecord
100
AcDbLayerTableRecord
  2
PIANI
 70
0
 62
7
  6
CONTINUOUS
370
-3
390
F
  0
LAYER
  5
206
100
AcDbSymbolTableRecord
100
AcDbLayerTableRecord
  2
PUNTI
 70
0
 62
7
  6
CONTINUOUS
370
-3
390
F
  0
LAYER
  5
207
100
AcDbSymbolTableRecord
100
AcDbLayerTableRecord
  2
RACCORDO
 70
0
 62
7
  6
CONTINUOUS
370
-3
390
F
  0
LAYER
  5
208
100
AcDbSymbolTableRecord
100
AcDbLayerTableRecord
  2
SIMBOLI
 70
0
 62
7
  6
CONTINUOUS
370
-3
390
F
  0
LAYER
  5
209
100
AcDbSymbolTableRecord
100
AcDbLayerTableRecord
  2
SMUSSO
 70
0
 62
7
  6
CONTINUOUS
370
-3
390
F
  0
LAYER
  5
20A
100
AcDbSymbolTableRecord
100
AcDbLayerTableRecord
  2
SNAPLINE
 70
0
 62
7
  6
CONTINUOUS
370
-3
390
F
  0
LAYER
  5
20B
100
AcDbSymbolTableRecord
100
AcDbLayerTableRecord
  2
SUPERFICI
 70
0
 62
7
  6
CONTINUOUS
370
-3
390
F
  0
LAYER
  5
20C
100
AcDbSymbolTableRecord
100
AcDbLayerTableRecord
  2
TRASH
 70
0
 62
7
  6
CONTINUOUS
370
-3
390
F
  0
ENDTAB
  0
TABLE
  2
STYLE
  5
3
100
AcDbSymbolTable
 70
1
  0
STYLE
  5
11
100
AcDbSymbolTableRecord
100
AcDbTextStyleTableRecord
  2
STANDARD
 70
0
 40
0.0
 41
0.8
 50
0.0
 71
0
 42
0.2
  3
txt
  4

  0
STYLE
  5
20D
100
AcDbSymbolTableRecord
100
AcDbTextStyleTableRecord
  2
TEXTSTYLE_1
 70
0
 40
0.0
 41
0.8
 50
0.0
 71
0
 42
0.2
  3
gdt
  4

  0
ENDTAB
  0
TABLE
  2
VIEW
  5
6
100
AcDbSymbolTable
 70
0
  0
ENDTAB
  0
TABLE
  2
UCS
  5
7
100
AcDbSymbolTable
 70
0
  0
ENDTAB
  0
TABLE
  2
APPID
  5
9
100
AcDbSymbolTable
 70
1
  0
APPID
  5
20E
100
AcDbSymbolTableRecord
100
AcDbRegAppTableRecord
  2
ACAD
 70
0
  0
ENDTAB
  0
TABLE
  2
BLOCK_RECORD
  5
1
100
AcDbSymbolTable
 70
0
  0
BLOCK_RECORD
  5
20F
100
AcDbSymbolTableRecord
100
AcDbBlockTableRecord
  2
*Model_Space
  0
BLOCK_RECORD
  5
210
100
AcDbSymbolTableRecord
100
AcDbBlockTableRecord
  2
*Paper_Space
  0
ENDTAB
  0
TABLE
  2
DIMSTYLE
  5
A
100
AcDbSymbolTable
 70
1
100
AcDbDimStyleTable
 71
0
  0
DIMSTYLE
105
211
100
AcDbSymbolTableRecord
100
AcDbDimStyleTableRecord
  2
STANDARD
 70
0
  3

  4

 40
1.0
 41
3.0
 42
0.5
 43
0.38
 44
1.5
 45
0.0
 46
0.0
 47
0.01
 48
0.01
140
3.0
141
0.09
142
0.0
143
25.4
144
1.0
145
0.0
146
1.0
147
0.625
 71
1.0
 72
0.0
 73
0
 74
0
 75
0
 76
0
 77
1
 78
8
170
0
171
2
172
0
173
0
174
0
175
0
176
0
177
0
178
0
270
2
271
2
272
2
273
2
274
2
275
0
280
0
281
0
282
0
283
1
284
8
285
0
286
0
287
3
288
0
340
11
278
44
  0
ENDTAB
  0
ENDSEC
  0
SECTION
  2
BLOCKS
  0
BLOCK
  5
20
100
AcDbEntity
  8
0
100
AcDbBlockBegin
  2
*Model_Space
 70
0
 10
0.0
 20
0.0
 30
0.0
  3
*Model_Space
  1

  0
ENDBLK
  5
21
100
AcDbEntity
  8
0
100
AcDbBlockEnd
  0
BLOCK
  5
1C
100
AcDbEntity
  8
0
100
AcDbBlockBegin
  2
*Paper_Space
 70
0
 10
0.0
 20
0.0
 30
0.0
  3
*Paper_Space
  1

  0
ENDBLK
  5
1D
100
AcDbEntity
  8
0
100
AcDbBlockEnd
  0
ENDSEC
  0
SECTION
  2
ENTITIES
  0
LINE
  5
212
100
AcDbEntity
  8
RACCORDO
100
AcDbLine
 62
7
  6
CONTINUOUS
 10
-44.3906144772
 20
8.6673329759
 11
-44.3906144772
 21
-12.9326670241
  0
LINE
  5
213
100
AcDbEntity
  8
DRAFT
100
AcDbLine
 62
7
  6
CONTINUOUS
 10
-41.7406144772
 20
6.5673329759
 11
-41.7406144772
 21
4.0673329759
  0
LINE
  5
214
100
AcDbEntity
  8
DRAFT
100
AcDbLine
 62
7
  6
CONTINUOUS
 10
-41.7406144772
 20
3.1673329759
 11
-41.7406144772
 21
-1.6826670241
  0
LINE
  5
215
100
AcDbEntity
  8
DRAFT
100
AcDbLine
 62
7
  6
CONTINUOUS
 10
-41.7406144772
 20
-2.5826670241
 11
-41.7406144772
 21
-7.4326670241
  0
LINE
  5
216
100
AcDbEntity
  8
DRAFT
100
AcDbLine
 62
7
  6
CONTINUOUS
 10
-41.7406144772
 20
-8.3326670241
 11
-41.7406144772
 21
-10.8326670241
  0
LINE
  5
217
100
AcDbEntity
  8
DRAFT
100
AcDbLine
 62
7
  6
CONTINUOUS
 10
-41.6647638743
 20
-10.7568164213
 11
-41.6647638743
 21
-8.3572775812
  0
LINE
  5
218
100
AcDbEntity
  8
DRAFT
100
AcDbLine
 62
7
  6
CONTINUOUS
 10
-41.6647638743
 20
-7.4080564671
 11
-41.6647638743
 21
-2.6072775812
  0
LINE
  5
219
100
AcDbEntity
  8
DRAFT
100
AcDbLine
 62
7
  6
CONTINUOUS
 10
-41.6647638743
 20
-1.6580564671
 11
-41.6647638743
 21
3.1427224188
  0
LINE
  5
21A
100
AcDbEntity
  8
DRAFT
100
AcDbLine
 62
7
  6
CONTINUOUS
 10
-41.6647638743
 20
4.0919435329
 11
-41.6647638743
 21
6.491482373
  0
LWPOLYLINE
  5
21B
100
AcDbEntity
  8
DRAFT
100
AcDbPolyline
 62
7
  6
CONTINUOUS
 90
16
 70
0
 10
-41.6647638743
 20
3.1427224188
 10
-41.6278996503
 20
3.2001778761
 10
-41.5961726339
 20
3.259551494
 10
-41.5695828931
 20
3.3208432724
 10
-41.5480301972
 20
3.3844398926
 10
-41.5316148788
 20
3.4499546734
 10
-41.5206378358
 20
3.5162275711
 10
-41.5151993581
 20
3.5833772522
 10
-41.515199193
 20
3.6512850501
 10
-41.5206374082
 20
3.7184349214
 10
-41.5316142901
 20
3.7847082616
 10
-41.548029515
 20
3.8502236753
 10
-41.5695822196
 20
3.9138209322
 10
-41.5961720827
 20
3.9751132892
 10
-41.6278993236
 20
4.0344874894
 10
-41.6647638743
 20
4.0919435329
  0
LINE
  5
21C
100
AcDbEntity
  8
DRAFT
100
AcDbLine
 62
7
  6
CONTINUOUS
 10
-36.8906144772
 20
9.1673329759
 11
-36.8906144772
 21
6.5673329759
  0
LINE
  5
21D
100
AcDbEntity
  8
DRAFT
100
AcDbLine
 62
7
  6
CONTINUOUS
 10
-36.8906144772
 20
-10.8326670241
 11
-36.8906144772
 21
-13.4326670241
  0
LINE
  5
21E
100
AcDbEntity
  8
DRAFT
100
AcDbLine
 62
7
  6
CONTINUOUS
 10
-36.0906144772
 20
9.1673329759
 11
-36.0906144772
 21
6.5393963603
  0
LINE
  5
21F
100
AcDbEntity
  8
DRAFT
100
AcDbLine
 62
7
  6
CONTINUOUS
 10
-36.0906144772
 20
-10.8047304085
 11
-36.0906144772
 21
-13.4326670241
  0
LINE
  5
220
100
AcDbEntity
  8
DRAFT
100
AcDbLine
 62
7
  6
CONTINUOUS
 10
-35.7290470479
 20
0.2057655466
 11
-35.7290470479
 21
-4.4710995949
  0
LINE
  5
221
100
AcDbEntity
  8
RACCORDO
100
AcDbLine
 62
253
  6
CONTINUOUS
 10
-35.5160363869
 20
-0.0072451145
 11
-35.5160363869
 21
-4.2580889338
  0
LINE
  5
222
100
AcDbEntity
  8
RACCORDO
100
AcDbLine
 62
253
  6
CONTINUOUS
 10
-35.0163409734
 20
-0.0240961406
 11
-35.0163409734
 21
-4.2412379077
  0
LINE
  5
223
100
AcDbEntity
  8
RACCORDO
100
AcDbLine
 62
253
  6
CONTINUOUS
 10
-34.7648879811
 20
-4.2412379077
 11
-34.7648879811
 21
-0.0240961406
  0
LWPOLYLINE
  5
224
100
AcDbEntity
  8
DRAFT
100
AcDbPolyline
 62
7
  6
CONTINUOUS
 90
16
 70
0
 10
-41.6647638743
 20
-2.6072775812
 10
-41.6278996503
 20
-2.5498221239
 10
-41.5961726339
 20
-2.490448506
 10
-41.5695828931
 20
-2.4291567276
 10
-41.5480301972
 20
-2.3655601074
 10
-41.5316148788
 20
-2.3000453266
 10
-41.5206378358
 20
-2.2337724289
 10
-41.5151993581
 20
-2.1666227478
 10
-41.515199193
 20
-2.0987149499
 10
-41.5206374082
 20
-2.0315650786
 10
-41.5316142901
 20
-1.9652917384
 10
-41.548029515
 20
-1.8997763247
 10
-41.5695822196
 20
-1.8361790678
 10
-41.5961720827
 20
-1.7748867108
 10
-41.6278993236
 20
-1.7155125106
 10
-41.6647638743
 20
-1.6580564671
  0
LINE
  5
225
100
AcDbEntity
  8
RACCORDO
100
AcDbLine
 62
7
  6
CONTINUOUS
 10
-34.3906144772
 20
-12.3326670241
 11
-34.3906144772
 21
-10.4417505789
  0
LINE
  5
226
100
AcDbEntity
  8
RACCORDO
100
AcDbLine
 62
7
  6
CONTINUOUS
 10
-34.3906144772
 20
6.1764165306
 11
-34.3906144772
 21
8.0673329759
  0
LINE
  5
227
100
AcDbEntity
  8
RACCORDO
100
AcDbLine
 62
253
  6
CONTINUOUS
 10
-34.2651925675
 20
-4.2580889338
 11
-34.2651925675
 21
-0.0072451145
  0
LINE
  5
228
100
AcDbEntity
  8
DRAFT
100
AcDbLine
 62
7
  6
CONTINUOUS
 10
-34.0490850154
 20
0.2088624376
 11
-34.0490850154
 21
-4.4741964859
  0
LINE
  5
229
100
AcDbEntity
  8
RACCORDO
100
AcDbLine
 62
253
  6
CONTINUOUS
 10
-33.8906144772
 20
-11.7326670241
 11
-33.8906144772
 21
-10.609492717
  0
LINE
  5
22A
100
AcDbEntity
  8
RACCORDO
100
AcDbLine
 62
253
  6
CONTINUOUS
 10
-33.8906144772
 20
6.3441586688
 11
-33.8906144772
 21
7.4673329759
  0
LWPOLYLINE
  5
22B
100
AcDbEntity
  8
DRAFT
100
AcDbPolyline
 62
7
  6
CONTINUOUS
 90
16
 70
0
 10
-41.6647638743
 20
-8.3572775812
 10
-41.6278996503
 20
-8.2998221239
 10
-41.5961726339
 20
-8.240448506
 10
-41.5695828931
 20
-8.1791567276
 10
-41.5480301972
 20
-8.1155601074
 10
-41.5316148788
 20
-8.0500453266
 10
-41.5206378358
 20
-7.9837724289
 10
-41.5151993581
 20
-7.9166227478
 10
-41.515199193
 20
-7.8487149499
 10
-41.5206374082
 20
-7.7815650786
 10
-41.5316142901
 20
-7.7152917384
 10
-41.548029515
 20
-7.6497763247
 10
-41.5695822196
 20
-7.5861790678
 10
-41.5961720827
 20
-7.5248867108
 10
-41.6278993236
 20
-7.4655125106
 10
-41.6647638743
 20
-7.4080564671
  0
LINE
  5
22C
100
AcDbEntity
  8
RACCORDO
100
AcDbLine
 62
253
  6
CONTINUOUS
 10
-30.8906144772
 20
7.4673329759
 11
-30.8906144772
 21
6.3441586688
  0
LINE
  5
22D
100
AcDbEntity
  8
RACCORDO
100
AcDbLine
 62
253
  6
CONTINUOUS
 10
-30.8906144772
 20
-10.609492717
 11
-30.8906144772
 21
-11.7326670241
  0
LINE
  5
22E
100
AcDbEntity
  8
RACCORDO
100
AcDbLine
 62
7
  6
CONTINUOUS
 10
-30.3906144772
 20
-12.3326670241
 11
-30.3906144772
 21
-10.4351010511
  0
LINE
  5
22F
100
AcDbEntity
  8
RACCORDO
100
AcDbLine
 62
7
  6
CONTINUOUS
 10
-30.3906144772
 20
6.1697670029
 11
-30.3906144772
 21
8.0673329759
  0
LINE
  5
230
100
AcDbEntity
  8
DRAFT
100
AcDbLine
 62
7
  6
CONTINUOUS
 10
-28.6906144772
 20
-13.4326670241
 11
-28.6906144772
 21
-10.8047304085
  0
LINE
  5
231
100
AcDbEntity
  8
DRAFT
100
AcDbLine
 62
7
  6
CONTINUOUS
 10
-28.6906144772
 20
6.5393963603
 11
-28.6906144772
 21
9.1673329759
  0
LINE
  5
232
100
AcDbEntity
  8
DRAFT
100
AcDbLine
 62
7
  6
CONTINUOUS
 10
-27.8906144772
 20
-13.4326670241
 11
-27.8906144772
 21
-10.8326670241
  0
LINE
  5
233
100
AcDbEntity
  8
DRAFT
100
AcDbLine
 62
7
  6
CONTINUOUS
 10
-27.8906144772
 20
6.5673329759
 11
-27.8906144772
 21
9.1673329759
  0
LINE
  5
234
100
AcDbEntity
  8
RACCORDO
100
AcDbLine
 62
7
  6
CONTINUOUS
 10
-34.0490850154
 20
0.2088624376
 11
-34.2651925675
 21
-0.0072451145
  0
LINE
  5
235
100
AcDbEntity
  8
RACCORDO
100
AcDbLine
 62
7
  6
CONTINUOUS
 10
-35.7290470479
 20
-4.4710995949
 11
-35.5160363869
 21
-4.2580889338
  0
LINE
  5
236
100
AcDbEntity
  8
DRAFT
100
AcDbLine
 62
7
  6
CONTINUOUS
 10
-41.7406144772
 20
-10.8326670241
 11
-41.6647638743
 21
-10.7568164213
  0
LINE
  5
237
100
AcDbEntity
  8
RACCORDO
100
AcDbLine
 62
7
  6
CONTINUOUS
 10
-34.0490850154
 20
-4.4741964859
 11
-34.2651925675
 21
-4.2580889338
  0
LINE
  5
238
100
AcDbEntity
  8
RACCORDO
100
AcDbLine
 62
7
  6
CONTINUOUS
 10
-35.7290470479
 20
0.2057655466
 11
-35.5160363869
 21
-0.0072451145
  0
LINE
  5
239
100
AcDbEntity
  8
DRAFT
100
AcDbLine
 62
7
  6
CONTINUOUS
 10
-41.7406144772
 20
6.5673329759
 11
-41.6647638743
 21
6.491482373
  0
LINE
  5
23A
100
AcDbEntity
  8
DRAFT
100
AcDbLine
 62
7
  6
CONTINUOUS
 10
-41.7154536655
 20
4.0756431803
 11
-41.7406144772
 21
4.0673329759
  0
LINE
  5
23B
100
AcDbEntity
  8
DRAFT
100
AcDbLine
 62
7
  6
CONTINUOUS
 10
-41.6901696222
 20
4.083844987
 11
-41.7154536655
 21
4.0756431803
  0
LINE
  5
23C
100
AcDbEntity
  8
DRAFT
100
AcDbLine
 62
7
  6
CONTINUOUS
 10
-41.6647638743
 20
4.0919435329
 11
-41.6901696222
 21
4.083844987
  0
LINE
  5
23D
100
AcDbEntity
  8
DRAFT
100
AcDbLine
 62
7
  6
CONTINUOUS
 10
-41.6647638743
 20
-8.3572775812
 11
-41.6901696222
 21
-8.3491790352
  0
LINE
  5
23E
100
AcDbEntity
  8
DRAFT
100
AcDbLine
 62
7
  6
CONTINUOUS
 10
-41.6901696222
 20
-8.3491790352
 11
-41.7154536655
 21
-8.3409772286
  0
LINE
  5
23F
100
AcDbEntity
  8
DRAFT
100
AcDbLine
 62
7
  6
CONTINUOUS
 10
-41.7154536655
 20
-8.3409772286
 11
-41.7406144772
 21
-8.3326670241
  0
LINE
  5
240
100
AcDbEntity
  8
RACCORDO
100
AcDbLine
 62
7
  6
CONTINUOUS
 10
25.1093855228
 20
-13.4326670241
 11
18.1093855228
 21
-13.4326670241
  0
LINE
  5
241
100
AcDbEntity
  8
SMUSSO
100
AcDbLine
 62
7
  6
CONTINUOUS
 10
18.1093855228
 20
-13.4326670241
 11
-36.8906144772
 21
-13.4326670241
  0
LINE
  5
242
100
AcDbEntity
  8
RACCORDO
100
AcDbLine
 62
7
  6
CONTINUOUS
 10
-36.8906144772
 20
-13.4326670241
 11
-43.8906144772
 21
-13.4326670241
  0
LINE
  5
243
100
AcDbEntity
  8
DRAFT
100
AcDbLine
 62
7
  6
CONTINUOUS
 10
-41.7154536655
 20
-1.6743568197
 11
-41.7406144772
 21
-1.6826670241
  0
LINE
  5
244
100
AcDbEntity
  8
DRAFT
100
AcDbLine
 62
7
  6
CONTINUOUS
 10
-41.6901696222
 20
-1.666155013
 11
-41.7154536655
 21
-1.6743568197
  0
LINE
  5
245
100
AcDbEntity
  8
DRAFT
100
AcDbLine
 62
7
  6
CONTINUOUS
 10
-41.6647638743
 20
-1.6580564671
 11
-41.6901696222
 21
-1.666155013
  0
LINE
  5
246
100
AcDbEntity
  8
DRAFT
100
AcDbLine
 62
7
  6
CONTINUOUS
 10
9.1093855228
 20
-10.8326670241
 11
9.9093855228
 21
-10.8047304085
  0
LINE
  5
247
100
AcDbEntity
  8
0
100
AcDbLine
 62
7
  6
CONTINUOUS
 10
-34.3906144772
 20
-12.3326670241
 11
-30.3906144772
 21
-12.3326670241
  0
LINE
  5
248
100
AcDbEntity
  8
0
100
AcDbLine
 62
7
  6
CONTINUOUS
 10
15.6093855228
 20
-12.3326670241
 11
11.6093855228
 21
-12.3326670241
  0
LINE
  5
249
100
AcDbEntity
  8
RACCORDO
100
AcDbLine
 62
7
  6
CONTINUOUS
 10
-33.8906144772
 20
-11.7326670241
 11
-30.8906144772
 21
-11.7326670241
  0
LINE
  5
24A
100
AcDbEntity
  8
RACCORDO
100
AcDbLine
 62
7
  6
CONTINUOUS
 10
15.1093855228
 20
-11.7326670241
 11
12.1093855228
 21
-11.7326670241
  0
LINE
  5
24B
100
AcDbEntity
  8
DRAFT
100
AcDbLine
 62
7
  6
CONTINUOUS
 10
22.9593855228
 20
-10.8326670241
 11
18.1093855228
 21
-10.8326670241
  0
LINE
  5
24C
100
AcDbEntity
  8
DRAFT
100
AcDbLine
 62
7
  6
CONTINUOUS
 10
9.1093855228
 20
-10.8326670241
 11
-27.8906144772
 21
-10.8326670241
  0
LINE
  5
24D
100
AcDbEntity
  8
DRAFT
100
AcDbLine
 62
7
  6
CONTINUOUS
 10
-36.8906144772
 20
-10.8326670241
 11
-41.7406144772
 21
-10.8326670241
  0
LINE
  5
24E
100
AcDbEntity
  8
DRAFT
100
AcDbLine
 62
7
  6
CONTINUOUS
 10
-36.0906144772
 20
-10.8047304085
 11
-34.3906144772
 21
-10.8047304085
  0
LINE
  5
24F
100
AcDbEntity
  8
DRAFT
100
AcDbLine
 62
7
  6
CONTINUOUS
 10
-30.3906144772
 20
-10.8047304085
 11
-28.6906144772
 21
-10.8047304085
  0
LINE
  5
250
100
AcDbEntity
  8
DRAFT
100
AcDbLine
 62
7
  6
CONTINUOUS
 10
17.3093855228
 20
-10.8047304085
 11
15.6093855228
 21
-10.8047304085
  0
LINE
  5
251
100
AcDbEntity
  8
DRAFT
100
AcDbLine
 62
7
  6
CONTINUOUS
 10
11.6093855228
 20
-10.8047304085
 11
9.9093855228
 21
-10.8047304085
  0
LINE
  5
252
100
AcDbEntity
  8
RACCORDO
100
AcDbLine
 62
7
  6
CONTINUOUS
 10
-33.8906144772
 20
-10.609492717
 11
-30.8906144772
 21
-10.609492717
  0
LINE
  5
253
100
AcDbEntity
  8
RACCORDO
100
AcDbLine
 62
7
  6
CONTINUOUS
 10
15.1093855228
 20
-10.609492717
 11
12.1093855228
 21
-10.609492717
  0
LINE
  5
254
100
AcDbEntity
  8
DRAFT
100
AcDbLine
 62
7
  6
CONTINUOUS
 10
-28.6906144772
 20
-10.8047304085
 11
-27.8906144772
 21
-10.8326670241
  0
LINE
  5
255
100
AcDbEntity
  8
DRAFT
100
AcDbLine
 62
7
  6
CONTINUOUS
 10
-41.6647638743
 20
-2.6072775812
 11
-41.6901696222
 21
-2.5991790352
  0
LINE
  5
256
100
AcDbEntity
  8
DRAFT
100
AcDbLine
 62
7
  6
CONTINUOUS
 10
-41.6901696222
 20
-2.5991790352
 11
-41.7154536655
 21
-2.5909772286
  0
LINE
  5
257
100
AcDbEntity
  8
DRAFT
100
AcDbLine
 62
7
  6
CONTINUOUS
 10
-41.7154536655
 20
-2.5909772286
 11
-41.7406144772
 21
-2.5826670241
  0
LINE
  5
258
100
AcDbEntity
  8
DRAFT
100
AcDbLine
 62
7
  6
CONTINUOUS
 10
-36.8906144772
 20
-10.8326670241
 11
-36.0906144772
 21
-10.8047304085
  0
LINE
  5
259
100
AcDbEntity
  8
DRAFT
100
AcDbLine
 62
7
  6
CONTINUOUS
 10
17.3093855228
 20
-10.8047304085
 11
18.1093855228
 21
-10.8326670241
  0
LINE
  5
25A
100
AcDbEntity
  8
DRAFT
100
AcDbLine
 62
7
  6
CONTINUOUS
 10
-41.7154536655
 20
-7.4243568197
 11
-41.7406144772
 21
-7.4326670241
  0
LINE
  5
25B
100
AcDbEntity
  8
DRAFT
100
AcDbLine
 62
7
  6
CONTINUOUS
 10
-41.6901696222
 20
-7.416155013
 11
-41.7154536655
 21
-7.4243568197
  0
LINE
  5
25C
100
AcDbEntity
  8
DRAFT
100
AcDbLine
 62
7
  6
CONTINUOUS
 10
-41.6647638743
 20
-7.4080564671
 11
-41.6901696222
 21
-7.416155013
  0
LINE
  5
25D
100
AcDbEntity
  8
DRAFT
100
AcDbLine
 62
7
  6
CONTINUOUS
 10
-41.6647638743
 20
3.1427224188
 11
-41.6901696222
 21
3.1508209648
  0
LINE
  5
25E
100
AcDbEntity
  8
DRAFT
100
AcDbLine
 62
7
  6
CONTINUOUS
 10
-41.6901696222
 20
3.1508209648
 11
-41.7154536655
 21
3.1590227714
  0
LINE
  5
25F
100
AcDbEntity
  8
DRAFT
100
AcDbLine
 62
7
  6
CONTINUOUS
 10
-41.7154536655
 20
3.1590227714
 11
-41.7406144772
 21
3.1673329759
  0
LINE
  5
260
100
AcDbEntity
  8
RACCORDO
100
AcDbLine
 62
7
  6
CONTINUOUS
 10
-35.0163409734
 20
-4.2412379077
 11
-34.7648879811
 21
-4.2412379077
  0
LINE
  5
261
100
AcDbEntity
  8
RACCORDO
100
AcDbLine
 62
7
  6
CONTINUOUS
 10
15.9836590266
 20
-4.2412379077
 11
16.2351120189
 21
-4.2412379077
  0
LINE
  5
262
100
AcDbEntity
  8
RACCORDO
100
AcDbLine
 62
7
  6
CONTINUOUS
 10
16.2351120189
 20
-0.0240961406
 11
15.9836590266
 21
-0.0240961406
  0
LINE
  5
263
100
AcDbEntity
  8
RACCORDO
100
AcDbLine
 62
7
  6
CONTINUOUS
 10
-34.7648879811
 20
-0.0240961406
 11
-35.0163409734
 21
-0.0240961406
  0
LINE
  5
264
100
AcDbEntity
  8
DRAFT
100
AcDbLine
 62
7
  6
CONTINUOUS
 10
22.9342247111
 20
3.1590227714
 11
22.9593855228
 21
3.1673329759
  0
LINE
  5
265
100
AcDbEntity
  8
DRAFT
100
AcDbLine
 62
7
  6
CONTINUOUS
 10
22.9089406678
 20
3.1508209648
 11
22.9342247111
 21
3.1590227714
  0
LINE
  5
266
100
AcDbEntity
  8
DRAFT
100
AcDbLine
 62
7
  6
CONTINUOUS
 10
22.8835349199
 20
3.1427224188
 11
22.9089406678
 21
3.1508209648
  0
LINE
  5
267
100
AcDbEntity
  8
DRAFT
100
AcDbLine
 62
7
  6
CONTINUOUS
 10
22.8835349199
 20
-7.4080564671
 11
22.9089406678
 21
-7.416155013
  0
LINE
  5
268
100
AcDbEntity
  8
DRAFT
100
AcDbLine
 62
7
  6
CONTINUOUS
 10
22.9089406678
 20
-7.416155013
 11
22.9342247111
 21
-7.4243568197
  0
LINE
  5
269
100
AcDbEntity
  8
DRAFT
100
AcDbLine
 62
7
  6
CONTINUOUS
 10
22.9342247111
 20
-7.4243568197
 11
22.9593855228
 21
-7.4326670241
  0
LINE
  5
26A
100
AcDbEntity
  8
DRAFT
100
AcDbLine
 62
7
  6
CONTINUOUS
 10
18.1093855228
 20
6.5673329759
 11
17.3093855228
 21
6.5393963603
  0
LINE
  5
26B
100
AcDbEntity
  8
RACCORDO
100
AcDbLine
 62
7
  6
CONTINUOUS
 10
-33.8906144772
 20
6.3441586688
 11
-30.8906144772
 21
6.3441586688
  0
LINE
  5
26C
100
AcDbEntity
  8
RACCORDO
100
AcDbLine
 62
7
  6
CONTINUOUS
 10
15.1093855228
 20
6.3441586688
 11
12.1093855228
 21
6.3441586688
  0
LINE
  5
26D
100
AcDbEntity
  8
DRAFT
100
AcDbLine
 62
7
  6
CONTINUOUS
 10
-36.0906144772
 20
6.5393963603
 11
-34.3906144772
 21
6.5393963603
  0
LINE
  5
26E
100
AcDbEntity
  8
DRAFT
100
AcDbLine
 62
7
  6
CONTINUOUS
 10
-30.3906144772
 20
6.5393963603
 11
-28.6906144772
 21
6.5393963603
  0
LINE
  5
26F
100
AcDbEntity
  8
DRAFT
100
AcDbLine
 62
7
  6
CONTINUOUS
 10
17.3093855228
 20
6.5393963603
 11
15.6093855228
 21
6.5393963603
  0
LINE
  5
270
100
AcDbEntity
  8
DRAFT
100
AcDbLine
 62
7
  6
CONTINUOUS
 10
11.6093855228
 20
6.5393963603
 11
9.9093855228
 21
6.5393963603
  0
LINE
  5
271
100
AcDbEntity
  8
DRAFT
100
AcDbLine
 62
7
  6
CONTINUOUS
 10
22.9593855228
 20
6.5673329759
 11
18.1093855228
 21
6.5673329759
  0
LINE
  5
272
100
AcDbEntity
  8
DRAFT
100
AcDbLine
 62
7
  6
CONTINUOUS
 10
9.1093855228
 20
6.5673329759
 11
-27.8906144772
 21
6.5673329759
  0
LINE
  5
273
100
AcDbEntity
  8
DRAFT
100
AcDbLine
 62
7
  6
CONTINUOUS
 10
-36.8906144772
 20
6.5673329759
 11
-41.7406144772
 21
6.5673329759
  0
LINE
  5
274
100
AcDbEntity
  8
DRAFT
100
AcDbLine
 62
7
  6
CONTINUOUS
 10
-36.0906144772
 20
6.5393963603
 11
-36.8906144772
 21
6.5673329759
  0
LINE
  5
275
100
AcDbEntity
  8
DRAFT
100
AcDbLine
 62
7
  6
CONTINUOUS
 10
22.9342247111
 20
-2.5909772286
 11
22.9593855228
 21
-2.5826670241
  0
LINE
  5
276
100
AcDbEntity
  8
DRAFT
100
AcDbLine
 62
7
  6
CONTINUOUS
 10
22.9089406678
 20
-2.5991790352
 11
22.9342247111
 21
-2.5909772286
  0
LINE
  5
277
100
AcDbEntity
  8
DRAFT
100
AcDbLine
 62
7
  6
CONTINUOUS
 10
22.8835349199
 20
-2.6072775812
 11
22.9089406678
 21
-2.5991790352
  0
LINE
  5
278
100
AcDbEntity
  8
DRAFT
100
AcDbLine
 62
7
  6
CONTINUOUS
 10
-27.8906144772
 20
6.5673329759
 11
-28.6906144772
 21
6.5393963603
  0
LINE
  5
279
100
AcDbEntity
  8
RACCORDO
100
AcDbLine
 62
7
  6
CONTINUOUS
 10
-33.8906144772
 20
7.4673329759
 11
-30.8906144772
 21
7.4673329759
  0
LINE
  5
27A
100
AcDbEntity
  8
RACCORDO
100
AcDbLine
 62
7
  6
CONTINUOUS
 10
15.1093855228
 20
7.4673329759
 11
12.1093855228
 21
7.4673329759
  0
LINE
  5
27B
100
AcDbEntity
  8
0
100
AcDbLine
 62
7
  6
CONTINUOUS
 10
-34.3906144772
 20
8.0673329759
 11
-30.3906144772
 21
8.0673329759
  0
LINE
  5
27C
100
AcDbEntity
  8
0
100
AcDbLine
 62
7
  6
CONTINUOUS
 10
15.6093855228
 20
8.0673329759
 11
11.6093855228
 21
8.0673329759
  0
LINE
  5
27D
100
AcDbEntity
  8
RACCORDO
100
AcDbLine
 62
7
  6
CONTINUOUS
 10
25.1093855228
 20
9.1673329759
 11
18.1093855228
 21
9.1673329759
  0
LINE
  5
27E
100
AcDbEntity
  8
SMUSSO
100
AcDbLine
 62
7
  6
CONTINUOUS
 10
18.1093855228
 20
9.1673329759
 11
-36.8906144772
 21
9.1673329759
  0
LINE
  5
27F
100
AcDbEntity
  8
RACCORDO
100
AcDbLine
 62
7
  6
CONTINUOUS
 10
-36.8906144772
 20
9.1673329759
 11
-43.8906144772
 21
9.1673329759
  0
LINE
  5
280
100
AcDbEntity
  8
DRAFT
100
AcDbLine
 62
7
  6
CONTINUOUS
 10
9.9093855228
 20
6.5393963603
 11
9.1093855228
 21
6.5673329759
  0
LINE
  5
281
100
AcDbEntity
  8
DRAFT
100
AcDbLine
 62
7
  6
CONTINUOUS
 10
22.8835349199
 20
-1.6580564671
 11
22.9089406678
 21
-1.666155013
  0
LINE
  5
282
100
AcDbEntity
  8
DRAFT
100
AcDbLine
 62
7
  6
CONTINUOUS
 10
22.9089406678
 20
-1.666155013
 11
22.9342247111
 21
-1.6743568197
  0
LINE
  5
283
100
AcDbEntity
  8
DRAFT
100
AcDbLine
 62
7
  6
CONTINUOUS
 10
22.9342247111
 20
-1.6743568197
 11
22.9593855228
 21
-1.6826670241
  0
LINE
  5
284
100
AcDbEntity
  8
DRAFT
100
AcDbLine
 62
7
  6
CONTINUOUS
 10
22.8835349199
 20
6.491482373
 11
22.9593855228
 21
6.5673329759
  0
LINE
  5
285
100
AcDbEntity
  8
RACCORDO
100
AcDbLine
 62
7
  6
CONTINUOUS
 10
16.9478180935
 20
0.2057655466
 11
16.7348074325
 21
-0.0072451145
  0
LINE
  5
286
100
AcDbEntity
  8
DRAFT
100
AcDbLine
 62
7
  6
CONTINUOUS
 10
22.9342247111
 20
-8.3409772286
 11
22.9593855228
 21
-8.3326670241
  0
LINE
  5
287
100
AcDbEntity
  8
DRAFT
100
AcDbLine
 62
7
  6
CONTINUOUS
 10
22.9089406678
 20
-8.3491790352
 11
22.9342247111
 21
-8.3409772286
  0
LINE
  5
288
100
AcDbEntity
  8
DRAFT
100
AcDbLine
 62
7
  6
CONTINUOUS
 10
22.8835349199
 20
-8.3572775812
 11
22.9089406678
 21
-8.3491790352
  0
LINE
  5
289
100
AcDbEntity
  8
DRAFT
100
AcDbLine
 62
7
  6
CONTINUOUS
 10
22.8835349199
 20
4.0919435329
 11
22.9089406678
 21
4.083844987
  0
LINE
  5
28A
100
AcDbEntity
  8
DRAFT
100
AcDbLine
 62
7
  6
CONTINUOUS
 10
22.9089406678
 20
4.083844987
 11
22.9342247111
 21
4.0756431803
  0
LINE
  5
28B
100
AcDbEntity
  8
DRAFT
100
AcDbLine
 62
7
  6
CONTINUOUS
 10
22.9342247111
 20
4.0756431803
 11
22.9593855228
 21
4.0673329759
  0
LINE
  5
28C
100
AcDbEntity
  8
DRAFT
100
AcDbLine
 62
7
  6
CONTINUOUS
 10
22.8835349199
 20
-10.7568164213
 11
22.9593855228
 21
-10.8326670241
  0
LINE
  5
28D
100
AcDbEntity
  8
RACCORDO
100
AcDbLine
 62
7
  6
CONTINUOUS
 10
16.9478180935
 20
-4.4710995949
 11
16.7348074325
 21
-4.2580889338
  0
LINE
  5
28E
100
AcDbEntity
  8
DRAFT
100
AcDbLine
 62
7
  6
CONTINUOUS
 10
9.1093855228
 20
9.1673329759
 11
9.1093855228
 21
6.5673329759
  0
LINE
  5
28F
100
AcDbEntity
  8
DRAFT
100
AcDbLine
 62
7
  6
CONTINUOUS
 10
9.1093855228
 20
-10.8326670241
 11
9.1093855228
 21
-13.4326670241
  0
LINE
  5
290
100
AcDbEntity
  8
DRAFT
100
AcDbLine
 62
7
  6
CONTINUOUS
 10
9.9093855228
 20
9.1673329759
 11
9.9093855228
 21
6.5393963603
  0
LINE
  5
291
100
AcDbEntity
  8
DRAFT
100
AcDbLine
 62
7
  6
CONTINUOUS
 10
9.9093855228
 20
-10.8047304085
 11
9.9093855228
 21
-13.4326670241
  0
LINE
  5
292
100
AcDbEntity
  8
RACCORDO
100
AcDbLine
 62
7
  6
CONTINUOUS
 10
15.267856061
 20
-4.4741964859
 11
15.4839636131
 21
-4.2580889338
  0
LINE
  5
293
100
AcDbEntity
  8
RACCORDO
100
AcDbLine
 62
7
  6
CONTINUOUS
 10
15.267856061
 20
0.2088624376
 11
15.4839636131
 21
-0.0072451145
  0
LINE
  5
294
100
AcDbEntity
  8
RACCORDO
100
AcDbLine
 62
7
  6
CONTINUOUS
 10
11.6093855228
 20
-12.3326670241
 11
11.6093855228
 21
-10.4351010511
  0
LINE
  5
295
100
AcDbEntity
  8
RACCORDO
100
AcDbLine
 62
7
  6
CONTINUOUS
 10
11.6093855228
 20
6.1697670029
 11
11.6093855228
 21
8.0673329759
  0
LINE
  5
296
100
AcDbEntity
  8
RACCORDO
100
AcDbLine
 62
253
  6
CONTINUOUS
 10
12.1093855228
 20
-11.7326670241
 11
12.1093855228
 21
-10.609492717
  0
LINE
  5
297
100
AcDbEntity
  8
RACCORDO
100
AcDbLine
 62
253
  6
CONTINUOUS
 10
12.1093855228
 20
6.3441586688
 11
12.1093855228
 21
7.4673329759
  0
LINE
  5
298
100
AcDbEntity
  8
RACCORDO
100
AcDbLine
 62
253
  6
CONTINUOUS
 10
15.1093855228
 20
7.4673329759
 11
15.1093855228
 21
6.3441586688
  0
LINE
  5
299
100
AcDbEntity
  8
RACCORDO
100
AcDbLine
 62
253
  6
CONTINUOUS
 10
15.1093855228
 20
-10.609492717
 11
15.1093855228
 21
-11.7326670241
  0
LINE
  5
29A
100
AcDbEntity
  8
DRAFT
100
AcDbLine
 62
7
  6
CONTINUOUS
 10
15.267856061
 20
0.2088624376
 11
15.267856061
 21
-4.4741964859
  0
LINE
  5
29B
100
AcDbEntity
  8
RACCORDO
100
AcDbLine
 62
253
  6
CONTINUOUS
 10
15.4839636131
 20
-0.0072451145
 11
15.4839636131
 21
-4.2580889338
  0
LINE
  5
29C
100
AcDbEntity
  8
RACCORDO
100
AcDbLine
 62
7
  6
CONTINUOUS
 10
15.6093855228
 20
-12.3326670241
 11
15.6093855228
 21
-10.4417505789
  0
LINE
  5
29D
100
AcDbEntity
  8
RACCORDO
100
AcDbLine
 62
7
  6
CONTINUOUS
 10
15.6093855228
 20
6.1764165306
 11
15.6093855228
 21
8.0673329759
  0
LINE
  5
29E
100
AcDbEntity
  8
RACCORDO
100
AcDbLine
 62
253
  6
CONTINUOUS
 10
15.9836590266
 20
-0.0240961406
 11
15.9836590266
 21
-4.2412379077
  0
LINE
  5
29F
100
AcDbEntity
  8
RACCORDO
100
AcDbLine
 62
253
  6
CONTINUOUS
 10
16.2351120189
 20
-4.2412379077
 11
16.2351120189
 21
-0.0240961406
  0
LWPOLYLINE
  5
2A0
100
AcDbEntity
  8
DRAFT
100
AcDbPolyline
 62
7
  6
CONTINUOUS
 90
16
 70
0
 10
22.8835349199
 20
4.0919435329
 10
22.8466706958
 20
4.0344880756
 10
22.8149436795
 20
3.9751144578
 10
22.7883539386
 20
3.9138226794
 10
22.7668012427
 20
3.8502260591
 10
22.7503859243
 20
3.7847112783
 10
22.7394088814
 20
3.7184383806
 10
22.7339704037
 20
3.6512886996
 10
22.7339702386
 20
3.5833809017
 10
22.7394084538
 20
3.5162310304
 10
22.7503853356
 20
3.4499576901
 10
22.7668005606
 20
3.3844422765
 10
22.7883532651
 20
3.3208450195
 10
22.8149431283
 20
3.2595526626
 10
22.8466703692
 20
3.2001784624
 10
22.8835349199
 20
3.1427224188
  0
LINE
  5
2A1
100
AcDbEntity
  8
RACCORDO
100
AcDbLine
 62
253
  6
CONTINUOUS
 10
16.7348074325
 20
-4.2580889338
 11
16.7348074325
 21
-0.0072451145
  0
LINE
  5
2A2
100
AcDbEntity
  8
DRAFT
100
AcDbLine
 62
7
  6
CONTINUOUS
 10
16.9478180935
 20
0.2057655466
 11
16.9478180935
 21
-4.4710995949
  0
LINE
  5
2A3
100
AcDbEntity
  8
DRAFT
100
AcDbLine
 62
7
  6
CONTINUOUS
 10
17.3093855228
 20
-13.4326670241
 11
17.3093855228
 21
-10.8047304085
  0
LINE
  5
2A4
100
AcDbEntity
  8
DRAFT
100
AcDbLine
 62
7
  6
CONTINUOUS
 10
17.3093855228
 20
6.5393963603
 11
17.3093855228
 21
9.1673329759
  0
LINE
  5
2A5
100
AcDbEntity
  8
DRAFT
100
AcDbLine
 62
7
  6
CONTINUOUS
 10
18.1093855228
 20
-13.4326670241
 11
18.1093855228
 21
-10.8326670241
  0
LINE
  5
2A6
100
AcDbEntity
  8
DRAFT
100
AcDbLine
 62
7
  6
CONTINUOUS
 10
18.1093855228
 20
6.5673329759
 11
18.1093855228
 21
9.1673329759
  0
LWPOLYLINE
  5
2A7
100
AcDbEntity
  8
DRAFT
100
AcDbPolyline
 62
7
  6
CONTINUOUS
 90
16
 70
0
 10
22.8835349199
 20
-1.6580564671
 10
22.8466706958
 20
-1.7155119244
 10
22.8149436795
 20
-1.7748855422
 10
22.7883539386
 20
-1.8361773206
 10
22.7668012427
 20
-1.8997739409
 10
22.7503859243
 20
-1.9652887217
 10
22.7394088814
 20
-2.0315616194
 10
22.7339704037
 20
-2.0987113004
 10
22.7339702386
 20
-2.1666190983
 10
22.7394084538
 20
-2.2337689696
 10
22.7503853356
 20
-2.3000423099
 10
22.7668005606
 20
-2.3655577235
 10
22.7883532651
 20
-2.4291549805
 10
22.8149431283
 20
-2.4904473374
 10
22.8466703692
 20
-2.5498215376
 10
22.8835349199
 20
-2.6072775812
  0
LWPOLYLINE
  5
2A8
100
AcDbEntity
  8
DRAFT
100
AcDbPolyline
 62
7
  6
CONTINUOUS
 90
16
 70
0
 10
22.8835349199
 20
-7.4080564671
 10
22.8466706958
 20
-7.4655119244
 10
22.8149436795
 20
-7.5248855422
 10
22.7883539386
 20
-7.5861773206
 10
22.7668012427
 20
-7.6497739409
 10
22.7503859243
 20
-7.7152887217
 10
22.7394088814
 20
-7.7815616194
 10
22.7339704037
 20
-7.8487113004
 10
22.7339702386
 20
-7.9166190983
 10
22.7394084538
 20
-7.9837689696
 10
22.7503853356
 20
-8.0500423099
 10
22.7668005606
 20
-8.1155577235
 10
22.7883532651
 20
-8.1791549805
 10
22.8149431283
 20
-8.2404473374
 10
22.8466703692
 20
-8.2998215376
 10
22.8835349199
 20
-8.3572775812
  0
LINE
  5
2A9
100
AcDbEntity
  8
DRAFT
100
AcDbLine
 62
7
  6
CONTINUOUS
 10
22.8835349199
 20
-10.7568164213
 11
22.8835349199
 21
-8.3572775812
  0
LINE
  5
2AA
100
AcDbEntity
  8
DRAFT
100
AcDbLine
 62
7
  6
CONTINUOUS
 10
22.8835349199
 20
-7.4080564671
 11
22.8835349199
 21
-2.6072775812
  0
LINE
  5
2AB
100
AcDbEntity
  8
DRAFT
100
AcDbLine
 62
7
  6
CONTINUOUS
 10
22.8835349199
 20
-1.6580564671
 11
22.8835349199
 21
3.1427224188
  0
LINE
  5
2AC
100
AcDbEntity
  8
DRAFT
100
AcDbLine
 62
7
  6
CONTINUOUS
 10
22.8835349199
 20
4.0919435329
 11
22.8835349199
 21
6.491482373
  0
LINE
  5
2AD
100
AcDbEntity
  8
DRAFT
100
AcDbLine
 62
7
  6
CONTINUOUS
 10
22.9593855228
 20
6.5673329759
 11
22.9593855228
 21
4.0673329759
  0
LINE
  5
2AE
100
AcDbEntity
  8
DRAFT
100
AcDbLine
 62
7
  6
CONTINUOUS
 10
22.9593855228
 20
3.1673329759
 11
22.9593855228
 21
-1.6826670241
  0
LINE
  5
2AF
100
AcDbEntity
  8
DRAFT
100
AcDbLine
 62
7
  6
CONTINUOUS
 10
22.9593855228
 20
-2.5826670241
 11
22.9593855228
 21
-7.4326670241
  0
LINE
  5
2B0
100
AcDbEntity
  8
DRAFT
100
AcDbLine
 62
7
  6
CONTINUOUS
 10
22.9593855228
 20
-8.3326670241
 11
22.9593855228
 21
-10.8326670241
  0
LINE
  5
2B1
100
AcDbEntity
  8
RACCORDO
100
AcDbLine
 62
7
  6
CONTINUOUS
 10
25.6093855228
 20
8.6673329759
 11
25.6093855228
 21
-12.9326670241
  0
ARC
  5
2B2
100
AcDbEntity
  8
DRAFT
100
AcDbCircle
 62
7
  6
CONTINUOUS
 10
-42.3406144772
 20
-7.8826670241
 40
0.75
100
AcDbArc
 50
323.1301023542
 51
36.8698976458
  0
ARC
  5
2B3
100
AcDbEntity
  8
DRAFT
100
AcDbCircle
 62
7
  6
CONTINUOUS
 10
23.5593855228
 20
-7.8826670241
 40
0.75
100
AcDbArc
 50
143.1301023542
 51
216.8698976458
  0
ARC
  5
2B4
100
AcDbEntity
  8
DRAFT
100
AcDbCircle
 62
7
  6
CONTINUOUS
 10
23.5593855228
 20
-2.1326670241
 40
0.75
100
AcDbArc
 50
143.1301023542
 51
216.8698976458
  0
ARC
  5
2B5
100
AcDbEntity
  8
DRAFT
100
AcDbCircle
 62
7
  6
CONTINUOUS
 10
23.5593855228
 20
3.6173329759
 40
0.75
100
AcDbArc
 50
143.1301023542
 51
216.8698976458
  0
ARC
  5
2B6
100
AcDbEntity
  8
DRAFT
100
AcDbCircle
 62
7
  6
CONTINUOUS
 10
-42.3406144772
 20
3.6173329759
 40
0.75
100
AcDbArc
 50
323.1301023542
 51
36.8698976458
  0
ARC
  5
2B7
100
AcDbEntity
  8
DRAFT
100
AcDbCircle
 62
7
  6
CONTINUOUS
 10
-42.3406144772
 20
-2.1326670241
 40
0.75
100
AcDbArc
 50
323.1301023542
 51
36.8698976458
  0
ARC
  5
2B8
100
AcDbEntity
  8
RACCORDO
100
AcDbCircle
 62
7
  6
CONTINUOUS
 10
-43.8906144772
 20
-12.9326670241
 40
0.5
100
AcDbArc
 50
180.0
 51
270.0
  0
ARC
  5
2B9
100
AcDbEntity
  8
RACCORDO
100
AcDbCircle
 62
7
  6
CONTINUOUS
 10
-43.8906144772
 20
8.6673329759
 40
0.5
100
AcDbArc
 50
90.0
 51
180.0
  0
ARC
  5
2BA
100
AcDbEntity
  8
RACCORDO
100
AcDbCircle
 62
7
  6
CONTINUOUS
 10
25.1093855228
 20
-12.9326670241
 40
0.5
100
AcDbArc
 50
270.0
 51
360.0
  0
ARC
  5
2BB
100
AcDbEntity
  8
RACCORDO
100
AcDbCircle
 62
7
  6
CONTINUOUS
 10
25.1093855228
 20
8.6673329759
 40
0.5
100
AcDbArc
 50
0.0
 51
90.0
  0
ELLIPSE
  5
2BC
100
AcDbEntity
  8
RACCORDO
100
AcDbEllipse
 62
7
  6
CONTINUOUS
 10
15.9836590266
 20
-0.0066357558
 30
0.0
 11
0.5
 21
0.0
 31
0.0
 40
0.0349207695
 41
-3.1066860685
 42
-1.5707963268
  0
ELLIPSE
  5
2BD
100
AcDbEntity
  8
DRAFT
100
AcDbEllipse
 62
7
  6
CONTINUOUS
 10
-9.3906144772
 20
-16.6603507264
 30
0.0
 11
483.7
 21
0.0
 31
0.0
 40
0.0349207695
 41
1.6217972853
 42
1.6252752717
  0
ELLIPSE
  5
2BE
100
AcDbEntity
  8
DRAFT
100
AcDbEllipse
 62
7
  6
CONTINUOUS
 10
-9.3906144772
 20
12.3950166782
 30
0.0
 11
483.7
 21
0.0
 31
0.0
 40
0.0349207695
 41
-1.6252752717
 42
-1.6217972853
  0
ELLIPSE
  5
2BF
100
AcDbEntity
  8
DRAFT
100
AcDbEllipse
 62
7
  6
CONTINUOUS
 10
-9.3906144772
 20
12.3950166782
 30
0.0
 11
483.7
 21
0.0
 31
0.0
 40
0.0349207695
 41
-1.5197953683
 42
-1.5163173819
  0
ELLIPSE
  5
2C0
100
AcDbEntity
  8
DRAFT
100
AcDbEllipse
 62
7
  6
CONTINUOUS
 10
-9.3906144772
 20
-16.6603507264
 30
0.0
 11
483.7
 21
0.0
 31
0.0
 40
0.0349207695
 41
1.5163173819
 42
1.5197953683
  0
ELLIPSE
  5
2C1
100
AcDbEntity
  8
RACCORDO
100
AcDbEllipse
 62
7
  6
CONTINUOUS
 10
16.2351120189
 20
-0.0066357558
 30
0.0
 11
0.5
 21
0.0
 31
0.0
 40
0.0349207695
 41
-1.5707963268
 42
-0.034906585
  0
ELLIPSE
  5
2C2
100
AcDbEntity
  8
DRAFT
100
AcDbEllipse
 62
7
  6
CONTINUOUS
 10
-9.3906144772
 20
-27.3103507264
 30
0.0
 11
483.7
 21
0.0
 31
0.0
 40
0.0349207695
 41
1.5190883591
 42
1.5273673363
  0
ELLIPSE
  5
2C3
100
AcDbEntity
  8
DRAFT
100
AcDbEllipse
 62
7
  6
CONTINUOUS
 10
-9.3906144772
 20
-27.3103507264
 30
0.0
 11
483.7
 21
0.0
 31
0.0
 40
0.0349207695
 41
1.6142253173
 42
1.6225042944
  0
ELLIPSE
  5
2C4
100
AcDbEntity
  8
RACCORDO
100
AcDbEllipse
 62
7
  6
CONTINUOUS
 10
15.9836590266
 20
-4.2586982924
 30
0.0
 11
0.5
 21
0.0
 31
0.0
 40
0.0349207695
 41
1.5707963268
 42
3.1066860685
  0
ELLIPSE
  5
2C5
100
AcDbEntity
  8
DRAFT
100
AcDbEllipse
 62
7
  6
CONTINUOUS
 10
-9.3906144772
 20
23.0450166782
 30
0.0
 11
483.7
 21
0.0
 31
0.0
 40
0.0349207695
 41
-1.6225042944
 42
-1.6142253173
  0
ELLIPSE
  5
2C6
100
AcDbEntity
  8
RACCORDO
100
AcDbEllipse
 62
7
  6
CONTINUOUS
 10
16.2351120189
 20
-4.2586982924
 30
0.0
 11
0.5
 21
-0.0
 31
0.0
 40
0.0349207695
 41
0.034906585
 42
1.5707963268
  0
ELLIPSE
  5
2C7
100
AcDbEntity
  8
RACCORDO
100
AcDbEllipse
 62
7
  6
CONTINUOUS
 10
-35.0163409734
 20
-4.2586982924
 30
0.0
 11
0.5
 21
-0.0
 31
0.0
 40
0.0349207695
 41
1.5707963268
 42
3.1066860685
  0
ELLIPSE
  5
2C8
100
AcDbEntity
  8
DRAFT
100
AcDbEllipse
 62
7
  6
CONTINUOUS
 10
-9.3906144772
 20
23.0450166782
 30
0.0
 11
483.7
 21
0.0
 31
0.0
 40
0.0349207695
 41
-1.5273673363
 42
-1.5190883591
  0
ELLIPSE
  5
2C9
100
AcDbEntity
  8
RACCORDO
100
AcDbEllipse
 62
7
  6
CONTINUOUS
 10
-34.7648879811
 20
-4.2586982924
 30
0.0
 11
0.5
 21
0.0
 31
0.0
 40
0.0349207695
 41
0.034906585
 42
1.5707963268
  0
ELLIPSE
  5
2CA
100
AcDbEntity
  8
RACCORDO
100
AcDbEllipse
 62
7
  6
CONTINUOUS
 10
-35.0163409734
 20
-0.0066357558
 30
0.0
 11
0.5
 21
-0.0
 31
0.0
 40
0.0349207695
 41
-3.1066860685
 42
-1.5707963268
  0
ELLIPSE
  5
2CB
100
AcDbEntity
  8
RACCORDO
100
AcDbEllipse
 62
7
  6
CONTINUOUS
 10
-34.7648879811
 20
-0.0066357558
 30
0.0
 11
0.5
 21
0.0
 31
0.0
 40
0.0349207695
 41
-1.5707963268
 42
-0.034906585
  0
ELLIPSE
  5
2CC
100
AcDbEntity
  8
RACCORDO
100
AcDbEllipse
 62
7
  6
CONTINUOUS
 10
-33.8906144772
 20
7.8959044044
 30
0.0
 11
0.5
 21
0.0
 31
0.0
 40
0.8571428571
 41
-3.1415926536
 42
-1.5707963268
  0
ELLIPSE
  5
2CD
100
AcDbEntity
  8
RACCORDO
100
AcDbEllipse
 62
7
  6
CONTINUOUS
 10
-30.8906144772
 20
7.8959044044
 30
0.0
 11
0.5
 21
0.0
 31
0.0
 40
0.8571428571
 41
-1.5707963268
 42
0.0
  0
ELLIPSE
  5
2CE
100
AcDbEntity
  8
RACCORDO
100
AcDbEllipse
 62
7
  6
CONTINUOUS
 10
-30.8906144772
 20
6.326698284
 30
0.0
 11
0.5
 21
0.0
 31
0.0
 40
0.0349207695
 41
0.0
 42
1.5707963268
  0
ELLIPSE
  5
2CF
100
AcDbEntity
  8
RACCORDO
100
AcDbEllipse
 62
7
  6
CONTINUOUS
 10
-33.8906144772
 20
6.326698284
 30
0.0
 11
0.5
 21
0.0
 31
0.0
 40
0.0349207695
 41
1.5707963268
 42
3.1415926536
  0
ELLIPSE
  5
2D0
100
AcDbEntity
  8
RACCORDO
100
AcDbEllipse
 62
7
  6
CONTINUOUS
 10
-33.8906144772
 20
-10.5920323323
 30
0.0
 11
0.5
 21
0.0
 31
0.0
 40
0.0349207695
 41
-3.1415926536
 42
-1.5707963268
  0
ELLIPSE
  5
2D1
100
AcDbEntity
  8
RACCORDO
100
AcDbEllipse
 62
7
  6
CONTINUOUS
 10
-30.8906144772
 20
-10.5920323323
 30
0.0
 11
0.5
 21
0.0
 31
0.0
 40
0.0349207695
 41
-1.5707963268
 42
0.0
  0
ELLIPSE
  5
2D2
100
AcDbEntity
  8
DRAFT
100
AcDbEllipse
 62
7
  6
CONTINUOUS
 10
-9.3906144772
 20
23.3450166782
 30
0.0
 11
483.7
 21
0.0
 31
0.0
 40
0.0349207695
 41
-1.5190883591
 42
-1.5040232339
  0
ELLIPSE
  5
2D3
100
AcDbEntity
  8
RACCORDO
100
AcDbEllipse
 62
7
  6
CONTINUOUS
 10
-33.8906144772
 20
-12.1612384527
 30
0.0
 11
0.5
 21
0.0
 31
0.0
 40
0.8571428571
 41
1.5707963268
 42
3.1415926536
  0
ELLIPSE
  5
2D4
100
AcDbEntity
  8
DRAFT
100
AcDbEllipse
 62
7
  6
CONTINUOUS
 10
-9.3906144772
 20
23.3450166782
 30
0.0
 11
483.7
 21
0.0
 31
0.0
 40
0.0349207695
 41
-1.6142253173
 42
-1.5273673363
  0
ELLIPSE
  5
2D5
100
AcDbEntity
  8
RACCORDO
100
AcDbEllipse
 62
7
  6
CONTINUOUS
 10
-30.8906144772
 20
-12.1612384527
 30
0.0
 11
0.5
 21
0.0
 31
0.0
 40
0.8571428571
 41
-0.0
 42
1.5707963268
  0
ELLIPSE
  5
2D6
100
AcDbEntity
  8
DRAFT
100
AcDbEllipse
 62
7
  6
CONTINUOUS
 10
-9.3906144772
 20
23.3450166782
 30
0.0
 11
483.7
 21
0.0
 31
0.0
 40
0.0349207695
 41
-1.6375694197
 42
-1.6225042944
  0
ELLIPSE
  5
2D7
100
AcDbEntity
  8
DRAFT
100
AcDbEllipse
 62
7
  6
CONTINUOUS
 10
-9.3906144772
 20
-27.6103507264
 30
0.0
 11
483.7
 21
0.0
 31
0.0
 40
0.0349207695
 41
1.5040232339
 42
1.5190883591
  0
ELLIPSE
  5
2D8
100
AcDbEntity
  8
DRAFT
100
AcDbEllipse
 62
7
  6
CONTINUOUS
 10
-9.3906144772
 20
-27.6103507264
 30
0.0
 11
483.7
 21
0.0
 31
0.0
 40
0.0349207695
 41
1.5273673363
 42
1.6142253173
  0
ELLIPSE
  5
2D9
100
AcDbEntity
  8
DRAFT
100
AcDbEllipse
 62
7
  6
CONTINUOUS
 10
-9.3906144772
 20
-27.6103507264
 30
0.0
 11
483.7
 21
0.0
 31
0.0
 40
0.0349207695
 41
1.6225042944
 42
1.6375694197
  0
ELLIPSE
  5
2DA
100
AcDbEntity
  8
RACCORDO
100
AcDbEllipse
 62
7
  6
CONTINUOUS
 10
12.1093855228
 20
7.8959044044
 30
0.0
 11
0.5
 21
0.0
 31
0.0
 40
0.8571428571
 41
3.1415926536
 42
4.7123889804
  0
ELLIPSE
  5
2DB
100
AcDbEntity
  8
RACCORDO
100
AcDbEllipse
 62
7
  6
CONTINUOUS
 10
15.1093855228
 20
7.8959044044
 30
0.0
 11
0.5
 21
-0.0
 31
0.0
 40
0.8571428571
 41
-1.5707963268
 42
-0.0
  0
ELLIPSE
  5
2DC
100
AcDbEntity
  8
RACCORDO
100
AcDbEllipse
 62
7
  6
CONTINUOUS
 10
15.1093855228
 20
-12.1612384527
 30
0.0
 11
0.5
 21
-0.0
 31
0.0
 40
0.8571428571
 41
0.0
 42
1.5707963268
  0
ELLIPSE
  5
2DD
100
AcDbEntity
  8
RACCORDO
100
AcDbEllipse
 62
7
  6
CONTINUOUS
 10
12.1093855228
 20
-12.1612384527
 30
0.0
 11
0.5
 21
-0.0
 31
0.0
 40
0.8571428571
 41
1.5707963268
 42
3.1415926536
  0
ELLIPSE
  5
2DE
100
AcDbEntity
  8
RACCORDO
100
AcDbEllipse
 62
7
  6
CONTINUOUS
 10
15.1093855228
 20
-10.5920323323
 30
0.0
 11
0.5
 21
0.0
 31
0.0
 40
0.0349207695
 41
-1.5707963268
 42
-0.0
  0
ELLIPSE
  5
2DF
100
AcDbEntity
  8
RACCORDO
100
AcDbEllipse
 62
7
  6
CONTINUOUS
 10
12.1093855228
 20
-10.5920323323
 30
0.0
 11
0.5
 21
0.0
 31
0.0
 40
0.0349207695
 41
3.1415926536
 42
4.7123889804
  0
ELLIPSE
  5
2E0
100
AcDbEntity
  8
RACCORDO
100
AcDbEllipse
 62
7
  6
CONTINUOUS
 10
12.1093855228
 20
6.326698284
 30
0.0
 11
0.5
 21
0.0
 31
0.0
 40
0.0349207695
 41
1.5707963268
 42
3.1415926536
  0
ELLIPSE
  5
2E1
100
AcDbEntity
  8
RACCORDO
100
AcDbEllipse
 62
7
  6
CONTINUOUS
 10
15.1093855228
 20
6.326698284
 30
0.0
 11
0.5
 21
0.0
 31
0.0
 40
0.0349207695
 41
-0.0
 42
1.5707963268
  0
ENDSEC
  0
SECTION
  2
OBJECTS
  0
DICTIONARY
  5
C
100
AcDbDictionary
280
0
281
1
  3
ACAD_GROUP
350
D
  3
ACAD_MLINESTYLE
350
17
  3
ACAD_LAYOUT
350
1A
  3
ACAD_PLOTSETTINGS
350
19
  3
ACAD_PLOTSTYLENAME
350
E
  0
DICTIONARY
  5
D
102
{ACAD_REACTORS
330
C
102
}
100
AcDbDictionary
280
0
281
1
  0
ACDBDICTIONARYWDFLT
  5
E
102
{ACAD_REACTORS
330
C
102
}
100
AcDbDictionary
281
1
  3
Normal
350
F
100
AcDbDictionaryWithDefault
340
F
  0
DICTIONARY
  5
17
102
{ACAD_REACTORS
330
C
102
}
100
AcDbDictionary
280
0
281
1
  3
Standard
350
18
  0
DICTIONARY
  5
19
102
{ACAD_REACTORS
330
C
102
}
100
AcDbDictionary
281
1
  0
DICTIONARY
  5
1A
102
{ACAD_REACTORS
330
C
102
}
100
AcDbDictionary
281
1
  3
Model
350
2E2
  3
Layout1
350
2E3
  0
ACDBPLACEHOLDER
  5
F
102
{ACAD_REACTORS
330
E
102
}
  0
MLINESTYLE
  5
18
102
{ACAD_REACTORS
330
17
102
}
100
AcDbMlineStyle
  2
STANDARD
 70
0
  3

 62
256
 51
90.0
 52
90.0
 71
2
 49
0.5
 62
256
  6
BYLAYER
 49
-0.5
 62
256
  6
BYLAYER
  0
LAYOUT
  5
2E2
102
{ACAD_REACTORS
330
1A
102
}
100
AcDbPlotSettings
  1

  2
none_device
  4
ISO_A4_(297.00_x_210.00_MM)
  6

 40
0.0
 41
0.0
 42
0.0
 43
0.0
 44
297.0
 45
210.0
 46
0.0
 47
0.0
 48
0.0
 49
0.0
140
0.0
141
0.0
142
1.0
143
1.0
 70
1024
 72
1
 73
0
 74
0
  7

 75
0
147
1.0
148
0.0
149
0.0
100
AcDbLayout
  1
Model
 70
0
 71
0
 10
0.0
 20
0.0
 11
297.0
 21
210.0
 12
0.0
 22
0.0
 32
0.0
 14
0.0
 24
0.0
 34
0.0
 15
0.0
 25
0.0
 35
0.0
146
0.0
 13
0.0
 23
0.0
 33
0.0
 16
1.0
 26
0.0
 36
0.0
 17
0.0
 27
1.0
 37
0.0
 76
0
330
20F
345
0
346
0
  0
LAYOUT
  5
2E3
102
{ACAD_REACTORS
330
1A
102
}
100
AcDbPlotSettings
  1

  2
none_device
  4
ISO_A4_(297.00_x_210.00_MM)
  6

 40
0.0
 41
0.0
 42
0.0
 43
0.0
 44
297.0
 45
210.0
 46
0.0
 47
0.0
 48
0.0
 49
0.0
140
0.0
141
0.0
142
1.0
143
1.0
 70
0
 72
1
 73
0
 74
0
  7

 75
0
147
1.0
148
0.0
149
0.0
100
AcDbLayout
  1
Layout1
 70
0
 71
1
 10
0.0
 20
0.0
 11
297.0
 21
210.0
 12
0.0
 22
0.0
 32
0.0
 14
0.0
 24
0.0
 34
0.0
 15
0.0
 25
0.0
 35
0.0
146
0.0
 13
0.0
 23
0.0
 33
0.0
 16
1.0
 26
0.0
 36
0.0
 17
0.0
 27
1.0
 37
0.0
 76
0
330
210
345
0
346
0
  0
ENDSEC
  0
EOF
