  0
SECTION
  2
HEADER
  9
$ACADVER
  1
AC1015
  9
$DWGCODEPAGE
  3
ANSI_1252
  9
$EXTMAX
 10
297.0
 20
210.0
 30
0.0
  9
$EXTMIN
 10
0.0
 20
0.0
 30
0.0
  9
$LIMMIN
 10
0.0
 20
0.0
  9
$LIMMAX
 10
297.0
 20
210.0
  9
$VIEWCTR
 10
148.5
 20
105.0
  9
$VIEWSIZE
 40
210.0
  9
$CLAYER
  8
0
  9
$LTSCALE
 40
16.335
  9
$CELTYPE
  6
BYLAYER
  9
$DIMSCALE
 40
1.0
  9
$DIMASZ
 40
3.0
  9
$DIMEXO
 40
0.5
  9
$DIMDLI
 40
11.286
  9
$DIMEXE
 40
1.5
  9
$DIMCEN
 40
2.673
  9
$DIMLFAC
 40
1.0
  9
$DIMBLK
  1
_FILLED
  9
$DIMALT
 70
0
  9
$DIMALTF
 40
0.0393700787
  9
$DIMTXT
 40
3.0
  9
$DIMTOL
 70
1
  9
$DIMLIM
 70
0
  9
$DIMTFAC
 40
1.0
  9
$DIMTP
 40
0.01
  9
$DIMTM
 40
0.01
  9
$DIMGAP
 40
0.625
  9
$DIMDSEP
 70
44
  9
$AUNITS
 70
0
  9
$PDMODE
 70
3
  9
$PDSIZE
 40
3.0
  9
$HANDSEED
  5
2FA
  9
$TILEMODE
 70
1
  9
$MEASUREMENT
 70
1
  9
$INSUNITS
 70
4
  0
ENDSEC
  0
SECTION
  2
CLASSES
  0
CLASS
  1
ACDBDICTIONARYWDFLT
  2
AcDbDictionaryWithDefault
  3
AutoCAD 2000
 90
0
280
0
281
0
  0
CLASS
  1
ACDBPLACEHOLDER
  2
AcDbPlaceHolder
  3
AutoCAD 2000
 90
0
280
0
281
0
  0
CLASS
  1
LAYOUT
  2
AcDbLayout
  3
AutoCAD 2000
 90
0
280
0
281
0
  0
ENDSEC
  0
SECTION
  2
TABLES
  0
TABLE
  2
VPORT
  5
8
100
AcDbSymbolTable
 70
2
  0
VPORT
  5
1F4
100
AcDbSymbolTableRecord
100
AcDbViewportTableRecord
  2
*ACTIVE
 70
0
 10
0.0
 20
0.0
 11
1.0
 21
1.0
 12
148.5
 22
105.0
 13
0.0
 23
0.0
 14
1.0
 24
1.0
 15
0.0
 25
0.0
 16
0.0
 26
0.0
 36
1.0
 17
0.0
 27
0.0
 37
0.0
 40
210.0
 41
1.4142857143
 42
50.0
 43
0.0
 44
0.0
 50
0.0
 51
0.0
 71
0
 72
100
 73
1
 74
1
 75
0
 76
0
 77
0
 78
0
  0
ENDTAB
  0
TABLE
  2
LTYPE
  5
5
100
AcDbSymbolTable
 70
6
  0
LTYPE
  5
14
100
AcDbSymbolTableRecord
100
AcDbLinetypeTableRecord
  2
BYBLOCK
 70
0
  3

 72
65
 73
0
 40
0.0
  0
LTYPE
  5
15
100
AcDbSymbolTableRecord
100
AcDbLinetypeTableRecord
  2
BYLAYER
 70
0
  3

 72
65
 73
0
 40
0.0
  0
LTYPE
  5
16
100
AcDbSymbolTableRecord
100
AcDbLinetypeTableRecord
  2
CONTINUOUS
 70
64
  3
Solid line
 72
65
 73
0
 40
0.0
  0
LTYPE
  5
1F5
100
AcDbSymbolTableRecord
100
AcDbLinetypeTableRecord
  2
CENTER
 70
64
  3
____ _ ____ _ ____ _ ____ _ ____ _ ____ _ ____
 72
65
 73
4
 40
0.6
 49
0.375
 74
0
 49
-0.075
 74
0
 49
0.075
 74
0
 49
-0.075
 74
0
  0
LTYPE
  5
1F6
100
AcDbSymbolTableRecord
100
AcDbLinetypeTableRecord
  2
HIDDEN
 70
64
  3
- - - - - - - - - - - - - - - - - - - -
 72
65
 73
2
 40
0.2
 49
0.1
 74
0
 49
-0.1
 74
0
  0
LTYPE
  5
1F7
100
AcDbSymbolTableRecord
100
AcDbLinetypeTableRecord
  2
PHANTOM
 70
64
  3
_____ _ _ _____ _ _ _____ _ _ _____
 72
65
 73
6
 40
0.8
 49
0.45
 74
0
 49
-0.05
 74
0
 49
0.1
 74
0
 49
-0.05
 74
0
 49
0.1
 74
0
 49
-0.05
 74
0
  0
LTYPE
  5
1F8
100
AcDbSymbolTableRecord
100
AcDbLinetypeTableRecord
  2
DOT
 70
64
  3
. . . . . . . . . . . . . . . . . . . .
 72
65
 73
2
 40
0.2
 49
0.1
 74
0
 49
-0.1
 74
0
  0
LTYPE
  5
1F9
100
AcDbSymbolTableRecord
100
AcDbLinetypeTableRecord
  2
DASHED
 70
64
  3
- - - - - - - - - - - - - - - - - - - -
 72
65
 73
2
 40
0.2
 49
0.1
 74
0
 49
-0.1
 74
0
  0
ENDTAB
  0
TABLE
  2
LAYER
  5
2
100
AcDbSymbolTable
 70
36
  0
LAYER
  5
10
100
AcDbSymbolTableRecord
100
AcDbLayerTableRecord
  2
0
 70
0
 62
7
  6
CONTINUOUS
370
-3
390
F
  0
LAYER
  5
1FA
100
AcDbSymbolTableRecord
100
AcDbLayerTableRecord
  2
DEFAULT_1
 70
0
 62
7
  6
CENTER
370
-3
390
F
  0
LAYER
  5
1FB
100
AcDbSymbolTableRecord
100
AcDbLayerTableRecord
  2
DEFAULT_2
 70
0
 62
7
  6
HIDDEN
370
-3
390
F
  0
LAYER
  5
1FC
100
AcDbSymbolTableRecord
100
AcDbLayerTableRecord
  2
DEFAULT_3
 70
0
 62
7
  6
PHANTOM
370
-3
390
F
  0
LAYER
  5
1FD
100
AcDbSymbolTableRecord
100
AcDbLayerTableRecord
  2
ASSI
 70
0
 62
7
  6
CONTINUOUS
370
-3
390
F
  0
LAYER
  5
1FE
100
AcDbSymbolTableRecord
100
AcDbLayerTableRecord
  2
COORDINATE
 70
0
 62
7
  6
CONTINUOUS
370
-3
390
F
  0
LAYER
  5
1FF
100
AcDbSymbolTableRecord
100
AcDbLayerTableRecord
  2
COPY_PUBLISH
 70
0
 62
7
  6
CONTINUOUS
370
-3
390
F
  0
LAYER
  5
200
100
AcDbSymbolTableRecord
100
AcDbLayerTableRecord
  2
COSMETICI
 70
0
 62
7
  6
CONTINUOUS
370
-3
390
F
  0
LAYER
  5
201
100
AcDbSymbolTableRecord
100
AcDbLayerTableRecord
  2
CURVE
 70
0
 62
7
  6
CONTINUOUS
370
-3
390
F
  0
LAYER
  5
202
100
AcDbSymbolTableRecord
100
AcDbLayerTableRecord
  2
DRAFT
 70
0
 62
7
  6
CONTINUOUS
370
-3
390
F
  0
LAYER
  5
203
100
AcDbSymbolTableRecord
100
AcDbLayerTableRecord
  2
IMPORT_IGES
 70
0
 62
7
  6
CONTINUOUS
370
-3
390
F
  0
LAYER
  5
204
100
AcDbSymbolTableRecord
100
AcDbLayerTableRecord
  2
NOTE
 70
0
 62
7
  6
CONTINUOUS
370
-3
390
F
  0
LAYER
  5
205
100
AcDbSymbolTableRecord
100
AcDbLayerTableRecord
  2
PIANI
 70
0
 62
7
  6
CONTINUOUS
370
-3
390
F
  0
LAYER
  5
206
100
AcDbSymbolTableRecord
100
AcDbLayerTableRecord
  2
PUNTI
 70
0
 62
7
  6
CONTINUOUS
370
-3
390
F
  0
LAYER
  5
207
100
AcDbSymbolTableRecord
100
AcDbLayerTableRecord
  2
RACCORDO
 70
0
 62
7
  6
CONTINUOUS
370
-3
390
F
  0
LAYER
  5
208
100
AcDbSymbolTableRecord
100
AcDbLayerTableRecord
  2
SIMBOLI
 70
0
 62
7
  6
CONTINUOUS
370
-3
390
F
  0
LAYER
  5
209
100
AcDbSymbolTableRecord
100
AcDbLayerTableRecord
  2
SMUSSO
 70
0
 62
7
  6
CONTINUOUS
370
-3
390
F
  0
LAYER
  5
20A
100
AcDbSymbolTableRecord
100
AcDbLayerTableRecord
  2
SNAPLINE
 70
0
 62
7
  6
CONTINUOUS
370
-3
390
F
  0
LAYER
  5
20B
100
AcDbSymbolTableRecord
100
AcDbLayerTableRecord
  2
SUPERFICI
 70
0
 62
7
  6
CONTINUOUS
370
-3
390
F
  0
LAYER
  5
20C
100
AcDbSymbolTableRecord
100
AcDbLayerTableRecord
  2
TRASH
 70
0
 62
7
  6
CONTINUOUS
370
-3
390
F
  0
ENDTAB
  0
TABLE
  2
STYLE
  5
3
100
AcDbSymbolTable
 70
1
  0
STYLE
  5
11
100
AcDbSymbolTableRecord
100
AcDbTextStyleTableRecord
  2
STANDARD
 70
0
 40
0.0
 41
0.8
 50
0.0
 71
0
 42
0.2
  3
txt
  4

  0
STYLE
  5
20D
100
AcDbSymbolTableRecord
100
AcDbTextStyleTableRecord
  2
TEXTSTYLE_1
 70
0
 40
0.0
 41
0.8
 50
0.0
 71
0
 42
0.2
  3
gdt
  4

  0
ENDTAB
  0
TABLE
  2
VIEW
  5
6
100
AcDbSymbolTable
 70
0
  0
ENDTAB
  0
TABLE
  2
UCS
  5
7
100
AcDbSymbolTable
 70
0
  0
ENDTAB
  0
TABLE
  2
APPID
  5
9
100
AcDbSymbolTable
 70
1
  0
APPID
  5
20E
100
AcDbSymbolTableRecord
100
AcDbRegAppTableRecord
  2
ACAD
 70
0
  0
ENDTAB
  0
TABLE
  2
BLOCK_RECORD
  5
1
100
AcDbSymbolTable
 70
0
  0
BLOCK_RECORD
  5
20F
100
AcDbSymbolTableRecord
100
AcDbBlockTableRecord
  2
*Model_Space
  0
BLOCK_RECORD
  5
210
100
AcDbSymbolTableRecord
100
AcDbBlockTableRecord
  2
*Paper_Space
  0
ENDTAB
  0
TABLE
  2
DIMSTYLE
  5
A
100
AcDbSymbolTable
 70
1
100
AcDbDimStyleTable
 71
0
  0
DIMSTYLE
105
211
100
AcDbSymbolTableRecord
100
AcDbDimStyleTableRecord
  2
STANDARD
 70
0
  3

  4

 40
1.0
 41
3.0
 42
0.5
 43
0.38
 44
1.5
 45
0.0
 46
0.0
 47
0.01
 48
0.01
140
3.0
141
0.09
142
0.0
143
25.4
144
1.0
145
0.0
146
1.0
147
0.625
 71
1.0
 72
0.0
 73
0
 74
0
 75
0
 76
0
 77
1
 78
8
170
0
171
2
172
0
173
0
174
0
175
0
176
0
177
0
178
0
270
2
271
2
272
2
273
2
274
2
275
0
280
0
281
0
282
0
283
1
284
8
285
0
286
0
287
3
288
0
340
11
278
44
  0
ENDTAB
  0
ENDSEC
  0
SECTION
  2
BLOCKS
  0
BLOCK
  5
20
100
AcDbEntity
  8
0
100
AcDbBlockBegin
  2
*Model_Space
 70
0
 10
0.0
 20
0.0
 30
0.0
  3
*Model_Space
  1

  0
ENDBLK
  5
21
100
AcDbEntity
  8
0
100
AcDbBlockEnd
  0
BLOCK
  5
1C
100
AcDbEntity
  8
0
100
AcDbBlockBegin
  2
*Paper_Space
 70
0
 10
0.0
 20
0.0
 30
0.0
  3
*Paper_Space
  1

  0
ENDBLK
  5
1D
100
AcDbEntity
  8
0
100
AcDbBlockEnd
  0
ENDSEC
  0
SECTION
  2
ENTITIES
  0
LINE
  5
212
100
AcDbEntity
  8
RACCORDO
100
AcDbLine
 62
7
  6
CONTINUOUS
 10
-46.2464862601
 20
4.1488522118
 11
-46.2464862601
 21
-17.4511477882
  0
LINE
  5
213
100
AcDbEntity
  8
DRAFT
100
AcDbLine
 62
7
  6
CONTINUOUS
 10
-43.5964862601
 20
2.0488522118
 11
-43.5964862601
 21
-0.4511477882
  0
LINE
  5
214
100
AcDbEntity
  8
DRAFT
100
AcDbLine
 62
7
  6
CONTINUOUS
 10
-43.5964862601
 20
-1.3511477882
 11
-43.5964862601
 21
-6.2011477882
  0
LINE
  5
215
100
AcDbEntity
  8
DRAFT
100
AcDbLine
 62
7
  6
CONTINUOUS
 10
-43.5964862601
 20
-7.1011477882
 11
-43.5964862601
 21
-11.9511477882
  0
LINE
  5
216
100
AcDbEntity
  8
DRAFT
100
AcDbLine
 62
7
  6
CONTINUOUS
 10
-43.5964862601
 20
-12.8511477882
 11
-43.5964862601
 21
-15.3511477882
  0
LINE
  5
217
100
AcDbEntity
  8
DRAFT
100
AcDbLine
 62
7
  6
CONTINUOUS
 10
-43.5206356572
 20
-15.2752971853
 11
-43.5206356572
 21
-12.8757583453
  0
LINE
  5
218
100
AcDbEntity
  8
DRAFT
100
AcDbLine
 62
7
  6
CONTINUOUS
 10
-43.5206356572
 20
-11.9265372312
 11
-43.5206356572
 21
-7.1257583453
  0
LINE
  5
219
100
AcDbEntity
  8
DRAFT
100
AcDbLine
 62
7
  6
CONTINUOUS
 10
-43.5206356572
 20
-6.1765372312
 11
-43.5206356572
 21
-1.3757583453
  0
LINE
  5
21A
100
AcDbEntity
  8
DRAFT
100
AcDbLine
 62
7
  6
CONTINUOUS
 10
-43.5206356572
 20
-0.4265372312
 11
-43.5206356572
 21
1.9730016089
  0
LWPOLYLINE
  5
21B
100
AcDbEntity
  8
DRAFT
100
AcDbPolyline
 62
7
  6
CONTINUOUS
 90
16
 70
0
 10
-43.5206356572
 20
-1.3757583453
 10
-43.4837714331
 20
-1.318302888
 10
-43.4520444168
 20
-1.2589292701
 10
-43.4254546759
 20
-1.1976374917
 10
-43.40390198
 20
-1.1340408714
 10
-43.3874866616
 20
-1.0685260906
 10
-43.3765096186
 20
-1.002253193
 10
-43.3710711409
 20
-0.9351035119
 10
-43.3710709759
 20
-0.867195714
 10
-43.3765091911
 20
-0.8000458427
 10
-43.3874860729
 20
-0.7337725024
 10
-43.4039012978
 20
-0.6682570888
 10
-43.4254540024
 20
-0.6046598318
 10
-43.4520438656
 20
-0.5433674749
 10
-43.4837711064
 20
-0.4839932747
 10
-43.5206356572
 20
-0.4265372312
  0
LINE
  5
21C
100
AcDbEntity
  8
DRAFT
100
AcDbLine
 62
7
  6
CONTINUOUS
 10
-38.7464862601
 20
4.6488522118
 11
-38.7464862601
 21
2.0488522118
  0
LINE
  5
21D
100
AcDbEntity
  8
DRAFT
100
AcDbLine
 62
7
  6
CONTINUOUS
 10
-38.7464862601
 20
-15.3511477882
 11
-38.7464862601
 21
-17.9511477882
  0
LINE
  5
21E
100
AcDbEntity
  8
DRAFT
100
AcDbLine
 62
7
  6
CONTINUOUS
 10
-37.9464862601
 20
4.6488522118
 11
-37.9464862601
 21
2.0209155962
  0
LINE
  5
21F
100
AcDbEntity
  8
DRAFT
100
AcDbLine
 62
7
  6
CONTINUOUS
 10
-37.9464862601
 20
-15.3232111726
 11
-37.9464862601
 21
-17.9511477882
  0
LINE
  5
220
100
AcDbEntity
  8
DRAFT
100
AcDbLine
 62
7
  6
CONTINUOUS
 10
-37.5849188308
 20
-4.3127152175
 11
-37.5849188308
 21
-8.9895803589
  0
LINE
  5
221
100
AcDbEntity
  8
RACCORDO
100
AcDbLine
 62
253
  6
CONTINUOUS
 10
-37.3719081697
 20
-4.5257258785
 11
-37.3719081697
 21
-8.7765696979
  0
LINE
  5
222
100
AcDbEntity
  8
RACCORDO
100
AcDbLine
 62
253
  6
CONTINUOUS
 10
-36.8722127562
 20
-4.5425769046
 11
-36.8722127562
 21
-8.7597186718
  0
LINE
  5
223
100
AcDbEntity
  8
RACCORDO
100
AcDbLine
 62
253
  6
CONTINUOUS
 10
-36.6207597639
 20
-8.7597186718
 11
-36.6207597639
 21
-4.5425769046
  0
LWPOLYLINE
  5
224
100
AcDbEntity
  8
DRAFT
100
AcDbPolyline
 62
7
  6
CONTINUOUS
 90
16
 70
0
 10
-43.5206356572
 20
-7.1257583453
 10
-43.4837714331
 20
-7.068302888
 10
-43.4520444168
 20
-7.0089292701
 10
-43.4254546759
 20
-6.9476374917
 10
-43.40390198
 20
-6.8840408714
 10
-43.3874866616
 20
-6.8185260906
 10
-43.3765096186
 20
-6.752253193
 10
-43.3710711409
 20
-6.6851035119
 10
-43.3710709759
 20
-6.617195714
 10
-43.3765091911
 20
-6.5500458427
 10
-43.3874860729
 20
-6.4837725024
 10
-43.4039012978
 20
-6.4182570888
 10
-43.4254540024
 20
-6.3546598318
 10
-43.4520438656
 20
-6.2933674749
 10
-43.4837711064
 20
-6.2339932747
 10
-43.5206356572
 20
-6.1765372312
  0
LINE
  5
225
100
AcDbEntity
  8
RACCORDO
100
AcDbLine
 62
7
  6
CONTINUOUS
 10
-36.2464862601
 20
-16.8511477882
 11
-36.2464862601
 21
-14.960231343
  0
LINE
  5
226
100
AcDbEntity
  8
RACCORDO
100
AcDbLine
 62
7
  6
CONTINUOUS
 10
-36.2464862601
 20
1.6579357666
 11
-36.2464862601
 21
3.5488522118
  0
LINE
  5
227
100
AcDbEntity
  8
RACCORDO
100
AcDbLine
 62
253
  6
CONTINUOUS
 10
-36.1210643504
 20
-8.7765696979
 11
-36.1210643504
 21
-4.5257258785
  0
LINE
  5
228
100
AcDbEntity
  8
DRAFT
100
AcDbLine
 62
7
  6
CONTINUOUS
 10
-35.9049567983
 20
-4.3096183264
 11
-35.9049567983
 21
-8.99267725
  0
LINE
  5
229
100
AcDbEntity
  8
RACCORDO
100
AcDbLine
 62
253
  6
CONTINUOUS
 10
-35.7464862601
 20
-16.2511477882
 11
-35.7464862601
 21
-15.1559100967
  0
LINE
  5
22A
100
AcDbEntity
  8
RACCORDO
100
AcDbLine
 62
253
  6
CONTINUOUS
 10
-35.7464862601
 20
1.8536145203
 11
-35.7464862601
 21
2.9488522118
  0
LWPOLYLINE
  5
22B
100
AcDbEntity
  8
DRAFT
100
AcDbPolyline
 62
7
  6
CONTINUOUS
 90
16
 70
0
 10
-43.5206356572
 20
-12.8757583453
 10
-43.4837714331
 20
-12.818302888
 10
-43.4520444168
 20
-12.7589292701
 10
-43.4254546759
 20
-12.6976374917
 10
-43.40390198
 20
-12.6340408714
 10
-43.3874866616
 20
-12.5685260906
 10
-43.3765096186
 20
-12.502253193
 10
-43.3710711409
 20
-12.4351035119
 10
-43.3710709759
 20
-12.367195714
 10
-43.3765091911
 20
-12.3000458427
 10
-43.3874860729
 20
-12.2337725024
 10
-43.4039012978
 20
-12.1682570888
 10
-43.4254540024
 20
-12.1046598318
 10
-43.4520438656
 20
-12.0433674749
 10
-43.4837711064
 20
-11.9839932747
 10
-43.5206356572
 20
-11.9265372312
  0
LINE
  5
22C
100
AcDbEntity
  8
RACCORDO
100
AcDbLine
 62
253
  6
CONTINUOUS
 10
-32.7464862601
 20
2.9488522118
 11
-32.7464862601
 21
1.8536145203
  0
LINE
  5
22D
100
AcDbEntity
  8
RACCORDO
100
AcDbLine
 62
253
  6
CONTINUOUS
 10
-32.7464862601
 20
-15.1559100967
 11
-32.7464862601
 21
-16.2511477882
  0
LINE
  5
22E
100
AcDbEntity
  8
RACCORDO
100
AcDbLine
 62
7
  6
CONTINUOUS
 10
-32.2464862601
 20
-16.8511477882
 11
-32.2464862601
 21
-14.9535818152
  0
LINE
  5
22F
100
AcDbEntity
  8
RACCORDO
100
AcDbLine
 62
7
  6
CONTINUOUS
 10
-32.2464862601
 20
1.6512862388
 11
-32.2464862601
 21
3.5488522118
  0
LINE
  5
230
100
AcDbEntity
  8
DRAFT
100
AcDbLine
 62
7
  6
CONTINUOUS
 10
-30.5464862601
 20
-17.9511477882
 11
-30.5464862601
 21
-15.3232111726
  0
LINE
  5
231
100
AcDbEntity
  8
DRAFT
100
AcDbLine
 62
7
  6
CONTINUOUS
 10
-30.5464862601
 20
2.0209155962
 11
-30.5464862601
 21
4.6488522118
  0
LINE
  5
232
100
AcDbEntity
  8
DRAFT
100
AcDbLine
 62
7
  6
CONTINUOUS
 10
-29.7464862601
 20
-17.9511477882
 11
-29.7464862601
 21
-15.3511477882
  0
LINE
  5
233
100
AcDbEntity
  8
DRAFT
100
AcDbLine
 62
7
  6
CONTINUOUS
 10
-29.7464862601
 20
2.0488522118
 11
-29.7464862601
 21
4.6488522118
  0
LINE
  5
234
100
AcDbEntity
  8
RACCORDO
100
AcDbLine
 62
7
  6
CONTINUOUS
 10
-35.9049567983
 20
-4.3096183264
 11
-36.1210643504
 21
-4.5257258785
  0
LINE
  5
235
100
AcDbEntity
  8
RACCORDO
100
AcDbLine
 62
7
  6
CONTINUOUS
 10
-37.5849188308
 20
-8.9895803589
 11
-37.3719081697
 21
-8.7765696979
  0
LINE
  5
236
100
AcDbEntity
  8
DRAFT
100
AcDbLine
 62
7
  6
CONTINUOUS
 10
-43.5964862601
 20
-15.3511477882
 11
-43.5206356572
 21
-15.2752971853
  0
LINE
  5
237
100
AcDbEntity
  8
RACCORDO
100
AcDbLine
 62
7
  6
CONTINUOUS
 10
-35.9049567983
 20
-8.99267725
 11
-36.1210643504
 21
-8.7765696979
  0
LINE
  5
238
100
AcDbEntity
  8
RACCORDO
100
AcDbLine
 62
7
  6
CONTINUOUS
 10
-37.5849188308
 20
-4.3127152175
 11
-37.3719081697
 21
-4.5257258785
  0
LINE
  5
239
100
AcDbEntity
  8
DRAFT
100
AcDbLine
 62
7
  6
CONTINUOUS
 10
-43.5964862601
 20
2.0488522118
 11
-43.5206356572
 21
1.9730016089
  0
LINE
  5
23A
100
AcDbEntity
  8
DRAFT
100
AcDbLine
 62
7
  6
CONTINUOUS
 10
-43.5713254484
 20
-0.4428375838
 11
-43.5964862601
 21
-0.4511477882
  0
LINE
  5
23B
100
AcDbEntity
  8
DRAFT
100
AcDbLine
 62
7
  6
CONTINUOUS
 10
-43.546041405
 20
-0.4346357771
 11
-43.5713254484
 21
-0.4428375838
  0
LINE
  5
23C
100
AcDbEntity
  8
DRAFT
100
AcDbLine
 62
7
  6
CONTINUOUS
 10
-43.5206356572
 20
-0.4265372312
 11
-43.546041405
 21
-0.4346357771
  0
LINE
  5
23D
100
AcDbEntity
  8
DRAFT
100
AcDbLine
 62
7
  6
CONTINUOUS
 10
-43.5206356572
 20
-12.8757583453
 11
-43.546041405
 21
-12.8676597993
  0
LINE
  5
23E
100
AcDbEntity
  8
DRAFT
100
AcDbLine
 62
7
  6
CONTINUOUS
 10
-43.546041405
 20
-12.8676597993
 11
-43.5713254484
 21
-12.8594579927
  0
LINE
  5
23F
100
AcDbEntity
  8
DRAFT
100
AcDbLine
 62
7
  6
CONTINUOUS
 10
-43.5713254484
 20
-12.8594579927
 11
-43.5964862601
 21
-12.8511477882
  0
LINE
  5
240
100
AcDbEntity
  8
RACCORDO
100
AcDbLine
 62
7
  6
CONTINUOUS
 10
23.2535137399
 20
-17.9511477882
 11
16.2535137399
 21
-17.9511477882
  0
LINE
  5
241
100
AcDbEntity
  8
SMUSSO
100
AcDbLine
 62
7
  6
CONTINUOUS
 10
16.2535137399
 20
-17.9511477882
 11
-38.7464862601
 21
-17.9511477882
  0
LINE
  5
242
100
AcDbEntity
  8
RACCORDO
100
AcDbLine
 62
7
  6
CONTINUOUS
 10
-38.7464862601
 20
-17.9511477882
 11
-45.7464862601
 21
-17.9511477882
  0
LINE
  5
243
100
AcDbEntity
  8
DRAFT
100
AcDbLine
 62
7
  6
CONTINUOUS
 10
-43.5713254484
 20
-6.1928375838
 11
-43.5964862601
 21
-6.2011477882
  0
LINE
  5
244
100
AcDbEntity
  8
DRAFT
100
AcDbLine
 62
7
  6
CONTINUOUS
 10
-43.546041405
 20
-6.1846357771
 11
-43.5713254484
 21
-6.1928375838
  0
LINE
  5
245
100
AcDbEntity
  8
DRAFT
100
AcDbLine
 62
7
  6
CONTINUOUS
 10
-43.5206356572
 20
-6.1765372312
 11
-43.546041405
 21
-6.1846357771
  0
LINE
  5
246
100
AcDbEntity
  8
DRAFT
100
AcDbLine
 62
7
  6
CONTINUOUS
 10
7.2535137399
 20
-15.3511477882
 11
8.0535137399
 21
-15.3232111726
  0
LINE
  5
247
100
AcDbEntity
  8
0
100
AcDbLine
 62
7
  6
CONTINUOUS
 10
-36.2464862601
 20
-16.8511477882
 11
-32.2464862601
 21
-16.8511477882
  0
LINE
  5
248
100
AcDbEntity
  8
SMUSSO
100
AcDbLine
 62
7
  6
CONTINUOUS
 10
-12.2464862601
 20
-16.8511477882
 11
-10.2464862601
 21
-16.8511477882
  0
LINE
  5
249
100
AcDbEntity
  8
0
100
AcDbLine
 62
7
  6
CONTINUOUS
 10
13.7535137399
 20
-16.8511477882
 11
9.7535137399
 21
-16.8511477882
  0
LINE
  5
24A
100
AcDbEntity
  8
RACCORDO
100
AcDbLine
 62
7
  6
CONTINUOUS
 10
-12.2464862601
 20
-16.3511477882
 11
-10.2464862601
 21
-16.3511477882
  0
LINE
  5
24B
100
AcDbEntity
  8
RACCORDO
100
AcDbLine
 62
7
  6
CONTINUOUS
 10
-35.7464862601
 20
-16.2511477882
 11
-32.7464862601
 21
-16.2511477882
  0
LINE
  5
24C
100
AcDbEntity
  8
RACCORDO
100
AcDbLine
 62
7
  6
CONTINUOUS
 10
13.2535137399
 20
-16.2511477882
 11
10.2535137399
 21
-16.2511477882
  0
LINE
  5
24D
100
AcDbEntity
  8
DRAFT
100
AcDbLine
 62
7
  6
CONTINUOUS
 10
21.1035137399
 20
-15.3511477882
 11
16.2535137399
 21
-15.3511477882
  0
LINE
  5
24E
100
AcDbEntity
  8
DRAFT
100
AcDbLine
 62
7
  6
CONTINUOUS
 10
7.2535137399
 20
-15.3511477882
 11
-10.2464862601
 21
-15.3511477882
  0
LINE
  5
24F
100
AcDbEntity
  8
DRAFT
100
AcDbLine
 62
7
  6
CONTINUOUS
 10
-12.2464862601
 20
-15.3511477882
 11
-29.7464862601
 21
-15.3511477882
  0
LINE
  5
250
100
AcDbEntity
  8
DRAFT
100
AcDbLine
 62
7
  6
CONTINUOUS
 10
-38.7464862601
 20
-15.3511477882
 11
-43.5964862601
 21
-15.3511477882
  0
LINE
  5
251
100
AcDbEntity
  8
DRAFT
100
AcDbLine
 62
7
  6
CONTINUOUS
 10
-37.9464862601
 20
-15.3232111726
 11
-36.2464862601
 21
-15.3232111726
  0
LINE
  5
252
100
AcDbEntity
  8
DRAFT
100
AcDbLine
 62
7
  6
CONTINUOUS
 10
-32.2464862601
 20
-15.3232111726
 11
-30.5464862601
 21
-15.3232111726
  0
LINE
  5
253
100
AcDbEntity
  8
DRAFT
100
AcDbLine
 62
7
  6
CONTINUOUS
 10
15.4535137399
 20
-15.3232111726
 11
13.7535137399
 21
-15.3232111726
  0
LINE
  5
254
100
AcDbEntity
  8
DRAFT
100
AcDbLine
 62
7
  6
CONTINUOUS
 10
9.7535137399
 20
-15.3232111726
 11
8.0535137399
 21
-15.3232111726
  0
LINE
  5
255
100
AcDbEntity
  8
RACCORDO
100
AcDbLine
 62
7
  6
CONTINUOUS
 10
-35.7464862601
 20
-15.1559100967
 11
-32.7464862601
 21
-15.1559100967
  0
LINE
  5
256
100
AcDbEntity
  8
RACCORDO
100
AcDbLine
 62
7
  6
CONTINUOUS
 10
13.2535137399
 20
-15.1559100967
 11
10.2535137399
 21
-15.1559100967
  0
LINE
  5
257
100
AcDbEntity
  8
RACCORDO
100
AcDbLine
 62
7
  6
CONTINUOUS
 10
-10.2474172593
 20
-14.8011477882
 11
-12.2455552608
 21
-14.8011477882
  0
LINE
  5
258
100
AcDbEntity
  8
DRAFT
100
AcDbLine
 62
7
  6
CONTINUOUS
 10
-30.5464862601
 20
-15.3232111726
 11
-29.7464862601
 21
-15.3511477882
  0
LINE
  5
259
100
AcDbEntity
  8
DRAFT
100
AcDbLine
 62
7
  6
CONTINUOUS
 10
-43.5206356572
 20
-7.1257583453
 11
-43.546041405
 21
-7.1176597993
  0
LINE
  5
25A
100
AcDbEntity
  8
DRAFT
100
AcDbLine
 62
7
  6
CONTINUOUS
 10
-43.546041405
 20
-7.1176597993
 11
-43.5713254484
 21
-7.1094579927
  0
LINE
  5
25B
100
AcDbEntity
  8
DRAFT
100
AcDbLine
 62
7
  6
CONTINUOUS
 10
-43.5713254484
 20
-7.1094579927
 11
-43.5964862601
 21
-7.1011477882
  0
LINE
  5
25C
100
AcDbEntity
  8
DRAFT
100
AcDbLine
 62
7
  6
CONTINUOUS
 10
-38.7464862601
 20
-15.3511477882
 11
-37.9464862601
 21
-15.3232111726
  0
LINE
  5
25D
100
AcDbEntity
  8
DRAFT
100
AcDbLine
 62
7
  6
CONTINUOUS
 10
15.4535137399
 20
-15.3232111726
 11
16.2535137399
 21
-15.3511477882
  0
LINE
  5
25E
100
AcDbEntity
  8
DRAFT
100
AcDbLine
 62
7
  6
CONTINUOUS
 10
-43.5713254484
 20
-11.9428375838
 11
-43.5964862601
 21
-11.9511477882
  0
LINE
  5
25F
100
AcDbEntity
  8
DRAFT
100
AcDbLine
 62
7
  6
CONTINUOUS
 10
-43.546041405
 20
-11.9346357771
 11
-43.5713254484
 21
-11.9428375838
  0
LINE
  5
260
100
AcDbEntity
  8
DRAFT
100
AcDbLine
 62
7
  6
CONTINUOUS
 10
-43.5206356572
 20
-11.9265372312
 11
-43.546041405
 21
-11.9346357771
  0
LINE
  5
261
100
AcDbEntity
  8
DRAFT
100
AcDbLine
 62
7
  6
CONTINUOUS
 10
-43.5206356572
 20
-1.3757583453
 11
-43.546041405
 21
-1.3676597993
  0
LINE
  5
262
100
AcDbEntity
  8
DRAFT
100
AcDbLine
 62
7
  6
CONTINUOUS
 10
-43.546041405
 20
-1.3676597993
 11
-43.5713254484
 21
-1.3594579927
  0
LINE
  5
263
100
AcDbEntity
  8
DRAFT
100
AcDbLine
 62
7
  6
CONTINUOUS
 10
-43.5713254484
 20
-1.3594579927
 11
-43.5964862601
 21
-1.3511477882
  0
LINE
  5
264
100
AcDbEntity
  8
SMUSSO
100
AcDbLine
 62
7
  6
CONTINUOUS
 10
-12.2464862601
 20
-16.8511477882
 11
-12.2464862601
 21
-16.3511477882
  0
LINE
  5
265
100
AcDbEntity
  8
RACCORDO
100
AcDbLine
 62
7
  6
CONTINUOUS
 10
-12.2464862601
 20
-16.3511477882
 11
-12.2464862601
 21
-14.8011477882
  0
LINE
  5
266
100
AcDbEntity
  8
RACCORDO
100
AcDbLine
 62
7
  6
CONTINUOUS
 10
-12.2464862601
 20
1.4988522118
 11
-12.2464862601
 21
3.0488522118
  0
LINE
  5
267
100
AcDbEntity
  8
SMUSSO
100
AcDbLine
 62
7
  6
CONTINUOUS
 10
-12.2464862601
 20
3.0488522118
 11
-12.2464862601
 21
3.5488522118
  0
LINE
  5
268
100
AcDbEntity
  8
DRAFT
100
AcDbLine
 62
7
  6
CONTINUOUS
 10
-12.1964862601
 20
1.4988522118
 11
-12.1964862601
 21
-14.8011477882
  0
LINE
  5
269
100
AcDbEntity
  8
RACCORDO
100
AcDbLine
 62
7
  6
CONTINUOUS
 10
-36.8722127562
 20
-8.7597186718
 11
-36.6207597639
 21
-8.7597186718
  0
LINE
  5
26A
100
AcDbEntity
  8
RACCORDO
100
AcDbLine
 62
7
  6
CONTINUOUS
 10
14.1277872438
 20
-8.7597186718
 11
14.3792402361
 21
-8.7597186718
  0
LINE
  5
26B
100
AcDbEntity
  8
DRAFT
100
AcDbLine
 62
7
  6
CONTINUOUS
 10
-10.2964862601
 20
1.4988522118
 11
-10.2964862601
 21
-14.8011477882
  0
LINE
  5
26C
100
AcDbEntity
  8
SMUSSO
100
AcDbLine
 62
7
  6
CONTINUOUS
 10
-10.2464862601
 20
3.5488522118
 11
-10.2464862601
 21
3.0488522118
  0
LINE
  5
26D
100
AcDbEntity
  8
RACCORDO
100
AcDbLine
 62
7
  6
CONTINUOUS
 10
-10.2464862601
 20
3.0488522118
 11
-10.2464862601
 21
1.4988522118
  0
LINE
  5
26E
100
AcDbEntity
  8
RACCORDO
100
AcDbLine
 62
7
  6
CONTINUOUS
 10
-10.2464862601
 20
-14.8011477882
 11
-10.2464862601
 21
-16.3511477882
  0
LINE
  5
26F
100
AcDbEntity
  8
SMUSSO
100
AcDbLine
 62
7
  6
CONTINUOUS
 10
-10.2464862601
 20
-16.3511477882
 11
-10.2464862601
 21
-16.8511477882
  0
LINE
  5
270
100
AcDbEntity
  8
RACCORDO
100
AcDbLine
 62
7
  6
CONTINUOUS
 10
14.3792402361
 20
-4.5425769046
 11
14.1277872438
 21
-4.5425769046
  0
LINE
  5
271
100
AcDbEntity
  8
RACCORDO
100
AcDbLine
 62
7
  6
CONTINUOUS
 10
-36.6207597639
 20
-4.5425769046
 11
-36.8722127562
 21
-4.5425769046
  0
LINE
  5
272
100
AcDbEntity
  8
DRAFT
100
AcDbLine
 62
7
  6
CONTINUOUS
 10
21.0783529283
 20
-1.3594579927
 11
21.1035137399
 21
-1.3511477882
  0
LINE
  5
273
100
AcDbEntity
  8
DRAFT
100
AcDbLine
 62
7
  6
CONTINUOUS
 10
21.0530688849
 20
-1.3676597993
 11
21.0783529283
 21
-1.3594579927
  0
LINE
  5
274
100
AcDbEntity
  8
DRAFT
100
AcDbLine
 62
7
  6
CONTINUOUS
 10
21.0276631371
 20
-1.3757583453
 11
21.0530688849
 21
-1.3676597993
  0
LINE
  5
275
100
AcDbEntity
  8
DRAFT
100
AcDbLine
 62
7
  6
CONTINUOUS
 10
21.0276631371
 20
-11.9265372312
 11
21.0530688849
 21
-11.9346357771
  0
LINE
  5
276
100
AcDbEntity
  8
DRAFT
100
AcDbLine
 62
7
  6
CONTINUOUS
 10
21.0530688849
 20
-11.9346357771
 11
21.0783529283
 21
-11.9428375838
  0
LINE
  5
277
100
AcDbEntity
  8
DRAFT
100
AcDbLine
 62
7
  6
CONTINUOUS
 10
21.0783529283
 20
-11.9428375838
 11
21.1035137399
 21
-11.9511477882
  0
LINE
  5
278
100
AcDbEntity
  8
DRAFT
100
AcDbLine
 62
7
  6
CONTINUOUS
 10
16.2535137399
 20
2.0488522118
 11
15.4535137399
 21
2.0209155962
  0
LINE
  5
279
100
AcDbEntity
  8
RACCORDO
100
AcDbLine
 62
7
  6
CONTINUOUS
 10
-10.2474172593
 20
1.4988522118
 11
-12.2455552608
 21
1.4988522118
  0
LINE
  5
27A
100
AcDbEntity
  8
RACCORDO
100
AcDbLine
 62
7
  6
CONTINUOUS
 10
-35.7464862601
 20
1.8536145203
 11
-32.7464862601
 21
1.8536145203
  0
LINE
  5
27B
100
AcDbEntity
  8
RACCORDO
100
AcDbLine
 62
7
  6
CONTINUOUS
 10
13.2535137399
 20
1.8536145203
 11
10.2535137399
 21
1.8536145203
  0
LINE
  5
27C
100
AcDbEntity
  8
DRAFT
100
AcDbLine
 62
7
  6
CONTINUOUS
 10
-37.9464862601
 20
2.0209155962
 11
-36.2464862601
 21
2.0209155962
  0
LINE
  5
27D
100
AcDbEntity
  8
DRAFT
100
AcDbLine
 62
7
  6
CONTINUOUS
 10
-32.2464862601
 20
2.0209155962
 11
-30.5464862601
 21
2.0209155962
  0
LINE
  5
27E
100
AcDbEntity
  8
DRAFT
100
AcDbLine
 62
7
  6
CONTINUOUS
 10
15.4535137399
 20
2.0209155962
 11
13.7535137399
 21
2.0209155962
  0
LINE
  5
27F
100
AcDbEntity
  8
DRAFT
100
AcDbLine
 62
7
  6
CONTINUOUS
 10
9.7535137399
 20
2.0209155962
 11
8.0535137399
 21
2.0209155962
  0
LINE
  5
280
100
AcDbEntity
  8
DRAFT
100
AcDbLine
 62
7
  6
CONTINUOUS
 10
21.1035137399
 20
2.0488522118
 11
16.2535137399
 21
2.0488522118
  0
LINE
  5
281
100
AcDbEntity
  8
DRAFT
100
AcDbLine
 62
7
  6
CONTINUOUS
 10
7.2535137399
 20
2.0488522118
 11
-10.2464862601
 21
2.0488522118
  0
LINE
  5
282
100
AcDbEntity
  8
DRAFT
100
AcDbLine
 62
7
  6
CONTINUOUS
 10
-12.2464862601
 20
2.0488522118
 11
-29.7464862601
 21
2.0488522118
  0
LINE
  5
283
100
AcDbEntity
  8
DRAFT
100
AcDbLine
 62
7
  6
CONTINUOUS
 10
-38.7464862601
 20
2.0488522118
 11
-43.5964862601
 21
2.0488522118
  0
LINE
  5
284
100
AcDbEntity
  8
DRAFT
100
AcDbLine
 62
7
  6
CONTINUOUS
 10
-37.9464862601
 20
2.0209155962
 11
-38.7464862601
 21
2.0488522118
  0
LINE
  5
285
100
AcDbEntity
  8
DRAFT
100
AcDbLine
 62
7
  6
CONTINUOUS
 10
21.0783529283
 20
-7.1094579927
 11
21.1035137399
 21
-7.1011477882
  0
LINE
  5
286
100
AcDbEntity
  8
DRAFT
100
AcDbLine
 62
7
  6
CONTINUOUS
 10
21.0530688849
 20
-7.1176597993
 11
21.0783529283
 21
-7.1094579927
  0
LINE
  5
287
100
AcDbEntity
  8
DRAFT
100
AcDbLine
 62
7
  6
CONTINUOUS
 10
21.0276631371
 20
-7.1257583453
 11
21.0530688849
 21
-7.1176597993
  0
LINE
  5
288
100
AcDbEntity
  8
DRAFT
100
AcDbLine
 62
7
  6
CONTINUOUS
 10
-29.7464862601
 20
2.0488522118
 11
-30.5464862601
 21
2.0209155962
  0
LINE
  5
289
100
AcDbEntity
  8
RACCORDO
100
AcDbLine
 62
7
  6
CONTINUOUS
 10
-35.7464862601
 20
2.9488522118
 11
-32.7464862601
 21
2.9488522118
  0
LINE
  5
28A
100
AcDbEntity
  8
RACCORDO
100
AcDbLine
 62
7
  6
CONTINUOUS
 10
13.2535137399
 20
2.9488522118
 11
10.2535137399
 21
2.9488522118
  0
LINE
  5
28B
100
AcDbEntity
  8
RACCORDO
100
AcDbLine
 62
7
  6
CONTINUOUS
 10
-10.2464862601
 20
3.0488522118
 11
-12.2464862601
 21
3.0488522118
  0
LINE
  5
28C
100
AcDbEntity
  8
0
100
AcDbLine
 62
7
  6
CONTINUOUS
 10
-36.2464862601
 20
3.5488522118
 11
-32.2464862601
 21
3.5488522118
  0
LINE
  5
28D
100
AcDbEntity
  8
0
100
AcDbLine
 62
7
  6
CONTINUOUS
 10
13.7535137399
 20
3.5488522118
 11
9.7535137399
 21
3.5488522118
  0
LINE
  5
28E
100
AcDbEntity
  8
SMUSSO
100
AcDbLine
 62
7
  6
CONTINUOUS
 10
-10.2464862601
 20
3.5488522118
 11
-12.2464862601
 21
3.5488522118
  0
LINE
  5
28F
100
AcDbEntity
  8
RACCORDO
100
AcDbLine
 62
7
  6
CONTINUOUS
 10
23.2535137399
 20
4.6488522118
 11
16.2535137399
 21
4.6488522118
  0
LINE
  5
290
100
AcDbEntity
  8
SMUSSO
100
AcDbLine
 62
7
  6
CONTINUOUS
 10
16.2535137399
 20
4.6488522118
 11
-38.7464862601
 21
4.6488522118
  0
LINE
  5
291
100
AcDbEntity
  8
RACCORDO
100
AcDbLine
 62
7
  6
CONTINUOUS
 10
-38.7464862601
 20
4.6488522118
 11
-45.7464862601
 21
4.6488522118
  0
LINE
  5
292
100
AcDbEntity
  8
DRAFT
100
AcDbLine
 62
7
  6
CONTINUOUS
 10
8.0535137399
 20
2.0209155962
 11
7.2535137399
 21
2.0488522118
  0
LINE
  5
293
100
AcDbEntity
  8
DRAFT
100
AcDbLine
 62
7
  6
CONTINUOUS
 10
21.0276631371
 20
-6.1765372312
 11
21.0530688849
 21
-6.1846357771
  0
LINE
  5
294
100
AcDbEntity
  8
DRAFT
100
AcDbLine
 62
7
  6
CONTINUOUS
 10
21.0530688849
 20
-6.1846357771
 11
21.0783529283
 21
-6.1928375838
  0
LINE
  5
295
100
AcDbEntity
  8
DRAFT
100
AcDbLine
 62
7
  6
CONTINUOUS
 10
21.0783529283
 20
-6.1928375838
 11
21.1035137399
 21
-6.2011477882
  0
LINE
  5
296
100
AcDbEntity
  8
DRAFT
100
AcDbLine
 62
7
  6
CONTINUOUS
 10
21.0276631371
 20
1.9730016089
 11
21.1035137399
 21
2.0488522118
  0
LINE
  5
297
100
AcDbEntity
  8
RACCORDO
100
AcDbLine
 62
7
  6
CONTINUOUS
 10
15.0919463107
 20
-4.3127152175
 11
14.8789356496
 21
-4.5257258785
  0
LINE
  5
298
100
AcDbEntity
  8
DRAFT
100
AcDbLine
 62
7
  6
CONTINUOUS
 10
21.0783529283
 20
-12.8594579927
 11
21.1035137399
 21
-12.8511477882
  0
LINE
  5
299
100
AcDbEntity
  8
DRAFT
100
AcDbLine
 62
7
  6
CONTINUOUS
 10
21.0530688849
 20
-12.8676597993
 11
21.0783529283
 21
-12.8594579927
  0
LINE
  5
29A
100
AcDbEntity
  8
DRAFT
100
AcDbLine
 62
7
  6
CONTINUOUS
 10
21.0276631371
 20
-12.8757583453
 11
21.0530688849
 21
-12.8676597993
  0
LINE
  5
29B
100
AcDbEntity
  8
DRAFT
100
AcDbLine
 62
7
  6
CONTINUOUS
 10
21.0276631371
 20
-0.4265372312
 11
21.0530688849
 21
-0.4346357771
  0
LINE
  5
29C
100
AcDbEntity
  8
DRAFT
100
AcDbLine
 62
7
  6
CONTINUOUS
 10
21.0530688849
 20
-0.4346357771
 11
21.0783529283
 21
-0.4428375838
  0
LINE
  5
29D
100
AcDbEntity
  8
DRAFT
100
AcDbLine
 62
7
  6
CONTINUOUS
 10
21.0783529283
 20
-0.4428375838
 11
21.1035137399
 21
-0.4511477882
  0
LINE
  5
29E
100
AcDbEntity
  8
DRAFT
100
AcDbLine
 62
7
  6
CONTINUOUS
 10
21.0276631371
 20
-15.2752971853
 11
21.1035137399
 21
-15.3511477882
  0
LINE
  5
29F
100
AcDbEntity
  8
RACCORDO
100
AcDbLine
 62
7
  6
CONTINUOUS
 10
15.0919463107
 20
-8.9895803589
 11
14.8789356496
 21
-8.7765696979
  0
LINE
  5
2A0
100
AcDbEntity
  8
DRAFT
100
AcDbLine
 62
7
  6
CONTINUOUS
 10
7.2535137399
 20
4.6488522118
 11
7.2535137399
 21
2.0488522118
  0
LINE
  5
2A1
100
AcDbEntity
  8
DRAFT
100
AcDbLine
 62
7
  6
CONTINUOUS
 10
7.2535137399
 20
-15.3511477882
 11
7.2535137399
 21
-17.9511477882
  0
LINE
  5
2A2
100
AcDbEntity
  8
DRAFT
100
AcDbLine
 62
7
  6
CONTINUOUS
 10
8.0535137399
 20
4.6488522118
 11
8.0535137399
 21
2.0209155962
  0
LINE
  5
2A3
100
AcDbEntity
  8
DRAFT
100
AcDbLine
 62
7
  6
CONTINUOUS
 10
8.0535137399
 20
-15.3232111726
 11
8.0535137399
 21
-17.9511477882
  0
LINE
  5
2A4
100
AcDbEntity
  8
RACCORDO
100
AcDbLine
 62
7
  6
CONTINUOUS
 10
13.4119842782
 20
-8.99267725
 11
13.6280918303
 21
-8.7765696979
  0
LINE
  5
2A5
100
AcDbEntity
  8
RACCORDO
100
AcDbLine
 62
7
  6
CONTINUOUS
 10
13.4119842782
 20
-4.3096183264
 11
13.6280918303
 21
-4.5257258785
  0
LINE
  5
2A6
100
AcDbEntity
  8
RACCORDO
100
AcDbLine
 62
7
  6
CONTINUOUS
 10
9.7535137399
 20
-16.8511477882
 11
9.7535137399
 21
-14.9535818152
  0
LINE
  5
2A7
100
AcDbEntity
  8
RACCORDO
100
AcDbLine
 62
7
  6
CONTINUOUS
 10
9.7535137399
 20
1.6512862388
 11
9.7535137399
 21
3.5488522118
  0
LINE
  5
2A8
100
AcDbEntity
  8
RACCORDO
100
AcDbLine
 62
253
  6
CONTINUOUS
 10
10.2535137399
 20
-16.2511477882
 11
10.2535137399
 21
-15.1559100967
  0
LINE
  5
2A9
100
AcDbEntity
  8
RACCORDO
100
AcDbLine
 62
253
  6
CONTINUOUS
 10
10.2535137399
 20
1.8536145203
 11
10.2535137399
 21
2.9488522118
  0
LINE
  5
2AA
100
AcDbEntity
  8
RACCORDO
100
AcDbLine
 62
253
  6
CONTINUOUS
 10
13.2535137399
 20
2.9488522118
 11
13.2535137399
 21
1.8536145203
  0
LINE
  5
2AB
100
AcDbEntity
  8
RACCORDO
100
AcDbLine
 62
253
  6
CONTINUOUS
 10
13.2535137399
 20
-15.1559100967
 11
13.2535137399
 21
-16.2511477882
  0
LINE
  5
2AC
100
AcDbEntity
  8
DRAFT
100
AcDbLine
 62
7
  6
CONTINUOUS
 10
13.4119842782
 20
-4.3096183264
 11
13.4119842782
 21
-8.99267725
  0
LINE
  5
2AD
100
AcDbEntity
  8
RACCORDO
100
AcDbLine
 62
253
  6
CONTINUOUS
 10
13.6280918303
 20
-4.5257258785
 11
13.6280918303
 21
-8.7765696979
  0
LINE
  5
2AE
100
AcDbEntity
  8
RACCORDO
100
AcDbLine
 62
7
  6
CONTINUOUS
 10
13.7535137399
 20
-16.8511477882
 11
13.7535137399
 21
-14.960231343
  0
LINE
  5
2AF
100
AcDbEntity
  8
RACCORDO
100
AcDbLine
 62
7
  6
CONTINUOUS
 10
13.7535137399
 20
1.6579357666
 11
13.7535137399
 21
3.5488522118
  0
LINE
  5
2B0
100
AcDbEntity
  8
RACCORDO
100
AcDbLine
 62
253
  6
CONTINUOUS
 10
14.1277872438
 20
-4.5425769046
 11
14.1277872438
 21
-8.7597186718
  0
LINE
  5
2B1
100
AcDbEntity
  8
RACCORDO
100
AcDbLine
 62
253
  6
CONTINUOUS
 10
14.3792402361
 20
-8.7597186718
 11
14.3792402361
 21
-4.5425769046
  0
LWPOLYLINE
  5
2B2
100
AcDbEntity
  8
DRAFT
100
AcDbPolyline
 62
7
  6
CONTINUOUS
 90
16
 70
0
 10
21.0276631371
 20
-0.4265372312
 10
20.990798913
 20
-0.4839926884
 10
20.9590718966
 20
-0.5433663063
 10
20.9324821558
 20
-0.6046580847
 10
20.9109294599
 20
-0.668254705
 10
20.8945141415
 20
-0.7337694858
 10
20.8835370985
 20
-0.8000423834
 10
20.8780986208
 20
-0.8671920645
 10
20.8780984558
 20
-0.9350998624
 10
20.883536671
 20
-1.0022497337
 10
20.8945135528
 20
-1.068523074
 10
20.9109287777
 20
-1.1340384876
 10
20.9324814823
 20
-1.1976357446
 10
20.9590713455
 20
-1.2589281015
 10
20.9907985863
 20
-1.3183023017
 10
21.0276631371
 20
-1.3757583453
  0
LINE
  5
2B3
100
AcDbEntity
  8
RACCORDO
100
AcDbLine
 62
253
  6
CONTINUOUS
 10
14.8789356496
 20
-8.7765696979
 11
14.8789356496
 21
-4.5257258785
  0
LINE
  5
2B4
100
AcDbEntity
  8
DRAFT
100
AcDbLine
 62
7
  6
CONTINUOUS
 10
15.0919463107
 20
-4.3127152175
 11
15.0919463107
 21
-8.9895803589
  0
LINE
  5
2B5
100
AcDbEntity
  8
DRAFT
100
AcDbLine
 62
7
  6
CONTINUOUS
 10
15.4535137399
 20
-17.9511477882
 11
15.4535137399
 21
-15.3232111726
  0
LINE
  5
2B6
100
AcDbEntity
  8
DRAFT
100
AcDbLine
 62
7
  6
CONTINUOUS
 10
15.4535137399
 20
2.0209155962
 11
15.4535137399
 21
4.6488522118
  0
LINE
  5
2B7
100
AcDbEntity
  8
DRAFT
100
AcDbLine
 62
7
  6
CONTINUOUS
 10
16.2535137399
 20
-17.9511477882
 11
16.2535137399
 21
-15.3511477882
  0
LINE
  5
2B8
100
AcDbEntity
  8
DRAFT
100
AcDbLine
 62
7
  6
CONTINUOUS
 10
16.2535137399
 20
2.0488522118
 11
16.2535137399
 21
4.6488522118
  0
LWPOLYLINE
  5
2B9
100
AcDbEntity
  8
DRAFT
100
AcDbPolyline
 62
7
  6
CONTINUOUS
 90
16
 70
0
 10
21.0276631371
 20
-6.1765372312
 10
20.990798913
 20
-6.2339926884
 10
20.9590718966
 20
-6.2933663063
 10
20.9324821558
 20
-6.3546580847
 10
20.9109294599
 20
-6.418254705
 10
20.8945141415
 20
-6.4837694858
 10
20.8835370985
 20
-6.5500423834
 10
20.8780986208
 20
-6.6171920645
 10
20.8780984558
 20
-6.6850998624
 10
20.883536671
 20
-6.7522497337
 10
20.8945135528
 20
-6.818523074
 10
20.9109287777
 20
-6.8840384876
 10
20.9324814823
 20
-6.9476357446
 10
20.9590713455
 20
-7.0089281015
 10
20.9907985863
 20
-7.0683023017
 10
21.0276631371
 20
-7.1257583453
  0
LWPOLYLINE
  5
2BA
100
AcDbEntity
  8
DRAFT
100
AcDbPolyline
 62
7
  6
CONTINUOUS
 90
16
 70
0
 10
21.0276631371
 20
-11.9265372312
 10
20.990798913
 20
-11.9839926884
 10
20.9590718966
 20
-12.0433663063
 10
20.9324821558
 20
-12.1046580847
 10
20.9109294599
 20
-12.168254705
 10
20.8945141415
 20
-12.2337694858
 10
20.8835370985
 20
-12.3000423834
 10
20.8780986208
 20
-12.3671920645
 10
20.8780984558
 20
-12.4350998624
 10
20.883536671
 20
-12.5022497337
 10
20.8945135528
 20
-12.568523074
 10
20.9109287777
 20
-12.6340384876
 10
20.9324814823
 20
-12.6976357446
 10
20.9590713455
 20
-12.7589281015
 10
20.9907985863
 20
-12.8183023017
 10
21.0276631371
 20
-12.8757583453
  0
LINE
  5
2BB
100
AcDbEntity
  8
DRAFT
100
AcDbLine
 62
7
  6
CONTINUOUS
 10
21.0276631371
 20
-15.2752971853
 11
21.0276631371
 21
-12.8757583453
  0
LINE
  5
2BC
100
AcDbEntity
  8
DRAFT
100
AcDbLine
 62
7
  6
CONTINUOUS
 10
21.0276631371
 20
-11.9265372312
 11
21.0276631371
 21
-7.1257583453
  0
LINE
  5
2BD
100
AcDbEntity
  8
DRAFT
100
AcDbLine
 62
7
  6
CONTINUOUS
 10
21.0276631371
 20
-6.1765372312
 11
21.0276631371
 21
-1.3757583453
  0
LINE
  5
2BE
100
AcDbEntity
  8
DRAFT
100
AcDbLine
 62
7
  6
CONTINUOUS
 10
21.0276631371
 20
-0.4265372312
 11
21.0276631371
 21
1.9730016089
  0
LINE
  5
2BF
100
AcDbEntity
  8
DRAFT
100
AcDbLine
 62
7
  6
CONTINUOUS
 10
21.1035137399
 20
2.0488522118
 11
21.1035137399
 21
-0.4511477882
  0
LINE
  5
2C0
100
AcDbEntity
  8
DRAFT
100
AcDbLine
 62
7
  6
CONTINUOUS
 10
21.1035137399
 20
-1.3511477882
 11
21.1035137399
 21
-6.2011477882
  0
LINE
  5
2C1
100
AcDbEntity
  8
DRAFT
100
AcDbLine
 62
7
  6
CONTINUOUS
 10
21.1035137399
 20
-7.1011477882
 11
21.1035137399
 21
-11.9511477882
  0
LINE
  5
2C2
100
AcDbEntity
  8
DRAFT
100
AcDbLine
 62
7
  6
CONTINUOUS
 10
21.1035137399
 20
-12.8511477882
 11
21.1035137399
 21
-15.3511477882
  0
LINE
  5
2C3
100
AcDbEntity
  8
RACCORDO
100
AcDbLine
 62
7
  6
CONTINUOUS
 10
23.7535137399
 20
4.1488522118
 11
23.7535137399
 21
-17.4511477882
  0
ARC
  5
2C4
100
AcDbEntity
  8
DRAFT
100
AcDbCircle
 62
7
  6
CONTINUOUS
 10
21.7035137399
 20
-12.4011477882
 40
0.75
100
AcDbArc
 50
143.1301023542
 51
216.8698976458
  0
ARC
  5
2C5
100
AcDbEntity
  8
DRAFT
100
AcDbCircle
 62
7
  6
CONTINUOUS
 10
21.7035137399
 20
-6.6511477882
 40
0.75
100
AcDbArc
 50
143.1301023542
 51
216.8698976458
  0
ARC
  5
2C6
100
AcDbEntity
  8
DRAFT
100
AcDbCircle
 62
7
  6
CONTINUOUS
 10
21.7035137399
 20
-0.9011477882
 40
0.75
100
AcDbArc
 50
143.1301023542
 51
216.8698976458
  0
ARC
  5
2C7
100
AcDbEntity
  8
DRAFT
100
AcDbCircle
 62
7
  6
CONTINUOUS
 10
-44.1964862601
 20
-0.9011477882
 40
0.75
100
AcDbArc
 50
323.1301023542
 51
36.8698976458
  0
ARC
  5
2C8
100
AcDbEntity
  8
DRAFT
100
AcDbCircle
 62
7
  6
CONTINUOUS
 10
-44.1964862601
 20
-6.6511477882
 40
0.75
100
AcDbArc
 50
323.1301023542
 51
36.8698976458
  0
ARC
  5
2C9
100
AcDbEntity
  8
DRAFT
100
AcDbCircle
 62
7
  6
CONTINUOUS
 10
-44.1964862601
 20
-12.4011477882
 40
0.75
100
AcDbArc
 50
323.1301023542
 51
36.8698976458
  0
ARC
  5
2CA
100
AcDbEntity
  8
RACCORDO
100
AcDbCircle
 62
7
  6
CONTINUOUS
 10
-45.7464862601
 20
-17.4511477882
 40
0.5
100
AcDbArc
 50
180.0
 51
270.0
  0
ARC
  5
2CB
100
AcDbEntity
  8
RACCORDO
100
AcDbCircle
 62
7
  6
CONTINUOUS
 10
-45.7464862601
 20
4.1488522118
 40
0.5
100
AcDbArc
 50
90.0
 51
180.0
  0
ARC
  5
2CC
100
AcDbEntity
  8
RACCORDO
100
AcDbCircle
 62
7
  6
CONTINUOUS
 10
23.2535137399
 20
-17.4511477882
 40
0.5
100
AcDbArc
 50
270.0
 51
360.0
  0
ARC
  5
2CD
100
AcDbEntity
  8
RACCORDO
100
AcDbCircle
 62
7
  6
CONTINUOUS
 10
23.2535137399
 20
4.1488522118
 40
0.5
100
AcDbArc
 50
0.0
 51
90.0
  0
ELLIPSE
  5
2CE
100
AcDbEntity
  8
DRAFT
100
AcDbEllipse
 62
7
  6
CONTINUOUS
 10
-11.2464862601
 20
-31.8288314905
 30
0.0
 11
483.7
 21
0.0
 31
0.0
 40
0.0349207695
 41
1.5190883591
 42
1.5273673363
  0
ELLIPSE
  5
2CF
100
AcDbEntity
  8
RACCORDO
100
AcDbEllipse
 62
7
  6
CONTINUOUS
 10
-11.2464862601
 20
-14.77094025
 30
0.0
 11
1.0
 21
-0.0
 31
0.0
 40
0.7002075382
 41
-3.0984384251
 42
-0.0431542285
  0
ELLIPSE
  5
2D0
100
AcDbEntity
  8
DRAFT
100
AcDbEllipse
 62
7
  6
CONTINUOUS
 10
-11.2464862601
 20
18.5265359141
 30
0.0
 11
483.7
 21
0.0
 31
0.0
 40
0.0349207695
 41
-1.5273673363
 42
-1.5190883591
  0
ELLIPSE
  5
2D1
100
AcDbEntity
  8
DRAFT
100
AcDbEllipse
 62
7
  6
CONTINUOUS
 10
-11.2464862601
 20
18.5265359141
 30
0.0
 11
483.7
 21
0.0
 31
0.0
 40
0.0349207695
 41
-1.6225042944
 42
-1.6142253173
  0
ELLIPSE
  5
2D2
100
AcDbEntity
  8
RACCORDO
100
AcDbEllipse
 62
7
  6
CONTINUOUS
 10
-11.2464862601
 20
1.4686446736
 30
0.0
 11
1.0
 21
0.0
 31
0.0
 40
0.7002075382
 41
0.0431542285
 42
3.0984384251
  0
ELLIPSE
  5
2D3
100
AcDbEntity
  8
DRAFT
100
AcDbEllipse
 62
7
  6
CONTINUOUS
 10
-11.2464862601
 20
-31.8288314905
 30
0.0
 11
483.7
 21
0.0
 31
0.0
 40
0.0349207695
 41
1.6142253173
 42
1.6225042944
  0
ELLIPSE
  5
2D4
100
AcDbEntity
  8
RACCORDO
100
AcDbEllipse
 62
7
  6
CONTINUOUS
 10
14.1277872438
 20
-4.5251165199
 30
0.0
 11
0.5
 21
0.0
 31
0.0
 40
0.0349207695
 41
-3.1066860685
 42
-1.5707963268
  0
ELLIPSE
  5
2D5
100
AcDbEntity
  8
RACCORDO
100
AcDbEllipse
 62
7
  6
CONTINUOUS
 10
14.3792402361
 20
-4.5251165199
 30
0.0
 11
0.5
 21
0.0
 31
0.0
 40
0.0349207695
 41
-1.5707963268
 42
-0.034906585
  0
ELLIPSE
  5
2D6
100
AcDbEntity
  8
RACCORDO
100
AcDbEllipse
 62
7
  6
CONTINUOUS
 10
14.1277872438
 20
-8.7771790565
 30
0.0
 11
0.5
 21
-0.0
 31
0.0
 40
0.0349207695
 41
1.5707963268
 42
3.1066860685
  0
ELLIPSE
  5
2D7
100
AcDbEntity
  8
RACCORDO
100
AcDbEllipse
 62
7
  6
CONTINUOUS
 10
14.3792402361
 20
-8.7771790565
 30
0.0
 11
0.5
 21
0.0
 31
0.0
 40
0.0349207695
 41
0.034906585
 42
1.5707963268
  0
ELLIPSE
  5
2D8
100
AcDbEntity
  8
RACCORDO
100
AcDbEllipse
 62
7
  6
CONTINUOUS
 10
-36.8722127562
 20
-8.7771790565
 30
0.0
 11
0.5
 21
-0.0
 31
0.0
 40
0.0349207695
 41
1.5707963268
 42
3.1066860685
  0
ELLIPSE
  5
2D9
100
AcDbEntity
  8
RACCORDO
100
AcDbEllipse
 62
7
  6
CONTINUOUS
 10
-36.6207597639
 20
-8.7771790565
 30
0.0
 11
0.5
 21
0.0
 31
0.0
 40
0.0349207695
 41
0.034906585
 42
1.5707963268
  0
ELLIPSE
  5
2DA
100
AcDbEntity
  8
RACCORDO
100
AcDbEllipse
 62
7
  6
CONTINUOUS
 10
-36.8722127562
 20
-4.5251165199
 30
0.0
 11
0.5
 21
-0.0
 31
0.0
 40
0.0349207695
 41
-3.1066860685
 42
-1.5707963268
  0
ELLIPSE
  5
2DB
100
AcDbEntity
  8
RACCORDO
100
AcDbEllipse
 62
7
  6
CONTINUOUS
 10
-36.6207597639
 20
-4.5251165199
 30
0.0
 11
0.5
 21
0.0
 31
0.0
 40
0.0349207695
 41
-1.5707963268
 42
-0.034906585
  0
ELLIPSE
  5
2DC
100
AcDbEntity
  8
DRAFT
100
AcDbEllipse
 62
7
  6
CONTINUOUS
 10
-11.2464862601
 20
18.8265359141
 30
0.0
 11
483.7
 21
0.0
 31
0.0
 40
0.0349207695
 41
-1.5190883591
 42
-1.5040232339
  0
ELLIPSE
  5
2DD
100
AcDbEntity
  8
DRAFT
100
AcDbEllipse
 62
7
  6
CONTINUOUS
 10
-11.2464862601
 20
18.8265359141
 30
0.0
 11
483.7
 21
0.0
 31
0.0
 40
0.0349207695
 41
-1.5687289277
 42
-1.5273673363
  0
ELLIPSE
  5
2DE
100
AcDbEntity
  8
DRAFT
100
AcDbEllipse
 62
7
  6
CONTINUOUS
 10
-11.2464862601
 20
18.8265359141
 30
0.0
 11
483.7
 21
0.0
 31
0.0
 40
0.0349207695
 41
-1.6142253173
 42
-1.5728637259
  0
ELLIPSE
  5
2DF
100
AcDbEntity
  8
DRAFT
100
AcDbEllipse
 62
7
  6
CONTINUOUS
 10
-11.2464862601
 20
18.8265359141
 30
0.0
 11
483.7
 21
0.0
 31
0.0
 40
0.0349207695
 41
-1.6375694197
 42
-1.6225042944
  0
ELLIPSE
  5
2E0
100
AcDbEntity
  8
DRAFT
100
AcDbEllipse
 62
7
  6
CONTINUOUS
 10
-11.2464862601
 20
-32.1288314905
 30
0.0
 11
483.7
 21
0.0
 31
0.0
 40
0.0349207695
 41
1.5040232339
 42
1.5190883591
  0
ELLIPSE
  5
2E1
100
AcDbEntity
  8
DRAFT
100
AcDbEllipse
 62
7
  6
CONTINUOUS
 10
-11.2464862601
 20
-32.1288314905
 30
0.0
 11
483.7
 21
0.0
 31
0.0
 40
0.0349207695
 41
1.5728637259
 42
1.6142253173
  0
ELLIPSE
  5
2E2
100
AcDbEntity
  8
DRAFT
100
AcDbEllipse
 62
7
  6
CONTINUOUS
 10
-11.2464862601
 20
-32.1288314905
 30
0.0
 11
483.7
 21
0.0
 31
0.0
 40
0.0349207695
 41
1.5273673363
 42
1.5687289277
  0
ELLIPSE
  5
2E3
100
AcDbEntity
  8
DRAFT
100
AcDbEllipse
 62
7
  6
CONTINUOUS
 10
-11.2464862601
 20
-32.1288314905
 30
0.0
 11
483.7
 21
0.0
 31
0.0
 40
0.0349207695
 41
1.6225042944
 42
1.6375694197
  0
ELLIPSE
  5
2E4
100
AcDbEntity
  8
RACCORDO
100
AcDbEllipse
 62
7
  6
CONTINUOUS
 10
-35.7464862601
 20
3.3774236404
 30
0.0
 11
0.5
 21
0.0
 31
0.0
 40
0.8571428571
 41
-3.1415926536
 42
-1.5707963268
  0
ELLIPSE
  5
2E5
100
AcDbEntity
  8
RACCORDO
100
AcDbEllipse
 62
7
  6
CONTINUOUS
 10
-32.7464862601
 20
3.3774236404
 30
0.0
 11
0.5
 21
0.0
 31
0.0
 40
0.8571428571
 41
-1.5707963268
 42
0.0
  0
ELLIPSE
  5
2E6
100
AcDbEntity
  8
RACCORDO
100
AcDbEllipse
 62
7
  6
CONTINUOUS
 10
-32.7464862601
 20
1.8361541355
 30
0.0
 11
0.5
 21
0.0
 31
0.0
 40
0.0349207695
 41
0.0
 42
1.5707963268
  0
ELLIPSE
  5
2E7
100
AcDbEntity
  8
RACCORDO
100
AcDbEllipse
 62
7
  6
CONTINUOUS
 10
-35.7464862601
 20
1.8361541355
 30
0.0
 11
0.5
 21
-0.0
 31
0.0
 40
0.0349207695
 41
1.5707963268
 42
3.1415926536
  0
ELLIPSE
  5
2E8
100
AcDbEntity
  8
RACCORDO
100
AcDbEllipse
 62
7
  6
CONTINUOUS
 10
-35.7464862601
 20
-15.1384497119
 30
0.0
 11
0.5
 21
-0.0
 31
0.0
 40
0.0349207695
 41
3.1415926536
 42
4.7123889804
  0
ELLIPSE
  5
2E9
100
AcDbEntity
  8
RACCORDO
100
AcDbEllipse
 62
7
  6
CONTINUOUS
 10
-32.7464862601
 20
-15.1384497119
 30
0.0
 11
0.5
 21
0.0
 31
0.0
 40
0.0349207695
 41
-1.5707963268
 42
-0.0
  0
ELLIPSE
  5
2EA
100
AcDbEntity
  8
RACCORDO
100
AcDbEllipse
 62
7
  6
CONTINUOUS
 10
-35.7464862601
 20
-16.6797192168
 30
0.0
 11
0.5
 21
0.0
 31
0.0
 40
0.8571428571
 41
1.5707963268
 42
3.1415926536
  0
ELLIPSE
  5
2EB
100
AcDbEntity
  8
RACCORDO
100
AcDbEllipse
 62
7
  6
CONTINUOUS
 10
-32.7464862601
 20
-16.6797192168
 30
0.0
 11
0.5
 21
0.0
 31
0.0
 40
0.8571428571
 41
0.0
 42
1.5707963268
  0
ELLIPSE
  5
2EC
100
AcDbEntity
  8
RACCORDO
100
AcDbEllipse
 62
7
  6
CONTINUOUS
 10
13.2535137399
 20
-16.6797192168
 30
0.0
 11
0.5
 21
-0.0
 31
0.0
 40
0.8571428571
 41
0.0
 42
1.5707963268
  0
ELLIPSE
  5
2ED
100
AcDbEntity
  8
DRAFT
100
AcDbEllipse
 62
7
  6
CONTINUOUS
 10
-11.2464862601
 20
-21.1788314905
 30
0.0
 11
483.7
 21
0.0
 31
0.0
 40
0.0349207695
 41
1.6217972853
 42
1.6252752717
  0
ELLIPSE
  5
2EE
100
AcDbEntity
  8
RACCORDO
100
AcDbEllipse
 62
7
  6
CONTINUOUS
 10
10.2535137399
 20
-16.6797192168
 30
0.0
 11
0.5
 21
0.0
 31
0.0
 40
0.8571428571
 41
1.5707963268
 42
3.1415926536
  0
ELLIPSE
  5
2EF
100
AcDbEntity
  8
RACCORDO
100
AcDbEllipse
 62
7
  6
CONTINUOUS
 10
13.2535137399
 20
-15.1384497119
 30
0.0
 11
0.5
 21
0.0
 31
0.0
 40
0.0349207695
 41
-1.5707963268
 42
-0.0
  0
ELLIPSE
  5
2F0
100
AcDbEntity
  8
RACCORDO
100
AcDbEllipse
 62
7
  6
CONTINUOUS
 10
10.2535137399
 20
-15.1384497119
 30
0.0
 11
0.5
 21
0.0
 31
0.0
 40
0.0349207695
 41
3.1415926536
 42
4.7123889804
  0
ELLIPSE
  5
2F1
100
AcDbEntity
  8
DRAFT
100
AcDbEllipse
 62
7
  6
CONTINUOUS
 10
-11.2464862601
 20
7.8765359141
 30
0.0
 11
483.7
 21
0.0
 31
0.0
 40
0.0349207695
 41
-1.6252752717
 42
-1.6217972853
  0
ELLIPSE
  5
2F2
100
AcDbEntity
  8
RACCORDO
100
AcDbEllipse
 62
7
  6
CONTINUOUS
 10
10.2535137399
 20
1.8361541355
 30
0.0
 11
0.5
 21
0.0
 31
0.0
 40
0.0349207695
 41
1.5707963268
 42
3.1415926536
  0
ELLIPSE
  5
2F3
100
AcDbEntity
  8
RACCORDO
100
AcDbEllipse
 62
7
  6
CONTINUOUS
 10
13.2535137399
 20
1.8361541355
 30
0.0
 11
0.5
 21
-0.0
 31
0.0
 40
0.0349207695
 41
-0.0
 42
1.5707963268
  0
ELLIPSE
  5
2F4
100
AcDbEntity
  8
RACCORDO
100
AcDbEllipse
 62
7
  6
CONTINUOUS
 10
13.2535137399
 20
3.3774236404
 30
0.0
 11
0.5
 21
-0.0
 31
0.0
 40
0.8571428571
 41
-1.5707963268
 42
-0.0
  0
ELLIPSE
  5
2F5
100
AcDbEntity
  8
RACCORDO
100
AcDbEllipse
 62
7
  6
CONTINUOUS
 10
10.2535137399
 20
3.3774236404
 30
0.0
 11
0.5
 21
0.0
 31
0.0
 40
0.8571428571
 41
3.1415926536
 42
4.7123889804
  0
ELLIPSE
  5
2F6
100
AcDbEntity
  8
DRAFT
100
AcDbEllipse
 62
7
  6
CONTINUOUS
 10
-11.2464862601
 20
7.8765359141
 30
0.0
 11
483.7
 21
0.0
 31
0.0
 40
0.0349207695
 41
-1.5197953683
 42
-1.5163173819
  0
ELLIPSE
  5
2F7
100
AcDbEntity
  8
DRAFT
100
AcDbEllipse
 62
7
  6
CONTINUOUS
 10
-11.2464862601
 20
-21.1788314905
 30
0.0
 11
483.7
 21
0.0
 31
0.0
 40
0.0349207695
 41
1.5163173819
 42
1.5197953683
  0
ENDSEC
  0
SECTION
  2
OBJECTS
  0
DICTIONARY
  5
C
100
AcDbDictionary
280
0
281
1
  3
ACAD_GROUP
350
D
  3
ACAD_MLINESTYLE
350
17
  3
ACAD_LAYOUT
350
1A
  3
ACAD_PLOTSETTINGS
350
19
  3
ACAD_PLOTSTYLENAME
350
E
  0
DICTIONARY
  5
D
102
{ACAD_REACTORS
330
C
102
}
100
AcDbDictionary
280
0
281
1
  0
ACDBDICTIONARYWDFLT
  5
E
102
{ACAD_REACTORS
330
C
102
}
100
AcDbDictionary
281
1
  3
Normal
350
F
100
AcDbDictionaryWithDefault
340
F
  0
DICTIONARY
  5
17
102
{ACAD_REACTORS
330
C
102
}
100
AcDbDictionary
280
0
281
1
  3
Standard
350
18
  0
DICTIONARY
  5
19
102
{ACAD_REACTORS
330
C
102
}
100
AcDbDictionary
281
1
  0
DICTIONARY
  5
1A
102
{ACAD_REACTORS
330
C
102
}
100
AcDbDictionary
281
1
  3
Model
350
2F8
  3
Layout1
350
2F9
  0
ACDBPLACEHOLDER
  5
F
102
{ACAD_REACTORS
330
E
102
}
  0
MLINESTYLE
  5
18
102
{ACAD_REACTORS
330
17
102
}
100
AcDbMlineStyle
  2
STANDARD
 70
0
  3

 62
256
 51
90.0
 52
90.0
 71
2
 49
0.5
 62
256
  6
BYLAYER
 49
-0.5
 62
256
  6
BYLAYER
  0
LAYOUT
  5
2F8
102
{ACAD_REACTORS
330
1A
102
}
100
AcDbPlotSettings
  1

  2
none_device
  4
ISO_A4_(297.00_x_210.00_MM)
  6

 40
0.0
 41
0.0
 42
0.0
 43
0.0
 44
297.0
 45
210.0
 46
0.0
 47
0.0
 48
0.0
 49
0.0
140
0.0
141
0.0
142
1.0
143
1.0
 70
1024
 72
1
 73
0
 74
0
  7

 75
0
147
1.0
148
0.0
149
0.0
100
AcDbLayout
  1
Model
 70
0
 71
0
 10
0.0
 20
0.0
 11
297.0
 21
210.0
 12
0.0
 22
0.0
 32
0.0
 14
0.0
 24
0.0
 34
0.0
 15
0.0
 25
0.0
 35
0.0
146
0.0
 13
0.0
 23
0.0
 33
0.0
 16
1.0
 26
0.0
 36
0.0
 17
0.0
 27
1.0
 37
0.0
 76
0
330
20F
345
0
346
0
  0
LAYOUT
  5
2F9
102
{ACAD_REACTORS
330
1A
102
}
100
AcDbPlotSettings
  1

  2
none_device
  4
ISO_A4_(297.00_x_210.00_MM)
  6

 40
0.0
 41
0.0
 42
0.0
 43
0.0
 44
297.0
 45
210.0
 46
0.0
 47
0.0
 48
0.0
 49
0.0
140
0.0
141
0.0
142
1.0
143
1.0
 70
0
 72
1
 73
0
 74
0
  7

 75
0
147
1.0
148
0.0
149
0.0
100
AcDbLayout
  1
Layout1
 70
0
 71
1
 10
0.0
 20
0.0
 11
297.0
 21
210.0
 12
0.0
 22
0.0
 32
0.0
 14
0.0
 24
0.0
 34
0.0
 15
0.0
 25
0.0
 35
0.0
146
0.0
 13
0.0
 23
0.0
 33
0.0
 16
1.0
 26
0.0
 36
0.0
 17
0.0
 27
1.0
 37
0.0
 76
0
330
210
345
0
346
0
  0
ENDSEC
  0
EOF
