  0
SECTION
  2
HEADER
  9
$ACADVER
  1
AC1021
  9
$DWGCODEPAGE
  3
ANSI_1252
  9
$EXTMAX
 10
297.0
 20
210.0
 30
0.0
  9
$EXTMIN
 10
0.0
 20
0.0
 30
0.0
  9
$LIMMIN
 10
0.0
 20
0.0
  9
$LIMMAX
 10
297.0
 20
210.0
  9
$VIEWCTR
 10
148.5
 20
105.0
  9
$VIEWSIZE
 40
210.0
  9
$CLAYER
  8
0
  9
$LTSCALE
 40
16.335
  9
$CELTYPE
  6
BYLAYER
  9
$DIMSCALE
 40
1.0
  9
$DIMASZ
 40
3.0
  9
$DIMEXO
 40
0.5
  9
$DIMDLI
 40
11.286
  9
$DIMEXE
 40
1.5
  9
$DIMCEN
 40
2.673
  9
$DIMLFAC
 40
1.0
  9
$DIMBLK
  1
_FILLED
  9
$DIMALT
 70
0
  9
$DIMALTF
 40
0.0393700787
  9
$DIMTXT
 40
3.0
  9
$DIMTOL
 70
1
  9
$DIMLIM
 70
0
  9
$DIMTFAC
 40
1.0
  9
$DIMTP
 40
0.01
  9
$DIMTM
 40
0.01
  9
$DIMGAP
 40
0.625
  9
$DIMDSEP
 70
44
  9
$AUNITS
 70
0
  9
$PDMODE
 70
3
  9
$PDSIZE
 40
3.0
  9
$HANDSEED
  5
65C
  9
$TILEMODE
 70
1
  9
$MEASUREMENT
 70
1
  9
$INSUNITS
 70
4
  0
ENDSEC
  0
SECTION
  2
CLASSES
  0
CLASS
  1
ACDBDICTIONARYWDFLT
  2
AcDbDictionaryWithDefault
  3
AutoCAD 2000
 90
0
 91
1
280
0
281
0
  0
CLASS
  1
ACDBPLACEHOLDER
  2
AcDbPlaceHolder
  3
AutoCAD 2000
 90
0
 91
1
280
0
281
0
  0
CLASS
  1
LAYOUT
  2
AcDbLayout
  3
AutoCAD 2000
 90
0
 91
0
280
0
281
0
  0
ENDSEC
  0
SECTION
  2
TABLES
  0
TABLE
  2
VPORT
  5
8
100
AcDbSymbolTable
 70
2
  0
VPORT
  5
1F4
100
AcDbSymbolTableRecord
100
AcDbViewportTableRecord
  2
*ACTIVE
 70
0
 10
0.0
 20
0.0
 11
1.0
 21
1.0
 12
148.5
 22
105.0
 13
0.0
 23
0.0
 14
1.0
 24
1.0
 15
0.0
 25
0.0
 16
0.0
 26
0.0
 36
1.0
 17
0.0
 27
0.0
 37
0.0
 40
210.0
 41
1.4142857143
 42
50.0
 43
0.0
 44
0.0
 50
0.0
 51
0.0
 71
0
 72
100
 73
1
 74
1
 75
0
 76
0
 77
0
 78
0
  0
ENDTAB
  0
TABLE
  2
LTYPE
  5
5
100
AcDbSymbolTable
 70
6
  0
LTYPE
  5
14
100
AcDbSymbolTableRecord
100
AcDbLinetypeTableRecord
  2
BYBLOCK
 70
0
  3

 72
65
 73
0
 40
0.0
  0
LTYPE
  5
15
100
AcDbSymbolTableRecord
100
AcDbLinetypeTableRecord
  2
BYLAYER
 70
0
  3

 72
65
 73
0
 40
0.0
  0
LTYPE
  5
16
100
AcDbSymbolTableRecord
100
AcDbLinetypeTableRecord
  2
CONTINUOUS
 70
64
  3
Solid line
 72
65
 73
0
 40
0.0
  0
LTYPE
  5
1F5
100
AcDbSymbolTableRecord
100
AcDbLinetypeTableRecord
  2
CENTER
 70
64
  3
____ _ ____ _ ____ _ ____ _ ____ _ ____ _ ____
 72
65
 73
4
 40
0.6
 49
0.375
 74
0
 49
-0.075
 74
0
 49
0.075
 74
0
 49
-0.075
 74
0
  0
LTYPE
  5
1F6
100
AcDbSymbolTableRecord
100
AcDbLinetypeTableRecord
  2
HIDDEN
 70
64
  3
- - - - - - - - - - - - - - - - - - - -
 72
65
 73
2
 40
0.2
 49
0.1
 74
0
 49
-0.1
 74
0
  0
LTYPE
  5
1F7
100
AcDbSymbolTableRecord
100
AcDbLinetypeTableRecord
  2
PHANTOM
 70
64
  3
_____ _ _ _____ _ _ _____ _ _ _____
 72
65
 73
6
 40
0.8
 49
0.45
 74
0
 49
-0.05
 74
0
 49
0.1
 74
0
 49
-0.05
 74
0
 49
0.1
 74
0
 49
-0.05
 74
0
  0
LTYPE
  5
1F8
100
AcDbSymbolTableRecord
100
AcDbLinetypeTableRecord
  2
DOT
 70
64
  3
. . . . . . . . . . . . . . . . . . . .
 72
65
 73
2
 40
0.2
 49
0.1
 74
0
 49
-0.1
 74
0
  0
LTYPE
  5
1F9
100
AcDbSymbolTableRecord
100
AcDbLinetypeTableRecord
  2
DASHED
 70
64
  3
- - - - - - - - - - - - - - - - - - - -
 72
65
 73
2
 40
0.2
 49
0.1
 74
0
 49
-0.1
 74
0
  0
ENDTAB
  0
TABLE
  2
LAYER
  5
2
100
AcDbSymbolTable
 70
36
  0
LAYER
  5
10
100
AcDbSymbolTableRecord
100
AcDbLayerTableRecord
  2
0
 70
0
 62
7
  6
CONTINUOUS
370
-3
390
F
  0
LAYER
  5
1FA
100
AcDbSymbolTableRecord
100
AcDbLayerTableRecord
  2
DEFAULT_1
 70
0
 62
7
  6
CENTER
370
-3
390
F
  0
LAYER
  5
1FB
100
AcDbSymbolTableRecord
100
AcDbLayerTableRecord
  2
DEFAULT_2
 70
0
 62
7
  6
HIDDEN
370
-3
390
F
  0
LAYER
  5
1FC
100
AcDbSymbolTableRecord
100
AcDbLayerTableRecord
  2
DEFAULT_3
 70
0
 62
7
  6
PHANTOM
370
-3
390
F
  0
LAYER
  5
1FD
100
AcDbSymbolTableRecord
100
AcDbLayerTableRecord
  2
ASSI
 70
0
 62
7
  6
CONTINUOUS
370
-3
390
F
  0
LAYER
  5
1FE
100
AcDbSymbolTableRecord
100
AcDbLayerTableRecord
  2
COLOR1
 70
0
 62
7
  6
CONTINUOUS
370
-3
390
F
  0
LAYER
  5
1FF
100
AcDbSymbolTableRecord
100
AcDbLayerTableRecord
  2
COLOR15
 70
0
 62
7
  6
CONTINUOUS
370
-3
390
F
  0
LAYER
  5
200
100
AcDbSymbolTableRecord
100
AcDbLayerTableRecord
  2
COORDINATE
 70
0
 62
7
  6
CONTINUOUS
370
-3
390
F
  0
LAYER
  5
201
100
AcDbSymbolTableRecord
100
AcDbLayerTableRecord
  2
COPY_PUBLISH
 70
0
 62
7
  6
CONTINUOUS
370
-3
390
F
  0
LAYER
  5
202
100
AcDbSymbolTableRecord
100
AcDbLayerTableRecord
  2
COSMETICI
 70
0
 62
7
  6
CONTINUOUS
370
-3
390
F
  0
LAYER
  5
203
100
AcDbSymbolTableRecord
100
AcDbLayerTableRecord
  2
CURVE
 70
0
 62
7
  6
CONTINUOUS
370
-3
390
F
  0
LAYER
  5
204
100
AcDbSymbolTableRecord
100
AcDbLayerTableRecord
  2
DRAFT
 70
0
 62
7
  6
CONTINUOUS
370
-3
390
F
  0
LAYER
  5
205
100
AcDbSymbolTableRecord
100
AcDbLayerTableRecord
  2
IMPORT_IGES
 70
0
 62
7
  6
CONTINUOUS
370
-3
390
F
  0
LAYER
  5
206
100
AcDbSymbolTableRecord
100
AcDbLayerTableRecord
  2
INTF_11
 70
0
 62
7
  6
CONTINUOUS
370
-3
390
F
  0
LAYER
  5
207
100
AcDbSymbolTableRecord
100
AcDbLayerTableRecord
  2
INTF_2
 70
0
 62
7
  6
CONTINUOUS
370
-3
390
F
  0
LAYER
  5
208
100
AcDbSymbolTableRecord
100
AcDbLayerTableRecord
  2
INTF_5
 70
0
 62
7
  6
CONTINUOUS
370
-3
390
F
  0
LAYER
  5
209
100
AcDbSymbolTableRecord
100
AcDbLayerTableRecord
  2
INTF_YELLOW
 70
0
 62
7
  6
CONTINUOUS
370
-3
390
F
  0
LAYER
  5
20A
100
AcDbSymbolTableRecord
100
AcDbLayerTableRecord
  2
NOTE
 70
0
 62
7
  6
CONTINUOUS
370
-3
390
F
  0
LAYER
  5
20B
100
AcDbSymbolTableRecord
100
AcDbLayerTableRecord
  2
PIANI
 70
0
 62
7
  6
CONTINUOUS
370
-3
390
F
  0
LAYER
  5
20C
100
AcDbSymbolTableRecord
100
AcDbLayerTableRecord
  2
PUNTI
 70
0
 62
7
  6
CONTINUOUS
370
-3
390
F
  0
LAYER
  5
20D
100
AcDbSymbolTableRecord
100
AcDbLayerTableRecord
  2
RACCORDO
 70
0
 62
7
  6
CONTINUOUS
370
-3
390
F
  0
LAYER
  5
20E
100
AcDbSymbolTableRecord
100
AcDbLayerTableRecord
  2
SIMBOLI
 70
0
 62
7
  6
CONTINUOUS
370
-3
390
F
  0
LAYER
  5
20F
100
AcDbSymbolTableRecord
100
AcDbLayerTableRecord
  2
SMUSSO
 70
0
 62
7
  6
CONTINUOUS
370
-3
390
F
  0
LAYER
  5
210
100
AcDbSymbolTableRecord
100
AcDbLayerTableRecord
  2
SNAPLINE
 70
0
 62
7
  6
CONTINUOUS
370
-3
390
F
  0
LAYER
  5
211
100
AcDbSymbolTableRecord
100
AcDbLayerTableRecord
  2
SUPERFICI
 70
0
 62
7
  6
CONTINUOUS
370
-3
390
F
  0
LAYER
  5
212
100
AcDbSymbolTableRecord
100
AcDbLayerTableRecord
  2
TRASH
 70
0
 62
7
  6
CONTINUOUS
370
-3
390
F
  0
LAYER
  5
213
100
AcDbSymbolTableRecord
100
AcDbLayerTableRecord
  2
WHITE
 70
0
 62
7
  6
CONTINUOUS
370
-3
390
F
  0
LAYER
  5
214
100
AcDbSymbolTableRecord
100
AcDbLayerTableRecord
  2
XSEC_DATUMS
 70
0
 62
7
  6
CONTINUOUS
370
-3
390
F
  0
ENDTAB
  0
TABLE
  2
STYLE
  5
3
100
AcDbSymbolTable
 70
1
  0
STYLE
  5
11
100
AcDbSymbolTableRecord
100
AcDbTextStyleTableRecord
  2
STANDARD
 70
0
 40
0.0
 41
0.8
 50
0.0
 71
0
 42
0.2
  3
txt
  4

  0
STYLE
  5
215
100
AcDbSymbolTableRecord
100
AcDbTextStyleTableRecord
  2
TEXTSTYLE_1
 70
0
 40
0.0
 41
0.8
 50
0.0
 71
0
 42
0.2
  3
gdt
  4

  0
ENDTAB
  0
TABLE
  2
VIEW
  5
6
100
AcDbSymbolTable
 70
0
  0
ENDTAB
  0
TABLE
  2
UCS
  5
7
100
AcDbSymbolTable
 70
0
  0
ENDTAB
  0
TABLE
  2
APPID
  5
9
100
AcDbSymbolTable
 70
1
  0
APPID
  5
216
100
AcDbSymbolTableRecord
100
AcDbRegAppTableRecord
  2
ACAD
 70
0
  0
ENDTAB
  0
TABLE
  2
BLOCK_RECORD
  5
1
100
AcDbSymbolTable
 70
0
  0
BLOCK_RECORD
  5
217
100
AcDbSymbolTableRecord
100
AcDbBlockTableRecord
  2
*Model_Space
  0
BLOCK_RECORD
  5
218
100
AcDbSymbolTableRecord
100
AcDbBlockTableRecord
  2
*Paper_Space
  0
ENDTAB
  0
TABLE
  2
DIMSTYLE
  5
A
100
AcDbSymbolTable
 70
1
100
AcDbDimStyleTable
 71
0
  0
DIMSTYLE
105
219
100
AcDbSymbolTableRecord
100
AcDbDimStyleTableRecord
  2
STANDARD
 70
0
  3

  4

 40
1.0
 41
3.0
 42
0.5
 43
0.38
 44
1.5
 45
0.0
 46
0.0
 47
0.01
 48
0.01
140
3.0
141
0.09
142
0.0
143
25.4
144
1.0
145
0.0
146
1.0
147
0.625
 71
1.0
 72
0.0
 73
0
 74
0
 75
0
 76
0
 77
1
 78
8
170
0
171
2
172
0
173
0
174
0
175
0
176
0
177
0
178
0
270
2
271
2
272
2
273
2
274
2
275
0
280
0
281
0
282
0
283
1
284
8
285
0
286
0
287
3
288
0
340
11
278
44
  0
ENDTAB
  0
ENDSEC
  0
SECTION
  2
BLOCKS
  0
BLOCK
  5
20
100
AcDbEntity
  8
0
100
AcDbBlockBegin
  2
*Model_Space
 70
0
 10
0.0
 20
0.0
 30
0.0
  3
*Model_Space
  1

  0
ENDBLK
  5
21
100
AcDbEntity
  8
0
100
AcDbBlockEnd
  0
BLOCK
  5
1C
100
AcDbEntity
  8
0
100
AcDbBlockBegin
  2
*Paper_Space
 70
0
 10
0.0
 20
0.0
 30
0.0
  3
*Paper_Space
  1

  0
ENDBLK
  5
1D
100
AcDbEntity
  8
0
100
AcDbBlockEnd
  0
ENDSEC
  0
SECTION
  2
ENTITIES
  0
LINE
  5
21A
100
AcDbEntity
  8
DRAFT
100
AcDbLine
 62
7
  6
CONTINUOUS
 10
-36.2369885949
 20
69.6204475102
 11
-36.21953353
 21
69.6379025751
  0
LINE
  5
21B
100
AcDbEntity
  8
DRAFT
100
AcDbLine
 62
7
  6
CONTINUOUS
 10
-36.030344782
 20
61.4393098685
 11
-35.81953353
 21
61.6501211206
  0
LINE
  5
21C
100
AcDbEntity
  8
DRAFT
100
AcDbLine
 62
7
  6
CONTINUOUS
 10
-33.4414253631
 20
63.1782292875
 11
-33.46953353
 21
63.1501211206
  0
LINE
  5
21D
100
AcDbEntity
  8
RACCORDO
100
AcDbLine
 62
253
  6
CONTINUOUS
 10
-38.0183919394
 20
56.6001211206
 11
-38.3158533954
 21
56.3026596646
  0
LINE
  5
21E
100
AcDbEntity
  8
RACCORDO
100
AcDbLine
 62
253
  6
CONTINUOUS
 10
-37.71953353
 20
56.3012627111
 11
-38.016994986
 21
56.0038012552
  0
LINE
  5
21F
100
AcDbEntity
  8
SMUSSO
100
AcDbLine
 62
7
  6
CONTINUOUS
 10
-28.4061290142
 20
63.3135256364
 11
-28.3230285307
 21
63.3966261198
  0
LINE
  5
220
100
AcDbEntity
  8
RACCORDO
100
AcDbLine
 62
253
  6
CONTINUOUS
 10
-39.91953353
 20
48.49897953
 11
-39.622072074
 21
48.796440986
  0
LINE
  5
221
100
AcDbEntity
  8
RACCORDO
100
AcDbLine
 62
253
  6
CONTINUOUS
 10
-39.6206751206
 20
48.2001211206
 11
-39.3232136646
 21
48.4975825766
  0
LINE
  5
222
100
AcDbEntity
  8
SMUSSO
100
AcDbLine
 62
7
  6
CONTINUOUS
 10
-30.8160385293
 20
54.1036161213
 11
-30.7355771692
 21
54.1840774813
  0
LINE
  5
223
100
AcDbEntity
  8
DRAFT
100
AcDbLine
 62
7
  6
CONTINUOUS
 10
-37.2898599196
 20
46.0298638426
 11
-37.31953353
 21
46.0001211206
  0
LINE
  5
224
100
AcDbEntity
  8
DRAFT
100
AcDbLine
 62
7
  6
CONTINUOUS
 10
-27.0314732984
 20
54.1881813522
 11
-27.0898599196
 21
54.1297947309
  0
LINE
  5
225
100
AcDbEntity
  8
DRAFT
100
AcDbLine
 62
7
  6
CONTINUOUS
 10
-28.4061290142
 20
52.8135256364
 11
-28.3492071404
 21
52.8704475102
  0
LINE
  5
226
100
AcDbEntity
  8
SMUSSO
100
AcDbLine
 62
7
  6
CONTINUOUS
 10
-13.9181161302
 20
63.3015385204
 11
-13.8230285307
 21
63.3966261198
  0
LINE
  5
227
100
AcDbEntity
  8
DRAFT
100
AcDbLine
 62
7
  6
CONTINUOUS
 10
-36.2369885949
 20
-44.8202052691
 11
-36.21953353
 21
-44.837660334
  0
LINE
  5
228
100
AcDbEntity
  8
SMUSSO
100
AcDbLine
 62
7
  6
CONTINUOUS
 10
-30.8160385293
 20
43.6036161213
 11
-30.7355771692
 21
43.6840774813
  0
LINE
  5
229
100
AcDbEntity
  8
DRAFT
100
AcDbLine
 62
7
  6
CONTINUOUS
 10
-27.0314732984
 20
43.6881813522
 11
-27.0898599196
 21
43.6297947309
  0
LINE
  5
22A
100
AcDbEntity
  8
DRAFT
100
AcDbLine
 62
7
  6
CONTINUOUS
 10
-28.4061290142
 20
42.3135256364
 11
-28.3492071404
 21
42.3704475102
  0
LINE
  5
22B
100
AcDbEntity
  8
DRAFT
100
AcDbLine
 62
7
  6
CONTINUOUS
 10
-28.8197517183
 20
-44.8481333729
 11
-28.8316153906
 21
-44.837660334
  0
LINE
  5
22C
100
AcDbEntity
  8
DRAFT
100
AcDbLine
 62
7
  6
CONTINUOUS
 10
-36.030344782
 20
-36.6390676274
 11
-35.81953353
 21
-36.8498788794
  0
LINE
  5
22D
100
AcDbEntity
  8
DRAFT
100
AcDbLine
 62
7
  6
CONTINUOUS
 10
-33.4414253631
 20
-38.3779870464
 11
-33.46953353
 21
-38.3498788794
  0
LINE
  5
22E
100
AcDbEntity
  8
SMUSSO
100
AcDbLine
 62
7
  6
CONTINUOUS
 10
-28.3230285307
 20
-42.8463838787
 11
-28.4061290142
 21
-42.7632833952
  0
LINE
  5
22F
100
AcDbEntity
  8
RACCORDO
100
AcDbLine
 62
253
  6
CONTINUOUS
 10
-38.0183919394
 20
-31.7998788794
 11
-38.3158533954
 21
-31.5024174234
  0
LINE
  5
230
100
AcDbEntity
  8
RACCORDO
100
AcDbLine
 62
253
  6
CONTINUOUS
 10
-37.71953353
 20
-31.50102047
 11
-38.016994986
 21
-31.203559014
  0
LINE
  5
231
100
AcDbEntity
  8
DRAFT
100
AcDbLine
 62
7
  6
CONTINUOUS
 10
-27.5710608482
 20
-42.8620974249
 11
-27.5618154356
 21
-42.8725704638
  0
LINE
  5
232
100
AcDbEntity
  8
RACCORDO
100
AcDbLine
 62
7
  6
CONTINUOUS
 10
-39.6967483194
 20
53.6124934512
 11
-39.6798088181
 21
53.8548545996
  0
LINE
  5
233
100
AcDbEntity
  8
RACCORDO
100
AcDbLine
 62
7
  6
CONTINUOUS
 10
-39.6798088181
 20
53.8548545996
 11
-39.6534356473
 21
54.2086371305
  0
LINE
  5
234
100
AcDbEntity
  8
RACCORDO
100
AcDbLine
 62
7
  6
CONTINUOUS
 10
-39.6534356473
 20
54.2086371305
 11
-39.622072074
 21
54.6088383694
  0
LINE
  5
235
100
AcDbEntity
  8
DRAFT
100
AcDbLine
 62
7
  6
CONTINUOUS
 10
-12.5201970726
 20
54.1994575779
 11
-12.5898599196
 21
54.1297947309
  0
LINE
  5
236
100
AcDbEntity
  8
DRAFT
100
AcDbLine
 62
7
  6
CONTINUOUS
 10
-13.9181161302
 20
52.8015385204
 11
-13.8492071404
 21
52.8704475102
  0
LINE
  5
237
100
AcDbEntity
  8
SMUSSO
100
AcDbLine
 62
7
  6
CONTINUOUS
 10
0.9774905256
 20
63.2971451762
 11
1.0769714693
 21
63.3966261198
  0
LWPOLYLINE
  5
238
100
AcDbEntity
  8
RACCORDO
100
AcDbPolyline
 62
7
  6
CONTINUOUS
 90
22
 70
0
 10
37.6805426224
 20
-44.8498788794
 10
37.7178228424
 20
-44.8484874064
 10
37.7549451977
 20
-44.8443128315
 10
37.7917012981
 20
-44.8373671422
 10
37.8279312075
 20
-44.8276633
 10
37.8633786718
 20
-44.8152522606
 10
37.8977047055
 20
-44.8002582966
 10
37.9306203205
 20
-44.7828466996
 10
37.9620664339
 20
-44.7630891003
 10
37.9920491182
 20
-44.7409793991
 10
38.0204956466
 20
-44.7165184673
 10
38.0471060578
 20
-44.689908056
 10
38.0715669897
 20
-44.6614615277
 10
38.0936766909
 20
-44.6314788433
 10
38.1134342902
 20
-44.60003273
 10
38.1308458872
 20
-44.5671171149
 10
38.1458398512
 20
-44.5327910812
 10
38.1582508906
 20
-44.497343617
 10
38.1679547328
 20
-44.4611137075
 10
38.1749004221
 20
-44.4243576071
 10
38.179074997
 20
-44.3872352518
 10
38.18046647
 20
-44.3499550319
  0
LINE
  5
239
100
AcDbEntity
  8
DRAFT
100
AcDbLine
 62
7
  6
CONTINUOUS
 10
35.5117280274
 20
-42.8548452583
 11
35.6444035854
 21
-42.8498788794
  0
LINE
  5
23A
100
AcDbEntity
  8
RACCORDO
100
AcDbLine
 62
7
  6
CONTINUOUS
 10
37.6805426224
 20
-44.8498788794
 11
32.1806846583
 21
-44.8498788794
  0
LINE
  5
23B
100
AcDbEntity
  8
RACCORDO
100
AcDbLine
 62
7
  6
CONTINUOUS
 10
31.1802482817
 20
-44.8498788794
 11
2.1806846583
 21
-44.8498788794
  0
LINE
  5
23C
100
AcDbEntity
  8
RACCORDO
100
AcDbLine
 62
7
  6
CONTINUOUS
 10
1.1802482817
 20
-44.8498788794
 11
-27.8193153417
 21
-44.8498788794
  0
LINE
  5
23D
100
AcDbEntity
  8
RACCORDO
100
AcDbLine
 62
7
  6
CONTINUOUS
 10
-28.8197517183
 20
-44.8498788794
 11
-36.8196096824
 21
-44.8498788794
  0
LINE
  5
23E
100
AcDbEntity
  8
DRAFT
100
AcDbLine
 62
7
  6
CONTINUOUS
 10
32.1806846583
 20
-44.8481333729
 11
31.1802482817
 21
-44.8481333729
  0
LINE
  5
23F
100
AcDbEntity
  8
DRAFT
100
AcDbLine
 62
7
  6
CONTINUOUS
 10
2.1806846583
 20
-44.8481333729
 11
1.1802482817
 21
-44.8481333729
  0
LINE
  5
240
100
AcDbEntity
  8
DRAFT
100
AcDbLine
 62
7
  6
CONTINUOUS
 10
-27.8193153417
 20
-44.8481333729
 11
-28.8197517183
 21
-44.8481333729
  0
LINE
  5
241
100
AcDbEntity
  8
RACCORDO
100
AcDbLine
 62
7
  6
CONTINUOUS
 10
37.668324077
 20
-44.837660334
 11
32.1925483306
 21
-44.837660334
  0
LINE
  5
242
100
AcDbEntity
  8
DRAFT
100
AcDbLine
 62
7
  6
CONTINUOUS
 10
31.1683846094
 20
-44.837660334
 11
2.1925483306
 21
-44.837660334
  0
LINE
  5
243
100
AcDbEntity
  8
DRAFT
100
AcDbLine
 62
7
  6
CONTINUOUS
 10
1.1683846094
 20
-44.837660334
 11
-27.8074516694
 21
-44.837660334
  0
LINE
  5
244
100
AcDbEntity
  8
DRAFT
100
AcDbLine
 62
7
  6
CONTINUOUS
 10
-28.8316153906
 20
-44.837660334
 11
-36.21953353
 21
-44.837660334
  0
LINE
  5
245
100
AcDbEntity
  8
RACCORDO
100
AcDbLine
 62
7
  6
CONTINUOUS
 10
-36.2369885949
 20
-44.8202052691
 11
-36.789936072
 21
-44.8202052691
  0
LWPOLYLINE
  5
246
100
AcDbEntity
  8
RACCORDO
100
AcDbPolyline
 62
7
  6
CONTINUOUS
 90
22
 70
0
 10
-36.8196096824
 20
-44.8498788794
 10
-36.8568899024
 20
-44.8484874064
 10
-36.8940122577
 20
-44.8443128315
 10
-36.9307683581
 20
-44.8373671422
 10
-36.9669982675
 20
-44.8276633
 10
-37.0024457318
 20
-44.8152522606
 10
-37.0367717655
 20
-44.8002582966
 10
-37.0696873805
 20
-44.7828466996
 10
-37.1011334939
 20
-44.7630891003
 10
-37.1311161782
 20
-44.7409793991
 10
-37.1595627066
 20
-44.7165184673
 10
-37.1861731178
 20
-44.689908056
 10
-37.2106340497
 20
-44.6614615277
 10
-37.2327437509
 20
-44.6314788433
 10
-37.2525013502
 20
-44.60003273
 10
-37.2699129472
 20
-44.5671171149
 10
-37.2849069112
 20
-44.5327910812
 10
-37.2973179506
 20
-44.497343617
 10
-37.3070217927
 20
-44.4611137075
 10
-37.3139674821
 20
-44.4243576071
 10
-37.318142057
 20
-44.3872352518
 10
-37.31953353
 20
-44.3499550319
  0
LINE
  5
247
100
AcDbEntity
  8
DRAFT
100
AcDbLine
 62
7
  6
CONTINUOUS
 10
-32.1507950874
 20
-42.8548452583
 11
-32.2834706454
 21
-42.8498788794
  0
LINE
  5
248
100
AcDbEntity
  8
RACCORDO
100
AcDbLine
 62
253
  6
CONTINUOUS
 10
-39.91953353
 20
-23.6987372889
 11
-39.622072074
 21
-23.9961987448
  0
LINE
  5
249
100
AcDbEntity
  8
RACCORDO
100
AcDbLine
 62
253
  6
CONTINUOUS
 10
-39.6206751206
 20
-23.3998788794
 11
-39.3232136646
 21
-23.6973403354
  0
LINE
  5
24A
100
AcDbEntity
  8
RACCORDO
100
AcDbLine
 62
7
  6
CONTINUOUS
 10
-39.622072074
 20
-29.8085961283
 11
-39.6628859265
 21
-29.2840143108
  0
LINE
  5
24B
100
AcDbEntity
  8
RACCORDO
100
AcDbLine
 62
7
  6
CONTINUOUS
 10
-38.016994986
 20
-25.3911616306
 11
-37.9761811335
 21
-25.915743448
  0
LINE
  5
24C
100
AcDbEntity
  8
RACCORDO
100
AcDbLine
 62
7
  6
CONTINUOUS
 10
-39.6628859265
 20
-29.2840143108
 11
-39.6857676547
 21
-28.9711613502
  0
LINE
  5
24D
100
AcDbEntity
  8
RACCORDO
100
AcDbLine
 62
7
  6
CONTINUOUS
 10
-37.9761811335
 20
-25.915743448
 11
-37.9532994053
 21
-26.2285964087
  0
LINE
  5
24E
100
AcDbEntity
  8
RACCORDO
100
AcDbLine
 62
7
  6
CONTINUOUS
 10
-39.6857676547
 20
-28.9711613502
 11
-39.6967483194
 21
-28.8122512101
  0
LINE
  5
24F
100
AcDbEntity
  8
RACCORDO
100
AcDbLine
 62
7
  6
CONTINUOUS
 10
-37.9532994053
 20
-26.2285964087
 11
-37.9423187406
 21
-26.3875065488
  0
LINE
  5
250
100
AcDbEntity
  8
RACCORDO
100
AcDbLine
 62
7
  6
CONTINUOUS
 10
-39.91953353
 20
56.3012627111
 11
-39.91953353
 21
53.6299585082
  0
LINE
  5
251
100
AcDbEntity
  8
RACCORDO
100
AcDbLine
 62
7
  6
CONTINUOUS
 10
-39.91953353
 20
51.1702837329
 11
-39.91953353
 21
48.49897953
  0
LINE
  5
252
100
AcDbEntity
  8
RACCORDO
100
AcDbLine
 62
7
  6
CONTINUOUS
 10
-39.91953353
 20
-23.6987372889
 11
-39.91953353
 21
-26.3700414918
  0
LINE
  5
253
100
AcDbEntity
  8
RACCORDO
100
AcDbLine
 62
7
  6
CONTINUOUS
 10
-39.91953353
 20
-28.8297162671
 11
-39.91953353
 21
-31.50102047
  0
LINE
  5
254
100
AcDbEntity
  8
DRAFT
100
AcDbLine
 62
7
  6
CONTINUOUS
 10
-39.7445562029
 20
53.7664421131
 11
-39.7445562029
 21
53.579765286
  0
LINE
  5
255
100
AcDbEntity
  8
DRAFT
100
AcDbLine
 62
7
  6
CONTINUOUS
 10
-39.7445562029
 20
51.2204769551
 11
-39.7445562029
 21
51.0338001281
  0
LINE
  5
256
100
AcDbEntity
  8
DRAFT
100
AcDbLine
 62
7
  6
CONTINUOUS
 10
-39.7445562029
 20
-28.9661998719
 11
-39.7445562029
 21
-28.7795230449
  0
LINE
  5
257
100
AcDbEntity
  8
DRAFT
100
AcDbLine
 62
7
  6
CONTINUOUS
 10
-39.7445562029
 20
-26.420234714
 11
-39.7445562029
 21
-26.2335578869
  0
LINE
  5
258
100
AcDbEntity
  8
RACCORDO
100
AcDbLine
 62
7
  6
CONTINUOUS
 10
-39.622072074
 20
56.0038012552
 11
-39.622072074
 21
54.6088383694
  0
LINE
  5
259
100
AcDbEntity
  8
RACCORDO
100
AcDbLine
 62
7
  6
CONTINUOUS
 10
-39.622072074
 20
50.1914038717
 11
-39.622072074
 21
48.796440986
  0
LINE
  5
25A
100
AcDbEntity
  8
RACCORDO
100
AcDbLine
 62
7
  6
CONTINUOUS
 10
-39.622072074
 20
-23.9961987448
 11
-39.622072074
 21
-25.3911616306
  0
LINE
  5
25B
100
AcDbEntity
  8
RACCORDO
100
AcDbLine
 62
7
  6
CONTINUOUS
 10
-39.622072074
 20
-29.8085961283
 11
-39.622072074
 21
-31.203559014
  0
LINE
  5
25C
100
AcDbEntity
  8
RACCORDO
100
AcDbLine
 62
7
  6
CONTINUOUS
 10
-38.016994986
 20
-31.203559014
 11
-38.016994986
 21
-29.8085961283
  0
LINE
  5
25D
100
AcDbEntity
  8
RACCORDO
100
AcDbLine
 62
7
  6
CONTINUOUS
 10
-38.016994986
 20
-25.3911616306
 11
-38.016994986
 21
-23.9961987448
  0
LINE
  5
25E
100
AcDbEntity
  8
RACCORDO
100
AcDbLine
 62
7
  6
CONTINUOUS
 10
-38.016994986
 20
48.796440986
 11
-38.016994986
 21
50.1914038717
  0
LINE
  5
25F
100
AcDbEntity
  8
RACCORDO
100
AcDbLine
 62
7
  6
CONTINUOUS
 10
-38.016994986
 20
54.6088383694
 11
-38.016994986
 21
56.0038012552
  0
LINE
  5
260
100
AcDbEntity
  8
DRAFT
100
AcDbLine
 62
7
  6
CONTINUOUS
 10
-37.894510857
 20
53.7664421131
 11
-37.894510857
 21
53.579765286
  0
LINE
  5
261
100
AcDbEntity
  8
DRAFT
100
AcDbLine
 62
7
  6
CONTINUOUS
 10
-37.894510857
 20
51.2204769551
 11
-37.894510857
 21
51.0338001281
  0
LINE
  5
262
100
AcDbEntity
  8
DRAFT
100
AcDbLine
 62
7
  6
CONTINUOUS
 10
-37.894510857
 20
-28.9661998719
 11
-37.894510857
 21
-28.7795230449
  0
LINE
  5
263
100
AcDbEntity
  8
DRAFT
100
AcDbLine
 62
7
  6
CONTINUOUS
 10
-37.894510857
 20
-26.420234714
 11
-37.894510857
 21
-26.2335578869
  0
LINE
  5
264
100
AcDbEntity
  8
RACCORDO
100
AcDbLine
 62
7
  6
CONTINUOUS
 10
-37.71953353
 20
-31.50102047
 11
-37.71953353
 21
-28.8297162671
  0
LINE
  5
265
100
AcDbEntity
  8
RACCORDO
100
AcDbLine
 62
7
  6
CONTINUOUS
 10
-37.71953353
 20
-26.3700414918
 11
-37.71953353
 21
-23.6987372889
  0
LINE
  5
266
100
AcDbEntity
  8
RACCORDO
100
AcDbLine
 62
7
  6
CONTINUOUS
 10
-37.71953353
 20
48.49897953
 11
-37.71953353
 21
51.1702837329
  0
LINE
  5
267
100
AcDbEntity
  8
RACCORDO
100
AcDbLine
 62
7
  6
CONTINUOUS
 10
-37.71953353
 20
53.6299585082
 11
-37.71953353
 21
56.3012627111
  0
LINE
  5
268
100
AcDbEntity
  8
RACCORDO
100
AcDbLine
 62
7
  6
CONTINUOUS
 10
-37.9423187406
 20
51.1877487899
 11
-37.9592582418
 21
50.9453876416
  0
LINE
  5
269
100
AcDbEntity
  8
RACCORDO
100
AcDbLine
 62
7
  6
CONTINUOUS
 10
-39.6967483194
 20
-26.3875065488
 11
-39.6798088181
 21
-26.1451454004
  0
LINE
  5
26A
100
AcDbEntity
  8
RACCORDO
100
AcDbLine
 62
7
  6
CONTINUOUS
 10
-37.9592582418
 20
50.9453876416
 11
-37.9856314126
 21
50.5916051106
  0
LINE
  5
26B
100
AcDbEntity
  8
RACCORDO
100
AcDbLine
 62
7
  6
CONTINUOUS
 10
-39.6798088181
 20
-26.1451454004
 11
-39.6534356473
 21
-25.7913628695
  0
LINE
  5
26C
100
AcDbEntity
  8
RACCORDO
100
AcDbLine
 62
7
  6
CONTINUOUS
 10
-37.9856314126
 20
50.5916051106
 11
-38.016994986
 21
50.1914038717
  0
LINE
  5
26D
100
AcDbEntity
  8
RACCORDO
100
AcDbLine
 62
7
  6
CONTINUOUS
 10
-39.6534356473
 20
-25.7913628695
 11
-39.622072074
 21
-25.3911616306
  0
LINE
  5
26E
100
AcDbEntity
  8
DRAFT
100
AcDbLine
 62
7
  6
CONTINUOUS
 10
-34.0922251144
 20
61.4393098685
 11
-34.06953353
 21
61.6220129536
  0
LINE
  5
26F
100
AcDbEntity
  8
SMUSSO
100
AcDbLine
 62
7
  6
CONTINUOUS
 10
-30.8160385293
 20
27.4036161213
 11
-30.7355771692
 21
27.4840774813
  0
LINE
  5
270
100
AcDbEntity
  8
DRAFT
100
AcDbLine
 62
7
  6
CONTINUOUS
 10
-12.5201970726
 20
43.6994575779
 11
-12.5898599196
 21
43.6297947309
  0
LINE
  5
271
100
AcDbEntity
  8
DRAFT
100
AcDbLine
 62
7
  6
CONTINUOUS
 10
-28.3492071404
 20
26.1704475102
 11
-28.4061290142
 21
26.1135256364
  0
LINE
  5
272
100
AcDbEntity
  8
DRAFT
100
AcDbLine
 62
7
  6
CONTINUOUS
 10
-37.2898599196
 20
16.1675761855
 11
-37.3073149845
 21
16.1501211206
  0
LINE
  5
273
100
AcDbEntity
  8
DRAFT
100
AcDbLine
 62
7
  6
CONTINUOUS
 10
-31.6555964146
 20
-42.8498788794
 11
-31.7882719726
 21
-42.8548452583
  0
LINE
  5
274
100
AcDbEntity
  8
DRAFT
100
AcDbLine
 62
7
  6
CONTINUOUS
 10
37.4531580544
 20
-42.8725704638
 11
32.4381845644
 21
-42.8725704638
  0
LINE
  5
275
100
AcDbEntity
  8
DRAFT
100
AcDbLine
 62
7
  6
CONTINUOUS
 10
30.9227483756
 20
-42.8725704638
 11
2.4381845644
 21
-42.8725704638
  0
LINE
  5
276
100
AcDbEntity
  8
DRAFT
100
AcDbLine
 62
7
  6
CONTINUOUS
 10
0.9227483756
 20
-42.8725704638
 11
-27.5618154356
 21
-42.8725704638
  0
LINE
  5
277
100
AcDbEntity
  8
DRAFT
100
AcDbLine
 62
7
  6
CONTINUOUS
 10
-29.0772516244
 20
-42.8725704638
 11
-34.0922251144
 21
-42.8725704638
  0
LINE
  5
278
100
AcDbEntity
  8
DRAFT
100
AcDbLine
 62
7
  6
CONTINUOUS
 10
-29.0680062118
 20
-42.8620974249
 11
-27.5710608482
 21
-42.8620974249
  0
LINE
  5
279
100
AcDbEntity
  8
DRAFT
100
AcDbLine
 62
7
  6
CONTINUOUS
 10
0.9319937882
 20
-42.8620974249
 11
2.4289391518
 21
-42.8620974249
  0
LINE
  5
27A
100
AcDbEntity
  8
DRAFT
100
AcDbLine
 62
7
  6
CONTINUOUS
 10
30.9319937882
 20
-42.8620974249
 11
32.4289391518
 21
-42.8620974249
  0
LINE
  5
27B
100
AcDbEntity
  8
DRAFT
100
AcDbLine
 62
7
  6
CONTINUOUS
 10
-34.06953353
 20
-42.8498788794
 11
-32.2834706454
 21
-42.8498788794
  0
LINE
  5
27C
100
AcDbEntity
  8
DRAFT
100
AcDbLine
 62
7
  6
CONTINUOUS
 10
-31.6555964146
 20
-42.8498788794
 11
-30.81953353
 21
-42.8498788794
  0
LINE
  5
27D
100
AcDbEntity
  8
DRAFT
100
AcDbLine
 62
7
  6
CONTINUOUS
 10
34.18046647
 20
-42.8498788794
 11
35.0165293546
 21
-42.8498788794
  0
LINE
  5
27E
100
AcDbEntity
  8
DRAFT
100
AcDbLine
 62
7
  6
CONTINUOUS
 10
35.6444035854
 20
-42.8498788794
 11
37.43046647
 21
-42.8498788794
  0
LINE
  5
27F
100
AcDbEntity
  8
SMUSSO
100
AcDbLine
 62
7
  6
CONTINUOUS
 10
-28.3230285307
 20
-42.8463838787
 11
-27.1160385293
 21
-42.8463838787
  0
LINE
  5
280
100
AcDbEntity
  8
SMUSSO
100
AcDbLine
 62
7
  6
CONTINUOUS
 10
-13.8230285307
 20
-42.8463838787
 11
-12.6160385293
 21
-42.8463838787
  0
LINE
  5
281
100
AcDbEntity
  8
SMUSSO
100
AcDbLine
 62
7
  6
CONTINUOUS
 10
1.0769714693
 20
-42.8463838787
 11
2.2839614707
 21
-42.8463838787
  0
LINE
  5
282
100
AcDbEntity
  8
SMUSSO
100
AcDbLine
 62
7
  6
CONTINUOUS
 10
15.9769714693
 20
-42.8463838787
 11
17.1839614707
 21
-42.8463838787
  0
LINE
  5
283
100
AcDbEntity
  8
SMUSSO
100
AcDbLine
 62
7
  6
CONTINUOUS
 10
30.4769714693
 20
-42.8463838787
 11
31.6839614707
 21
-42.8463838787
  0
LINE
  5
284
100
AcDbEntity
  8
DRAFT
100
AcDbLine
 62
7
  6
CONTINUOUS
 10
38.1682479246
 20
-40.5606901315
 11
37.4531580544
 21
-40.5606901315
  0
LINE
  5
285
100
AcDbEntity
  8
DRAFT
100
AcDbLine
 62
7
  6
CONTINUOUS
 10
36.8147042332
 20
-40.3779870464
 11
37.43046647
 21
-40.3779870464
  0
LINE
  5
286
100
AcDbEntity
  8
DRAFT
100
AcDbLine
 62
7
  6
CONTINUOUS
 10
38.1665024181
 20
-40.3498788794
 11
36.8428124001
 21
-40.3498788794
  0
LINE
  5
287
100
AcDbEntity
  8
0
100
AcDbLine
 62
7
  6
CONTINUOUS
 10
-2.57735153
 20
-40.1603408794
 11
-2.88127353
 21
-40.1603408794
  0
LINE
  5
288
100
AcDbEntity
  8
0
100
AcDbLine
 62
7
  6
CONTINUOUS
 10
-3.36409153
 20
-40.1603408794
 11
-4.80890353
 21
-40.1603408794
  0
LINE
  5
289
100
AcDbEntity
  8
0
100
AcDbLine
 62
7
  6
CONTINUOUS
 10
-5.08789253
 20
-40.1603408794
 11
-5.42002353
 21
-40.1603408794
  0
LINE
  5
28A
100
AcDbEntity
  8
0
100
AcDbLine
 62
7
  6
CONTINUOUS
 10
-6.78039253
 20
-40.1603408794
 11
-7.09377853
 21
-40.1603408794
  0
LINE
  5
28B
100
AcDbEntity
  8
0
100
AcDbLine
 62
7
  6
CONTINUOUS
 10
-7.94312153
 20
-40.1603408794
 11
-8.24704353
 21
-40.1603408794
  0
LINE
  5
28C
100
AcDbEntity
  8
0
100
AcDbLine
 62
7
  6
CONTINUOUS
 10
-9.33479353
 20
-40.1603408794
 11
-9.63889753
 21
-40.1603408794
  0
LINE
  5
28D
100
AcDbEntity
  8
0
100
AcDbLine
 62
7
  6
CONTINUOUS
 10
-4.50498153
 20
-39.8909968794
 11
-3.36409153
 21
-39.8909968794
  0
LINE
  5
28E
100
AcDbEntity
  8
SMUSSO
100
AcDbLine
 62
7
  6
CONTINUOUS
 10
-28.3492071404
 20
-39.8202052691
 11
-27.0898599196
 21
-39.8202052691
  0
LINE
  5
28F
100
AcDbEntity
  8
SMUSSO
100
AcDbLine
 62
7
  6
CONTINUOUS
 10
-13.8492071404
 20
-39.8202052691
 11
-12.5898599196
 21
-39.8202052691
  0
LINE
  5
290
100
AcDbEntity
  8
SMUSSO
100
AcDbLine
 62
7
  6
CONTINUOUS
 10
1.0507928596
 20
-39.8202052691
 11
2.3101400804
 21
-39.8202052691
  0
LINE
  5
291
100
AcDbEntity
  8
SMUSSO
100
AcDbLine
 62
7
  6
CONTINUOUS
 10
15.9507928596
 20
-39.8202052691
 11
17.2101400804
 21
-39.8202052691
  0
LINE
  5
292
100
AcDbEntity
  8
SMUSSO
100
AcDbLine
 62
7
  6
CONTINUOUS
 10
30.4507928596
 20
-39.8202052691
 11
31.7101400804
 21
-39.8202052691
  0
LINE
  5
293
100
AcDbEntity
  8
0
100
AcDbLine
 62
7
  6
CONTINUOUS
 10
-5.64259653
 20
-39.5051788794
 11
-6.54526253
 21
-39.5051788794
  0
LINE
  5
294
100
AcDbEntity
  8
0
100
AcDbLine
 62
7
  6
CONTINUOUS
 10
-6.45135653
 20
-39.2358348794
 11
-5.75233553
 21
-39.2358348794
  0
LINE
  5
295
100
AcDbEntity
  8
DRAFT
100
AcDbLine
 62
7
  6
CONTINUOUS
 10
36.8428124001
 20
-38.8498788794
 11
38.1665024181
 21
-38.8498788794
  0
LINE
  5
296
100
AcDbEntity
  8
DRAFT
100
AcDbLine
 62
7
  6
CONTINUOUS
 10
36.8147042332
 20
-38.8217707125
 11
37.43046647
 21
-38.8217707125
  0
LINE
  5
297
100
AcDbEntity
  8
DRAFT
100
AcDbLine
 62
7
  6
CONTINUOUS
 10
38.1682479246
 20
-38.6390676274
 11
37.4531580544
 21
-38.6390676274
  0
LINE
  5
298
100
AcDbEntity
  8
DRAFT
100
AcDbLine
 62
7
  6
CONTINUOUS
 10
-36.030344782
 20
-38.5606901315
 11
-34.0922251144
 21
-38.5606901315
  0
LINE
  5
299
100
AcDbEntity
  8
DRAFT
100
AcDbLine
 62
7
  6
CONTINUOUS
 10
-33.4414253631
 20
-38.3779870464
 11
-34.06953353
 21
-38.3779870464
  0
LINE
  5
29A
100
AcDbEntity
  8
DRAFT
100
AcDbLine
 62
7
  6
CONTINUOUS
 10
-33.46953353
 20
-38.3498788794
 11
-35.81953353
 21
-38.3498788794
  0
LINE
  5
29B
100
AcDbEntity
  8
0
100
AcDbLine
 62
7
  6
CONTINUOUS
 10
-7.18149653
 20
-38.1784778794
 11
-7.94312153
 21
-38.1784778794
  0
LINE
  5
29C
100
AcDbEntity
  8
0
100
AcDbLine
 62
7
  6
CONTINUOUS
 10
-8.24704353
 20
-38.1784778794
 11
-9.00866853
 21
-38.1784778794
  0
LINE
  5
29D
100
AcDbEntity
  8
0
100
AcDbLine
 62
7
  6
CONTINUOUS
 10
-9.63889753
 20
-37.9091338794
 11
-9.33479353
 21
-37.9091338794
  0
LINE
  5
29E
100
AcDbEntity
  8
0
100
AcDbLine
 62
7
  6
CONTINUOUS
 10
-9.00866853
 20
-37.9091338794
 11
-7.18149653
 21
-37.9091338794
  0
LINE
  5
29F
100
AcDbEntity
  8
0
100
AcDbLine
 62
7
  6
CONTINUOUS
 10
-6.24752853
 20
-37.9091338794
 11
-5.90284053
 21
-37.9091338794
  0
LINE
  5
2A0
100
AcDbEntity
  8
0
100
AcDbLine
 62
7
  6
CONTINUOUS
 10
-4.80890353
 20
-37.9091338794
 11
-4.50498153
 21
-37.9091338794
  0
LINE
  5
2A1
100
AcDbEntity
  8
0
100
AcDbLine
 62
7
  6
CONTINUOUS
 10
-3.73079953
 20
-37.9091338794
 11
-3.37664853
 21
-37.9091338794
  0
LINE
  5
2A2
100
AcDbEntity
  8
0
100
AcDbLine
 62
7
  6
CONTINUOUS
 10
-2.08525253
 20
-37.9091338794
 11
-1.72800853
 21
-37.9091338794
  0
LINE
  5
2A3
100
AcDbEntity
  8
DRAFT
100
AcDbLine
 62
7
  6
CONTINUOUS
 10
35.0165293546
 20
-42.8498788794
 11
35.1492049126
 21
-42.8548452583
  0
LINE
  5
2A4
100
AcDbEntity
  8
SMUSSO
100
AcDbLine
 62
7
  6
CONTINUOUS
 10
-30.7355771692
 20
-29.3838352402
 11
-30.8160385293
 21
-29.3033738802
  0
LINE
  5
2A5
100
AcDbEntity
  8
SMUSSO
100
AcDbLine
 62
7
  6
CONTINUOUS
 10
-13.8230285307
 20
-42.8463838787
 11
-13.9181161302
 21
-42.7512962793
  0
LINE
  5
2A6
100
AcDbEntity
  8
DRAFT
100
AcDbLine
 62
7
  6
CONTINUOUS
 10
-28.4061290142
 20
-28.0132833952
 11
-28.3492071404
 21
-28.0702052691
  0
LINE
  5
2A7
100
AcDbEntity
  8
DRAFT
100
AcDbLine
 62
7
  6
CONTINUOUS
 10
-27.0314732984
 20
-29.387939111
 11
-27.0898599196
 21
-29.3295524898
  0
LINE
  5
2A8
100
AcDbEntity
  8
DRAFT
100
AcDbLine
 62
7
  6
CONTINUOUS
 10
-37.2898599196
 20
-21.2296216015
 11
-37.31953353
 21
-21.1998788794
  0
LINE
  5
2A9
100
AcDbEntity
  8
DRAFT
100
AcDbLine
 62
7
  6
CONTINUOUS
 10
-34.0922251144
 20
-36.6390676274
 11
-34.06953353
 21
-36.8217707125
  0
LINE
  5
2AA
100
AcDbEntity
  8
RACCORDO
100
AcDbLine
 62
7
  6
CONTINUOUS
 10
-39.622072074
 20
50.1914038717
 11
-39.6628859265
 21
50.7159856892
  0
LINE
  5
2AB
100
AcDbEntity
  8
RACCORDO
100
AcDbLine
 62
7
  6
CONTINUOUS
 10
-38.016994986
 20
54.6088383694
 11
-37.9761811335
 21
54.084256552
  0
LINE
  5
2AC
100
AcDbEntity
  8
RACCORDO
100
AcDbLine
 62
7
  6
CONTINUOUS
 10
-39.6628859265
 20
50.7159856892
 11
-39.6857676547
 21
51.0288386498
  0
LINE
  5
2AD
100
AcDbEntity
  8
RACCORDO
100
AcDbLine
 62
7
  6
CONTINUOUS
 10
-37.9761811335
 20
54.084256552
 11
-37.9532994053
 21
53.7714035913
  0
LINE
  5
2AE
100
AcDbEntity
  8
RACCORDO
100
AcDbLine
 62
7
  6
CONTINUOUS
 10
-39.6857676547
 20
51.0288386498
 11
-39.6967483194
 21
51.1877487899
  0
LINE
  5
2AF
100
AcDbEntity
  8
RACCORDO
100
AcDbLine
 62
7
  6
CONTINUOUS
 10
-37.9532994053
 20
53.7714035913
 11
-37.9423187406
 21
53.6124934512
  0
LINE
  5
2B0
100
AcDbEntity
  8
RACCORDO
100
AcDbLine
 62
7
  6
CONTINUOUS
 10
-37.31953353
 20
69.150197273
 11
-37.31953353
 21
58.8001211206
  0
LINE
  5
2B1
100
AcDbEntity
  8
DRAFT
100
AcDbLine
 62
7
  6
CONTINUOUS
 10
-37.31953353
 20
46.0001211206
 11
-37.31953353
 21
-21.1998788794
  0
LINE
  5
2B2
100
AcDbEntity
  8
RACCORDO
100
AcDbLine
 62
7
  6
CONTINUOUS
 10
-37.31953353
 20
-33.9998788794
 11
-37.31953353
 21
-44.3499550319
  0
LINE
  5
2B3
100
AcDbEntity
  8
DRAFT
100
AcDbLine
 62
7
  6
CONTINUOUS
 10
-37.3073149845
 20
16.1501211206
 11
-37.3073149845
 21
8.6501211206
  0
LINE
  5
2B4
100
AcDbEntity
  8
RACCORDO
100
AcDbLine
 62
7
  6
CONTINUOUS
 10
-37.2898599196
 20
69.1205236626
 11
-37.2898599196
 21
58.7703783985
  0
LINE
  5
2B5
100
AcDbEntity
  8
DRAFT
100
AcDbLine
 62
7
  6
CONTINUOUS
 10
-37.2898599196
 20
46.0298638426
 11
-37.2898599196
 21
16.1675761855
  0
LINE
  5
2B6
100
AcDbEntity
  8
DRAFT
100
AcDbLine
 62
7
  6
CONTINUOUS
 10
-37.2898599196
 20
8.6326660556
 11
-37.2898599196
 21
-21.2296216015
  0
LINE
  5
2B7
100
AcDbEntity
  8
RACCORDO
100
AcDbLine
 62
7
  6
CONTINUOUS
 10
-37.2898599196
 20
-33.9701361574
 11
-37.2898599196
 21
-44.3202814215
  0
LINE
  5
2B8
100
AcDbEntity
  8
DRAFT
100
AcDbLine
 62
7
  6
CONTINUOUS
 10
-36.2369885949
 20
69.6204475102
 11
-36.2369885949
 21
16.1675761855
  0
LINE
  5
2B9
100
AcDbEntity
  8
DRAFT
100
AcDbLine
 62
7
  6
CONTINUOUS
 10
-36.2369885949
 20
8.6326660556
 11
-36.2369885949
 21
-44.8202052691
  0
LINE
  5
2BA
100
AcDbEntity
  8
DRAFT
100
AcDbLine
 62
7
  6
CONTINUOUS
 10
-36.21953353
 20
69.6379025751
 11
-36.21953353
 21
16.1501211206
  0
LINE
  5
2BB
100
AcDbEntity
  8
DRAFT
100
AcDbLine
 62
7
  6
CONTINUOUS
 10
-36.21953353
 20
8.6501211206
 11
-36.21953353
 21
-44.837660334
  0
LINE
  5
2BC
100
AcDbEntity
  8
DRAFT
100
AcDbLine
 62
7
  6
CONTINUOUS
 10
-36.030344782
 20
63.3609323726
 11
-36.030344782
 21
61.4393098685
  0
LINE
  5
2BD
100
AcDbEntity
  8
DRAFT
100
AcDbLine
 62
7
  6
CONTINUOUS
 10
-36.030344782
 20
-36.6390676274
 11
-36.030344782
 21
-38.5606901315
  0
LINE
  5
2BE
100
AcDbEntity
  8
DRAFT
100
AcDbLine
 62
7
  6
CONTINUOUS
 10
-35.81953353
 20
-38.3498788794
 11
-35.81953353
 21
-36.8498788794
  0
LINE
  5
2BF
100
AcDbEntity
  8
DRAFT
100
AcDbLine
 62
7
  6
CONTINUOUS
 10
-35.81953353
 20
61.6501211206
 11
-35.81953353
 21
63.1501211206
  0
LINE
  5
2C0
100
AcDbEntity
  8
DRAFT
100
AcDbLine
 62
7
  6
CONTINUOUS
 10
-34.0922251144
 20
-42.8725704638
 11
-34.0922251144
 21
-38.5606901315
  0
LINE
  5
2C1
100
AcDbEntity
  8
DRAFT
100
AcDbLine
 62
7
  6
CONTINUOUS
 10
-34.0922251144
 20
-36.6390676274
 11
-34.0922251144
 21
61.4393098685
  0
LINE
  5
2C2
100
AcDbEntity
  8
DRAFT
100
AcDbLine
 62
7
  6
CONTINUOUS
 10
-34.0922251144
 20
63.3609323726
 11
-34.0922251144
 21
67.672812705
  0
LINE
  5
2C3
100
AcDbEntity
  8
DRAFT
100
AcDbLine
 62
7
  6
CONTINUOUS
 10
-34.06953353
 20
-42.8498788794
 11
-34.06953353
 21
-38.3779870464
  0
LINE
  5
2C4
100
AcDbEntity
  8
DRAFT
100
AcDbLine
 62
7
  6
CONTINUOUS
 10
-34.06953353
 20
-36.8217707125
 11
-34.06953353
 21
61.6220129536
  0
LINE
  5
2C5
100
AcDbEntity
  8
DRAFT
100
AcDbLine
 62
7
  6
CONTINUOUS
 10
-34.06953353
 20
63.1782292875
 11
-34.06953353
 21
67.6501211206
  0
LINE
  5
2C6
100
AcDbEntity
  8
DRAFT
100
AcDbLine
 62
7
  6
CONTINUOUS
 10
-33.46953353
 20
63.1501211206
 11
-33.46953353
 21
61.6501211206
  0
LINE
  5
2C7
100
AcDbEntity
  8
DRAFT
100
AcDbLine
 62
7
  6
CONTINUOUS
 10
-33.46953353
 20
-36.8498788794
 11
-33.46953353
 21
-38.3498788794
  0
LINE
  5
2C8
100
AcDbEntity
  8
DRAFT
100
AcDbLine
 62
7
  6
CONTINUOUS
 10
-33.4414253631
 20
63.1782292875
 11
-33.4414253631
 21
61.6220129536
  0
LINE
  5
2C9
100
AcDbEntity
  8
DRAFT
100
AcDbLine
 62
7
  6
CONTINUOUS
 10
-33.4414253631
 20
-36.8217707125
 11
-33.4414253631
 21
-38.3779870464
  0
LINE
  5
2CA
100
AcDbEntity
  8
DRAFT
100
AcDbLine
 62
7
  6
CONTINUOUS
 10
-32.2834706454
 20
65.0001211206
 11
-32.2834706454
 21
-42.8498788794
  0
LINE
  5
2CB
100
AcDbEntity
  8
DRAFT
100
AcDbLine
 62
253
  6
CONTINUOUS
 10
-32.1507950874
 20
65.0001211206
 11
-32.1507950874
 21
-42.8548452583
  0
LINE
  5
2CC
100
AcDbEntity
  8
RACCORDO
100
AcDbLine
 62
7
  6
CONTINUOUS
 10
-37.9423187406
 20
-28.8122512101
 11
-37.9592582418
 21
-29.0546123584
  0
LINE
  5
2CD
100
AcDbEntity
  8
RACCORDO
100
AcDbLine
 62
7
  6
CONTINUOUS
 10
-37.9592582418
 20
-29.0546123584
 11
-37.9856314126
 21
-29.4083948894
  0
LINE
  5
2CE
100
AcDbEntity
  8
RACCORDO
100
AcDbLine
 62
7
  6
CONTINUOUS
 10
-37.9856314126
 20
-29.4083948894
 11
-38.016994986
 21
-29.8085961283
  0
LINE
  5
2CF
100
AcDbEntity
  8
DRAFT
100
AcDbLine
 62
7
  6
CONTINUOUS
 10
2.3834424144
 20
54.2030970649
 11
2.3101400804
 21
54.1297947309
  0
LINE
  5
2D0
100
AcDbEntity
  8
DRAFT
100
AcDbLine
 62
7
  6
CONTINUOUS
 10
0.9774905256
 20
52.7971451762
 11
1.0507928596
 21
52.8704475102
  0
LINE
  5
2D1
100
AcDbEntity
  8
SMUSSO
100
AcDbLine
 62
7
  6
CONTINUOUS
 10
15.8811300127
 20
63.3007846632
 11
15.9769714693
 21
63.3966261198
  0
LWPOLYLINE
  5
2D2
100
AcDbEntity
  8
0
100
AcDbPolyline
 62
7
  6
CONTINUOUS
 90
25
 70
0
 10
-4.5049814863
 20
-33.4285598794
 10
-4.4529189571
 20
-33.4268796797
 10
-4.4029376969
 20
-33.4222973
 10
-4.3550377144
 20
-33.4148127403
 10
-4.3092891069
 20
-33.4044641866
 10
-4.2656217934
 20
-33.3912134529
 10
-4.2238255131
 20
-33.374945982
 10
-4.183814952
 20
-33.3556754606
 10
-4.1456754362
 20
-33.333388202
 10
-4.1094526653
 20
-33.3079285882
 10
-4.0751594852
 20
-33.2792252299
 10
-4.0427830604
 20
-33.2473495164
 10
-4.0123305675
 20
-33.2123599977
 10
-3.9836253106
 20
-33.1742467331
 10
-3.956843994
 20
-33.1330196633
 10
-3.9325238942
 20
-33.0887671593
 10
-3.9107193514
 20
-33.0414176791
 10
-3.8913760338
 20
-32.9910427648
 10
-3.8748682117
 20
-32.9379454137
 10
-3.8615255519
 20
-32.882177938
 10
-3.851018394
 20
-32.8236880255
 10
-3.8427320158
 20
-32.7626217373
 10
-3.8364615109
 20
-32.6990277604
 10
-3.832411788
 20
-32.6328574078
 10
-3.8305828479
 20
-32.5641106795
  0
LINE
  5
2D3
100
AcDbEntity
  8
0
100
AcDbLine
 62
7
  6
CONTINUOUS
 10
-4.47513553
 20
-36.9245718794
 11
-4.81672853
 21
-36.9245718794
  0
LINE
  5
2D4
100
AcDbEntity
  8
0
100
AcDbLine
 62
7
  6
CONTINUOUS
 10
-5.96690053
 20
-36.9245718794
 11
-6.26172353
 21
-36.9245718794
  0
LINE
  5
2D5
100
AcDbEntity
  8
0
100
AcDbLine
 62
7
  6
CONTINUOUS
 10
-6.78184853
 20
-36.9245718794
 11
-7.08595253
 21
-36.9245718794
  0
LINE
  5
2D6
100
AcDbEntity
  8
DRAFT
100
AcDbLine
 62
7
  6
CONTINUOUS
 10
-35.81953353
 20
-36.8498788794
 11
-33.46953353
 21
-36.8498788794
  0
LINE
  5
2D7
100
AcDbEntity
  8
DRAFT
100
AcDbLine
 62
7
  6
CONTINUOUS
 10
-33.4414253631
 20
-36.8217707125
 11
-34.06953353
 21
-36.8217707125
  0
LINE
  5
2D8
100
AcDbEntity
  8
DRAFT
100
AcDbLine
 62
7
  6
CONTINUOUS
 10
-36.030344782
 20
-36.6390676274
 11
-34.0922251144
 21
-36.6390676274
  0
LINE
  5
2D9
100
AcDbEntity
  8
0
100
AcDbLine
 62
7
  6
CONTINUOUS
 10
-7.08595253
 20
-34.6751858794
 11
-6.78184853
 21
-34.6751858794
  0
LINE
  5
2DA
100
AcDbEntity
  8
0
100
AcDbLine
 62
7
  6
CONTINUOUS
 10
-6.26172353
 20
-34.6751858794
 11
-5.90120253
 21
-34.6751858794
  0
LINE
  5
2DB
100
AcDbEntity
  8
0
100
AcDbLine
 62
7
  6
CONTINUOUS
 10
-4.76959353
 20
-34.6751858794
 11
-4.47513553
 21
-34.6751858794
  0
LINE
  5
2DC
100
AcDbEntity
  8
0
100
AcDbLine
 62
7
  6
CONTINUOUS
 10
-1.43646153
 20
-33.6888038794
 11
-3.09765853
 21
-33.6888038794
  0
LINE
  5
2DD
100
AcDbEntity
  8
0
100
AcDbLine
 62
7
  6
CONTINUOUS
 10
-4.4647529056
 20
-33.6888038794
 11
-5.37616353
 21
-33.6888038794
  0
LINE
  5
2DE
100
AcDbEntity
  8
0
100
AcDbLine
 62
7
  6
CONTINUOUS
 10
-5.67080453
 20
-33.6888038794
 11
-6.00293453
 21
-33.6888038794
  0
LINE
  5
2DF
100
AcDbEntity
  8
0
100
AcDbLine
 62
7
  6
CONTINUOUS
 10
-7.36330453
 20
-33.6888038794
 11
-7.67668953
 21
-33.6888038794
  0
LINE
  5
2E0
100
AcDbEntity
  8
0
100
AcDbLine
 62
7
  6
CONTINUOUS
 10
-7.94621553
 20
-33.6888038794
 11
-8.24085653
 21
-33.6888038794
  0
LINE
  5
2E1
100
AcDbEntity
  8
0
100
AcDbLine
 62
7
  6
CONTINUOUS
 10
-8.87399653
 20
-33.6888038794
 11
-9.17482453
 21
-33.6888038794
  0
LINE
  5
2E2
100
AcDbEntity
  8
0
100
AcDbLine
 62
7
  6
CONTINUOUS
 10
-9.80796553
 20
-33.6888038794
 11
-10.10260553
 21
-33.6888038794
  0
LINE
  5
2E3
100
AcDbEntity
  8
0
100
AcDbLine
 62
7
  6
CONTINUOUS
 10
-5.07224153
 20
-33.4285598794
 11
-4.5049814863
 21
-33.4285598794
  0
LINE
  5
2E4
100
AcDbEntity
  8
0
100
AcDbLine
 62
7
  6
CONTINUOUS
 10
-2.79355453
 20
-33.4194598794
 11
-1.43646153
 21
-33.4194598794
  0
LINE
  5
2E5
100
AcDbEntity
  8
0
100
AcDbLine
 62
7
  6
CONTINUOUS
 10
-6.22550753
 20
-33.0336428794
 11
-7.12817353
 21
-33.0336428794
  0
LINE
  5
2E6
100
AcDbEntity
  8
0
100
AcDbLine
 62
7
  6
CONTINUOUS
 10
-7.03408553
 20
-32.7642988794
 11
-6.33524653
 21
-32.7642988794
  0
LINE
  5
2E7
100
AcDbEntity
  8
0
100
AcDbLine
 62
7
  6
CONTINUOUS
 10
-1.56185153
 20
-32.6678448794
 11
-2.79355453
 21
-32.6678448794
  0
LINE
  5
2E8
100
AcDbEntity
  8
0
100
AcDbLine
 62
7
  6
CONTINUOUS
 10
-2.79355453
 20
-32.3985008794
 11
-1.56185153
 21
-32.3985008794
  0
LINE
  5
2E9
100
AcDbEntity
  8
DRAFT
100
AcDbLine
 62
7
  6
CONTINUOUS
 10
1.1802482817
 20
-44.8481333729
 11
1.1683846094
 21
-44.837660334
  0
LINE
  5
2EA
100
AcDbEntity
  8
SMUSSO
100
AcDbLine
 62
7
  6
CONTINUOUS
 10
-30.7355771692
 20
-18.8838352402
 11
-30.8160385293
 21
-18.8033738802
  0
LINE
  5
2EB
100
AcDbEntity
  8
DRAFT
100
AcDbLine
 62
7
  6
CONTINUOUS
 10
-28.4061290142
 20
-17.5132833952
 11
-28.3492071404
 21
-17.5702052691
  0
LINE
  5
2EC
100
AcDbEntity
  8
DRAFT
100
AcDbLine
 62
7
  6
CONTINUOUS
 10
-27.0314732984
 20
-18.887939111
 11
-27.0898599196
 21
-18.8295524898
  0
LINE
  5
2ED
100
AcDbEntity
  8
DRAFT
100
AcDbLine
 62
7
  6
CONTINUOUS
 10
-29.0772516244
 20
-42.8725704638
 11
-28.8316153906
 21
-44.837660334
  0
LINE
  5
2EE
100
AcDbEntity
  8
DRAFT
100
AcDbLine
 62
7
  6
CONTINUOUS
 10
-29.0680062118
 20
-42.8620974249
 11
-28.8197517183
 21
-44.8481333729
  0
LINE
  5
2EF
100
AcDbEntity
  8
SMUSSO
100
AcDbLine
 62
7
  6
CONTINUOUS
 10
-28.3230285307
 20
-42.8463838787
 11
-28.3492071404
 21
-39.8202052691
  0
LINE
  5
2F0
100
AcDbEntity
  8
SMUSSO
100
AcDbLine
 62
7
  6
CONTINUOUS
 10
-27.1160385293
 20
63.3966261198
 11
-27.0898599196
 21
60.3704475102
  0
LINE
  5
2F1
100
AcDbEntity
  8
DRAFT
100
AcDbLine
 62
253
  6
CONTINUOUS
 10
-31.7882719726
 20
65.0001211206
 11
-31.7882719726
 21
-42.8548452583
  0
LINE
  5
2F2
100
AcDbEntity
  8
DRAFT
100
AcDbLine
 62
7
  6
CONTINUOUS
 10
-31.6555964146
 20
65.0001211206
 11
-31.6555964146
 21
-42.8498788794
  0
LINE
  5
2F3
100
AcDbEntity
  8
0
100
AcDbLine
 62
253
  6
CONTINUOUS
 10
-31.56953353
 20
65.0861840051
 11
-31.56953353
 21
65.714058236
  0
LINE
  5
2F4
100
AcDbEntity
  8
DRAFT
100
AcDbLine
 62
7
  6
CONTINUOUS
 10
-30.81953353
 20
63.4001211206
 11
-30.81953353
 21
-42.8498788794
  0
LINE
  5
2F5
100
AcDbEntity
  8
SMUSSO
100
AcDbLine
 62
7
  6
CONTINUOUS
 10
-30.8160385293
 20
54.1036161213
 11
-30.8160385293
 21
52.8966261198
  0
LINE
  5
2F6
100
AcDbEntity
  8
SMUSSO
100
AcDbLine
 62
7
  6
CONTINUOUS
 10
-30.8160385293
 20
43.6036161213
 11
-30.8160385293
 21
42.3966261198
  0
LINE
  5
2F7
100
AcDbEntity
  8
SMUSSO
100
AcDbLine
 62
7
  6
CONTINUOUS
 10
-30.8160385293
 20
27.4036161213
 11
-30.8160385293
 21
26.1966261198
  0
LINE
  5
2F8
100
AcDbEntity
  8
SMUSSO
100
AcDbLine
 62
7
  6
CONTINUOUS
 10
-30.8160385293
 20
13.0036161213
 11
-30.8160385293
 21
11.7966261198
  0
LINE
  5
2F9
100
AcDbEntity
  8
SMUSSO
100
AcDbLine
 62
7
  6
CONTINUOUS
 10
-30.8160385293
 20
-1.3963838787
 11
-30.8160385293
 21
-2.6033738802
  0
LINE
  5
2FA
100
AcDbEntity
  8
SMUSSO
100
AcDbLine
 62
7
  6
CONTINUOUS
 10
-30.8160385293
 20
-17.5963838787
 11
-30.8160385293
 21
-18.8033738802
  0
LINE
  5
2FB
100
AcDbEntity
  8
SMUSSO
100
AcDbLine
 62
7
  6
CONTINUOUS
 10
-30.8160385293
 20
-28.0963838787
 11
-30.8160385293
 21
-29.3033738802
  0
LINE
  5
2FC
100
AcDbEntity
  8
DRAFT
100
AcDbLine
 62
7
  6
CONTINUOUS
 10
-30.7355771692
 20
63.3161647598
 11
-30.7355771692
 21
54.1840774813
  0
LINE
  5
2FD
100
AcDbEntity
  8
DRAFT
100
AcDbLine
 62
7
  6
CONTINUOUS
 10
-30.7355771692
 20
52.8161647598
 11
-30.7355771692
 21
43.6840774813
  0
LINE
  5
2FE
100
AcDbEntity
  8
DRAFT
100
AcDbLine
 62
7
  6
CONTINUOUS
 10
-30.7355771692
 20
42.3161647598
 11
-30.7355771692
 21
27.4840774813
  0
LINE
  5
2FF
100
AcDbEntity
  8
DRAFT
100
AcDbLine
 62
7
  6
CONTINUOUS
 10
-30.7355771692
 20
26.1161647598
 11
-30.7355771692
 21
13.0840774813
  0
LINE
  5
300
100
AcDbEntity
  8
DRAFT
100
AcDbLine
 62
7
  6
CONTINUOUS
 10
-30.7355771692
 20
11.7161647598
 11
-30.7355771692
 21
-1.3159225187
  0
LINE
  5
301
100
AcDbEntity
  8
DRAFT
100
AcDbLine
 62
7
  6
CONTINUOUS
 10
-30.7355771692
 20
-2.6838352402
 11
-30.7355771692
 21
-17.5159225187
  0
LINE
  5
302
100
AcDbEntity
  8
DRAFT
100
AcDbLine
 62
7
  6
CONTINUOUS
 10
-30.7355771692
 20
-18.8838352402
 11
-30.7355771692
 21
-28.0159225187
  0
LINE
  5
303
100
AcDbEntity
  8
DRAFT
100
AcDbLine
 62
7
  6
CONTINUOUS
 10
-30.7355771692
 20
-29.3838352402
 11
-30.7355771692
 21
-42.7659225187
  0
LINE
  5
304
100
AcDbEntity
  8
SMUSSO
100
AcDbLine
 62
7
  6
CONTINUOUS
 10
-29.2898599196
 20
54.1297947309
 11
-29.2898599196
 21
52.8704475102
  0
LINE
  5
305
100
AcDbEntity
  8
SMUSSO
100
AcDbLine
 62
7
  6
CONTINUOUS
 10
-29.2898599196
 20
43.6297947309
 11
-29.2898599196
 21
42.3704475102
  0
LINE
  5
306
100
AcDbEntity
  8
SMUSSO
100
AcDbLine
 62
7
  6
CONTINUOUS
 10
-29.2898599196
 20
27.4297947309
 11
-29.2898599196
 21
26.1704475102
  0
LINE
  5
307
100
AcDbEntity
  8
SMUSSO
100
AcDbLine
 62
7
  6
CONTINUOUS
 10
-29.2898599196
 20
13.0297947309
 11
-29.2898599196
 21
11.7704475102
  0
LINE
  5
308
100
AcDbEntity
  8
SMUSSO
100
AcDbLine
 62
7
  6
CONTINUOUS
 10
-29.2898599196
 20
-1.3702052691
 11
-29.2898599196
 21
-2.6295524898
  0
LINE
  5
309
100
AcDbEntity
  8
SMUSSO
100
AcDbLine
 62
7
  6
CONTINUOUS
 10
-29.2898599196
 20
-17.5702052691
 11
-29.2898599196
 21
-18.8295524898
  0
LINE
  5
30A
100
AcDbEntity
  8
SMUSSO
100
AcDbLine
 62
7
  6
CONTINUOUS
 10
-29.2898599196
 20
-28.0702052691
 11
-29.2898599196
 21
-29.3295524898
  0
LINE
  5
30B
100
AcDbEntity
  8
DRAFT
100
AcDbLine
 62
7
  6
CONTINUOUS
 10
-28.4061290142
 20
63.3135256364
 11
-28.4061290142
 21
54.1867166048
  0
LINE
  5
30C
100
AcDbEntity
  8
DRAFT
100
AcDbLine
 62
7
  6
CONTINUOUS
 10
-28.4061290142
 20
52.8135256364
 11
-28.4061290142
 21
43.6867166048
  0
LINE
  5
30D
100
AcDbEntity
  8
DRAFT
100
AcDbLine
 62
7
  6
CONTINUOUS
 10
-28.4061290142
 20
42.3135256364
 11
-28.4061290142
 21
27.4867166048
  0
LINE
  5
30E
100
AcDbEntity
  8
DRAFT
100
AcDbLine
 62
7
  6
CONTINUOUS
 10
-28.4061290142
 20
26.1135256364
 11
-28.4061290142
 21
13.0867166048
  0
LINE
  5
30F
100
AcDbEntity
  8
DRAFT
100
AcDbLine
 62
7
  6
CONTINUOUS
 10
-28.4061290142
 20
11.7135256364
 11
-28.4061290142
 21
-1.3132833952
  0
LINE
  5
310
100
AcDbEntity
  8
DRAFT
100
AcDbLine
 62
7
  6
CONTINUOUS
 10
-28.4061290142
 20
-2.6864743636
 11
-28.4061290142
 21
-17.5132833952
  0
LINE
  5
311
100
AcDbEntity
  8
DRAFT
100
AcDbLine
 62
7
  6
CONTINUOUS
 10
-28.4061290142
 20
-18.8864743636
 11
-28.4061290142
 21
-28.0132833952
  0
LINE
  5
312
100
AcDbEntity
  8
DRAFT
100
AcDbLine
 62
7
  6
CONTINUOUS
 10
-28.4061290142
 20
-29.3864743636
 11
-28.4061290142
 21
-42.7632833952
  0
LINE
  5
313
100
AcDbEntity
  8
SMUSSO
100
AcDbLine
 62
7
  6
CONTINUOUS
 10
-28.3492071404
 20
60.3704475102
 11
-28.3492071404
 21
54.1297947309
  0
LINE
  5
314
100
AcDbEntity
  8
DRAFT
100
AcDbLine
 62
7
  6
CONTINUOUS
 10
-28.3492071404
 20
52.8704475102
 11
-28.3492071404
 21
43.6297947309
  0
LINE
  5
315
100
AcDbEntity
  8
DRAFT
100
AcDbLine
 62
7
  6
CONTINUOUS
 10
-28.3492071404
 20
42.3704475102
 11
-28.3492071404
 21
27.4297947309
  0
LINE
  5
316
100
AcDbEntity
  8
DRAFT
100
AcDbLine
 62
7
  6
CONTINUOUS
 10
-28.3492071404
 20
26.1704475102
 11
-28.3492071404
 21
13.0297947309
  0
LINE
  5
317
100
AcDbEntity
  8
DRAFT
100
AcDbLine
 62
7
  6
CONTINUOUS
 10
-28.3492071404
 20
11.7704475102
 11
-28.3492071404
 21
-1.3702052691
  0
LINE
  5
318
100
AcDbEntity
  8
DRAFT
100
AcDbLine
 62
7
  6
CONTINUOUS
 10
-28.3492071404
 20
-2.6295524898
 11
-28.3492071404
 21
-17.5702052691
  0
LINE
  5
319
100
AcDbEntity
  8
DRAFT
100
AcDbLine
 62
7
  6
CONTINUOUS
 10
-28.3492071404
 20
-18.8295524898
 11
-28.3492071404
 21
-28.0702052691
  0
LINE
  5
31A
100
AcDbEntity
  8
SMUSSO
100
AcDbLine
 62
7
  6
CONTINUOUS
 10
-28.3492071404
 20
-29.3295524898
 11
-28.3492071404
 21
-39.8202052691
  0
LINE
  5
31B
100
AcDbEntity
  8
SMUSSO
100
AcDbLine
 62
7
  6
CONTINUOUS
 10
-27.0898599196
 20
-39.8202052691
 11
-27.0898599196
 21
-29.3295524898
  0
LINE
  5
31C
100
AcDbEntity
  8
DRAFT
100
AcDbLine
 62
7
  6
CONTINUOUS
 10
-27.0898599196
 20
-28.0702052691
 11
-27.0898599196
 21
-18.8295524898
  0
LINE
  5
31D
100
AcDbEntity
  8
DRAFT
100
AcDbLine
 62
7
  6
CONTINUOUS
 10
-27.0898599196
 20
-17.5702052691
 11
-27.0898599196
 21
42.3704475102
  0
LINE
  5
31E
100
AcDbEntity
  8
DRAFT
100
AcDbLine
 62
7
  6
CONTINUOUS
 10
-27.0898599196
 20
43.6297947309
 11
-27.0898599196
 21
52.8704475102
  0
LINE
  5
31F
100
AcDbEntity
  8
SMUSSO
100
AcDbLine
 62
7
  6
CONTINUOUS
 10
-27.0898599196
 20
54.1297947309
 11
-27.0898599196
 21
60.3704475102
  0
LINE
  5
320
100
AcDbEntity
  8
DRAFT
100
AcDbLine
 62
7
  6
CONTINUOUS
 10
-27.0314732984
 20
63.312060889
 11
-27.0314732984
 21
54.1881813522
  0
LINE
  5
321
100
AcDbEntity
  8
DRAFT
100
AcDbLine
 62
7
  6
CONTINUOUS
 10
-27.0314732984
 20
52.812060889
 11
-27.0314732984
 21
43.6881813522
  0
LINE
  5
322
100
AcDbEntity
  8
DRAFT
100
AcDbLine
 62
7
  6
CONTINUOUS
 10
-27.0314732984
 20
42.312060889
 11
-27.0314732984
 21
-17.5118186478
  0
LINE
  5
323
100
AcDbEntity
  8
DRAFT
100
AcDbLine
 62
7
  6
CONTINUOUS
 10
-27.0314732984
 20
-18.887939111
 11
-27.0314732984
 21
-28.0118186478
  0
LINE
  5
324
100
AcDbEntity
  8
DRAFT
100
AcDbLine
 62
7
  6
CONTINUOUS
 10
-27.0314732984
 20
-29.387939111
 11
-27.0314732984
 21
-42.7618186478
  0
LINE
  5
325
100
AcDbEntity
  8
SMUSSO
100
AcDbLine
 62
7
  6
CONTINUOUS
 10
-28.3492071404
 20
60.3704475102
 11
-28.3230285307
 21
63.3966261198
  0
LINE
  5
326
100
AcDbEntity
  8
SMUSSO
100
AcDbLine
 62
7
  6
CONTINUOUS
 10
-27.0898599196
 20
-39.8202052691
 11
-27.1160385293
 21
-42.8463838787
  0
LINE
  5
327
100
AcDbEntity
  8
DRAFT
100
AcDbLine
 62
7
  6
CONTINUOUS
 10
-34.0922251144
 20
-38.5606901315
 11
-34.06953353
 21
-38.3779870464
  0
LINE
  5
328
100
AcDbEntity
  8
DRAFT
100
AcDbLine
 62
7
  6
CONTINUOUS
 10
-36.2369885949
 20
8.6326660556
 11
-36.21953353
 21
8.6501211206
  0
LINE
  5
329
100
AcDbEntity
  8
SMUSSO
100
AcDbLine
 62
7
  6
CONTINUOUS
 10
-30.8160385293
 20
13.0036161213
 11
-30.7355771692
 21
13.0840774813
  0
LINE
  5
32A
100
AcDbEntity
  8
DRAFT
100
AcDbLine
 62
7
  6
CONTINUOUS
 10
2.3834424144
 20
43.7030970649
 11
2.3101400804
 21
43.6297947309
  0
LINE
  5
32B
100
AcDbEntity
  8
DRAFT
100
AcDbLine
 62
7
  6
CONTINUOUS
 10
-28.3492071404
 20
11.7704475102
 11
-28.4061290142
 21
11.7135256364
  0
LWPOLYLINE
  5
32C
100
AcDbEntity
  8
0
100
AcDbPolyline
 62
7
  6
CONTINUOUS
 90
10
 70
0
 10
-2.5928621163
 20
-27.0339852905
 10
-2.5520922906
 20
-27.0327329046
 10
-2.5126971725
 20
-27.029395896
 10
-2.4746767651
 20
-27.0239742647
 10
-2.4381919083
 20
-27.0164654891
 10
-2.4030817685
 20
-27.0068720908
 10
-2.3688638375
 20
-26.9952016345
 10
-2.3353772803
 20
-26.9814566417
 10
-2.3027829353
 20
-26.965634591
 10
-2.2710808041
 20
-26.9477354822
  0
LINE
  5
32D
100
AcDbEntity
  8
SMUSSO
100
AcDbLine
 62
7
  6
CONTINUOUS
 10
34.1769714693
 20
-29.3033738802
 11
32.6507928596
 21
-29.3295524898
  0
LINE
  5
32E
100
AcDbEntity
  8
SMUSSO
100
AcDbLine
 62
7
  6
CONTINUOUS
 10
-30.8160385293
 20
-28.0963838787
 11
-29.2898599196
 21
-28.0702052691
  0
LINE
  5
32F
100
AcDbEntity
  8
RACCORDO
100
AcDbLine
 62
7
  6
CONTINUOUS
 10
-39.6206751206
 20
-31.7998788794
 11
-38.0183919394
 21
-31.7998788794
  0
LINE
  5
330
100
AcDbEntity
  8
0
100
AcDbLine
 62
7
  6
CONTINUOUS
 10
-1.45848253
 20
-31.7087608794
 11
-2.79355453
 21
-31.7087608794
  0
LINE
  5
331
100
AcDbEntity
  8
0
100
AcDbLine
 62
7
  6
CONTINUOUS
 10
-4.5049814863
 20
-31.6996618794
 11
-5.07224153
 21
-31.6996618794
  0
LINE
  5
332
100
AcDbEntity
  8
RACCORDO
100
AcDbLine
 62
7
  6
CONTINUOUS
 10
-39.3232136646
 20
-31.5024174234
 11
-38.3158533954
 21
-31.5024174234
  0
LINE
  5
333
100
AcDbEntity
  8
0
100
AcDbLine
 62
7
  6
CONTINUOUS
 10
-10.10260553
 20
-31.4394168794
 11
-9.66692353
 21
-31.4394168794
  0
LINE
  5
334
100
AcDbEntity
  8
0
100
AcDbLine
 62
7
  6
CONTINUOUS
 10
-8.37880353
 20
-31.4394168794
 11
-7.94621553
 21
-31.4394168794
  0
LINE
  5
335
100
AcDbEntity
  8
0
100
AcDbLine
 62
7
  6
CONTINUOUS
 10
-6.83043953
 20
-31.4394168794
 11
-6.48575253
 21
-31.4394168794
  0
LINE
  5
336
100
AcDbEntity
  8
0
100
AcDbLine
 62
7
  6
CONTINUOUS
 10
-5.37616353
 20
-31.4394168794
 11
-4.4642159026
 21
-31.4394168794
  0
LINE
  5
337
100
AcDbEntity
  8
0
100
AcDbLine
 62
7
  6
CONTINUOUS
 10
-3.09765853
 20
-31.4394168794
 11
-1.45848253
 21
-31.4394168794
  0
LINE
  5
338
100
AcDbEntity
  8
SMUSSO
100
AcDbLine
 62
7
  6
CONTINUOUS
 10
-29.2898599196
 20
-29.3295524898
 11
-28.3492071404
 21
-29.3295524898
  0
LINE
  5
339
100
AcDbEntity
  8
DRAFT
100
AcDbLine
 62
7
  6
CONTINUOUS
 10
-27.0898599196
 20
-29.3295524898
 11
-13.8492071404
 21
-29.3295524898
  0
LINE
  5
33A
100
AcDbEntity
  8
DRAFT
100
AcDbLine
 62
7
  6
CONTINUOUS
 10
-12.5898599196
 20
-29.3295524898
 11
1.0507928596
 21
-29.3295524898
  0
LINE
  5
33B
100
AcDbEntity
  8
DRAFT
100
AcDbLine
 62
7
  6
CONTINUOUS
 10
2.3101400804
 20
-29.3295524898
 11
15.9507928596
 21
-29.3295524898
  0
LINE
  5
33C
100
AcDbEntity
  8
DRAFT
100
AcDbLine
 62
7
  6
CONTINUOUS
 10
17.2101400804
 20
-29.3295524898
 11
30.4507928596
 21
-29.3295524898
  0
LINE
  5
33D
100
AcDbEntity
  8
SMUSSO
100
AcDbLine
 62
7
  6
CONTINUOUS
 10
31.7101400804
 20
-29.3295524898
 11
32.6507928596
 21
-29.3295524898
  0
LINE
  5
33E
100
AcDbEntity
  8
SMUSSO
100
AcDbLine
 62
7
  6
CONTINUOUS
 10
32.6507928596
 20
-28.0702052691
 11
31.7101400804
 21
-28.0702052691
  0
LINE
  5
33F
100
AcDbEntity
  8
DRAFT
100
AcDbLine
 62
7
  6
CONTINUOUS
 10
30.4507928596
 20
-28.0702052691
 11
17.2101400804
 21
-28.0702052691
  0
LINE
  5
340
100
AcDbEntity
  8
DRAFT
100
AcDbLine
 62
7
  6
CONTINUOUS
 10
15.9507928596
 20
-28.0702052691
 11
2.3101400804
 21
-28.0702052691
  0
LINE
  5
341
100
AcDbEntity
  8
DRAFT
100
AcDbLine
 62
7
  6
CONTINUOUS
 10
1.0507928596
 20
-28.0702052691
 11
-12.5898599196
 21
-28.0702052691
  0
LINE
  5
342
100
AcDbEntity
  8
DRAFT
100
AcDbLine
 62
7
  6
CONTINUOUS
 10
-13.8492071404
 20
-28.0702052691
 11
-27.0898599196
 21
-28.0702052691
  0
LINE
  5
343
100
AcDbEntity
  8
SMUSSO
100
AcDbLine
 62
7
  6
CONTINUOUS
 10
-28.3492071404
 20
-28.0702052691
 11
-29.2898599196
 21
-28.0702052691
  0
LINE
  5
344
100
AcDbEntity
  8
0
100
AcDbLine
 62
7
  6
CONTINUOUS
 10
-8.7047313323
 20
-26.9998788794
 11
-8.4591652026
 21
-26.9998788794
  0
LINE
  5
345
100
AcDbEntity
  8
0
100
AcDbLine
 62
7
  6
CONTINUOUS
 10
-7.258619534
 20
-26.9998788794
 11
-7.0130534043
 21
-26.9998788794
  0
LINE
  5
346
100
AcDbEntity
  8
0
100
AcDbLine
 62
7
  6
CONTINUOUS
 10
-5.7047314515
 20
-26.9998788794
 11
-5.4591650834
 21
-26.9998788794
  0
LINE
  5
347
100
AcDbEntity
  8
0
100
AcDbLine
 62
7
  6
CONTINUOUS
 10
-4.1508431305
 20
-26.9998788794
 11
-3.9052772393
 21
-26.9998788794
  0
LINE
  5
348
100
AcDbEntity
  8
0
100
AcDbLine
 62
7
  6
CONTINUOUS
 10
-9.5723984671
 20
-26.5210248491
 11
-8.7047313323
 21
-26.5210248491
  0
LINE
  5
349
100
AcDbEntity
  8
0
100
AcDbLine
 62
7
  6
CONTINUOUS
 10
-8.4591652026
 20
-26.5210248491
 11
-8.1890424361
 21
-26.5210248491
  0
LINE
  5
34A
100
AcDbEntity
  8
SMUSSO
100
AcDbLine
 62
7
  6
CONTINUOUS
 10
-29.2898599196
 20
-29.3295524898
 11
-30.8160385293
 21
-29.3033738802
  0
LINE
  5
34B
100
AcDbEntity
  8
SMUSSO
100
AcDbLine
 62
7
  6
CONTINUOUS
 10
32.6507928596
 20
-28.0702052691
 11
34.1769714693
 21
-28.0963838787
  0
LWPOLYLINE
  5
34C
100
AcDbEntity
  8
0
100
AcDbPolyline
 62
7
  6
CONTINUOUS
 90
10
 70
0
 10
-2.5969552865
 20
-26.8320753386
 10
-2.6209351534
 20
-26.8313139724
 10
-2.6445036162
 20
-26.829116622
 10
-2.6676606754
 20
-26.8254832876
 10
-2.6903152326
 20
-26.8204573487
 10
-2.7125583872
 20
-26.8139954258
 10
-2.7346634358
 20
-26.8059673796
 10
-2.7567214775
 20
-26.7963298305
 10
-2.7786414134
 20
-26.7851261582
 10
-2.8004232437
 20
-26.7723563627
  0
LWPOLYLINE
  5
34D
100
AcDbEntity
  8
0
100
AcDbPolyline
 62
7
  6
CONTINUOUS
 90
25
 70
0
 10
-4.4642159026
 20
-31.4394168794
 10
-4.3937488544
 20
-31.4421627247
 10
-4.3260813164
 20
-31.4487307103
 10
-4.2612133047
 20
-31.4591208362
 10
-4.1992734415
 20
-31.4734019871
 10
-4.1401331346
 20
-31.4915052784
 10
-4.0834065748
 20
-31.5132240563
 10
-4.0290095157
 20
-31.5384260423
 10
-3.9770262249
 20
-31.5672435149
 10
-3.9273236622
 20
-31.5998666561
 10
-3.8797970936
 20
-31.6362841194
 10
-3.8345512698
 20
-31.6765072512
 10
-3.7917673766
 20
-31.7207602736
 10
-3.7513640784
 20
-31.7691005278
 10
-3.7134227257
 20
-31.8214706726
 10
-3.6783685336
 20
-31.8779229051
 10
-3.6461702127
 20
-31.9385553216
 10
-3.6168590662
 20
-32.0032698259
 10
-3.5909541998
 20
-32.0718243269
 10
-3.568238076
 20
-32.1441083649
 10
-3.5489282434
 20
-32.2202323995
 10
-3.534196439
 20
-32.3002857195
 10
-3.5244332448
 20
-32.3842980875
 10
-3.5192480865
 20
-32.4722397409
 10
-3.5186409656
 20
-32.5641106795
  0
LINE
  5
34E
100
AcDbEntity
  8
DRAFT
100
AcDbLine
 62
7
  6
CONTINUOUS
 10
-13.9181161302
 20
-28.0012962793
 11
-13.8492071404
 21
-28.0702052691
  0
LINE
  5
34F
100
AcDbEntity
  8
DRAFT
100
AcDbLine
 62
7
  6
CONTINUOUS
 10
-12.5201970726
 20
-29.3992153368
 11
-12.5898599196
 21
-29.3295524898
  0
LINE
  5
350
100
AcDbEntity
  8
SMUSSO
100
AcDbLine
 62
7
  6
CONTINUOUS
 10
1.0769714693
 20
-42.8463838787
 11
0.9774905256
 21
-42.7469029351
  0
LINE
  5
351
100
AcDbEntity
  8
DRAFT
100
AcDbLine
 62
7
  6
CONTINUOUS
 10
2.4289391518
 20
-42.8620974249
 11
2.4381845644
 21
-42.8725704638
  0
LWPOLYLINE
  5
352
100
AcDbEntity
  8
RACCORDO
100
AcDbPolyline
 62
7
  6
CONTINUOUS
 90
40
 70
0
 10
-24.4629275567
 20
-5.9320600008
 10
-24.4566290135
 20
-6.2518526718
 10
-24.4375454213
 20
-6.5702860767
 10
-24.4056766983
 20
-6.8873602153
 10
-24.3609039726
 20
-7.203854721
 10
-24.3033457882
 20
-7.5189899606
 10
-24.2333581134
 20
-7.8304270337
 10
-24.1507622417
 20
-8.1380781678
 10
-24.055736251
 20
-8.4420311355
 10
-23.9491712473
 20
-8.7402103547
 10
-23.8310327636
 20
-9.0323381564
 10
-23.7013544272
 20
-9.3186922096
 10
-23.5611294957
 20
-9.5980299394
 10
-23.4105922252
 20
-9.8699685107
 10
-23.249507402
 20
-10.1348907587
 10
-23.0781640913
 20
-10.3927026131
 10
-22.896320729
 20
-10.6437884192
 10
-22.7042177689
 20
-10.8877638317
 10
-22.5028673407
 20
-11.1233817445
 10
-22.2924523406
 20
-11.3504088862
 10
-22.0727887761
 20
-11.569078528
 10
-21.8443385115
 20
-11.7788433778
 10
-21.6068178714
 20
-11.9799143501
 10
-21.3605093935
 20
-12.1720805303
 10
-21.1067243718
 20
-12.3541618819
 10
-20.8458167764
 20
-12.5259094913
 10
-20.5774316788
 20
-12.6875722721
 10
-20.3018171352
 20
-12.8387169276
 10
-20.0186582236
 20
-12.9795317271
 10
-19.7282689
 20
-13.1098284013
 10
-19.4318406522
 20
-13.2286088461
 10
-19.1290782886
 20
-13.3358556842
 10
-18.8202762378
 20
-13.4315862929
 10
-18.5075106885
 20
-13.5148546993
 10
-18.190681107
 20
-13.585490118
 10
-17.8698876443
 20
-13.6436633345
 10
-17.5475078867
 20
-13.6889407318
 10
-17.2243344604
 20
-13.7211777712
 10
-16.8995748174
 20
-13.7405189915
 10
-16.5732289812
 20
-13.7469643927
  0
LINE
  5
353
100
AcDbEntity
  8
RACCORDO
100
AcDbLine
 62
253
  6
CONTINUOUS
 10
-25.2152156783
 20
-6.2178730621
 11
-25.2152156783
 21
31.0181153032
  0
LINE
  5
354
100
AcDbEntity
  8
RACCORDO
100
AcDbLine
 62
253
  6
CONTINUOUS
 10
-24.750682975
 20
-6.2178730621
 11
-24.750682975
 21
31.0181153032
  0
LINE
  5
355
100
AcDbEntity
  8
RACCORDO
100
AcDbLine
 62
7
  6
CONTINUOUS
 10
-24.4629275567
 20
30.7323022419
 11
-24.4629275567
 21
-5.9320600008
  0
LWPOLYLINE
  5
356
100
AcDbEntity
  8
RACCORDO
100
AcDbPolyline
 62
253
  6
CONTINUOUS
 90
40
 70
0
 10
-24.750682965
 20
31.0181152933
 10
-24.7447563159
 20
31.3415483793
 10
-24.725956178
 20
31.6619446756
 10
-24.6945538757
 20
31.9788303429
 10
-24.6509478779
 20
32.291093982
 10
-24.5953776376
 20
32.5989665815
 10
-24.5276739684
 20
32.9039770583
 10
-24.4477246095
 20
33.2064628322
 10
-24.3558154229
 20
33.5051741633
 10
-24.2522243035
 20
33.7992392462
 10
-24.1372353137
 20
34.0880368959
 10
-24.0110063706
 20
34.3713624351
 10
-23.8736755462
 20
34.6489882984
 10
-23.7255037826
 20
34.9204569298
 10
-23.5667085888
 20
35.1854362779
 10
-23.3973259198
 20
35.4438695871
 10
-23.2175290792
 20
35.695442908
 10
-23.0276259068
 20
35.9396818543
 10
-22.8278316007
 20
36.1762731509
 10
-22.6183991804
 20
36.4048580768
 10
-22.3996378144
 20
36.6250514891
 10
-22.1718616517
 20
36.8365089792
 10
-21.935467766
 20
37.0388165265
 10
-21.6907136295
 20
37.2317142225
 10
-21.4377020968
 20
37.415077942
 10
-21.1766822522
 20
37.5886223929
 10
-20.9080902902
 20
37.7519591445
 10
-20.6323089835
 20
37.9047979134
 10
-20.350171703
 20
38.0466204077
 10
-20.0616355299
 20
38.1773846041
 10
-19.7657158684
 20
38.297378057
 10
-19.462175172
 20
38.4063790279
 10
-19.1519745277
 20
38.5037241457
 10
-18.8359050482
 20
38.5889371815
 10
-18.514082645
 20
38.6617242301
 10
-18.1872959233
 20
38.7216651832
 10
-17.8574207608
 20
38.7683145124
 10
-17.5254476819
 20
38.801504683
 10
-17.1914471099
 20
38.8211721347
 10
-16.8559553785
 20
38.8272158022
  0
LWPOLYLINE
  5
357
100
AcDbEntity
  8
RACCORDO
100
AcDbPolyline
 62
253
  6
CONTINUOUS
 90
40
 70
0
 10
-25.2152156783
 20
31.0181153032
 10
-25.2078116697
 20
31.361964603
 10
-25.187385611
 20
31.7016535185
 10
-25.1539374098
 20
32.0371820497
 10
-25.1073815756
 20
32.3683271854
 10
-25.0478032374
 20
32.6953119368
 10
-24.9754581505
 20
33.0188053381
 10
-24.8902153529
 20
33.339644899
 10
-24.7922051157
 20
33.6569931099
 10
-24.6820749895
 20
33.9690064762
 10
-24.5598316539
 20
34.2754385553
 10
-24.4254674841
 20
34.5765357898
 10
-24.2796085557
 20
34.8711940128
 10
-24.1222795666
 20
35.1593446495
 10
-23.9534546814
 20
35.4410562747
 10
-23.7736841792
 20
35.715430445
 10
-23.5828883238
 20
35.9825490654
 10
-23.3811455698
 20
36.2423302309
 10
-23.1692435216
 20
36.4936297831
 10
-22.9471181469
 20
36.7364403759
 10
-22.7148321486
 20
36.9707693554
 10
-22.4733633259
 20
37.195494601
 10
-22.2227634235
 20
37.4105249739
 10
-21.9629794194
 20
37.6159516129
 10
-21.6948320816
 20
37.8109258143
 10
-21.4182001162
 20
37.9954913989
 10
-21.1332036107
 20
38.1696045458
 10
-20.8410255642
 20
38.3322850884
 10
-20.542138508
 20
38.4833587229
 10
-20.2360689274
 20
38.6229997531
 10
-19.9225808335
 20
38.7507509237
 10
-19.6010236789
 20
38.866899656
 10
-19.2720469362
 20
38.9711585287
 10
-18.9373647858
 20
39.0622080221
 10
-18.596540057
 20
39.1399364536
 10
-18.2500092022
 20
39.2044555058
 10
-17.9007972742
 20
39.2547807063
 10
-17.5499127097
 20
39.2905838976
 10
-17.196347028
 20
39.3121932373
 10
-16.840100187
 20
39.3196087252
  0
LINE
  5
358
100
AcDbEntity
  8
DRAFT
100
AcDbLine
 62
7
  6
CONTINUOUS
 10
-27.8193153417
 20
-44.8481333729
 11
-27.5710608482
 21
-42.8620974249
  0
LINE
  5
359
100
AcDbEntity
  8
DRAFT
100
AcDbLine
 62
7
  6
CONTINUOUS
 10
-27.8074516694
 20
-44.837660334
 11
-27.5618154356
 21
-42.8725704638
  0
LINE
  5
35A
100
AcDbEntity
  8
DRAFT
100
AcDbLine
 62
7
  6
CONTINUOUS
 10
17.2790490702
 20
54.1987037207
 11
17.2101400804
 21
54.1297947309
  0
LINE
  5
35B
100
AcDbEntity
  8
DRAFT
100
AcDbLine
 62
7
  6
CONTINUOUS
 10
15.8811300127
 20
52.8007846632
 11
15.9507928596
 21
52.8704475102
  0
LINE
  5
35C
100
AcDbEntity
  8
SMUSSO
100
AcDbLine
 62
7
  6
CONTINUOUS
 10
30.3924062384
 20
63.312060889
 11
30.4769714693
 21
63.3966261198
  0
LINE
  5
35D
100
AcDbEntity
  8
RACCORDO
100
AcDbLine
 62
253
  6
CONTINUOUS
 10
38.668324077
 20
69.6379025751
 11
38.6805426224
 21
69.6501211206
  0
LINE
  5
35E
100
AcDbEntity
  8
DRAFT
100
AcDbLine
 62
7
  6
CONTINUOUS
 10
37.4531580544
 20
67.672812705
 11
37.43046647
 21
67.6501211206
  0
LINE
  5
35F
100
AcDbEntity
  8
0
100
AcDbLine
 62
7
  6
CONTINUOUS
 10
-2.2463412156
 20
-25.5087465009
 11
-2.0021390786
 21
-25.4896469077
  0
LWPOLYLINE
  5
360
100
AcDbEntity
  8
0
100
AcDbPolyline
 62
7
  6
CONTINUOUS
 90
10
 70
0
 10
-2.5573916306
 20
-25.7024710139
 10
-2.5887039528
 20
-25.7033080535
 10
-2.6196051993
 20
-25.7057288917
 10
-2.6500953707
 20
-25.7097335285
 10
-2.6801045517
 20
-25.7152976179
 10
-2.7097026588
 20
-25.7224455058
 10
-2.7390994405
 20
-25.7312502303
 10
-2.7683648128
 20
-25.7417361374
 10
-2.7974288601
 20
-25.7538788812
 10
-2.8262915826
 20
-25.7676784615
  0
LWPOLYLINE
  5
361
100
AcDbEntity
  8
0
100
AcDbPolyline
 62
7
  6
CONTINUOUS
 90
13
 70
0
 10
-2.5696701874
 20
-24.9916932544
 10
-2.6196727242
 20
-24.9929014024
 10
-2.6686285699
 20
-24.9974414422
 10
-2.7165377269
 20
-25.0053133736
 10
-2.7636746494
 20
-25.0165069408
 10
-2.8097648873
 20
-25.0310323997
 10
-2.8539850897
 20
-25.0489205177
 10
-2.8962547749
 20
-25.0704073439
 10
-2.9366544333
 20
-25.0952568291
 10
-2.9746021748
 20
-25.1227915929
 10
-3.00990404
 20
-25.1527858416
 10
-3.0427539989
 20
-25.1854653689
 10
-3.0731520563
 20
-25.2208301747
  0
LINE
  5
362
100
AcDbEntity
  8
0
100
AcDbLine
 62
7
  6
CONTINUOUS
 10
-8.1890424361
 20
-26.2959225138
 11
-8.4591652026
 21
-26.2959225138
  0
LINE
  5
363
100
AcDbEntity
  8
0
100
AcDbLine
 62
7
  6
CONTINUOUS
 10
-8.7047313323
 20
-26.2959225138
 11
-9.3309250643
 21
-26.2959225138
  0
LINE
  5
364
100
AcDbEntity
  8
DRAFT
100
AcDbLine
 62
7
  6
CONTINUOUS
 10
38.4177685133
 20
-25.8998788794
 11
38.1682479246
 21
-25.8998788794
  0
LINE
  5
365
100
AcDbEntity
  8
0
100
AcDbLine
 62
7
  6
CONTINUOUS
 10
38.4177685133
 20
-25.8998788794
 11
44.0304181872
 21
-25.8998788794
  0
LINE
  5
366
100
AcDbEntity
  8
0
100
AcDbLine
 62
7
  6
CONTINUOUS
 10
-8.4591652026
 20
-24.9998788794
 11
-8.6597108712
 21
-24.9998788794
  0
LINE
  5
367
100
AcDbEntity
  8
0
100
AcDbLine
 62
7
  6
CONTINUOUS
 10
-3.9052772393
 20
-24.9916932544
 11
-4.063530909
 21
-24.9916932544
  0
LINE
  5
368
100
AcDbEntity
  8
0
100
AcDbLine
 62
7
  6
CONTINUOUS
 10
-5.4591650834
 20
-24.9916932544
 11
-5.6174189915
 21
-24.9916932544
  0
LINE
  5
369
100
AcDbEntity
  8
0
100
AcDbLine
 62
7
  6
CONTINUOUS
 10
-7.0130534043
 20
-24.9916932544
 11
-7.171307074
 21
-24.9916932544
  0
LINE
  5
36A
100
AcDbEntity
  8
ASSI
100
AcDbLine
 62
7
  6
CONTINUOUS
 10
12.19087647
 20
-24.0823668794
 11
10.7023400142
 21
-24.0823668794
  0
LINE
  5
36B
100
AcDbEntity
  8
RACCORDO
100
AcDbLine
 62
7
  6
CONTINUOUS
 10
-38.3158533954
 20
-23.6973403354
 11
-39.3232136646
 21
-23.6973403354
  0
LINE
  5
36C
100
AcDbEntity
  8
RACCORDO
100
AcDbLine
 62
7
  6
CONTINUOUS
 10
-38.0183919394
 20
-23.3998788794
 11
-39.6206751206
 21
-23.3998788794
  0
LINE
  5
36D
100
AcDbEntity
  8
ASSI
100
AcDbLine
 62
7
  6
CONTINUOUS
 10
10.70234047
 20
-23.3173668794
 11
12.19087647
 21
-23.3173668794
  0
LINE
  5
36E
100
AcDbEntity
  8
SUPERFICI
100
AcDbLine
 62
7
  6
CONTINUOUS
 10
-2.48295753
 20
-22.9071358794
 11
-4.97472453
 21
-22.9071358794
  0
LINE
  5
36F
100
AcDbEntity
  8
SUPERFICI
100
AcDbLine
 62
7
  6
CONTINUOUS
 10
-6.75801053
 20
-22.9071358794
 11
-8.92737553
 21
-22.9071358794
  0
LINE
  5
370
100
AcDbEntity
  8
SUPERFICI
100
AcDbLine
 62
7
  6
CONTINUOUS
 10
-9.19319953
 20
-22.9071358794
 11
-11.89248753
 21
-22.9071358794
  0
LINE
  5
371
100
AcDbEntity
  8
SUPERFICI
100
AcDbLine
 62
7
  6
CONTINUOUS
 10
0.41253347
 20
-22.9008068794
 11
-0.42732553
 21
-22.9008068794
  0
LINE
  5
372
100
AcDbEntity
  8
SUPERFICI
100
AcDbLine
 62
7
  6
CONTINUOUS
 10
-1.40853553
 20
-22.9008068794
 11
-2.24858653
 21
-22.9008068794
  0
LINE
  5
373
100
AcDbEntity
  8
SUPERFICI
100
AcDbLine
 62
7
  6
CONTINUOUS
 10
-4.17558953
 20
-22.4076768794
 11
-3.28209253
 21
-22.4076768794
  0
LINE
  5
374
100
AcDbEntity
  8
SUPERFICI
100
AcDbLine
 62
7
  6
CONTINUOUS
 10
-11.11994653
 20
-22.2807418794
 11
-9.19319953
 21
-22.2807418794
  0
LINE
  5
375
100
AcDbEntity
  8
SUPERFICI
100
AcDbLine
 62
7
  6
CONTINUOUS
 10
-8.17113753
 20
-22.2807418794
 11
-6.75801053
 21
-22.2807418794
  0
LINE
  5
376
100
AcDbEntity
  8
SUPERFICI
100
AcDbLine
 62
7
  6
CONTINUOUS
 10
-10.18054753
 20
-21.9675448794
 11
-11.11994653
 21
-21.9675448794
  0
LINE
  5
377
100
AcDbEntity
  8
0
100
AcDbLine
 62
7
  6
CONTINUOUS
 10
44.0304181872
 20
-21.8998788794
 11
38.4177685133
 21
-21.8998788794
  0
LINE
  5
378
100
AcDbEntity
  8
SUPERFICI
100
AcDbLine
 62
7
  6
CONTINUOUS
 10
-3.28209253
 20
-21.8406098794
 11
-4.17558953
 21
-21.8406098794
  0
LINE
  5
379
100
AcDbEntity
  8
SUPERFICI
100
AcDbLine
 62
7
  6
CONTINUOUS
 10
-11.11994653
 20
-21.3411498794
 11
-10.18054753
 21
-21.3411498794
  0
LINE
  5
37A
100
AcDbEntity
  8
SUPERFICI
100
AcDbLine
 62
7
  6
CONTINUOUS
 10
-8.92737553
 20
-21.3411498794
 11
-8.17113753
 21
-21.3411498794
  0
LINE
  5
37B
100
AcDbEntity
  8
SUPERFICI
100
AcDbLine
 62
7
  6
CONTINUOUS
 10
-4.97472453
 20
-21.3411498794
 11
-2.48295753
 21
-21.3411498794
  0
LINE
  5
37C
100
AcDbEntity
  8
SUPERFICI
100
AcDbLine
 62
7
  6
CONTINUOUS
 10
-2.13734653
 20
-21.0279528794
 11
-5.03916653
 21
-21.0279528794
  0
LINE
  5
37D
100
AcDbEntity
  8
SUPERFICI
100
AcDbLine
 62
7
  6
CONTINUOUS
 10
-7.20009253
 20
-21.0279528794
 11
-9.21180353
 21
-21.0279528794
  0
LINE
  5
37E
100
AcDbEntity
  8
SUPERFICI
100
AcDbLine
 62
7
  6
CONTINUOUS
 10
-9.47551853
 20
-21.0279528794
 11
-11.11994653
 21
-21.0279528794
  0
LWPOLYLINE
  5
37F
100
AcDbEntity
  8
0
100
AcDbPolyline
 62
7
  6
CONTINUOUS
 90
10
 70
0
 10
-2.5846767296
 20
-25.1936032733
 10
-2.5524741689
 20
-25.1950778865
 10
-2.5216349095
 20
-25.1990736357
 10
-2.4921589536
 20
-25.2055905209
 10
-2.4641958814
 20
-25.2145641621
 10
-2.4375961175
 20
-25.2260589392
 10
-2.4119109299
 20
-25.2402679922
 10
-2.3869907418
 20
-25.2572557008
 10
-2.3629851325
 20
-25.2769576853
 10
-2.3398941032
 20
-25.2993739455
  0
LWPOLYLINE
  5
380
100
AcDbEntity
  8
0
100
AcDbPolyline
 62
7
  6
CONTINUOUS
 90
10
 70
0
 10
-2.6065050195
 20
-25.9193876942
 10
-2.5695796607
 20
-25.9210795183
 10
-2.53429182
 20
-25.9256261763
 10
-2.5006415007
 20
-25.9330276681
 10
-2.4688113417
 20
-25.943207913
 10
-2.4386187104
 20
-25.9562429918
 10
-2.4095157024
 20
-25.9723611468
 10
-2.3813196836
 20
-25.9916384586
 10
-2.3542132915
 20
-26.0139988466
 10
-2.3281965275
 20
-26.0394423107
  0
LWPOLYLINE
  5
381
100
AcDbEntity
  8
0
100
AcDbPolyline
 62
7
  6
CONTINUOUS
 90
10
 70
0
 10
-2.8004232437
 20
-26.7723563627
 10
-2.8213492264
 20
-26.758211291
 10
-2.8412330328
 20
-26.7427343039
 10
-2.860074664
 20
-26.7259254015
 10
-2.8778488699
 20
-26.7078692996
 10
-2.8945809027
 20
-26.6884812824
 10
-2.9103465173
 20
-26.6675072022
 10
-2.9251709657
 20
-26.6448623432
 10
-2.9390289974
 20
-26.6206314212
 10
-2.9519206134
 20
-26.5948144363
  0
LWPOLYLINE
  5
382
100
AcDbEntity
  8
0
100
AcDbPolyline
 62
7
  6
CONTINUOUS
 90
10
 70
0
 10
-2.1839224028
 20
-25.1244146045
 10
-2.2173524721
 20
-25.0974217361
 10
-2.2530221083
 20
-25.0734339966
 10
-2.2909313072
 20
-25.0524513861
 10
-2.3309225397
 20
-25.0343987257
 10
-2.3731533256
 20
-25.0193511943
 10
-2.4180962332
 20
-25.0075343279
 10
-2.46590878
 20
-24.9990233051
 10
-2.5164334341
 20
-24.9937429472
 10
-2.5696701874
 20
-24.9916932544
  0
LINE
  5
383
100
AcDbEntity
  8
SMUSSO
100
AcDbLine
 62
7
  6
CONTINUOUS
 10
-30.7355771692
 20
-2.6838352402
 11
-30.8160385293
 21
-2.6033738802
  0
LINE
  5
384
100
AcDbEntity
  8
DRAFT
100
AcDbLine
 62
7
  6
CONTINUOUS
 10
-12.5201970726
 20
-18.8992153368
 11
-12.5898599196
 21
-18.8295524898
  0
LINE
  5
385
100
AcDbEntity
  8
DRAFT
100
AcDbLine
 62
7
  6
CONTINUOUS
 10
-28.3492071404
 20
-1.3702052691
 11
-28.4061290142
 21
-1.3132833952
  0
LINE
  5
386
100
AcDbEntity
  8
0
100
AcDbLine
 62
7
  6
CONTINUOUS
 10
-2.88127353
 20
-39.2540338794
 11
-3.73079953
 21
-37.9091338794
  0
LINE
  5
387
100
AcDbEntity
  8
0
100
AcDbLine
 62
7
  6
CONTINUOUS
 10
-4.81672853
 20
-36.9245718794
 11
-5.96690053
 21
-35.0966658794
  0
LINE
  5
388
100
AcDbEntity
  8
0
100
AcDbLine
 62
7
  6
CONTINUOUS
 10
-5.90120253
 20
-34.6751858794
 11
-4.76959353
 21
-36.5017188794
  0
LINE
  5
389
100
AcDbEntity
  8
0
100
AcDbLine
 62
7
  6
CONTINUOUS
 10
-3.37664853
 20
-37.9091338794
 11
-2.73095053
 21
-38.9901498794
  0
LINE
  5
38A
100
AcDbEntity
  8
DRAFT
100
AcDbLine
 62
7
  6
CONTINUOUS
 10
-34.0922251144
 20
63.3609323726
 11
-34.06953353
 21
63.1782292875
  0
LWPOLYLINE
  5
38B
100
AcDbEntity
  8
RACCORDO
100
AcDbPolyline
 62
253
  6
CONTINUOUS
 90
11
 70
0
 10
-16.8421403526
 20
-14.2949854714
 10
-16.8430149101
 20
-14.2544280389
 10
-16.84403038
 20
-14.2161641504
 10
-16.8451779714
 20
-14.1805250488
 10
-16.8464477498
 20
-14.1478192527
 10
-16.8478287227
 20
-14.1183298914
 10
-16.8493089354
 20
-14.0923122455
 10
-16.8508755741
 20
-14.0699915388
 10
-16.8525150769
 20
-14.0515609975
 10
-16.8542132508
 20
-14.0371801743
 10
-16.8559553949
 20
-14.0269735625
  0
LINE
  5
38C
100
AcDbEntity
  8
RACCORDO
100
AcDbLine
 62
253
  6
CONTINUOUS
 10
-16.8408429735
 20
-14.381559759
 11
-16.8421403526
 21
-14.2949854714
  0
LWPOLYLINE
  5
38D
100
AcDbEntity
  8
RACCORDO
100
AcDbPolyline
 62
253
  6
CONTINUOUS
 90
3
 70
0
 10
-16.840100187
 20
-14.5193664841
 10
-16.8401830713
 20
-14.4728956679
 10
-16.8408429735
 20
-14.381559759
  0
LINE
  5
38E
100
AcDbEntity
  8
RACCORDO
100
AcDbLine
 62
253
  6
CONTINUOUS
 10
-16.840100187
 20
39.3196087252
 11
-16.8404313822
 21
39.2270695365
  0
LWPOLYLINE
  5
38F
100
AcDbEntity
  8
RACCORDO
100
AcDbPolyline
 62
253
  6
CONTINUOUS
 90
13
 70
0
 10
-16.8404313822
 20
39.2270695365
 10
-16.8414142751
 20
39.1377278057
 10
-16.842140348
 20
39.0952279423
 10
-16.8430149044
 20
39.0546705106
 10
-16.8440303735
 20
39.0164066102
 10
-16.8451779644
 20
38.9807674862
 10
-16.8464477426
 20
38.9480616613
 10
-16.8478287159
 20
38.918572265
 10
-16.8493089293
 20
38.8925545827
 10
-16.850875569
 20
38.8702338457
 10
-16.8525150726
 20
38.8518032814
 10
-16.8542132473
 20
38.8374224405
 10
-16.8559553922
 20
38.8272158158
  0
LINE
  5
390
100
AcDbEntity
  8
RACCORDO
100
AcDbLine
 62
253
  6
CONTINUOUS
 10
39.1682479246
 20
69.1379787275
 11
39.18046647
 21
69.150197273
  0
LINE
  5
391
100
AcDbEntity
  8
SMUSSO
100
AcDbLine
 62
7
  6
CONTINUOUS
 10
-30.8160385293
 20
-1.3963838787
 11
-30.7355771692
 21
-1.3159225187
  0
LINE
  5
392
100
AcDbEntity
  8
DRAFT
100
AcDbLine
 62
7
  6
CONTINUOUS
 10
34.18046647
 20
63.4001211206
 11
34.0965101093
 21
63.3161647598
  0
LINE
  5
393
100
AcDbEntity
  8
DRAFT
100
AcDbLine
 62
7
  6
CONTINUOUS
 10
17.2790490702
 20
43.6987037207
 11
17.2101400804
 21
43.6297947309
  0
LINE
  5
394
100
AcDbEntity
  8
DRAFT
100
AcDbLine
 62
7
  6
CONTINUOUS
 10
-28.3492071404
 20
-2.6295524898
 11
-28.4061290142
 21
-2.6864743636
  0
LINE
  5
395
100
AcDbEntity
  8
DRAFT
100
AcDbLine
 62
7
  6
CONTINUOUS
 10
31.7670619542
 20
54.1867166048
 11
31.7101400804
 21
54.1297947309
  0
LINE
  5
396
100
AcDbEntity
  8
DRAFT
100
AcDbLine
 62
7
  6
CONTINUOUS
 10
30.3924062384
 20
52.812060889
 11
30.4507928596
 21
52.8704475102
  0
LINE
  5
397
100
AcDbEntity
  8
SMUSSO
100
AcDbLine
 62
7
  6
CONTINUOUS
 10
34.1769714693
 20
-18.8033738802
 11
32.6507928596
 21
-18.8295524898
  0
LINE
  5
398
100
AcDbEntity
  8
SMUSSO
100
AcDbLine
 62
7
  6
CONTINUOUS
 10
-30.8160385293
 20
-17.5963838787
 11
-29.2898599196
 21
-17.5702052691
  0
LINE
  5
399
100
AcDbEntity
  8
SUPERFICI
100
AcDbLine
 62
7
  6
CONTINUOUS
 10
-11.89248753
 20
-20.4015598794
 11
-9.47551853
 21
-20.4015598794
  0
LINE
  5
39A
100
AcDbEntity
  8
SUPERFICI
100
AcDbLine
 62
7
  6
CONTINUOUS
 10
-9.21180353
 20
-20.4015598794
 11
-6.80864453
 21
-20.4015598794
  0
LINE
  5
39B
100
AcDbEntity
  8
SUPERFICI
100
AcDbLine
 62
7
  6
CONTINUOUS
 10
-5.43061553
 20
-20.4015598794
 11
-2.59266253
 21
-20.4015598794
  0
LINE
  5
39C
100
AcDbEntity
  8
SUPERFICI
100
AcDbLine
 62
7
  6
CONTINUOUS
 10
-2.24858653
 20
-20.3990658794
 11
-1.40853553
 21
-20.3990658794
  0
LINE
  5
39D
100
AcDbEntity
  8
SUPERFICI
100
AcDbLine
 62
7
  6
CONTINUOUS
 10
-0.42732553
 20
-20.3990658794
 11
0.41253347
 21
-20.3990658794
  0
LINE
  5
39E
100
AcDbEntity
  8
SMUSSO
100
AcDbLine
 62
7
  6
CONTINUOUS
 10
-29.2898599196
 20
-18.8295524898
 11
-28.3492071404
 21
-18.8295524898
  0
LINE
  5
39F
100
AcDbEntity
  8
DRAFT
100
AcDbLine
 62
7
  6
CONTINUOUS
 10
-27.0898599196
 20
-18.8295524898
 11
-13.8492071404
 21
-18.8295524898
  0
LINE
  5
3A0
100
AcDbEntity
  8
DRAFT
100
AcDbLine
 62
7
  6
CONTINUOUS
 10
-12.5898599196
 20
-18.8295524898
 11
1.0507928596
 21
-18.8295524898
  0
LINE
  5
3A1
100
AcDbEntity
  8
DRAFT
100
AcDbLine
 62
7
  6
CONTINUOUS
 10
2.3101400804
 20
-18.8295524898
 11
15.9507928596
 21
-18.8295524898
  0
LINE
  5
3A2
100
AcDbEntity
  8
DRAFT
100
AcDbLine
 62
7
  6
CONTINUOUS
 10
17.2101400804
 20
-18.8295524898
 11
30.4507928596
 21
-18.8295524898
  0
LINE
  5
3A3
100
AcDbEntity
  8
SMUSSO
100
AcDbLine
 62
7
  6
CONTINUOUS
 10
31.7101400804
 20
-18.8295524898
 11
32.6507928596
 21
-18.8295524898
  0
LINE
  5
3A4
100
AcDbEntity
  8
SMUSSO
100
AcDbLine
 62
7
  6
CONTINUOUS
 10
32.6507928596
 20
-17.5702052691
 11
31.7101400804
 21
-17.5702052691
  0
LINE
  5
3A5
100
AcDbEntity
  8
DRAFT
100
AcDbLine
 62
7
  6
CONTINUOUS
 10
30.4507928596
 20
-17.5702052691
 11
-27.0898599196
 21
-17.5702052691
  0
LINE
  5
3A6
100
AcDbEntity
  8
SMUSSO
100
AcDbLine
 62
7
  6
CONTINUOUS
 10
-28.3492071404
 20
-17.5702052691
 11
-29.2898599196
 21
-17.5702052691
  0
LINE
  5
3A7
100
AcDbEntity
  8
SMUSSO
100
AcDbLine
 62
7
  6
CONTINUOUS
 10
-29.2898599196
 20
-18.8295524898
 11
-30.8160385293
 21
-18.8033738802
  0
LINE
  5
3A8
100
AcDbEntity
  8
SMUSSO
100
AcDbLine
 62
7
  6
CONTINUOUS
 10
32.6507928596
 20
-17.5702052691
 11
34.1769714693
 21
-17.5963838787
  0
LWPOLYLINE
  5
3A9
100
AcDbEntity
  8
0
100
AcDbPolyline
 62
7
  6
CONTINUOUS
 90
13
 70
0
 10
-2.139929142
 20
-25.8839169561
 10
-2.170376165
 20
-25.8541658667
 10
-2.2014033968
 20
-25.827234584
 10
-2.2330108365
 20
-25.8031231077
 10
-2.2650834959
 20
-25.781960092
 10
-2.297736361
 20
-25.7636168828
 10
-2.3313143922
 20
-25.7477075183
 10
-2.3657662501
 20
-25.7341077565
 10
-2.4011432704
 20
-25.7229418394
 10
-2.4379444245
 20
-25.7141965302
 10
-2.4763360336
 20
-25.7078674168
 10
-2.5161517701
 20
-25.7039589113
 10
-2.5573916306
 20
-25.7024710139
  0
LINE
  5
3AA
100
AcDbEntity
  8
DRAFT
100
AcDbLine
 62
7
  6
CONTINUOUS
 10
-37.2898599196
 20
8.6326660556
 11
-37.3073149845
 21
8.6501211206
  0
LINE
  5
3AB
100
AcDbEntity
  8
DRAFT
100
AcDbLine
 62
7
  6
CONTINUOUS
 10
2.3834424144
 20
-29.4028548238
 11
2.3101400804
 21
-29.3295524898
  0
LINE
  5
3AC
100
AcDbEntity
  8
DRAFT
100
AcDbLine
 62
7
  6
CONTINUOUS
 10
0.9774905256
 20
-27.9969029351
 11
1.0507928596
 21
-28.0702052691
  0
LINE
  5
3AD
100
AcDbEntity
  8
SMUSSO
100
AcDbLine
 62
7
  6
CONTINUOUS
 10
15.9769714693
 20
-42.8463838787
 11
15.8811300127
 21
-42.7505424221
  0
LWPOLYLINE
  5
3AE
100
AcDbEntity
  8
0
100
AcDbPolyline
 62
7
  6
CONTINUOUS
 90
13
 70
0
 10
-3.0939373716
 20
-26.8092196216
 10
-3.0627392976
 20
-26.8436839939
 10
-3.0293078244
 20
-26.8755577418
 10
-2.9936429476
 20
-26.9048408651
 10
-2.9555733673
 20
-26.9317485794
 10
-2.9152703736
 20
-26.9560656691
 10
-2.8732478479
 20
-26.9771464883
 10
-2.8294240446
 20
-26.9947903824
 10
-2.7838807011
 20
-27.009198006
 10
-2.7373769271
 20
-27.0203256768
 10
-2.6901657585
 20
-27.0281588341
 10
-2.6419941556
 20
-27.0327120387
 10
-2.5928621163
 20
-27.0339852905
  0
LWPOLYLINE
  5
3AF
100
AcDbEntity
  8
0
100
AcDbPolyline
 62
7
  6
CONTINUOUS
 90
10
 70
0
 10
-2.3281965275
 20
-26.0394423107
 10
-2.3057184168
 20
-26.0656975648
 10
-2.2857214006
 20
-26.0944595761
 10
-2.2682054813
 20
-26.1257283447
 10
-2.2530788549
 20
-26.1595217687
 10
-2.2404333295
 20
-26.1958219499
 10
-2.2305443267
 20
-26.2345751942
 10
-2.2235036545
 20
-26.2757636036
 10
-2.2192195072
 20
-26.3194050761
 10
-2.2176918854
 20
-26.3654996117
  0
LWPOLYLINE
  5
3B0
100
AcDbEntity
  8
0
100
AcDbPolyline
 62
7
  6
CONTINUOUS
 90
10
 70
0
 10
-2.3398941032
 20
-25.2993739455
 10
-2.3257397085
 20
-25.3164432457
 10
-2.3125656624
 20
-25.3351441832
 10
-2.3003719656
 20
-25.3554767581
 10
-2.2892125422
 20
-25.3775517144
 10
-2.2790334693
 20
-25.401258308
 10
-2.2696729769
 20
-25.4262643066
 10
-2.2610771418
 20
-25.4524589663
 10
-2.2532998879
 20
-25.479953031
 10
-2.2463412156
 20
-25.5087465009
  0
LINE
  5
3B1
100
AcDbEntity
  8
SUPERFICI
100
AcDbLine
 62
7
  6
CONTINUOUS
 10
-6.11953353
 20
-22.9071358794
 11
-7.20009253
 21
-21.0279528794
  0
LINE
  5
3B2
100
AcDbEntity
  8
SUPERFICI
100
AcDbLine
 62
7
  6
CONTINUOUS
 10
-6.80864453
 20
-20.4015598794
 11
-6.11953353
 21
-21.5998788794
  0
LINE
  5
3B3
100
AcDbEntity
  8
0
100
AcDbLine
 62
7
  6
CONTINUOUS
 10
-6.48575253
 20
-31.4394168794
 11
-5.67080453
 21
-33.6888038794
  0
LINE
  5
3B4
100
AcDbEntity
  8
0
100
AcDbLine
 62
7
  6
CONTINUOUS
 10
-5.90284053
 20
-37.9091338794
 11
-5.08789253
 21
-40.1603408794
  0
LINE
  5
3B5
100
AcDbEntity
  8
0
100
AcDbLine
 62
7
  6
CONTINUOUS
 10
-5.42002353
 20
-40.1603408794
 11
-5.64259653
 21
-39.5051788794
  0
LINE
  5
3B6
100
AcDbEntity
  8
0
100
AcDbLine
 62
7
  6
CONTINUOUS
 10
-6.00293453
 20
-33.6888038794
 11
-6.22550753
 21
-33.0336428794
  0
LINE
  5
3B7
100
AcDbEntity
  8
0
100
AcDbLine
 62
7
  6
CONTINUOUS
 10
-9.66692353
 20
-31.4394168794
 11
-9.02130953
 21
-33.3506558794
  0
LINE
  5
3B8
100
AcDbEntity
  8
0
100
AcDbLine
 62
7
  6
CONTINUOUS
 10
-9.17482453
 20
-33.6888038794
 11
-9.80796553
 21
-31.8033958794
  0
LINE
  5
3B9
100
AcDbEntity
  8
0
100
AcDbLine
 62
7
  6
CONTINUOUS
 10
-5.75233553
 20
-39.2358348794
 11
-6.08761553
 21
-38.2369718794
  0
LINE
  5
3BA
100
AcDbEntity
  8
0
100
AcDbLine
 62
7
  6
CONTINUOUS
 10
-6.33524653
 20
-32.7642988794
 11
-6.67052753
 21
-31.7654328794
  0
LINE
  5
3BB
100
AcDbEntity
  8
SMUSSO
100
AcDbLine
 62
7
  6
CONTINUOUS
 10
-13.8230285307
 20
-42.8463838787
 11
-13.8492071404
 21
-39.8202052691
  0
LINE
  5
3BC
100
AcDbEntity
  8
SMUSSO
100
AcDbLine
 62
7
  6
CONTINUOUS
 10
-12.6160385293
 20
63.3966261198
 11
-12.5898599196
 21
60.3704475102
  0
LINE
  5
3BD
100
AcDbEntity
  8
DRAFT
100
AcDbLine
 62
7
  6
CONTINUOUS
 10
-13.9181161302
 20
63.3015385204
 11
-13.9181161302
 21
54.1987037207
  0
LINE
  5
3BE
100
AcDbEntity
  8
DRAFT
100
AcDbLine
 62
7
  6
CONTINUOUS
 10
-13.9181161302
 20
52.8015385204
 11
-13.9181161302
 21
43.6987037207
  0
LINE
  5
3BF
100
AcDbEntity
  8
DRAFT
100
AcDbLine
 62
7
  6
CONTINUOUS
 10
-13.9181161302
 20
-18.8984614796
 11
-13.9181161302
 21
-28.0012962793
  0
LINE
  5
3C0
100
AcDbEntity
  8
DRAFT
100
AcDbLine
 62
7
  6
CONTINUOUS
 10
-13.9181161302
 20
-29.3984614796
 11
-13.9181161302
 21
-42.7512962793
  0
LINE
  5
3C1
100
AcDbEntity
  8
SMUSSO
100
AcDbLine
 62
7
  6
CONTINUOUS
 10
-13.8492071404
 20
60.3704475102
 11
-13.8492071404
 21
54.1297947309
  0
LINE
  5
3C2
100
AcDbEntity
  8
DRAFT
100
AcDbLine
 62
7
  6
CONTINUOUS
 10
-13.8492071404
 20
52.8704475102
 11
-13.8492071404
 21
43.6297947309
  0
LINE
  5
3C3
100
AcDbEntity
  8
DRAFT
100
AcDbLine
 62
7
  6
CONTINUOUS
 10
-13.8492071404
 20
-18.8295524898
 11
-13.8492071404
 21
-28.0702052691
  0
LINE
  5
3C4
100
AcDbEntity
  8
SMUSSO
100
AcDbLine
 62
7
  6
CONTINUOUS
 10
-13.8492071404
 20
-29.3295524898
 11
-13.8492071404
 21
-39.8202052691
  0
LINE
  5
3C5
100
AcDbEntity
  8
SMUSSO
100
AcDbLine
 62
7
  6
CONTINUOUS
 10
-12.5898599196
 20
-39.8202052691
 11
-12.5898599196
 21
-29.3295524898
  0
LINE
  5
3C6
100
AcDbEntity
  8
DRAFT
100
AcDbLine
 62
7
  6
CONTINUOUS
 10
-12.5898599196
 20
-28.0702052691
 11
-12.5898599196
 21
-18.8295524898
  0
LINE
  5
3C7
100
AcDbEntity
  8
DRAFT
100
AcDbLine
 62
7
  6
CONTINUOUS
 10
-12.5898599196
 20
43.6297947309
 11
-12.5898599196
 21
52.8704475102
  0
LINE
  5
3C8
100
AcDbEntity
  8
SMUSSO
100
AcDbLine
 62
7
  6
CONTINUOUS
 10
-12.5898599196
 20
54.1297947309
 11
-12.5898599196
 21
60.3704475102
  0
LINE
  5
3C9
100
AcDbEntity
  8
DRAFT
100
AcDbLine
 62
7
  6
CONTINUOUS
 10
-12.5201970726
 20
63.3007846632
 11
-12.5201970726
 21
54.1994575779
  0
LINE
  5
3CA
100
AcDbEntity
  8
DRAFT
100
AcDbLine
 62
7
  6
CONTINUOUS
 10
-12.5201970726
 20
52.8007846632
 11
-12.5201970726
 21
43.6994575779
  0
LINE
  5
3CB
100
AcDbEntity
  8
DRAFT
100
AcDbLine
 62
7
  6
CONTINUOUS
 10
-12.5201970726
 20
-18.8992153368
 11
-12.5201970726
 21
-28.0005424221
  0
LINE
  5
3CC
100
AcDbEntity
  8
DRAFT
100
AcDbLine
 62
7
  6
CONTINUOUS
 10
-12.5201970726
 20
-29.3992153368
 11
-12.5201970726
 21
-42.7505424221
  0
LINE
  5
3CD
100
AcDbEntity
  8
SUPERFICI
100
AcDbLine
 62
7
  6
CONTINUOUS
 10
-11.89248753
 20
-22.9071358794
 11
-11.89248753
 21
-20.4015598794
  0
LINE
  5
3CE
100
AcDbEntity
  8
SUPERFICI
100
AcDbLine
 62
7
  6
CONTINUOUS
 10
-11.11994653
 20
-21.0279528794
 11
-11.11994653
 21
-21.3411498794
  0
LINE
  5
3CF
100
AcDbEntity
  8
SUPERFICI
100
AcDbLine
 62
7
  6
CONTINUOUS
 10
-11.11994653
 20
-21.9675448794
 11
-11.11994653
 21
-22.2807418794
  0
LINE
  5
3D0
100
AcDbEntity
  8
SUPERFICI
100
AcDbLine
 62
7
  6
CONTINUOUS
 10
-10.18054753
 20
-21.3411498794
 11
-10.18054753
 21
-21.9675448794
  0
LINE
  5
3D1
100
AcDbEntity
  8
0
100
AcDbLine
 62
7
  6
CONTINUOUS
 10
-10.10260553
 20
-33.6888038794
 11
-10.10260553
 21
-31.4394168794
  0
LINE
  5
3D2
100
AcDbEntity
  8
SMUSSO
100
AcDbLine
 62
7
  6
CONTINUOUS
 10
-13.8492071404
 20
60.3704475102
 11
-13.8230285307
 21
63.3966261198
  0
LINE
  5
3D3
100
AcDbEntity
  8
SMUSSO
100
AcDbLine
 62
7
  6
CONTINUOUS
 10
-12.5898599196
 20
-39.8202052691
 11
-12.6160385293
 21
-42.8463838787
  0
LINE
  5
3D4
100
AcDbEntity
  8
SMUSSO
100
AcDbLine
 62
7
  6
CONTINUOUS
 10
34.1769714693
 20
52.8966261198
 11
34.0965101093
 21
52.8161647598
  0
LINE
  5
3D5
100
AcDbEntity
  8
RACCORDO
100
AcDbLine
 62
253
  6
CONTINUOUS
 10
-38.0183919394
 20
-23.3998788794
 11
-38.3158533954
 21
-23.6973403354
  0
LINE
  5
3D6
100
AcDbEntity
  8
RACCORDO
100
AcDbLine
 62
253
  6
CONTINUOUS
 10
-24.750682975
 20
-6.2178730621
 11
-24.4629275567
 21
-5.9320600008
  0
LINE
  5
3D7
100
AcDbEntity
  8
RACCORDO
100
AcDbLine
 62
253
  6
CONTINUOUS
 10
20.2168883322
 20
38.8272158158
 11
19.9341619212
 21
38.5472066338
  0
LWPOLYLINE
  5
3D8
100
AcDbEntity
  8
RACCORDO
100
AcDbPolyline
 62
7
  6
CONTINUOUS
 90
40
 70
0
 10
19.9341619212
 20
-13.7469643927
 10
20.2605319633
 20
-13.7405176278
 10
20.5853135112
 20
-13.7211737841
 10
20.9085065417
 20
-13.6889328615
 10
21.2309021839
 20
-13.643650611
 10
21.5517092309
 20
-13.5854712816
 10
21.8685543532
 20
-13.5148276205
 10
22.181339856
 20
-13.4315483659
 10
22.4901638163
 20
-13.3358047796
 10
22.7929469324
 20
-13.2285433938
 10
23.0893952503
 20
-13.1097459477
 10
23.3798034873
 20
-12.9794307022
 10
23.6629756206
 20
-12.8385989725
 10
23.9385948496
 20
-12.6874404173
 10
24.206978942
 20
-12.525765378
 10
24.4678838418
 20
-12.3540061928
 10
24.7216654959
 20
-12.1719137118
 10
24.9679689161
 20
-11.979737085
 10
25.205483753
 20
-11.7786561007
 10
25.4339278413
 20
-11.5688814076
 10
25.6535844842
 20
-11.3502023571
 10
25.863991645
 20
-11.1231667913
 10
26.0653334111
 20
-10.8875410572
 10
26.2574267916
 20
-10.643558808
 10
26.4392592003
 20
-10.3924688448
 10
26.6105901728
 20
-10.1346548187
 10
26.771661284
 20
-9.8697330788
 10
26.9221830455
 20
-9.5978014734
 10
27.0623892434
 20
-9.3184803755
 10
27.1920470492
 20
-9.0321494123
 10
27.3101670634
 20
-8.7400453134
 10
27.4167168249
 20
-8.4418895901
 10
27.5117296343
 20
-8.1379607312
 10
27.5943147447
 20
-7.8303309318
 10
27.6642945922
 20
-7.5189100634
 10
27.7218473691
 20
-7.2037882546
 10
27.7666159231
 20
-6.8873080858
 10
27.7984813154
 20
-6.5702504174
 10
27.8175628127
 20
-6.251834389
 10
27.8238604967
 20
-5.9320600008
  0
LINE
  5
3D9
100
AcDbEntity
  8
RACCORDO
100
AcDbLine
 62
253
  6
CONTINUOUS
 10
20.201033127
 20
-14.5193664841
 11
-16.840100187
 21
-14.5193664841
  0
LINE
  5
3DA
100
AcDbEntity
  8
RACCORDO
100
AcDbLine
 62
7
  6
CONTINUOUS
 10
-16.5732289812
 20
-13.7469643927
 11
19.9341619212
 21
-13.7469643927
  0
LINE
  5
3DB
100
AcDbEntity
  8
RACCORDO
100
AcDbLine
 62
253
  6
CONTINUOUS
 10
20.2168883322
 20
-14.0269735747
 11
-16.8559553922
 21
-14.0269735747
  0
LWPOLYLINE
  5
3DC
100
AcDbEntity
  8
RACCORDO
100
AcDbPolyline
 62
253
  6
CONTINUOUS
 90
40
 70
0
 10
-16.8559553799
 20
-14.0269735625
 10
-17.1872275718
 20
-14.0210769852
 10
-17.5152821505
 20
-14.0020507207
 10
-17.8396250199
 20
-13.9701980548
 10
-18.1591555244
 20
-13.9259529571
 10
-18.4740613075
 20
-13.869583364
 10
-18.785772614
 20
-13.8009480833
 10
-19.0945953415
 20
-13.7199807106
 10
-19.3992917229
 20
-13.6270016669
 10
-19.6989602758
 20
-13.5223065618
 10
-19.9929917112
 20
-13.4062142337
 10
-20.2811680703
 20
-13.278925967
 10
-20.5632009324
 20
-13.140614704
 10
-20.838652154
 20
-12.9915771267
 10
-21.1071892003
 20
-12.8320780229
 10
-21.3686751337
 20
-12.6622168461
 10
-21.6228057343
 20
-12.4822227193
 10
-21.8691442128
 20
-12.2924402859
 10
-22.107350864
 20
-12.0931287383
 10
-22.3370796205
 20
-11.8846058553
 10
-22.5580059243
 20
-11.6672026068
 10
-22.7698341932
 20
-11.4412081966
 10
-22.9721779325
 20
-11.2070653919
 10
-23.1648311819
 20
-10.9650465199
 10
-23.347748185
 20
-10.7151680081
 10
-23.5206886343
 20
-10.4576825232
 10
-23.683290449
 20
-10.1930518795
 10
-23.8353007148
 20
-9.9215915624
 10
-23.9762309718
 20
-9.6441457162
 10
-24.1060771831
 20
-9.3606691562
 10
-24.2251640367
 20
-9.0700823408
 10
-24.33330522
 20
-8.7721309402
 10
-24.4298551834
 20
-8.4677866037
 10
-24.514338554
 20
-8.157781094
 10
-24.5864886546
 20
-7.8422012953
 10
-24.6459069834
 20
-7.521844907
 10
-24.6921410567
 20
-7.1985808043
 10
-24.7250405876
 20
-6.8733857975
 10
-24.7445796331
 20
-6.5463108864
 10
-24.7506829636
 20
-6.2178730508
  0
LWPOLYLINE
  5
3DD
100
AcDbEntity
  8
RACCORDO
100
AcDbPolyline
 62
253
  6
CONTINUOUS
 90
40
 70
0
 10
-16.840100187
 20
-14.5193664841
 10
-17.1917765036
 20
-14.5117696761
 10
-17.5390587569
 20
-14.4909259002
 10
-17.881947141
 20
-14.4568351564
 10
-18.2202632444
 20
-14.4093766624
 10
-18.5541859026
 20
-14.3486712006
 10
-18.8842511463
 20
-14.2750811177
 10
-19.2112654311
 20
-14.1884765849
 10
-19.5344226203
 20
-14.0889874309
 10
-19.8518399854
 20
-13.9773654888
 10
-20.1632761528
 20
-13.8536111546
 10
-20.468973244
 20
-13.7177240322
 10
-20.7677740473
 20
-13.5704547662
 10
-21.0596090215
 20
-13.4118164058
 10
-21.3445486689
 20
-13.2417959018
 10
-21.6216460252
 20
-13.0611047504
 10
-21.8909552807
 20
-12.8696704578
 10
-22.1524233543
 20
-12.6675655179
 10
-22.4049425379
 20
-12.4557189082
 10
-22.6484737052
 20
-12.2340971305
 10
-22.8830572325
 20
-12.0027336831
 10
-23.1077048112
 20
-11.7626580386
 10
-23.3223156062
 20
-11.5139540829
 10
-23.5269917623
 20
-11.2565379301
 10
-23.7210495303
 20
-10.9911873959
 10
-23.9045499804
 20
-10.717783715
 10
-24.0774332966
 20
-10.4364456526
 10
-24.2388344551
 20
-10.1483073201
 10
-24.3885833835
 20
-9.8538586855
 10
-24.5268513235
 20
-9.5526097807
 10
-24.6532852328
 20
-9.2442248119
 10
-24.7681880583
 20
-8.9280450363
 10
-24.8712578011
 20
-8.6047291967
 10
-24.961233996
 20
-8.2759177272
 10
-25.038008162
 20
-7.9411592351
 10
-25.1016895286
 20
-7.6009051131
 10
-25.1513441765
 20
-7.2581499735
 10
-25.1866609457
 20
-6.9138920206
 10
-25.2079514117
 20
-6.5671330501
 10
-25.2152156783
 20
-6.2178730621
  0
LINE
  5
3DE
100
AcDbEntity
  8
DRAFT
100
AcDbLine
 62
7
  6
CONTINUOUS
 10
31.1802482817
 20
-44.8481333729
 11
31.1683846094
 21
-44.837660334
  0
LINE
  5
3DF
100
AcDbEntity
  8
DRAFT
100
AcDbLine
 62
7
  6
CONTINUOUS
 10
-36.2369885949
 20
16.1675761855
 11
-36.21953353
 21
16.1501211206
  0
LINE
  5
3E0
100
AcDbEntity
  8
SMUSSO
100
AcDbLine
 62
7
  6
CONTINUOUS
 10
-30.7355771692
 20
11.7161647598
 11
-30.8160385293
 21
11.7966261198
  0
LINE
  5
3E1
100
AcDbEntity
  8
DRAFT
100
AcDbLine
 62
7
  6
CONTINUOUS
 10
2.3834424144
 20
-18.9028548238
 11
2.3101400804
 21
-18.8295524898
  0
LINE
  5
3E2
100
AcDbEntity
  8
DRAFT
100
AcDbLine
 62
7
  6
CONTINUOUS
 10
-28.3492071404
 20
13.0297947309
 11
-28.4061290142
 21
13.0867166048
  0
LINE
  5
3E3
100
AcDbEntity
  8
SUPERFICI
100
AcDbLine
 62
7
  6
CONTINUOUS
 10
-1.40853553
 20
-20.3990658794
 11
-0.91793053
 21
-21.0728328794
  0
LINE
  5
3E4
100
AcDbEntity
  8
SUPERFICI
100
AcDbLine
 62
7
  6
CONTINUOUS
 10
-1.33795653
 20
-21.6499358794
 11
-2.24858653
 21
-20.3990658794
  0
LINE
  5
3E5
100
AcDbEntity
  8
SUPERFICI
100
AcDbLine
 62
7
  6
CONTINUOUS
 10
-0.42732553
 20
-22.9008068794
 11
-0.91793053
 21
-22.2268478794
  0
LINE
  5
3E6
100
AcDbEntity
  8
SUPERFICI
100
AcDbLine
 62
7
  6
CONTINUOUS
 10
-0.49790453
 20
-21.6499358794
 11
0.41253347
 21
-22.9008068794
  0
LINE
  5
3E7
100
AcDbEntity
  8
SUPERFICI
100
AcDbLine
 62
7
  6
CONTINUOUS
 10
-2.59266253
 20
-20.4015598794
 11
-2.13734653
 21
-21.0279528794
  0
LWPOLYLINE
  5
3E8
100
AcDbEntity
  8
0
100
AcDbPolyline
 62
7
  6
CONTINUOUS
 90
10
 70
0
 10
-2.9519206134
 20
-26.5948144363
 10
-2.9629734605
 20
-26.5691782742
 10
-2.9727352961
 20
-26.5432143996
 10
-2.9812061211
 20
-26.5169228126
 10
-2.9883878746
 20
-26.4903195971
 10
-2.9942786186
 20
-26.4633886692
 10
-2.9988725384
 20
-26.4360817769
 10
-3.002167696
 20
-26.4083828363
 10
-3.0041660301
 20
-26.3803079314
 10
-3.0048675408
 20
-26.3518570622
  0
LWPOLYLINE
  5
3E9
100
AcDbEntity
  8
0
100
AcDbPolyline
 62
7
  6
CONTINUOUS
 90
25
 70
0
 10
-3.8305828479
 20
-32.5641106795
 10
-3.8324116616
 20
-32.4953656047
 10
-3.8364612341
 20
-32.4291965189
 10
-3.8427315649
 20
-32.3656034222
 10
-3.8510176898
 20
-32.3045376259
 10
-3.8615245707
 20
-32.2460478186
 10
-3.8748670946
 20
-32.1902800664
 10
-3.8913750305
 20
-32.1371818506
 10
-3.9107186032
 20
-32.0868056898
 10
-3.932523383
 20
-32.0394552067
 10
-3.9568436035
 20
-31.9952022425
 10
-3.9836250228
 20
-31.953974956
 10
-4.0123304992
 20
-31.9158614455
 10
-4.0427834494
 20
-31.8808714966
 10
-4.0751604484
 20
-31.8489953239
 10
-4.1094540918
 20
-31.8202916686
 10
-4.1456771109
 20
-31.7948320331
 10
-4.1838167638
 20
-31.7725449152
 10
-4.2238274358
 20
-31.7532745492
 10
-4.2656239103
 20
-31.7370071873
 10
-4.3092913918
 20
-31.7237565774
 10
-4.355039896
 20
-31.7134081979
 10
-4.4029394225
 20
-31.7059238748
 10
-4.4529199555
 20
-31.701341782
 10
-4.5049814863
 20
-31.6996619196
  0
LINE
  5
3EA
100
AcDbEntity
  8
0
100
AcDbLine
 62
7
  6
CONTINUOUS
 10
-9.80796553
 20
-31.8033958794
 11
-9.80796553
 21
-33.6888038794
  0
LINE
  5
3EB
100
AcDbEntity
  8
0
100
AcDbLine
 62
7
  6
CONTINUOUS
 10
-9.63889753
 20
-40.1603408794
 11
-9.63889753
 21
-37.9091338794
  0
LINE
  5
3EC
100
AcDbEntity
  8
0
100
AcDbLine
 62
7
  6
CONTINUOUS
 10
-9.5723984671
 20
-26.2959225138
 11
-9.5723984671
 21
-26.5210248491
  0
LINE
  5
3ED
100
AcDbEntity
  8
SUPERFICI
100
AcDbLine
 62
7
  6
CONTINUOUS
 10
-9.47551853
 20
-20.4015598794
 11
-9.47551853
 21
-21.0279528794
  0
LINE
  5
3EE
100
AcDbEntity
  8
0
100
AcDbLine
 62
7
  6
CONTINUOUS
 10
-9.33479353
 20
-37.9091338794
 11
-9.33479353
 21
-40.1603408794
  0
LINE
  5
3EF
100
AcDbEntity
  8
SUPERFICI
100
AcDbLine
 62
7
  6
CONTINUOUS
 10
-9.21180353
 20
-21.0279528794
 11
-9.21180353
 21
-20.4015598794
  0
LINE
  5
3F0
100
AcDbEntity
  8
SUPERFICI
100
AcDbLine
 62
7
  6
CONTINUOUS
 10
-9.19319953
 20
-22.2807418794
 11
-9.19319953
 21
-22.9071358794
  0
LINE
  5
3F1
100
AcDbEntity
  8
0
100
AcDbLine
 62
7
  6
CONTINUOUS
 10
-9.00866853
 20
-38.1784778794
 11
-9.00866853
 21
-37.9091338794
  0
LINE
  5
3F2
100
AcDbEntity
  8
SUPERFICI
100
AcDbLine
 62
7
  6
CONTINUOUS
 10
-8.92737553
 20
-22.9071358794
 11
-8.92737553
 21
-21.3411498794
  0
LINE
  5
3F3
100
AcDbEntity
  8
0
100
AcDbLine
 62
7
  6
CONTINUOUS
 10
-8.7047313323
 20
-25.3941490611
 11
-8.7047313323
 21
-26.2959225138
  0
LINE
  5
3F4
100
AcDbEntity
  8
0
100
AcDbLine
 62
7
  6
CONTINUOUS
 10
-8.7047313323
 20
-26.5210248491
 11
-8.7047313323
 21
-26.9998788794
  0
LINE
  5
3F5
100
AcDbEntity
  8
0
100
AcDbLine
 62
7
  6
CONTINUOUS
 10
-8.4591652026
 20
-26.9998788794
 11
-8.4591652026
 21
-26.5210248491
  0
LINE
  5
3F6
100
AcDbEntity
  8
0
100
AcDbLine
 62
7
  6
CONTINUOUS
 10
-8.4591652026
 20
-26.2959225138
 11
-8.4591652026
 21
-24.9998788794
  0
LINE
  5
3F7
100
AcDbEntity
  8
0
100
AcDbLine
 62
7
  6
CONTINUOUS
 10
-8.24704353
 20
-40.1603408794
 11
-8.24704353
 21
-38.1784778794
  0
LINE
  5
3F8
100
AcDbEntity
  8
0
100
AcDbLine
 62
7
  6
CONTINUOUS
 10
-8.24085653
 20
-33.6888038794
 11
-8.24085653
 21
-31.7997558794
  0
LINE
  5
3F9
100
AcDbEntity
  8
0
100
AcDbLine
 62
7
  6
CONTINUOUS
 10
-8.1890424361
 20
-26.5210248491
 11
-8.1890424361
 21
-26.2959225138
  0
LINE
  5
3FA
100
AcDbEntity
  8
SUPERFICI
100
AcDbLine
 62
7
  6
CONTINUOUS
 10
-8.17113753
 20
-21.3411498794
 11
-8.17113753
 21
-22.2807418794
  0
LINE
  5
3FB
100
AcDbEntity
  8
0
100
AcDbLine
 62
7
  6
CONTINUOUS
 10
-8.01953353
 20
30.8001211206
 11
-8.01953353
 21
-5.9998788794
  0
LINE
  5
3FC
100
AcDbEntity
  8
0
100
AcDbLine
 62
7
  6
CONTINUOUS
 10
-7.94621553
 20
-31.4394168794
 11
-7.94621553
 21
-33.6888038794
  0
LINE
  5
3FD
100
AcDbEntity
  8
0
100
AcDbLine
 62
7
  6
CONTINUOUS
 10
-7.94312153
 20
-38.1784778794
 11
-7.94312153
 21
-40.1603408794
  0
LINE
  5
3FE
100
AcDbEntity
  8
0
100
AcDbLine
 62
7
  6
CONTINUOUS
 10
-7.7497517933
 20
-25.4937397202
 11
-7.7497517933
 21
-25.731120344
  0
LINE
  5
3FF
100
AcDbEntity
  8
0
100
AcDbLine
 62
7
  6
CONTINUOUS
 10
-7.258619534
 20
-25.4350767096
 11
-7.258619534
 21
-26.9998788794
  0
LINE
  5
400
100
AcDbEntity
  8
0
100
AcDbLine
 62
7
  6
CONTINUOUS
 10
-7.18149653
 20
-37.9091338794
 11
-7.18149653
 21
-38.1784778794
  0
LINE
  5
401
100
AcDbEntity
  8
0
100
AcDbLine
 62
7
  6
CONTINUOUS
 10
-7.08595253
 20
-36.9245718794
 11
-7.08595253
 21
-34.6751858794
  0
LINE
  5
402
100
AcDbEntity
  8
0
100
AcDbLine
 62
7
  6
CONTINUOUS
 10
-7.0130534043
 20
-26.9998788794
 11
-7.0130534043
 21
-24.9916932544
  0
LINE
  5
403
100
AcDbEntity
  8
0
100
AcDbLine
 62
7
  6
CONTINUOUS
 10
-6.78184853
 20
-34.6751858794
 11
-6.78184853
 21
-36.9245718794
  0
LINE
  5
404
100
AcDbEntity
  8
SUPERFICI
100
AcDbLine
 62
7
  6
CONTINUOUS
 10
-6.75801053
 20
-22.2807418794
 11
-6.75801053
 21
-22.9071358794
  0
LINE
  5
405
100
AcDbEntity
  8
0
100
AcDbLine
 62
7
  6
CONTINUOUS
 10
-6.26172353
 20
-36.9245718794
 11
-6.26172353
 21
-34.6751858794
  0
LINE
  5
406
100
AcDbEntity
  8
0
100
AcDbLine
 62
7
  6
CONTINUOUS
 10
-6.1958637108
 20
-25.4937397202
 11
-6.1958637108
 21
-25.731120344
  0
LINE
  5
407
100
AcDbEntity
  8
0
100
AcDbLine
 62
7
  6
CONTINUOUS
 10
-5.96690053
 20
-35.0966658794
 11
-5.96690053
 21
-36.9245718794
  0
LINE
  5
408
100
AcDbEntity
  8
0
100
AcDbLine
 62
7
  6
CONTINUOUS
 10
-5.7047314515
 20
-25.4350767096
 11
-5.7047314515
 21
-26.9998788794
  0
LINE
  5
409
100
AcDbEntity
  8
0
100
AcDbLine
 62
7
  6
CONTINUOUS
 10
-5.4591650834
 20
-26.9998788794
 11
-5.4591650834
 21
-24.9916932544
  0
LINE
  5
40A
100
AcDbEntity
  8
0
100
AcDbLine
 62
7
  6
CONTINUOUS
 10
-5.37616353
 20
-33.6888038794
 11
-5.37616353
 21
-31.4394168794
  0
LINE
  5
40B
100
AcDbEntity
  8
0
100
AcDbLine
 62
7
  6
CONTINUOUS
 10
-5.07224153
 20
-31.6996618794
 11
-5.07224153
 21
-33.4285598794
  0
LINE
  5
40C
100
AcDbEntity
  8
SUPERFICI
100
AcDbLine
 62
7
  6
CONTINUOUS
 10
-4.97472453
 20
-22.9071358794
 11
-4.97472453
 21
-21.3411498794
  0
LINE
  5
40D
100
AcDbEntity
  8
0
100
AcDbLine
 62
7
  6
CONTINUOUS
 10
-4.80890353
 20
-40.1603408794
 11
-4.80890353
 21
-37.9091338794
  0
LINE
  5
40E
100
AcDbEntity
  8
0
100
AcDbLine
 62
7
  6
CONTINUOUS
 10
-4.76959353
 20
-36.5017188794
 11
-4.76959353
 21
-34.6751858794
  0
LINE
  5
40F
100
AcDbEntity
  8
0
100
AcDbLine
 62
7
  6
CONTINUOUS
 10
-4.6419753899
 20
-25.4937397202
 11
-4.6419753899
 21
-25.731120344
  0
LWPOLYLINE
  5
410
100
AcDbEntity
  8
0
100
AcDbPolyline
 62
7
  6
CONTINUOUS
 90
22
 70
0
 10
-8.01953353
 20
30.8001211206
 10
-8.0172162116
 20
30.8604056844
 10
-8.0105298828
 20
30.9197465277
 10
-7.9994745398
 20
30.9781436505
 10
-7.9839176073
 20
31.0359586047
 10
-7.9639916462
 20
31.0928298385
 10
-7.9400943551
 20
31.1476726956
 10
-7.9122349727
 20
31.2003356566
 10
-7.8804042352
 20
31.250970241
 10
-7.8449720874
 20
31.2989463515
 10
-7.8057655999
 20
31.3443600391
 10
-7.7629576693
 20
31.3871152528
 10
-7.7174369832
 20
31.4262937416
 10
-7.6691945582
 20
31.4617490732
 10
-7.618239348
 20
31.4936276798
 10
-7.5654869552
 20
31.5214506067
 10
-7.5110029078
 20
31.5451374565
 10
-7.4547216566
 20
31.5647686265
 10
-7.3973621984
 20
31.5801063542
 10
-7.3391641965
 20
31.5910713853
 10
-7.2798879759
 20
31.5977429741
 10
-7.21953353
 20
31.6001211206
  0
LINE
  5
411
100
AcDbEntity
  8
RACCORDO
100
AcDbLine
 62
253
  6
CONTINUOUS
 10
-37.71953353
 20
-23.6987372889
 11
-38.016994986
 21
-23.9961987448
  0
LINE
  5
412
100
AcDbEntity
  8
SMUSSO
100
AcDbLine
 62
7
  6
CONTINUOUS
 10
-30.8160385293
 20
-17.5963838787
 11
-30.7355771692
 21
-17.5159225187
  0
LINE
  5
413
100
AcDbEntity
  8
DRAFT
100
AcDbLine
 62
7
  6
CONTINUOUS
 10
31.7670619542
 20
43.6867166048
 11
31.7101400804
 21
43.6297947309
  0
LINE
  5
414
100
AcDbEntity
  8
DRAFT
100
AcDbLine
 62
7
  6
CONTINUOUS
 10
30.3924062384
 20
42.312060889
 11
30.4507928596
 21
42.3704475102
  0
LINE
  5
415
100
AcDbEntity
  8
DRAFT
100
AcDbLine
 62
7
  6
CONTINUOUS
 10
-28.4061290142
 20
-18.8864743636
 11
-28.3492071404
 21
-18.8295524898
  0
LINE
  5
416
100
AcDbEntity
  8
DRAFT
100
AcDbLine
 62
7
  6
CONTINUOUS
 10
-27.0314732984
 20
-17.5118186478
 11
-27.0898599196
 21
-17.5702052691
  0
LINE
  5
417
100
AcDbEntity
  8
RACCORDO
100
AcDbLine
 62
253
  6
CONTINUOUS
 10
-39.91953353
 20
-31.50102047
 11
-39.622072074
 21
-31.203559014
  0
LINE
  5
418
100
AcDbEntity
  8
SMUSSO
100
AcDbLine
 62
7
  6
CONTINUOUS
 10
34.1769714693
 20
42.3966261198
 11
34.0965101093
 21
42.3161647598
  0
LINE
  5
419
100
AcDbEntity
  8
RACCORDO
100
AcDbLine
 62
253
  6
CONTINUOUS
 10
-39.6206751206
 20
-31.7998788794
 11
-39.3232136646
 21
-31.5024174234
  0
LINE
  5
41A
100
AcDbEntity
  8
0
100
AcDbLine
 62
7
  6
CONTINUOUS
 10
-7.21953353
 20
-6.7998788794
 11
10.58046647
 21
-6.7998788794
  0
LINE
  5
41B
100
AcDbEntity
  8
RACCORDO
100
AcDbLine
 62
253
  6
CONTINUOUS
 10
28.5761486183
 20
-6.2178730621
 11
28.111615915
 21
-6.2178730621
  0
LINE
  5
41C
100
AcDbEntity
  8
RACCORDO
100
AcDbLine
 62
253
  6
CONTINUOUS
 10
-25.2152156783
 20
-6.2178730621
 11
-24.750682975
 21
-6.2178730621
  0
LWPOLYLINE
  5
41D
100
AcDbEntity
  8
0
100
AcDbPolyline
 62
7
  6
CONTINUOUS
 90
22
 70
0
 10
-7.21953353
 20
-6.7998788794
 10
-7.2798309089
 20
-6.7975598757
 10
-7.3391823333
 20
-6.7908711298
 10
-7.3975878087
 20
-6.7798126419
 10
-7.4554086218
 20
-6.7642515906
 10
-7.5122834954
 20
-6.7443207972
 10
-7.5671285962
 20
-6.7204187256
 10
-7.6197925465
 20
-6.6925547409
 10
-7.6704267492
 20
-6.6607194779
 10
-7.7184015519
 20
-6.625283306
 10
-7.7638130597
 20
-6.5860732917
 10
-7.8065651961
 20
-6.5432623684
 10
-7.8457400442
 20
-6.497739705
 10
-7.8811911109
 20
-6.449496412
 10
-7.9130649218
 20
-6.3985413789
 10
-7.9408830919
 20
-6.3457904425
 10
-7.964565205
 20
-6.2913090168
 10
-7.984191703
 20
-6.2350316877
 10
-7.9995254883
 20
-6.17767805
 10
-8.0104875331
 20
-6.1194879685
 10
-8.0171568791
 20
-6.0602215783
 10
-8.01953353
 20
-5.9998788794
  0
LINE
  5
41E
100
AcDbEntity
  8
SMUSSO
100
AcDbLine
 62
7
  6
CONTINUOUS
 10
30.4769714693
 20
-42.8463838787
 11
30.3924062384
 21
-42.7618186478
  0
LINE
  5
41F
100
AcDbEntity
  8
DRAFT
100
AcDbLine
 62
7
  6
CONTINUOUS
 10
17.2790490702
 20
-29.3984614796
 11
17.2101400804
 21
-29.3295524898
  0
LINE
  5
420
100
AcDbEntity
  8
DRAFT
100
AcDbLine
 62
7
  6
CONTINUOUS
 10
15.8811300127
 20
-28.0005424221
 11
15.9507928596
 21
-28.0702052691
  0
LINE
  5
421
100
AcDbEntity
  8
DRAFT
100
AcDbLine
 62
7
  6
CONTINUOUS
 10
34.0965101093
 20
-42.7659225187
 11
34.18046647
 21
-42.8498788794
  0
LINE
  5
422
100
AcDbEntity
  8
RACCORDO
100
AcDbLine
 62
253
  6
CONTINUOUS
 10
37.6805426224
 20
-44.8498788794
 11
37.668324077
 21
-44.837660334
  0
LWPOLYLINE
  5
423
100
AcDbEntity
  8
0
100
AcDbPolyline
 62
7
  6
CONTINUOUS
 90
10
 70
0
 10
-2.0021390786
 20
-25.4896469077
 10
-2.0111481081
 20
-25.4366525965
 10
-2.022996196
 20
-25.3868893753
 10
-2.0376833408
 20
-25.3403572443
 10
-2.0552652389
 20
-25.2972266754
 10
-2.0756861894
 20
-25.2573271966
 10
-2.0987790938
 20
-25.2201473918
 10
-2.1244882506
 20
-25.1855167888
 10
-2.1528693549
 20
-25.1536058596
 10
-2.1839224028
 20
-25.1244146045
  0
LWPOLYLINE
  5
424
100
AcDbEntity
  8
0
100
AcDbPolyline
 62
7
  6
CONTINUOUS
 90
13
 70
0
 10
-1.9666685929
 20
-26.3504927715
 10
-1.9681744779
 20
-26.3013408436
 10
-1.9720965622
 20
-26.2542367848
 10
-1.9784348451
 20
-26.2091805951
 10
-1.9872453409
 20
-26.16628762
 10
-1.9984720336
 20
-26.125442514
 10
-2.0119468777
 20
-26.0862992407
 10
-2.0276042938
 20
-26.0488376049
 10
-2.0455098582
 20
-26.0130778017
 10
-2.0656922586
 20
-25.9787343803
 10
-2.0881610561
 20
-25.9457121904
 10
-2.1129066849
 20
-25.9141063823
 10
-2.139929142
 20
-25.8839169561
  0
LWPOLYLINE
  5
425
100
AcDbEntity
  8
0
100
AcDbPolyline
 62
7
  6
CONTINUOUS
 90
28
 70
0
 10
-3.2872686257
 20
-26.0639989337
 10
-3.2868880106
 20
-26.1052089676
 10
-3.2859983671
 20
-26.1446520121
 10
-3.2845996951
 20
-26.1823280672
 10
-3.2826630647
 20
-26.2181034411
 10
-3.2802174057
 20
-26.2521118256
 10
-3.2773495078
 20
-26.2847542958
 10
-3.2740806866
 20
-26.3160281832
 10
-3.2703896263
 20
-26.3459361563
 10
-3.2662991698
 20
-26.3748872958
 10
-3.2618330139
 20
-26.4028952685
 10
-3.2569674616
 20
-26.4299464074
 10
-3.2516542642
 20
-26.4564087929
 10
-3.2459238467
 20
-26.4822938935
 10
-3.2397457839
 20
-26.5075902406
 10
-3.2329805517
 20
-26.5326315081
 10
-3.2256297313
 20
-26.5575204867
 10
-3.2176917411
 20
-26.5821543857
 10
-3.2090223125
 20
-26.6065585072
 10
-3.1996108132
 20
-26.6307982653
 10
-3.1894678746
 20
-26.6548082459
 10
-3.1784811237
 20
-26.6784175086
 10
-3.1666382284
 20
-26.7016467217
 10
-3.1539515196
 20
-26.7244752169
 10
-3.1403456181
 20
-26.746670049
 10
-3.1257953971
 20
-26.7681535696
 10
-3.1103259819
 20
-26.7890034272
 10
-3.0939373716
 20
-26.8092196216
  0
LINE
  5
426
100
AcDbEntity
  8
SMUSSO
100
AcDbLine
 62
7
  6
CONTINUOUS
 10
1.0769714693
 20
-42.8463838787
 11
1.0507928596
 21
-39.8202052691
  0
LINE
  5
427
100
AcDbEntity
  8
0
100
AcDbLine
 62
7
  6
CONTINUOUS
 10
-4.50498153
 20
-37.9091338794
 11
-4.50498153
 21
-39.8909968794
  0
LINE
  5
428
100
AcDbEntity
  8
0
100
AcDbLine
 62
7
  6
CONTINUOUS
 10
-4.47513553
 20
-34.6751858794
 11
-4.47513553
 21
-36.9245718794
  0
LINE
  5
429
100
AcDbEntity
  8
SUPERFICI
100
AcDbLine
 62
7
  6
CONTINUOUS
 10
-4.17558953
 20
-21.8406098794
 11
-4.17558953
 21
-22.4076768794
  0
LINE
  5
42A
100
AcDbEntity
  8
0
100
AcDbLine
 62
7
  6
CONTINUOUS
 10
-4.1508431305
 20
-25.4350767096
 11
-4.1508431305
 21
-26.9998788794
  0
LINE
  5
42B
100
AcDbEntity
  8
0
100
AcDbLine
 62
7
  6
CONTINUOUS
 10
-3.9052772393
 20
-26.9998788794
 11
-3.9052772393
 21
-24.9916932544
  0
LINE
  5
42C
100
AcDbEntity
  8
0
100
AcDbLine
 62
7
  6
CONTINUOUS
 10
-3.36409153
 20
-39.8909968794
 11
-3.36409153
 21
-40.1603408794
  0
LINE
  5
42D
100
AcDbEntity
  8
SUPERFICI
100
AcDbLine
 62
7
  6
CONTINUOUS
 10
-3.28209253
 20
-22.4076768794
 11
-3.28209253
 21
-21.8406098794
  0
LINE
  5
42E
100
AcDbEntity
  8
0
100
AcDbLine
 62
7
  6
CONTINUOUS
 10
-3.09765853
 20
-33.6888038794
 11
-3.09765853
 21
-31.4394168794
  0
LINE
  5
42F
100
AcDbEntity
  8
0
100
AcDbLine
 62
7
  6
CONTINUOUS
 10
-2.88127353
 20
-40.1603408794
 11
-2.88127353
 21
-39.2540338794
  0
LINE
  5
430
100
AcDbEntity
  8
0
100
AcDbLine
 62
7
  6
CONTINUOUS
 10
-2.79355453
 20
-31.7087608794
 11
-2.79355453
 21
-32.3985008794
  0
LINE
  5
431
100
AcDbEntity
  8
0
100
AcDbLine
 62
7
  6
CONTINUOUS
 10
-2.79355453
 20
-32.6678448794
 11
-2.79355453
 21
-33.4194598794
  0
LINE
  5
432
100
AcDbEntity
  8
0
100
AcDbLine
 62
7
  6
CONTINUOUS
 10
-2.57735153
 20
-39.2540338794
 11
-2.57735153
 21
-40.1603408794
  0
LINE
  5
433
100
AcDbEntity
  8
SUPERFICI
100
AcDbLine
 62
7
  6
CONTINUOUS
 10
-2.48295753
 20
-21.3411498794
 11
-2.48295753
 21
-22.9071358794
  0
LINE
  5
434
100
AcDbEntity
  8
0
100
AcDbLine
 62
7
  6
CONTINUOUS
 10
-1.56185153
 20
-32.3985008794
 11
-1.56185153
 21
-32.6678448794
  0
LINE
  5
435
100
AcDbEntity
  8
0
100
AcDbLine
 62
7
  6
CONTINUOUS
 10
-1.45848253
 20
-31.4394168794
 11
-1.45848253
 21
-31.7087608794
  0
LINE
  5
436
100
AcDbEntity
  8
0
100
AcDbLine
 62
7
  6
CONTINUOUS
 10
-1.43646153
 20
-33.4194598794
 11
-1.43646153
 21
-33.6888038794
  0
LWPOLYLINE
  5
437
100
AcDbEntity
  8
0
100
AcDbPolyline
 62
7
  6
CONTINUOUS
 90
25
 70
0
 10
-3.5186409656
 20
-32.5641106795
 10
-3.5192502193
 20
-32.6560120925
 10
-3.5244395128
 20
-32.7439803332
 10
-3.5342088444
 20
-32.8280154016
 10
-3.5489489749
 20
-32.9080869784
 10
-3.5682691357
 20
-32.9842253828
 10
-3.5909970313
 20
-33.0565215734
 10
-3.616914861
 20
-33.1250863244
 10
-3.6462404142
 20
-33.1898088614
 10
-3.6784547819
 20
-33.2504478202
 10
-3.7135264043
 20
-33.306905311
 10
-3.7514868275
 20
-33.3592792234
 10
-3.7919118025
 20
-33.407621862
 10
-3.8347204911
 20
-33.4518762429
 10
-3.8799937165
 20
-33.4920993499
 10
-3.9275497238
 20
-33.5285144387
 10
-3.977284004
 20
-33.5611328381
 10
-4.0293010492
 20
-33.5899432193
 10
-4.083732605
 20
-33.6151348517
 10
-4.1404943056
 20
-33.6368399207
 10
-4.1996704956
 20
-33.6549262409
 10
-4.2616459835
 20
-33.6691865255
 10
-4.3265490282
 20
-33.679551679
 10
-4.3942513409
 20
-33.686090797
 10
-4.4647529056
 20
-33.6888038794
  0
LINE
  5
438
100
AcDbEntity
  8
SMUSSO
100
AcDbLine
 62
7
  6
CONTINUOUS
 10
1.0507928596
 20
60.3704475102
 11
1.0769714693
 21
63.3966261198
  0
LWPOLYLINE
  5
439
100
AcDbEntity
  8
0
100
AcDbPolyline
 62
7
  6
CONTINUOUS
 90
10
 70
0
 10
-3.0430669655
 20
-25.9685009679
 10
-3.0421226371
 20
-25.9088960152
 10
-3.0395872126
 20
-25.8512648635
 10
-3.0354606916
 20
-25.7956075127
 10
-3.0298709557
 20
-25.7418215913
 10
-3.0226901224
 20
-25.6900094708
 10
-3.013534546
 20
-25.6404782659
 10
-3.0022763435
 20
-25.5933303484
 10
-2.9890433954
 20
-25.5484633465
 10
-2.9738357001
 20
-25.5058772602
  0
LWPOLYLINE
  5
43A
100
AcDbEntity
  8
0
100
AcDbPolyline
 62
7
  6
CONTINUOUS
 90
10
 70
0
 10
-2.2176918854
 20
-26.3654996117
 10
-2.2192486317
 20
-26.4133876545
 10
-2.2235960062
 20
-26.4587852652
 10
-2.2307340084
 20
-26.501692444
 10
-2.2407574859
 20
-26.5421207184
 10
-2.2535715885
 20
-26.5800585609
 10
-2.2688917693
 20
-26.6154713881
 10
-2.2866231778
 20
-26.6483476723
 10
-2.3068606603
 20
-26.6786989411
 10
-2.329604214
 20
-26.7065251947
  0
LWPOLYLINE
  5
43B
100
AcDbEntity
  8
0
100
AcDbPolyline
 62
7
  6
CONTINUOUS
 90
10
 70
0
 10
-3.0048675408
 20
-26.3518570622
 10
-3.0030882741
 20
-26.3078358031
 10
-2.9984869791
 20
-26.266214117
 10
-2.9910636551
 20
-26.2269920039
 10
-2.980744385
 20
-26.1902786567
 10
-2.9676030827
 20
-26.1559648825
 10
-2.9518614934
 20
-26.1237231024
 10
-2.9335935302
 20
-26.0934441235
 10
-2.9127252747
 20
-26.0652371387
 10
-2.8892567237
 20
-26.039102148
  0
LINE
  5
43C
100
AcDbEntity
  8
DRAFT
100
AcDbLine
 62
7
  6
CONTINUOUS
 10
-37.2898599196
 20
-33.9701361574
 11
-37.31953353
 21
-33.9998788794
  0
LINE
  5
43D
100
AcDbEntity
  8
DRAFT
100
AcDbLine
 62
7
  6
CONTINUOUS
 10
36.8023583031
 20
41.6220129536
 11
36.83046647
 21
41.6501211206
  0
LINE
  5
43E
100
AcDbEntity
  8
DRAFT
100
AcDbLine
 62
7
  6
CONTINUOUS
 10
38.1682479246
 20
41.0879025751
 11
38.18046647
 21
41.1001211206
  0
LINE
  5
43F
100
AcDbEntity
  8
SMUSSO
100
AcDbLine
 62
7
  6
CONTINUOUS
 10
-30.8160385293
 20
-28.0963838787
 11
-30.7355771692
 21
-28.0159225187
  0
LINE
  5
440
100
AcDbEntity
  8
RACCORDO
100
AcDbLine
 62
253
  6
CONTINUOUS
 10
38.6805426224
 20
41.1001211206
 11
38.668324077
 21
41.0879025751
  0
LINE
  5
441
100
AcDbEntity
  8
RACCORDO
100
AcDbLine
 62
253
  6
CONTINUOUS
 10
39.18046647
 20
40.600197273
 11
39.1682479246
 21
40.5879787275
  0
LINE
  5
442
100
AcDbEntity
  8
DRAFT
100
AcDbLine
 62
7
  6
CONTINUOUS
 10
-28.4061290142
 20
-29.3864743636
 11
-28.3492071404
 21
-29.3295524898
  0
LINE
  5
443
100
AcDbEntity
  8
DRAFT
100
AcDbLine
 62
7
  6
CONTINUOUS
 10
-27.0314732984
 20
-28.0118186478
 11
-27.0898599196
 21
-28.0702052691
  0
LINE
  5
444
100
AcDbEntity
  8
RACCORDO
100
AcDbLine
 62
253
  6
CONTINUOUS
 10
28.111615915
 20
31.0181153032
 11
27.8238604967
 21
30.7323022419
  0
LINE
  5
445
100
AcDbEntity
  8
RACCORDO
100
AcDbLine
 62
253
  6
CONTINUOUS
 10
-16.8559553922
 20
-14.0269735747
 11
-16.5732289812
 21
-13.7469643927
  0
LINE
  5
446
100
AcDbEntity
  8
SMUSSO
100
AcDbLine
 62
7
  6
CONTINUOUS
 10
34.1769714693
 20
-2.6033738802
 11
32.6507928596
 21
-2.6295524898
  0
LINE
  5
447
100
AcDbEntity
  8
SMUSSO
100
AcDbLine
 62
7
  6
CONTINUOUS
 10
-30.8160385293
 20
-1.3963838787
 11
-29.2898599196
 21
-1.3702052691
  0
LINE
  5
448
100
AcDbEntity
  8
SMUSSO
100
AcDbLine
 62
7
  6
CONTINUOUS
 10
-29.2898599196
 20
-2.6295524898
 11
-28.3492071404
 21
-2.6295524898
  0
LINE
  5
449
100
AcDbEntity
  8
SMUSSO
100
AcDbLine
 62
7
  6
CONTINUOUS
 10
31.7101400804
 20
-2.6295524898
 11
32.6507928596
 21
-2.6295524898
  0
LINE
  5
44A
100
AcDbEntity
  8
SMUSSO
100
AcDbLine
 62
7
  6
CONTINUOUS
 10
32.6507928596
 20
-1.3702052691
 11
31.7101400804
 21
-1.3702052691
  0
LINE
  5
44B
100
AcDbEntity
  8
SMUSSO
100
AcDbLine
 62
7
  6
CONTINUOUS
 10
-28.3492071404
 20
-1.3702052691
 11
-29.2898599196
 21
-1.3702052691
  0
LINE
  5
44C
100
AcDbEntity
  8
SMUSSO
100
AcDbLine
 62
7
  6
CONTINUOUS
 10
-29.2898599196
 20
-2.6295524898
 11
-30.8160385293
 21
-2.6033738802
  0
LINE
  5
44D
100
AcDbEntity
  8
SMUSSO
100
AcDbLine
 62
7
  6
CONTINUOUS
 10
32.6507928596
 20
-1.3702052691
 11
34.1769714693
 21
-1.3963838787
  0
LINE
  5
44E
100
AcDbEntity
  8
RACCORDO
100
AcDbLine
 62
253
  6
CONTINUOUS
 10
38.18046647
 20
-44.3499550319
 11
38.1682479246
 21
-44.3377364864
  0
LINE
  5
44F
100
AcDbEntity
  8
DRAFT
100
AcDbLine
 62
7
  6
CONTINUOUS
 10
37.4531580544
 20
-42.8725704638
 11
37.43046647
 21
-42.8498788794
  0
LINE
  5
450
100
AcDbEntity
  8
SMUSSO
100
AcDbLine
 62
7
  6
CONTINUOUS
 10
-30.7355771692
 20
26.1161647598
 11
-30.8160385293
 21
26.1966261198
  0
LINE
  5
451
100
AcDbEntity
  8
DRAFT
100
AcDbLine
 62
7
  6
CONTINUOUS
 10
36.8147042332
 20
-38.8217707125
 11
36.8428124001
 21
-38.8498788794
  0
LINE
  5
452
100
AcDbEntity
  8
DRAFT
100
AcDbLine
 62
7
  6
CONTINUOUS
 10
17.2790490702
 20
-18.8984614796
 11
17.2101400804
 21
-18.8295524898
  0
LINE
  5
453
100
AcDbEntity
  8
DRAFT
100
AcDbLine
 62
7
  6
CONTINUOUS
 10
-28.3492071404
 20
27.4297947309
 11
-28.4061290142
 21
27.4867166048
  0
LINE
  5
454
100
AcDbEntity
  8
DRAFT
100
AcDbLine
 62
7
  6
CONTINUOUS
 10
32.4289391518
 20
-42.8620974249
 11
32.4381845644
 21
-42.8725704638
  0
LINE
  5
455
100
AcDbEntity
  8
DRAFT
100
AcDbLine
 62
7
  6
CONTINUOUS
 10
0.9227483756
 20
-42.8725704638
 11
1.1683846094
 21
-44.837660334
  0
LINE
  5
456
100
AcDbEntity
  8
DRAFT
100
AcDbLine
 62
7
  6
CONTINUOUS
 10
0.9319937882
 20
-42.8620974249
 11
1.1802482817
 21
-44.8481333729
  0
LINE
  5
457
100
AcDbEntity
  8
SMUSSO
100
AcDbLine
 62
7
  6
CONTINUOUS
 10
2.2839614707
 20
63.3966261198
 11
2.3101400804
 21
60.3704475102
  0
LINE
  5
458
100
AcDbEntity
  8
DRAFT
100
AcDbLine
 62
7
  6
CONTINUOUS
 10
0.9774905256
 20
63.2971451762
 11
0.9774905256
 21
54.2030970649
  0
LINE
  5
459
100
AcDbEntity
  8
DRAFT
100
AcDbLine
 62
7
  6
CONTINUOUS
 10
0.9774905256
 20
52.7971451762
 11
0.9774905256
 21
43.7030970649
  0
LINE
  5
45A
100
AcDbEntity
  8
DRAFT
100
AcDbLine
 62
7
  6
CONTINUOUS
 10
0.9774905256
 20
-18.9028548238
 11
0.9774905256
 21
-27.9969029351
  0
LINE
  5
45B
100
AcDbEntity
  8
DRAFT
100
AcDbLine
 62
7
  6
CONTINUOUS
 10
0.9774905256
 20
-29.4028548238
 11
0.9774905256
 21
-42.7469029351
  0
LINE
  5
45C
100
AcDbEntity
  8
SMUSSO
100
AcDbLine
 62
7
  6
CONTINUOUS
 10
1.0507928596
 20
60.3704475102
 11
1.0507928596
 21
54.1297947309
  0
LINE
  5
45D
100
AcDbEntity
  8
DRAFT
100
AcDbLine
 62
7
  6
CONTINUOUS
 10
1.0507928596
 20
52.8704475102
 11
1.0507928596
 21
43.6297947309
  0
LINE
  5
45E
100
AcDbEntity
  8
DRAFT
100
AcDbLine
 62
7
  6
CONTINUOUS
 10
1.0507928596
 20
-18.8295524898
 11
1.0507928596
 21
-28.0702052691
  0
LINE
  5
45F
100
AcDbEntity
  8
SMUSSO
100
AcDbLine
 62
7
  6
CONTINUOUS
 10
1.0507928596
 20
-29.3295524898
 11
1.0507928596
 21
-39.8202052691
  0
LINE
  5
460
100
AcDbEntity
  8
SMUSSO
100
AcDbLine
 62
7
  6
CONTINUOUS
 10
2.3101400804
 20
-39.8202052691
 11
2.3101400804
 21
-29.3295524898
  0
LINE
  5
461
100
AcDbEntity
  8
DRAFT
100
AcDbLine
 62
7
  6
CONTINUOUS
 10
2.3101400804
 20
-28.0702052691
 11
2.3101400804
 21
-18.8295524898
  0
LINE
  5
462
100
AcDbEntity
  8
DRAFT
100
AcDbLine
 62
7
  6
CONTINUOUS
 10
2.3101400804
 20
43.6297947309
 11
2.3101400804
 21
52.8704475102
  0
LINE
  5
463
100
AcDbEntity
  8
SMUSSO
100
AcDbLine
 62
7
  6
CONTINUOUS
 10
2.3101400804
 20
54.1297947309
 11
2.3101400804
 21
60.3704475102
  0
LINE
  5
464
100
AcDbEntity
  8
DRAFT
100
AcDbLine
 62
7
  6
CONTINUOUS
 10
2.3834424144
 20
63.2971451762
 11
2.3834424144
 21
54.2030970649
  0
LINE
  5
465
100
AcDbEntity
  8
DRAFT
100
AcDbLine
 62
7
  6
CONTINUOUS
 10
2.3834424144
 20
52.7971451762
 11
2.3834424144
 21
43.7030970649
  0
LINE
  5
466
100
AcDbEntity
  8
DRAFT
100
AcDbLine
 62
7
  6
CONTINUOUS
 10
2.3834424144
 20
-18.9028548238
 11
2.3834424144
 21
-27.9969029351
  0
LINE
  5
467
100
AcDbEntity
  8
DRAFT
100
AcDbLine
 62
7
  6
CONTINUOUS
 10
2.3834424144
 20
-29.4028548238
 11
2.3834424144
 21
-42.7469029351
  0
LINE
  5
468
100
AcDbEntity
  8
SMUSSO
100
AcDbLine
 62
7
  6
CONTINUOUS
 10
2.3101400804
 20
-39.8202052691
 11
2.2839614707
 21
-42.8463838787
  0
LINE
  5
469
100
AcDbEntity
  8
0
100
AcDbLine
 62
7
  6
CONTINUOUS
 10
-8.24085653
 20
-31.7997558794
 11
-8.87399653
 21
-33.6888038794
  0
LINE
  5
46A
100
AcDbEntity
  8
0
100
AcDbLine
 62
7
  6
CONTINUOUS
 10
-9.02130953
 20
-33.3506558794
 11
-8.37880353
 21
-31.4394168794
  0
LINE
  5
46B
100
AcDbEntity
  8
0
100
AcDbLine
 62
7
  6
CONTINUOUS
 10
-7.12817353
 20
-33.0336428794
 11
-7.36330453
 21
-33.6888038794
  0
LINE
  5
46C
100
AcDbEntity
  8
0
100
AcDbLine
 62
7
  6
CONTINUOUS
 10
-6.67052753
 20
-31.7654328794
 11
-7.03408553
 21
-32.7642988794
  0
LINE
  5
46D
100
AcDbEntity
  8
0
100
AcDbLine
 62
7
  6
CONTINUOUS
 10
-7.67668953
 20
-33.6888038794
 11
-6.83043953
 21
-31.4394168794
  0
LWPOLYLINE
  5
46E
100
AcDbEntity
  8
0
100
AcDbPolyline
 62
7
  6
CONTINUOUS
 90
10
 70
0
 10
-7.171307074
 20
-24.9916932544
 10
-7.1875412858
 20
-25.0218053946
 10
-7.2058329368
 20
-25.051834207
 10
-7.2261820227
 20
-25.0817796915
 10
-7.2486600283
 20
-25.111663143
 10
-7.2731954585
 20
-25.1414632666
 10
-7.2995738388
 20
-25.1711161779
 10
-7.3277236743
 20
-25.2006005823
 10
-7.3577164483
 20
-25.2299377743
 10
-7.3895521543
 20
-25.2591277541
  0
LINE
  5
46F
100
AcDbEntity
  8
SUPERFICI
100
AcDbLine
 62
7
  6
CONTINUOUS
 10
-6.11953353
 20
-21.5998788794
 11
-5.43061553
 21
-20.4015598794
  0
LINE
  5
470
100
AcDbEntity
  8
SUPERFICI
100
AcDbLine
 62
7
  6
CONTINUOUS
 10
-5.03916653
 20
-21.0279528794
 11
-6.11953353
 21
-22.9071358794
  0
LINE
  5
471
100
AcDbEntity
  8
DRAFT
100
AcDbLine
 62
7
  6
CONTINUOUS
 10
-36.030344782
 20
-38.5606901315
 11
-35.81953353
 21
-38.3498788794
  0
LINE
  5
472
100
AcDbEntity
  8
DRAFT
100
AcDbLine
 62
7
  6
CONTINUOUS
 10
-33.4414253631
 20
-36.8217707125
 11
-33.46953353
 21
-36.8498788794
  0
LINE
  5
473
100
AcDbEntity
  8
DRAFT
100
AcDbLine
 62
7
  6
CONTINUOUS
 10
31.7101400804
 20
27.4297947309
 11
31.7670619542
 21
27.4867166048
  0
LINE
  5
474
100
AcDbEntity
  8
DRAFT
100
AcDbLine
 62
7
  6
CONTINUOUS
 10
-13.9181161302
 20
-18.8984614796
 11
-13.8492071404
 21
-18.8295524898
  0
LINE
  5
475
100
AcDbEntity
  8
RACCORDO
100
AcDbLine
 62
253
  6
CONTINUOUS
 10
-37.2898599196
 20
-44.3202814215
 11
-37.31953353
 21
-44.3499550319
  0
LINE
  5
476
100
AcDbEntity
  8
SMUSSO
100
AcDbLine
 62
7
  6
CONTINUOUS
 10
34.1769714693
 20
26.1966261198
 11
34.0965101093
 21
26.1161647598
  0
LINE
  5
477
100
AcDbEntity
  8
RACCORDO
100
AcDbLine
 62
253
  6
CONTINUOUS
 10
-36.789936072
 20
-44.8202052691
 11
-36.8196096824
 21
-44.8498788794
  0
LINE
  5
478
100
AcDbEntity
  8
RACCORDO
100
AcDbLine
 62
253
  6
CONTINUOUS
 10
20.2168883322
 20
-14.0269735747
 11
19.9341619212
 21
-13.7469643927
  0
LINE
  5
479
100
AcDbEntity
  8
RACCORDO
100
AcDbLine
 62
253
  6
CONTINUOUS
 10
-24.750682975
 20
31.0181153032
 11
-24.4629275567
 21
30.7323022419
  0
LINE
  5
47A
100
AcDbEntity
  8
DRAFT
100
AcDbLine
 62
7
  6
CONTINUOUS
 10
31.7670619542
 20
-29.3864743636
 11
31.7101400804
 21
-29.3295524898
  0
LINE
  5
47B
100
AcDbEntity
  8
DRAFT
100
AcDbLine
 62
7
  6
CONTINUOUS
 10
30.3924062384
 20
-28.0118186478
 11
30.4507928596
 21
-28.0702052691
  0
LINE
  5
47C
100
AcDbEntity
  8
SMUSSO
100
AcDbLine
 62
7
  6
CONTINUOUS
 10
34.0965101093
 20
-28.0159225187
 11
34.1769714693
 21
-28.0963838787
  0
LINE
  5
47D
100
AcDbEntity
  8
ASSI
100
AcDbLine
 62
7
  6
CONTINUOUS
 10
8.36587647
 20
-21.1626488794
 11
8.36587647
 21
-21.9331748794
  0
LINE
  5
47E
100
AcDbEntity
  8
ASSI
100
AcDbLine
 62
7
  6
CONTINUOUS
 10
8.36587647
 20
-25.4665588794
 11
8.36587647
 21
-26.2370848794
  0
LINE
  5
47F
100
AcDbEntity
  8
0
100
AcDbLine
 62
7
  6
CONTINUOUS
 10
11.38046647
 20
30.8001211206
 11
11.38046647
 21
-5.9998788794
  0
LWPOLYLINE
  5
480
100
AcDbEntity
  8
0
100
AcDbPolyline
 62
7
  6
CONTINUOUS
 90
22
 70
0
 10
11.38046647
 20
-5.9998788794
 10
11.3781491516
 20
-6.0601634433
 10
11.3714628228
 20
-6.1195042866
 10
11.3604074799
 20
-6.1779014093
 10
11.3448505473
 20
-6.2357163636
 10
11.3249245862
 20
-6.2925875973
 10
11.3010272951
 20
-6.3474304545
 10
11.2731679127
 20
-6.4000934155
 10
11.2413371752
 20
-6.4507279999
 10
11.2059050274
 20
-6.4987041103
 10
11.1666985399
 20
-6.544117798
 10
11.1238906093
 20
-6.5868730117
 10
11.0783699232
 20
-6.6260515004
 10
11.0301274982
 20
-6.661506832
 10
10.979172288
 20
-6.6933854387
 10
10.9264198952
 20
-6.7212083656
 10
10.8719358478
 20
-6.7448952153
 10
10.8156545966
 20
-6.7645263854
 10
10.7582951384
 20
-6.7798641131
 10
10.7000971365
 20
-6.7908291442
 10
10.6408209159
 20
-6.797500733
 10
10.58046647
 20
-6.7998788794
  0
LINE
  5
481
100
AcDbEntity
  8
DRAFT
100
AcDbLine
 62
7
  6
CONTINUOUS
 10
2.1806846583
 20
-44.8481333729
 11
2.4289391518
 21
-42.8620974249
  0
LINE
  5
482
100
AcDbEntity
  8
DRAFT
100
AcDbLine
 62
7
  6
CONTINUOUS
 10
2.1925483306
 20
-44.837660334
 11
2.4381845644
 21
-42.8725704638
  0
LINE
  5
483
100
AcDbEntity
  8
0
100
AcDbLine
 62
7
  6
CONTINUOUS
 10
-6.54526253
 20
-39.5051788794
 11
-6.78039253
 21
-40.1603408794
  0
LINE
  5
484
100
AcDbEntity
  8
0
100
AcDbLine
 62
7
  6
CONTINUOUS
 10
-6.08761553
 20
-38.2369718794
 11
-6.45135653
 21
-39.2358348794
  0
LINE
  5
485
100
AcDbEntity
  8
0
100
AcDbLine
 62
7
  6
CONTINUOUS
 10
-7.09377853
 20
-40.1603408794
 11
-6.24752853
 21
-37.9091338794
  0
LWPOLYLINE
  5
486
100
AcDbEntity
  8
0
100
AcDbPolyline
 62
7
  6
CONTINUOUS
 90
10
 70
0
 10
-2.9738357001
 20
-25.5058772602
 10
-2.9579304127
 20
-25.4699233798
 10
-2.9408769516
 20
-25.4361316053
 10
-2.9226753157
 20
-25.4045019366
 10
-2.9032720475
 20
-25.3750787851
 10
-2.8827206019
 20
-25.3478177395
 10
-2.861181346
 20
-25.322585566
 10
-2.8387077349
 20
-25.2993378535
 10
-2.8152463111
 20
-25.2781190132
 10
-2.7907970734
 20
-25.2589290451
  0
LWPOLYLINE
  5
487
100
AcDbEntity
  8
0
100
AcDbPolyline
 62
7
  6
CONTINUOUS
 90
10
 70
0
 10
-2.048523896
 20
-26.7011067202
 10
-2.0315821068
 20
-26.6653967116
 10
-2.0165939325
 20
-26.6289583307
 10
-2.0035593745
 20
-26.5917915775
 10
-1.9924676722
 20
-26.5540076545
 10
-1.9833295884
 20
-26.5154953593
 10
-1.9761774095
 20
-26.4759210841
 10
-1.9710218978
 20
-26.4351736264
 10
-1.9678522922
 20
-26.3933641889
 10
-1.9666685929
 20
-26.3504927715
  0
LWPOLYLINE
  5
488
100
AcDbEntity
  8
0
100
AcDbPolyline
 62
7
  6
CONTINUOUS
 90
10
 70
0
 10
-5.6174189915
 20
-24.9916932544
 10
-5.6336530733
 20
-25.0218051989
 10
-5.6519446212
 20
-25.0518338678
 10
-5.6722936315
 20
-25.0817792611
 10
-5.6947715852
 20
-25.1116626781
 10
-5.7193069927
 20
-25.1414628194
 10
-5.7456853954
 20
-25.1711157875
 10
-5.7738353039
 20
-25.200600283
 10
-5.8038281979
 20
-25.2299376052
 10
-5.8356640718
 20
-25.2591277541
  0
LWPOLYLINE
  5
489
100
AcDbEntity
  8
0
100
AcDbPolyline
 62
7
  6
CONTINUOUS
 90
10
 70
0
 10
-4.063530909
 20
-24.9916932544
 10
-4.0797648147
 20
-25.0218050372
 10
-4.0980562202
 20
-25.0518335872
 10
-4.1184051228
 20
-25.0817789044
 10
-4.1408830018
 20
-25.1116622912
 10
-4.165418371
 20
-25.1414624452
 10
-4.1917967791
 20
-25.1711154592
 10
-4.2199467399
 20
-25.2006000308
 10
-4.249939732
 20
-25.2299374625
 10
-4.2817757508
 20
-25.2591277541
  0
LINE
  5
48A
100
AcDbEntity
  8
0
100
AcDbLine
 62
7
  6
CONTINUOUS
 10
-9.3309250643
 20
-26.2959225138
 11
-8.7047313323
 21
-25.3941490611
  0
LINE
  5
48B
100
AcDbEntity
  8
0
100
AcDbLine
 62
7
  6
CONTINUOUS
 10
-8.6597108712
 20
-24.9998788794
 11
-9.5723984671
 21
-26.2959225138
  0
LINE
  5
48C
100
AcDbEntity
  8
SUPERFICI
100
AcDbLine
 62
7
  6
CONTINUOUS
 10
-2.24858653
 20
-22.9008068794
 11
-1.33795653
 21
-21.6499358794
  0
LINE
  5
48D
100
AcDbEntity
  8
SUPERFICI
100
AcDbLine
 62
7
  6
CONTINUOUS
 10
-0.91793053
 20
-21.0728328794
 11
-0.42732553
 21
-20.3990658794
  0
LINE
  5
48E
100
AcDbEntity
  8
DRAFT
100
AcDbLine
 62
7
  6
CONTINUOUS
 10
-29.0680062118
 20
-42.8620974249
 11
-29.0772516244
 21
-42.8725704638
  0
LINE
  5
48F
100
AcDbEntity
  8
DRAFT
100
AcDbLine
 62
7
  6
CONTINUOUS
 10
-34.0922251144
 20
-42.8725704638
 11
-34.06953353
 21
-42.8498788794
  0
LINE
  5
490
100
AcDbEntity
  8
DRAFT
100
AcDbLine
 62
7
  6
CONTINUOUS
 10
-30.81953353
 20
-42.8498788794
 11
-30.7355771692
 21
-42.7659225187
  0
LINE
  5
491
100
AcDbEntity
  8
DRAFT
100
AcDbLine
 62
7
  6
CONTINUOUS
 10
-13.9181161302
 20
-29.3984614796
 11
-13.8492071404
 21
-29.3295524898
  0
LINE
  5
492
100
AcDbEntity
  8
DRAFT
100
AcDbLine
 62
7
  6
CONTINUOUS
 10
-12.5201970726
 20
-28.0005424221
 11
-12.5898599196
 21
-28.0702052691
  0
LINE
  5
493
100
AcDbEntity
  8
SMUSSO
100
AcDbLine
 62
7
  6
CONTINUOUS
 10
-27.0314732984
 20
-42.7618186478
 11
-27.1160385293
 21
-42.8463838787
  0
LINE
  5
494
100
AcDbEntity
  8
SMUSSO
100
AcDbLine
 62
7
  6
CONTINUOUS
 10
34.1769714693
 20
11.7966261198
 11
32.6507928596
 21
11.7704475102
  0
LINE
  5
495
100
AcDbEntity
  8
DRAFT
100
AcDbLine
 62
7
  6
CONTINUOUS
 10
-36.2369885949
 20
8.6326660556
 11
-37.2898599196
 21
8.6326660556
  0
LINE
  5
496
100
AcDbEntity
  8
DRAFT
100
AcDbLine
 62
7
  6
CONTINUOUS
 10
-37.3073149845
 20
8.6501211206
 11
-36.21953353
 21
8.6501211206
  0
LINE
  5
497
100
AcDbEntity
  8
SMUSSO
100
AcDbLine
 62
7
  6
CONTINUOUS
 10
-29.2898599196
 20
11.7704475102
 11
-28.3492071404
 21
11.7704475102
  0
LINE
  5
498
100
AcDbEntity
  8
SMUSSO
100
AcDbLine
 62
7
  6
CONTINUOUS
 10
31.7101400804
 20
11.7704475102
 11
32.6507928596
 21
11.7704475102
  0
LINE
  5
499
100
AcDbEntity
  8
SMUSSO
100
AcDbLine
 62
7
  6
CONTINUOUS
 10
-29.2898599196
 20
11.7704475102
 11
-30.8160385293
 21
11.7966261198
  0
LINE
  5
49A
100
AcDbEntity
  8
RACCORDO
100
AcDbLine
 62
253
  6
CONTINUOUS
 10
-38.0183919394
 20
48.2001211206
 11
-38.3158533954
 21
48.4975825766
  0
LINE
  5
49B
100
AcDbEntity
  8
RACCORDO
100
AcDbLine
 62
253
  6
CONTINUOUS
 10
-37.71953353
 20
48.49897953
 11
-38.016994986
 21
48.796440986
  0
LINE
  5
49C
100
AcDbEntity
  8
SMUSSO
100
AcDbLine
 62
7
  6
CONTINUOUS
 10
-30.7355771692
 20
42.3161647598
 11
-30.8160385293
 21
42.3966261198
  0
LINE
  5
49D
100
AcDbEntity
  8
DRAFT
100
AcDbLine
 62
7
  6
CONTINUOUS
 10
31.7670619542
 20
-18.8864743636
 11
31.7101400804
 21
-18.8295524898
  0
LINE
  5
49E
100
AcDbEntity
  8
DRAFT
100
AcDbLine
 62
7
  6
CONTINUOUS
 10
30.3924062384
 20
-17.5118186478
 11
30.4507928596
 21
-17.5702052691
  0
LINE
  5
49F
100
AcDbEntity
  8
DRAFT
100
AcDbLine
 62
7
  6
CONTINUOUS
 10
-28.4061290142
 20
43.6867166048
 11
-28.3492071404
 21
43.6297947309
  0
LINE
  5
4A0
100
AcDbEntity
  8
DRAFT
100
AcDbLine
 62
7
  6
CONTINUOUS
 10
-27.0314732984
 20
42.312060889
 11
-27.0898599196
 21
42.3704475102
  0
LINE
  5
4A1
100
AcDbEntity
  8
RACCORDO
100
AcDbLine
 62
253
  6
CONTINUOUS
 10
-39.91953353
 20
56.3012627111
 11
-39.622072074
 21
56.0038012552
  0
LINE
  5
4A2
100
AcDbEntity
  8
SMUSSO
100
AcDbLine
 62
7
  6
CONTINUOUS
 10
34.0965101093
 20
-17.5159225187
 11
34.1769714693
 21
-17.5963838787
  0
LINE
  5
4A3
100
AcDbEntity
  8
SMUSSO
100
AcDbLine
 62
7
  6
CONTINUOUS
 10
15.9769714693
 20
-42.8463838787
 11
15.9507928596
 21
-39.8202052691
  0
LINE
  5
4A4
100
AcDbEntity
  8
ASSI
100
AcDbLine
 62
7
  6
CONTINUOUS
 10
12.19087647
 20
-23.3173668794
 11
12.19087647
 21
-24.0823668794
  0
LINE
  5
4A5
100
AcDbEntity
  8
ASSI
100
AcDbLine
 62
7
  6
CONTINUOUS
 10
12.70087647
 20
-21.1626488794
 11
12.70087647
 21
-21.9331753293
  0
LINE
  5
4A6
100
AcDbEntity
  8
ASSI
100
AcDbLine
 62
7
  6
CONTINUOUS
 10
12.70087647
 20
-25.4665588794
 11
12.70087647
 21
-26.2370848794
  0
LINE
  5
4A7
100
AcDbEntity
  8
DRAFT
100
AcDbLine
 62
7
  6
CONTINUOUS
 10
15.8811300127
 20
63.3007846632
 11
15.8811300127
 21
54.1994575779
  0
LINE
  5
4A8
100
AcDbEntity
  8
DRAFT
100
AcDbLine
 62
7
  6
CONTINUOUS
 10
15.8811300127
 20
52.8007846632
 11
15.8811300127
 21
43.6994575779
  0
LINE
  5
4A9
100
AcDbEntity
  8
DRAFT
100
AcDbLine
 62
7
  6
CONTINUOUS
 10
15.8811300127
 20
-18.8992153368
 11
15.8811300127
 21
-28.0005424221
  0
LINE
  5
4AA
100
AcDbEntity
  8
DRAFT
100
AcDbLine
 62
7
  6
CONTINUOUS
 10
15.8811300127
 20
-29.3992153368
 11
15.8811300127
 21
-42.7505424221
  0
LINE
  5
4AB
100
AcDbEntity
  8
SMUSSO
100
AcDbLine
 62
7
  6
CONTINUOUS
 10
15.9507928596
 20
60.3704475102
 11
15.9507928596
 21
54.1297947309
  0
LINE
  5
4AC
100
AcDbEntity
  8
DRAFT
100
AcDbLine
 62
7
  6
CONTINUOUS
 10
15.9507928596
 20
52.8704475102
 11
15.9507928596
 21
43.6297947309
  0
LINE
  5
4AD
100
AcDbEntity
  8
DRAFT
100
AcDbLine
 62
7
  6
CONTINUOUS
 10
15.9507928596
 20
-18.8295524898
 11
15.9507928596
 21
-28.0702052691
  0
LINE
  5
4AE
100
AcDbEntity
  8
SMUSSO
100
AcDbLine
 62
7
  6
CONTINUOUS
 10
15.9507928596
 20
-29.3295524898
 11
15.9507928596
 21
-39.8202052691
  0
LINE
  5
4AF
100
AcDbEntity
  8
SMUSSO
100
AcDbLine
 62
7
  6
CONTINUOUS
 10
17.2101400804
 20
-39.8202052691
 11
17.2101400804
 21
-29.3295524898
  0
LINE
  5
4B0
100
AcDbEntity
  8
DRAFT
100
AcDbLine
 62
7
  6
CONTINUOUS
 10
17.2101400804
 20
-28.0702052691
 11
17.2101400804
 21
-18.8295524898
  0
LINE
  5
4B1
100
AcDbEntity
  8
DRAFT
100
AcDbLine
 62
7
  6
CONTINUOUS
 10
17.2101400804
 20
43.6297947309
 11
17.2101400804
 21
52.8704475102
  0
LINE
  5
4B2
100
AcDbEntity
  8
SMUSSO
100
AcDbLine
 62
7
  6
CONTINUOUS
 10
17.2101400804
 20
54.1297947309
 11
17.2101400804
 21
60.3704475102
  0
LINE
  5
4B3
100
AcDbEntity
  8
DRAFT
100
AcDbLine
 62
7
  6
CONTINUOUS
 10
17.2790490702
 20
63.3015385204
 11
17.2790490702
 21
54.1987037207
  0
LINE
  5
4B4
100
AcDbEntity
  8
DRAFT
100
AcDbLine
 62
7
  6
CONTINUOUS
 10
17.2790490702
 20
52.8015385204
 11
17.2790490702
 21
43.6987037207
  0
LINE
  5
4B5
100
AcDbEntity
  8
DRAFT
100
AcDbLine
 62
7
  6
CONTINUOUS
 10
17.2790490702
 20
-18.8984614796
 11
17.2790490702
 21
-28.0012962793
  0
LINE
  5
4B6
100
AcDbEntity
  8
DRAFT
100
AcDbLine
 62
7
  6
CONTINUOUS
 10
17.2790490702
 20
-29.3984614796
 11
17.2790490702
 21
-42.7512962793
  0
LINE
  5
4B7
100
AcDbEntity
  8
SMUSSO
100
AcDbLine
 62
7
  6
CONTINUOUS
 10
15.9507928596
 20
60.3704475102
 11
15.9769714693
 21
63.3966261198
  0
LINE
  5
4B8
100
AcDbEntity
  8
SUPERFICI
100
AcDbLine
 62
7
  6
CONTINUOUS
 10
0.41253347
 20
-20.3990658794
 11
-0.49790453
 21
-21.6499358794
  0
LINE
  5
4B9
100
AcDbEntity
  8
SUPERFICI
100
AcDbLine
 62
7
  6
CONTINUOUS
 10
-0.91793053
 20
-22.2268478794
 11
-1.40853553
 21
-22.9008068794
  0
LWPOLYLINE
  5
4BA
100
AcDbEntity
  8
0
100
AcDbPolyline
 62
7
  6
CONTINUOUS
 90
28
 70
0
 10
-3.0731520563
 20
-25.2208301747
 10
-3.0913117929
 20
-25.244408088
 10
-3.1084797948
 20
-25.2687015843
 10
-3.124656063
 20
-25.2937106636
 10
-3.1398242294
 20
-25.3195333607
 10
-3.1540006641
 20
-25.3460716408
 10
-3.1672344745
 20
-25.3730313999
 10
-3.1795063389
 20
-25.4003956021
 10
-3.1908355805
 20
-25.4281812831
 10
-3.2013292744
 20
-25.4561454463
 10
-3.2109681982
 20
-25.4842046466
 10
-3.2197715754
 20
-25.5124423289
 10
-3.2279041492
 20
-25.5408658312
 10
-3.235365286
 20
-25.5693496128
 10
-3.2421556201
 20
-25.5980192142
 10
-3.2484417968
 20
-25.6272585949
 10
-3.2542583617
 20
-25.6570537209
 10
-3.2595707695
 20
-25.687418626
 10
-3.2644420292
 20
-25.718779371
 10
-3.268899483
 20
-25.7511208082
 10
-3.2729157888
 20
-25.7844580852
 10
-3.2764719291
 20
-25.8192627061
 10
-3.2795926256
 20
-25.855538088
 10
-3.2822531568
 20
-25.8932808139
 10
-3.2843603405
 20
-25.9329521361
 10
-3.2858831162
 20
-25.9747058056
 10
-3.2868525446
 20
-26.0183880714
 10
-3.2872686257
 20
-26.0639989337
  0
LWPOLYLINE
  5
4BB
100
AcDbEntity
  8
0
100
AcDbPolyline
 62
7
  6
CONTINUOUS
 90
13
 70
0
 10
-2.329604214
 20
-26.7065251947
 10
-2.3490386203
 20
-26.727064283
 10
-2.3688837352
 20
-26.7456836643
 10
-2.3891395584
 20
-26.7623833384
 10
-2.4097462958
 20
-26.7770944554
 10
-2.4307637405
 20
-26.7898858653
 10
-2.4523712721
 20
-26.8009641186
 10
-2.4745476356
 20
-26.8103904768
 10
-2.4973140847
 20
-26.8181036783
 10
-2.5209137612
 20
-26.8241264887
 10
-2.5454277116
 20
-26.8284664965
 10
-2.5707748871
 20
-26.8311161131
 10
-2.5969552865
 20
-26.8320753386
  0
LINE
  5
4BC
100
AcDbEntity
  8
DRAFT
100
AcDbLine
 62
7
  6
CONTINUOUS
 10
31.7101400804
 20
13.0297947309
 11
31.7670619542
 21
13.0867166048
  0
LINE
  5
4BD
100
AcDbEntity
  8
DRAFT
100
AcDbLine
 62
7
  6
CONTINUOUS
 10
0.9774905256
 20
-18.9028548238
 11
1.0507928596
 21
-18.8295524898
  0
LINE
  5
4BE
100
AcDbEntity
  8
SMUSSO
100
AcDbLine
 62
7
  6
CONTINUOUS
 10
34.1769714693
 20
11.7966261198
 11
34.0965101093
 21
11.7161647598
  0
LWPOLYLINE
  5
4BF
100
AcDbEntity
  8
0
100
AcDbPolyline
 62
7
  6
CONTINUOUS
 90
10
 70
0
 10
-2.8892567237
 20
-26.039102148
 10
-2.862156637
 20
-26.0136844242
 10
-2.8341214004
 20
-25.9913575186
 10
-2.8051510127
 20
-25.9721214314
 10
-2.7754375236
 20
-25.9560585474
 10
-2.7447888806
 20
-25.9430864816
 10
-2.7126289269
 20
-25.9329580789
 10
-2.6787656083
 20
-25.9255909543
 10
-2.6433909734
 20
-25.9210674927
 10
-2.6065050195
 20
-25.9193876942
  0
LINE
  5
4C0
100
AcDbEntity
  8
DRAFT
100
AcDbLine
 62
7
  6
CONTINUOUS
 10
-27.8193153417
 20
-44.8481333729
 11
-27.8074516694
 21
-44.837660334
  0
LWPOLYLINE
  5
4C1
100
AcDbEntity
  8
0
100
AcDbPolyline
 62
7
  6
CONTINUOUS
 90
10
 70
0
 10
-7.3895521543
 20
-25.2591277541
 10
-7.4228859849
 20
-25.2880535462
 10
-7.4578478682
 20
-25.3162806662
 10
-7.4944377973
 20
-25.3438091139
 10
-7.5325970276
 20
-25.3706599251
 10
-7.5723842891
 20
-25.396812064
 10
-7.6139757849
 20
-25.4222024238
 10
-7.6574302427
 20
-25.4468099685
 10
-7.7026889156
 20
-25.470655734
 10
-7.7497517933
 20
-25.4937397202
  0
LWPOLYLINE
  5
4C2
100
AcDbEntity
  8
0
100
AcDbPolyline
 62
7
  6
CONTINUOUS
 90
10
 70
0
 10
-5.8356640718
 20
-25.2591277541
 10
-5.8689979021
 20
-25.2880535446
 10
-5.903959755
 20
-25.3162806487
 10
-5.9405496248
 20
-25.3438090665
 10
-5.9787087316
 20
-25.3706598142
 10
-6.018495843
 20
-25.3968118756
 10
-6.0600872727
 20
-25.4222022017
 10
-6.1035417862
 20
-25.4468097764
 10
-6.1488006018
 20
-25.4706556159
 10
-6.1958637108
 20
-25.4937397202
  0
LWPOLYLINE
  5
4C3
100
AcDbEntity
  8
0
100
AcDbPolyline
 62
7
  6
CONTINUOUS
 90
10
 70
0
 10
-4.2817757508
 20
-25.2591277541
 10
-4.3151094351
 20
-25.2880534158
 10
-4.3500711668
 20
-25.3162804197
 10
-4.3866609413
 20
-25.3438087657
 10
-4.4248199685
 20
-25.3706594652
 10
-4.4646070286
 20
-25.3968115068
 10
-4.5061984718
 20
-25.4222018565
 10
-4.5496530768
 20
-25.446809503
 10
-4.5949120519
 20
-25.4706554575
 10
-4.6419753899
 20
-25.4937397202
  0
LINE
  5
4C4
100
AcDbEntity
  8
SMUSSO
100
AcDbLine
 62
7
  6
CONTINUOUS
 10
-30.8160385293
 20
13.0036161213
 11
-29.2898599196
 21
13.0297947309
  0
LINE
  5
4C5
100
AcDbEntity
  8
SMUSSO
100
AcDbLine
 62
7
  6
CONTINUOUS
 10
32.6507928596
 20
13.0297947309
 11
31.7101400804
 21
13.0297947309
  0
LINE
  5
4C6
100
AcDbEntity
  8
SMUSSO
100
AcDbLine
 62
7
  6
CONTINUOUS
 10
-28.3492071404
 20
13.0297947309
 11
-29.2898599196
 21
13.0297947309
  0
LINE
  5
4C7
100
AcDbEntity
  8
DRAFT
100
AcDbLine
 62
7
  6
CONTINUOUS
 10
-37.3073149845
 20
16.1501211206
 11
-36.21953353
 21
16.1501211206
  0
LINE
  5
4C8
100
AcDbEntity
  8
DRAFT
100
AcDbLine
 62
7
  6
CONTINUOUS
 10
-36.2369885949
 20
16.1675761855
 11
-37.2898599196
 21
16.1675761855
  0
LINE
  5
4C9
100
AcDbEntity
  8
SMUSSO
100
AcDbLine
 62
7
  6
CONTINUOUS
 10
32.6507928596
 20
13.0297947309
 11
34.1769714693
 21
13.0036161213
  0
LINE
  5
4CA
100
AcDbEntity
  8
RACCORDO
100
AcDbLine
 62
253
  6
CONTINUOUS
 10
-16.8559553922
 20
38.8272158158
 11
-16.5732289812
 21
38.5472066338
  0
LINE
  5
4CB
100
AcDbEntity
  8
RACCORDO
100
AcDbLine
 62
253
  6
CONTINUOUS
 10
28.111615915
 20
-6.2178730621
 11
27.8238604967
 21
-5.9320600008
  0
LINE
  5
4CC
100
AcDbEntity
  8
RACCORDO
100
AcDbLine
 62
253
  6
CONTINUOUS
 10
-39.6206751206
 20
56.6001211206
 11
-39.3232136646
 21
56.3026596646
  0
LINE
  5
4CD
100
AcDbEntity
  8
SMUSSO
100
AcDbLine
 62
7
  6
CONTINUOUS
 10
-30.7355771692
 20
52.8161647598
 11
-30.8160385293
 21
52.8966261198
  0
LINE
  5
4CE
100
AcDbEntity
  8
DRAFT
100
AcDbLine
 62
7
  6
CONTINUOUS
 10
-37.2898599196
 20
58.7703783985
 11
-37.31953353
 21
58.8001211206
  0
LWPOLYLINE
  5
4CF
100
AcDbEntity
  8
RACCORDO
100
AcDbPolyline
 62
253
  6
CONTINUOUS
 90
11
 70
0
 10
20.2030732926
 20
39.0952277125
 10
20.2039478501
 20
39.0546702801
 10
20.20496332
 20
39.0164063916
 10
20.2061109114
 20
38.9807672899
 10
20.2073806898
 20
38.9480614939
 10
20.2087616627
 20
38.9185721325
 10
20.2102418754
 20
38.8925544866
 10
20.2118085141
 20
38.87023378
 10
20.2134480169
 20
38.8518032386
 10
20.2151461908
 20
38.8374224155
 10
20.2168883349
 20
38.8272158036
  0
LINE
  5
4D0
100
AcDbEntity
  8
RACCORDO
100
AcDbLine
 62
253
  6
CONTINUOUS
 10
20.2017759135
 20
39.1818020001
 11
20.2030732926
 21
39.0952277125
  0
LINE
  5
4D1
100
AcDbEntity
  8
SMUSSO
100
AcDbLine
 62
7
  6
CONTINUOUS
 10
17.1839614707
 20
63.3966261198
 11
17.2101400804
 21
60.3704475102
  0
LWPOLYLINE
  5
4D2
100
AcDbEntity
  8
RACCORDO
100
AcDbPolyline
 62
253
  6
CONTINUOUS
 90
3
 70
0
 10
20.201033127
 20
39.3196087252
 10
20.2011160113
 20
39.273137909
 10
20.2017759135
 20
39.1818020001
  0
LINE
  5
4D3
100
AcDbEntity
  8
RACCORDO
100
AcDbLine
 62
253
  6
CONTINUOUS
 10
20.201033127
 20
-14.5193664841
 11
20.2013643222
 21
-14.4268272954
  0
LINE
  5
4D4
100
AcDbEntity
  8
SMUSSO
100
AcDbLine
 62
7
  6
CONTINUOUS
 10
17.2101400804
 20
-39.8202052691
 11
17.1839614707
 21
-42.8463838787
  0
LWPOLYLINE
  5
4D5
100
AcDbEntity
  8
RACCORDO
100
AcDbPolyline
 62
253
  6
CONTINUOUS
 90
13
 70
0
 10
20.2013643222
 20
-14.4268272954
 10
20.2023472152
 20
-14.3374855645
 10
20.203073288
 20
-14.2949857012
 10
20.2039478444
 20
-14.2544282694
 10
20.2049633135
 20
-14.2161643691
 10
20.2061109044
 20
-14.1805252451
 10
20.2073806826
 20
-14.1478194202
 10
20.2087616559
 20
-14.1183300239
 10
20.2102418693
 20
-14.0923123416
 10
20.211808509
 20
-14.0699916046
 10
20.2134480126
 20
-14.0515610403
 10
20.2151461873
 20
-14.0371801994
 10
20.2168883322
 20
-14.0269735747
  0
LINE
  5
4D6
100
AcDbEntity
  8
0
100
AcDbLine
 62
7
  6
CONTINUOUS
 10
-2.73095053
 20
-38.9901498794
 11
-2.08525253
 21
-37.9091338794
  0
LINE
  5
4D7
100
AcDbEntity
  8
0
100
AcDbLine
 62
7
  6
CONTINUOUS
 10
-1.72800853
 20
-37.9091338794
 11
-2.57735153
 21
-39.2540338794
  0
LINE
  5
4D8
100
AcDbEntity
  8
SMUSSO
100
AcDbLine
 62
7
  6
CONTINUOUS
 10
-12.5201970726
 20
-42.7505424221
 11
-12.6160385293
 21
-42.8463838787
  0
LINE
  5
4D9
100
AcDbEntity
  8
DRAFT
100
AcDbLine
 62
7
  6
CONTINUOUS
 10
0.9774905256
 20
-29.4028548238
 11
1.0507928596
 21
-29.3295524898
  0
LINE
  5
4DA
100
AcDbEntity
  8
DRAFT
100
AcDbLine
 62
7
  6
CONTINUOUS
 10
2.3834424144
 20
-27.9969029351
 11
2.3101400804
 21
-28.0702052691
  0
LWPOLYLINE
  5
4DB
100
AcDbEntity
  8
0
100
AcDbPolyline
 62
7
  6
CONTINUOUS
 90
10
 70
0
 10
-2.7907970734
 20
-25.2589290451
 10
-2.7709331856
 20
-25.245288258
 10
-2.7503859301
 20
-25.2332489221
 10
-2.7291553062
 20
-25.2228110374
 10
-2.7073429442
 20
-25.2139824161
 10
-2.6848472123
 20
-25.206755246
 10
-2.6613632157
 20
-25.2011060904
 10
-2.6367893215
 20
-25.1970271369
 10
-2.61122716
 20
-25.1945261979
 10
-2.5846767296
 20
-25.1936032733
  0
LWPOLYLINE
  5
4DC
100
AcDbEntity
  8
0
100
AcDbPolyline
 62
7
  6
CONTINUOUS
 90
10
 70
0
 10
-2.2710808041
 20
-26.9477354822
 10
-2.2412256453
 20
-26.9284573325
 10
-2.2126802987
 20
-26.9072452628
 10
-2.1854447663
 20
-26.8840992731
 10
-2.1595566005
 20
-26.859149152
 10
-2.1349782525
 20
-26.8322651109
 10
-2.1115970719
 20
-26.8030577838
 10
-2.0893755094
 20
-26.771397382
 10
-2.068351117
 20
-26.7374136941
 10
-2.048523896
 20
-26.7011067202
  0
LWPOLYLINE
  5
4DD
100
AcDbEntity
  8
0
100
AcDbPolyline
 62
7
  6
CONTINUOUS
 90
10
 70
0
 10
-7.4916094318
 20
-25.6047500216
 10
-7.4619145588
 20
-25.5868837235
 10
-7.4331377947
 20
-25.5687861452
 10
-7.4052791429
 20
-25.5504572868
 10
-7.3782937257
 20
-25.5319175386
 10
-7.3522264266
 20
-25.5131465102
 10
-7.3272118906
 20
-25.4940830303
 10
-7.3032950016
 20
-25.4747067083
 10
-7.2804308817
 20
-25.4550379348
 10
-7.258619534
 20
-25.4350767096
  0
LWPOLYLINE
  5
4DE
100
AcDbEntity
  8
0
100
AcDbPolyline
 62
7
  6
CONTINUOUS
 90
10
 70
0
 10
-5.9377213187
 20
-25.6047500744
 10
-5.9080263091
 20
-25.5868837035
 10
-5.8792494454
 20
-25.5687860651
 10
-5.8513907302
 20
-25.5504571592
 10
-5.8244052864
 20
-25.531917371
 10
-5.7983379961
 20
-25.5131463152
 10
-5.773323501
 20
-25.4940828367
 10
-5.7494066834
 20
-25.4747065504
 10
-5.7265426661
 20
-25.4550378414
 10
-5.7047314515
 20
-25.4350767096
  0
LWPOLYLINE
  5
4DF
100
AcDbEntity
  8
0
100
AcDbPolyline
 62
7
  6
CONTINUOUS
 90
10
 70
0
 10
-4.3838330898
 20
-25.6047499167
 10
-4.3541380259
 20
-25.5868834827
 10
-4.3253611218
 20
-25.5687857978
 10
-4.2975023799
 20
-25.5504568618
 10
-4.2705169248
 20
-25.5319170549
 10
-4.2444496358
 20
-25.5131459971
 10
-4.2194351467
 20
-25.4940825477
 10
-4.1955183367
 20
-25.4747063266
 10
-4.1726543307
 20
-25.4550377139
 10
-4.1508431305
 20
-25.4350767096
  0
LWPOLYLINE
  5
4E0
100
AcDbEntity
  8
0
100
AcDbPolyline
 62
7
  6
CONTINUOUS
 90
10
 70
0
 10
-2.8262915826
 20
-25.7676784615
 10
-2.8534786222
 20
-25.7825433948
 10
-2.8798841816
 20
-25.7992040219
 10
-2.9055082619
 20
-25.8176603428
 10
-2.9303425226
 20
-25.837823723
 10
-2.9543953064
 20
-25.8597827969
 10
-2.9776916391
 20
-25.883803468
 10
-3.0002398633
 20
-25.9099743708
 10
-3.0220316385
 20
-25.9382068707
 10
-3.0430669655
 20
-25.9685009679
  0
LWPOLYLINE
  5
4E1
100
AcDbEntity
  8
0
100
AcDbPolyline
 62
7
  6
CONTINUOUS
 90
10
 70
0
 10
-7.7497517933
 20
-25.731120344
 10
-7.721955496
 20
-25.7206066872
 10
-7.6939380038
 20
-25.7091785849
 10
-7.6656993161
 20
-25.6968360372
 10
-7.6372398996
 20
-25.6835356137
 10
-7.6085592862
 20
-25.6693207447
 10
-7.5796560736
 20
-25.6543217219
 10
-7.5505297938
 20
-25.6385819757
 10
-7.5211809134
 20
-25.6220580756
 10
-7.4916094318
 20
-25.6047500216
  0
LWPOLYLINE
  5
4E2
100
AcDbEntity
  8
0
100
AcDbPolyline
 62
7
  6
CONTINUOUS
 90
10
 70
0
 10
-6.1958637108
 20
-25.731120344
 10
-6.1680673193
 20
-25.7206066452
 10
-6.1400497563
 20
-25.7091785118
 10
-6.1118110213
 20
-25.6968359437
 10
-6.0833515825
 20
-25.6835355089
 10
-6.0546709707
 20
-25.6693206394
 10
-6.0257677796
 20
-25.6543216316
 10
-5.9966415399
 20
-25.6385819175
 10
-5.9672927198
 20
-25.6220580651
 10
-5.9377213187
 20
-25.6047500744
  0
LWPOLYLINE
  5
4E3
100
AcDbEntity
  8
0
100
AcDbPolyline
 62
7
  6
CONTINUOUS
 90
10
 70
0
 10
-4.6419753899
 20
-25.731120344
 10
-4.6141789287
 20
-25.7206066087
 10
-4.5861613167
 20
-25.7091784415
 10
-4.5579225535
 20
-25.6968358423
 10
-4.5294631084
 20
-25.6835353764
 10
-4.5007825114
 20
-25.6693204785
 10
-4.4718793523
 20
-25.6543214531
 10
-4.4427531611
 20
-25.6385817351
 10
-4.413404407
 20
-25.6220578896
 10
-4.3838330898
 20
-25.6047499167
  0
LINE
  5
4E4
100
AcDbEntity
  8
DRAFT
100
AcDbLine
 62
7
  6
CONTINUOUS
 10
-28.4061290142
 20
54.1867166048
 11
-28.3492071404
 21
54.1297947309
  0
LINE
  5
4E5
100
AcDbEntity
  8
DRAFT
100
AcDbLine
 62
7
  6
CONTINUOUS
 10
-27.0314732984
 20
52.812060889
 11
-27.0898599196
 21
52.8704475102
  0
LINE
  5
4E6
100
AcDbEntity
  8
DRAFT
100
AcDbLine
 62
7
  6
CONTINUOUS
 10
-36.030344782
 20
63.3609323726
 11
-35.81953353
 21
63.1501211206
  0
LINE
  5
4E7
100
AcDbEntity
  8
DRAFT
100
AcDbLine
 62
7
  6
CONTINUOUS
 10
-33.4414253631
 20
61.6220129536
 11
-33.46953353
 21
61.6501211206
  0
LINE
  5
4E8
100
AcDbEntity
  8
DRAFT
100
AcDbLine
 62
7
  6
CONTINUOUS
 10
31.7101400804
 20
-2.6295524898
 11
31.7670619542
 21
-2.6864743636
  0
LINE
  5
4E9
100
AcDbEntity
  8
DRAFT
100
AcDbLine
 62
7
  6
CONTINUOUS
 10
-13.9181161302
 20
43.6987037207
 11
-13.8492071404
 21
43.6297947309
  0
LINE
  5
4EA
100
AcDbEntity
  8
RACCORDO
100
AcDbLine
 62
253
  6
CONTINUOUS
 10
-37.31953353
 20
69.150197273
 11
-37.2898599196
 21
69.1205236626
  0
LINE
  5
4EB
100
AcDbEntity
  8
RACCORDO
100
AcDbLine
 62
7
  6
CONTINUOUS
 10
27.8238604967
 20
30.7323022419
 11
27.8238604967
 21
-5.9320600008
  0
LINE
  5
4EC
100
AcDbEntity
  8
RACCORDO
100
AcDbLine
 62
253
  6
CONTINUOUS
 10
28.111615915
 20
31.0181153032
 11
28.111615915
 21
-6.2178730621
  0
LWPOLYLINE
  5
4ED
100
AcDbEntity
  8
RACCORDO
100
AcDbPolyline
 62
253
  6
CONTINUOUS
 90
40
 70
0
 10
28.111615905
 20
-6.2178730522
 10
28.1056892559
 20
-6.5413061381
 10
28.086889118
 20
-6.8617024345
 10
28.0554868157
 20
-7.1785881018
 10
28.0118808179
 20
-7.4908517409
 10
27.9563105776
 20
-7.7987243403
 10
27.8886069084
 20
-8.1037348172
 10
27.8086575495
 20
-8.4062205911
 10
27.7167483629
 20
-8.7049319222
 10
27.6131572435
 20
-8.9989970051
 10
27.4981682537
 20
-9.2877946548
 10
27.3719393106
 20
-9.5711201939
 10
27.2346084862
 20
-9.8487460573
 10
27.0864367226
 20
-10.1202146887
 10
26.9276415288
 20
-10.3851940367
 10
26.7582588598
 20
-10.6436273459
 10
26.5784620192
 20
-10.8952006669
 10
26.3885588469
 20
-11.1394396131
 10
26.1887645407
 20
-11.3760309097
 10
25.9793321204
 20
-11.6046158357
 10
25.7605707545
 20
-11.8248092479
 10
25.5327945917
 20
-12.036266738
 10
25.296400706
 20
-12.2385742854
 10
25.0516465695
 20
-12.4314719814
 10
24.7986350368
 20
-12.6148357009
 10
24.5376151923
 20
-12.7883801518
 10
24.2690232302
 20
-12.9517169034
 10
23.9932419235
 20
-13.1045556723
 10
23.711104643
 20
-13.2463781665
 10
23.4225684699
 20
-13.3771423629
 10
23.1266488084
 20
-13.4971358159
 10
22.823108112
 20
-13.6061367868
 10
22.5129074677
 20
-13.7034819046
 10
22.1968379882
 20
-13.7886949404
 10
21.8750155851
 20
-13.8614819889
 10
21.5482288633
 20
-13.9214229421
 10
21.2183537008
 20
-13.9680722713
 10
20.8863806219
 20
-14.0012624418
 10
20.5523800499
 20
-14.0209298936
 10
20.2168883185
 20
-14.0269735611
  0
LINE
  5
4EE
100
AcDbEntity
  8
DRAFT
100
AcDbLine
 62
7
  6
CONTINUOUS
 10
31.7101400804
 20
-1.3702052691
 11
31.7670619542
 21
-1.3132833952
  0
LINE
  5
4EF
100
AcDbEntity
  8
DRAFT
100
AcDbLine
 62
7
  6
CONTINUOUS
 10
15.8811300127
 20
-18.8992153368
 11
15.9507928596
 21
-18.8295524898
  0
LINE
  5
4F0
100
AcDbEntity
  8
SMUSSO
100
AcDbLine
 62
7
  6
CONTINUOUS
 10
34.1769714693
 20
-2.6033738802
 11
34.0965101093
 21
-2.6838352402
  0
LINE
  5
4F1
100
AcDbEntity
  8
SMUSSO
100
AcDbLine
 62
7
  6
CONTINUOUS
 10
34.1769714693
 20
26.1966261198
 11
32.6507928596
 21
26.1704475102
  0
LINE
  5
4F2
100
AcDbEntity
  8
SMUSSO
100
AcDbLine
 62
7
  6
CONTINUOUS
 10
-30.8160385293
 20
27.4036161213
 11
-29.2898599196
 21
27.4297947309
  0
LINE
  5
4F3
100
AcDbEntity
  8
SMUSSO
100
AcDbLine
 62
7
  6
CONTINUOUS
 10
-29.2898599196
 20
26.1704475102
 11
-28.3492071404
 21
26.1704475102
  0
LINE
  5
4F4
100
AcDbEntity
  8
SMUSSO
100
AcDbLine
 62
7
  6
CONTINUOUS
 10
31.7101400804
 20
26.1704475102
 11
32.6507928596
 21
26.1704475102
  0
LINE
  5
4F5
100
AcDbEntity
  8
SMUSSO
100
AcDbLine
 62
7
  6
CONTINUOUS
 10
32.6507928596
 20
27.4297947309
 11
31.7101400804
 21
27.4297947309
  0
LINE
  5
4F6
100
AcDbEntity
  8
SMUSSO
100
AcDbLine
 62
7
  6
CONTINUOUS
 10
-28.3492071404
 20
27.4297947309
 11
-29.2898599196
 21
27.4297947309
  0
LINE
  5
4F7
100
AcDbEntity
  8
SMUSSO
100
AcDbLine
 62
7
  6
CONTINUOUS
 10
-29.2898599196
 20
26.1704475102
 11
-30.8160385293
 21
26.1966261198
  0
LINE
  5
4F8
100
AcDbEntity
  8
SMUSSO
100
AcDbLine
 62
7
  6
CONTINUOUS
 10
32.6507928596
 20
27.4297947309
 11
34.1769714693
 21
27.4036161213
  0
LINE
  5
4F9
100
AcDbEntity
  8
DRAFT
100
AcDbLine
 62
7
  6
CONTINUOUS
 10
-30.7355771692
 20
63.3161647598
 11
-30.81953353
 21
63.4001211206
  0
LINE
  5
4FA
100
AcDbEntity
  8
SMUSSO
100
AcDbLine
 62
7
  6
CONTINUOUS
 10
34.0965101093
 20
-1.3159225187
 11
34.1769714693
 21
-1.3963838787
  0
LINE
  5
4FB
100
AcDbEntity
  8
RACCORDO
100
AcDbLine
 62
253
  6
CONTINUOUS
 10
-36.8196096824
 20
69.6501211206
 11
-36.789936072
 21
69.6204475102
  0
LINE
  5
4FC
100
AcDbEntity
  8
DRAFT
100
AcDbLine
 62
7
  6
CONTINUOUS
 10
-34.0922251144
 20
67.672812705
 11
-34.06953353
 21
67.6501211206
  0
LINE
  5
4FD
100
AcDbEntity
  8
SMUSSO
100
AcDbLine
 62
7
  6
CONTINUOUS
 10
-27.1160385293
 20
63.3966261198
 11
-27.0314732984
 21
63.312060889
  0
LINE
  5
4FE
100
AcDbEntity
  8
DRAFT
100
AcDbLine
 62
7
  6
CONTINUOUS
 10
30.9227483756
 20
-42.8725704638
 11
31.1683846094
 21
-44.837660334
  0
LINE
  5
4FF
100
AcDbEntity
  8
DRAFT
100
AcDbLine
 62
7
  6
CONTINUOUS
 10
30.9319937882
 20
-42.8620974249
 11
31.1802482817
 21
-44.8481333729
  0
LWPOLYLINE
  5
500
100
AcDbEntity
  8
RACCORDO
100
AcDbPolyline
 62
7
  6
CONTINUOUS
 90
40
 70
0
 10
27.8238604967
 20
30.7323022419
 10
27.8175619535
 20
31.052094913
 10
27.7984783613
 20
31.3705283178
 10
27.7666096384
 20
31.6876024564
 10
27.7218369126
 20
32.0040969622
 10
27.6642787282
 20
32.3192322017
 10
27.5942910534
 20
32.6306692748
 10
27.5116951817
 20
32.9383204089
 10
27.416669191
 20
33.2422733766
 10
27.3101041873
 20
33.5404525959
 10
27.1919657037
 20
33.8325803975
 10
27.0622873672
 20
34.1189344507
 10
26.9220624358
 20
34.3982721805
 10
26.7715251652
 20
34.6702107519
 10
26.610440342
 20
34.9351329998
 10
26.4390970313
 20
35.1929448542
 10
26.257253669
 20
35.4440306603
 10
26.0651507089
 20
35.6880060729
 10
25.8638002807
 20
35.9236239856
 10
25.6533852806
 20
36.1506511273
 10
25.4337217161
 20
36.3693207692
 10
25.2052714515
 20
36.5790856189
 10
24.9677508114
 20
36.7801565913
 10
24.7214423335
 20
36.9723227715
 10
24.4676573118
 20
37.154404123
 10
24.2067497164
 20
37.3261517325
 10
23.9383646188
 20
37.4878145132
 10
23.6627500752
 20
37.6389591687
 10
23.3795911636
 20
37.7797739682
 10
23.08920184
 20
37.9100706425
 10
22.7927735922
 20
38.0288510872
 10
22.4900112286
 20
38.1360979254
 10
22.1812091779
 20
38.2318285341
 10
21.8684436285
 20
38.3150969404
 10
21.551614047
 20
38.3857323592
 10
21.2308205843
 20
38.4439055756
 10
20.9084408267
 20
38.489182973
 10
20.5852674004
 20
38.5214200123
 10
20.2605077574
 20
38.5407612326
 10
19.9341619212
 20
38.5472066338
  0
LINE
  5
501
100
AcDbEntity
  8
SMUSSO
100
AcDbLine
 62
7
  6
CONTINUOUS
 10
30.4769714693
 20
-42.8463838787
 11
30.4507928596
 21
-39.8202052691
  0
LINE
  5
502
100
AcDbEntity
  8
SMUSSO
100
AcDbLine
 62
7
  6
CONTINUOUS
 10
31.6839614707
 20
63.3966261198
 11
31.7101400804
 21
60.3704475102
  0
LINE
  5
503
100
AcDbEntity
  8
RACCORDO
100
AcDbLine
 62
253
  6
CONTINUOUS
 10
28.5761486183
 20
31.0181153032
 11
28.5761486183
 21
-6.2178730621
  0
LINE
  5
504
100
AcDbEntity
  8
DRAFT
100
AcDbLine
 62
7
  6
CONTINUOUS
 10
30.3924062384
 20
63.312060889
 11
30.3924062384
 21
54.1881813522
  0
LINE
  5
505
100
AcDbEntity
  8
DRAFT
100
AcDbLine
 62
7
  6
CONTINUOUS
 10
30.3924062384
 20
52.812060889
 11
30.3924062384
 21
43.6881813522
  0
LINE
  5
506
100
AcDbEntity
  8
DRAFT
100
AcDbLine
 62
7
  6
CONTINUOUS
 10
30.3924062384
 20
42.312060889
 11
30.3924062384
 21
-17.5118186478
  0
LINE
  5
507
100
AcDbEntity
  8
DRAFT
100
AcDbLine
 62
7
  6
CONTINUOUS
 10
30.3924062384
 20
-18.887939111
 11
30.3924062384
 21
-28.0118186478
  0
LINE
  5
508
100
AcDbEntity
  8
DRAFT
100
AcDbLine
 62
7
  6
CONTINUOUS
 10
30.3924062384
 20
-29.387939111
 11
30.3924062384
 21
-42.7618186478
  0
LINE
  5
509
100
AcDbEntity
  8
SMUSSO
100
AcDbLine
 62
7
  6
CONTINUOUS
 10
30.4507928596
 20
60.3704475102
 11
30.4507928596
 21
54.1297947309
  0
LINE
  5
50A
100
AcDbEntity
  8
DRAFT
100
AcDbLine
 62
7
  6
CONTINUOUS
 10
30.4507928596
 20
52.8704475102
 11
30.4507928596
 21
43.6297947309
  0
LINE
  5
50B
100
AcDbEntity
  8
DRAFT
100
AcDbLine
 62
7
  6
CONTINUOUS
 10
30.4507928596
 20
42.3704475102
 11
30.4507928596
 21
-17.5702052691
  0
LINE
  5
50C
100
AcDbEntity
  8
DRAFT
100
AcDbLine
 62
7
  6
CONTINUOUS
 10
30.4507928596
 20
-18.8295524898
 11
30.4507928596
 21
-28.0702052691
  0
LINE
  5
50D
100
AcDbEntity
  8
SMUSSO
100
AcDbLine
 62
7
  6
CONTINUOUS
 10
30.4507928596
 20
-29.3295524898
 11
30.4507928596
 21
-39.8202052691
  0
LINE
  5
50E
100
AcDbEntity
  8
SMUSSO
100
AcDbLine
 62
7
  6
CONTINUOUS
 10
31.7101400804
 20
-39.8202052691
 11
31.7101400804
 21
-29.3295524898
  0
LINE
  5
50F
100
AcDbEntity
  8
DRAFT
100
AcDbLine
 62
7
  6
CONTINUOUS
 10
31.7101400804
 20
-28.0702052691
 11
31.7101400804
 21
-18.8295524898
  0
LINE
  5
510
100
AcDbEntity
  8
DRAFT
100
AcDbLine
 62
7
  6
CONTINUOUS
 10
31.7101400804
 20
-17.5702052691
 11
31.7101400804
 21
-2.6295524898
  0
LINE
  5
511
100
AcDbEntity
  8
DRAFT
100
AcDbLine
 62
7
  6
CONTINUOUS
 10
31.7101400804
 20
-1.3702052691
 11
31.7101400804
 21
11.7704475102
  0
LINE
  5
512
100
AcDbEntity
  8
DRAFT
100
AcDbLine
 62
7
  6
CONTINUOUS
 10
31.7101400804
 20
13.0297947309
 11
31.7101400804
 21
26.1704475102
  0
LINE
  5
513
100
AcDbEntity
  8
DRAFT
100
AcDbLine
 62
7
  6
CONTINUOUS
 10
31.7101400804
 20
27.4297947309
 11
31.7101400804
 21
42.3704475102
  0
LINE
  5
514
100
AcDbEntity
  8
DRAFT
100
AcDbLine
 62
7
  6
CONTINUOUS
 10
31.7101400804
 20
43.6297947309
 11
31.7101400804
 21
52.8704475102
  0
LINE
  5
515
100
AcDbEntity
  8
SMUSSO
100
AcDbLine
 62
7
  6
CONTINUOUS
 10
31.7101400804
 20
54.1297947309
 11
31.7101400804
 21
60.3704475102
  0
LINE
  5
516
100
AcDbEntity
  8
DRAFT
100
AcDbLine
 62
7
  6
CONTINUOUS
 10
31.7670619542
 20
63.3135256364
 11
31.7670619542
 21
54.1867166048
  0
LINE
  5
517
100
AcDbEntity
  8
DRAFT
100
AcDbLine
 62
7
  6
CONTINUOUS
 10
31.7670619542
 20
52.8135256364
 11
31.7670619542
 21
43.6867166048
  0
LINE
  5
518
100
AcDbEntity
  8
DRAFT
100
AcDbLine
 62
7
  6
CONTINUOUS
 10
31.7670619542
 20
42.3135256364
 11
31.7670619542
 21
27.4867166048
  0
LINE
  5
519
100
AcDbEntity
  8
DRAFT
100
AcDbLine
 62
7
  6
CONTINUOUS
 10
31.7670619542
 20
26.1135256364
 11
31.7670619542
 21
13.0867166048
  0
LINE
  5
51A
100
AcDbEntity
  8
DRAFT
100
AcDbLine
 62
7
  6
CONTINUOUS
 10
31.7670619542
 20
11.7135256364
 11
31.7670619542
 21
-1.3132833952
  0
LINE
  5
51B
100
AcDbEntity
  8
DRAFT
100
AcDbLine
 62
7
  6
CONTINUOUS
 10
31.7670619542
 20
-2.6864743636
 11
31.7670619542
 21
-17.5132833952
  0
LINE
  5
51C
100
AcDbEntity
  8
DRAFT
100
AcDbLine
 62
7
  6
CONTINUOUS
 10
31.7670619542
 20
-18.8864743636
 11
31.7670619542
 21
-28.0132833952
  0
LINE
  5
51D
100
AcDbEntity
  8
DRAFT
100
AcDbLine
 62
7
  6
CONTINUOUS
 10
31.7670619542
 20
-29.3864743636
 11
31.7670619542
 21
-42.7632833952
  0
LINE
  5
51E
100
AcDbEntity
  8
SMUSSO
100
AcDbLine
 62
7
  6
CONTINUOUS
 10
32.6507928596
 20
-29.3295524898
 11
32.6507928596
 21
-28.0702052691
  0
LINE
  5
51F
100
AcDbEntity
  8
SMUSSO
100
AcDbLine
 62
7
  6
CONTINUOUS
 10
32.6507928596
 20
-18.8295524898
 11
32.6507928596
 21
-17.5702052691
  0
LINE
  5
520
100
AcDbEntity
  8
SMUSSO
100
AcDbLine
 62
7
  6
CONTINUOUS
 10
32.6507928596
 20
-2.6295524898
 11
32.6507928596
 21
-1.3702052691
  0
LINE
  5
521
100
AcDbEntity
  8
SMUSSO
100
AcDbLine
 62
7
  6
CONTINUOUS
 10
32.6507928596
 20
11.7704475102
 11
32.6507928596
 21
13.0297947309
  0
LINE
  5
522
100
AcDbEntity
  8
SMUSSO
100
AcDbLine
 62
7
  6
CONTINUOUS
 10
32.6507928596
 20
26.1704475102
 11
32.6507928596
 21
27.4297947309
  0
LINE
  5
523
100
AcDbEntity
  8
SMUSSO
100
AcDbLine
 62
7
  6
CONTINUOUS
 10
32.6507928596
 20
42.3704475102
 11
32.6507928596
 21
43.6297947309
  0
LINE
  5
524
100
AcDbEntity
  8
SMUSSO
100
AcDbLine
 62
7
  6
CONTINUOUS
 10
32.6507928596
 20
52.8704475102
 11
32.6507928596
 21
54.1297947309
  0
LINE
  5
525
100
AcDbEntity
  8
SMUSSO
100
AcDbLine
 62
7
  6
CONTINUOUS
 10
30.4507928596
 20
60.3704475102
 11
30.4769714693
 21
63.3966261198
  0
LINE
  5
526
100
AcDbEntity
  8
SMUSSO
100
AcDbLine
 62
7
  6
CONTINUOUS
 10
31.7101400804
 20
-39.8202052691
 11
31.6839614707
 21
-42.8463838787
  0
LWPOLYLINE
  5
527
100
AcDbEntity
  8
RACCORDO
100
AcDbPolyline
 62
253
  6
CONTINUOUS
 90
40
 70
0
 10
28.5761486183
 20
-6.2178730621
 10
28.5687446098
 20
-6.5617223618
 10
28.5483185511
 20
-6.9014112773
 10
28.5148703498
 20
-7.2369398086
 10
28.4683145156
 20
-7.5680849442
 10
28.4087361774
 20
-7.8950696956
 10
28.3363910905
 20
-8.218563097
 10
28.2511482929
 20
-8.5394026579
 10
28.1531380557
 20
-8.8567508688
 10
28.0430079295
 20
-9.168764235
 10
27.9207645939
 20
-9.4751963142
 10
27.7864004241
 20
-9.7762935487
 10
27.6405414957
 20
-10.0709517716
 10
27.4832125066
 20
-10.3591024084
 10
27.3143876214
 20
-10.6408140336
 10
27.1346171193
 20
-10.9151882038
 10
26.9438212638
 20
-11.1823068243
 10
26.7420785099
 20
-11.4420879898
 10
26.5301764616
 20
-11.693387542
 10
26.3080510869
 20
-11.9361981348
 10
26.0757650886
 20
-12.1705271142
 10
25.8342962659
 20
-12.3952523598
 10
25.5836963636
 20
-12.6102827327
 10
25.3239123594
 20
-12.8157093718
 10
25.0557650216
 20
-13.0106835731
 10
24.7791330562
 20
-13.1952491577
 10
24.4941365507
 20
-13.3693623047
 10
24.2019585042
 20
-13.5320428473
 10
23.9030714481
 20
-13.6831164818
 10
23.5970018674
 20
-13.822757512
 10
23.2835137735
 20
-13.9505086826
 10
22.9619566189
 20
-14.0666574149
 10
22.6329798762
 20
-14.1709162876
 10
22.2982977258
 20
-14.2619657809
 10
21.957472997
 20
-14.3396942125
 10
21.6109421422
 20
-14.4042132646
 10
21.2617302142
 20
-14.4545384651
 10
20.9108456497
 20
-14.4903416565
 10
20.557279968
 20
-14.5119509961
 10
20.201033127
 20
-14.5193664841
  0
LINE
  5
528
100
AcDbEntity
  8
DRAFT
100
AcDbLine
 62
7
  6
CONTINUOUS
 10
37.4531580544
 20
43.3609323726
 11
37.43046647
 21
43.1782292875
  0
LINE
  5
529
100
AcDbEntity
  8
DRAFT
100
AcDbLine
 62
7
  6
CONTINUOUS
 10
38.18046647
 20
43.2625537883
 11
38.1665024181
 21
43.1501211206
  0
LINE
  5
52A
100
AcDbEntity
  8
DRAFT
100
AcDbLine
 62
7
  6
CONTINUOUS
 10
38.1682479246
 20
41.4393098685
 11
38.18046647
 21
41.5376884528
  0
LINE
  5
52B
100
AcDbEntity
  8
DRAFT
100
AcDbLine
 62
7
  6
CONTINUOUS
 10
0.9319937882
 20
-42.8620974249
 11
0.9227483756
 21
-42.8725704638
  0
LINE
  5
52C
100
AcDbEntity
  8
SMUSSO
100
AcDbLine
 62
7
  6
CONTINUOUS
 10
2.3834424144
 20
-42.7469029351
 11
2.2839614707
 21
-42.8463838787
  0
LINE
  5
52D
100
AcDbEntity
  8
DRAFT
100
AcDbLine
 62
7
  6
CONTINUOUS
 10
17.2790490702
 20
-28.0012962793
 11
17.2101400804
 21
-28.0702052691
  0
LINE
  5
52E
100
AcDbEntity
  8
DRAFT
100
AcDbLine
 62
7
  6
CONTINUOUS
 10
15.8811300127
 20
-29.3992153368
 11
15.9507928596
 21
-29.3295524898
  0
LINE
  5
52F
100
AcDbEntity
  8
RACCORDO
100
AcDbLine
 62
253
  6
CONTINUOUS
 10
28.5761486183
 20
31.0181153032
 11
28.111615915
 21
31.0181153032
  0
LINE
  5
530
100
AcDbEntity
  8
RACCORDO
100
AcDbLine
 62
253
  6
CONTINUOUS
 10
-25.2152156783
 20
31.0181153032
 11
-24.750682975
 21
31.0181153032
  0
LINE
  5
531
100
AcDbEntity
  8
0
100
AcDbLine
 62
7
  6
CONTINUOUS
 10
-7.21953353
 20
31.6001211206
 11
10.58046647
 21
31.6001211206
  0
LWPOLYLINE
  5
532
100
AcDbEntity
  8
0
100
AcDbPolyline
 62
7
  6
CONTINUOUS
 90
22
 70
0
 10
10.58046647
 20
31.6001211206
 10
10.6407638489
 20
31.5978021168
 10
10.7001152733
 20
31.591113371
 10
10.7585207487
 20
31.580054883
 10
10.8163415618
 20
31.5644938317
 10
10.8732164354
 20
31.5445630383
 10
10.9280615362
 20
31.5206609668
 10
10.9807254865
 20
31.492796982
 10
11.0313596892
 20
31.4609617191
 10
11.0793344919
 20
31.4255255471
 10
11.1247459997
 20
31.3863155329
 10
11.1674981361
 20
31.3435046096
 10
11.2066729842
 20
31.2979819461
 10
11.2421240509
 20
31.2497386532
 10
11.2739978618
 20
31.1987836201
 10
11.301816032
 20
31.1460326836
 10
11.325498145
 20
31.0915512579
 10
11.345124643
 20
31.0352739289
 10
11.3604584283
 20
30.9779202911
 10
11.3714204731
 20
30.9197302096
 10
11.3780898191
 20
30.8604638194
 10
11.38046647
 20
30.8001211206
  0
LINE
  5
533
100
AcDbEntity
  8
DRAFT
100
AcDbLine
 62
7
  6
CONTINUOUS
 10
-13.9181161302
 20
54.1987037207
 11
-13.8492071404
 21
54.1297947309
  0
LINE
  5
534
100
AcDbEntity
  8
DRAFT
100
AcDbLine
 62
7
  6
CONTINUOUS
 10
-12.5201970726
 20
52.8007846632
 11
-12.5898599196
 21
52.8704475102
  0
LINE
  5
535
100
AcDbEntity
  8
DRAFT
100
AcDbLine
 62
7
  6
CONTINUOUS
 10
31.7101400804
 20
11.7704475102
 11
31.7670619542
 21
11.7135256364
  0
LINE
  5
536
100
AcDbEntity
  8
DRAFT
100
AcDbLine
 62
7
  6
CONTINUOUS
 10
0.9774905256
 20
43.7030970649
 11
1.0507928596
 21
43.6297947309
  0
LINE
  5
537
100
AcDbEntity
  8
SMUSSO
100
AcDbLine
 62
7
  6
CONTINUOUS
 10
34.0965101093
 20
13.0840774813
 11
34.1769714693
 21
13.0036161213
  0
LINE
  5
538
100
AcDbEntity
  8
DRAFT
100
AcDbLine
 62
7
  6
CONTINUOUS
 10
37.4531580544
 20
-40.5606901315
 11
37.43046647
 21
-40.3779870464
  0
LINE
  5
539
100
AcDbEntity
  8
DRAFT
100
AcDbLine
 62
7
  6
CONTINUOUS
 10
38.18046647
 20
-40.4623115472
 11
38.1665024181
 21
-40.3498788794
  0
LINE
  5
53A
100
AcDbEntity
  8
DRAFT
100
AcDbLine
 62
7
  6
CONTINUOUS
 10
38.1682479246
 20
-38.6390676274
 11
38.18046647
 21
-38.7374462117
  0
LINE
  5
53B
100
AcDbEntity
  8
DRAFT
100
AcDbLine
 62
7
  6
CONTINUOUS
 10
34.0965101093
 20
63.3161647598
 11
34.0965101093
 21
54.1840774813
  0
LINE
  5
53C
100
AcDbEntity
  8
DRAFT
100
AcDbLine
 62
7
  6
CONTINUOUS
 10
34.0965101093
 20
52.8161647598
 11
34.0965101093
 21
43.6840774813
  0
LINE
  5
53D
100
AcDbEntity
  8
DRAFT
100
AcDbLine
 62
7
  6
CONTINUOUS
 10
34.0965101093
 20
42.3161647598
 11
34.0965101093
 21
27.4840774813
  0
LINE
  5
53E
100
AcDbEntity
  8
DRAFT
100
AcDbLine
 62
7
  6
CONTINUOUS
 10
34.0965101093
 20
26.1161647598
 11
34.0965101093
 21
13.0840774813
  0
LINE
  5
53F
100
AcDbEntity
  8
DRAFT
100
AcDbLine
 62
7
  6
CONTINUOUS
 10
34.0965101093
 20
11.7161647598
 11
34.0965101093
 21
-1.3159225187
  0
LINE
  5
540
100
AcDbEntity
  8
DRAFT
100
AcDbLine
 62
7
  6
CONTINUOUS
 10
34.0965101093
 20
-2.6838352402
 11
34.0965101093
 21
-17.5159225187
  0
LINE
  5
541
100
AcDbEntity
  8
DRAFT
100
AcDbLine
 62
7
  6
CONTINUOUS
 10
34.0965101093
 20
-18.8838352402
 11
34.0965101093
 21
-28.0159225187
  0
LINE
  5
542
100
AcDbEntity
  8
DRAFT
100
AcDbLine
 62
7
  6
CONTINUOUS
 10
34.0965101093
 20
-29.3838352402
 11
34.0965101093
 21
-42.7659225187
  0
LINE
  5
543
100
AcDbEntity
  8
SMUSSO
100
AcDbLine
 62
7
  6
CONTINUOUS
 10
34.1769714693
 20
-29.3033738802
 11
34.1769714693
 21
-28.0963838787
  0
LINE
  5
544
100
AcDbEntity
  8
SMUSSO
100
AcDbLine
 62
7
  6
CONTINUOUS
 10
34.1769714693
 20
-18.8033738802
 11
34.1769714693
 21
-17.5963838787
  0
LINE
  5
545
100
AcDbEntity
  8
SMUSSO
100
AcDbLine
 62
7
  6
CONTINUOUS
 10
34.1769714693
 20
-2.6033738802
 11
34.1769714693
 21
-1.3963838787
  0
LINE
  5
546
100
AcDbEntity
  8
SMUSSO
100
AcDbLine
 62
7
  6
CONTINUOUS
 10
34.1769714693
 20
11.7966261198
 11
34.1769714693
 21
13.0036161213
  0
LINE
  5
547
100
AcDbEntity
  8
SMUSSO
100
AcDbLine
 62
7
  6
CONTINUOUS
 10
34.1769714693
 20
26.1966261198
 11
34.1769714693
 21
27.4036161213
  0
LINE
  5
548
100
AcDbEntity
  8
SMUSSO
100
AcDbLine
 62
7
  6
CONTINUOUS
 10
34.1769714693
 20
42.3966261198
 11
34.1769714693
 21
43.6036161213
  0
LINE
  5
549
100
AcDbEntity
  8
SMUSSO
100
AcDbLine
 62
7
  6
CONTINUOUS
 10
34.1769714693
 20
52.8966261198
 11
34.1769714693
 21
54.1036161213
  0
LINE
  5
54A
100
AcDbEntity
  8
DRAFT
100
AcDbLine
 62
7
  6
CONTINUOUS
 10
34.18046647
 20
63.4001211206
 11
34.18046647
 21
-42.8498788794
  0
LINE
  5
54B
100
AcDbEntity
  8
0
100
AcDbLine
 62
253
  6
CONTINUOUS
 10
34.93046647
 20
65.0861840051
 11
34.93046647
 21
65.714058236
  0
LINE
  5
54C
100
AcDbEntity
  8
DRAFT
100
AcDbLine
 62
7
  6
CONTINUOUS
 10
35.0165293546
 20
-42.8498788794
 11
35.0165293546
 21
65.0001211206
  0
LINE
  5
54D
100
AcDbEntity
  8
DRAFT
100
AcDbLine
 62
253
  6
CONTINUOUS
 10
35.1492049126
 20
-42.8548452583
 11
35.1492049126
 21
65.0001211206
  0
LINE
  5
54E
100
AcDbEntity
  8
DRAFT
100
AcDbLine
 62
253
  6
CONTINUOUS
 10
35.5117280274
 20
-42.8548452583
 11
35.5117280274
 21
65.0001211206
  0
LINE
  5
54F
100
AcDbEntity
  8
DRAFT
100
AcDbLine
 62
7
  6
CONTINUOUS
 10
35.6444035854
 20
-42.8498788794
 11
35.6444035854
 21
65.0001211206
  0
LINE
  5
550
100
AcDbEntity
  8
DRAFT
100
AcDbLine
 62
7
  6
CONTINUOUS
 10
36.8023583031
 20
41.6220129536
 11
36.8023583031
 21
43.1782292875
  0
LINE
  5
551
100
AcDbEntity
  8
DRAFT
100
AcDbLine
 62
7
  6
CONTINUOUS
 10
36.8147042332
 20
-40.3779870464
 11
36.8147042332
 21
-38.8217707125
  0
LINE
  5
552
100
AcDbEntity
  8
DRAFT
100
AcDbLine
 62
7
  6
CONTINUOUS
 10
36.83046647
 20
41.6501211206
 11
36.83046647
 21
43.1501211206
  0
LINE
  5
553
100
AcDbEntity
  8
DRAFT
100
AcDbLine
 62
7
  6
CONTINUOUS
 10
36.8428124001
 20
-40.3498788794
 11
36.8428124001
 21
-38.8498788794
  0
LINE
  5
554
100
AcDbEntity
  8
DRAFT
100
AcDbLine
 62
7
  6
CONTINUOUS
 10
37.43046647
 20
67.6501211206
 11
37.43046647
 21
43.1782292875
  0
LINE
  5
555
100
AcDbEntity
  8
DRAFT
100
AcDbLine
 62
7
  6
CONTINUOUS
 10
37.43046647
 20
41.6220129536
 11
37.43046647
 21
-38.8217707125
  0
LINE
  5
556
100
AcDbEntity
  8
DRAFT
100
AcDbLine
 62
7
  6
CONTINUOUS
 10
37.43046647
 20
-40.3779870464
 11
37.43046647
 21
-42.8498788794
  0
LINE
  5
557
100
AcDbEntity
  8
DRAFT
100
AcDbLine
 62
7
  6
CONTINUOUS
 10
37.4531580544
 20
67.672812705
 11
37.4531580544
 21
43.3609323726
  0
LINE
  5
558
100
AcDbEntity
  8
DRAFT
100
AcDbLine
 62
7
  6
CONTINUOUS
 10
37.4531580544
 20
41.4393098685
 11
37.4531580544
 21
-38.6390676274
  0
LINE
  5
559
100
AcDbEntity
  8
DRAFT
100
AcDbLine
 62
7
  6
CONTINUOUS
 10
37.4531580544
 20
-40.5606901315
 11
37.4531580544
 21
-42.8725704638
  0
LINE
  5
55A
100
AcDbEntity
  8
DRAFT
100
AcDbLine
 62
7
  6
CONTINUOUS
 10
38.1665024181
 20
43.1501211206
 11
38.1665024181
 21
41.6501211206
  0
LINE
  5
55B
100
AcDbEntity
  8
DRAFT
100
AcDbLine
 62
7
  6
CONTINUOUS
 10
38.1665024181
 20
-38.8498788794
 11
38.1665024181
 21
-40.3498788794
  0
LINE
  5
55C
100
AcDbEntity
  8
DRAFT
100
AcDbLine
 62
7
  6
CONTINUOUS
 10
38.1682479246
 20
56.1001211206
 11
38.1682479246
 21
43.3609323726
  0
LINE
  5
55D
100
AcDbEntity
  8
DRAFT
100
AcDbLine
 62
7
  6
CONTINUOUS
 10
38.1682479246
 20
41.4393098685
 11
38.1682479246
 21
41.0879025751
  0
LINE
  5
55E
100
AcDbEntity
  8
RACCORDO
100
AcDbLine
 62
7
  6
CONTINUOUS
 10
38.1682479246
 20
-44.3377364864
 11
38.1682479246
 21
-40.5606901315
  0
LINE
  5
55F
100
AcDbEntity
  8
DRAFT
100
AcDbLine
 62
7
  6
CONTINUOUS
 10
38.1682479246
 20
-38.6390676274
 11
38.1682479246
 21
-25.8998788794
  0
LINE
  5
560
100
AcDbEntity
  8
DRAFT
100
AcDbLine
 62
7
  6
CONTINUOUS
 10
38.18046647
 20
56.1001211206
 11
38.18046647
 21
43.2625537883
  0
LINE
  5
561
100
AcDbEntity
  8
DRAFT
100
AcDbLine
 62
7
  6
CONTINUOUS
 10
38.18046647
 20
41.5376884528
 11
38.18046647
 21
41.1001211206
  0
LINE
  5
562
100
AcDbEntity
  8
DRAFT
100
AcDbLine
 62
7
  6
CONTINUOUS
 10
38.18046647
 20
-25.8998788794
 11
38.18046647
 21
-38.7374462117
  0
LINE
  5
563
100
AcDbEntity
  8
RACCORDO
100
AcDbLine
 62
7
  6
CONTINUOUS
 10
38.18046647
 20
-40.4623115472
 11
38.18046647
 21
-44.3499550319
  0
LINE
  5
564
100
AcDbEntity
  8
0
100
AcDbLine
 62
7
  6
CONTINUOUS
 10
38.4177685133
 20
60.1001211206
 11
38.4177685133
 21
56.1001211206
  0
LINE
  5
565
100
AcDbEntity
  8
0
100
AcDbLine
 62
7
  6
CONTINUOUS
 10
38.4177685133
 20
-21.8998788794
 11
38.4177685133
 21
-25.8998788794
  0
LINE
  5
566
100
AcDbEntity
  8
RACCORDO
100
AcDbLine
 62
7
  6
CONTINUOUS
 10
39.1682479246
 20
-21.8998788794
 11
39.1682479246
 21
40.5879787275
  0
LINE
  5
567
100
AcDbEntity
  8
RACCORDO
100
AcDbLine
 62
7
  6
CONTINUOUS
 10
39.1682479246
 20
60.1001211206
 11
39.1682479246
 21
69.1379787275
  0
LINE
  5
568
100
AcDbEntity
  8
RACCORDO
100
AcDbLine
 62
7
  6
CONTINUOUS
 10
39.18046647
 20
-21.8998788794
 11
39.18046647
 21
40.600197273
  0
LINE
  5
569
100
AcDbEntity
  8
RACCORDO
100
AcDbLine
 62
7
  6
CONTINUOUS
 10
39.18046647
 20
60.1001211206
 11
39.18046647
 21
69.150197273
  0
LINE
  5
56A
100
AcDbEntity
  8
DRAFT
100
AcDbLine
 62
7
  6
CONTINUOUS
 10
32.1806846583
 20
-44.8481333729
 11
32.4289391518
 21
-42.8620974249
  0
LINE
  5
56B
100
AcDbEntity
  8
DRAFT
100
AcDbLine
 62
7
  6
CONTINUOUS
 10
32.1925483306
 20
-44.837660334
 11
32.4381845644
 21
-42.8725704638
  0
LINE
  5
56C
100
AcDbEntity
  8
DRAFT
100
AcDbLine
 62
7
  6
CONTINUOUS
 10
31.7670619542
 20
-17.5132833952
 11
31.7101400804
 21
-17.5702052691
  0
LINE
  5
56D
100
AcDbEntity
  8
DRAFT
100
AcDbLine
 62
7
  6
CONTINUOUS
 10
30.3924062384
 20
-18.887939111
 11
30.4507928596
 21
-18.8295524898
  0
LINE
  5
56E
100
AcDbEntity
  8
SMUSSO
100
AcDbLine
 62
7
  6
CONTINUOUS
 10
34.1769714693
 20
-18.8033738802
 11
34.0965101093
 21
-18.8838352402
  0
LINE
  5
56F
100
AcDbEntity
  8
DRAFT
100
AcDbLine
 62
7
  6
CONTINUOUS
 10
2.1806846583
 20
-44.8481333729
 11
2.1925483306
 21
-44.837660334
  0
LWPOLYLINE
  5
570
100
AcDbEntity
  8
RACCORDO
100
AcDbPolyline
 62
7
  6
CONTINUOUS
 90
40
 70
0
 10
-16.5732289812
 20
38.5472066338
 10
-16.8995990233
 20
38.540759869
 10
-17.2243805711
 20
38.5214160252
 10
-17.5475736017
 20
38.4891751026
 10
-17.8699692439
 20
38.4438928521
 10
-18.1907762909
 20
38.3857135227
 10
-18.5076214132
 20
38.3150698616
 10
-18.820406916
 20
38.231790607
 10
-19.1292308763
 20
38.1360470207
 10
-19.4320139924
 20
38.028785635
 10
-19.7284623103
 20
37.9099881889
 10
-20.0188705473
 20
37.7796729434
 10
-20.3020426806
 20
37.6388412136
 10
-20.5776619096
 20
37.4876826585
 10
-20.846046002
 20
37.3260076191
 10
-21.1069509018
 20
37.1542484339
 10
-21.3607325559
 20
36.9721559529
 10
-21.6070359761
 20
36.7799793262
 10
-21.844550813
 20
36.5788983419
 10
-22.0729949013
 20
36.3691236488
 10
-22.2926515442
 20
36.1504445982
 10
-22.503058705
 20
35.9234090324
 10
-22.7044004711
 20
35.6877832984
 10
-22.8964938516
 20
35.4438010491
 10
-23.0783262603
 20
35.192711086
 10
-23.2496572328
 20
34.9348970599
 10
-23.410728344
 20
34.6699753199
 10
-23.5612501055
 20
34.3980437145
 10
-23.7014563034
 20
34.1187226167
 10
-23.8311141092
 20
33.8323916535
 10
-23.9492341234
 20
33.5402875545
 10
-24.0557838849
 20
33.2421318313
 10
-24.1507966943
 20
32.9382029723
 10
-24.2333818046
 20
32.6305731729
 10
-24.3033616522
 20
32.3191523045
 10
-24.3609144291
 20
32.0040304957
 10
-24.4056829831
 20
31.687550327
 10
-24.4375483754
 20
31.3704926585
 10
-24.4566298727
 20
31.0520766302
 10
-24.4629275567
 20
30.7323022419
  0
LINE
  5
571
100
AcDbEntity
  8
RACCORDO
100
AcDbLine
 62
7
  6
CONTINUOUS
 10
-16.5732289812
 20
38.5472066338
 11
19.9341619212
 21
38.5472066338
  0
LINE
  5
572
100
AcDbEntity
  8
RACCORDO
100
AcDbLine
 62
253
  6
CONTINUOUS
 10
-16.8559553922
 20
38.8272158158
 11
15.8565096747
 21
38.8278286865
  0
LINE
  5
573
100
AcDbEntity
  8
RACCORDO
100
AcDbLine
 62
253
  6
CONTINUOUS
 10
15.8565096747
 20
38.8278286865
 11
20.2168883322
 21
38.8272158158
  0
LWPOLYLINE
  5
574
100
AcDbEntity
  8
RACCORDO
100
AcDbPolyline
 62
253
  6
CONTINUOUS
 90
40
 70
0
 10
20.2168883199
 20
38.8272158036
 10
20.5481605118
 20
38.8213192263
 10
20.8762150905
 20
38.8022929618
 10
21.2005579599
 20
38.7704402959
 10
21.5200884644
 20
38.7261951982
 10
21.8349942475
 20
38.6698256051
 10
22.146705554
 20
38.6011903245
 10
22.4555282815
 20
38.5202229517
 10
22.7602246629
 20
38.427243908
 10
23.0598932158
 20
38.322548803
 10
23.3539246512
 20
38.2064564749
 10
23.6421010103
 20
38.0791682082
 10
23.9241338724
 20
37.9408569452
 10
24.199585094
 20
37.7918193679
 10
24.4681221403
 20
37.6323202641
 10
24.7296080737
 20
37.4624590872
 10
24.9837386743
 20
37.2824649604
 10
25.2300771528
 20
37.0926825271
 10
25.468283804
 20
36.8933709794
 10
25.6980125605
 20
36.6848480964
 10
25.9189388643
 20
36.4674448479
 10
26.1307671332
 20
36.2414504378
 10
26.3331108725
 20
36.007307633
 10
26.5257641219
 20
35.7652887611
 10
26.708681125
 20
35.5154102493
 10
26.8816215743
 20
35.2579247643
 10
27.044223389
 20
34.9932941207
 10
27.1962336548
 20
34.7218338036
 10
27.3371639118
 20
34.4443879573
 10
27.4670101231
 20
34.1609113974
 10
27.5860969767
 20
33.8703245819
 10
27.69423816
 20
33.5723731813
 10
27.7907881234
 20
33.2680288448
 10
27.8752714941
 20
32.9580233352
 10
27.9474215946
 20
32.6424435365
 10
28.0068399235
 20
32.3220871482
 10
28.0530739967
 20
31.9988230454
 10
28.0859735276
 20
31.6736280386
 10
28.1055125731
 20
31.3465531275
 10
28.1116159036
 20
31.0181152919
  0
LINE
  5
575
100
AcDbEntity
  8
SMUSSO
100
AcDbLine
 62
7
  6
CONTINUOUS
 10
-12.6160385293
 20
63.3966261198
 11
-12.5201970726
 21
63.3007846632
  0
LINE
  5
576
100
AcDbEntity
  8
DRAFT
100
AcDbLine
 62
7
  6
CONTINUOUS
 10
0.9774905256
 20
54.2030970649
 11
1.0507928596
 21
54.1297947309
  0
LINE
  5
577
100
AcDbEntity
  8
DRAFT
100
AcDbLine
 62
7
  6
CONTINUOUS
 10
2.3834424144
 20
52.7971451762
 11
2.3101400804
 21
52.8704475102
  0
LINE
  5
578
100
AcDbEntity
  8
0
100
AcDbLine
 62
7
  6
CONTINUOUS
 10
44.03046647
 20
60.1001211206
 11
44.03046647
 21
56.1001211206
  0
LINE
  5
579
100
AcDbEntity
  8
0
100
AcDbLine
 62
7
  6
CONTINUOUS
 10
44.03046647
 20
-21.8998788794
 11
44.03046647
 21
-25.8998788794
  0
LINE
  5
57A
100
AcDbEntity
  8
DRAFT
100
AcDbLine
 62
7
  6
CONTINUOUS
 10
37.4531580544
 20
-38.6390676274
 11
37.43046647
 21
-38.8217707125
  0
LINE
  5
57B
100
AcDbEntity
  8
DRAFT
100
AcDbLine
 62
7
  6
CONTINUOUS
 10
38.18046647
 20
-38.7374462117
 11
38.1665024181
 21
-38.8498788794
  0
LINE
  5
57C
100
AcDbEntity
  8
DRAFT
100
AcDbLine
 62
7
  6
CONTINUOUS
 10
38.1682479246
 20
-40.5606901315
 11
38.18046647
 21
-40.4623115472
  0
LINE
  5
57D
100
AcDbEntity
  8
DRAFT
100
AcDbLine
 62
7
  6
CONTINUOUS
 10
31.7670619542
 20
-28.0132833952
 11
31.7101400804
 21
-28.0702052691
  0
LINE
  5
57E
100
AcDbEntity
  8
DRAFT
100
AcDbLine
 62
7
  6
CONTINUOUS
 10
30.3924062384
 20
-29.387939111
 11
30.4507928596
 21
-29.3295524898
  0
LINE
  5
57F
100
AcDbEntity
  8
SMUSSO
100
AcDbLine
 62
7
  6
CONTINUOUS
 10
17.2790490702
 20
-42.7512962793
 11
17.1839614707
 21
-42.8463838787
  0
LINE
  5
580
100
AcDbEntity
  8
SMUSSO
100
AcDbLine
 62
7
  6
CONTINUOUS
 10
34.1769714693
 20
42.3966261198
 11
32.6507928596
 21
42.3704475102
  0
LINE
  5
581
100
AcDbEntity
  8
SMUSSO
100
AcDbLine
 62
7
  6
CONTINUOUS
 10
-30.8160385293
 20
43.6036161213
 11
-29.2898599196
 21
43.6297947309
  0
LINE
  5
582
100
AcDbEntity
  8
RACCORDO
100
AcDbLine
 62
253
  6
CONTINUOUS
 10
-16.840100187
 20
39.3196087252
 11
20.201033127
 21
39.3196087252
  0
LINE
  5
583
100
AcDbEntity
  8
RACCORDO
100
AcDbLine
 62
7
  6
CONTINUOUS
 10
38.668324077
 20
41.0879025751
 11
38.1682479246
 21
41.0879025751
  0
LINE
  5
584
100
AcDbEntity
  8
RACCORDO
100
AcDbLine
 62
7
  6
CONTINUOUS
 10
38.6805426224
 20
41.1001211206
 11
38.18046647
 21
41.1001211206
  0
LINE
  5
585
100
AcDbEntity
  8
DRAFT
100
AcDbLine
 62
7
  6
CONTINUOUS
 10
38.1682479246
 20
41.4393098685
 11
37.4531580544
 21
41.4393098685
  0
LINE
  5
586
100
AcDbEntity
  8
DRAFT
100
AcDbLine
 62
7
  6
CONTINUOUS
 10
36.8023583031
 20
41.6220129536
 11
37.43046647
 21
41.6220129536
  0
LINE
  5
587
100
AcDbEntity
  8
DRAFT
100
AcDbLine
 62
7
  6
CONTINUOUS
 10
38.1665024181
 20
41.6501211206
 11
36.83046647
 21
41.6501211206
  0
LINE
  5
588
100
AcDbEntity
  8
SMUSSO
100
AcDbLine
 62
7
  6
CONTINUOUS
 10
-29.2898599196
 20
42.3704475102
 11
-28.3492071404
 21
42.3704475102
  0
LINE
  5
589
100
AcDbEntity
  8
DRAFT
100
AcDbLine
 62
7
  6
CONTINUOUS
 10
-27.0898599196
 20
42.3704475102
 11
30.4507928596
 21
42.3704475102
  0
LINE
  5
58A
100
AcDbEntity
  8
SMUSSO
100
AcDbLine
 62
7
  6
CONTINUOUS
 10
31.7101400804
 20
42.3704475102
 11
32.6507928596
 21
42.3704475102
  0
LINE
  5
58B
100
AcDbEntity
  8
DRAFT
100
AcDbLine
 62
7
  6
CONTINUOUS
 10
36.83046647
 20
43.1501211206
 11
38.1665024181
 21
43.1501211206
  0
LINE
  5
58C
100
AcDbEntity
  8
DRAFT
100
AcDbLine
 62
7
  6
CONTINUOUS
 10
36.8023583031
 20
43.1782292875
 11
37.43046647
 21
43.1782292875
  0
LINE
  5
58D
100
AcDbEntity
  8
DRAFT
100
AcDbLine
 62
7
  6
CONTINUOUS
 10
38.1682479246
 20
43.3609323726
 11
37.4531580544
 21
43.3609323726
  0
LINE
  5
58E
100
AcDbEntity
  8
SMUSSO
100
AcDbLine
 62
7
  6
CONTINUOUS
 10
32.6507928596
 20
43.6297947309
 11
31.7101400804
 21
43.6297947309
  0
LINE
  5
58F
100
AcDbEntity
  8
DRAFT
100
AcDbLine
 62
7
  6
CONTINUOUS
 10
30.4507928596
 20
43.6297947309
 11
17.2101400804
 21
43.6297947309
  0
LINE
  5
590
100
AcDbEntity
  8
DRAFT
100
AcDbLine
 62
7
  6
CONTINUOUS
 10
15.9507928596
 20
43.6297947309
 11
2.3101400804
 21
43.6297947309
  0
LINE
  5
591
100
AcDbEntity
  8
DRAFT
100
AcDbLine
 62
7
  6
CONTINUOUS
 10
1.0507928596
 20
43.6297947309
 11
-12.5898599196
 21
43.6297947309
  0
LINE
  5
592
100
AcDbEntity
  8
DRAFT
100
AcDbLine
 62
7
  6
CONTINUOUS
 10
-13.8492071404
 20
43.6297947309
 11
-27.0898599196
 21
43.6297947309
  0
LINE
  5
593
100
AcDbEntity
  8
SMUSSO
100
AcDbLine
 62
7
  6
CONTINUOUS
 10
-28.3492071404
 20
43.6297947309
 11
-29.2898599196
 21
43.6297947309
  0
LINE
  5
594
100
AcDbEntity
  8
SMUSSO
100
AcDbLine
 62
7
  6
CONTINUOUS
 10
-29.2898599196
 20
42.3704475102
 11
-30.8160385293
 21
42.3966261198
  0
LINE
  5
595
100
AcDbEntity
  8
SMUSSO
100
AcDbLine
 62
7
  6
CONTINUOUS
 10
32.6507928596
 20
43.6297947309
 11
34.1769714693
 21
43.6036161213
  0
LWPOLYLINE
  5
596
100
AcDbEntity
  8
RACCORDO
100
AcDbPolyline
 62
253
  6
CONTINUOUS
 90
40
 70
0
 10
20.201033127
 20
39.3196087252
 10
20.5527094436
 20
39.3120119172
 10
20.8999916969
 20
39.2911681413
 10
21.242880081
 20
39.2570773975
 10
21.5811961844
 20
39.2096189036
 10
21.9151188426
 20
39.1489134418
 10
22.2451840863
 20
39.0753233588
 10
22.5721983711
 20
38.988718826
 10
22.8953555603
 20
38.8892296721
 10
23.2127729254
 20
38.7776077299
 10
23.5242090928
 20
38.6538533957
 10
23.829906184
 20
38.5179662734
 10
24.1287069873
 20
38.3706970073
 10
24.4205419615
 20
38.212058647
 10
24.7054816089
 20
38.0420381429
 10
24.9825789652
 20
37.8613469915
 10
25.2518882207
 20
37.6699126989
 10
25.5133562944
 20
37.467807759
 10
25.7658754779
 20
37.2559611494
 10
26.0094066452
 20
37.0343393717
 10
26.2439901725
 20
36.8029759242
 10
26.4686377512
 20
36.5629002798
 10
26.6832485462
 20
36.314196324
 10
26.8879247023
 20
36.0567801712
 10
27.0819824703
 20
35.791429637
 10
27.2654829204
 20
35.5180259561
 10
27.4383662366
 20
35.2366878938
 10
27.5997673951
 20
34.9485495612
 10
27.7495163236
 20
34.6541009267
 10
27.8877842635
 20
34.3528520219
 10
28.0142181728
 20
34.044467053
 10
28.1291209983
 20
33.7282872775
 10
28.2321907411
 20
33.4049714378
 10
28.322166936
 20
33.0761599683
 10
28.398941102
 20
32.7414014762
 10
28.4626224686
 20
32.4011473542
 10
28.5122771165
 20
32.0583922147
 10
28.5475938857
 20
31.7141342617
 10
28.5688843517
 20
31.3673752912
 10
28.5761486183
 20
31.0181153032
  0
LWPOLYLINE
  5
597
100
AcDbEntity
  8
RACCORDO
100
AcDbPolyline
 62
7
  6
CONTINUOUS
 90
22
 70
0
 10
38.6805426224
 20
41.1001211206
 10
38.7178228424
 20
41.0987296476
 10
38.7549451977
 20
41.0945550726
 10
38.7917012981
 20
41.0876093833
 10
38.8279312075
 20
41.0779055412
 10
38.8633786718
 20
41.0654945017
 10
38.8977047055
 20
41.0505005377
 10
38.9306203205
 20
41.0330889407
 10
38.9620664339
 20
41.0133313415
 10
38.9920491182
 20
40.9912216403
 10
39.0204956466
 20
40.9667607084
 10
39.0471060578
 20
40.9401502972
 10
39.0715669897
 20
40.9117037688
 10
39.0936766909
 20
40.8817210844
 10
39.1134342902
 20
40.8502749711
 10
39.1308458872
 20
40.8173593561
 10
39.1458398512
 20
40.7830333223
 10
39.1582508906
 20
40.7475858581
 10
39.1679547328
 20
40.7113559487
 10
39.1749004221
 20
40.6745998483
 10
39.179074997
 20
40.6374774929
 10
39.18046647
 20
40.600197273
  0
LINE
  5
598
100
AcDbEntity
  8
DRAFT
100
AcDbLine
 62
7
  6
CONTINUOUS
 10
31.7101400804
 20
26.1704475102
 11
31.7670619542
 21
26.1135256364
  0
LINE
  5
599
100
AcDbEntity
  8
DRAFT
100
AcDbLine
 62
7
  6
CONTINUOUS
 10
15.8811300127
 20
43.6994575779
 11
15.9507928596
 21
43.6297947309
  0
LINE
  5
59A
100
AcDbEntity
  8
SMUSSO
100
AcDbLine
 62
7
  6
CONTINUOUS
 10
34.0965101093
 20
27.4840774813
 11
34.1769714693
 21
27.4036161213
  0
LINE
  5
59B
100
AcDbEntity
  8
DRAFT
100
AcDbLine
 62
7
  6
CONTINUOUS
 10
37.4531580544
 20
41.4393098685
 11
37.43046647
 21
41.6220129536
  0
LINE
  5
59C
100
AcDbEntity
  8
DRAFT
100
AcDbLine
 62
7
  6
CONTINUOUS
 10
38.18046647
 20
41.5376884528
 11
38.1665024181
 21
41.6501211206
  0
LINE
  5
59D
100
AcDbEntity
  8
DRAFT
100
AcDbLine
 62
7
  6
CONTINUOUS
 10
38.1682479246
 20
43.3609323726
 11
38.18046647
 21
43.2625537883
  0
LINE
  5
59E
100
AcDbEntity
  8
SMUSSO
100
AcDbLine
 62
7
  6
CONTINUOUS
 10
34.1769714693
 20
-29.3033738802
 11
34.0965101093
 21
-29.3838352402
  0
LINE
  5
59F
100
AcDbEntity
  8
RACCORDO
100
AcDbLine
 62
7
  6
CONTINUOUS
 10
-39.6206751206
 20
48.2001211206
 11
-38.0183919394
 21
48.2001211206
  0
LINE
  5
5A0
100
AcDbEntity
  8
RACCORDO
100
AcDbLine
 62
7
  6
CONTINUOUS
 10
-39.3232136646
 20
48.4975825766
 11
-38.3158533954
 21
48.4975825766
  0
LINE
  5
5A1
100
AcDbEntity
  8
SMUSSO
100
AcDbLine
 62
7
  6
CONTINUOUS
 10
2.2839614707
 20
63.3966261198
 11
2.3834424144
 21
63.2971451762
  0
LINE
  5
5A2
100
AcDbEntity
  8
DRAFT
100
AcDbLine
 62
7
  6
CONTINUOUS
 10
15.8811300127
 20
54.1994575779
 11
15.9507928596
 21
54.1297947309
  0
LINE
  5
5A3
100
AcDbEntity
  8
DRAFT
100
AcDbLine
 62
7
  6
CONTINUOUS
 10
17.2790490702
 20
52.8015385204
 11
17.2101400804
 21
52.8704475102
  0
LINE
  5
5A4
100
AcDbEntity
  8
DRAFT
100
AcDbLine
 62
7
  6
CONTINUOUS
 10
30.9319937882
 20
-42.8620974249
 11
30.9227483756
 21
-42.8725704638
  0
LINE
  5
5A5
100
AcDbEntity
  8
SMUSSO
100
AcDbLine
 62
7
  6
CONTINUOUS
 10
31.7670619542
 20
-42.7632833952
 11
31.6839614707
 21
-42.8463838787
  0
LINE
  5
5A6
100
AcDbEntity
  8
DRAFT
100
AcDbLine
 62
7
  6
CONTINUOUS
 10
36.8147042332
 20
-40.3779870464
 11
36.8428124001
 21
-40.3498788794
  0
LINE
  5
5A7
100
AcDbEntity
  8
DRAFT
100
AcDbLine
 62
7
  6
CONTINUOUS
 10
32.1806846583
 20
-44.8481333729
 11
32.1925483306
 21
-44.837660334
  0
LINE
  5
5A8
100
AcDbEntity
  8
SMUSSO
100
AcDbLine
 62
7
  6
CONTINUOUS
 10
34.1769714693
 20
52.8966261198
 11
32.6507928596
 21
52.8704475102
  0
LINE
  5
5A9
100
AcDbEntity
  8
SMUSSO
100
AcDbLine
 62
7
  6
CONTINUOUS
 10
-30.8160385293
 20
54.1036161213
 11
-29.2898599196
 21
54.1297947309
  0
LINE
  5
5AA
100
AcDbEntity
  8
SMUSSO
100
AcDbLine
 62
7
  6
CONTINUOUS
 10
-29.2898599196
 20
52.8704475102
 11
-28.3492071404
 21
52.8704475102
  0
LINE
  5
5AB
100
AcDbEntity
  8
DRAFT
100
AcDbLine
 62
7
  6
CONTINUOUS
 10
-27.0898599196
 20
52.8704475102
 11
-13.8492071404
 21
52.8704475102
  0
LINE
  5
5AC
100
AcDbEntity
  8
DRAFT
100
AcDbLine
 62
7
  6
CONTINUOUS
 10
-12.5898599196
 20
52.8704475102
 11
1.0507928596
 21
52.8704475102
  0
LINE
  5
5AD
100
AcDbEntity
  8
DRAFT
100
AcDbLine
 62
7
  6
CONTINUOUS
 10
2.3101400804
 20
52.8704475102
 11
15.9507928596
 21
52.8704475102
  0
LINE
  5
5AE
100
AcDbEntity
  8
DRAFT
100
AcDbLine
 62
7
  6
CONTINUOUS
 10
17.2101400804
 20
52.8704475102
 11
30.4507928596
 21
52.8704475102
  0
LINE
  5
5AF
100
AcDbEntity
  8
SMUSSO
100
AcDbLine
 62
7
  6
CONTINUOUS
 10
31.7101400804
 20
52.8704475102
 11
32.6507928596
 21
52.8704475102
  0
LINE
  5
5B0
100
AcDbEntity
  8
SMUSSO
100
AcDbLine
 62
7
  6
CONTINUOUS
 10
32.6507928596
 20
54.1297947309
 11
31.7101400804
 21
54.1297947309
  0
LINE
  5
5B1
100
AcDbEntity
  8
DRAFT
100
AcDbLine
 62
7
  6
CONTINUOUS
 10
30.4507928596
 20
54.1297947309
 11
17.2101400804
 21
54.1297947309
  0
LINE
  5
5B2
100
AcDbEntity
  8
DRAFT
100
AcDbLine
 62
7
  6
CONTINUOUS
 10
15.9507928596
 20
54.1297947309
 11
2.3101400804
 21
54.1297947309
  0
LINE
  5
5B3
100
AcDbEntity
  8
DRAFT
100
AcDbLine
 62
7
  6
CONTINUOUS
 10
1.0507928596
 20
54.1297947309
 11
-12.5898599196
 21
54.1297947309
  0
LINE
  5
5B4
100
AcDbEntity
  8
DRAFT
100
AcDbLine
 62
7
  6
CONTINUOUS
 10
-13.8492071404
 20
54.1297947309
 11
-27.0898599196
 21
54.1297947309
  0
LINE
  5
5B5
100
AcDbEntity
  8
SMUSSO
100
AcDbLine
 62
7
  6
CONTINUOUS
 10
-28.3492071404
 20
54.1297947309
 11
-29.2898599196
 21
54.1297947309
  0
LINE
  5
5B6
100
AcDbEntity
  8
SMUSSO
100
AcDbLine
 62
7
  6
CONTINUOUS
 10
-29.2898599196
 20
52.8704475102
 11
-30.8160385293
 21
52.8966261198
  0
LINE
  5
5B7
100
AcDbEntity
  8
SMUSSO
100
AcDbLine
 62
7
  6
CONTINUOUS
 10
32.6507928596
 20
54.1297947309
 11
34.1769714693
 21
54.1036161213
  0
LINE
  5
5B8
100
AcDbEntity
  8
DRAFT
100
AcDbLine
 62
7
  6
CONTINUOUS
 10
30.3924062384
 20
43.6881813522
 11
30.4507928596
 21
43.6297947309
  0
LINE
  5
5B9
100
AcDbEntity
  8
DRAFT
100
AcDbLine
 62
7
  6
CONTINUOUS
 10
31.7670619542
 20
42.3135256364
 11
31.7101400804
 21
42.3704475102
  0
LINE
  5
5BA
100
AcDbEntity
  8
SMUSSO
100
AcDbLine
 62
7
  6
CONTINUOUS
 10
34.0965101093
 20
43.6840774813
 11
34.1769714693
 21
43.6036161213
  0
LINE
  5
5BB
100
AcDbEntity
  8
DRAFT
100
AcDbLine
 62
7
  6
CONTINUOUS
 10
38.4177685133
 20
56.1001211206
 11
38.1682479246
 21
56.1001211206
  0
LINE
  5
5BC
100
AcDbEntity
  8
0
100
AcDbLine
 62
7
  6
CONTINUOUS
 10
38.4177685133
 20
56.1001211206
 11
44.0304181872
 21
56.1001211206
  0
LINE
  5
5BD
100
AcDbEntity
  8
RACCORDO
100
AcDbLine
 62
7
  6
CONTINUOUS
 10
-38.3158533954
 20
56.3026596646
 11
-39.3232136646
 21
56.3026596646
  0
LINE
  5
5BE
100
AcDbEntity
  8
RACCORDO
100
AcDbLine
 62
7
  6
CONTINUOUS
 10
-38.0183919394
 20
56.6001211206
 11
-39.6206751206
 21
56.6001211206
  0
LINE
  5
5BF
100
AcDbEntity
  8
0
100
AcDbLine
 62
7
  6
CONTINUOUS
 10
44.0304181872
 20
60.1001211206
 11
38.4177685133
 21
60.1001211206
  0
LINE
  5
5C0
100
AcDbEntity
  8
SMUSSO
100
AcDbLine
 62
7
  6
CONTINUOUS
 10
-28.3492071404
 20
60.3704475102
 11
-27.0898599196
 21
60.3704475102
  0
LINE
  5
5C1
100
AcDbEntity
  8
SMUSSO
100
AcDbLine
 62
7
  6
CONTINUOUS
 10
-13.8492071404
 20
60.3704475102
 11
-12.5898599196
 21
60.3704475102
  0
LINE
  5
5C2
100
AcDbEntity
  8
SMUSSO
100
AcDbLine
 62
7
  6
CONTINUOUS
 10
1.0507928596
 20
60.3704475102
 11
2.3101400804
 21
60.3704475102
  0
LINE
  5
5C3
100
AcDbEntity
  8
SMUSSO
100
AcDbLine
 62
7
  6
CONTINUOUS
 10
15.9507928596
 20
60.3704475102
 11
17.2101400804
 21
60.3704475102
  0
LINE
  5
5C4
100
AcDbEntity
  8
SMUSSO
100
AcDbLine
 62
7
  6
CONTINUOUS
 10
30.4507928596
 20
60.3704475102
 11
31.7101400804
 21
60.3704475102
  0
LINE
  5
5C5
100
AcDbEntity
  8
DRAFT
100
AcDbLine
 62
7
  6
CONTINUOUS
 10
36.8023583031
 20
43.1782292875
 11
36.83046647
 21
43.1501211206
  0
LINE
  5
5C6
100
AcDbEntity
  8
SMUSSO
100
AcDbLine
 62
7
  6
CONTINUOUS
 10
17.1839614707
 20
63.3966261198
 11
17.2790490702
 21
63.3015385204
  0
LINE
  5
5C7
100
AcDbEntity
  8
DRAFT
100
AcDbLine
 62
7
  6
CONTINUOUS
 10
30.3924062384
 20
54.1881813522
 11
30.4507928596
 21
54.1297947309
  0
LINE
  5
5C8
100
AcDbEntity
  8
DRAFT
100
AcDbLine
 62
7
  6
CONTINUOUS
 10
31.7670619542
 20
52.8135256364
 11
31.7101400804
 21
52.8704475102
  0
LINE
  5
5C9
100
AcDbEntity
  8
DRAFT
100
AcDbLine
 62
7
  6
CONTINUOUS
 10
-36.030344782
 20
61.4393098685
 11
-34.0922251144
 21
61.4393098685
  0
LINE
  5
5CA
100
AcDbEntity
  8
DRAFT
100
AcDbLine
 62
7
  6
CONTINUOUS
 10
-33.4414253631
 20
61.6220129536
 11
-34.06953353
 21
61.6220129536
  0
LINE
  5
5CB
100
AcDbEntity
  8
DRAFT
100
AcDbLine
 62
7
  6
CONTINUOUS
 10
-33.46953353
 20
61.6501211206
 11
-35.81953353
 21
61.6501211206
  0
LINE
  5
5CC
100
AcDbEntity
  8
DRAFT
100
AcDbLine
 62
7
  6
CONTINUOUS
 10
-35.81953353
 20
63.1501211206
 11
-33.46953353
 21
63.1501211206
  0
LINE
  5
5CD
100
AcDbEntity
  8
DRAFT
100
AcDbLine
 62
7
  6
CONTINUOUS
 10
-33.4414253631
 20
63.1782292875
 11
-34.06953353
 21
63.1782292875
  0
LINE
  5
5CE
100
AcDbEntity
  8
DRAFT
100
AcDbLine
 62
7
  6
CONTINUOUS
 10
-36.030344782
 20
63.3609323726
 11
-34.0922251144
 21
63.3609323726
  0
LINE
  5
5CF
100
AcDbEntity
  8
SMUSSO
100
AcDbLine
 62
7
  6
CONTINUOUS
 10
-28.3230285307
 20
63.3966261198
 11
-27.1160385293
 21
63.3966261198
  0
LINE
  5
5D0
100
AcDbEntity
  8
SMUSSO
100
AcDbLine
 62
7
  6
CONTINUOUS
 10
-13.8230285307
 20
63.3966261198
 11
-12.6160385293
 21
63.3966261198
  0
LINE
  5
5D1
100
AcDbEntity
  8
SMUSSO
100
AcDbLine
 62
7
  6
CONTINUOUS
 10
1.0769714693
 20
63.3966261198
 11
2.2839614707
 21
63.3966261198
  0
LINE
  5
5D2
100
AcDbEntity
  8
SMUSSO
100
AcDbLine
 62
7
  6
CONTINUOUS
 10
15.9769714693
 20
63.3966261198
 11
17.1839614707
 21
63.3966261198
  0
LINE
  5
5D3
100
AcDbEntity
  8
SMUSSO
100
AcDbLine
 62
7
  6
CONTINUOUS
 10
30.4769714693
 20
63.3966261198
 11
31.6839614707
 21
63.3966261198
  0
LINE
  5
5D4
100
AcDbEntity
  8
DRAFT
100
AcDbLine
 62
7
  6
CONTINUOUS
 10
-30.81953353
 20
63.4001211206
 11
34.18046647
 21
63.4001211206
  0
LINE
  5
5D5
100
AcDbEntity
  8
0
100
AcDbLine
 62
253
  6
CONTINUOUS
 10
-31.6555964146
 20
65.0001211206
 11
-32.2834706454
 21
65.0001211206
  0
LINE
  5
5D6
100
AcDbEntity
  8
0
100
AcDbLine
 62
253
  6
CONTINUOUS
 10
35.0165293546
 20
65.0001211206
 11
35.6444035854
 21
65.0001211206
  0
LINE
  5
5D7
100
AcDbEntity
  8
0
100
AcDbLine
 62
7
  6
CONTINUOUS
 10
34.93046647
 20
65.0861840051
 11
-31.56953353
 21
65.0861840051
  0
LINE
  5
5D8
100
AcDbEntity
  8
0
100
AcDbLine
 62
253
  6
CONTINUOUS
 10
34.93046647
 20
65.2188595632
 11
-31.56953353
 21
65.2188595632
  0
LINE
  5
5D9
100
AcDbEntity
  8
0
100
AcDbLine
 62
253
  6
CONTINUOUS
 10
34.93046647
 20
65.581382678
 11
-31.56953353
 21
65.581382678
  0
LINE
  5
5DA
100
AcDbEntity
  8
0
100
AcDbLine
 62
7
  6
CONTINUOUS
 10
34.93046647
 20
65.714058236
 11
-31.56953353
 21
65.714058236
  0
LINE
  5
5DB
100
AcDbEntity
  8
SMUSSO
100
AcDbLine
 62
7
  6
CONTINUOUS
 10
34.0965101093
 20
54.1840774813
 11
34.1769714693
 21
54.1036161213
  0
LWPOLYLINE
  5
5DC
100
AcDbEntity
  8
RACCORDO
100
AcDbPolyline
 62
7
  6
CONTINUOUS
 90
22
 70
0
 10
-36.8196096824
 20
69.6501211206
 10
-36.8568899024
 20
69.6487296476
 10
-36.8940122577
 20
69.6445550726
 10
-36.9307683581
 20
69.6376093833
 10
-36.9669982675
 20
69.6279055412
 10
-37.0024457318
 20
69.6154945017
 10
-37.0367717655
 20
69.6005005377
 10
-37.0696873805
 20
69.5830889407
 10
-37.1011334939
 20
69.5633313415
 10
-37.1311161782
 20
69.5412216403
 10
-37.1595627066
 20
69.5167607084
 10
-37.1861731178
 20
69.4901502972
 10
-37.2106340497
 20
69.4617037688
 10
-37.2327437509
 20
69.4317210844
 10
-37.2525013502
 20
69.4002749711
 10
-37.2699129472
 20
69.3673593561
 10
-37.2849069112
 20
69.3330333223
 10
-37.2973179506
 20
69.2975858581
 10
-37.3070217927
 20
69.2613559487
 10
-37.3139674821
 20
69.2245998483
 10
-37.318142057
 20
69.1874774929
 10
-37.31953353
 20
69.150197273
  0
LINE
  5
5DD
100
AcDbEntity
  8
DRAFT
100
AcDbLine
 62
7
  6
CONTINUOUS
 10
-34.06953353
 20
67.6501211206
 11
37.43046647
 21
67.6501211206
  0
LINE
  5
5DE
100
AcDbEntity
  8
DRAFT
100
AcDbLine
 62
7
  6
CONTINUOUS
 10
-34.0922251144
 20
67.672812705
 11
37.4531580544
 21
67.672812705
  0
LINE
  5
5DF
100
AcDbEntity
  8
RACCORDO
100
AcDbLine
 62
7
  6
CONTINUOUS
 10
-36.2369885949
 20
69.6204475102
 11
-36.789936072
 21
69.6204475102
  0
LINE
  5
5E0
100
AcDbEntity
  8
RACCORDO
100
AcDbLine
 62
7
  6
CONTINUOUS
 10
-36.21953353
 20
69.6379025751
 11
38.668324077
 21
69.6379025751
  0
LINE
  5
5E1
100
AcDbEntity
  8
RACCORDO
100
AcDbLine
 62
7
  6
CONTINUOUS
 10
38.6805426224
 20
69.6501211206
 11
-36.8196096824
 21
69.6501211206
  0
LWPOLYLINE
  5
5E2
100
AcDbEntity
  8
RACCORDO
100
AcDbPolyline
 62
7
  6
CONTINUOUS
 90
22
 70
0
 10
38.6805426224
 20
69.6501211206
 10
38.7178228424
 20
69.6487296476
 10
38.7549451977
 20
69.6445550726
 10
38.7917012981
 20
69.6376093833
 10
38.8279312075
 20
69.6279055412
 10
38.8633786718
 20
69.6154945017
 10
38.8977047055
 20
69.6005005377
 10
38.9306203205
 20
69.5830889407
 10
38.9620664339
 20
69.5633313415
 10
38.9920491182
 20
69.5412216403
 10
39.0204956466
 20
69.5167607084
 10
39.0471060578
 20
69.4901502972
 10
39.0715669897
 20
69.4617037688
 10
39.0936766909
 20
69.4317210844
 10
39.1134342902
 20
69.4002749711
 10
39.1308458872
 20
69.3673593561
 10
39.1458398512
 20
69.3330333223
 10
39.1582508906
 20
69.2975858581
 10
39.1679547328
 20
69.2613559487
 10
39.1749004221
 20
69.2245998483
 10
39.179074997
 20
69.1874774929
 10
39.18046647
 20
69.150197273
  0
LINE
  5
5E3
100
AcDbEntity
  8
SMUSSO
100
AcDbLine
 62
7
  6
CONTINUOUS
 10
31.6839614707
 20
63.3966261198
 11
31.7670619542
 21
63.3135256364
  0
ARC
  5
5E4
100
AcDbEntity
  8
DRAFT
100
AcDbCircle
 62
7
  6
CONTINUOUS
 10
-37.31953353
 20
-27.5998788794
 40
6.4
100
AcDbArc
 50
90.0
 51
270.0
  0
ARC
  5
5E5
100
AcDbEntity
  8
DRAFT
100
AcDbCircle
 62
7
  6
CONTINUOUS
 10
-37.31953353
 20
-27.5998788794
 40
6.3703263896
100
AcDbArc
 50
89.733109627
 51
270.266890373
  0
ARC
  5
5E6
100
AcDbEntity
  8
DRAFT
100
AcDbCircle
 62
7
  6
CONTINUOUS
 10
-38.81953353
 20
-27.5998788794
 40
2.35
100
AcDbArc
 50
250.0313601105
 51
289.9686398895
  0
ARC
  5
5E7
100
AcDbEntity
  8
DRAFT
100
AcDbCircle
 62
7
  6
CONTINUOUS
 10
-38.81953353
 20
-27.5998788794
 40
2.35
100
AcDbArc
 50
70.0313601105
 51
109.9686398895
  0
ARC
  5
5E8
100
AcDbEntity
  8
DRAFT
100
AcDbCircle
 62
7
  6
CONTINUOUS
 10
-38.81953353
 20
-27.5998788794
 40
1.65
100
AcDbArc
 50
304.0986720093
 51
55.9013279907
  0
ARC
  5
5E9
100
AcDbEntity
  8
DRAFT
100
AcDbCircle
 62
7
  6
CONTINUOUS
 10
-38.81953353
 20
-27.5998788794
 40
1.65
100
AcDbArc
 50
124.0986720093
 51
235.9013279907
  0
CIRCLE
  5
5EA
100
AcDbEntity
  8
0
100
AcDbCircle
 62
7
  6
CONTINUOUS
 10
-38.81953353
 20
-27.5998788794
 40
1.5
  0
ARC
  5
5EB
100
AcDbEntity
  8
0
100
AcDbCircle
 62
7
  6
CONTINUOUS
 10
-38.81953353
 20
-27.5998788794
 40
1.2
100
AcDbArc
 50
255.0
 51
195.0
  0
ARC
  5
5EC
100
AcDbEntity
  8
DRAFT
100
AcDbCircle
 62
7
  6
CONTINUOUS
 10
-37.31953353
 20
52.4001211206
 40
6.4
100
AcDbArc
 50
90.0
 51
270.0
  0
ARC
  5
5ED
100
AcDbEntity
  8
DRAFT
100
AcDbCircle
 62
7
  6
CONTINUOUS
 10
-37.31953353
 20
52.4001211206
 40
6.3703263896
100
AcDbArc
 50
89.733109627
 51
270.266890373
  0
ARC
  5
5EE
100
AcDbEntity
  8
DRAFT
100
AcDbCircle
 62
7
  6
CONTINUOUS
 10
-38.81953353
 20
52.4001211206
 40
2.35
100
AcDbArc
 50
250.0313601105
 51
289.9686398895
  0
ARC
  5
5EF
100
AcDbEntity
  8
DRAFT
100
AcDbCircle
 62
7
  6
CONTINUOUS
 10
-38.81953353
 20
52.4001211206
 40
2.35
100
AcDbArc
 50
70.0313601105
 51
109.9686398895
  0
ARC
  5
5F0
100
AcDbEntity
  8
DRAFT
100
AcDbCircle
 62
7
  6
CONTINUOUS
 10
-38.81953353
 20
52.4001211206
 40
1.65
100
AcDbArc
 50
124.0986720093
 51
235.9013279907
  0
ARC
  5
5F1
100
AcDbEntity
  8
DRAFT
100
AcDbCircle
 62
7
  6
CONTINUOUS
 10
-38.81953353
 20
52.4001211206
 40
1.65
100
AcDbArc
 50
304.0986720093
 51
55.9013279907
  0
CIRCLE
  5
5F2
100
AcDbEntity
  8
0
100
AcDbCircle
 62
7
  6
CONTINUOUS
 10
-38.81953353
 20
52.4001211206
 40
1.5
  0
ARC
  5
5F3
100
AcDbEntity
  8
0
100
AcDbCircle
 62
7
  6
CONTINUOUS
 10
-38.81953353
 20
52.4001211206
 40
1.2
100
AcDbArc
 50
255.0
 51
195.0
  0
ARC
  5
5F4
100
AcDbEntity
  8
0
100
AcDbCircle
 62
7
  6
CONTINUOUS
 10
-31.56953353
 20
65.0001211206
 40
0.7139371154
100
AcDbArc
 50
90.0
 51
180.0
  0
ARC
  5
5F5
100
AcDbEntity
  8
0
100
AcDbCircle
 62
253
  6
CONTINUOUS
 10
-31.56953353
 20
65.0001211206
 40
0.5812615574
100
AcDbArc
 50
90.0
 51
180.0
  0
ARC
  5
5F6
100
AcDbEntity
  8
0
100
AcDbCircle
 62
253
  6
CONTINUOUS
 10
-31.56953353
 20
65.0001211206
 40
0.2187384426
100
AcDbArc
 50
90.0
 51
180.0
  0
ARC
  5
5F7
100
AcDbEntity
  8
0
100
AcDbCircle
 62
7
  6
CONTINUOUS
 10
-31.56953353
 20
65.0001211206
 40
0.0860628846
100
AcDbArc
 50
90.0
 51
180.0000000002
  0
ARC
  5
5F8
100
AcDbEntity
  8
ASSI
100
AcDbCircle
 62
7
  6
CONTINUOUS
 10
12.44587647
 20
-23.6998668794
 40
2.5500000352
100
AcDbArc
 50
84.2608296022
 51
275.7391703978
  0
ARC
  5
5F9
100
AcDbEntity
  8
ASSI
100
AcDbCircle
 62
7
  6
CONTINUOUS
 10
8.11087647
 20
-23.6998668794
 40
2.5500000352
100
AcDbArc
 50
84.2608296022
 51
275.7391703978
  0
ARC
  5
5FA
100
AcDbEntity
  8
ASSI
100
AcDbCircle
 62
7
  6
CONTINUOUS
 10
12.44587647
 20
-23.6998668794
 40
1.7850001745
100
AcDbArc
 50
192.3736238876
 51
278.2132098934
  0
ARC
  5
5FB
100
AcDbEntity
  8
ASSI
100
AcDbCircle
 62
7
  6
CONTINUOUS
 10
8.11087647
 20
-23.6998668794
 40
1.7850001745
100
AcDbArc
 50
81.7867901066
 51
278.2132098934
  0
ARC
  5
5FC
100
AcDbEntity
  8
ASSI
100
AcDbCircle
 62
7
  6
CONTINUOUS
 10
12.44587647
 20
-23.6998668794
 40
1.7849997292
100
AcDbArc
 50
81.7867880437
 51
167.626372977
  0
ARC
  5
5FD
100
AcDbEntity
  8
0
100
AcDbCircle
 62
7
  6
CONTINUOUS
 10
34.93046647
 20
65.0001211206
 40
0.7139371154
100
AcDbArc
 50
0.0
 51
90.0
  0
ARC
  5
5FE
100
AcDbEntity
  8
0
100
AcDbCircle
 62
253
  6
CONTINUOUS
 10
34.93046647
 20
65.0001211206
 40
0.5812615574
100
AcDbArc
 50
0.0
 51
90.0
  0
ARC
  5
5FF
100
AcDbEntity
  8
0
100
AcDbCircle
 62
253
  6
CONTINUOUS
 10
34.93046647
 20
65.0001211206
 40
0.2187384426
100
AcDbArc
 50
0.0
 51
90.0
  0
ARC
  5
600
100
AcDbEntity
  8
0
100
AcDbCircle
 62
7
  6
CONTINUOUS
 10
34.93046647
 20
65.0001211206
 40
0.0860628846
100
AcDbArc
 50
0.0
 51
89.9999999998
  0
ELLIPSE
  5
601
100
AcDbEntity
  8
RACCORDO
100
AcDbEllipse
 62
7
  6
CONTINUOUS
 10
38.6681717605
 20
69.1378264111
 30
0.0
 11
0.3536610946
 21
0.3536610946
 31
0.0
 40
0.9996954599
 41
-0.7852458701
 42
0.7852458701
  0
ELLIPSE
  5
602
100
AcDbEntity
  8
RACCORDO
100
AcDbEllipse
 62
7
  6
CONTINUOUS
 10
37.6681717605
 20
-44.33758417
 30
0.0
 11
-0.3536610946
 21
0.3536610946
 31
0.0
 40
0.9996954599
 41
2.3563467834
 42
3.9268385237
  0
ELLIPSE
  5
603
100
AcDbEntity
  8
RACCORDO
100
AcDbEllipse
 62
7
  6
CONTINUOUS
 10
38.6681717605
 20
40.5878264111
 30
0.0
 11
-0.3536610946
 21
-0.3536610946
 31
0.0
 40
0.9996954599
 41
2.3563467834
 42
3.9268385237
  0
ELLIPSE
  5
604
100
AcDbEntity
  8
RACCORDO
100
AcDbEllipse
 62
7
  6
CONTINUOUS
 10
-39.3209261227
 20
48.7987285278
 30
0.0
 11
0.2137495824
 21
0.2137495824
 31
0.0
 40
0.9924325091
 41
2.3599925885
 42
3.9231927187
  0
ELLIPSE
  5
605
100
AcDbEntity
  8
RACCORDO
100
AcDbEllipse
 62
7
  6
CONTINUOUS
 10
-38.3181409372
 20
48.7987285278
 30
0.0
 11
-0.2137495824
 21
0.2137495824
 31
0.0
 40
0.9924325091
 41
2.3599925885
 42
3.9231927187
  0
ELLIPSE
  5
606
100
AcDbEntity
  8
RACCORDO
100
AcDbEllipse
 62
7
  6
CONTINUOUS
 10
-39.3209261227
 20
56.0015137133
 30
0.0
 11
0.2137495824
 21
-0.2137495824
 31
0.0
 40
0.9924325091
 41
2.3599925885
 42
3.9231927187
  0
ELLIPSE
  5
607
100
AcDbEntity
  8
RACCORDO
100
AcDbEllipse
 62
7
  6
CONTINUOUS
 10
-38.3181409372
 20
56.0015137133
 30
0.0
 11
-0.2137495824
 21
-0.2137495824
 31
0.0
 40
0.9924325091
 41
2.3599925885
 42
3.9231927187
  0
ELLIPSE
  5
608
100
AcDbEntity
  8
RACCORDO
100
AcDbEllipse
 62
7
  6
CONTINUOUS
 10
-39.3209261227
 20
-23.9984862867
 30
0.0
 11
0.2137495824
 21
-0.2137495824
 31
0.0
 40
0.9924325091
 41
2.3599925885
 42
3.9231927187
  0
ELLIPSE
  5
609
100
AcDbEntity
  8
RACCORDO
100
AcDbEllipse
 62
7
  6
CONTINUOUS
 10
-38.3181409372
 20
-23.9984862867
 30
0.0
 11
-0.2137495824
 21
-0.2137495824
 31
0.0
 40
0.9924325091
 41
2.3599925885
 42
3.9231927187
  0
ELLIPSE
  5
60A
100
AcDbEntity
  8
RACCORDO
100
AcDbEllipse
 62
7
  6
CONTINUOUS
 10
-39.3209261227
 20
-31.2012714722
 30
0.0
 11
0.2137495824
 21
0.2137495824
 31
0.0
 40
0.9924325091
 41
2.3599925885
 42
3.9231927187
  0
ELLIPSE
  5
60B
100
AcDbEntity
  8
RACCORDO
100
AcDbEllipse
 62
7
  6
CONTINUOUS
 10
-38.3181409372
 20
-31.2012714722
 30
0.0
 11
-0.2137495824
 21
0.2137495824
 31
0.0
 40
0.9924325091
 41
2.3599925885
 42
3.9231927187
  0
ELLIPSE
  5
60C
100
AcDbEntity
  8
RACCORDO
100
AcDbEllipse
 62
7
  6
CONTINUOUS
 10
-39.6183875787
 20
48.5012670718
 30
0.0
 11
0.2137495824
 21
0.2137495824
 31
0.0
 40
0.9924325091
 41
-3.9231927187
 42
-2.3599925885
  0
ELLIPSE
  5
60D
100
AcDbEntity
  8
RACCORDO
100
AcDbEllipse
 62
7
  6
CONTINUOUS
 10
-38.0206794813
 20
48.5012670718
 30
0.0
 11
-0.2137495824
 21
0.2137495824
 31
0.0
 40
0.9924325091
 41
-3.9231927187
 42
-2.3599925885
  0
ELLIPSE
  5
60E
100
AcDbEntity
  8
RACCORDO
100
AcDbEllipse
 62
7
  6
CONTINUOUS
 10
-39.6183875787
 20
56.2989751693
 30
0.0
 11
0.2137495824
 21
-0.2137495824
 31
0.0
 40
0.9924325091
 41
2.3599925885
 42
3.9231927187
  0
ELLIPSE
  5
60F
100
AcDbEntity
  8
RACCORDO
100
AcDbEllipse
 62
7
  6
CONTINUOUS
 10
-38.0206794813
 20
56.2989751693
 30
0.0
 11
0.2137495824
 21
0.2137495824
 31
0.0
 40
0.9924325091
 41
-0.7816000651
 42
0.7816000651
  0
ELLIPSE
  5
610
100
AcDbEntity
  8
RACCORDO
100
AcDbEllipse
 62
7
  6
CONTINUOUS
 10
-39.6183875787
 20
-23.7010248307
 30
0.0
 11
0.2137495824
 21
-0.2137495824
 31
0.0
 40
0.9924325091
 41
2.3599925885
 42
3.9231927187
  0
ELLIPSE
  5
611
100
AcDbEntity
  8
RACCORDO
100
AcDbEllipse
 62
7
  6
CONTINUOUS
 10
-38.0206794813
 20
-23.7010248307
 30
0.0
 11
0.2137495824
 21
0.2137495824
 31
0.0
 40
0.9924325091
 41
-0.7816000651
 42
0.7816000651
  0
ELLIPSE
  5
612
100
AcDbEntity
  8
RACCORDO
100
AcDbEllipse
 62
7
  6
CONTINUOUS
 10
-39.6183875787
 20
-31.4987329282
 30
0.0
 11
0.2137495824
 21
0.2137495824
 31
0.0
 40
0.9924325091
 41
-3.9231927187
 42
-2.3599925885
  0
ELLIPSE
  5
613
100
AcDbEntity
  8
RACCORDO
100
AcDbEllipse
 62
7
  6
CONTINUOUS
 10
-38.0206794813
 20
-31.4987329282
 30
0.0
 11
0.2137495824
 21
-0.2137495824
 31
0.0
 40
0.9924325091
 41
-0.7816000651
 42
0.7816000651
  0
ELLIPSE
  5
614
100
AcDbEntity
  8
DRAFT
100
AcDbEllipse
 62
7
  6
CONTINUOUS
 10
1.68046647
 20
71.7192050654
 30
0.0
 11
482.5
 21
0.0
 31
0.0
 40
0.0174550649
 41
-1.630338113
 42
-1.6031306294
  0
ELLIPSE
  5
615
100
AcDbEntity
  8
DRAFT
100
AcDbEllipse
 62
7
  6
CONTINUOUS
 10
1.68046647
 20
45.7810371758
 30
0.0
 11
482.5
 21
0.0
 31
0.0
 40
0.0174550649
 41
1.6031306294
 42
1.630338113
  0
ELLIPSE
  5
616
100
AcDbEntity
  8
DRAFT
100
AcDbEllipse
 62
7
  6
CONTINUOUS
 10
1.68046647
 20
61.2192050654
 30
0.0
 11
482.5
 21
-0.0
 31
0.0
 40
0.0174550649
 41
-1.630338113
 42
-1.6031306294
  0
ELLIPSE
  5
617
100
AcDbEntity
  8
DRAFT
100
AcDbEllipse
 62
7
  6
CONTINUOUS
 10
1.68046647
 20
35.2810371758
 30
0.0
 11
482.5
 21
0.0
 31
0.0
 40
0.0174550649
 41
1.6031306294
 42
1.630338113
  0
ELLIPSE
  5
618
100
AcDbEntity
  8
DRAFT
100
AcDbEllipse
 62
7
  6
CONTINUOUS
 10
1.68046647
 20
50.7192050654
 30
0.0
 11
482.5
 21
0.0
 31
0.0
 40
0.0174550649
 41
-1.630338113
 42
-1.5112545406
  0
ELLIPSE
  5
619
100
AcDbEntity
  8
DRAFT
100
AcDbEllipse
 62
7
  6
CONTINUOUS
 10
1.68046647
 20
-25.9189628242
 30
0.0
 11
482.5
 21
0.0
 31
0.0
 40
0.0174550649
 41
1.5112545406
 42
1.630338113
  0
ELLIPSE
  5
61A
100
AcDbEntity
  8
DRAFT
100
AcDbEllipse
 62
7
  6
CONTINUOUS
 10
1.68046647
 20
-10.4807949346
 30
0.0
 11
482.5
 21
0.0
 31
0.0
 40
0.0174550649
 41
-1.630338113
 42
-1.6031306294
  0
ELLIPSE
  5
61B
100
AcDbEntity
  8
DRAFT
100
AcDbEllipse
 62
7
  6
CONTINUOUS
 10
1.68046647
 20
-36.4189628242
 30
0.0
 11
482.5
 21
0.0
 31
0.0
 40
0.0174550649
 41
1.6031306294
 42
1.630338113
  0
ELLIPSE
  5
61C
100
AcDbEntity
  8
DRAFT
100
AcDbEllipse
 62
7
  6
CONTINUOUS
 10
1.68046647
 20
-20.9807949346
 30
0.0
 11
482.5
 21
0.0
 31
0.0
 40
0.0174550649
 41
-1.630338113
 42
-1.6031306294
  0
ELLIPSE
  5
61D
100
AcDbEntity
  8
DRAFT
100
AcDbEllipse
 62
7
  6
CONTINUOUS
 10
1.68046647
 20
-25.9189628242
 30
0.0
 11
482.5
 21
0.0
 31
0.0
 40
0.0174550649
 41
1.6331924448
 42
1.63803048
  0
ELLIPSE
  5
61E
100
AcDbEntity
  8
DRAFT
100
AcDbEllipse
 62
7
  6
CONTINUOUS
 10
1.68046647
 20
5.7192050654
 30
0.0
 11
482.5
 21
0.0
 31
0.0
 40
0.0174550649
 41
-1.63803048
 42
-1.6331924448
  0
ELLIPSE
  5
61F
100
AcDbEntity
  8
DRAFT
100
AcDbEllipse
 62
7
  6
CONTINUOUS
 10
1.68046647
 20
-36.4189628242
 30
0.0
 11
482.5
 21
0.0
 31
0.0
 40
0.0174550649
 41
1.6331924448
 42
1.63803048
  0
ELLIPSE
  5
620
100
AcDbEntity
  8
DRAFT
100
AcDbEllipse
 62
7
  6
CONTINUOUS
 10
1.68046647
 20
-10.4807949346
 30
0.0
 11
482.5
 21
0.0
 31
0.0
 40
0.0174550649
 41
-1.63803048
 42
-1.6331924448
  0
ELLIPSE
  5
621
100
AcDbEntity
  8
DRAFT
100
AcDbEllipse
 62
7
  6
CONTINUOUS
 10
1.68046647
 20
-20.9807949346
 30
0.0
 11
482.5
 21
0.0
 31
0.0
 40
0.0174550649
 41
-1.63803048
 42
-1.6331924448
  0
ELLIPSE
  5
622
100
AcDbEntity
  8
DRAFT
100
AcDbEllipse
 62
7
  6
CONTINUOUS
 10
1.68046647
 20
5.7192050654
 30
0.0
 11
482.5
 21
0.0
 31
0.0
 40
0.0174550649
 41
-1.5084002088
 42
-1.5035621735
  0
ELLIPSE
  5
623
100
AcDbEntity
  8
DRAFT
100
AcDbEllipse
 62
7
  6
CONTINUOUS
 10
1.68046647
 20
-25.9189628242
 30
0.0
 11
482.5
 21
0.0
 31
0.0
 40
0.0174550649
 41
1.5035621735
 42
1.5084002088
  0
ELLIPSE
  5
624
100
AcDbEntity
  8
DRAFT
100
AcDbEllipse
 62
7
  6
CONTINUOUS
 10
1.68046647
 20
-10.4807949346
 30
0.0
 11
482.5
 21
0.0
 31
0.0
 40
0.0174550649
 41
-1.5084002088
 42
-1.5035621735
  0
ELLIPSE
  5
625
100
AcDbEntity
  8
DRAFT
100
AcDbEllipse
 62
7
  6
CONTINUOUS
 10
1.68046647
 20
-36.4189628242
 30
0.0
 11
482.5
 21
0.0
 31
0.0
 40
0.0174550649
 41
1.5035621735
 42
1.5084002088
  0
ELLIPSE
  5
626
100
AcDbEntity
  8
DRAFT
100
AcDbEllipse
 62
7
  6
CONTINUOUS
 10
1.68046647
 20
-20.9807949346
 30
0.0
 11
482.5
 21
0.0
 31
0.0
 40
0.0174550649
 41
-1.5084002088
 42
-1.5035621735
  0
ELLIPSE
  5
627
100
AcDbEntity
  8
DRAFT
100
AcDbEllipse
 62
7
  6
CONTINUOUS
 10
1.68046647
 20
45.7810371758
 30
0.0
 11
482.5
 21
0.0
 31
0.0
 40
0.0174550649
 41
1.5112545406
 42
1.5384620242
  0
ELLIPSE
  5
628
100
AcDbEntity
  8
DRAFT
100
AcDbEllipse
 62
7
  6
CONTINUOUS
 10
1.68046647
 20
71.7192050654
 30
0.0
 11
482.5
 21
0.0
 31
0.0
 40
0.0174550649
 41
-1.5384620242
 42
-1.5112545406
  0
ELLIPSE
  5
629
100
AcDbEntity
  8
DRAFT
100
AcDbEllipse
 62
7
  6
CONTINUOUS
 10
1.68046647
 20
35.2810371758
 30
0.0
 11
482.5
 21
0.0
 31
0.0
 40
0.0174550649
 41
1.5112545406
 42
1.5384620242
  0
ELLIPSE
  5
62A
100
AcDbEntity
  8
DRAFT
100
AcDbEllipse
 62
7
  6
CONTINUOUS
 10
1.68046647
 20
61.2192050654
 30
0.0
 11
482.5
 21
-0.0
 31
0.0
 40
0.0174550649
 41
-1.5384620242
 42
-1.5112545406
  0
ELLIPSE
  5
62B
100
AcDbEntity
  8
DRAFT
100
AcDbEllipse
 62
7
  6
CONTINUOUS
 10
1.68046647
 20
-36.4189628242
 30
0.0
 11
482.5
 21
0.0
 31
0.0
 40
0.0174550649
 41
1.5112545406
 42
1.5384620242
  0
ELLIPSE
  5
62C
100
AcDbEntity
  8
DRAFT
100
AcDbEllipse
 62
7
  6
CONTINUOUS
 10
1.68046647
 20
-10.4807949346
 30
0.0
 11
482.5
 21
0.0
 31
0.0
 40
0.0174550649
 41
-1.5384620242
 42
-1.5112545406
  0
ELLIPSE
  5
62D
100
AcDbEntity
  8
DRAFT
100
AcDbEllipse
 62
7
  6
CONTINUOUS
 10
1.68046647
 20
-20.9807949346
 30
0.0
 11
482.5
 21
0.0
 31
0.0
 40
0.0174550649
 41
-1.5384620242
 42
-1.5112545406
  0
ELLIPSE
  5
62E
100
AcDbEntity
  8
DRAFT
100
AcDbEllipse
 62
7
  6
CONTINUOUS
 10
1.68046647
 20
-20.9807949346
 30
0.0
 11
482.5
 21
0.0
 31
0.0
 40
0.0174550649
 41
-1.6002320044
 42
-1.5722532723
  0
ELLIPSE
  5
62F
100
AcDbEntity
  8
DRAFT
100
AcDbEllipse
 62
7
  6
CONTINUOUS
 10
1.68046647
 20
-10.4807949346
 30
0.0
 11
482.5
 21
0.0
 31
0.0
 40
0.0174550649
 41
-1.5693393813
 42
-1.5413606491
  0
ELLIPSE
  5
630
100
AcDbEntity
  8
DRAFT
100
AcDbEllipse
 62
7
  6
CONTINUOUS
 10
1.68046647
 20
-36.4189628242
 30
0.0
 11
482.5
 21
0.0
 31
0.0
 40
0.0174550649
 41
1.5413606491
 42
1.5693393813
  0
ELLIPSE
  5
631
100
AcDbEntity
  8
DRAFT
100
AcDbEllipse
 62
7
  6
CONTINUOUS
 10
1.68046647
 20
-20.9807949346
 30
0.0
 11
482.5
 21
0.0
 31
0.0
 40
0.0174550649
 41
-1.5693393813
 42
-1.5413606491
  0
ELLIPSE
  5
632
100
AcDbEntity
  8
DRAFT
100
AcDbEllipse
 62
7
  6
CONTINUOUS
 10
1.68046647
 20
-36.4189628242
 30
0.0
 11
482.5
 21
0.0
 31
0.0
 40
0.0174550649
 41
1.5722532723
 42
1.6002320044
  0
ELLIPSE
  5
633
100
AcDbEntity
  8
DRAFT
100
AcDbEllipse
 62
7
  6
CONTINUOUS
 10
1.68046647
 20
-10.4807949346
 30
0.0
 11
482.5
 21
0.0
 31
0.0
 40
0.0174550649
 41
-1.6002320044
 42
-1.5722532723
  0
ELLIPSE
  5
634
100
AcDbEntity
  8
DRAFT
100
AcDbEllipse
 62
7
  6
CONTINUOUS
 10
1.68046647
 20
45.7810371758
 30
0.0
 11
482.5
 21
0.0
 31
0.0
 40
0.0174550649
 41
1.5722532723
 42
1.6002320044
  0
ELLIPSE
  5
635
100
AcDbEntity
  8
DRAFT
100
AcDbEllipse
 62
7
  6
CONTINUOUS
 10
1.68046647
 20
71.7192050654
 30
0.0
 11
482.5
 21
0.0
 31
0.0
 40
0.0174550649
 41
-1.6002320044
 42
-1.5722532723
  0
ELLIPSE
  5
636
100
AcDbEntity
  8
DRAFT
100
AcDbEllipse
 62
7
  6
CONTINUOUS
 10
1.68046647
 20
35.2810371758
 30
0.0
 11
482.5
 21
0.0
 31
0.0
 40
0.0174550649
 41
1.5722532723
 42
1.6002320044
  0
ELLIPSE
  5
637
100
AcDbEntity
  8
DRAFT
100
AcDbEllipse
 62
7
  6
CONTINUOUS
 10
1.68046647
 20
61.2192050654
 30
0.0
 11
482.5
 21
-0.0
 31
0.0
 40
0.0174550649
 41
-1.6002320044
 42
-1.5722532723
  0
ELLIPSE
  5
638
100
AcDbEntity
  8
DRAFT
100
AcDbEllipse
 62
7
  6
CONTINUOUS
 10
1.68046647
 20
71.7192050654
 30
0.0
 11
482.5
 21
0.0
 31
0.0
 40
0.0174550649
 41
-1.5693393813
 42
-1.5413606491
  0
ELLIPSE
  5
639
100
AcDbEntity
  8
DRAFT
100
AcDbEllipse
 62
7
  6
CONTINUOUS
 10
1.68046647
 20
45.7810371758
 30
0.0
 11
482.5
 21
0.0
 31
0.0
 40
0.0174550649
 41
1.5413606491
 42
1.5693393813
  0
ELLIPSE
  5
63A
100
AcDbEntity
  8
DRAFT
100
AcDbEllipse
 62
7
  6
CONTINUOUS
 10
1.68046647
 20
61.2192050654
 30
0.0
 11
482.5
 21
-0.0
 31
0.0
 40
0.0174550649
 41
-1.5693393813
 42
-1.5413606491
  0
ELLIPSE
  5
63B
100
AcDbEntity
  8
DRAFT
100
AcDbEllipse
 62
7
  6
CONTINUOUS
 10
1.68046647
 20
35.2810371758
 30
0.0
 11
482.5
 21
0.0
 31
0.0
 40
0.0174550649
 41
1.5413606491
 42
1.5693393813
  0
ELLIPSE
  5
63C
100
AcDbEntity
  8
DRAFT
100
AcDbEllipse
 62
7
  6
CONTINUOUS
 10
1.68046647
 20
45.7810371758
 30
0.0
 11
482.5
 21
0.0
 31
0.0
 40
0.0174550649
 41
1.6331924448
 42
1.63803048
  0
ELLIPSE
  5
63D
100
AcDbEntity
  8
DRAFT
100
AcDbEllipse
 62
7
  6
CONTINUOUS
 10
1.68046647
 20
71.7192050654
 30
0.0
 11
482.5
 21
0.0
 31
0.0
 40
0.0174550649
 41
-1.63803048
 42
-1.6331924448
  0
ELLIPSE
  5
63E
100
AcDbEntity
  8
DRAFT
100
AcDbEllipse
 62
7
  6
CONTINUOUS
 10
1.68046647
 20
35.2810371758
 30
0.0
 11
482.5
 21
0.0
 31
0.0
 40
0.0174550649
 41
1.6331924448
 42
1.63803048
  0
ELLIPSE
  5
63F
100
AcDbEntity
  8
DRAFT
100
AcDbEllipse
 62
7
  6
CONTINUOUS
 10
1.68046647
 20
61.2192050654
 30
0.0
 11
482.5
 21
-0.0
 31
0.0
 40
0.0174550649
 41
-1.63803048
 42
-1.6331924448
  0
ELLIPSE
  5
640
100
AcDbEntity
  8
DRAFT
100
AcDbEllipse
 62
7
  6
CONTINUOUS
 10
1.68046647
 20
19.0810371758
 30
0.0
 11
482.5
 21
0.0
 31
0.0
 40
0.0174550649
 41
1.6331924448
 42
1.63803048
  0
ELLIPSE
  5
641
100
AcDbEntity
  8
DRAFT
100
AcDbEllipse
 62
7
  6
CONTINUOUS
 10
1.68046647
 20
50.7192050654
 30
0.0
 11
482.5
 21
0.0
 31
0.0
 40
0.0174550649
 41
-1.63803048
 42
-1.6331924448
  0
ELLIPSE
  5
642
100
AcDbEntity
  8
DRAFT
100
AcDbEllipse
 62
7
  6
CONTINUOUS
 10
1.68046647
 20
34.5192050654
 30
0.0
 11
482.5
 21
0.0
 31
0.0
 40
0.0174550649
 41
-1.63803048
 42
-1.6331924448
  0
ELLIPSE
  5
643
100
AcDbEntity
  8
DRAFT
100
AcDbEllipse
 62
7
  6
CONTINUOUS
 10
1.68046647
 20
4.6810371758
 30
0.0
 11
482.5
 21
0.0
 31
0.0
 40
0.0174550649
 41
1.6331924448
 42
1.63803048
  0
ELLIPSE
  5
644
100
AcDbEntity
  8
DRAFT
100
AcDbEllipse
 62
7
  6
CONTINUOUS
 10
1.68046647
 20
20.1192050654
 30
0.0
 11
482.5
 21
0.0
 31
0.0
 40
0.0174550649
 41
-1.63803048
 42
-1.6331924448
  0
ELLIPSE
  5
645
100
AcDbEntity
  8
DRAFT
100
AcDbEllipse
 62
7
  6
CONTINUOUS
 10
1.68046647
 20
-9.7189628242
 30
0.0
 11
482.5
 21
0.0
 31
0.0
 40
0.0174550649
 41
1.6331924448
 42
1.63803048
  0
ELLIPSE
  5
646
100
AcDbEntity
  8
DRAFT
100
AcDbEllipse
 62
7
  6
CONTINUOUS
 10
1.68046647
 20
-9.7189628242
 30
0.0
 11
482.5
 21
0.0
 31
0.0
 40
0.0174550649
 41
1.5035621735
 42
1.5084002088
  0
ELLIPSE
  5
647
100
AcDbEntity
  8
DRAFT
100
AcDbEllipse
 62
7
  6
CONTINUOUS
 10
1.68046647
 20
20.1192050654
 30
0.0
 11
482.5
 21
0.0
 31
0.0
 40
0.0174550649
 41
-1.5084002088
 42
-1.5035621735
  0
ELLIPSE
  5
648
100
AcDbEntity
  8
DRAFT
100
AcDbEllipse
 62
7
  6
CONTINUOUS
 10
1.68046647
 20
4.6810371758
 30
0.0
 11
482.5
 21
0.0
 31
0.0
 40
0.0174550649
 41
1.5035621735
 42
1.5084002088
  0
ELLIPSE
  5
649
100
AcDbEntity
  8
DRAFT
100
AcDbEllipse
 62
7
  6
CONTINUOUS
 10
1.68046647
 20
34.5192050654
 30
0.0
 11
482.5
 21
0.0
 31
0.0
 40
0.0174550649
 41
-1.5084002088
 42
-1.5035621735
  0
ELLIPSE
  5
64A
100
AcDbEntity
  8
DRAFT
100
AcDbEllipse
 62
7
  6
CONTINUOUS
 10
1.68046647
 20
19.0810371758
 30
0.0
 11
482.5
 21
0.0
 31
0.0
 40
0.0174550649
 41
1.5035621735
 42
1.5084002088
  0
ELLIPSE
  5
64B
100
AcDbEntity
  8
DRAFT
100
AcDbEllipse
 62
7
  6
CONTINUOUS
 10
1.68046647
 20
50.7192050654
 30
0.0
 11
482.5
 21
0.0
 31
0.0
 40
0.0174550649
 41
-1.5084002088
 42
-1.5035621735
  0
ELLIPSE
  5
64C
100
AcDbEntity
  8
DRAFT
100
AcDbEllipse
 62
7
  6
CONTINUOUS
 10
1.68046647
 20
71.7192050654
 30
0.0
 11
482.5
 21
0.0
 31
0.0
 40
0.0174550649
 41
-1.5084002088
 42
-1.5035621735
  0
ELLIPSE
  5
64D
100
AcDbEntity
  8
DRAFT
100
AcDbEllipse
 62
7
  6
CONTINUOUS
 10
1.68046647
 20
45.7810371758
 30
0.0
 11
482.5
 21
0.0
 31
0.0
 40
0.0174550649
 41
1.5035621735
 42
1.5084002088
  0
ELLIPSE
  5
64E
100
AcDbEntity
  8
DRAFT
100
AcDbEllipse
 62
7
  6
CONTINUOUS
 10
1.68046647
 20
61.2192050654
 30
0.0
 11
482.5
 21
-0.0
 31
0.0
 40
0.0174550649
 41
-1.5084002088
 42
-1.5035621735
  0
ELLIPSE
  5
64F
100
AcDbEntity
  8
DRAFT
100
AcDbEllipse
 62
7
  6
CONTINUOUS
 10
1.68046647
 20
35.2810371758
 30
0.0
 11
482.5
 21
0.0
 31
0.0
 40
0.0174550649
 41
1.5035621735
 42
1.5084002088
  0
ELLIPSE
  5
650
100
AcDbEntity
  8
DRAFT
100
AcDbEllipse
 62
7
  6
CONTINUOUS
 10
1.68046647
 20
-51.1689628242
 30
0.0
 11
482.5
 21
0.0
 31
0.0
 40
0.0174550649
 41
1.6031306294
 42
1.630338113
  0
ELLIPSE
  5
651
100
AcDbEntity
  8
DRAFT
100
AcDbEllipse
 62
7
  6
CONTINUOUS
 10
1.68046647
 20
-51.1689628242
 30
0.0
 11
482.5
 21
0.0
 31
0.0
 40
0.0174550649
 41
1.5722532723
 42
1.6002320044
  0
ELLIPSE
  5
652
100
AcDbEntity
  8
DRAFT
100
AcDbEllipse
 62
7
  6
CONTINUOUS
 10
1.68046647
 20
-51.1689628242
 30
0.0
 11
482.5
 21
0.0
 31
0.0
 40
0.0174550649
 41
1.5413606491
 42
1.5693393813
  0
ELLIPSE
  5
653
100
AcDbEntity
  8
DRAFT
100
AcDbEllipse
 62
7
  6
CONTINUOUS
 10
1.68046647
 20
-51.1689628242
 30
0.0
 11
482.5
 21
0.0
 31
0.0
 40
0.0174550649
 41
1.5112545406
 42
1.5384620242
  0
ELLIPSE
  5
654
100
AcDbEntity
  8
DRAFT
100
AcDbEllipse
 62
7
  6
CONTINUOUS
 10
1.68046647
 20
-51.1689628242
 30
0.0
 11
482.5
 21
0.0
 31
0.0
 40
0.0174550649
 41
1.5035621735
 42
1.5084002088
  0
ELLIPSE
  5
655
100
AcDbEntity
  8
DRAFT
100
AcDbEllipse
 62
7
  6
CONTINUOUS
 10
35.33046647
 20
-42.8533698924
 30
0.0
 11
0.2
 21
-0.0
 31
0.0
 40
0.0174550649
 41
-2.7052603406
 42
-0.436332313
  0
ELLIPSE
  5
656
100
AcDbEntity
  8
DRAFT
100
AcDbEllipse
 62
7
  6
CONTINUOUS
 10
-31.96953353
 20
-42.8533698924
 30
0.0
 11
0.2
 21
0.0
 31
0.0
 40
0.0174550649
 41
-2.7052603406
 42
-0.436332313
  0
ELLIPSE
  5
657
100
AcDbEntity
  8
DRAFT
100
AcDbEllipse
 62
7
  6
CONTINUOUS
 10
1.68046647
 20
-51.1689628242
 30
0.0
 11
482.5
 21
0.0
 31
0.0
 40
0.0174550649
 41
1.6331924448
 42
1.63803048
  0
ELLIPSE
  5
658
100
AcDbEntity
  8
RACCORDO
100
AcDbEllipse
 62
7
  6
CONTINUOUS
 10
-36.7897837556
 20
69.1203713462
 30
0.0
 11
0.3536610946
 21
-0.3536610946
 31
0.0
 40
0.9996954599
 41
2.3563467834
 42
3.9268385237
  0
ELLIPSE
  5
659
100
AcDbEntity
  8
RACCORDO
100
AcDbEllipse
 62
7
  6
CONTINUOUS
 10
-36.7897837556
 20
-44.320129105
 30
0.0
 11
-0.3536610946
 21
-0.3536610946
 31
0.0
 40
0.9996954599
 41
-0.7852458701
 42
0.7852458701
  0
ENDSEC
  0
SECTION
  2
OBJECTS
  0
DICTIONARY
  5
C
100
AcDbDictionary
280
0
281
1
  3
ACAD_GROUP
350
D
  3
ACAD_MLINESTYLE
350
17
  3
ACAD_LAYOUT
350
1A
  3
ACAD_PLOTSETTINGS
350
19
  3
ACAD_PLOTSTYLENAME
350
E
  0
DICTIONARY
  5
D
102
{ACAD_REACTORS
330
C
102
}
100
AcDbDictionary
280
0
281
1
  0
ACDBDICTIONARYWDFLT
  5
E
102
{ACAD_REACTORS
330
C
102
}
100
AcDbDictionary
281
1
  3
Normal
350
F
100
AcDbDictionaryWithDefault
340
F
  0
DICTIONARY
  5
17
102
{ACAD_REACTORS
330
C
102
}
100
AcDbDictionary
280
0
281
1
  3
Standard
350
18
  0
DICTIONARY
  5
19
102
{ACAD_REACTORS
330
C
102
}
100
AcDbDictionary
281
1
  0
DICTIONARY
  5
1A
102
{ACAD_REACTORS
330
C
102
}
100
AcDbDictionary
281
1
  3
Model
350
65A
  3
Layout1
350
65B
  0
ACDBPLACEHOLDER
  5
F
102
{ACAD_REACTORS
330
E
102
}
  0
MLINESTYLE
  5
18
102
{ACAD_REACTORS
330
17
102
}
100
AcDbMlineStyle
  2
STANDARD
 70
0
  3

 62
256
 51
90.0
 52
90.0
 71
2
 49
0.5
 62
256
  6
BYLAYER
 49
-0.5
 62
256
  6
BYLAYER
  0
LAYOUT
  5
65A
102
{ACAD_REACTORS
330
1A
102
}
100
AcDbPlotSettings
  1

  2
none_device
  4
ISO_A4_(297.00_x_210.00_MM)
  6

 40
0.0
 41
0.0
 42
0.0
 43
0.0
 44
297.0
 45
210.0
 46
0.0
 47
0.0
 48
0.0
 49
0.0
140
0.0
141
0.0
142
1.0
143
1.0
 70
1024
 72
1
 73
0
 74
0
  7

 75
0
147
1.0
148
0.0
149
0.0
100
AcDbLayout
  1
Model
 70
0
 71
0
 10
0.0
 20
0.0
 11
297.0
 21
210.0
 12
0.0
 22
0.0
 32
0.0
 14
0.0
 24
0.0
 34
0.0
 15
0.0
 25
0.0
 35
0.0
146
0.0
 13
0.0
 23
0.0
 33
0.0
 16
1.0
 26
0.0
 36
0.0
 17
0.0
 27
1.0
 37
0.0
 76
0
330
217
345
0
346
0
  0
LAYOUT
  5
65B
102
{ACAD_REACTORS
330
1A
102
}
100
AcDbPlotSettings
  1

  2
none_device
  4
ISO_A4_(297.00_x_210.00_MM)
  6

 40
0.0
 41
0.0
 42
0.0
 43
0.0
 44
297.0
 45
210.0
 46
0.0
 47
0.0
 48
0.0
 49
0.0
140
0.0
141
0.0
142
1.0
143
1.0
 70
0
 72
1
 73
0
 74
0
  7

 75
0
147
1.0
148
0.0
149
0.0
100
AcDbLayout
  1
Layout1
 70
0
 71
1
 10
0.0
 20
0.0
 11
297.0
 21
210.0
 12
0.0
 22
0.0
 32
0.0
 14
0.0
 24
0.0
 34
0.0
 15
0.0
 25
0.0
 35
0.0
146
0.0
 13
0.0
 23
0.0
 33
0.0
 16
1.0
 26
0.0
 36
0.0
 17
0.0
 27
1.0
 37
0.0
 76
0
330
218
345
0
346
0
  0
ENDSEC
  0
EOF
