  0
SECTION
  2
HEADER
  9
$ACADVER
  1
AC1021
  9
$DWGCODEPAGE
  3
ANSI_1252
  9
$EXTMAX
 10
297.0
 20
210.0
 30
0.0
  9
$EXTMIN
 10
0.0
 20
0.0
 30
0.0
  9
$LIMMIN
 10
0.0
 20
0.0
  9
$LIMMAX
 10
297.0
 20
210.0
  9
$VIEWCTR
 10
148.5
 20
105.0
  9
$VIEWSIZE
 40
210.0
  9
$CLAYER
  8
0
  9
$LTSCALE
 40
16.335
  9
$CELTYPE
  6
BYLAYER
  9
$DIMSCALE
 40
1.0
  9
$DIMASZ
 40
3.0
  9
$DIMEXO
 40
0.5
  9
$DIMDLI
 40
11.286
  9
$DIMEXE
 40
1.5
  9
$DIMCEN
 40
2.673
  9
$DIMLFAC
 40
1.0
  9
$DIMBLK
  1
_FILLED
  9
$DIMALT
 70
0
  9
$DIMALTF
 40
0.0393700787
  9
$DIMTXT
 40
3.0
  9
$DIMTOL
 70
1
  9
$DIMLIM
 70
0
  9
$DIMTFAC
 40
1.0
  9
$DIMTP
 40
0.01
  9
$DIMTM
 40
0.01
  9
$DIMGAP
 40
0.625
  9
$DIMDSEP
 70
44
  9
$AUNITS
 70
0
  9
$PDMODE
 70
3
  9
$PDSIZE
 40
3.0
  9
$HANDSEED
  5
4D0
  9
$TILEMODE
 70
1
  9
$MEASUREMENT
 70
1
  9
$INSUNITS
 70
4
  0
ENDSEC
  0
SECTION
  2
CLASSES
  0
CLASS
  1
ACDBDICTIONARYWDFLT
  2
AcDbDictionaryWithDefault
  3
AutoCAD 2000
 90
0
 91
1
280
0
281
0
  0
CLASS
  1
ACDBPLACEHOLDER
  2
AcDbPlaceHolder
  3
AutoCAD 2000
 90
0
 91
1
280
0
281
0
  0
CLASS
  1
LAYOUT
  2
AcDbLayout
  3
AutoCAD 2000
 90
0
 91
0
280
0
281
0
  0
ENDSEC
  0
SECTION
  2
TABLES
  0
TABLE
  2
VPORT
  5
8
100
AcDbSymbolTable
 70
2
  0
VPORT
  5
1F4
100
AcDbSymbolTableRecord
100
AcDbViewportTableRecord
  2
*ACTIVE
 70
0
 10
0.0
 20
0.0
 11
1.0
 21
1.0
 12
148.5
 22
105.0
 13
0.0
 23
0.0
 14
1.0
 24
1.0
 15
0.0
 25
0.0
 16
0.0
 26
0.0
 36
1.0
 17
0.0
 27
0.0
 37
0.0
 40
210.0
 41
1.4142857143
 42
50.0
 43
0.0
 44
0.0
 50
0.0
 51
0.0
 71
0
 72
100
 73
1
 74
1
 75
0
 76
0
 77
0
 78
0
  0
ENDTAB
  0
TABLE
  2
LTYPE
  5
5
100
AcDbSymbolTable
 70
6
  0
LTYPE
  5
14
100
AcDbSymbolTableRecord
100
AcDbLinetypeTableRecord
  2
BYBLOCK
 70
0
  3

 72
65
 73
0
 40
0.0
  0
LTYPE
  5
15
100
AcDbSymbolTableRecord
100
AcDbLinetypeTableRecord
  2
BYLAYER
 70
0
  3

 72
65
 73
0
 40
0.0
  0
LTYPE
  5
16
100
AcDbSymbolTableRecord
100
AcDbLinetypeTableRecord
  2
CONTINUOUS
 70
64
  3
Solid line
 72
65
 73
0
 40
0.0
  0
LTYPE
  5
1F5
100
AcDbSymbolTableRecord
100
AcDbLinetypeTableRecord
  2
CENTER
 70
64
  3
____ _ ____ _ ____ _ ____ _ ____ _ ____ _ ____
 72
65
 73
4
 40
0.6
 49
0.375
 74
0
 49
-0.075
 74
0
 49
0.075
 74
0
 49
-0.075
 74
0
  0
LTYPE
  5
1F6
100
AcDbSymbolTableRecord
100
AcDbLinetypeTableRecord
  2
HIDDEN
 70
64
  3
- - - - - - - - - - - - - - - - - - - -
 72
65
 73
2
 40
0.2
 49
0.1
 74
0
 49
-0.1
 74
0
  0
LTYPE
  5
1F7
100
AcDbSymbolTableRecord
100
AcDbLinetypeTableRecord
  2
PHANTOM
 70
64
  3
_____ _ _ _____ _ _ _____ _ _ _____
 72
65
 73
6
 40
0.8
 49
0.45
 74
0
 49
-0.05
 74
0
 49
0.1
 74
0
 49
-0.05
 74
0
 49
0.1
 74
0
 49
-0.05
 74
0
  0
LTYPE
  5
1F8
100
AcDbSymbolTableRecord
100
AcDbLinetypeTableRecord
  2
DOT
 70
64
  3
. . . . . . . . . . . . . . . . . . . .
 72
65
 73
2
 40
0.2
 49
0.1
 74
0
 49
-0.1
 74
0
  0
LTYPE
  5
1F9
100
AcDbSymbolTableRecord
100
AcDbLinetypeTableRecord
  2
DASHED
 70
64
  3
- - - - - - - - - - - - - - - - - - - -
 72
65
 73
2
 40
0.2
 49
0.1
 74
0
 49
-0.1
 74
0
  0
ENDTAB
  0
TABLE
  2
LAYER
  5
2
100
AcDbSymbolTable
 70
36
  0
LAYER
  5
10
100
AcDbSymbolTableRecord
100
AcDbLayerTableRecord
  2
0
 70
0
 62
7
  6
CONTINUOUS
370
-3
390
F
  0
LAYER
  5
1FA
100
AcDbSymbolTableRecord
100
AcDbLayerTableRecord
  2
DEFAULT_1
 70
0
 62
7
  6
CENTER
370
-3
390
F
  0
LAYER
  5
1FB
100
AcDbSymbolTableRecord
100
AcDbLayerTableRecord
  2
DEFAULT_2
 70
0
 62
7
  6
HIDDEN
370
-3
390
F
  0
LAYER
  5
1FC
100
AcDbSymbolTableRecord
100
AcDbLayerTableRecord
  2
DEFAULT_3
 70
0
 62
7
  6
PHANTOM
370
-3
390
F
  0
LAYER
  5
1FD
100
AcDbSymbolTableRecord
100
AcDbLayerTableRecord
  2
ASSI
 70
0
 62
7
  6
CONTINUOUS
370
-3
390
F
  0
LAYER
  5
1FE
100
AcDbSymbolTableRecord
100
AcDbLayerTableRecord
  2
COORDINATE
 70
0
 62
7
  6
CONTINUOUS
370
-3
390
F
  0
LAYER
  5
1FF
100
AcDbSymbolTableRecord
100
AcDbLayerTableRecord
  2
COPY_PUBLISH
 70
0
 62
7
  6
CONTINUOUS
370
-3
390
F
  0
LAYER
  5
200
100
AcDbSymbolTableRecord
100
AcDbLayerTableRecord
  2
COSMETICI
 70
0
 62
7
  6
CONTINUOUS
370
-3
390
F
  0
LAYER
  5
201
100
AcDbSymbolTableRecord
100
AcDbLayerTableRecord
  2
CURVE
 70
0
 62
7
  6
CONTINUOUS
370
-3
390
F
  0
LAYER
  5
202
100
AcDbSymbolTableRecord
100
AcDbLayerTableRecord
  2
DRAFT
 70
0
 62
7
  6
CONTINUOUS
370
-3
390
F
  0
LAYER
  5
203
100
AcDbSymbolTableRecord
100
AcDbLayerTableRecord
  2
IMPORT_IGES
 70
0
 62
7
  6
CONTINUOUS
370
-3
390
F
  0
LAYER
  5
204
100
AcDbSymbolTableRecord
100
AcDbLayerTableRecord
  2
INTFCLR_3
 70
0
 62
7
  6
CONTINUOUS
370
-3
390
F
  0
LAYER
  5
205
100
AcDbSymbolTableRecord
100
AcDbLayerTableRecord
  2
INTF_RED
 70
0
 62
7
  6
CONTINUOUS
370
-3
390
F
  0
LAYER
  5
206
100
AcDbSymbolTableRecord
100
AcDbLayerTableRecord
  2
LIVELLO_1
 70
0
 62
7
  6
CONTINUOUS
370
-3
390
F
  0
LAYER
  5
207
100
AcDbSymbolTableRecord
100
AcDbLayerTableRecord
  2
NOTE
 70
0
 62
7
  6
CONTINUOUS
370
-3
390
F
  0
LAYER
  5
208
100
AcDbSymbolTableRecord
100
AcDbLayerTableRecord
  2
PIANI
 70
0
 62
7
  6
CONTINUOUS
370
-3
390
F
  0
LAYER
  5
209
100
AcDbSymbolTableRecord
100
AcDbLayerTableRecord
  2
PUNTI
 70
0
 62
7
  6
CONTINUOUS
370
-3
390
F
  0
LAYER
  5
20A
100
AcDbSymbolTableRecord
100
AcDbLayerTableRecord
  2
RACCORDO
 70
0
 62
7
  6
CONTINUOUS
370
-3
390
F
  0
LAYER
  5
20B
100
AcDbSymbolTableRecord
100
AcDbLayerTableRecord
  2
SIMBOLI
 70
0
 62
7
  6
CONTINUOUS
370
-3
390
F
  0
LAYER
  5
20C
100
AcDbSymbolTableRecord
100
AcDbLayerTableRecord
  2
SMUSSO
 70
0
 62
7
  6
CONTINUOUS
370
-3
390
F
  0
LAYER
  5
20D
100
AcDbSymbolTableRecord
100
AcDbLayerTableRecord
  2
SUPERFICI
 70
0
 62
7
  6
CONTINUOUS
370
-3
390
F
  0
LAYER
  5
20E
100
AcDbSymbolTableRecord
100
AcDbLayerTableRecord
  2
TRASH
 70
0
 62
7
  6
CONTINUOUS
370
-3
390
F
  0
LAYER
  5
20F
100
AcDbSymbolTableRecord
100
AcDbLayerTableRecord
  2
WHITE
 70
0
 62
7
  6
CONTINUOUS
370
-3
390
F
  0
ENDTAB
  0
TABLE
  2
STYLE
  5
3
100
AcDbSymbolTable
 70
1
  0
STYLE
  5
11
100
AcDbSymbolTableRecord
100
AcDbTextStyleTableRecord
  2
STANDARD
 70
0
 40
0.0
 41
0.8
 50
0.0
 71
0
 42
0.2
  3
txt
  4

  0
STYLE
  5
210
100
AcDbSymbolTableRecord
100
AcDbTextStyleTableRecord
  2
TEXTSTYLE_1
 70
0
 40
0.0
 41
0.8
 50
0.0
 71
0
 42
0.2
  3
gdt
  4

  0
ENDTAB
  0
TABLE
  2
VIEW
  5
6
100
AcDbSymbolTable
 70
0
  0
ENDTAB
  0
TABLE
  2
UCS
  5
7
100
AcDbSymbolTable
 70
0
  0
ENDTAB
  0
TABLE
  2
APPID
  5
9
100
AcDbSymbolTable
 70
1
  0
APPID
  5
211
100
AcDbSymbolTableRecord
100
AcDbRegAppTableRecord
  2
ACAD
 70
0
  0
ENDTAB
  0
TABLE
  2
BLOCK_RECORD
  5
1
100
AcDbSymbolTable
 70
0
  0
BLOCK_RECORD
  5
212
100
AcDbSymbolTableRecord
100
AcDbBlockTableRecord
  2
*Model_Space
  0
BLOCK_RECORD
  5
213
100
AcDbSymbolTableRecord
100
AcDbBlockTableRecord
  2
*Paper_Space
  0
ENDTAB
  0
TABLE
  2
DIMSTYLE
  5
A
100
AcDbSymbolTable
 70
1
100
AcDbDimStyleTable
 71
0
  0
DIMSTYLE
105
214
100
AcDbSymbolTableRecord
100
AcDbDimStyleTableRecord
  2
STANDARD
 70
0
  3

  4

 40
1.0
 41
3.0
 42
0.5
 43
0.38
 44
1.5
 45
0.0
 46
0.0
 47
0.01
 48
0.01
140
3.0
141
0.09
142
0.0
143
25.4
144
1.0
145
0.0
146
1.0
147
0.625
 71
1.0
 72
0.0
 73
0
 74
0
 75
0
 76
0
 77
1
 78
8
170
0
171
2
172
0
173
0
174
0
175
0
176
0
177
0
178
0
270
2
271
2
272
2
273
2
274
2
275
0
280
0
281
0
282
0
283
1
284
8
285
0
286
0
287
3
288
0
340
11
278
44
  0
ENDTAB
  0
ENDSEC
  0
SECTION
  2
BLOCKS
  0
BLOCK
  5
20
100
AcDbEntity
  8
0
100
AcDbBlockBegin
  2
*Model_Space
 70
0
 10
0.0
 20
0.0
 30
0.0
  3
*Model_Space
  1

  0
ENDBLK
  5
21
100
AcDbEntity
  8
0
100
AcDbBlockEnd
  0
BLOCK
  5
1C
100
AcDbEntity
  8
0
100
AcDbBlockBegin
  2
*Paper_Space
 70
0
 10
0.0
 20
0.0
 30
0.0
  3
*Paper_Space
  1

  0
ENDBLK
  5
1D
100
AcDbEntity
  8
0
100
AcDbBlockEnd
  0
ENDSEC
  0
SECTION
  2
ENTITIES
  0
LINE
  5
215
100
AcDbEntity
  8
RACCORDO
100
AcDbLine
 62
7
  6
CONTINUOUS
 10
-41.311617367
 20
-42.1309962234
 11
-41.3524312195
 21
-41.6064144059
  0
LINE
  5
216
100
AcDbEntity
  8
RACCORDO
100
AcDbLine
 62
7
  6
CONTINUOUS
 10
-39.706540279
 20
-37.7135617257
 11
-39.6657264265
 21
-38.2381435431
  0
LINE
  5
217
100
AcDbEntity
  8
RACCORDO
100
AcDbLine
 62
7
  6
CONTINUOUS
 10
-41.3524312195
 20
-41.6064144059
 11
-41.3753129477
 21
-41.2935614453
  0
LINE
  5
218
100
AcDbEntity
  8
RACCORDO
100
AcDbLine
 62
7
  6
CONTINUOUS
 10
-39.6657264265
 20
-38.2381435431
 11
-39.6428446983
 21
-38.5509965038
  0
LINE
  5
219
100
AcDbEntity
  8
RACCORDO
100
AcDbLine
 62
7
  6
CONTINUOUS
 10
-41.3753129477
 20
-41.2935614453
 11
-41.3862936124
 21
-41.1346513051
  0
LINE
  5
21A
100
AcDbEntity
  8
RACCORDO
100
AcDbLine
 62
7
  6
CONTINUOUS
 10
-39.6428446983
 20
-38.5509965038
 11
-39.6318640336
 21
-38.7099066439
  0
LWPOLYLINE
  5
21B
100
AcDbEntity
  8
RACCORDO
100
AcDbPolyline
 62
7
  6
CONTINUOUS
 90
22
 70
0
 10
-39.009078823
 20
-56.6723551269
 10
-39.00768735
 20
-56.7096353469
 10
-39.0035127751
 20
-56.7467577022
 10
-38.9965670857
 20
-56.7835138026
 10
-38.9868632436
 20
-56.8197437121
 10
-38.9744522042
 20
-56.8551911763
 10
-38.9594582402
 20
-56.88951721
 10
-38.9420466432
 20
-56.922432825
 10
-38.9222890439
 20
-56.9538789384
 10
-38.9001793427
 20
-56.9838616227
 10
-38.8757184108
 20
-57.0123081511
 10
-38.8491079996
 20
-57.0389185624
 10
-38.8206614712
 20
-57.0633794942
 10
-38.7906787869
 20
-57.0854891954
 10
-38.7592326735
 20
-57.1052467947
 10
-38.7263170585
 20
-57.1226583917
 10
-38.6919910248
 20
-57.1376523557
 10
-38.6565435605
 20
-57.1500633951
 10
-38.6203136511
 20
-57.1597672373
 10
-38.5835575507
 20
-57.1667129266
 10
-38.5464351954
 20
-57.1708875015
 10
-38.5091549754
 20
-57.1722789745
  0
LINE
  5
21C
100
AcDbEntity
  8
RACCORDO
100
AcDbLine
 62
7
  6
CONTINUOUS
 10
-41.609078823
 20
43.9788626161
 11
-41.609078823
 21
41.3075584131
  0
LINE
  5
21D
100
AcDbEntity
  8
RACCORDO
100
AcDbLine
 62
7
  6
CONTINUOUS
 10
-41.609078823
 20
38.8478836379
 11
-41.609078823
 21
36.1765794349
  0
LINE
  5
21E
100
AcDbEntity
  8
RACCORDO
100
AcDbLine
 62
7
  6
CONTINUOUS
 10
-41.609078823
 20
-36.0211373839
 11
-41.609078823
 21
-38.6924415869
  0
LINE
  5
21F
100
AcDbEntity
  8
RACCORDO
100
AcDbLine
 62
7
  6
CONTINUOUS
 10
-41.609078823
 20
-41.1521163621
 11
-41.609078823
 21
-43.8234205651
  0
LINE
  5
220
100
AcDbEntity
  8
DRAFT
100
AcDbLine
 62
7
  6
CONTINUOUS
 10
-41.4341014959
 20
41.444042018
 11
-41.4341014959
 21
41.2573651909
  0
LINE
  5
221
100
AcDbEntity
  8
DRAFT
100
AcDbLine
 62
7
  6
CONTINUOUS
 10
-41.4341014959
 20
38.89807686
 11
-41.4341014959
 21
38.711400033
  0
LINE
  5
222
100
AcDbEntity
  8
DRAFT
100
AcDbLine
 62
7
  6
CONTINUOUS
 10
-41.4341014959
 20
-41.288599967
 11
-41.4341014959
 21
-41.10192314
  0
LINE
  5
223
100
AcDbEntity
  8
DRAFT
100
AcDbLine
 62
7
  6
CONTINUOUS
 10
-41.4341014959
 20
-38.7426348091
 11
-41.4341014959
 21
-38.555957982
  0
LINE
  5
224
100
AcDbEntity
  8
RACCORDO
100
AcDbLine
 62
7
  6
CONTINUOUS
 10
-41.311617367
 20
43.6814011601
 11
-41.311617367
 21
42.2864382743
  0
LINE
  5
225
100
AcDbEntity
  8
RACCORDO
100
AcDbLine
 62
7
  6
CONTINUOUS
 10
-41.311617367
 20
37.8690037766
 11
-41.311617367
 21
36.4740408909
  0
LINE
  5
226
100
AcDbEntity
  8
RACCORDO
100
AcDbLine
 62
7
  6
CONTINUOUS
 10
-41.311617367
 20
-36.3185988399
 11
-41.311617367
 21
-37.7135617257
  0
LINE
  5
227
100
AcDbEntity
  8
RACCORDO
100
AcDbLine
 62
7
  6
CONTINUOUS
 10
-41.311617367
 20
-42.1309962234
 11
-41.311617367
 21
-43.5259591091
  0
LWPOLYLINE
  5
228
100
AcDbEntity
  8
RACCORDO
100
AcDbPolyline
 62
7
  6
CONTINUOUS
 90
22
 70
0
 10
-39.009078823
 20
56.8277971779
 10
-39.00768735
 20
56.8650773978
 10
-39.0035127751
 20
56.9021997532
 10
-38.9965670857
 20
56.9389558536
 10
-38.9868632436
 20
56.975185763
 10
-38.9744522042
 20
57.0106332273
 10
-38.9594582402
 20
57.044959261
 10
-38.9420466432
 20
57.077874876
 10
-38.9222890439
 20
57.1093209894
 10
-38.9001793427
 20
57.1393036737
 10
-38.8757184108
 20
57.1677502021
 10
-38.8491079996
 20
57.1943606133
 10
-38.8206614712
 20
57.2188215452
 10
-38.7906787869
 20
57.2409312464
 10
-38.7592326735
 20
57.2606888456
 10
-38.7263170585
 20
57.2781004427
 10
-38.6919910248
 20
57.2930944067
 10
-38.6565435605
 20
57.3055054461
 10
-38.6203136511
 20
57.3152092882
 10
-38.5835575507
 20
57.3221549775
 10
-38.5464351954
 20
57.3263295525
 10
-38.5091549754
 20
57.3277210255
  0
LINE
  5
229
100
AcDbEntity
  8
RACCORDO
100
AcDbLine
 62
7
  6
CONTINUOUS
 10
-41.3862936124
 20
41.2900933561
 11
-41.3693541111
 21
41.5324545045
  0
LINE
  5
22A
100
AcDbEntity
  8
RACCORDO
100
AcDbLine
 62
7
  6
CONTINUOUS
 10
-39.6318640336
 20
38.8653486949
 11
-39.6488035348
 21
38.6229875465
  0
LINE
  5
22B
100
AcDbEntity
  8
RACCORDO
100
AcDbLine
 62
7
  6
CONTINUOUS
 10
-41.3693541111
 20
41.5324545045
 11
-41.3429809403
 21
41.8862370354
  0
LINE
  5
22C
100
AcDbEntity
  8
RACCORDO
100
AcDbLine
 62
7
  6
CONTINUOUS
 10
-39.6488035348
 20
38.6229875465
 11
-39.6751767056
 21
38.2692050155
  0
LINE
  5
22D
100
AcDbEntity
  8
RACCORDO
100
AcDbLine
 62
7
  6
CONTINUOUS
 10
-41.3429809403
 20
41.8862370354
 11
-41.311617367
 21
42.2864382743
  0
LINE
  5
22E
100
AcDbEntity
  8
RACCORDO
100
AcDbLine
 62
7
  6
CONTINUOUS
 10
-39.6751767056
 20
38.2692050155
 11
-39.706540279
 21
37.8690037766
  0
LINE
  5
22F
100
AcDbEntity
  8
DRAFT
100
AcDbLine
 62
7
  6
CONTINUOUS
 10
-37.7212973684
 20
49.1169097734
 11
-37.6951147711
 21
49.3277210255
  0
LINE
  5
230
100
AcDbEntity
  8
RACCORDO
100
AcDbLine
 62
7
  6
CONTINUOUS
 10
-35.7712973684
 20
49.1169097734
 11
-35.7520358704
 21
49.2719952468
  0
LWPOLYLINE
  5
231
100
AcDbEntity
  8
RACCORDO
100
AcDbPolyline
 62
7
  6
CONTINUOUS
 90
5
 70
0
 10
-31.7355208648
 20
54.4710261532
 10
-31.7450325373
 20
54.4523736188
 10
-31.7525422983
 20
54.4328294682
 10
-31.7579678082
 20
54.4126080504
 10
-31.7612496595
 20
54.3919308674
  0
LWPOLYLINE
  5
232
100
AcDbEntity
  8
RACCORDO
100
AcDbPolyline
 62
253
  6
CONTINUOUS
 90
10
 70
0
 10
-31.9238605267
 20
54.5915384233
 10
-31.935363652
 20
54.5706349154
 10
-31.9455500229
 20
54.5492485134
 10
-31.9544196395
 20
54.5273792175
 10
-31.9619928655
 20
54.5049486522
 10
-31.9682493373
 20
54.4820351928
 10
-31.9731279635
 20
54.4588739656
 10
-31.9766083806
 20
54.4355433458
 10
-31.9787109521
 20
54.4119649582
 10
-31.9794356782
 20
54.3881388027
  0
LWPOLYLINE
  5
233
100
AcDbEntity
  8
RACCORDO
100
AcDbPolyline
 62
7
  6
CONTINUOUS
 90
7
 70
0
 10
-31.6645272232
 20
54.0489453103
 10
-31.6777591031
 20
54.032671272
 10
-31.6892200709
 20
54.01509152
 10
-31.6987790838
 20
53.9964017248
 10
-31.7063266856
 20
53.9768134446
 10
-31.7117792137
 20
53.9565447706
 10
-31.7150775383
 20
53.9358168379
  0
LINE
  5
234
100
AcDbEntity
  8
DRAFT
100
AcDbLine
 62
7
  6
CONTINUOUS
 10
-38.9794052126
 20
33.7074637475
 11
-39.009078823
 21
33.6777210255
  0
LINE
  5
235
100
AcDbEntity
  8
RACCORDO
100
AcDbLine
 62
7
  6
CONTINUOUS
 10
-33.1916716725
 20
54.6562106728
 11
-33.1712017608
 21
54.6767456098
  0
LINE
  5
236
100
AcDbEntity
  8
RACCORDO
100
AcDbLine
 62
7
  6
CONTINUOUS
 10
-33.0882480937
 20
54.7596358522
 11
-33.0511654305
 21
54.7968229726
  0
LINE
  5
237
100
AcDbEntity
  8
DRAFT
100
AcDbLine
 62
7
  6
CONTINUOUS
 10
-37.9387524334
 20
57.2980474151
 11
-37.9212973684
 21
57.31550248
  0
LINE
  5
238
100
AcDbEntity
  8
RACCORDO
100
AcDbLine
 62
253
  6
CONTINUOUS
 10
-39.7079372324
 20
44.2777210255
 11
-40.0053986884
 21
43.9802595695
  0
LINE
  5
239
100
AcDbEntity
  8
RACCORDO
100
AcDbLine
 62
253
  6
CONTINUOUS
 10
-39.409078823
 20
43.9788626161
 11
-39.706540279
 21
43.6814011601
  0
LINE
  5
23A
100
AcDbEntity
  8
RACCORDO
100
AcDbLine
 62
253
  6
CONTINUOUS
 10
-41.609078823
 20
36.1765794349
 11
-41.311617367
 21
36.4740408909
  0
LINE
  5
23B
100
AcDbEntity
  8
RACCORDO
100
AcDbLine
 62
253
  6
CONTINUOUS
 10
-41.3102204136
 20
35.8777210255
 11
-41.0127589576
 21
36.1751824815
  0
LINE
  5
23C
100
AcDbEntity
  8
RACCORDO
100
AcDbLine
 62
7
  6
CONTINUOUS
 10
-31.6496694301
 20
54.0637399149
 11
-31.6645272232
 21
54.0489453103
  0
LINE
  5
23D
100
AcDbEntity
  8
RACCORDO
100
AcDbLine
 62
7
  6
CONTINUOUS
 10
-33.1712017608
 20
54.6767456098
 11
-33.0882480937
 21
54.7596358522
  0
LINE
  5
23E
100
AcDbEntity
  8
RACCORDO
100
AcDbLine
 62
7
  6
CONTINUOUS
 10
-33.0511654305
 20
54.7968229726
 11
-33.0388742109
 21
54.8090239586
  0
LINE
  5
23F
100
AcDbEntity
  8
RACCORDO
100
AcDbLine
 62
7
  6
CONTINUOUS
 10
-33.2011136028
 20
54.6468561557
 11
-33.1916716725
 21
54.6562106728
  0
LINE
  5
240
100
AcDbEntity
  8
RACCORDO
100
AcDbLine
 62
253
  6
CONTINUOUS
 10
-31.5635252357
 20
54.5699696742
 11
-31.562382343
 21
54.5709940846
  0
LWPOLYLINE
  5
241
100
AcDbEntity
  8
RACCORDO
100
AcDbPolyline
 62
7
  6
CONTINUOUS
 90
7
 70
0
 10
-33.2388437499
 20
54.6090544196
 10
-33.2372597514
 20
54.6103103361
 10
-33.2343673895
 20
54.6132682946
 10
-33.2301666643
 20
54.6177315052
 10
-33.2245018628
 20
54.6234844808
 10
-33.217528698
 20
54.6303413355
 10
-33.2011136028
 20
54.6468561557
  0
LWPOLYLINE
  5
242
100
AcDbEntity
  8
RACCORDO
100
AcDbPolyline
 62
7
  6
CONTINUOUS
 90
6
 70
0
 10
-31.6622822126
 20
54.5442218101
 10
-31.6798474143
 20
54.5328213192
 10
-31.6961218239
 20
54.5196497764
 10
-31.7109306285
 20
54.5048494812
 10
-31.7241117816
 20
54.4885822901
 10
-31.7355208648
 20
54.4710261532
  0
LWPOLYLINE
  5
243
100
AcDbEntity
  8
RACCORDO
100
AcDbPolyline
 62
7
  6
CONTINUOUS
 90
4
 70
0
 10
-31.5969792702
 20
54.0977679882
 10
-31.6157102003
 20
54.0882885424
 10
-31.6333453693
 20
54.0768978158
 10
-31.6496694301
 20
54.0637399149
  0
LWPOLYLINE
  5
244
100
AcDbEntity
  8
RACCORDO
100
AcDbPolyline
 62
7
  6
CONTINUOUS
 90
7
 70
0
 10
7.564625897
 20
54.5540964374
 10
7.5793427738
 20
54.561192215
 10
7.5946042519
 20
54.5670677015
 10
7.6102837304
 20
54.5716735097
 10
7.6262669704
 20
54.5749800386
 10
7.642455426
 20
54.5769708179
 10
7.6587411032
 20
54.5776353019
  0
LWPOLYLINE
  5
245
100
AcDbEntity
  8
RACCORDO
100
AcDbPolyline
 62
7
  6
CONTINUOUS
 90
3
 70
0
 10
-31.6240820787
 20
54.5612186847
 10
-31.643621823
 20
54.553723538
 10
-31.6622822126
 20
54.5442218101
  0
LINE
  5
246
100
AcDbEntity
  8
RACCORDO
100
AcDbLine
 62
7
  6
CONTINUOUS
 10
-31.5774331615
 20
54.1052080402
 11
-31.5969792702
 21
54.0977679882
  0
LWPOLYLINE
  5
247
100
AcDbEntity
  8
RACCORDO
100
AcDbPolyline
 62
253
  6
CONTINUOUS
 90
7
 70
0
 10
-31.8594628011
 20
-51.5365624799
 10
-31.8686751707
 20
-51.5390616036
 10
-31.878031795
 20
-51.5411252119
 10
-31.8875123286
 20
-51.5427435435
 10
-31.8970957411
 20
-51.5439077632
 10
-31.9067603566
 20
-51.5446100097
 10
-31.9164838959
 20
-51.5448434406
  0
LWPOLYLINE
  5
248
100
AcDbEntity
  8
RACCORDO
100
AcDbPolyline
 62
253
  6
CONTINUOUS
 90
7
 70
0
 10
-31.8090788227
 20
-51.7301245135
 10
-31.8260054768
 20
-51.7345068848
 10
-31.8433218074
 20
-51.7381155386
 10
-31.8610278146
 20
-51.740950475
 10
-31.8791234985
 20
-51.743011694
 10
-31.8976088589
 20
-51.7442991955
 10
-31.9164838959
 20
-51.7448129797
  0
LINE
  5
249
100
AcDbEntity
  8
RACCORDO
100
AcDbLine
 62
7
  6
CONTINUOUS
 10
-33.2128962256
 20
-54.4275429912
 11
-33.1739338587
 21
-54.4176686553
  0
LINE
  5
24A
100
AcDbEntity
  8
RACCORDO
100
AcDbLine
 62
7
  6
CONTINUOUS
 10
-33.1337707449
 20
-53.9974900109
 11
-32.9233238262
 21
-53.9441558906
  0
LWPOLYLINE
  5
24B
100
AcDbEntity
  8
RACCORDO
100
AcDbPolyline
 62
253
  6
CONTINUOUS
 90
4
 70
0
 10
32.7478302384
 20
-51.5385932314
 10
32.7338056436
 20
-51.5416512168
 10
32.7161404218
 20
-51.5440378474
 10
32.6982653187
 20
-51.5448434406
  0
LINE
  5
24C
100
AcDbEntity
  8
DRAFT
100
AcDbLine
 62
7
  6
CONTINUOUS
 10
34.4628535964
 20
-55.5118059356
 11
34.3848904391
 21
-55.5155448456
  0
LINE
  5
24D
100
AcDbEntity
  8
DRAFT
100
AcDbLine
 62
7
  6
CONTINUOUS
 10
33.7628535964
 20
-55.5118059356
 11
33.6848904391
 21
-55.5155448456
  0
LINE
  5
24E
100
AcDbEntity
  8
DRAFT
100
AcDbLine
 62
7
  6
CONTINUOUS
 10
-33.4371464036
 20
-55.5118059356
 11
-33.5151095609
 21
-55.5155448456
  0
LINE
  5
24F
100
AcDbEntity
  8
DRAFT
100
AcDbLine
 62
7
  6
CONTINUOUS
 10
-34.1371464036
 20
-55.5118059356
 11
-34.2151095609
 21
-55.5155448456
  0
LINE
  5
250
100
AcDbEntity
  8
RACCORDO
100
AcDbLine
 62
253
  6
CONTINUOUS
 10
-33.1739338587
 20
-54.4176686553
 11
-18.5095705314
 21
-54.4035954717
  0
LINE
  5
251
100
AcDbEntity
  8
RACCORDO
100
AcDbLine
 62
253
  6
CONTINUOUS
 10
-33.1643631287
 20
-54.3590966122
 11
-18.5045370859
 21
-54.3450402776
  0
LINE
  5
252
100
AcDbEntity
  8
RACCORDO
100
AcDbLine
 62
253
  6
CONTINUOUS
 10
-33.1433413002
 20
-54.0560619942
 11
-18.5149427813
 21
-54.0420392266
  0
LINE
  5
253
100
AcDbEntity
  8
RACCORDO
100
AcDbLine
 62
253
  6
CONTINUOUS
 10
-33.1337707449
 20
-53.9974900109
 11
-18.5095606942
 21
-53.9834834352
  0
LINE
  5
254
100
AcDbEntity
  8
RACCORDO
100
AcDbLine
 62
253
  6
CONTINUOUS
 10
-15.3255610198
 20
-53.9456239441
 11
-7.067290599
 21
-53.9422811469
  0
LINE
  5
255
100
AcDbEntity
  8
RACCORDO
100
AcDbLine
 62
253
  6
CONTINUOUS
 10
-15.3286574308
 20
-53.7456526549
 11
-7.0687735297
 21
-53.7423112377
  0
LINE
  5
256
100
AcDbEntity
  8
RACCORDO
100
AcDbLine
 62
253
  6
CONTINUOUS
 10
-18.5095705314
 20
-54.4035954717
 11
-3.8138754725
 21
-54.3975116657
  0
LINE
  5
257
100
AcDbEntity
  8
RACCORDO
100
AcDbLine
 62
253
  6
CONTINUOUS
 10
-18.5045370859
 20
-54.3450402776
 11
-3.8131700912
 21
-54.3389635475
  0
LINE
  5
258
100
AcDbEntity
  8
RACCORDO
100
AcDbLine
 62
253
  6
CONTINUOUS
 10
-18.5149427813
 20
-54.0420392266
 11
-3.8523570219
 21
-54.0359612535
  0
LINE
  5
259
100
AcDbEntity
  8
RACCORDO
100
AcDbLine
 62
253
  6
CONTINUOUS
 10
-18.5095606942
 20
-53.9834834352
 11
-3.851276141
 21
-53.97741248
  0
LINE
  5
25A
100
AcDbEntity
  8
RACCORDO
100
AcDbLine
 62
7
  6
CONTINUOUS
 10
35.9909973294
 20
-57.1722789745
 11
30.490921177
 21
-57.1722789745
  0
LINE
  5
25B
100
AcDbEntity
  8
DRAFT
100
AcDbLine
 62
7
  6
CONTINUOUS
 10
30.490921177
 20
-57.1722789745
 11
-30.509078823
 21
-57.1722789745
  0
LINE
  5
25C
100
AcDbEntity
  8
RACCORDO
100
AcDbLine
 62
7
  6
CONTINUOUS
 10
-30.509078823
 20
-57.1722789745
 11
-38.5091549754
 21
-57.1722789745
  0
LINE
  5
25D
100
AcDbEntity
  8
RACCORDO
100
AcDbLine
 62
7
  6
CONTINUOUS
 10
35.978778784
 20
-57.1600604291
 11
30.505130471
 21
-57.1600604291
  0
LINE
  5
25E
100
AcDbEntity
  8
DRAFT
100
AcDbLine
 62
7
  6
CONTINUOUS
 10
29.476711883
 20
-57.1600604291
 11
0.505130471
 21
-57.1600604291
  0
LINE
  5
25F
100
AcDbEntity
  8
DRAFT
100
AcDbLine
 62
7
  6
CONTINUOUS
 10
-0.523288117
 20
-57.1600604291
 11
-29.494869529
 21
-57.1600604291
  0
LINE
  5
260
100
AcDbEntity
  8
DRAFT
100
AcDbLine
 62
7
  6
CONTINUOUS
 10
-30.523288117
 20
-57.1600604291
 11
-37.9212973684
 21
-57.1600604291
  0
LINE
  5
261
100
AcDbEntity
  8
RACCORDO
100
AcDbLine
 62
7
  6
CONTINUOUS
 10
-37.9387524334
 20
-57.1426053641
 11
-38.479481365
 21
-57.1426053641
  0
LINE
  5
262
100
AcDbEntity
  8
RACCORDO
100
AcDbLine
 62
7
  6
CONTINUOUS
 10
35.5531701834
 20
-55.53449752
 11
30.7514278815
 21
-55.53449752
  0
LINE
  5
263
100
AcDbEntity
  8
DRAFT
100
AcDbLine
 62
7
  6
CONTINUOUS
 10
29.2304144725
 20
-55.53449752
 11
0.7514278815
 21
-55.53449752
  0
LINE
  5
264
100
AcDbEntity
  8
DRAFT
100
AcDbLine
 62
7
  6
CONTINUOUS
 10
-0.7695855275
 20
-55.53449752
 11
-29.2485721185
 21
-55.53449752
  0
LINE
  5
265
100
AcDbEntity
  8
RACCORDO
100
AcDbLine
 62
7
  6
CONTINUOUS
 10
-30.7695855275
 20
-55.53449752
 11
-35.5713278294
 21
-55.53449752
  0
LINE
  5
266
100
AcDbEntity
  8
DRAFT
100
AcDbLine
 62
7
  6
CONTINUOUS
 10
30.740921177
 20
-55.5222789745
 11
29.240921177
 21
-55.5222789745
  0
LINE
  5
267
100
AcDbEntity
  8
DRAFT
100
AcDbLine
 62
7
  6
CONTINUOUS
 10
0.740921177
 20
-55.5222789745
 11
-0.759078823
 21
-55.5222789745
  0
LINE
  5
268
100
AcDbEntity
  8
DRAFT
100
AcDbLine
 62
7
  6
CONTINUOUS
 10
-29.259078823
 20
-55.5222789745
 11
-30.759078823
 21
-55.5222789745
  0
LINE
  5
269
100
AcDbEntity
  8
RACCORDO
100
AcDbLine
 62
7
  6
CONTINUOUS
 10
-35.548636245
 20
-55.5118059356
 11
-34.4810112424
 21
-55.5118059356
  0
LINE
  5
26A
100
AcDbEntity
  8
DRAFT
100
AcDbLine
 62
7
  6
CONTINUOUS
 10
-34.1371464036
 20
-55.5118059356
 11
-33.7810112424
 21
-55.5118059356
  0
LINE
  5
26B
100
AcDbEntity
  8
DRAFT
100
AcDbLine
 62
7
  6
CONTINUOUS
 10
-33.4371464036
 20
-55.5118059356
 11
-33.398605784
 21
-55.5118059356
  0
LINE
  5
26C
100
AcDbEntity
  8
DRAFT
100
AcDbLine
 62
7
  6
CONTINUOUS
 10
33.3804481381
 20
-55.5118059356
 11
33.4189887576
 21
-55.5118059356
  0
LINE
  5
26D
100
AcDbEntity
  8
DRAFT
100
AcDbLine
 62
7
  6
CONTINUOUS
 10
33.7628535964
 20
-55.5118059356
 11
34.1189887576
 21
-55.5118059356
  0
LINE
  5
26E
100
AcDbEntity
  8
RACCORDO
100
AcDbLine
 62
7
  6
CONTINUOUS
 10
34.4628535964
 20
-55.5118059356
 11
35.530478599
 21
-55.5118059356
  0
LINE
  5
26F
100
AcDbEntity
  8
RACCORDO
100
AcDbLine
 62
253
  6
CONTINUOUS
 10
33.2206861039
 20
-55.4535209764
 11
-33.2388437499
 21
-55.4535209764
  0
LINE
  5
270
100
AcDbEntity
  8
RACCORDO
100
AcDbLine
 62
253
  6
CONTINUOUS
 10
33.0207165649
 20
-54.6535819077
 11
-33.0388742109
 21
-54.6535819077
  0
LINE
  5
271
100
AcDbEntity
  8
RACCORDO
100
AcDbLine
 62
253
  6
CONTINUOUS
 10
33.2206861039
 20
-54.4536123686
 11
-33.2388437499
 21
-54.4536123686
  0
LINE
  5
272
100
AcDbEntity
  8
RACCORDO
100
AcDbLine
 62
253
  6
CONTINUOUS
 10
-32.9165143569
 20
-53.9597145084
 11
-15.3255610198
 21
-53.9456239441
  0
LINE
  5
273
100
AcDbEntity
  8
RACCORDO
100
AcDbLine
 62
253
  6
CONTINUOUS
 10
-7.067290599
 20
-53.9422811469
 11
1.2895325894
 21
-53.9413909758
  0
LINE
  5
274
100
AcDbEntity
  8
RACCORDO
100
AcDbLine
 62
253
  6
CONTINUOUS
 10
-32.9130842705
 20
-53.7597449694
 11
-15.3286574308
 21
-53.7456526549
  0
LINE
  5
275
100
AcDbEntity
  8
RACCORDO
100
AcDbLine
 62
253
  6
CONTINUOUS
 10
-7.0687735297
 20
-53.7423112377
 11
1.2896573336
 21
-53.7414214349
  0
LINE
  5
276
100
AcDbEntity
  8
DRAFT
100
AcDbLine
 62
7
  6
CONTINUOUS
 10
36.4787026316
 20
-52.8830902266
 11
35.7531397225
 21
-52.8830902266
  0
LINE
  5
277
100
AcDbEntity
  8
RACCORDO
100
AcDbLine
 62
7
  6
CONTINUOUS
 10
35.5339086854
 20
-52.7003871415
 11
35.240921177
 21
-52.7003871415
  0
LINE
  5
278
100
AcDbEntity
  8
DRAFT
100
AcDbLine
 62
7
  6
CONTINUOUS
 10
36.4769571251
 20
-52.6722789745
 11
35.240921177
 21
-52.6722789745
  0
LINE
  5
279
100
AcDbEntity
  8
RACCORDO
100
AcDbLine
 62
253
  6
CONTINUOUS
 10
32.6982653187
 20
-51.7448129797
 11
31.8983262499
 21
-51.7448129797
  0
LINE
  5
27A
100
AcDbEntity
  8
RACCORDO
100
AcDbLine
 62
253
  6
CONTINUOUS
 10
-31.9164838959
 20
-51.7448129797
 11
-32.7164229647
 21
-51.7448129797
  0
LINE
  5
27B
100
AcDbEntity
  8
RACCORDO
100
AcDbLine
 62
253
  6
CONTINUOUS
 10
32.6982653187
 20
-51.5448434406
 11
31.8983262499
 21
-51.5448434406
  0
LINE
  5
27C
100
AcDbEntity
  8
RACCORDO
100
AcDbLine
 62
253
  6
CONTINUOUS
 10
-31.9164838959
 20
-51.5448434406
 11
-32.7164229647
 21
-51.5448434406
  0
LINE
  5
27D
100
AcDbEntity
  8
RACCORDO
100
AcDbLine
 62
253
  6
CONTINUOUS
 10
32.761217101
 20
-51.4818916583
 11
31.9612780322
 21
-51.4818916583
  0
LINE
  5
27E
100
AcDbEntity
  8
RACCORDO
100
AcDbLine
 62
253
  6
CONTINUOUS
 10
-31.9794356782
 20
-51.4818916583
 11
-32.779374747
 21
-51.4818916583
  0
LINE
  5
27F
100
AcDbEntity
  8
RACCORDO
100
AcDbLine
 62
253
  6
CONTINUOUS
 10
31.6980276616
 20
-51.3452029509
 11
31.5111411235
 21
-51.3452029509
  0
LINE
  5
280
100
AcDbEntity
  8
RACCORDO
100
AcDbLine
 62
253
  6
CONTINUOUS
 10
-31.5292987695
 20
-51.3452029509
 11
-31.7161853076
 21
-51.3452029509
  0
LINE
  5
281
100
AcDbEntity
  8
RACCORDO
100
AcDbLine
 62
253
  6
CONTINUOUS
 10
31.7613084932
 20
-51.2819221193
 11
32.9611866401
 21
-51.2819221193
  0
LINE
  5
282
100
AcDbEntity
  8
RACCORDO
100
AcDbLine
 62
253
  6
CONTINUOUS
 10
-31.7794661392
 20
-51.2819221193
 11
-32.979344286
 21
-51.2819221193
  0
LINE
  5
283
100
AcDbEntity
  8
DRAFT
100
AcDbLine
 62
7
  6
CONTINUOUS
 10
35.240921177
 20
-51.1722789745
 11
36.4769571251
 21
-51.1722789745
  0
LINE
  5
284
100
AcDbEntity
  8
RACCORDO
100
AcDbLine
 62
7
  6
CONTINUOUS
 10
35.5339086854
 20
-51.1441708076
 11
35.240921177
 21
-51.1441708076
  0
LINE
  5
285
100
AcDbEntity
  8
DRAFT
100
AcDbLine
 62
7
  6
CONTINUOUS
 10
36.4787026316
 20
-50.9614677225
 11
35.7531397225
 21
-50.9614677225
  0
LINE
  5
286
100
AcDbEntity
  8
DRAFT
100
AcDbLine
 62
7
  6
CONTINUOUS
 10
-35.7712973684
 20
-50.8830902266
 11
-37.7212973684
 21
-50.8830902266
  0
LINE
  5
287
100
AcDbEntity
  8
RACCORDO
100
AcDbLine
 62
7
  6
CONTINUOUS
 10
-35.5520663314
 20
-50.7003871415
 11
-35.259078823
 21
-50.7003871415
  0
LINE
  5
288
100
AcDbEntity
  8
DRAFT
100
AcDbLine
 62
7
  6
CONTINUOUS
 10
-35.259078823
 20
-50.6722789745
 11
-37.6951147711
 21
-50.6722789745
  0
LINE
  5
289
100
AcDbEntity
  8
DRAFT
100
AcDbLine
 62
7
  6
CONTINUOUS
 10
-37.6951147711
 20
-49.1722789745
 11
-35.259078823
 21
-49.1722789745
  0
LINE
  5
28A
100
AcDbEntity
  8
RACCORDO
100
AcDbLine
 62
7
  6
CONTINUOUS
 10
-35.5520663314
 20
-49.1441708076
 11
-35.259078823
 21
-49.1441708076
  0
LINE
  5
28B
100
AcDbEntity
  8
DRAFT
100
AcDbLine
 62
7
  6
CONTINUOUS
 10
-37.7212973684
 20
-48.9614677225
 11
-35.7712973684
 21
-48.9614677225
  0
LINE
  5
28C
100
AcDbEntity
  8
RACCORDO
100
AcDbLine
 62
7
  6
CONTINUOUS
 10
-41.3102204136
 20
-44.1222789745
 11
-39.7079372324
 21
-44.1222789745
  0
LINE
  5
28D
100
AcDbEntity
  8
RACCORDO
100
AcDbLine
 62
7
  6
CONTINUOUS
 10
-41.0127589576
 20
-43.8248175185
 11
-40.0053986884
 21
-43.8248175185
  0
LINE
  5
28E
100
AcDbEntity
  8
RACCORDO
100
AcDbLine
 62
253
  6
CONTINUOUS
 10
-3.8138754725
 20
-54.3975116657
 11
7.3331546344
 21
-54.3982495298
  0
LINE
  5
28F
100
AcDbEntity
  8
RACCORDO
100
AcDbLine
 62
253
  6
CONTINUOUS
 10
-3.8131700912
 20
-54.3389635475
 11
7.3303775085
 21
-54.3397003929
  0
LINE
  5
290
100
AcDbEntity
  8
RACCORDO
100
AcDbLine
 62
253
  6
CONTINUOUS
 10
-3.8523570219
 20
-54.0359612535
 11
7.2714696698
 21
-54.0366757949
  0
LINE
  5
291
100
AcDbEntity
  8
RACCORDO
100
AcDbLine
 62
253
  6
CONTINUOUS
 10
-3.851276141
 20
-53.97741248
 11
7.2688541262
 21
-53.9781258491
  0
LINE
  5
292
100
AcDbEntity
  8
RACCORDO
100
AcDbLine
 62
253
  6
CONTINUOUS
 10
1.2895325894
 20
-53.9413909758
 11
9.8800878777
 21
-53.9431757609
  0
LINE
  5
293
100
AcDbEntity
  8
RACCORDO
100
AcDbLine
 62
253
  6
CONTINUOUS
 10
1.2896573336
 20
-53.7414214349
 11
9.8822493408
 21
-53.7432054635
  0
LINE
  5
294
100
AcDbEntity
  8
RACCORDO
100
AcDbLine
 62
253
  6
CONTINUOUS
 10
7.3331546344
 20
-54.3982495298
 11
18.5645481365
 21
-54.4036607462
  0
LINE
  5
295
100
AcDbEntity
  8
RACCORDO
100
AcDbLine
 62
253
  6
CONTINUOUS
 10
7.3303775085
 20
-54.3397003929
 11
18.5587173525
 21
-54.3451050553
  0
LINE
  5
296
100
AcDbEntity
  8
RACCORDO
100
AcDbLine
 62
253
  6
CONTINUOUS
 10
7.2714696698
 20
-54.0366757949
 11
18.4931311732
 21
-54.0420508252
  0
LINE
  5
297
100
AcDbEntity
  8
RACCORDO
100
AcDbLine
 62
253
  6
CONTINUOUS
 10
7.2688541262
 20
-53.9781258491
 11
18.487179445
 21
-53.9834945145
  0
LINE
  5
298
100
AcDbEntity
  8
RACCORDO
100
AcDbLine
 62
253
  6
CONTINUOUS
 10
9.8800878777
 20
-53.9431757609
 11
18.6754160143
 21
-53.9477066723
  0
LINE
  5
299
100
AcDbEntity
  8
RACCORDO
100
AcDbLine
 62
253
  6
CONTINUOUS
 10
9.8822493408
 20
-53.7432054635
 11
18.6792442162
 21
-53.7477344713
  0
LWPOLYLINE
  5
29A
100
AcDbEntity
  8
RACCORDO
100
AcDbPolyline
 62
253
  6
CONTINUOUS
 90
3
 70
0
 10
18.5645481365
 20
-54.4036607462
 10
29.5662123944
 20
-54.4134592208
 10
33.1557762127
 20
-54.4176686553
  0
LWPOLYLINE
  5
29B
100
AcDbEntity
  8
RACCORDO
100
AcDbPolyline
 62
253
  6
CONTINUOUS
 90
3
 70
0
 10
18.5587173525
 20
-54.3451050553
 10
29.5578910348
 20
-54.3548920443
 10
33.146205483
 20
-54.3590966122
  0
LWPOLYLINE
  5
29C
100
AcDbEntity
  8
RACCORDO
100
AcDbPolyline
 62
253
  6
CONTINUOUS
 90
3
 70
0
 10
18.4931311732
 20
-54.0420508252
 10
29.5191654879
 20
-54.0518438603
 10
33.1251836538
 20
-54.0560619942
  0
LWPOLYLINE
  5
29D
100
AcDbEntity
  8
RACCORDO
100
AcDbPolyline
 62
253
  6
CONTINUOUS
 90
3
 70
0
 10
18.487179445
 20
-53.9834945145
 10
29.5101084952
 20
-53.9932765462
 10
33.1156130989
 20
-53.9974900109
  0
LINE
  5
29E
100
AcDbEntity
  8
RACCORDO
100
AcDbLine
 62
253
  6
CONTINUOUS
 10
18.6754160143
 20
-53.9477066723
 11
32.8983567109
 21
-53.9597145084
  0
LINE
  5
29F
100
AcDbEntity
  8
RACCORDO
100
AcDbLine
 62
253
  6
CONTINUOUS
 10
18.6792442162
 20
-53.7477344713
 11
32.8949266245
 21
-53.7597449694
  0
LWPOLYLINE
  5
2A0
100
AcDbEntity
  8
RACCORDO
100
AcDbPolyline
 62
253
  6
CONTINUOUS
 90
7
 70
0
 10
31.8983262499
 20
-51.5448434406
 10
31.8886870542
 20
-51.5446140741
 10
31.8790725721
 20
-51.5439207718
 10
31.8695050865
 20
-51.5427654484
 10
31.8600067486
 20
-51.5411510875
 10
31.8505995266
 20
-51.5390817334
 10
31.8413051553
 20
-51.53656248
  0
LWPOLYLINE
  5
2A1
100
AcDbEntity
  8
RACCORDO
100
AcDbPolyline
 62
253
  6
CONTINUOUS
 90
7
 70
0
 10
31.8983262499
 20
-51.7448129797
 10
31.8798885148
 20
-51.744359814
 10
31.8616688902
 20
-51.7431093791
 10
31.8436673762
 20
-51.741061675
 10
31.8258839726
 20
-51.7382167017
 10
31.8083186796
 20
-51.7345744593
 10
31.7909714971
 20
-51.7301349476
  0
LWPOLYLINE
  5
2A2
100
AcDbEntity
  8
RACCORDO
100
AcDbPolyline
 62
253
  6
CONTINUOUS
 90
10
 70
0
 10
-32.7164229647
 20
-51.7448129797
 10
-32.7395453594
 20
-51.7441119139
 10
-32.76237371
 20
-51.7421429631
 10
-32.7849080165
 20
-51.7389061272
 10
-32.8071799317
 20
-51.7343907477
 10
-32.8291578028
 20
-51.7286074831
 10
-32.8507466708
 20
-51.7215883092
 10
-32.8719148829
 20
-51.7133438846
 10
-32.892694092
 20
-51.7038635507
 10
-32.9130842981
 20
-51.6931473074
  0
LWPOLYLINE
  5
2A3
100
AcDbEntity
  8
RACCORDO
100
AcDbPolyline
 62
253
  6
CONTINUOUS
 90
5
 70
0
 10
-32.7164229647
 20
-51.5448434406
 10
-32.7307327815
 20
-51.5443266807
 10
-32.7449608913
 20
-51.5427893197
 10
-32.7590347818
 20
-51.5402410956
 10
-32.7659521923
 20
-51.5386024028
  0
LINE
  5
2A4
100
AcDbEntity
  8
DRAFT
100
AcDbLine
 62
7
  6
CONTINUOUS
 10
-34.4030480851
 20
-55.5155448456
 11
-34.4810112424
 21
-55.5118059356
  0
LINE
  5
2A5
100
AcDbEntity
  8
DRAFT
100
AcDbLine
 62
7
  6
CONTINUOUS
 10
-33.7030480851
 20
-55.5155448456
 11
-33.7810112424
 21
-55.5118059356
  0
LINE
  5
2A6
100
AcDbEntity
  8
DRAFT
100
AcDbLine
 62
7
  6
CONTINUOUS
 10
33.4969519149
 20
-55.5155448456
 11
33.4189887576
 21
-55.5118059356
  0
LINE
  5
2A7
100
AcDbEntity
  8
DRAFT
100
AcDbLine
 62
7
  6
CONTINUOUS
 10
34.1969519149
 20
-55.5155448456
 11
34.1189887576
 21
-55.5118059356
  0
LWPOLYLINE
  5
2A8
100
AcDbEntity
  8
RACCORDO
100
AcDbPolyline
 62
7
  6
CONTINUOUS
 90
9
 70
0
 10
-32.779374747
 20
-51.4818916583
 10
-32.8002811748
 20
-51.4808021602
 10
-32.8209584573
 20
-51.4775328724
 10
-32.8411799648
 20
-51.4721196286
 10
-32.8607240522
 20
-51.464621766
 10
-32.879376523
 20
-51.4551214621
 10
-32.8969329716
 20
-51.4437228222
 10
-32.9132009697
 20
-51.4305507685
 10
-32.9207961032
 20
-51.4233434755
  0
LWPOLYLINE
  5
2A9
100
AcDbEntity
  8
RACCORDO
100
AcDbPolyline
 62
253
  6
CONTINUOUS
 90
16
 70
0
 10
31.9612780322
 20
-51.4818916583
 10
31.9403796808
 20
-51.4807902759
 10
31.9197102088
 20
-51.4775109224
 10
31.8994959847
 20
-51.472089514
 10
31.8799584022
 20
-51.4645854314
 10
31.8613114207
 20
-51.4550808565
 10
31.8437592273
 20
-51.4436798607
 10
31.8274940547
 20
-51.4305072954
 10
31.8126940459
 20
-51.4157074182
 10
31.7995212794
 20
-51.3994422847
 10
31.7881200227
 20
-51.3818899909
 10
31.7786151807
 20
-51.3632427834
 10
31.7711108895
 20
-51.3437049417
 10
31.765689341
 20
-51.3234904683
 10
31.7624099035
 20
-51.302820735
 10
31.7613084932
 20
-51.2819221193
  0
LINE
  5
2AA
100
AcDbEntity
  8
RACCORDO
100
AcDbLine
 62
7
  6
CONTINUOUS
 10
32.9009215368
 20
-53.943485086
 11
32.9051661802
 21
-53.9441558906
  0
LINE
  5
2AB
100
AcDbEntity
  8
RACCORDO
100
AcDbLine
 62
7
  6
CONTINUOUS
 10
33.1947385796
 20
-54.4275429912
 11
33.1557762127
 21
-54.4176686553
  0
LINE
  5
2AC
100
AcDbEntity
  8
RACCORDO
100
AcDbLine
 62
7
  6
CONTINUOUS
 10
32.9051661802
 20
-53.9441558906
 11
33.1156130989
 21
-53.9974900109
  0
LWPOLYLINE
  5
2AD
100
AcDbEntity
  8
RACCORDO
100
AcDbPolyline
 62
7
  6
CONTINUOUS
 90
5
 70
0
 10
-32.7659521923
 20
-51.5386024028
 10
-32.7728685835
 20
-51.5367010687
 10
-32.7864072365
 20
-51.5321869819
 10
-32.7996234523
 20
-51.5267049629
 10
-32.8124198289
 20
-51.5202905837
  0
LINE
  5
2AE
100
AcDbEntity
  8
RACCORDO
100
AcDbLine
 62
7
  6
CONTINUOUS
 10
-32.8124198289
 20
-51.5202905837
 11
-32.8247563188
 21
-51.512958926
  0
LWPOLYLINE
  5
2AF
100
AcDbEntity
  8
RACCORDO
100
AcDbPolyline
 62
7
  6
CONTINUOUS
 90
3
 70
0
 10
-32.8247563188
 20
-51.512958926
 10
-32.836675275
 20
-51.5046586375
 10
-32.8481211387
 20
-51.4953774228
  0
LINE
  5
2B0
100
AcDbEntity
  8
DRAFT
100
AcDbLine
 62
7
  6
CONTINUOUS
 10
-30.509078823
 20
-57.1722789745
 11
-30.523288117
 21
-57.1600604291
  0
LINE
  5
2B1
100
AcDbEntity
  8
DRAFT
100
AcDbLine
 62
7
  6
CONTINUOUS
 10
-0.509078823
 20
-57.1722789745
 11
-0.523288117
 21
-57.1600604291
  0
LINE
  5
2B2
100
AcDbEntity
  8
RACCORDO
100
AcDbLine
 62
7
  6
CONTINUOUS
 10
-32.8481211387
 20
-51.4953774228
 11
-32.857966131
 21
-51.4861734477
  0
LINE
  5
2B3
100
AcDbEntity
  8
RACCORDO
100
AcDbLine
 62
7
  6
CONTINUOUS
 10
-33.1916874967
 20
-54.500784446
 11
-33.1711525597
 21
-54.5212543577
  0
LINE
  5
2B4
100
AcDbEntity
  8
DRAFT
100
AcDbLine
 62
7
  6
CONTINUOUS
 10
-37.9387524334
 20
-57.1426053641
 11
-37.9212973684
 21
-57.1600604291
  0
LINE
  5
2B5
100
AcDbEntity
  8
RACCORDO
100
AcDbLine
 62
7
  6
CONTINUOUS
 10
-32.8579661707
 20
-51.4861734081
 11
-32.9207961032
 21
-51.4233434755
  0
LINE
  5
2B6
100
AcDbEntity
  8
RACCORDO
100
AcDbLine
 62
253
  6
CONTINUOUS
 10
-32.7164229647
 20
-51.5448434406
 11
-32.779374747
 21
-51.4818916583
  0
LINE
  5
2B7
100
AcDbEntity
  8
RACCORDO
100
AcDbLine
 62
253
  6
CONTINUOUS
 10
-39.7079372324
 20
-44.1222789745
 11
-40.0053986884
 21
-43.8248175185
  0
LINE
  5
2B8
100
AcDbEntity
  8
RACCORDO
100
AcDbLine
 62
253
  6
CONTINUOUS
 10
-31.9794356782
 20
-51.4818916583
 11
-31.9164838959
 21
-51.5448434406
  0
LINE
  5
2B9
100
AcDbEntity
  8
RACCORDO
100
AcDbLine
 62
253
  6
CONTINUOUS
 10
-39.409078823
 20
-43.8234205651
 11
-39.706540279
 21
-43.5259591091
  0
LINE
  5
2BA
100
AcDbEntity
  8
RACCORDO
100
AcDbLine
 62
253
  6
CONTINUOUS
 10
-31.7794661392
 20
-51.2819221193
 11
-31.7161853076
 21
-51.3452029509
  0
LINE
  5
2BB
100
AcDbEntity
  8
RACCORDO
100
AcDbLine
 62
253
  6
CONTINUOUS
 10
-41.609078823
 20
-36.0211373839
 11
-41.311617367
 21
-36.3185988399
  0
LINE
  5
2BC
100
AcDbEntity
  8
RACCORDO
100
AcDbLine
 62
253
  6
CONTINUOUS
 10
-41.3102204136
 20
-35.7222789745
 11
-41.0127589576
 21
-36.0197404305
  0
LINE
  5
2BD
100
AcDbEntity
  8
DRAFT
100
AcDbLine
 62
7
  6
CONTINUOUS
 10
-38.9794052126
 20
-33.5520216966
 11
-39.009078823
 21
-33.5222789745
  0
LINE
  5
2BE
100
AcDbEntity
  8
RACCORDO
100
AcDbLine
 62
7
  6
CONTINUOUS
 10
-33.1601889592
 20
-54.5322823391
 11
-33.0510751969
 21
-54.641290688
  0
LINE
  5
2BF
100
AcDbEntity
  8
RACCORDO
100
AcDbLine
 62
7
  6
CONTINUOUS
 10
-33.1711525597
 20
-54.5212543577
 11
-33.1601889592
 21
-54.5322823391
  0
LINE
  5
2C0
100
AcDbEntity
  8
RACCORDO
100
AcDbLine
 62
7
  6
CONTINUOUS
 10
-33.0510751969
 20
-54.641290688
 11
-33.0388742109
 21
-54.6535819077
  0
LINE
  5
2C1
100
AcDbEntity
  8
RACCORDO
100
AcDbLine
 62
7
  6
CONTINUOUS
 10
-33.2010420138
 20
-54.4913425157
 11
-33.1916874967
 21
-54.500784446
  0
LWPOLYLINE
  5
2C2
100
AcDbEntity
  8
RACCORDO
100
AcDbPolyline
 62
7
  6
CONTINUOUS
 90
9
 70
0
 10
-32.9207961032
 20
-51.4233434755
 10
-32.9280022051
 20
-51.4157496649
 10
-32.9411744603
 20
-51.3994817062
 10
-32.9525733616
 20
-51.381925157
 10
-32.9620739329
 20
-51.36327246
 10
-32.9695720044
 20
-51.343728113
 10
-32.9749853884
 20
-51.3235063558
 10
-32.9782547602
 20
-51.3028288118
 10
-32.979344286
 20
-51.2819221193
  0
LINE
  5
2C3
100
AcDbEntity
  8
DRAFT
100
AcDbLine
 62
7
  6
CONTINUOUS
 10
-29.2485721185
 20
-55.53449752
 11
-29.259078823
 21
-55.5222789745
  0
LWPOLYLINE
  5
2C4
100
AcDbEntity
  8
RACCORDO
100
AcDbPolyline
 62
7
  6
CONTINUOUS
 90
7
 70
0
 10
-33.2388437499
 20
-54.4536123686
 10
-33.2375878334
 20
-54.4551963672
 10
-33.2346298749
 20
-54.458088729
 10
-33.2301666643
 20
-54.4622894543
 10
-33.2244136887
 20
-54.4679542557
 10
-33.217556834
 20
-54.4749274206
 10
-33.2010420138
 20
-54.4913425157
  0
LWPOLYLINE
  5
2C5
100
AcDbEntity
  8
RACCORDO
100
AcDbPolyline
 62
7
  6
CONTINUOUS
 90
10
 70
0
 10
-31.8024713707
 20
-53.9597145084
 10
-31.8031656369
 20
-53.958283206
 10
-31.8038385533
 20
-53.9547258473
 10
-31.8044901199
 20
-53.9490802754
 10
-31.8051268504
 20
-53.941406738
 10
-31.8057422311
 20
-53.9317871656
 10
-31.8063167205
 20
-53.9203242275
 10
-31.8068489818
 20
-53.9071404031
 10
-31.8073403518
 20
-53.8923767108
 10
-31.8077752993
 20
-53.8761910575
  0
LWPOLYLINE
  5
2C6
100
AcDbEntity
  8
RACCORDO
100
AcDbPolyline
 62
7
  6
CONTINUOUS
 90
5
 70
0
 10
-31.8278984885
 20
-51.6636100963
 10
-31.8234253526
 20
-51.6791509851
 10
-31.8187696743
 20
-51.6948113093
 10
-31.8139761849
 20
-51.7105354464
 10
-31.8090787242
 20
-51.7262093181
  0
LWPOLYLINE
  5
2C7
100
AcDbEntity
  8
RACCORDO
100
AcDbPolyline
 62
7
  6
CONTINUOUS
 90
3
 70
0
 10
-31.8400177367
 20
-51.619911948
 10
-31.8362159651
 20
-51.633758884
 10
-31.8278984885
 20
-51.6636100963
  0
LINE
  5
2C8
100
AcDbEntity
  8
DRAFT
100
AcDbLine
 62
7
  6
CONTINUOUS
 10
-37.7212973684
 20
-48.9614677225
 11
-37.6951147711
 21
-49.1722789745
  0
LINE
  5
2C9
100
AcDbEntity
  8
RACCORDO
100
AcDbLine
 62
7
  6
CONTINUOUS
 10
-35.7712973684
 20
-48.9614677225
 11
-35.7520358704
 21
-49.1165531958
  0
LINE
  5
2CA
100
AcDbEntity
  8
RACCORDO
100
AcDbLine
 62
7
  6
CONTINUOUS
 10
-41.311617367
 20
37.8690037766
 11
-41.3524312195
 21
38.3935855941
  0
LINE
  5
2CB
100
AcDbEntity
  8
RACCORDO
100
AcDbLine
 62
7
  6
CONTINUOUS
 10
-39.706540279
 20
42.2864382743
 11
-39.6657264265
 21
41.7618564569
  0
LINE
  5
2CC
100
AcDbEntity
  8
RACCORDO
100
AcDbLine
 62
7
  6
CONTINUOUS
 10
-41.3524312195
 20
38.3935855941
 11
-41.3753129477
 21
38.7064385547
  0
LINE
  5
2CD
100
AcDbEntity
  8
RACCORDO
100
AcDbLine
 62
7
  6
CONTINUOUS
 10
-39.6657264265
 20
41.7618564569
 11
-39.6428446983
 21
41.4490034962
  0
LINE
  5
2CE
100
AcDbEntity
  8
RACCORDO
100
AcDbLine
 62
7
  6
CONTINUOUS
 10
-41.3753129477
 20
38.7064385547
 11
-41.3862936124
 21
38.8653486949
  0
LINE
  5
2CF
100
AcDbEntity
  8
RACCORDO
100
AcDbLine
 62
7
  6
CONTINUOUS
 10
-39.6428446983
 20
41.4490034962
 11
-39.6318640336
 21
41.2900933561
  0
LWPOLYLINE
  5
2D0
100
AcDbEntity
  8
RACCORDO
100
AcDbPolyline
 62
7
  6
CONTINUOUS
 90
22
 70
0
 10
-35.7520358704
 20
-55.3152664829
 10
-35.7514353609
 20
-55.3275350101
 10
-35.7500465388
 20
-55.3398018859
 10
-35.7478455888
 20
-55.3520671103
 10
-35.7448135504
 20
-55.3643863081
 10
-35.7409328131
 20
-55.3767038545
 10
-35.7361839269
 20
-55.3888528748
 10
-35.7305621368
 20
-55.4008335652
 10
-35.7240561118
 20
-55.4126457294
 10
-35.7166298389
 20
-55.4241219048
 10
-35.7082872395
 20
-55.4352737596
 10
-35.6990217298
 20
-55.4460896254
 10
-35.6887637525
 20
-55.4563670346
 10
-35.6775265053
 20
-55.4661375153
 10
-35.6653118949
 20
-55.4753695394
 10
-35.6520116748
 20
-55.4837660543
 10
-35.6375856144
 20
-55.4913835764
 10
-35.622128438
 20
-55.4981655893
 10
-35.6057461942
 20
-55.5036454918
 10
-35.5885402797
 20
-55.5076677502
 10
-35.5706035028
 20
-55.5103878981
 10
-35.5520663314
 20
-55.5118059356
  0
LINE
  5
2D1
100
AcDbEntity
  8
RACCORDO
100
AcDbLine
 62
253
  6
CONTINUOUS
 10
-31.7561260823
 20
54.0238866681
 11
-31.7570451221
 21
54.0680096742
  0
LINE
  5
2D2
100
AcDbEntity
  8
RACCORDO
100
AcDbLine
 62
253
  6
CONTINUOUS
 10
-31.7570451221
 20
54.0680096742
 11
-31.762351882
 21
54.3710245455
  0
LINE
  5
2D3
100
AcDbEntity
  8
RACCORDO
100
AcDbLine
 62
253
  6
CONTINUOUS
 10
-31.5663837504
 20
54.2094310327
 11
-31.5716979651
 21
54.5124459059
  0
LINE
  5
2D4
100
AcDbEntity
  8
RACCORDO
100
AcDbLine
 62
7
  6
CONTINUOUS
 10
-31.8077752993
 20
-53.8761910575
 11
-31.8084722564
 21
-53.8402598995
  0
LINE
  5
2D5
100
AcDbEntity
  8
RACCORDO
100
AcDbLine
 62
7
  6
CONTINUOUS
 10
-32.9141541345
 20
-51.5075088797
 11
-32.9152219598
 21
-51.428917619
  0
LINE
  5
2D6
100
AcDbEntity
  8
RACCORDO
100
AcDbLine
 62
7
  6
CONTINUOUS
 10
-31.8084722564
 20
-53.8402598995
 11
-31.8089101061
 21
-53.8008833359
  0
LINE
  5
2D7
100
AcDbEntity
  8
RACCORDO
100
AcDbLine
 62
7
  6
CONTINUOUS
 10
-32.9133466515
 20
-51.6022762207
 11
-32.9141541345
 21
-51.5075088797
  0
LINE
  5
2D8
100
AcDbEntity
  8
RACCORDO
100
AcDbLine
 62
7
  6
CONTINUOUS
 10
-31.8089101061
 20
-53.8008833359
 11
-31.809078823
 21
-53.7597449694
  0
LINE
  5
2D9
100
AcDbEntity
  8
RACCORDO
100
AcDbLine
 62
7
  6
CONTINUOUS
 10
-32.9130984056
 20
-51.6710431236
 11
-32.9133466515
 21
-51.6022762207
  0
LINE
  5
2DA
100
AcDbEntity
  8
RACCORDO
100
AcDbLine
 62
7
  6
CONTINUOUS
 10
-39.706540279
 20
-43.5259591091
 11
-39.706540279
 21
-42.1309962234
  0
LINE
  5
2DB
100
AcDbEntity
  8
RACCORDO
100
AcDbLine
 62
7
  6
CONTINUOUS
 10
-39.706540279
 20
-37.7135617257
 11
-39.706540279
 21
-36.3185988399
  0
LINE
  5
2DC
100
AcDbEntity
  8
RACCORDO
100
AcDbLine
 62
7
  6
CONTINUOUS
 10
-39.706540279
 20
36.4740408909
 11
-39.706540279
 21
37.8690037766
  0
LINE
  5
2DD
100
AcDbEntity
  8
RACCORDO
100
AcDbLine
 62
7
  6
CONTINUOUS
 10
-39.706540279
 20
42.2864382743
 11
-39.706540279
 21
43.6814011601
  0
LINE
  5
2DE
100
AcDbEntity
  8
DRAFT
100
AcDbLine
 62
7
  6
CONTINUOUS
 10
-39.58405615
 20
41.444042018
 11
-39.58405615
 21
41.2573651909
  0
LINE
  5
2DF
100
AcDbEntity
  8
DRAFT
100
AcDbLine
 62
7
  6
CONTINUOUS
 10
-39.58405615
 20
38.89807686
 11
-39.58405615
 21
38.711400033
  0
LINE
  5
2E0
100
AcDbEntity
  8
DRAFT
100
AcDbLine
 62
7
  6
CONTINUOUS
 10
-39.58405615
 20
-41.288599967
 11
-39.58405615
 21
-41.10192314
  0
LINE
  5
2E1
100
AcDbEntity
  8
DRAFT
100
AcDbLine
 62
7
  6
CONTINUOUS
 10
-39.58405615
 20
-38.7426348091
 11
-39.58405615
 21
-38.555957982
  0
LINE
  5
2E2
100
AcDbEntity
  8
RACCORDO
100
AcDbLine
 62
7
  6
CONTINUOUS
 10
-39.409078823
 20
-43.8234205651
 11
-39.409078823
 21
-41.1521163621
  0
LINE
  5
2E3
100
AcDbEntity
  8
RACCORDO
100
AcDbLine
 62
7
  6
CONTINUOUS
 10
-39.409078823
 20
-38.6924415869
 11
-39.409078823
 21
-36.0211373839
  0
LINE
  5
2E4
100
AcDbEntity
  8
RACCORDO
100
AcDbLine
 62
7
  6
CONTINUOUS
 10
-39.409078823
 20
36.1765794349
 11
-39.409078823
 21
38.8478836379
  0
LINE
  5
2E5
100
AcDbEntity
  8
RACCORDO
100
AcDbLine
 62
7
  6
CONTINUOUS
 10
-39.409078823
 20
41.3075584131
 11
-39.409078823
 21
43.9788626161
  0
LINE
  5
2E6
100
AcDbEntity
  8
RACCORDO
100
AcDbLine
 62
7
  6
CONTINUOUS
 10
-39.009078823
 20
56.8277971779
 11
-39.009078823
 21
46.4777210255
  0
LINE
  5
2E7
100
AcDbEntity
  8
DRAFT
100
AcDbLine
 62
7
  6
CONTINUOUS
 10
-39.009078823
 20
33.6777210255
 11
-39.009078823
 21
-33.5222789745
  0
LINE
  5
2E8
100
AcDbEntity
  8
RACCORDO
100
AcDbLine
 62
7
  6
CONTINUOUS
 10
-39.009078823
 20
-46.3222789745
 11
-39.009078823
 21
-56.6723551269
  0
LINE
  5
2E9
100
AcDbEntity
  8
DRAFT
100
AcDbLine
 62
7
  6
CONTINUOUS
 10
-38.9968602775
 20
3.8277210255
 11
-38.9968602775
 21
-3.6722789745
  0
LINE
  5
2EA
100
AcDbEntity
  8
RACCORDO
100
AcDbLine
 62
7
  6
CONTINUOUS
 10
-38.9794052126
 20
56.7981235675
 11
-38.9794052126
 21
46.4479783034
  0
LINE
  5
2EB
100
AcDbEntity
  8
DRAFT
100
AcDbLine
 62
7
  6
CONTINUOUS
 10
-38.9794052126
 20
33.7074637475
 11
-38.9794052126
 21
3.8451760904
  0
LINE
  5
2EC
100
AcDbEntity
  8
DRAFT
100
AcDbLine
 62
7
  6
CONTINUOUS
 10
-38.9794052126
 20
-3.6897340394
 11
-38.9794052126
 21
-33.5520216966
  0
LINE
  5
2ED
100
AcDbEntity
  8
RACCORDO
100
AcDbLine
 62
7
  6
CONTINUOUS
 10
-38.9794052126
 20
-46.2925362525
 11
-38.9794052126
 21
-56.6426815166
  0
LINE
  5
2EE
100
AcDbEntity
  8
DRAFT
100
AcDbLine
 62
7
  6
CONTINUOUS
 10
-37.9387524334
 20
57.2980474151
 11
-37.9387524334
 21
3.8451760904
  0
LINE
  5
2EF
100
AcDbEntity
  8
DRAFT
100
AcDbLine
 62
7
  6
CONTINUOUS
 10
-37.9387524334
 20
-3.6897340394
 11
-37.9387524334
 21
-57.1426053641
  0
LINE
  5
2F0
100
AcDbEntity
  8
DRAFT
100
AcDbLine
 62
7
  6
CONTINUOUS
 10
-37.9212973684
 20
57.31550248
 11
-37.9212973684
 21
3.8277210255
  0
LINE
  5
2F1
100
AcDbEntity
  8
DRAFT
100
AcDbLine
 62
7
  6
CONTINUOUS
 10
-37.9212973684
 20
-3.6722789745
 11
-37.9212973684
 21
-57.1600604291
  0
LINE
  5
2F2
100
AcDbEntity
  8
DRAFT
100
AcDbLine
 62
7
  6
CONTINUOUS
 10
-37.7212973684
 20
-50.8830902266
 11
-37.7212973684
 21
-48.9614677225
  0
LINE
  5
2F3
100
AcDbEntity
  8
DRAFT
100
AcDbLine
 62
7
  6
CONTINUOUS
 10
-37.7212973684
 20
49.1169097734
 11
-37.7212973684
 21
51.0385322775
  0
LINE
  5
2F4
100
AcDbEntity
  8
DRAFT
100
AcDbLine
 62
7
  6
CONTINUOUS
 10
-37.6951147711
 20
-50.6722789745
 11
-37.6951147711
 21
-49.1722789745
  0
LINE
  5
2F5
100
AcDbEntity
  8
DRAFT
100
AcDbLine
 62
7
  6
CONTINUOUS
 10
-37.6951147711
 20
49.3277210255
 11
-37.6951147711
 21
50.8277210255
  0
LINE
  5
2F6
100
AcDbEntity
  8
RACCORDO
100
AcDbLine
 62
7
  6
CONTINUOUS
 10
-35.7712973684
 20
55.4899700319
 11
-35.7712973684
 21
51.0385322775
  0
LINE
  5
2F7
100
AcDbEntity
  8
DRAFT
100
AcDbLine
 62
7
  6
CONTINUOUS
 10
-35.7712973684
 20
49.1169097734
 11
-35.7712973684
 21
-48.9614677225
  0
LINE
  5
2F8
100
AcDbEntity
  8
RACCORDO
100
AcDbLine
 62
7
  6
CONTINUOUS
 10
-35.7712973684
 20
-50.8830902266
 11
-35.7712973684
 21
-55.3345279809
  0
LINE
  5
2F9
100
AcDbEntity
  8
RACCORDO
100
AcDbLine
 62
253
  6
CONTINUOUS
 10
-35.7520358704
 20
-55.3152664829
 11
-35.7520358704
 21
-50.7280047532
  0
LINE
  5
2FA
100
AcDbEntity
  8
RACCORDO
100
AcDbLine
 62
253
  6
CONTINUOUS
 10
-35.7520358704
 20
-49.1165531958
 11
-35.7520358704
 21
49.2719952468
  0
LINE
  5
2FB
100
AcDbEntity
  8
RACCORDO
100
AcDbLine
 62
253
  6
CONTINUOUS
 10
-35.7520358704
 20
50.8834468042
 11
-35.7520358704
 21
55.4707085339
  0
LINE
  5
2FC
100
AcDbEntity
  8
RACCORDO
100
AcDbLine
 62
253
  6
CONTINUOUS
 10
-35.5520663314
 20
-55.5118059356
 11
-35.5520663314
 21
-50.7003871415
  0
LINE
  5
2FD
100
AcDbEntity
  8
RACCORDO
100
AcDbLine
 62
253
  6
CONTINUOUS
 10
-35.5520663314
 20
-49.1441708076
 11
-35.5520663314
 21
49.2996128585
  0
LINE
  5
2FE
100
AcDbEntity
  8
RACCORDO
100
AcDbLine
 62
253
  6
CONTINUOUS
 10
-35.5520663314
 20
50.8558291924
 11
-35.5520663314
 21
55.6672479865
  0
LINE
  5
2FF
100
AcDbEntity
  8
DRAFT
100
AcDbLine
 62
7
  6
CONTINUOUS
 10
-35.259078823
 20
50.8558291924
 11
-35.259078823
 21
49.2996128585
  0
LINE
  5
300
100
AcDbEntity
  8
DRAFT
100
AcDbLine
 62
7
  6
CONTINUOUS
 10
-35.259078823
 20
-49.1441708076
 11
-35.259078823
 21
-50.7003871415
  0
LINE
  5
301
100
AcDbEntity
  8
DRAFT
100
AcDbLine
 62
7
  6
CONTINUOUS
 10
-34.4810112424
 20
55.6672479865
 11
-34.4810112424
 21
-55.5118059356
  0
LINE
  5
302
100
AcDbEntity
  8
DRAFT
100
AcDbLine
 62
253
  6
CONTINUOUS
 10
-34.4030480851
 20
55.6709868966
 11
-34.4030480851
 21
-55.5155448456
  0
LINE
  5
303
100
AcDbEntity
  8
DRAFT
100
AcDbLine
 62
253
  6
CONTINUOUS
 10
-34.2151095609
 20
55.6709868966
 11
-34.2151095609
 21
-55.5155448456
  0
LINE
  5
304
100
AcDbEntity
  8
DRAFT
100
AcDbLine
 62
7
  6
CONTINUOUS
 10
-34.1371464036
 20
55.6672479865
 11
-34.1371464036
 21
-55.5118059356
  0
LINE
  5
305
100
AcDbEntity
  8
DRAFT
100
AcDbLine
 62
7
  6
CONTINUOUS
 10
-33.7810112424
 20
55.6672479865
 11
-33.7810112424
 21
-55.5118059356
  0
LINE
  5
306
100
AcDbEntity
  8
DRAFT
100
AcDbLine
 62
253
  6
CONTINUOUS
 10
-33.7030480851
 20
55.6709868966
 11
-33.7030480851
 21
-55.5155448456
  0
LINE
  5
307
100
AcDbEntity
  8
DRAFT
100
AcDbLine
 62
253
  6
CONTINUOUS
 10
-33.5151095609
 20
55.6709868966
 11
-33.5151095609
 21
-55.5155448456
  0
LINE
  5
308
100
AcDbEntity
  8
DRAFT
100
AcDbLine
 62
7
  6
CONTINUOUS
 10
-33.4371464036
 20
55.6672479865
 11
-33.4371464036
 21
-55.5118059356
  0
LINE
  5
309
100
AcDbEntity
  8
DRAFT
100
AcDbLine
 62
7
  6
CONTINUOUS
 10
-33.398605784
 20
55.6672479865
 11
-33.398605784
 21
-55.5118059356
  0
LINE
  5
30A
100
AcDbEntity
  8
RACCORDO
100
AcDbLine
 62
253
  6
CONTINUOUS
 10
-33.3079516239
 20
-55.4211517754
 11
-33.3079516239
 21
55.5765938264
  0
LINE
  5
30B
100
AcDbEntity
  8
RACCORDO
100
AcDbLine
 62
7
  6
CONTINUOUS
 10
-33.2388437499
 20
55.6089630274
 11
-33.2388437499
 21
54.6089325664
  0
LINE
  5
30C
100
AcDbEntity
  8
RACCORDO
100
AcDbLine
 62
7
  6
CONTINUOUS
 10
-33.2388437499
 20
-54.4534905155
 11
-33.2388437499
 21
-55.4535209764
  0
LINE
  5
30D
100
AcDbEntity
  8
DRAFT
100
AcDbLine
 62
7
  6
CONTINUOUS
 10
-33.2214496116
 20
54.2077210255
 11
-33.2214496116
 21
54.5915384281
  0
LINE
  5
30E
100
AcDbEntity
  8
RACCORDO
100
AcDbLine
 62
253
  6
CONTINUOUS
 10
-33.0388742109
 20
-54.6535819077
 11
-33.0388742109
 21
-55.6534905155
  0
LINE
  5
30F
100
AcDbEntity
  8
RACCORDO
100
AcDbLine
 62
253
  6
CONTINUOUS
 10
-33.0388742109
 20
54.8090239586
 11
-33.0388742109
 21
55.8089325664
  0
LINE
  5
310
100
AcDbEntity
  8
ASSI
100
AcDbLine
 62
7
  6
CONTINUOUS
 10
-33.009078823
 20
54.211272965
 11
-33.009078823
 21
-53.9658890067
  0
LINE
  5
311
100
AcDbEntity
  8
RACCORDO
100
AcDbLine
 62
7
  6
CONTINUOUS
 10
-32.979344286
 20
-51.2819221193
 11
-32.979344286
 21
54.211272965
  0
LINE
  5
312
100
AcDbEntity
  8
RACCORDO
100
AcDbLine
 62
7
  6
CONTINUOUS
 10
-32.9130842705
 20
-53.7597449694
 11
-32.9130984056
 21
-51.6710431236
  0
LINE
  5
313
100
AcDbEntity
  8
RACCORDO
100
AcDbLine
 62
253
  6
CONTINUOUS
 10
-32.779374747
 20
-51.4818916583
 11
-32.779374747
 21
54.2077210255
  0
LINE
  5
314
100
AcDbEntity
  8
RACCORDO
100
AcDbLine
 62
253
  6
CONTINUOUS
 10
-32.7164229647
 20
-51.5448434406
 11
-32.7164229647
 21
-51.7448129797
  0
LINE
  5
315
100
AcDbEntity
  8
RACCORDO
100
AcDbLine
 62
253
  6
CONTINUOUS
 10
-31.9794356782
 20
-51.4818916583
 11
-31.9794356782
 21
54.3881388027
  0
LINE
  5
316
100
AcDbEntity
  8
RACCORDO
100
AcDbLine
 62
253
  6
CONTINUOUS
 10
-31.9164838959
 20
-51.5448434406
 11
-31.9164838959
 21
-51.7448129797
  0
LINE
  5
317
100
AcDbEntity
  8
RACCORDO
100
AcDbLine
 62
7
  6
CONTINUOUS
 10
-31.8090785627
 20
-53.7597449694
 11
-31.8090788227
 21
-51.7301245135
  0
LINE
  5
318
100
AcDbEntity
  8
RACCORDO
100
AcDbLine
 62
253
  6
CONTINUOUS
 10
-31.7794661392
 20
54.3881388027
 11
-31.7794661392
 21
-51.2819221193
  0
LINE
  5
319
100
AcDbEntity
  8
RACCORDO
100
AcDbLine
 62
253
  6
CONTINUOUS
 10
-31.7161853076
 20
-51.3452029509
 11
-31.7161853076
 21
53.9148579711
  0
LINE
  5
31A
100
AcDbEntity
  8
RACCORDO
100
AcDbLine
 62
253
  6
CONTINUOUS
 10
-31.5292987695
 20
-51.3452029509
 11
-31.5292987709
 21
53.9148579711
  0
LINE
  5
31B
100
AcDbEntity
  8
RACCORDO
100
AcDbLine
 62
253
  6
CONTINUOUS
 10
-7.6768987492
 20
54.5881083417
 11
-7.6768987492
 21
54.5776353027
  0
LINE
  5
31C
100
AcDbEntity
  8
RACCORDO
100
AcDbLine
 62
253
  6
CONTINUOUS
 10
-6.9945599808
 20
52.6177210255
 11
-6.9945599808
 21
52.784841228
  0
LINE
  5
31D
100
AcDbEntity
  8
RACCORDO
100
AcDbLine
 62
253
  6
CONTINUOUS
 10
-31.7623463651
 20
54.372450286
 11
-31.7623518821
 21
54.3710245455
  0
LWPOLYLINE
  5
31E
100
AcDbEntity
  8
RACCORDO
100
AcDbPolyline
 62
253
  6
CONTINUOUS
 90
6
 70
0
 10
-31.5292987723
 20
53.9148579711
 10
-31.5292051264
 20
53.9355325818
 10
-31.5289723034
 20
53.9559856662
 10
-31.5286027979
 20
53.9759980758
 10
-31.5281005694
 20
53.9953553733
 10
-31.527470999
 20
54.0138501635
  0
LINE
  5
31F
100
AcDbEntity
  8
RACCORDO
100
AcDbLine
 62
253
  6
CONTINUOUS
 10
-31.7161535667
 20
53.918360376
 11
-31.7161853076
 21
53.9148579711
  0
LWPOLYLINE
  5
320
100
AcDbEntity
  8
RACCORDO
100
AcDbPolyline
 62
253
  6
CONTINUOUS
 90
22
 70
0
 10
-31.7794661392
 20
54.3881388027
 10
-31.7789612323
 20
54.402405471
 10
-31.7774547034
 20
54.4164982082
 10
-31.774975589
 20
54.4303486241
 10
-31.7715685901
 20
54.4438530013
 10
-31.7672650176
 20
54.4569913057
 10
-31.7620556742
 20
54.4698186097
 10
-31.755955531
 20
54.4822834155
 10
-31.7489946637
 20
54.4943116423
 10
-31.7411542428
 20
54.505909998
 10
-31.7324998689
 20
54.5169561164
 10
-31.723019963
 20
54.5274414848
 10
-31.7125272701
 20
54.5374937026
 10
-31.7009319301
 20
54.5470631236
 10
-31.6883180438
 20
54.5559494316
 10
-31.6747356079
 20
54.5640098527
 10
-31.6601286484
 20
54.5711625996
 10
-31.6446435438
 20
54.577223316
 10
-31.6286922303
 20
54.5819803437
 10
-31.6124985861
 20
54.5853778408
 10
-31.5960626764
 20
54.5874264939
 10
-31.5794966067
 20
54.5881083482
  0
LWPOLYLINE
  5
321
100
AcDbEntity
  8
RACCORDO
100
AcDbPolyline
 62
253
  6
CONTINUOUS
 90
11
 70
0
 10
-31.527470999
 20
54.0138501635
 10
-31.5267208312
 20
54.0312843104
 10
-31.5258581032
 20
54.047471009
 10
-31.5248920586
 20
54.0622368146
 10
-31.5238330463
 20
54.0754235248
 10
-31.522692411
 20
54.0868898471
 10
-31.5214823753
 20
54.0965128848
 10
-31.520215908
 20
54.104189491
 10
-31.5189065806
 20
54.1098374066
 10
-31.5175684214
 20
54.1133961233
 10
-31.5162157686
 20
54.1148275101
  0
LWPOLYLINE
  5
322
100
AcDbEntity
  8
RACCORDO
100
AcDbPolyline
 62
7
  6
CONTINUOUS
 90
22
 70
0
 10
-35.7520358704
 20
55.4707085339
 10
-35.7514493691
 20
55.4826909676
 10
-35.7500941975
 20
55.4948302811
 10
-35.7479368932
 20
55.5070754436
 10
-35.7449460471
 20
55.5193693523
 10
-35.7410957415
 20
55.5316537682
 10
-35.7363657343
 20
55.5438693505
 10
-35.7307434427
 20
55.5559351363
 10
-35.7242109886
 20
55.5677925093
 10
-35.7167396555
 20
55.5794056879
 10
-35.7083286106
 20
55.5906792774
 10
-35.6989690701
 20
55.6015378541
 10
-35.6886091982
 20
55.6119537744
 10
-35.6772601326
 20
55.6218099346
 10
-35.6649264415
 20
55.6310036548
 10
-35.6515313765
 20
55.639487735
 10
-35.6371509053
 20
55.6470899624
 10
-35.6217778754
 20
55.6536964217
 10
-35.605189717
 20
55.659248578
 10
-35.5873513831
 20
55.6635372895
 10
-35.5684536252
 20
55.666283906
 10
-35.548636245
 20
55.6672479865
  0
LWPOLYLINE
  5
323
100
AcDbEntity
  8
RACCORDO
100
AcDbPolyline
 62
253
  6
CONTINUOUS
 90
16
 70
0
 10
-31.7794661392
 20
-51.2819221193
 10
-31.780567522
 20
-51.3028204743
 10
-31.7838468762
 20
-51.3234899477
 10
-31.789268285
 20
-51.3437041713
 10
-31.7967723649
 20
-51.3632417466
 10
-31.8062769347
 20
-51.3818887199
 10
-31.8176779315
 20
-51.3994409169
 10
-31.8308505176
 20
-51.415706114
 10
-31.8456504303
 20
-51.4305061515
 10
-31.8619155906
 20
-51.4436789286
 10
-31.8794678839
 20
-51.4550801735
 10
-31.8981150731
 20
-51.464584997
 10
-31.9176528951
 20
-51.4720892748
 10
-31.9378673547
 20
-51.4775108159
 10
-31.9585370747
 20
-51.4807902493
 10
-31.9794356782
 20
-51.4818916583
  0
LINE
  5
324
100
AcDbEntity
  8
RACCORDO
100
AcDbLine
 62
7
  6
CONTINUOUS
 10
-31.7612496595
 20
54.3919308674
 11
-31.7623463651
 21
54.372450286
  0
LINE
  5
325
100
AcDbEntity
  8
RACCORDO
100
AcDbLine
 62
7
  6
CONTINUOUS
 10
-31.7150775383
 20
53.9358168379
 11
-31.7161535667
 21
53.918360376
  0
LINE
  5
326
100
AcDbEntity
  8
RACCORDO
100
AcDbLine
 62
7
  6
CONTINUOUS
 10
-33.1643631281
 20
-54.3590966125
 11
-33.1433413019
 21
-54.0560620286
  0
LINE
  5
327
100
AcDbEntity
  8
RACCORDO
100
AcDbLine
 62
7
  6
CONTINUOUS
 10
-41.3862936124
 20
-38.7099066439
 11
-41.3693541111
 21
-38.4675454955
  0
LINE
  5
328
100
AcDbEntity
  8
RACCORDO
100
AcDbLine
 62
7
  6
CONTINUOUS
 10
-39.6318640336
 20
-41.1346513051
 11
-39.6488035348
 21
-41.3770124535
  0
LWPOLYLINE
  5
329
100
AcDbEntity
  8
RACCORDO
100
AcDbPolyline
 62
253
  6
CONTINUOUS
 90
9
 70
0
 10
-31.571697967
 20
54.5124459018
 10
-31.5708419747
 20
54.5239843798
 10
-31.5699244211
 20
54.5344097605
 10
-31.5689519833
 20
54.5436461783
 10
-31.5679317375
 20
54.5516264195
 10
-31.5668711083
 20
54.5582924118
 10
-31.5657778143
 20
54.5635956463
 10
-31.5646598116
 20
54.5674975316
 10
-31.5635252357
 20
54.5699696742
  0
LWPOLYLINE
  5
32A
100
AcDbEntity
  8
RACCORDO
100
AcDbPolyline
 62
7
  6
CONTINUOUS
 90
10
 70
0
 10
-33.1433413019
 20
-54.0560620286
 10
-33.1424594659
 20
-54.0444281796
 10
-33.1415260407
 20
-54.0340369957
 10
-33.1405410263
 20
-54.0248884769
 10
-33.1394961567
 20
-54.0169308946
 10
-33.1383996978
 20
-54.0102159775
 10
-33.1372764474
 20
-54.0048989119
 10
-33.1361346714
 20
-54.0010314267
 10
-33.1349661039
 20
-53.998561793
 10
-33.1337707449
 20
-53.9974900109
  0
LINE
  5
32B
100
AcDbEntity
  8
RACCORDO
100
AcDbLine
 62
7
  6
CONTINUOUS
 10
-41.3693541111
 20
-38.4675454955
 11
-41.3429809403
 21
-38.1137629646
  0
LINE
  5
32C
100
AcDbEntity
  8
RACCORDO
100
AcDbLine
 62
7
  6
CONTINUOUS
 10
-39.6488035348
 20
-41.3770124535
 11
-39.6751767056
 21
-41.7307949845
  0
LINE
  5
32D
100
AcDbEntity
  8
RACCORDO
100
AcDbLine
 62
7
  6
CONTINUOUS
 10
-41.3429809403
 20
-38.1137629646
 11
-41.311617367
 21
-37.7135617257
  0
LINE
  5
32E
100
AcDbEntity
  8
RACCORDO
100
AcDbLine
 62
7
  6
CONTINUOUS
 10
-39.6751767056
 20
-41.7307949845
 11
-39.706540279
 21
-42.1309962234
  0
LWPOLYLINE
  5
32F
100
AcDbEntity
  8
RACCORDO
100
AcDbPolyline
 62
7
  6
CONTINUOUS
 90
3
 70
0
 10
-33.1661783991
 20
-54.3811214866
 10
-33.1652449669
 20
-54.3707303659
 10
-33.1643631281
 20
-54.3590966125
  0
LINE
  5
330
100
AcDbEntity
  8
DRAFT
100
AcDbLine
 62
7
  6
CONTINUOUS
 10
-37.7212973684
 20
-50.8830902266
 11
-37.6951147711
 21
-50.6722789745
  0
LINE
  5
331
100
AcDbEntity
  8
RACCORDO
100
AcDbLine
 62
7
  6
CONTINUOUS
 10
-35.7712973684
 20
-50.8830902266
 11
-35.7520358704
 21
-50.7280047532
  0
LWPOLYLINE
  5
332
100
AcDbEntity
  8
RACCORDO
100
AcDbPolyline
 62
7
  6
CONTINUOUS
 90
11
 70
0
 10
-31.8594631643
 20
-51.5365612583
 10
-31.8596225494
 20
-51.5377766251
 10
-31.8593874286
 20
-51.5404103227
 10
-31.8587505002
 20
-51.5444271996
 10
-31.8577103641
 20
-51.5497798866
 10
-31.8562715095
 20
-51.5564175728
 10
-31.8544420248
 20
-51.5642929718
 10
-31.8522373345
 20
-51.5733442986
 10
-31.849673694
 20
-51.5835008241
 10
-31.84676368
 20
-51.5947010666
 10
-31.8400177367
 20
-51.619911948
  0
LINE
  5
333
100
AcDbEntity
  8
DRAFT
100
AcDbLine
 62
7
  6
CONTINUOUS
 10
-29.509078823
 20
-57.1722789745
 11
-29.259078823
 21
-55.5222789745
  0
LINE
  5
334
100
AcDbEntity
  8
DRAFT
100
AcDbLine
 62
7
  6
CONTINUOUS
 10
-29.494869529
 20
-57.1600604291
 11
-29.2485721185
 21
-55.53449752
  0
LINE
  5
335
100
AcDbEntity
  8
RACCORDO
100
AcDbLine
 62
253
  6
CONTINUOUS
 10
7.2486903866
 20
54.3660086164
 11
7.1676536499
 21
53.8728116545
  0
LINE
  5
336
100
AcDbEntity
  8
RACCORDO
100
AcDbLine
 62
253
  6
CONTINUOUS
 10
7.1676536499
 20
53.8728116545
 11
6.9764023348
 21
52.784841228
  0
LINE
  5
337
100
AcDbEntity
  8
RACCORDO
100
AcDbLine
 62
253
  6
CONTINUOUS
 10
7.264818002
 20
54.4574868012
 11
7.2486903866
 21
54.3660086164
  0
LINE
  5
338
100
AcDbEntity
  8
RACCORDO
100
AcDbLine
 62
7
  6
CONTINUOUS
 10
7.1733638854
 20
52.7829966794
 11
7.4617795526
 21
54.4227624551
  0
LWPOLYLINE
  5
339
100
AcDbEntity
  8
RACCORDO
100
AcDbPolyline
 62
7
  6
CONTINUOUS
 90
5
 70
0
 10
7.4617795526
 20
54.4122894162
 10
7.4646822878
 20
54.4259518002
 10
7.4685716534
 20
54.4395043345
 10
7.4734552266
 20
54.4528720317
 10
7.4793035335
 20
54.4659140933
  0
LWPOLYLINE
  5
33A
100
AcDbEntity
  8
RACCORDO
100
AcDbPolyline
 62
7
  6
CONTINUOUS
 90
5
 70
0
 10
7.4793035335
 20
54.4659140933
 10
7.4861345439
 20
54.478619685
 10
7.4940584146
 20
54.4910841442
 10
7.5031591541
 20
54.5032765135
 10
7.5133965038
 20
54.5149928296
  0
LWPOLYLINE
  5
33B
100
AcDbEntity
  8
RACCORDO
100
AcDbPolyline
 62
253
  6
CONTINUOUS
 90
16
 70
0
 10
7.1733638854
 20
52.7829966794
 10
7.1717130603
 20
52.779945105
 10
7.1680295855
 20
52.7772788639
 10
7.1623377906
 20
52.7750285102
 10
7.1546768816
 20
52.7732193579
 10
7.1451177736
 20
52.7718754861
 10
7.1337767294
 20
52.7710157821
 10
7.1207848297
 20
52.7706494387
 10
7.1062703832
 20
52.7707794258
 10
7.0903833959
 20
52.7714045467
 10
7.0732885222
 20
52.7725186585
 10
7.0551674481
 20
52.7741102323
 10
7.0362146671
 20
52.776162298
 10
7.016631563
 20
52.7786530169
 10
6.9966237063
 20
52.7815562103
 10
6.9764023348
 20
52.784841228
  0
LWPOLYLINE
  5
33C
100
AcDbEntity
  8
RACCORDO
100
AcDbPolyline
 62
253
  6
CONTINUOUS
 90
16
 70
0
 10
7.3646152005
 20
53.8709671059
 10
7.3629425544
 20
53.8678922025
 10
7.3592152621
 20
53.8652149872
 10
7.3534725386
 20
53.8629636273
 10
7.3457748036
 20
53.8611618093
 10
7.3362030453
 20
53.8598284904
 10
7.3248579688
 20
53.8589776984
 10
7.3118589364
 20
53.8586183845
 10
7.2973427115
 20
53.8587543292
 10
7.2814620203
 20
53.8593841022
 10
7.2643839445
 20
53.8605010776
 10
7.2462881635
 20
53.8620935035
 10
7.2273650641
 20
53.8641446261
 10
7.2078137373
 20
53.8666328653
 10
7.1878398839
 20
53.8695320422
 10
7.1676536499
 20
53.8728116545
  0
LWPOLYLINE
  5
33D
100
AcDbEntity
  8
RACCORDO
100
AcDbPolyline
 62
253
  6
CONTINUOUS
 90
7
 70
0
 10
7.3143697571
 20
54.5915384281
 10
7.3028889055
 20
54.570786347
 10
7.2926969441
 20
54.5493983233
 10
7.2837938731
 20
54.5273743568
 10
7.2761796924
 20
54.5047144476
 10
7.2698544021
 20
54.4814185957
 10
7.264818002
 20
54.4574868012
  0
LINE
  5
33E
100
AcDbEntity
  8
DRAFT
100
AcDbLine
 62
7
  6
CONTINUOUS
 10
-38.9794052126
 20
-46.2925362525
 11
-39.009078823
 21
-46.3222789745
  0
LINE
  5
33F
100
AcDbEntity
  8
DRAFT
100
AcDbLine
 62
7
  6
CONTINUOUS
 10
-38.9794052126
 20
3.8451760904
 11
-38.9968602775
 21
3.8277210255
  0
LINE
  5
340
100
AcDbEntity
  8
DRAFT
100
AcDbLine
 62
7
  6
CONTINUOUS
 10
-37.9387524334
 20
-3.6897340394
 11
-37.9212973684
 21
-3.6722789745
  0
LINE
  5
341
100
AcDbEntity
  8
RACCORDO
100
AcDbLine
 62
253
  6
CONTINUOUS
 10
31.5442246992
 20
54.5709940867
 11
31.5613389599
 21
54.5881083474
  0
LINE
  5
342
100
AcDbEntity
  8
RACCORDO
100
AcDbLine
 62
253
  6
CONTINUOUS
 10
31.7441942371
 20
54.3710245465
 11
31.7613084932
 21
54.3881388027
  0
LINE
  5
343
100
AcDbEntity
  8
RACCORDO
100
AcDbLine
 62
253
  6
CONTINUOUS
 10
31.4980581243
 20
54.1148275118
 11
31.5340859927
 21
54.1508553802
  0
LINE
  5
344
100
AcDbEntity
  8
RACCORDO
100
AcDbLine
 62
7
  6
CONTINUOUS
 10
33.2897939779
 20
55.5765938264
 11
33.3804481381
 21
55.6672479865
  0
LINE
  5
345
100
AcDbEntity
  8
RACCORDO
100
AcDbLine
 62
253
  6
CONTINUOUS
 10
31.6980276625
 20
53.9148579719
 11
31.7340555317
 21
53.9508858412
  0
LINE
  5
346
100
AcDbEntity
  8
RACCORDO
100
AcDbLine
 62
7
  6
CONTINUOUS
 10
33.2032919656
 20
54.5915384281
 11
33.2206861039
 21
54.6089325664
  0
LINE
  5
347
100
AcDbEntity
  8
RACCORDO
100
AcDbLine
 62
253
  6
CONTINUOUS
 10
36.978778784
 20
57.31550248
 11
36.9909973294
 21
57.3277210255
  0
LINE
  5
348
100
AcDbEntity
  8
RACCORDO
100
AcDbLine
 62
253
  6
CONTINUOUS
 10
35.5531701834
 20
55.6899395709
 11
35.530478599
 21
55.6672479865
  0
LINE
  5
349
100
AcDbEntity
  8
RACCORDO
100
AcDbLine
 62
253
  6
CONTINUOUS
 10
35.7531397225
 20
55.4899700319
 11
35.7338782245
 21
55.4707085339
  0
LINE
  5
34A
100
AcDbEntity
  8
RACCORDO
100
AcDbLine
 62
253
  6
CONTINUOUS
 10
37.4787026316
 20
56.8155786325
 11
37.490921177
 21
56.8277971779
  0
LINE
  5
34B
100
AcDbEntity
  8
RACCORDO
100
AcDbLine
 62
253
  6
CONTINUOUS
 10
-39.7079372324
 20
-35.7222789745
 11
-40.0053986884
 21
-36.0197404305
  0
LINE
  5
34C
100
AcDbEntity
  8
RACCORDO
100
AcDbLine
 62
253
  6
CONTINUOUS
 10
-39.409078823
 20
-36.0211373839
 11
-39.706540279
 21
-36.3185988399
  0
LINE
  5
34D
100
AcDbEntity
  8
RACCORDO
100
AcDbLine
 62
253
  6
CONTINUOUS
 10
-41.609078823
 20
-43.8234205651
 11
-41.311617367
 21
-43.5259591091
  0
LINE
  5
34E
100
AcDbEntity
  8
RACCORDO
100
AcDbLine
 62
253
  6
CONTINUOUS
 10
-41.3102204136
 20
-44.1222789745
 11
-41.0127589576
 21
-43.8248175185
  0
LINE
  5
34F
100
AcDbEntity
  8
DRAFT
100
AcDbLine
 62
7
  6
CONTINUOUS
 10
36.490921177
 20
28.7777210255
 11
36.4787026316
 21
28.76550248
  0
LINE
  5
350
100
AcDbEntity
  8
DRAFT
100
AcDbLine
 62
7
  6
CONTINUOUS
 10
37.4787026316
 20
28.76550248
 11
37.490921177
 21
28.7777210255
  0
LWPOLYLINE
  5
351
100
AcDbEntity
  8
RACCORDO
100
AcDbPolyline
 62
7
  6
CONTINUOUS
 90
5
 70
0
 10
7.5133965038
 20
54.5149928296
 10
7.5247038154
 20
54.5260502909
 10
7.5370936335
 20
54.536367446
 10
7.5504899334
 20
54.5457923367
 10
7.564625897
 20
54.5540964374
  0
LWPOLYLINE
  5
352
100
AcDbEntity
  8
RACCORDO
100
AcDbPolyline
 62
253
  6
CONTINUOUS
 90
13
 70
0
 10
31.5340859927
 20
54.1508553803
 10
31.5354092972
 20
54.1514942721
 10
31.5367082141
 20
54.1529540802
 10
31.5379862557
 20
54.1552264
 10
31.5392551321
 20
54.1582992205
 10
31.5405099943
 20
54.1621577611
 10
31.5417294368
 20
54.1667852576
 10
31.5429159908
 20
54.1721597866
 10
31.5440735238
 20
54.1782588629
 10
31.5451825811
 20
54.18506318
 10
31.5462386914
 20
54.1925481567
 10
31.5472522684
 20
54.2006816696
 10
31.5482260883
 20
54.2094310309
  0
LINE
  5
353
100
AcDbEntity
  8
DRAFT
100
AcDbLine
 62
7
  6
CONTINUOUS
 10
36.7282232203
 20
-38.2222789745
 11
36.4787026316
 21
-38.2222789745
  0
LINE
  5
354
100
AcDbEntity
  8
0
100
AcDbLine
 62
7
  6
CONTINUOUS
 10
36.7282232203
 20
-38.2222789745
 11
42.3408729399
 21
-38.2222789745
  0
LINE
  5
355
100
AcDbEntity
  8
RACCORDO
100
AcDbLine
 62
7
  6
CONTINUOUS
 10
-40.0053986884
 20
-36.0197404305
 11
-41.0127589576
 21
-36.0197404305
  0
LINE
  5
356
100
AcDbEntity
  8
RACCORDO
100
AcDbLine
 62
7
  6
CONTINUOUS
 10
-39.7079372324
 20
-35.7222789745
 11
-41.3102204136
 21
-35.7222789745
  0
LINE
  5
357
100
AcDbEntity
  8
0
100
AcDbLine
 62
7
  6
CONTINUOUS
 10
42.3408728942
 20
-34.2222789745
 11
36.7282232203
 21
-34.2222789745
  0
LINE
  5
358
100
AcDbEntity
  8
DRAFT
100
AcDbLine
 62
7
  6
CONTINUOUS
 10
-37.9387524334
 20
-3.6897340394
 11
-38.9794052126
 21
-3.6897340394
  0
LINE
  5
359
100
AcDbEntity
  8
DRAFT
100
AcDbLine
 62
7
  6
CONTINUOUS
 10
-38.9968602775
 20
-3.6722789745
 11
-37.9212973684
 21
-3.6722789745
  0
LINE
  5
35A
100
AcDbEntity
  8
DRAFT
100
AcDbLine
 62
7
  6
CONTINUOUS
 10
-38.9968602775
 20
3.8277210255
 11
-37.9212973684
 21
3.8277210255
  0
LINE
  5
35B
100
AcDbEntity
  8
DRAFT
100
AcDbLine
 62
7
  6
CONTINUOUS
 10
-37.9387524334
 20
3.8451760904
 11
-38.9794052126
 21
3.8451760904
  0
LWPOLYLINE
  5
35C
100
AcDbEntity
  8
RACCORDO
100
AcDbPolyline
 62
253
  6
CONTINUOUS
 90
19
 70
0
 10
31.8413051553
 20
-51.53656248
 10
31.8278187072
 20
-51.5320708986
 10
31.8146877085
 20
-51.5266344799
 10
31.8019782291
 20
-51.5202805158
 10
31.7897523496
 20
-51.513039937
 10
31.7780737275
 20
-51.504949873
 10
31.7670064353
 20
-51.4960546916
 10
31.7566072348
 20
-51.4864018679
 10
31.7469255837
 20
-51.4760394141
 10
31.7380088854
 20
-51.465019001
 10
31.729899672
 20
-51.4533940732
 10
31.722639867
 20
-51.4412258727
 10
31.7162685944
 20
-51.4285828231
 10
31.7108332402
 20
-51.4155763608
 10
31.706334457
 20
-51.4022281748
 10
31.7027614483
 20
-51.3884659501
 10
31.7001524132
 20
-51.374305204
 10
31.6985622243
 20
-51.3598598329
 10
31.6980276616
 20
-51.3452029509
  0
LWPOLYLINE
  5
35D
100
AcDbEntity
  8
RACCORDO
100
AcDbPolyline
 62
253
  6
CONTINUOUS
 90
19
 70
0
 10
31.7909713744
 20
-51.7262310487
 10
31.7647231918
 20
-51.7169817702
 10
31.7393247585
 20
-51.7059868048
 10
31.7147760834
 20
-51.6932461525
 10
31.6909247183
 20
-51.6786663811
 10
31.6679231276
 20
-51.6623409227
 10
31.6462286922
 20
-51.644550074
 10
31.6259023874
 20
-51.6252853153
 10
31.606883261
 20
-51.6045551664
 10
31.5894458082
 20
-51.5826654835
 10
31.5736127158
 20
-51.5595965831
 10
31.5593613188
 20
-51.5353681487
 10
31.546898086
 20
-51.510345087
 10
31.5362526749
 20
-51.4846137156
 10
31.5273954451
 20
-51.458087717
 10
31.5204439188
 20
-51.4308730457
 10
31.5154372733
 20
-51.4030050201
 10
31.5123363407
 20
-51.3744483218
 10
31.5111411235
 20
-51.3452029509
  0
LINE
  5
35E
100
AcDbEntity
  8
DRAFT
100
AcDbLine
 62
7
  6
CONTINUOUS
 10
29.490921177
 20
-57.1722789745
 11
29.476711883
 21
-57.1600604291
  0
LWPOLYLINE
  5
35F
100
AcDbEntity
  8
RACCORDO
100
AcDbPolyline
 62
7
  6
CONTINUOUS
 90
10
 70
0
 10
33.1156130989
 20
-53.9974900109
 10
33.1168084579
 20
-53.9985617942
 10
33.1179770254
 20
-54.001031429
 10
33.1191188014
 20
-54.0048989152
 10
33.1202420517
 20
-54.0102159823
 10
33.1213385106
 20
-54.0169309008
 10
33.1223833801
 20
-54.0248884825
 10
33.1233683944
 20
-54.0340369981
 10
33.1243018194
 20
-54.0444281769
 10
33.1251836551
 20
-54.056062019
  0
LINE
  5
360
100
AcDbEntity
  8
DRAFT
100
AcDbLine
 62
7
  6
CONTINUOUS
 10
-38.9794052126
 20
-3.6897340394
 11
-38.9968602775
 21
-3.6722789745
  0
LINE
  5
361
100
AcDbEntity
  8
DRAFT
100
AcDbLine
 62
7
  6
CONTINUOUS
 10
-37.9387524334
 20
3.8451760904
 11
-37.9212973684
 21
3.8277210255
  0
LINE
  5
362
100
AcDbEntity
  8
RACCORDO
100
AcDbLine
 62
7
  6
CONTINUOUS
 10
33.2897939779
 20
-55.4211517754
 11
33.3804481381
 21
-55.5118059356
  0
LINE
  5
363
100
AcDbEntity
  8
RACCORDO
100
AcDbLine
 62
7
  6
CONTINUOUS
 10
33.1947385796
 20
-54.4275429912
 11
33.2206861039
 21
-54.4534905155
  0
LINE
  5
364
100
AcDbEntity
  8
RACCORDO
100
AcDbLine
 62
253
  6
CONTINUOUS
 10
35.978778784
 20
-57.1600604291
 11
35.9909973294
 21
-57.1722789745
  0
LINE
  5
365
100
AcDbEntity
  8
RACCORDO
100
AcDbLine
 62
253
  6
CONTINUOUS
 10
36.4787026316
 20
-56.6601365815
 11
36.490921177
 21
-56.6723551269
  0
LINE
  5
366
100
AcDbEntity
  8
RACCORDO
100
AcDbLine
 62
253
  6
CONTINUOUS
 10
35.530478599
 20
-55.5118059356
 11
35.5531701834
 21
-55.53449752
  0
LINE
  5
367
100
AcDbEntity
  8
RACCORDO
100
AcDbLine
 62
253
  6
CONTINUOUS
 10
35.7338782245
 20
-55.3152664829
 11
35.7531397225
 21
-55.3345279809
  0
LINE
  5
368
100
AcDbEntity
  8
RACCORDO
100
AcDbLine
 62
253
  6
CONTINUOUS
 10
-39.7079372324
 20
35.8777210255
 11
-40.0053986884
 21
36.1751824815
  0
LINE
  5
369
100
AcDbEntity
  8
RACCORDO
100
AcDbLine
 62
253
  6
CONTINUOUS
 10
-39.409078823
 20
36.1765794349
 11
-39.706540279
 21
36.4740408909
  0
LINE
  5
36A
100
AcDbEntity
  8
RACCORDO
100
AcDbLine
 62
253
  6
CONTINUOUS
 10
-41.609078823
 20
43.9788626161
 11
-41.311617367
 21
43.6814011601
  0
LINE
  5
36B
100
AcDbEntity
  8
RACCORDO
100
AcDbLine
 62
253
  6
CONTINUOUS
 10
-41.3102204136
 20
44.2777210255
 11
-41.0127589576
 21
43.9802595695
  0
LINE
  5
36C
100
AcDbEntity
  8
DRAFT
100
AcDbLine
 62
7
  6
CONTINUOUS
 10
-38.9794052126
 20
46.4479783034
 11
-39.009078823
 21
46.4777210255
  0
LINE
  5
36D
100
AcDbEntity
  8
DRAFT
100
AcDbLine
 62
7
  6
CONTINUOUS
 10
0.7514278815
 20
-55.53449752
 11
0.740921177
 21
-55.5222789745
  0
LINE
  5
36E
100
AcDbEntity
  8
DRAFT
100
AcDbLine
 62
7
  6
CONTINUOUS
 10
30.7514278815
 20
-55.53449752
 11
30.740921177
 21
-55.5222789745
  0
LWPOLYLINE
  5
36F
100
AcDbEntity
  8
RACCORDO
100
AcDbPolyline
 62
253
  6
CONTINUOUS
 90
8
 70
0
 10
-31.7522131749
 20
53.9508858384
 10
-31.7528179841
 20
53.9530553767
 10
-31.7534085698
 20
53.9580038087
 10
-31.7539849322
 20
53.9657311346
 10
-31.7545507486
 20
53.9763278055
 10
-31.7551023415
 20
53.9897033703
 10
-31.7556286786
 20
54.0055864749
 10
-31.7561260823
 20
54.0238866681
  0
LWPOLYLINE
  5
370
100
AcDbEntity
  8
RACCORDO
100
AcDbPolyline
 62
7
  6
CONTINUOUS
 90
16
 70
0
 10
-7.1920174406
 20
52.7829966794
 10
-7.1879370687
 20
52.7648390949
 10
-7.182186601
 20
52.7471394034
 10
-7.1748158304
 20
52.7300508605
 10
-7.165888585
 20
52.7137214391
 10
-7.1554821602
 20
52.6982925192
 10
-7.143686641
 20
52.6838976694
 10
-7.130604148
 20
52.6706615281
 10
-7.1163479592
 20
52.6586987169
 10
-7.1010415078
 20
52.6481128227
 10
-7.0848173152
 20
52.638995509
 10
-7.0678158674
 20
52.6314257342
 10
-7.0501843996
 20
52.6254690589
 10
-7.0320755883
 20
52.6211770636
 10
-7.0136462262
 20
52.6185869096
 10
-6.99505589
 20
52.6177210255
  0
LWPOLYLINE
  5
371
100
AcDbEntity
  8
RACCORDO
100
AcDbPolyline
 62
253
  6
CONTINUOUS
 90
19
 70
0
 10
-7.4799371986
 20
54.4227624551
 10
-7.4833811189
 20
54.4385468135
 10
-7.4880626895
 20
54.4539329482
 10
-7.4939349222
 20
54.4688266038
 10
-7.500953751
 20
54.4831569395
 10
-7.5090521899
 20
54.4968211024
 10
-7.5181269522
 20
54.509692899
 10
-7.528068974
 20
54.5216807457
 10
-7.5388158921
 20
54.5327659101
 10
-7.550327656
 20
54.5429417014
 10
-7.5625224245
 20
54.5521591446
 10
-7.5753209922
 20
54.5603802165
 10
-7.5887022656
 20
54.5676021267
 10
-7.602607549
 20
54.5737919057
 10
-7.616938009
 20
54.5789043229
 10
-7.6316172444
 20
54.5829125035
 10
-7.6465627426
 20
54.5857932
 10
-7.6616857635
 20
54.5875286337
 10
-7.6768987492
 20
54.5881083417
  0
LWPOLYLINE
  5
372
100
AcDbEntity
  8
RACCORDO
100
AcDbPolyline
 62
253
  6
CONTINUOUS
 90
7
 70
0
 10
-7.282975648
 20
54.4574868012
 10
-7.2880290624
 20
54.4814639006
 10
-7.2943645614
 20
54.5047869355
 10
-7.3019821449
 20
54.5274559056
 10
-7.3108818131
 20
54.5494708111
 10
-7.3210635658
 20
54.5708316519
 10
-7.3325274031
 20
54.5915384281
  0
LINE
  5
373
100
AcDbEntity
  8
RACCORDO
100
AcDbLine
 62
253
  6
CONTINUOUS
 10
-7.2668480326
 20
54.3660086164
 11
-7.282975648
 21
54.4574868012
  0
LINE
  5
374
100
AcDbEntity
  8
RACCORDO
100
AcDbLine
 62
7
  6
CONTINUOUS
 10
-7.1915215314
 20
52.7829966794
 11
-7.4799371986
 21
54.4227624551
  0
LINE
  5
375
100
AcDbEntity
  8
RACCORDO
100
AcDbLine
 62
253
  6
CONTINUOUS
 10
-6.9945599808
 20
52.784841228
 11
-7.1858112959
 21
53.8728116545
  0
LINE
  5
376
100
AcDbEntity
  8
RACCORDO
100
AcDbLine
 62
253
  6
CONTINUOUS
 10
-7.1858112959
 20
53.8728116545
 11
-7.2668480326
 21
54.3660086164
  0
LINE
  5
377
100
AcDbEntity
  8
DRAFT
100
AcDbLine
 62
7
  6
CONTINUOUS
 10
-30.7695855275
 20
-55.53449752
 11
-30.523288117
 21
-57.1600604291
  0
LINE
  5
378
100
AcDbEntity
  8
DRAFT
100
AcDbLine
 62
7
  6
CONTINUOUS
 10
-30.759078823
 20
-55.5222789745
 11
-30.509078823
 21
-57.1722789745
  0
LINE
  5
379
100
AcDbEntity
  8
DRAFT
100
AcDbLine
 62
7
  6
CONTINUOUS
 10
-0.7695855275
 20
-55.53449752
 11
-0.523288117
 21
-57.1600604291
  0
LINE
  5
37A
100
AcDbEntity
  8
DRAFT
100
AcDbLine
 62
7
  6
CONTINUOUS
 10
-0.759078823
 20
-55.5222789745
 11
-0.509078823
 21
-57.1722789745
  0
LINE
  5
37B
100
AcDbEntity
  8
DRAFT
100
AcDbLine
 62
7
  6
CONTINUOUS
 10
-37.7212973684
 20
51.0385322775
 11
-37.6951147711
 21
50.8277210255
  0
LINE
  5
37C
100
AcDbEntity
  8
RACCORDO
100
AcDbLine
 62
7
  6
CONTINUOUS
 10
-35.7712973684
 20
51.0385322775
 11
-35.7520358704
 21
50.8834468042
  0
LWPOLYLINE
  5
37D
100
AcDbEntity
  8
RACCORDO
100
AcDbPolyline
 62
253
  6
CONTINUOUS
 90
16
 70
0
 10
31.7441942382
 20
54.3710245465
 10
31.7429320583
 20
54.3851746469
 10
31.7396535864
 20
54.3993071632
 10
31.7343882623
 20
54.4132114642
 10
31.7271891826
 20
54.4266359566
 10
31.7181361615
 20
54.4394331553
 10
31.7073275322
 20
54.4515704607
 10
31.6948495512
 20
54.4629150726
 10
31.6808346765
 20
54.4732841176
 10
31.6654674399
 20
54.4826210123
 10
31.6488521107
 20
54.4908539412
 10
31.6311404122
 20
54.4978504803
 10
31.6126062183
 20
54.5035457038
 10
31.593432172
 20
54.5079097715
 10
31.5737000344
 20
54.5108928991
 10
31.5535403041
 20
54.5124459039
  0
LWPOLYLINE
  5
37E
100
AcDbEntity
  8
RACCORDO
100
AcDbPolyline
 62
253
  6
CONTINUOUS
 90
16
 70
0
 10
31.7388874782
 20
54.0680097155
 10
31.7376246269
 20
54.0822647666
 10
31.7343447243
 20
54.0963751164
 10
31.7290810642
 20
54.1101975325
 10
31.7218870776
 20
54.1235917046
 10
31.7128357899
 20
54.1364216701
 10
31.7020190798
 20
54.1485571932
 10
31.6895467466
 20
54.1598750875
 10
31.6755453957
 20
54.1702604662
 10
31.6601571534
 20
54.1796079083
 10
31.6435382241
 20
54.1878225289
 10
31.625857305
 20
54.1948209423
 10
31.6072938732
 20
54.2005321082
 10
31.5880363643
 20
54.2048980532
 10
31.5682802593
 20
54.2078744591
 10
31.5482261003
 20
54.2094311126
  0
LWPOLYLINE
  5
37F
100
AcDbEntity
  8
RACCORDO
100
AcDbPolyline
 62
7
  6
CONTINUOUS
 90
10
 70
0
 10
33.1462054821
 20
-54.3590966127
 10
33.147087321
 20
-54.3707303638
 10
33.1480207532
 20
-54.3811214829
 10
33.1490057786
 20
-54.3902699699
 10
33.150050663
 20
-54.3982275643
 10
33.1511471406
 20
-54.4049425267
 10
33.1522704141
 20
-54.4102596388
 10
33.1534122177
 20
-54.4141271612
 10
33.1545808173
 20
-54.4165968334
 10
33.1557762127
 20
-54.4176686553
  0
LWPOLYLINE
  5
380
100
AcDbEntity
  8
RACCORDO
100
AcDbPolyline
 62
253
  6
CONTINUOUS
 90
9
 70
0
 10
31.5535403041
 20
54.5124459039
 10
31.5526843118
 20
54.5239843796
 10
31.5517667588
 20
54.534409759
 10
31.5507943223
 20
54.5436461761
 10
31.549774079
 20
54.5516264173
 10
31.5487134529
 20
54.55829241
 10
31.5476201621
 20
54.5635956456
 10
31.5465021622
 20
54.5674975322
 10
31.5453675891
 20
54.5699696758
  0
LINE
  5
381
100
AcDbEntity
  8
RACCORDO
100
AcDbLine
 62
7
  6
CONTINUOUS
 10
33.1251836551
 20
-54.056062019
 11
33.1462054821
 21
-54.3590966127
  0
LWPOLYLINE
  5
382
100
AcDbEntity
  8
RACCORDO
100
AcDbPolyline
 62
7
  6
CONTINUOUS
 90
8
 70
0
 10
31.6980276633
 20
53.9148579728
 10
31.696919894
 20
53.9358168396
 10
31.6936215694
 20
53.9565447724
 10
31.6881690413
 20
53.9768134463
 10
31.6806214395
 20
53.9964017266
 10
31.6710624267
 20
54.0150915218
 10
31.6596014587
 20
54.0326712738
 10
31.6463695789
 20
54.048945312
  0
LWPOLYLINE
  5
383
100
AcDbEntity
  8
RACCORDO
100
AcDbPolyline
 62
7
  6
CONTINUOUS
 90
6
 70
0
 10
31.7441942382
 20
54.3710245477
 10
31.7430920156
 20
54.3919308696
 10
31.7398101643
 20
54.4126080526
 10
31.7343846544
 20
54.4328294703
 10
31.7268748935
 20
54.4523736209
 10
31.7173632209
 20
54.4710261553
  0
LWPOLYLINE
  5
384
100
AcDbEntity
  8
RACCORDO
100
AcDbPolyline
 62
253
  6
CONTINUOUS
 90
16
 70
0
 10
31.7340555317
 20
53.9508858412
 10
31.7329541296
 20
53.9717843797
 10
31.7296747189
 20
53.9924540261
 10
31.724253219
 20
54.0126684066
 10
31.7167490098
 20
54.0322061335
 10
31.7072442804
 20
54.0508532312
 10
31.695843129
 20
54.0684054789
 10
31.6826704235
 20
54.0846706464
 10
31.6678704335
 20
54.0994706002
 10
31.6516052483
 20
54.1126432551
 10
31.6340530055
 20
54.1240443467
 10
31.6154059372
 20
54.1335490132
 10
31.5958682637
 20
54.1410531633
 10
31.5756539598
 20
54.1464746137
 10
31.5549844124
 20
54.1497539906
 10
31.5340859927
 20
54.1508553802
  0
LWPOLYLINE
  5
385
100
AcDbEntity
  8
RACCORDO
100
AcDbPolyline
 62
7
  6
CONTINUOUS
 90
22
 70
0
 10
35.7338782245
 20
55.4707085339
 10
35.7332777149
 20
55.4829770611
 10
35.7318888928
 20
55.4952439369
 10
35.7296879428
 20
55.5075091612
 10
35.7266559044
 20
55.5198283591
 10
35.7227751671
 20
55.5321459055
 10
35.7180262809
 20
55.5442949258
 10
35.7124044908
 20
55.5562756161
 10
35.7058984658
 20
55.5680877804
 10
35.6984721929
 20
55.5795639557
 10
35.6901295935
 20
55.5907158105
 10
35.6808640839
 20
55.6015316764
 10
35.6706061065
 20
55.6118090856
 10
35.6593688593
 20
55.6215795663
 10
35.6471542489
 20
55.6308115903
 10
35.6338540288
 20
55.6392081053
 10
35.6194279684
 20
55.6468256273
 10
35.603970792
 20
55.6536076403
 10
35.5875885482
 20
55.6590875428
 10
35.5703826337
 20
55.6631098011
 10
35.5524458569
 20
55.665829949
 10
35.5339086854
 20
55.6672479865
  0
LWPOLYLINE
  5
386
100
AcDbEntity
  8
RACCORDO
100
AcDbPolyline
 62
253
  6
CONTINUOUS
 90
11
 70
0
 10
31.5093133276
 20
54.0138502491
 10
31.5085631598
 20
54.0312844168
 10
31.5077004301
 20
54.0474711565
 10
31.5067343827
 20
54.0622370013
 10
31.5056753693
 20
54.0754237144
 10
31.5045347366
 20
54.0868899966
 10
31.5033247063
 20
54.0965129815
 10
31.5020582451
 20
54.1041895452
 10
31.5007489237
 20
54.1098374327
 10
31.4994107707
 20
54.1133961317
 10
31.4980581243
 20
54.1148275118
  0
LWPOLYLINE
  5
387
100
AcDbEntity
  8
RACCORDO
100
AcDbPolyline
 62
7
  6
CONTINUOUS
 90
22
 70
0
 10
37.490921177
 20
56.8277971779
 10
37.489529704
 20
56.8650773978
 10
37.4853551291
 20
56.9021997532
 10
37.4784094398
 20
56.9389558536
 10
37.4687055976
 20
56.975185763
 10
37.4562945582
 20
57.0106332273
 10
37.4413005942
 20
57.044959261
 10
37.4238889972
 20
57.077874876
 10
37.4041313979
 20
57.1093209894
 10
37.3820216967
 20
57.1393036737
 10
37.3575607648
 20
57.1677502021
 10
37.3309503536
 20
57.1943606133
 10
37.3025038252
 20
57.2188215452
 10
37.2725211409
 20
57.2409312464
 10
37.2410750275
 20
57.2606888456
 10
37.2081594125
 20
57.2781004427
 10
37.1738333788
 20
57.2930944067
 10
37.1383859145
 20
57.3055054461
 10
37.1021560051
 20
57.3152092882
 10
37.0653999047
 20
57.3221549775
 10
37.0282775494
 20
57.3263295525
 10
36.9909973294
 20
57.3277210255
  0
LWPOLYLINE
  5
388
100
AcDbEntity
  8
RACCORDO
100
AcDbPolyline
 62
253
  6
CONTINUOUS
 90
10
 70
0
 10
31.9612780322
 20
54.3881388027
 10
31.9605539997
 20
54.4119632208
 10
31.9584511516
 20
54.4355423631
 10
31.9549694881
 20
54.4588762297
 10
31.9500875833
 20
54.4820459394
 10
31.9438268629
 20
54.5049703732
 10
31.9362516047
 20
54.5274061745
 10
31.9273832342
 20
54.5492722243
 10
31.9172003258
 20
54.5706496414
 10
31.9057028795
 20
54.591538426
  0
LWPOLYLINE
  5
389
100
AcDbEntity
  8
RACCORDO
100
AcDbPolyline
 62
253
  6
CONTINUOUS
 90
6
 70
0
 10
31.5111411057
 20
53.9148579728
 10
31.5110474578
 20
53.9355326022
 10
31.5108146331
 20
53.9559857057
 10
31.5104451264
 20
53.9759981343
 10
31.5099428975
 20
53.9953554461
 10
31.5093133276
 20
54.0138502491
  0
LINE
  5
38A
100
AcDbEntity
  8
RACCORDO
100
AcDbLine
 62
253
  6
CONTINUOUS
 10
6.9764023348
 20
52.6177210255
 11
6.9764023348
 21
52.784841228
  0
LINE
  5
38B
100
AcDbEntity
  8
RACCORDO
100
AcDbLine
 62
253
  6
CONTINUOUS
 10
7.6587411032
 20
54.5776353027
 11
7.6587411032
 21
54.5881083417
  0
LINE
  5
38C
100
AcDbEntity
  8
RACCORDO
100
AcDbLine
 62
253
  6
CONTINUOUS
 10
31.5111411235
 20
-51.3452029509
 11
31.5111411199
 21
53.9148579728
  0
LINE
  5
38D
100
AcDbEntity
  8
RACCORDO
100
AcDbLine
 62
253
  6
CONTINUOUS
 10
31.6980276616
 20
-51.3452029509
 11
31.6980276625
 21
53.9148579719
  0
LINE
  5
38E
100
AcDbEntity
  8
RACCORDO
100
AcDbLine
 62
253
  6
CONTINUOUS
 10
31.7613084932
 20
-51.2819221193
 11
31.7613084932
 21
54.3881388027
  0
LINE
  5
38F
100
AcDbEntity
  8
RACCORDO
100
AcDbLine
 62
253
  6
CONTINUOUS
 10
31.8983262499
 20
-51.5448434406
 11
31.8983262499
 21
-51.7448129797
  0
LINE
  5
390
100
AcDbEntity
  8
RACCORDO
100
AcDbLine
 62
253
  6
CONTINUOUS
 10
31.9612780322
 20
-51.4818916583
 11
31.9612780322
 21
54.3881388027
  0
LINE
  5
391
100
AcDbEntity
  8
RACCORDO
100
AcDbLine
 62
253
  6
CONTINUOUS
 10
32.6982653187
 20
-51.5448434406
 11
32.6982653187
 21
-51.7448129797
  0
LINE
  5
392
100
AcDbEntity
  8
RACCORDO
100
AcDbLine
 62
253
  6
CONTINUOUS
 10
32.761217101
 20
-51.4818916583
 11
32.761217101
 21
54.2077210255
  0
LINE
  5
393
100
AcDbEntity
  8
RACCORDO
100
AcDbLine
 62
7
  6
CONTINUOUS
 10
32.9611866401
 20
54.211272965
 11
32.9611866401
 21
-51.2819221193
  0
LINE
  5
394
100
AcDbEntity
  8
ASSI
100
AcDbLine
 62
7
  6
CONTINUOUS
 10
32.990921177
 20
54.211272965
 11
32.990921177
 21
-53.9658890067
  0
LINE
  5
395
100
AcDbEntity
  8
RACCORDO
100
AcDbLine
 62
253
  6
CONTINUOUS
 10
33.0207165649
 20
-54.6535819077
 11
33.0207165649
 21
-55.6534905155
  0
LINE
  5
396
100
AcDbEntity
  8
RACCORDO
100
AcDbLine
 62
253
  6
CONTINUOUS
 10
33.0207165649
 20
54.8090239586
 11
33.0207165649
 21
55.8089325664
  0
LINE
  5
397
100
AcDbEntity
  8
DRAFT
100
AcDbLine
 62
7
  6
CONTINUOUS
 10
33.2032919656
 20
54.2077210255
 11
33.2032919656
 21
54.5915384281
  0
LINE
  5
398
100
AcDbEntity
  8
RACCORDO
100
AcDbLine
 62
7
  6
CONTINUOUS
 10
33.2206861039
 20
-55.4535209764
 11
33.2206861039
 21
-54.4534905155
  0
LINE
  5
399
100
AcDbEntity
  8
RACCORDO
100
AcDbLine
 62
7
  6
CONTINUOUS
 10
33.2206861039
 20
54.6089325664
 11
33.2206861039
 21
55.6089630274
  0
LINE
  5
39A
100
AcDbEntity
  8
RACCORDO
100
AcDbLine
 62
253
  6
CONTINUOUS
 10
33.2897939779
 20
-55.4211517754
 11
33.2897939779
 21
55.5765938264
  0
LINE
  5
39B
100
AcDbEntity
  8
DRAFT
100
AcDbLine
 62
7
  6
CONTINUOUS
 10
33.3804481381
 20
55.6672479865
 11
33.3804481381
 21
-55.5118059356
  0
LINE
  5
39C
100
AcDbEntity
  8
DRAFT
100
AcDbLine
 62
7
  6
CONTINUOUS
 10
33.4189887576
 20
55.6672479865
 11
33.4189887576
 21
-55.5118059356
  0
LINE
  5
39D
100
AcDbEntity
  8
DRAFT
100
AcDbLine
 62
253
  6
CONTINUOUS
 10
33.4969519149
 20
55.6709868966
 11
33.4969519149
 21
-55.5155448456
  0
LINE
  5
39E
100
AcDbEntity
  8
DRAFT
100
AcDbLine
 62
253
  6
CONTINUOUS
 10
33.6848904391
 20
55.6709868966
 11
33.6848904391
 21
-55.5155448456
  0
LINE
  5
39F
100
AcDbEntity
  8
DRAFT
100
AcDbLine
 62
7
  6
CONTINUOUS
 10
33.7628535964
 20
55.6672479865
 11
33.7628535964
 21
-55.5118059356
  0
LINE
  5
3A0
100
AcDbEntity
  8
DRAFT
100
AcDbLine
 62
7
  6
CONTINUOUS
 10
34.1189887576
 20
55.6672479865
 11
34.1189887576
 21
-55.5118059356
  0
LINE
  5
3A1
100
AcDbEntity
  8
DRAFT
100
AcDbLine
 62
253
  6
CONTINUOUS
 10
34.1969519149
 20
55.6709868966
 11
34.1969519149
 21
-55.5155448456
  0
LINE
  5
3A2
100
AcDbEntity
  8
DRAFT
100
AcDbLine
 62
253
  6
CONTINUOUS
 10
34.3848904391
 20
55.6709868966
 11
34.3848904391
 21
-55.5155448456
  0
LINE
  5
3A3
100
AcDbEntity
  8
DRAFT
100
AcDbLine
 62
7
  6
CONTINUOUS
 10
34.4628535964
 20
55.6672479865
 11
34.4628535964
 21
-55.5118059356
  0
LINE
  5
3A4
100
AcDbEntity
  8
DRAFT
100
AcDbLine
 62
7
  6
CONTINUOUS
 10
35.240921177
 20
-52.7003871415
 11
35.240921177
 21
-51.1441708076
  0
LINE
  5
3A5
100
AcDbEntity
  8
DRAFT
100
AcDbLine
 62
7
  6
CONTINUOUS
 10
35.240921177
 20
29.2996128585
 11
35.240921177
 21
30.8558291924
  0
LINE
  5
3A6
100
AcDbEntity
  8
RACCORDO
100
AcDbLine
 62
253
  6
CONTINUOUS
 10
35.5339086854
 20
-55.5118059356
 11
35.5339086854
 21
-52.7003871415
  0
LINE
  5
3A7
100
AcDbEntity
  8
RACCORDO
100
AcDbLine
 62
253
  6
CONTINUOUS
 10
35.5339086854
 20
-51.1441708076
 11
35.5339086854
 21
29.2996128585
  0
LINE
  5
3A8
100
AcDbEntity
  8
RACCORDO
100
AcDbLine
 62
253
  6
CONTINUOUS
 10
35.5339086854
 20
30.8558291924
 11
35.5339086854
 21
55.6672479865
  0
LINE
  5
3A9
100
AcDbEntity
  8
RACCORDO
100
AcDbLine
 62
253
  6
CONTINUOUS
 10
35.7338782245
 20
-55.3152664829
 11
35.7338782245
 21
-52.7280047532
  0
LINE
  5
3AA
100
AcDbEntity
  8
RACCORDO
100
AcDbLine
 62
253
  6
CONTINUOUS
 10
35.7338782245
 20
-51.1165531958
 11
35.7338782245
 21
29.2719952468
  0
LINE
  5
3AB
100
AcDbEntity
  8
RACCORDO
100
AcDbLine
 62
253
  6
CONTINUOUS
 10
35.7338782245
 20
30.8834468042
 11
35.7338782245
 21
55.4707085339
  0
LINE
  5
3AC
100
AcDbEntity
  8
RACCORDO
100
AcDbLine
 62
7
  6
CONTINUOUS
 10
35.7531397225
 20
55.4899700319
 11
35.7531397225
 21
31.0385322775
  0
LINE
  5
3AD
100
AcDbEntity
  8
DRAFT
100
AcDbLine
 62
7
  6
CONTINUOUS
 10
35.7531397225
 20
29.1169097734
 11
35.7531397225
 21
-50.9614677225
  0
LINE
  5
3AE
100
AcDbEntity
  8
RACCORDO
100
AcDbLine
 62
7
  6
CONTINUOUS
 10
35.7531397225
 20
-52.8830902266
 11
35.7531397225
 21
-55.3345279809
  0
LINE
  5
3AF
100
AcDbEntity
  8
DRAFT
100
AcDbLine
 62
7
  6
CONTINUOUS
 10
36.4769571251
 20
30.8277210255
 11
36.4769571251
 21
29.3277210255
  0
LINE
  5
3B0
100
AcDbEntity
  8
DRAFT
100
AcDbLine
 62
7
  6
CONTINUOUS
 10
36.4769571251
 20
-51.1722789745
 11
36.4769571251
 21
-52.6722789745
  0
LINE
  5
3B1
100
AcDbEntity
  8
DRAFT
100
AcDbLine
 62
7
  6
CONTINUOUS
 10
36.4787026316
 20
43.7777210255
 11
36.4787026316
 21
31.0385322775
  0
LINE
  5
3B2
100
AcDbEntity
  8
DRAFT
100
AcDbLine
 62
7
  6
CONTINUOUS
 10
36.4787026316
 20
29.1169097734
 11
36.4787026316
 21
28.76550248
  0
LINE
  5
3B3
100
AcDbEntity
  8
RACCORDO
100
AcDbLine
 62
7
  6
CONTINUOUS
 10
36.4787026316
 20
-56.6601365815
 11
36.4787026316
 21
-52.8830902266
  0
LINE
  5
3B4
100
AcDbEntity
  8
DRAFT
100
AcDbLine
 62
7
  6
CONTINUOUS
 10
36.4787026316
 20
-50.9614677225
 11
36.4787026316
 21
-38.2222789745
  0
LINE
  5
3B5
100
AcDbEntity
  8
DRAFT
100
AcDbLine
 62
7
  6
CONTINUOUS
 10
36.490921177
 20
43.7777210255
 11
36.490921177
 21
30.9401536932
  0
LINE
  5
3B6
100
AcDbEntity
  8
DRAFT
100
AcDbLine
 62
7
  6
CONTINUOUS
 10
36.490921177
 20
29.2152883577
 11
36.490921177
 21
28.7777210255
  0
LINE
  5
3B7
100
AcDbEntity
  8
DRAFT
100
AcDbLine
 62
7
  6
CONTINUOUS
 10
36.490921177
 20
-38.2222789745
 11
36.490921177
 21
-51.0598463068
  0
LINE
  5
3B8
100
AcDbEntity
  8
RACCORDO
100
AcDbLine
 62
7
  6
CONTINUOUS
 10
36.490921177
 20
-52.7847116423
 11
36.490921177
 21
-56.6723551269
  0
LINE
  5
3B9
100
AcDbEntity
  8
0
100
AcDbLine
 62
7
  6
CONTINUOUS
 10
36.7282232203
 20
47.7777210255
 11
36.7282232203
 21
43.7777210255
  0
LINE
  5
3BA
100
AcDbEntity
  8
0
100
AcDbLine
 62
7
  6
CONTINUOUS
 10
36.7282232203
 20
-34.2222789745
 11
36.7282232203
 21
-38.2222789745
  0
LINE
  5
3BB
100
AcDbEntity
  8
DRAFT
100
AcDbLine
 62
7
  6
CONTINUOUS
 10
37.4787026316
 20
-34.2222789745
 11
37.4787026316
 21
28.76550248
  0
LINE
  5
3BC
100
AcDbEntity
  8
RACCORDO
100
AcDbLine
 62
7
  6
CONTINUOUS
 10
37.4787026316
 20
47.7777210255
 11
37.4787026316
 21
56.8155786325
  0
LINE
  5
3BD
100
AcDbEntity
  8
DRAFT
100
AcDbLine
 62
7
  6
CONTINUOUS
 10
37.490921177
 20
-34.2222789745
 11
37.490921177
 21
28.7777210255
  0
LINE
  5
3BE
100
AcDbEntity
  8
RACCORDO
100
AcDbLine
 62
7
  6
CONTINUOUS
 10
37.490921177
 20
47.7777210255
 11
37.490921177
 21
56.8277971779
  0
LINE
  5
3BF
100
AcDbEntity
  8
0
100
AcDbLine
 62
7
  6
CONTINUOUS
 10
42.340921177
 20
47.7777210255
 11
42.340921177
 21
43.7777210255
  0
LINE
  5
3C0
100
AcDbEntity
  8
0
100
AcDbLine
 62
7
  6
CONTINUOUS
 10
42.340921177
 20
-34.2222789745
 11
42.340921177
 21
-38.2222789745
  0
LINE
  5
3C1
100
AcDbEntity
  8
RACCORDO
100
AcDbLine
 62
7
  6
CONTINUOUS
 10
31.7908704609
 20
-53.7804245567
 11
31.7909714971
 21
-51.7301349476
  0
LINE
  5
3C2
100
AcDbEntity
  8
RACCORDO
100
AcDbLine
 62
7
  6
CONTINUOUS
 10
32.8950856548
 20
-51.6224921422
 11
32.8949266245
 21
-53.7597449694
  0
LINE
  5
3C3
100
AcDbEntity
  8
RACCORDO
100
AcDbLine
 62
7
  6
CONTINUOUS
 10
31.7905693706
 20
-53.8208981229
 11
31.7908704609
 21
-53.7804245567
  0
LINE
  5
3C4
100
AcDbEntity
  8
RACCORDO
100
AcDbLine
 62
7
  6
CONTINUOUS
 10
32.8957742668
 20
-51.5281245421
 11
32.8950856548
 21
-51.6224921422
  0
LINE
  5
3C5
100
AcDbEntity
  8
RACCORDO
100
AcDbLine
 62
7
  6
CONTINUOUS
 10
32.8970638758
 20
-51.428918057
 11
32.8957742668
 21
-51.5281245421
  0
LINE
  5
3C6
100
AcDbEntity
  8
RACCORDO
100
AcDbLine
 62
253
  6
CONTINUOUS
 10
31.5482261003
 20
54.2094311127
 11
31.5535403144
 21
54.5124459676
  0
LINE
  5
3C7
100
AcDbEntity
  8
RACCORDO
100
AcDbLine
 62
253
  6
CONTINUOUS
 10
31.7382131731
 20
54.0341604857
 11
31.7441942371
 21
54.3710245465
  0
LWPOLYLINE
  5
3C8
100
AcDbEntity
  8
RACCORDO
100
AcDbPolyline
 62
7
  6
CONTINUOUS
 90
22
 70
0
 10
36.490921177
 20
-56.6723551269
 10
36.489529704
 20
-56.7096353469
 10
36.4853551291
 20
-56.7467577022
 10
36.4784094398
 20
-56.7835138026
 10
36.4687055976
 20
-56.8197437121
 10
36.4562945582
 20
-56.8551911763
 10
36.4413005942
 20
-56.88951721
 10
36.4238889972
 20
-56.922432825
 10
36.4041313979
 20
-56.9538789384
 10
36.3820216967
 20
-56.9838616227
 10
36.3575607648
 20
-57.0123081511
 10
36.3309503536
 20
-57.0389185624
 10
36.3025038252
 20
-57.0633794942
 10
36.2725211409
 20
-57.0854891954
 10
36.2410750275
 20
-57.1052467947
 10
36.2081594125
 20
-57.1226583917
 10
36.1738333788
 20
-57.1376523557
 10
36.1383859145
 20
-57.1500633951
 10
36.1021560051
 20
-57.1597672373
 10
36.0653999047
 20
-57.1667129266
 10
36.0282775494
 20
-57.1708875015
 10
35.9909973294
 20
-57.1722789745
  0
LWPOLYLINE
  5
3C9
100
AcDbEntity
  8
RACCORDO
100
AcDbPolyline
 62
7
  6
CONTINUOUS
 90
22
 70
0
 10
35.7338782245
 20
-55.3152664829
 10
35.7332917231
 20
-55.3272489166
 10
35.7319365515
 20
-55.3393882301
 10
35.7297792472
 20
-55.3516333926
 10
35.7267884011
 20
-55.3639273013
 10
35.7229380955
 20
-55.3762117172
 10
35.7182080883
 20
-55.3884272995
 10
35.7125857967
 20
-55.4004930854
 10
35.7060533426
 20
-55.4123504583
 10
35.6985820095
 20
-55.423963637
 10
35.6901709646
 20
-55.4352372264
 10
35.6808114241
 20
-55.4460958031
 10
35.6704515522
 20
-55.4565117234
 10
35.6591024866
 20
-55.4663678836
 10
35.6467687955
 20
-55.4755616038
 10
35.6333737305
 20
-55.4840456841
 10
35.6189932593
 20
-55.4916479115
 10
35.6036202294
 20
-55.4982543707
 10
35.5870320711
 20
-55.503806527
 10
35.5691937372
 20
-55.5080952385
 10
35.5502959792
 20
-55.510841855
 10
35.530478599
 20
-55.5118059356
  0
LWPOLYLINE
  5
3CA
100
AcDbEntity
  8
RACCORDO
100
AcDbPolyline
 62
7
  6
CONTINUOUS
 90
9
 70
0
 10
32.9611866401
 20
-51.2819221193
 10
32.9600971416
 20
-51.3028285507
 10
32.9568278531
 20
-51.3235058346
 10
32.9514146089
 20
-51.3437273415
 10
32.943916749
 20
-51.3632714217
 10
32.9344164502
 20
-51.3819238843
 10
32.9230178093
 20
-51.3994803365
 10
32.9098457348
 20
-51.4157483591
 10
32.9026384573
 20
-51.4233434755
  0
LINE
  5
3CB
100
AcDbEntity
  8
RACCORDO
100
AcDbLine
 62
7
  6
CONTINUOUS
 10
35.7338782245
 20
30.8834468042
 11
35.7531397225
 21
31.0385322775
  0
LINE
  5
3CC
100
AcDbEntity
  8
DRAFT
100
AcDbLine
 62
7
  6
CONTINUOUS
 10
36.490921177
 20
30.9401536932
 11
36.4769571251
 21
30.8277210255
  0
LINE
  5
3CD
100
AcDbEntity
  8
DRAFT
100
AcDbLine
 62
7
  6
CONTINUOUS
 10
36.4787026316
 20
29.1169097734
 11
36.490921177
 21
29.2152883577
  0
LINE
  5
3CE
100
AcDbEntity
  8
RACCORDO
100
AcDbLine
 62
7
  6
CONTINUOUS
 10
35.7338782245
 20
-51.1165531958
 11
35.7531397225
 21
-50.9614677225
  0
LINE
  5
3CF
100
AcDbEntity
  8
DRAFT
100
AcDbLine
 62
7
  6
CONTINUOUS
 10
36.490921177
 20
-51.0598463068
 11
36.4769571251
 21
-51.1722789745
  0
LINE
  5
3D0
100
AcDbEntity
  8
DRAFT
100
AcDbLine
 62
7
  6
CONTINUOUS
 10
36.4787026316
 20
-52.8830902266
 11
36.490921177
 21
-52.7847116423
  0
LINE
  5
3D1
100
AcDbEntity
  8
DRAFT
100
AcDbLine
 62
7
  6
CONTINUOUS
 10
0.490921177
 20
-57.1722789745
 11
0.740921177
 21
-55.5222789745
  0
LINE
  5
3D2
100
AcDbEntity
  8
DRAFT
100
AcDbLine
 62
7
  6
CONTINUOUS
 10
0.505130471
 20
-57.1600604291
 11
0.7514278815
 21
-55.53449752
  0
LINE
  5
3D3
100
AcDbEntity
  8
DRAFT
100
AcDbLine
 62
7
  6
CONTINUOUS
 10
30.490921177
 20
-57.1722789745
 11
30.740921177
 21
-55.5222789745
  0
LINE
  5
3D4
100
AcDbEntity
  8
DRAFT
100
AcDbLine
 62
7
  6
CONTINUOUS
 10
30.505130471
 20
-57.1600604291
 11
30.7514278815
 21
-55.53449752
  0
LINE
  5
3D5
100
AcDbEntity
  8
RACCORDO
100
AcDbLine
 62
7
  6
CONTINUOUS
 10
31.8253374693
 20
-51.6070331552
 11
31.8179171532
 21
-51.6342709965
  0
LINE
  5
3D6
100
AcDbEntity
  8
RACCORDO
100
AcDbLine
 62
7
  6
CONTINUOUS
 10
31.8179171532
 20
-51.6342709965
 11
31.7909211775
 21
-51.7301245135
  0
LWPOLYLINE
  5
3D7
100
AcDbEntity
  8
RACCORDO
100
AcDbPolyline
 62
253
  6
CONTINUOUS
 90
10
 70
0
 10
31.7340555317
 20
53.9508858412
 10
31.7345073372
 20
53.9521965299
 10
31.7349528791
 20
53.9551021305
 10
31.7353921574
 20
53.959602643
 10
31.7358268126
 20
53.9657290506
 10
31.7362552041
 20
53.9734503701
 10
31.7366724109
 20
53.9826736522
 10
31.7370784019
 20
53.9934182449
 10
31.7374732081
 20
54.0056648
 10
31.7382131731
 20
54.0341604857
  0
LWPOLYLINE
  5
3D8
100
AcDbEntity
  8
RACCORDO
100
AcDbPolyline
 62
7
  6
CONTINUOUS
 90
12
 70
0
 10
31.7843137247
 20
-53.9597145084
 10
31.7850083706
 20
-53.9582833041
 10
31.7856815745
 20
-53.9547261492
 10
31.7863333364
 20
-53.9490808
 10
31.7869701392
 20
-53.9414073944
 10
31.7875855
 20
-53.9317877976
 10
31.7881599704
 20
-53.9203247167
 10
31.7886922462
 20
-53.907140615
 10
31.7891836315
 20
-53.8923764992
 10
31.7896185902
 20
-53.8761904154
 10
31.789995319
 20
-53.8587554806
 10
31.7905693706
 20
-53.8208981229
  0
LINE
  5
3D9
100
AcDbEntity
  8
DRAFT
100
AcDbLine
 62
7
  6
CONTINUOUS
 10
-30.7695855275
 20
-55.53449752
 11
-30.759078823
 21
-55.5222789745
  0
LINE
  5
3DA
100
AcDbEntity
  8
DRAFT
100
AcDbLine
 62
7
  6
CONTINUOUS
 10
-0.7695855275
 20
-55.53449752
 11
-0.759078823
 21
-55.5222789745
  0
LINE
  5
3DB
100
AcDbEntity
  8
RACCORDO
100
AcDbLine
 62
253
  6
CONTINUOUS
 10
-38.9794052126
 20
-56.6426815166
 11
-39.009078823
 21
-56.6723551269
  0
LINE
  5
3DC
100
AcDbEntity
  8
RACCORDO
100
AcDbLine
 62
253
  6
CONTINUOUS
 10
-38.479481365
 20
-57.1426053641
 11
-38.5091549754
 21
-57.1722789745
  0
LINE
  5
3DD
100
AcDbEntity
  8
RACCORDO
100
AcDbLine
 62
253
  6
CONTINUOUS
 10
-35.7712973684
 20
-55.3345279809
 11
-35.7520358704
 21
-55.3152664829
  0
LINE
  5
3DE
100
AcDbEntity
  8
RACCORDO
100
AcDbLine
 62
253
  6
CONTINUOUS
 10
-35.5713278294
 20
-55.53449752
 11
-35.548636245
 21
-55.5118059356
  0
LINE
  5
3DF
100
AcDbEntity
  8
RACCORDO
100
AcDbLine
 62
7
  6
CONTINUOUS
 10
-33.2388437499
 20
-54.4534905155
 11
-33.2128962256
 21
-54.4275429912
  0
LINE
  5
3E0
100
AcDbEntity
  8
RACCORDO
100
AcDbLine
 62
7
  6
CONTINUOUS
 10
-33.398605784
 20
-55.5118059356
 11
-33.3079516239
 21
-55.4211517754
  0
LWPOLYLINE
  5
3E1
100
AcDbEntity
  8
RACCORDO
100
AcDbPolyline
 62
7
  6
CONTINUOUS
 90
8
 70
0
 10
-33.1739338587
 20
-54.4176686553
 10
-33.1727384633
 20
-54.4165968344
 10
-33.1715698637
 20
-54.4141271631
 10
-33.17042806
 20
-54.4102596415
 10
-33.1693047865
 20
-54.4049425303
 10
-33.1682083088
 20
-54.3982275688
 10
-33.1671634244
 20
-54.3902699744
 10
-33.1661783991
 20
-54.3811214866
  0
LINE
  5
3E2
100
AcDbEntity
  8
DRAFT
100
AcDbLine
 62
7
  6
CONTINUOUS
 10
-29.509078823
 20
-57.1722789745
 11
-29.494869529
 21
-57.1600604291
  0
LINE
  5
3E3
100
AcDbEntity
  8
DRAFT
100
AcDbLine
 62
7
  6
CONTINUOUS
 10
0.490921177
 20
-57.1722789745
 11
0.505130471
 21
-57.1600604291
  0
LWPOLYLINE
  5
3E4
100
AcDbEntity
  8
RACCORDO
100
AcDbPolyline
 62
253
  6
CONTINUOUS
 90
16
 70
0
 10
-31.8090788232
 20
-51.7262093183
 10
-31.7770056361
 20
-51.7145304645
 10
-31.746452249
 20
-51.7004776461
 10
-31.7174186811
 20
-51.6840508629
 10
-31.6897286126
 20
-51.6650988887
 10
-31.6635583977
 20
-51.6437729499
 10
-31.6394370713
 20
-51.6205267253
 10
-31.6174070345
 20
-51.5953248647
 10
-31.5974259255
 20
-51.5682027184
 10
-31.5798956412
 20
-51.5397200161
 10
-31.5648644957
 20
-51.509921432
 10
-31.5522842078
 20
-51.4787622919
 10
-31.5424117826
 20
-51.4466683031
 10
-31.535332895
 20
-51.4137813678
 10
-31.530961889
 20
-51.3799595837
 10
-31.5292987695
 20
-51.3452029509
  0
LWPOLYLINE
  5
3E5
100
AcDbEntity
  8
RACCORDO
100
AcDbPolyline
 62
253
  6
CONTINUOUS
 90
16
 70
0
 10
-31.8594628011
 20
-51.5365624799
 10
-31.8432667541
 20
-51.5310380869
 10
-31.8276204549
 20
-51.5241589899
 10
-31.8126361052
 20
-51.5159789794
 10
-31.7984215964
 20
-51.5065621304
 10
-31.7850767442
 20
-51.4959792683
 10
-31.7726933606
 20
-51.484306432
 10
-31.7613595399
 20
-51.4716305452
 10
-31.7511546387
 20
-51.4580448571
 10
-31.7421476112
 20
-51.4436435235
 10
-31.7344179189
 20
-51.4285646598
 10
-31.7279991682
 20
-51.4128867372
 10
-31.7229065936
 20
-51.3966097331
 10
-31.7191979952
 20
-51.3798051401
 10
-31.7169422656
 20
-51.3626278628
 10
-31.7161853076
 20
-51.3452029509
  0
LWPOLYLINE
  5
3E6
100
AcDbEntity
  8
RACCORDO
100
AcDbPolyline
 62
7
  6
CONTINUOUS
 90
16
 70
0
 10
6.976898244
 20
52.6177210255
 10
6.9954883674
 20
52.6185868897
 10
7.0139175177
 20
52.6211769836
 10
7.0320261238
 20
52.6254688783
 10
7.0496573736
 20
52.6314254031
 10
7.0666586239
 20
52.638994984
 10
7.0828827151
 20
52.6481121062
 10
7.098189177
 20
52.6586978502
 10
7.1124454516
 20
52.6706605599
 10
7.1255280893
 20
52.6838966633
 10
7.137323809
 20
52.6982915719
 10
7.1477304534
 20
52.7137206415
 10
7.1566578842
 20
52.730050245
 10
7.1640287933
 20
52.7471389746
 10
7.1697793619
 20
52.7648388731
 10
7.1738597946
 20
52.7829966794
  0
LINE
  5
3E7
100
AcDbEntity
  8
DRAFT
100
AcDbLine
 62
7
  6
CONTINUOUS
 10
37.4787026316
 20
28.76550248
 11
36.4787026316
 21
28.76550248
  0
LINE
  5
3E8
100
AcDbEntity
  8
DRAFT
100
AcDbLine
 62
7
  6
CONTINUOUS
 10
37.490921177
 20
28.7777210255
 11
36.490921177
 21
28.7777210255
  0
LINE
  5
3E9
100
AcDbEntity
  8
DRAFT
100
AcDbLine
 62
7
  6
CONTINUOUS
 10
36.4787026316
 20
29.1169097734
 11
35.7531397225
 21
29.1169097734
  0
LINE
  5
3EA
100
AcDbEntity
  8
RACCORDO
100
AcDbLine
 62
7
  6
CONTINUOUS
 10
35.5339086854
 20
29.2996128585
 11
35.240921177
 21
29.2996128585
  0
LINE
  5
3EB
100
AcDbEntity
  8
DRAFT
100
AcDbLine
 62
7
  6
CONTINUOUS
 10
36.4769571251
 20
29.3277210255
 11
35.240921177
 21
29.3277210255
  0
LINE
  5
3EC
100
AcDbEntity
  8
DRAFT
100
AcDbLine
 62
7
  6
CONTINUOUS
 10
35.240921177
 20
30.8277210255
 11
36.4769571251
 21
30.8277210255
  0
LINE
  5
3ED
100
AcDbEntity
  8
RACCORDO
100
AcDbLine
 62
7
  6
CONTINUOUS
 10
35.5339086854
 20
30.8558291924
 11
35.240921177
 21
30.8558291924
  0
LINE
  5
3EE
100
AcDbEntity
  8
DRAFT
100
AcDbLine
 62
7
  6
CONTINUOUS
 10
36.4787026316
 20
31.0385322775
 11
35.7531397225
 21
31.0385322775
  0
LINE
  5
3EF
100
AcDbEntity
  8
RACCORDO
100
AcDbLine
 62
7
  6
CONTINUOUS
 10
-41.3102204136
 20
35.8777210255
 11
-39.7079372324
 21
35.8777210255
  0
LINE
  5
3F0
100
AcDbEntity
  8
RACCORDO
100
AcDbLine
 62
7
  6
CONTINUOUS
 10
-41.0127589576
 20
36.1751824815
 11
-40.0053986884
 21
36.1751824815
  0
LINE
  5
3F1
100
AcDbEntity
  8
DRAFT
100
AcDbLine
 62
7
  6
CONTINUOUS
 10
36.7282232203
 20
43.7777210255
 11
36.4787026316
 21
43.7777210255
  0
LINE
  5
3F2
100
AcDbEntity
  8
0
100
AcDbLine
 62
7
  6
CONTINUOUS
 10
36.7282232203
 20
43.7777210255
 11
42.3408728942
 21
43.7777210255
  0
LINE
  5
3F3
100
AcDbEntity
  8
RACCORDO
100
AcDbLine
 62
7
  6
CONTINUOUS
 10
-40.0053986884
 20
43.9802595695
 11
-41.0127589576
 21
43.9802595695
  0
LINE
  5
3F4
100
AcDbEntity
  8
RACCORDO
100
AcDbLine
 62
7
  6
CONTINUOUS
 10
-39.7079372324
 20
44.2777210255
 11
-41.3102204136
 21
44.2777210255
  0
LINE
  5
3F5
100
AcDbEntity
  8
0
100
AcDbLine
 62
7
  6
CONTINUOUS
 10
42.3408728942
 20
47.7777210255
 11
36.7282232203
 21
47.7777210255
  0
LINE
  5
3F6
100
AcDbEntity
  8
DRAFT
100
AcDbLine
 62
7
  6
CONTINUOUS
 10
-35.7712973684
 20
49.1169097734
 11
-37.7212973684
 21
49.1169097734
  0
LINE
  5
3F7
100
AcDbEntity
  8
RACCORDO
100
AcDbLine
 62
7
  6
CONTINUOUS
 10
-35.5520663314
 20
49.2996128585
 11
-35.259078823
 21
49.2996128585
  0
LINE
  5
3F8
100
AcDbEntity
  8
DRAFT
100
AcDbLine
 62
7
  6
CONTINUOUS
 10
-35.259078823
 20
49.3277210255
 11
-37.6951147711
 21
49.3277210255
  0
LINE
  5
3F9
100
AcDbEntity
  8
DRAFT
100
AcDbLine
 62
7
  6
CONTINUOUS
 10
-37.6951147711
 20
50.8277210255
 11
-35.259078823
 21
50.8277210255
  0
LINE
  5
3FA
100
AcDbEntity
  8
RACCORDO
100
AcDbLine
 62
7
  6
CONTINUOUS
 10
-35.5520663314
 20
50.8558291924
 11
-35.259078823
 21
50.8558291924
  0
LINE
  5
3FB
100
AcDbEntity
  8
DRAFT
100
AcDbLine
 62
7
  6
CONTINUOUS
 10
-37.7212973684
 20
51.0385322775
 11
-35.7712973684
 21
51.0385322775
  0
LINE
  5
3FC
100
AcDbEntity
  8
RACCORDO
100
AcDbLine
 62
7
  6
CONTINUOUS
 10
6.9764023348
 20
52.6177210255
 11
-6.9945599808
 21
52.6177210255
  0
LINE
  5
3FD
100
AcDbEntity
  8
RACCORDO
100
AcDbLine
 62
253
  6
CONTINUOUS
 10
6.9764023348
 20
52.784841228
 11
-6.9945599808
 21
52.784841228
  0
LWPOLYLINE
  5
3FE
100
AcDbEntity
  8
RACCORDO
100
AcDbPolyline
 62
253
  6
CONTINUOUS
 90
10
 70
0
 10
-31.5522436359
 20
54.1508553774
 10
-31.5540193604
 20
54.1518868185
 10
-31.5557391542
 20
54.1543689921
 10
-31.5574112679
 20
54.1582799474
 10
-31.5590621949
 20
54.1635843986
 10
-31.5606813598
 20
54.1702417524
 10
-31.5622212535
 20
54.1782132841
 10
-31.5636710299
 20
54.1874485778
 10
-31.565056259
 20
54.1978790811
 10
-31.5663837523
 20
54.2094310282
  0
LWPOLYLINE
  5
3FF
100
AcDbEntity
  8
RACCORDO
100
AcDbPolyline
 62
7
  6
CONTINUOUS
 90
5
 70
0
 10
-7.5813874939
 20
54.5533444448
 10
-7.5694662539
 20
54.5463167359
 10
-7.5582543548
 20
54.5386252744
 10
-7.5478091017
 20
54.5303745407
 10
-7.5381099343
 20
54.5216154902
  0
LINE
  5
400
100
AcDbEntity
  8
RACCORDO
100
AcDbLine
 62
253
  6
CONTINUOUS
 10
-39.009078823
 20
56.8277971779
 11
-38.9794052126
 21
56.7981235675
  0
LINE
  5
401
100
AcDbEntity
  8
RACCORDO
100
AcDbLine
 62
253
  6
CONTINUOUS
 10
-38.5091549754
 20
57.3277210255
 11
-38.479481365
 21
57.2980474151
  0
LINE
  5
402
100
AcDbEntity
  8
RACCORDO
100
AcDbLine
 62
253
  6
CONTINUOUS
 10
-35.7520358704
 20
55.4707085339
 11
-35.7712973684
 21
55.4899700319
  0
LINE
  5
403
100
AcDbEntity
  8
RACCORDO
100
AcDbLine
 62
253
  6
CONTINUOUS
 10
-35.548636245
 20
55.6672479865
 11
-35.5713278294
 21
55.6899395709
  0
LINE
  5
404
100
AcDbEntity
  8
RACCORDO
100
AcDbLine
 62
7
  6
CONTINUOUS
 10
-33.2214496116
 20
54.5915384281
 11
-33.2388437499
 21
54.6089325664
  0
LINE
  5
405
100
AcDbEntity
  8
RACCORDO
100
AcDbLine
 62
253
  6
CONTINUOUS
 10
-31.7161853076
 20
53.9148579711
 11
-31.7522131749
 21
53.9508858384
  0
LINE
  5
406
100
AcDbEntity
  8
RACCORDO
100
AcDbLine
 62
7
  6
CONTINUOUS
 10
-33.398605784
 20
55.6672479865
 11
-33.3079516239
 21
55.5765938264
  0
LINE
  5
407
100
AcDbEntity
  8
RACCORDO
100
AcDbLine
 62
253
  6
CONTINUOUS
 10
-31.5162157686
 20
54.1148275101
 11
-31.5522436359
 21
54.1508553774
  0
LINE
  5
408
100
AcDbEntity
  8
RACCORDO
100
AcDbLine
 62
253
  6
CONTINUOUS
 10
-31.762351882
 20
54.3710245455
 11
-31.7794661392
 21
54.3881388027
  0
LINE
  5
409
100
AcDbEntity
  8
RACCORDO
100
AcDbLine
 62
253
  6
CONTINUOUS
 10
-31.562382343
 20
54.5709940846
 11
-31.5794966067
 21
54.5881083482
  0
LWPOLYLINE
  5
40A
100
AcDbEntity
  8
RACCORDO
100
AcDbPolyline
 62
7
  6
CONTINUOUS
 90
11
 70
0
 10
-7.5381099343
 20
54.5216154902
 10
-7.5291366389
 20
54.5123881402
 10
-7.5209226066
 20
54.5027867729
 10
-7.5134449547
 20
54.4928478548
 10
-7.506620449
 20
54.4824980019
 10
-7.5004738238
 20
54.4717901842
 10
-7.4950160286
 20
54.4607604891
 10
-7.4901933862
 20
54.4492781835
 10
-7.4860311967
 20
54.4373171757
 10
-7.4825986837
 20
54.4249732507
 10
-7.4820421074
 20
54.4223207761
  0
LWPOLYLINE
  5
40B
100
AcDbEntity
  8
RACCORDO
100
AcDbPolyline
 62
253
  6
CONTINUOUS
 90
16
 70
0
 10
-7.3827728465
 20
53.8709671059
 10
-7.3811002007
 20
53.8678922028
 10
-7.377372909
 20
53.8652149877
 10
-7.3716301864
 20
53.8629636278
 10
-7.3639324524
 20
53.8611618098
 10
-7.3543606951
 20
53.8598284907
 10
-7.3430156194
 20
53.8589776986
 10
-7.3300165876
 20
53.8586183845
 10
-7.3155003631
 20
53.8587543291
 10
-7.2996196719
 20
53.8593841019
 10
-7.2825415958
 20
53.8605010771
 10
-7.2644458142
 20
53.8620935031
 10
-7.2455227139
 20
53.8641446257
 10
-7.2259713861
 20
53.8666328649
 10
-7.2059975314
 20
53.869532042
 10
-7.1858112959
 20
53.8728116545
  0
LWPOLYLINE
  5
40C
100
AcDbEntity
  8
RACCORDO
100
AcDbPolyline
 62
253
  6
CONTINUOUS
 90
16
 70
0
 10
-7.1915215314
 20
52.7829966794
 10
-7.1898707062
 20
52.7799451049
 10
-7.1861872312
 20
52.7772788638
 10
-7.1804954363
 20
52.7750285101
 10
-7.1728345275
 20
52.7732193579
 10
-7.16327542
 20
52.7718754862
 10
-7.1519343761
 20
52.7710157821
 10
-7.1389424761
 20
52.7706494387
 10
-7.1244280288
 20
52.7707794258
 10
-7.1085410408
 20
52.7714045468
 10
-7.0914461674
 20
52.7725186585
 10
-7.0733250939
 20
52.7741102323
 10
-7.0543723134
 20
52.7761622979
 10
-7.0347892094
 20
52.7786530169
 10
-7.0147813526
 20
52.7815562102
 10
-6.9945599808
 20
52.784841228
  0
LWPOLYLINE
  5
40D
100
AcDbEntity
  8
RACCORDO
100
AcDbPolyline
 62
7
  6
CONTINUOUS
 90
11
 70
0
 10
31.8413061563
 20
-51.5365591138
 10
31.8414933227
 20
-51.5377432708
 10
31.8412596113
 20
-51.5402960066
 10
31.8406155712
 20
-51.5442151115
 10
31.8395844172
 20
-51.5494938971
 10
31.8381698781
 20
-51.5561041738
 10
31.8363540623
 20
-51.5639892417
 10
31.8341353123
 20
-51.5730938252
 10
31.8315427141
 20
-51.5833603303
 10
31.8286054665
 20
-51.5947020715
 10
31.8253374693
 20
-51.6070331552
  0
LINE
  5
40E
100
AcDbEntity
  8
DRAFT
100
AcDbLine
 62
7
  6
CONTINUOUS
 10
29.2304144725
 20
-55.53449752
 11
29.476711883
 21
-57.1600604291
  0
LINE
  5
40F
100
AcDbEntity
  8
DRAFT
100
AcDbLine
 62
7
  6
CONTINUOUS
 10
29.240921177
 20
-55.5222789745
 11
29.490921177
 21
-57.1722789745
  0
LINE
  5
410
100
AcDbEntity
  8
RACCORDO
100
AcDbLine
 62
7
  6
CONTINUOUS
 10
35.7338782245
 20
-52.7280047532
 11
35.7531397225
 21
-52.8830902266
  0
LINE
  5
411
100
AcDbEntity
  8
DRAFT
100
AcDbLine
 62
7
  6
CONTINUOUS
 10
36.490921177
 20
-52.7847116423
 11
36.4769571251
 21
-52.6722789745
  0
LINE
  5
412
100
AcDbEntity
  8
DRAFT
100
AcDbLine
 62
7
  6
CONTINUOUS
 10
36.4787026316
 20
-50.9614677225
 11
36.490921177
 21
-51.0598463068
  0
LINE
  5
413
100
AcDbEntity
  8
RACCORDO
100
AcDbLine
 62
7
  6
CONTINUOUS
 10
35.7338782245
 20
29.2719952468
 11
35.7531397225
 21
29.1169097734
  0
LINE
  5
414
100
AcDbEntity
  8
DRAFT
100
AcDbLine
 62
7
  6
CONTINUOUS
 10
36.490921177
 20
29.2152883577
 11
36.4769571251
 21
29.3277210255
  0
LINE
  5
415
100
AcDbEntity
  8
DRAFT
100
AcDbLine
 62
7
  6
CONTINUOUS
 10
36.4787026316
 20
31.0385322775
 11
36.490921177
 21
30.9401536932
  0
LINE
  5
416
100
AcDbEntity
  8
DRAFT
100
AcDbLine
 62
7
  6
CONTINUOUS
 10
29.2304144725
 20
-55.53449752
 11
29.240921177
 21
-55.5222789745
  0
LINE
  5
417
100
AcDbEntity
  8
RACCORDO
100
AcDbLine
 62
7
  6
CONTINUOUS
 10
33.1735140265
 20
-54.5007686218
 11
33.1530441148
 21
-54.5213035588
  0
LINE
  5
418
100
AcDbEntity
  8
RACCORDO
100
AcDbLine
 62
253
  6
CONTINUOUS
 10
31.6980276616
 20
-51.3452029509
 11
31.7613084932
 21
-51.2819221193
  0
LINE
  5
419
100
AcDbEntity
  8
RACCORDO
100
AcDbLine
 62
253
  6
CONTINUOUS
 10
31.8983262499
 20
-51.5448434406
 11
31.9612780322
 21
-51.4818916583
  0
LINE
  5
41A
100
AcDbEntity
  8
RACCORDO
100
AcDbLine
 62
253
  6
CONTINUOUS
 10
32.761217101
 20
-51.4818916583
 11
32.6982653187
 21
-51.5448434406
  0
LINE
  5
41B
100
AcDbEntity
  8
RACCORDO
100
AcDbLine
 62
7
  6
CONTINUOUS
 10
32.9026384573
 20
-51.4233434755
 11
32.8398085418
 21
-51.4861733909
  0
LINE
  5
41C
100
AcDbEntity
  8
RACCORDO
100
AcDbLine
 62
7
  6
CONTINUOUS
 10
33.1420161335
 20
-54.5322671593
 11
33.0330077845
 21
-54.6413809217
  0
LINE
  5
41D
100
AcDbEntity
  8
RACCORDO
100
AcDbLine
 62
7
  6
CONTINUOUS
 10
33.1530441148
 20
-54.5213035588
 11
33.1420161335
 21
-54.5322671593
  0
LINE
  5
41E
100
AcDbEntity
  8
RACCORDO
100
AcDbLine
 62
7
  6
CONTINUOUS
 10
33.0330077845
 20
-54.6413809217
 11
33.0207165649
 21
-54.6535819077
  0
LINE
  5
41F
100
AcDbEntity
  8
RACCORDO
100
AcDbLine
 62
7
  6
CONTINUOUS
 10
33.1829559569
 20
-54.4914141047
 11
33.1735140265
 21
-54.5007686218
  0
LWPOLYLINE
  5
420
100
AcDbEntity
  8
RACCORDO
100
AcDbPolyline
 62
253
  6
CONTINUOUS
 90
9
 70
0
 10
32.9026384573
 20
-51.4233434755
 10
32.8950445957
 20
-51.4305496232
 10
32.87877661
 20
-51.4437218891
 10
32.8612200614
 20
-51.4551207785
 10
32.8425673827
 20
-51.4646213314
 10
32.8230230555
 20
-51.4721193894
 10
32.8028013121
 20
-51.4775327661
 10
32.7821237813
 20
-51.4808021337
 10
32.761217101
 20
-51.4818916583
  0
LWPOLYLINE
  5
421
100
AcDbEntity
  8
RACCORDO
100
AcDbPolyline
 62
7
  6
CONTINUOUS
 90
5
 70
0
 10
32.8398085522
 20
-51.4861733806
 10
32.8283216947
 20
-51.4967963339
 10
32.8144682266
 20
-51.5076237505
 10
32.7997018038
 20
-51.5172048394
 10
32.7841647484
 20
-51.5254463306
  0
LINE
  5
422
100
AcDbEntity
  8
DRAFT
100
AcDbLine
 62
7
  6
CONTINUOUS
 10
30.490921177
 20
-57.1722789745
 11
30.505130471
 21
-57.1600604291
  0
LWPOLYLINE
  5
423
100
AcDbEntity
  8
RACCORDO
100
AcDbPolyline
 62
7
  6
CONTINUOUS
 90
7
 70
0
 10
33.2206861039
 20
-54.4536123686
 10
33.2191021054
 20
-54.4548682851
 10
33.2162097435
 20
-54.4578262436
 10
33.2120090183
 20
-54.4622894543
 10
33.2063442168
 20
-54.4680424298
 10
33.199371052
 20
-54.4748992845
 10
33.1829559569
 20
-54.4914141047
  0
LWPOLYLINE
  5
424
100
AcDbEntity
  8
RACCORDO
100
AcDbPolyline
 62
253
  6
CONTINUOUS
 90
7
 70
0
 10
32.8949266454
 20
-51.6931473115
 10
32.864322439
 20
-51.7087266879
 10
32.83284916
 20
-51.7215186916
 10
32.8005068085
 20
-51.7315233226
 10
32.7672953844
 20
-51.7387405809
 10
32.7332148878
 20
-51.7431704666
 10
32.6982653187
 20
-51.7448129797
  0
LWPOLYLINE
  5
425
100
AcDbEntity
  8
RACCORDO
100
AcDbPolyline
 62
7
  6
CONTINUOUS
 90
4
 70
0
 10
32.7841647484
 20
-51.5254463306
 10
32.7679463028
 20
-51.5323000226
 10
32.7511233564
 20
-51.5377205513
 10
32.7478302384
 20
-51.5385932314
  0
LINE
  5
426
100
AcDbEntity
  8
RACCORDO
100
AcDbLine
 62
7
  6
CONTINUOUS
 10
-31.6038821369
 20
54.5666278141
 11
-31.6240820787
 21
54.5612186847
  0
LINE
  5
427
100
AcDbEntity
  8
RACCORDO
100
AcDbLine
 62
7
  6
CONTINUOUS
 10
-31.5573197527
 20
54.1105449127
 11
-31.5774331615
 21
54.1052080402
  0
LINE
  5
428
100
AcDbEntity
  8
RACCORDO
100
AcDbLine
 62
7
  6
CONTINUOUS
 10
-31.5960598227
 20
54.5681275649
 11
-31.6038821369
 21
54.5666278141
  0
LINE
  5
429
100
AcDbEntity
  8
RACCORDO
100
AcDbLine
 62
253
  6
CONTINUOUS
 10
-7.4638095832
 20
54.3312842703
 11
-7.2668480326
 21
54.3660086164
  0
LINE
  5
42A
100
AcDbEntity
  8
RACCORDO
100
AcDbLine
 62
253
  6
CONTINUOUS
 10
-7.4799371986
 20
54.4227624551
 11
-7.282975648
 21
54.457486801
  0
LINE
  5
42B
100
AcDbEntity
  8
RACCORDO
100
AcDbLine
 62
7
  6
CONTINUOUS
 10
-31.542430345
 20
54.1130938075
 11
-31.5573197527
 21
54.1105449127
  0
LWPOLYLINE
  5
42C
100
AcDbEntity
  8
RACCORDO
100
AcDbPolyline
 62
253
  6
CONTINUOUS
 90
16
 70
0
 10
-31.5663837504
 20
54.2094310326
 10
-31.5864379054
 20
54.2078743792
 10
-31.6061940065
 20
54.2048979739
 10
-31.6254515117
 20
54.20053203
 10
-31.6440149402
 20
54.1948208658
 10
-31.6616958563
 20
54.1878224546
 10
-31.6783147832
 20
54.1796078365
 10
-31.6937030238
 20
54.1702603973
 10
-31.7077043737
 20
54.1598750219
 10
-31.7201767067
 20
54.1485571311
 10
-31.7309934174
 20
54.1364216116
 10
-31.7400447066
 20
54.1235916498
 10
-31.7472386956
 20
54.1101974813
 10
-31.752502359
 20
54.0963750688
 10
-31.7557822658
 20
54.0822647222
 10
-31.7570451221
 20
54.0680096742
  0
LWPOLYLINE
  5
42D
100
AcDbEntity
  8
RACCORDO
100
AcDbPolyline
 62
253
  6
CONTINUOUS
 90
16
 70
0
 10
-31.571697967
 20
54.5124459018
 10
-31.5918577122
 20
54.5108928941
 10
-31.6115898622
 20
54.5079097616
 10
-31.630763918
 20
54.5035456875
 10
-31.6492981189
 20
54.4978504569
 10
-31.6670098216
 20
54.4908539101
 10
-31.6836251513
 20
54.4826209737
 10
-31.6989923851
 20
54.4732840725
 10
-31.7130072543
 20
54.4629150225
 10
-31.7254852276
 20
54.4515704072
 10
-31.7362938482
 20
54.4394330997
 10
-31.7453468598
 20
54.4266359011
 10
-31.7525459284
 20
54.4132114137
 10
-31.7578112417
 20
54.3993071237
 10
-31.7610897055
 20
54.385174624
 10
-31.7623518821
 20
54.3710245455
  0
LWPOLYLINE
  5
42E
100
AcDbEntity
  8
RACCORDO
100
AcDbPolyline
 62
253
  6
CONTINUOUS
 90
16
 70
0
 10
-31.5522436359
 20
54.1508553774
 10
-31.5731420377
 20
54.1497539897
 10
-31.5938115697
 20
54.146474618
 10
-31.6140258611
 20
54.1410531753
 10
-31.633563525
 20
54.1335490351
 10
-31.6522105869
 20
54.1240443795
 10
-31.6697628275
 20
54.1126432988
 10
-31.6860280142
 20
54.0994706535
 10
-31.7008280092
 20
54.0846707075
 10
-31.7140007224
 20
54.0684055446
 10
-31.7254018837
 20
54.0508532973
 10
-31.734906624
 20
54.0322061958
 10
-31.7424108439
 20
54.01266846
 10
-31.7478323531
 20
53.9924540655
 10
-31.7511117703
 20
53.9717844002
 10
-31.7522131749
 20
53.9508858384
  0
LWPOLYLINE
  5
42F
100
AcDbEntity
  8
RACCORDO
100
AcDbPolyline
 62
253
  6
CONTINUOUS
 90
3
 70
0
 10
-31.562382343
 20
54.5709940846
 10
-31.5832402174
 20
54.5698969638
 10
-31.5960598227
 20
54.5681275649
  0
LWPOLYLINE
  5
430
100
AcDbEntity
  8
RACCORDO
100
AcDbPolyline
 62
253
  6
CONTINUOUS
 90
3
 70
0
 10
-31.5162157686
 20
54.1148275101
 10
-31.5368393398
 20
54.1137548942
 10
-31.542430345
 20
54.1130938075
  0
LINE
  5
431
100
AcDbEntity
  8
DRAFT
100
AcDbLine
 62
7
  6
CONTINUOUS
 10
34.1969519149
 20
55.6709868966
 11
34.1189887576
 21
55.6672479865
  0
LINE
  5
432
100
AcDbEntity
  8
DRAFT
100
AcDbLine
 62
7
  6
CONTINUOUS
 10
33.4969519149
 20
55.6709868966
 11
33.4189887576
 21
55.6672479865
  0
LINE
  5
433
100
AcDbEntity
  8
DRAFT
100
AcDbLine
 62
7
  6
CONTINUOUS
 10
-33.7030480851
 20
55.6709868966
 11
-33.7810112424
 21
55.6672479865
  0
LINE
  5
434
100
AcDbEntity
  8
DRAFT
100
AcDbLine
 62
7
  6
CONTINUOUS
 10
-34.4030480851
 20
55.6709868966
 11
-34.4810112424
 21
55.6672479865
  0
LWPOLYLINE
  5
435
100
AcDbEntity
  8
RACCORDO
100
AcDbPolyline
 62
253
  6
CONTINUOUS
 90
19
 70
0
 10
7.6587411032
 20
54.5881083417
 10
7.6437790772
 20
54.587547631
 10
7.628893744
 20
54.5858676038
 10
7.6141687898
 20
54.5830760652
 10
7.5997214147
 20
54.5791976513
 10
7.5855974485
 20
54.5742471339
 10
7.5717797594
 20
54.5682040143
 10
7.5583351406
 20
54.5610660561
 10
7.5453775403
 20
54.552860869
 10
7.5329734103
 20
54.5435952069
 10
7.5211845341
 20
54.5332665874
 10
7.5101428366
 20
54.5219382974
 10
7.5000055053
 20
54.5097401624
 10
7.4908641245
 20
54.4967741253
 10
7.4827589756
 20
54.4830881837
 10
7.4757463394
 20
54.4687564585
 10
7.4698804374
 20
54.4538623517
 10
7.4652110571
 20
54.4384991986
 10
7.4617795526
 20
54.4227624551
  0
LINE
  5
436
100
AcDbEntity
  8
RACCORDO
100
AcDbLine
 62
7
  6
CONTINUOUS
 10
31.6769617136
 20
54.5899538215
 11
31.5613389599
 21
54.5881083474
  0
LINE
  5
437
100
AcDbEntity
  8
RACCORDO
100
AcDbLine
 62
7
  6
CONTINUOUS
 10
-7.6768987492
 20
54.5881083417
 11
-7.5564907584
 21
54.5900238553
  0
LINE
  5
438
100
AcDbEntity
  8
RACCORDO
100
AcDbLine
 62
7
  6
CONTINUOUS
 10
-7.5564907584
 20
54.5900238553
 11
-7.4848597278
 21
54.59083158
  0
LINE
  5
439
100
AcDbEntity
  8
RACCORDO
100
AcDbLine
 62
7
  6
CONTINUOUS
 10
31.7644520707
 20
54.5909264769
 11
31.6769617136
 21
54.5899538215
  0
LINE
  5
43A
100
AcDbEntity
  8
RACCORDO
100
AcDbLine
 62
7
  6
CONTINUOUS
 10
-7.4848597278
 20
54.59083158
 11
-7.4007985699
 21
54.5913931128
  0
LINE
  5
43B
100
AcDbEntity
  8
RACCORDO
100
AcDbLine
 62
7
  6
CONTINUOUS
 10
31.8508538738
 20
54.5914466936
 11
31.7644520707
 21
54.5909264769
  0
LINE
  5
43C
100
AcDbEntity
  8
RACCORDO
100
AcDbLine
 62
253
  6
CONTINUOUS
 10
31.4980581243
 20
54.1148275118
 11
23.3387068768
 21
54.1067039507
  0
LINE
  5
43D
100
AcDbEntity
  8
RACCORDO
100
AcDbLine
 62
253
  6
CONTINUOUS
 10
31.5340859927
 20
54.1508553802
 11
23.3313882715
 21
54.1425031493
  0
LINE
  5
43E
100
AcDbEntity
  8
RACCORDO
100
AcDbLine
 62
253
  6
CONTINUOUS
 10
31.5482261003
 20
54.2094311127
 11
23.3421719921
 21
54.2010663505
  0
LINE
  5
43F
100
AcDbEntity
  8
RACCORDO
100
AcDbLine
 62
253
  6
CONTINUOUS
 10
31.5535403144
 20
54.5124459676
 11
23.3363759709
 21
54.5040696135
  0
LINE
  5
440
100
AcDbEntity
  8
RACCORDO
100
AcDbLine
 62
253
  6
CONTINUOUS
 10
31.5442246992
 20
54.5709940867
 11
23.3290406833
 21
54.5626177244
  0
LINE
  5
441
100
AcDbEntity
  8
RACCORDO
100
AcDbLine
 62
253
  6
CONTINUOUS
 10
23.3488007833
 20
53.9067344204
 11
15.1887802462
 21
53.9010274448
  0
LINE
  5
442
100
AcDbEntity
  8
RACCORDO
100
AcDbLine
 62
253
  6
CONTINUOUS
 10
23.3387068768
 20
54.1067039507
 11
15.1825360407
 21
54.1009969675
  0
LINE
  5
443
100
AcDbEntity
  8
RACCORDO
100
AcDbLine
 62
253
  6
CONTINUOUS
 10
23.3313882715
 20
54.1425031493
 11
15.1292644388
 21
54.1366472459
  0
LINE
  5
444
100
AcDbEntity
  8
RACCORDO
100
AcDbLine
 62
253
  6
CONTINUOUS
 10
23.3421719921
 20
54.2010663505
 11
15.1358208606
 21
54.1952017149
  0
LINE
  5
445
100
AcDbEntity
  8
RACCORDO
100
AcDbLine
 62
253
  6
CONTINUOUS
 10
23.3363759709
 20
54.5040696135
 11
15.1188955118
 21
54.4982003513
  0
LINE
  5
446
100
AcDbEntity
  8
RACCORDO
100
AcDbLine
 62
253
  6
CONTINUOUS
 10
23.3290406833
 20
54.5626177244
 11
15.1144931427
 21
54.556748467
  0
LINE
  5
447
100
AcDbEntity
  8
RACCORDO
100
AcDbLine
 62
253
  6
CONTINUOUS
 10
15.1887802462
 20
53.9010274448
 11
7.3662183591
 21
53.8978592129
  0
LINE
  5
448
100
AcDbEntity
  8
RACCORDO
100
AcDbLine
 62
253
  6
CONTINUOUS
 10
15.1825360407
 20
54.1009969675
 11
7.4063125309
 21
54.0978428321
  0
LINE
  5
449
100
AcDbEntity
  8
RACCORDO
100
AcDbLine
 62
253
  6
CONTINUOUS
 10
15.1292644388
 20
54.1366472459
 11
7.4126003912
 21
54.1334607286
  0
LINE
  5
44A
100
AcDbEntity
  8
RACCORDO
100
AcDbLine
 62
253
  6
CONTINUOUS
 10
15.1358208606
 20
54.1952017149
 11
7.4229339064
 21
54.1920128363
  0
LINE
  5
44B
100
AcDbEntity
  8
RACCORDO
100
AcDbLine
 62
253
  6
CONTINUOUS
 10
15.1188955118
 20
54.4982003513
 11
7.4970161982
 21
54.4950467222
  0
LINE
  5
44C
100
AcDbEntity
  8
RACCORDO
100
AcDbLine
 62
253
  6
CONTINUOUS
 10
15.1144931427
 20
54.556748467
 11
7.5638108501
 21
54.5536176422
  0
LINE
  5
44D
100
AcDbEntity
  8
RACCORDO
100
AcDbLine
 62
253
  6
CONTINUOUS
 10
-7.1858112959
 20
53.8728116545
 11
7.1676536499
 21
53.8728116545
  0
LINE
  5
44E
100
AcDbEntity
  8
RACCORDO
100
AcDbLine
 62
253
  6
CONTINUOUS
 10
31.6980276625
 20
53.9148579728
 11
23.3488007833
 21
53.9067344204
  0
LINE
  5
44F
100
AcDbEntity
  8
RACCORDO
100
AcDbLine
 62
7
  6
CONTINUOUS
 10
-33.2214496116
 20
54.2077210255
 11
-32.779374747
 21
54.2077210255
  0
LINE
  5
450
100
AcDbEntity
  8
RACCORDO
100
AcDbLine
 62
7
  6
CONTINUOUS
 10
32.761217101
 20
54.2077210255
 11
33.2032919656
 21
54.2077210255
  0
LINE
  5
451
100
AcDbEntity
  8
RACCORDO
100
AcDbLine
 62
253
  6
CONTINUOUS
 10
-7.2668480326
 20
54.3660086164
 11
7.2486903866
 21
54.3660086164
  0
LINE
  5
452
100
AcDbEntity
  8
RACCORDO
100
AcDbLine
 62
253
  6
CONTINUOUS
 10
-31.9794356782
 20
54.3881388027
 11
-31.7794661392
 21
54.3881388027
  0
LINE
  5
453
100
AcDbEntity
  8
RACCORDO
100
AcDbLine
 62
253
  6
CONTINUOUS
 10
31.7613084932
 20
54.3881388027
 11
31.9612780322
 21
54.3881388027
  0
LINE
  5
454
100
AcDbEntity
  8
RACCORDO
100
AcDbLine
 62
7
  6
CONTINUOUS
 10
33.2032919656
 20
54.5915384281
 11
31.8508538738
 21
54.5914466936
  0
LINE
  5
455
100
AcDbEntity
  8
RACCORDO
100
AcDbLine
 62
7
  6
CONTINUOUS
 10
-7.4007985699
 20
54.5913931128
 11
7.3143697571
 21
54.5915384281
  0
LINE
  5
456
100
AcDbEntity
  8
RACCORDO
100
AcDbLine
 62
253
  6
CONTINUOUS
 10
-33.2388437499
 20
54.6090544196
 11
33.2206861039
 21
54.6090544196
  0
LINE
  5
457
100
AcDbEntity
  8
RACCORDO
100
AcDbLine
 62
253
  6
CONTINUOUS
 10
-33.0388742109
 20
54.8090239586
 11
33.0207165649
 21
54.8090239586
  0
LINE
  5
458
100
AcDbEntity
  8
RACCORDO
100
AcDbLine
 62
253
  6
CONTINUOUS
 10
33.2206861039
 20
55.6089630274
 11
-33.2388437499
 21
55.6089630274
  0
LINE
  5
459
100
AcDbEntity
  8
RACCORDO
100
AcDbLine
 62
7
  6
CONTINUOUS
 10
-35.548636245
 20
55.6672479865
 11
-34.4810112424
 21
55.6672479865
  0
LINE
  5
45A
100
AcDbEntity
  8
DRAFT
100
AcDbLine
 62
7
  6
CONTINUOUS
 10
-34.1371464036
 20
55.6672479865
 11
-33.7810112424
 21
55.6672479865
  0
LINE
  5
45B
100
AcDbEntity
  8
DRAFT
100
AcDbLine
 62
7
  6
CONTINUOUS
 10
-33.4371464036
 20
55.6672479865
 11
-33.398605784
 21
55.6672479865
  0
LINE
  5
45C
100
AcDbEntity
  8
DRAFT
100
AcDbLine
 62
7
  6
CONTINUOUS
 10
33.3804481381
 20
55.6672479865
 11
33.4189887576
 21
55.6672479865
  0
LINE
  5
45D
100
AcDbEntity
  8
DRAFT
100
AcDbLine
 62
7
  6
CONTINUOUS
 10
33.7628535964
 20
55.6672479865
 11
34.1189887576
 21
55.6672479865
  0
LINE
  5
45E
100
AcDbEntity
  8
RACCORDO
100
AcDbLine
 62
7
  6
CONTINUOUS
 10
34.4628535964
 20
55.6672479865
 11
35.530478599
 21
55.6672479865
  0
LINE
  5
45F
100
AcDbEntity
  8
RACCORDO
100
AcDbLine
 62
7
  6
CONTINUOUS
 10
-35.5713278294
 20
55.6899395709
 11
35.5531701834
 21
55.6899395709
  0
LINE
  5
460
100
AcDbEntity
  8
RACCORDO
100
AcDbLine
 62
7
  6
CONTINUOUS
 10
-37.9387524334
 20
57.2980474151
 11
-38.479481365
 21
57.2980474151
  0
LINE
  5
461
100
AcDbEntity
  8
RACCORDO
100
AcDbLine
 62
7
  6
CONTINUOUS
 10
-37.9212973684
 20
57.31550248
 11
36.978778784
 21
57.31550248
  0
LINE
  5
462
100
AcDbEntity
  8
RACCORDO
100
AcDbLine
 62
7
  6
CONTINUOUS
 10
36.9909973294
 20
57.3277210255
 11
-38.5091549754
 21
57.3277210255
  0
LINE
  5
463
100
AcDbEntity
  8
RACCORDO
100
AcDbLine
 62
253
  6
CONTINUOUS
 10
-7.3843771671
 20
53.8979293661
 11
-18.5135976045
 21
53.9030526601
  0
LINE
  5
464
100
AcDbEntity
  8
RACCORDO
100
AcDbLine
 62
253
  6
CONTINUOUS
 10
-7.4244822324
 20
54.097911106
 11
-18.5060717018
 21
54.103022303
  0
LINE
  5
465
100
AcDbEntity
  8
RACCORDO
100
AcDbLine
 62
253
  6
CONTINUOUS
 10
-7.4307687035
 20
54.1335211497
 11
-18.6297881885
 21
54.1388317258
  0
LINE
  5
466
100
AcDbEntity
  8
RACCORDO
100
AcDbLine
 62
253
  6
CONTINUOUS
 10
-7.4411021829
 20
54.1920730835
 11
-18.6382680225
 21
54.1973895776
  0
LINE
  5
467
100
AcDbEntity
  8
RACCORDO
100
AcDbLine
 62
253
  6
CONTINUOUS
 10
-7.5151414189
 20
54.4951027096
 11
-18.6826253213
 21
54.5004283763
  0
LINE
  5
468
100
AcDbEntity
  8
RACCORDO
100
AcDbLine
 62
253
  6
CONTINUOUS
 10
-7.5820421749
 20
54.5536713089
 11
-18.6772284054
 21
54.5589766224
  0
LINE
  5
469
100
AcDbEntity
  8
RACCORDO
100
AcDbLine
 62
253
  6
CONTINUOUS
 10
-18.5135976045
 20
53.9030526601
 11
-31.7161853076
 21
53.9148579711
  0
LINE
  5
46A
100
AcDbEntity
  8
RACCORDO
100
AcDbLine
 62
253
  6
CONTINUOUS
 10
-18.5060717018
 20
54.103022303
 11
-31.5162157686
 21
54.1148275101
  0
LWPOLYLINE
  5
46B
100
AcDbEntity
  8
RACCORDO
100
AcDbPolyline
 62
253
  6
CONTINUOUS
 90
3
 70
0
 10
-18.6297881885
 20
54.1388317258
 10
-27.2530316825
 20
54.1461602256
 10
-31.5522436359
 20
54.1508553774
  0
LWPOLYLINE
  5
46C
100
AcDbEntity
  8
RACCORDO
100
AcDbPolyline
 62
253
  6
CONTINUOUS
 90
3
 70
0
 10
-18.6382680225
 20
54.1973895776
 10
-27.2659167196
 20
54.2047289393
 10
-31.5663837504
 20
54.2094310327
  0
LWPOLYLINE
  5
46D
100
AcDbEntity
  8
RACCORDO
100
AcDbPolyline
 62
253
  6
CONTINUOUS
 90
3
 70
0
 10
-18.6826253213
 20
54.5004283763
 10
-27.2892475186
 20
54.5077569943
 10
-31.5716979651
 20
54.5124459059
  0
LWPOLYLINE
  5
46E
100
AcDbEntity
  8
RACCORDO
100
AcDbPolyline
 62
253
  6
CONTINUOUS
 90
3
 70
0
 10
-18.6772284054
 20
54.5589766224
 10
-27.2806654306
 20
54.5663052137
 10
-31.562382343
 20
54.5709940846
  0
LINE
  5
46F
100
AcDbEntity
  8
RACCORDO
100
AcDbLine
 62
7
  6
CONTINUOUS
 10
-31.8408339669
 20
54.591324592
 11
-33.2214496116
 21
54.5915384281
  0
LINE
  5
470
100
AcDbEntity
  8
RACCORDO
100
AcDbLine
 62
7
  6
CONTINUOUS
 10
7.3143697571
 20
54.5915384281
 11
7.3982682891
 21
54.5913202151
  0
LINE
  5
471
100
AcDbEntity
  8
RACCORDO
100
AcDbLine
 62
7
  6
CONTINUOUS
 10
-31.7532874586
 20
54.5906532923
 11
-31.8408339669
 21
54.591324592
  0
LINE
  5
472
100
AcDbEntity
  8
RACCORDO
100
AcDbLine
 62
7
  6
CONTINUOUS
 10
7.3982682891
 20
54.5913202151
 11
7.4864556084
 21
54.5906379172
  0
LINE
  5
473
100
AcDbEntity
  8
RACCORDO
100
AcDbLine
 62
7
  6
CONTINUOUS
 10
-31.6371795339
 20
54.5891012922
 11
-31.7532874586
 21
54.5906532923
  0
LINE
  5
474
100
AcDbEntity
  8
RACCORDO
100
AcDbLine
 62
7
  6
CONTINUOUS
 10
7.4864556084
 20
54.5906379172
 11
7.6017886112
 21
54.5890895924
  0
LINE
  5
475
100
AcDbEntity
  8
RACCORDO
100
AcDbLine
 62
7
  6
CONTINUOUS
 10
-31.5794966067
 20
54.5881083482
 11
-31.6371795339
 21
54.5891012922
  0
LINE
  5
476
100
AcDbEntity
  8
RACCORDO
100
AcDbLine
 62
7
  6
CONTINUOUS
 10
7.6017886112
 20
54.5890895924
 11
7.6587411032
 21
54.5881083417
  0
LWPOLYLINE
  5
477
100
AcDbEntity
  8
RACCORDO
100
AcDbPolyline
 62
7
  6
CONTINUOUS
 90
8
 70
0
 10
-7.6768987492
 20
54.5776353033
 10
-7.6626711904
 20
54.5771283595
 10
-7.6485063826
 20
54.5756087927
 10
-7.6344764088
 20
54.573082307
 10
-7.6206001293
 20
54.5695442437
 10
-7.6070036204
 20
54.5650186008
 10
-7.5939074015
 20
54.5595952884
 10
-7.5813874939
 20
54.5533444448
  0
LWPOLYLINE
  5
478
100
AcDbEntity
  8
RACCORDO
100
AcDbPolyline
 62
253
  6
CONTINUOUS
 90
22
 70
0
 10
31.5613389599
 20
54.5881083474
 10
31.5773468742
 20
54.5874719103
 10
31.5932566992
 20
54.5855557909
 10
31.608966264
 20
54.5823710303
 10
31.6243853291
 20
54.5779332855
 10
31.6394031176
 20
54.5722716611
 10
31.6538921761
 20
54.5654370832
 10
31.6678304547
 20
54.5574368409
 10
31.6810575236
 20
54.5483599536
 10
31.6932856501
 20
54.5384520751
 10
31.7044276464
 20
54.5278878623
 10
31.7145305358
 20
54.5167319694
 10
31.7235687618
 20
54.5051203373
 10
31.7315042146
 20
54.4932385749
 10
31.7384144552
 20
54.4811178296
 10
31.7444234103
 20
54.4686331008
 10
31.7495319269
 20
54.4558210644
 10
31.7537184986
 20
54.4427801328
 10
31.7570109013
 20
54.4294432881
 10
31.7593919466
 20
54.4158261246
 10
31.7608295461
 20
54.4020361884
 10
31.7613084932
 20
54.3881388027
  0
LINE
  5
479
100
AcDbEntity
  8
DRAFT
100
AcDbLine
 62
7
  6
CONTINUOUS
 10
-34.1371464036
 20
55.6672479865
 11
-34.2151095609
 21
55.6709868966
  0
LINE
  5
47A
100
AcDbEntity
  8
DRAFT
100
AcDbLine
 62
7
  6
CONTINUOUS
 10
-33.4371464036
 20
55.6672479865
 11
-33.5151095609
 21
55.6709868966
  0
LINE
  5
47B
100
AcDbEntity
  8
DRAFT
100
AcDbLine
 62
7
  6
CONTINUOUS
 10
33.7628535964
 20
55.6672479865
 11
33.6848904391
 21
55.6709868966
  0
LINE
  5
47C
100
AcDbEntity
  8
DRAFT
100
AcDbLine
 62
7
  6
CONTINUOUS
 10
34.4628535964
 20
55.6672479865
 11
34.3848904391
 21
55.6709868966
  0
LWPOLYLINE
  5
47D
100
AcDbEntity
  8
RACCORDO
100
AcDbPolyline
 62
253
  6
CONTINUOUS
 90
3
 70
0
 10
31.5242727159
 20
54.1130938072
 10
31.5186816954
 20
54.113754896
 10
31.4980581243
 20
54.1148275118
  0
LWPOLYLINE
  5
47E
100
AcDbEntity
  8
RACCORDO
100
AcDbPolyline
 62
253
  6
CONTINUOUS
 90
3
 70
0
 10
31.5779022127
 20
54.5681275613
 10
31.5650825735
 20
54.5698969659
 10
31.5442246992
 20
54.5709940867
  0
LINE
  5
47F
100
AcDbEntity
  8
RACCORDO
100
AcDbLine
 62
253
  6
CONTINUOUS
 10
7.4456519372
 20
54.3312842703
 11
7.2486903866
 21
54.3660086164
  0
LINE
  5
480
100
AcDbEntity
  8
RACCORDO
100
AcDbLine
 62
253
  6
CONTINUOUS
 10
7.4617795526
 20
54.4227624551
 11
7.264818002
 21
54.4574868012
  0
LWPOLYLINE
  5
481
100
AcDbEntity
  8
RACCORDO
100
AcDbPolyline
 62
7
  6
CONTINUOUS
 90
5
 70
0
 10
31.6441245688
 20
54.5442218122
 10
31.6254641792
 20
54.5537235401
 10
31.6059244349
 20
54.5612186868
 10
31.5857244931
 20
54.5666278163
 10
31.5779022127
 20
54.5681275613
  0
LWPOLYLINE
  5
482
100
AcDbEntity
  8
RACCORDO
100
AcDbPolyline
 62
7
  6
CONTINUOUS
 90
7
 70
0
 10
31.6315117858
 20
54.0637399167
 10
31.6151877249
 20
54.0768978176
 10
31.597552556
 20
54.0882885442
 10
31.5788216258
 20
54.09776799
 10
31.5592755171
 20
54.1052080419
 10
31.5391621084
 20
54.1105449145
 10
31.5242727159
 20
54.1130938072
  0
LINE
  5
483
100
AcDbEntity
  8
RACCORDO
100
AcDbLine
 62
253
  6
CONTINUOUS
 10
31.5453675891
 20
54.5699696758
 11
31.5442246992
 21
54.5709940867
  0
LINE
  5
484
100
AcDbEntity
  8
RACCORDO
100
AcDbLine
 62
7
  6
CONTINUOUS
 10
31.6463695789
 20
54.048945312
 11
31.6315117858
 21
54.0637399167
  0
LINE
  5
485
100
AcDbEntity
  8
RACCORDO
100
AcDbLine
 62
7
  6
CONTINUOUS
 10
33.1735298508
 20
54.656226497
 11
33.1529949137
 21
54.6766964087
  0
LINE
  5
486
100
AcDbEntity
  8
RACCORDO
100
AcDbLine
 62
7
  6
CONTINUOUS
 10
33.0701046713
 20
54.7596500758
 11
33.0329175509
 21
54.796732739
  0
LINE
  5
487
100
AcDbEntity
  8
RACCORDO
100
AcDbLine
 62
7
  6
CONTINUOUS
 10
33.1529949137
 20
54.6766964087
 11
33.0701046713
 21
54.7596500758
  0
LINE
  5
488
100
AcDbEntity
  8
RACCORDO
100
AcDbLine
 62
7
  6
CONTINUOUS
 10
33.0329175509
 20
54.796732739
 11
33.0207165649
 21
54.8090239586
  0
LINE
  5
489
100
AcDbEntity
  8
RACCORDO
100
AcDbLine
 62
7
  6
CONTINUOUS
 10
33.1828843678
 20
54.6467845667
 11
33.1735298508
 21
54.656226497
  0
LWPOLYLINE
  5
48A
100
AcDbEntity
  8
RACCORDO
100
AcDbPolyline
 62
7
  6
CONTINUOUS
 90
7
 70
0
 10
33.2206861039
 20
54.6090544196
 10
33.2194301874
 20
54.6106384181
 10
33.2164722289
 20
54.61353078
 10
33.2120090183
 20
54.6177315052
 10
33.2062560428
 20
54.6233963067
 10
33.199399188
 20
54.6303694715
 10
33.1828843678
 20
54.6467845667
  0
LWPOLYLINE
  5
48B
100
AcDbEntity
  8
RACCORDO
100
AcDbPolyline
 62
7
  6
CONTINUOUS
 90
6
 70
0
 10
31.7173632209
 20
54.4710261553
 10
31.7059541378
 20
54.4885822922
 10
31.6927729846
 20
54.5048494833
 10
31.67796418
 20
54.5196497785
 10
31.6616897704
 20
54.5328213213
 10
31.6441245688
 20
54.5442218122
  0
ARC
  5
48C
100
AcDbEntity
  8
DRAFT
100
AcDbCircle
 62
7
  6
CONTINUOUS
 10
-39.009078823
 20
40.0777210255
 40
6.4
100
AcDbArc
 50
90.0
 51
270.0
  0
ARC
  5
48D
100
AcDbEntity
  8
DRAFT
100
AcDbCircle
 62
7
  6
CONTINUOUS
 10
-39.009078823
 20
-39.9222789745
 40
6.4
100
AcDbArc
 50
90.0
 51
270.0
  0
ARC
  5
48E
100
AcDbEntity
  8
DRAFT
100
AcDbCircle
 62
7
  6
CONTINUOUS
 10
-39.009078823
 20
40.0777210255
 40
6.3703263896
100
AcDbArc
 50
89.733109627
 51
270.266890373
  0
ARC
  5
48F
100
AcDbEntity
  8
DRAFT
100
AcDbCircle
 62
7
  6
CONTINUOUS
 10
-39.009078823
 20
-39.9222789745
 40
6.3703263896
100
AcDbArc
 50
89.733109627
 51
270.266890373
  0
ARC
  5
490
100
AcDbEntity
  8
DRAFT
100
AcDbCircle
 62
7
  6
CONTINUOUS
 10
-40.509078823
 20
40.0777210255
 40
2.35
100
AcDbArc
 50
70.0313601105
 51
109.9686398895
  0
ARC
  5
491
100
AcDbEntity
  8
DRAFT
100
AcDbCircle
 62
7
  6
CONTINUOUS
 10
-40.509078823
 20
40.0777210255
 40
2.35
100
AcDbArc
 50
250.0313601105
 51
289.9686398895
  0
ARC
  5
492
100
AcDbEntity
  8
DRAFT
100
AcDbCircle
 62
7
  6
CONTINUOUS
 10
-40.509078823
 20
-39.9222789745
 40
2.35
100
AcDbArc
 50
250.0313601105
 51
289.9686398895
  0
ARC
  5
493
100
AcDbEntity
  8
DRAFT
100
AcDbCircle
 62
7
  6
CONTINUOUS
 10
-40.509078823
 20
-39.9222789745
 40
2.35
100
AcDbArc
 50
70.0313601105
 51
109.9686398895
  0
ARC
  5
494
100
AcDbEntity
  8
DRAFT
100
AcDbCircle
 62
7
  6
CONTINUOUS
 10
-40.509078823
 20
40.0777210255
 40
1.65
100
AcDbArc
 50
304.0986720093
 51
55.9013279907
  0
ARC
  5
495
100
AcDbEntity
  8
DRAFT
100
AcDbCircle
 62
7
  6
CONTINUOUS
 10
-40.509078823
 20
40.0777210255
 40
1.65
100
AcDbArc
 50
124.0986720093
 51
235.9013279907
  0
ARC
  5
496
100
AcDbEntity
  8
DRAFT
100
AcDbCircle
 62
7
  6
CONTINUOUS
 10
-40.509078823
 20
-39.9222789745
 40
1.65
100
AcDbArc
 50
304.0986720093
 51
55.9013279907
  0
ARC
  5
497
100
AcDbEntity
  8
DRAFT
100
AcDbCircle
 62
7
  6
CONTINUOUS
 10
-40.509078823
 20
-39.9222789745
 40
1.65
100
AcDbArc
 50
124.0986720093
 51
235.9013279907
  0
CIRCLE
  5
498
100
AcDbEntity
  8
0
100
AcDbCircle
 62
7
  6
CONTINUOUS
 10
-40.509078823
 20
-39.9222789745
 40
1.5
  0
CIRCLE
  5
499
100
AcDbEntity
  8
0
100
AcDbCircle
 62
7
  6
CONTINUOUS
 10
-40.509078823
 20
40.0777210255
 40
1.5
  0
ARC
  5
49A
100
AcDbEntity
  8
0
100
AcDbCircle
 62
7
  6
CONTINUOUS
 10
-40.509078823
 20
-39.9222789745
 40
1.2
100
AcDbArc
 50
255.0
 51
195.0
  0
ARC
  5
49B
100
AcDbEntity
  8
0
100
AcDbCircle
 62
7
  6
CONTINUOUS
 10
-40.509078823
 20
40.0777210255
 40
1.2
100
AcDbArc
 50
255.0
 51
195.0
  0
ELLIPSE
  5
49C
100
AcDbEntity
  8
RACCORDO
100
AcDbEllipse
 62
7
  6
CONTINUOUS
 10
33.0207165649
 20
-54.4535514421
 30
0.0
 11
0.2
 21
-0.0
 31
0.0
 40
0.0174550649
 41
-0.0174532925
 42
0.0174532925
  0
ELLIPSE
  5
49D
100
AcDbEntity
  8
RACCORDO
100
AcDbEllipse
 62
7
  6
CONTINUOUS
 10
-33.0388742109
 20
54.608993493
 30
0.0
 11
0.2
 21
0.0
 31
0.0
 40
0.0174550649
 41
3.1241393611
 42
3.1590459461
  0
ELLIPSE
  5
49E
100
AcDbEntity
  8
RACCORDO
100
AcDbEllipse
 62
7
  6
CONTINUOUS
 10
32.8984176375
 20
-53.7597449694
 30
0.0
 11
0.0
 21
0.2
 31
0.0
 40
0.0174550649
 41
1.5707963268
 42
3.1241393611
  0
ELLIPSE
  5
49F
100
AcDbEntity
  8
RACCORDO
100
AcDbEllipse
 62
7
  6
CONTINUOUS
 10
-32.9165752835
 20
-53.7597449694
 30
0.0
 11
0.0
 21
0.2
 31
0.0
 40
0.0174550649
 41
-2.3995759113
 42
-1.5707963268
  0
ELLIPSE
  5
4A0
100
AcDbEntity
  8
RACCORDO
100
AcDbEllipse
 62
7
  6
CONTINUOUS
 10
-33.0388742109
 20
-54.4535514421
 30
0.0
 11
0.2
 21
0.0
 31
0.0
 40
0.0174550649
 41
3.1241393611
 42
3.1590459461
  0
ELLIPSE
  5
4A1
100
AcDbEntity
  8
RACCORDO
100
AcDbEllipse
 62
7
  6
CONTINUOUS
 10
33.0207165649
 20
54.608993493
 30
0.0
 11
0.2
 21
-0.0
 31
0.0
 40
0.0174550649
 41
-0.0174532925
 42
0.0174532925
  0
ELLIPSE
  5
4A2
100
AcDbEntity
  8
RACCORDO
100
AcDbEllipse
 62
7
  6
CONTINUOUS
 10
35.5339086854
 20
29.2715046916
 30
0.0
 11
0.2
 21
-0.0
 31
0.0
 40
0.1405408347
 41
0.0174532925
 42
1.5707963268
  0
ELLIPSE
  5
4A3
100
AcDbEntity
  8
RACCORDO
100
AcDbEllipse
 62
7
  6
CONTINUOUS
 10
35.5339086854
 20
-51.1160626406
 30
0.0
 11
0.2
 21
-0.0
 31
0.0
 40
0.1405408347
 41
-1.5707963268
 42
-0.0174532925
  0
ELLIPSE
  5
4A4
100
AcDbEntity
  8
RACCORDO
100
AcDbEllipse
 62
7
  6
CONTINUOUS
 10
-35.5520663314
 20
49.2715046916
 30
0.0
 11
0.2
 21
-0.0
 31
0.0
 40
0.1405408347
 41
1.5707963268
 42
3.1241393611
  0
ELLIPSE
  5
4A5
100
AcDbEntity
  8
RACCORDO
100
AcDbEllipse
 62
7
  6
CONTINUOUS
 10
-35.5520663314
 20
-49.1160626406
 30
0.0
 11
0.2
 21
-0.0
 31
0.0
 40
0.1405408347
 41
-3.1241393611
 42
-1.5707963268
  0
ELLIPSE
  5
4A6
100
AcDbEntity
  8
RACCORDO
100
AcDbEllipse
 62
7
  6
CONTINUOUS
 10
-35.5712669028
 20
-55.3344670544
 30
0.0
 11
0.1414644378
 21
0.1414644378
 31
0.0
 40
0.9996954599
 41
-3.9268385237
 42
-2.3563467834
  0
ELLIPSE
  5
4A7
100
AcDbEntity
  8
RACCORDO
100
AcDbEllipse
 62
7
  6
CONTINUOUS
 10
-35.5520663314
 20
-50.7284953084
 30
0.0
 11
0.2
 21
-0.0
 31
0.0
 40
0.1405408347
 41
1.5707963268
 42
3.1241393611
  0
ELLIPSE
  5
4A8
100
AcDbEntity
  8
RACCORDO
100
AcDbEllipse
 62
7
  6
CONTINUOUS
 10
-35.5712669028
 20
55.4899091053
 30
0.0
 11
0.1414644378
 21
-0.1414644378
 31
0.0
 40
0.9996954599
 41
2.3563467834
 42
3.9268385237
  0
ELLIPSE
  5
4A9
100
AcDbEntity
  8
RACCORDO
100
AcDbEllipse
 62
7
  6
CONTINUOUS
 10
-35.5520663314
 20
50.8839373594
 30
0.0
 11
0.2
 21
0.0
 31
0.0
 40
0.1405408347
 41
-3.1241393611
 42
-1.5707963268
  0
ELLIPSE
  5
4AA
100
AcDbEntity
  8
DRAFT
100
AcDbEllipse
 62
7
  6
CONTINUOUS
 10
34.290921177
 20
55.6703898982
 30
0.0
 11
0.1
 21
0.0
 31
0.0
 40
0.0174550649
 41
0.3490658504
 42
2.7925268032
  0
ELLIPSE
  5
4AB
100
AcDbEntity
  8
DRAFT
100
AcDbEllipse
 62
7
  6
CONTINUOUS
 10
33.590921177
 20
55.6703898982
 30
0.0
 11
0.1
 21
0.0
 31
0.0
 40
0.0174550649
 41
0.3490658504
 42
2.7925268032
  0
ELLIPSE
  5
4AC
100
AcDbEntity
  8
RACCORDO
100
AcDbEllipse
 62
7
  6
CONTINUOUS
 10
32.7898701303
 20
55.5767461428
 30
0.0
 11
0.5
 21
0.0
 31
0.0
 40
0.0174550649
 41
5.7519026441
 42
6.2657320147
  0
ELLIPSE
  5
4AD
100
AcDbEntity
  8
RACCORDO
100
AcDbEllipse
 62
7
  6
CONTINUOUS
 10
-32.8080277763
 20
55.5767461428
 30
0.0
 11
0.5
 21
-0.0
 31
0.0
 40
0.0174550649
 41
-3.1241393611
 42
-2.6103099891
  0
ELLIPSE
  5
4AE
100
AcDbEntity
  8
DRAFT
100
AcDbEllipse
 62
7
  6
CONTINUOUS
 10
-33.609078823
 20
55.6703898982
 30
0.0
 11
0.1
 21
0.0
 31
0.0
 40
0.0174550649
 41
0.3490658504
 42
2.7925268032
  0
ELLIPSE
  5
4AF
100
AcDbEntity
  8
DRAFT
100
AcDbEllipse
 62
7
  6
CONTINUOUS
 10
-34.309078823
 20
55.6703898982
 30
0.0
 11
0.1
 21
0.0
 31
0.0
 40
0.0174550649
 41
0.3490658504
 42
2.7925268032
  0
ELLIPSE
  5
4B0
100
AcDbEntity
  8
DRAFT
100
AcDbEllipse
 62
7
  6
CONTINUOUS
 10
-34.309078823
 20
-55.5149478472
 30
0.0
 11
0.1
 21
0.0
 31
0.0
 40
0.0174550649
 41
-2.7925268032
 42
-0.3490658504
  0
ELLIPSE
  5
4B1
100
AcDbEntity
  8
DRAFT
100
AcDbEllipse
 62
7
  6
CONTINUOUS
 10
-33.609078823
 20
-55.5149478472
 30
0.0
 11
0.1
 21
0.0
 31
0.0
 40
0.0174550649
 41
-2.7925268032
 42
-0.3490658504
  0
ELLIPSE
  5
4B2
100
AcDbEntity
  8
RACCORDO
100
AcDbEllipse
 62
7
  6
CONTINUOUS
 10
-32.8080277763
 20
-55.4213040918
 30
0.0
 11
0.5
 21
0.0
 31
0.0
 40
0.0174550649
 41
8.8934952963
 42
9.4073246682
  0
ELLIPSE
  5
4B3
100
AcDbEntity
  8
RACCORDO
100
AcDbEllipse
 62
7
  6
CONTINUOUS
 10
32.7898701303
 20
-55.4213040918
 30
0.0
 11
0.5
 21
0.0
 31
0.0
 40
0.0174550649
 41
0.0174532925
 42
0.5312826631
  0
ELLIPSE
  5
4B4
100
AcDbEntity
  8
DRAFT
100
AcDbEllipse
 62
7
  6
CONTINUOUS
 10
33.590921177
 20
-55.5149478472
 30
0.0
 11
0.1
 21
0.0
 31
0.0
 40
0.0174550649
 41
-2.7925268032
 42
-0.3490658504
  0
ELLIPSE
  5
4B5
100
AcDbEntity
  8
DRAFT
100
AcDbEllipse
 62
7
  6
CONTINUOUS
 10
34.290921177
 20
-55.5149478472
 30
0.0
 11
0.1
 21
0.0
 31
0.0
 40
0.0174550649
 41
-2.7925268032
 42
-0.3490658504
  0
ELLIPSE
  5
4B6
100
AcDbEntity
  8
RACCORDO
100
AcDbEllipse
 62
7
  6
CONTINUOUS
 10
35.5339086854
 20
-52.7284953084
 30
0.0
 11
0.2
 21
-0.0
 31
0.0
 40
0.1405408347
 41
0.0174532925
 42
1.5707963268
  0
ELLIPSE
  5
4B7
100
AcDbEntity
  8
RACCORDO
100
AcDbEllipse
 62
7
  6
CONTINUOUS
 10
35.5531092568
 20
-55.3344670544
 30
0.0
 11
0.1414644378
 21
-0.1414644378
 31
0.0
 40
0.9996954599
 41
-0.7852458701
 42
0.7852458701
  0
ELLIPSE
  5
4B8
100
AcDbEntity
  8
RACCORDO
100
AcDbEllipse
 62
7
  6
CONTINUOUS
 10
35.5339086854
 20
30.8839373594
 30
0.0
 11
0.2
 21
-0.0
 31
0.0
 40
0.1405408347
 41
-1.5707963268
 42
-0.0174532925
  0
ELLIPSE
  5
4B9
100
AcDbEntity
  8
RACCORDO
100
AcDbEllipse
 62
7
  6
CONTINUOUS
 10
35.5531092568
 20
55.4899091053
 30
0.0
 11
0.1414644378
 21
0.1414644378
 31
0.0
 40
0.9996954599
 41
-0.7852458701
 42
0.7852458701
  0
ELLIPSE
  5
4BA
100
AcDbEntity
  8
RACCORDO
100
AcDbEllipse
 62
7
  6
CONTINUOUS
 10
-41.3079328717
 20
36.1788669767
 30
0.0
 11
0.2137495824
 21
0.2137495824
 31
0.0
 40
0.9924325091
 41
-3.9231927187
 42
-2.3599925885
  0
ELLIPSE
  5
4BB
100
AcDbEntity
  8
RACCORDO
100
AcDbEllipse
 62
7
  6
CONTINUOUS
 10
-39.7102247743
 20
36.1788669767
 30
0.0
 11
0.2137495824
 21
-0.2137495824
 31
0.0
 40
0.9924325091
 41
-0.7816000651
 42
0.7816000651
  0
ELLIPSE
  5
4BC
100
AcDbEntity
  8
RACCORDO
100
AcDbEllipse
 62
7
  6
CONTINUOUS
 10
-39.7102247743
 20
43.9765750742
 30
0.0
 11
0.2137495824
 21
0.2137495824
 31
0.0
 40
0.9924325091
 41
-0.7816000651
 42
0.7816000651
  0
ELLIPSE
  5
4BD
100
AcDbEntity
  8
RACCORDO
100
AcDbEllipse
 62
7
  6
CONTINUOUS
 10
-41.3079328717
 20
43.9765750742
 30
0.0
 11
0.2137495824
 21
-0.2137495824
 31
0.0
 40
0.9924325091
 41
2.3599925885
 42
3.9231927187
  0
ELLIPSE
  5
4BE
100
AcDbEntity
  8
RACCORDO
100
AcDbEllipse
 62
7
  6
CONTINUOUS
 10
-39.7102247743
 20
-43.8211330233
 30
0.0
 11
0.2137495824
 21
-0.2137495824
 31
0.0
 40
0.9924325091
 41
-0.7816000651
 42
0.7816000651
  0
ELLIPSE
  5
4BF
100
AcDbEntity
  8
RACCORDO
100
AcDbEllipse
 62
7
  6
CONTINUOUS
 10
-41.3079328717
 20
-43.8211330233
 30
0.0
 11
0.2137495824
 21
0.2137495824
 31
0.0
 40
0.9924325091
 41
2.3599925885
 42
3.9231927187
  0
ELLIPSE
  5
4C0
100
AcDbEntity
  8
RACCORDO
100
AcDbEllipse
 62
7
  6
CONTINUOUS
 10
-39.7102247743
 20
-36.0234249258
 30
0.0
 11
0.2137495824
 21
0.2137495824
 31
0.0
 40
0.9924325091
 41
-0.7816000651
 42
0.7816000651
  0
ELLIPSE
  5
4C1
100
AcDbEntity
  8
RACCORDO
100
AcDbEllipse
 62
7
  6
CONTINUOUS
 10
-41.3079328717
 20
-36.0234249258
 30
0.0
 11
0.2137495824
 21
-0.2137495824
 31
0.0
 40
0.9924325091
 41
2.3599925885
 42
3.9231927187
  0
ELLIPSE
  5
4C2
100
AcDbEntity
  8
RACCORDO
100
AcDbEllipse
 62
7
  6
CONTINUOUS
 10
-38.4793290486
 20
56.7979712511
 30
0.0
 11
0.3536610946
 21
-0.3536610946
 31
0.0
 40
0.9996954599
 41
2.3563467834
 42
3.9268385237
  0
ELLIPSE
  5
4C3
100
AcDbEntity
  8
RACCORDO
100
AcDbEllipse
 62
7
  6
CONTINUOUS
 10
-38.4793290486
 20
-56.6425292001
 30
0.0
 11
-0.3536610946
 21
-0.3536610946
 31
0.0
 40
0.9996954599
 41
-0.7852458701
 42
0.7852458701
  0
ELLIPSE
  5
4C4
100
AcDbEntity
  8
RACCORDO
100
AcDbEllipse
 62
7
  6
CONTINUOUS
 10
-41.0104714157
 20
36.4763284327
 30
0.0
 11
0.2137495824
 21
0.2137495824
 31
0.0
 40
0.9924325091
 41
2.3599925885
 42
3.9231927187
  0
ELLIPSE
  5
4C5
100
AcDbEntity
  8
RACCORDO
100
AcDbEllipse
 62
7
  6
CONTINUOUS
 10
-40.0076862302
 20
36.4763284327
 30
0.0
 11
-0.2137495824
 21
0.2137495824
 31
0.0
 40
0.9924325091
 41
2.3599925885
 42
3.9231927187
  0
ELLIPSE
  5
4C6
100
AcDbEntity
  8
RACCORDO
100
AcDbEllipse
 62
7
  6
CONTINUOUS
 10
-40.0076862302
 20
43.6791136182
 30
0.0
 11
-0.2137495824
 21
-0.2137495824
 31
0.0
 40
0.9924325091
 41
2.3599925885
 42
3.9231927187
  0
ELLIPSE
  5
4C7
100
AcDbEntity
  8
RACCORDO
100
AcDbEllipse
 62
7
  6
CONTINUOUS
 10
-41.0104714157
 20
43.6791136182
 30
0.0
 11
0.2137495824
 21
-0.2137495824
 31
0.0
 40
0.9924325091
 41
2.3599925885
 42
3.9231927187
  0
ELLIPSE
  5
4C8
100
AcDbEntity
  8
RACCORDO
100
AcDbEllipse
 62
7
  6
CONTINUOUS
 10
-40.0076862302
 20
-43.5236715673
 30
0.0
 11
-0.2137495824
 21
0.2137495824
 31
0.0
 40
0.9924325091
 41
2.3599925885
 42
3.9231927187
  0
ELLIPSE
  5
4C9
100
AcDbEntity
  8
RACCORDO
100
AcDbEllipse
 62
7
  6
CONTINUOUS
 10
-41.0104714157
 20
-43.5236715673
 30
0.0
 11
0.2137495824
 21
0.2137495824
 31
0.0
 40
0.9924325091
 41
2.3599925885
 42
3.9231927187
  0
ELLIPSE
  5
4CA
100
AcDbEntity
  8
RACCORDO
100
AcDbEllipse
 62
7
  6
CONTINUOUS
 10
-40.0076862302
 20
-36.3208863818
 30
0.0
 11
-0.2137495824
 21
-0.2137495824
 31
0.0
 40
0.9924325091
 41
2.3599925885
 42
3.9231927187
  0
ELLIPSE
  5
4CB
100
AcDbEntity
  8
RACCORDO
100
AcDbEllipse
 62
7
  6
CONTINUOUS
 10
-41.0104714157
 20
-36.3208863818
 30
0.0
 11
0.2137495824
 21
-0.2137495824
 31
0.0
 40
0.9924325091
 41
2.3599925885
 42
3.9231927187
  0
ELLIPSE
  5
4CC
100
AcDbEntity
  8
RACCORDO
100
AcDbEllipse
 62
7
  6
CONTINUOUS
 10
36.9786264675
 20
56.815426316
 30
0.0
 11
0.3536610946
 21
0.3536610946
 31
0.0
 40
0.9996954599
 41
-0.7852458701
 42
0.7852458701
  0
ELLIPSE
  5
4CD
100
AcDbEntity
  8
RACCORDO
100
AcDbEllipse
 62
7
  6
CONTINUOUS
 10
35.9786264675
 20
-56.659984265
 30
0.0
 11
0.3536610946
 21
-0.3536610946
 31
0.0
 40
0.9996954599
 41
-0.7852458701
 42
0.7852458701
  0
ENDSEC
  0
SECTION
  2
OBJECTS
  0
DICTIONARY
  5
C
100
AcDbDictionary
280
0
281
1
  3
ACAD_GROUP
350
D
  3
ACAD_MLINESTYLE
350
17
  3
ACAD_LAYOUT
350
1A
  3
ACAD_PLOTSETTINGS
350
19
  3
ACAD_PLOTSTYLENAME
350
E
  0
DICTIONARY
  5
D
102
{ACAD_REACTORS
330
C
102
}
100
AcDbDictionary
280
0
281
1
  0
ACDBDICTIONARYWDFLT
  5
E
102
{ACAD_REACTORS
330
C
102
}
100
AcDbDictionary
281
1
  3
Normal
350
F
100
AcDbDictionaryWithDefault
340
F
  0
DICTIONARY
  5
17
102
{ACAD_REACTORS
330
C
102
}
100
AcDbDictionary
280
0
281
1
  3
Standard
350
18
  0
DICTIONARY
  5
19
102
{ACAD_REACTORS
330
C
102
}
100
AcDbDictionary
281
1
  0
DICTIONARY
  5
1A
102
{ACAD_REACTORS
330
C
102
}
100
AcDbDictionary
281
1
  3
Model
350
4CE
  3
Layout1
350
4CF
  0
ACDBPLACEHOLDER
  5
F
102
{ACAD_REACTORS
330
E
102
}
  0
MLINESTYLE
  5
18
102
{ACAD_REACTORS
330
17
102
}
100
AcDbMlineStyle
  2
STANDARD
 70
0
  3

 62
256
 51
90.0
 52
90.0
 71
2
 49
0.5
 62
256
  6
BYLAYER
 49
-0.5
 62
256
  6
BYLAYER
  0
LAYOUT
  5
4CE
102
{ACAD_REACTORS
330
1A
102
}
100
AcDbPlotSettings
  1

  2
none_device
  4
ISO_A4_(297.00_x_210.00_MM)
  6

 40
0.0
 41
0.0
 42
0.0
 43
0.0
 44
297.0
 45
210.0
 46
0.0
 47
0.0
 48
0.0
 49
0.0
140
0.0
141
0.0
142
1.0
143
1.0
 70
1024
 72
1
 73
0
 74
0
  7

 75
0
147
1.0
148
0.0
149
0.0
100
AcDbLayout
  1
Model
 70
0
 71
0
 10
0.0
 20
0.0
 11
297.0
 21
210.0
 12
0.0
 22
0.0
 32
0.0
 14
0.0
 24
0.0
 34
0.0
 15
0.0
 25
0.0
 35
0.0
146
0.0
 13
0.0
 23
0.0
 33
0.0
 16
1.0
 26
0.0
 36
0.0
 17
0.0
 27
1.0
 37
0.0
 76
0
330
212
345
0
346
0
  0
LAYOUT
  5
4CF
102
{ACAD_REACTORS
330
1A
102
}
100
AcDbPlotSettings
  1

  2
none_device
  4
ISO_A4_(297.00_x_210.00_MM)
  6

 40
0.0
 41
0.0
 42
0.0
 43
0.0
 44
297.0
 45
210.0
 46
0.0
 47
0.0
 48
0.0
 49
0.0
140
0.0
141
0.0
142
1.0
143
1.0
 70
0
 72
1
 73
0
 74
0
  7

 75
0
147
1.0
148
0.0
149
0.0
100
AcDbLayout
  1
Layout1
 70
0
 71
1
 10
0.0
 20
0.0
 11
297.0
 21
210.0
 12
0.0
 22
0.0
 32
0.0
 14
0.0
 24
0.0
 34
0.0
 15
0.0
 25
0.0
 35
0.0
146
0.0
 13
0.0
 23
0.0
 33
0.0
 16
1.0
 26
0.0
 36
0.0
 17
0.0
 27
1.0
 37
0.0
 76
0
330
213
345
0
346
0
  0
ENDSEC
  0
EOF
