  0
SECTION
  2
HEADER
  9
$ACADVER
  1
AC1015
  9
$DWGCODEPAGE
  3
ANSI_1252
  9
$EXTMAX
 10
210.0
 20
297.0
 30
0.0
  9
$EXTMIN
 10
0.0
 20
0.0
 30
0.0
  9
$LIMMIN
 10
0.0
 20
0.0
  9
$LIMMAX
 10
210.0
 20
297.0
  9
$VIEWCTR
 10
105.0
 20
148.5
  9
$VIEWSIZE
 40
297.0
  9
$CLAYER
  8
0
  9
$LTSCALE
 40
19.36
  9
$CELTYPE
  6
BYLAYER
  9
$DIMSCALE
 40
1.0
  9
$DIMASZ
 40
3.0
  9
$DIMEXO
 40
0.5
  9
$DIMDLI
 40
13.376
  9
$DIMEXE
 40
1.5
  9
$DIMCEN
 40
3.168
  9
$DIMLFAC
 40
1.0
  9
$DIMBLK
  1
_FILLED
  9
$DIMALT
 70
0
  9
$DIMALTF
 40
0.0393700787
  9
$DIMTXT
 40
3.0
  9
$DIMTOL
 70
1
  9
$DIMLIM
 70
0
  9
$DIMTFAC
 40
1.0
  9
$DIMTP
 40
0.01
  9
$DIMTM
 40
0.01
  9
$DIMGAP
 40
0.625
  9
$DIMDSEP
 70
44
  9
$AUNITS
 70
0
  9
$PDMODE
 70
3
  9
$PDSIZE
 40
3.0
  9
$HANDSEED
  5
420
  9
$TILEMODE
 70
1
  9
$MEASUREMENT
 70
1
  9
$INSUNITS
 70
4
  0
ENDSEC
  0
SECTION
  2
CLASSES
  0
CLASS
  1
ACDBDICTIONARYWDFLT
  2
AcDbDictionaryWithDefault
  3
AutoCAD 2000
 90
0
280
0
281
0
  0
CLASS
  1
ACDBPLACEHOLDER
  2
AcDbPlaceHolder
  3
AutoCAD 2000
 90
0
280
0
281
0
  0
CLASS
  1
LAYOUT
  2
AcDbLayout
  3
AutoCAD 2000
 90
0
280
0
281
0
  0
ENDSEC
  0
SECTION
  2
TABLES
  0
TABLE
  2
VPORT
  5
8
100
AcDbSymbolTable
 70
2
  0
VPORT
  5
1F4
100
AcDbSymbolTableRecord
100
AcDbViewportTableRecord
  2
*ACTIVE
 70
0
 10
0.0
 20
0.0
 11
1.0
 21
1.0
 12
105.0
 22
148.5
 13
0.0
 23
0.0
 14
1.0
 24
1.0
 15
0.0
 25
0.0
 16
0.0
 26
0.0
 36
1.0
 17
0.0
 27
0.0
 37
0.0
 40
297.0
 41
0.7070707071
 42
50.0
 43
0.0
 44
0.0
 50
0.0
 51
0.0
 71
0
 72
100
 73
1
 74
1
 75
0
 76
0
 77
0
 78
0
  0
ENDTAB
  0
TABLE
  2
LTYPE
  5
5
100
AcDbSymbolTable
 70
6
  0
LTYPE
  5
14
100
AcDbSymbolTableRecord
100
AcDbLinetypeTableRecord
  2
BYBLOCK
 70
0
  3

 72
65
 73
0
 40
0.0
  0
LTYPE
  5
15
100
AcDbSymbolTableRecord
100
AcDbLinetypeTableRecord
  2
BYLAYER
 70
0
  3

 72
65
 73
0
 40
0.0
  0
LTYPE
  5
16
100
AcDbSymbolTableRecord
100
AcDbLinetypeTableRecord
  2
CONTINUOUS
 70
64
  3
Solid line
 72
65
 73
0
 40
0.0
  0
LTYPE
  5
1F5
100
AcDbSymbolTableRecord
100
AcDbLinetypeTableRecord
  2
CENTER
 70
64
  3
____ _ ____ _ ____ _ ____ _ ____ _ ____ _ ____
 72
65
 73
4
 40
0.6
 49
0.375
 74
0
 49
-0.075
 74
0
 49
0.075
 74
0
 49
-0.075
 74
0
  0
LTYPE
  5
1F6
100
AcDbSymbolTableRecord
100
AcDbLinetypeTableRecord
  2
HIDDEN
 70
64
  3
- - - - - - - - - - - - - - - - - - - -
 72
65
 73
2
 40
0.2
 49
0.1
 74
0
 49
-0.1
 74
0
  0
LTYPE
  5
1F7
100
AcDbSymbolTableRecord
100
AcDbLinetypeTableRecord
  2
PHANTOM
 70
64
  3
_____ _ _ _____ _ _ _____ _ _ _____
 72
65
 73
6
 40
0.8
 49
0.45
 74
0
 49
-0.05
 74
0
 49
0.1
 74
0
 49
-0.05
 74
0
 49
0.1
 74
0
 49
-0.05
 74
0
  0
LTYPE
  5
1F8
100
AcDbSymbolTableRecord
100
AcDbLinetypeTableRecord
  2
DOT
 70
64
  3
. . . . . . . . . . . . . . . . . . . .
 72
65
 73
2
 40
0.2
 49
0.1
 74
0
 49
-0.1
 74
0
  0
LTYPE
  5
1F9
100
AcDbSymbolTableRecord
100
AcDbLinetypeTableRecord
  2
DASHED
 70
64
  3
- - - - - - - - - - - - - - - - - - - -
 72
65
 73
2
 40
0.2
 49
0.1
 74
0
 49
-0.1
 74
0
  0
ENDTAB
  0
TABLE
  2
LAYER
  5
2
100
AcDbSymbolTable
 70
36
  0
LAYER
  5
10
100
AcDbSymbolTableRecord
100
AcDbLayerTableRecord
  2
0
 70
0
 62
7
  6
CONTINUOUS
370
-3
390
F
  0
LAYER
  5
1FA
100
AcDbSymbolTableRecord
100
AcDbLayerTableRecord
  2
DEFAULT_1
 70
0
 62
7
  6
CENTER
370
-3
390
F
  0
LAYER
  5
1FB
100
AcDbSymbolTableRecord
100
AcDbLayerTableRecord
  2
DEFAULT_2
 70
0
 62
7
  6
HIDDEN
370
-3
390
F
  0
LAYER
  5
1FC
100
AcDbSymbolTableRecord
100
AcDbLayerTableRecord
  2
DEFAULT_3
 70
0
 62
7
  6
PHANTOM
370
-3
390
F
  0
LAYER
  5
1FD
100
AcDbSymbolTableRecord
100
AcDbLayerTableRecord
  2
ASSI
 70
0
 62
7
  6
CONTINUOUS
370
-3
390
F
  0
LAYER
  5
1FE
100
AcDbSymbolTableRecord
100
AcDbLayerTableRecord
  2
COORDINATE
 70
0
 62
7
  6
CONTINUOUS
370
-3
390
F
  0
LAYER
  5
1FF
100
AcDbSymbolTableRecord
100
AcDbLayerTableRecord
  2
COPY_PUBLISH
 70
0
 62
7
  6
CONTINUOUS
370
-3
390
F
  0
LAYER
  5
200
100
AcDbSymbolTableRecord
100
AcDbLayerTableRecord
  2
COSMETICI
 70
0
 62
7
  6
CONTINUOUS
370
-3
390
F
  0
LAYER
  5
201
100
AcDbSymbolTableRecord
100
AcDbLayerTableRecord
  2
CURVE
 70
0
 62
7
  6
CONTINUOUS
370
-3
390
F
  0
LAYER
  5
202
100
AcDbSymbolTableRecord
100
AcDbLayerTableRecord
  2
DRAFT
 70
0
 62
7
  6
CONTINUOUS
370
-3
390
F
  0
LAYER
  5
203
100
AcDbSymbolTableRecord
100
AcDbLayerTableRecord
  2
IMPORT_IGES
 70
0
 62
7
  6
CONTINUOUS
370
-3
390
F
  0
LAYER
  5
204
100
AcDbSymbolTableRecord
100
AcDbLayerTableRecord
  2
NOTE
 70
0
 62
7
  6
CONTINUOUS
370
-3
390
F
  0
LAYER
  5
205
100
AcDbSymbolTableRecord
100
AcDbLayerTableRecord
  2
PIANI
 70
0
 62
7
  6
CONTINUOUS
370
-3
390
F
  0
LAYER
  5
206
100
AcDbSymbolTableRecord
100
AcDbLayerTableRecord
  2
PUNTI
 70
0
 62
7
  6
CONTINUOUS
370
-3
390
F
  0
LAYER
  5
207
100
AcDbSymbolTableRecord
100
AcDbLayerTableRecord
  2
RACCORDO
 70
0
 62
7
  6
CONTINUOUS
370
-3
390
F
  0
LAYER
  5
208
100
AcDbSymbolTableRecord
100
AcDbLayerTableRecord
  2
SIMBOLI
 70
0
 62
7
  6
CONTINUOUS
370
-3
390
F
  0
LAYER
  5
209
100
AcDbSymbolTableRecord
100
AcDbLayerTableRecord
  2
SMUSSO
 70
0
 62
7
  6
CONTINUOUS
370
-3
390
F
  0
LAYER
  5
20A
100
AcDbSymbolTableRecord
100
AcDbLayerTableRecord
  2
SNAPLINE
 70
0
 62
7
  6
CONTINUOUS
370
-3
390
F
  0
LAYER
  5
20B
100
AcDbSymbolTableRecord
100
AcDbLayerTableRecord
  2
SUPERFICI
 70
0
 62
7
  6
CONTINUOUS
370
-3
390
F
  0
LAYER
  5
20C
100
AcDbSymbolTableRecord
100
AcDbLayerTableRecord
  2
TRASH
 70
0
 62
7
  6
CONTINUOUS
370
-3
390
F
  0
ENDTAB
  0
TABLE
  2
STYLE
  5
3
100
AcDbSymbolTable
 70
1
  0
STYLE
  5
11
100
AcDbSymbolTableRecord
100
AcDbTextStyleTableRecord
  2
STANDARD
 70
0
 40
0.0
 41
0.8
 50
0.0
 71
0
 42
0.2
  3
txt
  4

  0
STYLE
  5
20D
100
AcDbSymbolTableRecord
100
AcDbTextStyleTableRecord
  2
TEXTSTYLE_1
 70
0
 40
0.0
 41
0.8
 50
0.0
 71
0
 42
0.2
  3
gdt
  4

  0
ENDTAB
  0
TABLE
  2
VIEW
  5
6
100
AcDbSymbolTable
 70
0
  0
ENDTAB
  0
TABLE
  2
UCS
  5
7
100
AcDbSymbolTable
 70
0
  0
ENDTAB
  0
TABLE
  2
APPID
  5
9
100
AcDbSymbolTable
 70
1
  0
APPID
  5
20E
100
AcDbSymbolTableRecord
100
AcDbRegAppTableRecord
  2
ACAD
 70
0
  0
ENDTAB
  0
TABLE
  2
BLOCK_RECORD
  5
1
100
AcDbSymbolTable
 70
0
  0
BLOCK_RECORD
  5
20F
100
AcDbSymbolTableRecord
100
AcDbBlockTableRecord
  2
*Model_Space
  0
BLOCK_RECORD
  5
210
100
AcDbSymbolTableRecord
100
AcDbBlockTableRecord
  2
*Paper_Space
  0
ENDTAB
  0
TABLE
  2
DIMSTYLE
  5
A
100
AcDbSymbolTable
 70
1
100
AcDbDimStyleTable
 71
0
  0
DIMSTYLE
105
211
100
AcDbSymbolTableRecord
100
AcDbDimStyleTableRecord
  2
STANDARD
 70
0
  3

  4

 40
1.0
 41
3.0
 42
0.5
 43
0.38
 44
1.5
 45
0.0
 46
0.0
 47
0.01
 48
0.01
140
3.0
141
0.09
142
0.0
143
25.4
144
1.0
145
0.0
146
1.0
147
0.625
 71
1.0
 72
0.0
 73
0
 74
0
 75
0
 76
0
 77
1
 78
8
170
0
171
2
172
0
173
0
174
0
175
0
176
0
177
0
178
0
270
2
271
2
272
2
273
2
274
2
275
0
280
0
281
0
282
0
283
1
284
8
285
0
286
0
287
3
288
0
340
11
278
44
  0
ENDTAB
  0
ENDSEC
  0
SECTION
  2
BLOCKS
  0
BLOCK
  5
20
100
AcDbEntity
  8
0
100
AcDbBlockBegin
  2
*Model_Space
 70
0
 10
0.0
 20
0.0
 30
0.0
  3
*Model_Space
  1

  0
ENDBLK
  5
21
100
AcDbEntity
  8
0
100
AcDbBlockEnd
  0
BLOCK
  5
1C
100
AcDbEntity
  8
0
100
AcDbBlockBegin
  2
*Paper_Space
 70
0
 10
0.0
 20
0.0
 30
0.0
  3
*Paper_Space
  1

  0
ENDBLK
  5
1D
100
AcDbEntity
  8
0
100
AcDbBlockEnd
  0
ENDSEC
  0
SECTION
  2
ENTITIES
  0
LINE
  5
212
100
AcDbEntity
  8
0
100
AcDbLine
 62
7
  6
CONTINUOUS
 10
7.1498852097
 20
-4.0531680381
 11
9.0500292343
 21
-3.7808030349
  0
LINE
  5
213
100
AcDbEntity
  8
0
100
AcDbLine
 62
7
  6
CONTINUOUS
 10
-0.101973462
 20
-0.3398039898
 11
1.2313640664
 21
-0.416696011
  0
LINE
  5
214
100
AcDbEntity
  8
0
100
AcDbLine
 62
7
  6
CONTINUOUS
 10
1.2313640664
 20
-0.416696011
 11
2.4429648537
 21
-1.0299798196
  0
LINE
  5
215
100
AcDbEntity
  8
0
100
AcDbLine
 62
7
  6
CONTINUOUS
 10
4.9326022046
 20
-2.8952036928
 11
7.1498852097
 21
-4.0531680381
  0
LINE
  5
216
100
AcDbEntity
  8
0
100
AcDbLine
 62
7
  6
CONTINUOUS
 10
-0.4199707658
 20
36.5508846999
 11
-0.0699707658
 21
36.9008846999
  0
LINE
  5
217
100
AcDbEntity
  8
0
100
AcDbLine
 62
7
  6
CONTINUOUS
 10
0.7800292342
 20
37.6708846999
 11
1.1300292342
 21
38.0208846999
  0
LINE
  5
218
100
AcDbEntity
  8
0
100
AcDbLine
 62
7
  6
CONTINUOUS
 10
2.4429648537
 20
-1.0299798196
 11
3.6730617538
 21
-1.9299805588
  0
LINE
  5
219
100
AcDbEntity
  8
0
100
AcDbLine
 62
7
  6
CONTINUOUS
 10
3.6730617538
 20
-1.9299805588
 11
4.9326022046
 21
-2.8952036928
  0
LINE
  5
21A
100
AcDbEntity
  8
0
100
AcDbLine
 62
7
  6
CONTINUOUS
 10
-0.4199707658
 20
34.0108846999
 11
-0.0699707658
 21
34.3608846999
  0
LINE
  5
21B
100
AcDbEntity
  8
0
100
AcDbLine
 62
7
  6
CONTINUOUS
 10
2.1200292342
 20
36.5508846999
 11
2.4700292342
 21
36.9008846999
  0
LINE
  5
21C
100
AcDbEntity
  8
0
100
AcDbLine
 62
7
  6
CONTINUOUS
 10
0.7800292342
 20
35.1308846999
 11
1.1300292342
 21
35.4808846999
  0
LINE
  5
21D
100
AcDbEntity
  8
0
100
AcDbLine
 62
7
  6
CONTINUOUS
 10
3.3200292342
 20
37.6708846999
 11
3.6700292342
 21
38.0208846999
  0
LINE
  5
21E
100
AcDbEntity
  8
0
100
AcDbLine
 62
7
  6
CONTINUOUS
 10
2.1200292342
 20
34.0108846999
 11
2.4700292342
 21
34.3608846999
  0
LINE
  5
21F
100
AcDbEntity
  8
0
100
AcDbLine
 62
7
  6
CONTINUOUS
 10
4.6600292342
 20
36.5508846999
 11
5.0100292342
 21
36.9008846999
  0
LINE
  5
220
100
AcDbEntity
  8
0
100
AcDbLine
 62
7
  6
CONTINUOUS
 10
3.3200292342
 20
35.1308846999
 11
3.6700292342
 21
35.4808846999
  0
LINE
  5
221
100
AcDbEntity
  8
0
100
AcDbLine
 62
7
  6
CONTINUOUS
 10
5.8600292342
 20
37.6708846999
 11
6.2100292342
 21
38.0208846999
  0
LINE
  5
222
100
AcDbEntity
  8
0
100
AcDbLine
 62
7
  6
CONTINUOUS
 10
-1.7083996523
 20
36.4644718879
 11
-1.6449707658
 21
36.6399205621
  0
LINE
  5
223
100
AcDbEntity
  8
0
100
AcDbLine
 62
7
  6
CONTINUOUS
 10
4.5650292342
 20
38.5658846999
 11
4.9150292342
 21
39.0658846999
  0
LINE
  5
224
100
AcDbEntity
  8
RACCORDO
100
AcDbLine
 62
7
  6
CONTINUOUS
 10
-5.836090942
 20
8.5071599379
 11
-5.8360909168
 21
8.5246109031
  0
LINE
  5
225
100
AcDbEntity
  8
RACCORDO
100
AcDbLine
 62
253
  6
CONTINUOUS
 10
-5.3361670693
 20
8.0158846999
 11
-5.3361670759
 21
8.5246109033
  0
LINE
  5
226
100
AcDbEntity
  8
RACCORDO
100
AcDbLine
 62
253
  6
CONTINUOUS
 10
-5.3065848488
 20
10.4158846999
 11
-5.3065848488
 21
10.2193751811
  0
LINE
  5
227
100
AcDbEntity
  8
RACCORDO
100
AcDbLine
 62
7
  6
CONTINUOUS
 10
-5.8360909168
 20
8.5246109031
 11
-5.8065086963
 21
10.2193751811
  0
LINE
  5
228
100
AcDbEntity
  8
0
100
AcDbLine
 62
7
  6
CONTINUOUS
 10
4.6600292342
 20
34.0108846999
 11
5.0100292342
 21
34.3608846999
  0
LINE
  5
229
100
AcDbEntity
  8
0
100
AcDbLine
 62
7
  6
CONTINUOUS
 10
7.2000292342
 20
36.5508846999
 11
7.5500292342
 21
36.9008846999
  0
LINE
  5
22A
100
AcDbEntity
  8
0
100
AcDbLine
 62
7
  6
CONTINUOUS
 10
5.8600292342
 20
35.1308846999
 11
6.2100292342
 21
35.4808846999
  0
LINE
  5
22B
100
AcDbEntity
  8
0
100
AcDbLine
 62
7
  6
CONTINUOUS
 10
8.4000292342
 20
37.6708846999
 11
8.7500292342
 21
38.0208846999
  0
LINE
  5
22C
100
AcDbEntity
  8
RACCORDO
100
AcDbLine
 62
253
  6
CONTINUOUS
 10
13.7755908263
 20
8.5265710714
 11
13.6462255378
 21
8.5246109031
  0
LINE
  5
22D
100
AcDbEntity
  8
RACCORDO
100
AcDbLine
 62
7
  6
CONTINUOUS
 10
13.6462255378
 20
8.0158846999
 11
-5.3361670693
 21
8.0158846999
  0
LINE
  5
22E
100
AcDbEntity
  8
RACCORDO
100
AcDbLine
 62
253
  6
CONTINUOUS
 10
-5.5274444845
 20
8.5272846574
 11
-5.6404511077
 21
8.5281180163
  0
LWPOLYLINE
  5
22F
100
AcDbEntity
  8
RACCORDO
100
AcDbPolyline
 62
253
  6
CONTINUOUS
 90
3
 70
0
 10
-5.3361670693
 20
8.5246109031
 10
-5.4014076484
 20
8.5256747098
 10
-5.5274444845
 20
8.5272846574
  0
LINE
  5
230
100
AcDbEntity
  8
RACCORDO
100
AcDbLine
 62
253
  6
CONTINUOUS
 10
-4.3416168318
 20
10.4158846999
 11
-4.3416168318
 21
10.6123942186
  0
LINE
  5
231
100
AcDbEntity
  8
RACCORDO
100
AcDbLine
 62
253
  6
CONTINUOUS
 10
-4.3012569394
 20
13.4158846999
 11
-4.3012569394
 21
12.9246109031
  0
LINE
  5
232
100
AcDbEntity
  8
RACCORDO
100
AcDbLine
 62
253
  6
CONTINUOUS
 10
-5.3361670693
 20
8.5246109031
 11
-5.3065848488
 21
10.2193751811
  0
LINE
  5
233
100
AcDbEntity
  8
RACCORDO
100
AcDbLine
 62
7
  6
CONTINUOUS
 10
-4.8415406793
 20
10.6123942186
 11
-4.801180787
 21
12.9246109031
  0
LINE
  5
234
100
AcDbEntity
  8
RACCORDO
100
AcDbLine
 62
253
  6
CONTINUOUS
 10
-4.3416168318
 20
10.6123942186
 11
-4.3012569394
 21
12.9246109031
  0
LINE
  5
235
100
AcDbEntity
  8
0
100
AcDbLine
 62
7
  6
CONTINUOUS
 10
7.1450292342
 20
38.5658846999
 11
7.4950292342
 21
39.0658846999
  0
LINE
  5
236
100
AcDbEntity
  8
0
100
AcDbLine
 62
7
  6
CONTINUOUS
 10
7.2000292342
 20
34.0108846999
 11
7.5500292342
 21
34.3608846999
  0
LINE
  5
237
100
AcDbEntity
  8
0
100
AcDbLine
 62
7
  6
CONTINUOUS
 10
8.4000292342
 20
35.1308846999
 11
8.7500292342
 21
35.4808846999
  0
LWPOLYLINE
  5
238
100
AcDbEntity
  8
RACCORDO
100
AcDbPolyline
 62
253
  6
CONTINUOUS
 90
5
 70
0
 10
-5.7690630854
 20
8.5278032622
 10
-5.7979927937
 20
8.5272846572
 10
-5.8190235941
 20
8.5265710714
 10
-5.8317957851
 20
8.5256747096
 10
-5.8360909168
 20
8.5246109031
  0
LINE
  5
239
100
AcDbEntity
  8
RACCORDO
100
AcDbLine
 62
253
  6
CONTINUOUS
 10
13.6462255378
 20
8.5246109031
 11
-5.3361670693
 21
8.5246109031
  0
LWPOLYLINE
  5
23A
100
AcDbEntity
  8
RACCORDO
100
AcDbPolyline
 62
253
  6
CONTINUOUS
 90
4
 70
0
 10
-5.6404511077
 20
8.5281180163
 10
-5.6896127959
 20
8.5282235358
 10
-5.7327292719
 20
8.5281180162
 10
-5.7690630854
 20
8.5278032622
  0
LWPOLYLINE
  5
23B
100
AcDbEntity
  8
RACCORDO
100
AcDbPolyline
 62
253
  6
CONTINUOUS
 90
6
 70
0
 10
14.0791215417
 20
8.5278032623
 10
14.042787727
 20
8.5281180163
 10
13.9996712499
 20
8.5282235358
 10
13.9505095587
 20
8.5281180162
 10
13.8961434985
 20
8.5278032622
 10
13.7755908263
 20
8.5265710714
  0
LWPOLYLINE
  5
23C
100
AcDbEntity
  8
RACCORDO
100
AcDbPolyline
 62
253
  6
CONTINUOUS
 90
6
 70
0
 10
-4.8415406793
 20
10.6123942186
 10
-4.838806522
 20
10.612032142
 10
-4.8306205662
 20
10.6117324498
 10
-4.8170730416
 20
10.6114868287
 10
-4.7983117314
 20
10.611282244
 10
-4.746033643
 20
10.6110103709
  0
LINE
  5
23D
100
AcDbEntity
  8
0
100
AcDbLine
 62
7
  6
CONTINUOUS
 10
-3.1249707658
 20
34.5158846999
 11
-3.1249707658
 21
37.5158846999
  0
LINE
  5
23E
100
AcDbEntity
  8
0
100
AcDbLine
 62
7
  6
CONTINUOUS
 10
-2.7249707658
 20
36.8058846999
 11
-2.7249707658
 21
36.0558846999
  0
LINE
  5
23F
100
AcDbEntity
  8
0
100
AcDbLine
 62
7
  6
CONTINUOUS
 10
-2.7178443387
 20
35.9758846999
 11
-2.7178443387
 21
35.2644199312
  0
LINE
  5
240
100
AcDbEntity
  8
0
100
AcDbLine
 62
7
  6
CONTINUOUS
 10
-2.6749707658
 20
36.8458846999
 11
-2.6749707658
 21
36.8058846999
  0
LINE
  5
241
100
AcDbEntity
  8
0
100
AcDbLine
 62
7
  6
CONTINUOUS
 10
-2.6749707658
 20
36.0558846999
 11
-2.6749707658
 21
35.9758846999
  0
LINE
  5
242
100
AcDbEntity
  8
0
100
AcDbLine
 62
7
  6
CONTINUOUS
 10
-2.6749707658
 20
35.2255843178
 11
-2.6749707658
 21
35.1658846999
  0
LINE
  5
243
100
AcDbEntity
  8
0
100
AcDbLine
 62
7
  6
CONTINUOUS
 10
-2.4849707658
 20
35.225843305
 11
-2.4849707658
 21
35.1658846999
  0
LINE
  5
244
100
AcDbEntity
  8
0
100
AcDbLine
 62
7
  6
CONTINUOUS
 10
-2.4849707658
 20
36.8458846999
 11
-2.4849706563
 21
35.5672975119
  0
LINE
  5
245
100
AcDbEntity
  8
0
100
AcDbLine
 62
7
  6
CONTINUOUS
 10
-2.4453460439
 20
34.6686711044
 11
-2.4453460439
 21
35.1658846999
  0
LINE
  5
246
100
AcDbEntity
  8
0
100
AcDbLine
 62
7
  6
CONTINUOUS
 10
-2.4453460439
 20
36.8658846999
 11
-2.4453460439
 21
37.3630982954
  0
LINE
  5
247
100
AcDbEntity
  8
0
100
AcDbLine
 62
253
  6
CONTINUOUS
 10
-2.2453460439
 20
37.4815701248
 11
-2.2453460439
 21
36.8658846999
  0
LINE
  5
248
100
AcDbEntity
  8
0
100
AcDbLine
 62
253
  6
CONTINUOUS
 10
-2.2453460439
 20
35.1658846999
 11
-2.2453460439
 21
34.5501992749
  0
LWPOLYLINE
  5
249
100
AcDbEntity
  8
0
100
AcDbPolyline
 62
7
  6
CONTINUOUS
 90
12
 70
0
 10
-2.717629992
 20
35.2644199177
 10
-2.7164381196
 20
35.2894636479
 10
-2.7116177077
 20
35.3198371032
 10
-2.7032613975
 20
35.3488746512
 10
-2.6912044551
 20
35.3768683363
 10
-2.6749526793
 20
35.4046942918
 10
-2.654466948
 20
35.432740209
 10
-2.6297863832
 20
35.4606183966
 10
-2.6005341503
 20
35.4880419135
 10
-2.5665846377
 20
35.5149151129
 10
-2.528063457
 20
35.5413336417
 10
-2.4849706081
 20
35.5672974998
  0
LWPOLYLINE
  5
24A
100
AcDbEntity
  8
RACCORDO
100
AcDbPolyline
 62
253
  6
CONTINUOUS
 90
5
 70
0
 10
-5.8065086963
 20
10.2193751811
 10
-5.8037618275
 20
10.2197139328
 10
-5.7955657505
 20
10.2200192072
 10
-5.7820134431
 20
10.2202827493
 10
-5.7632594247
 20
10.2204949026
  0
LWPOLYLINE
  5
24B
100
AcDbEntity
  8
RACCORDO
100
AcDbPolyline
 62
253
  6
CONTINUOUS
 90
4
 70
0
 10
13.1272109304
 20
10.6114878524
 10
13.1407227957
 20
10.6117330118
 10
13.1488780361
 20
10.6120322937
 10
13.1515991478
 20
10.6123942186
  0
LINE
  5
24C
100
AcDbEntity
  8
RACCORDO
100
AcDbLine
 62
253
  6
CONTINUOUS
 10
13.0847013944
 20
10.6111195237
 11
13.1272109304
 21
10.6114878524
  0
LINE
  5
24D
100
AcDbEntity
  8
RACCORDO
100
AcDbLine
 62
253
  6
CONTINUOUS
 10
-5.7632594247
 20
10.2204949026
 11
-5.7110162017
 21
10.220759633
  0
LINE
  5
24E
100
AcDbEntity
  8
RACCORDO
100
AcDbLine
 62
253
  6
CONTINUOUS
 10
-4.5915224891
 20
10.6111195237
 11
-4.3416168318
 21
10.6123942186
  0
LINE
  5
24F
100
AcDbEntity
  8
RACCORDO
100
AcDbLine
 62
253
  6
CONTINUOUS
 10
13.6166433172
 20
10.2193751811
 11
13.9104755298
 21
10.220759633
  0
LINE
  5
250
100
AcDbEntity
  8
RACCORDO
100
AcDbLine
 62
253
  6
CONTINUOUS
 10
-5.3065848488
 20
10.2193751811
 11
13.6166433172
 21
10.2193751811
  0
LINE
  5
251
100
AcDbEntity
  8
RACCORDO
100
AcDbLine
 62
7
  6
CONTINUOUS
 10
-5.6065391573
 20
10.4158846999
 11
13.9165976258
 21
10.4158846999
  0
LINE
  5
252
100
AcDbEntity
  8
RACCORDO
100
AcDbLine
 62
253
  6
CONTINUOUS
 10
12.9862902781
 20
10.6109597104
 11
13.0847013944
 21
10.6111195237
  0
LINE
  5
253
100
AcDbEntity
  8
RACCORDO
100
AcDbLine
 62
253
  6
CONTINUOUS
 10
-4.3416168318
 20
10.6123942186
 11
12.6516753003
 21
10.6123942186
  0
LINE
  5
254
100
AcDbEntity
  8
RACCORDO
100
AcDbLine
 62
253
  6
CONTINUOUS
 10
-4.746033643
 20
10.6110103709
 11
-4.5915224891
 21
10.6111195237
  0
LINE
  5
255
100
AcDbEntity
  8
RACCORDO
100
AcDbLine
 62
253
  6
CONTINUOUS
 10
13.9104755298
 20
10.220759633
 11
14.0211055138
 21
10.220760317
  0
LINE
  5
256
100
AcDbEntity
  8
RACCORDO
100
AcDbLine
 62
253
  6
CONTINUOUS
 10
-5.7110162017
 20
10.220759633
 11
-5.5564896804
 21
10.2206532871
  0
LINE
  5
257
100
AcDbEntity
  8
RACCORDO
100
AcDbLine
 62
253
  6
CONTINUOUS
 10
12.7556730755
 20
10.6117324498
 11
12.9862902781
 21
10.6109597104
  0
LINE
  5
258
100
AcDbEntity
  8
RACCORDO
100
AcDbLine
 62
253
  6
CONTINUOUS
 10
-5.5564896804
 20
10.2206532871
 11
-5.3065848488
 21
10.2193751811
  0
LWPOLYLINE
  5
259
100
AcDbEntity
  8
RACCORDO
100
AcDbPolyline
 62
253
  6
CONTINUOUS
 90
6
 70
0
 10
14.0211055138
 20
10.220760317
 10
14.0733475225
 20
10.2204951639
 10
14.0920946814
 20
10.2202826661
 10
14.1056366276
 20
10.2200189666
 10
14.1138239693
 20
10.2197137016
 10
14.1165671648
 20
10.2193751811
  0
LINE
  5
25A
100
AcDbEntity
  8
RACCORDO
100
AcDbLine
 62
253
  6
CONTINUOUS
 10
12.6516753003
 20
10.6123942186
 11
12.7556730755
 21
10.6117324498
  0
LWPOLYLINE
  5
25B
100
AcDbEntity
  8
RACCORDO
100
AcDbPolyline
 62
253
  6
CONTINUOUS
 90
5
 70
0
 10
14.1461493853
 20
8.5246109031
 10
14.1418542522
 20
8.5256747098
 10
14.1290820578
 20
8.5265710716
 10
14.1080512531
 20
8.5272846574
 10
14.0791215417
 20
8.5278032623
  0
LWPOLYLINE
  5
25C
100
AcDbEntity
  8
0
100
AcDbPolyline
 62
7
  6
CONTINUOUS
 90
3
 70
0
 10
-2.7149770471
 20
35.2255851489
 10
-2.7175578994
 20
35.2580463298
 10
-2.717629992
 20
35.2644199177
  0
LINE
  5
25D
100
AcDbEntity
  8
0
100
AcDbLine
 62
253
  6
CONTINUOUS
 10
-1.8449707658
 20
34.5501992749
 11
-1.8449707658
 21
35.1658846999
  0
LINE
  5
25E
100
AcDbEntity
  8
0
100
AcDbLine
 62
253
  6
CONTINUOUS
 10
-1.8449707658
 20
36.8658846999
 11
-1.8449707658
 21
37.4815701248
  0
LINE
  5
25F
100
AcDbEntity
  8
0
100
AcDbLine
 62
7
  6
CONTINUOUS
 10
-1.7083996523
 20
35.5672975119
 11
-1.7083996523
 21
36.4644718879
  0
LINE
  5
260
100
AcDbEntity
  8
0
100
AcDbLine
 62
7
  6
CONTINUOUS
 10
-1.6449707658
 20
39.0658846999
 11
-1.6449707658
 21
32.9658846999
  0
LINE
  5
261
100
AcDbEntity
  8
ASSI
100
AcDbLine
 62
7
  6
CONTINUOUS
 10
-0.7399707658
 20
32.9158846999
 11
-0.7399707658
 21
13.4158846999
  0
LINE
  5
262
100
AcDbEntity
  8
ASSI
100
AcDbLine
 62
7
  6
CONTINUOUS
 10
-0.7399707658
 20
8.0158846999
 11
-0.7399707658
 21
-0.7434321933
  0
LINE
  5
263
100
AcDbEntity
  8
RACCORDO
100
AcDbLine
 62
253
  6
CONTINUOUS
 10
12.6113154079
 20
12.9246109031
 11
12.7406806964
 21
12.9265710714
  0
LINE
  5
264
100
AcDbEntity
  8
RACCORDO
100
AcDbLine
 62
253
  6
CONTINUOUS
 10
12.7406806964
 20
12.9265710714
 11
12.8612333687
 21
12.9278032622
  0
LWPOLYLINE
  5
265
100
AcDbEntity
  8
RACCORDO
100
AcDbPolyline
 62
253
  6
CONTINUOUS
 90
8
 70
0
 10
12.8612333687
 20
12.9278032622
 10
12.9647611201
 20
12.9282235358
 10
13.0078775971
 20
12.9281180163
 10
13.0442114118
 20
12.9278032623
 10
13.0731411233
 20
12.9272846574
 10
13.0941719279
 20
12.9265710716
 10
13.1069441223
 20
12.9256747098
 10
13.1112392555
 20
12.9246109031
  0
LINE
  5
266
100
AcDbEntity
  8
RACCORDO
100
AcDbLine
 62
253
  6
CONTINUOUS
 10
-4.3012569394
 20
12.9246109031
 11
12.6113154079
 21
12.9246109031
  0
LINE
  5
267
100
AcDbEntity
  8
RACCORDO
100
AcDbLine
 62
253
  6
CONTINUOUS
 10
-4.654702666
 20
12.9282235358
 11
-4.5511749213
 21
12.9278032623
  0
LINE
  5
268
100
AcDbEntity
  8
RACCORDO
100
AcDbLine
 62
253
  6
CONTINUOUS
 10
-4.5511749213
 20
12.9278032623
 11
-4.430622246
 21
12.9265710716
  0
LINE
  5
269
100
AcDbEntity
  8
RACCORDO
100
AcDbLine
 62
253
  6
CONTINUOUS
 10
-4.430622246
 20
12.9265710716
 11
-4.3012569394
 21
12.9246109031
  0
LINE
  5
26A
100
AcDbEntity
  8
0
100
AcDbLine
 62
7
  6
CONTINUOUS
 10
-0.4199707658
 20
38.0208846999
 11
-0.4199707658
 21
36.5508846999
  0
LINE
  5
26B
100
AcDbEntity
  8
0
100
AcDbLine
 62
7
  6
CONTINUOUS
 10
-0.4199707658
 20
35.4808846999
 11
-0.4199707658
 21
34.0108846999
  0
LINE
  5
26C
100
AcDbEntity
  8
0
100
AcDbLine
 62
7
  6
CONTINUOUS
 10
-0.0699707658
 20
37.6708846999
 11
-0.0699707658
 21
36.9008846999
  0
LINE
  5
26D
100
AcDbEntity
  8
0
100
AcDbLine
 62
7
  6
CONTINUOUS
 10
-0.0699707658
 20
35.1308846999
 11
-0.0699707658
 21
34.3608846999
  0
LINE
  5
26E
100
AcDbEntity
  8
ASSI
100
AcDbLine
 62
253
  6
CONTINUOUS
 10
0.0
 20
32.9158846999
 11
0.0
 21
13.4158846999
  0
LINE
  5
26F
100
AcDbEntity
  8
ASSI
100
AcDbLine
 62
253
  6
CONTINUOUS
 10
0.0
 20
8.0158846999
 11
0.0
 21
-0.3456846805
  0
LINE
  5
270
100
AcDbEntity
  8
ASSI
100
AcDbLine
 62
253
  6
CONTINUOUS
 10
0.2577517918
 20
32.9158846999
 11
0.2577517918
 21
13.4158846999
  0
LINE
  5
271
100
AcDbEntity
  8
ASSI
100
AcDbLine
 62
253
  6
CONTINUOUS
 10
0.2577517918
 20
8.0158846999
 11
0.2577517918
 21
-0.3605489259
  0
LINE
  5
272
100
AcDbEntity
  8
ASSI
100
AcDbLine
 62
253
  6
CONTINUOUS
 10
0.4323066767
 20
32.9158846999
 11
0.4323066767
 21
13.4158846999
  0
LINE
  5
273
100
AcDbEntity
  8
ASSI
100
AcDbLine
 62
253
  6
CONTINUOUS
 10
0.4323066767
 20
8.0158846999
 11
0.4323066767
 21
-0.3706153027
  0
LINE
  5
274
100
AcDbEntity
  8
ASSI
100
AcDbLine
 62
253
  6
CONTINUOUS
 10
0.6900584685
 20
32.9158846999
 11
0.6900584685
 21
13.4158846999
  0
LINE
  5
275
100
AcDbEntity
  8
ASSI
100
AcDbLine
 62
253
  6
CONTINUOUS
 10
0.6900584685
 20
8.0158846999
 11
0.6900584685
 21
-0.3854795481
  0
LINE
  5
276
100
AcDbEntity
  8
0
100
AcDbLine
 62
7
  6
CONTINUOUS
 10
0.7800292342
 20
34.3608846999
 11
0.7800292342
 21
35.1308846999
  0
LINE
  5
277
100
AcDbEntity
  8
0
100
AcDbLine
 62
7
  6
CONTINUOUS
 10
0.7800292342
 20
36.9008846999
 11
0.7800292342
 21
37.6708846999
  0
LINE
  5
278
100
AcDbEntity
  8
0
100
AcDbLine
 62
7
  6
CONTINUOUS
 10
1.1300292342
 20
34.0108846999
 11
1.1300292342
 21
35.4808846999
  0
LINE
  5
279
100
AcDbEntity
  8
0
100
AcDbLine
 62
7
  6
CONTINUOUS
 10
1.1300292342
 20
36.5508846999
 11
1.1300292342
 21
38.0208846999
  0
LINE
  5
27A
100
AcDbEntity
  8
RACCORDO
100
AcDbLine
 62
7
  6
CONTINUOUS
 10
-4.3012569394
 20
13.4158846999
 11
12.6113154079
 21
13.4158846999
  0
LINE
  5
27B
100
AcDbEntity
  8
ASSI
100
AcDbLine
 62
253
  6
CONTINUOUS
 10
1.27
 20
32.9158846999
 11
1.27
 21
13.4158846999
  0
LINE
  5
27C
100
AcDbEntity
  8
ASSI
100
AcDbLine
 62
253
  6
CONTINUOUS
 10
1.27
 20
8.0158846999
 11
1.27
 21
-0.4362526114
  0
LINE
  5
27D
100
AcDbEntity
  8
ASSI
100
AcDbLine
 62
253
  6
CONTINUOUS
 10
1.5277517918
 20
32.9158846999
 11
1.5277517918
 21
13.4158846999
  0
LINE
  5
27E
100
AcDbEntity
  8
ASSI
100
AcDbLine
 62
253
  6
CONTINUOUS
 10
1.5277517918
 20
8.0158846999
 11
1.5277517918
 21
-0.5667205033
  0
LINE
  5
27F
100
AcDbEntity
  8
ASSI
100
AcDbLine
 62
253
  6
CONTINUOUS
 10
1.7023066767
 20
32.9158846999
 11
1.7023066767
 21
13.4158846999
  0
LINE
  5
280
100
AcDbEntity
  8
ASSI
100
AcDbLine
 62
253
  6
CONTINUOUS
 10
1.7023066767
 20
8.0158846999
 11
1.7023066767
 21
-0.6550760787
  0
LINE
  5
281
100
AcDbEntity
  8
ASSI
100
AcDbLine
 62
253
  6
CONTINUOUS
 10
1.9600584685
 20
32.9158846999
 11
1.9600584685
 21
13.4158846999
  0
LINE
  5
282
100
AcDbEntity
  8
ASSI
100
AcDbLine
 62
253
  6
CONTINUOUS
 10
1.9600584685
 20
8.0158846999
 11
1.9600584685
 21
-0.7855439706
  0
LINE
  5
283
100
AcDbEntity
  8
0
100
AcDbLine
 62
7
  6
CONTINUOUS
 10
2.1200292342
 20
38.0208846999
 11
2.1200292342
 21
36.5508846999
  0
LINE
  5
284
100
AcDbEntity
  8
0
100
AcDbLine
 62
7
  6
CONTINUOUS
 10
2.1200292342
 20
35.4808846999
 11
2.1200292342
 21
34.0108846999
  0
LINE
  5
285
100
AcDbEntity
  8
0
100
AcDbLine
 62
7
  6
CONTINUOUS
 10
2.3350292342
 20
39.0658846999
 11
2.3350292342
 21
39.9658846999
  0
LINE
  5
286
100
AcDbEntity
  8
0
100
AcDbLine
 62
7
  6
CONTINUOUS
 10
2.4700292342
 20
37.6708846999
 11
2.4700292342
 21
36.9008846999
  0
LINE
  5
287
100
AcDbEntity
  8
0
100
AcDbLine
 62
7
  6
CONTINUOUS
 10
2.4700292342
 20
35.1308846999
 11
2.4700292342
 21
34.3608846999
  0
LINE
  5
288
100
AcDbEntity
  8
ASSI
100
AcDbLine
 62
253
  6
CONTINUOUS
 10
2.54
 20
32.9158846999
 11
2.54
 21
13.4158846999
  0
LINE
  5
289
100
AcDbEntity
  8
ASSI
100
AcDbLine
 62
253
  6
CONTINUOUS
 10
2.54
 20
8.0158846999
 11
2.54
 21
-1.1009756114
  0
LWPOLYLINE
  5
28A
100
AcDbEntity
  8
RACCORDO
100
AcDbPolyline
 62
253
  6
CONTINUOUS
 90
7
 70
0
 10
-4.801180787
 20
12.9246109031
 10
-4.7968856552
 20
12.9256747096
 10
-4.7841134643
 20
12.9265710714
 10
-4.7630826638
 20
12.9272846572
 10
-4.7341529555
 20
12.9278032622
 10
-4.6978191421
 20
12.9281180162
 10
-4.654702666
 20
12.9282235358
  0
LINE
  5
28B
100
AcDbEntity
  8
ASSI
100
AcDbLine
 62
253
  6
CONTINUOUS
 10
2.7977517918
 20
32.9158846999
 11
2.7977517918
 21
13.4158846999
  0
LINE
  5
28C
100
AcDbEntity
  8
ASSI
100
AcDbLine
 62
253
  6
CONTINUOUS
 10
2.7977517918
 20
8.0158846999
 11
2.7977517918
 21
-1.2895597815
  0
LINE
  5
28D
100
AcDbEntity
  8
ASSI
100
AcDbLine
 62
253
  6
CONTINUOUS
 10
2.9723066767
 20
32.9158846999
 11
2.9723066767
 21
13.4158846999
  0
LINE
  5
28E
100
AcDbEntity
  8
ASSI
100
AcDbLine
 62
253
  6
CONTINUOUS
 10
2.9723066767
 20
8.0158846999
 11
2.9723066767
 21
-1.4172729117
  0
LINE
  5
28F
100
AcDbEntity
  8
ASSI
100
AcDbLine
 62
253
  6
CONTINUOUS
 10
3.2300584685
 20
32.9158846999
 11
3.2300584685
 21
13.4158846999
  0
LINE
  5
290
100
AcDbEntity
  8
ASSI
100
AcDbLine
 62
253
  6
CONTINUOUS
 10
3.2300584685
 20
8.0158846999
 11
3.2300584685
 21
-1.6058570819
  0
LINE
  5
291
100
AcDbEntity
  8
0
100
AcDbLine
 62
7
  6
CONTINUOUS
 10
3.3200292342
 20
34.3608846999
 11
3.3200292342
 21
35.1308846999
  0
LINE
  5
292
100
AcDbEntity
  8
0
100
AcDbLine
 62
7
  6
CONTINUOUS
 10
3.3200292342
 20
36.9008846999
 11
3.3200292342
 21
37.6708846999
  0
LINE
  5
293
100
AcDbEntity
  8
0
100
AcDbLine
 62
7
  6
CONTINUOUS
 10
3.3350292342
 20
39.9658846999
 11
3.3350292342
 21
39.0658846999
  0
LINE
  5
294
100
AcDbEntity
  8
0
100
AcDbLine
 62
7
  6
CONTINUOUS
 10
3.6700292342
 20
34.0108846999
 11
3.6700292342
 21
35.4808846999
  0
LINE
  5
295
100
AcDbEntity
  8
0
100
AcDbLine
 62
7
  6
CONTINUOUS
 10
3.6700292342
 20
36.5508846999
 11
3.6700292342
 21
38.0208846999
  0
LINE
  5
296
100
AcDbEntity
  8
ASSI
100
AcDbLine
 62
253
  6
CONTINUOUS
 10
3.81
 20
32.9158846999
 11
3.81
 21
13.4158846999
  0
LINE
  5
297
100
AcDbEntity
  8
ASSI
100
AcDbLine
 62
253
  6
CONTINUOUS
 10
3.81
 20
8.0158846999
 11
3.81
 21
-2.0349203907
  0
LINE
  5
298
100
AcDbEntity
  8
ASSI
100
AcDbLine
 62
253
  6
CONTINUOUS
 10
4.0677517918
 20
32.9158846999
 11
4.0677517918
 21
13.4158846999
  0
LINE
  5
299
100
AcDbEntity
  8
ASSI
100
AcDbLine
 62
253
  6
CONTINUOUS
 10
4.0677517918
 20
8.0158846999
 11
4.0677517918
 21
-2.232443219
  0
LINE
  5
29A
100
AcDbEntity
  8
ASSI
100
AcDbLine
 62
253
  6
CONTINUOUS
 10
4.2423066767
 20
32.9158846999
 11
4.2423066767
 21
13.4158846999
  0
LINE
  5
29B
100
AcDbEntity
  8
ASSI
100
AcDbLine
 62
253
  6
CONTINUOUS
 10
4.2423066767
 20
8.0158846999
 11
4.2423066767
 21
-2.3662097948
  0
LINE
  5
29C
100
AcDbEntity
  8
0
100
AcDbLine
 62
7
  6
CONTINUOUS
 10
10.0350292342
 20
35.2258846999
 11
10.1584581207
 21
35.5672975119
  0
LINE
  5
29D
100
AcDbEntity
  8
ASSI
100
AcDbLine
 62
253
  6
CONTINUOUS
 10
4.5000584685
 20
32.9158846999
 11
4.5000584685
 21
13.4158846999
  0
LINE
  5
29E
100
AcDbEntity
  8
ASSI
100
AcDbLine
 62
253
  6
CONTINUOUS
 10
4.5000584685
 20
8.0158846999
 11
4.5000584685
 21
-2.5637326231
  0
LINE
  5
29F
100
AcDbEntity
  8
0
100
AcDbLine
 62
7
  6
CONTINUOUS
 10
4.6600292342
 20
38.0208846999
 11
4.6600292342
 21
36.5508846999
  0
LINE
  5
2A0
100
AcDbEntity
  8
0
100
AcDbLine
 62
7
  6
CONTINUOUS
 10
4.6600292342
 20
35.4808846999
 11
4.6600292342
 21
34.0108846999
  0
LINE
  5
2A1
100
AcDbEntity
  8
0
100
AcDbLine
 62
7
  6
CONTINUOUS
 10
5.0100292342
 20
37.6708846999
 11
5.0100292342
 21
36.9008846999
  0
LINE
  5
2A2
100
AcDbEntity
  8
0
100
AcDbLine
 62
7
  6
CONTINUOUS
 10
5.0100292342
 20
35.1308846999
 11
5.0100292342
 21
34.3608846999
  0
LINE
  5
2A3
100
AcDbEntity
  8
0
100
AcDbLine
 62
7
  6
CONTINUOUS
 10
5.0350292342
 20
39.0658846999
 11
5.0350292342
 21
39.9658846999
  0
LINE
  5
2A4
100
AcDbEntity
  8
ASSI
100
AcDbLine
 62
253
  6
CONTINUOUS
 10
5.08
 20
32.9158846999
 11
5.08
 21
13.4158846999
  0
LINE
  5
2A5
100
AcDbEntity
  8
ASSI
100
AcDbLine
 62
253
  6
CONTINUOUS
 10
5.08
 20
8.0158846999
 11
5.08
 21
-2.9721814134
  0
LINE
  5
2A6
100
AcDbEntity
  8
ASSI
100
AcDbLine
 62
253
  6
CONTINUOUS
 10
5.3377517918
 20
32.9158846999
 11
5.3377517918
 21
13.4158846999
  0
LINE
  5
2A7
100
AcDbEntity
  8
ASSI
100
AcDbLine
 62
253
  6
CONTINUOUS
 10
5.3377517918
 20
8.0158846999
 11
5.3377517918
 21
-3.1067909261
  0
LINE
  5
2A8
100
AcDbEntity
  8
ASSI
100
AcDbLine
 62
253
  6
CONTINUOUS
 10
5.5123066767
 20
32.9158846999
 11
5.5123066767
 21
13.4158846999
  0
LINE
  5
2A9
100
AcDbEntity
  8
ASSI
100
AcDbLine
 62
253
  6
CONTINUOUS
 10
5.5123066767
 20
8.0158846999
 11
5.5123066767
 21
-3.1979512934
  0
LINE
  5
2AA
100
AcDbEntity
  8
ASSI
100
AcDbLine
 62
253
  6
CONTINUOUS
 10
5.7700584685
 20
32.9158846999
 11
5.7700584685
 21
13.4158846999
  0
LINE
  5
2AB
100
AcDbEntity
  8
ASSI
100
AcDbLine
 62
253
  6
CONTINUOUS
 10
5.7700584685
 20
8.0158846999
 11
5.7700584685
 21
-3.332560806
  0
LINE
  5
2AC
100
AcDbEntity
  8
0
100
AcDbLine
 62
7
  6
CONTINUOUS
 10
5.8600292342
 20
34.3608846999
 11
5.8600292342
 21
35.1308846999
  0
LINE
  5
2AD
100
AcDbEntity
  8
0
100
AcDbLine
 62
7
  6
CONTINUOUS
 10
5.8600292342
 20
36.9008846999
 11
5.8600292342
 21
37.6708846999
  0
LINE
  5
2AE
100
AcDbEntity
  8
0
100
AcDbLine
 62
7
  6
CONTINUOUS
 10
-1.7083996479
 20
35.5672974998
 11
-1.6449707658
 21
35.3918488376
  0
LINE
  5
2AF
100
AcDbEntity
  8
0
100
AcDbLine
 62
7
  6
CONTINUOUS
 10
6.0350292342
 20
39.9658846999
 11
6.0350292342
 21
39.0658846999
  0
LINE
  5
2B0
100
AcDbEntity
  8
0
100
AcDbLine
 62
7
  6
CONTINUOUS
 10
6.2100292342
 20
34.0108846999
 11
6.2100292342
 21
35.4808846999
  0
LINE
  5
2B1
100
AcDbEntity
  8
0
100
AcDbLine
 62
7
  6
CONTINUOUS
 10
6.2100292342
 20
36.5508846999
 11
6.2100292342
 21
38.0208846999
  0
LINE
  5
2B2
100
AcDbEntity
  8
ASSI
100
AcDbLine
 62
253
  6
CONTINUOUS
 10
6.35
 20
32.9158846999
 11
6.35
 21
13.4158846999
  0
LINE
  5
2B3
100
AcDbEntity
  8
ASSI
100
AcDbLine
 62
253
  6
CONTINUOUS
 10
6.35
 20
8.0158846999
 11
6.35
 21
-3.6354322096
  0
LINE
  5
2B4
100
AcDbEntity
  8
ASSI
100
AcDbLine
 62
253
  6
CONTINUOUS
 10
6.6077517918
 20
32.9158846999
 11
6.6077517918
 21
13.4158846999
  0
LINE
  5
2B5
100
AcDbEntity
  8
ASSI
100
AcDbLine
 62
253
  6
CONTINUOUS
 10
6.6077517918
 20
8.0158846999
 11
6.6077517918
 21
-3.7700417223
  0
LINE
  5
2B6
100
AcDbEntity
  8
ASSI
100
AcDbLine
 62
253
  6
CONTINUOUS
 10
6.7823066767
 20
32.9158846999
 11
6.7823066767
 21
13.4158846999
  0
LINE
  5
2B7
100
AcDbEntity
  8
ASSI
100
AcDbLine
 62
253
  6
CONTINUOUS
 10
6.7823066767
 20
8.0158846999
 11
6.7823066767
 21
-3.8612020896
  0
LINE
  5
2B8
100
AcDbEntity
  8
ASSI
100
AcDbLine
 62
253
  6
CONTINUOUS
 10
7.0400584685
 20
32.9158846999
 11
7.0400584685
 21
13.4158846999
  0
LINE
  5
2B9
100
AcDbEntity
  8
ASSI
100
AcDbLine
 62
253
  6
CONTINUOUS
 10
7.0400584685
 20
8.0158846999
 11
7.0400584685
 21
-3.9958116022
  0
LINE
  5
2BA
100
AcDbEntity
  8
0
100
AcDbLine
 62
7
  6
CONTINUOUS
 10
7.2000292342
 20
38.0208846999
 11
7.2000292342
 21
36.5508846999
  0
LINE
  5
2BB
100
AcDbEntity
  8
0
100
AcDbLine
 62
7
  6
CONTINUOUS
 10
7.2000292342
 20
35.4808846999
 11
7.2000292342
 21
34.0108846999
  0
LINE
  5
2BC
100
AcDbEntity
  8
0
100
AcDbLine
 62
7
  6
CONTINUOUS
 10
7.5500292342
 20
37.6708846999
 11
7.5500292342
 21
36.9008846999
  0
LINE
  5
2BD
100
AcDbEntity
  8
0
100
AcDbLine
 62
7
  6
CONTINUOUS
 10
7.5500292342
 20
35.1308846999
 11
7.5500292342
 21
34.3608846999
  0
LINE
  5
2BE
100
AcDbEntity
  8
ASSI
100
AcDbLine
 62
253
  6
CONTINUOUS
 10
7.62
 20
32.9158846999
 11
7.62
 21
13.4158846999
  0
LINE
  5
2BF
100
AcDbEntity
  8
ASSI
100
AcDbLine
 62
253
  6
CONTINUOUS
 10
7.62
 20
8.0158846999
 11
7.62
 21
-3.9857821901
  0
LINE
  5
2C0
100
AcDbEntity
  8
ASSI
100
AcDbLine
 62
253
  6
CONTINUOUS
 10
7.8777517918
 20
32.9158846999
 11
7.8777517918
 21
13.4158846999
  0
LINE
  5
2C1
100
AcDbEntity
  8
ASSI
100
AcDbLine
 62
253
  6
CONTINUOUS
 10
7.8777517918
 20
8.0158846999
 11
7.8777517918
 21
-3.9488362709
  0
LINE
  5
2C2
100
AcDbEntity
  8
ASSI
100
AcDbLine
 62
253
  6
CONTINUOUS
 10
8.0523066767
 20
32.9158846999
 11
8.0523066767
 21
13.4158846999
  0
LINE
  5
2C3
100
AcDbEntity
  8
ASSI
100
AcDbLine
 62
253
  6
CONTINUOUS
 10
8.0523066767
 20
8.0158846999
 11
8.0523066767
 21
-3.9238157245
  0
LINE
  5
2C4
100
AcDbEntity
  8
ASSI
100
AcDbLine
 62
253
  6
CONTINUOUS
 10
8.3100584685
 20
32.9158846999
 11
8.3100584685
 21
13.4158846999
  0
LINE
  5
2C5
100
AcDbEntity
  8
ASSI
100
AcDbLine
 62
253
  6
CONTINUOUS
 10
8.3100584685
 20
8.0158846999
 11
8.3100584685
 21
-3.8868698053
  0
LINE
  5
2C6
100
AcDbEntity
  8
0
100
AcDbLine
 62
7
  6
CONTINUOUS
 10
8.4000292342
 20
34.3608846999
 11
8.4000292342
 21
35.1308846999
  0
LINE
  5
2C7
100
AcDbEntity
  8
0
100
AcDbLine
 62
7
  6
CONTINUOUS
 10
8.4000292342
 20
36.9008846999
 11
8.4000292342
 21
37.6708846999
  0
LINE
  5
2C8
100
AcDbEntity
  8
0
100
AcDbLine
 62
7
  6
CONTINUOUS
 10
8.7500292342
 20
34.0108846999
 11
8.7500292342
 21
35.4808846999
  0
LINE
  5
2C9
100
AcDbEntity
  8
0
100
AcDbLine
 62
7
  6
CONTINUOUS
 10
8.7500292342
 20
36.5508846999
 11
8.7500292342
 21
38.0208846999
  0
LINE
  5
2CA
100
AcDbEntity
  8
ASSI
100
AcDbLine
 62
7
  6
CONTINUOUS
 10
9.0500292343
 20
32.9158846999
 11
9.0500292343
 21
13.4158846999
  0
LINE
  5
2CB
100
AcDbEntity
  8
ASSI
100
AcDbLine
 62
7
  6
CONTINUOUS
 10
9.0500292343
 20
8.0158846999
 11
9.0500292343
 21
-3.7808030349
  0
LINE
  5
2CC
100
AcDbEntity
  8
0
100
AcDbLine
 62
7
  6
CONTINUOUS
 10
10.0150292342
 20
32.9658846999
 11
10.0150292342
 21
39.0658846999
  0
LINE
  5
2CD
100
AcDbEntity
  8
0
100
AcDbLine
 62
7
  6
CONTINUOUS
 10
10.0350292342
 20
38.9158846999
 11
10.0350292342
 21
37.5158846999
  0
LINE
  5
2CE
100
AcDbEntity
  8
0
100
AcDbLine
 62
7
  6
CONTINUOUS
 10
10.0350292342
 20
34.5158846999
 11
10.0350292342
 21
33.1158846999
  0
LINE
  5
2CF
100
AcDbEntity
  8
0
100
AcDbLine
 62
7
  6
CONTINUOUS
 10
10.0350292342
 20
35.1658846999
 11
10.0350292342
 21
36.8458846999
  0
LINE
  5
2D0
100
AcDbEntity
  8
0
100
AcDbLine
 62
7
  6
CONTINUOUS
 10
10.1584581207
 20
36.4644718879
 11
10.1584581207
 21
35.5672975119
  0
LINE
  5
2D1
100
AcDbEntity
  8
0
100
AcDbLine
 62
253
  6
CONTINUOUS
 10
10.2150292342
 20
37.4815701248
 11
10.2150292342
 21
36.8458846999
  0
LINE
  5
2D2
100
AcDbEntity
  8
0
100
AcDbLine
 62
253
  6
CONTINUOUS
 10
10.2150292342
 20
35.1658846999
 11
10.2150292342
 21
34.5501992749
  0
LINE
  5
2D3
100
AcDbEntity
  8
0
100
AcDbLine
 62
253
  6
CONTINUOUS
 10
10.6154045124
 20
34.5501992749
 11
10.6154045124
 21
35.1658846999
  0
LINE
  5
2D4
100
AcDbEntity
  8
0
100
AcDbLine
 62
253
  6
CONTINUOUS
 10
10.6154045124
 20
36.8458846999
 11
10.6154045124
 21
37.4815701248
  0
LINE
  5
2D5
100
AcDbEntity
  8
0
100
AcDbLine
 62
7
  6
CONTINUOUS
 10
10.8154045124
 20
34.6686711044
 11
10.8154045124
 21
35.1658846999
  0
LINE
  5
2D6
100
AcDbEntity
  8
0
100
AcDbLine
 62
7
  6
CONTINUOUS
 10
10.8154045124
 20
36.8458846999
 11
10.8154045124
 21
37.3630982954
  0
LINE
  5
2D7
100
AcDbEntity
  8
0
100
AcDbLine
 62
7
  6
CONTINUOUS
 10
10.9350292342
 20
36.8059260947
 11
10.9350292342
 21
36.8458846999
  0
LINE
  5
2D8
100
AcDbEntity
  8
0
100
AcDbLine
 62
7
  6
CONTINUOUS
 10
10.9350292342
 20
35.1658846999
 11
10.9350291235
 21
36.4644718879
  0
LINE
  5
2D9
100
AcDbEntity
  8
0
100
AcDbLine
 62
7
  6
CONTINUOUS
 10
11.0450292342
 20
35.1658846999
 11
11.0450292342
 21
35.2258846999
  0
LINE
  5
2DA
100
AcDbEntity
  8
0
100
AcDbLine
 62
7
  6
CONTINUOUS
 10
11.0450292342
 20
35.9758846999
 11
11.0450292342
 21
36.0558846999
  0
LINE
  5
2DB
100
AcDbEntity
  8
0
100
AcDbLine
 62
7
  6
CONTINUOUS
 10
11.0450292342
 20
36.8061892052
 11
11.0450292342
 21
36.8458846999
  0
LINE
  5
2DC
100
AcDbEntity
  8
0
100
AcDbLine
 62
7
  6
CONTINUOUS
 10
11.1719536184
 20
36.0558846999
 11
11.1719536184
 21
36.7501676197
  0
LINE
  5
2DD
100
AcDbEntity
  8
0
100
AcDbLine
 62
7
  6
CONTINUOUS
 10
11.1750292342
 20
35.2258846999
 11
11.1750292342
 21
35.9758846999
  0
LINE
  5
2DE
100
AcDbEntity
  8
0
100
AcDbLine
 62
7
  6
CONTINUOUS
 10
11.4950292342
 20
34.5158846999
 11
11.4950292342
 21
37.5158846999
  0
LWPOLYLINE
  5
2DF
100
AcDbEntity
  8
0
100
AcDbPolyline
 62
7
  6
CONTINUOUS
 90
12
 70
0
 10
11.1717262921
 20
36.7501675047
 10
11.1715720651
 20
36.7412130757
 10
11.1681779688
 20
36.7102119558
 10
11.1603585944
 20
36.6803395133
 10
11.1480978929
 20
36.6514566896
 10
11.1313477169
 20
36.6231463087
 10
11.1101454369
 20
36.5952692776
 10
11.0844536824
 20
36.5679646894
 10
11.0541121946
 20
36.5412326472
 10
11.0190675539
 20
36.5150731856
 10
10.9793731798
 20
36.4894862701
 10
10.9350290724
 20
36.4644719008
  0
LINE
  5
2E0
100
AcDbEntity
  8
RACCORDO
100
AcDbLine
 62
253
  6
CONTINUOUS
 10
12.6516753003
 20
10.6123942186
 11
12.6113154079
 21
12.9246109031
  0
LINE
  5
2E1
100
AcDbEntity
  8
RACCORDO
100
AcDbLine
 62
7
  6
CONTINUOUS
 10
13.1515991478
 20
10.6123942186
 11
13.1112392555
 21
12.9246109031
  0
LINE
  5
2E2
100
AcDbEntity
  8
RACCORDO
100
AcDbLine
 62
253
  6
CONTINUOUS
 10
13.6462255378
 20
8.5246109031
 11
13.6166433172
 21
10.2193751811
  0
LINE
  5
2E3
100
AcDbEntity
  8
RACCORDO
100
AcDbLine
 62
7
  6
CONTINUOUS
 10
14.1461493853
 20
8.5246109031
 11
14.1165671648
 21
10.2193751811
  0
LINE
  5
2E4
100
AcDbEntity
  8
RACCORDO
100
AcDbLine
 62
253
  6
CONTINUOUS
 10
12.6113154079
 20
13.4158846999
 11
12.6113153827
 21
12.9246109032
  0
LINE
  5
2E5
100
AcDbEntity
  8
RACCORDO
100
AcDbLine
 62
253
  6
CONTINUOUS
 10
12.6516753003
 20
10.4158846999
 11
12.6516753003
 21
10.6123942186
  0
LINE
  5
2E6
100
AcDbEntity
  8
RACCORDO
100
AcDbLine
 62
253
  6
CONTINUOUS
 10
13.6166433172
 20
10.4158846999
 11
13.6166432873
 21
10.2193751815
  0
LINE
  5
2E7
100
AcDbEntity
  8
RACCORDO
100
AcDbLine
 62
253
  6
CONTINUOUS
 10
13.6462255378
 20
8.0158846999
 11
13.6462255378
 21
8.5246109031
  0
LINE
  5
2E8
100
AcDbEntity
  8
0
100
AcDbLine
 62
7
  6
CONTINUOUS
 10
-0.4199707658
 20
35.4808846999
 11
-0.0699707658
 21
35.1308846999
  0
LINE
  5
2E9
100
AcDbEntity
  8
0
100
AcDbLine
 62
7
  6
CONTINUOUS
 10
0.7800292342
 20
34.3608846999
 11
1.1300292342
 21
34.0108846999
  0
LINE
  5
2EA
100
AcDbEntity
  8
RACCORDO
100
AcDbLine
 62
7
  6
CONTINUOUS
 10
14.1461493787
 20
8.5071581155
 11
14.1461493853
 21
8.5246109033
  0
LINE
  5
2EB
100
AcDbEntity
  8
0
100
AcDbLine
 62
7
  6
CONTINUOUS
 10
-0.4199707658
 20
38.0208846999
 11
-0.0699707658
 21
37.6708846999
  0
LINE
  5
2EC
100
AcDbEntity
  8
0
100
AcDbLine
 62
7
  6
CONTINUOUS
 10
2.1200292342
 20
35.4808846999
 11
2.4700292342
 21
35.1308846999
  0
LINE
  5
2ED
100
AcDbEntity
  8
0
100
AcDbLine
 62
7
  6
CONTINUOUS
 10
0.7800292342
 20
36.9008846999
 11
1.1300292342
 21
36.5508846999
  0
LINE
  5
2EE
100
AcDbEntity
  8
0
100
AcDbLine
 62
7
  6
CONTINUOUS
 10
3.3200292342
 20
34.3608846999
 11
3.6700292342
 21
34.0108846999
  0
LWPOLYLINE
  5
2EF
100
AcDbEntity
  8
0
100
AcDbPolyline
 62
7
  6
CONTINUOUS
 90
3
 70
0
 10
11.1650362765
 20
36.8061841717
 10
11.1705248344
 20
36.7732038143
 10
11.1717262921
 20
36.7501675047
  0
LINE
  5
2F0
100
AcDbEntity
  8
0
100
AcDbLine
 62
7
  6
CONTINUOUS
 10
2.1200292342
 20
38.0208846999
 11
2.4700292342
 21
37.6708846999
  0
LINE
  5
2F1
100
AcDbEntity
  8
0
100
AcDbLine
 62
7
  6
CONTINUOUS
 10
4.6600292342
 20
35.4808846999
 11
5.0100292342
 21
35.1308846999
  0
LINE
  5
2F2
100
AcDbEntity
  8
0
100
AcDbLine
 62
7
  6
CONTINUOUS
 10
3.3200292342
 20
36.9008846999
 11
3.6700292342
 21
36.5508846999
  0
LINE
  5
2F3
100
AcDbEntity
  8
0
100
AcDbLine
 62
7
  6
CONTINUOUS
 10
5.8600292342
 20
34.3608846999
 11
6.2100292342
 21
34.0108846999
  0
LINE
  5
2F4
100
AcDbEntity
  8
0
100
AcDbLine
 62
7
  6
CONTINUOUS
 10
3.4150292342
 20
39.0658846999
 11
3.7650292342
 21
38.5658846999
  0
LINE
  5
2F5
100
AcDbEntity
  8
0
100
AcDbLine
 62
7
  6
CONTINUOUS
 10
10.1584581161
 20
36.4644719008
 11
10.0350292342
 21
36.8058846999
  0
LINE
  5
2F6
100
AcDbEntity
  8
0
100
AcDbLine
 62
7
  6
CONTINUOUS
 10
-0.7399707658
 20
-0.7434321933
 11
-0.101973462
 21
-0.3398039898
  0
LINE
  5
2F7
100
AcDbEntity
  8
0
100
AcDbLine
 62
7
  6
CONTINUOUS
 10
4.6600292342
 20
38.0208846999
 11
5.0100292342
 21
37.6708846999
  0
LINE
  5
2F8
100
AcDbEntity
  8
0
100
AcDbLine
 62
7
  6
CONTINUOUS
 10
7.2000292342
 20
35.4808846999
 11
7.5500292342
 21
35.1308846999
  0
LINE
  5
2F9
100
AcDbEntity
  8
0
100
AcDbLine
 62
7
  6
CONTINUOUS
 10
5.8600292342
 20
36.9008846999
 11
6.2100292342
 21
36.5508846999
  0
LINE
  5
2FA
100
AcDbEntity
  8
0
100
AcDbLine
 62
7
  6
CONTINUOUS
 10
8.4000292342
 20
34.3608846999
 11
8.7500292342
 21
34.0108846999
  0
LINE
  5
2FB
100
AcDbEntity
  8
0
100
AcDbLine
 62
7
  6
CONTINUOUS
 10
5.9950292342
 20
39.0658846999
 11
6.3450292342
 21
38.5658846999
  0
LINE
  5
2FC
100
AcDbEntity
  8
ASSI
100
AcDbLine
 62
7
  6
CONTINUOUS
 10
9.0500292343
 20
32.9158846999
 11
-0.7399707658
 21
32.9158846999
  0
LINE
  5
2FD
100
AcDbEntity
  8
0
100
AcDbLine
 62
7
  6
CONTINUOUS
 10
-1.6449707658
 20
32.9658846999
 11
10.0150292342
 21
32.9658846999
  0
LINE
  5
2FE
100
AcDbEntity
  8
0
100
AcDbLine
 62
7
  6
CONTINUOUS
 10
10.0150292342
 20
33.1158846999
 11
10.0350292342
 21
33.1158846999
  0
LINE
  5
2FF
100
AcDbEntity
  8
0
100
AcDbLine
 62
7
  6
CONTINUOUS
 10
-0.4199707658
 20
34.0108846999
 11
1.1300292342
 21
34.0108846999
  0
LINE
  5
300
100
AcDbEntity
  8
0
100
AcDbLine
 62
7
  6
CONTINUOUS
 10
2.1200292342
 20
34.0108846999
 11
3.6700292342
 21
34.0108846999
  0
LINE
  5
301
100
AcDbEntity
  8
0
100
AcDbLine
 62
7
  6
CONTINUOUS
 10
4.6600292342
 20
34.0108846999
 11
6.2100292342
 21
34.0108846999
  0
LINE
  5
302
100
AcDbEntity
  8
0
100
AcDbLine
 62
7
  6
CONTINUOUS
 10
7.2000292342
 20
34.0108846999
 11
8.7500292342
 21
34.0108846999
  0
LWPOLYLINE
  5
303
100
AcDbEntity
  8
0
100
AcDbPolyline
 62
7
  6
CONTINUOUS
 90
31
 70
0
 10
10.6154045124
 20
34.5501992749
 10
10.6259455986
 20
34.5502996318
 10
10.6363852773
 20
34.5505916575
 10
10.6467235484
 20
34.5510777049
 10
10.6569852045
 20
34.5517636294
 10
10.6671454529
 20
34.552652934
 10
10.6771299168
 20
34.553746525
 10
10.6869442021
 20
34.5550548273
 10
10.6965827029
 20
34.5565852332
 10
10.7059542232
 20
34.5583352687
 10
10.7150456363
 20
34.5603149892
 10
10.723870069
 20
34.5625383016
 10
10.7323757063
 20
34.5650088463
 10
10.7405642848
 20
34.5677415697
 10
10.7484340679
 20
34.5707506232
 10
10.7559280303
 20
34.5740381502
 10
10.7630402625
 20
34.5776168198
 10
10.7697766741
 20
34.5815058122
 10
10.776097969
 20
34.5857166013
 10
10.7820046673
 20
34.5902640492
 10
10.7874962489
 20
34.5951680925
 10
10.7925318578
 20
34.6004482922
 10
10.7971136337
 20
34.6061204947
 10
10.8012394369
 20
34.6122066513
 10
10.8048619921
 20
34.6187370901
 10
10.8079851724
 20
34.6257289091
 10
10.8106051047
 20
34.6332063864
 10
10.8126628943
 20
34.6412138092
 10
10.8141389097
 20
34.6497822087
 10
10.8150527824
 20
34.6589270388
 10
10.8154045124
 20
34.6686711044
  0
LWPOLYLINE
  5
304
100
AcDbEntity
  8
0
100
AcDbPolyline
 62
7
  6
CONTINUOUS
 90
31
 70
0
 10
-1.8449707658
 20
34.5501992749
 10
-1.8344296978
 20
34.5502996315
 10
-1.8239900374
 20
34.5505916561
 10
-1.8136517844
 20
34.5510777017
 10
-1.8033901536
 20
34.5517636225
 10
-1.7932299302
 20
34.5526529224
 10
-1.7832454702
 20
34.5537465119
 10
-1.7734311487
 20
34.5550548185
 10
-1.7637925906
 20
34.5565852322
 10
-1.7544210256
 20
34.5583352746
 10
-1.7453295925
 20
34.5603150006
 10
-1.7365051526
 20
34.5625383175
 10
-1.7279995201
 20
34.5650088624
 10
-1.7198109644
 20
34.5677415784
 10
-1.711941216
 20
34.5707506194
 10
-1.7044472815
 20
34.5740381344
 10
-1.6973350612
 20
34.5776167965
 10
-1.6905986548
 20
34.5815057823
 10
-1.6842773672
 20
34.5857165598
 10
-1.6783706866
 20
34.5902639828
 10
-1.6728791249
 20
34.5951679949
 10
-1.6678435236
 20
34.6004481749
 10
-1.6632617328
 20
34.6061203814
 10
-1.6591359023
 20
34.6122065564
 10
-1.6555133235
 20
34.6187370154
 10
-1.6523901287
 20
34.625728853
 10
-1.6497701854
 20
34.6332063505
 10
-1.6477123881
 20
34.64121379
 10
-1.646236368
 20
34.6497822005
 10
-1.6453224939
 20
34.6589270371
 10
-1.6449707658
 20
34.6686711044
  0
LINE
  5
305
100
AcDbEntity
  8
0
100
AcDbLine
 62
7
  6
CONTINUOUS
 10
-0.0699707658
 20
34.3608846999
 11
0.7800292342
 21
34.3608846999
  0
LINE
  5
306
100
AcDbEntity
  8
0
100
AcDbLine
 62
7
  6
CONTINUOUS
 10
2.4700292342
 20
34.3608846999
 11
3.3200292342
 21
34.3608846999
  0
LINE
  5
307
100
AcDbEntity
  8
0
100
AcDbLine
 62
7
  6
CONTINUOUS
 10
5.0100292342
 20
34.3608846999
 11
5.8600292342
 21
34.3608846999
  0
LINE
  5
308
100
AcDbEntity
  8
0
100
AcDbLine
 62
7
  6
CONTINUOUS
 10
7.5500292342
 20
34.3608846999
 11
8.4000292342
 21
34.3608846999
  0
LINE
  5
309
100
AcDbEntity
  8
0
100
AcDbLine
 62
7
  6
CONTINUOUS
 10
11.4950292342
 20
34.5158846999
 11
10.0150292342
 21
34.5158846999
  0
LINE
  5
30A
100
AcDbEntity
  8
0
100
AcDbLine
 62
7
  6
CONTINUOUS
 10
-1.6449707658
 20
34.5158846999
 11
-3.1249707658
 21
34.5158846999
  0
LINE
  5
30B
100
AcDbEntity
  8
0
100
AcDbLine
 62
7
  6
CONTINUOUS
 10
-2.2453460439
 20
34.5501992749
 11
-1.8449707658
 21
34.5501992749
  0
LINE
  5
30C
100
AcDbEntity
  8
0
100
AcDbLine
 62
7
  6
CONTINUOUS
 10
10.2150292342
 20
34.5501992749
 11
10.6154045124
 21
34.5501992749
  0
LINE
  5
30D
100
AcDbEntity
  8
0
100
AcDbLine
 62
253
  6
CONTINUOUS
 10
-3.1249707658
 20
35.1158846999
 11
-2.4453460439
 21
35.1158846999
  0
LINE
  5
30E
100
AcDbEntity
  8
0
100
AcDbLine
 62
253
  6
CONTINUOUS
 10
10.8154045124
 20
35.1158846999
 11
11.4950292342
 21
35.1158846999
  0
LINE
  5
30F
100
AcDbEntity
  8
0
100
AcDbLine
 62
7
  6
CONTINUOUS
 10
8.4000292342
 20
35.1308846999
 11
7.5500292342
 21
35.1308846999
  0
LINE
  5
310
100
AcDbEntity
  8
0
100
AcDbLine
 62
7
  6
CONTINUOUS
 10
5.8600292342
 20
35.1308846999
 11
5.0100292342
 21
35.1308846999
  0
LINE
  5
311
100
AcDbEntity
  8
0
100
AcDbLine
 62
7
  6
CONTINUOUS
 10
3.3200292342
 20
35.1308846999
 11
2.4700292342
 21
35.1308846999
  0
LINE
  5
312
100
AcDbEntity
  8
0
100
AcDbLine
 62
7
  6
CONTINUOUS
 10
0.7800292342
 20
35.1308846999
 11
-0.0699707658
 21
35.1308846999
  0
LINE
  5
313
100
AcDbEntity
  8
0
100
AcDbLine
 62
7
  6
CONTINUOUS
 10
-1.6449707658
 20
35.1658846999
 11
-3.1249707658
 21
35.1658846999
  0
LINE
  5
314
100
AcDbEntity
  8
0
100
AcDbLine
 62
7
  6
CONTINUOUS
 10
10.0150292342
 20
35.1658846999
 11
11.4950292342
 21
35.1658846999
  0
LINE
  5
315
100
AcDbEntity
  8
0
100
AcDbLine
 62
7
  6
CONTINUOUS
 10
10.0150292342
 20
35.2258846999
 11
11.1750292342
 21
35.2258846999
  0
LINE
  5
316
100
AcDbEntity
  8
0
100
AcDbLine
 62
7
  6
CONTINUOUS
 10
8.7500292342
 20
35.4808846999
 11
7.2000292342
 21
35.4808846999
  0
LINE
  5
317
100
AcDbEntity
  8
0
100
AcDbLine
 62
7
  6
CONTINUOUS
 10
6.2100292342
 20
35.4808846999
 11
4.6600292342
 21
35.4808846999
  0
LINE
  5
318
100
AcDbEntity
  8
0
100
AcDbLine
 62
7
  6
CONTINUOUS
 10
3.6700292342
 20
35.4808846999
 11
2.1200292342
 21
35.4808846999
  0
LINE
  5
319
100
AcDbEntity
  8
0
100
AcDbLine
 62
7
  6
CONTINUOUS
 10
1.1300292342
 20
35.4808846999
 11
-0.4199707658
 21
35.4808846999
  0
LINE
  5
31A
100
AcDbEntity
  8
0
100
AcDbLine
 62
7
  6
CONTINUOUS
 10
-2.4849706081
 20
35.5672974998
 11
-1.7083996479
 21
35.5672974998
  0
LINE
  5
31B
100
AcDbEntity
  8
0
100
AcDbLine
 62
7
  6
CONTINUOUS
 10
10.1584581207
 20
35.5672975119
 11
10.9350292342
 21
35.5672975119
  0
LINE
  5
31C
100
AcDbEntity
  8
0
100
AcDbLine
 62
7
  6
CONTINUOUS
 10
-1.6449707658
 20
35.2258846999
 11
-2.7149770471
 21
35.2255851489
  0
LWPOLYLINE
  5
31D
100
AcDbEntity
  8
0
100
AcDbPolyline
 62
7
  6
CONTINUOUS
 90
31
 70
0
 10
-2.2453460439
 20
34.5501992749
 10
-2.2558402218
 20
34.5502931501
 10
-2.2662892308
 20
34.5505859505
 10
-2.2766645743
 20
34.5510776761
 10
-2.2869357869
 20
34.5517635226
 10
-2.2970777469
 20
34.5526482944
 10
-2.3070704491
 20
34.5537464041
 10
-2.3168952224
 20
34.5550565516
 10
-2.3265175275
 20
34.556580037
 10
-2.3358952834
 20
34.5583351736
 10
-2.3449948313
 20
34.5603180157
 10
-2.3538046324
 20
34.5625325089
 10
-2.3623170979
 20
34.5650088027
 10
-2.3705141581
 20
34.5677461184
 10
-2.3783711977
 20
34.5707452348
 10
-2.3858706008
 20
34.5740386381
 10
-2.3929885448
 20
34.577622138
 10
-2.3997124738
 20
34.5814999249
 10
-2.4060401353
 20
34.5857170553
 10
-2.4119521023
 20
34.5902699582
 10
-2.4174314324
 20
34.5951622046
 10
-2.4224745092
 20
34.6004495648
 10
-2.427060873
 20
34.606127236
 10
-2.4311729173
 20
34.6122000208
 10
-2.4348040278
 20
34.6187380975
 10
-2.437931858
 20
34.6257354859
 10
-2.4405363594
 20
34.6331981662
 10
-2.4426045226
 20
34.6412142563
 10
-2.4441127631
 20
34.6498131291
 10
-2.4450341438
 20
34.6589654118
 10
-2.4453460439
 20
34.6686711044
  0
LWPOLYLINE
  5
31E
100
AcDbEntity
  8
0
100
AcDbPolyline
 62
7
  6
CONTINUOUS
 90
31
 70
0
 10
10.2150292342
 20
34.5501992749
 10
10.2045350564
 20
34.5502931501
 10
10.1940860474
 20
34.5505859505
 10
10.1837107039
 20
34.5510776761
 10
10.1734394913
 20
34.5517635226
 10
10.1632975313
 20
34.5526482944
 10
10.1533048291
 20
34.5537464041
 10
10.1434800558
 20
34.5550565516
 10
10.1338577507
 20
34.556580037
 10
10.1244799948
 20
34.5583351736
 10
10.1153804469
 20
34.5603180157
 10
10.1065706458
 20
34.5625325089
 10
10.0980581803
 20
34.5650088027
 10
10.0898611201
 20
34.5677461184
 10
10.0820040805
 20
34.5707452348
 10
10.0745046774
 20
34.5740386381
 10
10.0673867334
 20
34.577622138
 10
10.0606628044
 20
34.5814999249
 10
10.0543351429
 20
34.5857170553
 10
10.0484231759
 20
34.5902699582
 10
10.0429438458
 20
34.5951622046
 10
10.037900769
 20
34.6004495648
 10
10.0333144052
 20
34.606127236
 10
10.0292023609
 20
34.6122000208
 10
10.0255712504
 20
34.6187380975
 10
10.0224434201
 20
34.6257354859
 10
10.0198389187
 20
34.6331981662
 10
10.0177707556
 20
34.6412142563
 10
10.0162625151
 20
34.6498131291
 10
10.0153411344
 20
34.6589654118
 10
10.0150292342
 20
34.6686711044
  0
LINE
  5
31F
100
AcDbEntity
  8
0
100
AcDbLine
 62
7
  6
CONTINUOUS
 10
7.2000292342
 20
38.0208846999
 11
7.5500292342
 21
37.6708846999
  0
LINE
  5
320
100
AcDbEntity
  8
0
100
AcDbLine
 62
7
  6
CONTINUOUS
 10
8.4000292342
 20
36.9008846999
 11
8.7500292342
 21
36.5508846999
  0
LWPOLYLINE
  5
321
100
AcDbEntity
  8
0
100
AcDbPolyline
 62
7
  6
CONTINUOUS
 90
31
 70
0
 10
10.2150292342
 20
37.4815701248
 10
10.204488148
 20
37.4814697679
 10
10.1940484694
 20
37.4811777422
 10
10.1837101982
 20
37.4806916949
 10
10.1734485422
 20
37.4800057703
 10
10.1632882937
 20
37.4791164657
 10
10.1533038299
 20
37.4780228747
 10
10.1434895445
 20
37.4767145725
 10
10.1338510438
 20
37.4751841665
 10
10.1244795235
 20
37.473434131
 10
10.1153881104
 20
37.4714544105
 10
10.1065636777
 20
37.4692310981
 10
10.0980580404
 20
37.4667605535
 10
10.0898694619
 20
37.46402783
 10
10.0819996788
 20
37.4610187766
 10
10.0745057163
 20
37.4577312495
 10
10.0673934842
 20
37.4541525799
 10
10.0606570726
 20
37.4502635875
 10
10.0543357777
 20
37.4460527984
 10
10.0484290794
 20
37.4415053505
 10
10.0429374978
 20
37.4366013072
 10
10.0379018889
 20
37.4313211075
 10
10.033320113
 20
37.425648905
 10
10.0291943098
 20
37.4195627484
 10
10.0255717546
 20
37.4130323096
 10
10.0224485743
 20
37.4060404906
 10
10.019828642
 20
37.3985630133
 10
10.0177708524
 20
37.3905555905
 10
10.016294837
 20
37.381987191
 10
10.0153809643
 20
37.3728423609
 10
10.0150292342
 20
37.3630982954
  0
LINE
  5
322
100
AcDbEntity
  8
0
100
AcDbLine
 62
7
  6
CONTINUOUS
 10
11.1750292342
 20
35.9758846999
 11
10.9350292342
 21
35.9758846999
  0
LINE
  5
323
100
AcDbEntity
  8
0
100
AcDbLine
 62
7
  6
CONTINUOUS
 10
-2.4849707263
 20
35.9758846999
 11
-2.7177671167
 21
35.9758846999
  0
LINE
  5
324
100
AcDbEntity
  8
0
100
AcDbLine
 62
7
  6
CONTINUOUS
 10
-2.7249707658
 20
36.0558846999
 11
-2.4849707658
 21
36.0558846999
  0
LINE
  5
325
100
AcDbEntity
  8
0
100
AcDbLine
 62
7
  6
CONTINUOUS
 10
10.9350291944
 20
36.0558846999
 11
11.1719910161
 21
36.0558846999
  0
LINE
  5
326
100
AcDbEntity
  8
0
100
AcDbLine
 62
7
  6
CONTINUOUS
 10
10.9350290724
 20
36.4644719008
 11
10.1584581161
 21
36.4644719008
  0
LINE
  5
327
100
AcDbEntity
  8
0
100
AcDbLine
 62
7
  6
CONTINUOUS
 10
-2.4849707263
 20
36.4644718879
 11
-1.7083996523
 21
36.4644718879
  0
LINE
  5
328
100
AcDbEntity
  8
0
100
AcDbLine
 62
7
  6
CONTINUOUS
 10
-0.4199707658
 20
36.5508846999
 11
1.1300292342
 21
36.5508846999
  0
LINE
  5
329
100
AcDbEntity
  8
0
100
AcDbLine
 62
7
  6
CONTINUOUS
 10
2.1200292342
 20
36.5508846999
 11
3.6700292342
 21
36.5508846999
  0
LINE
  5
32A
100
AcDbEntity
  8
0
100
AcDbLine
 62
7
  6
CONTINUOUS
 10
4.6600292342
 20
36.5508846999
 11
6.2100292342
 21
36.5508846999
  0
LINE
  5
32B
100
AcDbEntity
  8
0
100
AcDbLine
 62
7
  6
CONTINUOUS
 10
7.2000292342
 20
36.5508846999
 11
8.7500292342
 21
36.5508846999
  0
LINE
  5
32C
100
AcDbEntity
  8
0
100
AcDbLine
 62
7
  6
CONTINUOUS
 10
-2.7249707658
 20
36.8058846999
 11
-1.6449707658
 21
36.8058846999
  0
LINE
  5
32D
100
AcDbEntity
  8
0
100
AcDbLine
 62
7
  6
CONTINUOUS
 10
-2.6749707658
 20
36.8458846999
 11
-1.6449707658
 21
36.8458846999
  0
LINE
  5
32E
100
AcDbEntity
  8
0
100
AcDbLine
 62
7
  6
CONTINUOUS
 10
10.0150292342
 20
36.8458846999
 11
11.4950292342
 21
36.8458846999
  0
LINE
  5
32F
100
AcDbEntity
  8
0
100
AcDbLine
 62
7
  6
CONTINUOUS
 10
-3.1249707658
 20
36.8658846999
 11
-1.6449707658
 21
36.8658846999
  0
LINE
  5
330
100
AcDbEntity
  8
0
100
AcDbLine
 62
7
  6
CONTINUOUS
 10
-0.0699707658
 20
36.9008846999
 11
0.7800292342
 21
36.9008846999
  0
LINE
  5
331
100
AcDbEntity
  8
0
100
AcDbLine
 62
7
  6
CONTINUOUS
 10
2.4700292342
 20
36.9008846999
 11
3.3200292342
 21
36.9008846999
  0
LINE
  5
332
100
AcDbEntity
  8
0
100
AcDbLine
 62
7
  6
CONTINUOUS
 10
5.0100292342
 20
36.9008846999
 11
5.8600292342
 21
36.9008846999
  0
LINE
  5
333
100
AcDbEntity
  8
0
100
AcDbLine
 62
7
  6
CONTINUOUS
 10
7.5500292342
 20
36.9008846999
 11
8.4000292342
 21
36.9008846999
  0
LINE
  5
334
100
AcDbEntity
  8
0
100
AcDbLine
 62
253
  6
CONTINUOUS
 10
11.4950292342
 20
36.9158846999
 11
10.8154045124
 21
36.9158846999
  0
LINE
  5
335
100
AcDbEntity
  8
0
100
AcDbLine
 62
253
  6
CONTINUOUS
 10
-2.4453460439
 20
36.9158846999
 11
-3.1249707658
 21
36.9158846999
  0
LINE
  5
336
100
AcDbEntity
  8
0
100
AcDbLine
 62
7
  6
CONTINUOUS
 10
10.6154045124
 20
37.4815701248
 11
10.2150292342
 21
37.4815701248
  0
LINE
  5
337
100
AcDbEntity
  8
0
100
AcDbLine
 62
7
  6
CONTINUOUS
 10
-1.8449707658
 20
37.4815701248
 11
-2.2453460439
 21
37.4815701248
  0
LINE
  5
338
100
AcDbEntity
  8
0
100
AcDbLine
 62
7
  6
CONTINUOUS
 10
10.0150292342
 20
36.8058846999
 11
11.1650362765
 21
36.8061841717
  0
LWPOLYLINE
  5
339
100
AcDbEntity
  8
0
100
AcDbPolyline
 62
7
  6
CONTINUOUS
 90
31
 70
0
 10
-1.8449707658
 20
37.4815701248
 10
-1.8344765879
 20
37.4814762496
 10
-1.8240275789
 20
37.4811834492
 10
-1.8136522354
 20
37.4806917236
 10
-1.8033810228
 20
37.4800058771
 10
-1.7932390628
 20
37.4791211053
 10
-1.7832463606
 20
37.4780229956
 10
-1.7734215873
 20
37.4767128481
 10
-1.7637992822
 20
37.4751893627
 10
-1.7544215263
 20
37.4734342261
 10
-1.7453219784
 20
37.471451384
 10
-1.7365121773
 20
37.4692368909
 10
-1.7279997118
 20
37.466760597
 10
-1.7198026516
 20
37.4640232813
 10
-1.711945612
 20
37.4610241649
 10
-1.7044462089
 20
37.4577307616
 10
-1.6973282649
 20
37.4541472617
 10
-1.6906043359
 20
37.4502694748
 10
-1.6842766744
 20
37.4460523444
 10
-1.6783647074
 20
37.4414994415
 10
-1.6728853773
 20
37.4366071951
 10
-1.6678423005
 20
37.4313198349
 10
-1.6632559367
 20
37.4256421638
 10
-1.6591438924
 20
37.4195693789
 10
-1.6555127819
 20
37.4130313022
 10
-1.6523849517
 20
37.4060339138
 10
-1.6497804503
 20
37.3985712335
 10
-1.6477122871
 20
37.3905551434
 10
-1.6462040466
 20
37.3819562706
 10
-1.6452826659
 20
37.3728039879
 10
-1.6449707658
 20
37.3630982954
  0
LWPOLYLINE
  5
33A
100
AcDbEntity
  8
0
100
AcDbPolyline
 62
7
  6
CONTINUOUS
 90
31
 70
0
 10
-2.2453460439
 20
37.4815701248
 10
-2.2558871301
 20
37.4814697679
 10
-2.2663268088
 20
37.4811777422
 10
-2.27666508
 20
37.4806916949
 10
-2.286926736
 20
37.4800057703
 10
-2.2970869845
 20
37.4791164657
 10
-2.3070714483
 20
37.4780228747
 10
-2.3168857337
 20
37.4767145725
 10
-2.3265242344
 20
37.4751841665
 10
-2.3358957547
 20
37.473434131
 10
-2.3449871678
 20
37.4714544105
 10
-2.3538116005
 20
37.4692310981
 10
-2.3623172378
 20
37.4667605535
 10
-2.3705058163
 20
37.46402783
 10
-2.3783755994
 20
37.4610187766
 10
-2.3858695618
 20
37.4577312495
 10
-2.392981794
 20
37.4541525799
 10
-2.3997182056
 20
37.4502635875
 10
-2.4060395005
 20
37.4460527984
 10
-2.4119461988
 20
37.4415053505
 10
-2.4174377804
 20
37.4366013072
 10
-2.4224733893
 20
37.4313211075
 10
-2.4270551652
 20
37.425648905
 10
-2.4311809684
 20
37.4195627484
 10
-2.4348035236
 20
37.4130323096
 10
-2.4379267039
 20
37.4060404906
 10
-2.4405466362
 20
37.3985630133
 10
-2.4426044258
 20
37.3905555905
 10
-2.4440804412
 20
37.381987191
 10
-2.4449943139
 20
37.3728423609
 10
-2.4453460439
 20
37.3630982954
  0
LINE
  5
33B
100
AcDbEntity
  8
0
100
AcDbLine
 62
7
  6
CONTINUOUS
 10
-3.1249707658
 20
37.5158846999
 11
-1.6449707658
 21
37.5158846999
  0
LINE
  5
33C
100
AcDbEntity
  8
0
100
AcDbLine
 62
7
  6
CONTINUOUS
 10
10.0150292342
 20
37.5158846999
 11
11.4950292342
 21
37.5158846999
  0
LINE
  5
33D
100
AcDbEntity
  8
0
100
AcDbLine
 62
7
  6
CONTINUOUS
 10
8.4000292342
 20
37.6708846999
 11
7.5500292342
 21
37.6708846999
  0
LINE
  5
33E
100
AcDbEntity
  8
0
100
AcDbLine
 62
7
  6
CONTINUOUS
 10
5.8600292342
 20
37.6708846999
 11
5.0100292342
 21
37.6708846999
  0
LINE
  5
33F
100
AcDbEntity
  8
0
100
AcDbLine
 62
7
  6
CONTINUOUS
 10
3.3200292342
 20
37.6708846999
 11
2.4700292342
 21
37.6708846999
  0
LINE
  5
340
100
AcDbEntity
  8
0
100
AcDbLine
 62
7
  6
CONTINUOUS
 10
0.7800292342
 20
37.6708846999
 11
-0.0699707658
 21
37.6708846999
  0
LINE
  5
341
100
AcDbEntity
  8
0
100
AcDbLine
 62
7
  6
CONTINUOUS
 10
8.7500292342
 20
38.0208846999
 11
7.2000292342
 21
38.0208846999
  0
LINE
  5
342
100
AcDbEntity
  8
0
100
AcDbLine
 62
7
  6
CONTINUOUS
 10
6.2100292342
 20
38.0208846999
 11
4.6600292342
 21
38.0208846999
  0
LINE
  5
343
100
AcDbEntity
  8
0
100
AcDbLine
 62
7
  6
CONTINUOUS
 10
3.6700292342
 20
38.0208846999
 11
2.1200292342
 21
38.0208846999
  0
LINE
  5
344
100
AcDbEntity
  8
0
100
AcDbLine
 62
7
  6
CONTINUOUS
 10
1.1300292342
 20
38.0208846999
 11
-0.4199707658
 21
38.0208846999
  0
LINE
  5
345
100
AcDbEntity
  8
0
100
AcDbLine
 62
7
  6
CONTINUOUS
 10
3.7650292342
 20
38.5658846999
 11
4.5650292342
 21
38.5658846999
  0
LINE
  5
346
100
AcDbEntity
  8
0
100
AcDbLine
 62
7
  6
CONTINUOUS
 10
6.3450292342
 20
38.5658846999
 11
7.1450292342
 21
38.5658846999
  0
LINE
  5
347
100
AcDbEntity
  8
0
100
AcDbLine
 62
7
  6
CONTINUOUS
 10
10.0350292342
 20
38.9158846999
 11
10.0150292342
 21
38.9158846999
  0
LINE
  5
348
100
AcDbEntity
  8
0
100
AcDbLine
 62
7
  6
CONTINUOUS
 10
6.0350292342
 20
39.0658846999
 11
5.9950292342
 21
39.0658846999
  0
LINE
  5
349
100
AcDbEntity
  8
0
100
AcDbLine
 62
7
  6
CONTINUOUS
 10
-1.6449707658
 20
39.0658846999
 11
2.3350292342
 21
39.0658846999
  0
LINE
  5
34A
100
AcDbEntity
  8
0
100
AcDbLine
 62
7
  6
CONTINUOUS
 10
3.3350292342
 20
39.0658846999
 11
3.4150292342
 21
39.0658846999
  0
LINE
  5
34B
100
AcDbEntity
  8
0
100
AcDbLine
 62
7
  6
CONTINUOUS
 10
4.9150292342
 20
39.0658846999
 11
5.0350292342
 21
39.0658846999
  0
LINE
  5
34C
100
AcDbEntity
  8
0
100
AcDbLine
 62
7
  6
CONTINUOUS
 10
7.4950292342
 20
39.0658846999
 11
10.0150292342
 21
39.0658846999
  0
LWPOLYLINE
  5
34D
100
AcDbEntity
  8
0
100
AcDbPolyline
 62
7
  6
CONTINUOUS
 90
31
 70
0
 10
10.6154045124
 20
37.4815701248
 10
10.6258986903
 20
37.4814762496
 10
10.6363476993
 20
37.4811834492
 10
10.6467230427
 20
37.4806917236
 10
10.6569942554
 20
37.4800058771
 10
10.6671362153
 20
37.4791211053
 10
10.6771289176
 20
37.4780229956
 10
10.6869536909
 20
37.4767128481
 10
10.696575996
 20
37.4751893627
 10
10.7059537519
 20
37.4734342261
 10
10.7150532998
 20
37.471451384
 10
10.7238631009
 20
37.4692368909
 10
10.7323755664
 20
37.466760597
 10
10.7405726266
 20
37.4640232813
 10
10.7484296662
 20
37.4610241649
 10
10.7559290692
 20
37.4577307616
 10
10.7630470133
 20
37.4541472617
 10
10.7697709423
 20
37.4502694748
 10
10.7760986038
 20
37.4460523444
 10
10.7820105708
 20
37.4414994415
 10
10.7874899009
 20
37.4366071951
 10
10.7925329777
 20
37.4313198349
 10
10.7971193415
 20
37.4256421638
 10
10.8012313857
 20
37.4195693789
 10
10.8048624963
 20
37.4130313022
 10
10.8079903265
 20
37.4060339138
 10
10.8105948279
 20
37.3985712335
 10
10.812662991
 20
37.3905551434
 10
10.8141712316
 20
37.3819562706
 10
10.8150926123
 20
37.3728039879
 10
10.8154045124
 20
37.3630982954
  0
LINE
  5
34E
100
AcDbEntity
  8
0
100
AcDbLine
 62
7
  6
CONTINUOUS
 10
2.3350292342
 20
39.9658846999
 11
3.3350292342
 21
39.9658846999
  0
LINE
  5
34F
100
AcDbEntity
  8
0
100
AcDbLine
 62
7
  6
CONTINUOUS
 10
5.0350292342
 20
39.9658846999
 11
6.0350292342
 21
39.9658846999
  0
LINE
  5
350
100
AcDbEntity
  8
0
100
AcDbLine
 62
7
  6
CONTINUOUS
 10
2.3350292342
 20
-55.7985914646
 11
3.3350292342
 21
-55.7985914646
  0
LINE
  5
351
100
AcDbEntity
  8
0
100
AcDbLine
 62
7
  6
CONTINUOUS
 10
5.0350292342
 20
-55.7985914646
 11
6.0350292342
 21
-55.7985914646
  0
LINE
  5
352
100
AcDbEntity
  8
0
100
AcDbLine
 62
7
  6
CONTINUOUS
 10
-0.101973462
 20
-3.3400059898
 11
-0.7399707658
 21
-3.7436341933
  0
LINE
  5
353
100
AcDbEntity
  8
0
100
AcDbLine
 62
7
  6
CONTINUOUS
 10
10.0150292342
 20
-54.8985914646
 11
7.4950292342
 21
-54.8985914646
  0
LINE
  5
354
100
AcDbEntity
  8
0
100
AcDbLine
 62
7
  6
CONTINUOUS
 10
6.0350292342
 20
-54.8985914646
 11
4.9150292342
 21
-54.8985914646
  0
LINE
  5
355
100
AcDbEntity
  8
0
100
AcDbLine
 62
7
  6
CONTINUOUS
 10
-1.6449707658
 20
-54.8985914646
 11
3.4150292342
 21
-54.8985914646
  0
LINE
  5
356
100
AcDbEntity
  8
0
100
AcDbLine
 62
7
  6
CONTINUOUS
 10
-1.5849707658
 20
-54.7485914646
 11
-1.1449707658
 21
-54.7485914646
  0
LINE
  5
357
100
AcDbEntity
  8
0
100
AcDbLine
 62
7
  6
CONTINUOUS
 10
9.5950292342
 20
-54.7485914646
 11
10.0350292342
 21
-54.7485914646
  0
LINE
  5
358
100
AcDbEntity
  8
0
100
AcDbLine
 62
7
  6
CONTINUOUS
 10
1.5097297726
 20
-54.6485914646
 11
-0.7996713041
 21
-54.6485914646
  0
LINE
  5
359
100
AcDbEntity
  8
0
100
AcDbLine
 62
7
  6
CONTINUOUS
 10
3.4150292342
 20
-54.3985914646
 11
4.9150292342
 21
-54.3985914646
  0
LINE
  5
35A
100
AcDbEntity
  8
0
100
AcDbLine
 62
7
  6
CONTINUOUS
 10
5.9950292342
 20
-54.3985914646
 11
7.4950292342
 21
-54.3985914646
  0
LINE
  5
35B
100
AcDbEntity
  8
0
100
AcDbLine
 62
7
  6
CONTINUOUS
 10
10.0350292342
 20
-54.2485914646
 11
-1.5849707658
 21
-54.2485914646
  0
LINE
  5
35C
100
AcDbEntity
  8
0
100
AcDbLine
 62
7
  6
CONTINUOUS
 10
-1.5849707658
 20
-53.3485914646
 11
-3.1249707658
 21
-53.3485914646
  0
LINE
  5
35D
100
AcDbEntity
  8
0
100
AcDbLine
 62
7
  6
CONTINUOUS
 10
10.0350292342
 20
-53.3485914646
 11
11.4950292342
 21
-53.3485914646
  0
LINE
  5
35E
100
AcDbEntity
  8
0
100
AcDbLine
 62
7
  6
CONTINUOUS
 10
11.4950292342
 20
-52.6785914646
 11
10.9350292342
 21
-52.6785914646
  0
LINE
  5
35F
100
AcDbEntity
  8
0
100
AcDbLine
 62
7
  6
CONTINUOUS
 10
-2.4849707658
 20
-52.6785914646
 11
-2.7904408196
 21
-52.6785914646
  0
LINE
  5
360
100
AcDbEntity
  8
0
100
AcDbLine
 62
7
  6
CONTINUOUS
 10
-2.6749707658
 20
-52.6385914646
 11
-2.4849707658
 21
-52.6385914646
  0
LINE
  5
361
100
AcDbEntity
  8
0
100
AcDbLine
 62
7
  6
CONTINUOUS
 10
-2.4849707658
 20
-51.8885914646
 11
-2.6749707658
 21
-51.8885914646
  0
LINE
  5
362
100
AcDbEntity
  8
0
100
AcDbLine
 62
7
  6
CONTINUOUS
 10
10.9350292412
 20
-51.8885914646
 11
11.0450292342
 21
-51.8885914646
  0
LINE
  5
363
100
AcDbEntity
  8
0
100
AcDbLine
 62
7
  6
CONTINUOUS
 10
-2.4849707728
 20
-51.8085914646
 11
-2.6749707658
 21
-51.8085914646
  0
LINE
  5
364
100
AcDbEntity
  8
0
100
AcDbLine
 62
7
  6
CONTINUOUS
 10
10.9350292342
 20
-51.8085914646
 11
11.0450292342
 21
-51.8085914646
  0
LINE
  5
365
100
AcDbEntity
  8
0
100
AcDbLine
 62
7
  6
CONTINUOUS
 10
10.9350292483
 20
-52.638810629
 11
11.0450292342
 21
-52.6388959699
  0
LINE
  5
366
100
AcDbEntity
  8
0
100
AcDbLine
 62
7
  6
CONTINUOUS
 10
11.0450292342
 20
-51.0585914646
 11
10.9350292342
 21
-51.0585914646
  0
LINE
  5
367
100
AcDbEntity
  8
0
100
AcDbLine
 62
7
  6
CONTINUOUS
 10
-2.7904408196
 20
-50.9985914646
 11
-2.4849707658
 21
-50.9985914646
  0
LINE
  5
368
100
AcDbEntity
  8
0
100
AcDbLine
 62
7
  6
CONTINUOUS
 10
10.9350292342
 20
-50.9985914646
 11
11.4950292342
 21
-50.9985914646
  0
LINE
  5
369
100
AcDbEntity
  8
0
100
AcDbLine
 62
7
  6
CONTINUOUS
 10
-1.5849707658
 20
-50.3485914646
 11
-3.1249707658
 21
-50.3485914646
  0
LINE
  5
36A
100
AcDbEntity
  8
0
100
AcDbLine
 62
7
  6
CONTINUOUS
 10
10.0350292342
 20
-50.3485914646
 11
11.4950292342
 21
-50.3485914646
  0
LINE
  5
36B
100
AcDbEntity
  8
0
100
AcDbLine
 62
7
  6
CONTINUOUS
 10
-2.4849707798
 20
-51.0583723003
 11
-2.6749707658
 21
-51.0582910825
  0
LINE
  5
36C
100
AcDbEntity
  8
0
100
AcDbLine
 62
7
  6
CONTINUOUS
 10
10.0350292342
 20
-49.4485914646
 11
-1.5849707658
 21
-49.4485914646
  0
LINE
  5
36D
100
AcDbEntity
  8
0
100
AcDbLine
 62
7
  6
CONTINUOUS
 10
10.0350292342
 20
-48.9485914646
 11
9.5950292342
 21
-48.9485914646
  0
LINE
  5
36E
100
AcDbEntity
  8
0
100
AcDbLine
 62
7
  6
CONTINUOUS
 10
-1.1449707658
 20
-48.9485914646
 11
-1.5849707658
 21
-48.9485914646
  0
LINE
  5
36F
100
AcDbEntity
  8
0
100
AcDbLine
 62
7
  6
CONTINUOUS
 10
10.0150292342
 20
-48.7985914646
 11
-1.6449707658
 21
-48.7985914646
  0
LINE
  5
370
100
AcDbEntity
  8
ASSI
100
AcDbLine
 62
7
  6
CONTINUOUS
 10
9.0500292343
 20
-48.7485914646
 11
-0.7399707658
 21
-48.7485914646
  0
LINE
  5
371
100
AcDbEntity
  8
0
100
AcDbLine
 62
7
  6
CONTINUOUS
 10
4.9150292342
 20
-54.8985914646
 11
4.5650292342
 21
-54.3985914646
  0
LINE
  5
372
100
AcDbEntity
  8
0
100
AcDbLine
 62
7
  6
CONTINUOUS
 10
7.4950292342
 20
-54.8985914646
 11
7.1450292342
 21
-54.3985914646
  0
LINE
  5
373
100
AcDbEntity
  8
RACCORDO
100
AcDbLine
 62
7
  6
CONTINUOUS
 10
-5.8360909168
 20
-24.3573176679
 11
-5.8065086963
 21
-26.0520819459
  0
LINE
  5
374
100
AcDbEntity
  8
RACCORDO
100
AcDbLine
 62
253
  6
CONTINUOUS
 10
-5.3361670693
 20
-24.3573176679
 11
-5.3065848488
 21
-26.0520819459
  0
LINE
  5
375
100
AcDbEntity
  8
RACCORDO
100
AcDbLine
 62
7
  6
CONTINUOUS
 10
-5.8360909102
 20
-24.3398648803
 11
-5.8360909168
 21
-24.3573176681
  0
LINE
  5
376
100
AcDbEntity
  8
RACCORDO
100
AcDbLine
 62
253
  6
CONTINUOUS
 10
-5.3361670693
 20
-23.8485914646
 11
-5.3361670693
 21
-24.3573176679
  0
LINE
  5
377
100
AcDbEntity
  8
RACCORDO
100
AcDbLine
 62
253
  6
CONTINUOUS
 10
-5.3065848488
 20
-26.2485914646
 11
-5.3065848188
 21
-26.0520819463
  0
LINE
  5
378
100
AcDbEntity
  8
RACCORDO
100
AcDbLine
 62
7
  6
CONTINUOUS
 10
-4.8415406793
 20
-26.4451009834
 11
-4.801180787
 21
-28.7573176679
  0
LINE
  5
379
100
AcDbEntity
  8
RACCORDO
100
AcDbLine
 62
253
  6
CONTINUOUS
 10
-4.3416168318
 20
-26.4451009834
 11
-4.3012569394
 21
-28.7573176679
  0
LINE
  5
37A
100
AcDbEntity
  8
RACCORDO
100
AcDbLine
 62
253
  6
CONTINUOUS
 10
-4.3416168318
 20
-26.2485914646
 11
-4.3416168318
 21
-26.4451009834
  0
LINE
  5
37B
100
AcDbEntity
  8
RACCORDO
100
AcDbLine
 62
253
  6
CONTINUOUS
 10
-4.3012569394
 20
-29.2485914646
 11
-4.3012569143
 21
-28.757317668
  0
LINE
  5
37C
100
AcDbEntity
  8
0
100
AcDbLine
 62
7
  6
CONTINUOUS
 10
-3.1249707658
 20
-53.3485914646
 11
-3.1249707658
 21
-50.3485914646
  0
LINE
  5
37D
100
AcDbEntity
  8
0
100
AcDbLine
 62
7
  6
CONTINUOUS
 10
-2.7904408196
 20
-52.6785914646
 11
-2.7904408196
 21
-50.9985914646
  0
LINE
  5
37E
100
AcDbEntity
  8
0
100
AcDbLine
 62
7
  6
CONTINUOUS
 10
-2.6749707658
 20
-50.9985914646
 11
-2.6749707658
 21
-52.6785914646
  0
LINE
  5
37F
100
AcDbEntity
  8
0
100
AcDbLine
 62
7
  6
CONTINUOUS
 10
-2.4849707658
 20
-50.3485914646
 11
-2.4849707658
 21
-53.3485914646
  0
LINE
  5
380
100
AcDbEntity
  8
0
100
AcDbLine
 62
7
  6
CONTINUOUS
 10
-1.6449707658
 20
-48.7985914646
 11
-1.6449707658
 21
-50.3485914646
  0
LINE
  5
381
100
AcDbEntity
  8
0
100
AcDbLine
 62
7
  6
CONTINUOUS
 10
-1.6449707658
 20
-53.3485914646
 11
-1.6449707658
 21
-54.8985914646
  0
LINE
  5
382
100
AcDbEntity
  8
0
100
AcDbLine
 62
7
  6
CONTINUOUS
 10
-1.5849707658
 20
-48.9485914646
 11
-1.5849707658
 21
-50.3485914646
  0
LINE
  5
383
100
AcDbEntity
  8
0
100
AcDbLine
 62
7
  6
CONTINUOUS
 10
-1.5849707658
 20
-53.3485914646
 11
-1.5849707658
 21
-54.7485914646
  0
LINE
  5
384
100
AcDbEntity
  8
0
100
AcDbLine
 62
7
  6
CONTINUOUS
 10
-1.1449707658
 20
-54.7485914646
 11
-1.1449707658
 21
-54.2485914646
  0
LINE
  5
385
100
AcDbEntity
  8
0
100
AcDbLine
 62
7
  6
CONTINUOUS
 10
-1.1449707658
 20
-49.4485914646
 11
-1.1449707658
 21
-48.9485914646
  0
LINE
  5
386
100
AcDbEntity
  8
0
100
AcDbLine
 62
7
  6
CONTINUOUS
 10
-0.7996713041
 20
-54.6485914646
 11
-0.7996713041
 21
-54.8985914646
  0
LINE
  5
387
100
AcDbEntity
  8
ASSI
100
AcDbLine
 62
7
  6
CONTINUOUS
 10
-0.7399707658
 20
-3.7436341933
 11
-0.7399707658
 21
-23.8485914646
  0
LINE
  5
388
100
AcDbEntity
  8
ASSI
100
AcDbLine
 62
7
  6
CONTINUOUS
 10
-0.7399707658
 20
-29.2485914646
 11
-0.7399707658
 21
-48.7485914646
  0
LINE
  5
389
100
AcDbEntity
  8
ASSI
100
AcDbLine
 62
253
  6
CONTINUOUS
 10
0.0
 20
-3.3458866805
 11
0.0
 21
-23.8485914646
  0
LINE
  5
38A
100
AcDbEntity
  8
ASSI
100
AcDbLine
 62
253
  6
CONTINUOUS
 10
0.0
 20
-29.2485914646
 11
0.0
 21
-48.7485914646
  0
LINE
  5
38B
100
AcDbEntity
  8
ASSI
100
AcDbLine
 62
253
  6
CONTINUOUS
 10
0.2577517918
 20
-3.3607509259
 11
0.2577517918
 21
-23.8485914646
  0
LINE
  5
38C
100
AcDbEntity
  8
ASSI
100
AcDbLine
 62
253
  6
CONTINUOUS
 10
0.2577517918
 20
-29.2485914646
 11
0.2577517918
 21
-48.7485914646
  0
LINE
  5
38D
100
AcDbEntity
  8
0
100
AcDbLine
 62
7
  6
CONTINUOUS
 10
0.3550292342
 20
-54.6485914646
 11
0.3550292342
 21
-54.8985914646
  0
LINE
  5
38E
100
AcDbEntity
  8
ASSI
100
AcDbLine
 62
253
  6
CONTINUOUS
 10
0.4323066767
 20
-3.3708173027
 11
0.4323066767
 21
-23.8485914646
  0
LINE
  5
38F
100
AcDbEntity
  8
ASSI
100
AcDbLine
 62
253
  6
CONTINUOUS
 10
0.4323066767
 20
-29.2485914646
 11
0.4323066767
 21
-48.7485914646
  0
LINE
  5
390
100
AcDbEntity
  8
ASSI
100
AcDbLine
 62
253
  6
CONTINUOUS
 10
0.6900584685
 20
-3.3856815481
 11
0.6900584685
 21
-23.8485914646
  0
LINE
  5
391
100
AcDbEntity
  8
ASSI
100
AcDbLine
 62
253
  6
CONTINUOUS
 10
0.6900584685
 20
-29.2485914646
 11
0.6900584685
 21
-48.7485914646
  0
LINE
  5
392
100
AcDbEntity
  8
ASSI
100
AcDbLine
 62
253
  6
CONTINUOUS
 10
1.27
 20
-3.4364546114
 11
1.27
 21
-23.8485914646
  0
LINE
  5
393
100
AcDbEntity
  8
ASSI
100
AcDbLine
 62
253
  6
CONTINUOUS
 10
1.27
 20
-29.2485914646
 11
1.27
 21
-48.7485914646
  0
LINE
  5
394
100
AcDbEntity
  8
0
100
AcDbLine
 62
7
  6
CONTINUOUS
 10
1.5097297726
 20
-54.8985914646
 11
1.5097297726
 21
-54.6485914646
  0
LINE
  5
395
100
AcDbEntity
  8
ASSI
100
AcDbLine
 62
253
  6
CONTINUOUS
 10
1.5277517918
 20
-3.5669225033
 11
1.5277517918
 21
-23.8485914646
  0
LINE
  5
396
100
AcDbEntity
  8
ASSI
100
AcDbLine
 62
253
  6
CONTINUOUS
 10
1.5277517918
 20
-29.2485914646
 11
1.5277517918
 21
-48.7485914646
  0
LINE
  5
397
100
AcDbEntity
  8
ASSI
100
AcDbLine
 62
253
  6
CONTINUOUS
 10
1.7023066767
 20
-3.6552780787
 11
1.7023066767
 21
-23.8485914646
  0
LINE
  5
398
100
AcDbEntity
  8
ASSI
100
AcDbLine
 62
253
  6
CONTINUOUS
 10
1.7023066767
 20
-29.2485914646
 11
1.7023066767
 21
-48.7485914646
  0
LINE
  5
399
100
AcDbEntity
  8
ASSI
100
AcDbLine
 62
253
  6
CONTINUOUS
 10
1.9600584685
 20
-3.7857459706
 11
1.9600584685
 21
-23.8485914646
  0
LINE
  5
39A
100
AcDbEntity
  8
ASSI
100
AcDbLine
 62
253
  6
CONTINUOUS
 10
1.9600584685
 20
-29.2485914646
 11
1.9600584685
 21
-48.7485914646
  0
LINE
  5
39B
100
AcDbEntity
  8
0
100
AcDbLine
 62
7
  6
CONTINUOUS
 10
2.3350292342
 20
-54.8985914646
 11
2.3350292342
 21
-55.7985914646
  0
LINE
  5
39C
100
AcDbEntity
  8
ASSI
100
AcDbLine
 62
253
  6
CONTINUOUS
 10
2.54
 20
-4.1011776114
 11
2.54
 21
-23.8485914646
  0
LINE
  5
39D
100
AcDbEntity
  8
ASSI
100
AcDbLine
 62
253
  6
CONTINUOUS
 10
2.54
 20
-29.2485914646
 11
2.54
 21
-48.7485914646
  0
LINE
  5
39E
100
AcDbEntity
  8
ASSI
100
AcDbLine
 62
253
  6
CONTINUOUS
 10
2.7977517918
 20
-4.2897617815
 11
2.7977517918
 21
-23.8485914646
  0
LINE
  5
39F
100
AcDbEntity
  8
ASSI
100
AcDbLine
 62
253
  6
CONTINUOUS
 10
2.7977517918
 20
-29.2485914646
 11
2.7977517918
 21
-48.7485914646
  0
LINE
  5
3A0
100
AcDbEntity
  8
ASSI
100
AcDbLine
 62
253
  6
CONTINUOUS
 10
2.9723066767
 20
-4.4174749117
 11
2.9723066767
 21
-23.8485914646
  0
LINE
  5
3A1
100
AcDbEntity
  8
ASSI
100
AcDbLine
 62
253
  6
CONTINUOUS
 10
2.9723066767
 20
-29.2485914646
 11
2.9723066767
 21
-48.7485914646
  0
LINE
  5
3A2
100
AcDbEntity
  8
ASSI
100
AcDbLine
 62
253
  6
CONTINUOUS
 10
3.2300584685
 20
-4.6060590819
 11
3.2300584685
 21
-23.8485914646
  0
LINE
  5
3A3
100
AcDbEntity
  8
ASSI
100
AcDbLine
 62
253
  6
CONTINUOUS
 10
3.2300584685
 20
-29.2485914646
 11
3.2300584685
 21
-48.7485914646
  0
LINE
  5
3A4
100
AcDbEntity
  8
0
100
AcDbLine
 62
7
  6
CONTINUOUS
 10
3.3350292342
 20
-55.7985914646
 11
3.3350292342
 21
-54.8985914646
  0
LINE
  5
3A5
100
AcDbEntity
  8
0
100
AcDbLine
 62
7
  6
CONTINUOUS
 10
3.4150292342
 20
-54.2485914646
 11
3.4150292342
 21
-54.8985914646
  0
LINE
  5
3A6
100
AcDbEntity
  8
ASSI
100
AcDbLine
 62
253
  6
CONTINUOUS
 10
3.81
 20
-5.0351223907
 11
3.81
 21
-23.8485914646
  0
LINE
  5
3A7
100
AcDbEntity
  8
ASSI
100
AcDbLine
 62
253
  6
CONTINUOUS
 10
3.81
 20
-29.2485914646
 11
3.81
 21
-48.7485914646
  0
LINE
  5
3A8
100
AcDbEntity
  8
ASSI
100
AcDbLine
 62
253
  6
CONTINUOUS
 10
4.0677517918
 20
-5.232645219
 11
4.0677517918
 21
-23.8485914646
  0
LINE
  5
3A9
100
AcDbEntity
  8
ASSI
100
AcDbLine
 62
253
  6
CONTINUOUS
 10
4.0677517918
 20
-29.2485914646
 11
4.0677517918
 21
-48.7485914646
  0
LINE
  5
3AA
100
AcDbEntity
  8
ASSI
100
AcDbLine
 62
253
  6
CONTINUOUS
 10
4.2423066767
 20
-5.3664117948
 11
4.2423066767
 21
-23.8485914646
  0
LINE
  5
3AB
100
AcDbEntity
  8
ASSI
100
AcDbLine
 62
253
  6
CONTINUOUS
 10
4.2423066767
 20
-29.2485914646
 11
4.2423066767
 21
-48.7485914646
  0
LWPOLYLINE
  5
3AC
100
AcDbEntity
  8
RACCORDO
100
AcDbPolyline
 62
253
  6
CONTINUOUS
 90
7
 70
0
 10
13.1112392555
 20
-28.7573176679
 10
13.1069441237
 20
-28.7583814744
 10
13.0941719328
 20
-28.7592778361
 10
13.0731411323
 20
-28.759991422
 10
13.044211424
 20
-28.7605100269
 10
13.0078776105
 20
-28.760824781
 10
12.9647611345
 20
-28.7609303006
  0
LINE
  5
3AD
100
AcDbEntity
  8
ASSI
100
AcDbLine
 62
253
  6
CONTINUOUS
 10
4.5000584685
 20
-5.5639346231
 11
4.5000584685
 21
-23.8485914646
  0
LINE
  5
3AE
100
AcDbEntity
  8
ASSI
100
AcDbLine
 62
253
  6
CONTINUOUS
 10
4.5000584685
 20
-29.2485914646
 11
4.5000584685
 21
-48.7485914646
  0
LINE
  5
3AF
100
AcDbEntity
  8
0
100
AcDbLine
 62
7
  6
CONTINUOUS
 10
4.9150292342
 20
-54.8985914646
 11
4.9150292342
 21
-54.2485914646
  0
LINE
  5
3B0
100
AcDbEntity
  8
0
100
AcDbLine
 62
7
  6
CONTINUOUS
 10
5.0350292342
 20
-54.8985914646
 11
5.0350292342
 21
-55.7985914646
  0
LINE
  5
3B1
100
AcDbEntity
  8
ASSI
100
AcDbLine
 62
253
  6
CONTINUOUS
 10
5.08
 20
-5.9723834134
 11
5.08
 21
-23.8485914646
  0
LINE
  5
3B2
100
AcDbEntity
  8
ASSI
100
AcDbLine
 62
253
  6
CONTINUOUS
 10
5.08
 20
-29.2485914646
 11
5.08
 21
-48.7485914646
  0
LINE
  5
3B3
100
AcDbEntity
  8
ASSI
100
AcDbLine
 62
253
  6
CONTINUOUS
 10
5.3377517918
 20
-6.1069929261
 11
5.3377517918
 21
-23.8485914646
  0
LINE
  5
3B4
100
AcDbEntity
  8
ASSI
100
AcDbLine
 62
253
  6
CONTINUOUS
 10
5.3377517918
 20
-29.2485914646
 11
5.3377517918
 21
-48.7485914646
  0
LINE
  5
3B5
100
AcDbEntity
  8
ASSI
100
AcDbLine
 62
253
  6
CONTINUOUS
 10
5.5123066767
 20
-6.1981532934
 11
5.5123066767
 21
-23.8485914646
  0
LINE
  5
3B6
100
AcDbEntity
  8
ASSI
100
AcDbLine
 62
253
  6
CONTINUOUS
 10
5.5123066767
 20
-29.2485914646
 11
5.5123066767
 21
-48.7485914646
  0
LINE
  5
3B7
100
AcDbEntity
  8
ASSI
100
AcDbLine
 62
253
  6
CONTINUOUS
 10
5.7700584685
 20
-6.332762806
 11
5.7700584685
 21
-23.8485914646
  0
LINE
  5
3B8
100
AcDbEntity
  8
ASSI
100
AcDbLine
 62
253
  6
CONTINUOUS
 10
5.7700584685
 20
-29.2485914646
 11
5.7700584685
 21
-48.7485914646
  0
LINE
  5
3B9
100
AcDbEntity
  8
0
100
AcDbLine
 62
7
  6
CONTINUOUS
 10
5.9950292342
 20
-54.2485914646
 11
5.9950292342
 21
-54.8985914646
  0
LINE
  5
3BA
100
AcDbEntity
  8
0
100
AcDbLine
 62
7
  6
CONTINUOUS
 10
6.0350292342
 20
-55.7985914646
 11
6.0350292342
 21
-54.8985914646
  0
LINE
  5
3BB
100
AcDbEntity
  8
RACCORDO
100
AcDbLine
 62
253
  6
CONTINUOUS
 10
-4.3012569394
 20
-28.7573176679
 11
-4.4306222279
 21
-28.7592778361
  0
LINE
  5
3BC
100
AcDbEntity
  8
RACCORDO
100
AcDbLine
 62
253
  6
CONTINUOUS
 10
-4.4306222279
 20
-28.7592778361
 11
-4.5511749002
 21
-28.7605100269
  0
LWPOLYLINE
  5
3BD
100
AcDbEntity
  8
RACCORDO
100
AcDbPolyline
 62
253
  6
CONTINUOUS
 90
8
 70
0
 10
-4.5511749002
 20
-28.7605100269
 10
-4.6547026516
 20
-28.7609303006
 10
-4.6978191286
 20
-28.760824781
 10
-4.7341529433
 20
-28.7605100271
 10
-4.7630826548
 20
-28.7599914222
 10
-4.7841134594
 20
-28.7592778364
 10
-4.7968856538
 20
-28.7583814746
 10
-4.801180787
 20
-28.7573176679
  0
LINE
  5
3BE
100
AcDbEntity
  8
RACCORDO
100
AcDbLine
 62
7
  6
CONTINUOUS
 10
12.6113154079
 20
-29.2485914646
 11
-4.3012569394
 21
-29.2485914646
  0
LINE
  5
3BF
100
AcDbEntity
  8
RACCORDO
100
AcDbLine
 62
253
  6
CONTINUOUS
 10
12.6113154079
 20
-28.7573176679
 11
-4.3012569394
 21
-28.7573176679
  0
LINE
  5
3C0
100
AcDbEntity
  8
RACCORDO
100
AcDbLine
 62
253
  6
CONTINUOUS
 10
12.9647611345
 20
-28.7609303006
 11
12.8612333898
 21
-28.7605100271
  0
LINE
  5
3C1
100
AcDbEntity
  8
RACCORDO
100
AcDbLine
 62
253
  6
CONTINUOUS
 10
12.8612333898
 20
-28.7605100271
 11
12.7406807145
 21
-28.7592778364
  0
LINE
  5
3C2
100
AcDbEntity
  8
RACCORDO
100
AcDbLine
 62
253
  6
CONTINUOUS
 10
12.7406807145
 20
-28.7592778364
 11
12.6113154079
 21
-28.7573176679
  0
LINE
  5
3C3
100
AcDbEntity
  8
ASSI
100
AcDbLine
 62
253
  6
CONTINUOUS
 10
6.35
 20
-6.6356342096
 11
6.35
 21
-23.8485914646
  0
LINE
  5
3C4
100
AcDbEntity
  8
ASSI
100
AcDbLine
 62
253
  6
CONTINUOUS
 10
6.35
 20
-29.2485914646
 11
6.35
 21
-48.7485914646
  0
LINE
  5
3C5
100
AcDbEntity
  8
ASSI
100
AcDbLine
 62
253
  6
CONTINUOUS
 10
6.6077517918
 20
-6.7702437223
 11
6.6077517918
 21
-23.8485914646
  0
LINE
  5
3C6
100
AcDbEntity
  8
ASSI
100
AcDbLine
 62
253
  6
CONTINUOUS
 10
6.6077517918
 20
-29.2485914646
 11
6.6077517918
 21
-48.7485914646
  0
LINE
  5
3C7
100
AcDbEntity
  8
ASSI
100
AcDbLine
 62
253
  6
CONTINUOUS
 10
6.7823066767
 20
-6.8614040896
 11
6.7823066767
 21
-23.8485914646
  0
LINE
  5
3C8
100
AcDbEntity
  8
ASSI
100
AcDbLine
 62
253
  6
CONTINUOUS
 10
6.7823066767
 20
-29.2485914646
 11
6.7823066767
 21
-48.7485914646
  0
LINE
  5
3C9
100
AcDbEntity
  8
ASSI
100
AcDbLine
 62
253
  6
CONTINUOUS
 10
7.0400584685
 20
-6.9960136022
 11
7.0400584685
 21
-23.8485914646
  0
LINE
  5
3CA
100
AcDbEntity
  8
ASSI
100
AcDbLine
 62
253
  6
CONTINUOUS
 10
7.0400584685
 20
-29.2485914646
 11
7.0400584685
 21
-48.7485914646
  0
LINE
  5
3CB
100
AcDbEntity
  8
0
100
AcDbLine
 62
7
  6
CONTINUOUS
 10
7.4950292342
 20
-54.8985914646
 11
7.4950292342
 21
-54.2485914646
  0
LINE
  5
3CC
100
AcDbEntity
  8
ASSI
100
AcDbLine
 62
253
  6
CONTINUOUS
 10
7.62
 20
-6.9859841901
 11
7.62
 21
-23.8485914646
  0
LINE
  5
3CD
100
AcDbEntity
  8
ASSI
100
AcDbLine
 62
253
  6
CONTINUOUS
 10
7.62
 20
-29.2485914646
 11
7.62
 21
-48.7485914646
  0
LINE
  5
3CE
100
AcDbEntity
  8
ASSI
100
AcDbLine
 62
253
  6
CONTINUOUS
 10
7.8777517918
 20
-6.9490382709
 11
7.8777517918
 21
-23.8485914646
  0
LINE
  5
3CF
100
AcDbEntity
  8
ASSI
100
AcDbLine
 62
253
  6
CONTINUOUS
 10
7.8777517918
 20
-29.2485914646
 11
7.8777517918
 21
-48.7485914646
  0
LINE
  5
3D0
100
AcDbEntity
  8
ASSI
100
AcDbLine
 62
253
  6
CONTINUOUS
 10
8.0523066767
 20
-6.9240177245
 11
8.0523066767
 21
-23.8485914646
  0
LINE
  5
3D1
100
AcDbEntity
  8
ASSI
100
AcDbLine
 62
253
  6
CONTINUOUS
 10
8.0523066767
 20
-29.2485914646
 11
8.0523066767
 21
-48.7485914646
  0
LWPOLYLINE
  5
3D2
100
AcDbEntity
  8
RACCORDO
100
AcDbPolyline
 62
253
  6
CONTINUOUS
 90
5
 70
0
 10
14.1165671648
 20
-26.0520819459
 10
14.113820296
 20
-26.0524206976
 10
14.1056242189
 20
-26.052725972
 10
14.0920719116
 20
-26.0529895141
 10
14.0733178932
 20
-26.0532016674
  0
LWPOLYLINE
  5
3D3
100
AcDbEntity
  8
RACCORDO
100
AcDbPolyline
 62
253
  6
CONTINUOUS
 90
4
 70
0
 10
-4.8171524619
 20
-26.4441946172
 10
-4.8306643272
 20
-26.4444397766
 10
-4.8388195676
 20
-26.4447390585
 10
-4.8415406793
 20
-26.4451009834
  0
LINE
  5
3D4
100
AcDbEntity
  8
RACCORDO
100
AcDbLine
 62
253
  6
CONTINUOUS
 10
-4.774642926
 20
-26.4438262885
 11
-4.8171524619
 21
-26.4441946172
  0
LINE
  5
3D5
100
AcDbEntity
  8
RACCORDO
100
AcDbLine
 62
253
  6
CONTINUOUS
 10
14.0733178932
 20
-26.0532016674
 11
14.0210746702
 21
-26.0534663978
  0
LINE
  5
3D6
100
AcDbEntity
  8
RACCORDO
100
AcDbLine
 62
253
  6
CONTINUOUS
 10
12.9015809576
 20
-26.4438262885
 11
12.6516753003
 21
-26.4451009834
  0
LINE
  5
3D7
100
AcDbEntity
  8
RACCORDO
100
AcDbLine
 62
253
  6
CONTINUOUS
 10
-5.3065848488
 20
-26.0520819459
 11
-5.6004170613
 21
-26.0534663978
  0
LINE
  5
3D8
100
AcDbEntity
  8
RACCORDO
100
AcDbLine
 62
253
  6
CONTINUOUS
 10
12.6516753003
 20
-26.4451009834
 11
-4.3416168318
 21
-26.4451009834
  0
LINE
  5
3D9
100
AcDbEntity
  8
RACCORDO
100
AcDbLine
 62
253
  6
CONTINUOUS
 10
-4.6762318097
 20
-26.4436664752
 11
-4.774642926
 21
-26.4438262885
  0
LINE
  5
3DA
100
AcDbEntity
  8
RACCORDO
100
AcDbLine
 62
7
  6
CONTINUOUS
 10
13.9165976258
 20
-26.2485914646
 11
-5.6065391573
 21
-26.2485914646
  0
LINE
  5
3DB
100
AcDbEntity
  8
RACCORDO
100
AcDbLine
 62
253
  6
CONTINUOUS
 10
13.6166433172
 20
-26.0520819459
 11
-5.3065848488
 21
-26.0520819459
  0
LINE
  5
3DC
100
AcDbEntity
  8
RACCORDO
100
AcDbLine
 62
253
  6
CONTINUOUS
 10
13.0560921115
 20
-26.4437171357
 11
12.9015809576
 21
-26.4438262885
  0
LINE
  5
3DD
100
AcDbEntity
  8
RACCORDO
100
AcDbLine
 62
253
  6
CONTINUOUS
 10
-5.6004170613
 20
-26.0534663978
 11
-5.7110470453
 21
-26.0534670817
  0
LINE
  5
3DE
100
AcDbEntity
  8
RACCORDO
100
AcDbLine
 62
253
  6
CONTINUOUS
 10
14.0210746702
 20
-26.0534663978
 11
13.8665481489
 21
-26.0533600519
  0
LINE
  5
3DF
100
AcDbEntity
  8
RACCORDO
100
AcDbLine
 62
253
  6
CONTINUOUS
 10
-4.445614607
 20
-26.4444392145
 11
-4.6762318097
 21
-26.4436664752
  0
LINE
  5
3E0
100
AcDbEntity
  8
RACCORDO
100
AcDbLine
 62
253
  6
CONTINUOUS
 10
13.8665481489
 20
-26.0533600519
 11
13.6166433172
 21
-26.0520819459
  0
LWPOLYLINE
  5
3E1
100
AcDbEntity
  8
RACCORDO
100
AcDbPolyline
 62
253
  6
CONTINUOUS
 90
6
 70
0
 10
-5.7110470453
 20
-26.0534670817
 10
-5.763289054
 20
-26.0532019287
 10
-5.7820362129
 20
-26.0529894308
 10
-5.7955781591
 20
-26.0527257314
 10
-5.8037655008
 20
-26.0524204663
 10
-5.8065086963
 20
-26.0520819459
  0
LINE
  5
3E2
100
AcDbEntity
  8
RACCORDO
100
AcDbLine
 62
253
  6
CONTINUOUS
 10
-4.3416168318
 20
-26.4451009834
 11
-4.445614607
 21
-26.4444392145
  0
LWPOLYLINE
  5
3E3
100
AcDbEntity
  8
RACCORDO
100
AcDbPolyline
 62
253
  6
CONTINUOUS
 90
5
 70
0
 10
-5.8360909168
 20
-24.3573176679
 10
-5.8317957837
 20
-24.3583814746
 10
-5.8190235893
 20
-24.3592778364
 10
-5.7979927846
 20
-24.3599914222
 10
-5.7690630732
 20
-24.3605100271
  0
LINE
  5
3E4
100
AcDbEntity
  8
ASSI
100
AcDbLine
 62
253
  6
CONTINUOUS
 10
8.3100584685
 20
-6.8870718053
 11
8.3100584685
 21
-23.8485914646
  0
LINE
  5
3E5
100
AcDbEntity
  8
ASSI
100
AcDbLine
 62
253
  6
CONTINUOUS
 10
8.3100584685
 20
-29.2485914646
 11
8.3100584685
 21
-48.7485914646
  0
LINE
  5
3E6
100
AcDbEntity
  8
ASSI
100
AcDbLine
 62
7
  6
CONTINUOUS
 10
9.0500292343
 20
-6.7810050349
 11
9.0500292343
 21
-23.8485914646
  0
LINE
  5
3E7
100
AcDbEntity
  8
ASSI
100
AcDbLine
 62
7
  6
CONTINUOUS
 10
9.0500292343
 20
-29.2485914646
 11
9.0500292343
 21
-48.7485914646
  0
LINE
  5
3E8
100
AcDbEntity
  8
0
100
AcDbLine
 62
7
  6
CONTINUOUS
 10
9.5950292342
 20
-48.9485914646
 11
9.5950292342
 21
-49.4485914646
  0
LINE
  5
3E9
100
AcDbEntity
  8
0
100
AcDbLine
 62
7
  6
CONTINUOUS
 10
9.5950292342
 20
-54.2485914646
 11
9.5950292342
 21
-54.7485914646
  0
LINE
  5
3EA
100
AcDbEntity
  8
0
100
AcDbLine
 62
7
  6
CONTINUOUS
 10
10.0150292342
 20
-48.7985914646
 11
10.0150292342
 21
-48.9485914646
  0
LINE
  5
3EB
100
AcDbEntity
  8
0
100
AcDbLine
 62
7
  6
CONTINUOUS
 10
10.0150292342
 20
-54.7485914646
 11
10.0150292342
 21
-54.8985914646
  0
LWPOLYLINE
  5
3EC
100
AcDbEntity
  8
RACCORDO
100
AcDbPolyline
 62
253
  6
CONTINUOUS
 90
5
 70
0
 10
14.0791215538
 20
-24.3605100269
 10
14.1080512622
 20
-24.359991422
 10
14.1290820626
 20
-24.3592778361
 10
14.1418542536
 20
-24.3583814744
 10
14.1461493853
 20
-24.3573176679
  0
LINE
  5
3ED
100
AcDbEntity
  8
RACCORDO
100
AcDbLine
 62
253
  6
CONTINUOUS
 10
-5.4655323578
 20
-24.3592778361
 11
-5.3361670693
 21
-24.3573176679
  0
LINE
  5
3EE
100
AcDbEntity
  8
RACCORDO
100
AcDbLine
 62
253
  6
CONTINUOUS
 10
-5.5860850301
 20
-24.3605100269
 11
-5.4655323578
 21
-24.3592778361
  0
LWPOLYLINE
  5
3EF
100
AcDbEntity
  8
RACCORDO
100
AcDbPolyline
 62
253
  6
CONTINUOUS
 90
3
 70
0
 10
13.9996712644
 20
-24.3609303006
 10
14.0427877404
 20
-24.360824781
 10
14.0791215538
 20
-24.3605100269
  0
LINE
  5
3F0
100
AcDbEntity
  8
RACCORDO
100
AcDbLine
 62
253
  6
CONTINUOUS
 10
-5.3361670693
 20
-24.3573176679
 11
13.6462255378
 21
-24.3573176679
  0
LINE
  5
3F1
100
AcDbEntity
  8
RACCORDO
100
AcDbLine
 62
7
  6
CONTINUOUS
 10
-5.3361670693
 20
-23.8485914646
 11
13.6462255378
 21
-23.8485914646
  0
LINE
  5
3F2
100
AcDbEntity
  8
RACCORDO
100
AcDbLine
 62
253
  6
CONTINUOUS
 10
13.8961435196
 20
-24.3605100271
 11
13.9996712644
 21
-24.3609303006
  0
LWPOLYLINE
  5
3F3
100
AcDbEntity
  8
RACCORDO
100
AcDbPolyline
 62
253
  6
CONTINUOUS
 90
4
 70
0
 10
-5.7690630732
 20
-24.3605100271
 10
-5.7327292585
 20
-24.360824781
 10
-5.6896127814
 20
-24.3609303006
 10
-5.5860850301
 20
-24.3605100269
  0
LINE
  5
3F4
100
AcDbEntity
  8
RACCORDO
100
AcDbLine
 62
253
  6
CONTINUOUS
 10
13.7755908444
 20
-24.3592778364
 11
13.8961435196
 21
-24.3605100271
  0
LINE
  5
3F5
100
AcDbEntity
  8
RACCORDO
100
AcDbLine
 62
253
  6
CONTINUOUS
 10
13.6462255378
 20
-24.3573176679
 11
13.7755908444
 21
-24.3592778364
  0
LWPOLYLINE
  5
3F6
100
AcDbEntity
  8
RACCORDO
100
AcDbPolyline
 62
253
  6
CONTINUOUS
 90
6
 70
0
 10
13.1515991478
 20
-26.4451009834
 10
13.1488649905
 20
-26.4447389068
 10
13.1406790347
 20
-26.4444392145
 10
13.12713151
 20
-26.4441935935
 10
13.1083701999
 20
-26.4439890088
 10
13.0560921115
 20
-26.4437171357
  0
LINE
  5
3F7
100
AcDbEntity
  8
0
100
AcDbLine
 62
7
  6
CONTINUOUS
 10
10.0350292342
 20
-50.3485914646
 11
10.0350292342
 21
-48.9485914646
  0
LINE
  5
3F8
100
AcDbEntity
  8
0
100
AcDbLine
 62
7
  6
CONTINUOUS
 10
10.0350292342
 20
-53.3485914646
 11
10.0350292342
 21
-54.7485914646
  0
LINE
  5
3F9
100
AcDbEntity
  8
0
100
AcDbLine
 62
7
  6
CONTINUOUS
 10
10.9350292342
 20
-50.3485914646
 11
10.9350292342
 21
-53.3485914646
  0
LINE
  5
3FA
100
AcDbEntity
  8
0
100
AcDbLine
 62
7
  6
CONTINUOUS
 10
11.0450292342
 20
-52.6785914646
 11
11.0450292342
 21
-50.9985914646
  0
LINE
  5
3FB
100
AcDbEntity
  8
0
100
AcDbLine
 62
7
  6
CONTINUOUS
 10
11.1604992881
 20
-52.6785914646
 11
11.1604992881
 21
-50.9985914646
  0
LINE
  5
3FC
100
AcDbEntity
  8
0
100
AcDbLine
 62
7
  6
CONTINUOUS
 10
11.4950292342
 20
-53.3485914646
 11
11.4950292342
 21
-50.3485914646
  0
LINE
  5
3FD
100
AcDbEntity
  8
RACCORDO
100
AcDbLine
 62
253
  6
CONTINUOUS
 10
12.6113154079
 20
-29.2485914646
 11
12.6113154079
 21
-28.7573176679
  0
LINE
  5
3FE
100
AcDbEntity
  8
RACCORDO
100
AcDbLine
 62
253
  6
CONTINUOUS
 10
12.6516753003
 20
-26.2485914646
 11
12.6516753003
 21
-26.4451009834
  0
LINE
  5
3FF
100
AcDbEntity
  8
RACCORDO
100
AcDbLine
 62
253
  6
CONTINUOUS
 10
13.6166433172
 20
-26.2485914646
 11
13.6166433172
 21
-26.0520819459
  0
LINE
  5
400
100
AcDbEntity
  8
RACCORDO
100
AcDbLine
 62
253
  6
CONTINUOUS
 10
13.6462255378
 20
-23.8485914646
 11
13.6462255444
 21
-24.3573176681
  0
LINE
  5
401
100
AcDbEntity
  8
RACCORDO
100
AcDbLine
 62
253
  6
CONTINUOUS
 10
12.6516753003
 20
-26.4451009834
 11
12.6113154079
 21
-28.7573176679
  0
LINE
  5
402
100
AcDbEntity
  8
RACCORDO
100
AcDbLine
 62
7
  6
CONTINUOUS
 10
13.1515991478
 20
-26.4451009834
 11
13.1112392555
 21
-28.7573176679
  0
LINE
  5
403
100
AcDbEntity
  8
RACCORDO
100
AcDbLine
 62
253
  6
CONTINUOUS
 10
13.6462255378
 20
-24.3573176679
 11
13.6166433172
 21
-26.0520819459
  0
LINE
  5
404
100
AcDbEntity
  8
RACCORDO
100
AcDbLine
 62
7
  6
CONTINUOUS
 10
14.1461494105
 20
-24.3398667027
 11
14.1461493853
 21
-24.3573176679
  0
LINE
  5
405
100
AcDbEntity
  8
RACCORDO
100
AcDbLine
 62
7
  6
CONTINUOUS
 10
14.1461493853
 20
-24.3573176679
 11
14.1165671648
 21
-26.0520819459
  0
LINE
  5
406
100
AcDbEntity
  8
0
100
AcDbLine
 62
7
  6
CONTINUOUS
 10
3.7650292342
 20
-54.3985914646
 11
3.4150292342
 21
-54.8985914646
  0
LINE
  5
407
100
AcDbEntity
  8
0
100
AcDbLine
 62
7
  6
CONTINUOUS
 10
6.3450292342
 20
-54.3985914646
 11
5.9950292342
 21
-54.8985914646
  0
LINE
  5
408
100
AcDbEntity
  8
0
100
AcDbLine
 62
7
  6
CONTINUOUS
 10
3.6730617538
 20
-4.9301825588
 11
2.4429648537
 21
-4.0301818196
  0
LINE
  5
409
100
AcDbEntity
  8
0
100
AcDbLine
 62
7
  6
CONTINUOUS
 10
4.9326022046
 20
-5.8954056928
 11
3.6730617538
 21
-4.9301825588
  0
LINE
  5
40A
100
AcDbEntity
  8
0
100
AcDbLine
 62
7
  6
CONTINUOUS
 10
9.0500292343
 20
-6.7810050349
 11
7.1498852097
 21
-7.0533700381
  0
LINE
  5
40B
100
AcDbEntity
  8
0
100
AcDbLine
 62
7
  6
CONTINUOUS
 10
2.4429648537
 20
-4.0301818196
 11
1.2313640664
 21
-3.416898011
  0
LINE
  5
40C
100
AcDbEntity
  8
0
100
AcDbLine
 62
7
  6
CONTINUOUS
 10
7.1498852097
 20
-7.0533700381
 11
4.9326022046
 21
-5.8954056928
  0
LINE
  5
40D
100
AcDbEntity
  8
0
100
AcDbLine
 62
7
  6
CONTINUOUS
 10
1.2313640664
 20
-3.416898011
 11
-0.101973462
 21
-3.3400059898
  0
ARC
  5
40E
100
AcDbEntity
  8
RACCORDO
100
AcDbCircle
 62
7
  6
CONTINUOUS
 10
-5.3361670693
 20
8.5158846999
 40
0.5
100
AcDbArc
 50
180.9998348179
 51
269.9999999971
  0
ARC
  5
40F
100
AcDbEntity
  8
RACCORDO
100
AcDbCircle
 62
7
  6
CONTINUOUS
 10
13.6462255378
 20
8.5158846999
 40
0.5
100
AcDbArc
 50
270.0000000029
 51
358.9999563168
  0
ARC
  5
410
100
AcDbEntity
  8
RACCORDO
100
AcDbCircle
 62
7
  6
CONTINUOUS
 10
12.6113154079
 20
12.9158846999
 40
0.5
100
AcDbArc
 50
1.0
 51
90.0
  0
ARC
  5
411
100
AcDbEntity
  8
RACCORDO
100
AcDbCircle
 62
7
  6
CONTINUOUS
 10
-4.3012569394
 20
12.9158846999
 40
0.5
100
AcDbArc
 50
90.0
 51
179.0
  0
ARC
  5
412
100
AcDbEntity
  8
RACCORDO
100
AcDbCircle
 62
7
  6
CONTINUOUS
 10
13.9165976258
 20
10.2158846999
 40
0.2
100
AcDbArc
 50
1.0
 51
90.0
  0
ARC
  5
413
100
AcDbEntity
  8
RACCORDO
100
AcDbCircle
 62
7
  6
CONTINUOUS
 10
-5.6065391573
 20
10.2158846999
 40
0.2
100
AcDbArc
 50
90.0
 51
179.0
  0
ARC
  5
414
100
AcDbEntity
  8
RACCORDO
100
AcDbCircle
 62
7
  6
CONTINUOUS
 10
13.3515222666
 20
10.6158846999
 40
0.1999867391
100
AcDbArc
 50
181.0002321433
 51
270.0132984223
  0
ARC
  5
415
100
AcDbEntity
  8
RACCORDO
100
AcDbCircle
 62
7
  6
CONTINUOUS
 10
-5.0414637981
 20
10.6158846999
 40
0.1999867391
100
AcDbArc
 50
269.9867015777
 51
358.9997678567
  0
ARC
  5
416
100
AcDbEntity
  8
RACCORDO
100
AcDbCircle
 62
7
  6
CONTINUOUS
 10
-5.3361670693
 20
-24.3485914646
 40
0.5
100
AcDbArc
 50
90.0000000029
 51
178.9999563168
  0
ARC
  5
417
100
AcDbEntity
  8
RACCORDO
100
AcDbCircle
 62
7
  6
CONTINUOUS
 10
13.6462255378
 20
-24.3485914646
 40
0.5
100
AcDbArc
 50
0.9998348179
 51
89.9999999971
  0
ARC
  5
418
100
AcDbEntity
  8
RACCORDO
100
AcDbCircle
 62
7
  6
CONTINUOUS
 10
12.6113154079
 20
-28.7485914646
 40
0.5
100
AcDbArc
 50
270.0
 51
358.9999999823
  0
ARC
  5
419
100
AcDbEntity
  8
RACCORDO
100
AcDbCircle
 62
7
  6
CONTINUOUS
 10
-4.3012569394
 20
-28.7485914646
 40
0.5
100
AcDbArc
 50
181.0
 51
270.0
  0
ARC
  5
41A
100
AcDbEntity
  8
RACCORDO
100
AcDbCircle
 62
7
  6
CONTINUOUS
 10
13.9165976258
 20
-26.0485914646
 40
0.2
100
AcDbArc
 50
270.0
 51
359.0
  0
ARC
  5
41B
100
AcDbEntity
  8
RACCORDO
100
AcDbCircle
 62
7
  6
CONTINUOUS
 10
-5.6065391573
 20
-26.0485914646
 40
0.2
100
AcDbArc
 50
181.0
 51
270.0
  0
ARC
  5
41C
100
AcDbEntity
  8
RACCORDO
100
AcDbCircle
 62
7
  6
CONTINUOUS
 10
13.3515222666
 20
-26.4485914646
 40
0.1999867391
100
AcDbArc
 50
89.9867015777
 51
178.9997678567
  0
ARC
  5
41D
100
AcDbEntity
  8
RACCORDO
100
AcDbCircle
 62
7
  6
CONTINUOUS
 10
-5.0414637981
 20
-26.4485914646
 40
0.1999867391
100
AcDbArc
 50
1.0002321433
 51
90.0132984223
  0
ENDSEC
  0
SECTION
  2
OBJECTS
  0
DICTIONARY
  5
C
100
AcDbDictionary
280
0
281
1
  3
ACAD_GROUP
350
D
  3
ACAD_MLINESTYLE
350
17
  3
ACAD_LAYOUT
350
1A
  3
ACAD_PLOTSETTINGS
350
19
  3
ACAD_PLOTSTYLENAME
350
E
  0
DICTIONARY
  5
D
102
{ACAD_REACTORS
330
C
102
}
100
AcDbDictionary
280
0
281
1
  0
ACDBDICTIONARYWDFLT
  5
E
102
{ACAD_REACTORS
330
C
102
}
100
AcDbDictionary
281
1
  3
Normal
350
F
100
AcDbDictionaryWithDefault
340
F
  0
DICTIONARY
  5
17
102
{ACAD_REACTORS
330
C
102
}
100
AcDbDictionary
280
0
281
1
  3
Standard
350
18
  0
DICTIONARY
  5
19
102
{ACAD_REACTORS
330
C
102
}
100
AcDbDictionary
281
1
  0
DICTIONARY
  5
1A
102
{ACAD_REACTORS
330
C
102
}
100
AcDbDictionary
281
1
  3
Model
350
41E
  3
Layout1
350
41F
  0
ACDBPLACEHOLDER
  5
F
102
{ACAD_REACTORS
330
E
102
}
  0
MLINESTYLE
  5
18
102
{ACAD_REACTORS
330
17
102
}
100
AcDbMlineStyle
  2
STANDARD
 70
0
  3

 62
256
 51
90.0
 52
90.0
 71
2
 49
0.5
 62
256
  6
BYLAYER
 49
-0.5
 62
256
  6
BYLAYER
  0
LAYOUT
  5
41E
102
{ACAD_REACTORS
330
1A
102
}
100
AcDbPlotSettings
  1

  2
none_device
  4

  6

 40
0.0
 41
0.0
 42
0.0
 43
0.0
 44
210.0
 45
297.0
 46
0.0
 47
0.0
 48
0.0
 49
0.0
140
0.0
141
0.0
142
1.0
143
1.0
 70
1024
 72
1
 73
0
 74
0
  7

 75
0
147
1.0
148
0.0
149
0.0
100
AcDbLayout
  1
Model
 70
0
 71
0
 10
0.0
 20
0.0
 11
210.0
 21
297.0
 12
0.0
 22
0.0
 32
0.0
 14
0.0
 24
0.0
 34
0.0
 15
0.0
 25
0.0
 35
0.0
146
0.0
 13
0.0
 23
0.0
 33
0.0
 16
1.0
 26
0.0
 36
0.0
 17
0.0
 27
1.0
 37
0.0
 76
0
330
20F
345
0
346
0
  0
LAYOUT
  5
41F
102
{ACAD_REACTORS
330
1A
102
}
100
AcDbPlotSettings
  1

  2
none_device
  4

  6

 40
0.0
 41
0.0
 42
0.0
 43
0.0
 44
210.0
 45
297.0
 46
0.0
 47
0.0
 48
0.0
 49
0.0
140
0.0
141
0.0
142
1.0
143
1.0
 70
0
 72
1
 73
0
 74
0
  7

 75
0
147
1.0
148
0.0
149
0.0
100
AcDbLayout
  1
Layout1
 70
0
 71
1
 10
0.0
 20
0.0
 11
210.0
 21
297.0
 12
0.0
 22
0.0
 32
0.0
 14
0.0
 24
0.0
 34
0.0
 15
0.0
 25
0.0
 35
0.0
146
0.0
 13
0.0
 23
0.0
 33
0.0
 16
1.0
 26
0.0
 36
0.0
 17
0.0
 27
1.0
 37
0.0
 76
0
330
210
345
0
346
0
  0
ENDSEC
  0
EOF
