  0
SECTION
  2
HEADER
  9
$ACADVER
  1
AC1015
  9
$DWGCODEPAGE
  3
ANSI_1252
  9
$EXTMAX
 10
210.0
 20
297.0
 30
0.0
  9
$EXTMIN
 10
0.0
 20
0.0
 30
0.0
  9
$LIMMIN
 10
0.0
 20
0.0
  9
$LIMMAX
 10
210.0
 20
297.0
  9
$VIEWCTR
 10
105.0
 20
148.5
  9
$VIEWSIZE
 40
297.0
  9
$CLAYER
  8
0
  9
$LTSCALE
 40
19.36
  9
$CELTYPE
  6
BYLAYER
  9
$DIMSCALE
 40
1.0
  9
$DIMASZ
 40
3.0
  9
$DIMEXO
 40
0.5
  9
$DIMDLI
 40
13.376
  9
$DIMEXE
 40
1.5
  9
$DIMCEN
 40
3.168
  9
$DIMLFAC
 40
1.0
  9
$DIMBLK
  1
_FILLED
  9
$DIMALT
 70
0
  9
$DIMALTF
 40
0.0393700787
  9
$DIMTXT
 40
3.0
  9
$DIMTOL
 70
1
  9
$DIMLIM
 70
0
  9
$DIMTFAC
 40
1.0
  9
$DIMTP
 40
0.01
  9
$DIMTM
 40
0.01
  9
$DIMGAP
 40
0.625
  9
$DIMDSEP
 70
44
  9
$AUNITS
 70
0
  9
$PDMODE
 70
3
  9
$PDSIZE
 40
3.0
  9
$HANDSEED
  5
421
  9
$TILEMODE
 70
1
  9
$MEASUREMENT
 70
1
  9
$INSUNITS
 70
4
  0
ENDSEC
  0
SECTION
  2
CLASSES
  0
CLASS
  1
ACDBDICTIONARYWDFLT
  2
AcDbDictionaryWithDefault
  3
AutoCAD 2000
 90
0
280
0
281
0
  0
CLASS
  1
ACDBPLACEHOLDER
  2
AcDbPlaceHolder
  3
AutoCAD 2000
 90
0
280
0
281
0
  0
CLASS
  1
LAYOUT
  2
AcDbLayout
  3
AutoCAD 2000
 90
0
280
0
281
0
  0
ENDSEC
  0
SECTION
  2
TABLES
  0
TABLE
  2
VPORT
  5
8
100
AcDbSymbolTable
 70
2
  0
VPORT
  5
1F4
100
AcDbSymbolTableRecord
100
AcDbViewportTableRecord
  2
*ACTIVE
 70
0
 10
0.0
 20
0.0
 11
1.0
 21
1.0
 12
105.0
 22
148.5
 13
0.0
 23
0.0
 14
1.0
 24
1.0
 15
0.0
 25
0.0
 16
0.0
 26
0.0
 36
1.0
 17
0.0
 27
0.0
 37
0.0
 40
297.0
 41
0.7070707071
 42
50.0
 43
0.0
 44
0.0
 50
0.0
 51
0.0
 71
0
 72
100
 73
1
 74
1
 75
0
 76
0
 77
0
 78
0
  0
ENDTAB
  0
TABLE
  2
LTYPE
  5
5
100
AcDbSymbolTable
 70
6
  0
LTYPE
  5
14
100
AcDbSymbolTableRecord
100
AcDbLinetypeTableRecord
  2
BYBLOCK
 70
0
  3

 72
65
 73
0
 40
0.0
  0
LTYPE
  5
15
100
AcDbSymbolTableRecord
100
AcDbLinetypeTableRecord
  2
BYLAYER
 70
0
  3

 72
65
 73
0
 40
0.0
  0
LTYPE
  5
16
100
AcDbSymbolTableRecord
100
AcDbLinetypeTableRecord
  2
CONTINUOUS
 70
64
  3
Solid line
 72
65
 73
0
 40
0.0
  0
LTYPE
  5
1F5
100
AcDbSymbolTableRecord
100
AcDbLinetypeTableRecord
  2
CENTER
 70
64
  3
____ _ ____ _ ____ _ ____ _ ____ _ ____ _ ____
 72
65
 73
4
 40
0.6
 49
0.375
 74
0
 49
-0.075
 74
0
 49
0.075
 74
0
 49
-0.075
 74
0
  0
LTYPE
  5
1F6
100
AcDbSymbolTableRecord
100
AcDbLinetypeTableRecord
  2
HIDDEN
 70
64
  3
- - - - - - - - - - - - - - - - - - - -
 72
65
 73
2
 40
0.2
 49
0.1
 74
0
 49
-0.1
 74
0
  0
LTYPE
  5
1F7
100
AcDbSymbolTableRecord
100
AcDbLinetypeTableRecord
  2
PHANTOM
 70
64
  3
_____ _ _ _____ _ _ _____ _ _ _____
 72
65
 73
6
 40
0.8
 49
0.45
 74
0
 49
-0.05
 74
0
 49
0.1
 74
0
 49
-0.05
 74
0
 49
0.1
 74
0
 49
-0.05
 74
0
  0
LTYPE
  5
1F8
100
AcDbSymbolTableRecord
100
AcDbLinetypeTableRecord
  2
DOT
 70
64
  3
. . . . . . . . . . . . . . . . . . . .
 72
65
 73
2
 40
0.2
 49
0.1
 74
0
 49
-0.1
 74
0
  0
LTYPE
  5
1F9
100
AcDbSymbolTableRecord
100
AcDbLinetypeTableRecord
  2
DASHED
 70
64
  3
- - - - - - - - - - - - - - - - - - - -
 72
65
 73
2
 40
0.2
 49
0.1
 74
0
 49
-0.1
 74
0
  0
ENDTAB
  0
TABLE
  2
LAYER
  5
2
100
AcDbSymbolTable
 70
36
  0
LAYER
  5
10
100
AcDbSymbolTableRecord
100
AcDbLayerTableRecord
  2
0
 70
0
 62
7
  6
CONTINUOUS
370
-3
390
F
  0
LAYER
  5
1FA
100
AcDbSymbolTableRecord
100
AcDbLayerTableRecord
  2
DEFAULT_1
 70
0
 62
7
  6
CENTER
370
-3
390
F
  0
LAYER
  5
1FB
100
AcDbSymbolTableRecord
100
AcDbLayerTableRecord
  2
DEFAULT_2
 70
0
 62
7
  6
HIDDEN
370
-3
390
F
  0
LAYER
  5
1FC
100
AcDbSymbolTableRecord
100
AcDbLayerTableRecord
  2
DEFAULT_3
 70
0
 62
7
  6
PHANTOM
370
-3
390
F
  0
LAYER
  5
1FD
100
AcDbSymbolTableRecord
100
AcDbLayerTableRecord
  2
ASSI
 70
0
 62
7
  6
CONTINUOUS
370
-3
390
F
  0
LAYER
  5
1FE
100
AcDbSymbolTableRecord
100
AcDbLayerTableRecord
  2
COORDINATE
 70
0
 62
7
  6
CONTINUOUS
370
-3
390
F
  0
LAYER
  5
1FF
100
AcDbSymbolTableRecord
100
AcDbLayerTableRecord
  2
COPY_PUBLISH
 70
0
 62
7
  6
CONTINUOUS
370
-3
390
F
  0
LAYER
  5
200
100
AcDbSymbolTableRecord
100
AcDbLayerTableRecord
  2
COSMETICI
 70
0
 62
7
  6
CONTINUOUS
370
-3
390
F
  0
LAYER
  5
201
100
AcDbSymbolTableRecord
100
AcDbLayerTableRecord
  2
CURVE
 70
0
 62
7
  6
CONTINUOUS
370
-3
390
F
  0
LAYER
  5
202
100
AcDbSymbolTableRecord
100
AcDbLayerTableRecord
  2
DRAFT
 70
0
 62
7
  6
CONTINUOUS
370
-3
390
F
  0
LAYER
  5
203
100
AcDbSymbolTableRecord
100
AcDbLayerTableRecord
  2
IMPORT_IGES
 70
0
 62
7
  6
CONTINUOUS
370
-3
390
F
  0
LAYER
  5
204
100
AcDbSymbolTableRecord
100
AcDbLayerTableRecord
  2
NOTE
 70
0
 62
7
  6
CONTINUOUS
370
-3
390
F
  0
LAYER
  5
205
100
AcDbSymbolTableRecord
100
AcDbLayerTableRecord
  2
PIANI
 70
0
 62
7
  6
CONTINUOUS
370
-3
390
F
  0
LAYER
  5
206
100
AcDbSymbolTableRecord
100
AcDbLayerTableRecord
  2
PUNTI
 70
0
 62
7
  6
CONTINUOUS
370
-3
390
F
  0
LAYER
  5
207
100
AcDbSymbolTableRecord
100
AcDbLayerTableRecord
  2
RACCORDO
 70
0
 62
7
  6
CONTINUOUS
370
-3
390
F
  0
LAYER
  5
208
100
AcDbSymbolTableRecord
100
AcDbLayerTableRecord
  2
SIMBOLI
 70
0
 62
7
  6
CONTINUOUS
370
-3
390
F
  0
LAYER
  5
209
100
AcDbSymbolTableRecord
100
AcDbLayerTableRecord
  2
SMUSSO
 70
0
 62
7
  6
CONTINUOUS
370
-3
390
F
  0
LAYER
  5
20A
100
AcDbSymbolTableRecord
100
AcDbLayerTableRecord
  2
SNAPLINE
 70
0
 62
7
  6
CONTINUOUS
370
-3
390
F
  0
LAYER
  5
20B
100
AcDbSymbolTableRecord
100
AcDbLayerTableRecord
  2
SUPERFICI
 70
0
 62
7
  6
CONTINUOUS
370
-3
390
F
  0
LAYER
  5
20C
100
AcDbSymbolTableRecord
100
AcDbLayerTableRecord
  2
TRASH
 70
0
 62
7
  6
CONTINUOUS
370
-3
390
F
  0
ENDTAB
  0
TABLE
  2
STYLE
  5
3
100
AcDbSymbolTable
 70
1
  0
STYLE
  5
11
100
AcDbSymbolTableRecord
100
AcDbTextStyleTableRecord
  2
STANDARD
 70
0
 40
0.0
 41
0.8
 50
0.0
 71
0
 42
0.2
  3
txt
  4

  0
STYLE
  5
20D
100
AcDbSymbolTableRecord
100
AcDbTextStyleTableRecord
  2
TEXTSTYLE_1
 70
0
 40
0.0
 41
0.8
 50
0.0
 71
0
 42
0.2
  3
gdt
  4

  0
ENDTAB
  0
TABLE
  2
VIEW
  5
6
100
AcDbSymbolTable
 70
0
  0
ENDTAB
  0
TABLE
  2
UCS
  5
7
100
AcDbSymbolTable
 70
0
  0
ENDTAB
  0
TABLE
  2
APPID
  5
9
100
AcDbSymbolTable
 70
1
  0
APPID
  5
20E
100
AcDbSymbolTableRecord
100
AcDbRegAppTableRecord
  2
ACAD
 70
0
  0
ENDTAB
  0
TABLE
  2
BLOCK_RECORD
  5
1
100
AcDbSymbolTable
 70
0
  0
BLOCK_RECORD
  5
20F
100
AcDbSymbolTableRecord
100
AcDbBlockTableRecord
  2
*Model_Space
  0
BLOCK_RECORD
  5
210
100
AcDbSymbolTableRecord
100
AcDbBlockTableRecord
  2
*Paper_Space
  0
ENDTAB
  0
TABLE
  2
DIMSTYLE
  5
A
100
AcDbSymbolTable
 70
1
100
AcDbDimStyleTable
 71
0
  0
DIMSTYLE
105
211
100
AcDbSymbolTableRecord
100
AcDbDimStyleTableRecord
  2
STANDARD
 70
0
  3

  4

 40
1.0
 41
3.0
 42
0.5
 43
0.38
 44
1.5
 45
0.0
 46
0.0
 47
0.01
 48
0.01
140
3.0
141
0.09
142
0.0
143
25.4
144
1.0
145
0.0
146
1.0
147
0.625
 71
1.0
 72
0.0
 73
0
 74
0
 75
0
 76
0
 77
1
 78
8
170
0
171
2
172
0
173
0
174
0
175
0
176
0
177
0
178
0
270
2
271
2
272
2
273
2
274
2
275
0
280
0
281
0
282
0
283
1
284
8
285
0
286
0
287
3
288
0
340
11
278
44
  0
ENDTAB
  0
ENDSEC
  0
SECTION
  2
BLOCKS
  0
BLOCK
  5
20
100
AcDbEntity
  8
0
100
AcDbBlockBegin
  2
*Model_Space
 70
0
 10
0.0
 20
0.0
 30
0.0
  3
*Model_Space
  1

  0
ENDBLK
  5
21
100
AcDbEntity
  8
0
100
AcDbBlockEnd
  0
BLOCK
  5
1C
100
AcDbEntity
  8
0
100
AcDbBlockBegin
  2
*Paper_Space
 70
0
 10
0.0
 20
0.0
 30
0.0
  3
*Paper_Space
  1

  0
ENDBLK
  5
1D
100
AcDbEntity
  8
0
100
AcDbBlockEnd
  0
ENDSEC
  0
SECTION
  2
ENTITIES
  0
LINE
  5
212
100
AcDbEntity
  8
0
100
AcDbLine
 62
7
  6
CONTINUOUS
 10
1.0583259248
 20
-4.1090728094
 11
2.6631128733
 21
-4.8458732427
  0
LINE
  5
213
100
AcDbEntity
  8
0
100
AcDbLine
 62
7
  6
CONTINUOUS
 10
-4.2131989139
 20
1.1959636089
 11
-2.5561644445
 21
0.3444956814
  0
LINE
  5
214
100
AcDbEntity
  8
0
100
AcDbLine
 62
7
  6
CONTINUOUS
 10
-2.5350292342
 20
33.1716074647
 11
-2.1850292342
 21
33.6716074647
  0
LINE
  5
215
100
AcDbEntity
  8
0
100
AcDbLine
 62
7
  6
CONTINUOUS
 10
-0.1868948076
 20
-2.7185606641
 11
1.0583259248
 21
-4.1090728094
  0
LINE
  5
216
100
AcDbEntity
  8
0
100
AcDbLine
 62
7
  6
CONTINUOUS
 10
0.0449707658
 20
33.1716074647
 11
0.3949707658
 21
33.6716074647
  0
LINE
  5
217
100
AcDbEntity
  8
0
100
AcDbLine
 62
7
  6
CONTINUOUS
 10
-2.5561644445
 20
0.3444956814
 11
-1.3671341227
 21
-1.0886441313
  0
LINE
  5
218
100
AcDbEntity
  8
0
100
AcDbLine
 62
7
  6
CONTINUOUS
 10
-1.3671341227
 20
-1.0886441313
 11
-0.1868948076
 21
-2.7185606641
  0
LINE
  5
219
100
AcDbEntity
  8
RACCORDO
100
AcDbLine
 62
7
  6
CONTINUOUS
 10
-10.3361494105
 20
8.5128827028
 11
-10.3361493853
 21
8.5303336679
  0
LINE
  5
21A
100
AcDbEntity
  8
RACCORDO
100
AcDbLine
 62
253
  6
CONTINUOUS
 10
-9.8362255378
 20
8.0216074647
 11
-9.8362255444
 21
8.5303336681
  0
LINE
  5
21B
100
AcDbEntity
  8
RACCORDO
100
AcDbLine
 62
253
  6
CONTINUOUS
 10
-9.8066433173
 20
10.4216074647
 11
-9.8066433173
 21
10.225097946
  0
LINE
  5
21C
100
AcDbEntity
  8
RACCORDO
100
AcDbLine
 62
7
  6
CONTINUOUS
 10
-10.3361493853
 20
8.5303336679
 11
-10.3065671648
 21
10.225097946
  0
LINE
  5
21D
100
AcDbEntity
  8
RACCORDO
100
AcDbLine
 62
253
  6
CONTINUOUS
 10
-9.8362255378
 20
8.5303336679
 11
-9.8066433173
 21
10.225097946
  0
LINE
  5
21E
100
AcDbEntity
  8
RACCORDO
100
AcDbLine
 62
7
  6
CONTINUOUS
 10
-9.3415991478
 20
10.6181169834
 11
-9.3012392555
 21
12.9303336679
  0
LINE
  5
21F
100
AcDbEntity
  8
RACCORDO
100
AcDbLine
 62
253
  6
CONTINUOUS
 10
-8.8416753003
 20
10.4216074647
 11
-8.8416753003
 21
10.6181169834
  0
LINE
  5
220
100
AcDbEntity
  8
RACCORDO
100
AcDbLine
 62
253
  6
CONTINUOUS
 10
-8.8013154079
 20
13.4216074647
 11
-8.8013154079
 21
12.9303336679
  0
LINE
  5
221
100
AcDbEntity
  8
0
100
AcDbLine
 62
7
  6
CONTINUOUS
 10
-7.6850292342
 20
32.1216074647
 11
-7.6850292342
 21
29.1216074647
  0
LINE
  5
222
100
AcDbEntity
  8
RACCORDO
100
AcDbLine
 62
253
  6
CONTINUOUS
 10
-8.8416753003
 20
10.6181169834
 11
-8.8013154079
 21
12.9303336679
  0
LINE
  5
223
100
AcDbEntity
  8
0
100
AcDbLine
 62
7
  6
CONTINUOUS
 10
-7.3504992881
 20
31.4516074647
 11
-7.3504992881
 21
29.7716074647
  0
LINE
  5
224
100
AcDbEntity
  8
0
100
AcDbLine
 62
7
  6
CONTINUOUS
 10
-7.2350292342
 20
31.4516074647
 11
-7.2350292342
 21
29.7716074647
  0
LINE
  5
225
100
AcDbEntity
  8
0
100
AcDbLine
 62
7
  6
CONTINUOUS
 10
-7.1250292342
 20
29.1216074647
 11
-7.1250292342
 21
32.1216074647
  0
LINE
  5
226
100
AcDbEntity
  8
0
100
AcDbLine
 62
7
  6
CONTINUOUS
 10
-6.2250292342
 20
29.1216074647
 11
-6.2250292342
 21
27.7216074647
  0
LINE
  5
227
100
AcDbEntity
  8
0
100
AcDbLine
 62
7
  6
CONTINUOUS
 10
-6.2250292342
 20
32.1216074647
 11
-6.2250292342
 21
33.5216074647
  0
LINE
  5
228
100
AcDbEntity
  8
0
100
AcDbLine
 62
7
  6
CONTINUOUS
 10
-6.2050292342
 20
27.5716074647
 11
-6.2050292342
 21
27.7216074647
  0
LINE
  5
229
100
AcDbEntity
  8
0
100
AcDbLine
 62
7
  6
CONTINUOUS
 10
-6.2050292342
 20
33.5216074647
 11
-6.2050292342
 21
33.6716074647
  0
LWPOLYLINE
  5
22A
100
AcDbEntity
  8
RACCORDO
100
AcDbPolyline
 62
253
  6
CONTINUOUS
 90
5
 70
0
 10
-10.2691215539
 20
8.533526027
 10
-10.2980512622
 20
8.533007422
 10
-10.3190820626
 20
8.5322938362
 10
-10.3318542536
 20
8.5313974745
 10
-10.3361493853
 20
8.5303336679
  0
LINE
  5
22B
100
AcDbEntity
  8
RACCORDO
100
AcDbLine
 62
253
  6
CONTINUOUS
 10
9.2755323578
 20
8.5322938362
 11
9.1461670693
 21
8.5303336679
  0
LINE
  5
22C
100
AcDbEntity
  8
RACCORDO
100
AcDbLine
 62
253
  6
CONTINUOUS
 10
9.3960850301
 20
8.533526027
 11
9.2755323578
 21
8.5322938362
  0
LWPOLYLINE
  5
22D
100
AcDbEntity
  8
RACCORDO
100
AcDbPolyline
 62
253
  6
CONTINUOUS
 90
3
 70
0
 10
-10.1896712644
 20
8.5339463007
 10
-10.2327877404
 20
8.5338407811
 10
-10.2691215539
 20
8.533526027
  0
LINE
  5
22E
100
AcDbEntity
  8
RACCORDO
100
AcDbLine
 62
7
  6
CONTINUOUS
 10
9.1461670693
 20
8.0216074647
 11
-9.8362255378
 21
8.0216074647
  0
LINE
  5
22F
100
AcDbEntity
  8
RACCORDO
100
AcDbLine
 62
253
  6
CONTINUOUS
 10
9.1461670693
 20
8.5303336679
 11
-9.8362255378
 21
8.5303336679
  0
LINE
  5
230
100
AcDbEntity
  8
RACCORDO
100
AcDbLine
 62
253
  6
CONTINUOUS
 10
-10.0861435196
 20
8.5335260272
 11
-10.1896712644
 21
8.5339463007
  0
LWPOLYLINE
  5
231
100
AcDbEntity
  8
RACCORDO
100
AcDbPolyline
 62
253
  6
CONTINUOUS
 90
4
 70
0
 10
9.5790630732
 20
8.5335260272
 10
9.5427292585
 20
8.5338407811
 10
9.4996127814
 20
8.5339463007
 10
9.3960850301
 20
8.533526027
  0
LINE
  5
232
100
AcDbEntity
  8
RACCORDO
100
AcDbLine
 62
253
  6
CONTINUOUS
 10
-9.9655908444
 20
8.5322938365
 11
-10.0861435196
 21
8.5335260272
  0
LINE
  5
233
100
AcDbEntity
  8
RACCORDO
100
AcDbLine
 62
253
  6
CONTINUOUS
 10
-9.8362255378
 20
8.5303336679
 11
-9.9655908444
 21
8.5322938365
  0
LINE
  5
234
100
AcDbEntity
  8
0
100
AcDbLine
 62
7
  6
CONTINUOUS
 10
-5.7850292342
 20
27.7216074647
 11
-5.7850292342
 21
28.2216074647
  0
LINE
  5
235
100
AcDbEntity
  8
0
100
AcDbLine
 62
7
  6
CONTINUOUS
 10
-5.7850292342
 20
33.0216074647
 11
-5.7850292342
 21
33.5216074647
  0
LINE
  5
236
100
AcDbEntity
  8
ASSI
100
AcDbLine
 62
7
  6
CONTINUOUS
 10
-5.2400292343
 20
28.2216074647
 11
-5.2400292343
 21
13.4216074647
  0
LINE
  5
237
100
AcDbEntity
  8
ASSI
100
AcDbLine
 62
7
  6
CONTINUOUS
 10
-5.2400292343
 20
8.0216074647
 11
-5.2400292343
 21
0.6097053436
  0
LWPOLYLINE
  5
238
100
AcDbEntity
  8
RACCORDO
100
AcDbPolyline
 62
253
  6
CONTINUOUS
 90
4
 70
0
 10
8.6271524619
 20
10.6172106172
 10
8.6406643272
 20
10.6174557767
 10
8.6488195676
 20
10.6177550585
 10
8.6515406793
 20
10.6181169834
  0
LINE
  5
239
100
AcDbEntity
  8
RACCORDO
100
AcDbLine
 62
253
  6
CONTINUOUS
 10
8.5846429259
 20
10.6168422886
 11
8.6271524619
 21
10.6172106172
  0
LINE
  5
23A
100
AcDbEntity
  8
RACCORDO
100
AcDbLine
 62
253
  6
CONTINUOUS
 10
-10.2633178932
 20
10.2262176675
 11
-10.2110746702
 21
10.2264823979
  0
LINE
  5
23B
100
AcDbEntity
  8
RACCORDO
100
AcDbLine
 62
253
  6
CONTINUOUS
 10
9.1165848488
 20
10.225097946
 11
9.4104170613
 21
10.2264823979
  0
LINE
  5
23C
100
AcDbEntity
  8
RACCORDO
100
AcDbLine
 62
253
  6
CONTINUOUS
 10
-9.8066433173
 20
10.225097946
 11
9.1165848488
 21
10.225097946
  0
LINE
  5
23D
100
AcDbEntity
  8
RACCORDO
100
AcDbLine
 62
7
  6
CONTINUOUS
 10
-10.1065976258
 20
10.4216074647
 11
9.4165391573
 21
10.4216074647
  0
LINE
  5
23E
100
AcDbEntity
  8
RACCORDO
100
AcDbLine
 62
253
  6
CONTINUOUS
 10
8.4862318097
 20
10.6166824753
 11
8.5846429259
 21
10.6168422886
  0
LINE
  5
23F
100
AcDbEntity
  8
RACCORDO
100
AcDbLine
 62
253
  6
CONTINUOUS
 10
-8.8416753003
 20
10.6181169834
 11
8.1516168318
 21
10.6181169834
  0
LINE
  5
240
100
AcDbEntity
  8
RACCORDO
100
AcDbLine
 62
253
  6
CONTINUOUS
 10
-9.2460921115
 20
10.6167331358
 11
-9.0915809576
 21
10.6168422886
  0
LINE
  5
241
100
AcDbEntity
  8
RACCORDO
100
AcDbLine
 62
253
  6
CONTINUOUS
 10
9.4104170613
 20
10.2264823979
 11
9.5210470453
 21
10.2264830818
  0
LINE
  5
242
100
AcDbEntity
  8
RACCORDO
100
AcDbLine
 62
253
  6
CONTINUOUS
 10
-10.2110746702
 20
10.2264823979
 11
-10.0565481489
 21
10.2263760519
  0
LINE
  5
243
100
AcDbEntity
  8
RACCORDO
100
AcDbLine
 62
253
  6
CONTINUOUS
 10
8.4016951899
 20
10.6168416632
 11
8.4862318097
 21
10.6166824753
  0
LINE
  5
244
100
AcDbEntity
  8
RACCORDO
100
AcDbLine
 62
253
  6
CONTINUOUS
 10
-10.0565481489
 20
10.2263760519
 11
-9.8066433173
 21
10.225097946
  0
LWPOLYLINE
  5
245
100
AcDbEntity
  8
RACCORDO
100
AcDbPolyline
 62
253
  6
CONTINUOUS
 90
6
 70
0
 10
9.5210470453
 20
10.2264830818
 10
9.573289054
 20
10.2262179287
 10
9.5920362129
 20
10.2260054309
 10
9.6055781591
 20
10.2257417315
 10
9.6137655008
 20
10.2254364664
 10
9.6165086963
 20
10.225097946
  0
LWPOLYLINE
  5
246
100
AcDbEntity
  8
RACCORDO
100
AcDbPolyline
 62
253
  6
CONTINUOUS
 90
6
 70
0
 10
-9.3415991478
 20
10.6181169834
 10
-9.3388649905
 20
10.6177549069
 10
-9.3306790347
 20
10.6174552146
 10
-9.31713151
 20
10.6172095935
 10
-9.2983701999
 20
10.6170050089
 10
-9.2460921115
 20
10.6167331358
  0
LINE
  5
247
100
AcDbEntity
  8
ASSI
100
AcDbLine
 62
253
  6
CONTINUOUS
 10
-4.5000584685
 20
28.2216074647
 11
-4.5000584685
 21
13.4216074647
  0
LINE
  5
248
100
AcDbEntity
  8
ASSI
100
AcDbLine
 62
253
  6
CONTINUOUS
 10
-4.5000584685
 20
8.0216074647
 11
-4.5000584685
 21
1.0321840812
  0
LINE
  5
249
100
AcDbEntity
  8
ASSI
100
AcDbLine
 62
253
  6
CONTINUOUS
 10
-4.2423066767
 20
28.2216074647
 11
-4.2423066767
 21
13.4216074647
  0
LINE
  5
24A
100
AcDbEntity
  8
ASSI
100
AcDbLine
 62
253
  6
CONTINUOUS
 10
-4.2423066767
 20
8.0216074647
 11
-4.2423066767
 21
1.1793448295
  0
LINE
  5
24B
100
AcDbEntity
  8
ASSI
100
AcDbLine
 62
253
  6
CONTINUOUS
 10
-4.0677517918
 20
28.2216074647
 11
-4.0677517918
 21
13.4216074647
  0
LINE
  5
24C
100
AcDbEntity
  8
ASSI
100
AcDbLine
 62
253
  6
CONTINUOUS
 10
-4.0677517918
 20
8.0216074647
 11
-4.0677517918
 21
1.121225538
  0
LINE
  5
24D
100
AcDbEntity
  8
ASSI
100
AcDbLine
 62
253
  6
CONTINUOUS
 10
-3.81
 20
28.2216074647
 11
-3.81
 21
13.4216074647
  0
LINE
  5
24E
100
AcDbEntity
  8
ASSI
100
AcDbLine
 62
253
  6
CONTINUOUS
 10
-3.81
 20
8.0216074647
 11
-3.81
 21
0.9887796607
  0
LINE
  5
24F
100
AcDbEntity
  8
0
100
AcDbLine
 62
7
  6
CONTINUOUS
 10
-3.6850292342
 20
33.6716074647
 11
-3.6850292342
 21
33.0216074647
  0
LINE
  5
250
100
AcDbEntity
  8
ASSI
100
AcDbLine
 62
253
  6
CONTINUOUS
 10
-3.2300584685
 20
28.2216074647
 11
-3.2300584685
 21
13.4216074647
  0
LINE
  5
251
100
AcDbEntity
  8
ASSI
100
AcDbLine
 62
253
  6
CONTINUOUS
 10
-3.2300584685
 20
8.0216074647
 11
-3.2300584685
 21
0.6907764369
  0
LWPOLYLINE
  5
252
100
AcDbEntity
  8
RACCORDO
100
AcDbPolyline
 62
253
  6
CONTINUOUS
 90
5
 70
0
 10
-10.3065671648
 20
10.225097946
 10
-10.303820296
 20
10.2254366977
 10
-10.2956242189
 20
10.2257419721
 10
-10.2820719116
 20
10.2260055142
 10
-10.2633178932
 20
10.2262176675
  0
LINE
  5
253
100
AcDbEntity
  8
RACCORDO
100
AcDbLine
 62
253
  6
CONTINUOUS
 10
-9.0915809576
 20
10.6168422886
 11
-8.8416753003
 21
10.6181169834
  0
LINE
  5
254
100
AcDbEntity
  8
RACCORDO
100
AcDbLine
 62
253
  6
CONTINUOUS
 10
8.1516168318
 20
10.6181169834
 11
8.4016951899
 21
10.6168416632
  0
LWPOLYLINE
  5
255
100
AcDbEntity
  8
RACCORDO
100
AcDbPolyline
 62
253
  6
CONTINUOUS
 90
5
 70
0
 10
9.6460909168
 20
8.5303336679
 10
9.6417957837
 20
8.5313974747
 10
9.6290235893
 20
8.5322938365
 10
9.6079927846
 20
8.5330074223
 10
9.5790630732
 20
8.5335260272
  0
LINE
  5
256
100
AcDbEntity
  8
ASSI
100
AcDbLine
 62
253
  6
CONTINUOUS
 10
-2.9723066767
 20
28.2216074647
 11
-2.9723066767
 21
13.4216074647
  0
LINE
  5
257
100
AcDbEntity
  8
ASSI
100
AcDbLine
 62
253
  6
CONTINUOUS
 10
-2.9723066767
 20
8.0216074647
 11
-2.9723066767
 21
0.5583305596
  0
LINE
  5
258
100
AcDbEntity
  8
ASSI
100
AcDbLine
 62
253
  6
CONTINUOUS
 10
-2.7977517918
 20
28.2216074647
 11
-2.7977517918
 21
13.4216074647
  0
LINE
  5
259
100
AcDbEntity
  8
ASSI
100
AcDbLine
 62
253
  6
CONTINUOUS
 10
-2.7977517918
 20
8.0216074647
 11
-2.7977517918
 21
0.4686354514
  0
LINE
  5
25A
100
AcDbEntity
  8
ASSI
100
AcDbLine
 62
253
  6
CONTINUOUS
 10
-2.54
 20
28.2216074647
 11
-2.54
 21
13.4216074647
  0
LINE
  5
25B
100
AcDbEntity
  8
ASSI
100
AcDbLine
 62
253
  6
CONTINUOUS
 10
-2.54
 20
8.0216074647
 11
-2.54
 21
0.3250126551
  0
LINE
  5
25C
100
AcDbEntity
  8
0
100
AcDbLine
 62
7
  6
CONTINUOUS
 10
-2.2250292342
 20
34.5716074647
 11
-2.2250292342
 21
33.6716074647
  0
LINE
  5
25D
100
AcDbEntity
  8
0
100
AcDbLine
 62
7
  6
CONTINUOUS
 10
-2.1850292342
 20
33.0216074647
 11
-2.1850292342
 21
33.6716074647
  0
LINE
  5
25E
100
AcDbEntity
  8
ASSI
100
AcDbLine
 62
253
  6
CONTINUOUS
 10
-1.9600584685
 20
28.2216074647
 11
-1.9600584685
 21
13.4216074647
  0
LINE
  5
25F
100
AcDbEntity
  8
ASSI
100
AcDbLine
 62
253
  6
CONTINUOUS
 10
-1.9600584685
 20
8.0216074647
 11
-1.9600584685
 21
-0.3739916365
  0
LINE
  5
260
100
AcDbEntity
  8
ASSI
100
AcDbLine
 62
253
  6
CONTINUOUS
 10
-1.7023066767
 20
28.2216074647
 11
-1.7023066767
 21
13.4216074647
  0
LINE
  5
261
100
AcDbEntity
  8
ASSI
100
AcDbLine
 62
253
  6
CONTINUOUS
 10
-1.7023066767
 20
8.0216074647
 11
-1.7023066767
 21
-0.6846602106
  0
LINE
  5
262
100
AcDbEntity
  8
RACCORDO
100
AcDbLine
 62
253
  6
CONTINUOUS
 10
8.1112569394
 20
12.9303336679
 11
8.2406222279
 21
12.9322938362
  0
LINE
  5
263
100
AcDbEntity
  8
RACCORDO
100
AcDbLine
 62
253
  6
CONTINUOUS
 10
8.2406222279
 20
12.9322938362
 11
8.3611749002
 21
12.933526027
  0
LWPOLYLINE
  5
264
100
AcDbEntity
  8
RACCORDO
100
AcDbPolyline
 62
253
  6
CONTINUOUS
 90
8
 70
0
 10
8.3611749002
 20
12.933526027
 10
8.4647026516
 20
12.9339463007
 10
8.5078191286
 20
12.9338407811
 10
8.5441529433
 20
12.9335260272
 10
8.5730826548
 20
12.9330074223
 10
8.5941134594
 20
12.9322938365
 10
8.6068856538
 20
12.9313974747
 10
8.611180787
 20
12.9303336679
  0
LINE
  5
265
100
AcDbEntity
  8
RACCORDO
100
AcDbLine
 62
253
  6
CONTINUOUS
 10
-8.8013154079
 20
12.9303336679
 11
8.1112569394
 21
12.9303336679
  0
LINE
  5
266
100
AcDbEntity
  8
RACCORDO
100
AcDbLine
 62
7
  6
CONTINUOUS
 10
-8.8013154079
 20
13.4216074647
 11
8.1112569394
 21
13.4216074647
  0
LINE
  5
267
100
AcDbEntity
  8
RACCORDO
100
AcDbLine
 62
253
  6
CONTINUOUS
 10
-9.1547611345
 20
12.9339463007
 11
-9.0512333898
 21
12.9335260272
  0
LINE
  5
268
100
AcDbEntity
  8
RACCORDO
100
AcDbLine
 62
253
  6
CONTINUOUS
 10
-9.0512333898
 20
12.9335260272
 11
-8.9306807145
 21
12.9322938365
  0
LINE
  5
269
100
AcDbEntity
  8
RACCORDO
100
AcDbLine
 62
253
  6
CONTINUOUS
 10
-8.9306807145
 20
12.9322938365
 11
-8.8013154079
 21
12.9303336679
  0
LINE
  5
26A
100
AcDbEntity
  8
ASSI
100
AcDbLine
 62
253
  6
CONTINUOUS
 10
-1.5277517918
 20
28.2216074647
 11
-1.5277517918
 21
13.4216074647
  0
LINE
  5
26B
100
AcDbEntity
  8
ASSI
100
AcDbLine
 62
253
  6
CONTINUOUS
 10
-1.5277517918
 20
8.0216074647
 11
-1.5277517918
 21
-0.8950514433
  0
LINE
  5
26C
100
AcDbEntity
  8
ASSI
100
AcDbLine
 62
253
  6
CONTINUOUS
 10
-1.27
 20
28.2216074647
 11
-1.27
 21
13.4216074647
  0
LINE
  5
26D
100
AcDbEntity
  8
ASSI
100
AcDbLine
 62
253
  6
CONTINUOUS
 10
-1.27
 20
8.0216074647
 11
-1.27
 21
-1.2227868518
  0
LINE
  5
26E
100
AcDbEntity
  8
0
100
AcDbLine
 62
7
  6
CONTINUOUS
 10
-1.2250292342
 20
33.6716074647
 11
-1.2250292342
 21
34.5716074647
  0
LINE
  5
26F
100
AcDbEntity
  8
0
100
AcDbLine
 62
7
  6
CONTINUOUS
 10
-1.1050292342
 20
33.6716074647
 11
-1.1050292342
 21
33.0216074647
  0
LINE
  5
270
100
AcDbEntity
  8
ASSI
100
AcDbLine
 62
253
  6
CONTINUOUS
 10
-0.6900584685
 20
28.2216074647
 11
-0.6900584685
 21
13.4216074647
  0
LINE
  5
271
100
AcDbEntity
  8
ASSI
100
AcDbLine
 62
253
  6
CONTINUOUS
 10
-0.6900584685
 20
8.0216074647
 11
-0.6900584685
 21
-2.0236890739
  0
LINE
  5
272
100
AcDbEntity
  8
ASSI
100
AcDbLine
 62
253
  6
CONTINUOUS
 10
-0.4323066767
 20
28.2216074647
 11
-0.4323066767
 21
13.4216074647
  0
LINE
  5
273
100
AcDbEntity
  8
ASSI
100
AcDbLine
 62
253
  6
CONTINUOUS
 10
-0.4323066767
 20
8.0216074647
 11
-0.4323066767
 21
-2.3796456171
  0
LINE
  5
274
100
AcDbEntity
  8
ASSI
100
AcDbLine
 62
253
  6
CONTINUOUS
 10
-0.2577517918
 20
28.2216074647
 11
-0.2577517918
 21
13.4216074647
  0
LINE
  5
275
100
AcDbEntity
  8
ASSI
100
AcDbLine
 62
253
  6
CONTINUOUS
 10
-0.2577517918
 20
8.0216074647
 11
-0.2577517918
 21
-2.6207068063
  0
LINE
  5
276
100
AcDbEntity
  8
ASSI
100
AcDbLine
 62
253
  6
CONTINUOUS
 10
0.0
 20
28.2216074647
 11
0.0
 21
13.4216074647
  0
LINE
  5
277
100
AcDbEntity
  8
ASSI
100
AcDbLine
 62
253
  6
CONTINUOUS
 10
0.0
 20
8.0216074647
 11
0.0
 21
-2.9272622164
  0
LINE
  5
278
100
AcDbEntity
  8
0
100
AcDbLine
 62
7
  6
CONTINUOUS
 10
0.3949707658
 20
33.0216074647
 11
0.3949707658
 21
33.6716074647
  0
LINE
  5
279
100
AcDbEntity
  8
0
100
AcDbLine
 62
7
  6
CONTINUOUS
 10
0.4749707658
 20
34.5716074647
 11
0.4749707658
 21
33.6716074647
  0
LINE
  5
27A
100
AcDbEntity
  8
ASSI
100
AcDbLine
 62
253
  6
CONTINUOUS
 10
0.5799415315
 20
28.2216074647
 11
0.5799415315
 21
13.4216074647
  0
LINE
  5
27B
100
AcDbEntity
  8
ASSI
100
AcDbLine
 62
253
  6
CONTINUOUS
 10
0.5799415315
 20
8.0216074647
 11
0.5799415315
 21
-3.574870887
  0
LINE
  5
27C
100
AcDbEntity
  8
ASSI
100
AcDbLine
 62
253
  6
CONTINUOUS
 10
0.8376933233
 20
28.2216074647
 11
0.8376933233
 21
13.4216074647
  0
LINE
  5
27D
100
AcDbEntity
  8
ASSI
100
AcDbLine
 62
253
  6
CONTINUOUS
 10
0.8376933233
 20
8.0216074647
 11
0.8376933233
 21
-3.8626969628
  0
LINE
  5
27E
100
AcDbEntity
  8
ASSI
100
AcDbLine
 62
253
  6
CONTINUOUS
 10
1.0122482082
 20
28.2216074647
 11
1.0122482082
 21
13.4216074647
  0
LINE
  5
27F
100
AcDbEntity
  8
ASSI
100
AcDbLine
 62
253
  6
CONTINUOUS
 10
1.0122482082
 20
8.0216074647
 11
1.0122482082
 21
-4.0576187797
  0
LINE
  5
280
100
AcDbEntity
  8
ASSI
100
AcDbLine
 62
253
  6
CONTINUOUS
 10
1.27
 20
28.2216074647
 11
1.27
 21
13.4216074647
  0
LINE
  5
281
100
AcDbEntity
  8
ASSI
100
AcDbLine
 62
253
  6
CONTINUOUS
 10
1.27
 20
8.0216074647
 11
1.27
 21
-4.2062580155
  0
LWPOLYLINE
  5
282
100
AcDbEntity
  8
RACCORDO
100
AcDbPolyline
 62
253
  6
CONTINUOUS
 90
7
 70
0
 10
-9.3012392555
 20
12.9303336679
 10
-9.2969441237
 20
12.9313974745
 10
-9.2841719328
 20
12.9322938362
 10
-9.2631411323
 20
12.933007422
 10
-9.234211424
 20
12.933526027
 10
-9.1978776105
 20
12.9338407811
 10
-9.1547611345
 20
12.9339463007
  0
LINE
  5
283
100
AcDbEntity
  8
0
100
AcDbLine
 62
7
  6
CONTINUOUS
 10
1.4749707658
 20
33.6716074647
 11
1.4749707658
 21
34.5716074647
  0
LINE
  5
284
100
AcDbEntity
  8
ASSI
100
AcDbLine
 62
253
  6
CONTINUOUS
 10
1.8499415315
 20
28.2216074647
 11
1.8499415315
 21
13.4216074647
  0
LINE
  5
285
100
AcDbEntity
  8
ASSI
100
AcDbLine
 62
253
  6
CONTINUOUS
 10
1.8499415315
 20
8.0216074647
 11
1.8499415315
 21
-4.47252462
  0
LINE
  5
286
100
AcDbEntity
  8
ASSI
100
AcDbLine
 62
253
  6
CONTINUOUS
 10
2.1076933233
 20
28.2216074647
 11
2.1076933233
 21
13.4216074647
  0
LINE
  5
287
100
AcDbEntity
  8
ASSI
100
AcDbLine
 62
253
  6
CONTINUOUS
 10
2.1076933233
 20
8.0216074647
 11
2.1076933233
 21
-4.5908653331
  0
LINE
  5
288
100
AcDbEntity
  8
ASSI
100
AcDbLine
 62
253
  6
CONTINUOUS
 10
2.2822482082
 20
28.2216074647
 11
2.2822482082
 21
13.4216074647
  0
LINE
  5
289
100
AcDbEntity
  8
ASSI
100
AcDbLine
 62
253
  6
CONTINUOUS
 10
2.2822482082
 20
8.0216074647
 11
2.2822482082
 21
-4.6710081302
  0
LINE
  5
28A
100
AcDbEntity
  8
0
100
AcDbLine
 62
7
  6
CONTINUOUS
 10
2.3002702274
 20
33.6716074647
 11
2.3002702274
 21
33.4216074647
  0
LINE
  5
28B
100
AcDbEntity
  8
ASSI
100
AcDbLine
 62
253
  6
CONTINUOUS
 10
2.54
 20
28.2216074647
 11
2.54
 21
13.4216074647
  0
LINE
  5
28C
100
AcDbEntity
  8
ASSI
100
AcDbLine
 62
253
  6
CONTINUOUS
 10
2.54
 20
8.0216074647
 11
2.54
 21
-4.7893488433
  0
LINE
  5
28D
100
AcDbEntity
  8
ASSI
100
AcDbLine
 62
253
  6
CONTINUOUS
 10
3.1199415315
 20
28.2216074647
 11
3.1199415315
 21
13.4216074647
  0
LINE
  5
28E
100
AcDbEntity
  8
ASSI
100
AcDbLine
 62
253
  6
CONTINUOUS
 10
3.1199415315
 20
8.0216074647
 11
3.1199415315
 21
-4.6503475035
  0
LINE
  5
28F
100
AcDbEntity
  8
ASSI
100
AcDbLine
 62
253
  6
CONTINUOUS
 10
3.3776933233
 20
28.2216074647
 11
3.3776933233
 21
13.4216074647
  0
LINE
  5
290
100
AcDbEntity
  8
ASSI
100
AcDbLine
 62
253
  6
CONTINUOUS
 10
3.3776933233
 20
8.0216074647
 11
3.3776933233
 21
-4.5400280025
  0
LINE
  5
291
100
AcDbEntity
  8
0
100
AcDbLine
 62
7
  6
CONTINUOUS
 10
3.4549707658
 20
33.4216074647
 11
3.4549707658
 21
33.6716074647
  0
LINE
  5
292
100
AcDbEntity
  8
ASSI
100
AcDbLine
 62
253
  6
CONTINUOUS
 10
3.5522482082
 20
28.2216074647
 11
3.5522482082
 21
13.4216074647
  0
LINE
  5
293
100
AcDbEntity
  8
ASSI
100
AcDbLine
 62
253
  6
CONTINUOUS
 10
3.5522482082
 20
8.0216074647
 11
3.5522482082
 21
-4.4653173374
  0
LINE
  5
294
100
AcDbEntity
  8
ASSI
100
AcDbLine
 62
253
  6
CONTINUOUS
 10
3.81
 20
28.2216074647
 11
3.81
 21
13.4216074647
  0
LINE
  5
295
100
AcDbEntity
  8
ASSI
100
AcDbLine
 62
253
  6
CONTINUOUS
 10
3.81
 20
8.0216074647
 11
3.81
 21
-4.3549978364
  0
LINE
  5
296
100
AcDbEntity
  8
ASSI
100
AcDbLine
 62
7
  6
CONTINUOUS
 10
4.5499707658
 20
28.2216074647
 11
4.5499707658
 21
13.4216074647
  0
LINE
  5
297
100
AcDbEntity
  8
ASSI
100
AcDbLine
 62
7
  6
CONTINUOUS
 10
4.5499707658
 20
8.0216074647
 11
4.5499707658
 21
-4.0382853701
  0
LINE
  5
298
100
AcDbEntity
  8
0
100
AcDbLine
 62
7
  6
CONTINUOUS
 10
4.6096713041
 20
33.4216074647
 11
4.6096713041
 21
33.6716074647
  0
LINE
  5
299
100
AcDbEntity
  8
0
100
AcDbLine
 62
7
  6
CONTINUOUS
 10
4.9549707658
 20
33.5216074647
 11
4.9549707658
 21
33.0216074647
  0
LINE
  5
29A
100
AcDbEntity
  8
0
100
AcDbLine
 62
7
  6
CONTINUOUS
 10
4.9549707658
 20
28.2216074647
 11
4.9549707658
 21
27.7216074647
  0
LINE
  5
29B
100
AcDbEntity
  8
0
100
AcDbLine
 62
7
  6
CONTINUOUS
 10
5.3949707658
 20
27.7216074647
 11
5.3949707658
 21
29.1216074647
  0
LINE
  5
29C
100
AcDbEntity
  8
0
100
AcDbLine
 62
7
  6
CONTINUOUS
 10
5.3949707658
 20
32.1216074647
 11
5.3949707658
 21
33.5216074647
  0
LINE
  5
29D
100
AcDbEntity
  8
0
100
AcDbLine
 62
7
  6
CONTINUOUS
 10
5.4549707658
 20
27.5716074647
 11
5.4549707658
 21
29.1216074647
  0
LINE
  5
29E
100
AcDbEntity
  8
0
100
AcDbLine
 62
7
  6
CONTINUOUS
 10
5.4549707658
 20
32.1216074647
 11
5.4549707658
 21
33.6716074647
  0
LINE
  5
29F
100
AcDbEntity
  8
0
100
AcDbLine
 62
7
  6
CONTINUOUS
 10
6.2949707658
 20
29.1216074647
 11
6.2949707658
 21
32.1216074647
  0
LINE
  5
2A0
100
AcDbEntity
  8
0
100
AcDbLine
 62
7
  6
CONTINUOUS
 10
6.4849707658
 20
29.7716074647
 11
6.4849707658
 21
31.4516074647
  0
LINE
  5
2A1
100
AcDbEntity
  8
0
100
AcDbLine
 62
7
  6
CONTINUOUS
 10
6.6004408196
 20
31.4516074647
 11
6.6004408196
 21
29.7716074647
  0
LINE
  5
2A2
100
AcDbEntity
  8
0
100
AcDbLine
 62
7
  6
CONTINUOUS
 10
6.9349707658
 20
32.1216074647
 11
6.9349707658
 21
29.1216074647
  0
LINE
  5
2A3
100
AcDbEntity
  8
RACCORDO
100
AcDbLine
 62
253
  6
CONTINUOUS
 10
8.1516168318
 20
10.6181169834
 11
8.1112569394
 21
12.9303336679
  0
LINE
  5
2A4
100
AcDbEntity
  8
RACCORDO
100
AcDbLine
 62
7
  6
CONTINUOUS
 10
8.6515406793
 20
10.6181169834
 11
8.611180787
 21
12.9303336679
  0
LINE
  5
2A5
100
AcDbEntity
  8
RACCORDO
100
AcDbLine
 62
253
  6
CONTINUOUS
 10
8.1112569394
 20
13.4216074647
 11
8.1112569143
 21
12.9303336681
  0
LINE
  5
2A6
100
AcDbEntity
  8
RACCORDO
100
AcDbLine
 62
253
  6
CONTINUOUS
 10
8.1516168318
 20
10.4216074647
 11
8.1516168318
 21
10.6181169834
  0
LINE
  5
2A7
100
AcDbEntity
  8
0
100
AcDbLine
 62
7
  6
CONTINUOUS
 10
-3.6850292342
 20
33.6716074647
 11
-3.3350292342
 21
33.1716074647
  0
LINE
  5
2A8
100
AcDbEntity
  8
RACCORDO
100
AcDbLine
 62
253
  6
CONTINUOUS
 10
9.1461670693
 20
8.5303336679
 11
9.1165848488
 21
10.225097946
  0
LINE
  5
2A9
100
AcDbEntity
  8
RACCORDO
100
AcDbLine
 62
7
  6
CONTINUOUS
 10
9.6460909168
 20
8.5303336679
 11
9.6165086963
 21
10.225097946
  0
LINE
  5
2AA
100
AcDbEntity
  8
RACCORDO
100
AcDbLine
 62
253
  6
CONTINUOUS
 10
9.1165848488
 20
10.4216074647
 11
9.1165848188
 21
10.2250979464
  0
LINE
  5
2AB
100
AcDbEntity
  8
RACCORDO
100
AcDbLine
 62
253
  6
CONTINUOUS
 10
9.1461670693
 20
8.0216074647
 11
9.1461670693
 21
8.5303336679
  0
LINE
  5
2AC
100
AcDbEntity
  8
RACCORDO
100
AcDbLine
 62
7
  6
CONTINUOUS
 10
9.6460909102
 20
8.5128808803
 11
9.6460909168
 21
8.5303336681
  0
LINE
  5
2AD
100
AcDbEntity
  8
0
100
AcDbLine
 62
7
  6
CONTINUOUS
 10
-5.2400292343
 20
0.6097053436
 11
-4.2131989139
 21
1.1959636089
  0
LINE
  5
2AE
100
AcDbEntity
  8
0
100
AcDbLine
 62
7
  6
CONTINUOUS
 10
-1.1050292342
 20
33.6716074647
 11
-0.7550292342
 21
33.1716074647
  0
LINE
  5
2AF
100
AcDbEntity
  8
0
100
AcDbLine
 62
7
  6
CONTINUOUS
 10
-6.2050292342
 20
27.5716074647
 11
-5.2400292343
 21
27.5716074647
  0
LINE
  5
2B0
100
AcDbEntity
  8
0
100
AcDbLine
 62
7
  6
CONTINUOUS
 10
4.5499707658
 20
27.5716074647
 11
5.4549707658
 21
27.5716074647
  0
LINE
  5
2B1
100
AcDbEntity
  8
0
100
AcDbLine
 62
7
  6
CONTINUOUS
 10
-6.2250292342
 20
27.7216074647
 11
-5.7850292342
 21
27.7216074647
  0
LINE
  5
2B2
100
AcDbEntity
  8
0
100
AcDbLine
 62
7
  6
CONTINUOUS
 10
4.9549707658
 20
27.7216074647
 11
5.3949707658
 21
27.7216074647
  0
LINE
  5
2B3
100
AcDbEntity
  8
0
100
AcDbLine
 62
7
  6
CONTINUOUS
 10
-6.2250292342
 20
28.2216074647
 11
5.3949707658
 21
28.2216074647
  0
LINE
  5
2B4
100
AcDbEntity
  8
0
100
AcDbLine
 62
7
  6
CONTINUOUS
 10
-7.6850292342
 20
29.1216074647
 11
-6.2250292342
 21
29.1216074647
  0
LINE
  5
2B5
100
AcDbEntity
  8
0
100
AcDbLine
 62
7
  6
CONTINUOUS
 10
5.3949707658
 20
29.1216074647
 11
6.9349707658
 21
29.1216074647
  0
LINE
  5
2B6
100
AcDbEntity
  8
0
100
AcDbLine
 62
7
  6
CONTINUOUS
 10
6.6004408196
 20
29.7716074647
 11
6.2949707658
 21
29.7716074647
  0
LINE
  5
2B7
100
AcDbEntity
  8
0
100
AcDbLine
 62
7
  6
CONTINUOUS
 10
-7.1250292342
 20
29.7716074647
 11
-7.6850292342
 21
29.7716074647
  0
LINE
  5
2B8
100
AcDbEntity
  8
0
100
AcDbLine
 62
7
  6
CONTINUOUS
 10
-7.2350292342
 20
29.8316074647
 11
-7.1250292342
 21
29.8316074647
  0
LINE
  5
2B9
100
AcDbEntity
  8
0
100
AcDbLine
 62
7
  6
CONTINUOUS
 10
-7.1250292342
 20
30.5816074647
 11
-7.2350292342
 21
30.5816074647
  0
LINE
  5
2BA
100
AcDbEntity
  8
0
100
AcDbLine
 62
7
  6
CONTINUOUS
 10
6.2949707728
 20
30.5816074647
 11
6.4849707658
 21
30.5816074647
  0
LINE
  5
2BB
100
AcDbEntity
  8
0
100
AcDbLine
 62
7
  6
CONTINUOUS
 10
-7.1250292413
 20
30.6616074647
 11
-7.2350292342
 21
30.6616074647
  0
LINE
  5
2BC
100
AcDbEntity
  8
0
100
AcDbLine
 62
7
  6
CONTINUOUS
 10
6.2949707658
 20
30.6616074647
 11
6.4849707658
 21
30.6616074647
  0
LINE
  5
2BD
100
AcDbEntity
  8
0
100
AcDbLine
 62
7
  6
CONTINUOUS
 10
6.2949707798
 20
29.8313883003
 11
6.4849707658
 21
29.8313070826
  0
LINE
  5
2BE
100
AcDbEntity
  8
0
100
AcDbLine
 62
7
  6
CONTINUOUS
 10
6.4849707658
 20
31.4116074647
 11
6.2949707658
 21
31.4116074647
  0
LINE
  5
2BF
100
AcDbEntity
  8
0
100
AcDbLine
 62
7
  6
CONTINUOUS
 10
-7.6850292342
 20
31.4516074647
 11
-7.1250292342
 21
31.4516074647
  0
LINE
  5
2C0
100
AcDbEntity
  8
0
100
AcDbLine
 62
7
  6
CONTINUOUS
 10
6.2949707658
 20
31.4516074647
 11
6.6004408196
 21
31.4516074647
  0
LINE
  5
2C1
100
AcDbEntity
  8
0
100
AcDbLine
 62
7
  6
CONTINUOUS
 10
-7.6850292342
 20
32.1216074647
 11
-6.2250292342
 21
32.1216074647
  0
LINE
  5
2C2
100
AcDbEntity
  8
0
100
AcDbLine
 62
7
  6
CONTINUOUS
 10
5.3949707658
 20
32.1216074647
 11
6.9349707658
 21
32.1216074647
  0
LINE
  5
2C3
100
AcDbEntity
  8
0
100
AcDbLine
 62
7
  6
CONTINUOUS
 10
-7.1250292483
 20
31.4118266291
 11
-7.2350292342
 21
31.41191197
  0
LINE
  5
2C4
100
AcDbEntity
  8
0
100
AcDbLine
 62
7
  6
CONTINUOUS
 10
2.6631128733
 20
-4.8458732427
 11
4.5499707658
 21
-4.0382853701
  0
LINE
  5
2C5
100
AcDbEntity
  8
0
100
AcDbLine
 62
7
  6
CONTINUOUS
 10
-6.2250292342
 20
33.0216074647
 11
5.3949707658
 21
33.0216074647
  0
LINE
  5
2C6
100
AcDbEntity
  8
0
100
AcDbLine
 62
7
  6
CONTINUOUS
 10
-3.6850292342
 20
33.1716074647
 11
-2.1850292342
 21
33.1716074647
  0
LINE
  5
2C7
100
AcDbEntity
  8
0
100
AcDbLine
 62
7
  6
CONTINUOUS
 10
-1.1050292342
 20
33.1716074647
 11
0.3949707658
 21
33.1716074647
  0
LINE
  5
2C8
100
AcDbEntity
  8
0
100
AcDbLine
 62
7
  6
CONTINUOUS
 10
2.3002702274
 20
33.4216074647
 11
4.6096713041
 21
33.4216074647
  0
LINE
  5
2C9
100
AcDbEntity
  8
0
100
AcDbLine
 62
7
  6
CONTINUOUS
 10
5.3949707658
 20
33.5216074647
 11
4.9549707658
 21
33.5216074647
  0
LINE
  5
2CA
100
AcDbEntity
  8
0
100
AcDbLine
 62
7
  6
CONTINUOUS
 10
-5.7850292342
 20
33.5216074647
 11
-6.2250292342
 21
33.5216074647
  0
LINE
  5
2CB
100
AcDbEntity
  8
0
100
AcDbLine
 62
7
  6
CONTINUOUS
 10
-6.2050292342
 20
33.6716074647
 11
-3.6850292342
 21
33.6716074647
  0
LINE
  5
2CC
100
AcDbEntity
  8
0
100
AcDbLine
 62
7
  6
CONTINUOUS
 10
-2.2250292342
 20
33.6716074647
 11
-1.1050292342
 21
33.6716074647
  0
LINE
  5
2CD
100
AcDbEntity
  8
0
100
AcDbLine
 62
7
  6
CONTINUOUS
 10
0.3949707658
 20
33.6716074647
 11
5.4549707658
 21
33.6716074647
  0
LINE
  5
2CE
100
AcDbEntity
  8
0
100
AcDbLine
 62
7
  6
CONTINUOUS
 10
1.4749707658
 20
34.5716074647
 11
0.4749707658
 21
34.5716074647
  0
LINE
  5
2CF
100
AcDbEntity
  8
0
100
AcDbLine
 62
7
  6
CONTINUOUS
 10
-1.2250292342
 20
34.5716074647
 11
-2.2250292342
 21
34.5716074647
  0
LINE
  5
2D0
100
AcDbEntity
  8
0
100
AcDbLine
 62
7
  6
CONTINUOUS
 10
-4.2131989139
 20
-1.8042383911
 11
-5.2400292343
 21
-2.3904966564
  0
LINE
  5
2D1
100
AcDbEntity
  8
0
100
AcDbLine
 62
7
  6
CONTINUOUS
 10
1.4749707658
 20
-47.7356975891
 11
0.4749707658
 21
-47.7356975891
  0
LINE
  5
2D2
100
AcDbEntity
  8
0
100
AcDbLine
 62
7
  6
CONTINUOUS
 10
-1.2250292342
 20
-47.7356975891
 11
-2.2250292342
 21
-47.7356975891
  0
LINE
  5
2D3
100
AcDbEntity
  8
0
100
AcDbLine
 62
7
  6
CONTINUOUS
 10
5.4549707658
 20
-46.8356975891
 11
1.4749707658
 21
-46.8356975891
  0
LINE
  5
2D4
100
AcDbEntity
  8
0
100
AcDbLine
 62
7
  6
CONTINUOUS
 10
0.4749707658
 20
-46.8356975891
 11
0.3949707658
 21
-46.8356975891
  0
LINE
  5
2D5
100
AcDbEntity
  8
0
100
AcDbLine
 62
7
  6
CONTINUOUS
 10
-1.1050292342
 20
-46.8356975891
 11
-1.2250292342
 21
-46.8356975891
  0
LINE
  5
2D6
100
AcDbEntity
  8
0
100
AcDbLine
 62
7
  6
CONTINUOUS
 10
-3.6850292342
 20
-46.8356975891
 11
-6.2050292342
 21
-46.8356975891
  0
LINE
  5
2D7
100
AcDbEntity
  8
0
100
AcDbLine
 62
7
  6
CONTINUOUS
 10
-2.2250292342
 20
-46.8356975891
 11
-2.1850292342
 21
-46.8356975891
  0
LINE
  5
2D8
100
AcDbEntity
  8
0
100
AcDbLine
 62
7
  6
CONTINUOUS
 10
-6.2250292342
 20
-46.6856975891
 11
-6.2050292342
 21
-46.6856975891
  0
LINE
  5
2D9
100
AcDbEntity
  8
0
100
AcDbLine
 62
7
  6
CONTINUOUS
 10
0.0449707658
 20
-46.3356975891
 11
-0.7550292342
 21
-46.3356975891
  0
LINE
  5
2DA
100
AcDbEntity
  8
0
100
AcDbLine
 62
7
  6
CONTINUOUS
 10
-2.5350292342
 20
-46.3356975891
 11
-3.3350292342
 21
-46.3356975891
  0
LWPOLYLINE
  5
2DB
100
AcDbEntity
  8
0
100
AcDbPolyline
 62
7
  6
CONTINUOUS
 90
31
 70
0
 10
6.0553460439
 20
-45.251383014
 10
6.0658871301
 20
-45.2512826571
 10
6.0763268088
 20
-45.2509906314
 10
6.08666508
 20
-45.2505045841
 10
6.096926736
 20
-45.2498186595
 10
6.1070869844
 20
-45.2489293549
 10
6.1170714483
 20
-45.2478357639
 10
6.1268857336
 20
-45.2465274617
 10
6.1365242344
 20
-45.2449970557
 10
6.1458957547
 20
-45.2432470202
 10
6.1549871678
 20
-45.2412672997
 10
6.1638116005
 20
-45.2390439873
 10
6.1723172378
 20
-45.2365734427
 10
6.1805058163
 20
-45.2338407192
 10
6.1883755994
 20
-45.2308316658
 10
6.1958695618
 20
-45.2275441387
 10
6.202981794
 20
-45.2239654691
 10
6.2097182056
 20
-45.2200764767
 10
6.2160395005
 20
-45.2158656876
 10
6.2219461988
 20
-45.2113182397
 10
6.2274377804
 20
-45.2064141964
 10
6.2324733893
 20
-45.2011339968
 10
6.2370551652
 20
-45.1954617942
 10
6.2411809684
 20
-45.1893756376
 10
6.2448035236
 20
-45.1828451988
 10
6.2479267039
 20
-45.1758533798
 10
6.2505466362
 20
-45.1683759025
 10
6.2526044258
 20
-45.1603684798
 10
6.2540804412
 20
-45.1518000802
 10
6.2549943139
 20
-45.1426552501
 10
6.2553460439
 20
-45.1329111846
  0
LWPOLYLINE
  5
2DC
100
AcDbEntity
  8
0
100
AcDbPolyline
 62
7
  6
CONTINUOUS
 90
31
 70
0
 10
-6.4050292342
 20
-45.251383014
 10
-6.3944881481
 20
-45.2512826571
 10
-6.3840484694
 20
-45.2509906314
 10
-6.3737101982
 20
-45.2505045841
 10
-6.3634485422
 20
-45.2498186595
 10
-6.3532882937
 20
-45.2489293549
 10
-6.3433038299
 20
-45.2478357639
 10
-6.3334895445
 20
-45.2465274617
 10
-6.3238510438
 20
-45.2449970557
 10
-6.3144795235
 20
-45.2432470202
 10
-6.3053881104
 20
-45.2412672997
 10
-6.2965636777
 20
-45.2390439873
 10
-6.2880580404
 20
-45.2365734427
 10
-6.2798694619
 20
-45.2338407192
 10
-6.2719996788
 20
-45.2308316658
 10
-6.2645057163
 20
-45.2275441387
 10
-6.2573934842
 20
-45.2239654691
 10
-6.2506570726
 20
-45.2200764767
 10
-6.2443357777
 20
-45.2158656876
 10
-6.2384290794
 20
-45.2113182397
 10
-6.2329374978
 20
-45.2064141964
 10
-6.2279018889
 20
-45.2011339968
 10
-6.223320113
 20
-45.1954617942
 10
-6.2191943098
 20
-45.1893756376
 10
-6.2155717546
 20
-45.1828451988
 10
-6.2124485743
 20
-45.1758533798
 10
-6.209828642
 20
-45.1683759025
 10
-6.2077708524
 20
-45.1603684798
 10
-6.206294837
 20
-45.1518000802
 10
-6.2053809643
 20
-45.1426552501
 10
-6.2050292342
 20
-45.1329111846
  0
LINE
  5
2DD
100
AcDbEntity
  8
0
100
AcDbLine
 62
7
  6
CONTINUOUS
 10
-4.9400292342
 20
-45.7906975891
 11
-3.3900292342
 21
-45.7906975891
  0
LINE
  5
2DE
100
AcDbEntity
  8
0
100
AcDbLine
 62
7
  6
CONTINUOUS
 10
-2.4000292342
 20
-45.7906975891
 11
-0.8500292342
 21
-45.7906975891
  0
LINE
  5
2DF
100
AcDbEntity
  8
0
100
AcDbLine
 62
7
  6
CONTINUOUS
 10
0.1399707658
 20
-45.7906975891
 11
1.6899707658
 21
-45.7906975891
  0
LINE
  5
2E0
100
AcDbEntity
  8
0
100
AcDbLine
 62
7
  6
CONTINUOUS
 10
2.6799707658
 20
-45.7906975891
 11
4.2299707658
 21
-45.7906975891
  0
LINE
  5
2E1
100
AcDbEntity
  8
0
100
AcDbLine
 62
7
  6
CONTINUOUS
 10
-4.5900292342
 20
-45.4406975891
 11
-3.7400292342
 21
-45.4406975891
  0
LINE
  5
2E2
100
AcDbEntity
  8
0
100
AcDbLine
 62
7
  6
CONTINUOUS
 10
-2.0500292342
 20
-45.4406975891
 11
-1.2000292342
 21
-45.4406975891
  0
LINE
  5
2E3
100
AcDbEntity
  8
0
100
AcDbLine
 62
7
  6
CONTINUOUS
 10
0.4899707658
 20
-45.4406975891
 11
1.3399707658
 21
-45.4406975891
  0
LINE
  5
2E4
100
AcDbEntity
  8
0
100
AcDbLine
 62
7
  6
CONTINUOUS
 10
3.0299707658
 20
-45.4406975891
 11
3.8799707658
 21
-45.4406975891
  0
LINE
  5
2E5
100
AcDbEntity
  8
0
100
AcDbLine
 62
7
  6
CONTINUOUS
 10
6.9349707658
 20
-45.2856975891
 11
5.4549707658
 21
-45.2856975891
  0
LINE
  5
2E6
100
AcDbEntity
  8
0
100
AcDbLine
 62
7
  6
CONTINUOUS
 10
-6.2050292342
 20
-45.2856975891
 11
-7.6850292342
 21
-45.2856975891
  0
LINE
  5
2E7
100
AcDbEntity
  8
0
100
AcDbLine
 62
7
  6
CONTINUOUS
 10
-6.8054045124
 20
-45.251383014
 11
-6.4050292342
 21
-45.251383014
  0
LINE
  5
2E8
100
AcDbEntity
  8
0
100
AcDbLine
 62
7
  6
CONTINUOUS
 10
5.6549707658
 20
-45.251383014
 11
6.0553460439
 21
-45.251383014
  0
LINE
  5
2E9
100
AcDbEntity
  8
0
100
AcDbLine
 62
253
  6
CONTINUOUS
 10
-7.6850292342
 20
-44.6856975891
 11
-7.0054045124
 21
-44.6856975891
  0
LINE
  5
2EA
100
AcDbEntity
  8
0
100
AcDbLine
 62
253
  6
CONTINUOUS
 10
6.2553460439
 20
-44.6856975891
 11
6.9349707658
 21
-44.6856975891
  0
LINE
  5
2EB
100
AcDbEntity
  8
0
100
AcDbLine
 62
7
  6
CONTINUOUS
 10
3.8799707658
 20
-44.6706975891
 11
3.0299707658
 21
-44.6706975891
  0
LINE
  5
2EC
100
AcDbEntity
  8
0
100
AcDbLine
 62
7
  6
CONTINUOUS
 10
1.3399707658
 20
-44.6706975891
 11
0.4899707658
 21
-44.6706975891
  0
LINE
  5
2ED
100
AcDbEntity
  8
0
100
AcDbLine
 62
7
  6
CONTINUOUS
 10
-1.2000292342
 20
-44.6706975891
 11
-2.0500292342
 21
-44.6706975891
  0
LINE
  5
2EE
100
AcDbEntity
  8
0
100
AcDbLine
 62
7
  6
CONTINUOUS
 10
-3.7400292342
 20
-44.6706975891
 11
-4.5900292342
 21
-44.6706975891
  0
LINE
  5
2EF
100
AcDbEntity
  8
0
100
AcDbLine
 62
7
  6
CONTINUOUS
 10
6.9349707658
 20
-44.6356975891
 11
5.4549707658
 21
-44.6356975891
  0
LINE
  5
2F0
100
AcDbEntity
  8
0
100
AcDbLine
 62
7
  6
CONTINUOUS
 10
6.4849707658
 20
-44.6156975891
 11
5.4549707658
 21
-44.6156975891
  0
LINE
  5
2F1
100
AcDbEntity
  8
0
100
AcDbLine
 62
7
  6
CONTINUOUS
 10
-7.6850292342
 20
-44.6156975891
 11
-6.2050292342
 21
-44.6156975891
  0
LWPOLYLINE
  5
2F2
100
AcDbEntity
  8
0
100
AcDbPolyline
 62
7
  6
CONTINUOUS
 90
31
 70
0
 10
-6.8054045124
 20
-45.251383014
 10
-6.8158986903
 20
-45.2512891388
 10
-6.8263476993
 20
-45.2509963384
 10
-6.8367230427
 20
-45.2505046128
 10
-6.8469942554
 20
-45.2498187663
 10
-6.8571362153
 20
-45.2489339945
 10
-6.8671289176
 20
-45.2478358848
 10
-6.8769536909
 20
-45.2465257373
 10
-6.886575996
 20
-45.2450022519
 10
-6.8959537519
 20
-45.2432471153
 10
-6.9050532998
 20
-45.2412642732
 10
-6.9138631009
 20
-45.2390497801
 10
-6.9223755664
 20
-45.2365734862
 10
-6.9305726266
 20
-45.2338361705
 10
-6.9384296662
 20
-45.2308370541
 10
-6.9459290692
 20
-45.2275436508
 10
-6.9530470133
 20
-45.2239601509
 10
-6.9597709423
 20
-45.220082364
 10
-6.9660986038
 20
-45.2158652336
 10
-6.9720105708
 20
-45.2113123307
 10
-6.9774899009
 20
-45.2064200843
 10
-6.9825329777
 20
-45.2011327241
 10
-6.9871193415
 20
-45.195455053
 10
-6.9912313858
 20
-45.1893822681
 10
-6.9948624963
 20
-45.1828441914
 10
-6.9979903265
 20
-45.175846803
 10
-7.0005948279
 20
-45.1683841227
 10
-7.002662991
 20
-45.1603680326
 10
-7.0041712316
 20
-45.1517691598
 10
-7.0050926123
 20
-45.1426168771
 10
-7.0054045124
 20
-45.1329111846
  0
LWPOLYLINE
  5
2F3
100
AcDbEntity
  8
0
100
AcDbPolyline
 62
7
  6
CONTINUOUS
 90
31
 70
0
 10
5.6549707658
 20
-45.251383014
 10
5.6444765879
 20
-45.2512891388
 10
5.6340275789
 20
-45.2509963384
 10
5.6236522354
 20
-45.2505046128
 10
5.6133810228
 20
-45.2498187663
 10
5.6032390628
 20
-45.2489339945
 10
5.5932463606
 20
-45.2478358848
 10
5.5834215873
 20
-45.2465257373
 10
5.5737992822
 20
-45.2450022519
 10
5.5644215263
 20
-45.2432471153
 10
5.5553219784
 20
-45.2412642732
 10
5.5465121773
 20
-45.2390497801
 10
5.5379997118
 20
-45.2365734862
 10
5.5298026516
 20
-45.2338361705
 10
5.521945612
 20
-45.2308370541
 10
5.5144462089
 20
-45.2275436508
 10
5.5073282649
 20
-45.2239601509
 10
5.5006043359
 20
-45.220082364
 10
5.4942766744
 20
-45.2158652336
 10
5.4883647074
 20
-45.2113123307
 10
5.4828853773
 20
-45.2064200843
 10
5.4778423005
 20
-45.2011327241
 10
5.4732559367
 20
-45.195455053
 10
5.4691438924
 20
-45.1893822681
 10
5.4655127819
 20
-45.1828441914
 10
5.4623849516
 20
-45.175846803
 10
5.4597804503
 20
-45.1683841227
 10
5.4577122871
 20
-45.1603680326
 10
5.4562040466
 20
-45.1517691598
 10
5.4552826659
 20
-45.1426168771
 10
5.4549707658
 20
-45.1329111846
  0
LINE
  5
2F4
100
AcDbEntity
  8
0
100
AcDbLine
 62
7
  6
CONTINUOUS
 10
5.4549707658
 20
-44.5756975891
 11
6.5349707658
 21
-44.5756975891
  0
LINE
  5
2F5
100
AcDbEntity
  8
0
100
AcDbLine
 62
7
  6
CONTINUOUS
 10
4.2299707658
 20
-44.3206975891
 11
2.6799707658
 21
-44.3206975891
  0
LINE
  5
2F6
100
AcDbEntity
  8
0
100
AcDbLine
 62
7
  6
CONTINUOUS
 10
1.6899707658
 20
-44.3206975891
 11
0.1399707658
 21
-44.3206975891
  0
LINE
  5
2F7
100
AcDbEntity
  8
0
100
AcDbLine
 62
7
  6
CONTINUOUS
 10
-0.8500292342
 20
-44.3206975891
 11
-2.4000292342
 21
-44.3206975891
  0
LINE
  5
2F8
100
AcDbEntity
  8
0
100
AcDbLine
 62
7
  6
CONTINUOUS
 10
-3.3900292342
 20
-44.3206975891
 11
-4.9400292342
 21
-44.3206975891
  0
LINE
  5
2F9
100
AcDbEntity
  8
0
100
AcDbLine
 62
7
  6
CONTINUOUS
 10
6.2949707263
 20
-44.2342847771
 11
5.5183996522
 21
-44.2342847771
  0
LINE
  5
2FA
100
AcDbEntity
  8
0
100
AcDbLine
 62
7
  6
CONTINUOUS
 10
-7.1250290724
 20
-44.23428479
 11
-6.3484581161
 21
-44.23428479
  0
LINE
  5
2FB
100
AcDbEntity
  8
0
100
AcDbLine
 62
7
  6
CONTINUOUS
 10
6.5349707658
 20
-43.8256975891
 11
6.2949707658
 21
-43.8256975891
  0
LINE
  5
2FC
100
AcDbEntity
  8
0
100
AcDbLine
 62
7
  6
CONTINUOUS
 10
-7.1250291944
 20
-43.8256975891
 11
-7.3619910161
 21
-43.8256975891
  0
LINE
  5
2FD
100
AcDbEntity
  8
0
100
AcDbLine
 62
7
  6
CONTINUOUS
 10
-7.3650292342
 20
-43.7456975891
 11
-7.1250292342
 21
-43.7456975891
  0
LINE
  5
2FE
100
AcDbEntity
  8
0
100
AcDbLine
 62
7
  6
CONTINUOUS
 10
6.2949707263
 20
-43.7456975891
 11
6.5277671167
 21
-43.7456975891
  0
LINE
  5
2FF
100
AcDbEntity
  8
0
100
AcDbLine
 62
7
  6
CONTINUOUS
 10
6.2949706081
 20
-43.337110389
 11
5.5183996479
 21
-43.337110389
  0
LINE
  5
300
100
AcDbEntity
  8
0
100
AcDbLine
 62
7
  6
CONTINUOUS
 10
-6.3484581207
 20
-43.3371104011
 11
-7.1250292342
 21
-43.3371104011
  0
LINE
  5
301
100
AcDbEntity
  8
0
100
AcDbLine
 62
7
  6
CONTINUOUS
 10
-4.9400292342
 20
-43.2506975891
 11
-3.3900292342
 21
-43.2506975891
  0
LINE
  5
302
100
AcDbEntity
  8
0
100
AcDbLine
 62
7
  6
CONTINUOUS
 10
-2.4000292342
 20
-43.2506975891
 11
-0.8500292342
 21
-43.2506975891
  0
LINE
  5
303
100
AcDbEntity
  8
0
100
AcDbLine
 62
7
  6
CONTINUOUS
 10
0.1399707658
 20
-43.2506975891
 11
1.6899707658
 21
-43.2506975891
  0
LINE
  5
304
100
AcDbEntity
  8
0
100
AcDbLine
 62
7
  6
CONTINUOUS
 10
2.6799707658
 20
-43.2506975891
 11
4.2299707658
 21
-43.2506975891
  0
LINE
  5
305
100
AcDbEntity
  8
0
100
AcDbLine
 62
7
  6
CONTINUOUS
 10
-6.2050292342
 20
-42.9956975891
 11
-7.3650292342
 21
-42.9956975891
  0
LINE
  5
306
100
AcDbEntity
  8
0
100
AcDbLine
 62
7
  6
CONTINUOUS
 10
-7.6850292342
 20
-42.9356975891
 11
-6.2050292342
 21
-42.9356975891
  0
LINE
  5
307
100
AcDbEntity
  8
0
100
AcDbLine
 62
7
  6
CONTINUOUS
 10
5.4549707658
 20
-42.9356975891
 11
6.9349707658
 21
-42.9356975891
  0
LINE
  5
308
100
AcDbEntity
  8
0
100
AcDbLine
 62
7
  6
CONTINUOUS
 10
-6.2050292342
 20
-44.5756975891
 11
-7.3550362765
 21
-44.5759970609
  0
LINE
  5
309
100
AcDbEntity
  8
0
100
AcDbLine
 62
7
  6
CONTINUOUS
 10
5.4549707658
 20
-42.9956975891
 11
6.5249770471
 21
-42.9953980381
  0
LWPOLYLINE
  5
30A
100
AcDbEntity
  8
0
100
AcDbPolyline
 62
7
  6
CONTINUOUS
 90
31
 70
0
 10
5.6549707658
 20
-42.3200121641
 10
5.6444296978
 20
-42.3201125207
 10
5.6339900374
 20
-42.3204045453
 10
5.6236517844
 20
-42.320890591
 10
5.6133901536
 20
-42.3215765117
 10
5.6032299302
 20
-42.3224658116
 10
5.5932454702
 20
-42.3235594011
 10
5.5834311487
 20
-42.3248677077
 10
5.5737925906
 20
-42.3263981214
 10
5.5644210256
 20
-42.3281481639
 10
5.5553295925
 20
-42.3301278898
 10
5.5465051526
 20
-42.3323512067
 10
5.5379995201
 20
-42.3348217516
 10
5.5298109644
 20
-42.3375544676
 10
5.521941216
 20
-42.3405635086
 10
5.5144472815
 20
-42.3438510236
 10
5.5073350612
 20
-42.3474296857
 10
5.5005986548
 20
-42.3513186715
 10
5.4942773672
 20
-42.355529449
 10
5.4883706866
 20
-42.3600768721
 10
5.4828791249
 20
-42.3649808841
 10
5.4778435236
 20
-42.3702610641
 10
5.4732617328
 20
-42.3759332706
 10
5.4691359023
 20
-42.3820194456
 10
5.4655133235
 20
-42.3885499046
 10
5.4623901287
 20
-42.3955417422
 10
5.4597701854
 20
-42.4030192397
 10
5.4577123881
 20
-42.4110266792
 10
5.456236368
 20
-42.4195950897
 10
5.4553224939
 20
-42.4287399263
 10
5.4549707658
 20
-42.4384839936
  0
LWPOLYLINE
  5
30B
100
AcDbEntity
  8
0
100
AcDbPolyline
 62
7
  6
CONTINUOUS
 90
31
 70
0
 10
-6.8054045124
 20
-42.3200121641
 10
-6.8159455986
 20
-42.320112521
 10
-6.8263852773
 20
-42.3204045467
 10
-6.8367235484
 20
-42.3208905941
 10
-6.8469852045
 20
-42.3215765186
 10
-6.8571454529
 20
-42.3224658232
 10
-6.8671299168
 20
-42.3235594143
 10
-6.8769442021
 20
-42.3248677165
 10
-6.8865827029
 20
-42.3263981224
 10
-6.8959542232
 20
-42.3281481579
 10
-6.9050456363
 20
-42.3301278784
 10
-6.913870069
 20
-42.3323511908
 10
-6.9223757063
 20
-42.3348217355
 10
-6.9305642848
 20
-42.3375544589
 10
-6.9384340679
 20
-42.3405635124
 10
-6.9459280303
 20
-42.3438510394
 10
-6.9530402625
 20
-42.347429709
 10
-6.9597766741
 20
-42.3513187014
 10
-6.966097969
 20
-42.3555294905
 10
-6.9720046673
 20
-42.3600769384
 10
-6.9774962489
 20
-42.3649809817
 10
-6.9825318578
 20
-42.3702611814
 10
-6.9871136337
 20
-42.3759333839
 10
-6.9912394369
 20
-42.3820195405
 10
-6.9948619921
 20
-42.3885499793
 10
-6.9979851724
 20
-42.3955417983
 10
-7.0006051047
 20
-42.4030192756
 10
-7.0026628943
 20
-42.4110266984
 10
-7.0041389097
 20
-42.419595098
 10
-7.0050527824
 20
-42.428739928
 10
-7.0054045124
 20
-42.4384839936
  0
LINE
  5
30C
100
AcDbEntity
  8
0
100
AcDbLine
 62
7
  6
CONTINUOUS
 10
-4.5900292342
 20
-42.9006975891
 11
-3.7400292342
 21
-42.9006975891
  0
LINE
  5
30D
100
AcDbEntity
  8
0
100
AcDbLine
 62
7
  6
CONTINUOUS
 10
-2.0500292342
 20
-42.9006975891
 11
-1.2000292342
 21
-42.9006975891
  0
LINE
  5
30E
100
AcDbEntity
  8
0
100
AcDbLine
 62
7
  6
CONTINUOUS
 10
0.4899707658
 20
-42.9006975891
 11
1.3399707658
 21
-42.9006975891
  0
LINE
  5
30F
100
AcDbEntity
  8
0
100
AcDbLine
 62
7
  6
CONTINUOUS
 10
3.0299707658
 20
-42.9006975891
 11
3.8799707658
 21
-42.9006975891
  0
LINE
  5
310
100
AcDbEntity
  8
0
100
AcDbLine
 62
253
  6
CONTINUOUS
 10
6.9349707658
 20
-42.8856975891
 11
6.2553460439
 21
-42.8856975891
  0
LINE
  5
311
100
AcDbEntity
  8
0
100
AcDbLine
 62
253
  6
CONTINUOUS
 10
-7.0054045124
 20
-42.8856975891
 11
-7.6850292342
 21
-42.8856975891
  0
LINE
  5
312
100
AcDbEntity
  8
0
100
AcDbLine
 62
7
  6
CONTINUOUS
 10
6.0553460439
 20
-42.3200121641
 11
5.6549707658
 21
-42.3200121641
  0
LINE
  5
313
100
AcDbEntity
  8
0
100
AcDbLine
 62
7
  6
CONTINUOUS
 10
-6.4050292342
 20
-42.3200121641
 11
-6.8054045124
 21
-42.3200121641
  0
LINE
  5
314
100
AcDbEntity
  8
0
100
AcDbLine
 62
7
  6
CONTINUOUS
 10
-7.6850292342
 20
-42.2856975891
 11
-6.2050292342
 21
-42.2856975891
  0
LINE
  5
315
100
AcDbEntity
  8
0
100
AcDbLine
 62
7
  6
CONTINUOUS
 10
5.4549707658
 20
-42.2856975891
 11
6.9349707658
 21
-42.2856975891
  0
LINE
  5
316
100
AcDbEntity
  8
0
100
AcDbLine
 62
7
  6
CONTINUOUS
 10
3.8799707658
 20
-42.1306975891
 11
3.0299707658
 21
-42.1306975891
  0
LINE
  5
317
100
AcDbEntity
  8
0
100
AcDbLine
 62
7
  6
CONTINUOUS
 10
1.3399707658
 20
-42.1306975891
 11
0.4899707658
 21
-42.1306975891
  0
LINE
  5
318
100
AcDbEntity
  8
0
100
AcDbLine
 62
7
  6
CONTINUOUS
 10
-1.2000292342
 20
-42.1306975891
 11
-2.0500292342
 21
-42.1306975891
  0
LINE
  5
319
100
AcDbEntity
  8
0
100
AcDbLine
 62
7
  6
CONTINUOUS
 10
-3.7400292342
 20
-42.1306975891
 11
-4.5900292342
 21
-42.1306975891
  0
LINE
  5
31A
100
AcDbEntity
  8
0
100
AcDbLine
 62
7
  6
CONTINUOUS
 10
4.2299707658
 20
-41.7806975891
 11
2.6799707658
 21
-41.7806975891
  0
LINE
  5
31B
100
AcDbEntity
  8
0
100
AcDbLine
 62
7
  6
CONTINUOUS
 10
1.6899707658
 20
-41.7806975891
 11
0.1399707658
 21
-41.7806975891
  0
LINE
  5
31C
100
AcDbEntity
  8
0
100
AcDbLine
 62
7
  6
CONTINUOUS
 10
-0.8500292342
 20
-41.7806975891
 11
-2.4000292342
 21
-41.7806975891
  0
LINE
  5
31D
100
AcDbEntity
  8
0
100
AcDbLine
 62
7
  6
CONTINUOUS
 10
-3.3900292342
 20
-41.7806975891
 11
-4.9400292342
 21
-41.7806975891
  0
LWPOLYLINE
  5
31E
100
AcDbEntity
  8
0
100
AcDbPolyline
 62
7
  6
CONTINUOUS
 90
31
 70
0
 10
-6.4050292342
 20
-42.3200121641
 10
-6.3945350564
 20
-42.3201060393
 10
-6.3840860474
 20
-42.3203988397
 10
-6.3737107039
 20
-42.3208905653
 10
-6.3634394913
 20
-42.3215764119
 10
-6.3532975313
 20
-42.3224611836
 10
-6.3433048291
 20
-42.3235592933
 10
-6.3334800558
 20
-42.3248694408
 10
-6.3238577507
 20
-42.3263929262
 10
-6.3144799948
 20
-42.3281480628
 10
-6.3053804469
 20
-42.3301309049
 10
-6.2965706458
 20
-42.3323453981
 10
-6.2880581803
 20
-42.3348216919
 10
-6.2798611201
 20
-42.3375590076
 10
-6.2720040805
 20
-42.340558124
 10
-6.2645046774
 20
-42.3438515273
 10
-6.2573867334
 20
-42.3474350273
 10
-6.2506628044
 20
-42.3513128141
 10
-6.2443351429
 20
-42.3555299445
 10
-6.2384231759
 20
-42.3600828474
 10
-6.2329438458
 20
-42.3649750938
 10
-6.227900769
 20
-42.370262454
 10
-6.2233144052
 20
-42.3759401252
 10
-6.2192023609
 20
-42.38201291
 10
-6.2155712504
 20
-42.3885509867
 10
-6.2124434201
 20
-42.3955483751
 10
-6.2098389188
 20
-42.4030110554
 10
-6.2077707556
 20
-42.4110271455
 10
-6.2062625151
 20
-42.4196260183
 10
-6.2053411344
 20
-42.428778301
 10
-6.2050292342
 20
-42.4384839936
  0
LWPOLYLINE
  5
31F
100
AcDbEntity
  8
0
100
AcDbPolyline
 62
7
  6
CONTINUOUS
 90
31
 70
0
 10
6.0553460439
 20
-42.3200121641
 10
6.0658402218
 20
-42.3201060393
 10
6.0762892308
 20
-42.3203988397
 10
6.0866645743
 20
-42.3208905653
 10
6.0969357869
 20
-42.3215764119
 10
6.1070777469
 20
-42.3224611836
 10
6.1170704491
 20
-42.3235592933
 10
6.1268952224
 20
-42.3248694408
 10
6.1365175275
 20
-42.3263929262
 10
6.1458952834
 20
-42.3281480628
 10
6.1549948313
 20
-42.3301309049
 10
6.1638046324
 20
-42.3323453981
 10
6.1723170979
 20
-42.3348216919
 10
6.1805141581
 20
-42.3375590076
 10
6.1883711977
 20
-42.340558124
 10
6.1958706008
 20
-42.3438515273
 10
6.2029885448
 20
-42.3474350273
 10
6.2097124738
 20
-42.3513128141
 10
6.2160401353
 20
-42.3555299445
 10
6.2219521023
 20
-42.3600828474
 10
6.2274314324
 20
-42.3649750938
 10
6.2324745092
 20
-42.370262454
 10
6.237060873
 20
-42.3759401252
 10
6.2411729173
 20
-42.38201291
 10
6.2448040278
 20
-42.3885509867
 10
6.247931858
 20
-42.3955483751
 10
6.2505363594
 20
-42.4030110554
 10
6.2526045226
 20
-42.4110271455
 10
6.2541127631
 20
-42.4196260183
 10
6.2550341438
 20
-42.428778301
 10
6.2553460439
 20
-42.4384839936
  0
LINE
  5
320
100
AcDbEntity
  8
0
100
AcDbLine
 62
7
  6
CONTINUOUS
 10
-4.5900292342
 20
-44.6706975891
 11
-4.9400292342
 21
-44.3206975891
  0
LINE
  5
321
100
AcDbEntity
  8
0
100
AcDbLine
 62
7
  6
CONTINUOUS
 10
-3.3900292342
 20
-45.7906975891
 11
-3.7400292342
 21
-45.4406975891
  0
LINE
  5
322
100
AcDbEntity
  8
0
100
AcDbLine
 62
7
  6
CONTINUOUS
 10
-6.2050292342
 20
-40.8856975891
 11
-6.2250292342
 21
-40.8856975891
  0
LINE
  5
323
100
AcDbEntity
  8
0
100
AcDbLine
 62
7
  6
CONTINUOUS
 10
5.4549707658
 20
-40.7356975891
 11
-6.2050292342
 21
-40.7356975891
  0
LINE
  5
324
100
AcDbEntity
  8
0
100
AcDbLine
 62
7
  6
CONTINUOUS
 10
-2.0500292342
 20
-44.6706975891
 11
-2.4000292342
 21
-44.3206975891
  0
LINE
  5
325
100
AcDbEntity
  8
0
100
AcDbLine
 62
7
  6
CONTINUOUS
 10
-4.5900292342
 20
-42.1306975891
 11
-4.9400292342
 21
-41.7806975891
  0
LINE
  5
326
100
AcDbEntity
  8
0
100
AcDbLine
 62
7
  6
CONTINUOUS
 10
-0.8500292342
 20
-45.7906975891
 11
-1.2000292342
 21
-45.4406975891
  0
LINE
  5
327
100
AcDbEntity
  8
0
100
AcDbLine
 62
7
  6
CONTINUOUS
 10
-3.3900292342
 20
-43.2506975891
 11
-3.7400292342
 21
-42.9006975891
  0
LINE
  5
328
100
AcDbEntity
  8
0
100
AcDbLine
 62
7
  6
CONTINUOUS
 10
4.5499707658
 20
-7.0384873701
 11
2.6631128733
 21
-7.8460752427
  0
LINE
  5
329
100
AcDbEntity
  8
0
100
AcDbLine
 62
7
  6
CONTINUOUS
 10
0.4899707658
 20
-44.6706975891
 11
0.1399707658
 21
-44.3206975891
  0
LINE
  5
32A
100
AcDbEntity
  8
0
100
AcDbLine
 62
7
  6
CONTINUOUS
 10
-2.0500292342
 20
-42.1306975891
 11
-2.4000292342
 21
-41.7806975891
  0
LINE
  5
32B
100
AcDbEntity
  8
0
100
AcDbLine
 62
7
  6
CONTINUOUS
 10
1.6899707658
 20
-45.7906975891
 11
1.3399707658
 21
-45.4406975891
  0
LINE
  5
32C
100
AcDbEntity
  8
0
100
AcDbLine
 62
7
  6
CONTINUOUS
 10
-0.8500292342
 20
-43.2506975891
 11
-1.2000292342
 21
-42.9006975891
  0
LINE
  5
32D
100
AcDbEntity
  8
0
100
AcDbLine
 62
7
  6
CONTINUOUS
 10
-2.1850292342
 20
-46.8356975891
 11
-2.5350292342
 21
-46.3356975891
  0
LINE
  5
32E
100
AcDbEntity
  8
0
100
AcDbLine
 62
7
  6
CONTINUOUS
 10
3.0299707658
 20
-44.6706975891
 11
2.6799707658
 21
-44.3206975891
  0
LINE
  5
32F
100
AcDbEntity
  8
0
100
AcDbLine
 62
7
  6
CONTINUOUS
 10
0.4899707658
 20
-42.1306975891
 11
0.1399707658
 21
-41.7806975891
  0
LINE
  5
330
100
AcDbEntity
  8
0
100
AcDbLine
 62
7
  6
CONTINUOUS
 10
4.2299707658
 20
-45.7906975891
 11
3.8799707658
 21
-45.4406975891
  0
LINE
  5
331
100
AcDbEntity
  8
0
100
AcDbLine
 62
7
  6
CONTINUOUS
 10
1.6899707658
 20
-43.2506975891
 11
1.3399707658
 21
-42.9006975891
  0
LINE
  5
332
100
AcDbEntity
  8
0
100
AcDbLine
 62
7
  6
CONTINUOUS
 10
0.3949707658
 20
-46.8356975891
 11
0.0449707658
 21
-46.3356975891
  0
LINE
  5
333
100
AcDbEntity
  8
0
100
AcDbLine
 62
7
  6
CONTINUOUS
 10
-6.3484581161
 20
-44.23428479
 11
-6.2250292342
 21
-44.5756975891
  0
LINE
  5
334
100
AcDbEntity
  8
RACCORDO
100
AcDbLine
 62
7
  6
CONTINUOUS
 10
-10.3361493853
 20
-21.6944237923
 11
-10.3065671648
 21
-23.3891880703
  0
LINE
  5
335
100
AcDbEntity
  8
RACCORDO
100
AcDbLine
 62
7
  6
CONTINUOUS
 10
-10.3361493787
 20
-21.6769710047
 11
-10.3361493853
 21
-21.6944237925
  0
LINE
  5
336
100
AcDbEntity
  8
0
100
AcDbLine
 62
7
  6
CONTINUOUS
 10
3.0299707658
 20
-42.1306975891
 11
2.6799707658
 21
-41.7806975891
  0
LINE
  5
337
100
AcDbEntity
  8
0
100
AcDbLine
 62
7
  6
CONTINUOUS
 10
4.2299707658
 20
-43.2506975891
 11
3.8799707658
 21
-42.9006975891
  0
LWPOLYLINE
  5
338
100
AcDbEntity
  8
0
100
AcDbPolyline
 62
7
  6
CONTINUOUS
 90
3
 70
0
 10
-7.3550362765
 20
-44.5759970609
 10
-7.3605248344
 20
-44.5430167035
 10
-7.3617262921
 20
-44.5199803939
  0
LINE
  5
339
100
AcDbEntity
  8
RACCORDO
100
AcDbLine
 62
253
  6
CONTINUOUS
 10
-9.8362255378
 20
-21.6944237923
 11
-9.8066433173
 21
-23.3891880703
  0
LINE
  5
33A
100
AcDbEntity
  8
RACCORDO
100
AcDbLine
 62
7
  6
CONTINUOUS
 10
-9.3415991478
 20
-23.7822071078
 11
-9.3012392555
 21
-26.0944237923
  0
LINE
  5
33B
100
AcDbEntity
  8
RACCORDO
100
AcDbLine
 62
253
  6
CONTINUOUS
 10
-8.8416753003
 20
-23.7822071078
 11
-8.8013154079
 21
-26.0944237923
  0
LINE
  5
33C
100
AcDbEntity
  8
RACCORDO
100
AcDbLine
 62
253
  6
CONTINUOUS
 10
-9.8362255378
 20
-21.1856975891
 11
-9.8362255378
 21
-21.6944237923
  0
LINE
  5
33D
100
AcDbEntity
  8
RACCORDO
100
AcDbLine
 62
253
  6
CONTINUOUS
 10
-9.8066433173
 20
-23.5856975891
 11
-9.8066432873
 21
-23.3891880707
  0
LINE
  5
33E
100
AcDbEntity
  8
RACCORDO
100
AcDbLine
 62
253
  6
CONTINUOUS
 10
-8.8416753003
 20
-23.5856975891
 11
-8.8416753003
 21
-23.7822071078
  0
LINE
  5
33F
100
AcDbEntity
  8
RACCORDO
100
AcDbLine
 62
253
  6
CONTINUOUS
 10
-8.8013154079
 20
-26.5856975891
 11
-8.8013153827
 21
-26.0944237924
  0
LINE
  5
340
100
AcDbEntity
  8
0
100
AcDbLine
 62
7
  6
CONTINUOUS
 10
-7.6850292342
 20
-42.2856975891
 11
-7.6850292342
 21
-45.2856975891
  0
LINE
  5
341
100
AcDbEntity
  8
0
100
AcDbLine
 62
7
  6
CONTINUOUS
 10
-7.3650292342
 20
-42.9956975891
 11
-7.3650292342
 21
-43.7456975891
  0
LINE
  5
342
100
AcDbEntity
  8
0
100
AcDbLine
 62
7
  6
CONTINUOUS
 10
-7.3619536184
 20
-43.8256975891
 11
-7.3619536184
 21
-44.5199805089
  0
LINE
  5
343
100
AcDbEntity
  8
0
100
AcDbLine
 62
7
  6
CONTINUOUS
 10
-7.2350292342
 20
-42.9356975891
 11
-7.2350292342
 21
-42.9956975891
  0
LINE
  5
344
100
AcDbEntity
  8
0
100
AcDbLine
 62
7
  6
CONTINUOUS
 10
-7.2350292342
 20
-43.7456975891
 11
-7.2350292342
 21
-43.8256975891
  0
LINE
  5
345
100
AcDbEntity
  8
0
100
AcDbLine
 62
7
  6
CONTINUOUS
 10
-7.2350292342
 20
-44.5760020944
 11
-7.2350292342
 21
-44.6156975891
  0
LINE
  5
346
100
AcDbEntity
  8
0
100
AcDbLine
 62
7
  6
CONTINUOUS
 10
-7.1250292342
 20
-42.9356975891
 11
-7.1250291235
 21
-44.2342847771
  0
LINE
  5
347
100
AcDbEntity
  8
0
100
AcDbLine
 62
7
  6
CONTINUOUS
 10
-7.1250292342
 20
-44.5757389839
 11
-7.1250292342
 21
-44.6156975891
  0
LINE
  5
348
100
AcDbEntity
  8
0
100
AcDbLine
 62
7
  6
CONTINUOUS
 10
-7.0054045124
 20
-42.4384839936
 11
-7.0054045124
 21
-42.9356975891
  0
LINE
  5
349
100
AcDbEntity
  8
0
100
AcDbLine
 62
7
  6
CONTINUOUS
 10
-7.0054045124
 20
-44.6156975891
 11
-7.0054045124
 21
-45.1329111846
  0
LINE
  5
34A
100
AcDbEntity
  8
0
100
AcDbLine
 62
253
  6
CONTINUOUS
 10
-6.8054045124
 20
-42.3200121641
 11
-6.8054045124
 21
-42.9356975891
  0
LINE
  5
34B
100
AcDbEntity
  8
0
100
AcDbLine
 62
253
  6
CONTINUOUS
 10
-6.8054045124
 20
-44.6156975891
 11
-6.8054045124
 21
-45.251383014
  0
LWPOLYLINE
  5
34C
100
AcDbEntity
  8
0
100
AcDbPolyline
 62
7
  6
CONTINUOUS
 90
12
 70
0
 10
-7.3617262921
 20
-44.5199803939
 10
-7.3615720651
 20
-44.5110259649
 10
-7.3581779688
 20
-44.480024845
 10
-7.3503585944
 20
-44.4501524025
 10
-7.3380978929
 20
-44.4212695788
 10
-7.3213477169
 20
-44.3929591979
 10
-7.3001454369
 20
-44.3650821668
 10
-7.2744536825
 20
-44.3377775786
 10
-7.2441121946
 20
-44.3110455364
 10
-7.2090675539
 20
-44.2848860748
 10
-7.1693731798
 20
-44.2592991594
 10
-7.1250290724
 20
-44.23428479
  0
LINE
  5
34D
100
AcDbEntity
  8
0
100
AcDbLine
 62
253
  6
CONTINUOUS
 10
-6.4050292342
 20
-45.251383014
 11
-6.4050292342
 21
-44.6156975891
  0
LINE
  5
34E
100
AcDbEntity
  8
0
100
AcDbLine
 62
253
  6
CONTINUOUS
 10
-6.4050292342
 20
-42.9356975891
 11
-6.4050292342
 21
-42.3200121641
  0
LINE
  5
34F
100
AcDbEntity
  8
0
100
AcDbLine
 62
7
  6
CONTINUOUS
 10
-6.3484581207
 20
-44.2342847771
 11
-6.3484581207
 21
-43.3371104011
  0
LINE
  5
350
100
AcDbEntity
  8
0
100
AcDbLine
 62
7
  6
CONTINUOUS
 10
-6.2250292342
 20
-46.6856975891
 11
-6.2250292342
 21
-45.2856975891
  0
LINE
  5
351
100
AcDbEntity
  8
0
100
AcDbLine
 62
7
  6
CONTINUOUS
 10
-6.2250292342
 20
-42.2856975891
 11
-6.2250292342
 21
-40.8856975891
  0
LINE
  5
352
100
AcDbEntity
  8
0
100
AcDbLine
 62
7
  6
CONTINUOUS
 10
-6.2250292342
 20
-42.9356975891
 11
-6.2250292342
 21
-44.6156975891
  0
LINE
  5
353
100
AcDbEntity
  8
0
100
AcDbLine
 62
7
  6
CONTINUOUS
 10
-6.2050292342
 20
-40.7356975891
 11
-6.2050292342
 21
-46.8356975891
  0
LINE
  5
354
100
AcDbEntity
  8
ASSI
100
AcDbLine
 62
7
  6
CONTINUOUS
 10
-5.2400292343
 20
-2.3904966564
 11
-5.2400292343
 21
-21.1856975891
  0
LINE
  5
355
100
AcDbEntity
  8
ASSI
100
AcDbLine
 62
7
  6
CONTINUOUS
 10
-5.2400292343
 20
-26.5856975891
 11
-5.2400292343
 21
-40.7356975891
  0
LINE
  5
356
100
AcDbEntity
  8
0
100
AcDbLine
 62
7
  6
CONTINUOUS
 10
-4.9400292342
 20
-41.7806975891
 11
-4.9400292342
 21
-43.2506975891
  0
LINE
  5
357
100
AcDbEntity
  8
0
100
AcDbLine
 62
7
  6
CONTINUOUS
 10
-4.9400292342
 20
-44.3206975891
 11
-4.9400292342
 21
-45.7906975891
  0
LINE
  5
358
100
AcDbEntity
  8
0
100
AcDbLine
 62
7
  6
CONTINUOUS
 10
-4.5900292342
 20
-42.1306975891
 11
-4.5900292342
 21
-42.9006975891
  0
LINE
  5
359
100
AcDbEntity
  8
0
100
AcDbLine
 62
7
  6
CONTINUOUS
 10
-4.5900292342
 20
-44.6706975891
 11
-4.5900292342
 21
-45.4406975891
  0
LINE
  5
35A
100
AcDbEntity
  8
ASSI
100
AcDbLine
 62
253
  6
CONTINUOUS
 10
-4.5000584685
 20
-1.9680179188
 11
-4.5000584685
 21
-21.1856975891
  0
LINE
  5
35B
100
AcDbEntity
  8
ASSI
100
AcDbLine
 62
253
  6
CONTINUOUS
 10
-4.5000584685
 20
-26.5856975891
 11
-4.5000584685
 21
-40.7356975891
  0
LINE
  5
35C
100
AcDbEntity
  8
ASSI
100
AcDbLine
 62
253
  6
CONTINUOUS
 10
-4.2423066767
 20
-1.8208571705
 11
-4.2423066767
 21
-21.1856975891
  0
LINE
  5
35D
100
AcDbEntity
  8
ASSI
100
AcDbLine
 62
253
  6
CONTINUOUS
 10
-4.2423066767
 20
-26.5856975891
 11
-4.2423066767
 21
-40.7356975891
  0
LINE
  5
35E
100
AcDbEntity
  8
ASSI
100
AcDbLine
 62
253
  6
CONTINUOUS
 10
-4.0677517918
 20
-1.878976462
 11
-4.0677517918
 21
-21.1856975891
  0
LINE
  5
35F
100
AcDbEntity
  8
ASSI
100
AcDbLine
 62
253
  6
CONTINUOUS
 10
-4.0677517918
 20
-26.5856975891
 11
-4.0677517918
 21
-40.7356975891
  0
LINE
  5
360
100
AcDbEntity
  8
ASSI
100
AcDbLine
 62
253
  6
CONTINUOUS
 10
-3.81
 20
-2.0114223393
 11
-3.81
 21
-21.1856975891
  0
LINE
  5
361
100
AcDbEntity
  8
ASSI
100
AcDbLine
 62
253
  6
CONTINUOUS
 10
-3.81
 20
-26.5856975891
 11
-3.81
 21
-40.7356975891
  0
LINE
  5
362
100
AcDbEntity
  8
0
100
AcDbLine
 62
7
  6
CONTINUOUS
 10
-3.7400292342
 20
-45.4406975891
 11
-3.7400292342
 21
-44.6706975891
  0
LINE
  5
363
100
AcDbEntity
  8
0
100
AcDbLine
 62
7
  6
CONTINUOUS
 10
-3.7400292342
 20
-42.9006975891
 11
-3.7400292342
 21
-42.1306975891
  0
LWPOLYLINE
  5
364
100
AcDbEntity
  8
RACCORDO
100
AcDbPolyline
 62
253
  6
CONTINUOUS
 90
7
 70
0
 10
8.611180787
 20
-26.0944237923
 10
8.6068856552
 20
-26.0954875988
 10
8.5941134643
 20
-26.0963839606
 10
8.5730826638
 20
-26.0970975464
 10
8.5441529555
 20
-26.0976161514
 10
8.507819142
 20
-26.0979309054
 10
8.464702666
 20
-26.098036425
  0
LINE
  5
365
100
AcDbEntity
  8
0
100
AcDbLine
 62
7
  6
CONTINUOUS
 10
-3.3900292342
 20
-45.7906975891
 11
-3.3900292342
 21
-44.3206975891
  0
LINE
  5
366
100
AcDbEntity
  8
0
100
AcDbLine
 62
7
  6
CONTINUOUS
 10
-3.3900292342
 20
-43.2506975891
 11
-3.3900292342
 21
-41.7806975891
  0
LINE
  5
367
100
AcDbEntity
  8
ASSI
100
AcDbLine
 62
253
  6
CONTINUOUS
 10
-3.2300584685
 20
-2.3094255631
 11
-3.2300584685
 21
-21.1856975891
  0
LINE
  5
368
100
AcDbEntity
  8
ASSI
100
AcDbLine
 62
253
  6
CONTINUOUS
 10
-3.2300584685
 20
-26.5856975891
 11
-3.2300584685
 21
-40.7356975891
  0
LINE
  5
369
100
AcDbEntity
  8
ASSI
100
AcDbLine
 62
253
  6
CONTINUOUS
 10
-2.9723066767
 20
-2.4418714404
 11
-2.9723066767
 21
-21.1856975891
  0
LINE
  5
36A
100
AcDbEntity
  8
ASSI
100
AcDbLine
 62
253
  6
CONTINUOUS
 10
-2.9723066767
 20
-26.5856975891
 11
-2.9723066767
 21
-40.7356975891
  0
LINE
  5
36B
100
AcDbEntity
  8
ASSI
100
AcDbLine
 62
253
  6
CONTINUOUS
 10
-2.7977517918
 20
-2.5315665486
 11
-2.7977517918
 21
-21.1856975891
  0
LINE
  5
36C
100
AcDbEntity
  8
ASSI
100
AcDbLine
 62
253
  6
CONTINUOUS
 10
-2.7977517918
 20
-26.5856975891
 11
-2.7977517918
 21
-40.7356975891
  0
LINE
  5
36D
100
AcDbEntity
  8
ASSI
100
AcDbLine
 62
253
  6
CONTINUOUS
 10
-2.54
 20
-2.6751893449
 11
-2.54
 21
-21.1856975891
  0
LINE
  5
36E
100
AcDbEntity
  8
ASSI
100
AcDbLine
 62
253
  6
CONTINUOUS
 10
-2.54
 20
-26.5856975891
 11
-2.54
 21
-40.7356975891
  0
LINE
  5
36F
100
AcDbEntity
  8
0
100
AcDbLine
 62
7
  6
CONTINUOUS
 10
-2.4000292342
 20
-41.7806975891
 11
-2.4000292342
 21
-43.2506975891
  0
LINE
  5
370
100
AcDbEntity
  8
0
100
AcDbLine
 62
7
  6
CONTINUOUS
 10
-2.4000292342
 20
-44.3206975891
 11
-2.4000292342
 21
-45.7906975891
  0
LINE
  5
371
100
AcDbEntity
  8
0
100
AcDbLine
 62
7
  6
CONTINUOUS
 10
-2.2250292342
 20
-47.7356975891
 11
-2.2250292342
 21
-46.8356975891
  0
LINE
  5
372
100
AcDbEntity
  8
0
100
AcDbLine
 62
7
  6
CONTINUOUS
 10
-2.0500292342
 20
-42.1306975891
 11
-2.0500292342
 21
-42.9006975891
  0
LINE
  5
373
100
AcDbEntity
  8
0
100
AcDbLine
 62
7
  6
CONTINUOUS
 10
-2.0500292342
 20
-44.6706975891
 11
-2.0500292342
 21
-45.4406975891
  0
LINE
  5
374
100
AcDbEntity
  8
ASSI
100
AcDbLine
 62
253
  6
CONTINUOUS
 10
-1.9600584685
 20
-3.3741936365
 11
-1.9600584685
 21
-21.1856975891
  0
LINE
  5
375
100
AcDbEntity
  8
ASSI
100
AcDbLine
 62
253
  6
CONTINUOUS
 10
-1.9600584685
 20
-26.5856975891
 11
-1.9600584685
 21
-40.7356975891
  0
LINE
  5
376
100
AcDbEntity
  8
RACCORDO
100
AcDbLine
 62
7
  6
CONTINUOUS
 10
8.1112569394
 20
-26.5856975891
 11
-8.8013154079
 21
-26.5856975891
  0
LINE
  5
377
100
AcDbEntity
  8
ASSI
100
AcDbLine
 62
253
  6
CONTINUOUS
 10
-1.7023066767
 20
-3.6848622106
 11
-1.7023066767
 21
-21.1856975891
  0
LINE
  5
378
100
AcDbEntity
  8
ASSI
100
AcDbLine
 62
253
  6
CONTINUOUS
 10
-1.7023066767
 20
-26.5856975891
 11
-1.7023066767
 21
-40.7356975891
  0
LINE
  5
379
100
AcDbEntity
  8
ASSI
100
AcDbLine
 62
253
  6
CONTINUOUS
 10
-1.5277517918
 20
-3.8952534433
 11
-1.5277517918
 21
-21.1856975891
  0
LINE
  5
37A
100
AcDbEntity
  8
ASSI
100
AcDbLine
 62
253
  6
CONTINUOUS
 10
-1.5277517918
 20
-26.5856975891
 11
-1.5277517918
 21
-40.7356975891
  0
LINE
  5
37B
100
AcDbEntity
  8
ASSI
100
AcDbLine
 62
253
  6
CONTINUOUS
 10
-1.27
 20
-4.2229888518
 11
-1.27
 21
-21.1856975891
  0
LINE
  5
37C
100
AcDbEntity
  8
ASSI
100
AcDbLine
 62
253
  6
CONTINUOUS
 10
-1.27
 20
-26.5856975891
 11
-1.27
 21
-40.7356975891
  0
LINE
  5
37D
100
AcDbEntity
  8
0
100
AcDbLine
 62
7
  6
CONTINUOUS
 10
-1.2250292342
 20
-46.8356975891
 11
-1.2250292342
 21
-47.7356975891
  0
LINE
  5
37E
100
AcDbEntity
  8
0
100
AcDbLine
 62
7
  6
CONTINUOUS
 10
-1.2000292342
 20
-45.4406975891
 11
-1.2000292342
 21
-44.6706975891
  0
LINE
  5
37F
100
AcDbEntity
  8
0
100
AcDbLine
 62
7
  6
CONTINUOUS
 10
-1.2000292342
 20
-42.9006975891
 11
-1.2000292342
 21
-42.1306975891
  0
LINE
  5
380
100
AcDbEntity
  8
0
100
AcDbLine
 62
7
  6
CONTINUOUS
 10
-0.8500292342
 20
-45.7906975891
 11
-0.8500292342
 21
-44.3206975891
  0
LINE
  5
381
100
AcDbEntity
  8
0
100
AcDbLine
 62
7
  6
CONTINUOUS
 10
-0.8500292342
 20
-43.2506975891
 11
-0.8500292342
 21
-41.7806975891
  0
LINE
  5
382
100
AcDbEntity
  8
ASSI
100
AcDbLine
 62
253
  6
CONTINUOUS
 10
-0.6900584685
 20
-5.0238910739
 11
-0.6900584685
 21
-21.1856975891
  0
LINE
  5
383
100
AcDbEntity
  8
ASSI
100
AcDbLine
 62
253
  6
CONTINUOUS
 10
-0.6900584685
 20
-26.5856975891
 11
-0.6900584685
 21
-40.7356975891
  0
LINE
  5
384
100
AcDbEntity
  8
ASSI
100
AcDbLine
 62
253
  6
CONTINUOUS
 10
-0.4323066767
 20
-5.3798476171
 11
-0.4323066767
 21
-21.1856975891
  0
LINE
  5
385
100
AcDbEntity
  8
ASSI
100
AcDbLine
 62
253
  6
CONTINUOUS
 10
-0.4323066767
 20
-26.5856975891
 11
-0.4323066767
 21
-40.7356975891
  0
LINE
  5
386
100
AcDbEntity
  8
ASSI
100
AcDbLine
 62
253
  6
CONTINUOUS
 10
-0.2577517918
 20
-5.6209088063
 11
-0.2577517918
 21
-21.1856975891
  0
LINE
  5
387
100
AcDbEntity
  8
ASSI
100
AcDbLine
 62
253
  6
CONTINUOUS
 10
-0.2577517918
 20
-26.5856975891
 11
-0.2577517918
 21
-40.7356975891
  0
LWPOLYLINE
  5
388
100
AcDbEntity
  8
RACCORDO
100
AcDbPolyline
 62
253
  6
CONTINUOUS
 90
5
 70
0
 10
9.6165086963
 20
-23.3891880703
 10
9.6137618275
 20
-23.389526822
 10
9.6055657504
 20
-23.3898320964
 10
9.5920134431
 20
-23.3900956385
 10
9.5732594247
 20
-23.3903077918
  0
LINE
  5
389
100
AcDbEntity
  8
RACCORDO
100
AcDbLine
 62
253
  6
CONTINUOUS
 10
-8.8013154079
 20
-26.0944237923
 11
-8.9306806964
 21
-26.0963839606
  0
LINE
  5
38A
100
AcDbEntity
  8
RACCORDO
100
AcDbLine
 62
253
  6
CONTINUOUS
 10
-8.9306806964
 20
-26.0963839606
 11
-9.0512333687
 21
-26.0976161514
  0
LWPOLYLINE
  5
38B
100
AcDbEntity
  8
RACCORDO
100
AcDbPolyline
 62
253
  6
CONTINUOUS
 90
8
 70
0
 10
-9.0512333687
 20
-26.0976161514
 10
-9.1547611201
 20
-26.098036425
 10
-9.1978775971
 20
-26.0979309055
 10
-9.2342114118
 20
-26.0976161515
 10
-9.2631411233
 20
-26.0970975466
 10
-9.2841719279
 20
-26.0963839608
 10
-9.2969441223
 20
-26.095487599
 10
-9.3012392555
 20
-26.0944237923
  0
LINE
  5
38C
100
AcDbEntity
  8
RACCORDO
100
AcDbLine
 62
253
  6
CONTINUOUS
 10
8.1112569394
 20
-26.0944237923
 11
-8.8013154079
 21
-26.0944237923
  0
LINE
  5
38D
100
AcDbEntity
  8
RACCORDO
100
AcDbLine
 62
253
  6
CONTINUOUS
 10
8.464702666
 20
-26.098036425
 11
8.3611749213
 21
-26.0976161515
  0
LINE
  5
38E
100
AcDbEntity
  8
RACCORDO
100
AcDbLine
 62
253
  6
CONTINUOUS
 10
8.3611749213
 20
-26.0976161515
 11
8.240622246
 21
-26.0963839608
  0
LINE
  5
38F
100
AcDbEntity
  8
RACCORDO
100
AcDbLine
 62
253
  6
CONTINUOUS
 10
8.240622246
 20
-26.0963839608
 11
8.1112569394
 21
-26.0944237923
  0
LINE
  5
390
100
AcDbEntity
  8
0
100
AcDbLine
 62
7
  6
CONTINUOUS
 10
5.5183996479
 20
-43.337110389
 11
5.4549707658
 21
-43.1616617268
  0
LINE
  5
391
100
AcDbEntity
  8
ASSI
100
AcDbLine
 62
253
  6
CONTINUOUS
 10
0.0
 20
-5.9274642164
 11
0.0
 21
-21.1856975891
  0
LINE
  5
392
100
AcDbEntity
  8
ASSI
100
AcDbLine
 62
253
  6
CONTINUOUS
 10
0.0
 20
-26.5856975891
 11
0.0
 21
-40.7356975891
  0
LINE
  5
393
100
AcDbEntity
  8
0
100
AcDbLine
 62
7
  6
CONTINUOUS
 10
0.1399707658
 20
-41.7806975891
 11
0.1399707658
 21
-43.2506975891
  0
LINE
  5
394
100
AcDbEntity
  8
0
100
AcDbLine
 62
7
  6
CONTINUOUS
 10
0.1399707658
 20
-44.3206975891
 11
0.1399707658
 21
-45.7906975891
  0
LINE
  5
395
100
AcDbEntity
  8
0
100
AcDbLine
 62
7
  6
CONTINUOUS
 10
0.4749707658
 20
-47.7356975891
 11
0.4749707658
 21
-46.8356975891
  0
LINE
  5
396
100
AcDbEntity
  8
0
100
AcDbLine
 62
7
  6
CONTINUOUS
 10
0.4899707658
 20
-42.1306975891
 11
0.4899707658
 21
-42.9006975891
  0
LINE
  5
397
100
AcDbEntity
  8
0
100
AcDbLine
 62
7
  6
CONTINUOUS
 10
0.4899707658
 20
-44.6706975891
 11
0.4899707658
 21
-45.4406975891
  0
LINE
  5
398
100
AcDbEntity
  8
ASSI
100
AcDbLine
 62
253
  6
CONTINUOUS
 10
0.5799415315
 20
-6.575072887
 11
0.5799415315
 21
-21.1856975891
  0
LINE
  5
399
100
AcDbEntity
  8
ASSI
100
AcDbLine
 62
253
  6
CONTINUOUS
 10
0.5799415315
 20
-26.5856975891
 11
0.5799415315
 21
-40.7356975891
  0
LINE
  5
39A
100
AcDbEntity
  8
ASSI
100
AcDbLine
 62
253
  6
CONTINUOUS
 10
0.8376933233
 20
-6.8628989628
 11
0.8376933233
 21
-21.1856975891
  0
LINE
  5
39B
100
AcDbEntity
  8
ASSI
100
AcDbLine
 62
253
  6
CONTINUOUS
 10
0.8376933233
 20
-26.5856975891
 11
0.8376933233
 21
-40.7356975891
  0
LINE
  5
39C
100
AcDbEntity
  8
ASSI
100
AcDbLine
 62
253
  6
CONTINUOUS
 10
1.0122482082
 20
-7.0578207797
 11
1.0122482082
 21
-21.1856975891
  0
LINE
  5
39D
100
AcDbEntity
  8
ASSI
100
AcDbLine
 62
253
  6
CONTINUOUS
 10
1.0122482082
 20
-26.5856975891
 11
1.0122482082
 21
-40.7356975891
  0
LINE
  5
39E
100
AcDbEntity
  8
ASSI
100
AcDbLine
 62
253
  6
CONTINUOUS
 10
1.27
 20
-7.2064600155
 11
1.27
 21
-21.1856975891
  0
LINE
  5
39F
100
AcDbEntity
  8
ASSI
100
AcDbLine
 62
253
  6
CONTINUOUS
 10
1.27
 20
-26.5856975891
 11
1.27
 21
-40.7356975891
  0
LINE
  5
3A0
100
AcDbEntity
  8
0
100
AcDbLine
 62
7
  6
CONTINUOUS
 10
1.3399707658
 20
-45.4406975891
 11
1.3399707658
 21
-44.6706975891
  0
LINE
  5
3A1
100
AcDbEntity
  8
0
100
AcDbLine
 62
7
  6
CONTINUOUS
 10
1.3399707658
 20
-42.9006975891
 11
1.3399707658
 21
-42.1306975891
  0
LINE
  5
3A2
100
AcDbEntity
  8
0
100
AcDbLine
 62
7
  6
CONTINUOUS
 10
1.4749707658
 20
-46.8356975891
 11
1.4749707658
 21
-47.7356975891
  0
LINE
  5
3A3
100
AcDbEntity
  8
0
100
AcDbLine
 62
7
  6
CONTINUOUS
 10
-6.2250292343
 20
-42.9956975891
 11
-6.3484581207
 21
-43.3371104011
  0
LWPOLYLINE
  5
3A4
100
AcDbEntity
  8
RACCORDO
100
AcDbPolyline
 62
253
  6
CONTINUOUS
 90
4
 70
0
 10
-9.3172109304
 20
-23.7813007416
 10
-9.3307227957
 20
-23.781545901
 10
-9.3388780361
 20
-23.7818451829
 10
-9.3415991478
 20
-23.7822071078
  0
LINE
  5
3A5
100
AcDbEntity
  8
RACCORDO
100
AcDbLine
 62
253
  6
CONTINUOUS
 10
-9.2747013944
 20
-23.7809324129
 11
-9.3172109304
 21
-23.7813007416
  0
LINE
  5
3A6
100
AcDbEntity
  8
RACCORDO
100
AcDbLine
 62
253
  6
CONTINUOUS
 10
9.5732594247
 20
-23.3903077918
 11
9.5210162017
 21
-23.3905725222
  0
LINE
  5
3A7
100
AcDbEntity
  8
RACCORDO
100
AcDbLine
 62
253
  6
CONTINUOUS
 10
8.4015224891
 20
-23.7809324129
 11
8.1516168318
 21
-23.7822071078
  0
LINE
  5
3A8
100
AcDbEntity
  8
RACCORDO
100
AcDbLine
 62
253
  6
CONTINUOUS
 10
-9.8066433173
 20
-23.3891880703
 11
-10.1004755298
 21
-23.3905725222
  0
LINE
  5
3A9
100
AcDbEntity
  8
RACCORDO
100
AcDbLine
 62
253
  6
CONTINUOUS
 10
8.1516168318
 20
-23.7822071078
 11
-8.8416753003
 21
-23.7822071078
  0
LINE
  5
3AA
100
AcDbEntity
  8
RACCORDO
100
AcDbLine
 62
253
  6
CONTINUOUS
 10
-9.1762902781
 20
-23.7807725996
 11
-9.2747013944
 21
-23.7809324129
  0
LINE
  5
3AB
100
AcDbEntity
  8
RACCORDO
100
AcDbLine
 62
7
  6
CONTINUOUS
 10
9.4165391573
 20
-23.5856975891
 11
-10.1065976258
 21
-23.5856975891
  0
LINE
  5
3AC
100
AcDbEntity
  8
RACCORDO
100
AcDbLine
 62
253
  6
CONTINUOUS
 10
9.1165848488
 20
-23.3891880703
 11
-9.8066433173
 21
-23.3891880703
  0
LINE
  5
3AD
100
AcDbEntity
  8
RACCORDO
100
AcDbLine
 62
253
  6
CONTINUOUS
 10
8.556033643
 20
-23.7808232601
 11
8.4015224891
 21
-23.7809324129
  0
LINE
  5
3AE
100
AcDbEntity
  8
RACCORDO
100
AcDbLine
 62
253
  6
CONTINUOUS
 10
-10.1004755298
 20
-23.3905725222
 11
-10.2111055138
 21
-23.3905732062
  0
LINE
  5
3AF
100
AcDbEntity
  8
RACCORDO
100
AcDbLine
 62
253
  6
CONTINUOUS
 10
9.5210162017
 20
-23.3905725222
 11
9.3664896804
 21
-23.3904661763
  0
LINE
  5
3B0
100
AcDbEntity
  8
RACCORDO
100
AcDbLine
 62
253
  6
CONTINUOUS
 10
-8.9456730755
 20
-23.781545339
 11
-9.1762902781
 21
-23.7807725996
  0
LINE
  5
3B1
100
AcDbEntity
  8
RACCORDO
100
AcDbLine
 62
253
  6
CONTINUOUS
 10
9.3664896804
 20
-23.3904661763
 11
9.1165848488
 21
-23.3891880703
  0
LWPOLYLINE
  5
3B2
100
AcDbEntity
  8
RACCORDO
100
AcDbPolyline
 62
253
  6
CONTINUOUS
 90
6
 70
0
 10
-10.2111055138
 20
-23.3905732062
 10
-10.2633475225
 20
-23.3903080531
 10
-10.2820946814
 20
-23.3900955553
 10
-10.2956366276
 20
-23.3898318558
 10
-10.3038239693
 20
-23.3895265908
 10
-10.3065671648
 20
-23.3891880703
  0
LINE
  5
3B3
100
AcDbEntity
  8
RACCORDO
100
AcDbLine
 62
253
  6
CONTINUOUS
 10
-8.8416753003
 20
-23.7822071078
 11
-8.9456730755
 21
-23.781545339
  0
LWPOLYLINE
  5
3B4
100
AcDbEntity
  8
RACCORDO
100
AcDbPolyline
 62
253
  6
CONTINUOUS
 90
5
 70
0
 10
-10.3361493853
 20
-21.6944237923
 10
-10.3318542522
 20
-21.695487599
 10
-10.3190820578
 20
-21.6963839608
 10
-10.2980512531
 20
-21.6970975466
 10
-10.2691215417
 20
-21.6976161515
  0
LINE
  5
3B5
100
AcDbEntity
  8
0
100
AcDbLine
 62
7
  6
CONTINUOUS
 10
1.6899707658
 20
-45.7906975891
 11
1.6899707658
 21
-44.3206975891
  0
LINE
  5
3B6
100
AcDbEntity
  8
0
100
AcDbLine
 62
7
  6
CONTINUOUS
 10
1.6899707658
 20
-43.2506975891
 11
1.6899707658
 21
-41.7806975891
  0
LINE
  5
3B7
100
AcDbEntity
  8
ASSI
100
AcDbLine
 62
253
  6
CONTINUOUS
 10
1.8499415315
 20
-7.47272662
 11
1.8499415315
 21
-21.1856975891
  0
LINE
  5
3B8
100
AcDbEntity
  8
ASSI
100
AcDbLine
 62
253
  6
CONTINUOUS
 10
1.8499415315
 20
-26.5856975891
 11
1.8499415315
 21
-40.7356975891
  0
LINE
  5
3B9
100
AcDbEntity
  8
ASSI
100
AcDbLine
 62
253
  6
CONTINUOUS
 10
2.1076933233
 20
-7.5910673331
 11
2.1076933233
 21
-21.1856975891
  0
LINE
  5
3BA
100
AcDbEntity
  8
ASSI
100
AcDbLine
 62
253
  6
CONTINUOUS
 10
2.1076933233
 20
-26.5856975891
 11
2.1076933233
 21
-40.7356975891
  0
LINE
  5
3BB
100
AcDbEntity
  8
ASSI
100
AcDbLine
 62
253
  6
CONTINUOUS
 10
2.2822482082
 20
-7.6712101302
 11
2.2822482082
 21
-21.1856975891
  0
LINE
  5
3BC
100
AcDbEntity
  8
ASSI
100
AcDbLine
 62
253
  6
CONTINUOUS
 10
2.2822482082
 20
-26.5856975891
 11
2.2822482082
 21
-40.7356975891
  0
LINE
  5
3BD
100
AcDbEntity
  8
ASSI
100
AcDbLine
 62
253
  6
CONTINUOUS
 10
2.54
 20
-7.7895508433
 11
2.54
 21
-21.1856975891
  0
LINE
  5
3BE
100
AcDbEntity
  8
ASSI
100
AcDbLine
 62
253
  6
CONTINUOUS
 10
2.54
 20
-26.5856975891
 11
2.54
 21
-40.7356975891
  0
LINE
  5
3BF
100
AcDbEntity
  8
0
100
AcDbLine
 62
7
  6
CONTINUOUS
 10
2.6799707658
 20
-41.7806975891
 11
2.6799707658
 21
-43.2506975891
  0
LINE
  5
3C0
100
AcDbEntity
  8
0
100
AcDbLine
 62
7
  6
CONTINUOUS
 10
2.6799707658
 20
-44.3206975891
 11
2.6799707658
 21
-45.7906975891
  0
LINE
  5
3C1
100
AcDbEntity
  8
0
100
AcDbLine
 62
7
  6
CONTINUOUS
 10
3.0299707658
 20
-42.1306975891
 11
3.0299707658
 21
-42.9006975891
  0
LINE
  5
3C2
100
AcDbEntity
  8
0
100
AcDbLine
 62
7
  6
CONTINUOUS
 10
3.0299707658
 20
-44.6706975891
 11
3.0299707658
 21
-45.4406975891
  0
LINE
  5
3C3
100
AcDbEntity
  8
ASSI
100
AcDbLine
 62
253
  6
CONTINUOUS
 10
3.1199415315
 20
-7.6505495035
 11
3.1199415315
 21
-21.1856975891
  0
LINE
  5
3C4
100
AcDbEntity
  8
ASSI
100
AcDbLine
 62
253
  6
CONTINUOUS
 10
3.1199415315
 20
-26.5856975891
 11
3.1199415315
 21
-40.7356975891
  0
LWPOLYLINE
  5
3C5
100
AcDbEntity
  8
RACCORDO
100
AcDbPolyline
 62
253
  6
CONTINUOUS
 90
5
 70
0
 10
9.5790630854
 20
-21.6976161514
 10
9.6079927937
 20
-21.6970975464
 10
9.6290235941
 20
-21.6963839606
 10
9.6417957851
 20
-21.6954875988
 10
9.6460909168
 20
-21.6944237923
  0
LINE
  5
3C6
100
AcDbEntity
  8
RACCORDO
100
AcDbLine
 62
253
  6
CONTINUOUS
 10
-9.9655908263
 20
-21.6963839606
 11
-9.8362255378
 21
-21.6944237923
  0
LINE
  5
3C7
100
AcDbEntity
  8
RACCORDO
100
AcDbLine
 62
253
  6
CONTINUOUS
 10
-10.0861434986
 20
-21.6976161514
 11
-9.9655908263
 21
-21.6963839606
  0
LWPOLYLINE
  5
3C8
100
AcDbEntity
  8
RACCORDO
100
AcDbPolyline
 62
253
  6
CONTINUOUS
 90
3
 70
0
 10
9.4996127959
 20
-21.698036425
 10
9.5427292719
 20
-21.6979309054
 10
9.5790630854
 20
-21.6976161514
  0
LINE
  5
3C9
100
AcDbEntity
  8
RACCORDO
100
AcDbLine
 62
253
  6
CONTINUOUS
 10
-9.8362255378
 20
-21.6944237923
 11
9.1461670693
 21
-21.6944237923
  0
LINE
  5
3CA
100
AcDbEntity
  8
RACCORDO
100
AcDbLine
 62
253
  6
CONTINUOUS
 10
9.3960850511
 20
-21.6976161515
 11
9.4996127959
 21
-21.698036425
  0
LWPOLYLINE
  5
3CB
100
AcDbEntity
  8
RACCORDO
100
AcDbPolyline
 62
253
  6
CONTINUOUS
 90
4
 70
0
 10
-10.2691215417
 20
-21.6976161515
 10
-10.232787727
 20
-21.6979309055
 10
-10.1896712499
 20
-21.698036425
 10
-10.0861434986
 20
-21.6976161514
  0
LINE
  5
3CC
100
AcDbEntity
  8
RACCORDO
100
AcDbLine
 62
253
  6
CONTINUOUS
 10
9.2755323759
 20
-21.6963839608
 11
9.3960850511
 21
-21.6976161515
  0
LINE
  5
3CD
100
AcDbEntity
  8
RACCORDO
100
AcDbLine
 62
253
  6
CONTINUOUS
 10
9.1461670693
 20
-21.6944237923
 11
9.2755323759
 21
-21.6963839608
  0
LWPOLYLINE
  5
3CE
100
AcDbEntity
  8
RACCORDO
100
AcDbPolyline
 62
253
  6
CONTINUOUS
 90
6
 70
0
 10
8.6515406793
 20
-23.7822071078
 10
8.648806522
 20
-23.7818450312
 10
8.6406205662
 20
-23.781545339
 10
8.6270730416
 20
-23.7812997179
 10
8.6083117314
 20
-23.7810951332
 10
8.556033643
 20
-23.7808232601
  0
LINE
  5
3CF
100
AcDbEntity
  8
ASSI
100
AcDbLine
 62
253
  6
CONTINUOUS
 10
3.3776933233
 20
-7.5402300025
 11
3.3776933233
 21
-21.1856975891
  0
LINE
  5
3D0
100
AcDbEntity
  8
ASSI
100
AcDbLine
 62
253
  6
CONTINUOUS
 10
3.3776933233
 20
-26.5856975891
 11
3.3776933233
 21
-40.7356975891
  0
LINE
  5
3D1
100
AcDbEntity
  8
ASSI
100
AcDbLine
 62
253
  6
CONTINUOUS
 10
3.5522482082
 20
-7.4655193374
 11
3.5522482082
 21
-21.1856975891
  0
LINE
  5
3D2
100
AcDbEntity
  8
ASSI
100
AcDbLine
 62
253
  6
CONTINUOUS
 10
3.5522482082
 20
-26.5856975891
 11
3.5522482082
 21
-40.7356975891
  0
LINE
  5
3D3
100
AcDbEntity
  8
ASSI
100
AcDbLine
 62
253
  6
CONTINUOUS
 10
3.81
 20
-7.3551998364
 11
3.81
 21
-21.1856975891
  0
LINE
  5
3D4
100
AcDbEntity
  8
ASSI
100
AcDbLine
 62
253
  6
CONTINUOUS
 10
3.81
 20
-26.5856975891
 11
3.81
 21
-40.7356975891
  0
LINE
  5
3D5
100
AcDbEntity
  8
0
100
AcDbLine
 62
7
  6
CONTINUOUS
 10
3.8799707658
 20
-45.4406975891
 11
3.8799707658
 21
-44.6706975891
  0
LINE
  5
3D6
100
AcDbEntity
  8
0
100
AcDbLine
 62
7
  6
CONTINUOUS
 10
3.8799707658
 20
-42.9006975891
 11
3.8799707658
 21
-42.1306975891
  0
LINE
  5
3D7
100
AcDbEntity
  8
0
100
AcDbLine
 62
7
  6
CONTINUOUS
 10
4.2299707658
 20
-45.7906975891
 11
4.2299707658
 21
-44.3206975891
  0
LINE
  5
3D8
100
AcDbEntity
  8
0
100
AcDbLine
 62
7
  6
CONTINUOUS
 10
4.2299707658
 20
-43.2506975891
 11
4.2299707658
 21
-41.7806975891
  0
LINE
  5
3D9
100
AcDbEntity
  8
ASSI
100
AcDbLine
 62
7
  6
CONTINUOUS
 10
4.5499707658
 20
-7.0384873701
 11
4.5499707658
 21
-21.1856975891
  0
LINE
  5
3DA
100
AcDbEntity
  8
ASSI
100
AcDbLine
 62
7
  6
CONTINUOUS
 10
4.5499707658
 20
-26.5856975891
 11
4.5499707658
 21
-40.7356975891
  0
LINE
  5
3DB
100
AcDbEntity
  8
RACCORDO
100
AcDbLine
 62
7
  6
CONTINUOUS
 10
-9.8362255378
 20
-21.1856975891
 11
9.1461670693
 21
-21.1856975891
  0
LWPOLYLINE
  5
3DC
100
AcDbEntity
  8
0
100
AcDbPolyline
 62
7
  6
CONTINUOUS
 90
3
 70
0
 10
6.5249770471
 20
-42.9953980381
 10
6.5275578994
 20
-43.0278592191
 10
6.527629992
 20
-43.0342328069
  0
LINE
  5
3DD
100
AcDbEntity
  8
0
100
AcDbLine
 62
7
  6
CONTINUOUS
 10
5.4549707658
 20
-46.8356975891
 11
5.4549707658
 21
-40.7356975891
  0
LINE
  5
3DE
100
AcDbEntity
  8
0
100
AcDbLine
 62
7
  6
CONTINUOUS
 10
5.5183996522
 20
-43.3371104011
 11
5.5183996522
 21
-44.2342847771
  0
LINE
  5
3DF
100
AcDbEntity
  8
0
100
AcDbLine
 62
253
  6
CONTINUOUS
 10
5.6549707658
 20
-42.3200121641
 11
5.6549707658
 21
-42.9356975891
  0
LINE
  5
3E0
100
AcDbEntity
  8
0
100
AcDbLine
 62
253
  6
CONTINUOUS
 10
5.6549707658
 20
-44.6356975891
 11
5.6549707658
 21
-45.251383014
  0
LINE
  5
3E1
100
AcDbEntity
  8
0
100
AcDbLine
 62
253
  6
CONTINUOUS
 10
6.0553460439
 20
-45.251383014
 11
6.0553460439
 21
-44.6356975891
  0
LINE
  5
3E2
100
AcDbEntity
  8
0
100
AcDbLine
 62
253
  6
CONTINUOUS
 10
6.0553460439
 20
-42.9356975891
 11
6.0553460439
 21
-42.3200121641
  0
LINE
  5
3E3
100
AcDbEntity
  8
0
100
AcDbLine
 62
7
  6
CONTINUOUS
 10
6.2553460439
 20
-42.4384839936
 11
6.2553460439
 21
-42.9356975891
  0
LINE
  5
3E4
100
AcDbEntity
  8
0
100
AcDbLine
 62
7
  6
CONTINUOUS
 10
6.2553460439
 20
-44.6356975891
 11
6.2553460439
 21
-45.1329111846
  0
LINE
  5
3E5
100
AcDbEntity
  8
0
100
AcDbLine
 62
7
  6
CONTINUOUS
 10
6.2949707658
 20
-44.6156975891
 11
6.2949706562
 21
-43.3371104011
  0
LINE
  5
3E6
100
AcDbEntity
  8
0
100
AcDbLine
 62
7
  6
CONTINUOUS
 10
6.2949707658
 20
-42.9956561942
 11
6.2949707658
 21
-42.9356975891
  0
LINE
  5
3E7
100
AcDbEntity
  8
0
100
AcDbLine
 62
7
  6
CONTINUOUS
 10
6.4849707658
 20
-44.6156975891
 11
6.4849707658
 21
-44.5756975891
  0
LINE
  5
3E8
100
AcDbEntity
  8
0
100
AcDbLine
 62
7
  6
CONTINUOUS
 10
6.4849707658
 20
-43.8256975891
 11
6.4849707658
 21
-43.7456975891
  0
LINE
  5
3E9
100
AcDbEntity
  8
0
100
AcDbLine
 62
7
  6
CONTINUOUS
 10
6.4849707658
 20
-42.995397207
 11
6.4849707658
 21
-42.9356975891
  0
LINE
  5
3EA
100
AcDbEntity
  8
0
100
AcDbLine
 62
7
  6
CONTINUOUS
 10
6.5278443387
 20
-43.7456975891
 11
6.5278443387
 21
-43.0342328204
  0
LINE
  5
3EB
100
AcDbEntity
  8
0
100
AcDbLine
 62
7
  6
CONTINUOUS
 10
6.5349707658
 20
-44.5756975891
 11
6.5349707658
 21
-43.8256975891
  0
LINE
  5
3EC
100
AcDbEntity
  8
0
100
AcDbLine
 62
7
  6
CONTINUOUS
 10
6.9349707658
 20
-42.2856975891
 11
6.9349707658
 21
-45.2856975891
  0
LINE
  5
3ED
100
AcDbEntity
  8
RACCORDO
100
AcDbLine
 62
253
  6
CONTINUOUS
 10
8.1112569394
 20
-26.5856975891
 11
8.1112569394
 21
-26.0944237923
  0
LINE
  5
3EE
100
AcDbEntity
  8
RACCORDO
100
AcDbLine
 62
253
  6
CONTINUOUS
 10
8.1516168318
 20
-23.5856975891
 11
8.1516168318
 21
-23.7822071078
  0
LINE
  5
3EF
100
AcDbEntity
  8
RACCORDO
100
AcDbLine
 62
253
  6
CONTINUOUS
 10
8.1516168318
 20
-23.7822071078
 11
8.1112569394
 21
-26.0944237923
  0
LWPOLYLINE
  5
3F0
100
AcDbEntity
  8
0
100
AcDbPolyline
 62
7
  6
CONTINUOUS
 90
12
 70
0
 10
6.527629992
 20
-43.0342328069
 10
6.5264381196
 20
-43.0592765371
 10
6.5216177077
 20
-43.0896499924
 10
6.5132613975
 20
-43.1186875404
 10
6.5012044551
 20
-43.1466812255
 10
6.4849526793
 20
-43.174507181
 10
6.464466948
 20
-43.2025530982
 10
6.4397863832
 20
-43.2304312858
 10
6.4105341503
 20
-43.2578548028
 10
6.3765846377
 20
-43.2847280021
 10
6.338063457
 20
-43.3111465309
 10
6.2949706081
 20
-43.337110389
  0
LINE
  5
3F1
100
AcDbEntity
  8
RACCORDO
100
AcDbLine
 62
253
  6
CONTINUOUS
 10
9.1165848488
 20
-23.5856975891
 11
9.1165848488
 21
-23.3891880703
  0
LINE
  5
3F2
100
AcDbEntity
  8
RACCORDO
100
AcDbLine
 62
253
  6
CONTINUOUS
 10
9.1461670693
 20
-21.1856975891
 11
9.1461670759
 21
-21.6944237925
  0
LINE
  5
3F3
100
AcDbEntity
  8
RACCORDO
100
AcDbLine
 62
7
  6
CONTINUOUS
 10
9.646090942
 20
-21.6769728271
 11
9.6460909168
 21
-21.6944237923
  0
LINE
  5
3F4
100
AcDbEntity
  8
RACCORDO
100
AcDbLine
 62
7
  6
CONTINUOUS
 10
8.6515406793
 20
-23.7822071078
 11
8.611180787
 21
-26.0944237923
  0
LINE
  5
3F5
100
AcDbEntity
  8
RACCORDO
100
AcDbLine
 62
253
  6
CONTINUOUS
 10
9.1461670693
 20
-21.6944237923
 11
9.1165848488
 21
-23.3891880703
  0
LINE
  5
3F6
100
AcDbEntity
  8
RACCORDO
100
AcDbLine
 62
7
  6
CONTINUOUS
 10
9.6460909168
 20
-21.6944237923
 11
9.6165086963
 21
-23.3891880703
  0
LINE
  5
3F7
100
AcDbEntity
  8
0
100
AcDbLine
 62
7
  6
CONTINUOUS
 10
-3.3350292342
 20
-46.3356975891
 11
-3.6850292342
 21
-46.8356975891
  0
LINE
  5
3F8
100
AcDbEntity
  8
0
100
AcDbLine
 62
7
  6
CONTINUOUS
 10
-4.5900292342
 20
-42.9006975891
 11
-4.9400292342
 21
-43.2506975891
  0
LINE
  5
3F9
100
AcDbEntity
  8
0
100
AcDbLine
 62
7
  6
CONTINUOUS
 10
-3.3900292342
 20
-41.7806975891
 11
-3.7400292342
 21
-42.1306975891
  0
LINE
  5
3FA
100
AcDbEntity
  8
0
100
AcDbLine
 62
7
  6
CONTINUOUS
 10
-2.0500292342
 20
-42.9006975891
 11
-2.4000292342
 21
-43.2506975891
  0
LINE
  5
3FB
100
AcDbEntity
  8
0
100
AcDbLine
 62
7
  6
CONTINUOUS
 10
-4.5900292342
 20
-45.4406975891
 11
-4.9400292342
 21
-45.7906975891
  0
LINE
  5
3FC
100
AcDbEntity
  8
0
100
AcDbLine
 62
7
  6
CONTINUOUS
 10
-0.8500292342
 20
-41.7806975891
 11
-1.2000292342
 21
-42.1306975891
  0
LINE
  5
3FD
100
AcDbEntity
  8
0
100
AcDbLine
 62
7
  6
CONTINUOUS
 10
-3.3900292342
 20
-44.3206975891
 11
-3.7400292342
 21
-44.6706975891
  0
LINE
  5
3FE
100
AcDbEntity
  8
0
100
AcDbLine
 62
7
  6
CONTINUOUS
 10
-0.1868948076
 20
-5.7187626641
 11
-1.3671341227
 21
-4.0888461313
  0
LINE
  5
3FF
100
AcDbEntity
  8
0
100
AcDbLine
 62
7
  6
CONTINUOUS
 10
5.5183996522
 20
-44.2342847771
 11
5.4549707658
 21
-44.4097334513
  0
LINE
  5
400
100
AcDbEntity
  8
0
100
AcDbLine
 62
7
  6
CONTINUOUS
 10
-0.7550292342
 20
-46.3356975891
 11
-1.1050292342
 21
-46.8356975891
  0
LINE
  5
401
100
AcDbEntity
  8
0
100
AcDbLine
 62
7
  6
CONTINUOUS
 10
0.4899707658
 20
-42.9006975891
 11
0.1399707658
 21
-43.2506975891
  0
LINE
  5
402
100
AcDbEntity
  8
0
100
AcDbLine
 62
7
  6
CONTINUOUS
 10
-2.0500292342
 20
-45.4406975891
 11
-2.4000292342
 21
-45.7906975891
  0
LINE
  5
403
100
AcDbEntity
  8
0
100
AcDbLine
 62
7
  6
CONTINUOUS
 10
1.6899707658
 20
-41.7806975891
 11
1.3399707658
 21
-42.1306975891
  0
LINE
  5
404
100
AcDbEntity
  8
0
100
AcDbLine
 62
7
  6
CONTINUOUS
 10
-0.8500292342
 20
-44.3206975891
 11
-1.2000292342
 21
-44.6706975891
  0
LINE
  5
405
100
AcDbEntity
  8
0
100
AcDbLine
 62
7
  6
CONTINUOUS
 10
1.0583259248
 20
-7.1092748094
 11
-0.1868948076
 21
-5.7187626641
  0
LINE
  5
406
100
AcDbEntity
  8
0
100
AcDbLine
 62
7
  6
CONTINUOUS
 10
-1.3671341227
 20
-4.0888461313
 11
-2.5561644445
 21
-2.6557063186
  0
LINE
  5
407
100
AcDbEntity
  8
0
100
AcDbLine
 62
7
  6
CONTINUOUS
 10
3.0299707658
 20
-42.9006975891
 11
2.6799707658
 21
-43.2506975891
  0
LINE
  5
408
100
AcDbEntity
  8
0
100
AcDbLine
 62
7
  6
CONTINUOUS
 10
0.4899707658
 20
-45.4406975891
 11
0.1399707658
 21
-45.7906975891
  0
LINE
  5
409
100
AcDbEntity
  8
0
100
AcDbLine
 62
7
  6
CONTINUOUS
 10
4.2299707658
 20
-41.7806975891
 11
3.8799707658
 21
-42.1306975891
  0
LINE
  5
40A
100
AcDbEntity
  8
0
100
AcDbLine
 62
7
  6
CONTINUOUS
 10
1.6899707658
 20
-44.3206975891
 11
1.3399707658
 21
-44.6706975891
  0
LINE
  5
40B
100
AcDbEntity
  8
0
100
AcDbLine
 62
7
  6
CONTINUOUS
 10
2.6631128733
 20
-7.8460752427
 11
1.0583259248
 21
-7.1092748094
  0
LINE
  5
40C
100
AcDbEntity
  8
0
100
AcDbLine
 62
7
  6
CONTINUOUS
 10
3.0299707658
 20
-45.4406975891
 11
2.6799707658
 21
-45.7906975891
  0
LINE
  5
40D
100
AcDbEntity
  8
0
100
AcDbLine
 62
7
  6
CONTINUOUS
 10
4.2299707658
 20
-44.3206975891
 11
3.8799707658
 21
-44.6706975891
  0
LINE
  5
40E
100
AcDbEntity
  8
0
100
AcDbLine
 62
7
  6
CONTINUOUS
 10
-2.5561644445
 20
-2.6557063186
 11
-4.2131989139
 21
-1.8042383911
  0
ARC
  5
40F
100
AcDbEntity
  8
RACCORDO
100
AcDbCircle
 62
7
  6
CONTINUOUS
 10
9.1461670693
 20
8.5216074647
 40
0.5
100
AcDbArc
 50
270.0000000029
 51
359.0001651821
  0
ARC
  5
410
100
AcDbEntity
  8
RACCORDO
100
AcDbCircle
 62
7
  6
CONTINUOUS
 10
-9.8362255378
 20
8.5216074647
 40
0.5
100
AcDbArc
 50
180.9998348179
 51
269.9999999971
  0
ARC
  5
411
100
AcDbEntity
  8
RACCORDO
100
AcDbCircle
 62
7
  6
CONTINUOUS
 10
-8.8013154079
 20
12.9216074647
 40
0.5
100
AcDbArc
 50
90.0
 51
178.9999999823
  0
ARC
  5
412
100
AcDbEntity
  8
RACCORDO
100
AcDbCircle
 62
7
  6
CONTINUOUS
 10
8.1112569394
 20
12.9216074647
 40
0.5
100
AcDbArc
 50
1.0
 51
90.0
  0
ARC
  5
413
100
AcDbEntity
  8
RACCORDO
100
AcDbCircle
 62
7
  6
CONTINUOUS
 10
-10.1065976258
 20
10.2216074647
 40
0.2
100
AcDbArc
 50
90.0
 51
179.0
  0
ARC
  5
414
100
AcDbEntity
  8
RACCORDO
100
AcDbCircle
 62
7
  6
CONTINUOUS
 10
9.4165391573
 20
10.2216074647
 40
0.2
100
AcDbArc
 50
1.0
 51
90.0
  0
ARC
  5
415
100
AcDbEntity
  8
RACCORDO
100
AcDbCircle
 62
7
  6
CONTINUOUS
 10
-9.5415222666
 20
10.6216074647
 40
0.1999867391
100
AcDbArc
 50
269.9867015777
 51
358.9997678567
  0
ARC
  5
416
100
AcDbEntity
  8
RACCORDO
100
AcDbCircle
 62
7
  6
CONTINUOUS
 10
8.8514637981
 20
10.6216074647
 40
0.1999867391
100
AcDbArc
 50
181.0002321433
 51
270.0132984223
  0
ARC
  5
417
100
AcDbEntity
  8
RACCORDO
100
AcDbCircle
 62
7
  6
CONTINUOUS
 10
9.1461670693
 20
-21.6856975891
 40
0.5
100
AcDbArc
 50
0.9998348179
 51
89.9999999971
  0
ARC
  5
418
100
AcDbEntity
  8
RACCORDO
100
AcDbCircle
 62
7
  6
CONTINUOUS
 10
-9.8362255378
 20
-21.6856975891
 40
0.5
100
AcDbArc
 50
90.0000000029
 51
178.9999563168
  0
ARC
  5
419
100
AcDbEntity
  8
RACCORDO
100
AcDbCircle
 62
7
  6
CONTINUOUS
 10
-8.8013154079
 20
-26.0856975891
 40
0.5
100
AcDbArc
 50
181.0
 51
270.0
  0
ARC
  5
41A
100
AcDbEntity
  8
RACCORDO
100
AcDbCircle
 62
7
  6
CONTINUOUS
 10
8.1112569394
 20
-26.0856975891
 40
0.5
100
AcDbArc
 50
270.0
 51
359.0
  0
ARC
  5
41B
100
AcDbEntity
  8
RACCORDO
100
AcDbCircle
 62
7
  6
CONTINUOUS
 10
-10.1065976258
 20
-23.3856975891
 40
0.2
100
AcDbArc
 50
181.0
 51
270.0
  0
ARC
  5
41C
100
AcDbEntity
  8
RACCORDO
100
AcDbCircle
 62
7
  6
CONTINUOUS
 10
9.4165391573
 20
-23.3856975891
 40
0.2
100
AcDbArc
 50
270.0
 51
359.0
  0
ARC
  5
41D
100
AcDbEntity
  8
RACCORDO
100
AcDbCircle
 62
7
  6
CONTINUOUS
 10
-9.5415222666
 20
-23.7856975891
 40
0.1999867391
100
AcDbArc
 50
1.0002321433
 51
90.0132984223
  0
ARC
  5
41E
100
AcDbEntity
  8
RACCORDO
100
AcDbCircle
 62
7
  6
CONTINUOUS
 10
8.8514637981
 20
-23.7856975891
 40
0.1999867391
100
AcDbArc
 50
89.9867015777
 51
178.9997678567
  0
ENDSEC
  0
SECTION
  2
OBJECTS
  0
DICTIONARY
  5
C
100
AcDbDictionary
280
0
281
1
  3
ACAD_GROUP
350
D
  3
ACAD_MLINESTYLE
350
17
  3
ACAD_LAYOUT
350
1A
  3
ACAD_PLOTSETTINGS
350
19
  3
ACAD_PLOTSTYLENAME
350
E
  0
DICTIONARY
  5
D
102
{ACAD_REACTORS
330
C
102
}
100
AcDbDictionary
280
0
281
1
  0
ACDBDICTIONARYWDFLT
  5
E
102
{ACAD_REACTORS
330
C
102
}
100
AcDbDictionary
281
1
  3
Normal
350
F
100
AcDbDictionaryWithDefault
340
F
  0
DICTIONARY
  5
17
102
{ACAD_REACTORS
330
C
102
}
100
AcDbDictionary
280
0
281
1
  3
Standard
350
18
  0
DICTIONARY
  5
19
102
{ACAD_REACTORS
330
C
102
}
100
AcDbDictionary
281
1
  0
DICTIONARY
  5
1A
102
{ACAD_REACTORS
330
C
102
}
100
AcDbDictionary
281
1
  3
Model
350
41F
  3
Layout1
350
420
  0
ACDBPLACEHOLDER
  5
F
102
{ACAD_REACTORS
330
E
102
}
  0
MLINESTYLE
  5
18
102
{ACAD_REACTORS
330
17
102
}
100
AcDbMlineStyle
  2
STANDARD
 70
0
  3

 62
256
 51
90.0
 52
90.0
 71
2
 49
0.5
 62
256
  6
BYLAYER
 49
-0.5
 62
256
  6
BYLAYER
  0
LAYOUT
  5
41F
102
{ACAD_REACTORS
330
1A
102
}
100
AcDbPlotSettings
  1

  2
none_device
  4

  6

 40
0.0
 41
0.0
 42
0.0
 43
0.0
 44
210.0
 45
297.0
 46
0.0
 47
0.0
 48
0.0
 49
0.0
140
0.0
141
0.0
142
1.0
143
1.0
 70
1024
 72
1
 73
0
 74
0
  7

 75
0
147
1.0
148
0.0
149
0.0
100
AcDbLayout
  1
Model
 70
0
 71
0
 10
0.0
 20
0.0
 11
210.0
 21
297.0
 12
0.0
 22
0.0
 32
0.0
 14
0.0
 24
0.0
 34
0.0
 15
0.0
 25
0.0
 35
0.0
146
0.0
 13
0.0
 23
0.0
 33
0.0
 16
1.0
 26
0.0
 36
0.0
 17
0.0
 27
1.0
 37
0.0
 76
0
330
20F
345
0
346
0
  0
LAYOUT
  5
420
102
{ACAD_REACTORS
330
1A
102
}
100
AcDbPlotSettings
  1

  2
none_device
  4

  6

 40
0.0
 41
0.0
 42
0.0
 43
0.0
 44
210.0
 45
297.0
 46
0.0
 47
0.0
 48
0.0
 49
0.0
140
0.0
141
0.0
142
1.0
143
1.0
 70
0
 72
1
 73
0
 74
0
  7

 75
0
147
1.0
148
0.0
149
0.0
100
AcDbLayout
  1
Layout1
 70
0
 71
1
 10
0.0
 20
0.0
 11
210.0
 21
297.0
 12
0.0
 22
0.0
 32
0.0
 14
0.0
 24
0.0
 34
0.0
 15
0.0
 25
0.0
 35
0.0
146
0.0
 13
0.0
 23
0.0
 33
0.0
 16
1.0
 26
0.0
 36
0.0
 17
0.0
 27
1.0
 37
0.0
 76
0
330
210
345
0
346
0
  0
ENDSEC
  0
EOF
