  0
SECTION
  2
HEADER
  9
$ACADVER
  1
AC1021
  9
$DWGCODEPAGE
  3
ANSI_1252
  9
$EXTMAX
 10
297.0
 20
210.0
 30
0.0
  9
$EXTMIN
 10
0.0
 20
0.0
 30
0.0
  9
$LIMMIN
 10
0.0
 20
0.0
  9
$LIMMAX
 10
297.0
 20
210.0
  9
$VIEWCTR
 10
148.5
 20
105.0
  9
$VIEWSIZE
 40
210.0
  9
$CLAYER
  8
0
  9
$LTSCALE
 40
16.335
  9
$CELTYPE
  6
BYLAYER
  9
$DIMSCALE
 40
1.0
  9
$DIMASZ
 40
3.0
  9
$DIMEXO
 40
0.5
  9
$DIMDLI
 40
11.286
  9
$DIMEXE
 40
1.5
  9
$DIMCEN
 40
2.673
  9
$DIMLFAC
 40
1.0
  9
$DIMBLK
  1
_FILLED
  9
$DIMALT
 70
0
  9
$DIMALTF
 40
0.0393700787
  9
$DIMTXT
 40
3.0
  9
$DIMTOL
 70
1
  9
$DIMLIM
 70
0
  9
$DIMTFAC
 40
1.0
  9
$DIMTP
 40
0.01
  9
$DIMTM
 40
0.01
  9
$DIMGAP
 40
0.625
  9
$DIMDSEP
 70
44
  9
$AUNITS
 70
0
  9
$PDMODE
 70
3
  9
$PDSIZE
 40
3.0
  9
$HANDSEED
  5
563
  9
$TILEMODE
 70
1
  9
$MEASUREMENT
 70
1
  9
$INSUNITS
 70
4
  0
ENDSEC
  0
SECTION
  2
CLASSES
  0
CLASS
  1
ACDBDICTIONARYWDFLT
  2
AcDbDictionaryWithDefault
  3
AutoCAD 2000
 90
0
 91
1
280
0
281
0
  0
CLASS
  1
ACDBPLACEHOLDER
  2
AcDbPlaceHolder
  3
AutoCAD 2000
 90
0
 91
1
280
0
281
0
  0
CLASS
  1
LAYOUT
  2
AcDbLayout
  3
AutoCAD 2000
 90
0
 91
0
280
0
281
0
  0
ENDSEC
  0
SECTION
  2
TABLES
  0
TABLE
  2
VPORT
  5
8
100
AcDbSymbolTable
 70
2
  0
VPORT
  5
1F4
100
AcDbSymbolTableRecord
100
AcDbViewportTableRecord
  2
*ACTIVE
 70
0
 10
0.0
 20
0.0
 11
1.0
 21
1.0
 12
148.5
 22
105.0
 13
0.0
 23
0.0
 14
1.0
 24
1.0
 15
0.0
 25
0.0
 16
0.0
 26
0.0
 36
1.0
 17
0.0
 27
0.0
 37
0.0
 40
210.0
 41
1.4142857143
 42
50.0
 43
0.0
 44
0.0
 50
0.0
 51
0.0
 71
0
 72
100
 73
1
 74
1
 75
0
 76
0
 77
0
 78
0
  0
ENDTAB
  0
TABLE
  2
LTYPE
  5
5
100
AcDbSymbolTable
 70
6
  0
LTYPE
  5
14
100
AcDbSymbolTableRecord
100
AcDbLinetypeTableRecord
  2
BYBLOCK
 70
0
  3

 72
65
 73
0
 40
0.0
  0
LTYPE
  5
15
100
AcDbSymbolTableRecord
100
AcDbLinetypeTableRecord
  2
BYLAYER
 70
0
  3

 72
65
 73
0
 40
0.0
  0
LTYPE
  5
16
100
AcDbSymbolTableRecord
100
AcDbLinetypeTableRecord
  2
CONTINUOUS
 70
64
  3
Solid line
 72
65
 73
0
 40
0.0
  0
LTYPE
  5
1F5
100
AcDbSymbolTableRecord
100
AcDbLinetypeTableRecord
  2
CENTER
 70
64
  3
____ _ ____ _ ____ _ ____ _ ____ _ ____ _ ____
 72
65
 73
4
 40
0.6
 49
0.375
 74
0
 49
-0.075
 74
0
 49
0.075
 74
0
 49
-0.075
 74
0
  0
LTYPE
  5
1F6
100
AcDbSymbolTableRecord
100
AcDbLinetypeTableRecord
  2
HIDDEN
 70
64
  3
- - - - - - - - - - - - - - - - - - - -
 72
65
 73
2
 40
0.2
 49
0.1
 74
0
 49
-0.1
 74
0
  0
LTYPE
  5
1F7
100
AcDbSymbolTableRecord
100
AcDbLinetypeTableRecord
  2
PHANTOM
 70
64
  3
_____ _ _ _____ _ _ _____ _ _ _____
 72
65
 73
6
 40
0.8
 49
0.45
 74
0
 49
-0.05
 74
0
 49
0.1
 74
0
 49
-0.05
 74
0
 49
0.1
 74
0
 49
-0.05
 74
0
  0
LTYPE
  5
1F8
100
AcDbSymbolTableRecord
100
AcDbLinetypeTableRecord
  2
DOT
 70
64
  3
. . . . . . . . . . . . . . . . . . . .
 72
65
 73
2
 40
0.2
 49
0.1
 74
0
 49
-0.1
 74
0
  0
LTYPE
  5
1F9
100
AcDbSymbolTableRecord
100
AcDbLinetypeTableRecord
  2
DASHED
 70
64
  3
- - - - - - - - - - - - - - - - - - - -
 72
65
 73
2
 40
0.2
 49
0.1
 74
0
 49
-0.1
 74
0
  0
ENDTAB
  0
TABLE
  2
LAYER
  5
2
100
AcDbSymbolTable
 70
36
  0
LAYER
  5
10
100
AcDbSymbolTableRecord
100
AcDbLayerTableRecord
  2
0
 70
0
 62
7
  6
CONTINUOUS
370
-3
390
F
  0
LAYER
  5
1FA
100
AcDbSymbolTableRecord
100
AcDbLayerTableRecord
  2
DEFAULT_1
 70
0
 62
7
  6
CENTER
370
-3
390
F
  0
LAYER
  5
1FB
100
AcDbSymbolTableRecord
100
AcDbLayerTableRecord
  2
DEFAULT_2
 70
0
 62
7
  6
HIDDEN
370
-3
390
F
  0
LAYER
  5
1FC
100
AcDbSymbolTableRecord
100
AcDbLayerTableRecord
  2
DEFAULT_3
 70
0
 62
7
  6
PHANTOM
370
-3
390
F
  0
LAYER
  5
1FD
100
AcDbSymbolTableRecord
100
AcDbLayerTableRecord
  2
ASSI
 70
0
 62
7
  6
CONTINUOUS
370
-3
390
F
  0
LAYER
  5
1FE
100
AcDbSymbolTableRecord
100
AcDbLayerTableRecord
  2
COORDINATE
 70
0
 62
7
  6
CONTINUOUS
370
-3
390
F
  0
LAYER
  5
1FF
100
AcDbSymbolTableRecord
100
AcDbLayerTableRecord
  2
COPY_PUBLISH
 70
0
 62
7
  6
CONTINUOUS
370
-3
390
F
  0
LAYER
  5
200
100
AcDbSymbolTableRecord
100
AcDbLayerTableRecord
  2
COSMETICI
 70
0
 62
7
  6
CONTINUOUS
370
-3
390
F
  0
LAYER
  5
201
100
AcDbSymbolTableRecord
100
AcDbLayerTableRecord
  2
CURVE
 70
0
 62
7
  6
CONTINUOUS
370
-3
390
F
  0
LAYER
  5
202
100
AcDbSymbolTableRecord
100
AcDbLayerTableRecord
  2
DRAFT
 70
0
 62
7
  6
CONTINUOUS
370
-3
390
F
  0
LAYER
  5
203
100
AcDbSymbolTableRecord
100
AcDbLayerTableRecord
  2
IMPORT_IGES
 70
0
 62
7
  6
CONTINUOUS
370
-3
390
F
  0
LAYER
  5
204
100
AcDbSymbolTableRecord
100
AcDbLayerTableRecord
  2
INTF_11
 70
0
 62
7
  6
CONTINUOUS
370
-3
390
F
  0
LAYER
  5
205
100
AcDbSymbolTableRecord
100
AcDbLayerTableRecord
  2
INTF_2
 70
0
 62
7
  6
CONTINUOUS
370
-3
390
F
  0
LAYER
  5
206
100
AcDbSymbolTableRecord
100
AcDbLayerTableRecord
  2
NOTE
 70
0
 62
7
  6
CONTINUOUS
370
-3
390
F
  0
LAYER
  5
207
100
AcDbSymbolTableRecord
100
AcDbLayerTableRecord
  2
PIANI
 70
0
 62
7
  6
CONTINUOUS
370
-3
390
F
  0
LAYER
  5
208
100
AcDbSymbolTableRecord
100
AcDbLayerTableRecord
  2
PUNTI
 70
0
 62
7
  6
CONTINUOUS
370
-3
390
F
  0
LAYER
  5
209
100
AcDbSymbolTableRecord
100
AcDbLayerTableRecord
  2
RACCORDO
 70
0
 62
7
  6
CONTINUOUS
370
-3
390
F
  0
LAYER
  5
20A
100
AcDbSymbolTableRecord
100
AcDbLayerTableRecord
  2
SIMBOLI
 70
0
 62
7
  6
CONTINUOUS
370
-3
390
F
  0
LAYER
  5
20B
100
AcDbSymbolTableRecord
100
AcDbLayerTableRecord
  2
SMUSSO
 70
0
 62
7
  6
CONTINUOUS
370
-3
390
F
  0
LAYER
  5
20C
100
AcDbSymbolTableRecord
100
AcDbLayerTableRecord
  2
SNAPLINE
 70
0
 62
7
  6
CONTINUOUS
370
-3
390
F
  0
LAYER
  5
20D
100
AcDbSymbolTableRecord
100
AcDbLayerTableRecord
  2
SUPERFICI
 70
0
 62
7
  6
CONTINUOUS
370
-3
390
F
  0
LAYER
  5
20E
100
AcDbSymbolTableRecord
100
AcDbLayerTableRecord
  2
TRASH
 70
0
 62
7
  6
CONTINUOUS
370
-3
390
F
  0
ENDTAB
  0
TABLE
  2
STYLE
  5
3
100
AcDbSymbolTable
 70
1
  0
STYLE
  5
11
100
AcDbSymbolTableRecord
100
AcDbTextStyleTableRecord
  2
STANDARD
 70
0
 40
0.0
 41
0.8
 50
0.0
 71
0
 42
0.2
  3
txt
  4

  0
STYLE
  5
20F
100
AcDbSymbolTableRecord
100
AcDbTextStyleTableRecord
  2
TEXTSTYLE_1
 70
0
 40
0.0
 41
0.8
 50
0.0
 71
0
 42
0.2
  3
gdt
  4

  0
ENDTAB
  0
TABLE
  2
VIEW
  5
6
100
AcDbSymbolTable
 70
0
  0
ENDTAB
  0
TABLE
  2
UCS
  5
7
100
AcDbSymbolTable
 70
0
  0
ENDTAB
  0
TABLE
  2
APPID
  5
9
100
AcDbSymbolTable
 70
1
  0
APPID
  5
210
100
AcDbSymbolTableRecord
100
AcDbRegAppTableRecord
  2
ACAD
 70
0
  0
ENDTAB
  0
TABLE
  2
BLOCK_RECORD
  5
1
100
AcDbSymbolTable
 70
0
  0
BLOCK_RECORD
  5
211
100
AcDbSymbolTableRecord
100
AcDbBlockTableRecord
  2
*Model_Space
  0
BLOCK_RECORD
  5
212
100
AcDbSymbolTableRecord
100
AcDbBlockTableRecord
  2
*Paper_Space
  0
ENDTAB
  0
TABLE
  2
DIMSTYLE
  5
A
100
AcDbSymbolTable
 70
1
100
AcDbDimStyleTable
 71
0
  0
DIMSTYLE
105
213
100
AcDbSymbolTableRecord
100
AcDbDimStyleTableRecord
  2
STANDARD
 70
0
  3

  4

 40
1.0
 41
3.0
 42
0.5
 43
0.38
 44
1.5
 45
0.0
 46
0.0
 47
0.01
 48
0.01
140
3.0
141
0.09
142
0.0
143
25.4
144
1.0
145
0.0
146
1.0
147
0.625
 71
1.0
 72
0.0
 73
0
 74
0
 75
0
 76
0
 77
1
 78
8
170
0
171
2
172
0
173
0
174
0
175
0
176
0
177
0
178
0
270
2
271
2
272
2
273
2
274
2
275
0
280
0
281
0
282
0
283
1
284
8
285
0
286
0
287
3
288
0
340
11
278
44
  0
ENDTAB
  0
ENDSEC
  0
SECTION
  2
BLOCKS
  0
BLOCK
  5
20
100
AcDbEntity
  8
0
100
AcDbBlockBegin
  2
*Model_Space
 70
0
 10
0.0
 20
0.0
 30
0.0
  3
*Model_Space
  1

  0
ENDBLK
  5
21
100
AcDbEntity
  8
0
100
AcDbBlockEnd
  0
BLOCK
  5
1C
100
AcDbEntity
  8
0
100
AcDbBlockBegin
  2
*Paper_Space
 70
0
 10
0.0
 20
0.0
 30
0.0
  3
*Paper_Space
  1

  0
ENDBLK
  5
1D
100
AcDbEntity
  8
0
100
AcDbBlockEnd
  0
ENDSEC
  0
SECTION
  2
ENTITIES
  0
LWPOLYLINE
  5
214
100
AcDbEntity
  8
RACCORDO
100
AcDbPolyline
 62
7
  6
CONTINUOUS
 90
6
 70
0
 10
-35.0728975377
 20
-56.3741430408
 10
-35.0596660444
 20
-56.3826853608
 10
-35.0456127229
 20
-56.389793289
 10
-35.0309527061
 20
-56.3953692964
 10
-35.0158739812
 20
-56.3993666917
 10
-35.0128101601
 20
-56.3999772664
  0
LWPOLYLINE
  5
215
100
AcDbEntity
  8
RACCORDO
100
AcDbPolyline
 62
7
  6
CONTINUOUS
 90
4
 70
0
 10
-35.1062189185
 20
-56.3409738509
 10
-35.0962912717
 20
-56.3531799439
 10
-35.0851442726
 20
-56.3642755664
 10
-35.0728975377
 20
-56.3741430408
  0
LINE
  5
216
100
AcDbEntity
  8
RACCORDO
100
AcDbLine
 62
253
  6
CONTINUOUS
 10
-38.466819815
 20
43.9145180726
 11
-38.1933174162
 21
44.1880204714
  0
LINE
  5
217
100
AcDbEntity
  8
RACCORDO
100
AcDbLine
 62
253
  6
CONTINUOUS
 10
-38.1679614055
 20
43.6156596632
 11
-37.8944590068
 21
43.889162062
  0
LWPOLYLINE
  5
218
100
AcDbEntity
  8
RACCORDO
100
AcDbPolyline
 62
253
  6
CONTINUOUS
 90
16
 70
0
 10
38.0201159324
 20
-56.4025725648
 10
38.0357897858
 20
-56.4017465185
 10
38.0512919798
 20
-56.3992869746
 10
38.0664527348
 20
-56.3952208698
 10
38.0811060108
 20
-56.3895927361
 10
38.0950913256
 20
-56.3824642125
 10
38.1082555126
 20
-56.3739133703
 10
38.120454398
 20
-56.3640338582
 10
38.13155438
 20
-56.3529338761
 10
38.1414338922
 20
-56.3407349907
 10
38.1499847343
 20
-56.3275708038
 10
38.1571132579
 20
-56.313585489
 10
38.1627413917
 20
-56.298932213
 10
38.1668074964
 20
-56.283771458
 10
38.1692670404
 20
-56.268269264
 10
38.1700930866
 20
-56.2525954105
  0
LINE
  5
219
100
AcDbEntity
  8
RACCORDO
100
AcDbLine
 62
7
  6
CONTINUOUS
 10
39.0175205218
 20
-57.25
 11
-36.9825556306
 21
-57.25
  0
LINE
  5
21A
100
AcDbEntity
  8
RACCORDO
100
AcDbLine
 62
253
  6
CONTINUOUS
 10
-35.8450298021
 20
-57.2228989544
 11
-36.955454585
 21
-57.2228989544
  0
LINE
  5
21B
100
AcDbEntity
  8
RACCORDO
100
AcDbLine
 62
253
  6
CONTINUOUS
 10
-35.7399108273
 20
-57.2019528765
 11
39.0175205218
 21
-57.2019528765
  0
LWPOLYLINE
  5
21C
100
AcDbEntity
  8
RACCORDO
100
AcDbPolyline
 62
253
  6
CONTINUOUS
 90
22
 70
0
 10
-36.955454585
 20
-57.2228989544
 10
-36.9928158626
 20
-57.2214978489
 10
-37.0299672931
 20
-57.2173090474
 10
-37.0667012258
 20
-57.2103560755
 10
-37.1028123721
 20
-57.2006779347
 10
-37.1380988823
 20
-57.1883288
 10
-37.1723634726
 20
-57.1733777138
 10
-37.2054145988
 20
-57.1559083468
 10
-37.2370676016
 20
-57.1360184305
 10
-37.2671456496
 20
-57.1138190969
 10
-37.2954805723
 20
-57.0894345144
 10
-37.3219140831
 20
-57.0630009964
 10
-37.3462986659
 20
-57.0346660573
 10
-37.3684980116
 20
-57.0045879718
 10
-37.3883879413
 20
-56.9729349183
 10
-37.4058573042
 20
-56.9398837602
 10
-37.4208083671
 20
-56.9056191763
 10
-37.4331574732
 20
-56.8703326973
 10
-37.4428355891
 20
-56.8342215915
 10
-37.4497885423
 20
-56.7974877028
 10
-37.4539773314
 20
-56.7603363245
 10
-37.4553784326
 20
-56.7229751068
  0
LWPOLYLINE
  5
21D
100
AcDbEntity
  8
RACCORDO
100
AcDbPolyline
 62
253
  6
CONTINUOUS
 90
22
 70
0
 10
-36.955454585
 20
-57.0729218002
 10
-36.9817993789
 20
-57.0719080997
 10
-37.0077263219
 20
-57.0689908237
 10
-37.0332354141
 20
-57.0641699722
 10
-37.0584698138
 20
-57.0573971386
 10
-37.0832863626
 20
-57.0487207295
 10
-37.1072555852
 20
-57.0382859642
 10
-37.1303577065
 20
-57.0260638543
 10
-37.1526125015
 20
-57.0120833883
 10
-37.1736498203
 20
-56.9965767504
 10
-37.1934492556
 20
-56.9795183353
 10
-37.2120312147
 20
-56.9609337483
 10
-37.229086769
 20
-56.9411319889
 10
-37.2445902811
 20
-56.9200926385
 10
-37.2585673885
 20
-56.8978361156
 10
-37.2707860748
 20
-56.8747326754
 10
-37.2812173733
 20
-56.8507610019
 10
-37.2898902507
 20
-56.825942411
 10
-37.2966595915
 20
-56.8007111058
 10
-37.3014770238
 20
-56.7752118205
 10
-37.3043909194
 20
-56.7492998209
 10
-37.3054012783
 20
-56.7229751068
  0
LWPOLYLINE
  5
21E
100
AcDbEntity
  8
RACCORDO
100
AcDbPolyline
 62
253
  6
CONTINUOUS
 90
19
 70
0
 10
-35.0235674214
 20
-56.4410650975
 10
-35.0366601508
 20
-56.4404969087
 10
-35.0496471187
 20
-56.4387893578
 10
-35.0624295872
 20
-56.4359568552
 10
-35.0749086135
 20
-56.4320230923
 10
-35.0869917758
 20
-56.4270189233
 10
-35.0985931813
 20
-56.4209804065
 10
-35.1096265442
 20
-56.4139517644
 10
-35.1200055849
 20
-56.4059872902
 10
-35.1296503676
 20
-56.397148094
 10
-35.1384871104
 20
-56.3875018592
 10
-35.1464490828
 20
-56.3771215767
 10
-35.1534761061
 20
-56.366085587
 10
-35.1595150423
 20
-56.3544765742
 10
-35.1645190518
 20
-56.3423837933
 10
-35.1684491653
 20
-56.329902142
 10
-35.1712758594
 20
-56.3171277224
 10
-35.1729784688
 20
-56.304156783
 10
-35.1735445757
 20
-56.2910879432
  0
LWPOLYLINE
  5
21F
100
AcDbEntity
  8
RACCORDO
100
AcDbPolyline
 62
253
  6
CONTINUOUS
 90
19
 70
0
 10
-35.0235674214
 20
-56.5910422518
 10
-35.0500769113
 20
-56.5898187153
 10
-35.0759856644
 20
-56.5864030671
 10
-35.1012936808
 20
-56.5807953074
 10
-35.126179172
 20
-56.5729202443
 10
-35.1504639265
 20
-56.5628530696
 10
-35.1736133094
 20
-56.5508193583
 10
-35.1956061325
 20
-56.5367736625
 10
-35.216463584
 20
-56.5207614301
 10
-35.2357145938
 20
-56.5031445797
 10
-35.2533219552
 20
-56.483887619
 10
-35.2693228749
 20
-56.4630260403
 10
-35.2833579026
 20
-56.4410282391
 10
-35.2953829143
 20
-56.4178662584
 10
-35.3054420339
 20
-56.3935680551
 10
-35.3133081831
 20
-56.3686858953
 10
-35.3189056692
 20
-56.3434038678
 10
-35.3223101848
 20
-56.3175378837
 10
-35.3235217299
 20
-56.2910879432
  0
LWPOLYLINE
  5
220
100
AcDbEntity
  8
RACCORDO
100
AcDbPolyline
 62
253
  6
CONTINUOUS
 90
3
 70
0
 10
-35.0128101601
 20
-56.3999772664
 10
-35.0005254673
 20
-56.4017698801
 10
-34.9850748887
 20
-56.4025725648
  0
LINE
  5
221
100
AcDbEntity
  8
RACCORDO
100
AcDbLine
 62
253
  6
CONTINUOUS
 10
-38.466819815
 20
-43.9145180726
 11
-38.1933174162
 21
-44.1880204714
  0
LINE
  5
222
100
AcDbEntity
  8
RACCORDO
100
AcDbLine
 62
253
  6
CONTINUOUS
 10
-38.1679614055
 20
-43.6156596632
 11
-37.8944590068
 21
-43.889162062
  0
LINE
  5
223
100
AcDbEntity
  8
RACCORDO
100
AcDbLine
 62
253
  6
CONTINUOUS
 10
-39.7969975508
 20
36.3843403368
 11
-40.0704999495
 21
36.110837938
  0
LINE
  5
224
100
AcDbEntity
  8
RACCORDO
100
AcDbLine
 62
253
  6
CONTINUOUS
 10
-39.4981391414
 20
36.0854819274
 11
-39.7716415401
 21
35.8119795286
  0
LWPOLYLINE
  5
225
100
AcDbEntity
  8
RACCORDO
100
AcDbPolyline
 62
7
  6
CONTINUOUS
 90
6
 70
0
 10
-37.8944590068
 20
41.2838672475
 10
-37.8922685678
 20
41.2849629775
 10
-37.8885025875
 20
41.2866912326
 10
-37.883246394
 20
41.2890520129
 10
-37.8766020293
 20
41.2921006204
 10
-37.8686769636
 20
41.2957817531
  0
LWPOLYLINE
  5
226
100
AcDbEntity
  8
RACCORDO
100
AcDbPolyline
 62
7
  6
CONTINUOUS
 90
6
 70
0
 10
-40.0704999495
 20
38.7161327525
 10
-40.0726903886
 20
38.7150370225
 10
-40.0764563688
 20
38.7133087674
 10
-40.0817125623
 20
38.7109479871
 10
-40.088356927
 20
38.7078993796
 10
-40.0962819927
 20
38.7042182469
  0
LINE
  5
227
100
AcDbEntity
  8
RACCORDO
100
AcDbLine
 62
7
  6
CONTINUOUS
 10
-37.8686769636
 20
41.2957817531
 11
-37.8007096639
 21
41.3266127028
  0
LINE
  5
228
100
AcDbEntity
  8
RACCORDO
100
AcDbLine
 62
7
  6
CONTINUOUS
 10
-37.7591540243
 20
41.3449999828
 11
-37.7450298021
 21
41.3513310215
  0
LWPOLYLINE
  5
229
100
AcDbEntity
  8
RACCORDO
100
AcDbPolyline
 62
7
  6
CONTINUOUS
 90
3
 70
0
 10
-37.8007096639
 20
41.3266127028
 10
-37.7871280129
 20
41.33267026
 10
-37.7591540243
 20
41.3449999828
  0
LWPOLYLINE
  5
22A
100
AcDbEntity
  8
RACCORDO
100
AcDbPolyline
 62
7
  6
CONTINUOUS
 90
19
 70
0
 10
-39.6475683461
 20
42.2539203175
 10
-39.6594140994
 20
42.249837794
 10
-39.6711730887
 20
42.2448118982
 10
-39.6827723853
 20
42.2388426303
 10
-39.6941513082
 20
42.2318675702
 10
-39.7052286628
 20
42.2239491378
 10
-39.715906286
 20
42.2152745936
 10
-39.7260714925
 20
42.2058864498
 10
-39.735724175
 20
42.1957421941
 10
-39.7449248351
 20
42.1849015498
 10
-39.7535965444
 20
42.1733781268
 10
-39.7616767713
 20
42.1611583153
 10
-39.7691991829
 20
42.1482610088
 10
-39.7760634561
 20
42.1346538853
 10
-39.7821630081
 20
42.1203692668
 10
-39.7874518861
 20
42.1055230136
 10
-39.7917987816
 20
42.0901537458
 10
-39.7950301997
 20
42.0742228432
 10
-39.7969975508
 20
42.057730306
  0
LINE
  5
22B
100
AcDbEntity
  8
RACCORDO
100
AcDbLine
 62
253
  6
CONTINUOUS
 10
-35.9824794782
 20
-57.0729218002
 11
-36.955454585
 21
-57.0729218002
  0
LINE
  5
22C
100
AcDbEntity
  8
RACCORDO
100
AcDbLine
 62
253
  6
CONTINUOUS
 10
39.0175205218
 20
-57.0519757222
 11
-35.8894726105
 21
-57.0519757222
  0
LINE
  5
22D
100
AcDbEntity
  8
RACCORDO
100
AcDbLine
 62
253
  6
CONTINUOUS
 10
-37.4553784326
 20
-56.7229751068
 11
-37.3054012783
 21
-56.7229751068
  0
LINE
  5
22E
100
AcDbEntity
  8
RACCORDO
100
AcDbLine
 62
253
  6
CONTINUOUS
 10
38.0586084651
 20
-56.5910422518
 11
-35.0235674214
 21
-56.5910422518
  0
LINE
  5
22F
100
AcDbEntity
  8
RACCORDO
100
AcDbLine
 62
253
  6
CONTINUOUS
 10
38.0586084651
 20
-56.4410650975
 11
-35.0235674214
 21
-56.4410650975
  0
LINE
  5
230
100
AcDbEntity
  8
RACCORDO
100
AcDbLine
 62
253
  6
CONTINUOUS
 10
38.0201159324
 20
-56.4025725648
 11
-34.9850748887
 21
-56.4025725648
  0
LINE
  5
231
100
AcDbEntity
  8
RACCORDO
100
AcDbLine
 62
253
  6
CONTINUOUS
 10
38.3585627736
 20
-56.2910879433
 11
38.2085856194
 21
-56.2910879432
  0
LINE
  5
232
100
AcDbEntity
  8
RACCORDO
100
AcDbLine
 62
253
  6
CONTINUOUS
 10
-35.1735445757
 20
-56.2910879436
 11
-35.3235217299
 21
-56.2910879439
  0
LINE
  5
233
100
AcDbEntity
  8
RACCORDO
100
AcDbLine
 62
253
  6
CONTINUOUS
 10
38.1700930866
 20
-56.2525954105
 11
-35.135052043
 21
-56.2525954105
  0
LINE
  5
234
100
AcDbEntity
  8
ASSI
100
AcDbLine
 62
7
  6
CONTINUOUS
 10
-34.9824794782
 20
-56.2
 11
37.9675205218
 21
-56.2
  0
LWPOLYLINE
  5
235
100
AcDbEntity
  8
RACCORDO
100
AcDbPolyline
 62
7
  6
CONTINUOUS
 90
10
 70
0
 10
-37.8944590068
 20
-41.2838672475
 10
-37.8945602085
 20
-41.2838262353
 10
-37.8946615188
 20
-41.2837970356
 10
-37.8947629379
 20
-41.2837796483
 10
-37.8948644654
 20
-41.2837740513
 10
-37.8949661015
 20
-41.2837802666
 10
-37.8950678474
 20
-41.2837983613
 10
-37.8951697033
 20
-41.2838283576
 10
-37.8952716691
 20
-41.2838702331
 10
-37.8953737445
 20
-41.2839239879
  0
LWPOLYLINE
  5
236
100
AcDbEntity
  8
RACCORDO
100
AcDbPolyline
 62
7
  6
CONTINUOUS
 90
3
 70
0
 10
-37.7871280129
 20
-41.33267026
 10
-37.7591540243
 20
-41.3449999828
 10
-37.7450298021
 20
-41.3513310215
  0
LWPOLYLINE
  5
237
100
AcDbEntity
  8
RACCORDO
100
AcDbPolyline
 62
7
  6
CONTINUOUS
 90
3
 70
0
 10
-37.8383375705
 20
-41.309633734
 10
-37.8007096639
 20
-41.3266127028
 10
-37.7871280129
 20
-41.33267026
  0
LINE
  5
238
100
AcDbEntity
  8
RACCORDO
100
AcDbLine
 62
7
  6
CONTINUOUS
 10
-37.8686769636
 20
-41.2957817531
 11
-37.8383375705
 21
-41.309633734
  0
LWPOLYLINE
  5
239
100
AcDbEntity
  8
RACCORDO
100
AcDbPolyline
 62
7
  6
CONTINUOUS
 90
6
 70
0
 10
-37.8944590068
 20
-41.2838672475
 10
-37.8922685678
 20
-41.2849629775
 10
-37.8885025875
 20
-41.2866912326
 10
-37.883246394
 20
-41.2890520129
 10
-37.8766020293
 20
-41.2921006204
 10
-37.8686769636
 20
-41.2957817531
  0
LWPOLYLINE
  5
23A
100
AcDbEntity
  8
RACCORDO
100
AcDbPolyline
 62
7
  6
CONTINUOUS
 90
6
 70
0
 10
-40.0704999495
 20
-38.7161327525
 10
-40.0726903886
 20
-38.7150370225
 10
-40.0764563688
 20
-38.7133087674
 10
-40.0817125623
 20
-38.7109479871
 10
-40.088356927
 20
-38.7078993796
 10
-40.0962819927
 20
-38.7042182469
  0
LWPOLYLINE
  5
23B
100
AcDbEntity
  8
RACCORDO
100
AcDbPolyline
 62
7
  6
CONTINUOUS
 90
10
 70
0
 10
-40.0695852118
 20
-41.2839239879
 10
-40.0696872873
 20
-41.2838702331
 10
-40.069789253
 20
-41.2838283576
 10
-40.0698911089
 20
-41.2837983613
 10
-40.0699928548
 20
-41.2837802666
 10
-40.070094491
 20
-41.2837740513
 10
-40.0701960184
 20
-41.2837796483
 10
-40.0702974375
 20
-41.2837970356
 10
-40.0703987479
 20
-41.2838262353
 10
-40.0704999495
 20
-41.2838672475
  0
LINE
  5
23C
100
AcDbEntity
  8
RACCORDO
100
AcDbLine
 62
253
  6
CONTINUOUS
 10
-39.7969975508
 20
-36.3843403368
 11
-40.0704999495
 21
-36.110837938
  0
LINE
  5
23D
100
AcDbEntity
  8
RACCORDO
100
AcDbLine
 62
253
  6
CONTINUOUS
 10
-39.4981391414
 20
-36.0854819274
 11
-39.7716415401
 21
-35.8119795286
  0
LWPOLYLINE
  5
23E
100
AcDbEntity
  8
RACCORDO
100
AcDbPolyline
 62
7
  6
CONTINUOUS
 90
6
 70
0
 10
-37.4553784326
 20
33.6271586701
 10
-37.4544221995
 20
33.6283730026
 10
-37.45216946
 20
33.6305851243
 10
-37.4487736698
 20
33.6337950353
 10
-37.4444024951
 20
33.6381223617
 10
-37.4392003057
 20
33.6434474774
  0
LINE
  5
23F
100
AcDbEntity
  8
RACCORDO
100
AcDbLine
 62
7
  6
CONTINUOUS
 10
-37.3144505119
 20
33.7702262549
 11
-37.3054012783
 21
33.7795981607
  0
LINE
  5
240
100
AcDbEntity
  8
RACCORDO
100
AcDbLine
 62
7
  6
CONTINUOUS
 10
-37.3785961815
 20
33.7047139278
 11
-37.3144505119
 21
33.7702262549
  0
LINE
  5
241
100
AcDbEntity
  8
RACCORDO
100
AcDbLine
 62
7
  6
CONTINUOUS
 10
-37.4041559643
 20
33.6787711146
 11
-37.3785961815
 21
33.7047139278
  0
LINE
  5
242
100
AcDbEntity
  8
RACCORDO
100
AcDbLine
 62
7
  6
CONTINUOUS
 10
-37.41963236
 20
33.6631704912
 11
-37.4041559643
 21
33.6787711146
  0
LINE
  5
243
100
AcDbEntity
  8
RACCORDO
100
AcDbLine
 62
7
  6
CONTINUOUS
 10
-37.4553784326
 20
33.6271586701
 11
-37.4824794782
 21
33.6
  0
LWPOLYLINE
  5
244
100
AcDbEntity
  8
RACCORDO
100
AcDbPolyline
 62
7
  6
CONTINUOUS
 90
3
 70
0
 10
-37.4392003057
 20
33.6434474774
 10
-37.4266980904
 20
33.6559715421
 10
-37.41963236
 20
33.6631704912
  0
LINE
  5
245
100
AcDbEntity
  8
RACCORDO
100
AcDbLine
 62
7
  6
CONTINUOUS
 10
-40.0962819927
 20
38.7042182469
 11
-40.1642492924
 21
38.6733872972
  0
LINE
  5
246
100
AcDbEntity
  8
RACCORDO
100
AcDbLine
 62
7
  6
CONTINUOUS
 10
-40.205804932
 20
38.6550000172
 11
-40.2199291543
 21
38.6486689785
  0
LWPOLYLINE
  5
247
100
AcDbEntity
  8
RACCORDO
100
AcDbPolyline
 62
7
  6
CONTINUOUS
 90
3
 70
0
 10
-40.1642492924
 20
38.6733872972
 10
-40.1778309435
 20
38.66732974
 10
-40.205804932
 20
38.6550000172
  0
LWPOLYLINE
  5
248
100
AcDbEntity
  8
RACCORDO
100
AcDbPolyline
 62
7
  6
CONTINUOUS
 90
19
 70
0
 10
-38.3173906103
 20
37.7460796825
 10
-38.3055446925
 20
37.7501622866
 10
-38.2937855802
 20
37.7551882517
 10
-38.2821862033
 20
37.7611575778
 10
-38.2708072318
 20
37.7681327044
 10
-38.25972987
 20
37.7760511921
 10
-38.2490523079
 20
37.7847257218
 10
-38.2388872379
 20
37.7941137637
 10
-38.2292347404
 20
37.8042578477
 10
-38.2200342856
 20
37.8150982443
 10
-38.211362813
 20
37.8266212962
 10
-38.2032828146
 20
37.8388406608
 10
-38.1957605392
 20
37.8517375808
 10
-38.1888963302
 20
37.8653443431
 10
-38.1827967626
 20
37.8796286608
 10
-38.1775077278
 20
37.8944749165
 10
-38.1731605795
 20
37.909844571
 10
-38.1699289154
 20
37.9257761635
 10
-38.1679614055
 20
37.942269694
  0
LINE
  5
249
100
AcDbEntity
  8
RACCORDO
100
AcDbLine
 62
253
  6
CONTINUOUS
 10
-35.8894726105
 20
-57.0519757222
 11
-35.9824794782
 21
-57.0705317368
  0
LINE
  5
24A
100
AcDbEntity
  8
RACCORDO
100
AcDbLine
 62
253
  6
CONTINUOUS
 10
-35.7399108273
 20
-57.2019528765
 11
-35.8450298021
 21
-57.2228989544
  0
LINE
  5
24B
100
AcDbEntity
  8
RACCORDO
100
AcDbLine
 62
253
  6
CONTINUOUS
 10
-21.7388398737
 20
-51.0338965063
 11
-30.1828698735
 21
-51.0502685608
  0
LINE
  5
24C
100
AcDbEntity
  8
RACCORDO
100
AcDbLine
 62
253
  6
CONTINUOUS
 10
-21.7485893871
 20
-50.834018281
 11
-30.1824794782
 21
-50.850362877
  0
LINE
  5
24D
100
AcDbEntity
  8
RACCORDO
100
AcDbLine
 62
253
  6
CONTINUOUS
 10
-13.2868609646
 20
-51.022557628
 11
-21.7388398737
 21
-51.0338965063
  0
LINE
  5
24E
100
AcDbEntity
  8
RACCORDO
100
AcDbLine
 62
253
  6
CONTINUOUS
 10
-13.2926858249
 20
-50.822679407
 11
-21.7485893871
 21
-50.834018281
  0
LINE
  5
24F
100
AcDbEntity
  8
RACCORDO
100
AcDbLine
 62
253
  6
CONTINUOUS
 10
-4.8281915109
 20
-51.0162539352
 11
-13.2868609646
 21
-51.022557628
  0
LINE
  5
250
100
AcDbEntity
  8
RACCORDO
100
AcDbLine
 62
253
  6
CONTINUOUS
 10
-4.8307339513
 20
-50.8163757618
 11
-13.2926858249
 21
-50.822679407
  0
LINE
  5
251
100
AcDbEntity
  8
ASSI
100
AcDbLine
 62
7
  6
CONTINUOUS
 10
33.1675205218
 20
-51.4
 11
-30.1824794782
 21
-51.4
  0
LINE
  5
252
100
AcDbEntity
  8
RACCORDO
100
AcDbLine
 62
7
  6
CONTINUOUS
 10
33.1675205218
 20
-51.3328582329
 11
-30.1824794782
 21
-51.3328582329
  0
LINE
  5
253
100
AcDbEntity
  8
RACCORDO
100
AcDbLine
 62
253
  6
CONTINUOUS
 10
3.6329671364
 20
-51.0149934651
 11
-4.8281915109
 21
-51.0162539352
  0
LINE
  5
254
100
AcDbEntity
  8
RACCORDO
100
AcDbLine
 62
253
  6
CONTINUOUS
 10
3.6337133892
 20
-50.815115299
 11
-4.8307339513
 21
-50.8163757618
  0
LINE
  5
255
100
AcDbEntity
  8
RACCORDO
100
AcDbLine
 62
253
  6
CONTINUOUS
 10
12.092880592
 20
-51.018775547
 11
3.6329671364
 21
-51.0149934651
  0
LINE
  5
256
100
AcDbEntity
  8
RACCORDO
100
AcDbLine
 62
253
  6
CONTINUOUS
 10
12.0972206234
 20
-50.8188973549
 11
3.6337133892
 21
-50.815115299
  0
LINE
  5
257
100
AcDbEntity
  8
RACCORDO
100
AcDbLine
 62
253
  6
CONTINUOUS
 10
20.5490426296
 20
-51.0275981717
 11
12.092880592
 21
-51.018775547
  0
LINE
  5
258
100
AcDbEntity
  8
RACCORDO
100
AcDbLine
 62
253
  6
CONTINUOUS
 10
20.5566723598
 20
-50.8277199407
 11
12.0972206234
 21
-50.8188973549
  0
LWPOLYLINE
  5
259
100
AcDbEntity
  8
RACCORDO
100
AcDbPolyline
 62
253
  6
CONTINUOUS
 90
3
 70
0
 10
33.1675205218
 20
-51.0501633259
 10
28.9968370487
 20
-51.0414533029
 10
20.5490426296
 20
-51.0275981717
  0
LWPOLYLINE
  5
25A
100
AcDbEntity
  8
RACCORDO
100
AcDbPolyline
 62
253
  6
CONTINUOUS
 90
3
 70
0
 10
33.1675205218
 20
-50.8502584871
 10
29.0084105809
 20
-50.8415751019
 10
20.5566723598
 20
-50.8277199407
  0
LWPOLYLINE
  5
25B
100
AcDbEntity
  8
RACCORDO
100
AcDbPolyline
 62
7
  6
CONTINUOUS
 90
16
 70
0
 10
-38.0445625388
 20
-41.3606277584
 10
-38.0458105709
 20
-41.360400868
 10
-38.0470336796
 20
-41.3585119551
 10
-38.048231865
 20
-41.3549610198
 10
-38.0494139014
 20
-41.3497922861
 10
-38.0505710145
 20
-41.34296153
 10
-38.0516768807
 20
-41.3343360792
 10
-38.0527403201
 20
-41.3238091809
 10
-38.0537525125
 20
-41.3114875879
 10
-38.0546606735
 20
-41.2975588869
 10
-38.0554606383
 20
-41.281955924
 10
-38.0561565716
 20
-41.2647458531
 10
-38.0567081839
 20
-41.2463177228
 10
-38.0571020454
 20
-41.226801216
 10
-38.0573515858
 20
-41.2060666498
 10
-38.0574568052
 20
-41.1841140242
  0
LWPOLYLINE
  5
25C
100
AcDbEntity
  8
RACCORDO
100
AcDbPolyline
 62
7
  6
CONTINUOUS
 90
10
 70
0
 10
-40.0704999495
 20
-38.7161327525
 10
-40.0703987479
 20
-38.7161737647
 10
-40.0702974375
 20
-38.7162029644
 10
-40.0701960184
 20
-38.7162203517
 10
-40.070094491
 20
-38.7162259487
 10
-40.0699928548
 20
-38.7162197334
 10
-40.0698911089
 20
-38.7162016387
 10
-40.069789253
 20
-38.7161716424
 10
-40.0696872873
 20
-38.7161297669
 10
-40.0695852118
 20
-38.7160760121
  0
LWPOLYLINE
  5
25D
100
AcDbEntity
  8
RACCORDO
100
AcDbPolyline
 62
7
  6
CONTINUOUS
 90
3
 70
0
 10
-40.1778309435
 20
-38.66732974
 10
-40.205804932
 20
-38.6550000172
 10
-40.2199291543
 20
-38.6486689785
  0
LWPOLYLINE
  5
25E
100
AcDbEntity
  8
RACCORDO
100
AcDbPolyline
 62
7
  6
CONTINUOUS
 90
3
 70
0
 10
-40.1266213858
 20
-38.690366266
 10
-40.1642492924
 20
-38.6733872972
 10
-40.1778309435
 20
-38.66732974
  0
LINE
  5
25F
100
AcDbEntity
  8
RACCORDO
100
AcDbLine
 62
7
  6
CONTINUOUS
 10
-40.0962819927
 20
-38.7042182469
 11
-40.1266213858
 21
-38.690366266
  0
LWPOLYLINE
  5
260
100
AcDbEntity
  8
RACCORDO
100
AcDbPolyline
 62
7
  6
CONTINUOUS
 90
10
 70
0
 10
-37.8953737445
 20
-38.7160760121
 10
-37.8952716691
 20
-38.7161297669
 10
-37.8951697033
 20
-38.7161716424
 10
-37.8950678474
 20
-38.7162016387
 10
-37.8949661015
 20
-38.7162197334
 10
-37.8948644654
 20
-38.7162259487
 10
-37.8947629379
 20
-38.7162203517
 10
-37.8946615188
 20
-38.7162029644
 10
-37.8945602085
 20
-38.7161737647
 10
-37.8944590068
 20
-38.7161327525
  0
LINE
  5
261
100
AcDbEntity
  8
RACCORDO
100
AcDbLine
 62
7
  6
CONTINUOUS
 10
-37.4553784326
 20
-33.6271586701
 11
-37.4824794782
 21
-33.6
  0
LWPOLYLINE
  5
262
100
AcDbEntity
  8
RACCORDO
100
AcDbPolyline
 62
7
  6
CONTINUOUS
 90
3
 70
0
 10
-37.4266980904
 20
-33.6559715421
 10
-37.41963236
 20
-33.6631704912
 10
-37.4041559643
 20
-33.6787711146
  0
LINE
  5
263
100
AcDbEntity
  8
RACCORDO
100
AcDbLine
 62
7
  6
CONTINUOUS
 10
-37.4041559643
 20
-33.6787711146
 11
-37.3513527878
 21
-33.7324778937
  0
LINE
  5
264
100
AcDbEntity
  8
RACCORDO
100
AcDbLine
 62
7
  6
CONTINUOUS
 10
-37.3513527878
 20
-33.7324778937
 11
-37.3144505119
 21
-33.7702262549
  0
LINE
  5
265
100
AcDbEntity
  8
RACCORDO
100
AcDbLine
 62
7
  6
CONTINUOUS
 10
-37.3144505119
 20
-33.7702262549
 11
-37.3054012783
 21
-33.7795981607
  0
LWPOLYLINE
  5
266
100
AcDbEntity
  8
RACCORDO
100
AcDbPolyline
 62
7
  6
CONTINUOUS
 90
7
 70
0
 10
-37.4553784326
 20
-33.6271586701
 10
-37.4544221995
 20
-33.6283730026
 10
-37.45216946
 20
-33.6305851243
 10
-37.4487736698
 20
-33.6337950353
 10
-37.4444024951
 20
-33.6381223617
 10
-37.4392003057
 20
-33.6434474774
 10
-37.4266980904
 20
-33.6559715421
  0
LINE
  5
267
100
AcDbEntity
  8
RACCORDO
100
AcDbLine
 62
7
  6
CONTINUOUS
 10
-39.7969975508
 20
-42.057730306
 11
-39.8331576874
 21
-41.5860508436
  0
LINE
  5
268
100
AcDbEntity
  8
RACCORDO
100
AcDbLine
 62
7
  6
CONTINUOUS
 10
-39.8331576874
 20
-41.5860508436
 11
-39.845635576
 21
-41.4145756866
  0
LINE
  5
269
100
AcDbEntity
  8
RACCORDO
100
AcDbLine
 62
7
  6
CONTINUOUS
 10
-39.8458210797
 20
41.4119795914
 11
-39.8197160974
 21
41.7648805114
  0
LINE
  5
26A
100
AcDbEntity
  8
RACCORDO
100
AcDbLine
 62
7
  6
CONTINUOUS
 10
-39.8197160974
 20
41.7648805114
 11
-39.7969975508
 21
42.057730306
  0
LINE
  5
26B
100
AcDbEntity
  8
RACCORDO
100
AcDbLine
 62
253
  6
CONTINUOUS
 10
-38.1933174162
 20
-44.3374496761
 11
-39.7716415401
 21
-44.3374496761
  0
LINE
  5
26C
100
AcDbEntity
  8
RACCORDO
100
AcDbLine
 62
253
  6
CONTINUOUS
 10
-38.1933174162
 20
-44.1880204714
 11
-39.7716415401
 21
-44.1880204714
  0
LINE
  5
26D
100
AcDbEntity
  8
RACCORDO
100
AcDbLine
 62
253
  6
CONTINUOUS
 10
-38.466819815
 20
-43.9145180726
 11
-39.4981391414
 21
-43.9145180726
  0
LINE
  5
26E
100
AcDbEntity
  8
RACCORDO
100
AcDbLine
 62
253
  6
CONTINUOUS
 10
-40.2199291543
 20
-43.889162062
 11
-40.0704999495
 21
-43.889162062
  0
LINE
  5
26F
100
AcDbEntity
  8
RACCORDO
100
AcDbLine
 62
253
  6
CONTINUOUS
 10
-37.7450298021
 20
-43.889162062
 11
-37.8944590068
 21
-43.8891620619
  0
LINE
  5
270
100
AcDbEntity
  8
RACCORDO
100
AcDbLine
 62
253
  6
CONTINUOUS
 10
-38.466819815
 20
-43.7650888679
 11
-39.4981391414
 21
-43.7650888679
  0
LINE
  5
271
100
AcDbEntity
  8
RACCORDO
100
AcDbLine
 62
253
  6
CONTINUOUS
 10
-38.3173906103
 20
-43.6156596632
 11
-38.1679614055
 21
-43.6156596632
  0
LINE
  5
272
100
AcDbEntity
  8
RACCORDO
100
AcDbLine
 62
253
  6
CONTINUOUS
 10
-39.6475683461
 20
-43.6156596632
 11
-39.7969975508
 21
-43.6156596635
  0
LWPOLYLINE
  5
273
100
AcDbEntity
  8
RACCORDO
100
AcDbPolyline
 62
253
  6
CONTINUOUS
 90
22
 70
0
 10
-39.7716415401
 20
-44.1880204714
 10
-39.7942306336
 20
-44.1872611231
 10
-39.8166385971
 20
-44.1848171248
 10
-39.8387424867
 20
-44.180710799
 10
-39.8604154359
 20
-44.1749764336
 10
-39.8815468942
 20
-44.1676520941
 10
-39.902041417
 20
-44.1587740771
 10
-39.9217907991
 20
-44.1483919545
 10
-39.9406843125
 20
-44.1365676131
 10
-39.9586262697
 20
-44.1233612079
 10
-39.9755204194
 20
-44.1088431603
 10
-39.9912713936
 20
-44.0930962256
 10
-40.0057921925
 20
-44.0762077937
 10
-40.0189989255
 20
-44.0582758751
 10
-40.0308235545
 20
-44.0393948548
 10
-40.0412100885
 20
-44.0196529582
 10
-40.0500966952
 20
-43.9991571931
 10
-40.0574309118
 20
-43.9780181187
 10
-40.0631747762
 20
-43.9563322026
 10
-40.0672890762
 20
-43.9342104057
 10
-40.0697385972
 20
-43.9117792862
 10
-40.0704999495
 20
-43.889162062
  0
LWPOLYLINE
  5
274
100
AcDbEntity
  8
RACCORDO
100
AcDbPolyline
 62
253
  6
CONTINUOUS
 90
22
 70
0
 10
-39.7716415401
 20
-44.3374496761
 10
-39.8056823756
 20
-44.3361086392
 10
-39.8391032973
 20
-44.3323440516
 10
-39.8719043052
 20
-44.3261559133
 10
-39.9042467838
 20
-44.3174806833
 10
-39.9359693486
 20
-44.3063819026
 10
-39.9665878463
 20
-44.293050194
 10
-39.9960907659
 20
-44.2774529663
 10
-40.0244896184
 20
-44.2596228107
 10
-40.0513347825
 20
-44.2398481243
 10
-40.076606097
 20
-44.2180957855
 10
-40.1003237232
 20
-44.1943989159
 10
-40.1220985234
 20
-44.1691452767
 10
-40.1418962608
 20
-44.1423183798
 10
-40.1597511723
 20
-44.1139347134
 10
-40.175376831
 20
-44.0844315032
 10
-40.1887449641
 20
-44.0537920547
 10
-40.1998838444
 20
-44.0220330624
 10
-40.2085918643
 20
-43.989641836
 10
-40.2148018213
 20
-43.9567808121
 10
-40.218580918
 20
-43.9232875541
 10
-40.2199291543
 20
-43.889162062
  0
LWPOLYLINE
  5
275
100
AcDbEntity
  8
RACCORDO
100
AcDbPolyline
 62
253
  6
CONTINUOUS
 90
19
 70
0
 10
-39.4981391414
 20
-43.7650888679
 10
-39.5113584435
 20
-43.7644838863
 10
-39.5242768864
 20
-43.7627886016
 10
-39.53689447
 20
-43.7600030138
 10
-39.5493009016
 20
-43.7560898396
 10
-39.561406474
 20
-43.7510863623
 10
-39.5729420656
 20
-43.7451044321
 10
-39.5838948432
 20
-43.7381222813
 10
-39.59427764
 20
-43.7301616775
 10
-39.6038598343
 20
-43.7213997731
 10
-39.6126237273
 20
-43.7118188486
 10
-39.6205870177
 20
-43.7014366234
 10
-39.627572181
 20
-43.6904834086
 10
-39.6335577863
 20
-43.6789461338
 10
-39.6385652645
 20
-43.6668378693
 10
-39.6424813828
 20
-43.6544281378
 10
-39.6452683971
 20
-43.64180678
 10
-39.6469640515
 20
-43.6288839552
 10
-39.6475683461
 20
-43.6156596632
  0
LWPOLYLINE
  5
276
100
AcDbEntity
  8
RACCORDO
100
AcDbPolyline
 62
253
  6
CONTINUOUS
 90
19
 70
0
 10
-39.4981391414
 20
-43.9145180726
 10
-39.5241716421
 20
-43.9132885113
 10
-39.5499937962
 20
-43.9098040374
 10
-39.5754115925
 20
-43.9040926585
 10
-39.6002339986
 20
-43.8961996747
 10
-39.624274879
 20
-43.8861856038
 10
-39.6473542005
 20
-43.8741252353
 10
-39.6692982279
 20
-43.8601101799
 10
-39.689942699
 20
-43.8442469464
 10
-39.7091339808
 20
-43.826653529
 10
-39.726727315
 20
-43.8074622288
 10
-39.7425904301
 20
-43.7868178
 10
-39.7566053601
 20
-43.7648738508
 10
-39.7686656127
 20
-43.7417946439
 10
-39.7786795749
 20
-43.7177539154
 10
-39.7865724483
 20
-43.6929316671
 10
-39.7922837142
 20
-43.6675140215
 10
-39.7957680827
 20
-43.6416920179
 10
-39.7969975508
 20
-43.6156596632
  0
LWPOLYLINE
  5
277
100
AcDbEntity
  8
RACCORDO
100
AcDbPolyline
 62
7
  6
CONTINUOUS
 90
16
 70
0
 10
-39.9203964175
 20
-38.6393722416
 10
-39.9191483854
 20
-38.639599132
 10
-39.9179252767
 20
-38.6414880449
 10
-39.9167270914
 20
-38.6450389802
 10
-39.9155450549
 20
-38.6502077139
 10
-39.9143879418
 20
-38.65703847
 10
-39.9132820757
 20
-38.6656639208
 10
-39.9122186362
 20
-38.6761908191
 10
-39.9112064438
 20
-38.6885124121
 10
-39.9102982828
 20
-38.7024411131
 10
-39.909498318
 20
-38.718044076
 10
-39.9088023847
 20
-38.7352541469
 10
-39.9082507724
 20
-38.7536822772
 10
-39.9078569109
 20
-38.773198784
 10
-39.9076073705
 20
-38.7939333502
 10
-39.9075021511
 20
-38.8158859758
  0
LWPOLYLINE
  5
278
100
AcDbEntity
  8
RACCORDO
100
AcDbPolyline
 62
7
  6
CONTINUOUS
 90
19
 70
0
 10
-39.7969975508
 20
-42.057730306
 10
-39.795193913
 20
-42.0731797001
 10
-39.7922201813
 20
-42.0883668997
 10
-39.7881484267
 20
-42.103291905
 10
-39.7830553631
 20
-42.1180657339
 10
-39.7770249267
 20
-42.1325773684
 10
-39.7701496154
 20
-42.1464937545
 10
-39.7625336378
 20
-42.159759105
 10
-39.7542576829
 20
-42.172429207
 10
-39.7453730953
 20
-42.1843383683
 10
-39.7359819899
 20
-42.1954512842
 10
-39.7261478659
 20
-42.2058032594
 10
-39.715837396
 20
-42.2153345152
 10
-39.7050758177
 20
-42.2240713133
 10
-39.6939692913
 20
-42.231987392
 10
-39.6825926467
 20
-42.2389441882
 10
-39.67101928
 20
-42.2448955139
 10
-39.6593202799
 20
-42.249887557
 10
-39.6475683461
 20
-42.2539203175
  0
LINE
  5
279
100
AcDbEntity
  8
RACCORDO
100
AcDbLine
 62
7
  6
CONTINUOUS
 10
-38.1679614055
 20
-37.942269694
 11
-38.1318012689
 21
-38.4139491564
  0
LWPOLYLINE
  5
27A
100
AcDbEntity
  8
RACCORDO
100
AcDbPolyline
 62
7
  6
CONTINUOUS
 90
3
 70
0
 10
-38.1318012689
 20
-38.4139491564
 10
-38.1079744397
 20
-38.7477019663
 10
-38.1052547521
 20
-38.7880743331
  0
LINE
  5
27B
100
AcDbEntity
  8
RACCORDO
100
AcDbLine
 62
7
  6
CONTINUOUS
 10
-39.845635576
 20
-41.4145756866
 11
-39.8597042042
 21
-41.2119256669
  0
LWPOLYLINE
  5
27C
100
AcDbEntity
  8
RACCORDO
100
AcDbPolyline
 62
7
  6
CONTINUOUS
 90
7
 70
0
 10
-35.1350283961
 20
-56.2552132855
 10
-35.1342208137
 20
-56.2683183666
 10
-35.1317458759
 20
-56.2838679889
 10
-35.1276545223
 20
-56.2990729109
 10
-35.1219910868
 20
-56.3137672948
 10
-35.1148184099
 20
-56.3277873159
 10
-35.1062189185
 20
-56.3409738509
  0
LWPOLYLINE
  5
27D
100
AcDbEntity
  8
RACCORDO
100
AcDbPolyline
 62
253
  6
CONTINUOUS
 90
16
 70
0
 10
-35.8894726105
 20
-57.0519757222
 10
-35.8886318691
 20
-57.0676374966
 10
-35.8861663099
 20
-57.0831280091
 10
-35.8821028938
 20
-57.0982778708
 10
-35.8764860543
 20
-57.1129214175
 10
-35.8693772118
 20
-57.1268985218
 10
-35.8608541015
 20
-57.1400563439
 10
-35.8510099238
 20
-57.1522510025
 10
-35.839952325
 20
-57.163349149
 10
-35.8278022202
 20
-57.1732294248
 10
-35.814692471
 20
-57.1817837889
 10
-35.8007664327
 20
-57.1889186992
 10
-35.786176387
 20
-57.1945561354
 10
-35.7710818762
 20
-57.1986344518
 10
-35.755647959
 20
-57.2011090521
 10
-35.7400434058
 20
-57.2019528765
  0
LWPOLYLINE
  5
27E
100
AcDbEntity
  8
RACCORDO
100
AcDbPolyline
 62
7
  6
CONTINUOUS
 90
19
 70
0
 10
-35.9824794782
 20
-57.0705317368
 10
-35.9816334754
 20
-57.0872441453
 10
-35.979180857
 20
-57.1031571416
 10
-35.9753499209
 20
-57.1181206938
 10
-35.9704170871
 20
-57.131951687
 10
-35.9645750517
 20
-57.1446650545
 10
-35.9578560377
 20
-57.1564327709
 10
-35.9503706675
 20
-57.1672500001
 10
-35.942291575
 20
-57.1770462781
 10
-35.9336538174
 20
-57.1858734682
 10
-35.9245589927
 20
-57.193726587
 10
-35.9151289781
 20
-57.2005953151
 10
-35.9053949986
 20
-57.2065118434
 10
-35.8954327541
 20
-57.2114897847
 10
-35.885345644
 20
-57.2155355348
 10
-35.8751908923
 20
-57.2186692825
 10
-35.8650364643
 20
-57.2209177796
 10
-35.8549612872
 20
-57.2223149948
 10
-35.8450298021
 20
-57.2228989544
  0
LWPOLYLINE
  5
27F
100
AcDbEntity
  8
RACCORDO
100
AcDbPolyline
 62
7
  6
CONTINUOUS
 90
22
 70
0
 10
-37.4824794782
 20
-56.7500761524
 10
-37.4810880052
 20
-56.7873563724
 10
-37.4769134302
 20
-56.8244787277
 10
-37.4699677409
 20
-56.8612348281
 10
-37.4602638988
 20
-56.8974647375
 10
-37.4478528593
 20
-56.9329122018
 10
-37.4328588953
 20
-56.9672382355
 10
-37.4154472983
 20
-57.0001538505
 10
-37.395689699
 20
-57.0315999639
 10
-37.3735799978
 20
-57.0615826482
 10
-37.349119066
 20
-57.0900291766
 10
-37.3225086548
 20
-57.1166395878
 10
-37.2940621264
 20
-57.1411005197
 10
-37.264079442
 20
-57.1632102209
 10
-37.2326333287
 20
-57.1829678202
 10
-37.1997177136
 20
-57.2003794172
 10
-37.1653916799
 20
-57.2153733812
 10
-37.1299442157
 20
-57.2277844206
 10
-37.0937143062
 20
-57.2374882628
 10
-37.0569582059
 20
-57.2444339521
 10
-37.0198358505
 20
-57.248608527
 10
-36.9825556306
 20
-57.25
  0
LINE
  5
280
100
AcDbEntity
  8
RACCORDO
100
AcDbLine
 62
253
  6
CONTINUOUS
 10
-40.2199291543
 20
-43.889162062
 11
-40.2199291543
 21
-41.3513310215
  0
LINE
  5
281
100
AcDbEntity
  8
RACCORDO
100
AcDbLine
 62
253
  6
CONTINUOUS
 10
-40.2199291543
 20
-38.6486689785
 11
-40.2199291543
 21
-36.110837938
  0
LINE
  5
282
100
AcDbEntity
  8
RACCORDO
100
AcDbLine
 62
253
  6
CONTINUOUS
 10
-40.2199291543
 20
36.110837938
 11
-40.2199291543
 21
38.6486689785
  0
LINE
  5
283
100
AcDbEntity
  8
RACCORDO
100
AcDbLine
 62
253
  6
CONTINUOUS
 10
-40.2199291543
 20
41.3513310215
 11
-40.2199291543
 21
43.889162062
  0
LINE
  5
284
100
AcDbEntity
  8
RACCORDO
100
AcDbLine
 62
253
  6
CONTINUOUS
 10
-40.0704999495
 20
-43.889162062
 11
-40.0704999495
 21
-41.2838672475
  0
LINE
  5
285
100
AcDbEntity
  8
RACCORDO
100
AcDbLine
 62
253
  6
CONTINUOUS
 10
-40.0704999495
 20
-38.7161327525
 11
-40.0704999495
 21
-36.110837938
  0
LINE
  5
286
100
AcDbEntity
  8
RACCORDO
100
AcDbLine
 62
253
  6
CONTINUOUS
 10
-40.0704999495
 20
36.110837938
 11
-40.0704999495
 21
38.7161327525
  0
LINE
  5
287
100
AcDbEntity
  8
RACCORDO
100
AcDbLine
 62
253
  6
CONTINUOUS
 10
-40.0704999495
 20
41.2838672475
 11
-40.0704999495
 21
43.889162062
  0
LINE
  5
288
100
AcDbEntity
  8
RACCORDO
100
AcDbLine
 62
253
  6
CONTINUOUS
 10
-39.7969975508
 20
-43.6156596632
 11
-39.7969975508
 21
-42.057730306
  0
LINE
  5
289
100
AcDbEntity
  8
RACCORDO
100
AcDbLine
 62
253
  6
CONTINUOUS
 10
-39.7969975508
 20
-37.942269694
 11
-39.7969975508
 21
-36.3843403368
  0
LINE
  5
28A
100
AcDbEntity
  8
RACCORDO
100
AcDbLine
 62
253
  6
CONTINUOUS
 10
-39.7969975508
 20
36.3843403368
 11
-39.7969975508
 21
37.942269694
  0
LINE
  5
28B
100
AcDbEntity
  8
RACCORDO
100
AcDbLine
 62
253
  6
CONTINUOUS
 10
-39.7969975508
 20
42.057730306
 11
-39.7969975508
 21
43.6156596632
  0
LINE
  5
28C
100
AcDbEntity
  8
RACCORDO
100
AcDbLine
 62
253
  6
CONTINUOUS
 10
-39.7716415401
 20
44.3374496761
 11
-39.7716415401
 21
44.1880204714
  0
LINE
  5
28D
100
AcDbEntity
  8
RACCORDO
100
AcDbLine
 62
253
  6
CONTINUOUS
 10
-39.7716415401
 20
-44.3374496761
 11
-39.7716415401
 21
-44.1880204714
  0
LINE
  5
28E
100
AcDbEntity
  8
RACCORDO
100
AcDbLine
 62
253
  6
CONTINUOUS
 10
-39.7716415401
 20
-35.6625503239
 11
-39.7716415401
 21
-35.8119795286
  0
LINE
  5
28F
100
AcDbEntity
  8
RACCORDO
100
AcDbLine
 62
253
  6
CONTINUOUS
 10
-39.7716415401
 20
35.6625503239
 11
-39.7716415401
 21
35.8119795286
  0
LINE
  5
290
100
AcDbEntity
  8
RACCORDO
100
AcDbLine
 62
253
  6
CONTINUOUS
 10
-39.6475683461
 20
-43.6156596632
 11
-39.6475683461
 21
-42.2539203175
  0
LINE
  5
291
100
AcDbEntity
  8
RACCORDO
100
AcDbLine
 62
253
  6
CONTINUOUS
 10
-39.6475683461
 20
-37.7460796825
 11
-39.6475683461
 21
-36.3843403368
  0
LINE
  5
292
100
AcDbEntity
  8
RACCORDO
100
AcDbLine
 62
253
  6
CONTINUOUS
 10
-39.6475683461
 20
36.3843403368
 11
-39.6475683461
 21
37.7460796825
  0
LINE
  5
293
100
AcDbEntity
  8
RACCORDO
100
AcDbLine
 62
253
  6
CONTINUOUS
 10
-39.6475683461
 20
42.2539203175
 11
-39.6475683461
 21
43.6156596632
  0
LINE
  5
294
100
AcDbEntity
  8
RACCORDO
100
AcDbLine
 62
253
  6
CONTINUOUS
 10
-39.4981391414
 20
36.2349111321
 11
-39.4981391414
 21
36.0854819274
  0
LINE
  5
295
100
AcDbEntity
  8
RACCORDO
100
AcDbLine
 62
253
  6
CONTINUOUS
 10
-39.4981391414
 20
-36.2349111321
 11
-39.4981391414
 21
-36.0854819274
  0
LINE
  5
296
100
AcDbEntity
  8
RACCORDO
100
AcDbLine
 62
253
  6
CONTINUOUS
 10
-39.4981391414
 20
-43.7650888679
 11
-39.4981391414
 21
-43.9145180726
  0
LINE
  5
297
100
AcDbEntity
  8
RACCORDO
100
AcDbLine
 62
253
  6
CONTINUOUS
 10
-39.4981391414
 20
43.7650888679
 11
-39.4981391414
 21
43.9145180726
  0
LINE
  5
298
100
AcDbEntity
  8
RACCORDO
100
AcDbLine
 62
253
  6
CONTINUOUS
 10
-38.466819815
 20
36.2349111321
 11
-38.466819815
 21
36.0854819274
  0
LINE
  5
299
100
AcDbEntity
  8
RACCORDO
100
AcDbLine
 62
253
  6
CONTINUOUS
 10
-38.466819815
 20
-36.2349111321
 11
-38.466819815
 21
-36.0854819274
  0
LINE
  5
29A
100
AcDbEntity
  8
RACCORDO
100
AcDbLine
 62
253
  6
CONTINUOUS
 10
-38.466819815
 20
-43.7650888679
 11
-38.466819815
 21
-43.9145180726
  0
LINE
  5
29B
100
AcDbEntity
  8
RACCORDO
100
AcDbLine
 62
253
  6
CONTINUOUS
 10
-38.466819815
 20
43.7650888679
 11
-38.466819815
 21
43.9145180726
  0
LINE
  5
29C
100
AcDbEntity
  8
RACCORDO
100
AcDbLine
 62
253
  6
CONTINUOUS
 10
-38.3173906103
 20
43.6156596632
 11
-38.3173906103
 21
42.2539203175
  0
LINE
  5
29D
100
AcDbEntity
  8
RACCORDO
100
AcDbLine
 62
253
  6
CONTINUOUS
 10
-38.3173906103
 20
37.7460796825
 11
-38.3173906103
 21
36.3843403368
  0
LINE
  5
29E
100
AcDbEntity
  8
RACCORDO
100
AcDbLine
 62
253
  6
CONTINUOUS
 10
-38.3173906103
 20
-36.3843403368
 11
-38.3173906103
 21
-37.7460796825
  0
LINE
  5
29F
100
AcDbEntity
  8
RACCORDO
100
AcDbLine
 62
253
  6
CONTINUOUS
 10
-38.3173906103
 20
-42.2539203175
 11
-38.3173906103
 21
-43.6156596632
  0
LINE
  5
2A0
100
AcDbEntity
  8
RACCORDO
100
AcDbLine
 62
253
  6
CONTINUOUS
 10
-38.1933174162
 20
44.3374496761
 11
-38.1933174162
 21
44.1880204714
  0
LINE
  5
2A1
100
AcDbEntity
  8
RACCORDO
100
AcDbLine
 62
253
  6
CONTINUOUS
 10
-38.1933174162
 20
-44.3374496761
 11
-38.1933174162
 21
-44.1880204714
  0
LINE
  5
2A2
100
AcDbEntity
  8
RACCORDO
100
AcDbLine
 62
253
  6
CONTINUOUS
 10
-38.1933174162
 20
-35.6625503239
 11
-38.1933174162
 21
-35.8119795286
  0
LINE
  5
2A3
100
AcDbEntity
  8
RACCORDO
100
AcDbLine
 62
253
  6
CONTINUOUS
 10
-38.1933174162
 20
35.6625503239
 11
-38.1933174162
 21
35.8119795286
  0
LINE
  5
2A4
100
AcDbEntity
  8
RACCORDO
100
AcDbLine
 62
253
  6
CONTINUOUS
 10
-38.1679614055
 20
43.6156596632
 11
-38.1679614055
 21
42.057730306
  0
LINE
  5
2A5
100
AcDbEntity
  8
RACCORDO
100
AcDbLine
 62
253
  6
CONTINUOUS
 10
-38.1679614055
 20
37.942269694
 11
-38.1679614055
 21
36.3843403368
  0
LINE
  5
2A6
100
AcDbEntity
  8
RACCORDO
100
AcDbLine
 62
253
  6
CONTINUOUS
 10
-38.1679614055
 20
-36.3843403368
 11
-38.1679614055
 21
-37.942269694
  0
LINE
  5
2A7
100
AcDbEntity
  8
RACCORDO
100
AcDbLine
 62
253
  6
CONTINUOUS
 10
-38.1679614055
 20
-42.057730306
 11
-38.1679614055
 21
-43.6156596632
  0
LINE
  5
2A8
100
AcDbEntity
  8
RACCORDO
100
AcDbLine
 62
253
  6
CONTINUOUS
 10
-37.8944590068
 20
43.889162062
 11
-37.8944590068
 21
41.2838672475
  0
LINE
  5
2A9
100
AcDbEntity
  8
RACCORDO
100
AcDbLine
 62
253
  6
CONTINUOUS
 10
-37.8944590068
 20
38.7161327525
 11
-37.8944590068
 21
36.110837938
  0
LINE
  5
2AA
100
AcDbEntity
  8
RACCORDO
100
AcDbLine
 62
253
  6
CONTINUOUS
 10
-37.8944590068
 20
-36.110837938
 11
-37.8944590068
 21
-38.7161327525
  0
LINE
  5
2AB
100
AcDbEntity
  8
RACCORDO
100
AcDbLine
 62
253
  6
CONTINUOUS
 10
-37.8944590068
 20
-41.2838672475
 11
-37.8944590068
 21
-43.889162062
  0
LWPOLYLINE
  5
2AC
100
AcDbEntity
  8
RACCORDO
100
AcDbPolyline
 62
7
  6
CONTINUOUS
 90
16
 70
0
 10
-39.9075021511
 20
38.8158859758
 10
-39.9076073705
 20
38.7939333502
 10
-39.9078569109
 20
38.773198784
 10
-39.9082507724
 20
38.7536822772
 10
-39.9088023847
 20
38.7352541469
 10
-39.909498318
 20
38.718044076
 10
-39.9102982828
 20
38.7024411131
 10
-39.9112064438
 20
38.6885124121
 10
-39.9122186362
 20
38.6761908191
 10
-39.9132820757
 20
38.6656639208
 10
-39.9143879418
 20
38.65703847
 10
-39.9155450549
 20
38.6502077139
 10
-39.9167270914
 20
38.6450389802
 10
-39.9179252767
 20
38.6414880449
 10
-39.9191483854
 20
38.639599132
 10
-39.9203964175
 20
38.6393722416
  0
LWPOLYLINE
  5
2AD
100
AcDbEntity
  8
RACCORDO
100
AcDbPolyline
 62
7
  6
CONTINUOUS
 90
16
 70
0
 10
-39.9075021511
 20
-41.1841140242
 10
-39.9076073705
 20
-41.2060666498
 10
-39.9078569109
 20
-41.226801216
 10
-39.9082507724
 20
-41.2463177228
 10
-39.9088023847
 20
-41.2647458531
 10
-39.909498318
 20
-41.281955924
 10
-39.9102982828
 20
-41.2975588869
 10
-39.9112064438
 20
-41.3114875879
 10
-39.9122186362
 20
-41.3238091809
 10
-39.9132820757
 20
-41.3343360792
 10
-39.9143879418
 20
-41.34296153
 10
-39.9155450549
 20
-41.3497922861
 10
-39.9167270914
 20
-41.3549610198
 10
-39.9179252767
 20
-41.3585119551
 10
-39.9191483854
 20
-41.360400868
 10
-39.9203964175
 20
-41.3606277584
  0
LWPOLYLINE
  5
2AE
100
AcDbEntity
  8
RACCORDO
100
AcDbPolyline
 62
7
  6
CONTINUOUS
 90
16
 70
0
 10
-38.0574568052
 20
41.1841140242
 10
-38.0573515858
 20
41.2060666498
 10
-38.0571020454
 20
41.226801216
 10
-38.0567081839
 20
41.2463177228
 10
-38.0561565716
 20
41.2647458531
 10
-38.0554606383
 20
41.281955924
 10
-38.0546606735
 20
41.2975588869
 10
-38.0537525125
 20
41.3114875879
 10
-38.0527403201
 20
41.3238091809
 10
-38.0516768807
 20
41.3343360792
 10
-38.0505710145
 20
41.34296153
 10
-38.0494139014
 20
41.3497922861
 10
-38.048231865
 20
41.3549610198
 10
-38.0470336796
 20
41.3585119551
 10
-38.0458105709
 20
41.360400868
 10
-38.0445625388
 20
41.3606277584
  0
LWPOLYLINE
  5
2AF
100
AcDbEntity
  8
RACCORDO
100
AcDbPolyline
 62
7
  6
CONTINUOUS
 90
16
 70
0
 10
-38.0574568052
 20
-38.8158859758
 10
-38.0573515858
 20
-38.7939333502
 10
-38.0571020454
 20
-38.773198784
 10
-38.0567081839
 20
-38.7536822772
 10
-38.0561565716
 20
-38.7352541469
 10
-38.0554606383
 20
-38.718044076
 10
-38.0546606735
 20
-38.7024411131
 10
-38.0537525125
 20
-38.6885124121
 10
-38.0527403201
 20
-38.6761908191
 10
-38.0516768807
 20
-38.6656639208
 10
-38.0505710145
 20
-38.65703847
 10
-38.0494139014
 20
-38.6502077139
 10
-38.048231865
 20
-38.6450389802
 10
-38.0470336796
 20
-38.6414880449
 10
-38.0458105709
 20
-38.639599132
 10
-38.0445625388
 20
-38.6393722416
  0
LWPOLYLINE
  5
2B0
100
AcDbEntity
  8
RACCORDO
100
AcDbPolyline
 62
253
  6
CONTINUOUS
 90
22
 70
0
 10
-40.0704999495
 20
43.889162062
 10
-40.0697406012
 20
43.9117511554
 10
-40.0672966029
 20
43.9341591189
 10
-40.0631902772
 20
43.9562630085
 10
-40.0574559118
 20
43.9779359578
 10
-40.0501315722
 20
43.999067416
 10
-40.0412535552
 20
44.0195619389
 10
-40.0308714327
 20
44.0393113209
 10
-40.0190470913
 20
44.0582048344
 10
-40.005840686
 20
44.0761467916
 10
-39.9913226384
 20
44.0930409412
 10
-39.9755757038
 20
44.1087919154
 10
-39.9586872718
 20
44.1233127143
 10
-39.9407553533
 20
44.1365194474
 10
-39.9218743329
 20
44.1483440763
 10
-39.9021324364
 20
44.1587306104
 10
-39.8816366712
 20
44.167617217
 10
-39.8604975969
 20
44.1749514337
 10
-39.8388116808
 20
44.1806952981
 10
-39.8166898838
 20
44.1848095981
 10
-39.7942587643
 20
44.187259119
 10
-39.7716415401
 20
44.1880204714
  0
LWPOLYLINE
  5
2B1
100
AcDbEntity
  8
RACCORDO
100
AcDbPolyline
 62
253
  6
CONTINUOUS
 90
22
 70
0
 10
-37.8944590068
 20
36.110837938
 10
-37.8952183551
 20
36.0882488446
 10
-37.8976623534
 20
36.0658408811
 10
-37.9017686791
 20
36.0437369915
 10
-37.9075030445
 20
36.0220640422
 10
-37.9148273841
 20
36.000932584
 10
-37.9237054011
 20
35.9804380611
 10
-37.9340875237
 20
35.9606886791
 10
-37.9459118651
 20
35.9417951656
 10
-37.9591182703
 20
35.9238532084
 10
-37.9736363179
 20
35.9069590588
 10
-37.9893832525
 20
35.8912080846
 10
-38.0062716845
 20
35.8766872857
 10
-38.0242036031
 20
35.8634805526
 10
-38.0430846234
 20
35.8516559237
 10
-38.0628265199
 20
35.8412693896
 10
-38.0833222851
 20
35.832382783
 10
-38.1044613594
 20
35.8250485663
 10
-38.1261472756
 20
35.8193047019
 10
-38.1482690725
 20
35.8151904019
 10
-38.170700192
 20
35.812740881
 10
-38.1933174162
 20
35.8119795286
  0
LWPOLYLINE
  5
2B2
100
AcDbEntity
  8
RACCORDO
100
AcDbPolyline
 62
253
  6
CONTINUOUS
 90
22
 70
0
 10
-40.0704999495
 20
-36.110837938
 10
-40.0697406012
 20
-36.0882488446
 10
-40.0672966029
 20
-36.0658408811
 10
-40.0631902772
 20
-36.0437369915
 10
-40.0574559118
 20
-36.0220640422
 10
-40.0501315722
 20
-36.000932584
 10
-40.0412535552
 20
-35.9804380611
 10
-40.0308714327
 20
-35.9606886791
 10
-40.0190470913
 20
-35.9417951656
 10
-40.005840686
 20
-35.9238532084
 10
-39.9913226384
 20
-35.9069590588
 10
-39.9755757038
 20
-35.8912080846
 10
-39.9586872718
 20
-35.8766872857
 10
-39.9407553533
 20
-35.8634805526
 10
-39.9218743329
 20
-35.8516559237
 10
-39.9021324364
 20
-35.8412693896
 10
-39.8816366712
 20
-35.832382783
 10
-39.8604975969
 20
-35.8250485663
 10
-39.8388116808
 20
-35.8193047019
 10
-39.8166898838
 20
-35.8151904019
 10
-39.7942587643
 20
-35.812740881
 10
-39.7716415401
 20
-35.8119795286
  0
LWPOLYLINE
  5
2B3
100
AcDbEntity
  8
RACCORDO
100
AcDbPolyline
 62
7
  6
CONTINUOUS
 90
22
 70
0
 10
-37.4824794782
 20
56.7500761524
 10
-37.4810880052
 20
56.7873563724
 10
-37.4769134302
 20
56.8244787277
 10
-37.4699677409
 20
56.8612348281
 10
-37.4602638988
 20
56.8974647375
 10
-37.4478528593
 20
56.9329122018
 10
-37.4328588953
 20
56.9672382355
 10
-37.4154472983
 20
57.0001538505
 10
-37.395689699
 20
57.0315999639
 10
-37.3735799978
 20
57.0615826482
 10
-37.349119066
 20
57.0900291766
 10
-37.3225086548
 20
57.1166395878
 10
-37.2940621264
 20
57.1411005197
 10
-37.264079442
 20
57.1632102209
 10
-37.2326333287
 20
57.1829678202
 10
-37.1997177136
 20
57.2003794172
 10
-37.1653916799
 20
57.2153733812
 10
-37.1299442157
 20
57.2277844206
 10
-37.0937143062
 20
57.2374882628
 10
-37.0569582059
 20
57.2444339521
 10
-37.0198358505
 20
57.248608527
 10
-36.9825556306
 20
57.25
  0
LWPOLYLINE
  5
2B4
100
AcDbEntity
  8
RACCORDO
100
AcDbPolyline
 62
253
  6
CONTINUOUS
 90
22
 70
0
 10
-37.4553784326
 20
56.7229751068
 10
-37.4539773314
 20
56.7603363245
 10
-37.4497885423
 20
56.7974877028
 10
-37.4428355891
 20
56.8342215915
 10
-37.4331574732
 20
56.8703326973
 10
-37.4208083671
 20
56.9056191763
 10
-37.4058573042
 20
56.9398837602
 10
-37.3883879413
 20
56.9729349183
 10
-37.3684980116
 20
57.0045879718
 10
-37.3462986659
 20
57.0346660573
 10
-37.3219140831
 20
57.0630009964
 10
-37.2954805723
 20
57.0894345144
 10
-37.2671456496
 20
57.1138190969
 10
-37.2370676016
 20
57.1360184305
 10
-37.2054145988
 20
57.1559083468
 10
-37.1723634726
 20
57.1733777138
 10
-37.1380988823
 20
57.1883288
 10
-37.1028123721
 20
57.2006779347
 10
-37.0667012258
 20
57.2103560755
 10
-37.0299672931
 20
57.2173090474
 10
-36.9928158626
 20
57.2214978489
 10
-36.955454585
 20
57.2228989544
  0
LWPOLYLINE
  5
2B5
100
AcDbEntity
  8
RACCORDO
100
AcDbPolyline
 62
253
  6
CONTINUOUS
 90
22
 70
0
 10
-37.3054012783
 20
56.7229751068
 10
-37.3043909194
 20
56.7492998209
 10
-37.3014770238
 20
56.7752118205
 10
-37.2966595915
 20
56.8007111058
 10
-37.2898902507
 20
56.825942411
 10
-37.2812173733
 20
56.8507610019
 10
-37.2707860748
 20
56.8747326754
 10
-37.2585673885
 20
56.8978361156
 10
-37.2445902811
 20
56.9200926385
 10
-37.229086769
 20
56.9411319889
 10
-37.2120312147
 20
56.9609337483
 10
-37.1934492556
 20
56.9795183353
 10
-37.1736498203
 20
56.9965767504
 10
-37.1526125015
 20
57.0120833883
 10
-37.1303577065
 20
57.0260638543
 10
-37.1072555852
 20
57.0382859641
 10
-37.0832863626
 20
57.0487207295
 10
-37.0584698138
 20
57.0573971386
 10
-37.0332354141
 20
57.0641699722
 10
-37.0077263219
 20
57.0689908237
 10
-36.9817993789
 20
57.0719080997
 10
-36.955454585
 20
57.0729218002
  0
LWPOLYLINE
  5
2B6
100
AcDbEntity
  8
RACCORDO
100
AcDbPolyline
 62
253
  6
CONTINUOUS
 90
22
 70
0
 10
-40.2199291543
 20
43.889162062
 10
-40.2185881174
 20
43.9232028974
 10
-40.2148235298
 20
43.9566238191
 10
-40.2086353915
 20
43.989424827
 10
-40.1999601614
 20
44.0217673056
 10
-40.1888613807
 20
44.0534898705
 10
-40.1755296722
 20
44.0841083681
 10
-40.1599324444
 20
44.1136112878
 10
-40.1421022889
 20
44.1420101403
 10
-40.1223276024
 20
44.1688553044
 10
-40.1005752637
 20
44.1941266189
 10
-40.076878394
 20
44.217844245
 10
-40.0516247549
 20
44.2396190452
 10
-40.024797858
 20
44.2594167826
 10
-39.9964141915
 20
44.2772716941
 10
-39.9669109814
 20
44.2928973529
 10
-39.9362715328
 20
44.3062654859
 10
-39.9045125405
 20
44.3174043662
 10
-39.8721213141
 20
44.3261123862
 10
-39.8392602902
 20
44.3323223432
 10
-39.8057670322
 20
44.3361014398
 10
-39.7716415401
 20
44.3374496761
  0
LWPOLYLINE
  5
2B7
100
AcDbEntity
  8
RACCORDO
100
AcDbPolyline
 62
253
  6
CONTINUOUS
 90
22
 70
0
 10
-37.7450298021
 20
36.110837938
 10
-37.7463708389
 20
36.0767971026
 10
-37.7501354265
 20
36.0433761809
 10
-37.7563235649
 20
36.010575173
 10
-37.7649987949
 20
35.9782326944
 10
-37.7760975756
 20
35.9465101295
 10
-37.7894292842
 20
35.9158916319
 10
-37.8050265119
 20
35.8863887122
 10
-37.8228566675
 20
35.8579898597
 10
-37.8426313539
 20
35.8311446956
 10
-37.8643836926
 20
35.8058733811
 10
-37.8880805623
 20
35.782155755
 10
-37.9133342015
 20
35.7603809548
 10
-37.9401610984
 20
35.7405832174
 10
-37.9685447648
 20
35.7227283059
 10
-37.998047975
 20
35.7071026471
 10
-38.0286874235
 20
35.6937345141
 10
-38.0604464158
 20
35.6825956338
 10
-38.0928376422
 20
35.6738876138
 10
-38.1256986661
 20
35.6676776568
 10
-38.1591919241
 20
35.6638985602
 10
-38.1933174162
 20
35.6625503239
  0
LWPOLYLINE
  5
2B8
100
AcDbEntity
  8
RACCORDO
100
AcDbPolyline
 62
253
  6
CONTINUOUS
 90
22
 70
0
 10
-40.2199291543
 20
-36.110837938
 10
-40.2185881174
 20
-36.0767971026
 10
-40.2148235298
 20
-36.0433761809
 10
-40.2086353915
 20
-36.010575173
 10
-40.1999601614
 20
-35.9782326944
 10
-40.1888613807
 20
-35.9465101295
 10
-40.1755296722
 20
-35.9158916319
 10
-40.1599324444
 20
-35.8863887122
 10
-40.1421022889
 20
-35.8579898597
 10
-40.1223276024
 20
-35.8311446956
 10
-40.1005752637
 20
-35.8058733811
 10
-40.076878394
 20
-35.782155755
 10
-40.0516247549
 20
-35.7603809548
 10
-40.024797858
 20
-35.7405832174
 10
-39.9964141915
 20
-35.7227283059
 10
-39.9669109814
 20
-35.7071026471
 10
-39.9362715328
 20
-35.6937345141
 10
-39.9045125405
 20
-35.6825956338
 10
-39.8721213141
 20
-35.6738876138
 10
-39.8392602902
 20
-35.6676776568
 10
-39.8057670322
 20
-35.6638985602
 10
-39.7716415401
 20
-35.6625503239
  0
LWPOLYLINE
  5
2B9
100
AcDbEntity
  8
RACCORDO
100
AcDbPolyline
 62
253
  6
CONTINUOUS
 90
19
 70
0
 10
-39.6475683461
 20
43.6156596632
 10
-39.6469633644
 20
43.6288789653
 10
-39.6452680797
 20
43.6417974082
 10
-39.6424824919
 20
43.6544149919
 10
-39.6385693177
 20
43.6668214235
 10
-39.6335658405
 20
43.6789269958
 10
-39.6275839102
 20
43.6904625874
 10
-39.6206017595
 20
43.701415365
 10
-39.6126411557
 20
43.7117981618
 10
-39.6038792513
 20
43.7213803562
 10
-39.5942983267
 20
43.7301442491
 10
-39.5839161016
 20
43.7381075396
 10
-39.5729628868
 20
43.7450927028
 10
-39.5614256119
 20
43.7510783082
 10
-39.5493173475
 20
43.7560857863
 10
-39.536907616
 20
43.7600019047
 10
-39.5242862582
 20
43.7627889189
 10
-39.5113634333
 20
43.7644845733
 10
-39.4981391414
 20
43.7650888679
  0
LWPOLYLINE
  5
2BA
100
AcDbEntity
  8
RACCORDO
100
AcDbPolyline
 62
253
  6
CONTINUOUS
 90
19
 70
0
 10
-38.3173906103
 20
36.3843403368
 10
-38.3179955919
 20
36.3711210347
 10
-38.3196908766
 20
36.3582025918
 10
-38.3224764644
 20
36.3455850081
 10
-38.3263896386
 20
36.3331785765
 10
-38.3313931158
 20
36.3210730042
 10
-38.3373750461
 20
36.3095374126
 10
-38.3443571969
 20
36.298584635
 10
-38.3523178006
 20
36.2882018382
 10
-38.361079705
 20
36.2786196438
 10
-38.3706606296
 20
36.2698557509
 10
-38.3810428548
 20
36.2618924604
 10
-38.3919960695
 20
36.2549072972
 10
-38.4035333444
 20
36.2489216918
 10
-38.4156416088
 20
36.2439142137
 10
-38.4280513403
 20
36.2399980953
 10
-38.4406726981
 20
36.2372110811
 10
-38.453595523
 20
36.2355154267
 10
-38.466819815
 20
36.2349111321
  0
LWPOLYLINE
  5
2BB
100
AcDbEntity
  8
RACCORDO
100
AcDbPolyline
 62
253
  6
CONTINUOUS
 90
19
 70
0
 10
-39.6475683461
 20
-36.3843403368
 10
-39.6469633644
 20
-36.3711210347
 10
-39.6452680797
 20
-36.3582025918
 10
-39.6424824919
 20
-36.3455850081
 10
-39.6385693177
 20
-36.3331785765
 10
-39.6335658405
 20
-36.3210730042
 10
-39.6275839102
 20
-36.3095374126
 10
-39.6206017595
 20
-36.298584635
 10
-39.6126411557
 20
-36.2882018382
 10
-39.6038792513
 20
-36.2786196438
 10
-39.5942983267
 20
-36.2698557509
 10
-39.5839161016
 20
-36.2618924604
 10
-39.5729628868
 20
-36.2549072972
 10
-39.5614256119
 20
-36.2489216918
 10
-39.5493173475
 20
-36.2439142137
 10
-39.536907616
 20
-36.2399980953
 10
-39.5242862582
 20
-36.2372110811
 10
-39.5113634333
 20
-36.2355154267
 10
-39.4981391414
 20
-36.2349111321
  0
LWPOLYLINE
  5
2BC
100
AcDbEntity
  8
RACCORDO
100
AcDbPolyline
 62
253
  6
CONTINUOUS
 90
19
 70
0
 10
-35.3235217299
 20
56.2910879432
 10
-35.3222981934
 20
56.3175974331
 10
-35.3188825453
 20
56.3435061863
 10
-35.3132747855
 20
56.3688142026
 10
-35.3053997225
 20
56.3936996939
 10
-35.2953325478
 20
56.4179844483
 10
-35.2832988365
 20
56.4411338312
 10
-35.2692531407
 20
56.4631266543
 10
-35.2532409082
 20
56.4839841059
 10
-35.2356240578
 20
56.5032351157
 10
-35.2163670972
 20
56.5208424771
 10
-35.1955055185
 20
56.5368433968
 10
-35.1735077173
 20
56.5508784244
 10
-35.1503457365
 20
56.5629034361
 10
-35.1260475332
 20
56.5729625558
 10
-35.1011653735
 20
56.580828705
 10
-35.0758833459
 20
56.586426191
 10
-35.0500173619
 20
56.5898307066
 10
-35.0235674214
 20
56.5910422518
  0
LWPOLYLINE
  5
2BD
100
AcDbEntity
  8
RACCORDO
100
AcDbPolyline
 62
253
  6
CONTINUOUS
 90
19
 70
0
 10
-39.7969975508
 20
43.6156596632
 10
-39.7957679894
 20
43.6416921639
 10
-39.7922835155
 20
43.667514318
 10
-39.7865721366
 20
43.6929321143
 10
-39.7786791529
 20
43.7177545205
 10
-39.768665082
 20
43.7417954008
 10
-39.7566047134
 20
43.7648747223
 10
-39.742589658
 20
43.7868187498
 10
-39.7267264246
 20
43.8074632208
 10
-39.7091330072
 20
43.8266545027
 10
-39.689941707
 20
43.8442478368
 10
-39.6692972782
 20
43.860110952
 10
-39.647353329
 20
43.874125882
 10
-39.624274122
 20
43.8861861345
 10
-39.6002333936
 20
43.8962000968
 10
-39.5754111453
 20
43.9040929701
 10
-39.5499934997
 20
43.909804236
 10
-39.524171496
 20
43.9132886045
 10
-39.4981391414
 20
43.9145180726
  0
LWPOLYLINE
  5
2BE
100
AcDbEntity
  8
RACCORDO
100
AcDbPolyline
 62
253
  6
CONTINUOUS
 90
19
 70
0
 10
-38.1679614055
 20
36.3843403368
 10
-38.1691909669
 20
36.3583078361
 10
-38.1726754408
 20
36.332485682
 10
-38.1783868197
 20
36.3070678857
 10
-38.1862798034
 20
36.2822454795
 10
-38.1962938743
 20
36.2582045992
 10
-38.2083542429
 20
36.2351252777
 10
-38.2223692983
 20
36.2131812502
 10
-38.2382325317
 20
36.1925367792
 10
-38.2558259491
 20
36.1733454973
 10
-38.2750172493
 20
36.1557521632
 10
-38.2956616782
 20
36.139889048
 10
-38.3176056274
 20
36.125874118
 10
-38.3406848343
 20
36.1138138655
 10
-38.3647255628
 20
36.1037999032
 10
-38.3895478111
 20
36.0959070299
 10
-38.4149654566
 20
36.090195764
 10
-38.4407874603
 20
36.0867113955
 10
-38.466819815
 20
36.0854819274
  0
LWPOLYLINE
  5
2BF
100
AcDbEntity
  8
RACCORDO
100
AcDbPolyline
 62
253
  6
CONTINUOUS
 90
19
 70
0
 10
-39.7969975508
 20
-36.3843403368
 10
-39.7957679894
 20
-36.3583078361
 10
-39.7922835155
 20
-36.332485682
 10
-39.7865721366
 20
-36.3070678857
 10
-39.7786791529
 20
-36.2822454795
 10
-39.768665082
 20
-36.2582045992
 10
-39.7566047134
 20
-36.2351252777
 10
-39.742589658
 20
-36.2131812502
 10
-39.7267264246
 20
-36.1925367792
 10
-39.7091330072
 20
-36.1733454973
 10
-39.689941707
 20
-36.1557521632
 10
-39.6692972782
 20
-36.139889048
 10
-39.647353329
 20
-36.125874118
 10
-39.624274122
 20
-36.1138138655
 10
-39.6002333936
 20
-36.1037999032
 10
-39.5754111453
 20
-36.0959070299
 10
-39.5499934997
 20
-36.090195764
 10
-39.524171496
 20
-36.0867113955
 10
-39.4981391414
 20
-36.0854819274
  0
LINE
  5
2C0
100
AcDbEntity
  8
RACCORDO
100
AcDbLine
 62
7
  6
CONTINUOUS
 10
-39.8597050999
 20
41.2119250619
 11
-39.8458210797
 21
41.4119795914
  0
LINE
  5
2C1
100
AcDbEntity
  8
RACCORDO
100
AcDbLine
 62
7
  6
CONTINUOUS
 10
-38.1052538564
 20
38.7880749381
 11
-38.1191378766
 21
38.5880204086
  0
LINE
  5
2C2
100
AcDbEntity
  8
RACCORDO
100
AcDbLine
 62
7
  6
CONTINUOUS
 10
-38.1191378766
 20
38.5880204086
 11
-38.1452428589
 21
38.2351194886
  0
LINE
  5
2C3
100
AcDbEntity
  8
RACCORDO
100
AcDbLine
 62
7
  6
CONTINUOUS
 10
-38.1452428589
 20
38.2351194886
 11
-38.1679614055
 21
37.942269694
  0
LWPOLYLINE
  5
2C4
100
AcDbEntity
  8
RACCORDO
100
AcDbPolyline
 62
253
  6
CONTINUOUS
 90
49
 70
0
 10
22.6190693304
 20
-36.6172813514
 10
22.7828828569
 20
-36.577836681
 10
22.9484147352
 20
-36.5463179259
 10
23.1152818019
 20
-36.5227992626
 10
23.2830559595
 20
-36.5073388944
 10
23.4513902208
 20
-36.4999672867
 10
23.6200203596
 20
-36.5007072064
 10
23.7885883572
 20
-36.5095788124
 10
23.9566681419
 20
-36.5265815321
 10
24.1238916085
 20
-36.5517005038
 10
24.289977707
 20
-36.5849253267
 10
24.4544188353
 20
-36.6261866276
 10
24.6165193273
 20
-36.6753109061
 10
24.776025977
 20
-36.732206825
 10
24.9324499466
 20
-36.796685149
 10
25.0848040803
 20
-36.8682598633
 10
25.2329023731
 20
-36.946716261
 10
25.3763444233
 20
-37.0317122338
 10
25.5139674037
 20
-37.1223258351
 10
25.6456852275
 20
-37.218176629
 10
25.7713016434
 20
-37.3187908361
 10
25.8897268582
 20
-37.4228322519
 10
26.0009241786
 20
-37.5296631332
 10
26.1050785945
 20
-37.6388431731
 10
26.2016864148
 20
-37.749136141
 10
26.2908085235
 20
-37.8597714214
 10
26.3728927797
 20
-37.970448336
 10
26.4481528837
 20
-38.0805964236
 10
26.5168123015
 20
-38.1896384422
 10
26.5792782524
 20
-38.29729532
 10
26.6360374836
 20
-38.4035086241
 10
26.6873822776
 20
-38.5079396831
 10
26.7336255637
 20
-38.6103107071
 10
26.775223833
 20
-38.7107330229
 10
26.812445819
 20
-38.8089703151
 10
26.8455676177
 20
-38.904827423
 10
26.8749852762
 20
-38.9985389361
 10
26.9009591547
 20
-39.0900505475
 10
26.9236880528
 20
-39.1791246984
 10
26.9434270322
 20
-39.2657599769
 10
26.960285771
 20
-39.3492902092
 10
26.9746070816
 20
-39.4301736464
 10
26.9868528347
 20
-39.5101395058
 10
26.9970493481
 20
-39.5886882326
 10
27.0053475072
 20
-39.6662095733
 10
27.0120573717
 20
-39.745817901
 10
27.0170961002
 20
-39.8285382028
 10
27.0202235406
 20
-39.9132804493
 10
27.0212981058
 20
-40.0
  0
LWPOLYLINE
  5
2C5
100
AcDbEntity
  8
RACCORDO
100
AcDbPolyline
 62
253
  6
CONTINUOUS
 90
16
 70
0
 10
39.1840318907
 20
-38.0334581702
 10
39.1696822887
 20
-38.0347981045
 10
39.1554874642
 20
-38.0382794664
 10
39.1416004507
 20
-38.0438647126
 10
39.1281709627
 20
-38.0514936175
 10
39.1153437791
 20
-38.0610839245
 10
39.1032571831
 20
-38.0725322338
 10
39.0920414757
 20
-38.0857151136
 10
39.0818175668
 20
-38.1004904345
 10
39.0726956703
 20
-38.116698906
 10
39.0647741238
 20
-38.1341657824
 10
39.0581383229
 20
-38.1527027545
 10
39.0528597992
 20
-38.1721099871
 10
39.0489954559
 20
-38.1921782584
 10
39.0465869517
 20
-38.2126912139
 10
39.045660249
 20
-38.2334277091
  0
LWPOLYLINE
  5
2C6
100
AcDbEntity
  8
RACCORDO
100
AcDbPolyline
 62
253
  6
CONTINUOUS
 90
9
 70
0
 10
43.6234021759
 20
-38.2187629324
 10
43.68011675
 20
-38.2165245472
 10
43.7295307981
 20
-38.2142492041
 10
43.7715123571
 20
-38.2119373876
 10
43.8059823268
 20
-38.2095886133
 10
43.8328682178
 20
-38.2072216564
 10
43.8521104905
 20
-38.2048427753
 10
43.8636675043
 20
-38.2024457117
 10
43.8675205218
 20
-38.2000304656
  0
LWPOLYLINE
  5
2C7
100
AcDbEntity
  8
RACCORDO
100
AcDbPolyline
 62
253
  6
CONTINUOUS
 90
10
 70
0
 10
43.3824206309
 20
-38.0209322438
 10
43.4415779256
 20
-38.0187486145
 10
43.4942978975
 20
-38.0165078572
 10
43.5401252766
 20
-38.0142302427
 10
43.5789792819
 20
-38.011916272
 10
43.6109406946
 20
-38.009565444
 10
43.6357965877
 20
-38.0071965261
 10
43.6534759856
 20
-38.004815774
 10
43.6640498641
 20
-38.002416932
 10
43.6675182231
 20
-38.0
  0
LINE
  5
2C8
100
AcDbEntity
  8
RACCORDO
100
AcDbLine
 62
253
  6
CONTINUOUS
 10
43.488854756
 20
-38.2230671031
 11
43.6234021759
 21
-38.2187629324
  0
LINE
  5
2C9
100
AcDbEntity
  8
RACCORDO
100
AcDbLine
 62
253
  6
CONTINUOUS
 10
43.2446875217
 20
-38.0251260447
 11
43.3824206309
 21
-38.0209322438
  0
LINE
  5
2CA
100
AcDbEntity
  8
RACCORDO
100
AcDbLine
 62
253
  6
CONTINUOUS
 10
43.3274430846
 20
-38.2271243818
 11
43.488854756
 21
-38.2230671031
  0
LINE
  5
2CB
100
AcDbEntity
  8
RACCORDO
100
AcDbLine
 62
253
  6
CONTINUOUS
 10
43.0830182702
 20
-38.0290389119
 11
43.2446875217
 21
-38.0251260447
  0
LINE
  5
2CC
100
AcDbEntity
  8
RACCORDO
100
AcDbLine
 62
253
  6
CONTINUOUS
 10
43.039059927
 20
-38.2326360014
 11
43.3274430846
 21
-38.2271243818
  0
LINE
  5
2CD
100
AcDbEntity
  8
RACCORDO
100
AcDbLine
 62
253
  6
CONTINUOUS
 10
42.7988952789
 20
-38.0343060599
 11
43.0830182702
 21
-38.0290389119
  0
LINE
  5
2CE
100
AcDbEntity
  8
RACCORDO
100
AcDbLine
 62
253
  6
CONTINUOUS
 10
42.5791048197
 20
-38.2387231774
 11
43.039059927
 21
-38.2326360014
  0
LINE
  5
2CF
100
AcDbEntity
  8
RACCORDO
100
AcDbLine
 62
253
  6
CONTINUOUS
 10
41.9797097358
 20
-38.0431593841
 11
42.7988952789
 21
-38.0343060599
  0
LINE
  5
2D0
100
AcDbEntity
  8
RACCORDO
100
AcDbLine
 62
253
  6
CONTINUOUS
 10
41.9110096629
 20
-38.2439544676
 11
42.5791048197
 21
-38.2387231774
  0
LINE
  5
2D1
100
AcDbEntity
  8
RACCORDO
100
AcDbLine
 62
253
  6
CONTINUOUS
 10
41.3103470373
 20
-38.0460333889
 11
41.9797097358
 21
-38.0431593841
  0
LINE
  5
2D2
100
AcDbEntity
  8
RACCORDO
100
AcDbLine
 62
253
  6
CONTINUOUS
 10
19.863898907
 20
-40.0089602058
 11
19.9709740885
 21
-40.0087791295
  0
LINE
  5
2D3
100
AcDbEntity
  8
RACCORDO
100
AcDbLine
 62
253
  6
CONTINUOUS
 10
-16.8288578633
 20
-39.9910397942
 11
-16.9359330448
 21
-39.9912208705
  0
LINE
  5
2D4
100
AcDbEntity
  8
RACCORDO
100
AcDbLine
 62
253
  6
CONTINUOUS
 10
41.0351145276
 20
-38.2462854955
 11
41.9110096629
 21
-38.2439544676
  0
LINE
  5
2D5
100
AcDbEntity
  8
RACCORDO
100
AcDbLine
 62
7
  6
CONTINUOUS
 10
38.8194962441
 20
-42.0
 11
43.8674601371
 21
-42.0
  0
LINE
  5
2D6
100
AcDbEntity
  8
RACCORDO
100
AcDbLine
 62
7
  6
CONTINUOUS
 10
43.6675182231
 20
-38.0
 11
42.3675205218
 21
-38.0
  0
LINE
  5
2D7
100
AcDbEntity
  8
RACCORDO
100
AcDbLine
 62
7
  6
CONTINUOUS
 10
39.6675205218
 20
-38.0
 11
39.2174900609
 21
-38.0
  0
LINE
  5
2D8
100
AcDbEntity
  8
RACCORDO
100
AcDbLine
 62
253
  6
CONTINUOUS
 10
40.6211307183
 20
-38.0457964232
 11
41.3103470373
 21
-38.0460333889
  0
LINE
  5
2D9
100
AcDbEntity
  8
RACCORDO
100
AcDbLine
 62
253
  6
CONTINUOUS
 10
40.3484079944
 20
-38.0448168313
 11
40.6211307183
 21
-38.0457964232
  0
LINE
  5
2DA
100
AcDbEntity
  8
RACCORDO
100
AcDbLine
 62
253
  6
CONTINUOUS
 10
40.1539306382
 20
-38.2441116942
 11
41.0351145276
 21
-38.2462854955
  0
LINE
  5
2DB
100
AcDbEntity
  8
RACCORDO
100
AcDbLine
 62
253
  6
CONTINUOUS
 10
39.6120717702
 20
-38.2402754638
 11
40.1539306382
 21
-38.2441116942
  0
LWPOLYLINE
  5
2DC
100
AcDbEntity
  8
RACCORDO
100
AcDbPolyline
 62
253
  6
CONTINUOUS
 90
19
 70
0
 10
-38.466819815
 20
-36.2349111321
 10
-38.4536005128
 20
-36.2355161137
 10
-38.44068207
 20
-36.2372113984
 10
-38.4280644863
 20
-36.2399969862
 10
-38.4156580547
 20
-36.2439101604
 10
-38.4035524823
 20
-36.2489136377
 10
-38.3920168907
 20
-36.2548955679
 10
-38.3810641131
 20
-36.2618777187
 10
-38.3706813163
 20
-36.2698383225
 10
-38.361099122
 20
-36.2786002269
 10
-38.3523352291
 20
-36.2881811514
 10
-38.3443719386
 20
-36.2985633766
 10
-38.3373867753
 20
-36.3095165914
 10
-38.33140117
 20
-36.3210538662
 10
-38.3263936918
 20
-36.3331621307
 10
-38.3224775735
 20
-36.3455718622
 10
-38.3196905592
 20
-36.35819322
 10
-38.3179949048
 20
-36.3711160448
 10
-38.3173906103
 20
-36.3843403368
  0
LWPOLYLINE
  5
2DD
100
AcDbEntity
  8
RACCORDO
100
AcDbPolyline
 62
7
  6
CONTINUOUS
 90
28
 70
0
 10
-19.5839272437
 20
-36.6173082769
 10
-19.416531796
 20
-36.6661091391
 10
-19.2524465621
 20
-36.7225101941
 10
-19.091671542
 20
-36.7865114418
 10
-18.9337115898
 20
-36.8583964127
 10
-18.7790618513
 20
-36.9378815764
 10
-18.6292077644
 20
-37.0241163413
 10
-18.4844229416
 20
-37.1170285829
 10
-18.3444337704
 20
-37.2166904257
 10
-18.2099048505
 20
-37.3224676523
 10
-18.0807671533
 20
-37.434470255
 10
-17.9570897074
 20
-37.5525882414
 10
-17.8397441992
 20
-37.6758574169
 10
-17.7289243464
 20
-37.80405126
 10
-17.6244364313
 20
-37.9373962921
 10
-17.5265709862
 20
-38.0756078836
 10
-17.4351431401
 20
-38.2189502468
 10
-17.3503377641
 20
-38.3671591692
 10
-17.2730000036
 20
-38.5191573832
 10
-17.2031776311
 20
-38.6751544762
 10
-17.1408228741
 20
-38.8349408608
 10
-17.0866375609
 20
-38.9968105064
 10
-17.0408021011
 20
-39.1608296965
 10
-17.0031360851
 20
-39.3269321476
 10
-16.9738001116
 20
-39.4932129786
 10
-16.9528477135
 20
-39.6590372293
 10
-16.9402253579
 20
-39.8250398599
 10
-16.9359330448
 20
-39.9912208705
  0
LINE
  5
2DE
100
AcDbEntity
  8
RACCORDO
100
AcDbLine
 62
7
  6
CONTINUOUS
 10
-37.5861220801
 20
-20.3963573981
 11
-37.4824794782
 21
-20.5
  0
LWPOLYLINE
  5
2DF
100
AcDbEntity
  8
RACCORDO
100
AcDbPolyline
 62
7
  6
CONTINUOUS
 90
19
 70
0
 10
-38.1679614055
 20
-37.942269694
 10
-38.1698925909
 20
-37.9260038069
 10
-38.1730692965
 20
-37.910225205
 10
-38.1773624327
 20
-37.8949338885
 10
-38.1826305764
 20
-37.8800555046
 10
-38.1887486806
 20
-37.865664406
 10
-38.1956271098
 20
-37.8519836506
 10
-38.2031208311
 20
-37.8390977453
 10
-38.2111481574
 20
-37.8269221832
 10
-38.219772681
 20
-37.8154265019
 10
-38.2289468631
 20
-37.804578301
 10
-38.2385853799
 20
-37.7944099809
 10
-38.2487511345
 20
-37.7849882811
 10
-38.2594478406
 20
-37.7762684443
 10
-38.2705617001
 20
-37.7682952277
 10
-38.281988411
 20
-37.7612696421
 10
-38.2936440928
 20
-37.7552586912
 10
-38.3054694825
 20
-37.7501953713
 10
-38.3173906103
 20
-37.7460796825
  0
LINE
  5
2E0
100
AcDbEntity
  8
RACCORDO
100
AcDbLine
 62
7
  6
CONTINUOUS
 10
-39.7969975508
 20
37.942269694
 11
-39.8331576874
 21
38.4139491564
  0
LINE
  5
2E1
100
AcDbEntity
  8
RACCORDO
100
AcDbLine
 62
7
  6
CONTINUOUS
 10
-38.1679614055
 20
42.057730306
 11
-38.1318012689
 21
41.5860508436
  0
LWPOLYLINE
  5
2E2
100
AcDbEntity
  8
RACCORDO
100
AcDbPolyline
 62
7
  6
CONTINUOUS
 90
3
 70
0
 10
-39.8331576874
 20
38.4139491564
 10
-39.8569845166
 20
38.7477019663
 10
-39.8597042042
 20
38.7880743331
  0
LWPOLYLINE
  5
2E3
100
AcDbEntity
  8
RACCORDO
100
AcDbPolyline
 62
7
  6
CONTINUOUS
 90
3
 70
0
 10
-38.1318012689
 20
41.5860508436
 10
-38.1079744397
 20
41.2522980337
 10
-38.1052547521
 20
41.2119256669
  0
LWPOLYLINE
  5
2E4
100
AcDbEntity
  8
RACCORDO
100
AcDbPolyline
 62
7
  6
CONTINUOUS
 90
5
 70
0
 10
-37.4553547858
 20
3.8947867145
 10
-37.4545472033
 20
3.8816816334
 10
-37.4520722656
 20
3.8661320111
 10
-37.447980912
 20
3.8509270891
 10
-37.4423174764
 20
3.8362327052
  0
LWPOLYLINE
  5
2E5
100
AcDbEntity
  8
RACCORDO
100
AcDbPolyline
 62
7
  6
CONTINUOUS
 90
10
 70
0
 10
-37.4728334975
 20
3.8799495245
 10
-37.4723936215
 20
3.8709626993
 10
-37.4713772428
 20
3.8618582142
 10
-37.4697592645
 20
3.8526743423
 10
-37.46751613
 20
3.8434539108
 10
-37.4646284008
 20
3.8342405988
 10
-37.4610808954
 20
3.8250789121
 10
-37.4568641767
 20
3.8160295727
 10
-37.4519648361
 20
3.807136543
 10
-37.4463613363
 20
3.798426659
  0
LINE
  5
2E6
100
AcDbEntity
  8
RACCORDO
100
AcDbLine
 62
253
  6
CONTINUOUS
 10
-37.4553784326
 20
3.8974045895
 11
-37.4553547858
 21
3.8947867145
  0
LINE
  5
2E7
100
AcDbEntity
  8
RACCORDO
100
AcDbLine
 62
253
  6
CONTINUOUS
 10
-35.135052043
 20
-56.2525954105
 11
-35.1350283961
 21
-56.2552132855
  0
LINE
  5
2E8
100
AcDbEntity
  8
RACCORDO
100
AcDbLine
 62
253
  6
CONTINUOUS
 10
-37.7450298021
 20
43.889162062
 11
-37.7450298021
 21
41.3513310215
  0
LINE
  5
2E9
100
AcDbEntity
  8
RACCORDO
100
AcDbLine
 62
253
  6
CONTINUOUS
 10
-37.7450298021
 20
38.6486689785
 11
-37.7450298021
 21
36.110837938
  0
LINE
  5
2EA
100
AcDbEntity
  8
RACCORDO
100
AcDbLine
 62
253
  6
CONTINUOUS
 10
-37.7450298021
 20
-36.110837938
 11
-37.7450298021
 21
-38.6486689785
  0
LINE
  5
2EB
100
AcDbEntity
  8
RACCORDO
100
AcDbLine
 62
253
  6
CONTINUOUS
 10
-37.7450298021
 20
-41.3513310215
 11
-37.7450298021
 21
-43.889162062
  0
LINE
  5
2EC
100
AcDbEntity
  8
RACCORDO
100
AcDbLine
 62
7
  6
CONTINUOUS
 10
-37.7324794782
 20
-20.0430193827
 11
-37.7324794782
 21
24.8360387653
  0
LINE
  5
2ED
100
AcDbEntity
  8
RACCORDO
100
AcDbLine
 62
7
  6
CONTINUOUS
 10
-37.4824794782
 20
56.7500761524
 11
-37.4824794782
 21
46.4
  0
LINE
  5
2EE
100
AcDbEntity
  8
DRAFT
100
AcDbLine
 62
7
  6
CONTINUOUS
 10
-37.4824794782
 20
33.6
 11
-37.4824794782
 21
-33.6
  0
LINE
  5
2EF
100
AcDbEntity
  8
RACCORDO
100
AcDbLine
 62
7
  6
CONTINUOUS
 10
-37.4824794782
 20
-46.4
 11
-37.4824794782
 21
-56.7500761524
  0
LINE
  5
2F0
100
AcDbEntity
  8
RACCORDO
100
AcDbLine
 62
253
  6
CONTINUOUS
 10
-37.4728334975
 20
-3.8799495245
 11
-37.4728334975
 21
3.8799495245
  0
LINE
  5
2F1
100
AcDbEntity
  8
RACCORDO
100
AcDbLine
 62
253
  6
CONTINUOUS
 10
-37.4553784326
 20
-56.7229751068
 11
-37.4553784326
 21
-46.3728413299
  0
LINE
  5
2F2
100
AcDbEntity
  8
RACCORDO
100
AcDbLine
 62
253
  6
CONTINUOUS
 10
-37.4553784326
 20
-33.6271586701
 11
-37.4553784326
 21
-3.8974327901
  0
LINE
  5
2F3
100
AcDbEntity
  8
RACCORDO
100
AcDbLine
 62
253
  6
CONTINUOUS
 10
-37.4553784326
 20
3.8974328351
 11
-37.4553784326
 21
33.6271586701
  0
LINE
  5
2F4
100
AcDbEntity
  8
RACCORDO
100
AcDbLine
 62
253
  6
CONTINUOUS
 10
-37.4553784326
 20
46.3728413299
 11
-37.4553784326
 21
56.7229751068
  0
LINE
  5
2F5
100
AcDbEntity
  8
RACCORDO
100
AcDbLine
 62
253
  6
CONTINUOUS
 10
-37.3228563432
 20
-3.7325449351
 11
-37.3228563432
 21
3.7325449351
  0
LINE
  5
2F6
100
AcDbEntity
  8
RACCORDO
100
AcDbLine
 62
253
  6
CONTINUOUS
 10
-37.3054012783
 20
-56.7229751068
 11
-37.3054012783
 21
-46.2204018393
  0
LINE
  5
2F7
100
AcDbEntity
  8
RACCORDO
100
AcDbLine
 62
253
  6
CONTINUOUS
 10
-37.3054012783
 20
-33.7795981607
 11
-37.3054012783
 21
-3.7474274352
  0
LINE
  5
2F8
100
AcDbEntity
  8
RACCORDO
100
AcDbLine
 62
253
  6
CONTINUOUS
 10
-37.3054012783
 20
3.7474274352
 11
-37.3054012783
 21
33.7795981607
  0
LINE
  5
2F9
100
AcDbEntity
  8
RACCORDO
100
AcDbLine
 62
253
  6
CONTINUOUS
 10
-37.3054012783
 20
46.2204018393
 11
-37.3054012783
 21
56.7229751068
  0
LINE
  5
2FA
100
AcDbEntity
  8
RACCORDO
100
AcDbLine
 62
253
  6
CONTINUOUS
 10
-36.955454585
 20
57.2228989544
 11
-36.955454585
 21
57.0729218002
  0
LINE
  5
2FB
100
AcDbEntity
  8
RACCORDO
100
AcDbLine
 62
253
  6
CONTINUOUS
 10
-36.955454585
 20
-57.2228989544
 11
-36.955454585
 21
-57.0729218002
  0
LINE
  5
2FC
100
AcDbEntity
  8
DRAFT
100
AcDbLine
 62
7
  6
CONTINUOUS
 10
-36.3999345431
 20
3.7325449351
 11
-36.3999345431
 21
-3.7325449351
  0
LINE
  5
2FD
100
AcDbEntity
  8
RACCORDO
100
AcDbLine
 62
253
  6
CONTINUOUS
 10
-36.385052043
 20
3.7474274352
 11
-36.385052043
 21
-3.7474274352
  0
LINE
  5
2FE
100
AcDbEntity
  8
RACCORDO
100
AcDbLine
 62
253
  6
CONTINUOUS
 10
-36.2350748887
 20
3.8974045895
 11
-36.2350748887
 21
-3.8974045895
  0
LINE
  5
2FF
100
AcDbEntity
  8
RACCORDO
100
AcDbLine
 62
7
  6
CONTINUOUS
 10
-35.9824794782
 20
57.0729218002
 11
-35.9824794782
 21
-57.0729218002
  0
LINE
  5
300
100
AcDbEntity
  8
RACCORDO
100
AcDbLine
 62
253
  6
CONTINUOUS
 10
-35.8894726105
 20
57.0519757222
 11
-35.8894726105
 21
-57.0519757222
  0
LINE
  5
301
100
AcDbEntity
  8
RACCORDO
100
AcDbLine
 62
253
  6
CONTINUOUS
 10
-35.7400434058
 20
-57.2019528765
 11
-35.7400434058
 21
57.2019528765
  0
LINE
  5
302
100
AcDbEntity
  8
RACCORDO
100
AcDbLine
 62
253
  6
CONTINUOUS
 10
-35.3235217299
 20
-56.2910879432
 11
-35.3235217299
 21
56.2910879432
  0
LINE
  5
303
100
AcDbEntity
  8
RACCORDO
100
AcDbLine
 62
253
  6
CONTINUOUS
 10
-35.1735445757
 20
-56.2910879432
 11
-35.1735445757
 21
56.2910879432
  0
LINE
  5
304
100
AcDbEntity
  8
RACCORDO
100
AcDbLine
 62
253
  6
CONTINUOUS
 10
-35.135052043
 20
-56.2525954105
 11
-35.135052043
 21
56.2525954105
  0
LINE
  5
305
100
AcDbEntity
  8
RACCORDO
100
AcDbLine
 62
253
  6
CONTINUOUS
 10
-35.0235674214
 20
-56.5910422518
 11
-35.0235674214
 21
-56.4410650975
  0
LINE
  5
306
100
AcDbEntity
  8
RACCORDO
100
AcDbLine
 62
253
  6
CONTINUOUS
 10
-35.0235674217
 20
56.4410650975
 11
-35.023567422
 21
56.5910422518
  0
LINE
  5
307
100
AcDbEntity
  8
RACCORDO
100
AcDbLine
 62
253
  6
CONTINUOUS
 10
-34.9850748887
 20
-56.4025725648
 11
-34.9850748887
 21
-56.2
  0
LINE
  5
308
100
AcDbEntity
  8
RACCORDO
100
AcDbLine
 62
253
  6
CONTINUOUS
 10
-34.9850748887
 20
56.2
 11
-34.9850748887
 21
56.4025725648
  0
LINE
  5
309
100
AcDbEntity
  8
ASSI
100
AcDbLine
 62
7
  6
CONTINUOUS
 10
-34.9824794782
 20
56.2
 11
-34.9824794782
 21
-56.2
  0
LWPOLYLINE
  5
30A
100
AcDbEntity
  8
RACCORDO
100
AcDbPolyline
 62
253
  6
CONTINUOUS
 90
22
 70
0
 10
-37.8944590068
 20
-43.889162062
 10
-37.8952183551
 20
-43.9117511554
 10
-37.8976623534
 20
-43.9341591189
 10
-37.9017686791
 20
-43.9562630085
 10
-37.9075030445
 20
-43.9779359578
 10
-37.9148273841
 20
-43.999067416
 10
-37.9237054011
 20
-44.0195619389
 10
-37.9340875237
 20
-44.0393113209
 10
-37.9459118651
 20
-44.0582048344
 10
-37.9591182703
 20
-44.0761467916
 10
-37.9736363179
 20
-44.0930409412
 10
-37.9893832525
 20
-44.1087919154
 10
-38.0062716845
 20
-44.1233127143
 10
-38.0242036031
 20
-44.1365194474
 10
-38.0430846234
 20
-44.1483440763
 10
-38.0628265199
 20
-44.1587306104
 10
-38.0833222851
 20
-44.167617217
 10
-38.1044613594
 20
-44.1749514337
 10
-38.1261472756
 20
-44.1806952981
 10
-38.1482690725
 20
-44.1848095981
 10
-38.170700192
 20
-44.187259119
 10
-38.1933174162
 20
-44.1880204714
  0
LWPOLYLINE
  5
30B
100
AcDbEntity
  8
RACCORDO
100
AcDbPolyline
 62
253
  6
CONTINUOUS
 90
22
 70
0
 10
-37.7450298021
 20
-43.889162062
 10
-37.7463708389
 20
-43.9232028974
 10
-37.7501354265
 20
-43.9566238191
 10
-37.7563235649
 20
-43.989424827
 10
-37.7649987949
 20
-44.0217673056
 10
-37.7760975756
 20
-44.0534898705
 10
-37.7894292842
 20
-44.0841083681
 10
-37.8050265119
 20
-44.1136112878
 10
-37.8228566675
 20
-44.1420101403
 10
-37.8426313539
 20
-44.1688553044
 10
-37.8643836926
 20
-44.1941266189
 10
-37.8880805623
 20
-44.217844245
 10
-37.9133342015
 20
-44.2396190452
 10
-37.9401610984
 20
-44.2594167826
 10
-37.9685447648
 20
-44.2772716941
 10
-37.998047975
 20
-44.2928973529
 10
-38.0286874235
 20
-44.3062654859
 10
-38.0604464158
 20
-44.3174043662
 10
-38.0928376422
 20
-44.3261123862
 10
-38.1256986661
 20
-44.3323223432
 10
-38.1591919241
 20
-44.3361014398
 10
-38.1933174162
 20
-44.3374496761
  0
LWPOLYLINE
  5
30C
100
AcDbEntity
  8
RACCORDO
100
AcDbPolyline
 62
253
  6
CONTINUOUS
 90
19
 70
0
 10
-35.1735445757
 20
56.2910879432
 10
-35.1729763869
 20
56.3041806727
 10
-35.171268836
 20
56.3171676405
 10
-35.1684363334
 20
56.329950109
 10
-35.1645025704
 20
56.3424291353
 10
-35.1594984015
 20
56.3545122977
 10
-35.1534598847
 20
56.3661137031
 10
-35.1464312425
 20
56.3771470661
 10
-35.1384667684
 20
56.3875261067
 10
-35.1296275721
 20
56.3971708894
 10
-35.1199813373
 20
56.4060076323
 10
-35.1096010549
 20
56.4139696046
 10
-35.0985650652
 20
56.4209966279
 10
-35.0869560524
 20
56.4270355642
 10
-35.0748632714
 20
56.4320395736
 10
-35.0623816201
 20
56.4359696872
 10
-35.0496072005
 20
56.4387963812
 10
-35.0366362611
 20
56.4404989906
 10
-35.0235674214
 20
56.4410650975
  0
LWPOLYLINE
  5
30D
100
AcDbEntity
  8
RACCORDO
100
AcDbPolyline
 62
253
  6
CONTINUOUS
 90
19
 70
0
 10
-38.3173906103
 20
-43.6156596632
 10
-38.3179955919
 20
-43.6288789653
 10
-38.3196908766
 20
-43.6417974082
 10
-38.3224764644
 20
-43.6544149919
 10
-38.3263896386
 20
-43.6668214235
 10
-38.3313931158
 20
-43.6789269958
 10
-38.3373750461
 20
-43.6904625874
 10
-38.3443571969
 20
-43.701415365
 10
-38.3523178006
 20
-43.7117981618
 10
-38.361079705
 20
-43.7213803562
 10
-38.3706606296
 20
-43.7301442491
 10
-38.3810428548
 20
-43.7381075396
 10
-38.3919960695
 20
-43.7450927028
 10
-38.4035333444
 20
-43.7510783082
 10
-38.4156416088
 20
-43.7560857863
 10
-38.4280513403
 20
-43.7600019047
 10
-38.4406726981
 20
-43.7627889189
 10
-38.453595523
 20
-43.7644845733
 10
-38.466819815
 20
-43.7650888679
  0
LWPOLYLINE
  5
30E
100
AcDbEntity
  8
RACCORDO
100
AcDbPolyline
 62
253
  6
CONTINUOUS
 90
19
 70
0
 10
-38.1679614055
 20
-43.6156596632
 10
-38.1691909669
 20
-43.6416921639
 10
-38.1726754408
 20
-43.667514318
 10
-38.1783868197
 20
-43.6929321143
 10
-38.1862798034
 20
-43.7177545205
 10
-38.1962938743
 20
-43.7417954008
 10
-38.2083542429
 20
-43.7648747223
 10
-38.2223692983
 20
-43.7868187498
 10
-38.2382325317
 20
-43.8074632208
 10
-38.2558259491
 20
-43.8266545027
 10
-38.2750172493
 20
-43.8442478368
 10
-38.2956616782
 20
-43.860110952
 10
-38.3176056274
 20
-43.874125882
 10
-38.3406848343
 20
-43.8861861345
 10
-38.3647255628
 20
-43.8962000968
 10
-38.3895478111
 20
-43.9040929701
 10
-38.4149654566
 20
-43.909804236
 10
-38.4407874603
 20
-43.9132886045
 10
-38.466819815
 20
-43.9145180726
  0
LINE
  5
30F
100
AcDbEntity
  8
RACCORDO
100
AcDbLine
 62
7
  6
CONTINUOUS
 10
-39.8597050999
 20
-38.7880749381
 11
-39.8458210797
 21
-38.5880204086
  0
LINE
  5
310
100
AcDbEntity
  8
RACCORDO
100
AcDbLine
 62
7
  6
CONTINUOUS
 10
-38.1052538564
 20
-41.2119250619
 11
-38.1191378766
 21
-41.4119795914
  0
LINE
  5
311
100
AcDbEntity
  8
RACCORDO
100
AcDbLine
 62
7
  6
CONTINUOUS
 10
-39.8458210797
 20
-38.5880204086
 11
-39.8197160974
 21
-38.2351194886
  0
LINE
  5
312
100
AcDbEntity
  8
RACCORDO
100
AcDbLine
 62
7
  6
CONTINUOUS
 10
-38.1191378766
 20
-41.4119795914
 11
-38.1452428589
 21
-41.7648805114
  0
LINE
  5
313
100
AcDbEntity
  8
RACCORDO
100
AcDbLine
 62
7
  6
CONTINUOUS
 10
-39.8197160974
 20
-38.2351194886
 11
-39.7969975508
 21
-37.942269694
  0
LINE
  5
314
100
AcDbEntity
  8
RACCORDO
100
AcDbLine
 62
7
  6
CONTINUOUS
 10
-38.1452428589
 20
-41.7648805114
 11
-38.1679614055
 21
-42.057730306
  0
LWPOLYLINE
  5
315
100
AcDbEntity
  8
RACCORDO
100
AcDbPolyline
 62
253
  6
CONTINUOUS
 90
49
 70
0
 10
-19.5840282866
 20
-43.3827186486
 10
-19.7478418132
 20
-43.422163319
 10
-19.9133736915
 20
-43.4536820741
 10
-20.0802407582
 20
-43.4772007374
 10
-20.2480149159
 20
-43.4926611056
 10
-20.4163491771
 20
-43.5000327133
 10
-20.5849793159
 20
-43.4992927936
 10
-20.7535473135
 20
-43.4904211876
 10
-20.9216270982
 20
-43.4734184679
 10
-21.0888505649
 20
-43.4482994962
 10
-21.2549366634
 20
-43.4150746733
 10
-21.4193777916
 20
-43.3738133724
 10
-21.5814782836
 20
-43.3246890939
 10
-21.7409849333
 20
-43.267793175
 10
-21.8974089029
 20
-43.203314851
 10
-22.0497630366
 20
-43.1317401367
 10
-22.1978613294
 20
-43.053283739
 10
-22.3413033796
 20
-42.9682877662
 10
-22.4789263601
 20
-42.8776741649
 10
-22.6106441839
 20
-42.781823371
 10
-22.7362605997
 20
-42.6812091639
 10
-22.8546858145
 20
-42.5771677481
 10
-22.9658831349
 20
-42.4703368668
 10
-23.0700375509
 20
-42.3611568269
 10
-23.1666453711
 20
-42.250863859
 10
-23.2557674799
 20
-42.1402285786
 10
-23.337851736
 20
-42.029551664
 10
-23.41311184
 20
-41.9194035764
 10
-23.4817712578
 20
-41.8103615578
 10
-23.5442372087
 20
-41.70270468
 10
-23.60099644
 20
-41.5964913759
 10
-23.652341234
 20
-41.4920603169
 10
-23.69858452
 20
-41.3896892929
 10
-23.7401827893
 20
-41.2892669771
 10
-23.7774047754
 20
-41.1910296849
 10
-23.810526574
 20
-41.095172577
 10
-23.8399442325
 20
-41.0014610639
 10
-23.865918111
 20
-40.9099494525
 10
-23.8886470091
 20
-40.8208753016
 10
-23.9083859885
 20
-40.7342400231
 10
-23.9252447274
 20
-40.6507097908
 10
-23.9395660379
 20
-40.5698263536
 10
-23.9518117911
 20
-40.4898604942
 10
-23.9620083044
 20
-40.4113117674
 10
-23.9703064636
 20
-40.3337904267
 10
-23.977016328
 20
-40.254182099
 10
-23.9820550565
 20
-40.1714617972
 10
-23.9851824969
 20
-40.0867195507
 10
-23.9862570621
 20
-40.0
  0
LINE
  5
316
100
AcDbEntity
  8
RACCORDO
100
AcDbLine
 62
253
  6
CONTINUOUS
 10
-38.3173906103
 20
-36.3843403368
 11
-38.1679614055
 21
-36.3843403365
  0
LINE
  5
317
100
AcDbEntity
  8
RACCORDO
100
AcDbLine
 62
253
  6
CONTINUOUS
 10
-39.6475683461
 20
-36.3843403368
 11
-39.7969975508
 21
-36.3843403368
  0
LINE
  5
318
100
AcDbEntity
  8
RACCORDO
100
AcDbLine
 62
253
  6
CONTINUOUS
 10
-39.4981391414
 20
-36.2349111321
 11
-38.466819815
 21
-36.2349111321
  0
LINE
  5
319
100
AcDbEntity
  8
RACCORDO
100
AcDbLine
 62
253
  6
CONTINUOUS
 10
-40.2199291543
 20
-36.110837938
 11
-40.0704999495
 21
-36.1108379381
  0
LINE
  5
31A
100
AcDbEntity
  8
RACCORDO
100
AcDbLine
 62
253
  6
CONTINUOUS
 10
-37.7450298021
 20
-36.110837938
 11
-37.8944590068
 21
-36.110837938
  0
LINE
  5
31B
100
AcDbEntity
  8
RACCORDO
100
AcDbLine
 62
253
  6
CONTINUOUS
 10
-39.4981391414
 20
-36.0854819274
 11
-38.466819815
 21
-36.0854819274
  0
LINE
  5
31C
100
AcDbEntity
  8
RACCORDO
100
AcDbLine
 62
253
  6
CONTINUOUS
 10
-39.7716415401
 20
-35.8119795286
 11
-38.1933174162
 21
-35.8119795286
  0
LINE
  5
31D
100
AcDbEntity
  8
RACCORDO
100
AcDbLine
 62
253
  6
CONTINUOUS
 10
-39.7716415401
 20
-35.6625503239
 11
-38.1933174162
 21
-35.6625503239
  0
LINE
  5
31E
100
AcDbEntity
  8
RACCORDO
100
AcDbLine
 62
253
  6
CONTINUOUS
 10
39.7105383198
 20
-38.0403041039
 11
40.3484079944
 21
-38.0448168313
  0
LWPOLYLINE
  5
31F
100
AcDbEntity
  8
RACCORDO
100
AcDbPolyline
 62
253
  6
CONTINUOUS
 90
3
 70
0
 10
39.0456553903
 20
-38.2334277091
 10
39.1498814103
 20
-38.2349771874
 10
39.6120717702
 20
-38.2402754638
  0
LWPOLYLINE
  5
320
100
AcDbEntity
  8
RACCORDO
100
AcDbPolyline
 62
253
  6
CONTINUOUS
 90
3
 70
0
 10
39.1840318908
 20
-38.0334581701
 10
39.2811726933
 20
-38.0350057175
 10
39.7105383198
 20
-38.0403041039
  0
LWPOLYLINE
  5
321
100
AcDbEntity
  8
RACCORDO
100
AcDbPolyline
 62
253
  6
CONTINUOUS
 90
22
 70
0
 10
-38.1933174162
 20
-35.8119795286
 10
-38.1707283228
 20
-35.8127388769
 10
-38.1483203593
 20
-35.8151828752
 10
-38.1262164696
 20
-35.819289201
 10
-38.1045435204
 20
-35.8250235664
 10
-38.0834120621
 20
-35.8323479059
 10
-38.0629175393
 20
-35.8412259229
 10
-38.0431681572
 20
-35.8516080455
 10
-38.0242746438
 20
-35.8634323869
 10
-38.0063326866
 20
-35.8766387921
 10
-37.9894385369
 20
-35.8911568397
 10
-37.9736875627
 20
-35.9069037744
 10
-37.9591667638
 20
-35.9237922063
 10
-37.9459600308
 20
-35.9417241249
 10
-37.9341354019
 20
-35.9606051452
 10
-37.9237488678
 20
-35.9803470418
 10
-37.9148622611
 20
-36.0008428069
 10
-37.9075280445
 20
-36.0219818813
 10
-37.9017841801
 20
-36.0436677974
 10
-37.8976698801
 20
-36.0657895943
 10
-37.8952203591
 20
-36.0882207138
 10
-37.8944590068
 20
-36.110837938
  0
LWPOLYLINE
  5
322
100
AcDbEntity
  8
RACCORDO
100
AcDbPolyline
 62
253
  6
CONTINUOUS
 90
22
 70
0
 10
-38.1933174162
 20
-35.6625503239
 10
-38.1592765807
 20
-35.6638913608
 10
-38.125855659
 20
-35.6676559484
 10
-38.0930546511
 20
-35.6738440867
 10
-38.0607121725
 20
-35.6825193167
 10
-38.0289896077
 20
-35.6936180974
 10
-37.9983711101
 20
-35.706949806
 10
-37.9688681904
 20
-35.7225470337
 10
-37.9404693379
 20
-35.7403771893
 10
-37.9136241738
 20
-35.7601518757
 10
-37.8883528593
 20
-35.7819042145
 10
-37.8646352332
 20
-35.8056010841
 10
-37.8428604329
 20
-35.8308547233
 10
-37.8230626955
 20
-35.8576816202
 10
-37.805207784
 20
-35.8860652866
 10
-37.7895821253
 20
-35.9155684968
 10
-37.7762139923
 20
-35.9462079453
 10
-37.7650751119
 20
-35.9779669376
 10
-37.756367092
 20
-36.010358164
 10
-37.750157135
 20
-36.0432191879
 10
-37.7463780383
 20
-36.0767124459
 10
-37.7450298021
 20
-36.110837938
  0
LWPOLYLINE
  5
323
100
AcDbEntity
  8
RACCORDO
100
AcDbPolyline
 62
253
  6
CONTINUOUS
 90
19
 70
0
 10
-38.466819815
 20
-36.0854819274
 10
-38.4407873143
 20
-36.0867114887
 10
-38.4149651602
 20
-36.0901959626
 10
-38.3895473638
 20
-36.0959073415
 10
-38.3647249577
 20
-36.1038003253
 10
-38.3406840773
 20
-36.1138143962
 10
-38.3176047558
 20
-36.1258747647
 10
-38.2956607284
 20
-36.1398898201
 10
-38.2750162573
 20
-36.1557530536
 10
-38.2558249755
 20
-36.173346471
 10
-38.2382316413
 20
-36.1925377712
 10
-38.2223685262
 20
-36.2131822
 10
-38.2083535962
 20
-36.2351261492
 10
-38.1962933436
 20
-36.2582053561
 10
-38.1862793814
 20
-36.2822460846
 10
-38.1783865081
 20
-36.3070683329
 10
-38.1726752422
 20
-36.3324859785
 10
-38.1691908736
 20
-36.3583079821
 10
-38.1679614055
 20
-36.3843403368
  0
LINE
  5
324
100
AcDbEntity
  8
RACCORDO
100
AcDbLine
 62
7
  6
CONTINUOUS
 10
39.1967357353
 20
-37.9989204702
 11
39.2174900609
 21
-38.0
  0
LWPOLYLINE
  5
325
100
AcDbEntity
  8
RACCORDO
100
AcDbPolyline
 62
7
  6
CONTINUOUS
 90
16
 70
0
 10
43.6675182231
 20
-38.0
 10
43.6884256697
 20
-38.0010963436
 10
43.7091037374
 20
-38.0043724914
 10
43.7293258545
 20
-38.0097924831
 10
43.7488704619
 20
-38.0172969165
 10
43.7675234342
 20
-38.0268034789
 10
43.7850804257
 20
-38.0382078489
 10
43.8013491196
 20
-38.0513850475
 10
43.8161513227
 20
-38.0661906781
 10
43.8293249139
 20
-38.0824623829
 10
43.8407256105
 20
-38.1000218947
 10
43.8502286194
 20
-38.1186768387
 10
43.8577299537
 20
-38.1382227253
 10
43.863147487
 20
-38.1584454261
 10
43.8664218942
 20
-38.1791234972
 10
43.8675173474
 20
-38.2000304656
  0
LWPOLYLINE
  5
326
100
AcDbEntity
  8
RACCORDO
100
AcDbPolyline
 62
7
  6
CONTINUOUS
 90
28
 70
0
 10
22.6189682858
 20
-43.3826917226
 10
22.4515728388
 20
-43.3338908606
 10
22.2874876054
 20
-43.2774898058
 10
22.1267125857
 20
-43.2134885582
 10
21.9687526336
 20
-43.1416035873
 10
21.8141028951
 20
-43.0621184237
 10
21.6642488081
 20
-42.9758836587
 10
21.5194639853
 20
-42.8829714171
 10
21.3794748141
 20
-42.7833095743
 10
21.2449458942
 20
-42.6775323477
 10
21.115808197
 20
-42.565529745
 10
20.9921307511
 20
-42.4474117586
 10
20.8747852429
 20
-42.3241425831
 10
20.7639653901
 20
-42.19594874
 10
20.6594774749
 20
-42.0626037079
 10
20.5616120298
 20
-41.9243921164
 10
20.4701841838
 20
-41.7810497532
 10
20.3853788078
 20
-41.6328408308
 10
20.3080410473
 20
-41.4808426168
 10
20.2382186748
 20
-41.3248455238
 10
20.1758639178
 20
-41.1650591392
 10
20.1216786045
 20
-41.0031894936
 10
20.0758431448
 20
-40.8391703035
 10
20.0381771288
 20
-40.6730678524
 10
20.0088411553
 20
-40.5067870214
 10
19.9878887572
 20
-40.3409627707
 10
19.9752664016
 20
-40.1749601401
 10
19.9709740885
 20
-40.0087791295
  0
LWPOLYLINE
  5
327
100
AcDbEntity
  8
RACCORDO
100
AcDbPolyline
 62
7
  6
CONTINUOUS
 90
19
 70
0
 10
-39.7969975508
 20
37.942269694
 10
-39.7950146804
 20
37.92568172
 10
-39.7917635068
 20
37.9097012283
 10
-39.78740457
 20
37.8943282187
 10
-39.7821270948
 20
37.8795390066
 10
-39.7760682247
 20
37.8653572766
 10
-39.7692616335
 20
37.8518540829
 10
-39.7618130485
 20
37.8390574422
 10
-39.7538229802
 20
37.8269393377
 10
-39.7452342076
 20
37.8154867724
 10
-39.7360972587
 20
37.8046726593
 10
-39.7264907315
 20
37.7945240854
 10
-39.7163462842
 20
37.7851093153
 10
-39.7056555439
 20
37.7763802674
 10
-39.6945333262
 20
37.7683850232
 10
-39.6830875624
 20
37.7613360918
 10
-39.67140347
 20
37.7553043093
 10
-39.6595389152
 20
37.7502188395
 10
-39.6475683461
 20
37.7460796825
  0
LINE
  5
328
100
AcDbEntity
  8
ASSI
100
AcDbLine
 62
7
  6
CONTINUOUS
 10
-30.1824794782
 20
-51.4
 11
-30.1824794782
 21
51.4
  0
LINE
  5
329
100
AcDbEntity
  8
RACCORDO
100
AcDbLine
 62
253
  6
CONTINUOUS
 10
-37.4728334975
 20
3.8799495245
 11
-37.4553784326
 21
3.8974328351
  0
LINE
  5
32A
100
AcDbEntity
  8
RACCORDO
100
AcDbLine
 62
253
  6
CONTINUOUS
 10
-37.3202837784
 20
3.7325449351
 11
-37.3054012783
 21
3.7474274352
  0
LINE
  5
32B
100
AcDbEntity
  8
RACCORDO
100
AcDbLine
 62
7
  6
CONTINUOUS
 10
-36.3999345431
 20
3.7325449351
 11
-36.385052043
 21
3.7474274352
  0
LINE
  5
32C
100
AcDbEntity
  8
RACCORDO
100
AcDbLine
 62
7
  6
CONTINUOUS
 10
-36.3260495651
 20
3.8064185282
 11
-36.2442933034
 21
3.88825385
  0
LINE
  5
32D
100
AcDbEntity
  8
RACCORDO
100
AcDbLine
 62
7
  6
CONTINUOUS
 10
-36.3343205511
 20
3.7981958278
 11
-36.3260495651
 21
3.8064185282
  0
LINE
  5
32E
100
AcDbEntity
  8
RACCORDO
100
AcDbLine
 62
7
  6
CONTINUOUS
 10
-36.2442933034
 20
3.88825385
 11
-36.2350748887
 21
3.8974045895
  0
LWPOLYLINE
  5
32F
100
AcDbEntity
  8
RACCORDO
100
AcDbPolyline
 62
7
  6
CONTINUOUS
 90
3
 70
0
 10
-36.3567544327
 20
3.7757787373
 10
-36.3496729849
 20
3.7827946251
 10
-36.3343205511
 20
3.7981958278
  0
LWPOLYLINE
  5
330
100
AcDbEntity
  8
RACCORDO
100
AcDbPolyline
 62
253
  6
CONTINUOUS
 90
7
 70
0
 10
38.982689145
 20
-38.2279592071
 10
38.992777616
 20
-38.2294640884
 10
39.0030265781
 20
-38.230731584
 10
39.0134374348
 20
-38.2317616938
 10
39.0240115888
 20
-38.232554418
 10
39.034750441
 20
-38.2331097564
 10
39.0456553903
 20
-38.2334277091
  0
LWPOLYLINE
  5
331
100
AcDbEntity
  8
RACCORDO
100
AcDbPolyline
 62
7
  6
CONTINUOUS
 90
7
 70
0
 10
-36.3567007409
 20
-3.7757250455
 10
-36.369086856
 20
-3.7634137241
 10
-36.3742294971
 20
-3.7581838505
 10
-36.3785442287
 20
-3.7539352494
 10
-36.3818916367
 20
-3.7507847055
 10
-36.3841101056
 20
-3.7486154341
 10
-36.385052043
 20
-3.7474274352
  0
LWPOLYLINE
  5
332
100
AcDbEntity
  8
RACCORDO
100
AcDbPolyline
 62
7
  6
CONTINUOUS
 90
3
 70
0
 10
-36.3342836503
 20
-3.798158927
 10
-36.3496848531
 20
-3.7828064932
 10
-36.3567007409
 20
-3.7757250455
  0
LINE
  5
333
100
AcDbEntity
  8
RACCORDO
100
AcDbLine
 62
7
  6
CONTINUOUS
 10
-36.2442256282
 20
-3.8881861747
 11
-36.2721159685
 21
-3.8603741774
  0
LINE
  5
334
100
AcDbEntity
  8
RACCORDO
100
AcDbLine
 62
253
  6
CONTINUOUS
 10
-37.3054012783
 20
-3.7474274352
 11
-37.3202837784
 21
-3.7325449351
  0
LINE
  5
335
100
AcDbEntity
  8
RACCORDO
100
AcDbLine
 62
7
  6
CONTINUOUS
 10
-36.3999345431
 20
-3.7325449351
 11
-36.385052043
 21
-3.7474274352
  0
LINE
  5
336
100
AcDbEntity
  8
RACCORDO
100
AcDbLine
 62
253
  6
CONTINUOUS
 10
-37.4553784326
 20
-3.8974327901
 11
-37.4728334975
 21
-3.8799495245
  0
LINE
  5
337
100
AcDbEntity
  8
RACCORDO
100
AcDbLine
 62
7
  6
CONTINUOUS
 10
-36.2721159685
 20
-3.8603741774
 11
-36.3342836503
 21
-3.798158927
  0
LINE
  5
338
100
AcDbEntity
  8
RACCORDO
100
AcDbLine
 62
7
  6
CONTINUOUS
 10
-36.2350748887
 20
-3.8974045895
 11
-36.2442256282
 21
-3.8881861747
  0
LWPOLYLINE
  5
339
100
AcDbEntity
  8
RACCORDO
100
AcDbPolyline
 62
7
  6
CONTINUOUS
 90
11
 70
0
 10
-37.4423174764
 20
3.8362327052
 10
-37.4351447995
 20
3.8222126841
 10
-37.4265453081
 20
3.8090261491
 10
-37.4166176613
 20
3.7968200561
 10
-37.4054706623
 20
3.7857244336
 10
-37.3932239273
 20
3.7758569592
 10
-37.379992434
 20
3.7673146392
 10
-37.3659391125
 20
3.760206711
 10
-37.3512790958
 20
3.7546307036
 10
-37.3362003708
 20
3.7506333083
 10
-37.3331365497
 20
3.7500227336
  0
LWPOLYLINE
  5
33A
100
AcDbEntity
  8
RACCORDO
100
AcDbPolyline
 62
7
  6
CONTINUOUS
 90
19
 70
0
 10
-38.1679614055
 20
42.057730306
 10
-38.1699443387
 20
42.0743186716
 10
-38.1731956096
 20
42.090299435
 10
-38.1775546458
 20
42.1056725963
 10
-38.182832182
 20
42.1204618083
 10
-38.1888910571
 20
42.1346434181
 10
-38.195697621
 20
42.1481464672
 10
-38.2031461492
 20
42.1609429516
 10
-38.2111361233
 20
42.1730608752
 10
-38.2197247993
 20
42.1845132912
 10
-38.2288616659
 20
42.1953273067
 10
-38.2384681201
 20
42.2054758145
 10
-38.2486125142
 20
42.2148905465
 10
-38.2593032316
 20
42.2236195912
 10
-38.2704254541
 20
42.2316148601
 10
-38.2818712395
 20
42.2386638205
 10
-38.2935553663
 20
42.244695628
 10
-38.3054199728
 20
42.249781127
 10
-38.3173906103
 20
42.2539203175
  0
LWPOLYLINE
  5
33B
100
AcDbEntity
  8
RACCORDO
100
AcDbPolyline
 62
253
  6
CONTINUOUS
 90
61
 70
0
 10
-22.653756053
 20
-40.0
 10
-22.6509643485
 20
-40.1102391119
 10
-22.6425216994
 20
-40.2209403989
 10
-22.6283355685
 20
-40.3318085215
 10
-22.6083081521
 20
-40.4426360606
 10
-22.5823882214
 20
-40.5530071682
 10
-22.5506230058
 20
-40.6623102532
 10
-22.5130268437
 20
-40.7702402607
 10
-22.4696386209
 20
-40.87646495
 10
-22.4206642092
 20
-40.9803595275
 10
-22.3662313082
 20
-41.0816149721
 10
-22.3064687576
 20
-41.1799555417
 10
-22.2416976139
 20
-41.2748591036
 10
-22.1721838003
 20
-41.3660007097
 10
-22.0980878455
 20
-41.4532291185
 10
-22.0196299341
 20
-41.5363240043
 10
-21.9370926965
 20
-41.615033043
 10
-21.8506784145
 20
-41.6892076532
 10
-21.7604809566
 20
-41.7587790541
 10
-21.6667139934
 20
-41.8235741205
 10
-21.5696600845
 20
-41.8833894914
 10
-21.4695047125
 20
-41.9380950832
 10
-21.3664597053
 20
-41.9875499812
 10
-21.2608528132
 20
-42.0315721947
 10
-21.1530563527
 20
-42.0699923248
 10
-21.0433778033
 20
-42.1026986807
 10
-20.9321087887
 20
-42.1296022048
 10
-20.8196147521
 20
-42.1506134305
 10
-20.7062396202
 20
-42.1656773175
 10
-20.5922657464
 20
-42.1747655515
 10
-20.477971715
 20
-42.1778568523
 10
-20.3636740457
 20
-42.1749435606
 10
-20.2496869145
 20
-42.1660347288
 10
-20.1362860412
 20
-42.1511471127
 10
-20.0237548657
 20
-42.1303100371
 10
-19.9124364724
 20
-42.1035792777
 10
-19.8026921674
 20
-42.0710382086
 10
-19.6948129607
 20
-42.0327754232
 10
-19.589108425
 20
-41.9889033604
 10
-19.4859525697
 20
-41.9395866473
 10
-19.3856722069
 20
-41.8850062741
 10
-19.2884825917
 20
-41.8253051044
 10
-19.1945780371
 20
-41.7606143924
 10
-19.1042442401
 20
-41.691141471
 10
-19.017692303
 20
-41.617059819
 10
-18.9350164688
 20
-41.5384352455
 10
-18.8564235455
 20
-41.4554232104
 10
-18.7821911417
 20
-41.3682736463
 10
-18.7125287483
 20
-41.2771881309
 10
-18.6476003256
 20
-41.1823192644
 10
-18.5876731025
 20
-41.0839915534
 10
-18.5330612939
 20
-40.9827024092
 10
-18.4838972125
 20
-40.878719245
 10
-18.4403185396
 20
-40.7723589945
 10
-18.402538625
 20
-40.6642454881
 10
-18.3706030347
 20
-40.5547109795
 10
-18.3445322385
 20
-40.4440647527
 10
-18.3243798088
 20
-40.3329250366
 10
-18.3100996243
 20
-40.2217125486
 10
-18.3015981756
 20
-40.1106375987
 10
-18.2987869602
 20
-40.0
  0
LWPOLYLINE
  5
33C
100
AcDbEntity
  8
RACCORDO
100
AcDbPolyline
 62
253
  6
CONTINUOUS
 90
76
 70
0
 10
-24.1284768065
 20
40.0
 10
-24.1277772191
 20
40.0794790217
 10
-24.1250900561
 20
40.1603143895
 10
-24.1204153158
 20
40.2425061033
 10
-24.1139858092
 20
40.3254913271
 10
-24.1055687186
 20
40.409832897
 10
-24.0944655954
 20
40.497219321
 10
-24.0807218611
 20
40.5882344581
 10
-24.0642920734
 20
40.6822944494
 10
-24.0443414781
 20
40.7793362257
 10
-24.0209464548
 20
40.8793493397
 10
-23.9940305765
 20
40.9823442388
 10
-23.9625298596
 20
41.0882891965
 10
-23.9265098535
 20
41.1972927668
 10
-23.8859049131
 20
41.3092463958
 10
-23.8394542278
 20
41.4237926946
 10
-23.7871416311
 20
41.5411662689
 10
-23.7289831114
 20
41.6611325131
 10
-23.6637660372
 20
41.782630222
 10
-23.5912560355
 20
41.9060207184
 10
-23.5116871794
 20
42.0309426795
 10
-23.4245494498
 20
42.1552509318
 10
-23.3294911033
 20
42.279105466
 10
-23.2268634626
 20
42.4023462914
 10
-23.117211089
 20
42.5223482618
 10
-23.0003100665
 20
42.6389501964
 10
-22.8763838387
 20
42.7523132761
 10
-22.7466480488
 20
42.8602958973
 10
-22.6110307127
 20
42.9626441358
 10
-22.4696033745
 20
43.0596119158
 10
-22.323797063
 20
43.149819407
 10
-22.1736256296
 20
43.2330579615
 10
-22.0190748722
 20
43.3095362272
 10
-21.8615338549
 20
43.3785003173
 10
-21.701070189
 20
43.4398103951
 10
-21.5376160265
 20
43.4936062973
 10
-21.3723573583
 20
43.5395536478
 10
-21.2053503975
 20
43.5775846027
 10
-21.0365388025
 20
43.6077670057
 10
-20.8669398356
 20
43.6299700125
 10
-20.696560679
 20
43.6441619626
 10
-20.5253941177
 20
43.6503745164
 10
-20.3544359115
 20
43.6485718106
 10
-20.1836611684
 20
43.6387176818
 10
-20.0130948397
 20
43.6208482934
 10
-19.8438075434
 20
43.5950362721
 10
-19.6757529788
 20
43.5612148462
 10
-19.5089775973
 20
43.5194507875
 10
-19.3446912438
 20
43.4700170373
 10
-19.1828616464
 20
43.4128067019
 10
-19.0235213185
 20
43.3479266751
 10
-18.8679773832
 20
43.2759705795
 10
-18.7162945117
 20
43.1968512087
 10
-18.5684083546
 20
43.1106557691
 10
-18.4254325888
 20
43.018239503
 10
-18.2875417263
 20
42.9196488617
 10
-18.1545616179
 20
42.8148373937
 10
-18.0270829952
 20
42.7045209871
 10
-17.905194647
 20
42.5888054382
 10
-17.7888081299
 20
42.4675849506
 10
-17.678248341
 20
42.3412580227
 10
-17.5733997914
 20
42.2096964601
 10
-17.4743782728
 20
42.0730284571
 10
-17.3818556135
 20
41.9320370949
 10
-17.2958250987
 20
41.7865640931
 10
-17.216293717
 20
41.6367677321
 10
-17.1439538628
 20
41.4839059346
 10
-17.0789315862
 20
41.328069685
 10
-17.0211010665
 20
41.1691679988
 10
-16.9707768897
 20
41.008185845
 10
-16.9279986717
 20
40.8451426856
 10
-16.8927269557
 20
40.6800190586
 10
-16.8651577044
 20
40.5137415471
 10
-16.8453562667
 20
40.3466190123
 10
-16.833257376
 20
40.1783425929
 10
-16.8288610532
 20
40.0089122891
  0
LWPOLYLINE
  5
33D
100
AcDbEntity
  8
RACCORDO
100
AcDbPolyline
 62
253
  6
CONTINUOUS
 90
76
 70
0
 10
-24.1284768065
 20
-40.0
 10
-24.1277772191
 20
-39.9205209783
 10
-24.1250900561
 20
-39.8396856105
 10
-24.1204153158
 20
-39.7574938967
 10
-24.1139858092
 20
-39.6745086729
 10
-24.1055687186
 20
-39.590167103
 10
-24.0944655954
 20
-39.502780679
 10
-24.0807218611
 20
-39.4117655419
 10
-24.0642920734
 20
-39.3177055506
 10
-24.0443414781
 20
-39.2206637743
 10
-24.0209464548
 20
-39.1206506603
 10
-23.9940305765
 20
-39.0176557612
 10
-23.9625298596
 20
-38.9117108035
 10
-23.9265098535
 20
-38.8027072332
 10
-23.8859049131
 20
-38.6907536043
 10
-23.8394542278
 20
-38.5762073054
 10
-23.7871416311
 20
-38.4588337311
 10
-23.7289831114
 20
-38.3388674869
 10
-23.6637660372
 20
-38.217369778
 10
-23.5912560355
 20
-38.0939792816
 10
-23.5116871794
 20
-37.9690573205
 10
-23.4245494498
 20
-37.8447490682
 10
-23.3294911033
 20
-37.720894534
 10
-23.2268634626
 20
-37.5976537086
 10
-23.117211089
 20
-37.4776517382
 10
-23.0003100665
 20
-37.3610498036
 10
-22.8763838387
 20
-37.2476867239
 10
-22.7466480488
 20
-37.1397041027
 10
-22.6110307127
 20
-37.0373558643
 10
-22.4696033745
 20
-36.9403880842
 10
-22.323797063
 20
-36.850180593
 10
-22.1736256297
 20
-36.7669420385
 10
-22.0190748722
 20
-36.6904637729
 10
-21.8615338549
 20
-36.6214996827
 10
-21.701070189
 20
-36.5601896049
 10
-21.5376160265
 20
-36.5063937027
 10
-21.3723573583
 20
-36.4604463522
 10
-21.2053503975
 20
-36.4224153974
 10
-21.0365388025
 20
-36.3922329943
 10
-20.8669398356
 20
-36.3700299875
 10
-20.696560679
 20
-36.3558380374
 10
-20.5253941177
 20
-36.3496254836
 10
-20.3544359115
 20
-36.3514281894
 10
-20.1836611685
 20
-36.3612823182
 10
-20.0130948397
 20
-36.3791517066
 10
-19.8438075434
 20
-36.4049637279
 10
-19.6757529788
 20
-36.4387851538
 10
-19.5089775973
 20
-36.4805492125
 10
-19.3446912439
 20
-36.5299829627
 10
-19.1828616464
 20
-36.5871932981
 10
-19.0235213185
 20
-36.6520733249
 10
-18.8679773833
 20
-36.7240294205
 10
-18.7162945117
 20
-36.8031487913
 10
-18.5684083547
 20
-36.8893442309
 10
-18.4254325888
 20
-36.981760497
 10
-18.2875417263
 20
-37.0803511383
 10
-18.1545616179
 20
-37.1851626063
 10
-18.0270829952
 20
-37.2954790129
 10
-17.905194647
 20
-37.4111945618
 10
-17.7888081299
 20
-37.5324150494
 10
-17.678248341
 20
-37.6587419773
 10
-17.5733997914
 20
-37.7903035399
 10
-17.4743782728
 20
-37.9269715429
 10
-17.3818556135
 20
-38.0679629051
 10
-17.2958250987
 20
-38.2134359069
 10
-17.216293717
 20
-38.3632322678
 10
-17.1439538628
 20
-38.5160940654
 10
-17.0789315862
 20
-38.671930315
 10
-17.0211010665
 20
-38.8308320012
 10
-16.9707768897
 20
-38.9918141549
 10
-16.9279986717
 20
-39.1548573143
 10
-16.8927269557
 20
-39.3199809414
 10
-16.8651577044
 20
-39.4862584528
 10
-16.8453562667
 20
-39.6533809877
 10
-16.833257376
 20
-39.8216574071
 10
-16.8288610532
 20
-39.9910877109
  0
LWPOLYLINE
  5
33E
100
AcDbEntity
  8
RACCORDO
100
AcDbPolyline
 62
253
  6
CONTINUOUS
 90
49
 70
0
 10
-23.9862570621
 20
40.0
 10
-23.9854684001
 20
40.0743080273
 10
-23.9830461814
 20
40.1498987805
 10
-23.978906286
 20
40.2267341828
 10
-23.973014326
 20
40.3041983676
 10
-23.965260958
 20
40.3828221505
 10
-23.9553322757
 20
40.4642700379
 10
-23.9429464591
 20
40.5489439501
 10
-23.9279423799
 20
40.6362850509
 10
-23.9100406045
 20
40.7264843067
 10
-23.8890077129
 20
40.8193786013
 10
-23.8645845665
 20
40.9148888593
 10
-23.8363880691
 20
41.0132954438
 10
-23.8041248594
 20
41.11441927
 10
-23.7674962603
 20
41.2180658592
 10
-23.7260296804
 20
41.3244356444
 10
-23.6793450542
 20
41.4333501661
 10
-23.6271335558
 20
41.5444267901
 10
-23.5689733454
 20
41.6574921807
 10
-23.5043887482
 20
41.772390857
 10
-23.4331472544
 20
41.8884928131
 10
-23.3552445932
 20
42.0048850194
 10
-23.2702901978
 20
42.1212986792
 10
-23.1781640597
 20
42.2370722289
 10
-23.0794747129
 20
42.3507860389
 10
-22.9741433056
 20
42.4620157874
 10
-22.8621298245
 20
42.5703047721
 10
-22.7443757471
 20
42.6743762989
 10
-22.6211010677
 20
42.7738043158
 10
-22.4923474818
 20
42.8683307979
 10
-22.3590065612
 20
42.9571461962
 10
-22.2214317998
 20
43.0399452843
 10
-22.079773371
 20
43.1165699111
 10
-21.9347392635
 20
43.186599732
 10
-21.7867323819
 20
43.2498475279
 10
-21.6359732132
 20
43.3062262953
 10
-21.4829455887
 20
43.3555682215
 10
-21.3280559863
 20
43.39777232
 10
-21.1715616196
 20
43.4327981165
 10
-21.0137321266
 20
43.4606053502
 10
-20.8549215239
 20
43.4811475891
 10
-20.6954432517
 20
43.4944000654
 10
-20.5355040374
 20
43.500351941
 10
-20.3754219542
 20
43.4989870181
 10
-20.2155476411
 20
43.4903038792
 10
-20.0561364133
 20
43.4743084017
 10
-19.8974971774
 20
43.4510157007
 10
-19.7399911752
 20
43.4204623008
 10
-19.5839518519
 20
43.3826983462
  0
LWPOLYLINE
  5
33F
100
AcDbEntity
  8
RACCORDO
100
AcDbPolyline
 62
253
  6
CONTINUOUS
 90
49
 70
0
 10
-23.9862570621
 20
-40.0
 10
-23.9854684001
 20
-39.9256919727
 10
-23.9830461814
 20
-39.8501012195
 10
-23.978906286
 20
-39.7732658172
 10
-23.973014326
 20
-39.6958016324
 10
-23.965260958
 20
-39.6171778495
 10
-23.9553322757
 20
-39.5357299621
 10
-23.9429464591
 20
-39.4510560499
 10
-23.9279423799
 20
-39.3637149491
 10
-23.9100406045
 20
-39.2735156933
 10
-23.8890077129
 20
-39.1806213987
 10
-23.8645845665
 20
-39.0851111407
 10
-23.8363880691
 20
-38.9867045562
 10
-23.8041248594
 20
-38.88558073
 10
-23.7674962603
 20
-38.7819341408
 10
-23.7260296804
 20
-38.6755643556
 10
-23.6793450542
 20
-38.5666498339
 10
-23.6271335558
 20
-38.4555732099
 10
-23.5689733454
 20
-38.3425078193
 10
-23.5043887482
 20
-38.227609143
 10
-23.4331472544
 20
-38.1115071869
 10
-23.3552445932
 20
-37.9951149806
 10
-23.2702901978
 20
-37.8787013208
 10
-23.1781640597
 20
-37.7629277711
 10
-23.0794747129
 20
-37.6492139611
 10
-22.9741433056
 20
-37.5379842126
 10
-22.8621298245
 20
-37.4296952279
 10
-22.7443757471
 20
-37.3256237011
 10
-22.6211010677
 20
-37.2261956842
 10
-22.4923474818
 20
-37.1316692021
 10
-22.3590065612
 20
-37.0428538038
 10
-22.2214317998
 20
-36.9600547157
 10
-22.079773371
 20
-36.8834300889
 10
-21.9347392635
 20
-36.813400268
 10
-21.7867323819
 20
-36.7501524721
 10
-21.6359732132
 20
-36.6937737047
 10
-21.4829455887
 20
-36.6444317785
 10
-21.3280559863
 20
-36.60222768
 10
-21.1715616196
 20
-36.5672018835
 10
-21.0137321266
 20
-36.5393946498
 10
-20.8549215239
 20
-36.5188524109
 10
-20.6954432517
 20
-36.5055999346
 10
-20.5355040374
 20
-36.499648059
 10
-20.3754219542
 20
-36.5010129819
 10
-20.2155476411
 20
-36.5096961208
 10
-20.0561364133
 20
-36.5256915983
 10
-19.8974971774
 20
-36.5489842993
 10
-19.7399911752
 20
-36.5795376992
 10
-19.5839518519
 20
-36.6173016538
  0
LWPOLYLINE
  5
340
100
AcDbEntity
  8
RACCORDO
100
AcDbPolyline
 62
7
  6
CONTINUOUS
 90
7
 70
0
 10
-36.385052043
 20
3.7474274352
 10
-36.3838640441
 20
3.7483693726
 10
-36.3816947727
 20
3.7505878415
 10
-36.3785442287
 20
3.7539352494
 10
-36.3742956276
 20
3.7582499811
 10
-36.369065754
 20
3.7633926221
 10
-36.3567544327
 20
3.7757787373
  0
LWPOLYLINE
  5
341
100
AcDbEntity
  8
RACCORDO
100
AcDbPolyline
 62
7
  6
CONTINUOUS
 90
11
 70
0
 10
-37.4330333972
 20
3.7818275344
 10
-37.4252634933
 20
3.7740155942
 10
-37.4167516941
 20
3.766623474
 10
-37.4075014258
 20
3.7597281839
 10
-37.3974551271
 20
3.7533651237
 10
-37.3866697736
 20
3.7476634531
 10
-37.3751400012
 20
3.7427086087
 10
-37.3626988825
 20
3.7385444915
 10
-37.349320132
 20
3.7353279578
 10
-37.3351468136
 20
3.7332679955
 10
-37.3202837784
 20
3.7325449351
  0
LWPOLYLINE
  5
342
100
AcDbEntity
  8
RACCORDO
100
AcDbPolyline
 62
7
  6
CONTINUOUS
 90
3
 70
0
 10
-37.4463613363
 20
3.798426659
 10
-37.4400530526
 20
3.7899714669
 10
-37.4330333972
 20
3.7818275344
  0
LWPOLYLINE
  5
343
100
AcDbEntity
  8
RACCORDO
100
AcDbPolyline
 62
253
  6
CONTINUOUS
 90
61
 70
0
 10
-22.653756053
 20
40.0
 10
-22.6509643485
 20
39.8897608881
 10
-22.6425216994
 20
39.7790596011
 10
-22.6283355685
 20
39.6681914785
 10
-22.6083081521
 20
39.5573639394
 10
-22.5823882214
 20
39.4469928318
 10
-22.5506230058
 20
39.3376897468
 10
-22.5130268437
 20
39.2297597393
 10
-22.4696386209
 20
39.12353505
 10
-22.4206642092
 20
39.0196404725
 10
-22.3662313082
 20
38.9183850279
 10
-22.3064687576
 20
38.8200444583
 10
-22.2416976139
 20
38.7251408964
 10
-22.1721838003
 20
38.6339992903
 10
-22.0980878455
 20
38.5467708815
 10
-22.0196299341
 20
38.4636759957
 10
-21.9370926965
 20
38.384966957
 10
-21.8506784145
 20
38.3107923468
 10
-21.7604809566
 20
38.2412209459
 10
-21.6667139934
 20
38.1764258795
 10
-21.5696600845
 20
38.1166105086
 10
-21.4695047125
 20
38.0619049168
 10
-21.3664597053
 20
38.0124500188
 10
-21.2608528132
 20
37.9684278053
 10
-21.1530563527
 20
37.9300076752
 10
-21.0433778033
 20
37.8973013193
 10
-20.9321087887
 20
37.8703977952
 10
-20.8196147521
 20
37.8493865695
 10
-20.7062396202
 20
37.8343226825
 10
-20.5922657464
 20
37.8252344485
 10
-20.477971715
 20
37.8221431477
 10
-20.3636740457
 20
37.8250564394
 10
-20.2496869145
 20
37.8339652712
 10
-20.1362860412
 20
37.8488528873
 10
-20.0237548657
 20
37.8696899629
 10
-19.9124364724
 20
37.8964207223
 10
-19.8026921674
 20
37.9289617914
 10
-19.6948129607
 20
37.9672245768
 10
-19.589108425
 20
38.0110966396
 10
-19.4859525697
 20
38.0604133527
 10
-19.3856722069
 20
38.1149937259
 10
-19.2884825917
 20
38.1746948956
 10
-19.1945780371
 20
38.2393856076
 10
-19.1042442401
 20
38.308858529
 10
-19.017692303
 20
38.382940181
 10
-18.9350164688
 20
38.4615647545
 10
-18.8564235455
 20
38.5445767896
 10
-18.7821911417
 20
38.6317263537
 10
-18.7125287483
 20
38.7228118691
 10
-18.6476003256
 20
38.8176807356
 10
-18.5876731025
 20
38.9160084466
 10
-18.5330612939
 20
39.0172975908
 10
-18.4838972125
 20
39.121280755
 10
-18.4403185396
 20
39.2276410055
 10
-18.402538625
 20
39.3357545119
 10
-18.3706030347
 20
39.4452890205
 10
-18.3445322385
 20
39.5559352473
 10
-18.3243798088
 20
39.6670749634
 10
-18.3100996243
 20
39.7782874514
 10
-18.3015981756
 20
39.8893624013
 10
-18.2987869602
 20
40.0
  0
LWPOLYLINE
  5
344
100
AcDbEntity
  8
RACCORDO
100
AcDbPolyline
 62
253
  6
CONTINUOUS
 90
61
 70
0
 10
-18.2987869602
 20
-40.0
 10
-18.3015843388
 20
-39.8896344943
 10
-18.3100467124
 20
-39.7788050677
 10
-18.3242662782
 20
-39.6678098486
 10
-18.344339746
 20
-39.5568606195
 10
-18.3703175247
 20
-39.4463742657
 10
-18.4021529097
 20
-39.3369602849
 10
-18.4398315506
 20
-39.2289263718
 10
-18.4833127276
 20
-39.122607617
 10
-18.5323897252
 20
-39.0186271335
 10
-18.5869349307
 20
-38.9172960031
 10
-18.6468174119
 20
-38.8188929474
 10
-18.7117131152
 20
-38.7239393588
 10
-18.7813561555
 20
-38.6327611645
 10
-18.855583603
 20
-38.5455124901
 10
-18.9341689626
 20
-38.4624145679
 10
-19.0168261029
 20
-38.38372217
 10
-19.1033524206
 20
-38.3095826994
 10
-19.1936530991
 20
-38.2400595444
 10
-19.2875115752
 20
-38.1753273473
 10
-19.3846450426
 20
-38.1155885803
 10
-19.4848728989
 20
-38.0609651812
 10
-19.5879840432
 20
-38.0115987311
 10
-19.6936485753
 20
-37.9676727377
 10
-19.8014968646
 20
-37.929351066
 10
-19.9112233116
 20
-37.8967463846
 10
-20.02253389
 20
-37.8699497803
 10
-20.1350610159
 20
-37.8490469301
 10
-20.2484607477
 20
-37.8340939394
 10
-20.3624504211
 20
-37.8251201608
 10
-20.4767501759
 20
-37.8221425439
 10
-20.5910431349
 20
-37.825169569
 10
-20.705015476
 20
-37.8341930071
 10
-20.8183925621
 20
-37.8491917461
 10
-20.9308911849
 20
-37.8701374535
 10
-21.0421683533
 20
-37.8969753967
 10
-21.1518649396
 20
-37.9296183969
 10
-21.2596922217
 20
-37.9679798273
 10
-21.3653388634
 20
-38.0119482298
 10
-21.4684285304
 20
-38.0613535922
 10
-21.5686366035
 20
-38.1160165068
 10
-21.6657470121
 20
-38.1757947798
 10
-21.7595607013
 20
-38.2405491477
 10
-21.8497923899
 20
-38.3100715872
 10
-21.9362336169
 20
-38.384190058
 10
-22.0187906397
 20
-38.4628330355
 10
-22.0972569868
 20
-38.5458438661
 10
-22.1713585615
 20
-38.6329750388
 10
-22.240891832
 20
-38.7240254128
 10
-22.3056951059
 20
-38.8188449338
 10
-22.365501421
 20
-38.9171102475
 10
-22.4199998526
 20
-39.0183234832
 10
-22.4690602074
 20
-39.1222202627
 10
-22.5125447136
 20
-39.2284856206
 10
-22.5502410268
 20
-39.3364941676
 10
-22.582105436
 20
-39.4459165636
 10
-22.6081174603
 20
-39.55644612
 10
-22.6282230883
 20
-39.6674625126
 10
-22.6424692984
 20
-39.778546082
 10
-22.6509506719
 20
-39.8894909111
 10
-22.653756053
 20
-40.0
  0
LWPOLYLINE
  5
345
100
AcDbEntity
  8
RACCORDO
100
AcDbPolyline
 62
253
  6
CONTINUOUS
 90
52
 70
0
 10
-21.7637492651
 20
40.0
 10
-21.7613249932
 20
40.0787008149
 10
-21.7540618682
 20
40.1571033585
 10
-21.7419874575
 20
40.2349098305
 10
-21.7251482877
 20
40.3118215215
 10
-21.7036082149
 20
40.3875495637
 10
-21.6774462397
 20
40.461815611
 10
-21.6467579269
 20
40.5343419808
 10
-21.6116602707
 20
40.6048474025
 10
-21.5722895857
 20
40.6730581482
 10
-21.5287978507
 20
40.7387112943
 10
-21.4813481859
 20
40.8015614211
 10
-21.4301170258
 20
40.8613756497
 10
-21.3752961628
 20
40.9179276963
 10
-21.3170946133
 20
40.9710000304
 10
-21.2557339746
 20
41.0203909618
 10
-21.191446692
 20
41.0659120393
 10
-21.1244763813
 20
41.1073896685
 10
-21.0550778753
 20
41.1446667725
 10
-20.9835139393
 20
41.1776011591
 10
-20.9100563465
 20
41.2060668527
 10
-20.8349855044
 20
41.2299562306
 10
-20.7585873268
 20
41.2491778234
 10
-20.6811506635
 20
41.2636585295
 10
-20.602967435
 20
41.2733447495
 10
-20.5243320847
 20
41.2781988822
 10
-20.4455451403
 20
41.2782012527
 10
-20.3669097166
 20
41.2733529972
 10
-20.2887261714
 20
41.2636726887
 10
-20.2112891041
 20
41.2491967989
 10
-20.1348899976
 20
41.2299810763
 10
-20.0598172589
 20
41.2060973652
 10
-19.9863572893
 20
41.1776359649
 10
-19.9147905438
 20
41.144706703
 10
-19.8453885469
 20
41.1074343783
 10
-19.7784143882
 20
41.0659599794
 10
-19.7141228846
 20
41.020442744
 10
-19.6527572087
 20
40.9710549099
 10
-19.5945504014
 20
40.9179838841
 10
-19.539724598
 20
40.8614340779
 10
-19.4884888813
 20
40.8016224225
 10
-19.4410348797
 20
40.7387736725
 10
-19.3975383713
 20
40.6731219884
 10
-19.358161982
 20
40.6049109411
 10
-19.3230585996
 20
40.5344028538
 10
-19.2923650788
 20
40.4618745855
 10
-19.2661986892
 20
40.3876081166
 10
-19.2446545134
 20
40.3118783122
 10
-19.2278106886
 20
40.2349612027
 10
-19.2157314602
 20
40.1571439881
 10
-19.2084647473
 20
40.0787246495
 10
-19.2060392993
 20
40.0
  0
LWPOLYLINE
  5
346
100
AcDbEntity
  8
RACCORDO
100
AcDbPolyline
 62
253
  6
CONTINUOUS
 90
52
 70
0
 10
-21.7637492651
 20
-40.0
 10
-21.7613249932
 20
-39.9212991851
 10
-21.7540618682
 20
-39.8428966415
 10
-21.7419874575
 20
-39.7650901695
 10
-21.7251482877
 20
-39.6881784785
 10
-21.7036082149
 20
-39.6124504363
 10
-21.6774462397
 20
-39.538184389
 10
-21.6467579269
 20
-39.4656580192
 10
-21.6116602707
 20
-39.3951525975
 10
-21.5722895857
 20
-39.3269418518
 10
-21.5287978507
 20
-39.2612887057
 10
-21.4813481859
 20
-39.1984385789
 10
-21.4301170258
 20
-39.1386243503
 10
-21.3752961628
 20
-39.0820723037
 10
-21.3170946133
 20
-39.0289999696
 10
-21.2557339746
 20
-38.9796090382
 10
-21.191446692
 20
-38.9340879607
 10
-21.1244763813
 20
-38.8926103315
 10
-21.0550778753
 20
-38.8553332275
 10
-20.9835139393
 20
-38.8223988409
 10
-20.9100563465
 20
-38.7939331473
 10
-20.8349855044
 20
-38.7700437694
 10
-20.7585873268
 20
-38.7508221766
 10
-20.6811506635
 20
-38.7363414705
 10
-20.602967435
 20
-38.7266552505
 10
-20.5243320847
 20
-38.7218011178
 10
-20.4455451403
 20
-38.7217987473
 10
-20.3669097166
 20
-38.7266470028
 10
-20.2887261714
 20
-38.7363273113
 10
-20.2112891041
 20
-38.7508032011
 10
-20.1348899976
 20
-38.7700189237
 10
-20.0598172589
 20
-38.7939026348
 10
-19.9863572893
 20
-38.8223640351
 10
-19.9147905438
 20
-38.855293297
 10
-19.8453885469
 20
-38.8925656217
 10
-19.7784143882
 20
-38.9340400206
 10
-19.7141228846
 20
-38.979557256
 10
-19.6527572087
 20
-39.0289450901
 10
-19.5945504014
 20
-39.0820161159
 10
-19.539724598
 20
-39.1385659221
 10
-19.4884888813
 20
-39.1983775775
 10
-19.4410348797
 20
-39.2612263275
 10
-19.3975383713
 20
-39.3268780116
 10
-19.358161982
 20
-39.3950890589
 10
-19.3230585996
 20
-39.4655971462
 10
-19.2923650788
 20
-39.5381254145
 10
-19.2661986892
 20
-39.6123918834
 10
-19.2446545134
 20
-39.6881216878
 10
-19.2278106886
 20
-39.7650387973
 10
-19.2157314602
 20
-39.8428560119
 10
-19.2084647473
 20
-39.9212753505
 10
-19.2060392993
 20
-40.0
  0
LWPOLYLINE
  5
347
100
AcDbEntity
  8
RACCORDO
100
AcDbPolyline
 62
253
  6
CONTINUOUS
 90
52
 70
0
 10
-19.2060392993
 20
40.0
 10
-19.2084643039
 20
39.9212825822
 10
-19.2157299968
 20
39.8428678564
 10
-19.2278081061
 20
39.765052626
 10
-19.2446515171
 20
39.6881336063
 10
-19.2661962784
 20
39.6123994638
 10
-19.292363227
 20
39.538130198
 10
-19.3230561214
 20
39.4656025394
 10
-19.3581580822
 20
39.3950963308
 10
-19.3975332268
 20
39.3268863311
 10
-19.4410294205
 20
39.2612340509
 10
-19.4884836538
 20
39.1983840859
 10
-19.5397196497
 20
39.1385713637
 10
-19.5945455406
 20
39.0820208448
 10
-19.6527524137
 20
39.028949216
 10
-19.7141181163
 20
38.9795608769
 10
-19.7784096066
 20
38.9340432113
 10
-19.8453836844
 20
38.8925684536
 10
-19.9147854738
 20
38.8552958484
 10
-19.9863517361
 20
38.8223664149
 10
-20.0598110651
 20
38.7939048495
 10
-20.1348833742
 20
38.7700208424
 10
-20.2112824899
 20
38.7508046855
 10
-20.2887198101
 20
38.736328336
 10
-20.3669035955
 20
38.7266476077
 10
-20.4455391596
 20
38.7217989686
 10
-20.5243262247
 20
38.7218009729
 10
-20.6029616627
 20
38.7266547491
 10
-20.6811448596
 20
38.7363405999
 10
-20.7585814613
 20
38.7508209183
 10
-20.8349797911
 20
38.7700421657
 10
-20.9100511877
 20
38.7939313466
 10
-20.9835095154
 20
38.8223969804
 10
-21.0550740061
 20
38.8553313078
 10
-21.1244727539
 20
38.8926082394
 10
-21.1914431576
 20
38.9340856164
 10
-21.2557304897
 20
38.9796063993
 10
-21.3170911629
 20
39.0289970005
 10
-21.3752927197
 20
39.0820689459
 10
-21.4301135936
 20
39.1386205605
 10
-21.4813446322
 20
39.1984341343
 10
-21.5287942167
 20
39.2612835414
 10
-21.5722862997
 20
39.3269365098
 10
-21.6116581492
 20
39.3951486019
 10
-21.6467570686
 20
39.4656560931
 10
-21.6774457503
 20
39.5381830498
 10
-21.7036068133
 20
39.6124459484
 10
-21.7251459371
 20
39.6881690567
 10
-21.7419852317
 20
39.7650782016
 10
-21.7540605634
 20
39.8428860593
 10
-21.7613245881
 20
39.9212925929
 10
-21.7637492651
 20
40.0
  0
LWPOLYLINE
  5
348
100
AcDbEntity
  8
RACCORDO
100
AcDbPolyline
 62
253
  6
CONTINUOUS
 90
52
 70
0
 10
-21.2878642126
 20
40.0
 10
-21.2863575638
 20
40.0481975007
 10
-21.2819403727
 20
40.095895195
 10
-21.2746126355
 20
40.1430930827
 10
-21.2643247857
 20
40.1899795947
 10
-21.2511263756
 20
40.2363663003
 10
-21.2351660776
 20
40.2816879066
 10
-21.2164116361
 20
40.325920781
 10
-21.1948952801
 20
40.3690885563
 10
-21.1708624072
 20
40.4106968381
 10
-21.1442852597
 20
40.4507252606
 10
-21.1151915602
 20
40.4891941897
 10
-21.0839099285
 20
40.5256703282
 10
-21.0504147819
 20
40.560132202
 10
-21.0147316645
 20
40.5926012853
 10
-20.9772658905
 20
40.6227087038
 10
-20.9379971249
 20
40.6504272519
 10
-20.8969456657
 20
40.6757841353
 10
-20.8545777849
 20
40.6984920965
 10
-20.8108783812
 20
40.7185208011
 10
-20.7658625258
 20
40.7359005836
 10
-20.7200417596
 20
40.75043519
 10
-20.6734078035
 20
40.762092023
 10
-20.6259689173
 20
40.7709036799
 10
-20.5782614641
 20
40.7767716988
 10
-20.5302813629
 20
40.7796625806
 10
-20.4820326885
 20
40.7796098244
 10
-20.4340640512
 20
40.7766154661
 10
-20.386379801
 20
40.7706459818
 10
-20.3389755959
 20
40.7617348955
 10
-20.2923870216
 20
40.7499848148
 10
-20.2466228323
 20
40.7353631915
 10
-20.2016742946
 20
40.7179025739
 10
-20.1580507754
 20
40.6978032155
 10
-20.1157681646
 20
40.6750353137
 10
-20.0748106031
 20
40.649628671
 10
-20.0356398448
 20
40.6218729487
 10
-19.9982763202
 20
40.5917414236
 10
-19.9626996352
 20
40.5592608187
 10
-19.9293103146
 20
40.5248009642
 10
-19.8981341512
 20
40.4883412977
 10
-19.8691453892
 20
40.4499023815
 10
-19.8426672351
 20
40.4099157331
 10
-19.8187268697
 20
40.3683612177
 10
-19.7972971451
 20
40.3252589701
 10
-19.7786197753
 20
40.2811009122
 10
-19.7627267741
 20
40.2358645139
 10
-19.7495861524
 20
40.1895723054
 10
-19.7393436187
 20
40.1427837986
 10
-19.7320477472
 20
40.0956854974
 10
-19.727649977
 20
40.0480908978
 10
-19.7261503112
 20
40.0
  0
LWPOLYLINE
  5
349
100
AcDbEntity
  8
RACCORDO
100
AcDbPolyline
 62
253
  6
CONTINUOUS
 90
52
 70
0
 10
-19.7261503112
 20
40.0
 10
-19.7276501873
 20
39.9519099054
 10
-19.7320479179
 20
39.9043164394
 10
-19.7393434996
 20
39.8572196021
 10
-19.7495857338
 20
39.8104327146
 10
-19.7627258061
 20
39.7641424557
 10
-19.7786172865
 20
39.7189088619
 10
-19.7972917279
 20
39.6747551211
 10
-19.8187175528
 20
39.6316580453
 10
-19.8426536349
 20
39.5901081072
 10
-19.8691274131
 20
39.5501248792
 10
-19.8981114156
 20
39.511688789
 10
-19.929282152
 20
39.4752315913
 10
-19.9626652568
 20
39.44077401
 10
-19.9982350583
 20
39.4082953214
 10
-20.0355911107
 20
39.3781651093
 10
-20.0747537988
 20
39.3504100991
 10
-20.1157027015
 20
39.3250035655
 10
-20.1579761709
 20
39.302234916
 10
-20.2015895836
 20
39.2821339871
 10
-20.2465275325
 20
39.2646709423
 10
-20.2922822045
 20
39.2500456799
 10
-20.3388624348
 20
39.2382904128
 10
-20.3862593675
 20
39.229372928
 10
-20.4339386654
 20
39.2233964848
 10
-20.4819050873
 20
39.2203944432
 10
-20.5301538663
 20
39.2203334432
 10
-20.5781363907
 20
39.2232166631
 10
-20.6258490231
 20
39.2290777751
 10
-20.6732954067
 20
39.2378831071
 10
-20.7199378647
 20
39.2495348209
 10
-20.7657681937
 20
39.2640658358
 10
-20.8107946164
 20
39.2814432327
 10
-20.8545041074
 20
39.3014704157
 10
-20.8968811313
 20
39.3241776822
 10
-20.9379412537
 20
39.3495347348
 10
-20.9772181117
 20
39.3772540866
 10
-21.0146914066
 20
39.407362941
 10
-21.0503814742
 20
39.4398340944
 10
-21.0838829112
 20
39.4742984494
 10
-21.1151700732
 20
39.5107773612
 10
-21.1442686435
 20
39.5492494746
 10
-21.1708502152
 20
39.589281626
 10
-21.1948873266
 20
39.6308947393
 10
-21.2164074744
 20
39.6740678907
 10
-21.2351646922
 20
39.7183051449
 10
-21.2511262948
 20
39.7636294479
 10
-21.2643249938
 20
39.8100178537
 10
-21.2746129162
 20
39.8569055891
 10
-21.2819407761
 20
39.9041043964
 10
-21.2863578737
 20
39.9518025334
 10
-21.2878642126
 20
40.0
  0
LWPOLYLINE
  5
34A
100
AcDbEntity
  8
RACCORDO
100
AcDbPolyline
 62
253
  6
CONTINUOUS
 90
52
 70
0
 10
-21.2878642126
 20
-40.0
 10
-21.2863575638
 20
-39.9518024993
 10
-21.2819403727
 20
-39.904104805
 10
-21.2746126355
 20
-39.8569069173
 10
-21.2643247857
 20
-39.8100204053
 10
-21.2511263756
 20
-39.7636336997
 10
-21.2351660776
 20
-39.7183120934
 10
-21.2164116361
 20
-39.674079219
 10
-21.1948952801
 20
-39.6309114437
 10
-21.1708624072
 20
-39.5893031619
 10
-21.1442852597
 20
-39.5492747394
 10
-21.1151915602
 20
-39.5108058103
 10
-21.0839099285
 20
-39.4743296718
 10
-21.0504147819
 20
-39.439867798
 10
-21.0147316645
 20
-39.4073987147
 10
-20.9772658905
 20
-39.3772912962
 10
-20.9379971249
 20
-39.3495727481
 10
-20.8969456657
 20
-39.3242158647
 10
-20.8545777849
 20
-39.3015079035
 10
-20.8108783812
 20
-39.2814791989
 10
-20.7658625258
 20
-39.2640994164
 10
-20.7200417596
 20
-39.24956481
 10
-20.6734078035
 20
-39.237907977
 10
-20.6259689173
 20
-39.2290963201
 10
-20.5782614641
 20
-39.2232283012
 10
-20.5302813629
 20
-39.2203374194
 10
-20.4820326885
 20
-39.2203901756
 10
-20.4340640512
 20
-39.2233845339
 10
-20.386379801
 20
-39.2293540182
 10
-20.3389755959
 20
-39.2382651045
 10
-20.2923870216
 20
-39.2500151852
 10
-20.2466228323
 20
-39.2646368085
 10
-20.2016742946
 20
-39.2820974261
 10
-20.1580507754
 20
-39.3021967845
 10
-20.1157681646
 20
-39.3249646863
 10
-20.0748106031
 20
-39.350371329
 10
-20.0356398448
 20
-39.3781270513
 10
-19.9982763202
 20
-39.4082585764
 10
-19.9626996352
 20
-39.4407391813
 10
-19.9293103146
 20
-39.4751990358
 10
-19.8981341512
 20
-39.5116587023
 10
-19.8691453892
 20
-39.5500976185
 10
-19.8426672351
 20
-39.5900842669
 10
-19.8187268697
 20
-39.6316387823
 10
-19.7972971451
 20
-39.6747410299
 10
-19.7786197753
 20
-39.7188990878
 10
-19.7627267741
 20
-39.7641354861
 10
-19.7495861524
 20
-39.8104276946
 10
-19.7393436187
 20
-39.8572162014
 10
-19.7320477472
 20
-39.9043145026
 10
-19.727649977
 20
-39.9519091022
 10
-19.7261503112
 20
-40.0
  0
LINE
  5
34B
100
AcDbEntity
  8
0
100
AcDbLine
 62
7
  6
CONTINUOUS
 10
-14.6699794782
 20
13.5
 11
-14.9824794782
 21
13.1276596189
  0
LINE
  5
34C
100
AcDbEntity
  8
0
100
AcDbLine
 62
7
  6
CONTINUOUS
 10
-14.9824794782
 20
12.7021276057
 11
-14.6699794782
 21
13.0744681358
  0
LINE
  5
34D
100
AcDbEntity
  8
0
100
AcDbLine
 62
7
  6
CONTINUOUS
 10
-16.2324794782
 20
13.5
 11
-17.4824794782
 21
12.0638298094
  0
LINE
  5
34E
100
AcDbEntity
  8
0
100
AcDbLine
 62
7
  6
CONTINUOUS
 10
-17.1178961572
 20
12.0638298094
 11
-16.2324794782
 21
13.0744681358
  0
LINE
  5
34F
100
AcDbEntity
  8
0
100
AcDbLine
 62
7
  6
CONTINUOUS
 10
-13.6283129108
 20
13.3404255509
 11
-13.8366460455
 21
13.1276596189
  0
LWPOLYLINE
  5
350
100
AcDbEntity
  8
RACCORDO
100
AcDbPolyline
 62
253
  6
CONTINUOUS
 90
61
 70
0
 10
-18.2987869602
 20
40.0
 10
-18.3015843388
 20
40.1103655057
 10
-18.3100467124
 20
40.2211949323
 10
-18.3242662782
 20
40.3321901514
 10
-18.344339746
 20
40.4431393805
 10
-18.3703175247
 20
40.5536257343
 10
-18.4021529097
 20
40.6630397151
 10
-18.4398315506
 20
40.7710736282
 10
-18.4833127276
 20
40.877392383
 10
-18.5323897252
 20
40.9813728665
 10
-18.5869349307
 20
41.0827039969
 10
-18.6468174119
 20
41.1811070526
 10
-18.7117131152
 20
41.2760606412
 10
-18.7813561555
 20
41.3672388355
 10
-18.855583603
 20
41.4544875099
 10
-18.9341689626
 20
41.5375854321
 10
-19.0168261029
 20
41.61627783
 10
-19.1033524206
 20
41.6904173006
 10
-19.1936530991
 20
41.7599404556
 10
-19.2875115752
 20
41.8246726527
 10
-19.3846450426
 20
41.8844114197
 10
-19.4848728989
 20
41.9390348188
 10
-19.5879840432
 20
41.9884012689
 10
-19.6936485753
 20
42.0323272623
 10
-19.8014968646
 20
42.070648934
 10
-19.9112233116
 20
42.1032536154
 10
-20.02253389
 20
42.1300502197
 10
-20.1350610159
 20
42.1509530699
 10
-20.2484607477
 20
42.1659060606
 10
-20.3624504211
 20
42.1748798392
 10
-20.4767501759
 20
42.1778574561
 10
-20.5910431349
 20
42.174830431
 10
-20.705015476
 20
42.1658069929
 10
-20.8183925621
 20
42.1508082539
 10
-20.9308911849
 20
42.1298625465
 10
-21.0421683533
 20
42.1030246033
 10
-21.1518649396
 20
42.0703816031
 10
-21.2596922217
 20
42.0320201727
 10
-21.3653388634
 20
41.9880517702
 10
-21.4684285304
 20
41.9386464078
 10
-21.5686366035
 20
41.8839834932
 10
-21.6657470121
 20
41.8242052202
 10
-21.7595607013
 20
41.7594508523
 10
-21.8497923899
 20
41.6899284128
 10
-21.9362336169
 20
41.615809942
 10
-22.0187906397
 20
41.5371669645
 10
-22.0972569868
 20
41.4541561339
 10
-22.1713585615
 20
41.3670249612
 10
-22.240891832
 20
41.2759745872
 10
-22.3056951059
 20
41.1811550662
 10
-22.365501421
 20
41.0828897525
 10
-22.4199998526
 20
40.9816765168
 10
-22.4690602074
 20
40.8777797373
 10
-22.5125447136
 20
40.7715143794
 10
-22.5502410268
 20
40.6635058324
 10
-22.582105436
 20
40.5540834364
 10
-22.6081174603
 20
40.44355388
 10
-22.6282230883
 20
40.3325374874
 10
-22.6424692984
 20
40.221453918
 10
-22.6509506719
 20
40.1105090889
 10
-22.653756053
 20
40.0
  0
LINE
  5
351
100
AcDbEntity
  8
0
100
AcDbLine
 62
7
  6
CONTINUOUS
 10
-17.4824794782
 20
12.0638298094
 11
-17.4824794782
 21
11.7446808368
  0
LINE
  5
352
100
AcDbEntity
  8
0
100
AcDbLine
 62
7
  6
CONTINUOUS
 10
-16.2324794782
 20
13.0744681358
 11
-16.2324794782
 21
12.0638298094
  0
LINE
  5
353
100
AcDbEntity
  8
0
100
AcDbLine
 62
7
  6
CONTINUOUS
 10
-16.2324794782
 20
11.7446808368
 11
-16.2324794782
 21
11.0
  0
LINE
  5
354
100
AcDbEntity
  8
0
100
AcDbLine
 62
7
  6
CONTINUOUS
 10
-15.9199794782
 20
11.0
 11
-15.9199794782
 21
11.7446808368
  0
LINE
  5
355
100
AcDbEntity
  8
0
100
AcDbLine
 62
7
  6
CONTINUOUS
 10
-15.9199794782
 20
12.0638298094
 11
-15.9199794782
 21
13.5
  0
LINE
  5
356
100
AcDbEntity
  8
0
100
AcDbLine
 62
7
  6
CONTINUOUS
 10
-15.3991461945
 20
11.7446808368
 11
-15.3991461945
 21
12.0638298094
  0
LINE
  5
357
100
AcDbEntity
  8
0
100
AcDbLine
 62
7
  6
CONTINUOUS
 10
-14.9824794782
 20
13.1276596189
 11
-14.9824794782
 21
12.7021276057
  0
LINE
  5
358
100
AcDbEntity
  8
0
100
AcDbLine
 62
7
  6
CONTINUOUS
 10
-14.6699794782
 20
13.0744681358
 11
-14.6699794782
 21
11.0
  0
LINE
  5
359
100
AcDbEntity
  8
0
100
AcDbLine
 62
7
  6
CONTINUOUS
 10
-14.3574794782
 20
11.0
 11
-14.3574794782
 21
13.5
  0
LINE
  5
35A
100
AcDbEntity
  8
ASSI
100
AcDbLine
 62
7
  6
CONTINUOUS
 10
-14.2470694782
 20
27.46277
 11
-14.2470694782
 21
28.233296
  0
LINE
  5
35B
100
AcDbEntity
  8
ASSI
100
AcDbLine
 62
7
  6
CONTINUOUS
 10
-14.2470694782
 20
31.76668
 11
-14.2470694782
 21
32.537206
  0
LINE
  5
35C
100
AcDbEntity
  8
0
100
AcDbLine
 62
7
  6
CONTINUOUS
 10
-13.9408129108
 20
11.2659574524
 11
-13.9408129108
 21
11.0
  0
LWPOLYLINE
  5
35D
100
AcDbEntity
  8
RACCORDO
100
AcDbPolyline
 62
7
  6
CONTINUOUS
 90
28
 70
0
 10
-16.9359330448
 20
40.0087791294
 10
-16.9393917922
 20
39.8419614558
 10
-16.9512491182
 20
39.675275363
 10
-16.9715050226
 20
39.5087208513
 10
-17.0002102086
 20
39.3416531034
 10
-17.0373139731
 20
39.1747169365
 10
-17.0826642071
 20
39.0098468018
 10
-17.136445952
 20
38.8471090412
 10
-17.1984741664
 20
38.6864373129
 10
-17.2680416175
 20
38.5295670421
 10
-17.3451971876
 20
38.3767131869
 10
-17.4298919943
 20
38.2276607892
 10
-17.521272157
 20
38.0835004004
 10
-17.6191511024
 20
37.9444998832
 10
-17.7237154038
 20
37.8103913748
 10
-17.8346709004
 20
37.6814618386
 10
-17.952215219
 20
37.5574801759
 10
-18.0761507329
 20
37.4386774852
 10
-18.2055904009
 20
37.3260340259
 10
-18.3404624688
 20
37.2196637553
 10
-18.4808386909
 20
37.119452716
 10
-18.626047289
 20
37.0260392955
 10
-18.776364599
 20
36.9393502738
 10
-18.9315142849
 20
36.8594588709
 10
-19.0899955608
 20
36.7872231341
 10
-19.2513081646
 20
36.7229290793
 10
-19.4159523582
 20
36.6662906907
 10
-19.5839281418
 20
36.6173079682
  0
LWPOLYLINE
  5
35E
100
AcDbEntity
  8
RACCORDO
100
AcDbPolyline
 62
253
  6
CONTINUOUS
 90
79
 70
0
 10
-16.8288610532
 20
40.0089122891
 10
-16.8323556301
 20
39.8404043123
 10
-16.8435240429
 20
39.6728633643
 10
-16.8623662721
 20
39.5062894453
 10
-16.8889375266
 20
39.3403469287
 10
-16.9231825191
 20
39.1753714411
 10
-16.9649354675
 20
39.0123698613
 10
-17.0143069874
 20
38.8512319642
 10
-17.0711863071
 20
38.692067975
 10
-17.1350755519
 20
38.5362154479
 10
-17.2060009237
 20
38.3838190005
 10
-17.2839360022
 20
38.2347340152
 10
-17.3683039783
 20
38.0898641946
 10
-17.4590071198
 20
37.9493669526
 10
-17.5561428947
 20
37.8130848752
 10
-17.6594272948
 20
37.6814494222
 10
-17.768925127
 20
37.5543519455
 10
-17.8845712668
 20
37.4319010932
 10
-18.005886812
 20
37.3148542698
 10
-18.1330321847
 20
37.2031399055
 10
-18.2658466078
 20
37.0968295701
 10
-18.4033694094
 20
36.9968953781
 10
-18.545670824
 20
36.9034121017
 10
-18.6926802723
 20
36.8163049686
 10
-18.8432259232
 20
36.7363217763
 10
-18.9972898032
 20
36.6635677158
 10
-19.1548895892
 20
36.597937596
 10
-19.3149070049
 20
36.5398636415
 10
-19.4773097813
 20
36.4894139155
 10
-19.6421299554
 20
36.4465203547
 10
-19.808345793
 20
36.411410995
 10
-19.9759398869
 20
36.3841236642
 10
-20.1449294852
 20
36.3646205344
 10
-20.3143449212
 20
36.3530161575
 10
-20.4841989188
 20
36.3493402144
 10
-20.6544786752
 20
36.3535630242
 10
-20.8241763226
 20
36.3657100955
 10
-20.9933599096
 20
36.3858403778
 10
-21.1619613994
 20
36.4138949216
 10
-21.328768899
 20
36.4497223879
 10
-21.4938672604
 20
36.4934493273
 10
-21.6571717578
 20
36.5449491891
 10
-21.8172162552
 20
36.6036909822
 10
-21.9740338788
 20
36.669866572
 10
-22.1275917635
 20
36.7432840931
 10
-22.2763249211
 20
36.8228369588
 10
-22.4201810925
 20
36.9087503828
 10
-22.5592129232
 20
37.0007991514
 10
-22.6920129027
 20
37.0972010364
 10
-22.818391232
 20
37.1981092284
 10
-22.938538175
 20
37.3033705367
 10
-23.0516163895
 20
37.4107431618
 10
-23.1573142121
 20
37.5201531671
 10
-23.2559437668
 20
37.6316744891
 10
-23.3476033999
 20
37.7432871375
 10
-23.432042919
 20
37.8547363741
 10
-23.5095128886
 20
37.9662769372
 10
-23.5808627478
 20
38.0766530519
 10
-23.6460269988
 20
38.1856611197
 10
-23.7050713942
 20
38.2935047392
 10
-23.7590421931
 20
38.3995389316
 10
-23.8079699312
 20
38.503659609
 10
-23.8518242328
 20
38.6059708594
 10
-23.891559946
 20
38.7061399678
 10
-23.9272215343
 20
38.8040972277
 10
-23.95876463
 20
38.8999123457
 10
-23.987010806
 20
38.9934617263
 10
-24.0120137257
 20
39.0847560684
 10
-24.03371978
 20
39.1737846732
 10
-24.052789616
 20
39.2603918484
 10
-24.0692109063
 20
39.3439882586
 10
-24.0829960075
 20
39.4251632391
 10
-24.0948425815
 20
39.5055291044
 10
-24.1049139912
 20
39.5846587554
 10
-24.1130468866
 20
39.6629792912
 10
-24.1194488546
 20
39.7433843225
 10
-24.1241890928
 20
39.8268383861
 10
-24.1271984095
 20
39.9123769453
 10
-24.1284768065
 20
40.0
  0
LWPOLYLINE
  5
35F
100
AcDbEntity
  8
RACCORDO
100
AcDbPolyline
 62
7
  6
CONTINUOUS
 90
28
 70
0
 10
-16.9359330448
 20
-39.9912208705
 10
-16.9393917922
 20
-40.1580385442
 10
-16.9512491182
 20
-40.3247246369
 10
-16.9715050226
 20
-40.4912791487
 10
-17.0002102086
 20
-40.6583468966
 10
-17.0373139731
 20
-40.8252830635
 10
-17.0826642071
 20
-40.9901531982
 10
-17.136445952
 20
-41.1528909588
 10
-17.1984741664
 20
-41.3135626871
 10
-17.2680416174
 20
-41.4704329579
 10
-17.3451971876
 20
-41.6232868131
 10
-17.4298919943
 20
-41.7723392108
 10
-17.521272157
 20
-41.9164995996
 10
-17.6191511024
 20
-42.0555001168
 10
-17.7237154038
 20
-42.1896086251
 10
-17.8346709004
 20
-42.3185381614
 10
-17.952215219
 20
-42.4425198241
 10
-18.0761507328
 20
-42.5613225148
 10
-18.2055904009
 20
-42.6739659741
 10
-18.3404624688
 20
-42.7803362447
 10
-18.4808386909
 20
-42.880547284
 10
-18.626047289
 20
-42.9739607045
 10
-18.776364599
 20
-43.0606497262
 10
-18.9315142849
 20
-43.1405411291
 10
-19.0899955608
 20
-43.2127768659
 10
-19.2513081646
 20
-43.2770709207
 10
-19.4159523582
 20
-43.3337093093
 10
-19.5839281418
 20
-43.3826920318
  0
LWPOLYLINE
  5
360
100
AcDbEntity
  8
RACCORDO
100
AcDbPolyline
 62
253
  6
CONTINUOUS
 90
79
 70
0
 10
-16.8288610532
 20
-39.9910877109
 10
-16.8323556301
 20
-40.1595956877
 10
-16.8435240429
 20
-40.3271366357
 10
-16.8623662721
 20
-40.4937105547
 10
-16.8889375266
 20
-40.6596530712
 10
-16.9231825191
 20
-40.8246285589
 10
-16.9649354675
 20
-40.9876301387
 10
-17.0143069874
 20
-41.1487680358
 10
-17.0711863071
 20
-41.307932025
 10
-17.1350755519
 20
-41.4637845521
 10
-17.2060009237
 20
-41.6161809995
 10
-17.2839360022
 20
-41.7652659847
 10
-17.3683039783
 20
-41.9101358054
 10
-17.4590071198
 20
-42.0506330474
 10
-17.5561428947
 20
-42.1869151248
 10
-17.6594272948
 20
-42.3185505778
 10
-17.768925127
 20
-42.4456480545
 10
-17.8845712668
 20
-42.5680989068
 10
-18.005886812
 20
-42.6851457302
 10
-18.1330321847
 20
-42.7968600945
 10
-18.2658466078
 20
-42.9031704299
 10
-18.4033694094
 20
-43.0031046219
 10
-18.545670824
 20
-43.0965878983
 10
-18.6926802723
 20
-43.1836950314
 10
-18.8432259232
 20
-43.2636782237
 10
-18.9972898032
 20
-43.3364322843
 10
-19.1548895892
 20
-43.402062404
 10
-19.3149070049
 20
-43.4601363585
 10
-19.4773097813
 20
-43.5105860845
 10
-19.6421299554
 20
-43.5534796453
 10
-19.8083457931
 20
-43.588589005
 10
-19.9759398869
 20
-43.6158763358
 10
-20.1449294852
 20
-43.6353794656
 10
-20.3143449212
 20
-43.6469838425
 10
-20.4841989188
 20
-43.6506597856
 10
-20.6544786753
 20
-43.6464369758
 10
-20.8241763226
 20
-43.6342899045
 10
-20.9933599096
 20
-43.6141596222
 10
-21.1619613994
 20
-43.5861050784
 10
-21.328768899
 20
-43.5502776121
 10
-21.4938672604
 20
-43.5065506727
 10
-21.6571717578
 20
-43.4550508109
 10
-21.8172162552
 20
-43.3963090178
 10
-21.9740338788
 20
-43.330133428
 10
-22.1275917635
 20
-43.2567159069
 10
-22.2763249212
 20
-43.1771630412
 10
-22.4201810925
 20
-43.0912496172
 10
-22.5592129233
 20
-42.9992008486
 10
-22.6920129027
 20
-42.9027989636
 10
-22.818391232
 20
-42.8018907716
 10
-22.938538175
 20
-42.6966294632
 10
-23.0516163895
 20
-42.5892568382
 10
-23.1573142121
 20
-42.4798468329
 10
-23.2559437668
 20
-42.3683255109
 10
-23.3476033999
 20
-42.2567128624
 10
-23.432042919
 20
-42.1452636259
 10
-23.5095128886
 20
-42.0337230628
 10
-23.5808627478
 20
-41.923346948
 10
-23.6460269988
 20
-41.8143388803
 10
-23.7050713942
 20
-41.7064952608
 10
-23.7590421931
 20
-41.6004610684
 10
-23.8079699312
 20
-41.496340391
 10
-23.8518242328
 20
-41.3940291406
 10
-23.891559946
 20
-41.2938600322
 10
-23.9272215343
 20
-41.1959027723
 10
-23.95876463
 20
-41.1000876543
 10
-23.987010806
 20
-41.0065382737
 10
-24.0120137257
 20
-40.9152439316
 10
-24.03371978
 20
-40.8262153268
 10
-24.052789616
 20
-40.7396081516
 10
-24.0692109063
 20
-40.6560117414
 10
-24.0829960075
 20
-40.5748367609
 10
-24.0948425815
 20
-40.4944708956
 10
-24.1049139912
 20
-40.4153412445
 10
-24.1130468866
 20
-40.3370207088
 10
-24.1194488546
 20
-40.2566156775
 10
-24.1241890928
 20
-40.1731616139
 10
-24.1271984095
 20
-40.0876230547
 10
-24.1284768065
 20
-40.0
  0
LWPOLYLINE
  5
361
100
AcDbEntity
  8
RACCORDO
100
AcDbPolyline
 62
253
  6
CONTINUOUS
 90
52
 70
0
 10
-19.2060392993
 20
-40.0
 10
-19.2084643039
 20
-40.0787174178
 10
-19.2157299968
 20
-40.1571321436
 10
-19.2278081061
 20
-40.234947374
 10
-19.2446515171
 20
-40.3118663937
 10
-19.2661962784
 20
-40.3876005362
 10
-19.292363227
 20
-40.461869802
 10
-19.3230561214
 20
-40.5343974606
 10
-19.3581580822
 20
-40.6049036692
 10
-19.3975332268
 20
-40.6731136689
 10
-19.4410294205
 20
-40.7387659491
 10
-19.4884836538
 20
-40.8016159141
 10
-19.5397196497
 20
-40.8614286363
 10
-19.5945455406
 20
-40.9179791552
 10
-19.6527524137
 20
-40.971050784
 10
-19.7141181163
 20
-41.0204391231
 10
-19.7784096066
 20
-41.0659567887
 10
-19.8453836844
 20
-41.1074315464
 10
-19.9147854738
 20
-41.1447041516
 10
-19.9863517361
 20
-41.1776335851
 10
-20.0598110651
 20
-41.2060951505
 10
-20.1348833742
 20
-41.2299791576
 10
-20.2112824899
 20
-41.2491953145
 10
-20.2887198101
 20
-41.263671664
 10
-20.3669035955
 20
-41.2733523923
 10
-20.4455391596
 20
-41.2782010314
 10
-20.5243262247
 20
-41.2781990271
 10
-20.6029616627
 20
-41.2733452509
 10
-20.6811448596
 20
-41.2636594001
 10
-20.7585814613
 20
-41.2491790817
 10
-20.8349797911
 20
-41.2299578343
 10
-20.9100511877
 20
-41.2060686534
 10
-20.9835095154
 20
-41.1776030196
 10
-21.0550740061
 20
-41.1446686922
 10
-21.1244727539
 20
-41.1073917606
 10
-21.1914431576
 20
-41.0659143836
 10
-21.2557304897
 20
-41.0203936007
 10
-21.3170911629
 20
-40.9710029995
 10
-21.3752927197
 20
-40.9179310541
 10
-21.4301135936
 20
-40.8613794395
 10
-21.4813446322
 20
-40.8015658657
 10
-21.5287942167
 20
-40.7387164586
 10
-21.5722862997
 20
-40.6730634902
 10
-21.6116581492
 20
-40.6048513981
 10
-21.6467570686
 20
-40.5343439069
 10
-21.6774457503
 20
-40.4618169502
 10
-21.7036068133
 20
-40.3875540516
 10
-21.7251459371
 20
-40.3118309433
 10
-21.7419852317
 20
-40.2349217984
 10
-21.7540605634
 20
-40.1571139407
 10
-21.7613245881
 20
-40.0787074071
 10
-21.7637492651
 20
-40.0
  0
LWPOLYLINE
  5
362
100
AcDbEntity
  8
RACCORDO
100
AcDbPolyline
 62
253
  6
CONTINUOUS
 90
52
 70
0
 10
-19.7261503112
 20
-40.0
 10
-19.7276501873
 20
-40.0480900946
 10
-19.7320479179
 20
-40.0956835606
 10
-19.7393434996
 20
-40.1427803979
 10
-19.7495857338
 20
-40.1895672854
 10
-19.7627258061
 20
-40.2358575443
 10
-19.7786172865
 20
-40.2810911381
 10
-19.7972917279
 20
-40.3252448789
 10
-19.8187175528
 20
-40.3683419547
 10
-19.8426536349
 20
-40.4098918928
 10
-19.8691274131
 20
-40.4498751208
 10
-19.8981114156
 20
-40.488311211
 10
-19.929282152
 20
-40.5247684087
 10
-19.9626652568
 20
-40.55922599
 10
-19.9982350583
 20
-40.5917046786
 10
-20.0355911107
 20
-40.6218348907
 10
-20.0747537988
 20
-40.6495899009
 10
-20.1157027015
 20
-40.6749964345
 10
-20.1579761709
 20
-40.697765084
 10
-20.2015895836
 20
-40.7178660129
 10
-20.2465275325
 20
-40.7353290577
 10
-20.2922822045
 20
-40.7499543201
 10
-20.3388624348
 20
-40.7617095872
 10
-20.3862593675
 20
-40.770627072
 10
-20.4339386654
 20
-40.7766035152
 10
-20.4819050873
 20
-40.7796055568
 10
-20.5301538663
 20
-40.7796665568
 10
-20.5781363907
 20
-40.7767833369
 10
-20.6258490231
 20
-40.7709222249
 10
-20.6732954067
 20
-40.7621168929
 10
-20.7199378647
 20
-40.7504651791
 10
-20.7657681937
 20
-40.7359341642
 10
-20.8107946164
 20
-40.7185567673
 10
-20.8545041074
 20
-40.6985295843
 10
-20.8968811313
 20
-40.6758223178
 10
-20.9379412537
 20
-40.6504652652
 10
-20.9772181117
 20
-40.6227459134
 10
-21.0146914066
 20
-40.592637059
 10
-21.0503814742
 20
-40.5601659056
 10
-21.0838829112
 20
-40.5257015506
 10
-21.1151700732
 20
-40.4892226388
 10
-21.1442686435
 20
-40.4507505254
 10
-21.1708502152
 20
-40.410718374
 10
-21.1948873266
 20
-40.3691052607
 10
-21.2164074744
 20
-40.3259321093
 10
-21.2351646922
 20
-40.2816948551
 10
-21.2511262948
 20
-40.2363705521
 10
-21.2643249938
 20
-40.1899821463
 10
-21.2746129162
 20
-40.1430944109
 10
-21.2819407761
 20
-40.0958956036
 10
-21.2863578737
 20
-40.0481974666
 10
-21.2878642126
 20
-40.0
  0
LINE
  5
363
100
AcDbEntity
  8
0
100
AcDbLine
 62
7
  6
CONTINUOUS
 10
-13.8366460455
 20
13.1276596189
 11
-13.8887294782
 21
12.9148936868
  0
LINE
  5
364
100
AcDbEntity
  8
0
100
AcDbLine
 62
7
  6
CONTINUOUS
 10
-12.1178963435
 20
12.5957446396
 11
-12.0658126128
 21
12.8085105717
  0
LINE
  5
365
100
AcDbEntity
  8
0
100
AcDbLine
 62
7
  6
CONTINUOUS
 10
-11.5449794782
 20
13.1276596189
 11
-11.5970626128
 21
12.9148936868
  0
LINE
  5
366
100
AcDbEntity
  8
0
100
AcDbLine
 62
7
  6
CONTINUOUS
 10
-12.3783126128
 20
12.8085105717
 11
-12.4824794782
 21
12.5957446396
  0
LINE
  5
367
100
AcDbEntity
  8
0
100
AcDbLine
 62
7
  6
CONTINUOUS
 10
-10.0866463435
 20
12.8085105717
 11
-10.1908126128
 21
12.5957446396
  0
LINE
  5
368
100
AcDbEntity
  8
0
100
AcDbLine
 62
7
  6
CONTINUOUS
 10
-13.6283129108
 20
12.9148936868
 11
-13.5241460455
 21
13.0744681358
  0
LINE
  5
369
100
AcDbEntity
  8
0
100
AcDbLine
 62
7
  6
CONTINUOUS
 10
-12.2220626128
 20
12.4361701906
 11
-12.1178963435
 21
12.5957446396
  0
LINE
  5
36A
100
AcDbEntity
  8
0
100
AcDbLine
 62
7
  6
CONTINUOUS
 10
-11.3366463435
 20
12.9148936868
 11
-11.2324794782
 21
13.0744681358
  0
LINE
  5
36B
100
AcDbEntity
  8
0
100
AcDbLine
 62
7
  6
CONTINUOUS
 10
-9.9303963435
 20
12.4361701906
 11
-9.8262294782
 21
12.5957446396
  0
LINE
  5
36C
100
AcDbEntity
  8
0
100
AcDbLine
 62
7
  6
CONTINUOUS
 10
-9.0449794782
 20
13.5
 11
-9.3574794782
 21
13.1276596189
  0
LINE
  5
36D
100
AcDbEntity
  8
0
100
AcDbLine
 62
7
  6
CONTINUOUS
 10
-9.3574794782
 20
12.7021276057
 11
-9.0449794782
 21
13.0744681358
  0
LINE
  5
36E
100
AcDbEntity
  8
0
100
AcDbLine
 62
7
  6
CONTINUOUS
 10
-11.3366463435
 20
13.3404255509
 11
-11.5449794782
 21
13.1276596189
  0
LINE
  5
36F
100
AcDbEntity
  8
0
100
AcDbLine
 62
7
  6
CONTINUOUS
 10
-12.4824794782
 20
12.5957446396
 11
-13.9408129108
 21
11.2659574524
  0
LINE
  5
370
100
AcDbEntity
  8
0
100
AcDbLine
 62
7
  6
CONTINUOUS
 10
-10.1908126128
 20
12.5957446396
 11
-11.6491463435
 21
11.2659574524
  0
LINE
  5
371
100
AcDbEntity
  8
0
100
AcDbLine
 62
7
  6
CONTINUOUS
 10
-13.5241460455
 20
11.2659574524
 11
-12.2220626128
 21
12.4361701906
  0
LINE
  5
372
100
AcDbEntity
  8
0
100
AcDbLine
 62
7
  6
CONTINUOUS
 10
-11.2324794782
 20
11.2659574524
 11
-9.9303963435
 21
12.4361701906
  0
LINE
  5
373
100
AcDbEntity
  8
0
100
AcDbLine
 62
7
  6
CONTINUOUS
 10
-13.5241460455
 20
13.0744681358
 11
-13.3678960455
 21
13.1808511019
  0
LINE
  5
374
100
AcDbEntity
  8
0
100
AcDbLine
 62
7
  6
CONTINUOUS
 10
-11.2324794782
 20
13.0744681358
 11
-11.0762294782
 21
13.1808511019
  0
LINE
  5
375
100
AcDbEntity
  8
0
100
AcDbLine
 62
7
  6
CONTINUOUS
 10
-13.4199794782
 20
13.446808517
 11
-13.6283129108
 21
13.3404255509
  0
LINE
  5
376
100
AcDbEntity
  8
0
100
AcDbLine
 62
7
  6
CONTINUOUS
 10
-11.1283126128
 20
13.446808517
 11
-11.3366463435
 21
13.3404255509
  0
LINE
  5
377
100
AcDbEntity
  8
0
100
AcDbLine
 62
7
  6
CONTINUOUS
 10
-12.3783126128
 20
12.9148936868
 11
-12.3783126128
 21
12.8085105717
  0
LINE
  5
378
100
AcDbEntity
  8
0
100
AcDbLine
 62
7
  6
CONTINUOUS
 10
-12.0658126128
 20
11.0
 11
-12.0658126128
 21
11.2659574524
  0
LINE
  5
379
100
AcDbEntity
  8
0
100
AcDbLine
 62
7
  6
CONTINUOUS
 10
-12.0658126128
 20
12.8085105717
 11
-12.0658126128
 21
12.9148936868
  0
LINE
  5
37A
100
AcDbEntity
  8
0
100
AcDbLine
 62
7
  6
CONTINUOUS
 10
-11.6491463435
 20
11.2659574524
 11
-11.6491463435
 21
11.0
  0
LINE
  5
37B
100
AcDbEntity
  8
ASSI
100
AcDbLine
 62
7
  6
CONTINUOUS
 10
-10.4220694782
 20
29.617488
 11
-10.4220694782
 21
30.382488
  0
LINE
  5
37C
100
AcDbEntity
  8
0
100
AcDbLine
 62
7
  6
CONTINUOUS
 10
-10.0866463435
 20
12.9148936868
 11
-10.0866463435
 21
12.8085105717
  0
LINE
  5
37D
100
AcDbEntity
  8
ASSI
100
AcDbLine
 62
7
  6
CONTINUOUS
 10
-9.9120694782
 20
27.46277
 11
-9.9120694782
 21
28.2332964499
  0
LINE
  5
37E
100
AcDbEntity
  8
ASSI
100
AcDbLine
 62
7
  6
CONTINUOUS
 10
-9.9120694782
 20
31.76668
 11
-9.9120694782
 21
32.537206
  0
LINE
  5
37F
100
AcDbEntity
  8
0
100
AcDbLine
 62
7
  6
CONTINUOUS
 10
-9.7741463435
 20
11.0
 11
-9.7741463435
 21
11.2659574524
  0
LINE
  5
380
100
AcDbEntity
  8
0
100
AcDbLine
 62
7
  6
CONTINUOUS
 10
-9.7741463435
 20
12.8085105717
 11
-9.7741463435
 21
12.9148936868
  0
LINE
  5
381
100
AcDbEntity
  8
0
100
AcDbLine
 62
7
  6
CONTINUOUS
 10
-9.3574794782
 20
13.1276596189
 11
-9.3574794782
 21
12.7021276057
  0
LINE
  5
382
100
AcDbEntity
  8
0
100
AcDbLine
 62
7
  6
CONTINUOUS
 10
-9.0449794782
 20
13.0744681358
 11
-9.0449794782
 21
11.0
  0
LINE
  5
383
100
AcDbEntity
  8
0
100
AcDbLine
 62
7
  6
CONTINUOUS
 10
-9.8262294782
 20
12.5957446396
 11
-9.7741463435
 21
12.8085105717
  0
LINE
  5
384
100
AcDbEntity
  8
RACCORDO
100
AcDbLine
 62
253
  6
CONTINUOUS
 10
38.0201159324
 20
56.4025725648
 11
38.0586084651
 21
56.4410650975
  0
LINE
  5
385
100
AcDbEntity
  8
RACCORDO
100
AcDbLine
 62
253
  6
CONTINUOUS
 10
38.1700930866
 20
56.2525954105
 11
38.2085856194
 21
56.2910879432
  0
LINE
  5
386
100
AcDbEntity
  8
RACCORDO
100
AcDbLine
 62
253
  6
CONTINUOUS
 10
38.0586084651
 20
-56.4410650975
 11
38.0201159324
 21
-56.4025725648
  0
LINE
  5
387
100
AcDbEntity
  8
RACCORDO
100
AcDbLine
 62
253
  6
CONTINUOUS
 10
38.2085856194
 20
-56.2910879432
 11
38.1700930866
 21
-56.2525954105
  0
LINE
  5
388
100
AcDbEntity
  8
0
100
AcDbLine
 62
7
  6
CONTINUOUS
 10
-8.7324794782
 20
11.0
 11
-8.7324794782
 21
13.5
  0
LINE
  5
389
100
AcDbEntity
  8
0
100
AcDbLine
 62
7
  6
CONTINUOUS
 10
-12.0658126128
 20
12.9148936868
 11
-12.1178963435
 21
13.1276596189
  0
LINE
  5
38A
100
AcDbEntity
  8
0
100
AcDbLine
 62
7
  6
CONTINUOUS
 10
-9.7741463435
 20
12.9148936868
 11
-9.8262294782
 21
13.1276596189
  0
LINE
  5
38B
100
AcDbEntity
  8
0
100
AcDbLine
 62
7
  6
CONTINUOUS
 10
16.5175205218
 20
30.0
 11
17.2064385218
 21
31.198319
  0
LINE
  5
38C
100
AcDbEntity
  8
0
100
AcDbLine
 62
7
  6
CONTINUOUS
 10
17.5978875218
 20
30.571926
 11
16.5175205218
 21
28.692743
  0
LINE
  5
38D
100
AcDbEntity
  8
0
100
AcDbLine
 62
7
  6
CONTINUOUS
 10
21.7191235218
 20
29.373031
 11
21.2285185218
 21
28.699072
  0
LINE
  5
38E
100
AcDbEntity
  8
0
100
AcDbLine
 62
7
  6
CONTINUOUS
 10
23.0495875218
 20
31.200813
 11
22.1391495218
 21
29.949943
  0
LINE
  5
38F
100
AcDbEntity
  8
0
100
AcDbLine
 62
7
  6
CONTINUOUS
 10
21.7191235218
 20
30.527046
 11
22.2097285218
 21
31.200813
  0
LINE
  5
390
100
AcDbEntity
  8
0
100
AcDbLine
 62
7
  6
CONTINUOUS
 10
20.3884675218
 20
28.699072
 11
21.2990975218
 21
29.949943
  0
LWPOLYLINE
  5
391
100
AcDbEntity
  8
RACCORDO
100
AcDbPolyline
 62
7
  6
CONTINUOUS
 90
6
 70
0
 10
-37.4553784326
 20
-46.3728413299
 10
-37.4544221995
 20
-46.3716269974
 10
-37.45216946
 20
-46.3694148757
 10
-37.4487736698
 20
-46.3662049647
 10
-37.4444024951
 20
-46.3618776383
 10
-37.4392003057
 20
-46.3565525226
  0
LINE
  5
392
100
AcDbEntity
  8
RACCORDO
100
AcDbLine
 62
253
  6
CONTINUOUS
 10
-38.466819815
 20
-36.0854819274
 11
-38.1933174162
 21
-35.8119795286
  0
LINE
  5
393
100
AcDbEntity
  8
RACCORDO
100
AcDbLine
 62
253
  6
CONTINUOUS
 10
-38.1679614055
 20
-36.3843403368
 11
-37.8944590068
 21
-36.110837938
  0
LWPOLYLINE
  5
394
100
AcDbEntity
  8
RACCORDO
100
AcDbPolyline
 62
253
  6
CONTINUOUS
 90
16
 70
0
 10
-37.3054012783
 20
-3.7474274352
 10
-37.3210751318
 20
-3.7482534815
 10
-37.3365773258
 20
-3.7507130254
 10
-37.3517380808
 20
-3.7547791302
 10
-37.3663913568
 20
-3.7604072639
 10
-37.3803766716
 20
-3.7675357875
 10
-37.3935408585
 20
-3.7760866297
 10
-37.4057397439
 20
-3.7859661418
 10
-37.416839726
 20
-3.7970661239
 10
-37.4267192381
 20
-3.8092650093
 10
-37.4352700802
 20
-3.8224291962
 10
-37.4423986038
 20
-3.836414511
 10
-37.4480267376
 20
-3.851067787
 10
-37.4520928424
 20
-3.866228542
 10
-37.4545523863
 20
-3.881730736
 10
-37.4553784326
 20
-3.8974045895
  0
LWPOLYLINE
  5
395
100
AcDbEntity
  8
RACCORDO
100
AcDbPolyline
 62
7
  6
CONTINUOUS
 90
22
 70
0
 10
-37.3202837784
 20
-3.7325449351
 10
-37.3351468136
 20
-3.7332679955
 10
-37.349320132
 20
-3.7353279578
 10
-37.3626988825
 20
-3.7385444915
 10
-37.3751400012
 20
-3.7427086087
 10
-37.3866697736
 20
-3.7476634531
 10
-37.3974551271
 20
-3.7533651237
 10
-37.4075014258
 20
-3.7597281839
 10
-37.4167516941
 20
-3.766623474
 10
-37.4252634933
 20
-3.7740155942
 10
-37.4330333972
 20
-3.7818275344
 10
-37.4400530526
 20
-3.7899714669
 10
-37.4463613363
 20
-3.798426659
 10
-37.4519648361
 20
-3.807136543
 10
-37.4568641767
 20
-3.8160295727
 10
-37.4610808954
 20
-3.8250789121
 10
-37.4646284008
 20
-3.8342405988
 10
-37.46751613
 20
-3.8434539108
 10
-37.4697592645
 20
-3.8526743423
 10
-37.4713772428
 20
-3.8618582142
 10
-37.4723936215
 20
-3.8709626993
 10
-37.4728334975
 20
-3.8799495245
  0
LINE
  5
396
100
AcDbEntity
  8
RACCORDO
100
AcDbLine
 62
253
  6
CONTINUOUS
 10
-36.2350748887
 20
-3.8974045895
 11
-37.4553784326
 21
-3.8974045895
  0
LINE
  5
397
100
AcDbEntity
  8
RACCORDO
100
AcDbLine
 62
253
  6
CONTINUOUS
 10
-36.385052043
 20
-3.7474274352
 11
-37.3054012783
 21
-3.7474274352
  0
LINE
  5
398
100
AcDbEntity
  8
RACCORDO
100
AcDbLine
 62
7
  6
CONTINUOUS
 10
-37.3228563432
 20
-3.7325449351
 11
-36.3999345431
 21
-3.7325449351
  0
LWPOLYLINE
  5
399
100
AcDbEntity
  8
RACCORDO
100
AcDbPolyline
 62
253
  6
CONTINUOUS
 90
3
 70
0
 10
-37.3331365497
 20
3.7500227336
 10
-37.3208518569
 20
3.7482301199
 10
-37.3054012783
 20
3.7474274352
  0
LINE
  5
39A
100
AcDbEntity
  8
RACCORDO
100
AcDbLine
 62
253
  6
CONTINUOUS
 10
-38.466819815
 20
36.0854819274
 11
-38.1933174162
 21
35.8119795286
  0
LINE
  5
39B
100
AcDbEntity
  8
RACCORDO
100
AcDbLine
 62
253
  6
CONTINUOUS
 10
-38.1679614055
 20
36.3843403368
 11
-37.8944590068
 21
36.110837938
  0
LINE
  5
39C
100
AcDbEntity
  8
0
100
AcDbLine
 62
7
  6
CONTINUOUS
 10
-12.1178963435
 20
13.1276596189
 11
-12.3262294782
 21
13.3404255509
  0
LWPOLYLINE
  5
39D
100
AcDbEntity
  8
RACCORDO
100
AcDbPolyline
 62
7
  6
CONTINUOUS
 90
7
 70
0
 10
-37.4553784326
 20
46.3728413299
 10
-37.4544221995
 20
46.3716269974
 10
-37.45216946
 20
46.3694148757
 10
-37.4487736698
 20
46.3662049647
 10
-37.4444024951
 20
46.3618776383
 10
-37.4392003057
 20
46.3565525226
 10
-37.4266980904
 20
46.3440284579
  0
LINE
  5
39E
100
AcDbEntity
  8
0
100
AcDbLine
 62
7
  6
CONTINUOUS
 10
-12.4824794782
 20
13.0744681358
 11
-12.3783126128
 21
12.9148936868
  0
LINE
  5
39F
100
AcDbEntity
  8
0
100
AcDbLine
 62
7
  6
CONTINUOUS
 10
-10.1908126128
 20
13.0744681358
 11
-10.0866463435
 21
12.9148936868
  0
LINE
  5
3A0
100
AcDbEntity
  8
RACCORDO
100
AcDbLine
 62
7
  6
CONTINUOUS
 10
-37.3144505119
 20
-46.2297737451
 11
-37.3054012783
 21
-46.2204018393
  0
LINE
  5
3A1
100
AcDbEntity
  8
RACCORDO
100
AcDbLine
 62
253
  6
CONTINUOUS
 10
-39.7969975508
 20
-43.6156596632
 11
-40.0704999495
 21
-43.889162062
  0
LINE
  5
3A2
100
AcDbEntity
  8
RACCORDO
100
AcDbLine
 62
253
  6
CONTINUOUS
 10
-39.4981391414
 20
-43.9145180726
 11
-39.7716415401
 21
-44.1880204714
  0
LINE
  5
3A3
100
AcDbEntity
  8
RACCORDO
100
AcDbLine
 62
7
  6
CONTINUOUS
 10
-36.3999345431
 20
3.7325449351
 11
-37.3228563432
 21
3.7325449351
  0
LINE
  5
3A4
100
AcDbEntity
  8
RACCORDO
100
AcDbLine
 62
253
  6
CONTINUOUS
 10
-37.3054012783
 20
3.7474274352
 11
-36.385052043
 21
3.7474274352
  0
LINE
  5
3A5
100
AcDbEntity
  8
RACCORDO
100
AcDbLine
 62
253
  6
CONTINUOUS
 10
-36.2350748887
 20
3.8974045895
 11
-37.4553784326
 21
3.8974045895
  0
LINE
  5
3A6
100
AcDbEntity
  8
0
100
AcDbLine
 62
7
  6
CONTINUOUS
 10
-12.6387294782
 20
13.1808511019
 11
-12.4824794782
 21
13.0744681358
  0
LINE
  5
3A7
100
AcDbEntity
  8
0
100
AcDbLine
 62
7
  6
CONTINUOUS
 10
-10.3470626128
 20
13.1808511019
 11
-10.1908126128
 21
13.0744681358
  0
LINE
  5
3A8
100
AcDbEntity
  8
RACCORDO
100
AcDbLine
 62
253
  6
CONTINUOUS
 10
-39.7969975508
 20
43.6156596632
 11
-40.0704999495
 21
43.889162062
  0
LINE
  5
3A9
100
AcDbEntity
  8
RACCORDO
100
AcDbLine
 62
253
  6
CONTINUOUS
 10
-39.4981391414
 20
43.9145180726
 11
-39.7716415401
 21
44.1880204714
  0
LINE
  5
3AA
100
AcDbEntity
  8
0
100
AcDbLine
 62
7
  6
CONTINUOUS
 10
-9.8262294782
 20
13.1276596189
 11
-10.0345626128
 21
13.3404255509
  0
LINE
  5
3AB
100
AcDbEntity
  8
RACCORDO
100
AcDbLine
 62
7
  6
CONTINUOUS
 10
-37.3144505119
 20
46.2297737451
 11
-37.3054012783
 21
46.2204018393
  0
LINE
  5
3AC
100
AcDbEntity
  8
0
100
AcDbLine
 62
7
  6
CONTINUOUS
 10
14.2658715218
 20
18.644556
 11
13.6890095218
 21
16.923424
  0
LINE
  5
3AD
100
AcDbEntity
  8
0
100
AcDbLine
 62
7
  6
CONTINUOUS
 10
13.5547915218
 20
17.231515
 11
14.1401855218
 21
18.972865
  0
LINE
  5
3AE
100
AcDbEntity
  8
0
100
AcDbLine
 62
7
  6
CONTINUOUS
 10
15.2796485218
 20
17.520348
 11
15.0654185218
 21
16.923424
  0
LINE
  5
3AF
100
AcDbEntity
  8
0
100
AcDbLine
 62
7
  6
CONTINUOUS
 10
15.6966145218
 20
18.675828
 11
15.3653735218
 21
17.765751
  0
LINE
  5
3B0
100
AcDbEntity
  8
0
100
AcDbLine
 62
7
  6
CONTINUOUS
 10
14.7798895218
 20
16.923424
 11
15.5509175218
 21
18.972865
  0
LINE
  5
3B1
100
AcDbEntity
  8
0
100
AcDbLine
 62
7
  6
CONTINUOUS
 10
20.1997995218
 20
13.078234
 11
19.4259525218
 21
11.852881
  0
LINE
  5
3B2
100
AcDbEntity
  8
RACCORDO
100
AcDbLine
 62
7
  6
CONTINUOUS
 10
-37.3785961815
 20
-46.2952860722
 11
-37.3144505119
 21
-46.2297737451
  0
LWPOLYLINE
  5
3B3
100
AcDbEntity
  8
RACCORDO
100
AcDbPolyline
 62
7
  6
CONTINUOUS
 90
3
 70
0
 10
-37.4041559643
 20
-46.3212288854
 10
-37.3873735129
 20
-46.3041766826
 10
-37.3785961815
 20
-46.2952860722
  0
LINE
  5
3B4
100
AcDbEntity
  8
RACCORDO
100
AcDbLine
 62
7
  6
CONTINUOUS
 10
-37.41963236
 20
-46.3368295088
 11
-37.4041559643
 21
-46.3212288854
  0
LINE
  5
3B5
100
AcDbEntity
  8
RACCORDO
100
AcDbLine
 62
7
  6
CONTINUOUS
 10
-37.4553784326
 20
-46.3728413299
 11
-37.4824794782
 21
-46.4
  0
LWPOLYLINE
  5
3B6
100
AcDbEntity
  8
RACCORDO
100
AcDbPolyline
 62
7
  6
CONTINUOUS
 90
3
 70
0
 10
-37.4392003057
 20
-46.3565525226
 10
-37.4266980904
 20
-46.3440284579
 10
-37.41963236
 20
-46.3368295088
  0
LINE
  5
3B7
100
AcDbEntity
  8
0
100
AcDbLine
 62
7
  6
CONTINUOUS
 10
-12.3262294782
 20
13.3404255509
 11
-12.5345629108
 21
13.446808517
  0
LINE
  5
3B8
100
AcDbEntity
  8
0
100
AcDbLine
 62
7
  6
CONTINUOUS
 10
-10.0345626128
 20
13.3404255509
 11
-10.2428963435
 21
13.446808517
  0
LINE
  5
3B9
100
AcDbEntity
  8
RACCORDO
100
AcDbLine
 62
7
  6
CONTINUOUS
 10
-37.4553784326
 20
46.3728413299
 11
-37.4824794782
 21
46.4
  0
LWPOLYLINE
  5
3BA
100
AcDbEntity
  8
RACCORDO
100
AcDbPolyline
 62
7
  6
CONTINUOUS
 90
3
 70
0
 10
-37.4266980904
 20
46.3440284579
 10
-37.41963236
 20
46.3368295088
 10
-37.4041559643
 20
46.3212288854
  0
LINE
  5
3BB
100
AcDbEntity
  8
RACCORDO
100
AcDbLine
 62
7
  6
CONTINUOUS
 10
-37.4041559643
 20
46.3212288854
 11
-37.3513527878
 21
46.2675221063
  0
LINE
  5
3BC
100
AcDbEntity
  8
RACCORDO
100
AcDbLine
 62
7
  6
CONTINUOUS
 10
-37.3513527878
 20
46.2675221063
 11
-37.3144505119
 21
46.2297737451
  0
LINE
  5
3BD
100
AcDbEntity
  8
0
100
AcDbLine
 62
7
  6
CONTINUOUS
 10
10.7445665218
 20
28.692743
 11
10.7445665218
 21
31.198319
  0
LINE
  5
3BE
100
AcDbEntity
  8
0
100
AcDbLine
 62
7
  6
CONTINUOUS
 10
11.5171075218
 20
30.571926
 11
11.5171075218
 21
30.258729
  0
LINE
  5
3BF
100
AcDbEntity
  8
0
100
AcDbLine
 62
7
  6
CONTINUOUS
 10
11.5171075218
 20
29.632334
 11
11.5171075218
 21
29.319137
  0
LINE
  5
3C0
100
AcDbEntity
  8
0
100
AcDbLine
 62
7
  6
CONTINUOUS
 10
12.4565065218
 20
30.258729
 11
12.4565065218
 21
29.632334
  0
LINE
  5
3C1
100
AcDbEntity
  8
0
100
AcDbLine
 62
7
  6
CONTINUOUS
 10
12.5696105218
 20
16.923424
 11
12.5696105218
 21
18.972865
  0
LINE
  5
3C2
100
AcDbEntity
  8
0
100
AcDbLine
 62
7
  6
CONTINUOUS
 10
12.8380605218
 20
18.64124
 11
12.8380605218
 21
16.923424
  0
LINE
  5
3C3
100
AcDbEntity
  8
0
100
AcDbLine
 62
7
  6
CONTINUOUS
 10
12.9921005218
 20
11.027135
 11
12.9921005218
 21
13.078234
  0
LINE
  5
3C4
100
AcDbEntity
  8
0
100
AcDbLine
 62
7
  6
CONTINUOUS
 10
13.1615355218
 20
31.198319
 11
13.1615355218
 21
30.571926
  0
LINE
  5
3C5
100
AcDbEntity
  8
0
100
AcDbLine
 62
7
  6
CONTINUOUS
 10
13.2691725218
 20
13.078234
 11
13.2691725218
 21
11.027135
  0
LINE
  5
3C6
100
AcDbEntity
  8
0
100
AcDbLine
 62
7
  6
CONTINUOUS
 10
13.4252505218
 20
30.571926
 11
13.4252505218
 21
31.198319
  0
LINE
  5
3C7
100
AcDbEntity
  8
0
100
AcDbLine
 62
7
  6
CONTINUOUS
 10
13.4438545218
 20
29.319137
 11
13.4438545218
 21
28.692743
  0
LINE
  5
3C8
100
AcDbEntity
  8
0
100
AcDbLine
 62
7
  6
CONTINUOUS
 10
13.5663085218
 20
12.832832
 11
13.5663085218
 21
13.078234
  0
LINE
  5
3C9
100
AcDbEntity
  8
0
100
AcDbLine
 62
7
  6
CONTINUOUS
 10
13.7096785218
 20
28.692743
 11
13.7096785218
 21
30.258729
  0
LINE
  5
3CA
100
AcDbEntity
  8
0
100
AcDbLine
 62
7
  6
CONTINUOUS
 10
14.2602335218
 20
11.027135
 11
14.2602335218
 21
12.832832
  0
LINE
  5
3CB
100
AcDbEntity
  8
0
100
AcDbLine
 62
7
  6
CONTINUOUS
 10
14.2658715218
 20
16.923424
 11
14.2658715218
 21
18.644556
  0
LINE
  5
3CC
100
AcDbEntity
  8
0
100
AcDbLine
 62
7
  6
CONTINUOUS
 10
14.4659165218
 20
30.258729
 11
14.4659165218
 21
29.319137
  0
LINE
  5
3CD
100
AcDbEntity
  8
0
100
AcDbLine
 62
7
  6
CONTINUOUS
 10
14.5343215218
 20
18.972865
 11
14.5343215218
 21
16.923424
  0
LINE
  5
3CE
100
AcDbEntity
  8
0
100
AcDbLine
 62
7
  6
CONTINUOUS
 10
14.5371405218
 20
12.832832
 11
14.5371405218
 21
11.027135
  0
LINE
  5
3CF
100
AcDbEntity
  8
0
100
AcDbLine
 62
7
  6
CONTINUOUS
 10
15.8107455218
 20
11.62406
 11
15.5965155218
 21
11.027135
  0
LINE
  5
3D0
100
AcDbEntity
  8
0
100
AcDbLine
 62
7
  6
CONTINUOUS
 10
16.2277125218
 20
12.779537
 11
15.8963045218
 21
11.869462
  0
LINE
  5
3D1
100
AcDbEntity
  8
0
100
AcDbLine
 62
7
  6
CONTINUOUS
 10
15.3109865218
 20
11.027135
 11
16.0820145218
 21
13.078234
  0
LINE
  5
3D2
100
AcDbEntity
  8
0
100
AcDbLine
 62
7
  6
CONTINUOUS
 10
19.2860075218
 20
12.093309
 11
19.8743095218
 21
13.078234
  0
LINE
  5
3D3
100
AcDbEntity
  8
RACCORDO
100
AcDbLine
 62
253
  6
CONTINUOUS
 10
-37.4553784326
 20
-56.7229751068
 11
-37.4824794782
 21
-56.7500761524
  0
LINE
  5
3D4
100
AcDbEntity
  8
RACCORDO
100
AcDbLine
 62
253
  6
CONTINUOUS
 10
-36.955454585
 20
-57.2228989544
 11
-36.9825556306
 21
-57.25
  0
LINE
  5
3D5
100
AcDbEntity
  8
RACCORDO
100
AcDbLine
 62
253
  6
CONTINUOUS
 10
-35.1735445757
 20
-56.2910879432
 11
-35.135052043
 21
-56.2525954105
  0
LINE
  5
3D6
100
AcDbEntity
  8
0
100
AcDbLine
 62
7
  6
CONTINUOUS
 10
-10.7637294782
 20
13.5
 11
-11.1283126128
 21
13.446808517
  0
LINE
  5
3D7
100
AcDbEntity
  8
0
100
AcDbLine
 62
7
  6
CONTINUOUS
 10
-16.2324794782
 20
11.0
 11
-15.9199794782
 21
11.0
  0
LINE
  5
3D8
100
AcDbEntity
  8
0
100
AcDbLine
 62
7
  6
CONTINUOUS
 10
-14.6699794782
 20
11.0
 11
-14.3574794782
 21
11.0
  0
LINE
  5
3D9
100
AcDbEntity
  8
0
100
AcDbLine
 62
7
  6
CONTINUOUS
 10
-13.9408129108
 20
11.0
 11
-12.0658126128
 21
11.0
  0
LINE
  5
3DA
100
AcDbEntity
  8
0
100
AcDbLine
 62
7
  6
CONTINUOUS
 10
-11.6491463435
 20
11.0
 11
-9.7741463435
 21
11.0
  0
LINE
  5
3DB
100
AcDbEntity
  8
0
100
AcDbLine
 62
7
  6
CONTINUOUS
 10
-9.0449794782
 20
11.0
 11
-8.7324794782
 21
11.0
  0
LINE
  5
3DC
100
AcDbEntity
  8
0
100
AcDbLine
 62
7
  6
CONTINUOUS
 10
19.4259525218
 20
11.027135
 11
19.1490465218
 21
11.027135
  0
LINE
  5
3DD
100
AcDbEntity
  8
0
100
AcDbLine
 62
7
  6
CONTINUOUS
 10
18.7091455218
 20
11.027135
 11
17.3927615218
 21
11.027135
  0
LINE
  5
3DE
100
AcDbEntity
  8
0
100
AcDbLine
 62
7
  6
CONTINUOUS
 10
17.1385705218
 20
11.027135
 11
16.8359635218
 21
11.027135
  0
LINE
  5
3DF
100
AcDbEntity
  8
0
100
AcDbLine
 62
7
  6
CONTINUOUS
 10
15.5965155218
 20
11.027135
 11
15.3109865218
 21
11.027135
  0
LINE
  5
3E0
100
AcDbEntity
  8
0
100
AcDbLine
 62
7
  6
CONTINUOUS
 10
14.5371405218
 20
11.027135
 11
14.2602335218
 21
11.027135
  0
LINE
  5
3E1
100
AcDbEntity
  8
0
100
AcDbLine
 62
7
  6
CONTINUOUS
 10
13.2691725218
 20
11.027135
 11
12.9921005218
 21
11.027135
  0
LINE
  5
3E2
100
AcDbEntity
  8
0
100
AcDbLine
 62
7
  6
CONTINUOUS
 10
-9.7741463435
 20
11.2659574524
 11
-11.2324794782
 21
11.2659574524
  0
LINE
  5
3E3
100
AcDbEntity
  8
0
100
AcDbLine
 62
7
  6
CONTINUOUS
 10
-12.0658126128
 20
11.2659574524
 11
-13.5241460455
 21
11.2659574524
  0
LINE
  5
3E4
100
AcDbEntity
  8
0
100
AcDbLine
 62
7
  6
CONTINUOUS
 10
17.6696675218
 20
11.272537
 11
18.7091455218
 21
11.272537
  0
LINE
  5
3E5
100
AcDbEntity
  8
0
100
AcDbLine
 62
7
  6
CONTINUOUS
 10
16.6331745218
 20
11.62406
 11
15.8107455218
 21
11.62406
  0
LINE
  5
3E6
100
AcDbEntity
  8
0
100
AcDbLine
 62
7
  6
CONTINUOUS
 10
-17.4824794782
 20
11.7446808368
 11
-16.2324794782
 21
11.7446808368
  0
LINE
  5
3E7
100
AcDbEntity
  8
0
100
AcDbLine
 62
7
  6
CONTINUOUS
 10
-15.9199794782
 20
11.7446808368
 11
-15.3991461945
 21
11.7446808368
  0
LINE
  5
3E8
100
AcDbEntity
  8
0
100
AcDbLine
 62
7
  6
CONTINUOUS
 10
15.8963045218
 20
11.869462
 11
16.5331895218
 21
11.869462
  0
LINE
  5
3E9
100
AcDbEntity
  8
0
100
AcDbLine
 62
7
  6
CONTINUOUS
 10
-15.3991461945
 20
12.0638298094
 11
-15.9199794782
 21
12.0638298094
  0
LINE
  5
3EA
100
AcDbEntity
  8
0
100
AcDbLine
 62
7
  6
CONTINUOUS
 10
-16.2324794782
 20
12.0638298094
 11
-17.1178961572
 21
12.0638298094
  0
LINE
  5
3EB
100
AcDbEntity
  8
0
100
AcDbLine
 62
7
  6
CONTINUOUS
 10
15.2310655218
 20
12.832832
 11
14.5371405218
 21
12.832832
  0
LINE
  5
3EC
100
AcDbEntity
  8
0
100
AcDbLine
 62
7
  6
CONTINUOUS
 10
14.2602335218
 20
12.832832
 11
13.5663085218
 21
12.832832
  0
LINE
  5
3ED
100
AcDbEntity
  8
0
100
AcDbLine
 62
7
  6
CONTINUOUS
 10
-13.8887294782
 20
12.9148936868
 11
-13.6283129108
 21
12.9148936868
  0
LINE
  5
3EE
100
AcDbEntity
  8
0
100
AcDbLine
 62
7
  6
CONTINUOUS
 10
-11.5970626128
 20
12.9148936868
 11
-11.3366463435
 21
12.9148936868
  0
LINE
  5
3EF
100
AcDbEntity
  8
0
100
AcDbLine
 62
7
  6
CONTINUOUS
 10
12.9921005218
 20
13.078234
 11
13.2691725218
 21
13.078234
  0
LINE
  5
3F0
100
AcDbEntity
  8
0
100
AcDbLine
 62
7
  6
CONTINUOUS
 10
13.5663085218
 20
13.078234
 11
15.2310655218
 21
13.078234
  0
LINE
  5
3F1
100
AcDbEntity
  8
0
100
AcDbLine
 62
7
  6
CONTINUOUS
 10
16.0820145218
 20
13.078234
 11
16.3960625218
 21
13.078234
  0
LINE
  5
3F2
100
AcDbEntity
  8
0
100
AcDbLine
 62
7
  6
CONTINUOUS
 10
17.3927615218
 20
13.078234
 11
17.6696675218
 21
13.078234
  0
LINE
  5
3F3
100
AcDbEntity
  8
0
100
AcDbLine
 62
7
  6
CONTINUOUS
 10
18.3750335218
 20
13.078234
 11
18.6977045218
 21
13.078234
  0
LINE
  5
3F4
100
AcDbEntity
  8
0
100
AcDbLine
 62
7
  6
CONTINUOUS
 10
19.8743095218
 20
13.078234
 11
20.1997995218
 21
13.078234
  0
LINE
  5
3F5
100
AcDbEntity
  8
0
100
AcDbLine
 62
7
  6
CONTINUOUS
 10
-13.1074794782
 20
13.2340425849
 11
-12.8991460455
 21
13.2340425849
  0
LINE
  5
3F6
100
AcDbEntity
  8
0
100
AcDbLine
 62
7
  6
CONTINUOUS
 10
-10.8158126128
 20
13.2340425849
 11
-10.6074794782
 21
13.2340425849
  0
LINE
  5
3F7
100
AcDbEntity
  8
0
100
AcDbLine
 62
7
  6
CONTINUOUS
 10
-8.7324794782
 20
13.5
 11
-9.0449794782
 21
13.5
  0
LINE
  5
3F8
100
AcDbEntity
  8
0
100
AcDbLine
 62
7
  6
CONTINUOUS
 10
-10.5553963435
 20
13.5
 11
-10.7637294782
 21
13.5
  0
LINE
  5
3F9
100
AcDbEntity
  8
0
100
AcDbLine
 62
7
  6
CONTINUOUS
 10
-12.8470629108
 20
13.5
 11
-13.0553960455
 21
13.5
  0
LINE
  5
3FA
100
AcDbEntity
  8
0
100
AcDbLine
 62
7
  6
CONTINUOUS
 10
-14.3574794782
 20
13.5
 11
-14.6699794782
 21
13.5
  0
LINE
  5
3FB
100
AcDbEntity
  8
0
100
AcDbLine
 62
7
  6
CONTINUOUS
 10
-15.9199794782
 20
13.5
 11
-16.2324794782
 21
13.5
  0
LINE
  5
3FC
100
AcDbEntity
  8
0
100
AcDbLine
 62
7
  6
CONTINUOUS
 10
17.6968615218
 20
13.975279
 11
17.3856315218
 21
13.975279
  0
LINE
  5
3FD
100
AcDbEntity
  8
0
100
AcDbLine
 62
7
  6
CONTINUOUS
 10
16.3376965218
 20
13.975279
 11
16.0690805218
 21
13.975279
  0
LINE
  5
3FE
100
AcDbEntity
  8
0
100
AcDbLine
 62
7
  6
CONTINUOUS
 10
15.5951895218
 20
13.975279
 11
15.3181165218
 21
13.975279
  0
LINE
  5
3FF
100
AcDbEntity
  8
0
100
AcDbLine
 62
7
  6
CONTINUOUS
 10
-12.5345629108
 20
13.446808517
 11
-12.8470629108
 21
13.5
  0
LINE
  5
400
100
AcDbEntity
  8
0
100
AcDbLine
 62
7
  6
CONTINUOUS
 10
-10.2428963435
 20
13.446808517
 11
-10.5553963435
 21
13.5
  0
LINE
  5
401
100
AcDbEntity
  8
0
100
AcDbLine
 62
7
  6
CONTINUOUS
 10
-12.8991460455
 20
13.2340425849
 11
-12.6387294782
 21
13.1808511019
  0
LINE
  5
402
100
AcDbEntity
  8
0
100
AcDbLine
 62
7
  6
CONTINUOUS
 10
-10.6074794782
 20
13.2340425849
 11
-10.3470626128
 21
13.1808511019
  0
LINE
  5
403
100
AcDbEntity
  8
RACCORDO
100
AcDbLine
 62
253
  6
CONTINUOUS
 10
-37.4824794782
 20
56.7500761524
 11
-37.4553784326
 21
56.7229751068
  0
LINE
  5
404
100
AcDbEntity
  8
RACCORDO
100
AcDbLine
 62
253
  6
CONTINUOUS
 10
-36.9825556306
 20
57.25
 11
-36.955454585
 21
57.2228989544
  0
LINE
  5
405
100
AcDbEntity
  8
RACCORDO
100
AcDbLine
 62
253
  6
CONTINUOUS
 10
-35.1735445757
 20
56.2910879432
 11
-35.135052043
 21
56.2525954105
  0
LWPOLYLINE
  5
406
100
AcDbEntity
  8
0
100
AcDbPolyline
 62
7
  6
CONTINUOUS
 90
34
 70
0
 10
18.2841200322
 20
17.94814436
 10
18.2836268661
 20
17.9869283386
 10
18.2820045892
 20
18.0264839121
 10
18.2792532011
 20
18.0668110806
 10
18.2754786689
 20
18.1082823219
 10
18.2705750241
 20
18.1505251581
 10
18.2642243616
 20
18.1924221558
 10
18.2563889094
 20
18.2340506396
 10
18.2471064353
 20
18.2753332848
 10
18.2361723421
 20
18.3149206842
 10
18.223338616
 20
18.3525096412
 10
18.2088532623
 20
18.3884033524
 10
18.1932557124
 20
18.4221620003
 10
18.1766300288
 20
18.4535388628
 10
18.1588921419
 20
18.4827806621
 10
18.1403292868
 20
18.5101877469
 10
18.1210362061
 20
18.5357765011
 10
18.1009181512
 20
18.5595305408
 10
18.079978121
 20
18.5817010635
 10
18.0583058319
 20
18.602333916
 10
18.0358115608
 20
18.6213832514
 10
18.0122291464
 20
18.6389627274
 10
17.9874254456
 20
18.6551195701
 10
17.9615335906
 20
18.6698065534
 10
17.934686833
 20
18.6829956553
 10
17.9067442491
 20
18.6946782908
 10
17.8778467517
 20
18.7048630449
 10
17.848550351
 20
18.7135476519
 10
17.8189089564
 20
18.7206718999
 10
17.7888686542
 20
18.7262960007
 10
17.7588237247
 20
18.7305983242
 10
17.7289055958
 20
18.7336383268
 10
17.6989828404
 20
18.7353565521
 10
17.6690554585
 20
18.735753
  0
LINE
  5
407
100
AcDbEntity
  8
0
100
AcDbLine
 62
7
  6
CONTINUOUS
 10
15.2310655218
 20
13.078234
 11
15.2310655218
 21
12.832832
  0
LINE
  5
408
100
AcDbEntity
  8
0
100
AcDbLine
 62
7
  6
CONTINUOUS
 10
15.3181165218
 20
13.975279
 11
15.3181165218
 21
16.024721
  0
LINE
  5
409
100
AcDbEntity
  8
0
100
AcDbLine
 62
7
  6
CONTINUOUS
 10
15.5951895218
 20
16.024721
 11
15.5951895218
 21
13.975279
  0
LINE
  5
40A
100
AcDbEntity
  8
0
100
AcDbLine
 62
7
  6
CONTINUOUS
 10
15.8790435218
 20
29.319137
 11
15.8790435218
 21
28.692743
  0
LINE
  5
40B
100
AcDbEntity
  8
0
100
AcDbLine
 62
7
  6
CONTINUOUS
 10
16.0690805218
 20
13.975279
 11
16.0690805218
 21
16.024721
  0
LINE
  5
40C
100
AcDbEntity
  8
0
100
AcDbLine
 62
7
  6
CONTINUOUS
 10
16.3376965218
 20
15.640705
 11
16.3376965218
 21
13.975279
  0
LINE
  5
40D
100
AcDbEntity
  8
0
100
AcDbLine
 62
7
  6
CONTINUOUS
 10
16.8759235218
 20
16.923424
 11
16.8759235218
 21
18.972865
  0
LINE
  5
40E
100
AcDbEntity
  8
0
100
AcDbLine
 62
7
  6
CONTINUOUS
 10
17.1528305218
 20
18.735753
 11
17.1528305218
 21
17.160535
  0
LINE
  5
40F
100
AcDbEntity
  8
0
100
AcDbLine
 62
7
  6
CONTINUOUS
 10
17.3927615218
 20
11.027135
 11
17.3927615218
 21
13.078234
  0
LINE
  5
410
100
AcDbEntity
  8
0
100
AcDbLine
 62
7
  6
CONTINUOUS
 10
17.4285765218
 20
14.360546
 11
17.4285765218
 21
16.024721
  0
LINE
  5
411
100
AcDbEntity
  8
0
100
AcDbLine
 62
7
  6
CONTINUOUS
 10
17.6623295218
 20
28.692743
 11
17.6623295218
 21
30.258729
  0
LINE
  5
412
100
AcDbEntity
  8
0
100
AcDbLine
 62
7
  6
CONTINUOUS
 10
17.6696675218
 20
13.078234
 11
17.6696675218
 21
11.272537
  0
LINE
  5
413
100
AcDbEntity
  8
0
100
AcDbLine
 62
7
  6
CONTINUOUS
 10
17.6968615218
 20
16.024721
 11
17.6968615218
 21
13.975279
  0
LINE
  5
414
100
AcDbEntity
  8
0
100
AcDbLine
 62
7
  6
CONTINUOUS
 10
18.4614645218
 20
29.759269
 11
18.4614645218
 21
29.192202
  0
LINE
  5
415
100
AcDbEntity
  8
0
100
AcDbLine
 62
7
  6
CONTINUOUS
 10
18.7091455218
 20
11.272537
 11
18.7091455218
 21
11.027135
  0
LINE
  5
416
100
AcDbEntity
  8
0
100
AcDbLine
 62
7
  6
CONTINUOUS
 10
18.9518955218
 20
16.923424
 11
18.9518955218
 21
18.972865
  0
LINE
  5
417
100
AcDbEntity
  8
0
100
AcDbLine
 62
7
  6
CONTINUOUS
 10
19.1490465218
 20
11.027135
 11
19.1490465218
 21
11.852881
  0
LINE
  5
418
100
AcDbEntity
  8
0
100
AcDbLine
 62
7
  6
CONTINUOUS
 10
19.2289675218
 20
18.727463
 11
19.2289675218
 21
18.099034
  0
LINE
  5
419
100
AcDbEntity
  8
0
100
AcDbLine
 62
7
  6
CONTINUOUS
 10
19.2289675218
 20
17.853631
 11
19.2289675218
 21
17.168826
  0
LINE
  5
41A
100
AcDbEntity
  8
0
100
AcDbLine
 62
7
  6
CONTINUOUS
 10
19.3549615218
 20
29.192202
 11
19.3549615218
 21
29.759269
  0
LINE
  5
41B
100
AcDbEntity
  8
0
100
AcDbLine
 62
7
  6
CONTINUOUS
 10
19.4259525218
 20
11.852881
 11
19.4259525218
 21
11.027135
  0
LWPOLYLINE
  5
41C
100
AcDbEntity
  8
0
100
AcDbPolyline
 62
7
  6
CONTINUOUS
 90
25
 70
0
 10
18.5683337471
 20
17.94814436
 10
18.5678174444
 20
17.8648643357
 10
18.5631469981
 20
17.785086823
 10
18.5543224042
 20
17.7088118219
 10
18.5409961459
 20
17.6360586481
 10
18.5235157204
 20
17.5668079858
 10
18.5029236433
 20
17.5010018882
 10
18.479414995
 20
17.4385395882
 10
18.4527946672
 20
17.3795218528
 10
18.423519896
 20
17.324193036
 10
18.3916132647
 20
17.2726406322
 10
18.3570521568
 20
17.224777147
 10
18.320226012
 20
17.1805844525
 10
18.2812091889
 20
17.140120231
 10
18.2399272944
 20
17.1033268002
 10
18.1965466435
 20
17.0700129841
 10
18.1511590651
 20
17.0401702281
 10
18.1036726937
 20
17.0138070869
 10
18.0539783016
 20
16.9907580491
 10
18.0021539163
 20
16.9709051652
 10
17.9481214667
 20
16.9543663847
 10
17.8915375722
 20
16.9413300443
 10
17.8322877518
 20
16.9318589228
 10
17.7704864281
 20
16.9258902414
 10
17.7061335707
 20
16.923424
  0
LWPOLYLINE
  5
41D
100
AcDbEntity
  8
RACCORDO
100
AcDbPolyline
 62
253
  6
CONTINUOUS
 90
79
 70
0
 10
19.8639020969
 20
39.9910877109
 10
19.8673966738
 20
40.1595956877
 10
19.8785650865
 20
40.3271366357
 10
19.8974073158
 20
40.4937105547
 10
19.9239785703
 20
40.6596530712
 10
19.9582235628
 20
40.8246285589
 10
19.9999765112
 20
40.9876301387
 10
20.0493480311
 20
41.1487680358
 10
20.1062273508
 20
41.307932025
 10
20.1701165956
 20
41.4637845521
 10
20.2410419673
 20
41.6161809995
 10
20.3189770459
 20
41.7652659848
 10
20.403345022
 20
41.9101358054
 10
20.4940481635
 20
42.0506330474
 10
20.5911839384
 20
42.1869151248
 10
20.6944683384
 20
42.3185505778
 10
20.8039661707
 20
42.4456480545
 10
20.9196123105
 20
42.5680989068
 10
21.0409278557
 20
42.6851457302
 10
21.1680732284
 20
42.7968600945
 10
21.3008876515
 20
42.9031704299
 10
21.438410453
 20
43.0031046219
 10
21.5807118677
 20
43.0965878983
 10
21.727721316
 20
43.1836950314
 10
21.8782669669
 20
43.2636782237
 10
22.0323308469
 20
43.3364322843
 10
22.1899306329
 20
43.402062404
 10
22.3499480486
 20
43.4601363585
 10
22.512350825
 20
43.5105860845
 10
22.6771709991
 20
43.5534796453
 10
22.8433868367
 20
43.588589005
 10
23.0109809306
 20
43.6158763358
 10
23.1799705289
 20
43.6353794656
 10
23.3493859649
 20
43.6469838425
 10
23.5192399625
 20
43.6506597856
 10
23.6895197189
 20
43.6464369758
 10
23.8592173663
 20
43.6342899045
 10
24.0284009533
 20
43.6141596222
 10
24.1970024431
 20
43.5861050784
 10
24.3638099427
 20
43.5502776121
 10
24.5289083041
 20
43.5065506727
 10
24.6922128015
 20
43.4550508109
 10
24.8522572989
 20
43.3963090178
 10
25.0090749225
 20
43.330133428
 10
25.1626328072
 20
43.2567159069
 10
25.3113659648
 20
43.1771630412
 10
25.4552221362
 20
43.0912496172
 10
25.5942539669
 20
42.9992008486
 10
25.7270539464
 20
42.9027989636
 10
25.8534322757
 20
42.8018907716
 10
25.9735792187
 20
42.6966294632
 10
26.0866574332
 20
42.5892568382
 10
26.1923552558
 20
42.4798468329
 10
26.2909848104
 20
42.3683255109
 10
26.3826444436
 20
42.2567128624
 10
26.4670839627
 20
42.1452636259
 10
26.5445539323
 20
42.0337230628
 10
26.6159037915
 20
41.923346948
 10
26.6810680425
 20
41.8143388803
 10
26.7401124379
 20
41.7064952608
 10
26.7940832368
 20
41.6004610684
 10
26.8430109749
 20
41.496340391
 10
26.8868652765
 20
41.3940291406
 10
26.9266009897
 20
41.2938600322
 10
26.962262578
 20
41.1959027723
 10
26.9938056737
 20
41.1000876543
 10
27.0220518497
 20
41.0065382737
 10
27.0470547693
 20
40.9152439316
 10
27.0687608237
 20
40.8262153268
 10
27.0878306596
 20
40.7396081516
 10
27.10425195
 20
40.6560117414
 10
27.1180370512
 20
40.5748367609
 10
27.1298836252
 20
40.4944708956
 10
27.1399550349
 20
40.4153412445
 10
27.1480879303
 20
40.3370207088
 10
27.1544898983
 20
40.2566156775
 10
27.1592301364
 20
40.1731616139
 10
27.1622394532
 20
40.0876230547
 10
27.1635178501
 20
40.0
  0
LWPOLYLINE
  5
41E
100
AcDbEntity
  8
RACCORDO
100
AcDbPolyline
 62
7
  6
CONTINUOUS
 90
28
 70
0
 10
19.9709740885
 20
39.9912208705
 10
19.9744328359
 20
40.1580385442
 10
19.9862901619
 20
40.3247246369
 10
20.0065460663
 20
40.4912791487
 10
20.0352512523
 20
40.6583468966
 10
20.0723550167
 20
40.8252830635
 10
20.1177052508
 20
40.9901531982
 10
20.1714869957
 20
41.1528909588
 10
20.2335152101
 20
41.3135626871
 10
20.3030826611
 20
41.4704329579
 10
20.3802382313
 20
41.6232868131
 10
20.464933038
 20
41.7723392108
 10
20.5563132007
 20
41.9164995996
 10
20.6541921461
 20
42.0555001168
 10
20.7587564474
 20
42.1896086251
 10
20.869711944
 20
42.3185381614
 10
20.9872562627
 20
42.4425198241
 10
21.1111917765
 20
42.5613225148
 10
21.2406314446
 20
42.6739659741
 10
21.3755035125
 20
42.7803362447
 10
21.5158797346
 20
42.880547284
 10
21.6610883327
 20
42.9739607045
 10
21.8114056426
 20
43.0606497261
 10
21.9665553285
 20
43.1405411291
 10
22.1250366045
 20
43.2127768659
 10
22.2863492087
 20
43.2770709209
 10
22.4509934031
 20
43.3337093097
 10
22.6189691877
 20
43.3826920325
  0
LINE
  5
41F
100
AcDbEntity
  8
RACCORDO
100
AcDbLine
 62
253
  6
CONTINUOUS
 10
-35.0235674214
 20
-56.4410650975
 11
-34.9850748887
 21
-56.4025725648
  0
LWPOLYLINE
  5
420
100
AcDbEntity
  8
RACCORDO
100
AcDbPolyline
 62
7
  6
CONTINUOUS
 90
6
 70
0
 10
-37.8944590068
 20
-38.7161327525
 10
-37.8922685678
 20
-38.7150370225
 10
-37.8885025875
 20
-38.7133087674
 10
-37.883246394
 20
-38.7109479871
 10
-37.8766020293
 20
-38.7078993796
 10
-37.8686769636
 20
-38.7042182469
  0
LWPOLYLINE
  5
421
100
AcDbEntity
  8
RACCORDO
100
AcDbPolyline
 62
7
  6
CONTINUOUS
 90
6
 70
0
 10
-40.0704999495
 20
-41.2838672475
 10
-40.0726903886
 20
-41.2849629775
 10
-40.0764563688
 20
-41.2866912326
 10
-40.0817125623
 20
-41.2890520129
 10
-40.088356927
 20
-41.2921006204
 10
-40.0962819927
 20
-41.2957817531
  0
LINE
  5
422
100
AcDbEntity
  8
RACCORDO
100
AcDbLine
 62
7
  6
CONTINUOUS
 10
-37.8686769636
 20
-38.7042182469
 11
-37.8007096639
 21
-38.6733872972
  0
LINE
  5
423
100
AcDbEntity
  8
RACCORDO
100
AcDbLine
 62
7
  6
CONTINUOUS
 10
-37.7591540243
 20
-38.6550000172
 11
-37.7450298021
 21
-38.6486689785
  0
LINE
  5
424
100
AcDbEntity
  8
0
100
AcDbLine
 62
7
  6
CONTINUOUS
 10
-11.0762294782
 20
13.1808511019
 11
-10.8158126128
 21
13.2340425849
  0
LINE
  5
425
100
AcDbEntity
  8
0
100
AcDbLine
 62
7
  6
CONTINUOUS
 10
-13.3678960455
 20
13.1808511019
 11
-13.1074794782
 21
13.2340425849
  0
LINE
  5
426
100
AcDbEntity
  8
0
100
AcDbLine
 62
7
  6
CONTINUOUS
 10
-13.0553960455
 20
13.5
 11
-13.4199794782
 21
13.446808517
  0
LWPOLYLINE
  5
427
100
AcDbEntity
  8
0
100
AcDbPolyline
 62
7
  6
CONTINUOUS
 90
34
 70
0
 10
17.6696679395
 20
17.160535
 10
17.6995810985
 20
17.1609542534
 10
17.7294884976
 20
17.1626952965
 10
17.7593901367
 20
17.1657581292
 10
17.7894175275
 20
17.1700834756
 10
17.8194391576
 20
17.1757306117
 10
17.8490604934
 20
17.1828773651
 10
17.8783353749
 20
17.1915840085
 10
17.9072099664
 20
17.2017902692
 10
17.9351282256
 20
17.2134931575
 10
17.9619486914
 20
17.2267014744
 10
17.9878128357
 20
17.2414064189
 10
18.0125890199
 20
17.2575785985
 10
18.0361445449
 20
17.2751703619
 10
18.0586121206
 20
17.2942293604
 10
18.080258221
 20
17.3148691557
 10
18.1011726492
 20
17.3370437051
 10
18.1212656087
 20
17.3607990514
 10
18.1405341731
 20
17.3863868843
 10
18.1590729933
 20
17.4137909041
 10
18.1767874245
 20
17.4430274105
 10
18.1933905969
 20
17.4743969929
 10
18.2089664418
 20
17.5081470752
 10
18.2234310351
 20
17.5440302334
 10
18.2362457268
 20
17.5816047842
 10
18.247162412
 20
17.6211726382
 10
18.256429204
 20
17.6624318848
 10
18.2642517809
 20
17.7040351096
 10
18.2705931529
 20
17.745904982
 10
18.2754903141
 20
17.7881188325
 10
18.2792599168
 20
17.8295612379
 10
18.2820075122
 20
17.8698603904
 10
18.2836275505
 20
17.9093880977
 10
18.2841200322
 20
17.94814436
  0
LINE
  5
428
100
AcDbEntity
  8
0
100
AcDbLine
 62
7
  6
CONTINUOUS
 10
15.3181165218
 20
16.024721
 11
15.5951895218
 21
16.024721
  0
LINE
  5
429
100
AcDbEntity
  8
0
100
AcDbLine
 62
7
  6
CONTINUOUS
 10
16.0690805218
 20
16.024721
 11
16.3975555218
 21
16.024721
  0
LINE
  5
42A
100
AcDbEntity
  8
0
100
AcDbLine
 62
7
  6
CONTINUOUS
 10
17.4285765218
 20
16.024721
 11
17.6968615218
 21
16.024721
  0
LINE
  5
42B
100
AcDbEntity
  8
0
100
AcDbLine
 62
7
  6
CONTINUOUS
 10
20.4654305218
 20
16.923424
 11
18.9518955218
 21
16.923424
  0
LINE
  5
42C
100
AcDbEntity
  8
0
100
AcDbLine
 62
7
  6
CONTINUOUS
 10
17.7061335707
 20
16.923424
 11
16.8759235218
 21
16.923424
  0
LINE
  5
42D
100
AcDbEntity
  8
0
100
AcDbLine
 62
7
  6
CONTINUOUS
 10
16.6074735218
 20
16.923424
 11
16.3048665218
 21
16.923424
  0
LINE
  5
42E
100
AcDbEntity
  8
0
100
AcDbLine
 62
7
  6
CONTINUOUS
 10
15.0654185218
 20
16.923424
 11
14.7798895218
 21
16.923424
  0
LINE
  5
42F
100
AcDbEntity
  8
0
100
AcDbLine
 62
7
  6
CONTINUOUS
 10
14.5343215218
 20
16.923424
 11
14.2658715218
 21
16.923424
  0
LINE
  5
430
100
AcDbEntity
  8
0
100
AcDbLine
 62
7
  6
CONTINUOUS
 10
13.6890095218
 20
16.923424
 11
13.4149215218
 21
16.923424
  0
LINE
  5
431
100
AcDbEntity
  8
0
100
AcDbLine
 62
7
  6
CONTINUOUS
 10
12.8380605218
 20
16.923424
 11
12.5696105218
 21
16.923424
  0
LINE
  5
432
100
AcDbEntity
  8
0
100
AcDbLine
 62
7
  6
CONTINUOUS
 10
17.1528305218
 20
17.160535
 11
17.6696679395
 21
17.160535
  0
LINE
  5
433
100
AcDbEntity
  8
0
100
AcDbLine
 62
7
  6
CONTINUOUS
 10
19.2289675218
 20
17.168826
 11
20.4654305218
 21
17.168826
  0
LINE
  5
434
100
AcDbEntity
  8
0
100
AcDbLine
 62
7
  6
CONTINUOUS
 10
16.1020775218
 20
17.520348
 11
15.2796485218
 21
17.520348
  0
LINE
  5
435
100
AcDbEntity
  8
0
100
AcDbLine
 62
7
  6
CONTINUOUS
 10
15.3653735218
 20
17.765751
 11
16.0020925218
 21
17.765751
  0
LINE
  5
436
100
AcDbEntity
  8
0
100
AcDbLine
 62
7
  6
CONTINUOUS
 10
20.3511855218
 20
17.853631
 11
19.2289675218
 21
17.853631
  0
LINE
  5
437
100
AcDbEntity
  8
0
100
AcDbLine
 62
7
  6
CONTINUOUS
 10
19.2289675218
 20
18.099034
 11
20.3511855218
 21
18.099034
  0
LINE
  5
438
100
AcDbEntity
  8
0
100
AcDbLine
 62
7
  6
CONTINUOUS
 10
20.4453675218
 20
18.727463
 11
19.2289675218
 21
18.727463
  0
LINE
  5
439
100
AcDbEntity
  8
0
100
AcDbLine
 62
7
  6
CONTINUOUS
 10
17.6690554585
 20
18.735753
 11
17.1528305218
 21
18.735753
  0
LINE
  5
43A
100
AcDbEntity
  8
0
100
AcDbLine
 62
7
  6
CONTINUOUS
 10
12.5696105218
 20
18.972865
 11
12.9665655218
 21
18.972865
  0
LINE
  5
43B
100
AcDbEntity
  8
0
100
AcDbLine
 62
7
  6
CONTINUOUS
 10
14.1401855218
 20
18.972865
 11
14.5343215218
 21
18.972865
  0
LINE
  5
43C
100
AcDbEntity
  8
0
100
AcDbLine
 62
7
  6
CONTINUOUS
 10
15.5509175218
 20
18.972865
 11
15.8649655218
 21
18.972865
  0
LINE
  5
43D
100
AcDbEntity
  8
0
100
AcDbLine
 62
7
  6
CONTINUOUS
 10
16.8759235218
 20
18.972865
 11
17.7068099156
 21
18.972865
  0
LINE
  5
43E
100
AcDbEntity
  8
0
100
AcDbLine
 62
7
  6
CONTINUOUS
 10
18.9518955218
 20
18.972865
 11
20.4453675218
 21
18.972865
  0
LWPOLYLINE
  5
43F
100
AcDbEntity
  8
0
100
AcDbPolyline
 62
7
  6
CONTINUOUS
 90
25
 70
0
 10
17.7068099156
 20
18.972865
 10
17.771119382
 20
18.9703576571
 10
17.8328769849
 20
18.9643527094
 10
17.8920827549
 20
18.9548501567
 10
17.9486218257
 20
18.9417874811
 10
18.0026091219
 20
18.9252272006
 10
18.0543893542
 20
18.9053568691
 10
18.1040405554
 20
18.882294517
 10
18.1514847364
 20
18.8559221139
 10
18.196832568
 20
18.8260731225
 10
18.2401761215
 20
18.7927561696
 10
18.2814233622
 20
18.7559626284
 10
18.3204088018
 20
18.7155000815
 10
18.3572075162
 20
18.6713103594
 10
18.3917444637
 20
18.6234516317
 10
18.4236289818
 20
18.5719059893
 10
18.4528833359
 20
18.5165857608
 10
18.4794852937
 20
18.4575786177
 10
18.5029774497
 20
18.3951296657
 10
18.5235546307
 20
18.3293392666
 10
18.5410220376
 20
18.2601070586
 10
18.5543378281
 20
18.1873770619
 10
18.5631547297
 20
18.1111306166
 10
18.5678200347
 20
18.0313863826
 10
18.5683337471
 20
17.94814436
  0
LWPOLYLINE
  5
440
100
AcDbEntity
  8
RACCORDO
100
AcDbPolyline
 62
7
  6
CONTINUOUS
 90
3
 70
0
 10
-37.8383375705
 20
38.690366266
 10
-37.8007096639
 20
38.6733872972
 10
-37.7871280129
 20
38.66732974
  0
LINE
  5
441
100
AcDbEntity
  8
RACCORDO
100
AcDbLine
 62
7
  6
CONTINUOUS
 10
-37.8686769636
 20
38.7042182469
 11
-37.8383375705
 21
38.690366266
  0
LWPOLYLINE
  5
442
100
AcDbEntity
  8
RACCORDO
100
AcDbPolyline
 62
7
  6
CONTINUOUS
 90
6
 70
0
 10
-37.8944590068
 20
38.7161327525
 10
-37.8922685678
 20
38.7150370225
 10
-37.8885025875
 20
38.7133087674
 10
-37.883246394
 20
38.7109479871
 10
-37.8766020293
 20
38.7078993796
 10
-37.8686769636
 20
38.7042182469
  0
LWPOLYLINE
  5
443
100
AcDbEntity
  8
RACCORDO
100
AcDbPolyline
 62
7
  6
CONTINUOUS
 90
6
 70
0
 10
-40.0704999495
 20
41.2838672475
 10
-40.0726903886
 20
41.2849629775
 10
-40.0764563688
 20
41.2866912326
 10
-40.0817125623
 20
41.2890520129
 10
-40.088356927
 20
41.2921006204
 10
-40.0962819927
 20
41.2957817531
  0
LWPOLYLINE
  5
444
100
AcDbEntity
  8
RACCORDO
100
AcDbPolyline
 62
7
  6
CONTINUOUS
 90
10
 70
0
 10
-40.0695852118
 20
38.7160760121
 10
-40.0696872873
 20
38.7161297669
 10
-40.069789253
 20
38.7161716424
 10
-40.0698911089
 20
38.7162016387
 10
-40.0699928548
 20
38.7162197334
 10
-40.070094491
 20
38.7162259487
 10
-40.0701960184
 20
38.7162203517
 10
-40.0702974375
 20
38.7162029644
 10
-40.0703987479
 20
38.7161737647
 10
-40.0704999495
 20
38.7161327525
  0
LWPOLYLINE
  5
445
100
AcDbEntity
  8
RACCORDO
100
AcDbPolyline
 62
7
  6
CONTINUOUS
 90
10
 70
0
 10
-37.8953737445
 20
41.2839239879
 10
-37.8952716691
 20
41.2838702331
 10
-37.8951697033
 20
41.2838283576
 10
-37.8950678474
 20
41.2837983613
 10
-37.8949661015
 20
41.2837802666
 10
-37.8948644654
 20
41.2837740513
 10
-37.8947629379
 20
41.2837796483
 10
-37.8946615188
 20
41.2837970356
 10
-37.8945602085
 20
41.2838262353
 10
-37.8944590068
 20
41.2838672475
  0
LINE
  5
446
100
AcDbEntity
  8
RACCORDO
100
AcDbLine
 62
253
  6
CONTINUOUS
 10
-35.0235674214
 20
56.4410650975
 11
-34.9850748887
 21
56.4025725648
  0
LINE
  5
447
100
AcDbEntity
  8
0
100
AcDbLine
 62
7
  6
CONTINUOUS
 10
16.3960625218
 20
13.078234
 11
17.1385705218
 21
11.027135
  0
LINE
  5
448
100
AcDbEntity
  8
0
100
AcDbLine
 62
7
  6
CONTINUOUS
 10
16.8359635218
 20
11.027135
 11
16.6331745218
 21
11.62406
  0
LINE
  5
449
100
AcDbEntity
  8
0
100
AcDbLine
 62
7
  6
CONTINUOUS
 10
12.9665655218
 20
18.972865
 11
13.5547915218
 21
17.231515
  0
LINE
  5
44A
100
AcDbEntity
  8
0
100
AcDbLine
 62
7
  6
CONTINUOUS
 10
13.4149215218
 20
16.923424
 11
12.8380605218
 21
18.64124
  0
LINE
  5
44B
100
AcDbEntity
  8
0
100
AcDbLine
 62
7
  6
CONTINUOUS
 10
16.5331895218
 20
11.869462
 11
16.2277125218
 21
12.779537
  0
LWPOLYLINE
  5
44C
100
AcDbEntity
  8
RACCORDO
100
AcDbPolyline
 62
253
  6
CONTINUOUS
 90
61
 70
0
 10
21.3338280039
 20
-40.0
 10
21.3366253825
 20
-40.1103655057
 10
21.3450877561
 20
-40.2211949323
 10
21.3593073219
 20
-40.3321901514
 10
21.3793807897
 20
-40.4431393805
 10
21.4053585684
 20
-40.5536257343
 10
21.4371939534
 20
-40.6630397151
 10
21.4748725943
 20
-40.7710736282
 10
21.5183537713
 20
-40.877392383
 10
21.5674307689
 20
-40.9813728665
 10
21.6219759744
 20
-41.0827039969
 10
21.6818584556
 20
-41.1811070526
 10
21.7467541589
 20
-41.2760606412
 10
21.8163971992
 20
-41.3672388355
 10
21.8906246466
 20
-41.4544875099
 10
21.9692100063
 20
-41.5375854321
 10
22.0518671466
 20
-41.61627783
 10
22.1383934643
 20
-41.6904173006
 10
22.2286941427
 20
-41.7599404556
 10
22.3225526188
 20
-41.8246726527
 10
22.4196860863
 20
-41.8844114197
 10
22.5199139426
 20
-41.9390348188
 10
22.6230250868
 20
-41.9884012689
 10
22.7286896189
 20
-42.0323272623
 10
22.8365379083
 20
-42.070648934
 10
22.9462643553
 20
-42.1032536154
 10
23.0575749337
 20
-42.1300502197
 10
23.1701020596
 20
-42.1509530699
 10
23.2835017914
 20
-42.1659060606
 10
23.3974914648
 20
-42.1748798392
 10
23.5117912196
 20
-42.1778574561
 10
23.6260841786
 20
-42.174830431
 10
23.7400565197
 20
-42.1658069929
 10
23.8534336058
 20
-42.1508082539
 10
23.9659322286
 20
-42.1298625465
 10
24.077209397
 20
-42.1030246033
 10
24.1869059833
 20
-42.0703816031
 10
24.2947332654
 20
-42.0320201727
 10
24.4003799071
 20
-41.9880517702
 10
24.5034695741
 20
-41.9386464078
 10
24.6036776472
 20
-41.8839834932
 10
24.7007880558
 20
-41.8242052202
 10
24.794601745
 20
-41.7594508523
 10
24.8848334336
 20
-41.6899284128
 10
24.9712746606
 20
-41.615809942
 10
25.0538316834
 20
-41.5371669645
 10
25.1322980305
 20
-41.4541561339
 10
25.2063996052
 20
-41.3670249612
 10
25.2759328757
 20
-41.2759745872
 10
25.3407361495
 20
-41.1811550662
 10
25.4005424647
 20
-41.0828897525
 10
25.4550408963
 20
-40.9816765168
 10
25.5041012511
 20
-40.8777797373
 10
25.5475857573
 20
-40.7715143794
 10
25.5852820705
 20
-40.6635058324
 10
25.6171464797
 20
-40.5540834364
 10
25.643158504
 20
-40.44355388
 10
25.663264132
 20
-40.3325374874
 10
25.6775103421
 20
-40.221453918
 10
25.6859917156
 20
-40.1105090889
 10
25.6887970967
 20
-40.0
  0
LWPOLYLINE
  5
44D
100
AcDbEntity
  8
RACCORDO
100
AcDbPolyline
 62
253
  6
CONTINUOUS
 90
61
 70
0
 10
21.3338280039
 20
40.0
 10
21.3366253825
 20
39.8896344943
 10
21.3450877561
 20
39.7788050677
 10
21.3593073219
 20
39.6678098486
 10
21.3793807897
 20
39.5568606195
 10
21.4053585684
 20
39.4463742657
 10
21.4371939534
 20
39.3369602849
 10
21.4748725943
 20
39.2289263718
 10
21.5183537713
 20
39.122607617
 10
21.5674307689
 20
39.0186271335
 10
21.6219759744
 20
38.9172960031
 10
21.6818584556
 20
38.8188929474
 10
21.7467541589
 20
38.7239393588
 10
21.8163971992
 20
38.6327611645
 10
21.8906246466
 20
38.5455124901
 10
21.9692100063
 20
38.4624145679
 10
22.0518671466
 20
38.38372217
 10
22.1383934643
 20
38.3095826994
 10
22.2286941427
 20
38.2400595444
 10
22.3225526188
 20
38.1753273473
 10
22.4196860863
 20
38.1155885803
 10
22.5199139426
 20
38.0609651812
 10
22.6230250868
 20
38.0115987311
 10
22.7286896189
 20
37.9676727377
 10
22.8365379083
 20
37.929351066
 10
22.9462643553
 20
37.8967463846
 10
23.0575749337
 20
37.8699497803
 10
23.1701020596
 20
37.8490469301
 10
23.2835017914
 20
37.8340939394
 10
23.3974914648
 20
37.8251201608
 10
23.5117912196
 20
37.8221425439
 10
23.6260841786
 20
37.825169569
 10
23.7400565197
 20
37.8341930071
 10
23.8534336058
 20
37.8491917461
 10
23.9659322286
 20
37.8701374535
 10
24.077209397
 20
37.8969753967
 10
24.1869059833
 20
37.9296183969
 10
24.2947332654
 20
37.9679798273
 10
24.4003799071
 20
38.0119482298
 10
24.5034695741
 20
38.0613535922
 10
24.6036776472
 20
38.1160165068
 10
24.7007880558
 20
38.1757947798
 10
24.794601745
 20
38.2405491477
 10
24.8848334336
 20
38.3100715872
 10
24.9712746606
 20
38.384190058
 10
25.0538316834
 20
38.4628330355
 10
25.1322980305
 20
38.5458438661
 10
25.2063996052
 20
38.6329750388
 10
25.2759328757
 20
38.7240254128
 10
25.3407361495
 20
38.8188449338
 10
25.4005424647
 20
38.9171102475
 10
25.4550408963
 20
39.0183234832
 10
25.5041012511
 20
39.1222202627
 10
25.5475857573
 20
39.2284856206
 10
25.5852820705
 20
39.3364941676
 10
25.6171464797
 20
39.4459165636
 10
25.643158504
 20
39.55644612
 10
25.663264132
 20
39.6674625126
 10
25.6775103421
 20
39.778546082
 10
25.6859917156
 20
39.8894909111
 10
25.6887970967
 20
40.0
  0
LWPOLYLINE
  5
44E
100
AcDbEntity
  8
RACCORDO
100
AcDbPolyline
 62
253
  6
CONTINUOUS
 90
61
 70
0
 10
25.6887970967
 20
-40.0
 10
25.6860053922
 20
-39.8897608881
 10
25.6775627431
 20
-39.7790596011
 10
25.6633766122
 20
-39.6681914785
 10
25.6433491957
 20
-39.5573639394
 10
25.6174292651
 20
-39.4469928318
 10
25.5856640495
 20
-39.3376897468
 10
25.5480678874
 20
-39.2297597393
 10
25.5046796646
 20
-39.12353505
 10
25.4557052529
 20
-39.0196404725
 10
25.4012723519
 20
-38.9183850279
 10
25.3415098013
 20
-38.8200444583
 10
25.2767386576
 20
-38.7251408964
 10
25.207224844
 20
-38.6339992903
 10
25.1331288892
 20
-38.5467708815
 10
25.0546709777
 20
-38.4636759957
 10
24.9721337402
 20
-38.384966957
 10
24.8857194582
 20
-38.3107923468
 10
24.7955220003
 20
-38.2412209459
 10
24.7017550371
 20
-38.1764258795
 10
24.6047011282
 20
-38.1166105086
 10
24.5045457562
 20
-38.0619049168
 10
24.401500749
 20
-38.0124500188
 10
24.2958938569
 20
-37.9684278053
 10
24.1880973963
 20
-37.9300076752
 10
24.078418847
 20
-37.8973013193
 10
23.9671498324
 20
-37.8703977952
 10
23.8546557958
 20
-37.8493865695
 10
23.7412806638
 20
-37.8343226825
 10
23.6273067901
 20
-37.8252344485
 10
23.5130127587
 20
-37.8221431477
 10
23.3987150893
 20
-37.8250564394
 10
23.2847279582
 20
-37.8339652712
 10
23.1713270849
 20
-37.8488528873
 10
23.0587959094
 20
-37.8696899629
 10
22.9474775161
 20
-37.8964207223
 10
22.8377332111
 20
-37.9289617914
 10
22.7298540044
 20
-37.9672245768
 10
22.6241494687
 20
-38.0110966396
 10
22.5209936134
 20
-38.0604133527
 10
22.4207132506
 20
-38.1149937259
 10
22.3235236354
 20
-38.1746948956
 10
22.2296190808
 20
-38.2393856076
 10
22.1392852838
 20
-38.308858529
 10
22.0527333466
 20
-38.382940181
 10
21.9700575125
 20
-38.4615647545
 10
21.8914645892
 20
-38.5445767896
 10
21.8172321854
 20
-38.6317263537
 10
21.747569792
 20
-38.7228118691
 10
21.6826413693
 20
-38.8176807356
 10
21.6227141462
 20
-38.9160084466
 10
21.5681023376
 20
-39.0172975908
 10
21.5189382562
 20
-39.121280755
 10
21.4753595833
 20
-39.2276410055
 10
21.4375796687
 20
-39.3357545119
 10
21.4056440784
 20
-39.4452890205
 10
21.3795732822
 20
-39.5559352473
 10
21.3594208524
 20
-39.6670749634
 10
21.345140668
 20
-39.7782874514
 10
21.3366392193
 20
-39.8893624013
 10
21.3338280039
 20
-40.0
  0
LINE
  5
44F
100
AcDbEntity
  8
0
100
AcDbLine
 62
7
  6
CONTINUOUS
 10
20.1540965218
 20
30.258729
 11
20.1540965218
 21
28.692743
  0
LINE
  5
450
100
AcDbEntity
  8
0
100
AcDbLine
 62
7
  6
CONTINUOUS
 10
20.3511855218
 20
18.099034
 11
20.3511855218
 21
17.853631
  0
LINE
  5
451
100
AcDbEntity
  8
0
100
AcDbLine
 62
7
  6
CONTINUOUS
 10
20.4453675218
 20
18.972865
 11
20.4453675218
 21
18.727463
  0
LINE
  5
452
100
AcDbEntity
  8
0
100
AcDbLine
 62
7
  6
CONTINUOUS
 10
20.4654305218
 20
17.168826
 11
20.4654305218
 21
16.923424
  0
LWPOLYLINE
  5
453
100
AcDbEntity
  8
RACCORDO
100
AcDbPolyline
 62
253
  6
CONTINUOUS
 90
79
 70
0
 10
19.8639020969
 20
-40.0089122891
 10
19.8673966738
 20
-39.8404043123
 10
19.8785650865
 20
-39.6728633643
 10
19.8974073158
 20
-39.5062894453
 10
19.9239785703
 20
-39.3403469288
 10
19.9582235628
 20
-39.1753714411
 10
19.9999765112
 20
-39.0123698613
 10
20.0493480311
 20
-38.8512319642
 10
20.1062273508
 20
-38.692067975
 10
20.1701165956
 20
-38.5362154479
 10
20.2410419673
 20
-38.3838190005
 10
20.3189770459
 20
-38.2347340152
 10
20.403345022
 20
-38.0898641946
 10
20.4940481635
 20
-37.9493669526
 10
20.5911839384
 20
-37.8130848752
 10
20.6944683384
 20
-37.6814494222
 10
20.8039661707
 20
-37.5543519455
 10
20.9196123105
 20
-37.4319010932
 10
21.0409278557
 20
-37.3148542698
 10
21.1680732284
 20
-37.2031399055
 10
21.3008876515
 20
-37.0968295701
 10
21.438410453
 20
-36.9968953781
 10
21.5807118677
 20
-36.9034121017
 10
21.727721316
 20
-36.8163049686
 10
21.8782669669
 20
-36.7363217763
 10
22.0323308469
 20
-36.6635677157
 10
22.1899306329
 20
-36.597937596
 10
22.3499480486
 20
-36.5398636415
 10
22.512350825
 20
-36.4894139155
 10
22.6771709991
 20
-36.4465203547
 10
22.8433868367
 20
-36.411410995
 10
23.0109809306
 20
-36.3841236642
 10
23.1799705289
 20
-36.3646205344
 10
23.3493859649
 20
-36.3530161575
 10
23.5192399625
 20
-36.3493402144
 10
23.6895197189
 20
-36.3535630242
 10
23.8592173663
 20
-36.3657100955
 10
24.0284009533
 20
-36.3858403778
 10
24.1970024431
 20
-36.4138949216
 10
24.3638099427
 20
-36.4497223879
 10
24.5289083041
 20
-36.4934493273
 10
24.6922128015
 20
-36.5449491891
 10
24.8522572989
 20
-36.6036909822
 10
25.0090749225
 20
-36.669866572
 10
25.1626328072
 20
-36.7432840931
 10
25.3113659648
 20
-36.8228369588
 10
25.4552221362
 20
-36.9087503828
 10
25.5942539669
 20
-37.0007991514
 10
25.7270539464
 20
-37.0972010364
 10
25.8534322757
 20
-37.1981092284
 10
25.9735792187
 20
-37.3033705368
 10
26.0866574332
 20
-37.4107431618
 10
26.1923552558
 20
-37.5201531671
 10
26.2909848104
 20
-37.6316744891
 10
26.3826444436
 20
-37.7432871376
 10
26.4670839627
 20
-37.8547363741
 10
26.5445539323
 20
-37.9662769372
 10
26.6159037915
 20
-38.076653052
 10
26.6810680425
 20
-38.1856611197
 10
26.7401124379
 20
-38.2935047392
 10
26.7940832368
 20
-38.3995389316
 10
26.8430109749
 20
-38.503659609
 10
26.8868652765
 20
-38.6059708594
 10
26.9266009897
 20
-38.7061399678
 10
26.962262578
 20
-38.8040972277
 10
26.9938056737
 20
-38.8999123457
 10
27.0220518497
 20
-38.9934617263
 10
27.0470547693
 20
-39.0847560684
 10
27.0687608237
 20
-39.1737846732
 10
27.0878306596
 20
-39.2603918484
 10
27.10425195
 20
-39.3439882586
 10
27.1180370512
 20
-39.4251632391
 10
27.1298836252
 20
-39.5055291044
 10
27.1399550349
 20
-39.5846587555
 10
27.1480879303
 20
-39.6629792912
 10
27.1544898983
 20
-39.7433843225
 10
27.1592301364
 20
-39.8268383861
 10
27.1622394532
 20
-39.9123769453
 10
27.1635178501
 20
-40.0
  0
LWPOLYLINE
  5
454
100
AcDbEntity
  8
RACCORDO
100
AcDbPolyline
 62
7
  6
CONTINUOUS
 90
28
 70
0
 10
19.9709740885
 20
-40.0087791295
 10
19.9744328359
 20
-39.8419614558
 10
19.9862901618
 20
-39.6752753631
 10
20.0065460663
 20
-39.5087208513
 10
20.0352512523
 20
-39.3416531034
 10
20.0723550167
 20
-39.1747169365
 10
20.1177052508
 20
-39.0098468018
 10
20.1714869957
 20
-38.8471090412
 10
20.2335152101
 20
-38.6864373129
 10
20.3030826611
 20
-38.5295670421
 10
20.3802382313
 20
-38.3767131869
 10
20.464933038
 20
-38.2276607892
 10
20.5563132007
 20
-38.0835004004
 10
20.6541921461
 20
-37.9444998832
 10
20.7587564474
 20
-37.8103913749
 10
20.869711944
 20
-37.6814618386
 10
20.9872562627
 20
-37.5574801759
 10
21.1111917765
 20
-37.4386774852
 10
21.2406314446
 20
-37.3260340259
 10
21.3755035125
 20
-37.2196637553
 10
21.5158797346
 20
-37.119452716
 10
21.6610883327
 20
-37.0260392955
 10
21.8114056426
 20
-36.9393502739
 10
21.9665553285
 20
-36.8594588709
 10
22.1250366045
 20
-36.7872231341
 10
22.2863492087
 20
-36.7229290791
 10
22.4509934031
 20
-36.6662906903
 10
22.6189691877
 20
-36.6173079675
  0
LWPOLYLINE
  5
455
100
AcDbEntity
  8
RACCORDO
100
AcDbPolyline
 62
253
  6
CONTINUOUS
 90
52
 70
0
 10
22.241080343
 20
40.0
 10
22.2435053476
 20
40.0787174178
 10
22.2507710405
 20
40.1571321436
 10
22.2628491498
 20
40.234947374
 10
22.2796925608
 20
40.3118663937
 10
22.3012373221
 20
40.3876005362
 10
22.3274042707
 20
40.461869802
 10
22.3580971651
 20
40.5343974606
 10
22.3931991259
 20
40.6049036692
 10
22.4325742705
 20
40.6731136689
 10
22.4760704642
 20
40.7387659491
 10
22.5235246975
 20
40.8016159141
 10
22.5747606934
 20
40.8614286363
 10
22.6295865843
 20
40.9179791552
 10
22.6877934574
 20
40.971050784
 10
22.74915916
 20
41.0204391231
 10
22.8134506503
 20
41.0659567887
 10
22.8804247281
 20
41.1074315464
 10
22.9498265175
 20
41.1447041516
 10
23.0213927798
 20
41.1776335851
 10
23.0948521088
 20
41.2060951505
 10
23.1699244179
 20
41.2299791576
 10
23.2463235335
 20
41.2491953145
 10
23.3237608538
 20
41.263671664
 10
23.4019446392
 20
41.2733523923
 10
23.4805802032
 20
41.2782010314
 10
23.5593672684
 20
41.2781990271
 10
23.6380027063
 20
41.2733452509
 10
23.7161859032
 20
41.2636594001
 10
23.793622505
 20
41.2491790817
 10
23.8700208348
 20
41.2299578343
 10
23.9450922313
 20
41.2060686534
 10
24.0185505591
 20
41.1776030196
 10
24.0901150498
 20
41.1446686922
 10
24.1595137975
 20
41.1073917606
 10
24.2264842013
 20
41.0659143836
 10
24.2907715334
 20
41.0203936007
 10
24.3521322066
 20
40.9710029995
 10
24.4103337634
 20
40.9179310541
 10
24.4651546373
 20
40.8613794395
 10
24.5163856759
 20
40.8015658657
 10
24.5638352604
 20
40.7387164586
 10
24.6073273434
 20
40.6730634902
 10
24.6466991929
 20
40.6048513981
 10
24.6817981122
 20
40.5343439069
 10
24.712486794
 20
40.4618169502
 10
24.738647857
 20
40.3875540516
 10
24.7601869808
 20
40.3118309433
 10
24.7770262754
 20
40.2349217984
 10
24.7891016071
 20
40.1571139407
 10
24.7963656318
 20
40.0787074071
 10
24.7987903087
 20
40.0
  0
LWPOLYLINE
  5
456
100
AcDbEntity
  8
RACCORDO
100
AcDbPolyline
 62
253
  6
CONTINUOUS
 90
52
 70
0
 10
22.241080343
 20
-40.0
 10
22.2435053476
 20
-39.9212825822
 10
22.2507710405
 20
-39.8428678564
 10
22.2628491498
 20
-39.765052626
 10
22.2796925608
 20
-39.6881336063
 10
22.3012373221
 20
-39.6123994638
 10
22.3274042707
 20
-39.538130198
 10
22.3580971651
 20
-39.4656025394
 10
22.3931991259
 20
-39.3950963308
 10
22.4325742705
 20
-39.3268863311
 10
22.4760704642
 20
-39.2612340509
 10
22.5235246975
 20
-39.1983840859
 10
22.5747606934
 20
-39.1385713637
 10
22.6295865843
 20
-39.0820208448
 10
22.6877934574
 20
-39.028949216
 10
22.74915916
 20
-38.9795608769
 10
22.8134506503
 20
-38.9340432113
 10
22.8804247281
 20
-38.8925684536
 10
22.9498265175
 20
-38.8552958484
 10
23.0213927798
 20
-38.8223664149
 10
23.0948521088
 20
-38.7939048495
 10
23.1699244179
 20
-38.7700208424
 10
23.2463235335
 20
-38.7508046855
 10
23.3237608538
 20
-38.736328336
 10
23.4019446392
 20
-38.7266476077
 10
23.4805802032
 20
-38.7217989686
 10
23.5593672684
 20
-38.7218009729
 10
23.6380027063
 20
-38.7266547491
 10
23.7161859032
 20
-38.7363405999
 10
23.793622505
 20
-38.7508209183
 10
23.8700208348
 20
-38.7700421657
 10
23.9450922313
 20
-38.7939313466
 10
24.0185505591
 20
-38.8223969804
 10
24.0901150498
 20
-38.8553313078
 10
24.1595137975
 20
-38.8926082394
 10
24.2264842013
 20
-38.9340856164
 10
24.2907715334
 20
-38.9796063993
 10
24.3521322066
 20
-39.0289970005
 10
24.4103337634
 20
-39.0820689459
 10
24.4651546373
 20
-39.1386205605
 10
24.5163856759
 20
-39.1984341343
 10
24.5638352604
 20
-39.2612835414
 10
24.6073273434
 20
-39.3269365098
 10
24.6466991929
 20
-39.3951486019
 10
24.6817981122
 20
-39.4656560931
 10
24.712486794
 20
-39.5381830498
 10
24.738647857
 20
-39.6124459484
 10
24.7601869808
 20
-39.6881690567
 10
24.7770262754
 20
-39.7650782016
 10
24.7891016071
 20
-39.8428860593
 10
24.7963656318
 20
-39.9212925929
 10
24.7987903087
 20
-40.0
  0
LWPOLYLINE
  5
457
100
AcDbEntity
  8
RACCORDO
100
AcDbPolyline
 62
253
  6
CONTINUOUS
 90
52
 70
0
 10
24.7987903087
 20
40.0
 10
24.7963660369
 20
39.9212991851
 10
24.7891029119
 20
39.8428966415
 10
24.7770285012
 20
39.7650901695
 10
24.7601893314
 20
39.6881784785
 10
24.7386492585
 20
39.6124504363
 10
24.7124872834
 20
39.538184389
 10
24.6817989705
 20
39.4656580192
 10
24.6467013144
 20
39.3951525975
 10
24.6073306294
 20
39.3269418518
 10
24.5638388944
 20
39.2612887057
 10
24.5163892296
 20
39.1984385789
 10
24.4651580695
 20
39.1386243503
 10
24.4103372064
 20
39.0820723037
 10
24.352135657
 20
39.0289999696
 10
24.2907750183
 20
38.9796090382
 10
24.2264877356
 20
38.9340879607
 10
24.159517425
 20
38.8926103315
 10
24.0901189189
 20
38.8553332275
 10
24.0185549829
 20
38.8223988409
 10
23.9450973902
 20
38.7939331473
 10
23.8700265481
 20
38.7700437694
 10
23.7936283705
 20
38.7508221766
 10
23.7161917072
 20
38.7363414705
 10
23.6380084786
 20
38.7266552505
 10
23.5593731284
 20
38.7218011178
 10
23.480586184
 20
38.7217987473
 10
23.4019507603
 20
38.7266470028
 10
23.3237672151
 20
38.7363273113
 10
23.2463301478
 20
38.7508032011
 10
23.1699310413
 20
38.7700189237
 10
23.0948583025
 20
38.7939026348
 10
23.0213983329
 20
38.8223640351
 10
22.9498315874
 20
38.855293297
 10
22.8804295906
 20
38.8925656217
 10
22.8134554319
 20
38.9340400206
 10
22.7491639283
 20
38.979557256
 10
22.6877982524
 20
39.0289450901
 10
22.6295914451
 20
39.0820161159
 10
22.5747656417
 20
39.1385659221
 10
22.523529925
 20
39.1983775775
 10
22.4760759234
 20
39.2612263275
 10
22.432579415
 20
39.3268780116
 10
22.3932030257
 20
39.3950890589
 10
22.3580996433
 20
39.4655971462
 10
22.3274061225
 20
39.5381254145
 10
22.3012397329
 20
39.6123918834
 10
22.2796955571
 20
39.6881216878
 10
22.2628517322
 20
39.7650387973
 10
22.2507725039
 20
39.8428560119
 10
22.243505791
 20
39.9212753505
 10
22.241080343
 20
40.0
  0
LWPOLYLINE
  5
458
100
AcDbEntity
  8
RACCORDO
100
AcDbPolyline
 62
253
  6
CONTINUOUS
 90
52
 70
0
 10
22.7611913549
 20
40.0
 10
22.762691231
 20
40.0480900946
 10
22.7670889615
 20
40.0956835606
 10
22.7743845433
 20
40.1427803979
 10
22.7846267775
 20
40.1895672854
 10
22.7977668498
 20
40.2358575443
 10
22.8136583302
 20
40.2810911381
 10
22.8323327716
 20
40.3252448789
 10
22.8537585964
 20
40.3683419547
 10
22.8776946786
 20
40.4098918928
 10
22.9041684568
 20
40.4498751208
 10
22.9331524593
 20
40.488311211
 10
22.9643231956
 20
40.5247684087
 10
22.9977063004
 20
40.55922599
 10
23.033276102
 20
40.5917046786
 10
23.0706321544
 20
40.6218348907
 10
23.1097948425
 20
40.6495899009
 10
23.1507437452
 20
40.6749964345
 10
23.1930172146
 20
40.697765084
 10
23.2366306273
 20
40.7178660129
 10
23.2815685762
 20
40.7353290577
 10
23.3273232482
 20
40.7499543201
 10
23.3739034785
 20
40.7617095872
 10
23.4213004111
 20
40.770627072
 10
23.468979709
 20
40.7766035152
 10
23.5169461309
 20
40.7796055568
 10
23.56519491
 20
40.7796665568
 10
23.6131774344
 20
40.7767833369
 10
23.6608900667
 20
40.7709222249
 10
23.7083364504
 20
40.7621168929
 10
23.7549789083
 20
40.7504651791
 10
23.8008092374
 20
40.7359341642
 10
23.8458356601
 20
40.7185567673
 10
23.889545151
 20
40.6985295843
 10
23.9319221749
 20
40.6758223178
 10
23.9729822974
 20
40.6504652652
 10
24.0122591554
 20
40.6227459134
 10
24.0497324503
 20
40.592637059
 10
24.0854225179
 20
40.5601659056
 10
24.1189239549
 20
40.5257015506
 10
24.1502111169
 20
40.4892226388
 10
24.1793096872
 20
40.4507505254
 10
24.2058912589
 20
40.410718374
 10
24.2299283702
 20
40.3691052607
 10
24.2514485181
 20
40.3259321093
 10
24.2702057359
 20
40.2816948551
 10
24.2861673385
 20
40.2363705521
 10
24.2993660375
 20
40.1899821463
 10
24.3096539599
 20
40.1430944109
 10
24.3169818198
 20
40.0958956036
 10
24.3213989174
 20
40.0481974666
 10
24.3229052562
 20
40.0
  0
LWPOLYLINE
  5
459
100
AcDbEntity
  8
RACCORDO
100
AcDbPolyline
 62
253
  6
CONTINUOUS
 90
52
 70
0
 10
24.3229052562
 20
40.0
 10
24.3213986075
 20
39.9518024993
 10
24.3169814163
 20
39.904104805
 10
24.3096536792
 20
39.8569069173
 10
24.2993658294
 20
39.8100204053
 10
24.2861674193
 20
39.7636336997
 10
24.2702071212
 20
39.7183120934
 10
24.2514526798
 20
39.674079219
 10
24.2299363238
 20
39.6309114437
 10
24.2059034509
 20
39.5893031619
 10
24.1793263033
 20
39.5492747394
 10
24.1502326039
 20
39.5108058103
 10
24.1189509722
 20
39.4743296718
 10
24.0854558256
 20
39.439867798
 10
24.0497727082
 20
39.4073987147
 10
24.0123069342
 20
39.3772912962
 10
23.9730381685
 20
39.3495727481
 10
23.9319867093
 20
39.3242158647
 10
23.8896188285
 20
39.3015079035
 10
23.8459194249
 20
39.2814791989
 10
23.8009035694
 20
39.2640994164
 10
23.7550828033
 20
39.24956481
 10
23.7084488472
 20
39.237907977
 10
23.661009961
 20
39.2290963201
 10
23.6133025078
 20
39.2232283012
 10
23.5653224065
 20
39.2203374194
 10
23.5170737322
 20
39.2203901756
 10
23.4691050948
 20
39.2233845339
 10
23.4214208447
 20
39.2293540182
 10
23.3740166396
 20
39.2382651045
 10
23.3274280653
 20
39.2500151852
 10
23.281663876
 20
39.2646368085
 10
23.2367153382
 20
39.2820974261
 10
23.1930918191
 20
39.3021967845
 10
23.1508092083
 20
39.3249646863
 10
23.1098516468
 20
39.350371329
 10
23.0706808885
 20
39.3781270513
 10
23.0333173639
 20
39.4082585764
 10
22.9977406789
 20
39.4407391813
 10
22.9643513583
 20
39.4751990358
 10
22.9331751949
 20
39.5116587023
 10
22.9041864329
 20
39.5500976185
 10
22.8777082788
 20
39.5900842669
 10
22.8537679134
 20
39.6316387823
 10
22.8323381888
 20
39.6747410299
 10
22.813660819
 20
39.7188990878
 10
22.7977678178
 20
39.7641354861
 10
22.7846271961
 20
39.8104276946
 10
22.7743846624
 20
39.8572162014
 10
22.7670887909
 20
39.9043145026
 10
22.7626910207
 20
39.9519091022
 10
22.7611913549
 20
40.0
  0
LWPOLYLINE
  5
45A
100
AcDbEntity
  8
RACCORDO
100
AcDbPolyline
 62
253
  6
CONTINUOUS
 90
52
 70
0
 10
22.7611913549
 20
-40.0
 10
22.762691231
 20
-39.9519099054
 10
22.7670889615
 20
-39.9043164394
 10
22.7743845433
 20
-39.8572196021
 10
22.7846267775
 20
-39.8104327146
 10
22.7977668498
 20
-39.7641424557
 10
22.8136583302
 20
-39.7189088619
 10
22.8323327716
 20
-39.6747551211
 10
22.8537585964
 20
-39.6316580453
 10
22.8776946786
 20
-39.5901081072
 10
22.9041684568
 20
-39.5501248792
 10
22.9331524593
 20
-39.511688789
 10
22.9643231956
 20
-39.4752315913
 10
22.9977063004
 20
-39.44077401
 10
23.033276102
 20
-39.4082953214
 10
23.0706321544
 20
-39.3781651093
 10
23.1097948425
 20
-39.3504100991
 10
23.1507437452
 20
-39.3250035655
 10
23.1930172146
 20
-39.302234916
 10
23.2366306273
 20
-39.2821339871
 10
23.2815685762
 20
-39.2646709423
 10
23.3273232482
 20
-39.2500456799
 10
23.3739034785
 20
-39.2382904128
 10
23.4213004111
 20
-39.229372928
 10
23.468979709
 20
-39.2233964848
 10
23.5169461309
 20
-39.2203944432
 10
23.56519491
 20
-39.2203334432
 10
23.6131774344
 20
-39.2232166631
 10
23.6608900667
 20
-39.2290777751
 10
23.7083364504
 20
-39.2378831071
 10
23.7549789083
 20
-39.2495348209
 10
23.8008092374
 20
-39.2640658358
 10
23.8458356601
 20
-39.2814432327
 10
23.889545151
 20
-39.3014704157
 10
23.9319221749
 20
-39.3241776822
 10
23.9729822974
 20
-39.3495347348
 10
24.0122591554
 20
-39.3772540866
 10
24.0497324503
 20
-39.407362941
 10
24.0854225179
 20
-39.4398340944
 10
24.1189239549
 20
-39.4742984494
 10
24.1502111169
 20
-39.5107773612
 10
24.1793096872
 20
-39.5492494746
 10
24.2058912589
 20
-39.589281626
 10
24.2299283702
 20
-39.6308947393
 10
24.2514485181
 20
-39.6740678907
 10
24.2702057359
 20
-39.7183051449
 10
24.2861673385
 20
-39.7636294479
 10
24.2993660375
 20
-39.8100178537
 10
24.3096539599
 20
-39.8569055891
 10
24.3169818198
 20
-39.9041043964
 10
24.3213989174
 20
-39.9518025334
 10
24.3229052562
 20
-40.0
  0
LINE
  5
45B
100
AcDbEntity
  8
RACCORDO
100
AcDbLine
 62
7
  6
CONTINUOUS
 10
-40.0962819927
 20
-41.2957817531
 11
-40.1642492924
 21
-41.3266127028
  0
LINE
  5
45C
100
AcDbEntity
  8
RACCORDO
100
AcDbLine
 62
7
  6
CONTINUOUS
 10
-40.205804932
 20
-41.3449999828
 11
-40.2199291543
 21
-41.3513310215
  0
LWPOLYLINE
  5
45D
100
AcDbEntity
  8
RACCORDO
100
AcDbPolyline
 62
7
  6
CONTINUOUS
 90
3
 70
0
 10
-37.8007096639
 20
-38.6733872972
 10
-37.7871280129
 20
-38.66732974
 10
-37.7591540243
 20
-38.6550000172
  0
LWPOLYLINE
  5
45E
100
AcDbEntity
  8
RACCORDO
100
AcDbPolyline
 62
7
  6
CONTINUOUS
 90
3
 70
0
 10
-40.1642492924
 20
-41.3266127028
 10
-40.1778309435
 20
-41.33267026
 10
-40.205804932
 20
-41.3449999828
  0
LWPOLYLINE
  5
45F
100
AcDbEntity
  8
RACCORDO
100
AcDbPolyline
 62
7
  6
CONTINUOUS
 90
19
 70
0
 10
-39.6475683461
 20
-37.7460796825
 10
-39.6592482007
 20
-37.7500810958
 10
-39.6708832356
 20
-37.7550372825
 10
-39.6824017581
 20
-37.7609482425
 10
-39.6937319131
 20
-37.7678564491
 10
-39.7048023676
 20
-37.775719429
 10
-39.715542747
 20
-37.7844097629
 10
-39.7258479762
 20
-37.7939030385
 10
-39.7356898892
 20
-37.8042236679
 10
-39.7450994839
 20
-37.8153174689
 10
-39.7540119957
 20
-37.8272215711
 10
-39.7623230131
 20
-37.8398988449
 10
-39.7699775136
 20
-37.8531837185
 10
-39.7768929753
 20
-37.867134028
 10
-39.782962614
 20
-37.8816919372
 10
-39.788090147
 20
-37.8965183665
 10
-39.7921896591
 20
-37.911500289
 10
-39.7951833464
 20
-37.9267507315
 10
-39.7969975508
 20
-37.942269694
  0
LWPOLYLINE
  5
460
100
AcDbEntity
  8
RACCORDO
100
AcDbPolyline
 62
7
  6
CONTINUOUS
 90
10
 70
0
 10
-37.8944590068
 20
38.7161327525
 10
-37.8945602085
 20
38.7161737647
 10
-37.8946615188
 20
38.7162029644
 10
-37.8947629379
 20
38.7162203517
 10
-37.8948644654
 20
38.7162259487
 10
-37.8949661015
 20
38.7162197334
 10
-37.8950678474
 20
38.7162016387
 10
-37.8951697033
 20
38.7161716424
 10
-37.8952716691
 20
38.7161297669
 10
-37.8953737445
 20
38.7160760121
  0
LWPOLYLINE
  5
461
100
AcDbEntity
  8
RACCORDO
100
AcDbPolyline
 62
7
  6
CONTINUOUS
 90
10
 70
0
 10
-40.0704999495
 20
41.2838672475
 10
-40.0703987479
 20
41.2838262353
 10
-40.0702974375
 20
41.2837970356
 10
-40.0701960184
 20
41.2837796483
 10
-40.070094491
 20
41.2837740513
 10
-40.0699928548
 20
41.2837802666
 10
-40.0698911089
 20
41.2837983613
 10
-40.069789253
 20
41.2838283576
 10
-40.0696872873
 20
41.2838702331
 10
-40.0695852118
 20
41.2839239879
  0
LWPOLYLINE
  5
462
100
AcDbEntity
  8
RACCORDO
100
AcDbPolyline
 62
7
  6
CONTINUOUS
 90
3
 70
0
 10
-37.7871280129
 20
38.66732974
 10
-37.7591540243
 20
38.6550000172
 10
-37.7450298021
 20
38.6486689785
  0
LWPOLYLINE
  5
463
100
AcDbEntity
  8
RACCORDO
100
AcDbPolyline
 62
7
  6
CONTINUOUS
 90
3
 70
0
 10
-40.1778309435
 20
41.33267026
 10
-40.205804932
 20
41.3449999828
 10
-40.2199291543
 20
41.3513310215
  0
LWPOLYLINE
  5
464
100
AcDbEntity
  8
RACCORDO
100
AcDbPolyline
 62
7
  6
CONTINUOUS
 90
3
 70
0
 10
-40.1266213858
 20
41.309633734
 10
-40.1642492924
 20
41.3266127028
 10
-40.1778309435
 20
41.33267026
  0
LINE
  5
465
100
AcDbEntity
  8
RACCORDO
100
AcDbLine
 62
7
  6
CONTINUOUS
 10
-40.0962819927
 20
41.2957817531
 11
-40.1266213858
 21
41.309633734
  0
LINE
  5
466
100
AcDbEntity
  8
0
100
AcDbLine
 62
7
  6
CONTINUOUS
 10
19.1490465218
 20
11.852881
 11
18.3750335218
 21
13.078234
  0
LINE
  5
467
100
AcDbEntity
  8
0
100
AcDbLine
 62
7
  6
CONTINUOUS
 10
17.3856315218
 20
13.975279
 11
16.3376965218
 21
15.640705
  0
LINE
  5
468
100
AcDbEntity
  8
0
100
AcDbLine
 62
7
  6
CONTINUOUS
 10
16.3975555218
 20
16.024721
 11
17.4285765218
 21
14.360546
  0
LINE
  5
469
100
AcDbEntity
  8
0
100
AcDbLine
 62
7
  6
CONTINUOUS
 10
18.6977045218
 20
13.078234
 11
19.2860075218
 21
12.093309
  0
LINE
  5
46A
100
AcDbEntity
  8
0
100
AcDbLine
 62
7
  6
CONTINUOUS
 10
15.8649655218
 20
18.972865
 11
16.6074735218
 21
16.923424
  0
LINE
  5
46B
100
AcDbEntity
  8
0
100
AcDbLine
 62
7
  6
CONTINUOUS
 10
16.3048665218
 20
16.923424
 11
16.1020775218
 21
17.520348
  0
LINE
  5
46C
100
AcDbEntity
  8
0
100
AcDbLine
 62
7
  6
CONTINUOUS
 10
16.0020925218
 20
17.765751
 11
15.6966145218
 21
18.675828
  0
LWPOLYLINE
  5
46D
100
AcDbEntity
  8
RACCORDO
100
AcDbPolyline
 62
253
  6
CONTINUOUS
 90
61
 70
0
 10
25.6887970967
 20
40.0
 10
25.6860053922
 20
40.1102391119
 10
25.6775627431
 20
40.2209403989
 10
25.6633766122
 20
40.3318085215
 10
25.6433491957
 20
40.4426360606
 10
25.6174292651
 20
40.5530071682
 10
25.5856640495
 20
40.6623102532
 10
25.5480678874
 20
40.7702402607
 10
25.5046796646
 20
40.87646495
 10
25.4557052529
 20
40.9803595275
 10
25.4012723519
 20
41.0816149721
 10
25.3415098013
 20
41.1799555417
 10
25.2767386576
 20
41.2748591036
 10
25.207224844
 20
41.3660007097
 10
25.1331288892
 20
41.4532291185
 10
25.0546709777
 20
41.5363240043
 10
24.9721337402
 20
41.615033043
 10
24.8857194582
 20
41.6892076532
 10
24.7955220003
 20
41.7587790541
 10
24.7017550371
 20
41.8235741205
 10
24.6047011282
 20
41.8833894914
 10
24.5045457562
 20
41.9380950832
 10
24.401500749
 20
41.9875499812
 10
24.2958938569
 20
42.0315721947
 10
24.1880973963
 20
42.0699923248
 10
24.078418847
 20
42.1026986807
 10
23.9671498324
 20
42.1296022048
 10
23.8546557958
 20
42.1506134305
 10
23.7412806638
 20
42.1656773175
 10
23.6273067901
 20
42.1747655515
 10
23.5130127587
 20
42.1778568523
 10
23.3987150893
 20
42.1749435606
 10
23.2847279582
 20
42.1660347288
 10
23.1713270849
 20
42.1511471127
 10
23.0587959094
 20
42.1303100371
 10
22.9474775161
 20
42.1035792777
 10
22.8377332111
 20
42.0710382086
 10
22.7298540044
 20
42.0327754232
 10
22.6241494687
 20
41.9889033604
 10
22.5209936134
 20
41.9395866473
 10
22.4207132506
 20
41.8850062741
 10
22.3235236354
 20
41.8253051044
 10
22.2296190808
 20
41.7606143924
 10
22.1392852838
 20
41.691141471
 10
22.0527333466
 20
41.617059819
 10
21.9700575125
 20
41.5384352455
 10
21.8914645892
 20
41.4554232104
 10
21.8172321854
 20
41.3682736463
 10
21.747569792
 20
41.2771881309
 10
21.6826413693
 20
41.1823192644
 10
21.6227141462
 20
41.0839915534
 10
21.5681023376
 20
40.9827024092
 10
21.5189382562
 20
40.878719245
 10
21.4753595833
 20
40.7723589945
 10
21.4375796687
 20
40.6642454881
 10
21.4056440784
 20
40.5547109795
 10
21.3795732822
 20
40.4440647527
 10
21.3594208524
 20
40.3329250366
 10
21.345140668
 20
40.2217125486
 10
21.3366392193
 20
40.1106375987
 10
21.3338280039
 20
40.0
  0
LWPOLYLINE
  5
46E
100
AcDbEntity
  8
RACCORDO
100
AcDbPolyline
 62
253
  6
CONTINUOUS
 90
76
 70
0
 10
27.1635178501
 20
40.0
 10
27.1628182628
 20
39.9205209783
 10
27.1601310998
 20
39.8396856105
 10
27.1554563595
 20
39.7574938967
 10
27.1490268529
 20
39.6745086729
 10
27.1406097623
 20
39.590167103
 10
27.129506639
 20
39.502780679
 10
27.1157629048
 20
39.4117655419
 10
27.0993331171
 20
39.3177055506
 10
27.0793825217
 20
39.2206637743
 10
27.0559874985
 20
39.1206506603
 10
27.0290716202
 20
39.0176557612
 10
26.9975709033
 20
38.9117108035
 10
26.9615508972
 20
38.8027072332
 10
26.9209459568
 20
38.6907536042
 10
26.8744952715
 20
38.5762073054
 10
26.8221826748
 20
38.4588337311
 10
26.7640241551
 20
38.3388674869
 10
26.6988070808
 20
38.217369778
 10
26.6262970792
 20
38.0939792816
 10
26.5467282231
 20
37.9690573205
 10
26.4595904935
 20
37.8447490682
 10
26.364532147
 20
37.720894534
 10
26.2619045063
 20
37.5976537086
 10
26.1522521326
 20
37.4776517382
 10
26.0353511102
 20
37.3610498036
 10
25.9114248824
 20
37.2476867239
 10
25.7816890925
 20
37.1397041027
 10
25.6460717564
 20
37.0373558642
 10
25.5046444182
 20
36.9403880842
 10
25.3588381067
 20
36.850180593
 10
25.2086666733
 20
36.7669420385
 10
25.0541159159
 20
36.6904637728
 10
24.8965748986
 20
36.6214996827
 10
24.7361112327
 20
36.5601896049
 10
24.5726570702
 20
36.5063937027
 10
24.407398402
 20
36.4604463522
 10
24.2403914412
 20
36.4224153974
 10
24.0715798462
 20
36.3922329943
 10
23.9019808793
 20
36.3700299875
 10
23.7316017227
 20
36.3558380374
 10
23.5604351614
 20
36.3496254836
 10
23.3894769551
 20
36.3514281894
 10
23.2187022121
 20
36.3612823182
 10
23.0481358834
 20
36.3791517066
 10
22.8788485871
 20
36.4049637279
 10
22.7107940225
 20
36.4387851538
 10
22.544018641
 20
36.4805492125
 10
22.3797322875
 20
36.5299829627
 10
22.2179026901
 20
36.5871932981
 10
22.0585623622
 20
36.6520733249
 10
21.9030184269
 20
36.7240294205
 10
21.7513355554
 20
36.8031487913
 10
21.6034493983
 20
36.8893442309
 10
21.4604736325
 20
36.981760497
 10
21.32258277
 20
37.0803511383
 10
21.1896026616
 20
37.1851626063
 10
21.0621240389
 20
37.2954790129
 10
20.9402356907
 20
37.4111945618
 10
20.8238491736
 20
37.5324150494
 10
20.7132893847
 20
37.6587419773
 10
20.6084408351
 20
37.7903035399
 10
20.5094193165
 20
37.9269715429
 10
20.4168966572
 20
38.0679629051
 10
20.3308661424
 20
38.2134359069
 10
20.2513347607
 20
38.3632322678
 10
20.1789949065
 20
38.5160940654
 10
20.1139726299
 20
38.671930315
 10
20.0561421102
 20
38.8308320012
 10
20.0058179333
 20
38.9918141549
 10
19.9630397154
 20
39.1548573144
 10
19.9277679994
 20
39.3199809414
 10
19.9001987481
 20
39.4862584528
 10
19.8803973104
 20
39.6533809877
 10
19.8682984197
 20
39.8216574071
 10
19.8639020969
 20
39.9910877109
  0
LWPOLYLINE
  5
46F
100
AcDbEntity
  8
RACCORDO
100
AcDbPolyline
 62
253
  6
CONTINUOUS
 90
76
 70
0
 10
27.1635178501
 20
-40.0
 10
27.1628182628
 20
-40.0794790217
 10
27.1601310998
 20
-40.1603143895
 10
27.1554563595
 20
-40.2425061033
 10
27.1490268529
 20
-40.3254913271
 10
27.1406097623
 20
-40.409832897
 10
27.129506639
 20
-40.497219321
 10
27.1157629048
 20
-40.5882344581
 10
27.0993331171
 20
-40.6822944494
 10
27.0793825217
 20
-40.7793362257
 10
27.0559874985
 20
-40.8793493397
 10
27.0290716202
 20
-40.9823442388
 10
26.9975709033
 20
-41.0882891965
 10
26.9615508972
 20
-41.1972927668
 10
26.9209459568
 20
-41.3092463958
 10
26.8744952715
 20
-41.4237926946
 10
26.8221826748
 20
-41.5411662689
 10
26.7640241551
 20
-41.6611325131
 10
26.6988070808
 20
-41.782630222
 10
26.6262970792
 20
-41.9060207184
 10
26.546728223
 20
-42.0309426796
 10
26.4595904935
 20
-42.1552509318
 10
26.364532147
 20
-42.279105466
 10
26.2619045063
 20
-42.4023462914
 10
26.1522521326
 20
-42.5223482618
 10
26.0353511102
 20
-42.6389501964
 10
25.9114248824
 20
-42.7523132761
 10
25.7816890925
 20
-42.8602958973
 10
25.6460717564
 20
-42.9626441358
 10
25.5046444182
 20
-43.0596119158
 10
25.3588381067
 20
-43.149819407
 10
25.2086666733
 20
-43.2330579615
 10
25.0541159159
 20
-43.3095362272
 10
24.8965748986
 20
-43.3785003173
 10
24.7361112327
 20
-43.4398103951
 10
24.5726570702
 20
-43.4936062973
 10
24.407398402
 20
-43.5395536478
 10
24.2403914411
 20
-43.5775846026
 10
24.0715798462
 20
-43.6077670057
 10
23.9019808793
 20
-43.6299700125
 10
23.7316017227
 20
-43.6441619626
 10
23.5604351614
 20
-43.6503745164
 10
23.3894769551
 20
-43.6485718106
 10
23.2187022121
 20
-43.6387176818
 10
23.0481358834
 20
-43.6208482934
 10
22.8788485871
 20
-43.5950362721
 10
22.7107940225
 20
-43.5612148462
 10
22.544018641
 20
-43.5194507875
 10
22.3797322875
 20
-43.4700170373
 10
22.2179026901
 20
-43.4128067019
 10
22.0585623622
 20
-43.3479266751
 10
21.9030184269
 20
-43.2759705795
 10
21.7513355554
 20
-43.1968512087
 10
21.6034493983
 20
-43.1106557691
 10
21.4604736325
 20
-43.018239503
 10
21.32258277
 20
-42.9196488617
 10
21.1896026616
 20
-42.8148373937
 10
21.0621240389
 20
-42.7045209871
 10
20.9402356907
 20
-42.5888054382
 10
20.8238491736
 20
-42.4675849506
 10
20.7132893847
 20
-42.3412580227
 10
20.6084408351
 20
-42.2096964601
 10
20.5094193165
 20
-42.0730284571
 10
20.4168966572
 20
-41.9320370949
 10
20.3308661424
 20
-41.7865640931
 10
20.2513347607
 20
-41.6367677322
 10
20.1789949065
 20
-41.4839059346
 10
20.1139726299
 20
-41.328069685
 10
20.0561421102
 20
-41.1691679988
 10
20.0058179333
 20
-41.0081858451
 10
19.9630397154
 20
-40.8451426857
 10
19.9277679994
 20
-40.6800190586
 10
19.9001987481
 20
-40.5137415472
 10
19.8803973104
 20
-40.3466190123
 10
19.8682984197
 20
-40.1783425929
 10
19.8639020969
 20
-40.0089122891
  0
LWPOLYLINE
  5
470
100
AcDbEntity
  8
RACCORDO
100
AcDbPolyline
 62
253
  6
CONTINUOUS
 90
49
 70
0
 10
27.0212981058
 20
40.0
 10
27.0205094438
 20
39.9256919727
 10
27.0180872251
 20
39.8501012195
 10
27.0139473297
 20
39.7732658172
 10
27.0080553697
 20
39.6958016324
 10
27.0003020017
 20
39.6171778495
 10
26.9903733194
 20
39.5357299621
 10
26.9779875028
 20
39.4510560498
 10
26.9629834235
 20
39.3637149491
 10
26.9450816481
 20
39.2735156933
 10
26.9240487566
 20
39.1806213987
 10
26.8996256102
 20
39.0851111406
 10
26.8714291127
 20
38.9867045562
 10
26.8391659031
 20
38.88558073
 10
26.8025373039
 20
38.7819341408
 10
26.7610707241
 20
38.6755643556
 10
26.7143860979
 20
38.5666498339
 10
26.6621745995
 20
38.4555732099
 10
26.6040143891
 20
38.3425078193
 10
26.5394297919
 20
38.227609143
 10
26.468188298
 20
38.1115071869
 10
26.3902856369
 20
37.9951149806
 10
26.3053312415
 20
37.8787013208
 10
26.2132051034
 20
37.7629277711
 10
26.1145157566
 20
37.6492139611
 10
26.0091843493
 20
37.5379842126
 10
25.8971708682
 20
37.4296952279
 10
25.7794167908
 20
37.3256237011
 10
25.6561421114
 20
37.2261956842
 10
25.5273885254
 20
37.1316692021
 10
25.3940476049
 20
37.0428538038
 10
25.2564728435
 20
36.9600547157
 10
25.1148144147
 20
36.8834300889
 10
24.9697803071
 20
36.813400268
 10
24.8217734256
 20
36.7501524721
 10
24.6710142568
 20
36.6937737047
 10
24.5179866324
 20
36.6444317785
 10
24.3630970299
 20
36.60222768
 10
24.2066026632
 20
36.5672018835
 10
24.0487731702
 20
36.5393946498
 10
23.8899625675
 20
36.5188524109
 10
23.7304842954
 20
36.5055999346
 10
23.5705450811
 20
36.499648059
 10
23.4104629979
 20
36.5010129819
 10
23.2505886847
 20
36.5096961208
 10
23.091177457
 20
36.5256915983
 10
22.9325382211
 20
36.5489842994
 10
22.7750322188
 20
36.5795376992
 10
22.6189928955
 20
36.6173016538
  0
LWPOLYLINE
  5
471
100
AcDbEntity
  8
RACCORDO
100
AcDbPolyline
 62
253
  6
CONTINUOUS
 90
49
 70
0
 10
27.0212981058
 20
-40.0
 10
27.0205094438
 20
-40.0743080273
 10
27.0180872251
 20
-40.1498987805
 10
27.0139473297
 20
-40.2267341828
 10
27.0080553697
 20
-40.3041983676
 10
27.0003020017
 20
-40.3828221505
 10
26.9903733194
 20
-40.4642700379
 10
26.9779875028
 20
-40.5489439502
 10
26.9629834235
 20
-40.6362850509
 10
26.9450816481
 20
-40.7264843068
 10
26.9240487566
 20
-40.8193786013
 10
26.8996256102
 20
-40.9148888594
 10
26.8714291127
 20
-41.0132954438
 10
26.8391659031
 20
-41.11441927
 10
26.8025373039
 20
-41.2180658592
 10
26.7610707241
 20
-41.3244356444
 10
26.7143860979
 20
-41.4333501661
 10
26.6621745995
 20
-41.5444267901
 10
26.6040143891
 20
-41.6574921807
 10
26.5394297919
 20
-41.772390857
 10
26.468188298
 20
-41.8884928131
 10
26.3902856369
 20
-42.0048850194
 10
26.3053312414
 20
-42.1212986792
 10
26.2132051034
 20
-42.2370722289
 10
26.1145157566
 20
-42.3507860389
 10
26.0091843492
 20
-42.4620157874
 10
25.8971708682
 20
-42.5703047721
 10
25.7794167908
 20
-42.6743762989
 10
25.6561421114
 20
-42.7738043158
 10
25.5273885254
 20
-42.8683307979
 10
25.3940476049
 20
-42.9571461962
 10
25.2564728435
 20
-43.0399452843
 10
25.1148144147
 20
-43.1165699111
 10
24.9697803071
 20
-43.186599732
 10
24.8217734256
 20
-43.2498475279
 10
24.6710142568
 20
-43.3062262953
 10
24.5179866324
 20
-43.3555682215
 10
24.3630970299
 20
-43.39777232
 10
24.2066026632
 20
-43.4327981165
 10
24.0487731702
 20
-43.4606053502
 10
23.8899625675
 20
-43.4811475891
 10
23.7304842954
 20
-43.4944000654
 10
23.5705450811
 20
-43.500351941
 10
23.4104629979
 20
-43.4989870181
 10
23.2505886847
 20
-43.4903038792
 10
23.091177457
 20
-43.4743084017
 10
22.9325382211
 20
-43.4510157006
 10
22.7750322188
 20
-43.4204623008
 10
22.6189928955
 20
-43.3826983462
  0
LWPOLYLINE
  5
472
100
AcDbEntity
  8
RACCORDO
100
AcDbPolyline
 62
253
  6
CONTINUOUS
 90
52
 70
0
 10
24.7987903087
 20
-40.0
 10
24.7963660369
 20
-40.0787008149
 10
24.7891029119
 20
-40.1571033585
 10
24.7770285012
 20
-40.2349098305
 10
24.7601893314
 20
-40.3118215215
 10
24.7386492585
 20
-40.3875495637
 10
24.7124872834
 20
-40.461815611
 10
24.6817989705
 20
-40.5343419808
 10
24.6467013144
 20
-40.6048474025
 10
24.6073306294
 20
-40.6730581482
 10
24.5638388944
 20
-40.7387112943
 10
24.5163892296
 20
-40.8015614211
 10
24.4651580695
 20
-40.8613756497
 10
24.4103372064
 20
-40.9179276963
 10
24.352135657
 20
-40.9710000304
 10
24.2907750183
 20
-41.0203909618
 10
24.2264877356
 20
-41.0659120393
 10
24.159517425
 20
-41.1073896685
 10
24.0901189189
 20
-41.1446667725
 10
24.0185549829
 20
-41.1776011591
 10
23.9450973902
 20
-41.2060668527
 10
23.8700265481
 20
-41.2299562306
 10
23.7936283705
 20
-41.2491778234
 10
23.7161917072
 20
-41.2636585295
 10
23.6380084786
 20
-41.2733447495
 10
23.5593731284
 20
-41.2781988822
 10
23.480586184
 20
-41.2782012527
 10
23.4019507603
 20
-41.2733529972
 10
23.3237672151
 20
-41.2636726887
 10
23.2463301478
 20
-41.2491967989
 10
23.1699310413
 20
-41.2299810763
 10
23.0948583025
 20
-41.2060973652
 10
23.0213983329
 20
-41.1776359649
 10
22.9498315874
 20
-41.144706703
 10
22.8804295906
 20
-41.1074343783
 10
22.8134554319
 20
-41.0659599794
 10
22.7491639283
 20
-41.020442744
 10
22.6877982524
 20
-40.9710549099
 10
22.6295914451
 20
-40.9179838841
 10
22.5747656417
 20
-40.8614340779
 10
22.523529925
 20
-40.8016224225
 10
22.4760759234
 20
-40.7387736725
 10
22.432579415
 20
-40.6731219884
 10
22.3932030257
 20
-40.6049109411
 10
22.3580996433
 20
-40.5344028538
 10
22.3274061225
 20
-40.4618745855
 10
22.3012397329
 20
-40.3876081166
 10
22.2796955571
 20
-40.3118783122
 10
22.2628517322
 20
-40.2349612027
 10
22.2507725039
 20
-40.1571439881
 10
22.243505791
 20
-40.0787246495
 10
22.241080343
 20
-40.0
  0
LWPOLYLINE
  5
473
100
AcDbEntity
  8
RACCORDO
100
AcDbPolyline
 62
253
  6
CONTINUOUS
 90
52
 70
0
 10
24.3229052562
 20
-40.0
 10
24.3213986075
 20
-40.0481975007
 10
24.3169814163
 20
-40.095895195
 10
24.3096536792
 20
-40.1430930827
 10
24.2993658294
 20
-40.1899795947
 10
24.2861674193
 20
-40.2363663003
 10
24.2702071212
 20
-40.2816879066
 10
24.2514526798
 20
-40.325920781
 10
24.2299363238
 20
-40.3690885563
 10
24.2059034509
 20
-40.4106968381
 10
24.1793263033
 20
-40.4507252606
 10
24.1502326039
 20
-40.4891941897
 10
24.1189509722
 20
-40.5256703282
 10
24.0854558256
 20
-40.560132202
 10
24.0497727082
 20
-40.5926012853
 10
24.0123069342
 20
-40.6227087038
 10
23.9730381685
 20
-40.6504272519
 10
23.9319867093
 20
-40.6757841353
 10
23.8896188285
 20
-40.6984920965
 10
23.8459194249
 20
-40.7185208011
 10
23.8009035694
 20
-40.7359005836
 10
23.7550828033
 20
-40.75043519
 10
23.7084488472
 20
-40.762092023
 10
23.661009961
 20
-40.7709036799
 10
23.6133025078
 20
-40.7767716988
 10
23.5653224065
 20
-40.7796625806
 10
23.5170737322
 20
-40.7796098244
 10
23.4691050948
 20
-40.7766154661
 10
23.4214208447
 20
-40.7706459818
 10
23.3740166396
 20
-40.7617348955
 10
23.3274280653
 20
-40.7499848148
 10
23.281663876
 20
-40.7353631915
 10
23.2367153382
 20
-40.7179025739
 10
23.1930918191
 20
-40.6978032155
 10
23.1508092083
 20
-40.6750353137
 10
23.1098516468
 20
-40.649628671
 10
23.0706808885
 20
-40.6218729487
 10
23.0333173639
 20
-40.5917414236
 10
22.9977406789
 20
-40.5592608187
 10
22.9643513583
 20
-40.5248009642
 10
22.9331751949
 20
-40.4883412977
 10
22.9041864329
 20
-40.4499023815
 10
22.8777082788
 20
-40.4099157331
 10
22.8537679134
 20
-40.3683612177
 10
22.8323381888
 20
-40.3252589701
 10
22.813660819
 20
-40.2811009122
 10
22.7977678178
 20
-40.2358645139
 10
22.7846271961
 20
-40.1895723054
 10
22.7743846624
 20
-40.1427837986
 10
22.7670887909
 20
-40.0956854974
 10
22.7626910207
 20
-40.0480908978
 10
22.7611913549
 20
-40.0
  0
LWPOLYLINE
  5
474
100
AcDbEntity
  8
RACCORDO
100
AcDbPolyline
 62
7
  6
CONTINUOUS
 90
19
 70
0
 10
-38.3173906103
 20
-42.2539203175
 10
-38.305503214
 20
-42.2498188584
 10
-38.2937091788
 20
-42.2447732136
 10
-38.2820819296
 20
-42.2387833831
 10
-38.2706805697
 20
-42.2317834899
 10
-38.2595882759
 20
-42.223839411
 10
-38.2489082117
 20
-42.2151487775
 10
-38.2387543696
 20
-42.2057566988
 10
-38.2291228005
 20
-42.1956180655
 10
-38.2199492496
 20
-42.1847951809
 10
-38.2113214159
 20
-42.1733234111
 10
-38.2032852531
 20
-42.16116739
 10
-38.1957718899
 20
-42.1482833221
 10
-38.1888620863
 20
-42.1345777953
 10
-38.1827091044
 20
-42.1201442216
 10
-38.17741073
 20
-42.1052190418
 10
-38.1730944227
 20
-42.0898810694
 10
-38.1699011901
 20
-42.0740514908
 10
-38.1679614055
 20
-42.057730306
  0
LINE
  5
475
100
AcDbEntity
  8
0
100
AcDbLine
 62
7
  6
CONTINUOUS
 10
20.1540965218
 20
28.692743
 11
17.6623295218
 21
28.692743
  0
LINE
  5
476
100
AcDbEntity
  8
0
100
AcDbLine
 62
7
  6
CONTINUOUS
 10
15.8790435218
 20
28.692743
 11
13.7096785218
 21
28.692743
  0
LINE
  5
477
100
AcDbEntity
  8
0
100
AcDbLine
 62
7
  6
CONTINUOUS
 10
13.4438545218
 20
28.692743
 11
10.7445665218
 21
28.692743
  0
LINE
  5
478
100
AcDbEntity
  8
0
100
AcDbLine
 62
7
  6
CONTINUOUS
 10
23.0495875218
 20
28.699072
 11
22.2097285218
 21
28.699072
  0
LINE
  5
479
100
AcDbEntity
  8
0
100
AcDbLine
 62
7
  6
CONTINUOUS
 10
21.2285185218
 20
28.699072
 11
20.3884675218
 21
28.699072
  0
LINE
  5
47A
100
AcDbEntity
  8
0
100
AcDbLine
 62
7
  6
CONTINUOUS
 10
18.4614645218
 20
29.192202
 11
19.3549615218
 21
29.192202
  0
LINE
  5
47B
100
AcDbEntity
  8
0
100
AcDbLine
 62
7
  6
CONTINUOUS
 10
11.5171075218
 20
29.319137
 11
13.4438545218
 21
29.319137
  0
LINE
  5
47C
100
AcDbEntity
  8
0
100
AcDbLine
 62
7
  6
CONTINUOUS
 10
14.4659165218
 20
29.319137
 11
15.8790435218
 21
29.319137
  0
LINE
  5
47D
100
AcDbEntity
  8
0
100
AcDbLine
 62
7
  6
CONTINUOUS
 10
16.5175205218
 20
28.692743
 11
15.4369615218
 21
30.571926
  0
LINE
  5
47E
100
AcDbEntity
  8
0
100
AcDbLine
 62
7
  6
CONTINUOUS
 10
15.8284095218
 20
31.198319
 11
16.5175205218
 21
30.0
  0
LINE
  5
47F
100
AcDbEntity
  8
ASSI
100
AcDbLine
 62
7
  6
CONTINUOUS
 10
33.1675205218
 20
51.4
 11
33.1675205218
 21
-51.4
  0
LINE
  5
480
100
AcDbEntity
  8
ASSI
100
AcDbLine
 62
7
  6
CONTINUOUS
 10
-11.9106054782
 20
29.617488
 11
-10.4220694782
 21
29.617488
  0
LINE
  5
481
100
AcDbEntity
  8
0
100
AcDbLine
 62
7
  6
CONTINUOUS
 10
12.4565065218
 20
29.632334
 11
11.5171075218
 21
29.632334
  0
LINE
  5
482
100
AcDbEntity
  8
0
100
AcDbLine
 62
7
  6
CONTINUOUS
 10
19.3549615218
 20
29.759269
 11
18.4614645218
 21
29.759269
  0
LINE
  5
483
100
AcDbEntity
  8
0
100
AcDbLine
 62
7
  6
CONTINUOUS
 10
11.5171075218
 20
30.258729
 11
12.4565065218
 21
30.258729
  0
LINE
  5
484
100
AcDbEntity
  8
0
100
AcDbLine
 62
7
  6
CONTINUOUS
 10
13.7096785218
 20
30.258729
 11
14.4659165218
 21
30.258729
  0
LINE
  5
485
100
AcDbEntity
  8
0
100
AcDbLine
 62
7
  6
CONTINUOUS
 10
17.6623295218
 20
30.258729
 11
20.1540965218
 21
30.258729
  0
LINE
  5
486
100
AcDbEntity
  8
ASSI
100
AcDbLine
 62
7
  6
CONTINUOUS
 10
-10.4220694782
 20
30.382488
 11
-11.910605934
 21
30.382488
  0
LINE
  5
487
100
AcDbEntity
  8
0
100
AcDbLine
 62
7
  6
CONTINUOUS
 10
20.4997075218
 20
30.571926
 11
17.5978875218
 21
30.571926
  0
LINE
  5
488
100
AcDbEntity
  8
0
100
AcDbLine
 62
7
  6
CONTINUOUS
 10
15.4369615218
 20
30.571926
 11
13.4252505218
 21
30.571926
  0
LINE
  5
489
100
AcDbEntity
  8
0
100
AcDbLine
 62
7
  6
CONTINUOUS
 10
13.1615355218
 20
30.571926
 11
11.5171075218
 21
30.571926
  0
LINE
  5
48A
100
AcDbEntity
  8
0
100
AcDbLine
 62
7
  6
CONTINUOUS
 10
10.7445665218
 20
31.198319
 11
13.1615355218
 21
31.198319
  0
LINE
  5
48B
100
AcDbEntity
  8
0
100
AcDbLine
 62
7
  6
CONTINUOUS
 10
13.4252505218
 20
31.198319
 11
15.8284095218
 21
31.198319
  0
LINE
  5
48C
100
AcDbEntity
  8
0
100
AcDbLine
 62
7
  6
CONTINUOUS
 10
17.2064385218
 20
31.198319
 11
20.0443915218
 21
31.198319
  0
LINE
  5
48D
100
AcDbEntity
  8
0
100
AcDbLine
 62
7
  6
CONTINUOUS
 10
20.3884675218
 20
31.200813
 11
21.2285185218
 21
31.200813
  0
LINE
  5
48E
100
AcDbEntity
  8
0
100
AcDbLine
 62
7
  6
CONTINUOUS
 10
22.2097285218
 20
31.200813
 11
23.0495875218
 21
31.200813
  0
LWPOLYLINE
  5
48F
100
AcDbEntity
  8
RACCORDO
100
AcDbPolyline
 62
253
  6
CONTINUOUS
 90
22
 70
0
 10
-39.7716415401
 20
35.6625503239
 10
-39.8056823756
 20
35.6638913608
 10
-39.8391032973
 20
35.6676559484
 10
-39.8719043052
 20
35.6738440867
 10
-39.9042467838
 20
35.6825193167
 10
-39.9359693486
 20
35.6936180974
 10
-39.9665878463
 20
35.706949806
 10
-39.9960907659
 20
35.7225470337
 10
-40.0244896184
 20
35.7403771893
 10
-40.0513347825
 20
35.7601518757
 10
-40.076606097
 20
35.7819042145
 10
-40.1003237232
 20
35.8056010841
 10
-40.1220985234
 20
35.8308547233
 10
-40.1418962608
 20
35.8576816202
 10
-40.1597511723
 20
35.8860652866
 10
-40.175376831
 20
35.9155684968
 10
-40.1887449641
 20
35.9462079453
 10
-40.1998838444
 20
35.9779669376
 10
-40.2085918643
 20
36.010358164
 10
-40.2148018213
 20
36.0432191879
 10
-40.218580918
 20
36.0767124459
 10
-40.2199291543
 20
36.110837938
  0
LWPOLYLINE
  5
490
100
AcDbEntity
  8
RACCORDO
100
AcDbPolyline
 62
253
  6
CONTINUOUS
 90
19
 70
0
 10
-39.4981391414
 20
36.0854819274
 10
-39.5241716421
 20
36.0867114887
 10
-39.5499937962
 20
36.0901959626
 10
-39.5754115925
 20
36.0959073415
 10
-39.6002339986
 20
36.1038003253
 10
-39.624274879
 20
36.1138143962
 10
-39.6473542005
 20
36.1258747647
 10
-39.6692982279
 20
36.1398898201
 10
-39.689942699
 20
36.1557530536
 10
-39.7091339808
 20
36.173346471
 10
-39.726727315
 20
36.1925377712
 10
-39.7425904301
 20
36.2131822
 10
-39.7566053601
 20
36.2351261492
 10
-39.7686656127
 20
36.2582053561
 10
-39.7786795749
 20
36.2822460846
 10
-39.7865724483
 20
36.3070683329
 10
-39.7922837142
 20
36.3324859785
 10
-39.7957680827
 20
36.3583079821
 10
-39.7969975508
 20
36.3843403368
  0
LWPOLYLINE
  5
491
100
AcDbEntity
  8
RACCORDO
100
AcDbPolyline
 62
7
  6
CONTINUOUS
 90
16
 70
0
 10
-38.0445625388
 20
38.6393722416
 10
-38.0458105709
 20
38.639599132
 10
-38.0470336796
 20
38.6414880449
 10
-38.048231865
 20
38.6450389802
 10
-38.0494139014
 20
38.6502077139
 10
-38.0505710145
 20
38.65703847
 10
-38.0516768807
 20
38.6656639208
 10
-38.0527403201
 20
38.6761908191
 10
-38.0537525125
 20
38.6885124121
 10
-38.0546606735
 20
38.7024411131
 10
-38.0554606383
 20
38.718044076
 10
-38.0561565716
 20
38.7352541469
 10
-38.0567081839
 20
38.7536822772
 10
-38.0571020454
 20
38.773198784
 10
-38.0573515858
 20
38.7939333502
 10
-38.0574568052
 20
38.8158859758
  0
LWPOLYLINE
  5
492
100
AcDbEntity
  8
RACCORDO
100
AcDbPolyline
 62
7
  6
CONTINUOUS
 90
16
 70
0
 10
-39.9203964175
 20
41.3606277584
 10
-39.9191483854
 20
41.360400868
 10
-39.9179252767
 20
41.3585119551
 10
-39.9167270914
 20
41.3549610198
 10
-39.9155450549
 20
41.3497922861
 10
-39.9143879418
 20
41.34296153
 10
-39.9132820757
 20
41.3343360792
 10
-39.9122186362
 20
41.3238091809
 10
-39.9112064438
 20
41.3114875879
 10
-39.9102982828
 20
41.2975588869
 10
-39.909498318
 20
41.281955924
 10
-39.9088023847
 20
41.2647458531
 10
-39.9082507724
 20
41.2463177228
 10
-39.9078569109
 20
41.226801216
 10
-39.9076073705
 20
41.2060666498
 10
-39.9075021511
 20
41.1841140242
  0
LWPOLYLINE
  5
493
100
AcDbEntity
  8
RACCORDO
100
AcDbPolyline
 62
7
  6
CONTINUOUS
 90
15
 70
0
 10
39.0175205218
 20
-37.800030461
 10
39.0186000516
 20
-37.8207847865
 10
39.0218450683
 20
-37.8413984138
 10
39.0272466704
 20
-37.8616428676
 10
39.0348033937
 20
-37.8813607905
 10
39.044440096
 20
-37.9002459569
 10
39.0559340069
 20
-37.9178836728
 10
39.0689991339
 20
-37.9339720091
 10
39.0835485127
 20
-37.948521388
 10
39.0996368491
 20
-37.9615865149
 10
39.117274565
 20
-37.9730804259
 10
39.1361597313
 20
-37.9827171281
 10
39.1558776542
 20
-37.9902738515
 10
39.176122108
 20
-37.9956754535
 10
39.1967357353
 20
-37.9989204702
  0
LWPOLYLINE
  5
494
100
AcDbEntity
  8
RACCORDO
100
AcDbPolyline
 62
253
  6
CONTINUOUS
 90
31
 70
0
 10
38.9923388395
 20
-37.8252121433
 10
38.9925065774
 20
-37.8336625264
 10
38.9930238673
 20
-37.8422927452
 10
38.993912158
 20
-37.8510854058
 10
38.9951981023
 20
-37.8600530718
 10
38.9968994071
 20
-37.8691419092
 10
38.9990101222
 20
-37.8782345484
 10
39.0015297683
 20
-37.8872938019
 10
39.0044674591
 20
-37.8963131199
 10
39.0078108509
 20
-37.9052247388
 10
39.0115458377
 20
-37.9139860065
 10
39.0156759892
 20
-37.9225986254
 10
39.0202110512
 20
-37.9310618181
 10
39.0251411933
 20
-37.9393432182
 10
39.0304666017
 20
-37.9474303054
 10
39.0362204595
 20
-37.9553451395
 10
39.0423972145
 20
-37.9630534893
 10
39.0489982556
 20
-37.9705321084
 10
39.05608027
 20
-37.9778050158
 10
39.0636343641
 20
-37.9848232668
 10
39.0716687478
 20
-37.991555569
 10
39.0802819863
 20
-37.9980262321
 10
39.089504933
 20
-38.0041922756
 10
39.0993091025
 20
-38.0099677345
 10
39.109709789
 20
-38.0152894528
 10
39.1206803543
 20
-38.0200800786
 10
39.1322135125
 20
-38.0242709765
 10
39.1443480126
 20
-38.0277944631
 10
39.1570721334
 20
-38.0305625411
 10
39.1703188992
 20
-38.0324805359
 10
39.1840318908
 20
-38.0334581701
  0
LINE
  5
495
100
AcDbEntity
  8
ASSI
100
AcDbLine
 62
7
  6
CONTINUOUS
 10
37.9675205218
 20
-56.2
 11
37.9675205218
 21
56.2
  0
LINE
  5
496
100
AcDbEntity
  8
RACCORDO
100
AcDbLine
 62
253
  6
CONTINUOUS
 10
38.0201159324
 20
56.4025725648
 11
38.0201159324
 21
-56.4025725648
  0
LINE
  5
497
100
AcDbEntity
  8
RACCORDO
100
AcDbLine
 62
253
  6
CONTINUOUS
 10
38.0586084657
 20
56.5910422518
 11
38.0586084654
 21
56.4410650975
  0
LINE
  5
498
100
AcDbEntity
  8
RACCORDO
100
AcDbLine
 62
253
  6
CONTINUOUS
 10
38.0586084654
 20
-56.4410650975
 11
38.0586084657
 21
-56.5910422518
  0
LINE
  5
499
100
AcDbEntity
  8
RACCORDO
100
AcDbLine
 62
253
  6
CONTINUOUS
 10
38.1700930866
 20
56.2525954105
 11
38.1700930866
 21
-56.2525954105
  0
LINE
  5
49A
100
AcDbEntity
  8
RACCORDO
100
AcDbLine
 62
253
  6
CONTINUOUS
 10
38.2085856194
 20
56.2910879432
 11
38.2085856194
 21
-56.2910879432
  0
LINE
  5
49B
100
AcDbEntity
  8
RACCORDO
100
AcDbLine
 62
253
  6
CONTINUOUS
 10
38.3585627736
 20
56.2910879432
 11
38.3585627736
 21
-56.2910879432
  0
LINE
  5
49C
100
AcDbEntity
  8
RACCORDO
100
AcDbLine
 62
253
  6
CONTINUOUS
 10
38.8194962441
 20
44.0
 11
38.8194962441
 21
-42.0
  0
LINE
  5
49D
100
AcDbEntity
  8
RACCORDO
100
AcDbLine
 62
253
  6
CONTINUOUS
 10
38.9694733984
 20
44.0
 11
38.9694733984
 21
-42.0
  0
LINE
  5
49E
100
AcDbEntity
  8
RACCORDO
100
AcDbLine
 62
7
  6
CONTINUOUS
 10
38.9827847873
 20
40.1886277484
 11
38.9826891968
 21
44.0
  0
LINE
  5
49F
100
AcDbEntity
  8
RACCORDO
100
AcDbLine
 62
7
  6
CONTINUOUS
 10
39.0175205218
 20
-42.0
 11
39.0175205218
 21
-57.25
  0
LINE
  5
4A0
100
AcDbEntity
  8
RACCORDO
100
AcDbLine
 62
7
  6
CONTINUOUS
 10
39.0175205218
 20
-37.800030461
 11
39.0175205218
 21
39.800030461
  0
LINE
  5
4A1
100
AcDbEntity
  8
RACCORDO
100
AcDbLine
 62
7
  6
CONTINUOUS
 10
39.0175205218
 20
44.0
 11
39.0175205218
 21
57.25
  0
LINE
  5
4A2
100
AcDbEntity
  8
RACCORDO
100
AcDbLine
 62
7
  6
CONTINUOUS
 10
38.9826891968
 20
-42.0
 11
38.9827611574
 21
-38.1935660045
  0
LWPOLYLINE
  5
4A3
100
AcDbEntity
  8
RACCORDO
100
AcDbPolyline
 62
7
  6
CONTINUOUS
 90
15
 70
0
 10
39.0175205218
 20
39.800030461
 10
39.0186000516
 20
39.8207847865
 10
39.0218450683
 20
39.8413984138
 10
39.0272466704
 20
39.8616428676
 10
39.0348033937
 20
39.8813607905
 10
39.044440096
 20
39.9002459569
 10
39.0559340069
 20
39.9178836728
 10
39.0689991339
 20
39.9339720091
 10
39.0835485127
 20
39.948521388
 10
39.0996368491
 20
39.9615865149
 10
39.117274565
 20
39.9730804259
 10
39.1361597313
 20
39.9827171281
 10
39.1558776542
 20
39.9902738515
 10
39.176122108
 20
39.9956754535
 10
39.1967357353
 20
39.9989204702
  0
LWPOLYLINE
  5
4A4
100
AcDbEntity
  8
RACCORDO
100
AcDbPolyline
 62
253
  6
CONTINUOUS
 90
49
 70
0
 10
22.6190693304
 20
43.3827186486
 10
22.7828828569
 20
43.422163319
 10
22.9484147352
 20
43.4536820741
 10
23.1152818019
 20
43.4772007374
 10
23.2830559595
 20
43.4926611056
 10
23.4513902208
 20
43.5000327133
 10
23.6200203596
 20
43.4992927936
 10
23.7885883572
 20
43.4904211876
 10
23.9566681419
 20
43.4734184679
 10
24.1238916085
 20
43.4482994962
 10
24.289977707
 20
43.4150746733
 10
24.4544188353
 20
43.3738133724
 10
24.6165193273
 20
43.3246890939
 10
24.776025977
 20
43.267793175
 10
24.9324499466
 20
43.203314851
 10
25.0848040803
 20
43.1317401367
 10
25.2329023731
 20
43.053283739
 10
25.3763444233
 20
42.9682877662
 10
25.5139674037
 20
42.8776741649
 10
25.6456852275
 20
42.781823371
 10
25.7713016434
 20
42.6812091639
 10
25.8897268582
 20
42.5771677481
 10
26.0009241786
 20
42.4703368668
 10
26.1050785945
 20
42.3611568269
 10
26.2016864148
 20
42.250863859
 10
26.2908085235
 20
42.1402285786
 10
26.3728927797
 20
42.029551664
 10
26.4481528837
 20
41.9194035764
 10
26.5168123015
 20
41.8103615578
 10
26.5792782524
 20
41.70270468
 10
26.6360374836
 20
41.5964913759
 10
26.6873822776
 20
41.4920603169
 10
26.7336255637
 20
41.3896892929
 10
26.775223833
 20
41.2892669771
 10
26.812445819
 20
41.1910296849
 10
26.8455676177
 20
41.095172577
 10
26.8749852762
 20
41.0014610639
 10
26.9009591547
 20
40.9099494525
 10
26.9236880528
 20
40.8208753016
 10
26.9434270322
 20
40.7342400231
 10
26.960285771
 20
40.6507097908
 10
26.9746070816
 20
40.5698263536
 10
26.9868528347
 20
40.4898604942
 10
26.9970493481
 20
40.4113117674
 10
27.0053475072
 20
40.3337904267
 10
27.0120573717
 20
40.254182099
 10
27.0170961002
 20
40.1714617972
 10
27.0202235406
 20
40.0867195507
 10
27.0212981058
 20
40.0
  0
LWPOLYLINE
  5
4A5
100
AcDbEntity
  8
RACCORDO
100
AcDbPolyline
 62
253
  6
CONTINUOUS
 90
34
 70
0
 10
39.1840318908
 20
40.0334581701
 10
39.170968317
 20
40.0325502242
 10
39.1584114284
 20
40.0308013262
 10
39.1464077751
 20
40.0283063186
 10
39.1350126757
 20
40.0251625043
 10
39.1242304877
 20
40.0214597273
 10
39.114018802
 20
40.0172686714
 10
39.1044108259
 20
40.0126773624
 10
39.0953875118
 20
40.0077484498
 10
39.0868302543
 20
40.0024808876
 10
39.078728757
 20
39.9969130319
 10
39.0710981224
 20
39.9910992667
 10
39.0638688053
 20
39.9850304287
 10
39.0570353352
 20
39.978733003
 10
39.0506049359
 20
39.972245011
 10
39.0445360758
 20
39.9655571071
 10
39.0388291748
 20
39.9586930005
 10
39.0334848746
 20
39.951677575
 10
39.0284703378
 20
39.9444921798
 10
39.0237844343
 20
39.9371490557
 10
39.0194332967
 20
39.9296726685
 10
39.0154021104
 20
39.922055831
 10
39.011690255
 20
39.9143060409
 10
39.0083049529
 20
39.9064474147
 10
39.0052455507
 20
39.8984953916
 10
39.0025122663
 20
39.8904628694
 10
39.0001071518
 20
39.8823679921
 10
38.998030679
 20
39.874233987
 10
38.9962833199
 20
39.8660877613
 10
38.9948599508
 20
39.8579328853
 10
38.9937541856
 20
39.8497567647
 10
38.9929651484
 20
39.8415642064
 10
38.9924937667
 20
39.833378086
 10
38.9923388395
 20
39.8252121433
  0
LWPOLYLINE
  5
4A6
100
AcDbEntity
  8
RACCORDO
100
AcDbPolyline
 62
7
  6
CONTINUOUS
 90
16
 70
0
 10
43.6675182231
 20
40.0
 10
43.6884256667
 20
40.0010962444
 10
43.7091037832
 20
40.0043723074
 10
43.7293259989
 20
40.0097922399
 10
43.748870779
 20
40.0172966552
 10
43.7675239608
 20
40.0268032518
 10
43.7850811148
 20
40.0382076858
 10
43.8013499384
 20
40.0513849379
 10
43.8161522424
 20
40.0661906234
 10
43.8293258511
 20
40.0824623922
 10
43.8407263652
 20
40.1000219835
 10
43.8502292661
 20
40.1186769401
 10
43.8577308982
 20
40.1382227583
 10
43.8631489999
 20
40.1584453961
 10
43.8664239127
 20
40.1791234599
 10
43.8675195864
 20
40.2000304656
  0
LINE
  5
4A7
100
AcDbEntity
  8
RACCORDO
100
AcDbLine
 62
7
  6
CONTINUOUS
 10
39.1967357353
 20
39.9989204702
 11
39.2174900609
 21
40.0
  0
LWPOLYLINE
  5
4A8
100
AcDbEntity
  8
RACCORDO
100
AcDbPolyline
 62
253
  6
CONTINUOUS
 90
7
 70
0
 10
39.0456553903
 20
40.2334277091
 10
39.0346860088
 20
40.2331024399
 10
39.0239090177
 20
40.2325427107
 10
39.013322619
 20
40.2317485215
 10
39.0029250172
 20
40.2307198724
 10
38.9927144204
 20
40.2294567633
 10
38.9826890412
 20
40.2279591942
  0
LINE
  5
4A9
100
AcDbEntity
  8
RACCORDO
100
AcDbLine
 62
253
  6
CONTINUOUS
 10
-38.1933174162
 20
35.6625503239
 11
-39.7716415401
 21
35.6625503239
  0
LINE
  5
4AA
100
AcDbEntity
  8
RACCORDO
100
AcDbLine
 62
253
  6
CONTINUOUS
 10
-38.1933174162
 20
35.8119795286
 11
-39.7716415401
 21
35.8119795286
  0
LINE
  5
4AB
100
AcDbEntity
  8
RACCORDO
100
AcDbLine
 62
253
  6
CONTINUOUS
 10
-38.466819815
 20
36.0854819274
 11
-39.4981391414
 21
36.0854819274
  0
LINE
  5
4AC
100
AcDbEntity
  8
RACCORDO
100
AcDbLine
 62
253
  6
CONTINUOUS
 10
-40.2199291543
 20
36.110837938
 11
-40.0704999495
 21
36.110837938
  0
LINE
  5
4AD
100
AcDbEntity
  8
RACCORDO
100
AcDbLine
 62
253
  6
CONTINUOUS
 10
-37.7450298021
 20
36.110837938
 11
-37.8944590068
 21
36.1108379381
  0
LINE
  5
4AE
100
AcDbEntity
  8
RACCORDO
100
AcDbLine
 62
253
  6
CONTINUOUS
 10
-38.466819815
 20
36.2349111321
 11
-39.4981391414
 21
36.2349111321
  0
LINE
  5
4AF
100
AcDbEntity
  8
RACCORDO
100
AcDbLine
 62
253
  6
CONTINUOUS
 10
-38.3173906103
 20
36.3843403368
 11
-38.1679614055
 21
36.3843403368
  0
LINE
  5
4B0
100
AcDbEntity
  8
RACCORDO
100
AcDbLine
 62
253
  6
CONTINUOUS
 10
-39.6475683461
 20
36.3843403368
 11
-39.7969975508
 21
36.3843403365
  0
LWPOLYLINE
  5
4B1
100
AcDbEntity
  8
RACCORDO
100
AcDbPolyline
 62
253
  6
CONTINUOUS
 90
22
 70
0
 10
-39.7716415401
 20
35.8119795286
 10
-39.7942306336
 20
35.8127388769
 10
-39.8166385971
 20
35.8151828752
 10
-39.8387424867
 20
35.819289201
 10
-39.8604154359
 20
35.8250235664
 10
-39.8815468942
 20
35.8323479059
 10
-39.902041417
 20
35.8412259229
 10
-39.9217907991
 20
35.8516080455
 10
-39.9406843125
 20
35.8634323869
 10
-39.9586262697
 20
35.8766387921
 10
-39.9755204194
 20
35.8911568397
 10
-39.9912713936
 20
35.9069037744
 10
-40.0057921925
 20
35.9237922063
 10
-40.0189989255
 20
35.9417241249
 10
-40.0308235545
 20
35.9606051452
 10
-40.0412100885
 20
35.9803470418
 10
-40.0500966952
 20
36.0008428069
 10
-40.0574309118
 20
36.0219818813
 10
-40.0631747762
 20
36.0436677974
 10
-40.0672890762
 20
36.0657895943
 10
-40.0697385972
 20
36.0882207138
 10
-40.0704999495
 20
36.110837938
  0
LWPOLYLINE
  5
4B2
100
AcDbEntity
  8
RACCORDO
100
AcDbPolyline
 62
253
  6
CONTINUOUS
 90
19
 70
0
 10
-39.4981391414
 20
36.2349111321
 10
-39.5113584435
 20
36.2355161137
 10
-39.5242768864
 20
36.2372113984
 10
-39.53689447
 20
36.2399969862
 10
-39.5493009016
 20
36.2439101604
 10
-39.561406474
 20
36.2489136377
 10
-39.5729420656
 20
36.2548955679
 10
-39.5838948432
 20
36.2618777187
 10
-39.59427764
 20
36.2698383225
 10
-39.6038598343
 20
36.2786002269
 10
-39.6126237273
 20
36.2881811514
 10
-39.6205870177
 20
36.2985633766
 10
-39.627572181
 20
36.3095165914
 10
-39.6335577863
 20
36.3210538662
 10
-39.6385652645
 20
36.3331621307
 10
-39.6424813828
 20
36.3455718622
 10
-39.6452683971
 20
36.35819322
 10
-39.6469640515
 20
36.3711160448
 10
-39.6475683461
 20
36.3843403368
  0
LWPOLYLINE
  5
4B3
100
AcDbEntity
  8
RACCORDO
100
AcDbPolyline
 62
7
  6
CONTINUOUS
 90
28
 70
0
 10
-19.5839272437
 20
43.3826917231
 10
-19.416531796
 20
43.3338908609
 10
-19.2524465621
 20
43.2774898059
 10
-19.091671542
 20
43.2134885582
 10
-18.9337115897
 20
43.1416035873
 10
-18.7790618513
 20
43.0621184236
 10
-18.6292077644
 20
42.9758836587
 10
-18.4844229416
 20
42.8829714171
 10
-18.3444337704
 20
42.7833095743
 10
-18.2099048505
 20
42.6775323477
 10
-18.0807671533
 20
42.565529745
 10
-17.9570897074
 20
42.4474117586
 10
-17.8397441992
 20
42.3241425831
 10
-17.7289243464
 20
42.19594874
 10
-17.6244364313
 20
42.0626037078
 10
-17.5265709861
 20
41.9243921164
 10
-17.4351431401
 20
41.7810497532
 10
-17.3503377641
 20
41.6328408308
 10
-17.2730000036
 20
41.4808426168
 10
-17.2031776311
 20
41.3248455238
 10
-17.1408228741
 20
41.1650591392
 10
-17.0866375609
 20
41.0031894936
 10
-17.0408021011
 20
40.8391703035
 10
-17.0031360851
 20
40.6730678524
 10
-16.9738001116
 20
40.5067870214
 10
-16.9528477135
 20
40.3409627707
 10
-16.9402253579
 20
40.17496014
 10
-16.9359330448
 20
40.0087791294
  0
LINE
  5
4B4
100
AcDbEntity
  8
0
100
AcDbLine
 62
7
  6
CONTINUOUS
 10
21.2285185218
 20
31.200813
 11
21.7191235218
 21
30.527046
  0
LINE
  5
4B5
100
AcDbEntity
  8
0
100
AcDbLine
 62
7
  6
CONTINUOUS
 10
22.2097285218
 20
28.699072
 11
21.7191235218
 21
29.373031
  0
LINE
  5
4B6
100
AcDbEntity
  8
0
100
AcDbLine
 62
7
  6
CONTINUOUS
 10
21.2990975218
 20
29.949943
 11
20.3884675218
 21
31.200813
  0
LINE
  5
4B7
100
AcDbEntity
  8
0
100
AcDbLine
 62
7
  6
CONTINUOUS
 10
22.1391495218
 20
29.949943
 11
23.0495875218
 21
28.699072
  0
LINE
  5
4B8
100
AcDbEntity
  8
0
100
AcDbLine
 62
7
  6
CONTINUOUS
 10
20.0443915218
 20
31.198319
 11
20.4997075218
 21
30.571926
  0
LWPOLYLINE
  5
4B9
100
AcDbEntity
  8
RACCORDO
100
AcDbPolyline
 62
253
  6
CONTINUOUS
 90
16
 70
0
 10
38.1700930866
 20
56.2525954105
 10
38.1692670404
 20
56.268269264
 10
38.1668074964
 20
56.283771458
 10
38.1627413917
 20
56.298932213
 10
38.1571132579
 20
56.313585489
 10
38.1499847343
 20
56.3275708038
 10
38.1414338922
 20
56.3407349907
 10
38.13155438
 20
56.3529338761
 10
38.120454398
 20
56.3640338582
 10
38.1082555126
 20
56.3739133703
 10
38.0950913256
 20
56.3824642125
 10
38.0811060108
 20
56.3895927361
 10
38.0664527348
 20
56.3952208698
 10
38.0512919798
 20
56.3992869746
 10
38.0357897858
 20
56.4017465185
 10
38.0201159324
 20
56.4025725648
  0
LINE
  5
4BA
100
AcDbEntity
  8
RACCORDO
100
AcDbLine
 62
7
  6
CONTINUOUS
 10
38.9905552897
 20
39.8890231254
 11
38.9869953883
 21
39.9756215222
  0
LINE
  5
4BB
100
AcDbEntity
  8
RACCORDO
100
AcDbLine
 62
7
  6
CONTINUOUS
 10
38.9911396771
 20
39.8728216349
 11
38.9905552897
 21
39.8890231254
  0
LINE
  5
4BC
100
AcDbEntity
  8
RACCORDO
100
AcDbLine
 62
7
  6
CONTINUOUS
 10
38.9869953883
 20
39.9756215222
 11
38.9857947821
 21
40.0103257198
  0
LINE
  5
4BD
100
AcDbEntity
  8
RACCORDO
100
AcDbLine
 62
7
  6
CONTINUOUS
 10
38.9916705706
 20
39.8555096892
 11
38.9911396771
 21
39.8728216349
  0
LINE
  5
4BE
100
AcDbEntity
  8
RACCORDO
100
AcDbLine
 62
7
  6
CONTINUOUS
 10
38.9857947821
 20
40.0103257198
 11
38.9850231828
 21
40.0371019032
  0
LINE
  5
4BF
100
AcDbEntity
  8
RACCORDO
100
AcDbLine
 62
7
  6
CONTINUOUS
 10
38.9850231828
 20
40.0371019032
 11
38.984309934
 21
40.0668158961
  0
LWPOLYLINE
  5
4C0
100
AcDbEntity
  8
RACCORDO
100
AcDbPolyline
 62
7
  6
CONTINUOUS
 90
3
 70
0
 10
38.9923388395
 20
39.8252121433
 10
38.9921326222
 20
39.8358443929
 10
38.9916705706
 20
39.8555096892
  0
LINE
  5
4C1
100
AcDbEntity
  8
RACCORDO
100
AcDbLine
 62
7
  6
CONTINUOUS
 10
38.984309934
 20
40.0668158961
 11
38.9837022163
 21
40.0991575474
  0
LINE
  5
4C2
100
AcDbEntity
  8
RACCORDO
100
AcDbLine
 62
7
  6
CONTINUOUS
 10
38.9837022163
 20
40.0991575474
 11
38.983224784
 21
40.1335070592
  0
LWPOLYLINE
  5
4C3
100
AcDbEntity
  8
RACCORDO
100
AcDbPolyline
 62
7
  6
CONTINUOUS
 90
3
 70
0
 10
38.983224784
 20
40.1335070592
 10
38.9828912805
 20
40.1697326058
 10
38.9827847873
 20
40.1886277484
  0
LINE
  5
4C4
100
AcDbEntity
  8
RACCORDO
100
AcDbLine
 62
7
  6
CONTINUOUS
 10
40.7675205218
 20
20.0430193827
 11
40.7675205218
 21
-24.8360387653
  0
LINE
  5
4C5
100
AcDbEntity
  8
ASSI
100
AcDbLine
 62
7
  6
CONTINUOUS
 10
43.8675205218
 20
44.0
 11
43.8675205218
 21
40.2000303673
  0
LINE
  5
4C6
100
AcDbEntity
  8
ASSI
100
AcDbLine
 62
7
  6
CONTINUOUS
 10
43.8675205218
 20
-38.2000303667
 11
43.8675205218
 21
-42.0
  0
LINE
  5
4C7
100
AcDbEntity
  8
RACCORDO
100
AcDbLine
 62
7
  6
CONTINUOUS
 10
38.9827611574
 20
-38.1935660045
 11
38.983113687
 21
-38.1438256579
  0
LINE
  5
4C8
100
AcDbEntity
  8
RACCORDO
100
AcDbLine
 62
7
  6
CONTINUOUS
 10
38.983113687
 20
-38.1438256579
 11
38.983496456
 21
-38.1125323174
  0
LINE
  5
4C9
100
AcDbEntity
  8
RACCORDO
100
AcDbLine
 62
7
  6
CONTINUOUS
 10
38.983496456
 20
-38.1125323174
 11
38.9842528563
 21
-38.0694724729
  0
LINE
  5
4CA
100
AcDbEntity
  8
RACCORDO
100
AcDbLine
 62
7
  6
CONTINUOUS
 10
38.9919445592
 20
-37.8445053021
 11
38.9923388395
 21
-37.8252121433
  0
LINE
  5
4CB
100
AcDbEntity
  8
RACCORDO
100
AcDbLine
 62
7
  6
CONTINUOUS
 10
38.9842528563
 20
-38.0694724729
 11
38.9851722953
 21
-38.0314662382
  0
LINE
  5
4CC
100
AcDbEntity
  8
RACCORDO
100
AcDbLine
 62
7
  6
CONTINUOUS
 10
38.9914959462
 20
-37.8616784396
 11
38.9919445592
 21
-37.8445053021
  0
LINE
  5
4CD
100
AcDbEntity
  8
RACCORDO
100
AcDbLine
 62
7
  6
CONTINUOUS
 10
38.9851722953
 20
-38.0314662382
 11
38.9862109666
 21
-37.9975964053
  0
LINE
  5
4CE
100
AcDbEntity
  8
RACCORDO
100
AcDbLine
 62
7
  6
CONTINUOUS
 10
38.9909931815
 20
-37.8770859036
 11
38.9914959462
 21
-37.8616784396
  0
LINE
  5
4CF
100
AcDbEntity
  8
RACCORDO
100
AcDbLine
 62
7
  6
CONTINUOUS
 10
38.9862109666
 20
-37.9975964053
 11
38.9873169062
 21
-37.9672658208
  0
LINE
  5
4D0
100
AcDbEntity
  8
RACCORDO
100
AcDbLine
 62
7
  6
CONTINUOUS
 10
38.9901388136
 20
-37.8994554839
 11
38.9909931815
 21
-37.8770859036
  0
LINE
  5
4D1
100
AcDbEntity
  8
RACCORDO
100
AcDbLine
 62
7
  6
CONTINUOUS
 10
38.9873169062
 20
-37.9672658208
 11
38.9901388136
 21
-37.8994554839
  0
LWPOLYLINE
  5
4D2
100
AcDbEntity
  8
RACCORDO
100
AcDbPolyline
 62
253
  6
CONTINUOUS
 90
19
 70
0
 10
38.2085856194
 20
-56.2910879432
 10
38.2080174305
 20
-56.3041806727
 10
38.2063098797
 20
-56.3171676405
 10
38.2034773771
 20
-56.329950109
 10
38.1995436141
 20
-56.3424291353
 10
38.1945394452
 20
-56.3545122977
 10
38.1885009284
 20
-56.3661137031
 10
38.1814722862
 20
-56.3771470661
 10
38.173507812
 20
-56.3875261067
 10
38.1646686158
 20
-56.3971708894
 10
38.155022381
 20
-56.4060076323
 10
38.1446420986
 20
-56.4139696046
 10
38.1336061089
 20
-56.4209966279
 10
38.121997096
 20
-56.4270355642
 10
38.1099043151
 20
-56.4320395736
 10
38.0974226638
 20
-56.4359696872
 10
38.0846482442
 20
-56.4387963812
 10
38.0716773048
 20
-56.4404989906
 10
38.0586084651
 20
-56.4410650975
  0
LWPOLYLINE
  5
4D3
100
AcDbEntity
  8
RACCORDO
100
AcDbPolyline
 62
253
  6
CONTINUOUS
 90
19
 70
0
 10
38.3585627736
 20
-56.2910879432
 10
38.3573392371
 20
-56.3175974331
 10
38.353923589
 20
-56.3435061863
 10
38.3483158292
 20
-56.3688142026
 10
38.3404407662
 20
-56.3936996939
 10
38.3303735915
 20
-56.4179844483
 10
38.3183398802
 20
-56.4411338312
 10
38.3042941843
 20
-56.4631266543
 10
38.2882819519
 20
-56.4839841059
 10
38.2706651015
 20
-56.5032351157
 10
38.2514081408
 20
-56.5208424771
 10
38.2305465622
 20
-56.5368433968
 10
38.2085487609
 20
-56.5508784244
 10
38.1853867802
 20
-56.5629034361
 10
38.1610885769
 20
-56.5729625558
 10
38.1362064171
 20
-56.580828705
 10
38.1109243896
 20
-56.586426191
 10
38.0850584056
 20
-56.5898307066
 10
38.0586084651
 20
-56.5910422518
  0
LWPOLYLINE
  5
4D4
100
AcDbEntity
  8
RACCORDO
100
AcDbPolyline
 62
253
  6
CONTINUOUS
 90
49
 70
0
 10
-19.5840282866
 20
36.6172813514
 10
-19.7478418132
 20
36.577836681
 10
-19.9133736914
 20
36.5463179259
 10
-20.0802407582
 20
36.5227992626
 10
-20.2480149159
 20
36.5073388944
 10
-20.4163491771
 20
36.4999672867
 10
-20.5849793159
 20
36.5007072064
 10
-20.7535473135
 20
36.5095788124
 10
-20.9216270982
 20
36.5265815321
 10
-21.0888505648
 20
36.5517005038
 10
-21.2549366633
 20
36.5849253267
 10
-21.4193777916
 20
36.6261866276
 10
-21.5814782836
 20
36.6753109061
 10
-21.7409849333
 20
36.732206825
 10
-21.8974089029
 20
36.796685149
 10
-22.0497630366
 20
36.8682598633
 10
-22.1978613294
 20
36.946716261
 10
-22.3413033796
 20
37.0317122338
 10
-22.47892636
 20
37.1223258351
 10
-22.6106441838
 20
37.218176629
 10
-22.7362605997
 20
37.3187908361
 10
-22.8546858145
 20
37.4228322519
 10
-22.9658831349
 20
37.5296631332
 10
-23.0700375508
 20
37.638843173
 10
-23.1666453711
 20
37.749136141
 10
-23.2557674798
 20
37.8597714213
 10
-23.337851736
 20
37.970448336
 10
-23.41311184
 20
38.0805964235
 10
-23.4817712578
 20
38.1896384422
 10
-23.5442372087
 20
38.29729532
 10
-23.6009964399
 20
38.4035086241
 10
-23.6523412339
 20
38.5079396831
 10
-23.69858452
 20
38.6103107071
 10
-23.7401827893
 20
38.7107330229
 10
-23.7774047754
 20
38.8089703151
 10
-23.810526574
 20
38.904827423
 10
-23.8399442325
 20
38.9985389361
 10
-23.865918111
 20
39.0900505475
 10
-23.8886470091
 20
39.1791246984
 10
-23.9083859885
 20
39.2657599769
 10
-23.9252447274
 20
39.3492902092
 10
-23.9395660379
 20
39.4301736464
 10
-23.9518117911
 20
39.5101395057
 10
-23.9620083044
 20
39.5886882326
 10
-23.9703064636
 20
39.6662095733
 10
-23.977016328
 20
39.745817901
 10
-23.9820550565
 20
39.8285382027
 10
-23.9851824969
 20
39.9132804492
 10
-23.9862570621
 20
40.0
  0
LINE
  5
4D5
100
AcDbEntity
  8
RACCORDO
100
AcDbLine
 62
253
  6
CONTINUOUS
 10
39.6154177551
 20
40.0393177445
 11
39.1840318908
 21
40.0334581701
  0
LINE
  5
4D6
100
AcDbEntity
  8
RACCORDO
100
AcDbLine
 62
253
  6
CONTINUOUS
 10
39.5101917071
 20
40.2392905865
 11
39.0456553903
 21
40.2334277091
  0
LINE
  5
4D7
100
AcDbEntity
  8
RACCORDO
100
AcDbLine
 62
253
  6
CONTINUOUS
 10
40.2154149715
 20
40.0441470399
 11
39.6154177551
 21
40.0393177445
  0
LINE
  5
4D8
100
AcDbEntity
  8
RACCORDO
100
AcDbLine
 62
253
  6
CONTINUOUS
 10
40.1546773752
 20
40.2441155373
 11
39.5101917071
 21
40.2392905865
  0
LINE
  5
4D9
100
AcDbEntity
  8
RACCORDO
100
AcDbLine
 62
253
  6
CONTINUOUS
 10
19.863898907
 20
39.9910397942
 11
19.9709740885
 21
39.9912208705
  0
LINE
  5
4DA
100
AcDbEntity
  8
RACCORDO
100
AcDbLine
 62
253
  6
CONTINUOUS
 10
-16.8288578633
 20
40.0089602058
 11
-16.9359330448
 21
40.0087791294
  0
LINE
  5
4DB
100
AcDbEntity
  8
RACCORDO
100
AcDbLine
 62
253
  6
CONTINUOUS
 10
40.8978220723
 20
40.0462682355
 11
40.2154149715
 21
40.0441470399
  0
LINE
  5
4DC
100
AcDbEntity
  8
RACCORDO
100
AcDbLine
 62
253
  6
CONTINUOUS
 10
41.0372486418
 20
40.2462852621
 11
40.1546773752
 21
40.2441155373
  0
LINE
  5
4DD
100
AcDbEntity
  8
RACCORDO
100
AcDbLine
 62
7
  6
CONTINUOUS
 10
39.2174900609
 20
40.0
 11
39.6675205218
 21
40.0
  0
LINE
  5
4DE
100
AcDbEntity
  8
RACCORDO
100
AcDbLine
 62
7
  6
CONTINUOUS
 10
42.3675205218
 20
40.0
 11
43.6675182231
 21
40.0
  0
LINE
  5
4DF
100
AcDbEntity
  8
RACCORDO
100
AcDbLine
 62
253
  6
CONTINUOUS
 10
-38.3173906103
 20
43.6156596632
 11
-38.1679614055
 21
43.6156596635
  0
LINE
  5
4E0
100
AcDbEntity
  8
RACCORDO
100
AcDbLine
 62
253
  6
CONTINUOUS
 10
-39.6475683461
 20
43.6156596632
 11
-39.7969975508
 21
43.6156596632
  0
LINE
  5
4E1
100
AcDbEntity
  8
RACCORDO
100
AcDbLine
 62
253
  6
CONTINUOUS
 10
-39.4981391414
 20
43.7650888679
 11
-38.466819815
 21
43.7650888679
  0
LINE
  5
4E2
100
AcDbEntity
  8
RACCORDO
100
AcDbLine
 62
253
  6
CONTINUOUS
 10
-40.2199291543
 20
43.889162062
 11
-40.0704999495
 21
43.8891620619
  0
LINE
  5
4E3
100
AcDbEntity
  8
RACCORDO
100
AcDbLine
 62
253
  6
CONTINUOUS
 10
-37.7450298021
 20
43.889162062
 11
-37.8944590068
 21
43.889162062
  0
LINE
  5
4E4
100
AcDbEntity
  8
RACCORDO
100
AcDbLine
 62
253
  6
CONTINUOUS
 10
-39.4981391414
 20
43.9145180726
 11
-38.466819815
 21
43.9145180726
  0
LINE
  5
4E5
100
AcDbEntity
  8
RACCORDO
100
AcDbLine
 62
253
  6
CONTINUOUS
 10
41.5848120872
 20
40.045244343
 11
40.8978220723
 21
40.0462682355
  0
LINE
  5
4E6
100
AcDbEntity
  8
RACCORDO
100
AcDbLine
 62
253
  6
CONTINUOUS
 10
41.9124643981
 20
40.2439466601
 11
41.0372486418
 21
40.2462852621
  0
LINE
  5
4E7
100
AcDbEntity
  8
RACCORDO
100
AcDbLine
 62
253
  6
CONTINUOUS
 10
42.2327619202
 20
40.0411663529
 11
41.5848120872
 21
40.045244343
  0
LINE
  5
4E8
100
AcDbEntity
  8
RACCORDO
100
AcDbLine
 62
253
  6
CONTINUOUS
 10
42.5796970366
 20
40.2387168211
 11
41.9124643981
 21
40.2439466601
  0
LINE
  5
4E9
100
AcDbEntity
  8
RACCORDO
100
AcDbLine
 62
253
  6
CONTINUOUS
 10
42.7993055567
 20
40.0342994546
 11
42.2327619202
 21
40.0411663529
  0
LINE
  5
4EA
100
AcDbEntity
  8
RACCORDO
100
AcDbLine
 62
253
  6
CONTINUOUS
 10
43.0394823719
 20
40.2326291142
 11
42.5796970366
 21
40.2387168211
  0
LINE
  5
4EB
100
AcDbEntity
  8
RACCORDO
100
AcDbLine
 62
253
  6
CONTINUOUS
 10
43.0832186739
 20
40.0290344859
 11
42.7993055567
 21
40.0342994546
  0
LINE
  5
4EC
100
AcDbEntity
  8
RACCORDO
100
AcDbLine
 62
253
  6
CONTINUOUS
 10
43.3275721647
 20
40.2271214999
 11
43.0394823719
 21
40.2326291142
  0
LINE
  5
4ED
100
AcDbEntity
  8
RACCORDO
100
AcDbLine
 62
253
  6
CONTINUOUS
 10
43.2446628044
 20
40.0251270419
 11
43.0832186739
 21
40.0290344859
  0
LINE
  5
4EE
100
AcDbEntity
  8
RACCORDO
100
AcDbLine
 62
253
  6
CONTINUOUS
 10
43.4886907315
 20
40.2230718382
 11
43.3275721647
 21
40.2271214999
  0
LWPOLYLINE
  5
4EF
100
AcDbEntity
  8
RACCORDO
100
AcDbPolyline
 62
253
  6
CONTINUOUS
 90
22
 70
0
 10
-38.1933174162
 20
44.1880204714
 10
-38.1707283228
 20
44.1872611231
 10
-38.1483203593
 20
44.1848171248
 10
-38.1262164696
 20
44.180710799
 10
-38.1045435204
 20
44.1749764336
 10
-38.0834120621
 20
44.1676520941
 10
-38.0629175393
 20
44.1587740771
 10
-38.0431681572
 20
44.1483919545
 10
-38.0242746438
 20
44.1365676131
 10
-38.0063326866
 20
44.1233612079
 10
-37.9894385369
 20
44.1088431603
 10
-37.9736875627
 20
44.0930962256
 10
-37.9591667638
 20
44.0762077937
 10
-37.9459600308
 20
44.0582758751
 10
-37.9341354019
 20
44.0393948548
 10
-37.9237488678
 20
44.0196529582
 10
-37.9148622611
 20
43.9991571931
 10
-37.9075280445
 20
43.9780181187
 10
-37.9017841801
 20
43.9563322026
 10
-37.8976698801
 20
43.9342104057
 10
-37.8952203591
 20
43.9117792862
 10
-37.8944590068
 20
43.889162062
  0
LWPOLYLINE
  5
4F0
100
AcDbEntity
  8
RACCORDO
100
AcDbPolyline
 62
253
  6
CONTINUOUS
 90
22
 70
0
 10
-38.1933174162
 20
44.3374496761
 10
-38.1592765807
 20
44.3361086392
 10
-38.125855659
 20
44.3323440516
 10
-38.0930546511
 20
44.3261559133
 10
-38.0607121725
 20
44.3174806833
 10
-38.0289896077
 20
44.3063819026
 10
-37.9983711101
 20
44.293050194
 10
-37.9688681904
 20
44.2774529663
 10
-37.9404693379
 20
44.2596228107
 10
-37.9136241738
 20
44.2398481243
 10
-37.8883528593
 20
44.2180957855
 10
-37.8646352332
 20
44.1943989159
 10
-37.8428604329
 20
44.1691452767
 10
-37.8230626955
 20
44.1423183798
 10
-37.805207784
 20
44.1139347134
 10
-37.7895821253
 20
44.0844315032
 10
-37.7762139923
 20
44.0537920547
 10
-37.7650751119
 20
44.0220330624
 10
-37.756367092
 20
43.989641836
 10
-37.750157135
 20
43.9567808121
 10
-37.7463780383
 20
43.9232875541
 10
-37.7450298021
 20
43.889162062
  0
LWPOLYLINE
  5
4F1
100
AcDbEntity
  8
RACCORDO
100
AcDbPolyline
 62
253
  6
CONTINUOUS
 90
19
 70
0
 10
-38.466819815
 20
43.7650888679
 10
-38.4536005128
 20
43.7644838863
 10
-38.44068207
 20
43.7627886016
 10
-38.4280644863
 20
43.7600030138
 10
-38.4156580547
 20
43.7560898396
 10
-38.4035524823
 20
43.7510863623
 10
-38.3920168907
 20
43.7451044321
 10
-38.3810641131
 20
43.7381222813
 10
-38.3706813163
 20
43.7301616775
 10
-38.361099122
 20
43.7213997731
 10
-38.3523352291
 20
43.7118188486
 10
-38.3443719386
 20
43.7014366234
 10
-38.3373867753
 20
43.6904834086
 10
-38.33140117
 20
43.6789461338
 10
-38.3263936918
 20
43.6668378693
 10
-38.3224775735
 20
43.6544281378
 10
-38.3196905592
 20
43.64180678
 10
-38.3179949048
 20
43.6288839552
 10
-38.3173906103
 20
43.6156596632
  0
LWPOLYLINE
  5
4F2
100
AcDbEntity
  8
RACCORDO
100
AcDbPolyline
 62
253
  6
CONTINUOUS
 90
19
 70
0
 10
-38.466819815
 20
43.9145180726
 10
-38.4407873143
 20
43.9132885113
 10
-38.4149651602
 20
43.9098040374
 10
-38.3895473638
 20
43.9040926585
 10
-38.3647249577
 20
43.8961996747
 10
-38.3406840773
 20
43.8861856038
 10
-38.3176047558
 20
43.8741252353
 10
-38.2956607284
 20
43.8601101799
 10
-38.2750162573
 20
43.8442469464
 10
-38.2558249755
 20
43.826653529
 10
-38.2382316413
 20
43.8074622288
 10
-38.2223685262
 20
43.7868178
 10
-38.2083535962
 20
43.7648738508
 10
-38.1962933436
 20
43.7417946439
 10
-38.1862793814
 20
43.7177539154
 10
-38.1783865081
 20
43.6929316671
 10
-38.1726752422
 20
43.6675140215
 10
-38.1691908736
 20
43.6416920179
 10
-38.1679614055
 20
43.6156596632
  0
LWPOLYLINE
  5
4F3
100
AcDbEntity
  8
RACCORDO
100
AcDbPolyline
 62
253
  6
CONTINUOUS
 90
16
 70
0
 10
39.1840318906
 20
40.0334598766
 10
39.169681733
 20
40.0347992575
 10
39.1554863696
 20
40.0382802789
 10
39.1415988501
 20
40.0438653731
 10
39.1281688883
 20
40.0514942984
 10
39.1153412874
 20
40.0610847634
 10
39.103254371
 20
40.072533292
 10
39.0920384418
 20
40.0857163878
 10
39.0818143806
 20
40.10049189
 10
39.0726923774
 20
40.1167004644
 10
39.0647707489
 20
40.1341673132
 10
39.0581348482
 20
40.1527041232
 10
39.0528561565
 20
40.1721111084
 10
39.0489915498
 20
40.1921790715
 10
39.046582671
 20
40.2126916479
 10
39.0456554614
 20
40.2334277091
  0
LWPOLYLINE
  5
4F4
100
AcDbEntity
  8
RACCORDO
100
AcDbPolyline
 62
7
  6
CONTINUOUS
 90
28
 70
0
 10
22.6189682858
 20
36.6173082774
 10
22.4515728388
 20
36.6661091394
 10
22.2874876054
 20
36.7225101942
 10
22.1267125857
 20
36.7865114418
 10
21.9687526336
 20
36.8583964127
 10
21.8141028951
 20
36.9378815763
 10
21.6642488081
 20
37.0241163413
 10
21.5194639853
 20
37.1170285829
 10
21.3794748141
 20
37.2166904257
 10
21.2449458942
 20
37.3224676523
 10
21.115808197
 20
37.434470255
 10
20.9921307511
 20
37.5525882414
 10
20.8747852429
 20
37.6758574169
 10
20.7639653901
 20
37.80405126
 10
20.6594774749
 20
37.9373962921
 10
20.5616120298
 20
38.0756078836
 10
20.4701841838
 20
38.2189502468
 10
20.3853788078
 20
38.3671591692
 10
20.3080410473
 20
38.5191573832
 10
20.2382186748
 20
38.6751544762
 10
20.1758639178
 20
38.8349408608
 10
20.1216786045
 20
38.9968105064
 10
20.0758431448
 20
39.1608296965
 10
20.0381771288
 20
39.3269321476
 10
20.0088411553
 20
39.4932129786
 10
19.9878887572
 20
39.6590372293
 10
19.9752664016
 20
39.8250398599
 10
19.9709740885
 20
39.9912208705
  0
LINE
  5
4F5
100
AcDbEntity
  8
RACCORDO
100
AcDbLine
 62
7
  6
CONTINUOUS
 10
40.6211631238
 20
20.3963573981
 11
39.0175205218
 21
22.0
  0
LINE
  5
4F6
100
AcDbEntity
  8
ASSI
100
AcDbLine
 62
7
  6
CONTINUOUS
 10
40.4748057257
 20
-25.5427147962
 11
39.0175205218
 21
-27.0
  0
LINE
  5
4F7
100
AcDbEntity
  8
RACCORDO
100
AcDbLine
 62
7
  6
CONTINUOUS
 10
38.8194962441
 20
44.0
 11
43.8674601371
 21
44.0
  0
LINE
  5
4F8
100
AcDbEntity
  8
RACCORDO
100
AcDbLine
 62
253
  6
CONTINUOUS
 10
-39.7716415401
 20
44.1880204714
 11
-38.1933174162
 21
44.1880204714
  0
LINE
  5
4F9
100
AcDbEntity
  8
RACCORDO
100
AcDbLine
 62
253
  6
CONTINUOUS
 10
-39.7716415401
 20
44.3374496761
 11
-38.1933174162
 21
44.3374496761
  0
LINE
  5
4FA
100
AcDbEntity
  8
RACCORDO
100
AcDbLine
 62
253
  6
CONTINUOUS
 10
24.7836320773
 20
50.8340182836
 11
33.1675205218
 21
50.8502584871
  0
LINE
  5
4FB
100
AcDbEntity
  8
RACCORDO
100
AcDbLine
 62
253
  6
CONTINUOUS
 10
24.7738809528
 20
51.0338965066
 11
33.1675205218
 21
51.0501633259
  0
LINE
  5
4FC
100
AcDbEntity
  8
RACCORDO
100
AcDbLine
 62
253
  6
CONTINUOUS
 10
16.3277298273
 20
50.8226794101
 11
24.7836320773
 21
50.8340182836
  0
LINE
  5
4FD
100
AcDbEntity
  8
RACCORDO
100
AcDbLine
 62
253
  6
CONTINUOUS
 10
16.3219027245
 20
51.0225576286
 11
24.7738809528
 21
51.0338965066
  0
LINE
  5
4FE
100
AcDbEntity
  8
RACCORDO
100
AcDbLine
 62
253
  6
CONTINUOUS
 10
7.8657788515
 20
50.8163757635
 11
16.3277298273
 21
50.8226794101
  0
LINE
  5
4FF
100
AcDbEntity
  8
RACCORDO
100
AcDbLine
 62
253
  6
CONTINUOUS
 10
7.8632342958
 20
51.016253936
 11
16.3219027245
 21
51.0225576286
  0
LINE
  5
500
100
AcDbEntity
  8
RACCORDO
100
AcDbLine
 62
253
  6
CONTINUOUS
 10
-0.5986683198
 20
50.8151152983
 11
7.8657788515
 21
50.8163757635
  0
LINE
  5
501
100
AcDbEntity
  8
RACCORDO
100
AcDbLine
 62
253
  6
CONTINUOUS
 10
-0.5979241866
 20
51.0149934648
 11
7.8632342958
 21
51.016253936
  0
LINE
  5
502
100
AcDbEntity
  8
RACCORDO
100
AcDbLine
 62
7
  6
CONTINUOUS
 10
33.1675205218
 20
51.3328582329
 11
-30.1824794782
 21
51.3328582329
  0
LINE
  5
503
100
AcDbEntity
  8
ASSI
100
AcDbLine
 62
7
  6
CONTINUOUS
 10
-30.1824794782
 20
51.4
 11
33.1675205218
 21
51.4
  0
LINE
  5
504
100
AcDbEntity
  8
RACCORDO
100
AcDbLine
 62
253
  6
CONTINUOUS
 10
-9.0621760876
 20
50.8188973524
 11
-0.5986683198
 21
50.8151152983
  0
LINE
  5
505
100
AcDbEntity
  8
RACCORDO
100
AcDbLine
 62
253
  6
CONTINUOUS
 10
-9.0578382371
 20
51.0187755463
 11
-0.5979241866
 21
51.0149934648
  0
LINE
  5
506
100
AcDbEntity
  8
RACCORDO
100
AcDbLine
 62
253
  6
CONTINUOUS
 10
-17.5216289813
 20
50.8277199375
 11
-9.0621760876
 21
50.8188973524
  0
LINE
  5
507
100
AcDbEntity
  8
RACCORDO
100
AcDbLine
 62
253
  6
CONTINUOUS
 10
-17.5140013284
 20
51.0275981713
 11
-9.0578382371
 21
51.0187755463
  0
LWPOLYLINE
  5
508
100
AcDbEntity
  8
RACCORDO
100
AcDbPolyline
 62
253
  6
CONTINUOUS
 90
3
 70
0
 10
-30.1824794782
 20
50.850362877
 10
-25.973368669
 20
50.8415751003
 10
-17.5216289813
 20
50.8277199375
  0
LWPOLYLINE
  5
509
100
AcDbEntity
  8
RACCORDO
100
AcDbPolyline
 62
253
  6
CONTINUOUS
 90
3
 70
0
 10
-30.1828698735
 20
51.0502685608
 10
-25.9617960554
 20
51.0414533028
 10
-17.5140013284
 20
51.0275981713
  0
LINE
  5
50A
100
AcDbEntity
  8
RACCORDO
100
AcDbLine
 62
253
  6
CONTINUOUS
 10
-35.7399108273
 20
57.2019528765
 11
-35.8450298021
 21
57.2228989544
  0
LINE
  5
50B
100
AcDbEntity
  8
RACCORDO
100
AcDbLine
 62
253
  6
CONTINUOUS
 10
-35.8894726105
 20
57.0519757222
 11
-35.9824794782
 21
57.0705317368
  0
LINE
  5
50C
100
AcDbEntity
  8
RACCORDO
100
AcDbLine
 62
253
  6
CONTINUOUS
 10
39.0175205218
 20
-37.800030461
 11
38.9923388395
 21
-37.8252121433
  0
LINE
  5
50D
100
AcDbEntity
  8
RACCORDO
100
AcDbLine
 62
253
  6
CONTINUOUS
 10
39.2174900609
 20
-38.0
 11
39.1840318908
 21
-38.0334581701
  0
LWPOLYLINE
  5
50E
100
AcDbEntity
  8
RACCORDO
100
AcDbPolyline
 62
253
  6
CONTINUOUS
 90
16
 70
0
 10
-34.9850748887
 20
56.4025725648
 10
-35.0007487422
 20
56.4017465185
 10
-35.0162509361
 20
56.3992869746
 10
-35.0314116911
 20
56.3952208698
 10
-35.0460649671
 20
56.3895927361
 10
-35.0600502819
 20
56.3824642125
 10
-35.0732144689
 20
56.3739133703
 10
-35.0854133543
 20
56.3640338582
 10
-35.0965133364
 20
56.3529338761
 10
-35.1063928485
 20
56.3407349907
 10
-35.1149436906
 20
56.3275708038
 10
-35.1220722142
 20
56.313585489
 10
-35.127700348
 20
56.298932213
 10
-35.1317664527
 20
56.283771458
 10
-35.1342259967
 20
56.268269264
 10
-35.135052043
 20
56.2525954105
  0
LINE
  5
50F
100
AcDbEntity
  8
ASSI
100
AcDbLine
 62
7
  6
CONTINUOUS
 10
37.9675205218
 20
56.2
 11
-34.9824794782
 21
56.2
  0
LINE
  5
510
100
AcDbEntity
  8
RACCORDO
100
AcDbLine
 62
253
  6
CONTINUOUS
 10
-35.135052043
 20
56.2525954105
 11
38.1700930866
 21
56.2525954105
  0
LINE
  5
511
100
AcDbEntity
  8
RACCORDO
100
AcDbLine
 62
253
  6
CONTINUOUS
 10
-35.3235217299
 20
56.2910879433
 11
-35.1735445757
 21
56.2910879432
  0
LINE
  5
512
100
AcDbEntity
  8
RACCORDO
100
AcDbLine
 62
253
  6
CONTINUOUS
 10
38.2085856194
 20
56.2910879432
 11
38.3585627736
 21
56.2910879433
  0
LINE
  5
513
100
AcDbEntity
  8
RACCORDO
100
AcDbLine
 62
253
  6
CONTINUOUS
 10
-34.9850748887
 20
56.4025725648
 11
38.0201159324
 21
56.4025725648
  0
LINE
  5
514
100
AcDbEntity
  8
RACCORDO
100
AcDbLine
 62
253
  6
CONTINUOUS
 10
-35.0235674214
 20
56.4410650975
 11
38.0586084651
 21
56.4410650975
  0
LINE
  5
515
100
AcDbEntity
  8
RACCORDO
100
AcDbLine
 62
253
  6
CONTINUOUS
 10
-35.0235674214
 20
56.5910422518
 11
38.0586084651
 21
56.5910422518
  0
LINE
  5
516
100
AcDbEntity
  8
RACCORDO
100
AcDbLine
 62
253
  6
CONTINUOUS
 10
-37.4553784326
 20
56.7229751069
 11
-37.3054012783
 21
56.7229751069
  0
LINE
  5
517
100
AcDbEntity
  8
RACCORDO
100
AcDbLine
 62
253
  6
CONTINUOUS
 10
39.0175205218
 20
57.0519757222
 11
-35.8894726105
 21
57.0519757222
  0
LINE
  5
518
100
AcDbEntity
  8
RACCORDO
100
AcDbLine
 62
253
  6
CONTINUOUS
 10
-36.955454585
 20
57.0729218002
 11
-35.9824794782
 21
57.0729218002
  0
LINE
  5
519
100
AcDbEntity
  8
RACCORDO
100
AcDbLine
 62
253
  6
CONTINUOUS
 10
39.0175205218
 20
57.2019528765
 11
-35.7399108273
 21
57.2019528765
  0
LINE
  5
51A
100
AcDbEntity
  8
RACCORDO
100
AcDbLine
 62
253
  6
CONTINUOUS
 10
-36.955454585
 20
57.2228989544
 11
-35.8450298021
 21
57.2228989544
  0
LINE
  5
51B
100
AcDbEntity
  8
RACCORDO
100
AcDbLine
 62
7
  6
CONTINUOUS
 10
39.0175205218
 20
57.25
 11
-36.9825556306
 21
57.25
  0
LWPOLYLINE
  5
51C
100
AcDbEntity
  8
RACCORDO
100
AcDbPolyline
 62
253
  6
CONTINUOUS
 90
19
 70
0
 10
38.0586084651
 20
56.4410650975
 10
38.0716841652
 20
56.4404983919
 10
38.0846596266
 20
56.4387943775
 10
38.0974362004
 20
56.4359660648
 10
38.1099165407
 20
56.4320351288
 10
38.1220059694
 20
56.42703143
 10
38.1336131144
 20
56.4209925852
 10
38.1446500888
 20
56.4139640112
 10
38.155032292
 20
56.4059993174
 10
38.1646798103
 20
56.3971596963
 10
38.1735190268
 20
56.3875127419
 10
38.1814830535
 20
56.3771316875
 10
38.1885114079
 20
56.3660955474
 10
38.1945506068
 20
56.3544883504
 10
38.1995548064
 20
56.3423983655
 10
38.2034861365
 20
56.329917394
 10
38.2063146983
 20
56.317140286
 10
38.2080188648
 20
56.3041642485
 10
38.2085856194
 20
56.2910879432
  0
LWPOLYLINE
  5
51D
100
AcDbEntity
  8
RACCORDO
100
AcDbPolyline
 62
253
  6
CONTINUOUS
 90
19
 70
0
 10
38.0586084651
 20
56.5910422518
 10
38.0850710208
 20
56.5898278248
 10
38.1109453751
 20
56.5864211137
 10
38.1362315278
 20
56.5808221186
 10
38.1611113418
 20
56.5729558621
 10
38.1854029543
 20
56.5628973216
 10
38.2085607771
 20
56.5508714287
 10
38.2305602527
 20
56.5368328644
 10
38.2514259386
 20
56.5208269478
 10
38.2706859184
 20
56.5032145676
 10
38.2883032051
 20
56.483959604
 10
38.3043147858
 20
56.4630981768
 10
38.3183597048
 20
56.4410995343
 10
38.330393371
 20
56.4179377485
 10
38.3404603756
 20
56.3936387474
 10
38.3483335364
 20
56.3687495631
 10
38.353937126
 20
56.3434525397
 10
38.3573468717
 20
56.3175653331
 10
38.3585627736
 20
56.2910879432
  0
LWPOLYLINE
  5
51E
100
AcDbEntity
  8
RACCORDO
100
AcDbPolyline
 62
253
  6
CONTINUOUS
 90
10
 70
0
 10
43.8675205218
 20
40.2000304656
 10
43.8636619986
 20
40.2024474864
 10
43.852085066
 20
40.204846779
 10
43.8328034332
 20
40.2072283431
 10
43.80584203
 20
40.209599314
 10
43.7712617058
 20
40.2119525564
 10
43.729183328
 20
40.2142666657
 10
43.6797403525
 20
40.2165406259
 10
43.623061232
 20
40.2187754529
 10
43.4886907315
 20
40.2230718382
  0
LWPOLYLINE
  5
51F
100
AcDbEntity
  8
RACCORDO
100
AcDbPolyline
 62
253
  6
CONTINUOUS
 90
11
 70
0
 10
43.6675182231
 20
40.0
 10
43.6640544009
 20
40.0024186196
 10
43.6534616773
 20
40.0048196505
 10
43.6357400523
 20
40.0072030928
 10
43.6107985737
 20
40.0095760967
 10
43.5787281938
 20
40.0119315119
 10
43.539801769
 20
40.0142478876
 10
43.4939595982
 20
40.0165242106
 10
43.4412613825
 20
40.0187614942
 10
43.3821590813
 20
40.0209413275
 10
43.2446628044
 20
40.0251270419
  0
LINE
  5
520
100
AcDbEntity
  8
RACCORDO
100
AcDbLine
 62
253
  6
CONTINUOUS
 10
38.9923388395
 20
39.8252121433
 11
39.0175205218
 21
39.800030461
  0
LINE
  5
521
100
AcDbEntity
  8
RACCORDO
100
AcDbLine
 62
253
  6
CONTINUOUS
 10
39.1840318908
 20
40.0334581701
 11
39.2174900609
 21
40.0
  0
LWPOLYLINE
  5
522
100
AcDbEntity
  8
RACCORDO
100
AcDbPolyline
 62
7
  6
CONTINUOUS
 90
19
 70
0
 10
-35.8450298021
 20
57.2228989544
 10
-35.8549612872
 20
57.2223149948
 10
-35.8650364643
 20
57.2209177796
 10
-35.8751908923
 20
57.2186692825
 10
-35.885345644
 20
57.2155355348
 10
-35.8954327541
 20
57.2114897847
 10
-35.9053949986
 20
57.2065118434
 10
-35.9151289781
 20
57.2005953151
 10
-35.9245589927
 20
57.193726587
 10
-35.9336538174
 20
57.1858734682
 10
-35.942291575
 20
57.1770462781
 10
-35.9503706675
 20
57.1672500001
 10
-35.9578560377
 20
57.1564327709
 10
-35.9645750517
 20
57.1446650545
 10
-35.9704170871
 20
57.131951687
 10
-35.9753499209
 20
57.1181206938
 10
-35.979180857
 20
57.1031571416
 10
-35.9816334754
 20
57.0872441453
 10
-35.9824794782
 20
57.0705317368
  0
LWPOLYLINE
  5
523
100
AcDbEntity
  8
RACCORDO
100
AcDbPolyline
 62
253
  6
CONTINUOUS
 90
16
 70
0
 10
-35.7400434058
 20
57.2019528765
 10
-35.7556892651
 20
57.2011046302
 10
-35.7711630898
 20
57.1986169957
 10
-35.7862947768
 20
57.1945173317
 10
-35.8009193741
 20
57.1888500938
 10
-35.8148746
 20
57.1816779252
 10
-35.8280033345
 20
57.173082395
 10
-35.840159928
 20
57.1631611352
 10
-35.8512143608
 20
57.1520227109
 10
-35.8610488336
 20
57.1397869272
 10
-35.8695652287
 20
57.1265712013
 10
-35.8766570175
 20
57.1125354564
 10
-35.8822297129
 20
57.0978857278
 10
-35.8862346071
 20
57.0828057628
 10
-35.8886520124
 20
57.0674465452
 10
-35.8894726105
 20
57.0519757222
  0
ARC
  5
524
100
AcDbEntity
  8
DRAFT
100
AcDbCircle
 62
7
  6
CONTINUOUS
 10
-37.4824794782
 20
-40.0
 40
6.4
100
AcDbArc
 50
90.0
 51
270.0
  0
ARC
  5
525
100
AcDbEntity
  8
RACCORDO
100
AcDbCircle
 62
253
  6
CONTINUOUS
 10
-37.4824794782
 20
-40.0
 40
6.3728989544
100
AcDbArc
 50
89.7563463311
 51
270.2436536689
  0
ARC
  5
526
100
AcDbEntity
  8
RACCORDO
100
AcDbCircle
 62
253
  6
CONTINUOUS
 10
-37.4824794782
 20
-40.0
 40
6.2229218002
100
AcDbArc
 50
88.3693828149
 51
271.6306171851
  0
ARC
  5
527
100
AcDbEntity
  8
RACCORDO
100
AcDbCircle
 62
7
  6
CONTINUOUS
 10
-20.4824794782
 20
-40.0
 40
3.5
100
AcDbArc
 50
75.1239264858
 51
284.8760580076
  0
ARC
  5
528
100
AcDbEntity
  8
RACCORDO
100
AcDbCircle
 62
7
  6
CONTINUOUS
 10
-38.9824794782
 20
-40.0
 40
2.35
100
AcDbArc
 50
73.5596759771
 51
106.4403240229
  0
ARC
  5
529
100
AcDbEntity
  8
RACCORDO
100
AcDbCircle
 62
7
  6
CONTINUOUS
 10
-38.9824794782
 20
-40.0
 40
2.35
100
AcDbArc
 50
253.5596759771
 51
286.4403240229
  0
CIRCLE
  5
52A
100
AcDbEntity
  8
DRAFT
100
AcDbCircle
 62
7
  6
CONTINUOUS
 10
-20.4824794782
 20
-40.0
 40
2.35
  0
CIRCLE
  5
52B
100
AcDbEntity
  8
RACCORDO
100
AcDbCircle
 62
253
  6
CONTINUOUS
 10
-20.4824794782
 20
-40.0
 40
2.0658380564
  0
ARC
  5
52C
100
AcDbEntity
  8
RACCORDO
100
AcDbCircle
 62
253
  6
CONTINUOUS
 10
-38.9824794782
 20
-40.0
 40
1.8323147193
100
AcDbArc
 50
132.4811630647
 51
227.5188369353
  0
ARC
  5
52D
100
AcDbEntity
  8
RACCORDO
100
AcDbCircle
 62
253
  6
CONTINUOUS
 10
-38.9824794782
 20
-40.0
 40
1.8323147193
100
AcDbArc
 50
312.4811630647
 51
47.5188369353
  0
ARC
  5
52E
100
AcDbEntity
  8
RACCORDO
100
AcDbCircle
 62
253
  6
CONTINUOUS
 10
-38.9824794782
 20
-40.0
 40
1.6823375651
100
AcDbArc
 50
130.2547788229
 51
229.7452211771
  0
ARC
  5
52F
100
AcDbEntity
  8
RACCORDO
100
AcDbCircle
 62
253
  6
CONTINUOUS
 10
-38.9824794782
 20
-40.0
 40
1.6823375651
100
AcDbArc
 50
310.2547788229
 51
49.7452211771
  0
ARC
  5
530
100
AcDbEntity
  8
RACCORDO
100
AcDbCircle
 62
253
  6
CONTINUOUS
 10
-38.9824794782
 20
-40.0
 40
1.6525725648
100
AcDbArc
 50
124.5795298003
 51
235.4204701997
  0
ARC
  5
531
100
AcDbEntity
  8
RACCORDO
100
AcDbCircle
 62
253
  6
CONTINUOUS
 10
-38.9824794782
 20
-40.0
 40
1.6525725648
100
AcDbArc
 50
304.5795298003
 51
55.4204701997
  0
CIRCLE
  5
532
100
AcDbEntity
  8
0
100
AcDbCircle
 62
7
  6
CONTINUOUS
 10
-38.9824794782
 20
-40.0
 40
1.5
  0
CIRCLE
  5
533
100
AcDbEntity
  8
RACCORDO
100
AcDbCircle
 62
253
  6
CONTINUOUS
 10
-20.4824794782
 20
-40.0
 40
1.4292560188
  0
ARC
  5
534
100
AcDbEntity
  8
0
100
AcDbCircle
 62
7
  6
CONTINUOUS
 10
-38.9824794782
 20
-40.0
 40
1.2
100
AcDbArc
 50
255.0
 51
195.0
  0
ARC
  5
535
100
AcDbEntity
  8
DRAFT
100
AcDbCircle
 62
7
  6
CONTINUOUS
 10
-37.4824794782
 20
40.0
 40
6.4
100
AcDbArc
 50
90.0
 51
270.0
  0
ARC
  5
536
100
AcDbEntity
  8
RACCORDO
100
AcDbCircle
 62
253
  6
CONTINUOUS
 10
-37.4824794782
 20
40.0
 40
6.3728989544
100
AcDbArc
 50
89.7563463311
 51
270.2436536689
  0
ARC
  5
537
100
AcDbEntity
  8
RACCORDO
100
AcDbCircle
 62
253
  6
CONTINUOUS
 10
-37.4824794782
 20
40.0
 40
6.2229218002
100
AcDbArc
 50
88.3693828149
 51
271.6306171851
  0
ARC
  5
538
100
AcDbEntity
  8
RACCORDO
100
AcDbCircle
 62
7
  6
CONTINUOUS
 10
-20.4824794782
 20
40.0
 40
3.5
100
AcDbArc
 50
75.1239264858
 51
284.8760580076
  0
ARC
  5
539
100
AcDbEntity
  8
ASSI
100
AcDbCircle
 62
7
  6
CONTINUOUS
 10
-14.5020694782
 20
29.999988
 40
2.5500000352
100
AcDbArc
 50
84.2608296022
 51
275.7391703978
  0
ARC
  5
53A
100
AcDbEntity
  8
ASSI
100
AcDbCircle
 62
7
  6
CONTINUOUS
 10
-10.1670694782
 20
29.999988
 40
2.5500000352
100
AcDbArc
 50
84.2608296022
 51
275.7391703978
  0
ARC
  5
53B
100
AcDbEntity
  8
RACCORDO
100
AcDbCircle
 62
7
  6
CONTINUOUS
 10
-38.9824794782
 20
40.0
 40
2.35
100
AcDbArc
 50
73.5596759771
 51
106.4403240229
  0
ARC
  5
53C
100
AcDbEntity
  8
RACCORDO
100
AcDbCircle
 62
7
  6
CONTINUOUS
 10
-38.9824794782
 20
40.0
 40
2.35
100
AcDbArc
 50
253.5596759771
 51
286.4403240229
  0
CIRCLE
  5
53D
100
AcDbEntity
  8
DRAFT
100
AcDbCircle
 62
7
  6
CONTINUOUS
 10
-20.4824794782
 20
40.0
 40
2.35
  0
CIRCLE
  5
53E
100
AcDbEntity
  8
RACCORDO
100
AcDbCircle
 62
253
  6
CONTINUOUS
 10
-20.4824794782
 20
40.0
 40
2.0658380564
  0
ARC
  5
53F
100
AcDbEntity
  8
RACCORDO
100
AcDbCircle
 62
253
  6
CONTINUOUS
 10
-38.9824794782
 20
40.0
 40
1.8323147193
100
AcDbArc
 50
132.4811630647
 51
227.5188369353
  0
ARC
  5
540
100
AcDbEntity
  8
RACCORDO
100
AcDbCircle
 62
253
  6
CONTINUOUS
 10
-38.9824794782
 20
40.0
 40
1.8323147193
100
AcDbArc
 50
312.4811630647
 51
47.5188369353
  0
ARC
  5
541
100
AcDbEntity
  8
ASSI
100
AcDbCircle
 62
7
  6
CONTINUOUS
 10
-10.1670694782
 20
29.999988
 40
1.7850001745
100
AcDbArc
 50
81.7867901066
 51
167.6263761124
  0
ARC
  5
542
100
AcDbEntity
  8
ASSI
100
AcDbCircle
 62
7
  6
CONTINUOUS
 10
-14.5020694782
 20
29.999988
 40
1.7850001745
100
AcDbArc
 50
81.7867901066
 51
278.2132098934
  0
ARC
  5
543
100
AcDbEntity
  8
ASSI
100
AcDbCircle
 62
7
  6
CONTINUOUS
 10
-10.1670694782
 20
29.999988
 40
1.7849997292
100
AcDbArc
 50
192.373627023
 51
278.2132119563
  0
ARC
  5
544
100
AcDbEntity
  8
RACCORDO
100
AcDbCircle
 62
253
  6
CONTINUOUS
 10
-38.9824794782
 20
40.0
 40
1.6823375651
100
AcDbArc
 50
130.2547788229
 51
229.7452211771
  0
ARC
  5
545
100
AcDbEntity
  8
RACCORDO
100
AcDbCircle
 62
253
  6
CONTINUOUS
 10
-38.9824794782
 20
40.0
 40
1.6823375651
100
AcDbArc
 50
310.2547788229
 51
49.7452211771
  0
ARC
  5
546
100
AcDbEntity
  8
RACCORDO
100
AcDbCircle
 62
253
  6
CONTINUOUS
 10
-38.9824794782
 20
40.0
 40
1.6525725648
100
AcDbArc
 50
124.5795298003
 51
235.4204701997
  0
ARC
  5
547
100
AcDbEntity
  8
RACCORDO
100
AcDbCircle
 62
253
  6
CONTINUOUS
 10
-38.9824794782
 20
40.0
 40
1.6525725648
100
AcDbArc
 50
304.5795298003
 51
55.4204701997
  0
CIRCLE
  5
548
100
AcDbEntity
  8
0
100
AcDbCircle
 62
7
  6
CONTINUOUS
 10
-38.9824794782
 20
40.0
 40
1.5
  0
CIRCLE
  5
549
100
AcDbEntity
  8
RACCORDO
100
AcDbCircle
 62
253
  6
CONTINUOUS
 10
-20.4824794782
 20
40.0
 40
1.4292560188
  0
ARC
  5
54A
100
AcDbEntity
  8
0
100
AcDbCircle
 62
7
  6
CONTINUOUS
 10
-38.9824794782
 20
40.0
 40
1.2
100
AcDbArc
 50
255.0
 51
195.0
  0
ARC
  5
54B
100
AcDbEntity
  8
RACCORDO
100
AcDbCircle
 62
7
  6
CONTINUOUS
 10
23.5175205218
 20
-40.0
 40
3.5
100
AcDbArc
 50
255.1239264575
 51
104.8760579701
  0
CIRCLE
  5
54C
100
AcDbEntity
  8
DRAFT
100
AcDbCircle
 62
7
  6
CONTINUOUS
 10
23.5175205218
 20
-40.0
 40
2.35
  0
CIRCLE
  5
54D
100
AcDbEntity
  8
RACCORDO
100
AcDbCircle
 62
253
  6
CONTINUOUS
 10
23.5175205218
 20
-40.0
 40
2.0658380564
  0
CIRCLE
  5
54E
100
AcDbEntity
  8
RACCORDO
100
AcDbCircle
 62
253
  6
CONTINUOUS
 10
23.5175205218
 20
-40.0
 40
1.4292560188
  0
ARC
  5
54F
100
AcDbEntity
  8
RACCORDO
100
AcDbCircle
 62
7
  6
CONTINUOUS
 10
23.5175205218
 20
40.0
 40
3.5
100
AcDbArc
 50
255.1239264575
 51
104.8760579701
  0
CIRCLE
  5
550
100
AcDbEntity
  8
DRAFT
100
AcDbCircle
 62
7
  6
CONTINUOUS
 10
23.5175205218
 20
40.0
 40
2.35
  0
CIRCLE
  5
551
100
AcDbEntity
  8
RACCORDO
100
AcDbCircle
 62
253
  6
CONTINUOUS
 10
23.5175205218
 20
40.0
 40
2.0658380564
  0
CIRCLE
  5
552
100
AcDbEntity
  8
RACCORDO
100
AcDbCircle
 62
253
  6
CONTINUOUS
 10
23.5175205218
 20
40.0
 40
1.4292560188
  0
ELLIPSE
  5
553
100
AcDbEntity
  8
ASSI
100
AcDbEllipse
 62
7
  6
CONTINUOUS
 10
-36.7318699339
 20
24.8355339561
 30
0.0
 11
-0.924539264
 21
0.3829567021
 31
0.0
 40
0.9992864213
 41
-0.3298900149
 42
0.3924467672
  0
ELLIPSE
  5
554
100
AcDbEntity
  8
RACCORDO
100
AcDbEllipse
 62
7
  6
CONTINUOUS
 10
40.2672157497
 20
20.0427669781
 30
0.0
 11
0.462269632
 21
0.1914783511
 31
0.0
 40
0.9992864213
 41
-0.3924467672
 42
0.3924467672
  0
ELLIPSE
  5
555
100
AcDbEntity
  8
ASSI
100
AcDbEllipse
 62
7
  6
CONTINUOUS
 10
39.7669109775
 20
-24.8355339561
 30
0.0
 11
0.924539264
 21
-0.3829567021
 31
0.0
 40
0.9992864213
 41
-0.3924467672
 42
0.3924467672
  0
ELLIPSE
  5
556
100
AcDbEntity
  8
RACCORDO
100
AcDbEllipse
 62
7
  6
CONTINUOUS
 10
-37.232174706
 20
-20.0427669781
 30
0.0
 11
-0.462269632
 21
-0.1914783511
 31
0.0
 40
0.9992864213
 41
-0.3924467672
 42
0.3924467672
  0
ELLIPSE
  5
557
100
AcDbEntity
  8
DRAFT
100
AcDbEllipse
 62
7
  6
CONTINUOUS
 10
41.0175205218
 20
-38.0
 30
0.0
 11
1.35
 21
0.0
 31
0.0
 40
0.0174550649
 41
-3.1415926536
 42
-0.0
  0
ELLIPSE
  5
558
100
AcDbEntity
  8
DRAFT
100
AcDbEllipse
 62
7
  6
CONTINUOUS
 10
41.0175205218
 20
40.0
 30
0.0
 11
1.35
 21
0.0
 31
0.0
 40
0.0174550649
 41
-0.0
 42
3.1415926536
  0
ELLIPSE
  5
559
100
AcDbEntity
  8
RACCORDO
100
AcDbEllipse
 62
7
  6
CONTINUOUS
 10
-39.2869745825
 20
-40.0
 30
0.0
 11
1.5261971144
 21
-0.0
 31
0.0
 40
0.979895321
 41
1.9987751618
 42
2.1092216787
  0
ELLIPSE
  5
55A
100
AcDbEntity
  8
RACCORDO
100
AcDbEllipse
 62
7
  6
CONTINUOUS
 10
-39.2869745825
 20
-40.0
 30
0.0
 11
1.5261971144
 21
-0.0
 31
0.0
 40
0.979895321
 41
-2.1092216787
 42
-1.9987751618
  0
ELLIPSE
  5
55B
100
AcDbEntity
  8
RACCORDO
100
AcDbEllipse
 62
7
  6
CONTINUOUS
 10
-38.6779843739
 20
-40.0
 30
0.0
 11
1.5261971144
 21
0.0
 31
0.0
 40
0.979895321
 41
-1.1428174917
 42
-1.0323709749
  0
ELLIPSE
  5
55C
100
AcDbEntity
  8
RACCORDO
100
AcDbEllipse
 62
7
  6
CONTINUOUS
 10
-38.6779843739
 20
-40.0
 30
0.0
 11
1.5261971144
 21
0.0
 31
0.0
 40
0.979895321
 41
1.0323709749
 42
1.1428174917
  0
ELLIPSE
  5
55D
100
AcDbEntity
  8
RACCORDO
100
AcDbEllipse
 62
7
  6
CONTINUOUS
 10
-39.2869745825
 20
40.0
 30
0.0
 11
1.5261971144
 21
0.0
 31
0.0
 40
0.979895321
 41
1.9987751618
 42
2.1092216787
  0
ELLIPSE
  5
55E
100
AcDbEntity
  8
RACCORDO
100
AcDbEllipse
 62
7
  6
CONTINUOUS
 10
-39.2869745825
 20
40.0
 30
0.0
 11
1.5261971144
 21
0.0
 31
0.0
 40
0.979895321
 41
-2.1092216787
 42
-1.9987751618
  0
ELLIPSE
  5
55F
100
AcDbEntity
  8
RACCORDO
100
AcDbEllipse
 62
7
  6
CONTINUOUS
 10
-38.6779843739
 20
40.0
 30
0.0
 11
1.5261971144
 21
0.0
 31
0.0
 40
0.979895321
 41
-1.1428174917
 42
-1.0323709749
  0
ELLIPSE
  5
560
100
AcDbEntity
  8
RACCORDO
100
AcDbEllipse
 62
7
  6
CONTINUOUS
 10
-38.6779843739
 20
40.0
 30
0.0
 11
1.5261971144
 21
-0.0
 31
0.0
 40
0.979895321
 41
1.0323709749
 42
1.1428174917
  0
ENDSEC
  0
SECTION
  2
OBJECTS
  0
DICTIONARY
  5
C
100
AcDbDictionary
280
0
281
1
  3
ACAD_GROUP
350
D
  3
ACAD_MLINESTYLE
350
17
  3
ACAD_LAYOUT
350
1A
  3
ACAD_PLOTSETTINGS
350
19
  3
ACAD_PLOTSTYLENAME
350
E
  0
DICTIONARY
  5
D
102
{ACAD_REACTORS
330
C
102
}
100
AcDbDictionary
280
0
281
1
  0
ACDBDICTIONARYWDFLT
  5
E
102
{ACAD_REACTORS
330
C
102
}
100
AcDbDictionary
281
1
  3
Normal
350
F
100
AcDbDictionaryWithDefault
340
F
  0
DICTIONARY
  5
17
102
{ACAD_REACTORS
330
C
102
}
100
AcDbDictionary
280
0
281
1
  3
Standard
350
18
  0
DICTIONARY
  5
19
102
{ACAD_REACTORS
330
C
102
}
100
AcDbDictionary
281
1
  0
DICTIONARY
  5
1A
102
{ACAD_REACTORS
330
C
102
}
100
AcDbDictionary
281
1
  3
Model
350
561
  3
Layout1
350
562
  0
ACDBPLACEHOLDER
  5
F
102
{ACAD_REACTORS
330
E
102
}
  0
MLINESTYLE
  5
18
102
{ACAD_REACTORS
330
17
102
}
100
AcDbMlineStyle
  2
STANDARD
 70
0
  3

 62
256
 51
90.0
 52
90.0
 71
2
 49
0.5
 62
256
  6
BYLAYER
 49
-0.5
 62
256
  6
BYLAYER
  0
LAYOUT
  5
561
102
{ACAD_REACTORS
330
1A
102
}
100
AcDbPlotSettings
  1

  2
none_device
  4
ISO_A4_(297.00_x_210.00_MM)
  6

 40
0.0
 41
0.0
 42
0.0
 43
0.0
 44
297.0
 45
210.0
 46
0.0
 47
0.0
 48
0.0
 49
0.0
140
0.0
141
0.0
142
1.0
143
1.0
 70
1024
 72
1
 73
0
 74
0
  7

 75
0
147
1.0
148
0.0
149
0.0
100
AcDbLayout
  1
Model
 70
0
 71
0
 10
0.0
 20
0.0
 11
297.0
 21
210.0
 12
0.0
 22
0.0
 32
0.0
 14
0.0
 24
0.0
 34
0.0
 15
0.0
 25
0.0
 35
0.0
146
0.0
 13
0.0
 23
0.0
 33
0.0
 16
1.0
 26
0.0
 36
0.0
 17
0.0
 27
1.0
 37
0.0
 76
0
330
211
345
0
346
0
  0
LAYOUT
  5
562
102
{ACAD_REACTORS
330
1A
102
}
100
AcDbPlotSettings
  1

  2
none_device
  4
ISO_A4_(297.00_x_210.00_MM)
  6

 40
0.0
 41
0.0
 42
0.0
 43
0.0
 44
297.0
 45
210.0
 46
0.0
 47
0.0
 48
0.0
 49
0.0
140
0.0
141
0.0
142
1.0
143
1.0
 70
0
 72
1
 73
0
 74
0
  7

 75
0
147
1.0
148
0.0
149
0.0
100
AcDbLayout
  1
Layout1
 70
0
 71
1
 10
0.0
 20
0.0
 11
297.0
 21
210.0
 12
0.0
 22
0.0
 32
0.0
 14
0.0
 24
0.0
 34
0.0
 15
0.0
 25
0.0
 35
0.0
146
0.0
 13
0.0
 23
0.0
 33
0.0
 16
1.0
 26
0.0
 36
0.0
 17
0.0
 27
1.0
 37
0.0
 76
0
330
212
345
0
346
0
  0
ENDSEC
  0
EOF
