  0
SECTION
  2
HEADER
  9
$ACADVER
  1
AC1024
  9
$DWGCODEPAGE
  3
ANSI_1252
  9
$EXTMAX
 10
210.0
 20
297.0
 30
0.0
  9
$EXTMIN
 10
0.0
 20
0.0
 30
0.0
  9
$LIMMIN
 10
0.0
 20
0.0
  9
$LIMMAX
 10
210.0
 20
297.0
  9
$VIEWCTR
 10
105.0
 20
148.5
  9
$VIEWSIZE
 40
297.0
  9
$CLAYER
  8
0
  9
$LTSCALE
 40
19.36
  9
$CELTYPE
  6
BYLAYER
  9
$DIMSCALE
 40
1.0
  9
$DIMASZ
 40
3.0
  9
$DIMEXO
 40
0.5
  9
$DIMDLI
 40
13.376
  9
$DIMEXE
 40
1.5
  9
$DIMCEN
 40
3.168
  9
$DIMLFAC
 40
1.0
  9
$DIMBLK
  1
_FILLED
  9
$DIMALT
 70
0
  9
$DIMALTF
 40
0.0393700787
  9
$DIMTXT
 40
3.0
  9
$DIMTOL
 70
1
  9
$DIMLIM
 70
0
  9
$DIMTFAC
 40
1.0
  9
$DIMTP
 40
0.01
  9
$DIMTM
 40
0.01
  9
$DIMGAP
 40
0.625
  9
$DIMDSEP
 70
44
  9
$AUNITS
 70
0
  9
$PDMODE
 70
3
  9
$PDSIZE
 40
3.0
  9
$HANDSEED
  5
274
  9
$TILEMODE
 70
1
  9
$MEASUREMENT
 70
1
  9
$INSUNITS
 70
4
  0
ENDSEC
  0
SECTION
  2
CLASSES
  0
CLASS
  1
ACDBDICTIONARYWDFLT
  2
AcDbDictionaryWithDefault
  3
AutoCAD 2000
 90
0
 91
1
280
0
281
0
  0
CLASS
  1
ACDBPLACEHOLDER
  2
AcDbPlaceHolder
  3
AutoCAD 2000
 90
0
 91
1
280
0
281
0
  0
CLASS
  1
LAYOUT
  2
AcDbLayout
  3
AutoCAD 2000
 90
0
 91
0
280
0
281
0
  0
ENDSEC
  0
SECTION
  2
TABLES
  0
TABLE
  2
VPORT
  5
8
100
AcDbSymbolTable
 70
2
  0
VPORT
  5
1F4
100
AcDbSymbolTableRecord
100
AcDbViewportTableRecord
  2
*ACTIVE
 70
0
 10
0.0
 20
0.0
 11
1.0
 21
1.0
 12
105.0
 22
148.5
 13
0.0
 23
0.0
 14
1.0
 24
1.0
 15
0.0
 25
0.0
 16
0.0
 26
0.0
 36
1.0
 17
0.0
 27
0.0
 37
0.0
 40
297.0
 41
0.7070707071
 42
50.0
 43
0.0
 44
0.0
 50
0.0
 51
0.0
 71
0
 72
100
 73
1
 74
1
 75
0
 76
0
 77
0
 78
0
  0
ENDTAB
  0
TABLE
  2
LTYPE
  5
5
100
AcDbSymbolTable
 70
6
  0
LTYPE
  5
14
100
AcDbSymbolTableRecord
100
AcDbLinetypeTableRecord
  2
BYBLOCK
 70
0
  3

 72
65
 73
0
 40
0.0
  0
LTYPE
  5
15
100
AcDbSymbolTableRecord
100
AcDbLinetypeTableRecord
  2
BYLAYER
 70
0
  3

 72
65
 73
0
 40
0.0
  0
LTYPE
  5
16
100
AcDbSymbolTableRecord
100
AcDbLinetypeTableRecord
  2
CONTINUOUS
 70
64
  3
Solid line
 72
65
 73
0
 40
0.0
  0
LTYPE
  5
1F5
100
AcDbSymbolTableRecord
100
AcDbLinetypeTableRecord
  2
CENTER
 70
64
  3
____ _ ____ _ ____ _ ____ _ ____ _ ____ _ ____
 72
65
 73
4
 40
0.6
 49
0.375
 74
0
 49
-0.075
 74
0
 49
0.075
 74
0
 49
-0.075
 74
0
  0
LTYPE
  5
1F6
100
AcDbSymbolTableRecord
100
AcDbLinetypeTableRecord
  2
HIDDEN
 70
64
  3
- - - - - - - - - - - - - - - - - - - -
 72
65
 73
2
 40
0.2
 49
0.1
 74
0
 49
-0.1
 74
0
  0
LTYPE
  5
1F7
100
AcDbSymbolTableRecord
100
AcDbLinetypeTableRecord
  2
PHANTOM
 70
64
  3
_____ _ _ _____ _ _ _____ _ _ _____
 72
65
 73
6
 40
0.8
 49
0.45
 74
0
 49
-0.05
 74
0
 49
0.1
 74
0
 49
-0.05
 74
0
 49
0.1
 74
0
 49
-0.05
 74
0
  0
LTYPE
  5
1F8
100
AcDbSymbolTableRecord
100
AcDbLinetypeTableRecord
  2
DOT
 70
64
  3
. . . . . . . . . . . . . . . . . . . .
 72
65
 73
2
 40
0.2
 49
0.1
 74
0
 49
-0.1
 74
0
  0
LTYPE
  5
1F9
100
AcDbSymbolTableRecord
100
AcDbLinetypeTableRecord
  2
DASHED
 70
64
  3
- - - - - - - - - - - - - - - - - - - -
 72
65
 73
2
 40
0.2
 49
0.1
 74
0
 49
-0.1
 74
0
  0
ENDTAB
  0
TABLE
  2
LAYER
  5
2
100
AcDbSymbolTable
 70
36
  0
LAYER
  5
10
100
AcDbSymbolTableRecord
100
AcDbLayerTableRecord
  2
0
 70
0
 62
7
  6
CONTINUOUS
370
-3
390
F
  0
LAYER
  5
1FA
100
AcDbSymbolTableRecord
100
AcDbLayerTableRecord
  2
DEFAULT_1
 70
0
 62
7
  6
CENTER
370
-3
390
F
  0
LAYER
  5
1FB
100
AcDbSymbolTableRecord
100
AcDbLayerTableRecord
  2
DEFAULT_2
 70
0
 62
7
  6
HIDDEN
370
-3
390
F
  0
LAYER
  5
1FC
100
AcDbSymbolTableRecord
100
AcDbLayerTableRecord
  2
DEFAULT_3
 70
0
 62
7
  6
PHANTOM
370
-3
390
F
  0
LAYER
  5
1FD
100
AcDbSymbolTableRecord
100
AcDbLayerTableRecord
  2
ASSI
 70
0
 62
7
  6
CONTINUOUS
370
-3
390
F
  0
LAYER
  5
1FE
100
AcDbSymbolTableRecord
100
AcDbLayerTableRecord
  2
COLOR5
 70
0
 62
7
  6
CONTINUOUS
370
-3
390
F
  0
LAYER
  5
1FF
100
AcDbSymbolTableRecord
100
AcDbLayerTableRecord
  2
COORDINATE
 70
0
 62
7
  6
CONTINUOUS
370
-3
390
F
  0
LAYER
  5
200
100
AcDbSymbolTableRecord
100
AcDbLayerTableRecord
  2
COORD_ORIGINE
 70
0
 62
7
  6
CONTINUOUS
370
-3
390
F
  0
LAYER
  5
201
100
AcDbSymbolTableRecord
100
AcDbLayerTableRecord
  2
COPY_PUBLISH
 70
0
 62
7
  6
CONTINUOUS
370
-3
390
F
  0
LAYER
  5
202
100
AcDbSymbolTableRecord
100
AcDbLayerTableRecord
  2
COSMETICI
 70
0
 62
7
  6
CONTINUOUS
370
-3
390
F
  0
LAYER
  5
203
100
AcDbSymbolTableRecord
100
AcDbLayerTableRecord
  2
CURVE
 70
0
 62
7
  6
CONTINUOUS
370
-3
390
F
  0
LAYER
  5
204
100
AcDbSymbolTableRecord
100
AcDbLayerTableRecord
  2
DRAFT
 70
0
 62
7
  6
CONTINUOUS
370
-3
390
F
  0
LAYER
  5
205
100
AcDbSymbolTableRecord
100
AcDbLayerTableRecord
  2
IMPORT_IGES
 70
0
 62
7
  6
CONTINUOUS
370
-3
390
F
  0
LAYER
  5
206
100
AcDbSymbolTableRecord
100
AcDbLayerTableRecord
  2
NOTE
 70
0
 62
7
  6
CONTINUOUS
370
-3
390
F
  0
LAYER
  5
207
100
AcDbSymbolTableRecord
100
AcDbLayerTableRecord
  2
PIANI
 70
0
 62
7
  6
CONTINUOUS
370
-3
390
F
  0
LAYER
  5
208
100
AcDbSymbolTableRecord
100
AcDbLayerTableRecord
  2
PIANI_ORIGINE
 70
0
 62
7
  6
CONTINUOUS
370
-3
390
F
  0
LAYER
  5
209
100
AcDbSymbolTableRecord
100
AcDbLayerTableRecord
  2
PUNTI
 70
0
 62
7
  6
CONTINUOUS
370
-3
390
F
  0
LAYER
  5
20A
100
AcDbSymbolTableRecord
100
AcDbLayerTableRecord
  2
RACCORDO
 70
0
 62
7
  6
CONTINUOUS
370
-3
390
F
  0
LAYER
  5
20B
100
AcDbSymbolTableRecord
100
AcDbLayerTableRecord
  2
SIMBOLI
 70
0
 62
7
  6
CONTINUOUS
370
-3
390
F
  0
LAYER
  5
20C
100
AcDbSymbolTableRecord
100
AcDbLayerTableRecord
  2
SMUSSO
 70
0
 62
7
  6
CONTINUOUS
370
-3
390
F
  0
LAYER
  5
20D
100
AcDbSymbolTableRecord
100
AcDbLayerTableRecord
  2
SNAPLINE
 70
0
 62
7
  6
CONTINUOUS
370
-3
390
F
  0
LAYER
  5
20E
100
AcDbSymbolTableRecord
100
AcDbLayerTableRecord
  2
SUPERFICI
 70
0
 62
7
  6
CONTINUOUS
370
-3
390
F
  0
LAYER
  5
20F
100
AcDbSymbolTableRecord
100
AcDbLayerTableRecord
  2
TRASH
 70
0
 62
7
  6
CONTINUOUS
370
-3
390
F
  0
ENDTAB
  0
TABLE
  2
STYLE
  5
3
100
AcDbSymbolTable
 70
1
  0
STYLE
  5
11
100
AcDbSymbolTableRecord
100
AcDbTextStyleTableRecord
  2
STANDARD
 70
0
 40
0.0
 41
0.8
 50
0.0
 71
0
 42
0.2
  3
txt
  4

  0
STYLE
  5
210
100
AcDbSymbolTableRecord
100
AcDbTextStyleTableRecord
  2
TEXTSTYLE_1
 70
0
 40
0.0
 41
0.8
 50
0.0
 71
0
 42
0.2
  3
gdt
  4

  0
ENDTAB
  0
TABLE
  2
VIEW
  5
6
100
AcDbSymbolTable
 70
0
  0
ENDTAB
  0
TABLE
  2
UCS
  5
7
100
AcDbSymbolTable
 70
0
  0
ENDTAB
  0
TABLE
  2
APPID
  5
9
100
AcDbSymbolTable
 70
1
  0
APPID
  5
211
100
AcDbSymbolTableRecord
100
AcDbRegAppTableRecord
  2
ACAD
 70
0
  0
ENDTAB
  0
TABLE
  2
BLOCK_RECORD
  5
1
100
AcDbSymbolTable
 70
0
  0
BLOCK_RECORD
  5
212
100
AcDbSymbolTableRecord
100
AcDbBlockTableRecord
  2
*Model_Space
  0
BLOCK_RECORD
  5
213
100
AcDbSymbolTableRecord
100
AcDbBlockTableRecord
  2
*Paper_Space
  0
BLOCK_RECORD
  5
214
100
AcDbSymbolTableRecord
100
AcDbBlockTableRecord
  2
_FILLED
  0
ENDTAB
  0
TABLE
  2
DIMSTYLE
  5
A
100
AcDbSymbolTable
 70
1
100
AcDbDimStyleTable
 71
0
  0
DIMSTYLE
105
215
100
AcDbSymbolTableRecord
100
AcDbDimStyleTableRecord
  2
STANDARD
 70
0
  3

  4

 40
1.0
 41
3.0
 42
0.5
 43
0.38
 44
1.5
 45
0.0
 46
0.0
 47
0.01
 48
0.01
140
3.0
141
0.09
142
0.0
143
25.4
144
1.0
145
0.0
146
1.0
147
0.625
 71
1.0
 72
0.0
 73
0
 74
0
 75
0
 76
0
 77
1
 78
8
 79
2
170
0
171
1
172
0
173
0
174
0
175
0
176
0
177
0
178
0
270
2
179
2
271
2
272
2
273
2
274
2
275
0
280
0
281
0
282
0
283
1
284
8
285
0
286
0
287
3
288
0
340
11
278
44
341
214
342
214
343
214
344
214
  0
ENDTAB
  0
ENDSEC
  0
SECTION
  2
BLOCKS
  0
BLOCK
  5
20
100
AcDbEntity
  8
0
100
AcDbBlockBegin
  2
*Model_Space
 70
0
 10
0.0
 20
0.0
 30
0.0
  3
*Model_Space
  1

  0
ENDBLK
  5
21
100
AcDbEntity
  8
0
100
AcDbBlockEnd
  0
BLOCK
  5
1C
100
AcDbEntity
  8
0
100
AcDbBlockBegin
  2
*Paper_Space
 70
0
 10
0.0
 20
0.0
 30
0.0
  3
*Paper_Space
  1

  0
ENDBLK
  5
1D
100
AcDbEntity
  8
0
100
AcDbBlockEnd
  0
BLOCK
  5
216
100
AcDbEntity
  8
0
100
AcDbBlockBegin
  2
_FILLED
 70
64
 10
0.0
 20
0.0
  3
_FILLED
  1

  0
SOLID
  5
217
100
AcDbEntity
  8
0
  6
BYBLOCK
 62
0
100
AcDbTrace
 10
0.0
 20
0.0
 11
-1.0
 21
0.3166666667
 12
-1.0
 22
-0.3166666667
 13
-1.0
 23
-0.3166666667
  0
ENDBLK
  5
218
100
AcDbEntity
  8
0
  6
BYBLOCK
 62
0
100
AcDbBlockEnd
  0
ENDSEC
  0
SECTION
  2
ENTITIES
  0
LINE
  5
219
100
AcDbEntity
  8
RACCORDO
100
AcDbLine
 62
7
  6
CONTINUOUS
 10
153.77565907
 20
-105.7172861195
 11
146.77565907
 21
-105.7172861195
  0
LINE
  5
21A
100
AcDbEntity
  8
RACCORDO
100
AcDbLine
 62
7
  6
CONTINUOUS
 10
42.97565907
 20
-105.7172861195
 11
35.97565907
 21
-105.7172861195
  0
LINE
  5
21B
100
AcDbEntity
  8
0
100
AcDbLine
 62
7
  6
CONTINUOUS
 10
42.97565907
 20
-105.7172861195
 11
146.77565907
 21
-105.7172861195
  0
LINE
  5
21C
100
AcDbEntity
  8
0
100
AcDbLine
 62
7
  6
CONTINUOUS
 10
42.62565907
 20
-103.7172861195
 11
36.62565907
 21
-103.7172861195
  0
LINE
  5
21D
100
AcDbEntity
  8
0
100
AcDbLine
 62
7
  6
CONTINUOUS
 10
147.12565907
 20
-103.7172861195
 11
153.12565907
 21
-103.7172861195
  0
LWPOLYLINE
  5
21E
100
AcDbEntity
  8
0
100
AcDbPolyline
 62
7
  6
CONTINUOUS
 90
8
 70
0
 10
95.2646847194
 20
-87.5920290611
 10
95.2098018886
 20
-87.6022995853
 10
95.1571534151
 20
-87.6161303378
 10
95.1069581548
 20
-87.6333106718
 10
95.059418779
 20
-87.6536169811
 10
95.0147210283
 20
-87.67681383
 10
94.9730330412
 20
-87.7026551262
 10
94.9345047605
 20
-87.7308853303
  0
LWPOLYLINE
  5
21F
100
AcDbEntity
  8
0
100
AcDbPolyline
 62
7
  6
CONTINUOUS
 90
7
 70
0
 10
94.8143241009
 20
-87.8623240558
 10
94.835783063
 20
-87.8591661
 10
94.8574289745
 20
-87.8569190737
 10
94.8792233034
 20
-87.8555944233
 10
94.9011309195
 20
-87.855201995
 10
94.9231078936
 20
-87.8557503024
 10
94.945101529
 20
-87.8572447317
  0
LINE
  5
220
100
AcDbEntity
  8
0
100
AcDbLine
 62
7
  6
CONTINUOUS
 10
95.3215676848
 20
-87.5855153684
 11
95.2646847194
 21
-87.5920290611
  0
LWPOLYLINE
  5
221
100
AcDbEntity
  8
0
100
AcDbPolyline
 62
7
  6
CONTINUOUS
 90
10
 70
0
 10
94.945101529
 20
-87.8572447317
 10
94.9670821441
 20
-87.8596899303
 10
94.9889974373
 20
-87.8630867885
 10
95.0107609821
 20
-87.8674249325
 10
95.0323438618
 20
-87.8726993807
 10
95.053694608
 20
-87.8788983294
 10
95.074696769
 20
-87.8859824755
 10
95.0952895858
 20
-87.8939183696
 10
95.1154652901
 20
-87.9026898597
 10
95.1351916396
 20
-87.9122714256
  0
LINE
  5
222
100
AcDbEntity
  8
RACCORDO
100
AcDbLine
 62
7
  6
CONTINUOUS
 10
34.97565907
 20
-104.7172861195
 11
34.97565907
 21
60.4827138805
  0
LINE
  5
223
100
AcDbEntity
  8
0
100
AcDbLine
 62
7
  6
CONTINUOUS
 10
36.62565907
 20
48.3827138805
 11
36.62565907
 21
-103.7172861195
  0
LWPOLYLINE
  5
224
100
AcDbEntity
  8
0
100
AcDbPolyline
 62
7
  6
CONTINUOUS
 90
13
 70
0
 10
95.1351916396
 20
-87.9122714256
 10
95.177451594
 20
-87.9320717143
 10
95.2183581955
 20
-87.9559082498
 10
95.2575199277
 20
-87.9837095959
 10
95.2946496644
 20
-88.015463476
 10
95.3292402866
 20
-88.0509446136
 10
95.3606507334
 20
-88.0896131819
 10
95.3885592034
 20
-88.1310918474
 10
95.4127741423
 20
-88.1751138349
 10
95.4330122994
 20
-88.221150638
 10
95.4491237003
 20
-88.268754505
 10
95.461044532
 20
-88.3175955484
 10
95.4687204794
 20
-88.3672861195
  0
LWPOLYLINE
  5
225
100
AcDbEntity
  8
0
100
AcDbPolyline
 62
7
  6
CONTINUOUS
 90
8
 70
0
 10
95.3500480255
 20
-87.5223809917
 10
95.4259670061
 20
-87.5602786576
 10
95.4990945554
 20
-87.6051889194
 10
95.5691400981
 20
-87.6572351078
 10
95.635682066
 20
-87.7165799917
 10
95.697624151
 20
-87.7827691709
 10
95.7537464895
 20
-87.8548344728
 10
95.7562721132
 20
-87.8587654603
  0
LINE
  5
226
100
AcDbEntity
  8
0
100
AcDbLine
 62
7
  6
CONTINUOUS
 10
42.62565907
 20
48.3827138805
 11
42.62565907
 21
-103.7172861195
  0
LINE
  5
227
100
AcDbEntity
  8
RACCORDO
100
AcDbLine
 62
7
  6
CONTINUOUS
 10
42.97565907
 20
47.4827138805
 11
42.97565907
 21
-105.7172861195
  0
LINE
  5
228
100
AcDbEntity
  8
0
100
AcDbLine
 62
7
  6
CONTINUOUS
 10
93.5187804307
 20
45.6020267663
 11
93.4024454594
 21
45.4853563527
  0
LINE
  5
229
100
AcDbEntity
  8
0
100
AcDbLine
 62
7
  6
CONTINUOUS
 10
96.1231172937
 20
42.5694327396
 11
96.2475579336
 21
42.6774154732
  0
LWPOLYLINE
  5
22A
100
AcDbEntity
  8
0
100
AcDbPolyline
 62
7
  6
CONTINUOUS
 90
3
 70
0
 10
94.9345047605
 20
44.7691146697
 10
94.8992674169
 20
44.7387593025
 10
94.8674330959
 20
44.706549453
  0
LINE
  5
22B
100
AcDbEntity
  8
0
100
AcDbLine
 62
7
  6
CONTINUOUS
 10
93.6443237899
 20
45.7087257536
 11
93.5187804307
 21
45.6020267663
  0
LINE
  5
22C
100
AcDbEntity
  8
0
100
AcDbLine
 62
7
  6
CONTINUOUS
 10
95.990210862
 20
42.4720591159
 11
96.1231172937
 21
42.5694327396
  0
LINE
  5
22D
100
AcDbEntity
  8
0
100
AcDbLine
 62
7
  6
CONTINUOUS
 10
94.2505822704
 20
-87.7933670208
 11
93.4024454594
 21
-87.0146436473
  0
LINE
  5
22E
100
AcDbEntity
  8
RACCORDO
100
AcDbLine
 62
7
  6
CONTINUOUS
 10
47.87565907
 20
19.8827138805
 11
47.87565907
 21
-57.1172861195
  0
LWPOLYLINE
  5
22F
100
AcDbEntity
  8
0
100
AcDbPolyline
 62
7
  6
CONTINUOUS
 90
36
 70
0
 10
93.374966944
 20
45.4548042968
 10
93.2712380461
 20
45.326796417
 10
93.1783974304
 20
45.1906849826
 10
93.0970751535
 20
45.0473937035
 10
93.0278231037
 20
44.8978950148
 10
92.9711112553
 20
44.743203478
 10
92.92732448
 20
44.5843688956
 10
92.896759934
 20
44.4224691866
 10
92.8796250423
 20
44.2586030714
 10
92.8760360902
 20
44.0938826153
 10
92.8860174347
 20
43.9294256816
 10
92.9095013388
 20
43.7663483454
 10
92.9463284316
 20
43.6057573195
 10
92.9962487893
 20
43.4487424434
 10
93.0589236319
 20
43.2963692875
 10
93.1339276217
 20
43.1496719216
 10
93.2207517503
 20
43.0096458975
 10
93.3188067925
 20
42.8772414921
 10
93.4274273055
 20
42.7533572591
 10
93.5458761445
 20
42.6388339308
 10
93.6733494653
 20
42.5344487123
 10
93.8089821796
 20
42.4409100072
 10
93.9518538261
 20
42.3588526102
 10
94.1009948166
 20
42.288833399
 10
94.2553930164
 20
42.231327555
 10
94.4140006131
 20
42.1867253384
 10
94.5757412274
 20
42.1553294401
 10
94.7395172176
 20
42.1373529272
 10
94.9042171293
 20
42.1329177969
 10
95.0687232377
 20
42.142054149
 10
95.2319191329
 20
42.1646999812
 10
95.3926972968
 20
42.2007016101
 10
95.5499666188
 20
42.2498147139
 10
95.7026598008
 20
42.3117059909
 10
95.8497406001
 20
42.3859554209
 10
95.990210862
 20
42.4720591159
  0
LWPOLYLINE
  5
230
100
AcDbEntity
  8
0
100
AcDbPolyline
 62
7
  6
CONTINUOUS
 90
16
 70
0
 10
94.2505822704
 20
44.7066329792
 10
94.2988241661
 20
44.7659925236
 10
94.352798718
 20
44.8213522442
 10
94.412181274
 20
44.8721523396
 10
94.4765023578
 20
44.9178006371
 10
94.5454075431
 20
44.9578673075
 10
94.6187170903
 20
44.9920109762
 10
94.6963418719
 20
45.019849261
 10
94.7773582202
 20
45.0407166965
 10
94.8602095295
 20
45.0540768584
 10
94.9440351278
 20
45.0598106599
 10
95.0282677444
 20
45.0579016576
 10
95.1116901129
 20
45.0484523401
 10
95.193031543
 20
45.0318366088
 10
95.2722704635
 20
45.0082950734
 10
95.3500480255
 20
44.9776190083
  0
LWPOLYLINE
  5
231
100
AcDbEntity
  8
0
100
AcDbPolyline
 62
7
  6
CONTINUOUS
 90
3
 70
0
 10
94.8674330959
 20
44.706549453
 10
94.839094384
 20
44.6727614465
 10
94.8143241009
 20
44.6376759442
  0
LWPOLYLINE
  5
232
100
AcDbEntity
  8
0
100
AcDbPolyline
 62
7
  6
CONTINUOUS
 90
38
 70
0
 10
96.2475579336
 20
42.6774154732
 10
96.3626882727
 20
42.7952744996
 10
96.4677269854
 20
42.9222099767
 10
96.5619612323
 20
43.0573604658
 10
96.6447514978
 20
43.1998087772
 10
96.7155359301
 20
43.3485881949
 10
96.7738341539
 20
43.5026890372
 10
96.8192505308
 20
43.6610655087
 10
96.8514768445
 20
43.8226427976
 10
96.8702943917
 20
43.9863243698
 10
96.8755754672
 20
44.1509994103
 10
96.8672842302
 20
44.3155503619
 10
96.8454769474
 20
44.4788605096
 10
96.8103016114
 20
44.6398215586
 10
96.7619969364
 20
44.7973411559
 10
96.700890738
 20
44.9503503038
 10
96.6273977087
 20
45.0978106142
 10
96.5420166036
 20
45.2387213557
 10
96.4453268556
 20
45.372126245
 10
96.337984643
 20
45.4971199368
 10
96.2207184367
 20
45.6128541675
 10
96.0943240562
 20
45.7185435125
 10
95.9596592692
 20
45.813470716
 10
95.81763797
 20
45.8969915586
 10
95.6692239776
 20
45.9685392296
 10
95.5154244949
 20
46.0276281734
 10
95.3572832733
 20
46.0738573849
 10
95.1958735292
 20
46.1069131307
 10
95.0322906611
 20
46.1265710784
 10
94.8676448152
 20
46.132697819
 10
94.7030533519
 20
46.1252517723
 10
94.5396332628
 20
46.1042834691
 10
94.3784935899
 20
46.0699352083
 10
94.2207278998
 20
46.0224400912
 10
94.0674068619
 20
45.9621204397
 10
93.9195709821
 20
45.8893856088
 10
93.778223542
 20
45.8047292083
 10
93.6443237899
 20
45.7087257536
  0
LWPOLYLINE
  5
233
100
AcDbEntity
  8
0
100
AcDbPolyline
 62
7
  6
CONTINUOUS
 90
39
 70
0
 10
93.4024454594
 20
45.4853563527
 10
93.3107376449
 20
45.3484538585
 10
93.2314671008
 20
45.2057052665
 10
93.1649683416
 20
45.0582203294
 10
93.1114783226
 20
44.9071237714
 10
93.0711362778
 20
44.7535468196
 10
93.0439842843
 20
44.5986188134
 10
93.0299685403
 20
44.4434589531
 10
93.0289413354
 20
44.2891682466
 10
93.0406636919
 20
44.1368217143
 10
93.0648086454
 20
43.9874609046
 10
93.1009651326
 20
43.8420867744
 10
93.148642449
 20
43.7016529812
 10
93.2072752333
 20
43.5670596336
 10
93.2762289361
 20
43.43914754
 10
93.354805722
 20
43.3186929919
 10
93.4422507563
 20
43.2064031153
 10
93.5377588225
 20
43.1029118158
 10
93.6404812152
 20
43.0087763415
 10
93.7495328528
 20
42.9244744794
 10
93.8639995519
 20
42.8504024003
 10
93.9829454057
 20
42.7868731565
 10
94.1054202088
 20
42.7341158367
 10
94.2304668702
 20
42.6922753745
 10
94.3571287576
 20
42.6614130021
 10
94.4844569186
 20
42.6415073374
 10
94.6115171234
 20
42.6324560861
 10
94.7373966776
 20
42.6340783375
 10
94.8612109564
 20
42.6461174267
 10
94.9821096127
 20
42.6682443339
 10
95.0992824157
 20
42.7000615852
 10
95.2119646809
 20
42.7411076191
 10
95.3194422532
 20
42.790861575
 10
95.4210560127
 20
42.848748463
 10
95.5162058735
 20
42.9141446672
 10
95.6043542525
 20
42.986383734
 10
95.685028988
 20
43.0647623974
 10
95.7578256935
 20
43.1485467884
 10
95.8224095369
 20
43.2369787777
  0
LINE
  5
234
100
AcDbEntity
  8
RACCORDO
100
AcDbLine
 62
7
  6
CONTINUOUS
 10
49.37565907
 20
-58.6172861195
 11
140.37565907
 21
-58.6172861195
  0
LINE
  5
235
100
AcDbEntity
  8
0
100
AcDbLine
 62
7
  6
CONTINUOUS
 10
95.1351916396
 20
44.5877285744
 11
95.3215676848
 21
44.9144846316
  0
LWPOLYLINE
  5
236
100
AcDbEntity
  8
0
100
AcDbPolyline
 62
7
  6
CONTINUOUS
 90
23
 70
0
 10
95.8224095369
 20
43.2369787777
 10
95.8785164385
 20
43.3292823991
 10
95.9259536884
 20
43.4246703019
 10
95.9645999853
 20
43.5223501798
 10
95.9944049062
 20
43.6215311253
 10
96.01538782
 20
43.721429861
 10
96.0276362602
 20
43.8212767986
 10
96.0313037805
 20
43.9203218796
 10
96.0266073155
 20
44.017840154
 10
96.0138240775
 20
44.1131370568
 10
95.9932880202
 20
44.2055533421
 10
95.9653859047
 20
44.2944696416
 10
95.9305530056
 20
44.3793106151
 10
95.8892684988
 20
44.4595486657
 10
95.8420505712
 20
44.5347071953
 10
95.7894512987
 20
44.6043633803
 10
95.7320513373
 20
44.6681504533
 10
95.6704544728
 20
44.7257594768
 10
95.605282079
 20
44.7769406036
 10
95.537167528
 20
44.8215038208
 10
95.4667506037
 20
44.859319178
 10
95.3946719619
 20
44.8903165052
 10
95.3215676848
 20
44.9144846316
  0
LWPOLYLINE
  5
237
100
AcDbEntity
  8
0
100
AcDbPolyline
 62
7
  6
CONTINUOUS
 90
34
 70
0
 10
95.4687204794
 20
-88.3672861195
 10
95.4723011072
 20
-88.4269310495
 10
95.4698199385
 20
-88.4874330535
 10
95.4611265527
 20
-88.548172447
 10
95.4460545535
 20
-88.6087679606
 10
95.4246082007
 20
-88.6682849238
 10
95.3972383941
 20
-88.7253097737
 10
95.3644716458
 20
-88.7790208678
 10
95.3265938251
 20
-88.8291861455
 10
95.2839978406
 20
-88.8754039633
 10
95.2374327155
 20
-88.9170352358
 10
95.1871541082
 20
-88.9540137804
 10
95.1326164655
 20
-88.986619858
 10
95.0735766552
 20
-89.0145784995
 10
95.0109851444
 20
-89.0370303389
 10
94.9460484236
 20
-89.0533535571
 10
94.8793822389
 20
-89.0633189712
 10
94.8116111303
 20
-89.0667614447
 10
94.7441052002
 20
-89.0636463284
 10
94.6780250578
 20
-89.0542448571
 10
94.6134393789
 20
-89.0387891725
 10
94.5500875969
 20
-89.0172472844
 10
94.4884079958
 20
-88.9896528774
 10
94.4291152873
 20
-88.9562060409
 10
94.3724321314
 20
-88.9168645397
 10
94.3186751384
 20
-88.8715306021
 10
94.2687786444
 20
-88.8206450066
 10
94.2237907876
 20
-88.7651253497
 10
94.1842306519
 20
-88.7056651721
 10
94.1502989895
 20
-88.6426303458
 10
94.1223233492
 20
-88.576673377
 10
94.1005213845
 20
-88.5084147039
 10
94.0850272639
 20
-88.4384192599
 10
94.0759310947
 20
-88.3672861195
  0
LWPOLYLINE
  5
238
100
AcDbEntity
  8
0
100
AcDbPolyline
 62
7
  6
CONTINUOUS
 90
13
 70
0
 10
94.0759310947
 20
-88.3672861195
 10
94.0733911304
 20
-88.3171853933
 10
94.0739998469
 20
-88.2668336201
 10
94.0777743935
 20
-88.2164298858
 10
94.0847205415
 20
-88.1661665035
 10
94.0948297216
 20
-88.1162512741
 10
94.1080742136
 20
-88.0669060891
 10
94.1244094709
 20
-88.0183458513
 10
94.1437897794
 20
-87.970745533
 10
94.166169002
 20
-87.9242642452
 10
94.1914850463
 20
-87.8790802966
 10
94.2196532855
 20
-87.83538826
 10
94.2505822704
 20
-87.7933670208
  0
LWPOLYLINE
  5
239
100
AcDbEntity
  8
0
100
AcDbPolyline
 62
7
  6
CONTINUOUS
 90
34
 70
0
 10
95.4687204794
 20
44.1327138805
 10
95.4723011072
 20
44.0730689505
 10
95.4698199385
 20
44.0125669465
 10
95.4611265527
 20
43.951827553
 10
95.4460545535
 20
43.8912320394
 10
95.4246082007
 20
43.8317150762
 10
95.3972383941
 20
43.7746902263
 10
95.3644716458
 20
43.7209791322
 10
95.3265938251
 20
43.6708138545
 10
95.2839978406
 20
43.6245960367
 10
95.2374327155
 20
43.5829647642
 10
95.1871541082
 20
43.5459862196
 10
95.1326164655
 20
43.513380142
 10
95.0735766552
 20
43.4854215005
 10
95.0109851444
 20
43.4629696611
 10
94.9460484236
 20
43.4466464429
 10
94.8793822389
 20
43.4366810288
 10
94.8116111303
 20
43.4332385553
 10
94.7441052002
 20
43.4363536716
 10
94.6780250578
 20
43.4457551429
 10
94.6134393789
 20
43.4612108275
 10
94.5500875969
 20
43.4827527156
 10
94.4884079958
 20
43.5103471226
 10
94.4291152873
 20
43.5437939591
 10
94.3724321314
 20
43.5831354603
 10
94.3186751384
 20
43.6284693979
 10
94.2687786444
 20
43.6793549934
 10
94.2237907876
 20
43.7348746503
 10
94.1842306519
 20
43.7943348279
 10
94.1502989895
 20
43.8573696542
 10
94.1223233492
 20
43.923326623
 10
94.1005213845
 20
43.9915852961
 10
94.0850272639
 20
44.0615807401
 10
94.0759310947
 20
44.1327138805
  0
LWPOLYLINE
  5
23A
100
AcDbEntity
  8
0
100
AcDbPolyline
 62
7
  6
CONTINUOUS
 90
13
 70
0
 10
94.0759310947
 20
44.1327138805
 10
94.0733911304
 20
44.1828146067
 10
94.0739998469
 20
44.2331663799
 10
94.0777743935
 20
44.2835701142
 10
94.0847205415
 20
44.3338334965
 10
94.0948297216
 20
44.3837487259
 10
94.1080742136
 20
44.4330939109
 10
94.1244094709
 20
44.4816541487
 10
94.1437897794
 20
44.529254467
 10
94.166169002
 20
44.5757357548
 10
94.1914850463
 20
44.6209197034
 10
94.2196532855
 20
44.66461174
 10
94.2505822704
 20
44.7066329792
  0
LINE
  5
23B
100
AcDbEntity
  8
0
100
AcDbLine
 62
7
  6
CONTINUOUS
 10
95.1351916396
 20
-87.9122714256
 11
95.3215676848
 21
-87.5855153684
  0
LWPOLYLINE
  5
23C
100
AcDbEntity
  8
0
100
AcDbPolyline
 62
7
  6
CONTINUOUS
 90
39
 70
0
 10
93.4024454594
 20
-87.0146436473
 10
93.3107376449
 20
-87.1515461415
 10
93.2314671008
 20
-87.2942947335
 10
93.1649683416
 20
-87.4417796706
 10
93.1114783226
 20
-87.5928762286
 10
93.0711362778
 20
-87.7464531804
 10
93.0439842843
 20
-87.9013811866
 10
93.0299685403
 20
-88.0565410469
 10
93.0289413354
 20
-88.2108317534
 10
93.0406636919
 20
-88.3631782857
 10
93.0648086454
 20
-88.5125390954
 10
93.1009651326
 20
-88.6579132256
 10
93.148642449
 20
-88.7983470188
 10
93.2072752333
 20
-88.9329403664
 10
93.2762289361
 20
-89.06085246
 10
93.354805722
 20
-89.1813070081
 10
93.4422507563
 20
-89.2935968847
 10
93.5377588225
 20
-89.3970881842
 10
93.6404812152
 20
-89.4912236585
 10
93.7495328528
 20
-89.5755255206
 10
93.8639995519
 20
-89.6495975997
 10
93.9829454057
 20
-89.7131268435
 10
94.1054202088
 20
-89.7658841633
 10
94.2304668702
 20
-89.8077246255
 10
94.3571287576
 20
-89.8385869979
 10
94.4844569186
 20
-89.8584926626
 10
94.6115171234
 20
-89.8675439139
 10
94.7373966776
 20
-89.8659216625
 10
94.8612109564
 20
-89.8538825733
 10
94.9821096127
 20
-89.8317556661
 10
95.0992824157
 20
-89.7999384148
 10
95.2119646809
 20
-89.7588923809
 10
95.3194422532
 20
-89.709138425
 10
95.4210560127
 20
-89.651251537
 10
95.5162058735
 20
-89.5858553328
 10
95.6043542525
 20
-89.513616266
 10
95.685028988
 20
-89.4352376026
 10
95.7578256935
 20
-89.3514532116
 10
95.8224095369
 20
-89.2630212223
  0
LWPOLYLINE
  5
23D
100
AcDbEntity
  8
0
100
AcDbPolyline
 62
7
  6
CONTINUOUS
 90
23
 70
0
 10
95.8224095369
 20
-89.2630212223
 10
95.8785164385
 20
-89.1707176009
 10
95.9259536884
 20
-89.0753296981
 10
95.9645999853
 20
-88.9776498202
 10
95.9944049062
 20
-88.8784688747
 10
96.01538782
 20
-88.778570139
 10
96.0276362602
 20
-88.6787232014
 10
96.0313037805
 20
-88.5796781204
 10
96.0266073155
 20
-88.482159846
 10
96.0138240775
 20
-88.3868629432
 10
95.9932880202
 20
-88.2944466579
 10
95.9653859047
 20
-88.2055303584
 10
95.9305530056
 20
-88.1206893849
 10
95.8892684988
 20
-88.0404513343
 10
95.8420505712
 20
-87.9652928047
 10
95.7894512987
 20
-87.8956366197
 10
95.7320513373
 20
-87.8318495467
 10
95.6704544728
 20
-87.7742405232
 10
95.605282079
 20
-87.7230593964
 10
95.537167528
 20
-87.6784961792
 10
95.4667506037
 20
-87.640680822
 10
95.3946719619
 20
-87.6096834948
 10
95.3215676848
 20
-87.5855153684
  0
LWPOLYLINE
  5
23E
100
AcDbEntity
  8
0
100
AcDbPolyline
 62
7
  6
CONTINUOUS
 90
36
 70
0
 10
93.374966944
 20
-87.0451957032
 10
93.2712380461
 20
-87.173203583
 10
93.1783974304
 20
-87.3093150174
 10
93.0970751535
 20
-87.4526062965
 10
93.0278231037
 20
-87.6021049852
 10
92.9711112553
 20
-87.756796522
 10
92.92732448
 20
-87.9156311044
 10
92.896759934
 20
-88.0775308134
 10
92.8796250423
 20
-88.2413969286
 10
92.8760360902
 20
-88.4061173847
 10
92.8860174347
 20
-88.5705743184
 10
92.9095013388
 20
-88.7336516546
 10
92.9463284316
 20
-88.8942426805
 10
92.9962487893
 20
-89.0512575566
 10
93.0589236319
 20
-89.2036307125
 10
93.1339276217
 20
-89.3503280784
 10
93.2207517503
 20
-89.4903541025
 10
93.3188067925
 20
-89.6227585079
 10
93.4274273055
 20
-89.7466427409
 10
93.5458761445
 20
-89.8611660692
 10
93.6733494653
 20
-89.9655512877
 10
93.8089821796
 20
-90.0590899928
 10
93.9518538261
 20
-90.1411473898
 10
94.1009948166
 20
-90.211166601
 10
94.2553930164
 20
-90.268672445
 10
94.4140006131
 20
-90.3132746616
 10
94.5757412274
 20
-90.3446705599
 10
94.7395172176
 20
-90.3626470728
 10
94.9042171293
 20
-90.3670822031
 10
95.0687232377
 20
-90.357945851
 10
95.2319191329
 20
-90.3353000188
 10
95.3926972968
 20
-90.2992983899
 10
95.5499666188
 20
-90.2501852861
 10
95.7026598008
 20
-90.1882940091
 10
95.8497406001
 20
-90.1140445791
 10
95.990210862
 20
-90.0279408841
  0
LWPOLYLINE
  5
23F
100
AcDbEntity
  8
0
100
AcDbPolyline
 62
7
  6
CONTINUOUS
 90
16
 70
0
 10
94.2505822704
 20
-87.7933670208
 10
94.2988241661
 20
-87.7340074764
 10
94.352798718
 20
-87.6786477558
 10
94.412181274
 20
-87.6278476604
 10
94.4765023578
 20
-87.5821993629
 10
94.5454075431
 20
-87.5421326925
 10
94.6187170903
 20
-87.5079890238
 10
94.6963418719
 20
-87.480150739
 10
94.7773582202
 20
-87.4592833035
 10
94.8602095295
 20
-87.4459231416
 10
94.9440351278
 20
-87.4401893401
 10
95.0282677444
 20
-87.4420983424
 10
95.1116901129
 20
-87.4515476599
 10
95.193031543
 20
-87.4681633912
 10
95.2722704635
 20
-87.4917049266
 10
95.3500480255
 20
-87.5223809917
  0
LINE
  5
240
100
AcDbEntity
  8
RACCORDO
100
AcDbLine
 62
7
  6
CONTINUOUS
 10
141.87565907
 20
-57.1172861195
 11
141.87565907
 21
19.8827138805
  0
LWPOLYLINE
  5
241
100
AcDbEntity
  8
0
100
AcDbPolyline
 62
7
  6
CONTINUOUS
 90
3
 70
0
 10
94.8674330959
 20
-87.793450547
 10
94.839094384
 20
-87.8272385535
 10
94.8143241009
 20
-87.8623240558
  0
LWPOLYLINE
  5
242
100
AcDbEntity
  8
0
100
AcDbPolyline
 62
7
  6
CONTINUOUS
 90
38
 70
0
 10
96.2475579336
 20
-89.8225845268
 10
96.3626882727
 20
-89.7047255004
 10
96.4677269854
 20
-89.5777900233
 10
96.5619612323
 20
-89.4426395342
 10
96.6447514978
 20
-89.3001912228
 10
96.7155359301
 20
-89.1514118051
 10
96.7738341539
 20
-88.9973109628
 10
96.8192505308
 20
-88.8389344913
 10
96.8514768445
 20
-88.6773572024
 10
96.8702943917
 20
-88.5136756302
 10
96.8755754672
 20
-88.3490005897
 10
96.8672842302
 20
-88.1844496381
 10
96.8454769474
 20
-88.0211394904
 10
96.8103016114
 20
-87.8601784414
 10
96.7619969364
 20
-87.7026588441
 10
96.700890738
 20
-87.5496496962
 10
96.6273977087
 20
-87.4021893858
 10
96.5420166036
 20
-87.2612786443
 10
96.4453268556
 20
-87.127873755
 10
96.337984643
 20
-87.0028800632
 10
96.2207184367
 20
-86.8871458325
 10
96.0943240562
 20
-86.7814564875
 10
95.9596592692
 20
-86.686529284
 10
95.81763797
 20
-86.6030084414
 10
95.6692239776
 20
-86.5314607704
 10
95.5154244949
 20
-86.4723718266
 10
95.3572832733
 20
-86.4261426151
 10
95.1958735292
 20
-86.3930868693
 10
95.0322906611
 20
-86.3734289216
 10
94.8676448152
 20
-86.367302181
 10
94.7030533519
 20
-86.3747482277
 10
94.5396332628
 20
-86.3957165309
 10
94.3784935899
 20
-86.4300647917
 10
94.2207278998
 20
-86.4775599088
 10
94.0674068619
 20
-86.5378795603
 10
93.9195709821
 20
-86.6106143912
 10
93.778223542
 20
-86.6952707917
 10
93.6443237899
 20
-86.7912742464
  0
LINE
  5
243
100
AcDbEntity
  8
0
100
AcDbLine
 62
7
  6
CONTINUOUS
 10
93.5187804307
 20
-86.8979732337
 11
93.4024454594
 21
-87.0146436473
  0
LINE
  5
244
100
AcDbEntity
  8
0
100
AcDbLine
 62
7
  6
CONTINUOUS
 10
93.6443237899
 20
-86.7912742464
 11
93.5187804307
 21
-86.8979732337
  0
LINE
  5
245
100
AcDbEntity
  8
RACCORDO
100
AcDbLine
 62
7
  6
CONTINUOUS
 10
140.37565907
 20
21.3827138805
 11
49.37565907
 21
21.3827138805
  0
LINE
  5
246
100
AcDbEntity
  8
0
100
AcDbLine
 62
7
  6
CONTINUOUS
 10
94.2505822704
 20
44.7066329792
 11
93.4024454594
 21
45.4853563527
  0
LINE
  5
247
100
AcDbEntity
  8
RACCORDO
100
AcDbLine
 62
7
  6
CONTINUOUS
 10
146.77565907
 20
-105.7172861195
 11
146.77565907
 21
47.4827138805
  0
LINE
  5
248
100
AcDbEntity
  8
0
100
AcDbLine
 62
7
  6
CONTINUOUS
 10
147.12565907
 20
-103.7172861195
 11
147.12565907
 21
48.3827138805
  0
LINE
  5
249
100
AcDbEntity
  8
0
100
AcDbLine
 62
7
  6
CONTINUOUS
 10
96.1231172937
 20
-89.9305672604
 11
96.2475579336
 21
-89.8225845268
  0
LWPOLYLINE
  5
24A
100
AcDbEntity
  8
0
100
AcDbPolyline
 62
7
  6
CONTINUOUS
 90
3
 70
0
 10
94.9345047605
 20
-87.7308853303
 10
94.8992674169
 20
-87.7612406975
 10
94.8674330959
 20
-87.793450547
  0
LINE
  5
24B
100
AcDbEntity
  8
0
100
AcDbLine
 62
7
  6
CONTINUOUS
 10
95.990210862
 20
-90.0279408841
 11
96.1231172937
 21
-89.9305672604
  0
LINE
  5
24C
100
AcDbEntity
  8
0
100
AcDbLine
 62
7
  6
CONTINUOUS
 10
153.12565907
 20
-103.7172861195
 11
153.12565907
 21
48.3827138805
  0
LINE
  5
24D
100
AcDbEntity
  8
RACCORDO
100
AcDbLine
 62
7
  6
CONTINUOUS
 10
154.77565907
 20
60.4827138805
 11
154.77565907
 21
-104.7172861195
  0
LWPOLYLINE
  5
24E
100
AcDbEntity
  8
0
100
AcDbPolyline
 62
7
  6
CONTINUOUS
 90
13
 70
0
 10
95.1351916396
 20
44.5877285744
 10
95.177451594
 20
44.5679282857
 10
95.2183581955
 20
44.5440917502
 10
95.2575199277
 20
44.5162904041
 10
95.2946496644
 20
44.484536524
 10
95.3292402866
 20
44.4490553864
 10
95.3606507334
 20
44.4103868181
 10
95.3885592034
 20
44.3689081526
 10
95.4127741423
 20
44.3248861651
 10
95.4330122994
 20
44.278849362
 10
95.4491237003
 20
44.231245495
 10
95.461044532
 20
44.1824044516
 10
95.4687204794
 20
44.1327138805
  0
LWPOLYLINE
  5
24F
100
AcDbEntity
  8
0
100
AcDbPolyline
 62
7
  6
CONTINUOUS
 90
8
 70
0
 10
95.3500480255
 20
44.9776190083
 10
95.4259670061
 20
44.9397213424
 10
95.4990945554
 20
44.8948110806
 10
95.5691400981
 20
44.8427648922
 10
95.635682066
 20
44.7834200083
 10
95.697624151
 20
44.7172308291
 10
95.7537464895
 20
44.6451655272
 10
95.7562721132
 20
44.6412345397
  0
LWPOLYLINE
  5
250
100
AcDbEntity
  8
0
100
AcDbPolyline
 62
7
  6
CONTINUOUS
 90
8
 70
0
 10
95.2646847194
 20
44.9079709389
 10
95.2098018886
 20
44.8977004147
 10
95.1571534151
 20
44.8838696622
 10
95.1069581548
 20
44.8666893282
 10
95.059418779
 20
44.8463830189
 10
95.0147210283
 20
44.82318617
 10
94.9730330412
 20
44.7973448738
 10
94.9345047605
 20
44.7691146697
  0
LWPOLYLINE
  5
251
100
AcDbEntity
  8
0
100
AcDbPolyline
 62
7
  6
CONTINUOUS
 90
7
 70
0
 10
94.8143241009
 20
44.6376759442
 10
94.835783063
 20
44.6408339
 10
94.8574289745
 20
44.6430809263
 10
94.8792233034
 20
44.6444055767
 10
94.9011309195
 20
44.644798005
 10
94.9231078936
 20
44.6442496976
 10
94.945101529
 20
44.6427552683
  0
LINE
  5
252
100
AcDbEntity
  8
0
100
AcDbLine
 62
7
  6
CONTINUOUS
 10
95.3215676848
 20
44.9144846316
 11
95.2646847194
 21
44.9079709389
  0
LWPOLYLINE
  5
253
100
AcDbEntity
  8
0
100
AcDbPolyline
 62
7
  6
CONTINUOUS
 90
10
 70
0
 10
94.945101529
 20
44.6427552683
 10
94.9670821441
 20
44.6403100697
 10
94.9889974373
 20
44.6369132115
 10
95.0107609821
 20
44.6325750675
 10
95.0323438618
 20
44.6273006193
 10
95.053694608
 20
44.6211016706
 10
95.074696769
 20
44.6140175245
 10
95.0952895858
 20
44.6060816304
 10
95.1154652901
 20
44.5973101403
 10
95.1351916396
 20
44.5877285744
  0
LINE
  5
254
100
AcDbEntity
  8
RACCORDO
100
AcDbLine
 62
7
  6
CONTINUOUS
 10
140.77565907
 20
53.4827138805
 11
48.97565907
 21
53.4827138805
  0
LINE
  5
255
100
AcDbEntity
  8
0
100
AcDbLine
 62
7
  6
CONTINUOUS
 10
141.62565907
 20
53.8827138805
 11
48.12565907
 21
53.8827138805
  0
LINE
  5
256
100
AcDbEntity
  8
0
100
AcDbLine
 62
7
  6
CONTINUOUS
 10
141.62565907
 20
59.8827138805
 11
48.12565907
 21
59.8827138805
  0
LINE
  5
257
100
AcDbEntity
  8
RACCORDO
100
AcDbLine
 62
7
  6
CONTINUOUS
 10
35.97565907
 20
61.4827138805
 11
153.77565907
 21
61.4827138805
  0
CIRCLE
  5
258
100
AcDbEntity
  8
CURVE
100
AcDbCircle
 62
7
  6
HIDDEN
 10
46.37565907
 20
-97.7172861195
 40
2.0
  0
CIRCLE
  5
259
100
AcDbEntity
  8
CURVE
100
AcDbCircle
 62
7
  6
HIDDEN
 10
46.37565907
 20
-25.7172861195
 40
2.0
  0
CIRCLE
  5
25A
100
AcDbEntity
  8
CURVE
100
AcDbCircle
 62
7
  6
HIDDEN
 10
85.87565907
 20
-78.7172861195
 40
2.0
  0
ARC
  5
25B
100
AcDbEntity
  8
RACCORDO
100
AcDbCircle
 62
7
  6
CONTINUOUS
 10
49.37565907
 20
-57.1172861195
 40
1.5
100
AcDbArc
 50
180.0
 51
270.0
  0
ARC
  5
25C
100
AcDbEntity
  8
RACCORDO
100
AcDbCircle
 62
7
  6
CONTINUOUS
 10
35.97565907
 20
-104.7172861195
 40
1.0
100
AcDbArc
 50
180.0
 51
270.0
  0
ARC
  5
25D
100
AcDbEntity
  8
0
100
AcDbCircle
 62
7
  6
CONTINUOUS
 10
48.12565907
 20
48.3827138805
 40
11.5
100
AcDbArc
 50
90.0
 51
180.0
  0
ARC
  5
25E
100
AcDbEntity
  8
RACCORDO
100
AcDbCircle
 62
7
  6
CONTINUOUS
 10
48.97565907
 20
47.4827138805
 40
6.0
100
AcDbArc
 50
90.0
 51
180.0
  0
ARC
  5
25F
100
AcDbEntity
  8
0
100
AcDbCircle
 62
7
  6
CONTINUOUS
 10
48.12565907
 20
48.3827138805
 40
5.5
100
AcDbArc
 50
90.0
 51
180.0
  0
CIRCLE
  5
260
100
AcDbEntity
  8
CURVE
100
AcDbCircle
 62
7
  6
HIDDEN
 10
46.37565907
 20
46.2827138805
 40
2.0
  0
CIRCLE
  5
261
100
AcDbEntity
  8
CURVE
100
AcDbCircle
 62
7
  6
HIDDEN
 10
85.87565907
 20
36.2827138805
 40
2.0
  0
ARC
  5
262
100
AcDbEntity
  8
RACCORDO
100
AcDbCircle
 62
7
  6
CONTINUOUS
 10
49.37565907
 20
19.8827138805
 40
1.5
100
AcDbArc
 50
90.0
 51
180.0
  0
ARC
  5
263
100
AcDbEntity
  8
RACCORDO
100
AcDbCircle
 62
7
  6
CONTINUOUS
 10
35.97565907
 20
60.4827138805
 40
1.0
100
AcDbArc
 50
90.0
 51
180.0
  0
CIRCLE
  5
264
100
AcDbEntity
  8
ASSI
100
AcDbCircle
 62
7
  6
CONTINUOUS
 10
94.87565907
 20
-88.3672861195
 40
2.2
  0
CIRCLE
  5
265
100
AcDbEntity
  8
CURVE
100
AcDbCircle
 62
7
  6
HIDDEN
 10
143.37565907
 20
-97.7172861195
 40
2.0
  0
CIRCLE
  5
266
100
AcDbEntity
  8
CURVE
100
AcDbCircle
 62
7
  6
HIDDEN
 10
143.37565907
 20
-25.7172861195
 40
2.0
  0
CIRCLE
  5
267
100
AcDbEntity
  8
CURVE
100
AcDbCircle
 62
7
  6
HIDDEN
 10
103.87565907
 20
-78.7172861195
 40
2.0
  0
ARC
  5
268
100
AcDbEntity
  8
RACCORDO
100
AcDbCircle
 62
7
  6
CONTINUOUS
 10
140.37565907
 20
-57.1172861195
 40
1.5
100
AcDbArc
 50
270.0
 51
360.0
  0
ARC
  5
269
100
AcDbEntity
  8
RACCORDO
100
AcDbCircle
 62
7
  6
CONTINUOUS
 10
153.77565907
 20
-104.7172861195
 40
1.0
100
AcDbArc
 50
270.0
 51
360.0
  0
ARC
  5
26A
100
AcDbEntity
  8
0
100
AcDbCircle
 62
7
  6
CONTINUOUS
 10
141.62565907
 20
48.3827138805
 40
11.5
100
AcDbArc
 50
0.0
 51
90.0
  0
ARC
  5
26B
100
AcDbEntity
  8
RACCORDO
100
AcDbCircle
 62
7
  6
CONTINUOUS
 10
140.77565907
 20
47.4827138805
 40
6.0
100
AcDbArc
 50
0.0
 51
90.0
  0
ARC
  5
26C
100
AcDbEntity
  8
0
100
AcDbCircle
 62
7
  6
CONTINUOUS
 10
141.62565907
 20
48.3827138805
 40
5.5
100
AcDbArc
 50
0.0
 51
90.0
  0
CIRCLE
  5
26D
100
AcDbEntity
  8
ASSI
100
AcDbCircle
 62
7
  6
CONTINUOUS
 10
94.87565907
 20
44.1327138805
 40
2.2
  0
CIRCLE
  5
26E
100
AcDbEntity
  8
CURVE
100
AcDbCircle
 62
7
  6
HIDDEN
 10
143.37565907
 20
46.2827138805
 40
2.0
  0
CIRCLE
  5
26F
100
AcDbEntity
  8
CURVE
100
AcDbCircle
 62
7
  6
HIDDEN
 10
103.87565907
 20
36.2827138805
 40
2.0
  0
ARC
  5
270
100
AcDbEntity
  8
RACCORDO
100
AcDbCircle
 62
7
  6
CONTINUOUS
 10
140.37565907
 20
19.8827138805
 40
1.5
100
AcDbArc
 50
0.0
 51
90.0
  0
ARC
  5
271
100
AcDbEntity
  8
RACCORDO
100
AcDbCircle
 62
7
  6
CONTINUOUS
 10
153.77565907
 20
60.4827138805
 40
1.0
100
AcDbArc
 50
0.0
 51
90.0
  0
ENDSEC
  0
SECTION
  2
OBJECTS
  0
DICTIONARY
  5
C
100
AcDbDictionary
280
0
281
1
  3
ACAD_GROUP
350
D
  3
ACAD_MLINESTYLE
350
17
  3
ACAD_LAYOUT
350
1A
  3
ACAD_PLOTSETTINGS
350
19
  3
ACAD_PLOTSTYLENAME
350
E
  0
DICTIONARY
  5
D
102
{ACAD_REACTORS
330
C
102
}
100
AcDbDictionary
280
0
281
1
  0
ACDBDICTIONARYWDFLT
  5
E
102
{ACAD_REACTORS
330
C
102
}
100
AcDbDictionary
281
1
  3
Normal
350
F
100
AcDbDictionaryWithDefault
340
F
  0
DICTIONARY
  5
17
102
{ACAD_REACTORS
330
C
102
}
100
AcDbDictionary
280
0
281
1
  3
Standard
350
18
  0
DICTIONARY
  5
19
102
{ACAD_REACTORS
330
C
102
}
100
AcDbDictionary
281
1
  0
DICTIONARY
  5
1A
102
{ACAD_REACTORS
330
C
102
}
100
AcDbDictionary
281
1
  3
Model
350
272
  3
Layout1
350
273
  0
ACDBPLACEHOLDER
  5
F
102
{ACAD_REACTORS
330
E
102
}
  0
MLINESTYLE
  5
18
102
{ACAD_REACTORS
330
17
102
}
100
AcDbMlineStyle
  2
STANDARD
 70
0
  3

 62
256
 51
90.0
 52
90.0
 71
2
 49
0.5
 62
256
  6
BYLAYER
 49
-0.5
 62
256
  6
BYLAYER
  0
LAYOUT
  5
272
102
{ACAD_REACTORS
330
1A
102
}
100
AcDbPlotSettings
  1

  2
none_device
  4

  6

 40
0.0
 41
0.0
 42
0.0
 43
0.0
 44
210.0
 45
297.0
 46
0.0
 47
0.0
 48
0.0
 49
0.0
140
0.0
141
0.0
142
1.0
143
1.0
 70
1024
 72
1
 73
0
 74
0
  7

 75
0
147
1.0
148
0.0
149
0.0
100
AcDbLayout
  1
Model
 70
0
 71
0
 10
0.0
 20
0.0
 11
210.0
 21
297.0
 12
0.0
 22
0.0
 32
0.0
 14
0.0
 24
0.0
 34
0.0
 15
0.0
 25
0.0
 35
0.0
146
0.0
 13
0.0
 23
0.0
 33
0.0
 16
1.0
 26
0.0
 36
0.0
 17
0.0
 27
1.0
 37
0.0
 76
0
330
212
345
0
346
0
  0
LAYOUT
  5
273
102
{ACAD_REACTORS
330
1A
102
}
100
AcDbPlotSettings
  1

  2
none_device
  4

  6

 40
0.0
 41
0.0
 42
0.0
 43
0.0
 44
210.0
 45
297.0
 46
0.0
 47
0.0
 48
0.0
 49
0.0
140
0.0
141
0.0
142
1.0
143
1.0
 70
0
 72
1
 73
0
 74
0
  7

 75
0
147
1.0
148
0.0
149
0.0
100
AcDbLayout
  1
Layout1
 70
0
 71
1
 10
0.0
 20
0.0
 11
210.0
 21
297.0
 12
0.0
 22
0.0
 32
0.0
 14
0.0
 24
0.0
 34
0.0
 15
0.0
 25
0.0
 35
0.0
146
0.0
 13
0.0
 23
0.0
 33
0.0
 16
1.0
 26
0.0
 36
0.0
 17
0.0
 27
1.0
 37
0.0
 76
0
330
213
345
0
346
0
  0
ENDSEC
  0
EOF
