  0
SECTION
  2
HEADER
  9
$ACADVER
  1
AC1024
  9
$DWGCODEPAGE
  3
ANSI_1252
  9
$EXTMAX
 10
420.0
 20
297.0
 30
0.0
  9
$EXTMIN
 10
0.0
 20
0.0
 30
0.0
  9
$LIMMIN
 10
0.0
 20
0.0
  9
$LIMMAX
 10
420.0
 20
297.0
  9
$VIEWCTR
 10
210.0
 20
148.5
  9
$VIEWSIZE
 40
297.0
  9
$CLAYER
  8
0
  9
$LTSCALE
 40
23.1
  9
$CELTYPE
  6
BYLAYER
  9
$DIMSCALE
 40
1.0
  9
$DIMASZ
 40
3.0
  9
$DIMEXO
 40
0.5
  9
$DIMDLI
 40
15.96
  9
$DIMEXE
 40
1.5
  9
$DIMCEN
 40
3.78
  9
$DIMLFAC
 40
1.0
  9
$DIMBLK
  1
_FILLED
  9
$DIMALT
 70
0
  9
$DIMALTF
 40
0.0393700787
  9
$DIMTXT
 40
3.0
  9
$DIMTOL
 70
1
  9
$DIMLIM
 70
0
  9
$DIMTFAC
 40
1.0
  9
$DIMTP
 40
0.01
  9
$DIMTM
 40
0.01
  9
$DIMGAP
 40
0.625
  9
$DIMDSEP
 70
44
  9
$AUNITS
 70
0
  9
$PDMODE
 70
3
  9
$PDSIZE
 40
3.0
  9
$HANDSEED
  5
7DD
  9
$TILEMODE
 70
1
  9
$MEASUREMENT
 70
1
  9
$INSUNITS
 70
4
  0
ENDSEC
  0
SECTION
  2
CLASSES
  0
CLASS
  1
ACDBDICTIONARYWDFLT
  2
AcDbDictionaryWithDefault
  3
AutoCAD 2000
 90
0
 91
1
280
0
281
0
  0
CLASS
  1
ACDBPLACEHOLDER
  2
AcDbPlaceHolder
  3
AutoCAD 2000
 90
0
 91
1
280
0
281
0
  0
CLASS
  1
LAYOUT
  2
AcDbLayout
  3
AutoCAD 2000
 90
0
 91
0
280
0
281
0
  0
ENDSEC
  0
SECTION
  2
TABLES
  0
TABLE
  2
VPORT
  5
8
100
AcDbSymbolTable
 70
2
  0
VPORT
  5
1F4
100
AcDbSymbolTableRecord
100
AcDbViewportTableRecord
  2
*ACTIVE
 70
0
 10
0.0
 20
0.0
 11
1.0
 21
1.0
 12
210.0
 22
148.5
 13
0.0
 23
0.0
 14
1.0
 24
1.0
 15
0.0
 25
0.0
 16
0.0
 26
0.0
 36
1.0
 17
0.0
 27
0.0
 37
0.0
 40
297.0
 41
1.4141414141
 42
50.0
 43
0.0
 44
0.0
 50
0.0
 51
0.0
 71
0
 72
100
 73
1
 74
1
 75
0
 76
0
 77
0
 78
0
  0
ENDTAB
  0
TABLE
  2
LTYPE
  5
5
100
AcDbSymbolTable
 70
6
  0
LTYPE
  5
14
100
AcDbSymbolTableRecord
100
AcDbLinetypeTableRecord
  2
BYBLOCK
 70
0
  3

 72
65
 73
0
 40
0.0
  0
LTYPE
  5
15
100
AcDbSymbolTableRecord
100
AcDbLinetypeTableRecord
  2
BYLAYER
 70
0
  3

 72
65
 73
0
 40
0.0
  0
LTYPE
  5
16
100
AcDbSymbolTableRecord
100
AcDbLinetypeTableRecord
  2
CONTINUOUS
 70
64
  3
Solid line
 72
65
 73
0
 40
0.0
  0
LTYPE
  5
1F5
100
AcDbSymbolTableRecord
100
AcDbLinetypeTableRecord
  2
CENTER
 70
64
  3
____ _ ____ _ ____ _ ____ _ ____ _ ____ _ ____
 72
65
 73
4
 40
0.6
 49
0.375
 74
0
 49
-0.075
 74
0
 49
0.075
 74
0
 49
-0.075
 74
0
  0
LTYPE
  5
1F6
100
AcDbSymbolTableRecord
100
AcDbLinetypeTableRecord
  2
HIDDEN
 70
64
  3
- - - - - - - - - - - - - - - - - - - -
 72
65
 73
2
 40
0.2
 49
0.1
 74
0
 49
-0.1
 74
0
  0
LTYPE
  5
1F7
100
AcDbSymbolTableRecord
100
AcDbLinetypeTableRecord
  2
PHANTOM
 70
64
  3
_____ _ _ _____ _ _ _____ _ _ _____
 72
65
 73
6
 40
0.8
 49
0.45
 74
0
 49
-0.05
 74
0
 49
0.1
 74
0
 49
-0.05
 74
0
 49
0.1
 74
0
 49
-0.05
 74
0
  0
LTYPE
  5
1F8
100
AcDbSymbolTableRecord
100
AcDbLinetypeTableRecord
  2
DOT
 70
64
  3
. . . . . . . . . . . . . . . . . . . .
 72
65
 73
2
 40
0.2
 49
0.1
 74
0
 49
-0.1
 74
0
  0
LTYPE
  5
1F9
100
AcDbSymbolTableRecord
100
AcDbLinetypeTableRecord
  2
DASHED
 70
64
  3
- - - - - - - - - - - - - - - - - - - -
 72
65
 73
2
 40
0.2
 49
0.1
 74
0
 49
-0.1
 74
0
  0
ENDTAB
  0
TABLE
  2
LAYER
  5
2
100
AcDbSymbolTable
 70
36
  0
LAYER
  5
10
100
AcDbSymbolTableRecord
100
AcDbLayerTableRecord
  2
0
 70
0
 62
7
  6
CONTINUOUS
370
-3
390
F
  0
LAYER
  5
1FA
100
AcDbSymbolTableRecord
100
AcDbLayerTableRecord
  2
DEFAULT_1
 70
0
 62
7
  6
CENTER
370
-3
390
F
  0
LAYER
  5
1FB
100
AcDbSymbolTableRecord
100
AcDbLayerTableRecord
  2
DEFAULT_2
 70
0
 62
7
  6
HIDDEN
370
-3
390
F
  0
LAYER
  5
1FC
100
AcDbSymbolTableRecord
100
AcDbLayerTableRecord
  2
DEFAULT_3
 70
0
 62
7
  6
PHANTOM
370
-3
390
F
  0
LAYER
  5
1FD
100
AcDbSymbolTableRecord
100
AcDbLayerTableRecord
  2
ASSI
 70
0
 62
7
  6
CONTINUOUS
370
-3
390
F
  0
LAYER
  5
1FE
100
AcDbSymbolTableRecord
100
AcDbLayerTableRecord
  2
COLOR5
 70
0
 62
7
  6
CONTINUOUS
370
-3
390
F
  0
LAYER
  5
1FF
100
AcDbSymbolTableRecord
100
AcDbLayerTableRecord
  2
COLOR7
 70
0
 62
7
  6
CONTINUOUS
370
-3
390
F
  0
LAYER
  5
200
100
AcDbSymbolTableRecord
100
AcDbLayerTableRecord
  2
COORDINATE
 70
0
 62
7
  6
CONTINUOUS
370
-3
390
F
  0
LAYER
  5
201
100
AcDbSymbolTableRecord
100
AcDbLayerTableRecord
  2
COORD_ORIGINE
 70
0
 62
7
  6
CONTINUOUS
370
-3
390
F
  0
LAYER
  5
202
100
AcDbSymbolTableRecord
100
AcDbLayerTableRecord
  2
COPY_PUBLISH
 70
0
 62
7
  6
CONTINUOUS
370
-3
390
F
  0
LAYER
  5
203
100
AcDbSymbolTableRecord
100
AcDbLayerTableRecord
  2
COSMETICI
 70
0
 62
7
  6
CONTINUOUS
370
-3
390
F
  0
LAYER
  5
204
100
AcDbSymbolTableRecord
100
AcDbLayerTableRecord
  2
CURVE
 70
0
 62
7
  6
CONTINUOUS
370
-3
390
F
  0
LAYER
  5
205
100
AcDbSymbolTableRecord
100
AcDbLayerTableRecord
  2
DRAFT
 70
0
 62
7
  6
CONTINUOUS
370
-3
390
F
  0
LAYER
  5
206
100
AcDbSymbolTableRecord
100
AcDbLayerTableRecord
  2
IMPORT_IGES
 70
0
 62
7
  6
CONTINUOUS
370
-3
390
F
  0
LAYER
  5
207
100
AcDbSymbolTableRecord
100
AcDbLayerTableRecord
  2
NOTE
 70
0
 62
7
  6
CONTINUOUS
370
-3
390
F
  0
LAYER
  5
208
100
AcDbSymbolTableRecord
100
AcDbLayerTableRecord
  2
PIANI
 70
0
 62
7
  6
CONTINUOUS
370
-3
390
F
  0
LAYER
  5
209
100
AcDbSymbolTableRecord
100
AcDbLayerTableRecord
  2
PIANI_ORIGINE
 70
0
 62
7
  6
CONTINUOUS
370
-3
390
F
  0
LAYER
  5
20A
100
AcDbSymbolTableRecord
100
AcDbLayerTableRecord
  2
PUNTI
 70
0
 62
7
  6
CONTINUOUS
370
-3
390
F
  0
LAYER
  5
20B
100
AcDbSymbolTableRecord
100
AcDbLayerTableRecord
  2
RACCORDO
 70
0
 62
7
  6
CONTINUOUS
370
-3
390
F
  0
LAYER
  5
20C
100
AcDbSymbolTableRecord
100
AcDbLayerTableRecord
  2
SIMBOLI
 70
0
 62
7
  6
CONTINUOUS
370
-3
390
F
  0
LAYER
  5
20D
100
AcDbSymbolTableRecord
100
AcDbLayerTableRecord
  2
SMUSSO
 70
0
 62
7
  6
CONTINUOUS
370
-3
390
F
  0
LAYER
  5
20E
100
AcDbSymbolTableRecord
100
AcDbLayerTableRecord
  2
SNAPLINE
 70
0
 62
7
  6
CONTINUOUS
370
-3
390
F
  0
LAYER
  5
20F
100
AcDbSymbolTableRecord
100
AcDbLayerTableRecord
  2
SUPERFICI
 70
0
 62
7
  6
CONTINUOUS
370
-3
390
F
  0
LAYER
  5
210
100
AcDbSymbolTableRecord
100
AcDbLayerTableRecord
  2
TRASH
 70
0
 62
7
  6
CONTINUOUS
370
-3
390
F
  0
ENDTAB
  0
TABLE
  2
STYLE
  5
3
100
AcDbSymbolTable
 70
1
  0
STYLE
  5
11
100
AcDbSymbolTableRecord
100
AcDbTextStyleTableRecord
  2
STANDARD
 70
0
 40
0.0
 41
0.8
 50
0.0
 71
0
 42
0.2
  3
txt
  4

  0
STYLE
  5
211
100
AcDbSymbolTableRecord
100
AcDbTextStyleTableRecord
  2
TEXTSTYLE_1
 70
0
 40
0.0
 41
0.8
 50
0.0
 71
0
 42
0.2
  3
gdt
  4

  0
ENDTAB
  0
TABLE
  2
VIEW
  5
6
100
AcDbSymbolTable
 70
0
  0
ENDTAB
  0
TABLE
  2
UCS
  5
7
100
AcDbSymbolTable
 70
0
  0
ENDTAB
  0
TABLE
  2
APPID
  5
9
100
AcDbSymbolTable
 70
1
  0
APPID
  5
212
100
AcDbSymbolTableRecord
100
AcDbRegAppTableRecord
  2
ACAD
 70
0
  0
ENDTAB
  0
TABLE
  2
BLOCK_RECORD
  5
1
100
AcDbSymbolTable
 70
0
  0
BLOCK_RECORD
  5
213
100
AcDbSymbolTableRecord
100
AcDbBlockTableRecord
  2
*Model_Space
  0
BLOCK_RECORD
  5
214
100
AcDbSymbolTableRecord
100
AcDbBlockTableRecord
  2
*Paper_Space
  0
BLOCK_RECORD
  5
215
100
AcDbSymbolTableRecord
100
AcDbBlockTableRecord
  2
_FILLED
  0
ENDTAB
  0
TABLE
  2
DIMSTYLE
  5
A
100
AcDbSymbolTable
 70
1
100
AcDbDimStyleTable
 71
0
  0
DIMSTYLE
105
216
100
AcDbSymbolTableRecord
100
AcDbDimStyleTableRecord
  2
STANDARD
 70
0
  3

  4

 40
1.0
 41
3.0
 42
0.5
 43
0.38
 44
1.5
 45
0.0
 46
0.0
 47
0.01
 48
0.01
140
3.0
141
0.0
142
0.0
143
25.4
144
1.0
145
0.0
146
1.0
147
0.625
 71
1
 72
0
 73
0
 74
0
 75
0
 76
0
 77
1
 78
8
 79
2
170
0
171
1
172
0
173
0
174
0
175
0
176
0
177
0
178
0
270
2
179
2
271
2
272
2
273
2
274
2
275
0
280
0
281
0
282
0
283
1
284
8
285
0
286
0
287
3
288
0
340
11
278
44
341
215
342
215
343
215
344
215
  0
ENDTAB
  0
ENDSEC
  0
SECTION
  2
BLOCKS
  0
BLOCK
  5
20
100
AcDbEntity
  8
0
100
AcDbBlockBegin
  2
*Model_Space
 70
0
 10
0.0
 20
0.0
 30
0.0
  3
*Model_Space
  1

  0
ENDBLK
  5
21
100
AcDbEntity
  8
0
100
AcDbBlockEnd
  0
BLOCK
  5
1C
100
AcDbEntity
  8
0
100
AcDbBlockBegin
  2
*Paper_Space
 70
0
 10
0.0
 20
0.0
 30
0.0
  3
*Paper_Space
  1

  0
ENDBLK
  5
1D
100
AcDbEntity
  8
0
100
AcDbBlockEnd
  0
BLOCK
  5
217
100
AcDbEntity
  8
0
100
AcDbBlockBegin
  2
_FILLED
 70
64
 10
0.0
 20
0.0
 30
0.0
  3
_FILLED
  1

  0
SOLID
  5
218
100
AcDbEntity
  8
0
  6
BYBLOCK
 62
0
100
AcDbTrace
 10
0.0
 20
0.0
 30
0.0
 11
-1.0
 21
0.3166666667
 31
0.0
 12
-1.0
 22
-0.3166666667
 32
0.0
 13
-1.0
 23
-0.3166666667
 33
0.0
  0
ENDBLK
  5
219
100
AcDbEntity
  8
0
  6
BYBLOCK
 62
0
100
AcDbBlockEnd
  0
ENDSEC
  0
SECTION
  2
ENTITIES
  0
LINE
  5
21A
100
AcDbEntity
  8
IMPORT_IGES
100
AcDbLine
 62
7
  6
CONTINUOUS
 10
-51.107276724
 20
134.6473379048
 30
0.0
 11
-51.1517455065
 21
134.6334469032
 31
0.0
  0
LINE
  5
21B
100
AcDbEntity
  8
IMPORT_IGES
100
AcDbLine
 62
7
  6
CONTINUOUS
 10
-51.4512896212
 20
135.0128483384
 30
0.0
 11
-51.5041107013
 21
134.9606192228
 31
0.0
  0
LINE
  5
21C
100
AcDbEntity
  8
IMPORT_IGES
100
AcDbLine
 62
7
  6
CONTINUOUS
 10
-31.1134509427
 20
131.3632363246
 30
0.0
 11
-31.0
 21
131.4766872673
 31
0.0
  0
LINE
  5
21D
100
AcDbEntity
  8
IMPORT_IGES
100
AcDbLine
 62
7
  6
CONTINUOUS
 10
-12.49556032
 20
123.5841802459
 30
0.0
 11
-12.6703773499
 21
123.4968783222
 31
0.0
  0
LINE
  5
21E
100
AcDbEntity
  8
IMPORT_IGES
100
AcDbLine
 62
7
  6
CONTINUOUS
 10
-39.0
 20
133.3766872673
 30
0.0
 11
-39.4
 21
132.7766872673
 31
0.0
  0
LINE
  5
21F
100
AcDbEntity
  8
IMPORT_IGES
100
AcDbLine
 62
7
  6
CONTINUOUS
 10
-61.0365490573
 20
94.1901382101
 30
0.0
 11
-61.15
 21
94.0766872673
 31
0.0
  0
LINE
  5
220
100
AcDbEntity
  8
IMPORT_IGES
100
AcDbLine
 62
7
  6
CONTINUOUS
 10
-42.4825449351
 20
112.5941423323
 30
0.0
 11
-42.5
 21
112.5766872673
 31
0.0
  0
LINE
  5
221
100
AcDbEntity
  8
IMPORT_IGES
100
AcDbLine
 62
7
  6
CONTINUOUS
 10
-41.5174550649
 20
113.5592322024
 30
0.0
 11
-41.5
 21
113.5766872673
 31
0.0
  0
LINE
  5
222
100
AcDbEntity
  8
IMPORT_IGES
100
AcDbLine
 62
7
  6
CONTINUOUS
 10
-15.1134509427
 20
131.3632363246
 30
0.0
 11
-15.0
 21
131.4766872673
 31
0.0
  0
LINE
  5
223
100
AcDbEntity
  8
IMPORT_IGES
100
AcDbLine
 62
7
  6
CONTINUOUS
 10
-57.761258182
 20
94.2337708876
 30
0.0
 11
-58.0754493507
 21
94.0766872673
 31
0.0
  0
LINE
  5
224
100
AcDbEntity
  8
IMPORT_IGES
100
AcDbLine
 62
7
  6
CONTINUOUS
 10
-63.9298066467
 20
-81.4983216445
 30
0.0
 11
-63.9962403425
 21
-81.4318879487
 31
0.0
  0
LINE
  5
225
100
AcDbEntity
  8
IMPORT_IGES
100
AcDbLine
 62
7
  6
CONTINUOUS
 10
-61.0365490573
 20
73.1901382101
 30
0.0
 11
-61.15
 21
73.0766872673
 31
0.0
  0
LINE
  5
226
100
AcDbEntity
  8
IMPORT_IGES
100
AcDbLine
 62
7
  6
CONTINUOUS
 10
-21.4825449351
 20
112.5941423323
 30
0.0
 11
-21.5
 21
112.5766872673
 31
0.0
  0
LINE
  5
227
100
AcDbEntity
  8
IMPORT_IGES
100
AcDbLine
 62
7
  6
CONTINUOUS
 10
-20.5174550649
 20
113.5592322024
 30
0.0
 11
-20.5
 21
113.5766872673
 31
0.0
  0
LINE
  5
228
100
AcDbEntity
  8
IMPORT_IGES
100
AcDbLine
 62
7
  6
CONTINUOUS
 10
-42.4825449351
 20
86.5941423323
 30
0.0
 11
-42.5
 21
86.5766872673
 31
0.0
  0
LINE
  5
229
100
AcDbEntity
  8
IMPORT_IGES
100
AcDbLine
 62
7
  6
CONTINUOUS
 10
-41.5174550649
 20
87.5592322024
 30
0.0
 11
-41.5
 21
87.5766872673
 31
0.0
  0
LINE
  5
22A
100
AcDbEntity
  8
IMPORT_IGES
100
AcDbLine
 62
7
  6
CONTINUOUS
 10
-57.761258182
 20
73.2337708876
 30
0.0
 11
-58.0754493507
 21
73.0766872673
 31
0.0
  0
LINE
  5
22B
100
AcDbEntity
  8
IMPORT_IGES
100
AcDbLine
 62
7
  6
CONTINUOUS
 10
60.0
 20
-91.9233127327
 30
0.0
 11
7.5
 21
-91.9233127327
 31
0.0
  0
LINE
  5
22C
100
AcDbEntity
  8
IMPORT_IGES
100
AcDbLine
 62
7
  6
CONTINUOUS
 10
-7.5
 20
-91.9233127327
 30
0.0
 11
-60.0
 21
-91.9233127327
 31
0.0
  0
LINE
  5
22D
100
AcDbEntity
  8
IMPORT_IGES
100
AcDbLine
 62
7
  6
CONTINUOUS
 10
7.3427766622
 20
-91.7660893949
 30
0.0
 11
-7.3427766622
 21
-91.7660893949
 31
0.0
  0
LINE
  5
22E
100
AcDbEntity
  8
IMPORT_IGES
100
AcDbLine
 62
7
  6
CONTINUOUS
 10
-64.5000060449
 20
-81.423309407
 30
0.0
 11
-64.2796527165
 21
-81.4967021453
 31
0.0
  0
LINE
  5
22F
100
AcDbEntity
  8
IMPORT_IGES
100
AcDbLine
 62
7
  6
CONTINUOUS
 10
-31.1570836202
 20
128.0879454493
 30
0.0
 11
-31.0
 21
128.4021366181
 31
0.0
  0
LINE
  5
230
100
AcDbEntity
  8
IMPORT_IGES
100
AcDbLine
 62
7
  6
CONTINUOUS
 10
15.8865490573
 20
131.3632363246
 30
0.0
 11
16.0
 21
131.4766872673
 31
0.0
  0
LINE
  5
231
100
AcDbEntity
  8
IMPORT_IGES
100
AcDbLine
 62
7
  6
CONTINUOUS
 10
12.5329645083
 20
-85.9339616489
 30
0.0
 11
12.4695506282
 21
-85.9497909619
 31
0.0
  0
LINE
  5
232
100
AcDbEntity
  8
IMPORT_IGES
100
AcDbLine
 62
7
  6
CONTINUOUS
 10
12.49556032
 20
-83.4430242566
 30
0.0
 11
12.4694201291
 21
-83.4495166125
 31
0.0
  0
LINE
  5
233
100
AcDbEntity
  8
IMPORT_IGES
100
AcDbLine
 62
7
  6
CONTINUOUS
 10
-60.0
 20
-89.9233127327
 30
0.0
 11
-7.5
 21
-89.9233127327
 31
0.0
  0
LINE
  5
234
100
AcDbEntity
  8
IMPORT_IGES
100
AcDbLine
 62
7
  6
CONTINUOUS
 10
7.5
 20
-89.9233127327
 30
0.0
 11
60.0
 21
-89.9233127327
 31
0.0
  0
LINE
  5
235
100
AcDbEntity
  8
IMPORT_IGES
100
AcDbLine
 62
7
  6
CONTINUOUS
 10
7.3427766622
 20
-89.7660893948
 30
0.0
 11
-7.3427766622
 21
-89.7660893948
 31
0.0
  0
LINE
  5
236
100
AcDbEntity
  8
IMPORT_IGES
100
AcDbLine
 62
7
  6
CONTINUOUS
 10
-43.25
 20
-89.4233127327
 30
0.0
 11
43.25
 21
-89.4233127327
 31
0.0
  0
LINE
  5
237
100
AcDbEntity
  8
IMPORT_IGES
100
AcDbLine
 62
7
  6
CONTINUOUS
 10
-43.25
 20
-89.3884026028
 30
0.0
 11
43.25
 21
-89.3884026028
 31
0.0
  0
LINE
  5
238
100
AcDbEntity
  8
IMPORT_IGES
100
AcDbLine
 62
7
  6
CONTINUOUS
 10
32.0
 20
-89.3233127327
 30
0.0
 11
31.0
 21
-89.3233127327
 31
0.0
  0
LINE
  5
239
100
AcDbEntity
  8
IMPORT_IGES
100
AcDbLine
 62
7
  6
CONTINUOUS
 10
16.0
 20
-89.3233127327
 30
0.0
 11
15.0
 21
-89.3233127327
 31
0.0
  0
LINE
  5
23A
100
AcDbEntity
  8
IMPORT_IGES
100
AcDbLine
 62
7
  6
CONTINUOUS
 10
-15.0
 20
-89.3233127327
 30
0.0
 11
-16.0
 21
-89.3233127327
 31
0.0
  0
LINE
  5
23B
100
AcDbEntity
  8
IMPORT_IGES
100
AcDbLine
 62
7
  6
CONTINUOUS
 10
-31.0
 20
-89.3233127327
 30
0.0
 11
-32.0
 21
-89.3233127327
 31
0.0
  0
LINE
  5
23C
100
AcDbEntity
  8
IMPORT_IGES
100
AcDbLine
 62
7
  6
CONTINUOUS
 10
-31.8865490573
 20
-89.2098617899
 30
0.0
 11
-31.1134509427
 21
-89.2098617899
 31
0.0
  0
LINE
  5
23D
100
AcDbEntity
  8
IMPORT_IGES
100
AcDbLine
 62
7
  6
CONTINUOUS
 10
31.8865490573
 20
-89.2098617899
 30
0.0
 11
31.1134509427
 21
-89.2098617899
 31
0.0
  0
LINE
  5
23E
100
AcDbEntity
  8
IMPORT_IGES
100
AcDbLine
 62
7
  6
CONTINUOUS
 10
15.8865490573
 20
-89.2098617899
 30
0.0
 11
15.1134509427
 21
-89.2098617899
 31
0.0
  0
LINE
  5
23F
100
AcDbEntity
  8
IMPORT_IGES
100
AcDbLine
 62
7
  6
CONTINUOUS
 10
-15.1134509427
 20
-89.2098617899
 30
0.0
 11
-15.8865490573
 21
-89.2098617899
 31
0.0
  0
LINE
  5
240
100
AcDbEntity
  8
IMPORT_IGES
100
AcDbLine
 62
7
  6
CONTINUOUS
 10
47.7986080209
 20
-88.8377626135
 30
0.0
 11
54.3180145702
 21
-88.8377641459
 31
0.0
  0
LINE
  5
241
100
AcDbEntity
  8
IMPORT_IGES
100
AcDbLine
 62
7
  6
CONTINUOUS
 10
-54.3186165674
 20
-88.8377760627
 30
0.0
 11
-47.7986191469
 21
-88.8377706753
 31
0.0
  0
LINE
  5
242
100
AcDbEntity
  8
IMPORT_IGES
100
AcDbLine
 62
7
  6
CONTINUOUS
 10
56.5145458618
 20
-88.6281282913
 30
0.0
 11
48.5361404502
 21
-88.6281282913
 31
0.0
  0
LINE
  5
243
100
AcDbEntity
  8
IMPORT_IGES
100
AcDbLine
 62
7
  6
CONTINUOUS
 10
-48.5361167793
 20
-88.6281282913
 30
0.0
 11
-56.5145458618
 21
-88.6281282913
 31
0.0
  0
LINE
  5
244
100
AcDbEntity
  8
IMPORT_IGES
100
AcDbLine
 62
7
  6
CONTINUOUS
 10
56.5145458999
 20
-88.5739485728
 30
0.0
 11
48.7079127475
 21
-88.5739595774
 31
0.0
  0
LINE
  5
245
100
AcDbEntity
  8
IMPORT_IGES
100
AcDbLine
 62
7
  6
CONTINUOUS
 10
-48.7077654187
 20
-88.57401759
 30
0.0
 11
-56.5145458618
 21
-88.57401759
 31
0.0
  0
LINE
  5
246
100
AcDbEntity
  8
IMPORT_IGES
100
AcDbLine
 62
7
  6
CONTINUOUS
 10
-56.5145459278
 20
-87.2820845234
 30
0.0
 11
-51.7636840003
 21
-87.2820995122
 31
0.0
  0
LINE
  5
247
100
AcDbEntity
  8
IMPORT_IGES
100
AcDbLine
 62
7
  6
CONTINUOUS
 10
51.7633790464
 20
-87.2821764839
 30
0.0
 11
56.5145459085
 21
-87.2821697661
 31
0.0
  0
LINE
  5
248
100
AcDbEntity
  8
IMPORT_IGES
100
AcDbLine
 62
7
  6
CONTINUOUS
 10
-56.5145458618
 20
-87.2298737978
 30
0.0
 11
-51.8591338146
 21
-87.2298737978
 31
0.0
  0
LINE
  5
249
100
AcDbEntity
  8
IMPORT_IGES
100
AcDbLine
 62
7
  6
CONTINUOUS
 10
51.8592451833
 20
-87.2298737978
 30
0.0
 11
56.5145458618
 21
-87.2298737978
 31
0.0
  0
LINE
  5
24A
100
AcDbEntity
  8
IMPORT_IGES
100
AcDbLine
 62
7
  6
CONTINUOUS
 10
-31.8429163798
 20
-86.4162291124
 30
0.0
 11
-31.1570836202
 21
-86.4162291124
 31
0.0
  0
LINE
  5
24B
100
AcDbEntity
  8
IMPORT_IGES
100
AcDbLine
 62
7
  6
CONTINUOUS
 10
31.8429163798
 20
-86.4162291125
 30
0.0
 11
31.1570836202
 21
-86.4162291125
 31
0.0
  0
LINE
  5
24C
100
AcDbEntity
  8
IMPORT_IGES
100
AcDbLine
 62
7
  6
CONTINUOUS
 10
15.8429163798
 20
-86.4162291125
 30
0.0
 11
15.1570836202
 21
-86.4162291125
 31
0.0
  0
LINE
  5
24D
100
AcDbEntity
  8
IMPORT_IGES
100
AcDbLine
 62
7
  6
CONTINUOUS
 10
-15.1570836202
 20
-86.4162291125
 30
0.0
 11
-15.8429163798
 21
-86.4162291125
 31
0.0
  0
LINE
  5
24E
100
AcDbEntity
  8
IMPORT_IGES
100
AcDbLine
 62
7
  6
CONTINUOUS
 10
43.25
 20
-86.2487620834
 30
0.0
 11
32.0
 21
-86.2487620834
 31
0.0
  0
LINE
  5
24F
100
AcDbEntity
  8
IMPORT_IGES
100
AcDbLine
 62
7
  6
CONTINUOUS
 10
31.0
 20
-86.2487620834
 30
0.0
 11
16.0
 21
-86.2487620834
 31
0.0
  0
LINE
  5
250
100
AcDbEntity
  8
IMPORT_IGES
100
AcDbLine
 62
7
  6
CONTINUOUS
 10
15.0
 20
-86.2487620834
 30
0.0
 11
-15.0
 21
-86.2487620834
 31
0.0
  0
LINE
  5
251
100
AcDbEntity
  8
IMPORT_IGES
100
AcDbLine
 62
7
  6
CONTINUOUS
 10
-16.0
 20
-86.2487620834
 30
0.0
 11
-31.0
 21
-86.2487620834
 31
0.0
  0
LINE
  5
252
100
AcDbEntity
  8
IMPORT_IGES
100
AcDbLine
 62
7
  6
CONTINUOUS
 10
-32.0
 20
-86.2487620834
 30
0.0
 11
-43.25
 21
-86.2487620834
 31
0.0
  0
LINE
  5
253
100
AcDbEntity
  8
IMPORT_IGES
100
AcDbLine
 62
7
  6
CONTINUOUS
 10
31.8429163798
 20
-85.9345709147
 30
0.0
 11
31.1570836202
 21
-85.9345709147
 31
0.0
  0
LINE
  5
254
100
AcDbEntity
  8
IMPORT_IGES
100
AcDbLine
 62
7
  6
CONTINUOUS
 10
15.8429163798
 20
-85.9345709147
 30
0.0
 11
15.1570836202
 21
-85.9345709147
 31
0.0
  0
LINE
  5
255
100
AcDbEntity
  8
IMPORT_IGES
100
AcDbLine
 62
7
  6
CONTINUOUS
 10
-15.1570836202
 20
-85.9345709147
 30
0.0
 11
-15.8429163798
 21
-85.9345709147
 31
0.0
  0
LINE
  5
256
100
AcDbEntity
  8
IMPORT_IGES
100
AcDbLine
 62
7
  6
CONTINUOUS
 10
-31.1570836202
 20
-85.9345709147
 30
0.0
 11
-31.8429163798
 21
-85.9345709147
 31
0.0
  0
LINE
  5
257
100
AcDbEntity
  8
IMPORT_IGES
100
AcDbLine
 62
250
  6
CONTINUOUS
 10
43.2499999956
 20
-85.9339616489
 30
0.0
 11
31.8429163798
 21
-85.9345709147
 31
0.0
  0
LINE
  5
258
100
AcDbEntity
  8
IMPORT_IGES
100
AcDbLine
 62
250
  6
CONTINUOUS
 10
31.1570836202
 20
-85.9345709147
 30
0.0
 11
15.8429163798
 21
-85.9345709147
 31
0.0
  0
LINE
  5
259
100
AcDbEntity
  8
IMPORT_IGES
100
AcDbLine
 62
250
  6
CONTINUOUS
 10
15.1570836202
 20
-85.9345709147
 30
0.0
 11
12.5329645083
 21
-85.9339616489
 31
0.0
  0
LINE
  5
25A
100
AcDbEntity
  8
IMPORT_IGES
100
AcDbLine
 62
250
  6
CONTINUOUS
 10
-12.5329645083
 20
-85.9339616489
 30
0.0
 11
-15.1570836202
 21
-85.9345709147
 31
0.0
  0
LINE
  5
25B
100
AcDbEntity
  8
IMPORT_IGES
100
AcDbLine
 62
250
  6
CONTINUOUS
 10
-15.8429163798
 20
-85.9345709147
 30
0.0
 11
-31.1570836202
 21
-85.9345709147
 31
0.0
  0
LINE
  5
25C
100
AcDbEntity
  8
IMPORT_IGES
100
AcDbLine
 62
250
  6
CONTINUOUS
 10
-31.8429163798
 20
-85.9345709147
 30
0.0
 11
-43.2499999987
 21
-85.9339616489
 31
0.0
  0
LINE
  5
25D
100
AcDbEntity
  8
IMPORT_IGES
100
AcDbLine
 62
250
  6
CONTINUOUS
 10
-64.5
 20
-85.4233127327
 30
0.0
 11
-63.9307632748
 21
-85.423312847
 31
0.0
  0
LINE
  5
25E
100
AcDbEntity
  8
IMPORT_IGES
100
AcDbLine
 62
250
  6
CONTINUOUS
 10
63.9307632745
 20
-85.4233127327
 30
0.0
 11
64.5
 21
-85.4233127327
 31
0.0
  0
LINE
  5
25F
100
AcDbEntity
  8
IMPORT_IGES
100
AcDbLine
 62
250
  6
CONTINUOUS
 10
-43.2500000004
 20
-83.9342662586
 30
0.0
 11
-12.6703773499
 21
-83.9342662586
 31
0.0
  0
LINE
  5
260
100
AcDbEntity
  8
IMPORT_IGES
100
AcDbLine
 62
250
  6
CONTINUOUS
 10
12.6703773499
 20
-83.9342662586
 30
0.0
 11
43.2500000004
 21
-83.9342662586
 31
0.0
  0
LINE
  5
261
100
AcDbEntity
  8
IMPORT_IGES
100
AcDbLine
 62
7
  6
CONTINUOUS
 10
42.5
 20
-83.8996607849
 30
0.0
 11
41.5
 21
-83.8996607849
 31
0.0
  0
LINE
  5
262
100
AcDbEntity
  8
IMPORT_IGES
100
AcDbLine
 62
7
  6
CONTINUOUS
 10
21.5
 20
-83.8996607849
 30
0.0
 11
20.5
 21
-83.8996607849
 31
0.0
  0
LINE
  5
263
100
AcDbEntity
  8
IMPORT_IGES
100
AcDbLine
 62
7
  6
CONTINUOUS
 10
-20.5
 20
-83.8996607849
 30
0.0
 11
-21.5
 21
-83.8996607849
 31
0.0
  0
LINE
  5
264
100
AcDbEntity
  8
IMPORT_IGES
100
AcDbLine
 62
7
  6
CONTINUOUS
 10
-41.5
 20
-83.8996607849
 30
0.0
 11
-42.5
 21
-83.8996607849
 31
0.0
  0
LINE
  5
265
100
AcDbEntity
  8
IMPORT_IGES
100
AcDbLine
 62
7
  6
CONTINUOUS
 10
-12.49556032
 20
-83.4430242566
 30
0.0
 11
12.49556032
 21
-83.4430242566
 31
0.0
  0
LINE
  5
266
100
AcDbEntity
  8
IMPORT_IGES
100
AcDbLine
 62
250
  6
CONTINUOUS
 10
-42.4825449351
 20
-82.1676099773
 30
0.0
 11
-41.5174550649
 21
-82.1676099773
 31
0.0
  0
LINE
  5
267
100
AcDbEntity
  8
IMPORT_IGES
100
AcDbLine
 62
250
  6
CONTINUOUS
 10
-21.4825449351
 20
-82.1676099773
 30
0.0
 11
-20.5174550649
 21
-82.1676099773
 31
0.0
  0
LINE
  5
268
100
AcDbEntity
  8
IMPORT_IGES
100
AcDbLine
 62
250
  6
CONTINUOUS
 10
20.5174550649
 20
-82.1676099773
 30
0.0
 11
21.4825449351
 21
-82.1676099773
 31
0.0
  0
LINE
  5
269
100
AcDbEntity
  8
IMPORT_IGES
100
AcDbLine
 62
250
  6
CONTINUOUS
 10
41.5174550649
 20
-82.1676099773
 30
0.0
 11
42.4825449351
 21
-82.1676099773
 31
0.0
  0
LINE
  5
26A
100
AcDbEntity
  8
IMPORT_IGES
100
AcDbLine
 62
250
  6
CONTINUOUS
 10
-63.6048155586
 20
-81.5378585945
 30
0.0
 11
-63.5507048573
 21
-81.5378585945
 31
0.0
  0
LINE
  5
26B
100
AcDbEntity
  8
IMPORT_IGES
100
AcDbLine
 62
250
  6
CONTINUOUS
 10
-62.2589262598
 20
-81.5378585945
 30
0.0
 11
-62.2065610651
 21
-81.5378585945
 31
0.0
  0
LINE
  5
26C
100
AcDbEntity
  8
IMPORT_IGES
100
AcDbLine
 62
250
  6
CONTINUOUS
 10
62.2065610651
 20
-81.5378585945
 30
0.0
 11
62.2589262598
 21
-81.5378585945
 31
0.0
  0
LINE
  5
26D
100
AcDbEntity
  8
IMPORT_IGES
100
AcDbLine
 62
250
  6
CONTINUOUS
 10
63.5507048573
 20
-81.5378585945
 30
0.0
 11
63.6048155586
 21
-81.5378585945
 31
0.0
  0
LINE
  5
26E
100
AcDbEntity
  8
IMPORT_IGES
100
AcDbLine
 62
7
  6
CONTINUOUS
 10
-12.49556032
 20
-81.4308057112
 30
0.0
 11
12.49556032
 21
-81.4308057112
 31
0.0
  0
LINE
  5
26F
100
AcDbEntity
  8
IMPORT_IGES
100
AcDbLine
 62
7
  6
CONTINUOUS
 10
-12.6703773499
 20
-81.3435037874
 30
0.0
 11
-0.5
 21
-81.3435037874
 31
0.0
  0
LINE
  5
270
100
AcDbEntity
  8
IMPORT_IGES
100
AcDbLine
 62
7
  6
CONTINUOUS
 10
0.5
 20
-81.3435037874
 30
0.0
 11
12.6703773499
 21
-81.3435037874
 31
0.0
  0
LINE
  5
271
100
AcDbEntity
  8
IMPORT_IGES
100
AcDbLine
 62
7
  6
CONTINUOUS
 10
-0.4825449351
 20
-81.3085830179
 30
0.0
 11
0.4825449351
 21
-81.3085830179
 31
0.0
  0
LINE
  5
272
100
AcDbEntity
  8
0
100
AcDbLine
 62
7
  6
CONTINUOUS
 10
-61.63
 20
-80.3933127327
 30
0.0
 11
-58.8551420894
 21
-80.3933127327
 31
0.0
  0
LINE
  5
273
100
AcDbEntity
  8
0
100
AcDbLine
 62
7
  6
CONTINUOUS
 10
58.8552301889
 20
-80.3933127327
 30
0.0
 11
61.63
 21
-80.3933127327
 31
0.0
  0
LINE
  5
274
100
AcDbEntity
  8
IMPORT_IGES
100
AcDbLine
 62
7
  6
CONTINUOUS
 10
-12.4694201291
 20
-83.4495166125
 30
0.0
 11
-12.49556032
 21
-83.4430242566
 31
0.0
  0
LINE
  5
275
100
AcDbEntity
  8
IMPORT_IGES
100
AcDbLine
 62
7
  6
CONTINUOUS
 10
-12.4695506283
 20
-85.9497909619
 30
0.0
 11
-12.5329645083
 21
-85.9339616489
 31
0.0
  0
LINE
  5
276
100
AcDbEntity
  8
IMPORT_IGES
100
AcDbLine
 62
250
  6
CONTINUOUS
 10
-33.3299201443
 20
-89.666975276
 30
0.0
 11
-33.3430664616
 21
-89.6538469755
 31
0.0
  0
LINE
  5
277
100
AcDbEntity
  8
IMPORT_IGES
100
AcDbLine
 62
7
  6
CONTINUOUS
 10
-31.1134509427
 20
-89.2098617899
 30
0.0
 11
-31.0
 21
-89.3233127327
 31
0.0
  0
LINE
  5
278
100
AcDbEntity
  8
IMPORT_IGES
100
AcDbLine
 62
7
  6
CONTINUOUS
 10
-15.1570836202
 20
128.0879454493
 30
0.0
 11
-15.0
 21
128.4021366181
 31
0.0
  0
LINE
  5
279
100
AcDbEntity
  8
IMPORT_IGES
100
AcDbLine
 62
7
  6
CONTINUOUS
 10
-61.0365490573
 20
52.1901382101
 30
0.0
 11
-61.15
 21
52.0766872673
 31
0.0
  0
LINE
  5
27A
100
AcDbEntity
  8
IMPORT_IGES
100
AcDbLine
 62
7
  6
CONTINUOUS
 10
-0.4825449351
 20
112.5941423323
 30
0.0
 11
-0.5
 21
112.5766872673
 31
0.0
  0
LINE
  5
27B
100
AcDbEntity
  8
IMPORT_IGES
100
AcDbLine
 62
7
  6
CONTINUOUS
 10
0.4825449351
 20
113.5592322024
 30
0.0
 11
0.5
 21
113.5766872673
 31
0.0
  0
LINE
  5
27C
100
AcDbEntity
  8
IMPORT_IGES
100
AcDbLine
 62
7
  6
CONTINUOUS
 10
-21.4825449351
 20
86.5941423323
 30
0.0
 11
-21.5
 21
86.5766872673
 31
0.0
  0
LINE
  5
27D
100
AcDbEntity
  8
IMPORT_IGES
100
AcDbLine
 62
7
  6
CONTINUOUS
 10
-20.5174550649
 20
87.5592322024
 30
0.0
 11
-20.5
 21
87.5766872673
 31
0.0
  0
LINE
  5
27E
100
AcDbEntity
  8
IMPORT_IGES
100
AcDbLine
 62
7
  6
CONTINUOUS
 10
-42.4825449351
 20
63.5941423323
 30
0.0
 11
-42.5
 21
63.5766872673
 31
0.0
  0
LINE
  5
27F
100
AcDbEntity
  8
IMPORT_IGES
100
AcDbLine
 62
7
  6
CONTINUOUS
 10
-41.5174550649
 20
64.5592322024
 30
0.0
 11
-41.5
 21
64.5766872673
 31
0.0
  0
LINE
  5
280
100
AcDbEntity
  8
IMPORT_IGES
100
AcDbLine
 62
7
  6
CONTINUOUS
 10
31.8865490573
 20
131.3632363246
 30
0.0
 11
32.0
 21
131.4766872673
 31
0.0
  0
LINE
  5
281
100
AcDbEntity
  8
IMPORT_IGES
100
AcDbLine
 62
7
  6
CONTINUOUS
 10
-57.761258182
 20
52.2337708876
 30
0.0
 11
-58.0754493507
 21
52.0766872673
 31
0.0
  0
LINE
  5
282
100
AcDbEntity
  8
IMPORT_IGES
100
AcDbLine
 62
250
  6
CONTINUOUS
 10
-61.25
 20
-71.4233127327
 30
0.0
 11
-61.2150898701
 21
-71.4233127327
 31
0.0
  0
LINE
  5
283
100
AcDbEntity
  8
IMPORT_IGES
100
AcDbLine
 62
7
  6
CONTINUOUS
 10
-55.7263480522
 20
-71.4233127327
 30
0.0
 11
-42.5
 21
-71.4233127327
 31
0.0
  0
LINE
  5
284
100
AcDbEntity
  8
IMPORT_IGES
100
AcDbLine
 62
7
  6
CONTINUOUS
 10
-41.5
 20
-71.4233127327
 30
0.0
 11
-21.5
 21
-71.4233127327
 31
0.0
  0
LINE
  5
285
100
AcDbEntity
  8
IMPORT_IGES
100
AcDbLine
 62
7
  6
CONTINUOUS
 10
-20.5
 20
-71.4233127327
 30
0.0
 11
-0.5
 21
-71.4233127327
 31
0.0
  0
LINE
  5
286
100
AcDbEntity
  8
IMPORT_IGES
100
AcDbLine
 62
7
  6
CONTINUOUS
 10
0.5
 20
-71.4233127327
 30
0.0
 11
20.5
 21
-71.4233127327
 31
0.0
  0
LINE
  5
287
100
AcDbEntity
  8
IMPORT_IGES
100
AcDbLine
 62
7
  6
CONTINUOUS
 10
21.5
 20
-71.4233127327
 30
0.0
 11
41.5
 21
-71.4233127327
 31
0.0
  0
LINE
  5
288
100
AcDbEntity
  8
IMPORT_IGES
100
AcDbLine
 62
7
  6
CONTINUOUS
 10
42.5
 20
-71.4233127327
 30
0.0
 11
55.7263480521
 21
-71.4233127327
 31
0.0
  0
LINE
  5
289
100
AcDbEntity
  8
IMPORT_IGES
100
AcDbLine
 62
250
  6
CONTINUOUS
 10
55.7609535259
 20
-71.4233127327
 30
0.0
 11
58.0754493507
 21
-71.4233127327
 31
0.0
  0
LINE
  5
28A
100
AcDbEntity
  8
IMPORT_IGES
100
AcDbLine
 62
250
  6
CONTINUOUS
 10
-55.7609535259
 20
-71.4233127327
 30
0.0
 11
-58.0754493507
 21
-71.4233127327
 31
0.0
  0
LINE
  5
28B
100
AcDbEntity
  8
IMPORT_IGES
100
AcDbLine
 62
250
  6
CONTINUOUS
 10
61.2150898701
 20
-71.4233127327
 30
0.0
 11
61.25
 21
-71.4233127327
 31
0.0
  0
LINE
  5
28C
100
AcDbEntity
  8
IMPORT_IGES
100
AcDbLine
 62
7
  6
CONTINUOUS
 10
53.9942972446
 20
-71.4058576678
 30
0.0
 11
42.4825449351
 21
-71.4058576678
 31
0.0
  0
LINE
  5
28D
100
AcDbEntity
  8
IMPORT_IGES
100
AcDbLine
 62
7
  6
CONTINUOUS
 10
41.5174550649
 20
-71.4058576678
 30
0.0
 11
21.4825449351
 21
-71.4058576678
 31
0.0
  0
LINE
  5
28E
100
AcDbEntity
  8
IMPORT_IGES
100
AcDbLine
 62
7
  6
CONTINUOUS
 10
20.5174550649
 20
-71.4058576678
 30
0.0
 11
0.4825449351
 21
-71.4058576678
 31
0.0
  0
LINE
  5
28F
100
AcDbEntity
  8
IMPORT_IGES
100
AcDbLine
 62
7
  6
CONTINUOUS
 10
-0.4825449351
 20
-71.4058576678
 30
0.0
 11
-20.5174550649
 21
-71.4058576678
 31
0.0
  0
LINE
  5
290
100
AcDbEntity
  8
IMPORT_IGES
100
AcDbLine
 62
7
  6
CONTINUOUS
 10
-21.4825449351
 20
-71.4058576678
 30
0.0
 11
-41.5174550649
 21
-71.4058576678
 31
0.0
  0
LINE
  5
291
100
AcDbEntity
  8
IMPORT_IGES
100
AcDbLine
 62
7
  6
CONTINUOUS
 10
-42.4825449351
 20
-71.4058576678
 30
0.0
 11
-53.9942972446
 21
-71.4058576678
 31
0.0
  0
LINE
  5
292
100
AcDbEntity
  8
IMPORT_IGES
100
AcDbLine
 62
7
  6
CONTINUOUS
 10
-53.9942972446
 20
-70.4407677976
 30
0.0
 11
-42.4825449351
 21
-70.4407677976
 31
0.0
  0
LINE
  5
293
100
AcDbEntity
  8
IMPORT_IGES
100
AcDbLine
 62
7
  6
CONTINUOUS
 10
-41.5174550649
 20
-70.4407677976
 30
0.0
 11
-21.4825449351
 21
-70.4407677976
 31
0.0
  0
LINE
  5
294
100
AcDbEntity
  8
IMPORT_IGES
100
AcDbLine
 62
7
  6
CONTINUOUS
 10
-20.5174550649
 20
-70.4407677976
 30
0.0
 11
-0.4825449351
 21
-70.4407677976
 31
0.0
  0
LINE
  5
295
100
AcDbEntity
  8
IMPORT_IGES
100
AcDbLine
 62
7
  6
CONTINUOUS
 10
0.4825449351
 20
-70.4407677976
 30
0.0
 11
20.5174550649
 21
-70.4407677976
 31
0.0
  0
LINE
  5
296
100
AcDbEntity
  8
IMPORT_IGES
100
AcDbLine
 62
7
  6
CONTINUOUS
 10
21.4825449351
 20
-70.4407677976
 30
0.0
 11
41.5174550649
 21
-70.4407677976
 31
0.0
  0
LINE
  5
297
100
AcDbEntity
  8
IMPORT_IGES
100
AcDbLine
 62
7
  6
CONTINUOUS
 10
42.4825449351
 20
-70.4407677976
 30
0.0
 11
53.9942972446
 21
-70.4407677976
 31
0.0
  0
LINE
  5
298
100
AcDbEntity
  8
IMPORT_IGES
100
AcDbLine
 62
7
  6
CONTINUOUS
 10
-55.7263480522
 20
-70.4233127327
 30
0.0
 11
-42.5
 21
-70.4233127327
 31
0.0
  0
LINE
  5
299
100
AcDbEntity
  8
IMPORT_IGES
100
AcDbLine
 62
7
  6
CONTINUOUS
 10
-41.5
 20
-70.4233127327
 30
0.0
 11
-21.5
 21
-70.4233127327
 31
0.0
  0
LINE
  5
29A
100
AcDbEntity
  8
IMPORT_IGES
100
AcDbLine
 62
7
  6
CONTINUOUS
 10
-20.5
 20
-70.4233127327
 30
0.0
 11
-0.5
 21
-70.4233127327
 31
0.0
  0
LINE
  5
29B
100
AcDbEntity
  8
IMPORT_IGES
100
AcDbLine
 62
7
  6
CONTINUOUS
 10
0.5
 20
-70.4233127327
 30
0.0
 11
20.5
 21
-70.4233127327
 31
0.0
  0
LINE
  5
29C
100
AcDbEntity
  8
IMPORT_IGES
100
AcDbLine
 62
7
  6
CONTINUOUS
 10
21.5
 20
-70.4233127327
 30
0.0
 11
41.5
 21
-70.4233127327
 31
0.0
  0
LINE
  5
29D
100
AcDbEntity
  8
IMPORT_IGES
100
AcDbLine
 62
7
  6
CONTINUOUS
 10
42.5
 20
-70.4233127327
 30
0.0
 11
55.7263480521
 21
-70.4233127327
 31
0.0
  0
LINE
  5
29E
100
AcDbEntity
  8
IMPORT_IGES
100
AcDbLine
 62
7
  6
CONTINUOUS
 10
-12.6703773499
 20
-81.3435037874
 30
0.0
 11
-12.49556032
 21
-81.4308057112
 31
0.0
  0
LINE
  5
29F
100
AcDbEntity
  8
IMPORT_IGES
100
AcDbLine
 62
7
  6
CONTINUOUS
 10
-57.761258182
 20
-52.0803963529
 30
0.0
 11
-58.0754493507
 21
-51.9233127327
 31
0.0
  0
LINE
  5
2A0
100
AcDbEntity
  8
IMPORT_IGES
100
AcDbLine
 62
7
  6
CONTINUOUS
 10
-61.0365490573
 20
-52.0367636754
 30
0.0
 11
-61.15
 21
-51.9233127327
 31
0.0
  0
LINE
  5
2A1
100
AcDbEntity
  8
IMPORT_IGES
100
AcDbLine
 62
7
  6
CONTINUOUS
 10
-42.4825449351
 20
-70.4407677976
 30
0.0
 11
-42.5
 21
-70.4233127327
 31
0.0
  0
LINE
  5
2A2
100
AcDbEntity
  8
IMPORT_IGES
100
AcDbLine
 62
7
  6
CONTINUOUS
 10
-41.5174550649
 20
-71.4058576677
 30
0.0
 11
-41.5
 21
-71.4233127327
 31
0.0
  0
LINE
  5
2A3
100
AcDbEntity
  8
IMPORT_IGES
100
AcDbLine
 62
7
  6
CONTINUOUS
 10
-15.1134509427
 20
-89.2098617899
 30
0.0
 11
-15.0
 21
-89.3233127327
 31
0.0
  0
LINE
  5
2A4
100
AcDbEntity
  8
IMPORT_IGES
100
AcDbLine
 62
7
  6
CONTINUOUS
 10
-66.5
 20
-85.4233127327
 30
0.0
 11
-66.5
 21
130.7766872673
 31
0.0
  0
LINE
  5
2A5
100
AcDbEntity
  8
IMPORT_IGES
100
AcDbLine
 62
250
  6
CONTINUOUS
 10
-64.2796527157
 20
-85.4233127325
 30
0.0
 11
-64.2796527165
 21
-81.4967021453
 31
0.0
  0
LINE
  5
2A6
100
AcDbEntity
  8
IMPORT_IGES
100
AcDbLine
 62
250
  6
CONTINUOUS
 10
-64.2796527165
 20
-80.1499233201
 30
0.0
 11
-64.2796527165
 21
131.5766872647
 31
0.0
  0
LINE
  5
2A7
100
AcDbEntity
  8
IMPORT_IGES
100
AcDbLine
 62
250
  6
CONTINUOUS
 10
-63.9962403425
 20
-80.2147375167
 30
0.0
 11
-63.9962403425
 21
-81.4318879487
 31
0.0
  0
LINE
  5
2A8
100
AcDbEntity
  8
IMPORT_IGES
100
AcDbLine
 62
250
  6
CONTINUOUS
 10
-63.9298066467
 20
-81.4983216445
 30
0.0
 11
-63.9298066467
 21
-80.1483038208
 31
0.0
  0
LINE
  5
2A9
100
AcDbEntity
  8
IMPORT_IGES
100
AcDbLine
 62
7
  6
CONTINUOUS
 10
-63.9235262325
 20
-80.1410688587
 30
0.0
 11
-63.9307632745
 21
131.5766872673
 31
0.0
  0
LINE
  5
2AA
100
AcDbEntity
  8
IMPORT_IGES
100
AcDbLine
 62
7
  6
CONTINUOUS
 10
-63.714817725
 20
127.1356958124
 30
0.0
 11
-63.714817725
 21
-81.6478607609
 31
0.0
  0
LINE
  5
2AB
100
AcDbEntity
  8
IMPORT_IGES
100
AcDbLine
 62
7
  6
CONTINUOUS
 10
-63.6048155586
 20
-81.5378585945
 30
0.0
 11
-63.6048155586
 21
127.0256936461
 31
0.0
  0
LINE
  5
2AC
100
AcDbEntity
  8
IMPORT_IGES
100
AcDbLine
 62
7
  6
CONTINUOUS
 10
-63.5507048573
 20
-81.5378585945
 30
0.0
 11
-63.55064958
 21
127.0256936746
 31
0.0
  0
LINE
  5
2AD
100
AcDbEntity
  8
IMPORT_IGES
100
AcDbLine
 62
7
  6
CONTINUOUS
 10
-62.2588738341
 20
127.0256936784
 30
0.0
 11
-62.2587717908
 21
-81.5378586604
 31
0.0
  0
LINE
  5
2AE
100
AcDbEntity
  8
IMPORT_IGES
100
AcDbLine
 62
7
  6
CONTINUOUS
 10
-62.2065610651
 20
127.0256936461
 30
0.0
 11
-62.2065610651
 21
-81.5378585945
 31
0.0
  0
LINE
  5
2AF
100
AcDbEntity
  8
RACCORDO
100
AcDbLine
 62
7
  6
CONTINUOUS
 10
-61.65
 20
127.0112555099
 30
0.0
 11
-61.65
 21
124.8112555099
 31
0.0
  0
LINE
  5
2B0
100
AcDbEntity
  8
0
100
AcDbLine
 62
7
  6
CONTINUOUS
 10
-61.63
 20
124.3066872673
 30
0.0
 11
-61.63
 21
-80.3933127327
 31
0.0
  0
LINE
  5
2B1
100
AcDbEntity
  8
IMPORT_IGES
100
AcDbLine
 62
7
  6
CONTINUOUS
 10
-61.25
 20
113.5794285457
 30
0.0
 11
-61.25
 21
-71.4233127327
 31
0.0
  0
LINE
  5
2B2
100
AcDbEntity
  8
IMPORT_IGES
100
AcDbLine
 62
7
  6
CONTINUOUS
 10
-61.2150898701
 20
113.5794285457
 30
0.0
 11
-61.2150898701
 21
-71.4233127327
 31
0.0
  0
LINE
  5
2B3
100
AcDbEntity
  8
IMPORT_IGES
100
AcDbLine
 62
7
  6
CONTINUOUS
 10
-61.15
 20
-52.9233127327
 30
0.0
 11
-61.15
 21
-51.9233127327
 31
0.0
  0
LINE
  5
2B4
100
AcDbEntity
  8
IMPORT_IGES
100
AcDbLine
 62
7
  6
CONTINUOUS
 10
-61.15
 20
-31.9233127327
 30
0.0
 11
-61.15
 21
-30.9233127327
 31
0.0
  0
LINE
  5
2B5
100
AcDbEntity
  8
IMPORT_IGES
100
AcDbLine
 62
7
  6
CONTINUOUS
 10
-61.15
 20
-10.9233127327
 30
0.0
 11
-61.15
 21
-9.9233127327
 31
0.0
  0
LINE
  5
2B6
100
AcDbEntity
  8
IMPORT_IGES
100
AcDbLine
 62
7
  6
CONTINUOUS
 10
-61.15
 20
52.0766872673
 30
0.0
 11
-61.15
 21
53.0766872673
 31
0.0
  0
LINE
  5
2B7
100
AcDbEntity
  8
IMPORT_IGES
100
AcDbLine
 62
7
  6
CONTINUOUS
 10
-61.15
 20
73.0766872673
 30
0.0
 11
-61.15
 21
74.0766872673
 31
0.0
  0
LINE
  5
2B8
100
AcDbEntity
  8
IMPORT_IGES
100
AcDbLine
 62
7
  6
CONTINUOUS
 10
-61.15
 20
94.0766872673
 30
0.0
 11
-61.15
 21
95.0766872673
 31
0.0
  0
LINE
  5
2B9
100
AcDbEntity
  8
IMPORT_IGES
100
AcDbLine
 62
7
  6
CONTINUOUS
 10
-61.0365490573
 20
94.9632363246
 30
0.0
 11
-61.0365490573
 21
94.1901382101
 31
0.0
  0
LINE
  5
2BA
100
AcDbEntity
  8
IMPORT_IGES
100
AcDbLine
 62
7
  6
CONTINUOUS
 10
-61.0365490573
 20
73.9632363246
 30
0.0
 11
-61.0365490573
 21
73.1901382101
 31
0.0
  0
LINE
  5
2BB
100
AcDbEntity
  8
IMPORT_IGES
100
AcDbLine
 62
7
  6
CONTINUOUS
 10
-61.0365490573
 20
-52.80986179
 30
0.0
 11
-61.0365490573
 21
-52.0367636754
 31
0.0
  0
LINE
  5
2BC
100
AcDbEntity
  8
IMPORT_IGES
100
AcDbLine
 62
7
  6
CONTINUOUS
 10
-61.0365490573
 20
-31.8098617899
 30
0.0
 11
-61.0365490573
 21
-31.0367636754
 31
0.0
  0
LINE
  5
2BD
100
AcDbEntity
  8
IMPORT_IGES
100
AcDbLine
 62
7
  6
CONTINUOUS
 10
-61.0365490573
 20
-10.8098617899
 30
0.0
 11
-61.0365490573
 21
-10.0367636754
 31
0.0
  0
LINE
  5
2BE
100
AcDbEntity
  8
IMPORT_IGES
100
AcDbLine
 62
7
  6
CONTINUOUS
 10
-61.0365490573
 20
52.1901382101
 30
0.0
 11
-61.0365490573
 21
52.9632363246
 31
0.0
  0
LINE
  5
2BF
100
AcDbEntity
  8
IMPORT_IGES
100
AcDbLine
 62
250
  6
CONTINUOUS
 10
-60.0000000804
 20
135.7958677349
 30
0.0
 11
-60.0
 21
136.0379358928
 31
0.0
  0
LINE
  5
2C0
100
AcDbEntity
  8
IMPORT_IGES
100
AcDbLine
 62
250
  6
CONTINUOUS
 10
-59.9999999985
 20
-89.6424904473
 30
0.0
 11
-60.0
 21
-89.9233127327
 31
0.0
  0
LINE
  5
2C1
100
AcDbEntity
  8
IMPORT_IGES
100
AcDbLine
 62
7
  6
CONTINUOUS
 10
-64.5
 20
130.7766872673
 30
0.0
 11
-64.5
 21
-85.4233127327
 31
0.0
  0
LINE
  5
2C2
100
AcDbEntity
  8
IMPORT_IGES
100
AcDbLine
 62
7
  6
CONTINUOUS
 10
-63.9307632745
 20
-85.4233127327
 30
0.0
 11
-63.9253379184
 21
-81.505549612
 31
0.0
  0
LINE
  5
2C3
100
AcDbEntity
  8
IMPORT_IGES
100
AcDbLine
 62
7
  6
CONTINUOUS
 10
-66.4941076536
 20
131.5766872673
 30
0.0
 11
-66.5
 21
130.7766872673
 31
0.0
  0
LINE
  5
2C4
100
AcDbEntity
  8
IMPORT_IGES
100
AcDbLine
 62
7
  6
CONTINUOUS
 10
-64.5
 20
130.7766872673
 30
0.0
 11
-64.4941076536
 21
131.5766872673
 31
0.0
  0
LINE
  5
2C5
100
AcDbEntity
  8
IMPORT_IGES
100
AcDbLine
 62
7
  6
CONTINUOUS
 10
-57.7764782292
 20
33.5462378956
 30
0.0
 11
-57.7606489162
 21
33.6096517756
 31
0.0
  0
LINE
  5
2C6
100
AcDbEntity
  8
IMPORT_IGES
100
AcDbLine
 62
7
  6
CONTINUOUS
 10
-53.1701910548
 20
33.7470646172
 30
0.0
 11
-53.2574929785
 21
33.5722475874
 31
0.0
  0
LINE
  5
2C7
100
AcDbEntity
  8
IMPORT_IGES
100
AcDbLine
 62
7
  6
CONTINUOUS
 10
36.15
 20
135.0147299241
 30
0.0
 11
36.0958892987
 21
134.9606192228
 31
0.0
  0
LINE
  5
2C8
100
AcDbEntity
  8
IMPORT_IGES
100
AcDbLine
 62
7
  6
CONTINUOUS
 10
20.5174550649
 20
112.5941423323
 30
0.0
 11
20.5
 21
112.5766872673
 31
0.0
  0
LINE
  5
2C9
100
AcDbEntity
  8
IMPORT_IGES
100
AcDbLine
 62
7
  6
CONTINUOUS
 10
21.4825449351
 20
113.5592322024
 30
0.0
 11
21.5
 21
113.5766872673
 31
0.0
  0
LINE
  5
2CA
100
AcDbEntity
  8
IMPORT_IGES
100
AcDbLine
 62
7
  6
CONTINUOUS
 10
-21.4825449351
 20
63.5941423323
 30
0.0
 11
-21.5
 21
63.5766872673
 31
0.0
  0
LINE
  5
2CB
100
AcDbEntity
  8
IMPORT_IGES
100
AcDbLine
 62
7
  6
CONTINUOUS
 10
-20.5174550649
 20
64.5592322024
 30
0.0
 11
-20.5
 21
64.5766872673
 31
0.0
  0
LINE
  5
2CC
100
AcDbEntity
  8
IMPORT_IGES
100
AcDbLine
 62
7
  6
CONTINUOUS
 10
-15.1557455972
 20
63.5941423323
 30
0.0
 11
-15.1860725653
 21
63.5766872673
 31
0.0
  0
LINE
  5
2CD
100
AcDbEntity
  8
IMPORT_IGES
100
AcDbLine
 62
7
  6
CONTINUOUS
 10
-61.0365490573
 20
-31.0367636754
 30
0.0
 11
-61.15
 21
-30.9233127327
 31
0.0
  0
LINE
  5
2CE
100
AcDbEntity
  8
IMPORT_IGES
100
AcDbLine
 62
7
  6
CONTINUOUS
 10
-21.4825449351
 20
-70.4407677976
 30
0.0
 11
-21.5
 21
-70.4233127327
 31
0.0
  0
LINE
  5
2CF
100
AcDbEntity
  8
IMPORT_IGES
100
AcDbLine
 62
7
  6
CONTINUOUS
 10
-20.5174550649
 20
-71.4058576677
 30
0.0
 11
-20.5
 21
-71.4233127327
 31
0.0
  0
LINE
  5
2D0
100
AcDbEntity
  8
IMPORT_IGES
100
AcDbLine
 62
7
  6
CONTINUOUS
 10
-41.5174550649
 20
-45.4058576677
 30
0.0
 11
-41.5
 21
-45.4233127327
 31
0.0
  0
LINE
  5
2D1
100
AcDbEntity
  8
IMPORT_IGES
100
AcDbLine
 62
7
  6
CONTINUOUS
 10
-42.4825449351
 20
-44.4407677976
 30
0.0
 11
-42.5
 21
-44.4233127327
 31
0.0
  0
LINE
  5
2D2
100
AcDbEntity
  8
IMPORT_IGES
100
AcDbLine
 62
7
  6
CONTINUOUS
 10
-31.1570836202
 20
-85.9345709147
 30
0.0
 11
-31.0
 21
-86.2487620834
 31
0.0
  0
LINE
  5
2D3
100
AcDbEntity
  8
IMPORT_IGES
100
AcDbLine
 62
7
  6
CONTINUOUS
 10
-58.2429163798
 20
94.9196036471
 30
0.0
 11
-58.2429163798
 21
94.2337708876
 31
0.0
  0
LINE
  5
2D4
100
AcDbEntity
  8
IMPORT_IGES
100
AcDbLine
 62
7
  6
CONTINUOUS
 10
-58.2429163798
 20
73.9196036471
 30
0.0
 11
-58.2429163798
 21
73.2337708876
 31
0.0
  0
LINE
  5
2D5
100
AcDbEntity
  8
IMPORT_IGES
100
AcDbLine
 62
7
  6
CONTINUOUS
 10
-58.2429163798
 20
-52.7662291125
 30
0.0
 11
-58.2429163798
 21
-52.0803963529
 31
0.0
  0
LINE
  5
2D6
100
AcDbEntity
  8
IMPORT_IGES
100
AcDbLine
 62
7
  6
CONTINUOUS
 10
-58.2429163798
 20
-31.7662291124
 30
0.0
 11
-58.2429163798
 21
-31.0803963529
 31
0.0
  0
LINE
  5
2D7
100
AcDbEntity
  8
IMPORT_IGES
100
AcDbLine
 62
7
  6
CONTINUOUS
 10
-58.2429163798
 20
-10.7662291124
 30
0.0
 11
-58.2429163798
 21
-10.0803963529
 31
0.0
  0
LINE
  5
2D8
100
AcDbEntity
  8
IMPORT_IGES
100
AcDbLine
 62
7
  6
CONTINUOUS
 10
-58.2429163798
 20
52.2337708876
 30
0.0
 11
-58.2429163798
 21
52.9196036471
 31
0.0
  0
LINE
  5
2D9
100
AcDbEntity
  8
IMPORT_IGES
100
AcDbLine
 62
7
  6
CONTINUOUS
 10
-58.0754493507
 20
-71.4233127327
 30
0.0
 11
-58.0754493507
 21
-52.9233127327
 31
0.0
  0
LINE
  5
2DA
100
AcDbEntity
  8
IMPORT_IGES
100
AcDbLine
 62
7
  6
CONTINUOUS
 10
-58.0754493507
 20
-51.9233127327
 30
0.0
 11
-58.0754493507
 21
-31.9233127327
 31
0.0
  0
LINE
  5
2DB
100
AcDbEntity
  8
IMPORT_IGES
100
AcDbLine
 62
7
  6
CONTINUOUS
 10
-58.0754493507
 20
-30.9233127327
 30
0.0
 11
-58.0754493507
 21
-10.9233127327
 31
0.0
  0
LINE
  5
2DC
100
AcDbEntity
  8
IMPORT_IGES
100
AcDbLine
 62
7
  6
CONTINUOUS
 10
-58.0754493507
 20
-9.9233127327
 30
0.0
 11
-58.0754493507
 21
52.0766872673
 31
0.0
  0
LINE
  5
2DD
100
AcDbEntity
  8
IMPORT_IGES
100
AcDbLine
 62
7
  6
CONTINUOUS
 10
-58.0754493507
 20
53.0766872673
 30
0.0
 11
-58.0754493507
 21
73.0766872673
 31
0.0
  0
LINE
  5
2DE
100
AcDbEntity
  8
IMPORT_IGES
100
AcDbLine
 62
7
  6
CONTINUOUS
 10
-58.0754493507
 20
74.0766872673
 30
0.0
 11
-58.0754493507
 21
94.0766872673
 31
0.0
  0
LINE
  5
2DF
100
AcDbEntity
  8
IMPORT_IGES
100
AcDbLine
 62
7
  6
CONTINUOUS
 10
-58.0754493507
 20
95.0766872673
 30
0.0
 11
-58.0754493507
 21
113.5794285457
 31
0.0
  0
LINE
  5
2E0
100
AcDbEntity
  8
IMPORT_IGES
100
AcDbLine
 62
7
  6
CONTINUOUS
 10
-57.761258182
 20
94.9196036471
 30
0.0
 11
-57.761258182
 21
94.2337708876
 31
0.0
  0
LINE
  5
2E1
100
AcDbEntity
  8
IMPORT_IGES
100
AcDbLine
 62
7
  6
CONTINUOUS
 10
-57.761258182
 20
73.9196036471
 30
0.0
 11
-57.761258182
 21
73.2337708876
 31
0.0
  0
LINE
  5
2E2
100
AcDbEntity
  8
IMPORT_IGES
100
AcDbLine
 62
7
  6
CONTINUOUS
 10
-57.761258182
 20
52.9196036471
 30
0.0
 11
-57.761258182
 21
52.2337708876
 31
0.0
  0
LINE
  5
2E3
100
AcDbEntity
  8
IMPORT_IGES
100
AcDbLine
 62
7
  6
CONTINUOUS
 10
-57.761258182
 20
-10.0803963529
 30
0.0
 11
-57.761258182
 21
-10.7662291124
 31
0.0
  0
LINE
  5
2E4
100
AcDbEntity
  8
IMPORT_IGES
100
AcDbLine
 62
7
  6
CONTINUOUS
 10
-57.761258182
 20
-31.0803963529
 30
0.0
 11
-57.761258182
 21
-31.7662291124
 31
0.0
  0
LINE
  5
2E5
100
AcDbEntity
  8
IMPORT_IGES
100
AcDbLine
 62
7
  6
CONTINUOUS
 10
-57.761258182
 20
-52.0803963529
 30
0.0
 11
-57.761258182
 21
-52.7662291125
 31
0.0
  0
LINE
  5
2E6
100
AcDbEntity
  8
IMPORT_IGES
100
AcDbLine
 62
250
  6
CONTINUOUS
 10
-57.7606489162
 20
-71.4233127283
 30
0.0
 11
-57.761258182
 21
-52.7662291125
 31
0.0
  0
LINE
  5
2E7
100
AcDbEntity
  8
IMPORT_IGES
100
AcDbLine
 62
250
  6
CONTINUOUS
 10
-57.761258182
 20
-10.0803963529
 30
0.0
 11
-57.7606489162
 21
8.543722759
 31
0.0
  0
LINE
  5
2E8
100
AcDbEntity
  8
IMPORT_IGES
100
AcDbLine
 62
250
  6
CONTINUOUS
 10
-57.761258182
 20
-31.0803963529
 30
0.0
 11
-57.761258182
 21
-10.7662291124
 31
0.0
  0
LINE
  5
2E9
100
AcDbEntity
  8
IMPORT_IGES
100
AcDbLine
 62
250
  6
CONTINUOUS
 10
-57.761258182
 20
-52.0803963529
 30
0.0
 11
-57.761258182
 21
-31.7662291124
 31
0.0
  0
LINE
  5
2EA
100
AcDbEntity
  8
IMPORT_IGES
100
AcDbLine
 62
250
  6
CONTINUOUS
 10
-57.7606489162
 20
33.6096517756
 30
0.0
 11
-57.761258182
 21
52.2337708876
 31
0.0
  0
LINE
  5
2EB
100
AcDbEntity
  8
IMPORT_IGES
100
AcDbLine
 62
250
  6
CONTINUOUS
 10
-57.761258182
 20
94.9196036471
 30
0.0
 11
-57.7606489162
 21
113.5794285458
 31
0.0
  0
LINE
  5
2EC
100
AcDbEntity
  8
IMPORT_IGES
100
AcDbLine
 62
250
  6
CONTINUOUS
 10
-57.761258182
 20
73.9196036471
 30
0.0
 11
-57.761258182
 21
94.2337708876
 31
0.0
  0
LINE
  5
2ED
100
AcDbEntity
  8
IMPORT_IGES
100
AcDbLine
 62
250
  6
CONTINUOUS
 10
-57.761258182
 20
52.9196036471
 30
0.0
 11
-57.761258182
 21
73.2337708876
 31
0.0
  0
LINE
  5
2EE
100
AcDbEntity
  8
IMPORT_IGES
100
AcDbLine
 62
250
  6
CONTINUOUS
 10
-56.5145458618
 20
-87.2298737978
 30
0.0
 11
-56.5145458618
 21
-87.2822389925
 31
0.0
  0
LINE
  5
2EF
100
AcDbEntity
  8
IMPORT_IGES
100
AcDbLine
 62
250
  6
CONTINUOUS
 10
-56.5145458618
 20
-88.57401759
 30
0.0
 11
-56.5145458618
 21
-88.6281282913
 31
0.0
  0
LINE
  5
2F0
100
AcDbEntity
  8
IMPORT_IGES
100
AcDbLine
 62
250
  6
CONTINUOUS
 10
-55.760543723
 20
113.5794284902
 30
0.0
 11
-55.7609535259
 21
33.7470646172
 31
0.0
  0
LINE
  5
2F1
100
AcDbEntity
  8
IMPORT_IGES
100
AcDbLine
 62
250
  6
CONTINUOUS
 10
-55.7609535259
 20
8.4063099174
 30
0.0
 11
-55.7609535259
 21
-71.4233127327
 31
0.0
  0
LINE
  5
2F2
100
AcDbEntity
  8
IMPORT_IGES
100
AcDbLine
 62
7
  6
CONTINUOUS
 10
-55.7263480522
 20
-71.4233127327
 30
0.0
 11
-55.7263480522
 21
-70.4233127327
 31
0.0
  0
LINE
  5
2F3
100
AcDbEntity
  8
IMPORT_IGES
100
AcDbLine
 62
7
  6
CONTINUOUS
 10
-55.7263480522
 20
-45.4233127327
 30
0.0
 11
-55.7263480522
 21
-44.4233127327
 31
0.0
  0
LINE
  5
2F4
100
AcDbEntity
  8
IMPORT_IGES
100
AcDbLine
 62
7
  6
CONTINUOUS
 10
-55.7263480522
 20
-22.4233127327
 30
0.0
 11
-55.7263480522
 21
-21.4233127327
 31
0.0
  0
LINE
  5
2F5
100
AcDbEntity
  8
IMPORT_IGES
100
AcDbLine
 62
7
  6
CONTINUOUS
 10
-55.7263480522
 20
-0.4233127327
 30
0.0
 11
-55.7263480522
 21
0.5766872673
 31
0.0
  0
LINE
  5
2F6
100
AcDbEntity
  8
IMPORT_IGES
100
AcDbLine
 62
7
  6
CONTINUOUS
 10
-55.7263480521
 20
41.5766872673
 30
0.0
 11
-55.7263480521
 21
42.5766872673
 31
0.0
  0
LINE
  5
2F7
100
AcDbEntity
  8
IMPORT_IGES
100
AcDbLine
 62
7
  6
CONTINUOUS
 10
-55.7263480521
 20
63.5766872673
 30
0.0
 11
-55.7263480521
 21
64.5766872673
 31
0.0
  0
LINE
  5
2F8
100
AcDbEntity
  8
IMPORT_IGES
100
AcDbLine
 62
7
  6
CONTINUOUS
 10
-55.7263480521
 20
86.5766872673
 30
0.0
 11
-55.7263480521
 21
87.5766872673
 31
0.0
  0
LINE
  5
2F9
100
AcDbEntity
  8
IMPORT_IGES
100
AcDbLine
 62
7
  6
CONTINUOUS
 10
-55.7263480521
 20
112.5766872673
 30
0.0
 11
-55.7263480521
 21
113.5766872673
 31
0.0
  0
LINE
  5
2FA
100
AcDbEntity
  8
IMPORT_IGES
100
AcDbLine
 62
250
  6
CONTINUOUS
 10
-55.6157792805
 20
135.0147299241
 30
0.0
 11
-55.6157792805
 21
134.9606192228
 31
0.0
  0
LINE
  5
2FB
100
AcDbEntity
  8
IMPORT_IGES
100
AcDbLine
 62
250
  6
CONTINUOUS
 10
-55.6157792805
 20
133.6688406254
 30
0.0
 11
-55.6157792805
 21
133.6164754306
 31
0.0
  0
LINE
  5
2FC
100
AcDbEntity
  8
IMPORT_IGES
100
AcDbLine
 62
7
  6
CONTINUOUS
 10
-55.269711524
 20
8.5811269473
 30
0.0
 11
-55.269711524
 21
33.5722475874
 31
0.0
  0
LINE
  5
2FD
100
AcDbEntity
  8
IMPORT_IGES
100
AcDbLine
 62
250
  6
CONTINUOUS
 10
-53.9942972446
 20
113.5592322024
 30
0.0
 11
-53.9942972446
 21
112.5941423323
 31
0.0
  0
LINE
  5
2FE
100
AcDbEntity
  8
IMPORT_IGES
100
AcDbLine
 62
250
  6
CONTINUOUS
 10
-53.9942972446
 20
87.5592322024
 30
0.0
 11
-53.9942972446
 21
86.5941423323
 31
0.0
  0
LINE
  5
2FF
100
AcDbEntity
  8
IMPORT_IGES
100
AcDbLine
 62
250
  6
CONTINUOUS
 10
-53.9942972446
 20
64.5592322024
 30
0.0
 11
-53.9942972446
 21
63.5941423323
 31
0.0
  0
LINE
  5
300
100
AcDbEntity
  8
IMPORT_IGES
100
AcDbLine
 62
250
  6
CONTINUOUS
 10
-53.9942972446
 20
42.5592322024
 30
0.0
 11
-53.9942972446
 21
41.5941423323
 31
0.0
  0
LINE
  5
301
100
AcDbEntity
  8
IMPORT_IGES
100
AcDbLine
 62
250
  6
CONTINUOUS
 10
-53.9942972446
 20
0.5592322024
 30
0.0
 11
-53.9942972446
 21
-0.4058576677
 31
0.0
  0
LINE
  5
302
100
AcDbEntity
  8
IMPORT_IGES
100
AcDbLine
 62
250
  6
CONTINUOUS
 10
-53.9942972446
 20
-21.4407677976
 30
0.0
 11
-53.9942972446
 21
-22.4058576677
 31
0.0
  0
LINE
  5
303
100
AcDbEntity
  8
IMPORT_IGES
100
AcDbLine
 62
250
  6
CONTINUOUS
 10
-53.9942972446
 20
-44.4407677976
 30
0.0
 11
-53.9942972446
 21
-45.4058576678
 31
0.0
  0
LINE
  5
304
100
AcDbEntity
  8
IMPORT_IGES
100
AcDbLine
 62
250
  6
CONTINUOUS
 10
-53.9942972446
 20
-70.4407677976
 30
0.0
 11
-53.9942972446
 21
-71.4058576678
 31
0.0
  0
LINE
  5
305
100
AcDbEntity
  8
IMPORT_IGES
100
AcDbLine
 62
7
  6
CONTINUOUS
 10
-53.2574929785
 20
8.5811269473
 30
0.0
 11
-53.2574929785
 21
33.5722475874
 31
0.0
  0
LINE
  5
306
100
AcDbEntity
  8
IMPORT_IGES
100
AcDbLine
 62
7
  6
CONTINUOUS
 10
-53.1701910548
 20
8.4063099174
 30
0.0
 11
-53.1701910548
 21
20.5766872673
 31
0.0
  0
LINE
  5
307
100
AcDbEntity
  8
IMPORT_IGES
100
AcDbLine
 62
7
  6
CONTINUOUS
 10
-53.1701910548
 20
21.5766872673
 30
0.0
 11
-53.1701910548
 21
33.7470646172
 31
0.0
  0
LINE
  5
308
100
AcDbEntity
  8
IMPORT_IGES
100
AcDbLine
 62
7
  6
CONTINUOUS
 10
-53.1352702853
 20
20.5941423323
 30
0.0
 11
-53.1352702853
 21
21.5592322024
 31
0.0
  0
LINE
  5
309
100
AcDbEntity
  8
0
100
AcDbLine
 62
7
  6
CONTINUOUS
 10
-52.15
 20
133.0112555099
 30
0.0
 11
-52.15
 21
131.6712555099
 31
0.0
  0
LINE
  5
30A
100
AcDbEntity
  8
IMPORT_IGES
100
AcDbLine
 62
7
  6
CONTINUOUS
 10
-51.5041107013
 20
134.9606192228
 30
0.0
 11
-51.5041107013
 21
133.6688406254
 31
0.0
  0
LINE
  5
30B
100
AcDbEntity
  8
IMPORT_IGES
100
AcDbLine
 62
7
  6
CONTINUOUS
 10
-51.1517455065
 20
134.6334469032
 30
0.0
 11
-51.1517455065
 21
131.6712555099
 31
0.0
  0
LINE
  5
30C
100
AcDbEntity
  8
IMPORT_IGES
100
AcDbLine
 62
7
  6
CONTINUOUS
 10
-51.0
 20
133.3766872673
 30
0.0
 11
-51.0
 21
135.956149375
 31
0.0
  0
LINE
  5
30D
100
AcDbEntity
  8
IMPORT_IGES
100
AcDbLine
 62
7
  6
CONTINUOUS
 10
-51.107276724
 20
134.6473379048
 30
0.0
 11
-51.1127366485
 21
131.6712555099
 31
0.0
  0
LINE
  5
30E
100
AcDbEntity
  8
IMPORT_IGES
100
AcDbLine
 62
7
  6
CONTINUOUS
 10
-51.4517455065
 20
133.6164754306
 30
0.0
 11
-51.4388837253
 21
135.0260325038
 31
0.0
  0
LINE
  5
30F
100
AcDbEntity
  8
IMPORT_IGES
100
AcDbLine
 62
7
  6
CONTINUOUS
 10
0.4825449351
 20
123.4619575527
 30
0.0
 11
0.5
 21
123.4968783222
 31
0.0
  0
LINE
  5
310
100
AcDbEntity
  8
IMPORT_IGES
100
AcDbLine
 62
7
  6
CONTINUOUS
 10
-42.4825449351
 20
41.5941423323
 30
0.0
 11
-42.5
 21
41.5766872673
 31
0.0
  0
LINE
  5
311
100
AcDbEntity
  8
IMPORT_IGES
100
AcDbLine
 62
7
  6
CONTINUOUS
 10
-41.5174550649
 20
42.5592322024
 30
0.0
 11
-41.5
 21
42.5766872673
 31
0.0
  0
LINE
  5
312
100
AcDbEntity
  8
IMPORT_IGES
100
AcDbLine
 62
7
  6
CONTINUOUS
 10
51.4517455065
 20
133.6164754306
 30
0.0
 11
51.5041107013
 21
133.6688406254
 31
0.0
  0
LINE
  5
313
100
AcDbEntity
  8
IMPORT_IGES
100
AcDbLine
 62
250
  6
CONTINUOUS
 10
55.8254103977
 20
135.2243610412
 30
0.0
 11
55.6157792805
 21
135.0147299241
 31
0.0
  0
LINE
  5
314
100
AcDbEntity
  8
IMPORT_IGES
100
AcDbLine
 62
7
  6
CONTINUOUS
 10
41.5174550649
 20
112.5941423323
 30
0.0
 11
41.5
 21
112.5766872673
 31
0.0
  0
LINE
  5
315
100
AcDbEntity
  8
IMPORT_IGES
100
AcDbLine
 62
7
  6
CONTINUOUS
 10
42.4825449351
 20
113.5592322024
 30
0.0
 11
42.5
 21
113.5766872673
 31
0.0
  0
LINE
  5
316
100
AcDbEntity
  8
IMPORT_IGES
100
AcDbLine
 62
7
  6
CONTINUOUS
 10
57.761258182
 20
94.9196036471
 30
0.0
 11
58.0754493507
 21
95.0766872673
 31
0.0
  0
LINE
  5
317
100
AcDbEntity
  8
IMPORT_IGES
100
AcDbLine
 62
7
  6
CONTINUOUS
 10
61.0365490573
 20
-52.0367636754
 30
0.0
 11
58.2429163798
 21
-52.0803963529
 31
0.0
  0
LINE
  5
318
100
AcDbEntity
  8
IMPORT_IGES
100
AcDbLine
 62
7
  6
CONTINUOUS
 10
-61.0365490573
 20
-52.8098617899
 30
0.0
 11
-58.2429163798
 21
-52.7662291124
 31
0.0
  0
LINE
  5
319
100
AcDbEntity
  8
IMPORT_IGES
100
AcDbLine
 62
7
  6
CONTINUOUS
 10
58.0754493507
 20
-52.9233127327
 30
0.0
 11
61.15
 21
-52.9233127327
 31
0.0
  0
LINE
  5
31A
100
AcDbEntity
  8
IMPORT_IGES
100
AcDbLine
 62
7
  6
CONTINUOUS
 10
-58.0754493507
 20
-52.9233127327
 30
0.0
 11
-61.15
 21
-52.9233127327
 31
0.0
  0
LINE
  5
31B
100
AcDbEntity
  8
IMPORT_IGES
100
AcDbLine
 62
7
  6
CONTINUOUS
 10
58.2429163798
 20
-52.7662291125
 30
0.0
 11
57.761258182
 21
-52.7662291125
 31
0.0
  0
LINE
  5
31C
100
AcDbEntity
  8
IMPORT_IGES
100
AcDbLine
 62
7
  6
CONTINUOUS
 10
-57.761258182
 20
-52.7662291125
 30
0.0
 11
-58.2429163798
 21
-52.7662291125
 31
0.0
  0
LINE
  5
31D
100
AcDbEntity
  8
IMPORT_IGES
100
AcDbLine
 62
7
  6
CONTINUOUS
 10
-58.2429163798
 20
-52.0803963529
 30
0.0
 11
-57.761258182
 21
-52.0803963529
 31
0.0
  0
LINE
  5
31E
100
AcDbEntity
  8
IMPORT_IGES
100
AcDbLine
 62
7
  6
CONTINUOUS
 10
57.761258182
 20
-52.0803963529
 30
0.0
 11
58.2429163798
 21
-52.0803963529
 31
0.0
  0
LINE
  5
31F
100
AcDbEntity
  8
IMPORT_IGES
100
AcDbLine
 62
7
  6
CONTINUOUS
 10
58.0754493507
 20
-51.9233127327
 30
0.0
 11
61.15
 21
-51.9233127327
 31
0.0
  0
LINE
  5
320
100
AcDbEntity
  8
IMPORT_IGES
100
AcDbLine
 62
7
  6
CONTINUOUS
 10
-58.0754493507
 20
-51.9233127327
 30
0.0
 11
-61.15
 21
-51.9233127327
 31
0.0
  0
LINE
  5
321
100
AcDbEntity
  8
IMPORT_IGES
100
AcDbLine
 62
7
  6
CONTINUOUS
 10
-58.2429163798
 20
-52.0803963529
 30
0.0
 11
-61.0365490573
 21
-52.0367636754
 31
0.0
  0
LINE
  5
322
100
AcDbEntity
  8
IMPORT_IGES
100
AcDbLine
 62
7
  6
CONTINUOUS
 10
58.2429163798
 20
-52.7662291124
 30
0.0
 11
61.0365490573
 21
-52.8098617899
 31
0.0
  0
LINE
  5
323
100
AcDbEntity
  8
IMPORT_IGES
100
AcDbLine
 62
7
  6
CONTINUOUS
 10
64.5000060449
 20
-80.2233160583
 30
0.0
 11
64.2796527165
 21
-80.1499233201
 31
0.0
  0
LINE
  5
324
100
AcDbEntity
  8
IMPORT_IGES
100
AcDbLine
 62
7
  6
CONTINUOUS
 10
-57.761258182
 20
-31.0803963529
 30
0.0
 11
-58.0754493507
 21
-30.9233127327
 31
0.0
  0
LINE
  5
325
100
AcDbEntity
  8
IMPORT_IGES
100
AcDbLine
 62
7
  6
CONTINUOUS
 10
7.3427766622
 20
-91.7660893948
 30
0.0
 11
7.5
 21
-91.9233127327
 31
0.0
  0
LINE
  5
326
100
AcDbEntity
  8
IMPORT_IGES
100
AcDbLine
 62
7
  6
CONTINUOUS
 10
7.3427766622
 20
-89.7660893948
 30
0.0
 11
7.5
 21
-89.9233127327
 31
0.0
  0
LINE
  5
327
100
AcDbEntity
  8
IMPORT_IGES
100
AcDbLine
 62
7
  6
CONTINUOUS
 10
15.8865490573
 20
-89.2098617899
 30
0.0
 11
16.0
 21
-89.3233127327
 31
0.0
  0
LINE
  5
328
100
AcDbEntity
  8
IMPORT_IGES
100
AcDbLine
 62
7
  6
CONTINUOUS
 10
-61.0365490573
 20
-10.0367636754
 30
0.0
 11
-61.15
 21
-9.9233127327
 31
0.0
  0
LINE
  5
329
100
AcDbEntity
  8
IMPORT_IGES
100
AcDbLine
 62
7
  6
CONTINUOUS
 10
-0.4825449351
 20
-70.4407677976
 30
0.0
 11
-0.5
 21
-70.4233127327
 31
0.0
  0
LINE
  5
32A
100
AcDbEntity
  8
IMPORT_IGES
100
AcDbLine
 62
7
  6
CONTINUOUS
 10
0.4825449351
 20
-71.4058576677
 30
0.0
 11
0.5
 21
-71.4233127327
 31
0.0
  0
LINE
  5
32B
100
AcDbEntity
  8
IMPORT_IGES
100
AcDbLine
 62
7
  6
CONTINUOUS
 10
-15.1570836202
 20
-85.9345709147
 30
0.0
 11
-15.0
 21
-86.2487620834
 31
0.0
  0
LINE
  5
32C
100
AcDbEntity
  8
IMPORT_IGES
100
AcDbLine
 62
7
  6
CONTINUOUS
 10
-57.7764780703
 20
8.6072671332
 30
0.0
 11
-57.7606489162
 21
8.543722759
 31
0.0
  0
LINE
  5
32D
100
AcDbEntity
  8
IMPORT_IGES
100
AcDbLine
 62
250
  6
CONTINUOUS
 10
-43.2527412784
 20
131.5766872673
 30
0.0
 11
-43.2527412784
 21
131.5417771375
 31
0.0
  0
LINE
  5
32E
100
AcDbEntity
  8
IMPORT_IGES
100
AcDbLine
 62
250
  6
CONTINUOUS
 10
-43.2527412784
 20
128.4021366181
 30
0.0
 11
-43.2527379718
 21
126.0876407933
 31
0.0
  0
LINE
  5
32F
100
AcDbEntity
  8
IMPORT_IGES
100
AcDbLine
 62
250
  6
CONTINUOUS
 10
-43.25
 20
-83.9342662586
 30
0.0
 11
-43.25
 21
-86.2487620834
 31
0.0
  0
LINE
  5
330
100
AcDbEntity
  8
IMPORT_IGES
100
AcDbLine
 62
250
  6
CONTINUOUS
 10
-43.25
 20
-89.3884026028
 30
0.0
 11
-43.25
 21
-89.4233127327
 31
0.0
  0
LINE
  5
331
100
AcDbEntity
  8
IMPORT_IGES
100
AcDbLine
 62
7
  6
CONTINUOUS
 10
-42.5
 20
126.0530353195
 30
0.0
 11
-42.5
 21
113.5766872673
 31
0.0
  0
LINE
  5
332
100
AcDbEntity
  8
IMPORT_IGES
100
AcDbLine
 62
7
  6
CONTINUOUS
 10
-42.5
 20
112.5766872673
 30
0.0
 11
-42.5
 21
87.5766872673
 31
0.0
  0
LINE
  5
333
100
AcDbEntity
  8
IMPORT_IGES
100
AcDbLine
 62
7
  6
CONTINUOUS
 10
-42.5
 20
86.5766872673
 30
0.0
 11
-42.5
 21
64.5766872673
 31
0.0
  0
LINE
  5
334
100
AcDbEntity
  8
IMPORT_IGES
100
AcDbLine
 62
7
  6
CONTINUOUS
 10
-42.5
 20
63.5766872673
 30
0.0
 11
-42.5
 21
42.5766872673
 31
0.0
  0
LINE
  5
335
100
AcDbEntity
  8
IMPORT_IGES
100
AcDbLine
 62
7
  6
CONTINUOUS
 10
-42.5
 20
41.5766872673
 30
0.0
 11
-42.5
 21
21.5766872673
 31
0.0
  0
LINE
  5
336
100
AcDbEntity
  8
IMPORT_IGES
100
AcDbLine
 62
7
  6
CONTINUOUS
 10
-42.5
 20
20.5766872673
 30
0.0
 11
-42.5
 21
0.5766872673
 31
0.0
  0
LINE
  5
337
100
AcDbEntity
  8
IMPORT_IGES
100
AcDbLine
 62
7
  6
CONTINUOUS
 10
-42.5
 20
-0.4233127327
 30
0.0
 11
-42.5
 21
-21.4233127327
 31
0.0
  0
LINE
  5
338
100
AcDbEntity
  8
IMPORT_IGES
100
AcDbLine
 62
7
  6
CONTINUOUS
 10
-42.5
 20
-22.4233127327
 30
0.0
 11
-42.5
 21
-44.4233127327
 31
0.0
  0
LINE
  5
339
100
AcDbEntity
  8
IMPORT_IGES
100
AcDbLine
 62
7
  6
CONTINUOUS
 10
-42.5
 20
-45.4233127327
 30
0.0
 11
-42.5
 21
-70.4233127327
 31
0.0
  0
LINE
  5
33A
100
AcDbEntity
  8
IMPORT_IGES
100
AcDbLine
 62
7
  6
CONTINUOUS
 10
-42.5
 20
-71.4233127327
 30
0.0
 11
-42.5
 21
-83.8996607849
 31
0.0
  0
LINE
  5
33B
100
AcDbEntity
  8
IMPORT_IGES
100
AcDbLine
 62
7
  6
CONTINUOUS
 10
-42.4825449351
 20
-82.1676099773
 30
0.0
 11
-42.4825449351
 21
-71.4058576678
 31
0.0
  0
LINE
  5
33C
100
AcDbEntity
  8
IMPORT_IGES
100
AcDbLine
 62
7
  6
CONTINUOUS
 10
-42.4825449351
 20
-70.4407677976
 30
0.0
 11
-42.4825449351
 21
-45.4058576678
 31
0.0
  0
LINE
  5
33D
100
AcDbEntity
  8
IMPORT_IGES
100
AcDbLine
 62
7
  6
CONTINUOUS
 10
-42.4825449351
 20
-44.4407677976
 30
0.0
 11
-42.4825449351
 21
-22.4058576677
 31
0.0
  0
LINE
  5
33E
100
AcDbEntity
  8
IMPORT_IGES
100
AcDbLine
 62
7
  6
CONTINUOUS
 10
-42.4825449351
 20
-21.4407677976
 30
0.0
 11
-42.4825449351
 21
-0.4058576677
 31
0.0
  0
LINE
  5
33F
100
AcDbEntity
  8
IMPORT_IGES
100
AcDbLine
 62
7
  6
CONTINUOUS
 10
-42.4825449351
 20
0.5592322024
 30
0.0
 11
-42.4825449351
 21
20.5941423323
 31
0.0
  0
LINE
  5
340
100
AcDbEntity
  8
IMPORT_IGES
100
AcDbLine
 62
7
  6
CONTINUOUS
 10
-42.4825449351
 20
21.5592322024
 30
0.0
 11
-42.4825449351
 21
41.5941423323
 31
0.0
  0
LINE
  5
341
100
AcDbEntity
  8
IMPORT_IGES
100
AcDbLine
 62
7
  6
CONTINUOUS
 10
-42.4825449351
 20
42.5592322024
 30
0.0
 11
-42.4825449351
 21
63.5941423323
 31
0.0
  0
LINE
  5
342
100
AcDbEntity
  8
IMPORT_IGES
100
AcDbLine
 62
7
  6
CONTINUOUS
 10
-42.4825449351
 20
64.5592322024
 30
0.0
 11
-42.4825449351
 21
86.5941423323
 31
0.0
  0
LINE
  5
343
100
AcDbEntity
  8
IMPORT_IGES
100
AcDbLine
 62
7
  6
CONTINUOUS
 10
-42.4825449351
 20
87.5592322024
 30
0.0
 11
-42.4825449351
 21
112.5941423323
 31
0.0
  0
LINE
  5
344
100
AcDbEntity
  8
IMPORT_IGES
100
AcDbLine
 62
7
  6
CONTINUOUS
 10
-42.4825449351
 20
113.5592322024
 30
0.0
 11
-42.4825449351
 21
124.3209845119
 31
0.0
  0
LINE
  5
345
100
AcDbEntity
  8
IMPORT_IGES
100
AcDbLine
 62
7
  6
CONTINUOUS
 10
-41.5174550649
 20
124.3209845119
 30
0.0
 11
-41.5174550649
 21
113.5592322024
 31
0.0
  0
LINE
  5
346
100
AcDbEntity
  8
IMPORT_IGES
100
AcDbLine
 62
7
  6
CONTINUOUS
 10
-41.5174550649
 20
112.5941423323
 30
0.0
 11
-41.5174550649
 21
87.5592322024
 31
0.0
  0
LINE
  5
347
100
AcDbEntity
  8
IMPORT_IGES
100
AcDbLine
 62
7
  6
CONTINUOUS
 10
-41.5174550649
 20
86.5941423323
 30
0.0
 11
-41.5174550649
 21
64.5592322024
 31
0.0
  0
LINE
  5
348
100
AcDbEntity
  8
IMPORT_IGES
100
AcDbLine
 62
7
  6
CONTINUOUS
 10
-41.5174550649
 20
63.5941423323
 30
0.0
 11
-41.5174550649
 21
42.5592322024
 31
0.0
  0
LINE
  5
349
100
AcDbEntity
  8
IMPORT_IGES
100
AcDbLine
 62
7
  6
CONTINUOUS
 10
-41.5174550649
 20
41.5941423323
 30
0.0
 11
-41.5174550649
 21
21.5592322024
 31
0.0
  0
LINE
  5
34A
100
AcDbEntity
  8
IMPORT_IGES
100
AcDbLine
 62
7
  6
CONTINUOUS
 10
-41.5174550649
 20
20.5941423323
 30
0.0
 11
-41.5174550649
 21
0.5592322024
 31
0.0
  0
LINE
  5
34B
100
AcDbEntity
  8
IMPORT_IGES
100
AcDbLine
 62
7
  6
CONTINUOUS
 10
-41.5174550649
 20
-0.4058576677
 30
0.0
 11
-41.5174550649
 21
-21.4407677976
 31
0.0
  0
LINE
  5
34C
100
AcDbEntity
  8
IMPORT_IGES
100
AcDbLine
 62
7
  6
CONTINUOUS
 10
-41.5174550649
 20
-22.4058576677
 30
0.0
 11
-41.5174550649
 21
-44.4407677976
 31
0.0
  0
LINE
  5
34D
100
AcDbEntity
  8
IMPORT_IGES
100
AcDbLine
 62
7
  6
CONTINUOUS
 10
-41.5174550649
 20
-45.4058576678
 30
0.0
 11
-41.5174550649
 21
-70.4407677976
 31
0.0
  0
LINE
  5
34E
100
AcDbEntity
  8
IMPORT_IGES
100
AcDbLine
 62
7
  6
CONTINUOUS
 10
-41.5174550649
 20
-71.4058576678
 30
0.0
 11
-41.5174550649
 21
-82.1676099773
 31
0.0
  0
LINE
  5
34F
100
AcDbEntity
  8
IMPORT_IGES
100
AcDbLine
 62
7
  6
CONTINUOUS
 10
-41.5
 20
126.0530353195
 30
0.0
 11
-41.5
 21
113.5766872673
 31
0.0
  0
LINE
  5
350
100
AcDbEntity
  8
IMPORT_IGES
100
AcDbLine
 62
7
  6
CONTINUOUS
 10
-41.5
 20
112.5766872673
 30
0.0
 11
-41.5
 21
87.5766872673
 31
0.0
  0
LINE
  5
351
100
AcDbEntity
  8
IMPORT_IGES
100
AcDbLine
 62
7
  6
CONTINUOUS
 10
-41.5
 20
86.5766872673
 30
0.0
 11
-41.5
 21
64.5766872673
 31
0.0
  0
LINE
  5
352
100
AcDbEntity
  8
IMPORT_IGES
100
AcDbLine
 62
7
  6
CONTINUOUS
 10
-41.5
 20
63.5766872673
 30
0.0
 11
-41.5
 21
42.5766872673
 31
0.0
  0
LINE
  5
353
100
AcDbEntity
  8
IMPORT_IGES
100
AcDbLine
 62
7
  6
CONTINUOUS
 10
-41.5
 20
41.5766872673
 30
0.0
 11
-41.5
 21
21.5766872673
 31
0.0
  0
LINE
  5
354
100
AcDbEntity
  8
IMPORT_IGES
100
AcDbLine
 62
7
  6
CONTINUOUS
 10
-41.5
 20
20.5766872673
 30
0.0
 11
-41.5
 21
0.5766872673
 31
0.0
  0
LINE
  5
355
100
AcDbEntity
  8
IMPORT_IGES
100
AcDbLine
 62
7
  6
CONTINUOUS
 10
-41.5
 20
-0.4233127327
 30
0.0
 11
-41.5
 21
-21.4233127327
 31
0.0
  0
LINE
  5
356
100
AcDbEntity
  8
IMPORT_IGES
100
AcDbLine
 62
7
  6
CONTINUOUS
 10
-41.5
 20
-22.4233127327
 30
0.0
 11
-41.5
 21
-44.4233127327
 31
0.0
  0
LINE
  5
357
100
AcDbEntity
  8
IMPORT_IGES
100
AcDbLine
 62
7
  6
CONTINUOUS
 10
-41.5
 20
-45.4233127327
 30
0.0
 11
-41.5
 21
-70.4233127327
 31
0.0
  0
LINE
  5
358
100
AcDbEntity
  8
IMPORT_IGES
100
AcDbLine
 62
7
  6
CONTINUOUS
 10
-41.5
 20
-71.4233127327
 30
0.0
 11
-41.5
 21
-83.8996607849
 31
0.0
  0
LINE
  5
359
100
AcDbEntity
  8
IMPORT_IGES
100
AcDbLine
 62
7
  6
CONTINUOUS
 10
15.8429163798
 20
128.0879454493
 30
0.0
 11
16.0
 21
128.4021366181
 31
0.0
  0
LINE
  5
35A
100
AcDbEntity
  8
IMPORT_IGES
100
AcDbLine
 62
7
  6
CONTINUOUS
 10
20.5174550649
 20
86.5941423323
 30
0.0
 11
20.5
 21
86.5766872673
 31
0.0
  0
LINE
  5
35B
100
AcDbEntity
  8
IMPORT_IGES
100
AcDbLine
 62
7
  6
CONTINUOUS
 10
21.4825449351
 20
87.5592322024
 30
0.0
 11
21.5
 21
87.5766872673
 31
0.0
  0
LINE
  5
35C
100
AcDbEntity
  8
IMPORT_IGES
100
AcDbLine
 62
250
  6
CONTINUOUS
 10
63.6048155586
 20
127.0256936461
 30
0.0
 11
63.714817725
 21
127.1356958125
 31
0.0
  0
LINE
  5
35D
100
AcDbEntity
  8
IMPORT_IGES
100
AcDbLine
 62
7
  6
CONTINUOUS
 10
-21.4825449351
 20
41.5941423323
 30
0.0
 11
-21.5
 21
41.5766872673
 31
0.0
  0
LINE
  5
35E
100
AcDbEntity
  8
IMPORT_IGES
100
AcDbLine
 62
7
  6
CONTINUOUS
 10
-42.4825449351
 20
20.5941423323
 30
0.0
 11
-42.5
 21
20.5766872673
 31
0.0
  0
LINE
  5
35F
100
AcDbEntity
  8
IMPORT_IGES
100
AcDbLine
 62
7
  6
CONTINUOUS
 10
-41.5174550649
 20
21.5592322024
 30
0.0
 11
-41.5
 21
21.5766872673
 31
0.0
  0
LINE
  5
360
100
AcDbEntity
  8
IMPORT_IGES
100
AcDbLine
 62
7
  6
CONTINUOUS
 10
-20.5174550649
 20
42.5592322024
 30
0.0
 11
-20.5
 21
42.5766872673
 31
0.0
  0
LINE
  5
361
100
AcDbEntity
  8
IMPORT_IGES
100
AcDbLine
 62
7
  6
CONTINUOUS
 10
-53.1352702853
 20
20.5941423323
 30
0.0
 11
-53.1701910548
 21
20.5766872673
 31
0.0
  0
LINE
  5
362
100
AcDbEntity
  8
IMPORT_IGES
100
AcDbLine
 62
7
  6
CONTINUOUS
 10
57.761258182
 20
73.9196036471
 30
0.0
 11
58.0754493507
 21
74.0766872673
 31
0.0
  0
LINE
  5
363
100
AcDbEntity
  8
IMPORT_IGES
100
AcDbLine
 62
7
  6
CONTINUOUS
 10
-55.7263480522
 20
-45.4233127327
 30
0.0
 11
-42.5
 21
-45.4233127327
 31
0.0
  0
LINE
  5
364
100
AcDbEntity
  8
IMPORT_IGES
100
AcDbLine
 62
7
  6
CONTINUOUS
 10
-41.5
 20
-45.4233127327
 30
0.0
 11
-21.5
 21
-45.4233127327
 31
0.0
  0
LINE
  5
365
100
AcDbEntity
  8
IMPORT_IGES
100
AcDbLine
 62
7
  6
CONTINUOUS
 10
-20.5
 20
-45.4233127327
 30
0.0
 11
-3.8231923778
 21
-45.4233127327
 31
0.0
  0
LINE
  5
366
100
AcDbEntity
  8
IMPORT_IGES
100
AcDbLine
 62
7
  6
CONTINUOUS
 10
3.8231923778
 20
-45.4233127327
 30
0.0
 11
20.5
 21
-45.4233127327
 31
0.0
  0
LINE
  5
367
100
AcDbEntity
  8
IMPORT_IGES
100
AcDbLine
 62
7
  6
CONTINUOUS
 10
21.5
 20
-45.4233127327
 30
0.0
 11
41.5
 21
-45.4233127327
 31
0.0
  0
LINE
  5
368
100
AcDbEntity
  8
IMPORT_IGES
100
AcDbLine
 62
7
  6
CONTINUOUS
 10
42.5
 20
-45.4233127327
 30
0.0
 11
55.7263480521
 21
-45.4233127327
 31
0.0
  0
LINE
  5
369
100
AcDbEntity
  8
IMPORT_IGES
100
AcDbLine
 62
7
  6
CONTINUOUS
 10
53.9942972446
 20
-45.4058576678
 30
0.0
 11
42.4825449351
 21
-45.4058576678
 31
0.0
  0
LINE
  5
36A
100
AcDbEntity
  8
IMPORT_IGES
100
AcDbLine
 62
7
  6
CONTINUOUS
 10
41.5174550649
 20
-45.4058576678
 30
0.0
 11
21.4825449351
 21
-45.4058576678
 31
0.0
  0
LINE
  5
36B
100
AcDbEntity
  8
IMPORT_IGES
100
AcDbLine
 62
7
  6
CONTINUOUS
 10
20.5174550649
 20
-45.4058576678
 30
0.0
 11
3.7431024263
 21
-45.4058576678
 31
0.0
  0
LINE
  5
36C
100
AcDbEntity
  8
IMPORT_IGES
100
AcDbLine
 62
7
  6
CONTINUOUS
 10
-3.7431024263
 20
-45.4058576678
 30
0.0
 11
-20.5174550649
 21
-45.4058576678
 31
0.0
  0
LINE
  5
36D
100
AcDbEntity
  8
IMPORT_IGES
100
AcDbLine
 62
7
  6
CONTINUOUS
 10
-21.4825449351
 20
-45.4058576678
 30
0.0
 11
-41.5174550649
 21
-45.4058576678
 31
0.0
  0
LINE
  5
36E
100
AcDbEntity
  8
IMPORT_IGES
100
AcDbLine
 62
7
  6
CONTINUOUS
 10
-42.4825449351
 20
-45.4058576678
 30
0.0
 11
-53.9942972446
 21
-45.4058576678
 31
0.0
  0
LINE
  5
36F
100
AcDbEntity
  8
IMPORT_IGES
100
AcDbLine
 62
7
  6
CONTINUOUS
 10
-53.9942972446
 20
-44.4407677976
 30
0.0
 11
-42.4825449351
 21
-44.4407677976
 31
0.0
  0
LINE
  5
370
100
AcDbEntity
  8
IMPORT_IGES
100
AcDbLine
 62
7
  6
CONTINUOUS
 10
-41.5174550649
 20
-44.4407677976
 30
0.0
 11
-21.4825449351
 21
-44.4407677976
 31
0.0
  0
LINE
  5
371
100
AcDbEntity
  8
IMPORT_IGES
100
AcDbLine
 62
7
  6
CONTINUOUS
 10
-20.5174550649
 20
-44.4407677976
 30
0.0
 11
-6.7002754884
 21
-44.4407677976
 31
0.0
  0
LINE
  5
372
100
AcDbEntity
  8
IMPORT_IGES
100
AcDbLine
 62
7
  6
CONTINUOUS
 10
6.7002754884
 20
-44.4407677976
 30
0.0
 11
20.5174550649
 21
-44.4407677976
 31
0.0
  0
LINE
  5
373
100
AcDbEntity
  8
IMPORT_IGES
100
AcDbLine
 62
7
  6
CONTINUOUS
 10
21.4825449351
 20
-44.4407677976
 30
0.0
 11
41.5174550649
 21
-44.4407677976
 31
0.0
  0
LINE
  5
374
100
AcDbEntity
  8
IMPORT_IGES
100
AcDbLine
 62
7
  6
CONTINUOUS
 10
42.4825449351
 20
-44.4407677976
 30
0.0
 11
53.9942972446
 21
-44.4407677976
 31
0.0
  0
LINE
  5
375
100
AcDbEntity
  8
IMPORT_IGES
100
AcDbLine
 62
7
  6
CONTINUOUS
 10
-55.7263480522
 20
-44.4233127327
 30
0.0
 11
-42.5
 21
-44.4233127327
 31
0.0
  0
LINE
  5
376
100
AcDbEntity
  8
IMPORT_IGES
100
AcDbLine
 62
7
  6
CONTINUOUS
 10
-41.5
 20
-44.4233127327
 30
0.0
 11
-21.5
 21
-44.4233127327
 31
0.0
  0
LINE
  5
377
100
AcDbEntity
  8
IMPORT_IGES
100
AcDbLine
 62
7
  6
CONTINUOUS
 10
-20.5
 20
-44.4233127327
 30
0.0
 11
-6.8276496657
 21
-44.4233127327
 31
0.0
  0
LINE
  5
378
100
AcDbEntity
  8
IMPORT_IGES
100
AcDbLine
 62
7
  6
CONTINUOUS
 10
6.8276496657
 20
-44.4233127327
 30
0.0
 11
20.5
 21
-44.4233127327
 31
0.0
  0
LINE
  5
379
100
AcDbEntity
  8
IMPORT_IGES
100
AcDbLine
 62
7
  6
CONTINUOUS
 10
21.5
 20
-44.4233127327
 30
0.0
 11
41.5
 21
-44.4233127327
 31
0.0
  0
LINE
  5
37A
100
AcDbEntity
  8
IMPORT_IGES
100
AcDbLine
 62
7
  6
CONTINUOUS
 10
42.5
 20
-44.4233127327
 30
0.0
 11
55.7263480521
 21
-44.4233127327
 31
0.0
  0
LINE
  5
37B
100
AcDbEntity
  8
IMPORT_IGES
100
AcDbLine
 62
250
  6
CONTINUOUS
 10
26.6700798557
 20
-89.666975276
 30
0.0
 11
26.6569335384
 21
-89.6538469755
 31
0.0
  0
LINE
  5
37C
100
AcDbEntity
  8
IMPORT_IGES
100
AcDbLine
 62
7
  6
CONTINUOUS
 10
-20.5174550649
 20
-45.4058576677
 30
0.0
 11
-20.5
 21
-45.4233127327
 31
0.0
  0
LINE
  5
37D
100
AcDbEntity
  8
IMPORT_IGES
100
AcDbLine
 62
7
  6
CONTINUOUS
 10
-21.4825449351
 20
-44.4407677976
 30
0.0
 11
-21.5
 21
-44.4233127327
 31
0.0
  0
LINE
  5
37E
100
AcDbEntity
  8
IMPORT_IGES
100
AcDbLine
 62
7
  6
CONTINUOUS
 10
-41.5174550649
 20
-22.4058576677
 30
0.0
 11
-41.5
 21
-22.4233127327
 31
0.0
  0
LINE
  5
37F
100
AcDbEntity
  8
IMPORT_IGES
100
AcDbLine
 62
7
  6
CONTINUOUS
 10
-42.4825449351
 20
-21.4407677976
 30
0.0
 11
-42.5
 21
-21.4233127327
 31
0.0
  0
LINE
  5
380
100
AcDbEntity
  8
IMPORT_IGES
100
AcDbLine
 62
7
  6
CONTINUOUS
 10
31.8865490573
 20
-89.2098617899
 30
0.0
 11
32.0
 21
-89.3233127327
 31
0.0
  0
LINE
  5
381
100
AcDbEntity
  8
IMPORT_IGES
100
AcDbLine
 62
7
  6
CONTINUOUS
 10
-53.2574929785
 20
8.5811269473
 30
0.0
 11
-53.1701910548
 21
8.4063099174
 31
0.0
  0
LINE
  5
382
100
AcDbEntity
  8
IMPORT_IGES
100
AcDbLine
 62
7
  6
CONTINUOUS
 10
-31.1134509427
 20
-89.2098617899
 30
0.0
 11
-31.1570836202
 21
-86.4162291125
 31
0.0
  0
LINE
  5
383
100
AcDbEntity
  8
IMPORT_IGES
100
AcDbLine
 62
7
  6
CONTINUOUS
 10
-31.8865490573
 20
131.3632363246
 30
0.0
 11
-31.8429163798
 21
128.5696036471
 31
0.0
  0
LINE
  5
384
100
AcDbEntity
  8
IMPORT_IGES
100
AcDbLine
 62
7
  6
CONTINUOUS
 10
-36.1872633515
 20
131.6712555099
 30
0.0
 11
-36.1936376623
 21
135.1457493723
 31
0.0
  0
LINE
  5
385
100
AcDbEntity
  8
IMPORT_IGES
100
AcDbLine
 62
7
  6
CONTINUOUS
 10
-39.0
 20
135.956149375
 30
0.0
 11
-39.0
 21
133.3766872673
 31
0.0
  0
LINE
  5
386
100
AcDbEntity
  8
IMPORT_IGES
100
AcDbLine
 62
7
  6
CONTINUOUS
 10
-36.1482716514
 20
131.6712555099
 30
0.0
 11
-36.15
 21
135.0147299241
 31
0.0
  0
LINE
  5
387
100
AcDbEntity
  8
0
100
AcDbLine
 62
7
  6
CONTINUOUS
 10
-35.15
 20
133.0112555099
 30
0.0
 11
-35.15
 21
131.6712555099
 31
0.0
  0
LINE
  5
388
100
AcDbEntity
  8
IMPORT_IGES
100
AcDbLine
 62
7
  6
CONTINUOUS
 10
-32.0
 20
-86.2487620834
 30
0.0
 11
-32.0
 21
-89.3233127327
 31
0.0
  0
LINE
  5
389
100
AcDbEntity
  8
IMPORT_IGES
100
AcDbLine
 62
7
  6
CONTINUOUS
 10
-32.0
 20
128.4021366181
 30
0.0
 11
-32.0
 21
131.4766872673
 31
0.0
  0
LINE
  5
38A
100
AcDbEntity
  8
IMPORT_IGES
100
AcDbLine
 62
7
  6
CONTINUOUS
 10
-31.8429163798
 20
-86.4162291125
 30
0.0
 11
-31.8429163798
 21
-85.9345709147
 31
0.0
  0
LINE
  5
38B
100
AcDbEntity
  8
IMPORT_IGES
100
AcDbLine
 62
7
  6
CONTINUOUS
 10
-31.8429163798
 20
128.0879454493
 30
0.0
 11
-31.8429163798
 21
128.5696036471
 31
0.0
  0
LINE
  5
38C
100
AcDbEntity
  8
IMPORT_IGES
100
AcDbLine
 62
7
  6
CONTINUOUS
 10
-31.1570836202
 20
128.5696036471
 30
0.0
 11
-31.1570836202
 21
128.0879454493
 31
0.0
  0
LINE
  5
38D
100
AcDbEntity
  8
IMPORT_IGES
100
AcDbLine
 62
7
  6
CONTINUOUS
 10
-31.1570836202
 20
-85.9345709147
 30
0.0
 11
-31.1570836202
 21
-86.4162291125
 31
0.0
  0
LINE
  5
38E
100
AcDbEntity
  8
IMPORT_IGES
100
AcDbLine
 62
7
  6
CONTINUOUS
 10
-31.0
 20
-86.2487620834
 30
0.0
 11
-31.0
 21
-89.3233127327
 31
0.0
  0
LINE
  5
38F
100
AcDbEntity
  8
IMPORT_IGES
100
AcDbLine
 62
7
  6
CONTINUOUS
 10
-31.0
 20
128.4021366181
 30
0.0
 11
-31.0
 21
131.4766872673
 31
0.0
  0
LINE
  5
390
100
AcDbEntity
  8
IMPORT_IGES
100
AcDbLine
 62
7
  6
CONTINUOUS
 10
-31.1570836202
 20
128.5696036471
 30
0.0
 11
-31.1134509427
 21
131.3632363246
 31
0.0
  0
LINE
  5
391
100
AcDbEntity
  8
IMPORT_IGES
100
AcDbLine
 62
7
  6
CONTINUOUS
 10
-31.8429163798
 20
-86.4162291125
 30
0.0
 11
-31.8865490573
 21
-89.2098617899
 31
0.0
  0
LINE
  5
392
100
AcDbEntity
  8
IMPORT_IGES
100
AcDbLine
 62
7
  6
CONTINUOUS
 10
51.0
 20
133.3766872673
 30
0.0
 11
50.6
 21
132.7766872673
 31
0.0
  0
LINE
  5
393
100
AcDbEntity
  8
IMPORT_IGES
100
AcDbLine
 62
7
  6
CONTINUOUS
 10
51.107276724
 20
134.6473379048
 30
0.0
 11
51.4512186848
 21
135.1457493723
 31
0.0
  0
LINE
  5
394
100
AcDbEntity
  8
IMPORT_IGES
100
AcDbLine
 62
7
  6
CONTINUOUS
 10
51.1517455065
 20
134.6334469032
 30
0.0
 11
51.4388837253
 21
135.0260325038
 31
0.0
  0
LINE
  5
395
100
AcDbEntity
  8
IMPORT_IGES
100
AcDbLine
 62
7
  6
CONTINUOUS
 10
-61.0365490573
 20
-10.8098617899
 30
0.0
 11
-61.15
 21
-10.9233127327
 31
0.0
  0
LINE
  5
396
100
AcDbEntity
  8
IMPORT_IGES
100
AcDbLine
 62
7
  6
CONTINUOUS
 10
41.5174550649
 20
86.5941423323
 30
0.0
 11
41.5
 21
86.5766872673
 31
0.0
  0
LINE
  5
397
100
AcDbEntity
  8
IMPORT_IGES
100
AcDbLine
 62
7
  6
CONTINUOUS
 10
42.4825449351
 20
87.5592322024
 30
0.0
 11
42.5
 21
87.5766872673
 31
0.0
  0
LINE
  5
398
100
AcDbEntity
  8
IMPORT_IGES
100
AcDbLine
 62
7
  6
CONTINUOUS
 10
20.5174550649
 20
63.5941423323
 30
0.0
 11
20.5
 21
63.5766872673
 31
0.0
  0
LINE
  5
399
100
AcDbEntity
  8
IMPORT_IGES
100
AcDbLine
 62
7
  6
CONTINUOUS
 10
21.4825449351
 20
64.5592322024
 30
0.0
 11
21.5
 21
64.5766872673
 31
0.0
  0
LINE
  5
39A
100
AcDbEntity
  8
IMPORT_IGES
100
AcDbLine
 62
7
  6
CONTINUOUS
 10
-0.4825449351
 20
41.5941423323
 30
0.0
 11
-0.5
 21
41.5766872673
 31
0.0
  0
LINE
  5
39B
100
AcDbEntity
  8
IMPORT_IGES
100
AcDbLine
 62
7
  6
CONTINUOUS
 10
-21.4825449351
 20
20.5941423323
 30
0.0
 11
-21.5
 21
20.5766872673
 31
0.0
  0
LINE
  5
39C
100
AcDbEntity
  8
IMPORT_IGES
100
AcDbLine
 62
7
  6
CONTINUOUS
 10
-41.5174550649
 20
0.5592322024
 30
0.0
 11
-41.5
 21
0.5766872673
 31
0.0
  0
LINE
  5
39D
100
AcDbEntity
  8
IMPORT_IGES
100
AcDbLine
 62
7
  6
CONTINUOUS
 10
-42.4825449351
 20
-0.4058576677
 30
0.0
 11
-42.5
 21
-0.4233127327
 31
0.0
  0
LINE
  5
39E
100
AcDbEntity
  8
IMPORT_IGES
100
AcDbLine
 62
7
  6
CONTINUOUS
 10
-20.5174550649
 20
21.5592322024
 30
0.0
 11
-20.5
 21
21.5766872673
 31
0.0
  0
LINE
  5
39F
100
AcDbEntity
  8
IMPORT_IGES
100
AcDbLine
 62
7
  6
CONTINUOUS
 10
0.4825449351
 20
42.5592322024
 30
0.0
 11
0.5
 21
42.5766872673
 31
0.0
  0
LINE
  5
3A0
100
AcDbEntity
  8
IMPORT_IGES
100
AcDbLine
 62
7
  6
CONTINUOUS
 10
61.0365490573
 20
-31.0367636754
 30
0.0
 11
58.2429163798
 21
-31.0803963529
 31
0.0
  0
LINE
  5
3A1
100
AcDbEntity
  8
IMPORT_IGES
100
AcDbLine
 62
7
  6
CONTINUOUS
 10
-61.0365490573
 20
-31.8098617899
 30
0.0
 11
-58.2429163798
 21
-31.7662291124
 31
0.0
  0
LINE
  5
3A2
100
AcDbEntity
  8
IMPORT_IGES
100
AcDbLine
 62
7
  6
CONTINUOUS
 10
58.0754493507
 20
-31.9233127327
 30
0.0
 11
61.15
 21
-31.9233127327
 31
0.0
  0
LINE
  5
3A3
100
AcDbEntity
  8
IMPORT_IGES
100
AcDbLine
 62
7
  6
CONTINUOUS
 10
-58.0754493507
 20
-31.9233127327
 30
0.0
 11
-61.15
 21
-31.9233127327
 31
0.0
  0
LINE
  5
3A4
100
AcDbEntity
  8
IMPORT_IGES
100
AcDbLine
 62
7
  6
CONTINUOUS
 10
58.2429163798
 20
-31.7662291124
 30
0.0
 11
57.761258182
 21
-31.7662291124
 31
0.0
  0
LINE
  5
3A5
100
AcDbEntity
  8
IMPORT_IGES
100
AcDbLine
 62
7
  6
CONTINUOUS
 10
-57.761258182
 20
-31.7662291124
 30
0.0
 11
-58.2429163798
 21
-31.7662291124
 31
0.0
  0
LINE
  5
3A6
100
AcDbEntity
  8
IMPORT_IGES
100
AcDbLine
 62
7
  6
CONTINUOUS
 10
-58.2429163798
 20
-31.0803963529
 30
0.0
 11
-57.761258182
 21
-31.0803963529
 31
0.0
  0
LINE
  5
3A7
100
AcDbEntity
  8
IMPORT_IGES
100
AcDbLine
 62
7
  6
CONTINUOUS
 10
57.761258182
 20
-31.0803963529
 30
0.0
 11
58.2429163798
 21
-31.0803963529
 31
0.0
  0
LINE
  5
3A8
100
AcDbEntity
  8
IMPORT_IGES
100
AcDbLine
 62
7
  6
CONTINUOUS
 10
58.0754493507
 20
-30.9233127327
 30
0.0
 11
61.15
 21
-30.9233127327
 31
0.0
  0
LINE
  5
3A9
100
AcDbEntity
  8
IMPORT_IGES
100
AcDbLine
 62
7
  6
CONTINUOUS
 10
-58.0754493507
 20
-30.9233127327
 30
0.0
 11
-61.15
 21
-30.9233127327
 31
0.0
  0
LINE
  5
3AA
100
AcDbEntity
  8
IMPORT_IGES
100
AcDbLine
 62
7
  6
CONTINUOUS
 10
-58.2429163798
 20
-31.0803963529
 30
0.0
 11
-61.0365490573
 21
-31.0367636754
 31
0.0
  0
LINE
  5
3AB
100
AcDbEntity
  8
IMPORT_IGES
100
AcDbLine
 62
7
  6
CONTINUOUS
 10
58.2429163798
 20
-31.7662291124
 30
0.0
 11
61.0365490573
 21
-31.8098617899
 31
0.0
  0
LINE
  5
3AC
100
AcDbEntity
  8
IMPORT_IGES
100
AcDbLine
 62
7
  6
CONTINUOUS
 10
-57.761258182
 20
-10.0803963529
 30
0.0
 11
-58.0754493507
 21
-9.9233127327
 31
0.0
  0
LINE
  5
3AD
100
AcDbEntity
  8
IMPORT_IGES
100
AcDbLine
 62
7
  6
CONTINUOUS
 10
20.5174550649
 20
-70.4407677976
 30
0.0
 11
20.5
 21
-70.4233127327
 31
0.0
  0
LINE
  5
3AE
100
AcDbEntity
  8
IMPORT_IGES
100
AcDbLine
 62
7
  6
CONTINUOUS
 10
21.4825449351
 20
-71.4058576677
 30
0.0
 11
21.5
 21
-71.4233127327
 31
0.0
  0
LINE
  5
3AF
100
AcDbEntity
  8
IMPORT_IGES
100
AcDbLine
 62
7
  6
CONTINUOUS
 10
-20.5174550649
 20
-22.4058576677
 30
0.0
 11
-20.5
 21
-22.4233127327
 31
0.0
  0
LINE
  5
3B0
100
AcDbEntity
  8
IMPORT_IGES
100
AcDbLine
 62
7
  6
CONTINUOUS
 10
-21.4825449351
 20
-21.4407677976
 30
0.0
 11
-21.5
 21
-21.4233127327
 31
0.0
  0
LINE
  5
3B1
100
AcDbEntity
  8
IMPORT_IGES
100
AcDbLine
 62
7
  6
CONTINUOUS
 10
-41.5174550649
 20
-0.4058576677
 30
0.0
 11
-41.5
 21
-0.4233127327
 31
0.0
  0
LINE
  5
3B2
100
AcDbEntity
  8
IMPORT_IGES
100
AcDbLine
 62
7
  6
CONTINUOUS
 10
-42.4825449351
 20
0.5592322024
 30
0.0
 11
-42.5
 21
0.5766872673
 31
0.0
  0
LINE
  5
3B3
100
AcDbEntity
  8
IMPORT_IGES
100
AcDbLine
 62
7
  6
CONTINUOUS
 10
0.4825449351
 20
-81.3085830179
 30
0.0
 11
0.5
 21
-81.3435037874
 31
0.0
  0
LINE
  5
3B4
100
AcDbEntity
  8
IMPORT_IGES
100
AcDbLine
 62
7
  6
CONTINUOUS
 10
-21.5
 20
126.0530353195
 30
0.0
 11
-21.5
 21
113.5766872673
 31
0.0
  0
LINE
  5
3B5
100
AcDbEntity
  8
IMPORT_IGES
100
AcDbLine
 62
7
  6
CONTINUOUS
 10
-21.5
 20
112.5766872673
 30
0.0
 11
-21.5
 21
87.5766872673
 31
0.0
  0
LINE
  5
3B6
100
AcDbEntity
  8
IMPORT_IGES
100
AcDbLine
 62
7
  6
CONTINUOUS
 10
-21.5
 20
86.5766872673
 30
0.0
 11
-21.5
 21
64.5766872673
 31
0.0
  0
LINE
  5
3B7
100
AcDbEntity
  8
IMPORT_IGES
100
AcDbLine
 62
7
  6
CONTINUOUS
 10
-21.5
 20
63.5766872673
 30
0.0
 11
-21.5
 21
42.5766872673
 31
0.0
  0
LINE
  5
3B8
100
AcDbEntity
  8
IMPORT_IGES
100
AcDbLine
 62
7
  6
CONTINUOUS
 10
-21.5
 20
41.5766872673
 30
0.0
 11
-21.5
 21
21.5766872673
 31
0.0
  0
LINE
  5
3B9
100
AcDbEntity
  8
IMPORT_IGES
100
AcDbLine
 62
7
  6
CONTINUOUS
 10
-21.5
 20
20.5766872673
 30
0.0
 11
-21.5
 21
0.5766872673
 31
0.0
  0
LINE
  5
3BA
100
AcDbEntity
  8
IMPORT_IGES
100
AcDbLine
 62
7
  6
CONTINUOUS
 10
-21.5
 20
-0.4233127327
 30
0.0
 11
-21.5
 21
-21.4233127327
 31
0.0
  0
LINE
  5
3BB
100
AcDbEntity
  8
IMPORT_IGES
100
AcDbLine
 62
7
  6
CONTINUOUS
 10
-21.5
 20
-22.4233127327
 30
0.0
 11
-21.5
 21
-44.4233127327
 31
0.0
  0
LINE
  5
3BC
100
AcDbEntity
  8
IMPORT_IGES
100
AcDbLine
 62
7
  6
CONTINUOUS
 10
-21.5
 20
-45.4233127327
 30
0.0
 11
-21.5
 21
-70.4233127327
 31
0.0
  0
LINE
  5
3BD
100
AcDbEntity
  8
IMPORT_IGES
100
AcDbLine
 62
7
  6
CONTINUOUS
 10
-21.5
 20
-71.4233127327
 30
0.0
 11
-21.5
 21
-83.8996607849
 31
0.0
  0
LINE
  5
3BE
100
AcDbEntity
  8
IMPORT_IGES
100
AcDbLine
 62
7
  6
CONTINUOUS
 10
-21.4825449351
 20
-82.1676099773
 30
0.0
 11
-21.4825449351
 21
-71.4058576678
 31
0.0
  0
LINE
  5
3BF
100
AcDbEntity
  8
IMPORT_IGES
100
AcDbLine
 62
7
  6
CONTINUOUS
 10
-21.4825449351
 20
-70.4407677976
 30
0.0
 11
-21.4825449351
 21
-45.4058576678
 31
0.0
  0
LINE
  5
3C0
100
AcDbEntity
  8
IMPORT_IGES
100
AcDbLine
 62
7
  6
CONTINUOUS
 10
-21.4825449351
 20
-44.4407677976
 30
0.0
 11
-21.4825449351
 21
-22.4058576677
 31
0.0
  0
LINE
  5
3C1
100
AcDbEntity
  8
IMPORT_IGES
100
AcDbLine
 62
7
  6
CONTINUOUS
 10
-21.4825449351
 20
-21.4407677976
 30
0.0
 11
-21.4825449351
 21
-0.4058576677
 31
0.0
  0
LINE
  5
3C2
100
AcDbEntity
  8
IMPORT_IGES
100
AcDbLine
 62
7
  6
CONTINUOUS
 10
-21.4825449351
 20
0.5592322024
 30
0.0
 11
-21.4825449351
 21
20.5941423323
 31
0.0
  0
LINE
  5
3C3
100
AcDbEntity
  8
IMPORT_IGES
100
AcDbLine
 62
7
  6
CONTINUOUS
 10
-21.4825449351
 20
21.5592322024
 30
0.0
 11
-21.4825449351
 21
41.5941423323
 31
0.0
  0
LINE
  5
3C4
100
AcDbEntity
  8
IMPORT_IGES
100
AcDbLine
 62
7
  6
CONTINUOUS
 10
-21.4825449351
 20
42.5592322024
 30
0.0
 11
-21.4825449351
 21
63.5941423323
 31
0.0
  0
LINE
  5
3C5
100
AcDbEntity
  8
IMPORT_IGES
100
AcDbLine
 62
7
  6
CONTINUOUS
 10
-21.4825449351
 20
64.5592322024
 30
0.0
 11
-21.4825449351
 21
86.5941423323
 31
0.0
  0
LINE
  5
3C6
100
AcDbEntity
  8
IMPORT_IGES
100
AcDbLine
 62
7
  6
CONTINUOUS
 10
-21.4825449351
 20
87.5592322024
 30
0.0
 11
-21.4825449351
 21
112.5941423323
 31
0.0
  0
LINE
  5
3C7
100
AcDbEntity
  8
IMPORT_IGES
100
AcDbLine
 62
7
  6
CONTINUOUS
 10
-21.4825449351
 20
113.5592322024
 30
0.0
 11
-21.4825449351
 21
124.3209845119
 31
0.0
  0
LINE
  5
3C8
100
AcDbEntity
  8
IMPORT_IGES
100
AcDbLine
 62
7
  6
CONTINUOUS
 10
-20.5174550649
 20
124.3209845119
 30
0.0
 11
-20.5174550649
 21
113.5592322024
 31
0.0
  0
LINE
  5
3C9
100
AcDbEntity
  8
IMPORT_IGES
100
AcDbLine
 62
7
  6
CONTINUOUS
 10
-20.5174550649
 20
112.5941423323
 30
0.0
 11
-20.5174550649
 21
87.5592322024
 31
0.0
  0
LINE
  5
3CA
100
AcDbEntity
  8
IMPORT_IGES
100
AcDbLine
 62
7
  6
CONTINUOUS
 10
-20.5174550649
 20
86.5941423323
 30
0.0
 11
-20.5174550649
 21
64.5592322024
 31
0.0
  0
LINE
  5
3CB
100
AcDbEntity
  8
IMPORT_IGES
100
AcDbLine
 62
7
  6
CONTINUOUS
 10
-20.5174550649
 20
63.5941423323
 30
0.0
 11
-20.5174550649
 21
42.5592322024
 31
0.0
  0
LINE
  5
3CC
100
AcDbEntity
  8
IMPORT_IGES
100
AcDbLine
 62
7
  6
CONTINUOUS
 10
-20.5174550649
 20
41.5941423323
 30
0.0
 11
-20.5174550649
 21
21.5592322024
 31
0.0
  0
LINE
  5
3CD
100
AcDbEntity
  8
IMPORT_IGES
100
AcDbLine
 62
7
  6
CONTINUOUS
 10
-20.5174550649
 20
20.5941423323
 30
0.0
 11
-20.5174550649
 21
0.5592322024
 31
0.0
  0
LINE
  5
3CE
100
AcDbEntity
  8
IMPORT_IGES
100
AcDbLine
 62
7
  6
CONTINUOUS
 10
-20.5174550649
 20
-0.4058576677
 30
0.0
 11
-20.5174550649
 21
-21.4407677976
 31
0.0
  0
LINE
  5
3CF
100
AcDbEntity
  8
IMPORT_IGES
100
AcDbLine
 62
7
  6
CONTINUOUS
 10
-20.5174550649
 20
-22.4058576677
 30
0.0
 11
-20.5174550649
 21
-44.4407677976
 31
0.0
  0
LINE
  5
3D0
100
AcDbEntity
  8
IMPORT_IGES
100
AcDbLine
 62
7
  6
CONTINUOUS
 10
-20.5174550649
 20
-45.4058576678
 30
0.0
 11
-20.5174550649
 21
-70.4407677976
 31
0.0
  0
LINE
  5
3D1
100
AcDbEntity
  8
IMPORT_IGES
100
AcDbLine
 62
7
  6
CONTINUOUS
 10
-20.5174550649
 20
-71.4058576678
 30
0.0
 11
-20.5174550649
 21
-82.1676099773
 31
0.0
  0
LINE
  5
3D2
100
AcDbEntity
  8
IMPORT_IGES
100
AcDbLine
 62
7
  6
CONTINUOUS
 10
-20.5
 20
126.0530353195
 30
0.0
 11
-20.5
 21
113.5766872673
 31
0.0
  0
LINE
  5
3D3
100
AcDbEntity
  8
IMPORT_IGES
100
AcDbLine
 62
7
  6
CONTINUOUS
 10
-20.5
 20
112.5766872673
 30
0.0
 11
-20.5
 21
87.5766872673
 31
0.0
  0
LINE
  5
3D4
100
AcDbEntity
  8
IMPORT_IGES
100
AcDbLine
 62
7
  6
CONTINUOUS
 10
-20.5
 20
86.5766872673
 30
0.0
 11
-20.5
 21
64.5766872673
 31
0.0
  0
LINE
  5
3D5
100
AcDbEntity
  8
IMPORT_IGES
100
AcDbLine
 62
7
  6
CONTINUOUS
 10
-20.5
 20
63.5766872673
 30
0.0
 11
-20.5
 21
42.5766872673
 31
0.0
  0
LINE
  5
3D6
100
AcDbEntity
  8
IMPORT_IGES
100
AcDbLine
 62
7
  6
CONTINUOUS
 10
-20.5
 20
41.5766872673
 30
0.0
 11
-20.5
 21
21.5766872673
 31
0.0
  0
LINE
  5
3D7
100
AcDbEntity
  8
IMPORT_IGES
100
AcDbLine
 62
7
  6
CONTINUOUS
 10
-20.5
 20
20.5766872673
 30
0.0
 11
-20.5
 21
0.5766872673
 31
0.0
  0
LINE
  5
3D8
100
AcDbEntity
  8
IMPORT_IGES
100
AcDbLine
 62
7
  6
CONTINUOUS
 10
-20.5
 20
-0.4233127327
 30
0.0
 11
-20.5
 21
-21.4233127327
 31
0.0
  0
LINE
  5
3D9
100
AcDbEntity
  8
IMPORT_IGES
100
AcDbLine
 62
7
  6
CONTINUOUS
 10
-20.5
 20
-22.4233127327
 30
0.0
 11
-20.5
 21
-44.4233127327
 31
0.0
  0
LINE
  5
3DA
100
AcDbEntity
  8
IMPORT_IGES
100
AcDbLine
 62
7
  6
CONTINUOUS
 10
-20.5
 20
-45.4233127327
 30
0.0
 11
-20.5
 21
-70.4233127327
 31
0.0
  0
LINE
  5
3DB
100
AcDbEntity
  8
IMPORT_IGES
100
AcDbLine
 62
7
  6
CONTINUOUS
 10
-20.5
 20
-71.4233127327
 30
0.0
 11
-20.5
 21
-83.8996607849
 31
0.0
  0
LINE
  5
3DC
100
AcDbEntity
  8
IMPORT_IGES
100
AcDbLine
 62
7
  6
CONTINUOUS
 10
31.8429163798
 20
128.0879454493
 30
0.0
 11
32.0
 21
128.4021366181
 31
0.0
  0
LINE
  5
3DD
100
AcDbEntity
  8
IMPORT_IGES
100
AcDbLine
 62
7
  6
CONTINUOUS
 10
61.0365490573
 20
94.9632363246
 30
0.0
 11
61.15
 21
95.0766872673
 31
0.0
  0
LINE
  5
3DE
100
AcDbEntity
  8
IMPORT_IGES
100
AcDbLine
 62
7
  6
CONTINUOUS
 10
-61.0365490573
 20
-31.8098617899
 30
0.0
 11
-61.15
 21
-31.9233127327
 31
0.0
  0
LINE
  5
3DF
100
AcDbEntity
  8
IMPORT_IGES
100
AcDbLine
 62
7
  6
CONTINUOUS
 10
57.761258182
 20
52.9196036471
 30
0.0
 11
58.0754493507
 21
53.0766872673
 31
0.0
  0
LINE
  5
3E0
100
AcDbEntity
  8
IMPORT_IGES
100
AcDbLine
 62
7
  6
CONTINUOUS
 10
-55.7263480522
 20
-22.4233127327
 30
0.0
 11
-42.5
 21
-22.4233127327
 31
0.0
  0
LINE
  5
3E1
100
AcDbEntity
  8
IMPORT_IGES
100
AcDbLine
 62
7
  6
CONTINUOUS
 10
-41.5
 20
-22.4233127327
 30
0.0
 11
-21.5
 21
-22.4233127327
 31
0.0
  0
LINE
  5
3E2
100
AcDbEntity
  8
IMPORT_IGES
100
AcDbLine
 62
7
  6
CONTINUOUS
 10
-20.5
 20
-22.4233127327
 30
0.0
 11
-15.640230176
 21
-22.4233127327
 31
0.0
  0
LINE
  5
3E3
100
AcDbEntity
  8
IMPORT_IGES
100
AcDbLine
 62
7
  6
CONTINUOUS
 10
15.640230176
 20
-22.4233127327
 30
0.0
 11
20.5
 21
-22.4233127327
 31
0.0
  0
LINE
  5
3E4
100
AcDbEntity
  8
IMPORT_IGES
100
AcDbLine
 62
7
  6
CONTINUOUS
 10
21.5
 20
-22.4233127327
 30
0.0
 11
41.5
 21
-22.4233127327
 31
0.0
  0
LINE
  5
3E5
100
AcDbEntity
  8
IMPORT_IGES
100
AcDbLine
 62
7
  6
CONTINUOUS
 10
42.5
 20
-22.4233127327
 30
0.0
 11
55.7263480522
 21
-22.4233127327
 31
0.0
  0
LINE
  5
3E6
100
AcDbEntity
  8
IMPORT_IGES
100
AcDbLine
 62
7
  6
CONTINUOUS
 10
53.9942972446
 20
-22.4058576677
 30
0.0
 11
42.4825449351
 21
-22.4058576677
 31
0.0
  0
LINE
  5
3E7
100
AcDbEntity
  8
IMPORT_IGES
100
AcDbLine
 62
7
  6
CONTINUOUS
 10
41.5174550649
 20
-22.4058576677
 30
0.0
 11
21.4825449351
 21
-22.4058576677
 31
0.0
  0
LINE
  5
3E8
100
AcDbEntity
  8
IMPORT_IGES
100
AcDbLine
 62
7
  6
CONTINUOUS
 10
20.5174550649
 20
-22.4058576677
 30
0.0
 11
15.5951236862
 21
-22.4058576677
 31
0.0
  0
LINE
  5
3E9
100
AcDbEntity
  8
IMPORT_IGES
100
AcDbLine
 62
7
  6
CONTINUOUS
 10
-15.5951236862
 20
-22.4058576677
 30
0.0
 11
-20.5174550649
 21
-22.4058576677
 31
0.0
  0
LINE
  5
3EA
100
AcDbEntity
  8
IMPORT_IGES
100
AcDbLine
 62
7
  6
CONTINUOUS
 10
-21.4825449351
 20
-22.4058576677
 30
0.0
 11
-41.5174550649
 21
-22.4058576677
 31
0.0
  0
LINE
  5
3EB
100
AcDbEntity
  8
IMPORT_IGES
100
AcDbLine
 62
7
  6
CONTINUOUS
 10
-42.4825449351
 20
-22.4058576677
 30
0.0
 11
-53.9942972446
 21
-22.4058576677
 31
0.0
  0
LINE
  5
3EC
100
AcDbEntity
  8
IMPORT_IGES
100
AcDbLine
 62
7
  6
CONTINUOUS
 10
-53.9942972446
 20
-21.4407677976
 30
0.0
 11
-42.4825449351
 21
-21.4407677976
 31
0.0
  0
LINE
  5
3ED
100
AcDbEntity
  8
IMPORT_IGES
100
AcDbLine
 62
7
  6
CONTINUOUS
 10
-41.5174550649
 20
-21.4407677976
 30
0.0
 11
-21.4825449351
 21
-21.4407677976
 31
0.0
  0
LINE
  5
3EE
100
AcDbEntity
  8
IMPORT_IGES
100
AcDbLine
 62
7
  6
CONTINUOUS
 10
-20.5174550649
 20
-21.4407677976
 30
0.0
 11
-15.1557455972
 21
-21.4407677976
 31
0.0
  0
LINE
  5
3EF
100
AcDbEntity
  8
IMPORT_IGES
100
AcDbLine
 62
7
  6
CONTINUOUS
 10
15.1557455972
 20
-21.4407677976
 30
0.0
 11
20.5174550649
 21
-21.4407677976
 31
0.0
  0
LINE
  5
3F0
100
AcDbEntity
  8
IMPORT_IGES
100
AcDbLine
 62
7
  6
CONTINUOUS
 10
21.4825449351
 20
-21.4407677976
 30
0.0
 11
41.5174550649
 21
-21.4407677976
 31
0.0
  0
LINE
  5
3F1
100
AcDbEntity
  8
IMPORT_IGES
100
AcDbLine
 62
7
  6
CONTINUOUS
 10
42.4825449351
 20
-21.4407677976
 30
0.0
 11
53.9942972446
 21
-21.4407677976
 31
0.0
  0
LINE
  5
3F2
100
AcDbEntity
  8
IMPORT_IGES
100
AcDbLine
 62
7
  6
CONTINUOUS
 10
-55.7263480522
 20
-21.4233127327
 30
0.0
 11
-42.5
 21
-21.4233127327
 31
0.0
  0
LINE
  5
3F3
100
AcDbEntity
  8
IMPORT_IGES
100
AcDbLine
 62
7
  6
CONTINUOUS
 10
-41.5
 20
-21.4233127327
 30
0.0
 11
-21.5
 21
-21.4233127327
 31
0.0
  0
LINE
  5
3F4
100
AcDbEntity
  8
IMPORT_IGES
100
AcDbLine
 62
7
  6
CONTINUOUS
 10
-20.5
 20
-21.4233127327
 30
0.0
 11
-15.1860725653
 21
-21.4233127327
 31
0.0
  0
LINE
  5
3F5
100
AcDbEntity
  8
IMPORT_IGES
100
AcDbLine
 62
7
  6
CONTINUOUS
 10
15.1860725653
 20
-21.4233127327
 30
0.0
 11
20.5
 21
-21.4233127327
 31
0.0
  0
LINE
  5
3F6
100
AcDbEntity
  8
IMPORT_IGES
100
AcDbLine
 62
7
  6
CONTINUOUS
 10
21.5
 20
-21.4233127327
 30
0.0
 11
41.5
 21
-21.4233127327
 31
0.0
  0
LINE
  5
3F7
100
AcDbEntity
  8
IMPORT_IGES
100
AcDbLine
 62
7
  6
CONTINUOUS
 10
42.5
 20
-21.4233127327
 30
0.0
 11
55.7263480522
 21
-21.4233127327
 31
0.0
  0
LINE
  5
3F8
100
AcDbEntity
  8
IMPORT_IGES
100
AcDbLine
 62
7
  6
CONTINUOUS
 10
57.761258182
 20
-52.7662291124
 30
0.0
 11
58.0754493507
 21
-52.9233127327
 31
0.0
  0
LINE
  5
3F9
100
AcDbEntity
  8
IMPORT_IGES
100
AcDbLine
 62
7
  6
CONTINUOUS
 10
-15.1860725653
 20
-21.4233127327
 30
0.0
 11
-15.1557455972
 21
-21.4407677976
 31
0.0
  0
LINE
  5
3FA
100
AcDbEntity
  8
IMPORT_IGES
100
AcDbLine
 62
250
  6
CONTINUOUS
 10
56.5145458618
 20
-88.6281282912
 30
0.0
 11
56.7009966747
 21
-88.8145791041
 31
0.0
  0
LINE
  5
3FB
100
AcDbEntity
  8
IMPORT_IGES
100
AcDbLine
 62
7
  6
CONTINUOUS
 10
41.5174550649
 20
-70.4407677976
 30
0.0
 11
41.5
 21
-70.4233127327
 31
0.0
  0
LINE
  5
3FC
100
AcDbEntity
  8
IMPORT_IGES
100
AcDbLine
 62
7
  6
CONTINUOUS
 10
42.4825449351
 20
-71.4058576677
 30
0.0
 11
42.5
 21
-71.4233127327
 31
0.0
  0
LINE
  5
3FD
100
AcDbEntity
  8
IMPORT_IGES
100
AcDbLine
 62
7
  6
CONTINUOUS
 10
15.8429163798
 20
-85.9345709147
 30
0.0
 11
16.0
 21
-86.2487620834
 31
0.0
  0
LINE
  5
3FE
100
AcDbEntity
  8
IMPORT_IGES
100
AcDbLine
 62
7
  6
CONTINUOUS
 10
-15.1134509427
 20
-89.2098617899
 30
0.0
 11
-15.1570836202
 21
-86.4162291125
 31
0.0
  0
LINE
  5
3FF
100
AcDbEntity
  8
IMPORT_IGES
100
AcDbLine
 62
7
  6
CONTINUOUS
 10
-15.8865490573
 20
131.3632363246
 30
0.0
 11
-15.8429163798
 21
128.5696036471
 31
0.0
  0
LINE
  5
400
100
AcDbEntity
  8
IMPORT_IGES
100
AcDbLine
 62
7
  6
CONTINUOUS
 10
-16.0
 20
-86.2487620834
 30
0.0
 11
-16.0
 21
-89.3233127327
 31
0.0
  0
LINE
  5
401
100
AcDbEntity
  8
IMPORT_IGES
100
AcDbLine
 62
7
  6
CONTINUOUS
 10
-16.0
 20
128.4021366181
 30
0.0
 11
-16.0
 21
131.4766872673
 31
0.0
  0
LINE
  5
402
100
AcDbEntity
  8
IMPORT_IGES
100
AcDbLine
 62
7
  6
CONTINUOUS
 10
-15.8429163798
 20
-86.4162291125
 30
0.0
 11
-15.8429163798
 21
-85.9345709147
 31
0.0
  0
LINE
  5
403
100
AcDbEntity
  8
IMPORT_IGES
100
AcDbLine
 62
7
  6
CONTINUOUS
 10
-15.8429163798
 20
128.0879454493
 30
0.0
 11
-15.8429163798
 21
128.5696036471
 31
0.0
  0
LINE
  5
404
100
AcDbEntity
  8
IMPORT_IGES
100
AcDbLine
 62
7
  6
CONTINUOUS
 10
-15.1570836202
 20
128.5696036471
 30
0.0
 11
-15.1570836202
 21
128.0879454493
 31
0.0
  0
LINE
  5
405
100
AcDbEntity
  8
IMPORT_IGES
100
AcDbLine
 62
7
  6
CONTINUOUS
 10
-15.1570836202
 20
-85.9345709147
 30
0.0
 11
-15.1570836202
 21
-86.4162291125
 31
0.0
  0
LINE
  5
406
100
AcDbEntity
  8
IMPORT_IGES
100
AcDbLine
 62
7
  6
CONTINUOUS
 10
-15.0
 20
-86.2487620834
 30
0.0
 11
-15.0
 21
-89.3233127327
 31
0.0
  0
LINE
  5
407
100
AcDbEntity
  8
IMPORT_IGES
100
AcDbLine
 62
7
  6
CONTINUOUS
 10
-15.0
 20
128.4021366181
 30
0.0
 11
-15.0
 21
131.4766872673
 31
0.0
  0
LINE
  5
408
100
AcDbEntity
  8
IMPORT_IGES
100
AcDbLine
 62
7
  6
CONTINUOUS
 10
-12.6703773499
 20
-81.3435037875
 30
0.0
 11
-12.6703773499
 21
-83.9342662586
 31
0.0
  0
LINE
  5
409
100
AcDbEntity
  8
IMPORT_IGES
100
AcDbLine
 62
7
  6
CONTINUOUS
 10
-12.6703773499
 20
123.4968783222
 30
0.0
 11
-12.6703773499
 21
126.0876407933
 31
0.0
  0
LINE
  5
40A
100
AcDbEntity
  8
IMPORT_IGES
100
AcDbLine
 62
7
  6
CONTINUOUS
 10
-12.49556032
 20
-83.4430242567
 30
0.0
 11
-12.49556032
 21
-81.4308057112
 31
0.0
  0
LINE
  5
40B
100
AcDbEntity
  8
IMPORT_IGES
100
AcDbLine
 62
7
  6
CONTINUOUS
 10
-12.49556032
 20
123.5841802459
 30
0.0
 11
-12.49556032
 21
125.5963987913
 31
0.0
  0
LINE
  5
40C
100
AcDbEntity
  8
IMPORT_IGES
100
AcDbLine
 62
250
  6
CONTINUOUS
 10
-12.4695506283
 20
-85.9497909619
 30
0.0
 11
-12.4695506283
 21
-83.4495167714
 31
0.0
  0
LINE
  5
40D
100
AcDbEntity
  8
IMPORT_IGES
100
AcDbLine
 62
250
  6
CONTINUOUS
 10
-12.4695506283
 20
125.6028913061
 30
0.0
 11
-12.4695506283
 21
128.1031654966
 31
0.0
  0
LINE
  5
40E
100
AcDbEntity
  8
IMPORT_IGES
100
AcDbLine
 62
7
  6
CONTINUOUS
 10
-15.1570836202
 20
128.5696036471
 30
0.0
 11
-15.1134509427
 21
131.3632363246
 31
0.0
  0
LINE
  5
40F
100
AcDbEntity
  8
IMPORT_IGES
100
AcDbLine
 62
7
  6
CONTINUOUS
 10
-15.8429163798
 20
-86.4162291125
 30
0.0
 11
-15.8865490573
 21
-89.2098617899
 31
0.0
  0
LINE
  5
410
100
AcDbEntity
  8
IMPORT_IGES
100
AcDbLine
 62
7
  6
CONTINUOUS
 10
41.5174550649
 20
63.5941423323
 30
0.0
 11
41.5
 21
63.5766872673
 31
0.0
  0
LINE
  5
411
100
AcDbEntity
  8
IMPORT_IGES
100
AcDbLine
 62
7
  6
CONTINUOUS
 10
42.4825449351
 20
64.5592322024
 30
0.0
 11
42.5
 21
64.5766872673
 31
0.0
  0
LINE
  5
412
100
AcDbEntity
  8
IMPORT_IGES
100
AcDbLine
 62
7
  6
CONTINUOUS
 10
20.5174550649
 20
41.5941423323
 30
0.0
 11
20.5
 21
41.5766872673
 31
0.0
  0
LINE
  5
413
100
AcDbEntity
  8
IMPORT_IGES
100
AcDbLine
 62
7
  6
CONTINUOUS
 10
-0.4825449351
 20
20.5941423323
 30
0.0
 11
-0.5
 21
20.5766872673
 31
0.0
  0
LINE
  5
414
100
AcDbEntity
  8
IMPORT_IGES
100
AcDbLine
 62
7
  6
CONTINUOUS
 10
-21.4825449351
 20
-0.4058576677
 30
0.0
 11
-21.5
 21
-0.4233127327
 31
0.0
  0
LINE
  5
415
100
AcDbEntity
  8
IMPORT_IGES
100
AcDbLine
 62
7
  6
CONTINUOUS
 10
-20.5174550649
 20
0.5592322024
 30
0.0
 11
-20.5
 21
0.5766872673
 31
0.0
  0
LINE
  5
416
100
AcDbEntity
  8
IMPORT_IGES
100
AcDbLine
 62
7
  6
CONTINUOUS
 10
0.4825449351
 20
21.5592322024
 30
0.0
 11
0.5
 21
21.5766872673
 31
0.0
  0
LINE
  5
417
100
AcDbEntity
  8
IMPORT_IGES
100
AcDbLine
 62
7
  6
CONTINUOUS
 10
21.4825449351
 20
42.5592322024
 30
0.0
 11
21.5
 21
42.5766872673
 31
0.0
  0
LINE
  5
418
100
AcDbEntity
  8
IMPORT_IGES
100
AcDbLine
 62
7
  6
CONTINUOUS
 10
-41.5174550649
 20
-21.4407677976
 30
0.0
 11
-41.5
 21
-21.4233127327
 31
0.0
  0
LINE
  5
419
100
AcDbEntity
  8
IMPORT_IGES
100
AcDbLine
 62
7
  6
CONTINUOUS
 10
-42.4825449351
 20
-22.4058576677
 30
0.0
 11
-42.5
 21
-22.4233127327
 31
0.0
  0
LINE
  5
41A
100
AcDbEntity
  8
IMPORT_IGES
100
AcDbLine
 62
7
  6
CONTINUOUS
 10
61.0365490573
 20
73.9632363246
 30
0.0
 11
61.15
 21
74.0766872673
 31
0.0
  0
LINE
  5
41B
100
AcDbEntity
  8
IMPORT_IGES
100
AcDbLine
 62
7
  6
CONTINUOUS
 10
-57.761258182
 20
-10.7662291124
 30
0.0
 11
-58.0754493507
 21
-10.9233127327
 31
0.0
  0
LINE
  5
41C
100
AcDbEntity
  8
IMPORT_IGES
100
AcDbLine
 62
7
  6
CONTINUOUS
 10
61.0365490573
 20
-10.0367636754
 30
0.0
 11
58.2429163798
 21
-10.0803963529
 31
0.0
  0
LINE
  5
41D
100
AcDbEntity
  8
IMPORT_IGES
100
AcDbLine
 62
7
  6
CONTINUOUS
 10
-61.0365490573
 20
-10.8098617899
 30
0.0
 11
-58.2429163798
 21
-10.7662291124
 31
0.0
  0
LINE
  5
41E
100
AcDbEntity
  8
IMPORT_IGES
100
AcDbLine
 62
7
  6
CONTINUOUS
 10
58.0754493507
 20
-10.9233127327
 30
0.0
 11
61.15
 21
-10.9233127327
 31
0.0
  0
LINE
  5
41F
100
AcDbEntity
  8
IMPORT_IGES
100
AcDbLine
 62
7
  6
CONTINUOUS
 10
-58.0754493507
 20
-10.9233127327
 30
0.0
 11
-61.15
 21
-10.9233127327
 31
0.0
  0
LINE
  5
420
100
AcDbEntity
  8
IMPORT_IGES
100
AcDbLine
 62
7
  6
CONTINUOUS
 10
58.2429163798
 20
-10.7662291124
 30
0.0
 11
57.761258182
 21
-10.7662291124
 31
0.0
  0
LINE
  5
421
100
AcDbEntity
  8
IMPORT_IGES
100
AcDbLine
 62
7
  6
CONTINUOUS
 10
-57.761258182
 20
-10.7662291124
 30
0.0
 11
-58.2429163798
 21
-10.7662291124
 31
0.0
  0
LINE
  5
422
100
AcDbEntity
  8
IMPORT_IGES
100
AcDbLine
 62
7
  6
CONTINUOUS
 10
-58.2429163798
 20
-10.0803963529
 30
0.0
 11
-57.761258182
 21
-10.0803963529
 31
0.0
  0
LINE
  5
423
100
AcDbEntity
  8
IMPORT_IGES
100
AcDbLine
 62
7
  6
CONTINUOUS
 10
57.761258182
 20
-10.0803963529
 30
0.0
 11
58.2429163798
 21
-10.0803963529
 31
0.0
  0
LINE
  5
424
100
AcDbEntity
  8
IMPORT_IGES
100
AcDbLine
 62
7
  6
CONTINUOUS
 10
58.0754493507
 20
-9.9233127327
 30
0.0
 11
61.15
 21
-9.9233127327
 31
0.0
  0
LINE
  5
425
100
AcDbEntity
  8
IMPORT_IGES
100
AcDbLine
 62
7
  6
CONTINUOUS
 10
-58.0754493507
 20
-9.9233127327
 30
0.0
 11
-61.15
 21
-9.9233127327
 31
0.0
  0
LINE
  5
426
100
AcDbEntity
  8
IMPORT_IGES
100
AcDbLine
 62
7
  6
CONTINUOUS
 10
-58.2429163798
 20
-10.0803963529
 30
0.0
 11
-61.0365490573
 21
-10.0367636754
 31
0.0
  0
LINE
  5
427
100
AcDbEntity
  8
IMPORT_IGES
100
AcDbLine
 62
7
  6
CONTINUOUS
 10
58.2429163798
 20
-10.7662291124
 30
0.0
 11
61.0365490573
 21
-10.8098617899
 31
0.0
  0
LINE
  5
428
100
AcDbEntity
  8
IMPORT_IGES
100
AcDbLine
 62
7
  6
CONTINUOUS
 10
20.5174550649
 20
-44.4407677976
 30
0.0
 11
20.5
 21
-44.4233127327
 31
0.0
  0
LINE
  5
429
100
AcDbEntity
  8
IMPORT_IGES
100
AcDbLine
 62
7
  6
CONTINUOUS
 10
21.4825449351
 20
-45.4058576677
 30
0.0
 11
21.5
 21
-45.4233127327
 31
0.0
  0
LINE
  5
42A
100
AcDbEntity
  8
IMPORT_IGES
100
AcDbLine
 62
7
  6
CONTINUOUS
 10
-41.5174550649
 20
20.5941423323
 30
0.0
 11
-41.5
 21
20.5766872673
 31
0.0
  0
LINE
  5
42B
100
AcDbEntity
  8
IMPORT_IGES
100
AcDbLine
 62
7
  6
CONTINUOUS
 10
-20.5174550649
 20
-0.4058576677
 30
0.0
 11
-20.5
 21
-0.4233127327
 31
0.0
  0
LINE
  5
42C
100
AcDbEntity
  8
IMPORT_IGES
100
AcDbLine
 62
7
  6
CONTINUOUS
 10
-21.4825449351
 20
0.5592322024
 30
0.0
 11
-21.5
 21
0.5766872673
 31
0.0
  0
LINE
  5
42D
100
AcDbEntity
  8
IMPORT_IGES
100
AcDbLine
 62
7
  6
CONTINUOUS
 10
-42.4825449351
 20
21.5592322024
 30
0.0
 11
-42.5
 21
21.5766872673
 31
0.0
  0
LINE
  5
42E
100
AcDbEntity
  8
IMPORT_IGES
100
AcDbLine
 62
250
  6
CONTINUOUS
 10
63.714817725
 20
-81.6478607609
 30
0.0
 11
63.6048155586
 21
-81.5378585945
 31
0.0
  0
LINE
  5
42F
100
AcDbEntity
  8
IMPORT_IGES
100
AcDbLine
 62
7
  6
CONTINUOUS
 10
63.9298066467
 20
-80.1483038208
 30
0.0
 11
63.9962403425
 21
-80.2147375167
 31
0.0
  0
LINE
  5
430
100
AcDbEntity
  8
IMPORT_IGES
100
AcDbLine
 62
7
  6
CONTINUOUS
 10
31.8429163798
 20
-85.9345709147
 30
0.0
 11
32.0
 21
-86.2487620834
 31
0.0
  0
LINE
  5
431
100
AcDbEntity
  8
IMPORT_IGES
100
AcDbLine
 62
7
  6
CONTINUOUS
 10
-7.5
 20
-89.9233127327
 30
0.0
 11
-7.5
 21
-91.9233127327
 31
0.0
  0
LINE
  5
432
100
AcDbEntity
  8
IMPORT_IGES
100
AcDbLine
 62
7
  6
CONTINUOUS
 10
-7.3427766622
 20
-91.7660893949
 30
0.0
 11
-7.3427766622
 21
-89.7660893949
 31
0.0
  0
LINE
  5
433
100
AcDbEntity
  8
IMPORT_IGES
100
AcDbLine
 62
7
  6
CONTINUOUS
 10
-0.5
 20
123.4968783222
 30
0.0
 11
-0.5
 21
113.5766872673
 31
0.0
  0
LINE
  5
434
100
AcDbEntity
  8
IMPORT_IGES
100
AcDbLine
 62
7
  6
CONTINUOUS
 10
-0.5
 20
112.5766872673
 30
0.0
 11
-0.5
 21
88.0064480441
 31
0.0
  0
LINE
  5
435
100
AcDbEntity
  8
IMPORT_IGES
100
AcDbLine
 62
7
  6
CONTINUOUS
 10
-0.5
 20
54.1469264906
 30
0.0
 11
-0.5
 21
42.5766872673
 31
0.0
  0
LINE
  5
436
100
AcDbEntity
  8
IMPORT_IGES
100
AcDbLine
 62
7
  6
CONTINUOUS
 10
-0.5
 20
41.5766872673
 30
0.0
 11
-0.5
 21
21.5766872673
 31
0.0
  0
LINE
  5
437
100
AcDbEntity
  8
IMPORT_IGES
100
AcDbLine
 62
7
  6
CONTINUOUS
 10
-0.5
 20
20.5766872673
 30
0.0
 11
-0.5
 21
0.5766872673
 31
0.0
  0
LINE
  5
438
100
AcDbEntity
  8
IMPORT_IGES
100
AcDbLine
 62
7
  6
CONTINUOUS
 10
-0.5
 20
-0.4233127327
 30
0.0
 11
-0.5
 21
-11.9935519559
 31
0.0
  0
LINE
  5
439
100
AcDbEntity
  8
IMPORT_IGES
100
AcDbLine
 62
7
  6
CONTINUOUS
 10
-0.5
 20
-45.8530735094
 30
0.0
 11
-0.5
 21
-70.4233127327
 31
0.0
  0
LINE
  5
43A
100
AcDbEntity
  8
IMPORT_IGES
100
AcDbLine
 62
7
  6
CONTINUOUS
 10
-0.5
 20
-71.4233127327
 30
0.0
 11
-0.5
 21
-81.3435037875
 31
0.0
  0
LINE
  5
43B
100
AcDbEntity
  8
IMPORT_IGES
100
AcDbLine
 62
7
  6
CONTINUOUS
 10
-0.4825449351
 20
-81.308583018
 30
0.0
 11
-0.4825449351
 21
-71.4058576678
 31
0.0
  0
LINE
  5
43C
100
AcDbEntity
  8
IMPORT_IGES
100
AcDbLine
 62
7
  6
CONTINUOUS
 10
-0.4825449351
 20
-70.4407677976
 30
0.0
 11
-0.4825449351
 21
-45.8186450377
 31
0.0
  0
LINE
  5
43D
100
AcDbEntity
  8
IMPORT_IGES
100
AcDbLine
 62
7
  6
CONTINUOUS
 10
-0.4825449351
 20
-12.0279804276
 30
0.0
 11
-0.4825449351
 21
-0.4058576677
 31
0.0
  0
LINE
  5
43E
100
AcDbEntity
  8
IMPORT_IGES
100
AcDbLine
 62
7
  6
CONTINUOUS
 10
-0.4825449351
 20
0.5592322024
 30
0.0
 11
-0.4825449351
 21
20.5941423323
 31
0.0
  0
LINE
  5
43F
100
AcDbEntity
  8
IMPORT_IGES
100
AcDbLine
 62
7
  6
CONTINUOUS
 10
-0.4825449351
 20
21.5592322024
 30
0.0
 11
-0.4825449351
 21
41.5941423323
 31
0.0
  0
LINE
  5
440
100
AcDbEntity
  8
IMPORT_IGES
100
AcDbLine
 62
7
  6
CONTINUOUS
 10
-0.4825449351
 20
42.5592322024
 30
0.0
 11
-0.4825449351
 21
54.1813549623
 31
0.0
  0
LINE
  5
441
100
AcDbEntity
  8
IMPORT_IGES
100
AcDbLine
 62
7
  6
CONTINUOUS
 10
-0.4825449351
 20
87.9720195724
 30
0.0
 11
-0.4825449351
 21
112.5941423323
 31
0.0
  0
LINE
  5
442
100
AcDbEntity
  8
IMPORT_IGES
100
AcDbLine
 62
7
  6
CONTINUOUS
 10
-0.4825449351
 20
113.5592322024
 30
0.0
 11
-0.4825449351
 21
123.4619575527
 31
0.0
  0
LINE
  5
443
100
AcDbEntity
  8
IMPORT_IGES
100
AcDbLine
 62
7
  6
CONTINUOUS
 10
0.4825449351
 20
123.4619575527
 30
0.0
 11
0.4825449351
 21
113.5592322024
 31
0.0
  0
LINE
  5
444
100
AcDbEntity
  8
IMPORT_IGES
100
AcDbLine
 62
7
  6
CONTINUOUS
 10
0.4825449351
 20
112.5941423323
 30
0.0
 11
0.4825449351
 21
87.9720195724
 31
0.0
  0
LINE
  5
445
100
AcDbEntity
  8
IMPORT_IGES
100
AcDbLine
 62
7
  6
CONTINUOUS
 10
0.4825449351
 20
54.1813549623
 30
0.0
 11
0.4825449351
 21
42.5592322024
 31
0.0
  0
LINE
  5
446
100
AcDbEntity
  8
IMPORT_IGES
100
AcDbLine
 62
7
  6
CONTINUOUS
 10
0.4825449351
 20
41.5941423323
 30
0.0
 11
0.4825449351
 21
21.5592322024
 31
0.0
  0
LINE
  5
447
100
AcDbEntity
  8
IMPORT_IGES
100
AcDbLine
 62
7
  6
CONTINUOUS
 10
0.4825449351
 20
20.5941423323
 30
0.0
 11
0.4825449351
 21
0.5592322024
 31
0.0
  0
LINE
  5
448
100
AcDbEntity
  8
IMPORT_IGES
100
AcDbLine
 62
7
  6
CONTINUOUS
 10
0.4825449351
 20
-0.4058576677
 30
0.0
 11
0.4825449351
 21
-12.0279804276
 31
0.0
  0
LINE
  5
449
100
AcDbEntity
  8
IMPORT_IGES
100
AcDbLine
 62
7
  6
CONTINUOUS
 10
0.4825449351
 20
-45.8186450377
 30
0.0
 11
0.4825449351
 21
-70.4407677976
 31
0.0
  0
LINE
  5
44A
100
AcDbEntity
  8
IMPORT_IGES
100
AcDbLine
 62
7
  6
CONTINUOUS
 10
0.4825449351
 20
-71.4058576678
 30
0.0
 11
0.4825449351
 21
-81.308583018
 31
0.0
  0
LINE
  5
44B
100
AcDbEntity
  8
IMPORT_IGES
100
AcDbLine
 62
7
  6
CONTINUOUS
 10
0.5
 20
123.4968783222
 30
0.0
 11
0.5
 21
113.5766872673
 31
0.0
  0
LINE
  5
44C
100
AcDbEntity
  8
IMPORT_IGES
100
AcDbLine
 62
7
  6
CONTINUOUS
 10
0.5
 20
112.5766872673
 30
0.0
 11
0.5
 21
88.0064480441
 31
0.0
  0
LINE
  5
44D
100
AcDbEntity
  8
IMPORT_IGES
100
AcDbLine
 62
7
  6
CONTINUOUS
 10
0.5
 20
54.1469264906
 30
0.0
 11
0.5
 21
42.5766872673
 31
0.0
  0
LINE
  5
44E
100
AcDbEntity
  8
IMPORT_IGES
100
AcDbLine
 62
7
  6
CONTINUOUS
 10
0.5
 20
41.5766872673
 30
0.0
 11
0.5
 21
21.5766872673
 31
0.0
  0
LINE
  5
44F
100
AcDbEntity
  8
IMPORT_IGES
100
AcDbLine
 62
7
  6
CONTINUOUS
 10
0.5
 20
20.5766872673
 30
0.0
 11
0.5
 21
0.5766872673
 31
0.0
  0
LINE
  5
450
100
AcDbEntity
  8
IMPORT_IGES
100
AcDbLine
 62
7
  6
CONTINUOUS
 10
0.5
 20
-0.4233127327
 30
0.0
 11
0.5
 21
-11.9935519559
 31
0.0
  0
LINE
  5
451
100
AcDbEntity
  8
IMPORT_IGES
100
AcDbLine
 62
7
  6
CONTINUOUS
 10
0.5
 20
-45.8530735094
 30
0.0
 11
0.5
 21
-70.4233127327
 31
0.0
  0
LINE
  5
452
100
AcDbEntity
  8
IMPORT_IGES
100
AcDbLine
 62
7
  6
CONTINUOUS
 10
0.5
 20
-71.4233127327
 30
0.0
 11
0.5
 21
-81.3435037875
 31
0.0
  0
LINE
  5
453
100
AcDbEntity
  8
IMPORT_IGES
100
AcDbLine
 62
7
  6
CONTINUOUS
 10
36.1936376623
 20
135.1457493723
 30
0.0
 11
36.15
 21
135.0147299241
 31
0.0
  0
LINE
  5
454
100
AcDbEntity
  8
IMPORT_IGES
100
AcDbLine
 62
7
  6
CONTINUOUS
 10
-61.0365490573
 20
-52.8098617899
 30
0.0
 11
-61.15
 21
-52.9233127327
 31
0.0
  0
LINE
  5
455
100
AcDbEntity
  8
IMPORT_IGES
100
AcDbLine
 62
7
  6
CONTINUOUS
 10
41.5174550649
 20
41.5941423323
 30
0.0
 11
41.5
 21
41.5766872673
 31
0.0
  0
LINE
  5
456
100
AcDbEntity
  8
IMPORT_IGES
100
AcDbLine
 62
7
  6
CONTINUOUS
 10
20.5174550649
 20
20.5941423323
 30
0.0
 11
20.5
 21
20.5766872673
 31
0.0
  0
LINE
  5
457
100
AcDbEntity
  8
IMPORT_IGES
100
AcDbLine
 62
7
  6
CONTINUOUS
 10
-0.4825449351
 20
-0.4058576677
 30
0.0
 11
-0.5
 21
-0.4233127327
 31
0.0
  0
LINE
  5
458
100
AcDbEntity
  8
IMPORT_IGES
100
AcDbLine
 62
7
  6
CONTINUOUS
 10
0.4825449351
 20
0.5592322024
 30
0.0
 11
0.5
 21
0.5766872673
 31
0.0
  0
LINE
  5
459
100
AcDbEntity
  8
IMPORT_IGES
100
AcDbLine
 62
7
  6
CONTINUOUS
 10
21.4825449351
 20
21.5592322024
 30
0.0
 11
21.5
 21
21.5766872673
 31
0.0
  0
LINE
  5
45A
100
AcDbEntity
  8
IMPORT_IGES
100
AcDbLine
 62
7
  6
CONTINUOUS
 10
42.4825449351
 20
42.5592322024
 30
0.0
 11
42.5
 21
42.5766872673
 31
0.0
  0
LINE
  5
45B
100
AcDbEntity
  8
IMPORT_IGES
100
AcDbLine
 62
7
  6
CONTINUOUS
 10
-20.5174550649
 20
-21.4407677976
 30
0.0
 11
-20.5
 21
-21.4233127327
 31
0.0
  0
LINE
  5
45C
100
AcDbEntity
  8
IMPORT_IGES
100
AcDbLine
 62
7
  6
CONTINUOUS
 10
-21.4825449351
 20
-22.4058576677
 30
0.0
 11
-21.5
 21
-22.4233127327
 31
0.0
  0
LINE
  5
45D
100
AcDbEntity
  8
IMPORT_IGES
100
AcDbLine
 62
7
  6
CONTINUOUS
 10
-55.7263480522
 20
-0.4233127327
 30
0.0
 11
-42.5
 21
-0.4233127327
 31
0.0
  0
LINE
  5
45E
100
AcDbEntity
  8
IMPORT_IGES
100
AcDbLine
 62
7
  6
CONTINUOUS
 10
-41.5
 20
-0.4233127327
 30
0.0
 11
-21.5
 21
-0.4233127327
 31
0.0
  0
LINE
  5
45F
100
AcDbEntity
  8
IMPORT_IGES
100
AcDbLine
 62
7
  6
CONTINUOUS
 10
-20.5
 20
-0.4233127327
 30
0.0
 11
-0.5
 21
-0.4233127327
 31
0.0
  0
LINE
  5
460
100
AcDbEntity
  8
IMPORT_IGES
100
AcDbLine
 62
7
  6
CONTINUOUS
 10
0.5
 20
-0.4233127327
 30
0.0
 11
20.5
 21
-0.4233127327
 31
0.0
  0
LINE
  5
461
100
AcDbEntity
  8
IMPORT_IGES
100
AcDbLine
 62
7
  6
CONTINUOUS
 10
21.5
 20
-0.4233127327
 30
0.0
 11
41.5
 21
-0.4233127327
 31
0.0
  0
LINE
  5
462
100
AcDbEntity
  8
IMPORT_IGES
100
AcDbLine
 62
7
  6
CONTINUOUS
 10
42.5
 20
-0.4233127327
 30
0.0
 11
55.7263480522
 21
-0.4233127327
 31
0.0
  0
LINE
  5
463
100
AcDbEntity
  8
IMPORT_IGES
100
AcDbLine
 62
7
  6
CONTINUOUS
 10
53.9942972446
 20
-0.4058576677
 30
0.0
 11
42.4825449351
 21
-0.4058576677
 31
0.0
  0
LINE
  5
464
100
AcDbEntity
  8
IMPORT_IGES
100
AcDbLine
 62
7
  6
CONTINUOUS
 10
41.5174550649
 20
-0.4058576677
 30
0.0
 11
21.4825449351
 21
-0.4058576677
 31
0.0
  0
LINE
  5
465
100
AcDbEntity
  8
IMPORT_IGES
100
AcDbLine
 62
7
  6
CONTINUOUS
 10
20.5174550649
 20
-0.4058576677
 30
0.0
 11
0.4825449351
 21
-0.4058576677
 31
0.0
  0
LINE
  5
466
100
AcDbEntity
  8
IMPORT_IGES
100
AcDbLine
 62
7
  6
CONTINUOUS
 10
-0.4825449351
 20
-0.4058576677
 30
0.0
 11
-20.5174550649
 21
-0.4058576677
 31
0.0
  0
LINE
  5
467
100
AcDbEntity
  8
IMPORT_IGES
100
AcDbLine
 62
7
  6
CONTINUOUS
 10
-21.4825449351
 20
-0.4058576677
 30
0.0
 11
-41.5174550649
 21
-0.4058576677
 31
0.0
  0
LINE
  5
468
100
AcDbEntity
  8
IMPORT_IGES
100
AcDbLine
 62
7
  6
CONTINUOUS
 10
-42.4825449351
 20
-0.4058576677
 30
0.0
 11
-53.9942972446
 21
-0.4058576677
 31
0.0
  0
LINE
  5
469
100
AcDbEntity
  8
IMPORT_IGES
100
AcDbLine
 62
7
  6
CONTINUOUS
 10
-53.9942972446
 20
0.5592322024
 30
0.0
 11
-42.4825449351
 21
0.5592322024
 31
0.0
  0
LINE
  5
46A
100
AcDbEntity
  8
IMPORT_IGES
100
AcDbLine
 62
7
  6
CONTINUOUS
 10
-41.5174550649
 20
0.5592322024
 30
0.0
 11
-21.4825449351
 21
0.5592322024
 31
0.0
  0
LINE
  5
46B
100
AcDbEntity
  8
IMPORT_IGES
100
AcDbLine
 62
7
  6
CONTINUOUS
 10
-20.5174550649
 20
0.5592322024
 30
0.0
 11
-0.4825449351
 21
0.5592322024
 31
0.0
  0
LINE
  5
46C
100
AcDbEntity
  8
IMPORT_IGES
100
AcDbLine
 62
7
  6
CONTINUOUS
 10
0.4825449351
 20
0.5592322024
 30
0.0
 11
20.5174550649
 21
0.5592322024
 31
0.0
  0
LINE
  5
46D
100
AcDbEntity
  8
IMPORT_IGES
100
AcDbLine
 62
7
  6
CONTINUOUS
 10
21.4825449351
 20
0.5592322024
 30
0.0
 11
41.5174550649
 21
0.5592322024
 31
0.0
  0
LINE
  5
46E
100
AcDbEntity
  8
IMPORT_IGES
100
AcDbLine
 62
7
  6
CONTINUOUS
 10
42.4825449351
 20
0.5592322024
 30
0.0
 11
53.9942972446
 21
0.5592322024
 31
0.0
  0
LINE
  5
46F
100
AcDbEntity
  8
IMPORT_IGES
100
AcDbLine
 62
7
  6
CONTINUOUS
 10
-55.7263480522
 20
0.5766872673
 30
0.0
 11
-42.5
 21
0.5766872673
 31
0.0
  0
LINE
  5
470
100
AcDbEntity
  8
IMPORT_IGES
100
AcDbLine
 62
7
  6
CONTINUOUS
 10
-41.5
 20
0.5766872673
 30
0.0
 11
-21.5
 21
0.5766872673
 31
0.0
  0
LINE
  5
471
100
AcDbEntity
  8
IMPORT_IGES
100
AcDbLine
 62
7
  6
CONTINUOUS
 10
-20.5
 20
0.5766872673
 30
0.0
 11
-0.5
 21
0.5766872673
 31
0.0
  0
LINE
  5
472
100
AcDbEntity
  8
IMPORT_IGES
100
AcDbLine
 62
7
  6
CONTINUOUS
 10
0.5
 20
0.5766872673
 30
0.0
 11
20.5
 21
0.5766872673
 31
0.0
  0
LINE
  5
473
100
AcDbEntity
  8
IMPORT_IGES
100
AcDbLine
 62
7
  6
CONTINUOUS
 10
21.5
 20
0.5766872673
 30
0.0
 11
41.5
 21
0.5766872673
 31
0.0
  0
LINE
  5
474
100
AcDbEntity
  8
IMPORT_IGES
100
AcDbLine
 62
7
  6
CONTINUOUS
 10
42.5
 20
0.5766872673
 30
0.0
 11
55.7263480522
 21
0.5766872673
 31
0.0
  0
LINE
  5
475
100
AcDbEntity
  8
IMPORT_IGES
100
AcDbLine
 62
7
  6
CONTINUOUS
 10
-53.1352702853
 20
21.5592322024
 30
0.0
 11
-53.1701910548
 21
21.5766872673
 31
0.0
  0
LINE
  5
476
100
AcDbEntity
  8
IMPORT_IGES
100
AcDbLine
 62
7
  6
CONTINUOUS
 10
57.761258182
 20
-31.7662291124
 30
0.0
 11
58.0754493507
 21
-31.9233127327
 31
0.0
  0
LINE
  5
477
100
AcDbEntity
  8
IMPORT_IGES
100
AcDbLine
 62
7
  6
CONTINUOUS
 10
-61.0365490573
 20
52.9632363246
 30
0.0
 11
-61.15
 21
53.0766872673
 31
0.0
  0
LINE
  5
478
100
AcDbEntity
  8
IMPORT_IGES
100
AcDbLine
 62
7
  6
CONTINUOUS
 10
41.5174550649
 20
-44.4407677976
 30
0.0
 11
41.5
 21
-44.4233127327
 31
0.0
  0
LINE
  5
479
100
AcDbEntity
  8
IMPORT_IGES
100
AcDbLine
 62
7
  6
CONTINUOUS
 10
42.4825449351
 20
-45.4058576677
 30
0.0
 11
42.5
 21
-45.4233127327
 31
0.0
  0
LINE
  5
47A
100
AcDbEntity
  8
IMPORT_IGES
100
AcDbLine
 62
7
  6
CONTINUOUS
 10
20.5174550649
 20
-21.4407677976
 30
0.0
 11
20.5
 21
-21.4233127327
 31
0.0
  0
LINE
  5
47B
100
AcDbEntity
  8
IMPORT_IGES
100
AcDbLine
 62
7
  6
CONTINUOUS
 10
21.4825449351
 20
-22.4058576677
 30
0.0
 11
21.5
 21
-22.4233127327
 31
0.0
  0
LINE
  5
47C
100
AcDbEntity
  8
IMPORT_IGES
100
AcDbLine
 62
7
  6
CONTINUOUS
 10
-41.5174550649
 20
41.5941423323
 30
0.0
 11
-41.5
 21
41.5766872673
 31
0.0
  0
LINE
  5
47D
100
AcDbEntity
  8
IMPORT_IGES
100
AcDbLine
 62
7
  6
CONTINUOUS
 10
-20.5174550649
 20
20.5941423323
 30
0.0
 11
-20.5
 21
20.5766872673
 31
0.0
  0
LINE
  5
47E
100
AcDbEntity
  8
IMPORT_IGES
100
AcDbLine
 62
7
  6
CONTINUOUS
 10
0.4825449351
 20
-0.4058576677
 30
0.0
 11
0.5
 21
-0.4233127327
 31
0.0
  0
LINE
  5
47F
100
AcDbEntity
  8
IMPORT_IGES
100
AcDbLine
 62
7
  6
CONTINUOUS
 10
-0.4825449351
 20
0.5592322024
 30
0.0
 11
-0.5
 21
0.5766872673
 31
0.0
  0
LINE
  5
480
100
AcDbEntity
  8
IMPORT_IGES
100
AcDbLine
 62
7
  6
CONTINUOUS
 10
-21.4825449351
 20
21.5592322024
 30
0.0
 11
-21.5
 21
21.5766872673
 31
0.0
  0
LINE
  5
481
100
AcDbEntity
  8
IMPORT_IGES
100
AcDbLine
 62
7
  6
CONTINUOUS
 10
-42.4825449351
 20
42.5592322024
 30
0.0
 11
-42.5
 21
42.5766872673
 31
0.0
  0
LINE
  5
482
100
AcDbEntity
  8
IMPORT_IGES
100
AcDbLine
 62
7
  6
CONTINUOUS
 10
7.3427766622
 20
-89.7660893949
 30
0.0
 11
7.3427766622
 21
-91.7660893949
 31
0.0
  0
LINE
  5
483
100
AcDbEntity
  8
IMPORT_IGES
100
AcDbLine
 62
7
  6
CONTINUOUS
 10
7.5
 20
-89.9233127327
 30
0.0
 11
7.5
 21
-91.9233127327
 31
0.0
  0
LINE
  5
484
100
AcDbEntity
  8
IMPORT_IGES
100
AcDbLine
 62
7
  6
CONTINUOUS
 10
-31.8429163798
 20
-85.9345709147
 30
0.0
 11
-32.0
 21
-86.2487620834
 31
0.0
  0
LINE
  5
485
100
AcDbEntity
  8
IMPORT_IGES
100
AcDbLine
 62
7
  6
CONTINUOUS
 10
-41.5174550649
 20
-44.4407677976
 30
0.0
 11
-41.5
 21
-44.4233127327
 31
0.0
  0
LINE
  5
486
100
AcDbEntity
  8
IMPORT_IGES
100
AcDbLine
 62
7
  6
CONTINUOUS
 10
-42.4825449351
 20
-45.4058576677
 30
0.0
 11
-42.5
 21
-45.4233127327
 31
0.0
  0
LINE
  5
487
100
AcDbEntity
  8
IMPORT_IGES
100
AcDbLine
 62
7
  6
CONTINUOUS
 10
61.0365490573
 20
52.9632363246
 30
0.0
 11
61.15
 21
53.0766872673
 31
0.0
  0
LINE
  5
488
100
AcDbEntity
  8
IMPORT_IGES
100
AcDbLine
 62
7
  6
CONTINUOUS
 10
-63.9298066467
 20
-80.1483038208
 30
0.0
 11
-63.9962403426
 21
-80.2147375166
 31
0.0
  0
LINE
  5
489
100
AcDbEntity
  8
IMPORT_IGES
100
AcDbLine
 62
7
  6
CONTINUOUS
 10
-57.761258182
 20
-31.7662291124
 30
0.0
 11
-58.0754493507
 21
-31.9233127327
 31
0.0
  0
LINE
  5
48A
100
AcDbEntity
  8
IMPORT_IGES
100
AcDbLine
 62
7
  6
CONTINUOUS
 10
53.1352702853
 20
21.5592322024
 30
0.0
 11
53.1701910548
 21
21.5766872673
 31
0.0
  0
LINE
  5
48B
100
AcDbEntity
  8
IMPORT_IGES
100
AcDbLine
 62
7
  6
CONTINUOUS
 10
53.1701910548
 20
8.4063099174
 30
0.0
 11
55.7609535259
 21
8.4063099174
 31
0.0
  0
LINE
  5
48C
100
AcDbEntity
  8
IMPORT_IGES
100
AcDbLine
 62
7
  6
CONTINUOUS
 10
-53.1701910548
 20
8.4063099174
 30
0.0
 11
-55.7609535259
 21
8.4063099174
 31
0.0
  0
LINE
  5
48D
100
AcDbEntity
  8
IMPORT_IGES
100
AcDbLine
 62
7
  6
CONTINUOUS
 10
-55.269711524
 20
8.5811269473
 30
0.0
 11
-53.2574929785
 21
8.5811269473
 31
0.0
  0
LINE
  5
48E
100
AcDbEntity
  8
IMPORT_IGES
100
AcDbLine
 62
7
  6
CONTINUOUS
 10
53.2574929785
 20
8.5811269473
 30
0.0
 11
55.269711524
 21
8.5811269473
 31
0.0
  0
LINE
  5
48F
100
AcDbEntity
  8
IMPORT_IGES
100
AcDbLine
 62
250
  6
CONTINUOUS
 10
57.7764782292
 20
8.6071366391
 30
0.0
 11
55.9762040388
 21
8.6071366391
 31
0.0
  0
LINE
  5
490
100
AcDbEntity
  8
IMPORT_IGES
100
AcDbLine
 62
250
  6
CONTINUOUS
 10
-55.9762040388
 20
8.6071366391
 30
0.0
 11
-57.7764782292
 21
8.6071366391
 31
0.0
  0
LINE
  5
491
100
AcDbEntity
  8
IMPORT_IGES
100
AcDbLine
 62
7
  6
CONTINUOUS
 10
61.0365490573
 20
-52.8098617899
 30
0.0
 11
61.15
 21
-52.9233127327
 31
0.0
  0
LINE
  5
492
100
AcDbEntity
  8
IMPORT_IGES
100
AcDbLine
 62
7
  6
CONTINUOUS
 10
-61.0365490573
 20
73.9632363246
 30
0.0
 11
-61.15
 21
74.0766872673
 31
0.0
  0
LINE
  5
493
100
AcDbEntity
  8
IMPORT_IGES
100
AcDbLine
 62
7
  6
CONTINUOUS
 10
-36.1936376623
 20
135.1457493723
 30
0.0
 11
-36.15
 21
135.0147299241
 31
0.0
  0
LINE
  5
494
100
AcDbEntity
  8
IMPORT_IGES
100
AcDbLine
 62
7
  6
CONTINUOUS
 10
15.8865490573
 20
-89.2098617899
 30
0.0
 11
15.8429163798
 21
-86.4162291125
 31
0.0
  0
LINE
  5
495
100
AcDbEntity
  8
IMPORT_IGES
100
AcDbLine
 62
7
  6
CONTINUOUS
 10
15.1134509427
 20
131.3632363246
 30
0.0
 11
15.1570836202
 21
128.5696036471
 31
0.0
  0
LINE
  5
496
100
AcDbEntity
  8
IMPORT_IGES
100
AcDbLine
 62
250
  6
CONTINUOUS
 10
12.4695506283
 20
128.1031654966
 30
0.0
 11
12.4695506283
 21
125.6028913061
 31
0.0
  0
LINE
  5
497
100
AcDbEntity
  8
IMPORT_IGES
100
AcDbLine
 62
250
  6
CONTINUOUS
 10
12.4695506282
 20
-83.4495167714
 30
0.0
 11
12.4695506282
 21
-85.9497909619
 31
0.0
  0
LINE
  5
498
100
AcDbEntity
  8
IMPORT_IGES
100
AcDbLine
 62
7
  6
CONTINUOUS
 10
12.49556032
 20
125.5963987913
 30
0.0
 11
12.49556032
 21
123.5841802459
 31
0.0
  0
LINE
  5
499
100
AcDbEntity
  8
IMPORT_IGES
100
AcDbLine
 62
7
  6
CONTINUOUS
 10
12.49556032
 20
-81.4308057112
 30
0.0
 11
12.49556032
 21
-83.4430242567
 31
0.0
  0
LINE
  5
49A
100
AcDbEntity
  8
IMPORT_IGES
100
AcDbLine
 62
7
  6
CONTINUOUS
 10
12.6703773499
 20
-81.3435037875
 30
0.0
 11
12.6703773499
 21
-83.9342662586
 31
0.0
  0
LINE
  5
49B
100
AcDbEntity
  8
IMPORT_IGES
100
AcDbLine
 62
7
  6
CONTINUOUS
 10
12.6703773499
 20
123.4968783222
 30
0.0
 11
12.6703773499
 21
126.0876407933
 31
0.0
  0
LINE
  5
49C
100
AcDbEntity
  8
IMPORT_IGES
100
AcDbLine
 62
7
  6
CONTINUOUS
 10
15.0
 20
-86.2487620834
 30
0.0
 11
15.0
 21
-89.3233127327
 31
0.0
  0
LINE
  5
49D
100
AcDbEntity
  8
IMPORT_IGES
100
AcDbLine
 62
7
  6
CONTINUOUS
 10
15.0
 20
128.4021366181
 30
0.0
 11
15.0
 21
131.4766872673
 31
0.0
  0
LINE
  5
49E
100
AcDbEntity
  8
IMPORT_IGES
100
AcDbLine
 62
7
  6
CONTINUOUS
 10
15.1570836202
 20
-86.4162291125
 30
0.0
 11
15.1570836202
 21
-85.9345709147
 31
0.0
  0
LINE
  5
49F
100
AcDbEntity
  8
IMPORT_IGES
100
AcDbLine
 62
7
  6
CONTINUOUS
 10
15.1570836202
 20
128.0879454493
 30
0.0
 11
15.1570836202
 21
128.5696036471
 31
0.0
  0
LINE
  5
4A0
100
AcDbEntity
  8
IMPORT_IGES
100
AcDbLine
 62
7
  6
CONTINUOUS
 10
15.8429163798
 20
128.5696036471
 30
0.0
 11
15.8429163798
 21
128.0879454493
 31
0.0
  0
LINE
  5
4A1
100
AcDbEntity
  8
IMPORT_IGES
100
AcDbLine
 62
7
  6
CONTINUOUS
 10
15.8429163798
 20
-85.9345709147
 30
0.0
 11
15.8429163798
 21
-86.4162291125
 31
0.0
  0
LINE
  5
4A2
100
AcDbEntity
  8
IMPORT_IGES
100
AcDbLine
 62
7
  6
CONTINUOUS
 10
16.0
 20
-86.2487620834
 30
0.0
 11
16.0
 21
-89.3233127327
 31
0.0
  0
LINE
  5
4A3
100
AcDbEntity
  8
IMPORT_IGES
100
AcDbLine
 62
7
  6
CONTINUOUS
 10
16.0
 20
128.4021366181
 30
0.0
 11
16.0
 21
131.4766872673
 31
0.0
  0
LINE
  5
4A4
100
AcDbEntity
  8
IMPORT_IGES
100
AcDbLine
 62
7
  6
CONTINUOUS
 10
20.5
 20
126.0530353195
 30
0.0
 11
20.5
 21
113.5766872673
 31
0.0
  0
LINE
  5
4A5
100
AcDbEntity
  8
IMPORT_IGES
100
AcDbLine
 62
7
  6
CONTINUOUS
 10
20.5
 20
112.5766872673
 30
0.0
 11
20.5
 21
87.5766872673
 31
0.0
  0
LINE
  5
4A6
100
AcDbEntity
  8
IMPORT_IGES
100
AcDbLine
 62
7
  6
CONTINUOUS
 10
20.5
 20
86.5766872673
 30
0.0
 11
20.5
 21
64.5766872673
 31
0.0
  0
LINE
  5
4A7
100
AcDbEntity
  8
IMPORT_IGES
100
AcDbLine
 62
7
  6
CONTINUOUS
 10
20.5
 20
63.5766872673
 30
0.0
 11
20.5
 21
42.5766872673
 31
0.0
  0
LINE
  5
4A8
100
AcDbEntity
  8
IMPORT_IGES
100
AcDbLine
 62
7
  6
CONTINUOUS
 10
20.5
 20
41.5766872673
 30
0.0
 11
20.5
 21
21.5766872673
 31
0.0
  0
LINE
  5
4A9
100
AcDbEntity
  8
IMPORT_IGES
100
AcDbLine
 62
7
  6
CONTINUOUS
 10
20.5
 20
20.5766872673
 30
0.0
 11
20.5
 21
0.5766872673
 31
0.0
  0
LINE
  5
4AA
100
AcDbEntity
  8
IMPORT_IGES
100
AcDbLine
 62
7
  6
CONTINUOUS
 10
20.5
 20
-0.4233127327
 30
0.0
 11
20.5
 21
-21.4233127327
 31
0.0
  0
LINE
  5
4AB
100
AcDbEntity
  8
IMPORT_IGES
100
AcDbLine
 62
7
  6
CONTINUOUS
 10
20.5
 20
-22.4233127327
 30
0.0
 11
20.5
 21
-44.4233127327
 31
0.0
  0
LINE
  5
4AC
100
AcDbEntity
  8
IMPORT_IGES
100
AcDbLine
 62
7
  6
CONTINUOUS
 10
20.5
 20
-45.4233127327
 30
0.0
 11
20.5
 21
-70.4233127327
 31
0.0
  0
LINE
  5
4AD
100
AcDbEntity
  8
IMPORT_IGES
100
AcDbLine
 62
7
  6
CONTINUOUS
 10
20.5
 20
-71.4233127327
 30
0.0
 11
20.5
 21
-83.8996607849
 31
0.0
  0
LINE
  5
4AE
100
AcDbEntity
  8
IMPORT_IGES
100
AcDbLine
 62
7
  6
CONTINUOUS
 10
20.5174550649
 20
-82.1676099773
 30
0.0
 11
20.5174550649
 21
-71.4058576678
 31
0.0
  0
LINE
  5
4AF
100
AcDbEntity
  8
IMPORT_IGES
100
AcDbLine
 62
7
  6
CONTINUOUS
 10
20.5174550649
 20
-70.4407677976
 30
0.0
 11
20.5174550649
 21
-45.4058576678
 31
0.0
  0
LINE
  5
4B0
100
AcDbEntity
  8
IMPORT_IGES
100
AcDbLine
 62
7
  6
CONTINUOUS
 10
20.5174550649
 20
-44.4407677976
 30
0.0
 11
20.5174550649
 21
-22.4058576677
 31
0.0
  0
LINE
  5
4B1
100
AcDbEntity
  8
IMPORT_IGES
100
AcDbLine
 62
7
  6
CONTINUOUS
 10
20.5174550649
 20
-21.4407677976
 30
0.0
 11
20.5174550649
 21
-0.4058576677
 31
0.0
  0
LINE
  5
4B2
100
AcDbEntity
  8
IMPORT_IGES
100
AcDbLine
 62
7
  6
CONTINUOUS
 10
20.5174550649
 20
0.5592322024
 30
0.0
 11
20.5174550649
 21
20.5941423323
 31
0.0
  0
LINE
  5
4B3
100
AcDbEntity
  8
IMPORT_IGES
100
AcDbLine
 62
7
  6
CONTINUOUS
 10
20.5174550649
 20
21.5592322024
 30
0.0
 11
20.5174550649
 21
41.5941423323
 31
0.0
  0
LINE
  5
4B4
100
AcDbEntity
  8
IMPORT_IGES
100
AcDbLine
 62
7
  6
CONTINUOUS
 10
20.5174550649
 20
42.5592322024
 30
0.0
 11
20.5174550649
 21
63.5941423323
 31
0.0
  0
LINE
  5
4B5
100
AcDbEntity
  8
IMPORT_IGES
100
AcDbLine
 62
7
  6
CONTINUOUS
 10
20.5174550649
 20
64.5592322024
 30
0.0
 11
20.5174550649
 21
86.5941423323
 31
0.0
  0
LINE
  5
4B6
100
AcDbEntity
  8
IMPORT_IGES
100
AcDbLine
 62
7
  6
CONTINUOUS
 10
20.5174550649
 20
87.5592322024
 30
0.0
 11
20.5174550649
 21
112.5941423323
 31
0.0
  0
LINE
  5
4B7
100
AcDbEntity
  8
IMPORT_IGES
100
AcDbLine
 62
7
  6
CONTINUOUS
 10
20.5174550649
 20
113.5592322024
 30
0.0
 11
20.5174550649
 21
124.3209845119
 31
0.0
  0
LINE
  5
4B8
100
AcDbEntity
  8
IMPORT_IGES
100
AcDbLine
 62
7
  6
CONTINUOUS
 10
21.4825449351
 20
124.3209845119
 30
0.0
 11
21.4825449351
 21
113.5592322024
 31
0.0
  0
LINE
  5
4B9
100
AcDbEntity
  8
IMPORT_IGES
100
AcDbLine
 62
7
  6
CONTINUOUS
 10
21.4825449351
 20
112.5941423323
 30
0.0
 11
21.4825449351
 21
87.5592322024
 31
0.0
  0
LINE
  5
4BA
100
AcDbEntity
  8
IMPORT_IGES
100
AcDbLine
 62
7
  6
CONTINUOUS
 10
21.4825449351
 20
86.5941423323
 30
0.0
 11
21.4825449351
 21
64.5592322024
 31
0.0
  0
LINE
  5
4BB
100
AcDbEntity
  8
IMPORT_IGES
100
AcDbLine
 62
7
  6
CONTINUOUS
 10
21.4825449351
 20
63.5941423323
 30
0.0
 11
21.4825449351
 21
42.5592322024
 31
0.0
  0
LINE
  5
4BC
100
AcDbEntity
  8
IMPORT_IGES
100
AcDbLine
 62
7
  6
CONTINUOUS
 10
21.4825449351
 20
41.5941423323
 30
0.0
 11
21.4825449351
 21
21.5592322024
 31
0.0
  0
LINE
  5
4BD
100
AcDbEntity
  8
IMPORT_IGES
100
AcDbLine
 62
7
  6
CONTINUOUS
 10
21.4825449351
 20
20.5941423323
 30
0.0
 11
21.4825449351
 21
0.5592322024
 31
0.0
  0
LINE
  5
4BE
100
AcDbEntity
  8
IMPORT_IGES
100
AcDbLine
 62
7
  6
CONTINUOUS
 10
21.4825449351
 20
-0.4058576677
 30
0.0
 11
21.4825449351
 21
-21.4407677976
 31
0.0
  0
LINE
  5
4BF
100
AcDbEntity
  8
IMPORT_IGES
100
AcDbLine
 62
7
  6
CONTINUOUS
 10
21.4825449351
 20
-22.4058576677
 30
0.0
 11
21.4825449351
 21
-44.4407677976
 31
0.0
  0
LINE
  5
4C0
100
AcDbEntity
  8
IMPORT_IGES
100
AcDbLine
 62
7
  6
CONTINUOUS
 10
21.4825449351
 20
-45.4058576678
 30
0.0
 11
21.4825449351
 21
-70.4407677976
 31
0.0
  0
LINE
  5
4C1
100
AcDbEntity
  8
IMPORT_IGES
100
AcDbLine
 62
7
  6
CONTINUOUS
 10
21.4825449351
 20
-71.4058576678
 30
0.0
 11
21.4825449351
 21
-82.1676099773
 31
0.0
  0
LINE
  5
4C2
100
AcDbEntity
  8
IMPORT_IGES
100
AcDbLine
 62
7
  6
CONTINUOUS
 10
21.5
 20
126.0530353195
 30
0.0
 11
21.5
 21
113.5766872673
 31
0.0
  0
LINE
  5
4C3
100
AcDbEntity
  8
IMPORT_IGES
100
AcDbLine
 62
7
  6
CONTINUOUS
 10
21.5
 20
112.5766872673
 30
0.0
 11
21.5
 21
87.5766872673
 31
0.0
  0
LINE
  5
4C4
100
AcDbEntity
  8
IMPORT_IGES
100
AcDbLine
 62
7
  6
CONTINUOUS
 10
21.5
 20
86.5766872673
 30
0.0
 11
21.5
 21
64.5766872673
 31
0.0
  0
LINE
  5
4C5
100
AcDbEntity
  8
IMPORT_IGES
100
AcDbLine
 62
7
  6
CONTINUOUS
 10
21.5
 20
63.5766872673
 30
0.0
 11
21.5
 21
42.5766872673
 31
0.0
  0
LINE
  5
4C6
100
AcDbEntity
  8
IMPORT_IGES
100
AcDbLine
 62
7
  6
CONTINUOUS
 10
21.5
 20
41.5766872673
 30
0.0
 11
21.5
 21
21.5766872673
 31
0.0
  0
LINE
  5
4C7
100
AcDbEntity
  8
IMPORT_IGES
100
AcDbLine
 62
7
  6
CONTINUOUS
 10
21.5
 20
20.5766872673
 30
0.0
 11
21.5
 21
0.5766872673
 31
0.0
  0
LINE
  5
4C8
100
AcDbEntity
  8
IMPORT_IGES
100
AcDbLine
 62
7
  6
CONTINUOUS
 10
21.5
 20
-0.4233127327
 30
0.0
 11
21.5
 21
-21.4233127327
 31
0.0
  0
LINE
  5
4C9
100
AcDbEntity
  8
IMPORT_IGES
100
AcDbLine
 62
7
  6
CONTINUOUS
 10
21.5
 20
-22.4233127327
 30
0.0
 11
21.5
 21
-44.4233127327
 31
0.0
  0
LINE
  5
4CA
100
AcDbEntity
  8
IMPORT_IGES
100
AcDbLine
 62
7
  6
CONTINUOUS
 10
21.5
 20
-45.4233127327
 30
0.0
 11
21.5
 21
-70.4233127327
 31
0.0
  0
LINE
  5
4CB
100
AcDbEntity
  8
IMPORT_IGES
100
AcDbLine
 62
7
  6
CONTINUOUS
 10
21.5
 20
-71.4233127327
 30
0.0
 11
21.5
 21
-83.8996607849
 31
0.0
  0
LINE
  5
4CC
100
AcDbEntity
  8
IMPORT_IGES
100
AcDbLine
 62
7
  6
CONTINUOUS
 10
15.8429163798
 20
128.5696036471
 30
0.0
 11
15.8865490573
 21
131.3632363246
 31
0.0
  0
LINE
  5
4CD
100
AcDbEntity
  8
IMPORT_IGES
100
AcDbLine
 62
7
  6
CONTINUOUS
 10
15.1570836202
 20
-86.4162291125
 30
0.0
 11
15.1134509427
 21
-89.2098617899
 31
0.0
  0
LINE
  5
4CE
100
AcDbEntity
  8
IMPORT_IGES
100
AcDbLine
 62
250
  6
CONTINUOUS
 10
-63.6048155586
 20
-81.5378585945
 30
0.0
 11
-63.714817725
 21
-81.6478607609
 31
0.0
  0
LINE
  5
4CF
100
AcDbEntity
  8
IMPORT_IGES
100
AcDbLine
 62
7
  6
CONTINUOUS
 10
41.5174550649
 20
20.5941423323
 30
0.0
 11
41.5
 21
20.5766872673
 31
0.0
  0
LINE
  5
4D0
100
AcDbEntity
  8
IMPORT_IGES
100
AcDbLine
 62
7
  6
CONTINUOUS
 10
20.5174550649
 20
-0.4058576677
 30
0.0
 11
20.5
 21
-0.4233127327
 31
0.0
  0
LINE
  5
4D1
100
AcDbEntity
  8
IMPORT_IGES
100
AcDbLine
 62
7
  6
CONTINUOUS
 10
21.4825449351
 20
0.5592322024
 30
0.0
 11
21.5
 21
0.5766872673
 31
0.0
  0
LINE
  5
4D2
100
AcDbEntity
  8
IMPORT_IGES
100
AcDbLine
 62
7
  6
CONTINUOUS
 10
42.4825449351
 20
21.5592322024
 30
0.0
 11
42.5
 21
21.5766872673
 31
0.0
  0
LINE
  5
4D3
100
AcDbEntity
  8
IMPORT_IGES
100
AcDbLine
 62
7
  6
CONTINUOUS
 10
-20.5174550649
 20
-44.4407677976
 30
0.0
 11
-20.5
 21
-44.4233127327
 31
0.0
  0
LINE
  5
4D4
100
AcDbEntity
  8
IMPORT_IGES
100
AcDbLine
 62
7
  6
CONTINUOUS
 10
-21.4825449351
 20
-45.4058576677
 30
0.0
 11
-21.5
 21
-45.4233127327
 31
0.0
  0
LINE
  5
4D5
100
AcDbEntity
  8
IMPORT_IGES
100
AcDbLine
 62
7
  6
CONTINUOUS
 10
-41.5174550649
 20
-70.4407677976
 30
0.0
 11
-41.5
 21
-70.4233127327
 31
0.0
  0
LINE
  5
4D6
100
AcDbEntity
  8
IMPORT_IGES
100
AcDbLine
 62
7
  6
CONTINUOUS
 10
-42.4825449351
 20
-71.4058576677
 30
0.0
 11
-42.5
 21
-71.4233127327
 31
0.0
  0
LINE
  5
4D7
100
AcDbEntity
  8
IMPORT_IGES
100
AcDbLine
 62
7
  6
CONTINUOUS
 10
-57.761258182
 20
-52.7662291124
 30
0.0
 11
-58.0754493507
 21
-52.9233127327
 31
0.0
  0
LINE
  5
4D8
100
AcDbEntity
  8
IMPORT_IGES
100
AcDbLine
 62
7
  6
CONTINUOUS
 10
-53.1701910548
 20
20.5766872673
 30
0.0
 11
-42.5
 21
20.5766872673
 31
0.0
  0
LINE
  5
4D9
100
AcDbEntity
  8
IMPORT_IGES
100
AcDbLine
 62
7
  6
CONTINUOUS
 10
-41.5
 20
20.5766872673
 30
0.0
 11
-21.5
 21
20.5766872673
 31
0.0
  0
LINE
  5
4DA
100
AcDbEntity
  8
IMPORT_IGES
100
AcDbLine
 62
7
  6
CONTINUOUS
 10
-20.5
 20
20.5766872673
 30
0.0
 11
-0.5
 21
20.5766872673
 31
0.0
  0
LINE
  5
4DB
100
AcDbEntity
  8
IMPORT_IGES
100
AcDbLine
 62
7
  6
CONTINUOUS
 10
0.5
 20
20.5766872673
 30
0.0
 11
20.5
 21
20.5766872673
 31
0.0
  0
LINE
  5
4DC
100
AcDbEntity
  8
IMPORT_IGES
100
AcDbLine
 62
7
  6
CONTINUOUS
 10
21.5
 20
20.5766872673
 30
0.0
 11
41.5
 21
20.5766872673
 31
0.0
  0
LINE
  5
4DD
100
AcDbEntity
  8
IMPORT_IGES
100
AcDbLine
 62
7
  6
CONTINUOUS
 10
42.5
 20
20.5766872673
 30
0.0
 11
53.1701910548
 21
20.5766872673
 31
0.0
  0
LINE
  5
4DE
100
AcDbEntity
  8
IMPORT_IGES
100
AcDbLine
 62
7
  6
CONTINUOUS
 10
53.1352702853
 20
20.5941423323
 30
0.0
 11
42.4825449351
 21
20.5941423323
 31
0.0
  0
LINE
  5
4DF
100
AcDbEntity
  8
IMPORT_IGES
100
AcDbLine
 62
7
  6
CONTINUOUS
 10
41.5174550649
 20
20.5941423323
 30
0.0
 11
21.4825449351
 21
20.5941423323
 31
0.0
  0
LINE
  5
4E0
100
AcDbEntity
  8
IMPORT_IGES
100
AcDbLine
 62
7
  6
CONTINUOUS
 10
20.5174550649
 20
20.5941423323
 30
0.0
 11
0.4825449351
 21
20.5941423323
 31
0.0
  0
LINE
  5
4E1
100
AcDbEntity
  8
IMPORT_IGES
100
AcDbLine
 62
7
  6
CONTINUOUS
 10
-0.4825449351
 20
20.5941423323
 30
0.0
 11
-20.5174550649
 21
20.5941423323
 31
0.0
  0
LINE
  5
4E2
100
AcDbEntity
  8
IMPORT_IGES
100
AcDbLine
 62
7
  6
CONTINUOUS
 10
-21.4825449351
 20
20.5941423323
 30
0.0
 11
-41.5174550649
 21
20.5941423323
 31
0.0
  0
LINE
  5
4E3
100
AcDbEntity
  8
IMPORT_IGES
100
AcDbLine
 62
7
  6
CONTINUOUS
 10
-42.4825449351
 20
20.5941423323
 30
0.0
 11
-53.1352702853
 21
20.5941423323
 31
0.0
  0
LINE
  5
4E4
100
AcDbEntity
  8
IMPORT_IGES
100
AcDbLine
 62
7
  6
CONTINUOUS
 10
-53.1352702853
 20
21.5592322024
 30
0.0
 11
-42.4825449351
 21
21.5592322024
 31
0.0
  0
LINE
  5
4E5
100
AcDbEntity
  8
IMPORT_IGES
100
AcDbLine
 62
7
  6
CONTINUOUS
 10
-41.5174550649
 20
21.5592322024
 30
0.0
 11
-21.4825449351
 21
21.5592322024
 31
0.0
  0
LINE
  5
4E6
100
AcDbEntity
  8
IMPORT_IGES
100
AcDbLine
 62
7
  6
CONTINUOUS
 10
-20.5174550649
 20
21.5592322024
 30
0.0
 11
-0.4825449351
 21
21.5592322024
 31
0.0
  0
LINE
  5
4E7
100
AcDbEntity
  8
IMPORT_IGES
100
AcDbLine
 62
7
  6
CONTINUOUS
 10
0.4825449351
 20
21.5592322024
 30
0.0
 11
20.5174550649
 21
21.5592322024
 31
0.0
  0
LINE
  5
4E8
100
AcDbEntity
  8
IMPORT_IGES
100
AcDbLine
 62
7
  6
CONTINUOUS
 10
21.4825449351
 20
21.5592322024
 30
0.0
 11
41.5174550649
 21
21.5592322024
 31
0.0
  0
LINE
  5
4E9
100
AcDbEntity
  8
IMPORT_IGES
100
AcDbLine
 62
7
  6
CONTINUOUS
 10
42.4825449351
 20
21.5592322024
 30
0.0
 11
53.1352702853
 21
21.5592322024
 31
0.0
  0
LINE
  5
4EA
100
AcDbEntity
  8
IMPORT_IGES
100
AcDbLine
 62
7
  6
CONTINUOUS
 10
-53.1701910548
 20
21.5766872673
 30
0.0
 11
-42.5
 21
21.5766872673
 31
0.0
  0
LINE
  5
4EB
100
AcDbEntity
  8
IMPORT_IGES
100
AcDbLine
 62
7
  6
CONTINUOUS
 10
-41.5
 20
21.5766872673
 30
0.0
 11
-21.5
 21
21.5766872673
 31
0.0
  0
LINE
  5
4EC
100
AcDbEntity
  8
IMPORT_IGES
100
AcDbLine
 62
7
  6
CONTINUOUS
 10
-20.5
 20
21.5766872673
 30
0.0
 11
-0.5
 21
21.5766872673
 31
0.0
  0
LINE
  5
4ED
100
AcDbEntity
  8
IMPORT_IGES
100
AcDbLine
 62
7
  6
CONTINUOUS
 10
0.5
 20
21.5766872673
 30
0.0
 11
20.5
 21
21.5766872673
 31
0.0
  0
LINE
  5
4EE
100
AcDbEntity
  8
IMPORT_IGES
100
AcDbLine
 62
7
  6
CONTINUOUS
 10
21.5
 20
21.5766872673
 30
0.0
 11
41.5
 21
21.5766872673
 31
0.0
  0
LINE
  5
4EF
100
AcDbEntity
  8
IMPORT_IGES
100
AcDbLine
 62
7
  6
CONTINUOUS
 10
42.5
 20
21.5766872673
 30
0.0
 11
53.1701910548
 21
21.5766872673
 31
0.0
  0
LINE
  5
4F0
100
AcDbEntity
  8
IMPORT_IGES
100
AcDbLine
 62
7
  6
CONTINUOUS
 10
57.761258182
 20
-10.7662291124
 30
0.0
 11
58.0754493507
 21
-10.9233127327
 31
0.0
  0
LINE
  5
4F1
100
AcDbEntity
  8
IMPORT_IGES
100
AcDbLine
 62
7
  6
CONTINUOUS
 10
-57.761258182
 20
52.9196036471
 30
0.0
 11
-58.0754493507
 21
53.0766872673
 31
0.0
  0
LINE
  5
4F2
100
AcDbEntity
  8
IMPORT_IGES
100
AcDbLine
 62
7
  6
CONTINUOUS
 10
41.5174550649
 20
-21.4407677976
 30
0.0
 11
41.5
 21
-21.4233127327
 31
0.0
  0
LINE
  5
4F3
100
AcDbEntity
  8
IMPORT_IGES
100
AcDbLine
 62
7
  6
CONTINUOUS
 10
42.4825449351
 20
-22.4058576677
 30
0.0
 11
42.5
 21
-22.4233127327
 31
0.0
  0
LINE
  5
4F4
100
AcDbEntity
  8
IMPORT_IGES
100
AcDbLine
 62
7
  6
CONTINUOUS
 10
-20.5174550649
 20
41.5941423323
 30
0.0
 11
-20.5
 21
41.5766872673
 31
0.0
  0
LINE
  5
4F5
100
AcDbEntity
  8
IMPORT_IGES
100
AcDbLine
 62
7
  6
CONTINUOUS
 10
0.4825449351
 20
20.5941423323
 30
0.0
 11
0.5
 21
20.5766872673
 31
0.0
  0
LINE
  5
4F6
100
AcDbEntity
  8
IMPORT_IGES
100
AcDbLine
 62
7
  6
CONTINUOUS
 10
21.4825449351
 20
-0.4058576677
 30
0.0
 11
21.5
 21
-0.4233127327
 31
0.0
  0
LINE
  5
4F7
100
AcDbEntity
  8
IMPORT_IGES
100
AcDbLine
 62
7
  6
CONTINUOUS
 10
20.5174550649
 20
0.5592322024
 30
0.0
 11
20.5
 21
0.5766872673
 31
0.0
  0
LINE
  5
4F8
100
AcDbEntity
  8
IMPORT_IGES
100
AcDbLine
 62
7
  6
CONTINUOUS
 10
-0.4825449351
 20
21.5592322024
 30
0.0
 11
-0.5
 21
21.5766872673
 31
0.0
  0
LINE
  5
4F9
100
AcDbEntity
  8
IMPORT_IGES
100
AcDbLine
 62
7
  6
CONTINUOUS
 10
-21.4825449351
 20
42.5592322024
 30
0.0
 11
-21.5
 21
42.5766872673
 31
0.0
  0
LINE
  5
4FA
100
AcDbEntity
  8
IMPORT_IGES
100
AcDbLine
 62
7
  6
CONTINUOUS
 10
-41.5174550649
 20
63.5941423323
 30
0.0
 11
-41.5
 21
63.5766872673
 31
0.0
  0
LINE
  5
4FB
100
AcDbEntity
  8
IMPORT_IGES
100
AcDbLine
 62
7
  6
CONTINUOUS
 10
-42.4825449351
 20
64.5592322024
 30
0.0
 11
-42.5
 21
64.5766872673
 31
0.0
  0
LINE
  5
4FC
100
AcDbEntity
  8
IMPORT_IGES
100
AcDbLine
 62
7
  6
CONTINUOUS
 10
61.0365490573
 20
-31.8098617899
 30
0.0
 11
61.15
 21
-31.9233127327
 31
0.0
  0
LINE
  5
4FD
100
AcDbEntity
  8
IMPORT_IGES
100
AcDbLine
 62
7
  6
CONTINUOUS
 10
31.8865490573
 20
-89.2098617899
 30
0.0
 11
31.8429163798
 21
-86.4162291125
 31
0.0
  0
LINE
  5
4FE
100
AcDbEntity
  8
IMPORT_IGES
100
AcDbLine
 62
7
  6
CONTINUOUS
 10
31.0
 20
-86.2487620834
 30
0.0
 11
31.0
 21
-89.3233127327
 31
0.0
  0
LINE
  5
4FF
100
AcDbEntity
  8
IMPORT_IGES
100
AcDbLine
 62
7
  6
CONTINUOUS
 10
31.0
 20
128.4021366181
 30
0.0
 11
31.0
 21
131.4766872673
 31
0.0
  0
LINE
  5
500
100
AcDbEntity
  8
IMPORT_IGES
100
AcDbLine
 62
7
  6
CONTINUOUS
 10
31.1570836202
 20
-86.4162291125
 30
0.0
 11
31.1570836202
 21
-85.9345709147
 31
0.0
  0
LINE
  5
501
100
AcDbEntity
  8
IMPORT_IGES
100
AcDbLine
 62
7
  6
CONTINUOUS
 10
31.1570836202
 20
128.0879454493
 30
0.0
 11
31.1570836202
 21
128.5696036471
 31
0.0
  0
LINE
  5
502
100
AcDbEntity
  8
IMPORT_IGES
100
AcDbLine
 62
7
  6
CONTINUOUS
 10
31.8429163798
 20
128.5696036471
 30
0.0
 11
31.8429163798
 21
128.0879454493
 31
0.0
  0
LINE
  5
503
100
AcDbEntity
  8
IMPORT_IGES
100
AcDbLine
 62
7
  6
CONTINUOUS
 10
31.8429163798
 20
-85.9345709147
 30
0.0
 11
31.8429163798
 21
-86.4162291125
 31
0.0
  0
LINE
  5
504
100
AcDbEntity
  8
IMPORT_IGES
100
AcDbLine
 62
7
  6
CONTINUOUS
 10
32.0
 20
-86.2487620834
 30
0.0
 11
32.0
 21
-89.3233127327
 31
0.0
  0
LINE
  5
505
100
AcDbEntity
  8
IMPORT_IGES
100
AcDbLine
 62
7
  6
CONTINUOUS
 10
32.0
 20
128.4021366181
 30
0.0
 11
32.0
 21
131.4766872673
 31
0.0
  0
LINE
  5
506
100
AcDbEntity
  8
IMPORT_IGES
100
AcDbLine
 62
7
  6
CONTINUOUS
 10
31.8429163798
 20
128.5696036471
 30
0.0
 11
31.8865490573
 21
131.3632363246
 31
0.0
  0
LINE
  5
507
100
AcDbEntity
  8
IMPORT_IGES
100
AcDbLine
 62
7
  6
CONTINUOUS
 10
-15.8429163798
 20
-85.9345709147
 30
0.0
 11
-16.0
 21
-86.2487620834
 31
0.0
  0
LINE
  5
508
100
AcDbEntity
  8
IMPORT_IGES
100
AcDbLine
 62
250
  6
CONTINUOUS
 10
-56.7009962297
 20
-88.8145786591
 30
0.0
 11
-56.5145458618
 21
-88.6281282912
 31
0.0
  0
LINE
  5
509
100
AcDbEntity
  8
IMPORT_IGES
100
AcDbLine
 62
7
  6
CONTINUOUS
 10
41.5174550649
 20
-0.4058576677
 30
0.0
 11
41.5
 21
-0.4233127327
 31
0.0
  0
LINE
  5
50A
100
AcDbEntity
  8
IMPORT_IGES
100
AcDbLine
 62
7
  6
CONTINUOUS
 10
42.4825449351
 20
0.5592322024
 30
0.0
 11
42.5
 21
0.5766872673
 31
0.0
  0
LINE
  5
50B
100
AcDbEntity
  8
IMPORT_IGES
100
AcDbLine
 62
7
  6
CONTINUOUS
 10
20.5174550649
 20
-22.4058576677
 30
0.0
 11
20.5
 21
-22.4233127327
 31
0.0
  0
LINE
  5
50C
100
AcDbEntity
  8
IMPORT_IGES
100
AcDbLine
 62
7
  6
CONTINUOUS
 10
21.4825449351
 20
-21.4407677976
 30
0.0
 11
21.5
 21
-21.4233127327
 31
0.0
  0
LINE
  5
50D
100
AcDbEntity
  8
IMPORT_IGES
100
AcDbLine
 62
7
  6
CONTINUOUS
 10
15.1557455972
 20
-21.4407677976
 30
0.0
 11
15.1860725653
 21
-21.4233127327
 31
0.0
  0
LINE
  5
50E
100
AcDbEntity
  8
IMPORT_IGES
100
AcDbLine
 62
7
  6
CONTINUOUS
 10
-61.0365490573
 20
94.9632363246
 30
0.0
 11
-61.15
 21
95.0766872673
 31
0.0
  0
LINE
  5
50F
100
AcDbEntity
  8
IMPORT_IGES
100
AcDbLine
 62
7
  6
CONTINUOUS
 10
0.4825449351
 20
41.5941423323
 30
0.0
 11
0.5
 21
41.5766872673
 31
0.0
  0
LINE
  5
510
100
AcDbEntity
  8
IMPORT_IGES
100
AcDbLine
 62
7
  6
CONTINUOUS
 10
21.4825449351
 20
20.5941423323
 30
0.0
 11
21.5
 21
20.5766872673
 31
0.0
  0
LINE
  5
511
100
AcDbEntity
  8
IMPORT_IGES
100
AcDbLine
 62
7
  6
CONTINUOUS
 10
41.5174550649
 20
0.5592322024
 30
0.0
 11
41.5
 21
0.5766872673
 31
0.0
  0
LINE
  5
512
100
AcDbEntity
  8
IMPORT_IGES
100
AcDbLine
 62
7
  6
CONTINUOUS
 10
42.4825449351
 20
-0.4058576677
 30
0.0
 11
42.5
 21
-0.4233127327
 31
0.0
  0
LINE
  5
513
100
AcDbEntity
  8
IMPORT_IGES
100
AcDbLine
 62
7
  6
CONTINUOUS
 10
20.5174550649
 20
21.5592322024
 30
0.0
 11
20.5
 21
21.5766872673
 31
0.0
  0
LINE
  5
514
100
AcDbEntity
  8
IMPORT_IGES
100
AcDbLine
 62
7
  6
CONTINUOUS
 10
-0.4825449351
 20
42.5592322024
 30
0.0
 11
-0.5
 21
42.5766872673
 31
0.0
  0
LINE
  5
515
100
AcDbEntity
  8
IMPORT_IGES
100
AcDbLine
 62
7
  6
CONTINUOUS
 10
-20.5174550649
 20
63.5941423323
 30
0.0
 11
-20.5
 21
63.5766872673
 31
0.0
  0
LINE
  5
516
100
AcDbEntity
  8
IMPORT_IGES
100
AcDbLine
 62
7
  6
CONTINUOUS
 10
-21.4825449351
 20
64.5592322024
 30
0.0
 11
-21.5
 21
64.5766872673
 31
0.0
  0
LINE
  5
517
100
AcDbEntity
  8
IMPORT_IGES
100
AcDbLine
 62
7
  6
CONTINUOUS
 10
-41.5174550649
 20
86.5941423323
 30
0.0
 11
-41.5
 21
86.5766872673
 31
0.0
  0
LINE
  5
518
100
AcDbEntity
  8
IMPORT_IGES
100
AcDbLine
 62
7
  6
CONTINUOUS
 10
-42.4825449351
 20
87.5592322024
 30
0.0
 11
-42.5
 21
87.5766872673
 31
0.0
  0
LINE
  5
519
100
AcDbEntity
  8
IMPORT_IGES
100
AcDbLine
 62
7
  6
CONTINUOUS
 10
-50.6
 20
132.7766872673
 30
0.0
 11
-51.0
 21
133.3766872673
 31
0.0
  0
LINE
  5
51A
100
AcDbEntity
  8
IMPORT_IGES
100
AcDbLine
 62
7
  6
CONTINUOUS
 10
-31.8429163798
 20
128.0879454493
 30
0.0
 11
-32.0
 21
128.4021366181
 31
0.0
  0
LINE
  5
51B
100
AcDbEntity
  8
IMPORT_IGES
100
AcDbLine
 62
7
  6
CONTINUOUS
 10
31.1134509427
 20
131.3632363246
 30
0.0
 11
31.1570836202
 21
128.5696036471
 31
0.0
  0
LINE
  5
51C
100
AcDbEntity
  8
0
100
AcDbLine
 62
7
  6
CONTINUOUS
 10
35.15
 20
133.0112555099
 30
0.0
 11
35.15
 21
131.6712555099
 31
0.0
  0
LINE
  5
51D
100
AcDbEntity
  8
IMPORT_IGES
100
AcDbLine
 62
7
  6
CONTINUOUS
 10
36.0958892987
 20
134.9606192228
 30
0.0
 11
36.0958892987
 21
133.6688406254
 31
0.0
  0
LINE
  5
51E
100
AcDbEntity
  8
IMPORT_IGES
100
AcDbLine
 62
7
  6
CONTINUOUS
 10
36.1482544935
 20
133.6164754306
 30
0.0
 11
36.1482544935
 21
131.6712555099
 31
0.0
  0
LINE
  5
51F
100
AcDbEntity
  8
IMPORT_IGES
100
AcDbLine
 62
7
  6
CONTINUOUS
 10
39.0
 20
133.3766872673
 30
0.0
 11
39.0
 21
135.956149375
 31
0.0
  0
LINE
  5
520
100
AcDbEntity
  8
IMPORT_IGES
100
AcDbLine
 62
7
  6
CONTINUOUS
 10
41.5
 20
126.0530353195
 30
0.0
 11
41.5
 21
113.5766872673
 31
0.0
  0
LINE
  5
521
100
AcDbEntity
  8
IMPORT_IGES
100
AcDbLine
 62
7
  6
CONTINUOUS
 10
41.5
 20
112.5766872673
 30
0.0
 11
41.5
 21
87.5766872673
 31
0.0
  0
LINE
  5
522
100
AcDbEntity
  8
IMPORT_IGES
100
AcDbLine
 62
7
  6
CONTINUOUS
 10
41.5
 20
86.5766872673
 30
0.0
 11
41.5
 21
64.5766872673
 31
0.0
  0
LINE
  5
523
100
AcDbEntity
  8
IMPORT_IGES
100
AcDbLine
 62
7
  6
CONTINUOUS
 10
41.5
 20
63.5766872673
 30
0.0
 11
41.5
 21
42.5766872673
 31
0.0
  0
LINE
  5
524
100
AcDbEntity
  8
IMPORT_IGES
100
AcDbLine
 62
7
  6
CONTINUOUS
 10
41.5
 20
41.5766872673
 30
0.0
 11
41.5
 21
21.5766872673
 31
0.0
  0
LINE
  5
525
100
AcDbEntity
  8
IMPORT_IGES
100
AcDbLine
 62
7
  6
CONTINUOUS
 10
41.5
 20
20.5766872673
 30
0.0
 11
41.5
 21
0.5766872673
 31
0.0
  0
LINE
  5
526
100
AcDbEntity
  8
IMPORT_IGES
100
AcDbLine
 62
7
  6
CONTINUOUS
 10
41.5
 20
-0.4233127327
 30
0.0
 11
41.5
 21
-21.4233127327
 31
0.0
  0
LINE
  5
527
100
AcDbEntity
  8
IMPORT_IGES
100
AcDbLine
 62
7
  6
CONTINUOUS
 10
41.5
 20
-22.4233127327
 30
0.0
 11
41.5
 21
-44.4233127327
 31
0.0
  0
LINE
  5
528
100
AcDbEntity
  8
IMPORT_IGES
100
AcDbLine
 62
7
  6
CONTINUOUS
 10
41.5
 20
-45.4233127327
 30
0.0
 11
41.5
 21
-70.4233127327
 31
0.0
  0
LINE
  5
529
100
AcDbEntity
  8
IMPORT_IGES
100
AcDbLine
 62
7
  6
CONTINUOUS
 10
41.5
 20
-71.4233127327
 30
0.0
 11
41.5
 21
-83.8996607849
 31
0.0
  0
LINE
  5
52A
100
AcDbEntity
  8
IMPORT_IGES
100
AcDbLine
 62
7
  6
CONTINUOUS
 10
41.5174550649
 20
-82.1676099773
 30
0.0
 11
41.5174550649
 21
-71.4058576678
 31
0.0
  0
LINE
  5
52B
100
AcDbEntity
  8
IMPORT_IGES
100
AcDbLine
 62
7
  6
CONTINUOUS
 10
41.5174550649
 20
-70.4407677976
 30
0.0
 11
41.5174550649
 21
-45.4058576678
 31
0.0
  0
LINE
  5
52C
100
AcDbEntity
  8
IMPORT_IGES
100
AcDbLine
 62
7
  6
CONTINUOUS
 10
41.5174550649
 20
-44.4407677976
 30
0.0
 11
41.5174550649
 21
-22.4058576677
 31
0.0
  0
LINE
  5
52D
100
AcDbEntity
  8
IMPORT_IGES
100
AcDbLine
 62
7
  6
CONTINUOUS
 10
41.5174550649
 20
-21.4407677976
 30
0.0
 11
41.5174550649
 21
-0.4058576677
 31
0.0
  0
LINE
  5
52E
100
AcDbEntity
  8
IMPORT_IGES
100
AcDbLine
 62
7
  6
CONTINUOUS
 10
41.5174550649
 20
0.5592322024
 30
0.0
 11
41.5174550649
 21
20.5941423323
 31
0.0
  0
LINE
  5
52F
100
AcDbEntity
  8
IMPORT_IGES
100
AcDbLine
 62
7
  6
CONTINUOUS
 10
41.5174550649
 20
21.5592322024
 30
0.0
 11
41.5174550649
 21
41.5941423323
 31
0.0
  0
LINE
  5
530
100
AcDbEntity
  8
IMPORT_IGES
100
AcDbLine
 62
7
  6
CONTINUOUS
 10
41.5174550649
 20
42.5592322024
 30
0.0
 11
41.5174550649
 21
63.5941423323
 31
0.0
  0
LINE
  5
531
100
AcDbEntity
  8
IMPORT_IGES
100
AcDbLine
 62
7
  6
CONTINUOUS
 10
41.5174550649
 20
64.5592322024
 30
0.0
 11
41.5174550649
 21
86.5941423323
 31
0.0
  0
LINE
  5
532
100
AcDbEntity
  8
IMPORT_IGES
100
AcDbLine
 62
7
  6
CONTINUOUS
 10
41.5174550649
 20
87.5592322024
 30
0.0
 11
41.5174550649
 21
112.5941423323
 31
0.0
  0
LINE
  5
533
100
AcDbEntity
  8
IMPORT_IGES
100
AcDbLine
 62
7
  6
CONTINUOUS
 10
41.5174550649
 20
113.5592322024
 30
0.0
 11
41.5174550649
 21
124.3209845119
 31
0.0
  0
LINE
  5
534
100
AcDbEntity
  8
IMPORT_IGES
100
AcDbLine
 62
250
  6
CONTINUOUS
 10
36.1482544935
 20
133.6164754306
 30
0.0
 11
36.15
 21
135.0147299241
 31
0.0
  0
LINE
  5
535
100
AcDbEntity
  8
IMPORT_IGES
100
AcDbLine
 62
7
  6
CONTINUOUS
 10
36.1936376623
 20
135.1457493723
 30
0.0
 11
36.1872633515
 21
131.6712555099
 31
0.0
  0
LINE
  5
536
100
AcDbEntity
  8
IMPORT_IGES
100
AcDbLine
 62
7
  6
CONTINUOUS
 10
31.1570836202
 20
-86.4162291125
 30
0.0
 11
31.1134509427
 21
-89.2098617899
 31
0.0
  0
LINE
  5
537
100
AcDbEntity
  8
IMPORT_IGES
100
AcDbLine
 62
7
  6
CONTINUOUS
 10
-0.4825449351
 20
-81.308583018
 30
0.0
 11
-0.5
 21
-81.3435037875
 31
0.0
  0
LINE
  5
538
100
AcDbEntity
  8
IMPORT_IGES
100
AcDbLine
 62
7
  6
CONTINUOUS
 10
-20.5174550649
 20
-70.4407677976
 30
0.0
 11
-20.5
 21
-70.4233127327
 31
0.0
  0
LINE
  5
539
100
AcDbEntity
  8
IMPORT_IGES
100
AcDbLine
 62
7
  6
CONTINUOUS
 10
-21.4825449351
 20
-71.4058576677
 30
0.0
 11
-21.5
 21
-71.4233127327
 31
0.0
  0
LINE
  5
53A
100
AcDbEntity
  8
IMPORT_IGES
100
AcDbLine
 62
7
  6
CONTINUOUS
 10
-31.8865490573
 20
-89.2098617899
 30
0.0
 11
-32.0
 21
-89.3233127327
 31
0.0
  0
LINE
  5
53B
100
AcDbEntity
  8
IMPORT_IGES
100
AcDbLine
 62
7
  6
CONTINUOUS
 10
57.761258182
 20
-10.0803963529
 30
0.0
 11
58.0754493507
 21
-9.9233127327
 31
0.0
  0
LINE
  5
53C
100
AcDbEntity
  8
IMPORT_IGES
100
AcDbLine
 62
250
  6
CONTINUOUS
 10
-57.7764782292
 20
33.5462378956
 30
0.0
 11
-55.2762040388
 21
33.5462378956
 31
0.0
  0
LINE
  5
53D
100
AcDbEntity
  8
IMPORT_IGES
100
AcDbLine
 62
250
  6
CONTINUOUS
 10
55.2762040388
 20
33.5462378956
 30
0.0
 11
57.7764782292
 21
33.5462378956
 31
0.0
  0
LINE
  5
53E
100
AcDbEntity
  8
IMPORT_IGES
100
AcDbLine
 62
7
  6
CONTINUOUS
 10
55.269711524
 20
33.5722475874
 30
0.0
 11
53.2574929785
 21
33.5722475874
 31
0.0
  0
LINE
  5
53F
100
AcDbEntity
  8
IMPORT_IGES
100
AcDbLine
 62
7
  6
CONTINUOUS
 10
-53.2574929785
 20
33.5722475874
 30
0.0
 11
-55.269711524
 21
33.5722475874
 31
0.0
  0
LINE
  5
540
100
AcDbEntity
  8
IMPORT_IGES
100
AcDbLine
 62
7
  6
CONTINUOUS
 10
53.1701910548
 20
33.7470646172
 30
0.0
 11
55.7609535259
 21
33.7470646172
 31
0.0
  0
LINE
  5
541
100
AcDbEntity
  8
IMPORT_IGES
100
AcDbLine
 62
7
  6
CONTINUOUS
 10
-53.1701910548
 20
33.7470646172
 30
0.0
 11
-55.7609535259
 21
33.7470646172
 31
0.0
  0
LINE
  5
542
100
AcDbEntity
  8
IMPORT_IGES
100
AcDbLine
 62
7
  6
CONTINUOUS
 10
-55.7263480521
 20
41.5766872673
 30
0.0
 11
-42.5
 21
41.5766872673
 31
0.0
  0
LINE
  5
543
100
AcDbEntity
  8
IMPORT_IGES
100
AcDbLine
 62
7
  6
CONTINUOUS
 10
-41.5
 20
41.5766872673
 30
0.0
 11
-21.5
 21
41.5766872673
 31
0.0
  0
LINE
  5
544
100
AcDbEntity
  8
IMPORT_IGES
100
AcDbLine
 62
7
  6
CONTINUOUS
 10
-20.5
 20
41.5766872673
 30
0.0
 11
-0.5
 21
41.5766872673
 31
0.0
  0
LINE
  5
545
100
AcDbEntity
  8
IMPORT_IGES
100
AcDbLine
 62
7
  6
CONTINUOUS
 10
0.5
 20
41.5766872673
 30
0.0
 11
20.5
 21
41.5766872673
 31
0.0
  0
LINE
  5
546
100
AcDbEntity
  8
IMPORT_IGES
100
AcDbLine
 62
7
  6
CONTINUOUS
 10
21.5
 20
41.5766872673
 30
0.0
 11
41.5
 21
41.5766872673
 31
0.0
  0
LINE
  5
547
100
AcDbEntity
  8
IMPORT_IGES
100
AcDbLine
 62
7
  6
CONTINUOUS
 10
42.5
 20
41.5766872673
 30
0.0
 11
55.7263480522
 21
41.5766872673
 31
0.0
  0
LINE
  5
548
100
AcDbEntity
  8
IMPORT_IGES
100
AcDbLine
 62
7
  6
CONTINUOUS
 10
53.9942972446
 20
41.5941423323
 30
0.0
 11
42.4825449351
 21
41.5941423323
 31
0.0
  0
LINE
  5
549
100
AcDbEntity
  8
IMPORT_IGES
100
AcDbLine
 62
7
  6
CONTINUOUS
 10
41.5174550649
 20
41.5941423323
 30
0.0
 11
21.4825449351
 21
41.5941423323
 31
0.0
  0
LINE
  5
54A
100
AcDbEntity
  8
IMPORT_IGES
100
AcDbLine
 62
7
  6
CONTINUOUS
 10
20.5174550649
 20
41.5941423323
 30
0.0
 11
0.4825449351
 21
41.5941423323
 31
0.0
  0
LINE
  5
54B
100
AcDbEntity
  8
IMPORT_IGES
100
AcDbLine
 62
7
  6
CONTINUOUS
 10
-0.4825449351
 20
41.5941423323
 30
0.0
 11
-20.5174550649
 21
41.5941423323
 31
0.0
  0
LINE
  5
54C
100
AcDbEntity
  8
IMPORT_IGES
100
AcDbLine
 62
7
  6
CONTINUOUS
 10
-21.4825449351
 20
41.5941423323
 30
0.0
 11
-41.5174550649
 21
41.5941423323
 31
0.0
  0
LINE
  5
54D
100
AcDbEntity
  8
IMPORT_IGES
100
AcDbLine
 62
7
  6
CONTINUOUS
 10
-42.4825449351
 20
41.5941423323
 30
0.0
 11
-53.9942972446
 21
41.5941423323
 31
0.0
  0
LINE
  5
54E
100
AcDbEntity
  8
IMPORT_IGES
100
AcDbLine
 62
7
  6
CONTINUOUS
 10
53.1352702853
 20
20.5941423323
 30
0.0
 11
53.1701910548
 21
20.5766872673
 31
0.0
  0
LINE
  5
54F
100
AcDbEntity
  8
IMPORT_IGES
100
AcDbLine
 62
7
  6
CONTINUOUS
 10
-57.761258182
 20
73.9196036471
 30
0.0
 11
-58.0754493507
 21
74.0766872673
 31
0.0
  0
LINE
  5
550
100
AcDbEntity
  8
IMPORT_IGES
100
AcDbLine
 62
7
  6
CONTINUOUS
 10
61.0365490573
 20
-10.8098617899
 30
0.0
 11
61.15
 21
-10.9233127327
 31
0.0
  0
LINE
  5
551
100
AcDbEntity
  8
IMPORT_IGES
100
AcDbLine
 62
7
  6
CONTINUOUS
 10
-51.4388837253
 20
135.0260325038
 30
0.0
 11
-51.1517455065
 21
134.6334469032
 31
0.0
  0
LINE
  5
552
100
AcDbEntity
  8
IMPORT_IGES
100
AcDbLine
 62
7
  6
CONTINUOUS
 10
-51.4512186848
 20
135.1457493723
 30
0.0
 11
-51.107276724
 21
134.6473379048
 31
0.0
  0
LINE
  5
553
100
AcDbEntity
  8
IMPORT_IGES
100
AcDbLine
 62
7
  6
CONTINUOUS
 10
51.1127366485
 20
131.6712555099
 30
0.0
 11
51.107276724
 21
134.6473379048
 31
0.0
  0
LINE
  5
554
100
AcDbEntity
  8
IMPORT_IGES
100
AcDbLine
 62
7
  6
CONTINUOUS
 10
42.4825449351
 20
124.3209845119
 30
0.0
 11
42.4825449351
 21
113.5592322024
 31
0.0
  0
LINE
  5
555
100
AcDbEntity
  8
IMPORT_IGES
100
AcDbLine
 62
7
  6
CONTINUOUS
 10
42.4825449351
 20
112.5941423323
 30
0.0
 11
42.4825449351
 21
87.5592322024
 31
0.0
  0
LINE
  5
556
100
AcDbEntity
  8
IMPORT_IGES
100
AcDbLine
 62
7
  6
CONTINUOUS
 10
42.4825449351
 20
86.5941423323
 30
0.0
 11
42.4825449351
 21
64.5592322024
 31
0.0
  0
LINE
  5
557
100
AcDbEntity
  8
IMPORT_IGES
100
AcDbLine
 62
7
  6
CONTINUOUS
 10
42.4825449351
 20
63.5941423323
 30
0.0
 11
42.4825449351
 21
42.5592322024
 31
0.0
  0
LINE
  5
558
100
AcDbEntity
  8
IMPORT_IGES
100
AcDbLine
 62
7
  6
CONTINUOUS
 10
42.4825449351
 20
41.5941423323
 30
0.0
 11
42.4825449351
 21
21.5592322024
 31
0.0
  0
LINE
  5
559
100
AcDbEntity
  8
IMPORT_IGES
100
AcDbLine
 62
7
  6
CONTINUOUS
 10
42.4825449351
 20
20.5941423323
 30
0.0
 11
42.4825449351
 21
0.5592322024
 31
0.0
  0
LINE
  5
55A
100
AcDbEntity
  8
IMPORT_IGES
100
AcDbLine
 62
7
  6
CONTINUOUS
 10
42.4825449351
 20
-0.4058576677
 30
0.0
 11
42.4825449351
 21
-21.4407677976
 31
0.0
  0
LINE
  5
55B
100
AcDbEntity
  8
IMPORT_IGES
100
AcDbLine
 62
7
  6
CONTINUOUS
 10
42.4825449351
 20
-22.4058576677
 30
0.0
 11
42.4825449351
 21
-44.4407677976
 31
0.0
  0
LINE
  5
55C
100
AcDbEntity
  8
IMPORT_IGES
100
AcDbLine
 62
7
  6
CONTINUOUS
 10
42.4825449351
 20
-45.4058576678
 30
0.0
 11
42.4825449351
 21
-70.4407677976
 31
0.0
  0
LINE
  5
55D
100
AcDbEntity
  8
IMPORT_IGES
100
AcDbLine
 62
7
  6
CONTINUOUS
 10
42.4825449351
 20
-71.4058576678
 30
0.0
 11
42.4825449351
 21
-82.1676099773
 31
0.0
  0
LINE
  5
55E
100
AcDbEntity
  8
IMPORT_IGES
100
AcDbLine
 62
7
  6
CONTINUOUS
 10
42.5
 20
126.0530353195
 30
0.0
 11
42.5
 21
113.5766872673
 31
0.0
  0
LINE
  5
55F
100
AcDbEntity
  8
IMPORT_IGES
100
AcDbLine
 62
7
  6
CONTINUOUS
 10
42.5
 20
112.5766872673
 30
0.0
 11
42.5
 21
87.5766872673
 31
0.0
  0
LINE
  5
560
100
AcDbEntity
  8
IMPORT_IGES
100
AcDbLine
 62
7
  6
CONTINUOUS
 10
42.5
 20
86.5766872673
 30
0.0
 11
42.5
 21
64.5766872673
 31
0.0
  0
LINE
  5
561
100
AcDbEntity
  8
IMPORT_IGES
100
AcDbLine
 62
7
  6
CONTINUOUS
 10
42.5
 20
63.5766872673
 30
0.0
 11
42.5
 21
42.5766872673
 31
0.0
  0
LINE
  5
562
100
AcDbEntity
  8
IMPORT_IGES
100
AcDbLine
 62
7
  6
CONTINUOUS
 10
42.5
 20
41.5766872673
 30
0.0
 11
42.5
 21
21.5766872673
 31
0.0
  0
LINE
  5
563
100
AcDbEntity
  8
IMPORT_IGES
100
AcDbLine
 62
7
  6
CONTINUOUS
 10
42.5
 20
20.5766872673
 30
0.0
 11
42.5
 21
0.5766872673
 31
0.0
  0
LINE
  5
564
100
AcDbEntity
  8
IMPORT_IGES
100
AcDbLine
 62
7
  6
CONTINUOUS
 10
42.5
 20
-0.4233127327
 30
0.0
 11
42.5
 21
-21.4233127327
 31
0.0
  0
LINE
  5
565
100
AcDbEntity
  8
IMPORT_IGES
100
AcDbLine
 62
7
  6
CONTINUOUS
 10
42.5
 20
-22.4233127327
 30
0.0
 11
42.5
 21
-44.4233127327
 31
0.0
  0
LINE
  5
566
100
AcDbEntity
  8
IMPORT_IGES
100
AcDbLine
 62
7
  6
CONTINUOUS
 10
42.5
 20
-45.4233127327
 30
0.0
 11
42.5
 21
-70.4233127327
 31
0.0
  0
LINE
  5
567
100
AcDbEntity
  8
IMPORT_IGES
100
AcDbLine
 62
7
  6
CONTINUOUS
 10
42.5
 20
-71.4233127327
 30
0.0
 11
42.5
 21
-83.8996607849
 31
0.0
  0
LINE
  5
568
100
AcDbEntity
  8
IMPORT_IGES
100
AcDbLine
 62
250
  6
CONTINUOUS
 10
43.25
 20
-89.4233127327
 30
0.0
 11
43.25
 21
-89.3884026028
 31
0.0
  0
LINE
  5
569
100
AcDbEntity
  8
IMPORT_IGES
100
AcDbLine
 62
250
  6
CONTINUOUS
 10
43.25
 20
-83.9342662586
 30
0.0
 11
43.25
 21
-86.2487620834
 31
0.0
  0
LINE
  5
56A
100
AcDbEntity
  8
IMPORT_IGES
100
AcDbLine
 62
250
  6
CONTINUOUS
 10
43.2527412784
 20
126.0876407933
 30
0.0
 11
43.2527412784
 21
128.4021366181
 31
0.0
  0
LINE
  5
56B
100
AcDbEntity
  8
IMPORT_IGES
100
AcDbLine
 62
250
  6
CONTINUOUS
 10
43.2527412784
 20
131.5417771375
 30
0.0
 11
43.2527412784
 21
131.5766872673
 31
0.0
  0
LINE
  5
56C
100
AcDbEntity
  8
IMPORT_IGES
100
AcDbLine
 62
7
  6
CONTINUOUS
 10
51.0
 20
135.956149375
 30
0.0
 11
51.0
 21
133.3766872673
 31
0.0
  0
LINE
  5
56D
100
AcDbEntity
  8
IMPORT_IGES
100
AcDbLine
 62
7
  6
CONTINUOUS
 10
51.1517455065
 20
131.6712555099
 30
0.0
 11
51.1517455065
 21
134.6334469032
 31
0.0
  0
LINE
  5
56E
100
AcDbEntity
  8
IMPORT_IGES
100
AcDbLine
 62
7
  6
CONTINUOUS
 10
51.4517455065
 20
133.6164754306
 30
0.0
 11
51.4517455065
 21
135.0129844176
 31
0.0
  0
LINE
  5
56F
100
AcDbEntity
  8
IMPORT_IGES
100
AcDbLine
 62
7
  6
CONTINUOUS
 10
51.5041107013
 20
133.6688406254
 30
0.0
 11
51.5041107013
 21
134.9606192228
 31
0.0
  0
LINE
  5
570
100
AcDbEntity
  8
0
100
AcDbLine
 62
7
  6
CONTINUOUS
 10
52.15
 20
133.0112555099
 30
0.0
 11
52.15
 21
131.6712555099
 31
0.0
  0
LINE
  5
571
100
AcDbEntity
  8
IMPORT_IGES
100
AcDbLine
 62
7
  6
CONTINUOUS
 10
53.1701910548
 20
8.4063099174
 30
0.0
 11
53.2574929785
 21
8.5811269473
 31
0.0
  0
LINE
  5
572
100
AcDbEntity
  8
IMPORT_IGES
100
AcDbLine
 62
7
  6
CONTINUOUS
 10
15.1570836202
 20
-85.9345709147
 30
0.0
 11
15.0
 21
-86.2487620834
 31
0.0
  0
LINE
  5
573
100
AcDbEntity
  8
IMPORT_IGES
100
AcDbLine
 62
7
  6
CONTINUOUS
 10
41.5174550649
 20
-22.4058576677
 30
0.0
 11
41.5
 21
-22.4233127327
 31
0.0
  0
LINE
  5
574
100
AcDbEntity
  8
IMPORT_IGES
100
AcDbLine
 62
7
  6
CONTINUOUS
 10
42.4825449351
 20
-21.4407677976
 30
0.0
 11
42.5
 21
-21.4233127327
 31
0.0
  0
LINE
  5
575
100
AcDbEntity
  8
IMPORT_IGES
100
AcDbLine
 62
7
  6
CONTINUOUS
 10
20.5174550649
 20
-45.4058576677
 30
0.0
 11
20.5
 21
-45.4233127327
 31
0.0
  0
LINE
  5
576
100
AcDbEntity
  8
IMPORT_IGES
100
AcDbLine
 62
7
  6
CONTINUOUS
 10
21.4825449351
 20
-44.4407677976
 30
0.0
 11
21.5
 21
-44.4233127327
 31
0.0
  0
LINE
  5
577
100
AcDbEntity
  8
IMPORT_IGES
100
AcDbLine
 62
7
  6
CONTINUOUS
 10
0.4825449351
 20
-70.4407677976
 30
0.0
 11
0.5
 21
-70.4233127327
 31
0.0
  0
LINE
  5
578
100
AcDbEntity
  8
IMPORT_IGES
100
AcDbLine
 62
7
  6
CONTINUOUS
 10
-0.4825449351
 20
-71.4058576677
 30
0.0
 11
-0.5
 21
-71.4233127327
 31
0.0
  0
LINE
  5
579
100
AcDbEntity
  8
IMPORT_IGES
100
AcDbLine
 62
7
  6
CONTINUOUS
 10
61.0365490573
 20
-10.0367636754
 30
0.0
 11
61.15
 21
-9.9233127327
 31
0.0
  0
LINE
  5
57A
100
AcDbEntity
  8
IMPORT_IGES
100
AcDbLine
 62
7
  6
CONTINUOUS
 10
-15.8865490573
 20
-89.2098617899
 30
0.0
 11
-16.0
 21
-89.3233127327
 31
0.0
  0
LINE
  5
57B
100
AcDbEntity
  8
IMPORT_IGES
100
AcDbLine
 62
250
  6
CONTINUOUS
 10
-26.6686760694
 20
-89.6655733433
 30
0.0
 11
-26.656943549
 21
-89.6538569017
 31
0.0
  0
LINE
  5
57C
100
AcDbEntity
  8
IMPORT_IGES
100
AcDbLine
 62
7
  6
CONTINUOUS
 10
61.0365490573
 20
52.9632363246
 30
0.0
 11
58.2429163798
 21
52.9196036471
 31
0.0
  0
LINE
  5
57D
100
AcDbEntity
  8
IMPORT_IGES
100
AcDbLine
 62
7
  6
CONTINUOUS
 10
-53.9942972446
 20
42.5592322024
 30
0.0
 11
-42.4825449351
 21
42.5592322024
 31
0.0
  0
LINE
  5
57E
100
AcDbEntity
  8
IMPORT_IGES
100
AcDbLine
 62
7
  6
CONTINUOUS
 10
-41.5174550649
 20
42.5592322024
 30
0.0
 11
-21.4825449351
 21
42.5592322024
 31
0.0
  0
LINE
  5
57F
100
AcDbEntity
  8
IMPORT_IGES
100
AcDbLine
 62
7
  6
CONTINUOUS
 10
-20.5174550649
 20
42.5592322024
 30
0.0
 11
-0.4825449351
 21
42.5592322024
 31
0.0
  0
LINE
  5
580
100
AcDbEntity
  8
IMPORT_IGES
100
AcDbLine
 62
7
  6
CONTINUOUS
 10
0.4825449351
 20
42.5592322024
 30
0.0
 11
20.5174550649
 21
42.5592322024
 31
0.0
  0
LINE
  5
581
100
AcDbEntity
  8
IMPORT_IGES
100
AcDbLine
 62
7
  6
CONTINUOUS
 10
21.4825449351
 20
42.5592322024
 30
0.0
 11
41.5174550649
 21
42.5592322024
 31
0.0
  0
LINE
  5
582
100
AcDbEntity
  8
IMPORT_IGES
100
AcDbLine
 62
7
  6
CONTINUOUS
 10
42.4825449351
 20
42.5592322024
 30
0.0
 11
53.9942972446
 21
42.5592322024
 31
0.0
  0
LINE
  5
583
100
AcDbEntity
  8
IMPORT_IGES
100
AcDbLine
 62
7
  6
CONTINUOUS
 10
-55.7263480521
 20
42.5766872673
 30
0.0
 11
-42.5
 21
42.5766872673
 31
0.0
  0
LINE
  5
584
100
AcDbEntity
  8
IMPORT_IGES
100
AcDbLine
 62
7
  6
CONTINUOUS
 10
-41.5
 20
42.5766872673
 30
0.0
 11
-21.5
 21
42.5766872673
 31
0.0
  0
LINE
  5
585
100
AcDbEntity
  8
IMPORT_IGES
100
AcDbLine
 62
7
  6
CONTINUOUS
 10
-20.5
 20
42.5766872673
 30
0.0
 11
-0.5
 21
42.5766872673
 31
0.0
  0
LINE
  5
586
100
AcDbEntity
  8
IMPORT_IGES
100
AcDbLine
 62
7
  6
CONTINUOUS
 10
0.5
 20
42.5766872673
 30
0.0
 11
20.5
 21
42.5766872673
 31
0.0
  0
LINE
  5
587
100
AcDbEntity
  8
IMPORT_IGES
100
AcDbLine
 62
7
  6
CONTINUOUS
 10
21.5
 20
42.5766872673
 30
0.0
 11
41.5
 21
42.5766872673
 31
0.0
  0
LINE
  5
588
100
AcDbEntity
  8
IMPORT_IGES
100
AcDbLine
 62
7
  6
CONTINUOUS
 10
42.5
 20
42.5766872673
 30
0.0
 11
55.7263480522
 21
42.5766872673
 31
0.0
  0
LINE
  5
589
100
AcDbEntity
  8
IMPORT_IGES
100
AcDbLine
 62
7
  6
CONTINUOUS
 10
58.0754493507
 20
52.0766872673
 30
0.0
 11
61.15
 21
52.0766872673
 31
0.0
  0
LINE
  5
58A
100
AcDbEntity
  8
IMPORT_IGES
100
AcDbLine
 62
7
  6
CONTINUOUS
 10
-58.0754493507
 20
52.0766872673
 30
0.0
 11
-61.15
 21
52.0766872673
 31
0.0
  0
LINE
  5
58B
100
AcDbEntity
  8
IMPORT_IGES
100
AcDbLine
 62
7
  6
CONTINUOUS
 10
58.2429163798
 20
52.2337708876
 30
0.0
 11
57.761258182
 21
52.2337708876
 31
0.0
  0
LINE
  5
58C
100
AcDbEntity
  8
IMPORT_IGES
100
AcDbLine
 62
7
  6
CONTINUOUS
 10
-57.761258182
 20
52.2337708876
 30
0.0
 11
-58.2429163798
 21
52.2337708876
 31
0.0
  0
LINE
  5
58D
100
AcDbEntity
  8
IMPORT_IGES
100
AcDbLine
 62
7
  6
CONTINUOUS
 10
-58.2429163798
 20
52.9196036471
 30
0.0
 11
-61.0365490573
 21
52.9632363246
 31
0.0
  0
LINE
  5
58E
100
AcDbEntity
  8
IMPORT_IGES
100
AcDbLine
 62
7
  6
CONTINUOUS
 10
21.4825449351
 20
41.5941423323
 30
0.0
 11
21.5
 21
41.5766872673
 31
0.0
  0
LINE
  5
58F
100
AcDbEntity
  8
IMPORT_IGES
100
AcDbLine
 62
7
  6
CONTINUOUS
 10
42.4825449351
 20
20.5941423323
 30
0.0
 11
42.5
 21
20.5766872673
 31
0.0
  0
LINE
  5
590
100
AcDbEntity
  8
IMPORT_IGES
100
AcDbLine
 62
7
  6
CONTINUOUS
 10
41.5174550649
 20
21.5592322024
 30
0.0
 11
41.5
 21
21.5766872673
 31
0.0
  0
LINE
  5
591
100
AcDbEntity
  8
IMPORT_IGES
100
AcDbLine
 62
7
  6
CONTINUOUS
 10
20.5174550649
 20
42.5592322024
 30
0.0
 11
20.5
 21
42.5766872673
 31
0.0
  0
LINE
  5
592
100
AcDbEntity
  8
IMPORT_IGES
100
AcDbLine
 62
250
  6
CONTINUOUS
 10
-63.714817725
 20
127.1356958124
 30
0.0
 11
-63.6048155586
 21
127.0256936461
 31
0.0
  0
LINE
  5
593
100
AcDbEntity
  8
IMPORT_IGES
100
AcDbLine
 62
7
  6
CONTINUOUS
 10
-20.5174550649
 20
86.5941423323
 30
0.0
 11
-20.5
 21
86.5766872673
 31
0.0
  0
LINE
  5
594
100
AcDbEntity
  8
IMPORT_IGES
100
AcDbLine
 62
7
  6
CONTINUOUS
 10
-21.4825449351
 20
87.5592322024
 30
0.0
 11
-21.5
 21
87.5766872673
 31
0.0
  0
LINE
  5
595
100
AcDbEntity
  8
IMPORT_IGES
100
AcDbLine
 62
7
  6
CONTINUOUS
 10
-41.5174550649
 20
112.5941423323
 30
0.0
 11
-41.5
 21
112.5766872673
 31
0.0
  0
LINE
  5
596
100
AcDbEntity
  8
IMPORT_IGES
100
AcDbLine
 62
7
  6
CONTINUOUS
 10
-42.4825449351
 20
113.5592322024
 30
0.0
 11
-42.5
 21
113.5766872673
 31
0.0
  0
LINE
  5
597
100
AcDbEntity
  8
IMPORT_IGES
100
AcDbLine
 62
7
  6
CONTINUOUS
 10
-15.8429163798
 20
128.0879454493
 30
0.0
 11
-16.0
 21
128.4021366181
 31
0.0
  0
LINE
  5
598
100
AcDbEntity
  8
IMPORT_IGES
100
AcDbLine
 62
7
  6
CONTINUOUS
 10
53.1352702853
 20
20.5941423323
 30
0.0
 11
53.1352702853
 21
21.5592322024
 31
0.0
  0
LINE
  5
599
100
AcDbEntity
  8
IMPORT_IGES
100
AcDbLine
 62
7
  6
CONTINUOUS
 10
53.1701910548
 20
8.4063099174
 30
0.0
 11
53.1701910548
 21
20.5766872673
 31
0.0
  0
LINE
  5
59A
100
AcDbEntity
  8
IMPORT_IGES
100
AcDbLine
 62
7
  6
CONTINUOUS
 10
53.1701910548
 20
21.5766872673
 30
0.0
 11
53.1701910548
 21
33.7470646172
 31
0.0
  0
LINE
  5
59B
100
AcDbEntity
  8
IMPORT_IGES
100
AcDbLine
 62
7
  6
CONTINUOUS
 10
53.2574929785
 20
8.5811269473
 30
0.0
 11
53.2574929785
 21
33.5722475874
 31
0.0
  0
LINE
  5
59C
100
AcDbEntity
  8
IMPORT_IGES
100
AcDbLine
 62
250
  6
CONTINUOUS
 10
53.9942972446
 20
-71.4058576678
 30
0.0
 11
53.9942972446
 21
-70.4407677976
 31
0.0
  0
LINE
  5
59D
100
AcDbEntity
  8
IMPORT_IGES
100
AcDbLine
 62
250
  6
CONTINUOUS
 10
53.9942972446
 20
-45.4058576678
 30
0.0
 11
53.9942972446
 21
-44.4407677976
 31
0.0
  0
LINE
  5
59E
100
AcDbEntity
  8
IMPORT_IGES
100
AcDbLine
 62
250
  6
CONTINUOUS
 10
53.9942972446
 20
-22.4058576677
 30
0.0
 11
53.9942972446
 21
-21.4407677976
 31
0.0
  0
LINE
  5
59F
100
AcDbEntity
  8
IMPORT_IGES
100
AcDbLine
 62
250
  6
CONTINUOUS
 10
53.9942972446
 20
-0.4058576677
 30
0.0
 11
53.9942972446
 21
0.5592322024
 31
0.0
  0
LINE
  5
5A0
100
AcDbEntity
  8
IMPORT_IGES
100
AcDbLine
 62
250
  6
CONTINUOUS
 10
53.9942972446
 20
41.5941423323
 30
0.0
 11
53.9942972446
 21
42.5592322024
 31
0.0
  0
LINE
  5
5A1
100
AcDbEntity
  8
IMPORT_IGES
100
AcDbLine
 62
250
  6
CONTINUOUS
 10
53.9942972446
 20
63.5941423323
 30
0.0
 11
53.9942972446
 21
64.5592322024
 31
0.0
  0
LINE
  5
5A2
100
AcDbEntity
  8
IMPORT_IGES
100
AcDbLine
 62
250
  6
CONTINUOUS
 10
53.9942972446
 20
86.5941423323
 30
0.0
 11
53.9942972446
 21
87.5592322024
 31
0.0
  0
LINE
  5
5A3
100
AcDbEntity
  8
IMPORT_IGES
100
AcDbLine
 62
250
  6
CONTINUOUS
 10
53.9942972446
 20
112.5941423323
 30
0.0
 11
53.9942972446
 21
113.5592322024
 31
0.0
  0
LINE
  5
5A4
100
AcDbEntity
  8
IMPORT_IGES
100
AcDbLine
 62
7
  6
CONTINUOUS
 10
55.269711524
 20
8.5811269473
 30
0.0
 11
55.269711524
 21
33.5722475874
 31
0.0
  0
LINE
  5
5A5
100
AcDbEntity
  8
IMPORT_IGES
100
AcDbLine
 62
250
  6
CONTINUOUS
 10
55.6157792805
 20
133.6164754306
 30
0.0
 11
55.6157792805
 21
133.6688406254
 31
0.0
  0
LINE
  5
5A6
100
AcDbEntity
  8
IMPORT_IGES
100
AcDbLine
 62
250
  6
CONTINUOUS
 10
55.6157792805
 20
134.9606192228
 30
0.0
 11
55.6157792805
 21
135.0147299241
 31
0.0
  0
LINE
  5
5A7
100
AcDbEntity
  8
IMPORT_IGES
100
AcDbLine
 62
7
  6
CONTINUOUS
 10
55.7263480522
 20
113.5766872673
 30
0.0
 11
55.7263480522
 21
112.5766872673
 31
0.0
  0
LINE
  5
5A8
100
AcDbEntity
  8
IMPORT_IGES
100
AcDbLine
 62
7
  6
CONTINUOUS
 10
55.7263480522
 20
87.5766872673
 30
0.0
 11
55.7263480522
 21
86.5766872673
 31
0.0
  0
LINE
  5
5A9
100
AcDbEntity
  8
IMPORT_IGES
100
AcDbLine
 62
7
  6
CONTINUOUS
 10
55.7263480522
 20
64.5766872673
 30
0.0
 11
55.7263480522
 21
63.5766872673
 31
0.0
  0
LINE
  5
5AA
100
AcDbEntity
  8
IMPORT_IGES
100
AcDbLine
 62
7
  6
CONTINUOUS
 10
55.7263480522
 20
42.5766872673
 30
0.0
 11
55.7263480522
 21
41.5766872673
 31
0.0
  0
LINE
  5
5AB
100
AcDbEntity
  8
IMPORT_IGES
100
AcDbLine
 62
7
  6
CONTINUOUS
 10
55.7263480522
 20
0.5766872673
 30
0.0
 11
55.7263480522
 21
-0.4233127327
 31
0.0
  0
LINE
  5
5AC
100
AcDbEntity
  8
IMPORT_IGES
100
AcDbLine
 62
7
  6
CONTINUOUS
 10
55.7263480522
 20
-21.4233127327
 30
0.0
 11
55.7263480522
 21
-22.4233127327
 31
0.0
  0
LINE
  5
5AD
100
AcDbEntity
  8
IMPORT_IGES
100
AcDbLine
 62
7
  6
CONTINUOUS
 10
55.7263480521
 20
-44.4233127327
 30
0.0
 11
55.7263480521
 21
-45.4233127327
 31
0.0
  0
LINE
  5
5AE
100
AcDbEntity
  8
IMPORT_IGES
100
AcDbLine
 62
7
  6
CONTINUOUS
 10
55.7263480521
 20
-70.4233127327
 30
0.0
 11
55.7263480521
 21
-71.4233127327
 31
0.0
  0
LINE
  5
5AF
100
AcDbEntity
  8
IMPORT_IGES
100
AcDbLine
 62
250
  6
CONTINUOUS
 10
55.7609535259
 20
-71.4233127327
 30
0.0
 11
55.7609535259
 21
8.4063099174
 31
0.0
  0
LINE
  5
5B0
100
AcDbEntity
  8
IMPORT_IGES
100
AcDbLine
 62
250
  6
CONTINUOUS
 10
55.7609535259
 20
33.7470646172
 30
0.0
 11
55.760530383
 21
113.5794284892
 31
0.0
  0
LINE
  5
5B1
100
AcDbEntity
  8
IMPORT_IGES
100
AcDbLine
 62
250
  6
CONTINUOUS
 10
56.5145458618
 20
-88.6281282913
 30
0.0
 11
56.5145458618
 21
-88.57401759
 31
0.0
  0
LINE
  5
5B2
100
AcDbEntity
  8
IMPORT_IGES
100
AcDbLine
 62
250
  6
CONTINUOUS
 10
56.5145458618
 20
-87.2822389925
 30
0.0
 11
56.5145458618
 21
-87.2298737978
 31
0.0
  0
LINE
  5
5B3
100
AcDbEntity
  8
IMPORT_IGES
100
AcDbLine
 62
250
  6
CONTINUOUS
 10
57.7606489162
 20
113.5794285457
 30
0.0
 11
57.761258182
 21
94.9196036471
 31
0.0
  0
LINE
  5
5B4
100
AcDbEntity
  8
IMPORT_IGES
100
AcDbLine
 62
250
  6
CONTINUOUS
 10
57.761258182
 20
94.2337708876
 30
0.0
 11
57.761258182
 21
73.9196036471
 31
0.0
  0
LINE
  5
5B5
100
AcDbEntity
  8
IMPORT_IGES
100
AcDbLine
 62
250
  6
CONTINUOUS
 10
57.761258182
 20
73.2337708876
 30
0.0
 11
57.761258182
 21
52.9196036471
 31
0.0
  0
LINE
  5
5B6
100
AcDbEntity
  8
IMPORT_IGES
100
AcDbLine
 62
250
  6
CONTINUOUS
 10
57.761258182
 20
52.2337708876
 30
0.0
 11
57.7606489162
 21
33.6096517756
 31
0.0
  0
LINE
  5
5B7
100
AcDbEntity
  8
IMPORT_IGES
100
AcDbLine
 62
250
  6
CONTINUOUS
 10
57.7606489162
 20
8.543722759
 30
0.0
 11
57.761258182
 21
-10.0803963529
 31
0.0
  0
LINE
  5
5B8
100
AcDbEntity
  8
IMPORT_IGES
100
AcDbLine
 62
250
  6
CONTINUOUS
 10
57.761258182
 20
-10.7662291124
 30
0.0
 11
57.761258182
 21
-31.0803963529
 31
0.0
  0
LINE
  5
5B9
100
AcDbEntity
  8
IMPORT_IGES
100
AcDbLine
 62
250
  6
CONTINUOUS
 10
57.761258182
 20
-31.7662291124
 30
0.0
 11
57.761258182
 21
-52.0803963529
 31
0.0
  0
LINE
  5
5BA
100
AcDbEntity
  8
IMPORT_IGES
100
AcDbLine
 62
250
  6
CONTINUOUS
 10
57.761258182
 20
-52.7662291124
 30
0.0
 11
57.7606489162
 21
-71.4233127314
 31
0.0
  0
LINE
  5
5BB
100
AcDbEntity
  8
IMPORT_IGES
100
AcDbLine
 62
7
  6
CONTINUOUS
 10
57.761258182
 20
94.9196036471
 30
0.0
 11
57.761258182
 21
94.2337708876
 31
0.0
  0
LINE
  5
5BC
100
AcDbEntity
  8
IMPORT_IGES
100
AcDbLine
 62
7
  6
CONTINUOUS
 10
57.761258182
 20
73.9196036471
 30
0.0
 11
57.761258182
 21
73.2337708876
 31
0.0
  0
LINE
  5
5BD
100
AcDbEntity
  8
IMPORT_IGES
100
AcDbLine
 62
7
  6
CONTINUOUS
 10
57.761258182
 20
52.9196036471
 30
0.0
 11
57.761258182
 21
52.2337708876
 31
0.0
  0
LINE
  5
5BE
100
AcDbEntity
  8
IMPORT_IGES
100
AcDbLine
 62
7
  6
CONTINUOUS
 10
57.761258182
 20
-10.0803963529
 30
0.0
 11
57.761258182
 21
-10.7662291124
 31
0.0
  0
LINE
  5
5BF
100
AcDbEntity
  8
IMPORT_IGES
100
AcDbLine
 62
7
  6
CONTINUOUS
 10
57.761258182
 20
-31.0803963529
 30
0.0
 11
57.761258182
 21
-31.7662291124
 31
0.0
  0
LINE
  5
5C0
100
AcDbEntity
  8
IMPORT_IGES
100
AcDbLine
 62
7
  6
CONTINUOUS
 10
57.761258182
 20
-52.0803963529
 30
0.0
 11
57.761258182
 21
-52.7662291124
 31
0.0
  0
LINE
  5
5C1
100
AcDbEntity
  8
IMPORT_IGES
100
AcDbLine
 62
7
  6
CONTINUOUS
 10
58.0754493507
 20
113.5794285457
 30
0.0
 11
58.0754493507
 21
95.0766872673
 31
0.0
  0
LINE
  5
5C2
100
AcDbEntity
  8
IMPORT_IGES
100
AcDbLine
 62
7
  6
CONTINUOUS
 10
58.0754493507
 20
94.0766872673
 30
0.0
 11
58.0754493507
 21
74.0766872673
 31
0.0
  0
LINE
  5
5C3
100
AcDbEntity
  8
IMPORT_IGES
100
AcDbLine
 62
7
  6
CONTINUOUS
 10
58.0754493507
 20
73.0766872673
 30
0.0
 11
58.0754493507
 21
53.0766872673
 31
0.0
  0
LINE
  5
5C4
100
AcDbEntity
  8
IMPORT_IGES
100
AcDbLine
 62
7
  6
CONTINUOUS
 10
58.0754493507
 20
52.0766872673
 30
0.0
 11
58.0754493507
 21
-9.9233127327
 31
0.0
  0
LINE
  5
5C5
100
AcDbEntity
  8
IMPORT_IGES
100
AcDbLine
 62
7
  6
CONTINUOUS
 10
58.0754493507
 20
-10.9233127327
 30
0.0
 11
58.0754493507
 21
-30.9233127327
 31
0.0
  0
LINE
  5
5C6
100
AcDbEntity
  8
IMPORT_IGES
100
AcDbLine
 62
7
  6
CONTINUOUS
 10
58.0754493507
 20
-31.9233127327
 30
0.0
 11
58.0754493507
 21
-51.9233127327
 31
0.0
  0
LINE
  5
5C7
100
AcDbEntity
  8
IMPORT_IGES
100
AcDbLine
 62
7
  6
CONTINUOUS
 10
58.0754493507
 20
-52.9233127327
 30
0.0
 11
58.0754493507
 21
-71.4233127327
 31
0.0
  0
LINE
  5
5C8
100
AcDbEntity
  8
IMPORT_IGES
100
AcDbLine
 62
7
  6
CONTINUOUS
 10
58.2429163798
 20
73.9196036471
 30
0.0
 11
58.2429163798
 21
73.2337708876
 31
0.0
  0
LINE
  5
5C9
100
AcDbEntity
  8
IMPORT_IGES
100
AcDbLine
 62
7
  6
CONTINUOUS
 10
58.2429163798
 20
52.9196036471
 30
0.0
 11
58.2429163798
 21
52.2337708876
 31
0.0
  0
LINE
  5
5CA
100
AcDbEntity
  8
IMPORT_IGES
100
AcDbLine
 62
7
  6
CONTINUOUS
 10
58.2429163798
 20
-31.7662291124
 30
0.0
 11
58.2429163798
 21
-31.0803963529
 31
0.0
  0
LINE
  5
5CB
100
AcDbEntity
  8
IMPORT_IGES
100
AcDbLine
 62
7
  6
CONTINUOUS
 10
58.2429163798
 20
-10.7662291124
 30
0.0
 11
58.2429163798
 21
-10.0803963529
 31
0.0
  0
LINE
  5
5CC
100
AcDbEntity
  8
IMPORT_IGES
100
AcDbLine
 62
7
  6
CONTINUOUS
 10
58.2429163798
 20
-52.0803963529
 30
0.0
 11
58.2429163798
 21
-52.7662291125
 31
0.0
  0
LINE
  5
5CD
100
AcDbEntity
  8
IMPORT_IGES
100
AcDbLine
 62
7
  6
CONTINUOUS
 10
58.2429163798
 20
94.2337708876
 30
0.0
 11
58.2429163798
 21
94.9196036471
 31
0.0
  0
LINE
  5
5CE
100
AcDbEntity
  8
IMPORT_IGES
100
AcDbLine
 62
250
  6
CONTINUOUS
 10
59.9999999985
 20
135.7958677654
 30
0.0
 11
60.0
 21
136.0379358928
 31
0.0
  0
LINE
  5
5CF
100
AcDbEntity
  8
IMPORT_IGES
100
AcDbLine
 62
250
  6
CONTINUOUS
 10
60.0000000804
 20
-89.6424904177
 30
0.0
 11
60.0
 21
-89.9233127327
 31
0.0
  0
LINE
  5
5D0
100
AcDbEntity
  8
IMPORT_IGES
100
AcDbLine
 62
7
  6
CONTINUOUS
 10
61.0365490573
 20
73.9632363246
 30
0.0
 11
61.0365490573
 21
73.1901382101
 31
0.0
  0
LINE
  5
5D1
100
AcDbEntity
  8
IMPORT_IGES
100
AcDbLine
 62
7
  6
CONTINUOUS
 10
61.0365490573
 20
52.9632363246
 30
0.0
 11
61.0365490573
 21
52.1901382101
 31
0.0
  0
LINE
  5
5D2
100
AcDbEntity
  8
IMPORT_IGES
100
AcDbLine
 62
7
  6
CONTINUOUS
 10
61.0365490573
 20
-31.8098617899
 30
0.0
 11
61.0365490573
 21
-31.0367636754
 31
0.0
  0
LINE
  5
5D3
100
AcDbEntity
  8
IMPORT_IGES
100
AcDbLine
 62
7
  6
CONTINUOUS
 10
61.0365490573
 20
-10.8098617899
 30
0.0
 11
61.0365490573
 21
-10.0367636754
 31
0.0
  0
LINE
  5
5D4
100
AcDbEntity
  8
IMPORT_IGES
100
AcDbLine
 62
7
  6
CONTINUOUS
 10
61.0365490573
 20
-52.0367636754
 30
0.0
 11
61.0365490573
 21
-52.80986179
 31
0.0
  0
LINE
  5
5D5
100
AcDbEntity
  8
IMPORT_IGES
100
AcDbLine
 62
7
  6
CONTINUOUS
 10
61.0365490573
 20
94.1901382101
 30
0.0
 11
61.0365490573
 21
94.9632363246
 31
0.0
  0
LINE
  5
5D6
100
AcDbEntity
  8
IMPORT_IGES
100
AcDbLine
 62
7
  6
CONTINUOUS
 10
61.15
 20
95.0766872673
 30
0.0
 11
61.15
 21
94.0766872673
 31
0.0
  0
LINE
  5
5D7
100
AcDbEntity
  8
IMPORT_IGES
100
AcDbLine
 62
7
  6
CONTINUOUS
 10
61.15
 20
74.0766872673
 30
0.0
 11
61.15
 21
73.0766872673
 31
0.0
  0
LINE
  5
5D8
100
AcDbEntity
  8
IMPORT_IGES
100
AcDbLine
 62
7
  6
CONTINUOUS
 10
61.15
 20
53.0766872673
 30
0.0
 11
61.15
 21
52.0766872673
 31
0.0
  0
LINE
  5
5D9
100
AcDbEntity
  8
IMPORT_IGES
100
AcDbLine
 62
7
  6
CONTINUOUS
 10
61.15
 20
-9.9233127327
 30
0.0
 11
61.15
 21
-10.9233127327
 31
0.0
  0
LINE
  5
5DA
100
AcDbEntity
  8
IMPORT_IGES
100
AcDbLine
 62
7
  6
CONTINUOUS
 10
61.15
 20
-30.9233127327
 30
0.0
 11
61.15
 21
-31.9233127327
 31
0.0
  0
LINE
  5
5DB
100
AcDbEntity
  8
IMPORT_IGES
100
AcDbLine
 62
7
  6
CONTINUOUS
 10
61.15
 20
-51.9233127327
 30
0.0
 11
61.15
 21
-52.9233127327
 31
0.0
  0
LINE
  5
5DC
100
AcDbEntity
  8
IMPORT_IGES
100
AcDbLine
 62
7
  6
CONTINUOUS
 10
61.2150898701
 20
-71.4233127327
 30
0.0
 11
61.2150898701
 21
113.5794285457
 31
0.0
  0
LINE
  5
5DD
100
AcDbEntity
  8
IMPORT_IGES
100
AcDbLine
 62
7
  6
CONTINUOUS
 10
61.25
 20
-71.4233127327
 30
0.0
 11
61.25
 21
113.5794285457
 31
0.0
  0
LINE
  5
5DE
100
AcDbEntity
  8
0
100
AcDbLine
 62
7
  6
CONTINUOUS
 10
61.63
 20
-80.3933127327
 30
0.0
 11
61.63
 21
124.3066872673
 31
0.0
  0
LINE
  5
5DF
100
AcDbEntity
  8
RACCORDO
100
AcDbLine
 62
7
  6
CONTINUOUS
 10
61.65
 20
124.8112555099
 30
0.0
 11
61.65
 21
127.0112555099
 31
0.0
  0
LINE
  5
5E0
100
AcDbEntity
  8
IMPORT_IGES
100
AcDbLine
 62
7
  6
CONTINUOUS
 10
62.2065610651
 20
-81.5378585945
 30
0.0
 11
62.2065610651
 21
127.0256936461
 31
0.0
  0
LINE
  5
5E1
100
AcDbEntity
  8
IMPORT_IGES
100
AcDbLine
 62
7
  6
CONTINUOUS
 10
62.2588570335
 20
-81.5378586412
 30
0.0
 11
62.2587484288
 21
127.0256937191
 31
0.0
  0
LINE
  5
5E2
100
AcDbEntity
  8
IMPORT_IGES
100
AcDbLine
 62
7
  6
CONTINUOUS
 10
57.7764782292
 20
8.6071366391
 30
0.0
 11
57.7606489162
 21
8.543722759
 31
0.0
  0
LINE
  5
5E3
100
AcDbEntity
  8
IMPORT_IGES
100
AcDbLine
 62
7
  6
CONTINUOUS
 10
-7.3427766622
 20
-89.7660893948
 30
0.0
 11
-7.5
 21
-89.9233127327
 31
0.0
  0
LINE
  5
5E4
100
AcDbEntity
  8
IMPORT_IGES
100
AcDbLine
 62
7
  6
CONTINUOUS
 10
-7.3427766622
 20
-91.7660893948
 30
0.0
 11
-7.5
 21
-91.9233127327
 31
0.0
  0
LINE
  5
5E5
100
AcDbEntity
  8
IMPORT_IGES
100
AcDbLine
 62
7
  6
CONTINUOUS
 10
41.5174550649
 20
-45.4058576677
 30
0.0
 11
41.5
 21
-45.4233127327
 31
0.0
  0
LINE
  5
5E6
100
AcDbEntity
  8
IMPORT_IGES
100
AcDbLine
 62
7
  6
CONTINUOUS
 10
42.4825449351
 20
-44.4407677976
 30
0.0
 11
42.5
 21
-44.4233127327
 31
0.0
  0
LINE
  5
5E7
100
AcDbEntity
  8
IMPORT_IGES
100
AcDbLine
 62
7
  6
CONTINUOUS
 10
57.761258182
 20
-31.0803963529
 30
0.0
 11
58.0754493507
 21
-30.9233127327
 31
0.0
  0
LINE
  5
5E8
100
AcDbEntity
  8
IMPORT_IGES
100
AcDbLine
 62
7
  6
CONTINUOUS
 10
-64.4985715561
 20
-80.2233160582
 30
0.0
 11
-64.2796523504
 21
-80.1499231973
 31
0.0
  0
LINE
  5
5E9
100
AcDbEntity
  8
IMPORT_IGES
100
AcDbLine
 62
7
  6
CONTINUOUS
 10
-61.0365490573
 20
52.1901382101
 30
0.0
 11
-58.2429163798
 21
52.2337708876
 31
0.0
  0
LINE
  5
5EA
100
AcDbEntity
  8
IMPORT_IGES
100
AcDbLine
 62
7
  6
CONTINUOUS
 10
-58.2429163798
 20
52.9196036471
 30
0.0
 11
-57.761258182
 21
52.9196036471
 31
0.0
  0
LINE
  5
5EB
100
AcDbEntity
  8
IMPORT_IGES
100
AcDbLine
 62
7
  6
CONTINUOUS
 10
57.761258182
 20
52.9196036471
 30
0.0
 11
58.2429163798
 21
52.9196036471
 31
0.0
  0
LINE
  5
5EC
100
AcDbEntity
  8
IMPORT_IGES
100
AcDbLine
 62
7
  6
CONTINUOUS
 10
58.0754493507
 20
53.0766872673
 30
0.0
 11
61.15
 21
53.0766872673
 31
0.0
  0
LINE
  5
5ED
100
AcDbEntity
  8
IMPORT_IGES
100
AcDbLine
 62
7
  6
CONTINUOUS
 10
-58.0754493507
 20
53.0766872673
 30
0.0
 11
-61.15
 21
53.0766872673
 31
0.0
  0
LINE
  5
5EE
100
AcDbEntity
  8
IMPORT_IGES
100
AcDbLine
 62
7
  6
CONTINUOUS
 10
58.2429163798
 20
52.2337708876
 30
0.0
 11
61.0365490573
 21
52.1901382101
 31
0.0
  0
LINE
  5
5EF
100
AcDbEntity
  8
IMPORT_IGES
100
AcDbLine
 62
7
  6
CONTINUOUS
 10
-57.761258182
 20
94.9196036471
 30
0.0
 11
-58.0754493507
 21
95.0766872673
 31
0.0
  0
LINE
  5
5F0
100
AcDbEntity
  8
IMPORT_IGES
100
AcDbLine
 62
250
  6
CONTINUOUS
 10
-55.6157792805
 20
135.0147299241
 30
0.0
 11
-55.8254103977
 21
135.2243610412
 31
0.0
  0
LINE
  5
5F1
100
AcDbEntity
  8
IMPORT_IGES
100
AcDbLine
 62
7
  6
CONTINUOUS
 10
-51.4517455065
 20
133.6164754306
 30
0.0
 11
-51.5041107013
 21
133.6688406254
 31
0.0
  0
LINE
  5
5F2
100
AcDbEntity
  8
IMPORT_IGES
100
AcDbLine
 62
7
  6
CONTINUOUS
 10
42.4825449351
 20
41.5941423323
 30
0.0
 11
42.5
 21
41.5766872673
 31
0.0
  0
LINE
  5
5F3
100
AcDbEntity
  8
IMPORT_IGES
100
AcDbLine
 62
7
  6
CONTINUOUS
 10
41.5174550649
 20
42.5592322024
 30
0.0
 11
41.5
 21
42.5766872673
 31
0.0
  0
LINE
  5
5F4
100
AcDbEntity
  8
IMPORT_IGES
100
AcDbLine
 62
7
  6
CONTINUOUS
 10
21.4825449351
 20
63.5941423323
 30
0.0
 11
21.5
 21
63.5766872673
 31
0.0
  0
LINE
  5
5F5
100
AcDbEntity
  8
IMPORT_IGES
100
AcDbLine
 62
7
  6
CONTINUOUS
 10
20.5174550649
 20
64.5592322024
 30
0.0
 11
20.5
 21
64.5766872673
 31
0.0
  0
LINE
  5
5F6
100
AcDbEntity
  8
IMPORT_IGES
100
AcDbLine
 62
7
  6
CONTINUOUS
 10
-0.4825449351
 20
123.4619575527
 30
0.0
 11
-0.5
 21
123.4968783222
 31
0.0
  0
LINE
  5
5F7
100
AcDbEntity
  8
IMPORT_IGES
100
AcDbLine
 62
7
  6
CONTINUOUS
 10
53.2574929785
 20
33.5722475874
 30
0.0
 11
53.1701910548
 21
33.7470646172
 31
0.0
  0
LINE
  5
5F8
100
AcDbEntity
  8
IMPORT_IGES
100
AcDbLine
 62
7
  6
CONTINUOUS
 10
64.4941076536
 20
131.5766872673
 30
0.0
 11
64.5
 21
130.7766872673
 31
0.0
  0
LINE
  5
5F9
100
AcDbEntity
  8
IMPORT_IGES
100
AcDbLine
 62
7
  6
CONTINUOUS
 10
66.5
 20
130.7766872673
 30
0.0
 11
66.4941076536
 21
131.5766872673
 31
0.0
  0
LINE
  5
5FA
100
AcDbEntity
  8
IMPORT_IGES
100
AcDbLine
 62
7
  6
CONTINUOUS
 10
63.9235275635
 20
-81.5055566066
 30
0.0
 11
63.9307632745
 21
-85.4233127327
 31
0.0
  0
LINE
  5
5FB
100
AcDbEntity
  8
IMPORT_IGES
100
AcDbLine
 62
7
  6
CONTINUOUS
 10
63.5507048573
 20
127.0256936461
 30
0.0
 11
63.5506358402
 21
-81.5378586325
 31
0.0
  0
LINE
  5
5FC
100
AcDbEntity
  8
IMPORT_IGES
100
AcDbLine
 62
7
  6
CONTINUOUS
 10
63.6048155586
 20
127.0256936461
 30
0.0
 11
63.6048155586
 21
-81.5378585945
 31
0.0
  0
LINE
  5
5FD
100
AcDbEntity
  8
IMPORT_IGES
100
AcDbLine
 62
7
  6
CONTINUOUS
 10
63.714817725
 20
-81.6478607609
 30
0.0
 11
63.714817725
 21
127.1356958125
 31
0.0
  0
LINE
  5
5FE
100
AcDbEntity
  8
IMPORT_IGES
100
AcDbLine
 62
7
  6
CONTINUOUS
 10
63.9307632745
 20
131.5766872674
 30
0.0
 11
63.9253369203
 21
-80.1410758533
 31
0.0
  0
LINE
  5
5FF
100
AcDbEntity
  8
IMPORT_IGES
100
AcDbLine
 62
250
  6
CONTINUOUS
 10
63.9298066467
 20
-80.1483038208
 30
0.0
 11
63.9298066467
 21
-81.4983216445
 31
0.0
  0
LINE
  5
600
100
AcDbEntity
  8
IMPORT_IGES
100
AcDbLine
 62
250
  6
CONTINUOUS
 10
63.9962403425
 20
-81.4318879487
 30
0.0
 11
63.9962403425
 21
-80.2147375167
 31
0.0
  0
LINE
  5
601
100
AcDbEntity
  8
IMPORT_IGES
100
AcDbLine
 62
250
  6
CONTINUOUS
 10
64.2796527157
 20
131.5766872671
 30
0.0
 11
64.2796527165
 21
-80.1499233201
 31
0.0
  0
LINE
  5
602
100
AcDbEntity
  8
IMPORT_IGES
100
AcDbLine
 62
250
  6
CONTINUOUS
 10
64.2796527165
 20
-81.4967021453
 30
0.0
 11
64.2796527165
 21
-85.42331273
 31
0.0
  0
LINE
  5
603
100
AcDbEntity
  8
IMPORT_IGES
100
AcDbLine
 62
7
  6
CONTINUOUS
 10
64.5
 20
-85.4233127326
 30
0.0
 11
64.5
 21
130.7766872673
 31
0.0
  0
LINE
  5
604
100
AcDbEntity
  8
IMPORT_IGES
100
AcDbLine
 62
7
  6
CONTINUOUS
 10
66.5
 20
130.7766872673
 30
0.0
 11
66.5
 21
-85.4233127327
 31
0.0
  0
LINE
  5
605
100
AcDbEntity
  8
IMPORT_IGES
100
AcDbLine
 62
7
  6
CONTINUOUS
 10
31.1570836202
 20
-85.9345709147
 30
0.0
 11
31.0
 21
-86.2487620834
 31
0.0
  0
LINE
  5
606
100
AcDbEntity
  8
IMPORT_IGES
100
AcDbLine
 62
7
  6
CONTINUOUS
 10
21.4825449351
 20
-70.4407677976
 30
0.0
 11
21.5
 21
-70.4233127327
 31
0.0
  0
LINE
  5
607
100
AcDbEntity
  8
IMPORT_IGES
100
AcDbLine
 62
7
  6
CONTINUOUS
 10
20.5174550649
 20
-71.4058576677
 30
0.0
 11
20.5
 21
-71.4233127327
 31
0.0
  0
LINE
  5
608
100
AcDbEntity
  8
IMPORT_IGES
100
AcDbLine
 62
7
  6
CONTINUOUS
 10
61.0365490573
 20
-31.0367636754
 30
0.0
 11
61.15
 21
-30.9233127327
 31
0.0
  0
LINE
  5
609
100
AcDbEntity
  8
IMPORT_IGES
100
AcDbLine
 62
7
  6
CONTINUOUS
 10
57.761258182
 20
-52.0803963529
 30
0.0
 11
58.0754493507
 21
-51.9233127327
 31
0.0
  0
LINE
  5
60A
100
AcDbEntity
  8
IMPORT_IGES
100
AcDbLine
 62
7
  6
CONTINUOUS
 10
-55.7263480521
 20
63.5766872673
 30
0.0
 11
-42.5
 21
63.5766872673
 31
0.0
  0
LINE
  5
60B
100
AcDbEntity
  8
IMPORT_IGES
100
AcDbLine
 62
7
  6
CONTINUOUS
 10
-41.5
 20
63.5766872673
 30
0.0
 11
-21.5
 21
63.5766872673
 31
0.0
  0
LINE
  5
60C
100
AcDbEntity
  8
IMPORT_IGES
100
AcDbLine
 62
7
  6
CONTINUOUS
 10
-20.5
 20
63.5766872673
 30
0.0
 11
-15.1860725653
 21
63.5766872673
 31
0.0
  0
LINE
  5
60D
100
AcDbEntity
  8
IMPORT_IGES
100
AcDbLine
 62
7
  6
CONTINUOUS
 10
15.1860725653
 20
63.5766872673
 30
0.0
 11
20.5
 21
63.5766872673
 31
0.0
  0
LINE
  5
60E
100
AcDbEntity
  8
IMPORT_IGES
100
AcDbLine
 62
7
  6
CONTINUOUS
 10
21.5
 20
63.5766872673
 30
0.0
 11
41.5
 21
63.5766872673
 31
0.0
  0
LINE
  5
60F
100
AcDbEntity
  8
IMPORT_IGES
100
AcDbLine
 62
7
  6
CONTINUOUS
 10
42.5
 20
63.5766872673
 30
0.0
 11
55.7263480522
 21
63.5766872673
 31
0.0
  0
LINE
  5
610
100
AcDbEntity
  8
IMPORT_IGES
100
AcDbLine
 62
7
  6
CONTINUOUS
 10
53.9942972446
 20
63.5941423323
 30
0.0
 11
42.4825449351
 21
63.5941423323
 31
0.0
  0
LINE
  5
611
100
AcDbEntity
  8
IMPORT_IGES
100
AcDbLine
 62
7
  6
CONTINUOUS
 10
41.5174550649
 20
63.5941423323
 30
0.0
 11
21.4825449351
 21
63.5941423323
 31
0.0
  0
LINE
  5
612
100
AcDbEntity
  8
IMPORT_IGES
100
AcDbLine
 62
7
  6
CONTINUOUS
 10
20.5174550649
 20
63.5941423323
 30
0.0
 11
15.1557455972
 21
63.5941423323
 31
0.0
  0
LINE
  5
613
100
AcDbEntity
  8
IMPORT_IGES
100
AcDbLine
 62
7
  6
CONTINUOUS
 10
-15.1557455972
 20
63.5941423323
 30
0.0
 11
-20.5174550649
 21
63.5941423323
 31
0.0
  0
LINE
  5
614
100
AcDbEntity
  8
IMPORT_IGES
100
AcDbLine
 62
7
  6
CONTINUOUS
 10
-21.4825449351
 20
63.5941423323
 30
0.0
 11
-41.5174550649
 21
63.5941423323
 31
0.0
  0
LINE
  5
615
100
AcDbEntity
  8
IMPORT_IGES
100
AcDbLine
 62
7
  6
CONTINUOUS
 10
-42.4825449351
 20
63.5941423323
 30
0.0
 11
-53.9942972446
 21
63.5941423323
 31
0.0
  0
LINE
  5
616
100
AcDbEntity
  8
IMPORT_IGES
100
AcDbLine
 62
7
  6
CONTINUOUS
 10
-53.9942972446
 20
64.5592322024
 30
0.0
 11
-42.4825449351
 21
64.5592322024
 31
0.0
  0
LINE
  5
617
100
AcDbEntity
  8
IMPORT_IGES
100
AcDbLine
 62
7
  6
CONTINUOUS
 10
-41.5174550649
 20
64.5592322024
 30
0.0
 11
-21.4825449351
 21
64.5592322024
 31
0.0
  0
LINE
  5
618
100
AcDbEntity
  8
IMPORT_IGES
100
AcDbLine
 62
7
  6
CONTINUOUS
 10
-20.5174550649
 20
64.5592322024
 30
0.0
 11
-15.5951236862
 21
64.5592322024
 31
0.0
  0
LINE
  5
619
100
AcDbEntity
  8
IMPORT_IGES
100
AcDbLine
 62
7
  6
CONTINUOUS
 10
15.5951236862
 20
64.5592322024
 30
0.0
 11
20.5174550649
 21
64.5592322024
 31
0.0
  0
LINE
  5
61A
100
AcDbEntity
  8
IMPORT_IGES
100
AcDbLine
 62
7
  6
CONTINUOUS
 10
21.4825449351
 20
64.5592322024
 30
0.0
 11
41.5174550649
 21
64.5592322024
 31
0.0
  0
LINE
  5
61B
100
AcDbEntity
  8
IMPORT_IGES
100
AcDbLine
 62
7
  6
CONTINUOUS
 10
42.4825449351
 20
64.5592322024
 30
0.0
 11
53.9942972446
 21
64.5592322024
 31
0.0
  0
LINE
  5
61C
100
AcDbEntity
  8
IMPORT_IGES
100
AcDbLine
 62
7
  6
CONTINUOUS
 10
-55.7263480521
 20
64.5766872673
 30
0.0
 11
-42.5
 21
64.5766872673
 31
0.0
  0
LINE
  5
61D
100
AcDbEntity
  8
IMPORT_IGES
100
AcDbLine
 62
7
  6
CONTINUOUS
 10
-41.5
 20
64.5766872673
 30
0.0
 11
-21.5
 21
64.5766872673
 31
0.0
  0
LINE
  5
61E
100
AcDbEntity
  8
IMPORT_IGES
100
AcDbLine
 62
7
  6
CONTINUOUS
 10
-20.5
 20
64.5766872673
 30
0.0
 11
-15.640230176
 21
64.5766872673
 31
0.0
  0
LINE
  5
61F
100
AcDbEntity
  8
IMPORT_IGES
100
AcDbLine
 62
7
  6
CONTINUOUS
 10
15.640230176
 20
64.5766872673
 30
0.0
 11
20.5
 21
64.5766872673
 31
0.0
  0
LINE
  5
620
100
AcDbEntity
  8
IMPORT_IGES
100
AcDbLine
 62
7
  6
CONTINUOUS
 10
21.5
 20
64.5766872673
 30
0.0
 11
41.5
 21
64.5766872673
 31
0.0
  0
LINE
  5
621
100
AcDbEntity
  8
IMPORT_IGES
100
AcDbLine
 62
7
  6
CONTINUOUS
 10
42.5
 20
64.5766872673
 30
0.0
 11
55.7263480522
 21
64.5766872673
 31
0.0
  0
LINE
  5
622
100
AcDbEntity
  8
IMPORT_IGES
100
AcDbLine
 62
7
  6
CONTINUOUS
 10
57.761258182
 20
52.2337708876
 30
0.0
 11
58.0754493507
 21
52.0766872673
 31
0.0
  0
LINE
  5
623
100
AcDbEntity
  8
IMPORT_IGES
100
AcDbLine
 62
7
  6
CONTINUOUS
 10
15.1860725653
 20
63.5766872673
 30
0.0
 11
15.1557455972
 21
63.5941423323
 31
0.0
  0
LINE
  5
624
100
AcDbEntity
  8
IMPORT_IGES
100
AcDbLine
 62
7
  6
CONTINUOUS
 10
-20.5174550649
 20
112.5941423323
 30
0.0
 11
-20.5
 21
112.5766872673
 31
0.0
  0
LINE
  5
625
100
AcDbEntity
  8
IMPORT_IGES
100
AcDbLine
 62
7
  6
CONTINUOUS
 10
-21.4825449351
 20
113.5592322024
 30
0.0
 11
-21.5
 21
113.5766872673
 31
0.0
  0
LINE
  5
626
100
AcDbEntity
  8
IMPORT_IGES
100
AcDbLine
 62
7
  6
CONTINUOUS
 10
-31.8865490573
 20
131.3632363246
 30
0.0
 11
-32.0
 21
131.4766872673
 31
0.0
  0
LINE
  5
627
100
AcDbEntity
  8
IMPORT_IGES
100
AcDbLine
 62
7
  6
CONTINUOUS
 10
15.1570836202
 20
128.0879454493
 30
0.0
 11
15.0
 21
128.4021366181
 31
0.0
  0
LINE
  5
628
100
AcDbEntity
  8
IMPORT_IGES
100
AcDbLine
 62
7
  6
CONTINUOUS
 10
57.7764780703
 20
33.5461074015
 30
0.0
 11
57.7606489162
 21
33.6096517756
 31
0.0
  0
LINE
  5
629
100
AcDbEntity
  8
IMPORT_IGES
100
AcDbLine
 62
7
  6
CONTINUOUS
 10
15.1134509427
 20
-89.2098617899
 30
0.0
 11
15.0
 21
-89.3233127327
 31
0.0
  0
LINE
  5
62A
100
AcDbEntity
  8
IMPORT_IGES
100
AcDbLine
 62
7
  6
CONTINUOUS
 10
42.4825449351
 20
-70.4407677976
 30
0.0
 11
42.5
 21
-70.4233127327
 31
0.0
  0
LINE
  5
62B
100
AcDbEntity
  8
IMPORT_IGES
100
AcDbLine
 62
7
  6
CONTINUOUS
 10
41.5174550649
 20
-71.4058576677
 30
0.0
 11
41.5
 21
-71.4233127327
 31
0.0
  0
LINE
  5
62C
100
AcDbEntity
  8
IMPORT_IGES
100
AcDbLine
 62
7
  6
CONTINUOUS
 10
61.0365490573
 20
-52.0367636754
 30
0.0
 11
61.15
 21
-51.9233127327
 31
0.0
  0
LINE
  5
62D
100
AcDbEntity
  8
IMPORT_IGES
100
AcDbLine
 62
7
  6
CONTINUOUS
 10
12.49556032
 20
-81.4308057112
 30
0.0
 11
12.6703773499
 21
-81.3435037875
 31
0.0
  0
LINE
  5
62E
100
AcDbEntity
  8
IMPORT_IGES
100
AcDbLine
 62
7
  6
CONTINUOUS
 10
61.0365490573
 20
73.9632363246
 30
0.0
 11
58.2429163798
 21
73.9196036471
 31
0.0
  0
LINE
  5
62F
100
AcDbEntity
  8
IMPORT_IGES
100
AcDbLine
 62
7
  6
CONTINUOUS
 10
-61.0365490573
 20
73.1901382101
 30
0.0
 11
-58.2429163798
 21
73.2337708876
 31
0.0
  0
LINE
  5
630
100
AcDbEntity
  8
IMPORT_IGES
100
AcDbLine
 62
7
  6
CONTINUOUS
 10
58.0754493507
 20
73.0766872673
 30
0.0
 11
61.15
 21
73.0766872673
 31
0.0
  0
LINE
  5
631
100
AcDbEntity
  8
IMPORT_IGES
100
AcDbLine
 62
7
  6
CONTINUOUS
 10
-58.0754493507
 20
73.0766872673
 30
0.0
 11
-61.15
 21
73.0766872673
 31
0.0
  0
LINE
  5
632
100
AcDbEntity
  8
IMPORT_IGES
100
AcDbLine
 62
7
  6
CONTINUOUS
 10
58.2429163798
 20
73.2337708876
 30
0.0
 11
57.761258182
 21
73.2337708876
 31
0.0
  0
LINE
  5
633
100
AcDbEntity
  8
IMPORT_IGES
100
AcDbLine
 62
7
  6
CONTINUOUS
 10
-57.761258182
 20
73.2337708876
 30
0.0
 11
-58.2429163798
 21
73.2337708876
 31
0.0
  0
LINE
  5
634
100
AcDbEntity
  8
IMPORT_IGES
100
AcDbLine
 62
7
  6
CONTINUOUS
 10
-58.2429163798
 20
73.9196036471
 30
0.0
 11
-57.761258182
 21
73.9196036471
 31
0.0
  0
LINE
  5
635
100
AcDbEntity
  8
IMPORT_IGES
100
AcDbLine
 62
7
  6
CONTINUOUS
 10
57.761258182
 20
73.9196036471
 30
0.0
 11
58.2429163798
 21
73.9196036471
 31
0.0
  0
LINE
  5
636
100
AcDbEntity
  8
IMPORT_IGES
100
AcDbLine
 62
7
  6
CONTINUOUS
 10
58.0754493507
 20
74.0766872673
 30
0.0
 11
61.15
 21
74.0766872673
 31
0.0
  0
LINE
  5
637
100
AcDbEntity
  8
IMPORT_IGES
100
AcDbLine
 62
7
  6
CONTINUOUS
 10
-58.0754493507
 20
74.0766872673
 30
0.0
 11
-61.15
 21
74.0766872673
 31
0.0
  0
LINE
  5
638
100
AcDbEntity
  8
IMPORT_IGES
100
AcDbLine
 62
7
  6
CONTINUOUS
 10
-58.2429163798
 20
73.9196036471
 30
0.0
 11
-61.0365490573
 21
73.9632363246
 31
0.0
  0
LINE
  5
639
100
AcDbEntity
  8
IMPORT_IGES
100
AcDbLine
 62
7
  6
CONTINUOUS
 10
58.2429163798
 20
73.2337708876
 30
0.0
 11
61.0365490573
 21
73.1901382101
 31
0.0
  0
LINE
  5
63A
100
AcDbEntity
  8
IMPORT_IGES
100
AcDbLine
 62
7
  6
CONTINUOUS
 10
42.4825449351
 20
63.5941423323
 30
0.0
 11
42.5
 21
63.5766872673
 31
0.0
  0
LINE
  5
63B
100
AcDbEntity
  8
IMPORT_IGES
100
AcDbLine
 62
7
  6
CONTINUOUS
 10
41.5174550649
 20
64.5592322024
 30
0.0
 11
41.5
 21
64.5766872673
 31
0.0
  0
LINE
  5
63C
100
AcDbEntity
  8
IMPORT_IGES
100
AcDbLine
 62
7
  6
CONTINUOUS
 10
21.4825449351
 20
86.5941423323
 30
0.0
 11
21.5
 21
86.5766872673
 31
0.0
  0
LINE
  5
63D
100
AcDbEntity
  8
IMPORT_IGES
100
AcDbLine
 62
7
  6
CONTINUOUS
 10
20.5174550649
 20
87.5592322024
 30
0.0
 11
20.5
 21
87.5766872673
 31
0.0
  0
LINE
  5
63E
100
AcDbEntity
  8
IMPORT_IGES
100
AcDbLine
 62
7
  6
CONTINUOUS
 10
0.4825449351
 20
112.5941423323
 30
0.0
 11
0.5
 21
112.5766872673
 31
0.0
  0
LINE
  5
63F
100
AcDbEntity
  8
IMPORT_IGES
100
AcDbLine
 62
7
  6
CONTINUOUS
 10
-0.4825449351
 20
113.5592322024
 30
0.0
 11
-0.5
 21
113.5766872673
 31
0.0
  0
LINE
  5
640
100
AcDbEntity
  8
IMPORT_IGES
100
AcDbLine
 62
7
  6
CONTINUOUS
 10
61.0365490573
 20
52.1901382101
 30
0.0
 11
61.15
 21
52.0766872673
 31
0.0
  0
LINE
  5
641
100
AcDbEntity
  8
IMPORT_IGES
100
AcDbLine
 62
7
  6
CONTINUOUS
 10
-15.8865490573
 20
131.3632363246
 30
0.0
 11
-16.0
 21
131.4766872673
 31
0.0
  0
LINE
  5
642
100
AcDbEntity
  8
IMPORT_IGES
100
AcDbLine
 62
7
  6
CONTINUOUS
 10
31.1134509427
 20
-89.2098617899
 30
0.0
 11
31.0
 21
-89.3233127327
 31
0.0
  0
LINE
  5
643
100
AcDbEntity
  8
IMPORT_IGES
100
AcDbLine
 62
250
  6
CONTINUOUS
 10
33.3313239306
 20
-89.6655733433
 30
0.0
 11
33.343056451
 21
-89.6538569017
 31
0.0
  0
LINE
  5
644
100
AcDbEntity
  8
IMPORT_IGES
100
AcDbLine
 62
7
  6
CONTINUOUS
 10
-55.7263480521
 20
86.5766872673
 30
0.0
 11
-42.5
 21
86.5766872673
 31
0.0
  0
LINE
  5
645
100
AcDbEntity
  8
IMPORT_IGES
100
AcDbLine
 62
7
  6
CONTINUOUS
 10
-41.5
 20
86.5766872673
 30
0.0
 11
-21.5
 21
86.5766872673
 31
0.0
  0
LINE
  5
646
100
AcDbEntity
  8
IMPORT_IGES
100
AcDbLine
 62
7
  6
CONTINUOUS
 10
-20.5
 20
86.5766872673
 30
0.0
 11
-6.8276496657
 21
86.5766872673
 31
0.0
  0
LINE
  5
647
100
AcDbEntity
  8
IMPORT_IGES
100
AcDbLine
 62
7
  6
CONTINUOUS
 10
6.8276496657
 20
86.5766872673
 30
0.0
 11
20.5
 21
86.5766872673
 31
0.0
  0
LINE
  5
648
100
AcDbEntity
  8
IMPORT_IGES
100
AcDbLine
 62
7
  6
CONTINUOUS
 10
21.5
 20
86.5766872673
 30
0.0
 11
41.5
 21
86.5766872673
 31
0.0
  0
LINE
  5
649
100
AcDbEntity
  8
IMPORT_IGES
100
AcDbLine
 62
7
  6
CONTINUOUS
 10
42.5
 20
86.5766872673
 30
0.0
 11
55.7263480522
 21
86.5766872673
 31
0.0
  0
LINE
  5
64A
100
AcDbEntity
  8
IMPORT_IGES
100
AcDbLine
 62
7
  6
CONTINUOUS
 10
53.9942972446
 20
86.5941423323
 30
0.0
 11
42.4825449351
 21
86.5941423323
 31
0.0
  0
LINE
  5
64B
100
AcDbEntity
  8
IMPORT_IGES
100
AcDbLine
 62
7
  6
CONTINUOUS
 10
41.5174550649
 20
86.5941423323
 30
0.0
 11
21.4825449351
 21
86.5941423323
 31
0.0
  0
LINE
  5
64C
100
AcDbEntity
  8
IMPORT_IGES
100
AcDbLine
 62
7
  6
CONTINUOUS
 10
20.5174550649
 20
86.5941423323
 30
0.0
 11
6.7002754883
 21
86.5941423323
 31
0.0
  0
LINE
  5
64D
100
AcDbEntity
  8
IMPORT_IGES
100
AcDbLine
 62
7
  6
CONTINUOUS
 10
-6.7002754883
 20
86.5941423323
 30
0.0
 11
-20.5174550649
 21
86.5941423323
 31
0.0
  0
LINE
  5
64E
100
AcDbEntity
  8
IMPORT_IGES
100
AcDbLine
 62
7
  6
CONTINUOUS
 10
-21.4825449351
 20
86.5941423323
 30
0.0
 11
-41.5174550649
 21
86.5941423323
 31
0.0
  0
LINE
  5
64F
100
AcDbEntity
  8
IMPORT_IGES
100
AcDbLine
 62
7
  6
CONTINUOUS
 10
-42.4825449351
 20
86.5941423323
 30
0.0
 11
-53.9942972446
 21
86.5941423323
 31
0.0
  0
LINE
  5
650
100
AcDbEntity
  8
IMPORT_IGES
100
AcDbLine
 62
7
  6
CONTINUOUS
 10
-53.9942972446
 20
87.5592322024
 30
0.0
 11
-42.4825449351
 21
87.5592322024
 31
0.0
  0
LINE
  5
651
100
AcDbEntity
  8
IMPORT_IGES
100
AcDbLine
 62
7
  6
CONTINUOUS
 10
-41.5174550649
 20
87.5592322024
 30
0.0
 11
-21.4825449351
 21
87.5592322024
 31
0.0
  0
LINE
  5
652
100
AcDbEntity
  8
IMPORT_IGES
100
AcDbLine
 62
7
  6
CONTINUOUS
 10
-20.5174550649
 20
87.5592322024
 30
0.0
 11
-3.7431024265
 21
87.5592322024
 31
0.0
  0
LINE
  5
653
100
AcDbEntity
  8
IMPORT_IGES
100
AcDbLine
 62
7
  6
CONTINUOUS
 10
3.7431024265
 20
87.5592322024
 30
0.0
 11
20.5174550649
 21
87.5592322024
 31
0.0
  0
LINE
  5
654
100
AcDbEntity
  8
IMPORT_IGES
100
AcDbLine
 62
7
  6
CONTINUOUS
 10
21.4825449351
 20
87.5592322024
 30
0.0
 11
41.5174550649
 21
87.5592322024
 31
0.0
  0
LINE
  5
655
100
AcDbEntity
  8
IMPORT_IGES
100
AcDbLine
 62
7
  6
CONTINUOUS
 10
42.4825449351
 20
87.5592322024
 30
0.0
 11
53.9942972446
 21
87.5592322024
 31
0.0
  0
LINE
  5
656
100
AcDbEntity
  8
IMPORT_IGES
100
AcDbLine
 62
7
  6
CONTINUOUS
 10
-55.7263480521
 20
87.5766872673
 30
0.0
 11
-42.5
 21
87.5766872673
 31
0.0
  0
LINE
  5
657
100
AcDbEntity
  8
IMPORT_IGES
100
AcDbLine
 62
7
  6
CONTINUOUS
 10
-41.5
 20
87.5766872673
 30
0.0
 11
-21.5
 21
87.5766872673
 31
0.0
  0
LINE
  5
658
100
AcDbEntity
  8
IMPORT_IGES
100
AcDbLine
 62
7
  6
CONTINUOUS
 10
-20.5
 20
87.5766872673
 30
0.0
 11
-3.8231923778
 21
87.5766872673
 31
0.0
  0
LINE
  5
659
100
AcDbEntity
  8
IMPORT_IGES
100
AcDbLine
 62
7
  6
CONTINUOUS
 10
3.8231923778
 20
87.5766872673
 30
0.0
 11
20.5
 21
87.5766872673
 31
0.0
  0
LINE
  5
65A
100
AcDbEntity
  8
IMPORT_IGES
100
AcDbLine
 62
7
  6
CONTINUOUS
 10
21.5
 20
87.5766872673
 30
0.0
 11
41.5
 21
87.5766872673
 31
0.0
  0
LINE
  5
65B
100
AcDbEntity
  8
IMPORT_IGES
100
AcDbLine
 62
7
  6
CONTINUOUS
 10
42.5
 20
87.5766872673
 30
0.0
 11
55.7263480522
 21
87.5766872673
 31
0.0
  0
LINE
  5
65C
100
AcDbEntity
  8
IMPORT_IGES
100
AcDbLine
 62
7
  6
CONTINUOUS
 10
57.761258182
 20
73.2337708876
 30
0.0
 11
58.0754493507
 21
73.0766872673
 31
0.0
  0
LINE
  5
65D
100
AcDbEntity
  8
IMPORT_IGES
100
AcDbLine
 62
7
  6
CONTINUOUS
 10
42.4825449351
 20
86.5941423323
 30
0.0
 11
42.5
 21
86.5766872673
 31
0.0
  0
LINE
  5
65E
100
AcDbEntity
  8
IMPORT_IGES
100
AcDbLine
 62
7
  6
CONTINUOUS
 10
41.5174550649
 20
87.5592322024
 30
0.0
 11
41.5
 21
87.5766872673
 31
0.0
  0
LINE
  5
65F
100
AcDbEntity
  8
IMPORT_IGES
100
AcDbLine
 62
7
  6
CONTINUOUS
 10
31.1570836202
 20
128.0879454493
 30
0.0
 11
31.0
 21
128.4021366181
 31
0.0
  0
LINE
  5
660
100
AcDbEntity
  8
IMPORT_IGES
100
AcDbLine
 62
7
  6
CONTINUOUS
 10
63.9298066467
 20
-81.4983216445
 30
0.0
 11
63.9962403425
 21
-81.4318879487
 31
0.0
  0
LINE
  5
661
100
AcDbEntity
  8
IMPORT_IGES
100
AcDbLine
 62
7
  6
CONTINUOUS
 10
64.4985715561
 20
-81.4233094071
 30
0.0
 11
64.2796523483
 21
-81.4967022688
 31
0.0
  0
LINE
  5
662
100
AcDbEntity
  8
IMPORT_IGES
100
AcDbLine
 62
7
  6
CONTINUOUS
 10
61.0365490573
 20
94.9632363246
 30
0.0
 11
58.2429163798
 21
94.9196036471
 31
0.0
  0
LINE
  5
663
100
AcDbEntity
  8
IMPORT_IGES
100
AcDbLine
 62
7
  6
CONTINUOUS
 10
-61.0365490573
 20
94.1901382101
 30
0.0
 11
-58.2429163798
 21
94.2337708876
 31
0.0
  0
LINE
  5
664
100
AcDbEntity
  8
IMPORT_IGES
100
AcDbLine
 62
7
  6
CONTINUOUS
 10
58.0754493507
 20
94.0766872673
 30
0.0
 11
61.15
 21
94.0766872673
 31
0.0
  0
LINE
  5
665
100
AcDbEntity
  8
IMPORT_IGES
100
AcDbLine
 62
7
  6
CONTINUOUS
 10
-58.0754493507
 20
94.0766872673
 30
0.0
 11
-61.15
 21
94.0766872673
 31
0.0
  0
LINE
  5
666
100
AcDbEntity
  8
IMPORT_IGES
100
AcDbLine
 62
7
  6
CONTINUOUS
 10
58.2429163798
 20
94.2337708876
 30
0.0
 11
57.761258182
 21
94.2337708876
 31
0.0
  0
LINE
  5
667
100
AcDbEntity
  8
IMPORT_IGES
100
AcDbLine
 62
7
  6
CONTINUOUS
 10
-57.761258182
 20
94.2337708876
 30
0.0
 11
-58.2429163798
 21
94.2337708876
 31
0.0
  0
LINE
  5
668
100
AcDbEntity
  8
IMPORT_IGES
100
AcDbLine
 62
7
  6
CONTINUOUS
 10
-58.2429163798
 20
94.9196036471
 30
0.0
 11
-57.761258182
 21
94.9196036471
 31
0.0
  0
LINE
  5
669
100
AcDbEntity
  8
IMPORT_IGES
100
AcDbLine
 62
7
  6
CONTINUOUS
 10
57.761258182
 20
94.9196036471
 30
0.0
 11
58.2429163798
 21
94.9196036471
 31
0.0
  0
LINE
  5
66A
100
AcDbEntity
  8
IMPORT_IGES
100
AcDbLine
 62
7
  6
CONTINUOUS
 10
58.0754493507
 20
95.0766872673
 30
0.0
 11
61.15
 21
95.0766872673
 31
0.0
  0
LINE
  5
66B
100
AcDbEntity
  8
IMPORT_IGES
100
AcDbLine
 62
7
  6
CONTINUOUS
 10
-58.0754493507
 20
95.0766872673
 30
0.0
 11
-61.15
 21
95.0766872673
 31
0.0
  0
LINE
  5
66C
100
AcDbEntity
  8
IMPORT_IGES
100
AcDbLine
 62
7
  6
CONTINUOUS
 10
-58.2429163798
 20
94.9196036471
 30
0.0
 11
-61.0365490573
 21
94.9632363246
 31
0.0
  0
LINE
  5
66D
100
AcDbEntity
  8
IMPORT_IGES
100
AcDbLine
 62
7
  6
CONTINUOUS
 10
58.2429163798
 20
94.2337708876
 30
0.0
 11
61.0365490573
 21
94.1901382101
 31
0.0
  0
LINE
  5
66E
100
AcDbEntity
  8
IMPORT_IGES
100
AcDbLine
 62
7
  6
CONTINUOUS
 10
21.4825449351
 20
112.5941423323
 30
0.0
 11
21.5
 21
112.5766872673
 31
0.0
  0
LINE
  5
66F
100
AcDbEntity
  8
IMPORT_IGES
100
AcDbLine
 62
7
  6
CONTINUOUS
 10
20.5174550649
 20
113.5592322024
 30
0.0
 11
20.5
 21
113.5766872673
 31
0.0
  0
LINE
  5
670
100
AcDbEntity
  8
IMPORT_IGES
100
AcDbLine
 62
7
  6
CONTINUOUS
 10
61.0365490573
 20
73.1901382101
 30
0.0
 11
61.15
 21
73.0766872673
 31
0.0
  0
LINE
  5
671
100
AcDbEntity
  8
IMPORT_IGES
100
AcDbLine
 62
7
  6
CONTINUOUS
 10
-55.7263480521
 20
112.5766872673
 30
0.0
 11
-42.5
 21
112.5766872673
 31
0.0
  0
LINE
  5
672
100
AcDbEntity
  8
IMPORT_IGES
100
AcDbLine
 62
7
  6
CONTINUOUS
 10
-41.5
 20
112.5766872673
 30
0.0
 11
-21.5
 21
112.5766872673
 31
0.0
  0
LINE
  5
673
100
AcDbEntity
  8
IMPORT_IGES
100
AcDbLine
 62
7
  6
CONTINUOUS
 10
-20.5
 20
112.5766872673
 30
0.0
 11
-0.5
 21
112.5766872673
 31
0.0
  0
LINE
  5
674
100
AcDbEntity
  8
IMPORT_IGES
100
AcDbLine
 62
7
  6
CONTINUOUS
 10
0.5
 20
112.5766872673
 30
0.0
 11
20.5
 21
112.5766872673
 31
0.0
  0
LINE
  5
675
100
AcDbEntity
  8
IMPORT_IGES
100
AcDbLine
 62
7
  6
CONTINUOUS
 10
21.5
 20
112.5766872673
 30
0.0
 11
41.5
 21
112.5766872673
 31
0.0
  0
LINE
  5
676
100
AcDbEntity
  8
IMPORT_IGES
100
AcDbLine
 62
7
  6
CONTINUOUS
 10
42.5
 20
112.5766872673
 30
0.0
 11
55.7263480522
 21
112.5766872673
 31
0.0
  0
LINE
  5
677
100
AcDbEntity
  8
IMPORT_IGES
100
AcDbLine
 62
7
  6
CONTINUOUS
 10
53.9942972446
 20
112.5941423323
 30
0.0
 11
42.4825449351
 21
112.5941423323
 31
0.0
  0
LINE
  5
678
100
AcDbEntity
  8
IMPORT_IGES
100
AcDbLine
 62
7
  6
CONTINUOUS
 10
41.5174550649
 20
112.5941423323
 30
0.0
 11
21.4825449351
 21
112.5941423323
 31
0.0
  0
LINE
  5
679
100
AcDbEntity
  8
IMPORT_IGES
100
AcDbLine
 62
7
  6
CONTINUOUS
 10
20.5174550649
 20
112.5941423323
 30
0.0
 11
0.4825449351
 21
112.5941423323
 31
0.0
  0
LINE
  5
67A
100
AcDbEntity
  8
IMPORT_IGES
100
AcDbLine
 62
7
  6
CONTINUOUS
 10
-0.4825449351
 20
112.5941423323
 30
0.0
 11
-20.5174550649
 21
112.5941423323
 31
0.0
  0
LINE
  5
67B
100
AcDbEntity
  8
IMPORT_IGES
100
AcDbLine
 62
7
  6
CONTINUOUS
 10
-21.4825449351
 20
112.5941423323
 30
0.0
 11
-41.5174550649
 21
112.5941423323
 31
0.0
  0
LINE
  5
67C
100
AcDbEntity
  8
IMPORT_IGES
100
AcDbLine
 62
7
  6
CONTINUOUS
 10
-42.4825449351
 20
112.5941423323
 30
0.0
 11
-53.9942972446
 21
112.5941423323
 31
0.0
  0
LINE
  5
67D
100
AcDbEntity
  8
IMPORT_IGES
100
AcDbLine
 62
7
  6
CONTINUOUS
 10
-53.9942972446
 20
113.5592322024
 30
0.0
 11
-42.4825449351
 21
113.5592322024
 31
0.0
  0
LINE
  5
67E
100
AcDbEntity
  8
IMPORT_IGES
100
AcDbLine
 62
7
  6
CONTINUOUS
 10
-41.5174550649
 20
113.5592322024
 30
0.0
 11
-21.4825449351
 21
113.5592322024
 31
0.0
  0
LINE
  5
67F
100
AcDbEntity
  8
IMPORT_IGES
100
AcDbLine
 62
7
  6
CONTINUOUS
 10
-20.5174550649
 20
113.5592322024
 30
0.0
 11
-0.4825449351
 21
113.5592322024
 31
0.0
  0
LINE
  5
680
100
AcDbEntity
  8
IMPORT_IGES
100
AcDbLine
 62
7
  6
CONTINUOUS
 10
0.4825449351
 20
113.5592322024
 30
0.0
 11
20.5174550649
 21
113.5592322024
 31
0.0
  0
LINE
  5
681
100
AcDbEntity
  8
IMPORT_IGES
100
AcDbLine
 62
7
  6
CONTINUOUS
 10
21.4825449351
 20
113.5592322024
 30
0.0
 11
41.5174550649
 21
113.5592322024
 31
0.0
  0
LINE
  5
682
100
AcDbEntity
  8
IMPORT_IGES
100
AcDbLine
 62
7
  6
CONTINUOUS
 10
42.4825449351
 20
113.5592322024
 30
0.0
 11
53.9942972446
 21
113.5592322024
 31
0.0
  0
LINE
  5
683
100
AcDbEntity
  8
IMPORT_IGES
100
AcDbLine
 62
7
  6
CONTINUOUS
 10
-55.7263480521
 20
113.5766872673
 30
0.0
 11
-42.5
 21
113.5766872673
 31
0.0
  0
LINE
  5
684
100
AcDbEntity
  8
IMPORT_IGES
100
AcDbLine
 62
7
  6
CONTINUOUS
 10
-41.5
 20
113.5766872673
 30
0.0
 11
-21.5
 21
113.5766872673
 31
0.0
  0
LINE
  5
685
100
AcDbEntity
  8
IMPORT_IGES
100
AcDbLine
 62
7
  6
CONTINUOUS
 10
-20.5
 20
113.5766872673
 30
0.0
 11
-0.5
 21
113.5766872673
 31
0.0
  0
LINE
  5
686
100
AcDbEntity
  8
IMPORT_IGES
100
AcDbLine
 62
7
  6
CONTINUOUS
 10
0.5
 20
113.5766872673
 30
0.0
 11
20.5
 21
113.5766872673
 31
0.0
  0
LINE
  5
687
100
AcDbEntity
  8
IMPORT_IGES
100
AcDbLine
 62
7
  6
CONTINUOUS
 10
21.5
 20
113.5766872673
 30
0.0
 11
41.5
 21
113.5766872673
 31
0.0
  0
LINE
  5
688
100
AcDbEntity
  8
IMPORT_IGES
100
AcDbLine
 62
7
  6
CONTINUOUS
 10
42.5
 20
113.5766872673
 30
0.0
 11
55.7263480522
 21
113.5766872673
 31
0.0
  0
LINE
  5
689
100
AcDbEntity
  8
IMPORT_IGES
100
AcDbLine
 62
250
  6
CONTINUOUS
 10
61.25
 20
113.5794285457
 30
0.0
 11
61.2150898701
 21
113.5794285457
 31
0.0
  0
LINE
  5
68A
100
AcDbEntity
  8
IMPORT_IGES
100
AcDbLine
 62
250
  6
CONTINUOUS
 10
58.0754493507
 20
113.5794285457
 30
0.0
 11
55.7609535259
 21
113.5794252391
 31
0.0
  0
LINE
  5
68B
100
AcDbEntity
  8
IMPORT_IGES
100
AcDbLine
 62
250
  6
CONTINUOUS
 10
-55.7609535259
 20
113.5794285457
 30
0.0
 11
-58.0754493507
 21
113.5794285457
 31
0.0
  0
LINE
  5
68C
100
AcDbEntity
  8
IMPORT_IGES
100
AcDbLine
 62
250
  6
CONTINUOUS
 10
-61.2150898701
 20
113.5794285457
 30
0.0
 11
-61.25
 21
113.5794285457
 31
0.0
  0
LINE
  5
68D
100
AcDbEntity
  8
IMPORT_IGES
100
AcDbLine
 62
7
  6
CONTINUOUS
 10
57.761258182
 20
94.2337708876
 30
0.0
 11
58.0754493507
 21
94.0766872673
 31
0.0
  0
LINE
  5
68E
100
AcDbEntity
  8
IMPORT_IGES
100
AcDbLine
 62
7
  6
CONTINUOUS
 10
15.1134509427
 20
131.3632363246
 30
0.0
 11
15.0
 21
131.4766872673
 31
0.0
  0
LINE
  5
68F
100
AcDbEntity
  8
IMPORT_IGES
100
AcDbLine
 62
7
  6
CONTINUOUS
 10
42.4825449351
 20
112.5941423323
 30
0.0
 11
42.5
 21
112.5766872673
 31
0.0
  0
LINE
  5
690
100
AcDbEntity
  8
IMPORT_IGES
100
AcDbLine
 62
7
  6
CONTINUOUS
 10
41.5174550649
 20
113.5592322024
 30
0.0
 11
41.5
 21
113.5766872673
 31
0.0
  0
LINE
  5
691
100
AcDbEntity
  8
IMPORT_IGES
100
AcDbLine
 62
7
  6
CONTINUOUS
 10
61.0365490573
 20
94.1901382101
 30
0.0
 11
61.15
 21
94.0766872673
 31
0.0
  0
LINE
  5
692
100
AcDbEntity
  8
IMPORT_IGES
100
AcDbLine
 62
7
  6
CONTINUOUS
 10
39.4
 20
132.7766872673
 30
0.0
 11
39.0
 21
133.3766872673
 31
0.0
  0
LINE
  5
693
100
AcDbEntity
  8
IMPORT_IGES
100
AcDbLine
 62
7
  6
CONTINUOUS
 10
-0.4825449351
 20
123.4619575527
 30
0.0
 11
0.4825449351
 21
123.4619575527
 31
0.0
  0
LINE
  5
694
100
AcDbEntity
  8
IMPORT_IGES
100
AcDbLine
 62
7
  6
CONTINUOUS
 10
-12.6703773499
 20
123.4968783222
 30
0.0
 11
-0.5
 21
123.4968783222
 31
0.0
  0
LINE
  5
695
100
AcDbEntity
  8
IMPORT_IGES
100
AcDbLine
 62
7
  6
CONTINUOUS
 10
0.5
 20
123.4968783222
 30
0.0
 11
12.6703773499
 21
123.4968783222
 31
0.0
  0
LINE
  5
696
100
AcDbEntity
  8
IMPORT_IGES
100
AcDbLine
 62
7
  6
CONTINUOUS
 10
-12.49556032
 20
123.5841802459
 30
0.0
 11
12.49556032
 21
123.5841802459
 31
0.0
  0
LINE
  5
697
100
AcDbEntity
  8
IMPORT_IGES
100
AcDbLine
 62
7
  6
CONTINUOUS
 10
12.6703773499
 20
123.4968783222
 30
0.0
 11
12.49556032
 21
123.5841802459
 31
0.0
  0
LINE
  5
698
100
AcDbEntity
  8
IMPORT_IGES
100
AcDbLine
 62
7
  6
CONTINUOUS
 10
31.1134509427
 20
131.3632363246
 30
0.0
 11
31.0
 21
131.4766872673
 31
0.0
  0
LINE
  5
699
100
AcDbEntity
  8
IMPORT_IGES
100
AcDbLine
 62
7
  6
CONTINUOUS
 10
36.1482544935
 20
133.6164754306
 30
0.0
 11
36.0958892987
 21
133.6688406254
 31
0.0
  0
LINE
  5
69A
100
AcDbEntity
  8
IMPORT_IGES
100
AcDbLine
 62
7
  6
CONTINUOUS
 10
-12.4694201291
 20
128.1031653377
 30
0.0
 11
-12.5329645083
 21
128.0873361836
 31
0.0
  0
LINE
  5
69B
100
AcDbEntity
  8
IMPORT_IGES
100
AcDbLine
 62
7
  6
CONTINUOUS
 10
-12.49556032
 20
125.5963987913
 30
0.0
 11
-12.4694201291
 21
125.6028911472
 31
0.0
  0
LINE
  5
69C
100
AcDbEntity
  8
0
100
AcDbLine
 62
7
  6
CONTINUOUS
 10
61.63
 20
124.3066872673
 30
0.0
 11
57.7035716453
 21
124.3066872673
 31
0.0
  0
LINE
  5
69D
100
AcDbEntity
  8
0
100
AcDbLine
 62
7
  6
CONTINUOUS
 10
-57.7036944437
 20
124.3066872673
 30
0.0
 11
-61.63
 21
124.3066872673
 31
0.0
  0
LINE
  5
69E
100
AcDbEntity
  8
IMPORT_IGES
100
AcDbLine
 62
250
  6
CONTINUOUS
 10
42.4825449351
 20
124.3209845119
 30
0.0
 11
41.5174550649
 21
124.3209845119
 31
0.0
  0
LINE
  5
69F
100
AcDbEntity
  8
IMPORT_IGES
100
AcDbLine
 62
250
  6
CONTINUOUS
 10
21.4825449351
 20
124.3209845119
 30
0.0
 11
20.5174550649
 21
124.3209845119
 31
0.0
  0
LINE
  5
6A0
100
AcDbEntity
  8
IMPORT_IGES
100
AcDbLine
 62
250
  6
CONTINUOUS
 10
-20.5174550649
 20
124.3209845119
 30
0.0
 11
-21.4825449351
 21
124.3209845119
 31
0.0
  0
LINE
  5
6A1
100
AcDbEntity
  8
IMPORT_IGES
100
AcDbLine
 62
250
  6
CONTINUOUS
 10
-41.5174550649
 20
124.3209845119
 30
0.0
 11
-42.4825449351
 21
124.3209845119
 31
0.0
  0
LINE
  5
6A2
100
AcDbEntity
  8
0
100
AcDbLine
 62
7
  6
CONTINUOUS
 10
-61.65
 20
124.8112555099
 30
0.0
 11
-57.3140962405
 21
124.8112555099
 31
0.0
  0
LINE
  5
6A3
100
AcDbEntity
  8
0
100
AcDbLine
 62
7
  6
CONTINUOUS
 10
57.3141915641
 20
124.8112555099
 30
0.0
 11
61.65
 21
124.8112555099
 31
0.0
  0
LINE
  5
6A4
100
AcDbEntity
  8
IMPORT_IGES
100
AcDbLine
 62
7
  6
CONTINUOUS
 10
-12.49556032
 20
125.5963987913
 30
0.0
 11
12.49556032
 21
125.5963987913
 31
0.0
  0
LINE
  5
6A5
100
AcDbEntity
  8
IMPORT_IGES
100
AcDbLine
 62
7
  6
CONTINUOUS
 10
-42.5
 20
126.0530353195
 30
0.0
 11
-41.5
 21
126.0530353195
 31
0.0
  0
LINE
  5
6A6
100
AcDbEntity
  8
IMPORT_IGES
100
AcDbLine
 62
7
  6
CONTINUOUS
 10
-21.5
 20
126.0530353195
 30
0.0
 11
-20.5
 21
126.0530353195
 31
0.0
  0
LINE
  5
6A7
100
AcDbEntity
  8
IMPORT_IGES
100
AcDbLine
 62
7
  6
CONTINUOUS
 10
20.5
 20
126.0530353195
 30
0.0
 11
21.5
 21
126.0530353195
 31
0.0
  0
LINE
  5
6A8
100
AcDbEntity
  8
IMPORT_IGES
100
AcDbLine
 62
7
  6
CONTINUOUS
 10
41.5
 20
126.0530353195
 30
0.0
 11
42.5
 21
126.0530353195
 31
0.0
  0
LINE
  5
6A9
100
AcDbEntity
  8
IMPORT_IGES
100
AcDbLine
 62
250
  6
CONTINUOUS
 10
43.2527412228
 20
126.0872306343
 30
0.0
 11
12.6703773499
 21
126.0876407933
 31
0.0
  0
LINE
  5
6AA
100
AcDbEntity
  8
IMPORT_IGES
100
AcDbLine
 62
250
  6
CONTINUOUS
 10
-12.6703773499
 20
126.0876407933
 30
0.0
 11
-43.2527412219
 21
126.0872164003
 31
0.0
  0
LINE
  5
6AB
100
AcDbEntity
  8
IMPORT_IGES
100
AcDbLine
 62
250
  6
CONTINUOUS
 10
63.6048155586
 20
127.0256936461
 30
0.0
 11
63.5507048573
 21
127.0256936461
 31
0.0
  0
LINE
  5
6AC
100
AcDbEntity
  8
IMPORT_IGES
100
AcDbLine
 62
250
  6
CONTINUOUS
 10
62.2589262598
 20
127.0256936461
 30
0.0
 11
62.2065610651
 21
127.0256936461
 31
0.0
  0
LINE
  5
6AD
100
AcDbEntity
  8
IMPORT_IGES
100
AcDbLine
 62
250
  6
CONTINUOUS
 10
-62.2065610651
 20
127.0256936461
 30
0.0
 11
-62.2589262598
 21
127.0256936461
 31
0.0
  0
LINE
  5
6AE
100
AcDbEntity
  8
IMPORT_IGES
100
AcDbLine
 62
250
  6
CONTINUOUS
 10
-63.5507048573
 20
127.0256936461
 30
0.0
 11
-63.6048155586
 21
127.0256936461
 31
0.0
  0
LINE
  5
6AF
100
AcDbEntity
  8
IMPORT_IGES
100
AcDbLine
 62
250
  6
CONTINUOUS
 10
-43.2527412784
 20
128.0873361836
 30
0.0
 11
-31.8429163798
 21
128.0879454493
 31
0.0
  0
LINE
  5
6B0
100
AcDbEntity
  8
IMPORT_IGES
100
AcDbLine
 62
250
  6
CONTINUOUS
 10
-15.1570836202
 20
128.0879454493
 30
0.0
 11
-12.5329645083
 21
128.0873361836
 31
0.0
  0
LINE
  5
6B1
100
AcDbEntity
  8
IMPORT_IGES
100
AcDbLine
 62
250
  6
CONTINUOUS
 10
-31.1570836202
 20
128.0879454493
 30
0.0
 11
-15.8429163798
 21
128.0879454493
 31
0.0
  0
LINE
  5
6B2
100
AcDbEntity
  8
IMPORT_IGES
100
AcDbLine
 62
250
  6
CONTINUOUS
 10
12.5329645083
 20
128.0873361836
 30
0.0
 11
15.1570836202
 21
128.0879454493
 31
0.0
  0
LINE
  5
6B3
100
AcDbEntity
  8
IMPORT_IGES
100
AcDbLine
 62
250
  6
CONTINUOUS
 10
31.8429163798
 20
128.0879454493
 30
0.0
 11
43.2527412784
 21
128.0873361836
 31
0.0
  0
LINE
  5
6B4
100
AcDbEntity
  8
IMPORT_IGES
100
AcDbLine
 62
250
  6
CONTINUOUS
 10
15.8429163798
 20
128.0879454493
 30
0.0
 11
31.1570836202
 21
128.0879454493
 31
0.0
  0
LINE
  5
6B5
100
AcDbEntity
  8
IMPORT_IGES
100
AcDbLine
 62
7
  6
CONTINUOUS
 10
31.8429163798
 20
128.0879454493
 30
0.0
 11
31.1570836202
 21
128.0879454493
 31
0.0
  0
LINE
  5
6B6
100
AcDbEntity
  8
IMPORT_IGES
100
AcDbLine
 62
7
  6
CONTINUOUS
 10
15.8429163798
 20
128.0879454493
 30
0.0
 11
15.1570836202
 21
128.0879454493
 31
0.0
  0
LINE
  5
6B7
100
AcDbEntity
  8
IMPORT_IGES
100
AcDbLine
 62
7
  6
CONTINUOUS
 10
-15.1570836202
 20
128.0879454493
 30
0.0
 11
-15.8429163798
 21
128.0879454493
 31
0.0
  0
LINE
  5
6B8
100
AcDbEntity
  8
IMPORT_IGES
100
AcDbLine
 62
7
  6
CONTINUOUS
 10
-31.1570836202
 20
128.0879454493
 30
0.0
 11
-31.8429163798
 21
128.0879454493
 31
0.0
  0
LINE
  5
6B9
100
AcDbEntity
  8
IMPORT_IGES
100
AcDbLine
 62
7
  6
CONTINUOUS
 10
-43.2527412784
 20
128.4021366181
 30
0.0
 11
-32.0
 21
128.4021366181
 31
0.0
  0
LINE
  5
6BA
100
AcDbEntity
  8
IMPORT_IGES
100
AcDbLine
 62
7
  6
CONTINUOUS
 10
-31.0
 20
128.4021366181
 30
0.0
 11
-16.0
 21
128.4021366181
 31
0.0
  0
LINE
  5
6BB
100
AcDbEntity
  8
IMPORT_IGES
100
AcDbLine
 62
7
  6
CONTINUOUS
 10
-15.0
 20
128.4021366181
 30
0.0
 11
15.0
 21
128.4021366181
 31
0.0
  0
LINE
  5
6BC
100
AcDbEntity
  8
IMPORT_IGES
100
AcDbLine
 62
7
  6
CONTINUOUS
 10
16.0
 20
128.4021366181
 30
0.0
 11
31.0
 21
128.4021366181
 31
0.0
  0
LINE
  5
6BD
100
AcDbEntity
  8
IMPORT_IGES
100
AcDbLine
 62
7
  6
CONTINUOUS
 10
32.0
 20
128.4021366181
 30
0.0
 11
43.2527412784
 21
128.4021366181
 31
0.0
  0
LINE
  5
6BE
100
AcDbEntity
  8
IMPORT_IGES
100
AcDbLine
 62
7
  6
CONTINUOUS
 10
31.8429163798
 20
128.5696036471
 30
0.0
 11
31.1570836202
 21
128.5696036471
 31
0.0
  0
LINE
  5
6BF
100
AcDbEntity
  8
IMPORT_IGES
100
AcDbLine
 62
7
  6
CONTINUOUS
 10
15.8429163798
 20
128.5696036471
 30
0.0
 11
15.1570836202
 21
128.5696036471
 31
0.0
  0
LINE
  5
6C0
100
AcDbEntity
  8
IMPORT_IGES
100
AcDbLine
 62
7
  6
CONTINUOUS
 10
-15.1570836202
 20
128.5696036471
 30
0.0
 11
-15.8429163798
 21
128.5696036471
 31
0.0
  0
LINE
  5
6C1
100
AcDbEntity
  8
IMPORT_IGES
100
AcDbLine
 62
7
  6
CONTINUOUS
 10
-31.1570836202
 20
128.5696036471
 30
0.0
 11
-31.8429163798
 21
128.5696036471
 31
0.0
  0
LINE
  5
6C2
100
AcDbEntity
  8
IMPORT_IGES
100
AcDbLine
 62
7
  6
CONTINUOUS
 10
66.5
 20
130.7766872673
 30
0.0
 11
64.5
 21
130.7766872673
 31
0.0
  0
LINE
  5
6C3
100
AcDbEntity
  8
IMPORT_IGES
100
AcDbLine
 62
7
  6
CONTINUOUS
 10
-64.5
 20
130.7766872673
 30
0.0
 11
-66.5
 21
130.7766872673
 31
0.0
  0
LINE
  5
6C4
100
AcDbEntity
  8
IMPORT_IGES
100
AcDbLine
 62
7
  6
CONTINUOUS
 10
31.8865490573
 20
131.3632363246
 30
0.0
 11
31.1134509427
 21
131.3632363246
 31
0.0
  0
LINE
  5
6C5
100
AcDbEntity
  8
IMPORT_IGES
100
AcDbLine
 62
7
  6
CONTINUOUS
 10
15.8865490573
 20
131.3632363246
 30
0.0
 11
15.1134509427
 21
131.3632363246
 31
0.0
  0
LINE
  5
6C6
100
AcDbEntity
  8
IMPORT_IGES
100
AcDbLine
 62
7
  6
CONTINUOUS
 10
-15.1134509427
 20
131.3632363246
 30
0.0
 11
-15.8865490573
 21
131.3632363246
 31
0.0
  0
LINE
  5
6C7
100
AcDbEntity
  8
IMPORT_IGES
100
AcDbLine
 62
7
  6
CONTINUOUS
 10
-31.1134509427
 20
131.3632363246
 30
0.0
 11
-31.8865490573
 21
131.3632363246
 31
0.0
  0
LINE
  5
6C8
100
AcDbEntity
  8
IMPORT_IGES
100
AcDbLine
 62
7
  6
CONTINUOUS
 10
-32.0
 20
131.4766872673
 30
0.0
 11
-31.0
 21
131.4766872673
 31
0.0
  0
LINE
  5
6C9
100
AcDbEntity
  8
IMPORT_IGES
100
AcDbLine
 62
7
  6
CONTINUOUS
 10
-16.0
 20
131.4766872673
 30
0.0
 11
-15.0
 21
131.4766872673
 31
0.0
  0
LINE
  5
6CA
100
AcDbEntity
  8
IMPORT_IGES
100
AcDbLine
 62
7
  6
CONTINUOUS
 10
15.0
 20
131.4766872673
 30
0.0
 11
16.0
 21
131.4766872673
 31
0.0
  0
LINE
  5
6CB
100
AcDbEntity
  8
IMPORT_IGES
100
AcDbLine
 62
7
  6
CONTINUOUS
 10
31.0
 20
131.4766872673
 30
0.0
 11
32.0
 21
131.4766872673
 31
0.0
  0
LINE
  5
6CC
100
AcDbEntity
  8
IMPORT_IGES
100
AcDbLine
 62
7
  6
CONTINUOUS
 10
43.2527412784
 20
131.5417771375
 30
0.0
 11
-43.2527412784
 21
131.5417771375
 31
0.0
  0
LINE
  5
6CD
100
AcDbEntity
  8
IMPORT_IGES
100
AcDbLine
 62
250
  6
CONTINUOUS
 10
64.4941076536
 20
131.5766872673
 30
0.0
 11
63.9307632745
 21
131.576687382
 31
0.0
  0
LINE
  5
6CE
100
AcDbEntity
  8
IMPORT_IGES
100
AcDbLine
 62
7
  6
CONTINUOUS
 10
43.2527412784
 20
131.5766872673
 30
0.0
 11
-43.2527412784
 21
131.5766872673
 31
0.0
  0
LINE
  5
6CF
100
AcDbEntity
  8
IMPORT_IGES
100
AcDbLine
 62
250
  6
CONTINUOUS
 10
-63.9307632745
 20
131.5766872673
 30
0.0
 11
-64.4941076536
 21
131.5766872673
 31
0.0
  0
LINE
  5
6D0
100
AcDbEntity
  8
0
100
AcDbLine
 62
7
  6
CONTINUOUS
 10
-52.15
 20
131.6712555099
 30
0.0
 11
-35.15
 21
131.6712555099
 31
0.0
  0
LINE
  5
6D1
100
AcDbEntity
  8
0
100
AcDbLine
 62
7
  6
CONTINUOUS
 10
35.15
 20
131.6712555099
 30
0.0
 11
52.15
 21
131.6712555099
 31
0.0
  0
LINE
  5
6D2
100
AcDbEntity
  8
IMPORT_IGES
100
AcDbLine
 62
7
  6
CONTINUOUS
 10
50.6
 20
132.7766872673
 30
0.0
 11
39.4
 21
132.7766872673
 31
0.0
  0
LINE
  5
6D3
100
AcDbEntity
  8
IMPORT_IGES
100
AcDbLine
 62
7
  6
CONTINUOUS
 10
-39.4
 20
132.7766872673
 30
0.0
 11
-50.6
 21
132.7766872673
 31
0.0
  0
LINE
  5
6D4
100
AcDbEntity
  8
RACCORDO
100
AcDbLine
 62
7
  6
CONTINUOUS
 10
55.65
 20
133.0112555099
 30
0.0
 11
52.15
 21
133.0112555099
 31
0.0
  0
LINE
  5
6D5
100
AcDbEntity
  8
0
100
AcDbLine
 62
7
  6
CONTINUOUS
 10
35.15
 20
133.0112555099
 30
0.0
 11
-35.15
 21
133.0112555099
 31
0.0
  0
LINE
  5
6D6
100
AcDbEntity
  8
RACCORDO
100
AcDbLine
 62
7
  6
CONTINUOUS
 10
-52.15
 20
133.0112555099
 30
0.0
 11
-55.65
 21
133.0112555099
 31
0.0
  0
LINE
  5
6D7
100
AcDbEntity
  8
IMPORT_IGES
100
AcDbLine
 62
7
  6
CONTINUOUS
 10
55.6157792805
 20
133.6164754306
 30
0.0
 11
51.4517455065
 21
133.6164754306
 31
0.0
  0
LINE
  5
6D8
100
AcDbEntity
  8
IMPORT_IGES
100
AcDbLine
 62
7
  6
CONTINUOUS
 10
36.1482544935
 20
133.6164754306
 30
0.0
 11
-36.1491272468
 21
133.6164754306
 31
0.0
  0
LINE
  5
6D9
100
AcDbEntity
  8
IMPORT_IGES
100
AcDbLine
 62
7
  6
CONTINUOUS
 10
-51.4517455065
 20
133.6164754306
 30
0.0
 11
-55.6157792805
 21
133.6164754306
 31
0.0
  0
LINE
  5
6DA
100
AcDbEntity
  8
IMPORT_IGES
100
AcDbLine
 62
7
  6
CONTINUOUS
 10
36.0958892987
 20
133.6688406254
 30
0.0
 11
-36.15
 21
133.6688406254
 31
0.0
  0
LINE
  5
6DB
100
AcDbEntity
  8
IMPORT_IGES
100
AcDbLine
 62
7
  6
CONTINUOUS
 10
-51.5041107013
 20
133.6688406254
 30
0.0
 11
-55.6157793129
 21
133.6687881996
 31
0.0
  0
LINE
  5
6DC
100
AcDbEntity
  8
IMPORT_IGES
100
AcDbLine
 62
7
  6
CONTINUOUS
 10
55.6157793535
 20
133.6686627943
 30
0.0
 11
51.5041107013
 21
133.6688406254
 31
0.0
  0
LINE
  5
6DD
100
AcDbEntity
  8
IMPORT_IGES
100
AcDbLine
 62
7
  6
CONTINUOUS
 10
12.4694201291
 20
125.6028911472
 30
0.0
 11
12.49556032
 21
125.5963987913
 31
0.0
  0
LINE
  5
6DE
100
AcDbEntity
  8
IMPORT_IGES
100
AcDbLine
 62
7
  6
CONTINUOUS
 10
12.4695506283
 20
128.1031654966
 30
0.0
 11
12.5329645083
 21
128.0873361836
 31
0.0
  0
LINE
  5
6DF
100
AcDbEntity
  8
IMPORT_IGES
100
AcDbLine
 62
7
  6
CONTINUOUS
 10
51.4517455065
 20
135.0129844176
 30
0.0
 11
51.5041107013
 21
134.9606192228
 31
0.0
  0
LINE
  5
6E0
100
AcDbEntity
  8
IMPORT_IGES
100
AcDbLine
 62
7
  6
CONTINUOUS
 10
-36.15
 20
134.9606192228
 30
0.0
 11
36.0958892987
 21
134.9606192228
 31
0.0
  0
LINE
  5
6E1
100
AcDbEntity
  8
IMPORT_IGES
100
AcDbLine
 62
7
  6
CONTINUOUS
 10
51.5041107013
 20
134.9606192228
 30
0.0
 11
55.6157792805
 21
134.9606192228
 31
0.0
  0
LINE
  5
6E2
100
AcDbEntity
  8
IMPORT_IGES
100
AcDbLine
 62
7
  6
CONTINUOUS
 10
-55.6157793091
 20
134.9605639455
 30
0.0
 11
-51.5041107013
 21
134.9606192228
 31
0.0
  0
LINE
  5
6E3
100
AcDbEntity
  8
IMPORT_IGES
100
AcDbLine
 62
7
  6
CONTINUOUS
 10
-55.6157792805
 20
135.0147299241
 30
0.0
 11
-51.4257251227
 21
135.0147299241
 31
0.0
  0
LINE
  5
6E4
100
AcDbEntity
  8
IMPORT_IGES
100
AcDbLine
 62
7
  6
CONTINUOUS
 10
-36.15
 20
135.0147299241
 30
0.0
 11
36.15
 21
135.0147299241
 31
0.0
  0
LINE
  5
6E5
100
AcDbEntity
  8
IMPORT_IGES
100
AcDbLine
 62
7
  6
CONTINUOUS
 10
51.4175374695
 20
135.0147299241
 30
0.0
 11
55.6157792805
 21
135.0147299241
 31
0.0
  0
LINE
  5
6E6
100
AcDbEntity
  8
IMPORT_IGES
100
AcDbLine
 62
7
  6
CONTINUOUS
 10
51.4512186848
 20
135.1457493723
 30
0.0
 11
51.0
 21
135.1457493723
 31
0.0
  0
LINE
  5
6E7
100
AcDbEntity
  8
IMPORT_IGES
100
AcDbLine
 62
7
  6
CONTINUOUS
 10
39.0
 20
135.1457493723
 30
0.0
 11
36.1936376623
 21
135.1457493723
 31
0.0
  0
LINE
  5
6E8
100
AcDbEntity
  8
IMPORT_IGES
100
AcDbLine
 62
7
  6
CONTINUOUS
 10
-36.1936376623
 20
135.1457493723
 30
0.0
 11
-39.0
 21
135.1457493723
 31
0.0
  0
LINE
  5
6E9
100
AcDbEntity
  8
IMPORT_IGES
100
AcDbLine
 62
7
  6
CONTINUOUS
 10
-51.0
 20
135.1457493723
 30
0.0
 11
-51.4512186848
 21
135.1457493723
 31
0.0
  0
LINE
  5
6EA
100
AcDbEntity
  8
IMPORT_IGES
100
AcDbLine
 62
7
  6
CONTINUOUS
 10
55.8254103977
 20
135.2243610412
 30
0.0
 11
51.0
 21
135.2243610412
 31
0.0
  0
LINE
  5
6EB
100
AcDbEntity
  8
IMPORT_IGES
100
AcDbLine
 62
7
  6
CONTINUOUS
 10
39.0
 20
135.2243610412
 30
0.0
 11
-39.0
 21
135.2243610412
 31
0.0
  0
LINE
  5
6EC
100
AcDbEntity
  8
IMPORT_IGES
100
AcDbLine
 62
7
  6
CONTINUOUS
 10
-51.0
 20
135.2243610412
 30
0.0
 11
-55.8254103977
 21
135.2243610412
 31
0.0
  0
LINE
  5
6ED
100
AcDbEntity
  8
IMPORT_IGES
100
AcDbLine
 62
7
  6
CONTINUOUS
 10
51.0
 20
135.956149375
 30
0.0
 11
39.0
 21
135.956149375
 31
0.0
  0
LINE
  5
6EE
100
AcDbEntity
  8
IMPORT_IGES
100
AcDbLine
 62
7
  6
CONTINUOUS
 10
-39.0
 20
135.956149375
 30
0.0
 11
-51.0
 21
135.956149375
 31
0.0
  0
LINE
  5
6EF
100
AcDbEntity
  8
IMPORT_IGES
100
AcDbLine
 62
7
  6
CONTINUOUS
 10
60.0
 20
136.0379358928
 30
0.0
 11
-60.0
 21
136.0379358928
 31
0.0
  0
LINE
  5
6F0
100
AcDbEntity
  8
IMPORT_IGES
100
AcDbLine
 62
7
  6
CONTINUOUS
 10
-60.0
 20
138.0233127327
 30
0.0
 11
60.0
 21
138.0233127327
 31
0.0
  0
LINE
  5
6F1
100
AcDbEntity
  8
IMPORT_IGES
100
AcDbLine
 62
7
  6
CONTINUOUS
 10
51.107276724
 20
134.6473379048
 30
0.0
 11
51.1517455065
 21
134.6334469032
 31
0.0
  0
ARC
  5
6F2
100
AcDbEntity
  8
IMPORT_IGES
100
AcDbCircle
 62
7
  6
CONTINUOUS
 10
-43.25
 20
-71.4233127327
 30
0.0
 40
18.0
100
AcDbArc
 50
180.0
 51
270.0
  0
ARC
  5
6F3
100
AcDbEntity
  8
IMPORT_IGES
100
AcDbCircle
 62
7
  6
CONTINUOUS
 10
-43.2537430842
 20
113.5804303515
 30
0.0
 40
17.9942207805
100
AcDbArc
 50
89.9968104899
 51
180.0031895101
  0
ARC
  5
6F4
100
AcDbEntity
  8
IMPORT_IGES
100
AcDbCircle
 62
7
  6
CONTINUOUS
 10
-43.25
 20
-71.4233127327
 30
0.0
 40
17.9650898701
100
AcDbArc
 50
180.0
 51
269.9999999971
  0
ARC
  5
6F5
100
AcDbEntity
  8
IMPORT_IGES
100
AcDbCircle
 62
7
  6
CONTINUOUS
 10
-43.2537430844
 20
113.5804303517
 30
0.0
 40
17.959330708
100
AcDbArc
 50
89.99680429
 51
180.00319571
  0
ARC
  5
6F6
100
AcDbEntity
  8
IMPORT_IGES
100
AcDbCircle
 62
7
  6
CONTINUOUS
 10
-43.25
 20
-71.4233127327
 30
0.0
 40
14.8254493507
100
AcDbArc
 50
180.0
 51
269.9999999983
  0
ARC
  5
6F7
100
AcDbEntity
  8
IMPORT_IGES
100
AcDbCircle
 62
7
  6
CONTINUOUS
 10
-43.2537430715
 20
113.5804303388
 30
0.0
 40
14.8200924403
100
AcDbArc
 50
89.996127099
 51
180.003872901
  0
ARC
  5
6F8
100
AcDbEntity
  8
IMPORT_IGES
100
AcDbCircle
 62
250
  6
CONTINUOUS
 10
-43.25
 20
-71.4233127327
 30
0.0
 40
14.5106489162
100
AcDbArc
 50
180.0
 51
270.0000000025
  0
ARC
  5
6F9
100
AcDbEntity
  8
IMPORT_IGES
100
AcDbCircle
 62
7
  6
CONTINUOUS
 10
-43.2500629188
 20
113.5767270902
 30
0.0
 40
14.5099853406
100
AcDbArc
 50
90.0105767372
 51
179.9893320342
  0
ARC
  5
6FA
100
AcDbEntity
  8
IMPORT_IGES
100
AcDbCircle
 62
250
  6
CONTINUOUS
 10
-43.25
 20
-71.4233127327
 30
0.0
 40
12.5109535259
100
AcDbArc
 50
180.0
 51
269.9999999981
  0
ARC
  5
6FB
100
AcDbEntity
  8
IMPORT_IGES
100
AcDbCircle
 62
250
  6
CONTINUOUS
 10
-43.2500509207
 20
113.5767155436
 30
0.0
 40
12.5103754997
100
AcDbArc
 50
90.0123210815
 51
179.9875751984
  0
ARC
  5
6FC
100
AcDbEntity
  8
IMPORT_IGES
100
AcDbCircle
 62
7
  6
CONTINUOUS
 10
-55.6193662837
 20
127.029285927
 30
0.0
 40
7.9854710358
100
AcDbArc
 50
89.9743534969
 51
180.0257768064
  0
ARC
  5
6FD
100
AcDbEntity
  8
IMPORT_IGES
100
AcDbCircle
 62
7
  6
CONTINUOUS
 10
-55.6200615884
 20
127.029975954
 30
0.0
 40
7.9304480208
100
AcDbArc
 50
89.9690620026
 51
180.0309379974
  0
ARC
  5
6FE
100
AcDbEntity
  8
IMPORT_IGES
100
AcDbCircle
 62
7
  6
CONTINUOUS
 10
-56.5184093725
 20
-81.5417221051
 30
0.0
 40
7.0862590101
100
AcDbArc
 50
179.9687614757
 51
270.0312385242
  0
ARC
  5
6FF
100
AcDbEntity
  8
IMPORT_IGES
100
AcDbCircle
 62
7
  6
CONTINUOUS
 10
-55.6200611395
 20
127.029975505
 30
0.0
 40
6.6386783284
100
AcDbArc
 50
89.9630460189
 51
180.0369539812
  0
ARC
  5
700
100
AcDbEntity
  8
IMPORT_IGES
100
AcDbCircle
 62
7
  6
CONTINUOUS
 10
-55.6200611178
 20
127.0299754834
 30
0.0
 40
6.5863138745
100
AcDbArc
 50
89.962752409
 51
180.0372475911
  0
ARC
  5
701
100
AcDbEntity
  8
IMPORT_IGES
100
AcDbCircle
 62
7
  6
CONTINUOUS
 10
-60.0
 20
-85.4233127327
 30
0.0
 40
6.5
100
AcDbArc
 50
180.0
 51
270.0
  0
ARC
  5
702
100
AcDbEntity
  8
RACCORDO
100
AcDbCircle
 62
7
  6
CONTINUOUS
 10
-55.65
 20
127.0112555099
 30
0.0
 40
6.0
100
AcDbArc
 50
90.0
 51
180.0
  0
ARC
  5
703
100
AcDbEntity
  8
IMPORT_IGES
100
AcDbCircle
 62
7
  6
CONTINUOUS
 10
-56.5180927987
 20
-81.5414055314
 30
0.0
 40
5.740184992
100
AcDbArc
 50
179.9645998822
 51
270.0354001175
  0
ARC
  5
704
100
AcDbEntity
  8
IMPORT_IGES
100
AcDbCircle
 62
7
  6
CONTINUOUS
 10
-56.5180927731
 20
-81.5414055058
 30
0.0
 40
5.6878126304
100
AcDbArc
 50
179.9642742669
 51
270.0357257328
  0
ARC
  5
705
100
AcDbEntity
  8
IMPORT_IGES
100
AcDbCircle
 62
7
  6
CONTINUOUS
 10
-60.0
 20
-85.4233127327
 30
0.0
 40
4.5
100
AcDbArc
 50
180.0
 51
270.0
  0
ARC
  5
706
100
AcDbEntity
  8
IMPORT_IGES
100
AcDbCircle
 62
250
  6
CONTINUOUS
 10
-60.0589069221
 20
-85.421864478
 30
0.0
 40
4.2208970422
100
AcDbArc
 50
180.0196597657
 51
270.7996204729
  0
ARC
  5
707
100
AcDbEntity
  8
IMPORT_IGES
100
AcDbCircle
 62
250
  6
CONTINUOUS
 10
-60.0589128516
 20
131.5752424261
 30
0.0
 40
4.2208908424
100
AcDbArc
 50
89.2002989374
 51
179.9803865605
  0
CIRCLE
  5
708
100
AcDbEntity
  8
IMPORT_IGES
100
AcDbCircle
 62
7
  6
CONTINUOUS
 10
-38.6
 20
-62.7733127327
 30
0.0
 40
2.8571155294
  0
CIRCLE
  5
709
100
AcDbEntity
  8
IMPORT_IGES
100
AcDbCircle
 62
7
  6
CONTINUOUS
 10
-38.6
 20
108.9266872673
 30
0.0
 40
2.8571155294
  0
CIRCLE
  5
70A
100
AcDbEntity
  8
IMPORT_IGES
100
AcDbCircle
 62
7
  6
CONTINUOUS
 10
-38.6
 20
-62.7733127327
 30
0.0
 40
2.7
  0
CIRCLE
  5
70B
100
AcDbEntity
  8
IMPORT_IGES
100
AcDbCircle
 62
7
  6
CONTINUOUS
 10
-38.6
 20
108.9266872673
 30
0.0
 40
2.7
  0
ARC
  5
70C
100
AcDbEntity
  8
IMPORT_IGES
100
AcDbCircle
 62
7
  6
CONTINUOUS
 10
-34.0
 20
133.9147299241
 30
0.0
 40
1.6738174026
100
AcDbArc
 50
51.482845151
 51
128.517154849
  0
ARC
  5
70D
100
AcDbEntity
  8
IMPORT_IGES
100
AcDbCircle
 62
250
  6
CONTINUOUS
 10
-3.2120467069
 20
-3784.293828962
 30
0.0
 40
3695.5891701023
100
AcDbArc
 50
90.6830737262
 51
90.8826595207
  0
ARC
  5
70E
100
AcDbEntity
  8
IMPORT_IGES
100
AcDbCircle
 62
250
  6
CONTINUOUS
 10
-3.2972778844
 20
-3759.1650906364
 30
0.0
 40
3669.9606689982
100
AcDbArc
 50
90.6245550292
 51
90.8852835847
  0
ARC
  5
70F
100
AcDbEntity
  8
IMPORT_IGES
100
AcDbCircle
 62
7
  6
CONTINUOUS
 10
-0.5387780467
 20
8.857969447
 30
0.0
 40
53.7880961548
100
AcDbArc
 50
277.7346044521
 51
277.8715531851
  0
ARC
  5
710
100
AcDbEntity
  8
IMPORT_IGES
100
AcDbCircle
 62
7
  6
CONTINUOUS
 10
-0.8388446415
 20
-66.6219035007
 30
0.0
 40
21.7051800204
100
AcDbArc
 50
77.5968429025
 51
77.8132215447
  0
ARC
  5
711
100
AcDbEntity
  8
IMPORT_IGES
100
AcDbCircle
 62
7
  6
CONTINUOUS
 10
-0.5387780456
 20
33.2954050956
 30
0.0
 40
53.7880961467
100
AcDbArc
 50
82.1284468149
 51
82.2653955479
  0
ARC
  5
712
100
AcDbEntity
  8
IMPORT_IGES
100
AcDbCircle
 62
7
  6
CONTINUOUS
 10
-0.8388446384
 20
108.775278021
 30
0.0
 40
21.7051800057
100
AcDbArc
 50
282.1867784552
 51
282.4031570976
  0
ARC
  5
713
100
AcDbEntity
  8
IMPORT_IGES
100
AcDbCircle
 62
7
  6
CONTINUOUS
 10
0.5387780467
 20
8.857969447
 30
0.0
 40
53.7880961548
100
AcDbArc
 50
262.1284468149
 51
262.2653955479
  0
ARC
  5
714
100
AcDbEntity
  8
IMPORT_IGES
100
AcDbCircle
 62
7
  6
CONTINUOUS
 10
0.8388446415
 20
-66.6219035007
 30
0.0
 40
21.7051800204
100
AcDbArc
 50
102.1867784553
 51
102.4031570975
  0
ARC
  5
715
100
AcDbEntity
  8
IMPORT_IGES
100
AcDbCircle
 62
7
  6
CONTINUOUS
 10
-0.0
 20
-28.9233127327
 30
0.0
 40
16.9371426149
100
AcDbArc
 50
256.9542916015
 51
268.3083302141
  0
ARC
  5
716
100
AcDbEntity
  8
IMPORT_IGES
100
AcDbCircle
 62
7
  6
CONTINUOUS
 10
-0.0
 20
-28.9233127327
 30
0.0
 40
16.9371426149
100
AcDbArc
 50
271.6916697859
 51
283.0457083985
  0
ARC
  5
717
100
AcDbEntity
  8
IMPORT_IGES
100
AcDbCircle
 62
7
  6
CONTINUOUS
 10
-0.0
 20
-28.9233127327
 30
0.0
 40
16.9371426149
100
AcDbArc
 50
293.7731807016
 51
22.567521644
  0
ARC
  5
718
100
AcDbEntity
  8
IMPORT_IGES
100
AcDbCircle
 62
7
  6
CONTINUOUS
 10
-0.0
 20
-28.9233127327
 30
0.0
 40
16.9371426149
100
AcDbArc
 50
26.2835491166
 51
88.3083302141
  0
ARC
  5
719
100
AcDbEntity
  8
IMPORT_IGES
100
AcDbCircle
 62
7
  6
CONTINUOUS
 10
-0.0
 20
-28.9233127327
 30
0.0
 40
16.9371426149
100
AcDbArc
 50
91.6916697859
 51
153.7164508834
  0
ARC
  5
71A
100
AcDbEntity
  8
IMPORT_IGES
100
AcDbCircle
 62
7
  6
CONTINUOUS
 10
-0.0
 20
-28.9233127327
 30
0.0
 40
16.9371426149
100
AcDbArc
 50
157.432478356
 51
246.2268192984
  0
ARC
  5
71B
100
AcDbEntity
  8
IMPORT_IGES
100
AcDbCircle
 62
7
  6
CONTINUOUS
 10
-0.0
 20
-28.9233127327
 30
0.0
 40
16.9022218454
100
AcDbArc
 50
26.276019442
 51
88.3640289668
  0
ARC
  5
71C
100
AcDbEntity
  8
IMPORT_IGES
100
AcDbCircle
 62
7
  6
CONTINUOUS
 10
-0.0
 20
-28.9233127327
 30
0.0
 40
16.9022218454
100
AcDbArc
 50
293.3541838911
 51
22.6808409194
  0
ARC
  5
71D
100
AcDbEntity
  8
IMPORT_IGES
100
AcDbCircle
 62
7
  6
CONTINUOUS
 10
-0.0
 20
-28.9233127327
 30
0.0
 40
16.9022218454
100
AcDbArc
 50
271.6359710332
 51
282.7945791311
  0
ARC
  5
71E
100
AcDbEntity
  8
IMPORT_IGES
100
AcDbCircle
 62
7
  6
CONTINUOUS
 10
-0.0
 20
-28.9233127327
 30
0.0
 40
16.9022218454
100
AcDbArc
 50
91.6359710332
 51
153.723980558
  0
ARC
  5
71F
100
AcDbEntity
  8
IMPORT_IGES
100
AcDbCircle
 62
7
  6
CONTINUOUS
 10
-0.0
 20
-28.9233127327
 30
0.0
 40
16.9022218454
100
AcDbArc
 50
157.3191590806
 51
246.6458161089
  0
ARC
  5
720
100
AcDbEntity
  8
IMPORT_IGES
100
AcDbCircle
 62
7
  6
CONTINUOUS
 10
-0.0
 20
-28.9233127327
 30
0.0
 40
16.9022218454
100
AcDbArc
 50
257.2054208689
 51
268.3640289668
  0
CIRCLE
  5
721
100
AcDbEntity
  8
IMPORT_IGES
100
AcDbCircle
 62
7
  6
CONTINUOUS
 10
-0.0
 20
-28.9233127327
 30
0.0
 40
15.0174550649
  0
CIRCLE
  5
722
100
AcDbEntity
  8
IMPORT_IGES
100
AcDbCircle
 62
7
  6
CONTINUOUS
 10
-0.0
 20
-28.9233127327
 30
0.0
 40
15.0
  0
ARC
  5
723
100
AcDbEntity
  8
IMPORT_IGES
100
AcDbCircle
 62
7
  6
CONTINUOUS
 10
0.5387780456
 20
33.2954050955
 30
0.0
 40
53.7880961469
100
AcDbArc
 50
97.7346044521
 51
97.8715531851
  0
ARC
  5
724
100
AcDbEntity
  8
IMPORT_IGES
100
AcDbCircle
 62
7
  6
CONTINUOUS
 10
0.8388446384
 20
108.775278021
 30
0.0
 40
21.7051800057
100
AcDbArc
 50
257.5968429024
 51
257.8132215448
  0
ARC
  5
725
100
AcDbEntity
  8
IMPORT_IGES
100
AcDbCircle
 62
7
  6
CONTINUOUS
 10
0.0
 20
71.0766872673
 30
0.0
 40
16.9371426149
100
AcDbArc
 50
206.2835491166
 51
268.3083302141
  0
ARC
  5
726
100
AcDbEntity
  8
IMPORT_IGES
100
AcDbCircle
 62
7
  6
CONTINUOUS
 10
0.0
 20
71.0766872673
 30
0.0
 40
16.9371426149
100
AcDbArc
 50
271.6916697859
 51
333.7164508834
  0
ARC
  5
727
100
AcDbEntity
  8
IMPORT_IGES
100
AcDbCircle
 62
7
  6
CONTINUOUS
 10
0.0
 20
71.0766872673
 30
0.0
 40
16.9371426149
100
AcDbArc
 50
337.432478356
 51
66.2268192984
  0
ARC
  5
728
100
AcDbEntity
  8
IMPORT_IGES
100
AcDbCircle
 62
7
  6
CONTINUOUS
 10
0.0
 20
71.0766872673
 30
0.0
 40
16.9371426149
100
AcDbArc
 50
76.9542916015
 51
88.3083302141
  0
ARC
  5
729
100
AcDbEntity
  8
IMPORT_IGES
100
AcDbCircle
 62
7
  6
CONTINUOUS
 10
0.0
 20
71.0766872673
 30
0.0
 40
16.9371426149
100
AcDbArc
 50
91.6916697859
 51
103.0457083985
  0
ARC
  5
72A
100
AcDbEntity
  8
IMPORT_IGES
100
AcDbCircle
 62
7
  6
CONTINUOUS
 10
0.0
 20
71.0766872673
 30
0.0
 40
16.9371426149
100
AcDbArc
 50
113.7731807016
 51
202.567521644
  0
ARC
  5
72B
100
AcDbEntity
  8
IMPORT_IGES
100
AcDbCircle
 62
7
  6
CONTINUOUS
 10
0.0
 20
71.0766872673
 30
0.0
 40
16.9022218454
100
AcDbArc
 50
77.2054208683
 51
88.3640289668
  0
ARC
  5
72C
100
AcDbEntity
  8
IMPORT_IGES
100
AcDbCircle
 62
7
  6
CONTINUOUS
 10
0.0
 20
71.0766872673
 30
0.0
 40
16.9022218454
100
AcDbArc
 50
337.3191590806
 51
66.6458161091
  0
ARC
  5
72D
100
AcDbEntity
  8
IMPORT_IGES
100
AcDbCircle
 62
7
  6
CONTINUOUS
 10
0.0
 20
71.0766872673
 30
0.0
 40
16.9022218454
100
AcDbArc
 50
271.6359710332
 51
333.723980558
  0
ARC
  5
72E
100
AcDbEntity
  8
IMPORT_IGES
100
AcDbCircle
 62
7
  6
CONTINUOUS
 10
0.0
 20
71.0766872673
 30
0.0
 40
16.9022218454
100
AcDbArc
 50
91.6359710332
 51
102.7945791317
  0
ARC
  5
72F
100
AcDbEntity
  8
IMPORT_IGES
100
AcDbCircle
 62
7
  6
CONTINUOUS
 10
0.0
 20
71.0766872673
 30
0.0
 40
16.9022218454
100
AcDbArc
 50
113.3541838909
 51
202.6808409194
  0
ARC
  5
730
100
AcDbEntity
  8
IMPORT_IGES
100
AcDbCircle
 62
7
  6
CONTINUOUS
 10
0.0
 20
71.0766872673
 30
0.0
 40
16.9022218454
100
AcDbArc
 50
206.276019442
 51
268.3640289668
  0
CIRCLE
  5
731
100
AcDbEntity
  8
IMPORT_IGES
100
AcDbCircle
 62
7
  6
CONTINUOUS
 10
0.0
 20
71.0766872673
 30
0.0
 40
15.0174550649
  0
CIRCLE
  5
732
100
AcDbEntity
  8
IMPORT_IGES
100
AcDbCircle
 62
7
  6
CONTINUOUS
 10
0.0
 20
71.0766872673
 30
0.0
 40
15.0
  0
ARC
  5
733
100
AcDbEntity
  8
IMPORT_IGES
100
AcDbCircle
 62
250
  6
CONTINUOUS
 10
-0.0000010459
 20
4155.4975923095
 30
0.0
 40
4020.1559822699
100
AcDbArc
 50
269.5238196242
 51
270.4761804131
  0
ARC
  5
734
100
AcDbEntity
  8
IMPORT_IGES
100
AcDbCircle
 62
250
  6
CONTINUOUS
 10
-3.6409908171
 20
3782.6322491341
 30
0.0
 40
3647.2718476448
100
AcDbArc
 50
269.1146089396
 51
269.2559933644
  0
ARC
  5
735
100
AcDbEntity
  8
IMPORT_IGES
100
AcDbCircle
 62
250
  6
CONTINUOUS
 10
2.8007552971
 20
-3796.8489215798
 30
0.0
 40
3707.647674315
100
AcDbArc
 50
89.1160418627
 51
89.374118971
  0
ARC
  5
736
100
AcDbEntity
  8
IMPORT_IGES
100
AcDbCircle
 62
250
  6
CONTINUOUS
 10
3.6208046499
 20
-3754.3823068386
 30
0.0
 40
3665.6749008398
100
AcDbArc
 50
89.1165266266
 51
89.3177416874
  0
ARC
  5
737
100
AcDbEntity
  8
IMPORT_IGES
100
AcDbCircle
 62
7
  6
CONTINUOUS
 10
43.25
 20
-71.4233127327
 30
0.0
 40
18.0
100
AcDbArc
 50
270.0
 51
360.0
  0
ARC
  5
738
100
AcDbEntity
  8
IMPORT_IGES
100
AcDbCircle
 62
7
  6
CONTINUOUS
 10
43.2537430842
 20
113.5804303515
 30
0.0
 40
17.9942207805
100
AcDbArc
 50
359.9968104899
 51
90.0031895101
  0
ARC
  5
739
100
AcDbEntity
  8
IMPORT_IGES
100
AcDbCircle
 62
7
  6
CONTINUOUS
 10
43.25
 20
-71.4233127327
 30
0.0
 40
17.9650898701
100
AcDbArc
 50
270.0000000029
 51
360.0
  0
ARC
  5
73A
100
AcDbEntity
  8
IMPORT_IGES
100
AcDbCircle
 62
7
  6
CONTINUOUS
 10
43.2537430844
 20
113.5804303517
 30
0.0
 40
17.959330708
100
AcDbArc
 50
359.99680429
 51
90.00319571
  0
ARC
  5
73B
100
AcDbEntity
  8
IMPORT_IGES
100
AcDbCircle
 62
7
  6
CONTINUOUS
 10
43.25
 20
-71.4233127327
 30
0.0
 40
14.8254493507
100
AcDbArc
 50
270.0000000017
 51
360.0
  0
ARC
  5
73C
100
AcDbEntity
  8
IMPORT_IGES
100
AcDbCircle
 62
7
  6
CONTINUOUS
 10
43.2537430715
 20
113.5804303388
 30
0.0
 40
14.8200924403
100
AcDbArc
 50
359.996127099
 51
90.003872901
  0
ARC
  5
73D
100
AcDbEntity
  8
IMPORT_IGES
100
AcDbCircle
 62
250
  6
CONTINUOUS
 10
43.25
 20
-71.4233127327
 30
0.0
 40
14.5106489162
100
AcDbArc
 50
269.9999999915
 51
360.0
  0
ARC
  5
73E
100
AcDbEntity
  8
IMPORT_IGES
100
AcDbCircle
 62
7
  6
CONTINUOUS
 10
43.2500398238
 20
113.5767501864
 30
0.0
 40
14.5099853398
100
AcDbArc
 50
0.0105767363
 51
89.9893320376
  0
ARC
  5
73F
100
AcDbEntity
  8
IMPORT_IGES
100
AcDbCircle
 62
250
  6
CONTINUOUS
 10
43.25
 20
-71.4233127327
 30
0.0
 40
12.5109535259
100
AcDbArc
 50
270.0000000019
 51
360.0
  0
ARC
  5
740
100
AcDbEntity
  8
IMPORT_IGES
100
AcDbCircle
 62
250
  6
CONTINUOUS
 10
43.250028279
 20
113.5767381887
 30
0.0
 40
12.5103755277
100
AcDbArc
 50
0.0123210773
 51
89.9875752112
  0
ARC
  5
741
100
AcDbEntity
  8
IMPORT_IGES
100
AcDbCircle
 62
7
  6
CONTINUOUS
 10
55.6201263734
 20
127.0300407389
 30
0.0
 40
7.9845233213
100
AcDbArc
 50
359.9688056918
 51
90.0311943081
  0
ARC
  5
742
100
AcDbEntity
  8
IMPORT_IGES
100
AcDbCircle
 62
7
  6
CONTINUOUS
 10
56.5184076369
 20
-81.5417203696
 30
0.0
 40
7.0862577652
100
AcDbArc
 50
269.9687733153
 51
0.0312266846
  0
ARC
  5
743
100
AcDbEntity
  8
IMPORT_IGES
100
AcDbCircle
 62
7
  6
CONTINUOUS
 10
56.5184223431
 20
-81.5417350758
 30
0.0
 40
7.0320522397
100
AcDbArc
 50
269.96841623
 51
0.0315837702
  0
ARC
  5
744
100
AcDbEntity
  8
IMPORT_IGES
100
AcDbCircle
 62
7
  6
CONTINUOUS
 10
55.6197759039
 20
127.0296902694
 30
0.0
 40
6.6384030594
100
AcDbArc
 50
359.9655089035
 51
90.0344910965
  0
ARC
  5
745
100
AcDbEntity
  8
IMPORT_IGES
100
AcDbCircle
 62
7
  6
CONTINUOUS
 10
55.6197758795
 20
127.0296902451
 30
0.0
 40
6.5860306947
100
AcDbArc
 50
359.9652349116
 51
90.0347650885
  0
ARC
  5
746
100
AcDbEntity
  8
IMPORT_IGES
100
AcDbCircle
 62
7
  6
CONTINUOUS
 10
60.0
 20
-85.4233127327
 30
0.0
 40
6.5
100
AcDbArc
 50
270.0
 51
360.0
  0
ARC
  5
747
100
AcDbEntity
  8
IMPORT_IGES
100
AcDbCircle
 62
7
  6
CONTINUOUS
 10
61.9505179392
 20
7.0943334158
 30
0.0
 40
6.1628437729
100
AcDbArc
 50
165.914701598
 51
166.0394895334
  0
ARC
  5
748
100
AcDbEntity
  8
RACCORDO
100
AcDbCircle
 62
7
  6
CONTINUOUS
 10
55.65
 20
127.0112555099
 30
0.0
 40
6.0
100
AcDbArc
 50
0.0
 51
90.0
  0
ARC
  5
749
100
AcDbEntity
  8
IMPORT_IGES
100
AcDbCircle
 62
7
  6
CONTINUOUS
 10
56.518421691
 20
-81.5417344236
 30
0.0
 40
5.740248055
100
AcDbArc
 50
269.9613154876
 51
0.0386845123
  0
ARC
  5
74A
100
AcDbEntity
  8
IMPORT_IGES
100
AcDbCircle
 62
7
  6
CONTINUOUS
 10
56.5184216591
 20
-81.5417343918
 30
0.0
 40
5.6878809982
100
AcDbArc
 50
269.960959678
 51
0.0390403222
  0
ARC
  5
74B
100
AcDbEntity
  8
IMPORT_IGES
100
AcDbCircle
 62
7
  6
CONTINUOUS
 10
60.0
 20
-85.4233127327
 30
0.0
 40
4.5
100
AcDbArc
 50
270.0
 51
360.0
  0
ARC
  5
74C
100
AcDbEntity
  8
IMPORT_IGES
100
AcDbCircle
 62
250
  6
CONTINUOUS
 10
60.0589066466
 20
131.5752385801
 30
0.0
 40
4.2208970168
100
AcDbArc
 50
0.0196656371
 51
90.7996166525
  0
ARC
  5
74D
100
AcDbEntity
  8
IMPORT_IGES
100
AcDbCircle
 62
250
  6
CONTINUOUS
 10
60.058912803
 20
-85.4218677022
 30
0.0
 40
4.2208908557
100
AcDbArc
 50
269.2002996317
 51
359.9803839737
  0
CIRCLE
  5
74E
100
AcDbEntity
  8
IMPORT_IGES
100
AcDbCircle
 62
7
  6
CONTINUOUS
 10
38.6
 20
-62.7733127327
 30
0.0
 40
2.8571155294
  0
CIRCLE
  5
74F
100
AcDbEntity
  8
IMPORT_IGES
100
AcDbCircle
 62
7
  6
CONTINUOUS
 10
38.6
 20
108.9266872673
 30
0.0
 40
2.8571155294
  0
CIRCLE
  5
750
100
AcDbEntity
  8
IMPORT_IGES
100
AcDbCircle
 62
7
  6
CONTINUOUS
 10
38.6
 20
-62.7733127327
 30
0.0
 40
2.7
  0
CIRCLE
  5
751
100
AcDbEntity
  8
IMPORT_IGES
100
AcDbCircle
 62
7
  6
CONTINUOUS
 10
38.6
 20
108.9266872673
 30
0.0
 40
2.7
  0
ARC
  5
752
100
AcDbEntity
  8
IMPORT_IGES
100
AcDbCircle
 62
7
  6
CONTINUOUS
 10
34.0
 20
133.9147299241
 30
0.0
 40
1.6738174026
100
AcDbArc
 50
51.482845151
 51
128.517154849
  0
ARC
  5
753
100
AcDbEntity
  8
IMPORT_IGES
100
AcDbCircle
 62
250
  6
CONTINUOUS
 10
3.9470456761
 20
3761.1095018647
 30
0.0
 40
3625.7469408764
100
AcDbArc
 50
270.7435869882
 51
270.8858107606
  0
SPLINE
  5
754
100
AcDbEntity
  8
IMPORT_IGES
100
AcDbSpline
 62
7
  6
CONTINUOUS
 70
0
 71
3
 72
33
 73
29
 74
0
 42
0.0000001
 43
0.0000001
 44
0.0000000001
 40
0.0
 40
0.0
 40
0.0
 40
0.0
 40
0.0022227242
 40
0.0055127387
 40
0.0153583519
 40
0.029432933
 40
0.0475480988
 40
0.069554728
 40
0.095342389
 40
0.1247678906
 40
0.1575933024
 40
0.2321269132
 40
0.3161767705
 40
0.4067938886
 40
0.5007508744
 40
0.5946806326
 40
0.6852270563
 40
0.7691550218
 40
0.8434807816
 40
0.8762063213
 40
0.9055597348
 40
0.9312866475
 40
0.9531937531
 40
0.9711393268
 40
0.984981611
 40
0.9945944154
 40
0.9978056475
 40
1.0
 40
1.0
 40
1.0
 40
1.0
 10
26.653704002
 20
-89.6570816983
 30
0.0
 10
26.6572158413
 20
-89.660605443
 30
0.0
 10
26.6681399346
 20
-89.6668935818
 30
0.0
 10
26.7002348786
 20
-89.6790083279
 30
0.0
 10
26.7599248566
 20
-89.6924830982
 30
0.0
 10
26.8526830113
 20
-89.707728821
 30
0.0
 10
26.9731383393
 20
-89.7225878587
 30
0.0
 10
27.1199421878
 20
-89.7370282057
 30
0.0
 10
27.292245224
 20
-89.7507351322
 30
0.0
 10
27.4888793279
 20
-89.7635590952
 30
0.0
 10
27.7945959373
 20
-89.7799916092
 30
0.0
 10
28.2226943769
 20
-89.7969110469
 30
0.0
 10
28.7802770096
 20
-89.8115364562
 30
0.0
 10
29.3814576924
 20
-89.8205161288
 30
0.0
 10
30.0048097084
 20
-89.8235162793
 30
0.0
 10
30.6280029865
 20
-89.8204150195
 30
0.0
 10
31.2286903322
 20
-89.8113554819
 30
0.0
 10
31.7853749905
 20
-89.7966670626
 30
0.0
 10
32.2125072947
 20
-89.7796463491
 30
0.0
 10
32.5173695354
 20
-89.7631590596
 30
0.0
 10
32.7134804557
 20
-89.7503168423
 30
0.0
 10
32.8852620208
 20
-89.7366153352
 30
0.0
 10
33.0313254038
 20
-89.7221780097
 30
0.0
 10
33.1506477422
 20
-89.7073115059
 30
0.0
 10
33.2419729811
 20
-89.6920518964
 30
0.0
 10
33.3003874919
 20
-89.6785056912
 30
0.0
 10
33.3316772954
 20
-89.6663452833
 30
0.0
 10
33.3422845387
 20
-89.6600390324
 30
0.0
 10
33.3457526992
 20
-89.6565614102
 30
0.0
  0
SPLINE
  5
755
100
AcDbEntity
  8
IMPORT_IGES
100
AcDbSpline
 62
7
  6
CONTINUOUS
 70
0
 71
3
 72
33
 73
29
 74
0
 42
0.0000001
 43
0.0000001
 44
0.0000000001
 40
0.0
 40
0.0
 40
0.0
 40
0.0
 40
0.0022227242
 40
0.0055127387
 40
0.0153583519
 40
0.029432933
 40
0.0475480988
 40
0.069554728
 40
0.095342389
 40
0.1247678906
 40
0.1575933024
 40
0.2321269132
 40
0.3161767704
 40
0.4067938886
 40
0.5007508744
 40
0.5946806326
 40
0.6852270563
 40
0.7691550218
 40
0.8434807816
 40
0.8762063213
 40
0.9055597348
 40
0.9312866474
 40
0.953193753
 40
0.9711393267
 40
0.984981611
 40
0.9945944154
 40
0.9978056474
 40
1.0
 40
1.0
 40
1.0
 40
1.0
 10
-33.346295998
 20
-89.6570816983
 30
0.0
 10
-33.3427841587
 20
-89.660605443
 30
0.0
 10
-33.3318600654
 20
-89.6668935818
 30
0.0
 10
-33.2997651214
 20
-89.6790083279
 30
0.0
 10
-33.2400751434
 20
-89.6924830982
 30
0.0
 10
-33.1473169887
 20
-89.707728821
 30
0.0
 10
-33.0268616607
 20
-89.7225878587
 30
0.0
 10
-32.8800578122
 20
-89.7370282057
 30
0.0
 10
-32.707754776
 20
-89.7507351322
 30
0.0
 10
-32.5111206721
 20
-89.7635590952
 30
0.0
 10
-32.2054040627
 20
-89.7799916092
 30
0.0
 10
-31.7773056231
 20
-89.7969110469
 30
0.0
 10
-31.2197229904
 20
-89.8115364562
 30
0.0
 10
-30.6185423076
 20
-89.8205161288
 30
0.0
 10
-29.9951902916
 20
-89.8235162793
 30
0.0
 10
-29.3719970135
 20
-89.8204150195
 30
0.0
 10
-28.7713096678
 20
-89.8113554819
 30
0.0
 10
-28.2146250095
 20
-89.7966670626
 30
0.0
 10
-27.7874927053
 20
-89.7796463491
 30
0.0
 10
-27.4826304646
 20
-89.7631590596
 30
0.0
 10
-27.2865195443
 20
-89.7503168423
 30
0.0
 10
-27.1147379792
 20
-89.7366153352
 30
0.0
 10
-26.9686745962
 20
-89.7221780097
 30
0.0
 10
-26.8493522578
 20
-89.7073115059
 30
0.0
 10
-26.758027019
 20
-89.6920518964
 30
0.0
 10
-26.6996125081
 20
-89.6785056912
 30
0.0
 10
-26.6683227045
 20
-89.6663452833
 30
0.0
 10
-26.657715461
 20
-89.6600390324
 30
0.0
 10
-26.6542473005
 20
-89.6565614103
 30
0.0
  0
SPLINE
  5
756
100
AcDbEntity
  8
IMPORT_IGES
100
AcDbSpline
 62
7
  6
CONTINUOUS
 70
0
 71
3
 72
18
 73
14
 74
0
 42
0.0000001
 43
0.0000001
 44
0.0000000001
 40
0.0
 40
0.0
 40
0.0
 40
0.0
 40
0.192634688
 40
0.3781847481
 40
0.5496148167
 40
0.7004460942
 40
0.8249758024
 40
0.8758619696
 40
0.9185058318
 40
0.9524950846
 40
0.977529116
 40
0.9933784158
 40
1.0
 40
1.0
 40
1.0
 40
1.0
 10
64.4985715561
 20
-81.4233094071
 30
0.0
 10
64.4663000973
 20
-81.423306696
 30
0.0
 10
64.402943887
 20
-81.4234120826
 30
0.0
 10
64.3108701245
 20
-81.4238765394
 30
0.0
 10
64.2257998913
 20
-81.4246336935
 30
0.0
 10
64.1509612691
 20
-81.4256591218
 30
0.0
 10
64.0963060096
 20
-81.4267294063
 30
0.0
 10
64.0598053148
 20
-81.4277629315
 30
0.0
 10
64.0384193727
 20
-81.4284639673
 30
0.0
 10
64.0214997274
 20
-81.4293410588
 30
0.0
 10
64.0087533827
 20
-81.4298452565
 30
0.0
 10
64.001255146
 20
-81.4310793217
 30
0.0
 10
63.9970247307
 20
-81.4311035606
 30
0.0
 10
63.9962403425
 20
-81.4318879487
 30
0.0
  0
SPLINE
  5
757
100
AcDbEntity
  8
IMPORT_IGES
100
AcDbSpline
 62
7
  6
CONTINUOUS
 70
0
 71
3
 72
18
 73
14
 74
0
 42
0.0000001
 43
0.0000001
 44
0.0000000001
 40
0.0
 40
0.0
 40
0.0
 40
0.0
 40
0.006621453
 40
0.0224705444
 40
0.0475041988
 40
0.0814930945
 40
0.1241364802
 40
0.1750222669
 40
0.2995512668
 40
0.4503823084
 40
0.6218125613
 40
0.8073638812
 40
1.0
 40
1.0
 40
1.0
 40
1.0
 10
63.9962403425
 20
-80.2147375166
 30
0.0
 10
63.9970247151
 20
-80.2155218892
 30
0.0
 10
64.0012550585
 20
-80.2155461565
 30
0.0
 10
64.0087531873
 20
-80.2167801826
 30
0.0
 10
64.0214993681
 20
-80.2172843915
 30
0.0
 10
64.0384188129
 20
-80.2181614718
 30
0.0
 10
64.0598045506
 20
-80.218862513
 30
0.0
 10
64.0963049836
 20
-80.2198960328
 30
0.0
 10
64.1509600211
 20
-80.2209663221
 30
0.0
 10
64.2257985161
 20
-80.2219917602
 30
0.0
 10
64.310868952
 20
-80.2227489091
 30
0.0
 10
64.4029431963
 20
-80.2232133965
 30
0.0
 10
64.4662998575
 20
-80.2233187694
 30
0.0
 10
64.4985715561
 20
-80.2233160582
 30
0.0
  0
SPLINE
  5
758
100
AcDbEntity
  8
IMPORT_IGES
100
AcDbSpline
 62
250
  6
CONTINUOUS
 70
0
 71
3
 72
16
 73
12
 74
0
 42
0.0000001
 43
0.0000001
 44
0.0000000001
 40
0.0
 40
0.0
 40
0.0
 40
0.0
 40
0.1277736047
 40
0.2550286605
 40
0.381411215
 40
0.5067389284
 40
0.6310036266
 40
0.6928703047
 40
0.7545531775
 40
0.8773827026
 40
1.0
 40
1.0
 40
1.0
 40
1.0
 10
-63.9307632745
 20
131.5766872673
 30
0.0
 10
-63.9307503251
 20
131.828046317
 30
0.0
 10
-63.8793614654
 20
132.3312087535
 30
0.0
 10
-63.6529122905
 20
133.0517278183
 30
0.0
 10
-63.2881424858
 20
133.7077443493
 30
0.0
 10
-62.8049439032
 20
134.2740990008
 30
0.0
 10
-62.3190856501
 20
134.6543489354
 30
0.0
 10
-61.8956156844
 20
134.8971699127
 30
0.0
 10
-61.4526561731
 20
135.0956665878
 30
0.0
 10
-60.8673888848
 20
135.2608746967
 30
0.0
 10
-60.3826557348
 20
135.3002510421
 30
0.0
 10
-60.1414686471
 20
135.2965522043
 30
0.0
  0
SPLINE
  5
759
100
AcDbEntity
  8
IMPORT_IGES
100
AcDbSpline
 62
7
  6
CONTINUOUS
 70
0
 71
3
 72
9
 73
5
 74
0
 42
0.0000001
 43
0.0000001
 44
0.0000000001
 40
0.0
 40
0.0
 40
0.0
 40
0.0
 40
0.2495150438
 40
1.0
 40
1.0
 40
1.0
 40
1.0
 10
-60.1414686471
 20
135.2965522043
 30
0.0
 10
-59.8397783069
 20
135.2918950748
 30
0.0
 10
-58.630669112
 20
135.2733847434
 30
0.0
 10
-57.4215505007
 20
135.2554896663
 30
0.0
 10
-56.5141203103
 20
135.2424006137
 30
0.0
  0
LINE
  5
75A
100
AcDbEntity
  8
IMPORT_IGES
100
AcDbLine
 62
7
  6
CONTINUOUS
 10
-56.5141203103
 20
135.2424006137
 30
0.0
 11
-55.8265847947
 21
135.2325485633
 31
0.0
  0
LINE
  5
75B
100
AcDbEntity
  8
IMPORT_IGES
100
AcDbLine
 62
7
  6
CONTINUOUS
 10
-55.8265847947
 20
135.2325485633
 30
0.0
 11
-55.2351277434
 21
135.2241773123
 31
0.0
  0
LINE
  5
75C
100
AcDbEntity
  8
IMPORT_IGES
100
AcDbLine
 62
7
  6
CONTINUOUS
 10
55.2351103268
 20
135.2241772347
 30
0.0
 11
55.8265849255
 21
135.232548753
 31
0.0
  0
LINE
  5
75D
100
AcDbEntity
  8
IMPORT_IGES
100
AcDbLine
 62
7
  6
CONTINUOUS
 10
55.8265849255
 20
135.232548753
 30
0.0
 11
56.5141202445
 21
135.242400815
 31
0.0
  0
SPLINE
  5
75E
100
AcDbEntity
  8
IMPORT_IGES
100
AcDbSpline
 62
7
  6
CONTINUOUS
 70
0
 71
3
 72
9
 73
5
 74
0
 42
0.0000001
 43
0.0000001
 44
0.0000000001
 40
0.0
 40
0.0
 40
0.0
 40
0.0
 40
0.250479131
 40
1.0
 40
1.0
 40
1.0
 40
1.0
 10
56.5141202445
 20
135.242400815
 30
0.0
 10
56.8169812284
 20
135.2467693788
 30
0.0
 10
58.0261056518
 20
135.2643618336
 30
0.0
 10
59.2352212245
 20
135.2825627833
 30
0.0
 10
60.1414731616
 20
135.29655227
 30
0.0
  0
SPLINE
  5
75F
100
AcDbEntity
  8
IMPORT_IGES
100
AcDbSpline
 62
250
  6
CONTINUOUS
 70
0
 71
3
 72
17
 73
13
 74
0
 42
0.0000001
 43
0.0000001
 44
0.0000000001
 40
0.0
 40
0.0
 40
0.0
 40
0.0
 40
0.0613668237
 40
0.1227416275
 40
0.1841693555
 40
0.2456943052
 40
0.3690704348
 40
0.4933359165
 40
0.6186382814
 40
0.745013059
 40
0.8722591453
 40
1.0
 40
1.0
 40
1.0
 40
1.0
 10
60.1414731616
 20
135.29655227
 30
0.0
 10
60.2622089094
 20
135.2972648344
 30
0.0
 10
60.5039177386
 20
135.2894983139
 30
0.0
 10
60.8639617779
 20
135.2438942065
 30
0.0
 10
61.2179562716
 20
135.1621959805
 30
0.0
 10
61.6778545089
 20
135.0074088583
 30
0.0
 10
62.2242183104
 20
134.7305607343
 30
0.0
 10
62.8043453959
 20
134.2736421698
 30
0.0
 10
63.2879614351
 20
133.7076421159
 30
0.0
 10
63.6529278241
 20
133.0516904022
 30
0.0
 10
63.8794425774
 20
132.3311577344
 30
0.0
 10
63.930586527
 20
131.8280144744
 30
0.0
 10
63.9307632745
 20
131.5766872674
 30
0.0
  0
SPLINE
  5
760
100
AcDbEntity
  8
IMPORT_IGES
100
AcDbSpline
 62
250
  6
CONTINUOUS
 70
0
 71
3
 72
16
 73
12
 74
0
 42
0.0000001
 43
0.0000001
 44
0.0000000001
 40
0.0
 40
0.0
 40
0.0
 40
0.0
 40
0.1277735836
 40
0.255028629
 40
0.3814111998
 40
0.5067389471
 40
0.6310036522
 40
0.6928703391
 40
0.7545532183
 40
0.8773827443
 40
1.0
 40
1.0
 40
1.0
 40
1.0
 10
63.9307632745
 20
-85.4233127327
 30
0.0
 10
63.9307503223
 20
-85.6746700035
 30
0.0
 10
63.8793619584
 20
-86.1778288615
 30
0.0
 10
63.6529162694
 20
-86.8983433461
 30
0.0
 10
63.2881518131
 20
-87.5543571166
 30
0.0
 10
62.8049580038
 20
-88.1207089523
 30
0.0
 10
62.3191066445
 20
-88.5009609205
 30
0.0
 10
61.8956405755
 20
-88.743781975
 30
0.0
 10
61.4526862645
 20
-88.9422820886
 30
0.0
 10
60.8674242777
 20
-89.1074929503
 30
0.0
 10
60.3826947726
 20
-89.146874499
 30
0.0
 10
60.141509434
 20
-89.1431756799
 30
0.0
  0
SPLINE
  5
761
100
AcDbEntity
  8
IMPORT_IGES
100
AcDbSpline
 62
250
  6
CONTINUOUS
 70
0
 71
3
 72
17
 73
13
 74
0
 42
0.0000001
 43
0.0000001
 44
0.0000000001
 40
0.0
 40
0.0
 40
0.0
 40
0.0
 40
0.0613668055
 40
0.1227416126
 40
0.1841693342
 40
0.2456942862
 40
0.3690704387
 40
0.4933359252
 40
0.618638292
 40
0.7450130875
 40
0.8722591608
 40
1.0
 40
1.0
 40
1.0
 40
1.0
 10
-60.141509434
 20
-89.1431756799
 30
0.0
 10
-60.2622443998
 20
-89.1438892268
 30
0.0
 10
-60.5039518179
 20
-89.1361215672
 30
0.0
 10
-60.8639930677
 20
-89.0905136607
 30
0.0
 10
-61.2179847504
 20
-89.0088133338
 30
0.0
 10
-61.6778791844
 20
-88.8540241289
 30
0.0
 10
-62.2242377537
 20
-88.5771736125
 30
0.0
 10
-62.8043574774
 20
-88.1202533993
 30
0.0
 10
-63.2879705638
 20
-87.5542567746
 30
0.0
 10
-63.6529307835
 20
-86.8983068136
 30
0.0
 10
-63.8794435868
 20
-86.1777785426
 30
0.0
 10
-63.9305859789
 20
-85.6746383679
 30
0.0
 10
-63.9307632745
 20
-85.4233127327
 30
0.0
  0
SPLINE
  5
762
100
AcDbEntity
  8
IMPORT_IGES
100
AcDbSpline
 62
7
  6
CONTINUOUS
 70
0
 71
3
 72
14
 73
10
 74
0
 42
0.0000001
 43
0.0000001
 44
0.0000000001
 40
0.0
 40
0.0
 40
0.0
 40
0.0
 40
0.3880756967
 40
0.5555026156
 40
0.7004185177
 40
0.8206939485
 40
0.9126917942
 40
0.972762121
 40
1.0
 40
1.0
 40
1.0
 40
1.0
 10
-63.9253297131
 20
-81.5045980609
 30
0.0
 10
-63.9711879439
 20
-81.504355524
 30
0.0
 10
-64.0368324521
 20
-81.5038560366
 30
0.0
 10
-64.1195882463
 20
-81.5026924242
 30
0.0
 10
-64.1707130561
 20
-81.501758223
 30
0.0
 10
-64.2128775908
 20
-81.5006126848
 30
0.0
 10
-64.2451202326
 20
-81.4997090386
 30
0.0
 10
-64.2661251546
 20
-81.4981623732
 30
0.0
 10
-64.2765989436
 20
-81.4977192425
 30
0.0
 10
-64.2796527166
 20
-81.4967021453
 30
0.0
  0
SPLINE
  5
763
100
AcDbEntity
  8
IMPORT_IGES
100
AcDbSpline
 62
7
  6
CONTINUOUS
 70
0
 71
3
 72
18
 73
14
 74
0
 42
0.0000001
 43
0.0000001
 44
0.0000000001
 40
0.0
 40
0.0
 40
0.0
 40
0.0
 40
0.192634688
 40
0.3781847481
 40
0.5496148167
 40
0.7004460942
 40
0.8249758024
 40
0.8758619696
 40
0.9185058318
 40
0.9524950846
 40
0.977529116
 40
0.9933784158
 40
1.0
 40
1.0
 40
1.0
 40
1.0
 10
-64.4985715561
 20
-80.2233160582
 30
0.0
 10
-64.4663000973
 20
-80.2233187694
 30
0.0
 10
-64.402943887
 20
-80.2232133828
 30
0.0
 10
-64.3108701245
 20
-80.2227489259
 30
0.0
 10
-64.2257998913
 20
-80.2219917718
 30
0.0
 10
-64.1509612691
 20
-80.2209663435
 30
0.0
 10
-64.0963060096
 20
-80.219896059
 30
0.0
 10
-64.0598053148
 20
-80.2188625338
 30
0.0
 10
-64.0384193727
 20
-80.218161498
 30
0.0
 10
-64.0214997274
 20
-80.2172844066
 30
0.0
 10
-64.0087533827
 20
-80.2167802088
 30
0.0
 10
-64.001255146
 20
-80.2155461436
 30
0.0
 10
-63.9970247307
 20
-80.2155219048
 30
0.0
 10
-63.9962403426
 20
-80.2147375166
 30
0.0
  0
SPLINE
  5
764
100
AcDbEntity
  8
IMPORT_IGES
100
AcDbSpline
 62
7
  6
CONTINUOUS
 70
0
 71
3
 72
18
 73
14
 74
0
 42
0.0000001
 43
0.0000001
 44
0.0000000001
 40
0.0
 40
0.0
 40
0.0
 40
0.0
 40
0.006621453
 40
0.0224705444
 40
0.0475041988
 40
0.0814930945
 40
0.1241364802
 40
0.1750222669
 40
0.2995512668
 40
0.4503823084
 40
0.6218125613
 40
0.8073638812
 40
1.0
 40
1.0
 40
1.0
 40
1.0
 10
-63.9962403426
 20
-81.4318879487
 30
0.0
 10
-63.9970247151
 20
-81.4311035761
 30
0.0
 10
-64.0012550586
 20
-81.4310793088
 30
0.0
 10
-64.0087531873
 20
-81.4298452827
 30
0.0
 10
-64.0214993681
 20
-81.4293410738
 30
0.0
 10
-64.0384188129
 20
-81.4284639935
 30
0.0
 10
-64.0598045506
 20
-81.4277629524
 30
0.0
 10
-64.0963049836
 20
-81.4267294325
 30
0.0
 10
-64.1509600211
 20
-81.4256591432
 30
0.0
 10
-64.2257985161
 20
-81.4246337051
 30
0.0
 10
-64.310868952
 20
-81.4238765563
 30
0.0
 10
-64.4029431963
 20
-81.4234120689
 30
0.0
 10
-64.4662998575
 20
-81.423306696
 30
0.0
 10
-64.4985715561
 20
-81.4233094071
 30
0.0
  0
SPLINE
  5
765
100
AcDbEntity
  8
IMPORT_IGES
100
AcDbSpline
 62
7
  6
CONTINUOUS
 70
0
 71
3
 72
9
 73
5
 74
0
 42
0.0000001
 43
0.0000001
 44
0.0000000001
 40
0.0
 40
0.0
 40
0.0
 40
0.0
 40
0.2960265951
 40
1.0
 40
1.0
 40
1.0
 40
1.0
 10
-26.6542473005
 20
-89.6565614103
 30
0.0
 10
-26.6534999253
 20
-89.655811996
 30
0.0
 10
-26.651128654
 20
-89.6531739088
 30
0.0
 10
-26.6497015872
 20
-89.649422053
 30
0.0
 10
-26.6499999977
 20
-89.6469228726
 30
0.0
  0
SPLINE
  5
766
100
AcDbEntity
  8
IMPORT_IGES
100
AcDbSpline
 62
250
  6
CONTINUOUS
 70
0
 71
3
 72
13
 73
9
 74
0
 42
0.0000001
 43
0.0000001
 44
0.0000000001
 40
0.0
 40
0.0
 40
0.0
 40
0.0
 40
0.3346472568
 40
0.4990842015
 40
0.6492441905
 40
0.776684585
 40
0.8772536413
 40
1.0
 40
1.0
 40
1.0
 40
1.0
 10
-60.141480225
 20
-89.1451495179
 30
0.0
 10
-60.140564054
 20
-89.2047584389
 30
0.0
 10
-60.1349321649
 20
-89.2936994917
 30
0.0
 10
-60.1171767745
 20
-89.4081185993
 30
0.0
 10
-60.0997796499
 20
-89.4848323808
 30
0.0
 10
-60.0780129702
 20
-89.5493167931
 30
0.0
 10
-60.0515460039
 20
-89.6042728175
 30
0.0
 10
-60.0215320477
 20
-89.6386764987
 30
0.0
 10
-60.0000004791
 20
-89.6424903624
 30
0.0
  0
SPLINE
  5
767
100
AcDbEntity
  8
IMPORT_IGES
100
AcDbSpline
 62
7
  6
CONTINUOUS
 70
0
 71
3
 72
14
 73
10
 74
0
 42
0.0000001
 43
0.0000001
 44
0.0000000001
 40
0.0
 40
0.0
 40
0.0
 40
0.0
 40
0.3875467673
 40
0.5556548406
 40
0.7012810503
 40
0.8209695839
 40
0.9119229893
 40
0.9720435794
 40
1.0
 40
1.0
 40
1.0
 40
1.0
 10
-63.9235158798
 20
-80.1420176796
 30
0.0
 10
-63.9695456058
 20
-80.1422577963
 30
0.0
 10
-64.0355435931
 20
-80.1427664267
 30
0.0
 10
-64.1188246519
 20
-80.1439197581
 30
0.0
 10
-64.1703070577
 20
-80.144839813
 30
0.0
 10
-64.2125765721
 20
-80.1459994105
 30
0.0
 10
-64.2447979091
 20
-80.1469000569
 30
0.0
 10
-64.2658706532
 20
-80.148502839
 30
0.0
 10
-64.2765020042
 20
-80.1488739352
 30
0.0
 10
-64.2796523504
 20
-80.1499231973
 30
0.0
  0
SPLINE
  5
768
100
AcDbEntity
  8
IMPORT_IGES
100
AcDbSpline
 62
250
  6
CONTINUOUS
 70
0
 71
3
 72
9
 73
5
 74
0
 42
0.0000001
 43
0.0000001
 44
0.0000000001
 40
0.0
 40
0.0
 40
0.0
 40
0.0
 40
0.2496453924
 40
1.0
 40
1.0
 40
1.0
 40
1.0
 10
39.0009084334
 20
135.531231282
 30
0.0
 10
38.6316615779
 20
135.5276094925
 30
0.0
 10
37.1525740925
 20
135.5133149878
 30
0.0
 10
35.6734783791
 20
135.499872052
 30
0.0
 10
34.5636280632
 20
135.4902606859
 30
0.0
  0
SPLINE
  5
769
100
AcDbEntity
  8
IMPORT_IGES
100
AcDbSpline
 62
250
  6
CONTINUOUS
 70
0
 71
3
 72
9
 73
5
 74
0
 42
0.0000001
 43
0.0000001
 44
0.0000000001
 40
0.0
 40
0.0
 40
0.0
 40
0.0
 40
0.250347483
 40
1.0
 40
1.0
 40
1.0
 40
1.0
 10
-34.5636283366
 20
135.4902606705
 30
0.0
 10
-34.9339175311
 20
135.4934673956
 30
0.0
 10
-36.4130166199
 20
135.5064879914
 30
0.0
 10
-37.8921082553
 20
135.5203555013
 30
0.0
 10
-39.0009082302
 20
135.5312312607
 30
0.0
  0
SPLINE
  5
76A
100
AcDbEntity
  8
IMPORT_IGES
100
AcDbSpline
 62
7
  6
CONTINUOUS
 70
0
 71
3
 72
9
 73
5
 74
0
 42
0.0000001
 43
0.0000001
 44
0.0000000001
 40
0.0
 40
0.0
 40
0.0
 40
0.0
 40
0.2960265928
 40
1.0
 40
1.0
 40
1.0
 40
1.0
 10
33.3457526992
 20
-89.6565614102
 30
0.0
 10
33.3465000744
 20
-89.655811996
 30
0.0
 10
33.3488713457
 20
-89.6531739087
 30
0.0
 10
33.3502984126
 20
-89.6494220531
 30
0.0
 10
33.3500000023
 20
-89.6469228726
 30
0.0
  0
SPLINE
  5
76B
100
AcDbEntity
  8
IMPORT_IGES
100
AcDbSpline
 62
7
  6
CONTINUOUS
 70
0
 71
3
 72
9
 73
5
 74
0
 42
0.0000001
 43
0.0000001
 44
0.0000000001
 40
0.0
 40
0.0
 40
0.0
 40
0.0
 40
0.7011214328
 40
1.0
 40
1.0
 40
1.0
 40
1.0
 10
-33.3500000023
 20
-89.6469229435
 30
0.0
 10
-33.3506926544
 20
-89.6494220297
 30
0.0
 10
-33.3495345798
 20
-89.6535745249
 30
0.0
 10
-33.3470763723
 20
-89.6562986785
 30
0.0
 10
-33.346295998
 20
-89.6570816983
 30
0.0
  0
SPLINE
  5
76C
100
AcDbEntity
  8
IMPORT_IGES
100
AcDbSpline
 62
7
  6
CONTINUOUS
 70
0
 71
3
 72
36
 73
32
 74
0
 42
0.0000001
 43
0.0000001
 44
0.0000000001
 40
0.0
 40
0.0
 40
0.0
 40
0.0
 40
0.0032690545
 40
0.006523873
 40
0.0109521443
 40
0.0165424935
 40
0.0232669407
 40
0.0310989288
 40
0.0400136014
 40
0.0609996715
 40
0.0860942413
 40
0.1151565161
 40
0.1479731311
 40
0.2234597973
 40
0.3095235511
 40
0.4028987742
 40
0.5000184898
 40
0.5971374897
 40
0.6905217368
 40
0.7765868236
 40
0.8520372327
 40
0.884865707
 40
0.9139802118
 40
0.9391234527
 40
0.9601055198
 40
0.9767725447
 40
0.9834393407
 40
0.9889715596
 40
0.9933582377
 40
0.9966050492
 40
1.0
 40
1.0
 40
1.0
 40
1.0
 10
-26.6499999977
 20
-89.6469228726
 30
0.0
 10
-26.6480400479
 20
-89.639851381
 30
0.0
 10
-26.6647602067
 20
-89.627867779
 30
0.0
 10
-26.6857620865
 20
-89.6203258853
 30
0.0
 10
-26.7151639482
 20
-89.6115681207
 30
0.0
 10
-26.7515794143
 20
-89.6035853422
 30
0.0
 10
-26.7961666595
 20
-89.5953518976
 30
0.0
 10
-26.8482026583
 20
-89.5873047882
 30
0.0
 10
-26.9321724457
 20
-89.5760662318
 30
0.0
 10
-27.0549138278
 20
-89.5627923877
 30
0.0
 10
-27.2229715364
 20
-89.5482562743
 30
0.0
 10
-27.4177302866
 20
-89.5346081698
 30
0.0
 10
-27.7255793673
 20
-89.5169982125
 30
0.0
 10
-28.1615252538
 20
-89.4988845766
 30
0.0
 10
-28.7335576118
 20
-89.48320339
 30
0.0
 10
-29.3542894932
 20
-89.473523015
 30
0.0
 10
-29.9999021679
 20
-89.4702533531
 30
0.0
 10
-30.6455350077
 20
-89.4735294982
 30
0.0
 10
-31.2662887042
 20
-89.4831955137
 30
0.0
 10
-31.8382634006
 20
-89.498859075
 30
0.0
 10
-32.2741564589
 20
-89.5170144805
 30
0.0
 10
-32.5820668185
 20
-89.5346206677
 30
0.0
 10
-32.7770836038
 20
-89.5482525256
 30
0.0
 10
-32.9453538358
 20
-89.5627360595
 30
0.0
 10
-33.0855224882
 20
-89.5779470489
 30
0.0
 10
-33.184004389
 20
-89.5917038349
 30
0.0
 10
-33.2478420289
 20
-89.6035471419
 30
0.0
 10
-33.2839312662
 20
-89.6116271303
 30
0.0
 10
-33.312976438
 20
-89.6202025478
 30
0.0
 10
-33.334340126
 20
-89.6283944756
 30
0.0
 10
-33.350903517
 20
-89.6393560147
 30
0.0
 10
-33.3500000023
 20
-89.6469229435
 30
0.0
  0
SPLINE
  5
76D
100
AcDbEntity
  8
IMPORT_IGES
100
AcDbSpline
 62
7
  6
CONTINUOUS
 70
0
 71
3
 72
9
 73
5
 74
0
 42
0.0000001
 43
0.0000001
 44
0.0000000001
 40
0.0
 40
0.0
 40
0.0
 40
0.0
 40
0.7011214328
 40
1.0
 40
1.0
 40
1.0
 40
1.0
 10
26.6499999977
 20
-89.6469229435
 30
0.0
 10
26.6493073456
 20
-89.6494220297
 30
0.0
 10
26.6504654202
 20
-89.6535745249
 30
0.0
 10
26.6529236277
 20
-89.6562986785
 30
0.0
 10
26.653704002
 20
-89.6570816983
 30
0.0
  0
SPLINE
  5
76E
100
AcDbEntity
  8
IMPORT_IGES
100
AcDbSpline
 62
7
  6
CONTINUOUS
 70
0
 71
3
 72
36
 73
32
 74
0
 42
0.0000001
 43
0.0000001
 44
0.0000000001
 40
0.0
 40
0.0
 40
0.0
 40
0.0
 40
0.0032690545
 40
0.006523873
 40
0.0109521443
 40
0.0165424935
 40
0.0232669407
 40
0.0310989288
 40
0.0400136014
 40
0.0609996715
 40
0.0860942413
 40
0.1151565161
 40
0.1479731311
 40
0.2234597973
 40
0.3095235511
 40
0.4028987742
 40
0.5000184898
 40
0.5971374897
 40
0.6905217368
 40
0.7765868236
 40
0.8520372327
 40
0.884865707
 40
0.9139802118
 40
0.9391234527
 40
0.9601055198
 40
0.9767725447
 40
0.9834393407
 40
0.9889715596
 40
0.9933582377
 40
0.9966050492
 40
1.0
 40
1.0
 40
1.0
 40
1.0
 10
33.3500000023
 20
-89.6469228726
 30
0.0
 10
33.3519599521
 20
-89.639851381
 30
0.0
 10
33.3352397933
 20
-89.627867779
 30
0.0
 10
33.3142379135
 20
-89.6203258853
 30
0.0
 10
33.2848360518
 20
-89.6115681207
 30
0.0
 10
33.2484205857
 20
-89.6035853422
 30
0.0
 10
33.2038333405
 20
-89.5953518976
 30
0.0
 10
33.1517973417
 20
-89.5873047882
 30
0.0
 10
33.0678275543
 20
-89.5760662318
 30
0.0
 10
32.9450861722
 20
-89.5627923877
 30
0.0
 10
32.7770284636
 20
-89.5482562743
 30
0.0
 10
32.5822697134
 20
-89.5346081698
 30
0.0
 10
32.2744206327
 20
-89.5169982125
 30
0.0
 10
31.8384747462
 20
-89.4988845766
 30
0.0
 10
31.2664423882
 20
-89.48320339
 30
0.0
 10
30.6457105068
 20
-89.473523015
 30
0.0
 10
30.0000978321
 20
-89.4702533531
 30
0.0
 10
29.3544649923
 20
-89.4735294982
 30
0.0
 10
28.7337112958
 20
-89.4831955137
 30
0.0
 10
28.1617365994
 20
-89.498859075
 30
0.0
 10
27.7258435411
 20
-89.5170144805
 30
0.0
 10
27.4179331815
 20
-89.5346206677
 30
0.0
 10
27.2229163962
 20
-89.5482525256
 30
0.0
 10
27.0546461642
 20
-89.5627360595
 30
0.0
 10
26.9144775118
 20
-89.5779470489
 30
0.0
 10
26.815995611
 20
-89.5917038349
 30
0.0
 10
26.7521579711
 20
-89.6035471419
 30
0.0
 10
26.7160687338
 20
-89.6116271303
 30
0.0
 10
26.687023562
 20
-89.6202025478
 30
0.0
 10
26.665659874
 20
-89.6283944756
 30
0.0
 10
26.649096483
 20
-89.6393560147
 30
0.0
 10
26.6499999977
 20
-89.6469229435
 30
0.0
  0
SPLINE
  5
76F
100
AcDbEntity
  8
IMPORT_IGES
100
AcDbSpline
 62
250
  6
CONTINUOUS
 70
0
 71
3
 72
13
 73
9
 74
0
 42
0.0000001
 43
0.0000001
 44
0.0000000001
 40
0.0
 40
0.0
 40
0.0
 40
0.0
 40
0.3346381608
 40
0.4990716683
 40
0.6492303816
 40
0.7766720386
 40
0.8772447666
 40
1.0
 40
1.0
 40
1.0
 40
1.0
 10
60.1414802249
 20
135.2985240602
 30
0.0
 10
60.1405640914
 20
135.3581305204
 30
0.0
 10
60.13493258
 20
135.4470680779
 30
0.0
 10
60.1171785835
 20
135.5614832367
 30
0.0
 10
60.0997826297
 20
135.638195541
 30
0.0
 10
60.0780175817
 20
135.7026800188
 30
0.0
 10
60.0515511987
 20
135.7576384752
 30
0.0
 10
60.0215405468
 20
135.7920451376
 30
0.0
 10
60.0000084793
 20
135.7958634792
 30
0.0
  0
SPLINE
  5
770
100
AcDbEntity
  8
IMPORT_IGES
100
AcDbSpline
 62
7
  6
CONTINUOUS
 70
0
 71
3
 72
14
 73
10
 74
0
 42
0.0000001
 43
0.0000001
 44
0.0000000001
 40
0.0
 40
0.0
 40
0.0
 40
0.0
 40
0.3875467525
 40
0.5556548193
 40
0.7012810246
 40
0.8209695575
 40
0.9119229655
 40
0.9720435672
 40
1.0
 40
1.0
 40
1.0
 40
1.0
 10
63.9235159381
 20
-81.5046077854
 30
0.0
 10
63.9695456545
 20
-81.5043676687
 30
0.0
 10
64.0355436281
 20
-81.5038590383
 30
0.0
 10
64.1188246698
 20
-81.5027057069
 30
0.0
 10
64.1703070654
 20
-81.5017856522
 30
0.0
 10
64.2125765724
 20
-81.5006260548
 30
0.0
 10
64.2447979056
 20
-81.4997254087
 30
0.0
 10
64.2658706491
 20
-81.4981226262
 30
0.0
 10
64.2765020013
 20
-81.4977515311
 30
0.0
 10
64.2796523483
 20
-81.4967022688
 30
0.0
  0
SPLINE
  5
771
100
AcDbEntity
  8
IMPORT_IGES
100
AcDbSpline
 62
250
  6
CONTINUOUS
 70
0
 71
3
 72
13
 73
9
 74
0
 42
0.0000001
 43
0.0000001
 44
0.0000000001
 40
0.0
 40
0.0
 40
0.0
 40
0.0
 40
0.3342148936
 40
0.4986658033
 40
0.6489491659
 40
0.7765409319
 40
0.8772302774
 40
1.0
 40
1.0
 40
1.0
 40
1.0
 10
60.1415091247
 20
-89.1431756751
 30
0.0
 10
60.1406590981
 20
-89.202927156
 30
0.0
 10
60.1350991881
 20
-89.2921255618
 30
0.0
 10
60.1174058614
 20
-89.4069312911
 30
0.0
 10
60.1000170606
 20
-89.4839945103
 30
0.0
 10
60.0782238074
 20
-89.548812461
 30
0.0
 10
60.0517106324
 20
-89.6040397005
 30
0.0
 10
60.021614188
 20
-89.6386622966
 30
0.0
 10
59.9999993846
 20
-89.6424904896
 30
0.0
  0
SPLINE
  5
772
100
AcDbEntity
  8
IMPORT_IGES
100
AcDbSpline
 62
7
  6
CONTINUOUS
 70
0
 71
3
 72
14
 73
10
 74
0
 42
0.0000001
 43
0.0000001
 44
0.0000000001
 40
0.0
 40
0.0
 40
0.0
 40
0.0
 40
0.3880756965
 40
0.5555026152
 40
0.7004185176
 40
0.8206939484
 40
0.912691794
 40
0.9727621209
 40
1.0
 40
1.0
 40
1.0
 40
1.0
 10
63.9253297094
 20
-80.1420274044
 30
0.0
 10
63.9711879407
 20
-80.1422699413
 30
0.0
 10
64.0368324495
 20
-80.1427694287
 30
0.0
 10
64.1195882445
 20
-80.1439330411
 30
0.0
 10
64.1707130549
 20
-80.1448672423
 30
0.0
 10
64.2128775901
 20
-80.1460127805
 30
0.0
 10
64.2451202322
 20
-80.1469164267
 30
0.0
 10
64.2661251544
 20
-80.1484630922
 30
0.0
 10
64.2765989436
 20
-80.1489062228
 30
0.0
 10
64.2796527165
 20
-80.14992332
 30
0.0
  0
SPLINE
  5
773
100
AcDbEntity
  8
IMPORT_IGES
100
AcDbSpline
 62
250
  6
CONTINUOUS
 70
0
 71
3
 72
13
 73
9
 74
0
 42
0.0000001
 43
0.0000001
 44
0.0000000001
 40
0.0
 40
0.0
 40
0.0
 40
0.0
 40
0.3343669322
 40
0.4988090732
 40
0.649045048
 40
0.7765815535
 40
0.8772297862
 40
1.0
 40
1.0
 40
1.0
 40
1.0
 10
-60.1414984942
 20
135.2972863919
 30
0.0
 10
-60.1406237775
 20
135.3569822444
 30
0.0
 10
-60.1350373906
 20
135.446081124
 30
0.0
 10
-60.1173222641
 20
135.5607385986
 30
0.0
 10
-60.0999315606
 20
135.6376698698
 30
0.0
 10
-60.0781498959
 20
135.7023633605
 30
0.0
 10
-60.0516545638
 20
135.7574919171
 30
0.0
 10
-60.0215923858
 20
135.7920358801
 30
0.0
 10
-60.0000081323
 20
135.7958634739
 30
0.0
  0
SPLINE
  5
774
100
AcDbEntity
  8
IMPORT_IGES
100
AcDbSpline
 62
7
  6
CONTINUOUS
 70
0
 71
3
 72
13
 73
9
 74
0
 42
0.0000001
 43
0.0000001
 44
0.0000000001
 40
0.0
 40
0.0
 40
0.0
 40
0.0
 40
0.1268564889
 40
0.2534797971
 40
0.504719543
 40
0.7533617246
 40
0.8769619431
 40
1.0
 40
1.0
 40
1.0
 40
1.0
 10
63.714817725
 20
-81.6478607609
 30
0.0
 10
63.714817725
 20
-81.9785886002
 30
0.0
 10
63.6692651254
 20
-82.6404264015
 30
0.0
 10
63.4005221456
 20
-83.9318337695
 30
0.0
 10
62.7436243754
 20
-85.4507095096
 30
0.0
 10
61.708928909
 20
-86.7318022509
 30
0.0
 10
60.709281851
 20
-87.554086401
 30
0.0
 10
60.1599740678
 20
-87.8930126112
 30
0.0
 10
59.8761269252
 20
-88.0424314408
 30
0.0
  0
SPLINE
  5
775
100
AcDbEntity
  8
IMPORT_IGES
100
AcDbSpline
 62
7
  6
CONTINUOUS
 70
0
 71
3
 72
10
 73
6
 74
0
 42
0.0000001
 43
0.0000001
 44
0.0000000001
 40
0.0
 40
0.0
 40
0.0
 40
0.0
 40
0.4980967881
 40
0.7497834564
 40
1.0
 40
1.0
 40
1.0
 40
1.0
 10
59.8761269252
 20
-88.0424314408
 30
0.0
 10
59.3922510468
 20
-88.297147769
 30
0.0
 10
58.6094851129
 20
-88.5860651704
 30
0.0
 10
57.5270253269
 20
-88.777447101
 30
0.0
 10
56.9756714843
 20
-88.8113045455
 30
0.0
 10
56.7009966747
 20
-88.8145791041
 30
0.0
  0
SPLINE
  5
776
100
AcDbEntity
  8
IMPORT_IGES
100
AcDbSpline
 62
7
  6
CONTINUOUS
 70
0
 71
3
 72
13
 73
9
 74
0
 42
0.0000001
 43
0.0000001
 44
0.0000000001
 40
0.0
 40
0.0
 40
0.0
 40
0.0
 40
0.1230377948
 40
0.246638238
 40
0.4952817475
 40
0.7465221006
 40
0.8731449677
 40
1.0
 40
1.0
 40
1.0
 40
1.0
 10
-59.8761696267
 20
-88.0424099471
 30
0.0
 10
-60.1600134316
 20
-87.8929904329
 30
0.0
 10
-60.7093152888
 20
-87.5540623233
 30
0.0
 10
-61.7089541369
 20
-86.731775404
 30
0.0
 10
-62.7436407609
 20
-85.4506812251
 30
0.0
 10
-63.4005302772
 20
-83.9318086511
 30
0.0
 10
-63.6692662911
 20
-82.6404115425
 30
0.0
 10
-63.714817725
 20
-81.9785827908
 30
0.0
 10
-63.714817725
 20
-81.6478607608
 30
0.0
  0
SPLINE
  5
777
100
AcDbEntity
  8
IMPORT_IGES
100
AcDbSpline
 62
7
  6
CONTINUOUS
 70
0
 71
3
 72
10
 73
6
 74
0
 42
0.0000001
 43
0.0000001
 44
0.0000000001
 40
0.0
 40
0.0
 40
0.0
 40
0.0
 40
0.250217822
 40
0.5019008582
 40
1.0
 40
1.0
 40
1.0
 40
1.0
 10
-56.7009962297
 20
-88.814578659
 30
0.0
 10
-56.97567642
 20
-88.8113029876
 30
0.0
 10
-57.5270345017
 20
-88.77743381
 30
0.0
 10
-58.6095138268
 20
-88.5860715295
 30
0.0
 10
-59.3922856489
 20
-88.2971334889
 30
0.0
 10
-59.8761696267
 20
-88.0424099471
 30
0.0
  0
SPLINE
  5
778
100
AcDbEntity
  8
IMPORT_IGES
100
AcDbSpline
 62
7
  6
CONTINUOUS
 70
0
 71
3
 72
15
 73
11
 74
0
 42
0.0000001
 43
0.0000001
 44
0.0000000001
 40
0.0
 40
0.0
 40
0.0
 40
0.0
 40
0.1273642045
 40
0.2543225277
 40
0.380559695
 40
0.5059042098
 40
0.6303420669
 40
0.7540033221
 40
0.8771224023
 40
1.0
 40
1.0
 40
1.0
 40
1.0
 10
-63.714817725
 20
127.1356958124
 30
0.0
 10
-63.714817725
 20
127.6381554065
 30
0.0
 10
-63.6214587633
 20
128.6439165168
 30
0.0
 10
-63.2091133963
 20
130.0958711591
 30
0.0
 10
-62.5430163698
 20
131.4418567214
 30
0.0
 10
-61.6498093984
 20
132.6365068663
 30
0.0
 10
-60.5621625168
 20
133.6423567593
 30
0.0
 10
-59.3168275459
 20
134.4287017969
 30
0.0
 10
-57.954729111
 20
134.9714378611
 30
0.0
 10
-56.9958417001
 20
135.1593060891
 30
0.0
 10
-56.513509537
 20
135.2077582063
 30
0.0
  0
SPLINE
  5
779
100
AcDbEntity
  8
IMPORT_IGES
100
AcDbSpline
 62
7
  6
CONTINUOUS
 70
0
 71
3
 72
15
 73
11
 74
0
 42
0.0000001
 43
0.0000001
 44
0.0000000001
 40
0.0
 40
0.0
 40
0.0
 40
0.0
 40
0.1228768067
 40
0.2459959255
 40
0.3696576
 40
0.4940960395
 40
0.6194410683
 40
0.7456784943
 40
0.8726366806
 40
1.0
 40
1.0
 40
1.0
 40
1.0
 10
56.513509537
 20
135.2077582063
 30
0.0
 10
56.995838594
 20
135.1593064012
 30
0.0
 10
57.9547230747
 20
134.9714392671
 30
0.0
 10
59.3168209392
 20
134.4287053171
 30
0.0
 10
60.562160079
 20
133.6423590533
 30
0.0
 10
61.6498115152
 20
132.6365051015
 30
0.0
 10
62.5430207109
 20
131.4418498422
 30
0.0
 10
63.2091173774
 20
130.0958612632
 30
0.0
 10
63.6214598503
 20
128.6439089363
 30
0.0
 10
63.714817725
 20
127.6381519135
 30
0.0
 10
63.714817725
 20
127.1356958124
 30
0.0
  0
SPLINE
  5
77A
100
AcDbEntity
  8
IMPORT_IGES
100
AcDbSpline
 62
7
  6
CONTINUOUS
 70
0
 71
3
 72
11
 73
7
 74
0
 42
0.0000001
 43
0.0000001
 44
0.0000000001
 40
0.0
 40
0.0
 40
0.0
 40
0.0
 40
0.4975398414
 40
0.747647674
 40
0.8733581738
 40
1.0
 40
1.0
 40
1.0
 40
1.0
 10
56.7009966747
 20
-88.8145791041
 30
0.0
 10
56.3057956249
 20
-88.8192905263
 30
0.0
 10
55.7119281343
 20
-88.8260783693
 30
0.0
 10
55.0181958766
 20
-88.8331119104
 30
0.0
 10
54.6190728058
 20
-88.8363914881
 30
0.0
 10
54.4186146319
 20
-88.8377766284
 30
0.0
 10
54.3180145702
 20
-88.8377641459
 30
0.0
  0
SPLINE
  5
77B
100
AcDbEntity
  8
IMPORT_IGES
100
AcDbSpline
 62
7
  6
CONTINUOUS
 70
0
 71
3
 72
10
 73
6
 74
0
 42
0.0000001
 43
0.0000001
 44
0.0000000001
 40
0.0
 40
0.0
 40
0.0
 40
0.0
 40
0.2523426146
 40
0.5024498654
 40
1.0
 40
1.0
 40
1.0
 40
1.0
 10
-54.3186165674
 20
-88.8377760627
 30
0.0
 10
-54.5190184273
 20
-88.8377737226
 30
0.0
 10
-54.9180369391
 20
-88.8338687339
 30
0.0
 10
-55.7121616468
 20
-88.8262407688
 30
0.0
 10
-56.3058870518
 20
-88.8192904945
 30
0.0
 10
-56.7009962297
 20
-88.8145786591
 30
0.0
  0
SPLINE
  5
77C
100
AcDbEntity
  8
IMPORT_IGES
100
AcDbSpline
 62
7
  6
CONTINUOUS
 70
0
 71
3
 72
17
 73
13
 74
0
 42
0.0000001
 43
0.0000001
 44
0.0000000001
 40
0.0
 40
0.0
 40
0.0
 40
0.0
 40
0.0625581352
 40
0.1251180707
 40
0.2500752176
 40
0.3750325336
 40
0.5000038444
 40
0.6249747971
 40
0.7499297128
 40
0.8748837558
 40
0.9374423313
 40
1.0
 40
1.0
 40
1.0
 40
1.0
 10
-56.5145458618
 20
-88.57401759
 30
0.0
 10
-56.7448790164
 20
-88.5739763648
 30
0.0
 10
-57.2059154077
 20
-88.5531625207
 30
0.0
 10
-58.1185669147
 20
-88.4225536167
 30
0.0
 10
-59.2282290488
 20
-88.088469932
 30
0.0
 10
-60.4527497787
 20
-87.4316621542
 30
0.0
 10
-61.5213342599
 20
-86.5445890141
 30
0.0
 10
-62.4083946643
 20
-85.4760034773
 30
0.0
 10
-63.0651662954
 20
-84.2514891521
 30
0.0
 10
-63.39924779
 20
-83.1418539417
 30
0.0
 10
-63.5298502172
 20
-82.2292195948
 30
0.0
 10
-63.5506636112
 20
-81.7681900314
 30
0.0
 10
-63.5507048573
 20
-81.5378585945
 30
0.0
  0
SPLINE
  5
77D
100
AcDbEntity
  8
IMPORT_IGES
100
AcDbSpline
 62
7
  6
CONTINUOUS
 70
0
 71
3
 72
17
 73
13
 74
0
 42
0.0000001
 43
0.0000001
 44
0.0000000001
 40
0.0
 40
0.0
 40
0.0
 40
0.0
 40
0.0625579959
 40
0.1251177912
 40
0.2500751363
 40
0.3750327566
 40
0.5000038638
 40
0.6249745888
 40
0.7499298438
 40
0.8748840523
 40
0.9374424742
 40
1.0
 40
1.0
 40
1.0
 40
1.0
 10
55.6157792805
 20
134.9606192228
 30
0.0
 10
55.8755331924
 20
134.9605784389
 30
0.0
 10
56.3954586666
 20
134.9371003077
 30
0.0
 10
57.4246844648
 20
134.7897964606
 30
0.0
 10
58.6760846466
 20
134.4130264493
 30
0.0
 10
60.0570255584
 20
133.6723371466
 30
0.0
 10
61.2621141552
 20
132.6719625539
 30
0.0
 10
62.2624541146
 20
131.4668605756
 30
0.0
 10
63.0031334925
 20
130.0859439244
 30
0.0
 10
63.3798932469
 20
128.8345696239
 30
0.0
 10
63.5271862813
 20
127.8053633201
 30
0.0
 10
63.550664093
 20
127.2854456063
 30
0.0
 10
63.5507048573
 20
127.0256936461
 30
0.0
  0
SPLINE
  5
77E
100
AcDbEntity
  8
IMPORT_IGES
100
AcDbSpline
 62
7
  6
CONTINUOUS
 70
0
 71
3
 72
11
 73
7
 74
0
 42
0.0000001
 43
0.0000001
 44
0.0000000001
 40
0.0
 40
0.0
 40
0.0
 40
0.0
 40
0.2609822343
 40
0.5312762648
 40
0.774574437
 40
1.0
 40
1.0
 40
1.0
 40
1.0
 10
51.4512186848
 20
135.1457493723
 30
0.0
 10
51.4481007452
 20
135.1348936759
 30
0.0
 10
51.4420018822
 20
135.1127223491
 30
0.0
 10
51.4320168975
 20
135.080719735
 30
0.0
 10
51.4237455984
 20
135.0498084054
 30
0.0
 10
51.4202158593
 20
135.0297852128
 30
0.0
 10
51.4175227132
 20
135.0204085152
 30
0.0
  0
SPLINE
  5
77F
100
AcDbEntity
  8
IMPORT_IGES
100
AcDbSpline
 62
7
  6
CONTINUOUS
 70
0
 71
3
 72
11
 73
7
 74
0
 42
0.0000001
 43
0.0000001
 44
0.0000000001
 40
0.0
 40
0.0
 40
0.0
 40
0.0
 40
0.2527042057
 40
0.5077793227
 40
0.7565910923
 40
1.0
 40
1.0
 40
1.0
 40
1.0
 10
-51.4512186848
 20
135.1457493723
 30
0.0
 10
-51.448087425
 20
135.1348472992
 30
0.0
 10
-51.4424074922
 20
135.11274395
 30
0.0
 10
-51.4312854019
 20
135.0807031016
 30
0.0
 10
-51.4229296359
 20
135.0479254431
 30
0.0
 10
-51.4242050383
 20
135.0255492737
 30
0.0
 10
-51.4257251226
 20
135.0147299241
 30
0.0
  0
SPLINE
  5
780
100
AcDbEntity
  8
IMPORT_IGES
100
AcDbSpline
 62
7
  6
CONTINUOUS
 70
0
 71
3
 72
35
 73
31
 74
0
 42
0.0000001
 43
0.0000001
 44
0.0000000001
 40
0.0
 40
0.0
 40
0.0
 40
0.0
 40
0.0022241704
 40
0.0055291379
 40
0.0099170677
 40
0.0153799309
 40
0.0294805214
 40
0.0477116664
 40
0.069915963
 40
0.0958993804
 40
0.1254344102
 40
0.1582619238
 40
0.2326152447
 40
0.3163525187
 40
0.4065357962
 40
0.4999999737
 40
0.5934641276
 40
0.683647387
 40
0.7673846313
 40
0.8417379896
 40
0.8745655341
 40
0.9041005733
 40
0.9300839902
 40
0.9522882857
 40
0.9705194343
 40
0.9846200412
 40
0.9900829094
 40
0.9944708401
 40
0.9977758191
 40
1.0
 40
1.0
 40
1.0
 40
1.0
 10
12.4694201291
 20
125.6028911472
 30
0.0
 10
12.4514747862
 20
125.6073706468
 30
0.0
 10
12.4060217225
 20
125.6148839367
 30
0.0
 10
12.3241500066
 20
125.624619133
 30
0.0
 10
12.2151560835
 20
125.6343412569
 30
0.0
 10
12.0164916461
 20
125.6486013572
 30
0.0
 10
11.7026065636
 20
125.6651812456
 30
0.0
 10
11.2494601679
 20
125.6835166466
 30
0.0
 10
10.697401989
 20
125.7011436261
 30
0.0
 10
10.05128297
 20
125.717911501
 30
0.0
 10
9.3167721703
 20
125.7336079516
 30
0.0
 10
8.1800331397
 20
125.7537418697
 30
0.0
 10
6.5925045981
 20
125.7744981395
 30
0.0
 10
4.5279565337
 20
125.7923843744
 30
0.0
 10
2.304434356
 20
125.8033938523
 30
0.0
 10
0.0000008536
 20
125.8071144515
 30
0.0
 10
-2.3044324981
 20
125.8033938581
 30
0.0
 10
-4.5279540821
 20
125.7923843902
 30
0.0
 10
-6.5925020593
 20
125.7744981677
 30
0.0
 10
-8.1800309223
 20
125.7537419029
 30
0.0
 10
-9.3167705991
 20
125.7336079823
 30
0.0
 10
-10.05128173
 20
125.7179115303
 30
0.0
 10
-10.6974008138
 20
125.7011436579
 30
0.0
 10
-11.2494590099
 20
125.6835166899
 30
0.0
 10
-11.7026055632
 20
125.665181283
 30
0.0
 10
-12.0164908542
 20
125.6486014109
 30
0.0
 10
-12.2151554773
 20
125.6343413143
 30
0.0
 10
-12.3241495432
 20
125.6246191517
 30
0.0
 10
-12.4060214446
 20
125.6148839242
 30
0.0
 10
-12.4514747016
 20
125.6073706679
 30
0.0
 10
-12.4694201291
 20
125.6028911472
 30
0.0
  0
SPLINE
  5
781
100
AcDbEntity
  8
IMPORT_IGES
100
AcDbSpline
 62
7
  6
CONTINUOUS
 70
0
 71
3
 72
35
 73
31
 74
0
 42
0.0000001
 43
0.0000001
 44
0.0000000001
 40
0.0
 40
0.0
 40
0.0
 40
0.0
 40
0.0022241705
 40
0.0055291381
 40
0.0099170679
 40
0.0153799311
 40
0.0294805215
 40
0.0477116666
 40
0.0699159631
 40
0.0958993806
 40
0.1254344104
 40
0.1582619239
 40
0.2326152448
 40
0.3163525188
 40
0.4065357962
 40
0.4999999737
 40
0.5934641276
 40
0.6836473869
 40
0.7673846312
 40
0.8417379894
 40
0.874565534
 40
0.9041005731
 40
0.93008399
 40
0.9522882855
 40
0.9705194342
 40
0.984620041
 40
0.9900829092
 40
0.9944708399
 40
0.9977758189
 40
1.0
 40
1.0
 40
1.0
 40
1.0
 10
-55.2762038799
 20
33.5461074015
 30
0.0
 10
-55.2806833796
 20
33.5281620581
 30
0.0
 10
-55.2881966693
 20
33.4827089927
 30
0.0
 10
-55.2979318656
 20
33.4008372749
 30
0.0
 10
-55.3076539895
 20
33.2918433507
 30
0.0
 10
-55.3219140899
 20
33.0931789132
 30
0.0
 10
-55.3384939782
 20
32.779293831
 30
0.0
 10
-55.3568293792
 20
32.3261474353
 30
0.0
 10
-55.3744563588
 20
31.7740892564
 30
0.0
 10
-55.3912242336
 20
31.1279702374
 30
0.0
 10
-55.4069206842
 20
30.3934594377
 30
0.0
 10
-55.4270546023
 20
29.2567204072
 30
0.0
 10
-55.4478108721
 20
27.6691918655
 30
0.0
 10
-55.465697107
 20
25.6046438011
 30
0.0
 10
-55.476706585
 20
23.3811216233
 30
0.0
 10
-55.4804271841
 20
21.076688121
 30
0.0
 10
-55.4767065908
 20
18.7722547692
 30
0.0
 10
-55.4656971228
 20
16.5487331851
 30
0.0
 10
-55.4478109004
 20
14.484185208
 30
0.0
 10
-55.4270546355
 20
12.8966563449
 30
0.0
 10
-55.406920715
 20
11.7599166681
 30
0.0
 10
-55.3912242629
 20
11.0254055373
 30
0.0
 10
-55.3744563906
 20
10.3792864534
 30
0.0
 10
-55.3568294225
 20
9.8272282574
 30
0.0
 10
-55.3384940157
 20
9.3740817041
 30
0.0
 10
-55.3219141435
 20
9.0601964131
 30
0.0
 10
-55.307654047
 20
8.86153179
 30
0.0
 10
-55.2979318843
 20
8.752537724
 30
0.0
 10
-55.2881966568
 20
8.6706658208
 30
0.0
 10
-55.2806834001
 20
8.6252125623
 30
0.0
 10
-55.2762038799
 20
8.6072671332
 30
0.0
  0
SPLINE
  5
782
100
AcDbEntity
  8
IMPORT_IGES
100
AcDbSpline
 62
7
  6
CONTINUOUS
 70
0
 71
3
 72
10
 73
6
 74
0
 42
0.0000001
 43
0.0000001
 44
0.0000000001
 40
0.0
 40
0.0
 40
0.0
 40
0.0
 40
0.2611359472
 40
0.6205756274
 40
1.0
 40
1.0
 40
1.0
 40
1.0
 10
-55.9729637312
 20
8.5941623789
 30
0.0
 10
-55.9735417635
 20
8.595190174
 30
0.0
 10
-55.9749438501
 20
8.59775216
 30
0.0
 10
-55.9740671956
 20
8.6024173721
 30
0.0
 10
-55.9753652891
 20
8.6056426489
 30
0.0
 10
-55.9762040388
 20
8.6071366391
 30
0.0
  0
SPLINE
  5
783
100
AcDbEntity
  8
IMPORT_IGES
100
AcDbSpline
 62
7
  6
CONTINUOUS
 70
0
 71
3
 72
35
 73
31
 74
0
 42
0.0000001
 43
0.0000001
 44
0.0000000001
 40
0.0
 40
0.0
 40
0.0
 40
0.0
 40
0.0022241704
 40
0.0055291379
 40
0.0099170677
 40
0.0153799309
 40
0.0294805214
 40
0.0477116664
 40
0.069915963
 40
0.0958993804
 40
0.1254344102
 40
0.1582619238
 40
0.2326152447
 40
0.3163525187
 40
0.4065357962
 40
0.4999999737
 40
0.5934641276
 40
0.683647387
 40
0.7673846313
 40
0.8417379896
 40
0.8745655341
 40
0.9041005733
 40
0.9300839902
 40
0.9522882857
 40
0.9705194343
 40
0.9846200412
 40
0.9900829094
 40
0.9944708401
 40
0.9977758191
 40
1.0
 40
1.0
 40
1.0
 40
1.0
 10
12.4694201291
 20
-85.949790803
 30
0.0
 10
12.4514747862
 20
-85.9542703026
 30
0.0
 10
12.4060217225
 20
-85.9617835925
 30
0.0
 10
12.3241500066
 20
-85.9715187889
 30
0.0
 10
12.2151560835
 20
-85.9812409127
 30
0.0
 10
12.0164916461
 20
-85.995501013
 30
0.0
 10
11.7026065636
 20
-86.0120809014
 30
0.0
 10
11.2494601679
 20
-86.0304163024
 30
0.0
 10
10.697401989
 20
-86.0480432819
 30
0.0
 10
10.05128297
 20
-86.0648111568
 30
0.0
 10
9.3167721703
 20
-86.0805076074
 30
0.0
 10
8.1800331397
 20
-86.1006415255
 30
0.0
 10
6.5925045981
 20
-86.1213977953
 30
0.0
 10
4.5279565337
 20
-86.1392840302
 30
0.0
 10
2.304434356
 20
-86.1502935081
 30
0.0
 10
0.0000008536
 20
-86.1540141073
 30
0.0
 10
-2.3044324981
 20
-86.1502935139
 30
0.0
 10
-4.5279540821
 20
-86.139284046
 30
0.0
 10
-6.5925020593
 20
-86.1213978236
 30
0.0
 10
-8.1800309223
 20
-86.1006415587
 30
0.0
 10
-9.3167705991
 20
-86.0805076382
 30
0.0
 10
-10.05128173
 20
-86.0648111861
 30
0.0
 10
-10.6974008138
 20
-86.0480433137
 30
0.0
 10
-11.2494590099
 20
-86.0304163457
 30
0.0
 10
-11.7026055632
 20
-86.0120809388
 30
0.0
 10
-12.0164908542
 20
-85.9955010667
 30
0.0
 10
-12.2151554773
 20
-85.9812409701
 30
0.0
 10
-12.3241495432
 20
-85.9715188075
 30
0.0
 10
-12.4060214446
 20
-85.9617835801
 30
0.0
 10
-12.4514747016
 20
-85.9542703237
 30
0.0
 10
-12.4694201291
 20
-85.949790803
 30
0.0
  0
SPLINE
  5
784
100
AcDbEntity
  8
IMPORT_IGES
100
AcDbSpline
 62
7
  6
CONTINUOUS
 70
0
 71
3
 72
35
 73
31
 74
0
 42
0.0000001
 43
0.0000001
 44
0.0000000001
 40
0.0
 40
0.0
 40
0.0
 40
0.0
 40
0.0022258699
 40
0.0055330469
 40
0.009920062
 40
0.0153800037
 40
0.0294770869
 40
0.047706465
 40
0.069909843
 40
0.095893238
 40
0.1254288175
 40
0.1582572565
 40
0.2326127491
 40
0.3163517101
 40
0.4065357366
 40
0.4999999734
 40
0.5934641861
 40
0.6836481937
 40
0.7673871244
 40
0.8417426544
 40
0.8745711247
 40
0.9041067137
 40
0.9300901084
 40
0.9522934853
 40
0.9705228691
 40
0.9846199622
 40
0.9900799166
 40
0.994466945
 40
0.9977741282
 40
1.0
 40
1.0
 40
1.0
 40
1.0
 10
12.4694201291
 20
-83.4495166125
 30
0.0
 10
12.4514610756
 20
-83.4539995345
 30
0.0
 10
12.4059736009
 20
-83.4615065333
 30
0.0
 10
12.3240770981
 20
-83.4712400873
 30
0.0
 10
12.2150969543
 20
-83.4809653822
 30
0.0
 10
12.0164941342
 20
-83.4952302944
 30
0.0
 10
11.7026770939
 20
-83.5118079409
 30
0.0
 10
11.249582327
 20
-83.5301437043
 30
0.0
 10
10.6975466799
 20
-83.5477704932
 30
0.0
 10
10.0514309548
 20
-83.5645381963
 30
0.0
 10
9.3169081026
 20
-83.5802343134
 30
0.0
 10
8.1801387931
 20
-83.6003675455
 30
0.0
 10
6.5925705347
 20
-83.6211224976
 30
0.0
 10
4.5279842556
 20
-83.6390071785
 30
0.0
 10
2.3044414464
 20
-83.6500154807
 30
0.0
 10
0.0000008631
 20
-83.6537356433
 30
0.0
 10
-2.3044395626
 20
-83.6500154865
 30
0.0
 10
-4.527981762
 20
-83.6390071943
 30
0.0
 10
-6.5925679431
 20
-83.6211225258
 30
0.0
 10
-8.1801365206
 20
-83.6003675786
 30
0.0
 10
-9.3169064797
 20
-83.5802343448
 30
0.0
 10
-10.0514296675
 20
-83.5645382256
 30
0.0
 10
-10.6975454604
 20
-83.547770527
 30
0.0
 10
-11.2495811432
 20
-83.5301437435
 30
0.0
 10
-11.7026760316
 20
-83.5118079897
 30
0.0
 10
-12.016493307
 20
-83.4952303345
 30
0.0
 10
-12.2150964272
 20
-83.480965428
 30
0.0
 10
-12.3240768398
 20
-83.4712401261
 30
0.0
 10
-12.4059735187
 20
-83.4615065462
 30
0.0
 10
-12.4514610602
 20
-83.4539995383
 30
0.0
 10
-12.4694201291
 20
-83.4495166125
 30
0.0
  0
LINE
  5
785
100
AcDbEntity
  8
IMPORT_IGES
100
AcDbLine
 62
7
  6
CONTINUOUS
 10
-55.9697108049
 20
8.5811327291
 30
0.0
 11
-55.2762040388
 21
8.6071366391
 31
0.0
  0
LINE
  5
786
100
AcDbEntity
  8
IMPORT_IGES
100
AcDbLine
 62
7
  6
CONTINUOUS
 10
-55.9729637312
 20
8.5941623789
 30
0.0
 11
-55.9697108049
 21
8.5811327291
 31
0.0
  0
SPLINE
  5
787
100
AcDbEntity
  8
IMPORT_IGES
100
AcDbSpline
 62
7
  6
CONTINUOUS
 70
0
 71
3
 72
35
 73
31
 74
0
 42
0.0000001
 43
0.0000001
 44
0.0000000001
 40
0.0
 40
0.0
 40
0.0
 40
0.0
 40
0.0022258698
 40
0.0055330467
 40
0.0099200618
 40
0.0153800034
 40
0.0294770867
 40
0.0477064648
 40
0.0699098428
 40
0.0958932378
 40
0.1254288173
 40
0.1582572564
 40
0.232612749
 40
0.31635171
 40
0.4065357366
 40
0.4999999734
 40
0.5934641862
 40
0.6836481938
 40
0.7673871245
 40
0.8417426546
 40
0.8745711249
 40
0.9041067138
 40
0.9300901085
 40
0.9522934855
 40
0.9705228693
 40
0.9846199624
 40
0.9900799168
 40
0.9944669452
 40
0.9977741283
 40
1.0
 40
1.0
 40
1.0
 40
1.0
 10
-57.7764780703
 20
33.5461074015
 30
0.0
 10
-57.7809609922
 20
33.5281483486
 30
0.0
 10
-57.7884679913
 20
33.4826608755
 30
0.0
 10
-57.7982015453
 20
33.4007643745
 30
0.0
 10
-57.8079268402
 20
33.2917842318
 30
0.0
 10
-57.8221917522
 20
33.0931814116
 30
0.0
 10
-57.8387693988
 20
32.7793643709
 30
0.0
 10
-57.8571051623
 20
32.3262696035
 30
0.0
 10
-57.8747319512
 20
31.774233956
 30
0.0
 10
-57.8914996543
 20
31.1281182303
 30
0.0
 10
-57.9071957714
 20
30.3935953776
 30
0.0
 10
-57.9273290035
 20
29.2568260671
 30
0.0
 10
-57.9480839556
 20
27.6692578074
 30
0.0
 10
-57.9659686365
 20
25.6046715267
 30
0.0
 10
-57.9769769388
 20
23.3811287156
 30
0.0
 10
-57.9806971013
 20
21.0766881304
 30
0.0
 10
-57.9769769446
 20
18.7722477028
 30
0.0
 10
-57.9659686523
 20
16.5487055016
 30
0.0
 10
-57.9480839838
 20
14.4841193188
 30
0.0
 10
-57.9273290366
 20
12.8965507401
 30
0.0
 10
-57.9071958027
 20
11.75978078
 30
0.0
 10
-57.8914996836
 20
11.0252575916
 30
0.0
 10
-57.8747319849
 20
10.3791417982
 30
0.0
 10
-57.8571052015
 20
9.8271061149
 30
0.0
 10
-57.8387694477
 20
9.3740112262
 30
0.0
 10
-57.8221917924
 20
9.0601939503
 30
0.0
 10
-57.8079268859
 20
8.86159083
 30
0.0
 10
-57.7982015841
 20
8.7526104184
 30
0.0
 10
-57.7884680042
 20
8.6707137414
 30
0.0
 10
-57.780960996
 20
8.6252262014
 30
0.0
 10
-57.7764780703
 20
8.6072671332
 30
0.0
  0
LINE
  5
788
100
AcDbEntity
  8
IMPORT_IGES
100
AcDbLine
 62
7
  6
CONTINUOUS
 10
55.9697108049
 20
8.581138511
 30
0.0
 11
55.2762040388
 21
8.6071366391
 31
0.0
  0
SPLINE
  5
789
100
AcDbEntity
  8
IMPORT_IGES
100
AcDbSpline
 62
7
  6
CONTINUOUS
 70
0
 71
3
 72
10
 73
6
 74
0
 42
0.0000001
 43
0.0000001
 44
0.0000000001
 40
0.0
 40
0.0
 40
0.0
 40
0.0
 40
0.2610736696
 40
0.620512422
 40
1.0
 40
1.0
 40
1.0
 40
1.0
 10
55.9762040388
 20
8.6071366391
 30
0.0
 10
55.975626849
 20
8.6061085424
 30
0.0
 10
55.974226266
 20
8.6035459771
 30
0.0
 10
55.975103522
 20
8.5988803855
 30
0.0
 10
55.973803184
 20
8.5956547723
 30
0.0
 10
55.9729631899
 20
8.5941609351
 30
0.0
  0
SPLINE
  5
78A
100
AcDbEntity
  8
IMPORT_IGES
100
AcDbSpline
 62
7
  6
CONTINUOUS
 70
0
 71
3
 72
35
 73
31
 74
0
 42
0.0000001
 43
0.0000001
 44
0.0000000001
 40
0.0
 40
0.0
 40
0.0
 40
0.0
 40
0.0022241705
 40
0.0055291381
 40
0.0099170679
 40
0.0153799311
 40
0.0294805215
 40
0.0477116666
 40
0.0699159631
 40
0.0958993806
 40
0.1254344104
 40
0.1582619239
 40
0.2326152448
 40
0.3163525188
 40
0.4065357962
 40
0.4999999737
 40
0.5934641276
 40
0.6836473869
 40
0.7673846312
 40
0.8417379894
 40
0.874565534
 40
0.9041005731
 40
0.93008399
 40
0.9522882855
 40
0.9705194342
 40
0.984620041
 40
0.9900829092
 40
0.9944708399
 40
0.997775819
 40
1.0
 40
1.0
 40
1.0
 40
1.0
 10
57.7764780703
 20
33.5461074015
 30
0.0
 10
57.7809575701
 20
33.5281620581
 30
0.0
 10
57.7884708597
 20
33.4827089927
 30
0.0
 10
57.7982060561
 20
33.4008372749
 30
0.0
 10
57.80792818
 20
33.2918433507
 30
0.0
 10
57.8221882804
 20
33.0931789132
 30
0.0
 10
57.8387681687
 20
32.779293831
 30
0.0
 10
57.8571035697
 20
32.3261474353
 30
0.0
 10
57.8747305493
 20
31.7740892564
 30
0.0
 10
57.8914984241
 20
31.1279702374
 30
0.0
 10
57.9071948747
 20
30.3934594377
 30
0.0
 10
57.9273287928
 20
29.2567204072
 30
0.0
 10
57.9480850626
 20
27.6691918655
 30
0.0
 10
57.9659712975
 20
25.6046438011
 30
0.0
 10
57.9769807754
 20
23.3811216233
 30
0.0
 10
57.9807013746
 20
21.076688121
 30
0.0
 10
57.9769807812
 20
18.7722547692
 30
0.0
 10
57.9659713133
 20
16.5487331851
 30
0.0
 10
57.9480850909
 20
14.484185208
 30
0.0
 10
57.927328826
 20
12.8966563449
 30
0.0
 10
57.9071949055
 20
11.7599166681
 30
0.0
 10
57.8914984534
 20
11.0254055373
 30
0.0
 10
57.8747305811
 20
10.3792864534
 30
0.0
 10
57.857103613
 20
9.8272282574
 30
0.0
 10
57.8387682061
 20
9.3740817041
 30
0.0
 10
57.8221883341
 20
9.0601964134
 30
0.0
 10
57.8079282374
 20
8.8615317902
 30
0.0
 10
57.7982060747
 20
8.7525377232
 30
0.0
 10
57.7884708473
 20
8.6706658198
 30
0.0
 10
57.7809575912
 20
8.6252125612
 30
0.0
 10
57.7764780703
 20
8.6072671332
 30
0.0
  0
SPLINE
  5
78B
100
AcDbEntity
  8
IMPORT_IGES
100
AcDbSpline
 62
7
  6
CONTINUOUS
 70
0
 71
3
 72
35
 73
31
 74
0
 42
0.0000001
 43
0.0000001
 44
0.0000000001
 40
0.0
 40
0.0
 40
0.0
 40
0.0
 40
0.0022241706
 40
0.0055291381
 40
0.0099170679
 40
0.0153799311
 40
0.0294805215
 40
0.0477116666
 40
0.0699159631
 40
0.0958993806
 40
0.1254344104
 40
0.1582619239
 40
0.2326152448
 40
0.3163525188
 40
0.4065357962
 40
0.4999999737
 40
0.5934641276
 40
0.6836473869
 40
0.7673846312
 40
0.8417379894
 40
0.874565534
 40
0.9041005731
 40
0.93008399
 40
0.9522882855
 40
0.9705194342
 40
0.984620041
 40
0.9900829092
 40
0.9944708399
 40
0.997775819
 40
1.0
 40
1.0
 40
1.0
 40
1.0
 10
55.2762038799
 20
8.6072671332
 30
0.0
 10
55.280683379
 20
8.6252124777
 30
0.0
 10
55.2881966692
 20
8.670665543
 30
0.0
 10
55.2979318657
 20
8.7525372605
 30
0.0
 10
55.3076539896
 20
8.8615311838
 30
0.0
 10
55.3219140898
 20
9.0601956211
 30
0.0
 10
55.3384939782
 20
9.3740807036
 30
0.0
 10
55.3568293792
 20
9.8272270994
 30
0.0
 10
55.3744563588
 20
10.3792852783
 30
0.0
 10
55.3912242336
 20
11.0254042973
 30
0.0
 10
55.4069206842
 20
11.759915097
 30
0.0
 10
55.4270546023
 20
12.8966541275
 30
0.0
 10
55.4478108721
 20
14.4841826692
 30
0.0
 10
55.465697107
 20
16.5487307336
 30
0.0
 10
55.476706585
 20
18.7722529113
 30
0.0
 10
55.4804271841
 20
21.0766864137
 30
0.0
 10
55.4767065908
 20
23.3811197654
 30
0.0
 10
55.4656971228
 20
25.6046413495
 30
0.0
 10
55.4478109004
 20
27.6691893267
 30
0.0
 10
55.4270546355
 20
29.2567181897
 30
0.0
 10
55.406920715
 20
30.3934578665
 30
0.0
 10
55.3912242629
 20
31.1279689974
 30
0.0
 10
55.3744563906
 20
31.7740880812
 30
0.0
 10
55.3568294225
 20
32.3261462773
 30
0.0
 10
55.3384940156
 20
32.7792928306
 30
0.0
 10
55.3219141436
 20
33.0931781213
 30
0.0
 10
55.3076540469
 20
33.2918427445
 30
0.0
 10
55.2979318843
 20
33.4008368115
 30
0.0
 10
55.2881966568
 20
33.4827087148
 30
0.0
 10
55.2806834007
 20
33.5281619735
 30
0.0
 10
55.2762038799
 20
33.5461074015
 30
0.0
  0
LINE
  5
78C
100
AcDbEntity
  8
IMPORT_IGES
100
AcDbLine
 62
7
  6
CONTINUOUS
 10
15.5951236862
 20
-22.4058576677
 30
0.0
 11
15.640230176
 21
-22.4233127327
 31
0.0
  0
LINE
  5
78D
100
AcDbEntity
  8
IMPORT_IGES
100
AcDbLine
 62
7
  6
CONTINUOUS
 10
0.4825449351
 20
-12.0279804276
 30
0.0
 11
0.5
 21
-11.9935519559
 31
0.0
  0
LINE
  5
78E
100
AcDbEntity
  8
IMPORT_IGES
100
AcDbLine
 62
7
  6
CONTINUOUS
 10
-0.5
 20
-11.9935519559
 30
0.0
 11
-0.4825449351
 21
-12.0279804276
 31
0.0
  0
LINE
  5
78F
100
AcDbEntity
  8
IMPORT_IGES
100
AcDbLine
 62
7
  6
CONTINUOUS
 10
-15.640230176
 20
-22.4233127327
 30
0.0
 11
-15.5951236862
 21
-22.4058576677
 31
0.0
  0
LINE
  5
790
100
AcDbEntity
  8
IMPORT_IGES
100
AcDbLine
 62
7
  6
CONTINUOUS
 10
0.5
 20
-45.8530735094
 30
0.0
 11
0.4825449351
 21
-45.8186450377
 31
0.0
  0
LINE
  5
791
100
AcDbEntity
  8
IMPORT_IGES
100
AcDbLine
 62
7
  6
CONTINUOUS
 10
-0.4825449351
 20
-45.8186450377
 30
0.0
 11
-0.5
 21
-45.8530735094
 31
0.0
  0
LINE
  5
792
100
AcDbEntity
  8
IMPORT_IGES
100
AcDbLine
 62
7
  6
CONTINUOUS
 10
15.640230176
 20
64.5766872673
 30
0.0
 11
15.5951236862
 21
64.5592322024
 31
0.0
  0
LINE
  5
793
100
AcDbEntity
  8
IMPORT_IGES
100
AcDbLine
 62
7
  6
CONTINUOUS
 10
0.4825449351
 20
87.9720195724
 30
0.0
 11
0.5
 21
88.0064480441
 31
0.0
  0
LINE
  5
794
100
AcDbEntity
  8
IMPORT_IGES
100
AcDbLine
 62
7
  6
CONTINUOUS
 10
-0.5
 20
88.0064480441
 30
0.0
 11
-0.4825449351
 21
87.9720195724
 31
0.0
  0
LINE
  5
795
100
AcDbEntity
  8
IMPORT_IGES
100
AcDbLine
 62
7
  6
CONTINUOUS
 10
-15.5951236862
 20
64.5592322024
 30
0.0
 11
-15.640230176
 21
64.5766872673
 31
0.0
  0
LINE
  5
796
100
AcDbEntity
  8
IMPORT_IGES
100
AcDbLine
 62
7
  6
CONTINUOUS
 10
0.5
 20
54.1469264906
 30
0.0
 11
0.4825449351
 21
54.1813549623
 31
0.0
  0
LINE
  5
797
100
AcDbEntity
  8
IMPORT_IGES
100
AcDbLine
 62
7
  6
CONTINUOUS
 10
-0.4825449351
 20
54.1813549623
 30
0.0
 11
-0.5
 21
54.1469264906
 31
0.0
  0
SPLINE
  5
798
100
AcDbEntity
  8
IMPORT_IGES
100
AcDbSpline
 62
7
  6
CONTINUOUS
 70
0
 71
3
 72
35
 73
31
 74
0
 42
0.0000001
 43
0.0000001
 44
0.0000000001
 40
0.0
 40
0.0
 40
0.0
 40
0.0
 40
0.0022258699
 40
0.0055330469
 40
0.009920062
 40
0.0153800037
 40
0.0294770869
 40
0.047706465
 40
0.069909843
 40
0.095893238
 40
0.1254288175
 40
0.1582572565
 40
0.2326127491
 40
0.3163517101
 40
0.4065357366
 40
0.4999999734
 40
0.5934641861
 40
0.6836481937
 40
0.7673871244
 40
0.8417426544
 40
0.8745711247
 40
0.9041067137
 40
0.9300901084
 40
0.9522934853
 40
0.9705228691
 40
0.9846199622
 40
0.9900799166
 40
0.994466945
 40
0.9977741282
 40
1.0
 40
1.0
 40
1.0
 40
1.0
 10
12.4694201291
 20
128.1031653377
 30
0.0
 10
12.4514610756
 20
128.1076482597
 30
0.0
 10
12.4059736009
 20
128.1151552585
 30
0.0
 10
12.3240770981
 20
128.1248888125
 30
0.0
 10
12.2150969543
 20
128.1346141074
 30
0.0
 10
12.0164941342
 20
128.1488790196
 30
0.0
 10
11.7026770939
 20
128.1654566661
 30
0.0
 10
11.249582327
 20
128.1837924295
 30
0.0
 10
10.6975466799
 20
128.2014192184
 30
0.0
 10
10.0514309548
 20
128.2181869215
 30
0.0
 10
9.3169081026
 20
128.2338830386
 30
0.0
 10
8.1801387931
 20
128.2540162707
 30
0.0
 10
6.5925705347
 20
128.2747712228
 30
0.0
 10
4.5279842556
 20
128.2926559037
 30
0.0
 10
2.3044414464
 20
128.3036642059
 30
0.0
 10
0.0000008631
 20
128.3073843685
 30
0.0
 10
-2.3044395626
 20
128.3036642117
 30
0.0
 10
-4.527981762
 20
128.2926559195
 30
0.0
 10
-6.5925679431
 20
128.274771251
 30
0.0
 10
-8.1801365206
 20
128.2540163038
 30
0.0
 10
-9.3169064797
 20
128.23388307
 30
0.0
 10
-10.0514296675
 20
128.2181869508
 30
0.0
 10
-10.6975454604
 20
128.2014192522
 30
0.0
 10
-11.2495811432
 20
128.1837924687
 30
0.0
 10
-11.7026760316
 20
128.1654567149
 30
0.0
 10
-12.016493307
 20
128.1488790597
 30
0.0
 10
-12.2150964272
 20
128.1346141532
 30
0.0
 10
-12.3240768398
 20
128.1248888513
 30
0.0
 10
-12.4059735187
 20
128.1151552714
 30
0.0
 10
-12.4514610602
 20
128.1076482635
 30
0.0
 10
-12.4694201291
 20
128.1031653377
 30
0.0
  0
ELLIPSE
  5
799
100
AcDbEntity
  8
IMPORT_IGES
100
AcDbEllipse
 62
7
  6
CONTINUOUS
 10
-60.0
 20
131.5288527572
 30
0.0
 11
-0.0
 21
6.4944599754
 31
0.0
 40
0.9999728748
 41
-0.0
 42
1.5634308272
  0
ELLIPSE
  5
79A
100
AcDbEntity
  8
IMPORT_IGES
100
AcDbEllipse
 62
7
  6
CONTINUOUS
 10
60.0
 20
131.5288527572
 30
0.0
 11
0.0
 21
6.4944599754
 31
0.0
 40
0.9999728748
 41
-1.5634308272
 42
0.0
  0
ELLIPSE
  5
79B
100
AcDbEntity
  8
IMPORT_IGES
100
AcDbEllipse
 62
7
  6
CONTINUOUS
 10
63.4298827991
 20
-81.4981693281
 30
0.0
 11
0.5
 21
0.0
 31
0.0
 40
0.0174550649
 41
-0.9643959386
 42
-0.0174532922
  0
ELLIPSE
  5
79C
100
AcDbEntity
  8
IMPORT_IGES
100
AcDbEllipse
 62
7
  6
CONTINUOUS
 10
-63.4298827991
 20
-81.4981693281
 30
0.0
 11
0.5
 21
0.0
 31
0.0
 40
0.0174550649
 41
-3.1241393613
 42
-2.1771927993
  0
ELLIPSE
  5
79D
100
AcDbEntity
  8
IMPORT_IGES
100
AcDbEllipse
 62
7
  6
CONTINUOUS
 10
-63.4298827991
 20
-80.1484561372
 30
0.0
 11
0.5
 21
-0.0
 31
0.0
 40
0.0174550649
 41
2.177196715
 42
3.1241393613
  0
ELLIPSE
  5
79E
100
AcDbEntity
  8
IMPORT_IGES
100
AcDbEllipse
 62
7
  6
CONTINUOUS
 10
-60.0
 20
131.5435844225
 30
0.0
 11
0.0
 21
4.4943514704
 31
0.0
 40
0.9999728748
 41
0.0
 42
1.5634308272
  0
ELLIPSE
  5
79F
100
AcDbEntity
  8
IMPORT_IGES
100
AcDbEllipse
 62
7
  6
CONTINUOUS
 10
60.0
 20
131.5435844225
 30
0.0
 11
-0.0
 21
4.4943514704
 31
0.0
 40
0.9999728748
 41
-1.5634308272
 42
0.0
  0
ELLIPSE
  5
7A0
100
AcDbEntity
  8
IMPORT_IGES
100
AcDbEllipse
 62
7
  6
CONTINUOUS
 10
63.4298827991
 20
-80.1484561372
 30
0.0
 11
0.5
 21
0.0
 31
0.0
 40
0.0174550649
 41
0.0174532922
 42
0.9643998543
  0
ELLIPSE
  5
7A1
100
AcDbEntity
  8
IMPORT_IGES
100
AcDbEllipse
 62
7
  6
CONTINUOUS
 10
-59.1621687646
 20
130.5720831301
 30
0.0
 11
8.6101491746
 21
2.3111580181
 31
0.0
 40
0.4689353188
 41
1.0509118624
 42
1.1354207802
  0
ELLIPSE
  5
7A2
100
AcDbEntity
  8
IMPORT_IGES
100
AcDbEllipse
 62
7
  6
CONTINUOUS
 10
59.1621687646
 20
130.5720831301
 30
0.0
 11
8.6101491746
 21
-2.3111580181
 31
0.0
 40
0.4689353188
 41
2.0061718734
 42
2.0906807912
  0
ELLIPSE
  5
7A3
100
AcDbEntity
  8
IMPORT_IGES
100
AcDbEllipse
 62
7
  6
CONTINUOUS
 10
-12.530523726
 20
126.0876407933
 30
0.0
 11
0.0
 21
2.0
 31
0.0
 40
0.0699268119
 41
0.0174532925
 42
1.5707963268
  0
ELLIPSE
  5
7A4
100
AcDbEntity
  8
IMPORT_IGES
100
AcDbEllipse
 62
7
  6
CONTINUOUS
 10
-12.530523726
 20
-83.9342662586
 30
0.0
 11
0.0
 21
2.0
 31
0.0
 40
0.0699268119
 41
1.5707963268
 42
3.1241393611
  0
ELLIPSE
  5
7A5
100
AcDbEntity
  8
IMPORT_IGES
100
AcDbEllipse
 62
7
  6
CONTINUOUS
 10
-55.7609535259
 20
8.5461635413
 30
0.0
 11
2.0
 21
0.0
 31
0.0
 40
0.0699268119
 41
-3.1241393611
 42
-1.5707963268
  0
ELLIPSE
  5
7A6
100
AcDbEntity
  8
IMPORT_IGES
100
AcDbEllipse
 62
7
  6
CONTINUOUS
 10
-55.7609535259
 20
33.6072109933
 30
0.0
 11
2.0
 21
-0.0
 31
0.0
 40
0.0699268119
 41
1.5707963268
 42
3.1241393611
  0
ELLIPSE
  5
7A7
100
AcDbEntity
  8
IMPORT_IGES
100
AcDbEllipse
 62
7
  6
CONTINUOUS
 10
55.7609535259
 20
33.6072109933
 30
0.0
 11
2.0
 21
-0.0
 31
0.0
 40
0.0699268119
 41
0.0174532925
 42
1.5707963268
  0
ELLIPSE
  5
7A8
100
AcDbEntity
  8
IMPORT_IGES
100
AcDbEllipse
 62
7
  6
CONTINUOUS
 10
55.7609535259
 20
8.5461635413
 30
0.0
 11
2.0
 21
0.0
 31
0.0
 40
0.0699268119
 41
-1.5707963268
 42
-0.0174532925
  0
ELLIPSE
  5
7A9
100
AcDbEntity
  8
IMPORT_IGES
100
AcDbEllipse
 62
7
  6
CONTINUOUS
 10
12.530523726
 20
-83.9342662586
 30
0.0
 11
0.0
 21
2.0
 31
0.0
 40
0.0699268119
 41
-3.124139361
 42
-1.5707963268
  0
ELLIPSE
  5
7AA
100
AcDbEntity
  8
IMPORT_IGES
100
AcDbEllipse
 62
7
  6
CONTINUOUS
 10
53.9942972446
 20
-71.4407677976
 30
0.0
 11
2.0
 21
0.0
 31
0.0
 40
0.0174550649
 41
0.5235987756
 42
1.5707963268
  0
ELLIPSE
  5
7AB
100
AcDbEntity
  8
IMPORT_IGES
100
AcDbEllipse
 62
7
  6
CONTINUOUS
 10
-53.9942972446
 20
-71.4407677976
 30
0.0
 11
2.0
 21
-0.0
 31
0.0
 40
0.0174550649
 41
1.5707963268
 42
2.617993878
  0
ELLIPSE
  5
7AC
100
AcDbEntity
  8
IMPORT_IGES
100
AcDbEllipse
 62
7
  6
CONTINUOUS
 10
-53.9942972446
 20
-70.4058576677
 30
0.0
 11
2.0
 21
-0.0
 31
0.0
 40
0.0174550649
 41
-2.617993878
 42
-1.5707963268
  0
ELLIPSE
  5
7AD
100
AcDbEntity
  8
IMPORT_IGES
100
AcDbEllipse
 62
7
  6
CONTINUOUS
 10
53.9942972446
 20
-70.4058576677
 30
0.0
 11
2.0
 21
0.0
 31
0.0
 40
0.0174550649
 41
-1.5707963268
 42
-0.5235987756
  0
ELLIPSE
  5
7AE
100
AcDbEntity
  8
IMPORT_IGES
100
AcDbEllipse
 62
7
  6
CONTINUOUS
 10
53.9942972446
 20
-0.4407677976
 30
0.0
 11
2.0
 21
0.0
 31
0.0
 40
0.0174550649
 41
0.5235987756
 42
1.5707963268
  0
ELLIPSE
  5
7AF
100
AcDbEntity
  8
IMPORT_IGES
100
AcDbEllipse
 62
7
  6
CONTINUOUS
 10
-53.9942972446
 20
-0.4407677976
 30
0.0
 11
2.0
 21
-0.0
 31
0.0
 40
0.0174550649
 41
1.5707963268
 42
2.617993878
  0
ELLIPSE
  5
7B0
100
AcDbEntity
  8
IMPORT_IGES
100
AcDbEllipse
 62
7
  6
CONTINUOUS
 10
-53.9942972446
 20
87.5941423323
 30
0.0
 11
2.0
 21
0.0
 31
0.0
 40
0.0174550649
 41
-2.617993878
 42
-1.5707963268
  0
ELLIPSE
  5
7B1
100
AcDbEntity
  8
IMPORT_IGES
100
AcDbEllipse
 62
7
  6
CONTINUOUS
 10
53.9942972446
 20
87.5941423323
 30
0.0
 11
2.0
 21
-0.0
 31
0.0
 40
0.0174550649
 41
-1.5707963268
 42
-0.5235987756
  0
ELLIPSE
  5
7B2
100
AcDbEntity
  8
IMPORT_IGES
100
AcDbEllipse
 62
7
  6
CONTINUOUS
 10
53.9942972446
 20
86.5592322024
 30
0.0
 11
2.0
 21
0.0
 31
0.0
 40
0.0174550649
 41
0.5235987756
 42
1.5707963268
  0
ELLIPSE
  5
7B3
100
AcDbEntity
  8
IMPORT_IGES
100
AcDbEllipse
 62
7
  6
CONTINUOUS
 10
-53.9942972446
 20
86.5592322024
 30
0.0
 11
2.0
 21
-0.0
 31
0.0
 40
0.0174550649
 41
1.5707963268
 42
2.617993878
  0
ELLIPSE
  5
7B4
100
AcDbEntity
  8
IMPORT_IGES
100
AcDbEllipse
 62
7
  6
CONTINUOUS
 10
-42.5174550649
 20
-82.1676099773
 30
0.0
 11
0.0
 21
2.0
 31
0.0
 40
0.0174550649
 41
-2.617993878
 42
-1.5707963268
  0
ELLIPSE
  5
7B5
100
AcDbEntity
  8
IMPORT_IGES
100
AcDbEllipse
 62
7
  6
CONTINUOUS
 10
-42.5174550649
 20
124.3209845119
 30
0.0
 11
0.0
 21
2.0
 31
0.0
 40
0.0174550649
 41
-1.5707963268
 42
-0.5235987756
  0
ELLIPSE
  5
7B6
100
AcDbEntity
  8
IMPORT_IGES
100
AcDbEllipse
 62
7
  6
CONTINUOUS
 10
-53.9942972446
 20
64.5941423323
 30
0.0
 11
2.0
 21
-0.0
 31
0.0
 40
0.0174550649
 41
-2.617993878
 42
-1.5707963268
  0
ELLIPSE
  5
7B7
100
AcDbEntity
  8
IMPORT_IGES
100
AcDbEllipse
 62
7
  6
CONTINUOUS
 10
53.9942972446
 20
64.5941423323
 30
0.0
 11
2.0
 21
-0.0
 31
0.0
 40
0.0174550649
 41
-1.5707963268
 42
-0.5235987756
  0
ELLIPSE
  5
7B8
100
AcDbEntity
  8
IMPORT_IGES
100
AcDbEllipse
 62
7
  6
CONTINUOUS
 10
42.5174550649
 20
124.3209845119
 30
0.0
 11
-0.0
 21
2.0
 31
0.0
 40
0.0174550649
 41
0.5235987756
 42
1.5707963268
  0
ELLIPSE
  5
7B9
100
AcDbEntity
  8
IMPORT_IGES
100
AcDbEllipse
 62
7
  6
CONTINUOUS
 10
42.5174550649
 20
-82.1676099773
 30
0.0
 11
-0.0
 21
2.0
 31
0.0
 40
0.0174550649
 41
-4.7123889804
 42
-3.6651914292
  0
ELLIPSE
  5
7BA
100
AcDbEntity
  8
IMPORT_IGES
100
AcDbEllipse
 62
7
  6
CONTINUOUS
 10
-53.9942972446
 20
-44.4058576677
 30
0.0
 11
2.0
 21
0.0
 31
0.0
 40
0.0174550649
 41
-2.617993878
 42
-1.5707963268
  0
ELLIPSE
  5
7BB
100
AcDbEntity
  8
IMPORT_IGES
100
AcDbEllipse
 62
7
  6
CONTINUOUS
 10
53.9942972446
 20
-44.4058576677
 30
0.0
 11
2.0
 21
-0.0
 31
0.0
 40
0.0174550649
 41
-1.5707963268
 42
-0.5235987756
  0
ELLIPSE
  5
7BC
100
AcDbEntity
  8
IMPORT_IGES
100
AcDbEllipse
 62
7
  6
CONTINUOUS
 10
53.9942972446
 20
-45.4407677976
 30
0.0
 11
2.0
 21
-0.0
 31
0.0
 40
0.0174550649
 41
0.5235987756
 42
1.5707963268
  0
ELLIPSE
  5
7BD
100
AcDbEntity
  8
IMPORT_IGES
100
AcDbEllipse
 62
7
  6
CONTINUOUS
 10
-53.9942972446
 20
-45.4407677976
 30
0.0
 11
2.0
 21
-0.0
 31
0.0
 40
0.0174550649
 41
1.5707963268
 42
2.617993878
  0
ELLIPSE
  5
7BE
100
AcDbEntity
  8
IMPORT_IGES
100
AcDbEllipse
 62
7
  6
CONTINUOUS
 10
53.9942972446
 20
63.5592322024
 30
0.0
 11
2.0
 21
0.0
 31
0.0
 40
0.0174550649
 41
0.5235987756
 42
1.5707963268
  0
ELLIPSE
  5
7BF
100
AcDbEntity
  8
IMPORT_IGES
100
AcDbEllipse
 62
7
  6
CONTINUOUS
 10
-53.9942972446
 20
63.5592322024
 30
0.0
 11
2.0
 21
-0.0
 31
0.0
 40
0.0174550649
 41
1.5707963268
 42
2.617993878
  0
ELLIPSE
  5
7C0
100
AcDbEntity
  8
IMPORT_IGES
100
AcDbEllipse
 62
7
  6
CONTINUOUS
 10
20.4825449351
 20
-82.1676099773
 30
0.0
 11
0.0
 21
2.0
 31
0.0
 40
0.0174550649
 41
-2.617993878
 42
-1.5707963268
  0
ELLIPSE
  5
7C1
100
AcDbEntity
  8
IMPORT_IGES
100
AcDbEllipse
 62
7
  6
CONTINUOUS
 10
20.4825449351
 20
124.3209845119
 30
0.0
 11
0.0
 21
2.0
 31
0.0
 40
0.0174550649
 41
-1.5707963268
 42
-0.5235987756
  0
ELLIPSE
  5
7C2
100
AcDbEntity
  8
IMPORT_IGES
100
AcDbEllipse
 62
7
  6
CONTINUOUS
 10
-53.9942972446
 20
42.5941423323
 30
0.0
 11
2.0
 21
-0.0
 31
0.0
 40
0.0174550649
 41
-2.617993878
 42
-1.5707963268
  0
ELLIPSE
  5
7C3
100
AcDbEntity
  8
IMPORT_IGES
100
AcDbEllipse
 62
7
  6
CONTINUOUS
 10
53.9942972446
 20
42.5941423323
 30
0.0
 11
2.0
 21
-0.0
 31
0.0
 40
0.0174550649
 41
-1.5707963268
 42
-0.5235987756
  0
ELLIPSE
  5
7C4
100
AcDbEntity
  8
IMPORT_IGES
100
AcDbEllipse
 62
7
  6
CONTINUOUS
 10
-20.4825449351
 20
124.3209845119
 30
0.0
 11
-0.0
 21
2.0
 31
0.0
 40
0.0174550649
 41
0.5235987756
 42
1.5707963268
  0
ELLIPSE
  5
7C5
100
AcDbEntity
  8
IMPORT_IGES
100
AcDbEllipse
 62
7
  6
CONTINUOUS
 10
-20.4825449351
 20
-82.1676099773
 30
0.0
 11
0.0
 21
2.0
 31
0.0
 40
0.0174550649
 41
-4.7123889804
 42
-3.6651914292
  0
ELLIPSE
  5
7C6
100
AcDbEntity
  8
IMPORT_IGES
100
AcDbEllipse
 62
7
  6
CONTINUOUS
 10
53.9942972446
 20
41.5592322024
 30
0.0
 11
2.0
 21
-0.0
 31
0.0
 40
0.0174550649
 41
0.5235987756
 42
1.5707963268
  0
ELLIPSE
  5
7C7
100
AcDbEntity
  8
IMPORT_IGES
100
AcDbEllipse
 62
7
  6
CONTINUOUS
 10
-53.9942972446
 20
41.5592322024
 30
0.0
 11
2.0
 21
-0.0
 31
0.0
 40
0.0174550649
 41
1.5707963268
 42
2.617993878
  0
ELLIPSE
  5
7C8
100
AcDbEntity
  8
IMPORT_IGES
100
AcDbEllipse
 62
7
  6
CONTINUOUS
 10
21.5174550649
 20
124.3209845119
 30
0.0
 11
-0.0
 21
2.0
 31
0.0
 40
0.0174550649
 41
0.5235987756
 42
1.5707963268
  0
ELLIPSE
  5
7C9
100
AcDbEntity
  8
IMPORT_IGES
100
AcDbEllipse
 62
7
  6
CONTINUOUS
 10
21.5174550649
 20
-82.1676099773
 30
0.0
 11
0.0
 21
2.0
 31
0.0
 40
0.0174550649
 41
-4.7123889804
 42
-3.6651914292
  0
ELLIPSE
  5
7CA
100
AcDbEntity
  8
IMPORT_IGES
100
AcDbEllipse
 62
7
  6
CONTINUOUS
 10
-21.5174550649
 20
-82.1676099773
 30
0.0
 11
0.0
 21
2.0
 31
0.0
 40
0.0174550649
 41
-2.617993878
 42
-1.5707963268
  0
ELLIPSE
  5
7CB
100
AcDbEntity
  8
IMPORT_IGES
100
AcDbEllipse
 62
7
  6
CONTINUOUS
 10
-21.5174550649
 20
124.3209845119
 30
0.0
 11
0.0
 21
2.0
 31
0.0
 40
0.0174550649
 41
-1.5707963268
 42
-0.5235987756
  0
ELLIPSE
  5
7CC
100
AcDbEntity
  8
IMPORT_IGES
100
AcDbEllipse
 62
7
  6
CONTINUOUS
 10
53.9942972446
 20
112.5592322024
 30
0.0
 11
2.0
 21
-0.0
 31
0.0
 40
0.0174550649
 41
0.5235987756
 42
1.5707963268
  0
ELLIPSE
  5
7CD
100
AcDbEntity
  8
IMPORT_IGES
100
AcDbEllipse
 62
7
  6
CONTINUOUS
 10
-53.9942972446
 20
112.5592322024
 30
0.0
 11
2.0
 21
-0.0
 31
0.0
 40
0.0174550649
 41
1.5707963268
 42
2.617993878
  0
ELLIPSE
  5
7CE
100
AcDbEntity
  8
IMPORT_IGES
100
AcDbEllipse
 62
7
  6
CONTINUOUS
 10
41.4825449351
 20
-82.1676099773
 30
0.0
 11
-0.0
 21
2.0
 31
0.0
 40
0.0174550649
 41
-2.617993878
 42
-1.5707963268
  0
ELLIPSE
  5
7CF
100
AcDbEntity
  8
IMPORT_IGES
100
AcDbEllipse
 62
7
  6
CONTINUOUS
 10
41.4825449351
 20
124.3209845119
 30
0.0
 11
0.0
 21
2.0
 31
0.0
 40
0.0174550649
 41
-1.5707963268
 42
-0.5235987756
  0
ELLIPSE
  5
7D0
100
AcDbEntity
  8
IMPORT_IGES
100
AcDbEllipse
 62
7
  6
CONTINUOUS
 10
-53.9942972446
 20
0.5941423323
 30
0.0
 11
2.0
 21
-0.0
 31
0.0
 40
0.0174550649
 41
-2.617993878
 42
-1.5707963268
  0
ELLIPSE
  5
7D1
100
AcDbEntity
  8
IMPORT_IGES
100
AcDbEllipse
 62
7
  6
CONTINUOUS
 10
53.9942972446
 20
0.5941423323
 30
0.0
 11
2.0
 21
-0.0
 31
0.0
 40
0.0174550649
 41
-1.5707963268
 42
-0.5235987756
  0
ELLIPSE
  5
7D2
100
AcDbEntity
  8
IMPORT_IGES
100
AcDbEllipse
 62
7
  6
CONTINUOUS
 10
-41.4825449351
 20
124.3209845119
 30
0.0
 11
-0.0
 21
2.0
 31
0.0
 40
0.0174550649
 41
0.5235987756
 42
1.5707963268
  0
ELLIPSE
  5
7D3
100
AcDbEntity
  8
IMPORT_IGES
100
AcDbEllipse
 62
7
  6
CONTINUOUS
 10
-41.4825449351
 20
-82.1676099773
 30
0.0
 11
-0.0
 21
2.0
 31
0.0
 40
0.0174550649
 41
-4.7123889804
 42
-3.6651914292
  0
ELLIPSE
  5
7D4
100
AcDbEntity
  8
IMPORT_IGES
100
AcDbEllipse
 62
7
  6
CONTINUOUS
 10
12.530523726
 20
126.0876407933
 30
0.0
 11
0.0
 21
2.0
 31
0.0
 40
0.0699268119
 41
-1.5707963268
 42
-0.0174532925
  0
ELLIPSE
  5
7D5
100
AcDbEntity
  8
IMPORT_IGES
100
AcDbEllipse
 62
7
  6
CONTINUOUS
 10
53.9942972446
 20
-22.4407677976
 30
0.0
 11
2.0
 21
-0.0
 31
0.0
 40
0.0174550649
 41
0.5235987756
 42
1.5707963268
  0
ELLIPSE
  5
7D6
100
AcDbEntity
  8
IMPORT_IGES
100
AcDbEllipse
 62
7
  6
CONTINUOUS
 10
-53.9942972446
 20
-22.4407677976
 30
0.0
 11
2.0
 21
-0.0
 31
0.0
 40
0.0174550649
 41
1.5707963268
 42
2.617993878
  0
ELLIPSE
  5
7D7
100
AcDbEntity
  8
IMPORT_IGES
100
AcDbEllipse
 62
7
  6
CONTINUOUS
 10
-53.9942972446
 20
-21.4058576677
 30
0.0
 11
2.0
 21
-0.0
 31
0.0
 40
0.0174550649
 41
-2.617993878
 42
-1.5707963268
  0
ELLIPSE
  5
7D8
100
AcDbEntity
  8
IMPORT_IGES
100
AcDbEllipse
 62
7
  6
CONTINUOUS
 10
53.9942972446
 20
-21.4058576677
 30
0.0
 11
2.0
 21
-0.0
 31
0.0
 40
0.0174550649
 41
-1.5707963268
 42
-0.5235987756
  0
ELLIPSE
  5
7D9
100
AcDbEntity
  8
IMPORT_IGES
100
AcDbEllipse
 62
7
  6
CONTINUOUS
 10
-53.9942972446
 20
113.5941423323
 30
0.0
 11
2.0
 21
0.0
 31
0.0
 40
0.0174550649
 41
-2.617993878
 42
-1.5707963268
  0
ELLIPSE
  5
7DA
100
AcDbEntity
  8
IMPORT_IGES
100
AcDbEllipse
 62
7
  6
CONTINUOUS
 10
53.9942972446
 20
113.5941423323
 30
0.0
 11
2.0
 21
-0.0
 31
0.0
 40
0.0174550649
 41
-1.5707963268
 42
-0.5235987756
  0
ENDSEC
  0
SECTION
  2
OBJECTS
  0
DICTIONARY
  5
C
100
AcDbDictionary
280
0
281
1
  3
ACAD_GROUP
350
D
  3
ACAD_MLINESTYLE
350
17
  3
ACAD_LAYOUT
350
1A
  3
ACAD_PLOTSETTINGS
350
19
  3
ACAD_PLOTSTYLENAME
350
E
  0
DICTIONARY
  5
D
102
{ACAD_REACTORS
330
C
102
}
100
AcDbDictionary
280
0
281
1
  0
ACDBDICTIONARYWDFLT
  5
E
102
{ACAD_REACTORS
330
C
102
}
100
AcDbDictionary
281
1
  3
Normal
350
F
100
AcDbDictionaryWithDefault
340
F
  0
DICTIONARY
  5
17
102
{ACAD_REACTORS
330
C
102
}
100
AcDbDictionary
280
0
281
1
  3
Standard
350
18
  0
DICTIONARY
  5
19
102
{ACAD_REACTORS
330
C
102
}
100
AcDbDictionary
281
1
  0
DICTIONARY
  5
1A
102
{ACAD_REACTORS
330
C
102
}
100
AcDbDictionary
281
1
  3
Model
350
7DB
  3
Layout1
350
7DC
  0
ACDBPLACEHOLDER
  5
F
102
{ACAD_REACTORS
330
E
102
}
  0
MLINESTYLE
  5
18
102
{ACAD_REACTORS
330
17
102
}
100
AcDbMlineStyle
  2
STANDARD
 70
0
  3

 62
256
 51
90.0
 52
90.0
 71
2
 49
0.5
 62
256
  6
BYLAYER
 49
-0.5
 62
256
  6
BYLAYER
  0
LAYOUT
  5
7DB
102
{ACAD_REACTORS
330
1A
102
}
100
AcDbPlotSettings
  1

  2
none_device
  4
ISO_A3_(420.00_x_297.00_MM)
  6

 40
0.0
 41
0.0
 42
0.0
 43
0.0
 44
420.0
 45
297.0
 46
0.0
 47
0.0
 48
0.0
 49
0.0
140
0.0
141
0.0
142
1.0
143
1.0
 70
1024
 72
1
 73
0
 74
0
  7

 75
0
147
1.0
148
0.0
149
0.0
100
AcDbLayout
  1
Model
 70
0
 71
0
 10
0.0
 20
0.0
 11
420.0
 21
297.0
 12
0.0
 22
0.0
 32
0.0
 14
0.0
 24
0.0
 34
0.0
 15
0.0
 25
0.0
 35
0.0
146
0.0
 13
0.0
 23
0.0
 33
0.0
 16
1.0
 26
0.0
 36
0.0
 17
0.0
 27
1.0
 37
0.0
 76
0
330
213
345
0
346
0
  0
LAYOUT
  5
7DC
102
{ACAD_REACTORS
330
1A
102
}
100
AcDbPlotSettings
  1

  2
none_device
  4
ISO_A3_(420.00_x_297.00_MM)
  6

 40
0.0
 41
0.0
 42
0.0
 43
0.0
 44
420.0
 45
297.0
 46
0.0
 47
0.0
 48
0.0
 49
0.0
140
0.0
141
0.0
142
1.0
143
1.0
 70
0
 72
1
 73
0
 74
0
  7

 75
0
147
1.0
148
0.0
149
0.0
100
AcDbLayout
  1
Layout1
 70
0
 71
1
 10
0.0
 20
0.0
 11
420.0
 21
297.0
 12
0.0
 22
0.0
 32
0.0
 14
0.0
 24
0.0
 34
0.0
 15
0.0
 25
0.0
 35
0.0
146
0.0
 13
0.0
 23
0.0
 33
0.0
 16
1.0
 26
0.0
 36
0.0
 17
0.0
 27
1.0
 37
0.0
 76
0
330
214
345
0
346
0
  0
ENDSEC
  0
EOF
