  0
SECTION
  2
HEADER
  9
$ACADVER
  1
AC1024
  9
$DWGCODEPAGE
  3
ANSI_1252
  9
$EXTMAX
 10
558.8
 20
431.8
 30
0.0
  9
$EXTMIN
 10
0.0
 20
0.0
 30
0.0
  9
$LIMMIN
 10
0.0
 20
0.0
  9
$LIMMAX
 10
558.8
 20
431.8
  9
$VIEWCTR
 10
279.4
 20
215.9
  9
$VIEWSIZE
 40
431.8
  9
$CLAYER
  8
0
  9
$LTSCALE
 40
30.734
  9
$CELTYPE
  6
BYLAYER
  9
$DIMSCALE
 40
1.0
  9
$DIMASZ
 40
3.0
  9
$DIMEXO
 40
0.5
  9
$DIMDLI
 40
21.2344
  9
$DIMEXE
 40
1.5
  9
$DIMCEN
 40
5.0292
  9
$DIMLFAC
 40
1.0
  9
$DIMBLK
  1
_FILLED
  9
$DIMALT
 70
0
  9
$DIMALTF
 40
0.0393700787
  9
$DIMTXT
 40
3.0
  9
$DIMTOL
 70
1
  9
$DIMLIM
 70
0
  9
$DIMTFAC
 40
1.0
  9
$DIMTP
 40
0.01
  9
$DIMTM
 40
0.01
  9
$DIMGAP
 40
0.625
  9
$DIMDSEP
 70
44
  9
$AUNITS
 70
0
  9
$PDMODE
 70
3
  9
$PDSIZE
 40
3.0
  9
$HANDSEED
  5
793
  9
$TILEMODE
 70
1
  9
$MEASUREMENT
 70
1
  9
$INSUNITS
 70
4
  0
ENDSEC
  0
SECTION
  2
CLASSES
  0
CLASS
  1
ACDBDICTIONARYWDFLT
  2
AcDbDictionaryWithDefault
  3
AutoCAD 2000
 90
0
 91
1
280
0
281
0
  0
CLASS
  1
ACDBPLACEHOLDER
  2
AcDbPlaceHolder
  3
AutoCAD 2000
 90
0
 91
1
280
0
281
0
  0
CLASS
  1
LAYOUT
  2
AcDbLayout
  3
AutoCAD 2000
 90
0
 91
0
280
0
281
0
  0
ENDSEC
  0
SECTION
  2
TABLES
  0
TABLE
  2
VPORT
  5
8
100
AcDbSymbolTable
 70
2
  0
VPORT
  5
1F4
100
AcDbSymbolTableRecord
100
AcDbViewportTableRecord
  2
*ACTIVE
 70
0
 10
0.0
 20
0.0
 11
1.0
 21
1.0
 12
279.4
 22
215.9
 13
0.0
 23
0.0
 14
1.0
 24
1.0
 15
0.0
 25
0.0
 16
0.0
 26
0.0
 36
1.0
 17
0.0
 27
0.0
 37
0.0
 40
431.8
 41
1.2941176471
 42
50.0
 43
0.0
 44
0.0
 50
0.0
 51
0.0
 71
0
 72
100
 73
1
 74
1
 75
0
 76
0
 77
0
 78
0
  0
ENDTAB
  0
TABLE
  2
LTYPE
  5
5
100
AcDbSymbolTable
 70
6
  0
LTYPE
  5
14
100
AcDbSymbolTableRecord
100
AcDbLinetypeTableRecord
  2
BYBLOCK
 70
0
  3

 72
65
 73
0
 40
0.0
  0
LTYPE
  5
15
100
AcDbSymbolTableRecord
100
AcDbLinetypeTableRecord
  2
BYLAYER
 70
0
  3

 72
65
 73
0
 40
0.0
  0
LTYPE
  5
16
100
AcDbSymbolTableRecord
100
AcDbLinetypeTableRecord
  2
CONTINUOUS
 70
64
  3
Solid line
 72
65
 73
0
 40
0.0
  0
LTYPE
  5
1F5
100
AcDbSymbolTableRecord
100
AcDbLinetypeTableRecord
  2
CENTER
 70
64
  3
____ _ ____ _ ____ _ ____ _ ____ _ ____ _ ____
 72
65
 73
4
 40
0.6
 49
0.375
 74
0
 49
-0.075
 74
0
 49
0.075
 74
0
 49
-0.075
 74
0
  0
LTYPE
  5
1F6
100
AcDbSymbolTableRecord
100
AcDbLinetypeTableRecord
  2
HIDDEN
 70
64
  3
- - - - - - - - - - - - - - - - - - - -
 72
65
 73
2
 40
0.2
 49
0.1
 74
0
 49
-0.1
 74
0
  0
LTYPE
  5
1F7
100
AcDbSymbolTableRecord
100
AcDbLinetypeTableRecord
  2
PHANTOM
 70
64
  3
_____ _ _ _____ _ _ _____ _ _ _____
 72
65
 73
6
 40
0.8
 49
0.45
 74
0
 49
-0.05
 74
0
 49
0.1
 74
0
 49
-0.05
 74
0
 49
0.1
 74
0
 49
-0.05
 74
0
  0
LTYPE
  5
1F8
100
AcDbSymbolTableRecord
100
AcDbLinetypeTableRecord
  2
DOT
 70
64
  3
. . . . . . . . . . . . . . . . . . . .
 72
65
 73
2
 40
0.2
 49
0.1
 74
0
 49
-0.1
 74
0
  0
LTYPE
  5
1F9
100
AcDbSymbolTableRecord
100
AcDbLinetypeTableRecord
  2
DASHED
 70
64
  3
- - - - - - - - - - - - - - - - - - - -
 72
65
 73
2
 40
0.2
 49
0.1
 74
0
 49
-0.1
 74
0
  0
ENDTAB
  0
TABLE
  2
LAYER
  5
2
100
AcDbSymbolTable
 70
36
  0
LAYER
  5
10
100
AcDbSymbolTableRecord
100
AcDbLayerTableRecord
  2
0
 70
0
 62
7
  6
CONTINUOUS
370
-3
390
F
  0
LAYER
  5
1FA
100
AcDbSymbolTableRecord
100
AcDbLayerTableRecord
  2
DEFAULT_1
 70
0
 62
7
  6
CENTER
370
-3
390
F
  0
LAYER
  5
1FB
100
AcDbSymbolTableRecord
100
AcDbLayerTableRecord
  2
DEFAULT_2
 70
0
 62
7
  6
HIDDEN
370
-3
390
F
  0
LAYER
  5
1FC
100
AcDbSymbolTableRecord
100
AcDbLayerTableRecord
  2
DEFAULT_3
 70
0
 62
7
  6
PHANTOM
370
-3
390
F
  0
LAYER
  5
1FD
100
AcDbSymbolTableRecord
100
AcDbLayerTableRecord
  2
ASSI
 70
0
 62
7
  6
CONTINUOUS
370
-3
390
F
  0
LAYER
  5
1FE
100
AcDbSymbolTableRecord
100
AcDbLayerTableRecord
  2
COLOR5
 70
0
 62
7
  6
CONTINUOUS
370
-3
390
F
  0
LAYER
  5
1FF
100
AcDbSymbolTableRecord
100
AcDbLayerTableRecord
  2
COORDINATE
 70
0
 62
7
  6
CONTINUOUS
370
-3
390
F
  0
LAYER
  5
200
100
AcDbSymbolTableRecord
100
AcDbLayerTableRecord
  2
COORD_ORIGINE
 70
0
 62
7
  6
CONTINUOUS
370
-3
390
F
  0
LAYER
  5
201
100
AcDbSymbolTableRecord
100
AcDbLayerTableRecord
  2
COPY_PUBLISH
 70
0
 62
7
  6
CONTINUOUS
370
-3
390
F
  0
LAYER
  5
202
100
AcDbSymbolTableRecord
100
AcDbLayerTableRecord
  2
COSMETICI
 70
0
 62
7
  6
CONTINUOUS
370
-3
390
F
  0
LAYER
  5
203
100
AcDbSymbolTableRecord
100
AcDbLayerTableRecord
  2
CURVE
 70
0
 62
7
  6
CONTINUOUS
370
-3
390
F
  0
LAYER
  5
204
100
AcDbSymbolTableRecord
100
AcDbLayerTableRecord
  2
DRAFT
 70
0
 62
7
  6
CONTINUOUS
370
-3
390
F
  0
LAYER
  5
205
100
AcDbSymbolTableRecord
100
AcDbLayerTableRecord
  2
IMPORT_IGES
 70
0
 62
7
  6
CONTINUOUS
370
-3
390
F
  0
LAYER
  5
206
100
AcDbSymbolTableRecord
100
AcDbLayerTableRecord
  2
INTF_1
 70
0
 62
7
  6
CONTINUOUS
370
-3
390
F
  0
LAYER
  5
207
100
AcDbSymbolTableRecord
100
AcDbLayerTableRecord
  2
INTF_11
 70
0
 62
7
  6
CONTINUOUS
370
-3
390
F
  0
LAYER
  5
208
100
AcDbSymbolTableRecord
100
AcDbLayerTableRecord
  2
INTF_12
 70
0
 62
7
  6
CONTINUOUS
370
-3
390
F
  0
LAYER
  5
209
100
AcDbSymbolTableRecord
100
AcDbLayerTableRecord
  2
INTF_2
 70
0
 62
7
  6
CONTINUOUS
370
-3
390
F
  0
LAYER
  5
20A
100
AcDbSymbolTableRecord
100
AcDbLayerTableRecord
  2
INTF_3
 70
0
 62
7
  6
CONTINUOUS
370
-3
390
F
  0
LAYER
  5
20B
100
AcDbSymbolTableRecord
100
AcDbLayerTableRecord
  2
INTF_4
 70
0
 62
7
  6
CONTINUOUS
370
-3
390
F
  0
LAYER
  5
20C
100
AcDbSymbolTableRecord
100
AcDbLayerTableRecord
  2
NOTE
 70
0
 62
7
  6
CONTINUOUS
370
-3
390
F
  0
LAYER
  5
20D
100
AcDbSymbolTableRecord
100
AcDbLayerTableRecord
  2
PIANI
 70
0
 62
7
  6
CONTINUOUS
370
-3
390
F
  0
LAYER
  5
20E
100
AcDbSymbolTableRecord
100
AcDbLayerTableRecord
  2
PIANI_ORIGINE
 70
0
 62
7
  6
CONTINUOUS
370
-3
390
F
  0
LAYER
  5
20F
100
AcDbSymbolTableRecord
100
AcDbLayerTableRecord
  2
PUNTI
 70
0
 62
7
  6
CONTINUOUS
370
-3
390
F
  0
LAYER
  5
210
100
AcDbSymbolTableRecord
100
AcDbLayerTableRecord
  2
RACCORDO
 70
0
 62
7
  6
CONTINUOUS
370
-3
390
F
  0
LAYER
  5
211
100
AcDbSymbolTableRecord
100
AcDbLayerTableRecord
  2
RGB__255__255__255__
 70
0
 62
7
  6
CONTINUOUS
370
-3
390
F
  0
LAYER
  5
212
100
AcDbSymbolTableRecord
100
AcDbLayerTableRecord
  2
RGB____0____0____0__
 70
0
 62
7
  6
CONTINUOUS
370
-3
390
F
  0
LAYER
  5
213
100
AcDbSymbolTableRecord
100
AcDbLayerTableRecord
  2
SIMBOLI
 70
0
 62
7
  6
CONTINUOUS
370
-3
390
F
  0
LAYER
  5
214
100
AcDbSymbolTableRecord
100
AcDbLayerTableRecord
  2
SMUSSO
 70
0
 62
7
  6
CONTINUOUS
370
-3
390
F
  0
LAYER
  5
215
100
AcDbSymbolTableRecord
100
AcDbLayerTableRecord
  2
SNAPLINE
 70
0
 62
7
  6
CONTINUOUS
370
-3
390
F
  0
LAYER
  5
216
100
AcDbSymbolTableRecord
100
AcDbLayerTableRecord
  2
SUPERFICI
 70
0
 62
7
  6
CONTINUOUS
370
-3
390
F
  0
LAYER
  5
217
100
AcDbSymbolTableRecord
100
AcDbLayerTableRecord
  2
TRASH
 70
0
 62
7
  6
CONTINUOUS
370
-3
390
F
  0
ENDTAB
  0
TABLE
  2
STYLE
  5
3
100
AcDbSymbolTable
 70
1
  0
STYLE
  5
11
100
AcDbSymbolTableRecord
100
AcDbTextStyleTableRecord
  2
STANDARD
 70
0
 40
0.0
 41
0.8
 50
0.0
 71
0
 42
0.2
  3
txt
  4

  0
STYLE
  5
218
100
AcDbSymbolTableRecord
100
AcDbTextStyleTableRecord
  2
TEXTSTYLE_1
 70
0
 40
0.0
 41
0.8
 50
0.0
 71
0
 42
0.2
  3
gdt
  4

  0
ENDTAB
  0
TABLE
  2
VIEW
  5
6
100
AcDbSymbolTable
 70
0
  0
ENDTAB
  0
TABLE
  2
UCS
  5
7
100
AcDbSymbolTable
 70
0
  0
ENDTAB
  0
TABLE
  2
APPID
  5
9
100
AcDbSymbolTable
 70
1
  0
APPID
  5
219
100
AcDbSymbolTableRecord
100
AcDbRegAppTableRecord
  2
ACAD
 70
0
  0
ENDTAB
  0
TABLE
  2
BLOCK_RECORD
  5
1
100
AcDbSymbolTable
 70
0
  0
BLOCK_RECORD
  5
21A
100
AcDbSymbolTableRecord
100
AcDbBlockTableRecord
  2
*Model_Space
  0
BLOCK_RECORD
  5
21B
100
AcDbSymbolTableRecord
100
AcDbBlockTableRecord
  2
*Paper_Space
  0
BLOCK_RECORD
  5
21C
100
AcDbSymbolTableRecord
100
AcDbBlockTableRecord
  2
_FILLED
  0
ENDTAB
  0
TABLE
  2
DIMSTYLE
  5
A
100
AcDbSymbolTable
 70
1
100
AcDbDimStyleTable
 71
0
  0
DIMSTYLE
105
21D
100
AcDbSymbolTableRecord
100
AcDbDimStyleTableRecord
  2
STANDARD
 70
0
  3

  4

 40
1.0
 41
3.0
 42
0.5
 43
0.38
 44
1.5
 45
0.0
 46
0.0
 47
0.01
 48
0.01
140
3.0
141
0.09
142
0.0
143
25.4
144
1.0
145
0.0
146
1.0
147
0.625
 71
1
 72
0
 73
0
 74
0
 75
0
 76
0
 77
1
 78
8
 79
2
170
0
171
1
172
0
173
0
174
0
175
0
176
0
177
0
178
0
270
2
179
2
271
2
272
2
273
2
274
2
275
0
280
0
281
0
282
0
283
1
284
8
285
0
286
0
287
3
288
0
340
11
278
44
341
21C
342
21C
343
21C
344
21C
  0
ENDTAB
  0
ENDSEC
  0
SECTION
  2
BLOCKS
  0
BLOCK
  5
20
100
AcDbEntity
  8
0
100
AcDbBlockBegin
  2
*Model_Space
 70
0
 10
0.0
 20
0.0
 30
0.0
  3
*Model_Space
  1

  0
ENDBLK
  5
21
100
AcDbEntity
  8
0
100
AcDbBlockEnd
  0
BLOCK
  5
1C
100
AcDbEntity
  8
0
100
AcDbBlockBegin
  2
*Paper_Space
 70
0
 10
0.0
 20
0.0
 30
0.0
  3
*Paper_Space
  1

  0
ENDBLK
  5
1D
100
AcDbEntity
  8
0
100
AcDbBlockEnd
  0
BLOCK
  5
21E
100
AcDbEntity
  8
0
100
AcDbBlockBegin
  2
_FILLED
 70
64
 10
0.0
 20
0.0
  3
_FILLED
  1

  0
SOLID
  5
21F
100
AcDbEntity
  8
0
  6
BYBLOCK
 62
0
100
AcDbTrace
 10
0.0
 20
0.0
 11
-1.0
 21
0.3166666667
 12
-1.0
 22
-0.3166666667
 13
-1.0
 23
-0.3166666667
  0
ENDBLK
  5
220
100
AcDbEntity
  8
0
  6
BYBLOCK
 62
0
100
AcDbBlockEnd
  0
ENDSEC
  0
SECTION
  2
ENTITIES
  0
LINE
  5
221
100
AcDbEntity
  8
DRAFT
100
AcDbLine
 62
7
  6
CONTINUOUS
 10
-105.0384128464
 20
9.3
 11
-105.0384128464
 21
-3.7
  0
LINE
  5
222
100
AcDbEntity
  8
RACCORDO
100
AcDbLine
 62
7
  6
CONTINUOUS
 10
-104.9615871536
 20
53.5500571154
 11
-104.9615871536
 21
9.3
  0
LINE
  5
223
100
AcDbEntity
  8
RACCORDO
100
AcDbLine
 62
7
  6
CONTINUOUS
 10
-104.9615871536
 20
-3.7
 11
-104.9615871536
 21
-47.9500571154
  0
LINE
  5
224
100
AcDbEntity
  8
RACCORDO
100
AcDbLine
 62
250
  6
CONTINUOUS
 10
-104.6797835631
 20
-17.1826224212
 11
-104.6797835631
 21
22.7826224212
  0
LINE
  5
225
100
AcDbEntity
  8
RACCORDO
100
AcDbLine
 62
250
  6
CONTINUOUS
 10
-104.4702589461
 20
-17.2349836279
 11
-104.4702589461
 21
-46.9598901385
  0
LINE
  5
226
100
AcDbEntity
  8
RACCORDO
100
AcDbLine
 62
250
  6
CONTINUOUS
 10
-104.4702589461
 20
22.8349836279
 11
-104.4702589461
 21
52.5598901385
  0
LINE
  5
227
100
AcDbEntity
  8
RACCORDO
100
AcDbLine
 62
7
  6
CONTINUOUS
 10
-103.7615871536
 20
38.35
 11
-103.7615871536
 21
29.35
  0
LINE
  5
228
100
AcDbEntity
  8
RACCORDO
100
AcDbLine
 62
250
  6
CONTINUOUS
 10
-103.2615871536
 20
38.85
 11
-103.2615871536
 21
28.85
  0
LINE
  5
229
100
AcDbEntity
  8
RACCORDO
100
AcDbLine
 62
7
  6
CONTINUOUS
 10
-102.9615871536
 20
9.55
 11
-102.9615871536
 21
-3.95
  0
LINE
  5
22A
100
AcDbEntity
  8
RACCORDO
100
AcDbLine
 62
250
  6
CONTINUOUS
 10
-102.8615871536
 20
28.85
 11
-102.8615871536
 21
38.85
  0
LINE
  5
22B
100
AcDbEntity
  8
RACCORDO
100
AcDbLine
 62
250
  6
CONTINUOUS
 10
-102.681001909
 20
-15.2011972268
 11
-102.681001909
 21
-3.95
  0
LINE
  5
22C
100
AcDbEntity
  8
RACCORDO
100
AcDbLine
 62
250
  6
CONTINUOUS
 10
-102.681001909
 20
9.55
 11
-102.681001909
 21
20.8011972268
  0
LINE
  5
22D
100
AcDbEntity
  8
DRAFT
100
AcDbLine
 62
7
  6
CONTINUOUS
 10
-102.4790408891
 20
20.8
 11
-102.4790408891
 21
17.7
  0
LINE
  5
22E
100
AcDbEntity
  8
RACCORDO
100
AcDbLine
 62
250
  6
CONTINUOUS
 10
-102.4714772921
 20
29.0372472287
 11
-102.4714772921
 21
20.8350597818
  0
LINE
  5
22F
100
AcDbEntity
  8
RACCORDO
100
AcDbLine
 62
250
  6
CONTINUOUS
 10
-102.4714772921
 20
-15.2350597818
 11
-102.4714772921
 21
-48.9586717926
  0
LINE
  5
230
100
AcDbEntity
  8
RACCORDO
100
AcDbLine
 62
250
  6
CONTINUOUS
 10
-102.4714772921
 20
38.6627527713
 11
-102.4714772921
 21
54.5586717926
  0
LINE
  5
231
100
AcDbEntity
  8
RACCORDO
100
AcDbLine
 62
7
  6
CONTINUOUS
 10
-102.4057847241
 20
-3.95
 11
-102.4057847241
 21
-3.7
  0
LINE
  5
232
100
AcDbEntity
  8
RACCORDO
100
AcDbLine
 62
7
  6
CONTINUOUS
 10
-102.4057847241
 20
9.3
 11
-102.4057847241
 21
9.55
  0
LINE
  5
233
100
AcDbEntity
  8
RACCORDO
100
AcDbLine
 62
7
  6
CONTINUOUS
 10
-102.4057847241
 20
17.7
 11
-102.4057847241
 21
20.768583276
  0
LINE
  5
234
100
AcDbEntity
  8
RACCORDO
100
AcDbLine
 62
7
  6
CONTINUOUS
 10
-102.3615871536
 20
29.35
 11
-102.3615871536
 21
38.35
  0
LINE
  5
235
100
AcDbEntity
  8
RACCORDO
100
AcDbLine
 62
7
  6
CONTINUOUS
 10
-102.0615871536
 20
18.1
 11
-102.0615871536
 21
22.8349836279
  0
LINE
  5
236
100
AcDbEntity
  8
DRAFT
100
AcDbLine
 62
7
  6
CONTINUOUS
 10
-101.9615871536
 20
-3.95
 11
-101.9615871536
 21
-3.7
  0
LINE
  5
237
100
AcDbEntity
  8
DRAFT
100
AcDbLine
 62
7
  6
CONTINUOUS
 10
-101.9615871536
 20
9.3
 11
-101.9615871536
 21
9.55
  0
LINE
  5
238
100
AcDbEntity
  8
DRAFT
100
AcDbLine
 62
7
  6
CONTINUOUS
 10
-101.9615871536
 20
17.7
 11
-101.9615871536
 21
18.1
  0
LINE
  5
239
100
AcDbEntity
  8
DRAFT
100
AcDbLine
 62
7
  6
CONTINUOUS
 10
-100.9615871536
 20
-53.45
 11
-100.9615871536
 21
-51.95
  0
LINE
  5
23A
100
AcDbEntity
  8
0
100
AcDbLine
 62
7
  6
CONTINUOUS
 10
-100.1615871536
 20
9.3
 11
-100.1615871536
 21
-3.7
  0
LINE
  5
23B
100
AcDbEntity
  8
0
100
AcDbLine
 62
7
  6
CONTINUOUS
 10
-99.9615871536
 20
-3.95
 11
-99.9615871536
 21
9.55
  0
LINE
  5
23C
100
AcDbEntity
  8
DRAFT
100
AcDbLine
 62
7
  6
CONTINUOUS
 10
-99.5143073399
 20
31.45
 11
-99.5143073399
 21
36.25
  0
LINE
  5
23D
100
AcDbEntity
  8
RACCORDO
100
AcDbLine
 62
7
  6
CONTINUOUS
 10
-99.3615871536
 20
-34.7
 11
-99.3615871536
 21
-42.7
  0
LINE
  5
23E
100
AcDbEntity
  8
DRAFT
100
AcDbLine
 62
7
  6
CONTINUOUS
 10
-99.3615871536
 20
31.45
 11
-99.3615871536
 21
36.25
  0
LINE
  5
23F
100
AcDbEntity
  8
RACCORDO
100
AcDbLine
 62
250
  6
CONTINUOUS
 10
-98.8615871536
 20
-34.2
 11
-98.8615871536
 21
-43.2
  0
LINE
  5
240
100
AcDbEntity
  8
DRAFT
100
AcDbLine
 62
7
  6
CONTINUOUS
 10
-98.4615871536
 20
-51.95
 11
-98.4615871536
 21
-49.45
  0
LINE
  5
241
100
AcDbEntity
  8
RACCORDO
100
AcDbLine
 62
250
  6
CONTINUOUS
 10
-98.4615871536
 20
-43.2
 11
-98.4615871536
 21
-34.2
  0
LINE
  5
242
100
AcDbEntity
  8
RACCORDO
100
AcDbLine
 62
7
  6
CONTINUOUS
 10
-97.9615871536
 20
-42.7
 11
-97.9615871536
 21
-34.7
  0
LINE
  5
243
100
AcDbEntity
  8
DRAFT
100
AcDbLine
 62
7
  6
CONTINUOUS
 10
-96.9615871536
 20
-49.45
 11
-96.9615871536
 21
-53.45
  0
LINE
  5
244
100
AcDbEntity
  8
DRAFT
100
AcDbLine
 62
7
  6
CONTINUOUS
 10
-94.1615871536
 20
36.25
 11
-94.1615871536
 21
31.45
  0
LINE
  5
245
100
AcDbEntity
  8
RACCORDO
100
AcDbLine
 62
7
  6
CONTINUOUS
 10
-94.0615871536
 20
18.1
 11
-94.0615871536
 21
22.8349836279
  0
LINE
  5
246
100
AcDbEntity
  8
DRAFT
100
AcDbLine
 62
7
  6
CONTINUOUS
 10
-94.0088669672
 20
36.25
 11
-94.0088669672
 21
31.45
  0
LINE
  5
247
100
AcDbEntity
  8
DRAFT
100
AcDbLine
 62
7
  6
CONTINUOUS
 10
-93.6615871536
 20
20.8
 11
-93.6615871536
 21
17.7
  0
LINE
  5
248
100
AcDbEntity
  8
RACCORDO
100
AcDbLine
 62
7
  6
CONTINUOUS
 10
-91.1615871536
 20
38.35
 11
-91.1615871536
 21
29.35
  0
LINE
  5
249
100
AcDbEntity
  8
RACCORDO
100
AcDbLine
 62
250
  6
CONTINUOUS
 10
-90.6615871536
 20
38.85
 11
-90.6615871536
 21
28.85
  0
LINE
  5
24A
100
AcDbEntity
  8
RACCORDO
100
AcDbLine
 62
250
  6
CONTINUOUS
 10
-90.2615871536
 20
28.85
 11
-90.2615871536
 21
38.85
  0
LINE
  5
24B
100
AcDbEntity
  8
RACCORDO
100
AcDbLine
 62
7
  6
CONTINUOUS
 10
-89.7615871536
 20
29.35
 11
-89.7615871536
 21
38.35
  0
LINE
  5
24C
100
AcDbEntity
  8
DRAFT
100
AcDbLine
 62
7
  6
CONTINUOUS
 10
-82.4615871536
 20
25.7
 11
-82.4572127204
 21
25.65
  0
LINE
  5
24D
100
AcDbEntity
  8
0
100
AcDbLine
 62
7
  6
CONTINUOUS
 10
-83.9615871536
 20
-32.25
 11
-83.9615871536
 21
-20.05
  0
LINE
  5
24E
100
AcDbEntity
  8
0
100
AcDbLine
 62
7
  6
CONTINUOUS
 10
-83.9615871536
 20
25.65
 11
-83.9615871536
 21
37.85
  0
LINE
  5
24F
100
AcDbEntity
  8
DRAFT
100
AcDbLine
 62
7
  6
CONTINUOUS
 10
-82.3481292315
 20
-32.25
 11
-82.3481292315
 21
-25.45
  0
LINE
  5
250
100
AcDbEntity
  8
0
100
AcDbLine
 62
7
  6
CONTINUOUS
 10
-81.9615871536
 20
37.85
 11
-81.9615871536
 21
25.65
  0
LINE
  5
251
100
AcDbEntity
  8
0
100
AcDbLine
 62
7
  6
CONTINUOUS
 10
-81.9615871536
 20
-20.05
 11
-81.9615871536
 21
-32.25
  0
LINE
  5
252
100
AcDbEntity
  8
0
100
AcDbLine
 62
7
  6
CONTINUOUS
 10
-78.9615871536
 20
-32.25
 11
-78.9615871536
 21
-20.05
  0
LINE
  5
253
100
AcDbEntity
  8
0
100
AcDbLine
 62
7
  6
CONTINUOUS
 10
-78.9615871536
 20
25.65
 11
-78.9615871536
 21
37.85
  0
LINE
  5
254
100
AcDbEntity
  8
DRAFT
100
AcDbLine
 62
7
  6
CONTINUOUS
 10
-82.4572127204
 20
-20.05
 11
-82.4615871536
 21
-20.1
  0
LINE
  5
255
100
AcDbEntity
  8
DRAFT
100
AcDbLine
 62
7
  6
CONTINUOUS
 10
-77.4615871536
 20
25.7
 11
-77.4572127204
 21
25.65
  0
LINE
  5
256
100
AcDbEntity
  8
ASSI
100
AcDbLine
 62
7
  6
CONTINUOUS
 10
-77.9846802844
 20
3.7031942447
 11
-77.9846802844
 21
1.8
  0
LINE
  5
257
100
AcDbEntity
  8
ASSI
100
AcDbLine
 62
7
  6
CONTINUOUS
 10
-77.7309210518
 20
1.8
 11
-77.7309210518
 21
3.7031942447
  0
LINE
  5
258
100
AcDbEntity
  8
DRAFT
100
AcDbLine
 62
7
  6
CONTINUOUS
 10
-77.3481292315
 20
-32.25
 11
-77.3481292315
 21
-25.45
  0
LINE
  5
259
100
AcDbEntity
  8
ASSI
100
AcDbLine
 62
7
  6
CONTINUOUS
 10
-77.3041441606
 20
3.7031942447
 11
-77.3041441606
 21
1.8
  0
LINE
  5
25A
100
AcDbEntity
  8
ASSI
100
AcDbLine
 62
7
  6
CONTINUOUS
 10
-77.0503849279
 20
1.8
 11
-77.0503849279
 21
3.4148314804
  0
LINE
  5
25B
100
AcDbEntity
  8
0
100
AcDbLine
 62
7
  6
CONTINUOUS
 10
-76.9615871536
 20
37.85
 11
-76.9615871536
 21
25.65
  0
LINE
  5
25C
100
AcDbEntity
  8
0
100
AcDbLine
 62
7
  6
CONTINUOUS
 10
-76.9615871536
 20
-20.05
 11
-76.9615871536
 21
-32.25
  0
LINE
  5
25D
100
AcDbEntity
  8
ASSI
100
AcDbLine
 62
7
  6
CONTINUOUS
 10
-75.7239162119
 20
3.3917624592
 11
-75.7239162119
 21
1.8
  0
LINE
  5
25E
100
AcDbEntity
  8
ASSI
100
AcDbLine
 62
7
  6
CONTINUOUS
 10
-75.4701569793
 20
1.8
 11
-75.4701569793
 21
3.7031942447
  0
LINE
  5
25F
100
AcDbEntity
  8
0
100
AcDbLine
 62
7
  6
CONTINUOUS
 10
-73.9615871536
 20
-32.25
 11
-73.9615871536
 21
-20.05
  0
LINE
  5
260
100
AcDbEntity
  8
0
100
AcDbLine
 62
7
  6
CONTINUOUS
 10
-73.9615871536
 20
25.65
 11
-73.9615871536
 21
37.85
  0
LINE
  5
261
100
AcDbEntity
  8
ASSI
100
AcDbLine
 62
7
  6
CONTINUOUS
 10
-73.2901344807
 20
3.7031942447
 11
-73.2901344807
 21
1.8
  0
LINE
  5
262
100
AcDbEntity
  8
ASSI
100
AcDbLine
 62
7
  6
CONTINUOUS
 10
-73.0363752481
 20
1.8
 11
-73.0363752481
 21
2.6420192719
  0
LINE
  5
263
100
AcDbEntity
  8
ASSI
100
AcDbLine
 62
7
  6
CONTINUOUS
 10
-73.0363752481
 20
2.8611749728
 11
-73.0363752481
 21
3.4840385438
  0
LINE
  5
264
100
AcDbEntity
  8
DRAFT
100
AcDbLine
 62
7
  6
CONTINUOUS
 10
-72.3481292315
 20
-32.25
 11
-72.3481292315
 21
-25.45
  0
LINE
  5
265
100
AcDbEntity
  8
0
100
AcDbLine
 62
7
  6
CONTINUOUS
 10
-71.9615871536
 20
37.85
 11
-71.9615871536
 21
25.65
  0
LINE
  5
266
100
AcDbEntity
  8
0
100
AcDbLine
 62
7
  6
CONTINUOUS
 10
-71.9615871536
 20
-20.05
 11
-71.9615871536
 21
-32.25
  0
LINE
  5
267
100
AcDbEntity
  8
DRAFT
100
AcDbLine
 62
7
  6
CONTINUOUS
 10
-77.4572127204
 20
-20.05
 11
-77.4615871536
 21
-20.1
  0
LINE
  5
268
100
AcDbEntity
  8
DRAFT
100
AcDbLine
 62
7
  6
CONTINUOUS
 10
-72.4572127204
 20
-20.05
 11
-72.4615871536
 21
-20.1
  0
LINE
  5
269
100
AcDbEntity
  8
ASSI
100
AcDbLine
 62
7
  6
CONTINUOUS
 10
-75.0087765563
 20
1.8
 11
-74.8081841396
 21
2.3767255287
  0
LINE
  5
26A
100
AcDbEntity
  8
ASSI
100
AcDbLine
 62
7
  6
CONTINUOUS
 10
-76.2856828699
 20
1.8
 11
-75.7239162119
 21
3.3917624592
  0
LINE
  5
26B
100
AcDbEntity
  8
ASSI
100
AcDbLine
 62
7
  6
CONTINUOUS
 10
-75.8003322784
 20
3.7031942447
 11
-76.2710844582
 21
2.3819521836
  0
LINE
  5
26C
100
AcDbEntity
  8
ASSI
100
AcDbLine
 62
7
  6
CONTINUOUS
 10
-74.735913175
 20
2.584346719
 11
-74.5302745089
 21
3.1399857509
  0
LINE
  5
26D
100
AcDbEntity
  8
ASSI
100
AcDbLine
 62
7
  6
CONTINUOUS
 10
-78.4691297285
 20
3.7031942447
 11
-78.9932289538
 21
2.3240994012
  0
LINE
  5
26E
100
AcDbEntity
  8
ASSI
100
AcDbLine
 62
7
  6
CONTINUOUS
 10
-74.5531633006
 20
3.7031942447
 11
-75.2765933362
 21
1.8
  0
LINE
  5
26F
100
AcDbEntity
  8
ASSI
100
AcDbLine
 62
7
  6
CONTINUOUS
 10
-78.9568231273
 20
1.8
 11
-78.1977081831
 21
3.7031942447
  0
LINE
  5
270
100
AcDbEntity
  8
ASSI
100
AcDbLine
 62
7
  6
CONTINUOUS
 10
-79.9615871536
 20
3.7031942447
 11
-79.229866738
 21
1.8
  0
LINE
  5
271
100
AcDbEntity
  8
ASSI
100
AcDbLine
 62
7
  6
CONTINUOUS
 10
-79.1976060135
 20
2.3240994012
 11
-79.6917878494
 21
3.7031942447
  0
LINE
  5
272
100
AcDbEntity
  8
ASSI
100
AcDbLine
 62
7
  6
CONTINUOUS
 10
-77.0503849279
 20
3.4148314804
 11
-76.5015944403
 21
1.8
  0
LINE
  5
273
100
AcDbEntity
  8
ASSI
100
AcDbLine
 62
7
  6
CONTINUOUS
 10
-76.4666304496
 20
2.3585227035
 11
-76.9173775094
 21
3.7031942447
  0
LINE
  5
274
100
AcDbEntity
  8
DRAFT
100
AcDbLine
 62
7
  6
CONTINUOUS
 10
-72.4615871536
 20
25.7
 11
-72.4572127204
 21
25.65
  0
LINE
  5
275
100
AcDbEntity
  8
DRAFT
100
AcDbLine
 62
7
  6
CONTINUOUS
 10
-67.4615871536
 20
25.7
 11
-67.4572127204
 21
25.65
  0
LINE
  5
276
100
AcDbEntity
  8
0
100
AcDbLine
 62
7
  6
CONTINUOUS
 10
-68.9615871536
 20
-32.25
 11
-68.9615871536
 21
-20.05
  0
LINE
  5
277
100
AcDbEntity
  8
0
100
AcDbLine
 62
7
  6
CONTINUOUS
 10
-68.9615871536
 20
25.65
 11
-68.9615871536
 21
37.85
  0
LINE
  5
278
100
AcDbEntity
  8
ASSI
100
AcDbLine
 62
7
  6
CONTINUOUS
 10
-68.8724169308
 20
3.7031942447
 11
-68.8724169308
 21
1.8
  0
LINE
  5
279
100
AcDbEntity
  8
ASSI
100
AcDbLine
 62
7
  6
CONTINUOUS
 10
-68.6186576982
 20
1.8
 11
-68.6186576982
 21
2.584346719
  0
LINE
  5
27A
100
AcDbEntity
  8
ASSI
100
AcDbLine
 62
7
  6
CONTINUOUS
 10
-68.6186576982
 20
2.80350242
 11
-68.6186576982
 21
3.4840385438
  0
LINE
  5
27B
100
AcDbEntity
  8
DRAFT
100
AcDbLine
 62
7
  6
CONTINUOUS
 10
-67.3481292315
 20
-32.25
 11
-67.3481292315
 21
-25.45
  0
LINE
  5
27C
100
AcDbEntity
  8
0
100
AcDbLine
 62
7
  6
CONTINUOUS
 10
-66.9615871536
 20
37.85
 11
-66.9615871536
 21
25.65
  0
LINE
  5
27D
100
AcDbEntity
  8
0
100
AcDbLine
 62
7
  6
CONTINUOUS
 10
-66.9615871536
 20
-20.05
 11
-66.9615871536
 21
-32.25
  0
LINE
  5
27E
100
AcDbEntity
  8
0
100
AcDbLine
 62
7
  6
CONTINUOUS
 10
-63.9615871536
 20
-32.25
 11
-63.9615871536
 21
-20.05
  0
LINE
  5
27F
100
AcDbEntity
  8
0
100
AcDbLine
 62
7
  6
CONTINUOUS
 10
-63.9615871536
 20
25.65
 11
-63.9615871536
 21
37.85
  0
LINE
  5
280
100
AcDbEntity
  8
ASSI
100
AcDbLine
 62
7
  6
CONTINUOUS
 10
-62.8167988794
 20
3.7031942447
 11
-62.8167988794
 21
1.8
  0
LINE
  5
281
100
AcDbEntity
  8
ASSI
100
AcDbLine
 62
7
  6
CONTINUOUS
 10
-62.5630396467
 20
1.8
 11
-62.5630396467
 21
3.7031942447
  0
LINE
  5
282
100
AcDbEntity
  8
DRAFT
100
AcDbLine
 62
7
  6
CONTINUOUS
 10
-62.3481292315
 20
-32.25
 11
-62.3481292315
 21
-25.45
  0
LINE
  5
283
100
AcDbEntity
  8
DRAFT
100
AcDbLine
 62
7
  6
CONTINUOUS
 10
-67.4572127204
 20
-20.05
 11
-67.4615871536
 21
-20.1
  0
LINE
  5
284
100
AcDbEntity
  8
ASSI
100
AcDbLine
 62
7
  6
CONTINUOUS
 10
-67.0614987707
 20
1.8
 11
-66.860906354
 21
2.3767255287
  0
LINE
  5
285
100
AcDbEntity
  8
ASSI
100
AcDbLine
 62
7
  6
CONTINUOUS
 10
-66.7886353894
 20
2.584346719
 11
-66.5829967233
 21
3.1399857509
  0
LINE
  5
286
100
AcDbEntity
  8
ASSI
100
AcDbLine
 62
7
  6
CONTINUOUS
 10
-66.605885515
 20
3.7031942447
 11
-67.3293155506
 21
1.8
  0
LINE
  5
287
100
AcDbEntity
  8
ASSI
100
AcDbLine
 62
7
  6
CONTINUOUS
 10
-73.5163189553
 20
1.8
 11
-74.27867803
 21
3.7031942447
  0
LINE
  5
288
100
AcDbEntity
  8
ASSI
100
AcDbLine
 62
7
  6
CONTINUOUS
 10
-74.2799396364
 20
3.1073647434
 11
-74.0750217122
 21
2.584346719
  0
LINE
  5
289
100
AcDbEntity
  8
ASSI
100
AcDbLine
 62
7
  6
CONTINUOUS
 10
-73.9984254162
 20
2.3767255287
 11
-73.7861184354
 21
1.8
  0
LINE
  5
28A
100
AcDbEntity
  8
DRAFT
100
AcDbLine
 62
7
  6
CONTINUOUS
 10
-62.4615871536
 20
25.7
 11
-62.4572127204
 21
25.65
  0
LINE
  5
28B
100
AcDbEntity
  8
DRAFT
100
AcDbLine
 62
7
  6
CONTINUOUS
 10
-57.4615871536
 20
25.7
 11
-57.4572127204
 21
25.65
  0
LINE
  5
28C
100
AcDbEntity
  8
0
100
AcDbLine
 62
7
  6
CONTINUOUS
 10
-61.9615871536
 20
37.85
 11
-61.9615871536
 21
25.65
  0
LINE
  5
28D
100
AcDbEntity
  8
0
100
AcDbLine
 62
7
  6
CONTINUOUS
 10
-61.9615871536
 20
-20.05
 11
-61.9615871536
 21
-32.25
  0
LINE
  5
28E
100
AcDbEntity
  8
ASSI
100
AcDbLine
 62
7
  6
CONTINUOUS
 10
-60.3599481271
 20
3.7031942447
 11
-60.3599481271
 21
1.8
  0
LINE
  5
28F
100
AcDbEntity
  8
ASSI
100
AcDbLine
 62
7
  6
CONTINUOUS
 10
-60.1061888944
 20
2.0191557009
 11
-60.1061888944
 21
3.7031942447
  0
LINE
  5
290
100
AcDbEntity
  8
ASSI
100
AcDbLine
 62
7
  6
CONTINUOUS
 10
-59.1603590273
 20
1.8
 11
-59.1603590273
 21
2.0191557009
  0
LINE
  5
291
100
AcDbEntity
  8
0
100
AcDbLine
 62
7
  6
CONTINUOUS
 10
-58.9615871536
 20
-32.25
 11
-58.9615871536
 21
-20.05
  0
LINE
  5
292
100
AcDbEntity
  8
0
100
AcDbLine
 62
7
  6
CONTINUOUS
 10
-58.9615871536
 20
25.65
 11
-58.9615871536
 21
37.85
  0
LINE
  5
293
100
AcDbEntity
  8
ASSI
100
AcDbLine
 62
7
  6
CONTINUOUS
 10
-58.8604617524
 20
3.7031942447
 11
-58.8604617524
 21
1.8
  0
LINE
  5
294
100
AcDbEntity
  8
ASSI
100
AcDbLine
 62
7
  6
CONTINUOUS
 10
-58.6067025198
 20
2.0191557009
 11
-58.6067025198
 21
2.6766228036
  0
LINE
  5
295
100
AcDbEntity
  8
ASSI
100
AcDbLine
 62
7
  6
CONTINUOUS
 10
-58.6067025198
 20
2.8957785045
 11
-58.6067025198
 21
3.4840385438
  0
LINE
  5
296
100
AcDbEntity
  8
ASSI
100
AcDbLine
 62
7
  6
CONTINUOUS
 10
-57.5685965681
 20
2.6766228036
 11
-57.5685965681
 21
2.8957785045
  0
LINE
  5
297
100
AcDbEntity
  8
ASSI
100
AcDbLine
 62
7
  6
CONTINUOUS
 10
-57.4993895047
 20
3.4840385438
 11
-57.4993895047
 21
3.7031942447
  0
LINE
  5
298
100
AcDbEntity
  8
ASSI
100
AcDbLine
 62
7
  6
CONTINUOUS
 10
-57.4532514624
 20
1.8
 11
-57.4532514624
 21
2.0191557009
  0
LINE
  5
299
100
AcDbEntity
  8
DRAFT
100
AcDbLine
 62
7
  6
CONTINUOUS
 10
-57.3481292315
 20
-32.25
 11
-57.3481292315
 21
-25.45
  0
LINE
  5
29A
100
AcDbEntity
  8
0
100
AcDbLine
 62
7
  6
CONTINUOUS
 10
-56.9615871536
 20
37.85
 11
-56.9615871536
 21
25.65
  0
LINE
  5
29B
100
AcDbEntity
  8
0
100
AcDbLine
 62
7
  6
CONTINUOUS
 10
-56.9615871536
 20
-20.05
 11
-56.9615871536
 21
-32.25
  0
LINE
  5
29C
100
AcDbEntity
  8
ASSI
100
AcDbLine
 62
7
  6
CONTINUOUS
 10
-54.5696238188
 20
3.7031942447
 11
-54.5696238188
 21
1.8
  0
LINE
  5
29D
100
AcDbEntity
  8
ASSI
100
AcDbLine
 62
7
  6
CONTINUOUS
 10
-54.3158645862
 20
1.8
 11
-54.3158645862
 21
3.7031942447
  0
LINE
  5
29E
100
AcDbEntity
  8
DRAFT
100
AcDbLine
 62
7
  6
CONTINUOUS
 10
-62.4572127204
 20
-20.05
 11
-62.4615871536
 21
-20.1
  0
LINE
  5
29F
100
AcDbEntity
  8
DRAFT
100
AcDbLine
 62
7
  6
CONTINUOUS
 10
-57.4572127204
 20
-20.05
 11
-57.4615871536
 21
-20.1
  0
LINE
  5
2A0
100
AcDbEntity
  8
ASSI
100
AcDbLine
 62
7
  6
CONTINUOUS
 10
-62.0555211815
 20
1.8
 11
-61.8549287648
 21
2.3767255287
  0
LINE
  5
2A1
100
AcDbEntity
  8
ASSI
100
AcDbLine
 62
7
  6
CONTINUOUS
 10
-61.7826578002
 20
2.584346719
 11
-61.5770191341
 21
3.1399857509
  0
LINE
  5
2A2
100
AcDbEntity
  8
ASSI
100
AcDbLine
 62
7
  6
CONTINUOUS
 10
-63.3012483235
 20
3.7031942447
 11
-63.8253475487
 21
2.3240994012
  0
LINE
  5
2A3
100
AcDbEntity
  8
ASSI
100
AcDbLine
 62
7
  6
CONTINUOUS
 10
-61.5999079258
 20
3.7031942447
 11
-62.3233379614
 21
1.8
  0
LINE
  5
2A4
100
AcDbEntity
  8
ASSI
100
AcDbLine
 62
7
  6
CONTINUOUS
 10
-63.7889417222
 20
1.8
 11
-63.029826778
 21
3.7031942447
  0
LINE
  5
2A5
100
AcDbEntity
  8
RACCORDO
100
AcDbLine
 62
7
  6
CONTINUOUS
 10
4.7384585379
 20
-55.05
 11
-4.661632845
 21
-55.05
  0
LINE
  5
2A6
100
AcDbEntity
  8
ASSI
100
AcDbLine
 62
7
  6
CONTINUOUS
 10
-72.187867715
 20
2.1955977196
 11
-71.9384339898
 21
1.8
  0
LINE
  5
2A7
100
AcDbEntity
  8
ASSI
100
AcDbLine
 62
7
  6
CONTINUOUS
 10
-71.6403390097
 20
1.8
 11
-71.9636657647
 21
2.3174310865
  0
LINE
  5
2A8
100
AcDbEntity
  8
ASSI
100
AcDbLine
 62
7
  6
CONTINUOUS
 10
-65.5690411697
 20
1.8
 11
-66.3314002444
 21
3.7031942447
  0
LINE
  5
2A9
100
AcDbEntity
  8
ASSI
100
AcDbLine
 62
7
  6
CONTINUOUS
 10
-60.5630635804
 20
1.8
 11
-61.3254226552
 21
3.7031942447
  0
LINE
  5
2AA
100
AcDbEntity
  8
ASSI
100
AcDbLine
 62
7
  6
CONTINUOUS
 10
-66.3326618508
 20
3.1073647434
 11
-66.1277439266
 21
2.584346719
  0
LINE
  5
2AB
100
AcDbEntity
  8
ASSI
100
AcDbLine
 62
7
  6
CONTINUOUS
 10
-61.3266842616
 20
3.1073647434
 11
-61.1217663374
 21
2.584346719
  0
LINE
  5
2AC
100
AcDbEntity
  8
ASSI
100
AcDbLine
 62
7
  6
CONTINUOUS
 10
-64.7937057485
 20
3.7031942447
 11
-64.0619853329
 21
1.8
  0
LINE
  5
2AD
100
AcDbEntity
  8
ASSI
100
AcDbLine
 62
7
  6
CONTINUOUS
 10
-66.0511476306
 20
2.3767255287
 11
-65.8388406498
 21
1.8
  0
LINE
  5
2AE
100
AcDbEntity
  8
ASSI
100
AcDbLine
 62
7
  6
CONTINUOUS
 10
-61.0451700414
 20
2.3767255287
 11
-60.8328630606
 21
1.8
  0
LINE
  5
2AF
100
AcDbEntity
  8
ASSI
100
AcDbLine
 62
7
  6
CONTINUOUS
 10
-64.0297246084
 20
2.3240994012
 11
-64.5239064443
 21
3.7031942447
  0
LINE
  5
2B0
100
AcDbEntity
  8
DRAFT
100
AcDbLine
 62
7
  6
CONTINUOUS
 10
-52.4615871536
 20
25.7
 11
-52.4572127204
 21
25.65
  0
LINE
  5
2B1
100
AcDbEntity
  8
0
100
AcDbLine
 62
7
  6
CONTINUOUS
 10
-53.9615871536
 20
-32.25
 11
-53.9615871536
 21
-20.05
  0
LINE
  5
2B2
100
AcDbEntity
  8
0
100
AcDbLine
 62
7
  6
CONTINUOUS
 10
-53.9615871536
 20
25.65
 11
-53.9615871536
 21
37.85
  0
LINE
  5
2B3
100
AcDbEntity
  8
DRAFT
100
AcDbLine
 62
7
  6
CONTINUOUS
 10
-52.3481292315
 20
-32.25
 11
-52.3481292315
 21
-25.45
  0
LINE
  5
2B4
100
AcDbEntity
  8
0
100
AcDbLine
 62
7
  6
CONTINUOUS
 10
-51.9615871536
 20
37.85
 11
-51.9615871536
 21
25.65
  0
LINE
  5
2B5
100
AcDbEntity
  8
0
100
AcDbLine
 62
7
  6
CONTINUOUS
 10
-51.9615871536
 20
-20.05
 11
-51.9615871536
 21
-32.25
  0
LINE
  5
2B6
100
AcDbEntity
  8
ASSI
100
AcDbLine
 62
7
  6
CONTINUOUS
 10
-51.9397554079
 20
3.7031942447
 11
-51.9397554079
 21
1.8
  0
LINE
  5
2B7
100
AcDbEntity
  8
ASSI
100
AcDbLine
 62
7
  6
CONTINUOUS
 10
-51.6859961753
 20
2.0191557009
 11
-51.6859961753
 21
2.6766228036
  0
LINE
  5
2B8
100
AcDbEntity
  8
ASSI
100
AcDbLine
 62
7
  6
CONTINUOUS
 10
-51.6859961753
 20
2.8957785045
 11
-51.6859961753
 21
3.4840385438
  0
LINE
  5
2B9
100
AcDbEntity
  8
ASSI
100
AcDbLine
 62
7
  6
CONTINUOUS
 10
-50.6478902236
 20
2.6766228036
 11
-50.6478902236
 21
2.8957785045
  0
LINE
  5
2BA
100
AcDbEntity
  8
ASSI
100
AcDbLine
 62
7
  6
CONTINUOUS
 10
-50.5786831601
 20
3.4840385438
 11
-50.5786831601
 21
3.7031942447
  0
LINE
  5
2BB
100
AcDbEntity
  8
ASSI
100
AcDbLine
 62
7
  6
CONTINUOUS
 10
-50.5325451178
 20
1.8
 11
-50.5325451178
 21
2.0191557009
  0
LINE
  5
2BC
100
AcDbEntity
  8
ASSI
100
AcDbLine
 62
7
  6
CONTINUOUS
 10
-50.17497529
 20
3.7031942447
 11
-50.17497529
 21
1.8
  0
LINE
  5
2BD
100
AcDbEntity
  8
ASSI
100
AcDbLine
 62
7
  6
CONTINUOUS
 10
-49.9212160574
 20
1.8
 11
-49.9212160574
 21
3.2596563641
  0
LINE
  5
2BE
100
AcDbEntity
  8
0
100
AcDbLine
 62
7
  6
CONTINUOUS
 10
-48.9615871536
 20
-32.25
 11
-48.9615871536
 21
-20.05
  0
LINE
  5
2BF
100
AcDbEntity
  8
0
100
AcDbLine
 62
7
  6
CONTINUOUS
 10
-48.9615871536
 20
25.65
 11
-48.9615871536
 21
37.85
  0
LINE
  5
2C0
100
AcDbEntity
  8
ASSI
100
AcDbLine
 62
7
  6
CONTINUOUS
 10
-48.9523171692
 20
3.7031942447
 11
-48.9523171692
 21
2.2435380567
  0
LINE
  5
2C1
100
AcDbEntity
  8
ASSI
100
AcDbLine
 62
7
  6
CONTINUOUS
 10
-48.6985579365
 20
1.8
 11
-48.6985579365
 21
3.7031942447
  0
LINE
  5
2C2
100
AcDbEntity
  8
ASSI
100
AcDbLine
 62
7
  6
CONTINUOUS
 10
-48.4332641933
 20
2.0283474043
 11
-48.4332641933
 21
1.8
  0
LINE
  5
2C3
100
AcDbEntity
  8
ASSI
100
AcDbLine
 62
7
  6
CONTINUOUS
 10
-48.3179190876
 20
3.7031942447
 11
-48.3179190876
 21
3.4840385438
  0
LINE
  5
2C4
100
AcDbEntity
  8
DRAFT
100
AcDbLine
 62
7
  6
CONTINUOUS
 10
-47.3481292315
 20
-32.25
 11
-47.3481292315
 21
-25.45
  0
LINE
  5
2C5
100
AcDbEntity
  8
ASSI
100
AcDbLine
 62
7
  6
CONTINUOUS
 10
-46.9683813504
 20
3.4840385438
 11
-46.9683813504
 21
3.7031942447
  0
LINE
  5
2C6
100
AcDbEntity
  8
0
100
AcDbLine
 62
7
  6
CONTINUOUS
 10
-46.9615871536
 20
37.85
 11
-46.9615871536
 21
25.65
  0
LINE
  5
2C7
100
AcDbEntity
  8
0
100
AcDbLine
 62
7
  6
CONTINUOUS
 10
-46.9615871536
 20
-20.05
 11
-46.9615871536
 21
-32.25
  0
LINE
  5
2C8
100
AcDbEntity
  8
ASSI
100
AcDbLine
 62
7
  6
CONTINUOUS
 10
-46.9222433081
 20
1.8
 11
-46.9222433081
 21
2.0191557009
  0
LINE
  5
2C9
100
AcDbEntity
  8
DRAFT
100
AcDbLine
 62
7
  6
CONTINUOUS
 10
-52.4572127204
 20
-20.05
 11
-52.4615871536
 21
-20.1
  0
LINE
  5
2CA
100
AcDbEntity
  8
ASSI
100
AcDbLine
 62
7
  6
CONTINUOUS
 10
-55.0540732629
 20
3.7031942447
 11
-55.5781724881
 21
2.3240994012
  0
LINE
  5
2CB
100
AcDbEntity
  8
ASSI
100
AcDbLine
 62
7
  6
CONTINUOUS
 10
-55.5417666616
 20
1.8
 11
-54.7826517175
 21
3.7031942447
  0
LINE
  5
2CC
100
AcDbEntity
  8
RACCORDO
100
AcDbLine
 62
7
  6
CONTINUOUS
 10
100.7384128464
 20
-53.45
 11
97.3384128464
 21
-53.45
  0
LINE
  5
2CD
100
AcDbEntity
  8
DRAFT
100
AcDbLine
 62
7
  6
CONTINUOUS
 10
-96.9615871536
 20
-53.45
 11
-100.9615871536
 21
-53.45
  0
LINE
  5
2CE
100
AcDbEntity
  8
DRAFT
100
AcDbLine
 62
7
  6
CONTINUOUS
 10
-2.6115871536
 20
-52.55
 11
2.6884128464
 21
-52.55
  0
LINE
  5
2CF
100
AcDbEntity
  8
DRAFT
100
AcDbLine
 62
7
  6
CONTINUOUS
 10
-100.9615871536
 20
-51.95
 11
-98.4615871536
 21
-51.95
  0
LINE
  5
2D0
100
AcDbEntity
  8
RACCORDO
100
AcDbLine
 62
7
  6
CONTINUOUS
 10
98.8384128464
 20
-51.95
 11
100.7384128464
 21
-51.95
  0
LINE
  5
2D1
100
AcDbEntity
  8
DRAFT
100
AcDbLine
 62
7
  6
CONTINUOUS
 10
2.6884128464
 20
-51.35
 11
-2.6115871536
 21
-51.35
  0
LINE
  5
2D2
100
AcDbEntity
  8
RACCORDO
100
AcDbLine
 62
7
  6
CONTINUOUS
 10
-4.9615871536
 20
-49.45
 11
-103.461644269
 21
-49.45
  0
LINE
  5
2D3
100
AcDbEntity
  8
RACCORDO
100
AcDbLine
 62
7
  6
CONTINUOUS
 10
5.0384128464
 20
-49.45
 11
103.5384699618
 21
-49.45
  0
LINE
  5
2D4
100
AcDbEntity
  8
RACCORDO
100
AcDbLine
 62
7
  6
CONTINUOUS
 10
7.2884128464
 20
-49.326973193
 11
5.0384128464
 21
-49.326973193
  0
LINE
  5
2D5
100
AcDbEntity
  8
RACCORDO
100
AcDbLine
 62
7
  6
CONTINUOUS
 10
-4.9615871536
 20
-49.326973193
 11
-7.2115871536
 21
-49.326973193
  0
LINE
  5
2D6
100
AcDbEntity
  8
RACCORDO
100
AcDbLine
 62
250
  6
CONTINUOUS
 10
50.5384128464
 20
-49.0983548705
 11
64.5384128464
 21
-49.0983548705
  0
LINE
  5
2D7
100
AcDbEntity
  8
RACCORDO
100
AcDbLine
 62
250
  6
CONTINUOUS
 10
-102.4714772921
 20
-48.9586717926
 11
-7.2115871536
 21
-48.9586717926
  0
LINE
  5
2D8
100
AcDbEntity
  8
RACCORDO
100
AcDbLine
 62
250
  6
CONTINUOUS
 10
102.548302985
 20
-48.9586717926
 11
64.5384128464
 21
-48.9586717926
  0
LINE
  5
2D9
100
AcDbEntity
  8
RACCORDO
100
AcDbLine
 62
250
  6
CONTINUOUS
 10
7.2884128464
 20
-48.9586717926
 11
50.5384128464
 21
-48.9586717926
  0
LINE
  5
2DA
100
AcDbEntity
  8
RACCORDO
100
AcDbLine
 62
7
  6
CONTINUOUS
 10
74.0384128464
 20
-47.1
 11
83.0384128464
 21
-47.1
  0
LINE
  5
2DB
100
AcDbEntity
  8
RACCORDO
100
AcDbLine
 62
250
  6
CONTINUOUS
 10
52.5371945005
 20
-47.0995732165
 11
62.5396311924
 21
-47.0995732165
  0
LINE
  5
2DC
100
AcDbEntity
  8
DRAFT
100
AcDbLine
 62
7
  6
CONTINUOUS
 10
5.2884128464
 20
-47.0037025486
 11
5.0384128464
 21
-47.0037025486
  0
LINE
  5
2DD
100
AcDbEntity
  8
DRAFT
100
AcDbLine
 62
7
  6
CONTINUOUS
 10
-4.9615871536
 20
-47.0037025486
 11
-5.2115871536
 21
-47.0037025486
  0
LINE
  5
2DE
100
AcDbEntity
  8
RACCORDO
100
AcDbLine
 62
250
  6
CONTINUOUS
 10
5.2884128464
 20
-46.9598901385
 11
52.5384128464
 21
-46.9598901385
  0
LINE
  5
2DF
100
AcDbEntity
  8
RACCORDO
100
AcDbLine
 62
250
  6
CONTINUOUS
 10
62.5384128464
 20
-46.9598901385
 11
73.6913118695
 21
-46.9598901385
  0
LINE
  5
2E0
100
AcDbEntity
  8
RACCORDO
100
AcDbLine
 62
250
  6
CONTINUOUS
 10
83.3855138234
 20
-46.9598901385
 11
104.547084639
 21
-46.9598901385
  0
LINE
  5
2E1
100
AcDbEntity
  8
RACCORDO
100
AcDbLine
 62
250
  6
CONTINUOUS
 10
-5.2115871536
 20
-46.9598901385
 11
-104.4702589461
 21
-46.9598901384
  0
LINE
  5
2E2
100
AcDbEntity
  8
RACCORDO
100
AcDbLine
 62
7
  6
CONTINUOUS
 10
5.5563620389
 20
-46.85
 11
-5.479536346
 21
-46.85
  0
LINE
  5
2E3
100
AcDbEntity
  8
RACCORDO
100
AcDbLine
 62
250
  6
CONTINUOUS
 10
73.5384128464
 20
-46.6
 11
83.5384128464
 21
-46.6
  0
LINE
  5
2E4
100
AcDbEntity
  8
ASSI
100
AcDbLine
 62
7
  6
CONTINUOUS
 10
-56.5465306879
 20
3.7031942447
 11
-55.8148102724
 21
1.8
  0
LINE
  5
2E5
100
AcDbEntity
  8
ASSI
100
AcDbLine
 62
7
  6
CONTINUOUS
 10
-55.7825495479
 20
2.3240994012
 11
-56.2767313838
 21
3.7031942447
  0
LINE
  5
2E6
100
AcDbEntity
  8
DRAFT
100
AcDbLine
 62
7
  6
CONTINUOUS
 10
-47.4615871536
 20
25.7
 11
-47.4572127204
 21
25.65
  0
LINE
  5
2E7
100
AcDbEntity
  8
DRAFT
100
AcDbLine
 62
7
  6
CONTINUOUS
 10
-42.4615871536
 20
25.7
 11
-42.4572127204
 21
25.65
  0
LINE
  5
2E8
100
AcDbEntity
  8
ASSI
100
AcDbLine
 62
7
  6
CONTINUOUS
 10
-44.0732191963
 20
3.2360466545
 11
-44.0732191963
 21
3.0096819505
  0
LINE
  5
2E9
100
AcDbEntity
  8
0
100
AcDbLine
 62
7
  6
CONTINUOUS
 10
-43.9615871536
 20
-32.25
 11
-43.9615871536
 21
-20.05
  0
LINE
  5
2EA
100
AcDbEntity
  8
0
100
AcDbLine
 62
7
  6
CONTINUOUS
 10
-43.9615871536
 20
25.65
 11
-43.9615871536
 21
37.85
  0
LINE
  5
2EB
100
AcDbEntity
  8
ASSI
100
AcDbLine
 62
7
  6
CONTINUOUS
 10
-43.6003042628
 20
3.2919169126
 11
-43.6003042628
 21
1.8
  0
LINE
  5
2EC
100
AcDbEntity
  8
ASSI
100
AcDbLine
 62
7
  6
CONTINUOUS
 10
-43.3696140513
 20
1.8
 11
-43.3696140513
 21
3.7147287553
  0
LINE
  5
2ED
100
AcDbEntity
  8
ASSI
100
AcDbLine
 62
7
  6
CONTINUOUS
 10
-42.8505610754
 20
2.4690016133
 11
-42.8505610754
 21
2.2498459124
  0
LINE
  5
2EE
100
AcDbEntity
  8
DRAFT
100
AcDbLine
 62
7
  6
CONTINUOUS
 10
-42.3481292315
 20
-32.25
 11
-42.3481292315
 21
-25.45
  0
LINE
  5
2EF
100
AcDbEntity
  8
ASSI
100
AcDbLine
 62
7
  6
CONTINUOUS
 10
-42.0085418035
 20
3.3182300643
 11
-42.0085418035
 21
2.4690016133
  0
LINE
  5
2F0
100
AcDbEntity
  8
ASSI
100
AcDbLine
 62
7
  6
CONTINUOUS
 10
-42.0085418035
 20
2.2498459124
 11
-42.0085418035
 21
1.8
  0
LINE
  5
2F1
100
AcDbEntity
  8
0
100
AcDbLine
 62
7
  6
CONTINUOUS
 10
-41.9615871536
 20
37.85
 11
-41.9615871536
 21
25.65
  0
LINE
  5
2F2
100
AcDbEntity
  8
0
100
AcDbLine
 62
7
  6
CONTINUOUS
 10
-41.9615871536
 20
-20.05
 11
-41.9615871536
 21
-32.25
  0
LINE
  5
2F3
100
AcDbEntity
  8
ASSI
100
AcDbLine
 62
7
  6
CONTINUOUS
 10
-41.777851592
 20
1.8
 11
-41.777851592
 21
2.2498459124
  0
LINE
  5
2F4
100
AcDbEntity
  8
ASSI
100
AcDbLine
 62
7
  6
CONTINUOUS
 10
-41.777851592
 20
2.4690016133
 11
-41.777851592
 21
3.7031942447
  0
LINE
  5
2F5
100
AcDbEntity
  8
ASSI
100
AcDbLine
 62
7
  6
CONTINUOUS
 10
-41.5240923594
 20
2.2498459124
 11
-41.5240923594
 21
2.4690016133
  0
LINE
  5
2F6
100
AcDbEntity
  8
0
100
AcDbLine
 62
7
  6
CONTINUOUS
 10
-38.9615871536
 20
-32.25
 11
-38.9615871536
 21
-20.05
  0
LINE
  5
2F7
100
AcDbEntity
  8
0
100
AcDbLine
 62
7
  6
CONTINUOUS
 10
-38.9615871536
 20
25.65
 11
-38.9615871536
 21
37.85
  0
LINE
  5
2F8
100
AcDbEntity
  8
DRAFT
100
AcDbLine
 62
7
  6
CONTINUOUS
 10
-47.4572127204
 20
-20.05
 11
-47.4615871536
 21
-20.1
  0
LINE
  5
2F9
100
AcDbEntity
  8
DRAFT
100
AcDbLine
 62
7
  6
CONTINUOUS
 10
-42.4572127204
 20
-20.05
 11
-42.4615871536
 21
-20.1
  0
LINE
  5
2FA
100
AcDbEntity
  8
ASSI
100
AcDbLine
 62
7
  6
CONTINUOUS
 10
-40.0647964543
 20
2.9073130151
 11
-40.091470065
 21
2.6996918248
  0
LINE
  5
2FB
100
AcDbEntity
  8
ASSI
100
AcDbLine
 62
7
  6
CONTINUOUS
 10
-46.599277012
 20
1.8
 11
-46.3986845953
 21
2.3767255287
  0
LINE
  5
2FC
100
AcDbEntity
  8
ASSI
100
AcDbLine
 62
7
  6
CONTINUOUS
 10
-46.3264136308
 20
2.584346719
 11
-46.1207749647
 21
3.1399857509
  0
LINE
  5
2FD
100
AcDbEntity
  8
ASSI
100
AcDbLine
 62
7
  6
CONTINUOUS
 10
-46.1436637564
 20
3.7031942447
 11
-46.8670937919
 21
1.8
  0
LINE
  5
2FE
100
AcDbEntity
  8
ASSI
100
AcDbLine
 62
7
  6
CONTINUOUS
 10
-47.461301404
 20
3.2560517745
 11
-48.4332641933
 21
2.0283474043
  0
LINE
  5
2FF
100
AcDbEntity
  8
RACCORDO
100
AcDbLine
 62
250
  6
CONTINUOUS
 10
-104.9615871536
 20
-47.451218346
 11
-104.4702589461
 21
-46.9598901385
  0
LINE
  5
300
100
AcDbEntity
  8
RACCORDO
100
AcDbLine
 62
250
  6
CONTINUOUS
 10
104.547084639
 20
-17.2349836279
 11
104.7566092559
 21
-17.1826224212
  0
LINE
  5
301
100
AcDbEntity
  8
RACCORDO
100
AcDbLine
 62
250
  6
CONTINUOUS
 10
102.548302985
 20
-15.2350597818
 11
102.6885955376
 21
-15.2
  0
LINE
  5
302
100
AcDbEntity
  8
RACCORDO
100
AcDbLine
 62
250
  6
CONTINUOUS
 10
83.5384128464
 20
-46.2
 11
73.5384128464
 21
-46.2
  0
LINE
  5
303
100
AcDbEntity
  8
RACCORDO
100
AcDbLine
 62
250
  6
CONTINUOUS
 10
7.2884128464
 20
-45.85
 11
-7.2115871536
 21
-45.85
  0
LINE
  5
304
100
AcDbEntity
  8
RACCORDO
100
AcDbLine
 62
7
  6
CONTINUOUS
 10
83.0384128464
 20
-45.7
 11
74.0384128464
 21
-45.7
  0
LINE
  5
305
100
AcDbEntity
  8
RACCORDO
100
AcDbLine
 62
7
  6
CONTINUOUS
 10
-98.8615871536
 20
-43.2
 11
-98.4615871536
 21
-43.2
  0
LINE
  5
306
100
AcDbEntity
  8
DRAFT
100
AcDbLine
 62
7
  6
CONTINUOUS
 10
80.9384128464
 20
-42.9527201863
 11
76.1384128464
 21
-42.9527201863
  0
LINE
  5
307
100
AcDbEntity
  8
DRAFT
100
AcDbLine
 62
7
  6
CONTINUOUS
 10
80.9384128464
 20
-42.8
 11
76.1384128464
 21
-42.8
  0
LINE
  5
308
100
AcDbEntity
  8
RACCORDO
100
AcDbLine
 62
250
  6
CONTINUOUS
 10
-104.4702589461
 20
-17.2349836279
 11
-104.6797835631
 21
-17.1826224212
  0
LINE
  5
309
100
AcDbEntity
  8
RACCORDO
100
AcDbLine
 62
250
  6
CONTINUOUS
 10
-102.4714772921
 20
-15.2350597818
 11
-102.6117698447
 21
-15.2
  0
LINE
  5
30A
100
AcDbEntity
  8
ASSI
100
AcDbLine
 62
7
  6
CONTINUOUS
 10
-49.9212160574
 20
3.2596563641
 11
-48.9683572407
 21
1.8
  0
LINE
  5
30B
100
AcDbEntity
  8
ASSI
100
AcDbLine
 62
7
  6
CONTINUOUS
 10
-48.9523171692
 20
2.2435380567
 11
-49.9051758099
 21
3.7031942447
  0
LINE
  5
30C
100
AcDbEntity
  8
ASSI
100
AcDbLine
 62
7
  6
CONTINUOUS
 10
-45.106819411
 20
1.8
 11
-45.8691784858
 21
3.7031942447
  0
LINE
  5
30D
100
AcDbEntity
  8
ASSI
100
AcDbLine
 62
7
  6
CONTINUOUS
 10
-45.8704400921
 20
3.1073647434
 11
-45.665522168
 21
2.584346719
  0
LINE
  5
30E
100
AcDbEntity
  8
ASSI
100
AcDbLine
 62
7
  6
CONTINUOUS
 10
-45.5889258719
 20
2.3767255287
 11
-45.3766188912
 21
1.8
  0
LINE
  5
30F
100
AcDbEntity
  8
0
100
AcDbLine
 62
7
  6
CONTINUOUS
 10
-36.9615871536
 20
37.85
 11
-36.9615871536
 21
25.65
  0
LINE
  5
310
100
AcDbEntity
  8
0
100
AcDbLine
 62
7
  6
CONTINUOUS
 10
-36.9615871536
 20
-20.05
 11
-36.9615871536
 21
-32.25
  0
LINE
  5
311
100
AcDbEntity
  8
0
100
AcDbLine
 62
7
  6
CONTINUOUS
 10
-33.9615871536
 20
-32.25
 11
-33.9615871536
 21
-20.05
  0
LINE
  5
312
100
AcDbEntity
  8
0
100
AcDbLine
 62
7
  6
CONTINUOUS
 10
-33.9615871536
 20
25.65
 11
-33.9615871536
 21
37.85
  0
LINE
  5
313
100
AcDbEntity
  8
ASSI
100
AcDbLine
 62
7
  6
CONTINUOUS
 10
-32.3656909635
 20
3.7031942447
 11
-32.3656909635
 21
1.8
  0
LINE
  5
314
100
AcDbEntity
  8
ASSI
100
AcDbLine
 62
7
  6
CONTINUOUS
 10
-32.1119317309
 20
1.8
 11
-32.1119317309
 21
3.4148314804
  0
LINE
  5
315
100
AcDbEntity
  8
0
100
AcDbLine
 62
7
  6
CONTINUOUS
 10
-31.9615871536
 20
37.85
 11
-31.9615871536
 21
25.65
  0
LINE
  5
316
100
AcDbEntity
  8
0
100
AcDbLine
 62
7
  6
CONTINUOUS
 10
-31.9615871536
 20
-20.05
 11
-31.9615871536
 21
-32.25
  0
LINE
  5
317
100
AcDbEntity
  8
ASSI
100
AcDbLine
 62
7
  6
CONTINUOUS
 10
-30.7854630148
 20
3.3917624592
 11
-30.7854630148
 21
1.8
  0
LINE
  5
318
100
AcDbEntity
  8
ASSI
100
AcDbLine
 62
7
  6
CONTINUOUS
 10
-34.1591270403
 20
2.9073130151
 11
-34.185800651
 21
2.6996918248
  0
LINE
  5
319
100
AcDbEntity
  8
ASSI
100
AcDbLine
 62
7
  6
CONTINUOUS
 10
-41.9624037612
 20
3.7031942447
 11
-42.8505610754
 21
2.4690016133
  0
LINE
  5
31A
100
AcDbEntity
  8
ASSI
100
AcDbLine
 62
7
  6
CONTINUOUS
 10
-42.619510405
 20
2.4690016133
 11
-42.0085418035
 21
3.3182300643
  0
LINE
  5
31B
100
AcDbEntity
  8
RACCORDO
100
AcDbLine
 62
250
  6
CONTINUOUS
 10
-102.9628054995
 20
-49.45
 11
-102.4714772921
 21
-48.9586717926
  0
LWPOLYLINE
  5
31C
100
AcDbEntity
  8
0
100
AcDbPolyline
 62
7
  6
CONTINUOUS
 90
31
 70
0
 10
1.0849359134
 20
-31.9726913266
 10
1.2460532735
 20
-31.9316950252
 10
1.4032684309
 20
-31.8909399304
 10
1.5562022786
 20
-31.8504357505
 10
1.7044143173
 20
-31.8102169576
 10
1.8476487112
 20
-31.7702771521
 10
1.985691632
 20
-31.730605048
 10
2.1182562022
 20
-31.6912183676
 10
2.2451745403
 20
-31.652109021
 10
2.3663505788
 20
-31.6132535884
 10
2.4817002903
 20
-31.5746302812
 10
2.5911865664
 20
-31.536206619
 10
2.6947657178
 20
-31.4979568581
 10
2.7924511635
 20
-31.4598384748
 10
2.8842987281
 20
-31.4217934764
 10
2.9703518267
 20
-31.3837687373
 10
3.0507381748
 20
-31.3456712344
 10
3.1255388592
 20
-31.307422834
 10
3.1949278838
 20
-31.268888273
 10
3.2592725292
 20
-31.2297859056
 10
3.3186345484
 20
-31.1899644482
 10
3.3731490053
 20
-31.1491875753
 10
3.4232700614
 20
-31.1068596118
 10
3.4690369663
 20
-31.0625127575
 10
3.5101270976
 20
-31.0159208752
 10
3.5463871562
 20
-30.9667001999
 10
3.5779961263
 20
-30.9136354446
 10
3.6037703821
 20
-30.857403131
 10
3.6222482976
 20
-30.8009827283
 10
3.6335248399
 20
-30.7458393979
 10
3.6382301761
 20
-30.6914480786
  0
LINE
  5
31D
100
AcDbEntity
  8
0
100
AcDbLine
 62
7
  6
CONTINUOUS
 10
1.0795377621
 20
-31.3722143237
 11
0.7692134411
 21
-31.45043802
  0
LINE
  5
31E
100
AcDbEntity
  8
0
100
AcDbLine
 62
7
  6
CONTINUOUS
 10
0.7762169827
 20
-32.0495702449
 11
1.0849359134
 21
-31.9726913266
  0
LWPOLYLINE
  5
31F
100
AcDbEntity
  8
0
100
AcDbPolyline
 62
7
  6
CONTINUOUS
 90
27
 70
0
 10
0.7692085788
 20
-31.4504392285
 10
0.6333923304
 20
-31.4835583725
 10
0.4693804675
 20
-31.5219511695
 10
0.3036952344
 20
-31.5590999695
 10
0.1367744357
 20
-31.5949960181
 10
-0.0308858716
 20
-31.6296199939
 10
-0.1987435185
 20
-31.6629461483
 10
-0.366337889
 20
-31.6949673221
 10
-0.5331952214
 20
-31.7256744838
 10
-0.6987676691
 20
-31.7550462801
 10
-0.8626060465
 20
-31.7830800788
 10
-1.0242467319
 20
-31.8097703229
 10
-1.1831397096
 20
-31.8350975997
 10
-1.3388558234
 20
-31.859062241
 10
-1.4909688614
 20
-31.881663774
 10
-1.6389629223
 20
-31.9028878887
 10
-1.7824533878
 20
-31.922738828
 10
-1.9210612907
 20
-31.9412197989
 10
-2.0543182318
 20
-31.9583211239
 10
-2.1818969598
 20
-31.9740506496
 10
-2.3034832037
 20
-31.9884157516
 10
-2.4186713144
 20
-32.00141194
 10
-2.5272177508
 20
-32.0130524436
 10
-2.6288640991
 20
-32.0233468816
 10
-2.723221293
 20
-32.0322918043
 10
-2.8100398656
 20
-32.039899223
 10
-2.8892111661
 20
-32.0461931987
  0
LWPOLYLINE
  5
320
100
AcDbEntity
  8
0
100
AcDbPolyline
 62
7
  6
CONTINUOUS
 90
16
 70
0
 10
-3.1683354214
 20
-32.6728618594
 10
-3.1687225827
 20
-32.6729557481
 10
-3.1696867299
 20
-32.6731801723
 10
-3.1697924888
 20
-32.6732035891
 10
-3.1689759575
 20
-32.6730397021
 10
-3.1674651921
 20
-32.6727550006
 10
-3.165287177
 20
-32.6723680469
 10
-3.1623945841
 20
-32.6718825691
 10
-3.1589070019
 20
-32.6713283587
 10
-3.1548338388
 20
-32.6707138466
 10
-3.1501475073
 20
-32.6700412295
 10
-3.1449121417
 20
-32.669324994
 10
-3.1391283313
 20
-32.6685692941
 10
-3.1327778037
 20
-32.6677755277
 10
-3.1258960124
 20
-32.6669513708
 10
-3.1184794
 20
-32.6660990532
  0
LWPOLYLINE
  5
321
100
AcDbEntity
  8
0
100
AcDbPolyline
 62
7
  6
CONTINUOUS
 90
14
 70
0
 10
3.246425456
 20
-32.4125536021
 10
3.2466176387
 20
-32.4125108781
 10
3.2464613004
 20
-32.4125431808
 10
3.2454277313
 20
-32.4127467491
 10
3.2437251024
 20
-32.413062023
 10
3.2413778008
 20
-32.4134722751
 10
3.238347437
 20
-32.4139732523
 10
3.2347574256
 20
-32.4145359672
 10
3.230622955
 20
-32.4151521176
 10
3.2259186929
 20
-32.4158200787
 10
3.2207079259
 20
-32.416526402
 10
3.2149938617
 20
-32.4172672705
 10
3.2087622093
 20
-32.4180414053
 10
3.202048953
 20
-32.4188416837
  0
LINE
  5
322
100
AcDbEntity
  8
0
100
AcDbLine
 62
7
  6
CONTINUOUS
 10
3.202048953
 20
-32.4188416837
 11
3.1871659364
 21
-32.4205136359
  0
LWPOLYLINE
  5
323
100
AcDbEntity
  8
0
100
AcDbPolyline
 62
7
  6
CONTINUOUS
 90
36
 70
0
 10
3.2481519335
 20
-33.0170281897
 10
3.2596500394
 20
-33.0157626656
 10
3.2707693164
 20
-33.0144841286
 10
3.2815109859
 20
-33.0131914963
 10
3.2918928146
 20
-33.0118815584
 10
3.3019869285
 20
-33.0105433325
 10
3.3117905526
 20
-33.0091745565
 10
3.3213255787
 20
-33.0077692128
 10
3.3307034814
 20
-33.0063061017
 10
3.3399200582
 20
-33.0047792828
 10
3.3489994858
 20
-33.003177288
 10
3.3581033443
 20
-33.0014602488
 10
3.3671991308
 20
-32.999619313
 10
3.3763473302
 20
-32.9976250748
 10
3.3858578952
 20
-32.9953814073
 10
3.3956622914
 20
-32.9928651813
 10
3.4058502584
 20
-32.9900077788
 10
3.4169650206
 20
-32.9865789425
 10
3.4290279067
 20
-32.9824533264
 10
3.4419756591
 20
-32.9775118994
 10
3.4561949734
 20
-32.9714141221
 10
3.4718386178
 20
-32.9638111848
 10
3.4885225125
 20
-32.9545512637
 10
3.5057884799
 20
-32.9435467421
 10
3.5234760553
 20
-32.9305253394
 10
3.54125634
 20
-32.915281884
 10
3.5584370993
 20
-32.8979640908
 10
3.5747412024
 20
-32.8784936174
 10
3.5899143807
 20
-32.8568383579
 10
3.6034387174
 20
-32.8334441977
 10
3.6150628364
 20
-32.8085279065
 10
3.6246189802
 20
-32.7821432685
 10
3.6318317568
 20
-32.7546251358
 10
3.6364861141
 20
-32.7262371386
 10
3.6383806575
 20
-32.6971530783
 10
3.6384128361
 20
-32.6928499052
  0
LWPOLYLINE
  5
324
100
AcDbEntity
  8
0
100
AcDbPolyline
 62
7
  6
CONTINUOUS
 90
36
 70
0
 10
-3.1711279853
 20
-32.0686647438
 10
-3.1827112046
 20
-32.0699389
 10
-3.1939378819
 20
-32.0712294837
 10
-3.2048061707
 20
-32.0725376858
 10
-3.2153311478
 20
-32.0738668861
 10
-3.2255636641
 20
-32.0752257426
 10
-3.2354984709
 20
-32.0766163612
 10
-3.2451604839
 20
-32.0780453899
 10
-3.2546529674
 20
-32.0795330487
 10
-3.2639580504
 20
-32.0810830164
 10
-3.273118297
 20
-32.0827097436
 10
-3.2823338902
 20
-32.0844610851
 10
-3.291583312
 20
-32.0863501379
 10
-3.3009118727
 20
-32.0884058788
 10
-3.3106288424
 20
-32.0907279964
 10
-3.3206894616
 20
-32.0933496454
 10
-3.3311606418
 20
-32.0963393052
 10
-3.3425219389
 20
-32.0999156643
 10
-3.3548070244
 20
-32.1042108593
 10
-3.3679470908
 20
-32.1093444027
 10
-3.3822417852
 20
-32.1156232526
 10
-3.3978165909
 20
-32.1233723821
 10
-3.4143235265
 20
-32.1327389542
 10
-3.4313134034
 20
-32.1437896018
 10
-3.4486276027
 20
-32.1567690175
 10
-3.4659630921
 20
-32.1718639383
 10
-3.4826751963
 20
-32.1889219015
 10
-3.498464796
 20
-32.2079384146
 10
-3.5131632794
 20
-32.2289928917
 10
-3.5264089672
 20
-32.2518793781
 10
-3.5379269479
 20
-32.2764397593
 10
-3.5474969177
 20
-32.3026263325
 10
-3.5548402562
 20
-32.3303162319
 10
-3.5596436512
 20
-32.3593317444
 10
-3.5615667412
 20
-32.3894371231
 10
-3.5615871427
 20
-32.3928645441
  0
LINE
  5
325
100
AcDbEntity
  8
0
100
AcDbLine
 62
7
  6
CONTINUOUS
 10
-3.1184794
 20
-32.6660990532
 11
-3.1020192973
 21
-32.6643169512
  0
LINE
  5
326
100
AcDbEntity
  8
0
100
AcDbLine
 62
7
  6
CONTINUOUS
 10
3.1871659364
 20
-32.4205136359
 11
3.1703691167
 21
-32.422265774
  0
LINE
  5
327
100
AcDbEntity
  8
0
100
AcDbLine
 62
7
  6
CONTINUOUS
 10
3.2238669891
 20
-33.0195390451
 11
3.2481519335
 21
-33.0170281897
  0
LINE
  5
328
100
AcDbEntity
  8
0
100
AcDbLine
 62
7
  6
CONTINUOUS
 10
-3.1468299417
 20
-32.0661542524
 11
-3.1711279853
 21
-32.0686647438
  0
LINE
  5
329
100
AcDbEntity
  8
0
100
AcDbLine
 62
7
  6
CONTINUOUS
 10
-3.1020192973
 20
-32.6643169512
 11
-3.0834142022
 21
-32.6624476699
  0
LINE
  5
32A
100
AcDbEntity
  8
0
100
AcDbLine
 62
7
  6
CONTINUOUS
 10
3.1703691167
 20
-32.422265774
 11
3.1516547406
 21
-32.4240868248
  0
LINE
  5
32B
100
AcDbEntity
  8
0
100
AcDbLine
 62
7
  6
CONTINUOUS
 10
3.1977825951
 20
-33.0220326964
 11
3.2238669891
 21
-33.0195390451
  0
LINE
  5
32C
100
AcDbEntity
  8
0
100
AcDbLine
 62
7
  6
CONTINUOUS
 10
-3.1210121474
 20
-32.0636866813
 11
-3.1468299417
 21
-32.0661542524
  0
LINE
  5
32D
100
AcDbEntity
  8
0
100
AcDbLine
 62
7
  6
CONTINUOUS
 10
-3.0834142022
 20
-32.6624476699
 11
-3.0626408001
 21
-32.6605022514
  0
LINE
  5
32E
100
AcDbEntity
  8
0
100
AcDbLine
 62
7
  6
CONTINUOUS
 10
3.1516547406
 20
-32.4240868248
 11
3.1310254371
 21
-32.4259670156
  0
LINE
  5
32F
100
AcDbEntity
  8
0
100
AcDbLine
 62
7
  6
CONTINUOUS
 10
3.1697612888
 20
-33.0245225144
 11
3.1977825951
 21
-33.0220326964
  0
LINE
  5
330
100
AcDbEntity
  8
0
100
AcDbLine
 62
7
  6
CONTINUOUS
 10
-3.0936868632
 20
-32.0612563019
 11
-3.1210121474
 21
-32.0636866813
  0
LINE
  5
331
100
AcDbEntity
  8
0
100
AcDbLine
 62
7
  6
CONTINUOUS
 10
-3.0626408001
 20
-32.6605022514
 11
-3.0396571658
 21
-32.6584881106
  0
LINE
  5
332
100
AcDbEntity
  8
0
100
AcDbLine
 62
7
  6
CONTINUOUS
 10
3.1310254371
 20
-32.4259670156
 11
3.1084625505
 21
-32.4279001521
  0
LINE
  5
333
100
AcDbEntity
  8
0
100
AcDbLine
 62
7
  6
CONTINUOUS
 10
-3.0649280077
 20
-32.0588630048
 11
-3.0936868632
 21
-32.0612563019
  0
LINE
  5
334
100
AcDbEntity
  8
0
100
AcDbLine
 62
7
  6
CONTINUOUS
 10
3.1397002196
 20
-33.0270165236
 11
3.1697612888
 21
-33.0245225144
  0
LWPOLYLINE
  5
335
100
AcDbEntity
  8
0
100
AcDbPolyline
 62
7
  6
CONTINUOUS
 90
27
 70
0
 10
-2.8412027537
 20
-32.6437723424
 10
-2.7677033572
 20
-32.6378194223
 10
-2.6763884046
 20
-32.6296459384
 10
-2.5787871507
 20
-32.6201829321
 10
-2.4751157054
 20
-32.6094408935
 10
-2.3654660361
 20
-32.597411907
 10
-2.25012006
 20
-32.5841037843
 10
-2.1294097255
 20
-32.5695283542
 10
-2.003509896
 20
-32.5536760636
 10
-1.8727387531
 20
-32.5365520426
 10
-1.7374282482
 20
-32.5181617473
 10
-1.5977691348
 20
-32.4984889978
 10
-1.4540903808
 20
-32.4775338238
 10
-1.3067405755
 20
-32.4552976138
 10
-1.1559322322
 20
-32.4317588198
 10
-1.002010805
 20
-32.4069133579
 10
-0.84533712
 20
-32.3807580518
 10
-0.6861409477
 20
-32.3532652522
 10
-0.5247799389
 20
-32.3244257982
 10
-0.3616325739
 20
-32.2942325094
 10
-0.1969559014
 20
-32.2626529814
 10
-0.0311227877
 20
-32.2296731225
 10
0.1354730336
 20
-32.1952810457
 10
0.3025497657
 20
-32.1594388477
 10
0.4697554348
 20
-32.1221190323
 10
0.636657375
 20
-32.0833095211
 10
0.7762214934
 20
-32.0495691344
  0
LINE
  5
336
100
AcDbEntity
  8
0
100
AcDbLine
 62
7
  6
CONTINUOUS
 10
-3.0396571658
 20
-32.6584881106
 11
-3.0144272031
 21
-32.6564118415
  0
LINE
  5
337
100
AcDbEntity
  8
0
100
AcDbLine
 62
7
  6
CONTINUOUS
 10
3.1084625505
 20
-32.4279001521
 11
3.0839353476
 21
-32.4298820526
  0
LINE
  5
338
100
AcDbEntity
  8
0
100
AcDbLine
 62
7
  6
CONTINUOUS
 10
-3.0348168918
 20
-32.0565067666
 11
-3.0649280077
 21
-32.0588630048
  0
LINE
  5
339
100
AcDbEntity
  8
0
100
AcDbLine
 62
7
  6
CONTINUOUS
 10
3.1075150195
 20
-33.0295200315
 11
3.1397002196
 21
-33.0270165236
  0
LINE
  5
33A
100
AcDbEntity
  8
0
100
AcDbLine
 62
7
  6
CONTINUOUS
 10
-3.0144272031
 20
-32.6564118415
 11
-2.9869006103
 21
-32.6542777912
  0
LINE
  5
33B
100
AcDbEntity
  8
0
100
AcDbLine
 62
7
  6
CONTINUOUS
 10
-2.9869006103
 20
-32.6542777912
 11
-2.9738345378
 21
-32.6533071911
  0
LINE
  5
33C
100
AcDbEntity
  8
0
100
AcDbLine
 62
7
  6
CONTINUOUS
 10
3.0839353476
 20
-32.4298820526
 11
3.0433952808
 21
-32.4329387645
  0
LINE
  5
33D
100
AcDbEntity
  8
0
100
AcDbLine
 62
7
  6
CONTINUOUS
 10
-2.9874270029
 20
-32.0530505735
 11
-3.0348168918
 21
-32.0565067666
  0
LINE
  5
33E
100
AcDbEntity
  8
0
100
AcDbLine
 62
7
  6
CONTINUOUS
 10
3.0550796577
 20
-33.033302231
 11
3.1075150195
 21
-33.0295200315
  0
LINE
  5
33F
100
AcDbEntity
  8
0
100
AcDbLine
 62
7
  6
CONTINUOUS
 10
3.0433952808
 20
-32.4329387645
 11
2.9982117905
 21
-32.4360914336
  0
LINE
  5
340
100
AcDbEntity
  8
0
100
AcDbLine
 62
7
  6
CONTINUOUS
 10
-2.8892111661
 20
-32.0461931987
 11
-2.9874270029
 21
-32.0530505735
  0
LINE
  5
341
100
AcDbEntity
  8
0
100
AcDbLine
 62
7
  6
CONTINUOUS
 10
2.9974708623
 20
-33.037123781
 11
3.0550796577
 21
-33.033302231
  0
LINE
  5
342
100
AcDbEntity
  8
0
100
AcDbLine
 62
7
  6
CONTINUOUS
 10
2.9982117905
 20
-32.4360914336
 11
2.9481817042
 21
-32.4393384641
  0
LINE
  5
343
100
AcDbEntity
  8
0
100
AcDbLine
 62
7
  6
CONTINUOUS
 10
-2.9191946703
 20
-33.2494756914
 11
-2.8541509835
 21
-33.2453085462
  0
LINE
  5
344
100
AcDbEntity
  8
0
100
AcDbLine
 62
7
  6
CONTINUOUS
 10
-2.8727761574
 20
-32.6456254022
 11
-2.9502129442
 21
-32.6505135477
  0
LINE
  5
345
100
AcDbEntity
  8
0
100
AcDbLine
 62
7
  6
CONTINUOUS
 10
2.9345196123
 20
-33.0409894714
 11
2.9974708623
 21
-33.037123781
  0
LINE
  5
346
100
AcDbEntity
  8
0
100
AcDbLine
 62
7
  6
CONTINUOUS
 10
2.9481817042
 20
-32.4393384641
 11
2.8735327756
 21
-32.443815627
  0
LINE
  5
347
100
AcDbEntity
  8
0
100
AcDbLine
 62
7
  6
CONTINUOUS
 10
-2.8541509835
 20
-33.2453085462
 11
-2.7710782478
 21
-33.2404444437
  0
LINE
  5
348
100
AcDbEntity
  8
0
100
AcDbLine
 62
7
  6
CONTINUOUS
 10
-2.7759170109
 20
-32.6400787747
 11
-2.8727761574
 21
-32.6456254022
  0
LINE
  5
349
100
AcDbEntity
  8
0
100
AcDbLine
 62
7
  6
CONTINUOUS
 10
2.8419763835
 20
-33.0462206893
 11
2.9345196123
 21
-33.0409894714
  0
LINE
  5
34A
100
AcDbEntity
  8
0
100
AcDbLine
 62
7
  6
CONTINUOUS
 10
2.8735327756
 20
-32.443815627
 11
2.766593483
 21
-32.4496563768
  0
LINE
  5
34B
100
AcDbEntity
  8
0
100
AcDbLine
 62
7
  6
CONTINUOUS
 10
-2.7710782478
 20
-33.2404444437
 11
-2.6332680095
 21
-33.233182093
  0
LINE
  5
34C
100
AcDbEntity
  8
0
100
AcDbLine
 62
7
  6
CONTINUOUS
 10
2.712047688
 20
-33.0528908642
 11
2.8419763835
 21
-33.0462206893
  0
LINE
  5
34D
100
AcDbEntity
  8
0
100
AcDbLine
 62
7
  6
CONTINUOUS
 10
-2.616214829
 20
-32.6319003071
 11
-2.7759170109
 21
-32.6400787747
  0
LINE
  5
34E
100
AcDbEntity
  8
0
100
AcDbLine
 62
7
  6
CONTINUOUS
 10
2.766593483
 20
-32.4496563768
 11
2.6433251531
 21
-32.4557801854
  0
LINE
  5
34F
100
AcDbEntity
  8
0
100
AcDbLine
 62
7
  6
CONTINUOUS
 10
-2.6332680095
 20
-33.233182093
 11
-2.481280571
 21
-33.2259882193
  0
LINE
  5
350
100
AcDbEntity
  8
0
100
AcDbLine
 62
7
  6
CONTINUOUS
 10
2.5347869989
 20
-33.0610908343
 11
2.712047688
 21
-33.0528908642
  0
LINE
  5
351
100
AcDbEntity
  8
0
100
AcDbLine
 62
7
  6
CONTINUOUS
 10
-2.4408611325
 20
-32.623875208
 11
-2.616214829
 21
-32.6319003071
  0
LINE
  5
352
100
AcDbEntity
  8
0
100
AcDbLine
 62
7
  6
CONTINUOUS
 10
2.6433251531
 20
-32.4557801854
 11
2.4413979328
 21
-32.464831774
  0
LINE
  5
353
100
AcDbEntity
  8
0
100
AcDbLine
 62
7
  6
CONTINUOUS
 10
-2.481280571
 20
-33.2259882193
 11
-2.2596564463
 21
-33.216532935
  0
LINE
  5
354
100
AcDbEntity
  8
0
100
AcDbLine
 62
7
  6
CONTINUOUS
 10
2.2620151301
 20
-33.0723514486
 11
2.5347869989
 21
-33.0610908343
  0
LINE
  5
355
100
AcDbEntity
  8
0
100
AcDbLine
 62
7
  6
CONTINUOUS
 10
-2.1195123916
 20
-32.6108312702
 11
-2.4408611325
 21
-32.623875208
  0
LINE
  5
356
100
AcDbEntity
  8
0
100
AcDbLine
 62
7
  6
CONTINUOUS
 10
2.4413979328
 20
-32.464831774
 11
2.1661930328
 21
-32.4758563489
  0
LINE
  5
357
100
AcDbEntity
  8
0
100
AcDbLine
 62
7
  6
CONTINUOUS
 10
-2.2596564463
 20
-33.216532935
 11
-1.9580711763
 21
-33.2049737383
  0
LINE
  5
358
100
AcDbEntity
  8
0
100
AcDbLine
 62
7
  6
CONTINUOUS
 10
1.8197876709
 20
-33.0884546832
 11
2.2620151301
 21
-33.0723514486
  0
LINE
  5
359
100
AcDbEntity
  8
0
100
AcDbLine
 62
7
  6
CONTINUOUS
 10
2.1661930328
 20
-32.4758563489
 11
1.7976671056
 21
-32.4891169546
  0
LINE
  5
35A
100
AcDbEntity
  8
0
100
AcDbLine
 62
7
  6
CONTINUOUS
 10
-1.6257142365
 20
-32.5932894099
 11
-2.1195123916
 21
-32.6108312702
  0
LINE
  5
35B
100
AcDbEntity
  8
0
100
AcDbLine
 62
7
  6
CONTINUOUS
 10
-1.9580711763
 20
-33.2049737383
 11
-1.5708467241
 21
-33.1915386216
  0
LINE
  5
35C
100
AcDbEntity
  8
0
100
AcDbLine
 62
7
  6
CONTINUOUS
 10
1.7976671056
 20
-32.4891169546
 11
1.3668684214
 21
-32.503269987
  0
LINE
  5
35D
100
AcDbEntity
  8
0
100
AcDbLine
 62
7
  6
CONTINUOUS
 10
-1.5708467241
 20
-33.1915386216
 11
-1.0337614817
 21
-33.1744705396
  0
LINE
  5
35E
100
AcDbEntity
  8
0
100
AcDbLine
 62
7
  6
CONTINUOUS
 10
1.3668684214
 20
-32.503269987
 11
0.6966051371
 21
-32.5236773405
  0
LINE
  5
35F
100
AcDbEntity
  8
0
100
AcDbLine
 62
7
  6
CONTINUOUS
 10
-0.2414986741
 20
-33.1509676292
 11
1.8197876709
 21
-33.0884546832
  0
LINE
  5
360
100
AcDbEntity
  8
0
100
AcDbLine
 62
7
  6
CONTINUOUS
 10
-1.0337614817
 20
-33.1744705396
 11
-0.2414986741
 21
-33.1509676292
  0
LINE
  5
361
100
AcDbEntity
  8
0
100
AcDbLine
 62
7
  6
CONTINUOUS
 10
0.6966051371
 20
-32.5236773405
 11
-1.6257142365
 21
-32.5932894099
  0
LINE
  5
362
100
AcDbEntity
  8
RACCORDO
100
AcDbLine
 62
7
  6
CONTINUOUS
 10
65.0384128464
 20
-37.9473819397
 11
70.6384128464
 21
-37.9473819397
  0
LINE
  5
363
100
AcDbEntity
  8
RACCORDO
100
AcDbLine
 62
7
  6
CONTINUOUS
 10
72.0384128464
 20
-37.9473819397
 11
84.0384128464
 21
-37.9473819397
  0
LINE
  5
364
100
AcDbEntity
  8
0
100
AcDbLine
 62
7
  6
CONTINUOUS
 10
5.1384128464
 20
-37.65
 11
-5.0615871536
 21
-37.65
  0
LINE
  5
365
100
AcDbEntity
  8
RACCORDO
100
AcDbLine
 62
7
  6
CONTINUOUS
 10
-2.9617394584
 20
-37.55
 11
-2.4615871536
 21
-37.55
  0
LINE
  5
366
100
AcDbEntity
  8
RACCORDO
100
AcDbLine
 62
7
  6
CONTINUOUS
 10
2.5384128464
 20
-37.55
 11
3.0385651513
 21
-37.55
  0
LINE
  5
367
100
AcDbEntity
  8
DRAFT
100
AcDbLine
 62
7
  6
CONTINUOUS
 10
76.1384128464
 20
-37.4472798137
 11
80.9384128464
 21
-37.4472798137
  0
LINE
  5
368
100
AcDbEntity
  8
RACCORDO
100
AcDbLine
 62
7
  6
CONTINUOUS
 10
-1.961663306
 20
-36.05
 11
2.0384889989
 21
-36.05
  0
LINE
  5
369
100
AcDbEntity
  8
RACCORDO
100
AcDbLine
 62
7
  6
CONTINUOUS
 10
74.0384128464
 20
-34.7
 11
83.0384128464
 21
-34.7
  0
LINE
  5
36A
100
AcDbEntity
  8
RACCORDO
100
AcDbLine
 62
250
  6
CONTINUOUS
 10
73.5384128464
 20
-34.2
 11
83.5384128464
 21
-34.2
  0
LINE
  5
36B
100
AcDbEntity
  8
RACCORDO
100
AcDbLine
 62
7
  6
CONTINUOUS
 10
-98.4615871536
 20
-34.2
 11
-98.8615871536
 21
-34.2
  0
LINE
  5
36C
100
AcDbEntity
  8
RACCORDO
100
AcDbLine
 62
250
  6
CONTINUOUS
 10
83.5384128464
 20
-33.8
 11
73.5384128464
 21
-33.8
  0
LINE
  5
36D
100
AcDbEntity
  8
DRAFT
100
AcDbLine
 62
7
  6
CONTINUOUS
 10
-8.2163175431
 20
-33.45
 11
-5.0615871536
 21
-33.45
  0
LINE
  5
36E
100
AcDbEntity
  8
0
100
AcDbLine
 62
7
  6
CONTINUOUS
 10
4.0384128464
 20
-33.45
 11
-3.9615871536
 21
-33.45
  0
LINE
  5
36F
100
AcDbEntity
  8
DRAFT
100
AcDbLine
 62
7
  6
CONTINUOUS
 10
5.1384128464
 20
-33.45
 11
8.293143236
 21
-33.45
  0
LINE
  5
370
100
AcDbEntity
  8
RACCORDO
100
AcDbLine
 62
7
  6
CONTINUOUS
 10
83.0384128464
 20
-33.3
 11
74.0384128464
 21
-33.3
  0
LINE
  5
371
100
AcDbEntity
  8
DRAFT
100
AcDbLine
 62
7
  6
CONTINUOUS
 10
-8.1115871536
 20
-32.45
 11
-7.9615871536
 21
-32.45
  0
LINE
  5
372
100
AcDbEntity
  8
DRAFT
100
AcDbLine
 62
7
  6
CONTINUOUS
 10
-3.9615871536
 20
-32.45
 11
-3.567138429
 21
-32.45
  0
LINE
  5
373
100
AcDbEntity
  8
ASSI
100
AcDbLine
 62
7
  6
CONTINUOUS
 10
-3.567138429
 20
-32.45
 11
-3.555685974
 21
-32.45
  0
LINE
  5
374
100
AcDbEntity
  8
DRAFT
100
AcDbLine
 62
7
  6
CONTINUOUS
 10
3.6439641219
 20
-32.45
 11
4.0384128464
 21
-32.45
  0
LINE
  5
375
100
AcDbEntity
  8
ASSI
100
AcDbLine
 62
7
  6
CONTINUOUS
 10
3.5164243337
 20
-32.45
 11
3.6439641219
 21
-32.45
  0
LINE
  5
376
100
AcDbEntity
  8
DRAFT
100
AcDbLine
 62
7
  6
CONTINUOUS
 10
8.0384128464
 20
-32.45
 11
8.1884128464
 21
-32.45
  0
LINE
  5
377
100
AcDbEntity
  8
0
100
AcDbLine
 62
7
  6
CONTINUOUS
 10
88.0384128464
 20
-32.25
 11
86.0384128464
 21
-32.25
  0
LINE
  5
378
100
AcDbEntity
  8
0
100
AcDbLine
 62
7
  6
CONTINUOUS
 10
83.0384128464
 20
-32.25
 11
81.0384128464
 21
-32.25
  0
LINE
  5
379
100
AcDbEntity
  8
0
100
AcDbLine
 62
7
  6
CONTINUOUS
 10
78.0384128464
 20
-32.25
 11
76.0384128464
 21
-32.25
  0
LINE
  5
37A
100
AcDbEntity
  8
0
100
AcDbLine
 62
7
  6
CONTINUOUS
 10
73.0384128464
 20
-32.25
 11
71.0384128464
 21
-32.25
  0
LINE
  5
37B
100
AcDbEntity
  8
0
100
AcDbLine
 62
7
  6
CONTINUOUS
 10
68.0384128464
 20
-32.25
 11
66.0384128464
 21
-32.25
  0
LINE
  5
37C
100
AcDbEntity
  8
0
100
AcDbLine
 62
7
  6
CONTINUOUS
 10
48.0384128464
 20
-32.25
 11
46.0384128464
 21
-32.25
  0
LINE
  5
37D
100
AcDbEntity
  8
0
100
AcDbLine
 62
7
  6
CONTINUOUS
 10
43.0384128464
 20
-32.25
 11
41.0384128464
 21
-32.25
  0
LINE
  5
37E
100
AcDbEntity
  8
0
100
AcDbLine
 62
7
  6
CONTINUOUS
 10
38.0384128464
 20
-32.25
 11
36.0384128464
 21
-32.25
  0
LINE
  5
37F
100
AcDbEntity
  8
0
100
AcDbLine
 62
7
  6
CONTINUOUS
 10
-11.9615871536
 20
-32.25
 11
-13.9615871536
 21
-32.25
  0
LINE
  5
380
100
AcDbEntity
  8
0
100
AcDbLine
 62
7
  6
CONTINUOUS
 10
-16.9615871536
 20
-32.25
 11
-18.9615871536
 21
-32.25
  0
LINE
  5
381
100
AcDbEntity
  8
0
100
AcDbLine
 62
7
  6
CONTINUOUS
 10
-21.9615871536
 20
-32.25
 11
-23.9615871536
 21
-32.25
  0
LINE
  5
382
100
AcDbEntity
  8
0
100
AcDbLine
 62
7
  6
CONTINUOUS
 10
-26.9615871536
 20
-32.25
 11
-28.9615871536
 21
-32.25
  0
LINE
  5
383
100
AcDbEntity
  8
0
100
AcDbLine
 62
7
  6
CONTINUOUS
 10
-31.9615871536
 20
-32.25
 11
-33.9615871536
 21
-32.25
  0
LINE
  5
384
100
AcDbEntity
  8
0
100
AcDbLine
 62
7
  6
CONTINUOUS
 10
-36.9615871536
 20
-32.25
 11
-38.9615871536
 21
-32.25
  0
LINE
  5
385
100
AcDbEntity
  8
0
100
AcDbLine
 62
7
  6
CONTINUOUS
 10
-41.9615871536
 20
-32.25
 11
-43.9615871536
 21
-32.25
  0
LINE
  5
386
100
AcDbEntity
  8
0
100
AcDbLine
 62
7
  6
CONTINUOUS
 10
-46.9615871536
 20
-32.25
 11
-48.9615871536
 21
-32.25
  0
LINE
  5
387
100
AcDbEntity
  8
0
100
AcDbLine
 62
7
  6
CONTINUOUS
 10
-51.9615871536
 20
-32.25
 11
-53.9615871536
 21
-32.25
  0
LINE
  5
388
100
AcDbEntity
  8
0
100
AcDbLine
 62
7
  6
CONTINUOUS
 10
-56.9615871536
 20
-32.25
 11
-58.9615871536
 21
-32.25
  0
LINE
  5
389
100
AcDbEntity
  8
0
100
AcDbLine
 62
7
  6
CONTINUOUS
 10
-61.9615871536
 20
-32.25
 11
-63.9615871536
 21
-32.25
  0
LINE
  5
38A
100
AcDbEntity
  8
0
100
AcDbLine
 62
7
  6
CONTINUOUS
 10
-66.9615871536
 20
-32.25
 11
-68.9615871536
 21
-32.25
  0
LINE
  5
38B
100
AcDbEntity
  8
0
100
AcDbLine
 62
7
  6
CONTINUOUS
 10
-71.9615871536
 20
-32.25
 11
-73.9615871536
 21
-32.25
  0
LINE
  5
38C
100
AcDbEntity
  8
0
100
AcDbLine
 62
7
  6
CONTINUOUS
 10
-76.9615871536
 20
-32.25
 11
-78.9615871536
 21
-32.25
  0
LINE
  5
38D
100
AcDbEntity
  8
0
100
AcDbLine
 62
7
  6
CONTINUOUS
 10
-81.9615871536
 20
-32.25
 11
-83.9615871536
 21
-32.25
  0
LINE
  5
38E
100
AcDbEntity
  8
DRAFT
100
AcDbLine
 62
7
  6
CONTINUOUS
 10
68.0384128464
 20
-30.95
 11
66.0384128464
 21
-30.95
  0
LINE
  5
38F
100
AcDbEntity
  8
DRAFT
100
AcDbLine
 62
7
  6
CONTINUOUS
 10
48.0384128464
 20
-30.95
 11
46.0384128464
 21
-30.95
  0
LINE
  5
390
100
AcDbEntity
  8
DRAFT
100
AcDbLine
 62
7
  6
CONTINUOUS
 10
43.0384128464
 20
-30.95
 11
41.0384128464
 21
-30.95
  0
LINE
  5
391
100
AcDbEntity
  8
0
100
AcDbLine
 62
7
  6
CONTINUOUS
 10
1.6588355343
 20
-32.291834068
 11
-0.0801582895
 21
-32.2394249983
  0
LINE
  5
392
100
AcDbEntity
  8
0
100
AcDbLine
 62
7
  6
CONTINUOUS
 10
2.1558909038
 20
-32.3093004191
 11
1.6588355343
 21
-32.291834068
  0
LINE
  5
393
100
AcDbEntity
  8
0
100
AcDbLine
 62
7
  6
CONTINUOUS
 10
2.4582299462
 20
-32.3213228194
 11
2.1558909038
 21
-32.3093004191
  0
LINE
  5
394
100
AcDbEntity
  8
0
100
AcDbLine
 62
7
  6
CONTINUOUS
 10
2.6535469571
 20
-32.3300188921
 11
2.4582299462
 21
-32.3213228194
  0
LINE
  5
395
100
AcDbEntity
  8
0
100
AcDbLine
 62
7
  6
CONTINUOUS
 10
2.7966152661
 20
-32.3370869284
 11
2.6535469571
 21
-32.3300188921
  0
LINE
  5
396
100
AcDbEntity
  8
0
100
AcDbLine
 62
7
  6
CONTINUOUS
 10
2.8987120336
 20
-32.3426439881
 11
2.7966152661
 21
-32.3370869284
  0
LINE
  5
397
100
AcDbEntity
  8
0
100
AcDbLine
 62
7
  6
CONTINUOUS
 10
2.9683433437
 20
-32.3467661183
 11
2.8987120336
 21
-32.3426439881
  0
LINE
  5
398
100
AcDbEntity
  8
0
100
AcDbLine
 62
7
  6
CONTINUOUS
 10
3.0322335739
 20
-32.3508594939
 11
2.9683433437
 21
-32.3467661183
  0
LINE
  5
399
100
AcDbEntity
  8
0
100
AcDbLine
 62
7
  6
CONTINUOUS
 10
3.0905043004
 20
-32.3549305246
 11
3.0322335739
 21
-32.3508594939
  0
LINE
  5
39A
100
AcDbEntity
  8
0
100
AcDbLine
 62
7
  6
CONTINUOUS
 10
3.1262008567
 20
-32.3576285677
 11
3.0905043004
 21
-32.3549305246
  0
LINE
  5
39B
100
AcDbEntity
  8
0
100
AcDbLine
 62
7
  6
CONTINUOUS
 10
3.1593732337
 20
-32.3603110066
 11
3.1262008567
 21
-32.3576285677
  0
LINE
  5
39C
100
AcDbEntity
  8
0
100
AcDbLine
 62
7
  6
CONTINUOUS
 10
3.1900746302
 20
-32.3629788663
 11
3.1593732337
 21
-32.3603110066
  0
LINE
  5
39D
100
AcDbEntity
  8
0
100
AcDbLine
 62
7
  6
CONTINUOUS
 10
-3.1277043051
 20
-32.7214054057
 11
-3.1112970412
 21
-32.7229072216
  0
LINE
  5
39E
100
AcDbEntity
  8
0
100
AcDbLine
 62
7
  6
CONTINUOUS
 10
3.2183622015
 20
-32.3656329643
 11
3.1900746302
 21
-32.3629788663
  0
LINE
  5
39F
100
AcDbEntity
  8
0
100
AcDbLine
 62
7
  6
CONTINUOUS
 10
-3.1523783009
 20
-32.71900434
 11
-3.1277043051
 21
-32.7214054057
  0
LINE
  5
3A0
100
AcDbEntity
  8
RACCORDO
100
AcDbLine
 62
250
  6
CONTINUOUS
 10
-104.9615871536
 20
53.051218346
 11
-104.4702589461
 21
52.5598901385
  0
LINE
  5
3A1
100
AcDbEntity
  8
RACCORDO
100
AcDbLine
 62
250
  6
CONTINUOUS
 10
-102.9628054995
 20
55.05
 11
-102.4714772921
 21
54.5586717926
  0
LINE
  5
3A2
100
AcDbEntity
  8
ASSI
100
AcDbLine
 62
7
  6
CONTINUOUS
 10
-30.5317037822
 20
1.8
 11
-30.5317037822
 21
3.7031942447
  0
LINE
  5
3A3
100
AcDbEntity
  8
0
100
AcDbLine
 62
7
  6
CONTINUOUS
 10
-28.9615871536
 20
-32.25
 11
-28.9615871536
 21
-20.05
  0
LINE
  5
3A4
100
AcDbEntity
  8
0
100
AcDbLine
 62
7
  6
CONTINUOUS
 10
-28.9615871536
 20
25.65
 11
-28.9615871536
 21
37.85
  0
LINE
  5
3A5
100
AcDbEntity
  8
ASSI
100
AcDbLine
 62
7
  6
CONTINUOUS
 10
-28.3516812837
 20
3.7031942447
 11
-28.3516812837
 21
1.8
  0
LINE
  5
3A6
100
AcDbEntity
  8
ASSI
100
AcDbLine
 62
7
  6
CONTINUOUS
 10
-28.097922051
 20
1.8
 11
-28.097922051
 21
2.6420192719
  0
LINE
  5
3A7
100
AcDbEntity
  8
ASSI
100
AcDbLine
 62
7
  6
CONTINUOUS
 10
-28.097922051
 20
2.8611749728
 11
-28.097922051
 21
3.4840385438
  0
LINE
  5
3A8
100
AcDbEntity
  8
0
100
AcDbLine
 62
7
  6
CONTINUOUS
 10
-26.9615871536
 20
37.85
 11
-26.9615871536
 21
25.65
  0
LINE
  5
3A9
100
AcDbEntity
  8
0
100
AcDbLine
 62
7
  6
CONTINUOUS
 10
-26.9615871536
 20
-20.05
 11
-26.9615871536
 21
-32.25
  0
LINE
  5
3AA
100
AcDbEntity
  8
0
100
AcDbLine
 62
7
  6
CONTINUOUS
 10
-23.9615871536
 20
-32.25
 11
-23.9615871536
 21
-20.05
  0
LINE
  5
3AB
100
AcDbEntity
  8
0
100
AcDbLine
 62
7
  6
CONTINUOUS
 10
-23.9615871536
 20
25.65
 11
-23.9615871536
 21
37.85
  0
LINE
  5
3AC
100
AcDbEntity
  8
ASSI
100
AcDbLine
 62
7
  6
CONTINUOUS
 10
-22.7574436552
 20
3.7031942447
 11
-22.7574436552
 21
3.4840385438
  0
LINE
  5
3AD
100
AcDbEntity
  8
ASSI
100
AcDbLine
 62
7
  6
CONTINUOUS
 10
-30.0703233592
 20
1.8
 11
-29.8697309425
 21
2.3767255287
  0
LINE
  5
3AE
100
AcDbEntity
  8
ASSI
100
AcDbLine
 62
7
  6
CONTINUOUS
 10
-31.3472296729
 20
1.8
 11
-30.7854630148
 21
3.3917624592
  0
LINE
  5
3AF
100
AcDbEntity
  8
ASSI
100
AcDbLine
 62
7
  6
CONTINUOUS
 10
-30.8618790814
 20
3.7031942447
 11
-31.3326312612
 21
2.3819521836
  0
LINE
  5
3B0
100
AcDbEntity
  8
ASSI
100
AcDbLine
 62
7
  6
CONTINUOUS
 10
-29.7974599779
 20
2.584346719
 11
-29.5918213119
 21
3.1399857509
  0
LINE
  5
3B1
100
AcDbEntity
  8
ASSI
100
AcDbLine
 62
7
  6
CONTINUOUS
 10
-29.6147101035
 20
3.7031942447
 11
-30.3381401391
 21
1.8
  0
LWPOLYLINE
  5
3B2
100
AcDbEntity
  8
0
100
AcDbPolyline
 62
7
  6
CONTINUOUS
 90
29
 70
0
 10
-1.0002588467
 20
-26.8824712852
 10
-1.1698105104
 20
-26.925597668
 10
-1.3360726854
 20
-26.9687269903
 10
-1.4985952841
 20
-27.0118653507
 10
-1.6569591211
 20
-27.0550240791
 10
-1.8100040588
 20
-27.0979998676
 10
-1.9573720644
 20
-27.1407919291
 10
-2.0988404513
 20
-27.1834314547
 10
-2.2336691301
 20
-27.2257785727
 10
-2.3616436545
 20
-27.2678321229
 10
-2.4827528844
 20
-27.3096485467
 10
-2.5967795814
 20
-27.3512044946
 10
-2.7037289129
 20
-27.3925427779
 10
-2.8036742427
 20
-27.4337280266
 10
-2.8967035539
 20
-27.4748295555
 10
-2.9829106666
 20
-27.515917824
 10
-3.0625324114
 20
-27.5571369643
 10
-3.1360216975
 20
-27.5987818091
 10
-3.2035033563
 20
-27.6410174244
 10
-3.2651847164
 20
-27.6840970355
 10
-3.3216426626
 20
-27.7286579619
 10
-3.3729579087
 20
-27.7751734204
 10
-3.4188648702
 20
-27.8239448712
 10
-3.4593407107
 20
-27.8755720688
 10
-3.4946876661
 20
-27.9315496237
 10
-3.5234849214
 20
-27.9911262724
 10
-3.5440013186
 20
-28.0509031564
 10
-3.5563855344
 20
-28.1091810221
 10
-3.5614265727
 20
-28.1665552157
  0
LWPOLYLINE
  5
3B3
100
AcDbEntity
  8
0
100
AcDbPolyline
 62
7
  6
CONTINUOUS
 90
30
 70
0
 10
0.9991955114
 20
-26.9942394244
 10
1.167869886
 20
-26.9516769711
 10
1.3335643954
 20
-26.9091103251
 10
1.4952863057
 20
-26.8666806821
 10
1.6526564043
 20
-26.8243804317
 10
1.8053217701
 20
-26.7822001093
 10
1.9524694193
 20
-26.7402692088
 10
2.0938354788
 20
-26.6985788119
 10
2.2292233249
 20
-26.6571076636
 10
2.3580997443
 20
-26.6159514049
 10
2.4803060705
 20
-26.5751074912
 10
2.5958570064
 20
-26.5345239608
 10
2.7046583466
 20
-26.494193166
 10
2.8067298583
 20
-26.4540750555
 10
2.9021633527
 20
-26.4141050574
 10
2.9911319351
 20
-26.3741813825
 10
3.0737291685
 20
-26.3342318492
 10
3.1501642076
 20
-26.2941219576
 10
3.2208942521
 20
-26.2535476148
 10
3.286014405
 20
-26.2123540823
 10
3.345704216
 20
-26.1702986429
 10
3.4005248267
 20
-26.1267456629
 10
3.4505039286
 20
-26.0812641812
 10
3.4953851929
 20
-26.0335520062
 10
3.5351943064
 20
-25.9829397497
 10
3.5701824676
 20
-25.9279683618
 10
3.5989265579
 20
-25.869347423
 10
3.619707846
 20
-25.8102293714
 10
3.6325590835
 20
-25.7521946531
 10
3.6381267134
 20
-25.6946983912
  0
LINE
  5
3B4
100
AcDbEntity
  8
0
100
AcDbLine
 62
7
  6
CONTINUOUS
 10
-0.8941853652
 20
-27.4572990556
 11
-0.5611560156
 21
-27.3742466071
  0
LINE
  5
3B5
100
AcDbEntity
  8
0
100
AcDbLine
 62
7
  6
CONTINUOUS
 10
-0.6560882966
 20
-26.7969268476
 11
-1.0002588467
 21
-26.8824712852
  0
LINE
  5
3B6
100
AcDbEntity
  8
0
100
AcDbLine
 62
7
  6
CONTINUOUS
 10
0.8769127504
 20
-26.4235510842
 11
0.5460437719
 21
-26.5054692659
  0
LINE
  5
3B7
100
AcDbEntity
  8
0
100
AcDbLine
 62
7
  6
CONTINUOUS
 10
0.6548794771
 20
-27.0793331972
 11
0.9991955114
 21
-26.9942394244
  0
LINE
  5
3B8
100
AcDbEntity
  8
0
100
AcDbLine
 62
7
  6
CONTINUOUS
 10
-0.5611560156
 20
-27.3742466071
 11
-0.2184117907
 21
-27.290616413
  0
LWPOLYLINE
  5
3B9
100
AcDbEntity
  8
0
100
AcDbPolyline
 62
7
  6
CONTINUOUS
 90
3
 70
0
 10
0.5460437719
 20
-26.5054692659
 10
0.0357664552
 20
-26.6292096317
 10
-0.6560882966
 20
-26.7969268476
  0
LINE
  5
3BA
100
AcDbEntity
  8
0
100
AcDbLine
 62
7
  6
CONTINUOUS
 10
-0.2184117907
 20
-27.290616413
 11
0.6548794771
 21
-27.0793331972
  0
LINE
  5
3BB
100
AcDbEntity
  8
RACCORDO
100
AcDbLine
 62
7
  6
CONTINUOUS
 10
2.0384889989
 20
-30.05
 11
-1.961663306
 21
-30.05
  0
LINE
  5
3BC
100
AcDbEntity
  8
DRAFT
100
AcDbLine
 62
7
  6
CONTINUOUS
 10
36.0384128464
 20
-29.45
 11
38.0384128464
 21
-29.45
  0
LINE
  5
3BD
100
AcDbEntity
  8
DRAFT
100
AcDbLine
 62
7
  6
CONTINUOUS
 10
41.0384128464
 20
-29.45
 11
43.0384128464
 21
-29.45
  0
LINE
  5
3BE
100
AcDbEntity
  8
DRAFT
100
AcDbLine
 62
7
  6
CONTINUOUS
 10
46.0384128464
 20
-29.45
 11
48.0384128464
 21
-29.45
  0
LINE
  5
3BF
100
AcDbEntity
  8
DRAFT
100
AcDbLine
 62
7
  6
CONTINUOUS
 10
66.0384128464
 20
-29.45
 11
68.0384128464
 21
-29.45
  0
LINE
  5
3C0
100
AcDbEntity
  8
DRAFT
100
AcDbLine
 62
7
  6
CONTINUOUS
 10
71.0384128464
 20
-29.45
 11
73.0384128464
 21
-29.45
  0
LINE
  5
3C1
100
AcDbEntity
  8
DRAFT
100
AcDbLine
 62
7
  6
CONTINUOUS
 10
76.0384128464
 20
-29.45
 11
78.0384128464
 21
-29.45
  0
LINE
  5
3C2
100
AcDbEntity
  8
DRAFT
100
AcDbLine
 62
7
  6
CONTINUOUS
 10
81.0384128464
 20
-29.45
 11
83.0384128464
 21
-29.45
  0
LINE
  5
3C3
100
AcDbEntity
  8
DRAFT
100
AcDbLine
 62
7
  6
CONTINUOUS
 10
86.0384128464
 20
-29.45
 11
88.0384128464
 21
-29.45
  0
LINE
  5
3C4
100
AcDbEntity
  8
RACCORDO
100
AcDbLine
 62
7
  6
CONTINUOUS
 10
3.0385651513
 20
-28.55
 11
2.5384128464
 21
-28.55
  0
LINE
  5
3C5
100
AcDbEntity
  8
RACCORDO
100
AcDbLine
 62
7
  6
CONTINUOUS
 10
-2.4615871536
 20
-28.55
 11
-2.9617394584
 21
-28.55
  0
LINE
  5
3C6
100
AcDbEntity
  8
RACCORDO
100
AcDbLine
 62
7
  6
CONTINUOUS
 10
88.0384128464
 20
-28.05
 11
86.0384128464
 21
-28.05
  0
LINE
  5
3C7
100
AcDbEntity
  8
RACCORDO
100
AcDbLine
 62
7
  6
CONTINUOUS
 10
83.0384128464
 20
-28.05
 11
81.0384128464
 21
-28.05
  0
LINE
  5
3C8
100
AcDbEntity
  8
RACCORDO
100
AcDbLine
 62
7
  6
CONTINUOUS
 10
78.0384128464
 20
-28.05
 11
76.0384128464
 21
-28.05
  0
LINE
  5
3C9
100
AcDbEntity
  8
RACCORDO
100
AcDbLine
 62
7
  6
CONTINUOUS
 10
73.0384128464
 20
-28.05
 11
71.0384128464
 21
-28.05
  0
LINE
  5
3CA
100
AcDbEntity
  8
RACCORDO
100
AcDbLine
 62
7
  6
CONTINUOUS
 10
68.0384128464
 20
-28.05
 11
66.0384128464
 21
-28.05
  0
LINE
  5
3CB
100
AcDbEntity
  8
RACCORDO
100
AcDbLine
 62
7
  6
CONTINUOUS
 10
48.0384128464
 20
-28.05
 11
46.0384128464
 21
-28.05
  0
LINE
  5
3CC
100
AcDbEntity
  8
RACCORDO
100
AcDbLine
 62
7
  6
CONTINUOUS
 10
43.0384128464
 20
-28.05
 11
41.0384128464
 21
-28.05
  0
LINE
  5
3CD
100
AcDbEntity
  8
RACCORDO
100
AcDbLine
 62
7
  6
CONTINUOUS
 10
38.0384128464
 20
-28.05
 11
36.0384128464
 21
-28.05
  0
LINE
  5
3CE
100
AcDbEntity
  8
RACCORDO
100
AcDbLine
 62
7
  6
CONTINUOUS
 10
36.0384128464
 20
-26.75
 11
38.0384128464
 21
-26.75
  0
LINE
  5
3CF
100
AcDbEntity
  8
RACCORDO
100
AcDbLine
 62
7
  6
CONTINUOUS
 10
41.0384128464
 20
-26.75
 11
43.0384128464
 21
-26.75
  0
LINE
  5
3D0
100
AcDbEntity
  8
RACCORDO
100
AcDbLine
 62
7
  6
CONTINUOUS
 10
46.0384128464
 20
-26.75
 11
48.0384128464
 21
-26.75
  0
LINE
  5
3D1
100
AcDbEntity
  8
RACCORDO
100
AcDbLine
 62
7
  6
CONTINUOUS
 10
66.0384128464
 20
-26.75
 11
68.0384128464
 21
-26.75
  0
LINE
  5
3D2
100
AcDbEntity
  8
RACCORDO
100
AcDbLine
 62
7
  6
CONTINUOUS
 10
71.0384128464
 20
-26.75
 11
73.0384128464
 21
-26.75
  0
LINE
  5
3D3
100
AcDbEntity
  8
RACCORDO
100
AcDbLine
 62
7
  6
CONTINUOUS
 10
76.0384128464
 20
-26.75
 11
78.0384128464
 21
-26.75
  0
LINE
  5
3D4
100
AcDbEntity
  8
RACCORDO
100
AcDbLine
 62
7
  6
CONTINUOUS
 10
81.0384128464
 20
-26.75
 11
83.0384128464
 21
-26.75
  0
LINE
  5
3D5
100
AcDbEntity
  8
RACCORDO
100
AcDbLine
 62
7
  6
CONTINUOUS
 10
86.0384128464
 20
-26.75
 11
88.0384128464
 21
-26.75
  0
LINE
  5
3D6
100
AcDbEntity
  8
DRAFT
100
AcDbLine
 62
7
  6
CONTINUOUS
 10
42.4249549244
 20
-25.45
 11
43.0384128464
 21
-25.45
  0
LINE
  5
3D7
100
AcDbEntity
  8
DRAFT
100
AcDbLine
 62
7
  6
CONTINUOUS
 10
-42.3481292315
 20
-25.45
 11
-43.9615871536
 21
-25.45
  0
LINE
  5
3D8
100
AcDbEntity
  8
DRAFT
100
AcDbLine
 62
7
  6
CONTINUOUS
 10
47.4249549244
 20
-25.45
 11
48.0384128464
 21
-25.45
  0
LINE
  5
3D9
100
AcDbEntity
  8
DRAFT
100
AcDbLine
 62
7
  6
CONTINUOUS
 10
-47.3481292315
 20
-25.45
 11
-48.9615871536
 21
-25.45
  0
LINE
  5
3DA
100
AcDbEntity
  8
DRAFT
100
AcDbLine
 62
7
  6
CONTINUOUS
 10
-52.3481292315
 20
-25.45
 11
-53.9615871536
 21
-25.45
  0
LINE
  5
3DB
100
AcDbEntity
  8
DRAFT
100
AcDbLine
 62
7
  6
CONTINUOUS
 10
-57.3481292315
 20
-25.45
 11
-58.9615871536
 21
-25.45
  0
LINE
  5
3DC
100
AcDbEntity
  8
DRAFT
100
AcDbLine
 62
7
  6
CONTINUOUS
 10
-62.3481292315
 20
-25.45
 11
-63.9615871536
 21
-25.45
  0
LINE
  5
3DD
100
AcDbEntity
  8
DRAFT
100
AcDbLine
 62
7
  6
CONTINUOUS
 10
67.4249549244
 20
-25.45
 11
68.0384128464
 21
-25.45
  0
LINE
  5
3DE
100
AcDbEntity
  8
DRAFT
100
AcDbLine
 62
7
  6
CONTINUOUS
 10
-67.3481292315
 20
-25.45
 11
-68.9615871536
 21
-25.45
  0
LINE
  5
3DF
100
AcDbEntity
  8
DRAFT
100
AcDbLine
 62
7
  6
CONTINUOUS
 10
72.4249549244
 20
-25.45
 11
73.0384128464
 21
-25.45
  0
LINE
  5
3E0
100
AcDbEntity
  8
DRAFT
100
AcDbLine
 62
7
  6
CONTINUOUS
 10
-72.3481292315
 20
-25.45
 11
-73.9615871536
 21
-25.45
  0
LINE
  5
3E1
100
AcDbEntity
  8
DRAFT
100
AcDbLine
 62
7
  6
CONTINUOUS
 10
77.4249549244
 20
-25.45
 11
78.0384128464
 21
-25.45
  0
LINE
  5
3E2
100
AcDbEntity
  8
DRAFT
100
AcDbLine
 62
7
  6
CONTINUOUS
 10
-77.3481292315
 20
-25.45
 11
-78.9615871536
 21
-25.45
  0
LINE
  5
3E3
100
AcDbEntity
  8
DRAFT
100
AcDbLine
 62
7
  6
CONTINUOUS
 10
82.4249549244
 20
-25.45
 11
83.0384128464
 21
-25.45
  0
LINE
  5
3E4
100
AcDbEntity
  8
DRAFT
100
AcDbLine
 62
7
  6
CONTINUOUS
 10
-82.3481292315
 20
-25.45
 11
-83.9615871536
 21
-25.45
  0
LINE
  5
3E5
100
AcDbEntity
  8
DRAFT
100
AcDbLine
 62
7
  6
CONTINUOUS
 10
8.293143236
 20
-24.45
 11
-8.2163175431
 21
-24.45
  0
LWPOLYLINE
  5
3E6
100
AcDbEntity
  8
0
100
AcDbPolyline
 62
7
  6
CONTINUOUS
 90
19
 70
0
 10
1.329216395
 20
-30.05
 10
1.4489509763
 20
-30.0819348899
 10
1.5974728822
 20
-30.122601463
 10
1.7408069454
 20
-30.1630278762
 10
1.8785392774
 20
-30.2031853249
 10
2.009949559
 20
-30.2429399453
 10
2.1348298661
 20
-30.2822931586
 10
2.2528453413
 20
-30.3211958299
 10
2.3631846914
 20
-30.3594115723
 10
2.4657811546
 20
-30.3969217887
 10
2.5604615758
 20
-30.4336516956
 10
2.6464221798
 20
-30.4692283978
 10
2.7236879877
 20
-30.5035418285
 10
2.7924332741
 20
-30.536515612
 10
2.8522391751
 20
-30.5677224775
 10
2.9033138524
 20
-30.5969464773
 10
2.9460625697
 20
-30.6240238284
 10
2.980452025
 20
-30.6484079425
 10
3.0072236843
 20
-30.6699538819
  0
LWPOLYLINE
  5
3E7
100
AcDbEntity
  8
0
100
AcDbPolyline
 62
7
  6
CONTINUOUS
 90
13
 70
0
 10
-3.3297944724
 20
-28.6211921972
 10
-3.3235542491
 20
-28.6268691095
 10
-3.2686422939
 20
-28.6704755742
 10
-3.2088382196
 20
-28.7125882505
 10
-3.1435761054
 20
-28.7538443832
 10
-3.0726730746
 20
-28.7944870989
 10
-2.9960305448
 20
-28.8346716221
 10
-2.9131856032
 20
-28.8747033723
 10
-2.8239245177
 20
-28.914717494
 10
-2.7281513598
 20
-28.9547859173
 10
-2.6256911749
 20
-28.9950101414
 10
-2.5164456545
 20
-29.0354563555
 10
-2.4615871536
 20
-29.0546992809
  0
LINE
  5
3E8
100
AcDbEntity
  8
ASSI
100
AcDbLine
 62
7
  6
CONTINUOUS
 10
-28.5778657582
 20
1.8
 11
-29.340224833
 21
3.7031942447
  0
LINE
  5
3E9
100
AcDbEntity
  8
ASSI
100
AcDbLine
 62
7
  6
CONTINUOUS
 10
-29.3414864393
 20
3.1073647434
 11
-29.1365685151
 21
2.584346719
  0
LINE
  5
3EA
100
AcDbEntity
  8
ASSI
100
AcDbLine
 62
7
  6
CONTINUOUS
 10
-29.0599722191
 20
2.3767255287
 11
-28.8476652384
 21
1.8
  0
LINE
  5
3EB
100
AcDbEntity
  8
ASSI
100
AcDbLine
 62
7
  6
CONTINUOUS
 10
-32.1119317309
 20
3.4148314804
 11
-31.5631412432
 21
1.8
  0
LINE
  5
3EC
100
AcDbEntity
  8
ASSI
100
AcDbLine
 62
7
  6
CONTINUOUS
 10
-31.5281772525
 20
2.3585227035
 11
-31.9789243123
 21
3.7031942447
  0
LINE
  5
3ED
100
AcDbEntity
  8
ASSI
100
AcDbLine
 62
7
  6
CONTINUOUS
 10
-22.1345800842
 20
3.4840385438
 11
-22.1345800842
 21
1.8
  0
LINE
  5
3EE
100
AcDbEntity
  8
0
100
AcDbLine
 62
7
  6
CONTINUOUS
 10
-21.9615871536
 20
37.85
 11
-21.9615871536
 21
25.65
  0
LINE
  5
3EF
100
AcDbEntity
  8
0
100
AcDbLine
 62
7
  6
CONTINUOUS
 10
-21.9615871536
 20
-20.05
 11
-21.9615871536
 21
-32.25
  0
LINE
  5
3F0
100
AcDbEntity
  8
ASSI
100
AcDbLine
 62
7
  6
CONTINUOUS
 10
-21.8808208515
 20
1.8
 11
-21.8808208515
 21
3.4840385438
  0
LINE
  5
3F1
100
AcDbEntity
  8
ASSI
100
AcDbLine
 62
7
  6
CONTINUOUS
 10
-21.2579572805
 20
3.4840385438
 11
-21.2579572805
 21
3.7031942447
  0
LINE
  5
3F2
100
AcDbEntity
  8
ASSI
100
AcDbLine
 62
7
  6
CONTINUOUS
 10
-20.9695945162
 20
3.7031942447
 11
-20.9695945162
 21
1.8
  0
LINE
  5
3F3
100
AcDbEntity
  8
ASSI
100
AcDbLine
 62
7
  6
CONTINUOUS
 10
-20.7158352835
 20
1.8
 11
-20.7158352835
 21
3.7031942447
  0
LINE
  5
3F4
100
AcDbEntity
  8
0
100
AcDbLine
 62
7
  6
CONTINUOUS
 10
-18.9615871536
 20
-32.25
 11
-18.9615871536
 21
-20.05
  0
LINE
  5
3F5
100
AcDbEntity
  8
0
100
AcDbLine
 62
7
  6
CONTINUOUS
 10
-18.9615871536
 20
25.65
 11
-18.9615871536
 21
37.85
  0
LINE
  5
3F6
100
AcDbEntity
  8
0
100
AcDbLine
 62
7
  6
CONTINUOUS
 10
-16.9615871536
 20
37.85
 11
-16.9615871536
 21
25.65
  0
LINE
  5
3F7
100
AcDbEntity
  8
0
100
AcDbLine
 62
7
  6
CONTINUOUS
 10
-16.9615871536
 20
-20.05
 11
-16.9615871536
 21
-32.25
  0
LINE
  5
3F8
100
AcDbEntity
  8
ASSI
100
AcDbLine
 62
7
  6
CONTINUOUS
 10
-18.293588063
 20
1.8
 11
-18.0929956463
 21
2.3767255287
  0
LINE
  5
3F9
100
AcDbEntity
  8
ASSI
100
AcDbLine
 62
7
  6
CONTINUOUS
 10
-18.0207246817
 20
2.584346719
 11
-17.8150860156
 21
3.1399857509
  0
LINE
  5
3FA
100
AcDbEntity
  8
ASSI
100
AcDbLine
 62
7
  6
CONTINUOUS
 10
-17.8379748073
 20
3.7031942447
 11
-18.5614048429
 21
1.8
  0
LINE
  5
3FB
100
AcDbEntity
  8
ASSI
100
AcDbLine
 62
7
  6
CONTINUOUS
 10
-14.5333376158
 20
3.7031942447
 11
-15.057436841
 21
2.3240994012
  0
LINE
  5
3FC
100
AcDbEntity
  8
RACCORDO
100
AcDbLine
 62
7
  6
CONTINUOUS
 10
10.2585377622
 20
-20.25
 11
-10.1817120694
 21
-20.25
  0
LINE
  5
3FD
100
AcDbEntity
  8
0
100
AcDbLine
 62
7
  6
CONTINUOUS
 10
42.5384128464
 20
-20.1
 11
43.0384128464
 21
-20.1
  0
LINE
  5
3FE
100
AcDbEntity
  8
0
100
AcDbLine
 62
7
  6
CONTINUOUS
 10
-42.4615871536
 20
-20.1
 11
-43.9615871536
 21
-20.1
  0
LINE
  5
3FF
100
AcDbEntity
  8
0
100
AcDbLine
 62
7
  6
CONTINUOUS
 10
47.5384128464
 20
-20.1
 11
48.0384128464
 21
-20.1
  0
LINE
  5
400
100
AcDbEntity
  8
0
100
AcDbLine
 62
7
  6
CONTINUOUS
 10
-47.4615871536
 20
-20.1
 11
-48.9615871536
 21
-20.1
  0
LINE
  5
401
100
AcDbEntity
  8
0
100
AcDbLine
 62
7
  6
CONTINUOUS
 10
-52.4615871536
 20
-20.1
 11
-53.9615871536
 21
-20.1
  0
LINE
  5
402
100
AcDbEntity
  8
0
100
AcDbLine
 62
7
  6
CONTINUOUS
 10
-57.4615871536
 20
-20.1
 11
-58.9615871536
 21
-20.1
  0
LINE
  5
403
100
AcDbEntity
  8
0
100
AcDbLine
 62
7
  6
CONTINUOUS
 10
-62.4615871536
 20
-20.1
 11
-63.9615871536
 21
-20.1
  0
LINE
  5
404
100
AcDbEntity
  8
0
100
AcDbLine
 62
7
  6
CONTINUOUS
 10
67.5384128464
 20
-20.1
 11
68.0384128464
 21
-20.1
  0
LINE
  5
405
100
AcDbEntity
  8
0
100
AcDbLine
 62
7
  6
CONTINUOUS
 10
-67.4615871536
 20
-20.1
 11
-68.9615871536
 21
-20.1
  0
LINE
  5
406
100
AcDbEntity
  8
0
100
AcDbLine
 62
7
  6
CONTINUOUS
 10
72.5384128464
 20
-20.1
 11
73.0384128464
 21
-20.1
  0
LINE
  5
407
100
AcDbEntity
  8
0
100
AcDbLine
 62
7
  6
CONTINUOUS
 10
-72.4615871536
 20
-20.1
 11
-73.9615871536
 21
-20.1
  0
LINE
  5
408
100
AcDbEntity
  8
0
100
AcDbLine
 62
7
  6
CONTINUOUS
 10
77.5384128464
 20
-20.1
 11
78.0384128464
 21
-20.1
  0
LINE
  5
409
100
AcDbEntity
  8
0
100
AcDbLine
 62
7
  6
CONTINUOUS
 10
-77.4615871536
 20
-20.1
 11
-78.9615871536
 21
-20.1
  0
LINE
  5
40A
100
AcDbEntity
  8
0
100
AcDbLine
 62
7
  6
CONTINUOUS
 10
82.5384128464
 20
-20.1
 11
83.0384128464
 21
-20.1
  0
LINE
  5
40B
100
AcDbEntity
  8
0
100
AcDbLine
 62
7
  6
CONTINUOUS
 10
-82.4615871536
 20
-20.1
 11
-83.9615871536
 21
-20.1
  0
LINE
  5
40C
100
AcDbEntity
  8
0
100
AcDbLine
 62
7
  6
CONTINUOUS
 10
87.5384128464
 20
-20.1
 11
88.0384128464
 21
-20.1
  0
LINE
  5
40D
100
AcDbEntity
  8
0
100
AcDbLine
 62
7
  6
CONTINUOUS
 10
-83.9615871536
 20
-20.05
 11
-81.9615871536
 21
-20.05
  0
LINE
  5
40E
100
AcDbEntity
  8
0
100
AcDbLine
 62
7
  6
CONTINUOUS
 10
-78.9615871536
 20
-20.05
 11
-76.9615871536
 21
-20.05
  0
LINE
  5
40F
100
AcDbEntity
  8
0
100
AcDbLine
 62
7
  6
CONTINUOUS
 10
-73.9615871536
 20
-20.05
 11
-71.9615871536
 21
-20.05
  0
LINE
  5
410
100
AcDbEntity
  8
0
100
AcDbLine
 62
7
  6
CONTINUOUS
 10
-68.9615871536
 20
-20.05
 11
-66.9615871536
 21
-20.05
  0
LINE
  5
411
100
AcDbEntity
  8
0
100
AcDbLine
 62
7
  6
CONTINUOUS
 10
-63.9615871536
 20
-20.05
 11
-61.9615871536
 21
-20.05
  0
LINE
  5
412
100
AcDbEntity
  8
0
100
AcDbLine
 62
7
  6
CONTINUOUS
 10
-58.9615871536
 20
-20.05
 11
-56.9615871536
 21
-20.05
  0
LINE
  5
413
100
AcDbEntity
  8
0
100
AcDbLine
 62
7
  6
CONTINUOUS
 10
-53.9615871536
 20
-20.05
 11
-51.9615871536
 21
-20.05
  0
LINE
  5
414
100
AcDbEntity
  8
0
100
AcDbLine
 62
7
  6
CONTINUOUS
 10
-48.9615871536
 20
-20.05
 11
-46.9615871536
 21
-20.05
  0
LINE
  5
415
100
AcDbEntity
  8
0
100
AcDbLine
 62
7
  6
CONTINUOUS
 10
-43.9615871536
 20
-20.05
 11
-41.9615871536
 21
-20.05
  0
LINE
  5
416
100
AcDbEntity
  8
0
100
AcDbLine
 62
7
  6
CONTINUOUS
 10
-38.9615871536
 20
-20.05
 11
-36.9615871536
 21
-20.05
  0
LINE
  5
417
100
AcDbEntity
  8
0
100
AcDbLine
 62
7
  6
CONTINUOUS
 10
-33.9615871536
 20
-20.05
 11
-31.9615871536
 21
-20.05
  0
LINE
  5
418
100
AcDbEntity
  8
0
100
AcDbLine
 62
7
  6
CONTINUOUS
 10
-28.9615871536
 20
-20.05
 11
-26.9615871536
 21
-20.05
  0
LINE
  5
419
100
AcDbEntity
  8
0
100
AcDbLine
 62
7
  6
CONTINUOUS
 10
-23.9615871536
 20
-20.05
 11
-21.9615871536
 21
-20.05
  0
LINE
  5
41A
100
AcDbEntity
  8
0
100
AcDbLine
 62
7
  6
CONTINUOUS
 10
-18.9615871536
 20
-20.05
 11
-16.9615871536
 21
-20.05
  0
LINE
  5
41B
100
AcDbEntity
  8
0
100
AcDbLine
 62
7
  6
CONTINUOUS
 10
-13.9615871536
 20
-20.05
 11
-11.9615871536
 21
-20.05
  0
LINE
  5
41C
100
AcDbEntity
  8
0
100
AcDbLine
 62
7
  6
CONTINUOUS
 10
36.0384128464
 20
-20.05
 11
38.0384128464
 21
-20.05
  0
LINE
  5
41D
100
AcDbEntity
  8
0
100
AcDbLine
 62
7
  6
CONTINUOUS
 10
41.0384128464
 20
-20.05
 11
43.0384128464
 21
-20.05
  0
LINE
  5
41E
100
AcDbEntity
  8
0
100
AcDbLine
 62
7
  6
CONTINUOUS
 10
46.0384128464
 20
-20.05
 11
48.0384128464
 21
-20.05
  0
LINE
  5
41F
100
AcDbEntity
  8
0
100
AcDbLine
 62
7
  6
CONTINUOUS
 10
66.0384128464
 20
-20.05
 11
68.0384128464
 21
-20.05
  0
LINE
  5
420
100
AcDbEntity
  8
0
100
AcDbLine
 62
7
  6
CONTINUOUS
 10
71.0384128464
 20
-20.05
 11
73.0384128464
 21
-20.05
  0
LINE
  5
421
100
AcDbEntity
  8
0
100
AcDbLine
 62
7
  6
CONTINUOUS
 10
76.0384128464
 20
-20.05
 11
78.0384128464
 21
-20.05
  0
LINE
  5
422
100
AcDbEntity
  8
0
100
AcDbLine
 62
7
  6
CONTINUOUS
 10
81.0384128464
 20
-20.05
 11
83.0384128464
 21
-20.05
  0
LINE
  5
423
100
AcDbEntity
  8
0
100
AcDbLine
 62
7
  6
CONTINUOUS
 10
86.0384128464
 20
-20.05
 11
88.0384128464
 21
-20.05
  0
LINE
  5
424
100
AcDbEntity
  8
DRAFT
100
AcDbLine
 62
7
  6
CONTINUOUS
 10
8.1884128464
 20
-19.7
 11
8.0384128464
 21
-19.7
  0
LINE
  5
425
100
AcDbEntity
  8
DRAFT
100
AcDbLine
 62
7
  6
CONTINUOUS
 10
-7.9615871536
 20
-19.7
 11
-8.1115871536
 21
-19.7
  0
LINE
  5
426
100
AcDbEntity
  8
RACCORDO
100
AcDbLine
 62
7
  6
CONTINUOUS
 10
8.0384128464
 20
-19.4823659172
 11
-7.9615871536
 21
-19.4823659172
  0
LINE
  5
427
100
AcDbEntity
  8
RACCORDO
100
AcDbLine
 62
250
  6
CONTINUOUS
 10
7.9994241273
 20
-19.340104091
 11
-7.9225984345
 21
-19.340104091
  0
LINE
  5
428
100
AcDbEntity
  8
RACCORDO
100
AcDbLine
 62
250
  6
CONTINUOUS
 10
8.2588423719
 20
-17.2349836279
 11
52.5384128464
 21
-17.2349836279
  0
LINE
  5
429
100
AcDbEntity
  8
RACCORDO
100
AcDbLine
 62
250
  6
CONTINUOUS
 10
62.5384128464
 20
-17.2349836279
 11
104.547084639
 21
-17.2349836279
  0
LINE
  5
42A
100
AcDbEntity
  8
RACCORDO
100
AcDbLine
 62
250
  6
CONTINUOUS
 10
-8.182016679
 20
-17.2349836279
 11
-104.4702589461
 21
-17.2349836279
  0
LINE
  5
42B
100
AcDbEntity
  8
RACCORDO
100
AcDbLine
 62
250
  6
CONTINUOUS
 10
62.5384890003
 20
-17.2000761568
 11
52.5383366926
 21
-17.2000761568
  0
LINE
  5
42C
100
AcDbEntity
  8
RACCORDO
100
AcDbLine
 62
250
  6
CONTINUOUS
 10
102.548302985
 20
-15.2350597818
 11
64.5384128464
 21
-15.2350597818
  0
LINE
  5
42D
100
AcDbEntity
  8
RACCORDO
100
AcDbLine
 62
250
  6
CONTINUOUS
 10
50.5384128464
 20
-15.2350597818
 11
10.2585377622
 21
-15.2350597818
  0
LINE
  5
42E
100
AcDbEntity
  8
RACCORDO
100
AcDbLine
 62
250
  6
CONTINUOUS
 10
-10.1817120694
 20
-15.2350597818
 11
-102.4714772921
 21
-15.2350597818
  0
LINE
  5
42F
100
AcDbEntity
  8
RACCORDO
100
AcDbLine
 62
7
  6
CONTINUOUS
 10
102.6885955376
 20
-15.2
 11
10.188412858
 21
-15.2
  0
LINE
  5
430
100
AcDbEntity
  8
RACCORDO
100
AcDbLine
 62
7
  6
CONTINUOUS
 10
-10.1115871652
 20
-15.2
 11
-102.6117698447
 21
-15.2
  0
LINE
  5
431
100
AcDbEntity
  8
0
100
AcDbLine
 62
7
  6
CONTINUOUS
 10
3.0072236843
 20
-30.6699538819
 11
3.0165078612
 21
-30.6785904259
  0
LWPOLYLINE
  5
432
100
AcDbEntity
  8
0
100
AcDbPolyline
 62
7
  6
CONTINUOUS
 90
29
 70
0
 10
3.5749521067
 20
-32.5074957931
 10
3.5592064778
 20
-32.4885963655
 10
3.5425372303
 20
-32.4716275554
 10
3.5252459693
 20
-32.4566020824
 10
3.5079522535
 20
-32.4436595236
 10
3.4909391566
 20
-32.4326116884
 10
3.4743721794
 20
-32.4232293641
 10
3.4587138878
 20
-32.415458675
 10
3.4443016721
 20
-32.4091501432
 10
3.4310136869
 20
-32.4039831589
 10
3.4185890594
 20
-32.3996654365
 10
3.4071037984
 20
-32.3960763973
 10
3.3965147057
 20
-32.3930783616
 10
3.3863636703
 20
-32.3904574513
 10
3.3766093367
 20
-32.3881486127
 10
3.3672796211
 20
-32.3861118757
 10
3.3580254675
 20
-32.3842388438
 10
3.3487950234
 20
-32.3824997664
 10
3.3396180274
 20
-32.3808834562
 10
3.3302704433
 20
-32.3793387083
 10
3.3207050794
 20
-32.377851214
 10
3.3109391448
 20
-32.3764179385
 10
3.3008442999
 20
-32.3750160197
 10
3.2903881344
 20
-32.3736388979
 10
3.2795703597
 20
-32.3722847651
 10
3.2683107723
 20
-32.3709425035
 10
3.2565839
 20
-32.3696088037
 10
3.2443815117
 20
-32.3682825574
 10
3.2183622015
 20
-32.3656329643
  0
LINE
  5
433
100
AcDbEntity
  8
ASSI
100
AcDbLine
 62
7
  6
CONTINUOUS
 10
-27.2494145179
 20
2.1955977196
 11
-26.9999807927
 21
1.8
  0
LINE
  5
434
100
AcDbEntity
  8
ASSI
100
AcDbLine
 62
7
  6
CONTINUOUS
 10
-26.7018858126
 20
1.8
 11
-27.0252125676
 21
2.3174310865
  0
LINE
  5
435
100
AcDbEntity
  8
ASSI
100
AcDbLine
 62
7
  6
CONTINUOUS
 10
-16.8011304619
 20
1.8
 11
-17.5634895367
 21
3.7031942447
  0
LINE
  5
436
100
AcDbEntity
  8
ASSI
100
AcDbLine
 62
7
  6
CONTINUOUS
 10
-17.5647511431
 20
3.1073647434
 11
-17.3598332189
 21
2.584346719
  0
LINE
  5
437
100
AcDbEntity
  8
ASSI
100
AcDbLine
 62
7
  6
CONTINUOUS
 10
-17.2832369229
 20
2.3767255287
 11
-17.0709299421
 21
1.8
  0
LINE
  5
438
100
AcDbEntity
  8
RACCORDO
100
AcDbLine
 62
7
  6
CONTINUOUS
 10
-7.9608494706
 20
-14.6406307787
 11
-7.9225984345
 21
-19.340104091
  0
LINE
  5
439
100
AcDbEntity
  8
ASSI
100
AcDbLine
 62
7
  6
CONTINUOUS
 10
-14.0488881717
 20
3.7031942447
 11
-14.0488881717
 21
1.8
  0
LINE
  5
43A
100
AcDbEntity
  8
0
100
AcDbLine
 62
7
  6
CONTINUOUS
 10
-13.9615871536
 20
-32.25
 11
-13.9615871536
 21
-20.05
  0
LINE
  5
43B
100
AcDbEntity
  8
0
100
AcDbLine
 62
7
  6
CONTINUOUS
 10
-13.9615871536
 20
25.65
 11
-13.9615871536
 21
37.85
  0
LINE
  5
43C
100
AcDbEntity
  8
ASSI
100
AcDbLine
 62
7
  6
CONTINUOUS
 10
-13.795128939
 20
1.8
 11
-13.795128939
 21
3.7031942447
  0
LINE
  5
43D
100
AcDbEntity
  8
ASSI
100
AcDbLine
 62
7
  6
CONTINUOUS
 10
-12.5724708182
 20
3.7031942447
 11
-12.5724708182
 21
1.8
  0
LINE
  5
43E
100
AcDbEntity
  8
ASSI
100
AcDbLine
 62
7
  6
CONTINUOUS
 10
-12.3187115855
 20
1.8
 11
-12.3187115855
 21
3.7031942447
  0
LINE
  5
43F
100
AcDbEntity
  8
ASSI
100
AcDbLine
 62
7
  6
CONTINUOUS
 10
-12.0072798
 20
3.7031942447
 11
-12.0072798
 21
3.4840385438
  0
LINE
  5
440
100
AcDbEntity
  8
0
100
AcDbLine
 62
7
  6
CONTINUOUS
 10
-11.9615871536
 20
37.85
 11
-11.9615871536
 21
25.65
  0
LINE
  5
441
100
AcDbEntity
  8
0
100
AcDbLine
 62
7
  6
CONTINUOUS
 10
-11.9615871536
 20
-20.05
 11
-11.9615871536
 21
-32.25
  0
LINE
  5
442
100
AcDbEntity
  8
ASSI
100
AcDbLine
 62
7
  6
CONTINUOUS
 10
-11.384416229
 20
3.4840385438
 11
-11.384416229
 21
1.8
  0
LINE
  5
443
100
AcDbEntity
  8
ASSI
100
AcDbLine
 62
7
  6
CONTINUOUS
 10
-11.1306569964
 20
1.8
 11
-11.1306569964
 21
3.4840385438
  0
LINE
  5
444
100
AcDbEntity
  8
ASSI
100
AcDbLine
 62
7
  6
CONTINUOUS
 10
-10.5077934254
 20
3.4840385438
 11
-10.5077934254
 21
3.7031942447
  0
LINE
  5
445
100
AcDbEntity
  8
RACCORDO
100
AcDbLine
 62
250
  6
CONTINUOUS
 10
-10.1817120694
 20
-20.25
 11
-10.1817120694
 21
-15.2350597818
  0
LINE
  5
446
100
AcDbEntity
  8
ASSI
100
AcDbLine
 62
7
  6
CONTINUOUS
 10
-8.5007885855
 20
3.7031942447
 11
-8.5007885855
 21
1.8
  0
LINE
  5
447
100
AcDbEntity
  8
ASSI
100
AcDbLine
 62
7
  6
CONTINUOUS
 10
-8.2470293528
 20
2.0191557009
 11
-8.2470293528
 21
3.7031942447
  0
LINE
  5
448
100
AcDbEntity
  8
DRAFT
100
AcDbLine
 62
7
  6
CONTINUOUS
 10
-8.2163175431
 20
-24.45
 11
-8.2163175431
 21
-33.45
  0
LINE
  5
449
100
AcDbEntity
  8
RACCORDO
100
AcDbLine
 62
250
  6
CONTINUOUS
 10
-8.182016679
 20
-20.25
 11
-8.182016679
 21
-17.2349836279
  0
LINE
  5
44A
100
AcDbEntity
  8
RACCORDO
100
AcDbLine
 62
7
  6
CONTINUOUS
 10
-8.1115871536
 20
-20.25
 11
-8.1115871536
 21
-17.1997715471
  0
LINE
  5
44B
100
AcDbEntity
  8
RACCORDO
100
AcDbLine
 62
7
  6
CONTINUOUS
 10
-8.1115871536
 20
-24.45
 11
-8.1115871536
 21
-33.45
  0
LINE
  5
44C
100
AcDbEntity
  8
RACCORDO
100
AcDbLine
 62
7
  6
CONTINUOUS
 10
-7.9615871536
 20
-33.45
 11
-7.9615871536
 21
-24.45
  0
LINE
  5
44D
100
AcDbEntity
  8
RACCORDO
100
AcDbLine
 62
7
  6
CONTINUOUS
 10
-7.9615871536
 20
-20.25
 11
-7.9615871536
 21
-14.585976293
  0
LINE
  5
44E
100
AcDbEntity
  8
ASSI
100
AcDbLine
 62
7
  6
CONTINUOUS
 10
-7.3011994858
 20
1.8
 11
-7.3011994858
 21
2.0191557009
  0
LINE
  5
44F
100
AcDbEntity
  8
RACCORDO
100
AcDbLine
 62
250
  6
CONTINUOUS
 10
-7.2115871536
 20
-49.326973193
 11
-7.2115871536
 21
-45.85
  0
LINE
  5
450
100
AcDbEntity
  8
ASSI
100
AcDbLine
 62
7
  6
CONTINUOUS
 10
-10.1963616399
 20
1.8
 11
-9.9957692232
 21
2.3767255287
  0
LINE
  5
451
100
AcDbEntity
  8
ASSI
100
AcDbLine
 62
7
  6
CONTINUOUS
 10
-9.9234982586
 20
2.584346719
 11
-9.7178595925
 21
3.1399857509
  0
LINE
  5
452
100
AcDbEntity
  8
ASSI
100
AcDbLine
 62
7
  6
CONTINUOUS
 10
-9.7407483842
 20
3.7031942447
 11
-10.4641784198
 21
1.8
  0
LINE
  5
453
100
AcDbEntity
  8
ASSI
100
AcDbLine
 62
7
  6
CONTINUOUS
 10
-15.0210310145
 20
1.8
 11
-14.2619160703
 21
3.7031942447
  0
LINE
  5
454
100
AcDbEntity
  8
RACCORDO
100
AcDbLine
 62
250
  6
CONTINUOUS
 10
-7.9608494706
 20
-14.6406307787
 11
8.0376751635
 21
-14.6406307787
  0
LINE
  5
455
100
AcDbEntity
  8
RACCORDO
100
AcDbLine
 62
7
  6
CONTINUOUS
 10
-7.9598416471
 20
-14.55
 11
8.0366673399
 21
-14.55
  0
LINE
  5
456
100
AcDbEntity
  8
ASSI
100
AcDbLine
 62
7
  6
CONTINUOUS
 10
-52.262721704
 20
2.4043002868
 11
-52.5164809366
 21
2.4679204124
  0
LINE
  5
457
100
AcDbEntity
  8
RACCORDO
100
AcDbLine
 62
250
  6
CONTINUOUS
 10
8.1884128464
 20
-17.1997715471
 11
8.2588423719
 21
-17.2349836279
  0
LINE
  5
458
100
AcDbEntity
  8
RACCORDO
100
AcDbLine
 62
250
  6
CONTINUOUS
 10
10.188412858
 20
-15.2
 11
10.2585377622
 21
-15.2350597818
  0
LINE
  5
459
100
AcDbEntity
  8
ASSI
100
AcDbLine
 62
7
  6
CONTINUOUS
 10
-8.7039040389
 20
1.8
 11
-9.4662631136
 21
3.7031942447
  0
LINE
  5
45A
100
AcDbEntity
  8
ASSI
100
AcDbLine
 62
7
  6
CONTINUOUS
 10
-9.46752472
 20
3.1073647434
 11
-9.2626067958
 21
2.584346719
  0
LINE
  5
45B
100
AcDbEntity
  8
ASSI
100
AcDbLine
 62
7
  6
CONTINUOUS
 10
-16.0257950408
 20
3.7031942447
 11
-15.2940746252
 21
1.8
  0
LWPOLYLINE
  5
45C
100
AcDbEntity
  8
0
100
AcDbPolyline
 62
7
  6
CONTINUOUS
 90
33
 70
0
 10
-3.5469595791
 20
-32.4847744423
 10
-3.5372038808
 20
-32.5109940724
 10
-3.5254807555
 20
-32.5355953535
 10
-3.5120037424
 20
-32.5585266425
 10
-3.4970433315
 20
-32.5796241957
 10
-3.4809956045
 20
-32.598636623
 10
-3.4640361999
 20
-32.615647077
 10
-3.4464746895
 20
-32.6306644267
 10
-3.4290052727
 20
-32.6435176945
 10
-3.4119601152
 20
-32.654394803
 10
-3.3954797777
 20
-32.6635688577
 10
-3.3799924618
 20
-32.6711297668
 10
-3.3658545819
 20
-32.6772267822
 10
-3.3529305975
 20
-32.682189876
 10
-3.3408711817
 20
-32.6863410041
 10
-3.3297399955
 20
-32.6897971744
 10
-3.3195120057
 20
-32.6926836697
 10
-3.3096779622
 20
-32.6952222571
 10
-3.3001528392
 20
-32.6974817544
 10
-3.2910012338
 20
-32.6994872151
 10
-3.2819404349
 20
-32.7013305174
 10
-3.2729277281
 20
-32.7030394844
 10
-3.2639883208
 20
-32.7046260571
 10
-3.2549545144
 20
-32.7061324862
 10
-3.2458099112
 20
-32.7075698761
 10
-3.2365611802
 20
-32.708944615
 10
-3.227080544
 20
-32.7102809806
 10
-3.217342209
 20
-32.7115857745
 10
-3.207357983
 20
-32.7128602481
 10
-3.197056262
 20
-32.7141156715
 10
-3.1864217005
 20
-32.7153552159
 10
-3.1754555814
 20
-32.7165798961
 10
-3.1523783009
 20
-32.71900434
  0
LINE
  5
45D
100
AcDbEntity
  8
ASSI
100
AcDbLine
 62
7
  6
CONTINUOUS
 10
-9.1860104998
 20
2.3767255287
 11
-8.973703519
 21
1.8
  0
LINE
  5
45E
100
AcDbEntity
  8
ASSI
100
AcDbLine
 62
7
  6
CONTINUOUS
 10
-15.2618139007
 20
2.3240994012
 11
-15.7559957366
 21
3.7031942447
  0
LWPOLYLINE
  5
45F
100
AcDbEntity
  8
0
100
AcDbPolyline
 62
7
  6
CONTINUOUS
 90
5
 70
0
 10
-3.5615871424
 20
-32.3928496107
 10
-3.5615355752
 20
-32.3982966151
 10
-3.5594259388
 20
-32.42821622
 10
-3.5544644137
 20
-32.4571150938
 10
-3.5469595791
 20
-32.4847744423
  0
LINE
  5
460
100
AcDbEntity
  8
ASSI
100
AcDbLine
 62
7
  6
CONTINUOUS
 10
-6.4808073992
 20
2.6061543099
 11
-6.4808073992
 21
1.8
  0
LINE
  5
461
100
AcDbEntity
  8
ASSI
100
AcDbLine
 62
7
  6
CONTINUOUS
 10
-6.2270481665
 20
1.8
 11
-6.2270481665
 21
2.6061543099
  0
LINE
  5
462
100
AcDbEntity
  8
RACCORDO
100
AcDbLine
 62
7
  6
CONTINUOUS
 10
-5.2115871536
 20
-47.2533412824
 11
-5.2115871536
 21
-46.85
  0
LINE
  5
463
100
AcDbEntity
  8
0
100
AcDbLine
 62
7
  6
CONTINUOUS
 10
-5.0615871536
 20
-37.65
 11
-5.0615871536
 21
-33.45
  0
LINE
  5
464
100
AcDbEntity
  8
RACCORDO
100
AcDbLine
 62
7
  6
CONTINUOUS
 10
-4.9615871536
 20
-54.7500456915
 11
-4.9615871536
 21
-46.85
  0
LINE
  5
465
100
AcDbEntity
  8
RACCORDO
100
AcDbLine
 62
7
  6
CONTINUOUS
 10
-3.9615871536
 20
-29.5498476952
 11
-3.9615871536
 21
-36.5501523048
  0
LINE
  5
466
100
AcDbEntity
  8
ASSI
100
AcDbLine
 62
7
  6
CONTINUOUS
 10
-3.567138429
 20
-32.45
 11
-3.567138429
 21
-28.7553953814
  0
LINE
  5
467
100
AcDbEntity
  8
CURVE
100
AcDbLine
 62
250
  6
CONTINUOUS
 10
-3.5615871536
 20
-28.7511357788
 11
-3.5615871536
 21
-29.25
  0
LINE
  5
468
100
AcDbEntity
  8
DRAFT
100
AcDbLine
 62
7
  6
CONTINUOUS
 10
-2.6115871536
 20
-51.35
 11
-2.6115871536
 21
-52.55
  0
LINE
  5
469
100
AcDbEntity
  8
RACCORDO
100
AcDbLine
 62
7
  6
CONTINUOUS
 10
-2.4615871536
 20
-37.55
 11
-2.4615871536
 21
-36.5499238476
  0
LINE
  5
46A
100
AcDbEntity
  8
RACCORDO
100
AcDbLine
 62
7
  6
CONTINUOUS
 10
-2.4615871536
 20
-29.5500761524
 11
-2.4615871536
 21
-28.55
  0
LINE
  5
46B
100
AcDbEntity
  8
0
100
AcDbLine
 62
7
  6
CONTINUOUS
 10
-3.5614265727
 20
-28.1665552157
 11
-3.5615668416
 21
-28.1784280731
  0
LINE
  5
46C
100
AcDbEntity
  8
ASSI
100
AcDbLine
 62
7
  6
CONTINUOUS
 10
-6.2270481665
 20
2.6061543099
 11
-5.4657704686
 21
3.7031942447
  0
LINE
  5
46D
100
AcDbEntity
  8
RACCORDO
100
AcDbLine
 62
7
  6
CONTINUOUS
 10
-99.9615871536
 20
-3.95
 11
-102.9615871536
 21
-3.95
  0
LINE
  5
46E
100
AcDbEntity
  8
0
100
AcDbLine
 62
7
  6
CONTINUOUS
 10
-100.1615871536
 20
-3.7
 11
-102.9615871536
 21
-3.7
  0
LINE
  5
46F
100
AcDbEntity
  8
DRAFT
100
AcDbLine
 62
7
  6
CONTINUOUS
 10
-104.9615871536
 20
-3.7
 11
-105.0384128464
 21
-3.7
  0
LINE
  5
470
100
AcDbEntity
  8
ASSI
100
AcDbLine
 62
7
  6
CONTINUOUS
 10
37.0384128464
 20
-2.172628
 11
43.0384128464
 21
-2.172628
  0
LINE
  5
471
100
AcDbEntity
  8
ASSI
100
AcDbLine
 62
7
  6
CONTINUOUS
 10
43.0384128464
 20
-0.672628
 11
37.0384128464
 21
-0.672628
  0
LINE
  5
472
100
AcDbEntity
  8
ASSI
100
AcDbLine
 62
7
  6
CONTINUOUS
 10
49.7508144212
 20
-0.25
 11
50.767480358
 21
-0.25
  0
LINE
  5
473
100
AcDbEntity
  8
ASSI
100
AcDbLine
 62
7
  6
CONTINUOUS
 10
-40.53212445
 20
3.2187448006
 11
-40.3014342385
 21
3.1841412689
  0
LINE
  5
474
100
AcDbEntity
  8
ASSI
100
AcDbLine
 62
7
  6
CONTINUOUS
 10
-34.626455036
 20
3.2187448006
 11
-34.3957648245
 21
3.1841412689
  0
LINE
  5
475
100
AcDbEntity
  8
ASSI
100
AcDbLine
 62
7
  6
CONTINUOUS
 10
-18.6626924013
 20
2.4043002868
 11
-18.916451634
 21
2.4679204124
  0
LINE
  5
476
100
AcDbEntity
  8
ASSI
100
AcDbLine
 62
7
  6
CONTINUOUS
 10
-7.2074815653
 20
3.7031942447
 11
-6.4808073992
 21
2.6061543099
  0
LINE
  5
477
100
AcDbEntity
  8
ASSI
100
AcDbLine
 62
7
  6
CONTINUOUS
 10
-6.538840411
 20
3.1225038435
 11
-6.9056017662
 21
3.7031942447
  0
LWPOLYLINE
  5
478
100
AcDbEntity
  8
0
100
AcDbPolyline
 62
7
  6
CONTINUOUS
 90
21
 70
0
 10
3.6384080351
 20
-30.6798728532
 10
3.6379162674
 20
-30.6572876407
 10
3.6305198567
 20
-30.5930584207
 10
3.6147204657
 20
-30.5304647993
 10
3.5908136608
 20
-30.4694104699
 10
3.5594280596
 20
-30.4108608643
 10
3.5221079805
 20
-30.3564622833
 10
3.4802366297
 20
-30.3065792971
 10
3.4337833995
 20
-30.259914354
 10
3.3822807918
 20
-30.2152764997
 10
3.3257383229
 20
-30.1722380423
 10
3.2642752199
 20
-30.1305605709
 10
3.1973436906
 20
-30.0896594567
 10
3.1247604863
 20
-30.0493065789
 10
3.046430501
 20
-30.0093579904
 10
2.9619352365
 20
-29.9695396586
 10
2.8710972464
 20
-29.9297328503
 10
2.7738269071
 20
-29.8898654963
 10
2.6699516661
 20
-29.8498357186
 10
2.5593563162
 20
-29.8095700249
 10
2.4803815547
 20
-29.7822827416
  0
LWPOLYLINE
  5
479
100
AcDbEntity
  8
0
100
AcDbPolyline
 62
7
  6
CONTINUOUS
 90
9
 70
0
 10
3.6384128353
 20
-32.6928646524
 10
3.638387974
 20
-32.6890815083
 10
3.6363973248
 20
-32.6587143228
 10
3.63149652
 20
-32.6295363371
 10
3.6240607654
 20
-32.6018003579
 10
3.6144267316
 20
-32.5756611485
 10
3.6028701295
 20
-32.5511847544
 10
3.5896181602
 20
-32.5284125686
 10
3.5749526626
 20
-32.5074964603
  0
LINE
  5
47A
100
AcDbEntity
  8
RACCORDO
100
AcDbLine
 62
7
  6
CONTINUOUS
 10
2.5384128464
 20
-28.55
 11
2.5384128464
 21
-29.5500761524
  0
LINE
  5
47B
100
AcDbEntity
  8
RACCORDO
100
AcDbLine
 62
7
  6
CONTINUOUS
 10
2.5384128464
 20
-36.5499238476
 11
2.5384128464
 21
-37.55
  0
LINE
  5
47C
100
AcDbEntity
  8
DRAFT
100
AcDbLine
 62
7
  6
CONTINUOUS
 10
2.6884128464
 20
-52.55
 11
2.6884128464
 21
-51.35
  0
LINE
  5
47D
100
AcDbEntity
  8
ASSI
100
AcDbLine
 62
7
  6
CONTINUOUS
 10
3.6439641219
 20
-32.45
 11
3.6439641219
 21
-28.7553953824
  0
LINE
  5
47E
100
AcDbEntity
  8
RACCORDO
100
AcDbLine
 62
7
  6
CONTINUOUS
 10
4.0384128464
 20
-36.5501523048
 11
4.0384128464
 21
-29.5498476952
  0
LINE
  5
47F
100
AcDbEntity
  8
RACCORDO
100
AcDbLine
 62
7
  6
CONTINUOUS
 10
5.0384128464
 20
-46.85
 11
5.0384128464
 21
-54.7500456915
  0
LINE
  5
480
100
AcDbEntity
  8
0
100
AcDbLine
 62
7
  6
CONTINUOUS
 10
5.1384128464
 20
-37.65
 11
5.1384128464
 21
-33.45
  0
LINE
  5
481
100
AcDbEntity
  8
RACCORDO
100
AcDbLine
 62
7
  6
CONTINUOUS
 10
5.2884128464
 20
-46.85
 11
5.2884128464
 21
-47.2533412824
  0
LINE
  5
482
100
AcDbEntity
  8
RACCORDO
100
AcDbLine
 62
250
  6
CONTINUOUS
 10
7.2884128464
 20
-45.85
 11
7.2884128464
 21
-49.326973193
  0
LINE
  5
483
100
AcDbEntity
  8
RACCORDO
100
AcDbLine
 62
7
  6
CONTINUOUS
 10
8.0384128464
 20
-24.45
 11
8.0384128464
 21
-33.45
  0
LINE
  5
484
100
AcDbEntity
  8
RACCORDO
100
AcDbLine
 62
7
  6
CONTINUOUS
 10
8.0384128464
 20
-20.25
 11
8.0384128464
 21
-14.585976293
  0
LINE
  5
485
100
AcDbEntity
  8
RACCORDO
100
AcDbLine
 62
7
  6
CONTINUOUS
 10
8.1884128464
 20
-33.45
 11
8.1884128464
 21
-24.45
  0
LINE
  5
486
100
AcDbEntity
  8
RACCORDO
100
AcDbLine
 62
7
  6
CONTINUOUS
 10
8.1884128464
 20
-20.25
 11
8.1884128464
 21
-17.1997715471
  0
LINE
  5
487
100
AcDbEntity
  8
RACCORDO
100
AcDbLine
 62
250
  6
CONTINUOUS
 10
8.2588423719
 20
-17.2349836279
 11
8.2588423719
 21
-20.25
  0
LINE
  5
488
100
AcDbEntity
  8
DRAFT
100
AcDbLine
 62
7
  6
CONTINUOUS
 10
8.293143236
 20
-33.45
 11
8.293143236
 21
-24.45
  0
LINE
  5
489
100
AcDbEntity
  8
RACCORDO
100
AcDbLine
 62
7
  6
CONTINUOUS
 10
8.0376751635
 20
-14.6406307787
 11
7.9994241273
 21
-19.340104091
  0
LINE
  5
48A
100
AcDbEntity
  8
0
100
AcDbLine
 62
7
  6
CONTINUOUS
 10
3.6382301761
 20
-30.6914480786
 11
3.6383906309
 21
-30.6790735395
  0
LINE
  5
48B
100
AcDbEntity
  8
0
100
AcDbLine
 62
7
  6
CONTINUOUS
 10
3.6381267134
 20
-25.6946983912
 11
3.6383873402
 21
-25.6787427727
  0
LWPOLYLINE
  5
48C
100
AcDbEntity
  8
0
100
AcDbPolyline
 62
7
  6
CONTINUOUS
 90
6
 70
0
 10
-2.9656103585
 20
-28.2032833816
 10
-2.9658641707
 20
-28.2040162032
 10
-2.9674596052
 20
-28.2081468755
 10
-2.9669733177
 20
-28.2077945775
 10
-2.961870973
 20
-28.2011956406
 10
-2.9497726622
 20
-28.187964831
  0
LINE
  5
48D
100
AcDbEntity
  8
ASSI
100
AcDbLine
 62
7
  6
CONTINUOUS
 10
-18.9625896763
 20
3.1221433846
 11
-18.7088304436
 21
3.1805368554
  0
LINE
  5
48E
100
AcDbEntity
  8
ASSI
100
AcDbLine
 62
7
  6
CONTINUOUS
 10
-34.4188338457
 20
2.3305874864
 11
-34.6495240572
 21
2.2959839547
  0
LINE
  5
48F
100
AcDbEntity
  8
ASSI
100
AcDbLine
 62
7
  6
CONTINUOUS
 10
-40.3245032597
 20
2.3305874864
 11
-40.5551934712
 21
2.2959839547
  0
LINE
  5
490
100
AcDbEntity
  8
ASSI
100
AcDbLine
 62
7
  6
CONTINUOUS
 10
-35.1455080119
 20
3.2187448006
 11
-34.9148178004
 21
3.2418138218
  0
LINE
  5
491
100
AcDbEntity
  8
ASSI
100
AcDbLine
 62
7
  6
CONTINUOUS
 10
-38.0983427189
 20
3.2187448006
 11
-37.8676525074
 21
3.2418138218
  0
LINE
  5
492
100
AcDbEntity
  8
ASSI
100
AcDbLine
 62
7
  6
CONTINUOUS
 10
-24.2223264981
 20
2.4343980816
 11
-24.4645512202
 21
2.422863571
  0
LINE
  5
493
100
AcDbEntity
  8
ASSI
100
AcDbLine
 62
7
  6
CONTINUOUS
 10
-70.4872484112
 20
2.4343980816
 11
-70.7294731333
 21
2.422863571
  0
LINE
  5
494
100
AcDbEntity
  8
ASSI
100
AcDbLine
 62
7
  6
CONTINUOUS
 10
-23.2649621204
 20
3.1610722478
 11
-23.0112028878
 21
3.1726067583
  0
LINE
  5
495
100
AcDbEntity
  8
ASSI
100
AcDbLine
 62
7
  6
CONTINUOUS
 10
-69.5298840335
 20
3.1610722478
 11
-69.2761248009
 21
3.1726067583
  0
LINE
  5
496
100
AcDbEntity
  8
ASSI
100
AcDbLine
 62
7
  6
CONTINUOUS
 10
38.8057584947
 20
1.0802216218
 11
39.2543564947
 21
1.0802216218
  0
LINE
  5
497
100
AcDbEntity
  8
ASSI
100
AcDbLine
 62
7
  6
CONTINUOUS
 10
39.2543564947
 20
1.6783536218
 11
40.4985109484
 21
1.6783535905
  0
LINE
  5
498
100
AcDbEntity
  8
ASSI
100
AcDbLine
 62
7
  6
CONTINUOUS
 10
40.4985107403
 20
1.7531196649
 11
38.8742694947
 21
1.7531196218
  0
LINE
  5
499
100
AcDbEntity
  8
ASSI
100
AcDbLine
 62
7
  6
CONTINUOUS
 10
-79.229866738
 20
1.8
 11
-78.9568231273
 21
1.8
  0
LINE
  5
49A
100
AcDbEntity
  8
ASSI
100
AcDbLine
 62
7
  6
CONTINUOUS
 10
-77.9846802844
 20
1.8
 11
-77.7309210518
 21
1.8
  0
LINE
  5
49B
100
AcDbEntity
  8
ASSI
100
AcDbLine
 62
7
  6
CONTINUOUS
 10
-77.3041441606
 20
1.8
 11
-77.0503849279
 21
1.8
  0
LINE
  5
49C
100
AcDbEntity
  8
ASSI
100
AcDbLine
 62
7
  6
CONTINUOUS
 10
-76.5015944403
 20
1.8
 11
-76.2856828699
 21
1.8
  0
LINE
  5
49D
100
AcDbEntity
  8
ASSI
100
AcDbLine
 62
7
  6
CONTINUOUS
 10
-75.7239162119
 20
1.8
 11
-75.4701569793
 21
1.8
  0
LINE
  5
49E
100
AcDbEntity
  8
ASSI
100
AcDbLine
 62
7
  6
CONTINUOUS
 10
-75.2765933362
 20
1.8
 11
-75.0087765563
 21
1.8
  0
LINE
  5
49F
100
AcDbEntity
  8
ASSI
100
AcDbLine
 62
7
  6
CONTINUOUS
 10
-73.7861184354
 20
1.8
 11
-73.5163189553
 21
1.8
  0
LINE
  5
4A0
100
AcDbEntity
  8
ASSI
100
AcDbLine
 62
7
  6
CONTINUOUS
 10
-73.2901344807
 20
1.8
 11
-73.0363752481
 21
1.8
  0
LINE
  5
4A1
100
AcDbEntity
  8
ASSI
100
AcDbLine
 62
7
  6
CONTINUOUS
 10
-71.9384339898
 20
1.8
 11
-71.6403390097
 21
1.8
  0
LINE
  5
4A2
100
AcDbEntity
  8
ASSI
100
AcDbLine
 62
7
  6
CONTINUOUS
 10
-68.8724169308
 20
1.8
 11
-68.6186576982
 21
1.8
  0
LINE
  5
4A3
100
AcDbEntity
  8
ASSI
100
AcDbLine
 62
7
  6
CONTINUOUS
 10
-67.3293155506
 20
1.8
 11
-67.0614987707
 21
1.8
  0
LINE
  5
4A4
100
AcDbEntity
  8
ASSI
100
AcDbLine
 62
7
  6
CONTINUOUS
 10
-65.8388406498
 20
1.8
 11
-65.5690411697
 21
1.8
  0
LINE
  5
4A5
100
AcDbEntity
  8
ASSI
100
AcDbLine
 62
7
  6
CONTINUOUS
 10
-64.0619853329
 20
1.8
 11
-63.7889417222
 21
1.8
  0
LINE
  5
4A6
100
AcDbEntity
  8
ASSI
100
AcDbLine
 62
7
  6
CONTINUOUS
 10
-62.8167988794
 20
1.8
 11
-62.5630396467
 21
1.8
  0
LINE
  5
4A7
100
AcDbEntity
  8
ASSI
100
AcDbLine
 62
7
  6
CONTINUOUS
 10
-62.3233379614
 20
1.8
 11
-62.0555211815
 21
1.8
  0
LINE
  5
4A8
100
AcDbEntity
  8
ASSI
100
AcDbLine
 62
7
  6
CONTINUOUS
 10
-60.3599481271
 20
1.8
 11
-59.1603590273
 21
1.8
  0
LINE
  5
4A9
100
AcDbEntity
  8
ASSI
100
AcDbLine
 62
7
  6
CONTINUOUS
 10
-60.8328630606
 20
1.8
 11
-60.5630635804
 21
1.8
  0
LINE
  5
4AA
100
AcDbEntity
  8
ASSI
100
AcDbLine
 62
7
  6
CONTINUOUS
 10
-58.8604617524
 20
1.8
 11
-57.4532514624
 21
1.8
  0
LINE
  5
4AB
100
AcDbEntity
  8
ASSI
100
AcDbLine
 62
7
  6
CONTINUOUS
 10
-55.8148102724
 20
1.8
 11
-55.5417666616
 21
1.8
  0
LINE
  5
4AC
100
AcDbEntity
  8
ASSI
100
AcDbLine
 62
7
  6
CONTINUOUS
 10
-54.5696238188
 20
1.8
 11
-54.3158645862
 21
1.8
  0
LINE
  5
4AD
100
AcDbEntity
  8
ASSI
100
AcDbLine
 62
7
  6
CONTINUOUS
 10
-51.9397554079
 20
1.8
 11
-50.5325451178
 21
1.8
  0
LINE
  5
4AE
100
AcDbEntity
  8
ASSI
100
AcDbLine
 62
7
  6
CONTINUOUS
 10
-50.17497529
 20
1.8
 11
-49.9212160574
 21
1.8
  0
LINE
  5
4AF
100
AcDbEntity
  8
ASSI
100
AcDbLine
 62
7
  6
CONTINUOUS
 10
-48.9683572407
 20
1.8
 11
-48.6985579365
 21
1.8
  0
LINE
  5
4B0
100
AcDbEntity
  8
ASSI
100
AcDbLine
 62
7
  6
CONTINUOUS
 10
-48.4332641933
 20
1.8
 11
-46.9222433081
 21
1.8
  0
LINE
  5
4B1
100
AcDbEntity
  8
ASSI
100
AcDbLine
 62
7
  6
CONTINUOUS
 10
-46.8670937919
 20
1.8
 11
-46.599277012
 21
1.8
  0
LINE
  5
4B2
100
AcDbEntity
  8
ASSI
100
AcDbLine
 62
7
  6
CONTINUOUS
 10
-45.3766188912
 20
1.8
 11
-45.106819411
 21
1.8
  0
LINE
  5
4B3
100
AcDbEntity
  8
ASSI
100
AcDbLine
 62
7
  6
CONTINUOUS
 10
-43.6003042628
 20
1.8
 11
-43.3696140513
 21
1.8
  0
LINE
  5
4B4
100
AcDbEntity
  8
ASSI
100
AcDbLine
 62
7
  6
CONTINUOUS
 10
-42.0085418035
 20
1.8
 11
-41.777851592
 21
1.8
  0
LINE
  5
4B5
100
AcDbEntity
  8
ASSI
100
AcDbLine
 62
7
  6
CONTINUOUS
 10
-32.3656909635
 20
1.8
 11
-32.1119317309
 21
1.8
  0
LINE
  5
4B6
100
AcDbEntity
  8
ASSI
100
AcDbLine
 62
7
  6
CONTINUOUS
 10
-31.5631412432
 20
1.8
 11
-31.3472296729
 21
1.8
  0
LINE
  5
4B7
100
AcDbEntity
  8
ASSI
100
AcDbLine
 62
7
  6
CONTINUOUS
 10
-30.7854630148
 20
1.8
 11
-30.5317037822
 21
1.8
  0
LINE
  5
4B8
100
AcDbEntity
  8
ASSI
100
AcDbLine
 62
7
  6
CONTINUOUS
 10
-30.3381401391
 20
1.8
 11
-30.0703233592
 21
1.8
  0
LINE
  5
4B9
100
AcDbEntity
  8
ASSI
100
AcDbLine
 62
7
  6
CONTINUOUS
 10
-28.8476652384
 20
1.8
 11
-28.5778657582
 21
1.8
  0
LINE
  5
4BA
100
AcDbEntity
  8
ASSI
100
AcDbLine
 62
7
  6
CONTINUOUS
 10
-28.3516812837
 20
1.8
 11
-28.097922051
 21
1.8
  0
LINE
  5
4BB
100
AcDbEntity
  8
ASSI
100
AcDbLine
 62
7
  6
CONTINUOUS
 10
-26.9999807927
 20
1.8
 11
-26.7018858126
 21
1.8
  0
LINE
  5
4BC
100
AcDbEntity
  8
ASSI
100
AcDbLine
 62
7
  6
CONTINUOUS
 10
-22.1345800842
 20
1.8
 11
-21.8808208515
 21
1.8
  0
LINE
  5
4BD
100
AcDbEntity
  8
ASSI
100
AcDbLine
 62
7
  6
CONTINUOUS
 10
-20.9695945162
 20
1.8
 11
-20.7158352835
 21
1.8
  0
LINE
  5
4BE
100
AcDbEntity
  8
ASSI
100
AcDbLine
 62
7
  6
CONTINUOUS
 10
-18.5614048429
 20
1.8
 11
-18.293588063
 21
1.8
  0
LINE
  5
4BF
100
AcDbEntity
  8
ASSI
100
AcDbLine
 62
7
  6
CONTINUOUS
 10
-17.0709299421
 20
1.8
 11
-16.8011304619
 21
1.8
  0
LINE
  5
4C0
100
AcDbEntity
  8
ASSI
100
AcDbLine
 62
7
  6
CONTINUOUS
 10
-15.2940746252
 20
1.8
 11
-15.0210310145
 21
1.8
  0
LINE
  5
4C1
100
AcDbEntity
  8
ASSI
100
AcDbLine
 62
7
  6
CONTINUOUS
 10
-14.0488881717
 20
1.8
 11
-13.795128939
 21
1.8
  0
LINE
  5
4C2
100
AcDbEntity
  8
ASSI
100
AcDbLine
 62
7
  6
CONTINUOUS
 10
-12.5724708182
 20
1.8
 11
-12.3187115855
 21
1.8
  0
LINE
  5
4C3
100
AcDbEntity
  8
ASSI
100
AcDbLine
 62
7
  6
CONTINUOUS
 10
-11.384416229
 20
1.8
 11
-11.1306569964
 21
1.8
  0
LINE
  5
4C4
100
AcDbEntity
  8
ASSI
100
AcDbLine
 62
7
  6
CONTINUOUS
 10
-10.4641784198
 20
1.8
 11
-10.1963616399
 21
1.8
  0
LINE
  5
4C5
100
AcDbEntity
  8
ASSI
100
AcDbLine
 62
7
  6
CONTINUOUS
 10
-8.973703519
 20
1.8
 11
-8.7039040389
 21
1.8
  0
LINE
  5
4C6
100
AcDbEntity
  8
ASSI
100
AcDbLine
 62
7
  6
CONTINUOUS
 10
-8.5007885855
 20
1.8
 11
-7.3011994858
 21
1.8
  0
LINE
  5
4C7
100
AcDbEntity
  8
ASSI
100
AcDbLine
 62
7
  6
CONTINUOUS
 10
-6.4808073992
 20
1.8
 11
-6.2270481665
 21
1.8
  0
LINE
  5
4C8
100
AcDbEntity
  8
ASSI
100
AcDbLine
 62
7
  6
CONTINUOUS
 10
-7.3011994858
 20
2.0191557009
 11
-8.2470293528
 21
2.0191557009
  0
LINE
  5
4C9
100
AcDbEntity
  8
ASSI
100
AcDbLine
 62
7
  6
CONTINUOUS
 10
-46.9222433081
 20
2.0191557009
 11
-48.1458024004
 21
2.0191557009
  0
LINE
  5
4CA
100
AcDbEntity
  8
ASSI
100
AcDbLine
 62
7
  6
CONTINUOUS
 10
-50.5325451178
 20
2.0191557009
 11
-51.6859961753
 21
2.0191557009
  0
LINE
  5
4CB
100
AcDbEntity
  8
ASSI
100
AcDbLine
 62
7
  6
CONTINUOUS
 10
-57.4532514624
 20
2.0191557009
 11
-58.6067025198
 21
2.0191557009
  0
LINE
  5
4CC
100
AcDbEntity
  8
ASSI
100
AcDbLine
 62
7
  6
CONTINUOUS
 10
-59.1603590273
 20
2.0191557009
 11
-60.1061888944
 21
2.0191557009
  0
LINE
  5
4CD
100
AcDbEntity
  8
ASSI
100
AcDbLine
 62
7
  6
CONTINUOUS
 10
-42.8505610754
 20
2.2498459124
 11
-42.0085418035
 21
2.2498459124
  0
LINE
  5
4CE
100
AcDbEntity
  8
ASSI
100
AcDbLine
 62
7
  6
CONTINUOUS
 10
-41.777851592
 20
2.2498459124
 11
-41.5240923594
 21
2.2498459124
  0
LINE
  5
4CF
100
AcDbEntity
  8
ASSI
100
AcDbLine
 62
7
  6
CONTINUOUS
 10
-74.8081841396
 20
2.3767255287
 11
-73.9984254162
 21
2.3767255287
  0
LINE
  5
4D0
100
AcDbEntity
  8
ASSI
100
AcDbLine
 62
7
  6
CONTINUOUS
 10
-66.860906354
 20
2.3767255287
 11
-66.0511476306
 21
2.3767255287
  0
LINE
  5
4D1
100
AcDbEntity
  8
ASSI
100
AcDbLine
 62
7
  6
CONTINUOUS
 10
-61.8549287648
 20
2.3767255287
 11
-61.0451700414
 21
2.3767255287
  0
LINE
  5
4D2
100
AcDbEntity
  8
ASSI
100
AcDbLine
 62
7
  6
CONTINUOUS
 10
-46.3986845953
 20
2.3767255287
 11
-45.5889258719
 21
2.3767255287
  0
LINE
  5
4D3
100
AcDbEntity
  8
ASSI
100
AcDbLine
 62
7
  6
CONTINUOUS
 10
-29.8697309425
 20
2.3767255287
 11
-29.0599722191
 21
2.3767255287
  0
LINE
  5
4D4
100
AcDbEntity
  8
ASSI
100
AcDbLine
 62
7
  6
CONTINUOUS
 10
-18.0929956463
 20
2.3767255287
 11
-17.2832369229
 21
2.3767255287
  0
LINE
  5
4D5
100
AcDbEntity
  8
ASSI
100
AcDbLine
 62
7
  6
CONTINUOUS
 10
-9.9957692232
 20
2.3767255287
 11
-9.1860104998
 21
2.3767255287
  0
LINE
  5
4D6
100
AcDbEntity
  8
ASSI
100
AcDbLine
 62
7
  6
CONTINUOUS
 10
28.6102868464
 20
2.417488
 11
30.0988228464
 21
2.417488
  0
LINE
  5
4D7
100
AcDbEntity
  8
ASSI
100
AcDbLine
 62
7
  6
CONTINUOUS
 10
-41.5240923594
 20
2.4690016133
 11
-41.777851592
 21
2.4690016133
  0
LINE
  5
4D8
100
AcDbEntity
  8
ASSI
100
AcDbLine
 62
7
  6
CONTINUOUS
 10
-42.0085418035
 20
2.4690016133
 11
-42.619510405
 21
2.4690016133
  0
LINE
  5
4D9
100
AcDbEntity
  8
ASSI
100
AcDbLine
 62
7
  6
CONTINUOUS
 10
-68.6186576982
 20
2.584346719
 11
-68.1450218467
 21
2.584346719
  0
LINE
  5
4DA
100
AcDbEntity
  8
ASSI
100
AcDbLine
 62
7
  6
CONTINUOUS
 10
-9.2626067958
 20
2.584346719
 11
-9.9234982586
 21
2.584346719
  0
LINE
  5
4DB
100
AcDbEntity
  8
ASSI
100
AcDbLine
 62
7
  6
CONTINUOUS
 10
-17.3598332189
 20
2.584346719
 11
-18.0207246817
 21
2.584346719
  0
LINE
  5
4DC
100
AcDbEntity
  8
ASSI
100
AcDbLine
 62
7
  6
CONTINUOUS
 10
-29.1365685151
 20
2.584346719
 11
-29.7974599779
 21
2.584346719
  0
LINE
  5
4DD
100
AcDbEntity
  8
ASSI
100
AcDbLine
 62
7
  6
CONTINUOUS
 10
-45.665522168
 20
2.584346719
 11
-46.3264136308
 21
2.584346719
  0
LINE
  5
4DE
100
AcDbEntity
  8
ASSI
100
AcDbLine
 62
7
  6
CONTINUOUS
 10
-61.1217663374
 20
2.584346719
 11
-61.7826578002
 21
2.584346719
  0
LINE
  5
4DF
100
AcDbEntity
  8
ASSI
100
AcDbLine
 62
7
  6
CONTINUOUS
 10
-66.1277439266
 20
2.584346719
 11
-66.7886353894
 21
2.584346719
  0
LINE
  5
4E0
100
AcDbEntity
  8
ASSI
100
AcDbLine
 62
7
  6
CONTINUOUS
 10
-74.0750217122
 20
2.584346719
 11
-74.735913175
 21
2.584346719
  0
LINE
  5
4E1
100
AcDbEntity
  8
ASSI
100
AcDbLine
 62
7
  6
CONTINUOUS
 10
-73.0363752481
 20
2.6420192719
 11
-72.7471113364
 21
2.6420192719
  0
LINE
  5
4E2
100
AcDbEntity
  8
ASSI
100
AcDbLine
 62
7
  6
CONTINUOUS
 10
-28.097922051
 20
2.6420192719
 11
-27.8086581393
 21
2.6420192719
  0
LINE
  5
4E3
100
AcDbEntity
  8
ASSI
100
AcDbLine
 62
7
  6
CONTINUOUS
 10
-58.6067025198
 20
2.6766228036
 11
-57.5685965681
 21
2.6766228036
  0
LINE
  5
4E4
100
AcDbEntity
  8
ASSI
100
AcDbLine
 62
7
  6
CONTINUOUS
 10
-51.6859961753
 20
2.6766228036
 11
-50.6478902236
 21
2.6766228036
  0
LINE
  5
4E5
100
AcDbEntity
  8
ASSI
100
AcDbLine
 62
7
  6
CONTINUOUS
 10
-68.1423184046
 20
2.80350242
 11
-68.6186576982
 21
2.80350242
  0
LINE
  5
4E6
100
AcDbEntity
  8
ASSI
100
AcDbLine
 62
7
  6
CONTINUOUS
 10
-27.5619276803
 20
2.8611749728
 11
-28.097922051
 21
2.8611749728
  0
LINE
  5
4E7
100
AcDbEntity
  8
ASSI
100
AcDbLine
 62
7
  6
CONTINUOUS
 10
-72.5003808774
 20
2.8611749728
 11
-73.0363752481
 21
2.8611749728
  0
LINE
  5
4E8
100
AcDbEntity
  8
ASSI
100
AcDbLine
 62
7
  6
CONTINUOUS
 10
-50.6478902236
 20
2.8957785045
 11
-51.6859961753
 21
2.8957785045
  0
LINE
  5
4E9
100
AcDbEntity
  8
ASSI
100
AcDbLine
 62
7
  6
CONTINUOUS
 10
-57.5685965681
 20
2.8957785045
 11
-58.6067025198
 21
2.8957785045
  0
LINE
  5
4EA
100
AcDbEntity
  8
ASSI
100
AcDbLine
 62
7
  6
CONTINUOUS
 10
30.0988228464
 20
3.182488
 11
28.6102863821
 21
3.182488
  0
LINE
  5
4EB
100
AcDbEntity
  8
ASSI
100
AcDbLine
 62
7
  6
CONTINUOUS
 10
-73.0363752481
 20
3.4840385438
 11
-72.4398246528
 21
3.4840385438
  0
LINE
  5
4EC
100
AcDbEntity
  8
ASSI
100
AcDbLine
 62
7
  6
CONTINUOUS
 10
-68.6186576982
 20
3.4840385438
 11
-68.1473646539
 21
3.4840385438
  0
LINE
  5
4ED
100
AcDbEntity
  8
ASSI
100
AcDbLine
 62
7
  6
CONTINUOUS
 10
-58.6067025198
 20
3.4840385438
 11
-57.4993895047
 21
3.4840385438
  0
LINE
  5
4EE
100
AcDbEntity
  8
ASSI
100
AcDbLine
 62
7
  6
CONTINUOUS
 10
-51.6859961753
 20
3.4840385438
 11
-50.5786831601
 21
3.4840385438
  0
LINE
  5
4EF
100
AcDbEntity
  8
ASSI
100
AcDbLine
 62
7
  6
CONTINUOUS
 10
-48.3179190876
 20
3.4840385438
 11
-47.2632322
 21
3.4840385438
  0
LINE
  5
4F0
100
AcDbEntity
  8
ASSI
100
AcDbLine
 62
7
  6
CONTINUOUS
 10
-28.097922051
 20
3.4840385438
 11
-27.5013714558
 21
3.4840385438
  0
LINE
  5
4F1
100
AcDbEntity
  8
ASSI
100
AcDbLine
 62
7
  6
CONTINUOUS
 10
-22.7574436552
 20
3.4840385438
 11
-22.1345800842
 21
3.4840385438
  0
LINE
  5
4F2
100
AcDbEntity
  8
ASSI
100
AcDbLine
 62
7
  6
CONTINUOUS
 10
-21.8808208515
 20
3.4840385438
 11
-21.2579572805
 21
3.4840385438
  0
LINE
  5
4F3
100
AcDbEntity
  8
ASSI
100
AcDbLine
 62
7
  6
CONTINUOUS
 10
-12.0072798
 20
3.4840385438
 11
-11.384416229
 21
3.4840385438
  0
LINE
  5
4F4
100
AcDbEntity
  8
ASSI
100
AcDbLine
 62
7
  6
CONTINUOUS
 10
-11.1306569964
 20
3.4840385438
 11
-10.5077934254
 21
3.4840385438
  0
LINE
  5
4F5
100
AcDbEntity
  8
ASSI
100
AcDbLine
 62
7
  6
CONTINUOUS
 10
-5.4657704686
 20
3.7031942447
 11
-5.7719755993
 21
3.7031942447
  0
LINE
  5
4F6
100
AcDbEntity
  8
ASSI
100
AcDbLine
 62
7
  6
CONTINUOUS
 10
-6.9056017662
 20
3.7031942447
 11
-7.2074815653
 21
3.7031942447
  0
LINE
  5
4F7
100
AcDbEntity
  8
ASSI
100
AcDbLine
 62
7
  6
CONTINUOUS
 10
-8.2470293528
 20
3.7031942447
 11
-8.5007885855
 21
3.7031942447
  0
LINE
  5
4F8
100
AcDbEntity
  8
ASSI
100
AcDbLine
 62
7
  6
CONTINUOUS
 10
-9.4662631136
 20
3.7031942447
 11
-9.7407483842
 21
3.7031942447
  0
LINE
  5
4F9
100
AcDbEntity
  8
ASSI
100
AcDbLine
 62
7
  6
CONTINUOUS
 10
-10.5077934254
 20
3.7031942447
 11
-12.0072798
 21
3.7031942447
  0
LINE
  5
4FA
100
AcDbEntity
  8
ASSI
100
AcDbLine
 62
7
  6
CONTINUOUS
 10
-12.3187115855
 20
3.7031942447
 11
-12.5724708182
 21
3.7031942447
  0
LINE
  5
4FB
100
AcDbEntity
  8
ASSI
100
AcDbLine
 62
7
  6
CONTINUOUS
 10
-13.795128939
 20
3.7031942447
 11
-14.0488881717
 21
3.7031942447
  0
LINE
  5
4FC
100
AcDbEntity
  8
ASSI
100
AcDbLine
 62
7
  6
CONTINUOUS
 10
-14.2619160703
 20
3.7031942447
 11
-14.5333376158
 21
3.7031942447
  0
LINE
  5
4FD
100
AcDbEntity
  8
ASSI
100
AcDbLine
 62
7
  6
CONTINUOUS
 10
-15.7559957366
 20
3.7031942447
 11
-16.0257950408
 21
3.7031942447
  0
LINE
  5
4FE
100
AcDbEntity
  8
ASSI
100
AcDbLine
 62
7
  6
CONTINUOUS
 10
-17.5634895367
 20
3.7031942447
 11
-17.8379748073
 21
3.7031942447
  0
LINE
  5
4FF
100
AcDbEntity
  8
ASSI
100
AcDbLine
 62
7
  6
CONTINUOUS
 10
-20.7158352835
 20
3.7031942447
 11
-20.9695945162
 21
3.7031942447
  0
LINE
  5
500
100
AcDbEntity
  8
ASSI
100
AcDbLine
 62
7
  6
CONTINUOUS
 10
-21.2579572805
 20
3.7031942447
 11
-22.7574436552
 21
3.7031942447
  0
LINE
  5
501
100
AcDbEntity
  8
ASSI
100
AcDbLine
 62
7
  6
CONTINUOUS
 10
-27.51164436
 20
3.7031942447
 11
-28.3516812837
 21
3.7031942447
  0
LINE
  5
502
100
AcDbEntity
  8
ASSI
100
AcDbLine
 62
7
  6
CONTINUOUS
 10
-29.340224833
 20
3.7031942447
 11
-29.6147101035
 21
3.7031942447
  0
LINE
  5
503
100
AcDbEntity
  8
ASSI
100
AcDbLine
 62
7
  6
CONTINUOUS
 10
-30.5317037822
 20
3.7031942447
 11
-30.8618790814
 21
3.7031942447
  0
LINE
  5
504
100
AcDbEntity
  8
ASSI
100
AcDbLine
 62
7
  6
CONTINUOUS
 10
-31.9789243123
 20
3.7031942447
 11
-32.3656909635
 21
3.7031942447
  0
LINE
  5
505
100
AcDbEntity
  8
ASSI
100
AcDbLine
 62
7
  6
CONTINUOUS
 10
-41.777851592
 20
3.7031942447
 11
-41.9624037612
 21
3.7031942447
  0
LINE
  5
506
100
AcDbEntity
  8
ASSI
100
AcDbLine
 62
7
  6
CONTINUOUS
 10
-45.8691784858
 20
3.7031942447
 11
-46.1436637564
 21
3.7031942447
  0
LINE
  5
507
100
AcDbEntity
  8
ASSI
100
AcDbLine
 62
7
  6
CONTINUOUS
 10
-46.9683813504
 20
3.7031942447
 11
-48.3179190876
 21
3.7031942447
  0
LINE
  5
508
100
AcDbEntity
  8
ASSI
100
AcDbLine
 62
7
  6
CONTINUOUS
 10
-48.6985579365
 20
3.7031942447
 11
-48.9523171692
 21
3.7031942447
  0
LINE
  5
509
100
AcDbEntity
  8
ASSI
100
AcDbLine
 62
7
  6
CONTINUOUS
 10
-49.9051758099
 20
3.7031942447
 11
-50.17497529
 21
3.7031942447
  0
LINE
  5
50A
100
AcDbEntity
  8
ASSI
100
AcDbLine
 62
7
  6
CONTINUOUS
 10
-50.5786831601
 20
3.7031942447
 11
-51.9397554079
 21
3.7031942447
  0
LINE
  5
50B
100
AcDbEntity
  8
ASSI
100
AcDbLine
 62
7
  6
CONTINUOUS
 10
-54.3158645862
 20
3.7031942447
 11
-54.5696238188
 21
3.7031942447
  0
LINE
  5
50C
100
AcDbEntity
  8
ASSI
100
AcDbLine
 62
7
  6
CONTINUOUS
 10
-54.7826517175
 20
3.7031942447
 11
-55.0540732629
 21
3.7031942447
  0
LINE
  5
50D
100
AcDbEntity
  8
ASSI
100
AcDbLine
 62
7
  6
CONTINUOUS
 10
-56.2767313838
 20
3.7031942447
 11
-56.5465306879
 21
3.7031942447
  0
LINE
  5
50E
100
AcDbEntity
  8
ASSI
100
AcDbLine
 62
7
  6
CONTINUOUS
 10
-57.4993895047
 20
3.7031942447
 11
-58.8604617524
 21
3.7031942447
  0
LINE
  5
50F
100
AcDbEntity
  8
ASSI
100
AcDbLine
 62
7
  6
CONTINUOUS
 10
-60.1061888944
 20
3.7031942447
 11
-60.3599481271
 21
3.7031942447
  0
LINE
  5
510
100
AcDbEntity
  8
ASSI
100
AcDbLine
 62
7
  6
CONTINUOUS
 10
-61.3254226552
 20
3.7031942447
 11
-61.5999079258
 21
3.7031942447
  0
LINE
  5
511
100
AcDbEntity
  8
ASSI
100
AcDbLine
 62
7
  6
CONTINUOUS
 10
-62.5630396467
 20
3.7031942447
 11
-62.8167988794
 21
3.7031942447
  0
LINE
  5
512
100
AcDbEntity
  8
ASSI
100
AcDbLine
 62
7
  6
CONTINUOUS
 10
-63.029826778
 20
3.7031942447
 11
-63.3012483235
 21
3.7031942447
  0
LINE
  5
513
100
AcDbEntity
  8
ASSI
100
AcDbLine
 62
7
  6
CONTINUOUS
 10
-64.5239064443
 20
3.7031942447
 11
-64.7937057485
 21
3.7031942447
  0
LINE
  5
514
100
AcDbEntity
  8
ASSI
100
AcDbLine
 62
7
  6
CONTINUOUS
 10
-66.3314002444
 20
3.7031942447
 11
-66.605885515
 21
3.7031942447
  0
LINE
  5
515
100
AcDbEntity
  8
ASSI
100
AcDbLine
 62
7
  6
CONTINUOUS
 10
-68.1713348225
 20
3.7031942447
 11
-68.8724169308
 21
3.7031942447
  0
LINE
  5
516
100
AcDbEntity
  8
ASSI
100
AcDbLine
 62
7
  6
CONTINUOUS
 10
-72.4500975571
 20
3.7031942447
 11
-73.2901344807
 21
3.7031942447
  0
LINE
  5
517
100
AcDbEntity
  8
ASSI
100
AcDbLine
 62
7
  6
CONTINUOUS
 10
-74.27867803
 20
3.7031942447
 11
-74.5531633006
 21
3.7031942447
  0
LINE
  5
518
100
AcDbEntity
  8
ASSI
100
AcDbLine
 62
7
  6
CONTINUOUS
 10
-75.4701569793
 20
3.7031942447
 11
-75.8003322784
 21
3.7031942447
  0
LINE
  5
519
100
AcDbEntity
  8
ASSI
100
AcDbLine
 62
7
  6
CONTINUOUS
 10
-76.9173775094
 20
3.7031942447
 11
-77.3041441606
 21
3.7031942447
  0
LINE
  5
51A
100
AcDbEntity
  8
ASSI
100
AcDbLine
 62
7
  6
CONTINUOUS
 10
-77.7309210518
 20
3.7031942447
 11
-77.9846802844
 21
3.7031942447
  0
LINE
  5
51B
100
AcDbEntity
  8
ASSI
100
AcDbLine
 62
7
  6
CONTINUOUS
 10
-78.1977081831
 20
3.7031942447
 11
-78.4691297285
 21
3.7031942447
  0
LINE
  5
51C
100
AcDbEntity
  8
ASSI
100
AcDbLine
 62
7
  6
CONTINUOUS
 10
-79.6917878494
 20
3.7031942447
 11
-79.9615871536
 21
3.7031942447
  0
LINE
  5
51D
100
AcDbEntity
  8
ASSI
100
AcDbLine
 62
7
  6
CONTINUOUS
 10
-43.3696140513
 20
3.7147287553
 11
-43.5183010824
 21
3.7147287553
  0
LINE
  5
51E
100
AcDbEntity
  8
ASSI
100
AcDbLine
 62
7
  6
CONTINUOUS
 10
39.5441704947
 20
5.2297546218
 11
40.8525824947
 21
5.2297546218
  0
LINE
  5
51F
100
AcDbEntity
  8
ASSI
100
AcDbLine
 62
7
  6
CONTINUOUS
 10
40.7778154947
 20
5.3045216218
 11
39.6189374947
 21
5.3045216218
  0
LINE
  5
520
100
AcDbEntity
  8
ASSI
100
AcDbLine
 62
7
  6
CONTINUOUS
 10
39.6189374947
 20
5.5288216218
 11
40.7778154947
 21
5.5288216218
  0
LINE
  5
521
100
AcDbEntity
  8
ASSI
100
AcDbLine
 62
7
  6
CONTINUOUS
 10
40.8525824947
 20
5.6035866218
 11
39.5441704947
 21
5.6035866218
  0
LINE
  5
522
100
AcDbEntity
  8
ASSI
100
AcDbLine
 62
7
  6
CONTINUOUS
 10
41.5668424947
 20
5.6035866218
 11
42.2357604947
 21
5.6035866218
  0
LINE
  5
523
100
AcDbEntity
  8
ASSI
100
AcDbLine
 62
7
  6
CONTINUOUS
 10
42.1609934947
 20
5.6783536218
 11
41.5734954947
 21
5.6783536218
  0
LINE
  5
524
100
AcDbEntity
  8
ASSI
100
AcDbLine
 62
7
  6
CONTINUOUS
 10
41.6322554947
 20
6.3512496218
 11
42.0349214947
 21
6.3512496218
  0
LINE
  5
525
100
AcDbEntity
  8
ASSI
100
AcDbLine
 62
7
  6
CONTINUOUS
 10
41.4133304947
 20
6.3512496218
 11
41.5572024947
 21
6.3512496218
  0
LINE
  5
526
100
AcDbEntity
  8
ASSI
100
AcDbLine
 62
7
  6
CONTINUOUS
 10
42.1096884947
 20
6.4260166218
 11
41.6387954947
 21
6.4260166218
  0
LINE
  5
527
100
AcDbEntity
  8
ASSI
100
AcDbLine
 62
7
  6
CONTINUOUS
 10
41.5637434947
 20
6.4260166218
 11
41.3385634947
 21
6.4260166218
  0
LINE
  5
528
100
AcDbEntity
  8
ASSI
100
AcDbLine
 62
7
  6
CONTINUOUS
 10
37.7497794947
 20
6.7250816218
 11
38.3642264947
 21
6.7250816218
  0
LINE
  5
529
100
AcDbEntity
  8
ASSI
100
AcDbLine
 62
7
  6
CONTINUOUS
 10
38.4392794947
 20
6.7250816218
 11
41.5899094947
 21
6.7250816218
  0
LINE
  5
52A
100
AcDbEntity
  8
ASSI
100
AcDbLine
 62
7
  6
CONTINUOUS
 10
41.6649604947
 20
6.7250816218
 11
41.8993104947
 21
6.7250816218
  0
LINE
  5
52B
100
AcDbEntity
  8
ASSI
100
AcDbLine
 62
7
  6
CONTINUOUS
 10
41.3843594852
 20
7.0241476196
 11
38.9086574947
 21
7.0241476218
  0
LINE
  5
52C
100
AcDbEntity
  8
ASSI
100
AcDbLine
 62
7
  6
CONTINUOUS
 10
38.5348254947
 20
7.0241476218
 11
38.4131144947
 21
7.0241476218
  0
LINE
  5
52D
100
AcDbEntity
  8
ASSI
100
AcDbLine
 62
7
  6
CONTINUOUS
 10
38.3380624947
 20
7.0241476218
 11
37.7497794947
 21
7.0241476218
  0
LINE
  5
52E
100
AcDbEntity
  8
ASSI
100
AcDbLine
 62
7
  6
CONTINUOUS
 10
38.8338904947
 20
7.0989146218
 11
38.6095924947
 21
7.0989146218
  0
LINE
  5
52F
100
AcDbEntity
  8
ASSI
100
AcDbLine
 62
7
  6
CONTINUOUS
 10
39.6937044947
 20
7.3232136218
 11
40.7030494947
 21
7.3232136218
  0
LINE
  5
530
100
AcDbEntity
  8
ASSI
100
AcDbLine
 62
7
  6
CONTINUOUS
 10
40.6282824947
 20
7.3979796218
 11
39.7684704947
 21
7.3979796218
  0
LINE
  5
531
100
AcDbEntity
  8
ASSI
100
AcDbLine
 62
7
  6
CONTINUOUS
 10
38.6095924947
 20
7.5848946218
 11
38.8338904947
 21
7.5848946218
  0
LINE
  5
532
100
AcDbEntity
  8
ASSI
100
AcDbLine
 62
7
  6
CONTINUOUS
 10
38.9086574947
 20
7.6596616218
 11
38.5348254947
 21
7.6596616218
  0
LINE
  5
533
100
AcDbEntity
  8
ASSI
100
AcDbLine
 62
7
  6
CONTINUOUS
 10
39.7684704947
 20
7.6970446218
 11
40.6282824947
 21
7.6970446218
  0
LINE
  5
534
100
AcDbEntity
  8
ASSI
100
AcDbLine
 62
7
  6
CONTINUOUS
 10
40.7030494947
 20
7.7718116218
 11
39.6937044947
 21
7.7718116218
  0
LINE
  5
535
100
AcDbEntity
  8
RACCORDO
100
AcDbLine
 62
250
  6
CONTINUOUS
 10
10.2585377622
 20
-15.2350597818
 11
10.2585377622
 21
-20.25
  0
LWPOLYLINE
  5
536
100
AcDbEntity
  8
0
100
AcDbPolyline
 62
7
  6
CONTINUOUS
 90
6
 70
0
 10
3.0424927311
 20
-25.6536932387
 10
3.0427458783
 20
-25.6529683098
 10
3.0443508252
 20
-25.6488680866
 10
3.0439931988
 20
-25.6490634058
 10
3.0393142995
 20
-25.6551971251
 10
3.0281237444
 20
-25.6676235858
  0
LWPOLYLINE
  5
537
100
AcDbEntity
  8
0
100
AcDbPolyline
 62
7
  6
CONTINUOUS
 90
27
 70
0
 10
3.0431370518
 20
-30.6518927061
 10
3.0437082276
 20
-30.6504419518
 10
3.0447482506
 20
-30.6480043156
 10
3.0430980869
 20
-30.6503175416
 10
3.0370446901
 20
-30.6579063096
 10
3.0248129446
 20
-30.670966676
 10
3.0058691389
 20
-30.6883563673
 10
2.9802270539
 20
-30.7089054319
 10
2.9473109207
 20
-30.7322820142
 10
2.9064856171
 20
-30.758282373
 10
2.8579692447
 20
-30.786276823
 10
2.8014869927
 20
-30.8160737692
 10
2.736805206
 20
-30.8475092013
 10
2.664433578
 20
-30.8801367349
 10
2.584372043
 20
-30.9138326425
 10
2.4965204465
 20
-30.9485432152
 10
2.4013532913
 20
-30.9840228994
 10
2.2990424543
 20
-31.02018653
 10
2.1895752611
 20
-31.0570319934
 10
2.0731803445
 20
-31.0944887603
 10
1.9500206841
 20
-31.1325253241
 10
1.820237612
 20
-31.1711292232
 10
1.6840219728
 20
-31.210284113
 10
1.5415853544
 20
-31.2499786865
 10
1.3931798067
 20
-31.2902010061
 10
1.2390653342
 20
-31.3309473365
 10
1.0795377621
 20
-31.3722143237
  0
LINE
  5
538
100
AcDbEntity
  8
RACCORDO
100
AcDbLine
 62
250
  6
CONTINUOUS
 10
-10.1817120694
 20
-15.2350597818
 11
-10.1115871652
 21
-15.2
  0
LINE
  5
539
100
AcDbEntity
  8
RACCORDO
100
AcDbLine
 62
250
  6
CONTINUOUS
 10
-8.182016679
 20
-17.2349836279
 11
-8.1115871536
 21
-17.1997715471
  0
LINE
  5
53A
100
AcDbEntity
  8
ASSI
100
AcDbLine
 62
7
  6
CONTINUOUS
 10
-52.5626189789
 20
3.1221433846
 11
-52.3088597463
 21
3.1805368554
  0
LINE
  5
53B
100
AcDbEntity
  8
0
100
AcDbLine
 62
7
  6
CONTINUOUS
 10
-100.1615871536
 20
9.3
 11
-102.9615871536
 21
9.3
  0
LINE
  5
53C
100
AcDbEntity
  8
DRAFT
100
AcDbLine
 62
7
  6
CONTINUOUS
 10
-104.9615871536
 20
9.3
 11
-105.0384128464
 21
9.3
  0
LINE
  5
53D
100
AcDbEntity
  8
RACCORDO
100
AcDbLine
 62
7
  6
CONTINUOUS
 10
-99.9615871536
 20
9.55
 11
-102.9615871536
 21
9.55
  0
LINE
  5
53E
100
AcDbEntity
  8
ASSI
100
AcDbLine
 62
7
  6
CONTINUOUS
 10
36.6656664947
 20
7.7109676218
 11
36.5599304947
 21
7.6052316218
  0
LINE
  5
53F
100
AcDbEntity
  8
0
100
AcDbLine
 62
7
  6
CONTINUOUS
 10
3.0281237444
 20
-25.6676235858
 11
3.009904582
 21
-25.6848505402
  0
LINE
  5
540
100
AcDbEntity
  8
0
100
AcDbLine
 62
7
  6
CONTINUOUS
 10
-2.9497726622
 20
-28.187964831
 11
-2.9301668344
 21
-28.1697539598
  0
LWPOLYLINE
  5
541
100
AcDbEntity
  8
0
100
AcDbPolyline
 62
7
  6
CONTINUOUS
 90
22
 70
0
 10
3.009904582
 20
-25.6848505402
 10
2.9846720212
 20
-25.7055209583
 10
2.9518449768
 20
-25.7292122429
 10
2.9106970137
 20
-25.7557185586
 10
2.8613462425
 20
-25.7844088326
 10
2.8033969096
 20
-25.815105489
 10
2.7366149324
 20
-25.8475977675
 10
2.6615816471
 20
-25.8813762678
 10
2.5782584957
 20
-25.9163182096
 10
2.486558291
 20
-25.9523520833
 10
2.387164655
 20
-25.9891508225
 10
2.2802190306
 20
-26.0266476623
 10
2.1658042045
 20
-26.064814724
 10
2.0446414504
 20
-26.1034377875
 10
1.9170192263
 20
-26.1424745843
 10
1.7831456793
 20
-26.1819190744
 10
1.6437088206
 20
-26.2216384171
 10
1.4991116825
 20
-26.2615996812
 10
1.3496396315
 20
-26.3018100438
 10
1.1958475803
 20
-26.3422111282
 10
1.0381397472
 20
-26.3827926308
 10
0.8769127504
 20
-26.4235510842
  0
LWPOLYLINE
  5
542
100
AcDbEntity
  8
0
100
AcDbPolyline
 62
7
  6
CONTINUOUS
 90
21
 70
0
 10
-2.9301668344
 20
-28.1697539598
 10
-2.9033004668
 20
-28.1481619626
 10
-2.8688076422
 20
-28.1237363095
 10
-2.825945924
 20
-28.09662027
 10
-2.7747409014
 20
-28.0673551852
 10
-2.7147845174
 20
-28.0361040824
 10
-2.6458671032
 20
-28.0030828379
 10
-2.5683970046
 20
-27.9687144903
 10
-2.4821876175
 20
-27.9330717605
 10
-2.3872179051
 20
-27.8962679132
 10
-2.2843076759
 20
-27.8586821609
 10
-2.1736329831
 20
-27.820389981
 10
-2.0552597538
 20
-27.7814092994
 10
-1.9300156338
 20
-27.7419809506
 10
-1.7982449451
 20
-27.7021558847
 10
-1.6601532434
 20
-27.6619308957
 10
-1.5164609872
 20
-27.621438888
 10
-1.3675858668
 20
-27.5807089062
 10
-1.2138530914
 20
-27.5397371182
 10
-1.0558909626
 20
-27.4985928518
 10
-0.8941853652
 20
-27.4572990556
  0
LINE
  5
543
100
AcDbEntity
  8
DRAFT
100
AcDbLine
 62
7
  6
CONTINUOUS
 10
102.555866582
 20
17.7
 11
93.7384128464
 21
17.7
  0
LINE
  5
544
100
AcDbEntity
  8
DRAFT
100
AcDbLine
 62
7
  6
CONTINUOUS
 10
-93.6615871536
 20
17.7
 11
-102.4790408891
 21
17.7
  0
LINE
  5
545
100
AcDbEntity
  8
RACCORDO
100
AcDbLine
 62
7
  6
CONTINUOUS
 10
-102.0615871536
 20
18.1
 11
-94.0615871536
 21
18.1
  0
LINE
  5
546
100
AcDbEntity
  8
RACCORDO
100
AcDbLine
 62
7
  6
CONTINUOUS
 10
94.1384128464
 20
18.1
 11
102.1384128464
 21
18.1
  0
LINE
  5
547
100
AcDbEntity
  8
RACCORDO
100
AcDbLine
 62
250
  6
CONTINUOUS
 10
-102.0615871536
 20
18.8411809549
 11
-94.0615871536
 21
18.8411809549
  0
LINE
  5
548
100
AcDbEntity
  8
RACCORDO
100
AcDbLine
 62
250
  6
CONTINUOUS
 10
94.1384128464
 20
18.8411809549
 11
102.1384128464
 21
18.8411809549
  0
LINE
  5
549
100
AcDbEntity
  8
DRAFT
100
AcDbLine
 62
7
  6
CONTINUOUS
 10
-102.4790408891
 20
20.768583276
 11
-102.0615871536
 21
20.768583276
  0
LINE
  5
54A
100
AcDbEntity
  8
DRAFT
100
AcDbLine
 62
7
  6
CONTINUOUS
 10
102.555866582
 20
20.768583276
 11
102.1384128464
 21
20.768583276
  0
LINE
  5
54B
100
AcDbEntity
  8
DRAFT
100
AcDbLine
 62
7
  6
CONTINUOUS
 10
-94.0615871536
 20
20.768583276
 11
-93.6615871536
 21
20.768583276
  0
LINE
  5
54C
100
AcDbEntity
  8
DRAFT
100
AcDbLine
 62
7
  6
CONTINUOUS
 10
94.1384128464
 20
20.768583276
 11
93.7384128464
 21
20.768583276
  0
LINE
  5
54D
100
AcDbEntity
  8
RACCORDO
100
AcDbLine
 62
7
  6
CONTINUOUS
 10
102.6885955376
 20
20.8
 11
102.555866582
 21
20.8
  0
LINE
  5
54E
100
AcDbEntity
  8
DRAFT
100
AcDbLine
 62
7
  6
CONTINUOUS
 10
-102.0615871536
 20
20.8
 11
-94.0615871536
 21
20.8
  0
LINE
  5
54F
100
AcDbEntity
  8
DRAFT
100
AcDbLine
 62
7
  6
CONTINUOUS
 10
102.1384128464
 20
20.8
 11
94.1384128464
 21
20.8
  0
LINE
  5
550
100
AcDbEntity
  8
DRAFT
100
AcDbLine
 62
7
  6
CONTINUOUS
 10
93.7384128464
 20
20.8
 11
-93.6615871536
 21
20.8
  0
LINE
  5
551
100
AcDbEntity
  8
RACCORDO
100
AcDbLine
 62
7
  6
CONTINUOUS
 10
-102.4790408891
 20
20.8
 11
-102.6117698447
 21
20.8
  0
LINE
  5
552
100
AcDbEntity
  8
RACCORDO
100
AcDbLine
 62
250
  6
CONTINUOUS
 10
50.5384128464
 20
20.8001523106
 11
64.5384128464
 21
20.8001523106
  0
LINE
  5
553
100
AcDbEntity
  8
RACCORDO
100
AcDbLine
 62
250
  6
CONTINUOUS
 10
-102.4714772921
 20
20.8350597818
 11
-102.0615871536
 21
20.8350597818
  0
LINE
  5
554
100
AcDbEntity
  8
RACCORDO
100
AcDbLine
 62
250
  6
CONTINUOUS
 10
-94.0615871536
 20
20.8350597818
 11
50.5384128464
 21
20.8350597818
  0
LINE
  5
555
100
AcDbEntity
  8
RACCORDO
100
AcDbLine
 62
250
  6
CONTINUOUS
 10
64.5384128464
 20
20.8350597818
 11
94.1384128464
 21
20.8350597818
  0
LINE
  5
556
100
AcDbEntity
  8
RACCORDO
100
AcDbLine
 62
250
  6
CONTINUOUS
 10
102.1384128464
 20
20.8350597818
 11
102.548302985
 21
20.8350597818
  0
LINE
  5
557
100
AcDbEntity
  8
RACCORDO
100
AcDbLine
 62
250
  6
CONTINUOUS
 10
52.5383366926
 20
22.8000761568
 11
62.5384890003
 21
22.8000761568
  0
LINE
  5
558
100
AcDbEntity
  8
RACCORDO
100
AcDbLine
 62
250
  6
CONTINUOUS
 10
-104.4702589461
 20
22.8349836279
 11
-102.0615871536
 21
22.8349836279
  0
LINE
  5
559
100
AcDbEntity
  8
RACCORDO
100
AcDbLine
 62
250
  6
CONTINUOUS
 10
-94.0615871536
 20
22.8349836279
 11
52.5384128464
 21
22.8349836279
  0
LINE
  5
55A
100
AcDbEntity
  8
RACCORDO
100
AcDbLine
 62
250
  6
CONTINUOUS
 10
62.5384128464
 20
22.8349836279
 11
94.1384128464
 21
22.8349836279
  0
LINE
  5
55B
100
AcDbEntity
  8
RACCORDO
100
AcDbLine
 62
250
  6
CONTINUOUS
 10
102.1384128464
 20
22.8349836279
 11
104.547084639
 21
22.8349836279
  0
LINE
  5
55C
100
AcDbEntity
  8
ASSI
100
AcDbLine
 62
7
  6
CONTINUOUS
 10
26.2738228464
 20
0.26277
 11
26.2738228464
 21
1.033296
  0
LINE
  5
55D
100
AcDbEntity
  8
ASSI
100
AcDbLine
 62
7
  6
CONTINUOUS
 10
26.2738228464
 20
4.56668
 11
26.2738228464
 21
5.337206
  0
LINE
  5
55E
100
AcDbEntity
  8
ASSI
100
AcDbLine
 62
7
  6
CONTINUOUS
 10
30.0988228464
 20
2.417488
 11
30.0988228464
 21
3.182488
  0
LINE
  5
55F
100
AcDbEntity
  8
ASSI
100
AcDbLine
 62
7
  6
CONTINUOUS
 10
30.6088228464
 20
0.26277
 11
30.6088228464
 21
1.0332964445
  0
LINE
  5
560
100
AcDbEntity
  8
ASSI
100
AcDbLine
 62
7
  6
CONTINUOUS
 10
30.6088228464
 20
4.56668
 11
30.6088228464
 21
5.337206
  0
LINE
  5
561
100
AcDbEntity
  8
ASSI
100
AcDbLine
 62
7
  6
CONTINUOUS
 10
39.9244174947
 20
4.2407456218
 11
38.7586234947
 21
3.0749526218
  0
LINE
  5
562
100
AcDbEntity
  8
ASSI
100
AcDbLine
 62
7
  6
CONTINUOUS
 10
38.6896104947
 20
3.0059386218
 11
36.5599304947
 21
0.8762596218
  0
LINE
  5
563
100
AcDbEntity
  8
ASSI
100
AcDbLine
 62
7
  6
CONTINUOUS
 10
42.0349214947
 20
6.3512496218
 11
41.5936484947
 21
5.9099766218
  0
LINE
  5
564
100
AcDbEntity
  8
ASSI
100
AcDbLine
 62
7
  6
CONTINUOUS
 10
41.3385634947
 20
5.6548926218
 11
40.0301524947
 21
4.3464806218
  0
LINE
  5
565
100
AcDbEntity
  8
ASSI
100
AcDbLine
 62
7
  6
CONTINUOUS
 10
43.3946384947
 20
7.7109676218
 11
42.1096884947
 21
6.4260166218
  0
LINE
  5
566
100
AcDbEntity
  8
ASSI
100
AcDbLine
 62
7
  6
CONTINUOUS
 10
41.5114004947
 20
5.8277296218
 11
41.4133304947
 21
5.7296586218
  0
LINE
  5
567
100
AcDbEntity
  8
ASSI
100
AcDbLine
 62
7
  6
CONTINUOUS
 10
36.6656664947
 20
0.7705236218
 11
38.7066234947
 21
2.8114796218
  0
LINE
  5
568
100
AcDbEntity
  8
ASSI
100
AcDbLine
 62
7
  6
CONTINUOUS
 10
38.7756364947
 20
2.8804946218
 11
40.0301524947
 21
4.1350106218
  0
LINE
  5
569
100
AcDbEntity
  8
ASSI
100
AcDbLine
 62
7
  6
CONTINUOUS
 10
40.1358874947
 20
4.2407456218
 11
41.4911254947
 21
5.5959836218
  0
LINE
  5
56A
100
AcDbEntity
  8
ASSI
100
AcDbLine
 62
7
  6
CONTINUOUS
 10
41.5734954947
 20
5.6783536218
 11
42.1609934947
 21
6.2658516218
  0
LINE
  5
56B
100
AcDbEntity
  8
ASSI
100
AcDbLine
 62
7
  6
CONTINUOUS
 10
42.2357604947
 20
6.3406166218
 11
43.5003744947
 21
7.6052316218
  0
LINE
  5
56C
100
AcDbEntity
  8
ASSI
100
AcDbLine
 62
7
  6
CONTINUOUS
 10
43.3946384947
 20
0.7705236218
 11
43.5003744947
 21
0.8762596218
  0
LINE
  5
56D
100
AcDbEntity
  8
0
100
AcDbLine
 62
7
  6
CONTINUOUS
 10
88.0384128464
 20
25.65
 11
86.0384128464
 21
25.65
  0
LINE
  5
56E
100
AcDbEntity
  8
0
100
AcDbLine
 62
7
  6
CONTINUOUS
 10
83.0384128464
 20
25.65
 11
81.0384128464
 21
25.65
  0
LINE
  5
56F
100
AcDbEntity
  8
0
100
AcDbLine
 62
7
  6
CONTINUOUS
 10
78.0384128464
 20
25.65
 11
76.0384128464
 21
25.65
  0
LINE
  5
570
100
AcDbEntity
  8
0
100
AcDbLine
 62
7
  6
CONTINUOUS
 10
73.0384128464
 20
25.65
 11
71.0384128464
 21
25.65
  0
LINE
  5
571
100
AcDbEntity
  8
0
100
AcDbLine
 62
7
  6
CONTINUOUS
 10
68.0384128464
 20
25.65
 11
66.0384128464
 21
25.65
  0
LINE
  5
572
100
AcDbEntity
  8
0
100
AcDbLine
 62
7
  6
CONTINUOUS
 10
48.0384128464
 20
25.65
 11
46.0384128464
 21
25.65
  0
LINE
  5
573
100
AcDbEntity
  8
0
100
AcDbLine
 62
7
  6
CONTINUOUS
 10
43.0384128464
 20
25.65
 11
41.0384128464
 21
25.65
  0
LINE
  5
574
100
AcDbEntity
  8
0
100
AcDbLine
 62
7
  6
CONTINUOUS
 10
38.0384128464
 20
25.65
 11
36.0384128464
 21
25.65
  0
LINE
  5
575
100
AcDbEntity
  8
0
100
AcDbLine
 62
7
  6
CONTINUOUS
 10
-11.9615871536
 20
25.65
 11
-13.9615871536
 21
25.65
  0
LINE
  5
576
100
AcDbEntity
  8
0
100
AcDbLine
 62
7
  6
CONTINUOUS
 10
-16.9615871536
 20
25.65
 11
-18.9615871536
 21
25.65
  0
LINE
  5
577
100
AcDbEntity
  8
0
100
AcDbLine
 62
7
  6
CONTINUOUS
 10
-21.9615871536
 20
25.65
 11
-23.9615871536
 21
25.65
  0
LINE
  5
578
100
AcDbEntity
  8
0
100
AcDbLine
 62
7
  6
CONTINUOUS
 10
-26.9615871536
 20
25.65
 11
-28.9615871536
 21
25.65
  0
LINE
  5
579
100
AcDbEntity
  8
0
100
AcDbLine
 62
7
  6
CONTINUOUS
 10
-31.9615871536
 20
25.65
 11
-33.9615871536
 21
25.65
  0
LINE
  5
57A
100
AcDbEntity
  8
0
100
AcDbLine
 62
7
  6
CONTINUOUS
 10
-36.9615871536
 20
25.65
 11
-38.9615871536
 21
25.65
  0
LINE
  5
57B
100
AcDbEntity
  8
0
100
AcDbLine
 62
7
  6
CONTINUOUS
 10
-41.9615871536
 20
25.65
 11
-43.9615871536
 21
25.65
  0
LINE
  5
57C
100
AcDbEntity
  8
0
100
AcDbLine
 62
7
  6
CONTINUOUS
 10
-46.9615871536
 20
25.65
 11
-48.9615871536
 21
25.65
  0
LINE
  5
57D
100
AcDbEntity
  8
0
100
AcDbLine
 62
7
  6
CONTINUOUS
 10
-51.9615871536
 20
25.65
 11
-53.9615871536
 21
25.65
  0
LINE
  5
57E
100
AcDbEntity
  8
0
100
AcDbLine
 62
7
  6
CONTINUOUS
 10
-56.9615871536
 20
25.65
 11
-58.9615871536
 21
25.65
  0
LINE
  5
57F
100
AcDbEntity
  8
0
100
AcDbLine
 62
7
  6
CONTINUOUS
 10
-61.9615871536
 20
25.65
 11
-63.9615871536
 21
25.65
  0
LINE
  5
580
100
AcDbEntity
  8
0
100
AcDbLine
 62
7
  6
CONTINUOUS
 10
-66.9615871536
 20
25.65
 11
-68.9615871536
 21
25.65
  0
LINE
  5
581
100
AcDbEntity
  8
0
100
AcDbLine
 62
7
  6
CONTINUOUS
 10
-71.9615871536
 20
25.65
 11
-73.9615871536
 21
25.65
  0
LINE
  5
582
100
AcDbEntity
  8
0
100
AcDbLine
 62
7
  6
CONTINUOUS
 10
-76.9615871536
 20
25.65
 11
-78.9615871536
 21
25.65
  0
LINE
  5
583
100
AcDbEntity
  8
0
100
AcDbLine
 62
7
  6
CONTINUOUS
 10
-81.9615871536
 20
25.65
 11
-83.9615871536
 21
25.65
  0
LINE
  5
584
100
AcDbEntity
  8
0
100
AcDbLine
 62
7
  6
CONTINUOUS
 10
42.5384128464
 20
25.7
 11
43.0384128464
 21
25.7
  0
LINE
  5
585
100
AcDbEntity
  8
0
100
AcDbLine
 62
7
  6
CONTINUOUS
 10
-42.4615871536
 20
25.7
 11
-43.9615871536
 21
25.7
  0
LINE
  5
586
100
AcDbEntity
  8
0
100
AcDbLine
 62
7
  6
CONTINUOUS
 10
47.5384128464
 20
25.7
 11
48.0384128464
 21
25.7
  0
LINE
  5
587
100
AcDbEntity
  8
0
100
AcDbLine
 62
7
  6
CONTINUOUS
 10
-47.4615871536
 20
25.7
 11
-48.9615871536
 21
25.7
  0
LINE
  5
588
100
AcDbEntity
  8
0
100
AcDbLine
 62
7
  6
CONTINUOUS
 10
-52.4615871536
 20
25.7
 11
-53.9615871536
 21
25.7
  0
LINE
  5
589
100
AcDbEntity
  8
0
100
AcDbLine
 62
7
  6
CONTINUOUS
 10
-57.4615871536
 20
25.7
 11
-58.9615871536
 21
25.7
  0
LINE
  5
58A
100
AcDbEntity
  8
0
100
AcDbLine
 62
7
  6
CONTINUOUS
 10
-62.4615871536
 20
25.7
 11
-63.9615871536
 21
25.7
  0
LINE
  5
58B
100
AcDbEntity
  8
0
100
AcDbLine
 62
7
  6
CONTINUOUS
 10
67.5384128464
 20
25.7
 11
68.0384128464
 21
25.7
  0
LINE
  5
58C
100
AcDbEntity
  8
0
100
AcDbLine
 62
7
  6
CONTINUOUS
 10
-67.4615871536
 20
25.7
 11
-68.9615871536
 21
25.7
  0
LINE
  5
58D
100
AcDbEntity
  8
0
100
AcDbLine
 62
7
  6
CONTINUOUS
 10
72.5384128464
 20
25.7
 11
73.0384128464
 21
25.7
  0
LINE
  5
58E
100
AcDbEntity
  8
0
100
AcDbLine
 62
7
  6
CONTINUOUS
 10
-72.4615871536
 20
25.7
 11
-73.9615871536
 21
25.7
  0
LINE
  5
58F
100
AcDbEntity
  8
0
100
AcDbLine
 62
7
  6
CONTINUOUS
 10
77.5384128464
 20
25.7
 11
78.0384128464
 21
25.7
  0
LINE
  5
590
100
AcDbEntity
  8
0
100
AcDbLine
 62
7
  6
CONTINUOUS
 10
-77.4615871536
 20
25.7
 11
-78.9615871536
 21
25.7
  0
LINE
  5
591
100
AcDbEntity
  8
0
100
AcDbLine
 62
7
  6
CONTINUOUS
 10
82.5384128464
 20
25.7
 11
83.0384128464
 21
25.7
  0
LINE
  5
592
100
AcDbEntity
  8
0
100
AcDbLine
 62
7
  6
CONTINUOUS
 10
-82.4615871536
 20
25.7
 11
-83.9615871536
 21
25.7
  0
LINE
  5
593
100
AcDbEntity
  8
0
100
AcDbLine
 62
7
  6
CONTINUOUS
 10
87.5384128464
 20
25.7
 11
88.0384128464
 21
25.7
  0
LINE
  5
594
100
AcDbEntity
  8
RACCORDO
100
AcDbLine
 62
7
  6
CONTINUOUS
 10
-103.2615871536
 20
28.85
 11
-102.8615871536
 21
28.85
  0
LINE
  5
595
100
AcDbEntity
  8
RACCORDO
100
AcDbLine
 62
7
  6
CONTINUOUS
 10
-90.6615871536
 20
28.85
 11
-90.2615871536
 21
28.85
  0
LINE
  5
596
100
AcDbEntity
  8
DRAFT
100
AcDbLine
 62
250
  6
CONTINUOUS
 10
-94.1615871536
 20
31.45
 11
-94.0088669672
 21
31.45
  0
LINE
  5
597
100
AcDbEntity
  8
DRAFT
100
AcDbLine
 62
250
  6
CONTINUOUS
 10
-99.3615871536
 20
31.45
 11
-99.5143073399
 21
31.45
  0
LINE
  5
598
100
AcDbEntity
  8
DRAFT
100
AcDbLine
 62
7
  6
CONTINUOUS
 10
36.0384128464
 20
32.1862938651
 11
38.0384128464
 21
32.1862938651
  0
LINE
  5
599
100
AcDbEntity
  8
DRAFT
100
AcDbLine
 62
7
  6
CONTINUOUS
 10
41.0384128464
 20
32.1862938651
 11
43.0384128464
 21
32.1862938651
  0
LINE
  5
59A
100
AcDbEntity
  8
DRAFT
100
AcDbLine
 62
7
  6
CONTINUOUS
 10
46.0384128464
 20
32.1862938651
 11
48.0384128464
 21
32.1862938651
  0
LINE
  5
59B
100
AcDbEntity
  8
DRAFT
100
AcDbLine
 62
7
  6
CONTINUOUS
 10
66.0384128464
 20
32.1862938651
 11
68.0384128464
 21
32.1862938651
  0
LINE
  5
59C
100
AcDbEntity
  8
DRAFT
100
AcDbLine
 62
7
  6
CONTINUOUS
 10
71.0384128464
 20
32.1862938651
 11
73.0384128464
 21
32.1862938651
  0
LINE
  5
59D
100
AcDbEntity
  8
DRAFT
100
AcDbLine
 62
7
  6
CONTINUOUS
 10
76.0384128464
 20
32.1862938651
 11
78.0384128464
 21
32.1862938651
  0
LINE
  5
59E
100
AcDbEntity
  8
DRAFT
100
AcDbLine
 62
7
  6
CONTINUOUS
 10
81.0384128464
 20
32.1862938651
 11
83.0384128464
 21
32.1862938651
  0
LINE
  5
59F
100
AcDbEntity
  8
DRAFT
100
AcDbLine
 62
7
  6
CONTINUOUS
 10
86.0384128464
 20
32.1862938651
 11
88.0384128464
 21
32.1862938651
  0
LINE
  5
5A0
100
AcDbEntity
  8
DRAFT
100
AcDbLine
 62
7
  6
CONTINUOUS
 10
36.0384128464
 20
32.206365661
 11
38.0384128464
 21
32.206365661
  0
LINE
  5
5A1
100
AcDbEntity
  8
DRAFT
100
AcDbLine
 62
7
  6
CONTINUOUS
 10
41.0384128464
 20
32.206365661
 11
43.0384128464
 21
32.206365661
  0
LINE
  5
5A2
100
AcDbEntity
  8
DRAFT
100
AcDbLine
 62
7
  6
CONTINUOUS
 10
46.0384128464
 20
32.206365661
 11
48.0384128464
 21
32.206365661
  0
LINE
  5
5A3
100
AcDbEntity
  8
DRAFT
100
AcDbLine
 62
7
  6
CONTINUOUS
 10
66.0384128464
 20
32.206365661
 11
68.0384128464
 21
32.206365661
  0
LINE
  5
5A4
100
AcDbEntity
  8
DRAFT
100
AcDbLine
 62
7
  6
CONTINUOUS
 10
71.0384128464
 20
32.206365661
 11
73.0384128464
 21
32.206365661
  0
LINE
  5
5A5
100
AcDbEntity
  8
DRAFT
100
AcDbLine
 62
7
  6
CONTINUOUS
 10
76.0384128464
 20
32.206365661
 11
78.0384128464
 21
32.206365661
  0
LINE
  5
5A6
100
AcDbEntity
  8
DRAFT
100
AcDbLine
 62
7
  6
CONTINUOUS
 10
81.0384128464
 20
32.206365661
 11
83.0384128464
 21
32.206365661
  0
LINE
  5
5A7
100
AcDbEntity
  8
DRAFT
100
AcDbLine
 62
7
  6
CONTINUOUS
 10
86.0384128464
 20
32.206365661
 11
88.0384128464
 21
32.206365661
  0
LINE
  5
5A8
100
AcDbEntity
  8
ASSI
100
AcDbLine
 62
7
  6
CONTINUOUS
 10
36.5599304947
 20
0.8762596218
 11
36.6656664947
 21
0.7705236218
  0
LINE
  5
5A9
100
AcDbEntity
  8
ASSI
100
AcDbLine
 62
7
  6
CONTINUOUS
 10
38.5350784947
 20
5.6300836218
 11
39.9244174947
 21
4.2407456218
  0
LINE
  5
5AA
100
AcDbEntity
  8
ASSI
100
AcDbLine
 62
7
  6
CONTINUOUS
 10
36.5599304947
 20
7.6052316218
 11
38.4528314947
 21
5.7123316218
  0
LINE
  5
5AB
100
AcDbEntity
  8
ASSI
100
AcDbLine
 62
7
  6
CONTINUOUS
 10
41.3250684947
 20
2.8400946218
 11
43.3946384947
 21
0.7705236218
  0
LINE
  5
5AC
100
AcDbEntity
  8
ASSI
100
AcDbLine
 62
7
  6
CONTINUOUS
 10
40.0301524947
 20
4.1350106218
 11
41.2560544947
 21
2.9091076218
  0
LINE
  5
5AD
100
AcDbEntity
  8
ASSI
100
AcDbLine
 62
7
  6
CONTINUOUS
 10
43.5003744947
 20
0.8762596218
 11
41.3420814947
 21
3.0345516218
  0
LINE
  5
5AE
100
AcDbEntity
  8
ASSI
100
AcDbLine
 62
7
  6
CONTINUOUS
 10
41.2730664947
 20
3.1035666218
 11
40.1358874947
 21
4.2407456218
  0
LINE
  5
5AF
100
AcDbEntity
  8
ASSI
100
AcDbLine
 62
7
  6
CONTINUOUS
 10
40.0301524947
 20
4.3464806218
 11
38.5148034947
 21
5.8618296218
  0
LINE
  5
5B0
100
AcDbEntity
  8
ASSI
100
AcDbLine
 62
7
  6
CONTINUOUS
 10
38.4325564947
 20
5.9440776218
 11
36.6656664947
 21
7.7109676218
  0
LINE
  5
5B1
100
AcDbEntity
  8
ASSI
100
AcDbLine
 62
7
  6
CONTINUOUS
 10
38.4528314947
 20
5.7123316218
 11
38.6896104947
 21
3.0059386218
  0
LINE
  5
5B2
100
AcDbEntity
  8
ASSI
100
AcDbLine
 62
7
  6
CONTINUOUS
 10
38.7066234947
 20
2.8114796218
 11
38.8057584947
 21
1.6783536218
  0
LINE
  5
5B3
100
AcDbEntity
  8
ASSI
100
AcDbLine
 62
7
  6
CONTINUOUS
 10
38.3642264947
 20
6.7250816218
 11
38.4325564947
 21
5.9440776218
  0
LINE
  5
5B4
100
AcDbEntity
  8
ASSI
100
AcDbLine
 62
7
  6
CONTINUOUS
 10
38.3153986651
 20
7.2831872127
 11
38.3380624947
 21
7.0241476218
  0
LINE
  5
5B5
100
AcDbEntity
  8
ASSI
100
AcDbLine
 62
7
  6
CONTINUOUS
 10
38.4131144947
 20
7.0241476218
 11
38.3946855303
 21
7.2347985328
  0
LINE
  5
5B6
100
AcDbEntity
  8
ASSI
100
AcDbLine
 62
7
  6
CONTINUOUS
 10
38.8742694947
 20
1.7531196218
 11
38.7756364947
 21
2.8804946218
  0
LINE
  5
5B7
100
AcDbEntity
  8
ASSI
100
AcDbLine
 62
7
  6
CONTINUOUS
 10
38.7586234947
 20
3.0749526218
 11
38.5350784947
 21
5.6300836218
  0
LINE
  5
5B8
100
AcDbEntity
  8
ASSI
100
AcDbLine
 62
7
  6
CONTINUOUS
 10
38.5148034947
 20
5.8618296218
 11
38.4392794947
 21
6.7250816218
  0
LINE
  5
5B9
100
AcDbEntity
  8
0
100
AcDbLine
 62
7
  6
CONTINUOUS
 10
36.0384128464
 20
-32.25
 11
36.0384128464
 21
-20.05
  0
LINE
  5
5BA
100
AcDbEntity
  8
0
100
AcDbLine
 62
7
  6
CONTINUOUS
 10
36.0384128464
 20
25.65
 11
36.0384128464
 21
37.85
  0
LINE
  5
5BB
100
AcDbEntity
  8
ASSI
100
AcDbLine
 62
7
  6
CONTINUOUS
 10
37.0384128464
 20
-0.672628
 11
37.0384128464
 21
-2.172628
  0
LINE
  5
5BC
100
AcDbEntity
  8
ASSI
100
AcDbLine
 62
7
  6
CONTINUOUS
 10
37.7497794947
 20
7.0241476218
 11
37.7497794947
 21
6.7250816218
  0
LINE
  5
5BD
100
AcDbEntity
  8
0
100
AcDbLine
 62
7
  6
CONTINUOUS
 10
38.0384128464
 20
37.85
 11
38.0384128464
 21
25.65
  0
LINE
  5
5BE
100
AcDbEntity
  8
0
100
AcDbLine
 62
7
  6
CONTINUOUS
 10
38.0384128464
 20
-20.05
 11
38.0384128464
 21
-32.25
  0
LINE
  5
5BF
100
AcDbEntity
  8
ASSI
100
AcDbLine
 62
7
  6
CONTINUOUS
 10
38.5348254947
 20
7.6596616218
 11
38.5348253491
 21
7.3669630403
  0
LINE
  5
5C0
100
AcDbEntity
  8
ASSI
100
AcDbLine
 62
7
  6
CONTINUOUS
 10
38.5348254947
 20
7.2877087237
 11
38.5348254947
 21
7.0241476218
  0
LINE
  5
5C1
100
AcDbEntity
  8
ASSI
100
AcDbLine
 62
7
  6
CONTINUOUS
 10
38.6095924947
 20
7.0989146218
 11
38.6095923948
 21
7.3134249221
  0
LINE
  5
5C2
100
AcDbEntity
  8
ASSI
100
AcDbLine
 62
7
  6
CONTINUOUS
 10
38.6095925577
 20
7.3921344282
 11
38.6095924947
 21
7.5848946218
  0
LINE
  5
5C3
100
AcDbEntity
  8
ASSI
100
AcDbLine
 62
7
  6
CONTINUOUS
 10
38.8057584947
 20
1.6783536218
 11
38.8057584947
 21
1.0802216218
  0
LINE
  5
5C4
100
AcDbEntity
  8
ASSI
100
AcDbLine
 62
7
  6
CONTINUOUS
 10
38.8338904947
 20
7.5848946218
 11
38.8338904433
 21
7.4578278187
  0
LINE
  5
5C5
100
AcDbEntity
  8
ASSI
100
AcDbLine
 62
7
  6
CONTINUOUS
 10
38.8338905761
 20
7.380508316
 11
38.8338904947
 21
7.0989146218
  0
LINE
  5
5C6
100
AcDbEntity
  8
ASSI
100
AcDbLine
 62
7
  6
CONTINUOUS
 10
38.908657464
 20
7.4765457496
 11
38.9086574947
 21
7.6596616218
  0
LINE
  5
5C7
100
AcDbEntity
  8
ASSI
100
AcDbLine
 62
7
  6
CONTINUOUS
 10
38.9086574947
 20
7.0241476218
 11
38.9086574947
 21
7.399614753
  0
LINE
  5
5C8
100
AcDbEntity
  8
ASSI
100
AcDbLine
 62
7
  6
CONTINUOUS
 10
39.2543564947
 20
1.0802216218
 11
39.2543564947
 21
1.6783536218
  0
LINE
  5
5C9
100
AcDbEntity
  8
ASSI
100
AcDbLine
 62
7
  6
CONTINUOUS
 10
39.5441704947
 20
5.6035866218
 11
39.5441704947
 21
5.2297546218
  0
LINE
  5
5CA
100
AcDbEntity
  8
ASSI
100
AcDbLine
 62
7
  6
CONTINUOUS
 10
39.6189374947
 20
5.3045216218
 11
39.6189374947
 21
5.5288216218
  0
LINE
  5
5CB
100
AcDbEntity
  8
ASSI
100
AcDbLine
 62
7
  6
CONTINUOUS
 10
39.6937044947
 20
7.7718116218
 11
39.6937044991
 21
7.5827134904
  0
LINE
  5
5CC
100
AcDbEntity
  8
ASSI
100
AcDbLine
 62
7
  6
CONTINUOUS
 10
39.6937044991
 20
7.5079054933
 11
39.6937044947
 21
7.3232136218
  0
LINE
  5
5CD
100
AcDbEntity
  8
ASSI
100
AcDbLine
 62
7
  6
CONTINUOUS
 10
39.7684704947
 20
7.3979796218
 11
39.7684705025
 21
7.5097200884
  0
LINE
  5
5CE
100
AcDbEntity
  8
ASSI
100
AcDbLine
 62
7
  6
CONTINUOUS
 10
39.7684704964
 20
7.5844945037
 11
39.7684704947
 21
7.6970446218
  0
LINE
  5
5CF
100
AcDbEntity
  8
DRAFT
100
AcDbLine
 62
7
  6
CONTINUOUS
 10
42.5384128464
 20
25.7
 11
42.5340384133
 21
25.65
  0
LINE
  5
5D0
100
AcDbEntity
  8
RACCORDO
100
AcDbLine
 62
250
  6
CONTINUOUS
 10
103.0396311924
 20
55.05
 11
102.548302985
 21
54.5586717926
  0
LINE
  5
5D1
100
AcDbEntity
  8
RACCORDO
100
AcDbLine
 62
250
  6
CONTINUOUS
 10
105.0384128464
 20
53.051218346
 11
104.547084639
 21
52.5598901385
  0
LINE
  5
5D2
100
AcDbEntity
  8
DRAFT
100
AcDbLine
 62
7
  6
CONTINUOUS
 10
36.0384128464
 20
34.55
 11
38.0384128464
 21
34.55
  0
LINE
  5
5D3
100
AcDbEntity
  8
DRAFT
100
AcDbLine
 62
7
  6
CONTINUOUS
 10
41.0384128464
 20
34.55
 11
43.0384128464
 21
34.55
  0
LINE
  5
5D4
100
AcDbEntity
  8
DRAFT
100
AcDbLine
 62
7
  6
CONTINUOUS
 10
46.0384128464
 20
34.55
 11
48.0384128464
 21
34.55
  0
LINE
  5
5D5
100
AcDbEntity
  8
DRAFT
100
AcDbLine
 62
7
  6
CONTINUOUS
 10
66.0384128464
 20
34.55
 11
68.0384128464
 21
34.55
  0
LINE
  5
5D6
100
AcDbEntity
  8
DRAFT
100
AcDbLine
 62
7
  6
CONTINUOUS
 10
71.0384128464
 20
34.55
 11
73.0384128464
 21
34.55
  0
LINE
  5
5D7
100
AcDbEntity
  8
DRAFT
100
AcDbLine
 62
7
  6
CONTINUOUS
 10
76.0384128464
 20
34.55
 11
78.0384128464
 21
34.55
  0
LINE
  5
5D8
100
AcDbEntity
  8
DRAFT
100
AcDbLine
 62
7
  6
CONTINUOUS
 10
81.0384128464
 20
34.55
 11
83.0384128464
 21
34.55
  0
LINE
  5
5D9
100
AcDbEntity
  8
DRAFT
100
AcDbLine
 62
7
  6
CONTINUOUS
 10
86.0384128464
 20
34.55
 11
88.0384128464
 21
34.55
  0
LINE
  5
5DA
100
AcDbEntity
  8
DRAFT
100
AcDbLine
 62
250
  6
CONTINUOUS
 10
-94.1615871536
 20
36.25
 11
-94.0088669672
 21
36.25
  0
LINE
  5
5DB
100
AcDbEntity
  8
DRAFT
100
AcDbLine
 62
250
  6
CONTINUOUS
 10
-99.3615871536
 20
36.25
 11
-99.5143073399
 21
36.25
  0
LINE
  5
5DC
100
AcDbEntity
  8
0
100
AcDbLine
 62
7
  6
CONTINUOUS
 10
-83.9615871536
 20
37.85
 11
-81.9615871536
 21
37.85
  0
LINE
  5
5DD
100
AcDbEntity
  8
0
100
AcDbLine
 62
7
  6
CONTINUOUS
 10
-78.9615871536
 20
37.85
 11
-76.9615871536
 21
37.85
  0
LINE
  5
5DE
100
AcDbEntity
  8
0
100
AcDbLine
 62
7
  6
CONTINUOUS
 10
-73.9615871536
 20
37.85
 11
-71.9615871536
 21
37.85
  0
LINE
  5
5DF
100
AcDbEntity
  8
0
100
AcDbLine
 62
7
  6
CONTINUOUS
 10
-68.9615871536
 20
37.85
 11
-66.9615871536
 21
37.85
  0
LINE
  5
5E0
100
AcDbEntity
  8
0
100
AcDbLine
 62
7
  6
CONTINUOUS
 10
-63.9615871536
 20
37.85
 11
-61.9615871536
 21
37.85
  0
LINE
  5
5E1
100
AcDbEntity
  8
0
100
AcDbLine
 62
7
  6
CONTINUOUS
 10
-58.9615871536
 20
37.85
 11
-56.9615871536
 21
37.85
  0
LINE
  5
5E2
100
AcDbEntity
  8
0
100
AcDbLine
 62
7
  6
CONTINUOUS
 10
-53.9615871536
 20
37.85
 11
-51.9615871536
 21
37.85
  0
LINE
  5
5E3
100
AcDbEntity
  8
0
100
AcDbLine
 62
7
  6
CONTINUOUS
 10
-48.9615871536
 20
37.85
 11
-46.9615871536
 21
37.85
  0
LINE
  5
5E4
100
AcDbEntity
  8
0
100
AcDbLine
 62
7
  6
CONTINUOUS
 10
-43.9615871536
 20
37.85
 11
-41.9615871536
 21
37.85
  0
LINE
  5
5E5
100
AcDbEntity
  8
0
100
AcDbLine
 62
7
  6
CONTINUOUS
 10
-38.9615871536
 20
37.85
 11
-36.9615871536
 21
37.85
  0
LINE
  5
5E6
100
AcDbEntity
  8
0
100
AcDbLine
 62
7
  6
CONTINUOUS
 10
-33.9615871536
 20
37.85
 11
-31.9615871536
 21
37.85
  0
LINE
  5
5E7
100
AcDbEntity
  8
0
100
AcDbLine
 62
7
  6
CONTINUOUS
 10
-28.9615871536
 20
37.85
 11
-26.9615871536
 21
37.85
  0
LINE
  5
5E8
100
AcDbEntity
  8
0
100
AcDbLine
 62
7
  6
CONTINUOUS
 10
-23.9615871536
 20
37.85
 11
-21.9615871536
 21
37.85
  0
LINE
  5
5E9
100
AcDbEntity
  8
0
100
AcDbLine
 62
7
  6
CONTINUOUS
 10
-18.9615871536
 20
37.85
 11
-16.9615871536
 21
37.85
  0
LINE
  5
5EA
100
AcDbEntity
  8
0
100
AcDbLine
 62
7
  6
CONTINUOUS
 10
-13.9615871536
 20
37.85
 11
-11.9615871536
 21
37.85
  0
LINE
  5
5EB
100
AcDbEntity
  8
0
100
AcDbLine
 62
7
  6
CONTINUOUS
 10
36.0384128464
 20
37.85
 11
38.0384128464
 21
37.85
  0
LINE
  5
5EC
100
AcDbEntity
  8
0
100
AcDbLine
 62
7
  6
CONTINUOUS
 10
41.0384128464
 20
37.85
 11
43.0384128464
 21
37.85
  0
LINE
  5
5ED
100
AcDbEntity
  8
0
100
AcDbLine
 62
7
  6
CONTINUOUS
 10
46.0384128464
 20
37.85
 11
48.0384128464
 21
37.85
  0
LINE
  5
5EE
100
AcDbEntity
  8
0
100
AcDbLine
 62
7
  6
CONTINUOUS
 10
66.0384128464
 20
37.85
 11
68.0384128464
 21
37.85
  0
LINE
  5
5EF
100
AcDbEntity
  8
0
100
AcDbLine
 62
7
  6
CONTINUOUS
 10
71.0384128464
 20
37.85
 11
73.0384128464
 21
37.85
  0
LINE
  5
5F0
100
AcDbEntity
  8
0
100
AcDbLine
 62
7
  6
CONTINUOUS
 10
76.0384128464
 20
37.85
 11
78.0384128464
 21
37.85
  0
LINE
  5
5F1
100
AcDbEntity
  8
0
100
AcDbLine
 62
7
  6
CONTINUOUS
 10
81.0384128464
 20
37.85
 11
83.0384128464
 21
37.85
  0
LINE
  5
5F2
100
AcDbEntity
  8
0
100
AcDbLine
 62
7
  6
CONTINUOUS
 10
86.0384128464
 20
37.85
 11
88.0384128464
 21
37.85
  0
LINE
  5
5F3
100
AcDbEntity
  8
RACCORDO
100
AcDbLine
 62
7
  6
CONTINUOUS
 10
-90.2615871536
 20
38.85
 11
-90.6615871536
 21
38.85
  0
LINE
  5
5F4
100
AcDbEntity
  8
RACCORDO
100
AcDbLine
 62
7
  6
CONTINUOUS
 10
-102.8615871536
 20
38.85
 11
-103.2615871536
 21
38.85
  0
LINE
  5
5F5
100
AcDbEntity
  8
RACCORDO
100
AcDbLine
 62
7
  6
CONTINUOUS
 10
98.5384128464
 20
39.8
 11
98.9384128464
 21
39.8
  0
LINE
  5
5F6
100
AcDbEntity
  8
ASSI
100
AcDbLine
 62
7
  6
CONTINUOUS
 10
43.5003744947
 20
7.6052316218
 11
43.3946384947
 21
7.7109676218
  0
LINE
  5
5F7
100
AcDbEntity
  8
RACCORDO
100
AcDbLine
 62
250
  6
CONTINUOUS
 10
103.0396311924
 20
-49.45
 11
102.548302985
 21
-48.9586717926
  0
LINE
  5
5F8
100
AcDbEntity
  8
DRAFT
100
AcDbLine
 62
7
  6
CONTINUOUS
 10
42.5340384133
 20
-20.05
 11
42.5384128464
 21
-20.1
  0
LINE
  5
5F9
100
AcDbEntity
  8
DRAFT
100
AcDbLine
 62
7
  6
CONTINUOUS
 10
47.5340384133
 20
-20.05
 11
47.5384128464
 21
-20.1
  0
LINE
  5
5FA
100
AcDbEntity
  8
ASSI
100
AcDbLine
 62
7
  6
CONTINUOUS
 10
40.628282606
 20
7.4253091434
 11
40.6282824947
 21
7.3979796218
  0
LINE
  5
5FB
100
AcDbEntity
  8
ASSI
100
AcDbLine
 62
7
  6
CONTINUOUS
 10
40.6282824947
 20
7.6970446218
 11
40.6282825189
 21
7.5017267374
  0
LINE
  5
5FC
100
AcDbEntity
  8
ASSI
100
AcDbLine
 62
7
  6
CONTINUOUS
 10
40.7030494947
 20
7.3232136218
 11
40.7030495014
 21
7.4085716505
  0
LINE
  5
5FD
100
AcDbEntity
  8
ASSI
100
AcDbLine
 62
7
  6
CONTINUOUS
 10
40.7030495366
 20
7.4853238044
 11
40.7030494947
 21
7.7718116218
  0
LINE
  5
5FE
100
AcDbEntity
  8
ASSI
100
AcDbLine
 62
7
  6
CONTINUOUS
 10
40.7778154947
 20
5.5288216218
 11
40.7778154947
 21
5.3045216218
  0
LINE
  5
5FF
100
AcDbEntity
  8
ASSI
100
AcDbLine
 62
7
  6
CONTINUOUS
 10
40.8525824947
 20
5.2297546218
 11
40.8525824947
 21
5.6035866218
  0
LINE
  5
600
100
AcDbEntity
  8
0
100
AcDbLine
 62
7
  6
CONTINUOUS
 10
41.0384128464
 20
-32.25
 11
41.0384128464
 21
-20.05
  0
LINE
  5
601
100
AcDbEntity
  8
0
100
AcDbLine
 62
7
  6
CONTINUOUS
 10
41.0384128464
 20
25.65
 11
41.0384128464
 21
37.85
  0
LINE
  5
602
100
AcDbEntity
  8
ASSI
100
AcDbLine
 62
7
  6
CONTINUOUS
 10
41.3385634947
 20
6.4260166218
 11
41.3385634947
 21
5.6548926218
  0
LINE
  5
603
100
AcDbEntity
  8
ASSI
100
AcDbLine
 62
7
  6
CONTINUOUS
 10
41.4133304947
 20
5.7296586218
 11
41.4133304947
 21
6.3512496218
  0
LINE
  5
604
100
AcDbEntity
  8
ASSI
100
AcDbLine
 62
7
  6
CONTINUOUS
 10
41.8993104947
 20
6.7250816218
 11
41.8993106159
 21
6.8191634404
  0
LINE
  5
605
100
AcDbEntity
  8
ASSI
100
AcDbLine
 62
7
  6
CONTINUOUS
 10
42.1609934947
 20
6.2658516218
 11
42.1609934947
 21
5.6783536218
  0
LINE
  5
606
100
AcDbEntity
  8
ASSI
100
AcDbLine
 62
7
  6
CONTINUOUS
 10
42.2357604947
 20
5.6035866218
 11
42.2357604947
 21
6.3406166218
  0
LINE
  5
607
100
AcDbEntity
  8
DRAFT
100
AcDbLine
 62
7
  6
CONTINUOUS
 10
42.4249549244
 20
-26.75
 11
42.4249549244
 21
-25.45
  0
LINE
  5
608
100
AcDbEntity
  8
0
100
AcDbLine
 62
7
  6
CONTINUOUS
 10
43.0384128464
 20
37.85
 11
43.0384128464
 21
25.65
  0
LINE
  5
609
100
AcDbEntity
  8
0
100
AcDbLine
 62
7
  6
CONTINUOUS
 10
43.0384128464
 20
-20.05
 11
43.0384128464
 21
-32.25
  0
LINE
  5
60A
100
AcDbEntity
  8
ASSI
100
AcDbLine
 62
7
  6
CONTINUOUS
 10
43.0384128464
 20
-2.172628
 11
43.0384128464
 21
-0.672628
  0
LINE
  5
60B
100
AcDbEntity
  8
0
100
AcDbLine
 62
7
  6
CONTINUOUS
 10
46.0384128464
 20
-32.25
 11
46.0384128464
 21
-20.05
  0
LINE
  5
60C
100
AcDbEntity
  8
0
100
AcDbLine
 62
7
  6
CONTINUOUS
 10
46.0384128464
 20
25.65
 11
46.0384128464
 21
37.85
  0
LINE
  5
60D
100
AcDbEntity
  8
DRAFT
100
AcDbLine
 62
7
  6
CONTINUOUS
 10
47.4249549244
 20
-26.75
 11
47.4249549244
 21
-25.45
  0
LINE
  5
60E
100
AcDbEntity
  8
0
100
AcDbLine
 62
7
  6
CONTINUOUS
 10
48.0384128464
 20
37.85
 11
48.0384128464
 21
25.65
  0
LINE
  5
60F
100
AcDbEntity
  8
0
100
AcDbLine
 62
7
  6
CONTINUOUS
 10
48.0384128464
 20
-20.05
 11
48.0384128464
 21
-32.25
  0
LINE
  5
610
100
AcDbEntity
  8
ASSI
100
AcDbLine
 62
7
  6
CONTINUOUS
 10
41.5899094947
 20
6.7250816218
 11
41.5637434947
 21
6.4260166218
  0
LINE
  5
611
100
AcDbEntity
  8
ASSI
100
AcDbLine
 62
7
  6
CONTINUOUS
 10
41.4911254947
 20
5.5959836218
 11
41.2730664947
 21
3.1035666218
  0
LINE
  5
612
100
AcDbEntity
  8
ASSI
100
AcDbLine
 62
7
  6
CONTINUOUS
 10
41.2560544947
 20
2.9091076218
 11
41.2086654288
 21
2.3674528691
  0
LINE
  5
613
100
AcDbEntity
  8
ASSI
100
AcDbLine
 62
7
  6
CONTINUOUS
 10
41.5572024947
 20
6.3512496218
 11
41.5114004947
 21
5.8277296218
  0
LINE
  5
614
100
AcDbEntity
  8
ASSI
100
AcDbLine
 62
7
  6
CONTINUOUS
 10
41.5936484947
 20
5.9099766218
 11
41.6322554947
 21
6.3512496218
  0
LINE
  5
615
100
AcDbEntity
  8
ASSI
100
AcDbLine
 62
7
  6
CONTINUOUS
 10
41.6387954947
 20
6.4260166218
 11
41.6649604947
 21
6.7250816218
  0
LINE
  5
616
100
AcDbEntity
  8
ASSI
100
AcDbLine
 62
7
  6
CONTINUOUS
 10
41.3420814947
 20
3.0345516218
 11
41.5668424947
 21
5.6035866218
  0
LINE
  5
617
100
AcDbEntity
  8
ASSI
100
AcDbLine
 62
7
  6
CONTINUOUS
 10
41.282774385
 20
2.3566660857
 11
41.3250684947
 21
2.8400946218
  0
LINE
  5
618
100
AcDbEntity
  8
DRAFT
100
AcDbLine
 62
7
  6
CONTINUOUS
 10
47.5384128464
 20
25.7
 11
47.5340384133
 21
25.65
  0
LINE
  5
619
100
AcDbEntity
  8
ASSI
100
AcDbLine
 62
7
  6
CONTINUOUS
 10
51.4098642199
 20
3.4261252653
 11
50.8571381451
 21
2.2013941147
  0
LINE
  5
61A
100
AcDbEntity
  8
ASSI
100
AcDbLine
 62
7
  6
CONTINUOUS
 10
50.3239132487
 20
1.0198736077
 11
49.7508144212
 21
-0.25
  0
LINE
  5
61B
100
AcDbEntity
  8
ASSI
100
AcDbLine
 62
7
  6
CONTINUOUS
 10
51.4889482652
 20
1.2464203239
 11
51.7194581476
 21
1.7245268551
  0
LINE
  5
61C
100
AcDbEntity
  8
ASSI
100
AcDbLine
 62
7
  6
CONTINUOUS
 10
50.767480358
 20
-0.25
 11
51.0378678594
 21
0.3108192328
  0
LINE
  5
61D
100
AcDbEntity
  8
RACCORDO
100
AcDbLine
 62
250
  6
CONTINUOUS
 10
-102.6117698447
 20
20.8
 11
-102.4714772921
 21
20.8350597818
  0
LINE
  5
61E
100
AcDbEntity
  8
RACCORDO
100
AcDbLine
 62
250
  6
CONTINUOUS
 10
-104.6797835631
 20
22.7826224212
 11
-104.4702589461
 21
22.8349836279
  0
LINE
  5
61F
100
AcDbEntity
  8
RACCORDO
100
AcDbLine
 62
250
  6
CONTINUOUS
 10
102.548302985
 20
20.8350597818
 11
102.6885955376
 21
20.8
  0
LINE
  5
620
100
AcDbEntity
  8
RACCORDO
100
AcDbLine
 62
250
  6
CONTINUOUS
 10
104.547084639
 20
22.8349836279
 11
104.7566092559
 21
22.7826224212
  0
LINE
  5
621
100
AcDbEntity
  8
RACCORDO
100
AcDbLine
 62
250
  6
CONTINUOUS
 10
105.0384128464
 20
-47.451218346
 11
104.547084639
 21
-46.9598901385
  0
LINE
  5
622
100
AcDbEntity
  8
RACCORDO
100
AcDbLine
 62
250
  6
CONTINUOUS
 10
50.5384128464
 20
-15.2001523106
 11
50.5384128464
 21
-49.0983548705
  0
LINE
  5
623
100
AcDbEntity
  8
RACCORDO
100
AcDbLine
 62
250
  6
CONTINUOUS
 10
50.5384128464
 20
20.8001523106
 11
50.5384128464
 21
54.6983548705
  0
LINE
  5
624
100
AcDbEntity
  8
RACCORDO
100
AcDbLine
 62
7
  6
CONTINUOUS
 10
52.5384128464
 20
-47.0297316775
 11
52.5384128464
 21
-17.2175298924
  0
LINE
  5
625
100
AcDbEntity
  8
RACCORDO
100
AcDbLine
 62
7
  6
CONTINUOUS
 10
52.5384128464
 20
22.8175298924
 11
52.5384128464
 21
52.6297316775
  0
LINE
  5
626
100
AcDbEntity
  8
ASSI
100
AcDbLine
 62
7
  6
CONTINUOUS
 10
52.8008144205
 20
-0.25
 11
52.8008144205
 21
0.7666670313
  0
LINE
  5
627
100
AcDbEntity
  8
ASSI
100
AcDbLine
 62
7
  6
CONTINUOUS
 10
52.8008144205
 20
4.8333340618
 11
52.8008144205
 21
5.8499999985
  0
LINE
  5
628
100
AcDbEntity
  8
RACCORDO
100
AcDbLine
 62
7
  6
CONTINUOUS
 10
98.9384128464
 20
48.8
 11
98.5384128464
 21
48.8
  0
LINE
  5
629
100
AcDbEntity
  8
RACCORDO
100
AcDbLine
 62
250
  6
CONTINUOUS
 10
62.5384128464
 20
52.5598901385
 11
104.547084639
 21
52.5598901384
  0
LINE
  5
62A
100
AcDbEntity
  8
RACCORDO
100
AcDbLine
 62
250
  6
CONTINUOUS
 10
52.5384128464
 20
52.5598901385
 11
-104.4702589461
 21
52.5598901385
  0
LINE
  5
62B
100
AcDbEntity
  8
RACCORDO
100
AcDbLine
 62
250
  6
CONTINUOUS
 10
62.5396311924
 20
52.6995732165
 11
52.5371945005
 21
52.6995732165
  0
LINE
  5
62C
100
AcDbEntity
  8
RACCORDO
100
AcDbLine
 62
250
  6
CONTINUOUS
 10
102.548302985
 20
54.5586717926
 11
64.5384128464
 21
54.5586717926
  0
LINE
  5
62D
100
AcDbEntity
  8
RACCORDO
100
AcDbLine
 62
250
  6
CONTINUOUS
 10
50.5384128464
 20
54.5586717926
 11
-102.4714772921
 21
54.5586717926
  0
LINE
  5
62E
100
AcDbEntity
  8
RACCORDO
100
AcDbLine
 62
250
  6
CONTINUOUS
 10
64.5384128464
 20
54.6983548705
 11
50.5384128464
 21
54.6983548705
  0
LINE
  5
62F
100
AcDbEntity
  8
RACCORDO
100
AcDbLine
 62
7
  6
CONTINUOUS
 10
-103.461644269
 20
55.05
 11
103.5384699618
 21
55.05
  0
LINE
  5
630
100
AcDbEntity
  8
RACCORDO
100
AcDbLine
 62
7
  6
CONTINUOUS
 10
62.5384128464
 20
52.6297316775
 11
62.5384128464
 21
22.8175298924
  0
LINE
  5
631
100
AcDbEntity
  8
RACCORDO
100
AcDbLine
 62
7
  6
CONTINUOUS
 10
62.5384128464
 20
-17.2175298924
 11
62.5384128464
 21
-47.0297316775
  0
LINE
  5
632
100
AcDbEntity
  8
DRAFT
100
AcDbLine
 62
7
  6
CONTINUOUS
 10
67.5340384133
 20
-20.05
 11
67.5384128464
 21
-20.1
  0
LINE
  5
633
100
AcDbEntity
  8
DRAFT
100
AcDbLine
 62
7
  6
CONTINUOUS
 10
72.5340384133
 20
-20.05
 11
72.5384128464
 21
-20.1
  0
LINE
  5
634
100
AcDbEntity
  8
RACCORDO
100
AcDbLine
 62
250
  6
CONTINUOUS
 10
64.5384128464
 20
-15.2001523106
 11
64.5384128464
 21
-49.0983548705
  0
LINE
  5
635
100
AcDbEntity
  8
RACCORDO
100
AcDbLine
 62
250
  6
CONTINUOUS
 10
64.5384128464
 20
20.8001523106
 11
64.5384128464
 21
54.6983548705
  0
LINE
  5
636
100
AcDbEntity
  8
0
100
AcDbLine
 62
7
  6
CONTINUOUS
 10
66.0384128464
 20
-32.25
 11
66.0384128464
 21
-20.05
  0
LINE
  5
637
100
AcDbEntity
  8
0
100
AcDbLine
 62
7
  6
CONTINUOUS
 10
66.0384128464
 20
25.65
 11
66.0384128464
 21
37.85
  0
LINE
  5
638
100
AcDbEntity
  8
DRAFT
100
AcDbLine
 62
7
  6
CONTINUOUS
 10
67.4249549244
 20
-26.75
 11
67.4249549244
 21
-25.45
  0
LINE
  5
639
100
AcDbEntity
  8
0
100
AcDbLine
 62
7
  6
CONTINUOUS
 10
68.0384128464
 20
37.85
 11
68.0384128464
 21
25.65
  0
LINE
  5
63A
100
AcDbEntity
  8
0
100
AcDbLine
 62
7
  6
CONTINUOUS
 10
68.0384128464
 20
-20.05
 11
68.0384128464
 21
-32.25
  0
LINE
  5
63B
100
AcDbEntity
  8
0
100
AcDbLine
 62
7
  6
CONTINUOUS
 10
71.0384128464
 20
-32.25
 11
71.0384128464
 21
-20.05
  0
LINE
  5
63C
100
AcDbEntity
  8
0
100
AcDbLine
 62
7
  6
CONTINUOUS
 10
71.0384128464
 20
25.65
 11
71.0384128464
 21
37.85
  0
LINE
  5
63D
100
AcDbEntity
  8
DRAFT
100
AcDbLine
 62
7
  6
CONTINUOUS
 10
72.0384128464
 20
-32.25
 11
72.0384128464
 21
-29.45
  0
LINE
  5
63E
100
AcDbEntity
  8
DRAFT
100
AcDbLine
 62
7
  6
CONTINUOUS
 10
67.5384128464
 20
25.7
 11
67.5340384133
 21
25.65
  0
LINE
  5
63F
100
AcDbEntity
  8
DRAFT
100
AcDbLine
 62
7
  6
CONTINUOUS
 10
72.5384128464
 20
25.7
 11
72.5340384133
 21
25.65
  0
LINE
  5
640
100
AcDbEntity
  8
DRAFT
100
AcDbLine
 62
7
  6
CONTINUOUS
 10
77.5340384133
 20
-20.05
 11
77.5384128464
 21
-20.1
  0
LINE
  5
641
100
AcDbEntity
  8
DRAFT
100
AcDbLine
 62
7
  6
CONTINUOUS
 10
72.4249549244
 20
-26.75
 11
72.4249549244
 21
-25.45
  0
LINE
  5
642
100
AcDbEntity
  8
0
100
AcDbLine
 62
7
  6
CONTINUOUS
 10
73.0384128464
 20
37.85
 11
73.0384128464
 21
25.65
  0
LINE
  5
643
100
AcDbEntity
  8
0
100
AcDbLine
 62
7
  6
CONTINUOUS
 10
73.0384128464
 20
-20.05
 11
73.0384128464
 21
-32.25
  0
LINE
  5
644
100
AcDbEntity
  8
RACCORDO
100
AcDbLine
 62
7
  6
CONTINUOUS
 10
73.5384128464
 20
-33.8
 11
73.5384128464
 21
-34.2
  0
LINE
  5
645
100
AcDbEntity
  8
RACCORDO
100
AcDbLine
 62
7
  6
CONTINUOUS
 10
73.5384128464
 20
-46.2
 11
73.5384128464
 21
-46.6
  0
LINE
  5
646
100
AcDbEntity
  8
0
100
AcDbLine
 62
7
  6
CONTINUOUS
 10
76.0384128464
 20
-32.25
 11
76.0384128464
 21
-20.05
  0
LINE
  5
647
100
AcDbEntity
  8
0
100
AcDbLine
 62
7
  6
CONTINUOUS
 10
76.0384128464
 20
25.65
 11
76.0384128464
 21
37.85
  0
LINE
  5
648
100
AcDbEntity
  8
DRAFT
100
AcDbLine
 62
250
  6
CONTINUOUS
 10
76.1384128464
 20
-37.6
 11
76.1384128464
 21
-37.4472798137
  0
LINE
  5
649
100
AcDbEntity
  8
DRAFT
100
AcDbLine
 62
250
  6
CONTINUOUS
 10
76.1384128464
 20
-42.8
 11
76.1384128464
 21
-42.9527201863
  0
LINE
  5
64A
100
AcDbEntity
  8
DRAFT
100
AcDbLine
 62
7
  6
CONTINUOUS
 10
77.4249549244
 20
-26.75
 11
77.4249549244
 21
-25.45
  0
LINE
  5
64B
100
AcDbEntity
  8
0
100
AcDbLine
 62
7
  6
CONTINUOUS
 10
78.0384128464
 20
37.85
 11
78.0384128464
 21
25.65
  0
LINE
  5
64C
100
AcDbEntity
  8
0
100
AcDbLine
 62
7
  6
CONTINUOUS
 10
78.0384128464
 20
-20.05
 11
78.0384128464
 21
-32.25
  0
LINE
  5
64D
100
AcDbEntity
  8
DRAFT
100
AcDbLine
 62
7
  6
CONTINUOUS
 10
77.5384128464
 20
25.7
 11
77.5340384133
 21
25.65
  0
LINE
  5
64E
100
AcDbEntity
  8
DRAFT
100
AcDbLine
 62
7
  6
CONTINUOUS
 10
82.5384128464
 20
25.7
 11
82.5340384133
 21
25.65
  0
LINE
  5
64F
100
AcDbEntity
  8
DRAFT
100
AcDbLine
 62
7
  6
CONTINUOUS
 10
82.5340384133
 20
-20.05
 11
82.5384128464
 21
-20.1
  0
LINE
  5
650
100
AcDbEntity
  8
DRAFT
100
AcDbLine
 62
7
  6
CONTINUOUS
 10
87.5340384133
 20
-20.05
 11
87.5384128464
 21
-20.1
  0
LINE
  5
651
100
AcDbEntity
  8
DRAFT
100
AcDbLine
 62
250
  6
CONTINUOUS
 10
80.9384128464
 20
-37.6
 11
80.9384128464
 21
-37.4472798137
  0
LINE
  5
652
100
AcDbEntity
  8
DRAFT
100
AcDbLine
 62
250
  6
CONTINUOUS
 10
80.9384128464
 20
-42.8
 11
80.9384128464
 21
-42.9527201863
  0
LINE
  5
653
100
AcDbEntity
  8
0
100
AcDbLine
 62
7
  6
CONTINUOUS
 10
81.0384128464
 20
-32.25
 11
81.0384128464
 21
-20.05
  0
LINE
  5
654
100
AcDbEntity
  8
0
100
AcDbLine
 62
7
  6
CONTINUOUS
 10
81.0384128464
 20
25.65
 11
81.0384128464
 21
37.85
  0
LINE
  5
655
100
AcDbEntity
  8
DRAFT
100
AcDbLine
 62
7
  6
CONTINUOUS
 10
82.4249549244
 20
-26.75
 11
82.4249549244
 21
-25.45
  0
LINE
  5
656
100
AcDbEntity
  8
0
100
AcDbLine
 62
7
  6
CONTINUOUS
 10
83.0384128464
 20
37.85
 11
83.0384128464
 21
25.65
  0
LINE
  5
657
100
AcDbEntity
  8
0
100
AcDbLine
 62
7
  6
CONTINUOUS
 10
83.0384128464
 20
-20.05
 11
83.0384128464
 21
-32.25
  0
LINE
  5
658
100
AcDbEntity
  8
RACCORDO
100
AcDbLine
 62
7
  6
CONTINUOUS
 10
83.5384128464
 20
-46.6
 11
83.5384128464
 21
-46.2
  0
LINE
  5
659
100
AcDbEntity
  8
RACCORDO
100
AcDbLine
 62
7
  6
CONTINUOUS
 10
83.5384128464
 20
-34.2
 11
83.5384128464
 21
-33.8
  0
LINE
  5
65A
100
AcDbEntity
  8
0
100
AcDbLine
 62
7
  6
CONTINUOUS
 10
86.0384128464
 20
-32.25
 11
86.0384128464
 21
-20.05
  0
LINE
  5
65B
100
AcDbEntity
  8
0
100
AcDbLine
 62
7
  6
CONTINUOUS
 10
86.0384128464
 20
25.65
 11
86.0384128464
 21
37.85
  0
LINE
  5
65C
100
AcDbEntity
  8
DRAFT
100
AcDbLine
 62
7
  6
CONTINUOUS
 10
87.0384128464
 20
-20.05
 11
87.0384128464
 21
-22.2
  0
LINE
  5
65D
100
AcDbEntity
  8
DRAFT
100
AcDbLine
 62
7
  6
CONTINUOUS
 10
87.0384128464
 20
25.65
 11
87.0384128464
 21
27.8
  0
LINE
  5
65E
100
AcDbEntity
  8
DRAFT
100
AcDbLine
 62
7
  6
CONTINUOUS
 10
87.5384128464
 20
25.7
 11
87.5340384133
 21
25.65
  0
LINE
  5
65F
100
AcDbEntity
  8
0
100
AcDbLine
 62
7
  6
CONTINUOUS
 10
88.0384128464
 20
37.85
 11
88.0384128464
 21
25.65
  0
LINE
  5
660
100
AcDbEntity
  8
0
100
AcDbLine
 62
7
  6
CONTINUOUS
 10
88.0384128464
 20
-20.05
 11
88.0384128464
 21
-32.25
  0
LINE
  5
661
100
AcDbEntity
  8
DRAFT
100
AcDbLine
 62
7
  6
CONTINUOUS
 10
93.7384128464
 20
20.8
 11
93.7384128464
 21
17.7
  0
LINE
  5
662
100
AcDbEntity
  8
RACCORDO
100
AcDbLine
 62
7
  6
CONTINUOUS
 10
94.1384128464
 20
18.1
 11
94.1384128464
 21
22.8349836279
  0
LINE
  5
663
100
AcDbEntity
  8
RACCORDO
100
AcDbLine
 62
7
  6
CONTINUOUS
 10
97.0384128464
 20
-53.15
 11
97.0384128464
 21
-49.45
  0
LINE
  5
664
100
AcDbEntity
  8
RACCORDO
100
AcDbLine
 62
7
  6
CONTINUOUS
 10
98.0384128464
 20
48.3
 11
98.0384128464
 21
40.3
  0
LINE
  5
665
100
AcDbEntity
  8
RACCORDO
100
AcDbLine
 62
250
  6
CONTINUOUS
 10
98.5384128464
 20
48.8
 11
98.5384128464
 21
39.8
  0
LINE
  5
666
100
AcDbEntity
  8
RACCORDO
100
AcDbLine
 62
7
  6
CONTINUOUS
 10
98.5384128464
 20
-49.45
 11
98.5384128464
 21
-51.65
  0
LINE
  5
667
100
AcDbEntity
  8
RACCORDO
100
AcDbLine
 62
250
  6
CONTINUOUS
 10
98.9384128464
 20
39.8
 11
98.9384128464
 21
48.8
  0
LINE
  5
668
100
AcDbEntity
  8
RACCORDO
100
AcDbLine
 62
7
  6
CONTINUOUS
 10
99.4384128464
 20
40.3
 11
99.4384128464
 21
48.3
  0
LINE
  5
669
100
AcDbEntity
  8
DRAFT
100
AcDbLine
 62
7
  6
CONTINUOUS
 10
100.2747067116
 20
18.1
 11
100.2747067116
 21
17.7
  0
LINE
  5
66A
100
AcDbEntity
  8
DRAFT
100
AcDbLine
 62
7
  6
CONTINUOUS
 10
100.3384128464
 20
18.1
 11
100.3384128464
 21
17.7
  0
LINE
  5
66B
100
AcDbEntity
  8
RACCORDO
100
AcDbLine
 62
7
  6
CONTINUOUS
 10
101.0384128464
 20
-52.25
 11
101.0384128464
 21
-53.15
  0
LINE
  5
66C
100
AcDbEntity
  8
RACCORDO
100
AcDbLine
 62
7
  6
CONTINUOUS
 10
102.1384128464
 20
18.1
 11
102.1384128464
 21
22.8349836279
  0
LINE
  5
66D
100
AcDbEntity
  8
DRAFT
100
AcDbLine
 62
7
  6
CONTINUOUS
 10
102.4982661971
 20
20.768583276
 11
102.4982661971
 21
17.7
  0
LINE
  5
66E
100
AcDbEntity
  8
DRAFT
100
AcDbLine
 62
7
  6
CONTINUOUS
 10
102.5384128464
 20
20.768583276
 11
102.5384128464
 21
17.7
  0
LINE
  5
66F
100
AcDbEntity
  8
RACCORDO
100
AcDbLine
 62
250
  6
CONTINUOUS
 10
102.548302985
 20
-15.2350597818
 11
102.5483029848
 21
-48.9586717926
  0
LINE
  5
670
100
AcDbEntity
  8
RACCORDO
100
AcDbLine
 62
250
  6
CONTINUOUS
 10
102.548302985
 20
20.8350597818
 11
102.548302985
 21
54.5586717926
  0
LINE
  5
671
100
AcDbEntity
  8
DRAFT
100
AcDbLine
 62
7
  6
CONTINUOUS
 10
102.555866582
 20
20.8
 11
102.555866582
 21
17.7
  0
LINE
  5
672
100
AcDbEntity
  8
RACCORDO
100
AcDbLine
 62
250
  6
CONTINUOUS
 10
102.7578276019
 20
20.8011972268
 11
102.7578276019
 21
-15.2011972268
  0
LINE
  5
673
100
AcDbEntity
  8
RACCORDO
100
AcDbLine
 62
250
  6
CONTINUOUS
 10
104.547084639
 20
-46.9598901385
 11
104.547084639
 21
-17.2349836279
  0
LINE
  5
674
100
AcDbEntity
  8
RACCORDO
100
AcDbLine
 62
250
  6
CONTINUOUS
 10
104.547084639
 20
22.8349836279
 11
104.547084639
 21
52.5598901385
  0
LINE
  5
675
100
AcDbEntity
  8
RACCORDO
100
AcDbLine
 62
250
  6
CONTINUOUS
 10
104.7566092559
 20
22.7826224212
 11
104.7566092559
 21
-17.1826224212
  0
LINE
  5
676
100
AcDbEntity
  8
RACCORDO
100
AcDbLine
 62
7
  6
CONTINUOUS
 10
105.0384128464
 20
53.5500571154
 11
105.0384128464
 21
-47.9500571154
  0
ARC
  5
677
100
AcDbEntity
  8
RACCORDO
100
AcDbCircle
 62
250
  6
CONTINUOUS
 10
-102.4685845173
 20
-46.9569973637
 40
2.0016807752
100
AcDbArc
 50
180.0828025118
 51
269.9171974882
  0
ARC
  5
678
100
AcDbEntity
  8
RACCORDO
100
AcDbCircle
 62
250
  6
CONTINUOUS
 10
-10.1822019507
 20
-17.2352291328
 40
2.0001773489
100
AcDbArc
 50
0.007032546
 51
89.985967121
  0
ARC
  5
679
100
AcDbEntity
  8
RACCORDO
100
AcDbCircle
 62
250
  6
CONTINUOUS
 10
-102.4701329404
 20
-17.2351060895
 40
2.0000883033
100
AcDbArc
 50
90.0385119407
 51
179.9964919553
  0
ARC
  5
67A
100
AcDbEntity
  8
RACCORDO
100
AcDbCircle
 62
250
  6
CONTINUOUS
 10
-7.2109374696
 20
-46.9592368712
 40
1.9993911058
100
AcDbArc
 50
269.9813826651
 51
359.981279188
  0
ARC
  5
67B
100
AcDbEntity
  8
RACCORDO
100
AcDbCircle
 62
7
  6
CONTINUOUS
 10
-98.8615871536
 20
-42.7
 40
0.5
100
AcDbArc
 50
180.0
 51
270.0
  0
ARC
  5
67C
100
AcDbEntity
  8
RACCORDO
100
AcDbCircle
 62
7
  6
CONTINUOUS
 10
-98.8615871536
 20
-34.7
 40
0.5
100
AcDbArc
 50
90.0
 51
180.0
  0
ARC
  5
67D
100
AcDbEntity
  8
RACCORDO
100
AcDbCircle
 62
7
  6
CONTINUOUS
 10
-98.4615871536
 20
-42.7
 40
0.5
100
AcDbArc
 50
270.0
 51
360.0
  0
ARC
  5
67E
100
AcDbEntity
  8
RACCORDO
100
AcDbCircle
 62
7
  6
CONTINUOUS
 10
-98.4615871536
 20
-34.7
 40
0.5
100
AcDbArc
 50
0.0
 51
90.0
  0
ARC
  5
67F
100
AcDbEntity
  8
0
100
AcDbCircle
 62
250
  6
CONTINUOUS
 10
-2.9348168562
 20
-32.4105894271
 40
0.2393414682
100
AcDbArc
 50
260.7632929077
 51
269.5174402285
  0
ARC
  5
680
100
AcDbEntity
  8
ASSI
100
AcDbCircle
 62
7
  6
CONTINUOUS
 10
-11.3820046944
 20
0.9146458886
 40
3.9364146972
100
AcDbArc
 50
159.0191965858
 51
163.7921491218
  0
ARC
  5
681
100
AcDbEntity
  8
ASSI
100
AcDbCircle
 62
7
  6
CONTINUOUS
 10
-51.9027403415
 20
0.9146458886
 40
3.9364146972
100
AcDbArc
 50
159.0191965858
 51
163.7921491218
  0
ARC
  5
682
100
AcDbEntity
  8
ASSI
100
AcDbCircle
 62
7
  6
CONTINUOUS
 10
-60.1499154021
 20
0.9146458886
 40
3.9364146972
100
AcDbArc
 50
159.0191965858
 51
163.7921491218
  0
ARC
  5
683
100
AcDbEntity
  8
ASSI
100
AcDbCircle
 62
7
  6
CONTINUOUS
 10
-75.3177968071
 20
0.9146458886
 40
3.9364146972
100
AcDbArc
 50
159.0191965858
 51
163.7921491218
  0
ARC
  5
684
100
AcDbEntity
  8
DRAFT
100
AcDbCircle
 62
7
  6
CONTINUOUS
 10
-96.7615871536
 20
36.25
 40
2.7527201863
100
AcDbArc
 50
0.0
 51
180.0
  0
ARC
  5
685
100
AcDbEntity
  8
DRAFT
100
AcDbCircle
 62
7
  6
CONTINUOUS
 10
-96.7615871536
 20
31.45
 40
2.7527201863
100
AcDbArc
 50
180.0
 51
360.0
  0
ARC
  5
686
100
AcDbEntity
  8
DRAFT
100
AcDbCircle
 62
7
  6
CONTINUOUS
 10
-96.7615871536
 20
31.45
 40
2.6
100
AcDbArc
 50
180.0
 51
360.0
  0
ARC
  5
687
100
AcDbEntity
  8
DRAFT
100
AcDbCircle
 62
7
  6
CONTINUOUS
 10
-96.7615871536
 20
36.25
 40
2.6
100
AcDbArc
 50
0.0
 51
180.0
  0
ARC
  5
688
100
AcDbEntity
  8
ASSI
100
AcDbCircle
 62
7
  6
CONTINUOUS
 10
-11.7115414401
 20
3.9690921041
 40
2.159209266
100
AcDbArc
 50
337.4191892411
 51
347.6454766647
  0
ARC
  5
689
100
AcDbEntity
  8
ASSI
100
AcDbCircle
 62
7
  6
CONTINUOUS
 10
-19.8087678632
 20
3.9690921041
 40
2.159209266
100
AcDbArc
 50
337.4191892411
 51
347.6454766647
  0
ARC
  5
68A
100
AcDbEntity
  8
ASSI
100
AcDbCircle
 62
7
  6
CONTINUOUS
 10
-31.5855031595
 20
3.9690921041
 40
2.159209266
100
AcDbArc
 50
337.4191892411
 51
347.6454766647
  0
ARC
  5
68B
100
AcDbEntity
  8
ASSI
100
AcDbCircle
 62
7
  6
CONTINUOUS
 10
-48.1144568123
 20
3.9690921041
 40
2.159209266
100
AcDbArc
 50
337.4191892411
 51
347.6454766647
  0
ARC
  5
68C
100
AcDbEntity
  8
ASSI
100
AcDbCircle
 62
7
  6
CONTINUOUS
 10
-63.5707009817
 20
3.9690921041
 40
2.159209266
100
AcDbArc
 50
337.4191892411
 51
347.6454766647
  0
ARC
  5
68D
100
AcDbEntity
  8
ASSI
100
AcDbCircle
 62
7
  6
CONTINUOUS
 10
-68.5766785709
 20
3.9690921041
 40
2.159209266
100
AcDbArc
 50
337.4191892411
 51
347.6454766647
  0
ARC
  5
68E
100
AcDbEntity
  8
ASSI
100
AcDbCircle
 62
7
  6
CONTINUOUS
 10
-76.5239563565
 20
3.9690921041
 40
2.159209266
100
AcDbArc
 50
337.4191892411
 51
347.6454766647
  0
ARC
  5
68F
100
AcDbEntity
  8
RACCORDO
100
AcDbCircle
 62
250
  6
CONTINUOUS
 10
-102.4685845172
 20
52.5569973637
 40
2.0016807753
100
AcDbArc
 50
90.0828025138
 51
179.9171974862
  0
ARC
  5
690
100
AcDbEntity
  8
RACCORDO
100
AcDbCircle
 62
250
  6
CONTINUOUS
 10
-102.4701329457
 20
22.835106092
 40
2.0000883037
100
AcDbArc
 50
180.0035081155
 51
269.9614882096
  0
ARC
  5
691
100
AcDbEntity
  8
RACCORDO
100
AcDbCircle
 62
7
  6
CONTINUOUS
 10
-102.8615871536
 20
29.35
 40
0.5
100
AcDbArc
 50
270.0
 51
360.0
  0
ARC
  5
692
100
AcDbEntity
  8
RACCORDO
100
AcDbCircle
 62
7
  6
CONTINUOUS
 10
-102.8615871536
 20
38.35
 40
0.5
100
AcDbArc
 50
0.0
 51
90.0
  0
ARC
  5
693
100
AcDbEntity
  8
RACCORDO
100
AcDbCircle
 62
7
  6
CONTINUOUS
 10
-90.6615871536
 20
29.35
 40
0.5
100
AcDbArc
 50
180.0
 51
270.0
  0
ARC
  5
694
100
AcDbEntity
  8
RACCORDO
100
AcDbCircle
 62
7
  6
CONTINUOUS
 10
-90.6615871536
 20
38.35
 40
0.5
100
AcDbArc
 50
90.0
 51
180.0
  0
ARC
  5
695
100
AcDbEntity
  8
RACCORDO
100
AcDbCircle
 62
7
  6
CONTINUOUS
 10
-90.2615871536
 20
29.35
 40
0.5
100
AcDbArc
 50
270.0
 51
360.0
  0
ARC
  5
696
100
AcDbEntity
  8
RACCORDO
100
AcDbCircle
 62
7
  6
CONTINUOUS
 10
-90.2615871536
 20
38.35
 40
0.5
100
AcDbArc
 50
0.0
 51
90.0
  0
ARC
  5
697
100
AcDbEntity
  8
RACCORDO
100
AcDbCircle
 62
7
  6
CONTINUOUS
 10
-103.2615871536
 20
38.35
 40
0.5
100
AcDbArc
 50
90.0
 51
180.0
  0
ARC
  5
698
100
AcDbEntity
  8
RACCORDO
100
AcDbCircle
 62
7
  6
CONTINUOUS
 10
-103.2615871536
 20
29.35
 40
0.5
100
AcDbArc
 50
180.0
 51
270.0
  0
ARC
  5
699
100
AcDbEntity
  8
RACCORDO
100
AcDbCircle
 62
7
  6
CONTINUOUS
 10
91.0384128464
 20
-22.2
 40
4.0
100
AcDbArc
 50
180.0
 51
221.3939685908
  0
ARC
  5
69A
100
AcDbEntity
  8
DRAFT
100
AcDbCircle
 62
7
  6
CONTINUOUS
 10
80.9384128464
 20
-40.2
 40
2.7527201863
100
AcDbArc
 50
270.0
 51
90.0
  0
ARC
  5
69B
100
AcDbEntity
  8
DRAFT
100
AcDbCircle
 62
7
  6
CONTINUOUS
 10
76.1384128464
 20
-40.2
 40
2.7527201863
100
AcDbArc
 50
90.0
 51
270.0
  0
ARC
  5
69C
100
AcDbEntity
  8
DRAFT
100
AcDbCircle
 62
7
  6
CONTINUOUS
 10
76.1384128464
 20
-40.2
 40
2.6
100
AcDbArc
 50
119.9254616586
 51
270.0
  0
ARC
  5
69D
100
AcDbEntity
  8
DRAFT
100
AcDbCircle
 62
7
  6
CONTINUOUS
 10
80.9384128464
 20
-40.2
 40
2.6
100
AcDbArc
 50
270.0
 51
60.0745383414
  0
ARC
  5
69E
100
AcDbEntity
  8
RACCORDO
100
AcDbCircle
 62
250
  6
CONTINUOUS
 10
102.5453742655
 20
-46.9569614191
 40
2.00172501
100
AcDbArc
 50
270.0838298822
 51
359.9161701178
  0
ARC
  5
69F
100
AcDbEntity
  8
RACCORDO
100
AcDbCircle
 62
250
  6
CONTINUOUS
 10
10.2590276436
 20
-17.2352291328
 40
2.0001773489
100
AcDbArc
 50
90.0140328791
 51
179.9929674541
  0
ARC
  5
6A0
100
AcDbEntity
  8
RACCORDO
100
AcDbCircle
 62
250
  6
CONTINUOUS
 10
102.5469586333
 20
-17.2351060895
 40
2.0000883033
100
AcDbArc
 50
0.0035080454
 51
89.9614880586
  0
ARC
  5
6A1
100
AcDbEntity
  8
RACCORDO
100
AcDbCircle
 62
250
  6
CONTINUOUS
 10
50.5384509227
 20
-17.2350217056
 40
1.9999619242
100
AcDbArc
 50
0.0010908654
 51
90.0010908239
  0
ARC
  5
6A2
100
AcDbEntity
  8
RACCORDO
100
AcDbCircle
 62
250
  6
CONTINUOUS
 10
64.5383747702
 20
-17.2350217056
 40
1.9999619242
100
AcDbArc
 50
89.9989091761
 51
179.9989091346
  0
ARC
  5
6A3
100
AcDbEntity
  8
RACCORDO
100
AcDbCircle
 62
250
  6
CONTINUOUS
 10
50.5390625329
 20
-46.9592368661
 40
1.9993911054
100
AcDbArc
 50
269.9813825952
 51
359.9812790418
  0
ARC
  5
6A4
100
AcDbEntity
  8
RACCORDO
100
AcDbCircle
 62
250
  6
CONTINUOUS
 10
64.53776316
 20
-46.959236866
 40
1.9993911054
100
AcDbArc
 50
180.0187209592
 51
270.0186174038
  0
ARC
  5
6A5
100
AcDbEntity
  8
RACCORDO
100
AcDbCircle
 62
250
  6
CONTINUOUS
 10
7.2877631625
 20
-46.9592368711
 40
1.9993911058
100
AcDbArc
 50
180.0187208129
 51
270.0186173342
  0
ARC
  5
6A6
100
AcDbEntity
  8
RACCORDO
100
AcDbCircle
 62
7
  6
CONTINUOUS
 10
83.0384128464
 20
-46.2
 40
0.5
100
AcDbArc
 50
0.0
 51
90.0
  0
ARC
  5
6A7
100
AcDbEntity
  8
RACCORDO
100
AcDbCircle
 62
7
  6
CONTINUOUS
 10
74.0384128464
 20
-46.2
 40
0.5
100
AcDbArc
 50
90.0
 51
180.0
  0
ARC
  5
6A8
100
AcDbEntity
  8
RACCORDO
100
AcDbCircle
 62
7
  6
CONTINUOUS
 10
74.0384128464
 20
-46.6
 40
0.5
100
AcDbArc
 50
180.0
 51
270.0
  0
ARC
  5
6A9
100
AcDbEntity
  8
RACCORDO
100
AcDbCircle
 62
7
  6
CONTINUOUS
 10
83.0384128464
 20
-46.6
 40
0.5
100
AcDbArc
 50
270.0
 51
360.0
  0
ARC
  5
6AA
100
AcDbEntity
  8
RACCORDO
100
AcDbCircle
 62
7
  6
CONTINUOUS
 10
83.0384128464
 20
-33.8
 40
0.5
100
AcDbArc
 50
0.0
 51
90.0
  0
ARC
  5
6AB
100
AcDbEntity
  8
RACCORDO
100
AcDbCircle
 62
7
  6
CONTINUOUS
 10
74.0384128464
 20
-33.8
 40
0.5
100
AcDbArc
 50
90.0
 51
180.0
  0
ARC
  5
6AC
100
AcDbEntity
  8
RACCORDO
100
AcDbCircle
 62
7
  6
CONTINUOUS
 10
74.0384128464
 20
-34.2
 40
0.5
100
AcDbArc
 50
180.0
 51
270.0
  0
ARC
  5
6AD
100
AcDbEntity
  8
RACCORDO
100
AcDbCircle
 62
7
  6
CONTINUOUS
 10
83.0384128464
 20
-34.2
 40
0.5
100
AcDbArc
 50
270.0
 51
360.0
  0
ARC
  5
6AE
100
AcDbEntity
  8
RACCORDO
100
AcDbCircle
 62
7
  6
CONTINUOUS
 10
98.8384128464
 20
-51.65
 40
0.3
100
AcDbArc
 50
180.0
 51
270.0
  0
ARC
  5
6AF
100
AcDbEntity
  8
RACCORDO
100
AcDbCircle
 62
7
  6
CONTINUOUS
 10
97.3384128464
 20
-53.15
 40
0.3
100
AcDbArc
 50
180.0
 51
270.0
  0
ARC
  5
6B0
100
AcDbEntity
  8
RACCORDO
100
AcDbCircle
 62
7
  6
CONTINUOUS
 10
100.7384128464
 20
-52.25
 40
0.3
100
AcDbArc
 50
0.0
 51
90.0
  0
ARC
  5
6B1
100
AcDbEntity
  8
RACCORDO
100
AcDbCircle
 62
7
  6
CONTINUOUS
 10
100.7384128464
 20
-53.15
 40
0.3
100
AcDbArc
 50
270.0
 51
360.0
  0
ARC
  5
6B2
100
AcDbEntity
  8
ASSI
100
AcDbCircle
 62
7
  6
CONTINUOUS
 10
39.8245444016
 20
3.6596568615
 40
3.9252386973
100
AcDbArc
 50
66.1507656662
 51
77.0671262523
  0
ARC
  5
6B3
100
AcDbEntity
  8
ASSI
100
AcDbCircle
 62
7
  6
CONTINUOUS
 10
39.8245454947
 20
3.6596616218
 40
3.9252342465
100
AcDbArc
 50
104.6184599962
 51
108.0305274071
  0
ARC
  5
6B4
100
AcDbEntity
  8
ASSI
100
AcDbCircle
 62
7
  6
CONTINUOUS
 10
39.8245454947
 20
3.6596616218
 40
3.9252339881
100
AcDbArc
 50
109.1820962274
 51
112.6110327739
  0
ARC
  5
6B5
100
AcDbEntity
  8
ASSI
100
AcDbCircle
 62
7
  6
CONTINUOUS
 10
39.8245454947
 20
3.6596616218
 40
3.9252334397
100
AcDbArc
 50
78.1844571259
 51
90.8185424079
  0
ARC
  5
6B6
100
AcDbEntity
  8
ASSI
100
AcDbCircle
 62
7
  6
CONTINUOUS
 10
39.8245454947
 20
3.6596616218
 40
3.9252331561
100
AcDbArc
 50
91.9102115712
 51
103.4934032385
  0
ARC
  5
6B7
100
AcDbEntity
  8
ASSI
100
AcDbCircle
 62
7
  6
CONTINUOUS
 10
39.8245454947
 20
3.6596616218
 40
3.8504679521
100
AcDbArc
 50
109.5695884542
 51
111.7987181432
  0
ARC
  5
6B8
100
AcDbEntity
  8
ASSI
100
AcDbCircle
 62
7
  6
CONTINUOUS
 10
39.824545291
 20
3.6596607527
 40
3.8504678375
100
AcDbArc
 50
66.0805562364
 51
76.8115157989
  0
ARC
  5
6B9
100
AcDbEntity
  8
ASSI
100
AcDbCircle
 62
7
  6
CONTINUOUS
 10
39.8245454947
 20
3.6596616218
 40
3.8504675379
100
AcDbArc
 50
91.9473168422
 51
103.7605121028
  0
ARC
  5
6BA
100
AcDbEntity
  8
ASSI
100
AcDbCircle
 62
7
  6
CONTINUOUS
 10
39.8245454947
 20
3.6596616218
 40
3.8504671521
100
AcDbArc
 50
104.9088315982
 51
108.3930507127
  0
ARC
  5
6BB
100
AcDbEntity
  8
ASSI
100
AcDbCircle
 62
7
  6
CONTINUOUS
 10
39.8245454947
 20
3.6596616218
 40
3.8504668031
100
AcDbArc
 50
77.9516186991
 51
90.8344375197
  0
ARC
  5
6BC
100
AcDbEntity
  8
ASSI
100
AcDbCircle
 62
7
  6
CONTINUOUS
 10
26.0188228464
 20
2.799988
 40
2.5500000352
100
AcDbArc
 50
84.2608296022
 51
275.7391703978
  0
ARC
  5
6BD
100
AcDbEntity
  8
ASSI
100
AcDbCircle
 62
7
  6
CONTINUOUS
 10
30.3538228464
 20
2.799988
 40
2.5500000352
100
AcDbArc
 50
84.2608296022
 51
275.7391703978
  0
ARC
  5
6BE
100
AcDbEntity
  8
RACCORDO
100
AcDbCircle
 62
250
  6
CONTINUOUS
 10
50.5384509227
 20
22.8350217056
 40
1.9999619242
100
AcDbArc
 50
269.9989091761
 51
359.9989091346
  0
ARC
  5
6BF
100
AcDbEntity
  8
ASSI
100
AcDbCircle
 62
7
  6
CONTINUOUS
 10
30.3538228464
 20
2.799988
 40
1.7850001745
100
AcDbArc
 50
81.7867901066
 51
167.6263761709
  0
ARC
  5
6C0
100
AcDbEntity
  8
ASSI
100
AcDbCircle
 62
7
  6
CONTINUOUS
 10
26.0188228464
 20
2.799988
 40
1.7850001745
100
AcDbArc
 50
81.7867901066
 51
278.2132098934
  0
ARC
  5
6C1
100
AcDbEntity
  8
ASSI
100
AcDbCircle
 62
7
  6
CONTINUOUS
 10
30.3538228464
 20
2.799988
 40
1.7849997292
100
AcDbArc
 50
192.373627023
 51
278.2132119317
  0
ARC
  5
6C2
100
AcDbEntity
  8
ASSI
100
AcDbCircle
 62
7
  6
CONTINUOUS
 10
41.1516474947
 20
1.7157366218
 40
0.6542057106
100
AcDbArc
 50
84.9999868542
 51
176.7241833468
  0
ARC
  5
6C3
100
AcDbEntity
  8
ASSI
100
AcDbCircle
 62
7
  6
CONTINUOUS
 10
41.1516474947
 20
1.7157366218
 40
0.6542055022
100
AcDbArc
 50
183.2758166532
 51
78.4374939936
  0
CIRCLE
  5
6C4
100
AcDbEntity
  8
ASSI
100
AcDbCircle
 62
7
  6
CONTINUOUS
 10
52.8008138464
 20
2.800001
 40
0.508333
  0
CIRCLE
  5
6C5
100
AcDbEntity
  8
ASSI
100
AcDbCircle
 62
7
  6
CONTINUOUS
 10
41.1516474947
 20
1.7157366218
 40
0.373832
  0
ARC
  5
6C6
100
AcDbEntity
  8
ASSI
100
AcDbCircle
 62
7
  6
CONTINUOUS
 10
41.7123954636
 20
7.0989146683
 40
0.3364491397
100
AcDbArc
 50
303.748776311
 51
153.3682546595
  0
ARC
  5
6C7
100
AcDbEntity
  8
ASSI
100
AcDbCircle
 62
7
  6
CONTINUOUS
 10
41.712395563
 20
7.0989146373
 40
0.3364487707
100
AcDbArc
 50
166.153055358
 51
192.8396974407
  0
CIRCLE
  5
6C8
100
AcDbEntity
  8
ASSI
100
AcDbCircle
 62
7
  6
CONTINUOUS
 10
41.1516474947
 20
1.7157366218
 40
0.224299
  0
ARC
  5
6C9
100
AcDbEntity
  8
RACCORDO
100
AcDbCircle
 62
250
  6
CONTINUOUS
 10
50.5390625328
 20
52.5592368662
 40
1.9993911054
100
AcDbArc
 50
0.0187209535
 51
90.0186174036
  0
ARC
  5
6CA
100
AcDbEntity
  8
RACCORDO
100
AcDbCircle
 62
250
  6
CONTINUOUS
 10
102.5469586385
 20
22.835106092
 40
2.0000883037
100
AcDbArc
 50
270.0385117902
 51
359.996491885
  0
ARC
  5
6CB
100
AcDbEntity
  8
RACCORDO
100
AcDbCircle
 62
250
  6
CONTINUOUS
 10
64.5383747702
 20
22.8350217056
 40
1.9999619242
100
AcDbArc
 50
180.0010908654
 51
270.0010908239
  0
ARC
  5
6CC
100
AcDbEntity
  8
RACCORDO
100
AcDbCircle
 62
7
  6
CONTINUOUS
 10
91.0384128464
 20
27.8
 40
4.0
100
AcDbArc
 50
138.6060314092
 51
180.0
  0
ARC
  5
6CD
100
AcDbEntity
  8
RACCORDO
100
AcDbCircle
 62
250
  6
CONTINUOUS
 10
102.5453742655
 20
52.5569614191
 40
2.00172501
100
AcDbArc
 50
0.0838298822
 51
89.9161701178
  0
ARC
  5
6CE
100
AcDbEntity
  8
RACCORDO
100
AcDbCircle
 62
250
  6
CONTINUOUS
 10
64.53776316
 20
52.5592368662
 40
1.9993911054
100
AcDbArc
 50
89.9813825964
 51
179.9812790465
  0
ARC
  5
6CF
100
AcDbEntity
  8
RACCORDO
100
AcDbCircle
 62
7
  6
CONTINUOUS
 10
98.9384128464
 20
48.3
 40
0.5
100
AcDbArc
 50
0.0
 51
90.0
  0
ARC
  5
6D0
100
AcDbEntity
  8
RACCORDO
100
AcDbCircle
 62
7
  6
CONTINUOUS
 10
98.9384128464
 20
40.3
 40
0.5
100
AcDbArc
 50
270.0
 51
360.0
  0
ARC
  5
6D1
100
AcDbEntity
  8
RACCORDO
100
AcDbCircle
 62
7
  6
CONTINUOUS
 10
98.5384128464
 20
48.3
 40
0.5
100
AcDbArc
 50
90.0
 51
180.0
  0
ARC
  5
6D2
100
AcDbEntity
  8
RACCORDO
100
AcDbCircle
 62
7
  6
CONTINUOUS
 10
98.5384128464
 20
40.3
 40
0.5
100
AcDbArc
 50
180.0
 51
270.0
  0
SPLINE
  5
6D3
100
AcDbEntity
  8
0
100
AcDbSpline
 62
7
  6
CONTINUOUS
 70
0
 71
3
 72
11
 73
7
 74
0
 42
0.0000001
 43
0.0000001
 44
0.0000000001
 40
0.0
 40
0.0
 40
0.0
 40
0.0
 40
0.2614669012
 40
0.5165879611
 40
0.7620071996
 40
1.0
 40
1.0
 40
1.0
 40
1.0
 10
-3.205075078
 20
-32.95
 30
0.0
 10
-3.205075078
 20
-32.912527654
 30
0.0
 10
-3.1919459451
 20
-32.8379976085
 30
0.0
 10
-3.1375522611
 20
-32.7406289843
 30
0.0
 10
-3.0530021805
 20
-32.6726915875
 30
0.0
 10
-2.984247767
 20
-32.6527618598
 30
0.0
 10
-2.950210383
 20
-32.650566087
 30
0.0
  0
SPLINE
  5
6D4
100
AcDbEntity
  8
0
100
AcDbSpline
 62
7
  6
CONTINUOUS
 70
0
 71
3
 72
12
 73
8
 74
0
 42
0.0000001
 43
0.0000001
 44
0.0000000001
 40
0.0
 40
0.0
 40
0.0
 40
0.0
 40
0.119109114
 40
0.2389990096
 40
0.4833328262
 40
0.7380389197
 40
1.0
 40
1.0
 40
1.0
 40
1.0
 10
-2.9191972439
 20
-33.2494234588
 30
0.0
 10
-2.9374626489
 20
-33.2506141451
 30
0.0
 10
-2.9745519829
 20
-33.2487660105
 30
0.0
 10
-3.0463904986
 20
-33.228083702
 30
0.0
 10
-3.1275232894
 20
-33.1725463216
 30
0.0
 10
-3.1899612799
 20
-33.0702907963
 30
0.0
 10
-3.205075078
 20
-32.9902570451
 30
0.0
 10
-3.205075078
 20
-32.95
 30
0.0
  0
SPLINE
  5
6D5
100
AcDbEntity
  8
0
100
AcDbSpline
 62
250
  6
CONTINUOUS
 70
0
 71
3
 72
11
 73
7
 74
0
 42
0.0000001
 43
0.0000001
 44
0.0000000001
 40
0.0
 40
0.0
 40
0.0
 40
0.0
 40
0.261462827
 40
0.5165914808
 40
0.7620101021
 40
1.0
 40
1.0
 40
1.0
 40
1.0
 10
-3.205075078
 20
-32.35
 30
0.0
 10
-3.205075078
 20
-32.3125272426
 30
0.0
 10
-3.1918980397
 20
-32.2380041866
 30
0.0
 10
-3.1375441905
 20
-32.1406204103
 30
0.0
 10
-3.0529969168
 20
-32.0726581119
 30
0.0
 10
-2.9842324784
 20
-32.0527553281
 30
0.0
 10
-2.950194342
 20
-32.0505636116
 30
0.0
  0
SPLINE
  5
6D6
100
AcDbEntity
  8
0
100
AcDbSpline
 62
250
  6
CONTINUOUS
 70
0
 71
3
 72
16
 73
12
 74
0
 42
0.0000001
 43
0.0000001
 44
0.0000000001
 40
0.0
 40
0.0
 40
0.0
 40
0.0
 40
0.3689011883
 40
0.5356334781
 40
0.6819486791
 40
0.8017906839
 40
0.8928359595
 40
0.9276813661
 40
0.955877437
 40
0.9789211271
 40
1.0
 40
1.0
 40
1.0
 40
1.0
 10
0.8394882087
 20
-31.75
 30
0.0
 10
0.8394882087
 20
-31.7105122094
 30
0.0
 10
0.8369911222
 20
-31.6531127557
 30
0.0
 10
0.8283052397
 20
-31.5806136488
 30
0.0
 10
0.8199343841
 20
-31.5349807924
 30
0.0
 10
0.8096819002
 20
-31.4981109722
 30
0.0
 10
0.799363935
 20
-31.4737092845
 30
0.0
 10
0.7900555766
 20
-31.4600189425
 30
0.0
 10
0.7834431481
 20
-31.4534756421
 30
0.0
 10
0.7763383223
 20
-31.4499245268
 30
0.0
 10
0.7714076466
 20
-31.449962948
 30
0.0
 10
0.7692140774
 20
-31.4504913622
 30
0.0
  0
SPLINE
  5
6D7
100
AcDbEntity
  8
0
100
AcDbSpline
 62
250
  6
CONTINUOUS
 70
0
 71
3
 72
12
 73
8
 74
0
 42
0.0000001
 43
0.0000001
 44
0.0000000001
 40
0.0
 40
0.0
 40
0.0
 40
0.0
 40
0.2380973767
 40
0.3603127278
 40
0.4848451685
 40
0.7395838302
 40
1.0
 40
1.0
 40
1.0
 40
1.0
 10
-2.9732344104
 20
-32.646827506
 30
0.0
 10
-3.0051670929
 20
-32.6416323749
 30
0.0
 10
-3.0523587673
 20
-32.6236779457
 30
0.0
 10
-3.1056396756
 20
-32.584516886
 30
0.0
 10
-3.1522813715
 20
-32.5342964092
 30
0.0
 10
-3.1933328734
 20
-32.4557946319
 30
0.0
 10
-3.205075078
 20
-32.3853851842
 30
0.0
 10
-3.205075078
 20
-32.35
 30
0.0
  0
SPLINE
  5
6D8
100
AcDbEntity
  8
0
100
AcDbSpline
 62
250
  6
CONTINUOUS
 70
0
 71
3
 72
12
 73
8
 74
0
 42
0.0000001
 43
0.0000001
 44
0.0000000001
 40
0.0
 40
0.0
 40
0.0
 40
0.0
 40
0.0481397896
 40
0.1193563574
 40
0.3385479053
 40
0.6457075874
 40
1.0
 40
1.0
 40
1.0
 40
1.0
 10
0.7762208598
 20
-32.0495155757
 30
0.0
 10
0.7811180226
 20
-32.0483456233
 30
0.0
 10
0.7913944383
 20
-32.0397491344
 30
0.0
 10
0.8085625898
 20
-32.0088074948
 30
0.0
 10
0.8247884791
 20
-31.9475765895
 30
0.0
 10
0.8365811688
 20
-31.8563445543
 30
0.0
 10
0.8394882087
 20
-31.7870557099
 30
0.0
 10
0.8394882087
 20
-31.75
 30
0.0
  0
SPLINE
  5
6D9
100
AcDbEntity
  8
ASSI
100
AcDbSpline
 62
7
  6
CONTINUOUS
 70
0
 71
3
 72
12
 73
8
 74
0
 42
0.0000001
 43
0.0000001
 44
0.0000000001
 40
0.0
 40
0.0
 40
0.0
 40
0.0
 40
0.160170272
 40
0.373833895
 40
0.5801046928
 40
0.7863141084
 40
1.0
 40
1.0
 40
1.0
 40
1.0
 10
50.8571381451
 20
2.2013941147
 30
0.0
 10
50.7978153148
 20
2.3942368083
 30
0.0
 10
50.7268407187
 20
2.8675007039
 30
0.0
 10
50.8743884596
 20
3.603761718
 30
0.0
 10
51.3273931324
 20
4.2735904963
 30
0.0
 10
51.9964752973
 20
4.7256863582
 30
0.0
 10
52.5316416243
 20
4.8333340618
 30
0.0
 10
52.8008144205
 20
4.8333340618
 30
0.0
  0
SPLINE
  5
6DA
100
AcDbEntity
  8
ASSI
100
AcDbSpline
 62
7
  6
CONTINUOUS
 70
0
 71
3
 72
13
 73
9
 74
0
 42
0.0000001
 43
0.0000001
 44
0.0000000001
 40
0.0
 40
0.0
 40
0.0
 40
0.0
 40
0.1820448067
 40
0.3577131209
 40
0.5334393081
 40
0.7154636694
 40
0.860240729
 40
1.0
 40
1.0
 40
1.0
 40
1.0
 10
52.8008144205
 20
5.8499999985
 30
0.0
 10
52.3970519428
 20
5.8499999985
 30
0.0
 10
51.5943378776
 20
5.6884208676
 30
0.0
 10
50.5906868056
 20
5.0103647543
 30
0.0
 10
49.9110814022
 20
4.0057813265
 30
0.0
 10
49.6864780961
 20
2.8821288411
 30
0.0
 10
49.8506263814
 20
1.8442190107
 30
0.0
 10
50.14279913
 20
1.2714345223
 30
0.0
 10
50.3239132487
 20
1.0198736077
 30
0.0
  0
SPLINE
  5
6DB
100
AcDbEntity
  8
ASSI
100
AcDbSpline
 62
7
  6
CONTINUOUS
 70
0
 71
3
 72
9
 73
5
 74
0
 42
0.0000001
 43
0.0000001
 44
0.0000000001
 40
0.0
 40
0.0
 40
0.0
 40
0.0
 40
0.2458206488
 40
1.0
 40
1.0
 40
1.0
 40
1.0
 10
51.0378678594
 20
0.3108192328
 30
0.0
 10
51.162602232
 20
0.2223165647
 30
0.0
 10
51.6958649038
 20
-0.1002125316
 30
0.0
 10
52.3315860585
 20
-0.25
 30
0.0
 10
52.8008144205
 20
-0.25
 30
0.0
  0
SPLINE
  5
6DC
100
AcDbEntity
  8
ASSI
100
AcDbSpline
 62
7
  6
CONTINUOUS
 70
0
 71
3
 72
9
 73
5
 74
0
 42
0.0000001
 43
0.0000001
 44
0.0000000001
 40
0.0
 40
0.0
 40
0.0
 40
0.0
 40
0.2600413185
 40
1.0
 40
1.0
 40
1.0
 40
1.0
 10
52.8008144205
 20
0.7666670313
 30
0.0
 10
52.6782827696
 20
0.7666670313
 30
0.0
 10
52.2075092686
 20
0.8073406865
 30
0.0
 10
51.7552315171
 20
1.0213332355
 30
0.0
 10
51.4889450099
 20
1.2464164726
 30
0.0
  0
SPLINE
  5
6DD
100
AcDbEntity
  8
ASSI
100
AcDbSpline
 62
7
  6
CONTINUOUS
 70
0
 71
3
 72
16
 73
12
 74
0
 42
0.0000001
 43
0.0000001
 44
0.0000000001
 40
0.0
 40
0.0
 40
0.0
 40
0.0
 40
0.1216765773
 40
0.2476390351
 40
0.3732356714
 40
0.4944866233
 40
0.6157375752
 40
0.7413342114
 40
0.8669308477
 40
0.9881817996
 40
1.0
 40
1.0
 40
1.0
 40
1.0
 10
51.7194581476
 20
1.7245268551
 30
0.0
 10
51.8577386661
 20
1.5862463366
 30
0.0
 10
52.1968028575
 20
1.3564618773
 30
0.0
 10
52.8000510839
 20
1.2338555899
 30
0.0
 10
53.4036284652
 20
1.3552953024
 30
0.0
 10
53.9059697042
 20
1.6948432939
 30
0.0
 10
54.2454838469
 20
2.1972270131
 30
0.0
 10
54.3669882105
 20
2.8000014914
 30
0.0
 10
54.2442990846
 20
3.4027671199
 30
0.0
 10
54.0097485096
 20
3.7558141915
 30
0.0
 10
53.8513070669
 20
3.9051117617
 30
0.0
 10
53.8369541613
 20
3.9181089605
 30
0.0
  0
SPLINE
  5
6DE
100
AcDbEntity
  8
ASSI
100
AcDbSpline
 62
7
  6
CONTINUOUS
 70
0
 71
3
 72
9
 73
5
 74
0
 42
0.0000001
 43
0.0000001
 44
0.0000000001
 40
0.0
 40
0.0
 40
0.0
 40
0.0
 40
0.506587071
 40
1.0
 40
1.0
 40
1.0
 40
1.0
 10
52.8008144205
 20
4.3249999989
 30
0.0
 10
52.5092403443
 20
4.3249999989
 30
0.0
 10
51.9205879034
 20
4.152056929
 30
0.0
 10
51.5265863789
 20
3.6850210583
 30
0.0
 10
51.4098649251
 20
3.4261249474
 30
0.0
  0
LINE
  5
6DF
100
AcDbEntity
  8
ASSI
100
AcDbLine
 62
7
  6
CONTINUOUS
 10
-5.7719755993
 20
3.7031942447
 11
-6.3452767679
 21
2.8162985369
  0
SPLINE
  5
6E0
100
AcDbEntity
  8
ASSI
100
AcDbSpline
 62
7
  6
CONTINUOUS
 70
0
 71
3
 72
8
 73
4
 74
0
 42
0.0000001
 43
0.0000001
 44
0.0000000001
 40
0.0
 40
0.0
 40
0.0
 40
0.0
 40
1.0
 40
1.0
 40
1.0
 40
1.0
 10
-6.3452767679
 20
2.8162985369
 30
0.0
 10
-6.4027519418
 20
2.9224943797
 30
0.0
 10
-6.4682576996
 20
3.0245291861
 30
0.0
 10
-6.538840411
 20
3.1225038435
 30
0.0
  0
SPLINE
  5
6E1
100
AcDbEntity
  8
ASSI
100
AcDbSpline
 62
7
  6
CONTINUOUS
 70
0
 71
3
 72
9
 73
5
 74
0
 42
0.0000001
 43
0.0000001
 44
0.0000000001
 40
0.0
 40
0.0
 40
0.0
 40
0.0
 40
0.7097160398
 40
1.0
 40
1.0
 40
1.0
 40
1.0
 10
-9.6023342573
 20
3.507107565
 30
0.0
 10
-9.57434171
 20
3.4113036472
 30
0.0
 10
-9.5293057322
 20
3.2779679677
 30
0.0
 10
-9.4815910722
 20
3.1456883989
 30
0.0
 10
-9.46752472
 20
3.1073647434
 30
0.0
  0
SPLINE
  5
6E2
100
AcDbEntity
  8
ASSI
100
AcDbSpline
 62
7
  6
CONTINUOUS
 70
0
 71
3
 72
8
 73
4
 74
0
 42
0.0000001
 43
0.0000001
 44
0.0000000001
 40
0.0
 40
0.0
 40
0.0
 40
0.0
 40
1.0
 40
1.0
 40
1.0
 40
1.0
 10
-15.1619683541
 20
2.0133885336
 30
0.0
 10
-15.1910105508
 20
2.1182266807
 30
0.0
 10
-15.2249501384
 20
2.2217492703
 30
0.0
 10
-15.2618139007
 20
2.3240994012
 30
0.0
  0
SPLINE
  5
6E3
100
AcDbEntity
  8
ASSI
100
AcDbSpline
 62
7
  6
CONTINUOUS
 70
0
 71
3
 72
9
 73
5
 74
0
 42
0.0000001
 43
0.0000001
 44
0.0000000001
 40
0.0
 40
0.0
 40
0.0
 40
0.0
 40
0.7097160398
 40
1.0
 40
1.0
 40
1.0
 40
1.0
 10
-17.6995606804
 20
3.507107565
 30
0.0
 10
-17.6715681331
 20
3.4113036472
 30
0.0
 10
-17.6265321553
 20
3.2779679677
 30
0.0
 10
-17.5788174953
 20
3.1456883989
 30
0.0
 10
-17.5647511431
 20
3.1073647434
 30
0.0
  0
SPLINE
  5
6E4
100
AcDbEntity
  8
ASSI
100
AcDbSpline
 62
7
  6
CONTINUOUS
 70
0
 71
3
 72
17
 73
13
 74
0
 42
0.0000001
 43
0.0000001
 44
0.0000000001
 40
0.0
 40
0.0
 40
0.0
 40
0.0
 40
0.1860451082
 40
0.2705259002
 40
0.3141542026
 40
0.3603530295
 40
0.5121184572
 40
0.5895792025
 40
0.6716563947
 40
0.7632308695
 40
0.8657555241
 40
1.0
 40
1.0
 40
1.0
 40
1.0
 10
-18.916451634
 20
2.4679204124
 30
0.0
 10
-18.9456785805
 20
2.3334154825
 30
0.0
 10
-19.0397922343
 20
2.1333973097
 30
0.0
 10
-19.2493531117
 20
2.0191792598
 30
0.0
 10
-19.3753086378
 20
1.9892342376
 30
0.0
 10
-19.5538542113
 20
1.9761297631
 30
0.0
 10
-19.7629936081
 20
2.0300695928
 30
0.0
 10
-19.9417773911
 20
2.1818832161
 30
0.0
 10
-20.0321402413
 20
2.3480698418
 30
0.0
 10
-20.0827541674
 20
2.5473605483
 30
0.0
 10
-20.1007456723
 20
2.7902047153
 30
0.0
 10
-20.0815284015
 20
2.9671981848
 30
0.0
 10
-20.0553963018
 20
3.0633621945
 30
0.0
  0
SPLINE
  5
6E5
100
AcDbEntity
  8
ASSI
100
AcDbSpline
 62
7
  6
CONTINUOUS
 70
0
 71
3
 72
9
 73
5
 74
0
 42
0.0000001
 43
0.0000001
 44
0.0000000001
 40
0.0
 40
0.0
 40
0.0
 40
0.0
 40
0.4786249203
 40
1.0
 40
1.0
 40
1.0
 40
1.0
 10
-19.466143093
 20
3.5186420756
 30
0.0
 10
-19.3569858285
 20
3.5186420756
 30
0.0
 10
-19.11214321
 20
3.4590042294
 30
0.0
 10
-18.9983821339
 20
3.235535565
 30
0.0
 10
-18.9625896763
 20
3.1221433846
 30
0.0
  0
SPLINE
  5
6E6
100
AcDbEntity
  8
ASSI
100
AcDbSpline
 62
7
  6
CONTINUOUS
 70
0
 71
3
 72
25
 73
21
 74
0
 42
0.0000001
 43
0.0000001
 44
0.0000000001
 40
0.0
 40
0.0
 40
0.0
 40
0.0
 40
0.0888847953
 40
0.1718004827
 40
0.2552805514
 40
0.2993533532
 40
0.346394781
 40
0.3886666315
 40
0.4297437762
 40
0.4702843229
 40
0.5109724255
 40
0.5911642652
 40
0.6732957874
 40
0.7613184488
 40
0.8083486364
 40
0.85815985
 40
0.9045619297
 40
0.949869011
 40
0.9945301458
 40
1.0
 40
1.0
 40
1.0
 40
1.0
 10
-18.7088304436
 20
3.1805368554
 30
0.0
 10
-18.7325382975
 20
3.2631211616
 30
0.0
 10
-18.7988743851
 20
3.4186930208
 30
0.0
 10
-18.9696998097
 20
3.6036704539
 30
0.0
 10
-19.1556559204
 20
3.6969466064
 30
0.0
 10
-19.321259146
 20
3.7322873756
 30
0.0
 10
-19.4503728439
 20
3.7403666043
 30
0.0
 10
-19.5764783779
 20
3.7332253229
 30
0.0
 10
-19.6946158689
 20
3.7116470007
 30
0.0
 10
-19.8074732564
 20
3.6752764877
 30
0.0
 10
-19.9490361922
 20
3.6089025188
 30
0.0
 10
-20.1079996583
 20
3.4881758829
 30
0.0
 10
-20.2467052071
 20
3.2855091473
 30
0.0
 10
-20.3153099757
 20
3.0846016723
 30
0.0
 10
-20.342414094
 20
2.907686575
 30
0.0
 10
-20.348858509
 20
2.7691239109
 30
0.0
 10
-20.3427080264
 20
2.632277353
 30
0.0
 10
-20.323850869
 20
2.5015797325
 30
0.0
 10
-20.3013790203
 20
2.4119386091
 30
0.0
 10
-20.2869416808
 20
2.3656593458
 30
0.0
 10
-20.2853347031
 20
2.3606199025
 30
0.0
  0
SPLINE
  5
6E7
100
AcDbEntity
  8
ASSI
100
AcDbSpline
 62
7
  6
CONTINUOUS
 70
0
 71
3
 72
11
 73
7
 74
0
 42
0.0000001
 43
0.0000001
 44
0.0000000001
 40
0.0
 40
0.0
 40
0.0
 40
0.0
 40
0.2525992429
 40
0.4888102636
 40
0.730558892
 40
1.0
 40
1.0
 40
1.0
 40
1.0
 10
-19.4513644518
 20
1.7653964683
 30
0.0
 10
-19.3588066558
 20
1.7653964683
 30
0.0
 10
-19.1776163098
 20
1.7888304219
 30
0.0
 10
-18.9358057742
 20
1.9172731932
 30
0.0
 10
-18.7541253159
 20
2.1302616147
 30
0.0
 10
-18.6870411283
 20
2.3086208301
 30
0.0
 10
-18.6626924013
 20
2.4043002868
 30
0.0
  0
SPLINE
  5
6E8
100
AcDbEntity
  8
ASSI
100
AcDbSpline
 62
7
  6
CONTINUOUS
 70
0
 71
3
 72
12
 73
8
 74
0
 42
0.0000001
 43
0.0000001
 44
0.0000000001
 40
0.0
 40
0.0
 40
0.0
 40
0.0
 40
0.1606441131
 40
0.3160528741
 40
0.4695579901
 40
0.6257786262
 40
1.0
 40
1.0
 40
1.0
 40
1.0
 10
-24.4645512202
 20
2.422863571
 30
0.0
 10
-24.4628803456
 20
2.3605812385
 30
0.0
 10
-24.4450248369
 20
2.2375882426
 30
0.0
 10
-24.3687321738
 20
2.0696967542
 30
0.0
 10
-24.2495982654
 20
1.9305638877
 30
0.0
 10
-24.0198533296
 20
1.7902624483
 30
0.0
 10
-23.8066000597
 20
1.7653964683
 30
0.0
 10
-23.6614608114
 20
1.7653964683
 30
0.0
  0
SPLINE
  5
6E9
100
AcDbEntity
  8
ASSI
100
AcDbSpline
 62
7
  6
CONTINUOUS
 70
0
 71
3
 72
15
 73
11
 74
0
 42
0.0000001
 43
0.0000001
 44
0.0000000001
 40
0.0
 40
0.0
 40
0.0
 40
0.0
 40
0.1205523663
 40
0.2334839557
 40
0.3389214346
 40
0.4385318437
 40
0.6258636217
 40
0.7171536601
 40
0.8046135431
 40
1.0
 40
1.0
 40
1.0
 40
1.0
 10
-23.6614608114
 20
1.7653964683
 30
0.0
 10
-23.5972977802
 20
1.7653964683
 30
0.0
 10
-23.4724709089
 20
1.776455277
 30
0.0
 10
-23.2993506297
 20
1.8320189741
 30
0.0
 10
-23.1530520415
 20
1.9214604012
 30
0.0
 10
-23.0132064543
 20
2.0800575038
 30
0.0
 10
-22.9511681853
 20
2.2848120074
 30
0.0
 10
-22.9772993605
 20
2.4801123737
 30
0.0
 10
-23.0616376898
 20
2.6643637232
 30
0.0
 10
-23.1935382831
 20
2.7573458435
 30
0.0
 10
-23.2878509121
 20
2.8011596127
 30
0.0
  0
SPLINE
  5
6EA
100
AcDbEntity
  8
ASSI
100
AcDbSpline
 62
7
  6
CONTINUOUS
 70
0
 71
3
 72
9
 73
5
 74
0
 42
0.0000001
 43
0.0000001
 44
0.0000000001
 40
0.0
 40
0.0
 40
0.0
 40
0.0
 40
0.1708537376
 40
1.0
 40
1.0
 40
1.0
 40
1.0
 10
-23.2878509121
 20
2.8011596127
 30
0.0
 10
-23.3101386503
 20
2.8113482783
 30
0.0
 10
-23.444448674
 20
2.8622810571
 30
0.0
 10
-23.5843379501
 20
2.8960001602
 30
0.0
 10
-23.7001195064
 20
2.9231730332
 30
0.0
  0
SPLINE
  5
6EB
100
AcDbEntity
  8
ASSI
100
AcDbSpline
 62
7
  6
CONTINUOUS
 70
0
 71
3
 72
9
 73
5
 74
0
 42
0.0000001
 43
0.0000001
 44
0.0000000001
 40
0.0
 40
0.0
 40
0.0
 40
0.0
 40
0.6350560901
 40
1.0
 40
1.0
 40
1.0
 40
1.0
 10
-23.7001195064
 20
2.9231730332
 30
0.0
 10
-23.7817171522
 20
2.9423232548
 30
0.0
 10
-23.9071868834
 20
2.9768031815
 30
0.0
 10
-24.0345120316
 20
3.027037239
 30
0.0
 10
-24.069494189
 20
3.0601453242
 30
0.0
  0
SPLINE
  5
6EC
100
AcDbEntity
  8
ASSI
100
AcDbSpline
 62
7
  6
CONTINUOUS
 70
0
 71
3
 72
14
 73
10
 74
0
 42
0.0000001
 43
0.0000001
 44
0.0000000001
 40
0.0
 40
0.0
 40
0.0
 40
0.0
 40
0.1221754561
 40
0.2479284667
 40
0.3235721644
 40
0.3974374623
 40
0.5551234414
 40
0.7467267791
 40
1.0
 40
1.0
 40
1.0
 40
1.0
 10
-24.069494189
 20
3.0601453242
 30
0.0
 10
-24.092291115
 20
3.0812894489
 30
0.0
 10
-24.130884696
 20
3.1342253648
 30
0.0
 10
-24.1448925042
 20
3.2177929943
 30
0.0
 10
-24.1376092191
 20
3.2879198055
 30
0.0
 10
-24.1107769538
 20
3.3620795416
 30
0.0
 10
-24.0392388483
 20
3.4479648451
 30
0.0
 10
-23.894743935
 20
3.5113078182
 30
0.0
 10
-23.7803458867
 20
3.5186420756
 30
0.0
 10
-23.7158892337
 20
3.5186420756
 30
0.0
  0
SPLINE
  5
6ED
100
AcDbEntity
  8
ASSI
100
AcDbSpline
 62
7
  6
CONTINUOUS
 70
0
 71
3
 72
9
 73
5
 74
0
 42
0.0000001
 43
0.0000001
 44
0.0000000001
 40
0.0
 40
0.0
 40
0.0
 40
0.0
 40
0.5306823676
 40
1.0
 40
1.0
 40
1.0
 40
1.0
 10
-23.7158892337
 20
3.5186420756
 30
0.0
 10
-23.6041843501
 20
3.5186420756
 30
0.0
 10
-23.366451532
 20
3.4838178063
 30
0.0
 10
-23.2754756744
 20
3.2592992412
 30
0.0
 10
-23.2649621204
 20
3.1610722478
 30
0.0
  0
SPLINE
  5
6EE
100
AcDbEntity
  8
ASSI
100
AcDbSpline
 62
7
  6
CONTINUOUS
 70
0
 71
3
 72
20
 73
16
 74
0
 42
0.0000001
 43
0.0000001
 44
0.0000000001
 40
0.0
 40
0.0
 40
0.0
 40
0.0
 40
0.1573317713
 40
0.2361791109
 40
0.3195933993
 40
0.4109088545
 40
0.4598620877
 40
0.5115766229
 40
0.5588578561
 40
0.6043116697
 40
0.6913315838
 40
0.7718242667
 40
0.8471214746
 40
0.9894569562
 40
1.0
 40
1.0
 40
1.0
 40
1.0
 10
-23.0112028878
 20
3.1726067583
 30
0.0
 10
-23.0152565417
 20
3.2766518233
 30
0.0
 10
-23.0622996318
 20
3.4366245718
 30
0.0
 10
-23.2071548009
 20
3.5949058679
 30
0.0
 10
-23.3553171171
 20
3.6786189022
 30
0.0
 10
-23.4989448616
 20
3.7188837615
 30
0.0
 10
-23.6250873037
 20
3.7351864874
 30
0.0
 10
-23.7230468304
 20
3.7391138836
 30
0.0
 10
-23.8186887444
 20
3.7352819451
 30
0.0
 10
-23.9367287735
 20
3.7192710634
 30
0.0
 10
-24.0731507182
 20
3.6803164501
 30
0.0
 10
-24.2156324938
 20
3.6011152653
 30
0.0
 10
-24.3503306866
 20
3.453059614
 30
0.0
 10
-24.3971037095
 20
3.2989573912
 30
0.0
 10
-24.3952457767
 20
3.1971228743
 30
0.0
 10
-24.3949584586
 20
3.1901128996
 30
0.0
  0
SPLINE
  5
6EF
100
AcDbEntity
  8
ASSI
100
AcDbSpline
 62
7
  6
CONTINUOUS
 70
0
 71
3
 72
9
 73
5
 74
0
 42
0.0000001
 43
0.0000001
 44
0.0000000001
 40
0.0
 40
0.0
 40
0.0
 40
0.0
 40
0.1806469784
 40
1.0
 40
1.0
 40
1.0
 40
1.0
 10
-24.1199575627
 20
2.79521204
 30
0.0
 10
-24.0995694161
 20
2.7845553708
 30
0.0
 10
-23.9826326828
 20
2.7335319367
 30
0.0
 10
-23.8588634016
 20
2.7008461664
 30
0.0
 10
-23.7576118298
 20
2.6756316295
 30
0.0
  0
SPLINE
  5
6F0
100
AcDbEntity
  8
ASSI
100
AcDbSpline
 62
7
  6
CONTINUOUS
 70
0
 71
3
 72
9
 73
5
 74
0
 42
0.0000001
 43
0.0000001
 44
0.0000000001
 40
0.0
 40
0.0
 40
0.0
 40
0.0
 40
0.3500357027
 40
1.0
 40
1.0
 40
1.0
 40
1.0
 10
-23.7576118298
 20
2.6756316295
 30
0.0
 10
-23.7187967732
 20
2.6659655704
 30
0.0
 10
-23.6083505393
 20
2.6371176317
 30
0.0
 10
-23.496768968
 20
2.609789568
 30
0.0
 10
-23.4278869283
 20
2.5820039118
 30
0.0
  0
SPLINE
  5
6F1
100
AcDbEntity
  8
ASSI
100
AcDbSpline
 62
7
  6
CONTINUOUS
 70
0
 71
3
 72
16
 73
12
 74
0
 42
0.0000001
 43
0.0000001
 44
0.0000000001
 40
0.0
 40
0.0
 40
0.0
 40
0.0
 40
0.1566468856
 40
0.220189847
 40
0.2871042189
 40
0.4238330589
 40
0.5820227078
 40
0.6769136751
 40
0.7814331672
 40
0.9003632222
 40
1.0
 40
1.0
 40
1.0
 40
1.0
 10
-23.4278869283
 20
2.5820039118
 30
0.0
 10
-23.3665718817
 20
2.5577630838
 30
0.0
 10
-23.2780936247
 20
2.5089016063
 30
0.0
 10
-23.2259761932
 20
2.3967856652
 30
0.0
 10
-23.2106064231
 20
2.2843035824
 30
0.0
 10
-23.2589361639
 20
2.1282148663
 30
0.0
 10
-23.4033675297
 20
2.0304460533
 30
0.0
 10
-23.5488458865
 20
1.9909086787
 30
0.0
 10
-23.6832263504
 20
1.9807412602
 30
0.0
 10
-23.8195926582
 20
1.9925650839
 30
0.0
 10
-23.9080621273
 20
2.0199644966
 30
0.0
 10
-23.9467732307
 20
2.0364292066
 30
0.0
  0
SPLINE
  5
6F2
100
AcDbEntity
  8
ASSI
100
AcDbSpline
 62
7
  6
CONTINUOUS
 70
0
 71
3
 72
23
 73
19
 74
0
 42
0.0000001
 43
0.0000001
 44
0.0000000001
 40
0.0
 40
0.0
 40
0.0
 40
0.0
 40
0.1084614748
 40
0.1620300211
 40
0.2177464023
 40
0.2573464431
 40
0.2956467235
 40
0.3712230697
 40
0.4467423271
 40
0.5246924863
 40
0.6091734529
 40
0.6546650189
 40
0.7029278553
 40
0.7773481255
 40
0.8442886394
 40
0.9057717315
 40
0.9643873549
 40
1.0
 40
1.0
 40
1.0
 40
1.0
 10
-26.0822662842
 20
3.335261398
 30
0.0
 10
-26.0211993353
 20
3.3932237117
 30
0.0
 10
-25.9131250594
 20
3.4652571458
 30
0.0
 10
-25.7495881684
 20
3.5114832659
 30
0.0
 10
-25.6337437284
 20
3.5212804196
 30
0.0
 10
-25.5299527993
 20
3.5148978194
 30
0.0
 10
-25.4128304189
 20
3.4911993059
 30
0.0
 10
-25.2764389938
 20
3.4307033215
 30
0.0
 10
-25.1392467179
 20
3.3133553745
 30
0.0
 10
-25.0410960574
 20
3.1538093168
 30
0.0
 10
-24.993953921
 20
2.9978707453
 30
0.0
 10
-24.975040099
 20
2.8606332756
 30
0.0
 10
-24.9697826649
 20
2.7300406452
 30
0.0
 10
-24.978529089
 20
2.5826218267
 30
0.0
 10
-25.0122289409
 20
2.4280379401
 30
0.0
 10
-25.0698879101
 20
2.2935814776
 30
0.0
 10
-25.141907167
 20
2.1952585683
 30
0.0
 10
-25.1948568975
 20
2.1443636005
 30
0.0
 10
-25.2160638962
 20
2.1265537739
 30
0.0
  0
SPLINE
  5
6F3
100
AcDbEntity
  8
ASSI
100
AcDbSpline
 62
7
  6
CONTINUOUS
 70
0
 71
3
 72
9
 73
5
 74
0
 42
0.0000001
 43
0.0000001
 44
0.0000000001
 40
0.0
 40
0.0
 40
0.0
 40
0.0
 40
0.7911658617
 40
1.0
 40
1.0
 40
1.0
 40
1.0
 10
-26.2754693803
 20
2.7231213049
 30
0.0
 10
-26.2754693803
 20
2.8953454373
 30
0.0
 10
-26.250105821
 20
3.1287168937
 30
0.0
 10
-26.1152384715
 20
3.3039655121
 30
0.0
 10
-26.0822662842
 20
3.335261398
 30
0.0
  0
SPLINE
  5
6F4
100
AcDbEntity
  8
ASSI
100
AcDbSpline
 62
7
  6
CONTINUOUS
 70
0
 71
3
 72
16
 73
12
 74
0
 42
0.0000001
 43
0.0000001
 44
0.0000000001
 40
0.0
 40
0.0
 40
0.0
 40
0.0
 40
0.1522543123
 40
0.2694555914
 40
0.3706433414
 40
0.4732597487
 40
0.6190505678
 40
0.6948201622
 40
0.775286542
 40
0.8735743773
 40
1.0
 40
1.0
 40
1.0
 40
1.0
 10
-27.5013714558
 20
3.4840385438
 30
0.0
 10
-27.4399894166
 20
3.4840385438
 30
0.0
 10
-27.3301407454
 20
3.4762390333
 30
0.0
 10
-27.1903965818
 20
3.4107935642
 30
0.0
 10
-27.1098073533
 20
3.3031494243
 30
0.0
 10
-27.0827154425
 20
3.1610141502
 30
0.0
 10
-27.1215130209
 20
3.0277332162
 30
0.0
 10
-27.2057036689
 20
2.9367947175
 30
0.0
 10
-27.2987141184
 20
2.8892736822
 30
0.0
 10
-27.4202471392
 20
2.8651396837
 30
0.0
 10
-27.5109585984
 20
2.8611749728
 30
0.0
 10
-27.5619276803
 20
2.8611749728
 30
0.0
  0
SPLINE
  5
6F5
100
AcDbEntity
  8
ASSI
100
AcDbSpline
 62
7
  6
CONTINUOUS
 70
0
 71
3
 72
16
 73
12
 74
0
 42
0.0000001
 43
0.0000001
 44
0.0000000001
 40
0.0
 40
0.0
 40
0.0
 40
0.0
 40
0.1089696409
 40
0.1828936499
 40
0.2222819345
 40
0.2625064106
 40
0.3465431344
 40
0.4482180559
 40
0.5822445398
 40
0.7621351793
 40
1.0
 40
1.0
 40
1.0
 40
1.0
 10
-27.8086581393
 20
2.6420192719
 30
0.0
 10
-27.7810135662
 20
2.6420192719
 30
0.0
 10
-27.734707039
 20
2.6409523441
 30
0.0
 10
-27.6781536773
 20
2.6364497271
 30
0.0
 10
-27.6407349616
 20
2.6251833923
 30
0.0
 10
-27.6019994723
 20
2.6102610794
 30
0.0
 10
-27.5508479326
 20
2.5835488701
 30
0.0
 10
-27.4887942941
 20
2.5303757944
 30
0.0
 10
-27.4210697381
 20
2.4492821367
 30
0.0
 10
-27.3399972085
 20
2.3351127331
 30
0.0
 10
-27.2819052505
 20
2.246448077
 30
0.0
 10
-27.2494145179
 20
2.1955977196
 30
0.0
  0
SPLINE
  5
6F6
100
AcDbEntity
  8
ASSI
100
AcDbSpline
 62
7
  6
CONTINUOUS
 70
0
 71
3
 72
9
 73
5
 74
0
 42
0.0000001
 43
0.0000001
 44
0.0000000001
 40
0.0
 40
0.0
 40
0.0
 40
0.0
 40
0.2659540588
 40
1.0
 40
1.0
 40
1.0
 40
1.0
 10
-27.0252125676
 20
2.3174310865
 30
0.0
 10
-27.0409468678
 20
2.3411943083
 30
0.0
 10
-27.1019736381
 20
2.4292627512
 30
0.0
 10
-27.1710252752
 20
2.5120228586
 30
0.0
 10
-27.2268861852
 20
2.5674055001
 30
0.0
  0
SPLINE
  5
6F7
100
AcDbEntity
  8
ASSI
100
AcDbSpline
 62
7
  6
CONTINUOUS
 70
0
 71
3
 72
9
 73
5
 74
0
 42
0.0000001
 43
0.0000001
 44
0.0000000001
 40
0.0
 40
0.0
 40
0.0
 40
0.0
 40
0.209446698
 40
1.0
 40
1.0
 40
1.0
 40
1.0
 10
-27.2268861852
 20
2.5674055001
 30
0.0
 10
-27.23563494
 20
2.5759307434
 30
0.0
 10
-27.2798569546
 20
2.6141207951
 30
0.0
 10
-27.3306982503
 20
2.643821347
 30
0.0
 10
-27.3716081678
 20
2.6650882931
 30
0.0
  0
SPLINE
  5
6F8
100
AcDbEntity
  8
ASSI
100
AcDbSpline
 62
7
  6
CONTINUOUS
 70
0
 71
3
 72
19
 73
15
 74
0
 42
0.0000001
 43
0.0000001
 44
0.0000000001
 40
0.0
 40
0.0
 40
0.0
 40
0.0
 40
0.136569576
 40
0.2487419393
 40
0.3510973289
 40
0.4029098052
 40
0.4575312966
 40
0.5006597919
 40
0.54259345
 40
0.6258399794
 40
0.7059972618
 40
0.7829904054
 40
0.8757620861
 40
1.0
 40
1.0
 40
1.0
 40
1.0
 10
-27.3716081678
 20
2.6650882931
 30
0.0
 10
-27.2909934478
 20
2.6762833115
 30
0.0
 10
-27.1442337876
 20
2.7097253661
 30
0.0
 10
-26.9645915487
 20
2.8276078045
 30
0.0
 10
-26.8780174813
 20
2.9665145303
 30
0.0
 10
-26.8455915219
 20
3.0872457515
 30
0.0
 10
-26.8386613459
 20
3.176588841
 30
0.0
 10
-26.8437748116
 20
3.259875979
 30
0.0
 10
-26.863342263
 20
3.3585628108
 30
0.0
 10
-26.9123685911
 20
3.4723542573
 30
0.0
 10
-27.0035084979
 20
3.5859930913
 30
0.0
 10
-27.1344992628
 20
3.6635096489
 30
0.0
 10
-27.3083226941
 20
3.6975616966
 30
0.0
 10
-27.4376050491
 20
3.7031942447
 30
0.0
 10
-27.51164436
 20
3.7031942447
 30
0.0
  0
SPLINE
  5
6F9
100
AcDbEntity
  8
ASSI
100
AcDbSpline
 62
7
  6
CONTINUOUS
 70
0
 71
3
 72
9
 73
5
 74
0
 42
0.0000001
 43
0.0000001
 44
0.0000000001
 40
0.0
 40
0.0
 40
0.0
 40
0.0
 40
0.7097160398
 40
1.0
 40
1.0
 40
1.0
 40
1.0
 10
-29.4762959766
 20
3.507107565
 30
0.0
 10
-29.4483034293
 20
3.4113036472
 30
0.0
 10
-29.4032674515
 20
3.2779679677
 30
0.0
 10
-29.3555527916
 20
3.1456883989
 30
0.0
 10
-29.3414864393
 20
3.1073647434
 30
0.0
  0
SPLINE
  5
6FA
100
AcDbEntity
  8
ASSI
100
AcDbSpline
 62
7
  6
CONTINUOUS
 70
0
 71
3
 72
9
 73
5
 74
0
 42
0.0000001
 43
0.0000001
 44
0.0000000001
 40
0.0
 40
0.0
 40
0.0
 40
0.0
 40
0.3106214921
 40
1.0
 40
1.0
 40
1.0
 40
1.0
 10
-31.3326312612
 20
2.3819521836
 30
0.0
 10
-31.3437431458
 20
2.3505343179
 30
0.0
 10
-31.3793105294
 20
2.2493191403
 30
0.0
 10
-31.414399674
 20
2.1479190038
 30
0.0
 10
-31.4371627743
 20
2.0775491717
 30
0.0
  0
SPLINE
  5
6FB
100
AcDbEntity
  8
ASSI
100
AcDbSpline
 62
7
  6
CONTINUOUS
 70
0
 71
3
 72
9
 73
5
 74
0
 42
0.0000001
 43
0.0000001
 44
0.0000000001
 40
0.0
 40
0.0
 40
0.0
 40
0.0
 40
0.1862683768
 40
1.0
 40
1.0
 40
1.0
 40
1.0
 10
-31.4371627743
 20
2.0775491717
 30
0.0
 10
-31.4425533908
 20
2.0950771016
 30
0.0
 10
-31.4720738378
 20
2.1889985879
 30
0.0
 10
-31.5029312579
 20
2.282492711
 30
0.0
 10
-31.5281772525
 20
2.3585227035
 30
0.0
  0
SPLINE
  5
6FC
100
AcDbEntity
  8
ASSI
100
AcDbSpline
 62
7
  6
CONTINUOUS
 70
0
 71
3
 72
22
 73
18
 74
0
 42
0.0000001
 43
0.0000001
 44
0.0000000001
 40
0.0
 40
0.0
 40
0.0
 40
0.0
 40
0.1245167122
 40
0.2419987357
 40
0.3009613969
 40
0.3584696942
 40
0.4171258175
 40
0.4793882064
 40
0.544834558
 40
0.6069895135
 40
0.6683671276
 40
0.7315742793
 40
0.7950400525
 40
0.8573180853
 40
0.9211191536
 40
0.988971738
 40
1.0
 40
1.0
 40
1.0
 40
1.0
 10
-34.0165676354
 20
2.7256445176
 30
0.0
 10
-33.965253215
 20
2.7256445176
 30
0.0
 10
-33.8637971989
 20
2.7108735394
 30
0.0
 10
-33.756371146
 20
2.6416770463
 30
0.0
 10
-33.69340958
 20
2.5679715367
 30
0.0
 10
-33.6588545391
 20
2.5039378863
 30
0.0
 10
-33.6385174452
 20
2.4327116362
 30
0.0
 10
-33.6323417792
 20
2.3557652944
 30
0.0
 10
-33.6388088834
 20
2.2773804739
 30
0.0
 10
-33.660267388
 20
2.2019422069
 30
0.0
 10
-33.6966368839
 20
2.1334719635
 30
0.0
 10
-33.7464775464
 20
2.0735081674
 30
0.0
 10
-33.8068077858
 20
2.0234764714
 30
0.0
 10
-33.8766395321
 20
1.9871405155
 30
0.0
 10
-33.9542107215
 20
1.9657488811
 30
0.0
 10
-34.0131144316
 20
1.9610888897
 30
0.0
 10
-34.0456784309
 20
1.9615536664
 30
0.0
 10
-34.0502288477
 20
1.9616813877
 30
0.0
  0
SPLINE
  5
6FD
100
AcDbEntity
  8
ASSI
100
AcDbSpline
 62
7
  6
CONTINUOUS
 70
0
 71
3
 72
24
 73
20
 74
0
 42
0.0000001
 43
0.0000001
 44
0.0000000001
 40
0.0
 40
0.0
 40
0.0
 40
0.0
 40
0.1121967685
 40
0.166093767
 40
0.2210720507
 40
0.2764710866
 40
0.3317147037
 40
0.3888826938
 40
0.4498582523
 40
0.5174707333
 40
0.5809499684
 40
0.6426255879
 40
0.7050295449
 40
0.7665006467
 40
0.8252721578
 40
0.8839358525
 40
0.9450972128
 40
0.9900525909
 40
1.0
 40
1.0
 40
1.0
 40
1.0
 10
-34.6495240572
 20
2.2959839547
 30
0.0
 10
-34.6422094818
 20
2.222613189
 30
0.0
 10
-34.6141326011
 20
2.1138259065
 30
0.0
 10
-34.5368363265
 20
1.9898409401
 30
0.0
 10
-34.4626514109
 20
1.9105161685
 30
0.0
 10
-34.3745827516
 20
1.8454379951
 30
0.0
 10
-34.2739565648
 20
1.7985510016
 30
0.0
 10
-34.1627442648
 20
1.7708894217
 30
0.0
 10
-34.0405018344
 20
1.7623143503
 30
0.0
 10
-33.9140652267
 20
1.7718862253
 30
0.0
 10
-33.7908055242
 20
1.8044115123
 30
0.0
 10
-33.6795961343
 20
1.8596371922
 30
0.0
 10
-33.5833498025
 20
1.9357556634
 30
0.0
 10
-33.5037127031
 20
2.0265227042
 30
0.0
 10
-33.4453462353
 20
2.1296274249
 30
0.0
 10
-33.4107800263
 20
2.2427538122
 30
0.0
 10
-33.4011934568
 20
2.3513020245
 30
0.0
 10
-33.4061172985
 20
2.4276580187
 30
0.0
 10
-33.4119603877
 20
2.4632943651
 30
0.0
 10
-33.4131393325
 20
2.4697295799
 30
0.0
  0
SPLINE
  5
6FE
100
AcDbEntity
  8
ASSI
100
AcDbSpline
 62
7
  6
CONTINUOUS
 70
0
 71
3
 72
17
 73
13
 74
0
 42
0.0000001
 43
0.0000001
 44
0.0000000001
 40
0.0
 40
0.0
 40
0.0
 40
0.0
 40
0.157922234
 40
0.3041160209
 40
0.4632412459
 40
0.5463538059
 40
0.6330895823
 40
0.7233063267
 40
0.8160954785
 40
0.8830771286
 40
0.946013392
 40
1.0
 40
1.0
 40
1.0
 40
1.0
 10
-33.769296664
 20
2.831077178
 30
0.0
 10
-33.6925337644
 20
2.866629407
 30
0.0
 10
-33.5540654389
 20
2.97230066
 30
0.0
 10
-33.4840005911
 20
3.2257043949
 30
0.0
 10
-33.5453911624
 20
3.4358199305
 30
0.0
 10
-33.657336747
 20
3.574578302
 30
0.0
 10
-33.7742803398
 20
3.6535744471
 30
0.0
 10
-33.9110497233
 20
3.704276716
 30
0.0
 10
-34.0454876348
 20
3.7183943739
 30
0.0
 10
-34.1649039924
 20
3.7097991987
 30
0.0
 10
-34.261089029
 20
3.6865649161
 30
0.0
 10
-34.3188422834
 20
3.6608561753
 30
0.0
 10
-34.3443603483
 20
3.6468479778
 30
0.0
  0
SPLINE
  5
6FF
100
AcDbEntity
  8
ASSI
100
AcDbSpline
 62
7
  6
CONTINUOUS
 70
0
 71
3
 72
16
 73
12
 74
0
 42
0.0000001
 43
0.0000001
 44
0.0000000001
 40
0.0
 40
0.0
 40
0.0
 40
0.0
 40
0.2754465559
 40
0.3950325473
 40
0.4565247543
 40
0.5218606479
 40
0.5875789382
 40
0.6488150883
 40
0.7664059399
 40
0.8813245124
 40
1.0
 40
1.0
 40
1.0
 40
1.0
 10
-34.3957648245
 20
3.1841412689
 30
0.0
 10
-34.3816128347
 20
3.2753428743
 30
0.0
 10
-34.3308672895
 20
3.4134154058
 30
0.0
 10
-34.195617371
 20
3.4948377299
 30
0.0
 10
-34.1153195506
 20
3.5155004936
 30
0.0
 10
-34.0506770028
 20
3.5202625083
 30
0.0
 10
-33.9861518578
 20
3.5155079043
 30
0.0
 10
-33.9063387214
 20
3.4949738826
 30
0.0
 10
-33.8207169083
 20
3.4408171304
 30
0.0
 10
-33.7513586133
 20
3.3415359993
 30
0.0
 10
-33.7382977218
 20
3.261753181
 30
0.0
 10
-33.7382977218
 20
3.2219889312
 30
0.0
  0
SPLINE
  5
700
100
AcDbEntity
  8
ASSI
100
AcDbSpline
 62
7
  6
CONTINUOUS
 70
0
 71
3
 72
11
 73
7
 74
0
 42
0.0000001
 43
0.0000001
 44
0.0000000001
 40
0.0
 40
0.0
 40
0.0
 40
0.0
 40
0.2589066357
 40
0.4973886641
 40
0.7458566114
 40
1.0
 40
1.0
 40
1.0
 40
1.0
 10
-33.7382977218
 20
3.2219889312
 30
0.0
 10
-33.7382977218
 20
3.1740322807
 30
0.0
 10
-33.7531050839
 20
3.0779745363
 30
0.0
 10
-33.8529511453
 20
2.973414789
 30
0.0
 10
-33.9804686095
 20
2.9175106368
 30
0.0
 10
-34.0740247827
 20
2.904609749
 30
0.0
 10
-34.1210991485
 20
2.904609749
 30
0.0
  0
SPLINE
  5
701
100
AcDbEntity
  8
ASSI
100
AcDbSpline
 62
7
  6
CONTINUOUS
 70
0
 71
3
 72
8
 73
4
 74
0
 42
0.0000001
 43
0.0000001
 44
0.0000000001
 40
0.0
 40
0.0
 40
0.0
 40
0.0
 40
1.0
 40
1.0
 40
1.0
 40
1.0
 10
-34.1210991485
 20
2.904609749
 30
0.0
 10
-34.1338070996
 20
2.904609749
 30
0.0
 10
-34.1464991393
 20
2.9058888876
 30
0.0
 10
-34.1591270403
 20
2.9073130151
 30
0.0
  0
SPLINE
  5
702
100
AcDbEntity
  8
ASSI
100
AcDbSpline
 62
7
  6
CONTINUOUS
 70
0
 71
3
 72
9
 73
5
 74
0
 42
0.0000001
 43
0.0000001
 44
0.0000000001
 40
0.0
 40
0.0
 40
0.0
 40
0.0
 40
0.290916541
 40
1.0
 40
1.0
 40
1.0
 40
1.0
 10
-34.185800651
 20
2.6996918248
 30
0.0
 10
-34.1696976291
 20
2.7038178674
 30
0.0
 10
-34.1141281067
 20
2.7168606026
 30
0.0
 10
-34.0570852781
 20
2.7256445176
 30
0.0
 10
-34.0165676354
 20
2.7256445176
 30
0.0
  0
SPLINE
  5
703
100
AcDbEntity
  8
ASSI
100
AcDbSpline
 62
7
  6
CONTINUOUS
 70
0
 71
3
 72
14
 73
10
 74
0
 42
0.0000001
 43
0.0000001
 44
0.0000000001
 40
0.0
 40
0.0
 40
0.0
 40
0.0
 40
0.1531755028
 40
0.3079996746
 40
0.4958433067
 40
0.5877948367
 40
0.6835810267
 40
0.8209533056
 40
1.0
 40
1.0
 40
1.0
 40
1.0
 10
-35.6714095319
 20
3.4562837323
 30
0.0
 10
-35.6421307044
 20
3.4764639323
 30
0.0
 10
-35.5767210242
 20
3.5087214802
 30
0.0
 10
-35.4613805786
 20
3.5248766388
 30
0.0
 10
-35.358872611
 20
3.506985477
 30
0.0
 10
-35.2827003123
 20
3.4635224581
 30
0.0
 10
-35.2243607509
 20
3.4144320663
 30
0.0
 10
-35.1750750169
 20
3.3302441064
 30
0.0
 10
-35.1547381574
 20
3.2592726785
 30
0.0
 10
-35.1455080119
 20
3.2187448006
 30
0.0
  0
SPLINE
  5
704
100
AcDbEntity
  8
ASSI
100
AcDbSpline
 62
7
  6
CONTINUOUS
 70
0
 71
3
 72
24
 73
20
 74
0
 42
0.0000001
 43
0.0000001
 44
0.0000000001
 40
0.0
 40
0.0
 40
0.0
 40
0.0
 40
0.0822880068
 40
0.1577312241
 40
0.2333251367
 40
0.2732926312
 40
0.3163027384
 40
0.3737228611
 40
0.4272843912
 40
0.4797850241
 40
0.5341863781
 40
0.6021263291
 40
0.6793833912
 40
0.7687493608
 40
0.818588534
 40
0.8720749546
 40
0.919827556
 40
0.9642108003
 40
1.0
 40
1.0
 40
1.0
 40
1.0
 10
-34.9148178004
 20
3.2418138218
 30
0.0
 10
-34.9235595222
 20
3.3098113733
 30
0.0
 10
-34.9576529759
 20
3.4398637953
 30
0.0
 10
-35.0782379081
 20
3.5988593702
 30
0.0
 10
-35.2205104448
 20
3.6796682739
 30
0.0
 10
-35.3496645564
 20
3.71007325
 30
0.0
 10
-35.4667748949
 20
3.7179014897
 30
0.0
 10
-35.5954085113
 20
3.7066799652
 30
0.0
 10
-35.7265154296
 20
3.6653551869
 30
0.0
 10
-35.8415914913
 20
3.5947928962
 30
0.0
 10
-35.9455729448
 20
3.4909712143
 30
0.0
 10
-36.032247288
 20
3.3470608399
 30
0.0
 10
-36.0943825672
 20
3.1605795225
 30
0.0
 10
-36.1235745134
 20
2.9820296172
 30
0.0
 10
-36.1355584924
 20
2.8218899669
 30
0.0
 10
-36.1384142819
 20
2.6959989002
 30
0.0
 10
-36.135772706
 20
2.5746552848
 30
0.0
 10
-36.1276740224
 20
2.4683426264
 30
0.0
 10
-36.118738661
 20
2.402066489
 30
0.0
 10
-36.1138067755
 20
2.3726373728
 30
0.0
  0
SPLINE
  5
705
100
AcDbEntity
  8
ASSI
100
AcDbSpline
 62
7
  6
CONTINUOUS
 70
0
 71
3
 72
11
 73
7
 74
0
 42
0.0000001
 43
0.0000001
 44
0.0000000001
 40
0.0
 40
0.0
 40
0.0
 40
0.0
 40
0.3426107936
 40
0.6044566108
 40
0.8143265955
 40
1.0
 40
1.0
 40
1.0
 40
1.0
 10
-35.9067857098
 20
2.7816950052
 30
0.0
 10
-35.9060390269
 20
2.86601558
 30
0.0
 10
-35.8986125816
 20
3.0150547881
 30
0.0
 10
-35.8521271859
 20
3.2119255332
 30
0.0
 10
-35.7748534507
 20
3.3558703073
 30
0.0
 10
-35.7076749284
 20
3.4284781941
 30
0.0
 10
-35.6714095319
 20
3.4562837323
 30
0.0
  0
SPLINE
  5
706
100
AcDbEntity
  8
ASSI
100
AcDbSpline
 62
7
  6
CONTINUOUS
 70
0
 71
3
 72
13
 73
9
 74
0
 42
0.0000001
 43
0.0000001
 44
0.0000000001
 40
0.0
 40
0.0
 40
0.0
 40
0.0
 40
0.2591153923
 40
0.3783559876
 40
0.5002774492
 40
0.6221918058
 40
0.741366948
 40
1.0
 40
1.0
 40
1.0
 40
1.0
 10
-36.7004140709
 20
2.1143154571
 30
0.0
 10
-36.7342343942
 20
2.0686108339
 30
0.0
 10
-36.7962438873
 20
2.0080596833
 30
0.0
 10
-36.8995546695
 20
1.9675124947
 30
0.0
 10
-36.9794941363
 20
1.9584408533
 30
0.0
 10
-37.0594156463
 20
1.967487733
 30
0.0
 10
-37.1626656067
 20
2.0078236846
 30
0.0
 10
-37.2247286365
 20
2.0681320111
 30
0.0
 10
-37.2585762274
 20
2.113684654
 30
0.0
  0
SPLINE
  5
707
100
AcDbEntity
  8
ASSI
100
AcDbSpline
 62
7
  6
CONTINUOUS
 70
0
 71
3
 72
9
 73
5
 74
0
 42
0.0000001
 43
0.0000001
 44
0.0000000001
 40
0.0
 40
0.0
 40
0.0
 40
0.0
 40
0.3855604367
 40
1.0
 40
1.0
 40
1.0
 40
1.0
 10
-37.2585762274
 20
2.113684654
 30
0.0
 10
-37.3078150884
 20
2.1799511206
 30
0.0
 10
-37.3628757324
 20
2.396753449
 30
0.0
 10
-37.3716685527
 20
2.608497127
 30
0.0
 10
-37.3716685527
 20
2.7400626998
 30
0.0
  0
SPLINE
  5
708
100
AcDbEntity
  8
ASSI
100
AcDbSpline
 62
7
  6
CONTINUOUS
 70
0
 71
3
 72
9
 73
5
 74
0
 42
0.0000001
 43
0.0000001
 44
0.0000000001
 40
0.0
 40
0.0
 40
0.0
 40
0.0
 40
0.6001364234
 40
1.0
 40
1.0
 40
1.0
 40
1.0
 10
-37.3716685527
 20
2.7400626998
 30
0.0
 10
-37.3716685527
 20
2.8720481479
 30
0.0
 10
-37.3617665155
 20
3.090714771
 30
0.0
 10
-37.3004208247
 20
3.3103296869
 30
0.0
 10
-37.2500154152
 20
3.3823907024
 30
0.0
  0
SPLINE
  5
709
100
AcDbEntity
  8
ASSI
100
AcDbSpline
 62
7
  6
CONTINUOUS
 70
0
 71
3
 72
13
 73
9
 74
0
 42
0.0000001
 43
0.0000001
 44
0.0000000001
 40
0.0
 40
0.0
 40
0.0
 40
0.0
 40
0.2418297111
 40
0.3587506684
 40
0.4819025475
 40
0.6099630364
 40
0.7339475358
 40
1.0
 40
1.0
 40
1.0
 40
1.0
 10
-37.2500154152
 20
3.3823907024
 30
0.0
 10
-37.2188863517
 20
3.4240430445
 30
0.0
 10
-37.1591723706
 20
3.478568325
 30
0.0
 10
-37.0605303164
 20
3.5134587479
 30
0.0
 10
-36.9811490753
 20
3.5214850196
 30
0.0
 10
-36.9001883541
 20
3.5126624309
 30
0.0
 10
-36.7951371113
 20
3.4719899033
 30
0.0
 10
-36.7324866488
 20
3.4105507649
 30
0.0
 10
-36.6989722351
 20
3.3641877891
 30
0.0
  0
SPLINE
  5
70A
100
AcDbEntity
  8
ASSI
100
AcDbSpline
 62
7
  6
CONTINUOUS
 70
0
 71
3
 72
17
 73
13
 74
0
 42
0.0000001
 43
0.0000001
 44
0.0000000001
 40
0.0
 40
0.0
 40
0.0
 40
0.0
 40
0.0844580526
 40
0.1939587312
 40
0.3316668575
 40
0.4116386184
 40
0.4991820578
 40
0.5872976204
 40
0.6677250704
 40
0.8060064882
 40
0.915671004
 40
1.0
 40
1.0
 40
1.0
 40
1.0
 10
-36.6989722351
 20
3.3641877891
 30
0.0
 10
-36.6777765457
 20
3.3348662189
 30
0.0
 10
-36.6424810928
 20
3.2581939031
 30
0.0
 10
-36.6099659795
 20
3.1195666696
 30
0.0
 10
-36.59477565
 20
2.9799328746
 30
0.0
 10
-36.5883299364
 20
2.8493366432
 30
0.0
 10
-36.5867918137
 20
2.7398176677
 30
0.0
 10
-36.5883417577
 20
2.6301029896
 30
0.0
 10
-36.5948650828
 20
2.4988243798
 30
0.0
 10
-36.6102294366
 20
2.3586864528
 30
0.0
 10
-36.6431245153
 20
2.2198763145
 30
0.0
 10
-36.678925829
 20
2.1433545646
 30
0.0
 10
-36.7004140709
 20
2.1143154571
 30
0.0
  0
SPLINE
  5
70B
100
AcDbEntity
  8
ASSI
100
AcDbSpline
 62
7
  6
CONTINUOUS
 70
0
 71
3
 72
14
 73
10
 74
0
 42
0.0000001
 43
0.0000001
 44
0.0000000001
 40
0.0
 40
0.0
 40
0.0
 40
0.0
 40
0.1531755028
 40
0.3079996746
 40
0.4958433067
 40
0.5877948367
 40
0.6835810267
 40
0.8209533056
 40
1.0
 40
1.0
 40
1.0
 40
1.0
 10
-38.6242442388
 20
3.4562837323
 30
0.0
 10
-38.5949654114
 20
3.4764639323
 30
0.0
 10
-38.5295557312
 20
3.5087214802
 30
0.0
 10
-38.4142152856
 20
3.5248766388
 30
0.0
 10
-38.311707318
 20
3.506985477
 30
0.0
 10
-38.2355350193
 20
3.4635224581
 30
0.0
 10
-38.1771954579
 20
3.4144320663
 30
0.0
 10
-38.1279097239
 20
3.3302441064
 30
0.0
 10
-38.1075728644
 20
3.2592726785
 30
0.0
 10
-38.0983427189
 20
3.2187448006
 30
0.0
  0
SPLINE
  5
70C
100
AcDbEntity
  8
ASSI
100
AcDbSpline
 62
7
  6
CONTINUOUS
 70
0
 71
3
 72
24
 73
20
 74
0
 42
0.0000001
 43
0.0000001
 44
0.0000000001
 40
0.0
 40
0.0
 40
0.0
 40
0.0
 40
0.0822880068
 40
0.1577312241
 40
0.2333251367
 40
0.2732926312
 40
0.3163027384
 40
0.3737228611
 40
0.4272843912
 40
0.4797850241
 40
0.5341863781
 40
0.6021263291
 40
0.6793833912
 40
0.7687493608
 40
0.8185885339
 40
0.8720749546
 40
0.919827556
 40
0.9642108003
 40
1.0
 40
1.0
 40
1.0
 40
1.0
 10
-37.8676525074
 20
3.2418138218
 30
0.0
 10
-37.8763942292
 20
3.3098113733
 30
0.0
 10
-37.9104876829
 20
3.4398637953
 30
0.0
 10
-38.0310726151
 20
3.5988593702
 30
0.0
 10
-38.1733451518
 20
3.6796682739
 30
0.0
 10
-38.3024992634
 20
3.71007325
 30
0.0
 10
-38.4196096019
 20
3.7179014897
 30
0.0
 10
-38.5482432183
 20
3.7066799652
 30
0.0
 10
-38.6793501366
 20
3.6653551869
 30
0.0
 10
-38.7944261983
 20
3.5947928962
 30
0.0
 10
-38.8984076518
 20
3.4909712143
 30
0.0
 10
-38.985081995
 20
3.3470608399
 30
0.0
 10
-39.0472172742
 20
3.1605795225
 30
0.0
 10
-39.0764092204
 20
2.9820296172
 30
0.0
 10
-39.0883931994
 20
2.8218899669
 30
0.0
 10
-39.0912489889
 20
2.6959989002
 30
0.0
 10
-39.088607413
 20
2.5746552848
 30
0.0
 10
-39.0805087294
 20
2.4683426264
 30
0.0
 10
-39.071573368
 20
2.402066489
 30
0.0
 10
-39.0666414825
 20
2.3726373728
 30
0.0
  0
SPLINE
  5
70D
100
AcDbEntity
  8
ASSI
100
AcDbSpline
 62
7
  6
CONTINUOUS
 70
0
 71
3
 72
11
 73
7
 74
0
 42
0.0000001
 43
0.0000001
 44
0.0000000001
 40
0.0
 40
0.0
 40
0.0
 40
0.0
 40
0.3426107936
 40
0.6044566108
 40
0.8143265955
 40
1.0
 40
1.0
 40
1.0
 40
1.0
 10
-38.8596204168
 20
2.7816950052
 30
0.0
 10
-38.8588737339
 20
2.86601558
 30
0.0
 10
-38.8514472885
 20
3.0150547881
 30
0.0
 10
-38.8049618929
 20
3.2119255332
 30
0.0
 10
-38.7276881577
 20
3.3558703073
 30
0.0
 10
-38.6605096354
 20
3.4284781941
 30
0.0
 10
-38.6242442388
 20
3.4562837323
 30
0.0
  0
SPLINE
  5
70E
100
AcDbEntity
  8
ASSI
100
AcDbSpline
 62
7
  6
CONTINUOUS
 70
0
 71
3
 72
24
 73
20
 74
0
 42
0.0000001
 43
0.0000001
 44
0.0000000001
 40
0.0
 40
0.0
 40
0.0
 40
0.0
 40
0.1121967685
 40
0.166093767
 40
0.2210720507
 40
0.2764710866
 40
0.3317147037
 40
0.3888826938
 40
0.4498582523
 40
0.5174707333
 40
0.5809499684
 40
0.6426255879
 40
0.7050295449
 40
0.7665006467
 40
0.8252721578
 40
0.8839358525
 40
0.9450972128
 40
0.9900525909
 40
1.0
 40
1.0
 40
1.0
 40
1.0
 10
-40.5551934712
 20
2.2959839547
 30
0.0
 10
-40.5478788958
 20
2.222613189
 30
0.0
 10
-40.5198020151
 20
2.1138259065
 30
0.0
 10
-40.4425057405
 20
1.9898409401
 30
0.0
 10
-40.3683208249
 20
1.9105161685
 30
0.0
 10
-40.2802521655
 20
1.8454379951
 30
0.0
 10
-40.1796259788
 20
1.7985510016
 30
0.0
 10
-40.0684136788
 20
1.7708894217
 30
0.0
 10
-39.9461712484
 20
1.7623143503
 30
0.0
 10
-39.8197346407
 20
1.7718862253
 30
0.0
 10
-39.6964749382
 20
1.8044115123
 30
0.0
 10
-39.5852655483
 20
1.8596371922
 30
0.0
 10
-39.4890192165
 20
1.9357556634
 30
0.0
 10
-39.4093821171
 20
2.0265227042
 30
0.0
 10
-39.3510156493
 20
2.1296274249
 30
0.0
 10
-39.3164494403
 20
2.2427538122
 30
0.0
 10
-39.3068628708
 20
2.3513020245
 30
0.0
 10
-39.3117867125
 20
2.4276580187
 30
0.0
 10
-39.3176298017
 20
2.4632943651
 30
0.0
 10
-39.3188087465
 20
2.4697295799
 30
0.0
  0
SPLINE
  5
70F
100
AcDbEntity
  8
ASSI
100
AcDbSpline
 62
7
  6
CONTINUOUS
 70
0
 71
3
 72
17
 73
13
 74
0
 42
0.0000001
 43
0.0000001
 44
0.0000000001
 40
0.0
 40
0.0
 40
0.0
 40
0.0
 40
0.157922234
 40
0.3041160209
 40
0.4632412459
 40
0.5463538059
 40
0.6330895823
 40
0.7233063267
 40
0.8160954785
 40
0.8830771286
 40
0.946013392
 40
1.0
 40
1.0
 40
1.0
 40
1.0
 10
-39.674966078
 20
2.831077178
 30
0.0
 10
-39.5982031784
 20
2.866629407
 30
0.0
 10
-39.4597348529
 20
2.97230066
 30
0.0
 10
-39.3896700051
 20
3.2257043949
 30
0.0
 10
-39.4510605764
 20
3.4358199305
 30
0.0
 10
-39.563006161
 20
3.574578302
 30
0.0
 10
-39.6799497538
 20
3.6535744471
 30
0.0
 10
-39.8167191373
 20
3.704276716
 30
0.0
 10
-39.9511570488
 20
3.7183943739
 30
0.0
 10
-40.0705734064
 20
3.7097991987
 30
0.0
 10
-40.166758443
 20
3.6865649161
 30
0.0
 10
-40.2245116974
 20
3.6608561753
 30
0.0
 10
-40.2500297623
 20
3.6468479778
 30
0.0
  0
SPLINE
  5
710
100
AcDbEntity
  8
ASSI
100
AcDbSpline
 62
7
  6
CONTINUOUS
 70
0
 71
3
 72
16
 73
12
 74
0
 42
0.0000001
 43
0.0000001
 44
0.0000000001
 40
0.0
 40
0.0
 40
0.0
 40
0.0
 40
0.2754465559
 40
0.3950325473
 40
0.4565247543
 40
0.5218606479
 40
0.5875789382
 40
0.6488150883
 40
0.7664059399
 40
0.8813245124
 40
1.0
 40
1.0
 40
1.0
 40
1.0
 10
-40.3014342385
 20
3.1841412689
 30
0.0
 10
-40.2872822487
 20
3.2753428743
 30
0.0
 10
-40.2365367035
 20
3.4134154058
 30
0.0
 10
-40.1012867849
 20
3.4948377299
 30
0.0
 10
-40.0209889646
 20
3.5155004936
 30
0.0
 10
-39.9563464168
 20
3.5202625083
 30
0.0
 10
-39.8918212718
 20
3.5155079043
 30
0.0
 10
-39.8120081354
 20
3.4949738826
 30
0.0
 10
-39.7263863223
 20
3.4408171304
 30
0.0
 10
-39.6570280273
 20
3.3415359993
 30
0.0
 10
-39.6439671358
 20
3.261753181
 30
0.0
 10
-39.6439671358
 20
3.2219889312
 30
0.0
  0
SPLINE
  5
711
100
AcDbEntity
  8
ASSI
100
AcDbSpline
 62
7
  6
CONTINUOUS
 70
0
 71
3
 72
11
 73
7
 74
0
 42
0.0000001
 43
0.0000001
 44
0.0000000001
 40
0.0
 40
0.0
 40
0.0
 40
0.0
 40
0.2589066357
 40
0.4973886641
 40
0.7458566114
 40
1.0
 40
1.0
 40
1.0
 40
1.0
 10
-39.6439671358
 20
3.2219889312
 30
0.0
 10
-39.6439671358
 20
3.1740322807
 30
0.0
 10
-39.6587744979
 20
3.0779745363
 30
0.0
 10
-39.7586205593
 20
2.973414789
 30
0.0
 10
-39.8861380234
 20
2.9175106368
 30
0.0
 10
-39.9796941967
 20
2.904609749
 30
0.0
 10
-40.0267685625
 20
2.904609749
 30
0.0
  0
SPLINE
  5
712
100
AcDbEntity
  8
ASSI
100
AcDbSpline
 62
7
  6
CONTINUOUS
 70
0
 71
3
 72
8
 73
4
 74
0
 42
0.0000001
 43
0.0000001
 44
0.0000000001
 40
0.0
 40
0.0
 40
0.0
 40
0.0
 40
1.0
 40
1.0
 40
1.0
 40
1.0
 10
-40.0267685625
 20
2.904609749
 30
0.0
 10
-40.0394765136
 20
2.904609749
 30
0.0
 10
-40.0521685533
 20
2.9058888876
 30
0.0
 10
-40.0647964543
 20
2.9073130151
 30
0.0
  0
SPLINE
  5
713
100
AcDbEntity
  8
ASSI
100
AcDbSpline
 62
7
  6
CONTINUOUS
 70
0
 71
3
 72
9
 73
5
 74
0
 42
0.0000001
 43
0.0000001
 44
0.0000000001
 40
0.0
 40
0.0
 40
0.0
 40
0.0
 40
0.290916541
 40
1.0
 40
1.0
 40
1.0
 40
1.0
 10
-40.091470065
 20
2.6996918248
 30
0.0
 10
-40.0753670431
 20
2.7038178674
 30
0.0
 10
-40.0197975206
 20
2.7168606026
 30
0.0
 10
-39.9627546921
 20
2.7256445176
 30
0.0
 10
-39.9222370494
 20
2.7256445176
 30
0.0
  0
SPLINE
  5
714
100
AcDbEntity
  8
ASSI
100
AcDbSpline
 62
7
  6
CONTINUOUS
 70
0
 71
3
 72
22
 73
18
 74
0
 42
0.0000001
 43
0.0000001
 44
0.0000000001
 40
0.0
 40
0.0
 40
0.0
 40
0.0
 40
0.1245167122
 40
0.2419987357
 40
0.3009613969
 40
0.3584696942
 40
0.4171258175
 40
0.4793882064
 40
0.544834558
 40
0.6069895135
 40
0.6683671276
 40
0.7315742793
 40
0.7950400525
 40
0.8573180853
 40
0.9211191536
 40
0.988971738
 40
1.0
 40
1.0
 40
1.0
 40
1.0
 10
-39.9222370494
 20
2.7256445176
 30
0.0
 10
-39.870922629
 20
2.7256445176
 30
0.0
 10
-39.7694666129
 20
2.7108735394
 30
0.0
 10
-39.66204056
 20
2.6416770463
 30
0.0
 10
-39.599078994
 20
2.5679715367
 30
0.0
 10
-39.5645239531
 20
2.5039378863
 30
0.0
 10
-39.5441868592
 20
2.4327116362
 30
0.0
 10
-39.5380111932
 20
2.3557652944
 30
0.0
 10
-39.5444782973
 20
2.2773804739
 30
0.0
 10
-39.565936802
 20
2.2019422069
 30
0.0
 10
-39.6023062979
 20
2.1334719635
 30
0.0
 10
-39.6521469604
 20
2.0735081674
 30
0.0
 10
-39.7124771998
 20
2.0234764714
 30
0.0
 10
-39.7823089461
 20
1.9871405155
 30
0.0
 10
-39.8598801355
 20
1.9657488811
 30
0.0
 10
-39.9187838456
 20
1.9610888897
 30
0.0
 10
-39.9513478449
 20
1.9615536664
 30
0.0
 10
-39.9558982617
 20
1.9616813877
 30
0.0
  0
SPLINE
  5
715
100
AcDbEntity
  8
ASSI
100
AcDbSpline
 62
7
  6
CONTINUOUS
 70
0
 71
3
 72
11
 73
7
 74
0
 42
0.0000001
 43
0.0000001
 44
0.0000000001
 40
0.0
 40
0.0
 40
0.0
 40
0.0
 40
0.2023283395
 40
0.445343536
 40
0.7157738534
 40
1.0
 40
1.0
 40
1.0
 40
1.0
 10
-43.5183010824
 20
3.7147287553
 30
0.0
 10
-43.540640104
 20
3.6697886022
 30
0.0
 10
-43.6041177484
 20
3.5780260396
 30
0.0
 10
-43.7298492242
 20
3.4519264246
 30
0.0
 10
-43.8880036755
 20
3.3318695931
 30
0.0
 10
-44.0093344715
 20
3.2658634047
 30
0.0
 10
-44.0732191963
 20
3.2360466545
 30
0.0
  0
SPLINE
  5
716
100
AcDbEntity
  8
ASSI
100
AcDbSpline
 62
7
  6
CONTINUOUS
 70
0
 71
3
 72
13
 73
9
 74
0
 42
0.0000001
 43
0.0000001
 44
0.0000000001
 40
0.0
 40
0.0
 40
0.0
 40
0.0
 40
0.2307998936
 40
0.3606885394
 40
0.5005072743
 40
0.6401943536
 40
0.7697765133
 40
1.0
 40
1.0
 40
1.0
 40
1.0
 10
-44.0732191963
 20
3.0096819505
 30
0.0
 10
-44.0332295484
 20
3.0243186393
 30
0.0
 10
-43.9721611795
 20
3.0511409733
 30
0.0
 10
-43.8900316657
 20
3.0933686688
 30
0.0
 10
-43.8241199748
 20
3.1302984011
 30
0.0
 10
-43.7595865352
 20
3.1695039821
 30
0.0
 10
-43.6832680951
 20
3.2211771816
 30
0.0
 10
-43.6312078079
 20
3.2627736613
 30
0.0
 10
-43.6003042628
 20
3.2919169126
 30
0.0
  0
SPLINE
  5
717
100
AcDbEntity
  8
ASSI
100
AcDbSpline
 62
7
  6
CONTINUOUS
 70
0
 71
3
 72
9
 73
5
 74
0
 42
0.0000001
 43
0.0000001
 44
0.0000000001
 40
0.0
 40
0.0
 40
0.0
 40
0.0
 40
0.7097160398
 40
1.0
 40
1.0
 40
1.0
 40
1.0
 10
-46.0052496295
 20
3.507107565
 30
0.0
 10
-45.9772570822
 20
3.4113036472
 30
0.0
 10
-45.9322211044
 20
3.2779679677
 30
0.0
 10
-45.8845064444
 20
3.1456883989
 30
0.0
 10
-45.8704400921
 20
3.1073647434
 30
0.0
  0
SPLINE
  5
718
100
AcDbEntity
  8
ASSI
100
AcDbSpline
 62
7
  6
CONTINUOUS
 70
0
 71
3
 72
9
 73
5
 74
0
 42
0.0000001
 43
0.0000001
 44
0.0000000001
 40
0.0
 40
0.0
 40
0.0
 40
0.0
 40
0.0986341094
 40
1.0
 40
1.0
 40
1.0
 40
1.0
 10
-48.1458024004
 20
2.0191557009
 30
0.0
 10
-48.1071137258
 20
2.067336344
 30
0.0
 10
-47.714894444
 20
2.5558350163
 30
0.0
 10
-47.3221663592
 20
3.0439249059
 30
0.0
 10
-46.9683813504
 20
3.4840385438
 30
0.0
  0
SPLINE
  5
719
100
AcDbEntity
  8
ASSI
100
AcDbSpline
 62
7
  6
CONTINUOUS
 70
0
 71
3
 72
9
 73
5
 74
0
 42
0.0000001
 43
0.0000001
 44
0.0000000001
 40
0.0
 40
0.0
 40
0.0
 40
0.0
 40
0.2319301259
 40
1.0
 40
1.0
 40
1.0
 40
1.0
 10
-47.2632322
 20
3.4840385438
 30
0.0
 10
-47.2793550342
 20
3.4671450382
 30
0.0
 10
-47.3479017147
 20
3.3933814432
 30
0.0
 10
-47.4128677025
 20
3.3163416591
 30
0.0
 10
-47.461301404
 20
3.2560517745
 30
0.0
  0
SPLINE
  5
71A
100
AcDbEntity
  8
ASSI
100
AcDbSpline
 62
7
  6
CONTINUOUS
 70
0
 71
3
 72
17
 73
13
 74
0
 42
0.0000001
 43
0.0000001
 44
0.0000000001
 40
0.0
 40
0.0
 40
0.0
 40
0.0
 40
0.1860451082
 40
0.2705259002
 40
0.3141542026
 40
0.3603530295
 40
0.5121184572
 40
0.5895792025
 40
0.6716563947
 40
0.7632308695
 40
0.8657555241
 40
1.0
 40
1.0
 40
1.0
 40
1.0
 10
-52.5164809366
 20
2.4679204124
 30
0.0
 10
-52.5457078831
 20
2.3334154825
 30
0.0
 10
-52.6398215369
 20
2.1333973097
 30
0.0
 10
-52.8493824143
 20
2.0191792598
 30
0.0
 10
-52.9753379405
 20
1.9892342376
 30
0.0
 10
-53.1538835139
 20
1.9761297631
 30
0.0
 10
-53.3630229107
 20
2.0300695928
 30
0.0
 10
-53.5418066937
 20
2.1818832161
 30
0.0
 10
-53.6321695439
 20
2.3480698418
 30
0.0
 10
-53.6827834701
 20
2.5473605483
 30
0.0
 10
-53.7007749749
 20
2.7902047153
 30
0.0
 10
-53.6815577041
 20
2.9671981848
 30
0.0
 10
-53.6554256044
 20
3.0633621945
 30
0.0
  0
SPLINE
  5
71B
100
AcDbEntity
  8
ASSI
100
AcDbSpline
 62
7
  6
CONTINUOUS
 70
0
 71
3
 72
9
 73
5
 74
0
 42
0.0000001
 43
0.0000001
 44
0.0000000001
 40
0.0
 40
0.0
 40
0.0
 40
0.0
 40
0.4786249203
 40
1.0
 40
1.0
 40
1.0
 40
1.0
 10
-53.0661723957
 20
3.5186420756
 30
0.0
 10
-52.9570151312
 20
3.5186420756
 30
0.0
 10
-52.7121725126
 20
3.4590042294
 30
0.0
 10
-52.5984114365
 20
3.235535565
 30
0.0
 10
-52.5626189789
 20
3.1221433846
 30
0.0
  0
SPLINE
  5
71C
100
AcDbEntity
  8
ASSI
100
AcDbSpline
 62
7
  6
CONTINUOUS
 70
0
 71
3
 72
25
 73
21
 74
0
 42
0.0000001
 43
0.0000001
 44
0.0000000001
 40
0.0
 40
0.0
 40
0.0
 40
0.0
 40
0.0888847953
 40
0.1718004827
 40
0.2552805514
 40
0.2993533532
 40
0.346394781
 40
0.3886666315
 40
0.4297437762
 40
0.4702843229
 40
0.5109724255
 40
0.5911642652
 40
0.6732957874
 40
0.7613184488
 40
0.8083486364
 40
0.85815985
 40
0.9045619297
 40
0.949869011
 40
0.9945301458
 40
1.0
 40
1.0
 40
1.0
 40
1.0
 10
-52.3088597463
 20
3.1805368554
 30
0.0
 10
-52.3325676001
 20
3.2631211616
 30
0.0
 10
-52.3989036877
 20
3.4186930208
 30
0.0
 10
-52.5697291123
 20
3.6036704539
 30
0.0
 10
-52.7556852231
 20
3.6969466064
 30
0.0
 10
-52.9212884487
 20
3.7322873756
 30
0.0
 10
-53.0504021465
 20
3.7403666043
 30
0.0
 10
-53.1765076806
 20
3.7332253229
 30
0.0
 10
-53.2946451715
 20
3.7116470007
 30
0.0
 10
-53.407502559
 20
3.6752764877
 30
0.0
 10
-53.5490654949
 20
3.6089025188
 30
0.0
 10
-53.7080289609
 20
3.4881758829
 30
0.0
 10
-53.8467345097
 20
3.2855091473
 30
0.0
 10
-53.9153392784
 20
3.0846016723
 30
0.0
 10
-53.9424433966
 20
2.907686575
 30
0.0
 10
-53.9488878116
 20
2.7691239109
 30
0.0
 10
-53.942737329
 20
2.632277353
 30
0.0
 10
-53.9238801716
 20
2.5015797325
 30
0.0
 10
-53.9014083229
 20
2.4119386091
 30
0.0
 10
-53.8869709835
 20
2.3656593458
 30
0.0
 10
-53.8853640057
 20
2.3606199025
 30
0.0
  0
SPLINE
  5
71D
100
AcDbEntity
  8
ASSI
100
AcDbSpline
 62
7
  6
CONTINUOUS
 70
0
 71
3
 72
11
 73
7
 74
0
 42
0.0000001
 43
0.0000001
 44
0.0000000001
 40
0.0
 40
0.0
 40
0.0
 40
0.0
 40
0.2525992429
 40
0.4888102636
 40
0.730558892
 40
1.0
 40
1.0
 40
1.0
 40
1.0
 10
-53.0513937545
 20
1.7653964683
 30
0.0
 10
-52.9588359584
 20
1.7653964683
 30
0.0
 10
-52.7776456124
 20
1.7888304219
 30
0.0
 10
-52.5358350768
 20
1.9172731932
 30
0.0
 10
-52.3541546185
 20
2.1302616147
 30
0.0
 10
-52.2870704309
 20
2.3086208301
 30
0.0
 10
-52.262721704
 20
2.4043002868
 30
0.0
  0
SPLINE
  5
71E
100
AcDbEntity
  8
ASSI
100
AcDbSpline
 62
7
  6
CONTINUOUS
 70
0
 71
3
 72
8
 73
4
 74
0
 42
0.0000001
 43
0.0000001
 44
0.0000000001
 40
0.0
 40
0.0
 40
0.0
 40
0.0
 40
1.0
 40
1.0
 40
1.0
 40
1.0
 10
-55.6827040012
 20
2.0133885336
 30
0.0
 10
-55.7117461979
 20
2.1182266807
 30
0.0
 10
-55.7456857855
 20
2.2217492703
 30
0.0
 10
-55.7825495479
 20
2.3240994012
 30
0.0
  0
SPLINE
  5
71F
100
AcDbEntity
  8
ASSI
100
AcDbSpline
 62
7
  6
CONTINUOUS
 70
0
 71
3
 72
9
 73
5
 74
0
 42
0.0000001
 43
0.0000001
 44
0.0000000001
 40
0.0
 40
0.0
 40
0.0
 40
0.0
 40
0.7097160398
 40
1.0
 40
1.0
 40
1.0
 40
1.0
 10
-61.4614937989
 20
3.507107565
 30
0.0
 10
-61.4335012516
 20
3.4113036472
 30
0.0
 10
-61.3884652738
 20
3.2779679677
 30
0.0
 10
-61.3407506138
 20
3.1456883989
 30
0.0
 10
-61.3266842616
 20
3.1073647434
 30
0.0
  0
SPLINE
  5
720
100
AcDbEntity
  8
ASSI
100
AcDbSpline
 62
7
  6
CONTINUOUS
 70
0
 71
3
 72
8
 73
4
 74
0
 42
0.0000001
 43
0.0000001
 44
0.0000000001
 40
0.0
 40
0.0
 40
0.0
 40
0.0
 40
1.0
 40
1.0
 40
1.0
 40
1.0
 10
-63.9298790618
 20
2.0133885336
 30
0.0
 10
-63.9589212585
 20
2.1182266807
 30
0.0
 10
-63.9928608461
 20
2.2217492703
 30
0.0
 10
-64.0297246084
 20
2.3240994012
 30
0.0
  0
SPLINE
  5
721
100
AcDbEntity
  8
ASSI
100
AcDbSpline
 62
7
  6
CONTINUOUS
 70
0
 71
3
 72
9
 73
5
 74
0
 42
0.0000001
 43
0.0000001
 44
0.0000000001
 40
0.0
 40
0.0
 40
0.0
 40
0.0
 40
0.7097160398
 40
1.0
 40
1.0
 40
1.0
 40
1.0
 10
-66.4674713881
 20
3.507107565
 30
0.0
 10
-66.4394788408
 20
3.4113036472
 30
0.0
 10
-66.394442863
 20
3.2779679677
 30
0.0
 10
-66.346728203
 20
3.1456883989
 30
0.0
 10
-66.3326618508
 20
3.1073647434
 30
0.0
  0
SPLINE
  5
722
100
AcDbEntity
  8
ASSI
100
AcDbSpline
 62
7
  6
CONTINUOUS
 70
0
 71
3
 72
15
 73
11
 74
0
 42
0.0000001
 43
0.0000001
 44
0.0000000001
 40
0.0
 40
0.0
 40
0.0
 40
0.0
 40
0.1818234323
 40
0.2742230203
 40
0.3716340726
 40
0.4851660516
 40
0.5943000072
 40
0.6975375539
 40
0.7935178969
 40
1.0
 40
1.0
 40
1.0
 40
1.0
 10
-67.6035306529
 20
2.7508762925
 30
0.0
 10
-67.5552640416
 20
2.8045123357
 30
0.0
 10
-67.4964731286
 20
2.9002092284
 30
0.0
 10
-67.4594470861
 20
3.0436584319
 30
0.0
 10
-67.4500765975
 20
3.1641959702
 30
0.0
 10
-67.4622296367
 20
3.2916549907
 30
0.0
 10
-67.5048832585
 20
3.4149516534
 30
0.0
 10
-67.5695865149
 20
3.5201691433
 30
0.0
 10
-67.6882241273
 20
3.6320041043
 30
0.0
 10
-67.8077554552
 20
3.6715625998
 30
0.0
 10
-67.8885591719
 20
3.685171649
 30
0.0
  0
SPLINE
  5
723
100
AcDbEntity
  8
ASSI
100
AcDbSpline
 62
7
  6
CONTINUOUS
 70
0
 71
3
 72
9
 73
5
 74
0
 42
0.0000001
 43
0.0000001
 44
0.0000000001
 40
0.0
 40
0.0
 40
0.0
 40
0.0
 40
0.1935112737
 40
1.0
 40
1.0
 40
1.0
 40
1.0
 10
-67.8885591719
 20
3.685171649
 30
0.0
 10
-67.9065469008
 20
3.6884904071
 30
0.0
 10
-68.0002773296
 20
3.7013553266
 30
0.0
 10
-68.095102846
 20
3.7031942447
 30
0.0
 10
-68.1713348225
 20
3.7031942447
 30
0.0
  0
SPLINE
  5
724
100
AcDbEntity
  8
ASSI
100
AcDbSpline
 62
7
  6
CONTINUOUS
 70
0
 71
3
 72
9
 73
5
 74
0
 42
0.0000001
 43
0.0000001
 44
0.0000000001
 40
0.0
 40
0.0
 40
0.0
 40
0.0
 40
0.3152731366
 40
1.0
 40
1.0
 40
1.0
 40
1.0
 10
-68.1450218467
 20
2.584346719
 30
0.0
 10
-68.0846868664
 20
2.584346719
 30
0.0
 10
-67.8964827137
 20
2.5925397758
 30
0.0
 10
-67.6911850742
 20
2.653470732
 30
0.0
 10
-67.6035306529
 20
2.7508762925
 30
0.0
  0
SPLINE
  5
725
100
AcDbEntity
  8
ASSI
100
AcDbSpline
 62
7
  6
CONTINUOUS
 70
0
 71
3
 72
9
 73
5
 74
0
 42
0.0000001
 43
0.0000001
 44
0.0000000001
 40
0.0
 40
0.0
 40
0.0
 40
0.0
 40
0.8336714283
 40
1.0
 40
1.0
 40
1.0
 40
1.0
 10
-68.1473646539
 20
3.4840385438
 30
0.0
 10
-68.0838903942
 20
3.4840385438
 30
0.0
 10
-68.0073263109
 20
3.4836991172
 30
0.0
 10
-67.9321271769
 20
3.4704627248
 30
0.0
 10
-67.9199185731
 20
3.4670973249
 30
0.0
  0
SPLINE
  5
726
100
AcDbEntity
  8
ASSI
100
AcDbSpline
 62
7
  6
CONTINUOUS
 70
0
 71
3
 72
16
 73
12
 74
0
 42
0.0000001
 43
0.0000001
 44
0.0000000001
 40
0.0
 40
0.0
 40
0.0
 40
0.0
 40
0.1830996794
 40
0.2824687972
 40
0.3347380912
 40
0.3901799081
 40
0.4651885762
 40
0.533460504
 40
0.6606216576
 40
0.804680395
 40
1.0
 40
1.0
 40
1.0
 40
1.0
 10
-67.9199185731
 20
3.4670973249
 30
0.0
 10
-67.8588201971
 20
3.4496900203
 30
0.0
 10
-67.772395575
 20
3.3847909157
 30
0.0
 10
-67.7239530412
 20
3.2776000379
 30
0.0
 10
-67.7096163987
 20
3.2069174074
 30
0.0
 10
-67.7059747544
 20
3.1434843116
 30
0.0
 10
-67.711009859
 20
3.0743397518
 30
0.0
 10
-67.7347863407
 20
2.9832241786
 30
0.0
 10
-67.8023352604
 20
2.8799799001
 30
0.0
 10
-67.9559114138
 20
2.8109378997
 30
0.0
 10
-68.074548758
 20
2.80350242
 30
0.0
 10
-68.1423184046
 20
2.80350242
 30
0.0
  0
SPLINE
  5
727
100
AcDbEntity
  8
ASSI
100
AcDbSpline
 62
7
  6
CONTINUOUS
 70
0
 71
3
 72
16
 73
12
 74
0
 42
0.0000001
 43
0.0000001
 44
0.0000000001
 40
0.0
 40
0.0
 40
0.0
 40
0.0
 40
0.1566468856
 40
0.220189847
 40
0.2871042189
 40
0.4238330589
 40
0.5820227078
 40
0.6769136751
 40
0.7814331672
 40
0.9003632222
 40
1.0
 40
1.0
 40
1.0
 40
1.0
 10
-69.6928088414
 20
2.5820039118
 30
0.0
 10
-69.6314937948
 20
2.5577630838
 30
0.0
 10
-69.5430155378
 20
2.5089016063
 30
0.0
 10
-69.4908981063
 20
2.3967856652
 30
0.0
 10
-69.4755283362
 20
2.2843035824
 30
0.0
 10
-69.523858077
 20
2.1282148663
 30
0.0
 10
-69.6682894428
 20
2.0304460533
 30
0.0
 10
-69.8137677996
 20
1.9909086787
 30
0.0
 10
-69.9481482635
 20
1.9807412602
 30
0.0
 10
-70.0845145713
 20
1.9925650839
 30
0.0
 10
-70.1729840404
 20
2.0199644966
 30
0.0
 10
-70.2116951438
 20
2.0364292066
 30
0.0
  0
SPLINE
  5
728
100
AcDbEntity
  8
ASSI
100
AcDbSpline
 62
7
  6
CONTINUOUS
 70
0
 71
3
 72
12
 73
8
 74
0
 42
0.0000001
 43
0.0000001
 44
0.0000000001
 40
0.0
 40
0.0
 40
0.0
 40
0.0
 40
0.1606441131
 40
0.3160528741
 40
0.4695579901
 40
0.6257786262
 40
1.0
 40
1.0
 40
1.0
 40
1.0
 10
-70.7294731333
 20
2.422863571
 30
0.0
 10
-70.7278022587
 20
2.3605812385
 30
0.0
 10
-70.70994675
 20
2.2375882426
 30
0.0
 10
-70.6336540869
 20
2.0696967542
 30
0.0
 10
-70.5145201785
 20
1.9305638877
 30
0.0
 10
-70.2847752427
 20
1.7902624483
 30
0.0
 10
-70.0715219728
 20
1.7653964683
 30
0.0
 10
-69.9263827245
 20
1.7653964683
 30
0.0
  0
SPLINE
  5
729
100
AcDbEntity
  8
ASSI
100
AcDbSpline
 62
7
  6
CONTINUOUS
 70
0
 71
3
 72
15
 73
11
 74
0
 42
0.0000001
 43
0.0000001
 44
0.0000000001
 40
0.0
 40
0.0
 40
0.0
 40
0.0
 40
0.1205523663
 40
0.2334839557
 40
0.3389214346
 40
0.4385318437
 40
0.6258636217
 40
0.7171536601
 40
0.8046135431
 40
1.0
 40
1.0
 40
1.0
 40
1.0
 10
-69.9263827245
 20
1.7653964683
 30
0.0
 10
-69.8622196933
 20
1.7653964683
 30
0.0
 10
-69.737392822
 20
1.776455277
 30
0.0
 10
-69.5642725429
 20
1.8320189741
 30
0.0
 10
-69.4179739546
 20
1.9214604012
 30
0.0
 10
-69.2781283674
 20
2.0800575038
 30
0.0
 10
-69.2160900984
 20
2.2848120074
 30
0.0
 10
-69.2422212736
 20
2.4801123737
 30
0.0
 10
-69.3265596029
 20
2.6643637232
 30
0.0
 10
-69.4584601962
 20
2.7573458435
 30
0.0
 10
-69.5527728252
 20
2.8011596127
 30
0.0
  0
SPLINE
  5
72A
100
AcDbEntity
  8
ASSI
100
AcDbSpline
 62
7
  6
CONTINUOUS
 70
0
 71
3
 72
9
 73
5
 74
0
 42
0.0000001
 43
0.0000001
 44
0.0000000001
 40
0.0
 40
0.0
 40
0.0
 40
0.0
 40
0.1708537376
 40
1.0
 40
1.0
 40
1.0
 40
1.0
 10
-69.5527728252
 20
2.8011596127
 30
0.0
 10
-69.5750605634
 20
2.8113482783
 30
0.0
 10
-69.7093705871
 20
2.8622810571
 30
0.0
 10
-69.8492598632
 20
2.8960001602
 30
0.0
 10
-69.9650414195
 20
2.9231730332
 30
0.0
  0
SPLINE
  5
72B
100
AcDbEntity
  8
ASSI
100
AcDbSpline
 62
7
  6
CONTINUOUS
 70
0
 71
3
 72
9
 73
5
 74
0
 42
0.0000001
 43
0.0000001
 44
0.0000000001
 40
0.0
 40
0.0
 40
0.0
 40
0.0
 40
0.6350560901
 40
1.0
 40
1.0
 40
1.0
 40
1.0
 10
-69.9650414195
 20
2.9231730332
 30
0.0
 10
-70.0466390654
 20
2.9423232548
 30
0.0
 10
-70.1721087965
 20
2.9768031815
 30
0.0
 10
-70.2994339447
 20
3.027037239
 30
0.0
 10
-70.3344161021
 20
3.0601453242
 30
0.0
  0
SPLINE
  5
72C
100
AcDbEntity
  8
ASSI
100
AcDbSpline
 62
7
  6
CONTINUOUS
 70
0
 71
3
 72
14
 73
10
 74
0
 42
0.0000001
 43
0.0000001
 44
0.0000000001
 40
0.0
 40
0.0
 40
0.0
 40
0.0
 40
0.1221754561
 40
0.2479284667
 40
0.3235721644
 40
0.3974374623
 40
0.5551234414
 40
0.7467267791
 40
1.0
 40
1.0
 40
1.0
 40
1.0
 10
-70.3344161021
 20
3.0601453242
 30
0.0
 10
-70.3572130281
 20
3.0812894489
 30
0.0
 10
-70.3958066091
 20
3.1342253648
 30
0.0
 10
-70.4098144174
 20
3.2177929943
 30
0.0
 10
-70.4025311322
 20
3.2879198055
 30
0.0
 10
-70.3756988669
 20
3.3620795416
 30
0.0
 10
-70.3041607614
 20
3.4479648451
 30
0.0
 10
-70.1596658481
 20
3.5113078182
 30
0.0
 10
-70.0452677998
 20
3.5186420756
 30
0.0
 10
-69.9808111468
 20
3.5186420756
 30
0.0
  0
SPLINE
  5
72D
100
AcDbEntity
  8
ASSI
100
AcDbSpline
 62
7
  6
CONTINUOUS
 70
0
 71
3
 72
9
 73
5
 74
0
 42
0.0000001
 43
0.0000001
 44
0.0000000001
 40
0.0
 40
0.0
 40
0.0
 40
0.0
 40
0.5306823676
 40
1.0
 40
1.0
 40
1.0
 40
1.0
 10
-69.9808111468
 20
3.5186420756
 30
0.0
 10
-69.8691062632
 20
3.5186420756
 30
0.0
 10
-69.6313734451
 20
3.4838178063
 30
0.0
 10
-69.5403975875
 20
3.2592992412
 30
0.0
 10
-69.5298840335
 20
3.1610722478
 30
0.0
  0
SPLINE
  5
72E
100
AcDbEntity
  8
ASSI
100
AcDbSpline
 62
7
  6
CONTINUOUS
 70
0
 71
3
 72
20
 73
16
 74
0
 42
0.0000001
 43
0.0000001
 44
0.0000000001
 40
0.0
 40
0.0
 40
0.0
 40
0.0
 40
0.1573317713
 40
0.2361791109
 40
0.3195933993
 40
0.4109088545
 40
0.4598620877
 40
0.5115766229
 40
0.5588578561
 40
0.6043116697
 40
0.6913315838
 40
0.7718242667
 40
0.8471214746
 40
0.9894569562
 40
1.0
 40
1.0
 40
1.0
 40
1.0
 10
-69.2761248009
 20
3.1726067583
 30
0.0
 10
-69.2801784548
 20
3.2766518233
 30
0.0
 10
-69.3272215449
 20
3.4366245718
 30
0.0
 10
-69.472076714
 20
3.5949058679
 30
0.0
 10
-69.6202390302
 20
3.6786189022
 30
0.0
 10
-69.7638667747
 20
3.7188837615
 30
0.0
 10
-69.8900092168
 20
3.7351864874
 30
0.0
 10
-69.9879687435
 20
3.7391138836
 30
0.0
 10
-70.0836106575
 20
3.7352819451
 30
0.0
 10
-70.2016506866
 20
3.7192710634
 30
0.0
 10
-70.3380726313
 20
3.6803164501
 30
0.0
 10
-70.4805544069
 20
3.6011152653
 30
0.0
 10
-70.6152525997
 20
3.453059614
 30
0.0
 10
-70.6620256226
 20
3.2989573912
 30
0.0
 10
-70.6601676898
 20
3.1971228743
 30
0.0
 10
-70.6598803717
 20
3.1901128996
 30
0.0
  0
SPLINE
  5
72F
100
AcDbEntity
  8
ASSI
100
AcDbSpline
 62
7
  6
CONTINUOUS
 70
0
 71
3
 72
9
 73
5
 74
0
 42
0.0000001
 43
0.0000001
 44
0.0000000001
 40
0.0
 40
0.0
 40
0.0
 40
0.0
 40
0.1806469784
 40
1.0
 40
1.0
 40
1.0
 40
1.0
 10
-70.3848794759
 20
2.79521204
 30
0.0
 10
-70.3644913292
 20
2.7845553708
 30
0.0
 10
-70.2475545959
 20
2.7335319367
 30
0.0
 10
-70.1237853147
 20
2.7008461664
 30
0.0
 10
-70.0225337429
 20
2.6756316295
 30
0.0
  0
SPLINE
  5
730
100
AcDbEntity
  8
ASSI
100
AcDbSpline
 62
7
  6
CONTINUOUS
 70
0
 71
3
 72
9
 73
5
 74
0
 42
0.0000001
 43
0.0000001
 44
0.0000000001
 40
0.0
 40
0.0
 40
0.0
 40
0.0
 40
0.3500357027
 40
1.0
 40
1.0
 40
1.0
 40
1.0
 10
-70.0225337429
 20
2.6756316295
 30
0.0
 10
-69.9837186863
 20
2.6659655704
 30
0.0
 10
-69.8732724524
 20
2.6371176317
 30
0.0
 10
-69.7616908811
 20
2.609789568
 30
0.0
 10
-69.6928088414
 20
2.5820039118
 30
0.0
  0
SPLINE
  5
731
100
AcDbEntity
  8
ASSI
100
AcDbSpline
 62
7
  6
CONTINUOUS
 70
0
 71
3
 72
16
 73
12
 74
0
 42
0.0000001
 43
0.0000001
 44
0.0000000001
 40
0.0
 40
0.0
 40
0.0
 40
0.0
 40
0.1089696409
 40
0.1828936499
 40
0.2222819345
 40
0.2625064106
 40
0.3465431344
 40
0.4482180559
 40
0.5822445398
 40
0.7621351793
 40
1.0
 40
1.0
 40
1.0
 40
1.0
 10
-72.7471113364
 20
2.6420192719
 30
0.0
 10
-72.7194667633
 20
2.6420192719
 30
0.0
 10
-72.6731602361
 20
2.6409523441
 30
0.0
 10
-72.6166068744
 20
2.6364497271
 30
0.0
 10
-72.5791881587
 20
2.6251833923
 30
0.0
 10
-72.5404526693
 20
2.6102610794
 30
0.0
 10
-72.4893011297
 20
2.5835488701
 30
0.0
 10
-72.4272474912
 20
2.5303757944
 30
0.0
 10
-72.3595229352
 20
2.4492821367
 30
0.0
 10
-72.2784504056
 20
2.3351127331
 30
0.0
 10
-72.2203584475
 20
2.246448077
 30
0.0
 10
-72.187867715
 20
2.1955977196
 30
0.0
  0
SPLINE
  5
732
100
AcDbEntity
  8
ASSI
100
AcDbSpline
 62
7
  6
CONTINUOUS
 70
0
 71
3
 72
9
 73
5
 74
0
 42
0.0000001
 43
0.0000001
 44
0.0000000001
 40
0.0
 40
0.0
 40
0.0
 40
0.0
 40
0.2659540588
 40
1.0
 40
1.0
 40
1.0
 40
1.0
 10
-71.9636657647
 20
2.3174310865
 30
0.0
 10
-71.9794000649
 20
2.3411943083
 30
0.0
 10
-72.0404268352
 20
2.4292627512
 30
0.0
 10
-72.1094784723
 20
2.5120228586
 30
0.0
 10
-72.1653393823
 20
2.5674055001
 30
0.0
  0
SPLINE
  5
733
100
AcDbEntity
  8
ASSI
100
AcDbSpline
 62
7
  6
CONTINUOUS
 70
0
 71
3
 72
9
 73
5
 74
0
 42
0.0000001
 43
0.0000001
 44
0.0000000001
 40
0.0
 40
0.0
 40
0.0
 40
0.0
 40
0.209446698
 40
1.0
 40
1.0
 40
1.0
 40
1.0
 10
-72.1653393823
 20
2.5674055001
 30
0.0
 10
-72.1740881371
 20
2.5759307434
 30
0.0
 10
-72.2183101516
 20
2.6141207951
 30
0.0
 10
-72.2691514474
 20
2.643821347
 30
0.0
 10
-72.3100613649
 20
2.6650882931
 30
0.0
  0
SPLINE
  5
734
100
AcDbEntity
  8
ASSI
100
AcDbSpline
 62
7
  6
CONTINUOUS
 70
0
 71
3
 72
19
 73
15
 74
0
 42
0.0000001
 43
0.0000001
 44
0.0000000001
 40
0.0
 40
0.0
 40
0.0
 40
0.0
 40
0.136569576
 40
0.2487419393
 40
0.3510973289
 40
0.4029098052
 40
0.4575312966
 40
0.5006597919
 40
0.54259345
 40
0.6258399794
 40
0.7059972618
 40
0.7829904054
 40
0.8757620861
 40
1.0
 40
1.0
 40
1.0
 40
1.0
 10
-72.3100613649
 20
2.6650882931
 30
0.0
 10
-72.2294466448
 20
2.6762833115
 30
0.0
 10
-72.0826869846
 20
2.7097253661
 30
0.0
 10
-71.9030447457
 20
2.8276078045
 30
0.0
 10
-71.8164706784
 20
2.9665145303
 30
0.0
 10
-71.784044719
 20
3.0872457515
 30
0.0
 10
-71.777114543
 20
3.176588841
 30
0.0
 10
-71.7822280086
 20
3.259875979
 30
0.0
 10
-71.8017954601
 20
3.3585628108
 30
0.0
 10
-71.8508217882
 20
3.4723542573
 30
0.0
 10
-71.941961695
 20
3.5859930913
 30
0.0
 10
-72.0729524599
 20
3.6635096489
 30
0.0
 10
-72.2467758912
 20
3.6975616966
 30
0.0
 10
-72.3760582462
 20
3.7031942447
 30
0.0
 10
-72.4500975571
 20
3.7031942447
 30
0.0
  0
SPLINE
  5
735
100
AcDbEntity
  8
ASSI
100
AcDbSpline
 62
7
  6
CONTINUOUS
 70
0
 71
3
 72
16
 73
12
 74
0
 42
0.0000001
 43
0.0000001
 44
0.0000000001
 40
0.0
 40
0.0
 40
0.0
 40
0.0
 40
0.1522543123
 40
0.2694555914
 40
0.3706433414
 40
0.4732597487
 40
0.6190505678
 40
0.6948201622
 40
0.775286542
 40
0.8735743773
 40
1.0
 40
1.0
 40
1.0
 40
1.0
 10
-72.4398246528
 20
3.4840385438
 30
0.0
 10
-72.3784426137
 20
3.4840385438
 30
0.0
 10
-72.2685939425
 20
3.4762390333
 30
0.0
 10
-72.1288497789
 20
3.4107935642
 30
0.0
 10
-72.0482605504
 20
3.3031494243
 30
0.0
 10
-72.0211686396
 20
3.1610141502
 30
0.0
 10
-72.059966218
 20
3.0277332162
 30
0.0
 10
-72.1441568659
 20
2.9367947175
 30
0.0
 10
-72.2371673155
 20
2.8892736822
 30
0.0
 10
-72.3587003363
 20
2.8651396837
 30
0.0
 10
-72.4494117954
 20
2.8611749728
 30
0.0
 10
-72.5003808774
 20
2.8611749728
 30
0.0
  0
SPLINE
  5
736
100
AcDbEntity
  8
ASSI
100
AcDbSpline
 62
7
  6
CONTINUOUS
 70
0
 71
3
 72
9
 73
5
 74
0
 42
0.0000001
 43
0.0000001
 44
0.0000000001
 40
0.0
 40
0.0
 40
0.0
 40
0.0
 40
0.7097160398
 40
1.0
 40
1.0
 40
1.0
 40
1.0
 10
-74.4147491737
 20
3.507107565
 30
0.0
 10
-74.3867566264
 20
3.4113036472
 30
0.0
 10
-74.3417206486
 20
3.2779679677
 30
0.0
 10
-74.2940059886
 20
3.1456883989
 30
0.0
 10
-74.2799396364
 20
3.1073647434
 30
0.0
  0
SPLINE
  5
737
100
AcDbEntity
  8
ASSI
100
AcDbSpline
 62
7
  6
CONTINUOUS
 70
0
 71
3
 72
9
 73
5
 74
0
 42
0.0000001
 43
0.0000001
 44
0.0000000001
 40
0.0
 40
0.0
 40
0.0
 40
0.0
 40
0.3106214921
 40
1.0
 40
1.0
 40
1.0
 40
1.0
 10
-76.2710844582
 20
2.3819521836
 30
0.0
 10
-76.2821963429
 20
2.3505343179
 30
0.0
 10
-76.3177637264
 20
2.2493191403
 30
0.0
 10
-76.352852871
 20
2.1479190038
 30
0.0
 10
-76.3756159713
 20
2.0775491717
 30
0.0
  0
SPLINE
  5
738
100
AcDbEntity
  8
ASSI
100
AcDbSpline
 62
7
  6
CONTINUOUS
 70
0
 71
3
 72
9
 73
5
 74
0
 42
0.0000001
 43
0.0000001
 44
0.0000000001
 40
0.0
 40
0.0
 40
0.0
 40
0.0
 40
0.1862683768
 40
1.0
 40
1.0
 40
1.0
 40
1.0
 10
-76.3756159713
 20
2.0775491717
 30
0.0
 10
-76.3810065878
 20
2.0950771016
 30
0.0
 10
-76.4105270349
 20
2.1889985879
 30
0.0
 10
-76.441384455
 20
2.282492711
 30
0.0
 10
-76.4666304496
 20
2.3585227035
 30
0.0
  0
SPLINE
  5
739
100
AcDbEntity
  8
ASSI
100
AcDbSpline
 62
7
  6
CONTINUOUS
 70
0
 71
3
 72
8
 73
4
 74
0
 42
0.0000001
 43
0.0000001
 44
0.0000000001
 40
0.0
 40
0.0
 40
0.0
 40
0.0
 40
1.0
 40
1.0
 40
1.0
 40
1.0
 10
-79.0977604668
 20
2.0133885336
 30
0.0
 10
-79.1268026635
 20
2.1182266807
 30
0.0
 10
-79.1607422511
 20
2.2217492703
 30
0.0
 10
-79.1976060135
 20
2.3240994012
 30
0.0
  0
SPLINE
  5
73A
100
AcDbEntity
  8
ASSI
100
AcDbSpline
 62
7
  6
CONTINUOUS
 70
0
 71
3
 72
29
 73
25
 74
0
 42
0.0000001
 43
0.0000001
 44
0.0000000001
 40
0.0
 40
0.0
 40
0.0
 40
0.0
 40
0.0356756609
 40
0.0800743562
 40
0.1648581527
 40
0.2455182361
 40
0.3251916009
 40
0.3657353528
 40
0.4062140955
 40
0.4474175219
 40
0.4900951157
 40
0.5539687363
 40
0.613857537
 40
0.6723265521
 40
0.7321238034
 40
0.7934593331
 40
0.8247695254
 40
0.8568795699
 40
0.8901839737
 40
0.9249781797
 40
0.9615095894
 40
0.9804982722
 40
0.9901836714
 40
1.0
 40
1.0
 40
1.0
 40
1.0
 10
-24.7186604272
 20
2.780667313
 30
0.0
 10
-24.7194501387
 20
2.816379996
 30
0.0
 10
-24.7242520215
 20
2.896460245
 30
0.0
 10
-24.7495557146
 20
3.0597464789
 30
0.0
 10
-24.8171482314
 20
3.2608485884
 30
0.0
 10
-24.9542835477
 20
3.4682596096
 30
0.0
 10
-25.1133953497
 20
3.5963414012
 30
0.0
 10
-25.2570646576
 20
3.6694296055
 30
0.0
 10
-25.3731815259
 20
3.7092024714
 30
0.0
 10
-25.4957654945
 20
3.7328781544
 30
0.0
 10
-25.6436978192
 20
3.7414091777
 30
0.0
 10
-25.8106450457
 20
3.7277715648
 30
0.0
 10
-25.9872915641
 20
3.6773211127
 30
0.0
 10
-26.1451123796
 20
3.5913013317
 30
0.0
 10
-26.281795093
 20
3.4726052512
 30
0.0
 10
-26.3744443942
 20
3.3497975614
 30
0.0
 10
-26.4322969749
 20
3.2389262654
 30
0.0
 10
-26.4678398001
 20
3.1487079441
 30
0.0
 10
-26.4954160922
 20
3.052144308
 30
0.0
 10
-26.5150675489
 20
2.9491702266
 30
0.0
 10
-26.5247028927
 20
2.8592083934
 30
0.0
 10
-26.528085616
 20
2.7940322537
 30
0.0
 10
-26.5290624518
 20
2.7555247593
 30
0.0
 10
-26.529237103
 20
2.7360087002
 30
0.0
 10
-26.5292286129
 20
2.726185206
 30
0.0
  0
SPLINE
  5
73B
100
AcDbEntity
  8
ASSI
100
AcDbSpline
 62
7
  6
CONTINUOUS
 70
0
 71
3
 72
27
 73
23
 74
0
 42
0.0000001
 43
0.0000001
 44
0.0000000001
 40
0.0
 40
0.0
 40
0.0
 40
0.0
 40
0.0052129271
 40
0.0104072108
 40
0.0207459653
 40
0.041268333
 40
0.08205139
 40
0.1229976731
 40
0.1638963418
 40
0.2444177426
 40
0.3245451876
 40
0.4061500071
 40
0.4479339316
 40
0.4913767295
 40
0.6494860786
 40
0.7289017971
 40
0.8105874161
 40
0.8534559229
 40
0.8970940618
 40
0.942157345
 40
0.9892417994
 40
1.0
 40
1.0
 40
1.0
 40
1.0
 10
-26.5292286129
 20
2.726185206
 30
0.0
 10
-26.5292241043
 20
2.7209684736
 30
0.0
 10
-26.5291608277
 20
2.7105536929
 30
0.0
 10
-26.5287373112
 20
2.6897964796
 30
0.0
 10
-26.5272706727
 20
2.653740509
 30
0.0
 10
-26.521387138
 20
2.5822523699
 30
0.0
 10
-26.5043273032
 20
2.481126467
 30
0.0
 10
-26.4703096273
 20
2.3629211185
 30
0.0
 10
-26.4077992354
 20
2.2127059784
 30
0.0
 10
-26.2962362562
 20
2.0412126062
 30
0.0
 10
-26.1064102759
 20
1.8849550509
 30
0.0
 10
-25.9170130727
 20
1.8025002985
 30
0.0
 10
-25.7525847948
 20
1.7705743582
 30
0.0
 10
-25.5094095227
 20
1.7552695425
 30
0.0
 10
-25.2217002525
 20
1.8250618706
 30
0.0
 10
-24.9639901553
 20
2.0210488555
 30
0.0
 10
-24.8472414596
 20
2.1926248449
 30
0.0
 10
-24.7809021153
 20
2.3475845517
 30
0.0
 10
-24.7444492186
 20
2.4744891568
 30
0.0
 10
-24.7228170769
 20
2.6089418171
 30
0.0
 10
-24.7178017823
 20
2.7119784502
 30
0.0
 10
-24.7184222851
 20
2.7698979482
 30
0.0
 10
-24.7186604272
 20
2.780667313
 30
0.0
  0
SPLINE
  5
73C
100
AcDbEntity
  8
ASSI
100
AcDbSpline
 62
7
  6
CONTINUOUS
 70
0
 71
3
 72
20
 73
16
 74
0
 42
0.0000001
 43
0.0000001
 44
0.0000000001
 40
0.0
 40
0.0
 40
0.0
 40
0.0
 40
0.056993967
 40
0.1256281149
 40
0.1895670145
 40
0.2513099568
 40
0.3661710324
 40
0.4798635818
 40
0.5615404775
 40
0.6427660144
 40
0.7262959247
 40
0.8154334154
 40
0.9078772166
 40
0.9537839177
 40
1.0
 40
1.0
 40
1.0
 40
1.0
 10
-35.111247622
 20
2.3800745235
 30
0.0
 10
-35.1119953534
 20
2.3555888947
 30
0.0
 10
-35.1163912735
 20
2.3017231593
 30
0.0
 10
-35.1340541289
 20
2.2218802787
 30
0.0
 10
-35.1671900926
 20
2.144612696
 30
0.0
 10
-35.2273992165
 20
2.0601106511
 30
0.0
 10
-35.3288878851
 20
1.980480616
 30
0.0
 10
-35.4640909625
 20
1.9548256504
 30
0.0
 10
-35.5830548045
 20
1.9708528864
 30
0.0
 10
-35.6808192091
 20
2.0152190294
 30
0.0
 10
-35.76424574
 20
2.0879472969
 30
0.0
 10
-35.8245956294
 20
2.1860224831
 30
0.0
 10
-35.8569042997
 20
2.2790016161
 30
0.0
 10
-35.8701108073
 20
2.3573002372
 30
0.0
 10
-35.8721603258
 20
2.3968832706
 30
0.0
 10
-35.872182178
 20
2.4167359448
 30
0.0
  0
SPLINE
  5
73D
100
AcDbEntity
  8
ASSI
100
AcDbSpline
 62
7
  6
CONTINUOUS
 70
0
 71
3
 72
23
 73
19
 74
0
 42
0.0000001
 43
0.0000001
 44
0.0000000001
 40
0.0
 40
0.0
 40
0.0
 40
0.0
 40
0.0347638563
 40
0.0680301853
 40
0.1312339517
 40
0.2519486401
 40
0.3118327503
 40
0.369444337
 40
0.4272209104
 40
0.4875799959
 40
0.5499206087
 40
0.6081877135
 40
0.7222944188
 40
0.7818693912
 40
0.8433407373
 40
0.9092387339
 40
0.9816309716
 40
1.0
 40
1.0
 40
1.0
 40
1.0
 10
-35.872182178
 20
2.4167359448
 30
0.0
 10
-35.8721986154
 20
2.4316691774
 30
0.0
 10
-35.8711165086
 20
2.4608864829
 30
0.0
 10
-35.8643932057
 20
2.5168912792
 30
0.0
 10
-35.8407555119
 20
2.6076600053
 30
0.0
 10
-35.7818886197
 20
2.6984445166
 30
0.0
 10
-35.7030864836
 20
2.7643940185
 30
0.0
 10
-35.6365697989
 20
2.8007627756
 30
0.0
 10
-35.5636383108
 20
2.822244549
 30
0.0
 10
-35.486008417
 20
2.8287753538
 30
0.0
 10
-35.4081468855
 20
2.8223285972
 30
0.0
 10
-35.3106289658
 20
2.794402634
 30
0.0
 10
-35.2266514692
 20
2.734179013
 30
0.0
 10
-35.1665674315
 20
2.6523229035
 30
0.0
 10
-35.1337671523
 20
2.5783910622
 30
0.0
 10
-35.1145975249
 20
2.4943325358
 30
0.0
 10
-35.1104556933
 20
2.4269836159
 30
0.0
 10
-35.1110066298
 20
2.387966187
 30
0.0
 10
-35.111247622
 20
2.3800745235
 30
0.0
  0
SPLINE
  5
73E
100
AcDbEntity
  8
ASSI
100
AcDbSpline
 62
7
  6
CONTINUOUS
 70
0
 71
3
 72
25
 73
21
 74
0
 42
0.0000001
 43
0.0000001
 44
0.0000000001
 40
0.0
 40
0.0
 40
0.0
 40
0.0
 40
0.0514509122
 40
0.0974915596
 40
0.1736562047
 40
0.2358848562
 40
0.2912931023
 40
0.3421729313
 40
0.3923748328
 40
0.4443027499
 40
0.5000924408
 40
0.5383666631
 40
0.574021779
 40
0.6411427859
 40
0.7101283661
 40
0.788009064
 40
0.8825725913
 40
0.9382660506
 40
0.9683742185
 40
1.0
 40
1.0
 40
1.0
 40
1.0
 10
-36.356631498
 20
2.7395204077
 30
0.0
 10
-36.3566016737
 20
2.7843624008
 30
0.0
 10
-36.3581799359
 20
2.8693221241
 30
0.0
 10
-36.3677102831
 20
3.0203431817
 30
0.0
 10
-36.3918734564
 20
3.1799290418
 30
0.0
 10
-36.4446180428
 20
3.3409249341
 30
0.0
 10
-36.5087044611
 20
3.4737776815
 30
0.0
 10
-36.5947346312
 20
3.5816477286
 30
0.0
 10
-36.7055561538
 20
3.6589251555
 30
0.0
 10
-36.8365477099
 20
3.7057732395
 30
0.0
 10
-36.9642692165
 20
3.7178627647
 30
0.0
 10
-37.0773721822
 20
3.7106323135
 30
0.0
 10
-37.1979118039
 20
3.6844190198
 30
0.0
 10
-37.3338805057
 20
3.6133424631
 30
0.0
 10
-37.4582539904
 20
3.4697611872
 30
0.0
 10
-37.5453832719
 20
3.2758447352
 30
0.0
 10
-37.5839236848
 20
3.0795456435
 30
0.0
 10
-37.5975177103
 20
2.9229485234
 30
0.0
 10
-37.6016816429
 20
2.8206921305
 30
0.0
 10
-37.6023678952
 20
2.7668994842
 30
0.0
 10
-37.6023587642
 20
2.7393417819
 30
0.0
  0
SPLINE
  5
73F
100
AcDbEntity
  8
ASSI
100
AcDbSpline
 62
7
  6
CONTINUOUS
 70
0
 71
3
 72
26
 73
22
 74
0
 42
0.0000001
 43
0.0000001
 44
0.0000000001
 40
0.0
 40
0.0
 40
0.0
 40
0.0
 40
0.0252741961
 40
0.0496764813
 40
0.0959388808
 40
0.1389595113
 40
0.1789319094
 40
0.2504850255
 40
0.3127323825
 40
0.3588069517
 40
0.4037833605
 40
0.4502161924
 40
0.5004382742
 40
0.5389263601
 40
0.5747448729
 40
0.6420799547
 40
0.7111715415
 40
0.7890227331
 40
0.8832899337
 40
0.9386812444
 40
1.0
 40
1.0
 40
1.0
 40
1.0
 10
-37.6023587642
 20
2.7393417819
 30
0.0
 10
-37.6023514669
 20
2.7173186495
 30
0.0
 10
-37.6018843491
 20
2.6740319099
 30
0.0
 10
-37.5989612716
 20
2.5904804798
 30
0.0
 10
-37.5918073516
 20
2.4916324712
 30
0.0
 10
-37.5772417576
 20
2.379870083
 30
0.0
 10
-37.5510822227
 20
2.2477113352
 30
0.0
 10
-37.5060402966
 20
2.1023902776
 30
0.0
 10
-37.4274687835
 20
1.9644590923
 30
0.0
 10
-37.3308360509
 20
1.8703099658
 30
0.0
 10
-37.2269316292
 20
1.8084548494
 30
0.0
 10
-37.1077526493
 20
1.7723613333
 30
0.0
 10
-36.9897073068
 20
1.762622478
 30
0.0
 10
-36.8810970049
 20
1.7695015341
 30
0.0
 10
-36.7600584862
 20
1.7958511857
 30
0.0
 10
-36.6237855311
 20
1.8673335796
 30
0.0
 10
-36.4995396167
 20
2.0113856421
 30
0.0
 10
-36.4130485935
 20
2.205374613
 30
0.0
 10
-36.374910647
 20
2.4011610842
 30
0.0
 10
-36.3590670753
 20
2.5843467873
 30
0.0
 10
-36.3566670422
 20
2.6860781052
 30
0.0
 10
-36.356631498
 20
2.7395204077
 30
0.0
  0
SPLINE
  5
740
100
AcDbEntity
  8
ASSI
100
AcDbSpline
 62
7
  6
CONTINUOUS
 70
0
 71
3
 72
20
 73
16
 74
0
 42
0.0000001
 43
0.0000001
 44
0.0000000001
 40
0.0
 40
0.0
 40
0.0
 40
0.0
 40
0.056993967
 40
0.1256281149
 40
0.1895670145
 40
0.2513099568
 40
0.3661710324
 40
0.4798635818
 40
0.5615404775
 40
0.6427660144
 40
0.7262959247
 40
0.8154334154
 40
0.9078772166
 40
0.9537839177
 40
1.0
 40
1.0
 40
1.0
 40
1.0
 10
-38.064082329
 20
2.3800745235
 30
0.0
 10
-38.0648300604
 20
2.3555888947
 30
0.0
 10
-38.0692259805
 20
2.3017231593
 30
0.0
 10
-38.0868888359
 20
2.2218802787
 30
0.0
 10
-38.1200247996
 20
2.144612696
 30
0.0
 10
-38.1802339235
 20
2.0601106511
 30
0.0
 10
-38.2817225921
 20
1.980480616
 30
0.0
 10
-38.4169256695
 20
1.9548256504
 30
0.0
 10
-38.5358895115
 20
1.9708528864
 30
0.0
 10
-38.6336539161
 20
2.0152190294
 30
0.0
 10
-38.717080447
 20
2.0879472969
 30
0.0
 10
-38.7774303364
 20
2.1860224831
 30
0.0
 10
-38.8097390067
 20
2.2790016161
 30
0.0
 10
-38.8229455143
 20
2.3573002372
 30
0.0
 10
-38.8249950328
 20
2.3968832706
 30
0.0
 10
-38.825016885
 20
2.4167359448
 30
0.0
  0
SPLINE
  5
741
100
AcDbEntity
  8
ASSI
100
AcDbSpline
 62
7
  6
CONTINUOUS
 70
0
 71
3
 72
23
 73
19
 74
0
 42
0.0000001
 43
0.0000001
 44
0.0000000001
 40
0.0
 40
0.0
 40
0.0
 40
0.0
 40
0.0347638563
 40
0.0680301853
 40
0.1312339517
 40
0.2519486401
 40
0.3118327503
 40
0.369444337
 40
0.4272209104
 40
0.4875799959
 40
0.5499206087
 40
0.6081877135
 40
0.7222944188
 40
0.7818693912
 40
0.8433407373
 40
0.9092387339
 40
0.9816309716
 40
1.0
 40
1.0
 40
1.0
 40
1.0
 10
-38.825016885
 20
2.4167359448
 30
0.0
 10
-38.8250333224
 20
2.4316691774
 30
0.0
 10
-38.8239512156
 20
2.4608864829
 30
0.0
 10
-38.8172279127
 20
2.5168912792
 30
0.0
 10
-38.7935902189
 20
2.6076600053
 30
0.0
 10
-38.7347233267
 20
2.6984445166
 30
0.0
 10
-38.6559211906
 20
2.7643940185
 30
0.0
 10
-38.5894045059
 20
2.8007627756
 30
0.0
 10
-38.5164730178
 20
2.822244549
 30
0.0
 10
-38.438843124
 20
2.8287753538
 30
0.0
 10
-38.3609815925
 20
2.8223285972
 30
0.0
 10
-38.2634636728
 20
2.794402634
 30
0.0
 10
-38.1794861762
 20
2.734179013
 30
0.0
 10
-38.1194021385
 20
2.6523229035
 30
0.0
 10
-38.0866018593
 20
2.5783910622
 30
0.0
 10
-38.0674322319
 20
2.4943325358
 30
0.0
 10
-38.0632904003
 20
2.4269836159
 30
0.0
 10
-38.0638413368
 20
2.387966187
 30
0.0
 10
-38.064082329
 20
2.3800745235
 30
0.0
  0
SPLINE
  5
742
100
AcDbEntity
  8
ASSI
100
AcDbSpline
 62
7
  6
CONTINUOUS
 70
0
 71
3
 72
8
 73
4
 74
0
 42
0.0000001
 43
0.0000001
 44
0.0000000001
 40
0.0
 40
0.0
 40
0.0
 40
0.0
 40
1.0
 40
1.0
 40
1.0
 40
1.0
 10
53.8369541613
 20
3.9181089605
 30
0.0
 10
53.5573135824
 20
4.1713360281
 30
0.0
 10
53.1708817338
 20
4.3249999989
 30
0.0
 10
52.8008144205
 20
4.3249999989
 30
0.0
  0
SPLINE
  5
743
100
AcDbEntity
  8
ASSI
100
AcDbSpline
 62
7
  6
CONTINUOUS
 70
0
 71
3
 72
11
 73
7
 74
0
 42
0.0000001
 43
0.0000001
 44
0.0000000001
 40
0.0
 40
0.0
 40
0.0
 40
0.0
 40
0.089231307
 40
0.3113901877
 40
0.5291800206
 40
1.0
 40
1.0
 40
1.0
 40
1.0
 10
-20.0553963018
 20
3.0633621945
 30
0.0
 10
-20.0491185336
 20
3.0864638727
 30
0.0
 10
-20.0241425262
 20
3.1662381595
 30
0.0
 10
-19.9620980817
 20
3.2954297704
 30
0.0
 10
-19.7861823361
 20
3.4709081875
 30
0.0
 10
-19.5920365418
 20
3.5186420756
 30
0.0
 10
-19.466143093
 20
3.5186420756
 30
0.0
  0
SPLINE
  5
744
100
AcDbEntity
  8
ASSI
100
AcDbSpline
 62
7
  6
CONTINUOUS
 70
0
 71
3
 72
12
 73
8
 74
0
 42
0.0000001
 43
0.0000001
 44
0.0000000001
 40
0.0
 40
0.0
 40
0.0
 40
0.0
 40
0.1025765978
 40
0.2161664823
 40
0.3240892025
 40
0.5317789563
 40
1.0
 40
1.0
 40
1.0
 40
1.0
 10
-20.2853347031
 20
2.3606199025
 30
0.0
 10
-20.2738728707
 20
2.3246758726
 30
0.0
 10
-20.2463198977
 20
2.2500161832
 30
0.0
 10
-20.1934289187
 20
2.1428221971
 30
0.0
 10
-20.1038209045
 20
2.0124954892
 30
0.0
 10
-19.8879410233
 20
1.812731922
 30
0.0
 10
-19.6235072659
 20
1.7653964683
 30
0.0
 10
-19.4513644518
 20
1.7653964683
 30
0.0
  0
SPLINE
  5
745
100
AcDbEntity
  8
ASSI
100
AcDbSpline
 62
7
  6
CONTINUOUS
 70
0
 71
3
 72
10
 73
6
 74
0
 42
0.0000001
 43
0.0000001
 44
0.0000000001
 40
0.0
 40
0.0
 40
0.0
 40
0.0
 40
0.2101723731
 40
0.4563781437
 40
1.0
 40
1.0
 40
1.0
 40
1.0
 10
-24.3949584586
 20
3.1901128996
 30
0.0
 10
-24.3935091084
 20
3.1547517237
 30
0.0
 10
-24.3815659965
 20
3.0786792517
 30
0.0
 10
-24.3118092913
 20
2.9235595522
 30
0.0
 10
-24.200854766
 20
2.8369722245
 30
0.0
 10
-24.1199575627
 20
2.79521204
 30
0.0
  0
SPLINE
  5
746
100
AcDbEntity
  8
ASSI
100
AcDbSpline
 62
7
  6
CONTINUOUS
 70
0
 71
3
 72
12
 73
8
 74
0
 42
0.0000001
 43
0.0000001
 44
0.0000000001
 40
0.0
 40
0.0
 40
0.0
 40
0.0
 40
0.0289732385
 40
0.2799194297
 40
0.5034135291
 40
0.7337877942
 40
1.0
 40
1.0
 40
1.0
 40
1.0
 10
-23.9467732307
 20
2.0364292066
 30
0.0
 10
-23.9513272864
 20
2.0383661497
 30
0.0
 10
-23.9951089598
 20
2.0576109582
 30
0.0
 10
-24.0698580747
 20
2.1014387351
 30
0.0
 10
-24.1522506101
 20
2.191688917
 30
0.0
 10
-24.2013843398
 20
2.3057996788
 30
0.0
 10
-24.2172778946
 20
2.3893492247
 30
0.0
 10
-24.2223264981
 20
2.4343980816
 30
0.0
  0
SPLINE
  5
747
100
AcDbEntity
  8
ASSI
100
AcDbSpline
 62
7
  6
CONTINUOUS
 70
0
 71
3
 72
18
 73
14
 74
0
 42
0.0000001
 43
0.0000001
 44
0.0000000001
 40
0.0
 40
0.0
 40
0.0
 40
0.0
 40
0.0314188831
 40
0.1137535795
 40
0.1972542334
 40
0.2856797666
 40
0.3727265689
 40
0.4553305989
 40
0.5371666397
 40
0.6220093251
 40
0.7093561403
 40
0.7991650126
 40
1.0
 40
1.0
 40
1.0
 40
1.0
 10
-25.2160638962
 20
2.1265537739
 30
0.0
 10
-25.2284801716
 20
2.1161264753
 30
0.0
 10
-25.2749171921
 20
2.0801429995
 30
0.0
 10
-25.3641019283
 20
2.0297480247
 30
0.0
 10
-25.4906443935
 20
1.9920575109
 30
0.0
 10
-25.6243191927
 20
1.9807064185
 30
0.0
 10
-25.7575323101
 20
1.9920178242
 30
0.0
 10
-25.8826404475
 20
2.029453012
 30
0.0
 10
-25.9954377625
 20
2.0929302199
 30
0.0
 10
-26.0942626039
 20
2.1800465451
 30
0.0
 10
-26.1762453443
 20
2.2885924597
 30
0.0
 10
-26.2570254951
 20
2.4672658481
 30
0.0
 10
-26.2754693803
 20
2.6196604871
 30
0.0
 10
-26.2754693803
 20
2.7231213049
 30
0.0
  0
SPLINE
  5
748
100
AcDbEntity
  8
ASSI
100
AcDbSpline
 62
7
  6
CONTINUOUS
 70
0
 71
3
 72
12
 73
8
 74
0
 42
0.0000001
 43
0.0000001
 44
0.0000000001
 40
0.0
 40
0.0
 40
0.0
 40
0.0
 40
0.1009982855
 40
0.217704019
 40
0.4410700438
 40
0.688240277
 40
1.0
 40
1.0
 40
1.0
 40
1.0
 10
-34.0502288477
 20
1.9616813877
 30
0.0
 10
-34.0694139709
 20
1.9622198765
 30
0.0
 10
-34.1106787474
 20
1.96578459
 30
0.0
 10
-34.1922579106
 20
1.9858329934
 30
0.0
 10
-34.2916404948
 20
2.0436903048
 30
0.0
 10
-34.3769529915
 20
2.1698053183
 30
0.0
 10
-34.4066514402
 20
2.2727079034
 30
0.0
 10
-34.4188338457
 20
2.3305874864
 30
0.0
  0
SPLINE
  5
749
100
AcDbEntity
  8
ASSI
100
AcDbSpline
 62
7
  6
CONTINUOUS
 70
0
 71
3
 72
10
 73
6
 74
0
 42
0.0000001
 43
0.0000001
 44
0.0000000001
 40
0.0
 40
0.0
 40
0.0
 40
0.0
 40
0.1187441487
 40
0.4134156441
 40
1.0
 40
1.0
 40
1.0
 40
1.0
 10
-33.4131393325
 20
2.4697295799
 30
0.0
 10
-33.4169373034
 20
2.4904606244
 30
0.0
 10
-33.4345061732
 20
2.5618618246
 30
0.0
 10
-33.5184346417
 20
2.7225502203
 30
0.0
 10
-33.6679375379
 20
2.8076364984
 30
0.0
 10
-33.769296664
 20
2.831077178
 30
0.0
  0
SPLINE
  5
74A
100
AcDbEntity
  8
ASSI
100
AcDbSpline
 62
7
  6
CONTINUOUS
 70
0
 71
3
 72
10
 73
6
 74
0
 42
0.0000001
 43
0.0000001
 44
0.0000000001
 40
0.0
 40
0.0
 40
0.0
 40
0.0
 40
0.2047034631
 40
0.5819525333
 40
1.0
 40
1.0
 40
1.0
 40
1.0
 10
-34.3443603483
 20
3.6468479778
 30
0.0
 10
-34.3761685376
 20
3.6293868028
 30
0.0
 10
-34.4615241722
 20
3.5703035522
 30
0.0
 10
-34.5720255691
 20
3.4278644269
 30
0.0
 10
-34.6134658028
 20
3.2912079641
 30
0.0
 10
-34.626455036
 20
3.2187448006
 30
0.0
  0
SPLINE
  5
74B
100
AcDbEntity
  8
ASSI
100
AcDbSpline
 62
7
  6
CONTINUOUS
 70
0
 71
3
 72
24
 73
20
 74
0
 42
0.0000001
 43
0.0000001
 44
0.0000000001
 40
0.0
 40
0.0
 40
0.0
 40
0.0
 40
0.0514309364
 40
0.1320192791
 40
0.2025663583
 40
0.2672995774
 40
0.3293613968
 40
0.391969746
 40
0.4582630153
 40
0.4978444158
 40
0.5359032638
 40
0.6101097289
 40
0.6842934869
 40
0.7619758951
 40
0.8427348527
 40
0.8835541282
 40
0.9253641986
 40
0.9872211791
 40
1.0
 40
1.0
 40
1.0
 40
1.0
 10
-36.1138067755
 20
2.3726373728
 30
0.0
 10
-36.1078187301
 20
2.3369060314
 30
0.0
 10
-36.088879077
 20
2.2457795011
 30
0.0
 10
-36.0426147864
 20
2.109862297
 30
0.0
 10
-35.9601293278
 20
1.9803244276
 30
0.0
 10
-35.8584710655
 20
1.8839610819
 30
0.0
 10
-35.743465278
 20
1.8143263084
 30
0.0
 10
-35.6141190144
 20
1.7735214963
 30
0.0
 10
-35.4951940384
 20
1.762782424
 30
0.0
 10
-35.3938227536
 20
1.7685760808
 30
0.0
 10
-35.288576877
 20
1.7888253514
 30
0.0
 10
-35.165945195
 20
1.8407090853
 30
0.0
 10
-35.0416110647
 20
1.9437913387
 30
0.0
 10
-34.9506119149
 20
2.0822747251
 30
0.0
 10
-34.9025693102
 20
2.2154567561
 30
0.0
 10
-34.8832895396
 20
2.329090945
 30
0.0
 10
-34.8779921966
 20
2.4308335932
 30
0.0
 10
-34.8839921719
 20
2.5129604913
 30
0.0
 10
-34.8936284754
 20
2.5646984938
 30
0.0
 10
-34.8954536309
 20
2.5735208313
 30
0.0
  0
SPLINE
  5
74C
100
AcDbEntity
  8
ASSI
100
AcDbSpline
 62
7
  6
CONTINUOUS
 70
0
 71
3
 72
16
 73
12
 74
0
 42
0.0000001
 43
0.0000001
 44
0.0000000001
 40
0.0
 40
0.0
 40
0.0
 40
0.0
 40
0.0716681923
 40
0.1602407834
 40
0.2489751931
 40
0.3359464937
 40
0.4188868604
 40
0.501429145
 40
0.5872567632
 40
0.7870946486
 40
1.0
 40
1.0
 40
1.0
 40
1.0
 10
-34.8954536309
 20
2.5735208313
 30
0.0
 10
-34.9018524998
 20
2.6044513352
 30
0.0
 10
-34.9209763409
 20
2.6726179965
 30
0.0
 10
-34.969270664
 20
2.7718783476
 30
0.0
 10
-35.0416337526
 20
2.8638994412
 30
0.0
 10
-35.1277192884
 20
2.9393721923
 30
0.0
 10
-35.2249743747
 20
2.9947663175
 30
0.0
 10
-35.3315669475
 20
3.027464494
 30
0.0
 10
-35.4935770709
 20
3.042548484
 30
0.0
 10
-35.7166206952
 20
2.9917196668
 30
0.0
 10
-35.8551999446
 20
2.8598985434
 30
0.0
 10
-35.9067857098
 20
2.7816950052
 30
0.0
  0
SPLINE
  5
74D
100
AcDbEntity
  8
ASSI
100
AcDbSpline
 62
7
  6
CONTINUOUS
 70
0
 71
3
 72
24
 73
20
 74
0
 42
0.0000001
 43
0.0000001
 44
0.0000000001
 40
0.0
 40
0.0
 40
0.0
 40
0.0
 40
0.0514309364
 40
0.1320192791
 40
0.2025663583
 40
0.2672995774
 40
0.3293613968
 40
0.391969746
 40
0.4582630153
 40
0.4978444158
 40
0.5359032638
 40
0.6101097289
 40
0.6842934869
 40
0.7619758951
 40
0.8427348527
 40
0.8835541282
 40
0.9253641986
 40
0.9872211791
 40
1.0
 40
1.0
 40
1.0
 40
1.0
 10
-39.0666414825
 20
2.3726373728
 30
0.0
 10
-39.0606534371
 20
2.3369060314
 30
0.0
 10
-39.041713784
 20
2.2457795011
 30
0.0
 10
-38.9954494934
 20
2.109862297
 30
0.0
 10
-38.9129640348
 20
1.9803244276
 30
0.0
 10
-38.8113057725
 20
1.8839610819
 30
0.0
 10
-38.696299985
 20
1.8143263084
 30
0.0
 10
-38.5669537214
 20
1.7735214963
 30
0.0
 10
-38.4480287454
 20
1.762782424
 30
0.0
 10
-38.3466574606
 20
1.7685760808
 30
0.0
 10
-38.241411584
 20
1.7888253514
 30
0.0
 10
-38.118779902
 20
1.8407090853
 30
0.0
 10
-37.9944457716
 20
1.9437913387
 30
0.0
 10
-37.9034466219
 20
2.0822747251
 30
0.0
 10
-37.8554040172
 20
2.2154567561
 30
0.0
 10
-37.8361242466
 20
2.329090945
 30
0.0
 10
-37.8308269036
 20
2.4308335932
 30
0.0
 10
-37.8368268789
 20
2.5129604913
 30
0.0
 10
-37.8464631824
 20
2.5646984938
 30
0.0
 10
-37.8482883379
 20
2.5735208313
 30
0.0
  0
SPLINE
  5
74E
100
AcDbEntity
  8
ASSI
100
AcDbSpline
 62
7
  6
CONTINUOUS
 70
0
 71
3
 72
16
 73
12
 74
0
 42
0.0000001
 43
0.0000001
 44
0.0000000001
 40
0.0
 40
0.0
 40
0.0
 40
0.0
 40
0.0716681923
 40
0.1602407834
 40
0.2489751931
 40
0.3359464937
 40
0.4188868604
 40
0.501429145
 40
0.5872567632
 40
0.7870946486
 40
1.0
 40
1.0
 40
1.0
 40
1.0
 10
-37.8482883379
 20
2.5735208313
 30
0.0
 10
-37.8546872068
 20
2.6044513352
 30
0.0
 10
-37.8738110479
 20
2.6726179965
 30
0.0
 10
-37.922105371
 20
2.7718783476
 30
0.0
 10
-37.9944684596
 20
2.8638994412
 30
0.0
 10
-38.0805539954
 20
2.9393721923
 30
0.0
 10
-38.1778090817
 20
2.9947663175
 30
0.0
 10
-38.2844016545
 20
3.027464494
 30
0.0
 10
-38.4464117779
 20
3.042548484
 30
0.0
 10
-38.6694554022
 20
2.9917196668
 30
0.0
 10
-38.8080346516
 20
2.8598985434
 30
0.0
 10
-38.8596204168
 20
2.7816950052
 30
0.0
  0
SPLINE
  5
74F
100
AcDbEntity
  8
ASSI
100
AcDbSpline
 62
7
  6
CONTINUOUS
 70
0
 71
3
 72
10
 73
6
 74
0
 42
0.0000001
 43
0.0000001
 44
0.0000000001
 40
0.0
 40
0.0
 40
0.0
 40
0.0
 40
0.1187441487
 40
0.4134156441
 40
1.0
 40
1.0
 40
1.0
 40
1.0
 10
-39.3188087465
 20
2.4697295799
 30
0.0
 10
-39.3226067174
 20
2.4904606244
 30
0.0
 10
-39.3401755872
 20
2.5618618246
 30
0.0
 10
-39.4241040557
 20
2.7225502203
 30
0.0
 10
-39.5736069519
 20
2.8076364984
 30
0.0
 10
-39.674966078
 20
2.831077178
 30
0.0
  0
SPLINE
  5
750
100
AcDbEntity
  8
ASSI
100
AcDbSpline
 62
7
  6
CONTINUOUS
 70
0
 71
3
 72
10
 73
6
 74
0
 42
0.0000001
 43
0.0000001
 44
0.0000000001
 40
0.0
 40
0.0
 40
0.0
 40
0.0
 40
0.2047034631
 40
0.5819525333
 40
1.0
 40
1.0
 40
1.0
 40
1.0
 10
-40.2500297623
 20
3.6468479778
 30
0.0
 10
-40.2818379515
 20
3.6293868028
 30
0.0
 10
-40.3671935862
 20
3.5703035522
 30
0.0
 10
-40.4776949831
 20
3.4278644269
 30
0.0
 10
-40.5191352167
 20
3.2912079641
 30
0.0
 10
-40.53212445
 20
3.2187448006
 30
0.0
  0
SPLINE
  5
751
100
AcDbEntity
  8
ASSI
100
AcDbSpline
 62
7
  6
CONTINUOUS
 70
0
 71
3
 72
12
 73
8
 74
0
 42
0.0000001
 43
0.0000001
 44
0.0000000001
 40
0.0
 40
0.0
 40
0.0
 40
0.0
 40
0.1009982855
 40
0.217704019
 40
0.4410700438
 40
0.688240277
 40
1.0
 40
1.0
 40
1.0
 40
1.0
 10
-39.9558982617
 20
1.9616813877
 30
0.0
 10
-39.9750833849
 20
1.9622198765
 30
0.0
 10
-40.0163481614
 20
1.96578459
 30
0.0
 10
-40.0979273246
 20
1.9858329934
 30
0.0
 10
-40.1973099087
 20
2.0436903048
 30
0.0
 10
-40.2826224055
 20
2.1698053183
 30
0.0
 10
-40.3123208542
 20
2.2727079034
 30
0.0
 10
-40.3245032597
 20
2.3305874864
 30
0.0
  0
SPLINE
  5
752
100
AcDbEntity
  8
ASSI
100
AcDbSpline
 62
7
  6
CONTINUOUS
 70
0
 71
3
 72
11
 73
7
 74
0
 42
0.0000001
 43
0.0000001
 44
0.0000000001
 40
0.0
 40
0.0
 40
0.0
 40
0.0
 40
0.089231307
 40
0.3113901877
 40
0.5291800206
 40
1.0
 40
1.0
 40
1.0
 40
1.0
 10
-53.6554256044
 20
3.0633621945
 30
0.0
 10
-53.6491478362
 20
3.0864638727
 30
0.0
 10
-53.6241718288
 20
3.1662381595
 30
0.0
 10
-53.5621273844
 20
3.2954297704
 30
0.0
 10
-53.3862116387
 20
3.4709081875
 30
0.0
 10
-53.1920658444
 20
3.5186420756
 30
0.0
 10
-53.0661723957
 20
3.5186420756
 30
0.0
  0
SPLINE
  5
753
100
AcDbEntity
  8
ASSI
100
AcDbSpline
 62
7
  6
CONTINUOUS
 70
0
 71
3
 72
12
 73
8
 74
0
 42
0.0000001
 43
0.0000001
 44
0.0000000001
 40
0.0
 40
0.0
 40
0.0
 40
0.0
 40
0.1025765978
 40
0.2161664823
 40
0.3240892025
 40
0.5317789563
 40
1.0
 40
1.0
 40
1.0
 40
1.0
 10
-53.8853640057
 20
2.3606199025
 30
0.0
 10
-53.8739021733
 20
2.3246758726
 30
0.0
 10
-53.8463492004
 20
2.2500161832
 30
0.0
 10
-53.7934582213
 20
2.1428221971
 30
0.0
 10
-53.7038502072
 20
2.0124954892
 30
0.0
 10
-53.487970326
 20
1.812731922
 30
0.0
 10
-53.2235365685
 20
1.7653964683
 30
0.0
 10
-53.0513937545
 20
1.7653964683
 30
0.0
  0
SPLINE
  5
754
100
AcDbEntity
  8
ASSI
100
AcDbSpline
 62
7
  6
CONTINUOUS
 70
0
 71
3
 72
12
 73
8
 74
0
 42
0.0000001
 43
0.0000001
 44
0.0000000001
 40
0.0
 40
0.0
 40
0.0
 40
0.0
 40
0.0289732385
 40
0.2799194297
 40
0.5034135291
 40
0.7337877942
 40
1.0
 40
1.0
 40
1.0
 40
1.0
 10
-70.2116951438
 20
2.0364292066
 30
0.0
 10
-70.2162491995
 20
2.0383661497
 30
0.0
 10
-70.2600308729
 20
2.0576109582
 30
0.0
 10
-70.3347799878
 20
2.1014387351
 30
0.0
 10
-70.4171725232
 20
2.191688917
 30
0.0
 10
-70.4663062529
 20
2.3057996788
 30
0.0
 10
-70.4821998077
 20
2.3893492247
 30
0.0
 10
-70.4872484112
 20
2.4343980816
 30
0.0
  0
SPLINE
  5
755
100
AcDbEntity
  8
ASSI
100
AcDbSpline
 62
7
  6
CONTINUOUS
 70
0
 71
3
 72
10
 73
6
 74
0
 42
0.0000001
 43
0.0000001
 44
0.0000000001
 40
0.0
 40
0.0
 40
0.0
 40
0.0
 40
0.2101723731
 40
0.4563781437
 40
1.0
 40
1.0
 40
1.0
 40
1.0
 10
-70.6598803717
 20
3.1901128996
 30
0.0
 10
-70.6584310215
 20
3.1547517237
 30
0.0
 10
-70.6464879096
 20
3.0786792517
 30
0.0
 10
-70.5767312044
 20
2.9235595522
 30
0.0
 10
-70.4657766791
 20
2.8369722245
 30
0.0
 10
-70.3848794759
 20
2.79521204
 30
0.0
  0
SPLINE
  5
756
100
AcDbEntity
  8
RACCORDO
100
AcDbSpline
 62
7
  6
CONTINUOUS
 70
0
 71
3
 72
13
 73
9
 74
0
 42
0.0000001
 43
0.0000001
 44
0.0000000001
 40
0.0
 40
0.0
 40
0.0
 40
0.0
 40
0.0828320369
 40
0.1853340887
 40
0.3032114663
 40
0.4320386148
 40
0.7097459213
 40
1.0
 40
1.0
 40
1.0
 40
1.0
 10
-5.479536346
 20
-46.85
 30
0.0
 10
-5.5351835448
 20
-46.85
 30
0.0
 10
-5.6587820231
 20
-46.8213739443
 30
0.0
 10
-5.8458850333
 20
-46.7410817165
 30
0.0
 10
-6.0524987451
 20
-46.6292142714
 30
0.0
 10
-6.3530646745
 20
-46.4453896694
 30
0.0
 10
-6.7408417194
 20
-46.1828339544
 30
0.0
 10
-7.0523744679
 20
-45.9625803697
 30
0.0
 10
-7.2115871536
 20
-45.85
 30
0.0
  0
SPLINE
  5
757
100
AcDbEntity
  8
RACCORDO
100
AcDbSpline
 62
7
  6
CONTINUOUS
 70
0
 71
3
 72
13
 73
9
 74
0
 42
0.0000001
 43
0.0000001
 44
0.0000000001
 40
0.0
 40
0.0
 40
0.0
 40
0.0
 40
0.2902523906
 40
0.5679594584
 40
0.6967865609
 40
0.8146640264
 40
0.9171667297
 40
1.0
 40
1.0
 40
1.0
 40
1.0
 10
7.2884128464
 20
-45.85
 30
0.0
 10
7.1292010845
 20
-45.9625797165
 30
0.0
 10
6.8176692758
 20
-46.1828323952
 30
0.0
 10
6.4298935598
 20
-46.445387713
 30
0.0
 10
6.129327853
 20
-46.629212441
 30
0.0
 10
5.9227138229
 20
-46.7410802698
 30
0.0
 10
5.7356098035
 20
-46.8213734833
 30
0.0
 10
5.6120100671
 20
-46.85
 30
0.0
 10
5.5563620389
 20
-46.85
 30
0.0
  0
SPLINE
  5
758
100
AcDbEntity
  8
RACCORDO
100
AcDbSpline
 62
7
  6
CONTINUOUS
 70
0
 71
3
 72
13
 73
9
 74
0
 42
0.0000001
 43
0.0000001
 44
0.0000000001
 40
0.0
 40
0.0
 40
0.0
 40
0.0
 40
0.2158485605
 40
0.4464673086
 40
0.5720590714
 40
0.7064164091
 40
0.8499553926
 40
1.0
 40
1.0
 40
1.0
 40
1.0
 10
104.7566092559
 20
-17.1826224212
 30
0.0
 10
104.7488042009
 20
-16.9609206664
 30
0.0
 10
104.6539275846
 20
-16.5019525509
 30
0.0
 10
104.3430544113
 20
-15.9885085453
 30
0.0
 10
103.97727289
 20
-15.6379888306
 30
0.0
 10
103.626573646
 20
-15.4114301562
 30
0.0
 10
103.2133922984
 20
-15.2517848888
 30
0.0
 10
102.9119442593
 20
-15.2065291155
 30
0.0
 10
102.7578276019
 20
-15.2011972268
 30
0.0
  0
SPLINE
  5
759
100
AcDbEntity
  8
RACCORDO
100
AcDbSpline
 62
7
  6
CONTINUOUS
 70
0
 71
3
 72
13
 73
9
 74
0
 42
0.0000001
 43
0.0000001
 44
0.0000000001
 40
0.0
 40
0.0
 40
0.0
 40
0.0
 40
0.1500446074
 40
0.2935835909
 40
0.4279409286
 40
0.5535326914
 40
0.7841514395
 40
1.0
 40
1.0
 40
1.0
 40
1.0
 10
102.7578276019
 20
20.8011972268
 30
0.0
 10
102.9119442593
 20
20.8065291155
 30
0.0
 10
103.2133922984
 20
20.8517848888
 30
0.0
 10
103.626573646
 20
21.0114301562
 30
0.0
 10
103.97727289
 20
21.2379888306
 30
0.0
 10
104.3430544113
 20
21.5885085453
 30
0.0
 10
104.6539275846
 20
22.1019525509
 30
0.0
 10
104.7488042009
 20
22.5609206664
 30
0.0
 10
104.7566092559
 20
22.7826224212
 30
0.0
  0
SPLINE
  5
75A
100
AcDbEntity
  8
RACCORDO
100
AcDbSpline
 62
7
  6
CONTINUOUS
 70
0
 71
3
 72
13
 73
9
 74
0
 42
0.0000001
 43
0.0000001
 44
0.0000000001
 40
0.0
 40
0.0
 40
0.0
 40
0.0
 40
0.1500446074
 40
0.2935835909
 40
0.4279409286
 40
0.5535326914
 40
0.7841514395
 40
1.0
 40
1.0
 40
1.0
 40
1.0
 10
-102.681001909
 20
-15.2011972268
 30
0.0
 10
-102.8351185664
 20
-15.2065291155
 30
0.0
 10
-103.1365666055
 20
-15.2517848888
 30
0.0
 10
-103.5497479531
 20
-15.4114301562
 30
0.0
 10
-103.9004471971
 20
-15.6379888306
 30
0.0
 10
-104.2662287184
 20
-15.9885085453
 30
0.0
 10
-104.5771018917
 20
-16.5019525509
 30
0.0
 10
-104.6719785081
 20
-16.9609206664
 30
0.0
 10
-104.6797835631
 20
-17.1826224212
 30
0.0
  0
SPLINE
  5
75B
100
AcDbEntity
  8
RACCORDO
100
AcDbSpline
 62
7
  6
CONTINUOUS
 70
0
 71
3
 72
13
 73
9
 74
0
 42
0.0000001
 43
0.0000001
 44
0.0000000001
 40
0.0
 40
0.0
 40
0.0
 40
0.0
 40
0.2158485605
 40
0.4464673086
 40
0.5720590714
 40
0.7064164091
 40
0.8499553926
 40
1.0
 40
1.0
 40
1.0
 40
1.0
 10
-104.6797835631
 20
22.7826224212
 30
0.0
 10
-104.6719785081
 20
22.5609206664
 30
0.0
 10
-104.5771018917
 20
22.1019525509
 30
0.0
 10
-104.2662287184
 20
21.5885085453
 30
0.0
 10
-103.9004471971
 20
21.2379888306
 30
0.0
 10
-103.5497479531
 20
21.0114301562
 30
0.0
 10
-103.1365666055
 20
20.8517848888
 30
0.0
 10
-102.8351185664
 20
20.8065291155
 30
0.0
 10
-102.681001909
 20
20.8011972268
 30
0.0
  0
SPLINE
  5
75C
100
AcDbEntity
  8
RACCORDO
100
AcDbSpline
 62
7
  6
CONTINUOUS
 70
0
 71
3
 72
13
 73
9
 74
0
 42
0.0000001
 43
0.0000001
 44
0.0000000001
 40
0.0
 40
0.0
 40
0.0
 40
0.0
 40
0.1498063231
 40
0.2931070866
 40
0.4272776998
 40
0.5527900353
 40
0.7836212783
 40
1.0
 40
1.0
 40
1.0
 40
1.0
 10
62.5396311924
 20
-47.0995732165
 30
0.0
 10
62.5450246623
 20
-47.2541161287
 30
0.0
 10
62.5909138056
 20
-47.5563841647
 30
0.0
 10
62.7526156661
 20
-47.9701592598
 30
0.0
 10
62.9816758263
 20
-48.3208078671
 30
0.0
 10
63.3356917825
 20
-48.6862311705
 30
0.0
 10
63.8534440092
 20
-48.9961599318
 30
0.0
 10
64.3151926439
 20
-49.0905645978
 30
0.0
 10
64.5384128464
 20
-49.0983548705
 30
0.0
  0
SPLINE
  5
75D
100
AcDbEntity
  8
RACCORDO
100
AcDbSpline
 62
7
  6
CONTINUOUS
 70
0
 71
3
 72
13
 73
9
 74
0
 42
0.0000001
 43
0.0000001
 44
0.0000000001
 40
0.0
 40
0.0
 40
0.0
 40
0.0
 40
0.2163787217
 40
0.4472099647
 40
0.5727223002
 40
0.7068929134
 40
0.8501936769
 40
1.0
 40
1.0
 40
1.0
 40
1.0
 10
50.5384128464
 20
-49.0983548705
 30
0.0
 10
50.761633049
 20
-49.0905645978
 30
0.0
 10
51.2233816836
 20
-48.9961599318
 30
0.0
 10
51.7411339104
 20
-48.6862311705
 30
0.0
 10
52.0951498665
 20
-48.3208078671
 30
0.0
 10
52.3242100268
 20
-47.9701592598
 30
0.0
 10
52.4859118873
 20
-47.5563841647
 30
0.0
 10
52.5318010306
 20
-47.2541161287
 30
0.0
 10
52.5371945005
 20
-47.0995732165
 30
0.0
  0
SPLINE
  5
75E
100
AcDbEntity
  8
RACCORDO
100
AcDbSpline
 62
7
  6
CONTINUOUS
 70
0
 71
3
 72
13
 73
9
 74
0
 42
0.0000001
 43
0.0000001
 44
0.0000000001
 40
0.0
 40
0.0
 40
0.0
 40
0.0
 40
0.1498063231
 40
0.2931070866
 40
0.4272776998
 40
0.5527900353
 40
0.7836212783
 40
1.0
 40
1.0
 40
1.0
 40
1.0
 10
52.5371945005
 20
52.6995732165
 30
0.0
 10
52.5318010306
 20
52.8541161287
 30
0.0
 10
52.4859118873
 20
53.1563841647
 30
0.0
 10
52.3242100268
 20
53.5701592598
 30
0.0
 10
52.0951498665
 20
53.9208078671
 30
0.0
 10
51.7411339104
 20
54.2862311705
 30
0.0
 10
51.2233816836
 20
54.5961599318
 30
0.0
 10
50.761633049
 20
54.6905645978
 30
0.0
 10
50.5384128464
 20
54.6983548705
 30
0.0
  0
SPLINE
  5
75F
100
AcDbEntity
  8
RACCORDO
100
AcDbSpline
 62
7
  6
CONTINUOUS
 70
0
 71
3
 72
13
 73
9
 74
0
 42
0.0000001
 43
0.0000001
 44
0.0000000001
 40
0.0
 40
0.0
 40
0.0
 40
0.0
 40
0.2163787217
 40
0.4472099647
 40
0.5727223002
 40
0.7068929134
 40
0.8501936769
 40
1.0
 40
1.0
 40
1.0
 40
1.0
 10
64.5384128464
 20
54.6983548705
 30
0.0
 10
64.3151926439
 20
54.6905645978
 30
0.0
 10
63.8534440092
 20
54.5961599318
 30
0.0
 10
63.3356917825
 20
54.2862311705
 30
0.0
 10
62.9816758263
 20
53.9208078671
 30
0.0
 10
62.7526156661
 20
53.5701592598
 30
0.0
 10
62.5909138056
 20
53.1563841647
 30
0.0
 10
62.5450246623
 20
52.8541161287
 30
0.0
 10
62.5396311924
 20
52.6995732165
 30
0.0
  0
SPLINE
  5
760
100
AcDbEntity
  8
RACCORDO
100
AcDbSpline
 62
7
  6
CONTINUOUS
 70
0
 71
3
 72
13
 73
9
 74
0
 42
0.0000001
 43
0.0000001
 44
0.0000000001
 40
0.0
 40
0.0
 40
0.0
 40
0.0
 40
0.1505774469
 40
0.2942842791
 40
0.4283730485
 40
0.5534824523
 40
0.7834156823
 40
1.0
 40
1.0
 40
1.0
 40
1.0
 10
62.5384890003
 20
22.8000761568
 30
0.0
 10
62.5398565892
 20
22.6433600232
 30
0.0
 10
62.578882543
 20
22.3361663376
 30
0.0
 10
62.7352760751
 20
21.9149081103
 30
0.0
 10
62.9634119517
 20
21.5593120604
 30
0.0
 10
63.3197059764
 20
21.1918888255
 30
0.0
 10
63.8455091659
 20
20.8859587119
 30
0.0
 10
64.312998898
 20
20.8021193935
 30
0.0
 10
64.5384128464
 20
20.8001523106
 30
0.0
  0
SPLINE
  5
761
100
AcDbEntity
  8
RACCORDO
100
AcDbSpline
 62
7
  6
CONTINUOUS
 70
0
 71
3
 72
13
 73
9
 74
0
 42
0.0000001
 43
0.0000001
 44
0.0000000001
 40
0.0
 40
0.0
 40
0.0
 40
0.0
 40
0.2165843177
 40
0.4465175477
 40
0.5716269515
 40
0.7057157209
 40
0.8494225531
 40
1.0
 40
1.0
 40
1.0
 40
1.0
 10
50.5384128464
 20
20.8001523106
 30
0.0
 10
50.7638267949
 20
20.8021193935
 30
0.0
 10
51.231316527
 20
20.8859587119
 30
0.0
 10
51.7571197164
 20
21.1918888255
 30
0.0
 10
52.1134137412
 20
21.5593120604
 30
0.0
 10
52.3415496178
 20
21.9149081103
 30
0.0
 10
52.4979431499
 20
22.3361663376
 30
0.0
 10
52.5369691037
 20
22.6433600232
 30
0.0
 10
52.5383366926
 20
22.8000761568
 30
0.0
  0
SPLINE
  5
762
100
AcDbEntity
  8
RACCORDO
100
AcDbSpline
 62
7
  6
CONTINUOUS
 70
0
 71
3
 72
13
 73
9
 74
0
 42
0.0000001
 43
0.0000001
 44
0.0000000001
 40
0.0
 40
0.0
 40
0.0
 40
0.0
 40
0.1505774469
 40
0.2942842791
 40
0.4283730485
 40
0.5534824523
 40
0.7834156823
 40
1.0
 40
1.0
 40
1.0
 40
1.0
 10
52.5383366926
 20
-17.2000761568
 30
0.0
 10
52.5369691037
 20
-17.0433600232
 30
0.0
 10
52.4979431499
 20
-16.7361663376
 30
0.0
 10
52.3415496178
 20
-16.3149081103
 30
0.0
 10
52.1134137412
 20
-15.9593120604
 30
0.0
 10
51.7571197164
 20
-15.5918888255
 30
0.0
 10
51.231316527
 20
-15.2859587119
 30
0.0
 10
50.7638267949
 20
-15.2021193935
 30
0.0
 10
50.5384128464
 20
-15.2001523106
 30
0.0
  0
SPLINE
  5
763
100
AcDbEntity
  8
RACCORDO
100
AcDbSpline
 62
7
  6
CONTINUOUS
 70
0
 71
3
 72
13
 73
9
 74
0
 42
0.0000001
 43
0.0000001
 44
0.0000000001
 40
0.0
 40
0.0
 40
0.0
 40
0.0
 40
0.2165843177
 40
0.4465175477
 40
0.5716269515
 40
0.7057157209
 40
0.8494225531
 40
1.0
 40
1.0
 40
1.0
 40
1.0
 10
64.5384128464
 20
-15.2001523106
 30
0.0
 10
64.312998898
 20
-15.2021193935
 30
0.0
 10
63.8455091659
 20
-15.2859587119
 30
0.0
 10
63.3197059764
 20
-15.5918888255
 30
0.0
 10
62.9634119517
 20
-15.9593120604
 30
0.0
 10
62.7352760751
 20
-16.3149081103
 30
0.0
 10
62.578882543
 20
-16.7361663376
 30
0.0
 10
62.5398565892
 20
-17.0433600232
 30
0.0
 10
62.5384890003
 20
-17.2000761568
 30
0.0
  0
ELLIPSE
  5
764
100
AcDbEntity
  8
RACCORDO
100
AcDbEllipse
 62
7
  6
CONTINUOUS
 10
-1.9615109895
 20
-36.550076164
 30
0.0
 11
-0.3536610946
 21
0.3536610946
 31
0.0
 40
0.9996954599
 41
-0.7852458701
 42
0.7852458701
  0
ELLIPSE
  5
765
100
AcDbEntity
  8
RACCORDO
100
AcDbEllipse
 62
7
  6
CONTINUOUS
 10
2.0383366824
 20
-36.550076164
 30
0.0
 11
0.3536610946
 21
0.3536610946
 31
0.0
 40
0.9996954599
 41
-0.7852458701
 42
0.7852458701
  0
ELLIPSE
  5
766
100
AcDbEntity
  8
RACCORDO
100
AcDbEllipse
 62
7
  6
CONTINUOUS
 10
2.0383366824
 20
-29.549923836
 30
0.0
 11
0.3536610946
 21
-0.3536610946
 31
0.0
 40
0.9996954599
 41
-0.7852458701
 42
0.7852458701
  0
ELLIPSE
  5
767
100
AcDbEntity
  8
RACCORDO
100
AcDbEllipse
 62
7
  6
CONTINUOUS
 10
-1.9615109895
 20
-29.549923836
 30
0.0
 11
-0.3536610946
 21
-0.3536610946
 31
0.0
 40
0.9996954599
 41
-0.7852458701
 42
0.7852458701
  0
ELLIPSE
  5
768
100
AcDbEntity
  8
RACCORDO
100
AcDbEllipse
 62
7
  6
CONTINUOUS
 10
4.738367148
 20
-54.7499543016
 30
0.0
 11
-0.2121966568
 21
0.2121966568
 31
0.0
 40
0.9996954599
 41
2.3563467834
 42
3.9268385237
  0
ELLIPSE
  5
769
100
AcDbEntity
  8
RACCORDO
100
AcDbEllipse
 62
7
  6
CONTINUOUS
 10
-4.6615414551
 20
-54.7499543016
 30
0.0
 11
0.2121966568
 21
0.2121966568
 31
0.0
 40
0.9996954599
 41
2.3563467834
 42
3.9268385237
  0
ELLIPSE
  5
76A
100
AcDbEntity
  8
RACCORDO
100
AcDbEllipse
 62
7
  6
CONTINUOUS
 10
8.0366673399
 20
-14.7069685577
 30
0.0
 11
0.0
 21
0.1569685577
 31
0.0
 40
0.0174550649
 41
-0.6906913887
 42
0.0000001811
  0
ELLIPSE
  5
76B
100
AcDbEntity
  8
RACCORDO
100
AcDbEllipse
 62
7
  6
CONTINUOUS
 10
-2.9614348255
 20
-36.549847672
 30
0.0
 11
0.7073221892
 21
0.7073221892
 31
0.0
 40
0.9996954599
 41
-3.9268385237
 42
-2.3563467834
  0
ELLIPSE
  5
76C
100
AcDbEntity
  8
RACCORDO
100
AcDbEllipse
 62
7
  6
CONTINUOUS
 10
3.0382605184
 20
-36.549847672
 30
0.0
 11
0.7073221892
 21
-0.7073221892
 31
0.0
 40
0.9996954599
 41
-0.7852458701
 42
0.7852458701
  0
ELLIPSE
  5
76D
100
AcDbEntity
  8
RACCORDO
100
AcDbEllipse
 62
7
  6
CONTINUOUS
 10
3.0382605184
 20
-29.550152328
 30
0.0
 11
0.7073221892
 21
0.7073221892
 31
0.0
 40
0.9996954599
 41
-0.7852458701
 42
0.7852458701
  0
ELLIPSE
  5
76E
100
AcDbEntity
  8
RACCORDO
100
AcDbEllipse
 62
7
  6
CONTINUOUS
 10
-2.9614348255
 20
-29.550152328
 30
0.0
 11
0.7073221892
 21
-0.7073221892
 31
0.0
 40
0.9996954599
 41
2.3563467834
 42
3.9268385237
  0
ELLIPSE
  5
76F
100
AcDbEntity
  8
RACCORDO
100
AcDbEllipse
 62
7
  6
CONTINUOUS
 10
-7.9598416471
 20
-14.7069685577
 30
0.0
 11
-0.0
 21
0.1569685577
 31
0.0
 40
0.0174550649
 41
-0.0000001811
 42
0.6906913887
  0
ELLIPSE
  5
770
100
AcDbEntity
  8
RACCORDO
100
AcDbEllipse
 62
7
  6
CONTINUOUS
 10
8.0401583529
 20
-14.7069685577
 30
0.0
 11
0.0
 21
0.1569685577
 31
0.0
 40
0.0174550649
 41
0.7622693727
 42
1.1344640138
  0
ELLIPSE
  5
771
100
AcDbEntity
  8
RACCORDO
100
AcDbEllipse
 62
7
  6
CONTINUOUS
 10
8.0010060935
 20
-19.3823659172
 30
0.0
 11
0.0
 21
0.1
 31
0.0
 40
0.0174550649
 41
1.1344640138
 42
3.1415926536
  0
ELLIPSE
  5
772
100
AcDbEntity
  8
RACCORDO
100
AcDbEllipse
 62
7
  6
CONTINUOUS
 10
-7.9633326601
 20
-14.7069685577
 30
0.0
 11
0.0
 21
0.1569685577
 31
0.0
 40
0.0174550649
 41
-1.1344640138
 42
-0.6906913887
  0
ELLIPSE
  5
773
100
AcDbEntity
  8
RACCORDO
100
AcDbEllipse
 62
7
  6
CONTINUOUS
 10
-7.9241804006
 20
-19.3823659172
 30
0.0
 11
-0.0
 21
0.1
 31
0.0
 40
0.0174550649
 41
-3.1415926536
 42
-1.1344640138
  0
ELLIPSE
  5
774
100
AcDbEntity
  8
RACCORDO
100
AcDbEllipse
 62
7
  6
CONTINUOUS
 10
-103.461530036
 20
53.5499428824
 30
0.0
 11
1.0607409467
 21
-1.0607409467
 31
0.0
 40
0.9999238505
 41
2.3562325664
 42
3.9269527408
  0
ELLIPSE
  5
775
100
AcDbEntity
  8
RACCORDO
100
AcDbEllipse
 62
7
  6
CONTINUOUS
 10
-103.461530036
 20
-47.9499428824
 30
0.0
 11
-1.0607409467
 21
-1.0607409467
 31
0.0
 40
0.9999238505
 41
-0.7853600872
 42
0.7853600872
  0
ELLIPSE
  5
776
100
AcDbEntity
  8
RACCORDO
100
AcDbEllipse
 62
7
  6
CONTINUOUS
 10
103.5383557289
 20
53.5499428824
 30
0.0
 11
1.0607409467
 21
1.0607409467
 31
0.0
 40
0.9999238505
 41
-0.7853600872
 42
0.7853600872
  0
ELLIPSE
  5
777
100
AcDbEntity
  8
RACCORDO
100
AcDbEllipse
 62
7
  6
CONTINUOUS
 10
103.5383557289
 20
-47.9499428824
 30
0.0
 11
-1.0607409467
 21
1.0607409467
 31
0.0
 40
0.9999238505
 41
2.3562325664
 42
3.9269527408
  0
ELLIPSE
  5
778
100
AcDbEntity
  8
RACCORDO
100
AcDbEllipse
 62
7
  6
CONTINUOUS
 10
103.0371937578
 20
-47.4487809114
 30
0.0
 11
1.4159370892
 21
-1.4159370892
 31
0.0
 40
0.998782766
 41
0.5754927014
 42
0.7847891758
  0
ELLIPSE
  5
779
100
AcDbEntity
  8
RACCORDO
100
AcDbEllipse
 62
7
  6
CONTINUOUS
 10
103.0371937578
 20
-47.4487809114
 30
0.0
 11
-1.4159370892
 21
1.4159370892
 31
0.0
 40
0.998782766
 41
-2.6185219291
 42
-2.5660999522
  0
ELLIPSE
  5
77A
100
AcDbEntity
  8
RACCORDO
100
AcDbEllipse
 62
7
  6
CONTINUOUS
 10
103.0371937578
 20
-47.4487809114
 30
0.0
 11
1.4159370892
 21
-1.4159370892
 31
0.0
 40
0.998782766
 41
-0.5754926252
 42
0.5230707245
  0
ELLIPSE
  5
77B
100
AcDbEntity
  8
RACCORDO
100
AcDbEllipse
 62
7
  6
CONTINUOUS
 10
103.0371937578
 20
-47.4487809114
 30
0.0
 11
-1.4159370892
 21
1.4159370892
 31
0.0
 40
0.998782766
 41
-3.9263818294
 42
-3.7170852788
  0
ELLIPSE
  5
77C
100
AcDbEntity
  8
RACCORDO
100
AcDbEllipse
 62
7
  6
CONTINUOUS
 10
103.0371937578
 20
53.0487809114
 30
0.0
 11
1.4159370892
 21
1.4159370892
 31
0.0
 40
0.998782766
 41
-0.7847891758
 42
0.7847891758
  0
ELLIPSE
  5
77D
100
AcDbEntity
  8
RACCORDO
100
AcDbEllipse
 62
7
  6
CONTINUOUS
 10
-102.960368065
 20
53.0487809114
 30
0.0
 11
1.4159370892
 21
-1.4159370892
 31
0.0
 40
0.998782766
 41
-2.6185219291
 42
-2.3568034778
  0
ELLIPSE
  5
77E
100
AcDbEntity
  8
RACCORDO
100
AcDbEllipse
 62
7
  6
CONTINUOUS
 10
-102.960368065
 20
53.0487809114
 30
0.0
 11
-1.4159370892
 21
1.4159370892
 31
0.0
 40
0.998782766
 41
-0.5230706132
 42
0.5230707245
  0
ELLIPSE
  5
77F
100
AcDbEntity
  8
RACCORDO
100
AcDbEllipse
 62
7
  6
CONTINUOUS
 10
-102.960368065
 20
53.0487809114
 30
0.0
 11
1.4159370892
 21
-1.4159370892
 31
0.0
 40
0.998782766
 41
2.3568034778
 42
2.6185220404
  0
ELLIPSE
  5
780
100
AcDbEntity
  8
RACCORDO
100
AcDbEllipse
 62
7
  6
CONTINUOUS
 10
-102.960368065
 20
-47.4487809114
 30
0.0
 11
1.4159370892
 21
1.4159370892
 31
0.0
 40
0.998782766
 41
-3.9263818294
 42
-2.3568034778
  0
ELLIPSE
  5
781
100
AcDbEntity
  8
RACCORDO
100
AcDbEllipse
 62
7
  6
CONTINUOUS
 10
64.5384128464
 20
52.6297316775
 30
0.0
 11
0.0
 21
2.0012190886
 31
0.0
 40
0.999390827
 41
1.5358897418
 42
1.5707963268
  0
ELLIPSE
  5
782
100
AcDbEntity
  8
RACCORDO
100
AcDbEllipse
 62
7
  6
CONTINUOUS
 10
50.5384128464
 20
52.6297316775
 30
0.0
 11
0.0
 21
2.0012190886
 31
0.0
 40
0.999390827
 41
-1.5707963268
 42
-1.5358897418
  0
ELLIPSE
  5
783
100
AcDbEntity
  8
RACCORDO
100
AcDbEllipse
 62
7
  6
CONTINUOUS
 10
50.5384128464
 20
22.8175298924
 30
0.0
 11
-0.0
 21
2.0000761568
 31
0.0
 40
0.9999619231
 41
-1.5795229731
 42
-1.5707963268
  0
ELLIPSE
  5
784
100
AcDbEntity
  8
RACCORDO
100
AcDbEllipse
 62
7
  6
CONTINUOUS
 10
64.5384128464
 20
22.8175298924
 30
0.0
 11
-0.0
 21
2.0000761568
 31
0.0
 40
0.9999619231
 41
-4.7123889804
 42
-4.7036623341
  0
ELLIPSE
  5
785
100
AcDbEntity
  8
RACCORDO
100
AcDbEllipse
 62
7
  6
CONTINUOUS
 10
50.5384128464
 20
-17.2175298924
 30
0.0
 11
-0.0
 21
2.0000761568
 31
0.0
 40
0.9999619231
 41
-1.5707963268
 42
-1.5620696805
  0
ELLIPSE
  5
786
100
AcDbEntity
  8
RACCORDO
100
AcDbEllipse
 62
7
  6
CONTINUOUS
 10
64.5384128464
 20
-17.2175298924
 30
0.0
 11
-0.0
 21
2.0000761568
 31
0.0
 40
0.9999619231
 41
1.5620696805
 42
1.5707963268
  0
ELLIPSE
  5
787
100
AcDbEntity
  8
RACCORDO
100
AcDbEllipse
 62
7
  6
CONTINUOUS
 10
50.5384128464
 20
-47.0297316775
 30
0.0
 11
-0.0
 21
2.0012190886
 31
0.0
 40
0.999390827
 41
-1.6057029118
 42
-1.5707963268
  0
ELLIPSE
  5
788
100
AcDbEntity
  8
RACCORDO
100
AcDbEllipse
 62
7
  6
CONTINUOUS
 10
64.5384128464
 20
-47.0297316775
 30
0.0
 11
-0.0
 21
2.0012190886
 31
0.0
 40
0.999390827
 41
1.5707963268
 42
1.6057029118
  0
ELLIPSE
  5
789
100
AcDbEntity
  8
RACCORDO
100
AcDbEllipse
 62
7
  6
CONTINUOUS
 10
-102.61116037
 20
-17.2000761568
 30
0.0
 11
1.9415850132
 21
-0.4852114075
 31
0.0
 40
0.9993528196
 41
1.8158377039
 42
1.8504397372
  0
ELLIPSE
  5
78A
100
AcDbEntity
  8
RACCORDO
100
AcDbEllipse
 62
7
  6
CONTINUOUS
 10
-102.61116037
 20
22.8000761568
 30
0.0
 11
1.9415850132
 21
0.4852114075
 31
0.0
 40
0.9993528196
 41
-1.8504397372
 42
-1.8158377039
  0
ELLIPSE
  5
78B
100
AcDbEntity
  8
RACCORDO
100
AcDbEllipse
 62
7
  6
CONTINUOUS
 10
102.6879860629
 20
22.8000761568
 30
0.0
 11
1.9415850132
 21
-0.4852114075
 31
0.0
 40
0.9993528196
 41
-1.3257549497
 42
-1.2911529164
  0
ELLIPSE
  5
78C
100
AcDbEntity
  8
RACCORDO
100
AcDbEllipse
 62
7
  6
CONTINUOUS
 10
102.6879860629
 20
-17.2000761568
 30
0.0
 11
1.9415850132
 21
0.4852114075
 31
0.0
 40
0.9993528196
 41
1.2911529164
 42
1.3257549497
  0
ELLIPSE
  5
78D
100
AcDbEntity
  8
RACCORDO
100
AcDbEllipse
 62
7
  6
CONTINUOUS
 10
-7.2115871536
 20
-47.2533412824
 30
0.0
 11
0.0
 21
2.0736319106
 31
0.0
 40
0.9644913303
 41
-3.1415926536
 42
-1.5707963268
  0
ELLIPSE
  5
78E
100
AcDbEntity
  8
RACCORDO
100
AcDbEllipse
 62
7
  6
CONTINUOUS
 10
7.2884128464
 20
-47.2533412824
 30
0.0
 11
0.0
 21
2.0736319106
 31
0.0
 40
0.9644913303
 41
1.5707963268
 42
3.1415926536
  0
ELLIPSE
  5
78F
100
AcDbEntity
  8
RACCORDO
100
AcDbEllipse
 62
7
  6
CONTINUOUS
 10
-10.1118918096
 20
-17.2000761568
 30
0.0
 11
1.789222233
 21
0.8945429845
 31
0.0
 40
0.9998096356
 41
-0.4635410001
 42
1.1071030277
  0
ELLIPSE
  5
790
100
AcDbEntity
  8
RACCORDO
100
AcDbEllipse
 62
7
  6
CONTINUOUS
 10
10.1887175025
 20
-17.2000761568
 30
0.0
 11
1.789222233
 21
-0.8945429845
 31
0.0
 40
0.9998096356
 41
2.0344896259
 42
3.6051336537
  0
ENDSEC
  0
SECTION
  2
OBJECTS
  0
DICTIONARY
  5
C
100
AcDbDictionary
280
0
281
1
  3
ACAD_GROUP
350
D
  3
ACAD_MLINESTYLE
350
17
  3
ACAD_LAYOUT
350
1A
  3
ACAD_PLOTSETTINGS
350
19
  3
ACAD_PLOTSTYLENAME
350
E
  0
DICTIONARY
  5
D
102
{ACAD_REACTORS
330
C
102
}
100
AcDbDictionary
280
0
281
1
  0
ACDBDICTIONARYWDFLT
  5
E
102
{ACAD_REACTORS
330
C
102
}
100
AcDbDictionary
281
1
  3
Normal
350
F
100
AcDbDictionaryWithDefault
340
F
  0
DICTIONARY
  5
17
102
{ACAD_REACTORS
330
C
102
}
100
AcDbDictionary
280
0
281
1
  3
Standard
350
18
  0
DICTIONARY
  5
19
102
{ACAD_REACTORS
330
C
102
}
100
AcDbDictionary
281
1
  0
DICTIONARY
  5
1A
102
{ACAD_REACTORS
330
C
102
}
100
AcDbDictionary
281
1
  3
Model
350
791
  3
Layout1
350
792
  0
ACDBPLACEHOLDER
  5
F
102
{ACAD_REACTORS
330
E
102
}
  0
MLINESTYLE
  5
18
102
{ACAD_REACTORS
330
17
102
}
100
AcDbMlineStyle
  2
STANDARD
 70
0
  3

 62
256
 51
90.0
 52
90.0
 71
2
 49
0.5
 62
256
  6
BYLAYER
 49
-0.5
 62
256
  6
BYLAYER
  0
LAYOUT
  5
791
102
{ACAD_REACTORS
330
1A
102
}
100
AcDbPlotSettings
  1

  2
none_device
  4
ANSI_C_(22.00_x_17.00_Inches)
  6

 40
0.0
 41
0.0
 42
0.0
 43
0.0
 44
558.8
 45
431.8
 46
0.0
 47
0.0
 48
0.0
 49
0.0
140
0.0
141
0.0
142
1.0
143
1.0
 70
1024
 72
1
 73
0
 74
0
  7

 75
0
147
1.0
148
0.0
149
0.0
100
AcDbLayout
  1
Model
 70
0
 71
0
 10
0.0
 20
0.0
 11
558.8
 21
431.8
 12
0.0
 22
0.0
 32
0.0
 14
0.0
 24
0.0
 34
0.0
 15
0.0
 25
0.0
 35
0.0
146
0.0
 13
0.0
 23
0.0
 33
0.0
 16
1.0
 26
0.0
 36
0.0
 17
0.0
 27
1.0
 37
0.0
 76
0
330
21A
345
0
346
0
  0
LAYOUT
  5
792
102
{ACAD_REACTORS
330
1A
102
}
100
AcDbPlotSettings
  1

  2
none_device
  4
ANSI_C_(22.00_x_17.00_Inches)
  6

 40
0.0
 41
0.0
 42
0.0
 43
0.0
 44
558.8
 45
431.8
 46
0.0
 47
0.0
 48
0.0
 49
0.0
140
0.0
141
0.0
142
1.0
143
1.0
 70
0
 72
1
 73
0
 74
0
  7

 75
0
147
1.0
148
0.0
149
0.0
100
AcDbLayout
  1
Layout1
 70
0
 71
1
 10
0.0
 20
0.0
 11
558.8
 21
431.8
 12
0.0
 22
0.0
 32
0.0
 14
0.0
 24
0.0
 34
0.0
 15
0.0
 25
0.0
 35
0.0
146
0.0
 13
0.0
 23
0.0
 33
0.0
 16
1.0
 26
0.0
 36
0.0
 17
0.0
 27
1.0
 37
0.0
 76
0
330
21B
345
0
346
0
  0
ENDSEC
  0
EOF
